999
********************************
999
*   DXF File - Entities Only   *
999
*        3D Data Format        *
999
*     Output from ENVISAGE     *
999
*     24-Dec-2007 12:30:55     *
999
********************************
  0
SECTION 
  2
HEADER
  9
$ACADVER
  1
AC1009
  9
$EXTMIN
 10
-290000.000
 20
-250000.000
 30
-4000.000
  9
$EXTMAX
 10
5000000.000
 20
600000.000
 30
6000.000
  0
ENDSEC
  0
SECTION
  2
ENTITIES
  0
POLYLINE
  8
T80SSILL
 62
3
 66
     1
 70
     9
  0
VERTEX
  8
T80SSILL
 62
3
 10
1964.924
 20
-4888.280
 30
-2720.340
 70
    32
  0
VERTEX
  8
T80SSILL
 62
3
 10
1961.193
 20
-4897.353
 30
-2720.337
 70
    32
  0
VERTEX
  8
T80SSILL
 62
3
 10
1963.734
 20
-5090.892
 30
-2719.882
 70
    32
  0
VERTEX
  8
T80SSILL
 62
3
 10
1958.313
 20
-5107.023
 30
-2719.852
 70
    32
  0
VERTEX
  8
T80SSILL
 62
3
 10
1953.587
 20
-5114.387
 30
-2719.846
 70
    32
  0
VERTEX
  8
T80SSILL
 62
3
 10
1917.482
 20
-5148.283
 30
-2719.937
 70
    32
  0
VERTEX
  8
T80SSILL
 62
3
 10
1912.680
 20
-5143.401
 30
-2719.945
 70
    32
  0
VERTEX
  8
T80SSILL
 62
3
 10
1904.163
 20
-5115.350
 30
-2720.036
 70
    32
  0
VERTEX
  8
T80SSILL
 62
3
 10
1906.770
 20
-5105.196
 30
-2720.084
 70
    32
  0
VERTEX
  8
T80SSILL
 62
3
 10
1903.978
 20
-5090.544
 30
-2720.114
 70
    32
  0
VERTEX
  8
T80SSILL
 62
3
 10
1876.891
 20
-5004.001
 30
-2720.291
 70
    32
  0
VERTEX
  8
T80SSILL
 62
3
 10
1868.347
 20
-4992.011
 30
-2720.293
 70
    32
  0
VERTEX
  8
T80SSILL
 62
3
 10
1861.109
 20
-4974.846
 30
-2720.298
 70
    32
  0
VERTEX
  8
T80SSILL
 62
3
 10
1859.812
 20
-4962.660
 30
-2720.301
 70
    32
  0
VERTEX
  8
T80SSILL
 62
3
 10
1863.149
 20
-4948.818
 30
-2720.306
 70
    32
  0
VERTEX
  8
T80SSILL
 62
3
 10
1871.632
 20
-4938.051
 30
-2720.311
 70
    32
  0
VERTEX
  8
T80SSILL
 62
3
 10
1942.214
 20
-4887.869
 30
-2720.337
 70
    32
  0
VERTEX
  8
T80SSILL
 62
3
 10
1955.474
 20
-4888.322
 30
-2720.339
 70
    32
  0
VERTEX
  8
T80SSILL
 62
3
 10
1963.599
 20
-4882.629
 30
-2720.342
 70
    32
  0
SEQEND
  8
T80SSILL
  0
POLYLINE
  8
T80SSILL
 62
3
 66
     1
 70
     9
  0
VERTEX
  8
T80SSILL
 62
3
 10
1968.438
 20
-5792.754
 30
-2718.250
 70
    32
  0
VERTEX
  8
T80SSILL
 62
3
 10
1973.118
 20
-5796.433
 30
-2718.287
 70
    32
  0
VERTEX
  8
T80SSILL
 62
3
 10
1973.988
 20
-5837.819
 30
-2718.175
 70
    32
  0
VERTEX
  8
T80SSILL
 62
3
 10
1966.166
 20
-5844.064
 30
-2718.077
 70
    32
  0
VERTEX
  8
T80SSILL
 62
3
 10
1970.210
 20
-5849.830
 30
-2718.101
 70
    32
  0
VERTEX
  8
T80SSILL
 62
3
 10
1973.882
 20
-5847.515
 30
-2718.145
 70
    32
  0
VERTEX
  8
T80SSILL
 62
3
 10
1975.496
 20
-5960.951
 30
-2717.580
 70
    32
  0
VERTEX
  8
T80SSILL
 62
3
 10
1967.675
 20
-5966.802
 30
-2717.417
 70
    32
  0
VERTEX
  8
T80SSILL
 62
3
 10
1971.247
 20
-5972.212
 30
-2717.445
 70
    32
  0
VERTEX
  8
T80SSILL
 62
3
 10
1975.591
 20
-5969.071
 30
-2717.535
 70
    32
  0
VERTEX
  8
T80SSILL
 62
3
 10
1977.553
 20
-6084.795
 30
-2717.190
 70
    32
  0
VERTEX
  8
T80SSILL
 62
3
 10
1970.207
 20
-6090.213
 30
-2717.147
 70
    32
  0
VERTEX
  8
T80SSILL
 62
3
 10
1974.447
 20
-6096.176
 30
-2717.169
 70
    32
  0
VERTEX
  8
T80SSILL
 62
3
 10
1978.039
 20
-6094.295
 30
-2717.190
 70
    32
  0
VERTEX
  8
T80SSILL
 62
3
 10
1979.192
 20
-6203.237
 30
-2717.164
 70
    32
  0
VERTEX
  8
T80SSILL
 62
3
 10
1971.621
 20
-6204.634
 30
-2717.079
 70
    32
  0
VERTEX
  8
T80SSILL
 62
3
 10
1971.599
 20
-6212.714
 30
-2717.068
 70
    32
  0
VERTEX
  8
T80SSILL
 62
3
 10
1979.158
 20
-6215.652
 30
-2717.148
 70
    32
  0
VERTEX
  8
T80SSILL
 62
3
 10
1979.948
 20
-6257.078
 30
-2717.033
 70
    32
  0
VERTEX
  8
T80SSILL
 62
3
 10
1973.446
 20
-6270.736
 30
-2716.929
 70
    32
  0
VERTEX
  8
T80SSILL
 62
3
 10
1972.357
 20
-6279.640
 30
-2716.856
 70
    32
  0
VERTEX
  8
T80SSILL
 62
3
 10
1964.487
 20
-6289.156
 30
-2716.790
 70
    32
  0
VERTEX
  8
T80SSILL
 62
3
 10
1950.859
 20
-6300.154
 30
-2716.721
 70
    32
  0
VERTEX
  8
T80SSILL
 62
3
 10
1945.719
 20
-6305.855
 30
-2716.669
 70
    32
  0
VERTEX
  8
T80SSILL
 62
3
 10
1942.294
 20
-6304.308
 30
-2716.633
 70
    32
  0
VERTEX
  8
T80SSILL
 62
3
 10
1941.435
 20
-6231.233
 30
-2716.714
 70
    32
  0
VERTEX
  8
T80SSILL
 62
3
 10
1953.825
 20
-6227.997
 30
-2716.854
 70
    32
  0
VERTEX
  8
T80SSILL
 62
3
 10
1952.588
 20
-6222.144
 30
-2716.848
 70
    32
  0
VERTEX
  8
T80SSILL
 62
3
 10
1940.846
 20
-6216.372
 30
-2716.726
 70
    32
  0
VERTEX
  8
T80SSILL
 62
3
 10
1939.318
 20
-6029.982
 30
-2716.940
 70
    32
  0
VERTEX
  8
T80SSILL
 62
3
 10
1947.268
 20
-6020.032
 30
-2717.037
 70
    32
  0
VERTEX
  8
T80SSILL
 62
3
 10
1945.358
 20
-6012.223
 30
-2717.028
 70
    32
  0
VERTEX
  8
T80SSILL
 62
3
 10
1939.101
 20
-6008.934
 30
-2716.963
 70
    32
  0
VERTEX
  8
T80SSILL
 62
3
 10
1937.025
 20
-5877.327
 30
-2717.550
 70
    32
  0
VERTEX
  8
T80SSILL
 62
3
 10
1941.618
 20
-5855.859
 30
-2717.782
 70
    32
  0
VERTEX
  8
T80SSILL
 62
3
 10
1941.841
 20
-5846.795
 30
-2717.820
 70
    32
  0
VERTEX
  8
T80SSILL
 62
3
 10
1945.169
 20
-5840.616
 30
-2717.872
 70
    32
  0
SEQEND
  8
T80SSILL
  0
POLYLINE
  8
T80SSILL
 62
3
 66
     1
 70
     9
  0
VERTEX
  8
T80SSILL
 62
3
 10
1969.941
 20
-5432.991
 30
-2719.161
 70
    32
  0
VERTEX
  8
T80SSILL
 62
3
 10
1968.941
 20
-5472.127
 30
-2718.872
 70
    32
  0
VERTEX
  8
T80SSILL
 62
3
 10
1960.411
 20
-5478.133
 30
-2718.756
 70
    32
  0
VERTEX
  8
T80SSILL
 62
3
 10
1964.534
 20
-5483.662
 30
-2718.746
 70
    32
  0
VERTEX
  8
T80SSILL
 62
3
 10
1968.560
 20
-5481.466
 30
-2718.796
 70
    32
  0
VERTEX
  8
T80SSILL
 62
3
 10
1969.711
 20
-5506.970
 30
-2718.725
 70
    32
  0
VERTEX
  8
T80SSILL
 62
3
 10
1959.241
 20
-5530.077
 30
-2718.589
 70
    32
  0
VERTEX
  8
T80SSILL
 62
3
 10
1957.761
 20
-5531.204
 30
-2718.572
 70
    32
  0
VERTEX
  8
T80SSILL
 62
3
 10
1949.066
 20
-5532.374
 30
-2718.480
 70
    32
  0
VERTEX
  8
T80SSILL
 62
3
 10
1931.524
 20
-5533.310
 30
-2718.296
 70
    32
  0
VERTEX
  8
T80SSILL
 62
3
 10
1856.797
 20
-5533.022
 30
-2717.517
 70
    32
  0
VERTEX
  8
T80SSILL
 62
3
 10
1850.222
 20
-5530.678
 30
-2717.452
 70
    32
  0
VERTEX
  8
T80SSILL
 62
3
 10
1839.873
 20
-5524.698
 30
-2717.415
 70
    32
  0
VERTEX
  8
T80SSILL
 62
3
 10
1832.375
 20
-5513.759
 30
-2717.415
 70
    32
  0
VERTEX
  8
T80SSILL
 62
3
 10
1829.995
 20
-5505.003
 30
-2717.434
 70
    32
  0
VERTEX
  8
T80SSILL
 62
3
 10
1829.183
 20
-5485.333
 30
-2717.544
 70
    32
  0
VERTEX
  8
T80SSILL
 62
3
 10
1830.052
 20
-5431.725
 30
-2717.971
 70
    32
  0
VERTEX
  8
T80SSILL
 62
3
 10
1956.547
 20
-5429.110
 30
-2719.048
 70
    32
  0
SEQEND
  8
T80SSILL
  0
POLYLINE
  8
T80SSILL
 62
3
 66
     1
 70
     9
  0
VERTEX
  8
T80SSILL
 62
3
 10
1959.310
 20
-5368.527
 30
-2719.364
 70
    32
  0
VERTEX
  8
T80SSILL
 62
3
 10
1962.884
 20
-5373.861
 30
-2719.374
 70
    32
  0
VERTEX
  8
T80SSILL
 62
3
 10
1968.081
 20
-5370.877
 30
-2719.439
 70
    32
  0
VERTEX
  8
T80SSILL
 62
3
 10
1967.982
 20
-5379.889
 30
-2719.395
 70
    32
  0
VERTEX
  8
T80SSILL
 62
3
 10
1945.959
 20
-5380.828
 30
-2719.173
 70
    32
  0
VERTEX
  8
T80SSILL
 62
3
 10
1945.841
 20
-5400.117
 30
-2719.080
 70
    32
  0
VERTEX
  8
T80SSILL
 62
3
 10
1942.286
 20
-5400.846
 30
-2719.041
 70
    32
  0
VERTEX
  8
T80SSILL
 62
3
 10
1915.819
 20
-5399.075
 30
-2718.791
 70
    32
  0
VERTEX
  8
T80SSILL
 62
3
 10
1908.460
 20
-5410.922
 30
-2718.659
 70
    32
  0
VERTEX
  8
T80SSILL
 62
3
 10
1905.232
 20
-5413.310
 30
-2718.615
 70
    32
  0
VERTEX
  8
T80SSILL
 62
3
 10
1829.374
 20
-5413.014
 30
-2718.114
 70
    32
  0
VERTEX
  8
T80SSILL
 62
3
 10
1826.989
 20
-5344.591
 30
-2718.636
 70
    32
  0
VERTEX
  8
T80SSILL
 62
3
 10
1830.494
 20
-5332.523
 30
-2718.754
 70
    32
  0
VERTEX
  8
T80SSILL
 62
3
 10
1833.996
 20
-5325.415
 30
-2718.832
 70
    32
  0
VERTEX
  8
T80SSILL
 62
3
 10
1840.988
 20
-5316.750
 30
-2718.947
 70
    32
  0
VERTEX
  8
T80SSILL
 62
3
 10
1846.131
 20
-5312.780
 30
-2719.012
 70
    32
  0
VERTEX
  8
T80SSILL
 62
3
 10
1856.647
 20
-5310.117
 30
-2719.101
 70
    32
  0
VERTEX
  8
T80SSILL
 62
3
 10
1936.227
 20
-5309.175
 30
-2719.615
 70
    32
  0
VERTEX
  8
T80SSILL
 62
3
 10
1966.240
 20
-5313.091
 30
-2719.634
 70
    32
  0
VERTEX
  8
T80SSILL
 62
3
 10
1967.476
 20
-5361.911
 30
-2719.476
 70
    32
  0
VERTEX
  8
T80SSILL
 62
3
 10
1964.291
 20
-5364.869
 30
-2719.431
 70
    32
  0
SEQEND
  8
T80SSILL
  0
POLYLINE
  8
T80SSILL
 62
3
 66
     1
 70
     9
  0
VERTEX
  8
T80SSILL
 62
3
 10
1810.268
 20
-5385.800
 30
-2718.202
 70
    32
  0
VERTEX
  8
T80SSILL
 62
3
 10
1807.562
 20
-5408.889
 30
-2718.003
 70
    32
  0
VERTEX
  8
T80SSILL
 62
3
 10
1807.740
 20
-5444.125
 30
-2717.727
 70
    32
  0
VERTEX
  8
T80SSILL
 62
3
 10
1810.910
 20
-5452.096
 30
-2717.685
 70
    32
  0
VERTEX
  8
T80SSILL
 62
3
 10
1812.838
 20
-5509.487
 30
-2717.247
 70
    32
  0
VERTEX
  8
T80SSILL
 62
3
 10
1815.644
 20
-5520.886
 30
-2717.216
 70
    32
  0
VERTEX
  8
T80SSILL
 62
3
 10
1820.739
 20
-5530.950
 30
-2717.210
 70
    32
  0
VERTEX
  8
T80SSILL
 62
3
 10
1779.748
 20
-5531.624
 30
-2716.855
 70
    32
  0
VERTEX
  8
T80SSILL
 62
3
 10
1770.952
 20
-5519.854
 30
-2716.890
 70
    32
  0
VERTEX
  8
T80SSILL
 62
3
 10
1768.131
 20
-5415.085
 30
-2717.695
 70
    32
  0
VERTEX
  8
T80SSILL
 62
3
 10
1768.843
 20
-5385.371
 30
-2717.933
 70
    32
  0
VERTEX
  8
T80SSILL
 62
3
 10
1767.283
 20
-5343.575
 30
-2718.252
 70
    32
  0
VERTEX
  8
T80SSILL
 62
3
 10
1768.285
 20
-5320.876
 30
-2718.437
 70
    32
  0
VERTEX
  8
T80SSILL
 62
3
 10
1773.134
 20
-5306.034
 30
-2718.585
 70
    32
  0
VERTEX
  8
T80SSILL
 62
3
 10
1780.252
 20
-5294.458
 30
-2718.723
 70
    32
  0
VERTEX
  8
T80SSILL
 62
3
 10
1795.804
 20
-5277.548
 30
-2718.958
 70
    32
  0
VERTEX
  8
T80SSILL
 62
3
 10
1824.078
 20
-5305.962
 30
-2718.920
 70
    32
  0
VERTEX
  8
T80SSILL
 62
3
 10
1817.600
 20
-5312.116
 30
-2718.829
 70
    32
  0
VERTEX
  8
T80SSILL
 62
3
 10
1814.164
 20
-5317.571
 30
-2718.764
 70
    32
  0
VERTEX
  8
T80SSILL
 62
3
 10
1810.420
 20
-5327.431
 30
-2718.662
 70
    32
  0
VERTEX
  8
T80SSILL
 62
3
 10
1809.388
 20
-5342.374
 30
-2718.538
 70
    32
  0
SEQEND
  8
T80SSILL
  0
POLYLINE
  8
T80SSILL
 62
3
 66
     1
 70
     9
  0
VERTEX
  8
T80SSILL
 62
3
 10
1840.988
 20
-5234.083
 30
-2719.596
 70
    32
  0
VERTEX
  8
T80SSILL
 62
3
 10
1911.669
 20
-5166.691
 30
-2719.848
 70
    32
  0
VERTEX
  8
T80SSILL
 62
3
 10
1959.895
 20
-5277.437
 30
-2719.652
 70
    32
  0
VERTEX
  8
T80SSILL
 62
3
 10
1957.060
 20
-5287.076
 30
-2719.644
 70
    32
  0
VERTEX
  8
T80SSILL
 62
3
 10
1936.253
 20
-5293.113
 30
-2719.625
 70
    32
  0
VERTEX
  8
T80SSILL
 62
3
 10
1921.775
 20
-5292.522
 30
-2719.616
 70
    32
  0
VERTEX
  8
T80SSILL
 62
3
 10
1920.935
 20
-5278.887
 30
-2719.624
 70
    32
  0
VERTEX
  8
T80SSILL
 62
3
 10
1911.133
 20
-5278.844
 30
-2719.617
 70
    32
  0
VERTEX
  8
T80SSILL
 62
3
 10
1909.608
 20
-5292.638
 30
-2719.587
 70
    32
  0
VERTEX
  8
T80SSILL
 62
3
 10
1850.335
 20
-5294.030
 30
-2719.186
 70
    32
  0
VERTEX
  8
T80SSILL
 62
3
 10
1833.974
 20
-5300.298
 30
-2719.030
 70
    32
  0
VERTEX
  8
T80SSILL
 62
3
 10
1810.177
 20
-5274.909
 30
-2719.073
 70
    32
  0
VERTEX
  8
T80SSILL
 62
3
 10
1811.767
 20
-5261.943
 30
-2719.185
 70
    32
  0
SEQEND
  8
T80SSILL
  0
POLYLINE
  8
T80SSILL
 62
3
 66
     1
 70
     9
  0
VERTEX
  8
T80SSILL
 62
3
 10
1953.226
 20
-5125.969
 30
-2719.814
 70
    32
  0
VERTEX
  8
T80SSILL
 62
3
 10
1961.413
 20
-5117.270
 30
-2719.814
 70
    32
  0
VERTEX
  8
T80SSILL
 62
3
 10
1964.355
 20
-5117.909
 30
-2719.804
 70
    32
  0
VERTEX
  8
T80SSILL
 62
3
 10
1965.882
 20
-5229.151
 30
-2719.710
 70
    32
  0
VERTEX
  8
T80SSILL
 62
3
 10
1957.751
 20
-5235.238
 30
-2719.689
 70
    32
  0
VERTEX
  8
T80SSILL
 62
3
 10
1962.393
 20
-5240.235
 30
-2719.680
 70
    32
  0
VERTEX
  8
T80SSILL
 62
3
 10
1966.493
 20
-5237.507
 30
-2719.702
 70
    32
  0
VERTEX
  8
T80SSILL
 62
3
 10
1966.323
 20
-5259.945
 30
-2719.668
 70
    32
  0
VERTEX
  8
T80SSILL
 62
3
 10
1960.778
 20
-5259.539
 30
-2719.664
 70
    32
  0
VERTEX
  8
T80SSILL
 62
3
 10
1957.951
 20
-5254.296
 30
-2719.666
 70
    32
  0
VERTEX
  8
T80SSILL
 62
3
 10
1918.707
 20
-5160.035
 30
-2719.893
 70
    32
  0
VERTEX
  8
T80SSILL
 62
3
 10
1945.868
 20
-5133.787
 30
-2719.855
 70
    32
  0
SEQEND
  8
T80SSILL
  0
POLYLINE
  8
T80SSILL
 62
7
 66
     1
 70
     9
  0
VERTEX
  8
T80SSILL
 62
7
 10
2284.562
 20
-7240.685
 30
-2712.152
 70
    32
  0
VERTEX
  8
T80SSILL
 62
7
 10
2299.844
 20
-7260.777
 30
-2711.029
 70
    32
  0
VERTEX
  8
T80SSILL
 62
7
 10
2312.026
 20
-7267.826
 30
-2710.355
 70
    32
  0
VERTEX
  8
T80SSILL
 62
7
 10
2300.645
 20
-7242.785
 30
-2712.089
 70
    32
  0
SEQEND
  8
T80SSILL
  0
TEXT
  8
T80SSILL
 62
3
 10
2881.371
 20
-6328.316
 30
-2707.411
 40
0.200
  1
8000
 41
 1.0 
  0
POLYLINE
  8
T80SSILL
 62
7
 66
     1
 70
     8
  0
VERTEX
  8
T80SSILL
 62
7
 10
2250.557
 20
-7227.169
 30
-2711.229
 70
    32
  0
VERTEX
  8
T80SSILL
 62
7
 10
2253.294
 20
-7227.008
 30
-2711.162
 70
    32
  0
VERTEX
  8
T80SSILL
 62
7
 10
2253.879
 20
-7226.629
 30
-2711.101
 70
    32
  0
VERTEX
  8
T80SSILL
 62
7
 10
2254.247
 20
-7219.310
 30
-2710.114
 70
    32
  0
VERTEX
  8
T80SSILL
 62
7
 10
2256.480
 20
-7216.707
 30
-2709.728
 70
    32
  0
VERTEX
  8
T80SSILL
 62
7
 10
2249.962
 20
-7204.291
 30
-2708.104
 70
    32
  0
VERTEX
  8
T80SSILL
 62
7
 10
2273.992
 20
-7207.455
 30
-2708.196
 70
    32
  0
VERTEX
  8
T80SSILL
 62
7
 10
2272.249
 20
-7217.289
 30
-2709.543
 70
    32
  0
VERTEX
  8
T80SSILL
 62
7
 10
2275.394
 20
-7221.535
 30
-2710.060
 70
    32
  0
VERTEX
  8
T80SSILL
 62
7
 10
2285.792
 20
-7229.122
 30
-2710.903
 70
    32
  0
VERTEX
  8
T80SSILL
 62
7
 10
2296.541
 20
-7233.172
 30
-2711.267
 70
    32
  0
SEQEND
  8
T80SSILL
  0
TEXT
  8
T80SSILL
 62
7
 10
2242.144
 20
-7212.322
 30
-2710.355
 40
0.200
  1
D
 50
149.945
 41
 1.0 
  0
TEXT
  8
T80SSILL
 62
7
 10
2323.038
 20
-7263.223
 30
-2710.355
 40
0.200
  1
U
 50
149.945
 41
 1.0 
  0
LINE
  8
T80SSILL
 62
3
 10
2008.095
 20
-6983.100
 30
-2711.000
 11
2017.184
 21
-6987.292
 31
-2711.000
  0
POLYLINE
  8
T80SSILL
 62
3
 66
     1
 70
     9
  0
VERTEX
  8
T80SSILL
 62
3
 10
2015.207
 20
-6971.301
 30
-2707.000
 70
    32
  0
VERTEX
  8
T80SSILL
 62
3
 10
2025.789
 20
-6976.182
 30
-2707.000
 70
    32
  0
VERTEX
  8
T80SSILL
 62
3
 10
2031.774
 20
-6982.104
 30
-2707.000
 70
    32
  0
VERTEX
  8
T80SSILL
 62
3
 10
2031.522
 20
-6985.752
 30
-2707.000
 70
    32
  0
VERTEX
  8
T80SSILL
 62
3
 10
2017.779
 20
-6984.194
 30
-2707.000
 70
    32
  0
VERTEX
  8
T80SSILL
 62
3
 10
2017.054
 20
-6985.030
 30
-2707.000
 70
    32
  0
VERTEX
  8
T80SSILL
 62
3
 10
2010.760
 20
-6982.127
 30
-2707.000
 70
    32
  0
VERTEX
  8
T80SSILL
 62
3
 10
2014.425
 20
-6973.656
 30
-2707.000
 70
    32
  0
SEQEND
  8
T80SSILL
  0
LINE
  8
T80SSILL
 62
3
 10
2014.014
 20
-6968.548
 30
-2711.000
 11
2022.469
 21
-6972.448
 31
-2711.000
  0
POLYLINE
  8
T80SSILL
 62
3
 66
     1
 70
     8
  0
VERTEX
  8
T80SSILL
 62
3
 10
2022.469
 20
-6972.448
 30
-2711.000
 70
    32
  0
VERTEX
  8
T80SSILL
 62
3
 10
2021.471
 20
-6974.729
 30
-2711.000
 70
    32
  0
VERTEX
  8
T80SSILL
 62
3
 10
2019.538
 20
-6981.655
 30
-2711.000
 70
    32
  0
VERTEX
  8
T80SSILL
 62
3
 10
2017.184
 20
-6987.292
 30
-2711.000
 70
    32
  0
SEQEND
  8
T80SSILL
  0
LINE
  8
T80SSILL
 62
3
 10
2014.014
 20
-6968.548
 30
-2711.000
 11
2008.095
 21
-6983.100
 31
-2711.000
  0
LINE
  8
T80SSILL
 62
3
 10
2014.014
 20
-6968.548
 30
-2711.000
 11
2015.207
 21
-6971.301
 31
-2707.000
  0
LINE
  8
T80SSILL
 62
3
 10
2010.760
 20
-6982.127
 30
-2707.000
 11
2008.095
 21
-6983.100
 31
-2711.000
  0
LINE
  8
T80SSILL
 62
3
 10
2033.373
 20
-6987.975
 30
-2713.364
 11
2031.522
 21
-6985.752
 31
-2707.000
  0
LINE
  8
T80SSILL
 62
3
 10
2033.832
 20
-6981.327
 30
-2713.986
 11
2031.774
 21
-6982.104
 31
-2707.000
  0
LINE
  8
T80SSILL
 62
3
 10
2014.014
 20
-6968.548
 30
-2711.000
 11
2014.398
 21
-6967.389
 31
-2717.239
  0
LINE
  8
T80SSILL
 62
3
 10
2008.095
 20
-6983.100
 30
-2711.000
 11
2007.631
 21
-6984.176
 31
-2716.204
  0
LINE
  8
T80SSILL
 62
3
 10
2017.184
 20
-6987.292
 30
-2711.000
 11
2018.600
 21
-6986.300
 31
-2714.943
  0
LINE
  8
T80SSILL
 62
3
 10
2022.469
 20
-6972.448
 30
-2711.000
 11
2023.800
 21
-6971.400
 31
-2715.939
  0
LINE
  8
T80SSILL
 62
3
 10
2017.054
 20
-6985.030
 30
-2707.000
 11
2017.184
 21
-6987.292
 31
-2711.000
  0
LINE
  8
T80SSILL
 62
3
 10
2022.469
 20
-6972.448
 30
-2711.000
 11
2022.624
 21
-6974.722
 31
-2707.000
  0
TEXT
  8
T80SSILL
 62
6
 10
2136.576
 20
-7402.073
 30
-2689.670
 40
2.000
  1
BK-2689.6
 41
 1.0 
  0
POLYLINE
  8
T80SSILL
 62
6
 66
     1
 70
     8
  0
VERTEX
  8
T80SSILL
 62
6
 10
2148.671
 20
-7403.087
 30
-2689.670
 70
    32
  0
VERTEX
  8
T80SSILL
 62
6
 10
2148.669
 20
-7403.044
 30
-2689.670
 70
    32
  0
VERTEX
  8
T80SSILL
 62
6
 10
2148.663
 20
-7403.000
 30
-2689.670
 70
    32
  0
VERTEX
  8
T80SSILL
 62
6
 10
2148.654
 20
-7402.958
 30
-2689.670
 70
    32
  0
VERTEX
  8
T80SSILL
 62
6
 10
2148.640
 20
-7402.916
 30
-2689.670
 70
    32
  0
VERTEX
  8
T80SSILL
 62
6
 10
2148.624
 20
-7402.876
 30
-2689.670
 70
    32
  0
VERTEX
  8
T80SSILL
 62
6
 10
2148.604
 20
-7402.837
 30
-2689.670
 70
    32
  0
VERTEX
  8
T80SSILL
 62
6
 10
2148.580
 20
-7402.800
 30
-2689.670
 70
    32
  0
VERTEX
  8
T80SSILL
 62
6
 10
2148.554
 20
-7402.766
 30
-2689.670
 70
    32
  0
VERTEX
  8
T80SSILL
 62
6
 10
2148.524
 20
-7402.734
 30
-2689.670
 70
    32
  0
VERTEX
  8
T80SSILL
 62
6
 10
2148.492
 20
-7402.704
 30
-2689.670
 70
    32
  0
VERTEX
  8
T80SSILL
 62
6
 10
2148.457
 20
-7402.678
 30
-2689.670
 70
    32
  0
VERTEX
  8
T80SSILL
 62
6
 10
2148.421
 20
-7402.654
 30
-2689.670
 70
    32
  0
VERTEX
  8
T80SSILL
 62
6
 10
2148.382
 20
-7402.634
 30
-2689.670
 70
    32
  0
VERTEX
  8
T80SSILL
 62
6
 10
2148.342
 20
-7402.617
 30
-2689.670
 70
    32
  0
VERTEX
  8
T80SSILL
 62
6
 10
2148.300
 20
-7402.604
 30
-2689.670
 70
    32
  0
VERTEX
  8
T80SSILL
 62
6
 10
2148.257
 20
-7402.595
 30
-2689.670
 70
    32
  0
VERTEX
  8
T80SSILL
 62
6
 10
2148.214
 20
-7402.589
 30
-2689.670
 70
    32
  0
VERTEX
  8
T80SSILL
 62
6
 10
2148.171
 20
-7402.587
 30
-2689.670
 70
    32
  0
VERTEX
  8
T80SSILL
 62
6
 10
2148.127
 20
-7402.589
 30
-2689.670
 70
    32
  0
VERTEX
  8
T80SSILL
 62
6
 10
2148.084
 20
-7402.595
 30
-2689.670
 70
    32
  0
VERTEX
  8
T80SSILL
 62
6
 10
2148.041
 20
-7402.604
 30
-2689.670
 70
    32
  0
VERTEX
  8
T80SSILL
 62
6
 10
2148.000
 20
-7402.617
 30
-2689.670
 70
    32
  0
VERTEX
  8
T80SSILL
 62
6
 10
2147.959
 20
-7402.634
 30
-2689.670
 70
    32
  0
VERTEX
  8
T80SSILL
 62
6
 10
2147.921
 20
-7402.654
 30
-2689.670
 70
    32
  0
VERTEX
  8
T80SSILL
 62
6
 10
2147.884
 20
-7402.678
 30
-2689.670
 70
    32
  0
VERTEX
  8
T80SSILL
 62
6
 10
2147.849
 20
-7402.704
 30
-2689.670
 70
    32
  0
VERTEX
  8
T80SSILL
 62
6
 10
2147.817
 20
-7402.734
 30
-2689.670
 70
    32
  0
VERTEX
  8
T80SSILL
 62
6
 10
2147.788
 20
-7402.766
 30
-2689.670
 70
    32
  0
VERTEX
  8
T80SSILL
 62
6
 10
2147.761
 20
-7402.800
 30
-2689.670
 70
    32
  0
VERTEX
  8
T80SSILL
 62
6
 10
2147.738
 20
-7402.837
 30
-2689.670
 70
    32
  0
VERTEX
  8
T80SSILL
 62
6
 10
2147.717
 20
-7402.876
 30
-2689.670
 70
    32
  0
VERTEX
  8
T80SSILL
 62
6
 10
2147.701
 20
-7402.916
 30
-2689.670
 70
    32
  0
VERTEX
  8
T80SSILL
 62
6
 10
2147.688
 20
-7402.958
 30
-2689.670
 70
    32
  0
VERTEX
  8
T80SSILL
 62
6
 10
2147.678
 20
-7403.000
 30
-2689.670
 70
    32
  0
VERTEX
  8
T80SSILL
 62
6
 10
2147.673
 20
-7403.044
 30
-2689.670
 70
    32
  0
VERTEX
  8
T80SSILL
 62
6
 10
2147.671
 20
-7403.087
 30
-2689.670
 70
    32
  0
VERTEX
  8
T80SSILL
 62
6
 10
2147.673
 20
-7403.131
 30
-2689.670
 70
    32
  0
VERTEX
  8
T80SSILL
 62
6
 10
2147.678
 20
-7403.174
 30
-2689.670
 70
    32
  0
VERTEX
  8
T80SSILL
 62
6
 10
2147.688
 20
-7403.217
 30
-2689.670
 70
    32
  0
VERTEX
  8
T80SSILL
 62
6
 10
2147.701
 20
-7403.258
 30
-2689.670
 70
    32
  0
VERTEX
  8
T80SSILL
 62
6
 10
2147.717
 20
-7403.299
 30
-2689.670
 70
    32
  0
VERTEX
  8
T80SSILL
 62
6
 10
2147.738
 20
-7403.337
 30
-2689.670
 70
    32
  0
VERTEX
  8
T80SSILL
 62
6
 10
2147.761
 20
-7403.374
 30
-2689.670
 70
    32
  0
VERTEX
  8
T80SSILL
 62
6
 10
2147.788
 20
-7403.409
 30
-2689.670
 70
    32
  0
VERTEX
  8
T80SSILL
 62
6
 10
2147.817
 20
-7403.441
 30
-2689.670
 70
    32
  0
VERTEX
  8
T80SSILL
 62
6
 10
2147.849
 20
-7403.470
 30
-2689.670
 70
    32
  0
VERTEX
  8
T80SSILL
 62
6
 10
2147.884
 20
-7403.497
 30
-2689.670
 70
    32
  0
VERTEX
  8
T80SSILL
 62
6
 10
2147.921
 20
-7403.520
 30
-2689.670
 70
    32
  0
VERTEX
  8
T80SSILL
 62
6
 10
2147.959
 20
-7403.540
 30
-2689.670
 70
    32
  0
VERTEX
  8
T80SSILL
 62
6
 10
2148.000
 20
-7403.557
 30
-2689.670
 70
    32
  0
VERTEX
  8
T80SSILL
 62
6
 10
2148.041
 20
-7403.570
 30
-2689.670
 70
    32
  0
VERTEX
  8
T80SSILL
 62
6
 10
2148.084
 20
-7403.580
 30
-2689.670
 70
    32
  0
VERTEX
  8
T80SSILL
 62
6
 10
2148.127
 20
-7403.585
 30
-2689.670
 70
    32
  0
VERTEX
  8
T80SSILL
 62
6
 10
2148.171
 20
-7403.587
 30
-2689.670
 70
    32
  0
VERTEX
  8
T80SSILL
 62
6
 10
2148.214
 20
-7403.585
 30
-2689.670
 70
    32
  0
VERTEX
  8
T80SSILL
 62
6
 10
2148.257
 20
-7403.580
 30
-2689.670
 70
    32
  0
VERTEX
  8
T80SSILL
 62
6
 10
2148.300
 20
-7403.570
 30
-2689.670
 70
    32
  0
VERTEX
  8
T80SSILL
 62
6
 10
2148.342
 20
-7403.557
 30
-2689.670
 70
    32
  0
VERTEX
  8
T80SSILL
 62
6
 10
2148.382
 20
-7403.540
 30
-2689.670
 70
    32
  0
VERTEX
  8
T80SSILL
 62
6
 10
2148.421
 20
-7403.520
 30
-2689.670
 70
    32
  0
VERTEX
  8
T80SSILL
 62
6
 10
2148.457
 20
-7403.497
 30
-2689.670
 70
    32
  0
VERTEX
  8
T80SSILL
 62
6
 10
2148.492
 20
-7403.470
 30
-2689.670
 70
    32
  0
VERTEX
  8
T80SSILL
 62
6
 10
2148.524
 20
-7403.441
 30
-2689.670
 70
    32
  0
VERTEX
  8
T80SSILL
 62
6
 10
2148.554
 20
-7403.409
 30
-2689.670
 70
    32
  0
VERTEX
  8
T80SSILL
 62
6
 10
2148.580
 20
-7403.374
 30
-2689.670
 70
    32
  0
VERTEX
  8
T80SSILL
 62
6
 10
2148.604
 20
-7403.337
 30
-2689.670
 70
    32
  0
VERTEX
  8
T80SSILL
 62
6
 10
2148.624
 20
-7403.299
 30
-2689.670
 70
    32
  0
VERTEX
  8
T80SSILL
 62
6
 10
2148.640
 20
-7403.258
 30
-2689.670
 70
    32
  0
VERTEX
  8
T80SSILL
 62
6
 10
2148.654
 20
-7403.217
 30
-2689.670
 70
    32
  0
VERTEX
  8
T80SSILL
 62
6
 10
2148.663
 20
-7403.174
 30
-2689.670
 70
    32
  0
VERTEX
  8
T80SSILL
 62
6
 10
2148.669
 20
-7403.131
 30
-2689.670
 70
    32
  0
VERTEX
  8
T80SSILL
 62
6
 10
2148.671
 20
-7403.087
 30
-2689.670
 70
    32
  0
SEQEND
  8
T80SSILL
  0
POLYLINE
  8
T80SSILL
 62
3
 66
     1
 70
     9
  0
VERTEX
  8
T80SSILL
 62
3
 10
2167.951
 20
-7317.310
 30
-2711.500
 70
    32
  0
VERTEX
  8
T80SSILL
 62
3
 10
2150.422
 20
-7345.607
 30
-2702.882
 70
    32
  0
VERTEX
  8
T80SSILL
 62
3
 10
2138.708
 20
-7341.132
 30
-2702.921
 70
    32
  0
VERTEX
  8
T80SSILL
 62
3
 10
2158.794
 20
-7308.205
 30
-2710.578
 70
    32
  0
SEQEND
  8
T80SSILL
  0
TEXT
  8
T80SSILL
 62
3
 10
2164.110
 20
-7338.633
 30
-2710.355
 40
0.200
  1
U
 50
149.945
 41
 1.0 
  0
POLYLINE
  8
T80SSILL
 62
3
 66
     1
 70
     8
  0
VERTEX
  8
T80SSILL
 62
3
 10
2590.197
 20
-8677.137
 30
-2707.200
 70
    32
  0
VERTEX
  8
T80SSILL
 62
3
 10
2590.185
 20
-8676.876
 30
-2707.200
 70
    32
  0
VERTEX
  8
T80SSILL
 62
3
 10
2590.151
 20
-8676.616
 30
-2707.200
 70
    32
  0
VERTEX
  8
T80SSILL
 62
3
 10
2590.095
 20
-8676.361
 30
-2707.200
 70
    32
  0
VERTEX
  8
T80SSILL
 62
3
 10
2590.016
 20
-8676.111
 30
-2707.200
 70
    32
  0
VERTEX
  8
T80SSILL
 62
3
 10
2589.916
 20
-8675.869
 30
-2707.200
 70
    32
  0
VERTEX
  8
T80SSILL
 62
3
 10
2589.795
 20
-8675.637
 30
-2707.200
 70
    32
  0
VERTEX
  8
T80SSILL
 62
3
 10
2589.654
 20
-8675.417
 30
-2707.200
 70
    32
  0
VERTEX
  8
T80SSILL
 62
3
 10
2589.495
 20
-8675.209
 30
-2707.200
 70
    32
  0
VERTEX
  8
T80SSILL
 62
3
 10
2589.318
 20
-8675.016
 30
-2707.200
 70
    32
  0
VERTEX
  8
T80SSILL
 62
3
 10
2589.125
 20
-8674.839
 30
-2707.200
 70
    32
  0
VERTEX
  8
T80SSILL
 62
3
 10
2588.917
 20
-8674.680
 30
-2707.200
 70
    32
  0
VERTEX
  8
T80SSILL
 62
3
 10
2588.697
 20
-8674.539
 30
-2707.200
 70
    32
  0
VERTEX
  8
T80SSILL
 62
3
 10
2588.465
 20
-8674.418
 30
-2707.200
 70
    32
  0
VERTEX
  8
T80SSILL
 62
3
 10
2588.223
 20
-8674.318
 30
-2707.200
 70
    32
  0
VERTEX
  8
T80SSILL
 62
3
 10
2587.973
 20
-8674.240
 30
-2707.200
 70
    32
  0
VERTEX
  8
T80SSILL
 62
3
 10
2587.718
 20
-8674.183
 30
-2707.200
 70
    32
  0
VERTEX
  8
T80SSILL
 62
3
 10
2587.458
 20
-8674.149
 30
-2707.200
 70
    32
  0
VERTEX
  8
T80SSILL
 62
3
 10
2587.197
 20
-8674.137
 30
-2707.200
 70
    32
  0
VERTEX
  8
T80SSILL
 62
3
 10
2586.935
 20
-8674.149
 30
-2707.200
 70
    32
  0
VERTEX
  8
T80SSILL
 62
3
 10
2586.676
 20
-8674.183
 30
-2707.200
 70
    32
  0
VERTEX
  8
T80SSILL
 62
3
 10
2586.420
 20
-8674.240
 30
-2707.200
 70
    32
  0
VERTEX
  8
T80SSILL
 62
3
 10
2586.171
 20
-8674.318
 30
-2707.200
 70
    32
  0
VERTEX
  8
T80SSILL
 62
3
 10
2585.929
 20
-8674.418
 30
-2707.200
 70
    32
  0
VERTEX
  8
T80SSILL
 62
3
 10
2585.697
 20
-8674.539
 30
-2707.200
 70
    32
  0
VERTEX
  8
T80SSILL
 62
3
 10
2585.476
 20
-8674.680
 30
-2707.200
 70
    32
  0
VERTEX
  8
T80SSILL
 62
3
 10
2585.268
 20
-8674.839
 30
-2707.200
 70
    32
  0
VERTEX
  8
T80SSILL
 62
3
 10
2585.075
 20
-8675.016
 30
-2707.200
 70
    32
  0
VERTEX
  8
T80SSILL
 62
3
 10
2584.899
 20
-8675.209
 30
-2707.200
 70
    32
  0
VERTEX
  8
T80SSILL
 62
3
 10
2584.739
 20
-8675.417
 30
-2707.200
 70
    32
  0
VERTEX
  8
T80SSILL
 62
3
 10
2584.599
 20
-8675.637
 30
-2707.200
 70
    32
  0
VERTEX
  8
T80SSILL
 62
3
 10
2584.478
 20
-8675.869
 30
-2707.200
 70
    32
  0
VERTEX
  8
T80SSILL
 62
3
 10
2584.378
 20
-8676.111
 30
-2707.200
 70
    32
  0
VERTEX
  8
T80SSILL
 62
3
 10
2584.299
 20
-8676.361
 30
-2707.200
 70
    32
  0
VERTEX
  8
T80SSILL
 62
3
 10
2584.242
 20
-8676.616
 30
-2707.200
 70
    32
  0
VERTEX
  8
T80SSILL
 62
3
 10
2584.208
 20
-8676.876
 30
-2707.200
 70
    32
  0
VERTEX
  8
T80SSILL
 62
3
 10
2584.197
 20
-8677.137
 30
-2707.200
 70
    32
  0
VERTEX
  8
T80SSILL
 62
3
 10
2584.208
 20
-8677.399
 30
-2707.200
 70
    32
  0
VERTEX
  8
T80SSILL
 62
3
 10
2584.242
 20
-8677.658
 30
-2707.200
 70
    32
  0
VERTEX
  8
T80SSILL
 62
3
 10
2584.299
 20
-8677.914
 30
-2707.200
 70
    32
  0
VERTEX
  8
T80SSILL
 62
3
 10
2584.378
 20
-8678.163
 30
-2707.200
 70
    32
  0
VERTEX
  8
T80SSILL
 62
3
 10
2584.478
 20
-8678.405
 30
-2707.200
 70
    32
  0
VERTEX
  8
T80SSILL
 62
3
 10
2584.599
 20
-8678.637
 30
-2707.200
 70
    32
  0
VERTEX
  8
T80SSILL
 62
3
 10
2584.739
 20
-8678.858
 30
-2707.200
 70
    32
  0
VERTEX
  8
T80SSILL
 62
3
 10
2584.899
 20
-8679.066
 30
-2707.200
 70
    32
  0
VERTEX
  8
T80SSILL
 62
3
 10
2585.075
 20
-8679.259
 30
-2707.200
 70
    32
  0
VERTEX
  8
T80SSILL
 62
3
 10
2585.268
 20
-8679.435
 30
-2707.200
 70
    32
  0
VERTEX
  8
T80SSILL
 62
3
 10
2585.476
 20
-8679.595
 30
-2707.200
 70
    32
  0
VERTEX
  8
T80SSILL
 62
3
 10
2585.697
 20
-8679.735
 30
-2707.200
 70
    32
  0
VERTEX
  8
T80SSILL
 62
3
 10
2585.929
 20
-8679.856
 30
-2707.200
 70
    32
  0
VERTEX
  8
T80SSILL
 62
3
 10
2586.171
 20
-8679.956
 30
-2707.200
 70
    32
  0
VERTEX
  8
T80SSILL
 62
3
 10
2586.420
 20
-8680.035
 30
-2707.200
 70
    32
  0
VERTEX
  8
T80SSILL
 62
3
 10
2586.676
 20
-8680.092
 30
-2707.200
 70
    32
  0
VERTEX
  8
T80SSILL
 62
3
 10
2586.935
 20
-8680.126
 30
-2707.200
 70
    32
  0
VERTEX
  8
T80SSILL
 62
3
 10
2587.197
 20
-8680.137
 30
-2707.200
 70
    32
  0
VERTEX
  8
T80SSILL
 62
3
 10
2587.458
 20
-8680.126
 30
-2707.200
 70
    32
  0
VERTEX
  8
T80SSILL
 62
3
 10
2587.718
 20
-8680.092
 30
-2707.200
 70
    32
  0
VERTEX
  8
T80SSILL
 62
3
 10
2587.973
 20
-8680.035
 30
-2707.200
 70
    32
  0
VERTEX
  8
T80SSILL
 62
3
 10
2588.223
 20
-8679.956
 30
-2707.200
 70
    32
  0
VERTEX
  8
T80SSILL
 62
3
 10
2588.465
 20
-8679.856
 30
-2707.200
 70
    32
  0
VERTEX
  8
T80SSILL
 62
3
 10
2588.697
 20
-8679.735
 30
-2707.200
 70
    32
  0
VERTEX
  8
T80SSILL
 62
3
 10
2588.917
 20
-8679.595
 30
-2707.200
 70
    32
  0
VERTEX
  8
T80SSILL
 62
3
 10
2589.125
 20
-8679.435
 30
-2707.200
 70
    32
  0
VERTEX
  8
T80SSILL
 62
3
 10
2589.318
 20
-8679.259
 30
-2707.200
 70
    32
  0
VERTEX
  8
T80SSILL
 62
3
 10
2589.495
 20
-8679.066
 30
-2707.200
 70
    32
  0
VERTEX
  8
T80SSILL
 62
3
 10
2589.654
 20
-8678.858
 30
-2707.200
 70
    32
  0
VERTEX
  8
T80SSILL
 62
3
 10
2589.795
 20
-8678.637
 30
-2707.200
 70
    32
  0
VERTEX
  8
T80SSILL
 62
3
 10
2589.916
 20
-8678.405
 30
-2707.200
 70
    32
  0
VERTEX
  8
T80SSILL
 62
3
 10
2590.016
 20
-8678.163
 30
-2707.200
 70
    32
  0
VERTEX
  8
T80SSILL
 62
3
 10
2590.095
 20
-8677.914
 30
-2707.200
 70
    32
  0
VERTEX
  8
T80SSILL
 62
3
 10
2590.151
 20
-8677.658
 30
-2707.200
 70
    32
  0
VERTEX
  8
T80SSILL
 62
3
 10
2590.185
 20
-8677.399
 30
-2707.200
 70
    32
  0
VERTEX
  8
T80SSILL
 62
3
 10
2590.197
 20
-8677.137
 30
-2707.200
 70
    32
  0
SEQEND
  8
T80SSILL
  0
POLYLINE
  8
T80SSILL
 62
6
 66
     1
 70
     9
  0
VERTEX
  8
T80SSILL
 62
6
 10
2596.703
 20
-8681.581
 30
-2703.329
 70
    32
  0
VERTEX
  8
T80SSILL
 62
6
 10
2590.940
 20
-8681.779
 30
-2703.329
 70
    32
  0
VERTEX
  8
T80SSILL
 62
6
 10
2586.966
 20
-8683.646
 30
-2703.329
 70
    32
  0
VERTEX
  8
T80SSILL
 62
6
 10
2582.108
 20
-8681.814
 30
-2703.329
 70
    32
  0
VERTEX
  8
T80SSILL
 62
6
 10
2581.615
 20
-8677.835
 30
-2703.329
 70
    32
  0
VERTEX
  8
T80SSILL
 62
6
 10
2581.924
 20
-8675.250
 30
-2703.329
 70
    32
  0
VERTEX
  8
T80SSILL
 62
6
 10
2585.745
 20
-8671.523
 30
-2703.329
 70
    32
  0
VERTEX
  8
T80SSILL
 62
6
 10
2593.524
 20
-8674.409
 30
-2703.329
 70
    32
  0
VERTEX
  8
T80SSILL
 62
6
 10
2596.836
 20
-8675.184
 30
-2703.329
 70
    32
  0
SEQEND
  8
T80SSILL
  0
POLYLINE
  8
T80SSILL
 62
6
 66
     1
 70
     9
  0
VERTEX
  8
T80SSILL
 62
6
 10
2598.943
 20
-8684.701
 30
-2706.306
 70
    32
  0
VERTEX
  8
T80SSILL
 62
6
 10
2581.929
 20
-8684.307
 30
-2706.320
 70
    32
  0
VERTEX
  8
T80SSILL
 62
6
 10
2581.358
 20
-8679.398
 30
-2706.330
 70
    32
  0
VERTEX
  8
T80SSILL
 62
6
 10
2581.997
 20
-8674.803
 30
-2706.339
 70
    32
  0
VERTEX
  8
T80SSILL
 62
6
 10
2587.264
 20
-8669.251
 30
-2706.347
 70
    32
  0
VERTEX
  8
T80SSILL
 62
6
 10
2598.761
 20
-8671.833
 30
-2706.333
 70
    32
  0
SEQEND
  8
T80SSILL
  0
POLYLINE
  8
T80SSILL
 62
3
 66
     1
 70
     8
  0
VERTEX
  8
T80SSILL
 62
3
 10
1981.663
 20
-6389.720
 30
-2716.081
 70
    32
  0
VERTEX
  8
T80SSILL
 62
3
 10
1979.965
 20
-6293.378
 30
-2716.737
 70
    32
  0
VERTEX
  8
T80SSILL
 62
3
 10
1975.875
 20
-6290.095
 30
-2716.763
 70
    32
  0
VERTEX
  8
T80SSILL
 62
3
 10
1971.650
 20
-6293.078
 30
-2716.745
 70
    32
  0
VERTEX
  8
T80SSILL
 62
3
 10
1946.249
 20
-6327.928
 30
-2716.495
 70
    32
  0
VERTEX
  8
T80SSILL
 62
3
 10
1943.460
 20
-6338.365
 30
-2716.412
 70
    32
  0
VERTEX
  8
T80SSILL
 62
3
 10
1942.579
 20
-6357.399
 30
-2716.254
 70
    32
  0
VERTEX
  8
T80SSILL
 62
3
 10
1945.141
 20
-6479.410
 30
-2715.261
 70
    32
  0
VERTEX
  8
T80SSILL
 62
3
 10
1945.274
 20
-6479.529
 30
-2715.251
 70
    32
  0
VERTEX
  8
T80SSILL
 62
3
 10
1950.696
 20
-6482.119
 30
-2714.664
 70
    32
  0
VERTEX
  8
T80SSILL
 62
3
 10
1950.862
 20
-6481.922
 30
-2714.627
 70
    32
  0
VERTEX
  8
T80SSILL
 62
3
 10
1953.556
 20
-6478.722
 30
-2714.659
 70
    32
  0
VERTEX
  8
T80SSILL
 62
3
 10
1954.417
 20
-6477.700
 30
-2713.744
 70
    32
  0
VERTEX
  8
T80SSILL
 62
3
 10
1955.346
 20
-6476.597
 30
-2713.617
 70
    32
  0
VERTEX
  8
T80SSILL
 62
3
 10
1957.981
 20
-6473.808
 30
-2713.260
 70
    32
  0
VERTEX
  8
T80SSILL
 62
3
 10
1965.664
 20
-6465.677
 30
-2710.428
 70
    32
  0
VERTEX
  8
T80SSILL
 62
3
 10
1968.545
 20
-6462.630
 30
-2710.162
 70
    32
  0
VERTEX
  8
T80SSILL
 62
3
 10
1970.731
 20
-6460.315
 30
-2711.081
 70
    32
  0
VERTEX
  8
T80SSILL
 62
3
 10
1972.289
 20
-6458.667
 30
-2711.613
 70
    32
  0
VERTEX
  8
T80SSILL
 62
3
 10
1974.504
 20
-6456.323
 30
-2711.757
 70
    32
  0
VERTEX
  8
T80SSILL
 62
3
 10
1975.259
 20
-6453.463
 30
-2711.872
 70
    32
  0
VERTEX
  8
T80SSILL
 62
3
 10
1975.656
 20
-6451.100
 30
-2711.959
 70
    32
  0
VERTEX
  8
T80SSILL
 62
3
 10
1976.754
 20
-6444.555
 30
-2712.104
 70
    32
  0
VERTEX
  8
T80SSILL
 62
3
 10
1976.826
 20
-6444.128
 30
-2712.101
 70
    32
  0
VERTEX
  8
T80SSILL
 62
3
 10
1980.277
 20
-6438.491
 30
-2712.070
 70
    32
  0
VERTEX
  8
T80SSILL
 62
3
 10
1980.489
 20
-6436.997
 30
-2712.059
 70
    32
  0
VERTEX
  8
T80SSILL
 62
3
 10
1981.692
 20
-6428.513
 30
-2712.068
 70
    32
  0
VERTEX
  8
T80SSILL
 62
3
 10
1979.313
 20
-6424.852
 30
-2712.073
 70
    32
  0
VERTEX
  8
T80SSILL
 62
3
 10
1976.745
 20
-6420.900
 30
-2712.262
 70
    32
  0
VERTEX
  8
T80SSILL
 62
3
 10
1976.556
 20
-6419.841
 30
-2712.313
 70
    32
  0
VERTEX
  8
T80SSILL
 62
3
 10
1975.364
 20
-6413.175
 30
-2712.422
 70
    32
  0
VERTEX
  8
T80SSILL
 62
3
 10
1976.343
 20
-6399.228
 30
-2712.727
 70
    32
  0
VERTEX
  8
T80SSILL
 62
3
 10
1981.189
 20
-6397.643
 30
-2712.867
 70
    32
  0
VERTEX
  8
T80SSILL
 62
3
 10
1981.258
 20
-6396.496
 30
-2712.892
 70
    32
  0
VERTEX
  8
T80SSILL
 62
3
 10
1981.414
 20
-6393.915
 30
-2715.415
 70
    32
  0
VERTEX
  8
T80SSILL
 62
3
 10
1981.667
 20
-6389.714
 30
-2716.602
 70
    32
  0
SEQEND
  8
T80SSILL
  0
POLYLINE
  8
T80SSILL
 62
3
 66
     1
 70
     8
  0
VERTEX
  8
T80SSILL
 62
3
 10
1990.506
 20
-6379.881
 30
-2716.190
 70
    32
  0
VERTEX
  8
T80SSILL
 62
3
 10
1992.056
 20
-6392.297
 30
-2717.213
 70
    32
  0
VERTEX
  8
T80SSILL
 62
3
 10
1992.402
 20
-6395.133
 30
-2714.767
 70
    32
  0
VERTEX
  8
T80SSILL
 62
3
 10
1992.451
 20
-6395.476
 30
-2714.471
 70
    32
  0
VERTEX
  8
T80SSILL
 62
3
 10
1992.648
 20
-6396.856
 30
-2713.137
 70
    32
  0
VERTEX
  8
T80SSILL
 62
3
 10
1993.955
 20
-6405.997
 30
-2712.980
 70
    32
  0
VERTEX
  8
T80SSILL
 62
3
 10
1994.813
 20
-6411.996
 30
-2712.692
 70
    32
  0
VERTEX
  8
T80SSILL
 62
3
 10
1997.905
 20
-6418.861
 30
-2712.363
 70
    32
  0
VERTEX
  8
T80SSILL
 62
3
 10
1998.848
 20
-6424.973
 30
-2712.069
 70
    32
  0
VERTEX
  8
T80SSILL
 62
3
 10
1999.303
 20
-6427.922
 30
-2712.066
 70
    32
  0
VERTEX
  8
T80SSILL
 62
3
 10
1999.803
 20
-6431.165
 30
-2712.094
 70
    32
  0
VERTEX
  8
T80SSILL
 62
3
 10
2001.826
 20
-6453.449
 30
-2712.283
 70
    32
  0
VERTEX
  8
T80SSILL
 62
3
 10
2001.868
 20
-6453.909
 30
-2712.275
 70
    32
  0
VERTEX
  8
T80SSILL
 62
3
 10
1998.152
 20
-6457.646
 30
-2712.147
 70
    32
  0
VERTEX
  8
T80SSILL
 62
3
 10
1984.133
 20
-6462.567
 30
-2711.851
 70
    32
  0
VERTEX
  8
T80SSILL
 62
3
 10
1983.292
 20
-6462.973
 30
-2711.831
 70
    32
  0
VERTEX
  8
T80SSILL
 62
3
 10
1980.897
 20
-6464.130
 30
-2711.717
 70
    32
  0
VERTEX
  8
T80SSILL
 62
3
 10
1979.974
 20
-6465.057
 30
-2711.659
 70
    32
  0
VERTEX
  8
T80SSILL
 62
3
 10
1977.051
 20
-6467.991
 30
-2710.689
 70
    32
  0
VERTEX
  8
T80SSILL
 62
3
 10
1975.762
 20
-6469.286
 30
-2710.162
 70
    32
  0
VERTEX
  8
T80SSILL
 62
3
 10
1970.401
 20
-6474.669
 30
-2710.644
 70
    32
  0
VERTEX
  8
T80SSILL
 62
3
 10
1969.746
 20
-6475.326
 30
-2710.880
 70
    32
  0
VERTEX
  8
T80SSILL
 62
3
 10
1965.822
 20
-6479.350
 30
-2712.308
 70
    32
  0
VERTEX
  8
T80SSILL
 62
3
 10
1963.627
 20
-6481.600
 30
-2712.605
 70
    32
  0
VERTEX
  8
T80SSILL
 62
3
 10
1961.469
 20
-6483.814
 30
-2714.696
 70
    32
  0
VERTEX
  8
T80SSILL
 62
3
 10
1960.893
 20
-6484.404
 30
-2714.689
 70
    32
  0
VERTEX
  8
T80SSILL
 62
3
 10
1954.783
 20
-6489.810
 30
-2714.624
 70
    32
  0
VERTEX
  8
T80SSILL
 62
3
 10
1953.564
 20
-6490.888
 30
-2714.872
 70
    32
  0
VERTEX
  8
T80SSILL
 62
3
 10
1953.231
 20
-6491.183
 30
-2714.882
 70
    32
  0
VERTEX
  8
T80SSILL
 62
3
 10
1950.268
 20
-6495.655
 30
-2714.956
 70
    32
  0
VERTEX
  8
T80SSILL
 62
3
 10
1946.467
 20
-6500.258
 30
-2715.059
 70
    32
  0
VERTEX
  8
T80SSILL
 62
3
 10
1945.757
 20
-6502.470
 30
-2715.068
 70
    32
  0
VERTEX
  8
T80SSILL
 62
3
 10
1945.617
 20
-6502.803
 30
-2715.071
 70
    32
  0
VERTEX
  8
T80SSILL
 62
3
 10
1948.397
 20
-6630.709
 30
-2714.030
 70
    32
  0
VERTEX
  8
T80SSILL
 62
3
 10
1951.186
 20
-6633.751
 30
-2714.039
 70
    32
  0
VERTEX
  8
T80SSILL
 62
3
 10
1951.877
 20
-6640.690
 30
-2713.998
 70
    32
  0
VERTEX
  8
T80SSILL
 62
3
 10
1956.973
 20
-6650.558
 30
-2713.984
 70
    32
  0
VERTEX
  8
T80SSILL
 62
3
 10
1959.669
 20
-6658.960
 30
-2713.955
 70
    32
  0
VERTEX
  8
T80SSILL
 62
3
 10
1959.109
 20
-6661.796
 30
-2713.929
 70
    32
  0
VERTEX
  8
T80SSILL
 62
3
 10
1973.496
 20
-6703.654
 30
-2713.794
 70
    32
  0
VERTEX
  8
T80SSILL
 62
3
 10
1975.826
 20
-6702.006
 30
-2713.831
 70
    32
  0
VERTEX
  8
T80SSILL
 62
3
 10
1979.674
 20
-6707.179
 30
-2713.837
 70
    32
  0
VERTEX
  8
T80SSILL
 62
3
 10
1976.079
 20
-6710.244
 30
-2713.776
 70
    32
  0
VERTEX
  8
T80SSILL
 62
3
 10
2001.784
 20
-6783.820
 30
-2713.530
 70
    32
  0
VERTEX
  8
T80SSILL
 62
3
 10
2040.581
 20
-6901.217
 30
-2713.422
 70
    32
  0
VERTEX
  8
T80SSILL
 62
3
 10
2046.830
 20
-6901.850
 30
-2713.404
 70
    32
  0
VERTEX
  8
T80SSILL
 62
3
 10
2044.807
 20
-6912.507
 30
-2713.390
 70
    32
  0
VERTEX
  8
T80SSILL
 62
3
 10
2065.727
 20
-6973.160
 30
-2713.227
 70
    32
  0
VERTEX
  8
T80SSILL
 62
3
 10
2070.096
 20
-6974.628
 30
-2713.208
 70
    32
  0
VERTEX
  8
T80SSILL
 62
3
 10
2074.214
 20
-6980.576
 30
-2713.184
 70
    32
  0
VERTEX
  8
T80SSILL
 62
3
 10
2070.800
 20
-6988.295
 30
-2713.187
 70
    32
  0
VERTEX
  8
T80SSILL
 62
3
 10
2095.285
 20
-7059.032
 30
-2712.996
 70
    32
  0
VERTEX
  8
T80SSILL
 62
3
 10
2101.773
 20
-7057.705
 30
-2712.973
 70
    32
  0
VERTEX
  8
T80SSILL
 62
3
 10
2107.261
 20
-7061.436
 30
-2712.946
 70
    32
  0
VERTEX
  8
T80SSILL
 62
3
 10
2115.712
 20
-7080.623
 30
-2712.887
 70
    32
  0
VERTEX
  8
T80SSILL
 62
3
 10
2122.757
 20
-7079.631
 30
-2712.861
 70
    32
  0
VERTEX
  8
T80SSILL
 62
3
 10
2125.985
 20
-7082.996
 30
-2712.843
 70
    32
  0
VERTEX
  8
T80SSILL
 62
3
 10
2125.707
 20
-7090.432
 30
-2712.835
 70
    32
  0
VERTEX
  8
T80SSILL
 62
3
 10
2115.858
 20
-7093.995
 30
-2712.869
 70
    32
  0
VERTEX
  8
T80SSILL
 62
3
 10
2125.026
 20
-7118.180
 30
-2712.816
 70
    32
  0
VERTEX
  8
T80SSILL
 62
3
 10
2123.439
 20
-7122.712
 30
-2712.823
 70
    32
  0
VERTEX
  8
T80SSILL
 62
3
 10
2130.078
 20
-7142.239
 30
-2712.792
 70
    32
  0
VERTEX
  8
T80SSILL
 62
3
 10
2125.770
 20
-7148.545
 30
-2712.811
 70
    32
  0
VERTEX
  8
T80SSILL
 62
3
 10
2141.439
 20
-7194.756
 30
-2712.738
 70
    32
  0
VERTEX
  8
T80SSILL
 62
3
 10
2162.250
 20
-7208.069
 30
-2712.642
 70
    32
  0
VERTEX
  8
T80SSILL
 62
3
 10
2167.459
 20
-7212.653
 30
-2712.617
 70
    32
  0
VERTEX
  8
T80SSILL
 62
3
 10
2173.712
 20
-7213.105
 30
-2712.588
 70
    32
  0
VERTEX
  8
T80SSILL
 62
3
 10
2190.940
 20
-7219.385
 30
-2712.509
 70
    32
  0
VERTEX
  8
T80SSILL
 62
3
 10
2250.557
 20
-7227.169
 30
-2711.229
 70
    32
  0
VERTEX
  8
T80SSILL
 62
3
 10
2253.294
 20
-7227.008
 30
-2711.162
 70
    32
  0
VERTEX
  8
T80SSILL
 62
3
 10
2253.879
 20
-7226.629
 30
-2711.101
 70
    32
  0
VERTEX
  8
T80SSILL
 62
3
 10
2254.247
 20
-7219.310
 30
-2711.158
 70
    32
  0
VERTEX
  8
T80SSILL
 62
3
 10
2275.394
 20
-7221.535
 30
-2710.989
 70
    32
  0
VERTEX
  8
T80SSILL
 62
3
 10
2285.792
 20
-7229.122
 30
-2710.903
 70
    32
  0
VERTEX
  8
T80SSILL
 62
3
 10
2296.541
 20
-7233.172
 30
-2711.267
 70
    32
  0
VERTEX
  8
T80SSILL
 62
3
 10
2779.188
 20
-7296.189
 30
-2710.230
 70
    32
  0
VERTEX
  8
T80SSILL
 62
3
 10
2793.408
 20
-7293.229
 30
-2710.178
 70
    32
  0
VERTEX
  8
T80SSILL
 62
3
 10
2803.874
 20
-7289.462
 30
-2710.145
 70
    32
  0
VERTEX
  8
T80SSILL
 62
3
 10
2812.792
 20
-7292.187
 30
-2710.098
 70
    32
  0
VERTEX
  8
T80SSILL
 62
3
 10
2819.421
 20
-7300.468
 30
-2710.041
 70
    32
  0
VERTEX
  8
T80SSILL
 62
3
 10
2843.783
 20
-7301.437
 30
-2709.932
 70
    32
  0
VERTEX
  8
T80SSILL
 62
3
 10
2861.755
 20
-7295.489
 30
-2709.874
 70
    32
  0
VERTEX
  8
T80SSILL
 62
3
 10
2874.335
 20
-7287.857
 30
-2709.845
 70
    32
  0
VERTEX
  8
T80SSILL
 62
3
 10
2929.839
 20
-7259.013
 30
-2709.700
 70
    32
  0
VERTEX
  8
T80SSILL
 62
3
 10
2939.201
 20
-7252.558
 30
-2709.680
 70
    32
  0
VERTEX
  8
T80SSILL
 62
3
 10
2940.594
 20
-7254.593
 30
-2709.668
 70
    32
  0
VERTEX
  8
T80SSILL
 62
3
 10
3159.081
 20
-7141.050
 30
-2709.449
 70
    32
  0
VERTEX
  8
T80SSILL
 62
3
 10
3164.571
 20
-7135.060
 30
-2709.474
 70
    32
  0
VERTEX
  8
T80SSILL
 62
3
 10
3170.516
 20
-7135.107
 30
-2709.462
 70
    32
  0
VERTEX
  8
T80SSILL
 62
3
 10
3314.543
 20
-7060.259
 30
-2709.556
 70
    32
  0
VERTEX
  8
T80SSILL
 62
3
 10
3320.648
 20
-7050.222
 30
-2709.596
 70
    32
  0
VERTEX
  8
T80SSILL
 62
3
 10
3338.811
 20
-7039.561
 30
-2709.610
 70
    32
  0
VERTEX
  8
T80SSILL
 62
3
 10
3350.498
 20
-7041.575
 30
-2709.571
 70
    32
  0
VERTEX
  8
T80SSILL
 62
3
 10
3483.751
 20
-6972.325
 30
-2709.625
 70
    32
  0
VERTEX
  8
T80SSILL
 62
3
 10
3488.500
 20
-6979.400
 30
-2709.575
 70
    32
  0
VERTEX
  8
T80SSILL
 62
3
 10
3485.509
 20
-6985.979
 30
-2709.547
 70
    32
  0
VERTEX
  8
T80SSILL
 62
3
 10
3491.583
 20
-6996.027
 30
-2709.478
 70
    32
  0
VERTEX
  8
T80SSILL
 62
3
 10
3493.427
 20
-6998.875
 30
-2708.197
 70
    32
  0
VERTEX
  8
T80SSILL
 62
3
 10
3488.705
 20
-7005.853
 30
-2708.214
 70
    32
  0
VERTEX
  8
T80SSILL
 62
3
 10
3482.865
 20
-7009.949
 30
-2708.231
 70
    32
  0
VERTEX
  8
T80SSILL
 62
3
 10
3476.674
 20
-7004.517
 30
-2709.468
 70
    32
  0
VERTEX
  8
T80SSILL
 62
3
 10
3463.529
 20
-6992.934
 30
-2709.562
 70
    32
  0
VERTEX
  8
T80SSILL
 62
3
 10
2877.943
 20
-7297.251
 30
-2709.806
 70
    32
  0
VERTEX
  8
T80SSILL
 62
3
 10
2866.373
 20
-7304.368
 30
-2709.834
 70
    32
  0
VERTEX
  8
T80SSILL
 62
3
 10
2859.696
 20
-7306.669
 30
-2709.854
 70
    32
  0
VERTEX
  8
T80SSILL
 62
3
 10
2855.962
 20
-7311.601
 30
-2709.857
 70
    32
  0
VERTEX
  8
T80SSILL
 62
3
 10
2843.629
 20
-7313.859
 30
-2709.899
 70
    32
  0
VERTEX
  8
T80SSILL
 62
3
 10
2814.855
 20
-7310.386
 30
-2710.033
 70
    32
  0
VERTEX
  8
T80SSILL
 62
3
 10
2801.987
 20
-7309.967
 30
-2710.091
 70
    32
  0
VERTEX
  8
T80SSILL
 62
3
 10
2796.306
 20
-7314.576
 30
-2710.105
 70
    32
  0
VERTEX
  8
T80SSILL
 62
3
 10
2830.416
 20
-7355.160
 30
-2709.853
 70
    32
  0
VERTEX
  8
T80SSILL
 62
3
 10
2823.651
 20
-7361.100
 30
-2709.865
 70
    32
  0
VERTEX
  8
T80SSILL
 62
3
 10
2792.597
 20
-7324.370
 30
-2710.098
 70
    32
  0
VERTEX
  8
T80SSILL
 62
3
 10
2788.435
 20
-7322.865
 30
-2710.120
 70
    32
  0
VERTEX
  8
T80SSILL
 62
3
 10
2776.937
 20
-7312.478
 30
-2710.197
 70
    32
  0
VERTEX
  8
T80SSILL
 62
3
 10
2761.272
 20
-7302.927
 30
-2710.290
 70
    32
  0
VERTEX
  8
T80SSILL
 62
3
 10
2254.496
 20
-7236.760
 30
-2712.269
 70
    32
  0
SEQEND
  8
T80SSILL
  0
POLYLINE
  8
T80SSILL
 62
3
 66
     1
 70
     8
  0
VERTEX
  8
T80SSILL
 62
3
 10
2226.331
 20
-7233.082
 30
-2712.379
 70
    32
  0
VERTEX
  8
T80SSILL
 62
3
 10
2178.936
 20
-7226.894
 30
-2712.564
 70
    32
  0
VERTEX
  8
T80SSILL
 62
3
 10
2160.472
 20
-7223.543
 30
-2712.649
 70
    32
  0
VERTEX
  8
T80SSILL
 62
3
 10
2152.716
 20
-7219.669
 30
-2712.685
 70
    32
  0
VERTEX
  8
T80SSILL
 62
3
 10
2150.519
 20
-7220.996
 30
-2712.695
 70
    32
  0
VERTEX
  8
T80SSILL
 62
3
 10
2169.048
 20
-7274.883
 30
-2707.000
 70
    32
  0
VERTEX
  8
T80SSILL
 62
3
 10
2174.317
 20
-7280.495
 30
-2710.000
 70
    32
  0
VERTEX
  8
T80SSILL
 62
3
 10
2176.338
 20
-7281.401
 30
-2710.000
 70
    32
  0
VERTEX
  8
T80SSILL
 62
3
 10
2190.124
 20
-7275.454
 30
-2709.800
 70
    32
  0
VERTEX
  8
T80SSILL
 62
3
 10
2210.470
 20
-7253.704
 30
-2707.700
 70
    32
  0
VERTEX
  8
T80SSILL
 62
3
 10
2214.940
 20
-7252.243
 30
-2707.700
 70
    32
  0
VERTEX
  8
T80SSILL
 62
3
 10
2230.436
 20
-7238.969
 30
-2708.900
 70
    32
  0
VERTEX
  8
T80SSILL
 62
3
 10
2229.705
 20
-7236.390
 30
-2710.000
 70
    32
  0
VERTEX
  8
T80SSILL
 62
3
 10
2226.331
 20
-7233.082
 30
-2711.000
 70
    32
  0
SEQEND
  8
T80SSILL
  0
POLYLINE
  8
T80SSILL
 62
3
 66
     1
 70
     8
  0
VERTEX
  8
T80SSILL
 62
3
 10
2254.497
 20
-7236.759
 30
-2711.000
 70
    32
  0
VERTEX
  8
T80SSILL
 62
3
 10
2243.469
 20
-7241.718
 30
-2709.000
 70
    32
  0
VERTEX
  8
T80SSILL
 62
3
 10
2228.415
 20
-7254.002
 30
-2707.700
 70
    32
  0
VERTEX
  8
T80SSILL
 62
3
 10
2213.953
 20
-7267.663
 30
-2708.000
 70
    32
  0
VERTEX
  8
T80SSILL
 62
3
 10
2192.702
 20
-7289.899
 30
-2709.000
 70
    32
  0
VERTEX
  8
T80SSILL
 62
3
 10
2188.109
 20
-7296.313
 30
-2707.000
 70
    32
  0
VERTEX
  8
T80SSILL
 62
3
 10
2183.767
 20
-7304.306
 30
-2707.000
 70
    32
  0
VERTEX
  8
T80SSILL
 62
3
 10
2183.368
 20
-7304.991
 30
-2712.552
 70
    32
  0
VERTEX
  8
T80SSILL
 62
3
 10
2180.431
 20
-7306.578
 30
-2712.566
 70
    32
  0
VERTEX
  8
T80SSILL
 62
3
 10
2205.984
 20
-7381.072
 30
-2712.403
 70
    32
  0
VERTEX
  8
T80SSILL
 62
3
 10
2219.465
 20
-7396.632
 30
-2712.320
 70
    32
  0
VERTEX
  8
T80SSILL
 62
3
 10
2213.462
 20
-7405.032
 30
-2712.342
 70
    32
  0
VERTEX
  8
T80SSILL
 62
3
 10
2242.369
 20
-7489.210
 30
-2712.059
 70
    32
  0
VERTEX
  8
T80SSILL
 62
3
 10
2249.479
 20
-7496.438
 30
-2712.006
 70
    32
  0
VERTEX
  8
T80SSILL
 62
3
 10
2246.963
 20
-7503.130
 30
-2712.009
 70
    32
  0
VERTEX
  8
T80SSILL
 62
3
 10
2277.027
 20
-7590.523
 30
-2711.657
 70
    32
  0
VERTEX
  8
T80SSILL
 62
3
 10
2283.168
 20
-7592.964
 30
-2711.623
 70
    32
  0
VERTEX
  8
T80SSILL
 62
3
 10
2280.981
 20
-7602.364
 30
-2711.607
 70
    32
  0
VERTEX
  8
T80SSILL
 62
3
 10
2309.979
 20
-7681.789
 30
-2711.338
 70
    32
  0
VERTEX
  8
T80SSILL
 62
3
 10
2315.224
 20
-7685.452
 30
-2711.314
 70
    32
  0
VERTEX
  8
T80SSILL
 62
3
 10
2331.154
 20
-7731.795
 30
-2711.212
 70
    32
  0
VERTEX
  8
T80SSILL
 62
3
 10
2329.421
 20
-7738.090
 30
-2711.217
 70
    32
  0
VERTEX
  8
T80SSILL
 62
3
 10
2348.534
 20
-7791.682
 30
-2711.175
 70
    32
  0
VERTEX
  8
T80SSILL
 62
3
 10
2353.957
 20
-7792.006
 30
-2711.161
 70
    32
  0
VERTEX
  8
T80SSILL
 62
3
 10
2355.468
 20
-7795.297
 30
-2711.158
 70
    32
  0
VERTEX
  8
T80SSILL
 62
3
 10
2351.884
 20
-7800.777
 30
-2711.167
 70
    32
  0
VERTEX
  8
T80SSILL
 62
3
 10
2375.633
 20
-7860.629
 30
-2709.200
 70
    32
  0
VERTEX
  8
T80SSILL
 62
3
 10
2382.134
 20
-7867.222
 30
-2708.791
 70
    32
  0
VERTEX
  8
T80SSILL
 62
3
 10
2396.188
 20
-7891.332
 30
-2707.549
 70
    32
  0
VERTEX
  8
T80SSILL
 62
3
 10
2403.173
 20
-7893.040
 30
-2707.306
 70
    32
  0
VERTEX
  8
T80SSILL
 62
3
 10
2408.012
 20
-7892.160
 30
-2706.813
 70
    32
  0
VERTEX
  8
T80SSILL
 62
3
 10
2410.822
 20
-7902.182
 30
-2707.657
 70
    32
  0
VERTEX
  8
T80SSILL
 62
3
 10
2402.220
 20
-7907.958
 30
-2708.084
 70
    32
  0
VERTEX
  8
T80SSILL
 62
3
 10
2402.142
 20
-7911.368
 30
-2708.733
 70
    32
  0
VERTEX
  8
T80SSILL
 62
3
 10
2405.588
 20
-7913.461
 30
-2708.720
 70
    32
  0
VERTEX
  8
T80SSILL
 62
3
 10
2407.922
 20
-7913.231
 30
-2706.951
 70
    32
  0
VERTEX
  8
T80SSILL
 62
3
 10
2414.584
 20
-7909.395
 30
-2706.840
 70
    32
  0
VERTEX
  8
T80SSILL
 62
3
 10
2420.784
 20
-7903.009
 30
-2705.346
 70
    32
  0
VERTEX
  8
T80SSILL
 62
3
 10
2426.895
 20
-7908.968
 30
-2705.686
 70
    32
  0
VERTEX
  8
T80SSILL
 62
3
 10
2427.353
 20
-7911.621
 30
-2705.761
 70
    32
  0
VERTEX
  8
T80SSILL
 62
3
 10
2427.353
 20
-7911.621
 30
-2705.761
 70
    32
  0
VERTEX
  8
T80SSILL
 62
3
 10
2425.122
 20
-7917.134
 30
-2706.027
 70
    32
  0
VERTEX
  8
T80SSILL
 62
3
 10
2424.419
 20
-7920.643
 30
-2706.470
 70
    32
  0
VERTEX
  8
T80SSILL
 62
3
 10
2417.716
 20
-7920.122
 30
-2704.656
 70
    32
  0
VERTEX
  8
T80SSILL
 62
3
 10
2413.881
 20
-7922.609
 30
-2706.347
 70
    32
  0
VERTEX
  8
T80SSILL
 62
3
 10
2410.228
 20
-7928.833
 30
-2708.486
 70
    32
  0
VERTEX
  8
T80SSILL
 62
3
 10
2408.186
 20
-7936.261
 30
-2707.615
 70
    32
  0
VERTEX
  8
T80SSILL
 62
3
 10
2406.293
 20
-7942.105
 30
-2709.334
 70
    32
  0
VERTEX
  8
T80SSILL
 62
3
 10
2409.239
 20
-7951.294
 30
-2709.347
 70
    32
  0
VERTEX
  8
T80SSILL
 62
3
 10
2406.760
 20
-7957.032
 30
-2709.375
 70
    32
  0
VERTEX
  8
T80SSILL
 62
3
 10
2416.230
 20
-7992.288
 30
-2709.701
 70
    32
  0
VERTEX
  8
T80SSILL
 62
3
 10
2422.781
 20
-7993.152
 30
-2709.675
 70
    32
  0
VERTEX
  8
T80SSILL
 62
3
 10
2425.651
 20
-7998.939
 30
-2709.655
 70
    32
  0
VERTEX
  8
T80SSILL
 62
3
 10
2426.023
 20
-8002.278
 30
-2709.648
 70
    32
  0
VERTEX
  8
T80SSILL
 62
3
 10
2420.858
 20
-8006.055
 30
-2709.654
 70
    32
  0
VERTEX
  8
T80SSILL
 62
3
 10
2448.678
 20
-8086.027
 30
-2709.414
 70
    32
  0
VERTEX
  8
T80SSILL
 62
3
 10
2456.462
 20
-8090.667
 30
-2709.386
 70
    32
  0
VERTEX
  8
T80SSILL
 62
3
 10
2458.567
 20
-8093.113
 30
-2709.381
 70
    32
  0
VERTEX
  8
T80SSILL
 62
3
 10
2456.780
 20
-8103.034
 30
-2709.370
 70
    32
  0
VERTEX
  8
T80SSILL
 62
3
 10
2482.440
 20
-8183.189
 30
-2709.238
 70
    32
  0
VERTEX
  8
T80SSILL
 62
3
 10
2486.822
 20
-8185.610
 30
-2709.224
 70
    32
  0
VERTEX
  8
T80SSILL
 62
3
 10
2486.099
 20
-8194.791
 30
-2709.212
 70
    32
  0
VERTEX
  8
T80SSILL
 62
3
 10
2513.689
 20
-8273.859
 30
-2709.034
 70
    32
  0
VERTEX
  8
T80SSILL
 62
3
 10
2523.164
 20
-8284.476
 30
-2708.996
 70
    32
  0
VERTEX
  8
T80SSILL
 62
3
 10
2520.357
 20
-8294.272
 30
-2708.988
 70
    32
  0
VERTEX
  8
T80SSILL
 62
3
 10
2548.027
 20
-8373.184
 30
-2708.810
 70
    32
  0
VERTEX
  8
T80SSILL
 62
3
 10
2557.510
 20
-8382.426
 30
-2708.774
 70
    32
  0
VERTEX
  8
T80SSILL
 62
3
 10
2564.435
 20
-8392.831
 30
-2708.743
 70
    32
  0
VERTEX
  8
T80SSILL
 62
3
 10
2575.870
 20
-8449.427
 30
-2708.634
 70
    32
  0
VERTEX
  8
T80SSILL
 62
3
 10
2567.891
 20
-8457.583
 30
-2708.641
 70
    32
  0
VERTEX
  8
T80SSILL
 62
3
 10
2573.583
 20
-8483.603
 30
-2708.591
 70
    32
  0
VERTEX
  8
T80SSILL
 62
3
 10
2579.846
 20
-8486.585
 30
-2708.573
 70
    32
  0
VERTEX
  8
T80SSILL
 62
3
 10
2579.723
 20
-8494.004
 30
-2708.561
 70
    32
  0
VERTEX
  8
T80SSILL
 62
3
 10
2576.471
 20
-8499.440
 30
-2708.562
 70
    32
  0
VERTEX
  8
T80SSILL
 62
3
 10
2595.317
 20
-8589.918
 30
-2708.430
 70
    32
  0
VERTEX
  8
T80SSILL
 62
3
 10
2601.656
 20
-8593.332
 30
-2708.407
 70
    32
  0
VERTEX
  8
T80SSILL
 62
3
 10
2602.461
 20
-8596.595
 30
-2708.402
 70
    32
  0
VERTEX
  8
T80SSILL
 62
3
 10
2598.633
 20
-8606.464
 30
-2708.314
 70
    32
  0
VERTEX
  8
T80SSILL
 62
3
 10
2617.928
 20
-8700.516
 30
-2707.407
 70
    32
  0
VERTEX
  8
T80SSILL
 62
3
 10
2619.856
 20
-8699.821
 30
-2707.416
 70
    32
  0
VERTEX
  8
T80SSILL
 62
3
 10
2624.454
 20
-8705.502
 30
-2707.382
 70
    32
  0
VERTEX
  8
T80SSILL
 62
3
 10
2619.803
 20
-8708.653
 30
-2707.404
 70
    32
  0
VERTEX
  8
T80SSILL
 62
3
 10
2645.939
 20
-8832.443
 30
-2707.265
 70
    32
  0
VERTEX
  8
T80SSILL
 62
3
 10
2653.105
 20
-8842.047
 30
-2707.206
 70
    32
  0
VERTEX
  8
T80SSILL
 62
3
 10
2657.965
 20
-8846.459
 30
-2707.170
 70
    32
  0
VERTEX
  8
T80SSILL
 62
3
 10
2670.680
 20
-8851.873
 30
-2707.091
 70
    32
  0
VERTEX
  8
T80SSILL
 62
3
 10
2680.560
 20
-8859.598
 30
-2707.022
 70
    32
  0
VERTEX
  8
T80SSILL
 62
3
 10
2684.642
 20
-8861.258
 30
-2706.997
 70
    32
  0
VERTEX
  8
T80SSILL
 62
3
 10
2701.330
 20
-8864.442
 30
-2706.900
 70
    32
  0
VERTEX
  8
T80SSILL
 62
3
 10
2711.941
 20
-8863.094
 30
-2706.792
 70
    32
  0
VERTEX
  8
T80SSILL
 62
3
 10
2731.544
 20
-8863.025
 30
-2706.598
 70
    32
  0
VERTEX
  8
T80SSILL
 62
3
 10
2746.136
 20
-8856.108
 30
-2706.474
 70
    32
  0
VERTEX
  8
T80SSILL
 62
3
 10
2748.992
 20
-8860.986
 30
-2706.431
 70
    32
  0
VERTEX
  8
T80SSILL
 62
3
 10
2747.826
 20
-8871.708
 30
-2706.454
 70
    32
  0
VERTEX
  8
T80SSILL
 62
3
 10
2734.272
 20
-8871.871
 30
-2706.588
 70
    32
  0
VERTEX
  8
T80SSILL
 62
3
 10
2714.810
 20
-8878.108
 30
-2706.793
 70
    32
  0
VERTEX
  8
T80SSILL
 62
3
 10
2704.093
 20
-8875.174
 30
-2706.863
 70
    32
  0
VERTEX
  8
T80SSILL
 62
3
 10
2701.419
 20
-8875.992
 30
-2706.876
 70
    32
  0
VERTEX
  8
T80SSILL
 62
3
 10
2689.283
 20
-8874.901
 30
-2706.942
 70
    32
  0
VERTEX
  8
T80SSILL
 62
3
 10
2675.546
 20
-8869.760
 30
-2707.026
 70
    32
  0
VERTEX
  8
T80SSILL
 62
3
 10
2662.952
 20
-8863.129
 30
-2707.107
 70
    32
  0
VERTEX
  8
T80SSILL
 62
3
 10
2658.555
 20
-8861.703
 30
-2707.134
 70
    32
  0
VERTEX
  8
T80SSILL
 62
3
 10
2652.583
 20
-8862.042
 30
-2707.165
 70
    32
  0
VERTEX
  8
T80SSILL
 62
3
 10
2657.897
 20
-8889.398
 30
-2707.077
 70
    32
  0
VERTEX
  8
T80SSILL
 62
3
 10
2668.077
 20
-8918.612
 30
-2706.943
 70
    32
  0
VERTEX
  8
T80SSILL
 62
3
 10
2668.421
 20
-8922.620
 30
-2706.857
 70
    32
  0
VERTEX
  8
T80SSILL
 62
3
 10
2668.564
 20
-8928.395
 30
-2706.750
 70
    32
  0
VERTEX
  8
T80SSILL
 62
3
 10
2661.193
 20
-8938.159
 30
-2706.720
 70
    32
  0
VERTEX
  8
T80SSILL
 62
3
 10
2668.019
 20
-9036.389
 30
-2705.826
 70
    32
  0
VERTEX
  8
T80SSILL
 62
3
 10
2671.309
 20
-9040.208
 30
-2705.768
 70
    32
  0
VERTEX
  8
T80SSILL
 62
3
 10
2671.658
 20
-9042.252
 30
-2705.749
 70
    32
  0
VERTEX
  8
T80SSILL
 62
3
 10
2671.614
 20
-9044.098
 30
-2705.735
 70
    32
  0
VERTEX
  8
T80SSILL
 62
3
 10
2668.262
 20
-9049.001
 30
-2705.727
 70
    32
  0
VERTEX
  8
T80SSILL
 62
3
 10
2675.513
 20
-9150.296
 30
-2705.016
 70
    32
  0
VERTEX
  8
T80SSILL
 62
3
 10
2678.760
 20
-9155.765
 30
-2704.961
 70
    32
  0
VERTEX
  8
T80SSILL
 62
3
 10
2676.041
 20
-9159.019
 30
-2704.961
 70
    32
  0
VERTEX
  8
T80SSILL
 62
3
 10
2679.406
 20
-9211.552
 30
-2704.583
 70
    32
  0
VERTEX
  8
T80SSILL
 62
3
 10
2685.806
 20
-9228.539
 30
-2704.407
 70
    32
  0
VERTEX
  8
T80SSILL
 62
3
 10
2697.156
 20
-9245.853
 30
-2704.215
 70
    32
  0
VERTEX
  8
T80SSILL
 62
3
 10
2702.716
 20
-9253.370
 30
-2704.130
 70
    32
  0
VERTEX
  8
T80SSILL
 62
3
 10
2708.053
 20
-9255.662
 30
-2704.095
 70
    32
  0
VERTEX
  8
T80SSILL
 62
3
 10
2716.795
 20
-9262.913
 30
-2704.004
 70
    32
  0
VERTEX
  8
T80SSILL
 62
3
 10
2725.743
 20
-9266.628
 30
-2703.946
 70
    32
  0
VERTEX
  8
T80SSILL
 62
3
 10
2737.012
 20
-9268.856
 30
-2703.897
 70
    32
  0
VERTEX
  8
T80SSILL
 62
3
 10
2762.819
 20
-9270.335
 30
-2703.592
 70
    32
  0
VERTEX
  8
T80SSILL
 62
3
 10
2765.859
 20
-9279.928
 30
-2703.521
 70
    32
  0
VERTEX
  8
T80SSILL
 62
3
 10
2930.449
 20
-9330.524
 30
-2701.263
 70
    32
  0
VERTEX
  8
T80SSILL
 62
3
 10
3066.469
 20
-9372.729
 30
-2702.224
 70
    32
  0
VERTEX
  8
T80SSILL
 62
3
 10
3224.420
 20
-9419.337
 30
-2703.363
 70
    32
  0
VERTEX
  8
T80SSILL
 62
3
 10
3236.122
 20
-9423.722
 30
-2703.436
 70
    32
  0
VERTEX
  8
T80SSILL
 62
3
 10
3244.947
 20
-9420.374
 30
-2703.598
 70
    32
  0
VERTEX
  8
T80SSILL
 62
3
 10
3266.308
 20
-9426.660
 30
-2703.759
 70
    32
  0
VERTEX
  8
T80SSILL
 62
3
 10
3271.075
 20
-9435.664
 30
-2703.674
 70
    32
  0
VERTEX
  8
T80SSILL
 62
3
 10
3511.635
 20
-9508.187
 30
-2705.428
 70
    32
  0
VERTEX
  8
T80SSILL
 62
3
 10
3524.461
 20
-9506.966
 30
-2705.541
 70
    32
  0
VERTEX
  8
T80SSILL
 62
3
 10
3528.316
 20
-9504.670
 30
-2705.579
 70
    32
  0
VERTEX
  8
T80SSILL
 62
3
 10
3542.265
 20
-9503.803
 30
-2705.700
 70
    32
  0
VERTEX
  8
T80SSILL
 62
3
 10
3564.457
 20
-9488.705
 30
-2705.928
 70
    32
  0
VERTEX
  8
T80SSILL
 62
3
 10
3565.455
 20
-9473.310
 30
-2705.976
 70
    32
  0
VERTEX
  8
T80SSILL
 62
3
 10
3580.708
 20
-9465.097
 30
-2706.127
 70
    32
  0
VERTEX
  8
T80SSILL
 62
3
 10
3580.869
 20
-9462.946
 30
-2706.133
 70
    32
  0
VERTEX
  8
T80SSILL
 62
3
 10
3572.542
 20
-9452.235
 30
-2706.090
 70
    32
  0
VERTEX
  8
T80SSILL
 62
3
 10
3576.735
 20
-9443.609
 30
-2706.147
 70
    32
  0
VERTEX
  8
T80SSILL
 62
3
 10
3590.736
 20
-9430.590
 30
-2706.300
 70
    32
  0
VERTEX
  8
T80SSILL
 62
3
 10
3594.761
 20
-9430.151
 30
-2706.335
 70
    32
  0
VERTEX
  8
T80SSILL
 62
3
 10
3610.883
 20
-9450.223
 30
-2706.421
 70
    32
  0
VERTEX
  8
T80SSILL
 62
3
 10
3614.404
 20
-9451.359
 30
-2706.449
 70
    32
  0
VERTEX
  8
T80SSILL
 62
3
 10
3622.259
 20
-9448.997
 30
-2706.521
 70
    32
  0
VERTEX
  8
T80SSILL
 62
3
 10
3627.739
 20
-9456.266
 30
-2706.550
 70
    32
  0
VERTEX
  8
T80SSILL
 62
3
 10
3612.398
 20
-9467.863
 30
-2706.389
 70
    32
  0
VERTEX
  8
T80SSILL
 62
3
 10
3607.515
 20
-9477.999
 30
-2706.322
 70
    32
  0
VERTEX
  8
T80SSILL
 62
3
 10
3603.641
 20
-9492.440
 30
-2706.252
 70
    32
  0
VERTEX
  8
T80SSILL
 62
3
 10
3592.465
 20
-9492.486
 30
-2706.157
 70
    32
  0
VERTEX
  8
T80SSILL
 62
3
 10
3591.487
 20
-9487.734
 30
-2706.161
 70
    32
  0
VERTEX
  8
T80SSILL
 62
3
 10
3586.489
 20
-9486.170
 30
-2706.122
 70
    32
  0
VERTEX
  8
T80SSILL
 62
3
 10
3550.024
 20
-9511.487
 30
-2705.747
 70
    32
  0
VERTEX
  8
T80SSILL
 62
3
 10
3556.689
 20
-9519.593
 30
-2705.783
 70
    32
  0
VERTEX
  8
T80SSILL
 62
3
 10
3561.150
 20
-9523.040
 30
-2705.812
 70
    32
  0
VERTEX
  8
T80SSILL
 62
3
 10
3659.246
 20
-9553.980
 30
-2706.576
 70
    32
  0
VERTEX
  8
T80SSILL
 62
3
 10
3660.283
 20
-9551.857
 30
-2706.591
 70
    32
  0
VERTEX
  8
T80SSILL
 62
3
 10
3666.763
 20
-9548.188
 30
-2706.661
 70
    32
  0
VERTEX
  8
T80SSILL
 62
3
 10
3679.112
 20
-9550.454
 30
-2706.771
 70
    32
  0
VERTEX
  8
T80SSILL
 62
3
 10
3691.552
 20
-9556.582
 30
-2706.870
 70
    32
  0
VERTEX
  8
T80SSILL
 62
3
 10
3697.492
 20
-9565.723
 30
-2706.901
 70
    32
  0
VERTEX
  8
T80SSILL
 62
3
 10
3768.895
 20
-9587.646
 30
-2707.510
 70
    32
  0
VERTEX
  8
T80SSILL
 62
3
 10
3806.913
 20
-9590.476
 30
-2707.652
 70
    32
  0
VERTEX
  8
T80SSILL
 62
3
 10
3807.488
 20
-9599.492
 30
-2707.646
 70
    32
  0
VERTEX
  8
T80SSILL
 62
3
 10
3774.680
 20
-9600.082
 30
-2707.601
 70
    32
  0
VERTEX
  8
T80SSILL
 62
3
 10
3766.383
 20
-9596.289
 30
-2707.523
 70
    32
  0
VERTEX
  8
T80SSILL
 62
3
 10
3615.308
 20
-9548.972
 30
-2706.248
 70
    32
  0
VERTEX
  8
T80SSILL
 62
3
 10
3243.259
 20
-9435.434
 30
-2703.441
 70
    32
  0
VERTEX
  8
T80SSILL
 62
3
 10
3234.278
 20
-9439.350
 30
-2703.412
 70
    32
  0
VERTEX
  8
T80SSILL
 62
3
 10
3230.231
 20
-9437.589
 30
-2703.379
 70
    32
  0
VERTEX
  8
T80SSILL
 62
3
 10
3225.376
 20
-9429.574
 30
-2703.307
 70
    32
  0
VERTEX
  8
T80SSILL
 62
3
 10
3221.456
 20
-9428.289
 30
-2703.277
 70
    32
  0
VERTEX
  8
T80SSILL
 62
3
 10
2930.369
 20
-9340.199
 30
-2701.216
 70
    32
  0
VERTEX
  8
T80SSILL
 62
3
 10
2743.655
 20
-9283.015
 30
-2703.769
 70
    32
  0
VERTEX
  8
T80SSILL
 62
3
 10
2727.835
 20
-9278.301
 30
-2703.831
 70
    32
  0
VERTEX
  8
T80SSILL
 62
3
 10
2722.415
 20
-9277.737
 30
-2703.850
 70
    32
  0
VERTEX
  8
T80SSILL
 62
3
 10
2703.071
 20
-9268.496
 30
-2703.987
 70
    32
  0
VERTEX
  8
T80SSILL
 62
3
 10
2696.916
 20
-9263.334
 30
-2704.051
 70
    32
  0
VERTEX
  8
T80SSILL
 62
3
 10
2693.474
 20
-9257.276
 30
-2704.117
 70
    32
  0
VERTEX
  8
T80SSILL
 62
3
 10
2685.914
 20
-9248.457
 30
-2704.219
 70
    32
  0
VERTEX
  8
T80SSILL
 62
3
 10
2683.280
 20
-9249.000
 30
-2704.221
 70
    32
  0
VERTEX
  8
T80SSILL
 62
3
 10
2682.492
 20
-9249.981
 30
-2704.214
 70
    32
  0
VERTEX
  8
T80SSILL
 62
3
 10
2683.713
 20
-9264.362
 30
-2704.075
 70
    32
  0
VERTEX
  8
T80SSILL
 62
3
 10
2686.883
 20
-9269.399
 30
-2704.020
 70
    32
  0
VERTEX
  8
T80SSILL
 62
3
 10
2684.158
 20
-9275.206
 30
-2703.972
 70
    32
  0
VERTEX
  8
T80SSILL
 62
3
 10
2691.485
 20
-9392.962
 30
-2703.638
 70
    32
  0
VERTEX
  8
T80SSILL
 62
3
 10
2696.378
 20
-9400.046
 30
-2703.578
 70
    32
  0
VERTEX
  8
T80SSILL
 62
3
 10
2700.026
 20
-9417.812
 30
-2703.500
 70
    32
  0
VERTEX
  8
T80SSILL
 62
3
 10
2694.981
 20
-9440.153
 30
-2703.546
 70
    32
  0
VERTEX
  8
T80SSILL
 62
3
 10
2706.235
 20
-9621.443
 30
-2702.951
 70
    32
  0
VERTEX
  8
T80SSILL
 62
3
 10
2710.349
 20
-9625.971
 30
-2702.982
 70
    32
  0
VERTEX
  8
T80SSILL
 62
3
 10
2710.539
 20
-9628.525
 30
-2702.994
 70
    32
  0
VERTEX
  8
T80SSILL
 62
3
 10
2707.099
 20
-9637.513
 30
-2703.029
 70
    32
  0
VERTEX
  8
T80SSILL
 62
3
 10
2714.560
 20
-9733.113
 30
-2703.245
 70
    32
  0
VERTEX
  8
T80SSILL
 62
3
 10
2719.608
 20
-9740.865
 30
-2703.189
 70
    32
  0
VERTEX
  8
T80SSILL
 62
3
 10
2720.189
 20
-9744.402
 30
-2703.170
 70
    32
  0
VERTEX
  8
T80SSILL
 62
3
 10
2716.079
 20
-9751.334
 30
-2703.151
 70
    32
  0
VERTEX
  8
T80SSILL
 62
3
 10
2723.171
 20
-9857.466
 30
-2703.032
 70
    32
  0
VERTEX
  8
T80SSILL
 62
3
 10
2726.681
 20
-9864.514
 30
-2703.052
 70
    32
  0
VERTEX
  8
T80SSILL
 62
3
 10
2726.665
 20
-9871.043
 30
-2703.064
 70
    32
  0
VERTEX
  8
T80SSILL
 62
3
 10
2723.368
 20
-9875.995
 30
-2703.067
 70
    32
  0
VERTEX
  8
T80SSILL
 62
3
 10
2728.763
 20
-9966.214
 30
-2703.242
 70
    32
  0
VERTEX
  8
T80SSILL
 62
3
 10
2738.462
 20
-9979.644
 30
-2703.295
 70
    32
  0
VERTEX
  8
T80SSILL
 62
3
 10
2739.604
 20
-9988.652
 30
-2703.312
 70
    32
  0
VERTEX
  8
T80SSILL
 62
3
 10
2739.546
 20
-10001.794
 30
-2703.332
 70
    32
  0
VERTEX
  8
T80SSILL
 62
3
 10
2731.921
 20
-10014.412
 30
-2703.325
 70
    32
  0
VERTEX
  8
T80SSILL
 62
3
 10
2738.029
 20
-10098.228
 30
-2703.472
 70
    32
  0
VERTEX
  8
T80SSILL
 62
3
 10
2740.617
 20
-10105.847
 30
-2703.492
 70
    32
  0
VERTEX
  8
T80SSILL
 62
3
 10
2738.751
 20
-10111.522
 30
-2703.494
 70
    32
  0
VERTEX
  8
T80SSILL
 62
3
 10
2740.317
 20
-10129.773
 30
-2703.527
 70
    32
  0
VERTEX
  8
T80SSILL
 62
3
 10
2740.144
 20
-10132.388
 30
-2703.531
 70
    32
  0
VERTEX
  8
T80SSILL
 62
3
 10
2730.104
 20
-10133.300
 30
-2703.501
 70
    32
  0
VERTEX
  8
T80SSILL
 62
3
 10
2728.811
 20
-10117.710
 30
-2703.474
 70
    32
  0
VERTEX
  8
T80SSILL
 62
3
 10
2724.262
 20
-10112.240
 30
-2703.453
 70
    32
  0
VERTEX
  8
T80SSILL
 62
3
 10
2728.140
 20
-10102.776
 30
-2703.449
 70
    32
  0
VERTEX
  8
T80SSILL
 62
3
 10
2721.662
 20
-9999.242
 30
-2703.270
 70
    32
  0
VERTEX
  8
T80SSILL
 62
3
 10
2715.185
 20
-9991.696
 30
-2703.241
 70
    32
  0
VERTEX
  8
T80SSILL
 62
3
 10
2719.970
 20
-9981.688
 30
-2703.238
 70
    32
  0
VERTEX
  8
T80SSILL
 62
3
 10
2713.229
 20
-9877.519
 30
-2703.046
 70
    32
  0
VERTEX
  8
T80SSILL
 62
3
 10
2708.377
 20
-9875.083
 30
-2703.026
 70
    32
  0
VERTEX
  8
T80SSILL
 62
3
 10
2707.292
 20
-9870.602
 30
-2703.015
 70
    32
  0
VERTEX
  8
T80SSILL
 62
3
 10
2712.805
 20
-9866.803
 30
-2703.025
 70
    32
  0
VERTEX
  8
T80SSILL
 62
3
 10
2705.197
 20
-9754.384
 30
-2703.213
 70
    32
  0
VERTEX
  8
T80SSILL
 62
3
 10
2696.609
 20
-9747.682
 30
-2703.348
 70
    32
  0
VERTEX
  8
T80SSILL
 62
3
 10
2703.618
 20
-9741.375
 30
-2703.287
 70
    32
  0
VERTEX
  8
T80SSILL
 62
3
 10
2699.789
 20
-9654.388
 30
-2703.045
 70
    32
  0
VERTEX
  8
T80SSILL
 62
3
 10
2692.224
 20
-9647.533
 30
-2702.959
 70
    32
  0
VERTEX
  8
T80SSILL
 62
3
 10
2697.715
 20
-9635.251
 30
-2702.935
 70
    32
  0
VERTEX
  8
T80SSILL
 62
3
 10
2697.180
 20
-9613.446
 30
-2703.011
 70
    32
  0
VERTEX
  8
T80SSILL
 62
3
 10
2690.579
 20
-9519.655
 30
-2703.530
 70
    32
  0
VERTEX
  8
T80SSILL
 62
3
 10
2685.945
 20
-9518.897
 30
-2703.533
 70
    32
  0
VERTEX
  8
T80SSILL
 62
3
 10
2675.381
 20
-9533.249
 30
-2703.528
 70
    32
  0
VERTEX
  8
T80SSILL
 62
3
 10
2646.373
 20
-9555.137
 30
-2703.715
 70
    32
  0
VERTEX
  8
T80SSILL
 62
3
 10
2641.601
 20
-9546.836
 30
-2703.993
 70
    32
  0
VERTEX
  8
T80SSILL
 62
3
 10
2665.063
 20
-9527.566
 30
-2703.571
 70
    32
  0
VERTEX
  8
T80SSILL
 62
3
 10
2675.071
 20
-9515.884
 30
-2703.541
 70
    32
  0
VERTEX
  8
T80SSILL
 62
3
 10
2677.566
 20
-9507.601
 30
-2703.545
 70
    32
  0
VERTEX
  8
T80SSILL
 62
3
 10
2676.669
 20
-9505.281
 30
-2703.547
 70
    32
  0
VERTEX
  8
T80SSILL
 62
3
 10
2678.180
 20
-9497.978
 30
-2703.552
 70
    32
  0
VERTEX
  8
T80SSILL
 62
3
 10
2683.064
 20
-9492.765
 30
-2703.553
 70
    32
  0
VERTEX
  8
T80SSILL
 62
3
 10
2685.550
 20
-9488.214
 30
-2703.555
 70
    32
  0
VERTEX
  8
T80SSILL
 62
3
 10
2687.657
 20
-9478.556
 30
-2703.561
 70
    32
  0
VERTEX
  8
T80SSILL
 62
3
 10
2684.395
 20
-9416.241
 30
-2703.627
 70
    32
  0
VERTEX
  8
T80SSILL
 62
3
 10
2677.968
 20
-9409.664
 30
-2703.677
 70
    32
  0
VERTEX
  8
T80SSILL
 62
3
 10
2683.055
 20
-9402.095
 30
-2703.657
 70
    32
  0
VERTEX
  8
T80SSILL
 62
3
 10
2675.388
 20
-9278.955
 30
-2704.161
 70
    32
  0
VERTEX
  8
T80SSILL
 62
3
 10
2669.858
 20
-9275.288
 30
-2704.444
 70
    32
  0
VERTEX
  8
T80SSILL
 62
3
 10
2674.783
 20
-9269.408
 30
-2704.252
 70
    32
  0
VERTEX
  8
T80SSILL
 62
3
 10
2667.976
 20
-9163.713
 30
-2705.067
 70
    32
  0
VERTEX
  8
T80SSILL
 62
3
 10
2663.274
 20
-9158.791
 30
-2705.210
 70
    32
  0
VERTEX
  8
T80SSILL
 62
3
 10
2666.900
 20
-9153.928
 30
-2705.137
 70
    32
  0
VERTEX
  8
T80SSILL
 62
3
 10
2659.578
 20
-9050.040
 30
-2705.683
 70
    32
  0
VERTEX
  8
T80SSILL
 62
3
 10
2659.271
 20
-9047.132
 30
-2705.698
 70
    32
  0
VERTEX
  8
T80SSILL
 62
3
 10
2656.058
 20
-9043.549
 30
-2705.763
 70
    32
  0
VERTEX
  8
T80SSILL
 62
3
 10
2654.853
 20
-9038.321
 30
-2705.801
 70
    32
  0
VERTEX
  8
T80SSILL
 62
3
 10
2658.990
 20
-9033.617
 30
-2705.733
 70
    32
  0
VERTEX
  8
T80SSILL
 62
3
 10
2648.026
 20
-8909.409
 30
-2706.720
 70
    32
  0
VERTEX
  8
T80SSILL
 62
3
 10
2648.414
 20
-8895.542
 30
-2706.902
 70
    32
  0
VERTEX
  8
T80SSILL
 62
3
 10
2645.896
 20
-8881.393
 30
-2706.958
 70
    32
  0
VERTEX
  8
T80SSILL
 62
3
 10
2617.548
 20
-8738.139
 30
-2705.528
 70
    32
  0
VERTEX
  8
T80SSILL
 62
3
 10
2613.326
 20
-8736.259
 30
-2705.575
 70
    32
  0
VERTEX
  8
T80SSILL
 62
3
 10
2605.790
 20
-8723.841
 30
-2705.773
 70
    32
  0
VERTEX
  8
T80SSILL
 62
3
 10
2602.539
 20
-8713.822
 30
-2705.918
 70
    32
  0
VERTEX
  8
T80SSILL
 62
3
 10
2596.242
 20
-8699.216
 30
-2706.137
 70
    32
  0
VERTEX
  8
T80SSILL
 62
3
 10
2593.592
 20
-8694.358
 30
-2706.213
 70
    32
  0
VERTEX
  8
T80SSILL
 62
3
 10
2586.135
 20
-8695.255
 30
-2706.305
 70
    32
  0
VERTEX
  8
T80SSILL
 62
3
 10
2580.747
 20
-8684.168
 30
-2706.305
 70
    32
  0
VERTEX
  8
T80SSILL
 62
3
 10
2584.581
 20
-8655.020
 30
-2705.909
 70
    32
  0
VERTEX
  8
T80SSILL
 62
3
 10
2587.383
 20
-8638.120
 30
-2706.733
 70
    32
  0
VERTEX
  8
T80SSILL
 62
3
 10
2589.576
 20
-8623.900
 30
-2707.425
 70
    32
  0
VERTEX
  8
T80SSILL
 62
3
 10
2589.541
 20
-8609.599
 30
-2707.719
 70
    32
  0
VERTEX
  8
T80SSILL
 62
3
 10
2548.627
 20
-8410.400
 30
-2708.754
 70
    32
  0
VERTEX
  8
T80SSILL
 62
3
 10
2539.880
 20
-8389.818
 30
-2708.806
 70
    32
  0
VERTEX
  8
T80SSILL
 62
3
 10
2540.226
 20
-8377.886
 30
-2708.821
 70
    32
  0
VERTEX
  8
T80SSILL
 62
3
 10
2512.746
 20
-8300.154
 30
-2708.998
 70
    32
  0
VERTEX
  8
T80SSILL
 62
3
 10
2505.167
 20
-8294.141
 30
-2709.016
 70
    32
  0
VERTEX
  8
T80SSILL
 62
3
 10
2505.028
 20
-8291.118
 30
-2709.026
 70
    32
  0
VERTEX
  8
T80SSILL
 62
3
 10
2508.082
 20
-8285.876
 30
-2709.031
 70
    32
  0
VERTEX
  8
T80SSILL
 62
3
 10
2477.865
 20
-8199.766
 30
-2709.197
 70
    32
  0
VERTEX
  8
T80SSILL
 62
3
 10
2470.545
 20
-8196.346
 30
-2709.172
 70
    32
  0
VERTEX
  8
T80SSILL
 62
3
 10
2469.618
 20
-8193.907
 30
-2709.176
 70
    32
  0
VERTEX
  8
T80SSILL
 62
3
 10
2474.047
 20
-8188.477
 30
-2709.216
 70
    32
  0
VERTEX
  8
T80SSILL
 62
3
 10
2450.906
 20
-8120.231
 30
-2709.330
 70
    32
  0
VERTEX
  8
T80SSILL
 62
3
 10
2445.396
 20
-8109.560
 30
-2709.357
 70
    32
  0
VERTEX
  8
T80SSILL
 62
3
 10
2444.015
 20
-8104.134
 30
-2709.373
 70
    32
  0
VERTEX
  8
T80SSILL
 62
3
 10
2440.181
 20
-8101.991
 30
-2709.379
 70
    32
  0
VERTEX
  8
T80SSILL
 62
3
 10
2439.884
 20
-8099.281
 30
-2709.387
 70
    32
  0
VERTEX
  8
T80SSILL
 62
3
 10
2442.495
 20
-8095.882
 30
-2709.398
 70
    32
  0
VERTEX
  8
T80SSILL
 62
3
 10
2412.248
 20
-8008.280
 30
-2709.702
 70
    32
  0
VERTEX
  8
T80SSILL
 62
3
 10
2408.410
 20
-8006.726
 30
-2709.777
 70
    32
  0
VERTEX
  8
T80SSILL
 62
3
 10
2407.088
 20
-8004.676
 30
-2709.806
 70
    32
  0
VERTEX
  8
T80SSILL
 62
3
 10
2405.984
 20
-7998.899
 30
-2709.836
 70
    32
  0
VERTEX
  8
T80SSILL
 62
3
 10
2408.320
 20
-7995.655
 30
-2709.797
 70
    32
  0
VERTEX
  8
T80SSILL
 62
3
 10
2342.813
 20
-7805.308
 30
-2711.187
 70
    32
  0
VERTEX
  8
T80SSILL
 62
3
 10
2335.635
 20
-7803.342
 30
-2711.178
 70
    32
  0
VERTEX
  8
T80SSILL
 62
3
 10
2335.507
 20
-7801.418
 30
-2711.185
 70
    32
  0
VERTEX
  8
T80SSILL
 62
3
 10
2338.344
 20
-7795.863
 30
-2711.211
 70
    32
  0
VERTEX
  8
T80SSILL
 62
3
 10
2299.032
 20
-7684.128
 30
-2711.436
 70
    32
  0
VERTEX
  8
T80SSILL
 62
3
 10
2294.881
 20
-7686.390
 30
-2711.450
 70
    32
  0
VERTEX
  8
T80SSILL
 62
3
 10
2290.566
 20
-7701.586
 30
-2711.449
 70
    32
  0
VERTEX
  8
T80SSILL
 62
3
 10
2292.443
 20
-7708.870
 30
-2711.427
 70
    32
  0
VERTEX
  8
T80SSILL
 62
3
 10
2292.449
 20
-7714.287
 30
-2711.407
 70
    32
  0
VERTEX
  8
T80SSILL
 62
3
 10
2282.837
 20
-7726.437
 30
-2711.343
 70
    32
  0
VERTEX
  8
T80SSILL
 62
3
 10
2279.641
 20
-7729.244
 30
-2711.325
 70
    32
  0
VERTEX
  8
T80SSILL
 62
3
 10
2268.115
 20
-7726.741
 30
-2711.309
 70
    32
  0
VERTEX
  8
T80SSILL
 62
3
 10
2265.141
 20
-7725.231
 30
-2711.308
 70
    32
  0
VERTEX
  8
T80SSILL
 62
3
 10
2264.921
 20
-7722.561
 30
-2711.318
 70
    32
  0
VERTEX
  8
T80SSILL
 62
3
 10
2261.772
 20
-7717.517
 30
-2711.329
 70
    32
  0
VERTEX
  8
T80SSILL
 62
3
 10
2261.273
 20
-7715.591
 30
-2711.335
 70
    32
  0
VERTEX
  8
T80SSILL
 62
3
 10
2267.832
 20
-7708.486
 30
-2711.375
 70
    32
  0
VERTEX
  8
T80SSILL
 62
3
 10
2271.671
 20
-7696.851
 30
-2711.426
 70
    32
  0
VERTEX
  8
T80SSILL
 62
3
 10
2278.463
 20
-7696.656
 30
-2711.441
 70
    32
  0
VERTEX
  8
T80SSILL
 62
3
 10
2280.834
 20
-7694.119
 30
-2711.455
 70
    32
  0
VERTEX
  8
T80SSILL
 62
3
 10
2284.230
 20
-7685.349
 30
-2711.490
 70
    32
  0
VERTEX
  8
T80SSILL
 62
3
 10
2289.259
 20
-7664.227
 30
-2711.484
 70
    32
  0
VERTEX
  8
T80SSILL
 62
3
 10
2284.965
 20
-7640.760
 30
-2711.513
 70
    32
  0
VERTEX
  8
T80SSILL
 62
3
 10
2273.782
 20
-7607.628
 30
-2711.573
 70
    32
  0
VERTEX
  8
T80SSILL
 62
3
 10
2266.458
 20
-7604.409
 30
-2711.602
 70
    32
  0
VERTEX
  8
T80SSILL
 62
3
 10
2269.437
 20
-7596.182
 30
-2711.615
 70
    32
  0
VERTEX
  8
T80SSILL
 62
3
 10
2238.937
 20
-7507.888
 30
-2711.989
 70
    32
  0
VERTEX
  8
T80SSILL
 62
3
 10
2234.061
 20
-7507.051
 30
-2711.957
 70
    32
  0
VERTEX
  8
T80SSILL
 62
3
 10
2233.302
 20
-7504.816
 30
-2711.967
 70
    32
  0
VERTEX
  8
T80SSILL
 62
3
 10
2235.859
 20
-7498.242
 30
-2712.028
 70
    32
  0
VERTEX
  8
T80SSILL
 62
3
 10
2204.918
 20
-7408.458
 30
-2712.355
 70
    32
  0
VERTEX
  8
T80SSILL
 62
3
 10
2201.066
 20
-7408.125
 30
-2712.352
 70
    32
  0
VERTEX
  8
T80SSILL
 62
3
 10
2199.403
 20
-7405.738
 30
-2712.356
 70
    32
  0
VERTEX
  8
T80SSILL
 62
3
 10
2202.508
 20
-7398.847
 30
-2712.381
 70
    32
  0
VERTEX
  8
T80SSILL
 62
3
 10
2176.572
 20
-7323.682
 30
-2712.564
 70
    32
  0
VERTEX
  8
T80SSILL
 62
3
 10
2167.951
 20
-7317.310
 30
-2711.500
 70
    32
  0
VERTEX
  8
T80SSILL
 62
3
 10
2158.794
 20
-7308.205
 30
-2710.578
 70
    32
  0
VERTEX
  8
T80SSILL
 62
3
 10
2160.775
 20
-7299.272
 30
-2711.593
 70
    32
  0
VERTEX
  8
T80SSILL
 62
3
 10
2163.981
 20
-7286.815
 30
-2712.631
 70
    32
  0
VERTEX
  8
T80SSILL
 62
3
 10
2150.966
 20
-7249.154
 30
-2712.686
 70
    32
  0
VERTEX
  8
T80SSILL
 62
3
 10
2144.975
 20
-7245.613
 30
-2712.702
 70
    32
  0
VERTEX
  8
T80SSILL
 62
3
 10
2140.837
 20
-7257.381
 30
-2712.705
 70
    32
  0
VERTEX
  8
T80SSILL
 62
3
 10
2129.504
 20
-7275.003
 30
-2712.663
 70
    32
  0
VERTEX
  8
T80SSILL
 62
3
 10
2102.524
 20
-7297.543
 30
-2712.388
 70
    32
  0
VERTEX
  8
T80SSILL
 62
3
 10
2092.038
 20
-7305.104
 30
-2712.414
 70
    32
  0
VERTEX
  8
T80SSILL
 62
3
 10
2086.218
 20
-7296.847
 30
-2712.440
 70
    32
  0
VERTEX
  8
T80SSILL
 62
3
 10
2110.286
 20
-7280.412
 30
-2712.561
 70
    32
  0
VERTEX
  8
T80SSILL
 62
3
 10
2121.966
 20
-7268.641
 30
-2712.674
 70
    32
  0
VERTEX
  8
T80SSILL
 62
3
 10
2130.072
 20
-7256.969
 30
-2712.715
 70
    32
  0
VERTEX
  8
T80SSILL
 62
3
 10
2135.419
 20
-7243.741
 30
-2712.727
 70
    32
  0
VERTEX
  8
T80SSILL
 62
3
 10
2137.984
 20
-7231.588
 30
-2712.729
 70
    32
  0
VERTEX
  8
T80SSILL
 62
3
 10
2138.066
 20
-7225.067
 30
-2712.733
 70
    32
  0
VERTEX
  8
T80SSILL
 62
3
 10
2131.715
 20
-7206.168
 30
-2712.762
 70
    32
  0
VERTEX
  8
T80SSILL
 62
3
 10
2134.121
 20
-7200.891
 30
-2712.761
 70
    32
  0
VERTEX
  8
T80SSILL
 62
3
 10
2104.410
 20
-7113.182
 30
-2712.897
 70
    32
  0
VERTEX
  8
T80SSILL
 62
3
 10
2100.014
 20
-7113.953
 30
-2712.906
 70
    32
  0
VERTEX
  8
T80SSILL
 62
3
 10
2096.375
 20
-7109.416
 30
-2712.918
 70
    32
  0
VERTEX
  8
T80SSILL
 62
3
 10
2101.133
 20
-7103.144
 30
-2712.912
 70
    32
  0
VERTEX
  8
T80SSILL
 62
3
 10
2062.097
 20
-6991.446
 30
-2713.193
 70
    32
  0
VERTEX
  8
T80SSILL
 62
3
 10
2058.560
 20
-6991.269
 30
-2713.193
 70
    32
  0
VERTEX
  8
T80SSILL
 62
3
 10
2054.366
 20
-6985.872
 30
-2713.207
 70
    32
  0
VERTEX
  8
T80SSILL
 62
3
 10
2058.892
 20
-6980.269
 30
-2713.223
 70
    32
  0
VERTEX
  8
T80SSILL
 62
3
 10
2044.639
 20
-6938.464
 30
-2713.337
 70
    32
  0
VERTEX
  8
T80SSILL
 62
3
 10
2039.881
 20
-6937.035
 30
-2714.698
 70
    32
  0
VERTEX
  8
T80SSILL
 62
3
 10
2036.216
 20
-6936.489
 30
-2715.646
 70
    32
  0
VERTEX
  8
T80SSILL
 62
3
 10
2035.825
 20
-6936.612
 30
-2715.714
 70
    32
  0
VERTEX
  8
T80SSILL
 62
3
 10
2035.600
 20
-6936.682
 30
-2715.768
 70
    32
  0
VERTEX
  8
T80SSILL
 62
3
 10
2033.179
 20
-6940.316
 30
-2716.214
 70
    32
  0
VERTEX
  8
T80SSILL
 62
3
 10
2031.097
 20
-6954.658
 30
-2716.035
 70
    32
  0
VERTEX
  8
T80SSILL
 62
3
 10
2029.484
 20
-6962.837
 30
-2716.043
 70
    32
  0
VERTEX
  8
T80SSILL
 62
3
 10
2028.254
 20
-6963.024
 30
-2716.352
 70
    32
  0
VERTEX
  8
T80SSILL
 62
3
 10
2027.273
 20
-6963.173
 30
-2716.431
 70
    32
  0
VERTEX
  8
T80SSILL
 62
3
 10
2025.267
 20
-6966.049
 30
-2716.335
 70
    32
  0
VERTEX
  8
T80SSILL
 62
3
 10
2023.706
 20
-6969.618
 30
-2716.126
 70
    32
  0
VERTEX
  8
T80SSILL
 62
3
 10
2023.800
 20
-6971.400
 30
-2715.939
 70
    32
  0
VERTEX
  8
T80SSILL
 62
3
 10
2033.832
 20
-6981.327
 30
-2713.986
 70
    32
  0
VERTEX
  8
T80SSILL
 62
3
 10
2033.373
 20
-6987.975
 30
-2713.364
 70
    32
  0
VERTEX
  8
T80SSILL
 62
3
 10
2018.600
 20
-6986.300
 30
-2714.943
 70
    32
  0
VERTEX
  8
T80SSILL
 62
3
 10
2016.668
 20
-6988.527
 30
-2714.905
 70
    32
  0
VERTEX
  8
T80SSILL
 62
3
 10
2016.251
 20
-6989.527
 30
-2714.844
 70
    32
  0
VERTEX
  8
T80SSILL
 62
3
 10
2012.918
 20
-6996.326
 30
-2714.482
 70
    32
  0
VERTEX
  8
T80SSILL
 62
3
 10
2008.987
 20
-7008.946
 30
-2713.593
 70
    32
  0
VERTEX
  8
T80SSILL
 62
3
 10
2008.396
 20
-7019.321
 30
-2712.611
 70
    32
  0
VERTEX
  8
T80SSILL
 62
3
 10
2004.383
 20
-7023.089
 30
-2712.617
 70
    32
  0
VERTEX
  8
T80SSILL
 62
3
 10
2001.961
 20
-7030.090
 30
-2712.146
 70
    32
  0
VERTEX
  8
T80SSILL
 62
3
 10
1998.222
 20
-7035.706
 30
-2712.069
 70
    32
  0
VERTEX
  8
T80SSILL
 62
3
 10
1994.750
 20
-7044.675
 30
-2711.955
 70
    32
  0
VERTEX
  8
T80SSILL
 62
3
 10
1988.255
 20
-7063.218
 30
-2711.723
 70
    32
  0
VERTEX
  8
T80SSILL
 62
3
 10
1981.527
 20
-7076.802
 30
-2711.545
 70
    32
  0
VERTEX
  8
T80SSILL
 62
3
 10
1971.424
 20
-7072.696
 30
-2711.546
 70
    32
  0
VERTEX
  8
T80SSILL
 62
3
 10
1976.385
 20
-7058.741
 30
-2711.720
 70
    32
  0
VERTEX
  8
T80SSILL
 62
3
 10
1976.462
 20
-7058.526
 30
-2711.735
 70
    32
  0
VERTEX
  8
T80SSILL
 62
3
 10
1990.110
 20
-7030.392
 30
-2713.249
 70
    32
  0
VERTEX
  8
T80SSILL
 62
3
 10
1998.432
 20
-7005.538
 30
-2714.943
 70
    32
  0
VERTEX
  8
T80SSILL
 62
3
 10
2012.845
 20
-6972.070
 30
-2716.918
 70
    32
  0
VERTEX
  8
T80SSILL
 62
3
 10
2017.147
 20
-6959.105
 30
-2717.806
 70
    32
  0
VERTEX
  8
T80SSILL
 62
3
 10
2021.579
 20
-6941.211
 30
-2719.175
 70
    32
  0
VERTEX
  8
T80SSILL
 62
3
 10
2022.120
 20
-6939.026
 30
-2719.144
 70
    32
  0
VERTEX
  8
T80SSILL
 62
3
 10
2021.575
 20
-6933.617
 30
-2719.556
 70
    32
  0
VERTEX
  8
T80SSILL
 62
3
 10
2021.565
 20
-6933.521
 30
-2719.576
 70
    32
  0
VERTEX
  8
T80SSILL
 62
3
 10
2030.817
 20
-6920.330
 30
-2719.853
 70
    32
  0
VERTEX
  8
T80SSILL
 62
3
 10
2033.173
 20
-6905.630
 30
-2722.000
 70
    32
  0
VERTEX
  8
T80SSILL
 62
3
 10
2007.442
 20
-6832.971
 30
-2713.523
 70
    32
  0
VERTEX
  8
T80SSILL
 62
3
 10
1997.999
 20
-6830.274
 30
-2713.541
 70
    32
  0
VERTEX
  8
T80SSILL
 62
3
 10
1987.823
 20
-6801.458
 30
-2713.567
 70
    32
  0
VERTEX
  8
T80SSILL
 62
3
 10
1991.992
 20
-6788.236
 30
-2713.562
 70
    32
  0
VERTEX
  8
T80SSILL
 62
3
 10
1990.837
 20
-6781.070
 30
-2713.566
 70
    32
  0
VERTEX
  8
T80SSILL
 62
3
 10
1968.218
 20
-6716.607
 30
-2713.717
 70
    32
  0
VERTEX
  8
T80SSILL
 62
3
 10
1965.573
 20
-6718.215
 30
-2713.714
 70
    32
  0
VERTEX
  8
T80SSILL
 62
3
 10
1961.451
 20
-6712.292
 30
-2713.736
 70
    32
  0
VERTEX
  8
T80SSILL
 62
3
 10
1965.558
 20
-6709.268
 30
-2713.743
 70
    32
  0
VERTEX
  8
T80SSILL
 62
3
 10
1949.996
 20
-6664.845
 30
-2713.898
 70
    32
  0
VERTEX
  8
T80SSILL
 62
3
 10
1937.176
 20
-6654.680
 30
-2713.940
 70
    32
  0
VERTEX
  8
T80SSILL
 62
3
 10
1937.106
 20
-6637.298
 30
-2713.996
 70
    32
  0
VERTEX
  8
T80SSILL
 62
3
 10
1939.110
 20
-6625.283
 30
-2714.034
 70
    32
  0
VERTEX
  8
T80SSILL
 62
3
 10
1934.273
 20
-6327.869
 30
-2716.516
 70
    32
  0
VERTEX
  8
T80SSILL
 62
3
 10
1930.669
 20
-6106.695
 30
-2716.750
 70
    32
  0
VERTEX
  8
T80SSILL
 62
3
 10
1897.032
 20
-6098.600
 30
-2716.390
 70
    32
  0
VERTEX
  8
T80SSILL
 62
3
 10
1898.834
 20
-6088.555
 30
-2716.423
 70
    32
  0
VERTEX
  8
T80SSILL
 62
3
 10
1908.050
 20
-6091.064
 30
-2716.521
 70
    32
  0
VERTEX
  8
T80SSILL
 62
3
 10
1913.267
 20
-6085.718
 30
-2716.585
 70
    32
  0
VERTEX
  8
T80SSILL
 62
3
 10
1920.394
 20
-6088.182
 30
-2716.660
 70
    32
  0
VERTEX
  8
T80SSILL
 62
3
 10
1921.835
 20
-6094.453
 30
-2716.668
 70
    32
  0
VERTEX
  8
T80SSILL
 62
3
 10
1925.303
 20
-6094.699
 30
-2716.706
 70
    32
  0
VERTEX
  8
T80SSILL
 62
3
 10
1930.943
 20
-6092.980
 30
-2716.770
 70
    32
  0
VERTEX
  8
T80SSILL
 62
3
 10
1929.660
 20
-6030.546
 30
-2716.833
 70
    32
  0
VERTEX
  8
T80SSILL
 62
3
 10
1910.164
 20
-6021.881
 30
-2716.647
 70
    32
  0
VERTEX
  8
T80SSILL
 62
3
 10
1909.324
 20
-6017.832
 30
-2716.656
 70
    32
  0
VERTEX
  8
T80SSILL
 62
3
 10
1930.073
 20
-6009.579
 30
-2716.863
 70
    32
  0
VERTEX
  8
T80SSILL
 62
3
 10
1928.342
 20
-5881.835
 30
-2717.430
 70
    32
  0
VERTEX
  8
T80SSILL
 62
3
 10
1924.914
 20
-5867.203
 30
-2717.518
 70
    32
  0
VERTEX
  8
T80SSILL
 62
3
 10
1924.461
 20
-5860.146
 30
-2717.570
 70
    32
  0
VERTEX
  8
T80SSILL
 62
3
 10
1930.912
 20
-5850.745
 30
-2717.701
 70
    32
  0
VERTEX
  8
T80SSILL
 62
3
 10
1943.558
 20
-5824.688
 30
-2717.901
 70
    32
  0
VERTEX
  8
T80SSILL
 62
3
 10
1938.792
 20
-5823.414
 30
-2717.851
 70
    32
  0
VERTEX
  8
T80SSILL
 62
3
 10
1925.731
 20
-5828.816
 30
-2717.690
 70
    32
  0
VERTEX
  8
T80SSILL
 62
3
 10
1915.246
 20
-5815.229
 30
-2717.608
 70
    32
  0
VERTEX
  8
T80SSILL
 62
3
 10
1943.907
 20
-5798.637
 30
-2717.972
 70
    32
  0
VERTEX
  8
T80SSILL
 62
3
 10
1961.519
 20
-5786.547
 30
-2718.198
 70
    32
  0
VERTEX
  8
T80SSILL
 62
3
 10
1964.070
 20
-5776.228
 30
-2718.254
 70
    32
  0
VERTEX
  8
T80SSILL
 62
3
 10
1970.298
 20
-5762.017
 30
-2718.359
 70
    32
  0
VERTEX
  8
T80SSILL
 62
3
 10
1973.091
 20
-5749.806
 30
-2718.424
 70
    32
  0
VERTEX
  8
T80SSILL
 62
3
 10
1972.205
 20
-5728.402
 30
-2718.476
 70
    32
  0
VERTEX
  8
T80SSILL
 62
3
 10
1967.821
 20
-5731.464
 30
-2718.414
 70
    32
  0
VERTEX
  8
T80SSILL
 62
3
 10
1963.817
 20
-5725.778
 30
-2718.383
 70
    32
  0
VERTEX
  8
T80SSILL
 62
3
 10
1972.151
 20
-5719.574
 30
-2718.522
 70
    32
  0
VERTEX
  8
T80SSILL
 62
3
 10
1970.418
 20
-5606.491
 30
-2718.739
 70
    32
  0
VERTEX
  8
T80SSILL
 62
3
 10
1964.575
 20
-5609.786
 30
-2718.681
 70
    32
  0
VERTEX
  8
T80SSILL
 62
3
 10
1961.202
 20
-5603.983
 30
-2718.636
 70
    32
  0
VERTEX
  8
T80SSILL
 62
3
 10
1970.682
 20
-5596.718
 30
-2718.727
 70
    32
  0
VERTEX
  8
T80SSILL
 62
3
 10
1969.423
 20
-5553.359
 30
-2718.668
 70
    32
  0
VERTEX
  8
T80SSILL
 62
3
 10
1950.438
 20
-5549.207
 30
-2718.475
 70
    32
  0
VERTEX
  8
T80SSILL
 62
3
 10
1920.483
 20
-5549.320
 30
-2718.162
 70
    32
  0
VERTEX
  8
T80SSILL
 62
3
 10
1918.169
 20
-5559.522
 30
-2718.126
 70
    32
  0
VERTEX
  8
T80SSILL
 62
3
 10
1909.852
 20
-5559.617
 30
-2718.039
 70
    32
  0
VERTEX
  8
T80SSILL
 62
3
 10
1907.790
 20
-5549.915
 30
-2718.029
 70
    32
  0
VERTEX
  8
T80SSILL
 62
3
 10
1854.502
 20
-5550.397
 30
-2717.472
 70
    32
  0
VERTEX
  8
T80SSILL
 62
3
 10
1843.355
 20
-5547.764
 30
-2717.359
 70
    32
  0
VERTEX
  8
T80SSILL
 62
3
 10
1829.545
 20
-5539.370
 30
-2717.225
 70
    32
  0
VERTEX
  8
T80SSILL
 62
3
 10
1779.091
 20
-5541.002
 30
-2716.777
 70
    32
  0
VERTEX
  8
T80SSILL
 62
3
 10
1779.238
 20
-5544.865
 30
-2716.748
 70
    32
  0
VERTEX
  8
T80SSILL
 62
3
 10
1775.369
 20
-5546.983
 30
-2716.706
 70
    32
  0
VERTEX
  8
T80SSILL
 62
3
 10
1771.608
 20
-5552.884
 30
-2716.635
 70
    32
  0
VERTEX
  8
T80SSILL
 62
3
 10
1772.826
 20
-5596.755
 30
-2716.571
 70
    32
  0
VERTEX
  8
T80SSILL
 62
3
 10
1762.144
 20
-5597.041
 30
-2716.567
 70
    32
  0
VERTEX
  8
T80SSILL
 62
3
 10
1761.269
 20
-5557.625
 30
-2716.561
 70
    32
  0
VERTEX
  8
T80SSILL
 62
3
 10
1755.454
 20
-5551.066
 30
-2716.597
 70
    32
  0
VERTEX
  8
T80SSILL
 62
3
 10
1752.562
 20
-5542.268
 30
-2716.649
 70
    32
  0
VERTEX
  8
T80SSILL
 62
3
 10
1734.470
 20
-5542.691
 30
-2716.635
 70
    32
  0
VERTEX
  8
T80SSILL
 62
3
 10
1733.354
 20
-5532.913
 30
-2716.694
 70
    32
  0
VERTEX
  8
T80SSILL
 62
3
 10
1752.747
 20
-5532.337
 30
-2716.710
 70
    32
  0
VERTEX
  8
T80SSILL
 62
3
 10
1760.268
 20
-5520.731
 30
-2716.813
 70
    32
  0
VERTEX
  8
T80SSILL
 62
3
 10
1759.288
 20
-5384.663
 30
-2717.876
 70
    32
  0
VERTEX
  8
T80SSILL
 62
3
 10
1756.763
 20
-5329.663
 30
-2718.292
 70
    32
  0
VERTEX
  8
T80SSILL
 62
3
 10
1759.786
 20
-5313.375
 30
-2718.440
 70
    32
  0
VERTEX
  8
T80SSILL
 62
3
 10
1764.971
 20
-5299.602
 30
-2718.582
 70
    32
  0
VERTEX
  8
T80SSILL
 62
3
 10
1773.075
 20
-5285.561
 30
-2718.746
 70
    32
  0
VERTEX
  8
T80SSILL
 62
3
 10
1787.905
 20
-5269.466
 30
-2718.970
 70
    32
  0
VERTEX
  8
T80SSILL
 62
3
 10
1767.980
 20
-5248.078
 30
-2719.007
 70
    32
  0
VERTEX
  8
T80SSILL
 62
3
 10
1776.805
 20
-5240.466
 30
-2719.125
 70
    32
  0
VERTEX
  8
T80SSILL
 62
3
 10
1791.500
 20
-5256.651
 30
-2719.094
 70
    32
  0
VERTEX
  8
T80SSILL
 62
3
 10
1806.164
 20
-5253.072
 30
-2719.218
 70
    32
  0
VERTEX
  8
T80SSILL
 62
3
 10
1906.494
 20
-5158.142
 30
-2719.869
 70
    32
  0
VERTEX
  8
T80SSILL
 62
3
 10
1903.974
 20
-5155.739
 30
-2719.873
 70
    32
  0
VERTEX
  8
T80SSILL
 62
3
 10
1901.632
 20
-5149.756
 30
-2719.891
 70
    32
  0
VERTEX
  8
T80SSILL
 62
3
 10
1904.975
 20
-5147.527
 30
-2719.908
 70
    32
  0
VERTEX
  8
T80SSILL
 62
3
 10
1876.941
 20
-5056.323
 30
-2720.205
 70
    32
  0
VERTEX
  8
T80SSILL
 62
3
 10
1870.716
 20
-5042.167
 30
-2720.247
 70
    32
  0
VERTEX
  8
T80SSILL
 62
3
 10
1861.680
 20
-5014.539
 30
-2720.285
 70
    32
  0
VERTEX
  8
T80SSILL
 62
3
 10
1846.568
 20
-4956.459
 30
-2720.301
 70
    32
  0
VERTEX
  8
T80SSILL
 62
3
 10
1824.141
 20
-4972.470
 30
-2720.293
 70
    32
  0
VERTEX
  8
T80SSILL
 62
3
 10
1823.002
 20
-4977.136
 30
-2720.291
 70
    32
  0
VERTEX
  8
T80SSILL
 62
3
 10
1813.284
 20
-4983.985
 30
-2720.287
 70
    32
  0
VERTEX
  8
T80SSILL
 62
3
 10
1809.798
 20
-4982.865
 30
-2720.287
 70
    32
  0
VERTEX
  8
T80SSILL
 62
3
 10
1772.710
 20
-5009.501
 30
-2720.170
 70
    32
  0
VERTEX
  8
T80SSILL
 62
3
 10
1771.738
 20
-5015.942
 30
-2720.134
 70
    32
  0
VERTEX
  8
T80SSILL
 62
3
 10
1767.395
 20
-5019.138
 30
-2720.106
 70
    32
  0
VERTEX
  8
T80SSILL
 62
3
 10
1761.705
 20
-5022.825
 30
-2720.073
 70
    32
  0
VERTEX
  8
T80SSILL
 62
3
 10
1755.274
 20
-5021.263
 30
-2720.065
 70
    32
  0
VERTEX
  8
T80SSILL
 62
3
 10
1662.927
 20
-5087.899
 30
-2719.565
 70
    32
  0
VERTEX
  8
T80SSILL
 62
3
 10
1657.329
 20
-5081.115
 30
-2719.565
 70
    32
  0
VERTEX
  8
T80SSILL
 62
3
 10
1674.619
 20
-5068.682
 30
-2719.638
 70
    32
  0
VERTEX
  8
T80SSILL
 62
3
 10
1670.612
 20
-5060.939
 30
-2719.659
 70
    32
  0
VERTEX
  8
T80SSILL
 62
3
 10
1667.084
 20
-5057.614
 30
-2719.664
 70
    32
  0
VERTEX
  8
T80SSILL
 62
3
 10
1661.700
 20
-5054.613
 30
-2719.662
 70
    32
  0
VERTEX
  8
T80SSILL
 62
3
 10
1650.519
 20
-5051.957
 30
-2719.644
 70
    32
  0
VERTEX
  8
T80SSILL
 62
3
 10
1650.398
 20
-5046.933
 30
-2719.670
 70
    32
  0
VERTEX
  8
T80SSILL
 62
3
 10
1654.099
 20
-5042.717
 30
-2719.701
 70
    32
  0
VERTEX
  8
T80SSILL
 62
3
 10
1666.829
 20
-5034.658
 30
-2719.775
 70
    32
  0
VERTEX
  8
T80SSILL
 62
3
 10
1681.068
 20
-5064.299
 30
-2719.672
 70
    32
  0
VERTEX
  8
T80SSILL
 62
3
 10
1752.336
 20
-5013.074
 30
-2720.100
 70
    32
  0
VERTEX
  8
T80SSILL
 62
3
 10
1748.890
 20
-5007.222
 30
-2720.122
 70
    32
  0
VERTEX
  8
T80SSILL
 62
3
 10
1762.795
 20
-4997.095
 30
-2720.210
 70
    32
  0
VERTEX
  8
T80SSILL
 62
3
 10
1766.598
 20
-5002.822
 30
-2720.189
 70
    32
  0
VERTEX
  8
T80SSILL
 62
3
 10
1804.879
 20
-4975.540
 30
-2720.289
 70
    32
  0
VERTEX
  8
T80SSILL
 62
3
 10
1797.984
 20
-4963.814
 30
-2720.292
 70
    32
  0
VERTEX
  8
T80SSILL
 62
3
 10
1807.990
 20
-4956.222
 30
-2720.295
 70
    32
  0
VERTEX
  8
T80SSILL
 62
3
 10
1817.747
 20
-4966.263
 30
-2720.294
 70
    32
  0
VERTEX
  8
T80SSILL
 62
3
 10
1971.346
 20
-4856.693
 30
-2720.351
 70
    32
  0
VERTEX
  8
T80SSILL
 62
3
 10
1966.042
 20
-4848.772
 30
-2720.353
 70
    32
  0
VERTEX
  8
T80SSILL
 62
3
 10
1977.195
 20
-4840.884
 30
-2720.357
 70
    32
  0
VERTEX
  8
T80SSILL
 62
3
 10
1982.548
 20
-4848.137
 30
-2720.356
 70
    32
  0
VERTEX
  8
T80SSILL
 62
3
 10
2023.133
 20
-4819.550
 30
-2720.371
 70
    32
  0
VERTEX
  8
T80SSILL
 62
3
 10
2006.033
 20
-4796.357
 30
-2720.371
 70
    32
  0
VERTEX
  8
T80SSILL
 62
3
 10
2013.876
 20
-4791.013
 30
-2720.373
 70
    32
  0
VERTEX
  8
T80SSILL
 62
3
 10
2030.823
 20
-4813.928
 30
-2720.374
 70
    32
  0
VERTEX
  8
T80SSILL
 62
3
 10
2086.063
 20
-4775.108
 30
-2720.290
 70
    32
  0
VERTEX
  8
T80SSILL
 62
3
 10
2123.262
 20
-4758.552
 30
-2719.791
 70
    32
  0
VERTEX
  8
T80SSILL
 62
3
 10
2125.527
 20
-4757.251
 30
-2719.759
 70
    32
  0
VERTEX
  8
T80SSILL
 62
3
 10
2127.034
 20
-4754.165
 30
-2719.725
 70
    32
  0
VERTEX
  8
T80SSILL
 62
3
 10
2144.279
 20
-4744.487
 30
-2719.673
 70
    32
  0
VERTEX
  8
T80SSILL
 62
3
 10
2160.112
 20
-4739.234
 30
-2719.639
 70
    32
  0
VERTEX
  8
T80SSILL
 62
3
 10
2164.091
 20
-4741.504
 30
-2719.624
 70
    32
  0
VERTEX
  8
T80SSILL
 62
3
 10
2177.457
 20
-4735.463
 30
-2719.599
 70
    32
  0
VERTEX
  8
T80SSILL
 62
3
 10
2179.497
 20
-4728.686
 30
-2719.606
 70
    32
  0
VERTEX
  8
T80SSILL
 62
3
 10
2205.959
 20
-4718.647
 30
-2719.553
 70
    32
  0
VERTEX
  8
T80SSILL
 62
3
 10
2210.051
 20
-4718.792
 30
-2719.542
 70
    32
  0
VERTEX
  8
T80SSILL
 62
3
 10
2212.784
 20
-4720.215
 30
-2719.532
 70
    32
  0
VERTEX
  8
T80SSILL
 62
3
 10
2320.749
 20
-4673.518
 30
-2719.252
 70
    32
  0
VERTEX
  8
T80SSILL
 62
3
 10
2323.691
 20
-4680.794
 30
-2719.224
 70
    32
  0
VERTEX
  8
T80SSILL
 62
3
 10
2213.523
 20
-4727.943
 30
-2719.517
 70
    32
  0
VERTEX
  8
T80SSILL
 62
3
 10
2209.238
 20
-4734.841
 30
-2719.516
 70
    32
  0
VERTEX
  8
T80SSILL
 62
3
 10
2191.321
 20
-4744.666
 30
-2719.546
 70
    32
  0
VERTEX
  8
T80SSILL
 62
3
 10
2179.599
 20
-4748.884
 30
-2719.569
 70
    32
  0
VERTEX
  8
T80SSILL
 62
3
 10
2175.934
 20
-4744.296
 30
-2719.587
 70
    32
  0
VERTEX
  8
T80SSILL
 62
3
 10
2165.271
 20
-4748.767
 30
-2719.608
 70
    32
  0
VERTEX
  8
T80SSILL
 62
3
 10
2163.283
 20
-4757.160
 30
-2719.598
 70
    32
  0
VERTEX
  8
T80SSILL
 62
3
 10
2134.961
 20
-4770.200
 30
-2719.726
 70
    32
  0
VERTEX
  8
T80SSILL
 62
3
 10
2129.575
 20
-4764.915
 30
-2719.756
 70
    32
  0
VERTEX
  8
T80SSILL
 62
3
 10
2127.566
 20
-4764.961
 30
-2719.779
 70
    32
  0
VERTEX
  8
T80SSILL
 62
3
 10
2102.777
 20
-4776.169
 30
-2720.112
 70
    32
  0
VERTEX
  8
T80SSILL
 62
3
 10
2132.844
 20
-4786.464
 30
-2719.818
 70
    32
  0
VERTEX
  8
T80SSILL
 62
3
 10
2138.031
 20
-4782.218
 30
-2719.758
 70
    32
  0
VERTEX
  8
T80SSILL
 62
3
 10
2140.203
 20
-4774.616
 30
-2719.693
 70
    32
  0
VERTEX
  8
T80SSILL
 62
3
 10
2146.475
 20
-4776.293
 30
-2719.633
 70
    32
  0
VERTEX
  8
T80SSILL
 62
3
 10
2154.187
 20
-4776.538
 30
-2719.588
 70
    32
  0
VERTEX
  8
T80SSILL
 62
3
 10
2159.914
 20
-4780.214
 30
-2719.566
 70
    32
  0
VERTEX
  8
T80SSILL
 62
3
 10
2159.568
 20
-4803.751
 30
-2719.527
 70
    32
  0
VERTEX
  8
T80SSILL
 62
3
 10
2151.699
 20
-4810.669
 30
-2719.535
 70
    32
  0
VERTEX
  8
T80SSILL
 62
3
 10
2133.698
 20
-4804.076
 30
-2719.711
 70
    32
  0
VERTEX
  8
T80SSILL
 62
3
 10
2126.389
 20
-4803.247
 30
-2719.799
 70
    32
  0
VERTEX
  8
T80SSILL
 62
3
 10
2108.223
 20
-4792.203
 30
-2720.067
 70
    32
  0
VERTEX
  8
T80SSILL
 62
3
 10
2095.861
 20
-4789.835
 30
-2720.221
 70
    32
  0
VERTEX
  8
T80SSILL
 62
3
 10
2093.137
 20
-4790.302
 30
-2720.249
 70
    32
  0
VERTEX
  8
T80SSILL
 62
3
 10
2066.417
 20
-4808.841
 30
-2720.375
 70
    32
  0
VERTEX
  8
T80SSILL
 62
3
 10
2072.644
 20
-4818.037
 30
-2720.329
 70
    32
  0
VERTEX
  8
T80SSILL
 62
3
 10
2065.957
 20
-4822.494
 30
-2720.338
 70
    32
  0
VERTEX
  8
T80SSILL
 62
3
 10
2059.761
 20
-4813.810
 30
-2720.378
 70
    32
  0
VERTEX
  8
T80SSILL
 62
3
 10
1991.291
 20
-4862.413
 30
-2720.352
 70
    32
  0
VERTEX
  8
T80SSILL
 62
3
 10
1987.819
 20
-4872.513
 30
-2720.349
 70
    32
  0
VERTEX
  8
T80SSILL
 62
3
 10
1976.345
 20
-4885.593
 30
-2720.343
 70
    32
  0
VERTEX
  8
T80SSILL
 62
3
 10
1970.460
 20
-4898.803
 30
-2720.338
 70
    32
  0
VERTEX
  8
T80SSILL
 62
3
 10
1972.098
 20
-4947.884
 30
-2720.260
 70
    32
  0
VERTEX
  8
T80SSILL
 62
3
 10
1977.291
 20
-4957.732
 30
-2720.217
 70
    32
  0
VERTEX
  8
T80SSILL
 62
3
 10
1981.525
 20
-4973.234
 30
-2720.161
 70
    32
  0
VERTEX
  8
T80SSILL
 62
3
 10
1980.748
 20
-5015.897
 30
-2720.043
 70
    32
  0
VERTEX
  8
T80SSILL
 62
3
 10
1971.282
 20
-5031.411
 30
-2720.027
 70
    32
  0
VERTEX
  8
T80SSILL
 62
3
 10
1972.874
 20
-5155.488
 30
-2719.709
 70
    32
  0
VERTEX
  8
T80SSILL
 62
3
 10
1976.667
 20
-5159.448
 30
-2719.702
 70
    32
  0
VERTEX
  8
T80SSILL
 62
3
 10
1984.344
 20
-5161.857
 30
-2719.689
 70
    32
  0
VERTEX
  8
T80SSILL
 62
3
 10
1982.619
 20
-5171.080
 30
-2719.688
 70
    32
  0
VERTEX
  8
T80SSILL
 62
3
 10
1973.670
 20
-5176.642
 30
-2719.700
 70
    32
  0
VERTEX
  8
T80SSILL
 62
3
 10
1974.809
 20
-5222.486
 30
-2719.681
 70
    32
  0
VERTEX
  8
T80SSILL
 62
3
 10
1977.362
 20
-5220.442
 30
-2719.678
 70
    32
  0
VERTEX
  8
T80SSILL
 62
3
 10
1981.642
 20
-5225.944
 30
-2719.668
 70
    32
  0
VERTEX
  8
T80SSILL
 62
3
 10
1974.695
 20
-5231.854
 30
-2719.678
 70
    32
  0
VERTEX
  8
T80SSILL
 62
3
 10
1974.681
 20
-5254.373
 30
-2719.665
 70
    32
  0
VERTEX
  8
T80SSILL
 62
3
 10
1993.882
 20
-5255.041
 30
-2719.624
 70
    32
  0
VERTEX
  8
T80SSILL
 62
3
 10
1993.634
 20
-5265.431
 30
-2719.619
 70
    32
  0
VERTEX
  8
T80SSILL
 62
3
 10
1975.200
 20
-5265.956
 30
-2719.657
 70
    32
  0
VERTEX
  8
T80SSILL
 62
3
 10
1976.474
 20
-5356.525
 30
-2719.482
 70
    32
  0
VERTEX
  8
T80SSILL
 62
3
 10
1980.333
 20
-5354.069
 30
-2719.441
 70
    32
  0
VERTEX
  8
T80SSILL
 62
3
 10
1984.660
 20
-5359.100
 30
-2719.361
 70
    32
  0
VERTEX
  8
T80SSILL
 62
3
 10
1977.004
 20
-5365.037
 30
-2719.438
 70
    32
  0
VERTEX
  8
T80SSILL
 62
3
 10
1976.840
 20
-5370.796
 30
-2719.415
 70
    32
  0
VERTEX
  8
T80SSILL
 62
3
 10
1977.255
 20
-5466.104
 30
-2718.839
 70
    32
  0
VERTEX
  8
T80SSILL
 62
3
 10
1980.710
 20
-5463.725
 30
-2718.808
 70
    32
  0
VERTEX
  8
T80SSILL
 62
3
 10
1984.479
 20
-5469.135
 30
-2718.805
 70
    32
  0
VERTEX
  8
T80SSILL
 62
3
 10
1977.133
 20
-5474.357
 30
-2718.796
 70
    32
  0
VERTEX
  8
T80SSILL
 62
3
 10
1978.701
 20
-5590.276
 30
-2718.731
 70
    32
  0
VERTEX
  8
T80SSILL
 62
3
 10
1983.557
 20
-5587.373
 30
-2718.688
 70
    32
  0
VERTEX
  8
T80SSILL
 62
3
 10
1987.599
 20
-5593.336
 30
-2718.668
 70
    32
  0
VERTEX
  8
T80SSILL
 62
3
 10
1978.990
 20
-5599.579
 30
-2718.746
 70
    32
  0
VERTEX
  8
T80SSILL
 62
3
 10
1980.494
 20
-5710.020
 30
-2718.623
 70
    32
  0
VERTEX
  8
T80SSILL
 62
3
 10
1980.683
 20
-5712.779
 30
-2718.609
 70
    32
  0
VERTEX
  8
T80SSILL
 62
3
 10
1986.132
 20
-5709.286
 30
-2718.617
 70
    32
  0
VERTEX
  8
T80SSILL
 62
3
 10
1989.861
 20
-5714.815
 30
-2718.582
 70
    32
  0
VERTEX
  8
T80SSILL
 62
3
 10
1980.777
 20
-5721.490
 30
-2718.564
 70
    32
  0
VERTEX
  8
T80SSILL
 62
3
 10
1982.006
 20
-5831.772
 30
-2718.220
 70
    32
  0
VERTEX
  8
T80SSILL
 62
3
 10
1985.442
 20
-5829.180
 30
-2718.215
 70
    32
  0
VERTEX
  8
T80SSILL
 62
3
 10
1988.543
 20
-5833.643
 30
-2718.192
 70
    32
  0
VERTEX
  8
T80SSILL
 62
3
 10
1989.087
 20
-5836.522
 30
-2718.182
 70
    32
  0
VERTEX
  8
T80SSILL
 62
3
 10
1982.492
 20
-5841.075
 30
-2718.193
 70
    32
  0
VERTEX
  8
T80SSILL
 62
3
 10
1983.720
 20
-5951.555
 30
-2717.694
 70
    32
  0
VERTEX
  8
T80SSILL
 62
3
 10
1984.225
 20
-5953.960
 30
-2717.680
 70
    32
  0
VERTEX
  8
T80SSILL
 62
3
 10
1988.687
 20
-5951.253
 30
-2717.688
 70
    32
  0
VERTEX
  8
T80SSILL
 62
3
 10
1992.612
 20
-5957.176
 30
-2717.648
 70
    32
  0
VERTEX
  8
T80SSILL
 62
3
 10
1983.727
 20
-5963.063
 30
-2717.630
 70
    32
  0
VERTEX
  8
T80SSILL
 62
3
 10
1984.354
 20
-5992.665
 30
-2717.465
 70
    32
  0
VERTEX
  8
T80SSILL
 62
3
 10
1992.580
 20
-6010.818
 30
-2717.351
 70
    32
  0
VERTEX
  8
T80SSILL
 62
3
 10
1999.457
 20
-6032.199
 30
-2717.222
 70
    32
  0
VERTEX
  8
T80SSILL
 62
3
 10
1999.375
 20
-6033.224
 30
-2717.216
 70
    32
  0
VERTEX
  8
T80SSILL
 62
3
 10
1990.623
 20
-6033.830
 30
-2717.227
 70
    32
  0
VERTEX
  8
T80SSILL
 62
3
 10
1987.049
 20
-6029.406
 30
-2717.257
 70
    32
  0
VERTEX
  8
T80SSILL
 62
3
 10
1985.474
 20
-6029.007
 30
-2717.262
 70
    32
  0
VERTEX
  8
T80SSILL
 62
3
 10
1984.919
 20
-6030.070
 30
-2717.257
 70
    32
  0
VERTEX
  8
T80SSILL
 62
3
 10
1985.535
 20
-6077.683
 30
-2717.194
 70
    32
  0
VERTEX
  8
T80SSILL
 62
3
 10
1985.965
 20
-6078.748
 30
-2717.192
 70
    32
  0
VERTEX
  8
T80SSILL
 62
3
 10
1989.795
 20
-6076.355
 30
-2717.172
 70
    32
  0
VERTEX
  8
T80SSILL
 62
3
 10
1993.482
 20
-6082.593
 30
-2717.154
 70
    32
  0
VERTEX
  8
T80SSILL
 62
3
 10
1985.703
 20
-6087.931
 30
-2717.193
 70
    32
  0
VERTEX
  8
T80SSILL
 62
3
 10
1986.152
 20
-6110.437
 30
-2717.190
 70
    32
  0
VERTEX
  8
T80SSILL
 62
3
 10
1992.969
 20
-6125.355
 30
-2717.155
 70
    32
  0
VERTEX
  8
T80SSILL
 62
3
 10
1997.720
 20
-6131.753
 30
-2717.131
 70
    32
  0
VERTEX
  8
T80SSILL
 62
3
 10
2009.597
 20
-6140.812
 30
-2717.072
 70
    32
  0
VERTEX
  8
T80SSILL
 62
3
 10
2015.346
 20
-6142.680
 30
-2717.043
 70
    32
  0
VERTEX
  8
T80SSILL
 62
3
 10
2026.887
 20
-6145.511
 30
-2716.985
 70
    32
  0
VERTEX
  8
T80SSILL
 62
3
 10
2037.174
 20
-6145.225
 30
-2716.934
 70
    32
  0
VERTEX
  8
T80SSILL
 62
3
 10
2037.217
 20
-6143.924
 30
-2716.934
 70
    32
  0
VERTEX
  8
T80SSILL
 62
3
 10
2038.796
 20
-6143.140
 30
-2716.926
 70
    32
  0
VERTEX
  8
T80SSILL
 62
3
 10
2045.926
 20
-6144.421
 30
-2716.890
 70
    32
  0
VERTEX
  8
T80SSILL
 62
3
 10
2046.199
 20
-6145.762
 30
-2716.889
 70
    32
  0
VERTEX
  8
T80SSILL
 62
3
 10
2122.035
 20
-6144.122
 30
-2716.510
 70
    32
  0
VERTEX
  8
T80SSILL
 62
3
 10
2122.329
 20
-6151.651
 30
-2716.509
 70
    32
  0
VERTEX
  8
T80SSILL
 62
3
 10
2049.135
 20
-6152.865
 30
-2716.874
 70
    32
  0
VERTEX
  8
T80SSILL
 62
3
 10
2047.515
 20
-6154.358
 30
-2716.882
 70
    32
  0
VERTEX
  8
T80SSILL
 62
3
 10
2047.028
 20
-6159.323
 30
-2716.884
 70
    32
  0
VERTEX
  8
T80SSILL
 62
3
 10
2048.616
 20
-6169.062
 30
-2716.876
 70
    32
  0
VERTEX
  8
T80SSILL
 62
3
 10
2041.184
 20
-6169.130
 30
-2716.913
 70
    32
  0
VERTEX
  8
T80SSILL
 62
3
 10
2037.858
 20
-6168.402
 30
-2716.930
 70
    32
  0
VERTEX
  8
T80SSILL
 62
3
 10
2038.041
 20
-6159.455
 30
-2716.929
 70
    32
  0
VERTEX
  8
T80SSILL
 62
3
 10
2036.640
 20
-6153.066
 30
-2716.936
 70
    32
  0
VERTEX
  8
T80SSILL
 62
3
 10
2018.986
 20
-6151.992
 30
-2717.025
 70
    32
  0
VERTEX
  8
T80SSILL
 62
3
 10
2010.835
 20
-6149.053
 30
-2717.065
 70
    32
  0
VERTEX
  8
T80SSILL
 62
3
 10
1995.845
 20
-6139.670
 30
-2717.141
 70
    32
  0
VERTEX
  8
T80SSILL
 62
3
 10
1986.140
 20
-6128.843
 30
-2717.189
 70
    32
  0
VERTEX
  8
T80SSILL
 62
3
 10
1987.047
 20
-6213.112
 30
-2717.183
 70
    32
  0
VERTEX
  8
T80SSILL
 62
3
 10
1988.154
 20
-6226.043
 30
-2717.177
 70
    32
  0
VERTEX
  8
T80SSILL
 62
3
 10
1995.863
 20
-6246.126
 30
-2717.116
 70
    32
  0
VERTEX
  8
T80SSILL
 62
3
 10
1998.054
 20
-6322.279
 30
-2716.584
 70
    32
  0
VERTEX
  8
T80SSILL
 62
3
 10
2003.137
 20
-6336.876
 30
-2716.476
 70
    32
  0
VERTEX
  8
T80SSILL
 62
3
 10
2033.041
 20
-6382.837
 30
-2716.123
 70
    32
  0
VERTEX
  8
T80SSILL
 62
3
 10
2032.558
 20
-6386.422
 30
-2716.098
 70
    32
  0
VERTEX
  8
T80SSILL
 62
3
 10
2035.458
 20
-6392.461
 30
-2716.053
 70
    32
  0
VERTEX
  8
T80SSILL
 62
3
 10
2036.424
 20
-6399.164
 30
-2716.005
 70
    32
  0
VERTEX
  8
T80SSILL
 62
3
 10
2043.717
 20
-6412.861
 30
-2715.901
 70
    32
  0
VERTEX
  8
T80SSILL
 62
3
 10
2036.687
 20
-6417.925
 30
-2715.874
 70
    32
  0
VERTEX
  8
T80SSILL
 62
3
 10
2013.447
 20
-6384.990
 30
-2716.129
 70
    32
  0
VERTEX
  8
T80SSILL
 62
3
 10
2001.341
 20
-6386.966
 30
-2716.129
 70
    32
  0
VERTEX
  8
T80SSILL
 62
3
 10
1994.982
 20
-6377.528
 30
-2716.202
 70
    32
  0
VERTEX
  8
T80SSILL
 62
3
 10
2002.096
 20
-6370.651
 30
-2716.242
 70
    32
  0
VERTEX
  8
T80SSILL
 62
3
 10
1989.887
 20
-6353.196
 30
-2716.377
 70
    32
  0
VERTEX
  8
T80SSILL
 62
3
 10
1990.506
 20
-6379.881
 30
-2716.190
 70
    32
  0
SEQEND
  8
T80SSILL
  0
ENDSEC
  0
EOF
