999
********************************
999
*   DXF File - Entities Only   *
999
*        3D Data Format        *
999
*     Output from ENVISAGE     *
999
*     28-Dec-2007 13:42:04     *
999
********************************
  0
SECTION 
  2
HEADER
  9
$ACADVER
  1
AC1009
  9
$EXTMIN
 10
-290000.000
 20
-250000.000
 30
-4000.000
  9
$EXTMAX
 10
5000000.000
 20
600000.000
 30
6000.000
  0
ENDSEC
  0
SECTION
  2
ENTITIES
  0
POLYLINE
  8
00SILL_TRA
 62
14
 66
     1
 70
     9
  0
VERTEX
  8
00SILL_TRA
 62
14
 10
4007.839
 20
-2726.486
 30
5182.000
 70
    32
  0
VERTEX
  8
00SILL_TRA
 62
14
 10
3972.994
 20
-2682.853
 30
5182.000
 70
    32
  0
VERTEX
  8
00SILL_TRA
 62
14
 10
3810.102
 20
-2478.251
 30
5182.000
 70
    32
  0
VERTEX
  8
00SILL_TRA
 62
14
 10
3678.690
 20
-2311.677
 30
5182.000
 70
    32
  0
VERTEX
  8
00SILL_TRA
 62
14
 10
3596.144
 20
-2207.890
 30
5182.000
 70
    32
  0
VERTEX
  8
00SILL_TRA
 62
14
 10
3496.323
 20
-2078.190
 30
5182.000
 70
    32
  0
VERTEX
  8
00SILL_TRA
 62
14
 10
3506.703
 20
-2072.481
 30
5182.000
 70
    32
  0
VERTEX
  8
00SILL_TRA
 62
14
 10
3515.924
 20
-2088.765
 30
5182.000
 70
    32
  0
VERTEX
  8
00SILL_TRA
 62
14
 10
3529.263
 20
-2104.377
 30
5182.000
 70
    32
  0
VERTEX
  8
00SILL_TRA
 62
14
 10
3562.203
 20
-2146.391
 30
5182.000
 70
    32
  0
VERTEX
  8
00SILL_TRA
 62
14
 10
3617.482
 20
-2216.335
 30
5182.000
 70
    32
  0
VERTEX
  8
00SILL_TRA
 62
14
 10
3678.733
 20
-2293.461
 30
5182.000
 70
    32
  0
VERTEX
  8
00SILL_TRA
 62
14
 10
3750.775
 20
-2383.334
 30
5182.000
 70
    32
  0
VERTEX
  8
00SILL_TRA
 62
14
 10
3823.288
 20
-2475.303
 30
5182.000
 70
    32
  0
VERTEX
  8
00SILL_TRA
 62
14
 10
3849.360
 20
-2506.738
 30
5182.000
 70
    32
  0
VERTEX
  8
00SILL_TRA
 62
14
 10
3932.282
 20
-2549.231
 30
5182.000
 70
    32
  0
VERTEX
  8
00SILL_TRA
 62
14
 10
3981.606
 20
-2511.019
 30
5182.000
 70
    32
  0
VERTEX
  8
00SILL_TRA
 62
14
 10
3994.275
 20
-2527.287
 30
5182.000
 70
    32
  0
VERTEX
  8
00SILL_TRA
 62
14
 10
3988.101
 20
-2532.318
 30
5182.000
 70
    32
  0
VERTEX
  8
00SILL_TRA
 62
14
 10
3997.208
 20
-2543.392
 30
5182.000
 70
    32
  0
VERTEX
  8
00SILL_TRA
 62
14
 10
3985.988
 20
-2553.038
 30
5182.000
 70
    32
  0
VERTEX
  8
00SILL_TRA
 62
14
 10
3991.631
 20
-2560.680
 30
5182.000
 70
    32
  0
VERTEX
  8
00SILL_TRA
 62
14
 10
3991.293
 20
-2605.261
 30
5182.000
 70
    32
  0
VERTEX
  8
00SILL_TRA
 62
14
 10
3992.435
 20
-2606.700
 30
5182.000
 70
    32
  0
VERTEX
  8
00SILL_TRA
 62
14
 10
3991.951
 20
-2686.657
 30
5182.000
 70
    32
  0
VERTEX
  8
00SILL_TRA
 62
14
 10
4054.911
 20
-2765.897
 30
5182.000
 70
    32
  0
VERTEX
  8
00SILL_TRA
 62
14
 10
4125.778
 20
-2823.652
 30
5182.000
 70
    32
  0
VERTEX
  8
00SILL_TRA
 62
14
 10
4119.884
 20
-2830.525
 30
5182.000
 70
    32
  0
VERTEX
  8
00SILL_TRA
 62
14
 10
4037.071
 20
-2763.092
 30
5182.000
 70
    32
  0
VERTEX
  8
00SILL_TRA
 62
14
 10
4015.334
 20
-2735.873
 30
5182.000
 70
    32
  0
VERTEX
  8
00SILL_TRA
 62
14
 10
3985.775
 20
-3001.767
 30
5182.000
 70
    32
  0
VERTEX
  8
00SILL_TRA
 62
14
 10
3977.367
 20
-3001.618
 30
5182.000
 70
    32
  0
VERTEX
  8
00SILL_TRA
 62
14
 10
3988.318
 20
-2898.531
 30
5182.000
 70
    32
  0
SEQEND
  8
00SILL_TRA
  0
POLYLINE
  8
00SILL_TRA
 62
14
 66
     1
 70
     9
  0
VERTEX
  8
00SILL_TRA
 62
14
 10
2249.698
 20
-4405.218
 30
5182.000
 70
    32
  0
VERTEX
  8
00SILL_TRA
 62
14
 10
2251.099
 20
-4471.105
 30
5182.000
 70
    32
  0
VERTEX
  8
00SILL_TRA
 62
14
 10
2176.883
 20
-4585.006
 30
5182.000
 70
    32
  0
VERTEX
  8
00SILL_TRA
 62
14
 10
2131.253
 20
-4584.306
 30
5182.000
 70
    32
  0
VERTEX
  8
00SILL_TRA
 62
14
 10
2131.804
 20
-4498.603
 30
5182.000
 70
    32
  0
VERTEX
  8
00SILL_TRA
 62
14
 10
2195.559
 20
-4405.227
 30
5182.000
 70
    32
  0
SEQEND
  8
00SILL_TRA
  0
POLYLINE
  8
00SILL_TRA
 62
14
 66
     1
 70
     9
  0
VERTEX
  8
00SILL_TRA
 62
14
 10
2131.769
 20
-4592.030
 30
5182.000
 70
    32
  0
VERTEX
  8
00SILL_TRA
 62
14
 10
2171.591
 20
-4592.413
 30
5182.000
 70
    32
  0
VERTEX
  8
00SILL_TRA
 62
14
 10
2165.552
 20
-4601.858
 30
5182.000
 70
    32
  0
VERTEX
  8
00SILL_TRA
 62
14
 10
2156.965
 20
-4611.357
 30
5182.000
 70
    32
  0
VERTEX
  8
00SILL_TRA
 62
14
 10
2153.496
 20
-4613.540
 30
5182.000
 70
    32
  0
VERTEX
  8
00SILL_TRA
 62
14
 10
2146.844
 20
-4614.824
 30
5182.000
 70
    32
  0
VERTEX
  8
00SILL_TRA
 62
14
 10
2146.401
 20
-4602.265
 30
5182.000
 70
    32
  0
VERTEX
  8
00SILL_TRA
 62
14
 10
2131.982
 20
-4602.044
 30
5182.000
 70
    32
  0
SEQEND
  8
00SILL_TRA
  0
POLYLINE
  8
00SILL_TRA
 62
14
 66
     1
 70
     9
  0
VERTEX
  8
00SILL_TRA
 62
14
 10
3861.563
 20
-2522.590
 30
5182.000
 70
    32
  0
VERTEX
  8
00SILL_TRA
 62
14
 10
3906.063
 20
-2545.214
 30
5182.000
 70
    32
  0
VERTEX
  8
00SILL_TRA
 62
14
 10
3923.039
 20
-2554.698
 30
5182.000
 70
    32
  0
VERTEX
  8
00SILL_TRA
 62
14
 10
3935.978
 20
-2559.988
 30
5182.000
 70
    32
  0
VERTEX
  8
00SILL_TRA
 62
14
 10
3947.653
 20
-2563.226
 30
5182.000
 70
    32
  0
VERTEX
  8
00SILL_TRA
 62
14
 10
3961.605
 20
-2564.480
 30
5182.000
 70
    32
  0
VERTEX
  8
00SILL_TRA
 62
14
 10
3969.572
 20
-2563.062
 30
5182.000
 70
    32
  0
VERTEX
  8
00SILL_TRA
 62
14
 10
3979.604
 20
-2557.462
 30
5182.000
 70
    32
  0
VERTEX
  8
00SILL_TRA
 62
14
 10
3984.522
 20
-2563.199
 30
5182.000
 70
    32
  0
VERTEX
  8
00SILL_TRA
 62
14
 10
3983.305
 20
-2675.911
 30
5182.000
 70
    32
  0
SEQEND
  8
00SILL_TRA
  0
POLYLINE
  8
00SILL_TRA
 62
14
 66
     1
 70
     9
  0
VERTEX
  8
00SILL_TRA
 62
14
 10
3962.565
 20
-2535.779
 30
5182.000
 70
    32
  0
VERTEX
  8
00SILL_TRA
 62
14
 10
3971.599
 20
-2547.122
 30
5182.000
 70
    32
  0
VERTEX
  8
00SILL_TRA
 62
14
 10
3970.762
 20
-2549.556
 30
5182.000
 70
    32
  0
VERTEX
  8
00SILL_TRA
 62
14
 10
3965.994
 20
-2552.829
 30
5182.000
 70
    32
  0
VERTEX
  8
00SILL_TRA
 62
14
 10
3961.034
 20
-2554.255
 30
5182.000
 70
    32
  0
VERTEX
  8
00SILL_TRA
 62
14
 10
3953.424
 20
-2554.150
 30
5182.000
 70
    32
  0
VERTEX
  8
00SILL_TRA
 62
14
 10
3945.848
 20
-2553.070
 30
5182.000
 70
    32
  0
VERTEX
  8
00SILL_TRA
 62
14
 10
3941.979
 20
-2551.872
 30
5182.000
 70
    32
  0
SEQEND
  8
00SILL_TRA
  0
POLYLINE
  8
00SILL_TRA
 62
14
 66
     1
 70
     9
  0
VERTEX
  8
00SILL_TRA
 62
14
 10
3512.409
 20
-2332.817
 30
5182.000
 70
    32
  0
VERTEX
  8
00SILL_TRA
 62
14
 10
3663.573
 20
-2251.602
 30
5182.000
 70
    32
  0
VERTEX
  8
00SILL_TRA
 62
14
 10
3699.161
 20
-2318.844
 30
5182.000
 70
    32
  0
VERTEX
  8
00SILL_TRA
 62
14
 10
3548.785
 20
-2399.926
 30
5182.000
 70
    32
  0
SEQEND
  8
00SILL_TRA
  0
POINT
  8
00SILL_TRA
 62
14
 10
3910.491
 20
-2594.392
 30
5182.000
  0
POINT
  8
00SILL_TRA
 62
14
 10
4131.888
 20
-2834.894
 30
5182.000
  0
POINT
  8
00SILL_TRA
 62
14
 10
4047.727
 20
-2765.503
 30
5182.000
  0
POINT
  8
00SILL_TRA
 62
14
 10
3517.460
 20
-2100.439
 30
5182.000
  0
LINE
  8
00SILL_TRA
 62
14
 10
2138.721
 20
-4602.056
 30
5182.000
 11
2138.873
 21
-4614.393
 31
5182.000
  0
LINE
  8
00SILL_TRA
 62
14
 10
2138.795
 20
-4608.078
 30
5182.000
 11
2146.361
 21
-4608.242
 31
5182.000
  0
LINE
  8
00SILL_TRA
 62
14
 10
2132.231
 20
-4606.386
 30
5182.000
 11
2138.776
 21
-4606.500
 31
5182.000
  0
LINE
  8
00SILL_TRA
 62
14
 10
2132.312
 20
-4611.236
 30
5182.000
 11
2138.835
 21
-4611.287
 31
5182.000
  0
POLYLINE
  8
00SILL_TRA
 62
14
 66
     1
 70
     9
  0
VERTEX
  8
00SILL_TRA
 62
14
 10
2132.158
 20
-4602.041
 30
5182.000
 70
    32
  0
VERTEX
  8
00SILL_TRA
 62
14
 10
2146.184
 20
-4602.400
 30
5182.000
 70
    32
  0
VERTEX
  8
00SILL_TRA
 62
14
 10
2146.575
 20
-4614.473
 30
5182.000
 70
    32
  0
VERTEX
  8
00SILL_TRA
 62
14
 10
2132.434
 20
-4614.331
 30
5182.000
 70
    32
  0
SEQEND
  8
00SILL_TRA
  0
LINE
  8
00SILL_TRA
 62
14
 10
3927.237
 20
-2571.485
 30
5182.000
 11
3909.279
 21
-2585.670
 31
5182.000
  0
POLYLINE
  8
00SILL_TRA
 62
14
 66
     1
 70
     9
  0
VERTEX
  8
00SILL_TRA
 62
14
 10
3911.442
 20
-2551.279
 30
5182.000
 70
    32
  0
VERTEX
  8
00SILL_TRA
 62
14
 10
3943.628
 20
-2592.452
 30
5182.000
 70
    32
  0
VERTEX
  8
00SILL_TRA
 62
14
 10
3925.754
 20
-2606.448
 30
5182.000
 70
    32
  0
VERTEX
  8
00SILL_TRA
 62
14
 10
3893.127
 20
-2565.300
 30
5182.000
 70
    32
  0
SEQEND
  8
00SILL_TRA
  0
LINE
  8
00SILL_TRA
 62
14
 10
3980.450
 20
-2546.216
 30
5182.000
 11
3992.280
 21
-2537.073
 31
5182.000
  0
LINE
  8
00SILL_TRA
 62
14
 10
3976.379
 20
-2541.086
 30
5182.000
 11
3988.063
 21
-2531.758
 31
5182.000
  0
POLYLINE
  8
00SILL_TRA
 62
14
 66
     1
 70
     9
  0
VERTEX
  8
00SILL_TRA
 62
14
 10
3968.401
 20
-2531.032
 30
5182.000
 70
    32
  0
VERTEX
  8
00SILL_TRA
 62
14
 10
3979.891
 20
-2521.460
 30
5182.000
 70
    32
  0
VERTEX
  8
00SILL_TRA
 62
14
 10
3996.821
 20
-2542.795
 30
5182.000
 70
    32
  0
VERTEX
  8
00SILL_TRA
 62
14
 10
3985.331
 20
-2552.367
 30
5182.000
 70
    32
  0
SEQEND
  8
00SILL_TRA
  0
LINE
  8
00SILL_TRA
 62
14
 10
3982.203
 20
-2536.436
 30
5182.000
 11
3973.919
 21
-2526.435
 31
5182.000
  0
LINE
  8
00SILL_TRA
 62
14
 10
3972.336
 20
-2535.991
 30
5182.000
 11
3984.042
 21
-2526.692
 31
5182.000
  0
POLYLINE
  8
00SILL_TRA
 62
14
 66
     1
 70
     9
  0
VERTEX
  8
00SILL_TRA
 62
14
 10
3967.963
 20
-2562.930
 30
5182.000
 70
    32
  0
VERTEX
  8
00SILL_TRA
 62
14
 10
3957.274
 20
-2565.004
 30
5182.000
 70
    32
  0
VERTEX
  8
00SILL_TRA
 62
14
 10
3947.708
 20
-2564.681
 30
5182.000
 70
    32
  0
VERTEX
  8
00SILL_TRA
 62
14
 10
3936.884
 20
-2562.099
 30
5182.000
 70
    32
  0
VERTEX
  8
00SILL_TRA
 62
14
 10
3927.999
 20
-2557.879
 30
5182.000
 70
    32
  0
VERTEX
  8
00SILL_TRA
 62
14
 10
3915.158
 20
-2548.740
 30
5182.000
 70
    32
  0
VERTEX
  8
00SILL_TRA
 62
14
 10
3729.736
 20
-2450.569
 30
5182.000
 70
    32
  0
VERTEX
  8
00SILL_TRA
 62
14
 10
3731.883
 20
-2441.188
 30
5182.000
 70
    32
  0
VERTEX
  8
00SILL_TRA
 62
14
 10
3929.144
 20
-2544.448
 30
5182.000
 70
    32
  0
VERTEX
  8
00SILL_TRA
 62
14
 10
3932.210
 20
-2545.842
 30
5182.000
 70
    32
  0
VERTEX
  8
00SILL_TRA
 62
14
 10
3939.783
 20
-2548.854
 30
5182.000
 70
    32
  0
VERTEX
  8
00SILL_TRA
 62
14
 10
3948.470
 20
-2551.431
 30
5182.000
 70
    32
  0
VERTEX
  8
00SILL_TRA
 62
14
 10
3956.700
 20
-2551.387
 30
5182.000
 70
    32
  0
SEQEND
  8
00SILL_TRA
  0
POLYLINE
  8
00SILL_TRA
 62
14
 66
     1
 70
     9
  0
VERTEX
  8
00SILL_TRA
 62
14
 10
3467.869
 20
-2075.982
 30
5182.000
 70
    32
  0
VERTEX
  8
00SILL_TRA
 62
14
 10
3472.218
 20
-2053.766
 30
5182.000
 70
    32
  0
VERTEX
  8
00SILL_TRA
 62
14
 10
3474.614
 20
-2031.254
 30
5182.000
 70
    32
  0
VERTEX
  8
00SILL_TRA
 62
14
 10
3475.038
 20
-2008.620
 30
5182.000
 70
    32
  0
VERTEX
  8
00SILL_TRA
 62
14
 10
3474.411
 20
-1997.960
 30
5182.000
 70
    32
  0
VERTEX
  8
00SILL_TRA
 62
14
 10
3473.646
 20
-1986.959
 30
5182.000
 70
    32
  0
VERTEX
  8
00SILL_TRA
 62
14
 10
3474.010
 20
-1991.111
 30
5182.000
 70
    32
  0
VERTEX
  8
00SILL_TRA
 62
14
 10
3468.812
 20
-1931.790
 30
5182.000
 70
    32
  0
VERTEX
  8
00SILL_TRA
 62
14
 10
3467.361
 20
-1912.423
 30
5182.000
 70
    32
  0
VERTEX
  8
00SILL_TRA
 62
14
 10
3461.121
 20
-1820.736
 30
5182.000
 70
    32
  0
VERTEX
  8
00SILL_TRA
 62
14
 10
3461.402
 20
-1824.858
 30
5182.000
 70
    32
  0
VERTEX
  8
00SILL_TRA
 62
14
 10
3461.135
 20
-1814.845
 30
5182.000
 70
    32
  0
VERTEX
  8
00SILL_TRA
 62
14
 10
3461.619
 20
-1805.900
 30
5182.000
 70
    32
  0
VERTEX
  8
00SILL_TRA
 62
14
 10
3463.041
 20
-1795.903
 30
5182.000
 70
    32
  0
VERTEX
  8
00SILL_TRA
 62
14
 10
3465.329
 20
-1786.067
 30
5182.000
 70
    32
  0
VERTEX
  8
00SILL_TRA
 62
14
 10
3468.466
 20
-1776.469
 30
5182.000
 70
    32
  0
VERTEX
  8
00SILL_TRA
 62
14
 10
3472.427
 20
-1767.181
 30
5182.000
 70
    32
  0
VERTEX
  8
00SILL_TRA
 62
14
 10
3477.183
 20
-1758.273
 30
5182.000
 70
    32
  0
VERTEX
  8
00SILL_TRA
 62
14
 10
3482.697
 20
-1749.814
 30
5182.000
 70
    32
  0
VERTEX
  8
00SILL_TRA
 62
14
 10
3488.927
 20
-1741.867
 30
5182.000
 70
    32
  0
VERTEX
  8
00SILL_TRA
 62
14
 10
3495.827
 20
-1734.494
 30
5182.000
 70
    32
  0
VERTEX
  8
00SILL_TRA
 62
14
 10
3503.342
 20
-1727.750
 30
5182.000
 70
    32
  0
VERTEX
  8
00SILL_TRA
 62
14
 10
3511.417
 20
-1721.687
 30
5182.000
 70
    32
  0
VERTEX
  8
00SILL_TRA
 62
14
 10
3519.990
 20
-1716.351
 30
5182.000
 70
    32
  0
VERTEX
  8
00SILL_TRA
 62
14
 10
3528.995
 20
-1711.782
 30
5182.000
 70
    32
  0
VERTEX
  8
00SILL_TRA
 62
14
 10
3537.392
 20
-1737.244
 30
5182.000
 70
    32
  0
VERTEX
  8
00SILL_TRA
 62
14
 10
3529.785
 20
-1739.819
 30
5182.000
 70
    32
  0
VERTEX
  8
00SILL_TRA
 62
14
 10
3522.430
 20
-1743.046
 30
5182.000
 70
    32
  0
VERTEX
  8
00SILL_TRA
 62
14
 10
3515.385
 20
-1746.902
 30
5182.000
 70
    32
  0
VERTEX
  8
00SILL_TRA
 62
14
 10
3508.703
 20
-1751.358
 30
5182.000
 70
    32
  0
VERTEX
  8
00SILL_TRA
 62
14
 10
3502.435
 20
-1756.379
 30
5182.000
 70
    32
  0
VERTEX
  8
00SILL_TRA
 62
14
 10
3496.628
 20
-1761.928
 30
5182.000
 70
    32
  0
VERTEX
  8
00SILL_TRA
 62
14
 10
3491.327
 20
-1767.961
 30
5182.000
 70
    32
  0
VERTEX
  8
00SILL_TRA
 62
14
 10
3486.572
 20
-1774.433
 30
5182.000
 70
    32
  0
VERTEX
  8
00SILL_TRA
 62
14
 10
3482.399
 20
-1781.296
 30
5182.000
 70
    32
  0
VERTEX
  8
00SILL_TRA
 62
14
 10
3478.840
 20
-1788.496
 30
5182.000
 70
    32
  0
VERTEX
  8
00SILL_TRA
 62
14
 10
3476.931
 20
-1793.390
 30
5182.000
 70
    32
  0
VERTEX
  8
00SILL_TRA
 62
14
 10
3475.446
 20
-1797.606
 30
5182.000
 70
    32
  0
VERTEX
  8
00SILL_TRA
 62
14
 10
3473.667
 20
-1803.687
 30
5182.000
 70
    32
  0
VERTEX
  8
00SILL_TRA
 62
14
 10
3472.093
 20
-1811.562
 30
5182.000
 70
    32
  0
VERTEX
  8
00SILL_TRA
 62
14
 10
3471.434
 20
-1817.533
 30
5182.000
 70
    32
  0
VERTEX
  8
00SILL_TRA
 62
14
 10
3471.247
 20
-1822.697
 30
5182.000
 70
    32
  0
VERTEX
  8
00SILL_TRA
 62
14
 10
3471.130
 20
-1820.924
 30
5182.000
 70
    32
  0
VERTEX
  8
00SILL_TRA
 62
14
 10
3477.993
 20
-1925.000
 30
5182.000
 70
    32
  0
VERTEX
  8
00SILL_TRA
 62
14
 10
3477.376
 20
-1915.638
 30
5182.000
 70
    32
  0
VERTEX
  8
00SILL_TRA
 62
14
 10
3479.742
 20
-1944.959
 30
5182.000
 70
    32
  0
VERTEX
  8
00SILL_TRA
 62
14
 10
3482.598
 20
-1977.558
 30
5182.000
 70
    32
  0
VERTEX
  8
00SILL_TRA
 62
14
 10
3484.709
 20
-2014.223
 30
5182.000
 70
    32
  0
VERTEX
  8
00SILL_TRA
 62
14
 10
3484.389
 20
-2031.254
 30
5182.000
 70
    32
  0
VERTEX
  8
00SILL_TRA
 62
14
 10
3481.993
 20
-2053.766
 30
5182.000
 70
    32
  0
VERTEX
  8
00SILL_TRA
 62
14
 10
3477.644
 20
-2075.982
 30
5182.000
 70
    32
  0
SEQEND
  8
00SILL_TRA
  0
POLYLINE
  8
00SILL_TRA
 62
14
 66
     1
 70
     9
  0
VERTEX
  8
00SILL_TRA
 62
14
 10
3012.200
 20
-2461.739
 30
5182.000
 70
    32
  0
VERTEX
  8
00SILL_TRA
 62
14
 10
3005.754
 20
-2472.436
 30
5182.000
 70
    32
  0
VERTEX
  8
00SILL_TRA
 62
14
 10
2998.784
 20
-2484.000
 30
5182.000
 70
    32
  0
VERTEX
  8
00SILL_TRA
 62
14
 10
2988.950
 20
-2504.250
 30
5182.000
 70
    32
  0
VERTEX
  8
00SILL_TRA
 62
14
 10
2977.043
 20
-2530.024
 30
5182.000
 70
    32
  0
VERTEX
  8
00SILL_TRA
 62
14
 10
2945.683
 20
-2599.828
 30
5182.000
 70
    32
  0
VERTEX
  8
00SILL_TRA
 62
14
 10
2568.994
 20
-3442.043
 30
5182.000
 70
    32
  0
VERTEX
  8
00SILL_TRA
 62
14
 10
2553.123
 20
-3476.584
 30
5182.000
 70
    32
  0
VERTEX
  8
00SILL_TRA
 62
14
 10
2552.679
 20
-3477.614
 30
5182.000
 70
    32
  0
VERTEX
  8
00SILL_TRA
 62
14
 10
2549.981
 20
-3478.795
 30
5182.000
 70
    32
  0
VERTEX
  8
00SILL_TRA
 62
14
 10
2563.380
 20
-3484.267
 30
5182.000
 70
    32
  0
VERTEX
  8
00SILL_TRA
 62
14
 10
2561.295
 20
-3480.327
 30
5182.000
 70
    32
  0
VERTEX
  8
00SILL_TRA
 62
14
 10
2578.895
 20
-3442.117
 30
5182.000
 70
    32
  0
VERTEX
  8
00SILL_TRA
 62
14
 10
2979.801
 20
-2546.837
 30
5182.000
 70
    32
  0
VERTEX
  8
00SILL_TRA
 62
14
 10
2993.500
 20
-2516.084
 30
5182.000
 70
    32
  0
VERTEX
  8
00SILL_TRA
 62
14
 10
2999.799
 20
-2502.812
 30
5182.000
 70
    32
  0
VERTEX
  8
00SILL_TRA
 62
14
 10
3007.077
 20
-2488.718
 30
5182.000
 70
    32
  0
VERTEX
  8
00SILL_TRA
 62
14
 10
3012.091
 20
-2479.856
 30
5182.000
 70
    32
  0
VERTEX
  8
00SILL_TRA
 62
14
 10
3019.555
 20
-2467.618
 30
5182.000
 70
    32
  0
SEQEND
  8
00SILL_TRA
  0
POLYLINE
  8
00SILL_TRA
 62
14
 66
     1
 70
     9
  0
VERTEX
  8
00SILL_TRA
 62
14
 10
2262.061
 20
-4332.161
 30
5182.000
 70
    32
  0
VERTEX
  8
00SILL_TRA
 62
14
 10
2261.167
 20
-4337.042
 30
5182.000
 70
    32
  0
VERTEX
  8
00SILL_TRA
 62
14
 10
2260.406
 20
-4342.158
 30
5182.000
 70
    32
  0
VERTEX
  8
00SILL_TRA
 62
14
 10
2259.607
 20
-4347.640
 30
5182.000
 70
    32
  0
VERTEX
  8
00SILL_TRA
 62
14
 10
2259.108
 20
-4351.066
 30
5182.000
 70
    32
  0
VERTEX
  8
00SILL_TRA
 62
14
 10
2258.708
 20
-4353.807
 30
5182.000
 70
    32
  0
VERTEX
  8
00SILL_TRA
 62
14
 10
2259.319
 20
-4547.657
 30
5182.000
 70
    32
  0
VERTEX
  8
00SILL_TRA
 62
14
 10
2256.640
 20
-4892.607
 30
5182.000
 70
    32
  0
VERTEX
  8
00SILL_TRA
 62
14
 10
2361.085
 20
-4958.917
 30
5182.000
 70
    32
  0
VERTEX
  8
00SILL_TRA
 62
14
 10
2352.243
 20
-4959.444
 30
5182.000
 70
    32
  0
VERTEX
  8
00SILL_TRA
 62
14
 10
2252.174
 20
-4895.641
 30
5182.000
 70
    32
  0
VERTEX
  8
00SILL_TRA
 62
14
 10
2247.615
 20
-4895.343
 30
5182.000
 70
    32
  0
VERTEX
  8
00SILL_TRA
 62
14
 10
2251.244
 20
-4548.181
 30
5182.000
 70
    32
  0
VERTEX
  8
00SILL_TRA
 62
14
 10
2250.722
 20
-4486.406
 30
5182.000
 70
    32
  0
VERTEX
  8
00SILL_TRA
 62
14
 10
2173.954
 20
-4604.316
 30
5182.000
 70
    32
  0
VERTEX
  8
00SILL_TRA
 62
14
 10
2168.941
 20
-4612.420
 30
5182.000
 70
    32
  0
VERTEX
  8
00SILL_TRA
 62
14
 10
2163.324
 20
-4616.934
 30
5182.000
 70
    32
  0
VERTEX
  8
00SILL_TRA
 62
14
 10
2156.470
 20
-4621.123
 30
5182.000
 70
    32
  0
VERTEX
  8
00SILL_TRA
 62
14
 10
2146.989
 20
-4621.676
 30
5182.000
 70
    32
  0
VERTEX
  8
00SILL_TRA
 62
14
 10
2131.788
 20
-4621.823
 30
5182.000
 70
    32
  0
VERTEX
  8
00SILL_TRA
 62
14
 10
2132.349
 20
-4611.001
 30
5182.000
 70
    32
  0
VERTEX
  8
00SILL_TRA
 62
14
 10
2127.248
 20
-4610.846
 30
5182.000
 70
    32
  0
VERTEX
  8
00SILL_TRA
 62
14
 10
2126.454
 20
-4499.156
 30
5182.000
 70
    32
  0
VERTEX
  8
00SILL_TRA
 62
14
 10
2191.078
 20
-4401.192
 30
5182.000
 70
    32
  0
VERTEX
  8
00SILL_TRA
 62
14
 10
2249.590
 20
-4400.123
 30
5182.000
 70
    32
  0
VERTEX
  8
00SILL_TRA
 62
14
 10
2250.869
 20
-4345.584
 30
5182.000
 70
    32
  0
VERTEX
  8
00SILL_TRA
 62
14
 10
2251.522
 20
-4341.644
 30
5182.000
 70
    32
  0
VERTEX
  8
00SILL_TRA
 62
14
 10
2252.204
 20
-4337.533
 30
5182.000
 70
    32
  0
VERTEX
  8
00SILL_TRA
 62
14
 10
2252.914
 20
-4333.250
 30
5182.000
 70
    32
  0
VERTEX
  8
00SILL_TRA
 62
14
 10
2257.622
 20
-4312.418
 30
5182.000
 70
    32
  0
VERTEX
  8
00SILL_TRA
 62
14
 10
2269.090
 20
-4278.923
 30
5182.000
 70
    32
  0
VERTEX
  8
00SILL_TRA
 62
14
 10
2296.816
 20
-4205.000
 30
5182.000
 70
    32
  0
VERTEX
  8
00SILL_TRA
 62
14
 10
2358.015
 20
-4046.682
 30
5182.000
 70
    32
  0
VERTEX
  8
00SILL_TRA
 62
14
 10
2400.558
 20
-3936.627
 30
5182.000
 70
    32
  0
VERTEX
  8
00SILL_TRA
 62
14
 10
2474.815
 20
-3740.722
 30
5182.000
 70
    32
  0
VERTEX
  8
00SILL_TRA
 62
14
 10
2471.300
 20
-3734.169
 30
5182.000
 70
    32
  0
VERTEX
  8
00SILL_TRA
 62
14
 10
2487.157
 20
-3743.265
 30
5182.000
 70
    32
  0
VERTEX
  8
00SILL_TRA
 62
14
 10
2484.111
 20
-3744.290
 30
5182.000
 70
    32
  0
VERTEX
  8
00SILL_TRA
 62
14
 10
2454.607
 20
-3825.000
 30
5182.000
 70
    32
  0
VERTEX
  8
00SILL_TRA
 62
14
 10
2413.810
 20
-3929.832
 30
5182.000
 70
    32
  0
VERTEX
  8
00SILL_TRA
 62
14
 10
2350.697
 20
-4092.419
 30
5182.000
 70
    32
  0
VERTEX
  8
00SILL_TRA
 62
14
 10
2267.776
 20
-4309.256
 30
5182.000
 70
    32
  0
SEQEND
  8
00SILL_TRA
  0
POLYLINE
  8
00SILL_TRA
 62
14
 66
     1
 70
     9
  0
VERTEX
  8
00SILL_TRA
 62
14
 10
1769.107
 20
-2720.568
 30
5182.000
 70
    32
  0
VERTEX
  8
00SILL_TRA
 62
14
 10
1681.241
 20
-2685.000
 30
5182.000
 70
    32
  0
VERTEX
  8
00SILL_TRA
 62
14
 10
1659.529
 20
-2685.000
 30
5182.000
 70
    32
  0
VERTEX
  8
00SILL_TRA
 62
14
 10
1720.981
 20
-2710.789
 30
5182.000
 70
    32
  0
VERTEX
  8
00SILL_TRA
 62
14
 10
1759.205
 20
-2726.830
 30
5182.000
 70
    32
  0
VERTEX
  8
00SILL_TRA
 62
14
 10
1765.834
 20
-2728.050
 30
5182.000
 70
    32
  0
VERTEX
  8
00SILL_TRA
 62
14
 10
1946.578
 20
-2803.219
 30
5182.000
 70
    32
  0
VERTEX
  8
00SILL_TRA
 62
14
 10
1705.791
 20
-3009.620
 30
5182.000
 70
    32
  0
VERTEX
  8
00SILL_TRA
 62
14
 10
1610.902
 20
-2685.000
 30
5182.000
 70
    32
  0
VERTEX
  8
00SILL_TRA
 62
14
 10
1600.750
 20
-2685.000
 30
5182.000
 70
    32
  0
VERTEX
  8
00SILL_TRA
 62
14
 10
1696.143
 20
-3017.253
 30
5182.000
 70
    32
  0
VERTEX
  8
00SILL_TRA
 62
14
 10
1368.765
 20
-3299.923
 30
5182.000
 70
    32
  0
VERTEX
  8
00SILL_TRA
 62
14
 10
1362.884
 20
-3304.496
 30
5182.000
 70
    32
  0
VERTEX
  8
00SILL_TRA
 62
14
 10
1364.758
 20
-3308.586
 30
5182.000
 70
    32
  0
VERTEX
  8
00SILL_TRA
 62
14
 10
1371.919
 20
-3306.403
 30
5182.000
 70
    32
  0
VERTEX
  8
00SILL_TRA
 62
14
 10
1701.169
 20
-3024.351
 30
5182.000
 70
    32
  0
VERTEX
  8
00SILL_TRA
 62
14
 10
1953.766
 20
-2806.217
 30
5182.000
 70
    32
  0
VERTEX
  8
00SILL_TRA
 62
14
 10
1991.398
 20
-2821.915
 30
5182.000
 70
    32
  0
VERTEX
  8
00SILL_TRA
 62
14
 10
2013.656
 20
-2831.201
 30
5182.000
 70
    32
  0
VERTEX
  8
00SILL_TRA
 62
14
 10
2073.895
 20
-2854.630
 30
5182.000
 70
    32
  0
VERTEX
  8
00SILL_TRA
 62
14
 10
2090.573
 20
-2858.549
 30
5182.000
 70
    32
  0
VERTEX
  8
00SILL_TRA
 62
14
 10
2108.550
 20
-2861.147
 30
5182.000
 70
    32
  0
VERTEX
  8
00SILL_TRA
 62
14
 10
2126.684
 20
-2862.169
 30
5182.000
 70
    32
  0
VERTEX
  8
00SILL_TRA
 62
14
 10
2144.839
 20
-2861.606
 30
5182.000
 70
    32
  0
VERTEX
  8
00SILL_TRA
 62
14
 10
2162.875
 20
-2859.463
 30
5182.000
 70
    32
  0
VERTEX
  8
00SILL_TRA
 62
14
 10
2180.656
 20
-2855.757
 30
5182.000
 70
    32
  0
VERTEX
  8
00SILL_TRA
 62
14
 10
2198.047
 20
-2850.514
 30
5182.000
 70
    32
  0
VERTEX
  8
00SILL_TRA
 62
14
 10
2214.914
 20
-2843.776
 30
5182.000
 70
    32
  0
VERTEX
  8
00SILL_TRA
 62
14
 10
2231.129
 20
-2835.593
 30
5182.000
 70
    32
  0
VERTEX
  8
00SILL_TRA
 62
14
 10
2236.284
 20
-2832.465
 30
5182.000
 70
    32
  0
VERTEX
  8
00SILL_TRA
 62
14
 10
2243.377
 20
-2828.162
 30
5182.000
 70
    32
  0
VERTEX
  8
00SILL_TRA
 62
14
 10
2247.910
 20
-2825.836
 30
5182.000
 70
    32
  0
VERTEX
  8
00SILL_TRA
 62
14
 10
2263.877
 20
-2817.648
 30
5182.000
 70
    32
  0
VERTEX
  8
00SILL_TRA
 62
14
 10
2423.785
 20
-2735.635
 30
5182.000
 70
    32
  0
VERTEX
  8
00SILL_TRA
 62
14
 10
2521.224
 20
-2684.091
 30
5182.000
 70
    32
  0
VERTEX
  8
00SILL_TRA
 62
14
 10
2985.400
 20
-2445.721
 30
5182.000
 70
    32
  0
VERTEX
  8
00SILL_TRA
 62
14
 10
2993.096
 20
-2450.109
 30
5182.000
 70
    32
  0
VERTEX
  8
00SILL_TRA
 62
14
 10
2994.437
 20
-2450.752
 30
5182.000
 70
    32
  0
VERTEX
  8
00SILL_TRA
 62
14
 10
3000.815
 20
-2451.341
 30
5182.000
 70
    32
  0
VERTEX
  8
00SILL_TRA
 62
14
 10
3007.860
 20
-2450.355
 30
5182.000
 70
    32
  0
VERTEX
  8
00SILL_TRA
 62
14
 10
3014.756
 20
-2448.428
 30
5182.000
 70
    32
  0
VERTEX
  8
00SILL_TRA
 62
14
 10
3019.741
 20
-2446.132
 30
5182.000
 70
    32
  0
VERTEX
  8
00SILL_TRA
 62
14
 10
3025.000
 20
-2444.132
 30
5182.000
 70
    32
  0
VERTEX
  8
00SILL_TRA
 62
14
 10
3025.000
 20
-2407.106
 30
5182.000
 70
    32
  0
VERTEX
  8
00SILL_TRA
 62
14
 10
3018.919
 20
-2410.935
 30
5182.000
 70
    32
  0
VERTEX
  8
00SILL_TRA
 62
14
 10
3013.268
 20
-2413.226
 30
5182.000
 70
    32
  0
VERTEX
  8
00SILL_TRA
 62
14
 10
3007.368
 20
-2415.459
 30
5182.000
 70
    32
  0
VERTEX
  8
00SILL_TRA
 62
14
 10
3003.733
 20
-2416.571
 30
5182.000
 70
    32
  0
VERTEX
  8
00SILL_TRA
 62
14
 10
2999.804
 20
-2415.836
 30
5182.000
 70
    32
  0
VERTEX
  8
00SILL_TRA
 62
14
 10
2993.291
 20
-2413.815
 30
5182.000
 70
    32
  0
VERTEX
  8
00SILL_TRA
 62
14
 10
2984.650
 20
-2411.328
 30
5182.000
 70
    32
  0
VERTEX
  8
00SILL_TRA
 62
14
 10
2977.441
 20
-2409.444
 30
5182.000
 70
    32
  0
VERTEX
  8
00SILL_TRA
 62
14
 10
2971.417
 20
-2408.944
 30
5182.000
 70
    32
  0
VERTEX
  8
00SILL_TRA
 62
14
 10
2971.713
 20
-2413.914
 30
5182.000
 70
    32
  0
VERTEX
  8
00SILL_TRA
 62
14
 10
2973.845
 20
-2419.924
 30
5182.000
 70
    32
  0
VERTEX
  8
00SILL_TRA
 62
14
 10
2976.264
 20
-2428.413
 30
5182.000
 70
    32
  0
VERTEX
  8
00SILL_TRA
 62
14
 10
2978.568
 20
-2433.572
 30
5182.000
 70
    32
  0
VERTEX
  8
00SILL_TRA
 62
14
 10
2979.762
 20
-2435.905
 30
5182.000
 70
    32
  0
VERTEX
  8
00SILL_TRA
 62
14
 10
2928.921
 20
-2462.033
 30
5182.000
 70
    32
  0
VERTEX
  8
00SILL_TRA
 62
14
 10
2495.055
 20
-2685.000
 30
5182.000
 70
    32
  0
VERTEX
  8
00SILL_TRA
 62
14
 10
2421.700
 20
-2724.561
 30
5182.000
 70
    32
  0
VERTEX
  8
00SILL_TRA
 62
14
 10
2250.456
 20
-2812.186
 30
5182.000
 70
    32
  0
VERTEX
  8
00SILL_TRA
 62
14
 10
2239.728
 20
-2817.962
 30
5182.000
 70
    32
  0
VERTEX
  8
00SILL_TRA
 62
14
 10
2237.713
 20
-2819.177
 30
5182.000
 70
    32
  0
VERTEX
  8
00SILL_TRA
 62
14
 10
2220.868
 20
-2828.065
 30
5182.000
 70
    32
  0
VERTEX
  8
00SILL_TRA
 62
14
 10
2203.312
 20
-2835.450
 30
5182.000
 70
    32
  0
VERTEX
  8
00SILL_TRA
 62
14
 10
2185.180
 20
-2841.277
 30
5182.000
 70
    32
  0
VERTEX
  8
00SILL_TRA
 62
14
 10
2166.608
 20
-2845.502
 30
5182.000
 70
    32
  0
VERTEX
  8
00SILL_TRA
 62
14
 10
2147.739
 20
-2848.091
 30
5182.000
 70
    32
  0
VERTEX
  8
00SILL_TRA
 62
14
 10
2128.716
 20
-2849.027
 30
5182.000
 70
    32
  0
VERTEX
  8
00SILL_TRA
 62
14
 10
2109.684
 20
-2848.300
 30
5182.000
 70
    32
  0
VERTEX
  8
00SILL_TRA
 62
14
 10
2090.788
 20
-2845.918
 30
5182.000
 70
    32
  0
VERTEX
  8
00SILL_TRA
 62
14
 10
2072.171
 20
-2841.898
 30
5182.000
 70
    32
  0
VERTEX
  8
00SILL_TRA
 62
14
 10
2053.976
 20
-2836.270
 30
5182.000
 70
    32
  0
VERTEX
  8
00SILL_TRA
 62
14
 10
2048.850
 20
-2834.180
 30
5182.000
 70
    32
  0
VERTEX
  8
00SILL_TRA
 62
14
 10
1965.575
 20
-2799.352
 30
5182.000
 70
    32
  0
VERTEX
  8
00SILL_TRA
 62
14
 10
1825.000
 20
-2740.305
 30
5182.000
 70
    32
  0
VERTEX
  8
00SILL_TRA
 62
14
 10
1776.218
 20
-2719.846
 30
5182.000
 70
    32
  0
SEQEND
  8
00SILL_TRA
  0
POLYLINE
  8
00SILL_TRA
 62
14
 66
     1
 70
     8
  0
VERTEX
  8
00SILL_TRA
 62
14
 10
3480.383
 20
-2000.833
 30
5182.000
 70
    32
  0
VERTEX
  8
00SILL_TRA
 62
14
 10
3481.433
 20
-2011.096
 30
5182.000
 70
    32
  0
VERTEX
  8
00SILL_TRA
 62
14
 10
3482.497
 20
-2017.363
 30
5182.000
 70
    32
  0
VERTEX
  8
00SILL_TRA
 62
14
 10
3484.557
 20
-2027.031
 30
5182.000
 70
    32
  0
VERTEX
  8
00SILL_TRA
 62
14
 10
3484.792
 20
-2028.089
 30
5182.000
 70
    32
  0
VERTEX
  8
00SILL_TRA
 62
14
 10
3486.556
 20
-2035.450
 30
5182.000
 70
    32
  0
VERTEX
  8
00SILL_TRA
 62
14
 10
3487.358
 20
-2038.422
 30
5182.000
 70
    32
  0
VERTEX
  8
00SILL_TRA
 62
14
 10
3488.475
 20
-2041.926
 30
5182.000
 70
    32
  0
VERTEX
  8
00SILL_TRA
 62
14
 10
3490.982
 20
-2048.901
 30
5182.000
 70
    32
  0
VERTEX
  8
00SILL_TRA
 62
14
 10
3493.141
 20
-2054.574
 30
5182.000
 70
    32
  0
VERTEX
  8
00SILL_TRA
 62
14
 10
3494.384
 20
-2057.665
 30
5182.000
 70
    32
  0
VERTEX
  8
00SILL_TRA
 62
14
 10
3495.896
 20
-2061.136
 30
5182.000
 70
    32
  0
VERTEX
  8
00SILL_TRA
 62
14
 10
3497.785
 20
-2065.128
 30
5182.000
 70
    32
  0
VERTEX
  8
00SILL_TRA
 62
14
 10
3500.412
 20
-2070.276
 30
5182.000
 70
    32
  0
VERTEX
  8
00SILL_TRA
 62
14
 10
3502.008
 20
-2073.096
 30
5182.000
 70
    32
  0
VERTEX
  8
00SILL_TRA
 62
14
 10
3503.725
 20
-2075.935
 30
5182.000
 70
    32
  0
VERTEX
  8
00SILL_TRA
 62
14
 10
3505.836
 20
-2079.423
 30
5182.000
 70
    32
  0
VERTEX
  8
00SILL_TRA
 62
14
 10
3508.226
 20
-2083.389
 30
5182.000
 70
    32
  0
VERTEX
  8
00SILL_TRA
 62
14
 10
3509.921
 20
-2086.200
 30
5182.000
 70
    32
  0
VERTEX
  8
00SILL_TRA
 62
14
 10
3510.122
 20
-2086.514
 30
5182.000
 70
    32
  0
VERTEX
  8
00SILL_TRA
 62
14
 10
3514.681
 20
-2093.239
 30
5182.000
 70
    32
  0
VERTEX
  8
00SILL_TRA
 62
14
 10
3516.421
 20
-2095.678
 30
5182.000
 70
    32
  0
VERTEX
  8
00SILL_TRA
 62
14
 10
3519.860
 20
-2100.162
 30
5182.000
 70
    32
  0
SEQEND
  8
00SILL_TRA
  0
POLYLINE
  8
00SILL_TRA
 62
14
 66
     1
 70
     8
  0
VERTEX
  8
00SILL_TRA
 62
14
 10
3478.389
 20
-2000.986
 30
5182.000
 70
    32
  0
VERTEX
  8
00SILL_TRA
 62
14
 10
3479.450
 20
-2011.350
 30
5182.000
 70
    32
  0
VERTEX
  8
00SILL_TRA
 62
14
 10
3480.541
 20
-2017.778
 30
5182.000
 70
    32
  0
VERTEX
  8
00SILL_TRA
 62
14
 10
3482.601
 20
-2027.449
 30
5182.000
 70
    32
  0
VERTEX
  8
00SILL_TRA
 62
14
 10
3482.844
 20
-2028.539
 30
5182.000
 70
    32
  0
VERTEX
  8
00SILL_TRA
 62
14
 10
3484.614
 20
-2035.932
 30
5182.000
 70
    32
  0
VERTEX
  8
00SILL_TRA
 62
14
 10
3485.438
 20
-2038.983
 30
5182.000
 70
    32
  0
VERTEX
  8
00SILL_TRA
 62
14
 10
3486.585
 20
-2042.580
 30
5182.000
 70
    32
  0
VERTEX
  8
00SILL_TRA
 62
14
 10
3489.108
 20
-2049.601
 30
5182.000
 70
    32
  0
VERTEX
  8
00SILL_TRA
 62
14
 10
3491.277
 20
-2055.297
 30
5182.000
 70
    32
  0
VERTEX
  8
00SILL_TRA
 62
14
 10
3492.537
 20
-2058.433
 30
5182.000
 70
    32
  0
VERTEX
  8
00SILL_TRA
 62
14
 10
3494.076
 20
-2061.965
 30
5182.000
 70
    32
  0
VERTEX
  8
00SILL_TRA
 62
14
 10
3495.990
 20
-2066.009
 30
5182.000
 70
    32
  0
VERTEX
  8
00SILL_TRA
 62
14
 10
3498.645
 20
-2071.213
 30
5182.000
 70
    32
  0
VERTEX
  8
00SILL_TRA
 62
14
 10
3500.296
 20
-2074.129
 30
5182.000
 70
    32
  0
VERTEX
  8
00SILL_TRA
 62
14
 10
3502.015
 20
-2076.971
 30
5182.000
 70
    32
  0
VERTEX
  8
00SILL_TRA
 62
14
 10
3504.124
 20
-2080.457
 30
5182.000
 70
    32
  0
VERTEX
  8
00SILL_TRA
 62
14
 10
3506.512
 20
-2084.420
 30
5182.000
 70
    32
  0
VERTEX
  8
00SILL_TRA
 62
14
 10
3508.210
 20
-2087.235
 30
5182.000
 70
    32
  0
VERTEX
  8
00SILL_TRA
 62
14
 10
3508.465
 20
-2087.634
 30
5182.000
 70
    32
  0
VERTEX
  8
00SILL_TRA
 62
14
 10
3513.027
 20
-2094.363
 30
5182.000
 70
    32
  0
VERTEX
  8
00SILL_TRA
 62
14
 10
3514.820
 20
-2096.876
 30
5182.000
 70
    32
  0
VERTEX
  8
00SILL_TRA
 62
14
 10
3518.288
 20
-2101.398
 30
5182.000
 70
    32
  0
SEQEND
  8
00SILL_TRA
  0
POLYLINE
  8
00SILL_TRA
 62
14
 66
     1
 70
     8
  0
VERTEX
  8
00SILL_TRA
 62
14
 10
3625.000
 20
-1688.687
 30
5182.000
 70
    32
  0
VERTEX
  8
00SILL_TRA
 62
14
 10
3614.121
 20
-1690.469
 30
5182.000
 70
    32
  0
VERTEX
  8
00SILL_TRA
 62
14
 10
3531.432
 20
-1718.464
 30
5182.000
 70
    32
  0
VERTEX
  8
00SILL_TRA
 62
14
 10
3529.602
 20
-1719.424
 30
5182.000
 70
    32
  0
VERTEX
  8
00SILL_TRA
 62
14
 10
3523.167
 20
-1722.726
 30
5182.000
 70
    32
  0
VERTEX
  8
00SILL_TRA
 62
14
 10
3515.127
 20
-1727.781
 30
5182.000
 70
    32
  0
VERTEX
  8
00SILL_TRA
 62
14
 10
3507.558
 20
-1733.518
 30
5182.000
 70
    32
  0
VERTEX
  8
00SILL_TRA
 62
14
 10
3500.518
 20
-1739.892
 30
5182.000
 70
    32
  0
VERTEX
  8
00SILL_TRA
 62
14
 10
3494.060
 20
-1746.856
 30
5182.000
 70
    32
  0
VERTEX
  8
00SILL_TRA
 62
14
 10
3488.234
 20
-1754.356
 30
5182.000
 70
    32
  0
VERTEX
  8
00SILL_TRA
 62
14
 10
3483.084
 20
-1762.335
 30
5182.000
 70
    32
  0
VERTEX
  8
00SILL_TRA
 62
14
 10
3478.649
 20
-1770.733
 30
5182.000
 70
    32
  0
VERTEX
  8
00SILL_TRA
 62
14
 10
3474.963
 20
-1779.486
 30
5182.000
 70
    32
  0
VERTEX
  8
00SILL_TRA
 62
14
 10
3472.053
 20
-1788.526
 30
5182.000
 70
    32
  0
VERTEX
  8
00SILL_TRA
 62
14
 10
3471.117
 20
-1792.635
 30
5182.000
 70
    32
  0
VERTEX
  8
00SILL_TRA
 62
14
 10
3469.674
 20
-1799.992
 30
5182.000
 70
    32
  0
VERTEX
  8
00SILL_TRA
 62
14
 10
3471.487
 20
-1794.139
 30
5182.000
 70
    32
  0
VERTEX
  8
00SILL_TRA
 62
14
 10
3473.812
 20
-1787.953
 30
5182.000
 70
    32
  0
VERTEX
  8
00SILL_TRA
 62
14
 10
3477.525
 20
-1780.203
 30
5182.000
 70
    32
  0
VERTEX
  8
00SILL_TRA
 62
14
 10
3481.899
 20
-1772.806
 30
5182.000
 70
    32
  0
VERTEX
  8
00SILL_TRA
 62
14
 10
3486.901
 20
-1765.819
 30
5182.000
 70
    32
  0
VERTEX
  8
00SILL_TRA
 62
14
 10
3492.493
 20
-1759.294
 30
5182.000
 70
    32
  0
VERTEX
  8
00SILL_TRA
 62
14
 10
3498.633
 20
-1753.282
 30
5182.000
 70
    32
  0
VERTEX
  8
00SILL_TRA
 62
14
 10
3505.273
 20
-1747.827
 30
5182.000
 70
    32
  0
VERTEX
  8
00SILL_TRA
 62
14
 10
3512.364
 20
-1742.972
 30
5182.000
 70
    32
  0
VERTEX
  8
00SILL_TRA
 62
14
 10
3519.850
 20
-1738.753
 30
5182.000
 70
    32
  0
VERTEX
  8
00SILL_TRA
 62
14
 10
3527.676
 20
-1735.203
 30
5182.000
 70
    32
  0
VERTEX
  8
00SILL_TRA
 62
14
 10
3534.829
 20
-1732.684
 30
5182.000
 70
    32
  0
VERTEX
  8
00SILL_TRA
 62
14
 10
3571.633
 20
-1720.779
 30
5182.000
 70
    32
  0
VERTEX
  8
00SILL_TRA
 62
14
 10
3625.000
 20
-1703.556
 30
5182.000
 70
    32
  0
SEQEND
  8
00SILL_TRA
  0
POLYLINE
  8
00SILL_TRA
 62
14
 66
     1
 70
     8
  0
VERTEX
  8
00SILL_TRA
 62
14
 10
3508.066
 20
-2028.588
 30
5182.000
 70
    32
  0
VERTEX
  8
00SILL_TRA
 62
14
 10
3503.481
 20
-2037.227
 30
5182.000
 70
    32
  0
VERTEX
  8
00SILL_TRA
 62
14
 10
3501.042
 20
-2042.613
 30
5182.000
 70
    32
  0
VERTEX
  8
00SILL_TRA
 62
14
 10
3498.027
 20
-2050.185
 30
5182.000
 70
    32
  0
VERTEX
  8
00SILL_TRA
 62
14
 10
3496.812
 20
-2053.137
 30
5182.000
 70
    32
  0
VERTEX
  8
00SILL_TRA
 62
14
 10
3493.214
 20
-2060.295
 30
5182.000
 70
    32
  0
VERTEX
  8
00SILL_TRA
 62
14
 10
3491.338
 20
-2064.370
 30
5182.000
 70
    32
  0
VERTEX
  8
00SILL_TRA
 62
14
 10
3489.991
 20
-2068.257
 30
5182.000
 70
    32
  0
VERTEX
  8
00SILL_TRA
 62
14
 10
3488.213
 20
-2073.411
 30
5182.000
 70
    32
  0
VERTEX
  8
00SILL_TRA
 62
14
 10
3484.612
 20
-2083.662
 30
5182.000
 70
    32
  0
VERTEX
  8
00SILL_TRA
 62
14
 10
3484.189
 20
-2084.834
 30
5182.000
 70
    32
  0
VERTEX
  8
00SILL_TRA
 62
14
 10
3482.335
 20
-2089.581
 30
5182.000
 70
    32
  0
VERTEX
  8
00SILL_TRA
 62
14
 10
3478.320
 20
-2099.579
 30
5182.000
 70
    32
  0
VERTEX
  8
00SILL_TRA
 62
14
 10
3475.578
 20
-2106.644
 30
5182.000
 70
    32
  0
VERTEX
  8
00SILL_TRA
 62
14
 10
3474.599
 20
-2109.122
 30
5182.000
 70
    32
  0
VERTEX
  8
00SILL_TRA
 62
14
 10
3474.102
 20
-2110.332
 30
5182.000
 70
    32
  0
VERTEX
  8
00SILL_TRA
 62
14
 10
3469.582
 20
-2121.254
 30
5182.000
 70
    32
  0
VERTEX
  8
00SILL_TRA
 62
14
 10
3465.194
 20
-2131.824
 30
5182.000
 70
    32
  0
VERTEX
  8
00SILL_TRA
 62
14
 10
3464.967
 20
-2132.343
 30
5182.000
 70
    32
  0
VERTEX
  8
00SILL_TRA
 62
14
 10
3464.296
 20
-2133.763
 30
5182.000
 70
    32
  0
VERTEX
  8
00SILL_TRA
 62
14
 10
3460.062
 20
-2142.524
 30
5182.000
 70
    32
  0
VERTEX
  8
00SILL_TRA
 62
14
 10
3457.340
 20
-2148.195
 30
5182.000
 70
    32
  0
VERTEX
  8
00SILL_TRA
 62
14
 10
3455.870
 20
-2151.252
 30
5182.000
 70
    32
  0
VERTEX
  8
00SILL_TRA
 62
14
 10
3454.503
 20
-2153.751
 30
5182.000
 70
    32
  0
VERTEX
  8
00SILL_TRA
 62
14
 10
3449.685
 20
-2161.342
 30
5182.000
 70
    32
  0
VERTEX
  8
00SILL_TRA
 62
14
 10
3444.978
 20
-2168.446
 30
5182.000
 70
    32
  0
VERTEX
  8
00SILL_TRA
 62
14
 10
3442.394
 20
-2172.234
 30
5182.000
 70
    32
  0
VERTEX
  8
00SILL_TRA
 62
14
 10
3439.199
 20
-2176.773
 30
5182.000
 70
    32
  0
VERTEX
  8
00SILL_TRA
 62
14
 10
3434.688
 20
-2183.053
 30
5182.000
 70
    32
  0
VERTEX
  8
00SILL_TRA
 62
14
 10
3430.750
 20
-2188.393
 30
5182.000
 70
    32
  0
VERTEX
  8
00SILL_TRA
 62
14
 10
3427.857
 20
-2192.157
 30
5182.000
 70
    32
  0
VERTEX
  8
00SILL_TRA
 62
14
 10
3424.835
 20
-2195.819
 30
5182.000
 70
    32
  0
VERTEX
  8
00SILL_TRA
 62
14
 10
3419.077
 20
-2202.308
 30
5182.000
 70
    32
  0
VERTEX
  8
00SILL_TRA
 62
14
 10
3413.948
 20
-2207.851
 30
5182.000
 70
    32
  0
VERTEX
  8
00SILL_TRA
 62
14
 10
3408.104
 20
-2213.968
 30
5182.000
 70
    32
  0
VERTEX
  8
00SILL_TRA
 62
14
 10
3400.266
 20
-2221.859
 30
5182.000
 70
    32
  0
VERTEX
  8
00SILL_TRA
 62
14
 10
3397.093
 20
-2224.786
 30
5182.000
 70
    32
  0
VERTEX
  8
00SILL_TRA
 62
14
 10
3395.102
 20
-2226.499
 30
5182.000
 70
    32
  0
VERTEX
  8
00SILL_TRA
 62
14
 10
3387.052
 20
-2233.364
 30
5182.000
 70
    32
  0
VERTEX
  8
00SILL_TRA
 62
14
 10
3375.206
 20
-2243.419
 30
5182.000
 70
    32
  0
VERTEX
  8
00SILL_TRA
 62
14
 10
3374.079
 20
-2244.341
 30
5182.000
 70
    32
  0
VERTEX
  8
00SILL_TRA
 62
14
 10
3370.616
 20
-2246.816
 30
5182.000
 70
    32
  0
VERTEX
  8
00SILL_TRA
 62
14
 10
3362.048
 20
-2252.572
 30
5182.000
 70
    32
  0
VERTEX
  8
00SILL_TRA
 62
14
 10
3354.146
 20
-2258.100
 30
5182.000
 70
    32
  0
VERTEX
  8
00SILL_TRA
 62
14
 10
3351.499
 20
-2259.956
 30
5182.000
 70
    32
  0
VERTEX
  8
00SILL_TRA
 62
14
 10
3347.756
 20
-2262.603
 30
5182.000
 70
    32
  0
VERTEX
  8
00SILL_TRA
 62
14
 10
3342.469
 20
-2266.350
 30
5182.000
 70
    32
  0
VERTEX
  8
00SILL_TRA
 62
14
 10
3337.022
 20
-2270.060
 30
5182.000
 70
    32
  0
VERTEX
  8
00SILL_TRA
 62
14
 10
3331.383
 20
-2273.643
 30
5182.000
 70
    32
  0
VERTEX
  8
00SILL_TRA
 62
14
 10
3326.254
 20
-2276.641
 30
5182.000
 70
    32
  0
VERTEX
  8
00SILL_TRA
 62
14
 10
3322.625
 20
-2278.511
 30
5182.000
 70
    32
  0
VERTEX
  8
00SILL_TRA
 62
14
 10
3324.257
 20
-2278.151
 30
5182.000
 70
    32
  0
VERTEX
  8
00SILL_TRA
 62
14
 10
3325.889
 20
-2277.791
 30
5182.000
 70
    32
  0
VERTEX
  8
00SILL_TRA
 62
14
 10
3327.521
 20
-2277.431
 30
5182.000
 70
    32
  0
VERTEX
  8
00SILL_TRA
 62
14
 10
3329.632
 20
-2277.018
 30
5182.000
 70
    32
  0
VERTEX
  8
00SILL_TRA
 62
14
 10
3335.515
 20
-2276.060
 30
5182.000
 70
    32
  0
VERTEX
  8
00SILL_TRA
 62
14
 10
3339.993
 20
-2275.470
 30
5182.000
 70
    32
  0
VERTEX
  8
00SILL_TRA
 62
14
 10
3344.193
 20
-2275.116
 30
5182.000
 70
    32
  0
VERTEX
  8
00SILL_TRA
 62
14
 10
3351.432
 20
-2274.842
 30
5182.000
 70
    32
  0
VERTEX
  8
00SILL_TRA
 62
14
 10
3357.049
 20
-2274.909
 30
5182.000
 70
    32
  0
VERTEX
  8
00SILL_TRA
 62
14
 10
3362.234
 20
-2275.321
 30
5182.000
 70
    32
  0
VERTEX
  8
00SILL_TRA
 62
14
 10
3368.632
 20
-2276.444
 30
5182.000
 70
    32
  0
VERTEX
  8
00SILL_TRA
 62
14
 10
3376.312
 20
-2278.663
 30
5182.000
 70
    32
  0
VERTEX
  8
00SILL_TRA
 62
14
 10
3380.656
 20
-2280.218
 30
5182.000
 70
    32
  0
VERTEX
  8
00SILL_TRA
 62
14
 10
3383.662
 20
-2281.415
 30
5182.000
 70
    32
  0
VERTEX
  8
00SILL_TRA
 62
14
 10
3390.046
 20
-2284.349
 30
5182.000
 70
    32
  0
VERTEX
  8
00SILL_TRA
 62
14
 10
3392.960
 20
-2286.047
 30
5182.000
 70
    32
  0
VERTEX
  8
00SILL_TRA
 62
14
 10
3396.419
 20
-2288.411
 30
5182.000
 70
    32
  0
VERTEX
  8
00SILL_TRA
 62
14
 10
3402.417
 20
-2292.607
 30
5182.000
 70
    32
  0
VERTEX
  8
00SILL_TRA
 62
14
 10
3403.632
 20
-2293.466
 30
5182.000
 70
    32
  0
VERTEX
  8
00SILL_TRA
 62
14
 10
3411.734
 20
-2299.206
 30
5182.000
 70
    32
  0
VERTEX
  8
00SILL_TRA
 62
14
 10
3415.662
 20
-2302.099
 30
5182.000
 70
    32
  0
VERTEX
  8
00SILL_TRA
 62
14
 10
3419.411
 20
-2305.000
 30
5182.000
 70
    32
  0
SEQEND
  8
00SILL_TRA
  0
POLYLINE
  8
00SILL_TRA
 62
14
 66
     1
 70
     8
  0
VERTEX
  8
00SILL_TRA
 62
14
 10
3025.275
 20
-2410.853
 30
5182.000
 70
    32
  0
VERTEX
  8
00SILL_TRA
 62
14
 10
3241.830
 20
-2305.000
 30
5182.000
 70
    32
  0
VERTEX
  8
00SILL_TRA
 62
14
 10
3247.540
 20
-2301.596
 30
5182.000
 70
    32
  0
VERTEX
  8
00SILL_TRA
 62
14
 10
3252.536
 20
-2299.101
 30
5182.000
 70
    32
  0
VERTEX
  8
00SILL_TRA
 62
14
 10
3257.668
 20
-2296.538
 30
5182.000
 70
    32
  0
VERTEX
  8
00SILL_TRA
 62
14
 10
3260.423
 20
-2295.162
 30
5182.000
 70
    32
  0
VERTEX
  8
00SILL_TRA
 62
14
 10
3265.522
 20
-2292.593
 30
5182.000
 70
    32
  0
VERTEX
  8
00SILL_TRA
 62
14
 10
3290.507
 20
-2279.823
 30
5182.000
 70
    32
  0
VERTEX
  8
00SILL_TRA
 62
14
 10
3295.108
 20
-2277.456
 30
5182.000
 70
    32
  0
VERTEX
  8
00SILL_TRA
 62
14
 10
3298.302
 20
-2275.799
 30
5182.000
 70
    32
  0
VERTEX
  8
00SILL_TRA
 62
14
 10
3320.393
 20
-2264.297
 30
5182.000
 70
    32
  0
VERTEX
  8
00SILL_TRA
 62
14
 10
3324.892
 20
-2261.938
 30
5182.000
 70
    32
  0
VERTEX
  8
00SILL_TRA
 62
14
 10
3339.950
 20
-2253.989
 30
5182.000
 70
    32
  0
VERTEX
  8
00SILL_TRA
 62
14
 10
3344.439
 20
-2251.604
 30
5182.000
 70
    32
  0
VERTEX
  8
00SILL_TRA
 62
14
 10
3354.934
 20
-2245.268
 30
5182.000
 70
    32
  0
VERTEX
  8
00SILL_TRA
 62
14
 10
3359.411
 20
-2242.025
 30
5182.000
 70
    32
  0
VERTEX
  8
00SILL_TRA
 62
14
 10
3367.798
 20
-2235.948
 30
5182.000
 70
    32
  0
VERTEX
  8
00SILL_TRA
 62
14
 10
3371.048
 20
-2233.593
 30
5182.000
 70
    32
  0
VERTEX
  8
00SILL_TRA
 62
14
 10
3382.784
 20
-2224.221
 30
5182.000
 70
    32
  0
VERTEX
  8
00SILL_TRA
 62
14
 10
3389.439
 20
-2218.570
 30
5182.000
 70
    32
  0
VERTEX
  8
00SILL_TRA
 62
14
 10
3395.914
 20
-2212.974
 30
5182.000
 70
    32
  0
VERTEX
  8
00SILL_TRA
 62
14
 10
3402.147
 20
-2207.379
 30
5182.000
 70
    32
  0
VERTEX
  8
00SILL_TRA
 62
14
 10
3407.306
 20
-2202.449
 30
5182.000
 70
    32
  0
VERTEX
  8
00SILL_TRA
 62
14
 10
3412.761
 20
-2196.560
 30
5182.000
 70
    32
  0
VERTEX
  8
00SILL_TRA
 62
14
 10
3418.856
 20
-2189.136
 30
5182.000
 70
    32
  0
VERTEX
  8
00SILL_TRA
 62
14
 10
3430.739
 20
-2173.408
 30
5182.000
 70
    32
  0
VERTEX
  8
00SILL_TRA
 62
14
 10
3436.718
 20
-2164.094
 30
5182.000
 70
    32
  0
VERTEX
  8
00SILL_TRA
 62
14
 10
3439.894
 20
-2158.697
 30
5182.000
 70
    32
  0
VERTEX
  8
00SILL_TRA
 62
14
 10
3445.523
 20
-2148.404
 30
5182.000
 70
    32
  0
VERTEX
  8
00SILL_TRA
 62
14
 10
3450.869
 20
-2137.906
 30
5182.000
 70
    32
  0
VERTEX
  8
00SILL_TRA
 62
14
 10
3455.102
 20
-2128.824
 30
5182.000
 70
    32
  0
VERTEX
  8
00SILL_TRA
 62
14
 10
3460.052
 20
-2116.460
 30
5182.000
 70
    32
  0
VERTEX
  8
00SILL_TRA
 62
14
 10
3464.081
 20
-2103.783
 30
5182.000
 70
    32
  0
VERTEX
  8
00SILL_TRA
 62
14
 10
3467.050
 20
-2092.667
 30
5182.000
 70
    32
  0
VERTEX
  8
00SILL_TRA
 62
14
 10
3467.673
 20
-2090.144
 30
5182.000
 70
    32
  0
VERTEX
  8
00SILL_TRA
 62
14
 10
3470.487
 20
-2078.676
 30
5182.000
 70
    32
  0
VERTEX
  8
00SILL_TRA
 62
14
 10
3473.993
 20
-2063.408
 30
5182.000
 70
    32
  0
VERTEX
  8
00SILL_TRA
 62
14
 10
3475.696
 20
-2055.130
 30
5182.000
 70
    32
  0
VERTEX
  8
00SILL_TRA
 62
14
 10
3476.836
 20
-2048.183
 30
5182.000
 70
    32
  0
VERTEX
  8
00SILL_TRA
 62
14
 10
3477.610
 20
-2041.303
 30
5182.000
 70
    32
  0
VERTEX
  8
00SILL_TRA
 62
14
 10
3478.139
 20
-2032.909
 30
5182.000
 70
    32
  0
VERTEX
  8
00SILL_TRA
 62
14
 10
3478.478
 20
-2014.725
 30
5182.000
 70
    32
  0
VERTEX
  8
00SILL_TRA
 62
14
 10
3477.369
 20
-1977.939
 30
5182.000
 70
    32
  0
VERTEX
  8
00SILL_TRA
 62
14
 10
3476.853
 20
-1966.520
 30
5182.000
 70
    32
  0
VERTEX
  8
00SILL_TRA
 62
14
 10
3472.132
 20
-1925.166
 30
5182.000
 70
    32
  0
VERTEX
  8
00SILL_TRA
 62
14
 10
3469.831
 20
-1884.149
 30
5182.000
 70
    32
  0
VERTEX
  8
00SILL_TRA
 62
14
 10
3466.623
 20
-1826.929
 30
5182.000
 70
    32
  0
VERTEX
  8
00SILL_TRA
 62
14
 10
3466.177
 20
-1816.668
 30
5182.000
 70
    32
  0
VERTEX
  8
00SILL_TRA
 62
14
 10
3466.656
 20
-1807.008
 30
5182.000
 70
    32
  0
VERTEX
  8
00SILL_TRA
 62
14
 10
3467.975
 20
-1797.427
 30
5182.000
 70
    32
  0
VERTEX
  8
00SILL_TRA
 62
14
 10
3470.124
 20
-1787.997
 30
5182.000
 70
    32
  0
VERTEX
  8
00SILL_TRA
 62
14
 10
3473.087
 20
-1778.791
 30
5182.000
 70
    32
  0
VERTEX
  8
00SILL_TRA
 62
14
 10
3476.841
 20
-1769.877
 30
5182.000
 70
    32
  0
VERTEX
  8
00SILL_TRA
 62
14
 10
3481.358
 20
-1761.325
 30
5182.000
 70
    32
  0
VERTEX
  8
00SILL_TRA
 62
14
 10
3486.603
 20
-1753.199
 30
5182.000
 70
    32
  0
VERTEX
  8
00SILL_TRA
 62
14
 10
3492.536
 20
-1745.561
 30
5182.000
 70
    32
  0
VERTEX
  8
00SILL_TRA
 62
14
 10
3500.319
 20
-1737.376
 30
5182.000
 70
    32
  0
VERTEX
  8
00SILL_TRA
 62
14
 10
3506.282
 20
-1731.978
 30
5182.000
 70
    32
  0
VERTEX
  8
00SILL_TRA
 62
14
 10
3513.989
 20
-1726.136
 30
5182.000
 70
    32
  0
VERTEX
  8
00SILL_TRA
 62
14
 10
3522.177
 20
-1720.988
 30
5182.000
 70
    32
  0
VERTEX
  8
00SILL_TRA
 62
14
 10
3529.733
 20
-1717.112
 30
5182.000
 70
    32
  0
VERTEX
  8
00SILL_TRA
 62
14
 10
3530.791
 20
-1716.570
 30
5182.000
 70
    32
  0
VERTEX
  8
00SILL_TRA
 62
14
 10
3613.635
 20
-1688.521
 30
5182.000
 70
    32
  0
VERTEX
  8
00SILL_TRA
 62
14
 10
3625.000
 20
-1686.660
 30
5182.000
 70
    32
  0
SEQEND
  8
00SILL_TRA
  0
POLYLINE
  8
00SILL_TRA
 62
14
 66
     1
 70
     8
  0
VERTEX
  8
00SILL_TRA
 62
14
 10
3625.000
 20
-1705.657
 30
5182.000
 70
    32
  0
VERTEX
  8
00SILL_TRA
 62
14
 10
3536.403
 20
-1734.250
 30
5182.000
 70
    32
  0
VERTEX
  8
00SILL_TRA
 62
14
 10
3536.363
 20
-1734.262
 30
5182.000
 70
    32
  0
VERTEX
  8
00SILL_TRA
 62
14
 10
3528.422
 20
-1737.059
 30
5182.000
 70
    32
  0
VERTEX
  8
00SILL_TRA
 62
14
 10
3520.755
 20
-1740.537
 30
5182.000
 70
    32
  0
VERTEX
  8
00SILL_TRA
 62
14
 10
3513.421
 20
-1744.670
 30
5182.000
 70
    32
  0
VERTEX
  8
00SILL_TRA
 62
14
 10
3506.474
 20
-1749.426
 30
5182.000
 70
    32
  0
VERTEX
  8
00SILL_TRA
 62
14
 10
3499.969
 20
-1754.770
 30
5182.000
 70
    32
  0
VERTEX
  8
00SILL_TRA
 62
14
 10
3493.954
 20
-1760.661
 30
5182.000
 70
    32
  0
VERTEX
  8
00SILL_TRA
 62
14
 10
3488.475
 20
-1767.053
 30
5182.000
 70
    32
  0
VERTEX
  8
00SILL_TRA
 62
14
 10
3483.575
 20
-1773.898
 30
5182.000
 70
    32
  0
VERTEX
  8
00SILL_TRA
 62
14
 10
3479.289
 20
-1781.145
 30
5182.000
 70
    32
  0
VERTEX
  8
00SILL_TRA
 62
14
 10
3475.652
 20
-1788.738
 30
5182.000
 70
    32
  0
VERTEX
  8
00SILL_TRA
 62
14
 10
3472.690
 20
-1796.618
 30
5182.000
 70
    32
  0
VERTEX
  8
00SILL_TRA
 62
14
 10
3470.427
 20
-1804.727
 30
5182.000
 70
    32
  0
VERTEX
  8
00SILL_TRA
 62
14
 10
3468.878
 20
-1813.002
 30
5182.000
 70
    32
  0
VERTEX
  8
00SILL_TRA
 62
14
 10
3468.185
 20
-1819.394
 30
5182.000
 70
    32
  0
VERTEX
  8
00SILL_TRA
 62
14
 10
3468.189
 20
-1819.121
 30
5182.000
 70
    32
  0
VERTEX
  8
00SILL_TRA
 62
14
 10
3474.125
 20
-1925.000
 30
5182.000
 70
    32
  0
VERTEX
  8
00SILL_TRA
 62
14
 10
3478.852
 20
-1966.416
 30
5182.000
 70
    32
  0
VERTEX
  8
00SILL_TRA
 62
14
 10
3480.378
 20
-2000.201
 30
5182.000
 70
    32
  0
VERTEX
  8
00SILL_TRA
 62
14
 10
3480.501
 20
-2017.975
 30
5182.000
 70
    32
  0
VERTEX
  8
00SILL_TRA
 62
14
 10
3480.499
 20
-2018.823
 30
5182.000
 70
    32
  0
VERTEX
  8
00SILL_TRA
 62
14
 10
3480.137
 20
-2033.015
 30
5182.000
 70
    32
  0
VERTEX
  8
00SILL_TRA
 62
14
 10
3479.605
 20
-2041.480
 30
5182.000
 70
    32
  0
VERTEX
  8
00SILL_TRA
 62
14
 10
3478.821
 20
-2048.449
 30
5182.000
 70
    32
  0
VERTEX
  8
00SILL_TRA
 62
14
 10
3477.667
 20
-2055.484
 30
5182.000
 70
    32
  0
VERTEX
  8
00SILL_TRA
 62
14
 10
3475.950
 20
-2063.826
 30
5182.000
 70
    32
  0
VERTEX
  8
00SILL_TRA
 62
14
 10
3472.190
 20
-2080.199
 30
5182.000
 70
    32
  0
VERTEX
  8
00SILL_TRA
 62
14
 10
3468.982
 20
-2093.184
 30
5182.000
 70
    32
  0
VERTEX
  8
00SILL_TRA
 62
14
 10
3465.995
 20
-2104.370
 30
5182.000
 70
    32
  0
VERTEX
  8
00SILL_TRA
 62
14
 10
3461.937
 20
-2117.140
 30
5182.000
 70
    32
  0
VERTEX
  8
00SILL_TRA
 62
14
 10
3456.948
 20
-2129.603
 30
5182.000
 70
    32
  0
VERTEX
  8
00SILL_TRA
 62
14
 10
3452.681
 20
-2138.756
 30
5182.000
 70
    32
  0
VERTEX
  8
00SILL_TRA
 62
14
 10
3447.293
 20
-2149.336
 30
5182.000
 70
    32
  0
VERTEX
  8
00SILL_TRA
 62
14
 10
3441.622
 20
-2159.706
 30
5182.000
 70
    32
  0
VERTEX
  8
00SILL_TRA
 62
14
 10
3437.202
 20
-2167.217
 30
5182.000
 70
    32
  0
VERTEX
  8
00SILL_TRA
 62
14
 10
3432.393
 20
-2174.537
 30
5182.000
 70
    32
  0
VERTEX
  8
00SILL_TRA
 62
14
 10
3424.312
 20
-2185.562
 30
5182.000
 70
    32
  0
VERTEX
  8
00SILL_TRA
 62
14
 10
3415.066
 20
-2197.020
 30
5182.000
 70
    32
  0
VERTEX
  8
00SILL_TRA
 62
14
 10
3408.750
 20
-2203.838
 30
5182.000
 70
    32
  0
VERTEX
  8
00SILL_TRA
 62
14
 10
3403.534
 20
-2208.823
 30
5182.000
 70
    32
  0
VERTEX
  8
00SILL_TRA
 62
14
 10
3395.208
 20
-2216.296
 30
5182.000
 70
    32
  0
VERTEX
  8
00SILL_TRA
 62
14
 10
3384.035
 20
-2225.783
 30
5182.000
 70
    32
  0
VERTEX
  8
00SILL_TRA
 62
14
 10
3372.247
 20
-2235.196
 30
5182.000
 70
    32
  0
VERTEX
  8
00SILL_TRA
 62
14
 10
3356.033
 20
-2246.945
 30
5182.000
 70
    32
  0
VERTEX
  8
00SILL_TRA
 62
14
 10
3345.469
 20
-2253.321
 30
5182.000
 70
    32
  0
VERTEX
  8
00SILL_TRA
 62
14
 10
3333.404
 20
-2259.733
 30
5182.000
 70
    32
  0
VERTEX
  8
00SILL_TRA
 62
14
 10
3321.321
 20
-2266.068
 30
5182.000
 70
    32
  0
VERTEX
  8
00SILL_TRA
 62
14
 10
3299.210
 20
-2277.581
 30
5182.000
 70
    32
  0
VERTEX
  8
00SILL_TRA
 62
14
 10
3296.026
 20
-2279.233
 30
5182.000
 70
    32
  0
VERTEX
  8
00SILL_TRA
 62
14
 10
3291.402
 20
-2281.611
 30
5182.000
 70
    32
  0
VERTEX
  8
00SILL_TRA
 62
14
 10
3266.426
 20
-2294.378
 30
5182.000
 70
    32
  0
VERTEX
  8
00SILL_TRA
 62
14
 10
3261.348
 20
-2296.935
 30
5182.000
 70
    32
  0
VERTEX
  8
00SILL_TRA
 62
14
 10
3248.536
 20
-2303.335
 30
5182.000
 70
    32
  0
VERTEX
  8
00SILL_TRA
 62
14
 10
3245.527
 20
-2305.000
 30
5182.000
 70
    32
  0
VERTEX
  8
00SILL_TRA
 62
14
 10
3025.569
 20
-2412.743
 30
5182.000
 70
    32
  0
SEQEND
  8
00SILL_TRA
  0
POLYLINE
  8
00SILL_TRA
 62
14
 66
     1
 70
     8
  0
VERTEX
  8
00SILL_TRA
 62
14
 10
3506.322
 20
-2027.609
 30
5182.000
 70
    32
  0
VERTEX
  8
00SILL_TRA
 62
14
 10
3501.692
 20
-2036.331
 30
5182.000
 70
    32
  0
VERTEX
  8
00SILL_TRA
 62
14
 10
3499.190
 20
-2041.860
 30
5182.000
 70
    32
  0
VERTEX
  8
00SILL_TRA
 62
14
 10
3496.164
 20
-2049.458
 30
5182.000
 70
    32
  0
VERTEX
  8
00SILL_TRA
 62
14
 10
3494.977
 20
-2052.342
 30
5182.000
 70
    32
  0
VERTEX
  8
00SILL_TRA
 62
14
 10
3491.481
 20
-2059.296
 30
5182.000
 70
    32
  0
VERTEX
  8
00SILL_TRA
 62
14
 10
3489.452
 20
-2063.703
 30
5182.000
 70
    32
  0
VERTEX
  8
00SILL_TRA
 62
14
 10
3488.097
 20
-2067.614
 30
5182.000
 70
    32
  0
VERTEX
  8
00SILL_TRA
 62
14
 10
3486.325
 20
-2072.750
 30
5182.000
 70
    32
  0
VERTEX
  8
00SILL_TRA
 62
14
 10
3482.725
 20
-2082.997
 30
5182.000
 70
    32
  0
VERTEX
  8
00SILL_TRA
 62
14
 10
3482.313
 20
-2084.140
 30
5182.000
 70
    32
  0
VERTEX
  8
00SILL_TRA
 62
14
 10
3480.485
 20
-2088.820
 30
5182.000
 70
    32
  0
VERTEX
  8
00SILL_TRA
 62
14
 10
3476.458
 20
-2098.849
 30
5182.000
 70
    32
  0
VERTEX
  8
00SILL_TRA
 62
14
 10
3473.711
 20
-2105.927
 30
5182.000
 70
    32
  0
VERTEX
  8
00SILL_TRA
 62
14
 10
3472.746
 20
-2108.368
 30
5182.000
 70
    32
  0
VERTEX
  8
00SILL_TRA
 62
14
 10
3472.254
 20
-2109.568
 30
5182.000
 70
    32
  0
VERTEX
  8
00SILL_TRA
 62
14
 10
3467.734
 20
-2120.489
 30
5182.000
 70
    32
  0
VERTEX
  8
00SILL_TRA
 62
14
 10
3463.347
 20
-2131.056
 30
5182.000
 70
    32
  0
VERTEX
  8
00SILL_TRA
 62
14
 10
3463.149
 20
-2131.508
 30
5182.000
 70
    32
  0
VERTEX
  8
00SILL_TRA
 62
14
 10
3462.497
 20
-2132.889
 30
5182.000
 70
    32
  0
VERTEX
  8
00SILL_TRA
 62
14
 10
3458.260
 20
-2141.657
 30
5182.000
 70
    32
  0
VERTEX
  8
00SILL_TRA
 62
14
 10
3455.536
 20
-2147.332
 30
5182.000
 70
    32
  0
VERTEX
  8
00SILL_TRA
 62
14
 10
3454.069
 20
-2150.381
 30
5182.000
 70
    32
  0
VERTEX
  8
00SILL_TRA
 62
14
 10
3452.799
 20
-2152.705
 30
5182.000
 70
    32
  0
VERTEX
  8
00SILL_TRA
 62
14
 10
3448.012
 20
-2160.246
 30
5182.000
 70
    32
  0
VERTEX
  8
00SILL_TRA
 62
14
 10
3443.316
 20
-2167.334
 30
5182.000
 70
    32
  0
VERTEX
  8
00SILL_TRA
 62
14
 10
3440.752
 20
-2171.092
 30
5182.000
 70
    32
  0
VERTEX
  8
00SILL_TRA
 62
14
 10
3437.570
 20
-2175.613
 30
5182.000
 70
    32
  0
VERTEX
  8
00SILL_TRA
 62
14
 10
3433.068
 20
-2181.879
 30
5182.000
 70
    32
  0
VERTEX
  8
00SILL_TRA
 62
14
 10
3429.150
 20
-2187.193
 30
5182.000
 70
    32
  0
VERTEX
  8
00SILL_TRA
 62
14
 10
3426.286
 20
-2190.920
 30
5182.000
 70
    32
  0
VERTEX
  8
00SILL_TRA
 62
14
 10
3423.322
 20
-2194.510
 30
5182.000
 70
    32
  0
VERTEX
  8
00SILL_TRA
 62
14
 10
3417.598
 20
-2200.962
 30
5182.000
 70
    32
  0
VERTEX
  8
00SILL_TRA
 62
14
 10
3412.491
 20
-2206.480
 30
5182.000
 70
    32
  0
VERTEX
  8
00SILL_TRA
 62
14
 10
3406.668
 20
-2212.575
 30
5182.000
 70
    32
  0
VERTEX
  8
00SILL_TRA
 62
14
 10
3398.864
 20
-2220.433
 30
5182.000
 70
    32
  0
VERTEX
  8
00SILL_TRA
 62
14
 10
3395.784
 20
-2223.274
 30
5182.000
 70
    32
  0
VERTEX
  8
00SILL_TRA
 62
14
 10
3393.803
 20
-2224.978
 30
5182.000
 70
    32
  0
VERTEX
  8
00SILL_TRA
 62
14
 10
3385.756
 20
-2231.841
 30
5182.000
 70
    32
  0
VERTEX
  8
00SILL_TRA
 62
14
 10
3373.914
 20
-2241.892
 30
5182.000
 70
    32
  0
VERTEX
  8
00SILL_TRA
 62
14
 10
3372.839
 20
-2242.771
 30
5182.000
 70
    32
  0
VERTEX
  8
00SILL_TRA
 62
14
 10
3369.532
 20
-2245.136
 30
5182.000
 70
    32
  0
VERTEX
  8
00SILL_TRA
 62
14
 10
3360.902
 20
-2250.933
 30
5182.000
 70
    32
  0
VERTEX
  8
00SILL_TRA
 62
14
 10
3352.999
 20
-2256.462
 30
5182.000
 70
    32
  0
VERTEX
  8
00SILL_TRA
 62
14
 10
3350.350
 20
-2258.319
 30
5182.000
 70
    32
  0
VERTEX
  8
00SILL_TRA
 62
14
 10
3346.596
 20
-2260.974
 30
5182.000
 70
    32
  0
VERTEX
  8
00SILL_TRA
 62
14
 10
3341.316
 20
-2264.716
 30
5182.000
 70
    32
  0
VERTEX
  8
00SILL_TRA
 62
14
 10
3335.923
 20
-2268.389
 30
5182.000
 70
    32
  0
VERTEX
  8
00SILL_TRA
 62
14
 10
3330.337
 20
-2271.938
 30
5182.000
 70
    32
  0
VERTEX
  8
00SILL_TRA
 62
14
 10
3325.282
 20
-2274.893
 30
5182.000
 70
    32
  0
VERTEX
  8
00SILL_TRA
 62
14
 10
3318.256
 20
-2278.663
 30
5182.000
 70
    32
  0
VERTEX
  8
00SILL_TRA
 62
14
 10
3312.027
 20
-2281.781
 30
5182.000
 70
    32
  0
VERTEX
  8
00SILL_TRA
 62
14
 10
3306.399
 20
-2284.609
 30
5182.000
 70
    32
  0
VERTEX
  8
00SILL_TRA
 62
14
 10
3300.445
 20
-2287.814
 30
5182.000
 70
    32
  0
VERTEX
  8
00SILL_TRA
 62
14
 10
3293.307
 20
-2291.678
 30
5182.000
 70
    32
  0
VERTEX
  8
00SILL_TRA
 62
14
 10
3290.545
 20
-2293.066
 30
5182.000
 70
    32
  0
VERTEX
  8
00SILL_TRA
 62
14
 10
3280.614
 20
-2297.892
 30
5182.000
 70
    32
  0
VERTEX
  8
00SILL_TRA
 62
14
 10
3273.670
 20
-2301.685
 30
5182.000
 70
    32
  0
VERTEX
  8
00SILL_TRA
 62
14
 10
3268.320
 20
-2305.000
 30
5182.000
 70
    32
  0
VERTEX
  8
00SILL_TRA
 62
14
 10
3025.285
 20
-2422.086
 30
5182.000
 70
    32
  0
SEQEND
  8
00SILL_TRA
  0
POLYLINE
  8
00SILL_TRA
 62
14
 66
     1
 70
     8
  0
VERTEX
  8
00SILL_TRA
 62
14
 10
3025.450
 20
-2424.384
 30
5182.000
 70
    32
  0
VERTEX
  8
00SILL_TRA
 62
14
 10
3272.079
 20
-2305.000
 30
5182.000
 70
    32
  0
VERTEX
  8
00SILL_TRA
 62
14
 10
3274.702
 20
-2303.398
 30
5182.000
 70
    32
  0
VERTEX
  8
00SILL_TRA
 62
14
 10
3278.373
 20
-2301.393
 30
5182.000
 70
    32
  0
VERTEX
  8
00SILL_TRA
 62
14
 10
3289.954
 20
-2295.577
 30
5182.000
 70
    32
  0
VERTEX
  8
00SILL_TRA
 62
14
 10
3306.193
 20
-2286.991
 30
5182.000
 70
    32
  0
VERTEX
  8
00SILL_TRA
 62
14
 10
3311.311
 20
-2284.379
 30
5182.000
 70
    32
  0
VERTEX
  8
00SILL_TRA
 62
14
 10
3317.266
 20
-2281.929
 30
5182.000
 70
    32
  0
VERTEX
  8
00SILL_TRA
 62
14
 10
3321.393
 20
-2280.831
 30
5182.000
 70
    32
  0
VERTEX
  8
00SILL_TRA
 62
14
 10
3327.922
 20
-2279.391
 30
5182.000
 70
    32
  0
VERTEX
  8
00SILL_TRA
 62
14
 10
3329.991
 20
-2278.986
 30
5182.000
 70
    32
  0
VERTEX
  8
00SILL_TRA
 62
14
 10
3335.783
 20
-2278.043
 30
5182.000
 70
    32
  0
VERTEX
  8
00SILL_TRA
 62
14
 10
3340.196
 20
-2277.462
 30
5182.000
 70
    32
  0
VERTEX
  8
00SILL_TRA
 62
14
 10
3344.345
 20
-2277.112
 30
5182.000
 70
    32
  0
VERTEX
  8
00SILL_TRA
 62
14
 10
3351.443
 20
-2276.845
 30
5182.000
 70
    32
  0
VERTEX
  8
00SILL_TRA
 62
14
 10
3356.911
 20
-2276.910
 30
5182.000
 70
    32
  0
VERTEX
  8
00SILL_TRA
 62
14
 10
3361.956
 20
-2277.311
 30
5182.000
 70
    32
  0
VERTEX
  8
00SILL_TRA
 62
14
 10
3368.215
 20
-2278.409
 30
5182.000
 70
    32
  0
VERTEX
  8
00SILL_TRA
 62
14
 10
3375.728
 20
-2280.580
 30
5182.000
 70
    32
  0
VERTEX
  8
00SILL_TRA
 62
14
 10
3379.949
 20
-2282.092
 30
5182.000
 70
    32
  0
VERTEX
  8
00SILL_TRA
 62
14
 10
3382.863
 20
-2283.251
 30
5182.000
 70
    32
  0
VERTEX
  8
00SILL_TRA
 62
14
 10
3389.088
 20
-2286.112
 30
5182.000
 70
    32
  0
VERTEX
  8
00SILL_TRA
 62
14
 10
3391.939
 20
-2287.772
 30
5182.000
 70
    32
  0
VERTEX
  8
00SILL_TRA
 62
14
 10
3400.275
 20
-2293.550
 30
5182.000
 70
    32
  0
VERTEX
  8
00SILL_TRA
 62
14
 10
3416.153
 20
-2305.000
 30
5182.000
 70
    32
  0
SEQEND
  8
00SILL_TRA
  0
LINE
  8
00SILL_TRA
 62
14
 10
2554.245
 20
-3480.835
 30
5182.000
 11
2478.359
 21
-3737.854
 31
5182.000
  0
LINE
  8
00SILL_TRA
 62
14
 10
2558.508
 20
-3482.116
 30
5182.000
 11
2482.622
 21
-3739.989
 31
5182.000
  0
TEXT
  8
00SILL_TRA
 62
14
 10
3936.475
 20
-2611.596
 30
5182.000
 40
5.368
  1
Ore Bin
 50
307.342
 41
 1.0 
  0
TEXT
  8
00SILL_TRA
 62
14
 10
3498.799
 20
-2070.255
 30
5182.000
 40
3.948
  1
Topsill
 50
29.487
 41
 1.0 
  0
TEXT
  8
00SILL_TRA
 62
14
 10
3495.560
 20
-2064.528
 30
5182.000
 40
3.948
  1
5182.38
 50
29.487
 41
 1.0 
  0
TEXT
  8
00SILL_TRA
 62
14
 10
3650.659
 20
-2248.345
 30
5182.000
 40
3.438
  1
5183
 50
31.070
 41
 1.0 
  0
TEXT
  8
00SILL_TRA
 62
14
 10
3550.635
 20
-2366.534
 30
5182.000
 40
7.344
  1
El. 5248' approx.
 50
29.075
 41
 1.0 
  0
TEXT
  8
00SILL_TRA
 62
14
 10
3544.686
 20
-2355.836
 30
5182.000
 40
7.344
  1
Basement Fl.
 50
29.075
 41
 1.0 
  0
TEXT
  8
00SILL_TRA
 62
14
 10
3538.738
 20
-2345.139
 30
5182.000
 40
7.344
  1
Foundry
 50
29.075
 41
 1.0 
  0
ENDSEC
  0
EOF
