999
********************************
999
*   DXF File - Entities Only   *
999
*        3D Data Format        *
999
*     Output from ENVISAGE     *
999
*     14-Dec-2007 16:02:06     *
999
********************************
  0
SECTION 
  2
HEADER
  9
$ACADVER
  1
AC1009
  9
$EXTMIN
 10
-290000.000
 20
-250000.000
 30
-4000.000
  9
$EXTMAX
 10
5000000.000
 20
600000.000
 30
6000.000
  0
ENDSEC
  0
SECTION
  2
ENTITIES
  0
LINE
  8
LINE1000
 62
1
 10
-2006.834
 20
-1015.872
 30
1000.000
 11
-1999.748
 21
-2.635
 31
1000.000
  0
LINE
  8
LINE1000
 62
1
 10
-2006.834
 20
-1008.786
 30
1000.000
 11
-1007.768
 21
-1008.786
 31
1000.000
  0
POLYLINE
  8
T10SSILL
 62
4
 66
     1
 70
     9
  0
VERTEX
  8
T10SSILL
 62
4
 10
1686.078
 20
-808.867
 30
4227.518
 70
    32
  0
VERTEX
  8
T10SSILL
 62
4
 10
1669.589
 20
-847.349
 30
4227.488
 70
    32
  0
VERTEX
  8
T10SSILL
 62
4
 10
1634.915
 20
-877.857
 30
4227.347
 70
    32
  0
VERTEX
  8
T10SSILL
 62
4
 10
1249.935
 20
-928.938
 30
4226.426
 70
    32
  0
VERTEX
  8
T10SSILL
 62
4
 10
1246.758
 20
-928.718
 30
4226.426
 70
    32
  0
VERTEX
  8
T10SSILL
 62
4
 10
1244.990
 20
-925.683
 30
4226.448
 70
    32
  0
VERTEX
  8
T10SSILL
 62
4
 10
1269.971
 20
-863.046
 30
4226.908
 70
    32
  0
VERTEX
  8
T10SSILL
 62
4
 10
1335.872
 20
-687.213
 30
4227.488
 70
    32
  0
VERTEX
  8
T10SSILL
 62
4
 10
1340.665
 20
-682.591
 30
4227.489
 70
    32
  0
VERTEX
  8
T10SSILL
 62
4
 10
1348.412
 20
-676.222
 30
4227.489
 70
    32
  0
VERTEX
  8
T10SSILL
 62
4
 10
1356.217
 20
-675.304
 30
4227.490
 70
    32
  0
VERTEX
  8
T10SSILL
 62
4
 10
1522.353
 20
-662.313
 30
4227.509
 70
    32
  0
VERTEX
  8
T10SSILL
 62
4
 10
1527.476
 20
-669.471
 30
4227.510
 70
    32
  0
VERTEX
  8
T10SSILL
 62
4
 10
1528.099
 20
-672.636
 30
4227.510
 70
    32
  0
VERTEX
  8
T10SSILL
 62
4
 10
1527.054
 20
-679.671
 30
4227.510
 70
    32
  0
VERTEX
  8
T10SSILL
 62
4
 10
1520.421
 20
-700.637
 30
4227.509
 70
    32
  0
VERTEX
  8
T10SSILL
 62
4
 10
1512.567
 20
-716.429
 30
4227.509
 70
    32
  0
VERTEX
  8
T10SSILL
 62
4
 10
1508.024
 20
-732.585
 30
4227.508
 70
    32
  0
VERTEX
  8
T10SSILL
 62
4
 10
1502.001
 20
-747.236
 30
4227.508
 70
    32
  0
VERTEX
  8
T10SSILL
 62
4
 10
1498.354
 20
-753.077
 30
4227.507
 70
    32
  0
VERTEX
  8
T10SSILL
 62
4
 10
1498.010
 20
-754.404
 30
4227.507
 70
    32
  0
VERTEX
  8
T10SSILL
 62
4
 10
1504.909
 20
-757.935
 30
4227.508
 70
    32
  0
VERTEX
  8
T10SSILL
 62
4
 10
1509.010
 20
-744.349
 30
4227.509
 70
    32
  0
VERTEX
  8
T10SSILL
 62
4
 10
1511.825
 20
-739.454
 30
4227.509
 70
    32
  0
VERTEX
  8
T10SSILL
 62
4
 10
1522.661
 20
-724.441
 30
4227.510
 70
    32
  0
VERTEX
  8
T10SSILL
 62
4
 10
1541.649
 20
-706.566
 30
4227.512
 70
    32
  0
VERTEX
  8
T10SSILL
 62
4
 10
1546.246
 20
-698.510
 30
4227.512
 70
    32
  0
VERTEX
  8
T10SSILL
 62
4
 10
1553.256
 20
-676.364
 30
4227.513
 70
    32
  0
VERTEX
  8
T10SSILL
 62
4
 10
1555.201
 20
-663.965
 30
4227.513
 70
    32
  0
VERTEX
  8
T10SSILL
 62
4
 10
1555.994
 20
-643.219
 30
4227.513
 70
    32
  0
VERTEX
  8
T10SSILL
 62
4
 10
1580.457
 20
-604.510
 30
4227.513
 70
    32
  0
VERTEX
  8
T10SSILL
 62
4
 10
1588.794
 20
-580.967
 30
4227.512
 70
    32
  0
VERTEX
  8
T10SSILL
 62
4
 10
1590.692
 20
-555.419
 30
4227.511
 70
    32
  0
VERTEX
  8
T10SSILL
 62
4
 10
1594.539
 20
-541.282
 30
4227.510
 70
    32
  0
VERTEX
  8
T10SSILL
 62
4
 10
1592.967
 20
-538.837
 30
4227.510
 70
    32
  0
VERTEX
  8
T10SSILL
 62
4
 10
1588.657
 20
-515.527
 30
4227.509
 70
    32
  0
VERTEX
  8
T10SSILL
 62
4
 10
1589.642
 20
-493.551
 30
4227.507
 70
    32
  0
VERTEX
  8
T10SSILL
 62
4
 10
1587.474
 20
-478.351
 30
4227.506
 70
    32
  0
VERTEX
  8
T10SSILL
 62
4
 10
1596.488
 20
-470.407
 30
4227.506
 70
    32
  0
VERTEX
  8
T10SSILL
 62
4
 10
1648.001
 20
-472.657
 30
4227.509
 70
    32
  0
VERTEX
  8
T10SSILL
 62
4
 10
1613.254
 20
-511.292
 30
4227.510
 70
    32
  0
VERTEX
  8
T10SSILL
 62
4
 10
1617.436
 20
-511.670
 30
4227.510
 70
    32
  0
VERTEX
  8
T10SSILL
 62
4
 10
1617.118
 20
-515.894
 30
4227.510
 70
    32
  0
VERTEX
  8
T10SSILL
 62
4
 10
1656.237
 20
-473.103
 30
4227.510
 70
    32
  0
VERTEX
  8
T10SSILL
 62
4
 10
1745.219
 20
-476.706
 30
4227.517
 70
    32
  0
VERTEX
  8
T10SSILL
 62
4
 10
1745.205
 20
-470.274
 30
4227.517
 70
    32
  0
VERTEX
  8
T10SSILL
 62
4
 10
1738.446
 20
-469.336
 30
4227.516
 70
    32
  0
VERTEX
  8
T10SSILL
 62
4
 10
1736.190
 20
-465.977
 30
4227.516
 70
    32
  0
VERTEX
  8
T10SSILL
 62
4
 10
1737.254
 20
-415.536
 30
4227.516
 70
    32
  0
VERTEX
  8
T10SSILL
 62
4
 10
1730.389
 20
-415.478
 30
4227.515
 70
    32
  0
VERTEX
  8
T10SSILL
 62
4
 10
1728.795
 20
-457.299
 30
4227.515
 70
    32
  0
VERTEX
  8
T10SSILL
 62
4
 10
1724.261
 20
-463.236
 30
4227.515
 70
    32
  0
VERTEX
  8
T10SSILL
 62
4
 10
1717.796
 20
-468.805
 30
4227.514
 70
    32
  0
VERTEX
  8
T10SSILL
 62
4
 10
1655.867
 20
-465.102
 30
4227.509
 70
    32
  0
VERTEX
  8
T10SSILL
 62
4
 10
1655.982
 20
-462.027
 30
4227.509
 70
    32
  0
VERTEX
  8
T10SSILL
 62
4
 10
1663.355
 20
-442.931
 30
4227.509
 70
    32
  0
VERTEX
  8
T10SSILL
 62
4
 10
1665.903
 20
-432.846
 30
4227.509
 70
    32
  0
VERTEX
  8
T10SSILL
 62
4
 10
1668.911
 20
-430.587
 30
4227.510
 70
    32
  0
VERTEX
  8
T10SSILL
 62
4
 10
1673.383
 20
-431.857
 30
4227.510
 70
    32
  0
VERTEX
  8
T10SSILL
 62
4
 10
1681.126
 20
-440.889
 30
4227.511
 70
    32
  0
VERTEX
  8
T10SSILL
 62
4
 10
1683.554
 20
-454.796
 30
4227.511
 70
    32
  0
VERTEX
  8
T10SSILL
 62
4
 10
1685.114
 20
-457.359
 30
4227.511
 70
    32
  0
VERTEX
  8
T10SSILL
 62
4
 10
1688.622
 20
-458.180
 30
4227.512
 70
    32
  0
VERTEX
  8
T10SSILL
 62
4
 10
1698.596
 20
-453.257
 30
4227.513
 70
    32
  0
VERTEX
  8
T10SSILL
 62
4
 10
1707.282
 20
-444.895
 30
4227.513
 70
    32
  0
VERTEX
  8
T10SSILL
 62
4
 10
1713.343
 20
-435.193
 30
4227.514
 70
    32
  0
VERTEX
  8
T10SSILL
 62
4
 10
1733.797
 20
-387.471
 30
4227.515
 70
    32
  0
VERTEX
  8
T10SSILL
 62
4
 10
1739.144
 20
-378.992
 30
4227.515
 70
    32
  0
VERTEX
  8
T10SSILL
 62
4
 10
1742.424
 20
-365.662
 30
4227.515
 70
    32
  0
VERTEX
  8
T10SSILL
 62
4
 10
1745.422
 20
-344.331
 30
4227.516
 70
    32
  0
VERTEX
  8
T10SSILL
 62
4
 10
1739.889
 20
-313.610
 30
4227.515
 70
    32
  0
VERTEX
  8
T10SSILL
 62
4
 10
1746.261
 20
-288.265
 30
4227.515
 70
    32
  0
VERTEX
  8
T10SSILL
 62
4
 10
1744.002
 20
-275.150
 30
4227.515
 70
    32
  0
VERTEX
  8
T10SSILL
 62
4
 10
1745.263
 20
-271.733
 30
4227.515
 70
    32
  0
VERTEX
  8
T10SSILL
 62
4
 10
1754.843
 20
-271.641
 30
4227.516
 70
    32
  0
VERTEX
  8
T10SSILL
 62
4
 10
1752.580
 20
-289.375
 30
4227.516
 70
    32
  0
VERTEX
  8
T10SSILL
 62
4
 10
1757.905
 20
-293.552
 30
4227.516
 70
    32
  0
VERTEX
  8
T10SSILL
 62
4
 10
1766.495
 20
-296.175
 30
4227.517
 70
    32
  0
VERTEX
  8
T10SSILL
 62
4
 10
1770.450
 20
-296.210
 30
4227.517
 70
    32
  0
VERTEX
  8
T10SSILL
 62
4
 10
1772.046
 20
-294.554
 30
4227.517
 70
    32
  0
VERTEX
  8
T10SSILL
 62
4
 10
1781.308
 20
-280.572
 30
4227.518
 70
    32
  0
VERTEX
  8
T10SSILL
 62
4
 10
1788.674
 20
-272.375
 30
4227.519
 70
    32
  0
VERTEX
  8
T10SSILL
 62
4
 10
1871.433
 20
-276.171
 30
4227.526
 70
    32
  0
VERTEX
  8
T10SSILL
 62
4
 10
1875.375
 20
-277.611
 30
4227.526
 70
    32
  0
VERTEX
  8
T10SSILL
 62
4
 10
1877.202
 20
-279.737
 30
4227.527
 70
    32
  0
VERTEX
  8
T10SSILL
 62
4
 10
1877.531
 20
-282.376
 30
4227.527
 70
    32
  0
VERTEX
  8
T10SSILL
 62
4
 10
1874.980
 20
-312.939
 30
4227.527
 70
    32
  0
VERTEX
  8
T10SSILL
 62
4
 10
1874.430
 20
-335.698
 30
4227.527
 70
    32
  0
VERTEX
  8
T10SSILL
 62
4
 10
1881.018
 20
-336.107
 30
4227.527
 70
    32
  0
VERTEX
  8
T10SSILL
 62
4
 10
1883.345
 20
-311.079
 30
4227.527
 70
    32
  0
VERTEX
  8
T10SSILL
 62
4
 10
1883.184
 20
-299.300
 30
4227.527
 70
    32
  0
VERTEX
  8
T10SSILL
 62
4
 10
1884.425
 20
-288.061
 30
4227.527
 70
    32
  0
VERTEX
  8
T10SSILL
 62
4
 10
1887.043
 20
-279.998
 30
4227.527
 70
    32
  0
VERTEX
  8
T10SSILL
 62
4
 10
1890.762
 20
-276.866
 30
4227.528
 70
    32
  0
VERTEX
  8
T10SSILL
 62
4
 10
1892.960
 20
-276.798
 30
4227.528
 70
    32
  0
VERTEX
  8
T10SSILL
 62
4
 10
1946.820
 20
-278.585
 30
4227.533
 70
    32
  0
VERTEX
  8
T10SSILL
 62
4
 10
1947.227
 20
-272.260
 30
4227.533
 70
    32
  0
VERTEX
  8
T10SSILL
 62
4
 10
1796.376
 20
-266.026
 30
4227.519
 70
    32
  0
VERTEX
  8
T10SSILL
 62
4
 10
1793.772
 20
-262.224
 30
4227.519
 70
    32
  0
VERTEX
  8
T10SSILL
 62
4
 10
1796.375
 20
-256.006
 30
4227.519
 70
    32
  0
VERTEX
  8
T10SSILL
 62
4
 10
1805.571
 20
-249.583
 30
4227.520
 70
    32
  0
VERTEX
  8
T10SSILL
 62
4
 10
1808.855
 20
-245.920
 30
4227.520
 70
    32
  0
VERTEX
  8
T10SSILL
 62
4
 10
1809.055
 20
-243.197
 30
4227.520
 70
    32
  0
VERTEX
  8
T10SSILL
 62
4
 10
1803.011
 20
-220.645
 30
4227.519
 70
    32
  0
VERTEX
  8
T10SSILL
 62
4
 10
1802.564
 20
-211.413
 30
4227.519
 70
    32
  0
VERTEX
  8
T10SSILL
 62
4
 10
1803.727
 20
-209.050
 30
4227.519
 70
    32
  0
VERTEX
  8
T10SSILL
 62
4
 10
1811.788
 20
-201.737
 30
4227.520
 70
    32
  0
VERTEX
  8
T10SSILL
 62
4
 10
1828.131
 20
-192.124
 30
4227.521
 70
    32
  0
VERTEX
  8
T10SSILL
 62
4
 10
1854.430
 20
-179.697
 30
4227.523
 70
    32
  0
VERTEX
  8
T10SSILL
 62
4
 10
1874.229
 20
-176.969
 30
4227.525
 70
    32
  0
VERTEX
  8
T10SSILL
 62
4
 10
1885.832
 20
-176.806
 30
4227.526
 70
    32
  0
VERTEX
  8
T10SSILL
 62
4
 10
1886.737
 20
-173.826
 30
4227.526
 70
    32
  0
VERTEX
  8
T10SSILL
 62
4
 10
1885.831
 20
-166.874
 30
4227.526
 70
    32
  0
VERTEX
  8
T10SSILL
 62
4
 10
1862.831
 20
-153.579
 30
4227.524
 70
    32
  0
VERTEX
  8
T10SSILL
 62
4
 10
1858.918
 20
-148.799
 30
4227.523
 70
    32
  0
VERTEX
  8
T10SSILL
 62
4
 10
1855.656
 20
-139.894
 30
4227.523
 70
    32
  0
VERTEX
  8
T10SSILL
 62
4
 10
1852.092
 20
-135.292
 30
4227.523
 70
    32
  0
VERTEX
  8
T10SSILL
 62
4
 10
1843.520
 20
-130.560
 30
4227.522
 70
    32
  0
VERTEX
  8
T10SSILL
 62
4
 10
1835.995
 20
-136.910
 30
4227.521
 70
    32
  0
VERTEX
  8
T10SSILL
 62
4
 10
1806.212
 20
-135.508
 30
4227.519
 70
    32
  0
VERTEX
  8
T10SSILL
 62
4
 10
1784.187
 20
-131.538
 30
4227.517
 70
    32
  0
VERTEX
  8
T10SSILL
 62
4
 10
1776.047
 20
-127.600
 30
4227.516
 70
    32
  0
VERTEX
  8
T10SSILL
 62
4
 10
1772.383
 20
-124.492
 30
4227.515
 70
    32
  0
VERTEX
  8
T10SSILL
 62
4
 10
1768.251
 20
-124.631
 30
4227.515
 70
    32
  0
VERTEX
  8
T10SSILL
 62
4
 10
1738.645
 20
-143.358
 30
4227.513
 70
    32
  0
VERTEX
  8
T10SSILL
 62
4
 10
1724.795
 20
-179.623
 30
4227.512
 70
    32
  0
VERTEX
  8
T10SSILL
 62
4
 10
1723.582
 20
-187.699
 30
4227.512
 70
    32
  0
VERTEX
  8
T10SSILL
 62
4
 10
1723.227
 20
-228.564
 30
4227.512
 70
    32
  0
VERTEX
  8
T10SSILL
 62
4
 10
1722.144
 20
-231.806
 30
4227.512
 70
    32
  0
VERTEX
  8
T10SSILL
 62
4
 10
1719.574
 20
-234.157
 30
4227.512
 70
    32
  0
VERTEX
  8
T10SSILL
 62
4
 10
1719.568
 20
-244.967
 30
4227.512
 70
    32
  0
VERTEX
  8
T10SSILL
 62
4
 10
1716.851
 20
-254.260
 30
4227.512
 70
    32
  0
VERTEX
  8
T10SSILL
 62
4
 10
1712.553
 20
-263.363
 30
4227.512
 70
    32
  0
VERTEX
  8
T10SSILL
 62
4
 10
1239.087
 20
-244.126
 30
4227.471
 70
    32
  0
VERTEX
  8
T10SSILL
 62
4
 10
1238.847
 20
-251.507
 30
4227.471
 70
    32
  0
VERTEX
  8
T10SSILL
 62
4
 10
1468.780
 20
-259.836
 30
4227.490
 70
    32
  0
VERTEX
  8
T10SSILL
 62
4
 10
1466.274
 20
-325.555
 30
4227.491
 70
    32
  0
VERTEX
  8
T10SSILL
 62
4
 10
1292.187
 20
-784.067
 30
4227.484
 70
    32
  0
VERTEX
  8
T10SSILL
 62
4
 10
1239.510
 20
-922.808
 30
4226.466
 70
    32
  0
VERTEX
  8
T10SSILL
 62
4
 10
1189.511
 20
-975.532
 30
4226.067
 70
    32
  0
VERTEX
  8
T10SSILL
 62
4
 10
1110.804
 20
-1067.642
 30
4225.599
 70
    32
  0
VERTEX
  8
T10SSILL
 62
4
 10
1089.006
 20
-1080.861
 30
4225.628
 70
    32
  0
VERTEX
  8
T10SSILL
 62
4
 10
665.169
 20
-1319.556
 30
4225.853
 70
    32
  0
VERTEX
  8
T10SSILL
 62
4
 10
661.481
 20
-1320.315
 30
4225.859
 70
    32
  0
VERTEX
  8
T10SSILL
 62
4
 10
643.240
 20
-1296.762
 30
4226.053
 70
    32
  0
VERTEX
  8
T10SSILL
 62
4
 10
500.096
 20
-1272.297
 30
4226.605
 70
    32
  0
VERTEX
  8
T10SSILL
 62
4
 10
458.992
 20
-1264.215
 30
4226.756
 70
    32
  0
VERTEX
  8
T10SSILL
 62
4
 10
436.150
 20
-1280.217
 30
4226.815
 70
    32
  0
VERTEX
  8
T10SSILL
 62
4
 10
415.534
 20
-1236.135
 30
4226.963
 70
    32
  0
VERTEX
  8
T10SSILL
 62
4
 10
416.190
 20
-1227.791
 30
4226.974
 70
    32
  0
VERTEX
  8
T10SSILL
 62
4
 10
408.154
 20
-1214.291
 30
4227.026
 70
    32
  0
VERTEX
  8
T10SSILL
 62
4
 10
358.352
 20
-1036.412
 30
4227.399
 70
    32
  0
VERTEX
  8
T10SSILL
 62
4
 10
368.738
 20
-1032.425
 30
4227.399
 70
    32
  0
VERTEX
  8
T10SSILL
 62
4
 10
368.554
 20
-1035.653
 30
4227.385
 70
    32
  0
VERTEX
  8
T10SSILL
 62
4
 10
375.916
 20
-1036.293
 30
4227.372
 70
    32
  0
VERTEX
  8
T10SSILL
 62
4
 10
376.604
 20
-1029.405
 30
4227.402
 70
    32
  0
VERTEX
  8
T10SSILL
 62
4
 10
378.961
 20
-1028.500
 30
4227.402
 70
    32
  0
VERTEX
  8
T10SSILL
 62
4
 10
375.755
 20
-1021.011
 30
4227.411
 70
    32
  0
VERTEX
  8
T10SSILL
 62
4
 10
349.513
 20
-1031.390
 30
4227.416
 70
    32
  0
VERTEX
  8
T10SSILL
 62
4
 10
390.270
 20
-1174.530
 30
4227.147
 70
    32
  0
VERTEX
  8
T10SSILL
 62
4
 10
192.967
 20
-1136.108
 30
4227.281
 70
    32
  0
VERTEX
  8
T10SSILL
 62
4
 10
146.240
 20
-1073.285
 30
4227.756
 70
    32
  0
VERTEX
  8
T10SSILL
 62
4
 10
149.188
 20
-1058.745
 30
4227.833
 70
    32
  0
VERTEX
  8
T10SSILL
 62
4
 10
471.971
 20
-715.767
 30
4227.409
 70
    32
  0
VERTEX
  8
T10SSILL
 62
4
 10
466.424
 20
-710.780
 30
4227.409
 70
    32
  0
VERTEX
  8
T10SSILL
 62
4
 10
410.899
 20
-769.467
 30
4227.406
 70
    32
  0
VERTEX
  8
T10SSILL
 62
4
 10
403.501
 20
-772.121
 30
4227.406
 70
    32
  0
VERTEX
  8
T10SSILL
 62
4
 10
389.329
 20
-787.575
 30
4227.405
 70
    32
  0
VERTEX
  8
T10SSILL
 62
4
 10
386.900
 20
-787.933
 30
4227.405
 70
    32
  0
VERTEX
  8
T10SSILL
 62
4
 10
383.933
 20
-785.719
 30
4227.404
 70
    32
  0
VERTEX
  8
T10SSILL
 62
4
 10
372.391
 20
-773.001
 30
4227.403
 70
    32
  0
VERTEX
  8
T10SSILL
 62
4
 10
367.979
 20
-778.486
 30
4227.403
 70
    32
  0
VERTEX
  8
T10SSILL
 62
4
 10
380.728
 20
-791.949
 30
4227.404
 70
    32
  0
VERTEX
  8
T10SSILL
 62
4
 10
380.908
 20
-794.421
 30
4227.404
 70
    32
  0
VERTEX
  8
T10SSILL
 62
4
 10
379.118
 20
-797.882
 30
4227.404
 70
    32
  0
VERTEX
  8
T10SSILL
 62
4
 10
301.741
 20
-880.390
 30
4227.401
 70
    32
  0
VERTEX
  8
T10SSILL
 62
4
 10
299.604
 20
-888.858
 30
4227.401
 70
    32
  0
VERTEX
  8
T10SSILL
 62
4
 10
151.854
 20
-1047.246
 30
4227.813
 70
    32
  0
VERTEX
  8
T10SSILL
 62
4
 10
140.600
 20
-1052.968
 30
4227.842
 70
    32
  0
VERTEX
  8
T10SSILL
 62
4
 10
133.504
 20
-1059.522
 30
4227.769
 70
    32
  0
VERTEX
  8
T10SSILL
 62
4
 10
118.343
 20
-1065.762
 30
4227.622
 70
    32
  0
VERTEX
  8
T10SSILL
 62
4
 10
110.116
 20
-1070.500
 30
4227.540
 70
    32
  0
VERTEX
  8
T10SSILL
 62
4
 10
75.416
 20
-1093.502
 30
4227.241
 70
    32
  0
VERTEX
  8
T10SSILL
 62
4
 10
37.204
 20
-1047.751
 30
4227.253
 70
    32
  0
VERTEX
  8
T10SSILL
 62
4
 10
-580.020
 20
-401.225
 30
4227.291
 70
    32
  0
VERTEX
  8
T10SSILL
 62
4
 10
-584.835
 20
-397.804
 30
4227.291
 70
    32
  0
VERTEX
  8
T10SSILL
 62
4
 10
-639.748
 20
-386.693
 30
4227.286
 70
    32
  0
VERTEX
  8
T10SSILL
 62
4
 10
-692.640
 20
-378.808
 30
4227.281
 70
    32
  0
VERTEX
  8
T10SSILL
 62
4
 10
-707.340
 20
-377.759
 30
4227.280
 70
    32
  0
VERTEX
  8
T10SSILL
 62
4
 10
-710.490
 20
-399.539
 30
4227.276
 70
    32
  0
VERTEX
  8
T10SSILL
 62
4
 10
-696.267
 20
-399.475
 30
4227.277
 70
    32
  0
VERTEX
  8
T10SSILL
 62
4
 10
-610.336
 20
-407.238
 30
4227.286
 70
    32
  0
VERTEX
  8
T10SSILL
 62
4
 10
-594.056
 20
-410.080
 30
4227.288
 70
    32
  0
VERTEX
  8
T10SSILL
 62
4
 10
-561.089
 20
-432.243
 30
4227.288
 70
    32
  0
VERTEX
  8
T10SSILL
 62
4
 10
21.466
 20
-1041.934
 30
4227.246
 70
    32
  0
VERTEX
  8
T10SSILL
 62
4
 10
71.482
 20
-1099.404
 30
4227.227
 70
    32
  0
VERTEX
  8
T10SSILL
 62
4
 10
61.680
 20
-1283.671
 30
4226.953
 70
    32
  0
VERTEX
  8
T10SSILL
 62
4
 10
207.239
 20
-1450.698
 30
4227.386
 70
    32
  0
VERTEX
  8
T10SSILL
 62
4
 10
227.794
 20
-1502.482
 30
4227.434
 70
    32
  0
VERTEX
  8
T10SSILL
 62
4
 10
222.456
 20
-1506.402
 30
4227.429
 70
    32
  0
VERTEX
  8
T10SSILL
 62
4
 10
225.294
 20
-1513.551
 30
4227.436
 70
    32
  0
VERTEX
  8
T10SSILL
 62
4
 10
230.805
 20
-1509.536
 30
4227.441
 70
    32
  0
VERTEX
  8
T10SSILL
 62
4
 10
266.945
 20
-1598.780
 30
4227.524
 70
    32
  0
VERTEX
  8
T10SSILL
 62
4
 10
245.020
 20
-1615.632
 30
4227.505
 70
    32
  0
VERTEX
  8
T10SSILL
 62
4
 10
240.968
 20
-1616.140
 30
4227.501
 70
    32
  0
VERTEX
  8
T10SSILL
 62
4
 10
202.919
 20
-1599.977
 30
4227.448
 70
    32
  0
VERTEX
  8
T10SSILL
 62
4
 10
200.117
 20
-1605.394
 30
4227.447
 70
    32
  0
VERTEX
  8
T10SSILL
 62
4
 10
235.976
 20
-1622.171
 30
4227.497
 70
    32
  0
VERTEX
  8
T10SSILL
 62
4
 10
-108.961
 20
-1871.491
 30
4227.120
 70
    32
  0
VERTEX
  8
T10SSILL
 62
4
 10
-104.062
 20
-1876.969
 30
4227.119
 70
    32
  0
VERTEX
  8
T10SSILL
 62
4
 10
269.712
 20
-1606.374
 30
4227.514
 70
    32
  0
VERTEX
  8
T10SSILL
 62
4
 10
283.710
 20
-1632.390
 30
4227.412
 70
    32
  0
VERTEX
  8
T10SSILL
 62
4
 10
296.124
 20
-1737.670
 30
4227.169
 70
    32
  0
VERTEX
  8
T10SSILL
 62
4
 10
377.676
 20
-1894.743
 30
4227.052
 70
    32
  0
VERTEX
  8
T10SSILL
 62
4
 10
504.091
 20
-2131.143
 30
4227.057
 70
    32
  0
VERTEX
  8
T10SSILL
 62
4
 10
658.410
 20
-2310.494
 30
4227.293
 70
    32
  0
VERTEX
  8
T10SSILL
 62
4
 10
721.570
 20
-2327.994
 30
4227.398
 70
    32
  0
VERTEX
  8
T10SSILL
 62
4
 10
734.085
 20
-2332.429
 30
4227.393
 70
    32
  0
VERTEX
  8
T10SSILL
 62
4
 10
756.238
 20
-2331.872
 30
4227.384
 70
    32
  0
VERTEX
  8
T10SSILL
 62
4
 10
772.703
 20
-2328.994
 30
4227.366
 70
    32
  0
VERTEX
  8
T10SSILL
 62
4
 10
783.605
 20
-2332.239
 30
4227.363
 70
    32
  0
VERTEX
  8
T10SSILL
 62
4
 10
914.058
 20
-2444.104
 30
4227.324
 70
    32
  0
VERTEX
  8
T10SSILL
 62
4
 10
929.664
 20
-2452.508
 30
4227.318
 70
    32
  0
VERTEX
  8
T10SSILL
 62
4
 10
956.634
 20
-2472.062
 30
4227.308
 70
    32
  0
VERTEX
  8
T10SSILL
 62
4
 10
971.865
 20
-2476.077
 30
4227.303
 70
    32
  0
VERTEX
  8
T10SSILL
 62
4
 10
1007.653
 20
-2472.010
 30
4227.293
 70
    32
  0
VERTEX
  8
T10SSILL
 62
4
 10
1018.820
 20
-2475.336
 30
4227.289
 70
    32
  0
VERTEX
  8
T10SSILL
 62
4
 10
1084.541
 20
-2468.756
 30
4227.271
 70
    32
  0
VERTEX
  8
T10SSILL
 62
4
 10
1099.657
 20
-2468.200
 30
4227.267
 70
    32
  0
VERTEX
  8
T10SSILL
 62
4
 10
1107.977
 20
-2459.722
 30
4227.265
 70
    32
  0
VERTEX
  8
T10SSILL
 62
4
 10
1112.432
 20
-2458.466
 30
4227.264
 70
    32
  0
VERTEX
  8
T10SSILL
 62
4
 10
1115.168
 20
-2458.837
 30
4227.264
 70
    32
  0
VERTEX
  8
T10SSILL
 62
4
 10
1108.649
 20
-2468.941
 30
4227.264
 70
    32
  0
VERTEX
  8
T10SSILL
 62
4
 10
1114.298
 20
-2473.198
 30
4227.262
 70
    32
  0
VERTEX
  8
T10SSILL
 62
4
 10
1125.620
 20
-2454.704
 30
4227.261
 70
    32
  0
VERTEX
  8
T10SSILL
 62
4
 10
1136.342
 20
-2450.827
 30
4227.259
 70
    32
  0
VERTEX
  8
T10SSILL
 62
4
 10
1145.327
 20
-2451.305
 30
4227.255
 70
    32
  0
VERTEX
  8
T10SSILL
 62
4
 10
1162.531
 20
-2449.817
 30
4227.239
 70
    32
  0
VERTEX
  8
T10SSILL
 62
4
 10
1183.018
 20
-2463.464
 30
4227.243
 70
    32
  0
VERTEX
  8
T10SSILL
 62
4
 10
1169.864
 20
-2472.064
 30
4227.246
 70
    32
  0
VERTEX
  8
T10SSILL
 62
4
 10
1157.946
 20
-2519.337
 30
4227.242
 70
    32
  0
VERTEX
  8
T10SSILL
 62
4
 10
1166.087
 20
-2521.244
 30
4227.239
 70
    32
  0
VERTEX
  8
T10SSILL
 62
4
 10
1176.495
 20
-2476.911
 30
4227.243
 70
    32
  0
VERTEX
  8
T10SSILL
 62
4
 10
1190.263
 20
-2468.208
 30
4227.240
 70
    32
  0
VERTEX
  8
T10SSILL
 62
4
 10
1469.200
 20
-2649.878
 30
4227.140
 70
    32
  0
VERTEX
  8
T10SSILL
 62
4
 10
1533.109
 20
-2805.553
 30
4227.136
 70
    32
  0
VERTEX
  8
T10SSILL
 62
4
 10
1538.506
 20
-2810.256
 30
4227.135
 70
    32
  0
VERTEX
  8
T10SSILL
 62
4
 10
1664.265
 20
-2893.037
 30
4227.103
 70
    32
  0
VERTEX
  8
T10SSILL
 62
4
 10
1669.054
 20
-2899.802
 30
4227.102
 70
    32
  0
VERTEX
  8
T10SSILL
 62
4
 10
1670.811
 20
-2899.768
 30
4227.102
 70
    32
  0
VERTEX
  8
T10SSILL
 62
4
 10
1700.564
 20
-2873.957
 30
4227.089
 70
    32
  0
VERTEX
  8
T10SSILL
 62
4
 10
1701.367
 20
-2875.009
 30
4227.089
 70
    32
  0
VERTEX
  8
T10SSILL
 62
4
 10
1705.690
 20
-2871.234
 30
4227.087
 70
    32
  0
VERTEX
  8
T10SSILL
 62
4
 10
1709.297
 20
-2876.000
 30
4227.086
 70
    32
  0
VERTEX
  8
T10SSILL
 62
4
 10
1715.506
 20
-2870.849
 30
4227.084
 70
    32
  0
VERTEX
  8
T10SSILL
 62
4
 10
1721.642
 20
-2877.961
 30
4227.083
 70
    32
  0
VERTEX
  8
T10SSILL
 62
4
 10
1726.361
 20
-2885.694
 30
4227.082
 70
    32
  0
VERTEX
  8
T10SSILL
 62
4
 10
1732.537
 20
-2886.894
 30
4227.080
 70
    32
  0
VERTEX
  8
T10SSILL
 62
4
 10
1755.614
 20
-2912.208
 30
4227.075
 70
    32
  0
VERTEX
  8
T10SSILL
 62
4
 10
1765.874
 20
-2920.098
 30
4227.073
 70
    32
  0
VERTEX
  8
T10SSILL
 62
4
 10
1776.286
 20
-2931.326
 30
4227.071
 70
    32
  0
VERTEX
  8
T10SSILL
 62
4
 10
1797.754
 20
-2973.637
 30
4227.069
 70
    32
  0
VERTEX
  8
T10SSILL
 62
4
 10
1803.014
 20
-2986.634
 30
4227.068
 70
    32
  0
VERTEX
  8
T10SSILL
 62
4
 10
1811.951
 20
-2994.286
 30
4227.066
 70
    32
  0
VERTEX
  8
T10SSILL
 62
4
 10
1820.359
 20
-2997.289
 30
4227.064
 70
    32
  0
VERTEX
  8
T10SSILL
 62
4
 10
1828.627
 20
-3006.712
 30
4227.062
 70
    32
  0
VERTEX
  8
T10SSILL
 62
4
 10
1843.087
 20
-3004.413
 30
4227.057
 70
    32
  0
VERTEX
  8
T10SSILL
 62
4
 10
1854.424
 20
-3008.855
 30
4227.054
 70
    32
  0
VERTEX
  8
T10SSILL
 62
4
 10
1863.974
 20
-3007.178
 30
4227.051
 70
    32
  0
VERTEX
  8
T10SSILL
 62
4
 10
1883.370
 20
-2996.433
 30
4227.043
 70
    32
  0
VERTEX
  8
T10SSILL
 62
4
 10
1881.773
 20
-2986.443
 30
4227.042
 70
    32
  0
VERTEX
  8
T10SSILL
 62
4
 10
1859.418
 20
-2934.568
 30
4227.044
 70
    32
  0
VERTEX
  8
T10SSILL
 62
4
 10
1853.266
 20
-2916.314
 30
4227.044
 70
    32
  0
VERTEX
  8
T10SSILL
 62
4
 10
1846.357
 20
-2904.403
 30
4227.045
 70
    32
  0
VERTEX
  8
T10SSILL
 62
4
 10
1833.275
 20
-2891.469
 30
4227.048
 70
    32
  0
VERTEX
  8
T10SSILL
 62
4
 10
1823.853
 20
-2886.023
 30
4227.050
 70
    32
  0
VERTEX
  8
T10SSILL
 62
4
 10
1824.232
 20
-2878.280
 30
4227.049
 70
    32
  0
VERTEX
  8
T10SSILL
 62
4
 10
1813.278
 20
-2861.701
 30
4227.051
 70
    32
  0
VERTEX
  8
T10SSILL
 62
4
 10
1808.310
 20
-2859.334
 30
4227.052
 70
    32
  0
VERTEX
  8
T10SSILL
 62
4
 10
1796.494
 20
-2848.221
 30
4227.055
 70
    32
  0
VERTEX
  8
T10SSILL
 62
4
 10
1793.148
 20
-2843.363
 30
4227.055
 70
    32
  0
VERTEX
  8
T10SSILL
 62
4
 10
1789.531
 20
-2833.499
 30
4227.055
 70
    32
  0
VERTEX
  8
T10SSILL
 62
4
 10
1761.173
 20
-2812.418
 30
4227.062
 70
    32
  0
VERTEX
  8
T10SSILL
 62
4
 10
1759.305
 20
-2802.081
 30
4227.062
 70
    32
  0
VERTEX
  8
T10SSILL
 62
4
 10
1761.092
 20
-2794.399
 30
4227.060
 70
    32
  0
VERTEX
  8
T10SSILL
 62
4
 10
1763.917
 20
-2790.477
 30
4227.059
 70
    32
  0
VERTEX
  8
T10SSILL
 62
4
 10
1823.403
 20
-2743.275
 30
4227.034
 70
    32
  0
VERTEX
  8
T10SSILL
 62
4
 10
1839.979
 20
-2736.716
 30
4227.028
 70
    32
  0
VERTEX
  8
T10SSILL
 62
4
 10
1842.800
 20
-2737.102
 30
4227.027
 70
    32
  0
VERTEX
  8
T10SSILL
 62
4
 10
1864.199
 20
-2720.781
 30
4227.018
 70
    32
  0
VERTEX
  8
T10SSILL
 62
4
 10
1882.154
 20
-2712.789
 30
4227.011
 70
    32
  0
VERTEX
  8
T10SSILL
 62
4
 10
1886.994
 20
-2708.477
 30
4227.009
 70
    32
  0
VERTEX
  8
T10SSILL
 62
4
 10
1888.460
 20
-2710.468
 30
4227.009
 70
    32
  0
VERTEX
  8
T10SSILL
 62
4
 10
1910.174
 20
-2702.495
 30
4227.002
 70
    32
  0
VERTEX
  8
T10SSILL
 62
4
 10
1991.600
 20
-2639.665
 30
4227.038
 70
    32
  0
VERTEX
  8
T10SSILL
 62
4
 10
2009.012
 20
-2621.663
 30
4227.049
 70
    32
  0
VERTEX
  8
T10SSILL
 62
4
 10
2011.691
 20
-2610.096
 30
4227.053
 70
    32
  0
VERTEX
  8
T10SSILL
 62
4
 10
2009.869
 20
-2597.561
 30
4227.055
 70
    32
  0
VERTEX
  8
T10SSILL
 62
4
 10
1873.435
 20
-2353.547
 30
4227.092
 70
    32
  0
VERTEX
  8
T10SSILL
 62
4
 10
1499.253
 20
-1695.506
 30
4227.080
 70
    32
  0
VERTEX
  8
T10SSILL
 62
4
 10
1518.654
 20
-1698.163
 30
4227.092
 70
    32
  0
VERTEX
  8
T10SSILL
 62
4
 10
1516.242
 20
-1694.088
 30
4227.092
 70
    32
  0
VERTEX
  8
T10SSILL
 62
4
 10
1520.903
 20
-1691.715
 30
4227.096
 70
    32
  0
VERTEX
  8
T10SSILL
 62
4
 10
1495.013
 20
-1688.050
 30
4227.080
 70
    32
  0
VERTEX
  8
T10SSILL
 62
4
 10
1220.459
 20
-1202.761
 30
4225.587
 70
    32
  0
VERTEX
  8
T10SSILL
 62
4
 10
1110.495
 20
-1133.937
 30
4225.205
 70
    32
  0
VERTEX
  8
T10SSILL
 62
4
 10
1110.316
 20
-1131.554
 30
4225.204
 70
    32
  0
VERTEX
  8
T10SSILL
 62
4
 10
1122.932
 20
-1112.149
 30
4225.233
 70
    32
  0
VERTEX
  8
T10SSILL
 62
4
 10
1127.361
 20
-1112.056
 30
4225.210
 70
    32
  0
VERTEX
  8
T10SSILL
 62
4
 10
1135.650
 20
-1122.891
 30
4225.126
 70
    32
  0
VERTEX
  8
T10SSILL
 62
4
 10
1148.730
 20
-1131.242
 30
4225.123
 70
    32
  0
VERTEX
  8
T10SSILL
 62
4
 10
1166.098
 20
-1104.392
 30
4225.132
 70
    32
  0
VERTEX
  8
T10SSILL
 62
4
 10
1129.740
 20
-1079.222
 30
4225.418
 70
    32
  0
VERTEX
  8
T10SSILL
 62
4
 10
1127.517
 20
-1071.962
 30
4225.479
 70
    32
  0
VERTEX
  8
T10SSILL
 62
4
 10
1129.453
 20
-1067.021
 30
4225.502
 70
    32
  0
VERTEX
  8
T10SSILL
 62
4
 10
1140.819
 20
-1049.420
 30
4225.559
 70
    32
  0
VERTEX
  8
T10SSILL
 62
4
 10
1158.315
 20
-1032.471
 30
4225.646
 70
    32
  0
VERTEX
  8
T10SSILL
 62
4
 10
1166.966
 20
-1013.292
 30
4225.787
 70
    32
  0
VERTEX
  8
T10SSILL
 62
4
 10
1198.405
 20
-976.698
 30
4226.062
 70
    32
  0
VERTEX
  8
T10SSILL
 62
4
 10
1233.198
 20
-941.122
 30
4226.332
 70
    32
  0
VERTEX
  8
T10SSILL
 62
4
 10
1237.442
 20
-938.259
 30
4226.354
 70
    32
  0
VERTEX
  8
T10SSILL
 62
4
 10
1243.872
 20
-936.557
 30
4226.369
 70
    32
  0
VERTEX
  8
T10SSILL
 62
4
 10
1667.464
 20
-879.687
 30
4227.485
 70
    32
  0
VERTEX
  8
T10SSILL
 62
4
 10
1666.396
 20
-871.153
 30
4227.488
 70
    32
  0
VERTEX
  8
T10SSILL
 62
4
 10
1671.830
 20
-862.762
 30
4227.494
 70
    32
  0
VERTEX
  8
T10SSILL
 62
4
 10
1787.434
 20
-839.159
 30
4227.497
 70
    32
  0
VERTEX
  8
T10SSILL
 62
4
 10
1785.738
 20
-832.026
 30
4227.499
 70
    32
  0
VERTEX
  8
T10SSILL
 62
4
 10
1674.362
 20
-854.611
 30
4227.499
 70
    32
  0
VERTEX
  8
T10SSILL
 62
4
 10
1675.477
 20
-847.677
 30
4227.502
 70
    32
  0
VERTEX
  8
T10SSILL
 62
4
 10
1692.687
 20
-811.621
 30
4227.527
 70
    32
  0
VERTEX
  8
T10SSILL
 62
4
 10
1698.708
 20
-814.130
 30
4227.524
 70
    32
  0
VERTEX
  8
T10SSILL
 62
4
 10
1701.935
 20
-806.951
 30
4227.526
 70
    32
  0
VERTEX
  8
T10SSILL
 62
4
 10
1683.462
 20
-798.705
 30
4227.529
 70
    32
  0
VERTEX
  8
T10SSILL
 62
4
 10
1679.968
 20
-806.321
 30
4227.480
 70
    32
  0
SEQEND
  8
T10SSILL
  0
POLYLINE
  8
T10SSILL
 62
4
 66
     1
 70
     9
  0
VERTEX
  8
T10SSILL
 62
4
 10
190.077
 20
-1146.218
 30
4227.237
 70
    32
  0
VERTEX
  8
T10SSILL
 62
4
 10
174.177
 20
-1123.726
 30
4227.332
 70
    32
  0
VERTEX
  8
T10SSILL
 62
4
 10
172.121
 20
-1123.185
 30
4227.328
 70
    32
  0
VERTEX
  8
T10SSILL
 62
4
 10
170.187
 20
-1123.524
 30
4227.316
 70
    32
  0
VERTEX
  8
T10SSILL
 62
4
 10
166.451
 20
-1128.035
 30
4227.250
 70
    32
  0
VERTEX
  8
T10SSILL
 62
4
 10
156.565
 20
-1139.971
 30
4227.225
 70
    32
  0
VERTEX
  8
T10SSILL
 62
4
 10
155.623
 20
-1143.105
 30
4227.220
 70
    32
  0
VERTEX
  8
T10SSILL
 62
4
 10
171.413
 20
-1167.371
 30
4227.193
 70
    32
  0
VERTEX
  8
T10SSILL
 62
4
 10
169.641
 20
-1178.943
 30
4227.186
 70
    32
  0
VERTEX
  8
T10SSILL
 62
4
 10
175.073
 20
-1193.780
 30
4227.206
 70
    32
  0
VERTEX
  8
T10SSILL
 62
4
 10
179.261
 20
-1201.497
 30
4227.219
 70
    32
  0
VERTEX
  8
T10SSILL
 62
4
 10
189.558
 20
-1211.636
 30
4227.250
 70
    32
  0
VERTEX
  8
T10SSILL
 62
4
 10
203.742
 20
-1216.937
 30
4227.284
 70
    32
  0
VERTEX
  8
T10SSILL
 62
4
 10
190.722
 20
-1149.555
 30
4227.232
 70
    32
  0
SEQEND
  8
T10SSILL
  0
POLYLINE
  8
T10SSILL
 62
4
 66
     1
 70
     9
  0
VERTEX
  8
T10SSILL
 62
4
 10
254.639
 20
-1280.045
 30
4227.282
 70
    32
  0
VERTEX
  8
T10SSILL
 62
4
 10
286.672
 20
-1312.543
 30
4227.277
 70
    32
  0
VERTEX
  8
T10SSILL
 62
4
 10
290.625
 20
-1311.773
 30
4227.274
 70
    32
  0
VERTEX
  8
T10SSILL
 62
4
 10
300.916
 20
-1303.151
 30
4227.263
 70
    32
  0
VERTEX
  8
T10SSILL
 62
4
 10
306.671
 20
-1293.905
 30
4227.255
 70
    32
  0
VERTEX
  8
T10SSILL
 62
4
 10
298.697
 20
-1270.404
 30
4227.248
 70
    32
  0
VERTEX
  8
T10SSILL
 62
4
 10
293.874
 20
-1262.269
 30
4227.247
 70
    32
  0
VERTEX
  8
T10SSILL
 62
4
 10
289.692
 20
-1250.038
 30
4227.244
 70
    32
  0
VERTEX
  8
T10SSILL
 62
4
 10
284.968
 20
-1249.156
 30
4227.247
 70
    32
  0
VERTEX
  8
T10SSILL
 62
4
 10
257.988
 20
-1268.059
 30
4227.274
 70
    32
  0
SEQEND
  8
T10SSILL
  0
POLYLINE
  8
T10SSILL
 62
4
 66
     1
 70
     9
  0
VERTEX
  8
T10SSILL
 62
4
 10
352.000
 20
-1317.667
 30
4227.071
 70
    32
  0
VERTEX
  8
T10SSILL
 62
4
 10
362.716
 20
-1332.641
 30
4227.007
 70
    32
  0
VERTEX
  8
T10SSILL
 62
4
 10
375.839
 20
-1323.220
 30
4226.973
 70
    32
  0
VERTEX
  8
T10SSILL
 62
4
 10
372.391
 20
-1311.670
 30
4227.004
 70
    32
  0
VERTEX
  8
T10SSILL
 62
4
 10
365.692
 20
-1296.084
 30
4227.054
 70
    32
  0
VERTEX
  8
T10SSILL
 62
4
 10
337.467
 20
-1317.158
 30
4227.127
 70
    32
  0
VERTEX
  8
T10SSILL
 62
4
 10
342.483
 20
-1324.218
 30
4227.096
 70
    32
  0
SEQEND
  8
T10SSILL
  0
POLYLINE
  8
T10SSILL
 62
4
 66
     1
 70
     9
  0
VERTEX
  8
T10SSILL
 62
4
 10
413.013
 20
-1244.284
 30
4226.960
 70
    32
  0
VERTEX
  8
T10SSILL
 62
4
 10
410.670
 20
-1238.532
 30
4226.978
 70
    32
  0
VERTEX
  8
T10SSILL
 62
4
 10
407.670
 20
-1236.434
 30
4226.992
 70
    32
  0
VERTEX
  8
T10SSILL
 62
4
 10
405.379
 20
-1236.698
 30
4227.001
 70
    32
  0
VERTEX
  8
T10SSILL
 62
4
 10
379.123
 20
-1256.016
 30
4227.068
 70
    32
  0
VERTEX
  8
T10SSILL
 62
4
 10
378.752
 20
-1264.879
 30
4227.055
 70
    32
  0
VERTEX
  8
T10SSILL
 62
4
 10
391.005
 20
-1312.466
 30
4226.933
 70
    32
  0
VERTEX
  8
T10SSILL
 62
4
 10
429.959
 20
-1284.966
 30
4226.831
 70
    32
  0
VERTEX
  8
T10SSILL
 62
4
 10
429.234
 20
-1279.861
 30
4226.842
 70
    32
  0
SEQEND
  8
T10SSILL
  0
POLYLINE
  8
T10SSILL
 62
4
 66
     1
 70
     9
  0
VERTEX
  8
T10SSILL
 62
4
 10
393.123
 20
-1319.288
 30
4226.908
 70
    32
  0
VERTEX
  8
T10SSILL
 62
4
 10
400.027
 20
-1342.565
 30
4226.782
 70
    32
  0
VERTEX
  8
T10SSILL
 62
4
 10
405.374
 20
-1348.203
 30
4226.732
 70
    32
  0
VERTEX
  8
T10SSILL
 62
4
 10
412.974
 20
-1364.197
 30
4226.630
 70
    32
  0
VERTEX
  8
T10SSILL
 62
4
 10
416.344
 20
-1359.732
 30
4226.629
 70
    32
  0
VERTEX
  8
T10SSILL
 62
4
 10
427.271
 20
-1351.529
 30
4226.602
 70
    32
  0
VERTEX
  8
T10SSILL
 62
4
 10
457.362
 20
-1344.631
 30
4226.468
 70
    32
  0
VERTEX
  8
T10SSILL
 62
4
 10
457.132
 20
-1340.923
 30
4226.483
 70
    32
  0
VERTEX
  8
T10SSILL
 62
4
 10
437.322
 20
-1297.075
 30
4226.757
 70
    32
  0
VERTEX
  8
T10SSILL
 62
4
 10
429.496
 20
-1293.745
 30
4226.812
 70
    32
  0
SEQEND
  8
T10SSILL
  0
POLYLINE
  8
T10SSILL
 62
4
 66
     1
 70
     9
  0
VERTEX
  8
T10SSILL
 62
4
 10
275.699
 20
-1159.066
 30
4227.208
 70
    32
  0
VERTEX
  8
T10SSILL
 62
4
 10
273.319
 20
-1161.635
 30
4227.211
 70
    32
  0
VERTEX
  8
T10SSILL
 62
4
 10
296.270
 20
-1178.726
 30
4227.204
 70
    32
  0
VERTEX
  8
T10SSILL
 62
4
 10
316.161
 20
-1192.128
 30
4227.198
 70
    32
  0
VERTEX
  8
T10SSILL
 62
4
 10
327.153
 20
-1197.285
 30
4227.193
 70
    32
  0
VERTEX
  8
T10SSILL
 62
4
 10
338.464
 20
-1206.147
 30
4227.190
 70
    32
  0
VERTEX
  8
T10SSILL
 62
4
 10
365.741
 20
-1250.861
 30
4227.127
 70
    32
  0
VERTEX
  8
T10SSILL
 62
4
 10
374.886
 20
-1251.664
 30
4227.091
 70
    32
  0
VERTEX
  8
T10SSILL
 62
4
 10
401.051
 20
-1232.261
 30
4227.024
 70
    32
  0
VERTEX
  8
T10SSILL
 62
4
 10
403.011
 20
-1225.638
 30
4227.027
 70
    32
  0
VERTEX
  8
T10SSILL
 62
4
 10
402.984
 20
-1217.940
 30
4227.040
 70
    32
  0
VERTEX
  8
T10SSILL
 62
4
 10
393.857
 20
-1187.402
 30
4227.123
 70
    32
  0
VERTEX
  8
T10SSILL
 62
4
 10
390.318
 20
-1180.457
 30
4227.143
 70
    32
  0
SEQEND
  8
T10SSILL
  0
POLYLINE
  8
T10SSILL
 62
4
 66
     1
 70
     9
  0
VERTEX
  8
T10SSILL
 62
4
 10
196.916
 20
-1144.542
 30
4227.247
 70
    32
  0
VERTEX
  8
T10SSILL
 62
4
 10
216.396
 20
-1240.173
 30
4227.287
 70
    32
  0
VERTEX
  8
T10SSILL
 62
4
 10
245.032
 20
-1269.437
 30
4227.283
 70
    32
  0
VERTEX
  8
T10SSILL
 62
4
 10
318.846
 20
-1216.186
 30
4227.208
 70
    32
  0
VERTEX
  8
T10SSILL
 62
4
 10
303.739
 20
-1207.557
 30
4227.214
 70
    32
  0
VERTEX
  8
T10SSILL
 62
4
 10
299.051
 20
-1202.956
 30
4227.214
 70
    32
  0
VERTEX
  8
T10SSILL
 62
4
 10
290.970
 20
-1199.901
 30
4227.218
 70
    32
  0
VERTEX
  8
T10SSILL
 62
4
 10
288.271
 20
-1182.482
 30
4227.211
 70
    32
  0
VERTEX
  8
T10SSILL
 62
4
 10
257.351
 20
-1155.959
 30
4227.219
 70
    32
  0
VERTEX
  8
T10SSILL
 62
4
 10
198.611
 20
-1144.862
 30
4227.252
 70
    32
  0
SEQEND
  8
T10SSILL
  0
POLYLINE
  8
T10SSILL
 62
4
 66
     1
 70
     9
  0
VERTEX
  8
T10SSILL
 62
4
 10
195.492
 20
-1228.048
 30
4227.271
 70
    32
  0
VERTEX
  8
T10SSILL
 62
4
 10
170.074
 20
-1201.935
 30
4227.195
 70
    32
  0
VERTEX
  8
T10SSILL
 62
4
 10
162.213
 20
-1200.022
 30
4227.174
 70
    32
  0
VERTEX
  8
T10SSILL
 62
4
 10
152.378
 20
-1206.679
 30
4227.150
 70
    32
  0
VERTEX
  8
T10SSILL
 62
4
 10
150.178
 20
-1209.330
 30
4227.145
 70
    32
  0
VERTEX
  8
T10SSILL
 62
4
 10
149.674
 20
-1212.358
 30
4227.145
 70
    32
  0
VERTEX
  8
T10SSILL
 62
4
 10
157.339
 20
-1225.429
 30
4227.169
 70
    32
  0
VERTEX
  8
T10SSILL
 62
4
 10
168.150
 20
-1218.823
 30
4227.196
 70
    32
  0
VERTEX
  8
T10SSILL
 62
4
 10
174.245
 20
-1232.484
 30
4227.216
 70
    32
  0
VERTEX
  8
T10SSILL
 62
4
 10
180.266
 20
-1237.211
 30
4227.234
 70
    32
  0
VERTEX
  8
T10SSILL
 62
4
 10
182.488
 20
-1237.481
 30
4227.240
 70
    32
  0
SEQEND
  8
T10SSILL
  0
POLYLINE
  8
T10SSILL
 62
4
 66
     1
 70
     9
  0
VERTEX
  8
T10SSILL
 62
4
 10
70.957
 20
-1243.760
 30
4227.012
 70
    32
  0
VERTEX
  8
T10SSILL
 62
4
 10
108.017
 20
-1217.660
 30
4227.075
 70
    32
  0
VERTEX
  8
T10SSILL
 62
4
 10
91.741
 20
-1192.261
 30
4227.104
 70
    32
  0
VERTEX
  8
T10SSILL
 62
4
 10
91.204
 20
-1182.813
 30
4227.118
 70
    32
  0
VERTEX
  8
T10SSILL
 62
4
 10
99.063
 20
-1180.036
 30
4227.127
 70
    32
  0
VERTEX
  8
T10SSILL
 62
4
 10
104.010
 20
-1184.449
 30
4227.124
 70
    32
  0
VERTEX
  8
T10SSILL
 62
4
 10
110.885
 20
-1186.046
 30
4227.126
 70
    32
  0
VERTEX
  8
T10SSILL
 62
4
 10
110.253
 20
-1192.707
 30
4227.115
 70
    32
  0
VERTEX
  8
T10SSILL
 62
4
 10
106.065
 20
-1196.583
 30
4227.106
 70
    32
  0
VERTEX
  8
T10SSILL
 62
4
 10
104.768
 20
-1199.730
 30
4227.101
 70
    32
  0
VERTEX
  8
T10SSILL
 62
4
 10
114.133
 20
-1213.267
 30
4227.086
 70
    32
  0
VERTEX
  8
T10SSILL
 62
4
 10
120.946
 20
-1208.583
 30
4227.097
 70
    32
  0
VERTEX
  8
T10SSILL
 62
4
 10
119.693
 20
-1205.888
 30
4227.101
 70
    32
  0
VERTEX
  8
T10SSILL
 62
4
 10
120.164
 20
-1201.976
 30
4227.107
 70
    32
  0
VERTEX
  8
T10SSILL
 62
4
 10
138.286
 20
-1185.180
 30
4227.144
 70
    32
  0
VERTEX
  8
T10SSILL
 62
4
 10
137.730
 20
-1179.892
 30
4227.152
 70
    32
  0
VERTEX
  8
T10SSILL
 62
4
 10
85.899
 20
-1124.784
 30
4227.204
 70
    32
  0
VERTEX
  8
T10SSILL
 62
4
 10
85.003
 20
-1122.164
 30
4227.207
 70
    32
  0
VERTEX
  8
T10SSILL
 62
4
 10
85.357
 20
-1112.858
 30
4227.222
 70
    32
  0
VERTEX
  8
T10SSILL
 62
4
 10
78.558
 20
-1106.303
 30
4227.226
 70
    32
  0
VERTEX
  8
T10SSILL
 62
4
 10
72.592
 20
-1214.199
 30
4227.058
 70
    32
  0
SEQEND
  8
T10SSILL
  0
POLYLINE
  8
T10SSILL
 62
4
 66
     1
 70
     9
  0
VERTEX
  8
T10SSILL
 62
4
 10
120.806
 20
-1086.288
 30
4227.499
 70
    32
  0
VERTEX
  8
T10SSILL
 62
4
 10
121.887
 20
-1093.769
 30
4227.423
 70
    32
  0
VERTEX
  8
T10SSILL
 62
4
 10
131.362
 20
-1112.523
 30
4227.261
 70
    32
  0
VERTEX
  8
T10SSILL
 62
4
 10
154.282
 20
-1131.120
 30
4227.238
 70
    32
  0
VERTEX
  8
T10SSILL
 62
4
 10
157.178
 20
-1128.178
 30
4227.244
 70
    32
  0
VERTEX
  8
T10SSILL
 62
4
 10
164.398
 20
-1117.903
 30
4227.351
 70
    32
  0
VERTEX
  8
T10SSILL
 62
4
 10
160.726
 20
-1105.123
 30
4227.474
 70
    32
  0
VERTEX
  8
T10SSILL
 62
4
 10
137.308
 20
-1073.448
 30
4227.713
 70
    32
  0
VERTEX
  8
T10SSILL
 62
4
 10
133.013
 20
-1072.195
 30
4227.708
 70
    32
  0
SEQEND
  8
T10SSILL
  0
POLYLINE
  8
T10SSILL
 62
4
 66
     1
 70
     9
  0
VERTEX
  8
T10SSILL
 62
4
 10
80.207
 20
-1098.452
 30
4227.240
 70
    32
  0
VERTEX
  8
T10SSILL
 62
4
 10
89.230
 20
-1107.666
 30
4227.232
 70
    32
  0
VERTEX
  8
T10SSILL
 62
4
 10
118.869
 20
-1077.247
 30
4227.589
 70
    32
  0
VERTEX
  8
T10SSILL
 62
4
 10
116.012
 20
-1074.258
 30
4227.587
 70
    32
  0
VERTEX
  8
T10SSILL
 62
4
 10
81.840
 20
-1097.349
 30
4227.243
 70
    32
  0
SEQEND
  8
T10SSILL
  0
POLYLINE
  8
T10SSILL
 62
4
 66
     1
 70
     9
  0
VERTEX
  8
T10SSILL
 62
4
 10
1530.872
 20
-638.825
 30
4227.510
 70
    32
  0
VERTEX
  8
T10SSILL
 62
4
 10
1533.208
 20
-622.850
 30
4227.510
 70
    32
  0
VERTEX
  8
T10SSILL
 62
4
 10
1538.019
 20
-615.333
 30
4227.510
 70
    32
  0
VERTEX
  8
T10SSILL
 62
4
 10
1552.227
 20
-598.582
 30
4227.511
 70
    32
  0
VERTEX
  8
T10SSILL
 62
4
 10
1557.304
 20
-590.892
 30
4227.511
 70
    32
  0
VERTEX
  8
T10SSILL
 62
4
 10
1558.400
 20
-586.156
 30
4227.511
 70
    32
  0
VERTEX
  8
T10SSILL
 62
4
 10
1557.950
 20
-567.080
 30
4227.510
 70
    32
  0
VERTEX
  8
T10SSILL
 62
4
 10
1553.281
 20
-538.124
 30
4227.508
 70
    32
  0
VERTEX
  8
T10SSILL
 62
4
 10
1549.157
 20
-517.083
 30
4227.507
 70
    32
  0
VERTEX
  8
T10SSILL
 62
4
 10
1545.055
 20
-503.688
 30
4227.506
 70
    32
  0
VERTEX
  8
T10SSILL
 62
4
 10
1552.764
 20
-476.246
 30
4227.504
 70
    32
  0
VERTEX
  8
T10SSILL
 62
4
 10
1551.590
 20
-469.820
 30
4227.504
 70
    32
  0
VERTEX
  8
T10SSILL
 62
4
 10
1420.498
 20
-465.427
 30
4227.495
 70
    32
  0
VERTEX
  8
T10SSILL
 62
4
 10
1346.101
 20
-662.266
 30
4227.489
 70
    32
  0
VERTEX
  8
T10SSILL
 62
4
 10
1345.372
 20
-665.248
 30
4227.489
 70
    32
  0
VERTEX
  8
T10SSILL
 62
4
 10
1346.221
 20
-668.683
 30
4227.489
 70
    32
  0
VERTEX
  8
T10SSILL
 62
4
 10
1347.179
 20
-669.658
 30
4227.489
 70
    32
  0
VERTEX
  8
T10SSILL
 62
4
 10
1519.908
 20
-656.396
 30
4227.509
 70
    32
  0
SEQEND
  8
T10SSILL
  0
POLYLINE
  8
T10SSILL
 62
4
 66
     1
 70
     9
  0
VERTEX
  8
T10SSILL
 62
4
 10
1476.329
 20
-260.868
 30
4227.491
 70
    32
  0
VERTEX
  8
T10SSILL
 62
4
 10
1474.013
 20
-325.095
 30
4227.492
 70
    32
  0
VERTEX
  8
T10SSILL
 62
4
 10
1423.017
 20
-458.769
 30
4227.495
 70
    32
  0
VERTEX
  8
T10SSILL
 62
4
 10
1553.772
 20
-461.489
 30
4227.504
 70
    32
  0
VERTEX
  8
T10SSILL
 62
4
 10
1567.729
 20
-443.242
 30
4227.503
 70
    32
  0
VERTEX
  8
T10SSILL
 62
4
 10
1579.314
 20
-434.993
 30
4227.504
 70
    32
  0
VERTEX
  8
T10SSILL
 62
4
 10
1588.458
 20
-424.438
 30
4227.503
 70
    32
  0
VERTEX
  8
T10SSILL
 62
4
 10
1598.618
 20
-418.374
 30
4227.504
 70
    32
  0
VERTEX
  8
T10SSILL
 62
4
 10
1601.694
 20
-418.489
 30
4227.504
 70
    32
  0
VERTEX
  8
T10SSILL
 62
4
 10
1610.612
 20
-423.752
 30
4227.505
 70
    32
  0
VERTEX
  8
T10SSILL
 62
4
 10
1613.712
 20
-421.054
 30
4227.505
 70
    32
  0
VERTEX
  8
T10SSILL
 62
4
 10
1623.657
 20
-419.471
 30
4227.506
 70
    32
  0
VERTEX
  8
T10SSILL
 62
4
 10
1626.897
 20
-420.905
 30
4227.506
 70
    32
  0
VERTEX
  8
T10SSILL
 62
4
 10
1631.922
 20
-429.211
 30
4227.506
 70
    32
  0
VERTEX
  8
T10SSILL
 62
4
 10
1659.916
 20
-424.005
 30
4227.509
 70
    32
  0
VERTEX
  8
T10SSILL
 62
4
 10
1663.796
 20
-402.330
 30
4227.509
 70
    32
  0
VERTEX
  8
T10SSILL
 62
4
 10
1671.982
 20
-380.693
 30
4227.509
 70
    32
  0
VERTEX
  8
T10SSILL
 62
4
 10
1686.558
 20
-362.100
 30
4227.510
 70
    32
  0
VERTEX
  8
T10SSILL
 62
4
 10
1696.527
 20
-357.704
 30
4227.511
 70
    32
  0
VERTEX
  8
T10SSILL
 62
4
 10
1700.331
 20
-354.837
 30
4227.512
 70
    32
  0
VERTEX
  8
T10SSILL
 62
4
 10
1708.254
 20
-333.197
 30
4227.512
 70
    32
  0
VERTEX
  8
T10SSILL
 62
4
 10
1712.810
 20
-294.478
 30
4227.512
 70
    32
  0
VERTEX
  8
T10SSILL
 62
4
 10
1713.602
 20
-274.094
 30
4227.512
 70
    32
  0
VERTEX
  8
T10SSILL
 62
4
 10
1711.360
 20
-269.153
 30
4227.512
 70
    32
  0
SEQEND
  8
T10SSILL
  0
POLYLINE
  8
T10SSILL
 62
4
 66
     1
 70
     9
  0
VERTEX
  8
T10SSILL
 62
4
 10
1753.153
 20
-263.892
 30
4227.515
 70
    32
  0
VERTEX
  8
T10SSILL
 62
4
 10
1756.342
 20
-261.019
 30
4227.516
 70
    32
  0
VERTEX
  8
T10SSILL
 62
4
 10
1759.124
 20
-254.452
 30
4227.516
 70
    32
  0
VERTEX
  8
T10SSILL
 62
4
 10
1758.728
 20
-219.117
 30
4227.515
 70
    32
  0
VERTEX
  8
T10SSILL
 62
4
 10
1761.572
 20
-215.450
 30
4227.516
 70
    32
  0
VERTEX
  8
T10SSILL
 62
4
 10
1768.384
 20
-210.412
 30
4227.516
 70
    32
  0
VERTEX
  8
T10SSILL
 62
4
 10
1780.904
 20
-175.541
 30
4227.517
 70
    32
  0
VERTEX
  8
T10SSILL
 62
4
 10
1791.649
 20
-162.803
 30
4227.518
 70
    32
  0
VERTEX
  8
T10SSILL
 62
4
 10
1786.044
 20
-160.469
 30
4227.517
 70
    32
  0
VERTEX
  8
T10SSILL
 62
4
 10
1763.406
 20
-166.337
 30
4227.515
 70
    32
  0
VERTEX
  8
T10SSILL
 62
4
 10
1756.341
 20
-170.230
 30
4227.515
 70
    32
  0
VERTEX
  8
T10SSILL
 62
4
 10
1752.519
 20
-175.119
 30
4227.514
 70
    32
  0
VERTEX
  8
T10SSILL
 62
4
 10
1749.027
 20
-202.773
 30
4227.514
 70
    32
  0
VERTEX
  8
T10SSILL
 62
4
 10
1748.048
 20
-234.405
 30
4227.515
 70
    32
  0
VERTEX
  8
T10SSILL
 62
4
 10
1747.217
 20
-239.056
 30
4227.515
 70
    32
  0
VERTEX
  8
T10SSILL
 62
4
 10
1744.000
 20
-245.092
 30
4227.514
 70
    32
  0
VERTEX
  8
T10SSILL
 62
4
 10
1742.143
 20
-256.501
 30
4227.514
 70
    32
  0
VERTEX
  8
T10SSILL
 62
4
 10
1743.149
 20
-262.135
 30
4227.514
 70
    32
  0
VERTEX
  8
T10SSILL
 62
4
 10
1744.797
 20
-264.610
 30
4227.515
 70
    32
  0
SEQEND
  8
T10SSILL
  0
POLYLINE
  8
T10SSILL
 62
4
 66
     1
 70
     9
  0
VERTEX
  8
T10SSILL
 62
4
 10
1658.083
 20
-432.690
 30
4227.509
 70
    32
  0
VERTEX
  8
T10SSILL
 62
4
 10
1631.243
 20
-436.500
 30
4227.506
 70
    32
  0
VERTEX
  8
T10SSILL
 62
4
 10
1628.669
 20
-449.485
 30
4227.507
 70
    32
  0
VERTEX
  8
T10SSILL
 62
4
 10
1620.763
 20
-449.064
 30
4227.507
 70
    32
  0
VERTEX
  8
T10SSILL
 62
4
 10
1614.950
 20
-440.401
 30
4227.506
 70
    32
  0
VERTEX
  8
T10SSILL
 62
4
 10
1603.155
 20
-452.603
 30
4227.506
 70
    32
  0
VERTEX
  8
T10SSILL
 62
4
 10
1598.438
 20
-459.329
 30
4227.506
 70
    32
  0
VERTEX
  8
T10SSILL
 62
4
 10
1598.229
 20
-463.106
 30
4227.506
 70
    32
  0
VERTEX
  8
T10SSILL
 62
4
 10
1647.167
 20
-464.938
 30
4227.509
 70
    32
  0
VERTEX
  8
T10SSILL
 62
4
 10
1655.966
 20
-443.570
 30
4227.509
 70
    32
  0
SEQEND
  8
T10SSILL
  0
POLYLINE
  8
T10SSILL
 62
4
 66
     1
 70
     9
  0
VERTEX
  8
T10SSILL
 62
4
 10
1238.472
 20
-2138.825
 30
4226.727
 70
    32
  0
VERTEX
  8
T10SSILL
 62
4
 10
1238.476
 20
-2143.750
 30
4226.725
 70
    32
  0
VERTEX
  8
T10SSILL
 62
4
 10
1243.742
 20
-2147.874
 30
4226.727
 70
    32
  0
VERTEX
  8
T10SSILL
 62
4
 10
1251.426
 20
-2149.578
 30
4226.733
 70
    32
  0
VERTEX
  8
T10SSILL
 62
4
 10
1274.415
 20
-2146.686
 30
4226.752
 70
    32
  0
VERTEX
  8
T10SSILL
 62
4
 10
1276.570
 20
-2144.359
 30
4226.754
 70
    32
  0
VERTEX
  8
T10SSILL
 62
4
 10
1277.044
 20
-2141.448
 30
4226.756
 70
    32
  0
VERTEX
  8
T10SSILL
 62
4
 10
1270.900
 20
-2123.269
 30
4226.760
 70
    32
  0
VERTEX
  8
T10SSILL
 62
4
 10
1269.720
 20
-2111.857
 30
4226.764
 70
    32
  0
VERTEX
  8
T10SSILL
 62
4
 10
1268.007
 20
-2109.603
 30
4226.764
 70
    32
  0
VERTEX
  8
T10SSILL
 62
4
 10
1243.738
 20
-2105.218
 30
4226.747
 70
    32
  0
VERTEX
  8
T10SSILL
 62
4
 10
1238.346
 20
-2108.485
 30
4226.741
 70
    32
  0
VERTEX
  8
T10SSILL
 62
4
 10
1237.767
 20
-2110.430
 30
4226.740
 70
    32
  0
SEQEND
  8
T10SSILL
  0
POLYLINE
  8
T10SSILL
 62
4
 66
     1
 70
     9
  0
VERTEX
  8
T10SSILL
 62
4
 10
1141.203
 20
-1917.332
 30
4226.511
 70
    32
  0
VERTEX
  8
T10SSILL
 62
4
 10
1100.087
 20
-1905.610
 30
4226.366
 70
    32
  0
VERTEX
  8
T10SSILL
 62
4
 10
1089.291
 20
-1906.778
 30
4226.339
 70
    32
  0
VERTEX
  8
T10SSILL
 62
4
 10
1085.302
 20
-1909.843
 30
4226.336
 70
    32
  0
VERTEX
  8
T10SSILL
 62
4
 10
1084.812
 20
-1911.875
 30
4226.340
 70
    32
  0
VERTEX
  8
T10SSILL
 62
4
 10
1116.836
 20
-2402.761
 30
4227.204
 70
    32
  0
VERTEX
  8
T10SSILL
 62
4
 10
1121.433
 20
-2414.169
 30
4227.218
 70
    32
  0
VERTEX
  8
T10SSILL
 62
4
 10
1379.380
 20
-2583.172
 30
4227.168
 70
    32
  0
VERTEX
  8
T10SSILL
 62
4
 10
1393.792
 20
-2582.633
 30
4227.164
 70
    32
  0
VERTEX
  8
T10SSILL
 62
4
 10
1503.942
 20
-2565.788
 30
4227.134
 70
    32
  0
VERTEX
  8
T10SSILL
 62
4
 10
1406.322
 20
-2402.339
 30
4226.972
 70
    32
  0
VERTEX
  8
T10SSILL
 62
4
 10
1331.312
 20
-2358.554
 30
4226.965
 70
    32
  0
VERTEX
  8
T10SSILL
 62
4
 10
1273.723
 20
-2326.559
 30
4226.963
 70
    32
  0
VERTEX
  8
T10SSILL
 62
4
 10
1233.532
 20
-2227.660
 30
4226.845
 70
    32
  0
VERTEX
  8
T10SSILL
 62
4
 10
1225.070
 20
-1948.310
 30
4226.803
 70
    32
  0
VERTEX
  8
T10SSILL
 62
4
 10
1220.583
 20
-1938.807
 30
4226.788
 70
    32
  0
VERTEX
  8
T10SSILL
 62
4
 10
1217.123
 20
-1937.201
 30
4226.774
 70
    32
  0
SEQEND
  8
T10SSILL
  0
POLYLINE
  8
T10SSILL
 62
4
 66
     1
 70
     9
  0
VERTEX
  8
T10SSILL
 62
4
 10
1285.469
 20
-1947.096
 30
4226.846
 70
    32
  0
VERTEX
  8
T10SSILL
 62
4
 10
1298.549
 20
-1955.207
 30
4226.852
 70
    32
  0
VERTEX
  8
T10SSILL
 62
4
 10
1308.842
 20
-1955.367
 30
4226.858
 70
    32
  0
VERTEX
  8
T10SSILL
 62
4
 10
1318.377
 20
-1957.300
 30
4226.864
 70
    32
  0
VERTEX
  8
T10SSILL
 62
4
 10
1322.639
 20
-1954.758
 30
4226.868
 70
    32
  0
VERTEX
  8
T10SSILL
 62
4
 10
1324.552
 20
-1948.830
 30
4226.871
 70
    32
  0
VERTEX
  8
T10SSILL
 62
4
 10
1322.925
 20
-1937.075
 30
4226.874
 70
    32
  0
VERTEX
  8
T10SSILL
 62
4
 10
1311.299
 20
-1912.577
 30
4226.875
 70
    32
  0
VERTEX
  8
T10SSILL
 62
4
 10
1304.238
 20
-1901.803
 30
4226.875
 70
    32
  0
VERTEX
  8
T10SSILL
 62
4
 10
1296.448
 20
-1899.134
 30
4226.870
 70
    32
  0
VERTEX
  8
T10SSILL
 62
4
 10
1281.684
 20
-1899.761
 30
4226.860
 70
    32
  0
VERTEX
  8
T10SSILL
 62
4
 10
1274.790
 20
-1897.955
 30
4226.856
 70
    32
  0
VERTEX
  8
T10SSILL
 62
4
 10
1260.361
 20
-1864.627
 30
4226.858
 70
    32
  0
VERTEX
  8
T10SSILL
 62
4
 10
1233.723
 20
-1879.371
 30
4226.744
 70
    32
  0
VERTEX
  8
T10SSILL
 62
4
 10
1242.071
 20
-1883.701
 30
4226.797
 70
    32
  0
VERTEX
  8
T10SSILL
 62
4
 10
1237.784
 20
-1927.405
 30
4226.821
 70
    32
  0
VERTEX
  8
T10SSILL
 62
4
 10
1242.460
 20
-1937.608
 30
4226.820
 70
    32
  0
VERTEX
  8
T10SSILL
 62
4
 10
1253.039
 20
-1938.906
 30
4226.827
 70
    32
  0
VERTEX
  8
T10SSILL
 62
4
 10
1255.619
 20
-1935.779
 30
4226.830
 70
    32
  0
VERTEX
  8
T10SSILL
 62
4
 10
1250.228
 20
-1924.974
 30
4226.830
 70
    32
  0
VERTEX
  8
T10SSILL
 62
4
 10
1249.637
 20
-1921.555
 30
4226.831
 70
    32
  0
VERTEX
  8
T10SSILL
 62
4
 10
1251.797
 20
-1919.492
 30
4226.833
 70
    32
  0
VERTEX
  8
T10SSILL
 62
4
 10
1263.489
 20
-1919.186
 30
4226.841
 70
    32
  0
VERTEX
  8
T10SSILL
 62
4
 10
1270.635
 20
-1920.372
 30
4226.845
 70
    32
  0
VERTEX
  8
T10SSILL
 62
4
 10
1273.678
 20
-1923.217
 30
4226.846
 70
    32
  0
VERTEX
  8
T10SSILL
 62
4
 10
1276.668
 20
-1937.322
 30
4226.843
 70
    32
  0
VERTEX
  8
T10SSILL
 62
4
 10
1279.116
 20
-1937.031
 30
4226.845
 70
    32
  0
VERTEX
  8
T10SSILL
 62
4
 10
1279.370
 20
-1939.200
 30
4226.844
 70
    32
  0
SEQEND
  8
T10SSILL
  0
POLYLINE
  8
T10SSILL
 62
4
 66
     1
 70
     9
  0
VERTEX
  8
T10SSILL
 62
4
 10
1025.504
 20
-1784.162
 30
4226.718
 70
    32
  0
VERTEX
  8
T10SSILL
 62
4
 10
1011.691
 20
-1793.272
 30
4226.627
 70
    32
  0
VERTEX
  8
T10SSILL
 62
4
 10
1009.135
 20
-1793.546
 30
4226.616
 70
    32
  0
VERTEX
  8
T10SSILL
 62
4
 10
991.680
 20
-1767.396
 30
4226.663
 70
    32
  0
VERTEX
  8
T10SSILL
 62
4
 10
999.337
 20
-1759.317
 30
4226.727
 70
    32
  0
VERTEX
  8
T10SSILL
 62
4
 10
1005.857
 20
-1756.237
 30
4226.764
 70
    32
  0
VERTEX
  8
T10SSILL
 62
4
 10
1019.034
 20
-1746.709
 30
4226.810
 70
    32
  0
VERTEX
  8
T10SSILL
 62
4
 10
1016.555
 20
-1742.025
 30
4226.804
 70
    32
  0
VERTEX
  8
T10SSILL
 62
4
 10
991.980
 20
-1756.677
 30
4226.710
 70
    32
  0
VERTEX
  8
T10SSILL
 62
4
 10
988.000
 20
-1756.740
 30
4226.695
 70
    32
  0
VERTEX
  8
T10SSILL
 62
4
 10
985.394
 20
-1753.388
 30
4226.700
 70
    32
  0
VERTEX
  8
T10SSILL
 62
4
 10
973.596
 20
-1724.722
 30
4226.779
 70
    32
  0
VERTEX
  8
T10SSILL
 62
4
 10
963.984
 20
-1709.335
 30
4226.809
 70
    32
  0
VERTEX
  8
T10SSILL
 62
4
 10
965.186
 20
-1703.714
 30
4226.825
 70
    32
  0
VERTEX
  8
T10SSILL
 62
4
 10
974.687
 20
-1697.600
 30
4226.791
 70
    32
  0
VERTEX
  8
T10SSILL
 62
4
 10
986.810
 20
-1716.166
 30
4226.808
 70
    32
  0
VERTEX
  8
T10SSILL
 62
4
 10
994.715
 20
-1723.918
 30
4226.809
 70
    32
  0
VERTEX
  8
T10SSILL
 62
4
 10
1000.396
 20
-1712.728
 30
4226.771
 70
    32
  0
VERTEX
  8
T10SSILL
 62
4
 10
1001.912
 20
-1703.733
 30
4226.747
 70
    32
  0
VERTEX
  8
T10SSILL
 62
4
 10
1001.751
 20
-1697.190
 30
4226.733
 70
    32
  0
VERTEX
  8
T10SSILL
 62
4
 10
997.489
 20
-1682.839
 30
4226.709
 70
    32
  0
VERTEX
  8
T10SSILL
 62
4
 10
996.058
 20
-1673.159
 30
4226.689
 70
    32
  0
VERTEX
  8
T10SSILL
 62
4
 10
999.761
 20
-1651.867
 30
4226.633
 70
    32
  0
VERTEX
  8
T10SSILL
 62
4
 10
1003.077
 20
-1638.998
 30
4226.596
 70
    32
  0
VERTEX
  8
T10SSILL
 62
4
 10
1008.930
 20
-1637.005
 30
4226.579
 70
    32
  0
VERTEX
  8
T10SSILL
 62
4
 10
1015.287
 20
-1618.002
 30
4226.522
 70
    32
  0
VERTEX
  8
T10SSILL
 62
4
 10
1013.029
 20
-1605.168
 30
4226.497
 70
    32
  0
VERTEX
  8
T10SSILL
 62
4
 10
1004.924
 20
-1575.919
 30
4226.447
 70
    32
  0
VERTEX
  8
T10SSILL
 62
4
 10
999.825
 20
-1562.839
 30
4226.415
 70
    32
  0
VERTEX
  8
T10SSILL
 62
4
 10
985.267
 20
-1540.738
 30
4226.264
 70
    32
  0
VERTEX
  8
T10SSILL
 62
4
 10
977.375
 20
-1533.339
 30
4226.201
 70
    32
  0
VERTEX
  8
T10SSILL
 62
4
 10
969.494
 20
-1514.612
 30
4226.090
 70
    32
  0
VERTEX
  8
T10SSILL
 62
4
 10
952.926
 20
-1521.083
 30
4226.053
 70
    32
  0
VERTEX
  8
T10SSILL
 62
4
 10
948.182
 20
-1519.671
 30
4226.028
 70
    32
  0
VERTEX
  8
T10SSILL
 62
4
 10
946.062
 20
-1517.451
 30
4226.011
 70
    32
  0
VERTEX
  8
T10SSILL
 62
4
 10
932.027
 20
-1513.737
 30
4225.969
 70
    32
  0
VERTEX
  8
T10SSILL
 62
4
 10
930.302
 20
-1510.263
 30
4225.971
 70
    32
  0
VERTEX
  8
T10SSILL
 62
4
 10
924.104
 20
-1507.844
 30
4225.987
 70
    32
  0
VERTEX
  8
T10SSILL
 62
4
 10
911.236
 20
-1516.210
 30
4226.029
 70
    32
  0
VERTEX
  8
T10SSILL
 62
4
 10
903.335
 20
-1531.820
 30
4226.062
 70
    32
  0
VERTEX
  8
T10SSILL
 62
4
 10
894.001
 20
-1558.635
 30
4226.107
 70
    32
  0
VERTEX
  8
T10SSILL
 62
4
 10
888.305
 20
-1567.082
 30
4226.129
 70
    32
  0
VERTEX
  8
T10SSILL
 62
4
 10
897.792
 20
-1588.491
 30
4226.129
 70
    32
  0
VERTEX
  8
T10SSILL
 62
4
 10
896.460
 20
-1597.657
 30
4226.163
 70
    32
  0
VERTEX
  8
T10SSILL
 62
4
 10
895.011
 20
-1599.128
 30
4226.164
 70
    32
  0
VERTEX
  8
T10SSILL
 62
4
 10
878.076
 20
-1605.259
 30
4226.180
 70
    32
  0
VERTEX
  8
T10SSILL
 62
4
 10
867.434
 20
-1606.991
 30
4226.174
 70
    32
  0
VERTEX
  8
T10SSILL
 62
4
 10
787.035
 20
-1573.237
 30
4226.099
 70
    32
  0
VERTEX
  8
T10SSILL
 62
4
 10
777.581
 20
-1568.995
 30
4226.091
 70
    32
  0
VERTEX
  8
T10SSILL
 62
4
 10
770.497
 20
-1564.220
 30
4226.081
 70
    32
  0
VERTEX
  8
T10SSILL
 62
4
 10
704.959
 20
-1416.360
 30
4225.912
 70
    32
  0
VERTEX
  8
T10SSILL
 62
4
 10
730.604
 20
-1304.234
 30
4225.858
 70
    32
  0
VERTEX
  8
T10SSILL
 62
4
 10
732.527
 20
-1303.629
 30
4225.859
 70
    32
  0
VERTEX
  8
T10SSILL
 62
4
 10
734.998
 20
-1296.456
 30
4225.856
 70
    32
  0
VERTEX
  8
T10SSILL
 62
4
 10
740.089
 20
-1288.386
 30
4225.856
 70
    32
  0
VERTEX
  8
T10SSILL
 62
4
 10
871.282
 20
-1215.075
 30
4225.932
 70
    32
  0
VERTEX
  8
T10SSILL
 62
4
 10
885.935
 20
-1244.341
 30
4225.915
 70
    32
  0
VERTEX
  8
T10SSILL
 62
4
 10
885.207
 20
-1246.138
 30
4225.918
 70
    32
  0
VERTEX
  8
T10SSILL
 62
4
 10
876.987
 20
-1251.053
 30
4225.945
 70
    32
  0
VERTEX
  8
T10SSILL
 62
4
 10
880.897
 20
-1256.125
 30
4225.937
 70
    32
  0
VERTEX
  8
T10SSILL
 62
4
 10
895.858
 20
-1246.972
 30
4225.888
 70
    32
  0
VERTEX
  8
T10SSILL
 62
4
 10
908.068
 20
-1242.259
 30
4225.851
 70
    32
  0
VERTEX
  8
T10SSILL
 62
4
 10
905.685
 20
-1235.447
 30
4225.853
 70
    32
  0
VERTEX
  8
T10SSILL
 62
4
 10
894.376
 20
-1240.568
 30
4225.888
 70
    32
  0
VERTEX
  8
T10SSILL
 62
4
 10
891.929
 20
-1239.068
 30
4225.894
 70
    32
  0
VERTEX
  8
T10SSILL
 62
4
 10
877.258
 20
-1211.662
 30
4225.917
 70
    32
  0
VERTEX
  8
T10SSILL
 62
4
 10
1041.344
 20
-1119.046
 30
4225.628
 70
    32
  0
VERTEX
  8
T10SSILL
 62
4
 10
1052.363
 20
-1117.919
 30
4225.576
 70
    32
  0
VERTEX
  8
T10SSILL
 62
4
 10
1062.836
 20
-1114.069
 30
4225.545
 70
    32
  0
VERTEX
  8
T10SSILL
 62
4
 10
1064.886
 20
-1112.133
 30
4225.547
 70
    32
  0
VERTEX
  8
T10SSILL
 62
4
 10
1215.718
 20
-1208.545
 30
4225.570
 70
    32
  0
VERTEX
  8
T10SSILL
 62
4
 10
1297.146
 20
-1355.241
 30
4226.253
 70
    32
  0
VERTEX
  8
T10SSILL
 62
4
 10
1498.076
 20
-1708.127
 30
4227.074
 70
    32
  0
VERTEX
  8
T10SSILL
 62
4
 10
1498.954
 20
-1712.772
 30
4227.073
 70
    32
  0
VERTEX
  8
T10SSILL
 62
4
 10
1498.046
 20
-1715.956
 30
4227.072
 70
    32
  0
VERTEX
  8
T10SSILL
 62
4
 10
1496.028
 20
-1720.918
 30
4227.069
 70
    32
  0
VERTEX
  8
T10SSILL
 62
4
 10
1493.180
 20
-1723.874
 30
4227.066
 70
    32
  0
VERTEX
  8
T10SSILL
 62
4
 10
1275.614
 20
-1847.807
 30
4226.875
 70
    32
  0
VERTEX
  8
T10SSILL
 62
4
 10
1270.422
 20
-1842.891
 30
4226.873
 70
    32
  0
VERTEX
  8
T10SSILL
 62
4
 10
1265.361
 20
-1840.347
 30
4226.856
 70
    32
  0
VERTEX
  8
T10SSILL
 62
4
 10
1261.950
 20
-1831.967
 30
4226.824
 70
    32
  0
VERTEX
  8
T10SSILL
 62
4
 10
1259.907
 20
-1830.862
 30
4226.811
 70
    32
  0
VERTEX
  8
T10SSILL
 62
4
 10
1256.091
 20
-1833.747
 30
4226.794
 70
    32
  0
VERTEX
  8
T10SSILL
 62
4
 10
1257.516
 20
-1839.438
 30
4226.811
 70
    32
  0
VERTEX
  8
T10SSILL
 62
4
 10
1256.621
 20
-1843.324
 30
4226.813
 70
    32
  0
VERTEX
  8
T10SSILL
 62
4
 10
1258.723
 20
-1857.005
 30
4226.846
 70
    32
  0
VERTEX
  8
T10SSILL
 62
4
 10
1228.527
 20
-1874.279
 30
4226.708
 70
    32
  0
VERTEX
  8
T10SSILL
 62
4
 10
1220.736
 20
-1852.700
 30
4226.630
 70
    32
  0
VERTEX
  8
T10SSILL
 62
4
 10
1218.274
 20
-1833.837
 30
4226.589
 70
    32
  0
VERTEX
  8
T10SSILL
 62
4
 10
1215.520
 20
-1827.644
 30
4226.581
 70
    32
  0
VERTEX
  8
T10SSILL
 62
4
 10
1212.465
 20
-1795.863
 30
4226.514
 70
    32
  0
VERTEX
  8
T10SSILL
 62
4
 10
1222.386
 20
-1776.065
 30
4226.516
 70
    32
  0
VERTEX
  8
T10SSILL
 62
4
 10
1221.808
 20
-1768.687
 30
4226.501
 70
    32
  0
VERTEX
  8
T10SSILL
 62
4
 10
1216.869
 20
-1758.489
 30
4226.458
 70
    32
  0
VERTEX
  8
T10SSILL
 62
4
 10
1211.007
 20
-1750.683
 30
4226.414
 70
    32
  0
VERTEX
  8
T10SSILL
 62
4
 10
1175.873
 20
-1715.454
 30
4226.407
 70
    32
  0
VERTEX
  8
T10SSILL
 62
4
 10
1168.681
 20
-1697.646
 30
4226.381
 70
    32
  0
VERTEX
  8
T10SSILL
 62
4
 10
1162.721
 20
-1675.154
 30
4226.342
 70
    32
  0
VERTEX
  8
T10SSILL
 62
4
 10
1160.065
 20
-1674.236
 30
4226.346
 70
    32
  0
VERTEX
  8
T10SSILL
 62
4
 10
1153.583
 20
-1675.676
 30
4226.363
 70
    32
  0
VERTEX
  8
T10SSILL
 62
4
 10
1152.718
 20
-1681.145
 30
4226.377
 70
    32
  0
VERTEX
  8
T10SSILL
 62
4
 10
1158.092
 20
-1719.392
 30
4226.454
 70
    32
  0
VERTEX
  8
T10SSILL
 62
4
 10
1157.830
 20
-1728.895
 30
4226.476
 70
    32
  0
VERTEX
  8
T10SSILL
 62
4
 10
1167.771
 20
-1766.793
 30
4226.542
 70
    32
  0
VERTEX
  8
T10SSILL
 62
4
 10
1165.724
 20
-1774.922
 30
4226.565
 70
    32
  0
VERTEX
  8
T10SSILL
 62
4
 10
1167.163
 20
-1781.316
 30
4226.577
 70
    32
  0
VERTEX
  8
T10SSILL
 62
4
 10
1166.286
 20
-1786.170
 30
4226.590
 70
    32
  0
VERTEX
  8
T10SSILL
 62
4
 10
1175.361
 20
-1801.216
 30
4226.605
 70
    32
  0
VERTEX
  8
T10SSILL
 62
4
 10
1175.883
 20
-1819.764
 30
4226.647
 70
    32
  0
VERTEX
  8
T10SSILL
 62
4
 10
1195.566
 20
-1856.512
 30
4226.689
 70
    32
  0
VERTEX
  8
T10SSILL
 62
4
 10
1201.950
 20
-1873.455
 30
4226.715
 70
    32
  0
VERTEX
  8
T10SSILL
 62
4
 10
1210.210
 20
-1887.197
 30
4226.729
 70
    32
  0
VERTEX
  8
T10SSILL
 62
4
 10
1210.707
 20
-1890.267
 30
4226.735
 70
    32
  0
VERTEX
  8
T10SSILL
 62
4
 10
1210.049
 20
-1892.741
 30
4226.742
 70
    32
  0
VERTEX
  8
T10SSILL
 62
4
 10
1190.179
 20
-1911.933
 30
4226.784
 70
    32
  0
VERTEX
  8
T10SSILL
 62
4
 10
1180.809
 20
-1918.880
 30
4226.674
 70
    32
  0
VERTEX
  8
T10SSILL
 62
4
 10
1178.620
 20
-1919.361
 30
4226.655
 70
    32
  0
VERTEX
  8
T10SSILL
 62
4
 10
1175.544
 20
-1919.506
 30
4226.633
 70
    32
  0
VERTEX
  8
T10SSILL
 62
4
 10
1138.054
 20
-1908.859
 30
4226.480
 70
    32
  0
VERTEX
  8
T10SSILL
 62
4
 10
1109.437
 20
-1902.357
 30
4226.383
 70
    32
  0
VERTEX
  8
T10SSILL
 62
4
 10
1101.729
 20
-1899.335
 30
4226.354
 70
    32
  0
VERTEX
  8
T10SSILL
 62
4
 10
1090.908
 20
-1899.184
 30
4226.323
 70
    32
  0
VERTEX
  8
T10SSILL
 62
4
 10
1087.548
 20
-1898.192
 30
4226.311
 70
    32
  0
VERTEX
  8
T10SSILL
 62
4
 10
1082.169
 20
-1894.218
 30
4226.286
 70
    32
  0
VERTEX
  8
T10SSILL
 62
4
 10
1018.020
 20
-1815.420
 30
4226.524
 70
    32
  0
VERTEX
  8
T10SSILL
 62
4
 10
1013.912
 20
-1805.134
 30
4226.584
 70
    32
  0
VERTEX
  8
T10SSILL
 62
4
 10
1015.420
 20
-1800.564
 30
4226.609
 70
    32
  0
VERTEX
  8
T10SSILL
 62
4
 10
1021.217
 20
-1794.768
 30
4226.656
 70
    32
  0
VERTEX
  8
T10SSILL
 62
4
 10
1029.521
 20
-1792.062
 30
4226.699
 70
    32
  0
SEQEND
  8
T10SSILL
  0
POLYLINE
  8
T10SSILL
 62
4
 66
     1
 70
     9
  0
VERTEX
  8
T10SSILL
 62
4
 10
1935.265
 20
-2478.924
 30
4227.063
 70
    32
  0
VERTEX
  8
T10SSILL
 62
4
 10
1866.799
 20
-2356.134
 30
4227.091
 70
    32
  0
VERTEX
  8
T10SSILL
 62
4
 10
1511.010
 20
-1731.985
 30
4227.075
 70
    32
  0
VERTEX
  8
T10SSILL
 62
4
 10
1507.621
 20
-1729.497
 30
4227.073
 70
    32
  0
VERTEX
  8
T10SSILL
 62
4
 10
1504.620
 20
-1728.938
 30
4227.071
 70
    32
  0
VERTEX
  8
T10SSILL
 62
4
 10
1499.249
 20
-1728.598
 30
4227.068
 70
    32
  0
VERTEX
  8
T10SSILL
 62
4
 10
1496.281
 20
-1729.797
 30
4227.066
 70
    32
  0
VERTEX
  8
T10SSILL
 62
4
 10
1279.236
 20
-1853.369
 30
4226.875
 70
    32
  0
VERTEX
  8
T10SSILL
 62
4
 10
1286.190
 20
-1863.090
 30
4226.876
 70
    32
  0
VERTEX
  8
T10SSILL
 62
4
 10
1299.827
 20
-1886.934
 30
4226.877
 70
    32
  0
VERTEX
  8
T10SSILL
 62
4
 10
1309.152
 20
-1896.522
 30
4226.880
 70
    32
  0
VERTEX
  8
T10SSILL
 62
4
 10
1316.928
 20
-1907.899
 30
4226.881
 70
    32
  0
VERTEX
  8
T10SSILL
 62
4
 10
1319.434
 20
-1910.227
 30
4226.882
 70
    32
  0
VERTEX
  8
T10SSILL
 62
4
 10
1325.883
 20
-1907.028
 30
4226.887
 70
    32
  0
VERTEX
  8
T10SSILL
 62
4
 10
1328.958
 20
-1911.545
 30
4226.888
 70
    32
  0
VERTEX
  8
T10SSILL
 62
4
 10
1344.130
 20
-1918.649
 30
4226.895
 70
    32
  0
VERTEX
  8
T10SSILL
 62
4
 10
1345.574
 20
-1920.645
 30
4226.896
 70
    32
  0
VERTEX
  8
T10SSILL
 62
4
 10
1346.700
 20
-1924.406
 30
4226.895
 70
    32
  0
VERTEX
  8
T10SSILL
 62
4
 10
1346.004
 20
-1934.270
 30
4226.891
 70
    32
  0
VERTEX
  8
T10SSILL
 62
4
 10
1348.576
 20
-1940.115
 30
4226.891
 70
    32
  0
VERTEX
  8
T10SSILL
 62
4
 10
1353.339
 20
-1945.567
 30
4226.892
 70
    32
  0
VERTEX
  8
T10SSILL
 62
4
 10
1361.700
 20
-1950.600
 30
4226.896
 70
    32
  0
VERTEX
  8
T10SSILL
 62
4
 10
1367.730
 20
-1957.963
 30
4226.897
 70
    32
  0
VERTEX
  8
T10SSILL
 62
4
 10
1369.388
 20
-1961.978
 30
4226.897
 70
    32
  0
VERTEX
  8
T10SSILL
 62
4
 10
1368.130
 20
-1965.256
 30
4226.895
 70
    32
  0
VERTEX
  8
T10SSILL
 62
4
 10
1356.927
 20
-1968.191
 30
4226.886
 70
    32
  0
VERTEX
  8
T10SSILL
 62
4
 10
1356.159
 20
-1974.186
 30
4226.884
 70
    32
  0
VERTEX
  8
T10SSILL
 62
4
 10
1360.979
 20
-1982.715
 30
4226.884
 70
    32
  0
VERTEX
  8
T10SSILL
 62
4
 10
1362.955
 20
-1984.877
 30
4226.884
 70
    32
  0
VERTEX
  8
T10SSILL
 62
4
 10
1366.673
 20
-1986.215
 30
4226.886
 70
    32
  0
VERTEX
  8
T10SSILL
 62
4
 10
1376.108
 20
-1996.945
 30
4226.889
 70
    32
  0
VERTEX
  8
T10SSILL
 62
4
 10
1385.080
 20
-2011.114
 30
4226.890
 70
    32
  0
VERTEX
  8
T10SSILL
 62
4
 10
1390.055
 20
-2023.246
 30
4226.889
 70
    32
  0
VERTEX
  8
T10SSILL
 62
4
 10
1532.553
 20
-2000.624
 30
4226.993
 70
    32
  0
VERTEX
  8
T10SSILL
 62
4
 10
1533.834
 20
-2007.988
 30
4226.991
 70
    32
  0
VERTEX
  8
T10SSILL
 62
4
 10
1393.448
 20
-2030.659
 30
4226.888
 70
    32
  0
VERTEX
  8
T10SSILL
 62
4
 10
1395.527
 20
-2043.109
 30
4226.885
 70
    32
  0
VERTEX
  8
T10SSILL
 62
4
 10
1396.621
 20
-2045.199
 30
4226.885
 70
    32
  0
VERTEX
  8
T10SSILL
 62
4
 10
1399.905
 20
-2046.809
 30
4226.887
 70
    32
  0
VERTEX
  8
T10SSILL
 62
4
 10
1414.762
 20
-2041.695
 30
4226.899
 70
    32
  0
VERTEX
  8
T10SSILL
 62
4
 10
1418.912
 20
-2042.585
 30
4226.901
 70
    32
  0
VERTEX
  8
T10SSILL
 62
4
 10
1433.671
 20
-2070.014
 30
4226.901
 70
    32
  0
VERTEX
  8
T10SSILL
 62
4
 10
1432.901
 20
-2080.583
 30
4226.897
 70
    32
  0
VERTEX
  8
T10SSILL
 62
4
 10
1434.880
 20
-2087.670
 30
4226.896
 70
    32
  0
VERTEX
  8
T10SSILL
 62
4
 10
1438.611
 20
-2094.372
 30
4226.896
 70
    32
  0
VERTEX
  8
T10SSILL
 62
4
 10
1438.753
 20
-2097.272
 30
4226.895
 70
    32
  0
VERTEX
  8
T10SSILL
 62
4
 10
1434.711
 20
-2102.185
 30
4226.891
 70
    32
  0
VERTEX
  8
T10SSILL
 62
4
 10
1423.030
 20
-2107.768
 30
4226.881
 70
    32
  0
VERTEX
  8
T10SSILL
 62
4
 10
1422.231
 20
-2112.092
 30
4226.879
 70
    32
  0
VERTEX
  8
T10SSILL
 62
4
 10
1426.450
 20
-2121.424
 30
4226.878
 70
    32
  0
VERTEX
  8
T10SSILL
 62
4
 10
1454.607
 20
-2117.381
 30
4226.899
 70
    32
  0
VERTEX
  8
T10SSILL
 62
4
 10
1455.784
 20
-2123.868
 30
4226.897
 70
    32
  0
VERTEX
  8
T10SSILL
 62
4
 10
1430.711
 20
-2128.205
 30
4226.879
 70
    32
  0
VERTEX
  8
T10SSILL
 62
4
 10
1428.799
 20
-2129.472
 30
4226.877
 70
    32
  0
VERTEX
  8
T10SSILL
 62
4
 10
1427.808
 20
-2132.920
 30
4226.875
 70
    32
  0
VERTEX
  8
T10SSILL
 62
4
 10
1430.414
 20
-2140.611
 30
4226.874
 70
    32
  0
VERTEX
  8
T10SSILL
 62
4
 10
1432.048
 20
-2143.307
 30
4226.874
 70
    32
  0
VERTEX
  8
T10SSILL
 62
4
 10
1434.982
 20
-2145.012
 30
4226.875
 70
    32
  0
VERTEX
  8
T10SSILL
 62
4
 10
1437.900
 20
-2145.837
 30
4226.877
 70
    32
  0
VERTEX
  8
T10SSILL
 62
4
 10
1445.506
 20
-2143.408
 30
4226.883
 70
    32
  0
VERTEX
  8
T10SSILL
 62
4
 10
1449.374
 20
-2143.336
 30
4226.886
 70
    32
  0
VERTEX
  8
T10SSILL
 62
4
 10
1451.496
 20
-2143.912
 30
4226.887
 70
    32
  0
VERTEX
  8
T10SSILL
 62
4
 10
1453.307
 20
-2146.693
 30
4226.887
 70
    32
  0
VERTEX
  8
T10SSILL
 62
4
 10
1453.319
 20
-2166.218
 30
4226.880
 70
    32
  0
VERTEX
  8
T10SSILL
 62
4
 10
1454.924
 20
-2172.081
 30
4226.879
 70
    32
  0
VERTEX
  8
T10SSILL
 62
4
 10
1453.675
 20
-2175.886
 30
4226.877
 70
    32
  0
VERTEX
  8
T10SSILL
 62
4
 10
1453.959
 20
-2181.685
 30
4226.875
 70
    32
  0
VERTEX
  8
T10SSILL
 62
4
 10
1451.764
 20
-2186.563
 30
4226.872
 70
    32
  0
VERTEX
  8
T10SSILL
 62
4
 10
1447.058
 20
-2188.938
 30
4226.867
 70
    32
  0
VERTEX
  8
T10SSILL
 62
4
 10
1445.028
 20
-2188.536
 30
4226.866
 70
    32
  0
VERTEX
  8
T10SSILL
 62
4
 10
1439.223
 20
-2183.807
 30
4226.863
 70
    32
  0
VERTEX
  8
T10SSILL
 62
4
 10
1427.408
 20
-2163.359
 30
4226.863
 70
    32
  0
VERTEX
  8
T10SSILL
 62
4
 10
1415.527
 20
-2148.805
 30
4226.861
 70
    32
  0
VERTEX
  8
T10SSILL
 62
4
 10
1411.329
 20
-2140.616
 30
4226.861
 70
    32
  0
VERTEX
  8
T10SSILL
 62
4
 10
1404.848
 20
-2132.645
 30
4226.860
 70
    32
  0
VERTEX
  8
T10SSILL
 62
4
 10
1345.137
 20
-2142.465
 30
4226.809
 70
    32
  0
VERTEX
  8
T10SSILL
 62
4
 10
1341.848
 20
-2145.341
 30
4226.805
 70
    32
  0
VERTEX
  8
T10SSILL
 62
4
 10
1340.945
 20
-2148.788
 30
4226.803
 70
    32
  0
VERTEX
  8
T10SSILL
 62
4
 10
1341.784
 20
-2151.323
 30
4226.802
 70
    32
  0
VERTEX
  8
T10SSILL
 62
4
 10
1346.990
 20
-2156.943
 30
4226.804
 70
    32
  0
VERTEX
  8
T10SSILL
 62
4
 10
1353.545
 20
-2159.459
 30
4226.808
 70
    32
  0
VERTEX
  8
T10SSILL
 62
4
 10
1357.019
 20
-2166.518
 30
4226.807
 70
    32
  0
VERTEX
  8
T10SSILL
 62
4
 10
1354.362
 20
-2179.672
 30
4226.799
 70
    32
  0
VERTEX
  8
T10SSILL
 62
4
 10
1354.416
 20
-2196.734
 30
4226.791
 70
    32
  0
VERTEX
  8
T10SSILL
 62
4
 10
1369.020
 20
-2215.811
 30
4226.794
 70
    32
  0
VERTEX
  8
T10SSILL
 62
4
 10
1368.256
 20
-2217.320
 30
4226.793
 70
    32
  0
VERTEX
  8
T10SSILL
 62
4
 10
1358.898
 20
-2220.133
 30
4226.784
 70
    32
  0
VERTEX
  8
T10SSILL
 62
4
 10
1359.219
 20
-2223.205
 30
4226.783
 70
    32
  0
VERTEX
  8
T10SSILL
 62
4
 10
1363.237
 20
-2231.134
 30
4226.783
 70
    32
  0
VERTEX
  8
T10SSILL
 62
4
 10
1368.599
 20
-2235.695
 30
4226.785
 70
    32
  0
VERTEX
  8
T10SSILL
 62
4
 10
1381.223
 20
-2233.525
 30
4226.795
 70
    32
  0
VERTEX
  8
T10SSILL
 62
4
 10
1382.128
 20
-2239.577
 30
4226.793
 70
    32
  0
VERTEX
  8
T10SSILL
 62
4
 10
1371.960
 20
-2241.438
 30
4226.785
 70
    32
  0
VERTEX
  8
T10SSILL
 62
4
 10
1369.300
 20
-2245.005
 30
4226.781
 70
    32
  0
VERTEX
  8
T10SSILL
 62
4
 10
1375.198
 20
-2254.746
 30
4226.781
 70
    32
  0
VERTEX
  8
T10SSILL
 62
4
 10
1382.209
 20
-2253.384
 30
4226.787
 70
    32
  0
VERTEX
  8
T10SSILL
 62
4
 10
1386.376
 20
-2255.153
 30
4226.790
 70
    32
  0
VERTEX
  8
T10SSILL
 62
4
 10
1403.480
 20
-2295.115
 30
4226.811
 70
    32
  0
VERTEX
  8
T10SSILL
 62
4
 10
1408.349
 20
-2320.442
 30
4226.846
 70
    32
  0
VERTEX
  8
T10SSILL
 62
4
 10
1408.505
 20
-2338.206
 30
4226.873
 70
    32
  0
VERTEX
  8
T10SSILL
 62
4
 10
1406.103
 20
-2346.166
 30
4226.887
 70
    32
  0
VERTEX
  8
T10SSILL
 62
4
 10
1400.906
 20
-2350.484
 30
4226.898
 70
    32
  0
VERTEX
  8
T10SSILL
 62
4
 10
1396.611
 20
-2351.268
 30
4226.902
 70
    32
  0
VERTEX
  8
T10SSILL
 62
4
 10
1386.531
 20
-2348.378
 30
4226.906
 70
    32
  0
VERTEX
  8
T10SSILL
 62
4
 10
1384.001
 20
-2349.480
 30
4226.910
 70
    32
  0
VERTEX
  8
T10SSILL
 62
4
 10
1383.778
 20
-2351.683
 30
4226.913
 70
    32
  0
VERTEX
  8
T10SSILL
 62
4
 10
1544.098
 20
-2619.932
 30
4227.115
 70
    32
  0
VERTEX
  8
T10SSILL
 62
4
 10
1551.600
 20
-2627.924
 30
4227.111
 70
    32
  0
VERTEX
  8
T10SSILL
 62
4
 10
1556.378
 20
-2629.036
 30
4227.110
 70
    32
  0
VERTEX
  8
T10SSILL
 62
4
 10
1560.632
 20
-2637.285
 30
4227.108
 70
    32
  0
VERTEX
  8
T10SSILL
 62
4
 10
1701.526
 20
-2713.086
 30
4227.071
 70
    32
  0
VERTEX
  8
T10SSILL
 62
4
 10
1769.137
 20
-2746.337
 30
4227.052
 70
    32
  0
VERTEX
  8
T10SSILL
 62
4
 10
1776.642
 20
-2757.269
 30
4227.051
 70
    32
  0
VERTEX
  8
T10SSILL
 62
4
 10
1780.085
 20
-2757.994
 30
4227.050
 70
    32
  0
VERTEX
  8
T10SSILL
 62
4
 10
1796.556
 20
-2755.129
 30
4227.044
 70
    32
  0
VERTEX
  8
T10SSILL
 62
4
 10
1826.593
 20
-2732.233
 30
4227.032
 70
    32
  0
VERTEX
  8
T10SSILL
 62
4
 10
1816.240
 20
-2718.096
 30
4227.033
 70
    32
  0
VERTEX
  8
T10SSILL
 62
4
 10
1821.597
 20
-2713.246
 30
4227.031
 70
    32
  0
VERTEX
  8
T10SSILL
 62
4
 10
1832.552
 20
-2727.690
 30
4227.029
 70
    32
  0
VERTEX
  8
T10SSILL
 62
4
 10
1856.408
 20
-2708.712
 30
4227.019
 70
    32
  0
VERTEX
  8
T10SSILL
 62
4
 10
1886.234
 20
-2682.560
 30
4227.006
 70
    32
  0
VERTEX
  8
T10SSILL
 62
4
 10
1900.122
 20
-2673.327
 30
4227.000
 70
    32
  0
VERTEX
  8
T10SSILL
 62
4
 10
1903.089
 20
-2672.216
 30
4227.002
 70
    32
  0
VERTEX
  8
T10SSILL
 62
4
 10
1905.568
 20
-2673.135
 30
4227.003
 70
    32
  0
VERTEX
  8
T10SSILL
 62
4
 10
1912.059
 20
-2676.967
 30
4227.004
 70
    32
  0
VERTEX
  8
T10SSILL
 62
4
 10
1920.105
 20
-2684.020
 30
4227.004
 70
    32
  0
VERTEX
  8
T10SSILL
 62
4
 10
1922.907
 20
-2683.439
 30
4227.005
 70
    32
  0
VERTEX
  8
T10SSILL
 62
4
 10
1984.752
 20
-2635.489
 30
4227.037
 70
    32
  0
VERTEX
  8
T10SSILL
 62
4
 10
1992.620
 20
-2628.658
 30
4227.042
 70
    32
  0
VERTEX
  8
T10SSILL
 62
4
 10
1999.811
 20
-2618.587
 30
4227.047
 70
    32
  0
VERTEX
  8
T10SSILL
 62
4
 10
2002.250
 20
-2612.826
 30
4227.049
 70
    32
  0
VERTEX
  8
T10SSILL
 62
4
 10
2001.795
 20
-2598.243
 30
4227.053
 70
    32
  0
VERTEX
  8
T10SSILL
 62
4
 10
1939.050
 20
-2485.713
 30
4227.062
 70
    32
  0
VERTEX
  8
T10SSILL
 62
4
 10
1937.178
 20
-2486.793
 30
4227.061
 70
    32
  0
VERTEX
  8
T10SSILL
 62
4
 10
1933.089
 20
-2480.240
 30
4227.062
 70
    32
  0
SEQEND
  8
T10SSILL
  0
POLYLINE
  8
T10SSILL
 62
4
 66
     1
 70
     9
  0
VERTEX
  8
T10SSILL
 62
4
 10
1634.497
 20
-2774.969
 30
4227.100
 70
    32
  0
VERTEX
  8
T10SSILL
 62
4
 10
1633.828
 20
-2760.004
 30
4227.098
 70
    32
  0
VERTEX
  8
T10SSILL
 62
4
 10
1630.534
 20
-2744.429
 30
4227.097
 70
    32
  0
VERTEX
  8
T10SSILL
 62
4
 10
1618.226
 20
-2730.752
 30
4227.100
 70
    32
  0
VERTEX
  8
T10SSILL
 62
4
 10
1607.193
 20
-2711.765
 30
4227.101
 70
    32
  0
VERTEX
  8
T10SSILL
 62
4
 10
1600.591
 20
-2704.630
 30
4227.103
 70
    32
  0
VERTEX
  8
T10SSILL
 62
4
 10
1590.371
 20
-2700.489
 30
4227.106
 70
    32
  0
VERTEX
  8
T10SSILL
 62
4
 10
1568.109
 20
-2679.233
 30
4227.110
 70
    32
  0
VERTEX
  8
T10SSILL
 62
4
 10
1562.286
 20
-2675.069
 30
4227.112
 70
    32
  0
VERTEX
  8
T10SSILL
 62
4
 10
1556.736
 20
-2671.250
 30
4227.113
 70
    32
  0
VERTEX
  8
T10SSILL
 62
4
 10
1542.450
 20
-2666.332
 30
4227.117
 70
    32
  0
VERTEX
  8
T10SSILL
 62
4
 10
1524.074
 20
-2638.733
 30
4227.120
 70
    32
  0
VERTEX
  8
T10SSILL
 62
4
 10
1534.302
 20
-2636.188
 30
4227.117
 70
    32
  0
VERTEX
  8
T10SSILL
 62
4
 10
1546.801
 20
-2636.490
 30
4227.113
 70
    32
  0
VERTEX
  8
T10SSILL
 62
4
 10
1709.844
 20
-2725.544
 30
4227.069
 70
    32
  0
VERTEX
  8
T10SSILL
 62
4
 10
1750.219
 20
-2745.381
 30
4227.058
 70
    32
  0
VERTEX
  8
T10SSILL
 62
4
 10
1753.872
 20
-2747.948
 30
4227.057
 70
    32
  0
VERTEX
  8
T10SSILL
 62
4
 10
1761.567
 20
-2759.580
 30
4227.056
 70
    32
  0
VERTEX
  8
T10SSILL
 62
4
 10
1756.998
 20
-2782.610
 30
4227.060
 70
    32
  0
VERTEX
  8
T10SSILL
 62
4
 10
1754.294
 20
-2788.288
 30
4227.062
 70
    32
  0
VERTEX
  8
T10SSILL
 62
4
 10
1746.841
 20
-2793.881
 30
4227.065
 70
    32
  0
VERTEX
  8
T10SSILL
 62
4
 10
1741.328
 20
-2790.558
 30
4227.066
 70
    32
  0
VERTEX
  8
T10SSILL
 62
4
 10
1733.626
 20
-2783.146
 30
4227.068
 70
    32
  0
VERTEX
  8
T10SSILL
 62
4
 10
1719.109
 20
-2789.614
 30
4227.073
 70
    32
  0
VERTEX
  8
T10SSILL
 62
4
 10
1693.942
 20
-2775.293
 30
4227.080
 70
    32
  0
VERTEX
  8
T10SSILL
 62
4
 10
1656.010
 20
-2795.512
 30
4227.095
 70
    32
  0
VERTEX
  8
T10SSILL
 62
4
 10
1651.176
 20
-2788.684
 30
4227.096
 70
    32
  0
VERTEX
  8
T10SSILL
 62
4
 10
1640.852
 20
-2783.930
 30
4227.098
 70
    32
  0
VERTEX
  8
T10SSILL
 62
4
 10
1636.837
 20
-2779.606
 30
4227.099
 70
    32
  0
SEQEND
  8
T10SSILL
  0
POLYLINE
  8
T10SSILL
 62
4
 66
     1
 70
     9
  0
VERTEX
  8
T10SSILL
 62
4
 10
1520.120
 20
-2593.442
 30
4227.126
 70
    32
  0
VERTEX
  8
T10SSILL
 62
4
 10
1495.379
 20
-2575.063
 30
4227.136
 70
    32
  0
VERTEX
  8
T10SSILL
 62
4
 10
1478.738
 20
-2577.945
 30
4227.140
 70
    32
  0
VERTEX
  8
T10SSILL
 62
4
 10
1505.347
 20
-2607.624
 30
4227.128
 70
    32
  0
VERTEX
  8
T10SSILL
 62
4
 10
1512.305
 20
-2621.963
 30
4227.124
 70
    32
  0
VERTEX
  8
T10SSILL
 62
4
 10
1518.161
 20
-2630.965
 30
4227.121
 70
    32
  0
VERTEX
  8
T10SSILL
 62
4
 10
1535.266
 20
-2629.039
 30
4227.116
 70
    32
  0
VERTEX
  8
T10SSILL
 62
4
 10
1539.281
 20
-2624.276
 30
4227.116
 70
    32
  0
SEQEND
  8
T10SSILL
  0
POLYLINE
  8
T10SSILL
 62
4
 66
     1
 70
     9
  0
VERTEX
  8
T10SSILL
 62
4
 10
1469.184
 20
-2579.329
 30
4227.143
 70
    32
  0
VERTEX
  8
T10SSILL
 62
4
 10
1393.374
 20
-2590.473
 30
4227.163
 70
    32
  0
VERTEX
  8
T10SSILL
 62
4
 10
1392.965
 20
-2591.715
 30
4227.163
 70
    32
  0
VERTEX
  8
T10SSILL
 62
4
 10
1470.205
 20
-2640.880
 30
4227.138
 70
    32
  0
VERTEX
  8
T10SSILL
 62
4
 10
1480.524
 20
-2641.940
 30
4227.135
 70
    32
  0
VERTEX
  8
T10SSILL
 62
4
 10
1508.410
 20
-2634.992
 30
4227.125
 70
    32
  0
VERTEX
  8
T10SSILL
 62
4
 10
1506.338
 20
-2622.553
 30
4227.125
 70
    32
  0
VERTEX
  8
T10SSILL
 62
4
 10
1482.806
 20
-2592.797
 30
4227.137
 70
    32
  0
SEQEND
  8
T10SSILL
  0
POLYLINE
  8
T10SSILL
 62
4
 66
     1
 70
     9
  0
VERTEX
  8
T10SSILL
 62
4
 10
1555.444
 20
-2756.258
 30
4227.123
 70
    32
  0
VERTEX
  8
T10SSILL
 62
4
 10
1545.730
 20
-2730.289
 30
4227.124
 70
    32
  0
VERTEX
  8
T10SSILL
 62
4
 10
1543.653
 20
-2728.142
 30
4227.124
 70
    32
  0
VERTEX
  8
T10SSILL
 62
4
 10
1538.007
 20
-2727.492
 30
4227.126
 70
    32
  0
VERTEX
  8
T10SSILL
 62
4
 10
1517.769
 20
-2737.765
 30
4227.134
 70
    32
  0
VERTEX
  8
T10SSILL
 62
4
 10
1516.308
 20
-2739.122
 30
4227.134
 70
    32
  0
VERTEX
  8
T10SSILL
 62
4
 10
1515.900
 20
-2743.882
 30
4227.135
 70
    32
  0
VERTEX
  8
T10SSILL
 62
4
 10
1525.451
 20
-2766.865
 30
4227.134
 70
    32
  0
VERTEX
  8
T10SSILL
 62
4
 10
1529.842
 20
-2770.097
 30
4227.133
 70
    32
  0
VERTEX
  8
T10SSILL
 62
4
 10
1532.378
 20
-2769.506
 30
4227.132
 70
    32
  0
SEQEND
  8
T10SSILL
  0
POLYLINE
  8
T10SSILL
 62
4
 66
     1
 70
     9
  0
VERTEX
  8
T10SSILL
 62
4
 10
1736.389
 20
-2846.712
 30
4227.074
 70
    32
  0
VERTEX
  8
T10SSILL
 62
4
 10
1737.271
 20
-2854.103
 30
4227.075
 70
    32
  0
VERTEX
  8
T10SSILL
 62
4
 10
1751.313
 20
-2866.668
 30
4227.072
 70
    32
  0
VERTEX
  8
T10SSILL
 62
4
 10
1755.370
 20
-2871.952
 30
4227.071
 70
    32
  0
VERTEX
  8
T10SSILL
 62
4
 10
1762.218
 20
-2876.128
 30
4227.069
 70
    32
  0
VERTEX
  8
T10SSILL
 62
4
 10
1773.943
 20
-2873.267
 30
4227.065
 70
    32
  0
VERTEX
  8
T10SSILL
 62
4
 10
1779.045
 20
-2864.290
 30
4227.062
 70
    32
  0
VERTEX
  8
T10SSILL
 62
4
 10
1773.184
 20
-2852.008
 30
4227.063
 70
    32
  0
VERTEX
  8
T10SSILL
 62
4
 10
1759.727
 20
-2837.850
 30
4227.066
 70
    32
  0
VERTEX
  8
T10SSILL
 62
4
 10
1747.048
 20
-2836.774
 30
4227.070
 70
    32
  0
VERTEX
  8
T10SSILL
 62
4
 10
1739.842
 20
-2841.483
 30
4227.073
 70
    32
  0
VERTEX
  8
T10SSILL
 62
4
 10
1738.039
 20
-2843.592
 30
4227.073
 70
    32
  0
VERTEX
  8
T10SSILL
 62
4
 10
1738.936
 20
-2844.665
 30
4227.073
 70
    32
  0
SEQEND
  8
T10SSILL
  0
POLYLINE
  8
T10SSILL
 62
4
 66
     1
 70
     9
  0
VERTEX
  8
T10SSILL
 62
4
 10
1622.607
 20
-2815.513
 30
4227.108
 70
    32
  0
VERTEX
  8
T10SSILL
 62
4
 10
1594.511
 20
-2835.566
 30
4227.120
 70
    32
  0
VERTEX
  8
T10SSILL
 62
4
 10
1595.952
 20
-2837.384
 30
4227.119
 70
    32
  0
VERTEX
  8
T10SSILL
 62
4
 10
1606.922
 20
-2845.613
 30
4227.117
 70
    32
  0
VERTEX
  8
T10SSILL
 62
4
 10
1620.866
 20
-2853.081
 30
4227.113
 70
    32
  0
VERTEX
  8
T10SSILL
 62
4
 10
1626.224
 20
-2857.462
 30
4227.112
 70
    32
  0
VERTEX
  8
T10SSILL
 62
4
 10
1654.252
 20
-2833.806
 30
4227.100
 70
    32
  0
VERTEX
  8
T10SSILL
 62
4
 10
1655.156
 20
-2830.536
 30
4227.099
 70
    32
  0
VERTEX
  8
T10SSILL
 62
4
 10
1654.582
 20
-2828.086
 30
4227.099
 70
    32
  0
VERTEX
  8
T10SSILL
 62
4
 10
1631.727
 20
-2823.513
 30
4227.106
 70
    32
  0
SEQEND
  8
T10SSILL
  0
POLYLINE
  8
T10SSILL
 62
4
 66
     1
 70
     9
  0
VERTEX
  8
T10SSILL
 62
4
 10
1696.842
 20
-2869.085
 30
4227.090
 70
    32
  0
VERTEX
  8
T10SSILL
 62
4
 10
1694.154
 20
-2865.566
 30
4227.090
 70
    32
  0
VERTEX
  8
T10SSILL
 62
4
 10
1699.796
 20
-2860.866
 30
4227.088
 70
    32
  0
VERTEX
  8
T10SSILL
 62
4
 10
1682.529
 20
-2850.669
 30
4227.092
 70
    32
  0
VERTEX
  8
T10SSILL
 62
4
 10
1675.502
 20
-2850.979
 30
4227.095
 70
    32
  0
VERTEX
  8
T10SSILL
 62
4
 10
1661.580
 20
-2840.082
 30
4227.098
 70
    32
  0
VERTEX
  8
T10SSILL
 62
4
 10
1653.986
 20
-2842.865
 30
4227.101
 70
    32
  0
VERTEX
  8
T10SSILL
 62
4
 10
1637.899
 20
-2856.623
 30
4227.108
 70
    32
  0
VERTEX
  8
T10SSILL
 62
4
 10
1634.751
 20
-2862.045
 30
4227.109
 70
    32
  0
VERTEX
  8
T10SSILL
 62
4
 10
1638.624
 20
-2866.893
 30
4227.109
 70
    32
  0
VERTEX
  8
T10SSILL
 62
4
 10
1670.079
 20
-2889.058
 30
4227.101
 70
    32
  0
VERTEX
  8
T10SSILL
 62
4
 10
1672.889
 20
-2888.916
 30
4227.100
 70
    32
  0
VERTEX
  8
T10SSILL
 62
4
 10
1696.862
 20
-2869.111
 30
4227.090
 70
    32
  0
SEQEND
  8
T10SSILL
  0
POLYLINE
  8
T10SSILL
 62
4
 66
     1
 70
     9
  0
VERTEX
  8
T10SSILL
 62
4
 10
1587.770
 20
-2786.556
 30
4227.116
 70
    32
  0
VERTEX
  8
T10SSILL
 62
4
 10
1559.371
 20
-2804.594
 30
4227.128
 70
    32
  0
VERTEX
  8
T10SSILL
 62
4
 10
1558.737
 20
-2808.210
 30
4227.128
 70
    32
  0
VERTEX
  8
T10SSILL
 62
4
 10
1560.943
 20
-2813.266
 30
4227.128
 70
    32
  0
VERTEX
  8
T10SSILL
 62
4
 10
1585.094
 20
-2830.384
 30
4227.122
 70
    32
  0
VERTEX
  8
T10SSILL
 62
4
 10
1590.721
 20
-2830.452
 30
4227.120
 70
    32
  0
VERTEX
  8
T10SSILL
 62
4
 10
1618.184
 20
-2809.444
 30
4227.109
 70
    32
  0
VERTEX
  8
T10SSILL
 62
4
 10
1617.677
 20
-2805.938
 30
4227.109
 70
    32
  0
VERTEX
  8
T10SSILL
 62
4
 10
1614.456
 20
-2803.011
 30
4227.109
 70
    32
  0
VERTEX
  8
T10SSILL
 62
4
 10
1593.417
 20
-2787.679
 30
4227.114
 70
    32
  0
SEQEND
  8
T10SSILL
  0
POLYLINE
  8
T10SSILL
 62
4
 66
     1
 70
     9
  0
VERTEX
  8
T10SSILL
 62
4
 10
1546.456
 20
-2804.602
 30
4227.132
 70
    32
  0
VERTEX
  8
T10SSILL
 62
4
 10
1573.508
 20
-2788.967
 30
4227.121
 70
    32
  0
VERTEX
  8
T10SSILL
 62
4
 10
1576.973
 20
-2783.338
 30
4227.119
 70
    32
  0
VERTEX
  8
T10SSILL
 62
4
 10
1573.384
 20
-2777.007
 30
4227.120
 70
    32
  0
VERTEX
  8
T10SSILL
 62
4
 10
1567.660
 20
-2773.280
 30
4227.121
 70
    32
  0
VERTEX
  8
T10SSILL
 62
4
 10
1563.536
 20
-2766.699
 30
4227.122
 70
    32
  0
VERTEX
  8
T10SSILL
 62
4
 10
1560.843
 20
-2764.567
 30
4227.122
 70
    32
  0
VERTEX
  8
T10SSILL
 62
4
 10
1557.817
 20
-2763.148
 30
4227.123
 70
    32
  0
VERTEX
  8
T10SSILL
 62
4
 10
1542.992
 20
-2771.790
 30
4227.129
 70
    32
  0
VERTEX
  8
T10SSILL
 62
4
 10
1537.922
 20
-2773.061
 30
4227.131
 70
    32
  0
VERTEX
  8
T10SSILL
 62
4
 10
1531.037
 20
-2779.128
 30
4227.134
 70
    32
  0
VERTEX
  8
T10SSILL
 62
4
 10
1539.126
 20
-2799.948
 30
4227.134
 70
    32
  0
SEQEND
  8
T10SSILL
  0
POLYLINE
  8
T10SSILL
 62
4
 66
     1
 70
     9
  0
VERTEX
  8
T10SSILL
 62
4
 10
1480.034
 20
-2657.434
 30
4227.137
 70
    32
  0
VERTEX
  8
T10SSILL
 62
4
 10
1508.451
 20
-2727.532
 30
4227.135
 70
    32
  0
VERTEX
  8
T10SSILL
 62
4
 10
1516.089
 20
-2730.419
 30
4227.133
 70
    32
  0
VERTEX
  8
T10SSILL
 62
4
 10
1538.520
 20
-2719.914
 30
4227.125
 70
    32
  0
VERTEX
  8
T10SSILL
 62
4
 10
1540.309
 20
-2717.582
 30
4227.124
 70
    32
  0
VERTEX
  8
T10SSILL
 62
4
 10
1529.136
 20
-2693.057
 30
4227.125
 70
    32
  0
VERTEX
  8
T10SSILL
 62
4
 10
1526.711
 20
-2691.094
 30
4227.125
 70
    32
  0
VERTEX
  8
T10SSILL
 62
4
 10
1526.216
 20
-2688.908
 30
4227.125
 70
    32
  0
VERTEX
  8
T10SSILL
 62
4
 10
1512.668
 20
-2678.341
 30
4227.128
 70
    32
  0
SEQEND
  8
T10SSILL
  0
POLYLINE
  8
T10SSILL
 62
4
 66
     1
 70
     9
  0
VERTEX
  8
T10SSILL
 62
4
 10
1521.038
 20
-2647.430
 30
4227.122
 70
    32
  0
VERTEX
  8
T10SSILL
 62
4
 10
1516.981
 20
-2647.004
 30
4227.124
 70
    32
  0
VERTEX
  8
T10SSILL
 62
4
 10
1508.418
 20
-2642.293
 30
4227.126
 70
    32
  0
VERTEX
  8
T10SSILL
 62
4
 10
1481.672
 20
-2649.124
 30
4227.135
 70
    32
  0
VERTEX
  8
T10SSILL
 62
4
 10
1517.724
 20
-2673.023
 30
4227.126
 70
    32
  0
VERTEX
  8
T10SSILL
 62
4
 10
1521.181
 20
-2674.080
 30
4227.125
 70
    32
  0
VERTEX
  8
T10SSILL
 62
4
 10
1524.011
 20
-2671.194
 30
4227.124
 70
    32
  0
SEQEND
  8
T10SSILL
  0
TEXT
  8
T10SSILL
 62
4
 10
224.101
 20
-3434.703
 30
4237.530
 40
0.200
  1
1000
 50
-148.714
 41
 1.0 
  0
POLYLINE
  8
T10SSILL
 62
4
 66
     1
 70
     9
  0
VERTEX
  8
T10SSILL
 62
4
 10
936.417
 20
-2358.793
 30
4227.281
 70
    32
  0
VERTEX
  8
T10SSILL
 62
4
 10
875.687
 20
-2401.439
 30
4227.342
 70
    32
  0
VERTEX
  8
T10SSILL
 62
4
 10
918.387
 20
-2437.838
 30
4227.324
 70
    32
  0
VERTEX
  8
T10SSILL
 62
4
 10
963.949
 20
-2465.633
 30
4227.307
 70
    32
  0
VERTEX
  8
T10SSILL
 62
4
 10
970.072
 20
-2467.766
 30
4227.304
 70
    32
  0
VERTEX
  8
T10SSILL
 62
4
 10
1012.117
 20
-2464.157
 30
4227.293
 70
    32
  0
VERTEX
  8
T10SSILL
 62
4
 10
1034.129
 20
-2457.973
 30
4227.287
 70
    32
  0
VERTEX
  8
T10SSILL
 62
4
 10
1095.389
 20
-2452.386
 30
4227.270
 70
    32
  0
VERTEX
  8
T10SSILL
 62
4
 10
1120.163
 20
-2444.109
 30
4227.264
 70
    32
  0
VERTEX
  8
T10SSILL
 62
4
 10
1123.690
 20
-2440.942
 30
4227.256
 70
    32
  0
VERTEX
  8
T10SSILL
 62
4
 10
1128.289
 20
-2431.414
 30
4227.238
 70
    32
  0
VERTEX
  8
T10SSILL
 62
4
 10
1128.934
 20
-2429.110
 30
4227.234
 70
    32
  0
VERTEX
  8
T10SSILL
 62
4
 10
1127.826
 20
-2427.027
 30
4227.232
 70
    32
  0
VERTEX
  8
T10SSILL
 62
4
 10
1058.746
 20
-2383.990
 30
4227.222
 70
    32
  0
VERTEX
  8
T10SSILL
 62
4
 10
1047.248
 20
-2392.020
 30
4227.243
 70
    32
  0
VERTEX
  8
T10SSILL
 62
4
 10
1017.540
 20
-2372.008
 30
4227.236
 70
    32
  0
VERTEX
  8
T10SSILL
 62
4
 10
992.134
 20
-2342.275
 30
4227.211
 70
    32
  0
VERTEX
  8
T10SSILL
 62
4
 10
979.396
 20
-2333.630
 30
4227.208
 70
    32
  0
VERTEX
  8
T10SSILL
 62
4
 10
973.992
 20
-2331.532
 30
4227.210
 70
    32
  0
SEQEND
  8
T10SSILL
  0
POLYLINE
  8
T10SSILL
 62
4
 66
     1
 70
     9
  0
VERTEX
  8
T10SSILL
 62
4
 10
848.244
 20
-2304.413
 30
4227.269
 70
    32
  0
VERTEX
  8
T10SSILL
 62
4
 10
856.580
 20
-2303.378
 30
4227.261
 70
    32
  0
VERTEX
  8
T10SSILL
 62
4
 10
867.794
 20
-2272.738
 30
4227.205
 70
    32
  0
VERTEX
  8
T10SSILL
 62
4
 10
871.144
 20
-2268.454
 30
4227.196
 70
    32
  0
VERTEX
  8
T10SSILL
 62
4
 10
897.050
 20
-2252.139
 30
4227.150
 70
    32
  0
VERTEX
  8
T10SSILL
 62
4
 10
906.319
 20
-2244.579
 30
4227.131
 70
    32
  0
VERTEX
  8
T10SSILL
 62
4
 10
909.149
 20
-2240.656
 30
4227.123
 70
    32
  0
VERTEX
  8
T10SSILL
 62
4
 10
908.375
 20
-2236.889
 30
4227.118
 70
    32
  0
VERTEX
  8
T10SSILL
 62
4
 10
906.575
 20
-2234.723
 30
4227.116
 70
    32
  0
VERTEX
  8
T10SSILL
 62
4
 10
905.164
 20
-2234.486
 30
4227.117
 70
    32
  0
VERTEX
  8
T10SSILL
 62
4
 10
893.754
 20
-2240.503
 30
4227.135
 70
    32
  0
VERTEX
  8
T10SSILL
 62
4
 10
872.621
 20
-2258.048
 30
4227.179
 70
    32
  0
VERTEX
  8
T10SSILL
 62
4
 10
831.769
 20
-2288.627
 30
4227.258
 70
    32
  0
VERTEX
  8
T10SSILL
 62
4
 10
831.710
 20
-2293.291
 30
4227.265
 70
    32
  0
SEQEND
  8
T10SSILL
  0
POLYLINE
  8
T10SSILL
 62
4
 66
     1
 70
     9
  0
VERTEX
  8
T10SSILL
 62
4
 10
701.750
 20
-2270.962
 30
4227.239
 70
    32
  0
VERTEX
  8
T10SSILL
 62
4
 10
696.546
 20
-2287.895
 30
4227.289
 70
    32
  0
VERTEX
  8
T10SSILL
 62
4
 10
710.237
 20
-2307.607
 30
4227.355
 70
    32
  0
VERTEX
  8
T10SSILL
 62
4
 10
724.329
 20
-2318.776
 30
4227.390
 70
    32
  0
VERTEX
  8
T10SSILL
 62
4
 10
739.097
 20
-2325.353
 30
4227.388
 70
    32
  0
VERTEX
  8
T10SSILL
 62
4
 10
762.056
 20
-2321.873
 30
4227.364
 70
    32
  0
VERTEX
  8
T10SSILL
 62
4
 10
769.036
 20
-2319.586
 30
4227.355
 70
    32
  0
VERTEX
  8
T10SSILL
 62
4
 10
778.915
 20
-2320.657
 30
4227.349
 70
    32
  0
VERTEX
  8
T10SSILL
 62
4
 10
791.533
 20
-2325.706
 30
4227.346
 70
    32
  0
VERTEX
  8
T10SSILL
 62
4
 10
823.844
 20
-2302.285
 30
4227.285
 70
    32
  0
VERTEX
  8
T10SSILL
 62
4
 10
817.485
 20
-2297.783
 30
4227.283
 70
    32
  0
VERTEX
  8
T10SSILL
 62
4
 10
815.402
 20
-2291.942
 30
4227.276
 70
    32
  0
VERTEX
  8
T10SSILL
 62
4
 10
804.465
 20
-2280.254
 30
4227.267
 70
    32
  0
VERTEX
  8
T10SSILL
 62
4
 10
801.722
 20
-2279.619
 30
4227.268
 70
    32
  0
VERTEX
  8
T10SSILL
 62
4
 10
782.765
 20
-2260.391
 30
4227.240
 70
    32
  0
VERTEX
  8
T10SSILL
 62
4
 10
781.432
 20
-2256.378
 30
4227.227
 70
    32
  0
VERTEX
  8
T10SSILL
 62
4
 10
774.667
 20
-2249.687
 30
4227.204
 70
    32
  0
VERTEX
  8
T10SSILL
 62
4
 10
769.654
 20
-2249.725
 30
4227.202
 70
    32
  0
VERTEX
  8
T10SSILL
 62
4
 10
761.080
 20
-2237.626
 30
4227.161
 70
    32
  0
VERTEX
  8
T10SSILL
 62
4
 10
759.968
 20
-2235.367
 30
4227.154
 70
    32
  0
VERTEX
  8
T10SSILL
 62
4
 10
760.205
 20
-2230.787
 30
4227.140
 70
    32
  0
SEQEND
  8
T10SSILL
  0
POLYLINE
  8
T10SSILL
 62
4
 66
     1
 70
     9
  0
VERTEX
  8
T10SSILL
 62
4
 10
756.544
 20
-2225.161
 30
4227.121
 70
    32
  0
VERTEX
  8
T10SSILL
 62
4
 10
750.954
 20
-2216.241
 30
4227.091
 70
    32
  0
VERTEX
  8
T10SSILL
 62
4
 10
743.286
 20
-2219.161
 30
4227.097
 70
    32
  0
VERTEX
  8
T10SSILL
 62
4
 10
734.866
 20
-2227.114
 30
4227.118
 70
    32
  0
VERTEX
  8
T10SSILL
 62
4
 10
731.982
 20
-2227.890
 30
4227.119
 70
    32
  0
VERTEX
  8
T10SSILL
 62
4
 10
714.379
 20
-2206.517
 30
4227.046
 70
    32
  0
VERTEX
  8
T10SSILL
 62
4
 10
676.678
 20
-2176.502
 30
4226.973
 70
    32
  0
VERTEX
  8
T10SSILL
 62
4
 10
667.432
 20
-2176.118
 30
4226.978
 70
    32
  0
VERTEX
  8
T10SSILL
 62
4
 10
652.574
 20
-2183.442
 30
4226.991
 70
    32
  0
VERTEX
  8
T10SSILL
 62
4
 10
642.927
 20
-2191.601
 30
4227.001
 70
    32
  0
VERTEX
  8
T10SSILL
 62
4
 10
640.007
 20
-2197.920
 30
4227.006
 70
    32
  0
VERTEX
  8
T10SSILL
 62
4
 10
640.074
 20
-2204.076
 30
4227.010
 70
    32
  0
VERTEX
  8
T10SSILL
 62
4
 10
685.190
 20
-2270.059
 30
4227.229
 70
    32
  0
VERTEX
  8
T10SSILL
 62
4
 10
688.043
 20
-2271.571
 30
4227.235
 70
    32
  0
VERTEX
  8
T10SSILL
 62
4
 10
689.968
 20
-2271.171
 30
4227.234
 70
    32
  0
VERTEX
  8
T10SSILL
 62
4
 10
701.373
 20
-2262.967
 30
4227.214
 70
    32
  0
SEQEND
  8
T10SSILL
  0
POLYLINE
  8
T10SSILL
 62
4
 66
     1
 70
     9
  0
VERTEX
  8
T10SSILL
 62
4
 10
653.175
 20
-2156.678
 30
4226.975
 70
    32
  0
VERTEX
  8
T10SSILL
 62
4
 10
650.506
 20
-2157.192
 30
4226.977
 70
    32
  0
VERTEX
  8
T10SSILL
 62
4
 10
630.799
 20
-2132.617
 30
4226.980
 70
    32
  0
VERTEX
  8
T10SSILL
 62
4
 10
624.096
 20
-2117.919
 30
4226.978
 70
    32
  0
VERTEX
  8
T10SSILL
 62
4
 10
622.807
 20
-2108.627
 30
4226.975
 70
    32
  0
VERTEX
  8
T10SSILL
 62
4
 10
615.604
 20
-2105.554
 30
4226.979
 70
    32
  0
VERTEX
  8
T10SSILL
 62
4
 10
611.458
 20
-2098.093
 30
4226.978
 70
    32
  0
VERTEX
  8
T10SSILL
 62
4
 10
607.427
 20
-2095.204
 30
4226.980
 70
    32
  0
VERTEX
  8
T10SSILL
 62
4
 10
600.921
 20
-2095.367
 30
4226.984
 70
    32
  0
VERTEX
  8
T10SSILL
 62
4
 10
583.260
 20
-2110.150
 30
4227.003
 70
    32
  0
VERTEX
  8
T10SSILL
 62
4
 10
580.940
 20
-2115.838
 30
4227.007
 70
    32
  0
VERTEX
  8
T10SSILL
 62
4
 10
581.442
 20
-2118.289
 30
4227.008
 70
    32
  0
VERTEX
  8
T10SSILL
 62
4
 10
596.762
 20
-2143.326
 30
4227.009
 70
    32
  0
VERTEX
  8
T10SSILL
 62
4
 10
606.144
 20
-2152.590
 30
4227.006
 70
    32
  0
VERTEX
  8
T10SSILL
 62
4
 10
625.379
 20
-2182.894
 30
4227.006
 70
    32
  0
VERTEX
  8
T10SSILL
 62
4
 10
628.555
 20
-2186.773
 30
4227.006
 70
    32
  0
VERTEX
  8
T10SSILL
 62
4
 10
635.872
 20
-2187.380
 30
4227.002
 70
    32
  0
VERTEX
  8
T10SSILL
 62
4
 10
659.761
 20
-2168.394
 30
4226.978
 70
    32
  0
VERTEX
  8
T10SSILL
 62
4
 10
658.531
 20
-2161.476
 30
4226.974
 70
    32
  0
VERTEX
  8
T10SSILL
 62
4
 10
654.716
 20
-2158.660
 30
4226.975
 70
    32
  0
SEQEND
  8
T10SSILL
  0
POLYLINE
  8
T10SSILL
 62
4
 66
     1
 70
     9
  0
VERTEX
  8
T10SSILL
 62
4
 10
582.527
 20
-2046.041
 30
4226.975
 70
    32
  0
VERTEX
  8
T10SSILL
 62
4
 10
552.595
 20
-2055.591
 30
4227.000
 70
    32
  0
VERTEX
  8
T10SSILL
 62
4
 10
551.633
 20
-2062.828
 30
4227.004
 70
    32
  0
VERTEX
  8
T10SSILL
 62
4
 10
570.496
 20
-2095.781
 30
4227.006
 70
    32
  0
VERTEX
  8
T10SSILL
 62
4
 10
587.662
 20
-2092.798
 30
4226.992
 70
    32
  0
VERTEX
  8
T10SSILL
 62
4
 10
600.511
 20
-2082.535
 30
4226.979
 70
    32
  0
VERTEX
  8
T10SSILL
 62
4
 10
603.371
 20
-2063.374
 30
4226.968
 70
    32
  0
VERTEX
  8
T10SSILL
 62
4
 10
601.375
 20
-2060.961
 30
4226.969
 70
    32
  0
VERTEX
  8
T10SSILL
 62
4
 10
593.326
 20
-2066.178
 30
4226.977
 70
    32
  0
SEQEND
  8
T10SSILL
  0
POLYLINE
  8
T10SSILL
 62
4
 66
     1
 70
     9
  0
VERTEX
  8
T10SSILL
 62
4
 10
617.920
 20
-1953.590
 30
4226.888
 70
    32
  0
VERTEX
  8
T10SSILL
 62
4
 10
539.774
 20
-2007.532
 30
4226.972
 70
    32
  0
VERTEX
  8
T10SSILL
 62
4
 10
547.412
 20
-2038.392
 30
4226.996
 70
    32
  0
VERTEX
  8
T10SSILL
 62
4
 10
551.319
 20
-2046.826
 30
4226.997
 70
    32
  0
VERTEX
  8
T10SSILL
 62
4
 10
579.256
 20
-2038.383
 30
4226.974
 70
    32
  0
VERTEX
  8
T10SSILL
 62
4
 10
568.072
 20
-2016.936
 30
4226.967
 70
    32
  0
VERTEX
  8
T10SSILL
 62
4
 10
606.657
 20
-1991.159
 30
4226.926
 70
    32
  0
VERTEX
  8
T10SSILL
 62
4
 10
601.617
 20
-1976.156
 30
4226.915
 70
    32
  0
VERTEX
  8
T10SSILL
 62
4
 10
610.563
 20
-1971.620
 30
4226.907
 70
    32
  0
VERTEX
  8
T10SSILL
 62
4
 10
622.484
 20
-1959.445
 30
4226.891
 70
    32
  0
VERTEX
  8
T10SSILL
 62
4
 10
623.560
 20
-1956.860
 30
4226.888
 70
    32
  0
VERTEX
  8
T10SSILL
 62
4
 10
621.227
 20
-1958.421
 30
4226.890
 70
    32
  0
SEQEND
  8
T10SSILL
  0
POLYLINE
  8
T10SSILL
 62
4
 66
     1
 70
     9
  0
VERTEX
  8
T10SSILL
 62
4
 10
561.609
 20
-1922.188
 30
4226.893
 70
    32
  0
VERTEX
  8
T10SSILL
 62
4
 10
568.597
 20
-1914.292
 30
4226.900
 70
    32
  0
VERTEX
  8
T10SSILL
 62
4
 10
581.262
 20
-1909.917
 30
4226.892
 70
    32
  0
VERTEX
  8
T10SSILL
 62
4
 10
590.842
 20
-1903.534
 30
4226.893
 70
    32
  0
VERTEX
  8
T10SSILL
 62
4
 10
595.796
 20
-1898.833
 30
4226.895
 70
    32
  0
VERTEX
  8
T10SSILL
 62
4
 10
598.113
 20
-1894.585
 30
4226.901
 70
    32
  0
VERTEX
  8
T10SSILL
 62
4
 10
598.488
 20
-1890.500
 30
4226.908
 70
    32
  0
VERTEX
  8
T10SSILL
 62
4
 10
589.034
 20
-1876.461
 30
4226.919
 70
    32
  0
VERTEX
  8
T10SSILL
 62
4
 10
585.019
 20
-1872.694
 30
4226.888
 70
    32
  0
VERTEX
  8
T10SSILL
 62
4
 10
561.250
 20
-1889.697
 30
4226.925
 70
    32
  0
VERTEX
  8
T10SSILL
 62
4
 10
558.219
 20
-1885.749
 30
4226.895
 70
    32
  0
VERTEX
  8
T10SSILL
 62
4
 10
581.123
 20
-1869.037
 30
4226.857
 70
    32
  0
VERTEX
  8
T10SSILL
 62
4
 10
567.643
 20
-1861.320
 30
4226.780
 70
    32
  0
VERTEX
  8
T10SSILL
 62
4
 10
562.219
 20
-1851.349
 30
4226.730
 70
    32
  0
VERTEX
  8
T10SSILL
 62
4
 10
511.598
 20
-1888.497
 30
4226.816
 70
    32
  0
VERTEX
  8
T10SSILL
 62
4
 10
509.090
 20
-1894.698
 30
4226.830
 70
    32
  0
VERTEX
  8
T10SSILL
 62
4
 10
511.710
 20
-1905.395
 30
4226.889
 70
    32
  0
VERTEX
  8
T10SSILL
 62
4
 10
514.974
 20
-1909.784
 30
4226.922
 70
    32
  0
VERTEX
  8
T10SSILL
 62
4
 10
519.819
 20
-1927.633
 30
4226.935
 70
    32
  0
VERTEX
  8
T10SSILL
 62
4
 10
523.455
 20
-1949.797
 30
4226.929
 70
    32
  0
VERTEX
  8
T10SSILL
 62
4
 10
556.249
 20
-1926.067
 30
4226.893
 70
    32
  0
SEQEND
  8
T10SSILL
  0
POLYLINE
  8
T10SSILL
 62
4
 66
     1
 70
     9
  0
VERTEX
  8
T10SSILL
 62
4
 10
490.081
 20
-1755.886
 30
4226.756
 70
    32
  0
VERTEX
  8
T10SSILL
 62
4
 10
511.386
 20
-1741.071
 30
4226.703
 70
    32
  0
VERTEX
  8
T10SSILL
 62
4
 10
514.857
 20
-1746.249
 30
4226.697
 70
    32
  0
VERTEX
  8
T10SSILL
 62
4
 10
515.917
 20
-1755.500
 30
4226.698
 70
    32
  0
VERTEX
  8
T10SSILL
 62
4
 10
518.358
 20
-1763.815
 30
4226.696
 70
    32
  0
VERTEX
  8
T10SSILL
 62
4
 10
522.261
 20
-1768.710
 30
4226.689
 70
    32
  0
VERTEX
  8
T10SSILL
 62
4
 10
525.410
 20
-1779.387
 30
4226.686
 70
    32
  0
VERTEX
  8
T10SSILL
 62
4
 10
530.971
 20
-1785.990
 30
4226.676
 70
    32
  0
VERTEX
  8
T10SSILL
 62
4
 10
534.148
 20
-1797.373
 30
4226.673
 70
    32
  0
VERTEX
  8
T10SSILL
 62
4
 10
534.413
 20
-1804.354
 30
4226.675
 70
    32
  0
VERTEX
  8
T10SSILL
 62
4
 10
537.413
 20
-1808.753
 30
4226.670
 70
    32
  0
VERTEX
  8
T10SSILL
 62
4
 10
544.098
 20
-1826.287
 30
4226.677
 70
    32
  0
VERTEX
  8
T10SSILL
 62
4
 10
552.849
 20
-1826.042
 30
4226.676
 70
    32
  0
VERTEX
  8
T10SSILL
 62
4
 10
553.997
 20
-1837.591
 30
4226.701
 70
    32
  0
VERTEX
  8
T10SSILL
 62
4
 10
557.981
 20
-1844.608
 30
4226.716
 70
    32
  0
VERTEX
  8
T10SSILL
 62
4
 10
502.303
 20
-1886.107
 30
4226.812
 70
    32
  0
VERTEX
  8
T10SSILL
 62
4
 10
495.911
 20
-1883.253
 30
4226.807
 70
    32
  0
VERTEX
  8
T10SSILL
 62
4
 10
491.386
 20
-1878.292
 30
4226.799
 70
    32
  0
VERTEX
  8
T10SSILL
 62
4
 10
483.469
 20
-1865.585
 30
4226.812
 70
    32
  0
VERTEX
  8
T10SSILL
 62
4
 10
482.435
 20
-1852.350
 30
4226.809
 70
    32
  0
VERTEX
  8
T10SSILL
 62
4
 10
478.749
 20
-1839.216
 30
4226.813
 70
    32
  0
VERTEX
  8
T10SSILL
 62
4
 10
472.394
 20
-1821.050
 30
4226.820
 70
    32
  0
VERTEX
  8
T10SSILL
 62
4
 10
464.819
 20
-1807.398
 30
4226.832
 70
    32
  0
VERTEX
  8
T10SSILL
 62
4
 10
471.730
 20
-1803.091
 30
4226.815
 70
    32
  0
VERTEX
  8
T10SSILL
 62
4
 10
454.960
 20
-1780.309
 30
4226.844
 70
    32
  0
VERTEX
  8
T10SSILL
 62
4
 10
469.069
 20
-1770.498
 30
4226.809
 70
    32
  0
VERTEX
  8
T10SSILL
 62
4
 10
488.858
 20
-1798.752
 30
4226.775
 70
    32
  0
VERTEX
  8
T10SSILL
 62
4
 10
495.115
 20
-1794.774
 30
4226.759
 70
    32
  0
VERTEX
  8
T10SSILL
 62
4
 10
496.454
 20
-1795.554
 30
4226.757
 70
    32
  0
VERTEX
  8
T10SSILL
 62
4
 10
504.359
 20
-1810.781
 30
4226.745
 70
    32
  0
VERTEX
  8
T10SSILL
 62
4
 10
510.864
 20
-1806.824
 30
4226.729
 70
    32
  0
VERTEX
  8
T10SSILL
 62
4
 10
502.504
 20
-1791.259
 30
4226.741
 70
    32
  0
VERTEX
  8
T10SSILL
 62
4
 10
500.932
 20
-1789.454
 30
4226.744
 70
    32
  0
VERTEX
  8
T10SSILL
 62
4
 10
497.658
 20
-1788.749
 30
4226.751
 70
    32
  0
VERTEX
  8
T10SSILL
 62
4
 10
496.517
 20
-1786.946
 30
4226.753
 70
    32
  0
VERTEX
  8
T10SSILL
 62
4
 10
501.427
 20
-1783.498
 30
4226.741
 70
    32
  0
VERTEX
  8
T10SSILL
 62
4
 10
497.494
 20
-1777.898
 30
4226.748
 70
    32
  0
VERTEX
  8
T10SSILL
 62
4
 10
503.040
 20
-1774.133
 30
4226.734
 70
    32
  0
SEQEND
  8
T10SSILL
  0
POLYLINE
  8
T10SSILL
 62
4
 66
     1
 70
     9
  0
VERTEX
  8
T10SSILL
 62
4
 10
450.514
 20
-1794.479
 30
4226.859
 70
    32
  0
VERTEX
  8
T10SSILL
 62
4
 10
431.042
 20
-1787.845
 30
4226.901
 70
    32
  0
VERTEX
  8
T10SSILL
 62
4
 10
398.157
 20
-1760.867
 30
4226.964
 70
    32
  0
VERTEX
  8
T10SSILL
 62
4
 10
397.040
 20
-1724.537
 30
4226.953
 70
    32
  0
VERTEX
  8
T10SSILL
 62
4
 10
360.711
 20
-1658.221
 30
4226.859
 70
    32
  0
VERTEX
  8
T10SSILL
 62
4
 10
367.250
 20
-1650.981
 30
4226.828
 70
    32
  0
VERTEX
  8
T10SSILL
 62
4
 10
366.341
 20
-1629.422
 30
4226.843
 70
    32
  0
VERTEX
  8
T10SSILL
 62
4
 10
345.242
 20
-1595.889
 30
4227.026
 70
    32
  0
VERTEX
  8
T10SSILL
 62
4
 10
339.963
 20
-1596.709
 30
4227.062
 70
    32
  0
VERTEX
  8
T10SSILL
 62
4
 10
330.305
 20
-1603.360
 30
4227.121
 70
    32
  0
VERTEX
  8
T10SSILL
 62
4
 10
327.844
 20
-1603.808
 30
4227.138
 70
    32
  0
VERTEX
  8
T10SSILL
 62
4
 10
322.910
 20
-1602.049
 30
4227.174
 70
    32
  0
VERTEX
  8
T10SSILL
 62
4
 10
319.257
 20
-1582.807
 30
4227.221
 70
    32
  0
VERTEX
  8
T10SSILL
 62
4
 10
321.943
 20
-1571.997
 30
4227.215
 70
    32
  0
VERTEX
  8
T10SSILL
 62
4
 10
325.620
 20
-1566.282
 30
4227.196
 70
    32
  0
VERTEX
  8
T10SSILL
 62
4
 10
388.695
 20
-1519.191
 30
4226.811
 70
    32
  0
VERTEX
  8
T10SSILL
 62
4
 10
400.908
 20
-1540.142
 30
4226.703
 70
    32
  0
VERTEX
  8
T10SSILL
 62
4
 10
404.318
 20
-1555.322
 30
4226.662
 70
    32
  0
VERTEX
  8
T10SSILL
 62
4
 10
413.070
 20
-1569.060
 30
4226.586
 70
    32
  0
VERTEX
  8
T10SSILL
 62
4
 10
424.682
 20
-1581.185
 30
4226.539
 70
    32
  0
VERTEX
  8
T10SSILL
 62
4
 10
428.590
 20
-1590.859
 30
4226.565
 70
    32
  0
VERTEX
  8
T10SSILL
 62
4
 10
429.814
 20
-1597.450
 30
4226.584
 70
    32
  0
VERTEX
  8
T10SSILL
 62
4
 10
431.679
 20
-1599.945
 30
4226.590
 70
    32
  0
VERTEX
  8
T10SSILL
 62
4
 10
431.688
 20
-1602.511
 30
4226.598
 70
    32
  0
VERTEX
  8
T10SSILL
 62
4
 10
420.186
 20
-1614.188
 30
4226.649
 70
    32
  0
VERTEX
  8
T10SSILL
 62
4
 10
414.363
 20
-1616.976
 30
4226.665
 70
    32
  0
VERTEX
  8
T10SSILL
 62
4
 10
420.855
 20
-1624.782
 30
4226.682
 70
    32
  0
VERTEX
  8
T10SSILL
 62
4
 10
434.257
 20
-1611.882
 30
4226.625
 70
    32
  0
VERTEX
  8
T10SSILL
 62
4
 10
473.056
 20
-1589.609
 30
4226.509
 70
    32
  0
VERTEX
  8
T10SSILL
 62
4
 10
474.265
 20
-1596.610
 30
4226.530
 70
    32
  0
VERTEX
  8
T10SSILL
 62
4
 10
473.365
 20
-1597.307
 30
4226.533
 70
    32
  0
VERTEX
  8
T10SSILL
 62
4
 10
476.274
 20
-1601.171
 30
4226.542
 70
    32
  0
VERTEX
  8
T10SSILL
 62
4
 10
474.372
 20
-1602.584
 30
4226.548
 70
    32
  0
VERTEX
  8
T10SSILL
 62
4
 10
471.939
 20
-1597.092
 30
4226.534
 70
    32
  0
VERTEX
  8
T10SSILL
 62
4
 10
466.006
 20
-1599.699
 30
4226.549
 70
    32
  0
VERTEX
  8
T10SSILL
 62
4
 10
468.435
 20
-1604.793
 30
4226.562
 70
    32
  0
VERTEX
  8
T10SSILL
 62
4
 10
463.022
 20
-1607.432
 30
4226.577
 70
    32
  0
VERTEX
  8
T10SSILL
 62
4
 10
475.173
 20
-1635.101
 30
4226.651
 70
    32
  0
VERTEX
  8
T10SSILL
 62
4
 10
475.755
 20
-1639.595
 30
4226.664
 70
    32
  0
VERTEX
  8
T10SSILL
 62
4
 10
470.124
 20
-1645.119
 30
4226.688
 70
    32
  0
VERTEX
  8
T10SSILL
 62
4
 10
486.040
 20
-1686.637
 30
4226.739
 70
    32
  0
VERTEX
  8
T10SSILL
 62
4
 10
500.637
 20
-1695.816
 30
4226.710
 70
    32
  0
VERTEX
  8
T10SSILL
 62
4
 10
501.687
 20
-1697.812
 30
4226.708
 70
    32
  0
VERTEX
  8
T10SSILL
 62
4
 10
505.750
 20
-1709.250
 30
4226.704
 70
    32
  0
VERTEX
  8
T10SSILL
 62
4
 10
504.093
 20
-1714.535
 30
4226.709
 70
    32
  0
VERTEX
  8
T10SSILL
 62
4
 10
509.560
 20
-1734.946
 30
4226.705
 70
    32
  0
VERTEX
  8
T10SSILL
 62
4
 10
486.438
 20
-1750.756
 30
4226.762
 70
    32
  0
VERTEX
  8
T10SSILL
 62
4
 10
478.671
 20
-1739.821
 30
4226.776
 70
    32
  0
VERTEX
  8
T10SSILL
 62
4
 10
465.508
 20
-1748.911
 30
4226.809
 70
    32
  0
VERTEX
  8
T10SSILL
 62
4
 10
457.231
 20
-1731.893
 30
4226.821
 70
    32
  0
VERTEX
  8
T10SSILL
 62
4
 10
456.737
 20
-1728.195
 30
4226.821
 70
    32
  0
VERTEX
  8
T10SSILL
 62
4
 10
458.359
 20
-1724.328
 30
4226.816
 70
    32
  0
VERTEX
  8
T10SSILL
 62
4
 10
462.433
 20
-1719.748
 30
4226.805
 70
    32
  0
VERTEX
  8
T10SSILL
 62
4
 10
472.609
 20
-1710.423
 30
4226.778
 70
    32
  0
VERTEX
  8
T10SSILL
 62
4
 10
466.609
 20
-1706.226
 30
4226.790
 70
    32
  0
VERTEX
  8
T10SSILL
 62
4
 10
457.210
 20
-1717.381
 30
4226.816
 70
    32
  0
VERTEX
  8
T10SSILL
 62
4
 10
443.984
 20
-1730.273
 30
4226.850
 70
    32
  0
VERTEX
  8
T10SSILL
 62
4
 10
442.408
 20
-1735.377
 30
4226.855
 70
    32
  0
VERTEX
  8
T10SSILL
 62
4
 10
445.561
 20
-1739.151
 30
4226.850
 70
    32
  0
VERTEX
  8
T10SSILL
 62
4
 10
458.442
 20
-1747.422
 30
4226.824
 70
    32
  0
VERTEX
  8
T10SSILL
 62
4
 10
460.995
 20
-1752.027
 30
4226.820
 70
    32
  0
VERTEX
  8
T10SSILL
 62
4
 10
454.974
 20
-1756.185
 30
4226.835
 70
    32
  0
VERTEX
  8
T10SSILL
 62
4
 10
457.738
 20
-1760.637
 30
4226.830
 70
    32
  0
VERTEX
  8
T10SSILL
 62
4
 10
442.069
 20
-1771.984
 30
4226.870
 70
    32
  0
VERTEX
  8
T10SSILL
 62
4
 10
445.362
 20
-1776.735
 30
4226.864
 70
    32
  0
VERTEX
  8
T10SSILL
 62
4
 10
440.687
 20
-1780.365
 30
4226.876
 70
    32
  0
SEQEND
  8
T10SSILL
  0
POLYLINE
  8
T10SSILL
 62
4
 66
     1
 70
     9
  0
VERTEX
  8
T10SSILL
 62
4
 10
294.497
 20
-1561.936
 30
4227.341
 70
    32
  0
VERTEX
  8
T10SSILL
 62
4
 10
296.386
 20
-1560.845
 30
4227.330
 70
    32
  0
VERTEX
  8
T10SSILL
 62
4
 10
290.857
 20
-1550.436
 30
4227.328
 70
    32
  0
VERTEX
  8
T10SSILL
 62
4
 10
287.316
 20
-1552.533
 30
4227.348
 70
    32
  0
VERTEX
  8
T10SSILL
 62
4
 10
286.531
 20
-1550.690
 30
4227.347
 70
    32
  0
VERTEX
  8
T10SSILL
 62
4
 10
289.049
 20
-1535.461
 30
4227.298
 70
    32
  0
VERTEX
  8
T10SSILL
 62
4
 10
284.918
 20
-1522.255
 30
4227.283
 70
    32
  0
VERTEX
  8
T10SSILL
 62
4
 10
273.865
 20
-1496.924
 30
4227.266
 70
    32
  0
VERTEX
  8
T10SSILL
 62
4
 10
277.135
 20
-1487.507
 30
4227.229
 70
    32
  0
VERTEX
  8
T10SSILL
 62
4
 10
273.662
 20
-1477.639
 30
4227.219
 70
    32
  0
VERTEX
  8
T10SSILL
 62
4
 10
244.734
 20
-1498.829
 30
4227.395
 70
    32
  0
VERTEX
  8
T10SSILL
 62
4
 10
242.830
 20
-1518.547
 30
4227.453
 70
    32
  0
VERTEX
  8
T10SSILL
 62
4
 10
273.339
 20
-1594.731
 30
4227.513
 70
    32
  0
VERTEX
  8
T10SSILL
 62
4
 10
295.376
 20
-1578.495
 30
4227.379
 70
    32
  0
VERTEX
  8
T10SSILL
 62
4
 10
297.924
 20
-1573.353
 30
4227.355
 70
    32
  0
SEQEND
  8
T10SSILL
  0
POLYLINE
  8
T10SSILL
 62
4
 66
     1
 70
     9
  0
VERTEX
  8
T10SSILL
 62
4
 10
213.586
 20
-1447.713
 30
4227.392
 70
    32
  0
VERTEX
  8
T10SSILL
 62
4
 10
231.774
 20
-1493.127
 30
4227.434
 70
    32
  0
VERTEX
  8
T10SSILL
 62
4
 10
240.988
 20
-1493.396
 30
4227.397
 70
    32
  0
VERTEX
  8
T10SSILL
 62
4
 10
269.341
 20
-1473.379
 30
4227.227
 70
    32
  0
VERTEX
  8
T10SSILL
 62
4
 10
257.125
 20
-1450.039
 30
4227.220
 70
    32
  0
VERTEX
  8
T10SSILL
 62
4
 10
244.719
 20
-1435.643
 30
4227.253
 70
    32
  0
VERTEX
  8
T10SSILL
 62
4
 10
245.479
 20
-1430.039
 30
4227.270
 70
    32
  0
VERTEX
  8
T10SSILL
 62
4
 10
242.857
 20
-1426.245
 30
4227.299
 70
    32
  0
VERTEX
  8
T10SSILL
 62
4
 10
214.696
 20
-1446.899
 30
4227.393
 70
    32
  0
SEQEND
  8
T10SSILL
  0
POLYLINE
  8
T10SSILL
 62
4
 66
     1
 70
     9
  0
VERTEX
  8
T10SSILL
 62
4
 10
390.791
 20
-1443.207
 30
4226.634
 70
    32
  0
VERTEX
  8
T10SSILL
 62
4
 10
392.682
 20
-1442.579
 30
4226.624
 70
    32
  0
VERTEX
  8
T10SSILL
 62
4
 10
396.562
 20
-1437.564
 30
4226.595
 70
    32
  0
VERTEX
  8
T10SSILL
 62
4
 10
243.043
 20
-1277.654
 30
4227.288
 70
    32
  0
VERTEX
  8
T10SSILL
 62
4
 10
192.650
 20
-1313.820
 30
4227.292
 70
    32
  0
VERTEX
  8
T10SSILL
 62
4
 10
206.982
 20
-1330.000
 30
4227.335
 70
    32
  0
VERTEX
  8
T10SSILL
 62
4
 10
214.826
 20
-1340.763
 30
4227.338
 70
    32
  0
VERTEX
  8
T10SSILL
 62
4
 10
204.451
 20
-1361.158
 30
4227.339
 70
    32
  0
VERTEX
  8
T10SSILL
 62
4
 10
180.133
 20
-1387.216
 30
4227.283
 70
    32
  0
VERTEX
  8
T10SSILL
 62
4
 10
173.800
 20
-1364.979
 30
4227.259
 70
    32
  0
VERTEX
  8
T10SSILL
 62
4
 10
161.108
 20
-1336.082
 30
4227.216
 70
    32
  0
VERTEX
  8
T10SSILL
 62
4
 10
134.311
 20
-1355.155
 30
4227.152
 70
    32
  0
VERTEX
  8
T10SSILL
 62
4
 10
209.989
 20
-1441.567
 30
4227.382
 70
    32
  0
VERTEX
  8
T10SSILL
 62
4
 10
238.220
 20
-1420.669
 30
4227.333
 70
    32
  0
VERTEX
  8
T10SSILL
 62
4
 10
223.973
 20
-1395.105
 30
4227.359
 70
    32
  0
VERTEX
  8
T10SSILL
 62
4
 10
230.933
 20
-1387.318
 30
4227.351
 70
    32
  0
VERTEX
  8
T10SSILL
 62
4
 10
248.714
 20
-1382.483
 30
4227.337
 70
    32
  0
VERTEX
  8
T10SSILL
 62
4
 10
253.873
 20
-1390.162
 30
4227.323
 70
    32
  0
VERTEX
  8
T10SSILL
 62
4
 10
257.127
 20
-1401.550
 30
4227.293
 70
    32
  0
VERTEX
  8
T10SSILL
 62
4
 10
259.290
 20
-1399.956
 30
4227.287
 70
    32
  0
VERTEX
  8
T10SSILL
 62
4
 10
263.066
 20
-1405.178
 30
4227.265
 70
    32
  0
VERTEX
  8
T10SSILL
 62
4
 10
283.783
 20
-1387.785
 30
4227.215
 70
    32
  0
VERTEX
  8
T10SSILL
 62
4
 10
288.624
 20
-1394.061
 30
4227.178
 70
    32
  0
VERTEX
  8
T10SSILL
 62
4
 10
261.953
 20
-1414.103
 30
4227.243
 70
    32
  0
VERTEX
  8
T10SSILL
 62
4
 10
269.548
 20
-1425.318
 30
4227.160
 70
    32
  0
VERTEX
  8
T10SSILL
 62
4
 10
275.724
 20
-1431.809
 30
4227.102
 70
    32
  0
VERTEX
  8
T10SSILL
 62
4
 10
282.288
 20
-1443.860
 30
4227.098
 70
    32
  0
VERTEX
  8
T10SSILL
 62
4
 10
291.712
 20
-1454.298
 30
4227.084
 70
    32
  0
VERTEX
  8
T10SSILL
 62
4
 10
294.138
 20
-1455.267
 30
4227.076
 70
    32
  0
VERTEX
  8
T10SSILL
 62
4
 10
292.940
 20
-1460.977
 30
4227.095
 70
    32
  0
VERTEX
  8
T10SSILL
 62
4
 10
305.351
 20
-1487.141
 30
4227.108
 70
    32
  0
VERTEX
  8
T10SSILL
 62
4
 10
304.791
 20
-1502.650
 30
4227.149
 70
    32
  0
VERTEX
  8
T10SSILL
 62
4
 10
307.013
 20
-1512.211
 30
4227.163
 70
    32
  0
VERTEX
  8
T10SSILL
 62
4
 10
304.689
 20
-1527.875
 30
4227.212
 70
    32
  0
VERTEX
  8
T10SSILL
 62
4
 10
306.151
 20
-1552.332
 30
4227.267
 70
    32
  0
VERTEX
  8
T10SSILL
 62
4
 10
307.494
 20
-1559.715
 30
4227.280
 70
    32
  0
VERTEX
  8
T10SSILL
 62
4
 10
310.611
 20
-1564.906
 30
4227.280
 70
    32
  0
VERTEX
  8
T10SSILL
 62
4
 10
313.398
 20
-1566.039
 30
4227.271
 70
    32
  0
VERTEX
  8
T10SSILL
 62
4
 10
375.603
 20
-1519.335
 30
4226.889
 70
    32
  0
VERTEX
  8
T10SSILL
 62
4
 10
378.521
 20
-1514.623
 30
4226.865
 70
    32
  0
VERTEX
  8
T10SSILL
 62
4
 10
379.965
 20
-1508.373
 30
4226.843
 70
    32
  0
VERTEX
  8
T10SSILL
 62
4
 10
367.437
 20
-1483.806
 30
4226.835
 70
    32
  0
VERTEX
  8
T10SSILL
 62
4
 10
369.289
 20
-1476.655
 30
4226.809
 70
    32
  0
VERTEX
  8
T10SSILL
 62
4
 10
365.786
 20
-1465.992
 30
4226.797
 70
    32
  0
VERTEX
  8
T10SSILL
 62
4
 10
364.573
 20
-1455.065
 30
4226.775
 70
    32
  0
VERTEX
  8
T10SSILL
 62
4
 10
362.384
 20
-1448.688
 30
4226.769
 70
    32
  0
VERTEX
  8
T10SSILL
 62
4
 10
374.624
 20
-1444.771
 30
4226.707
 70
    32
  0
VERTEX
  8
T10SSILL
 62
4
 10
390.384
 20
-1444.968
 30
4226.640
 70
    32
  0
SEQEND
  8
T10SSILL
  0
POLYLINE
  8
T10SSILL
 62
4
 66
     1
 70
     9
  0
VERTEX
  8
T10SSILL
 62
4
 10
95.513
 20
-1309.994
 30
4227.034
 70
    32
  0
VERTEX
  8
T10SSILL
 62
4
 10
130.666
 20
-1350.072
 30
4227.140
 70
    32
  0
VERTEX
  8
T10SSILL
 62
4
 10
156.929
 20
-1330.931
 30
4227.203
 70
    32
  0
VERTEX
  8
T10SSILL
 62
4
 10
137.207
 20
-1305.664
 30
4227.143
 70
    32
  0
VERTEX
  8
T10SSILL
 62
4
 10
126.864
 20
-1289.686
 30
4227.110
 70
    32
  0
VERTEX
  8
T10SSILL
 62
4
 10
125.485
 20
-1288.322
 30
4227.106
 70
    32
  0
VERTEX
  8
T10SSILL
 62
4
 10
120.202
 20
-1291.355
 30
4227.093
 70
    32
  0
SEQEND
  8
T10SSILL
  0
POLYLINE
  8
T10SSILL
 62
4
 66
     1
 70
     9
  0
VERTEX
  8
T10SSILL
 62
4
 10
100.945
 20
-1231.822
 30
4227.049
 70
    32
  0
VERTEX
  8
T10SSILL
 62
4
 10
113.805
 20
-1241.864
 30
4227.060
 70
    32
  0
VERTEX
  8
T10SSILL
 62
4
 10
117.630
 20
-1240.037
 30
4227.069
 70
    32
  0
VERTEX
  8
T10SSILL
 62
4
 10
118.122
 20
-1232.054
 30
4227.068
 70
    32
  0
VERTEX
  8
T10SSILL
 62
4
 10
112.413
 20
-1223.864
 30
4227.069
 70
    32
  0
SEQEND
  8
T10SSILL
  0
POLYLINE
  8
T10SSILL
 62
4
 66
     1
 70
     9
  0
VERTEX
  8
T10SSILL
 62
4
 10
70.603
 20
-1253.066
 30
4226.997
 70
    32
  0
VERTEX
  8
T10SSILL
 62
4
 10
68.931
 20
-1278.881
 30
4226.957
 70
    32
  0
VERTEX
  8
T10SSILL
 62
4
 10
92.314
 20
-1304.983
 30
4227.024
 70
    32
  0
VERTEX
  8
T10SSILL
 62
4
 10
123.547
 20
-1281.582
 30
4227.099
 70
    32
  0
VERTEX
  8
T10SSILL
 62
4
 10
123.147
 20
-1278.057
 30
4227.096
 70
    32
  0
VERTEX
  8
T10SSILL
 62
4
 10
112.027
 20
-1260.250
 30
4227.061
 70
    32
  0
VERTEX
  8
T10SSILL
 62
4
 10
113.742
 20
-1256.468
 30
4227.064
 70
    32
  0
VERTEX
  8
T10SSILL
 62
4
 10
111.610
 20
-1249.293
 30
4227.056
 70
    32
  0
VERTEX
  8
T10SSILL
 62
4
 10
101.108
 20
-1240.754
 30
4227.036
 70
    32
  0
VERTEX
  8
T10SSILL
 62
4
 10
92.306
 20
-1239.673
 30
4227.032
 70
    32
  0
VERTEX
  8
T10SSILL
 62
4
 10
88.003
 20
-1240.545
 30
4227.028
 70
    32
  0
SEQEND
  8
T10SSILL
  0
POLYLINE
  8
T10SSILL
 62
4
 66
     1
 70
     9
  0
VERTEX
  8
T10SSILL
 62
4
 10
188.988
 20
-1308.295
 30
4227.281
 70
    32
  0
VERTEX
  8
T10SSILL
 62
4
 10
238.097
 20
-1273.241
 30
4227.289
 70
    32
  0
VERTEX
  8
T10SSILL
 62
4
 10
200.119
 20
-1233.358
 30
4227.285
 70
    32
  0
VERTEX
  8
T10SSILL
 62
4
 10
182.403
 20
-1246.864
 30
4227.243
 70
    32
  0
VERTEX
  8
T10SSILL
 62
4
 10
181.244
 20
-1253.634
 30
4227.242
 70
    32
  0
VERTEX
  8
T10SSILL
 62
4
 10
188.086
 20
-1277.621
 30
4227.268
 70
    32
  0
VERTEX
  8
T10SSILL
 62
4
 10
177.878
 20
-1290.753
 30
4227.245
 70
    32
  0
SEQEND
  8
T10SSILL
  0
POLYLINE
  8
T10SSILL
 62
4
 66
     1
 70
     9
  0
VERTEX
  8
T10SSILL
 62
4
 10
124.981
 20
-1214.625
 30
4227.091
 70
    32
  0
VERTEX
  8
T10SSILL
 62
4
 10
118.607
 20
-1219.203
 30
4227.080
 70
    32
  0
VERTEX
  8
T10SSILL
 62
4
 10
118.082
 20
-1221.701
 30
4227.076
 70
    32
  0
VERTEX
  8
T10SSILL
 62
4
 10
121.933
 20
-1229.873
 30
4227.077
 70
    32
  0
VERTEX
  8
T10SSILL
 62
4
 10
131.248
 20
-1239.784
 30
4227.105
 70
    32
  0
VERTEX
  8
T10SSILL
 62
4
 10
135.952
 20
-1240.136
 30
4227.118
 70
    32
  0
VERTEX
  8
T10SSILL
 62
4
 10
135.571
 20
-1232.452
 30
4227.114
 70
    32
  0
VERTEX
  8
T10SSILL
 62
4
 10
127.247
 20
-1217.846
 30
4227.087
 70
    32
  0
SEQEND
  8
T10SSILL
  0
POLYLINE
  8
T10SSILL
 62
4
 66
     1
 70
     9
  0
VERTEX
  8
T10SSILL
 62
4
 10
298.417
 20
-1239.795
 30
4227.233
 70
    32
  0
VERTEX
  8
T10SSILL
 62
4
 10
298.177
 20
-1252.105
 30
4227.239
 70
    32
  0
VERTEX
  8
T10SSILL
 62
4
 10
300.641
 20
-1261.038
 30
4227.242
 70
    32
  0
VERTEX
  8
T10SSILL
 62
4
 10
304.768
 20
-1267.164
 30
4227.243
 70
    32
  0
VERTEX
  8
T10SSILL
 62
4
 10
337.507
 20
-1243.794
 30
4227.209
 70
    32
  0
VERTEX
  8
T10SSILL
 62
4
 10
335.121
 20
-1227.602
 30
4227.203
 70
    32
  0
VERTEX
  8
T10SSILL
 62
4
 10
325.452
 20
-1220.005
 30
4227.206
 70
    32
  0
SEQEND
  8
T10SSILL
  0
POLYLINE
  8
T10SSILL
 62
4
 66
     1
 70
     9
  0
VERTEX
  8
T10SSILL
 62
4
 10
299.750
 20
-1312.045
 30
4227.268
 70
    32
  0
VERTEX
  8
T10SSILL
 62
4
 10
298.110
 20
-1324.762
 30
4227.262
 70
    32
  0
VERTEX
  8
T10SSILL
 62
4
 10
328.988
 20
-1357.127
 30
4227.094
 70
    32
  0
VERTEX
  8
T10SSILL
 62
4
 10
345.212
 20
-1343.943
 30
4227.055
 70
    32
  0
VERTEX
  8
T10SSILL
 62
4
 10
342.703
 20
-1338.464
 30
4227.073
 70
    32
  0
VERTEX
  8
T10SSILL
 62
4
 10
336.548
 20
-1330.202
 30
4227.109
 70
    32
  0
VERTEX
  8
T10SSILL
 62
4
 10
317.924
 20
-1310.557
 30
4227.210
 70
    32
  0
VERTEX
  8
T10SSILL
 62
4
 10
312.598
 20
-1303.149
 30
4227.242
 70
    32
  0
VERTEX
  8
T10SSILL
 62
4
 10
311.510
 20
-1302.482
 30
4227.247
 70
    32
  0
VERTEX
  8
T10SSILL
 62
4
 10
305.723
 20
-1307.153
 30
4227.262
 70
    32
  0
SEQEND
  8
T10SSILL
  0
POLYLINE
  8
T10SSILL
 62
4
 66
     1
 70
     9
  0
VERTEX
  8
T10SSILL
 62
4
 10
392.750
 20
-1451.338
 30
4226.646
 70
    32
  0
VERTEX
  8
T10SSILL
 62
4
 10
387.009
 20
-1460.937
 30
4226.694
 70
    32
  0
VERTEX
  8
T10SSILL
 62
4
 10
383.429
 20
-1471.516
 30
4226.736
 70
    32
  0
VERTEX
  8
T10SSILL
 62
4
 10
383.926
 20
-1479.904
 30
4226.755
 70
    32
  0
VERTEX
  8
T10SSILL
 62
4
 10
396.704
 20
-1497.117
 30
4226.744
 70
    32
  0
VERTEX
  8
T10SSILL
 62
4
 10
404.531
 20
-1498.146
 30
4226.713
 70
    32
  0
VERTEX
  8
T10SSILL
 62
4
 10
421.683
 20
-1486.078
 30
4226.610
 70
    32
  0
VERTEX
  8
T10SSILL
 62
4
 10
426.399
 20
-1479.792
 30
4226.574
 70
    32
  0
VERTEX
  8
T10SSILL
 62
4
 10
428.808
 20
-1473.329
 30
4226.547
 70
    32
  0
VERTEX
  8
T10SSILL
 62
4
 10
400.822
 20
-1442.535
 30
4226.590
 70
    32
  0
VERTEX
  8
T10SSILL
 62
4
 10
396.310
 20
-1447.220
 30
4226.621
 70
    32
  0
SEQEND
  8
T10SSILL
  0
POLYLINE
  8
T10SSILL
 62
4
 66
     1
 70
     9
  0
VERTEX
  8
T10SSILL
 62
4
 10
494.998
 20
-1423.782
 30
4226.142
 70
    32
  0
VERTEX
  8
T10SSILL
 62
4
 10
471.347
 20
-1372.595
 30
4226.286
 70
    32
  0
VERTEX
  8
T10SSILL
 62
4
 10
457.893
 20
-1358.593
 30
4226.412
 70
    32
  0
VERTEX
  8
T10SSILL
 62
4
 10
451.985
 20
-1354.482
 30
4226.459
 70
    32
  0
VERTEX
  8
T10SSILL
 62
4
 10
446.530
 20
-1353.008
 30
4226.494
 70
    32
  0
VERTEX
  8
T10SSILL
 62
4
 10
434.001
 20
-1356.317
 30
4226.548
 70
    32
  0
VERTEX
  8
T10SSILL
 62
4
 10
421.726
 20
-1363.952
 30
4226.584
 70
    32
  0
VERTEX
  8
T10SSILL
 62
4
 10
415.405
 20
-1369.945
 30
4226.595
 70
    32
  0
VERTEX
  8
T10SSILL
 62
4
 10
419.530
 20
-1380.673
 30
4226.531
 70
    32
  0
VERTEX
  8
T10SSILL
 62
4
 10
418.982
 20
-1382.552
 30
4226.527
 70
    32
  0
VERTEX
  8
T10SSILL
 62
4
 10
423.763
 20
-1401.220
 30
4226.430
 70
    32
  0
VERTEX
  8
T10SSILL
 62
4
 10
402.214
 20
-1413.987
 30
4226.512
 70
    32
  0
VERTEX
  8
T10SSILL
 62
4
 10
394.874
 20
-1409.487
 30
4226.552
 70
    32
  0
VERTEX
  8
T10SSILL
 62
4
 10
382.617
 20
-1396.679
 30
4226.667
 70
    32
  0
VERTEX
  8
T10SSILL
 62
4
 10
370.092
 20
-1390.784
 30
4226.756
 70
    32
  0
VERTEX
  8
T10SSILL
 62
4
 10
365.315
 20
-1395.479
 30
4226.764
 70
    32
  0
VERTEX
  8
T10SSILL
 62
4
 10
412.492
 20
-1444.569
 30
4226.545
 70
    32
  0
VERTEX
  8
T10SSILL
 62
4
 10
426.171
 20
-1438.916
 30
4226.473
 70
    32
  0
VERTEX
  8
T10SSILL
 62
4
 10
437.673
 20
-1436.531
 30
4226.418
 70
    32
  0
VERTEX
  8
T10SSILL
 62
4
 10
447.114
 20
-1438.119
 30
4226.381
 70
    32
  0
VERTEX
  8
T10SSILL
 62
4
 10
462.579
 20
-1446.843
 30
4226.337
 70
    32
  0
SEQEND
  8
T10SSILL
  0
POLYLINE
  8
T10SSILL
 62
4
 66
     1
 70
     9
  0
VERTEX
  8
T10SSILL
 62
4
 10
358.597
 20
-1358.478
 30
4226.942
 70
    32
  0
VERTEX
  8
T10SSILL
 62
4
 10
362.856
 20
-1365.750
 30
4226.891
 70
    32
  0
VERTEX
  8
T10SSILL
 62
4
 10
366.553
 20
-1376.848
 30
4226.829
 70
    32
  0
VERTEX
  8
T10SSILL
 62
4
 10
366.179
 20
-1385.623
 30
4226.797
 70
    32
  0
VERTEX
  8
T10SSILL
 62
4
 10
360.796
 20
-1390.695
 30
4226.806
 70
    32
  0
VERTEX
  8
T10SSILL
 62
4
 10
333.156
 20
-1362.013
 30
4227.064
 70
    32
  0
VERTEX
  8
T10SSILL
 62
4
 10
352.461
 20
-1348.034
 30
4227.014
 70
    32
  0
SEQEND
  8
T10SSILL
  0
POLYLINE
  8
T10SSILL
 62
4
 66
     1
 70
     9
  0
VERTEX
  8
T10SSILL
 62
4
 10
518.178
 20
-1407.294
 30
4226.002
 70
    32
  0
VERTEX
  8
T10SSILL
 62
4
 10
560.233
 20
-1371.248
 30
4225.837
 70
    32
  0
VERTEX
  8
T10SSILL
 62
4
 10
569.990
 20
-1364.859
 30
4225.848
 70
    32
  0
VERTEX
  8
T10SSILL
 62
4
 10
596.066
 20
-1354.751
 30
4225.836
 70
    32
  0
VERTEX
  8
T10SSILL
 62
4
 10
503.897
 20
-1279.144
 30
4226.553
 70
    32
  0
VERTEX
  8
T10SSILL
 62
4
 10
461.657
 20
-1271.459
 30
4226.726
 70
    32
  0
VERTEX
  8
T10SSILL
 62
4
 10
439.433
 20
-1287.437
 30
4226.783
 70
    32
  0
VERTEX
  8
T10SSILL
 62
4
 10
500.570
 20
-1419.819
 30
4226.108
 70
    32
  0
SEQEND
  8
T10SSILL
  0
POLYLINE
  8
T10SSILL
 62
4
 66
     1
 70
     9
  0
VERTEX
  8
T10SSILL
 62
4
 10
518.337
 20
-1281.869
 30
4226.496
 70
    32
  0
VERTEX
  8
T10SSILL
 62
4
 10
602.647
 20
-1350.961
 30
4225.840
 70
    32
  0
VERTEX
  8
T10SSILL
 62
4
 10
634.757
 20
-1336.642
 30
4225.836
 70
    32
  0
VERTEX
  8
T10SSILL
 62
4
 10
654.250
 20
-1325.635
 30
4225.847
 70
    32
  0
VERTEX
  8
T10SSILL
 62
4
 10
653.201
 20
-1321.338
 30
4225.876
 70
    32
  0
VERTEX
  8
T10SSILL
 62
4
 10
640.803
 20
-1304.819
 30
4226.011
 70
    32
  0
SEQEND
  8
T10SSILL
  0
POLYLINE
  8
T10SSILL
 62
4
 66
     1
 70
     9
  0
VERTEX
  8
T10SSILL
 62
4
 10
368.140
 20
-1351.124
 30
4226.919
 70
    32
  0
VERTEX
  8
T10SSILL
 62
4
 10
361.221
 20
-1341.387
 30
4226.993
 70
    32
  0
VERTEX
  8
T10SSILL
 62
4
 10
377.189
 20
-1330.780
 30
4226.949
 70
    32
  0
VERTEX
  8
T10SSILL
 62
4
 10
379.760
 20
-1342.540
 30
4226.890
 70
    32
  0
VERTEX
  8
T10SSILL
 62
4
 10
378.232
 20
-1348.881
 30
4226.874
 70
    32
  0
VERTEX
  8
T10SSILL
 62
4
 10
371.240
 20
-1358.174
 30
4226.875
 70
    32
  0
SEQEND
  8
T10SSILL
  0
POLYLINE
  8
T10SSILL
 62
4
 66
     1
 70
     9
  0
VERTEX
  8
T10SSILL
 62
4
 10
659.626
 20
-1334.368
 30
4225.809
 70
    32
  0
VERTEX
  8
T10SSILL
 62
4
 10
620.841
 20
-1356.995
 30
4225.787
 70
    32
  0
VERTEX
  8
T10SSILL
 62
4
 10
593.637
 20
-1383.959
 30
4225.779
 70
    32
  0
VERTEX
  8
T10SSILL
 62
4
 10
571.689
 20
-1400.192
 30
4225.792
 70
    32
  0
VERTEX
  8
T10SSILL
 62
4
 10
482.197
 20
-1460.058
 30
4226.229
 70
    32
  0
VERTEX
  8
T10SSILL
 62
4
 10
449.779
 20
-1480.230
 30
4226.431
 70
    32
  0
VERTEX
  8
T10SSILL
 62
4
 10
450.412
 20
-1485.250
 30
4226.421
 70
    32
  0
VERTEX
  8
T10SSILL
 62
4
 10
466.178
 20
-1509.457
 30
4226.285
 70
    32
  0
VERTEX
  8
T10SSILL
 62
4
 10
475.796
 20
-1512.779
 30
4226.262
 70
    32
  0
VERTEX
  8
T10SSILL
 62
4
 10
476.052
 20
-1519.495
 30
4226.283
 70
    32
  0
VERTEX
  8
T10SSILL
 62
4
 10
479.112
 20
-1523.184
 30
4226.291
 70
    32
  0
VERTEX
  8
T10SSILL
 62
4
 10
654.221
 20
-1396.963
 30
4225.848
 70
    32
  0
VERTEX
  8
T10SSILL
 62
4
 10
674.221
 20
-1383.016
 30
4225.858
 70
    32
  0
VERTEX
  8
T10SSILL
 62
4
 10
679.017
 20
-1381.152
 30
4225.861
 70
    32
  0
VERTEX
  8
T10SSILL
 62
4
 10
679.582
 20
-1379.715
 30
4225.861
 70
    32
  0
VERTEX
  8
T10SSILL
 62
4
 10
677.939
 20
-1376.061
 30
4225.857
 70
    32
  0
SEQEND
  8
T10SSILL
  0
POLYLINE
  8
T10SSILL
 62
4
 66
     1
 70
     9
  0
VERTEX
  8
T10SSILL
 62
4
 10
441.877
 20
-1463.050
 30
4226.466
 70
    32
  0
VERTEX
  8
T10SSILL
 62
4
 10
456.698
 20
-1451.026
 30
4226.373
 70
    32
  0
VERTEX
  8
T10SSILL
 62
4
 10
453.445
 20
-1448.674
 30
4226.381
 70
    32
  0
VERTEX
  8
T10SSILL
 62
4
 10
441.117
 20
-1443.303
 30
4226.420
 70
    32
  0
VERTEX
  8
T10SSILL
 62
4
 10
439.723
 20
-1453.179
 30
4226.451
 70
    32
  0
VERTEX
  8
T10SSILL
 62
4
 10
433.673
 20
-1452.347
 30
4226.474
 70
    32
  0
VERTEX
  8
T10SSILL
 62
4
 10
433.432
 20
-1443.684
 30
4226.454
 70
    32
  0
VERTEX
  8
T10SSILL
 62
4
 10
419.713
 20
-1448.276
 30
4226.523
 70
    32
  0
VERTEX
  8
T10SSILL
 62
4
 10
417.830
 20
-1449.941
 30
4226.536
 70
    32
  0
VERTEX
  8
T10SSILL
 62
4
 10
434.806
 20
-1468.145
 30
4226.509
 70
    32
  0
SEQEND
  8
T10SSILL
  0
POLYLINE
  8
T10SSILL
 62
4
 66
     1
 70
     9
  0
VERTEX
  8
T10SSILL
 62
4
 10
292.569
 20
-1637.274
 30
4227.345
 70
    32
  0
VERTEX
  8
T10SSILL
 62
4
 10
292.229
 20
-1644.632
 30
4227.339
 70
    32
  0
VERTEX
  8
T10SSILL
 62
4
 10
302.870
 20
-1728.917
 30
4227.171
 70
    32
  0
VERTEX
  8
T10SSILL
 62
4
 10
348.327
 20
-1697.896
 30
4226.999
 70
    32
  0
VERTEX
  8
T10SSILL
 62
4
 10
339.152
 20
-1677.714
 30
4226.977
 70
    32
  0
VERTEX
  8
T10SSILL
 62
4
 10
332.293
 20
-1669.568
 30
4227.034
 70
    32
  0
VERTEX
  8
T10SSILL
 62
4
 10
330.811
 20
-1663.164
 30
4227.051
 70
    32
  0
VERTEX
  8
T10SSILL
 62
4
 10
323.824
 20
-1651.660
 30
4227.112
 70
    32
  0
SEQEND
  8
T10SSILL
  0
POLYLINE
  8
T10SSILL
 62
4
 66
     1
 70
     9
  0
VERTEX
  8
T10SSILL
 62
4
 10
298.905
 20
-1585.174
 30
4227.359
 70
    32
  0
VERTEX
  8
T10SSILL
 62
4
 10
279.170
 20
-1599.111
 30
4227.481
 70
    32
  0
VERTEX
  8
T10SSILL
 62
4
 10
283.519
 20
-1618.061
 30
4227.429
 70
    32
  0
VERTEX
  8
T10SSILL
 62
4
 10
293.829
 20
-1630.854
 30
4227.344
 70
    32
  0
VERTEX
  8
T10SSILL
 62
4
 10
331.544
 20
-1647.561
 30
4227.063
 70
    32
  0
VERTEX
  8
T10SSILL
 62
4
 10
317.360
 20
-1609.693
 30
4227.204
 70
    32
  0
VERTEX
  8
T10SSILL
 62
4
 10
311.006
 20
-1589.227
 30
4227.271
 70
    32
  0
VERTEX
  8
T10SSILL
 62
4
 10
308.213
 20
-1587.918
 30
4227.292
 70
    32
  0
SEQEND
  8
T10SSILL
  0
POLYLINE
  8
T10SSILL
 62
4
 66
     1
 70
     9
  0
VERTEX
  8
T10SSILL
 62
4
 10
305.151
 20
-1737.680
 30
4227.164
 70
    32
  0
VERTEX
  8
T10SSILL
 62
4
 10
357.585
 20
-1838.871
 30
4227.084
 70
    32
  0
VERTEX
  8
T10SSILL
 62
4
 10
391.164
 20
-1814.319
 30
4227.000
 70
    32
  0
VERTEX
  8
T10SSILL
 62
4
 10
375.464
 20
-1794.739
 30
4227.028
 70
    32
  0
VERTEX
  8
T10SSILL
 62
4
 10
369.006
 20
-1778.525
 30
4227.036
 70
    32
  0
VERTEX
  8
T10SSILL
 62
4
 10
356.956
 20
-1757.213
 30
4227.055
 70
    32
  0
VERTEX
  8
T10SSILL
 62
4
 10
342.095
 20
-1727.159
 30
4227.077
 70
    32
  0
VERTEX
  8
T10SSILL
 62
4
 10
342.042
 20
-1725.745
 30
4227.077
 70
    32
  0
VERTEX
  8
T10SSILL
 62
4
 10
354.782
 20
-1711.721
 30
4227.035
 70
    32
  0
VERTEX
  8
T10SSILL
 62
4
 10
351.349
 20
-1705.214
 30
4227.019
 70
    32
  0
VERTEX
  8
T10SSILL
 62
4
 10
318.175
 20
-1728.527
 30
4227.132
 70
    32
  0
SEQEND
  8
T10SSILL
  0
POLYLINE
  8
T10SSILL
 62
4
 66
     1
 70
     9
  0
VERTEX
  8
T10SSILL
 62
4
 10
360.852
 20
-1845.649
 30
4227.080
 70
    32
  0
VERTEX
  8
T10SSILL
 62
4
 10
399.231
 20
-1819.321
 30
4226.984
 70
    32
  0
VERTEX
  8
T10SSILL
 62
4
 10
431.906
 20
-1903.565
 30
4226.942
 70
    32
  0
VERTEX
  8
T10SSILL
 62
4
 10
445.030
 20
-1923.445
 30
4226.920
 70
    32
  0
VERTEX
  8
T10SSILL
 62
4
 10
418.711
 20
-1943.723
 30
4226.986
 70
    32
  0
VERTEX
  8
T10SSILL
 62
4
 10
387.474
 20
-1896.406
 30
4227.039
 70
    32
  0
SEQEND
  8
T10SSILL
  0
POLYLINE
  8
T10SSILL
 62
4
 66
     1
 70
     9
  0
VERTEX
  8
T10SSILL
 62
4
 10
513.432
 20
-1967.466
 30
4226.949
 70
    32
  0
VERTEX
  8
T10SSILL
 62
4
 10
491.088
 20
-1984.918
 30
4226.975
 70
    32
  0
VERTEX
  8
T10SSILL
 62
4
 10
512.836
 20
-2017.182
 30
4226.993
 70
    32
  0
VERTEX
  8
T10SSILL
 62
4
 10
525.012
 20
-2008.167
 30
4226.980
 70
    32
  0
SEQEND
  8
T10SSILL
  0
POLYLINE
  8
T10SSILL
 62
4
 66
     1
 70
     9
  0
VERTEX
  8
T10SSILL
 62
4
 10
423.193
 20
-1950.560
 30
4226.979
 70
    32
  0
VERTEX
  8
T10SSILL
 62
4
 10
470.041
 20
-2046.936
 30
4227.040
 70
    32
  0
VERTEX
  8
T10SSILL
 62
4
 10
507.557
 20
-2020.658
 30
4226.999
 70
    32
  0
VERTEX
  8
T10SSILL
 62
4
 10
460.811
 20
-1952.780
 30
4226.961
 70
    32
  0
VERTEX
  8
T10SSILL
 62
4
 10
454.100
 20
-1944.768
 30
4226.968
 70
    32
  0
VERTEX
  8
T10SSILL
 62
4
 10
449.298
 20
-1932.222
 30
4226.919
 70
    32
  0
VERTEX
  8
T10SSILL
 62
4
 10
443.453
 20
-1936.328
 30
4226.928
 70
    32
  0
SEQEND
  8
T10SSILL
  0
POLYLINE
  8
T10SSILL
 62
4
 66
     1
 70
     9
  0
VERTEX
  8
T10SSILL
 62
4
 10
483.579
 20
-1909.412
 30
4226.865
 70
    32
  0
VERTEX
  8
T10SSILL
 62
4
 10
455.972
 20
-1928.272
 30
4226.909
 70
    32
  0
VERTEX
  8
T10SSILL
 62
4
 10
456.285
 20
-1933.718
 30
4226.921
 70
    32
  0
VERTEX
  8
T10SSILL
 62
4
 10
459.160
 20
-1939.627
 30
4226.952
 70
    32
  0
VERTEX
  8
T10SSILL
 62
4
 10
486.709
 20
-1978.695
 30
4226.972
 70
    32
  0
VERTEX
  8
T10SSILL
 62
4
 10
512.070
 20
-1958.792
 30
4226.942
 70
    32
  0
VERTEX
  8
T10SSILL
 62
4
 10
499.283
 20
-1926.038
 30
4226.964
 70
    32
  0
VERTEX
  8
T10SSILL
 62
4
 10
501.203
 20
-1907.957
 30
4226.878
 70
    32
  0
VERTEX
  8
T10SSILL
 62
4
 10
498.160
 20
-1903.065
 30
4226.850
 70
    32
  0
VERTEX
  8
T10SSILL
 62
4
 10
485.677
 20
-1912.322
 30
4226.871
 70
    32
  0
SEQEND
  8
T10SSILL
  0
POLYLINE
  8
T10SSILL
 62
4
 66
     1
 70
     9
  0
VERTEX
  8
T10SSILL
 62
4
 10
610.334
 20
-1942.508
 30
4226.881
 70
    32
  0
VERTEX
  8
T10SSILL
 62
4
 10
604.270
 20
-1948.731
 30
4226.890
 70
    32
  0
VERTEX
  8
T10SSILL
 62
4
 10
596.216
 20
-1953.772
 30
4226.898
 70
    32
  0
VERTEX
  8
T10SSILL
 62
4
 10
591.512
 20
-1948.613
 30
4226.896
 70
    32
  0
VERTEX
  8
T10SSILL
 62
4
 10
589.295
 20
-1940.927
 30
4226.890
 70
    32
  0
VERTEX
  8
T10SSILL
 62
4
 10
578.213
 20
-1923.525
 30
4226.880
 70
    32
  0
VERTEX
  8
T10SSILL
 62
4
 10
526.391
 20
-1958.080
 30
4226.935
 70
    32
  0
VERTEX
  8
T10SSILL
 62
4
 10
531.571
 20
-1975.191
 30
4226.947
 70
    32
  0
VERTEX
  8
T10SSILL
 62
4
 10
532.540
 20
-1982.204
 30
4226.953
 70
    32
  0
VERTEX
  8
T10SSILL
 62
4
 10
531.358
 20
-1984.169
 30
4226.955
 70
    32
  0
VERTEX
  8
T10SSILL
 62
4
 10
537.303
 20
-2000.205
 30
4226.967
 70
    32
  0
VERTEX
  8
T10SSILL
 62
4
 10
613.955
 20
-1947.798
 30
4226.884
 70
    32
  0
SEQEND
  8
T10SSILL
  0
POLYLINE
  8
T10SSILL
 62
4
 66
     1
 70
     9
  0
VERTEX
  8
T10SSILL
 62
4
 10
453.559
 20
-1919.800
 30
4226.899
 70
    32
  0
VERTEX
  8
T10SSILL
 62
4
 10
463.659
 20
-1912.156
 30
4226.874
 70
    32
  0
VERTEX
  8
T10SSILL
 62
4
 10
462.907
 20
-1910.240
 30
4226.875
 70
    32
  0
VERTEX
  8
T10SSILL
 62
4
 10
452.770
 20
-1905.921
 30
4226.896
 70
    32
  0
VERTEX
  8
T10SSILL
 62
4
 10
448.505
 20
-1907.699
 30
4226.906
 70
    32
  0
VERTEX
  8
T10SSILL
 62
4
 10
448.382
 20
-1909.814
 30
4226.907
 70
    32
  0
SEQEND
  8
T10SSILL
  0
POLYLINE
  8
T10SSILL
 62
4
 66
     1
 70
     9
  0
VERTEX
  8
T10SSILL
 62
4
 10
487.180
 20
-2077.821
 30
4227.056
 70
    32
  0
VERTEX
  8
T10SSILL
 62
4
 10
511.583
 20
-2128.227
 30
4227.057
 70
    32
  0
VERTEX
  8
T10SSILL
 62
4
 10
520.569
 20
-2139.261
 30
4227.056
 70
    32
  0
VERTEX
  8
T10SSILL
 62
4
 10
525.591
 20
-2139.574
 30
4227.056
 70
    32
  0
VERTEX
  8
T10SSILL
 62
4
 10
561.345
 20
-2113.165
 30
4227.020
 70
    32
  0
VERTEX
  8
T10SSILL
 62
4
 10
559.449
 20
-2104.240
 30
4227.017
 70
    32
  0
VERTEX
  8
T10SSILL
 62
4
 10
542.486
 20
-2073.351
 30
4227.015
 70
    32
  0
VERTEX
  8
T10SSILL
 62
4
 10
534.442
 20
-2061.326
 30
4227.016
 70
    32
  0
SEQEND
  8
T10SSILL
  0
POLYLINE
  8
T10SSILL
 62
4
 66
     1
 70
     9
  0
VERTEX
  8
T10SSILL
 62
4
 10
473.453
 20
-2053.184
 30
4227.044
 70
    32
  0
VERTEX
  8
T10SSILL
 62
4
 10
475.941
 20
-2057.695
 30
4227.046
 70
    32
  0
VERTEX
  8
T10SSILL
 62
4
 10
482.338
 20
-2063.692
 30
4227.049
 70
    32
  0
VERTEX
  8
T10SSILL
 62
4
 10
492.824
 20
-2067.915
 30
4227.047
 70
    32
  0
VERTEX
  8
T10SSILL
 62
4
 10
530.573
 20
-2054.386
 30
4227.015
 70
    32
  0
VERTEX
  8
T10SSILL
 62
4
 10
511.143
 20
-2026.813
 30
4227.003
 70
    32
  0
SEQEND
  8
T10SSILL
  0
POLYLINE
  8
T10SSILL
 62
4
 66
     1
 70
     9
  0
VERTEX
  8
T10SSILL
 62
4
 10
526.710
 20
-2016.218
 30
4226.986
 70
    32
  0
VERTEX
  8
T10SSILL
 62
4
 10
516.496
 20
-2022.808
 30
4226.996
 70
    32
  0
VERTEX
  8
T10SSILL
 62
4
 10
536.748
 20
-2051.591
 30
4227.010
 70
    32
  0
VERTEX
  8
T10SSILL
 62
4
 10
537.959
 20
-2050.769
 30
4227.008
 70
    32
  0
VERTEX
  8
T10SSILL
 62
4
 10
536.337
 20
-2045.786
 30
4227.007
 70
    32
  0
SEQEND
  8
T10SSILL
  0
POLYLINE
  8
T10SSILL
 62
4
 66
     1
 70
     9
  0
VERTEX
  8
T10SSILL
 62
4
 10
634.872
 20
-2059.008
 30
4226.944
 70
    32
  0
VERTEX
  8
T10SSILL
 62
4
 10
637.258
 20
-2043.169
 30
4226.936
 70
    32
  0
VERTEX
  8
T10SSILL
 62
4
 10
635.264
 20
-2040.844
 30
4226.936
 70
    32
  0
VERTEX
  8
T10SSILL
 62
4
 10
626.329
 20
-2045.819
 30
4226.944
 70
    32
  0
VERTEX
  8
T10SSILL
 62
4
 10
610.430
 20
-2057.215
 30
4226.961
 70
    32
  0
VERTEX
  8
T10SSILL
 62
4
 10
617.013
 20
-2072.371
 30
4226.963
 70
    32
  0
SEQEND
  8
T10SSILL
  0
POLYLINE
  8
T10SSILL
 62
4
 66
     1
 70
     9
  0
VERTEX
  8
T10SSILL
 62
4
 10
702.007
 20
-2132.524
 30
4226.933
 70
    32
  0
VERTEX
  8
T10SSILL
 62
4
 10
697.463
 20
-2135.514
 30
4226.938
 70
    32
  0
VERTEX
  8
T10SSILL
 62
4
 10
688.657
 20
-2138.639
 30
4226.944
 70
    32
  0
VERTEX
  8
T10SSILL
 62
4
 10
672.398
 20
-2153.210
 30
4226.962
 70
    32
  0
VERTEX
  8
T10SSILL
 62
4
 10
692.938
 20
-2165.449
 30
4226.958
 70
    32
  0
VERTEX
  8
T10SSILL
 62
4
 10
713.505
 20
-2150.769
 30
4226.938
 70
    32
  0
SEQEND
  8
T10SSILL
  0
POLYLINE
  8
T10SSILL
 62
4
 66
     1
 70
     9
  0
VERTEX
  8
T10SSILL
 62
4
 10
794.615
 20
-2185.938
 30
4227.016
 70
    32
  0
VERTEX
  8
T10SSILL
 62
4
 10
760.709
 20
-2208.870
 30
4227.072
 70
    32
  0
VERTEX
  8
T10SSILL
 62
4
 10
760.329
 20
-2211.255
 30
4227.080
 70
    32
  0
VERTEX
  8
T10SSILL
 62
4
 10
765.424
 20
-2214.469
 30
4227.092
 70
    32
  0
VERTEX
  8
T10SSILL
 62
4
 10
772.182
 20
-2227.846
 30
4227.136
 70
    32
  0
VERTEX
  8
T10SSILL
 62
4
 10
775.679
 20
-2230.485
 30
4227.145
 70
    32
  0
VERTEX
  8
T10SSILL
 62
4
 10
779.193
 20
-2230.309
 30
4227.146
 70
    32
  0
VERTEX
  8
T10SSILL
 62
4
 10
811.675
 20
-2206.708
 30
4227.087
 70
    32
  0
SEQEND
  8
T10SSILL
  0
POLYLINE
  8
T10SSILL
 62
4
 66
     1
 70
     9
  0
VERTEX
  8
T10SSILL
 62
4
 10
836.897
 20
-2156.813
 30
4226.944
 70
    32
  0
VERTEX
  8
T10SSILL
 62
4
 10
812.511
 20
-2173.524
 30
4226.985
 70
    32
  0
VERTEX
  8
T10SSILL
 62
4
 10
813.562
 20
-2176.840
 30
4226.996
 70
    32
  0
VERTEX
  8
T10SSILL
 62
4
 10
828.512
 20
-2194.145
 30
4227.055
 70
    32
  0
VERTEX
  8
T10SSILL
 62
4
 10
850.777
 20
-2177.048
 30
4227.012
 70
    32
  0
SEQEND
  8
T10SSILL
  0
POLYLINE
  8
T10SSILL
 62
4
 66
     1
 70
     9
  0
VERTEX
  8
T10SSILL
 62
4
 10
861.898
 20
-2218.157
 30
4227.127
 70
    32
  0
VERTEX
  8
T10SSILL
 62
4
 10
858.453
 20
-2215.490
 30
4227.125
 70
    32
  0
VERTEX
  8
T10SSILL
 62
4
 10
856.797
 20
-2206.540
 30
4227.105
 70
    32
  0
VERTEX
  8
T10SSILL
 62
4
 10
861.577
 20
-2198.711
 30
4227.083
 70
    32
  0
VERTEX
  8
T10SSILL
 62
4
 10
878.503
 20
-2186.698
 30
4227.053
 70
    32
  0
VERTEX
  8
T10SSILL
 62
4
 10
883.374
 20
-2179.044
 30
4227.032
 70
    32
  0
VERTEX
  8
T10SSILL
 62
4
 10
888.299
 20
-2183.789
 30
4227.049
 70
    32
  0
VERTEX
  8
T10SSILL
 62
4
 10
897.780
 20
-2206.391
 30
4227.080
 70
    32
  0
VERTEX
  8
T10SSILL
 62
4
 10
887.749
 20
-2210.888
 30
4227.095
 70
    32
  0
VERTEX
  8
T10SSILL
 62
4
 10
881.242
 20
-2215.671
 30
4227.108
 70
    32
  0
VERTEX
  8
T10SSILL
 62
4
 10
871.890
 20
-2218.835
 30
4227.120
 70
    32
  0
SEQEND
  8
T10SSILL
  0
POLYLINE
  8
T10SSILL
 62
4
 66
     1
 70
     9
  0
VERTEX
  8
T10SSILL
 62
4
 10
1037.953
 20
-2351.535
 30
4227.189
 70
    32
  0
VERTEX
  8
T10SSILL
 62
4
 10
1061.742
 20
-2373.711
 30
4227.204
 70
    32
  0
VERTEX
  8
T10SSILL
 62
4
 10
1064.881
 20
-2379.613
 30
4227.210
 70
    32
  0
VERTEX
  8
T10SSILL
 62
4
 10
1104.994
 20
-2404.114
 30
4227.215
 70
    32
  0
VERTEX
  8
T10SSILL
 62
4
 10
1109.857
 20
-2398.098
 30
4227.202
 70
    32
  0
VERTEX
  8
T10SSILL
 62
4
 10
1106.230
 20
-2357.738
 30
4227.144
 70
    32
  0
VERTEX
  8
T10SSILL
 62
4
 10
1094.576
 20
-2180.822
 30
4226.884
 70
    32
  0
VERTEX
  8
T10SSILL
 62
4
 10
1061.250
 20
-2157.609
 30
4226.876
 70
    32
  0
VERTEX
  8
T10SSILL
 62
4
 10
1055.474
 20
-2159.124
 30
4226.883
 70
    32
  0
VERTEX
  8
T10SSILL
 62
4
 10
1038.064
 20
-2149.950
 30
4226.882
 70
    32
  0
VERTEX
  8
T10SSILL
 62
4
 10
1029.443
 20
-2149.847
 30
4226.889
 70
    32
  0
VERTEX
  8
T10SSILL
 62
4
 10
1024.483
 20
-2148.004
 30
4226.890
 70
    32
  0
VERTEX
  8
T10SSILL
 62
4
 10
1015.477
 20
-2141.400
 30
4226.887
 70
    32
  0
VERTEX
  8
T10SSILL
 62
4
 10
1008.364
 20
-2132.562
 30
4226.880
 70
    32
  0
VERTEX
  8
T10SSILL
 62
4
 10
1000.101
 20
-2128.054
 30
4226.879
 70
    32
  0
VERTEX
  8
T10SSILL
 62
4
 10
997.196
 20
-2127.933
 30
4226.882
 70
    32
  0
VERTEX
  8
T10SSILL
 62
4
 10
985.520
 20
-2119.619
 30
4226.878
 70
    32
  0
VERTEX
  8
T10SSILL
 62
4
 10
984.306
 20
-2115.860
 30
4226.874
 70
    32
  0
VERTEX
  8
T10SSILL
 62
4
 10
986.154
 20
-2101.753
 30
4226.837
 70
    32
  0
VERTEX
  8
T10SSILL
 62
4
 10
983.668
 20
-2086.320
 30
4226.789
 70
    32
  0
VERTEX
  8
T10SSILL
 62
4
 10
986.442
 20
-2060.587
 30
4226.734
 70
    32
  0
VERTEX
  8
T10SSILL
 62
4
 10
985.758
 20
-2056.906
 30
4226.732
 70
    32
  0
VERTEX
  8
T10SSILL
 62
4
 10
984.237
 20
-2055.527
 30
4226.732
 70
    32
  0
VERTEX
  8
T10SSILL
 62
4
 10
979.948
 20
-2056.662
 30
4226.736
 70
    32
  0
VERTEX
  8
T10SSILL
 62
4
 10
893.226
 20
-2117.822
 30
4226.848
 70
    32
  0
VERTEX
  8
T10SSILL
 62
4
 10
890.073
 20
-2123.246
 30
4226.863
 70
    32
  0
VERTEX
  8
T10SSILL
 62
4
 10
895.919
 20
-2134.922
 30
4226.902
 70
    32
  0
VERTEX
  8
T10SSILL
 62
4
 10
896.684
 20
-2142.911
 30
4226.926
 70
    32
  0
VERTEX
  8
T10SSILL
 62
4
 10
897.964
 20
-2145.526
 30
4226.935
 70
    32
  0
VERTEX
  8
T10SSILL
 62
4
 10
900.892
 20
-2146.879
 30
4226.940
 70
    32
  0
VERTEX
  8
T10SSILL
 62
4
 10
913.850
 20
-2148.484
 30
4226.951
 70
    32
  0
VERTEX
  8
T10SSILL
 62
4
 10
917.757
 20
-2150.434
 30
4226.958
 70
    32
  0
VERTEX
  8
T10SSILL
 62
4
 10
932.130
 20
-2176.024
 30
4227.007
 70
    32
  0
VERTEX
  8
T10SSILL
 62
4
 10
940.497
 20
-2186.070
 30
4227.015
 70
    32
  0
VERTEX
  8
T10SSILL
 62
4
 10
942.124
 20
-2193.164
 30
4227.025
 70
    32
  0
VERTEX
  8
T10SSILL
 62
4
 10
938.459
 20
-2208.887
 30
4227.052
 70
    32
  0
VERTEX
  8
T10SSILL
 62
4
 10
934.981
 20
-2215.724
 30
4227.065
 70
    32
  0
VERTEX
  8
T10SSILL
 62
4
 10
940.112
 20
-2231.460
 30
4227.085
 70
    32
  0
VERTEX
  8
T10SSILL
 62
4
 10
945.061
 20
-2242.185
 30
4227.097
 70
    32
  0
VERTEX
  8
T10SSILL
 62
4
 10
947.549
 20
-2243.546
 30
4227.097
 70
    32
  0
VERTEX
  8
T10SSILL
 62
4
 10
963.820
 20
-2238.845
 30
4227.077
 70
    32
  0
VERTEX
  8
T10SSILL
 62
4
 10
965.887
 20
-2241.181
 30
4227.079
 70
    32
  0
VERTEX
  8
T10SSILL
 62
4
 10
993.270
 20
-2290.011
 30
4227.131
 70
    32
  0
VERTEX
  8
T10SSILL
 62
4
 10
991.532
 20
-2295.848
 30
4227.141
 70
    32
  0
VERTEX
  8
T10SSILL
 62
4
 10
986.415
 20
-2299.726
 30
4227.151
 70
    32
  0
VERTEX
  8
T10SSILL
 62
4
 10
993.518
 20
-2303.287
 30
4227.151
 70
    32
  0
VERTEX
  8
T10SSILL
 62
4
 10
1001.634
 20
-2314.042
 30
4227.161
 70
    32
  0
VERTEX
  8
T10SSILL
 62
4
 10
1012.454
 20
-2323.602
 30
4227.167
 70
    32
  0
VERTEX
  8
T10SSILL
 62
4
 10
1016.056
 20
-2342.787
 30
4227.193
 70
    32
  0
VERTEX
  8
T10SSILL
 62
4
 10
1020.955
 20
-2348.220
 30
4227.197
 70
    32
  0
SEQEND
  8
T10SSILL
  0
POLYLINE
  8
T10SSILL
 62
4
 66
     1
 70
     9
  0
VERTEX
  8
T10SSILL
 62
4
 10
866.400
 20
-2041.917
 30
4226.789
 70
    32
  0
VERTEX
  8
T10SSILL
 62
4
 10
895.303
 20
-2021.653
 30
4226.761
 70
    32
  0
VERTEX
  8
T10SSILL
 62
4
 10
898.449
 20
-2015.878
 30
4226.756
 70
    32
  0
VERTEX
  8
T10SSILL
 62
4
 10
898.655
 20
-2012.796
 30
4226.754
 70
    32
  0
VERTEX
  8
T10SSILL
 62
4
 10
892.369
 20
-2001.127
 30
4226.751
 70
    32
  0
VERTEX
  8
T10SSILL
 62
4
 10
886.379
 20
-1994.452
 30
4226.750
 70
    32
  0
VERTEX
  8
T10SSILL
 62
4
 10
850.943
 20
-2019.320
 30
4226.784
 70
    32
  0
SEQEND
  8
T10SSILL
  0
POLYLINE
  8
T10SSILL
 62
4
 66
     1
 70
     9
  0
VERTEX
  8
T10SSILL
 62
4
 10
933.568
 20
-1946.533
 30
4226.696
 70
    32
  0
VERTEX
  8
T10SSILL
 62
4
 10
929.102
 20
-1947.584
 30
4226.699
 70
    32
  0
VERTEX
  8
T10SSILL
 62
4
 10
909.670
 20
-1962.018
 30
4226.718
 70
    32
  0
VERTEX
  8
T10SSILL
 62
4
 10
905.679
 20
-1969.657
 30
4226.725
 70
    32
  0
VERTEX
  8
T10SSILL
 62
4
 10
899.286
 20
-1975.844
 30
4226.732
 70
    32
  0
VERTEX
  8
T10SSILL
 62
4
 10
897.444
 20
-1981.733
 30
4226.736
 70
    32
  0
VERTEX
  8
T10SSILL
 62
4
 10
900.920
 20
-1988.039
 30
4226.738
 70
    32
  0
VERTEX
  8
T10SSILL
 62
4
 10
918.118
 20
-2009.442
 30
4226.742
 70
    32
  0
VERTEX
  8
T10SSILL
 62
4
 10
929.575
 20
-2034.295
 30
4226.750
 70
    32
  0
VERTEX
  8
T10SSILL
 62
4
 10
930.516
 20
-2042.281
 30
4226.754
 70
    32
  0
VERTEX
  8
T10SSILL
 62
4
 10
929.365
 20
-2056.022
 30
4226.763
 70
    32
  0
VERTEX
  8
T10SSILL
 62
4
 10
933.913
 20
-2064.117
 30
4226.765
 70
    32
  0
VERTEX
  8
T10SSILL
 62
4
 10
933.534
 20
-2076.789
 30
4226.773
 70
    32
  0
VERTEX
  8
T10SSILL
 62
4
 10
935.502
 20
-2078.599
 30
4226.773
 70
    32
  0
VERTEX
  8
T10SSILL
 62
4
 10
977.897
 20
-2045.707
 30
4226.730
 70
    32
  0
VERTEX
  8
T10SSILL
 62
4
 10
980.021
 20
-2041.709
 30
4226.727
 70
    32
  0
VERTEX
  8
T10SSILL
 62
4
 10
979.694
 20
-2030.080
 30
4226.720
 70
    32
  0
VERTEX
  8
T10SSILL
 62
4
 10
975.105
 20
-2024.465
 30
4226.719
 70
    32
  0
VERTEX
  8
T10SSILL
 62
4
 10
972.593
 20
-2012.037
 30
4226.713
 70
    32
  0
VERTEX
  8
T10SSILL
 62
4
 10
969.375
 20
-2002.970
 30
4226.710
 70
    32
  0
VERTEX
  8
T10SSILL
 62
4
 10
980.064
 20
-1987.307
 30
4226.694
 70
    32
  0
VERTEX
  8
T10SSILL
 62
4
 10
987.067
 20
-1964.963
 30
4226.677
 70
    32
  0
VERTEX
  8
T10SSILL
 62
4
 10
986.917
 20
-1955.263
 30
4226.672
 70
    32
  0
VERTEX
  8
T10SSILL
 62
4
 10
980.685
 20
-1945.415
 30
4226.669
 70
    32
  0
VERTEX
  8
T10SSILL
 62
4
 10
969.347
 20
-1953.241
 30
4226.680
 70
    32
  0
VERTEX
  8
T10SSILL
 62
4
 10
965.966
 20
-1947.901
 30
4226.679
 70
    32
  0
VERTEX
  8
T10SSILL
 62
4
 10
991.549
 20
-1929.840
 30
4226.654
 70
    32
  0
VERTEX
  8
T10SSILL
 62
4
 10
985.062
 20
-1920.239
 30
4226.652
 70
    32
  0
VERTEX
  8
T10SSILL
 62
4
 10
998.583
 20
-1910.347
 30
4226.639
 70
    32
  0
VERTEX
  8
T10SSILL
 62
4
 10
995.081
 20
-1892.847
 30
4226.630
 70
    32
  0
VERTEX
  8
T10SSILL
 62
4
 10
993.040
 20
-1888.057
 30
4226.628
 70
    32
  0
VERTEX
  8
T10SSILL
 62
4
 10
976.834
 20
-1866.816
 30
4226.625
 70
    32
  0
VERTEX
  8
T10SSILL
 62
4
 10
974.138
 20
-1851.786
 30
4226.617
 70
    32
  0
VERTEX
  8
T10SSILL
 62
4
 10
973.044
 20
-1850.942
 30
4226.617
 70
    32
  0
VERTEX
  8
T10SSILL
 62
4
 10
970.845
 20
-1851.291
 30
4226.619
 70
    32
  0
VERTEX
  8
T10SSILL
 62
4
 10
914.185
 20
-1891.655
 30
4226.674
 70
    32
  0
VERTEX
  8
T10SSILL
 62
4
 10
919.972
 20
-1906.066
 30
4226.679
 70
    32
  0
VERTEX
  8
T10SSILL
 62
4
 10
926.579
 20
-1916.057
 30
4226.682
 70
    32
  0
VERTEX
  8
T10SSILL
 62
4
 10
928.013
 20
-1922.187
 30
4226.684
 70
    32
  0
VERTEX
  8
T10SSILL
 62
4
 10
930.533
 20
-1925.306
 30
4226.685
 70
    32
  0
VERTEX
  8
T10SSILL
 62
4
 10
948.519
 20
-1932.358
 30
4226.679
 70
    32
  0
VERTEX
  8
T10SSILL
 62
4
 10
949.497
 20
-1946.538
 30
4226.687
 70
    32
  0
SEQEND
  8
T10SSILL
  0
POLYLINE
  8
T10SSILL
 62
4
 66
     1
 70
     9
  0
VERTEX
  8
T10SSILL
 62
4
 10
906.034
 20
-1903.664
 30
4226.686
 70
    32
  0
VERTEX
  8
T10SSILL
 62
4
 10
915.878
 20
-1922.325
 30
4226.691
 70
    32
  0
VERTEX
  8
T10SSILL
 62
4
 10
920.702
 20
-1935.779
 30
4226.696
 70
    32
  0
VERTEX
  8
T10SSILL
 62
4
 10
920.343
 20
-1940.096
 30
4226.699
 70
    32
  0
VERTEX
  8
T10SSILL
 62
4
 10
905.714
 20
-1952.681
 30
4226.715
 70
    32
  0
VERTEX
  8
T10SSILL
 62
4
 10
887.272
 20
-1925.849
 30
4226.709
 70
    32
  0
VERTEX
  8
T10SSILL
 62
4
 10
884.512
 20
-1924.053
 30
4226.710
 70
    32
  0
VERTEX
  8
T10SSILL
 62
4
 10
877.527
 20
-1926.822
 30
4226.716
 70
    32
  0
VERTEX
  8
T10SSILL
 62
4
 10
875.521
 20
-1924.426
 30
4226.716
 70
    32
  0
VERTEX
  8
T10SSILL
 62
4
 10
878.459
 20
-1922.332
 30
4226.713
 70
    32
  0
VERTEX
  8
T10SSILL
 62
4
 10
860.401
 20
-1897.029
 30
4226.714
 70
    32
  0
VERTEX
  8
T10SSILL
 62
4
 10
894.282
 20
-1871.864
 30
4226.680
 70
    32
  0
SEQEND
  8
T10SSILL
  0
POLYLINE
  8
T10SSILL
 62
4
 66
     1
 70
     9
  0
VERTEX
  8
T10SSILL
 62
4
 10
844.851
 20
-1871.656
 30
4226.708
 70
    32
  0
VERTEX
  8
T10SSILL
 62
4
 10
835.928
 20
-1874.385
 30
4226.715
 70
    32
  0
VERTEX
  8
T10SSILL
 62
4
 10
837.649
 20
-1863.789
 30
4226.704
 70
    32
  0
VERTEX
  8
T10SSILL
 62
4
 10
845.521
 20
-1852.073
 30
4226.690
 70
    32
  0
VERTEX
  8
T10SSILL
 62
4
 10
846.464
 20
-1848.940
 30
4226.687
 70
    32
  0
VERTEX
  8
T10SSILL
 62
4
 10
856.297
 20
-1839.893
 30
4226.684
 70
    32
  0
VERTEX
  8
T10SSILL
 62
4
 10
861.917
 20
-1827.113
 30
4226.701
 70
    32
  0
VERTEX
  8
T10SSILL
 62
4
 10
871.583
 20
-1818.338
 30
4226.706
 70
    32
  0
VERTEX
  8
T10SSILL
 62
4
 10
891.099
 20
-1864.283
 30
4226.678
 70
    32
  0
VERTEX
  8
T10SSILL
 62
4
 10
883.852
 20
-1863.602
 30
4226.682
 70
    32
  0
VERTEX
  8
T10SSILL
 62
4
 10
858.413
 20
-1880.826
 30
4226.709
 70
    32
  0
VERTEX
  8
T10SSILL
 62
4
 10
856.588
 20
-1879.592
 30
4226.709
 70
    32
  0
SEQEND
  8
T10SSILL
  0
POLYLINE
  8
T10SSILL
 62
4
 66
     1
 70
     9
  0
VERTEX
  8
T10SSILL
 62
4
 10
901.209
 20
-1742.013
 30
4226.815
 70
    32
  0
VERTEX
  8
T10SSILL
 62
4
 10
953.433
 20
-1704.161
 30
4226.822
 70
    32
  0
VERTEX
  8
T10SSILL
 62
4
 10
940.824
 20
-1677.473
 30
4226.680
 70
    32
  0
VERTEX
  8
T10SSILL
 62
4
 10
938.008
 20
-1666.253
 30
4226.620
 70
    32
  0
VERTEX
  8
T10SSILL
 62
4
 10
936.099
 20
-1662.609
 30
4226.597
 70
    32
  0
VERTEX
  8
T10SSILL
 62
4
 10
929.016
 20
-1655.533
 30
4226.539
 70
    32
  0
VERTEX
  8
T10SSILL
 62
4
 10
928.416
 20
-1651.397
 30
4226.519
 70
    32
  0
VERTEX
  8
T10SSILL
 62
4
 10
922.290
 20
-1639.240
 30
4226.443
 70
    32
  0
VERTEX
  8
T10SSILL
 62
4
 10
918.577
 20
-1634.691
 30
4226.409
 70
    32
  0
VERTEX
  8
T10SSILL
 62
4
 10
916.280
 20
-1632.478
 30
4226.390
 70
    32
  0
VERTEX
  8
T10SSILL
 62
4
 10
886.814
 20
-1623.245
 30
4226.236
 70
    32
  0
VERTEX
  8
T10SSILL
 62
4
 10
872.395
 20
-1628.042
 30
4226.222
 70
    32
  0
VERTEX
  8
T10SSILL
 62
4
 10
825.045
 20
-1659.154
 30
4226.283
 70
    32
  0
VERTEX
  8
T10SSILL
 62
4
 10
897.682
 20
-1708.849
 30
4226.743
 70
    32
  0
VERTEX
  8
T10SSILL
 62
4
 10
906.940
 20
-1724.249
 30
4226.842
 70
    32
  0
SEQEND
  8
T10SSILL
  0
POLYLINE
  8
T10SSILL
 62
4
 66
     1
 70
     9
  0
VERTEX
  8
T10SSILL
 62
4
 10
902.074
 20
-1750.692
 30
4226.797
 70
    32
  0
VERTEX
  8
T10SSILL
 62
4
 10
956.625
 20
-1711.297
 30
4226.805
 70
    32
  0
VERTEX
  8
T10SSILL
 62
4
 10
973.908
 20
-1749.223
 30
4226.711
 70
    32
  0
VERTEX
  8
T10SSILL
 62
4
 10
980.529
 20
-1758.086
 30
4226.686
 70
    32
  0
VERTEX
  8
T10SSILL
 62
4
 10
988.263
 20
-1777.615
 30
4226.639
 70
    32
  0
VERTEX
  8
T10SSILL
 62
4
 10
1000.018
 20
-1798.141
 30
4226.585
 70
    32
  0
VERTEX
  8
T10SSILL
 62
4
 10
996.940
 20
-1803.302
 30
4226.579
 70
    32
  0
VERTEX
  8
T10SSILL
 62
4
 10
983.352
 20
-1813.808
 30
4226.591
 70
    32
  0
VERTEX
  8
T10SSILL
 62
4
 10
972.526
 20
-1796.621
 30
4226.622
 70
    32
  0
VERTEX
  8
T10SSILL
 62
4
 10
966.786
 20
-1796.928
 30
4226.629
 70
    32
  0
VERTEX
  8
T10SSILL
 62
4
 10
953.546
 20
-1800.175
 30
4226.639
 70
    32
  0
VERTEX
  8
T10SSILL
 62
4
 10
934.338
 20
-1807.012
 30
4226.650
 70
    32
  0
VERTEX
  8
T10SSILL
 62
4
 10
910.741
 20
-1805.520
 30
4226.682
 70
    32
  0
VERTEX
  8
T10SSILL
 62
4
 10
900.713
 20
-1802.451
 30
4226.700
 70
    32
  0
VERTEX
  8
T10SSILL
 62
4
 10
898.660
 20
-1792.706
 30
4226.721
 70
    32
  0
VERTEX
  8
T10SSILL
 62
4
 10
898.448
 20
-1773.156
 30
4226.759
 70
    32
  0
VERTEX
  8
T10SSILL
 62
4
 10
899.198
 20
-1767.287
 30
4226.769
 70
    32
  0
VERTEX
  8
T10SSILL
 62
4
 10
903.120
 20
-1758.731
 30
4226.781
 70
    32
  0
SEQEND
  8
T10SSILL
  0
POLYLINE
  8
T10SSILL
 62
4
 66
     1
 70
     9
  0
VERTEX
  8
T10SSILL
 62
4
 10
929.076
 20
-1833.844
 30
4226.635
 70
    32
  0
VERTEX
  8
T10SSILL
 62
4
 10
909.798
 20
-1827.238
 30
4226.642
 70
    32
  0
VERTEX
  8
T10SSILL
 62
4
 10
890.581
 20
-1826.907
 30
4226.666
 70
    32
  0
VERTEX
  8
T10SSILL
 62
4
 10
889.002
 20
-1832.316
 30
4226.658
 70
    32
  0
VERTEX
  8
T10SSILL
 62
4
 10
900.869
 20
-1860.277
 30
4226.670
 70
    32
  0
VERTEX
  8
T10SSILL
 62
4
 10
904.940
 20
-1857.628
 30
4226.666
 70
    32
  0
VERTEX
  8
T10SSILL
 62
4
 10
901.820
 20
-1853.028
 30
4226.665
 70
    32
  0
SEQEND
  8
T10SSILL
  0
POLYLINE
  8
T10SSILL
 62
4
 66
     1
 70
     9
  0
VERTEX
  8
T10SSILL
 62
4
 10
911.661
 20
-1599.468
 30
4226.230
 70
    32
  0
VERTEX
  8
T10SSILL
 62
4
 10
940.217
 20
-1656.877
 30
4226.589
 70
    32
  0
VERTEX
  8
T10SSILL
 62
4
 10
945.437
 20
-1659.156
 30
4226.619
 70
    32
  0
VERTEX
  8
T10SSILL
 62
4
 10
953.347
 20
-1655.404
 30
4226.633
 70
    32
  0
VERTEX
  8
T10SSILL
 62
4
 10
956.782
 20
-1650.317
 30
4226.625
 70
    32
  0
VERTEX
  8
T10SSILL
 62
4
 10
956.872
 20
-1638.721
 30
4226.575
 70
    32
  0
VERTEX
  8
T10SSILL
 62
4
 10
945.281
 20
-1608.542
 30
4226.400
 70
    32
  0
VERTEX
  8
T10SSILL
 62
4
 10
934.742
 20
-1589.740
 30
4226.278
 70
    32
  0
VERTEX
  8
T10SSILL
 62
4
 10
926.124
 20
-1588.829
 30
4226.241
 70
    32
  0
SEQEND
  8
T10SSILL
  0
POLYLINE
  8
T10SSILL
 62
4
 66
     1
 70
     9
  0
VERTEX
  8
T10SSILL
 62
4
 10
907.512
 20
-1590.015
 30
4226.173
 70
    32
  0
VERTEX
  8
T10SSILL
 62
4
 10
924.028
 20
-1578.518
 30
4226.188
 70
    32
  0
VERTEX
  8
T10SSILL
 62
4
 10
925.860
 20
-1575.262
 30
4226.181
 70
    32
  0
VERTEX
  8
T10SSILL
 62
4
 10
914.387
 20
-1561.847
 30
4226.079
 70
    32
  0
VERTEX
  8
T10SSILL
 62
4
 10
919.705
 20
-1551.994
 30
4226.057
 70
    32
  0
VERTEX
  8
T10SSILL
 62
4
 10
925.650
 20
-1544.778
 30
4226.049
 70
    32
  0
VERTEX
  8
T10SSILL
 62
4
 10
928.394
 20
-1534.841
 30
4226.017
 70
    32
  0
VERTEX
  8
T10SSILL
 62
4
 10
931.406
 20
-1529.857
 30
4226.007
 70
    32
  0
VERTEX
  8
T10SSILL
 62
4
 10
940.443
 20
-1524.834
 30
4226.021
 70
    32
  0
VERTEX
  8
T10SSILL
 62
4
 10
937.193
 20
-1523.178
 30
4226.001
 70
    32
  0
VERTEX
  8
T10SSILL
 62
4
 10
931.186
 20
-1523.749
 30
4225.980
 70
    32
  0
VERTEX
  8
T10SSILL
 62
4
 10
928.865
 20
-1520.819
 30
4225.983
 70
    32
  0
VERTEX
  8
T10SSILL
 62
4
 10
923.578
 20
-1519.237
 30
4225.996
 70
    32
  0
VERTEX
  8
T10SSILL
 62
4
 10
919.741
 20
-1520.970
 30
4226.008
 70
    32
  0
VERTEX
  8
T10SSILL
 62
4
 10
909.687
 20
-1532.234
 30
4226.044
 70
    32
  0
VERTEX
  8
T10SSILL
 62
4
 10
901.401
 20
-1555.667
 30
4226.084
 70
    32
  0
VERTEX
  8
T10SSILL
 62
4
 10
895.786
 20
-1567.126
 30
4226.108
 70
    32
  0
VERTEX
  8
T10SSILL
 62
4
 10
900.636
 20
-1581.222
 30
4226.109
 70
    32
  0
VERTEX
  8
T10SSILL
 62
4
 10
904.760
 20
-1587.455
 30
4226.152
 70
    32
  0
SEQEND
  8
T10SSILL
  0
POLYLINE
  8
T10SSILL
 62
4
 66
     1
 70
     9
  0
VERTEX
  8
T10SSILL
 62
4
 10
819.729
 20
-1655.517
 30
4226.275
 70
    32
  0
VERTEX
  8
T10SSILL
 62
4
 10
866.262
 20
-1622.700
 30
4226.199
 70
    32
  0
VERTEX
  8
T10SSILL
 62
4
 10
868.391
 20
-1620.495
 30
4226.194
 70
    32
  0
VERTEX
  8
T10SSILL
 62
4
 10
867.363
 20
-1614.428
 30
4226.180
 70
    32
  0
VERTEX
  8
T10SSILL
 62
4
 10
779.131
 20
-1577.166
 30
4226.108
 70
    32
  0
VERTEX
  8
T10SSILL
 62
4
 10
778.983
 20
-1582.570
 30
4226.120
 70
    32
  0
VERTEX
  8
T10SSILL
 62
4
 10
801.744
 20
-1599.314
 30
4226.154
 70
    32
  0
VERTEX
  8
T10SSILL
 62
4
 10
817.921
 20
-1626.752
 30
4226.213
 70
    32
  0
VERTEX
  8
T10SSILL
 62
4
 10
804.136
 20
-1641.259
 30
4226.246
 70
    32
  0
SEQEND
  8
T10SSILL
  0
POLYLINE
  8
T10SSILL
 62
4
 66
     1
 70
     9
  0
VERTEX
  8
T10SSILL
 62
4
 10
694.881
 20
-1609.664
 30
4226.242
 70
    32
  0
VERTEX
  8
T10SSILL
 62
4
 10
678.500
 20
-1622.579
 30
4226.284
 70
    32
  0
VERTEX
  8
T10SSILL
 62
4
 10
683.281
 20
-1629.994
 30
4226.276
 70
    32
  0
VERTEX
  8
T10SSILL
 62
4
 10
678.704
 20
-1633.349
 30
4226.287
 70
    32
  0
VERTEX
  8
T10SSILL
 62
4
 10
681.678
 20
-1638.005
 30
4226.282
 70
    32
  0
VERTEX
  8
T10SSILL
 62
4
 10
679.228
 20
-1639.855
 30
4226.288
 70
    32
  0
VERTEX
  8
T10SSILL
 62
4
 10
683.072
 20
-1648.166
 30
4226.283
 70
    32
  0
VERTEX
  8
T10SSILL
 62
4
 10
705.418
 20
-1633.068
 30
4226.238
 70
    32
  0
VERTEX
  8
T10SSILL
 62
4
 10
706.573
 20
-1626.210
 30
4226.223
 70
    32
  0
VERTEX
  8
T10SSILL
 62
4
 10
703.707
 20
-1619.997
 30
4226.226
 70
    32
  0
VERTEX
  8
T10SSILL
 62
4
 10
702.812
 20
-1620.685
 30
4226.228
 70
    32
  0
SEQEND
  8
T10SSILL
  0
POLYLINE
  8
T10SSILL
 62
4
 66
     1
 70
     9
  0
VERTEX
  8
T10SSILL
 62
4
 10
636.251
 20
-1652.723
 30
4226.390
 70
    32
  0
VERTEX
  8
T10SSILL
 62
4
 10
602.579
 20
-1677.070
 30
4226.474
 70
    32
  0
VERTEX
  8
T10SSILL
 62
4
 10
605.670
 20
-1688.545
 30
4226.472
 70
    32
  0
VERTEX
  8
T10SSILL
 62
4
 10
628.976
 20
-1719.605
 30
4226.435
 70
    32
  0
VERTEX
  8
T10SSILL
 62
4
 10
652.927
 20
-1702.499
 30
4226.395
 70
    32
  0
VERTEX
  8
T10SSILL
 62
4
 10
641.069
 20
-1659.496
 30
4226.381
 70
    32
  0
SEQEND
  8
T10SSILL
  0
POLYLINE
  8
T10SSILL
 62
4
 66
     1
 70
     9
  0
VERTEX
  8
T10SSILL
 62
4
 10
642.531
 20
-1640.054
 30
4226.371
 70
    32
  0
VERTEX
  8
T10SSILL
 62
4
 10
533.354
 20
-1718.377
 30
4226.645
 70
    32
  0
VERTEX
  8
T10SSILL
 62
4
 10
532.463
 20
-1711.243
 30
4226.644
 70
    32
  0
VERTEX
  8
T10SSILL
 62
4
 10
524.694
 20
-1702.423
 30
4226.659
 70
    32
  0
VERTEX
  8
T10SSILL
 62
4
 10
522.240
 20
-1693.755
 30
4226.661
 70
    32
  0
VERTEX
  8
T10SSILL
 62
4
 10
529.828
 20
-1688.511
 30
4226.642
 70
    32
  0
VERTEX
  8
T10SSILL
 62
4
 10
532.235
 20
-1679.658
 30
4226.633
 70
    32
  0
VERTEX
  8
T10SSILL
 62
4
 10
532.713
 20
-1664.330
 30
4226.626
 70
    32
  0
VERTEX
  8
T10SSILL
 62
4
 10
530.277
 20
-1653.804
 30
4226.628
 70
    32
  0
VERTEX
  8
T10SSILL
 62
4
 10
522.243
 20
-1638.003
 30
4226.604
 70
    32
  0
VERTEX
  8
T10SSILL
 62
4
 10
517.415
 20
-1632.081
 30
4226.591
 70
    32
  0
VERTEX
  8
T10SSILL
 62
4
 10
506.733
 20
-1632.753
 30
4226.606
 70
    32
  0
VERTEX
  8
T10SSILL
 62
4
 10
500.830
 20
-1631.119
 30
4226.608
 70
    32
  0
VERTEX
  8
T10SSILL
 62
4
 10
490.933
 20
-1631.495
 30
4226.621
 70
    32
  0
VERTEX
  8
T10SSILL
 62
4
 10
490.628
 20
-1627.877
 30
4226.609
 70
    32
  0
VERTEX
  8
T10SSILL
 62
4
 10
498.478
 20
-1621.886
 30
4226.581
 70
    32
  0
VERTEX
  8
T10SSILL
 62
4
 10
502.252
 20
-1627.277
 30
4226.594
 70
    32
  0
VERTEX
  8
T10SSILL
 62
4
 10
512.385
 20
-1620.012
 30
4226.559
 70
    32
  0
VERTEX
  8
T10SSILL
 62
4
 10
498.627
 20
-1601.350
 30
4226.516
 70
    32
  0
VERTEX
  8
T10SSILL
 62
4
 10
541.032
 20
-1570.079
 30
4226.367
 70
    32
  0
VERTEX
  8
T10SSILL
 62
4
 10
553.726
 20
-1589.008
 30
4226.412
 70
    32
  0
VERTEX
  8
T10SSILL
 62
4
 10
563.775
 20
-1582.530
 30
4226.380
 70
    32
  0
VERTEX
  8
T10SSILL
 62
4
 10
559.817
 20
-1577.239
 30
4226.367
 70
    32
  0
VERTEX
  8
T10SSILL
 62
4
 10
577.623
 20
-1584.037
 30
4226.368
 70
    32
  0
VERTEX
  8
T10SSILL
 62
4
 10
580.583
 20
-1582.774
 30
4226.361
 70
    32
  0
VERTEX
  8
T10SSILL
 62
4
 10
634.537
 20
-1542.491
 30
4226.169
 70
    32
  0
VERTEX
  8
T10SSILL
 62
4
 10
630.376
 20
-1537.782
 30
4226.159
 70
    32
  0
VERTEX
  8
T10SSILL
 62
4
 10
578.343
 20
-1575.072
 30
4226.339
 70
    32
  0
VERTEX
  8
T10SSILL
 62
4
 10
567.423
 20
-1571.604
 30
4226.341
 70
    32
  0
VERTEX
  8
T10SSILL
 62
4
 10
557.451
 20
-1557.053
 30
4226.306
 70
    32
  0
VERTEX
  8
T10SSILL
 62
4
 10
546.446
 20
-1564.495
 30
4226.343
 70
    32
  0
VERTEX
  8
T10SSILL
 62
4
 10
535.648
 20
-1494.927
 30
4226.135
 70
    32
  0
VERTEX
  8
T10SSILL
 62
4
 10
675.549
 20
-1394.647
 30
4225.868
 70
    32
  0
VERTEX
  8
T10SSILL
 62
4
 10
679.485
 20
-1393.436
 30
4225.871
 70
    32
  0
VERTEX
  8
T10SSILL
 62
4
 10
684.222
 20
-1394.671
 30
4225.876
 70
    32
  0
VERTEX
  8
T10SSILL
 62
4
 10
687.134
 20
-1396.773
 30
4225.880
 70
    32
  0
VERTEX
  8
T10SSILL
 62
4
 10
757.415
 20
-1557.638
 30
4226.073
 70
    32
  0
VERTEX
  8
T10SSILL
 62
4
 10
747.388
 20
-1564.831
 30
4226.108
 70
    32
  0
SEQEND
  8
T10SSILL
  0
POLYLINE
  8
T10SSILL
 62
4
 66
     1
 70
     9
  0
VERTEX
  8
T10SSILL
 62
4
 10
667.717
 20
-1733.004
 30
4226.460
 70
    32
  0
VERTEX
  8
T10SSILL
 62
4
 10
663.988
 20
-1723.406
 30
4226.440
 70
    32
  0
VERTEX
  8
T10SSILL
 62
4
 10
656.142
 20
-1710.253
 30
4226.412
 70
    32
  0
VERTEX
  8
T10SSILL
 62
4
 10
576.729
 20
-1767.523
 30
4226.566
 70
    32
  0
VERTEX
  8
T10SSILL
 62
4
 10
589.800
 20
-1792.424
 30
4226.598
 70
    32
  0
VERTEX
  8
T10SSILL
 62
4
 10
589.324
 20
-1793.858
 30
4226.602
 70
    32
  0
VERTEX
  8
T10SSILL
 62
4
 10
570.081
 20
-1809.103
 30
4226.637
 70
    32
  0
VERTEX
  8
T10SSILL
 62
4
 10
571.506
 20
-1812.284
 30
4226.644
 70
    32
  0
VERTEX
  8
T10SSILL
 62
4
 10
583.082
 20
-1803.782
 30
4226.624
 70
    32
  0
VERTEX
  8
T10SSILL
 62
4
 10
589.092
 20
-1813.139
 30
4226.644
 70
    32
  0
VERTEX
  8
T10SSILL
 62
4
 10
629.988
 20
-1784.544
 30
4226.577
 70
    32
  0
VERTEX
  8
T10SSILL
 62
4
 10
632.673
 20
-1787.727
 30
4226.584
 70
    32
  0
VERTEX
  8
T10SSILL
 62
4
 10
664.922
 20
-1764.054
 30
4226.529
 70
    32
  0
VERTEX
  8
T10SSILL
 62
4
 10
657.691
 20
-1753.854
 30
4226.507
 70
    32
  0
VERTEX
  8
T10SSILL
 62
4
 10
662.723
 20
-1750.413
 30
4226.499
 70
    32
  0
VERTEX
  8
T10SSILL
 62
4
 10
656.268
 20
-1741.407
 30
4226.480
 70
    32
  0
SEQEND
  8
T10SSILL
  0
POLYLINE
  8
T10SSILL
 62
4
 66
     1
 70
     9
  0
VERTEX
  8
T10SSILL
 62
4
 10
595.871
 20
-1682.193
 30
4226.491
 70
    32
  0
VERTEX
  8
T10SSILL
 62
4
 10
534.887
 20
-1726.106
 30
4226.645
 70
    32
  0
VERTEX
  8
T10SSILL
 62
4
 10
536.973
 20
-1746.027
 30
4226.647
 70
    32
  0
VERTEX
  8
T10SSILL
 62
4
 10
539.071
 20
-1752.319
 30
4226.645
 70
    32
  0
VERTEX
  8
T10SSILL
 62
4
 10
554.341
 20
-1751.295
 30
4226.610
 70
    32
  0
VERTEX
  8
T10SSILL
 62
4
 10
558.976
 20
-1754.481
 30
4226.601
 70
    32
  0
VERTEX
  8
T10SSILL
 62
4
 10
567.429
 20
-1753.363
 30
4226.582
 70
    32
  0
VERTEX
  8
T10SSILL
 62
4
 10
570.426
 20
-1762.364
 30
4226.578
 70
    32
  0
VERTEX
  8
T10SSILL
 62
4
 10
622.722
 20
-1724.636
 30
4226.447
 70
    32
  0
VERTEX
  8
T10SSILL
 62
4
 10
622.745
 20
-1723.294
 30
4226.446
 70
    32
  0
VERTEX
  8
T10SSILL
 62
4
 10
601.236
 20
-1695.263
 30
4226.484
 70
    32
  0
VERTEX
  8
T10SSILL
 62
4
 10
597.932
 20
-1687.512
 30
4226.489
 70
    32
  0
SEQEND
  8
T10SSILL
  0
POLYLINE
  8
T10SSILL
 62
4
 66
     1
 70
     9
  0
VERTEX
  8
T10SSILL
 62
4
 10
636.383
 20
-1835.945
 30
4226.808
 70
    32
  0
VERTEX
  8
T10SSILL
 62
4
 10
634.052
 20
-1848.350
 30
4226.873
 70
    32
  0
VERTEX
  8
T10SSILL
 62
4
 10
624.718
 20
-1861.183
 30
4226.922
 70
    32
  0
VERTEX
  8
T10SSILL
 62
4
 10
625.430
 20
-1879.917
 30
4226.895
 70
    32
  0
VERTEX
  8
T10SSILL
 62
4
 10
631.216
 20
-1878.458
 30
4226.890
 70
    32
  0
VERTEX
  8
T10SSILL
 62
4
 10
639.453
 20
-1873.985
 30
4226.889
 70
    32
  0
VERTEX
  8
T10SSILL
 62
4
 10
672.868
 20
-1849.794
 30
4226.893
 70
    32
  0
VERTEX
  8
T10SSILL
 62
4
 10
688.744
 20
-1841.402
 30
4226.890
 70
    32
  0
VERTEX
  8
T10SSILL
 62
4
 10
721.802
 20
-1819.436
 30
4226.890
 70
    32
  0
VERTEX
  8
T10SSILL
 62
4
 10
724.464
 20
-1817.299
 30
4226.891
 70
    32
  0
VERTEX
  8
T10SSILL
 62
4
 10
724.107
 20
-1814.050
 30
4226.898
 70
    32
  0
VERTEX
  8
T10SSILL
 62
4
 10
716.138
 20
-1795.625
 30
4226.780
 70
    32
  0
VERTEX
  8
T10SSILL
 62
4
 10
708.677
 20
-1784.848
 30
4226.700
 70
    32
  0
VERTEX
  8
T10SSILL
 62
4
 10
694.159
 20
-1794.694
 30
4226.719
 70
    32
  0
SEQEND
  8
T10SSILL
  0
POLYLINE
  8
T10SSILL
 62
4
 66
     1
 70
     9
  0
VERTEX
  8
T10SSILL
 62
4
 10
731.043
 20
-1769.224
 30
4226.668
 70
    32
  0
VERTEX
  8
T10SSILL
 62
4
 10
741.092
 20
-1796.135
 30
4226.845
 70
    32
  0
VERTEX
  8
T10SSILL
 62
4
 10
742.648
 20
-1804.483
 30
4226.893
 70
    32
  0
VERTEX
  8
T10SSILL
 62
4
 10
751.025
 20
-1799.032
 30
4226.887
 70
    32
  0
VERTEX
  8
T10SSILL
 62
4
 10
759.987
 20
-1799.664
 30
4226.881
 70
    32
  0
VERTEX
  8
T10SSILL
 62
4
 10
766.412
 20
-1796.411
 30
4226.879
 70
    32
  0
VERTEX
  8
T10SSILL
 62
4
 10
776.057
 20
-1789.407
 30
4226.880
 70
    32
  0
VERTEX
  8
T10SSILL
 62
4
 10
778.904
 20
-1785.139
 30
4226.878
 70
    32
  0
VERTEX
  8
T10SSILL
 62
4
 10
786.274
 20
-1797.425
 30
4226.852
 70
    32
  0
VERTEX
  8
T10SSILL
 62
4
 10
789.559
 20
-1800.043
 30
4226.843
 70
    32
  0
VERTEX
  8
T10SSILL
 62
4
 10
792.714
 20
-1800.768
 30
4226.838
 70
    32
  0
VERTEX
  8
T10SSILL
 62
4
 10
803.333
 20
-1793.180
 30
4226.839
 70
    32
  0
VERTEX
  8
T10SSILL
 62
4
 10
799.351
 20
-1792.237
 30
4226.846
 70
    32
  0
VERTEX
  8
T10SSILL
 62
4
 10
794.519
 20
-1781.536
 30
4226.872
 70
    32
  0
VERTEX
  8
T10SSILL
 62
4
 10
793.648
 20
-1774.932
 30
4226.857
 70
    32
  0
VERTEX
  8
T10SSILL
 62
4
 10
817.203
 20
-1761.381
 30
4226.839
 70
    32
  0
VERTEX
  8
T10SSILL
 62
4
 10
822.837
 20
-1755.945
 30
4226.822
 70
    32
  0
VERTEX
  8
T10SSILL
 62
4
 10
822.700
 20
-1750.021
 30
4226.789
 70
    32
  0
VERTEX
  8
T10SSILL
 62
4
 10
833.249
 20
-1743.191
 30
4226.776
 70
    32
  0
VERTEX
  8
T10SSILL
 62
4
 10
835.656
 20
-1735.294
 30
4226.738
 70
    32
  0
VERTEX
  8
T10SSILL
 62
4
 10
814.736
 20
-1705.197
 30
4226.515
 70
    32
  0
VERTEX
  8
T10SSILL
 62
4
 10
811.228
 20
-1702.051
 30
4226.488
 70
    32
  0
VERTEX
  8
T10SSILL
 62
4
 10
804.888
 20
-1707.513
 30
4226.503
 70
    32
  0
VERTEX
  8
T10SSILL
 62
4
 10
796.669
 20
-1709.815
 30
4226.495
 70
    32
  0
VERTEX
  8
T10SSILL
 62
4
 10
803.039
 20
-1718.930
 30
4226.563
 70
    32
  0
SEQEND
  8
T10SSILL
  0
POLYLINE
  8
T10SSILL
 62
4
 66
     1
 70
     9
  0
VERTEX
  8
T10SSILL
 62
4
 10
780.568
 20
-1608.232
 30
4226.176
 70
    32
  0
VERTEX
  8
T10SSILL
 62
4
 10
781.730
 20
-1629.191
 30
4226.222
 70
    32
  0
VERTEX
  8
T10SSILL
 62
4
 10
780.537
 20
-1637.378
 30
4226.240
 70
    32
  0
VERTEX
  8
T10SSILL
 62
4
 10
780.503
 20
-1655.078
 30
4226.278
 70
    32
  0
VERTEX
  8
T10SSILL
 62
4
 10
782.434
 20
-1665.517
 30
4226.301
 70
    32
  0
VERTEX
  8
T10SSILL
 62
4
 10
796.181
 20
-1657.570
 30
4226.282
 70
    32
  0
VERTEX
  8
T10SSILL
 62
4
 10
812.418
 20
-1680.589
 30
4226.369
 70
    32
  0
VERTEX
  8
T10SSILL
 62
4
 10
808.760
 20
-1672.278
 30
4226.313
 70
    32
  0
SEQEND
  8
T10SSILL
  0
POLYLINE
  8
T10SSILL
 62
4
 66
     1
 70
     9
  0
VERTEX
  8
T10SSILL
 62
4
 10
752.207
 20
-1681.883
 30
4226.340
 70
    32
  0
VERTEX
  8
T10SSILL
 62
4
 10
750.463
 20
-1677.283
 30
4226.330
 70
    32
  0
VERTEX
  8
T10SSILL
 62
4
 10
751.008
 20
-1675.316
 30
4226.326
 70
    32
  0
VERTEX
  8
T10SSILL
 62
4
 10
775.822
 20
-1657.646
 30
4226.284
 70
    32
  0
VERTEX
  8
T10SSILL
 62
4
 10
782.059
 20
-1667.580
 30
4226.306
 70
    32
  0
VERTEX
  8
T10SSILL
 62
4
 10
760.911
 20
-1682.659
 30
4226.341
 70
    32
  0
VERTEX
  8
T10SSILL
 62
4
 10
757.783
 20
-1678.101
 30
4226.331
 70
    32
  0
SEQEND
  8
T10SSILL
  0
POLYLINE
  8
T10SSILL
 62
4
 66
     1
 70
     9
  0
VERTEX
  8
T10SSILL
 62
4
 10
670.434
 20
-1731.010
 30
4226.456
 70
    32
  0
VERTEX
  8
T10SSILL
 62
4
 10
668.998
 20
-1722.507
 30
4226.437
 70
    32
  0
VERTEX
  8
T10SSILL
 62
4
 10
678.778
 20
-1709.746
 30
4226.408
 70
    32
  0
VERTEX
  8
T10SSILL
 62
4
 10
674.997
 20
-1689.447
 30
4226.365
 70
    32
  0
VERTEX
  8
T10SSILL
 62
4
 10
678.918
 20
-1690.183
 30
4226.366
 70
    32
  0
VERTEX
  8
T10SSILL
 62
4
 10
680.304
 20
-1684.732
 30
4226.354
 70
    32
  0
VERTEX
  8
T10SSILL
 62
4
 10
683.634
 20
-1679.207
 30
4226.341
 70
    32
  0
VERTEX
  8
T10SSILL
 62
4
 10
689.513
 20
-1680.222
 30
4226.343
 70
    32
  0
VERTEX
  8
T10SSILL
 62
4
 10
695.391
 20
-1683.538
 30
4226.349
 70
    32
  0
VERTEX
  8
T10SSILL
 62
4
 10
699.263
 20
-1689.940
 30
4226.363
 70
    32
  0
VERTEX
  8
T10SSILL
 62
4
 10
703.760
 20
-1706.722
 30
4226.399
 70
    32
  0
VERTEX
  8
T10SSILL
 62
4
 10
695.582
 20
-1712.383
 30
4226.412
 70
    32
  0
VERTEX
  8
T10SSILL
 62
4
 10
698.667
 20
-1717.101
 30
4226.422
 70
    32
  0
VERTEX
  8
T10SSILL
 62
4
 10
674.659
 20
-1734.887
 30
4226.464
 70
    32
  0
SEQEND
  8
T10SSILL
  0
POLYLINE
  8
T10SSILL
 62
4
 66
     1
 70
     9
  0
VERTEX
  8
T10SSILL
 62
4
 10
653.711
 20
-1666.082
 30
4226.356
 70
    32
  0
VERTEX
  8
T10SSILL
 62
4
 10
658.765
 20
-1662.897
 30
4226.343
 70
    32
  0
VERTEX
  8
T10SSILL
 62
4
 10
666.726
 20
-1660.470
 30
4226.324
 70
    32
  0
VERTEX
  8
T10SSILL
 62
4
 10
677.544
 20
-1651.739
 30
4226.297
 70
    32
  0
VERTEX
  8
T10SSILL
 62
4
 10
667.912
 20
-1635.823
 30
4226.312
 70
    32
  0
VERTEX
  8
T10SSILL
 62
4
 10
664.633
 20
-1633.381
 30
4226.319
 70
    32
  0
VERTEX
  8
T10SSILL
 62
4
 10
662.267
 20
-1634.002
 30
4226.324
 70
    32
  0
VERTEX
  8
T10SSILL
 62
4
 10
654.509
 20
-1639.430
 30
4226.344
 70
    32
  0
VERTEX
  8
T10SSILL
 62
4
 10
646.993
 20
-1651.221
 30
4226.365
 70
    32
  0
VERTEX
  8
T10SSILL
 62
4
 10
649.711
 20
-1660.791
 30
4226.363
 70
    32
  0
SEQEND
  8
T10SSILL
  0
POLYLINE
  8
T10SSILL
 62
4
 66
     1
 70
     9
  0
VERTEX
  8
T10SSILL
 62
4
 10
708.491
 20
-1616.319
 30
4226.214
 70
    32
  0
VERTEX
  8
T10SSILL
 62
4
 10
715.206
 20
-1625.174
 30
4226.220
 70
    32
  0
VERTEX
  8
T10SSILL
 62
4
 10
739.435
 20
-1608.411
 30
4226.181
 70
    32
  0
VERTEX
  8
T10SSILL
 62
4
 10
737.137
 20
-1601.507
 30
4226.166
 70
    32
  0
VERTEX
  8
T10SSILL
 62
4
 10
724.737
 20
-1589.590
 30
4226.168
 70
    32
  0
VERTEX
  8
T10SSILL
 62
4
 10
705.470
 20
-1603.848
 30
4226.216
 70
    32
  0
VERTEX
  8
T10SSILL
 62
4
 10
712.116
 20
-1613.533
 30
4226.205
 70
    32
  0
SEQEND
  8
T10SSILL
  0
POLYLINE
  8
T10SSILL
 62
4
 66
     1
 70
     9
  0
VERTEX
  8
T10SSILL
 62
4
 10
761.547
 20
-1566.242
 30
4226.086
 70
    32
  0
VERTEX
  8
T10SSILL
 62
4
 10
758.407
 20
-1565.123
 30
4226.084
 70
    32
  0
VERTEX
  8
T10SSILL
 62
4
 10
730.839
 20
-1584.844
 30
4226.152
 70
    32
  0
VERTEX
  8
T10SSILL
 62
4
 10
747.707
 20
-1602.521
 30
4226.167
 70
    32
  0
VERTEX
  8
T10SSILL
 62
4
 10
767.000
 20
-1588.601
 30
4226.135
 70
    32
  0
VERTEX
  8
T10SSILL
 62
4
 10
769.681
 20
-1582.304
 30
4226.121
 70
    32
  0
SEQEND
  8
T10SSILL
  0
POLYLINE
  8
T10SSILL
 62
4
 66
     1
 70
     9
  0
VERTEX
  8
T10SSILL
 62
4
 10
667.520
 20
-1330.174
 30
4225.814
 70
    32
  0
VERTEX
  8
T10SSILL
 62
4
 10
701.064
 20
-1407.039
 30
4225.901
 70
    32
  0
VERTEX
  8
T10SSILL
 62
4
 10
723.435
 20
-1306.542
 30
4225.852
 70
    32
  0
VERTEX
  8
T10SSILL
 62
4
 10
693.125
 20
-1314.686
 30
4225.828
 70
    32
  0
SEQEND
  8
T10SSILL
  0
POLYLINE
  8
T10SSILL
 62
4
 66
     1
 70
     9
  0
VERTEX
  8
T10SSILL
 62
4
 10
1117.625
 20
-1106.228
 30
4225.302
 70
    32
  0
VERTEX
  8
T10SSILL
 62
4
 10
1117.992
 20
-1110.023
 30
4225.274
 70
    32
  0
VERTEX
  8
T10SSILL
 62
4
 10
1116.764
 20
-1112.636
 30
4225.263
 70
    32
  0
VERTEX
  8
T10SSILL
 62
4
 10
1102.418
 20
-1128.669
 30
4225.233
 70
    32
  0
VERTEX
  8
T10SSILL
 62
4
 10
1070.051
 20
-1108.308
 30
4225.545
 70
    32
  0
VERTEX
  8
T10SSILL
 62
4
 10
1078.098
 20
-1101.187
 30
4225.550
 70
    32
  0
VERTEX
  8
T10SSILL
 62
4
 10
1091.033
 20
-1094.589
 30
4225.524
 70
    32
  0
VERTEX
  8
T10SSILL
 62
4
 10
1107.203
 20
-1096.275
 30
4225.425
 70
    32
  0
VERTEX
  8
T10SSILL
 62
4
 10
1116.965
 20
-1103.956
 30
4225.321
 70
    32
  0
SEQEND
  8
T10SSILL
  0
POLYLINE
  8
T10SSILL
 62
4
 66
     1
 70
     9
  0
VERTEX
  8
T10SSILL
 62
4
 10
986.513
 20
-1819.982
 30
4226.592
 70
    32
  0
VERTEX
  8
T10SSILL
 62
4
 10
1002.797
 20
-1808.389
 30
4226.576
 70
    32
  0
VERTEX
  8
T10SSILL
 62
4
 10
1004.286
 20
-1807.979
 30
4226.575
 70
    32
  0
VERTEX
  8
T10SSILL
 62
4
 10
1007.385
 20
-1810.338
 30
4226.574
 70
    32
  0
VERTEX
  8
T10SSILL
 62
4
 10
1012.706
 20
-1819.959
 30
4226.577
 70
    32
  0
VERTEX
  8
T10SSILL
 62
4
 10
1059.300
 20
-1876.947
 30
4226.282
 70
    32
  0
VERTEX
  8
T10SSILL
 62
4
 10
1057.116
 20
-1882.340
 30
4226.335
 70
    32
  0
VERTEX
  8
T10SSILL
 62
4
 10
1045.441
 20
-1891.811
 30
4226.524
 70
    32
  0
VERTEX
  8
T10SSILL
 62
4
 10
1030.318
 20
-1871.147
 30
4226.598
 70
    32
  0
VERTEX
  8
T10SSILL
 62
4
 10
1019.684
 20
-1870.755
 30
4226.603
 70
    32
  0
VERTEX
  8
T10SSILL
 62
4
 10
1015.039
 20
-1867.304
 30
4226.604
 70
    32
  0
VERTEX
  8
T10SSILL
 62
4
 10
1002.314
 20
-1851.505
 30
4226.602
 70
    32
  0
VERTEX
  8
T10SSILL
 62
4
 10
993.952
 20
-1836.425
 30
4226.597
 70
    32
  0
VERTEX
  8
T10SSILL
 62
4
 10
992.575
 20
-1830.460
 30
4226.595
 70
    32
  0
VERTEX
  8
T10SSILL
 62
4
 10
987.251
 20
-1821.258
 30
4226.592
 70
    32
  0
SEQEND
  8
T10SSILL
  0
POLYLINE
  8
T10SSILL
 62
4
 66
     1
 70
     9
  0
VERTEX
  8
T10SSILL
 62
4
 10
1056.332
 20
-1987.344
 30
4226.652
 70
    32
  0
VERTEX
  8
T10SSILL
 62
4
 10
1056.424
 20
-2005.002
 30
4226.663
 70
    32
  0
VERTEX
  8
T10SSILL
 62
4
 10
1051.593
 20
-2015.767
 30
4226.672
 70
    32
  0
VERTEX
  8
T10SSILL
 62
4
 10
1042.769
 20
-2056.630
 30
4226.722
 70
    32
  0
VERTEX
  8
T10SSILL
 62
4
 10
1045.680
 20
-2067.464
 30
4226.751
 70
    32
  0
VERTEX
  8
T10SSILL
 62
4
 10
1054.574
 20
-2078.324
 30
4226.760
 70
    32
  0
VERTEX
  8
T10SSILL
 62
4
 10
1059.483
 20
-2076.991
 30
4226.754
 70
    32
  0
VERTEX
  8
T10SSILL
 62
4
 10
1085.669
 20
-2056.890
 30
4226.703
 70
    32
  0
VERTEX
  8
T10SSILL
 62
4
 10
1081.701
 20
-1985.548
 30
4226.530
 70
    32
  0
VERTEX
  8
T10SSILL
 62
4
 10
1072.810
 20
-1986.177
 30
4226.643
 70
    32
  0
SEQEND
  8
T10SSILL
  0
POLYLINE
  8
T10SSILL
 62
4
 66
     1
 70
     9
  0
VERTEX
  8
T10SSILL
 62
4
 10
1012.867
 20
-2020.253
 30
4226.696
 70
    32
  0
VERTEX
  8
T10SSILL
 62
4
 10
1014.403
 20
-2017.761
 30
4226.694
 70
    32
  0
VERTEX
  8
T10SSILL
 62
4
 10
1012.737
 20
-2013.307
 30
4226.692
 70
    32
  0
VERTEX
  8
T10SSILL
 62
4
 10
1008.235
 20
-2012.423
 30
4226.694
 70
    32
  0
VERTEX
  8
T10SSILL
 62
4
 10
1005.093
 20
-2013.713
 30
4226.696
 70
    32
  0
VERTEX
  8
T10SSILL
 62
4
 10
998.520
 20
-2024.390
 30
4226.706
 70
    32
  0
VERTEX
  8
T10SSILL
 62
4
 10
999.014
 20
-2027.283
 30
4226.708
 70
    32
  0
VERTEX
  8
T10SSILL
 62
4
 10
1004.719
 20
-2026.649
 30
4226.704
 70
    32
  0
SEQEND
  8
T10SSILL
  0
POLYLINE
  8
T10SSILL
 62
4
 66
     1
 70
     9
  0
VERTEX
  8
T10SSILL
 62
4
 10
1077.144
 20
-1910.963
 30
4226.316
 70
    32
  0
VERTEX
  8
T10SSILL
 62
4
 10
1078.162
 20
-1904.259
 30
4226.301
 70
    32
  0
VERTEX
  8
T10SSILL
 62
4
 10
1076.818
 20
-1898.216
 30
4226.282
 70
    32
  0
VERTEX
  8
T10SSILL
 62
4
 10
1069.624
 20
-1889.731
 30
4226.239
 70
    32
  0
VERTEX
  8
T10SSILL
 62
4
 10
1061.678
 20
-1888.120
 30
4226.307
 70
    32
  0
VERTEX
  8
T10SSILL
 62
4
 10
1051.765
 20
-1894.198
 30
4226.458
 70
    32
  0
VERTEX
  8
T10SSILL
 62
4
 10
1050.001
 20
-1898.628
 30
4226.501
 70
    32
  0
VERTEX
  8
T10SSILL
 62
4
 10
1050.801
 20
-1903.802
 30
4226.516
 70
    32
  0
VERTEX
  8
T10SSILL
 62
4
 10
1048.321
 20
-1912.292
 30
4226.587
 70
    32
  0
VERTEX
  8
T10SSILL
 62
4
 10
1051.116
 20
-1925.432
 30
4226.616
 70
    32
  0
VERTEX
  8
T10SSILL
 62
4
 10
1049.974
 20
-1934.952
 30
4226.625
 70
    32
  0
VERTEX
  8
T10SSILL
 62
4
 10
1051.813
 20
-1948.638
 30
4226.632
 70
    32
  0
VERTEX
  8
T10SSILL
 62
4
 10
1055.371
 20
-1950.771
 30
4226.631
 70
    32
  0
VERTEX
  8
T10SSILL
 62
4
 10
1056.931
 20
-1954.260
 30
4226.632
 70
    32
  0
VERTEX
  8
T10SSILL
 62
4
 10
1053.613
 20
-1969.713
 30
4226.643
 70
    32
  0
VERTEX
  8
T10SSILL
 62
4
 10
1053.876
 20
-1979.119
 30
4226.649
 70
    32
  0
VERTEX
  8
T10SSILL
 62
4
 10
1081.480
 20
-1978.428
 30
4226.505
 70
    32
  0
SEQEND
  8
T10SSILL
  0
POLYLINE
  8
T10SSILL
 62
4
 66
     1
 70
     9
  0
VERTEX
  8
T10SSILL
 62
4
 10
1235.174
 20
-2042.141
 30
4226.769
 70
    32
  0
VERTEX
  8
T10SSILL
 62
4
 10
1235.781
 20
-2046.351
 30
4226.767
 70
    32
  0
VERTEX
  8
T10SSILL
 62
4
 10
1238.899
 20
-2048.492
 30
4226.769
 70
    32
  0
VERTEX
  8
T10SSILL
 62
4
 10
1265.385
 20
-2044.480
 30
4226.791
 70
    32
  0
VERTEX
  8
T10SSILL
 62
4
 10
1267.730
 20
-2042.853
 30
4226.794
 70
    32
  0
VERTEX
  8
T10SSILL
 62
4
 10
1266.408
 20
-2033.291
 30
4226.797
 70
    32
  0
VERTEX
  8
T10SSILL
 62
4
 10
1264.191
 20
-2027.616
 30
4226.798
 70
    32
  0
VERTEX
  8
T10SSILL
 62
4
 10
1263.839
 20
-1999.302
 30
4226.810
 70
    32
  0
VERTEX
  8
T10SSILL
 62
4
 10
1255.462
 20
-1998.139
 30
4226.804
 70
    32
  0
VERTEX
  8
T10SSILL
 62
4
 10
1253.101
 20
-1998.887
 30
4226.802
 70
    32
  0
VERTEX
  8
T10SSILL
 62
4
 10
1246.807
 20
-1996.190
 30
4226.799
 70
    32
  0
VERTEX
  8
T10SSILL
 62
4
 10
1237.942
 20
-1997.147
 30
4226.791
 70
    32
  0
VERTEX
  8
T10SSILL
 62
4
 10
1233.617
 20
-1996.348
 30
4226.788
 70
    32
  0
SEQEND
  8
T10SSILL
  0
POLYLINE
  8
T10SSILL
 62
4
 66
     1
 70
     9
  0
VERTEX
  8
T10SSILL
 62
4
 10
1259.385
 20
-1949.077
 30
4226.827
 70
    32
  0
VERTEX
  8
T10SSILL
 62
4
 10
1249.419
 20
-1947.592
 30
4226.821
 70
    32
  0
VERTEX
  8
T10SSILL
 62
4
 10
1236.489
 20
-1942.820
 30
4226.814
 70
    32
  0
VERTEX
  8
T10SSILL
 62
4
 10
1232.232
 20
-1945.626
 30
4226.810
 70
    32
  0
VERTEX
  8
T10SSILL
 62
4
 10
1233.682
 20
-1985.704
 30
4226.793
 70
    32
  0
VERTEX
  8
T10SSILL
 62
4
 10
1235.396
 20
-1987.959
 30
4226.793
 70
    32
  0
VERTEX
  8
T10SSILL
 62
4
 10
1238.408
 20
-1989.134
 30
4226.795
 70
    32
  0
VERTEX
  8
T10SSILL
 62
4
 10
1250.282
 20
-1989.177
 30
4226.804
 70
    32
  0
VERTEX
  8
T10SSILL
 62
4
 10
1262.192
 20
-1991.153
 30
4226.813
 70
    32
  0
VERTEX
  8
T10SSILL
 62
4
 10
1263.439
 20
-1987.260
 30
4226.816
 70
    32
  0
VERTEX
  8
T10SSILL
 62
4
 10
1262.036
 20
-1978.052
 30
4226.819
 70
    32
  0
VERTEX
  8
T10SSILL
 62
4
 10
1263.812
 20
-1961.607
 30
4226.826
 70
    32
  0
SEQEND
  8
T10SSILL
  0
POLYLINE
  8
T10SSILL
 62
4
 66
     1
 70
     9
  0
VERTEX
  8
T10SSILL
 62
4
 10
1222.127
 20
-1932.006
 30
4226.807
 70
    32
  0
VERTEX
  8
T10SSILL
 62
4
 10
1227.772
 20
-1932.868
 30
4226.798
 70
    32
  0
VERTEX
  8
T10SSILL
 62
4
 10
1231.308
 20
-1929.108
 30
4226.811
 70
    32
  0
VERTEX
  8
T10SSILL
 62
4
 10
1232.873
 20
-1909.290
 30
4226.788
 70
    32
  0
VERTEX
  8
T10SSILL
 62
4
 10
1222.653
 20
-1908.338
 30
4226.751
 70
    32
  0
VERTEX
  8
T10SSILL
 62
4
 10
1222.812
 20
-1902.706
 30
4226.738
 70
    32
  0
VERTEX
  8
T10SSILL
 62
4
 10
1234.245
 20
-1902.668
 30
4226.785
 70
    32
  0
VERTEX
  8
T10SSILL
 62
4
 10
1235.098
 20
-1891.835
 30
4226.772
 70
    32
  0
VERTEX
  8
T10SSILL
 62
4
 10
1234.554
 20
-1886.216
 30
4226.760
 70
    32
  0
VERTEX
  8
T10SSILL
 62
4
 10
1232.662
 20
-1883.789
 30
4226.746
 70
    32
  0
VERTEX
  8
T10SSILL
 62
4
 10
1228.733
 20
-1885.357
 30
4226.727
 70
    32
  0
VERTEX
  8
T10SSILL
 62
4
 10
1224.255
 20
-1895.379
 30
4226.718
 70
    32
  0
VERTEX
  8
T10SSILL
 62
4
 10
1221.489
 20
-1897.805
 30
4226.729
 70
    32
  0
VERTEX
  8
T10SSILL
 62
4
 10
1213.297
 20
-1901.828
 30
4226.756
 70
    32
  0
VERTEX
  8
T10SSILL
 62
4
 10
1202.074
 20
-1913.119
 30
4226.806
 70
    32
  0
VERTEX
  8
T10SSILL
 62
4
 10
1191.550
 20
-1919.472
 30
4226.742
 70
    32
  0
VERTEX
  8
T10SSILL
 62
4
 10
1191.150
 20
-1921.590
 30
4226.720
 70
    32
  0
VERTEX
  8
T10SSILL
 62
4
 10
1194.374
 20
-1924.696
 30
4226.713
 70
    32
  0
VERTEX
  8
T10SSILL
 62
4
 10
1219.488
 20
-1931.311
 30
4226.811
 70
    32
  0
SEQEND
  8
T10SSILL
  0
POLYLINE
  8
T10SSILL
 62
4
 66
     1
 70
     9
  0
VERTEX
  8
T10SSILL
 62
4
 10
1190.567
 20
-1833.738
 30
4226.648
 70
    32
  0
VERTEX
  8
T10SSILL
 62
4
 10
1186.981
 20
-1825.361
 30
4226.636
 70
    32
  0
VERTEX
  8
T10SSILL
 62
4
 10
1187.562
 20
-1823.504
 30
4226.630
 70
    32
  0
VERTEX
  8
T10SSILL
 62
4
 10
1192.183
 20
-1821.307
 30
4226.616
 70
    32
  0
VERTEX
  8
T10SSILL
 62
4
 10
1194.830
 20
-1821.785
 30
4226.611
 70
    32
  0
VERTEX
  8
T10SSILL
 62
4
 10
1202.659
 20
-1831.314
 30
4226.617
 70
    32
  0
VERTEX
  8
T10SSILL
 62
4
 10
1203.873
 20
-1835.073
 30
4226.623
 70
    32
  0
VERTEX
  8
T10SSILL
 62
4
 10
1202.908
 20
-1839.928
 30
4226.636
 70
    32
  0
VERTEX
  8
T10SSILL
 62
4
 10
1197.528
 20
-1843.810
 30
4226.656
 70
    32
  0
VERTEX
  8
T10SSILL
 62
4
 10
1194.660
 20
-1840.961
 30
4226.656
 70
    32
  0
SEQEND
  8
T10SSILL
  0
POLYLINE
  8
T10SSILL
 62
4
 66
     1
 70
     9
  0
VERTEX
  8
T10SSILL
 62
4
 10
949.767
 20
-1668.283
 30
4226.675
 70
    32
  0
VERTEX
  8
T10SSILL
 62
4
 10
951.876
 20
-1679.530
 30
4226.732
 70
    32
  0
VERTEX
  8
T10SSILL
 62
4
 10
959.510
 20
-1694.107
 30
4226.815
 70
    32
  0
VERTEX
  8
T10SSILL
 62
4
 10
964.573
 20
-1696.923
 30
4226.811
 70
    32
  0
VERTEX
  8
T10SSILL
 62
4
 10
970.788
 20
-1692.793
 30
4226.788
 70
    32
  0
VERTEX
  8
T10SSILL
 62
4
 10
970.085
 20
-1683.616
 30
4226.768
 70
    32
  0
VERTEX
  8
T10SSILL
 62
4
 10
967.716
 20
-1674.857
 30
4226.753
 70
    32
  0
VERTEX
  8
T10SSILL
 62
4
 10
958.715
 20
-1661.571
 30
4226.681
 70
    32
  0
SEQEND
  8
T10SSILL
  0
POLYLINE
  8
T10SSILL
 62
4
 66
     1
 70
     9
  0
VERTEX
  8
T10SSILL
 62
4
 10
905.273
 20
-1603.693
 30
4226.224
 70
    32
  0
VERTEX
  8
T10SSILL
 62
4
 10
889.580
 20
-1614.556
 30
4226.209
 70
    32
  0
VERTEX
  8
T10SSILL
 62
4
 10
913.157
 20
-1622.508
 30
4226.335
 70
    32
  0
SEQEND
  8
T10SSILL
  0
POLYLINE
  8
T10SSILL
 62
4
 66
     1
 70
     9
  0
VERTEX
  8
T10SSILL
 62
4
 10
1060.687
 20
-2145.332
 30
4226.857
 70
    32
  0
VERTEX
  8
T10SSILL
 62
4
 10
1062.338
 20
-2149.937
 30
4226.863
 70
    32
  0
VERTEX
  8
T10SSILL
 62
4
 10
1093.437
 20
-2171.609
 30
4226.871
 70
    32
  0
VERTEX
  8
T10SSILL
 62
4
 10
1086.532
 20
-2065.405
 30
4226.715
 70
    32
  0
VERTEX
  8
T10SSILL
 62
4
 10
1050.953
 20
-2091.222
 30
4226.783
 70
    32
  0
VERTEX
  8
T10SSILL
 62
4
 10
1048.714
 20
-2095.122
 30
4226.791
 70
    32
  0
VERTEX
  8
T10SSILL
 62
4
 10
1062.754
 20
-2144.709
 30
4226.855
 70
    32
  0
SEQEND
  8
T10SSILL
  0
POLYLINE
  8
T10SSILL
 62
4
 66
     1
 70
     9
  0
VERTEX
  8
T10SSILL
 62
4
 10
1018.880
 20
-2012.577
 30
4226.688
 70
    32
  0
VERTEX
  8
T10SSILL
 62
4
 10
1022.076
 20
-2014.188
 30
4226.687
 70
    32
  0
VERTEX
  8
T10SSILL
 62
4
 10
1034.132
 20
-2005.080
 30
4226.675
 70
    32
  0
VERTEX
  8
T10SSILL
 62
4
 10
1036.082
 20
-2001.174
 30
4226.672
 70
    32
  0
VERTEX
  8
T10SSILL
 62
4
 10
1036.167
 20
-1996.335
 30
4226.669
 70
    32
  0
VERTEX
  8
T10SSILL
 62
4
 10
1033.225
 20
-1994.191
 30
4226.669
 70
    32
  0
VERTEX
  8
T10SSILL
 62
4
 10
1022.636
 20
-1997.027
 30
4226.677
 70
    32
  0
VERTEX
  8
T10SSILL
 62
4
 10
1015.543
 20
-2003.404
 30
4226.684
 70
    32
  0
VERTEX
  8
T10SSILL
 62
4
 10
1015.167
 20
-2006.841
 30
4226.687
 70
    32
  0
SEQEND
  8
T10SSILL
  0
POLYLINE
  8
T10SSILL
 62
4
 66
     1
 70
     9
  0
VERTEX
  8
T10SSILL
 62
4
 10
1366.469
 20
-2027.116
 30
4226.872
 70
    32
  0
VERTEX
  8
T10SSILL
 62
4
 10
1365.383
 20
-2020.804
 30
4226.873
 70
    32
  0
VERTEX
  8
T10SSILL
 62
4
 10
1359.551
 20
-2014.580
 30
4226.871
 70
    32
  0
VERTEX
  8
T10SSILL
 62
4
 10
1354.364
 20
-2005.266
 30
4226.871
 70
    32
  0
VERTEX
  8
T10SSILL
 62
4
 10
1348.611
 20
-1998.601
 30
4226.870
 70
    32
  0
VERTEX
  8
T10SSILL
 62
4
 10
1338.748
 20
-1979.084
 30
4226.870
 70
    32
  0
VERTEX
  8
T10SSILL
 62
4
 10
1336.856
 20
-1967.246
 30
4226.873
 70
    32
  0
VERTEX
  8
T10SSILL
 62
4
 10
1334.787
 20
-1964.734
 30
4226.873
 70
    32
  0
VERTEX
  8
T10SSILL
 62
4
 10
1331.330
 20
-1963.303
 30
4226.871
 70
    32
  0
VERTEX
  8
T10SSILL
 62
4
 10
1303.451
 20
-1963.383
 30
4226.852
 70
    32
  0
VERTEX
  8
T10SSILL
 62
4
 10
1291.211
 20
-1957.895
 30
4226.846
 70
    32
  0
VERTEX
  8
T10SSILL
 62
4
 10
1285.184
 20
-1960.118
 30
4226.841
 70
    32
  0
VERTEX
  8
T10SSILL
 62
4
 10
1285.289
 20
-1965.745
 30
4226.839
 70
    32
  0
VERTEX
  8
T10SSILL
 62
4
 10
1300.017
 20
-1986.754
 30
4226.841
 70
    32
  0
VERTEX
  8
T10SSILL
 62
4
 10
1307.445
 20
-2003.063
 30
4226.840
 70
    32
  0
VERTEX
  8
T10SSILL
 62
4
 10
1307.646
 20
-2009.127
 30
4226.838
 70
    32
  0
VERTEX
  8
T10SSILL
 62
4
 10
1311.516
 20
-2023.303
 30
4226.836
 70
    32
  0
VERTEX
  8
T10SSILL
 62
4
 10
1317.539
 20
-2034.976
 30
4226.836
 70
    32
  0
SEQEND
  8
T10SSILL
  0
POLYLINE
  8
T10SSILL
 62
4
 66
     1
 70
     9
  0
VERTEX
  8
T10SSILL
 62
4
 10
1329.353
 20
-2041.264
 30
4226.841
 70
    32
  0
VERTEX
  8
T10SSILL
 62
4
 10
1321.988
 20
-2042.457
 30
4226.836
 70
    32
  0
VERTEX
  8
T10SSILL
 62
4
 10
1320.389
 20
-2046.357
 30
4226.833
 70
    32
  0
VERTEX
  8
T10SSILL
 62
4
 10
1319.568
 20
-2054.200
 30
4226.829
 70
    32
  0
VERTEX
  8
T10SSILL
 62
4
 10
1323.879
 20
-2058.957
 30
4226.830
 70
    32
  0
VERTEX
  8
T10SSILL
 62
4
 10
1331.508
 20
-2071.919
 30
4226.830
 70
    32
  0
VERTEX
  8
T10SSILL
 62
4
 10
1350.172
 20
-2115.371
 30
4226.825
 70
    32
  0
VERTEX
  8
T10SSILL
 62
4
 10
1348.888
 20
-2117.241
 30
4226.823
 70
    32
  0
VERTEX
  8
T10SSILL
 62
4
 10
1343.403
 20
-2120.246
 30
4226.817
 70
    32
  0
VERTEX
  8
T10SSILL
 62
4
 10
1336.676
 20
-2122.658
 30
4226.811
 70
    32
  0
VERTEX
  8
T10SSILL
 62
4
 10
1335.630
 20
-2127.867
 30
4226.808
 70
    32
  0
VERTEX
  8
T10SSILL
 62
4
 10
1337.084
 20
-2130.390
 30
4226.808
 70
    32
  0
VERTEX
  8
T10SSILL
 62
4
 10
1343.853
 20
-2134.926
 30
4226.811
 70
    32
  0
VERTEX
  8
T10SSILL
 62
4
 10
1402.791
 20
-2126.087
 30
4226.861
 70
    32
  0
VERTEX
  8
T10SSILL
 62
4
 10
1404.915
 20
-2122.090
 30
4226.863
 70
    32
  0
VERTEX
  8
T10SSILL
 62
4
 10
1406.288
 20
-2115.556
 30
4226.867
 70
    32
  0
VERTEX
  8
T10SSILL
 62
4
 10
1395.922
 20
-2102.029
 30
4226.865
 70
    32
  0
VERTEX
  8
T10SSILL
 62
4
 10
1390.516
 20
-2085.683
 30
4226.867
 70
    32
  0
VERTEX
  8
T10SSILL
 62
4
 10
1383.012
 20
-2074.741
 30
4226.866
 70
    32
  0
VERTEX
  8
T10SSILL
 62
4
 10
1380.264
 20
-2064.150
 30
4226.868
 70
    32
  0
VERTEX
  8
T10SSILL
 62
4
 10
1374.181
 20
-2053.973
 30
4226.867
 70
    32
  0
VERTEX
  8
T10SSILL
 62
4
 10
1373.872
 20
-2037.356
 30
4226.873
 70
    32
  0
VERTEX
  8
T10SSILL
 62
4
 10
1371.178
 20
-2034.416
 30
4226.872
 70
    32
  0
SEQEND
  8
T10SSILL
  0
POLYLINE
  8
T10SSILL
 62
4
 66
     1
 70
     9
  0
VERTEX
  8
T10SSILL
 62
4
 10
1240.013
 20
-2193.150
 30
4226.787
 70
    32
  0
VERTEX
  8
T10SSILL
 62
4
 10
1240.419
 20
-2196.045
 30
4226.791
 70
    32
  0
VERTEX
  8
T10SSILL
 62
4
 10
1242.303
 20
-2198.033
 30
4226.792
 70
    32
  0
VERTEX
  8
T10SSILL
 62
4
 10
1250.270
 20
-2200.787
 30
4226.790
 70
    32
  0
VERTEX
  8
T10SSILL
 62
4
 10
1261.789
 20
-2200.660
 30
4226.781
 70
    32
  0
VERTEX
  8
T10SSILL
 62
4
 10
1276.761
 20
-2197.038
 30
4226.763
 70
    32
  0
VERTEX
  8
T10SSILL
 62
4
 10
1274.616
 20
-2181.071
 30
4226.741
 70
    32
  0
VERTEX
  8
T10SSILL
 62
4
 10
1276.917
 20
-2172.409
 30
4226.742
 70
    32
  0
VERTEX
  8
T10SSILL
 62
4
 10
1280.728
 20
-2164.511
 30
4226.749
 70
    32
  0
VERTEX
  8
T10SSILL
 62
4
 10
1282.510
 20
-2156.298
 30
4226.754
 70
    32
  0
VERTEX
  8
T10SSILL
 62
4
 10
1279.533
 20
-2152.308
 30
4226.753
 70
    32
  0
VERTEX
  8
T10SSILL
 62
4
 10
1246.632
 20
-2156.615
 30
4226.726
 70
    32
  0
VERTEX
  8
T10SSILL
 62
4
 10
1240.694
 20
-2158.925
 30
4226.734
 70
    32
  0
VERTEX
  8
T10SSILL
 62
4
 10
1238.980
 20
-2161.331
 30
4226.739
 70
    32
  0
SEQEND
  8
T10SSILL
  0
POLYLINE
  8
T10SSILL
 62
4
 66
     1
 70
     9
  0
VERTEX
  8
T10SSILL
 62
4
 10
1277.323
 20
-2316.817
 30
4226.945
 70
    32
  0
VERTEX
  8
T10SSILL
 62
4
 10
1280.058
 20
-2321.955
 30
4226.951
 70
    32
  0
VERTEX
  8
T10SSILL
 62
4
 10
1282.380
 20
-2323.847
 30
4226.952
 70
    32
  0
VERTEX
  8
T10SSILL
 62
4
 10
1300.788
 20
-2325.262
 30
4226.939
 70
    32
  0
VERTEX
  8
T10SSILL
 62
4
 10
1318.392
 20
-2316.579
 30
4226.912
 70
    32
  0
VERTEX
  8
T10SSILL
 62
4
 10
1322.200
 20
-2313.254
 30
4226.904
 70
    32
  0
VERTEX
  8
T10SSILL
 62
4
 10
1322.077
 20
-2311.409
 30
4226.901
 70
    32
  0
VERTEX
  8
T10SSILL
 62
4
 10
1319.975
 20
-2307.139
 30
4226.896
 70
    32
  0
VERTEX
  8
T10SSILL
 62
4
 10
1308.368
 20
-2297.856
 30
4226.891
 70
    32
  0
VERTEX
  8
T10SSILL
 62
4
 10
1305.355
 20
-2287.182
 30
4226.878
 70
    32
  0
VERTEX
  8
T10SSILL
 62
4
 10
1300.909
 20
-2279.878
 30
4226.870
 70
    32
  0
VERTEX
  8
T10SSILL
 62
4
 10
1295.547
 20
-2261.156
 30
4226.846
 70
    32
  0
VERTEX
  8
T10SSILL
 62
4
 10
1291.202
 20
-2254.553
 30
4226.839
 70
    32
  0
VERTEX
  8
T10SSILL
 62
4
 10
1288.729
 20
-2253.983
 30
4226.840
 70
    32
  0
VERTEX
  8
T10SSILL
 62
4
 10
1258.221
 20
-2259.301
 30
4226.873
 70
    32
  0
VERTEX
  8
T10SSILL
 62
4
 10
1256.222
 20
-2260.570
 30
4226.876
 70
    32
  0
VERTEX
  8
T10SSILL
 62
4
 10
1256.191
 20
-2263.649
 30
4226.881
 70
    32
  0
SEQEND
  8
T10SSILL
  0
POLYLINE
  8
T10SSILL
 62
4
 66
     1
 70
     9
  0
VERTEX
  8
T10SSILL
 62
4
 10
1368.345
 20
-2340.010
 30
4226.908
 70
    32
  0
VERTEX
  8
T10SSILL
 62
4
 10
1356.621
 20
-2333.896
 30
4226.908
 70
    32
  0
VERTEX
  8
T10SSILL
 62
4
 10
1344.552
 20
-2323.391
 30
4226.901
 70
    32
  0
VERTEX
  8
T10SSILL
 62
4
 10
1330.917
 20
-2318.544
 30
4226.905
 70
    32
  0
VERTEX
  8
T10SSILL
 62
4
 10
1325.743
 20
-2319.344
 30
4226.910
 70
    32
  0
VERTEX
  8
T10SSILL
 62
4
 10
1305.385
 20
-2331.245
 30
4226.945
 70
    32
  0
VERTEX
  8
T10SSILL
 62
4
 10
1304.053
 20
-2335.316
 30
4226.952
 70
    32
  0
VERTEX
  8
T10SSILL
 62
4
 10
1306.568
 20
-2338.083
 30
4226.954
 70
    32
  0
VERTEX
  8
T10SSILL
 62
4
 10
1345.366
 20
-2357.589
 30
4226.953
 70
    32
  0
VERTEX
  8
T10SSILL
 62
4
 10
1388.414
 20
-2382.821
 30
4226.957
 70
    32
  0
VERTEX
  8
T10SSILL
 62
4
 10
1390.704
 20
-2382.940
 30
4226.955
 70
    32
  0
SEQEND
  8
T10SSILL
  0
POLYLINE
  8
T10SSILL
 62
4
 66
     1
 70
     9
  0
VERTEX
  8
T10SSILL
 62
4
 10
1249.259
 20
-2245.660
 30
4226.859
 70
    32
  0
VERTEX
  8
T10SSILL
 62
4
 10
1252.137
 20
-2249.037
 30
4226.862
 70
    32
  0
VERTEX
  8
T10SSILL
 62
4
 10
1259.404
 20
-2251.979
 30
4226.861
 70
    32
  0
VERTEX
  8
T10SSILL
 62
4
 10
1286.240
 20
-2247.873
 30
4226.833
 70
    32
  0
VERTEX
  8
T10SSILL
 62
4
 10
1287.793
 20
-2246.261
 30
4226.829
 70
    32
  0
VERTEX
  8
T10SSILL
 62
4
 10
1273.810
 20
-2213.276
 30
4226.790
 70
    32
  0
VERTEX
  8
T10SSILL
 62
4
 10
1273.570
 20
-2209.851
 30
4226.785
 70
    32
  0
VERTEX
  8
T10SSILL
 62
4
 10
1277.695
 20
-2204.673
 30
4226.774
 70
    32
  0
VERTEX
  8
T10SSILL
 62
4
 10
1277.053
 20
-2203.277
 30
4226.773
 70
    32
  0
VERTEX
  8
T10SSILL
 62
4
 10
1270.560
 20
-2204.102
 30
4226.779
 70
    32
  0
VERTEX
  8
T10SSILL
 62
4
 10
1263.307
 20
-2206.612
 30
4226.789
 70
    32
  0
VERTEX
  8
T10SSILL
 62
4
 10
1257.713
 20
-2217.886
 30
4226.810
 70
    32
  0
VERTEX
  8
T10SSILL
 62
4
 10
1252.711
 20
-2218.507
 30
4226.815
 70
    32
  0
VERTEX
  8
T10SSILL
 62
4
 10
1247.496
 20
-2217.109
 30
4226.817
 70
    32
  0
VERTEX
  8
T10SSILL
 62
4
 10
1246.939
 20
-2215.536
 30
4226.815
 70
    32
  0
VERTEX
  8
T10SSILL
 62
4
 10
1248.657
 20
-2208.644
 30
4226.804
 70
    32
  0
VERTEX
  8
T10SSILL
 62
4
 10
1246.702
 20
-2207.537
 30
4226.803
 70
    32
  0
VERTEX
  8
T10SSILL
 62
4
 10
1240.329
 20
-2210.119
 30
4226.812
 70
    32
  0
VERTEX
  8
T10SSILL
 62
4
 10
1241.090
 20
-2227.343
 30
4226.838
 70
    32
  0
SEQEND
  8
T10SSILL
  0
POLYLINE
  8
T10SSILL
 62
4
 66
     1
 70
     9
  0
VERTEX
  8
T10SSILL
 62
4
 10
1236.745
 20
-2088.638
 30
4226.749
 70
    32
  0
VERTEX
  8
T10SSILL
 62
4
 10
1237.999
 20
-2094.595
 30
4226.747
 70
    32
  0
VERTEX
  8
T10SSILL
 62
4
 10
1242.738
 20
-2098.728
 30
4226.749
 70
    32
  0
VERTEX
  8
T10SSILL
 62
4
 10
1257.092
 20
-2099.692
 30
4226.760
 70
    32
  0
VERTEX
  8
T10SSILL
 62
4
 10
1260.688
 20
-2099.185
 30
4226.763
 70
    32
  0
VERTEX
  8
T10SSILL
 62
4
 10
1263.293
 20
-2097.377
 30
4226.765
 70
    32
  0
VERTEX
  8
T10SSILL
 62
4
 10
1266.116
 20
-2093.103
 30
4226.770
 70
    32
  0
VERTEX
  8
T10SSILL
 62
4
 10
1269.149
 20
-2081.261
 30
4226.777
 70
    32
  0
VERTEX
  8
T10SSILL
 62
4
 10
1267.908
 20
-2066.597
 30
4226.783
 70
    32
  0
VERTEX
  8
T10SSILL
 62
4
 10
1272.289
 20
-2060.974
 30
4226.789
 70
    32
  0
VERTEX
  8
T10SSILL
 62
4
 10
1270.004
 20
-2051.606
 30
4226.791
 70
    32
  0
VERTEX
  8
T10SSILL
 62
4
 10
1267.442
 20
-2051.038
 30
4226.790
 70
    32
  0
VERTEX
  8
T10SSILL
 62
4
 10
1238.312
 20
-2054.747
 30
4226.765
 70
    32
  0
VERTEX
  8
T10SSILL
 62
4
 10
1236.756
 20
-2056.184
 30
4226.763
 70
    32
  0
VERTEX
  8
T10SSILL
 62
4
 10
1236.108
 20
-2059.186
 30
4226.762
 70
    32
  0
SEQEND
  8
T10SSILL
  0
POLYLINE
  8
T10SSILL
 62
4
 66
     1
 70
     9
  0
VERTEX
  8
T10SSILL
 62
4
 10
836.580
 20
-2315.624
 30
4227.295
 70
    32
  0
VERTEX
  8
T10SSILL
 62
4
 10
828.785
 20
-2306.383
 30
4227.287
 70
    32
  0
VERTEX
  8
T10SSILL
 62
4
 10
796.910
 20
-2329.617
 30
4227.348
 70
    32
  0
VERTEX
  8
T10SSILL
 62
4
 10
795.572
 20
-2332.377
 30
4227.353
 70
    32
  0
VERTEX
  8
T10SSILL
 62
4
 10
870.295
 20
-2396.912
 30
4227.344
 70
    32
  0
VERTEX
  8
T10SSILL
 62
4
 10
967.095
 20
-2329.549
 30
4227.212
 70
    32
  0
VERTEX
  8
T10SSILL
 62
4
 10
968.354
 20
-2326.360
 30
4227.206
 70
    32
  0
VERTEX
  8
T10SSILL
 62
4
 10
964.446
 20
-2319.572
 30
4227.199
 70
    32
  0
VERTEX
  8
T10SSILL
 62
4
 10
961.421
 20
-2317.694
 30
4227.199
 70
    32
  0
VERTEX
  8
T10SSILL
 62
4
 10
957.821
 20
-2318.025
 30
4227.202
 70
    32
  0
VERTEX
  8
T10SSILL
 62
4
 10
952.793
 20
-2321.988
 30
4227.212
 70
    32
  0
VERTEX
  8
T10SSILL
 62
4
 10
950.342
 20
-2322.562
 30
4227.215
 70
    32
  0
VERTEX
  8
T10SSILL
 62
4
 10
935.209
 20
-2308.156
 30
4227.205
 70
    32
  0
VERTEX
  8
T10SSILL
 62
4
 10
923.403
 20
-2302.308
 30
4227.206
 70
    32
  0
VERTEX
  8
T10SSILL
 62
4
 10
906.769
 20
-2287.578
 30
4227.196
 70
    32
  0
VERTEX
  8
T10SSILL
 62
4
 10
903.420
 20
-2282.452
 30
4227.191
 70
    32
  0
VERTEX
  8
T10SSILL
 62
4
 10
902.743
 20
-2279.210
 30
4227.187
 70
    32
  0
VERTEX
  8
T10SSILL
 62
4
 10
911.016
 20
-2265.335
 30
4227.159
 70
    32
  0
VERTEX
  8
T10SSILL
 62
4
 10
918.361
 20
-2258.338
 30
4227.143
 70
    32
  0
VERTEX
  8
T10SSILL
 62
4
 10
912.386
 20
-2249.215
 30
4227.134
 70
    32
  0
VERTEX
  8
T10SSILL
 62
4
 10
875.322
 20
-2275.500
 30
4227.203
 70
    32
  0
VERTEX
  8
T10SSILL
 62
4
 10
867.011
 20
-2296.763
 30
4227.242
 70
    32
  0
VERTEX
  8
T10SSILL
 62
4
 10
870.159
 20
-2305.235
 30
4227.253
 70
    32
  0
VERTEX
  8
T10SSILL
 62
4
 10
869.828
 20
-2311.046
 30
4227.262
 70
    32
  0
VERTEX
  8
T10SSILL
 62
4
 10
861.783
 20
-2322.982
 30
4227.286
 70
    32
  0
VERTEX
  8
T10SSILL
 62
4
 10
858.936
 20
-2325.937
 30
4227.293
 70
    32
  0
VERTEX
  8
T10SSILL
 62
4
 10
856.824
 20
-2325.889
 30
4227.295
 70
    32
  0
SEQEND
  8
T10SSILL
  0
POLYLINE
  8
T10SSILL
 62
4
 66
     1
 70
     9
  0
VERTEX
  8
T10SSILL
 62
4
 10
594.443
 20
-2225.984
 30
4227.055
 70
    32
  0
VERTEX
  8
T10SSILL
 62
4
 10
661.125
 20
-2303.036
 30
4227.285
 70
    32
  0
VERTEX
  8
T10SSILL
 62
4
 10
709.322
 20
-2316.690
 30
4227.382
 70
    32
  0
VERTEX
  8
T10SSILL
 62
4
 10
656.849
 20
-2241.480
 30
4227.129
 70
    32
  0
VERTEX
  8
T10SSILL
 62
4
 10
646.089
 20
-2240.343
 30
4227.121
 70
    32
  0
VERTEX
  8
T10SSILL
 62
4
 10
626.887
 20
-2214.876
 30
4227.035
 70
    32
  0
VERTEX
  8
T10SSILL
 62
4
 10
624.634
 20
-2209.215
 30
4227.021
 70
    32
  0
VERTEX
  8
T10SSILL
 62
4
 10
620.941
 20
-2205.789
 30
4227.021
 70
    32
  0
VERTEX
  8
T10SSILL
 62
4
 10
602.648
 20
-2219.731
 30
4227.040
 70
    32
  0
SEQEND
  8
T10SSILL
  0
POLYLINE
  8
T10SSILL
 62
4
 66
     1
 70
     9
  0
VERTEX
  8
T10SSILL
 62
4
 10
532.180
 20
-2142.751
 30
4227.053
 70
    32
  0
VERTEX
  8
T10SSILL
 62
4
 10
529.620
 20
-2145.894
 30
4227.055
 70
    32
  0
VERTEX
  8
T10SSILL
 62
4
 10
529.340
 20
-2148.716
 30
4227.055
 70
    32
  0
VERTEX
  8
T10SSILL
 62
4
 10
589.668
 20
-2218.012
 30
4227.047
 70
    32
  0
VERTEX
  8
T10SSILL
 62
4
 10
614.995
 20
-2200.221
 30
4227.021
 70
    32
  0
VERTEX
  8
T10SSILL
 62
4
 10
582.874
 20
-2154.231
 30
4227.023
 70
    32
  0
VERTEX
  8
T10SSILL
 62
4
 10
579.103
 20
-2144.210
 30
4227.021
 70
    32
  0
VERTEX
  8
T10SSILL
 62
4
 10
565.423
 20
-2121.419
 30
4227.021
 70
    32
  0
VERTEX
  8
T10SSILL
 62
4
 10
561.836
 20
-2122.213
 30
4227.024
 70
    32
  0
SEQEND
  8
T10SSILL
  0
POLYLINE
  8
T10SSILL
 62
4
 66
     1
 70
     9
  0
VERTEX
  8
T10SSILL
 62
4
 10
1769.601
 20
-2761.360
 30
4227.054
 70
    32
  0
VERTEX
  8
T10SSILL
 62
4
 10
1765.072
 20
-2777.357
 30
4227.057
 70
    32
  0
VERTEX
  8
T10SSILL
 62
4
 10
1768.501
 20
-2777.379
 30
4227.056
 70
    32
  0
VERTEX
  8
T10SSILL
 62
4
 10
1773.098
 20
-2774.127
 30
4227.054
 70
    32
  0
VERTEX
  8
T10SSILL
 62
4
 10
1775.562
 20
-2769.684
 30
4227.053
 70
    32
  0
VERTEX
  8
T10SSILL
 62
4
 10
1773.769
 20
-2767.873
 30
4227.053
 70
    32
  0
SEQEND
  8
T10SSILL
  0
ENDSEC
  0
EOF
