999
********************************
999
*   DXF File - Entities Only   *
999
*        3D Data Format        *
999
*     Output from ENVISAGE     *
999
*     20-Dec-2007 09:05:39     *
999
********************************
  0
SECTION 
  2
HEADER
  9
$ACADVER
  1
AC1009
  9
$EXTMIN
 10
-290000.000
 20
-250000.000
 30
-4000.000
  9
$EXTMAX
 10
5000000.000
 20
600000.000
 30
6000.000
  0
ENDSEC
  0
SECTION
  2
ENTITIES
  0
POLYLINE
  8
T01SSILL
 62
3
 66
     1
 70
     9
  0
VERTEX
  8
T01SSILL
 62
3
 10
-428.156
 20
-721.254
 30
5137.000
 70
    32
  0
VERTEX
  8
T01SSILL
 62
3
 10
-428.468
 20
-725.749
 30
5137.000
 70
    32
  0
VERTEX
  8
T01SSILL
 62
3
 10
-425.228
 20
-733.472
 30
5137.000
 70
    32
  0
VERTEX
  8
T01SSILL
 62
3
 10
-422.169
 20
-740.580
 30
5137.000
 70
    32
  0
VERTEX
  8
T01SSILL
 62
3
 10
-420.222
 20
-741.619
 30
5137.000
 70
    32
  0
VERTEX
  8
T01SSILL
 62
3
 10
-419.008
 20
-739.406
 30
5137.000
 70
    32
  0
VERTEX
  8
T01SSILL
 62
3
 10
-423.003
 20
-726.229
 30
5137.000
 70
    32
  0
VERTEX
  8
T01SSILL
 62
3
 10
-424.531
 20
-722.807
 30
5137.000
 70
    32
  0
SEQEND
  8
T01SSILL
  0
POLYLINE
  8
T01SSILL
 62
3
 66
     1
 70
     9
  0
VERTEX
  8
T01SSILL
 62
3
 10
-407.082
 20
-743.175
 30
5137.000
 70
    32
  0
VERTEX
  8
T01SSILL
 62
3
 10
-415.497
 20
-718.409
 30
5137.000
 70
    32
  0
VERTEX
  8
T01SSILL
 62
3
 10
-421.954
 20
-705.694
 30
5137.000
 70
    32
  0
VERTEX
  8
T01SSILL
 62
3
 10
-428.059
 20
-692.888
 30
5137.000
 70
    32
  0
VERTEX
  8
T01SSILL
 62
3
 10
-434.117
 20
-675.500
 30
5137.000
 70
    32
  0
VERTEX
  8
T01SSILL
 62
3
 10
-434.482
 20
-674.094
 30
5137.000
 70
    32
  0
VERTEX
  8
T01SSILL
 62
3
 10
-443.295
 20
-654.089
 30
5137.000
 70
    32
  0
VERTEX
  8
T01SSILL
 62
3
 10
-453.615
 20
-632.952
 30
5137.000
 70
    32
  0
VERTEX
  8
T01SSILL
 62
3
 10
-461.212
 20
-620.776
 30
5137.000
 70
    32
  0
VERTEX
  8
T01SSILL
 62
3
 10
-466.664
 20
-612.104
 30
5137.000
 70
    32
  0
VERTEX
  8
T01SSILL
 62
3
 10
-470.942
 20
-606.504
 30
5137.000
 70
    32
  0
VERTEX
  8
T01SSILL
 62
3
 10
-473.956
 20
-604.417
 30
5137.000
 70
    32
  0
VERTEX
  8
T01SSILL
 62
3
 10
-478.534
 20
-604.723
 30
5137.000
 70
    32
  0
VERTEX
  8
T01SSILL
 62
3
 10
-482.488
 20
-605.815
 30
5137.000
 70
    32
  0
VERTEX
  8
T01SSILL
 62
3
 10
-486.107
 20
-605.055
 30
5137.000
 70
    32
  0
VERTEX
  8
T01SSILL
 62
3
 10
-489.421
 20
-598.918
 30
5137.000
 70
    32
  0
VERTEX
  8
T01SSILL
 62
3
 10
-576.607
 20
-454.441
 30
5137.000
 70
    32
  0
VERTEX
  8
T01SSILL
 62
3
 10
-580.081
 20
-450.156
 30
5137.000
 70
    32
  0
VERTEX
  8
T01SSILL
 62
3
 10
-582.882
 20
-442.341
 30
5137.000
 70
    32
  0
VERTEX
  8
T01SSILL
 62
3
 10
-582.240
 20
-435.376
 30
5137.000
 70
    32
  0
VERTEX
  8
T01SSILL
 62
3
 10
-582.643
 20
-429.742
 30
5137.000
 70
    32
  0
VERTEX
  8
T01SSILL
 62
3
 10
-590.513
 20
-416.599
 30
5137.000
 70
    32
  0
VERTEX
  8
T01SSILL
 62
3
 10
-596.405
 20
-407.931
 30
5137.000
 70
    32
  0
VERTEX
  8
T01SSILL
 62
3
 10
-596.534
 20
-403.440
 30
5137.000
 70
    32
  0
VERTEX
  8
T01SSILL
 62
3
 10
-600.471
 20
-396.604
 30
5137.000
 70
    32
  0
VERTEX
  8
T01SSILL
 62
3
 10
-604.939
 20
-389.509
 30
5137.000
 70
    32
  0
VERTEX
  8
T01SSILL
 62
3
 10
-610.034
 20
-381.362
 30
5137.000
 70
    32
  0
VERTEX
  8
T01SSILL
 62
3
 10
-614.396
 20
-376.204
 30
5137.000
 70
    32
  0
VERTEX
  8
T01SSILL
 62
3
 10
-617.167
 20
-371.736
 30
5137.000
 70
    32
  0
VERTEX
  8
T01SSILL
 62
3
 10
-604.463
 20
-364.046
 30
5137.000
 70
    32
  0
VERTEX
  8
T01SSILL
 62
3
 10
-475.861
 20
-333.557
 30
5137.000
 70
    32
  0
VERTEX
  8
T01SSILL
 62
3
 10
-467.698
 20
-330.312
 30
5137.000
 70
    32
  0
VERTEX
  8
T01SSILL
 62
3
 10
-421.758
 20
-315.717
 30
5137.000
 70
    32
  0
VERTEX
  8
T01SSILL
 62
3
 10
-416.567
 20
-315.054
 30
5137.000
 70
    32
  0
VERTEX
  8
T01SSILL
 62
3
 10
-410.128
 20
-315.965
 30
5137.000
 70
    32
  0
VERTEX
  8
T01SSILL
 62
3
 10
-318.352
 20
-353.636
 30
5137.000
 70
    32
  0
VERTEX
  8
T01SSILL
 62
3
 10
-314.507
 20
-359.944
 30
5137.000
 70
    32
  0
VERTEX
  8
T01SSILL
 62
3
 10
-311.651
 20
-413.124
 30
5137.000
 70
    32
  0
VERTEX
  8
T01SSILL
 62
3
 10
-305.753
 20
-412.631
 30
5137.000
 70
    32
  0
VERTEX
  8
T01SSILL
 62
3
 10
-303.207
 20
-460.705
 30
5137.000
 70
    32
  0
VERTEX
  8
T01SSILL
 62
3
 10
-267.195
 20
-458.884
 30
5137.000
 70
    32
  0
VERTEX
  8
T01SSILL
 62
3
 10
-230.035
 20
-476.873
 30
5137.000
 70
    32
  0
VERTEX
  8
T01SSILL
 62
3
 10
-250.244
 20
-482.692
 30
5137.000
 70
    32
  0
VERTEX
  8
T01SSILL
 62
3
 10
-245.587
 20
-500.973
 30
5137.000
 70
    32
  0
VERTEX
  8
T01SSILL
 62
3
 10
-257.188
 20
-503.985
 30
5137.000
 70
    32
  0
VERTEX
  8
T01SSILL
 62
3
 10
-250.545
 20
-527.533
 30
5137.000
 70
    32
  0
VERTEX
  8
T01SSILL
 62
3
 10
-255.907
 20
-528.815
 30
5137.000
 70
    32
  0
VERTEX
  8
T01SSILL
 62
3
 10
-252.366
 20
-540.587
 30
5137.000
 70
    32
  0
VERTEX
  8
T01SSILL
 62
3
 10
-258.606
 20
-542.228
 30
5137.000
 70
    32
  0
VERTEX
  8
T01SSILL
 62
3
 10
-255.245
 20
-553.474
 30
5137.000
 70
    32
  0
VERTEX
  8
T01SSILL
 62
3
 10
-260.865
 20
-555.462
 30
5137.000
 70
    32
  0
VERTEX
  8
T01SSILL
 62
3
 10
-241.660
 20
-624.264
 30
5137.000
 70
    32
  0
VERTEX
  8
T01SSILL
 62
3
 10
-235.686
 20
-622.449
 30
5137.000
 70
    32
  0
VERTEX
  8
T01SSILL
 62
3
 10
-221.127
 20
-674.203
 30
5137.000
 70
    32
  0
VERTEX
  8
T01SSILL
 62
3
 10
-214.973
 20
-672.827
 30
5137.000
 70
    32
  0
VERTEX
  8
T01SSILL
 62
3
 10
-212.141
 20
-684.077
 30
5137.000
 70
    32
  0
VERTEX
  8
T01SSILL
 62
3
 10
-216.333
 20
-688.078
 30
5137.000
 70
    32
  0
VERTEX
  8
T01SSILL
 62
3
 10
-242.075
 20
-695.709
 30
5137.000
 70
    32
  0
SEQEND
  8
T01SSILL
  0
POLYLINE
  8
T01SSILL
 62
3
 66
     1
 70
     9
  0
VERTEX
  8
T01SSILL
 62
3
 10
-402.673
 20
-312.286
 30
5137.000
 70
    32
  0
VERTEX
  8
T01SSILL
 62
3
 10
-402.622
 20
-308.234
 30
5137.000
 70
    32
  0
VERTEX
  8
T01SSILL
 62
3
 10
-389.100
 20
-303.267
 30
5137.000
 70
    32
  0
VERTEX
  8
T01SSILL
 62
3
 10
-372.015
 20
-292.983
 30
5137.000
 70
    32
  0
VERTEX
  8
T01SSILL
 62
3
 10
-365.395
 20
-294.509
 30
5137.000
 70
    32
  0
VERTEX
  8
T01SSILL
 62
3
 10
-350.621
 20
-321.068
 30
5137.000
 70
    32
  0
VERTEX
  8
T01SSILL
 62
3
 10
-343.688
 20
-318.187
 30
5137.000
 70
    32
  0
VERTEX
  8
T01SSILL
 62
3
 10
-317.560
 20
-314.340
 30
5137.000
 70
    32
  0
VERTEX
  8
T01SSILL
 62
3
 10
-317.034
 20
-333.627
 30
5137.000
 70
    32
  0
VERTEX
  8
T01SSILL
 62
3
 10
-315.963
 20
-344.981
 30
5137.000
 70
    32
  0
VERTEX
  8
T01SSILL
 62
3
 10
-319.026
 20
-347.211
 30
5137.000
 70
    32
  0
VERTEX
  8
T01SSILL
 62
3
 10
-335.208
 20
-340.397
 30
5137.000
 70
    32
  0
SEQEND
  8
T01SSILL
  0
POLYLINE
  8
T01SSILL
 62
3
 66
     1
 70
     9
  0
VERTEX
  8
T01SSILL
 62
3
 10
-296.601
 20
-333.179
 30
5137.000
 70
    32
  0
VERTEX
  8
T01SSILL
 62
3
 10
-295.063
 20
-318.102
 30
5137.000
 70
    32
  0
VERTEX
  8
T01SSILL
 62
3
 10
-292.975
 20
-305.398
 30
5137.000
 70
    32
  0
VERTEX
  8
T01SSILL
 62
3
 10
-288.554
 20
-297.431
 30
5137.000
 70
    32
  0
VERTEX
  8
T01SSILL
 62
3
 10
-281.528
 20
-295.077
 30
5137.000
 70
    32
  0
VERTEX
  8
T01SSILL
 62
3
 10
-274.014
 20
-298.005
 30
5137.000
 70
    32
  0
VERTEX
  8
T01SSILL
 62
3
 10
-250.377
 20
-311.006
 30
5137.000
 70
    32
  0
VERTEX
  8
T01SSILL
 62
3
 10
-115.915
 20
-383.705
 30
5137.000
 70
    32
  0
VERTEX
  8
T01SSILL
 62
3
 10
-114.110
 20
-388.446
 30
5137.000
 70
    32
  0
VERTEX
  8
T01SSILL
 62
3
 10
-112.381
 20
-404.375
 30
5137.000
 70
    32
  0
VERTEX
  8
T01SSILL
 62
3
 10
-117.924
 20
-405.129
 30
5137.000
 70
    32
  0
VERTEX
  8
T01SSILL
 62
3
 10
-117.343
 20
-411.026
 30
5137.000
 70
    32
  0
VERTEX
  8
T01SSILL
 62
3
 10
-123.678
 20
-411.788
 30
5137.000
 70
    32
  0
VERTEX
  8
T01SSILL
 62
3
 10
-123.360
 20
-417.775
 30
5137.000
 70
    32
  0
VERTEX
  8
T01SSILL
 62
3
 10
-128.465
 20
-418.261
 30
5137.000
 70
    32
  0
VERTEX
  8
T01SSILL
 62
3
 10
-128.323
 20
-424.250
 30
5137.000
 70
    32
  0
VERTEX
  8
T01SSILL
 62
3
 10
-134.044
 20
-424.830
 30
5137.000
 70
    32
  0
VERTEX
  8
T01SSILL
 62
3
 10
-133.815
 20
-430.730
 30
5137.000
 70
    32
  0
VERTEX
  8
T01SSILL
 62
3
 10
-139.974
 20
-431.490
 30
5137.000
 70
    32
  0
VERTEX
  8
T01SSILL
 62
3
 10
-138.968
 20
-445.488
 30
5137.000
 70
    32
  0
VERTEX
  8
T01SSILL
 62
3
 10
-142.981
 20
-449.840
 30
5137.000
 70
    32
  0
VERTEX
  8
T01SSILL
 62
3
 10
-190.595
 20
-484.006
 30
5137.000
 70
    32
  0
VERTEX
  8
T01SSILL
 62
3
 10
-194.460
 20
-485.186
 30
5137.000
 70
    32
  0
VERTEX
  8
T01SSILL
 62
3
 10
-200.031
 20
-482.770
 30
5137.000
 70
    32
  0
VERTEX
  8
T01SSILL
 62
3
 10
-267.744
 20
-446.821
 30
5137.000
 70
    32
  0
VERTEX
  8
T01SSILL
 62
3
 10
-268.349
 20
-428.415
 30
5137.000
 70
    32
  0
VERTEX
  8
T01SSILL
 62
3
 10
-274.512
 20
-428.823
 30
5137.000
 70
    32
  0
VERTEX
  8
T01SSILL
 62
3
 10
-274.968
 20
-417.287
 30
5137.000
 70
    32
  0
VERTEX
  8
T01SSILL
 62
3
 10
-281.310
 20
-417.344
 30
5137.000
 70
    32
  0
VERTEX
  8
T01SSILL
 62
3
 10
-281.273
 20
-411.706
 30
5137.000
 70
    32
  0
VERTEX
  8
T01SSILL
 62
3
 10
-287.530
 20
-411.410
 30
5137.000
 70
    32
  0
VERTEX
  8
T01SSILL
 62
3
 10
-288.252
 20
-399.613
 30
5137.000
 70
    32
  0
VERTEX
  8
T01SSILL
 62
3
 10
-294.503
 20
-400.021
 30
5137.000
 70
    32
  0
SEQEND
  8
T01SSILL
  0
POLYLINE
  8
T01SSILL
 62
3
 66
     1
 70
     9
  0
VERTEX
  8
T01SSILL
 62
3
 10
-115.268
 20
-377.181
 30
5137.000
 70
    32
  0
VERTEX
  8
T01SSILL
 62
3
 10
-109.356
 20
-378.361
 30
5137.000
 70
    32
  0
VERTEX
  8
T01SSILL
 62
3
 10
-84.877
 20
-377.260
 30
5137.000
 70
    32
  0
VERTEX
  8
T01SSILL
 62
3
 10
-68.521
 20
-364.164
 30
5137.000
 70
    32
  0
VERTEX
  8
T01SSILL
 62
3
 10
-62.909
 20
-361.383
 30
5137.000
 70
    32
  0
VERTEX
  8
T01SSILL
 62
3
 10
-118.776
 20
-251.508
 30
5137.000
 70
    32
  0
VERTEX
  8
T01SSILL
 62
3
 10
-120.730
 20
-249.763
 30
5137.000
 70
    32
  0
VERTEX
  8
T01SSILL
 62
3
 10
-145.183
 20
-263.549
 30
5137.000
 70
    32
  0
VERTEX
  8
T01SSILL
 62
3
 10
-144.691
 20
-269.270
 30
5137.000
 70
    32
  0
VERTEX
  8
T01SSILL
 62
3
 10
-155.869
 20
-270.340
 30
5137.000
 70
    32
  0
VERTEX
  8
T01SSILL
 62
3
 10
-160.676
 20
-274.611
 30
5137.000
 70
    32
  0
VERTEX
  8
T01SSILL
 62
3
 10
-167.919
 20
-282.164
 30
5137.000
 70
    32
  0
VERTEX
  8
T01SSILL
 62
3
 10
-175.876
 20
-288.754
 30
5137.000
 70
    32
  0
VERTEX
  8
T01SSILL
 62
3
 10
-195.643
 20
-294.746
 30
5137.000
 70
    32
  0
VERTEX
  8
T01SSILL
 62
3
 10
-194.720
 20
-299.406
 30
5137.000
 70
    32
  0
VERTEX
  8
T01SSILL
 62
3
 10
-243.356
 20
-308.036
 30
5137.000
 70
    32
  0
VERTEX
  8
T01SSILL
 62
3
 10
-193.166
 20
-335.069
 30
5137.000
 70
    32
  0
SEQEND
  8
T01SSILL
  0
POLYLINE
  8
T01SSILL
 62
3
 66
     1
 70
     9
  0
VERTEX
  8
T01SSILL
 62
3
 10
-35.100
 20
-387.648
 30
5137.000
 70
    32
  0
VERTEX
  8
T01SSILL
 62
3
 10
-56.301
 20
-371.278
 30
5137.000
 70
    32
  0
VERTEX
  8
T01SSILL
 62
3
 10
-59.936
 20
-368.668
 30
5137.000
 70
    32
  0
VERTEX
  8
T01SSILL
 62
3
 10
-62.677
 20
-367.547
 30
5137.000
 70
    32
  0
VERTEX
  8
T01SSILL
 62
3
 10
-65.487
 20
-368.541
 30
5137.000
 70
    32
  0
VERTEX
  8
T01SSILL
 62
3
 10
-67.573
 20
-371.643
 30
5137.000
 70
    32
  0
VERTEX
  8
T01SSILL
 62
3
 10
-67.518
 20
-377.809
 30
5137.000
 70
    32
  0
VERTEX
  8
T01SSILL
 62
3
 10
-51.667
 20
-387.004
 30
5137.000
 70
    32
  0
SEQEND
  8
T01SSILL
  0
POLYLINE
  8
T01SSILL
 62
3
 66
     1
 70
     9
  0
VERTEX
  8
T01SSILL
 62
3
 10
-66.736
 20
-386.435
 30
5137.000
 70
    32
  0
VERTEX
  8
T01SSILL
 62
3
 10
-58.058
 20
-391.466
 30
5137.000
 70
    32
  0
VERTEX
  8
T01SSILL
 62
3
 10
-63.213
 20
-396.181
 30
5137.000
 70
    32
  0
VERTEX
  8
T01SSILL
 62
3
 10
-65.513
 20
-395.057
 30
5137.000
 70
    32
  0
SEQEND
  8
T01SSILL
  0
POLYLINE
  8
T01SSILL
 62
3
 66
     1
 70
     9
  0
VERTEX
  8
T01SSILL
 62
3
 10
-31.780
 20
-394.489
 30
5137.000
 70
    32
  0
VERTEX
  8
T01SSILL
 62
3
 10
-18.457
 20
-436.036
 30
5137.000
 70
    32
  0
VERTEX
  8
T01SSILL
 62
3
 10
-58.142
 20
-401.685
 30
5137.000
 70
    32
  0
VERTEX
  8
T01SSILL
 62
3
 10
-49.752
 20
-394.298
 30
5137.000
 70
    32
  0
SEQEND
  8
T01SSILL
  0
POLYLINE
  8
T01SSILL
 62
3
 66
     1
 70
     9
  0
VERTEX
  8
T01SSILL
 62
3
 10
-54.770
 20
-433.808
 30
5137.000
 70
    32
  0
VERTEX
  8
T01SSILL
 62
3
 10
-41.217
 20
-432.453
 30
5137.000
 70
    32
  0
VERTEX
  8
T01SSILL
 62
3
 10
-38.187
 20
-426.524
 30
5137.000
 70
    32
  0
VERTEX
  8
T01SSILL
 62
3
 10
-57.885
 20
-410.668
 30
5137.000
 70
    32
  0
VERTEX
  8
T01SSILL
 62
3
 10
-64.341
 20
-407.907
 30
5137.000
 70
    32
  0
VERTEX
  8
T01SSILL
 62
3
 10
-62.533
 20
-422.778
 30
5137.000
 70
    32
  0
VERTEX
  8
T01SSILL
 62
3
 10
-56.191
 20
-422.721
 30
5137.000
 70
    32
  0
SEQEND
  8
T01SSILL
  0
POLYLINE
  8
T01SSILL
 62
3
 66
     1
 70
     9
  0
VERTEX
  8
T01SSILL
 62
3
 10
-218.452
 20
-530.680
 30
5137.000
 70
    32
  0
VERTEX
  8
T01SSILL
 62
3
 10
-201.055
 20
-525.767
 30
5137.000
 70
    32
  0
VERTEX
  8
T01SSILL
 62
3
 10
-204.596
 20
-513.995
 30
5137.000
 70
    32
  0
VERTEX
  8
T01SSILL
 62
3
 10
-198.184
 20
-511.911
 30
5137.000
 70
    32
  0
VERTEX
  8
T01SSILL
 62
3
 10
-203.449
 20
-494.605
 30
5137.000
 70
    32
  0
VERTEX
  8
T01SSILL
 62
3
 10
-209.334
 20
-496.507
 30
5137.000
 70
    32
  0
VERTEX
  8
T01SSILL
 62
3
 10
-212.427
 20
-485.524
 30
5137.000
 70
    32
  0
VERTEX
  8
T01SSILL
 62
3
 10
-194.375
 20
-494.611
 30
5137.000
 70
    32
  0
VERTEX
  8
T01SSILL
 62
3
 10
-139.327
 20
-454.476
 30
5137.000
 70
    32
  0
VERTEX
  8
T01SSILL
 62
3
 10
-130.875
 20
-453.960
 30
5137.000
 70
    32
  0
VERTEX
  8
T01SSILL
 62
3
 10
-124.889
 20
-453.553
 30
5137.000
 70
    32
  0
VERTEX
  8
T01SSILL
 62
3
 10
-124.132
 20
-459.361
 30
5137.000
 70
    32
  0
VERTEX
  8
T01SSILL
 62
3
 10
-64.895
 20
-453.983
 30
5137.000
 70
    32
  0
VERTEX
  8
T01SSILL
 62
3
 10
-65.305
 20
-447.645
 30
5137.000
 70
    32
  0
VERTEX
  8
T01SSILL
 62
3
 10
-59.848
 20
-447.067
 30
5137.000
 70
    32
  0
VERTEX
  8
T01SSILL
 62
3
 10
-60.428
 20
-441.346
 30
5137.000
 70
    32
  0
VERTEX
  8
T01SSILL
 62
3
 10
-32.885
 20
-438.104
 30
5137.000
 70
    32
  0
VERTEX
  8
T01SSILL
 62
3
 10
-25.201
 20
-440.413
 30
5137.000
 70
    32
  0
VERTEX
  8
T01SSILL
 62
3
 10
-20.604
 20
-442.222
 30
5137.000
 70
    32
  0
VERTEX
  8
T01SSILL
 62
3
 10
38.083
 20
-493.315
 30
5137.000
 70
    32
  0
VERTEX
  8
T01SSILL
 62
3
 10
37.778
 20
-498.603
 30
5137.000
 70
    32
  0
VERTEX
  8
T01SSILL
 62
3
 10
-5.738
 20
-528.064
 30
5137.000
 70
    32
  0
VERTEX
  8
T01SSILL
 62
3
 10
-7.142
 20
-518.827
 30
5137.000
 70
    32
  0
VERTEX
  8
T01SSILL
 62
3
 10
-8.562
 20
-507.829
 30
5137.000
 70
    32
  0
VERTEX
  8
T01SSILL
 62
3
 10
-20.110
 20
-516.742
 30
5137.000
 70
    32
  0
VERTEX
  8
T01SSILL
 62
3
 10
-14.470
 20
-517.043
 30
5137.000
 70
    32
  0
VERTEX
  8
T01SSILL
 62
3
 10
-11.489
 20
-525.297
 30
5137.000
 70
    32
  0
VERTEX
  8
T01SSILL
 62
3
 10
-9.417
 20
-530.388
 30
5137.000
 70
    32
  0
VERTEX
  8
T01SSILL
 62
3
 10
-25.894
 20
-539.697
 30
5137.000
 70
    32
  0
VERTEX
  8
T01SSILL
 62
3
 10
-33.706
 20
-503.650
 30
5137.000
 70
    32
  0
VERTEX
  8
T01SSILL
 62
3
 10
-39.683
 20
-505.113
 30
5137.000
 70
    32
  0
VERTEX
  8
T01SSILL
 62
3
 10
-43.191
 20
-487.175
 30
5137.000
 70
    32
  0
VERTEX
  8
T01SSILL
 62
3
 10
-78.093
 20
-494.976
 30
5137.000
 70
    32
  0
VERTEX
  8
T01SSILL
 62
3
 10
-63.279
 20
-565.315
 30
5137.000
 70
    32
  0
VERTEX
  8
T01SSILL
 62
3
 10
-51.056
 20
-562.827
 30
5137.000
 70
    32
  0
VERTEX
  8
T01SSILL
 62
3
 10
-49.016
 20
-574.260
 30
5137.000
 70
    32
  0
VERTEX
  8
T01SSILL
 62
3
 10
-19.556
 20
-568.622
 30
5137.000
 70
    32
  0
VERTEX
  8
T01SSILL
 62
3
 10
-23.346
 20
-548.836
 30
5137.000
 70
    32
  0
VERTEX
  8
T01SSILL
 62
3
 10
-17.667
 20
-543.587
 30
5137.000
 70
    32
  0
VERTEX
  8
T01SSILL
 62
3
 10
11.668
 20
-524.032
 30
5137.000
 70
    32
  0
VERTEX
  8
T01SSILL
 62
3
 10
43.188
 20
-502.695
 30
5137.000
 70
    32
  0
VERTEX
  8
T01SSILL
 62
3
 10
51.926
 20
-504.555
 30
5137.000
 70
    32
  0
VERTEX
  8
T01SSILL
 62
3
 10
72.087
 20
-522.872
 30
5137.000
 70
    32
  0
VERTEX
  8
T01SSILL
 62
3
 10
123.586
 20
-587.773
 30
5137.000
 70
    32
  0
VERTEX
  8
T01SSILL
 62
3
 10
108.810
 20
-600.150
 30
5137.000
 70
    32
  0
VERTEX
  8
T01SSILL
 62
3
 10
102.298
 20
-591.047
 30
5137.000
 70
    32
  0
VERTEX
  8
T01SSILL
 62
3
 10
77.795
 20
-609.061
 30
5137.000
 70
    32
  0
VERTEX
  8
T01SSILL
 62
3
 10
83.421
 20
-617.644
 30
5137.000
 70
    32
  0
VERTEX
  8
T01SSILL
 62
3
 10
74.240
 20
-625.214
 30
5137.000
 70
    32
  0
VERTEX
  8
T01SSILL
 62
3
 10
78.599
 20
-629.932
 30
5137.000
 70
    32
  0
VERTEX
  8
T01SSILL
 62
3
 10
87.963
 20
-623.153
 30
5137.000
 70
    32
  0
VERTEX
  8
T01SSILL
 62
3
 10
102.943
 20
-643.191
 30
5137.000
 70
    32
  0
VERTEX
  8
T01SSILL
 62
3
 10
108.817
 20
-640.143
 30
5137.000
 70
    32
  0
VERTEX
  8
T01SSILL
 62
3
 10
93.741
 20
-619.048
 30
5137.000
 70
    32
  0
VERTEX
  8
T01SSILL
 62
3
 10
107.922
 20
-609.143
 30
5137.000
 70
    32
  0
VERTEX
  8
T01SSILL
 62
3
 10
115.152
 20
-619.649
 30
5137.000
 70
    32
  0
VERTEX
  8
T01SSILL
 62
3
 10
125.131
 20
-612.600
 30
5137.000
 70
    32
  0
VERTEX
  8
T01SSILL
 62
3
 10
121.924
 20
-608.665
 30
5137.000
 70
    32
  0
VERTEX
  8
T01SSILL
 62
3
 10
123.485
 20
-596.054
 30
5137.000
 70
    32
  0
VERTEX
  8
T01SSILL
 62
3
 10
128.039
 20
-593.106
 30
5137.000
 70
    32
  0
VERTEX
  8
T01SSILL
 62
3
 10
139.986
 20
-609.031
 30
5137.000
 70
    32
  0
VERTEX
  8
T01SSILL
 62
3
 10
139.757
 20
-622.775
 30
5137.000
 70
    32
  0
VERTEX
  8
T01SSILL
 62
3
 10
153.670
 20
-641.766
 30
5137.000
 70
    32
  0
VERTEX
  8
T01SSILL
 62
3
 10
91.197
 20
-659.505
 30
5137.000
 70
    32
  0
VERTEX
  8
T01SSILL
 62
3
 10
94.209
 20
-671.194
 30
5137.000
 70
    32
  0
VERTEX
  8
T01SSILL
 62
3
 10
164.238
 20
-651.273
 30
5137.000
 70
    32
  0
VERTEX
  8
T01SSILL
 62
3
 10
172.791
 20
-652.165
 30
5137.000
 70
    32
  0
VERTEX
  8
T01SSILL
 62
3
 10
170.108
 20
-657.474
 30
5137.000
 70
    32
  0
VERTEX
  8
T01SSILL
 62
3
 10
116.851
 20
-700.941
 30
5137.000
 70
    32
  0
VERTEX
  8
T01SSILL
 62
3
 10
68.692
 20
-733.262
 30
5137.000
 70
    32
  0
VERTEX
  8
T01SSILL
 62
3
 10
63.134
 20
-732.343
 30
5137.000
 70
    32
  0
VERTEX
  8
T01SSILL
 62
3
 10
58.405
 20
-735.381
 30
5137.000
 70
    32
  0
VERTEX
  8
T01SSILL
 62
3
 10
55.100
 20
-730.301
 30
5137.000
 70
    32
  0
VERTEX
  8
T01SSILL
 62
3
 10
50.020
 20
-733.606
 30
5137.000
 70
    32
  0
VERTEX
  8
T01SSILL
 62
3
 10
37.416
 20
-713.194
 30
5137.000
 70
    32
  0
VERTEX
  8
T01SSILL
 62
3
 10
47.577
 20
-706.761
 30
5137.000
 70
    32
  0
VERTEX
  8
T01SSILL
 62
3
 10
-9.009
 20
-615.039
 30
5137.000
 70
    32
  0
VERTEX
  8
T01SSILL
 62
3
 10
-13.915
 20
-617.990
 30
5137.000
 70
    32
  0
VERTEX
  8
T01SSILL
 62
3
 10
-29.913
 20
-592.411
 30
5137.000
 70
    32
  0
VERTEX
  8
T01SSILL
 62
3
 10
-24.830
 20
-589.547
 30
5137.000
 70
    32
  0
VERTEX
  8
T01SSILL
 62
3
 10
-34.480
 20
-574.394
 30
5137.000
 70
    32
  0
VERTEX
  8
T01SSILL
 62
3
 10
-54.276
 20
-586.904
 30
5137.000
 70
    32
  0
VERTEX
  8
T01SSILL
 62
3
 10
-41.671
 20
-607.404
 30
5137.000
 70
    32
  0
VERTEX
  8
T01SSILL
 62
3
 10
-46.750
 20
-610.709
 30
5137.000
 70
    32
  0
VERTEX
  8
T01SSILL
 62
3
 10
-34.682
 20
-630.245
 30
5137.000
 70
    32
  0
VERTEX
  8
T01SSILL
 62
3
 10
-39.057
 20
-633.543
 30
5137.000
 70
    32
  0
VERTEX
  8
T01SSILL
 62
3
 10
-39.720
 20
-638.218
 30
5137.000
 70
    32
  0
VERTEX
  8
T01SSILL
 62
3
 10
-42.344
 20
-640.356
 30
5137.000
 70
    32
  0
VERTEX
  8
T01SSILL
 62
3
 10
-171.889
 20
-673.673
 30
5137.000
 70
    32
  0
VERTEX
  8
T01SSILL
 62
3
 10
-178.435
 20
-670.648
 30
5137.000
 70
    32
  0
SEQEND
  8
T01SSILL
  0
POLYLINE
  8
T01SSILL
 62
3
 66
     1
 70
     9
  0
VERTEX
  8
T01SSILL
 62
3
 10
-332.623
 20
-735.899
 30
5137.000
 70
    32
  0
VERTEX
  8
T01SSILL
 62
3
 10
-335.201
 20
-733.368
 30
5137.000
 70
    32
  0
VERTEX
  8
T01SSILL
 62
3
 10
-335.063
 20
-729.050
 30
5137.000
 70
    32
  0
VERTEX
  8
T01SSILL
 62
3
 10
-210.741
 20
-692.873
 30
5137.000
 70
    32
  0
VERTEX
  8
T01SSILL
 62
3
 10
-206.057
 20
-694.505
 30
5137.000
 70
    32
  0
VERTEX
  8
T01SSILL
 62
3
 10
-202.068
 20
-697.288
 30
5137.000
 70
    32
  0
VERTEX
  8
T01SSILL
 62
3
 10
-201.339
 20
-700.012
 30
5137.000
 70
    32
  0
VERTEX
  8
T01SSILL
 62
3
 10
-172.427
 20
-692.265
 30
5137.000
 70
    32
  0
VERTEX
  8
T01SSILL
 62
3
 10
-174.629
 20
-682.418
 30
5137.000
 70
    32
  0
VERTEX
  8
T01SSILL
 62
3
 10
-171.658
 20
-679.837
 30
5137.000
 70
    32
  0
VERTEX
  8
T01SSILL
 62
3
 10
-39.391
 20
-645.439
 30
5137.000
 70
    32
  0
VERTEX
  8
T01SSILL
 62
3
 10
-30.198
 20
-648.968
 30
5137.000
 70
    32
  0
VERTEX
  8
T01SSILL
 62
3
 10
-10.805
 20
-679.801
 30
5137.000
 70
    32
  0
VERTEX
  8
T01SSILL
 62
3
 10
-21.407
 20
-686.151
 30
5137.000
 70
    32
  0
VERTEX
  8
T01SSILL
 62
3
 10
-14.973
 20
-696.311
 30
5137.000
 70
    32
  0
VERTEX
  8
T01SSILL
 62
3
 10
-25.749
 20
-702.927
 30
5137.000
 70
    32
  0
VERTEX
  8
T01SSILL
 62
3
 10
-16.452
 20
-717.995
 30
5137.000
 70
    32
  0
VERTEX
  8
T01SSILL
 62
3
 10
-10.670
 20
-714.419
 30
5137.000
 70
    32
  0
VERTEX
  8
T01SSILL
 62
3
 10
-7.985
 20
-719.152
 30
5137.000
 70
    32
  0
VERTEX
  8
T01SSILL
 62
3
 10
-2.990
 20
-716.200
 30
5137.000
 70
    32
  0
VERTEX
  8
T01SSILL
 62
3
 10
0.582
 20
-721.630
 30
5137.000
 70
    32
  0
VERTEX
  8
T01SSILL
 62
3
 10
6.015
 20
-718.498
 30
5137.000
 70
    32
  0
VERTEX
  8
T01SSILL
 62
3
 10
9.058
 20
-723.756
 30
5137.000
 70
    32
  0
VERTEX
  8
T01SSILL
 62
3
 10
14.142
 20
-720.979
 30
5137.000
 70
    32
  0
VERTEX
  8
T01SSILL
 62
3
 10
19.777
 20
-730.531
 30
5137.000
 70
    32
  0
VERTEX
  8
T01SSILL
 62
3
 10
25.124
 20
-727.487
 30
5137.000
 70
    32
  0
VERTEX
  8
T01SSILL
 62
3
 10
28.255
 20
-732.833
 30
5137.000
 70
    32
  0
VERTEX
  8
T01SSILL
 62
3
 10
33.247
 20
-729.617
 30
5137.000
 70
    32
  0
VERTEX
  8
T01SSILL
 62
3
 10
45.052
 20
-749.331
 30
5137.000
 70
    32
  0
VERTEX
  8
T01SSILL
 62
3
 10
26.141
 20
-762.274
 30
5137.000
 70
    32
  0
VERTEX
  8
T01SSILL
 62
3
 10
-140.583
 20
-834.332
 30
5137.000
 70
    32
  0
VERTEX
  8
T01SSILL
 62
3
 10
-146.207
 20
-835.880
 30
5137.000
 70
    32
  0
VERTEX
  8
T01SSILL
 62
3
 10
-151.943
 20
-834.699
 30
5137.000
 70
    32
  0
VERTEX
  8
T01SSILL
 62
3
 10
-161.325
 20
-829.762
 30
5137.000
 70
    32
  0
VERTEX
  8
T01SSILL
 62
3
 10
-270.567
 20
-769.785
 30
5137.000
 70
    32
  0
SEQEND
  8
T01SSILL
  0
POLYLINE
  8
T01SSILL
 62
3
 66
     1
 70
     9
  0
VERTEX
  8
T01SSILL
 62
3
 10
184.156
 20
-691.527
 30
5137.000
 70
    32
  0
VERTEX
  8
T01SSILL
 62
3
 10
174.973
 20
-699.009
 30
5137.000
 70
    32
  0
VERTEX
  8
T01SSILL
 62
3
 10
144.341
 20
-721.219
 30
5137.000
 70
    32
  0
VERTEX
  8
T01SSILL
 62
3
 10
140.377
 20
-721.166
 30
5137.000
 70
    32
  0
VERTEX
  8
T01SSILL
 62
3
 10
125.079
 20
-704.831
 30
5137.000
 70
    32
  0
VERTEX
  8
T01SSILL
 62
3
 10
125.404
 20
-701.833
 30
5137.000
 70
    32
  0
VERTEX
  8
T01SSILL
 62
3
 10
163.089
 20
-670.399
 30
5137.000
 70
    32
  0
VERTEX
  8
T01SSILL
 62
3
 10
167.496
 20
-670.711
 30
5137.000
 70
    32
  0
SEQEND
  8
T01SSILL
  0
POLYLINE
  8
T01SSILL
 62
3
 66
     1
 70
     9
  0
VERTEX
  8
T01SSILL
 62
3
 10
79.971
 20
-498.312
 30
5137.000
 70
    32
  0
VERTEX
  8
T01SSILL
 62
3
 10
67.309
 20
-510.759
 30
5137.000
 70
    32
  0
VERTEX
  8
T01SSILL
 62
3
 10
78.142
 20
-520.263
 30
5137.000
 70
    32
  0
VERTEX
  8
T01SSILL
 62
3
 10
90.702
 20
-535.831
 30
5137.000
 70
    32
  0
VERTEX
  8
T01SSILL
 62
3
 10
102.683
 20
-526.033
 30
5137.000
 70
    32
  0
VERTEX
  8
T01SSILL
 62
3
 10
92.447
 20
-514.321
 30
5137.000
 70
    32
  0
SEQEND
  8
T01SSILL
  0
POLYLINE
  8
T01SSILL
 62
3
 66
     1
 70
     9
  0
VERTEX
  8
T01SSILL
 62
3
 10
164.268
 20
-497.731
 30
5137.000
 70
    32
  0
VERTEX
  8
T01SSILL
 62
3
 10
184.128
 20
-521.778
 30
5137.000
 70
    32
  0
VERTEX
  8
T01SSILL
 62
3
 10
189.740
 20
-528.686
 30
5137.000
 70
    32
  0
VERTEX
  8
T01SSILL
 62
3
 10
202.640
 20
-542.841
 30
5137.000
 70
    32
  0
VERTEX
  8
T01SSILL
 62
3
 10
168.158
 20
-567.992
 30
5137.000
 70
    32
  0
VERTEX
  8
T01SSILL
 62
3
 10
151.708
 20
-570.518
 30
5137.000
 70
    32
  0
VERTEX
  8
T01SSILL
 62
3
 10
143.233
 20
-558.614
 30
5137.000
 70
    32
  0
VERTEX
  8
T01SSILL
 62
3
 10
121.173
 20
-574.052
 30
5137.000
 70
    32
  0
VERTEX
  8
T01SSILL
 62
3
 10
105.221
 20
-553.582
 30
5137.000
 70
    32
  0
VERTEX
  8
T01SSILL
 62
3
 10
107.754
 20
-551.181
 30
5137.000
 70
    32
  0
VERTEX
  8
T01SSILL
 62
3
 10
104.542
 20
-546.717
 30
5137.000
 70
    32
  0
VERTEX
  8
T01SSILL
 62
3
 10
117.660
 20
-536.029
 30
5137.000
 70
    32
  0
VERTEX
  8
T01SSILL
 62
3
 10
133.687
 20
-555.000
 30
5137.000
 70
    32
  0
VERTEX
  8
T01SSILL
 62
3
 10
165.868
 20
-528.813
 30
5137.000
 70
    32
  0
VERTEX
  8
T01SSILL
 62
3
 10
150.193
 20
-509.662
 30
5137.000
 70
    32
  0
SEQEND
  8
T01SSILL
  0
POLYLINE
  8
T01SSILL
 62
3
 66
     1
 70
     9
  0
VERTEX
  8
T01SSILL
 62
3
 10
204.765
 20
-465.567
 30
5137.000
 70
    32
  0
VERTEX
  8
T01SSILL
 62
3
 10
201.705
 20
-468.149
 30
5137.000
 70
    32
  0
VERTEX
  8
T01SSILL
 62
3
 10
217.294
 20
-487.477
 30
5137.000
 70
    32
  0
VERTEX
  8
T01SSILL
 62
3
 10
194.381
 20
-506.005
 30
5137.000
 70
    32
  0
VERTEX
  8
T01SSILL
 62
3
 10
198.391
 20
-511.079
 30
5137.000
 70
    32
  0
VERTEX
  8
T01SSILL
 62
3
 10
188.939
 20
-517.946
 30
5137.000
 70
    32
  0
VERTEX
  8
T01SSILL
 62
3
 10
208.512
 20
-539.441
 30
5137.000
 70
    32
  0
VERTEX
  8
T01SSILL
 62
3
 10
216.211
 20
-533.558
 30
5137.000
 70
    32
  0
VERTEX
  8
T01SSILL
 62
3
 10
243.484
 20
-539.479
 30
5137.000
 70
    32
  0
VERTEX
  8
T01SSILL
 62
3
 10
254.123
 20
-547.135
 30
5137.000
 70
    32
  0
VERTEX
  8
T01SSILL
 62
3
 10
255.463
 20
-519.815
 30
5137.000
 70
    32
  0
VERTEX
  8
T01SSILL
 62
3
 10
241.755
 20
-503.994
 30
5137.000
 70
    32
  0
VERTEX
  8
T01SSILL
 62
3
 10
236.624
 20
-501.574
 30
5137.000
 70
    32
  0
VERTEX
  8
T01SSILL
 62
3
 10
232.093
 20
-497.210
 30
5137.000
 70
    32
  0
SEQEND
  8
T01SSILL
  0
POLYLINE
  8
T01SSILL
 62
3
 66
     1
 70
     9
  0
VERTEX
  8
T01SSILL
 62
3
 10
144.252
 20
-603.443
 30
5137.000
 70
    32
  0
VERTEX
  8
T01SSILL
 62
3
 10
149.734
 20
-605.684
 30
5137.000
 70
    32
  0
VERTEX
  8
T01SSILL
 62
3
 10
190.490
 20
-572.989
 30
5137.000
 70
    32
  0
VERTEX
  8
T01SSILL
 62
3
 10
202.164
 20
-587.859
 30
5137.000
 70
    32
  0
VERTEX
  8
T01SSILL
 62
3
 10
211.348
 20
-580.642
 30
5137.000
 70
    32
  0
VERTEX
  8
T01SSILL
 62
3
 10
214.383
 20
-585.019
 30
5137.000
 70
    32
  0
VERTEX
  8
T01SSILL
 62
3
 10
219.197
 20
-581.628
 30
5137.000
 70
    32
  0
VERTEX
  8
T01SSILL
 62
3
 10
222.939
 20
-586.263
 30
5137.000
 70
    32
  0
VERTEX
  8
T01SSILL
 62
3
 10
228.188
 20
-582.252
 30
5137.000
 70
    32
  0
VERTEX
  8
T01SSILL
 62
3
 10
242.360
 20
-600.712
 30
5137.000
 70
    32
  0
VERTEX
  8
T01SSILL
 62
3
 10
251.992
 20
-594.195
 30
5137.000
 70
    32
  0
VERTEX
  8
T01SSILL
 62
3
 10
255.557
 20
-598.831
 30
5137.000
 70
    32
  0
VERTEX
  8
T01SSILL
 62
3
 10
253.571
 20
-603.342
 30
5137.000
 70
    32
  0
VERTEX
  8
T01SSILL
 62
3
 10
259.862
 20
-607.425
 30
5137.000
 70
    32
  0
VERTEX
  8
T01SSILL
 62
3
 10
295.619
 20
-596.710
 30
5137.000
 70
    32
  0
VERTEX
  8
T01SSILL
 62
3
 10
303.727
 20
-597.165
 30
5137.000
 70
    32
  0
VERTEX
  8
T01SSILL
 62
3
 10
291.778
 20
-581.064
 30
5137.000
 70
    32
  0
VERTEX
  8
T01SSILL
 62
3
 10
281.052
 20
-573.585
 30
5137.000
 70
    32
  0
VERTEX
  8
T01SSILL
 62
3
 10
275.538
 20
-577.510
 30
5137.000
 70
    32
  0
VERTEX
  8
T01SSILL
 62
3
 10
271.198
 20
-574.906
 30
5137.000
 70
    32
  0
VERTEX
  8
T01SSILL
 62
3
 10
269.178
 20
-565.763
 30
5137.000
 70
    32
  0
VERTEX
  8
T01SSILL
 62
3
 10
240.455
 20
-545.496
 30
5137.000
 70
    32
  0
VERTEX
  8
T01SSILL
 62
3
 10
216.537
 20
-540.426
 30
5137.000
 70
    32
  0
VERTEX
  8
T01SSILL
 62
3
 10
172.425
 20
-572.270
 30
5137.000
 70
    32
  0
VERTEX
  8
T01SSILL
 62
3
 10
148.769
 20
-576.711
 30
5137.000
 70
    32
  0
VERTEX
  8
T01SSILL
 62
3
 10
132.664
 20
-588.308
 30
5137.000
 70
    32
  0
SEQEND
  8
T01SSILL
  0
POLYLINE
  8
T01SSILL
 62
3
 66
     1
 70
     9
  0
VERTEX
  8
T01SSILL
 62
3
 10
363.652
 20
-658.554
 30
5137.000
 70
    32
  0
VERTEX
  8
T01SSILL
 62
3
 10
322.562
 20
-703.145
 30
5137.000
 70
    32
  0
VERTEX
  8
T01SSILL
 62
3
 10
317.117
 20
-705.044
 30
5137.000
 70
    32
  0
VERTEX
  8
T01SSILL
 62
3
 10
300.921
 20
-686.778
 30
5137.000
 70
    32
  0
VERTEX
  8
T01SSILL
 62
3
 10
297.552
 20
-684.430
 30
5137.000
 70
    32
  0
VERTEX
  8
T01SSILL
 62
3
 10
273.459
 20
-679.449
 30
5137.000
 70
    32
  0
VERTEX
  8
T01SSILL
 62
3
 10
273.352
 20
-677.336
 30
5137.000
 70
    32
  0
VERTEX
  8
T01SSILL
 62
3
 10
219.031
 20
-680.731
 30
5137.000
 70
    32
  0
VERTEX
  8
T01SSILL
 62
3
 10
220.153
 20
-697.810
 30
5137.000
 70
    32
  0
VERTEX
  8
T01SSILL
 62
3
 10
200.285
 20
-672.883
 30
5137.000
 70
    32
  0
VERTEX
  8
T01SSILL
 62
3
 10
204.836
 20
-669.583
 30
5137.000
 70
    32
  0
VERTEX
  8
T01SSILL
 62
3
 10
200.653
 20
-664.864
 30
5137.000
 70
    32
  0
VERTEX
  8
T01SSILL
 62
3
 10
205.465
 20
-661.121
 30
5137.000
 70
    32
  0
VERTEX
  8
T01SSILL
 62
3
 10
194.148
 20
-646.776
 30
5137.000
 70
    32
  0
VERTEX
  8
T01SSILL
 62
3
 10
222.493
 20
-624.939
 30
5137.000
 70
    32
  0
VERTEX
  8
T01SSILL
 62
3
 10
226.411
 20
-629.572
 30
5137.000
 70
    32
  0
VERTEX
  8
T01SSILL
 62
3
 10
231.482
 20
-625.299
 30
5137.000
 70
    32
  0
VERTEX
  8
T01SSILL
 62
3
 10
234.871
 20
-629.937
 30
5137.000
 70
    32
  0
VERTEX
  8
T01SSILL
 62
3
 10
243.968
 20
-622.808
 30
5137.000
 70
    32
  0
VERTEX
  8
T01SSILL
 62
3
 10
247.445
 20
-627.357
 30
5137.000
 70
    32
  0
VERTEX
  8
T01SSILL
 62
3
 10
252.432
 20
-623.613
 30
5137.000
 70
    32
  0
VERTEX
  8
T01SSILL
 62
3
 10
255.397
 20
-649.661
 30
5137.000
 70
    32
  0
VERTEX
  8
T01SSILL
 62
3
 10
256.540
 20
-659.252
 30
5137.000
 70
    32
  0
VERTEX
  8
T01SSILL
 62
3
 10
262.876
 20
-658.491
 30
5137.000
 70
    32
  0
VERTEX
  8
T01SSILL
 62
3
 10
258.008
 20
-616.780
 30
5137.000
 70
    32
  0
VERTEX
  8
T01SSILL
 62
3
 10
264.051
 20
-612.849
 30
5137.000
 70
    32
  0
VERTEX
  8
T01SSILL
 62
3
 10
296.557
 20
-603.044
 30
5137.000
 70
    32
  0
VERTEX
  8
T01SSILL
 62
3
 10
362.770
 20
-609.408
 30
5137.000
 70
    32
  0
VERTEX
  8
T01SSILL
 62
3
 10
390.488
 20
-625.632
 30
5137.000
 70
    32
  0
VERTEX
  8
T01SSILL
 62
3
 10
390.346
 20
-629.509
 30
5137.000
 70
    32
  0
VERTEX
  8
T01SSILL
 62
3
 10
372.033
 20
-650.198
 30
5137.000
 70
    32
  0
VERTEX
  8
T01SSILL
 62
3
 10
367.288
 20
-651.474
 30
5137.000
 70
    32
  0
VERTEX
  8
T01SSILL
 62
3
 10
299.645
 20
-662.477
 30
5137.000
 70
    32
  0
VERTEX
  8
T01SSILL
 62
3
 10
300.313
 20
-668.197
 30
5137.000
 70
    32
  0
SEQEND
  8
T01SSILL
  0
POLYLINE
  8
T01SSILL
 62
3
 66
     1
 70
     9
  0
VERTEX
  8
T01SSILL
 62
3
 10
281.335
 20
-703.075
 30
5137.000
 70
    32
  0
VERTEX
  8
T01SSILL
 62
3
 10
278.668
 20
-700.368
 30
5137.000
 70
    32
  0
VERTEX
  8
T01SSILL
 62
3
 10
277.593
 20
-688.573
 30
5137.000
 70
    32
  0
VERTEX
  8
T01SSILL
 62
3
 10
280.394
 20
-686.610
 30
5137.000
 70
    32
  0
VERTEX
  8
T01SSILL
 62
3
 10
295.308
 20
-689.559
 30
5137.000
 70
    32
  0
VERTEX
  8
T01SSILL
 62
3
 10
298.327
 20
-692.263
 30
5137.000
 70
    32
  0
VERTEX
  8
T01SSILL
 62
3
 10
309.452
 20
-704.848
 30
5137.000
 70
    32
  0
VERTEX
  8
T01SSILL
 62
3
 10
307.176
 20
-706.454
 30
5137.000
 70
    32
  0
SEQEND
  8
T01SSILL
  0
POLYLINE
  8
T01SSILL
 62
3
 66
     1
 70
     9
  0
VERTEX
  8
T01SSILL
 62
3
 10
564.223
 20
-1017.785
 30
5137.000
 70
    32
  0
VERTEX
  8
T01SSILL
 62
3
 10
616.315
 20
-1053.388
 30
5137.000
 70
    32
  0
VERTEX
  8
T01SSILL
 62
3
 10
590.285
 20
-1071.873
 30
5137.000
 70
    32
  0
VERTEX
  8
T01SSILL
 62
3
 10
582.629
 20
-1066.422
 30
5137.000
 70
    32
  0
SEQEND
  8
T01SSILL
  0
POLYLINE
  8
T01SSILL
 62
3
 66
     1
 70
     9
  0
VERTEX
  8
T01SSILL
 62
3
 10
561.623
 20
-1106.104
 30
5137.000
 70
    32
  0
VERTEX
  8
T01SSILL
 62
3
 10
557.068
 20
-1148.682
 30
5137.000
 70
    32
  0
VERTEX
  8
T01SSILL
 62
3
 10
533.351
 20
-1227.422
 30
5137.000
 70
    32
  0
VERTEX
  8
T01SSILL
 62
3
 10
528.162
 20
-1228.744
 30
5137.000
 70
    32
  0
VERTEX
  8
T01SSILL
 62
3
 10
487.137
 20
-1155.046
 30
5137.000
 70
    32
  0
VERTEX
  8
T01SSILL
 62
3
 10
490.213
 20
-1148.271
 30
5137.000
 70
    32
  0
VERTEX
  8
T01SSILL
 62
3
 10
556.256
 20
-1103.292
 30
5137.000
 70
    32
  0
SEQEND
  8
T01SSILL
  0
POLYLINE
  8
T01SSILL
 62
3
 66
     1
 70
     9
  0
VERTEX
  8
T01SSILL
 62
3
 10
569.975
 20
-1094.137
 30
5137.000
 70
    32
  0
VERTEX
  8
T01SSILL
 62
3
 10
563.313
 20
-1148.415
 30
5137.000
 70
    32
  0
VERTEX
  8
T01SSILL
 62
3
 10
537.490
 20
-1236.393
 30
5137.000
 70
    32
  0
VERTEX
  8
T01SSILL
 62
3
 10
539.167
 20
-1249.939
 30
5137.000
 70
    32
  0
VERTEX
  8
T01SSILL
 62
3
 10
557.654
 20
-1282.302
 30
5137.000
 70
    32
  0
VERTEX
  8
T01SSILL
 62
3
 10
612.219
 20
-1341.919
 30
5137.000
 70
    32
  0
VERTEX
  8
T01SSILL
 62
3
 10
624.271
 20
-1343.146
 30
5137.000
 70
    32
  0
VERTEX
  8
T01SSILL
 62
3
 10
658.396
 20
-1328.616
 30
5137.000
 70
    32
  0
VERTEX
  8
T01SSILL
 62
3
 10
660.505
 20
-1323.601
 30
5137.000
 70
    32
  0
VERTEX
  8
T01SSILL
 62
3
 10
632.770
 20
-1266.611
 30
5137.000
 70
    32
  0
VERTEX
  8
T01SSILL
 62
3
 10
636.276
 20
-1237.581
 30
5137.000
 70
    32
  0
VERTEX
  8
T01SSILL
 62
3
 10
640.230
 20
-1227.639
 30
5137.000
 70
    32
  0
VERTEX
  8
T01SSILL
 62
3
 10
635.740
 20
-1217.525
 30
5137.000
 70
    32
  0
VERTEX
  8
T01SSILL
 62
3
 10
630.726
 20
-1219.374
 30
5137.000
 70
    32
  0
VERTEX
  8
T01SSILL
 62
3
 10
626.411
 20
-1207.589
 30
5137.000
 70
    32
  0
VERTEX
  8
T01SSILL
 62
3
 10
620.518
 20
-1209.966
 30
5137.000
 70
    32
  0
VERTEX
  8
T01SSILL
 62
3
 10
616.115
 20
-1199.324
 30
5137.000
 70
    32
  0
VERTEX
  8
T01SSILL
 62
3
 10
610.574
 20
-1201.350
 30
5137.000
 70
    32
  0
SEQEND
  8
T01SSILL
  0
POLYLINE
  8
T01SSILL
 62
3
 66
     1
 70
     9
  0
VERTEX
  8
T01SSILL
 62
3
 10
638.630
 20
-1389.849
 30
5137.000
 70
    32
  0
VERTEX
  8
T01SSILL
 62
3
 10
645.932
 20
-1391.342
 30
5137.000
 70
    32
  0
VERTEX
  8
T01SSILL
 62
3
 10
714.451
 20
-1375.829
 30
5137.000
 70
    32
  0
VERTEX
  8
T01SSILL
 62
3
 10
706.785
 20
-1346.012
 30
5137.000
 70
    32
  0
VERTEX
  8
T01SSILL
 62
3
 10
712.590
 20
-1344.602
 30
5137.000
 70
    32
  0
VERTEX
  8
T01SSILL
 62
3
 10
710.740
 20
-1338.973
 30
5137.000
 70
    32
  0
VERTEX
  8
T01SSILL
 62
3
 10
716.282
 20
-1337.651
 30
5137.000
 70
    32
  0
VERTEX
  8
T01SSILL
 62
3
 10
710.026
 20
-1315.135
 30
5137.000
 70
    32
  0
VERTEX
  8
T01SSILL
 62
3
 10
704.132
 20
-1315.225
 30
5137.000
 70
    32
  0
VERTEX
  8
T01SSILL
 62
3
 10
624.626
 20
-1349.919
 30
5137.000
 70
    32
  0
VERTEX
  8
T01SSILL
 62
3
 10
621.989
 20
-1354.406
 30
5137.000
 70
    32
  0
SEQEND
  8
T01SSILL
  0
POLYLINE
  8
T01SSILL
 62
3
 66
     1
 70
     9
  0
VERTEX
  8
T01SSILL
 62
3
 10
-1250.571
 20
1155.855
 30
5137.000
 70
    32
  0
VERTEX
  8
T01SSILL
 62
3
 10
-1219.355
 20
1105.061
 30
5137.000
 70
    32
  0
VERTEX
  8
T01SSILL
 62
3
 10
-1209.516
 20
1111.060
 30
5137.000
 70
    32
  0
VERTEX
  8
T01SSILL
 62
3
 10
-1167.241
 20
1044.034
 30
5137.000
 70
    32
  0
VERTEX
  8
T01SSILL
 62
3
 10
-1165.923
 20
1033.353
 30
5137.000
 70
    32
  0
VERTEX
  8
T01SSILL
 62
3
 10
-1119.909
 20
960.299
 30
5137.000
 70
    32
  0
VERTEX
  8
T01SSILL
 62
3
 10
-1113.558
 20
950.368
 30
5137.000
 70
    32
  0
VERTEX
  8
T01SSILL
 62
3
 10
-1105.091
 20
940.420
 30
5137.000
 70
    32
  0
VERTEX
  8
T01SSILL
 62
3
 10
-1096.450
 20
930.205
 30
5137.000
 70
    32
  0
VERTEX
  8
T01SSILL
 62
3
 10
-1080.246
 20
907.404
 30
5137.000
 70
    32
  0
VERTEX
  8
T01SSILL
 62
3
 10
-1056.908
 20
863.290
 30
5137.000
 70
    32
  0
VERTEX
  8
T01SSILL
 62
3
 10
-1040.937
 20
833.966
 30
5137.000
 70
    32
  0
VERTEX
  8
T01SSILL
 62
3
 10
-1023.998
 20
804.457
 30
5137.000
 70
    32
  0
VERTEX
  8
T01SSILL
 62
3
 10
-993.386
 20
755.255
 30
5137.000
 70
    32
  0
VERTEX
  8
T01SSILL
 62
3
 10
-985.271
 20
755.538
 30
5137.000
 70
    32
  0
VERTEX
  8
T01SSILL
 62
3
 10
-904.397
 20
808.450
 30
5137.000
 70
    32
  0
VERTEX
  8
T01SSILL
 62
3
 10
-900.477
 20
802.949
 30
5137.000
 70
    32
  0
VERTEX
  8
T01SSILL
 62
3
 10
-905.084
 20
800.432
 30
5137.000
 70
    32
  0
VERTEX
  8
T01SSILL
 62
3
 10
-843.264
 20
709.606
 30
5137.000
 70
    32
  0
VERTEX
  8
T01SSILL
 62
3
 10
-831.579
 20
663.918
 30
5137.000
 70
    32
  0
VERTEX
  8
T01SSILL
 62
3
 10
-848.023
 20
597.664
 30
5137.000
 70
    32
  0
VERTEX
  8
T01SSILL
 62
3
 10
-875.883
 20
567.484
 30
5137.000
 70
    32
  0
VERTEX
  8
T01SSILL
 62
3
 10
-815.354
 20
470.056
 30
5137.000
 70
    32
  0
VERTEX
  8
T01SSILL
 62
3
 10
-810.184
 20
466.308
 30
5137.000
 70
    32
  0
VERTEX
  8
T01SSILL
 62
3
 10
-794.485
 20
466.789
 30
5137.000
 70
    32
  0
VERTEX
  8
T01SSILL
 62
3
 10
-750.018
 20
469.844
 30
5137.000
 70
    32
  0
VERTEX
  8
T01SSILL
 62
3
 10
-743.465
 20
473.138
 30
5137.000
 70
    32
  0
VERTEX
  8
T01SSILL
 62
3
 10
-779.457
 20
511.982
 30
5137.000
 70
    32
  0
VERTEX
  8
T01SSILL
 62
3
 10
-790.819
 20
513.491
 30
5137.000
 70
    32
  0
VERTEX
  8
T01SSILL
 62
3
 10
-778.921
 20
523.087
 30
5137.000
 70
    32
  0
VERTEX
  8
T01SSILL
 62
3
 10
-775.969
 20
517.683
 30
5137.000
 70
    32
  0
VERTEX
  8
T01SSILL
 62
3
 10
-737.362
 20
475.290
 30
5137.000
 70
    32
  0
VERTEX
  8
T01SSILL
 62
3
 10
-730.601
 20
471.969
 30
5137.000
 70
    32
  0
VERTEX
  8
T01SSILL
 62
3
 10
-724.615
 20
470.859
 30
5137.000
 70
    32
  0
VERTEX
  8
T01SSILL
 62
3
 10
-713.952
 20
470.150
 30
5137.000
 70
    32
  0
VERTEX
  8
T01SSILL
 62
3
 10
-700.992
 20
469.861
 30
5137.000
 70
    32
  0
VERTEX
  8
T01SSILL
 62
3
 10
-693.059
 20
469.616
 30
5137.000
 70
    32
  0
VERTEX
  8
T01SSILL
 62
3
 10
-686.675
 20
473.706
 30
5137.000
 70
    32
  0
VERTEX
  8
T01SSILL
 62
3
 10
-590.424
 20
581.683
 30
5137.000
 70
    32
  0
VERTEX
  8
T01SSILL
 62
3
 10
-577.888
 20
593.566
 30
5137.000
 70
    32
  0
VERTEX
  8
T01SSILL
 62
3
 10
-498.687
 20
667.302
 30
5137.000
 70
    32
  0
VERTEX
  8
T01SSILL
 62
3
 10
-484.397
 20
688.341
 30
5137.000
 70
    32
  0
VERTEX
  8
T01SSILL
 62
3
 10
-471.736
 20
673.859
 30
5137.000
 70
    32
  0
VERTEX
  8
T01SSILL
 62
3
 10
-495.998
 20
662.076
 30
5137.000
 70
    32
  0
VERTEX
  8
T01SSILL
 62
3
 10
-585.518
 20
577.937
 30
5137.000
 70
    32
  0
VERTEX
  8
T01SSILL
 62
3
 10
-653.633
 20
501.548
 30
5137.000
 70
    32
  0
VERTEX
  8
T01SSILL
 62
3
 10
-656.692
 20
494.432
 30
5137.000
 70
    32
  0
VERTEX
  8
T01SSILL
 62
3
 10
-645.309
 20
444.338
 30
5137.000
 70
    32
  0
VERTEX
  8
T01SSILL
 62
3
 10
-645.725
 20
406.515
 30
5137.000
 70
    32
  0
VERTEX
  8
T01SSILL
 62
3
 10
-639.690
 20
400.819
 30
5137.000
 70
    32
  0
VERTEX
  8
T01SSILL
 62
3
 10
-612.874
 20
340.804
 30
5137.000
 70
    32
  0
VERTEX
  8
T01SSILL
 62
3
 10
-606.947
 20
343.046
 30
5137.000
 70
    32
  0
VERTEX
  8
T01SSILL
 62
3
 10
-594.488
 20
315.427
 30
5137.000
 70
    32
  0
VERTEX
  8
T01SSILL
 62
3
 10
-599.887
 20
313.093
 30
5137.000
 70
    32
  0
VERTEX
  8
T01SSILL
 62
3
 10
-594.601
 20
302.290
 30
5137.000
 70
    32
  0
VERTEX
  8
T01SSILL
 62
3
 10
-600.710
 20
299.521
 30
5137.000
 70
    32
  0
VERTEX
  8
T01SSILL
 62
3
 10
-583.230
 20
261.102
 30
5137.000
 70
    32
  0
VERTEX
  8
T01SSILL
 62
3
 10
-632.185
 20
238.687
 30
5137.000
 70
    32
  0
VERTEX
  8
T01SSILL
 62
3
 10
-659.356
 20
298.353
 30
5137.000
 70
    32
  0
VERTEX
  8
T01SSILL
 62
3
 10
-637.667
 20
308.305
 30
5137.000
 70
    32
  0
VERTEX
  8
T01SSILL
 62
3
 10
-640.527
 20
314.150
 30
5137.000
 70
    32
  0
VERTEX
  8
T01SSILL
 62
3
 10
-634.865
 20
316.305
 30
5137.000
 70
    32
  0
VERTEX
  8
T01SSILL
 62
3
 10
-637.636
 20
322.149
 30
5137.000
 70
    32
  0
VERTEX
  8
T01SSILL
 62
3
 10
-631.795
 20
324.655
 30
5137.000
 70
    32
  0
VERTEX
  8
T01SSILL
 62
3
 10
-648.663
 20
362.364
 30
5137.000
 70
    32
  0
VERTEX
  8
T01SSILL
 62
3
 10
-687.430
 20
345.505
 30
5137.000
 70
    32
  0
VERTEX
  8
T01SSILL
 62
3
 10
-685.007
 20
340.193
 30
5137.000
 70
    32
  0
VERTEX
  8
T01SSILL
 62
3
 10
-690.314
 20
338.299
 30
5137.000
 70
    32
  0
VERTEX
  8
T01SSILL
 62
3
 10
-682.614
 20
321.215
 30
5137.000
 70
    32
  0
VERTEX
  8
T01SSILL
 62
3
 10
-711.371
 20
309.648
 30
5137.000
 70
    32
  0
VERTEX
  8
T01SSILL
 62
3
 10
-722.948
 20
337.170
 30
5137.000
 70
    32
  0
VERTEX
  8
T01SSILL
 62
3
 10
-728.172
 20
334.747
 30
5137.000
 70
    32
  0
VERTEX
  8
T01SSILL
 62
3
 10
-735.259
 20
351.297
 30
5137.000
 70
    32
  0
VERTEX
  8
T01SSILL
 62
3
 10
-757.567
 20
381.910
 30
5137.000
 70
    32
  0
VERTEX
  8
T01SSILL
 62
3
 10
-777.655
 20
363.390
 30
5137.000
 70
    32
  0
VERTEX
  8
T01SSILL
 62
3
 10
-771.873
 20
348.880
 30
5137.000
 70
    32
  0
VERTEX
  8
T01SSILL
 62
3
 10
-766.121
 20
351.299
 30
5137.000
 70
    32
  0
VERTEX
  8
T01SSILL
 62
3
 10
-726.221
 20
254.402
 30
5137.000
 70
    32
  0
VERTEX
  8
T01SSILL
 62
3
 10
-663.283
 20
282.691
 30
5137.000
 70
    32
  0
VERTEX
  8
T01SSILL
 62
3
 10
-658.532
 20
271.364
 30
5137.000
 70
    32
  0
VERTEX
  8
T01SSILL
 62
3
 10
-674.993
 20
264.364
 30
5137.000
 70
    32
  0
VERTEX
  8
T01SSILL
 62
3
 10
-677.158
 20
268.879
 30
5137.000
 70
    32
  0
VERTEX
  8
T01SSILL
 62
3
 10
-698.667
 20
259.366
 30
5137.000
 70
    32
  0
VERTEX
  8
T01SSILL
 62
3
 10
-677.966
 20
216.157
 30
5137.000
 70
    32
  0
VERTEX
  8
T01SSILL
 62
3
 10
-694.523
 20
208.365
 30
5137.000
 70
    32
  0
VERTEX
  8
T01SSILL
 62
3
 10
-715.571
 20
252.105
 30
5137.000
 70
    32
  0
VERTEX
  8
T01SSILL
 62
3
 10
-725.043
 20
247.867
 30
5137.000
 70
    32
  0
VERTEX
  8
T01SSILL
 62
3
 10
-725.355
 20
242.314
 30
5137.000
 70
    32
  0
VERTEX
  8
T01SSILL
 62
3
 10
-718.399
 20
220.827
 30
5137.000
 70
    32
  0
VERTEX
  8
T01SSILL
 62
3
 10
-709.407
 20
200.205
 30
5137.000
 70
    32
  0
VERTEX
  8
T01SSILL
 62
3
 10
-702.613
 20
190.447
 30
5137.000
 70
    32
  0
VERTEX
  8
T01SSILL
 62
3
 10
-699.033
 20
186.360
 30
5137.000
 70
    32
  0
VERTEX
  8
T01SSILL
 62
3
 10
-692.184
 20
183.038
 30
5137.000
 70
    32
  0
VERTEX
  8
T01SSILL
 62
3
 10
-689.846
 20
178.080
 30
5137.000
 70
    32
  0
VERTEX
  8
T01SSILL
 62
3
 10
-690.500
 20
173.853
 30
5137.000
 70
    32
  0
VERTEX
  8
T01SSILL
 62
3
 10
-701.399
 20
167.687
 30
5137.000
 70
    32
  0
VERTEX
  8
T01SSILL
 62
3
 10
-710.588
 20
165.562
 30
5137.000
 70
    32
  0
VERTEX
  8
T01SSILL
 62
3
 10
-713.750
 20
167.000
 30
5137.000
 70
    32
  0
VERTEX
  8
T01SSILL
 62
3
 10
-725.200
 20
188.878
 30
5137.000
 70
    32
  0
VERTEX
  8
T01SSILL
 62
3
 10
-738.001
 20
217.646
 30
5137.000
 70
    32
  0
VERTEX
  8
T01SSILL
 62
3
 10
-745.778
 20
236.054
 30
5137.000
 70
    32
  0
VERTEX
  8
T01SSILL
 62
3
 10
-758.803
 20
269.497
 30
5137.000
 70
    32
  0
VERTEX
  8
T01SSILL
 62
3
 10
-752.875
 20
271.826
 30
5137.000
 70
    32
  0
VERTEX
  8
T01SSILL
 62
3
 10
-768.937
 20
311.027
 30
5137.000
 70
    32
  0
VERTEX
  8
T01SSILL
 62
3
 10
-774.957
 20
308.257
 30
5137.000
 70
    32
  0
VERTEX
  8
T01SSILL
 62
3
 10
-791.966
 20
350.111
 30
5137.000
 70
    32
  0
VERTEX
  8
T01SSILL
 62
3
 10
-800.347
 20
349.655
 30
5137.000
 70
    32
  0
VERTEX
  8
T01SSILL
 62
3
 10
-881.941
 20
294.985
 30
5137.000
 70
    32
  0
VERTEX
  8
T01SSILL
 62
3
 10
-1078.377
 20
164.596
 30
5137.000
 70
    32
  0
VERTEX
  8
T01SSILL
 62
3
 10
-1061.016
 20
132.879
 30
5137.000
 70
    32
  0
VERTEX
  8
T01SSILL
 62
3
 10
-1055.788
 20
135.832
 30
5137.000
 70
    32
  0
VERTEX
  8
T01SSILL
 62
3
 10
-1032.788
 20
93.397
 30
5137.000
 70
    32
  0
VERTEX
  8
T01SSILL
 62
3
 10
-1048.734
 20
84.717
 30
5137.000
 70
    32
  0
VERTEX
  8
T01SSILL
 62
3
 10
-1087.970
 20
156.478
 30
5137.000
 70
    32
  0
VERTEX
  8
T01SSILL
 62
3
 10
-1092.553
 20
156.694
 30
5137.000
 70
    32
  0
VERTEX
  8
T01SSILL
 62
3
 10
-1166.091
 20
115.975
 30
5137.000
 70
    32
  0
VERTEX
  8
T01SSILL
 62
3
 10
-1168.863
 20
121.643
 30
5137.000
 70
    32
  0
VERTEX
  8
T01SSILL
 62
3
 10
-1095.771
 20
161.836
 30
5137.000
 70
    32
  0
VERTEX
  8
T01SSILL
 62
3
 10
-1093.179
 20
165.870
 30
5137.000
 70
    32
  0
VERTEX
  8
T01SSILL
 62
3
 10
-1098.040
 20
174.818
 30
5137.000
 70
    32
  0
VERTEX
  8
T01SSILL
 62
3
 10
-1087.322
 20
180.457
 30
5137.000
 70
    32
  0
VERTEX
  8
T01SSILL
 62
3
 10
-1080.886
 20
170.084
 30
5137.000
 70
    32
  0
VERTEX
  8
T01SSILL
 62
3
 10
-994.597
 20
227.270
 30
5137.000
 70
    32
  0
VERTEX
  8
T01SSILL
 62
3
 10
-805.597
 20
354.285
 30
5137.000
 70
    32
  0
VERTEX
  8
T01SSILL
 62
3
 10
-802.742
 20
358.140
 30
5137.000
 70
    32
  0
VERTEX
  8
T01SSILL
 62
3
 10
-803.318
 20
362.995
 30
5137.000
 70
    32
  0
VERTEX
  8
T01SSILL
 62
3
 10
-823.262
 20
381.508
 30
5137.000
 70
    32
  0
VERTEX
  8
T01SSILL
 62
3
 10
-854.516
 20
397.297
 30
5137.000
 70
    32
  0
VERTEX
  8
T01SSILL
 62
3
 10
-871.242
 20
420.808
 30
5137.000
 70
    32
  0
VERTEX
  8
T01SSILL
 62
3
 10
-901.327
 20
449.549
 30
5137.000
 70
    32
  0
VERTEX
  8
T01SSILL
 62
3
 10
-911.827
 20
448.669
 30
5137.000
 70
    32
  0
VERTEX
  8
T01SSILL
 62
3
 10
-923.471
 20
448.153
 30
5137.000
 70
    32
  0
VERTEX
  8
T01SSILL
 62
3
 10
-935.005
 20
450.104
 30
5137.000
 70
    32
  0
VERTEX
  8
T01SSILL
 62
3
 10
-946.497
 20
456.905
 30
5137.000
 70
    32
  0
VERTEX
  8
T01SSILL
 62
3
 10
-952.877
 20
463.485
 30
5137.000
 70
    32
  0
VERTEX
  8
T01SSILL
 62
3
 10
-961.476
 20
478.549
 30
5137.000
 70
    32
  0
VERTEX
  8
T01SSILL
 62
3
 10
-967.512
 20
494.296
 30
5137.000
 70
    32
  0
VERTEX
  8
T01SSILL
 62
3
 10
-970.486
 20
507.284
 30
5137.000
 70
    32
  0
VERTEX
  8
T01SSILL
 62
3
 10
-968.262
 20
519.786
 30
5137.000
 70
    32
  0
VERTEX
  8
T01SSILL
 62
3
 10
-964.753
 20
527.956
 30
5137.000
 70
    32
  0
VERTEX
  8
T01SSILL
 62
3
 10
-960.644
 20
534.093
 30
5137.000
 70
    32
  0
VERTEX
  8
T01SSILL
 62
3
 10
-940.065
 20
537.971
 30
5137.000
 70
    32
  0
VERTEX
  8
T01SSILL
 62
3
 10
-939.399
 20
543.608
 30
5137.000
 70
    32
  0
VERTEX
  8
T01SSILL
 62
3
 10
-964.312
 20
579.006
 30
5137.000
 70
    32
  0
VERTEX
  8
T01SSILL
 62
3
 10
-981.955
 20
567.872
 30
5137.000
 70
    32
  0
VERTEX
  8
T01SSILL
 62
3
 10
-1022.554
 20
634.883
 30
5137.000
 70
    32
  0
VERTEX
  8
T01SSILL
 62
3
 10
-975.931
 20
662.961
 30
5137.000
 70
    32
  0
VERTEX
  8
T01SSILL
 62
3
 10
-966.719
 20
647.363
 30
5137.000
 70
    32
  0
VERTEX
  8
T01SSILL
 62
3
 10
-961.314
 20
650.402
 30
5137.000
 70
    32
  0
VERTEX
  8
T01SSILL
 62
3
 10
-940.618
 20
616.893
 30
5137.000
 70
    32
  0
VERTEX
  8
T01SSILL
 62
3
 10
-928.706
 20
617.848
 30
5137.000
 70
    32
  0
VERTEX
  8
T01SSILL
 62
3
 10
-921.791
 20
622.109
 30
5137.000
 70
    32
  0
VERTEX
  8
T01SSILL
 62
3
 10
-920.516
 20
626.859
 30
5137.000
 70
    32
  0
VERTEX
  8
T01SSILL
 62
3
 10
-967.664
 20
701.246
 30
5137.000
 70
    32
  0
VERTEX
  8
T01SSILL
 62
3
 10
-970.996
 20
703.391
 30
5137.000
 70
    32
  0
VERTEX
  8
T01SSILL
 62
3
 10
-979.686
 20
697.735
 30
5137.000
 70
    32
  0
VERTEX
  8
T01SSILL
 62
3
 10
-982.641
 20
702.786
 30
5137.000
 70
    32
  0
VERTEX
  8
T01SSILL
 62
3
 10
-974.042
 20
708.002
 30
5137.000
 70
    32
  0
VERTEX
  8
T01SSILL
 62
3
 10
-973.558
 20
713.024
 30
5137.000
 70
    32
  0
VERTEX
  8
T01SSILL
 62
3
 10
-992.360
 20
741.315
 30
5137.000
 70
    32
  0
VERTEX
  8
T01SSILL
 62
3
 10
-995.880
 20
742.139
 30
5137.000
 70
    32
  0
VERTEX
  8
T01SSILL
 62
3
 10
-1009.465
 20
731.234
 30
5137.000
 70
    32
  0
VERTEX
  8
T01SSILL
 62
3
 10
-976.932
 20
669.583
 30
5137.000
 70
    32
  0
VERTEX
  8
T01SSILL
 62
3
 10
-1014.669
 20
649.364
 30
5137.000
 70
    32
  0
VERTEX
  8
T01SSILL
 62
3
 10
-1046.494
 20
711.362
 30
5137.000
 70
    32
  0
VERTEX
  8
T01SSILL
 62
3
 10
-1071.313
 20
696.322
 30
5137.000
 70
    32
  0
VERTEX
  8
T01SSILL
 62
3
 10
-1073.203
 20
702.070
 30
5137.000
 70
    32
  0
VERTEX
  8
T01SSILL
 62
3
 10
-1048.827
 20
716.849
 30
5137.000
 70
    32
  0
VERTEX
  8
T01SSILL
 62
3
 10
-1113.440
 20
841.647
 30
5137.000
 70
    32
  0
VERTEX
  8
T01SSILL
 62
3
 10
-1122.976
 20
840.142
 30
5137.000
 70
    32
  0
VERTEX
  8
T01SSILL
 62
3
 10
-1215.639
 20
780.013
 30
5137.000
 70
    32
  0
VERTEX
  8
T01SSILL
 62
3
 10
-1218.939
 20
785.862
 30
5137.000
 70
    32
  0
VERTEX
  8
T01SSILL
 62
3
 10
-1127.080
 20
844.763
 30
5137.000
 70
    32
  0
VERTEX
  8
T01SSILL
 62
3
 10
-1122.556
 20
847.898
 30
5137.000
 70
    32
  0
VERTEX
  8
T01SSILL
 62
3
 10
-1118.819
 20
851.745
 30
5137.000
 70
    32
  0
VERTEX
  8
T01SSILL
 62
3
 10
-1121.848
 20
858.385
 30
5137.000
 70
    32
  0
VERTEX
  8
T01SSILL
 62
3
 10
-1116.886
 20
861.163
 30
5137.000
 70
    32
  0
VERTEX
  8
T01SSILL
 62
3
 10
-1142.835
 20
909.267
 30
5137.000
 70
    32
  0
VERTEX
  8
T01SSILL
 62
3
 10
-1137.083
 20
911.686
 30
5137.000
 70
    32
  0
VERTEX
  8
T01SSILL
 62
3
 10
-1139.949
 20
916.737
 30
5137.000
 70
    32
  0
VERTEX
  8
T01SSILL
 62
3
 10
-1131.182
 20
921.070
 30
5137.000
 70
    32
  0
VERTEX
  8
T01SSILL
 62
3
 10
-1130.347
 20
925.913
 30
5137.000
 70
    32
  0
VERTEX
  8
T01SSILL
 62
3
 10
-1126.700
 20
939.725
 30
5137.000
 70
    32
  0
VERTEX
  8
T01SSILL
 62
3
 10
-1126.893
 20
958.243
 30
5137.000
 70
    32
  0
VERTEX
  8
T01SSILL
 62
3
 10
-1170.639
 20
1028.456
 30
5137.000
 70
    32
  0
VERTEX
  8
T01SSILL
 62
3
 10
-1184.782
 20
1034.574
 30
5137.000
 70
    32
  0
VERTEX
  8
T01SSILL
 62
3
 10
-1215.092
 20
1016.760
 30
5137.000
 70
    32
  0
VERTEX
  8
T01SSILL
 62
3
 10
-1286.738
 20
1133.771
 30
5137.000
 70
    32
  0
SEQEND
  8
T01SSILL
  0
POLYLINE
  8
T01SSILL
 62
3
 66
     1
 70
     9
  0
VERTEX
  8
T01SSILL
 62
3
 10
-1013.887
 20
739.914
 30
5137.000
 70
    32
  0
VERTEX
  8
T01SSILL
 62
3
 10
-1000.060
 20
748.171
 30
5137.000
 70
    32
  0
VERTEX
  8
T01SSILL
 62
3
 10
-998.009
 20
750.798
 30
5137.000
 70
    32
  0
VERTEX
  8
T01SSILL
 62
3
 10
-1001.137
 20
756.204
 30
5137.000
 70
    32
  0
VERTEX
  8
T01SSILL
 62
3
 10
-1048.792
 20
833.152
 30
5137.000
 70
    32
  0
VERTEX
  8
T01SSILL
 62
3
 10
-1055.095
 20
838.497
 30
5137.000
 70
    32
  0
VERTEX
  8
T01SSILL
 62
3
 10
-1062.801
 20
834.420
 30
5137.000
 70
    32
  0
VERTEX
  8
T01SSILL
 62
3
 10
-1050.990
 20
813.508
 30
5137.000
 70
    32
  0
SEQEND
  8
T01SSILL
  0
POLYLINE
  8
T01SSILL
 62
3
 66
     1
 70
     9
  0
VERTEX
  8
T01SSILL
 62
3
 10
-879.357
 20
573.598
 30
5137.000
 70
    32
  0
VERTEX
  8
T01SSILL
 62
3
 10
-854.343
 20
600.981
 30
5137.000
 70
    32
  0
VERTEX
  8
T01SSILL
 62
3
 10
-838.645
 20
662.568
 30
5137.000
 70
    32
  0
VERTEX
  8
T01SSILL
 62
3
 10
-850.091
 20
705.256
 30
5137.000
 70
    32
  0
VERTEX
  8
T01SSILL
 62
3
 10
-912.092
 20
795.555
 30
5137.000
 70
    32
  0
VERTEX
  8
T01SSILL
 62
3
 10
-977.890
 20
752.564
 30
5137.000
 70
    32
  0
VERTEX
  8
T01SSILL
 62
3
 10
-983.049
 20
747.318
 30
5137.000
 70
    32
  0
VERTEX
  8
T01SSILL
 62
3
 10
-985.234
 20
739.402
 30
5137.000
 70
    32
  0
VERTEX
  8
T01SSILL
 62
3
 10
-956.778
 20
695.773
 30
5137.000
 70
    32
  0
SEQEND
  8
T01SSILL
  0
POLYLINE
  8
T01SSILL
 62
3
 66
     1
 70
     9
  0
VERTEX
  8
T01SSILL
 62
3
 10
-948.598
 20
581.074
 30
5137.000
 70
    32
  0
VERTEX
  8
T01SSILL
 62
3
 10
-951.548
 20
586.655
 30
5137.000
 70
    32
  0
VERTEX
  8
T01SSILL
 62
3
 10
-959.177
 20
581.342
 30
5137.000
 70
    32
  0
VERTEX
  8
T01SSILL
 62
3
 10
-944.106
 20
560.138
 30
5137.000
 70
    32
  0
VERTEX
  8
T01SSILL
 62
3
 10
-938.979
 20
561.592
 30
5137.000
 70
    32
  0
VERTEX
  8
T01SSILL
 62
3
 10
-925.000
 20
567.115
 30
5137.000
 70
    32
  0
VERTEX
  8
T01SSILL
 62
3
 10
-894.274
 20
571.875
 30
5137.000
 70
    32
  0
VERTEX
  8
T01SSILL
 62
3
 10
-889.500
 20
573.245
 30
5137.000
 70
    32
  0
VERTEX
  8
T01SSILL
 62
3
 10
-889.027
 20
577.032
 30
5137.000
 70
    32
  0
VERTEX
  8
T01SSILL
 62
3
 10
-913.558
 20
615.689
 30
5137.000
 70
    32
  0
VERTEX
  8
T01SSILL
 62
3
 10
-917.599
 20
617.399
 30
5137.000
 70
    32
  0
VERTEX
  8
T01SSILL
 62
3
 10
-925.313
 20
612.528
 30
5137.000
 70
    32
  0
VERTEX
  8
T01SSILL
 62
3
 10
-929.149
 20
607.359
 30
5137.000
 70
    32
  0
VERTEX
  8
T01SSILL
 62
3
 10
-933.933
 20
604.755
 30
5137.000
 70
    32
  0
VERTEX
  8
T01SSILL
 62
3
 10
-927.324
 20
594.029
 30
5137.000
 70
    32
  0
SEQEND
  8
T01SSILL
  0
POLYLINE
  8
T01SSILL
 62
3
 66
     1
 70
     9
  0
VERTEX
  8
T01SSILL
 62
3
 10
-882.509
 20
565.954
 30
5137.000
 70
    32
  0
VERTEX
  8
T01SSILL
 62
3
 10
-888.493
 20
567.328
 30
5137.000
 70
    32
  0
VERTEX
  8
T01SSILL
 62
3
 10
-901.025
 20
566.026
 30
5137.000
 70
    32
  0
VERTEX
  8
T01SSILL
 62
3
 10
-921.788
 20
561.268
 30
5137.000
 70
    32
  0
VERTEX
  8
T01SSILL
 62
3
 10
-934.165
 20
557.495
 30
5137.000
 70
    32
  0
VERTEX
  8
T01SSILL
 62
3
 10
-938.944
 20
555.508
 30
5137.000
 70
    32
  0
VERTEX
  8
T01SSILL
 62
3
 10
-940.198
 20
553.226
 30
5137.000
 70
    32
  0
VERTEX
  8
T01SSILL
 62
3
 10
-885.658
 20
477.100
 30
5137.000
 70
    32
  0
VERTEX
  8
T01SSILL
 62
3
 10
-878.525
 20
475.981
 30
5137.000
 70
    32
  0
VERTEX
  8
T01SSILL
 62
3
 10
-865.075
 20
481.419
 30
5137.000
 70
    32
  0
VERTEX
  8
T01SSILL
 62
3
 10
-846.654
 20
490.783
 30
5137.000
 70
    32
  0
VERTEX
  8
T01SSILL
 62
3
 10
-839.549
 20
496.718
 30
5137.000
 70
    32
  0
SEQEND
  8
T01SSILL
  0
POLYLINE
  8
T01SSILL
 62
3
 66
     1
 70
     9
  0
VERTEX
  8
T01SSILL
 62
3
 10
-835.750
 20
487.338
 30
5137.000
 70
    32
  0
VERTEX
  8
T01SSILL
 62
3
 10
-838.922
 20
487.630
 30
5137.000
 70
    32
  0
VERTEX
  8
T01SSILL
 62
3
 10
-843.887
 20
484.499
 30
5137.000
 70
    32
  0
VERTEX
  8
T01SSILL
 62
3
 10
-846.913
 20
481.174
 30
5137.000
 70
    32
  0
VERTEX
  8
T01SSILL
 62
3
 10
-846.097
 20
473.584
 30
5137.000
 70
    32
  0
VERTEX
  8
T01SSILL
 62
3
 10
-842.981
 20
466.856
 30
5137.000
 70
    32
  0
VERTEX
  8
T01SSILL
 62
3
 10
-840.095
 20
464.097
 30
5137.000
 70
    32
  0
VERTEX
  8
T01SSILL
 62
3
 10
-829.794
 20
462.333
 30
5137.000
 70
    32
  0
VERTEX
  8
T01SSILL
 62
3
 10
-825.290
 20
463.176
 30
5137.000
 70
    32
  0
VERTEX
  8
T01SSILL
 62
3
 10
-823.816
 20
470.394
 30
5137.000
 70
    32
  0
SEQEND
  8
T01SSILL
  0
POLYLINE
  8
T01SSILL
 62
3
 66
     1
 70
     9
  0
VERTEX
  8
T01SSILL
 62
3
 10
-697.869
 20
463.927
 30
5137.000
 70
    32
  0
VERTEX
  8
T01SSILL
 62
3
 10
-698.251
 20
460.579
 30
5137.000
 70
    32
  0
VERTEX
  8
T01SSILL
 62
3
 10
-743.984
 20
402.867
 30
5137.000
 70
    32
  0
VERTEX
  8
T01SSILL
 62
3
 10
-749.285
 20
401.678
 30
5137.000
 70
    32
  0
VERTEX
  8
T01SSILL
 62
3
 10
-754.617
 20
396.786
 30
5137.000
 70
    32
  0
VERTEX
  8
T01SSILL
 62
3
 10
-765.425
 20
411.340
 30
5137.000
 70
    32
  0
VERTEX
  8
T01SSILL
 62
3
 10
-760.283
 20
414.558
 30
5137.000
 70
    32
  0
VERTEX
  8
T01SSILL
 62
3
 10
-764.559
 20
419.798
 30
5137.000
 70
    32
  0
VERTEX
  8
T01SSILL
 62
3
 10
-778.135
 20
409.951
 30
5137.000
 70
    32
  0
VERTEX
  8
T01SSILL
 62
3
 10
-761.584
 20
386.442
 30
5137.000
 70
    32
  0
VERTEX
  8
T01SSILL
 62
3
 10
-780.334
 20
369.674
 30
5137.000
 70
    32
  0
VERTEX
  8
T01SSILL
 62
3
 10
-781.377
 20
371.447
 30
5137.000
 70
    32
  0
VERTEX
  8
T01SSILL
 62
3
 10
-794.826
 20
366.096
 30
5137.000
 70
    32
  0
VERTEX
  8
T01SSILL
 62
3
 10
-799.136
 20
367.368
 30
5137.000
 70
    32
  0
VERTEX
  8
T01SSILL
 62
3
 10
-804.208
 20
372.173
 30
5137.000
 70
    32
  0
VERTEX
  8
T01SSILL
 62
3
 10
-817.926
 20
386.752
 30
5137.000
 70
    32
  0
VERTEX
  8
T01SSILL
 62
3
 10
-820.801
 20
390.745
 30
5137.000
 70
    32
  0
VERTEX
  8
T01SSILL
 62
3
 10
-824.142
 20
402.060
 30
5137.000
 70
    32
  0
VERTEX
  8
T01SSILL
 62
3
 10
-838.084
 20
451.912
 30
5137.000
 70
    32
  0
VERTEX
  8
T01SSILL
 62
3
 10
-833.547
 20
456.546
 30
5137.000
 70
    32
  0
VERTEX
  8
T01SSILL
 62
3
 10
-806.821
 20
457.549
 30
5137.000
 70
    32
  0
VERTEX
  8
T01SSILL
 62
3
 10
-800.507
 20
453.615
 30
5137.000
 70
    32
  0
VERTEX
  8
T01SSILL
 62
3
 10
-740.593
 20
458.564
 30
5137.000
 70
    32
  0
VERTEX
  8
T01SSILL
 62
3
 10
-739.070
 20
461.285
 30
5137.000
 70
    32
  0
VERTEX
  8
T01SSILL
 62
3
 10
-725.724
 20
464.961
 30
5137.000
 70
    32
  0
SEQEND
  8
T01SSILL
  0
POLYLINE
  8
T01SSILL
 62
3
 66
     1
 70
     9
  0
VERTEX
  8
T01SSILL
 62
3
 10
-662.800
 20
491.663
 30
5137.000
 70
    32
  0
VERTEX
  8
T01SSILL
 62
3
 10
-651.900
 20
446.952
 30
5137.000
 70
    32
  0
VERTEX
  8
T01SSILL
 62
3
 10
-650.944
 20
424.988
 30
5137.000
 70
    32
  0
VERTEX
  8
T01SSILL
 62
3
 10
-668.111
 20
387.309
 30
5137.000
 70
    32
  0
VERTEX
  8
T01SSILL
 62
3
 10
-682.541
 20
380.644
 30
5137.000
 70
    32
  0
VERTEX
  8
T01SSILL
 62
3
 10
-680.031
 20
375.156
 30
5137.000
 70
    32
  0
VERTEX
  8
T01SSILL
 62
3
 10
-735.345
 20
351.562
 30
5137.000
 70
    32
  0
VERTEX
  8
T01SSILL
 62
3
 10
-716.882
 20
365.775
 30
5137.000
 70
    32
  0
VERTEX
  8
T01SSILL
 62
3
 10
-731.000
 20
384.943
 30
5137.000
 70
    32
  0
VERTEX
  8
T01SSILL
 62
3
 10
-736.149
 20
380.931
 30
5137.000
 70
    32
  0
VERTEX
  8
T01SSILL
 62
3
 10
-744.077
 20
392.022
 30
5137.000
 70
    32
  0
VERTEX
  8
T01SSILL
 62
3
 10
-690.759
 20
460.250
 30
5137.000
 70
    32
  0
VERTEX
  8
T01SSILL
 62
3
 10
-688.286
 20
460.669
 30
5137.000
 70
    32
  0
VERTEX
  8
T01SSILL
 62
3
 10
-685.395
 20
458.528
 30
5137.000
 70
    32
  0
VERTEX
  8
T01SSILL
 62
3
 10
-680.676
 20
463.778
 30
5137.000
 70
    32
  0
VERTEX
  8
T01SSILL
 62
3
 10
-683.825
 20
466.715
 30
5137.000
 70
    32
  0
VERTEX
  8
T01SSILL
 62
3
 10
-675.804
 20
476.610
 30
5137.000
 70
    32
  0
SEQEND
  8
T01SSILL
  0
POLYLINE
  8
T01SSILL
 62
3
 66
     1
 70
     9
  0
VERTEX
  8
T01SSILL
 62
3
 10
-588.349
 20
240.160
 30
5137.000
 70
    32
  0
VERTEX
  8
T01SSILL
 62
3
 10
-564.602
 20
192.340
 30
5137.000
 70
    32
  0
VERTEX
  8
T01SSILL
 62
3
 10
-561.693
 20
192.227
 30
5137.000
 70
    32
  0
VERTEX
  8
T01SSILL
 62
3
 10
-511.273
 20
210.749
 30
5137.000
 70
    32
  0
VERTEX
  8
T01SSILL
 62
3
 10
-509.113
 20
205.616
 30
5137.000
 70
    32
  0
VERTEX
  8
T01SSILL
 62
3
 10
-559.002
 20
187.354
 30
5137.000
 70
    32
  0
VERTEX
  8
T01SSILL
 62
3
 10
-561.495
 20
184.554
 30
5137.000
 70
    32
  0
VERTEX
  8
T01SSILL
 62
3
 10
-541.403
 20
142.321
 30
5137.000
 70
    32
  0
VERTEX
  8
T01SSILL
 62
3
 10
-546.627
 20
139.809
 30
5137.000
 70
    32
  0
VERTEX
  8
T01SSILL
 62
3
 10
-533.717
 20
113.421
 30
5137.000
 70
    32
  0
VERTEX
  8
T01SSILL
 62
3
 10
-539.386
 20
110.472
 30
5137.000
 70
    32
  0
VERTEX
  8
T01SSILL
 62
3
 10
-536.874
 20
105.248
 30
5137.000
 70
    32
  0
VERTEX
  8
T01SSILL
 62
3
 10
-552.721
 20
97.890
 30
5137.000
 70
    32
  0
VERTEX
  8
T01SSILL
 62
3
 10
-554.971
 20
102.847
 30
5137.000
 70
    32
  0
VERTEX
  8
T01SSILL
 62
3
 10
-560.990
 20
100.166
 30
5137.000
 70
    32
  0
VERTEX
  8
T01SSILL
 62
3
 10
-563.150
 20
105.210
 30
5137.000
 70
    32
  0
VERTEX
  8
T01SSILL
 62
3
 10
-568.638
 20
102.789
 30
5137.000
 70
    32
  0
VERTEX
  8
T01SSILL
 62
3
 10
-602.325
 20
173.797
 30
5137.000
 70
    32
  0
VERTEX
  8
T01SSILL
 62
3
 10
-614.347
 20
170.285
 30
5137.000
 70
    32
  0
VERTEX
  8
T01SSILL
 62
3
 10
-614.639
 20
167.114
 30
5137.000
 70
    32
  0
VERTEX
  8
T01SSILL
 62
3
 10
-597.953
 20
128.701
 30
5137.000
 70
    32
  0
VERTEX
  8
T01SSILL
 62
3
 10
-603.555
 20
113.054
 30
5137.000
 70
    32
  0
VERTEX
  8
T01SSILL
 62
3
 10
-610.605
 20
103.328
 30
5137.000
 70
    32
  0
VERTEX
  8
T01SSILL
 62
3
 10
-604.812
 20
90.051
 30
5137.000
 70
    32
  0
VERTEX
  8
T01SSILL
 62
3
 10
-599.236
 20
92.472
 30
5137.000
 70
    32
  0
VERTEX
  8
T01SSILL
 62
3
 10
-595.007
 20
81.854
 30
5137.000
 70
    32
  0
VERTEX
  8
T01SSILL
 62
3
 10
-588.900
 20
84.535
 30
5137.000
 70
    32
  0
VERTEX
  8
T01SSILL
 62
3
 10
-586.833
 20
78.874
 30
5137.000
 70
    32
  0
VERTEX
  8
T01SSILL
 62
3
 10
-548.063
 20
96.086
 30
5137.000
 70
    32
  0
VERTEX
  8
T01SSILL
 62
3
 10
-545.727
 20
90.952
 30
5137.000
 70
    32
  0
VERTEX
  8
T01SSILL
 62
3
 10
-539.800
 20
93.193
 30
5137.000
 70
    32
  0
VERTEX
  8
T01SSILL
 62
3
 10
-527.517
 20
65.664
 30
5137.000
 70
    32
  0
VERTEX
  8
T01SSILL
 62
3
 10
-571.951
 20
45.944
 30
5137.000
 70
    32
  0
VERTEX
  8
T01SSILL
 62
3
 10
-569.707
 20
40.281
 30
5137.000
 70
    32
  0
VERTEX
  8
T01SSILL
 62
3
 10
-585.992
 20
33.280
 30
5137.000
 70
    32
  0
VERTEX
  8
T01SSILL
 62
3
 10
-600.697
 20
66.296
 30
5137.000
 70
    32
  0
VERTEX
  8
T01SSILL
 62
3
 10
-617.247
 20
59.209
 30
5137.000
 70
    32
  0
VERTEX
  8
T01SSILL
 62
3
 10
-627.107
 20
81.426
 30
5137.000
 70
    32
  0
VERTEX
  8
T01SSILL
 62
3
 10
-637.895
 20
67.676
 30
5137.000
 70
    32
  0
VERTEX
  8
T01SSILL
 62
3
 10
-641.927
 20
70.444
 30
5137.000
 70
    32
  0
VERTEX
  8
T01SSILL
 62
3
 10
-629.257
 20
87.705
 30
5137.000
 70
    32
  0
VERTEX
  8
T01SSILL
 62
3
 10
-636.622
 20
102.759
 30
5137.000
 70
    32
  0
VERTEX
  8
T01SSILL
 62
3
 10
-648.395
 20
97.482
 30
5137.000
 70
    32
  0
VERTEX
  8
T01SSILL
 62
3
 10
-664.814
 20
136.157
 30
5137.000
 70
    32
  0
VERTEX
  8
T01SSILL
 62
3
 10
-637.198
 20
148.351
 30
5137.000
 70
    32
  0
VERTEX
  8
T01SSILL
 62
3
 10
-634.339
 20
142.506
 30
5137.000
 70
    32
  0
VERTEX
  8
T01SSILL
 62
3
 10
-629.027
 20
144.929
 30
5137.000
 70
    32
  0
VERTEX
  8
T01SSILL
 62
3
 10
-613.638
 20
109.526
 30
5137.000
 70
    32
  0
VERTEX
  8
T01SSILL
 62
3
 10
-609.010
 20
114.512
 30
5137.000
 70
    32
  0
VERTEX
  8
T01SSILL
 62
3
 10
-604.307
 20
128.139
 30
5137.000
 70
    32
  0
VERTEX
  8
T01SSILL
 62
3
 10
-622.989
 20
170.272
 30
5137.000
 70
    32
  0
VERTEX
  8
T01SSILL
 62
3
 10
-621.991
 20
173.526
 30
5137.000
 70
    32
  0
VERTEX
  8
T01SSILL
 62
3
 10
-604.924
 20
179.110
 30
5137.000
 70
    32
  0
VERTEX
  8
T01SSILL
 62
3
 10
-626.248
 20
221.618
 30
5137.000
 70
    32
  0
SEQEND
  8
T01SSILL
  0
POLYLINE
  8
T01SSILL
 62
3
 66
     1
 70
     9
  0
VERTEX
  8
T01SSILL
 62
3
 10
-1407.679
 20
1387.015
 30
5137.000
 70
    32
  0
VERTEX
  8
T01SSILL
 62
3
 10
-1408.306
 20
1381.625
 30
5137.000
 70
    32
  0
VERTEX
  8
T01SSILL
 62
3
 10
-1403.270
 20
1372.588
 30
5137.000
 70
    32
  0
VERTEX
  8
T01SSILL
 62
3
 10
-1391.762
 20
1357.411
 30
5137.000
 70
    32
  0
VERTEX
  8
T01SSILL
 62
3
 10
-1386.875
 20
1351.549
 30
5137.000
 70
    32
  0
VERTEX
  8
T01SSILL
 62
3
 10
-1379.503
 20
1347.517
 30
5137.000
 70
    32
  0
VERTEX
  8
T01SSILL
 62
3
 10
-1369.120
 20
1345.047
 30
5137.000
 70
    32
  0
VERTEX
  8
T01SSILL
 62
3
 10
-1365.705
 20
1342.195
 30
5137.000
 70
    32
  0
VERTEX
  8
T01SSILL
 62
3
 10
-1363.700
 20
1339.533
 30
5137.000
 70
    32
  0
VERTEX
  8
T01SSILL
 62
3
 10
-1357.924
 20
1334.545
 30
5137.000
 70
    32
  0
VERTEX
  8
T01SSILL
 62
3
 10
-1353.005
 20
1332.298
 30
5137.000
 70
    32
  0
VERTEX
  8
T01SSILL
 62
3
 10
-1348.926
 20
1334.996
 30
5137.000
 70
    32
  0
VERTEX
  8
T01SSILL
 62
3
 10
-1327.688
 20
1302.982
 30
5137.000
 70
    32
  0
VERTEX
  8
T01SSILL
 62
3
 10
-1316.984
 20
1307.033
 30
5137.000
 70
    32
  0
VERTEX
  8
T01SSILL
 62
3
 10
-1270.237
 20
1339.254
 30
5137.000
 70
    32
  0
VERTEX
  8
T01SSILL
 62
3
 10
-1284.593
 20
1361.510
 30
5137.000
 70
    32
  0
VERTEX
  8
T01SSILL
 62
3
 10
-1303.324
 20
1377.544
 30
5137.000
 70
    32
  0
VERTEX
  8
T01SSILL
 62
3
 10
-1310.482
 20
1385.982
 30
5137.000
 70
    32
  0
VERTEX
  8
T01SSILL
 62
3
 10
-1317.044
 20
1399.233
 30
5137.000
 70
    32
  0
VERTEX
  8
T01SSILL
 62
3
 10
-1322.280
 20
1401.564
 30
5137.000
 70
    32
  0
VERTEX
  8
T01SSILL
 62
3
 10
-1327.853
 20
1398.899
 30
5137.000
 70
    32
  0
VERTEX
  8
T01SSILL
 62
3
 10
-1332.848
 20
1393.784
 30
5137.000
 70
    32
  0
VERTEX
  8
T01SSILL
 62
3
 10
-1337.837
 20
1388.405
 30
5137.000
 70
    32
  0
VERTEX
  8
T01SSILL
 62
3
 10
-1341.338
 20
1383.321
 30
5137.000
 70
    32
  0
VERTEX
  8
T01SSILL
 62
3
 10
-1344.273
 20
1384.931
 30
5137.000
 70
    32
  0
VERTEX
  8
T01SSILL
 62
3
 10
-1347.331
 20
1392.519
 30
5137.000
 70
    32
  0
VERTEX
  8
T01SSILL
 62
3
 10
-1349.882
 20
1401.084
 30
5137.000
 70
    32
  0
VERTEX
  8
T01SSILL
 62
3
 10
-1365.350
 20
1409.208
 30
5137.000
 70
    32
  0
VERTEX
  8
T01SSILL
 62
3
 10
-1376.246
 20
1413.116
 30
5137.000
 70
    32
  0
VERTEX
  8
T01SSILL
 62
3
 10
-1385.508
 20
1414.509
 30
5137.000
 70
    32
  0
VERTEX
  8
T01SSILL
 62
3
 10
-1388.737
 20
1413.299
 30
5137.000
 70
    32
  0
VERTEX
  8
T01SSILL
 62
3
 10
-1392.356
 20
1409.707
 30
5137.000
 70
    32
  0
VERTEX
  8
T01SSILL
 62
3
 10
-1394.765
 20
1407.107
 30
5137.000
 70
    32
  0
VERTEX
  8
T01SSILL
 62
3
 10
-1399.076
 20
1402.974
 30
5137.000
 70
    32
  0
VERTEX
  8
T01SSILL
 62
3
 10
-1394.578
 20
1393.745
 30
5137.000
 70
    32
  0
SEQEND
  8
T01SSILL
  0
POLYLINE
  8
T01SSILL
 62
3
 66
     1
 70
     9
  0
VERTEX
  8
T01SSILL
 62
3
 10
-1271.997
 20
1423.703
 30
5137.000
 70
    32
  0
VERTEX
  8
T01SSILL
 62
3
 10
-1289.780
 20
1441.804
 30
5137.000
 70
    32
  0
VERTEX
  8
T01SSILL
 62
3
 10
-1292.041
 20
1444.835
 30
5137.000
 70
    32
  0
VERTEX
  8
T01SSILL
 62
3
 10
-1293.016
 20
1449.475
 30
5137.000
 70
    32
  0
VERTEX
  8
T01SSILL
 62
3
 10
-1292.086
 20
1464.092
 30
5137.000
 70
    32
  0
VERTEX
  8
T01SSILL
 62
3
 10
-1293.544
 20
1466.612
 30
5137.000
 70
    32
  0
VERTEX
  8
T01SSILL
 62
3
 10
-1302.259
 20
1479.887
 30
5137.000
 70
    32
  0
VERTEX
  8
T01SSILL
 62
3
 10
-1307.268
 20
1479.696
 30
5137.000
 70
    32
  0
VERTEX
  8
T01SSILL
 62
3
 10
-1330.886
 20
1469.361
 30
5137.000
 70
    32
  0
VERTEX
  8
T01SSILL
 62
3
 10
-1362.262
 20
1451.480
 30
5137.000
 70
    32
  0
VERTEX
  8
T01SSILL
 62
3
 10
-1391.824
 20
1435.131
 30
5137.000
 70
    32
  0
VERTEX
  8
T01SSILL
 62
3
 10
-1392.872
 20
1430.537
 30
5137.000
 70
    32
  0
VERTEX
  8
T01SSILL
 62
3
 10
-1390.353
 20
1427.775
 30
5137.000
 70
    32
  0
VERTEX
  8
T01SSILL
 62
3
 10
-1384.395
 20
1433.086
 30
5137.000
 70
    32
  0
VERTEX
  8
T01SSILL
 62
3
 10
-1379.556
 20
1437.230
 30
5137.000
 70
    32
  0
VERTEX
  8
T01SSILL
 62
3
 10
-1373.913
 20
1436.467
 30
5137.000
 70
    32
  0
VERTEX
  8
T01SSILL
 62
3
 10
-1368.932
 20
1433.756
 30
5137.000
 70
    32
  0
VERTEX
  8
T01SSILL
 62
3
 10
-1358.472
 20
1429.662
 30
5137.000
 70
    32
  0
VERTEX
  8
T01SSILL
 62
3
 10
-1351.347
 20
1429.545
 30
5137.000
 70
    32
  0
VERTEX
  8
T01SSILL
 62
3
 10
-1341.179
 20
1431.161
 30
5137.000
 70
    32
  0
VERTEX
  8
T01SSILL
 62
3
 10
-1332.716
 20
1430.104
 30
5137.000
 70
    32
  0
VERTEX
  8
T01SSILL
 62
3
 10
-1321.180
 20
1420.757
 30
5137.000
 70
    32
  0
VERTEX
  8
T01SSILL
 62
3
 10
-1320.543
 20
1420.411
 30
5137.000
 70
    32
  0
VERTEX
  8
T01SSILL
 62
3
 10
-1313.778
 20
1412.728
 30
5137.000
 70
    32
  0
VERTEX
  8
T01SSILL
 62
3
 10
-1300.360
 20
1404.236
 30
5137.000
 70
    32
  0
VERTEX
  8
T01SSILL
 62
3
 10
-1296.463
 20
1396.002
 30
5137.000
 70
    32
  0
VERTEX
  8
T01SSILL
 62
3
 10
-1294.003
 20
1395.010
 30
5137.000
 70
    32
  0
VERTEX
  8
T01SSILL
 62
3
 10
-1288.609
 20
1396.815
 30
5137.000
 70
    32
  0
VERTEX
  8
T01SSILL
 62
3
 10
-1282.429
 20
1397.644
 30
5137.000
 70
    32
  0
VERTEX
  8
T01SSILL
 62
3
 10
-1273.239
 20
1399.945
 30
5137.000
 70
    32
  0
VERTEX
  8
T01SSILL
 62
3
 10
-1268.080
 20
1394.963
 30
5137.000
 70
    32
  0
VERTEX
  8
T01SSILL
 62
3
 10
-1268.283
 20
1391.878
 30
5137.000
 70
    32
  0
VERTEX
  8
T01SSILL
 62
3
 10
-1267.558
 20
1383.936
 30
5137.000
 70
    32
  0
VERTEX
  8
T01SSILL
 62
3
 10
-1263.553
 20
1377.994
 30
5137.000
 70
    32
  0
VERTEX
  8
T01SSILL
 62
3
 10
-1257.484
 20
1376.266
 30
5137.000
 70
    32
  0
VERTEX
  8
T01SSILL
 62
3
 10
-1251.116
 20
1378.504
 30
5137.000
 70
    32
  0
VERTEX
  8
T01SSILL
 62
3
 10
-1248.003
 20
1381.651
 30
5137.000
 70
    32
  0
VERTEX
  8
T01SSILL
 62
3
 10
-1244.642
 20
1382.768
 30
5137.000
 70
    32
  0
VERTEX
  8
T01SSILL
 62
3
 10
-1243.734
 20
1385.847
 30
5137.000
 70
    32
  0
VERTEX
  8
T01SSILL
 62
3
 10
-1254.193
 20
1389.729
 30
5137.000
 70
    32
  0
VERTEX
  8
T01SSILL
 62
3
 10
-1259.975
 20
1394.099
 30
5137.000
 70
    32
  0
VERTEX
  8
T01SSILL
 62
3
 10
-1265.657
 20
1399.880
 30
5137.000
 70
    32
  0
VERTEX
  8
T01SSILL
 62
3
 10
-1269.024
 20
1408.109
 30
5137.000
 70
    32
  0
SEQEND
  8
T01SSILL
  0
POLYLINE
  8
T01SSILL
 62
3
 66
     1
 70
     9
  0
VERTEX
  8
T01SSILL
 62
3
 10
470.715
 20
-985.816
 30
5137.000
 70
    32
  0
VERTEX
  8
T01SSILL
 62
3
 10
495.780
 20
-981.363
 30
5137.000
 70
    32
  0
VERTEX
  8
T01SSILL
 62
3
 10
498.759
 20
-979.574
 30
5137.000
 70
    32
  0
VERTEX
  8
T01SSILL
 62
3
 10
501.459
 20
-976.114
 30
5137.000
 70
    32
  0
VERTEX
  8
T01SSILL
 62
3
 10
504.929
 20
-940.671
 30
5137.000
 70
    32
  0
VERTEX
  8
T01SSILL
 62
3
 10
506.912
 20
-935.896
 30
5137.000
 70
    32
  0
VERTEX
  8
T01SSILL
 62
3
 10
520.934
 20
-927.842
 30
5137.000
 70
    32
  0
VERTEX
  8
T01SSILL
 62
3
 10
525.738
 20
-933.084
 30
5137.000
 70
    32
  0
VERTEX
  8
T01SSILL
 62
3
 10
558.261
 20
-1013.571
 30
5137.000
 70
    32
  0
VERTEX
  8
T01SSILL
 62
3
 10
575.591
 20
-1064.754
 30
5137.000
 70
    32
  0
VERTEX
  8
T01SSILL
 62
3
 10
561.786
 20
-1075.756
 30
5137.000
 70
    32
  0
VERTEX
  8
T01SSILL
 62
3
 10
560.122
 20
-1092.998
 30
5137.000
 70
    32
  0
VERTEX
  8
T01SSILL
 62
3
 10
486.692
 20
-1143.259
 30
5137.000
 70
    32
  0
VERTEX
  8
T01SSILL
 62
3
 10
480.359
 20
-1143.438
 30
5137.000
 70
    32
  0
VERTEX
  8
T01SSILL
 62
3
 10
412.314
 20
-1038.172
 30
5137.000
 70
    32
  0
VERTEX
  8
T01SSILL
 62
3
 10
409.848
 20
-1031.400
 30
5137.000
 70
    32
  0
VERTEX
  8
T01SSILL
 62
3
 10
409.142
 20
-1026.122
 30
5137.000
 70
    32
  0
VERTEX
  8
T01SSILL
 62
3
 10
401.642
 20
-972.202
 30
5137.000
 70
    32
  0
VERTEX
  8
T01SSILL
 62
3
 10
406.812
 20
-952.300
 30
5137.000
 70
    32
  0
VERTEX
  8
T01SSILL
 62
3
 10
425.358
 20
-879.106
 30
5137.000
 70
    32
  0
VERTEX
  8
T01SSILL
 62
3
 10
424.523
 20
-874.357
 30
5137.000
 70
    32
  0
VERTEX
  8
T01SSILL
 62
3
 10
325.832
 20
-714.127
 30
5137.000
 70
    32
  0
VERTEX
  8
T01SSILL
 62
3
 10
326.917
 20
-707.510
 30
5137.000
 70
    32
  0
VERTEX
  8
T01SSILL
 62
3
 10
396.016
 20
-633.070
 30
5137.000
 70
    32
  0
VERTEX
  8
T01SSILL
 62
3
 10
404.647
 20
-632.904
 30
5137.000
 70
    32
  0
VERTEX
  8
T01SSILL
 62
3
 10
410.250
 20
-638.756
 30
5137.000
 70
    32
  0
VERTEX
  8
T01SSILL
 62
3
 10
464.617
 20
-777.802
 30
5137.000
 70
    32
  0
VERTEX
  8
T01SSILL
 62
3
 10
462.872
 20
-779.668
 30
5137.000
 70
    32
  0
VERTEX
  8
T01SSILL
 62
3
 10
458.739
 20
-780.410
 30
5137.000
 70
    32
  0
VERTEX
  8
T01SSILL
 62
3
 10
456.089
 20
-779.640
 30
5137.000
 70
    32
  0
VERTEX
  8
T01SSILL
 62
3
 10
454.830
 20
-776.745
 30
5137.000
 70
    32
  0
VERTEX
  8
T01SSILL
 62
3
 10
443.059
 20
-780.462
 30
5137.000
 70
    32
  0
VERTEX
  8
T01SSILL
 62
3
 10
443.980
 20
-784.947
 30
5137.000
 70
    32
  0
VERTEX
  8
T01SSILL
 62
3
 10
441.619
 20
-786.818
 30
5137.000
 70
    32
  0
VERTEX
  8
T01SSILL
 62
3
 10
432.722
 20
-786.898
 30
5137.000
 70
    32
  0
VERTEX
  8
T01SSILL
 62
3
 10
433.120
 20
-791.915
 30
5137.000
 70
    32
  0
VERTEX
  8
T01SSILL
 62
3
 10
441.486
 20
-791.664
 30
5137.000
 70
    32
  0
VERTEX
  8
T01SSILL
 62
3
 10
446.589
 20
-791.001
 30
5137.000
 70
    32
  0
VERTEX
  8
T01SSILL
 62
3
 10
458.981
 20
-787.807
 30
5137.000
 70
    32
  0
VERTEX
  8
T01SSILL
 62
3
 10
465.129
 20
-785.726
 30
5137.000
 70
    32
  0
VERTEX
  8
T01SSILL
 62
3
 10
468.763
 20
-788.159
 30
5137.000
 70
    32
  0
VERTEX
  8
T01SSILL
 62
3
 10
518.434
 20
-914.299
 30
5137.000
 70
    32
  0
VERTEX
  8
T01SSILL
 62
3
 10
515.791
 20
-924.101
 30
5137.000
 70
    32
  0
VERTEX
  8
T01SSILL
 62
3
 10
487.759
 20
-941.530
 30
5137.000
 70
    32
  0
VERTEX
  8
T01SSILL
 62
3
 10
491.409
 20
-945.814
 30
5137.000
 70
    32
  0
VERTEX
  8
T01SSILL
 62
3
 10
496.493
 20
-943.037
 30
5137.000
 70
    32
  0
VERTEX
  8
T01SSILL
 62
3
 10
499.051
 20
-943.455
 30
5137.000
 70
    32
  0
VERTEX
  8
T01SSILL
 62
3
 10
495.810
 20
-974.844
 30
5137.000
 70
    32
  0
VERTEX
  8
T01SSILL
 62
3
 10
491.952
 20
-976.905
 30
5137.000
 70
    32
  0
VERTEX
  8
T01SSILL
 62
3
 10
469.083
 20
-980.722
 30
5137.000
 70
    32
  0
SEQEND
  8
T01SSILL
  0
POLYLINE
  8
T01SSILL
 62
3
 66
     1
 70
     9
  0
VERTEX
  8
T01SSILL
 62
3
 10
796.350
 20
701.911
 30
5137.000
 70
    32
  0
VERTEX
  8
T01SSILL
 62
3
 10
791.459
 20
689.438
 30
5137.000
 70
    32
  0
VERTEX
  8
T01SSILL
 62
3
 10
789.263
 20
677.275
 30
5137.000
 70
    32
  0
VERTEX
  8
T01SSILL
 62
3
 10
786.920
 20
668.032
 30
5137.000
 70
    32
  0
VERTEX
  8
T01SSILL
 62
3
 10
783.697
 20
659.564
 30
5137.000
 70
    32
  0
VERTEX
  8
T01SSILL
 62
3
 10
781.665
 20
653.353
 30
5137.000
 70
    32
  0
VERTEX
  8
T01SSILL
 62
3
 10
785.666
 20
647.469
 30
5137.000
 70
    32
  0
VERTEX
  8
T01SSILL
 62
3
 10
788.561
 20
637.550
 30
5137.000
 70
    32
  0
VERTEX
  8
T01SSILL
 62
3
 10
788.779
 20
622.471
 30
5137.000
 70
    32
  0
VERTEX
  8
T01SSILL
 62
3
 10
788.751
 20
601.705
 30
5137.000
 70
    32
  0
VERTEX
  8
T01SSILL
 62
3
 10
790.568
 20
582.586
 30
5137.000
 70
    32
  0
VERTEX
  8
T01SSILL
 62
3
 10
790.651
 20
568.600
 30
5137.000
 70
    32
  0
VERTEX
  8
T01SSILL
 62
3
 10
790.844
 20
556.420
 30
5137.000
 70
    32
  0
VERTEX
  8
T01SSILL
 62
3
 10
792.813
 20
550.808
 30
5137.000
 70
    32
  0
VERTEX
  8
T01SSILL
 62
3
 10
803.865
 20
547.600
 30
5137.000
 70
    32
  0
VERTEX
  8
T01SSILL
 62
3
 10
813.403
 20
545.900
 30
5137.000
 70
    32
  0
VERTEX
  8
T01SSILL
 62
3
 10
819.976
 20
546.829
 30
5137.000
 70
    32
  0
VERTEX
  8
T01SSILL
 62
3
 10
825.146
 20
544.591
 30
5137.000
 70
    32
  0
VERTEX
  8
T01SSILL
 62
3
 10
830.840
 20
546.295
 30
5137.000
 70
    32
  0
VERTEX
  8
T01SSILL
 62
3
 10
842.019
 20
553.010
 30
5137.000
 70
    32
  0
VERTEX
  8
T01SSILL
 62
3
 10
852.676
 20
560.000
 30
5137.000
 70
    32
  0
VERTEX
  8
T01SSILL
 62
3
 10
858.242
 20
565.502
 30
5137.000
 70
    32
  0
VERTEX
  8
T01SSILL
 62
3
 10
856.831
 20
573.350
 30
5137.000
 70
    32
  0
VERTEX
  8
T01SSILL
 62
3
 10
853.349
 20
592.681
 30
5137.000
 70
    32
  0
VERTEX
  8
T01SSILL
 62
3
 10
850.724
 20
606.143
 30
5137.000
 70
    32
  0
VERTEX
  8
T01SSILL
 62
3
 10
847.977
 20
619.625
 30
5137.000
 70
    32
  0
VERTEX
  8
T01SSILL
 62
3
 10
850.679
 20
634.852
 30
5137.000
 70
    32
  0
VERTEX
  8
T01SSILL
 62
3
 10
851.505
 20
647.870
 30
5137.000
 70
    32
  0
VERTEX
  8
T01SSILL
 62
3
 10
845.687
 20
653.424
 30
5137.000
 70
    32
  0
VERTEX
  8
T01SSILL
 62
3
 10
832.714
 20
664.440
 30
5137.000
 70
    32
  0
VERTEX
  8
T01SSILL
 62
3
 10
832.173
 20
671.075
 30
5137.000
 70
    32
  0
VERTEX
  8
T01SSILL
 62
3
 10
821.941
 20
678.869
 30
5137.000
 70
    32
  0
VERTEX
  8
T01SSILL
 62
3
 10
811.328
 20
688.551
 30
5137.000
 70
    32
  0
SEQEND
  8
T01SSILL
  0
POLYLINE
  8
T01SSILL
 62
3
 66
     1
 70
     9
  0
VERTEX
  8
T01SSILL
 62
3
 10
819.797
 20
537.732
 30
5137.000
 70
    32
  0
VERTEX
  8
T01SSILL
 62
3
 10
814.137
 20
540.051
 30
5137.000
 70
    32
  0
VERTEX
  8
T01SSILL
 62
3
 10
810.486
 20
537.758
 30
5137.000
 70
    32
  0
VERTEX
  8
T01SSILL
 62
3
 10
810.931
 20
533.971
 30
5137.000
 70
    32
  0
VERTEX
  8
T01SSILL
 62
3
 10
811.293
 20
531.205
 30
5137.000
 70
    32
  0
VERTEX
  8
T01SSILL
 62
3
 10
813.914
 20
532.976
 30
5137.000
 70
    32
  0
SEQEND
  8
T01SSILL
  0
POLYLINE
  8
T01SSILL
 62
3
 66
     1
 70
     9
  0
VERTEX
  8
T01SSILL
 62
3
 10
1067.237
 20
892.164
 30
5137.000
 70
    32
  0
VERTEX
  8
T01SSILL
 62
3
 10
733.790
 20
770.959
 30
5137.000
 70
    32
  0
VERTEX
  8
T01SSILL
 62
3
 10
582.088
 20
919.610
 30
5137.000
 70
    32
  0
VERTEX
  8
T01SSILL
 62
3
 10
441.393
 20
997.273
 30
5137.000
 70
    32
  0
VERTEX
  8
T01SSILL
 62
3
 10
441.212
 20
1001.897
 30
5137.000
 70
    32
  0
VERTEX
  8
T01SSILL
 62
3
 10
434.382
 20
989.114
 30
5137.000
 70
    32
  0
VERTEX
  8
T01SSILL
 62
3
 10
436.952
 20
990.956
 30
5137.000
 70
    32
  0
VERTEX
  8
T01SSILL
 62
3
 10
576.739
 20
912.751
 30
5137.000
 70
    32
  0
VERTEX
  8
T01SSILL
 62
3
 10
742.989
 20
751.188
 30
5137.000
 70
    32
  0
VERTEX
  8
T01SSILL
 62
3
 10
783.272
 20
714.581
 30
5137.000
 70
    32
  0
VERTEX
  8
T01SSILL
 62
3
 10
786.532
 20
706.112
 30
5137.000
 70
    32
  0
VERTEX
  8
T01SSILL
 62
3
 10
787.105
 20
692.800
 30
5137.000
 70
    32
  0
VERTEX
  8
T01SSILL
 62
3
 10
780.964
 20
676.946
 30
5137.000
 70
    32
  0
VERTEX
  8
T01SSILL
 62
3
 10
777.686
 20
664.332
 30
5137.000
 70
    32
  0
VERTEX
  8
T01SSILL
 62
3
 10
773.617
 20
654.933
 30
5137.000
 70
    32
  0
VERTEX
  8
T01SSILL
 62
3
 10
761.794
 20
649.268
 30
5137.000
 70
    32
  0
VERTEX
  8
T01SSILL
 62
3
 10
752.926
 20
647.018
 30
5137.000
 70
    32
  0
VERTEX
  8
T01SSILL
 62
3
 10
747.018
 20
632.195
 30
5137.000
 70
    32
  0
VERTEX
  8
T01SSILL
 62
3
 10
746.882
 20
614.594
 30
5137.000
 70
    32
  0
VERTEX
  8
T01SSILL
 62
3
 10
748.943
 20
602.673
 30
5137.000
 70
    32
  0
VERTEX
  8
T01SSILL
 62
3
 10
755.526
 20
597.559
 30
5137.000
 70
    32
  0
VERTEX
  8
T01SSILL
 62
3
 10
757.187
 20
580.165
 30
5137.000
 70
    32
  0
VERTEX
  8
T01SSILL
 62
3
 10
755.370
 20
561.142
 30
5137.000
 70
    32
  0
VERTEX
  8
T01SSILL
 62
3
 10
753.086
 20
540.056
 30
5137.000
 70
    32
  0
VERTEX
  8
T01SSILL
 62
3
 10
751.430
 20
522.014
 30
5137.000
 70
    32
  0
VERTEX
  8
T01SSILL
 62
3
 10
754.186
 20
509.726
 30
5137.000
 70
    32
  0
VERTEX
  8
T01SSILL
 62
3
 10
758.986
 20
508.304
 30
5137.000
 70
    32
  0
VERTEX
  8
T01SSILL
 62
3
 10
760.657
 20
491.349
 30
5137.000
 70
    32
  0
VERTEX
  8
T01SSILL
 62
3
 10
761.822
 20
477.814
 30
5137.000
 70
    32
  0
VERTEX
  8
T01SSILL
 62
3
 10
765.364
 20
471.816
 30
5137.000
 70
    32
  0
VERTEX
  8
T01SSILL
 62
3
 10
772.239
 20
468.856
 30
5137.000
 70
    32
  0
VERTEX
  8
T01SSILL
 62
3
 10
772.779
 20
450.766
 30
5137.000
 70
    32
  0
VERTEX
  8
T01SSILL
 62
3
 10
772.690
 20
423.150
 30
5137.000
 70
    32
  0
VERTEX
  8
T01SSILL
 62
3
 10
773.624
 20
394.106
 30
5137.000
 70
    32
  0
VERTEX
  8
T01SSILL
 62
3
 10
774.784
 20
371.382
 30
5137.000
 70
    32
  0
VERTEX
  8
T01SSILL
 62
3
 10
781.656
 20
370.688
 30
5137.000
 70
    32
  0
VERTEX
  8
T01SSILL
 62
3
 10
782.352
 20
394.743
 30
5137.000
 70
    32
  0
VERTEX
  8
T01SSILL
 62
3
 10
783.050
 20
418.041
 30
5137.000
 70
    32
  0
VERTEX
  8
T01SSILL
 62
3
 10
787.661
 20
420.805
 30
5137.000
 70
    32
  0
VERTEX
  8
T01SSILL
 62
3
 10
787.287
 20
431.126
 30
5137.000
 70
    32
  0
VERTEX
  8
T01SSILL
 62
3
 10
792.633
 20
433.013
 30
5137.000
 70
    32
  0
VERTEX
  8
T01SSILL
 62
3
 10
794.964
 20
444.084
 30
5137.000
 70
    32
  0
VERTEX
  8
T01SSILL
 62
3
 10
802.580
 20
444.464
 30
5137.000
 70
    32
  0
VERTEX
  8
T01SSILL
 62
3
 10
803.118
 20
458.788
 30
5137.000
 70
    32
  0
VERTEX
  8
T01SSILL
 62
3
 10
804.675
 20
474.707
 30
5137.000
 70
    32
  0
VERTEX
  8
T01SSILL
 62
3
 10
810.678
 20
475.227
 30
5137.000
 70
    32
  0
VERTEX
  8
T01SSILL
 62
3
 10
811.714
 20
491.420
 30
5137.000
 70
    32
  0
VERTEX
  8
T01SSILL
 62
3
 10
813.319
 20
508.779
 30
5137.000
 70
    32
  0
VERTEX
  8
T01SSILL
 62
3
 10
814.782
 20
526.035
 30
5137.000
 70
    32
  0
VERTEX
  8
T01SSILL
 62
3
 10
826.255
 20
534.149
 30
5137.000
 70
    32
  0
VERTEX
  8
T01SSILL
 62
3
 10
842.460
 20
545.007
 30
5137.000
 70
    32
  0
VERTEX
  8
T01SSILL
 62
3
 10
864.247
 20
558.028
 30
5137.000
 70
    32
  0
VERTEX
  8
T01SSILL
 62
3
 10
873.957
 20
544.026
 30
5137.000
 70
    32
  0
VERTEX
  8
T01SSILL
 62
3
 10
893.875
 20
531.613
 30
5137.000
 70
    32
  0
VERTEX
  8
T01SSILL
 62
3
 10
907.773
 20
523.528
 30
5137.000
 70
    32
  0
VERTEX
  8
T01SSILL
 62
3
 10
921.865
 20
514.720
 30
5137.000
 70
    32
  0
VERTEX
  8
T01SSILL
 62
3
 10
928.367
 20
509.115
 30
5137.000
 70
    32
  0
VERTEX
  8
T01SSILL
 62
3
 10
929.749
 20
500.705
 30
5137.000
 70
    32
  0
VERTEX
  8
T01SSILL
 62
3
 10
930.869
 20
483.463
 30
5137.000
 70
    32
  0
VERTEX
  8
T01SSILL
 62
3
 10
933.342
 20
468.704
 30
5137.000
 70
    32
  0
VERTEX
  8
T01SSILL
 62
3
 10
933.759
 20
450.635
 30
5137.000
 70
    32
  0
VERTEX
  8
T01SSILL
 62
3
 10
936.501
 20
434.447
 30
5137.000
 70
    32
  0
VERTEX
  8
T01SSILL
 62
3
 10
945.836
 20
419.311
 30
5137.000
 70
    32
  0
VERTEX
  8
T01SSILL
 62
3
 10
953.255
 20
408.205
 30
5137.000
 70
    32
  0
VERTEX
  8
T01SSILL
 62
3
 10
963.364
 20
400.432
 30
5137.000
 70
    32
  0
VERTEX
  8
T01SSILL
 62
3
 10
968.570
 20
394.978
 30
5137.000
 70
    32
  0
VERTEX
  8
T01SSILL
 62
3
 10
964.159
 20
381.985
 30
5137.000
 70
    32
  0
VERTEX
  8
T01SSILL
 62
3
 10
958.494
 20
368.632
 30
5137.000
 70
    32
  0
VERTEX
  8
T01SSILL
 62
3
 10
954.083
 20
356.394
 30
5137.000
 70
    32
  0
VERTEX
  8
T01SSILL
 62
3
 10
947.826
 20
348.993
 30
5137.000
 70
    32
  0
VERTEX
  8
T01SSILL
 62
3
 10
933.552
 20
343.733
 30
5137.000
 70
    32
  0
VERTEX
  8
T01SSILL
 62
3
 10
911.437
 20
338.256
 30
5137.000
 70
    32
  0
VERTEX
  8
T01SSILL
 62
3
 10
891.527
 20
333.171
 30
5137.000
 70
    32
  0
VERTEX
  8
T01SSILL
 62
3
 10
879.598
 20
329.160
 30
5137.000
 70
    32
  0
VERTEX
  8
T01SSILL
 62
3
 10
862.058
 20
323.180
 30
5137.000
 70
    32
  0
VERTEX
  8
T01SSILL
 62
3
 10
844.885
 20
317.139
 30
5137.000
 70
    32
  0
VERTEX
  8
T01SSILL
 62
3
 10
831.596
 20
315.178
 30
5137.000
 70
    32
  0
VERTEX
  8
T01SSILL
 62
3
 10
821.628
 20
310.844
 30
5137.000
 70
    32
  0
VERTEX
  8
T01SSILL
 62
3
 10
816.945
 20
321.750
 30
5137.000
 70
    32
  0
VERTEX
  8
T01SSILL
 62
3
 10
813.541
 20
330.872
 30
5137.000
 70
    32
  0
VERTEX
  8
T01SSILL
 62
3
 10
810.667
 20
334.430
 30
5137.000
 70
    32
  0
VERTEX
  8
T01SSILL
 62
3
 10
802.223
 20
328.271
 30
5137.000
 70
    32
  0
VERTEX
  8
T01SSILL
 62
3
 10
792.100
 20
319.179
 30
5137.000
 70
    32
  0
VERTEX
  8
T01SSILL
 62
3
 10
785.885
 20
311.267
 30
5137.000
 70
    32
  0
VERTEX
  8
T01SSILL
 62
3
 10
782.342
 20
311.537
 30
5137.000
 70
    32
  0
VERTEX
  8
T01SSILL
 62
3
 10
780.316
 20
314.515
 30
5137.000
 70
    32
  0
VERTEX
  8
T01SSILL
 62
3
 10
767.658
 20
306.848
 30
5137.000
 70
    32
  0
VERTEX
  8
T01SSILL
 62
3
 10
770.055
 20
295.816
 30
5137.000
 70
    32
  0
VERTEX
  8
T01SSILL
 62
3
 10
771.286
 20
278.870
 30
5137.000
 70
    32
  0
VERTEX
  8
T01SSILL
 62
3
 10
773.571
 20
261.058
 30
5137.000
 70
    32
  0
VERTEX
  8
T01SSILL
 62
3
 10
773.455
 20
244.335
 30
5137.000
 70
    32
  0
VERTEX
  8
T01SSILL
 62
3
 10
770.496
 20
230.222
 30
5137.000
 70
    32
  0
VERTEX
  8
T01SSILL
 62
3
 10
763.865
 20
220.931
 30
5137.000
 70
    32
  0
VERTEX
  8
T01SSILL
 62
3
 10
759.184
 20
217.360
 30
5137.000
 70
    32
  0
VERTEX
  8
T01SSILL
 62
3
 10
762.319
 20
210.423
 30
5137.000
 70
    32
  0
VERTEX
  8
T01SSILL
 62
3
 10
770.568
 20
217.307
 30
5137.000
 70
    32
  0
VERTEX
  8
T01SSILL
 62
3
 10
771.072
 20
201.677
 30
5137.000
 70
    32
  0
VERTEX
  8
T01SSILL
 62
3
 10
770.065
 20
186.801
 30
5137.000
 70
    32
  0
VERTEX
  8
T01SSILL
 62
3
 10
770.629
 20
172.294
 30
5137.000
 70
    32
  0
VERTEX
  8
T01SSILL
 62
3
 10
768.972
 20
155.007
 30
5137.000
 70
    32
  0
VERTEX
  8
T01SSILL
 62
3
 10
770.356
 20
138.603
 30
5137.000
 70
    32
  0
VERTEX
  8
T01SSILL
 62
3
 10
770.052
 20
124.555
 30
5137.000
 70
    32
  0
VERTEX
  8
T01SSILL
 62
3
 10
768.837
 20
104.992
 30
5137.000
 70
    32
  0
VERTEX
  8
T01SSILL
 62
3
 10
767.928
 20
86.511
 30
5137.000
 70
    32
  0
VERTEX
  8
T01SSILL
 62
3
 10
765.351
 20
69.754
 30
5137.000
 70
    32
  0
VERTEX
  8
T01SSILL
 62
3
 10
763.648
 20
49.516
 30
5137.000
 70
    32
  0
VERTEX
  8
T01SSILL
 62
3
 10
761.021
 20
25.592
 30
5137.000
 70
    32
  0
VERTEX
  8
T01SSILL
 62
3
 10
757.540
 20
6.025
 30
5137.000
 70
    32
  0
VERTEX
  8
T01SSILL
 62
3
 10
756.946
 20
-11.689
 30
5137.000
 70
    32
  0
VERTEX
  8
T01SSILL
 62
3
 10
749.515
 20
-25.442
 30
5137.000
 70
    32
  0
VERTEX
  8
T01SSILL
 62
3
 10
734.188
 20
-42.802
 30
5137.000
 70
    32
  0
VERTEX
  8
T01SSILL
 62
3
 10
724.376
 20
-55.345
 30
5137.000
 70
    32
  0
VERTEX
  8
T01SSILL
 62
3
 10
717.743
 20
-63.880
 30
5137.000
 70
    32
  0
VERTEX
  8
T01SSILL
 62
3
 10
711.428
 20
-66.677
 30
5137.000
 70
    32
  0
VERTEX
  8
T01SSILL
 62
3
 10
716.208
 20
-73.949
 30
5137.000
 70
    32
  0
VERTEX
  8
T01SSILL
 62
3
 10
725.963
 20
-71.279
 30
5137.000
 70
    32
  0
VERTEX
  8
T01SSILL
 62
3
 10
738.048
 20
-68.993
 30
5137.000
 70
    32
  0
VERTEX
  8
T01SSILL
 62
3
 10
746.721
 20
-72.501
 30
5137.000
 70
    32
  0
VERTEX
  8
T01SSILL
 62
3
 10
751.127
 20
-82.418
 30
5137.000
 70
    32
  0
VERTEX
  8
T01SSILL
 62
3
 10
750.975
 20
-95.925
 30
5137.000
 70
    32
  0
VERTEX
  8
T01SSILL
 62
3
 10
749.266
 20
-113.141
 30
5137.000
 70
    32
  0
VERTEX
  8
T01SSILL
 62
3
 10
758.065
 20
-111.697
 30
5137.000
 70
    32
  0
VERTEX
  8
T01SSILL
 62
3
 10
758.936
 20
-94.973
 30
5137.000
 70
    32
  0
VERTEX
  8
T01SSILL
 62
3
 10
761.012
 20
-77.818
 30
5137.000
 70
    32
  0
VERTEX
  8
T01SSILL
 62
3
 10
760.773
 20
-62.106
 30
5137.000
 70
    32
  0
VERTEX
  8
T01SSILL
 62
3
 10
761.589
 20
-42.289
 30
5137.000
 70
    32
  0
VERTEX
  8
T01SSILL
 62
3
 10
763.840
 20
-20.254
 30
5137.000
 70
    32
  0
VERTEX
  8
T01SSILL
 62
3
 10
766.491
 20
1.527
 30
5137.000
 70
    32
  0
VERTEX
  8
T01SSILL
 62
3
 10
768.695
 20
21.367
 30
5137.000
 70
    32
  0
VERTEX
  8
T01SSILL
 62
3
 10
770.660
 20
43.953
 30
5137.000
 70
    32
  0
VERTEX
  8
T01SSILL
 62
3
 10
773.808
 20
67.603
 30
5137.000
 70
    32
  0
VERTEX
  8
T01SSILL
 62
3
 10
775.845
 20
89.485
 30
5137.000
 70
    32
  0
VERTEX
  8
T01SSILL
 62
3
 10
778.184
 20
108.233
 30
5137.000
 70
    32
  0
VERTEX
  8
T01SSILL
 62
3
 10
791.508
 20
107.733
 30
5137.000
 70
    32
  0
VERTEX
  8
T01SSILL
 62
3
 10
805.801
 20
107.389
 30
5137.000
 70
    32
  0
VERTEX
  8
T01SSILL
 62
3
 10
821.953
 20
106.863
 30
5137.000
 70
    32
  0
VERTEX
  8
T01SSILL
 62
3
 10
822.913
 20
113.062
 30
5137.000
 70
    32
  0
VERTEX
  8
T01SSILL
 62
3
 10
815.807
 20
113.479
 30
5137.000
 70
    32
  0
VERTEX
  8
T01SSILL
 62
3
 10
800.808
 20
114.507
 30
5137.000
 70
    32
  0
VERTEX
  8
T01SSILL
 62
3
 10
787.382
 20
115.149
 30
5137.000
 70
    32
  0
VERTEX
  8
T01SSILL
 62
3
 10
776.906
 20
115.745
 30
5137.000
 70
    32
  0
VERTEX
  8
T01SSILL
 62
3
 10
776.784
 20
127.975
 30
5137.000
 70
    32
  0
VERTEX
  8
T01SSILL
 62
3
 10
778.543
 20
145.875
 30
5137.000
 70
    32
  0
VERTEX
  8
T01SSILL
 62
3
 10
778.547
 20
162.302
 30
5137.000
 70
    32
  0
VERTEX
  8
T01SSILL
 62
3
 10
778.500
 20
178.800
 30
5137.000
 70
    32
  0
VERTEX
  8
T01SSILL
 62
3
 10
779.087
 20
195.319
 30
5137.000
 70
    32
  0
VERTEX
  8
T01SSILL
 62
3
 10
783.619
 20
214.775
 30
5137.000
 70
    32
  0
VERTEX
  8
T01SSILL
 62
3
 10
788.030
 20
233.496
 30
5137.000
 70
    32
  0
VERTEX
  8
T01SSILL
 62
3
 10
789.126
 20
250.813
 30
5137.000
 70
    32
  0
VERTEX
  8
T01SSILL
 62
3
 10
790.531
 20
266.190
 30
5137.000
 70
    32
  0
VERTEX
  8
T01SSILL
 62
3
 10
799.348
 20
281.477
 30
5137.000
 70
    32
  0
VERTEX
  8
T01SSILL
 62
3
 10
808.658
 20
294.417
 30
5137.000
 70
    32
  0
VERTEX
  8
T01SSILL
 62
3
 10
817.630
 20
302.252
 30
5137.000
 70
    32
  0
VERTEX
  8
T01SSILL
 62
3
 10
831.589
 20
306.746
 30
5137.000
 70
    32
  0
VERTEX
  8
T01SSILL
 62
3
 10
843.256
 20
308.408
 30
5137.000
 70
    32
  0
VERTEX
  8
T01SSILL
 62
3
 10
854.997
 20
314.338
 30
5137.000
 70
    32
  0
VERTEX
  8
T01SSILL
 62
3
 10
871.202
 20
318.713
 30
5137.000
 70
    32
  0
VERTEX
  8
T01SSILL
 62
3
 10
890.672
 20
324.563
 30
5137.000
 70
    32
  0
VERTEX
  8
T01SSILL
 62
3
 10
914.584
 20
330.247
 30
5137.000
 70
    32
  0
VERTEX
  8
T01SSILL
 62
3
 10
933.565
 20
335.423
 30
5137.000
 70
    32
  0
VERTEX
  8
T01SSILL
 62
3
 10
948.132
 20
342.837
 30
5137.000
 70
    32
  0
VERTEX
  8
T01SSILL
 62
3
 10
953.353
 20
340.528
 30
5137.000
 70
    32
  0
VERTEX
  8
T01SSILL
 62
3
 10
959.346
 20
346.336
 30
5137.000
 70
    32
  0
VERTEX
  8
T01SSILL
 62
3
 10
961.387
 20
353.741
 30
5137.000
 70
    32
  0
VERTEX
  8
T01SSILL
 62
3
 10
966.897
 20
368.064
 30
5137.000
 70
    32
  0
VERTEX
  8
T01SSILL
 62
3
 10
971.663
 20
382.068
 30
5137.000
 70
    32
  0
VERTEX
  8
T01SSILL
 62
3
 10
974.723
 20
390.312
 30
5137.000
 70
    32
  0
VERTEX
  8
T01SSILL
 62
3
 10
983.437
 20
387.049
 30
5137.000
 70
    32
  0
VERTEX
  8
T01SSILL
 62
3
 10
990.917
 20
382.793
 30
5137.000
 70
    32
  0
VERTEX
  8
T01SSILL
 62
3
 10
1003.508
 20
380.904
 30
5137.000
 70
    32
  0
VERTEX
  8
T01SSILL
 62
3
 10
1007.203
 20
387.658
 30
5137.000
 70
    32
  0
VERTEX
  8
T01SSILL
 62
3
 10
998.556
 20
387.512
 30
5137.000
 70
    32
  0
VERTEX
  8
T01SSILL
 62
3
 10
987.228
 20
390.955
 30
5137.000
 70
    32
  0
VERTEX
  8
T01SSILL
 62
3
 10
974.749
 20
399.623
 30
5137.000
 70
    32
  0
VERTEX
  8
T01SSILL
 62
3
 10
964.588
 20
407.468
 30
5137.000
 70
    32
  0
VERTEX
  8
T01SSILL
 62
3
 10
956.490
 20
415.602
 30
5137.000
 70
    32
  0
VERTEX
  8
T01SSILL
 62
3
 10
946.831
 20
428.777
 30
5137.000
 70
    32
  0
VERTEX
  8
T01SSILL
 62
3
 10
941.784
 20
443.960
 30
5137.000
 70
    32
  0
VERTEX
  8
T01SSILL
 62
3
 10
938.326
 20
461.147
 30
5137.000
 70
    32
  0
VERTEX
  8
T01SSILL
 62
3
 10
936.855
 20
480.839
 30
5137.000
 70
    32
  0
VERTEX
  8
T01SSILL
 62
3
 10
936.340
 20
496.785
 30
5137.000
 70
    32
  0
VERTEX
  8
T01SSILL
 62
3
 10
937.215
 20
504.760
 30
5137.000
 70
    32
  0
VERTEX
  8
T01SSILL
 62
3
 10
941.151
 20
501.530
 30
5137.000
 70
    32
  0
VERTEX
  8
T01SSILL
 62
3
 10
945.297
 20
500.719
 30
5137.000
 70
    32
  0
VERTEX
  8
T01SSILL
 62
3
 10
949.638
 20
506.423
 30
5137.000
 70
    32
  0
VERTEX
  8
T01SSILL
 62
3
 10
941.093
 20
512.617
 30
5137.000
 70
    32
  0
VERTEX
  8
T01SSILL
 62
3
 10
924.498
 20
521.901
 30
5137.000
 70
    32
  0
VERTEX
  8
T01SSILL
 62
3
 10
907.802
 20
530.573
 30
5137.000
 70
    32
  0
VERTEX
  8
T01SSILL
 62
3
 10
895.805
 20
537.966
 30
5137.000
 70
    32
  0
VERTEX
  8
T01SSILL
 62
3
 10
884.227
 20
544.471
 30
5137.000
 70
    32
  0
VERTEX
  8
T01SSILL
 62
3
 10
877.203
 20
551.106
 30
5137.000
 70
    32
  0
VERTEX
  8
T01SSILL
 62
3
 10
881.075
 20
555.502
 30
5137.000
 70
    32
  0
VERTEX
  8
T01SSILL
 62
3
 10
880.025
 20
561.340
 30
5137.000
 70
    32
  0
VERTEX
  8
T01SSILL
 62
3
 10
875.547
 20
558.995
 30
5137.000
 70
    32
  0
VERTEX
  8
T01SSILL
 62
3
 10
872.311
 20
558.837
 30
5137.000
 70
    32
  0
VERTEX
  8
T01SSILL
 62
3
 10
869.738
 20
564.989
 30
5137.000
 70
    32
  0
VERTEX
  8
T01SSILL
 62
3
 10
865.688
 20
575.917
 30
5137.000
 70
    32
  0
VERTEX
  8
T01SSILL
 62
3
 10
861.215
 20
589.998
 30
5137.000
 70
    32
  0
VERTEX
  8
T01SSILL
 62
3
 10
861.636
 20
594.838
 30
5137.000
 70
    32
  0
VERTEX
  8
T01SSILL
 62
3
 10
872.146
 20
591.782
 30
5137.000
 70
    32
  0
VERTEX
  8
T01SSILL
 62
3
 10
872.003
 20
598.163
 30
5137.000
 70
    32
  0
VERTEX
  8
T01SSILL
 62
3
 10
862.505
 20
600.108
 30
5137.000
 70
    32
  0
VERTEX
  8
T01SSILL
 62
3
 10
857.172
 20
602.876
 30
5137.000
 70
    32
  0
VERTEX
  8
T01SSILL
 62
3
 10
856.620
 20
615.555
 30
5137.000
 70
    32
  0
VERTEX
  8
T01SSILL
 62
3
 10
856.801
 20
630.379
 30
5137.000
 70
    32
  0
VERTEX
  8
T01SSILL
 62
3
 10
859.703
 20
641.859
 30
5137.000
 70
    32
  0
VERTEX
  8
T01SSILL
 62
3
 10
864.702
 20
637.447
 30
5137.000
 70
    32
  0
VERTEX
  8
T01SSILL
 62
3
 10
879.726
 20
627.037
 30
5137.000
 70
    32
  0
VERTEX
  8
T01SSILL
 62
3
 10
889.735
 20
630.861
 30
5137.000
 70
    32
  0
VERTEX
  8
T01SSILL
 62
3
 10
913.826
 20
645.641
 30
5137.000
 70
    32
  0
VERTEX
  8
T01SSILL
 62
3
 10
955.806
 20
671.946
 30
5137.000
 70
    32
  0
VERTEX
  8
T01SSILL
 62
3
 10
997.746
 20
697.250
 30
5137.000
 70
    32
  0
VERTEX
  8
T01SSILL
 62
3
 10
1037.082
 20
723.173
 30
5137.000
 70
    32
  0
VERTEX
  8
T01SSILL
 62
3
 10
1047.688
 20
730.234
 30
5137.000
 70
    32
  0
VERTEX
  8
T01SSILL
 62
3
 10
1044.751
 20
734.936
 30
5137.000
 70
    32
  0
VERTEX
  8
T01SSILL
 62
3
 10
1019.150
 20
719.398
 30
5137.000
 70
    32
  0
VERTEX
  8
T01SSILL
 62
3
 10
975.019
 20
691.874
 30
5137.000
 70
    32
  0
VERTEX
  8
T01SSILL
 62
3
 10
932.121
 20
665.344
 30
5137.000
 70
    32
  0
VERTEX
  8
T01SSILL
 62
3
 10
899.911
 20
645.609
 30
5137.000
 70
    32
  0
VERTEX
  8
T01SSILL
 62
3
 10
884.560
 20
636.876
 30
5137.000
 70
    32
  0
VERTEX
  8
T01SSILL
 62
3
 10
873.962
 20
643.975
 30
5137.000
 70
    32
  0
VERTEX
  8
T01SSILL
 62
3
 10
859.013
 20
657.897
 30
5137.000
 70
    32
  0
VERTEX
  8
T01SSILL
 62
3
 10
844.895
 20
670.360
 30
5137.000
 70
    32
  0
VERTEX
  8
T01SSILL
 62
3
 10
827.291
 20
684.973
 30
5137.000
 70
    32
  0
VERTEX
  8
T01SSILL
 62
3
 10
811.873
 20
699.098
 30
5137.000
 70
    32
  0
VERTEX
  8
T01SSILL
 62
3
 10
786.458
 20
720.538
 30
5137.000
 70
    32
  0
VERTEX
  8
T01SSILL
 62
3
 10
768.297
 20
739.396
 30
5137.000
 70
    32
  0
VERTEX
  8
T01SSILL
 62
3
 10
750.832
 20
756.377
 30
5137.000
 70
    32
  0
VERTEX
  8
T01SSILL
 62
3
 10
741.723
 20
764.111
 30
5137.000
 70
    32
  0
VERTEX
  8
T01SSILL
 62
3
 10
752.646
 20
771.183
 30
5137.000
 70
    32
  0
VERTEX
  8
T01SSILL
 62
3
 10
778.360
 20
779.780
 30
5137.000
 70
    32
  0
VERTEX
  8
T01SSILL
 62
3
 10
1071.034
 20
885.810
 30
5137.000
 70
    32
  0
VERTEX
  8
T01SSILL
 62
3
 10
1651.929
 20
1101.183
 30
5137.000
 70
    32
  0
VERTEX
  8
T01SSILL
 62
3
 10
1651.815
 20
1105.891
 30
5137.000
 70
    32
  0
SEQEND
  8
T01SSILL
  0
TEXT
  8
T01SSILL
 62
3
 10
231.287
 20
630.211
 30
5137.000
 40
0.200
  1
100
 41
 1.0 
  0
TEXT
  8
T01SSILL
 62
3
 10
439.502
 20
1001.655
 30
5137.000
 40
1.969
  1
CALEDONIA WORKINGS-TRAM
 41
 1.0 
  0
POLYLINE
  8
T01SSILL
 62
3
 66
     1
 70
     9
  0
VERTEX
  8
T01SSILL
 62
3
 10
297.817
 20
-1916.213
 30
5137.000
 70
    32
  0
VERTEX
  8
T01SSILL
 62
3
 10
289.548
 20
-1916.129
 30
5137.000
 70
    32
  0
VERTEX
  8
T01SSILL
 62
3
 10
217.539
 20
-1797.318
 30
5137.000
 70
    32
  0
VERTEX
  8
T01SSILL
 62
3
 10
209.710
 20
-1797.322
 30
5137.000
 70
    32
  0
VERTEX
  8
T01SSILL
 62
3
 10
130.567
 20
-1857.525
 30
5137.000
 70
    32
  0
VERTEX
  8
T01SSILL
 62
3
 10
126.519
 20
-1852.513
 30
5137.000
 70
    32
  0
VERTEX
  8
T01SSILL
 62
3
 10
204.343
 20
-1793.629
 30
5137.000
 70
    32
  0
VERTEX
  8
T01SSILL
 62
3
 10
209.968
 20
-1782.983
 30
5137.000
 70
    32
  0
VERTEX
  8
T01SSILL
 62
3
 10
166.834
 20
-1713.245
 30
5137.000
 70
    32
  0
VERTEX
  8
T01SSILL
 62
3
 10
159.180
 20
-1711.929
 30
5137.000
 70
    32
  0
VERTEX
  8
T01SSILL
 62
3
 10
-121.084
 20
-1904.346
 30
5137.000
 70
    32
  0
VERTEX
  8
T01SSILL
 62
3
 10
-120.647
 20
-1896.429
 30
5137.000
 70
    32
  0
VERTEX
  8
T01SSILL
 62
3
 10
156.275
 20
-1707.444
 30
5137.000
 70
    32
  0
VERTEX
  8
T01SSILL
 62
3
 10
157.064
 20
-1699.702
 30
5137.000
 70
    32
  0
VERTEX
  8
T01SSILL
 62
3
 10
79.436
 20
-1606.316
 30
5137.000
 70
    32
  0
VERTEX
  8
T01SSILL
 62
3
 10
77.676
 20
-1603.062
 30
5137.000
 70
    32
  0
VERTEX
  8
T01SSILL
 62
3
 10
54.949
 20
-1532.171
 30
5137.000
 70
    32
  0
VERTEX
  8
T01SSILL
 62
3
 10
53.716
 20
-1529.533
 30
5137.000
 70
    32
  0
VERTEX
  8
T01SSILL
 62
3
 10
51.165
 20
-1528.479
 30
5137.000
 70
    32
  0
VERTEX
  8
T01SSILL
 62
3
 10
20.107
 20
-1516.089
 30
5137.000
 70
    32
  0
VERTEX
  8
T01SSILL
 62
3
 10
-27.156
 20
-1457.524
 30
5137.000
 70
    32
  0
VERTEX
  8
T01SSILL
 62
3
 10
-34.106
 20
-1456.912
 30
5137.000
 70
    32
  0
VERTEX
  8
T01SSILL
 62
3
 10
-97.423
 20
-1500.043
 30
5137.000
 70
    32
  0
VERTEX
  8
T01SSILL
 62
3
 10
-100.856
 20
-1494.854
 30
5137.000
 70
    32
  0
VERTEX
  8
T01SSILL
 62
3
 10
-35.780
 20
-1451.194
 30
5137.000
 70
    32
  0
VERTEX
  8
T01SSILL
 62
3
 10
-34.374
 20
-1447.851
 30
5137.000
 70
    32
  0
VERTEX
  8
T01SSILL
 62
3
 10
-38.158
 20
-1443.103
 30
5137.000
 70
    32
  0
VERTEX
  8
T01SSILL
 62
3
 10
-34.553
 20
-1440.286
 30
5137.000
 70
    32
  0
VERTEX
  8
T01SSILL
 62
3
 10
12.095
 20
-1498.499
 30
5137.000
 70
    32
  0
VERTEX
  8
T01SSILL
 62
3
 10
14.294
 20
-1498.058
 30
5137.000
 70
    32
  0
VERTEX
  8
T01SSILL
 62
3
 10
19.563
 20
-1478.880
 30
5137.000
 70
    32
  0
VERTEX
  8
T01SSILL
 62
3
 10
26.074
 20
-1481.252
 30
5137.000
 70
    32
  0
VERTEX
  8
T01SSILL
 62
3
 10
19.837
 20
-1501.927
 30
5137.000
 70
    32
  0
VERTEX
  8
T01SSILL
 62
3
 10
20.192
 20
-1507.468
 30
5137.000
 70
    32
  0
VERTEX
  8
T01SSILL
 62
3
 10
22.480
 20
-1510.986
 30
5137.000
 70
    32
  0
VERTEX
  8
T01SSILL
 62
3
 10
54.593
 20
-1523.287
 30
5137.000
 70
    32
  0
VERTEX
  8
T01SSILL
 62
3
 10
58.201
 20
-1525.397
 30
5137.000
 70
    32
  0
VERTEX
  8
T01SSILL
 62
3
 10
60.225
 20
-1528.123
 30
5137.000
 70
    32
  0
VERTEX
  8
T01SSILL
 62
3
 10
84.977
 20
-1603.235
 30
5137.000
 70
    32
  0
VERTEX
  8
T01SSILL
 62
3
 10
162.428
 20
-1697.237
 30
5137.000
 70
    32
  0
VERTEX
  8
T01SSILL
 62
3
 10
167.179
 20
-1698.730
 30
5137.000
 70
    32
  0
VERTEX
  8
T01SSILL
 62
3
 10
413.227
 20
-1512.134
 30
5137.000
 70
    32
  0
VERTEX
  8
T01SSILL
 62
3
 10
418.767
 20
-1508.876
 30
5137.000
 70
    32
  0
VERTEX
  8
T01SSILL
 62
3
 10
465.560
 20
-1497.948
 30
5137.000
 70
    32
  0
VERTEX
  8
T01SSILL
 62
3
 10
473.564
 20
-1495.745
 30
5137.000
 70
    32
  0
VERTEX
  8
T01SSILL
 62
3
 10
477.697
 20
-1492.841
 30
5137.000
 70
    32
  0
VERTEX
  8
T01SSILL
 62
3
 10
478.664
 20
-1490.201
 30
5137.000
 70
    32
  0
VERTEX
  8
T01SSILL
 62
3
 10
491.483
 20
-1436.448
 30
5137.000
 70
    32
  0
VERTEX
  8
T01SSILL
 62
3
 10
497.986
 20
-1421.843
 30
5137.000
 70
    32
  0
VERTEX
  8
T01SSILL
 62
3
 10
497.279
 20
-1413.135
 30
5137.000
 70
    32
  0
VERTEX
  8
T01SSILL
 62
3
 10
490.944
 20
-1410.762
 30
5137.000
 70
    32
  0
VERTEX
  8
T01SSILL
 62
3
 10
368.924
 20
-1384.514
 30
5137.000
 70
    32
  0
VERTEX
  8
T01SSILL
 62
3
 10
370.592
 20
-1378.971
 30
5137.000
 70
    32
  0
VERTEX
  8
T01SSILL
 62
3
 10
500.882
 20
-1405.128
 30
5137.000
 70
    32
  0
VERTEX
  8
T01SSILL
 62
3
 10
516.096
 20
-1395.269
 30
5137.000
 70
    32
  0
VERTEX
  8
T01SSILL
 62
3
 10
558.134
 20
-1374.139
 30
5137.000
 70
    32
  0
VERTEX
  8
T01SSILL
 62
3
 10
587.946
 20
-1354.157
 30
5137.000
 70
    32
  0
VERTEX
  8
T01SSILL
 62
3
 10
593.749
 20
-1346.590
 30
5137.000
 70
    32
  0
VERTEX
  8
T01SSILL
 62
3
 10
568.574
 20
-1309.391
 30
5137.000
 70
    32
  0
VERTEX
  8
T01SSILL
 62
3
 10
550.352
 20
-1280.634
 30
5137.000
 70
    32
  0
VERTEX
  8
T01SSILL
 62
3
 10
520.157
 20
-1229.539
 30
5137.000
 70
    32
  0
VERTEX
  8
T01SSILL
 62
3
 10
431.070
 20
-1080.915
 30
5137.000
 70
    32
  0
VERTEX
  8
T01SSILL
 62
3
 10
402.901
 20
-1035.801
 30
5137.000
 70
    32
  0
VERTEX
  8
T01SSILL
 62
3
 10
383.286
 20
-1038.976
 30
5137.000
 70
    32
  0
VERTEX
  8
T01SSILL
 62
3
 10
380.114
 20
-1028.246
 30
5137.000
 70
    32
  0
VERTEX
  8
T01SSILL
 62
3
 10
399.905
 20
-1024.015
 30
5137.000
 70
    32
  0
VERTEX
  8
T01SSILL
 62
3
 10
394.431
 20
-979.418
 30
5137.000
 70
    32
  0
VERTEX
  8
T01SSILL
 62
3
 10
394.252
 20
-972.117
 30
5137.000
 70
    32
  0
VERTEX
  8
T01SSILL
 62
3
 10
400.725
 20
-951.297
 30
5137.000
 70
    32
  0
VERTEX
  8
T01SSILL
 62
3
 10
418.779
 20
-882.160
 30
5137.000
 70
    32
  0
VERTEX
  8
T01SSILL
 62
3
 10
417.844
 20
-876.179
 30
5137.000
 70
    32
  0
VERTEX
  8
T01SSILL
 62
3
 10
322.714
 20
-720.145
 30
5137.000
 70
    32
  0
VERTEX
  8
T01SSILL
 62
3
 10
313.667
 20
-713.267
 30
5137.000
 70
    32
  0
VERTEX
  8
T01SSILL
 62
3
 10
284.741
 20
-709.563
 30
5137.000
 70
    32
  0
VERTEX
  8
T01SSILL
 62
3
 10
278.150
 20
-711.384
 30
5137.000
 70
    32
  0
VERTEX
  8
T01SSILL
 62
3
 10
275.615
 20
-713.521
 30
5137.000
 70
    32
  0
VERTEX
  8
T01SSILL
 62
3
 10
234.232
 20
-715.742
 30
5137.000
 70
    32
  0
VERTEX
  8
T01SSILL
 62
3
 10
244.395
 20
-729.129
 30
5137.000
 70
    32
  0
VERTEX
  8
T01SSILL
 62
3
 10
235.392
 20
-736.962
 30
5137.000
 70
    32
  0
VERTEX
  8
T01SSILL
 62
3
 10
210.263
 20
-704.947
 30
5137.000
 70
    32
  0
VERTEX
  8
T01SSILL
 62
3
 10
184.793
 20
-703.590
 30
5137.000
 70
    32
  0
VERTEX
  8
T01SSILL
 62
3
 10
180.472
 20
-703.100
 30
5137.000
 70
    32
  0
VERTEX
  8
T01SSILL
 62
3
 10
138.806
 20
-732.632
 30
5137.000
 70
    32
  0
VERTEX
  8
T01SSILL
 62
3
 10
83.765
 20
-773.560
 30
5137.000
 70
    32
  0
VERTEX
  8
T01SSILL
 62
3
 10
82.200
 20
-775.865
 30
5137.000
 70
    32
  0
VERTEX
  8
T01SSILL
 62
3
 10
67.073
 20
-788.333
 30
5137.000
 70
    32
  0
VERTEX
  8
T01SSILL
 62
3
 10
64.086
 20
-789.241
 30
5137.000
 70
    32
  0
VERTEX
  8
T01SSILL
 62
3
 10
-31.787
 20
-864.274
 30
5137.000
 70
    32
  0
VERTEX
  8
T01SSILL
 62
3
 10
-35.265
 20
-859.549
 30
5137.000
 70
    32
  0
VERTEX
  8
T01SSILL
 62
3
 10
59.814
 20
-784.434
 30
5137.000
 70
    32
  0
VERTEX
  8
T01SSILL
 62
3
 10
61.293
 20
-782.307
 30
5137.000
 70
    32
  0
VERTEX
  8
T01SSILL
 62
3
 10
76.690
 20
-770.453
 30
5137.000
 70
    32
  0
VERTEX
  8
T01SSILL
 62
3
 10
79.940
 20
-769.366
 30
5137.000
 70
    32
  0
VERTEX
  8
T01SSILL
 62
3
 10
132.005
 20
-730.579
 30
5137.000
 70
    32
  0
VERTEX
  8
T01SSILL
 62
3
 10
135.658
 20
-725.349
 30
5137.000
 70
    32
  0
VERTEX
  8
T01SSILL
 62
3
 10
120.009
 20
-709.193
 30
5137.000
 70
    32
  0
VERTEX
  8
T01SSILL
 62
3
 10
113.237
 20
-710.487
 30
5137.000
 70
    32
  0
VERTEX
  8
T01SSILL
 62
3
 10
80.225
 20
-732.454
 30
5137.000
 70
    32
  0
VERTEX
  8
T01SSILL
 62
3
 10
71.728
 20
-737.816
 30
5137.000
 70
    32
  0
VERTEX
  8
T01SSILL
 62
3
 10
69.473
 20
-741.712
 30
5137.000
 70
    32
  0
VERTEX
  8
T01SSILL
 62
3
 10
45.461
 20
-755.670
 30
5137.000
 70
    32
  0
VERTEX
  8
T01SSILL
 62
3
 10
25.935
 20
-768.794
 30
5137.000
 70
    32
  0
VERTEX
  8
T01SSILL
 62
3
 10
19.446
 20
-772.024
 30
5137.000
 70
    32
  0
VERTEX
  8
T01SSILL
 62
3
 10
-144.912
 20
-842.740
 30
5137.000
 70
    32
  0
VERTEX
  8
T01SSILL
 62
3
 10
-150.459
 20
-843.054
 30
5137.000
 70
    32
  0
VERTEX
  8
T01SSILL
 62
3
 10
-238.102
 20
-794.775
 30
5137.000
 70
    32
  0
VERTEX
  8
T01SSILL
 62
3
 10
-350.879
 20
-733.597
 30
5137.000
 70
    32
  0
VERTEX
  8
T01SSILL
 62
3
 10
-402.807
 20
-748.422
 30
5137.000
 70
    32
  0
VERTEX
  8
T01SSILL
 62
3
 10
-426.956
 20
-756.831
 30
5137.000
 70
    32
  0
VERTEX
  8
T01SSILL
 62
3
 10
-459.354
 20
-778.528
 30
5137.000
 70
    32
  0
VERTEX
  8
T01SSILL
 62
3
 10
-548.516
 20
-835.707
 30
5137.000
 70
    32
  0
VERTEX
  8
T01SSILL
 62
3
 10
-553.591
 20
-839.541
 30
5137.000
 70
    32
  0
VERTEX
  8
T01SSILL
 62
3
 10
-555.670
 20
-843.523
 30
5137.000
 70
    32
  0
VERTEX
  8
T01SSILL
 62
3
 10
-567.584
 20
-870.410
 30
5137.000
 70
    32
  0
VERTEX
  8
T01SSILL
 62
3
 10
-556.481
 20
-880.705
 30
5137.000
 70
    32
  0
VERTEX
  8
T01SSILL
 62
3
 10
-551.812
 20
-880.663
 30
5137.000
 70
    32
  0
VERTEX
  8
T01SSILL
 62
3
 10
-535.928
 20
-864.223
 30
5137.000
 70
    32
  0
VERTEX
  8
T01SSILL
 62
3
 10
-532.373
 20
-867.627
 30
5137.000
 70
    32
  0
VERTEX
  8
T01SSILL
 62
3
 10
-547.281
 20
-884.939
 30
5137.000
 70
    32
  0
VERTEX
  8
T01SSILL
 62
3
 10
-547.677
 20
-889.875
 30
5137.000
 70
    32
  0
VERTEX
  8
T01SSILL
 62
3
 10
-526.548
 20
-908.096
 30
5137.000
 70
    32
  0
VERTEX
  8
T01SSILL
 62
3
 10
-524.226
 20
-911.687
 30
5137.000
 70
    32
  0
VERTEX
  8
T01SSILL
 62
3
 10
-520.606
 20
-932.180
 30
5137.000
 70
    32
  0
VERTEX
  8
T01SSILL
 62
3
 10
-513.412
 20
-938.722
 30
5137.000
 70
    32
  0
VERTEX
  8
T01SSILL
 62
3
 10
-505.809
 20
-971.159
 30
5137.000
 70
    32
  0
VERTEX
  8
T01SSILL
 62
3
 10
-510.519
 20
-976.398
 30
5137.000
 70
    32
  0
VERTEX
  8
T01SSILL
 62
3
 10
-507.738
 20
-991.701
 30
5137.000
 70
    32
  0
VERTEX
  8
T01SSILL
 62
3
 10
-498.597
 20
-989.505
 30
5137.000
 70
    32
  0
VERTEX
  8
T01SSILL
 62
3
 10
-498.636
 20
-994.967
 30
5137.000
 70
    32
  0
VERTEX
  8
T01SSILL
 62
3
 10
-504.875
 20
-996.608
 30
5137.000
 70
    32
  0
VERTEX
  8
T01SSILL
 62
3
 10
-506.255
 20
-999.880
 30
5137.000
 70
    32
  0
VERTEX
  8
T01SSILL
 62
3
 10
-503.474
 20
-1015.359
 30
5137.000
 70
    32
  0
VERTEX
  8
T01SSILL
 62
3
 10
-509.375
 20
-1015.412
 30
5137.000
 70
    32
  0
VERTEX
  8
T01SSILL
 62
3
 10
-511.519
 20
-1002.306
 30
5137.000
 70
    32
  0
VERTEX
  8
T01SSILL
 62
3
 10
-514.446
 20
-1000.042
 30
5137.000
 70
    32
  0
VERTEX
  8
T01SSILL
 62
3
 10
-521.131
 20
-1001.159
 30
5137.000
 70
    32
  0
VERTEX
  8
T01SSILL
 62
3
 10
-522.152
 20
-995.354
 30
5137.000
 70
    32
  0
VERTEX
  8
T01SSILL
 62
3
 10
-515.469
 20
-994.061
 30
5137.000
 70
    32
  0
VERTEX
  8
T01SSILL
 62
3
 10
-513.999
 20
-990.964
 30
5137.000
 70
    32
  0
VERTEX
  8
T01SSILL
 62
3
 10
-530.381
 20
-912.887
 30
5137.000
 70
    32
  0
VERTEX
  8
T01SSILL
 62
3
 10
-571.867
 20
-874.148
 30
5137.000
 70
    32
  0
VERTEX
  8
T01SSILL
 62
3
 10
-574.180
 20
-871.614
 30
5137.000
 70
    32
  0
VERTEX
  8
T01SSILL
 62
3
 10
-573.948
 20
-868.089
 30
5137.000
 70
    32
  0
VERTEX
  8
T01SSILL
 62
3
 10
-561.926
 20
-843.315
 30
5137.000
 70
    32
  0
VERTEX
  8
T01SSILL
 62
3
 10
-821.489
 20
-984.830
 30
5137.000
 70
    32
  0
VERTEX
  8
T01SSILL
 62
3
 10
-821.996
 20
-977.435
 30
5137.000
 70
    32
  0
VERTEX
  8
T01SSILL
 62
3
 10
-561.902
 20
-836.180
 30
5137.000
 70
    32
  0
VERTEX
  8
T01SSILL
 62
3
 10
-529.553
 20
-818.800
 30
5137.000
 70
    32
  0
VERTEX
  8
T01SSILL
 62
3
 10
-435.424
 20
-755.586
 30
5137.000
 70
    32
  0
VERTEX
  8
T01SSILL
 62
3
 10
-432.891
 20
-753.097
 30
5137.000
 70
    32
  0
VERTEX
  8
T01SSILL
 62
3
 10
-430.587
 20
-744.884
 30
5137.000
 70
    32
  0
VERTEX
  8
T01SSILL
 62
3
 10
-432.350
 20
-734.945
 30
5137.000
 70
    32
  0
VERTEX
  8
T01SSILL
 62
3
 10
-437.653
 20
-723.189
 30
5137.000
 70
    32
  0
VERTEX
  8
T01SSILL
 62
3
 10
-444.832
 20
-708.542
 30
5137.000
 70
    32
  0
VERTEX
  8
T01SSILL
 62
3
 10
-450.668
 20
-696.262
 30
5137.000
 70
    32
  0
VERTEX
  8
T01SSILL
 62
3
 10
-463.811
 20
-674.710
 30
5137.000
 70
    32
  0
VERTEX
  8
T01SSILL
 62
3
 10
-463.903
 20
-674.270
 30
5137.000
 70
    32
  0
VERTEX
  8
T01SSILL
 62
3
 10
-478.811
 20
-652.382
 30
5137.000
 70
    32
  0
VERTEX
  8
T01SSILL
 62
3
 10
-482.501
 20
-643.606
 30
5137.000
 70
    32
  0
VERTEX
  8
T01SSILL
 62
3
 10
-486.320
 20
-620.561
 30
5137.000
 70
    32
  0
VERTEX
  8
T01SSILL
 62
3
 10
-490.279
 20
-611.259
 30
5137.000
 70
    32
  0
VERTEX
  8
T01SSILL
 62
3
 10
-496.635
 20
-600.040
 30
5137.000
 70
    32
  0
VERTEX
  8
T01SSILL
 62
3
 10
-582.838
 20
-457.140
 30
5137.000
 70
    32
  0
VERTEX
  8
T01SSILL
 62
3
 10
-586.932
 20
-452.420
 30
5137.000
 70
    32
  0
VERTEX
  8
T01SSILL
 62
3
 10
-593.316
 20
-447.808
 30
5137.000
 70
    32
  0
VERTEX
  8
T01SSILL
 62
3
 10
-599.427
 20
-444.163
 30
5137.000
 70
    32
  0
VERTEX
  8
T01SSILL
 62
3
 10
-610.444
 20
-433.691
 30
5137.000
 70
    32
  0
VERTEX
  8
T01SSILL
 62
3
 10
-616.535
 20
-422.471
 30
5137.000
 70
    32
  0
VERTEX
  8
T01SSILL
 62
3
 10
-614.783
 20
-411.620
 30
5137.000
 70
    32
  0
VERTEX
  8
T01SSILL
 62
3
 10
-614.493
 20
-404.658
 30
5137.000
 70
    32
  0
VERTEX
  8
T01SSILL
 62
3
 10
-616.851
 20
-397.103
 30
5137.000
 70
    32
  0
VERTEX
  8
T01SSILL
 62
3
 10
-626.125
 20
-384.590
 30
5137.000
 70
    32
  0
VERTEX
  8
T01SSILL
 62
3
 10
-633.701
 20
-374.792
 30
5137.000
 70
    32
  0
VERTEX
  8
T01SSILL
 62
3
 10
-696.862
 20
-394.299
 30
5137.000
 70
    32
  0
VERTEX
  8
T01SSILL
 62
3
 10
-700.116
 20
-375.301
 30
5137.000
 70
    32
  0
VERTEX
  8
T01SSILL
 62
3
 10
-687.278
 20
-372.719
 30
5137.000
 70
    32
  0
VERTEX
  8
T01SSILL
 62
3
 10
-669.032
 20
-373.964
 30
5137.000
 70
    32
  0
VERTEX
  8
T01SSILL
 62
3
 10
-605.307
 20
-358.328
 30
5137.000
 70
    32
  0
VERTEX
  8
T01SSILL
 62
3
 10
-481.016
 20
-328.494
 30
5137.000
 70
    32
  0
VERTEX
  8
T01SSILL
 62
3
 10
-395.823
 20
-300.156
 30
5137.000
 70
    32
  0
VERTEX
  8
T01SSILL
 62
3
 10
-374.626
 20
-286.752
 30
5137.000
 70
    32
  0
VERTEX
  8
T01SSILL
 62
3
 10
-367.606
 20
-273.916
 30
5137.000
 70
    32
  0
VERTEX
  8
T01SSILL
 62
3
 10
-362.653
 20
-266.296
 30
5137.000
 70
    32
  0
VERTEX
  8
T01SSILL
 62
3
 10
-361.372
 20
-261.792
 30
5137.000
 70
    32
  0
VERTEX
  8
T01SSILL
 62
3
 10
-365.759
 20
-253.991
 30
5137.000
 70
    32
  0
VERTEX
  8
T01SSILL
 62
3
 10
-359.705
 20
-251.294
 30
5137.000
 70
    32
  0
VERTEX
  8
T01SSILL
 62
3
 10
-362.484
 20
-245.857
 30
5137.000
 70
    32
  0
VERTEX
  8
T01SSILL
 62
3
 10
-357.136
 20
-243.079
 30
5137.000
 70
    32
  0
VERTEX
  8
T01SSILL
 62
3
 10
-367.805
 20
-222.385
 30
5137.000
 70
    32
  0
VERTEX
  8
T01SSILL
 62
3
 10
-362.193
 20
-219.516
 30
5137.000
 70
    32
  0
VERTEX
  8
T01SSILL
 62
3
 10
-368.194
 20
-208.470
 30
5137.000
 70
    32
  0
VERTEX
  8
T01SSILL
 62
3
 10
-362.582
 20
-205.601
 30
5137.000
 70
    32
  0
VERTEX
  8
T01SSILL
 62
3
 10
-365.093
 20
-200.602
 30
5137.000
 70
    32
  0
VERTEX
  8
T01SSILL
 62
3
 10
-350.220
 20
-193.081
 30
5137.000
 70
    32
  0
VERTEX
  8
T01SSILL
 62
3
 10
-366.894
 20
-196.214
 30
5137.000
 70
    32
  0
VERTEX
  8
T01SSILL
 62
3
 10
-373.824
 20
-160.248
 30
5137.000
 70
    32
  0
VERTEX
  8
T01SSILL
 62
3
 10
-380.069
 20
-161.361
 30
5137.000
 70
    32
  0
VERTEX
  8
T01SSILL
 62
3
 10
-383.750
 20
-143.776
 30
5137.000
 70
    32
  0
VERTEX
  8
T01SSILL
 62
3
 10
-389.378
 20
-144.883
 30
5137.000
 70
    32
  0
VERTEX
  8
T01SSILL
 62
3
 10
-391.512
 20
-132.922
 30
5137.000
 70
    32
  0
VERTEX
  8
T01SSILL
 62
3
 10
-397.225
 20
-134.295
 30
5137.000
 70
    32
  0
VERTEX
  8
T01SSILL
 62
3
 10
-399.360
 20
-122.246
 30
5137.000
 70
    32
  0
VERTEX
  8
T01SSILL
 62
3
 10
-405.167
 20
-123.003
 30
5137.000
 70
    32
  0
VERTEX
  8
T01SSILL
 62
3
 10
-407.385
 20
-111.395
 30
5137.000
 70
    32
  0
VERTEX
  8
T01SSILL
 62
3
 10
-413.895
 20
-112.422
 30
5137.000
 70
    32
  0
VERTEX
  8
T01SSILL
 62
3
 10
-415.849
 20
-100.812
 30
5137.000
 70
    32
  0
VERTEX
  8
T01SSILL
 62
3
 10
-421.830
 20
-101.835
 30
5137.000
 70
    32
  0
VERTEX
  8
T01SSILL
 62
3
 10
-423.877
 20
-89.697
 30
5137.000
 70
    32
  0
VERTEX
  8
T01SSILL
 62
3
 10
-418.247
 20
-88.853
 30
5137.000
 70
    32
  0
VERTEX
  8
T01SSILL
 62
3
 10
-418.918
 20
-82.781
 30
5137.000
 70
    32
  0
VERTEX
  8
T01SSILL
 62
3
 10
-395.788
 20
-78.521
 30
5137.000
 70
    32
  0
VERTEX
  8
T01SSILL
 62
3
 10
-394.416
 20
-84.235
 30
5137.000
 70
    32
  0
VERTEX
  8
T01SSILL
 62
3
 10
-376.741
 20
-80.728
 30
5137.000
 70
    32
  0
VERTEX
  8
T01SSILL
 62
3
 10
-379.980
 20
-63.404
 30
5137.000
 70
    32
  0
VERTEX
  8
T01SSILL
 62
3
 10
-362.180
 20
-64.037
 30
5137.000
 70
    32
  0
VERTEX
  8
T01SSILL
 62
3
 10
-360.439
 20
-71.509
 30
5137.000
 70
    32
  0
VERTEX
  8
T01SSILL
 62
3
 10
-366.065
 20
-72.792
 30
5137.000
 70
    32
  0
VERTEX
  8
T01SSILL
 62
3
 10
-343.592
 20
-191.600
 30
5137.000
 70
    32
  0
VERTEX
  8
T01SSILL
 62
3
 10
-348.428
 20
-192.613
 30
5137.000
 70
    32
  0
VERTEX
  8
T01SSILL
 62
3
 10
-308.154
 20
-272.941
 30
5137.000
 70
    32
  0
VERTEX
  8
T01SSILL
 62
3
 10
-261.592
 20
-298.157
 30
5137.000
 70
    32
  0
VERTEX
  8
T01SSILL
 62
3
 10
-194.394
 20
-286.630
 30
5137.000
 70
    32
  0
VERTEX
  8
T01SSILL
 62
3
 10
-194.509
 20
-273.858
 30
5137.000
 70
    32
  0
VERTEX
  8
T01SSILL
 62
3
 10
-190.460
 20
-273.558
 30
5137.000
 70
    32
  0
VERTEX
  8
T01SSILL
 62
3
 10
-187.938
 20
-279.701
 30
5137.000
 70
    32
  0
VERTEX
  8
T01SSILL
 62
3
 10
-184.376
 20
-283.986
 30
5137.000
 70
    32
  0
VERTEX
  8
T01SSILL
 62
3
 10
-179.797
 20
-283.768
 30
5137.000
 70
    32
  0
VERTEX
  8
T01SSILL
 62
3
 10
-172.095
 20
-278.238
 30
5137.000
 70
    32
  0
VERTEX
  8
T01SSILL
 62
3
 10
-162.424
 20
-266.347
 30
5137.000
 70
    32
  0
VERTEX
  8
T01SSILL
 62
3
 10
-122.988
 20
-243.529
 30
5137.000
 70
    32
  0
VERTEX
  8
T01SSILL
 62
3
 10
-141.366
 20
-208.018
 30
5137.000
 70
    32
  0
VERTEX
  8
T01SSILL
 62
3
 10
-136.382
 20
-203.833
 30
5137.000
 70
    32
  0
VERTEX
  8
T01SSILL
 62
3
 10
-53.804
 20
-364.913
 30
5137.000
 70
    32
  0
VERTEX
  8
T01SSILL
 62
3
 10
-31.455
 20
-381.625
 30
5137.000
 70
    32
  0
VERTEX
  8
T01SSILL
 62
3
 10
-22.284
 20
-353.266
 30
5137.000
 70
    32
  0
VERTEX
  8
T01SSILL
 62
3
 10
-16.023
 20
-354.002
 30
5137.000
 70
    32
  0
VERTEX
  8
T01SSILL
 62
3
 10
-26.636
 20
-388.541
 30
5137.000
 70
    32
  0
VERTEX
  8
T01SSILL
 62
3
 10
-15.422
 20
-420.857
 30
5137.000
 70
    32
  0
VERTEX
  8
T01SSILL
 62
3
 10
13.059
 20
-394.615
 30
5137.000
 70
    32
  0
VERTEX
  8
T01SSILL
 62
3
 10
18.028
 20
-398.622
 30
5137.000
 70
    32
  0
VERTEX
  8
T01SSILL
 62
3
 10
-13.158
 20
-427.796
 30
5137.000
 70
    32
  0
VERTEX
  8
T01SSILL
 62
3
 10
-8.337
 20
-444.666
 30
5137.000
 70
    32
  0
VERTEX
  8
T01SSILL
 62
3
 10
61.625
 20
-505.525
 30
5137.000
 70
    32
  0
VERTEX
  8
T01SSILL
 62
3
 10
75.785
 20
-493.241
 30
5137.000
 70
    32
  0
VERTEX
  8
T01SSILL
 62
3
 10
104.040
 20
-471.229
 30
5137.000
 70
    32
  0
VERTEX
  8
T01SSILL
 62
3
 10
107.514
 20
-475.426
 30
5137.000
 70
    32
  0
VERTEX
  8
T01SSILL
 62
3
 10
136.026
 20
-452.619
 30
5137.000
 70
    32
  0
VERTEX
  8
T01SSILL
 62
3
 10
158.744
 20
-481.044
 30
5137.000
 70
    32
  0
VERTEX
  8
T01SSILL
 62
3
 10
205.706
 20
-442.919
 30
5137.000
 70
    32
  0
VERTEX
  8
T01SSILL
 62
3
 10
212.828
 20
-451.224
 30
5137.000
 70
    32
  0
VERTEX
  8
T01SSILL
 62
3
 10
207.582
 20
-455.587
 30
5137.000
 70
    32
  0
VERTEX
  8
T01SSILL
 62
3
 10
214.072
 20
-462.224
 30
5137.000
 70
    32
  0
VERTEX
  8
T01SSILL
 62
3
 10
261.342
 20
-517.208
 30
5137.000
 70
    32
  0
VERTEX
  8
T01SSILL
 62
3
 10
259.884
 20
-550.959
 30
5137.000
 70
    32
  0
VERTEX
  8
T01SSILL
 62
3
 10
296.490
 20
-576.001
 30
5137.000
 70
    32
  0
VERTEX
  8
T01SSILL
 62
3
 10
312.542
 20
-597.791
 30
5137.000
 70
    32
  0
VERTEX
  8
T01SSILL
 62
3
 10
364.917
 20
-603.310
 30
5137.000
 70
    32
  0
VERTEX
  8
T01SSILL
 62
3
 10
368.101
 20
-604.691
 30
5137.000
 70
    32
  0
VERTEX
  8
T01SSILL
 62
3
 10
393.959
 20
-619.786
 30
5137.000
 70
    32
  0
VERTEX
  8
T01SSILL
 62
3
 10
400.478
 20
-619.904
 30
5137.000
 70
    32
  0
VERTEX
  8
T01SSILL
 62
3
 10
543.550
 20
-464.549
 30
5137.000
 70
    32
  0
VERTEX
  8
T01SSILL
 62
3
 10
553.324
 20
-454.243
 30
5137.000
 70
    32
  0
VERTEX
  8
T01SSILL
 62
3
 10
555.912
 20
-448.141
 30
5137.000
 70
    32
  0
VERTEX
  8
T01SSILL
 62
3
 10
542.155
 20
-426.859
 30
5137.000
 70
    32
  0
VERTEX
  8
T01SSILL
 62
3
 10
546.796
 20
-423.822
 30
5137.000
 70
    32
  0
VERTEX
  8
T01SSILL
 62
3
 10
543.491
 20
-418.742
 30
5137.000
 70
    32
  0
VERTEX
  8
T01SSILL
 62
3
 10
573.002
 20
-399.186
 30
5137.000
 70
    32
  0
VERTEX
  8
T01SSILL
 62
3
 10
576.481
 20
-404.087
 30
5137.000
 70
    32
  0
VERTEX
  8
T01SSILL
 62
3
 10
586.198
 20
-397.305
 30
5137.000
 70
    32
  0
VERTEX
  8
T01SSILL
 62
3
 10
589.238
 20
-402.299
 30
5137.000
 70
    32
  0
VERTEX
  8
T01SSILL
 62
3
 10
594.406
 20
-398.993
 30
5137.000
 70
    32
  0
VERTEX
  8
T01SSILL
 62
3
 10
597.450
 20
-404.427
 30
5137.000
 70
    32
  0
VERTEX
  8
T01SSILL
 62
3
 10
603.064
 20
-401.734
 30
5137.000
 70
    32
  0
VERTEX
  8
T01SSILL
 62
3
 10
608.332
 20
-409.615
 30
5137.000
 70
    32
  0
VERTEX
  8
T01SSILL
 62
3
 10
611.334
 20
-410.469
 30
5137.000
 70
    32
  0
VERTEX
  8
T01SSILL
 62
3
 10
621.663
 20
-403.153
 30
5137.000
 70
    32
  0
VERTEX
  8
T01SSILL
 62
3
 10
617.827
 20
-397.726
 30
5137.000
 70
    32
  0
VERTEX
  8
T01SSILL
 62
3
 10
642.342
 20
-381.033
 30
5137.000
 70
    32
  0
VERTEX
  8
T01SSILL
 62
3
 10
648.770
 20
-390.577
 30
5137.000
 70
    32
  0
VERTEX
  8
T01SSILL
 62
3
 10
654.201
 20
-387.180
 30
5137.000
 70
    32
  0
VERTEX
  8
T01SSILL
 62
3
 10
661.511
 20
-396.805
 30
5137.000
 70
    32
  0
VERTEX
  8
T01SSILL
 62
3
 10
656.345
 20
-400.287
 30
5137.000
 70
    32
  0
VERTEX
  8
T01SSILL
 62
3
 10
659.829
 20
-405.717
 30
5137.000
 70
    32
  0
VERTEX
  8
T01SSILL
 62
3
 10
635.317
 20
-422.762
 30
5137.000
 70
    32
  0
VERTEX
  8
T01SSILL
 62
3
 10
625.317
 20
-407.789
 30
5137.000
 70
    32
  0
VERTEX
  8
T01SSILL
 62
3
 10
615.508
 20
-414.219
 30
5137.000
 70
    32
  0
VERTEX
  8
T01SSILL
 62
3
 10
613.418
 20
-416.881
 30
5137.000
 70
    32
  0
VERTEX
  8
T01SSILL
 62
3
 10
632.979
 20
-446.832
 30
5137.000
 70
    32
  0
VERTEX
  8
T01SSILL
 62
3
 10
627.897
 20
-449.873
 30
5137.000
 70
    32
  0
VERTEX
  8
T01SSILL
 62
3
 10
634.860
 20
-460.117
 30
5137.000
 70
    32
  0
VERTEX
  8
T01SSILL
 62
3
 10
629.512
 20
-462.984
 30
5137.000
 70
    32
  0
VERTEX
  8
T01SSILL
 62
3
 10
632.375
 20
-467.803
 30
5137.000
 70
    32
  0
VERTEX
  8
T01SSILL
 62
3
 10
617.311
 20
-477.540
 30
5137.000
 70
    32
  0
VERTEX
  8
T01SSILL
 62
3
 10
620.616
 20
-482.708
 30
5137.000
 70
    32
  0
VERTEX
  8
T01SSILL
 62
3
 10
616.857
 20
-485.913
 30
5137.000
 70
    32
  0
VERTEX
  8
T01SSILL
 62
3
 10
643.563
 20
-526.723
 30
5137.000
 70
    32
  0
VERTEX
  8
T01SSILL
 62
3
 10
638.393
 20
-529.764
 30
5137.000
 70
    32
  0
VERTEX
  8
T01SSILL
 62
3
 10
611.074
 20
-489.312
 30
5137.000
 70
    32
  0
VERTEX
  8
T01SSILL
 62
3
 10
600.382
 20
-495.486
 30
5137.000
 70
    32
  0
VERTEX
  8
T01SSILL
 62
3
 10
584.389
 20
-470.436
 30
5137.000
 70
    32
  0
VERTEX
  8
T01SSILL
 62
3
 10
579.750
 20
-473.737
 30
5137.000
 70
    32
  0
VERTEX
  8
T01SSILL
 62
3
 10
570.470
 20
-460.519
 30
5137.000
 70
    32
  0
VERTEX
  8
T01SSILL
 62
3
 10
562.173
 20
-458.656
 30
5137.000
 70
    32
  0
VERTEX
  8
T01SSILL
 62
3
 10
558.379
 20
-458.073
 30
5137.000
 70
    32
  0
VERTEX
  8
T01SSILL
 62
3
 10
412.332
 20
-615.569
 30
5137.000
 70
    32
  0
VERTEX
  8
T01SSILL
 62
3
 10
411.612
 20
-623.680
 30
5137.000
 70
    32
  0
VERTEX
  8
T01SSILL
 62
3
 10
561.737
 20
-1007.796
 30
5137.000
 70
    32
  0
VERTEX
  8
T01SSILL
 62
3
 10
623.351
 20
-1050.130
 30
5137.000
 70
    32
  0
VERTEX
  8
T01SSILL
 62
3
 10
751.323
 20
-1007.674
 30
5137.000
 70
    32
  0
VERTEX
  8
T01SSILL
 62
3
 10
879.383
 20
-965.746
 30
5137.000
 70
    32
  0
VERTEX
  8
T01SSILL
 62
3
 10
881.491
 20
-958.180
 30
5137.000
 70
    32
  0
VERTEX
  8
T01SSILL
 62
3
 10
892.133
 20
-953.425
 30
5137.000
 70
    32
  0
VERTEX
  8
T01SSILL
 62
3
 10
914.124
 20
-951.744
 30
5137.000
 70
    32
  0
VERTEX
  8
T01SSILL
 62
3
 10
932.686
 20
-954.023
 30
5137.000
 70
    32
  0
VERTEX
  8
T01SSILL
 62
3
 10
944.298
 20
-956.921
 30
5137.000
 70
    32
  0
VERTEX
  8
T01SSILL
 62
3
 10
954.506
 20
-964.658
 30
5137.000
 70
    32
  0
VERTEX
  8
T01SSILL
 62
3
 10
958.997
 20
-974.508
 30
5137.000
 70
    32
  0
VERTEX
  8
T01SSILL
 62
3
 10
960.501
 20
-995.971
 30
5137.000
 70
    32
  0
VERTEX
  8
T01SSILL
 62
3
 10
961.036
 20
-1010.397
 30
5137.000
 70
    32
  0
VERTEX
  8
T01SSILL
 62
3
 10
962.552
 20
-1058.074
 30
5137.000
 70
    32
  0
VERTEX
  8
T01SSILL
 62
3
 10
967.655
 20
-1060.623
 30
5137.000
 70
    32
  0
VERTEX
  8
T01SSILL
 62
3
 10
974.164
 20
-1058.773
 30
5137.000
 70
    32
  0
VERTEX
  8
T01SSILL
 62
3
 10
1014.712
 20
-1049.079
 30
5137.000
 70
    32
  0
VERTEX
  8
T01SSILL
 62
3
 10
1011.019
 20
-1053.567
 30
5137.000
 70
    32
  0
VERTEX
  8
T01SSILL
 62
3
 10
1022.898
 20
-1060.071
 30
5137.000
 70
    32
  0
VERTEX
  8
T01SSILL
 62
3
 10
1024.743
 20
-1055.936
 30
5137.000
 70
    32
  0
VERTEX
  8
T01SSILL
 62
3
 10
1033.717
 20
-1058.395
 30
5137.000
 70
    32
  0
VERTEX
  8
T01SSILL
 62
3
 10
1034.953
 20
-1068.510
 30
5137.000
 70
    32
  0
VERTEX
  8
T01SSILL
 62
3
 10
1115.311
 20
-1082.650
 30
5137.000
 70
    32
  0
VERTEX
  8
T01SSILL
 62
3
 10
1121.710
 20
-1078.435
 30
5132.000
 70
    32
  0
VERTEX
  8
T01SSILL
 62
3
 10
1171.073
 20
-1049.351
 30
5133.000
 70
    32
  0
VERTEX
  8
T01SSILL
 62
3
 10
1264.230
 20
-1081.240
 30
5133.000
 70
    32
  0
VERTEX
  8
T01SSILL
 62
3
 10
1421.222
 20
-1135.443
 30
5132.000
 70
    32
  0
VERTEX
  8
T01SSILL
 62
3
 10
1669.698
 20
-1221.623
 30
5132.000
 70
    32
  0
VERTEX
  8
T01SSILL
 62
3
 10
1696.875
 20
-1312.625
 30
5132.000
 70
    32
  0
VERTEX
  8
T01SSILL
 62
3
 10
1714.389
 20
-1307.507
 30
5132.000
 70
    32
  0
VERTEX
  8
T01SSILL
 62
3
 10
1716.067
 20
-1314.989
 30
5132.000
 70
    32
  0
VERTEX
  8
T01SSILL
 62
3
 10
1699.785
 20
-1319.666
 30
5132.000
 70
    32
  0
VERTEX
  8
T01SSILL
 62
3
 10
1713.636
 20
-1362.790
 30
5132.000
 70
    32
  0
VERTEX
  8
T01SSILL
 62
3
 10
1714.681
 20
-1472.208
 30
5132.000
 70
    32
  0
VERTEX
  8
T01SSILL
 62
3
 10
1715.784
 20
-1538.580
 30
5132.000
 70
    32
  0
VERTEX
  8
T01SSILL
 62
3
 10
1723.551
 20
-1567.272
 30
5132.000
 70
    32
  0
VERTEX
  8
T01SSILL
 62
3
 10
1716.247
 20
-1570.446
 30
5132.000
 70
    32
  0
VERTEX
  8
T01SSILL
 62
3
 10
1708.127
 20
-1539.730
 30
5132.000
 70
    32
  0
VERTEX
  8
T01SSILL
 62
3
 10
1707.023
 20
-1473.270
 30
5132.000
 70
    32
  0
VERTEX
  8
T01SSILL
 62
3
 10
1705.364
 20
-1366.669
 30
5132.000
 70
    32
  0
VERTEX
  8
T01SSILL
 62
3
 10
1664.954
 20
-1234.127
 30
5132.000
 70
    32
  0
VERTEX
  8
T01SSILL
 62
3
 10
1662.837
 20
-1229.023
 30
5132.000
 70
    32
  0
VERTEX
  8
T01SSILL
 62
3
 10
1661.163
 20
-1226.119
 30
5132.000
 70
    32
  0
VERTEX
  8
T01SSILL
 62
3
 10
1544.849
 20
-1185.884
 30
5132.000
 70
    32
  0
VERTEX
  8
T01SSILL
 62
3
 10
1281.757
 20
-1095.312
 30
5133.000
 70
    32
  0
VERTEX
  8
T01SSILL
 62
3
 10
1172.576
 20
-1058.505
 30
5133.000
 70
    32
  0
VERTEX
  8
T01SSILL
 62
3
 10
1126.981
 20
-1085.477
 30
5133.000
 70
    32
  0
VERTEX
  8
T01SSILL
 62
3
 10
1156.889
 20
-1103.819
 30
5137.000
 70
    32
  0
VERTEX
  8
T01SSILL
 62
3
 10
1152.845
 20
-1109.099
 30
5137.000
 70
    32
  0
VERTEX
  8
T01SSILL
 62
3
 10
1124.776
 20
-1091.166
 30
5137.000
 70
    32
  0
VERTEX
  8
T01SSILL
 62
3
 10
1035.219
 20
-1075.020
 30
5137.000
 70
    32
  0
VERTEX
  8
T01SSILL
 62
3
 10
1031.086
 20
-1078.012
 30
5137.000
 70
    32
  0
VERTEX
  8
T01SSILL
 62
3
 10
1029.065
 20
-1083.203
 30
5137.000
 70
    32
  0
VERTEX
  8
T01SSILL
 62
3
 10
1019.649
 20
-1072.915
 30
5137.000
 70
    32
  0
VERTEX
  8
T01SSILL
 62
3
 10
1021.142
 20
-1067.637
 30
5137.000
 70
    32
  0
VERTEX
  8
T01SSILL
 62
3
 10
1010.319
 20
-1060.780
 30
5137.000
 70
    32
  0
VERTEX
  8
T01SSILL
 62
3
 10
1010.498
 20
-1067.465
 30
5137.000
 70
    32
  0
VERTEX
  8
T01SSILL
 62
3
 10
954.557
 20
-1080.157
 30
5137.000
 70
    32
  0
VERTEX
  8
T01SSILL
 62
3
 10
942.680
 20
-1077.875
 30
5137.000
 70
    32
  0
VERTEX
  8
T01SSILL
 62
3
 10
948.219
 20
-1071.803
 30
5137.000
 70
    32
  0
VERTEX
  8
T01SSILL
 62
3
 10
951.297
 20
-1068.547
 30
5137.000
 70
    32
  0
VERTEX
  8
T01SSILL
 62
3
 10
951.823
 20
-1064.237
 30
5137.000
 70
    32
  0
VERTEX
  8
T01SSILL
 62
3
 10
953.826
 20
-1019.285
 30
5137.000
 70
    32
  0
VERTEX
  8
T01SSILL
 62
3
 10
954.612
 20
-1004.946
 30
5137.000
 70
    32
  0
VERTEX
  8
T01SSILL
 62
3
 10
937.368
 20
-999.236
 30
5137.000
 70
    32
  0
VERTEX
  8
T01SSILL
 62
3
 10
928.484
 20
-1001.175
 30
5137.000
 70
    32
  0
VERTEX
  8
T01SSILL
 62
3
 10
923.556
 20
-995.811
 30
5137.000
 70
    32
  0
VERTEX
  8
T01SSILL
 62
3
 10
912.730
 20
-983.853
 30
5137.000
 70
    32
  0
VERTEX
  8
T01SSILL
 62
3
 10
897.241
 20
-966.530
 30
5137.000
 70
    32
  0
VERTEX
  8
T01SSILL
 62
3
 10
621.067
 20
-1057.697
 30
5137.000
 70
    32
  0
VERTEX
  8
T01SSILL
 62
3
 10
593.894
 20
-1076.709
 30
5137.000
 70
    32
  0
VERTEX
  8
T01SSILL
 62
3
 10
595.661
 20
-1094.302
 30
5137.000
 70
    32
  0
VERTEX
  8
T01SSILL
 62
3
 10
599.976
 20
-1104.768
 30
5137.000
 70
    32
  0
VERTEX
  8
T01SSILL
 62
3
 10
617.224
 20
-1120.066
 30
5137.000
 70
    32
  0
VERTEX
  8
T01SSILL
 62
3
 10
620.746
 20
-1127.014
 30
5137.000
 70
    32
  0
VERTEX
  8
T01SSILL
 62
3
 10
635.629
 20
-1166.240
 30
5137.000
 70
    32
  0
VERTEX
  8
T01SSILL
 62
3
 10
641.170
 20
-1164.039
 30
5137.000
 70
    32
  0
VERTEX
  8
T01SSILL
 62
3
 10
643.636
 20
-1169.844
 30
5137.000
 70
    32
  0
VERTEX
  8
T01SSILL
 62
3
 10
649.440
 20
-1167.554
 30
5137.000
 70
    32
  0
VERTEX
  8
T01SSILL
 62
3
 10
670.753
 20
-1223.227
 30
5137.000
 70
    32
  0
VERTEX
  8
T01SSILL
 62
3
 10
664.860
 20
-1225.253
 30
5137.000
 70
    32
  0
VERTEX
  8
T01SSILL
 62
3
 10
673.490
 20
-1247.681
 30
5137.000
 70
    32
  0
VERTEX
  8
T01SSILL
 62
3
 10
668.037
 20
-1249.794
 30
5137.000
 70
    32
  0
VERTEX
  8
T01SSILL
 62
3
 10
670.239
 20
-1255.071
 30
5137.000
 70
    32
  0
VERTEX
  8
T01SSILL
 62
3
 10
664.610
 20
-1256.921
 30
5137.000
 70
    32
  0
VERTEX
  8
T01SSILL
 62
3
 10
671.127
 20
-1274.247
 30
5137.000
 70
    32
  0
VERTEX
  8
T01SSILL
 62
3
 10
654.592
 20
-1280.588
 30
5137.000
 70
    32
  0
VERTEX
  8
T01SSILL
 62
3
 10
652.391
 20
-1275.487
 30
5137.000
 70
    32
  0
VERTEX
  8
T01SSILL
 62
3
 10
657.668
 20
-1273.462
 30
5137.000
 70
    32
  0
VERTEX
  8
T01SSILL
 62
3
 10
645.251
 20
-1241.623
 30
5137.000
 70
    32
  0
VERTEX
  8
T01SSILL
 62
3
 10
641.205
 20
-1243.648
 30
5137.000
 70
    32
  0
VERTEX
  8
T01SSILL
 62
3
 10
639.014
 20
-1262.650
 30
5137.000
 70
    32
  0
VERTEX
  8
T01SSILL
 62
3
 10
640.249
 20
-1269.423
 30
5137.000
 70
    32
  0
VERTEX
  8
T01SSILL
 62
3
 10
665.782
 20
-1321.136
 30
5137.000
 70
    32
  0
VERTEX
  8
T01SSILL
 62
3
 10
672.204
 20
-1322.804
 30
5137.000
 70
    32
  0
VERTEX
  8
T01SSILL
 62
3
 10
702.546
 20
-1309.684
 30
5137.000
 70
    32
  0
VERTEX
  8
T01SSILL
 62
3
 10
706.943
 20
-1305.548
 30
5137.000
 70
    32
  0
VERTEX
  8
T01SSILL
 62
3
 10
695.664
 20
-1262.097
 30
5137.000
 70
    32
  0
VERTEX
  8
T01SSILL
 62
3
 10
712.816
 20
-1257.691
 30
5137.000
 70
    32
  0
VERTEX
  8
T01SSILL
 62
3
 10
703.388
 20
-1223.213
 30
5137.000
 70
    32
  0
VERTEX
  8
T01SSILL
 62
3
 10
699.071
 20
-1208.172
 30
5137.000
 70
    32
  0
VERTEX
  8
T01SSILL
 62
3
 10
680.940
 20
-1184.781
 30
5137.000
 70
    32
  0
VERTEX
  8
T01SSILL
 62
3
 10
681.379
 20
-1182.934
 30
5137.000
 70
    32
  0
VERTEX
  8
T01SSILL
 62
3
 10
694.040
 20
-1169.733
 30
5137.000
 70
    32
  0
VERTEX
  8
T01SSILL
 62
3
 10
698.000
 20
-1173.074
 30
5137.000
 70
    32
  0
VERTEX
  8
T01SSILL
 62
3
 10
688.768
 20
-1182.051
 30
5137.000
 70
    32
  0
VERTEX
  8
T01SSILL
 62
3
 10
688.505
 20
-1185.042
 30
5137.000
 70
    32
  0
VERTEX
  8
T01SSILL
 62
3
 10
701.003
 20
-1200.343
 30
5137.000
 70
    32
  0
VERTEX
  8
T01SSILL
 62
3
 10
704.788
 20
-1205.795
 30
5137.000
 70
    32
  0
VERTEX
  8
T01SSILL
 62
3
 10
708.929
 20
-1220.571
 30
5137.000
 70
    32
  0
VERTEX
  8
T01SSILL
 62
3
 10
712.189
 20
-1232.885
 30
5137.000
 70
    32
  0
VERTEX
  8
T01SSILL
 62
3
 10
722.303
 20
-1228.834
 30
5137.000
 70
    32
  0
VERTEX
  8
T01SSILL
 62
3
 10
751.681
 20
-1220.904
 30
5137.000
 70
    32
  0
VERTEX
  8
T01SSILL
 62
3
 10
752.826
 20
-1224.950
 30
5137.000
 70
    32
  0
VERTEX
  8
T01SSILL
 62
3
 10
728.286
 20
-1231.647
 30
5137.000
 70
    32
  0
VERTEX
  8
T01SSILL
 62
3
 10
724.769
 20
-1233.935
 30
5137.000
 70
    32
  0
VERTEX
  8
T01SSILL
 62
3
 10
746.178
 20
-1310.456
 30
5137.000
 70
    32
  0
VERTEX
  8
T01SSILL
 62
3
 10
752.247
 20
-1309.046
 30
5137.000
 70
    32
  0
VERTEX
  8
T01SSILL
 62
3
 10
763.261
 20
-1349.682
 30
5137.000
 70
    32
  0
VERTEX
  8
T01SSILL
 62
3
 10
751.827
 20
-1352.854
 30
5137.000
 70
    32
  0
VERTEX
  8
T01SSILL
 62
3
 10
755.087
 20
-1364.904
 30
5137.000
 70
    32
  0
VERTEX
  8
T01SSILL
 62
3
 10
760.540
 20
-1362.878
 30
5137.000
 70
    32
  0
VERTEX
  8
T01SSILL
 62
3
 10
778.249
 20
-1425.942
 30
5137.000
 70
    32
  0
VERTEX
  8
T01SSILL
 62
3
 10
742.538
 20
-1435.458
 30
5137.000
 70
    32
  0
VERTEX
  8
T01SSILL
 62
3
 10
730.379
 20
-1389.281
 30
5137.000
 70
    32
  0
VERTEX
  8
T01SSILL
 62
3
 10
724.925
 20
-1390.251
 30
5137.000
 70
    32
  0
VERTEX
  8
T01SSILL
 62
3
 10
723.340
 20
-1384.710
 30
5137.000
 70
    32
  0
VERTEX
  8
T01SSILL
 62
3
 10
716.831
 20
-1386.032
 30
5137.000
 70
    32
  0
VERTEX
  8
T01SSILL
 62
3
 10
716.125
 20
-1382.866
 30
5137.000
 70
    32
  0
VERTEX
  8
T01SSILL
 62
3
 10
713.046
 20
-1382.251
 30
5137.000
 70
    32
  0
VERTEX
  8
T01SSILL
 62
3
 10
649.981
 20
-1396.530
 30
5137.000
 70
    32
  0
VERTEX
  8
T01SSILL
 62
3
 10
644.177
 20
-1400.579
 30
5137.000
 70
    32
  0
VERTEX
  8
T01SSILL
 62
3
 10
650.780
 20
-1414.211
 30
5137.000
 70
    32
  0
VERTEX
  8
T01SSILL
 62
3
 10
644.624
 20
-1417.116
 30
5137.000
 70
    32
  0
VERTEX
  8
T01SSILL
 62
3
 10
659.768
 20
-1449.041
 30
5137.000
 70
    32
  0
VERTEX
  8
T01SSILL
 62
3
 10
662.760
 20
-1451.591
 30
5137.000
 70
    32
  0
VERTEX
  8
T01SSILL
 62
3
 10
679.215
 20
-1462.228
 30
5137.000
 70
    32
  0
VERTEX
  8
T01SSILL
 62
3
 10
853.941
 20
-1521.088
 30
5137.000
 70
    32
  0
VERTEX
  8
T01SSILL
 62
3
 10
859.922
 20
-1519.150
 30
5137.000
 70
    32
  0
VERTEX
  8
T01SSILL
 62
3
 10
890.593
 20
-1452.810
 30
5137.000
 70
    32
  0
VERTEX
  8
T01SSILL
 62
3
 10
929.290
 20
-1433.001
 30
5137.000
 70
    32
  0
VERTEX
  8
T01SSILL
 62
3
 10
986.445
 20
-1382.043
 30
5137.000
 70
    32
  0
VERTEX
  8
T01SSILL
 62
3
 10
989.258
 20
-1376.412
 30
5137.000
 70
    32
  0
VERTEX
  8
T01SSILL
 62
3
 10
985.383
 20
-1367.265
 30
5137.000
 70
    32
  0
VERTEX
  8
T01SSILL
 62
3
 10
991.012
 20
-1365.240
 30
5137.000
 70
    32
  0
VERTEX
  8
T01SSILL
 62
3
 10
984.056
 20
-1348.881
 30
5137.000
 70
    32
  0
VERTEX
  8
T01SSILL
 62
3
 10
1011.056
 20
-1337.346
 30
5137.000
 70
    32
  0
VERTEX
  8
T01SSILL
 62
3
 10
1013.610
 20
-1343.238
 30
5137.000
 70
    32
  0
VERTEX
  8
T01SSILL
 62
3
 10
1019.854
 20
-1340.684
 30
5137.000
 70
    32
  0
VERTEX
  8
T01SSILL
 62
3
 10
1033.416
 20
-1373.666
 30
5137.000
 70
    32
  0
VERTEX
  8
T01SSILL
 62
3
 10
1028.139
 20
-1376.131
 30
5137.000
 70
    32
  0
VERTEX
  8
T01SSILL
 62
3
 10
1034.655
 20
-1392.578
 30
5137.000
 70
    32
  0
VERTEX
  8
T01SSILL
 62
3
 10
1012.228
 20
-1402.000
 30
5137.000
 70
    32
  0
VERTEX
  8
T01SSILL
 62
3
 10
1009.939
 20
-1396.195
 30
5137.000
 70
    32
  0
VERTEX
  8
T01SSILL
 62
3
 10
1004.925
 20
-1398.133
 30
5137.000
 70
    32
  0
VERTEX
  8
T01SSILL
 62
3
 10
1000.610
 20
-1387.579
 30
5137.000
 70
    32
  0
VERTEX
  8
T01SSILL
 62
3
 10
994.453
 20
-1389.253
 30
5137.000
 70
    32
  0
VERTEX
  8
T01SSILL
 62
3
 10
988.998
 20
-1386.001
 30
5137.000
 70
    32
  0
VERTEX
  8
T01SSILL
 62
3
 10
932.986
 20
-1436.518
 30
5137.000
 70
    32
  0
VERTEX
  8
T01SSILL
 62
3
 10
898.775
 20
-1455.798
 30
5137.000
 70
    32
  0
VERTEX
  8
T01SSILL
 62
3
 10
866.784
 20
-1519.323
 30
5137.000
 70
    32
  0
VERTEX
  8
T01SSILL
 62
3
 10
867.578
 20
-1524.865
 30
5137.000
 70
    32
  0
VERTEX
  8
T01SSILL
 62
3
 10
1051.632
 20
-1590.582
 30
5137.000
 70
    32
  0
VERTEX
  8
T01SSILL
 62
3
 10
1081.017
 20
-1601.213
 30
5137.000
 70
    32
  0
VERTEX
  8
T01SSILL
 62
3
 10
1073.632
 20
-1609.310
 30
5137.000
 70
    32
  0
VERTEX
  8
T01SSILL
 62
3
 10
1061.489
 20
-1601.310
 30
5137.000
 70
    32
  0
VERTEX
  8
T01SSILL
 62
3
 10
681.241
 20
-1469.792
 30
5137.000
 70
    32
  0
VERTEX
  8
T01SSILL
 62
3
 10
667.606
 20
-1469.182
 30
5137.000
 70
    32
  0
VERTEX
  8
T01SSILL
 62
3
 10
677.860
 20
-1583.094
 30
5137.000
 70
    32
  0
VERTEX
  8
T01SSILL
 62
3
 10
676.111
 20
-1606.142
 30
5137.000
 70
    32
  0
VERTEX
  8
T01SSILL
 62
3
 10
670.746
 20
-1608.255
 30
5137.000
 70
    32
  0
VERTEX
  8
T01SSILL
 62
3
 10
642.771
 20
-1605.013
 30
5137.000
 70
    32
  0
VERTEX
  8
T01SSILL
 62
3
 10
643.648
 20
-1598.767
 30
5137.000
 70
    32
  0
VERTEX
  8
T01SSILL
 62
3
 10
665.465
 20
-1601.132
 30
5137.000
 70
    32
  0
VERTEX
  8
T01SSILL
 62
3
 10
669.863
 20
-1599.635
 30
5137.000
 70
    32
  0
VERTEX
  8
T01SSILL
 62
3
 10
671.792
 20
-1585.823
 30
5137.000
 70
    32
  0
VERTEX
  8
T01SSILL
 62
3
 10
660.832
 20
-1468.657
 30
5137.000
 70
    32
  0
VERTEX
  8
T01SSILL
 62
3
 10
642.709
 20
-1463.827
 30
5137.000
 70
    32
  0
VERTEX
  8
T01SSILL
 62
3
 10
634.002
 20
-1467.965
 30
5137.000
 70
    32
  0
VERTEX
  8
T01SSILL
 62
3
 10
621.587
 20
-1441.141
 30
5137.000
 70
    32
  0
VERTEX
  8
T01SSILL
 62
3
 10
627.744
 20
-1438.499
 30
5137.000
 70
    32
  0
VERTEX
  8
T01SSILL
 62
3
 10
622.549
 20
-1427.506
 30
5137.000
 70
    32
  0
VERTEX
  8
T01SSILL
 62
3
 10
628.178
 20
-1425.040
 30
5137.000
 70
    32
  0
VERTEX
  8
T01SSILL
 62
3
 10
620.518
 20
-1408.770
 30
5137.000
 70
    32
  0
VERTEX
  8
T01SSILL
 62
3
 10
626.234
 20
-1405.865
 30
5137.000
 70
    32
  0
VERTEX
  8
T01SSILL
 62
3
 10
606.071
 20
-1363.738
 30
5137.000
 70
    32
  0
VERTEX
  8
T01SSILL
 62
3
 10
591.037
 20
-1381.338
 30
5137.000
 70
    32
  0
VERTEX
  8
T01SSILL
 62
3
 10
573.977
 20
-1394.100
 30
5137.000
 70
    32
  0
VERTEX
  8
T01SSILL
 62
3
 10
566.504
 20
-1403.692
 30
5137.000
 70
    32
  0
VERTEX
  8
T01SSILL
 62
3
 10
568.179
 20
-1411.960
 30
5137.000
 70
    32
  0
VERTEX
  8
T01SSILL
 62
3
 10
577.692
 20
-1439.665
 30
5137.000
 70
    32
  0
VERTEX
  8
T01SSILL
 62
3
 10
580.949
 20
-1444.766
 30
5137.000
 70
    32
  0
VERTEX
  8
T01SSILL
 62
3
 10
557.205
 20
-1461.490
 30
5137.000
 70
    32
  0
VERTEX
  8
T01SSILL
 62
3
 10
543.386
 20
-1441.615
 30
5137.000
 70
    32
  0
VERTEX
  8
T01SSILL
 62
3
 10
538.021
 20
-1445.224
 30
5137.000
 70
    32
  0
VERTEX
  8
T01SSILL
 62
3
 10
531.859
 20
-1435.639
 30
5137.000
 70
    32
  0
VERTEX
  8
T01SSILL
 62
3
 10
516.910
 20
-1446.113
 30
5137.000
 70
    32
  0
VERTEX
  8
T01SSILL
 62
3
 10
513.477
 20
-1441.013
 30
5137.000
 70
    32
  0
VERTEX
  8
T01SSILL
 62
3
 10
508.552
 20
-1444.094
 30
5137.000
 70
    32
  0
VERTEX
  8
T01SSILL
 62
3
 10
505.296
 20
-1440.313
 30
5137.000
 70
    32
  0
VERTEX
  8
T01SSILL
 62
3
 10
496.677
 20
-1445.242
 30
5137.000
 70
    32
  0
VERTEX
  8
T01SSILL
 62
3
 10
484.207
 20
-1492.750
 30
5137.000
 70
    32
  0
VERTEX
  8
T01SSILL
 62
3
 10
477.613
 20
-1501.725
 30
5137.000
 70
    32
  0
VERTEX
  8
T01SSILL
 62
3
 10
419.561
 20
-1514.946
 30
5137.000
 70
    32
  0
VERTEX
  8
T01SSILL
 62
3
 10
171.667
 20
-1703.214
 30
5137.000
 70
    32
  0
VERTEX
  8
T01SSILL
 62
3
 10
170.614
 20
-1707.437
 30
5137.000
 70
    32
  0
SEQEND
  8
T01SSILL
  0
POLYLINE
  8
T01SSILL
 62
3
 66
     1
 70
     9
  0
VERTEX
  8
T01SSILL
 62
3
 10
-1220.589
 20
1382.640
 30
5137.000
 70
    32
  0
VERTEX
  8
T01SSILL
 62
3
 10
-1224.085
 20
1390.131
 30
5137.000
 70
    32
  0
VERTEX
  8
T01SSILL
 62
3
 10
-1226.355
 20
1397.910
 30
5137.000
 70
    32
  0
VERTEX
  8
T01SSILL
 62
3
 10
-1236.366
 20
1414.324
 30
5137.000
 70
    32
  0
VERTEX
  8
T01SSILL
 62
3
 10
-1267.081
 20
1449.745
 30
5137.000
 70
    32
  0
VERTEX
  8
T01SSILL
 62
3
 10
-1285.370
 20
1466.780
 30
5137.000
 70
    32
  0
VERTEX
  8
T01SSILL
 62
3
 10
-1289.039
 20
1469.870
 30
5137.000
 70
    32
  0
VERTEX
  8
T01SSILL
 62
3
 10
-1293.229
 20
1476.907
 30
5137.000
 70
    32
  0
VERTEX
  8
T01SSILL
 62
3
 10
-1315.736
 20
1510.914
 30
5137.000
 70
    32
  0
VERTEX
  8
T01SSILL
 62
3
 10
-1313.960
 20
1518.601
 30
5137.000
 70
    32
  0
VERTEX
  8
T01SSILL
 62
3
 10
-1329.753
 20
1508.340
 30
5137.000
 70
    32
  0
VERTEX
  8
T01SSILL
 62
3
 10
-1323.866
 20
1508.549
 30
5137.000
 70
    32
  0
VERTEX
  8
T01SSILL
 62
3
 10
-1320.683
 20
1507.735
 30
5137.000
 70
    32
  0
VERTEX
  8
T01SSILL
 62
3
 10
-1309.155
 20
1490.209
 30
5137.000
 70
    32
  0
VERTEX
  8
T01SSILL
 62
3
 10
-1310.890
 20
1484.809
 30
5137.000
 70
    32
  0
VERTEX
  8
T01SSILL
 62
3
 10
-1320.645
 20
1480.212
 30
5137.000
 70
    32
  0
VERTEX
  8
T01SSILL
 62
3
 10
-1331.897
 20
1475.759
 30
5137.000
 70
    32
  0
VERTEX
  8
T01SSILL
 62
3
 10
-1342.497
 20
1469.562
 30
5137.000
 70
    32
  0
VERTEX
  8
T01SSILL
 62
3
 10
-1395.366
 20
1440.598
 30
5137.000
 70
    32
  0
VERTEX
  8
T01SSILL
 62
3
 10
-1399.054
 20
1440.347
 30
5137.000
 70
    32
  0
VERTEX
  8
T01SSILL
 62
3
 10
-1406.399
 20
1455.408
 30
5137.000
 70
    32
  0
VERTEX
  8
T01SSILL
 62
3
 10
-1411.878
 20
1452.482
 30
5137.000
 70
    32
  0
VERTEX
  8
T01SSILL
 62
3
 10
-1423.223
 20
1473.880
 30
5137.000
 70
    32
  0
VERTEX
  8
T01SSILL
 62
3
 10
-1427.056
 20
1472.131
 30
5137.000
 70
    32
  0
VERTEX
  8
T01SSILL
 62
3
 10
-1439.402
 20
1478.120
 30
5137.000
 70
    32
  0
VERTEX
  8
T01SSILL
 62
3
 10
-1455.525
 20
1501.003
 30
5137.000
 70
    32
  0
VERTEX
  8
T01SSILL
 62
3
 10
-1455.384
 20
1511.206
 30
5137.000
 70
    32
  0
VERTEX
  8
T01SSILL
 62
3
 10
-1460.750
 20
1515.581
 30
5137.000
 70
    32
  0
VERTEX
  8
T01SSILL
 62
3
 10
-1463.118
 20
1519.577
 30
5137.000
 70
    32
  0
VERTEX
  8
T01SSILL
 62
3
 10
-1462.759
 20
1527.762
 30
5137.000
 70
    32
  0
VERTEX
  8
T01SSILL
 62
3
 10
-1460.635
 20
1535.632
 30
5137.000
 70
    32
  0
VERTEX
  8
T01SSILL
 62
3
 10
-1455.872
 20
1543.469
 30
5137.000
 70
    32
  0
VERTEX
  8
T01SSILL
 62
3
 10
-1451.605
 20
1549.800
 30
5137.000
 70
    32
  0
VERTEX
  8
T01SSILL
 62
3
 10
-1450.519
 20
1556.857
 30
5137.000
 70
    32
  0
VERTEX
  8
T01SSILL
 62
3
 10
-1453.833
 20
1572.617
 30
5137.000
 70
    32
  0
VERTEX
  8
T01SSILL
 62
3
 10
-1454.465
 20
1586.234
 30
5137.000
 70
    32
  0
VERTEX
  8
T01SSILL
 62
3
 10
-1454.419
 20
1601.096
 30
5137.000
 70
    32
  0
VERTEX
  8
T01SSILL
 62
3
 10
-1453.326
 20
1629.170
 30
5137.000
 70
    32
  0
VERTEX
  8
T01SSILL
 62
3
 10
-1444.829
 20
1801.698
 30
5137.000
 70
    32
  0
VERTEX
  8
T01SSILL
 62
3
 10
-1437.966
 20
1929.697
 30
5137.000
 70
    32
  0
VERTEX
  8
T01SSILL
 62
3
 10
-1423.174
 20
1962.977
 30
5137.000
 70
    32
  0
VERTEX
  8
T01SSILL
 62
3
 10
-1420.949
 20
1970.234
 30
5137.000
 70
    32
  0
VERTEX
  8
T01SSILL
 62
3
 10
-1386.219
 20
2098.630
 30
5137.000
 70
    32
  0
VERTEX
  8
T01SSILL
 62
3
 10
-1392.576
 20
2099.907
 30
5137.000
 70
    32
  0
VERTEX
  8
T01SSILL
 62
3
 10
-1417.174
 20
2009.003
 30
5137.000
 70
    32
  0
VERTEX
  8
T01SSILL
 62
3
 10
-1427.764
 20
1968.071
 30
5137.000
 70
    32
  0
VERTEX
  8
T01SSILL
 62
3
 10
-1443.094
 20
1935.307
 30
5137.000
 70
    32
  0
VERTEX
  8
T01SSILL
 62
3
 10
-1444.424
 20
1931.587
 30
5137.000
 70
    32
  0
VERTEX
  8
T01SSILL
 62
3
 10
-1443.971
 20
1926.672
 30
5137.000
 70
    32
  0
VERTEX
  8
T01SSILL
 62
3
 10
-1445.142
 20
1910.907
 30
5137.000
 70
    32
  0
VERTEX
  8
T01SSILL
 62
3
 10
-1461.981
 20
1596.808
 30
5137.000
 70
    32
  0
VERTEX
  8
T01SSILL
 62
3
 10
-1462.709
 20
1593.715
 30
5137.000
 70
    32
  0
VERTEX
  8
T01SSILL
 62
3
 10
-1468.576
 20
1579.700
 30
5137.000
 70
    32
  0
VERTEX
  8
T01SSILL
 62
3
 10
-1476.371
 20
1561.074
 30
5137.000
 70
    32
  0
VERTEX
  8
T01SSILL
 62
3
 10
-1485.569
 20
1546.551
 30
5137.000
 70
    32
  0
VERTEX
  8
T01SSILL
 62
3
 10
-1490.196
 20
1540.652
 30
5137.000
 70
    32
  0
VERTEX
  8
T01SSILL
 62
3
 10
-1494.075
 20
1532.570
 30
5137.000
 70
    32
  0
VERTEX
  8
T01SSILL
 62
3
 10
-1516.981
 20
1504.751
 30
5137.000
 70
    32
  0
VERTEX
  8
T01SSILL
 62
3
 10
-1512.672
 20
1500.443
 30
5137.000
 70
    32
  0
VERTEX
  8
T01SSILL
 62
3
 10
-1486.943
 20
1532.101
 30
5137.000
 70
    32
  0
VERTEX
  8
T01SSILL
 62
3
 10
-1485.387
 20
1520.614
 30
5137.000
 70
    32
  0
VERTEX
  8
T01SSILL
 62
3
 10
-1479.998
 20
1515.097
 30
5137.000
 70
    32
  0
VERTEX
  8
T01SSILL
 62
3
 10
-1460.185
 20
1496.686
 30
5137.000
 70
    32
  0
VERTEX
  8
T01SSILL
 62
3
 10
-1442.357
 20
1472.167
 30
5137.000
 70
    32
  0
VERTEX
  8
T01SSILL
 62
3
 10
-1439.792
 20
1462.899
 30
5137.000
 70
    32
  0
VERTEX
  8
T01SSILL
 62
3
 10
-1425.149
 20
1439.282
 30
5137.000
 70
    32
  0
VERTEX
  8
T01SSILL
 62
3
 10
-1435.680
 20
1433.965
 30
5137.000
 70
    32
  0
VERTEX
  8
T01SSILL
 62
3
 10
-1432.839
 20
1428.396
 30
5137.000
 70
    32
  0
VERTEX
  8
T01SSILL
 62
3
 10
-1438.234
 20
1425.647
 30
5137.000
 70
    32
  0
VERTEX
  8
T01SSILL
 62
3
 10
-1416.157
 20
1382.661
 30
5137.000
 70
    32
  0
VERTEX
  8
T01SSILL
 62
3
 10
-1413.276
 20
1377.965
 30
5137.000
 70
    32
  0
VERTEX
  8
T01SSILL
 62
3
 10
-1409.554
 20
1369.821
 30
5137.000
 70
    32
  0
VERTEX
  8
T01SSILL
 62
3
 10
-1386.943
 20
1343.613
 30
5137.000
 70
    32
  0
VERTEX
  8
T01SSILL
 62
3
 10
-1377.342
 20
1332.244
 30
5137.000
 70
    32
  0
VERTEX
  8
T01SSILL
 62
3
 10
-1374.550
 20
1318.641
 30
5137.000
 70
    32
  0
VERTEX
  8
T01SSILL
 62
3
 10
-1287.757
 20
1189.243
 30
5137.000
 70
    32
  0
VERTEX
  8
T01SSILL
 62
3
 10
-1292.724
 20
1185.935
 30
5137.000
 70
    32
  0
VERTEX
  8
T01SSILL
 62
3
 10
-1267.966
 20
1147.947
 30
5137.000
 70
    32
  0
VERTEX
  8
T01SSILL
 62
3
 10
-1250.391
 20
1158.140
 30
5137.000
 70
    32
  0
VERTEX
  8
T01SSILL
 62
3
 10
-1221.215
 20
1111.041
 30
5137.000
 70
    32
  0
VERTEX
  8
T01SSILL
 62
3
 10
-1200.403
 20
1124.825
 30
5137.000
 70
    32
  0
VERTEX
  8
T01SSILL
 62
3
 10
-1246.715
 20
1193.914
 30
5137.000
 70
    32
  0
VERTEX
  8
T01SSILL
 62
3
 10
-1252.212
 20
1190.434
 30
5137.000
 70
    32
  0
VERTEX
  8
T01SSILL
 62
3
 10
-1321.679
 20
1294.288
 30
5137.000
 70
    32
  0
VERTEX
  8
T01SSILL
 62
3
 10
-1317.764
 20
1298.311
 30
5137.000
 70
    32
  0
VERTEX
  8
T01SSILL
 62
3
 10
-1264.004
 20
1336.026
 30
5137.000
 70
    32
  0
VERTEX
  8
T01SSILL
 62
3
 10
-1255.202
 20
1334.275
 30
5137.000
 70
    32
  0
VERTEX
  8
T01SSILL
 62
3
 10
-1247.417
 20
1337.205
 30
5137.000
 70
    32
  0
VERTEX
  8
T01SSILL
 62
3
 10
-1235.437
 20
1346.008
 30
5137.000
 70
    32
  0
VERTEX
  8
T01SSILL
 62
3
 10
-1224.438
 20
1353.584
 30
5137.000
 70
    32
  0
VERTEX
  8
T01SSILL
 62
3
 10
-1216.452
 20
1359.334
 30
5137.000
 70
    32
  0
VERTEX
  8
T01SSILL
 62
3
 10
-1213.837
 20
1366.013
 30
5137.000
 70
    32
  0
VERTEX
  8
T01SSILL
 62
3
 10
-1216.543
 20
1369.211
 30
5137.000
 70
    32
  0
VERTEX
  8
T01SSILL
 62
3
 10
-1220.816
 20
1374.715
 30
5137.000
 70
    32
  0
SEQEND
  8
T01SSILL
  0
ENDSEC
  0
EOF
