999
********************************
999
*   DXF File - Entities Only   *
999
*        3D Data Format        *
999
*     Output from ENVISAGE     *
999
*     15-Dec-2007 14:46:03     *
999
********************************
  0
SECTION 
  2
HEADER
  9
$ACADVER
  1
AC1009
  9
$EXTMIN
 10
-290000.000
 20
-250000.000
 30
-4000.000
  9
$EXTMAX
 10
5000000.000
 20
600000.000
 30
6000.000
  0
ENDSEC
  0
SECTION
  2
ENTITIES
  0
POLYLINE
  8
T12SSILL
 62
13
 66
     1
 70
     9
  0
VERTEX
  8
T12SSILL
 62
13
 10
346.414
 20
-1547.895
 30
3987.157
 70
    32
  0
VERTEX
  8
T12SSILL
 62
13
 10
352.701
 20
-1559.652
 30
3987.156
 70
    32
  0
VERTEX
  8
T12SSILL
 62
13
 10
363.831
 20
-1550.201
 30
3987.158
 70
    32
  0
VERTEX
  8
T12SSILL
 62
13
 10
364.253
 20
-1545.892
 30
3987.158
 70
    32
  0
VERTEX
  8
T12SSILL
 62
13
 10
359.388
 20
-1538.262
 30
3987.159
 70
    32
  0
SEQEND
  8
T12SSILL
  0
POLYLINE
  8
T12SSILL
 62
13
 66
     1
 70
     9
  0
VERTEX
  8
T12SSILL
 62
13
 10
1293.834
 20
-2593.885
 30
3986.395
 70
    32
  0
VERTEX
  8
T12SSILL
 62
13
 10
1291.379
 20
-2589.043
 30
3986.402
 70
    32
  0
VERTEX
  8
T12SSILL
 62
13
 10
1287.330
 20
-2590.972
 30
3986.406
 70
    32
  0
VERTEX
  8
T12SSILL
 62
13
 10
1289.785
 20
-2596.078
 30
3986.399
 70
    32
  0
SEQEND
  8
T12SSILL
  0
POLYLINE
  8
T12SSILL
 62
13
 66
     1
 70
     9
  0
VERTEX
  8
T12SSILL
 62
13
 10
1056.384
 20
-1914.943
 30
3987.094
 70
    32
  0
VERTEX
  8
T12SSILL
 62
13
 10
1059.178
 20
-1916.672
 30
3987.093
 70
    32
  0
VERTEX
  8
T12SSILL
 62
13
 10
1092.392
 20
-1892.350
 30
3987.095
 70
    32
  0
VERTEX
  8
T12SSILL
 62
13
 10
1084.934
 20
-1878.346
 30
3987.097
 70
    32
  0
VERTEX
  8
T12SSILL
 62
13
 10
1078.157
 20
-1878.952
 30
3987.097
 70
    32
  0
VERTEX
  8
T12SSILL
 62
13
 10
1067.883
 20
-1886.940
 30
3987.096
 70
    32
  0
VERTEX
  8
T12SSILL
 62
13
 10
1077.302
 20
-1900.227
 30
3987.095
 70
    32
  0
SEQEND
  8
T12SSILL
  0
POLYLINE
  8
T12SSILL
 62
13
 66
     1
 70
     9
  0
VERTEX
  8
T12SSILL
 62
13
 10
1054.181
 20
-1867.613
 30
3987.099
 70
    32
  0
VERTEX
  8
T12SSILL
 62
13
 10
1066.397
 20
-1859.046
 30
3987.099
 70
    32
  0
VERTEX
  8
T12SSILL
 62
13
 10
1069.388
 20
-1860.018
 30
3987.099
 70
    32
  0
VERTEX
  8
T12SSILL
 62
13
 10
1076.500
 20
-1869.973
 30
3987.098
 70
    32
  0
VERTEX
  8
T12SSILL
 62
13
 10
1077.287
 20
-1872.702
 30
3987.097
 70
    32
  0
VERTEX
  8
T12SSILL
 62
13
 10
1064.252
 20
-1881.818
 30
3987.097
 70
    32
  0
SEQEND
  8
T12SSILL
  0
POLYLINE
  8
T12SSILL
 62
13
 66
     1
 70
     9
  0
VERTEX
  8
T12SSILL
 62
13
 10
947.884
 20
-1993.087
 30
3987.088
 70
    32
  0
VERTEX
  8
T12SSILL
 62
13
 10
938.579
 20
-1980.224
 30
3987.090
 70
    32
  0
VERTEX
  8
T12SSILL
 62
13
 10
948.382
 20
-1972.856
 30
3987.090
 70
    32
  0
VERTEX
  8
T12SSILL
 62
13
 10
957.839
 20
-1986.140
 30
3987.089
 70
    32
  0
VERTEX
  8
T12SSILL
 62
13
 10
968.262
 20
-1979.081
 30
3987.089
 70
    32
  0
VERTEX
  8
T12SSILL
 62
13
 10
969.496
 20
-1980.592
 30
3987.089
 70
    32
  0
VERTEX
  8
T12SSILL
 62
13
 10
944.388
 20
-1998.416
 30
3987.088
 70
    32
  0
VERTEX
  8
T12SSILL
 62
13
 10
943.239
 20
-1996.411
 30
3987.088
 70
    32
  0
SEQEND
  8
T12SSILL
  0
POLYLINE
  8
T12SSILL
 62
13
 66
     1
 70
     9
  0
VERTEX
  8
T12SSILL
 62
13
 10
737.566
 20
-1888.038
 30
3987.104
 70
    32
  0
VERTEX
  8
T12SSILL
 62
13
 10
739.757
 20
-1886.359
 30
3987.105
 70
    32
  0
VERTEX
  8
T12SSILL
 62
13
 10
739.834
 20
-1883.546
 30
3987.105
 70
    32
  0
VERTEX
  8
T12SSILL
 62
13
 10
731.457
 20
-1877.072
 30
3987.106
 70
    32
  0
VERTEX
  8
T12SSILL
 62
13
 10
719.188
 20
-1864.723
 30
3987.107
 70
    32
  0
VERTEX
  8
T12SSILL
 62
13
 10
715.018
 20
-1854.980
 30
3987.108
 70
    32
  0
VERTEX
  8
T12SSILL
 62
13
 10
707.682
 20
-1844.809
 30
3987.110
 70
    32
  0
VERTEX
  8
T12SSILL
 62
13
 10
682.697
 20
-1863.633
 30
3987.108
 70
    32
  0
VERTEX
  8
T12SSILL
 62
13
 10
682.985
 20
-1869.786
 30
3987.108
 70
    32
  0
VERTEX
  8
T12SSILL
 62
13
 10
706.033
 20
-1895.897
 30
3987.104
 70
    32
  0
VERTEX
  8
T12SSILL
 62
13
 10
721.688
 20
-1897.331
 30
3987.104
 70
    32
  0
VERTEX
  8
T12SSILL
 62
13
 10
725.287
 20
-1895.823
 30
3987.104
 70
    32
  0
SEQEND
  8
T12SSILL
  0
POLYLINE
  8
T12SSILL
 62
13
 66
     1
 70
     9
  0
VERTEX
  8
T12SSILL
 62
13
 10
672.008
 20
-1805.032
 30
3987.115
 70
    32
  0
VERTEX
  8
T12SSILL
 62
13
 10
648.516
 20
-1823.322
 30
3987.114
 70
    32
  0
VERTEX
  8
T12SSILL
 62
13
 10
647.655
 20
-1827.897
 30
3987.113
 70
    32
  0
VERTEX
  8
T12SSILL
 62
13
 10
672.822
 20
-1856.286
 30
3987.109
 70
    32
  0
VERTEX
  8
T12SSILL
 62
13
 10
681.005
 20
-1857.925
 30
3987.109
 70
    32
  0
VERTEX
  8
T12SSILL
 62
13
 10
701.255
 20
-1842.548
 30
3987.110
 70
    32
  0
VERTEX
  8
T12SSILL
 62
13
 10
700.099
 20
-1839.300
 30
3987.111
 70
    32
  0
VERTEX
  8
T12SSILL
 62
13
 10
688.966
 20
-1825.012
 30
3987.112
 70
    32
  0
SEQEND
  8
T12SSILL
  0
POLYLINE
  8
T12SSILL
 62
13
 66
     1
 70
     9
  0
VERTEX
  8
T12SSILL
 62
13
 10
608.130
 20
-1792.531
 30
3987.118
 70
    32
  0
VERTEX
  8
T12SSILL
 62
13
 10
603.901
 20
-1790.261
 30
3987.118
 70
    32
  0
VERTEX
  8
T12SSILL
 62
13
 10
601.533
 20
-1791.853
 30
3987.118
 70
    32
  0
VERTEX
  8
T12SSILL
 62
13
 10
601.636
 20
-1795.545
 30
3987.118
 70
    32
  0
VERTEX
  8
T12SSILL
 62
13
 10
644.164
 20
-1879.959
 30
3987.108
 70
    32
  0
VERTEX
  8
T12SSILL
 62
13
 10
650.144
 20
-1880.464
 30
3987.107
 70
    32
  0
VERTEX
  8
T12SSILL
 62
13
 10
660.947
 20
-1877.521
 30
3987.108
 70
    32
  0
VERTEX
  8
T12SSILL
 62
13
 10
669.352
 20
-1868.432
 30
3987.108
 70
    32
  0
VERTEX
  8
T12SSILL
 62
13
 10
669.601
 20
-1864.563
 30
3987.109
 70
    32
  0
SEQEND
  8
T12SSILL
  0
POLYLINE
  8
T12SSILL
 62
13
 66
     1
 70
     9
  0
VERTEX
  8
T12SSILL
 62
13
 10
668.472
 20
-1799.946
 30
3987.115
 70
    32
  0
VERTEX
  8
T12SSILL
 62
13
 10
663.263
 20
-1794.427
 30
3987.116
 70
    32
  0
VERTEX
  8
T12SSILL
 62
13
 10
659.458
 20
-1788.024
 30
3987.117
 70
    32
  0
VERTEX
  8
T12SSILL
 62
13
 10
644.036
 20
-1756.081
 30
3987.121
 70
    32
  0
VERTEX
  8
T12SSILL
 62
13
 10
640.266
 20
-1758.645
 30
3987.121
 70
    32
  0
VERTEX
  8
T12SSILL
 62
13
 10
619.339
 20
-1780.882
 30
3987.119
 70
    32
  0
VERTEX
  8
T12SSILL
 62
13
 10
617.342
 20
-1787.396
 30
3987.118
 70
    32
  0
VERTEX
  8
T12SSILL
 62
13
 10
618.774
 20
-1793.896
 30
3987.117
 70
    32
  0
VERTEX
  8
T12SSILL
 62
13
 10
636.436
 20
-1814.225
 30
3987.115
 70
    32
  0
VERTEX
  8
T12SSILL
 62
13
 10
645.852
 20
-1816.387
 30
3987.114
 70
    32
  0
SEQEND
  8
T12SSILL
  0
POLYLINE
  8
T12SSILL
 62
13
 66
     1
 70
     9
  0
VERTEX
  8
T12SSILL
 62
13
 10
604.042
 20
-1735.750
 30
3987.124
 70
    32
  0
VERTEX
  8
T12SSILL
 62
13
 10
601.844
 20
-1735.847
 30
3987.124
 70
    32
  0
VERTEX
  8
T12SSILL
 62
13
 10
588.770
 20
-1742.491
 30
3987.124
 70
    32
  0
VERTEX
  8
T12SSILL
 62
13
 10
586.849
 20
-1746.015
 30
3987.123
 70
    32
  0
VERTEX
  8
T12SSILL
 62
13
 10
595.281
 20
-1766.380
 30
3987.121
 70
    32
  0
VERTEX
  8
T12SSILL
 62
13
 10
606.052
 20
-1778.120
 30
3987.119
 70
    32
  0
VERTEX
  8
T12SSILL
 62
13
 10
610.978
 20
-1778.716
 30
3987.119
 70
    32
  0
VERTEX
  8
T12SSILL
 62
13
 10
618.068
 20
-1770.688
 30
3987.120
 70
    32
  0
VERTEX
  8
T12SSILL
 62
13
 10
614.001
 20
-1764.813
 30
3987.121
 70
    32
  0
VERTEX
  8
T12SSILL
 62
13
 10
613.101
 20
-1759.453
 30
3987.121
 70
    32
  0
VERTEX
  8
T12SSILL
 62
13
 10
606.116
 20
-1749.106
 30
3987.122
 70
    32
  0
VERTEX
  8
T12SSILL
 62
13
 10
605.661
 20
-1745.239
 30
3987.123
 70
    32
  0
SEQEND
  8
T12SSILL
  0
POLYLINE
  8
T12SSILL
 62
13
 66
     1
 70
     9
  0
VERTEX
  8
T12SSILL
 62
13
 10
567.313
 20
-1695.977
 30
3987.129
 70
    32
  0
VERTEX
  8
T12SSILL
 62
13
 10
565.649
 20
-1697.478
 30
3987.129
 70
    32
  0
VERTEX
  8
T12SSILL
 62
13
 10
565.224
 20
-1701.348
 30
3987.128
 70
    32
  0
VERTEX
  8
T12SSILL
 62
13
 10
582.513
 20
-1738.823
 30
3987.124
 70
    32
  0
VERTEX
  8
T12SSILL
 62
13
 10
597.433
 20
-1731.995
 30
3987.124
 70
    32
  0
VERTEX
  8
T12SSILL
 62
13
 10
601.112
 20
-1728.288
 30
3987.125
 70
    32
  0
VERTEX
  8
T12SSILL
 62
13
 10
603.631
 20
-1720.542
 30
3987.125
 70
    32
  0
VERTEX
  8
T12SSILL
 62
13
 10
598.134
 20
-1708.606
 30
3987.127
 70
    32
  0
VERTEX
  8
T12SSILL
 62
13
 10
600.111
 20
-1696.993
 30
3987.128
 70
    32
  0
VERTEX
  8
T12SSILL
 62
13
 10
592.241
 20
-1685.242
 30
3987.130
 70
    32
  0
VERTEX
  8
T12SSILL
 62
13
 10
586.798
 20
-1687.197
 30
3987.130
 70
    32
  0
SEQEND
  8
T12SSILL
  0
POLYLINE
  8
T12SSILL
 62
13
 66
     1
 70
     9
  0
VERTEX
  8
T12SSILL
 62
13
 10
539.562
 20
-1590.316
 30
3987.152
 70
    32
  0
VERTEX
  8
T12SSILL
 62
13
 10
534.548
 20
-1589.720
 30
3987.152
 70
    32
  0
VERTEX
  8
T12SSILL
 62
13
 10
522.789
 20
-1595.481
 30
3987.152
 70
    32
  0
VERTEX
  8
T12SSILL
 62
13
 10
520.278
 20
-1605.513
 30
3987.150
 70
    32
  0
VERTEX
  8
T12SSILL
 62
13
 10
534.467
 20
-1636.934
 30
3987.143
 70
    32
  0
VERTEX
  8
T12SSILL
 62
13
 10
547.491
 20
-1639.960
 30
3987.141
 70
    32
  0
VERTEX
  8
T12SSILL
 62
13
 10
563.470
 20
-1634.360
 30
3987.141
 70
    32
  0
VERTEX
  8
T12SSILL
 62
13
 10
566.269
 20
-1630.568
 30
3987.142
 70
    32
  0
VERTEX
  8
T12SSILL
 62
13
 10
562.291
 20
-1624.869
 30
3987.143
 70
    32
  0
VERTEX
  8
T12SSILL
 62
13
 10
551.790
 20
-1614.975
 30
3987.146
 70
    32
  0
VERTEX
  8
T12SSILL
 62
13
 10
549.921
 20
-1609.003
 30
3987.147
 70
    32
  0
VERTEX
  8
T12SSILL
 62
13
 10
546.559
 20
-1603.565
 30
3987.148
 70
    32
  0
SEQEND
  8
T12SSILL
  0
POLYLINE
  8
T12SSILL
 62
13
 66
     1
 70
     9
  0
VERTEX
  8
T12SSILL
 62
13
 10
572.380
 20
-1642.150
 30
3987.139
 70
    32
  0
VERTEX
  8
T12SSILL
 62
13
 10
568.239
 20
-1639.792
 30
3987.140
 70
    32
  0
VERTEX
  8
T12SSILL
 62
13
 10
546.719
 20
-1644.975
 30
3987.140
 70
    32
  0
VERTEX
  8
T12SSILL
 62
13
 10
542.621
 20
-1653.959
 30
3987.139
 70
    32
  0
VERTEX
  8
T12SSILL
 62
13
 10
558.848
 20
-1689.415
 30
3987.131
 70
    32
  0
VERTEX
  8
T12SSILL
 62
13
 10
565.096
 20
-1690.974
 30
3987.130
 70
    32
  0
VERTEX
  8
T12SSILL
 62
13
 10
589.229
 20
-1679.363
 30
3987.131
 70
    32
  0
VERTEX
  8
T12SSILL
 62
13
 10
579.411
 20
-1664.015
 30
3987.135
 70
    32
  0
VERTEX
  8
T12SSILL
 62
13
 10
578.251
 20
-1659.623
 30
3987.136
 70
    32
  0
SEQEND
  8
T12SSILL
  0
POLYLINE
  8
T12SSILL
 62
13
 66
     1
 70
     9
  0
VERTEX
  8
T12SSILL
 62
13
 10
507.802
 20
-1539.446
 30
3987.163
 70
    32
  0
VERTEX
  8
T12SSILL
 62
13
 10
500.664
 20
-1535.165
 30
3987.165
 70
    32
  0
VERTEX
  8
T12SSILL
 62
13
 10
499.084
 20
-1535.963
 30
3987.165
 70
    32
  0
VERTEX
  8
T12SSILL
 62
13
 10
497.333
 20
-1537.904
 30
3987.164
 70
    32
  0
VERTEX
  8
T12SSILL
 62
13
 10
493.781
 20
-1551.369
 30
3987.162
 70
    32
  0
VERTEX
  8
T12SSILL
 62
13
 10
512.744
 20
-1589.717
 30
3987.153
 70
    32
  0
VERTEX
  8
T12SSILL
 62
13
 10
515.651
 20
-1591.288
 30
3987.153
 70
    32
  0
VERTEX
  8
T12SSILL
 62
13
 10
533.913
 20
-1584.799
 30
3987.153
 70
    32
  0
VERTEX
  8
T12SSILL
 62
13
 10
535.914
 20
-1579.165
 30
3987.154
 70
    32
  0
SEQEND
  8
T12SSILL
  0
POLYLINE
  8
T12SSILL
 62
13
 66
     1
 70
     9
  0
VERTEX
  8
T12SSILL
 62
13
 10
489.405
 20
-1556.573
 30
3987.161
 70
    32
  0
VERTEX
  8
T12SSILL
 62
13
 10
425.674
 20
-1559.370
 30
3987.159
 70
    32
  0
VERTEX
  8
T12SSILL
 62
13
 10
420.055
 20
-1561.589
 30
3987.159
 70
    32
  0
VERTEX
  8
T12SSILL
 62
13
 10
423.478
 20
-1582.765
 30
3987.156
 70
    32
  0
VERTEX
  8
T12SSILL
 62
13
 10
410.074
 20
-1594.950
 30
3987.154
 70
    32
  0
VERTEX
  8
T12SSILL
 62
13
 10
410.036
 20
-1607.874
 30
3987.152
 70
    32
  0
VERTEX
  8
T12SSILL
 62
13
 10
403.037
 20
-1616.869
 30
3987.150
 70
    32
  0
VERTEX
  8
T12SSILL
 62
13
 10
397.951
 20
-1620.229
 30
3987.150
 70
    32
  0
VERTEX
  8
T12SSILL
 62
13
 10
397.436
 20
-1623.485
 30
3987.149
 70
    32
  0
VERTEX
  8
T12SSILL
 62
13
 10
405.491
 20
-1637.696
 30
3987.148
 70
    32
  0
VERTEX
  8
T12SSILL
 62
13
 10
411.843
 20
-1643.123
 30
3987.147
 70
    32
  0
VERTEX
  8
T12SSILL
 62
13
 10
514.850
 20
-1611.425
 30
3987.149
 70
    32
  0
SEQEND
  8
T12SSILL
  0
POLYLINE
  8
T12SSILL
 62
13
 66
     1
 70
     9
  0
VERTEX
  8
T12SSILL
 62
13
 10
337.142
 20
-1605.870
 30
3987.149
 70
    32
  0
VERTEX
  8
T12SSILL
 62
13
 10
353.651
 20
-1646.073
 30
3987.144
 70
    32
  0
VERTEX
  8
T12SSILL
 62
13
 10
363.278
 20
-1657.290
 30
3987.143
 70
    32
  0
VERTEX
  8
T12SSILL
 62
13
 10
378.470
 20
-1652.659
 30
3987.144
 70
    32
  0
VERTEX
  8
T12SSILL
 62
13
 10
381.606
 20
-1645.086
 30
3987.146
 70
    32
  0
VERTEX
  8
T12SSILL
 62
13
 10
371.488
 20
-1620.508
 30
3987.148
 70
    32
  0
VERTEX
  8
T12SSILL
 62
13
 10
357.590
 20
-1596.032
 30
3987.151
 70
    32
  0
SEQEND
  8
T12SSILL
  0
POLYLINE
  8
T12SSILL
 62
13
 66
     1
 70
     9
  0
VERTEX
  8
T12SSILL
 62
13
 10
321.690
 20
-1566.014
 30
3987.154
 70
    32
  0
VERTEX
  8
T12SSILL
 62
13
 10
330.308
 20
-1589.104
 30
3987.151
 70
    32
  0
VERTEX
  8
T12SSILL
 62
13
 10
338.862
 20
-1595.753
 30
3987.150
 70
    32
  0
VERTEX
  8
T12SSILL
 62
13
 10
339.831
 20
-1596.276
 30
3987.150
 70
    32
  0
VERTEX
  8
T12SSILL
 62
13
 10
358.790
 20
-1588.026
 30
3987.152
 70
    32
  0
VERTEX
  8
T12SSILL
 62
13
 10
348.316
 20
-1562.306
 30
3987.155
 70
    32
  0
VERTEX
  8
T12SSILL
 62
13
 10
342.039
 20
-1553.363
 30
3987.156
 70
    32
  0
VERTEX
  8
T12SSILL
 62
13
 10
338.080
 20
-1552.763
 30
3987.156
 70
    32
  0
SEQEND
  8
T12SSILL
  0
POLYLINE
  8
T12SSILL
 62
13
 66
     1
 70
     9
  0
VERTEX
  8
T12SSILL
 62
13
 10
365.086
 20
-1533.931
 30
3987.160
 70
    32
  0
VERTEX
  8
T12SSILL
 62
13
 10
371.716
 20
-1543.225
 30
3987.159
 70
    32
  0
VERTEX
  8
T12SSILL
 62
13
 10
387.254
 20
-1537.011
 30
3987.161
 70
    32
  0
VERTEX
  8
T12SSILL
 62
13
 10
387.840
 20
-1529.360
 30
3987.162
 70
    32
  0
VERTEX
  8
T12SSILL
 62
13
 10
382.712
 20
-1521.994
 30
3987.163
 70
    32
  0
VERTEX
  8
T12SSILL
 62
13
 10
380.343
 20
-1523.234
 30
3987.162
 70
    32
  0
SEQEND
  8
T12SSILL
  0
POLYLINE
  8
T12SSILL
 62
13
 66
     1
 70
     9
  0
VERTEX
  8
T12SSILL
 62
13
 10
352.614
 20
-1514.374
 30
3987.162
 70
    32
  0
VERTEX
  8
T12SSILL
 62
13
 10
360.754
 20
-1527.530
 30
3987.161
 70
    32
  0
VERTEX
  8
T12SSILL
 62
13
 10
373.378
 20
-1518.250
 30
3987.163
 70
    32
  0
VERTEX
  8
T12SSILL
 62
13
 10
377.214
 20
-1509.882
 30
3987.164
 70
    32
  0
VERTEX
  8
T12SSILL
 62
13
 10
373.563
 20
-1497.852
 30
3987.165
 70
    32
  0
VERTEX
  8
T12SSILL
 62
13
 10
370.907
 20
-1493.202
 30
3987.166
 70
    32
  0
VERTEX
  8
T12SSILL
 62
13
 10
353.549
 20
-1506.018
 30
3987.163
 70
    32
  0
SEQEND
  8
T12SSILL
  0
POLYLINE
  8
T12SSILL
 62
13
 66
     1
 70
     9
  0
VERTEX
  8
T12SSILL
 62
13
 10
335.574
 20
-1473.205
 30
3987.167
 70
    32
  0
VERTEX
  8
T12SSILL
 62
13
 10
335.368
 20
-1488.064
 30
3987.165
 70
    32
  0
VERTEX
  8
T12SSILL
 62
13
 10
344.384
 20
-1500.602
 30
3987.164
 70
    32
  0
VERTEX
  8
T12SSILL
 62
13
 10
366.407
 20
-1488.911
 30
3987.166
 70
    32
  0
VERTEX
  8
T12SSILL
 62
13
 10
362.256
 20
-1484.004
 30
3987.167
 70
    32
  0
VERTEX
  8
T12SSILL
 62
13
 10
352.263
 20
-1469.096
 30
3987.168
 70
    32
  0
VERTEX
  8
T12SSILL
 62
13
 10
346.537
 20
-1466.129
 30
3987.169
 70
    32
  0
SEQEND
  8
T12SSILL
  0
POLYLINE
  8
T12SSILL
 62
13
 66
     1
 70
     9
  0
VERTEX
  8
T12SSILL
 62
13
 10
322.443
 20
-1465.255
 30
3987.168
 70
    32
  0
VERTEX
  8
T12SSILL
 62
13
 10
330.811
 20
-1469.179
 30
3987.167
 70
    32
  0
VERTEX
  8
T12SSILL
 62
13
 10
341.763
 20
-1459.466
 30
3987.169
 70
    32
  0
VERTEX
  8
T12SSILL
 62
13
 10
331.501
 20
-1442.889
 30
3987.171
 70
    32
  0
VERTEX
  8
T12SSILL
 62
13
 10
328.747
 20
-1435.690
 30
3987.172
 70
    32
  0
VERTEX
  8
T12SSILL
 62
13
 10
323.200
 20
-1433.513
 30
3987.172
 70
    32
  0
VERTEX
  8
T12SSILL
 62
13
 10
316.108
 20
-1441.278
 30
3987.171
 70
    32
  0
VERTEX
  8
T12SSILL
 62
13
 10
312.358
 20
-1449.205
 30
3987.169
 70
    32
  0
SEQEND
  8
T12SSILL
  0
POLYLINE
  8
T12SSILL
 62
13
 66
     1
 70
     9
  0
VERTEX
  8
T12SSILL
 62
13
 10
320.368
 20
-1428.776
 30
3987.173
 70
    32
  0
VERTEX
  8
T12SSILL
 62
13
 10
318.770
 20
-1424.738
 30
3987.173
 70
    32
  0
VERTEX
  8
T12SSILL
 62
13
 10
318.657
 20
-1418.321
 30
3987.174
 70
    32
  0
VERTEX
  8
T12SSILL
 62
13
 10
313.267
 20
-1411.396
 30
3987.175
 70
    32
  0
VERTEX
  8
T12SSILL
 62
13
 10
302.816
 20
-1414.338
 30
3987.174
 70
    32
  0
VERTEX
  8
T12SSILL
 62
13
 10
298.268
 20
-1420.422
 30
3987.173
 70
    32
  0
VERTEX
  8
T12SSILL
 62
13
 10
298.113
 20
-1425.785
 30
3987.172
 70
    32
  0
VERTEX
  8
T12SSILL
 62
13
 10
303.781
 20
-1436.490
 30
3987.171
 70
    32
  0
VERTEX
  8
T12SSILL
 62
13
 10
305.276
 20
-1436.660
 30
3987.171
 70
    32
  0
SEQEND
  8
T12SSILL
  0
POLYLINE
  8
T12SSILL
 62
13
 66
     1
 70
     9
  0
VERTEX
  8
T12SSILL
 62
13
 10
498.837
 20
-1426.679
 30
3987.181
 70
    32
  0
VERTEX
  8
T12SSILL
 62
13
 10
498.387
 20
-1423.868
 30
3987.181
 70
    32
  0
VERTEX
  8
T12SSILL
 62
13
 10
433.025
 20
-1414.361
 30
3987.180
 70
    32
  0
VERTEX
  8
T12SSILL
 62
13
 10
430.920
 20
-1415.600
 30
3987.179
 70
    32
  0
VERTEX
  8
T12SSILL
 62
13
 10
459.999
 20
-1455.228
 30
3987.175
 70
    32
  0
SEQEND
  8
T12SSILL
  0
POLYLINE
  8
T12SSILL
 62
13
 66
     1
 70
     9
  0
VERTEX
  8
T12SSILL
 62
13
 10
928.945
 20
-1882.286
 30
3987.100
 70
    32
  0
VERTEX
  8
T12SSILL
 62
13
 10
926.451
 20
-1873.944
 30
3987.101
 70
    32
  0
VERTEX
  8
T12SSILL
 62
13
 10
923.353
 20
-1868.505
 30
3987.102
 70
    32
  0
VERTEX
  8
T12SSILL
 62
13
 10
915.890
 20
-1871.083
 30
3987.102
 70
    32
  0
VERTEX
  8
T12SSILL
 62
13
 10
909.581
 20
-1876.735
 30
3987.101
 70
    32
  0
VERTEX
  8
T12SSILL
 62
13
 10
907.496
 20
-1883.249
 30
3987.101
 70
    32
  0
VERTEX
  8
T12SSILL
 62
13
 10
910.160
 20
-1889.920
 30
3987.100
 70
    32
  0
VERTEX
  8
T12SSILL
 62
13
 10
914.307
 20
-1893.861
 30
3987.099
 70
    32
  0
SEQEND
  8
T12SSILL
  0
POLYLINE
  8
T12SSILL
 62
13
 66
     1
 70
     9
  0
VERTEX
  8
T12SSILL
 62
13
 10
948.761
 20
-1868.231
 30
3987.101
 70
    32
  0
VERTEX
  8
T12SSILL
 62
13
 10
949.808
 20
-1866.292
 30
3987.101
 70
    32
  0
VERTEX
  8
T12SSILL
 62
13
 10
949.524
 20
-1861.106
 30
3987.102
 70
    32
  0
VERTEX
  8
T12SSILL
 62
13
 10
946.158
 20
-1854.525
 30
3987.103
 70
    32
  0
VERTEX
  8
T12SSILL
 62
13
 10
936.235
 20
-1857.729
 30
3987.103
 70
    32
  0
VERTEX
  8
T12SSILL
 62
13
 10
931.938
 20
-1860.559
 30
3987.102
 70
    32
  0
VERTEX
  8
T12SSILL
 62
13
 10
930.892
 20
-1862.937
 30
3987.102
 70
    32
  0
VERTEX
  8
T12SSILL
 62
13
 10
933.126
 20
-1872.160
 30
3987.101
 70
    32
  0
VERTEX
  8
T12SSILL
 62
13
 10
936.391
 20
-1875.312
 30
3987.101
 70
    32
  0
SEQEND
  8
T12SSILL
  0
POLYLINE
  8
T12SSILL
 62
13
 66
     1
 70
     9
  0
VERTEX
  8
T12SSILL
 62
13
 10
967.713
 20
-1835.715
 30
3987.104
 70
    32
  0
VERTEX
  8
T12SSILL
 62
13
 10
954.120
 20
-1844.647
 30
3987.104
 70
    32
  0
VERTEX
  8
T12SSILL
 62
13
 10
952.374
 20
-1847.731
 30
3987.103
 70
    32
  0
VERTEX
  8
T12SSILL
 62
13
 10
953.097
 20
-1852.916
 30
3987.103
 70
    32
  0
VERTEX
  8
T12SSILL
 62
13
 10
957.347
 20
-1860.636
 30
3987.102
 70
    32
  0
VERTEX
  8
T12SSILL
 62
13
 10
961.038
 20
-1860.270
 30
3987.102
 70
    32
  0
VERTEX
  8
T12SSILL
 62
13
 10
976.386
 20
-1850.276
 30
3987.102
 70
    32
  0
SEQEND
  8
T12SSILL
  0
POLYLINE
  8
T12SSILL
 62
13
 66
     1
 70
     9
  0
VERTEX
  8
T12SSILL
 62
13
 10
1000.940
 20
-1811.233
 30
3987.106
 70
    32
  0
VERTEX
  8
T12SSILL
 62
13
 10
983.665
 20
-1822.729
 30
3987.105
 70
    32
  0
VERTEX
  8
T12SSILL
 62
13
 10
990.107
 20
-1829.034
 30
3987.104
 70
    32
  0
VERTEX
  8
T12SSILL
 62
13
 10
996.714
 20
-1832.438
 30
3987.104
 70
    32
  0
VERTEX
  8
T12SSILL
 62
13
 10
1011.358
 20
-1822.446
 30
3987.104
 70
    32
  0
VERTEX
  8
T12SSILL
 62
13
 10
1011.525
 20
-1820.247
 30
3987.105
 70
    32
  0
VERTEX
  8
T12SSILL
 62
13
 10
1003.936
 20
-1812.891
 30
3987.106
 70
    32
  0
SEQEND
  8
T12SSILL
  0
POLYLINE
  8
T12SSILL
 62
13
 66
     1
 70
     9
  0
VERTEX
  8
T12SSILL
 62
13
 10
1010.148
 20
-1804.955
 30
3987.106
 70
    32
  0
VERTEX
  8
T12SSILL
 62
13
 10
1011.485
 20
-1809.873
 30
3987.106
 70
    32
  0
VERTEX
  8
T12SSILL
 62
13
 10
1017.746
 20
-1814.596
 30
3987.105
 70
    32
  0
VERTEX
  8
T12SSILL
 62
13
 10
1020.912
 20
-1814.848
 30
3987.105
 70
    32
  0
VERTEX
  8
T12SSILL
 62
13
 10
1027.489
 20
-1810.339
 30
3987.105
 70
    32
  0
VERTEX
  8
T12SSILL
 62
13
 10
1030.379
 20
-1807.514
 30
3987.105
 70
    32
  0
VERTEX
  8
T12SSILL
 62
13
 10
1030.887
 20
-1802.588
 30
3987.106
 70
    32
  0
VERTEX
  8
T12SSILL
 62
13
 10
1025.139
 20
-1793.819
 30
3987.107
 70
    32
  0
SEQEND
  8
T12SSILL
  0
POLYLINE
  8
T12SSILL
 62
13
 66
     1
 70
     9
  0
VERTEX
  8
T12SSILL
 62
13
 10
926.831
 20
-1767.647
 30
3987.112
 70
    32
  0
VERTEX
  8
T12SSILL
 62
13
 10
921.307
 20
-1771.449
 30
3987.112
 70
    32
  0
VERTEX
  8
T12SSILL
 62
13
 10
919.473
 20
-1774.709
 30
3987.112
 70
    32
  0
VERTEX
  8
T12SSILL
 62
13
 10
920.101
 20
-1777.872
 30
3987.111
 70
    32
  0
VERTEX
  8
T12SSILL
 62
13
 10
927.170
 20
-1787.076
 30
3987.110
 70
    32
  0
VERTEX
  8
T12SSILL
 62
13
 10
939.053
 20
-1790.635
 30
3987.110
 70
    32
  0
VERTEX
  8
T12SSILL
 62
13
 10
948.439
 20
-1785.236
 30
3987.110
 70
    32
  0
VERTEX
  8
T12SSILL
 62
13
 10
956.418
 20
-1779.402
 30
3987.110
 70
    32
  0
VERTEX
  8
T12SSILL
 62
13
 10
959.122
 20
-1774.028
 30
3987.111
 70
    32
  0
VERTEX
  8
T12SSILL
 62
13
 10
940.789
 20
-1762.230
 30
3987.112
 70
    32
  0
VERTEX
  8
T12SSILL
 62
13
 10
933.057
 20
-1763.315
 30
3987.113
 70
    32
  0
SEQEND
  8
T12SSILL
  0
POLYLINE
  8
T12SSILL
 62
13
 66
     1
 70
     9
  0
VERTEX
  8
T12SSILL
 62
13
 10
901.406
 20
-1786.297
 30
3987.111
 70
    32
  0
VERTEX
  8
T12SSILL
 62
13
 10
893.689
 20
-1791.426
 30
3987.111
 70
    32
  0
VERTEX
  8
T12SSILL
 62
13
 10
892.642
 20
-1793.364
 30
3987.110
 70
    32
  0
VERTEX
  8
T12SSILL
 62
13
 10
893.267
 20
-1795.823
 30
3987.110
 70
    32
  0
VERTEX
  8
T12SSILL
 62
13
 10
910.504
 20
-1819.759
 30
3987.107
 70
    32
  0
VERTEX
  8
T12SSILL
 62
13
 10
914.191
 20
-1818.250
 30
3987.107
 70
    32
  0
VERTEX
  8
T12SSILL
 62
13
 10
936.903
 20
-1802.952
 30
3987.108
 70
    32
  0
VERTEX
  8
T12SSILL
 62
13
 10
938.470
 20
-1798.990
 30
3987.109
 70
    32
  0
VERTEX
  8
T12SSILL
 62
13
 10
925.963
 20
-1793.147
 30
3987.110
 70
    32
  0
VERTEX
  8
T12SSILL
 62
13
 10
919.615
 20
-1788.600
 30
3987.110
 70
    32
  0
VERTEX
  8
T12SSILL
 62
13
 10
913.166
 20
-1780.800
 30
3987.111
 70
    32
  0
VERTEX
  8
T12SSILL
 62
13
 10
907.897
 20
-1782.403
 30
3987.111
 70
    32
  0
SEQEND
  8
T12SSILL
  0
POLYLINE
  8
T12SSILL
 62
13
 66
     1
 70
     9
  0
VERTEX
  8
T12SSILL
 62
13
 10
1033.353
 20
-1690.042
 30
3987.118
 70
    32
  0
VERTEX
  8
T12SSILL
 62
13
 10
1014.154
 20
-1704.359
 30
3987.117
 70
    32
  0
VERTEX
  8
T12SSILL
 62
13
 10
1011.624
 20
-1709.380
 30
3987.116
 70
    32
  0
VERTEX
  8
T12SSILL
 62
13
 10
1012.344
 20
-1713.685
 30
3987.116
 70
    32
  0
VERTEX
  8
T12SSILL
 62
13
 10
1016.950
 20
-1722.459
 30
3987.115
 70
    32
  0
VERTEX
  8
T12SSILL
 62
13
 10
1049.035
 20
-1766.559
 30
3987.109
 70
    32
  0
VERTEX
  8
T12SSILL
 62
13
 10
1052.372
 20
-1765.403
 30
3987.109
 70
    32
  0
VERTEX
  8
T12SSILL
 62
13
 10
1074.283
 20
-1747.734
 30
3987.111
 70
    32
  0
VERTEX
  8
T12SSILL
 62
13
 10
1077.713
 20
-1747.985
 30
3987.111
 70
    32
  0
VERTEX
  8
T12SSILL
 62
13
 10
1088.468
 20
-1755.417
 30
3987.109
 70
    32
  0
VERTEX
  8
T12SSILL
 62
13
 10
1092.430
 20
-1756.808
 30
3987.109
 70
    32
  0
VERTEX
  8
T12SSILL
 62
13
 10
1097.789
 20
-1755.820
 30
3987.109
 70
    32
  0
VERTEX
  8
T12SSILL
 62
13
 10
1103.493
 20
-1752.897
 30
3987.109
 70
    32
  0
VERTEX
  8
T12SSILL
 62
13
 10
1109.791
 20
-1744.696
 30
3987.110
 70
    32
  0
VERTEX
  8
T12SSILL
 62
13
 10
1112.880
 20
-1724.902
 30
3987.112
 70
    32
  0
VERTEX
  8
T12SSILL
 62
13
 10
1111.198
 20
-1699.324
 30
3987.115
 70
    32
  0
VERTEX
  8
T12SSILL
 62
13
 10
1116.179
 20
-1691.480
 30
3987.115
 70
    32
  0
VERTEX
  8
T12SSILL
 62
13
 10
1086.684
 20
-1657.920
 30
3987.120
 70
    32
  0
VERTEX
  8
T12SSILL
 62
13
 10
1079.121
 20
-1657.422
 30
3987.120
 70
    32
  0
SEQEND
  8
T12SSILL
  0
POLYLINE
  8
T12SSILL
 62
13
 66
     1
 70
     9
  0
VERTEX
  8
T12SSILL
 62
13
 10
1100.897
 20
-1854.718
 30
3987.099
 70
    32
  0
VERTEX
  8
T12SSILL
 62
13
 10
1098.237
 20
-1848.837
 30
3987.099
 70
    32
  0
VERTEX
  8
T12SSILL
 62
13
 10
1082.243
 20
-1827.974
 30
3987.102
 70
    32
  0
VERTEX
  8
T12SSILL
 62
13
 10
1052.802
 20
-1785.799
 30
3987.107
 70
    32
  0
VERTEX
  8
T12SSILL
 62
13
 10
1048.743
 20
-1781.858
 30
3987.108
 70
    32
  0
VERTEX
  8
T12SSILL
 62
13
 10
1045.401
 20
-1781.695
 30
3987.108
 70
    32
  0
VERTEX
  8
T12SSILL
 62
13
 10
1037.412
 20
-1784.715
 30
3987.108
 70
    32
  0
VERTEX
  8
T12SSILL
 62
13
 10
1035.310
 20
-1786.834
 30
3987.108
 70
    32
  0
VERTEX
  8
T12SSILL
 62
13
 10
1037.023
 20
-1797.641
 30
3987.106
 70
    32
  0
VERTEX
  8
T12SSILL
 62
13
 10
1036.002
 20
-1806.437
 30
3987.105
 70
    32
  0
VERTEX
  8
T12SSILL
 62
13
 10
1038.406
 20
-1814.429
 30
3987.105
 70
    32
  0
VERTEX
  8
T12SSILL
 62
13
 10
1042.212
 20
-1821.008
 30
3987.104
 70
    32
  0
VERTEX
  8
T12SSILL
 62
13
 10
1050.422
 20
-1829.592
 30
3987.103
 70
    32
  0
VERTEX
  8
T12SSILL
 62
13
 10
1066.727
 20
-1839.904
 30
3987.101
 70
    32
  0
VERTEX
  8
T12SSILL
 62
13
 10
1084.672
 20
-1864.979
 30
3987.098
 70
    32
  0
SEQEND
  8
T12SSILL
  0
POLYLINE
  8
T12SSILL
 62
13
 66
     1
 70
     9
  0
VERTEX
  8
T12SSILL
 62
13
 10
1106.331
 20
-1850.125
 30
3987.099
 70
    32
  0
VERTEX
  8
T12SSILL
 62
13
 10
1112.916
 20
-1847.989
 30
3987.099
 70
    32
  0
VERTEX
  8
T12SSILL
 62
13
 10
1118.091
 20
-1844.628
 30
3987.099
 70
    32
  0
VERTEX
  8
T12SSILL
 62
13
 10
1120.364
 20
-1841.455
 30
3987.100
 70
    32
  0
VERTEX
  8
T12SSILL
 62
13
 10
1120.355
 20
-1839.169
 30
3987.100
 70
    32
  0
VERTEX
  8
T12SSILL
 62
13
 10
1117.957
 20
-1832.672
 30
3987.101
 70
    32
  0
VERTEX
  8
T12SSILL
 62
13
 10
1110.786
 20
-1820.039
 30
3987.102
 70
    32
  0
VERTEX
  8
T12SSILL
 62
13
 10
1105.572
 20
-1813.114
 30
3987.103
 70
    32
  0
VERTEX
  8
T12SSILL
 62
13
 10
1082.976
 20
-1790.166
 30
3987.106
 70
    32
  0
VERTEX
  8
T12SSILL
 62
13
 10
1081.735
 20
-1787.709
 30
3987.106
 70
    32
  0
VERTEX
  8
T12SSILL
 62
13
 10
1076.475
 20
-1768.915
 30
3987.108
 70
    32
  0
VERTEX
  8
T12SSILL
 62
13
 10
1079.786
 20
-1761.165
 30
3987.109
 70
    32
  0
VERTEX
  8
T12SSILL
 62
13
 10
1079.068
 20
-1757.211
 30
3987.109
 70
    32
  0
VERTEX
  8
T12SSILL
 62
13
 10
1075.899
 20
-1756.344
 30
3987.110
 70
    32
  0
VERTEX
  8
T12SSILL
 62
13
 10
1071.514
 20
-1759.087
 30
3987.109
 70
    32
  0
VERTEX
  8
T12SSILL
 62
13
 10
1059.593
 20
-1768.365
 30
3987.109
 70
    32
  0
VERTEX
  8
T12SSILL
 62
13
 10
1056.618
 20
-1772.157
 30
3987.109
 70
    32
  0
VERTEX
  8
T12SSILL
 62
13
 10
1056.627
 20
-1774.355
 30
3987.108
 70
    32
  0
VERTEX
  8
T12SSILL
 62
13
 10
1058.052
 20
-1779.097
 30
3987.108
 70
    32
  0
VERTEX
  8
T12SSILL
 62
13
 10
1081.222
 20
-1813.999
 30
3987.103
 70
    32
  0
SEQEND
  8
T12SSILL
  0
POLYLINE
  8
T12SSILL
 62
13
 66
     1
 70
     9
  0
VERTEX
  8
T12SSILL
 62
13
 10
950.941
 20
-1841.055
 30
3987.104
 70
    32
  0
VERTEX
  8
T12SSILL
 62
13
 10
960.754
 20
-1832.137
 30
3987.105
 70
    32
  0
VERTEX
  8
T12SSILL
 62
13
 10
958.968
 20
-1824.935
 30
3987.105
 70
    32
  0
VERTEX
  8
T12SSILL
 62
13
 10
956.037
 20
-1817.473
 30
3987.106
 70
    32
  0
VERTEX
  8
T12SSILL
 62
13
 10
953.652
 20
-1814.493
 30
3987.107
 70
    32
  0
VERTEX
  8
T12SSILL
 62
13
 10
947.418
 20
-1816.539
 30
3987.107
 70
    32
  0
VERTEX
  8
T12SSILL
 62
13
 10
941.416
 20
-1810.496
 30
3987.107
 70
    32
  0
VERTEX
  8
T12SSILL
 62
13
 10
939.131
 20
-1810.944
 30
3987.107
 70
    32
  0
VERTEX
  8
T12SSILL
 62
13
 10
920.447
 20
-1822.006
 30
3987.107
 70
    32
  0
VERTEX
  8
T12SSILL
 62
13
 10
917.560
 20
-1825.710
 30
3987.106
 70
    32
  0
VERTEX
  8
T12SSILL
 62
13
 10
916.955
 20
-1828.438
 30
3987.106
 70
    32
  0
VERTEX
  8
T12SSILL
 62
13
 10
933.044
 20
-1850.883
 30
3987.103
 70
    32
  0
VERTEX
  8
T12SSILL
 62
13
 10
944.888
 20
-1844.419
 30
3987.104
 70
    32
  0
SEQEND
  8
T12SSILL
  0
POLYLINE
  8
T12SSILL
 62
13
 66
     1
 70
     9
  0
VERTEX
  8
T12SSILL
 62
13
 10
1424.947
 20
-2122.066
 30
3986.616
 70
    32
  0
VERTEX
  8
T12SSILL
 62
13
 10
1421.876
 20
-2117.135
 30
3986.624
 70
    32
  0
VERTEX
  8
T12SSILL
 62
13
 10
1419.688
 20
-2110.270
 30
3986.632
 70
    32
  0
VERTEX
  8
T12SSILL
 62
13
 10
1414.937
 20
-2110.967
 30
3986.637
 70
    32
  0
VERTEX
  8
T12SSILL
 62
13
 10
1405.514
 20
-2117.461
 30
3986.644
 70
    32
  0
VERTEX
  8
T12SSILL
 62
13
 10
1394.443
 20
-2165.209
 30
3986.619
 70
    32
  0
VERTEX
  8
T12SSILL
 62
13
 10
1428.940
 20
-2156.115
 30
3986.584
 70
    32
  0
VERTEX
  8
T12SSILL
 62
13
 10
1432.286
 20
-2154.098
 30
3986.582
 70
    32
  0
VERTEX
  8
T12SSILL
 62
13
 10
1433.962
 20
-2151.109
 30
3986.582
 70
    32
  0
VERTEX
  8
T12SSILL
 62
13
 10
1432.561
 20
-2146.973
 30
3986.587
 70
    32
  0
SEQEND
  8
T12SSILL
  0
POLYLINE
  8
T12SSILL
 62
13
 66
     1
 70
     9
  0
VERTEX
  8
T12SSILL
 62
13
 10
1368.882
 20
-2586.175
 30
3986.311
 70
    32
  0
VERTEX
  8
T12SSILL
 62
13
 10
1369.769
 20
-2581.426
 30
3986.313
 70
    32
  0
VERTEX
  8
T12SSILL
 62
13
 10
1369.078
 20
-2573.332
 30
3986.321
 70
    32
  0
VERTEX
  8
T12SSILL
 62
13
 10
1356.294
 20
-2480.772
 30
3986.411
 70
    32
  0
VERTEX
  8
T12SSILL
 62
13
 10
1354.539
 20
-2477.514
 30
3986.415
 70
    32
  0
VERTEX
  8
T12SSILL
 62
13
 10
1351.376
 20
-2475.662
 30
3986.421
 70
    32
  0
VERTEX
  8
T12SSILL
 62
13
 10
1299.385
 20
-2477.339
 30
3986.483
 70
    32
  0
VERTEX
  8
T12SSILL
 62
13
 10
1299.485
 20
-2469.774
 30
3986.489
 70
    32
  0
VERTEX
  8
T12SSILL
 62
13
 10
1349.541
 20
-2467.566
 30
3986.430
 70
    32
  0
VERTEX
  8
T12SSILL
 62
13
 10
1353.770
 20
-2463.614
 30
3986.428
 70
    32
  0
VERTEX
  8
T12SSILL
 62
13
 10
1337.507
 20
-2345.450
 30
3986.543
 70
    32
  0
VERTEX
  8
T12SSILL
 62
13
 10
1331.899
 20
-2331.982
 30
3986.560
 70
    32
  0
VERTEX
  8
T12SSILL
 62
13
 10
1197.509
 20
-2428.884
 30
3986.645
 70
    32
  0
VERTEX
  8
T12SSILL
 62
13
 10
1197.856
 20
-2431.876
 30
3986.642
 70
    32
  0
VERTEX
  8
T12SSILL
 62
13
 10
1203.474
 20
-2439.010
 30
3986.630
 70
    32
  0
VERTEX
  8
T12SSILL
 62
13
 10
1207.868
 20
-2442.008
 30
3986.622
 70
    32
  0
VERTEX
  8
T12SSILL
 62
13
 10
1210.681
 20
-2442.980
 30
3986.618
 70
    32
  0
VERTEX
  8
T12SSILL
 62
13
 10
1218.075
 20
-2440.000
 30
3986.611
 70
    32
  0
VERTEX
  8
T12SSILL
 62
13
 10
1235.127
 20
-2448.560
 30
3986.584
 70
    32
  0
VERTEX
  8
T12SSILL
 62
13
 10
1236.179
 20
-2451.025
 30
3986.581
 70
    32
  0
VERTEX
  8
T12SSILL
 62
13
 10
1239.079
 20
-2452.877
 30
3986.576
 70
    32
  0
VERTEX
  8
T12SSILL
 62
13
 10
1259.825
 20
-2461.442
 30
3986.543
 70
    32
  0
VERTEX
  8
T12SSILL
 62
13
 10
1268.245
 20
-2477.554
 30
3986.520
 70
    32
  0
VERTEX
  8
T12SSILL
 62
13
 10
1278.089
 20
-2482.495
 30
3986.504
 70
    32
  0
VERTEX
  8
T12SSILL
 62
13
 10
1286.530
 20
-2484.532
 30
3986.492
 70
    32
  0
VERTEX
  8
T12SSILL
 62
13
 10
1289.258
 20
-2484.008
 30
3986.490
 70
    32
  0
VERTEX
  8
T12SSILL
 62
13
 10
1293.301
 20
-2486.478
 30
3986.483
 70
    32
  0
VERTEX
  8
T12SSILL
 62
13
 10
1301.029
 20
-2494.407
 30
3986.467
 70
    32
  0
VERTEX
  8
T12SSILL
 62
13
 10
1306.467
 20
-2504.620
 30
3986.452
 70
    32
  0
VERTEX
  8
T12SSILL
 62
13
 10
1289.114
 20
-2519.458
 30
3986.461
 70
    32
  0
VERTEX
  8
T12SSILL
 62
13
 10
1288.664
 20
-2525.703
 30
3986.457
 70
    32
  0
VERTEX
  8
T12SSILL
 62
13
 10
1294.106
 20
-2533.629
 30
3986.444
 70
    32
  0
VERTEX
  8
T12SSILL
 62
13
 10
1295.680
 20
-2539.613
 30
3986.437
 70
    32
  0
VERTEX
  8
T12SSILL
 62
13
 10
1297.875
 20
-2542.256
 30
3986.432
 70
    32
  0
VERTEX
  8
T12SSILL
 62
13
 10
1311.762
 20
-2549.667
 30
3986.409
 70
    32
  0
SEQEND
  8
T12SSILL
  0
POLYLINE
  8
T12SSILL
 62
13
 66
     1
 70
     9
  0
VERTEX
  8
T12SSILL
 62
13
 10
1248.574
 20
-2511.653
 30
3986.517
 70
    32
  0
VERTEX
  8
T12SSILL
 62
13
 10
1252.100
 20
-2507.173
 30
3986.516
 70
    32
  0
VERTEX
  8
T12SSILL
 62
13
 10
1252.105
 20
-2503.742
 30
3986.519
 70
    32
  0
VERTEX
  8
T12SSILL
 62
13
 10
1246.313
 20
-2495.376
 30
3986.532
 70
    32
  0
VERTEX
  8
T12SSILL
 62
13
 10
1244.906
 20
-2495.198
 30
3986.534
 70
    32
  0
VERTEX
  8
T12SSILL
 62
13
 10
1233.985
 20
-2503.009
 30
3986.541
 70
    32
  0
VERTEX
  8
T12SSILL
 62
13
 10
1224.825
 20
-2510.648
 30
3986.546
 70
    32
  0
VERTEX
  8
T12SSILL
 62
13
 10
1222.443
 20
-2514.955
 30
3986.546
 70
    32
  0
VERTEX
  8
T12SSILL
 62
13
 10
1222.788
 20
-2518.914
 30
3986.542
 70
    32
  0
VERTEX
  8
T12SSILL
 62
13
 10
1225.244
 20
-2523.668
 30
3986.535
 70
    32
  0
VERTEX
  8
T12SSILL
 62
13
 10
1230.256
 20
-2524.819
 30
3986.528
 70
    32
  0
VERTEX
  8
T12SSILL
 62
13
 10
1233.073
 20
-2523.592
 30
3986.526
 70
    32
  0
SEQEND
  8
T12SSILL
  0
POLYLINE
  8
T12SSILL
 62
13
 66
     1
 70
     9
  0
VERTEX
  8
T12SSILL
 62
13
 10
1244.511
 20
-2522.467
 30
3986.513
 70
    32
  0
VERTEX
  8
T12SSILL
 62
13
 10
1239.050
 20
-2526.944
 30
3986.516
 70
    32
  0
VERTEX
  8
T12SSILL
 62
13
 10
1235.964
 20
-2531.162
 30
3986.516
 70
    32
  0
VERTEX
  8
T12SSILL
 62
13
 10
1236.399
 20
-2534.417
 30
3986.513
 70
    32
  0
VERTEX
  8
T12SSILL
 62
13
 10
1238.593
 20
-2537.324
 30
3986.508
 70
    32
  0
VERTEX
  8
T12SSILL
 62
13
 10
1242.374
 20
-2538.561
 30
3986.502
 70
    32
  0
VERTEX
  8
T12SSILL
 62
13
 10
1254.164
 20
-2536.645
 30
3986.490
 70
    32
  0
VERTEX
  8
T12SSILL
 62
13
 10
1264.648
 20
-2526.809
 30
3986.485
 70
    32
  0
VERTEX
  8
T12SSILL
 62
13
 10
1265.623
 20
-2522.060
 30
3986.488
 70
    32
  0
VERTEX
  8
T12SSILL
 62
13
 10
1260.003
 20
-2516.070
 30
3986.499
 70
    32
  0
VERTEX
  8
T12SSILL
 62
13
 10
1254.285
 20
-2515.797
 30
3986.506
 70
    32
  0
SEQEND
  8
T12SSILL
  0
POLYLINE
  8
T12SSILL
 62
13
 66
     1
 70
     9
  0
VERTEX
  8
T12SSILL
 62
13
 10
1326.807
 20
-2325.377
 30
3986.572
 70
    32
  0
VERTEX
  8
T12SSILL
 62
13
 10
1325.668
 20
-2322.384
 30
3986.576
 70
    32
  0
VERTEX
  8
T12SSILL
 62
13
 10
1326.462
 20
-2320.978
 30
3986.576
 70
    32
  0
VERTEX
  8
T12SSILL
 62
13
 10
1318.390
 20
-2308.210
 30
3986.596
 70
    32
  0
VERTEX
  8
T12SSILL
 62
13
 10
1273.381
 20
-2178.301
 30
3986.755
 70
    32
  0
VERTEX
  8
T12SSILL
 62
13
 10
1270.482
 20
-2175.393
 30
3986.761
 70
    32
  0
VERTEX
  8
T12SSILL
 62
13
 10
1268.021
 20
-2174.422
 30
3986.765
 70
    32
  0
VERTEX
  8
T12SSILL
 62
13
 10
1265.293
 20
-2174.945
 30
3986.768
 70
    32
  0
VERTEX
  8
T12SSILL
 62
13
 10
1196.641
 20
-2199.115
 30
3986.832
 70
    32
  0
VERTEX
  8
T12SSILL
 62
13
 10
1194.432
 20
-2205.181
 30
3986.829
 70
    32
  0
VERTEX
  8
T12SSILL
 62
13
 10
1200.292
 20
-2226.742
 30
3986.805
 70
    32
  0
VERTEX
  8
T12SSILL
 62
13
 10
1231.558
 20
-2258.020
 30
3986.742
 70
    32
  0
VERTEX
  8
T12SSILL
 62
13
 10
1234.099
 20
-2264.357
 30
3986.733
 70
    32
  0
VERTEX
  8
T12SSILL
 62
13
 10
1235.143
 20
-2272.188
 30
3986.726
 70
    32
  0
VERTEX
  8
T12SSILL
 62
13
 10
1256.722
 20
-2310.487
 30
3986.669
 70
    32
  0
VERTEX
  8
T12SSILL
 62
13
 10
1265.046
 20
-2331.085
 30
3986.642
 70
    32
  0
VERTEX
  8
T12SSILL
 62
13
 10
1266.181
 20
-2336.452
 30
3986.636
 70
    32
  0
VERTEX
  8
T12SSILL
 62
13
 10
1272.413
 20
-2344.731
 30
3986.622
 70
    32
  0
VERTEX
  8
T12SSILL
 62
13
 10
1286.207
 20
-2355.221
 30
3986.597
 70
    32
  0
SEQEND
  8
T12SSILL
  0
POLYLINE
  8
T12SSILL
 62
13
 66
     1
 70
     9
  0
VERTEX
  8
T12SSILL
 62
13
 10
1265.043
 20
-2166.236
 30
3986.775
 70
    32
  0
VERTEX
  8
T12SSILL
 62
13
 10
1267.165
 20
-2159.290
 30
3986.778
 70
    32
  0
VERTEX
  8
T12SSILL
 62
13
 10
1228.726
 20
-2047.072
 30
3986.915
 70
    32
  0
VERTEX
  8
T12SSILL
 62
13
 10
1221.619
 20
-2035.537
 30
3986.933
 70
    32
  0
VERTEX
  8
T12SSILL
 62
13
 10
1218.630
 20
-2033.861
 30
3986.938
 70
    32
  0
VERTEX
  8
T12SSILL
 62
13
 10
1169.226
 20
-2068.618
 30
3986.970
 70
    32
  0
VERTEX
  8
T12SSILL
 62
13
 10
1168.606
 20
-2071.520
 30
3986.968
 70
    32
  0
VERTEX
  8
T12SSILL
 62
13
 10
1174.046
 20
-2080.325
 30
3986.955
 70
    32
  0
VERTEX
  8
T12SSILL
 62
13
 10
1178.707
 20
-2081.300
 30
3986.948
 70
    32
  0
VERTEX
  8
T12SSILL
 62
13
 10
1193.663
 20
-2079.828
 30
3986.931
 70
    32
  0
VERTEX
  8
T12SSILL
 62
13
 10
1196.383
 20
-2084.143
 30
3986.924
 70
    32
  0
VERTEX
  8
T12SSILL
 62
13
 10
1203.391
 20
-2102.803
 30
3986.901
 70
    32
  0
VERTEX
  8
T12SSILL
 62
13
 10
1202.151
 20
-2108.079
 30
3986.898
 70
    32
  0
VERTEX
  8
T12SSILL
 62
13
 10
1203.717
 20
-2118.989
 30
3986.887
 70
    32
  0
VERTEX
  8
T12SSILL
 62
13
 10
1198.855
 20
-2134.111
 30
3986.881
 70
    32
  0
VERTEX
  8
T12SSILL
 62
13
 10
1195.245
 20
-2136.217
 30
3986.884
 70
    32
  0
VERTEX
  8
T12SSILL
 62
13
 10
1185.838
 20
-2132.771
 30
3986.898
 70
    32
  0
VERTEX
  8
T12SSILL
 62
13
 10
1181.187
 20
-2126.167
 30
3986.909
 70
    32
  0
VERTEX
  8
T12SSILL
 62
13
 10
1175.379
 20
-2127.389
 30
3986.915
 70
    32
  0
VERTEX
  8
T12SSILL
 62
13
 10
1166.017
 20
-2151.125
 30
3986.907
 70
    32
  0
VERTEX
  8
T12SSILL
 62
13
 10
1171.358
 20
-2166.615
 30
3986.888
 70
    32
  0
VERTEX
  8
T12SSILL
 62
13
 10
1182.939
 20
-2186.162
 30
3986.859
 70
    32
  0
VERTEX
  8
T12SSILL
 62
13
 10
1187.241
 20
-2191.271
 30
3986.849
 70
    32
  0
VERTEX
  8
T12SSILL
 62
13
 10
1191.990
 20
-2191.806
 30
3986.843
 70
    32
  0
SEQEND
  8
T12SSILL
  0
POLYLINE
  8
T12SSILL
 62
13
 66
     1
 70
     9
  0
VERTEX
  8
T12SSILL
 62
13
 10
1110.620
 20
-2081.456
 30
3987.031
 70
    32
  0
VERTEX
  8
T12SSILL
 62
13
 10
1095.211
 20
-2091.196
 30
3987.042
 70
    32
  0
VERTEX
  8
T12SSILL
 62
13
 10
1094.769
 20
-2092.515
 30
3987.041
 70
    32
  0
VERTEX
  8
T12SSILL
 62
13
 10
1099.855
 20
-2102.991
 30
3987.026
 70
    32
  0
VERTEX
  8
T12SSILL
 62
13
 10
1104.601
 20
-2105.549
 30
3987.019
 70
    32
  0
VERTEX
  8
T12SSILL
 62
13
 10
1117.283
 20
-2095.717
 30
3987.011
 70
    32
  0
VERTEX
  8
T12SSILL
 62
13
 10
1113.954
 20
-2087.443
 30
3987.022
 70
    32
  0
SEQEND
  8
T12SSILL
  0
POLYLINE
  8
T12SSILL
 62
13
 66
     1
 70
     9
  0
VERTEX
  8
T12SSILL
 62
13
 10
1088.255
 20
-2095.319
 30
3987.047
 70
    32
  0
VERTEX
  8
T12SSILL
 62
13
 10
1075.213
 20
-2109.813
 30
3987.051
 70
    32
  0
VERTEX
  8
T12SSILL
 62
13
 10
1080.294
 20
-2123.016
 30
3987.034
 70
    32
  0
VERTEX
  8
T12SSILL
 62
13
 10
1093.946
 20
-2112.130
 30
3987.026
 70
    32
  0
VERTEX
  8
T12SSILL
 62
13
 10
1092.731
 20
-2101.836
 30
3987.036
 70
    32
  0
VERTEX
  8
T12SSILL
 62
13
 10
1091.239
 20
-2099.634
 30
3987.040
 70
    32
  0
SEQEND
  8
T12SSILL
  0
POLYLINE
  8
T12SSILL
 62
13
 66
     1
 70
     9
  0
VERTEX
  8
T12SSILL
 62
13
 10
1159.056
 20
-1936.124
 30
3987.089
 70
    32
  0
VERTEX
  8
T12SSILL
 62
13
 10
1148.400
 20
-1943.585
 30
3987.088
 70
    32
  0
VERTEX
  8
T12SSILL
 62
13
 10
1148.921
 20
-1948.160
 30
3987.088
 70
    32
  0
VERTEX
  8
T12SSILL
 62
13
 10
1150.585
 20
-1952.913
 30
3987.086
 70
    32
  0
VERTEX
  8
T12SSILL
 62
13
 10
1154.449
 20
-1957.141
 30
3987.078
 70
    32
  0
VERTEX
  8
T12SSILL
 62
13
 10
1161.129
 20
-1960.230
 30
3987.067
 70
    32
  0
VERTEX
  8
T12SSILL
 62
13
 10
1162.532
 20
-1963.224
 30
3987.063
 70
    32
  0
VERTEX
  8
T12SSILL
 62
13
 10
1162.433
 20
-1970.349
 30
3987.057
 70
    32
  0
VERTEX
  8
T12SSILL
 62
13
 10
1167.509
 20
-1986.455
 30
3987.038
 70
    32
  0
VERTEX
  8
T12SSILL
 62
13
 10
1174.794
 20
-1996.582
 30
3987.021
 70
    32
  0
VERTEX
  8
T12SSILL
 62
13
 10
1176.018
 20
-2001.510
 30
3987.016
 70
    32
  0
VERTEX
  8
T12SSILL
 62
13
 10
1184.531
 20
-2014.015
 30
3986.995
 70
    32
  0
VERTEX
  8
T12SSILL
 62
13
 10
1188.646
 20
-2026.425
 30
3986.980
 70
    32
  0
VERTEX
  8
T12SSILL
 62
13
 10
1199.009
 20
-2036.909
 30
3986.959
 70
    32
  0
VERTEX
  8
T12SSILL
 62
13
 10
1212.307
 20
-2027.518
 30
3986.951
 70
    32
  0
VERTEX
  8
T12SSILL
 62
13
 10
1211.885
 20
-2015.906
 30
3986.961
 70
    32
  0
VERTEX
  8
T12SSILL
 62
13
 10
1191.001
 20
-1983.589
 30
3987.012
 70
    32
  0
SEQEND
  8
T12SSILL
  0
POLYLINE
  8
T12SSILL
 62
13
 66
     1
 70
     9
  0
VERTEX
  8
T12SSILL
 62
13
 10
1348.476
 20
-2584.823
 30
3986.336
 70
    32
  0
VERTEX
  8
T12SSILL
 62
13
 10
1307.351
 20
-2557.313
 30
3986.408
 70
    32
  0
VERTEX
  8
T12SSILL
 62
13
 10
1307.508
 20
-2569.189
 30
3986.399
 70
    32
  0
VERTEX
  8
T12SSILL
 62
13
 10
1311.193
 20
-2575.352
 30
3986.389
 70
    32
  0
VERTEX
  8
T12SSILL
 62
13
 10
1311.877
 20
-2587.844
 30
3986.378
 70
    32
  0
VERTEX
  8
T12SSILL
 62
13
 10
1319.178
 20
-2588.296
 30
3986.369
 70
    32
  0
VERTEX
  8
T12SSILL
 62
13
 10
1345.923
 20
-2585.875
 30
3986.339
 70
    32
  0
SEQEND
  8
T12SSILL
  0
POLYLINE
  8
T12SSILL
 62
13
 66
     1
 70
     9
  0
VERTEX
  8
T12SSILL
 62
13
 10
1127.146
 20
-2588.959
 30
3986.602
 70
    32
  0
VERTEX
  8
T12SSILL
 62
13
 10
1126.097
 20
-2584.823
 30
3986.606
 70
    32
  0
VERTEX
  8
T12SSILL
 62
13
 10
1108.722
 20
-2558.318
 30
3986.649
 70
    32
  0
VERTEX
  8
T12SSILL
 62
13
 10
1098.448
 20
-2546.602
 30
3986.671
 70
    32
  0
VERTEX
  8
T12SSILL
 62
13
 10
1096.512
 20
-2547.039
 30
3986.673
 70
    32
  0
VERTEX
  8
T12SSILL
 62
13
 10
1092.721
 20
-2552.487
 30
3986.673
 70
    32
  0
VERTEX
  8
T12SSILL
 62
13
 10
1097.890
 20
-2566.042
 30
3986.656
 70
    32
  0
VERTEX
  8
T12SSILL
 62
13
 10
1103.152
 20
-2576.078
 30
3986.641
 70
    32
  0
VERTEX
  8
T12SSILL
 62
13
 10
1115.707
 20
-2591.228
 30
3986.614
 70
    32
  0
SEQEND
  8
T12SSILL
  0
POLYLINE
  8
T12SSILL
 62
13
 66
     1
 70
     9
  0
VERTEX
  8
T12SSILL
 62
13
 10
1094.046
 20
-2604.829
 30
3986.629
 70
    32
  0
VERTEX
  8
T12SSILL
 62
13
 10
1097.208
 20
-2607.561
 30
3986.623
 70
    32
  0
VERTEX
  8
T12SSILL
 62
13
 10
1099.319
 20
-2607.916
 30
3986.620
 70
    32
  0
VERTEX
  8
T12SSILL
 62
13
 10
1107.949
 20
-2601.772
 30
3986.615
 70
    32
  0
VERTEX
  8
T12SSILL
 62
13
 10
1110.068
 20
-2597.201
 30
3986.616
 70
    32
  0
VERTEX
  8
T12SSILL
 62
13
 10
1089.177
 20
-2568.491
 30
3986.664
 70
    32
  0
VERTEX
  8
T12SSILL
 62
13
 10
1089.009
 20
-2563.477
 30
3986.669
 70
    32
  0
VERTEX
  8
T12SSILL
 62
13
 10
1057.412
 20
-2518.828
 30
3986.743
 70
    32
  0
VERTEX
  8
T12SSILL
 62
13
 10
1050.132
 20
-2560.776
 30
3986.718
 70
    32
  0
VERTEX
  8
T12SSILL
 62
13
 10
1051.440
 20
-2568.255
 30
3986.710
 70
    32
  0
VERTEX
  8
T12SSILL
 62
13
 10
1054.510
 20
-2573.802
 30
3986.702
 70
    32
  0
VERTEX
  8
T12SSILL
 62
13
 10
1084.996
 20
-2598.129
 30
3986.646
 70
    32
  0
SEQEND
  8
T12SSILL
  0
POLYLINE
  8
T12SSILL
 62
13
 66
     1
 70
     9
  0
VERTEX
  8
T12SSILL
 62
13
 10
1047.840
 20
-2508.345
 30
3986.763
 70
    32
  0
VERTEX
  8
T12SSILL
 62
13
 10
1046.441
 20
-2503.064
 30
3986.769
 70
    32
  0
VERTEX
  8
T12SSILL
 62
13
 10
1043.188
 20
-2502.004
 30
3986.774
 70
    32
  0
VERTEX
  8
T12SSILL
 62
13
 10
1015.978
 20
-2519.818
 30
3986.792
 70
    32
  0
VERTEX
  8
T12SSILL
 62
13
 10
1011.733
 20
-2534.237
 30
3986.786
 70
    32
  0
VERTEX
  8
T12SSILL
 62
13
 10
1013.397
 20
-2539.254
 30
3986.780
 70
    32
  0
VERTEX
  8
T12SSILL
 62
13
 10
1016.383
 20
-2542.338
 30
3986.774
 70
    32
  0
VERTEX
  8
T12SSILL
 62
13
 10
1036.944
 20
-2556.533
 30
3986.737
 70
    32
  0
VERTEX
  8
T12SSILL
 62
13
 10
1040.022
 20
-2557.241
 30
3986.733
 70
    32
  0
SEQEND
  8
T12SSILL
  0
POLYLINE
  8
T12SSILL
 62
13
 66
     1
 70
     9
  0
VERTEX
  8
T12SSILL
 62
13
 10
1017.315
 20
-2508.912
 30
3986.800
 70
    32
  0
VERTEX
  8
T12SSILL
 62
13
 10
1030.435
 20
-2500.576
 30
3986.790
 70
    32
  0
VERTEX
  8
T12SSILL
 62
13
 10
1035.633
 20
-2495.834
 30
3986.788
 70
    32
  0
VERTEX
  8
T12SSILL
 62
13
 10
1036.430
 20
-2492.581
 30
3986.790
 70
    32
  0
VERTEX
  8
T12SSILL
 62
13
 10
1034.589
 20
-2488.267
 30
3986.795
 70
    32
  0
VERTEX
  8
T12SSILL
 62
13
 10
1012.561
 20
-2456.213
 30
3986.848
 70
    32
  0
VERTEX
  8
T12SSILL
 62
13
 10
1012.127
 20
-2452.166
 30
3986.852
 70
    32
  0
VERTEX
  8
T12SSILL
 62
13
 10
1009.234
 20
-2445.827
 30
3986.860
 70
    32
  0
VERTEX
  8
T12SSILL
 62
13
 10
1004.841
 20
-2442.478
 30
3986.868
 70
    32
  0
VERTEX
  8
T12SSILL
 62
13
 10
996.577
 20
-2439.386
 30
3986.881
 70
    32
  0
VERTEX
  8
T12SSILL
 62
13
 10
972.974
 20
-2457.470
 30
3986.895
 70
    32
  0
VERTEX
  8
T12SSILL
 62
13
 10
969.971
 20
-2465.030
 30
3986.892
 70
    32
  0
VERTEX
  8
T12SSILL
 62
13
 10
968.980
 20
-2479.807
 30
3986.882
 70
    32
  0
VERTEX
  8
T12SSILL
 62
13
 10
975.825
 20
-2489.934
 30
3986.865
 70
    32
  0
VERTEX
  8
T12SSILL
 62
13
 10
981.084
 20
-2502.081
 30
3986.849
 70
    32
  0
VERTEX
  8
T12SSILL
 62
13
 10
985.743
 20
-2504.112
 30
3986.842
 70
    32
  0
VERTEX
  8
T12SSILL
 62
13
 10
990.483
 20
-2510.717
 30
3986.831
 70
    32
  0
VERTEX
  8
T12SSILL
 62
13
 10
996.460
 20
-2513.717
 30
3986.821
 70
    32
  0
VERTEX
  8
T12SSILL
 62
13
 10
1002.792
 20
-2514.343
 30
3986.813
 70
    32
  0
VERTEX
  8
T12SSILL
 62
13
 10
1010.537
 20
-2512.068
 30
3986.805
 70
    32
  0
SEQEND
  8
T12SSILL
  0
POLYLINE
  8
T12SSILL
 62
13
 66
     1
 70
     9
  0
VERTEX
  8
T12SSILL
 62
13
 10
942.563
 20
-2441.587
 30
3986.945
 70
    32
  0
VERTEX
  8
T12SSILL
 62
13
 10
950.079
 20
-2416.793
 30
3986.955
 70
    32
  0
VERTEX
  8
T12SSILL
 62
13
 10
960.136
 20
-2398.336
 30
3986.958
 70
    32
  0
VERTEX
  8
T12SSILL
 62
13
 10
964.012
 20
-2394.823
 30
3986.956
 70
    32
  0
VERTEX
  8
T12SSILL
 62
13
 10
969.116
 20
-2393.688
 30
3986.951
 70
    32
  0
VERTEX
  8
T12SSILL
 62
13
 10
980.277
 20
-2400.831
 30
3986.932
 70
    32
  0
VERTEX
  8
T12SSILL
 62
13
 10
991.762
 20
-2424.864
 30
3986.898
 70
    32
  0
VERTEX
  8
T12SSILL
 62
13
 10
993.511
 20
-2431.376
 30
3986.891
 70
    32
  0
VERTEX
  8
T12SSILL
 62
13
 10
991.040
 20
-2436.298
 30
3986.890
 70
    32
  0
VERTEX
  8
T12SSILL
 62
13
 10
986.106
 20
-2441.656
 30
3986.892
 70
    32
  0
VERTEX
  8
T12SSILL
 62
13
 10
967.352
 20
-2452.535
 30
3986.906
 70
    32
  0
VERTEX
  8
T12SSILL
 62
13
 10
960.290
 20
-2467.917
 30
3986.902
 70
    32
  0
VERTEX
  8
T12SSILL
 62
13
 10
958.799
 20
-2464.924
 30
3986.906
 70
    32
  0
SEQEND
  8
T12SSILL
  0
POLYLINE
  8
T12SSILL
 62
13
 66
     1
 70
     9
  0
VERTEX
  8
T12SSILL
 62
13
 10
886.123
 20
-2363.824
 30
3987.051
 70
    32
  0
VERTEX
  8
T12SSILL
 62
13
 10
889.729
 20
-2364.181
 30
3987.051
 70
    32
  0
VERTEX
  8
T12SSILL
 62
13
 10
914.478
 20
-2345.044
 30
3987.052
 70
    32
  0
VERTEX
  8
T12SSILL
 62
13
 10
896.555
 20
-2331.557
 30
3987.054
 70
    32
  0
VERTEX
  8
T12SSILL
 62
13
 10
890.753
 20
-2328.997
 30
3987.054
 70
    32
  0
VERTEX
  8
T12SSILL
 62
13
 10
877.808
 20
-2337.861
 30
3987.054
 70
    32
  0
VERTEX
  8
T12SSILL
 62
13
 10
875.163
 20
-2341.199
 30
3987.053
 70
    32
  0
VERTEX
  8
T12SSILL
 62
13
 10
874.712
 20
-2348.500
 30
3987.053
 70
    32
  0
SEQEND
  8
T12SSILL
  0
POLYLINE
  8
T12SSILL
 62
13
 66
     1
 70
     9
  0
VERTEX
  8
T12SSILL
 62
13
 10
866.086
 20
-2296.322
 30
3987.058
 70
    32
  0
VERTEX
  8
T12SSILL
 62
13
 10
871.809
 20
-2293.340
 30
3987.059
 70
    32
  0
VERTEX
  8
T12SSILL
 62
13
 10
869.000
 20
-2289.553
 30
3987.059
 70
    32
  0
VERTEX
  8
T12SSILL
 62
13
 10
861.616
 20
-2285.935
 30
3987.060
 70
    32
  0
VERTEX
  8
T12SSILL
 62
13
 10
855.983
 20
-2287.949
 30
3987.059
 70
    32
  0
VERTEX
  8
T12SSILL
 62
13
 10
846.290
 20
-2298.314
 30
3987.059
 70
    32
  0
VERTEX
  8
T12SSILL
 62
13
 10
844.874
 20
-2304.293
 30
3987.058
 70
    32
  0
VERTEX
  8
T12SSILL
 62
13
 10
847.152
 20
-2309.487
 30
3987.057
 70
    32
  0
VERTEX
  8
T12SSILL
 62
13
 10
862.161
 20
-2330.711
 30
3987.055
 70
    32
  0
VERTEX
  8
T12SSILL
 62
13
 10
867.083
 20
-2333.182
 30
3987.054
 70
    32
  0
VERTEX
  8
T12SSILL
 62
13
 10
871.744
 20
-2334.332
 30
3987.054
 70
    32
  0
VERTEX
  8
T12SSILL
 62
13
 10
875.264
 20
-2333.194
 30
3987.054
 70
    32
  0
VERTEX
  8
T12SSILL
 62
13
 10
885.040
 20
-2325.733
 30
3987.055
 70
    32
  0
SEQEND
  8
T12SSILL
  0
POLYLINE
  8
T12SSILL
 62
13
 66
     1
 70
     9
  0
VERTEX
  8
T12SSILL
 62
13
 10
831.968
 20
-2288.439
 30
3987.060
 70
    32
  0
VERTEX
  8
T12SSILL
 62
13
 10
835.481
 20
-2291.523
 30
3987.060
 70
    32
  0
VERTEX
  8
T12SSILL
 62
13
 10
842.252
 20
-2293.381
 30
3987.059
 70
    32
  0
VERTEX
  8
T12SSILL
 62
13
 10
845.510
 20
-2291.363
 30
3987.059
 70
    32
  0
VERTEX
  8
T12SSILL
 62
13
 10
856.881
 20
-2276.427
 30
3987.061
 70
    32
  0
VERTEX
  8
T12SSILL
 62
13
 10
835.539
 20
-2255.369
 30
3987.063
 70
    32
  0
VERTEX
  8
T12SSILL
 62
13
 10
831.139
 20
-2256.506
 30
3987.063
 70
    32
  0
VERTEX
  8
T12SSILL
 62
13
 10
826.735
 20
-2259.754
 30
3987.063
 70
    32
  0
VERTEX
  8
T12SSILL
 62
13
 10
819.766
 20
-2272.234
 30
3987.062
 70
    32
  0
VERTEX
  8
T12SSILL
 62
13
 10
821.259
 20
-2273.996
 30
3987.062
 70
    32
  0
SEQEND
  8
T12SSILL
  0
POLYLINE
  8
T12SSILL
 62
13
 66
     1
 70
     9
  0
VERTEX
  8
T12SSILL
 62
13
 10
811.255
 20
-2258.762
 30
3987.064
 70
    32
  0
VERTEX
  8
T12SSILL
 62
13
 10
814.065
 20
-2261.669
 30
3987.063
 70
    32
  0
VERTEX
  8
T12SSILL
 62
13
 10
819.611
 20
-2259.039
 30
3987.063
 70
    32
  0
VERTEX
  8
T12SSILL
 62
13
 10
826.928
 20
-2249.198
 30
3987.064
 70
    32
  0
VERTEX
  8
T12SSILL
 62
13
 10
826.934
 20
-2245.504
 30
3987.065
 70
    32
  0
VERTEX
  8
T12SSILL
 62
13
 10
817.889
 20
-2235.373
 30
3987.066
 70
    32
  0
VERTEX
  8
T12SSILL
 62
13
 10
808.677
 20
-2220.228
 30
3987.068
 70
    32
  0
VERTEX
  8
T12SSILL
 62
13
 10
790.405
 20
-2204.453
 30
3987.070
 70
    32
  0
VERTEX
  8
T12SSILL
 62
13
 10
788.025
 20
-2207.089
 30
3987.070
 70
    32
  0
VERTEX
  8
T12SSILL
 62
13
 10
784.406
 20
-2215.088
 30
3987.069
 70
    32
  0
VERTEX
  8
T12SSILL
 62
13
 10
784.134
 20
-2220.453
 30
3987.068
 70
    32
  0
VERTEX
  8
T12SSILL
 62
13
 10
785.889
 20
-2223.095
 30
3987.068
 70
    32
  0
SEQEND
  8
T12SSILL
  0
POLYLINE
  8
T12SSILL
 62
13
 66
     1
 70
     9
  0
VERTEX
  8
T12SSILL
 62
13
 10
843.623
 20
-2170.203
 30
3987.072
 70
    32
  0
VERTEX
  8
T12SSILL
 62
13
 10
840.989
 20
-2166.591
 30
3987.073
 70
    32
  0
VERTEX
  8
T12SSILL
 62
13
 10
798.261
 20
-2198.026
 30
3987.070
 70
    32
  0
VERTEX
  8
T12SSILL
 62
13
 10
799.489
 20
-2200.492
 30
3987.070
 70
    32
  0
VERTEX
  8
T12SSILL
 62
13
 10
828.825
 20
-2235.033
 30
3987.066
 70
    32
  0
VERTEX
  8
T12SSILL
 62
13
 10
843.237
 20
-2247.288
 30
3987.064
 70
    32
  0
VERTEX
  8
T12SSILL
 62
13
 10
846.141
 20
-2247.380
 30
3987.064
 70
    32
  0
VERTEX
  8
T12SSILL
 62
13
 10
850.639
 20
-2241.140
 30
3987.065
 70
    32
  0
VERTEX
  8
T12SSILL
 62
13
 10
855.202
 20
-2193.276
 30
3987.069
 70
    32
  0
SEQEND
  8
T12SSILL
  0
POLYLINE
  8
T12SSILL
 62
13
 66
     1
 70
     9
  0
VERTEX
  8
T12SSILL
 62
13
 10
1132.292
 20
-2064.169
 30
3987.018
 70
    32
  0
VERTEX
  8
T12SSILL
 62
13
 10
1117.228
 20
-2074.957
 30
3987.028
 70
    32
  0
VERTEX
  8
T12SSILL
 62
13
 10
1120.378
 20
-2085.430
 30
3987.016
 70
    32
  0
VERTEX
  8
T12SSILL
 62
13
 10
1123.013
 20
-2087.985
 30
3987.010
 70
    32
  0
VERTEX
  8
T12SSILL
 62
13
 10
1127.109
 20
-2088.670
 30
3987.005
 70
    32
  0
VERTEX
  8
T12SSILL
 62
13
 10
1119.518
 20
-2078.347
 30
3987.022
 70
    32
  0
VERTEX
  8
T12SSILL
 62
13
 10
1134.134
 20
-2066.745
 30
3987.014
 70
    32
  0
SEQEND
  8
T12SSILL
  0
POLYLINE
  8
T12SSILL
 62
13
 66
     1
 70
     9
  0
VERTEX
  8
T12SSILL
 62
13
 10
736.990
 20
-1936.137
 30
3987.099
 70
    32
  0
VERTEX
  8
T12SSILL
 62
13
 10
762.803
 20
-1916.819
 30
3987.101
 70
    32
  0
VERTEX
  8
T12SSILL
 62
13
 10
761.760
 20
-1908.986
 30
3987.102
 70
    32
  0
VERTEX
  8
T12SSILL
 62
13
 10
756.405
 20
-1900.617
 30
3987.103
 70
    32
  0
VERTEX
  8
T12SSILL
 62
13
 10
752.270
 20
-1900.347
 30
3987.103
 70
    32
  0
VERTEX
  8
T12SSILL
 62
13
 10
746.209
 20
-1893.649
 30
3987.104
 70
    32
  0
VERTEX
  8
T12SSILL
 62
13
 10
742.249
 20
-1893.203
 30
3987.104
 70
    32
  0
VERTEX
  8
T12SSILL
 62
13
 10
738.023
 20
-1894.692
 30
3987.104
 70
    32
  0
VERTEX
  8
T12SSILL
 62
13
 10
722.342
 20
-1906.107
 30
3987.103
 70
    32
  0
VERTEX
  8
T12SSILL
 62
13
 10
721.357
 20
-1916.577
 30
3987.102
 70
    32
  0
VERTEX
  8
T12SSILL
 62
13
 10
724.253
 20
-1921.774
 30
3987.101
 70
    32
  0
SEQEND
  8
T12SSILL
  0
POLYLINE
  8
T12SSILL
 62
13
 66
     1
 70
     9
  0
VERTEX
  8
T12SSILL
 62
13
 10
676.006
 20
-1937.185
 30
3987.101
 70
    32
  0
VERTEX
  8
T12SSILL
 62
13
 10
677.314
 20
-1944.931
 30
3987.100
 70
    32
  0
VERTEX
  8
T12SSILL
 62
13
 10
686.969
 20
-1960.081
 30
3987.098
 70
    32
  0
VERTEX
  8
T12SSILL
 62
13
 10
700.504
 20
-1970.575
 30
3987.097
 70
    32
  0
VERTEX
  8
T12SSILL
 62
13
 10
712.541
 20
-1982.649
 30
3987.095
 70
    32
  0
VERTEX
  8
T12SSILL
 62
13
 10
726.364
 20
-1977.567
 30
3987.095
 70
    32
  0
VERTEX
  8
T12SSILL
 62
13
 10
734.017
 20
-1979.691
 30
3987.095
 70
    32
  0
VERTEX
  8
T12SSILL
 62
13
 10
736.044
 20
-1977.671
 30
3987.095
 70
    32
  0
VERTEX
  8
T12SSILL
 62
13
 10
732.667
 20
-1942.730
 30
3987.099
 70
    32
  0
VERTEX
  8
T12SSILL
 62
13
 10
708.688
 20
-1914.709
 30
3987.102
 70
    32
  0
SEQEND
  8
T12SSILL
  0
POLYLINE
  8
T12SSILL
 62
13
 66
     1
 70
     9
  0
VERTEX
  8
T12SSILL
 62
13
 10
637.856
 20
-1967.219
 30
3987.099
 70
    32
  0
VERTEX
  8
T12SSILL
 62
13
 10
621.470
 20
-1978.897
 30
3987.098
 70
    32
  0
VERTEX
  8
T12SSILL
 62
13
 10
619.967
 20
-1983.119
 30
3987.097
 70
    32
  0
VERTEX
  8
T12SSILL
 62
13
 10
645.253
 20
-2019.149
 30
3987.093
 70
    32
  0
VERTEX
  8
T12SSILL
 62
13
 10
665.088
 20
-2052.004
 30
3987.089
 70
    32
  0
VERTEX
  8
T12SSILL
 62
13
 10
680.561
 20
-2061.444
 30
3987.088
 70
    32
  0
VERTEX
  8
T12SSILL
 62
13
 10
685.042
 20
-2065.675
 30
3987.087
 70
    32
  0
VERTEX
  8
T12SSILL
 62
13
 10
687.585
 20
-2071.223
 30
3987.087
 70
    32
  0
VERTEX
  8
T12SSILL
 62
13
 10
688.193
 20
-2076.680
 30
3987.086
 70
    32
  0
VERTEX
  8
T12SSILL
 62
13
 10
695.741
 20
-2089.011
 30
3987.084
 70
    32
  0
VERTEX
  8
T12SSILL
 62
13
 10
708.786
 20
-2131.183
 30
3987.080
 70
    32
  0
VERTEX
  8
T12SSILL
 62
13
 10
710.531
 20
-2140.073
 30
3987.079
 70
    32
  0
VERTEX
  8
T12SSILL
 62
13
 10
714.658
 20
-2146.151
 30
3987.078
 70
    32
  0
VERTEX
  8
T12SSILL
 62
13
 10
720.370
 20
-2150.824
 30
3987.077
 70
    32
  0
VERTEX
  8
T12SSILL
 62
13
 10
726.880
 20
-2151.979
 30
3987.077
 70
    32
  0
VERTEX
  8
T12SSILL
 62
13
 10
743.618
 20
-2140.301
 30
3987.078
 70
    32
  0
VERTEX
  8
T12SSILL
 62
13
 10
745.479
 20
-2132.033
 30
3987.079
 70
    32
  0
VERTEX
  8
T12SSILL
 62
13
 10
747.243
 20
-2129.307
 30
3987.079
 70
    32
  0
VERTEX
  8
T12SSILL
 62
13
 10
750.326
 20
-2127.464
 30
3987.079
 70
    32
  0
VERTEX
  8
T12SSILL
 62
13
 10
751.653
 20
-2122.979
 30
3987.079
 70
    32
  0
VERTEX
  8
T12SSILL
 62
13
 10
743.510
 20
-2041.744
 30
3987.088
 70
    32
  0
VERTEX
  8
T12SSILL
 62
13
 10
735.252
 20
-2032.844
 30
3987.089
 70
    32
  0
VERTEX
  8
T12SSILL
 62
13
 10
733.334
 20
-2021.929
 30
3987.091
 70
    32
  0
VERTEX
  8
T12SSILL
 62
13
 10
731.842
 20
-2019.023
 30
3987.091
 70
    32
  0
VERTEX
  8
T12SSILL
 62
13
 10
728.151
 20
-2016.201
 30
3987.091
 70
    32
  0
VERTEX
  8
T12SSILL
 62
13
 10
723.578
 20
-2014.610
 30
3987.092
 70
    32
  0
VERTEX
  8
T12SSILL
 62
13
 10
719.896
 20
-2005.364
 30
3987.093
 70
    32
  0
VERTEX
  8
T12SSILL
 62
13
 10
712.524
 20
-1993.473
 30
3987.094
 70
    32
  0
VERTEX
  8
T12SSILL
 62
13
 10
698.902
 20
-1982.364
 30
3987.096
 70
    32
  0
VERTEX
  8
T12SSILL
 62
13
 10
694.251
 20
-1973.909
 30
3987.097
 70
    32
  0
VERTEX
  8
T12SSILL
 62
13
 10
679.308
 20
-1963.413
 30
3987.098
 70
    32
  0
VERTEX
  8
T12SSILL
 62
13
 10
675.179
 20
-1959.447
 30
3987.099
 70
    32
  0
VERTEX
  8
T12SSILL
 62
13
 10
670.088
 20
-1951.343
 30
3987.100
 70
    32
  0
VERTEX
  8
T12SSILL
 62
13
 10
660.760
 20
-1951.240
 30
3987.100
 70
    32
  0
VERTEX
  8
T12SSILL
 62
13
 10
653.713
 20
-1956.157
 30
3987.099
 70
    32
  0
SEQEND
  8
T12SSILL
  0
POLYLINE
  8
T12SSILL
 62
13
 66
     1
 70
     9
  0
VERTEX
  8
T12SSILL
 62
13
 10
740.235
 20
-1943.006
 30
3987.099
 70
    32
  0
VERTEX
  8
T12SSILL
 62
13
 10
758.176
 20
-2116.213
 30
3987.080
 70
    32
  0
VERTEX
  8
T12SSILL
 62
13
 10
759.490
 20
-2119.735
 30
3987.080
 70
    32
  0
VERTEX
  8
T12SSILL
 62
13
 10
765.206
 20
-2122.296
 30
3987.079
 70
    32
  0
VERTEX
  8
T12SSILL
 62
13
 10
766.967
 20
-2121.243
 30
3987.079
 70
    32
  0
VERTEX
  8
T12SSILL
 62
13
 10
796.476
 20
-2102.282
 30
3987.080
 70
    32
  0
VERTEX
  8
T12SSILL
 62
13
 10
864.663
 20
-2053.728
 30
3987.084
 70
    32
  0
VERTEX
  8
T12SSILL
 62
13
 10
812.060
 20
-1930.449
 30
3987.098
 70
    32
  0
VERTEX
  8
T12SSILL
 62
13
 10
812.241
 20
-1927.193
 30
3987.098
 70
    32
  0
VERTEX
  8
T12SSILL
 62
13
 10
805.129
 20
-1917.414
 30
3987.100
 70
    32
  0
VERTEX
  8
T12SSILL
 62
13
 10
799.058
 20
-1916.700
 30
3987.100
 70
    32
  0
VERTEX
  8
T12SSILL
 62
13
 10
794.216
 20
-1918.013
 30
3987.100
 70
    32
  0
VERTEX
  8
T12SSILL
 62
13
 10
776.445
 20
-1915.697
 30
3987.101
 70
    32
  0
VERTEX
  8
T12SSILL
 62
13
 10
753.187
 20
-1932.555
 30
3987.099
 70
    32
  0
SEQEND
  8
T12SSILL
  0
POLYLINE
  8
T12SSILL
 62
13
 66
     1
 70
     9
  0
VERTEX
  8
T12SSILL
 62
13
 10
860.131
 20
-2025.914
 30
3987.087
 70
    32
  0
VERTEX
  8
T12SSILL
 62
13
 10
886.733
 20
-2009.060
 30
3987.088
 70
    32
  0
VERTEX
  8
T12SSILL
 62
13
 10
887.975
 20
-2002.990
 30
3987.089
 70
    32
  0
VERTEX
  8
T12SSILL
 62
13
 10
885.958
 20
-1998.235
 30
3987.089
 70
    32
  0
VERTEX
  8
T12SSILL
 62
13
 10
879.812
 20
-1989.866
 30
3987.090
 70
    32
  0
VERTEX
  8
T12SSILL
 62
13
 10
872.336
 20
-1987.390
 30
3987.091
 70
    32
  0
VERTEX
  8
T12SSILL
 62
13
 10
861.005
 20
-1974.701
 30
3987.092
 70
    32
  0
VERTEX
  8
T12SSILL
 62
13
 10
842.329
 20
-1987.343
 30
3987.091
 70
    32
  0
SEQEND
  8
T12SSILL
  0
POLYLINE
  8
T12SSILL
 62
13
 66
     1
 70
     9
  0
VERTEX
  8
T12SSILL
 62
13
 10
823.398
 20
-1939.002
 30
3987.097
 70
    32
  0
VERTEX
  8
T12SSILL
 62
13
 10
850.004
 20
-1919.949
 30
3987.098
 70
    32
  0
VERTEX
  8
T12SSILL
 62
13
 10
853.429
 20
-1923.826
 30
3987.098
 70
    32
  0
VERTEX
  8
T12SSILL
 62
13
 10
853.424
 20
-1926.906
 30
3987.097
 70
    32
  0
VERTEX
  8
T12SSILL
 62
13
 10
851.400
 20
-1927.255
 30
3987.097
 70
    32
  0
VERTEX
  8
T12SSILL
 62
13
 10
852.269
 20
-1934.472
 30
3987.097
 70
    32
  0
VERTEX
  8
T12SSILL
 62
13
 10
856.656
 20
-1942.311
 30
3987.096
 70
    32
  0
VERTEX
  8
T12SSILL
 62
13
 10
855.581
 20
-1954.013
 30
3987.095
 70
    32
  0
VERTEX
  8
T12SSILL
 62
13
 10
859.174
 20
-1963.962
 30
3987.093
 70
    32
  0
VERTEX
  8
T12SSILL
 62
13
 10
857.231
 20
-1968.359
 30
3987.093
 70
    32
  0
VERTEX
  8
T12SSILL
 62
13
 10
843.926
 20
-1979.073
 30
3987.092
 70
    32
  0
VERTEX
  8
T12SSILL
 62
13
 10
839.441
 20
-1977.394
 30
3987.092
 70
    32
  0
SEQEND
  8
T12SSILL
  0
POLYLINE
  8
T12SSILL
 62
13
 66
     1
 70
     9
  0
VERTEX
  8
T12SSILL
 62
13
 10
1160.281
 20
-2632.322
 30
3986.527
 70
    32
  0
VERTEX
  8
T12SSILL
 62
13
 10
1158.857
 20
-2627.988
 30
3986.532
 70
    32
  0
VERTEX
  8
T12SSILL
 62
13
 10
1130.041
 20
-2598.655
 30
3986.590
 70
    32
  0
VERTEX
  8
T12SSILL
 62
13
 10
1124.233
 20
-2604.103
 30
3986.593
 70
    32
  0
VERTEX
  8
T12SSILL
 62
13
 10
1122.788
 20
-2606.366
 30
3986.593
 70
    32
  0
VERTEX
  8
T12SSILL
 62
13
 10
1125.409
 20
-2612.832
 30
3986.585
 70
    32
  0
VERTEX
  8
T12SSILL
 62
13
 10
1122.251
 20
-2617.619
 30
3986.585
 70
    32
  0
VERTEX
  8
T12SSILL
 62
13
 10
1121.071
 20
-2625.166
 30
3986.580
 70
    32
  0
VERTEX
  8
T12SSILL
 62
13
 10
1123.709
 20
-2630.577
 30
3986.572
 70
    32
  0
VERTEX
  8
T12SSILL
 62
13
 10
1127.403
 20
-2636.004
 30
3986.564
 70
    32
  0
VERTEX
  8
T12SSILL
 62
13
 10
1145.306
 20
-2649.496
 30
3986.531
 70
    32
  0
VERTEX
  8
T12SSILL
 62
13
 10
1146.801
 20
-2649.521
 30
3986.529
 70
    32
  0
VERTEX
  8
T12SSILL
 62
13
 10
1148.239
 20
-2647.697
 30
3986.529
 70
    32
  0
SEQEND
  8
T12SSILL
  0
POLYLINE
  8
T12SSILL
 62
13
 66
     1
 70
     9
  0
VERTEX
  8
T12SSILL
 62
13
 10
1112.710
 20
-2609.280
 30
3986.603
 70
    32
  0
VERTEX
  8
T12SSILL
 62
13
 10
1104.507
 20
-2615.920
 30
3986.608
 70
    32
  0
VERTEX
  8
T12SSILL
 62
13
 10
1104.739
 20
-2617.859
 30
3986.606
 70
    32
  0
VERTEX
  8
T12SSILL
 62
13
 10
1111.341
 20
-2622.983
 30
3986.594
 70
    32
  0
VERTEX
  8
T12SSILL
 62
13
 10
1114.245
 20
-2622.942
 30
3986.590
 70
    32
  0
VERTEX
  8
T12SSILL
 62
13
 10
1116.053
 20
-2619.981
 30
3986.590
 70
    32
  0
VERTEX
  8
T12SSILL
 62
13
 10
1116.189
 20
-2617.080
 30
3986.592
 70
    32
  0
SEQEND
  8
T12SSILL
  0
POLYLINE
  8
T12SSILL
 62
13
 66
     1
 70
     9
  0
VERTEX
  8
T12SSILL
 62
13
 10
1896.487
 20
-3157.896
 30
3986.118
 70
    32
  0
VERTEX
  8
T12SSILL
 62
13
 10
1929.839
 20
-3168.210
 30
3986.264
 70
    32
  0
VERTEX
  8
T12SSILL
 62
13
 10
1935.417
 20
-3166.015
 30
3986.284
 70
    32
  0
VERTEX
  8
T12SSILL
 62
13
 10
1942.359
 20
-3161.202
 30
3986.306
 70
    32
  0
VERTEX
  8
T12SSILL
 62
13
 10
1933.786
 20
-3152.879
 30
3986.261
 70
    32
  0
VERTEX
  8
T12SSILL
 62
13
 10
1931.675
 20
-3147.477
 30
3986.246
 70
    32
  0
VERTEX
  8
T12SSILL
 62
13
 10
1923.742
 20
-3148.402
 30
3986.216
 70
    32
  0
VERTEX
  8
T12SSILL
 62
13
 10
1913.347
 20
-3127.819
 30
3986.149
 70
    32
  0
VERTEX
  8
T12SSILL
 62
13
 10
1907.302
 20
-3120.857
 30
3986.117
 70
    32
  0
VERTEX
  8
T12SSILL
 62
13
 10
1898.818
 20
-3101.802
 30
3986.059
 70
    32
  0
VERTEX
  8
T12SSILL
 62
13
 10
1894.930
 20
-3081.414
 30
3986.019
 70
    32
  0
VERTEX
  8
T12SSILL
 62
13
 10
1868.585
 20
-3094.442
 30
3985.965
 70
    32
  0
VERTEX
  8
T12SSILL
 62
13
 10
1867.039
 20
-3097.496
 30
3985.972
 70
    32
  0
VERTEX
  8
T12SSILL
 62
13
 10
1867.789
 20
-3100.060
 30
3985.971
 70
    32
  0
SEQEND
  8
T12SSILL
  0
POLYLINE
  8
T12SSILL
 62
13
 66
     1
 70
     9
  0
VERTEX
  8
T12SSILL
 62
13
 10
1892.703
 20
-3072.403
 30
3985.999
 70
    32
  0
VERTEX
  8
T12SSILL
 62
13
 10
1886.082
 20
-3057.689
 30
3985.955
 70
    32
  0
VERTEX
  8
T12SSILL
 62
13
 10
1880.216
 20
-3039.909
 30
3985.910
 70
    32
  0
VERTEX
  8
T12SSILL
 62
13
 10
1869.246
 20
-3038.232
 30
3985.925
 70
    32
  0
VERTEX
  8
T12SSILL
 62
13
 10
1847.232
 20
-3055.379
 30
3985.995
 70
    32
  0
VERTEX
  8
T12SSILL
 62
13
 10
1859.561
 20
-3081.448
 30
3985.980
 70
    32
  0
VERTEX
  8
T12SSILL
 62
13
 10
1865.502
 20
-3084.009
 30
3985.966
 70
    32
  0
VERTEX
  8
T12SSILL
 62
13
 10
1869.636
 20
-3084.077
 30
3985.955
 70
    32
  0
SEQEND
  8
T12SSILL
  0
POLYLINE
  8
T12SSILL
 62
13
 66
     1
 70
     9
  0
VERTEX
  8
T12SSILL
 62
13
 10
1849.239
 20
-3045.734
 30
3985.983
 70
    32
  0
VERTEX
  8
T12SSILL
 62
13
 10
1858.502
 20
-3038.847
 30
3985.954
 70
    32
  0
VERTEX
  8
T12SSILL
 62
13
 10
1866.494
 20
-3029.037
 30
3985.926
 70
    32
  0
VERTEX
  8
T12SSILL
 62
13
 10
1865.565
 20
-3026.646
 30
3985.926
 70
    32
  0
VERTEX
  8
T12SSILL
 62
13
 10
1860.885
 20
-3022.346
 30
3985.936
 70
    32
  0
VERTEX
  8
T12SSILL
 62
13
 10
1861.295
 20
-3018.834
 30
3985.932
 70
    32
  0
VERTEX
  8
T12SSILL
 62
13
 10
1859.664
 20
-3016.343
 30
3985.935
 70
    32
  0
VERTEX
  8
T12SSILL
 62
13
 10
1857.549
 20
-3016.572
 30
3985.941
 70
    32
  0
VERTEX
  8
T12SSILL
 62
13
 10
1844.438
 20
-3027.354
 30
3985.983
 70
    32
  0
VERTEX
  8
T12SSILL
 62
13
 10
1839.835
 20
-3039.772
 30
3986.004
 70
    32
  0
SEQEND
  8
T12SSILL
  0
POLYLINE
  8
T12SSILL
 62
13
 66
     1
 70
     9
  0
VERTEX
  8
T12SSILL
 62
13
 10
1839.491
 20
-3017.859
 30
3985.990
 70
    32
  0
VERTEX
  8
T12SSILL
 62
13
 10
1832.442
 20
-3007.801
 30
3986.002
 70
    32
  0
VERTEX
  8
T12SSILL
 62
13
 10
1827.206
 20
-3005.251
 30
3986.014
 70
    32
  0
VERTEX
  8
T12SSILL
 62
13
 10
1821.657
 20
-3010.967
 30
3986.032
 70
    32
  0
VERTEX
  8
T12SSILL
 62
13
 10
1821.714
 20
-3012.815
 30
3986.034
 70
    32
  0
VERTEX
  8
T12SSILL
 62
13
 10
1829.688
 20
-3020.161
 30
3986.017
 70
    32
  0
VERTEX
  8
T12SSILL
 62
13
 10
1833.467
 20
-3025.766
 30
3986.011
 70
    32
  0
SEQEND
  8
T12SSILL
  0
POLYLINE
  8
T12SSILL
 62
13
 66
     1
 70
     9
  0
VERTEX
  8
T12SSILL
 62
13
 10
1814.534
 20
-3005.395
 30
3986.048
 70
    32
  0
VERTEX
  8
T12SSILL
 62
13
 10
1822.163
 20
-3001.561
 30
3986.025
 70
    32
  0
VERTEX
  8
T12SSILL
 62
13
 10
1809.963
 20
-2962.385
 30
3986.030
 70
    32
  0
VERTEX
  8
T12SSILL
 62
13
 10
1805.423
 20
-2960.198
 30
3986.040
 70
    32
  0
VERTEX
  8
T12SSILL
 62
13
 10
1787.498
 20
-2974.860
 30
3986.098
 70
    32
  0
VERTEX
  8
T12SSILL
 62
13
 10
1788.467
 20
-2980.155
 30
3986.099
 70
    32
  0
SEQEND
  8
T12SSILL
  0
POLYLINE
  8
T12SSILL
 62
13
 66
     1
 70
     9
  0
VERTEX
  8
T12SSILL
 62
13
 10
1778.064
 20
-2970.746
 30
3986.121
 70
    32
  0
VERTEX
  8
T12SSILL
 62
13
 10
1784.345
 20
-2968.650
 30
3986.102
 70
    32
  0
VERTEX
  8
T12SSILL
 62
13
 10
1796.518
 20
-2961.372
 30
3986.065
 70
    32
  0
VERTEX
  8
T12SSILL
 62
13
 10
1800.100
 20
-2952.192
 30
3986.049
 70
    32
  0
VERTEX
  8
T12SSILL
 62
13
 10
1791.666
 20
-2940.792
 30
3986.064
 70
    32
  0
VERTEX
  8
T12SSILL
 62
13
 10
1780.194
 20
-2932.157
 30
3986.088
 70
    32
  0
VERTEX
  8
T12SSILL
 62
13
 10
1776.347
 20
-2930.686
 30
3986.097
 70
    32
  0
VERTEX
  8
T12SSILL
 62
13
 10
1770.265
 20
-2931.378
 30
3986.114
 70
    32
  0
VERTEX
  8
T12SSILL
 62
13
 10
1761.313
 20
-2946.099
 30
3986.148
 70
    32
  0
VERTEX
  8
T12SSILL
 62
13
 10
1760.567
 20
-2948.639
 30
3986.152
 70
    32
  0
VERTEX
  8
T12SSILL
 62
13
 10
1761.964
 20
-2954.644
 30
3986.152
 70
    32
  0
SEQEND
  8
T12SSILL
  0
POLYLINE
  8
T12SSILL
 62
13
 66
     1
 70
     9
  0
VERTEX
  8
T12SSILL
 62
13
 10
1752.924
 20
-2942.618
 30
3986.168
 70
    32
  0
VERTEX
  8
T12SSILL
 62
13
 10
1758.064
 20
-2940.327
 30
3986.153
 70
    32
  0
VERTEX
  8
T12SSILL
 62
13
 10
1764.871
 20
-2927.682
 30
3986.126
 70
    32
  0
VERTEX
  8
T12SSILL
 62
13
 10
1764.953
 20
-2922.668
 30
3986.122
 70
    32
  0
VERTEX
  8
T12SSILL
 62
13
 10
1761.101
 20
-2916.182
 30
3986.128
 70
    32
  0
VERTEX
  8
T12SSILL
 62
13
 10
1757.556
 20
-2912.429
 30
3986.135
 70
    32
  0
VERTEX
  8
T12SSILL
 62
13
 10
1748.859
 20
-2916.948
 30
3986.161
 70
    32
  0
VERTEX
  8
T12SSILL
 62
13
 10
1745.029
 20
-2925.156
 30
3986.177
 70
    32
  0
VERTEX
  8
T12SSILL
 62
13
 10
1744.257
 20
-2929.278
 30
3986.182
 70
    32
  0
VERTEX
  8
T12SSILL
 62
13
 10
1745.364
 20
-2931.496
 30
3986.180
 70
    32
  0
SEQEND
  8
T12SSILL
  0
POLYLINE
  8
T12SSILL
 62
13
 66
     1
 70
     9
  0
VERTEX
  8
T12SSILL
 62
13
 10
1895.523
 20
-2986.580
 30
3985.906
 70
    32
  0
VERTEX
  8
T12SSILL
 62
13
 10
1892.428
 20
-2987.496
 30
3985.895
 70
    32
  0
VERTEX
  8
T12SSILL
 62
13
 10
1879.058
 20
-2998.010
 30
3985.871
 70
    32
  0
VERTEX
  8
T12SSILL
 62
13
 10
1887.250
 20
-3008.087
 30
3985.899
 70
    32
  0
VERTEX
  8
T12SSILL
 62
13
 10
1901.470
 20
-2999.435
 30
3985.946
 70
    32
  0
VERTEX
  8
T12SSILL
 62
13
 10
1902.292
 20
-2997.601
 30
3985.947
 70
    32
  0
SEQEND
  8
T12SSILL
  0
POLYLINE
  8
T12SSILL
 62
13
 66
     1
 70
     9
  0
VERTEX
  8
T12SSILL
 62
13
 10
1929.339
 20
-2957.926
 30
3986.007
 70
    32
  0
VERTEX
  8
T12SSILL
 62
13
 10
1923.998
 20
-2967.076
 30
3985.996
 70
    32
  0
VERTEX
  8
T12SSILL
 62
13
 10
1921.767
 20
-2968.975
 30
3985.990
 70
    32
  0
VERTEX
  8
T12SSILL
 62
13
 10
1905.082
 20
-2977.763
 30
3985.934
 70
    32
  0
VERTEX
  8
T12SSILL
 62
13
 10
1899.735
 20
-2981.898
 30
3985.917
 70
    32
  0
VERTEX
  8
T12SSILL
 62
13
 10
1909.193
 20
-2995.251
 30
3985.971
 70
    32
  0
VERTEX
  8
T12SSILL
 62
13
 10
1914.837
 20
-2994.464
 30
3985.993
 70
    32
  0
VERTEX
  8
T12SSILL
 62
13
 10
1929.231
 20
-2985.902
 30
3986.040
 70
    32
  0
VERTEX
  8
T12SSILL
 62
13
 10
1936.037
 20
-2978.624
 30
3986.059
 70
    32
  0
VERTEX
  8
T12SSILL
 62
13
 10
1942.548
 20
-2967.909
 30
3986.072
 70
    32
  0
VERTEX
  8
T12SSILL
 62
13
 10
1939.718
 20
-2963.464
 30
3986.055
 70
    32
  0
SEQEND
  8
T12SSILL
  0
POLYLINE
  8
T12SSILL
 62
13
 66
     1
 70
     9
  0
VERTEX
  8
T12SSILL
 62
13
 10
1865.478
 20
-2919.659
 30
3985.852
 70
    32
  0
VERTEX
  8
T12SSILL
 62
13
 10
1853.061
 20
-2931.068
 30
3985.893
 70
    32
  0
VERTEX
  8
T12SSILL
 62
13
 10
1856.766
 20
-2935.792
 30
3985.887
 70
    32
  0
VERTEX
  8
T12SSILL
 62
13
 10
1873.060
 20
-2934.741
 30
3985.843
 70
    32
  0
VERTEX
  8
T12SSILL
 62
13
 10
1877.244
 20
-2931.818
 30
3985.830
 70
    32
  0
SEQEND
  8
T12SSILL
  0
POLYLINE
  8
T12SSILL
 62
13
 66
     1
 70
     9
  0
VERTEX
  8
T12SSILL
 62
13
 10
1884.744
 20
-671.920
 30
3987.368
 70
    32
  0
VERTEX
  8
T12SSILL
 62
13
 10
1960.415
 20
-690.640
 30
3987.357
 70
    32
  0
VERTEX
  8
T12SSILL
 62
13
 10
1967.129
 20
-660.287
 30
3987.356
 70
    32
  0
VERTEX
  8
T12SSILL
 62
13
 10
1964.748
 20
-620.748
 30
3987.355
 70
    32
  0
VERTEX
  8
T12SSILL
 62
13
 10
1970.451
 20
-618.788
 30
3987.354
 70
    32
  0
VERTEX
  8
T12SSILL
 62
13
 10
1990.956
 20
-624.405
 30
3987.351
 70
    32
  0
VERTEX
  8
T12SSILL
 62
13
 10
1996.312
 20
-623.325
 30
3987.351
 70
    32
  0
VERTEX
  8
T12SSILL
 62
13
 10
2011.640
 20
-630.988
 30
3987.348
 70
    32
  0
VERTEX
  8
T12SSILL
 62
13
 10
2013.803
 20
-623.595
 30
3987.348
 70
    32
  0
VERTEX
  8
T12SSILL
 62
13
 10
2013.778
 20
-618.146
 30
3987.348
 70
    32
  0
VERTEX
  8
T12SSILL
 62
13
 10
2011.923
 20
-616.134
 30
3987.348
 70
    32
  0
VERTEX
  8
T12SSILL
 62
13
 10
2007.826
 20
-614.593
 30
3987.349
 70
    32
  0
VERTEX
  8
T12SSILL
 62
13
 10
2002.987
 20
-603.519
 30
3987.349
 70
    32
  0
VERTEX
  8
T12SSILL
 62
13
 10
1990.805
 20
-591.975
 30
3987.351
 70
    32
  0
VERTEX
  8
T12SSILL
 62
13
 10
1990.853
 20
-583.449
 30
3987.350
 70
    32
  0
VERTEX
  8
T12SSILL
 62
13
 10
1938.887
 20
-597.226
 30
3987.359
 70
    32
  0
SEQEND
  8
T12SSILL
  0
POLYLINE
  8
T12SSILL
 62
13
 66
     1
 70
     9
  0
VERTEX
  8
T12SSILL
 62
13
 10
457.722
 20
-1503.065
 30
3987.169
 70
    32
  0
VERTEX
  8
T12SSILL
 62
13
 10
473.593
 20
-1492.014
 30
3987.171
 70
    32
  0
VERTEX
  8
T12SSILL
 62
13
 10
460.776
 20
-1474.127
 30
3987.173
 70
    32
  0
VERTEX
  8
T12SSILL
 62
13
 10
452.501
 20
-1471.522
 30
3987.173
 70
    32
  0
VERTEX
  8
T12SSILL
 62
13
 10
406.207
 20
-1504.495
 30
3987.166
 70
    32
  0
VERTEX
  8
T12SSILL
 62
13
 10
406.315
 20
-1509.682
 30
3987.165
 70
    32
  0
VERTEX
  8
T12SSILL
 62
13
 10
422.938
 20
-1533.971
 30
3987.163
 70
    32
  0
VERTEX
  8
T12SSILL
 62
13
 10
424.588
 20
-1551.461
 30
3987.160
 70
    32
  0
VERTEX
  8
T12SSILL
 62
13
 10
488.846
 20
-1548.487
 30
3987.163
 70
    32
  0
VERTEX
  8
T12SSILL
 62
13
 10
492.553
 20
-1529.570
 30
3987.166
 70
    32
  0
VERTEX
  8
T12SSILL
 62
13
 10
491.991
 20
-1520.692
 30
3987.168
 70
    32
  0
VERTEX
  8
T12SSILL
 62
13
 10
490.035
 20
-1514.985
 30
3987.169
 70
    32
  0
VERTEX
  8
T12SSILL
 62
13
 10
478.456
 20
-1499.028
 30
3987.170
 70
    32
  0
VERTEX
  8
T12SSILL
 62
13
 10
463.815
 20
-1509.899
 30
3987.168
 70
    32
  0
SEQEND
  8
T12SSILL
  0
POLYLINE
  8
T12SSILL
 62
13
 66
     1
 70
     9
  0
VERTEX
  8
T12SSILL
 62
13
 10
704.182
 20
-1906.351
 30
3987.103
 70
    32
  0
VERTEX
  8
T12SSILL
 62
13
 10
679.933
 20
-1876.392
 30
3987.107
 70
    32
  0
VERTEX
  8
T12SSILL
 62
13
 10
672.645
 20
-1878.618
 30
3987.107
 70
    32
  0
VERTEX
  8
T12SSILL
 62
13
 10
659.483
 20
-1885.439
 30
3987.107
 70
    32
  0
VERTEX
  8
T12SSILL
 62
13
 10
652.397
 20
-1894.522
 30
3987.106
 70
    32
  0
VERTEX
  8
T12SSILL
 62
13
 10
659.584
 20
-1911.639
 30
3987.104
 70
    32
  0
VERTEX
  8
T12SSILL
 62
13
 10
669.243
 20
-1929.342
 30
3987.102
 70
    32
  0
VERTEX
  8
T12SSILL
 62
13
 10
679.806
 20
-1927.071
 30
3987.102
 70
    32
  0
VERTEX
  8
T12SSILL
 62
13
 10
701.742
 20
-1911.354
 30
3987.103
 70
    32
  0
SEQEND
  8
T12SSILL
  0
POLYLINE
  8
T12SSILL
 62
13
 66
     1
 70
     9
  0
VERTEX
  8
T12SSILL
 62
13
 10
923.093
 20
-1858.838
 30
3987.103
 70
    32
  0
VERTEX
  8
T12SSILL
 62
13
 10
852.381
 20
-1908.695
 30
3987.099
 70
    32
  0
VERTEX
  8
T12SSILL
 62
13
 10
822.001
 20
-1931.960
 30
3987.098
 70
    32
  0
VERTEX
  8
T12SSILL
 62
13
 10
816.570
 20
-1916.640
 30
3987.099
 70
    32
  0
VERTEX
  8
T12SSILL
 62
13
 10
811.306
 20
-1906.512
 30
3987.101
 70
    32
  0
VERTEX
  8
T12SSILL
 62
13
 10
797.079
 20
-1888.802
 30
3987.103
 70
    32
  0
VERTEX
  8
T12SSILL
 62
13
 10
784.649
 20
-1877.218
 30
3987.104
 70
    32
  0
VERTEX
  8
T12SSILL
 62
13
 10
777.425
 20
-1873.465
 30
3987.105
 70
    32
  0
VERTEX
  8
T12SSILL
 62
13
 10
885.622
 20
-1796.820
 30
3987.110
 70
    32
  0
VERTEX
  8
T12SSILL
 62
13
 10
898.348
 20
-1813.915
 30
3987.108
 70
    32
  0
VERTEX
  8
T12SSILL
 62
13
 10
897.042
 20
-1817.173
 30
3987.108
 70
    32
  0
VERTEX
  8
T12SSILL
 62
13
 10
890.308
 20
-1826.431
 30
3987.107
 70
    32
  0
VERTEX
  8
T12SSILL
 62
13
 10
881.008
 20
-1831.566
 30
3987.107
 70
    32
  0
VERTEX
  8
T12SSILL
 62
13
 10
876.901
 20
-1838.088
 30
3987.106
 70
    32
  0
VERTEX
  8
T12SSILL
 62
13
 10
862.937
 20
-1850.492
 30
3987.105
 70
    32
  0
VERTEX
  8
T12SSILL
 62
13
 10
860.880
 20
-1855.734
 30
3987.105
 70
    32
  0
VERTEX
  8
T12SSILL
 62
13
 10
864.059
 20
-1859.327
 30
3987.104
 70
    32
  0
VERTEX
  8
T12SSILL
 62
13
 10
866.612
 20
-1860.108
 30
3987.104
 70
    32
  0
VERTEX
  8
T12SSILL
 62
13
 10
869.682
 20
-1858.250
 30
3987.104
 70
    32
  0
VERTEX
  8
T12SSILL
 62
13
 10
873.974
 20
-1854.013
 30
3987.105
 70
    32
  0
VERTEX
  8
T12SSILL
 62
13
 10
881.930
 20
-1842.553
 30
3987.106
 70
    32
  0
VERTEX
  8
T12SSILL
 62
13
 10
894.284
 20
-1831.515
 30
3987.106
 70
    32
  0
VERTEX
  8
T12SSILL
 62
13
 10
900.772
 20
-1826.742
 30
3987.107
 70
    32
  0
VERTEX
  8
T12SSILL
 62
13
 10
904.460
 20
-1825.673
 30
3987.107
 70
    32
  0
VERTEX
  8
T12SSILL
 62
13
 10
907.187
 20
-1825.926
 30
3987.107
 70
    32
  0
VERTEX
  8
T12SSILL
 62
13
 10
923.954
 20
-1850.843
 30
3987.104
 70
    32
  0
SEQEND
  8
T12SSILL
  0
POLYLINE
  8
T12SSILL
 62
13
 66
     1
 70
     9
  0
VERTEX
  8
T12SSILL
 62
13
 10
1232.335
 20
-1217.058
 30
3986.731
 70
    32
  0
VERTEX
  8
T12SSILL
 62
13
 10
1213.428
 20
-1176.981
 30
3986.548
 70
    32
  0
VERTEX
  8
T12SSILL
 62
13
 10
1210.060
 20
-1171.020
 30
3986.520
 70
    32
  0
VERTEX
  8
T12SSILL
 62
13
 10
1205.378
 20
-1165.944
 30
3986.496
 70
    32
  0
VERTEX
  8
T12SSILL
 62
13
 10
1168.778
 20
-1138.694
 30
3986.362
 70
    32
  0
VERTEX
  8
T12SSILL
 62
13
 10
1152.865
 20
-1137.625
 30
3986.351
 70
    32
  0
VERTEX
  8
T12SSILL
 62
13
 10
1142.212
 20
-1133.720
 30
3986.330
 70
    32
  0
VERTEX
  8
T12SSILL
 62
13
 10
1132.042
 20
-1120.232
 30
3986.276
 70
    32
  0
VERTEX
  8
T12SSILL
 62
13
 10
1125.779
 20
-1115.340
 30
3986.299
 70
    32
  0
VERTEX
  8
T12SSILL
 62
13
 10
1120.850
 20
-1113.868
 30
3986.312
 70
    32
  0
VERTEX
  8
T12SSILL
 62
13
 10
1118.041
 20
-1114.585
 30
3986.318
 70
    32
  0
VERTEX
  8
T12SSILL
 62
13
 10
1106.043
 20
-1123.693
 30
3986.332
 70
    32
  0
VERTEX
  8
T12SSILL
 62
13
 10
1101.537
 20
-1118.617
 30
3986.350
 70
    32
  0
VERTEX
  8
T12SSILL
 62
13
 10
1111.780
 20
-1109.956
 30
3986.340
 70
    32
  0
VERTEX
  8
T12SSILL
 62
13
 10
1109.218
 20
-1107.243
 30
3986.350
 70
    32
  0
VERTEX
  8
T12SSILL
 62
13
 10
1099.973
 20
-1103.595
 30
3986.377
 70
    32
  0
VERTEX
  8
T12SSILL
 62
13
 10
1091.536
 20
-1103.722
 30
3986.397
 70
    32
  0
VERTEX
  8
T12SSILL
 62
13
 10
1083.552
 20
-1106.747
 30
3986.411
 70
    32
  0
VERTEX
  8
T12SSILL
 62
13
 10
1027.809
 20
-1139.877
 30
3986.489
 70
    32
  0
VERTEX
  8
T12SSILL
 62
13
 10
1014.650
 20
-1145.036
 30
3986.511
 70
    32
  0
VERTEX
  8
T12SSILL
 62
13
 10
1009.110
 20
-1144.447
 30
3986.525
 70
    32
  0
VERTEX
  8
T12SSILL
 62
13
 10
645.608
 20
-1344.170
 30
3987.061
 70
    32
  0
VERTEX
  8
T12SSILL
 62
13
 10
558.890
 20
-1404.995
 30
3987.186
 70
    32
  0
VERTEX
  8
T12SSILL
 62
13
 10
511.851
 20
-1427.069
 30
3987.182
 70
    32
  0
VERTEX
  8
T12SSILL
 62
13
 10
465.299
 20
-1461.625
 30
3987.175
 70
    32
  0
VERTEX
  8
T12SSILL
 62
13
 10
465.216
 20
-1462.769
 30
3987.175
 70
    32
  0
VERTEX
  8
T12SSILL
 62
13
 10
546.266
 20
-1574.240
 30
3987.154
 70
    32
  0
VERTEX
  8
T12SSILL
 62
13
 10
568.695
 20
-1598.468
 30
3987.148
 70
    32
  0
VERTEX
  8
T12SSILL
 62
13
 10
577.189
 20
-1612.503
 30
3987.145
 70
    32
  0
VERTEX
  8
T12SSILL
 62
13
 10
580.187
 20
-1614.689
 30
3987.144
 70
    32
  0
VERTEX
  8
T12SSILL
 62
13
 10
583.992
 20
-1620.917
 30
3987.143
 70
    32
  0
VERTEX
  8
T12SSILL
 62
13
 10
594.895
 20
-1643.997
 30
3987.138
 70
    32
  0
VERTEX
  8
T12SSILL
 62
13
 10
601.971
 20
-1654.960
 30
3987.135
 70
    32
  0
VERTEX
  8
T12SSILL
 62
13
 10
605.765
 20
-1658.374
 30
3987.134
 70
    32
  0
VERTEX
  8
T12SSILL
 62
13
 10
612.670
 20
-1670.656
 30
3987.131
 70
    32
  0
VERTEX
  8
T12SSILL
 62
13
 10
618.060
 20
-1677.493
 30
3987.130
 70
    32
  0
VERTEX
  8
T12SSILL
 62
13
 10
627.227
 20
-1683.524
 30
3987.129
 70
    32
  0
VERTEX
  8
T12SSILL
 62
13
 10
631.819
 20
-1688.781
 30
3987.128
 70
    32
  0
VERTEX
  8
T12SSILL
 62
13
 10
633.051
 20
-1689.040
 30
3987.128
 70
    32
  0
VERTEX
  8
T12SSILL
 62
13
 10
643.658
 20
-1680.999
 30
3987.129
 70
    32
  0
VERTEX
  8
T12SSILL
 62
13
 10
656.945
 20
-1684.024
 30
3987.128
 70
    32
  0
VERTEX
  8
T12SSILL
 62
13
 10
660.386
 20
-1687.000
 30
3987.128
 70
    32
  0
VERTEX
  8
T12SSILL
 62
13
 10
659.969
 20
-1692.893
 30
3987.127
 70
    32
  0
VERTEX
  8
T12SSILL
 62
13
 10
663.141
 20
-1694.639
 30
3987.127
 70
    32
  0
VERTEX
  8
T12SSILL
 62
13
 10
667.837
 20
-1704.116
 30
3987.126
 70
    32
  0
VERTEX
  8
T12SSILL
 62
13
 10
673.848
 20
-1712.445
 30
3987.124
 70
    32
  0
VERTEX
  8
T12SSILL
 62
13
 10
674.476
 20
-1715.696
 30
3987.124
 70
    32
  0
VERTEX
  8
T12SSILL
 62
13
 10
670.862
 20
-1736.107
 30
3987.122
 70
    32
  0
VERTEX
  8
T12SSILL
 62
13
 10
670.204
 20
-1747.715
 30
3987.121
 70
    32
  0
VERTEX
  8
T12SSILL
 62
13
 10
679.057
 20
-1763.594
 30
3987.119
 70
    32
  0
VERTEX
  8
T12SSILL
 62
13
 10
682.040
 20
-1762.000
 30
3987.119
 70
    32
  0
VERTEX
  8
T12SSILL
 62
13
 10
686.198
 20
-1768.578
 30
3987.118
 70
    32
  0
VERTEX
  8
T12SSILL
 62
13
 10
686.915
 20
-1772.004
 30
3987.118
 70
    32
  0
VERTEX
  8
T12SSILL
 62
13
 10
701.595
 20
-1794.103
 30
3987.115
 70
    32
  0
VERTEX
  8
T12SSILL
 62
13
 10
720.357
 20
-1780.491
 30
3987.116
 70
    32
  0
VERTEX
  8
T12SSILL
 62
13
 10
728.663
 20
-1791.097
 30
3987.115
 70
    32
  0
VERTEX
  8
T12SSILL
 62
13
 10
739.018
 20
-1808.817
 30
3987.113
 70
    32
  0
VERTEX
  8
T12SSILL
 62
13
 10
747.546
 20
-1831.555
 30
3987.110
 70
    32
  0
VERTEX
  8
T12SSILL
 62
13
 10
748.175
 20
-1835.157
 30
3987.110
 70
    32
  0
VERTEX
  8
T12SSILL
 62
13
 10
741.689
 20
-1840.194
 30
3987.109
 70
    32
  0
VERTEX
  8
T12SSILL
 62
13
 10
761.117
 20
-1862.450
 30
3987.107
 70
    32
  0
VERTEX
  8
T12SSILL
 62
13
 10
767.107
 20
-1865.329
 30
3987.106
 70
    32
  0
VERTEX
  8
T12SSILL
 62
13
 10
770.815
 20
-1869.359
 30
3987.106
 70
    32
  0
VERTEX
  8
T12SSILL
 62
13
 10
1324.666
 20
-1471.489
 30
3987.133
 70
    32
  0
VERTEX
  8
T12SSILL
 62
13
 10
1368.053
 20
-1482.575
 30
3987.131
 70
    32
  0
SEQEND
  8
T12SSILL
  0
POLYLINE
  8
T12SSILL
 62
13
 66
     1
 70
     9
  0
VERTEX
  8
T12SSILL
 62
13
 10
1007.902
 20
-1769.971
 30
3987.110
 70
    32
  0
VERTEX
  8
T12SSILL
 62
13
 10
1017.670
 20
-1772.131
 30
3987.109
 70
    32
  0
VERTEX
  8
T12SSILL
 62
13
 10
1032.205
 20
-1779.636
 30
3987.108
 70
    32
  0
VERTEX
  8
T12SSILL
 62
13
 10
1042.373
 20
-1771.596
 30
3987.109
 70
    32
  0
VERTEX
  8
T12SSILL
 62
13
 10
1028.310
 20
-1750.022
 30
3987.112
 70
    32
  0
VERTEX
  8
T12SSILL
 62
13
 10
1003.278
 20
-1716.200
 30
3987.116
 70
    32
  0
VERTEX
  8
T12SSILL
 62
13
 10
1000.433
 20
-1718.344
 30
3987.116
 70
    32
  0
VERTEX
  8
T12SSILL
 62
13
 10
999.017
 20
-1716.465
 30
3987.116
 70
    32
  0
VERTEX
  8
T12SSILL
 62
13
 10
948.749
 20
-1751.561
 30
3987.113
 70
    32
  0
VERTEX
  8
T12SSILL
 62
13
 10
947.005
 20
-1755.348
 30
3987.113
 70
    32
  0
VERTEX
  8
T12SSILL
 62
13
 10
967.646
 20
-1772.940
 30
3987.111
 70
    32
  0
VERTEX
  8
T12SSILL
 62
13
 10
979.003
 20
-1776.941
 30
3987.110
 70
    32
  0
VERTEX
  8
T12SSILL
 62
13
 10
982.113
 20
-1785.369
 30
3987.109
 70
    32
  0
VERTEX
  8
T12SSILL
 62
13
 10
980.863
 20
-1803.046
 30
3987.107
 70
    32
  0
VERTEX
  8
T12SSILL
 62
13
 10
985.646
 20
-1812.171
 30
3987.106
 70
    32
  0
VERTEX
  8
T12SSILL
 62
13
 10
1021.860
 20
-1787.062
 30
3987.108
 70
    32
  0
VERTEX
  8
T12SSILL
 62
13
 10
1019.734
 20
-1782.938
 30
3987.108
 70
    32
  0
VERTEX
  8
T12SSILL
 62
13
 10
1016.471
 20
-1780.488
 30
3987.109
 70
    32
  0
VERTEX
  8
T12SSILL
 62
13
 10
1006.787
 20
-1777.097
 30
3987.109
 70
    32
  0
SEQEND
  8
T12SSILL
  0
POLYLINE
  8
T12SSILL
 62
13
 66
     1
 70
     9
  0
VERTEX
  8
T12SSILL
 62
13
 10
866.970
 20
-1907.232
 30
3987.099
 70
    32
  0
VERTEX
  8
T12SSILL
 62
13
 10
860.039
 20
-1917.853
 30
3987.098
 70
    32
  0
VERTEX
  8
T12SSILL
 62
13
 10
859.939
 20
-1925.421
 30
3987.097
 70
    32
  0
VERTEX
  8
T12SSILL
 62
13
 10
862.463
 20
-1942.760
 30
3987.096
 70
    32
  0
VERTEX
  8
T12SSILL
 62
13
 10
875.123
 20
-1949.996
 30
3987.094
 70
    32
  0
VERTEX
  8
T12SSILL
 62
13
 10
879.697
 20
-1951.587
 30
3987.094
 70
    32
  0
VERTEX
  8
T12SSILL
 62
13
 10
883.131
 20
-1950.272
 30
3987.094
 70
    32
  0
VERTEX
  8
T12SSILL
 62
13
 10
898.197
 20
-1938.329
 30
3987.095
 70
    32
  0
VERTEX
  8
T12SSILL
 62
13
 10
899.023
 20
-1917.035
 30
3987.097
 70
    32
  0
VERTEX
  8
T12SSILL
 62
13
 10
904.497
 20
-1903.306
 30
3987.099
 70
    32
  0
VERTEX
  8
T12SSILL
 62
13
 10
899.946
 20
-1886.091
 30
3987.101
 70
    32
  0
VERTEX
  8
T12SSILL
 62
13
 10
897.397
 20
-1886.101
 30
3987.101
 70
    32
  0
SEQEND
  8
T12SSILL
  0
POLYLINE
  8
T12SSILL
 62
13
 66
     1
 70
     9
  0
VERTEX
  8
T12SSILL
 62
13
 10
1160.217
 20
-1773.433
 30
3987.106
 70
    32
  0
VERTEX
  8
T12SSILL
 62
13
 10
1164.165
 20
-1822.910
 30
3987.100
 70
    32
  0
VERTEX
  8
T12SSILL
 62
13
 10
1171.899
 20
-1845.036
 30
3987.098
 70
    32
  0
VERTEX
  8
T12SSILL
 62
13
 10
1173.733
 20
-1864.635
 30
3987.096
 70
    32
  0
VERTEX
  8
T12SSILL
 62
13
 10
1179.919
 20
-1895.471
 30
3987.092
 70
    32
  0
VERTEX
  8
T12SSILL
 62
13
 10
1179.968
 20
-1908.043
 30
3987.086
 70
    32
  0
VERTEX
  8
T12SSILL
 62
13
 10
1181.391
 20
-1911.452
 30
3987.082
 70
    32
  0
VERTEX
  8
T12SSILL
 62
13
 10
1477.994
 20
-1697.817
 30
3986.894
 70
    32
  0
VERTEX
  8
T12SSILL
 62
13
 10
1372.571
 20
-1491.525
 30
3987.130
 70
    32
  0
VERTEX
  8
T12SSILL
 62
13
 10
1327.073
 20
-1480.096
 30
3987.132
 70
    32
  0
VERTEX
  8
T12SSILL
 62
13
 10
1091.316
 20
-1650.517
 30
3987.120
 70
    32
  0
VERTEX
  8
T12SSILL
 62
13
 10
1124.085
 20
-1689.691
 30
3987.115
 70
    32
  0
VERTEX
  8
T12SSILL
 62
13
 10
1139.949
 20
-1699.476
 30
3987.114
 70
    32
  0
VERTEX
  8
T12SSILL
 62
13
 10
1153.478
 20
-1719.557
 30
3987.112
 70
    32
  0
VERTEX
  8
T12SSILL
 62
13
 10
1156.690
 20
-1731.590
 30
3987.110
 70
    32
  0
VERTEX
  8
T12SSILL
 62
13
 10
1160.128
 20
-1771.566
 30
3987.106
 70
    32
  0
SEQEND
  8
T12SSILL
  0
POLYLINE
  8
T12SSILL
 62
13
 66
     1
 70
     9
  0
VERTEX
  8
T12SSILL
 62
13
 10
1139.094
 20
-1910.399
 30
3987.092
 70
    32
  0
VERTEX
  8
T12SSILL
 62
13
 10
1109.648
 20
-1866.729
 30
3987.097
 70
    32
  0
VERTEX
  8
T12SSILL
 62
13
 10
1104.350
 20
-1860.771
 30
3987.098
 70
    32
  0
VERTEX
  8
T12SSILL
 62
13
 10
1091.626
 20
-1867.238
 30
3987.098
 70
    32
  0
VERTEX
  8
T12SSILL
 62
13
 10
1089.352
 20
-1870.148
 30
3987.097
 70
    32
  0
VERTEX
  8
T12SSILL
 62
13
 10
1098.385
 20
-1887.082
 30
3987.095
 70
    32
  0
VERTEX
  8
T12SSILL
 62
13
 10
1114.826
 20
-1909.878
 30
3987.093
 70
    32
  0
VERTEX
  8
T12SSILL
 62
13
 10
1133.210
 20
-1940.823
 30
3987.089
 70
    32
  0
VERTEX
  8
T12SSILL
 62
13
 10
1136.635
 20
-1944.612
 30
3987.088
 70
    32
  0
VERTEX
  8
T12SSILL
 62
13
 10
1153.372
 20
-1931.617
 30
3987.089
 70
    32
  0
VERTEX
  8
T12SSILL
 62
13
 10
1147.492
 20
-1922.722
 30
3987.090
 70
    32
  0
SEQEND
  8
T12SSILL
  0
POLYLINE
  8
T12SSILL
 62
13
 66
     1
 70
     9
  0
VERTEX
  8
T12SSILL
 62
13
 10
1159.650
 20
-1903.470
 30
3987.092
 70
    32
  0
VERTEX
  8
T12SSILL
 62
13
 10
1151.945
 20
-1891.359
 30
3987.094
 70
    32
  0
VERTEX
  8
T12SSILL
 62
13
 10
1144.800
 20
-1885.320
 30
3987.094
 70
    32
  0
VERTEX
  8
T12SSILL
 62
13
 10
1135.322
 20
-1866.981
 30
3987.097
 70
    32
  0
VERTEX
  8
T12SSILL
 62
13
 10
1129.900
 20
-1851.880
 30
3987.098
 70
    32
  0
VERTEX
  8
T12SSILL
 62
13
 10
1126.718
 20
-1847.496
 30
3987.099
 70
    32
  0
VERTEX
  8
T12SSILL
 62
13
 10
1112.507
 20
-1855.816
 30
3987.098
 70
    32
  0
VERTEX
  8
T12SSILL
 62
13
 10
1112.690
 20
-1857.661
 30
3987.098
 70
    32
  0
VERTEX
  8
T12SSILL
 62
13
 10
1114.641
 20
-1862.050
 30
3987.098
 70
    32
  0
VERTEX
  8
T12SSILL
 62
13
 10
1150.349
 20
-1910.707
 30
3987.092
 70
    32
  0
VERTEX
  8
T12SSILL
 62
13
 10
1159.978
 20
-1927.141
 30
3987.090
 70
    32
  0
VERTEX
  8
T12SSILL
 62
13
 10
1164.382
 20
-1924.156
 30
3987.090
 70
    32
  0
VERTEX
  8
T12SSILL
 62
13
 10
1165.532
 20
-1920.199
 30
3987.090
 70
    32
  0
VERTEX
  8
T12SSILL
 62
13
 10
1162.287
 20
-1913.595
 30
3987.091
 70
    32
  0
VERTEX
  8
T12SSILL
 62
13
 10
1160.276
 20
-1905.673
 30
3987.092
 70
    32
  0
SEQEND
  8
T12SSILL
  0
POLYLINE
  8
T12SSILL
 62
13
 66
     1
 70
     9
  0
VERTEX
  8
T12SSILL
 62
13
 10
840.765
 20
-2154.059
 30
3987.074
 70
    32
  0
VERTEX
  8
T12SSILL
 62
13
 10
879.509
 20
-2125.293
 30
3987.076
 70
    32
  0
VERTEX
  8
T12SSILL
 62
13
 10
883.222
 20
-2114.739
 30
3987.077
 70
    32
  0
VERTEX
  8
T12SSILL
 62
13
 10
883.862
 20
-2099.341
 30
3987.079
 70
    32
  0
VERTEX
  8
T12SSILL
 62
13
 10
866.853
 20
-2060.331
 30
3987.083
 70
    32
  0
VERTEX
  8
T12SSILL
 62
13
 10
773.122
 20
-2124.685
 30
3987.079
 70
    32
  0
VERTEX
  8
T12SSILL
 62
13
 10
767.393
 20
-2130.043
 30
3987.078
 70
    32
  0
VERTEX
  8
T12SSILL
 62
13
 10
761.396
 20
-2138.746
 30
3987.078
 70
    32
  0
VERTEX
  8
T12SSILL
 62
13
 10
764.251
 20
-2169.373
 30
3987.074
 70
    32
  0
VERTEX
  8
T12SSILL
 62
13
 10
768.553
 20
-2175.716
 30
3987.073
 70
    32
  0
VERTEX
  8
T12SSILL
 62
13
 10
775.494
 20
-2182.591
 30
3987.073
 70
    32
  0
VERTEX
  8
T12SSILL
 62
13
 10
786.573
 20
-2188.152
 30
3987.072
 70
    32
  0
VERTEX
  8
T12SSILL
 62
13
 10
799.774
 20
-2187.117
 30
3987.071
 70
    32
  0
VERTEX
  8
T12SSILL
 62
13
 10
805.938
 20
-2184.223
 30
3987.072
 70
    32
  0
VERTEX
  8
T12SSILL
 62
13
 10
815.107
 20
-2173.326
 30
3987.073
 70
    32
  0
VERTEX
  8
T12SSILL
 62
13
 10
826.562
 20
-2163.928
 30
3987.073
 70
    32
  0
SEQEND
  8
T12SSILL
  0
POLYLINE
  8
T12SSILL
 62
13
 66
     1
 70
     9
  0
VERTEX
  8
T12SSILL
 62
13
 10
1725.406
 20
-2883.081
 30
3986.200
 70
    32
  0
VERTEX
  8
T12SSILL
 62
13
 10
1719.754
 20
-2887.529
 30
3986.218
 70
    32
  0
VERTEX
  8
T12SSILL
 62
13
 10
1719.203
 20
-2890.594
 30
3986.222
 70
    32
  0
VERTEX
  8
T12SSILL
 62
13
 10
1738.259
 20
-2919.502
 30
3986.191
 70
    32
  0
VERTEX
  8
T12SSILL
 62
13
 10
1744.049
 20
-2915.198
 30
3986.173
 70
    32
  0
VERTEX
  8
T12SSILL
 62
13
 10
1747.125
 20
-2910.057
 30
3986.161
 70
    32
  0
VERTEX
  8
T12SSILL
 62
13
 10
1747.059
 20
-2908.011
 30
3986.160
 70
    32
  0
SEQEND
  8
T12SSILL
  0
POLYLINE
  8
T12SSILL
 62
13
 66
     1
 70
     9
  0
VERTEX
  8
T12SSILL
 62
13
 10
1727.574
 20
-2870.574
 30
3986.186
 70
    32
  0
VERTEX
  8
T12SSILL
 62
13
 10
1723.469
 20
-2850.544
 30
3986.183
 70
    32
  0
VERTEX
  8
T12SSILL
 62
13
 10
1712.090
 20
-2830.913
 30
3986.199
 70
    32
  0
VERTEX
  8
T12SSILL
 62
13
 10
1708.497
 20
-2830.062
 30
3986.206
 70
    32
  0
VERTEX
  8
T12SSILL
 62
13
 10
1682.411
 20
-2848.725
 30
3986.286
 70
    32
  0
VERTEX
  8
T12SSILL
 62
13
 10
1691.922
 20
-2853.545
 30
3986.269
 70
    32
  0
VERTEX
  8
T12SSILL
 62
13
 10
1696.176
 20
-2857.046
 30
3986.260
 70
    32
  0
VERTEX
  8
T12SSILL
 62
13
 10
1713.614
 20
-2882.672
 30
3986.231
 70
    32
  0
VERTEX
  8
T12SSILL
 62
13
 10
1727.153
 20
-2873.087
 30
3986.188
 70
    32
  0
SEQEND
  8
T12SSILL
  0
POLYLINE
  8
T12SSILL
 62
13
 66
     1
 70
     9
  0
VERTEX
  8
T12SSILL
 62
13
 10
940.254
 20
-2358.780
 30
3987.014
 70
    32
  0
VERTEX
  8
T12SSILL
 62
13
 10
948.399
 20
-2366.825
 30
3986.998
 70
    32
  0
VERTEX
  8
T12SSILL
 62
13
 10
950.065
 20
-2369.995
 30
3986.993
 70
    32
  0
VERTEX
  8
T12SSILL
 62
13
 10
950.939
 20
-2373.603
 30
3986.989
 70
    32
  0
VERTEX
  8
T12SSILL
 62
13
 10
947.495
 20
-2381.866
 30
3986.987
 70
    32
  0
VERTEX
  8
T12SSILL
 62
13
 10
948.196
 20
-2383.891
 30
3986.984
 70
    32
  0
VERTEX
  8
T12SSILL
 62
13
 10
952.589
 20
-2386.888
 30
3986.977
 70
    32
  0
VERTEX
  8
T12SSILL
 62
13
 10
955.662
 20
-2391.028
 30
3986.969
 70
    32
  0
VERTEX
  8
T12SSILL
 62
13
 10
952.569
 20
-2399.555
 30
3986.966
 70
    32
  0
VERTEX
  8
T12SSILL
 62
13
 10
938.549
 20
-2421.085
 30
3986.966
 70
    32
  0
VERTEX
  8
T12SSILL
 62
13
 10
938.534
 20
-2430.057
 30
3986.959
 70
    32
  0
VERTEX
  8
T12SSILL
 62
13
 10
937.031
 20
-2435.069
 30
3986.957
 70
    32
  0
VERTEX
  8
T12SSILL
 62
13
 10
898.937
 20
-2382.405
 30
3987.045
 70
    32
  0
VERTEX
  8
T12SSILL
 62
13
 10
893.053
 20
-2376.326
 30
3987.049
 70
    32
  0
VERTEX
  8
T12SSILL
 62
13
 10
892.442
 20
-2373.334
 30
3987.050
 70
    32
  0
VERTEX
  8
T12SSILL
 62
13
 10
896.146
 20
-2367.358
 30
3987.050
 70
    32
  0
VERTEX
  8
T12SSILL
 62
13
 10
921.596
 20
-2349.542
 30
3987.044
 70
    32
  0
VERTEX
  8
T12SSILL
 62
13
 10
926.526
 20
-2347.614
 30
3987.040
 70
    32
  0
VERTEX
  8
T12SSILL
 62
13
 10
932.065
 20
-2349.294
 30
3987.032
 70
    32
  0
VERTEX
  8
T12SSILL
 62
13
 10
936.883
 20
-2354.875
 30
3987.021
 70
    32
  0
SEQEND
  8
T12SSILL
  0
POLYLINE
  8
T12SSILL
 62
13
 66
     1
 70
     9
  0
VERTEX
  8
T12SSILL
 62
13
 10
1146.299
 20
-2325.971
 30
3986.790
 70
    32
  0
VERTEX
  8
T12SSILL
 62
13
 10
1155.441
 20
-2330.559
 30
3986.776
 70
    32
  0
VERTEX
  8
T12SSILL
 62
13
 10
1243.143
 20
-2330.522
 30
3986.669
 70
    32
  0
VERTEX
  8
T12SSILL
 62
13
 10
1245.789
 20
-2326.128
 30
3986.669
 70
    32
  0
VERTEX
  8
T12SSILL
 62
13
 10
1245.354
 20
-2323.225
 30
3986.672
 70
    32
  0
VERTEX
  8
T12SSILL
 62
13
 10
1236.753
 20
-2310.544
 30
3986.693
 70
    32
  0
VERTEX
  8
T12SSILL
 62
13
 10
1234.739
 20
-2305.087
 30
3986.700
 70
    32
  0
VERTEX
  8
T12SSILL
 62
13
 10
1231.665
 20
-2301.563
 30
3986.706
 70
    32
  0
VERTEX
  8
T12SSILL
 62
13
 10
1225.775
 20
-2299.179
 30
3986.716
 70
    32
  0
VERTEX
  8
T12SSILL
 62
13
 10
1218.419
 20
-2278.671
 30
3986.741
 70
    32
  0
VERTEX
  8
T12SSILL
 62
13
 10
1208.411
 20
-2265.900
 30
3986.763
 70
    32
  0
VERTEX
  8
T12SSILL
 62
13
 10
1205.072
 20
-2263.520
 30
3986.769
 70
    32
  0
VERTEX
  8
T12SSILL
 62
13
 10
1189.751
 20
-2272.732
 30
3986.781
 70
    32
  0
VERTEX
  8
T12SSILL
 62
13
 10
1186.742
 20
-2284.339
 30
3986.775
 70
    32
  0
VERTEX
  8
T12SSILL
 62
13
 10
1183.478
 20
-2290.403
 30
3986.774
 70
    32
  0
VERTEX
  8
T12SSILL
 62
13
 10
1180.836
 20
-2291.982
 30
3986.776
 70
    32
  0
VERTEX
  8
T12SSILL
 62
13
 10
1171.336
 20
-2291.615
 30
3986.788
 70
    32
  0
VERTEX
  8
T12SSILL
 62
13
 10
1165.445
 20
-2290.023
 30
3986.796
 70
    32
  0
VERTEX
  8
T12SSILL
 62
13
 10
1154.377
 20
-2280.329
 30
3986.817
 70
    32
  0
VERTEX
  8
T12SSILL
 62
13
 10
1143.806
 20
-2289.549
 30
3986.823
 70
    32
  0
VERTEX
  8
T12SSILL
 62
13
 10
1139.135
 20
-2295.083
 30
3986.824
 70
    32
  0
VERTEX
  8
T12SSILL
 62
13
 10
1136.027
 20
-2301.587
 30
3986.823
 70
    32
  0
SEQEND
  8
T12SSILL
  0
POLYLINE
  8
T12SSILL
 62
13
 66
     1
 70
     9
  0
VERTEX
  8
T12SSILL
 62
13
 10
1164.541
 20
-2377.979
 30
3986.726
 70
    32
  0
VERTEX
  8
T12SSILL
 62
13
 10
1165.288
 20
-2389.336
 30
3986.716
 70
    32
  0
VERTEX
  8
T12SSILL
 62
13
 10
1177.837
 20
-2408.181
 30
3986.686
 70
    32
  0
VERTEX
  8
T12SSILL
 62
13
 10
1184.864
 20
-2414.790
 30
3986.672
 70
    32
  0
VERTEX
  8
T12SSILL
 62
13
 10
1190.401
 20
-2417.877
 30
3986.663
 70
    32
  0
VERTEX
  8
T12SSILL
 62
13
 10
1193.569
 20
-2417.178
 30
3986.660
 70
    32
  0
VERTEX
  8
T12SSILL
 62
13
 10
1198.141
 20
-2418.417
 30
3986.653
 70
    32
  0
VERTEX
  8
T12SSILL
 62
13
 10
1278.810
 20
-2360.223
 30
3986.602
 70
    32
  0
VERTEX
  8
T12SSILL
 62
13
 10
1275.036
 20
-2354.851
 30
3986.611
 70
    32
  0
VERTEX
  8
T12SSILL
 62
13
 10
1256.852
 20
-2339.429
 30
3986.645
 70
    32
  0
VERTEX
  8
T12SSILL
 62
13
 10
1247.442
 20
-2338.006
 30
3986.658
 70
    32
  0
VERTEX
  8
T12SSILL
 62
13
 10
1158.596
 20
-2337.602
 30
3986.766
 70
    32
  0
VERTEX
  8
T12SSILL
 62
13
 10
1154.988
 20
-2338.476
 30
3986.770
 70
    32
  0
VERTEX
  8
T12SSILL
 62
13
 10
1151.375
 20
-2342.780
 30
3986.771
 70
    32
  0
VERTEX
  8
T12SSILL
 62
13
 10
1161.276
 20
-2367.426
 30
3986.739
 70
    32
  0
VERTEX
  8
T12SSILL
 62
13
 10
1162.054
 20
-2372.321
 30
3986.734
 70
    32
  0
SEQEND
  8
T12SSILL
  0
POLYLINE
  8
T12SSILL
 62
13
 66
     1
 70
     9
  0
VERTEX
  8
T12SSILL
 62
13
 10
1488.101
 20
-2626.125
 30
3986.134
 70
    32
  0
VERTEX
  8
T12SSILL
 62
13
 10
1503.036
 20
-2582.429
 30
3986.151
 70
    32
  0
VERTEX
  8
T12SSILL
 62
13
 10
1502.173
 20
-2571.784
 30
3986.160
 70
    32
  0
VERTEX
  8
T12SSILL
 62
13
 10
1443.486
 20
-2414.055
 30
3986.359
 70
    32
  0
VERTEX
  8
T12SSILL
 62
13
 10
1394.339
 20
-2286.427
 30
3986.521
 70
    32
  0
VERTEX
  8
T12SSILL
 62
13
 10
1347.223
 20
-2320.659
 30
3986.551
 70
    32
  0
VERTEX
  8
T12SSILL
 62
13
 10
1343.947
 20
-2333.761
 30
3986.544
 70
    32
  0
VERTEX
  8
T12SSILL
 62
13
 10
1343.933
 20
-2342.469
 30
3986.537
 70
    32
  0
VERTEX
  8
T12SSILL
 62
13
 10
1347.422
 20
-2361.651
 30
3986.517
 70
    32
  0
VERTEX
  8
T12SSILL
 62
13
 10
1356.190
 20
-2379.786
 30
3986.492
 70
    32
  0
VERTEX
  8
T12SSILL
 62
13
 10
1380.764
 20
-2415.540
 30
3986.434
 70
    32
  0
VERTEX
  8
T12SSILL
 62
13
 10
1375.475
 20
-2422.041
 30
3986.435
 70
    32
  0
VERTEX
  8
T12SSILL
 62
13
 10
1365.199
 20
-2412.172
 30
3986.455
 70
    32
  0
VERTEX
  8
T12SSILL
 62
13
 10
1362.303
 20
-2407.505
 30
3986.462
 70
    32
  0
VERTEX
  8
T12SSILL
 62
13
 10
1353.943
 20
-2409.515
 30
3986.471
 70
    32
  0
VERTEX
  8
T12SSILL
 62
13
 10
1377.499
 20
-2588.300
 30
3986.298
 70
    32
  0
VERTEX
  8
T12SSILL
 62
13
 10
1379.868
 20
-2592.438
 30
3986.292
 70
    32
  0
VERTEX
  8
T12SSILL
 62
13
 10
1385.578
 20
-2597.021
 30
3986.282
 70
    32
  0
VERTEX
  8
T12SSILL
 62
13
 10
1436.724
 20
-2628.858
 30
3986.194
 70
    32
  0
VERTEX
  8
T12SSILL
 62
13
 10
1477.381
 20
-2658.215
 30
3986.121
 70
    32
  0
SEQEND
  8
T12SSILL
  0
POLYLINE
  8
T12SSILL
 62
13
 66
     1
 70
     9
  0
VERTEX
  8
T12SSILL
 62
13
 10
916.427
 20
-2095.873
 30
3987.078
 70
    32
  0
VERTEX
  8
T12SSILL
 62
13
 10
895.395
 20
-2110.619
 30
3987.077
 70
    32
  0
VERTEX
  8
T12SSILL
 62
13
 10
866.267
 20
-2041.235
 30
3987.085
 70
    32
  0
VERTEX
  8
T12SSILL
 62
13
 10
871.832
 20
-2028.044
 30
3987.086
 70
    32
  0
VERTEX
  8
T12SSILL
 62
13
 10
875.798
 20
-2024.266
 30
3987.087
 70
    32
  0
VERTEX
  8
T12SSILL
 62
13
 10
893.680
 20
-2012.415
 30
3987.087
 70
    32
  0
VERTEX
  8
T12SSILL
 62
13
 10
896.756
 20
-2014.532
 30
3987.087
 70
    32
  0
VERTEX
  8
T12SSILL
 62
13
 10
900.871
 20
-2028.090
 30
3987.086
 70
    32
  0
VERTEX
  8
T12SSILL
 62
13
 10
889.416
 20
-2037.312
 30
3987.085
 70
    32
  0
VERTEX
  8
T12SSILL
 62
13
 10
917.776
 20
-2077.395
 30
3987.080
 70
    32
  0
VERTEX
  8
T12SSILL
 62
13
 10
895.487
 20
-2093.551
 30
3987.079
 70
    32
  0
VERTEX
  8
T12SSILL
 62
13
 10
900.585
 20
-2097.079
 30
3987.078
 70
    32
  0
VERTEX
  8
T12SSILL
 62
13
 10
930.804
 20
-2074.864
 30
3987.080
 70
    32
  0
VERTEX
  8
T12SSILL
 62
13
 10
938.280
 20
-2077.252
 30
3987.079
 70
    32
  0
VERTEX
  8
T12SSILL
 62
13
 10
942.055
 20
-2082.802
 30
3987.079
 70
    32
  0
VERTEX
  8
T12SSILL
 62
13
 10
941.607
 20
-2087.641
 30
3987.078
 70
    32
  0
VERTEX
  8
T12SSILL
 62
13
 10
939.404
 20
-2089.837
 30
3987.078
 70
    32
  0
VERTEX
  8
T12SSILL
 62
13
 10
934.453
 20
-2092.306
 30
3987.078
 70
    32
  0
VERTEX
  8
T12SSILL
 62
13
 10
933.330
 20
-2090.795
 30
3987.078
 70
    32
  0
VERTEX
  8
T12SSILL
 62
13
 10
919.937
 20
-2102.038
 30
3987.077
 70
    32
  0
SEQEND
  8
T12SSILL
  0
POLYLINE
  8
T12SSILL
 62
13
 66
     1
 70
     9
  0
VERTEX
  8
T12SSILL
 62
13
 10
909.179
 20
-2118.576
 30
3987.076
 70
    32
  0
VERTEX
  8
T12SSILL
 62
13
 10
906.180
 20
-2120.760
 30
3987.076
 70
    32
  0
VERTEX
  8
T12SSILL
 62
13
 10
906.698
 20
-2127.184
 30
3987.075
 70
    32
  0
VERTEX
  8
T12SSILL
 62
13
 10
907.659
 20
-2131.058
 30
3987.075
 70
    32
  0
VERTEX
  8
T12SSILL
 62
13
 10
911.787
 20
-2136.168
 30
3987.074
 70
    32
  0
VERTEX
  8
T12SSILL
 62
13
 10
919.800
 20
-2132.749
 30
3987.074
 70
    32
  0
VERTEX
  8
T12SSILL
 62
13
 10
926.852
 20
-2125.016
 30
3987.075
 70
    32
  0
VERTEX
  8
T12SSILL
 62
13
 10
939.096
 20
-2117.644
 30
3987.075
 70
    32
  0
VERTEX
  8
T12SSILL
 62
13
 10
931.015
 20
-2108.391
 30
3987.076
 70
    32
  0
VERTEX
  8
T12SSILL
 62
13
 10
928.378
 20
-2106.451
 30
3987.077
 70
    32
  0
VERTEX
  8
T12SSILL
 62
13
 10
925.473
 20
-2106.711
 30
3987.077
 70
    32
  0
VERTEX
  8
T12SSILL
 62
13
 10
923.982
 20
-2107.797
 30
3987.077
 70
    32
  0
VERTEX
  8
T12SSILL
 62
13
 10
925.116
 20
-2109.790
 30
3987.076
 70
    32
  0
VERTEX
  8
T12SSILL
 62
13
 10
910.316
 20
-2120.326
 30
3987.076
 70
    32
  0
SEQEND
  8
T12SSILL
  0
POLYLINE
  8
T12SSILL
 62
13
 66
     1
 70
     9
  0
VERTEX
  8
T12SSILL
 62
13
 10
1022.342
 20
-1919.261
 30
3987.094
 70
    32
  0
VERTEX
  8
T12SSILL
 62
13
 10
999.133
 20
-1936.553
 30
3987.093
 70
    32
  0
VERTEX
  8
T12SSILL
 62
13
 10
998.484
 20
-1939.640
 30
3987.092
 70
    32
  0
VERTEX
  8
T12SSILL
 62
13
 10
1007.730
 20
-1953.286
 30
3987.091
 70
    32
  0
VERTEX
  8
T12SSILL
 62
13
 10
1033.896
 20
-1933.792
 30
3987.092
 70
    32
  0
VERTEX
  8
T12SSILL
 62
13
 10
1033.328
 20
-1932.482
 30
3987.092
 70
    32
  0
VERTEX
  8
T12SSILL
 62
13
 10
1032.283
 20
-1933.291
 30
3987.092
 70
    32
  0
SEQEND
  8
T12SSILL
  0
POLYLINE
  8
T12SSILL
 62
13
 66
     1
 70
     9
  0
VERTEX
  8
T12SSILL
 62
13
 10
871.807
 20
-2154.584
 30
3987.073
 70
    32
  0
VERTEX
  8
T12SSILL
 62
13
 10
852.535
 20
-2168.115
 30
3987.072
 70
    32
  0
VERTEX
  8
T12SSILL
 62
13
 10
852.069
 20
-2171.448
 30
3987.072
 70
    32
  0
VERTEX
  8
T12SSILL
 62
13
 10
853.729
 20
-2179.195
 30
3987.071
 70
    32
  0
VERTEX
  8
T12SSILL
 62
13
 10
864.650
 20
-2172.964
 30
3987.071
 70
    32
  0
VERTEX
  8
T12SSILL
 62
13
 10
886.941
 20
-2155.752
 30
3987.073
 70
    32
  0
VERTEX
  8
T12SSILL
 62
13
 10
879.566
 20
-2145.005
 30
3987.074
 70
    32
  0
VERTEX
  8
T12SSILL
 62
13
 10
879.571
 20
-2142.189
 30
3987.074
 70
    32
  0
VERTEX
  8
T12SSILL
 62
13
 10
878.078
 20
-2139.898
 30
3987.074
 70
    32
  0
VERTEX
  8
T12SSILL
 62
13
 10
867.091
 20
-2148.196
 30
3987.074
 70
    32
  0
SEQEND
  8
T12SSILL
  0
POLYLINE
  8
T12SSILL
 62
13
 66
     1
 70
     9
  0
VERTEX
  8
T12SSILL
 62
13
 10
930.711
 20
-1989.932
 30
3987.089
 70
    32
  0
VERTEX
  8
T12SSILL
 62
13
 10
926.276
 20
-1988.708
 30
3987.089
 70
    32
  0
VERTEX
  8
T12SSILL
 62
13
 10
901.960
 20
-2006.796
 30
3987.088
 70
    32
  0
VERTEX
  8
T12SSILL
 62
13
 10
901.425
 20
-2011.635
 30
3987.087
 70
    32
  0
VERTEX
  8
T12SSILL
 62
13
 10
906.334
 20
-2023.435
 30
3987.086
 70
    32
  0
VERTEX
  8
T12SSILL
 62
13
 10
938.311
 20
-2001.838
 30
3987.087
 70
    32
  0
VERTEX
  8
T12SSILL
 62
13
 10
936.778
 20
-1998.570
 30
3987.088
 70
    32
  0
SEQEND
  8
T12SSILL
  0
POLYLINE
  8
T12SSILL
 62
13
 66
     1
 70
     9
  0
VERTEX
  8
T12SSILL
 62
13
 10
918.956
 20
-1985.272
 30
3987.090
 70
    32
  0
VERTEX
  8
T12SSILL
 62
13
 10
915.408
 20
-1979.940
 30
3987.090
 70
    32
  0
VERTEX
  8
T12SSILL
 62
13
 10
918.947
 20
-1977.473
 30
3987.090
 70
    32
  0
VERTEX
  8
T12SSILL
 62
13
 10
912.404
 20
-1968.886
 30
3987.092
 70
    32
  0
VERTEX
  8
T12SSILL
 62
13
 10
903.155
 20
-1974.943
 30
3987.091
 70
    32
  0
VERTEX
  8
T12SSILL
 62
13
 10
899.378
 20
-1970.626
 30
3987.092
 70
    32
  0
VERTEX
  8
T12SSILL
 62
13
 10
896.927
 20
-1962.438
 30
3987.093
 70
    32
  0
VERTEX
  8
T12SSILL
 62
13
 10
897.300
 20
-1948.975
 30
3987.094
 70
    32
  0
VERTEX
  8
T12SSILL
 62
13
 10
885.847
 20
-1957.405
 30
3987.093
 70
    32
  0
VERTEX
  8
T12SSILL
 62
13
 10
886.804
 20
-1964.710
 30
3987.093
 70
    32
  0
VERTEX
  8
T12SSILL
 62
13
 10
892.953
 20
-1971.231
 30
3987.092
 70
    32
  0
VERTEX
  8
T12SSILL
 62
13
 10
895.057
 20
-1976.339
 30
3987.091
 70
    32
  0
VERTEX
  8
T12SSILL
 62
13
 10
895.404
 20
-1979.331
 30
3987.091
 70
    32
  0
VERTEX
  8
T12SSILL
 62
13
 10
888.086
 20
-1988.119
 30
3987.090
 70
    32
  0
VERTEX
  8
T12SSILL
 62
13
 10
888.435
 20
-1990.496
 30
3987.090
 70
    32
  0
VERTEX
  8
T12SSILL
 62
13
 10
895.456
 20
-2001.946
 30
3987.088
 70
    32
  0
SEQEND
  8
T12SSILL
  0
POLYLINE
  8
T12SSILL
 62
13
 66
     1
 70
     9
  0
VERTEX
  8
T12SSILL
 62
13
 10
949.812
 20
-1955.186
 30
3987.092
 70
    32
  0
VERTEX
  8
T12SSILL
 62
13
 10
944.471
 20
-1946.058
 30
3987.093
 70
    32
  0
VERTEX
  8
T12SSILL
 62
13
 10
918.129
 20
-1965.463
 30
3987.092
 70
    32
  0
VERTEX
  8
T12SSILL
 62
13
 10
929.151
 20
-1977.628
 30
3987.090
 70
    32
  0
VERTEX
  8
T12SSILL
 62
13
 10
944.573
 20
-1967.505
 30
3987.091
 70
    32
  0
VERTEX
  8
T12SSILL
 62
13
 10
940.780
 20
-1962.177
 30
3987.092
 70
    32
  0
SEQEND
  8
T12SSILL
  0
POLYLINE
  8
T12SSILL
 62
13
 66
     1
 70
     9
  0
VERTEX
  8
T12SSILL
 62
13
 10
1275.007
 20
-2017.457
 30
3986.883
 70
    32
  0
VERTEX
  8
T12SSILL
 62
13
 10
1365.847
 20
-2002.866
 30
3986.784
 70
    32
  0
VERTEX
  8
T12SSILL
 62
13
 10
1373.416
 20
-2000.679
 30
3986.777
 70
    32
  0
VERTEX
  8
T12SSILL
 62
13
 10
1410.505
 20
-1965.727
 30
3986.760
 70
    32
  0
VERTEX
  8
T12SSILL
 62
13
 10
1464.222
 20
-1910.548
 30
3986.739
 70
    32
  0
VERTEX
  8
T12SSILL
 62
13
 10
1537.454
 20
-1840.896
 30
3986.706
 70
    32
  0
VERTEX
  8
T12SSILL
 62
13
 10
1538.378
 20
-1839.946
 30
3986.706
 70
    32
  0
VERTEX
  8
T12SSILL
 62
13
 10
1536.380
 20
-1836.065
 30
3986.712
 70
    32
  0
VERTEX
  8
T12SSILL
 62
13
 10
1545.819
 20
-1831.126
 30
3986.704
 70
    32
  0
VERTEX
  8
T12SSILL
 62
13
 10
1481.008
 20
-1704.135
 30
3986.885
 70
    32
  0
VERTEX
  8
T12SSILL
 62
13
 10
1198.874
 20
-1909.025
 30
3987.063
 70
    32
  0
VERTEX
  8
T12SSILL
 62
13
 10
1187.149
 20
-1916.289
 30
3987.071
 70
    32
  0
VERTEX
  8
T12SSILL
 62
13
 10
1183.007
 20
-1921.120
 30
3987.072
 70
    32
  0
VERTEX
  8
T12SSILL
 62
13
 10
1182.909
 20
-1927.366
 30
3987.067
 70
    32
  0
VERTEX
  8
T12SSILL
 62
13
 10
1176.489
 20
-1926.476
 30
3987.076
 70
    32
  0
VERTEX
  8
T12SSILL
 62
13
 10
1170.939
 20
-1931.305
 30
3987.078
 70
    32
  0
VERTEX
  8
T12SSILL
 62
13
 10
1170.759
 20
-1933.680
 30
3987.077
 70
    32
  0
VERTEX
  8
T12SSILL
 62
13
 10
1176.460
 20
-1944.333
 30
3987.061
 70
    32
  0
VERTEX
  8
T12SSILL
 62
13
 10
1196.213
 20
-1969.435
 30
3987.017
 70
    32
  0
VERTEX
  8
T12SSILL
 62
13
 10
1214.814
 20
-1999.988
 30
3986.970
 70
    32
  0
VERTEX
  8
T12SSILL
 62
13
 10
1227.176
 20
-2025.430
 30
3986.934
 70
    32
  0
VERTEX
  8
T12SSILL
 62
13
 10
1245.332
 20
-2022.403
 30
3986.915
 70
    32
  0
SEQEND
  8
T12SSILL
  0
POLYLINE
  8
T12SSILL
 62
13
 66
     1
 70
     9
  0
VERTEX
  8
T12SSILL
 62
13
 10
1246.416
 20
-2028.678
 30
3986.908
 70
    32
  0
VERTEX
  8
T12SSILL
 62
13
 10
1228.926
 20
-2031.590
 30
3986.927
 70
    32
  0
VERTEX
  8
T12SSILL
 62
13
 10
1267.197
 20
-2139.322
 30
3986.794
 70
    32
  0
VERTEX
  8
T12SSILL
 62
13
 10
1274.908
 20
-2158.247
 30
3986.769
 70
    32
  0
VERTEX
  8
T12SSILL
 62
13
 10
1381.532
 20
-2041.332
 30
3986.734
 70
    32
  0
VERTEX
  8
T12SSILL
 62
13
 10
1371.192
 20
-2015.806
 30
3986.767
 70
    32
  0
VERTEX
  8
T12SSILL
 62
13
 10
1364.342
 20
-2008.846
 30
3986.781
 70
    32
  0
VERTEX
  8
T12SSILL
 62
13
 10
1276.036
 20
-2023.746
 30
3986.876
 70
    32
  0
SEQEND
  8
T12SSILL
  0
POLYLINE
  8
T12SSILL
 62
13
 66
     1
 70
     9
  0
VERTEX
  8
T12SSILL
 62
13
 10
1447.255
 20
-2223.043
 30
3986.508
 70
    32
  0
VERTEX
  8
T12SSILL
 62
13
 10
1450.993
 20
-2228.371
 30
3986.499
 70
    32
  0
VERTEX
  8
T12SSILL
 62
13
 10
1449.751
 20
-2229.729
 30
3986.500
 70
    32
  0
VERTEX
  8
T12SSILL
 62
13
 10
1451.142
 20
-2231.683
 30
3986.496
 70
    32
  0
VERTEX
  8
T12SSILL
 62
13
 10
1426.240
 20
-2250.235
 30
3986.512
 70
    32
  0
VERTEX
  8
T12SSILL
 62
13
 10
1417.637
 20
-2238.874
 30
3986.531
 70
    32
  0
VERTEX
  8
T12SSILL
 62
13
 10
1412.088
 20
-2243.351
 30
3986.534
 70
    32
  0
VERTEX
  8
T12SSILL
 62
13
 10
1420.890
 20
-2257.935
 30
3986.512
 70
    32
  0
VERTEX
  8
T12SSILL
 62
13
 10
1410.909
 20
-2265.605
 30
3986.518
 70
    32
  0
VERTEX
  8
T12SSILL
 62
13
 10
1409.062
 20
-2265.602
 30
3986.520
 70
    32
  0
VERTEX
  8
T12SSILL
 62
13
 10
1405.020
 20
-2262.781
 30
3986.527
 70
    32
  0
VERTEX
  8
T12SSILL
 62
13
 10
1396.338
 20
-2246.141
 30
3986.551
 70
    32
  0
VERTEX
  8
T12SSILL
 62
13
 10
1381.946
 20
-2224.479
 30
3986.586
 70
    32
  0
VERTEX
  8
T12SSILL
 62
13
 10
1389.462
 20
-2190.151
 30
3986.605
 70
    32
  0
VERTEX
  8
T12SSILL
 62
13
 10
1401.871
 20
-2184.958
 30
3986.594
 70
    32
  0
VERTEX
  8
T12SSILL
 62
13
 10
1397.368
 20
-2174.001
 30
3986.608
 70
    32
  0
VERTEX
  8
T12SSILL
 62
13
 10
1402.966
 20
-2171.117
 30
3986.604
 70
    32
  0
VERTEX
  8
T12SSILL
 62
13
 10
1425.231
 20
-2165.434
 30
3986.581
 70
    32
  0
VERTEX
  8
T12SSILL
 62
13
 10
1434.554
 20
-2166.328
 30
3986.569
 70
    32
  0
VERTEX
  8
T12SSILL
 62
13
 10
1437.620
 20
-2174.074
 30
3986.559
 70
    32
  0
VERTEX
  8
T12SSILL
 62
13
 10
1444.659
 20
-2217.533
 30
3986.516
 70
    32
  0
VERTEX
  8
T12SSILL
 62
13
 10
1431.191
 20
-2226.532
 30
3986.525
 70
    32
  0
VERTEX
  8
T12SSILL
 62
13
 10
1434.966
 20
-2231.817
 30
3986.516
 70
    32
  0
SEQEND
  8
T12SSILL
  0
POLYLINE
  8
T12SSILL
 62
13
 66
     1
 70
     9
  0
VERTEX
  8
T12SSILL
 62
13
 10
1462.732
 20
-2196.674
 30
3986.510
 70
    32
  0
VERTEX
  8
T12SSILL
 62
13
 10
1464.511
 20
-2190.831
 30
3986.513
 70
    32
  0
VERTEX
  8
T12SSILL
 62
13
 10
1474.654
 20
-2173.781
 30
3986.514
 70
    32
  0
VERTEX
  8
T12SSILL
 62
13
 10
1475.926
 20
-2148.273
 30
3986.533
 70
    32
  0
VERTEX
  8
T12SSILL
 62
13
 10
1469.244
 20
-2146.503
 30
3986.543
 70
    32
  0
VERTEX
  8
T12SSILL
 62
13
 10
1465.817
 20
-2144.123
 30
3986.549
 70
    32
  0
VERTEX
  8
T12SSILL
 62
13
 10
1460.288
 20
-2135.581
 30
3986.563
 70
    32
  0
VERTEX
  8
T12SSILL
 62
13
 10
1453.169
 20
-2131.875
 30
3986.574
 70
    32
  0
VERTEX
  8
T12SSILL
 62
13
 10
1443.506
 20
-2123.679
 30
3986.593
 70
    32
  0
VERTEX
  8
T12SSILL
 62
13
 10
1439.481
 20
-2109.950
 30
3986.608
 70
    32
  0
VERTEX
  8
T12SSILL
 62
13
 10
1440.291
 20
-2098.340
 30
3986.617
 70
    32
  0
VERTEX
  8
T12SSILL
 62
13
 10
1429.651
 20
-2095.948
 30
3986.632
 70
    32
  0
VERTEX
  8
T12SSILL
 62
13
 10
1411.338
 20
-2105.859
 30
3986.646
 70
    32
  0
VERTEX
  8
T12SSILL
 62
13
 10
1404.123
 20
-2107.431
 30
3986.653
 70
    32
  0
VERTEX
  8
T12SSILL
 62
13
 10
1401.309
 20
-2106.459
 30
3986.658
 70
    32
  0
VERTEX
  8
T12SSILL
 62
13
 10
1397.506
 20
-2064.141
 30
3986.696
 70
    32
  0
VERTEX
  8
T12SSILL
 62
13
 10
1395.135
 20
-2061.234
 30
3986.702
 70
    32
  0
VERTEX
  8
T12SSILL
 62
13
 10
1388.212
 20
-2044.510
 30
3986.723
 70
    32
  0
VERTEX
  8
T12SSILL
 62
13
 10
1375.954
 20
-2008.512
 30
3986.767
 70
    32
  0
VERTEX
  8
T12SSILL
 62
13
 10
1510.683
 20
-1875.288
 30
3986.711
 70
    32
  0
VERTEX
  8
T12SSILL
 62
13
 10
1575.349
 20
-1886.732
 30
3986.623
 70
    32
  0
VERTEX
  8
T12SSILL
 62
13
 10
1637.649
 20
-2011.214
 30
3986.447
 70
    32
  0
VERTEX
  8
T12SSILL
 62
13
 10
1629.463
 20
-2014.719
 30
3986.455
 70
    32
  0
VERTEX
  8
T12SSILL
 62
13
 10
1626.219
 20
-2007.765
 30
3986.464
 70
    32
  0
VERTEX
  8
T12SSILL
 62
13
 10
1624.988
 20
-2007.851
 30
3986.466
 70
    32
  0
VERTEX
  8
T12SSILL
 62
13
 10
1613.366
 20
-2014.166
 30
3986.475
 70
    32
  0
VERTEX
  8
T12SSILL
 62
13
 10
1612.395
 20
-2016.188
 30
3986.474
 70
    32
  0
VERTEX
  8
T12SSILL
 62
13
 10
1623.007
 20
-2036.261
 30
3986.445
 70
    32
  0
VERTEX
  8
T12SSILL
 62
13
 10
1625.118
 20
-2036.792
 30
3986.442
 70
    32
  0
VERTEX
  8
T12SSILL
 62
13
 10
1637.003
 20
-2030.389
 30
3986.433
 70
    32
  0
VERTEX
  8
T12SSILL
 62
13
 10
1634.201
 20
-2022.644
 30
3986.442
 70
    32
  0
VERTEX
  8
T12SSILL
 62
13
 10
1642.037
 20
-2018.082
 30
3986.437
 70
    32
  0
VERTEX
  8
T12SSILL
 62
13
 10
1668.081
 20
-2069.671
 30
3986.363
 70
    32
  0
VERTEX
  8
T12SSILL
 62
13
 10
1667.634
 20
-2074.245
 30
3986.360
 70
    32
  0
VERTEX
  8
T12SSILL
 62
13
 10
1666.129
 20
-2080.224
 30
3986.357
 70
    32
  0
VERTEX
  8
T12SSILL
 62
13
 10
1662.603
 20
-2084.793
 30
3986.358
 70
    32
  0
VERTEX
  8
T12SSILL
 62
13
 10
1574.449
 20
-2148.165
 30
3986.414
 70
    32
  0
VERTEX
  8
T12SSILL
 62
13
 10
1556.573
 20
-2159.836
 30
3986.426
 70
    32
  0
VERTEX
  8
T12SSILL
 62
13
 10
1552.441
 20
-2158.422
 30
3986.432
 70
    32
  0
VERTEX
  8
T12SSILL
 62
13
 10
1547.609
 20
-2154.808
 30
3986.441
 70
    32
  0
VERTEX
  8
T12SSILL
 62
13
 10
1544.452
 20
-2148.557
 30
3986.450
 70
    32
  0
VERTEX
  8
T12SSILL
 62
13
 10
1542.532
 20
-2138.614
 30
3986.460
 70
    32
  0
VERTEX
  8
T12SSILL
 62
13
 10
1539.026
 20
-2130.692
 30
3986.471
 70
    32
  0
VERTEX
  8
T12SSILL
 62
13
 10
1525.554
 20
-2138.851
 30
3986.481
 70
    32
  0
VERTEX
  8
T12SSILL
 62
13
 10
1527.638
 20
-2156.184
 30
3986.464
 70
    32
  0
VERTEX
  8
T12SSILL
 62
13
 10
1536.580
 20
-2175.199
 30
3986.438
 70
    32
  0
VERTEX
  8
T12SSILL
 62
13
 10
1488.320
 20
-2210.133
 30
3986.468
 70
    32
  0
VERTEX
  8
T12SSILL
 62
13
 10
1487.092
 20
-2207.844
 30
3986.472
 70
    32
  0
VERTEX
  8
T12SSILL
 62
13
 10
1481.190
 20
-2212.585
 30
3986.475
 70
    32
  0
VERTEX
  8
T12SSILL
 62
13
 10
1475.647
 20
-2213.895
 30
3986.481
 70
    32
  0
VERTEX
  8
T12SSILL
 62
13
 10
1474.501
 20
-2212.435
 30
3986.483
 70
    32
  0
VERTEX
  8
T12SSILL
 62
13
 10
1472.935
 20
-2213.529
 30
3986.484
 70
    32
  0
VERTEX
  8
T12SSILL
 62
13
 10
1467.733
 20
-2211.772
 30
3986.492
 70
    32
  0
VERTEX
  8
T12SSILL
 62
13
 10
1465.916
 20
-2209.721
 30
3986.496
 70
    32
  0
VERTEX
  8
T12SSILL
 62
13
 10
1484.028
 20
-2196.790
 30
3986.484
 70
    32
  0
VERTEX
  8
T12SSILL
 62
13
 10
1476.037
 20
-2186.923
 30
3986.502
 70
    32
  0
SEQEND
  8
T12SSILL
  0
POLYLINE
  8
T12SSILL
 62
13
 66
     1
 70
     9
  0
VERTEX
  8
T12SSILL
 62
13
 10
1447.165
 20
-2261.618
 30
3986.477
 70
    32
  0
VERTEX
  8
T12SSILL
 62
13
 10
1432.426
 20
-2269.922
 30
3986.488
 70
    32
  0
VERTEX
  8
T12SSILL
 62
13
 10
1427.475
 20
-2267.429
 30
3986.496
 70
    32
  0
VERTEX
  8
T12SSILL
 62
13
 10
1425.846
 20
-2268.579
 30
3986.497
 70
    32
  0
VERTEX
  8
T12SSILL
 62
13
 10
1423.778
 20
-2265.480
 30
3986.502
 70
    32
  0
VERTEX
  8
T12SSILL
 62
13
 10
1399.357
 20
-2283.796
 30
3986.517
 70
    32
  0
VERTEX
  8
T12SSILL
 62
13
 10
1418.025
 20
-2327.280
 30
3986.459
 70
    32
  0
VERTEX
  8
T12SSILL
 62
13
 10
1424.708
 20
-2328.962
 30
3986.450
 70
    32
  0
VERTEX
  8
T12SSILL
 62
13
 10
1429.900
 20
-2327.299
 30
3986.445
 70
    32
  0
VERTEX
  8
T12SSILL
 62
13
 10
1462.314
 20
-2300.873
 30
3986.427
 70
    32
  0
VERTEX
  8
T12SSILL
 62
13
 10
1464.521
 20
-2295.950
 30
3986.428
 70
    32
  0
VERTEX
  8
T12SSILL
 62
13
 10
1465.767
 20
-2286.892
 30
3986.434
 70
    32
  0
SEQEND
  8
T12SSILL
  0
POLYLINE
  8
T12SSILL
 62
13
 66
     1
 70
     9
  0
VERTEX
  8
T12SSILL
 62
13
 10
968.857
 20
-2051.134
 30
3987.081
 70
    32
  0
VERTEX
  8
T12SSILL
 62
13
 10
966.219
 20
-2049.401
 30
3987.082
 70
    32
  0
VERTEX
  8
T12SSILL
 62
13
 10
942.787
 20
-2065.115
 30
3987.081
 70
    32
  0
VERTEX
  8
T12SSILL
 62
13
 10
944.088
 20
-2076.821
 30
3987.079
 70
    32
  0
VERTEX
  8
T12SSILL
 62
13
 10
946.636
 20
-2079.553
 30
3987.079
 70
    32
  0
VERTEX
  8
T12SSILL
 62
13
 10
950.406
 20
-2081.021
 30
3987.079
 70
    32
  0
VERTEX
  8
T12SSILL
 62
13
 10
945.852
 20
-2074.624
 30
3987.080
 70
    32
  0
VERTEX
  8
T12SSILL
 62
13
 10
955.506
 20
-2067.174
 30
3987.080
 70
    32
  0
VERTEX
  8
T12SSILL
 62
13
 10
951.943
 20
-2062.138
 30
3987.081
 70
    32
  0
SEQEND
  8
T12SSILL
  0
POLYLINE
  8
T12SSILL
 62
13
 66
     1
 70
     9
  0
VERTEX
  8
T12SSILL
 62
13
 10
981.798
 20
-2036.859
 30
3987.083
 70
    32
  0
VERTEX
  8
T12SSILL
 62
13
 10
974.413
 20
-2042.638
 30
3987.082
 70
    32
  0
VERTEX
  8
T12SSILL
 62
13
 10
975.523
 20
-2047.167
 30
3987.082
 70
    32
  0
VERTEX
  8
T12SSILL
 62
13
 10
984.984
 20
-2041.537
 30
3987.082
 70
    32
  0
SEQEND
  8
T12SSILL
  0
POLYLINE
  8
T12SSILL
 62
13
 66
     1
 70
     9
  0
VERTEX
  8
T12SSILL
 62
13
 10
1027.732
 20
-2011.164
 30
3987.084
 70
    32
  0
VERTEX
  8
T12SSILL
 62
13
 10
1023.130
 20
-2008.660
 30
3987.085
 70
    32
  0
VERTEX
  8
T12SSILL
 62
13
 10
999.433
 20
-2024.814
 30
3987.083
 70
    32
  0
VERTEX
  8
T12SSILL
 62
13
 10
1002.569
 20
-2029.083
 30
3987.083
 70
    32
  0
VERTEX
  8
T12SSILL
 62
13
 10
1003.944
 20
-2028.109
 30
3987.083
 70
    32
  0
VERTEX
  8
T12SSILL
 62
13
 10
1007.020
 20
-2032.937
 30
3987.082
 70
    32
  0
VERTEX
  8
T12SSILL
 62
13
 10
1020.496
 20
-2023.494
 30
3987.083
 70
    32
  0
VERTEX
  8
T12SSILL
 62
13
 10
1017.130
 20
-2018.771
 30
3987.084
 70
    32
  0
SEQEND
  8
T12SSILL
  0
POLYLINE
  8
T12SSILL
 62
13
 66
     1
 70
     9
  0
VERTEX
  8
T12SSILL
 62
13
 10
1092.524
 20
-1967.714
 30
3987.087
 70
    32
  0
VERTEX
  8
T12SSILL
 62
13
 10
1088.818
 20
-1962.622
 30
3987.088
 70
    32
  0
VERTEX
  8
T12SSILL
 62
13
 10
1072.028
 20
-1974.825
 30
3987.087
 70
    32
  0
VERTEX
  8
T12SSILL
 62
13
 10
1072.993
 20
-1972.836
 30
3987.087
 70
    32
  0
VERTEX
  8
T12SSILL
 62
13
 10
1086.649
 20
-1962.474
 30
3987.088
 70
    32
  0
VERTEX
  8
T12SSILL
 62
13
 10
1095.277
 20
-1959.320
 30
3987.088
 70
    32
  0
VERTEX
  8
T12SSILL
 62
13
 10
1097.562
 20
-1961.524
 30
3987.088
 70
    32
  0
VERTEX
  8
T12SSILL
 62
13
 10
1097.558
 20
-1964.088
 30
3987.087
 70
    32
  0
SEQEND
  8
T12SSILL
  0
POLYLINE
  8
T12SSILL
 62
13
 66
     1
 70
     9
  0
VERTEX
  8
T12SSILL
 62
13
 10
1062.896
 20
-1981.462
 30
3987.086
 70
    32
  0
VERTEX
  8
T12SSILL
 62
13
 10
1053.789
 20
-1985.742
 30
3987.086
 70
    32
  0
VERTEX
  8
T12SSILL
 62
13
 10
1032.029
 20
-2001.459
 30
3987.085
 70
    32
  0
VERTEX
  8
T12SSILL
 62
13
 10
1034.718
 20
-2006.152
 30
3987.085
 70
    32
  0
VERTEX
  8
T12SSILL
 62
13
 10
1041.973
 20
-2000.946
 30
3987.085
 70
    32
  0
VERTEX
  8
T12SSILL
 62
13
 10
1045.485
 20
-2006.056
 30
3987.084
 70
    32
  0
VERTEX
  8
T12SSILL
 62
13
 10
1054.573
 20
-1999.271
 30
3987.085
 70
    32
  0
VERTEX
  8
T12SSILL
 62
13
 10
1049.028
 20
-1991.542
 30
3987.086
 70
    32
  0
SEQEND
  8
T12SSILL
  0
POLYLINE
  8
T12SSILL
 62
13
 66
     1
 70
     9
  0
VERTEX
  8
T12SSILL
 62
13
 10
1121.808
 20
-1955.875
 30
3987.088
 70
    32
  0
VERTEX
  8
T12SSILL
 62
13
 10
1131.549
 20
-1948.466
 30
3987.088
 70
    32
  0
VERTEX
  8
T12SSILL
 62
13
 10
1124.435
 20
-1940.183
 30
3987.089
 70
    32
  0
VERTEX
  8
T12SSILL
 62
13
 10
1121.357
 20
-1939.122
 30
3987.089
 70
    32
  0
VERTEX
  8
T12SSILL
 62
13
 10
1113.780
 20
-1944.478
 30
3987.089
 70
    32
  0
SEQEND
  8
T12SSILL
  0
POLYLINE
  8
T12SSILL
 62
13
 66
     1
 70
     9
  0
VERTEX
  8
T12SSILL
 62
13
 10
1126.189
 20
-1988.413
 30
3987.084
 70
    32
  0
VERTEX
  8
T12SSILL
 62
13
 10
1130.255
 20
-1987.975
 30
3987.082
 70
    32
  0
VERTEX
  8
T12SSILL
 62
13
 10
1151.492
 20
-1969.177
 30
3987.072
 70
    32
  0
VERTEX
  8
T12SSILL
 62
13
 10
1151.412
 20
-1963.897
 30
3987.076
 70
    32
  0
VERTEX
  8
T12SSILL
 62
13
 10
1146.143
 20
-1957.553
 30
3987.087
 70
    32
  0
VERTEX
  8
T12SSILL
 62
13
 10
1137.437
 20
-1953.491
 30
3987.087
 70
    32
  0
VERTEX
  8
T12SSILL
 62
13
 10
1124.876
 20
-1960.230
 30
3987.087
 70
    32
  0
VERTEX
  8
T12SSILL
 62
13
 10
1138.540
 20
-1979.628
 30
3987.079
 70
    32
  0
SEQEND
  8
T12SSILL
  0
POLYLINE
  8
T12SSILL
 62
13
 66
     1
 70
     9
  0
VERTEX
  8
T12SSILL
 62
13
 10
1541.653
 20
-1846.310
 30
3986.697
 70
    32
  0
VERTEX
  8
T12SSILL
 62
13
 10
1517.516
 20
-1868.844
 30
3986.708
 70
    32
  0
VERTEX
  8
T12SSILL
 62
13
 10
1571.010
 20
-1878.923
 30
3986.635
 70
    32
  0
VERTEX
  8
T12SSILL
 62
13
 10
1553.101
 20
-1844.574
 30
3986.684
 70
    32
  0
SEQEND
  8
T12SSILL
  0
POLYLINE
  8
T12SSILL
 62
13
 66
     1
 70
     9
  0
VERTEX
  8
T12SSILL
 62
13
 10
897.046
 20
-2245.831
 30
3987.063
 70
    32
  0
VERTEX
  8
T12SSILL
 62
13
 10
881.183
 20
-2255.835
 30
3987.062
 70
    32
  0
VERTEX
  8
T12SSILL
 62
13
 10
882.867
 20
-2258.317
 30
3987.062
 70
    32
  0
VERTEX
  8
T12SSILL
 62
13
 10
872.335
 20
-2265.725
 30
3987.061
 70
    32
  0
VERTEX
  8
T12SSILL
 62
13
 10
856.695
 20
-2250.741
 30
3987.063
 70
    32
  0
VERTEX
  8
T12SSILL
 62
13
 10
862.284
 20
-2222.415
 30
3987.066
 70
    32
  0
VERTEX
  8
T12SSILL
 62
13
 10
864.936
 20
-2215.027
 30
3987.067
 70
    32
  0
VERTEX
  8
T12SSILL
 62
13
 10
868.201
 20
-2209.225
 30
3987.067
 70
    32
  0
VERTEX
  8
T12SSILL
 62
13
 10
873.925
 20
-2206.506
 30
3987.068
 70
    32
  0
VERTEX
  8
T12SSILL
 62
13
 10
882.373
 20
-2206.431
 30
3987.067
 70
    32
  0
VERTEX
  8
T12SSILL
 62
13
 10
892.047
 20
-2210.142
 30
3987.067
 70
    32
  0
VERTEX
  8
T12SSILL
 62
13
 10
899.165
 20
-2216.049
 30
3987.066
 70
    32
  0
VERTEX
  8
T12SSILL
 62
13
 10
901.271
 20
-2219.485
 30
3987.066
 70
    32
  0
VERTEX
  8
T12SSILL
 62
13
 10
902.411
 20
-2222.038
 30
3987.065
 70
    32
  0
VERTEX
  8
T12SSILL
 62
13
 10
902.137
 20
-2228.726
 30
3987.065
 70
    32
  0
VERTEX
  8
T12SSILL
 62
13
 10
904.134
 20
-2234.479
 30
3987.064
 70
    32
  0
VERTEX
  8
T12SSILL
 62
13
 10
894.197
 20
-2241.209
 30
3987.063
 70
    32
  0
SEQEND
  8
T12SSILL
  0
POLYLINE
  8
T12SSILL
 62
13
 66
     1
 70
     9
  0
VERTEX
  8
T12SSILL
 62
13
 10
896.090
 20
-2268.491
 30
3987.061
 70
    32
  0
VERTEX
  8
T12SSILL
 62
13
 10
899.514
 20
-2273.336
 30
3987.060
 70
    32
  0
VERTEX
  8
T12SSILL
 62
13
 10
890.086
 20
-2281.417
 30
3987.059
 70
    32
  0
VERTEX
  8
T12SSILL
 62
13
 10
887.445
 20
-2282.029
 30
3987.059
 70
    32
  0
VERTEX
  8
T12SSILL
 62
13
 10
878.836
 20
-2272.687
 30
3987.061
 70
    32
  0
VERTEX
  8
T12SSILL
 62
13
 10
877.870
 20
-2271.102
 30
3987.061
 70
    32
  0
VERTEX
  8
T12SSILL
 62
13
 10
887.653
 20
-2265.369
 30
3987.061
 70
    32
  0
VERTEX
  8
T12SSILL
 62
13
 10
892.037
 20
-2271.828
 30
3987.060
 70
    32
  0
SEQEND
  8
T12SSILL
  0
POLYLINE
  8
T12SSILL
 62
13
 66
     1
 70
     9
  0
VERTEX
  8
T12SSILL
 62
13
 10
1131.791
 20
-2215.431
 30
3986.897
 70
    32
  0
VERTEX
  8
T12SSILL
 62
13
 10
1128.923
 20
-2189.068
 30
3986.922
 70
    32
  0
VERTEX
  8
T12SSILL
 62
13
 10
1126.203
 20
-2184.753
 30
3986.929
 70
    32
  0
VERTEX
  8
T12SSILL
 62
13
 10
1125.418
 20
-2180.529
 30
3986.933
 70
    32
  0
VERTEX
  8
T12SSILL
 62
13
 10
1126.130
 20
-2174.989
 30
3986.937
 70
    32
  0
VERTEX
  8
T12SSILL
 62
13
 10
1114.168
 20
-2174.618
 30
3986.951
 70
    32
  0
VERTEX
  8
T12SSILL
 62
13
 10
1101.761
 20
-2176.445
 30
3986.965
 70
    32
  0
VERTEX
  8
T12SSILL
 62
13
 10
1104.391
 20
-2182.607
 30
3986.957
 70
    32
  0
VERTEX
  8
T12SSILL
 62
13
 10
1111.238
 20
-2191.415
 30
3986.941
 70
    32
  0
VERTEX
  8
T12SSILL
 62
13
 10
1117.670
 20
-2211.028
 30
3986.918
 70
    32
  0
VERTEX
  8
T12SSILL
 62
13
 10
1117.184
 20
-2213.768
 30
3986.916
 70
    32
  0
VERTEX
  8
T12SSILL
 62
13
 10
1121.950
 20
-2222.367
 30
3986.903
 70
    32
  0
SEQEND
  8
T12SSILL
  0
POLYLINE
  8
T12SSILL
 62
13
 66
     1
 70
     9
  0
VERTEX
  8
T12SSILL
 62
13
 10
1128.993
 20
-2232.326
 30
3986.887
 70
    32
  0
VERTEX
  8
T12SSILL
 62
13
 10
1125.156
 20
-2234.892
 30
3986.889
 70
    32
  0
VERTEX
  8
T12SSILL
 62
13
 10
1125.327
 20
-2237.883
 30
3986.887
 70
    32
  0
VERTEX
  8
T12SSILL
 62
13
 10
1131.719
 20
-2256.630
 30
3986.864
 70
    32
  0
VERTEX
  8
T12SSILL
 62
13
 10
1133.464
 20
-2265.429
 30
3986.855
 70
    32
  0
VERTEX
  8
T12SSILL
 62
13
 10
1133.261
 20
-2282.407
 30
3986.841
 70
    32
  0
VERTEX
  8
T12SSILL
 62
13
 10
1134.308
 20
-2288.390
 30
3986.835
 70
    32
  0
VERTEX
  8
T12SSILL
 62
13
 10
1152.191
 20
-2271.529
 30
3986.827
 70
    32
  0
VERTEX
  8
T12SSILL
 62
13
 10
1149.208
 20
-2267.038
 30
3986.834
 70
    32
  0
VERTEX
  8
T12SSILL
 62
13
 10
1143.864
 20
-2253.131
 30
3986.852
 70
    32
  0
VERTEX
  8
T12SSILL
 62
13
 10
1139.143
 20
-2234.738
 30
3986.873
 70
    32
  0
VERTEX
  8
T12SSILL
 62
13
 10
1138.311
 20
-2233.750
 30
3986.874
 70
    32
  0
VERTEX
  8
T12SSILL
 62
13
 10
1132.916
 20
-2237.761
 30
3986.878
 70
    32
  0
SEQEND
  8
T12SSILL
  0
POLYLINE
  8
T12SSILL
 62
13
 66
     1
 70
     9
  0
VERTEX
  8
T12SSILL
 62
13
 10
1172.576
 20
-2194.361
 30
3986.865
 70
    32
  0
VERTEX
  8
T12SSILL
 62
13
 10
1178.060
 20
-2201.915
 30
3986.852
 70
    32
  0
VERTEX
  8
T12SSILL
 62
13
 10
1184.063
 20
-2198.303
 30
3986.847
 70
    32
  0
VERTEX
  8
T12SSILL
 62
13
 10
1181.785
 20
-2192.758
 30
3986.855
 70
    32
  0
VERTEX
  8
T12SSILL
 62
13
 10
1177.742
 20
-2190.552
 30
3986.861
 70
    32
  0
VERTEX
  8
T12SSILL
 62
13
 10
1163.125
 20
-2199.414
 30
3986.872
 70
    32
  0
VERTEX
  8
T12SSILL
 62
13
 10
1162.539
 20
-2201.953
 30
3986.871
 70
    32
  0
SEQEND
  8
T12SSILL
  0
POLYLINE
  8
T12SSILL
 62
13
 66
     1
 70
     9
  0
VERTEX
  8
T12SSILL
 62
13
 10
1165.798
 20
-2220.503
 30
3986.852
 70
    32
  0
VERTEX
  8
T12SSILL
 62
13
 10
1165.627
 20
-2230.382
 30
3986.844
 70
    32
  0
VERTEX
  8
T12SSILL
 62
13
 10
1175.389
 20
-2231.805
 30
3986.831
 70
    32
  0
VERTEX
  8
T12SSILL
 62
13
 10
1184.628
 20
-2230.500
 30
3986.821
 70
    32
  0
VERTEX
  8
T12SSILL
 62
13
 10
1190.174
 20
-2228.046
 30
3986.816
 70
    32
  0
VERTEX
  8
T12SSILL
 62
13
 10
1192.817
 20
-2225.587
 30
3986.815
 70
    32
  0
VERTEX
  8
T12SSILL
 62
13
 10
1191.947
 20
-2219.164
 30
3986.821
 70
    32
  0
VERTEX
  8
T12SSILL
 62
13
 10
1189.671
 20
-2212.035
 30
3986.830
 70
    32
  0
VERTEX
  8
T12SSILL
 62
13
 10
1186.127
 20
-2206.345
 30
3986.838
 70
    32
  0
VERTEX
  8
T12SSILL
 62
13
 10
1176.947
 20
-2212.316
 30
3986.845
 70
    32
  0
VERTEX
  8
T12SSILL
 62
13
 10
1181.250
 20
-2217.338
 30
3986.836
 70
    32
  0
VERTEX
  8
T12SSILL
 62
13
 10
1171.385
 20
-2224.449
 30
3986.842
 70
    32
  0
VERTEX
  8
T12SSILL
 62
13
 10
1167.170
 20
-2219.515
 30
3986.851
 70
    32
  0
SEQEND
  8
T12SSILL
  0
POLYLINE
  8
T12SSILL
 62
13
 66
     1
 70
     9
  0
VERTEX
  8
T12SSILL
 62
13
 10
1074.217
 20
-2505.104
 30
3986.734
 70
    32
  0
VERTEX
  8
T12SSILL
 62
13
 10
1060.325
 20
-2512.763
 30
3986.744
 70
    32
  0
VERTEX
  8
T12SSILL
 62
13
 10
1078.669
 20
-2538.478
 30
3986.701
 70
    32
  0
VERTEX
  8
T12SSILL
 62
13
 10
1092.142
 20
-2529.439
 30
3986.692
 70
    32
  0
VERTEX
  8
T12SSILL
 62
13
 10
1087.653
 20
-2521.947
 30
3986.704
 70
    32
  0
SEQEND
  8
T12SSILL
  0
POLYLINE
  8
T12SSILL
 62
13
 66
     1
 70
     9
  0
VERTEX
  8
T12SSILL
 62
13
 10
1478.211
 20
-2329.286
 30
3986.385
 70
    32
  0
VERTEX
  8
T12SSILL
 62
13
 10
1469.871
 20
-2306.075
 30
3986.414
 70
    32
  0
VERTEX
  8
T12SSILL
 62
13
 10
1465.470
 20
-2307.651
 30
3986.418
 70
    32
  0
VERTEX
  8
T12SSILL
 62
13
 10
1430.414
 20
-2336.097
 30
3986.437
 70
    32
  0
VERTEX
  8
T12SSILL
 62
13
 10
1423.371
 20
-2339.692
 30
3986.443
 70
    32
  0
VERTEX
  8
T12SSILL
 62
13
 10
1434.847
 20
-2370.059
 30
3986.405
 70
    32
  0
VERTEX
  8
T12SSILL
 62
13
 10
1450.984
 20
-2357.856
 30
3986.395
 70
    32
  0
VERTEX
  8
T12SSILL
 62
13
 10
1446.742
 20
-2351.579
 30
3986.405
 70
    32
  0
SEQEND
  8
T12SSILL
  0
POLYLINE
  8
T12SSILL
 62
13
 66
     1
 70
     9
  0
VERTEX
  8
T12SSILL
 62
13
 10
1465.465
 20
-2356.343
 30
3986.378
 70
    32
  0
VERTEX
  8
T12SSILL
 62
13
 10
1437.211
 20
-2376.660
 30
3986.396
 70
    32
  0
VERTEX
  8
T12SSILL
 62
13
 10
1452.628
 20
-2418.292
 30
3986.344
 70
    32
  0
VERTEX
  8
T12SSILL
 62
13
 10
1463.984
 20
-2412.768
 30
3986.335
 70
    32
  0
VERTEX
  8
T12SSILL
 62
13
 10
1477.018
 20
-2403.553
 30
3986.326
 70
    32
  0
VERTEX
  8
T12SSILL
 62
13
 10
1484.329
 20
-2397.407
 30
3986.322
 70
    32
  0
VERTEX
  8
T12SSILL
 62
13
 10
1488.209
 20
-2391.255
 30
3986.323
 70
    32
  0
VERTEX
  8
T12SSILL
 62
13
 10
1486.455
 20
-2387.734
 30
3986.328
 70
    32
  0
VERTEX
  8
T12SSILL
 62
13
 10
1473.983
 20
-2375.838
 30
3986.352
 70
    32
  0
VERTEX
  8
T12SSILL
 62
13
 10
1473.197
 20
-2372.319
 30
3986.356
 70
    32
  0
VERTEX
  8
T12SSILL
 62
13
 10
1475.753
 20
-2368.804
 30
3986.356
 70
    32
  0
VERTEX
  8
T12SSILL
 62
13
 10
1473.671
 20
-2362.560
 30
3986.363
 70
    32
  0
VERTEX
  8
T12SSILL
 62
13
 10
1471.005
 20
-2364.462
 30
3986.365
 70
    32
  0
SEQEND
  8
T12SSILL
  0
POLYLINE
  8
T12SSILL
 62
13
 66
     1
 70
     9
  0
VERTEX
  8
T12SSILL
 62
13
 10
1482.401
 20
-2445.125
 30
3986.286
 70
    32
  0
VERTEX
  8
T12SSILL
 62
13
 10
1479.509
 20
-2441.030
 30
3986.293
 70
    32
  0
VERTEX
  8
T12SSILL
 62
13
 10
1502.671
 20
-2424.265
 30
3986.279
 70
    32
  0
VERTEX
  8
T12SSILL
 62
13
 10
1498.979
 20
-2422.500
 30
3986.284
 70
    32
  0
VERTEX
  8
T12SSILL
 62
13
 10
1494.413
 20
-2417.391
 30
3986.294
 70
    32
  0
VERTEX
  8
T12SSILL
 62
13
 10
1493.458
 20
-2409.209
 30
3986.302
 70
    32
  0
VERTEX
  8
T12SSILL
 62
13
 10
1491.007
 20
-2401.640
 30
3986.311
 70
    32
  0
VERTEX
  8
T12SSILL
 62
13
 10
1470.314
 20
-2414.978
 30
3986.325
 70
    32
  0
VERTEX
  8
T12SSILL
 62
13
 10
1464.675
 20
-2420.687
 30
3986.328
 70
    32
  0
VERTEX
  8
T12SSILL
 62
13
 10
1461.411
 20
-2426.663
 30
3986.327
 70
    32
  0
VERTEX
  8
T12SSILL
 62
13
 10
1460.695
 20
-2434.227
 30
3986.321
 70
    32
  0
VERTEX
  8
T12SSILL
 62
13
 10
1462.263
 20
-2443.994
 30
3986.312
 70
    32
  0
VERTEX
  8
T12SSILL
 62
13
 10
1471.987
 20
-2469.695
 30
3986.279
 70
    32
  0
VERTEX
  8
T12SSILL
 62
13
 10
1486.197
 20
-2459.463
 30
3986.270
 70
    32
  0
VERTEX
  8
T12SSILL
 62
13
 10
1478.263
 20
-2448.144
 30
3986.289
 70
    32
  0
SEQEND
  8
T12SSILL
  0
POLYLINE
  8
T12SSILL
 62
13
 66
     1
 70
     9
  0
VERTEX
  8
T12SSILL
 62
13
 10
2125.713
 20
-4606.780
 30
3986.599
 70
    32
  0
VERTEX
  8
T12SSILL
 62
13
 10
2126.099
 20
-4568.178
 30
3986.485
 70
    32
  0
VERTEX
  8
T12SSILL
 62
13
 10
2172.612
 20
-4568.694
 30
3986.273
 70
    32
  0
VERTEX
  8
T12SSILL
 62
13
 10
2172.614
 20
-4616.790
 30
3986.530
 70
    32
  0
VERTEX
  8
T12SSILL
 62
13
 10
2139.428
 20
-4616.522
 30
3986.583
 70
    32
  0
VERTEX
  8
T12SSILL
 62
13
 10
2139.406
 20
-4606.516
 30
3986.541
 70
    32
  0
SEQEND
  8
T12SSILL
  0
POLYLINE
  8
T12SSILL
 62
13
 66
     1
 70
     9
  0
VERTEX
  8
T12SSILL
 62
13
 10
2057.998
 20
-4602.299
 30
3986.763
 70
    32
  0
VERTEX
  8
T12SSILL
 62
13
 10
2088.876
 20
-4602.292
 30
3986.737
 70
    32
  0
VERTEX
  8
T12SSILL
 62
13
 10
2088.777
 20
-4604.485
 30
3986.744
 70
    32
  0
VERTEX
  8
T12SSILL
 62
13
 10
2118.004
 20
-4604.293
 30
3986.622
 70
    32
  0
VERTEX
  8
T12SSILL
 62
13
 10
2118.198
 20
-4568.661
 30
3986.522
 70
    32
  0
VERTEX
  8
T12SSILL
 62
13
 10
2058.429
 20
-4552.626
 30
3986.760
 70
    32
  0
SEQEND
  8
T12SSILL
  0
POLYLINE
  8
T12SSILL
 62
13
 66
     1
 70
     9
  0
VERTEX
  8
T12SSILL
 62
13
 10
2079.953
 20
-4616.812
 30
3986.751
 70
    32
  0
VERTEX
  8
T12SSILL
 62
13
 10
2079.980
 20
-4656.658
 30
3986.686
 70
    32
  0
VERTEX
  8
T12SSILL
 62
13
 10
2172.562
 20
-4706.837
 30
3986.598
 70
    32
  0
VERTEX
  8
T12SSILL
 62
13
 10
2172.738
 20
-4626.269
 30
3986.566
 70
    32
  0
VERTEX
  8
T12SSILL
 62
13
 10
2125.522
 20
-4625.924
 30
3986.637
 70
    32
  0
VERTEX
  8
T12SSILL
 62
13
 10
2125.662
 20
-4611.883
 30
3986.616
 70
    32
  0
VERTEX
  8
T12SSILL
 62
13
 10
2089.440
 20
-4611.686
 30
3986.739
 70
    32
  0
VERTEX
  8
T12SSILL
 62
13
 10
2089.411
 20
-4616.864
 30
3986.731
 70
    32
  0
SEQEND
  8
T12SSILL
  0
POLYLINE
  8
T12SSILL
 62
13
 66
     1
 70
     9
  0
VERTEX
  8
T12SSILL
 62
13
 10
2046.599
 20
-4549.227
 30
3986.769
 70
    32
  0
VERTEX
  8
T12SSILL
 62
13
 10
2046.591
 20
-4542.089
 30
3986.770
 70
    32
  0
VERTEX
  8
T12SSILL
 62
13
 10
2116.481
 20
-4561.455
 30
3986.513
 70
    32
  0
VERTEX
  8
T12SSILL
 62
13
 10
2172.738
 20
-4561.586
 30
3986.254
 70
    32
  0
VERTEX
  8
T12SSILL
 62
13
 10
2172.660
 20
-4511.559
 30
3986.313
 70
    32
  0
VERTEX
  8
T12SSILL
 62
13
 10
2174.461
 20
-4503.143
 30
3986.328
 70
    32
  0
VERTEX
  8
T12SSILL
 62
13
 10
2174.881
 20
-4490.332
 30
3986.349
 70
    32
  0
VERTEX
  8
T12SSILL
 62
13
 10
2174.802
 20
-4408.095
 30
3986.452
 70
    32
  0
VERTEX
  8
T12SSILL
 62
13
 10
2176.478
 20
-4323.033
 30
3986.468
 70
    32
  0
VERTEX
  8
T12SSILL
 62
13
 10
2042.416
 20
-3797.211
 30
3986.688
 70
    32
  0
VERTEX
  8
T12SSILL
 62
13
 10
1876.980
 20
-3140.330
 30
3986.019
 70
    32
  0
VERTEX
  8
T12SSILL
 62
13
 10
1861.751
 20
-3114.125
 30
3985.997
 70
    32
  0
VERTEX
  8
T12SSILL
 62
13
 10
1847.891
 20
-3084.863
 30
3986.014
 70
    32
  0
VERTEX
  8
T12SSILL
 62
13
 10
1838.905
 20
-3064.216
 30
3986.024
 70
    32
  0
VERTEX
  8
T12SSILL
 62
13
 10
1825.206
 20
-3025.190
 30
3986.033
 70
    32
  0
VERTEX
  8
T12SSILL
 62
13
 10
1750.026
 20
-2952.952
 30
3986.183
 70
    32
  0
VERTEX
  8
T12SSILL
 62
13
 10
1690.305
 20
-2860.909
 30
3986.278
 70
    32
  0
VERTEX
  8
T12SSILL
 62
13
 10
1685.502
 20
-2858.718
 30
3986.289
 70
    32
  0
VERTEX
  8
T12SSILL
 62
13
 10
1667.216
 20
-2857.889
 30
3986.328
 70
    32
  0
VERTEX
  8
T12SSILL
 62
13
 10
1646.854
 20
-2865.561
 30
3986.370
 70
    32
  0
VERTEX
  8
T12SSILL
 62
13
 10
1619.500
 20
-2870.389
 30
3986.409
 70
    32
  0
VERTEX
  8
T12SSILL
 62
13
 10
1611.156
 20
-2869.548
 30
3986.414
 70
    32
  0
VERTEX
  8
T12SSILL
 62
13
 10
1469.387
 20
-2807.212
 30
3986.357
 70
    32
  0
VERTEX
  8
T12SSILL
 62
13
 10
1167.366
 20
-2677.661
 30
3986.501
 70
    32
  0
VERTEX
  8
T12SSILL
 62
13
 10
1100.721
 20
-2619.646
 30
3986.609
 70
    32
  0
VERTEX
  8
T12SSILL
 62
13
 10
1088.730
 20
-2628.329
 30
3986.617
 70
    32
  0
VERTEX
  8
T12SSILL
 62
13
 10
1085.754
 20
-2627.401
 30
3986.621
 70
    32
  0
VERTEX
  8
T12SSILL
 62
13
 10
764.698
 20
-2857.997
 30
3987.003
 70
    32
  0
VERTEX
  8
T12SSILL
 62
13
 10
375.780
 20
-3135.187
 30
3986.994
 70
    32
  0
VERTEX
  8
T12SSILL
 62
13
 10
371.813
 20
-3129.530
 30
3986.995
 70
    32
  0
VERTEX
  8
T12SSILL
 62
13
 10
1092.950
 20
-2613.558
 30
3986.623
 70
    32
  0
VERTEX
  8
T12SSILL
 62
13
 10
1047.466
 20
-2577.925
 30
3986.707
 70
    32
  0
VERTEX
  8
T12SSILL
 62
13
 10
1042.893
 20
-2577.214
 30
3986.714
 70
    32
  0
VERTEX
  8
T12SSILL
 62
13
 10
1040.521
 20
-2575.451
 30
3986.718
 70
    32
  0
VERTEX
  8
T12SSILL
 62
13
 10
1034.201
 20
-2566.645
 30
3986.733
 70
    32
  0
VERTEX
  8
T12SSILL
 62
13
 10
1022.515
 20
-2558.093
 30
3986.754
 70
    32
  0
VERTEX
  8
T12SSILL
 62
13
 10
1013.820
 20
-2549.459
 30
3986.771
 70
    32
  0
VERTEX
  8
T12SSILL
 62
13
 10
1009.607
 20
-2543.558
 30
3986.781
 70
    32
  0
VERTEX
  8
T12SSILL
 62
13
 10
996.781
 20
-2532.894
 30
3986.805
 70
    32
  0
VERTEX
  8
T12SSILL
 62
13
 10
993.187
 20
-2525.148
 30
3986.816
 70
    32
  0
VERTEX
  8
T12SSILL
 62
13
 10
979.572
 20
-2512.547
 30
3986.843
 70
    32
  0
VERTEX
  8
T12SSILL
 62
13
 10
971.309
 20
-2508.927
 30
3986.855
 70
    32
  0
VERTEX
  8
T12SSILL
 62
13
 10
971.231
 20
-2502.593
 30
3986.861
 70
    32
  0
VERTEX
  8
T12SSILL
 62
13
 10
969.478
 20
-2498.808
 30
3986.866
 70
    32
  0
VERTEX
  8
T12SSILL
 62
13
 10
963.948
 20
-2490.970
 30
3986.879
 70
    32
  0
VERTEX
  8
T12SSILL
 62
13
 10
946.561
 20
-2472.118
 30
3986.915
 70
    32
  0
VERTEX
  8
T12SSILL
 62
13
 10
940.864
 20
-2459.002
 30
3986.933
 70
    32
  0
VERTEX
  8
T12SSILL
 62
13
 10
921.637
 20
-2434.957
 30
3986.975
 70
    32
  0
VERTEX
  8
T12SSILL
 62
13
 10
906.117
 20
-2403.352
 30
3987.020
 70
    32
  0
VERTEX
  8
T12SSILL
 62
13
 10
891.457
 20
-2383.977
 30
3987.049
 70
    32
  0
VERTEX
  8
T12SSILL
 62
13
 10
879.684
 20
-2374.897
 30
3987.050
 70
    32
  0
VERTEX
  8
T12SSILL
 62
13
 10
879.171
 20
-2365.836
 30
3987.051
 70
    32
  0
VERTEX
  8
T12SSILL
 62
13
 10
772.617
 20
-2216.037
 30
3987.069
 70
    32
  0
VERTEX
  8
T12SSILL
 62
13
 10
742.324
 20
-2237.013
 30
3987.068
 70
    32
  0
VERTEX
  8
T12SSILL
 62
13
 10
738.104
 20
-2232.426
 30
3987.068
 70
    32
  0
VERTEX
  8
T12SSILL
 62
13
 10
768.586
 20
-2210.299
 30
3987.070
 70
    32
  0
VERTEX
  8
T12SSILL
 62
13
 10
758.926
 20
-2198.052
 30
3987.071
 70
    32
  0
VERTEX
  8
T12SSILL
 62
13
 10
753.823
 20
-2142.254
 30
3987.077
 70
    32
  0
VERTEX
  8
T12SSILL
 62
13
 10
749.246
 20
-2142.598
 30
3987.077
 70
    32
  0
VERTEX
  8
T12SSILL
 62
13
 10
735.850
 20
-2155.689
 30
3987.076
 70
    32
  0
VERTEX
  8
T12SSILL
 62
13
 10
720.872
 20
-2167.193
 30
3987.076
 70
    32
  0
VERTEX
  8
T12SSILL
 62
13
 10
714.443
 20
-2170.262
 30
3987.075
 70
    32
  0
VERTEX
  8
T12SSILL
 62
13
 10
711.984
 20
-2167.706
 30
3987.076
 70
    32
  0
VERTEX
  8
T12SSILL
 62
13
 10
710.847
 20
-2163.305
 30
3987.076
 70
    32
  0
VERTEX
  8
T12SSILL
 62
13
 10
714.901
 20
-2158.999
 30
3987.077
 70
    32
  0
VERTEX
  8
T12SSILL
 62
13
 10
700.853
 20
-2139.002
 30
3987.079
 70
    32
  0
VERTEX
  8
T12SSILL
 62
13
 10
701.227
 20
-2125.451
 30
3987.080
 70
    32
  0
VERTEX
  8
T12SSILL
 62
13
 10
680.189
 20
-2073.939
 30
3987.086
 70
    32
  0
VERTEX
  8
T12SSILL
 62
13
 10
676.765
 20
-2069.094
 30
3987.087
 70
    32
  0
VERTEX
  8
T12SSILL
 62
13
 10
658.774
 20
-2059.730
 30
3987.088
 70
    32
  0
VERTEX
  8
T12SSILL
 62
13
 10
657.336
 20
-2060.665
 30
3987.088
 70
    32
  0
VERTEX
  8
T12SSILL
 62
13
 10
651.180
 20
-2054.886
 30
3987.089
 70
    32
  0
VERTEX
  8
T12SSILL
 62
13
 10
636.629
 20
-2019.312
 30
3987.093
 70
    32
  0
VERTEX
  8
T12SSILL
 62
13
 10
608.621
 20
-1979.669
 30
3987.098
 70
    32
  0
VERTEX
  8
T12SSILL
 62
13
 10
610.915
 20
-1975.536
 30
3987.098
 70
    32
  0
VERTEX
  8
T12SSILL
 62
13
 10
633.118
 20
-1958.236
 30
3987.100
 70
    32
  0
VERTEX
  8
T12SSILL
 62
13
 10
650.647
 20
-1946.912
 30
3987.100
 70
    32
  0
VERTEX
  8
T12SSILL
 62
13
 10
660.697
 20
-1935.577
 30
3987.101
 70
    32
  0
VERTEX
  8
T12SSILL
 62
13
 10
660.793
 20
-1930.297
 30
3987.102
 70
    32
  0
VERTEX
  8
T12SSILL
 62
13
 10
649.914
 20
-1911.940
 30
3987.104
 70
    32
  0
VERTEX
  8
T12SSILL
 62
13
 10
624.478
 20
-1859.286
 30
3987.110
 70
    32
  0
VERTEX
  8
T12SSILL
 62
13
 10
559.899
 20
-1870.350
 30
3987.111
 70
    32
  0
VERTEX
  8
T12SSILL
 62
13
 10
558.203
 20
-1863.587
 30
3987.112
 70
    32
  0
VERTEX
  8
T12SSILL
 62
13
 10
621.554
 20
-1853.495
 30
3987.111
 70
    32
  0
VERTEX
  8
T12SSILL
 62
13
 10
592.404
 20
-1795.493
 30
3987.118
 70
    32
  0
VERTEX
  8
T12SSILL
 62
13
 10
591.879
 20
-1773.339
 30
3987.120
 70
    32
  0
VERTEX
  8
T12SSILL
 62
13
 10
589.407
 20
-1770.887
 30
3987.121
 70
    32
  0
VERTEX
  8
T12SSILL
 62
13
 10
517.776
 20
-1617.744
 30
3987.148
 70
    32
  0
VERTEX
  8
T12SSILL
 62
13
 10
407.477
 20
-1650.965
 30
3987.146
 70
    32
  0
VERTEX
  8
T12SSILL
 62
13
 10
405.736
 20
-1655.543
 30
3987.145
 70
    32
  0
VERTEX
  8
T12SSILL
 62
13
 10
405.342
 20
-1667.326
 30
3987.144
 70
    32
  0
VERTEX
  8
T12SSILL
 62
13
 10
390.762
 20
-1671.075
 30
3987.142
 70
    32
  0
VERTEX
  8
T12SSILL
 62
13
 10
384.559
 20
-1658.526
 30
3987.144
 70
    32
  0
VERTEX
  8
T12SSILL
 62
13
 10
366.646
 20
-1664.310
 30
3987.142
 70
    32
  0
VERTEX
  8
T12SSILL
 62
13
 10
355.942
 20
-1669.979
 30
3987.141
 70
    32
  0
VERTEX
  8
T12SSILL
 62
13
 10
180.148
 20
-1795.505
 30
3987.132
 70
    32
  0
VERTEX
  8
T12SSILL
 62
13
 10
175.026
 20
-1789.722
 30
3987.133
 70
    32
  0
VERTEX
  8
T12SSILL
 62
13
 10
337.759
 20
-1674.445
 30
3987.139
 70
    32
  0
VERTEX
  8
T12SSILL
 62
13
 10
345.985
 20
-1664.303
 30
3987.141
 70
    32
  0
VERTEX
  8
T12SSILL
 62
13
 10
348.310
 20
-1651.897
 30
3987.143
 70
    32
  0
VERTEX
  8
T12SSILL
 62
13
 10
312.499
 20
-1562.263
 30
3987.154
 70
    32
  0
VERTEX
  8
T12SSILL
 62
13
 10
355.230
 20
-1531.420
 30
3987.160
 70
    32
  0
VERTEX
  8
T12SSILL
 62
13
 10
290.025
 20
-1425.905
 30
3987.171
 70
    32
  0
VERTEX
  8
T12SSILL
 62
13
 10
291.048
 20
-1417.724
 30
3987.173
 70
    32
  0
VERTEX
  8
T12SSILL
 62
13
 10
295.941
 20
-1409.968
 30
3987.174
 70
    32
  0
VERTEX
  8
T12SSILL
 62
13
 10
298.395
 20
-1407.849
 30
3987.174
 70
    32
  0
VERTEX
  8
T12SSILL
 62
13
 10
309.191
 20
-1403.147
 30
3987.176
 70
    32
  0
VERTEX
  8
T12SSILL
 62
13
 10
310.499
 20
-1400.241
 30
3987.176
 70
    32
  0
VERTEX
  8
T12SSILL
 62
13
 10
319.956
 20
-1390.533
 30
3987.178
 70
    32
  0
VERTEX
  8
T12SSILL
 62
13
 10
325.584
 20
-1390.775
 30
3987.178
 70
    32
  0
VERTEX
  8
T12SSILL
 62
13
 10
333.794
 20
-1399.447
 30
3987.177
 70
    32
  0
VERTEX
  8
T12SSILL
 62
13
 10
336.465
 20
-1408.053
 30
3987.176
 70
    32
  0
VERTEX
  8
T12SSILL
 62
13
 10
338.223
 20
-1408.046
 30
3987.176
 70
    32
  0
VERTEX
  8
T12SSILL
 62
13
 10
348.637
 20
-1418.205
 30
3987.175
 70
    32
  0
VERTEX
  8
T12SSILL
 62
13
 10
355.101
 20
-1430.049
 30
3987.174
 70
    32
  0
VERTEX
  8
T12SSILL
 62
13
 10
363.201
 20
-1433.007
 30
3987.174
 70
    32
  0
VERTEX
  8
T12SSILL
 62
13
 10
370.797
 20
-1442.033
 30
3987.173
 70
    32
  0
VERTEX
  8
T12SSILL
 62
13
 10
371.268
 20
-1450.032
 30
3987.172
 70
    32
  0
VERTEX
  8
T12SSILL
 62
13
 10
374.447
 20
-1453.537
 30
3987.172
 70
    32
  0
VERTEX
  8
T12SSILL
 62
13
 10
380.658
 20
-1468.195
 30
3987.170
 70
    32
  0
VERTEX
  8
T12SSILL
 62
13
 10
392.345
 20
-1489.426
 30
3987.167
 70
    32
  0
VERTEX
  8
T12SSILL
 62
13
 10
394.905
 20
-1491.966
 30
3987.167
 70
    32
  0
VERTEX
  8
T12SSILL
 62
13
 10
406.870
 20
-1494.030
 30
3987.168
 70
    32
  0
VERTEX
  8
T12SSILL
 62
13
 10
453.950
 20
-1459.735
 30
3987.174
 70
    32
  0
VERTEX
  8
T12SSILL
 62
13
 10
259.216
 20
-1189.256
 30
3987.203
 70
    32
  0
VERTEX
  8
T12SSILL
 62
13
 10
255.510
 20
-1185.665
 30
3987.204
 70
    32
  0
VERTEX
  8
T12SSILL
 62
13
 10
250.669
 20
-1184.277
 30
3987.204
 70
    32
  0
VERTEX
  8
T12SSILL
 62
13
 10
246.172
 20
-1181.042
 30
3987.204
 70
    32
  0
VERTEX
  8
T12SSILL
 62
13
 10
139.093
 20
-1028.503
 30
3987.202
 70
    32
  0
VERTEX
  8
T12SSILL
 62
13
 10
80.792
 20
-955.727
 30
3987.201
 70
    32
  0
VERTEX
  8
T12SSILL
 62
13
 10
87.227
 20
-951.374
 30
3987.201
 70
    32
  0
VERTEX
  8
T12SSILL
 62
13
 10
150.085
 20
-1024.213
 30
3987.204
 70
    32
  0
VERTEX
  8
T12SSILL
 62
13
 10
308.489
 20
-1244.455
 30
3987.198
 70
    32
  0
VERTEX
  8
T12SSILL
 62
13
 10
369.426
 20
-914.089
 30
3987.228
 70
    32
  0
VERTEX
  8
T12SSILL
 62
13
 10
373.454
 20
-886.229
 30
3987.230
 70
    32
  0
VERTEX
  8
T12SSILL
 62
13
 10
372.207
 20
-874.404
 30
3987.230
 70
    32
  0
VERTEX
  8
T12SSILL
 62
13
 10
381.556
 20
-811.159
 30
3987.234
 70
    32
  0
VERTEX
  8
T12SSILL
 62
13
 10
360.847
 20
-807.823
 30
3987.232
 70
    32
  0
VERTEX
  8
T12SSILL
 62
13
 10
359.907
 20
-801.703
 30
3987.232
 70
    32
  0
VERTEX
  8
T12SSILL
 62
13
 10
356.377
 20
-796.826
 30
3987.232
 70
    32
  0
VERTEX
  8
T12SSILL
 62
13
 10
363.840
 20
-784.293
 30
3987.233
 70
    32
  0
VERTEX
  8
T12SSILL
 62
13
 10
369.484
 20
-784.813
 30
3987.234
 70
    32
  0
VERTEX
  8
T12SSILL
 62
13
 10
361.464
 20
-796.454
 30
3987.233
 70
    32
  0
VERTEX
  8
T12SSILL
 62
13
 10
363.089
 20
-799.821
 30
3987.233
 70
    32
  0
VERTEX
  8
T12SSILL
 62
13
 10
368.287
 20
-802.347
 30
3987.233
 70
    32
  0
VERTEX
  8
T12SSILL
 62
13
 10
378.384
 20
-804.157
 30
3987.234
 70
    32
  0
VERTEX
  8
T12SSILL
 62
13
 10
383.014
 20
-801.076
 30
3987.234
 70
    32
  0
VERTEX
  8
T12SSILL
 62
13
 10
383.733
 20
-796.915
 30
3987.235
 70
    32
  0
VERTEX
  8
T12SSILL
 62
13
 10
381.770
 20
-789.339
 30
3987.235
 70
    32
  0
VERTEX
  8
T12SSILL
 62
13
 10
384.354
 20
-776.487
 30
3987.236
 70
    32
  0
VERTEX
  8
T12SSILL
 62
13
 10
394.354
 20
-755.257
 30
3987.237
 70
    32
  0
VERTEX
  8
T12SSILL
 62
13
 10
411.533
 20
-650.989
 30
3987.244
 70
    32
  0
VERTEX
  8
T12SSILL
 62
13
 10
418.919
 20
-652.081
 30
3987.244
 70
    32
  0
VERTEX
  8
T12SSILL
 62
13
 10
368.144
 20
-960.770
 30
3987.226
 70
    32
  0
VERTEX
  8
T12SSILL
 62
13
 10
313.272
 20
-1253.492
 30
3987.197
 70
    32
  0
VERTEX
  8
T12SSILL
 62
13
 10
422.605
 20
-1402.533
 30
3987.181
 70
    32
  0
VERTEX
  8
T12SSILL
 62
13
 10
433.352
 20
-1407.854
 30
3987.181
 70
    32
  0
VERTEX
  8
T12SSILL
 62
13
 10
507.334
 20
-1418.558
 30
3987.183
 70
    32
  0
VERTEX
  8
T12SSILL
 62
13
 10
551.820
 20
-1372.667
 30
3987.191
 70
    32
  0
VERTEX
  8
T12SSILL
 62
13
 10
563.930
 20
-1366.730
 30
3987.193
 70
    32
  0
VERTEX
  8
T12SSILL
 62
13
 10
576.924
 20
-1362.108
 30
3987.193
 70
    32
  0
VERTEX
  8
T12SSILL
 62
13
 10
576.557
 20
-1358.241
 30
3987.194
 70
    32
  0
VERTEX
  8
T12SSILL
 62
13
 10
573.642
 20
-1354.560
 30
3987.195
 70
    32
  0
VERTEX
  8
T12SSILL
 62
13
 10
576.090
 20
-1351.121
 30
3987.195
 70
    32
  0
VERTEX
  8
T12SSILL
 62
13
 10
605.402
 20
-1337.380
 30
3987.166
 70
    32
  0
VERTEX
  8
T12SSILL
 62
13
 10
648.904
 20
-1332.552
 30
3987.072
 70
    32
  0
VERTEX
  8
T12SSILL
 62
13
 10
1008.189
 20
-1135.399
 30
3986.542
 70
    32
  0
VERTEX
  8
T12SSILL
 62
13
 10
1014.136
 20
-1129.043
 30
3986.538
 70
    32
  0
VERTEX
  8
T12SSILL
 62
13
 10
1022.106
 20
-1123.117
 30
3986.528
 70
    32
  0
VERTEX
  8
T12SSILL
 62
13
 10
1044.376
 20
-1111.588
 30
3986.494
 70
    32
  0
VERTEX
  8
T12SSILL
 62
13
 10
1055.848
 20
-1102.658
 30
3986.482
 70
    32
  0
VERTEX
  8
T12SSILL
 62
13
 10
1101.981
 20
-1081.789
 30
3986.419
 70
    32
  0
VERTEX
  8
T12SSILL
 62
13
 10
1112.764
 20
-1075.938
 30
3986.440
 70
    32
  0
VERTEX
  8
T12SSILL
 62
13
 10
1126.337
 20
-1065.416
 30
3986.482
 70
    32
  0
VERTEX
  8
T12SSILL
 62
13
 10
1131.842
 20
-1058.359
 30
3986.513
 70
    32
  0
VERTEX
  8
T12SSILL
 62
13
 10
1135.059
 20
-1050.962
 30
3986.546
 70
    32
  0
VERTEX
  8
T12SSILL
 62
13
 10
1141.772
 20
-1020.433
 30
3986.689
 70
    32
  0
VERTEX
  8
T12SSILL
 62
13
 10
1160.220
 20
-999.781
 30
3986.776
 70
    32
  0
VERTEX
  8
T12SSILL
 62
13
 10
1283.508
 20
-750.130
 30
3987.324
 70
    32
  0
VERTEX
  8
T12SSILL
 62
13
 10
1290.203
 20
-753.438
 30
3987.325
 70
    32
  0
VERTEX
  8
T12SSILL
 62
13
 10
1152.035
 20
-1034.975
 30
3986.612
 70
    32
  0
VERTEX
  8
T12SSILL
 62
13
 10
1650.185
 20
-842.834
 30
3987.315
 70
    32
  0
VERTEX
  8
T12SSILL
 62
13
 10
1648.977
 20
-838.003
 30
3987.312
 70
    32
  0
VERTEX
  8
T12SSILL
 62
13
 10
1655.887
 20
-836.274
 30
3987.327
 70
    32
  0
VERTEX
  8
T12SSILL
 62
13
 10
1656.882
 20
-840.254
 30
3987.330
 70
    32
  0
VERTEX
  8
T12SSILL
 62
13
 10
1662.017
 20
-838.277
 30
3987.341
 70
    32
  0
VERTEX
  8
T12SSILL
 62
13
 10
1674.063
 20
-820.643
 30
3987.365
 70
    32
  0
VERTEX
  8
T12SSILL
 62
13
 10
1683.285
 20
-800.385
 30
3987.399
 70
    32
  0
VERTEX
  8
T12SSILL
 62
13
 10
1699.931
 20
-807.866
 30
3987.394
 70
    32
  0
VERTEX
  8
T12SSILL
 62
13
 10
1692.362
 20
-824.425
 30
3987.385
 70
    32
  0
VERTEX
  8
T12SSILL
 62
13
 10
1694.036
 20
-825.384
 30
3987.385
 70
    32
  0
VERTEX
  8
T12SSILL
 62
13
 10
1811.598
 20
-780.452
 30
3987.375
 70
    32
  0
VERTEX
  8
T12SSILL
 62
13
 10
1814.388
 20
-775.693
 30
3987.376
 70
    32
  0
VERTEX
  8
T12SSILL
 62
13
 10
1814.876
 20
-767.254
 30
3987.378
 70
    32
  0
VERTEX
  8
T12SSILL
 62
13
 10
1811.766
 20
-759.973
 30
3987.380
 70
    32
  0
VERTEX
  8
T12SSILL
 62
13
 10
1805.041
 20
-750.073
 30
3987.382
 70
    32
  0
VERTEX
  8
T12SSILL
 62
13
 10
1819.332
 20
-742.536
 30
3987.380
 70
    32
  0
VERTEX
  8
T12SSILL
 62
13
 10
1832.379
 20
-732.280
 30
3987.377
 70
    32
  0
VERTEX
  8
T12SSILL
 62
13
 10
1844.236
 20
-711.659
 30
3987.375
 70
    32
  0
VERTEX
  8
T12SSILL
 62
13
 10
1866.059
 20
-679.566
 30
3987.371
 70
    32
  0
VERTEX
  8
T12SSILL
 62
13
 10
1876.998
 20
-669.583
 30
3987.369
 70
    32
  0
VERTEX
  8
T12SSILL
 62
13
 10
1907.736
 20
-626.814
 30
3987.364
 70
    32
  0
VERTEX
  8
T12SSILL
 62
13
 10
1911.841
 20
-621.258
 30
3987.363
 70
    32
  0
VERTEX
  8
T12SSILL
 62
13
 10
1933.144
 20
-590.749
 30
3987.359
 70
    32
  0
VERTEX
  8
T12SSILL
 62
13
 10
1992.136
 20
-575.973
 30
3987.350
 70
    32
  0
VERTEX
  8
T12SSILL
 62
13
 10
1991.761
 20
-570.789
 30
3987.350
 70
    32
  0
VERTEX
  8
T12SSILL
 62
13
 10
1996.723
 20
-560.571
 30
3987.349
 70
    32
  0
VERTEX
  8
T12SSILL
 62
13
 10
1997.926
 20
-554.677
 30
3987.349
 70
    32
  0
VERTEX
  8
T12SSILL
 62
13
 10
1997.057
 20
-538.070
 30
3987.349
 70
    32
  0
VERTEX
  8
T12SSILL
 62
13
 10
1990.398
 20
-523.599
 30
3987.349
 70
    32
  0
VERTEX
  8
T12SSILL
 62
13
 10
2006.822
 20
-521.062
 30
3987.347
 70
    32
  0
VERTEX
  8
T12SSILL
 62
13
 10
2005.317
 20
-537.592
 30
3987.347
 70
    32
  0
VERTEX
  8
T12SSILL
 62
13
 10
2005.513
 20
-542.073
 30
3987.347
 70
    32
  0
VERTEX
  8
T12SSILL
 62
13
 10
2006.933
 20
-544.879
 30
3987.347
 70
    32
  0
VERTEX
  8
T12SSILL
 62
13
 10
2024.674
 20
-561.232
 30
3987.345
 70
    32
  0
VERTEX
  8
T12SSILL
 62
13
 10
2031.284
 20
-565.156
 30
3987.344
 70
    32
  0
VERTEX
  8
T12SSILL
 62
13
 10
2033.395
 20
-565.410
 30
3987.344
 70
    32
  0
VERTEX
  8
T12SSILL
 62
13
 10
2040.488
 20
-559.840
 30
3987.343
 70
    32
  0
VERTEX
  8
T12SSILL
 62
13
 10
2048.997
 20
-556.460
 30
3987.341
 70
    32
  0
VERTEX
  8
T12SSILL
 62
13
 10
2072.035
 20
-539.830
 30
3987.337
 70
    32
  0
VERTEX
  8
T12SSILL
 62
13
 10
2065.564
 20
-527.995
 30
3987.338
 70
    32
  0
VERTEX
  8
T12SSILL
 62
13
 10
2066.040
 20
-517.006
 30
3987.338
 70
    32
  0
VERTEX
  8
T12SSILL
 62
13
 10
2073.582
 20
-494.648
 30
3987.341
 70
    32
  0
VERTEX
  8
T12SSILL
 62
13
 10
2067.100
 20
-480.528
 30
3987.345
 70
    32
  0
VERTEX
  8
T12SSILL
 62
13
 10
2070.601
 20
-477.347
 30
3987.345
 70
    32
  0
VERTEX
  8
T12SSILL
 62
13
 10
2093.030
 20
-481.022
 30
3987.343
 70
    32
  0
VERTEX
  8
T12SSILL
 62
13
 10
2103.791
 20
-489.234
 30
3987.340
 70
    32
  0
VERTEX
  8
T12SSILL
 62
13
 10
2112.764
 20
-491.037
 30
3987.339
 70
    32
  0
VERTEX
  8
T12SSILL
 62
13
 10
2115.499
 20
-493.398
 30
3987.338
 70
    32
  0
VERTEX
  8
T12SSILL
 62
13
 10
2138.434
 20
-530.204
 30
3987.328
 70
    32
  0
VERTEX
  8
T12SSILL
 62
13
 10
2122.400
 20
-540.913
 30
3987.330
 70
    32
  0
VERTEX
  8
T12SSILL
 62
13
 10
2098.644
 20
-535.223
 30
3987.333
 70
    32
  0
VERTEX
  8
T12SSILL
 62
13
 10
2095.481
 20
-535.590
 30
3987.334
 70
    32
  0
VERTEX
  8
T12SSILL
 62
13
 10
2087.168
 20
-543.363
 30
3987.335
 70
    32
  0
VERTEX
  8
T12SSILL
 62
13
 10
2076.986
 20
-546.135
 30
3987.337
 70
    32
  0
VERTEX
  8
T12SSILL
 62
13
 10
2061.483
 20
-557.720
 30
3987.339
 70
    32
  0
VERTEX
  8
T12SSILL
 62
13
 10
2032.638
 20
-572.708
 30
3987.344
 70
    32
  0
VERTEX
  8
T12SSILL
 62
13
 10
2019.081
 20
-586.921
 30
3987.346
 70
    32
  0
VERTEX
  8
T12SSILL
 62
13
 10
2013.941
 20
-596.613
 30
3987.347
 70
    32
  0
VERTEX
  8
T12SSILL
 62
13
 10
2011.863
 20
-603.390
 30
3987.348
 70
    32
  0
VERTEX
  8
T12SSILL
 62
13
 10
2011.884
 20
-607.872
 30
3987.348
 70
    32
  0
VERTEX
  8
T12SSILL
 62
13
 10
2019.121
 20
-614.342
 30
3987.347
 70
    32
  0
VERTEX
  8
T12SSILL
 62
13
 10
2022.905
 20
-615.291
 30
3987.346
 70
    32
  0
VERTEX
  8
T12SSILL
 62
13
 10
2020.783
 20
-631.473
 30
3987.347
 70
    32
  0
VERTEX
  8
T12SSILL
 62
13
 10
2023.700
 20
-635.151
 30
3987.347
 70
    32
  0
VERTEX
  8
T12SSILL
 62
13
 10
2024.330
 20
-638.136
 30
3987.347
 70
    32
  0
VERTEX
  8
T12SSILL
 62
13
 10
2019.367
 20
-648.354
 30
3987.348
 70
    32
  0
VERTEX
  8
T12SSILL
 62
13
 10
2012.798
 20
-653.219
 30
3987.349
 70
    32
  0
VERTEX
  8
T12SSILL
 62
13
 10
2002.653
 20
-663.900
 30
3987.350
 70
    32
  0
VERTEX
  8
T12SSILL
 62
13
 10
1994.267
 20
-674.838
 30
3987.352
 70
    32
  0
VERTEX
  8
T12SSILL
 62
13
 10
1989.655
 20
-684.703
 30
3987.353
 70
    32
  0
VERTEX
  8
T12SSILL
 62
13
 10
1989.944
 20
-690.238
 30
3987.352
 70
    32
  0
VERTEX
  8
T12SSILL
 62
13
 10
1992.689
 20
-694.532
 30
3987.351
 70
    32
  0
VERTEX
  8
T12SSILL
 62
13
 10
1999.298
 20
-698.369
 30
3987.348
 70
    32
  0
VERTEX
  8
T12SSILL
 62
13
 10
2019.627
 20
-704.075
 30
3987.342
 70
    32
  0
VERTEX
  8
T12SSILL
 62
13
 10
2120.693
 20
-702.725
 30
3987.319
 70
    32
  0
VERTEX
  8
T12SSILL
 62
13
 10
2119.873
 20
-696.489
 30
3987.320
 70
    32
  0
VERTEX
  8
T12SSILL
 62
13
 10
2139.988
 20
-694.110
 30
3987.316
 70
    32
  0
VERTEX
  8
T12SSILL
 62
13
 10
2142.017
 20
-714.491
 30
3987.311
 70
    32
  0
VERTEX
  8
T12SSILL
 62
13
 10
2134.726
 20
-715.403
 30
3987.313
 70
    32
  0
VERTEX
  8
T12SSILL
 62
13
 10
2280.477
 20
-909.903
 30
3987.235
 70
    32
  0
VERTEX
  8
T12SSILL
 62
13
 10
2276.709
 20
-913.019
 30
3987.233
 70
    32
  0
VERTEX
  8
T12SSILL
 62
13
 10
2127.438
 20
-716.756
 30
3987.314
 70
    32
  0
VERTEX
  8
T12SSILL
 62
13
 10
2120.323
 20
-717.580
 30
3987.316
 70
    32
  0
VERTEX
  8
T12SSILL
 62
13
 10
2119.149
 20
-710.818
 30
3987.317
 70
    32
  0
VERTEX
  8
T12SSILL
 62
13
 10
2018.781
 20
-711.197
 30
3987.341
 70
    32
  0
VERTEX
  8
T12SSILL
 62
13
 10
2005.762
 20
-708.621
 30
3987.345
 70
    32
  0
VERTEX
  8
T12SSILL
 62
13
 10
1995.830
 20
-708.668
 30
3987.347
 70
    32
  0
VERTEX
  8
T12SSILL
 62
13
 10
1990.364
 20
-705.002
 30
3987.349
 70
    32
  0
VERTEX
  8
T12SSILL
 62
13
 10
1981.830
 20
-703.020
 30
3987.352
 70
    32
  0
VERTEX
  8
T12SSILL
 62
13
 10
1973.530
 20
-713.605
 30
3987.351
 70
    32
  0
VERTEX
  8
T12SSILL
 62
13
 10
1963.610
 20
-716.113
 30
3987.353
 70
    32
  0
VERTEX
  8
T12SSILL
 62
13
 10
1955.669
 20
-709.382
 30
3987.356
 70
    32
  0
VERTEX
  8
T12SSILL
 62
13
 10
1956.755
 20
-697.424
 30
3987.358
 70
    32
  0
VERTEX
  8
T12SSILL
 62
13
 10
1955.078
 20
-695.850
 30
3987.358
 70
    32
  0
VERTEX
  8
T12SSILL
 62
13
 10
1884.424
 20
-678.865
 30
3987.368
 70
    32
  0
VERTEX
  8
T12SSILL
 62
13
 10
1876.524
 20
-680.923
 30
3987.370
 70
    32
  0
VERTEX
  8
T12SSILL
 62
13
 10
1868.477
 20
-689.310
 30
3987.371
 70
    32
  0
VERTEX
  8
T12SSILL
 62
13
 10
1852.410
 20
-711.621
 30
3987.374
 70
    32
  0
VERTEX
  8
T12SSILL
 62
13
 10
1843.253
 20
-727.132
 30
3987.376
 70
    32
  0
VERTEX
  8
T12SSILL
 62
13
 10
1841.175
 20
-733.821
 30
3987.376
 70
    32
  0
VERTEX
  8
T12SSILL
 62
13
 10
1833.578
 20
-744.403
 30
3987.378
 70
    32
  0
VERTEX
  8
T12SSILL
 62
13
 10
1821.825
 20
-749.468
 30
3987.379
 70
    32
  0
VERTEX
  8
T12SSILL
 62
13
 10
1819.813
 20
-751.498
 30
3987.380
 70
    32
  0
VERTEX
  8
T12SSILL
 62
13
 10
1819.937
 20
-759.232
 30
3987.378
 70
    32
  0
VERTEX
  8
T12SSILL
 62
13
 10
1824.769
 20
-777.842
 30
3987.373
 70
    32
  0
VERTEX
  8
T12SSILL
 62
13
 10
1824.354
 20
-783.029
 30
3987.372
 70
    32
  0
VERTEX
  8
T12SSILL
 62
13
 10
1706.181
 20
-828.755
 30
3987.381
 70
    32
  0
VERTEX
  8
T12SSILL
 62
13
 10
1705.233
 20
-832.890
 30
3987.378
 70
    32
  0
VERTEX
  8
T12SSILL
 62
13
 10
1732.227
 20
-854.297
 30
3987.361
 70
    32
  0
VERTEX
  8
T12SSILL
 62
13
 10
1748.137
 20
-854.750
 30
3987.358
 70
    32
  0
VERTEX
  8
T12SSILL
 62
13
 10
1750.874
 20
-857.462
 30
3987.356
 70
    32
  0
VERTEX
  8
T12SSILL
 62
13
 10
1750.369
 20
-862.298
 30
3987.354
 70
    32
  0
VERTEX
  8
T12SSILL
 62
13
 10
1747.065
 20
-869.872
 30
3987.350
 70
    32
  0
VERTEX
  8
T12SSILL
 62
13
 10
1743.044
 20
-874.637
 30
3987.348
 70
    32
  0
VERTEX
  8
T12SSILL
 62
13
 10
1744.126
 20
-880.520
 30
3987.344
 70
    32
  0
VERTEX
  8
T12SSILL
 62
13
 10
1738.262
 20
-885.733
 30
3987.342
 70
    32
  0
VERTEX
  8
T12SSILL
 62
13
 10
1737.152
 20
-892.769
 30
3987.338
 70
    32
  0
VERTEX
  8
T12SSILL
 62
13
 10
1737.629
 20
-900.765
 30
3987.334
 70
    32
  0
VERTEX
  8
T12SSILL
 62
13
 10
1731.095
 20
-932.084
 30
3987.317
 70
    32
  0
VERTEX
  8
T12SSILL
 62
13
 10
1720.654
 20
-935.824
 30
3987.317
 70
    32
  0
VERTEX
  8
T12SSILL
 62
13
 10
1718.011
 20
-934.518
 30
3987.318
 70
    32
  0
VERTEX
  8
T12SSILL
 62
13
 10
1715.801
 20
-931.804
 30
3987.320
 70
    32
  0
VERTEX
  8
T12SSILL
 62
13
 10
1716.393
 20
-926.791
 30
3987.322
 70
    32
  0
VERTEX
  8
T12SSILL
 62
13
 10
1713.822
 20
-921.969
 30
3987.326
 70
    32
  0
VERTEX
  8
T12SSILL
 62
13
 10
1714.964
 20
-902.980
 30
3987.336
 70
    32
  0
VERTEX
  8
T12SSILL
 62
13
 10
1720.532
 20
-890.913
 30
3987.342
 70
    32
  0
VERTEX
  8
T12SSILL
 62
13
 10
1719.732
 20
-888.896
 30
3987.344
 70
    32
  0
VERTEX
  8
T12SSILL
 62
13
 10
1729.398
 20
-869.603
 30
3987.353
 70
    32
  0
VERTEX
  8
T12SSILL
 62
13
 10
1727.428
 20
-861.790
 30
3987.358
 70
    32
  0
VERTEX
  8
T12SSILL
 62
13
 10
1700.870
 20
-839.678
 30
3987.375
 70
    32
  0
VERTEX
  8
T12SSILL
 62
13
 10
1686.352
 20
-836.054
 30
3987.380
 70
    32
  0
VERTEX
  8
T12SSILL
 62
13
 10
1147.247
 20
-1044.753
 30
3986.568
 70
    32
  0
VERTEX
  8
T12SSILL
 62
13
 10
1131.484
 20
-1075.851
 30
3986.429
 70
    32
  0
VERTEX
  8
T12SSILL
 62
13
 10
1131.680
 20
-1080.332
 30
3986.407
 70
    32
  0
VERTEX
  8
T12SSILL
 62
13
 10
1133.897
 20
-1084.541
 30
3986.385
 70
    32
  0
VERTEX
  8
T12SSILL
 62
13
 10
1180.792
 20
-1114.204
 30
3986.303
 70
    32
  0
VERTEX
  8
T12SSILL
 62
13
 10
1200.130
 20
-1133.626
 30
3986.353
 70
    32
  0
VERTEX
  8
T12SSILL
 62
13
 10
1211.178
 20
-1146.758
 30
3986.415
 70
    32
  0
VERTEX
  8
T12SSILL
 62
13
 10
1231.370
 20
-1179.798
 30
3986.567
 70
    32
  0
VERTEX
  8
T12SSILL
 62
13
 10
1234.387
 20
-1185.848
 30
3986.595
 70
    32
  0
VERTEX
  8
T12SSILL
 62
13
 10
1243.320
 20
-1216.919
 30
3986.735
 70
    32
  0
VERTEX
  8
T12SSILL
 62
13
 10
1594.323
 20
-1905.121
 30
3986.586
 70
    32
  0
VERTEX
  8
T12SSILL
 62
13
 10
1622.683
 20
-1963.248
 30
3986.504
 70
    32
  0
VERTEX
  8
T12SSILL
 62
13
 10
1634.480
 20
-1957.461
 30
3986.495
 70
    32
  0
VERTEX
  8
T12SSILL
 62
13
 10
1638.865
 20
-1965.737
 30
3986.483
 70
    32
  0
VERTEX
  8
T12SSILL
 62
13
 10
1625.925
 20
-1971.346
 30
3986.494
 70
    32
  0
VERTEX
  8
T12SSILL
 62
13
 10
1767.993
 20
-2247.346
 30
3986.099
 70
    32
  0
VERTEX
  8
T12SSILL
 62
13
 10
1769.486
 20
-2249.019
 30
3986.096
 70
    32
  0
VERTEX
  8
T12SSILL
 62
13
 10
1774.416
 20
-2246.740
 30
3986.092
 70
    32
  0
VERTEX
  8
T12SSILL
 62
13
 10
1785.901
 20
-2270.685
 30
3986.058
 70
    32
  0
VERTEX
  8
T12SSILL
 62
13
 10
1783.168
 20
-2274.815
 30
3986.058
 70
    32
  0
VERTEX
  8
T12SSILL
 62
13
 10
1784.654
 20
-2280.711
 30
3986.052
 70
    32
  0
VERTEX
  8
T12SSILL
 62
13
 10
1951.890
 20
-2606.363
 30
3985.893
 70
    32
  0
VERTEX
  8
T12SSILL
 62
13
 10
1963.218
 20
-2626.001
 30
3985.893
 70
    32
  0
VERTEX
  8
T12SSILL
 62
13
 10
2067.158
 20
-2570.522
 30
3986.364
 70
    32
  0
VERTEX
  8
T12SSILL
 62
13
 10
2097.751
 20
-2577.360
 30
3986.456
 70
    32
  0
VERTEX
  8
T12SSILL
 62
13
 10
2094.283
 20
-2590.237
 30
3986.418
 70
    32
  0
VERTEX
  8
T12SSILL
 62
13
 10
2079.985
 20
-2587.626
 30
3986.374
 70
    32
  0
VERTEX
  8
T12SSILL
 62
13
 10
2081.513
 20
-2580.349
 30
3986.394
 70
    32
  0
VERTEX
  8
T12SSILL
 62
13
 10
2068.707
 20
-2577.938
 30
3986.354
 70
    32
  0
VERTEX
  8
T12SSILL
 62
13
 10
1967.262
 20
-2631.522
 30
3985.896
 70
    32
  0
VERTEX
  8
T12SSILL
 62
13
 10
1963.691
 20
-2634.718
 30
3985.877
 70
    32
  0
VERTEX
  8
T12SSILL
 62
13
 10
1959.351
 20
-2647.140
 30
3985.837
 70
    32
  0
VERTEX
  8
T12SSILL
 62
13
 10
1951.268
 20
-2662.492
 30
3985.778
 70
    32
  0
VERTEX
  8
T12SSILL
 62
13
 10
1945.315
 20
-2671.368
 30
3985.739
 70
    32
  0
VERTEX
  8
T12SSILL
 62
13
 10
1934.826
 20
-2683.249
 30
3985.695
 70
    32
  0
VERTEX
  8
T12SSILL
 62
13
 10
1880.652
 20
-2719.310
 30
3985.673
 70
    32
  0
VERTEX
  8
T12SSILL
 62
13
 10
1876.404
 20
-2720.824
 30
3985.685
 70
    32
  0
VERTEX
  8
T12SSILL
 62
13
 10
1873.247
 20
-2720.156
 30
3985.693
 70
    32
  0
VERTEX
  8
T12SSILL
 62
13
 10
1853.040
 20
-2729.150
 30
3985.753
 70
    32
  0
VERTEX
  8
T12SSILL
 62
13
 10
1835.331
 20
-2741.352
 30
3985.809
 70
    32
  0
VERTEX
  8
T12SSILL
 62
13
 10
1763.910
 20
-2798.949
 30
3986.039
 70
    32
  0
VERTEX
  8
T12SSILL
 62
13
 10
1731.423
 20
-2821.641
 30
3986.141
 70
    32
  0
VERTEX
  8
T12SSILL
 62
13
 10
1728.879
 20
-2826.527
 30
3986.151
 70
    32
  0
VERTEX
  8
T12SSILL
 62
13
 10
1729.270
 20
-2829.524
 30
3986.153
 70
    32
  0
VERTEX
  8
T12SSILL
 62
13
 10
1744.616
 20
-2853.972
 30
3986.129
 70
    32
  0
VERTEX
  8
T12SSILL
 62
13
 10
1744.592
 20
-2866.113
 30
3986.137
 70
    32
  0
VERTEX
  8
T12SSILL
 62
13
 10
1747.721
 20
-2873.819
 30
3986.134
 70
    32
  0
VERTEX
  8
T12SSILL
 62
13
 10
1758.500
 20
-2868.037
 30
3986.101
 70
    32
  0
VERTEX
  8
T12SSILL
 62
13
 10
1755.557
 20
-2862.774
 30
3986.106
 70
    32
  0
VERTEX
  8
T12SSILL
 62
13
 10
1761.325
 20
-2859.790
 30
3986.088
 70
    32
  0
VERTEX
  8
T12SSILL
 62
13
 10
1763.788
 20
-2865.201
 30
3986.085
 70
    32
  0
VERTEX
  8
T12SSILL
 62
13
 10
1774.617
 20
-2859.392
 30
3986.052
 70
    32
  0
VERTEX
  8
T12SSILL
 62
13
 10
1780.570
 20
-2870.655
 30
3986.044
 70
    32
  0
VERTEX
  8
T12SSILL
 62
13
 10
1794.071
 20
-2864.111
 30
3986.004
 70
    32
  0
VERTEX
  8
T12SSILL
 62
13
 10
1801.209
 20
-2863.437
 30
3985.984
 70
    32
  0
VERTEX
  8
T12SSILL
 62
13
 10
1803.723
 20
-2865.678
 30
3985.979
 70
    32
  0
VERTEX
  8
T12SSILL
 62
13
 10
1810.324
 20
-2865.523
 30
3985.962
 70
    32
  0
VERTEX
  8
T12SSILL
 62
13
 10
1812.525
 20
-2872.382
 30
3985.961
 70
    32
  0
VERTEX
  8
T12SSILL
 62
13
 10
1807.122
 20
-2877.369
 30
3985.978
 70
    32
  0
VERTEX
  8
T12SSILL
 62
13
 10
1802.987
 20
-2872.968
 30
3985.986
 70
    32
  0
VERTEX
  8
T12SSILL
 62
13
 10
1798.258
 20
-2871.659
 30
3985.998
 70
    32
  0
VERTEX
  8
T12SSILL
 62
13
 10
1793.241
 20
-2871.752
 30
3986.011
 70
    32
  0
VERTEX
  8
T12SSILL
 62
13
 10
1783.698
 20
-2876.571
 30
3986.040
 70
    32
  0
VERTEX
  8
T12SSILL
 62
13
 10
1792.694
 20
-2888.988
 30
3986.025
 70
    32
  0
VERTEX
  8
T12SSILL
 62
13
 10
1796.164
 20
-2891.948
 30
3986.018
 70
    32
  0
VERTEX
  8
T12SSILL
 62
13
 10
1803.765
 20
-2895.241
 30
3986.000
 70
    32
  0
VERTEX
  8
T12SSILL
 62
13
 10
1809.592
 20
-2894.017
 30
3985.983
 70
    32
  0
VERTEX
  8
T12SSILL
 62
13
 10
1813.440
 20
-2890.033
 30
3985.970
 70
    32
  0
VERTEX
  8
T12SSILL
 62
13
 10
1828.212
 20
-2879.894
 30
3985.924
 70
    32
  0
VERTEX
  8
T12SSILL
 62
13
 10
1837.149
 20
-2882.153
 30
3985.902
 70
    32
  0
VERTEX
  8
T12SSILL
 62
13
 10
1846.846
 20
-2880.992
 30
3985.875
 70
    32
  0
VERTEX
  8
T12SSILL
 62
13
 10
1851.043
 20
-2887.924
 30
3985.869
 70
    32
  0
VERTEX
  8
T12SSILL
 62
13
 10
1862.655
 20
-2893.394
 30
3985.842
 70
    32
  0
VERTEX
  8
T12SSILL
 62
13
 10
1866.491
 20
-2911.581
 30
3985.844
 70
    32
  0
VERTEX
  8
T12SSILL
 62
13
 10
1882.667
 20
-2928.388
 30
3985.813
 70
    32
  0
VERTEX
  8
T12SSILL
 62
13
 10
1900.508
 20
-2918.828
 30
3985.844
 70
    32
  0
VERTEX
  8
T12SSILL
 62
13
 10
1917.236
 20
-2928.869
 30
3985.923
 70
    32
  0
VERTEX
  8
T12SSILL
 62
13
 10
1927.435
 20
-2945.313
 30
3985.984
 70
    32
  0
VERTEX
  8
T12SSILL
 62
13
 10
1944.876
 20
-2960.117
 30
3986.072
 70
    32
  0
VERTEX
  8
T12SSILL
 62
13
 10
1949.050
 20
-2957.722
 30
3986.085
 70
    32
  0
VERTEX
  8
T12SSILL
 62
13
 10
1957.662
 20
-2942.291
 30
3986.101
 70
    32
  0
VERTEX
  8
T12SSILL
 62
13
 10
1969.933
 20
-2929.120
 30
3986.134
 70
    32
  0
VERTEX
  8
T12SSILL
 62
13
 10
1974.979
 20
-2932.546
 30
3986.158
 70
    32
  0
VERTEX
  8
T12SSILL
 62
13
 10
1961.252
 20
-2948.685
 30
3986.123
 70
    32
  0
VERTEX
  8
T12SSILL
 62
13
 10
1956.331
 20
-2959.074
 30
3986.116
 70
    32
  0
VERTEX
  8
T12SSILL
 62
13
 10
1958.952
 20
-2965.540
 30
3986.134
 70
    32
  0
VERTEX
  8
T12SSILL
 62
13
 10
1963.271
 20
-2970.362
 30
3986.158
 70
    32
  0
VERTEX
  8
T12SSILL
 62
13
 10
1975.632
 20
-2967.750
 30
3986.204
 70
    32
  0
VERTEX
  8
T12SSILL
 62
13
 10
1982.118
 20
-2979.910
 30
3986.245
 70
    32
  0
VERTEX
  8
T12SSILL
 62
13
 10
1981.477
 20
-2981.483
 30
3986.244
 70
    32
  0
VERTEX
  8
T12SSILL
 62
13
 10
1976.603
 20
-2983.602
 30
3986.227
 70
    32
  0
VERTEX
  8
T12SSILL
 62
13
 10
1973.560
 20
-2986.720
 30
3986.219
 70
    32
  0
VERTEX
  8
T12SSILL
 62
13
 10
1969.399
 20
-2988.323
 30
3986.204
 70
    32
  0
VERTEX
  8
T12SSILL
 62
13
 10
1966.420
 20
-2987.570
 30
3986.191
 70
    32
  0
VERTEX
  8
T12SSILL
 62
13
 10
1965.115
 20
-2986.669
 30
3986.185
 70
    32
  0
VERTEX
  8
T12SSILL
 62
13
 10
1963.571
 20
-2978.901
 30
3986.169
 70
    32
  0
VERTEX
  8
T12SSILL
 62
13
 10
1953.645
 20
-2972.579
 30
3986.122
 70
    32
  0
VERTEX
  8
T12SSILL
 62
13
 10
1948.822
 20
-2971.620
 30
3986.101
 70
    32
  0
VERTEX
  8
T12SSILL
 62
13
 10
1941.232
 20
-2983.724
 30
3986.086
 70
    32
  0
VERTEX
  8
T12SSILL
 62
13
 10
1936.853
 20
-2987.875
 30
3986.073
 70
    32
  0
VERTEX
  8
T12SSILL
 62
13
 10
1893.858
 20
-3012.859
 30
3985.932
 70
    32
  0
VERTEX
  8
T12SSILL
 62
13
 10
1888.562
 20
-3019.282
 30
3985.918
 70
    32
  0
VERTEX
  8
T12SSILL
 62
13
 10
1904.727
 20
-3042.071
 30
3986.011
 70
    32
  0
VERTEX
  8
T12SSILL
 62
13
 10
1929.305
 20
-3088.314
 30
3986.165
 70
    32
  0
VERTEX
  8
T12SSILL
 62
13
 10
1930.819
 20
-3097.929
 30
3986.183
 70
    32
  0
VERTEX
  8
T12SSILL
 62
13
 10
1936.471
 20
-3107.348
 30
3986.217
 70
    32
  0
VERTEX
  8
T12SSILL
 62
13
 10
1944.330
 20
-3116.276
 30
3986.259
 70
    32
  0
VERTEX
  8
T12SSILL
 62
13
 10
1949.398
 20
-3118.383
 30
3986.282
 70
    32
  0
VERTEX
  8
T12SSILL
 62
13
 10
1957.496
 20
-3128.898
 30
3986.327
 70
    32
  0
VERTEX
  8
T12SSILL
 62
13
 10
1963.719
 20
-3130.320
 30
3986.354
 70
    32
  0
VERTEX
  8
T12SSILL
 62
13
 10
1968.252
 20
-3132.858
 30
3986.375
 70
    32
  0
VERTEX
  8
T12SSILL
 62
13
 10
1983.841
 20
-3131.883
 30
3986.436
 70
    32
  0
VERTEX
  8
T12SSILL
 62
13
 10
1985.988
 20
-3135.085
 30
3986.449
 70
    32
  0
VERTEX
  8
T12SSILL
 62
13
 10
1989.559
 20
-3137.256
 30
3986.466
 70
    32
  0
VERTEX
  8
T12SSILL
 62
13
 10
1990.331
 20
-3143.867
 30
3986.477
 70
    32
  0
VERTEX
  8
T12SSILL
 62
13
 10
2005.142
 20
-3152.733
 30
3986.547
 70
    32
  0
VERTEX
  8
T12SSILL
 62
13
 10
2004.078
 20
-3163.889
 30
3986.556
 70
    32
  0
VERTEX
  8
T12SSILL
 62
13
 10
2000.823
 20
-3169.202
 30
3986.549
 70
    32
  0
VERTEX
  8
T12SSILL
 62
13
 10
1993.589
 20
-3175.770
 30
3986.528
 70
    32
  0
VERTEX
  8
T12SSILL
 62
13
 10
1981.801
 20
-3159.651
 30
3986.462
 70
    32
  0
VERTEX
  8
T12SSILL
 62
13
 10
1972.844
 20
-3153.257
 30
3986.418
 70
    32
  0
VERTEX
  8
T12SSILL
 62
13
 10
1961.196
 20
-3155.353
 30
3986.374
 70
    32
  0
VERTEX
  8
T12SSILL
 62
13
 10
1955.883
 20
-3162.744
 30
3986.362
 70
    32
  0
VERTEX
  8
T12SSILL
 62
13
 10
1950.953
 20
-3162.927
 30
3986.342
 70
    32
  0
VERTEX
  8
T12SSILL
 62
13
 10
1950.032
 20
-3165.463
 30
3986.342
 70
    32
  0
VERTEX
  8
T12SSILL
 62
13
 10
1944.875
 20
-3168.722
 30
3986.325
 70
    32
  0
VERTEX
  8
T12SSILL
 62
13
 10
1942.522
 20
-3172.730
 30
3986.321
 70
    32
  0
VERTEX
  8
T12SSILL
 62
13
 10
1934.908
 20
-3175.596
 30
3986.294
 70
    32
  0
VERTEX
  8
T12SSILL
 62
13
 10
1923.227
 20
-3174.348
 30
3986.245
 70
    32
  0
VERTEX
  8
T12SSILL
 62
13
 10
1895.509
 20
-3163.862
 30
3986.122
 70
    32
  0
VERTEX
  8
T12SSILL
 62
13
 10
1889.321
 20
-3160.329
 30
3986.093
 70
    32
  0
VERTEX
  8
T12SSILL
 62
13
 10
2048.631
 20
-3792.770
 30
3986.683
 70
    32
  0
VERTEX
  8
T12SSILL
 62
13
 10
2183.328
 20
-4321.402
 30
3986.462
 70
    32
  0
VERTEX
  8
T12SSILL
 62
13
 10
2182.359
 20
-4615.317
 30
3986.506
 70
    32
  0
VERTEX
  8
T12SSILL
 62
13
 10
2179.818
 20
-4615.337
 30
3986.511
 70
    32
  0
VERTEX
  8
T12SSILL
 62
13
 10
2179.693
 20
-4622.182
 30
3986.549
 70
    32
  0
VERTEX
  8
T12SSILL
 62
13
 10
2182.349
 20
-4622.266
 30
3986.545
 70
    32
  0
VERTEX
  8
T12SSILL
 62
13
 10
2182.187
 20
-4744.628
 30
3986.598
 70
    32
  0
VERTEX
  8
T12SSILL
 62
13
 10
2174.640
 20
-4744.324
 30
3986.610
 70
    32
  0
VERTEX
  8
T12SSILL
 62
13
 10
2175.133
 20
-4734.497
 30
3986.605
 70
    32
  0
VERTEX
  8
T12SSILL
 62
13
 10
2172.624
 20
-4727.725
 30
3986.606
 70
    32
  0
VERTEX
  8
T12SSILL
 62
13
 10
2173.049
 20
-4714.124
 30
3986.600
 70
    32
  0
VERTEX
  8
T12SSILL
 62
13
 10
2072.639
 20
-4660.450
 30
3986.696
 70
    32
  0
VERTEX
  8
T12SSILL
 62
13
 10
2073.074
 20
-4616.775
 30
3986.760
 70
    32
  0
VERTEX
  8
T12SSILL
 62
13
 10
2042.985
 20
-4616.611
 30
3986.764
 70
    32
  0
VERTEX
  8
T12SSILL
 62
13
 10
2042.624
 20
-4602.303
 30
3986.765
 70
    32
  0
VERTEX
  8
T12SSILL
 62
13
 10
2049.660
 20
-4602.301
 30
3986.764
 70
    32
  0
VERTEX
  8
T12SSILL
 62
13
 10
2050.105
 20
-4550.036
 30
3986.769
 70
    32
  0
SEQEND
  8
T12SSILL
  0
POLYLINE
  8
T12SSILL
 62
13
 66
     1
 70
     9
  0
VERTEX
  8
T12SSILL
 62
13
 10
1311.388
 20
-2613.789
 30
3986.358
 70
    32
  0
VERTEX
  8
T12SSILL
 62
13
 10
1310.609
 20
-2623.622
 30
3986.351
 70
    32
  0
VERTEX
  8
T12SSILL
 62
13
 10
1318.742
 20
-2642.672
 30
3986.326
 70
    32
  0
VERTEX
  8
T12SSILL
 62
13
 10
1317.977
 20
-2651.721
 30
3986.320
 70
    32
  0
VERTEX
  8
T12SSILL
 62
13
 10
1313.763
 20
-2661.858
 30
3986.316
 70
    32
  0
VERTEX
  8
T12SSILL
 62
13
 10
1288.677
 20
-2683.968
 30
3986.358
 70
    32
  0
VERTEX
  8
T12SSILL
 62
13
 10
1255.640
 20
-2707.972
 30
3986.432
 70
    32
  0
VERTEX
  8
T12SSILL
 62
13
 10
1172.829
 20
-2671.768
 30
3986.486
 70
    32
  0
VERTEX
  8
T12SSILL
 62
13
 10
1157.788
 20
-2660.875
 30
3986.507
 70
    32
  0
VERTEX
  8
T12SSILL
 62
13
 10
1156.163
 20
-2652.666
 30
3986.515
 70
    32
  0
VERTEX
  8
T12SSILL
 62
13
 10
1157.646
 20
-2648.115
 30
3986.517
 70
    32
  0
VERTEX
  8
T12SSILL
 62
13
 10
1164.754
 20
-2638.554
 30
3986.516
 70
    32
  0
VERTEX
  8
T12SSILL
 62
13
 10
1176.336
 20
-2645.783
 30
3986.496
 70
    32
  0
VERTEX
  8
T12SSILL
 62
13
 10
1184.077
 20
-2640.544
 30
3986.491
 70
    32
  0
VERTEX
  8
T12SSILL
 62
13
 10
1201.278
 20
-2632.469
 30
3986.477
 70
    32
  0
VERTEX
  8
T12SSILL
 62
13
 10
1205.588
 20
-2632.540
 30
3986.471
 70
    32
  0
VERTEX
  8
T12SSILL
 62
13
 10
1217.295
 20
-2637.571
 30
3986.453
 70
    32
  0
VERTEX
  8
T12SSILL
 62
13
 10
1224.154
 20
-2637.772
 30
3986.445
 70
    32
  0
VERTEX
  8
T12SSILL
 62
13
 10
1228.505
 20
-2635.380
 30
3986.441
 70
    32
  0
VERTEX
  8
T12SSILL
 62
13
 10
1239.078
 20
-2620.013
 30
3986.441
 70
    32
  0
VERTEX
  8
T12SSILL
 62
13
 10
1243.217
 20
-2617.380
 30
3986.438
 70
    32
  0
VERTEX
  8
T12SSILL
 62
13
 10
1255.802
 20
-2613.530
 30
3986.426
 70
    32
  0
VERTEX
  8
T12SSILL
 62
13
 10
1262.318
 20
-2609.581
 30
3986.421
 70
    32
  0
VERTEX
  8
T12SSILL
 62
13
 10
1266.459
 20
-2605.454
 30
3986.419
 70
    32
  0
VERTEX
  8
T12SSILL
 62
13
 10
1269.810
 20
-2599.741
 30
3986.420
 70
    32
  0
VERTEX
  8
T12SSILL
 62
13
 10
1266.661
 20
-2588.476
 30
3986.433
 70
    32
  0
VERTEX
  8
T12SSILL
 62
13
 10
1287.012
 20
-2569.596
 30
3986.423
 70
    32
  0
VERTEX
  8
T12SSILL
 62
13
 10
1290.970
 20
-2569.866
 30
3986.418
 70
    32
  0
VERTEX
  8
T12SSILL
 62
13
 10
1296.495
 20
-2579.991
 30
3986.403
 70
    32
  0
VERTEX
  8
T12SSILL
 62
13
 10
1300.264
 20
-2588.530
 30
3986.392
 70
    32
  0
VERTEX
  8
T12SSILL
 62
13
 10
1305.599
 20
-2608.594
 30
3986.369
 70
    32
  0
VERTEX
  8
T12SSILL
 62
13
 10
1307.091
 20
-2610.444
 30
3986.366
 70
    32
  0
SEQEND
  8
T12SSILL
  0
POLYLINE
  8
T12SSILL
 62
13
 66
     1
 70
     9
  0
VERTEX
  8
T12SSILL
 62
13
 10
1319.672
 20
-2609.584
 30
3986.351
 70
    32
  0
VERTEX
  8
T12SSILL
 62
13
 10
1316.174
 20
-2596.208
 30
3986.366
 70
    32
  0
VERTEX
  8
T12SSILL
 62
13
 10
1317.142
 20
-2595.858
 30
3986.366
 70
    32
  0
VERTEX
  8
T12SSILL
 62
13
 10
1337.027
 20
-2593.162
 30
3986.344
 70
    32
  0
VERTEX
  8
T12SSILL
 62
13
 10
1364.824
 20
-2593.382
 30
3986.310
 70
    32
  0
VERTEX
  8
T12SSILL
 62
13
 10
1696.891
 20
-2808.228
 30
3986.150
 70
    32
  0
VERTEX
  8
T12SSILL
 62
13
 10
1699.948
 20
-2820.244
 30
3986.184
 70
    32
  0
VERTEX
  8
T12SSILL
 62
13
 10
1699.144
 20
-2826.389
 30
3986.203
 70
    32
  0
VERTEX
  8
T12SSILL
 62
13
 10
1669.489
 20
-2848.073
 30
3986.296
 70
    32
  0
VERTEX
  8
T12SSILL
 62
13
 10
1653.277
 20
-2854.845
 30
3986.331
 70
    32
  0
VERTEX
  8
T12SSILL
 62
13
 10
1636.031
 20
-2860.280
 30
3986.364
 70
    32
  0
VERTEX
  8
T12SSILL
 62
13
 10
1613.035
 20
-2862.277
 30
3986.391
 70
    32
  0
VERTEX
  8
T12SSILL
 62
13
 10
1263.248
 20
-2710.824
 30
3986.427
 70
    32
  0
VERTEX
  8
T12SSILL
 62
13
 10
1305.486
 20
-2678.350
 30
3986.329
 70
    32
  0
VERTEX
  8
T12SSILL
 62
13
 10
1318.342
 20
-2666.948
 30
3986.307
 70
    32
  0
VERTEX
  8
T12SSILL
 62
13
 10
1325.856
 20
-2648.771
 30
3986.312
 70
    32
  0
VERTEX
  8
T12SSILL
 62
13
 10
1325.849
 20
-2643.844
 30
3986.316
 70
    32
  0
VERTEX
  8
T12SSILL
 62
13
 10
1318.485
 20
-2626.215
 30
3986.339
 70
    32
  0
VERTEX
  8
T12SSILL
 62
13
 10
1317.053
 20
-2616.953
 30
3986.349
 70
    32
  0
VERTEX
  8
T12SSILL
 62
13
 10
1315.218
 20
-2613.801
 30
3986.353
 70
    32
  0
SEQEND
  8
T12SSILL
  0
POLYLINE
  8
T12SSILL
 62
13
 66
     1
 70
     9
  0
VERTEX
  8
T12SSILL
 62
13
 10
1130.494
 20
-2114.515
 30
3986.980
 70
    32
  0
VERTEX
  8
T12SSILL
 62
13
 10
1130.343
 20
-2125.646
 30
3986.971
 70
    32
  0
VERTEX
  8
T12SSILL
 62
13
 10
1132.620
 20
-2131.807
 30
3986.963
 70
    32
  0
VERTEX
  8
T12SSILL
 62
13
 10
1132.083
 20
-2137.612
 30
3986.959
 70
    32
  0
VERTEX
  8
T12SSILL
 62
13
 10
1129.163
 20
-2148.516
 30
3986.954
 70
    32
  0
VERTEX
  8
T12SSILL
 62
13
 10
1123.867
 20
-2160.119
 30
3986.951
 70
    32
  0
VERTEX
  8
T12SSILL
 62
13
 10
1125.527
 20
-2167.247
 30
3986.944
 70
    32
  0
VERTEX
  8
T12SSILL
 62
13
 10
1113.564
 20
-2166.700
 30
3986.958
 70
    32
  0
VERTEX
  8
T12SSILL
 62
13
 10
1101.071
 20
-2168.263
 30
3986.972
 70
    32
  0
VERTEX
  8
T12SSILL
 62
13
 10
1096.763
 20
-2166.849
 30
3986.979
 70
    32
  0
VERTEX
  8
T12SSILL
 62
13
 10
1083.973
 20
-2145.639
 30
3987.011
 70
    32
  0
VERTEX
  8
T12SSILL
 62
13
 10
1083.877
 20
-2138.064
 30
3987.018
 70
    32
  0
VERTEX
  8
T12SSILL
 62
13
 10
1080.806
 20
-2132.957
 30
3987.025
 70
    32
  0
VERTEX
  8
T12SSILL
 62
13
 10
1082.834
 20
-2130.233
 30
3987.025
 70
    32
  0
VERTEX
  8
T12SSILL
 62
13
 10
1121.243
 20
-2101.704
 30
3987.002
 70
    32
  0
SEQEND
  8
T12SSILL
  0
POLYLINE
  8
T12SSILL
 62
13
 66
     1
 70
     9
  0
VERTEX
  8
T12SSILL
 62
13
 10
1156.480
 20
-2046.275
 30
3987.003
 70
    32
  0
VERTEX
  8
T12SSILL
 62
13
 10
1182.749
 20
-2027.999
 30
3986.986
 70
    32
  0
VERTEX
  8
T12SSILL
 62
13
 10
1189.419
 20
-2037.949
 30
3986.970
 70
    32
  0
VERTEX
  8
T12SSILL
 62
13
 10
1190.114
 20
-2043.668
 30
3986.965
 70
    32
  0
VERTEX
  8
T12SSILL
 62
13
 10
1161.677
 20
-2064.167
 30
3986.983
 70
    32
  0
VERTEX
  8
T12SSILL
 62
13
 10
1160.782
 20
-2062.979
 30
3986.985
 70
    32
  0
VERTEX
  8
T12SSILL
 62
13
 10
1165.939
 20
-2058.986
 30
3986.982
 70
    32
  0
SEQEND
  8
T12SSILL
  0
POLYLINE
  8
T12SSILL
 62
13
 66
     1
 70
     9
  0
VERTEX
  8
T12SSILL
 62
13
 10
1507.978
 20
-2323.926
 30
3986.353
 70
    32
  0
VERTEX
  8
T12SSILL
 62
13
 10
1518.116
 20
-2338.494
 30
3986.329
 70
    32
  0
VERTEX
  8
T12SSILL
 62
13
 10
1513.359
 20
-2342.094
 30
3986.332
 70
    32
  0
VERTEX
  8
T12SSILL
 62
13
 10
1510.375
 20
-2348.569
 30
3986.330
 70
    32
  0
VERTEX
  8
T12SSILL
 62
13
 10
1516.330
 20
-2363.447
 30
3986.311
 70
    32
  0
VERTEX
  8
T12SSILL
 62
13
 10
1517.918
 20
-2370.985
 30
3986.303
 70
    32
  0
VERTEX
  8
T12SSILL
 62
13
 10
1517.918
 20
-2384.277
 30
3986.292
 70
    32
  0
VERTEX
  8
T12SSILL
 62
13
 10
1526.984
 20
-2405.462
 30
3986.264
 70
    32
  0
VERTEX
  8
T12SSILL
 62
13
 10
1559.301
 20
-2381.515
 30
3986.244
 70
    32
  0
VERTEX
  8
T12SSILL
 62
13
 10
1556.581
 20
-2376.849
 30
3986.251
 70
    32
  0
VERTEX
  8
T12SSILL
 62
13
 10
1566.181
 20
-2370.003
 30
3986.245
 70
    32
  0
VERTEX
  8
T12SSILL
 62
13
 10
1575.485
 20
-2382.773
 30
3986.224
 70
    32
  0
VERTEX
  8
T12SSILL
 62
13
 10
1584.530
 20
-2392.111
 30
3986.205
 70
    32
  0
VERTEX
  8
T12SSILL
 62
13
 10
1589.794
 20
-2401.180
 30
3986.191
 70
    32
  0
VERTEX
  8
T12SSILL
 62
13
 10
1590.841
 20
-2406.548
 30
3986.186
 70
    32
  0
VERTEX
  8
T12SSILL
 62
13
 10
1577.709
 20
-2422.273
 30
3986.189
 70
    32
  0
VERTEX
  8
T12SSILL
 62
13
 10
1584.557
 20
-2430.992
 30
3986.174
 70
    32
  0
VERTEX
  8
T12SSILL
 62
13
 10
1610.331
 20
-2486.276
 30
3986.098
 70
    32
  0
VERTEX
  8
T12SSILL
 62
13
 10
1616.914
 20
-2495.435
 30
3986.082
 70
    32
  0
VERTEX
  8
T12SSILL
 62
13
 10
1618.134
 20
-2502.914
 30
3986.075
 70
    32
  0
VERTEX
  8
T12SSILL
 62
13
 10
1615.571
 20
-2510.475
 30
3986.072
 70
    32
  0
VERTEX
  8
T12SSILL
 62
13
 10
1613.457
 20
-2512.055
 30
3986.073
 70
    32
  0
VERTEX
  8
T12SSILL
 62
13
 10
1582.315
 20
-2513.765
 30
3986.110
 70
    32
  0
VERTEX
  8
T12SSILL
 62
13
 10
1558.030
 20
-2517.333
 30
3986.136
 70
    32
  0
VERTEX
  8
T12SSILL
 62
13
 10
1551.350
 20
-2514.068
 30
3986.147
 70
    32
  0
VERTEX
  8
T12SSILL
 62
13
 10
1545.553
 20
-2508.605
 30
3986.159
 70
    32
  0
VERTEX
  8
T12SSILL
 62
13
 10
1538.710
 20
-2496.807
 30
3986.176
 70
    32
  0
VERTEX
  8
T12SSILL
 62
13
 10
1535.205
 20
-2488.444
 30
3986.187
 70
    32
  0
VERTEX
  8
T12SSILL
 62
13
 10
1532.235
 20
-2474.893
 30
3986.202
 70
    32
  0
VERTEX
  8
T12SSILL
 62
13
 10
1525.838
 20
-2459.752
 30
3986.222
 70
    32
  0
VERTEX
  8
T12SSILL
 62
13
 10
1501.973
 20
-2476.164
 30
3986.238
 70
    32
  0
VERTEX
  8
T12SSILL
 62
13
 10
1501.242
 20
-2474.972
 30
3986.239
 70
    32
  0
VERTEX
  8
T12SSILL
 62
13
 10
1498.453
 20
-2476.946
 30
3986.241
 70
    32
  0
VERTEX
  8
T12SSILL
 62
13
 10
1490.478
 20
-2465.570
 30
3986.260
 70
    32
  0
VERTEX
  8
T12SSILL
 62
13
 10
1474.527
 20
-2476.649
 30
3986.270
 70
    32
  0
VERTEX
  8
T12SSILL
 62
13
 10
1512.550
 20
-2573.999
 30
3986.146
 70
    32
  0
VERTEX
  8
T12SSILL
 62
13
 10
1510.153
 20
-2587.542
 30
3986.138
 70
    32
  0
VERTEX
  8
T12SSILL
 62
13
 10
1483.299
 20
-2662.183
 30
3986.110
 70
    32
  0
VERTEX
  8
T12SSILL
 62
13
 10
1700.881
 20
-2800.991
 30
3986.125
 70
    32
  0
VERTEX
  8
T12SSILL
 62
13
 10
1708.750
 20
-2804.024
 30
3986.127
 70
    32
  0
VERTEX
  8
T12SSILL
 62
13
 10
1719.117
 20
-2804.898
 30
3986.120
 70
    32
  0
VERTEX
  8
T12SSILL
 62
13
 10
1731.593
 20
-2800.617
 30
3986.095
 70
    32
  0
VERTEX
  8
T12SSILL
 62
13
 10
1739.136
 20
-2796.694
 30
3986.077
 70
    32
  0
VERTEX
  8
T12SSILL
 62
13
 10
1763.480
 20
-2776.946
 30
3985.994
 70
    32
  0
VERTEX
  8
T12SSILL
 62
13
 10
1768.944
 20
-2771.053
 30
3985.972
 70
    32
  0
VERTEX
  8
T12SSILL
 62
13
 10
1770.143
 20
-2767.642
 30
3985.960
 70
    32
  0
VERTEX
  8
T12SSILL
 62
13
 10
1837.984
 20
-2719.136
 30
3985.751
 70
    32
  0
VERTEX
  8
T12SSILL
 62
13
 10
1824.413
 20
-2709.763
 30
3985.735
 70
    32
  0
VERTEX
  8
T12SSILL
 62
13
 10
1815.779
 20
-2699.767
 30
3985.717
 70
    32
  0
VERTEX
  8
T12SSILL
 62
13
 10
1825.951
 20
-2691.136
 30
3985.692
 70
    32
  0
VERTEX
  8
T12SSILL
 62
13
 10
1843.452
 20
-2712.980
 30
3985.728
 70
    32
  0
VERTEX
  8
T12SSILL
 62
13
 10
1914.787
 20
-2660.572
 30
3985.656
 70
    32
  0
VERTEX
  8
T12SSILL
 62
13
 10
1932.124
 20
-2654.963
 30
3985.727
 70
    32
  0
VERTEX
  8
T12SSILL
 62
13
 10
1943.265
 20
-2646.260
 30
3985.783
 70
    32
  0
VERTEX
  8
T12SSILL
 62
13
 10
1946.845
 20
-2642.536
 30
3985.803
 70
    32
  0
VERTEX
  8
T12SSILL
 62
13
 10
1949.782
 20
-2635.193
 30
3985.828
 70
    32
  0
VERTEX
  8
T12SSILL
 62
13
 10
1949.174
 20
-2624.010
 30
3985.848
 70
    32
  0
VERTEX
  8
T12SSILL
 62
13
 10
1944.496
 20
-2609.430
 30
3985.861
 70
    32
  0
VERTEX
  8
T12SSILL
 62
13
 10
1834.875
 20
-2396.730
 30
3985.911
 70
    32
  0
VERTEX
  8
T12SSILL
 62
13
 10
1829.397
 20
-2411.764
 30
3985.892
 70
    32
  0
VERTEX
  8
T12SSILL
 62
13
 10
1824.727
 20
-2416.858
 30
3985.893
 70
    32
  0
VERTEX
  8
T12SSILL
 62
13
 10
1811.692
 20
-2426.866
 30
3985.901
 70
    32
  0
VERTEX
  8
T12SSILL
 62
13
 10
1811.521
 20
-2479.469
 30
3985.859
 70
    32
  0
VERTEX
  8
T12SSILL
 62
13
 10
1820.126
 20
-2489.335
 30
3985.841
 70
    32
  0
VERTEX
  8
T12SSILL
 62
13
 10
1822.229
 20
-2494.529
 30
3985.834
 70
    32
  0
VERTEX
  8
T12SSILL
 62
13
 10
1826.179
 20
-2499.637
 30
3985.825
 70
    32
  0
VERTEX
  8
T12SSILL
 62
13
 10
1818.338
 20
-2507.189
 30
3985.828
 70
    32
  0
VERTEX
  8
T12SSILL
 62
13
 10
1811.914
 20
-2508.675
 30
3985.835
 70
    32
  0
VERTEX
  8
T12SSILL
 62
13
 10
1806.728
 20
-2506.203
 30
3985.843
 70
    32
  0
VERTEX
  8
T12SSILL
 62
13
 10
1806.999
 20
-2502.245
 30
3985.846
 70
    32
  0
VERTEX
  8
T12SSILL
 62
13
 10
1801.387
 20
-2490.889
 30
3985.862
 70
    32
  0
VERTEX
  8
T12SSILL
 62
13
 10
1804.130
 20
-2480.601
 30
3985.867
 70
    32
  0
VERTEX
  8
T12SSILL
 62
13
 10
1804.384
 20
-2431.341
 30
3985.906
 70
    32
  0
VERTEX
  8
T12SSILL
 62
13
 10
1771.623
 20
-2455.040
 30
3985.927
 70
    32
  0
VERTEX
  8
T12SSILL
 62
13
 10
1772.839
 20
-2464.542
 30
3985.918
 70
    32
  0
VERTEX
  8
T12SSILL
 62
13
 10
1792.211
 20
-2507.852
 30
3985.860
 70
    32
  0
VERTEX
  8
T12SSILL
 62
13
 10
1774.339
 20
-2517.236
 30
3985.874
 70
    32
  0
VERTEX
  8
T12SSILL
 62
13
 10
1762.819
 20
-2515.194
 30
3985.889
 70
    32
  0
VERTEX
  8
T12SSILL
 62
13
 10
1766.793
 20
-2505.173
 30
3985.893
 70
    32
  0
VERTEX
  8
T12SSILL
 62
13
 10
1767.418
 20
-2499.280
 30
3985.897
 70
    32
  0
VERTEX
  8
T12SSILL
 62
13
 10
1765.754
 20
-2495.231
 30
3985.902
 70
    32
  0
VERTEX
  8
T12SSILL
 62
13
 10
1757.850
 20
-2486.861
 30
3985.918
 70
    32
  0
VERTEX
  8
T12SSILL
 62
13
 10
1753.190
 20
-2485.535
 30
3985.925
 70
    32
  0
VERTEX
  8
T12SSILL
 62
13
 10
1738.958
 20
-2473.725
 30
3985.952
 70
    32
  0
VERTEX
  8
T12SSILL
 62
13
 10
1740.821
 20
-2463.787
 30
3985.958
 70
    32
  0
VERTEX
  8
T12SSILL
 62
13
 10
1745.666
 20
-2459.661
 30
3985.955
 70
    32
  0
VERTEX
  8
T12SSILL
 62
13
 10
1750.082
 20
-2448.056
 30
3985.959
 70
    32
  0
VERTEX
  8
T12SSILL
 62
13
 10
1734.719
 20
-2428.327
 30
3985.993
 70
    32
  0
VERTEX
  8
T12SSILL
 62
13
 10
1734.295
 20
-2418.738
 30
3986.002
 70
    32
  0
VERTEX
  8
T12SSILL
 62
13
 10
1725.050
 20
-2423.914
 30
3986.009
 70
    32
  0
VERTEX
  8
T12SSILL
 62
13
 10
1708.158
 20
-2425.646
 30
3986.028
 70
    32
  0
VERTEX
  8
T12SSILL
 62
13
 10
1699.216
 20
-2406.368
 30
3986.054
 70
    32
  0
VERTEX
  8
T12SSILL
 62
13
 10
1683.754
 20
-2393.412
 30
3986.084
 70
    32
  0
VERTEX
  8
T12SSILL
 62
13
 10
1664.269
 20
-2366.112
 30
3986.129
 70
    32
  0
VERTEX
  8
T12SSILL
 62
13
 10
1664.624
 20
-2363.825
 30
3986.131
 70
    32
  0
VERTEX
  8
T12SSILL
 62
13
 10
1672.109
 20
-2359.175
 30
3986.125
 70
    32
  0
VERTEX
  8
T12SSILL
 62
13
 10
1675.881
 20
-2365.690
 30
3986.115
 70
    32
  0
VERTEX
  8
T12SSILL
 62
13
 10
1706.726
 20
-2385.795
 30
3986.062
 70
    32
  0
VERTEX
  8
T12SSILL
 62
13
 10
1703.842
 20
-2373.739
 30
3986.075
 70
    32
  0
VERTEX
  8
T12SSILL
 62
13
 10
1704.126
 20
-2361.161
 30
3986.085
 70
    32
  0
VERTEX
  8
T12SSILL
 62
13
 10
1697.106
 20
-2350.242
 30
3986.102
 70
    32
  0
VERTEX
  8
T12SSILL
 62
13
 10
1703.185
 20
-2344.094
 30
3986.100
 70
    32
  0
VERTEX
  8
T12SSILL
 62
13
 10
1711.527
 20
-2353.695
 30
3986.082
 70
    32
  0
VERTEX
  8
T12SSILL
 62
13
 10
1738.990
 20
-2397.898
 30
3986.013
 70
    32
  0
VERTEX
  8
T12SSILL
 62
13
 10
1747.749
 20
-2421.926
 30
3985.983
 70
    32
  0
VERTEX
  8
T12SSILL
 62
13
 10
1752.559
 20
-2439.263
 30
3985.963
 70
    32
  0
VERTEX
  8
T12SSILL
 62
13
 10
1755.717
 20
-2444.898
 30
3985.955
 70
    32
  0
VERTEX
  8
T12SSILL
 62
13
 10
1761.605
 20
-2448.602
 30
3985.945
 70
    32
  0
VERTEX
  8
T12SSILL
 62
13
 10
1769.172
 20
-2447.559
 30
3985.936
 70
    32
  0
VERTEX
  8
T12SSILL
 62
13
 10
1816.815
 20
-2413.679
 30
3985.906
 70
    32
  0
VERTEX
  8
T12SSILL
 62
13
 10
1823.510
 20
-2407.532
 30
3985.902
 70
    32
  0
VERTEX
  8
T12SSILL
 62
13
 10
1827.125
 20
-2402.084
 30
3985.902
 70
    32
  0
VERTEX
  8
T12SSILL
 62
13
 10
1828.546
 20
-2393.553
 30
3985.908
 70
    32
  0
VERTEX
  8
T12SSILL
 62
13
 10
1826.720
 20
-2380.180
 30
3985.921
 70
    32
  0
VERTEX
  8
T12SSILL
 62
13
 10
1777.698
 20
-2284.659
 30
3986.057
 70
    32
  0
VERTEX
  8
T12SSILL
 62
13
 10
1773.921
 20
-2281.398
 30
3986.064
 70
    32
  0
VERTEX
  8
T12SSILL
 62
13
 10
1769.436
 20
-2280.863
 30
3986.070
 70
    32
  0
VERTEX
  8
T12SSILL
 62
13
 10
1746.198
 20
-2289.975
 30
3986.091
 70
    32
  0
VERTEX
  8
T12SSILL
 62
13
 10
1741.449
 20
-2289.175
 30
3986.097
 70
    32
  0
VERTEX
  8
T12SSILL
 62
13
 10
1737.850
 20
-2284.595
 30
3986.106
 70
    32
  0
VERTEX
  8
T12SSILL
 62
13
 10
1722.977
 20
-2288.442
 30
3986.120
 70
    32
  0
VERTEX
  8
T12SSILL
 62
13
 10
1721.825
 20
-2294.158
 30
3986.117
 70
    32
  0
VERTEX
  8
T12SSILL
 62
13
 10
1724.975
 20
-2304.367
 30
3986.105
 70
    32
  0
VERTEX
  8
T12SSILL
 62
13
 10
1727.875
 20
-2306.571
 30
3986.100
 70
    32
  0
VERTEX
  8
T12SSILL
 62
13
 10
1731.481
 20
-2306.665
 30
3986.095
 70
    32
  0
VERTEX
  8
T12SSILL
 62
13
 10
1737.811
 20
-2309.226
 30
3986.086
 70
    32
  0
VERTEX
  8
T12SSILL
 62
13
 10
1740.178
 20
-2314.332
 30
3986.079
 70
    32
  0
VERTEX
  8
T12SSILL
 62
13
 10
1739.381
 20
-2317.321
 30
3986.077
 70
    32
  0
VERTEX
  8
T12SSILL
 62
13
 10
1732.157
 20
-2324.259
 30
3986.080
 70
    32
  0
VERTEX
  8
T12SSILL
 62
13
 10
1728.180
 20
-2335.864
 30
3986.076
 70
    32
  0
VERTEX
  8
T12SSILL
 62
13
 10
1719.038
 20
-2332.067
 30
3986.090
 70
    32
  0
VERTEX
  8
T12SSILL
 62
13
 10
1711.047
 20
-2322.994
 30
3986.107
 70
    32
  0
VERTEX
  8
T12SSILL
 62
13
 10
1706.398
 20
-2315.070
 30
3986.119
 70
    32
  0
VERTEX
  8
T12SSILL
 62
13
 10
1699.739
 20
-2298.170
 30
3986.141
 70
    32
  0
VERTEX
  8
T12SSILL
 62
13
 10
1695.255
 20
-2297.019
 30
3986.147
 70
    32
  0
VERTEX
  8
T12SSILL
 62
13
 10
1689.710
 20
-2298.858
 30
3986.152
 70
    32
  0
VERTEX
  8
T12SSILL
 62
13
 10
1688.403
 20
-2290.587
 30
3986.161
 70
    32
  0
VERTEX
  8
T12SSILL
 62
13
 10
1696.235
 20
-2288.840
 30
3986.153
 70
    32
  0
VERTEX
  8
T12SSILL
 62
13
 10
1693.083
 20
-2279.774
 30
3986.164
 70
    32
  0
VERTEX
  8
T12SSILL
 62
13
 10
1693.703
 20
-2276.609
 30
3986.166
 70
    32
  0
VERTEX
  8
T12SSILL
 62
13
 10
1703.918
 20
-2270.027
 30
3986.158
 70
    32
  0
VERTEX
  8
T12SSILL
 62
13
 10
1711.656
 20
-2271.975
 30
3986.147
 70
    32
  0
VERTEX
  8
T12SSILL
 62
13
 10
1718.418
 20
-2279.287
 30
3986.133
 70
    32
  0
VERTEX
  8
T12SSILL
 62
13
 10
1737.247
 20
-2276.414
 30
3986.113
 70
    32
  0
VERTEX
  8
T12SSILL
 62
13
 10
1740.771
 20
-2272.813
 30
3986.111
 70
    32
  0
VERTEX
  8
T12SSILL
 62
13
 10
1743.242
 20
-2267.802
 30
3986.112
 70
    32
  0
VERTEX
  8
T12SSILL
 62
13
 10
1759.086
 20
-2261.406
 30
3986.098
 70
    32
  0
VERTEX
  8
T12SSILL
 62
13
 10
1759.356
 20
-2257.712
 30
3986.101
 70
    32
  0
VERTEX
  8
T12SSILL
 62
13
 10
1752.954
 20
-2245.738
 30
3986.118
 70
    32
  0
VERTEX
  8
T12SSILL
 62
13
 10
1752.256
 20
-2241.603
 30
3986.123
 70
    32
  0
VERTEX
  8
T12SSILL
 62
13
 10
1739.266
 20
-2223.373
 30
3986.153
 70
    32
  0
VERTEX
  8
T12SSILL
 62
13
 10
1739.538
 20
-2218.360
 30
3986.157
 70
    32
  0
VERTEX
  8
T12SSILL
 62
13
 10
1727.781
 20
-2198.988
 30
3986.187
 70
    32
  0
VERTEX
  8
T12SSILL
 62
13
 10
1728.403
 20
-2195.031
 30
3986.189
 70
    32
  0
VERTEX
  8
T12SSILL
 62
13
 10
1730.696
 20
-2191.516
 30
3986.189
 70
    32
  0
VERTEX
  8
T12SSILL
 62
13
 10
1717.803
 20
-2167.569
 30
3986.224
 70
    32
  0
VERTEX
  8
T12SSILL
 62
13
 10
1714.004
 20
-2177.943
 30
3986.220
 70
    32
  0
VERTEX
  8
T12SSILL
 62
13
 10
1708.804
 20
-2184.532
 30
3986.221
 70
    32
  0
VERTEX
  8
T12SSILL
 62
13
 10
1636.932
 20
-2241.772
 30
3986.263
 70
    32
  0
VERTEX
  8
T12SSILL
 62
13
 10
1631.752
 20
-2236.046
 30
3986.273
 70
    32
  0
VERTEX
  8
T12SSILL
 62
13
 10
1702.124
 20
-2180.651
 30
3986.233
 70
    32
  0
VERTEX
  8
T12SSILL
 62
13
 10
1705.914
 20
-2176.083
 30
3986.232
 70
    32
  0
VERTEX
  8
T12SSILL
 62
13
 10
1709.975
 20
-2167.028
 30
3986.234
 70
    32
  0
VERTEX
  8
T12SSILL
 62
13
 10
1711.124
 20
-2163.248
 30
3986.236
 70
    32
  0
VERTEX
  8
T12SSILL
 62
13
 10
1710.962
 20
-2154.891
 30
3986.243
 70
    32
  0
VERTEX
  8
T12SSILL
 62
13
 10
1678.953
 20
-2092.120
 30
3986.332
 70
    32
  0
VERTEX
  8
T12SSILL
 62
13
 10
1669.810
 20
-2088.587
 30
3986.346
 70
    32
  0
VERTEX
  8
T12SSILL
 62
13
 10
1650.350
 20
-2101.399
 30
3986.359
 70
    32
  0
VERTEX
  8
T12SSILL
 62
13
 10
1557.614
 20
-2169.250
 30
3986.417
 70
    32
  0
VERTEX
  8
T12SSILL
 62
13
 10
1556.641
 20
-2172.240
 30
3986.416
 70
    32
  0
VERTEX
  8
T12SSILL
 62
13
 10
1557.420
 20
-2180.422
 30
3986.409
 70
    32
  0
VERTEX
  8
T12SSILL
 62
13
 10
1560.837
 20
-2189.312
 30
3986.397
 70
    32
  0
VERTEX
  8
T12SSILL
 62
13
 10
1563.997
 20
-2193.627
 30
3986.390
 70
    32
  0
VERTEX
  8
T12SSILL
 62
13
 10
1561.001
 20
-2196.437
 30
3986.391
 70
    32
  0
VERTEX
  8
T12SSILL
 62
13
 10
1558.448
 20
-2197.929
 30
3986.393
 70
    32
  0
VERTEX
  8
T12SSILL
 62
13
 10
1547.209
 20
-2185.068
 30
3986.417
 70
    32
  0
VERTEX
  8
T12SSILL
 62
13
 10
1539.295
 20
-2183.208
 30
3986.428
 70
    32
  0
VERTEX
  8
T12SSILL
 62
13
 10
1495.615
 20
-2213.927
 30
3986.457
 70
    32
  0
VERTEX
  8
T12SSILL
 62
13
 10
1493.133
 20
-2233.590
 30
3986.444
 70
    32
  0
VERTEX
  8
T12SSILL
 62
13
 10
1495.840
 20
-2237.720
 30
3986.437
 70
    32
  0
VERTEX
  8
T12SSILL
 62
13
 10
1493.585
 20
-2239.192
 30
3986.439
 70
    32
  0
VERTEX
  8
T12SSILL
 62
13
 10
1493.726
 20
-2240.402
 30
3986.438
 70
    32
  0
VERTEX
  8
T12SSILL
 62
13
 10
1497.491
 20
-2251.052
 30
3986.424
 70
    32
  0
VERTEX
  8
T12SSILL
 62
13
 10
1515.056
 20
-2268.937
 30
3986.389
 70
    32
  0
VERTEX
  8
T12SSILL
 62
13
 10
1517.600
 20
-2273.251
 30
3986.382
 70
    32
  0
VERTEX
  8
T12SSILL
 62
13
 10
1517.855
 20
-2278.881
 30
3986.377
 70
    32
  0
VERTEX
  8
T12SSILL
 62
13
 10
1516.263
 20
-2284.860
 30
3986.374
 70
    32
  0
VERTEX
  8
T12SSILL
 62
13
 10
1499.332
 20
-2311.047
 30
3986.374
 70
    32
  0
VERTEX
  8
T12SSILL
 62
13
 10
1504.334
 20
-2318.689
 30
3986.362
 70
    32
  0
VERTEX
  8
T12SSILL
 62
13
 10
1564.140
 20
-2277.244
 30
3986.322
 70
    32
  0
VERTEX
  8
T12SSILL
 62
13
 10
1568.353
 20
-2283.057
 30
3986.313
 70
    32
  0
VERTEX
  8
T12SSILL
 62
13
 10
1513.658
 20
-2319.923
 30
3986.349
 70
    32
  0
SEQEND
  8
T12SSILL
  0
TEXT
  8
T12SSILL
 62
13
 10
2555.071
 20
-2156.344
 30
3987.247
 40
0.200
  1
1250
 41
 1.0 
  0
POLYLINE
  8
T12SSILL
 62
13
 66
     1
 70
     8
  0
VERTEX
  8
T12SSILL
 62
13
 10
1389.687
 20
-2155.314
 30
3986.577
 70
    32
  0
VERTEX
  8
T12SSILL
 62
13
 10
1390.873
 20
-2150.159
 30
3986.577
 70
    32
  0
VERTEX
  8
T12SSILL
 62
13
 10
1394.450
 20
-2148.698
 30
3986.577
 70
    32
  0
VERTEX
  8
T12SSILL
 62
13
 10
1392.466
 20
-2143.232
 30
3986.577
 70
    32
  0
VERTEX
  8
T12SSILL
 62
13
 10
1397.769
 20
-2120.176
 30
3986.577
 70
    32
  0
VERTEX
  8
T12SSILL
 62
13
 10
1397.862
 20
-2116.833
 30
3986.577
 70
    32
  0
VERTEX
  8
T12SSILL
 62
13
 10
1396.635
 20
-2114.368
 30
3986.577
 70
    32
  0
VERTEX
  8
T12SSILL
 62
13
 10
1395.407
 20
-2111.903
 30
3986.577
 70
    32
  0
VERTEX
  8
T12SSILL
 62
13
 10
1393.310
 20
-2103.015
 30
3986.577
 70
    32
  0
VERTEX
  8
T12SSILL
 62
13
 10
1392.706
 20
-2095.449
 30
3986.577
 70
    32
  0
VERTEX
  8
T12SSILL
 62
13
 10
1391.764
 20
-2079.086
 30
3986.577
 70
    32
  0
VERTEX
  8
T12SSILL
 62
13
 10
1391.078
 20
-2067.913
 30
3986.577
 70
    32
  0
VERTEX
  8
T12SSILL
 62
13
 10
1383.542
 20
-2049.517
 30
3986.577
 70
    32
  0
VERTEX
  8
T12SSILL
 62
13
 10
1277.624
 20
-2164.936
 30
3986.577
 70
    32
  0
VERTEX
  8
T12SSILL
 62
13
 10
1277.357
 20
-2166.783
 30
3986.577
 70
    32
  0
VERTEX
  8
T12SSILL
 62
13
 10
1278.058
 20
-2168.632
 30
3986.577
 70
    32
  0
VERTEX
  8
T12SSILL
 62
13
 10
1320.265
 20
-2290.620
 30
3986.577
 70
    32
  0
VERTEX
  8
T12SSILL
 62
13
 10
1322.365
 20
-2297.220
 30
3986.577
 70
    32
  0
VERTEX
  8
T12SSILL
 62
13
 10
1324.732
 20
-2302.854
 30
3986.577
 70
    32
  0
VERTEX
  8
T12SSILL
 62
13
 10
1325.870
 20
-2306.111
 30
3986.577
 70
    32
  0
VERTEX
  8
T12SSILL
 62
13
 10
1332.546
 20
-2311.927
 30
3986.577
 70
    32
  0
VERTEX
  8
T12SSILL
 62
13
 10
1337.385
 20
-2311.231
 30
3986.577
 70
    32
  0
VERTEX
  8
T12SSILL
 62
13
 10
1341.694
 20
-2312.205
 30
3986.577
 70
    32
  0
VERTEX
  8
T12SSILL
 62
13
 10
1344.771
 20
-2313.266
 30
3986.577
 70
    32
  0
VERTEX
  8
T12SSILL
 62
13
 10
1346.621
 20
-2311.773
 30
3986.577
 70
    32
  0
VERTEX
  8
T12SSILL
 62
13
 10
1393.295
 20
-2278.772
 30
3986.577
 70
    32
  0
VERTEX
  8
T12SSILL
 62
13
 10
1394.180
 20
-2275.607
 30
3986.577
 70
    32
  0
VERTEX
  8
T12SSILL
 62
13
 10
1396.393
 20
-2266.637
 30
3986.577
 70
    32
  0
VERTEX
  8
T12SSILL
 62
13
 10
1397.720
 20
-2261.889
 30
3986.577
 70
    32
  0
VERTEX
  8
T12SSILL
 62
13
 10
1392.456
 20
-2253.348
 30
3986.577
 70
    32
  0
VERTEX
  8
T12SSILL
 62
13
 10
1384.295
 20
-2240.932
 30
3986.577
 70
    32
  0
VERTEX
  8
T12SSILL
 62
13
 10
1374.986
 20
-2231.329
 30
3986.577
 70
    32
  0
VERTEX
  8
T12SSILL
 62
13
 10
1373.497
 20
-2226.753
 30
3986.577
 70
    32
  0
VERTEX
  8
T12SSILL
 62
13
 10
1374.208
 20
-2222.619
 30
3986.577
 70
    32
  0
VERTEX
  8
T12SSILL
 62
13
 10
1384.654
 20
-2177.200
 30
3986.577
 70
    32
  0
SEQEND
  8
T12SSILL
  0
ENDSEC
  0
EOF
