999
********************************
999
*   DXF File - Entities Only   *
999
*        3D Data Format        *
999
*     Output from ENVISAGE     *
999
*     20-Dec-2007 09:16:14     *
999
********************************
  0
SECTION 
  2
HEADER
  9
$ACADVER
  1
AC1009
  9
$EXTMIN
 10
-290000.000
 20
-250000.000
 30
-4000.000
  9
$EXTMAX
 10
5000000.000
 20
600000.000
 30
6000.000
  0
ENDSEC
  0
SECTION
  2
ENTITIES
  0
POLYLINE
  8
T14SSILL
 62
8
 66
     1
 70
     9
  0
VERTEX
  8
T14SSILL
 62
8
 10
1549.365
 20
-2301.850
 30
3837.426
 70
    32
  0
VERTEX
  8
T14SSILL
 62
8
 10
1548.357
 20
-2306.098
 30
3837.428
 70
    32
  0
VERTEX
  8
T14SSILL
 62
8
 10
1548.973
 20
-2312.414
 30
3837.418
 70
    32
  0
VERTEX
  8
T14SSILL
 62
8
 10
1550.242
 20
-2313.786
 30
3837.409
 70
    32
  0
VERTEX
  8
T14SSILL
 62
8
 10
1560.475
 20
-2308.488
 30
3837.350
 70
    32
  0
VERTEX
  8
T14SSILL
 62
8
 10
1568.994
 20
-2301.228
 30
3837.304
 70
    32
  0
VERTEX
  8
T14SSILL
 62
8
 10
1566.135
 20
-2296.895
 30
3837.326
 70
    32
  0
VERTEX
  8
T14SSILL
 62
8
 10
1558.825
 20
-2302.904
 30
3837.366
 70
    32
  0
VERTEX
  8
T14SSILL
 62
8
 10
1554.815
 20
-2297.913
 30
3837.396
 70
    32
  0
SEQEND
  8
T14SSILL
  0
POLYLINE
  8
T14SSILL
 62
8
 66
     1
 70
     9
  0
VERTEX
  8
T14SSILL
 62
8
 10
1224.121
 20
-2494.979
 30
3839.047
 70
    32
  0
VERTEX
  8
T14SSILL
 62
8
 10
1220.371
 20
-2489.984
 30
3839.049
 70
    32
  0
VERTEX
  8
T14SSILL
 62
8
 10
1216.516
 20
-2493.614
 30
3839.052
 70
    32
  0
VERTEX
  8
T14SSILL
 62
8
 10
1220.080
 20
-2498.263
 30
3839.050
 70
    32
  0
SEQEND
  8
T14SSILL
  0
POLYLINE
  8
T14SSILL
 62
8
 66
     1
 70
     9
  0
VERTEX
  8
T14SSILL
 62
8
 10
1081.839
 20
-2096.703
 30
3839.061
 70
    32
  0
VERTEX
  8
T14SSILL
 62
8
 10
1078.616
 20
-2091.523
 30
3839.062
 70
    32
  0
VERTEX
  8
T14SSILL
 62
8
 10
1073.717
 20
-2095.353
 30
3839.066
 70
    32
  0
VERTEX
  8
T14SSILL
 62
8
 10
1077.537
 20
-2099.901
 30
3839.065
 70
    32
  0
SEQEND
  8
T14SSILL
  0
POLYLINE
  8
T14SSILL
 62
8
 66
     1
 70
     9
  0
VERTEX
  8
T14SSILL
 62
8
 10
1115.559
 20
-2236.266
 30
3839.066
 70
    32
  0
VERTEX
  8
T14SSILL
 62
8
 10
1120.184
 20
-2244.460
 30
3839.065
 70
    32
  0
VERTEX
  8
T14SSILL
 62
8
 10
1125.609
 20
-2243.430
 30
3839.062
 70
    32
  0
VERTEX
  8
T14SSILL
 62
8
 10
1129.943
 20
-2241.110
 30
3839.058
 70
    32
  0
VERTEX
  8
T14SSILL
 62
8
 10
1131.434
 20
-2239.730
 30
3839.057
 70
    32
  0
VERTEX
  8
T14SSILL
 62
8
 10
1124.597
 20
-2230.094
 30
3839.060
 70
    32
  0
SEQEND
  8
T14SSILL
  0
POLYLINE
  8
T14SSILL
 62
8
 66
     1
 70
     9
  0
VERTEX
  8
T14SSILL
 62
8
 10
1108.237
 20
-2079.432
 30
3839.042
 70
    32
  0
VERTEX
  8
T14SSILL
 62
8
 10
1103.626
 20
-2082.468
 30
3839.045
 70
    32
  0
VERTEX
  8
T14SSILL
 62
8
 10
1102.735
 20
-2085.110
 30
3839.046
 70
    32
  0
VERTEX
  8
T14SSILL
 62
8
 10
1103.883
 20
-2088.421
 30
3839.046
 70
    32
  0
VERTEX
  8
T14SSILL
 62
8
 10
1104.266
 20
-2088.911
 30
3839.046
 70
    32
  0
VERTEX
  8
T14SSILL
 62
8
 10
1111.264
 20
-2083.915
 30
3839.041
 70
    32
  0
SEQEND
  8
T14SSILL
  0
POLYLINE
  8
T14SSILL
 62
8
 66
     1
 70
     9
  0
VERTEX
  8
T14SSILL
 62
8
 10
1176.508
 20
-2170.120
 30
3839.016
 70
    32
  0
VERTEX
  8
T14SSILL
 62
8
 10
1175.634
 20
-2166.476
 30
3839.016
 70
    32
  0
VERTEX
  8
T14SSILL
 62
8
 10
1172.606
 20
-2161.986
 30
3839.017
 70
    32
  0
VERTEX
  8
T14SSILL
 62
8
 10
1170.167
 20
-2159.679
 30
3839.018
 70
    32
  0
VERTEX
  8
T14SSILL
 62
8
 10
1169.296
 20
-2160.316
 30
3839.019
 70
    32
  0
SEQEND
  8
T14SSILL
  0
POLYLINE
  8
T14SSILL
 62
8
 66
     1
 70
     9
  0
VERTEX
  8
T14SSILL
 62
8
 10
1109.173
 20
-2004.273
 30
3839.027
 70
    32
  0
VERTEX
  8
T14SSILL
 62
8
 10
1104.536
 20
-2008.096
 30
3839.031
 70
    32
  0
VERTEX
  8
T14SSILL
 62
8
 10
1107.659
 20
-2012.840
 30
3839.030
 70
    32
  0
VERTEX
  8
T14SSILL
 62
8
 10
1112.378
 20
-2008.839
 30
3839.026
 70
    32
  0
SEQEND
  8
T14SSILL
  0
POLYLINE
  8
T14SSILL
 62
8
 66
     1
 70
     9
  0
VERTEX
  8
T14SSILL
 62
8
 10
1064.178
 20
-1009.637
 30
3837.821
 70
    32
  0
VERTEX
  8
T14SSILL
 62
8
 10
1041.656
 20
-1025.871
 30
3837.718
 70
    32
  0
VERTEX
  8
T14SSILL
 62
8
 10
1035.480
 20
-1020.852
 30
3837.855
 70
    32
  0
VERTEX
  8
T14SSILL
 62
8
 10
1017.637
 20
-1031.964
 30
3837.804
 70
    32
  0
VERTEX
  8
T14SSILL
 62
8
 10
1002.661
 20
-1049.966
 30
3837.609
 70
    32
  0
VERTEX
  8
T14SSILL
 62
8
 10
870.771
 20
-1147.606
 30
3837.466
 70
    32
  0
VERTEX
  8
T14SSILL
 62
8
 10
861.242
 20
-1149.097
 30
3837.538
 70
    32
  0
VERTEX
  8
T14SSILL
 62
8
 10
855.845
 20
-1152.387
 30
3837.572
 70
    32
  0
VERTEX
  8
T14SSILL
 62
8
 10
844.411
 20
-1165.365
 30
3837.626
 70
    32
  0
VERTEX
  8
T14SSILL
 62
8
 10
813.111
 20
-1188.424
 30
3837.811
 70
    32
  0
VERTEX
  8
T14SSILL
 62
8
 10
740.211
 20
-1114.352
 30
3839.004
 70
    32
  0
VERTEX
  8
T14SSILL
 62
8
 10
466.636
 20
-837.618
 30
3839.071
 70
    32
  0
VERTEX
  8
T14SSILL
 62
8
 10
461.241
 20
-824.674
 30
3839.070
 70
    32
  0
VERTEX
  8
T14SSILL
 62
8
 10
380.528
 20
-740.826
 30
3839.089
 70
    32
  0
VERTEX
  8
T14SSILL
 62
8
 10
366.553
 20
-735.337
 30
3839.095
 70
    32
  0
VERTEX
  8
T14SSILL
 62
8
 10
312.475
 20
-680.167
 30
3839.108
 70
    32
  0
VERTEX
  8
T14SSILL
 62
8
 10
307.244
 20
-685.902
 30
3839.112
 70
    32
  0
VERTEX
  8
T14SSILL
 62
8
 10
358.548
 20
-737.888
 30
3839.100
 70
    32
  0
VERTEX
  8
T14SSILL
 62
8
 10
347.547
 20
-750.668
 30
3839.109
 70
    32
  0
VERTEX
  8
T14SSILL
 62
8
 10
351.049
 20
-759.998
 30
3839.109
 70
    32
  0
VERTEX
  8
T14SSILL
 62
8
 10
366.167
 20
-774.004
 30
3839.105
 70
    32
  0
VERTEX
  8
T14SSILL
 62
8
 10
369.892
 20
-769.745
 30
3839.102
 70
    32
  0
VERTEX
  8
T14SSILL
 62
8
 10
357.805
 20
-759.540
 30
3839.106
 70
    32
  0
VERTEX
  8
T14SSILL
 62
8
 10
354.104
 20
-752.575
 30
3839.106
 70
    32
  0
VERTEX
  8
T14SSILL
 62
8
 10
359.527
 20
-745.176
 30
3839.101
 70
    32
  0
VERTEX
  8
T14SSILL
 62
8
 10
365.147
 20
-744.443
 30
3839.098
 70
    32
  0
VERTEX
  8
T14SSILL
 62
8
 10
734.268
 20
-1118.135
 30
3839.008
 70
    32
  0
VERTEX
  8
T14SSILL
 62
8
 10
771.919
 20
-1156.070
 30
3838.232
 70
    32
  0
VERTEX
  8
T14SSILL
 62
8
 10
779.337
 20
-1172.109
 30
3838.127
 70
    32
  0
VERTEX
  8
T14SSILL
 62
8
 10
779.031
 20
-1176.752
 30
3838.117
 70
    32
  0
VERTEX
  8
T14SSILL
 62
8
 10
780.811
 20
-1189.080
 30
3838.067
 70
    32
  0
VERTEX
  8
T14SSILL
 62
8
 10
782.325
 20
-1191.780
 30
3838.048
 70
    32
  0
VERTEX
  8
T14SSILL
 62
8
 10
783.202
 20
-1201.227
 30
3838.014
 70
    32
  0
VERTEX
  8
T14SSILL
 62
8
 10
781.979
 20
-1210.781
 30
3837.996
 70
    32
  0
VERTEX
  8
T14SSILL
 62
8
 10
778.401
 20
-1221.234
 30
3837.995
 70
    32
  0
VERTEX
  8
T14SSILL
 62
8
 10
565.985
 20
-1379.006
 30
3839.246
 70
    32
  0
VERTEX
  8
T14SSILL
 62
8
 10
353.961
 20
-1536.489
 30
3839.249
 70
    32
  0
VERTEX
  8
T14SSILL
 62
8
 10
358.838
 20
-1543.009
 30
3839.249
 70
    32
  0
VERTEX
  8
T14SSILL
 62
8
 10
454.129
 20
-1472.768
 30
3839.249
 70
    32
  0
VERTEX
  8
T14SSILL
 62
8
 10
640.501
 20
-1683.403
 30
3839.232
 70
    32
  0
VERTEX
  8
T14SSILL
 62
8
 10
652.869
 20
-1701.943
 30
3839.231
 70
    32
  0
VERTEX
  8
T14SSILL
 62
8
 10
796.085
 20
-1863.603
 30
3839.195
 70
    32
  0
VERTEX
  8
T14SSILL
 62
8
 10
889.514
 20
-1996.826
 30
3839.162
 70
    32
  0
VERTEX
  8
T14SSILL
 62
8
 10
889.424
 20
-2006.241
 30
3839.164
 70
    32
  0
VERTEX
  8
T14SSILL
 62
8
 10
886.326
 20
-2008.702
 30
3839.166
 70
    32
  0
VERTEX
  8
T14SSILL
 62
8
 10
765.496
 20
-2095.452
 30
3839.206
 70
    32
  0
VERTEX
  8
T14SSILL
 62
8
 10
761.875
 20
-2094.937
 30
3839.207
 70
    32
  0
VERTEX
  8
T14SSILL
 62
8
 10
758.115
 20
-2092.579
 30
3839.207
 70
    32
  0
VERTEX
  8
T14SSILL
 62
8
 10
753.491
 20
-2084.439
 30
3839.207
 70
    32
  0
VERTEX
  8
T14SSILL
 62
8
 10
760.967
 20
-2074.906
 30
3839.208
 70
    32
  0
VERTEX
  8
T14SSILL
 62
8
 10
761.350
 20
-2072.872
 30
3839.208
 70
    32
  0
VERTEX
  8
T14SSILL
 62
8
 10
760.039
 20
-2070.006
 30
3839.208
 70
    32
  0
VERTEX
  8
T14SSILL
 62
8
 10
745.442
 20
-2051.235
 30
3839.209
 70
    32
  0
VERTEX
  8
T14SSILL
 62
8
 10
741.966
 20
-2049.572
 30
3839.210
 70
    32
  0
VERTEX
  8
T14SSILL
 62
8
 10
738.828
 20
-2050.627
 30
3839.210
 70
    32
  0
VERTEX
  8
T14SSILL
 62
8
 10
736.709
 20
-2053.501
 30
3839.210
 70
    32
  0
VERTEX
  8
T14SSILL
 62
8
 10
733.256
 20
-2055.884
 30
3839.210
 70
    32
  0
VERTEX
  8
T14SSILL
 62
8
 10
705.016
 20
-2030.455
 30
3839.212
 70
    32
  0
VERTEX
  8
T14SSILL
 62
8
 10
702.448
 20
-2026.656
 30
3839.212
 70
    32
  0
VERTEX
  8
T14SSILL
 62
8
 10
702.238
 20
-2025.430
 30
3839.212
 70
    32
  0
VERTEX
  8
T14SSILL
 62
8
 10
703.585
 20
-2023.282
 30
3839.212
 70
    32
  0
VERTEX
  8
T14SSILL
 62
8
 10
727.752
 20
-2006.600
 30
3839.212
 70
    32
  0
VERTEX
  8
T14SSILL
 62
8
 10
722.922
 20
-2000.577
 30
3839.213
 70
    32
  0
VERTEX
  8
T14SSILL
 62
8
 10
701.202
 20
-2016.663
 30
3839.213
 70
    32
  0
VERTEX
  8
T14SSILL
 62
8
 10
697.625
 20
-2017.730
 30
3839.213
 70
    32
  0
VERTEX
  8
T14SSILL
 62
8
 10
690.661
 20
-2007.719
 30
3839.214
 70
    32
  0
VERTEX
  8
T14SSILL
 62
8
 10
687.360
 20
-1999.718
 30
3839.214
 70
    32
  0
VERTEX
  8
T14SSILL
 62
8
 10
672.820
 20
-1973.468
 30
3839.216
 70
    32
  0
VERTEX
  8
T14SSILL
 62
8
 10
670.798
 20
-1967.191
 30
3839.216
 70
    32
  0
VERTEX
  8
T14SSILL
 62
8
 10
667.602
 20
-1962.970
 30
3839.217
 70
    32
  0
VERTEX
  8
T14SSILL
 62
8
 10
657.420
 20
-1944.780
 30
3839.218
 70
    32
  0
VERTEX
  8
T14SSILL
 62
8
 10
655.235
 20
-1935.780
 30
3839.219
 70
    32
  0
VERTEX
  8
T14SSILL
 62
8
 10
675.788
 20
-1918.847
 30
3839.219
 70
    32
  0
VERTEX
  8
T14SSILL
 62
8
 10
671.771
 20
-1913.593
 30
3839.219
 70
    32
  0
VERTEX
  8
T14SSILL
 62
8
 10
652.551
 20
-1927.850
 30
3839.219
 70
    32
  0
VERTEX
  8
T14SSILL
 62
8
 10
649.531
 20
-1926.790
 30
3839.219
 70
    32
  0
VERTEX
  8
T14SSILL
 62
8
 10
647.004
 20
-1921.318
 30
3839.220
 70
    32
  0
VERTEX
  8
T14SSILL
 62
8
 10
640.013
 20
-1923.008
 30
3839.220
 70
    32
  0
VERTEX
  8
T14SSILL
 62
8
 10
658.211
 20
-1963.758
 30
3839.217
 70
    32
  0
VERTEX
  8
T14SSILL
 62
8
 10
668.068
 20
-1973.425
 30
3839.216
 70
    32
  0
VERTEX
  8
T14SSILL
 62
8
 10
670.891
 20
-1983.198
 30
3839.216
 70
    32
  0
VERTEX
  8
T14SSILL
 62
8
 10
684.931
 20
-2010.429
 30
3839.214
 70
    32
  0
VERTEX
  8
T14SSILL
 62
8
 10
689.040
 20
-2015.857
 30
3839.213
 70
    32
  0
VERTEX
  8
T14SSILL
 62
8
 10
692.752
 20
-2022.791
 30
3839.213
 70
    32
  0
VERTEX
  8
T14SSILL
 62
8
 10
694.515
 20
-2029.252
 30
3839.212
 70
    32
  0
VERTEX
  8
T14SSILL
 62
8
 10
726.593
 20
-2059.852
 30
3839.210
 70
    32
  0
VERTEX
  8
T14SSILL
 62
8
 10
731.320
 20
-2068.517
 30
3839.209
 70
    32
  0
VERTEX
  8
T14SSILL
 62
8
 10
752.470
 20
-2095.199
 30
3839.207
 70
    32
  0
VERTEX
  8
T14SSILL
 62
8
 10
754.343
 20
-2099.281
 30
3839.207
 70
    32
  0
VERTEX
  8
T14SSILL
 62
8
 10
754.092
 20
-2102.895
 30
3839.207
 70
    32
  0
VERTEX
  8
T14SSILL
 62
8
 10
747.326
 20
-2109.504
 30
3839.206
 70
    32
  0
VERTEX
  8
T14SSILL
 62
8
 10
745.326
 20
-2110.352
 30
3839.206
 70
    32
  0
VERTEX
  8
T14SSILL
 62
8
 10
751.052
 20
-2113.799
 30
3839.206
 70
    32
  0
VERTEX
  8
T14SSILL
 62
8
 10
757.698
 20
-2109.216
 30
3839.206
 70
    32
  0
VERTEX
  8
T14SSILL
 62
8
 10
765.612
 20
-2115.418
 30
3839.205
 70
    32
  0
VERTEX
  8
T14SSILL
 62
8
 10
768.039
 20
-2120.452
 30
3839.205
 70
    32
  0
VERTEX
  8
T14SSILL
 62
8
 10
767.062
 20
-2123.294
 30
3839.205
 70
    32
  0
VERTEX
  8
T14SSILL
 62
8
 10
759.906
 20
-2128.507
 30
3839.205
 70
    32
  0
VERTEX
  8
T14SSILL
 62
8
 10
759.063
 20
-2129.850
 30
3839.205
 70
    32
  0
VERTEX
  8
T14SSILL
 62
8
 10
774.705
 20
-2151.407
 30
3839.203
 70
    32
  0
VERTEX
  8
T14SSILL
 62
8
 10
791.206
 20
-2165.902
 30
3839.202
 70
    32
  0
VERTEX
  8
T14SSILL
 62
8
 10
795.037
 20
-2167.643
 30
3839.202
 70
    32
  0
VERTEX
  8
T14SSILL
 62
8
 10
799.214
 20
-2175.532
 30
3839.201
 70
    32
  0
VERTEX
  8
T14SSILL
 62
8
 10
800.328
 20
-2183.946
 30
3839.201
 70
    32
  0
VERTEX
  8
T14SSILL
 62
8
 10
805.158
 20
-2196.303
 30
3839.200
 70
    32
  0
VERTEX
  8
T14SSILL
 62
8
 10
807.548
 20
-2200.019
 30
3839.200
 70
    32
  0
VERTEX
  8
T14SSILL
 62
8
 10
808.532
 20
-2203.774
 30
3839.199
 70
    32
  0
VERTEX
  8
T14SSILL
 62
8
 10
820.740
 20
-2215.750
 30
3839.198
 70
    32
  0
VERTEX
  8
T14SSILL
 62
8
 10
824.850
 20
-2221.178
 30
3839.198
 70
    32
  0
VERTEX
  8
T14SSILL
 62
8
 10
835.757
 20
-2240.139
 30
3839.197
 70
    32
  0
VERTEX
  8
T14SSILL
 62
8
 10
840.057
 20
-2246.089
 30
3839.196
 70
    32
  0
VERTEX
  8
T14SSILL
 62
8
 10
851.652
 20
-2258.170
 30
3839.195
 70
    32
  0
VERTEX
  8
T14SSILL
 62
8
 10
856.211
 20
-2257.604
 30
3839.195
 70
    32
  0
VERTEX
  8
T14SSILL
 62
8
 10
856.863
 20
-2271.572
 30
3839.194
 70
    32
  0
VERTEX
  8
T14SSILL
 62
8
 10
869.787
 20
-2318.803
 30
3839.191
 70
    32
  0
VERTEX
  8
T14SSILL
 62
8
 10
878.785
 20
-2332.363
 30
3839.190
 70
    32
  0
VERTEX
  8
T14SSILL
 62
8
 10
891.306
 20
-2346.090
 30
3839.189
 70
    32
  0
VERTEX
  8
T14SSILL
 62
8
 10
896.682
 20
-2349.635
 30
3839.189
 70
    32
  0
VERTEX
  8
T14SSILL
 62
8
 10
911.027
 20
-2362.519
 30
3839.188
 70
    32
  0
VERTEX
  8
T14SSILL
 62
8
 10
936.806
 20
-2388.016
 30
3839.186
 70
    32
  0
VERTEX
  8
T14SSILL
 62
8
 10
932.404
 20
-2400.542
 30
3839.185
 70
    32
  0
VERTEX
  8
T14SSILL
 62
8
 10
932.543
 20
-2402.385
 30
3839.185
 70
    32
  0
VERTEX
  8
T14SSILL
 62
8
 10
936.902
 20
-2407.278
 30
3839.185
 70
    32
  0
VERTEX
  8
T14SSILL
 62
8
 10
954.504
 20
-2420.248
 30
3839.183
 70
    32
  0
VERTEX
  8
T14SSILL
 62
8
 10
959.678
 20
-2422.831
 30
3839.183
 70
    32
  0
VERTEX
  8
T14SSILL
 62
8
 10
962.844
 20
-2422.831
 30
3839.183
 70
    32
  0
VERTEX
  8
T14SSILL
 62
8
 10
971.932
 20
-2426.977
 30
3839.182
 70
    32
  0
VERTEX
  8
T14SSILL
 62
8
 10
974.806
 20
-2432.263
 30
3839.182
 70
    32
  0
VERTEX
  8
T14SSILL
 62
8
 10
973.744
 20
-2438.362
 30
3839.182
 70
    32
  0
VERTEX
  8
T14SSILL
 62
8
 10
974.372
 20
-2441.951
 30
3839.181
 70
    32
  0
VERTEX
  8
T14SSILL
 62
8
 10
977.206
 20
-2445.831
 30
3839.181
 70
    32
  0
VERTEX
  8
T14SSILL
 62
8
 10
982.578
 20
-2449.200
 30
3839.181
 70
    32
  0
VERTEX
  8
T14SSILL
 62
8
 10
985.889
 20
-2448.052
 30
3839.181
 70
    32
  0
VERTEX
  8
T14SSILL
 62
8
 10
991.339
 20
-2451.068
 30
3839.180
 70
    32
  0
VERTEX
  8
T14SSILL
 62
8
 10
1003.640
 20
-2463.217
 30
3839.178
 70
    32
  0
VERTEX
  8
T14SSILL
 62
8
 10
1014.188
 20
-2478.758
 30
3839.174
 70
    32
  0
VERTEX
  8
T14SSILL
 62
8
 10
1023.723
 20
-2486.322
 30
3839.170
 70
    32
  0
VERTEX
  8
T14SSILL
 62
8
 10
1034.312
 20
-2500.190
 30
3839.166
 70
    32
  0
VERTEX
  8
T14SSILL
 62
8
 10
1032.186
 20
-2505.967
 30
3839.168
 70
    32
  0
VERTEX
  8
T14SSILL
 62
8
 10
1027.529
 20
-2509.351
 30
3839.172
 70
    32
  0
VERTEX
  8
T14SSILL
 62
8
 10
1027.251
 20
-2515.164
 30
3839.173
 70
    32
  0
VERTEX
  8
T14SSILL
 62
8
 10
1020.774
 20
-2509.978
 30
3839.176
 70
    32
  0
VERTEX
  8
T14SSILL
 62
8
 10
1019.392
 20
-2510.897
 30
3839.176
 70
    32
  0
VERTEX
  8
T14SSILL
 62
8
 10
1018.408
 20
-2510.308
 30
3839.176
 70
    32
  0
VERTEX
  8
T14SSILL
 62
8
 10
1011.898
 20
-2503.980
 30
3839.177
 70
    32
  0
VERTEX
  8
T14SSILL
 62
8
 10
1010.865
 20
-2504.800
 30
3839.177
 70
    32
  0
VERTEX
  8
T14SSILL
 62
8
 10
1009.166
 20
-2503.792
 30
3839.177
 70
    32
  0
VERTEX
  8
T14SSILL
 62
8
 10
998.391
 20
-2489.577
 30
3839.178
 70
    32
  0
VERTEX
  8
T14SSILL
 62
8
 10
996.938
 20
-2491.113
 30
3839.178
 70
    32
  0
VERTEX
  8
T14SSILL
 62
8
 10
979.788
 20
-2488.071
 30
3839.179
 70
    32
  0
VERTEX
  8
T14SSILL
 62
8
 10
977.283
 20
-2486.557
 30
3839.179
 70
    32
  0
VERTEX
  8
T14SSILL
 62
8
 10
972.856
 20
-2488.703
 30
3839.179
 70
    32
  0
VERTEX
  8
T14SSILL
 62
8
 10
982.958
 20
-2500.826
 30
3839.178
 70
    32
  0
VERTEX
  8
T14SSILL
 62
8
 10
1010.016
 20
-2521.713
 30
3839.176
 70
    32
  0
VERTEX
  8
T14SSILL
 62
8
 10
1012.892
 20
-2520.754
 30
3839.176
 70
    32
  0
VERTEX
  8
T14SSILL
 62
8
 10
1021.238
 20
-2526.679
 30
3839.176
 70
    32
  0
VERTEX
  8
T14SSILL
 62
8
 10
1027.689
 20
-2527.731
 30
3839.175
 70
    32
  0
VERTEX
  8
T14SSILL
 62
8
 10
1031.590
 20
-2525.688
 30
3839.172
 70
    32
  0
VERTEX
  8
T14SSILL
 62
8
 10
1034.803
 20
-2521.024
 30
3839.169
 70
    32
  0
VERTEX
  8
T14SSILL
 62
8
 10
1041.703
 20
-2525.582
 30
3839.166
 70
    32
  0
VERTEX
  8
T14SSILL
 62
8
 10
1051.372
 20
-2525.314
 30
3839.160
 70
    32
  0
VERTEX
  8
T14SSILL
 62
8
 10
1056.680
 20
-2526.398
 30
3839.157
 70
    32
  0
VERTEX
  8
T14SSILL
 62
8
 10
1061.295
 20
-2531.020
 30
3839.155
 70
    32
  0
VERTEX
  8
T14SSILL
 62
8
 10
1070.779
 20
-2549.405
 30
3839.152
 70
    32
  0
VERTEX
  8
T14SSILL
 62
8
 10
1098.765
 20
-2553.025
 30
3839.136
 70
    32
  0
VERTEX
  8
T14SSILL
 62
8
 10
1108.941
 20
-2561.539
 30
3839.131
 70
    32
  0
VERTEX
  8
T14SSILL
 62
8
 10
1113.925
 20
-2563.600
 30
3839.128
 70
    32
  0
VERTEX
  8
T14SSILL
 62
8
 10
1127.693
 20
-2577.907
 30
3839.122
 70
    32
  0
VERTEX
  8
T14SSILL
 62
8
 10
1129.505
 20
-2582.959
 30
3839.122
 70
    32
  0
VERTEX
  8
T14SSILL
 62
8
 10
1128.245
 20
-2585.105
 30
3839.123
 70
    32
  0
VERTEX
  8
T14SSILL
 62
8
 10
1123.135
 20
-2587.974
 30
3839.127
 70
    32
  0
VERTEX
  8
T14SSILL
 62
8
 10
1127.711
 20
-2594.356
 30
3839.125
 70
    32
  0
VERTEX
  8
T14SSILL
 62
8
 10
1133.720
 20
-2588.999
 30
3839.121
 70
    32
  0
VERTEX
  8
T14SSILL
 62
8
 10
1137.367
 20
-2587.315
 30
3839.118
 70
    32
  0
VERTEX
  8
T14SSILL
 62
8
 10
1142.907
 20
-2590.415
 30
3839.115
 70
    32
  0
VERTEX
  8
T14SSILL
 62
8
 10
1148.697
 20
-2596.148
 30
3839.113
 70
    32
  0
VERTEX
  8
T14SSILL
 62
8
 10
1156.783
 20
-2608.590
 30
3839.110
 70
    32
  0
VERTEX
  8
T14SSILL
 62
8
 10
1193.480
 20
-2654.231
 30
3839.096
 70
    32
  0
VERTEX
  8
T14SSILL
 62
8
 10
1193.981
 20
-2656.857
 30
3839.096
 70
    32
  0
VERTEX
  8
T14SSILL
 62
8
 10
1192.712
 20
-2658.996
 30
3839.097
 70
    32
  0
VERTEX
  8
T14SSILL
 62
8
 10
1172.491
 20
-2673.885
 30
3839.112
 70
    32
  0
VERTEX
  8
T14SSILL
 62
8
 10
1175.387
 20
-2681.201
 30
3839.112
 70
    32
  0
VERTEX
  8
T14SSILL
 62
8
 10
1196.137
 20
-2666.388
 30
3839.096
 70
    32
  0
VERTEX
  8
T14SSILL
 62
8
 10
1200.068
 20
-2665.329
 30
3839.094
 70
    32
  0
VERTEX
  8
T14SSILL
 62
8
 10
1202.388
 20
-2666.769
 30
3839.093
 70
    32
  0
VERTEX
  8
T14SSILL
 62
8
 10
1217.054
 20
-2684.974
 30
3839.087
 70
    32
  0
VERTEX
  8
T14SSILL
 62
8
 10
1222.127
 20
-2698.920
 30
3839.082
 70
    32
  0
VERTEX
  8
T14SSILL
 62
8
 10
1230.787
 20
-2712.167
 30
3839.015
 70
    32
  0
VERTEX
  8
T14SSILL
 62
8
 10
1238.710
 20
-2720.157
 30
3838.957
 70
    32
  0
VERTEX
  8
T14SSILL
 62
8
 10
1250.221
 20
-2735.007
 30
3838.871
 70
    32
  0
VERTEX
  8
T14SSILL
 62
8
 10
1252.158
 20
-2738.918
 30
3838.855
 70
    32
  0
VERTEX
  8
T14SSILL
 62
8
 10
1251.198
 20
-2742.984
 30
3838.857
 70
    32
  0
VERTEX
  8
T14SSILL
 62
8
 10
1236.458
 20
-2751.679
 30
3838.941
 70
    32
  0
VERTEX
  8
T14SSILL
 62
8
 10
1237.840
 20
-2758.152
 30
3838.926
 70
    32
  0
VERTEX
  8
T14SSILL
 62
8
 10
1257.725
 20
-2747.666
 30
3838.812
 70
    32
  0
VERTEX
  8
T14SSILL
 62
8
 10
1260.833
 20
-2749.000
 30
3838.791
 70
    32
  0
VERTEX
  8
T14SSILL
 62
8
 10
1264.072
 20
-2752.176
 30
3838.767
 70
    32
  0
VERTEX
  8
T14SSILL
 62
8
 10
1287.361
 20
-2782.047
 30
3838.592
 70
    32
  0
VERTEX
  8
T14SSILL
 62
8
 10
1301.062
 20
-2792.802
 30
3838.496
 70
    32
  0
VERTEX
  8
T14SSILL
 62
8
 10
1318.802
 20
-2814.627
 30
3838.364
 70
    32
  0
VERTEX
  8
T14SSILL
 62
8
 10
1320.194
 20
-2817.759
 30
3838.352
 70
    32
  0
VERTEX
  8
T14SSILL
 62
8
 10
1328.594
 20
-2827.408
 30
3838.290
 70
    32
  0
VERTEX
  8
T14SSILL
 62
8
 10
1536.518
 20
-2907.638
 30
3838.224
 70
    32
  0
VERTEX
  8
T14SSILL
 62
8
 10
1551.197
 20
-2911.338
 30
3838.223
 70
    32
  0
VERTEX
  8
T14SSILL
 62
8
 10
1580.702
 20
-2910.033
 30
3838.128
 70
    32
  0
VERTEX
  8
T14SSILL
 62
8
 10
1602.954
 20
-2903.008
 30
3837.993
 70
    32
  0
VERTEX
  8
T14SSILL
 62
8
 10
1628.313
 20
-2886.064
 30
3837.743
 70
    32
  0
VERTEX
  8
T14SSILL
 62
8
 10
1685.113
 20
-2845.267
 30
3837.152
 70
    32
  0
VERTEX
  8
T14SSILL
 62
8
 10
1694.848
 20
-2844.336
 30
3837.116
 70
    32
  0
VERTEX
  8
T14SSILL
 62
8
 10
1700.669
 20
-2845.167
 30
3837.109
 70
    32
  0
VERTEX
  8
T14SSILL
 62
8
 10
1945.461
 20
-3175.062
 30
3837.951
 70
    32
  0
VERTEX
  8
T14SSILL
 62
8
 10
1916.081
 20
-3392.258
 30
3838.998
 70
    32
  0
VERTEX
  8
T14SSILL
 62
8
 10
1960.987
 20
-3448.082
 30
3838.985
 70
    32
  0
VERTEX
  8
T14SSILL
 62
8
 10
2389.136
 20
-4010.076
 30
3838.982
 70
    32
  0
VERTEX
  8
T14SSILL
 62
8
 10
2391.328
 20
-4014.825
 30
3838.984
 70
    32
  0
VERTEX
  8
T14SSILL
 62
8
 10
2390.036
 20
-4023.871
 30
3838.991
 70
    32
  0
VERTEX
  8
T14SSILL
 62
8
 10
2384.699
 20
-4033.154
 30
3839.001
 70
    32
  0
VERTEX
  8
T14SSILL
 62
8
 10
2171.886
 20
-4471.361
 30
3839.039
 70
    32
  0
VERTEX
  8
T14SSILL
 62
8
 10
2172.031
 20
-4527.890
 30
3839.035
 70
    32
  0
VERTEX
  8
T14SSILL
 62
8
 10
2117.411
 20
-4583.784
 30
3839.035
 70
    32
  0
VERTEX
  8
T14SSILL
 62
8
 10
2117.370
 20
-4626.700
 30
3839.032
 70
    32
  0
VERTEX
  8
T14SSILL
 62
8
 10
2170.130
 20
-4626.866
 30
3839.030
 70
    32
  0
VERTEX
  8
T14SSILL
 62
8
 10
2170.052
 20
-4729.371
 30
3839.030
 70
    32
  0
VERTEX
  8
T14SSILL
 62
8
 10
2171.875
 20
-4732.812
 30
3839.030
 70
    32
  0
VERTEX
  8
T14SSILL
 62
8
 10
2172.111
 20
-4749.780
 30
3839.030
 70
    32
  0
VERTEX
  8
T14SSILL
 62
8
 10
2180.019
 20
-4749.674
 30
3839.030
 70
    32
  0
VERTEX
  8
T14SSILL
 62
8
 10
2178.899
 20
-4474.398
 30
3839.039
 70
    32
  0
VERTEX
  8
T14SSILL
 62
8
 10
2398.691
 20
-4022.618
 30
3838.984
 70
    32
  0
VERTEX
  8
T14SSILL
 62
8
 10
2744.063
 20
-4477.696
 30
3839.033
 70
    32
  0
VERTEX
  8
T14SSILL
 62
8
 10
3059.338
 20
-4868.543
 30
3839.030
 70
    32
  0
VERTEX
  8
T14SSILL
 62
8
 10
3336.306
 20
-5207.955
 30
3839.030
 70
    32
  0
VERTEX
  8
T14SSILL
 62
8
 10
3329.595
 20
-5213.789
 30
3839.030
 70
    32
  0
VERTEX
  8
T14SSILL
 62
8
 10
3344.617
 20
-5232.219
 30
3839.030
 70
    32
  0
VERTEX
  8
T14SSILL
 62
8
 10
3351.570
 20
-5226.660
 30
3839.030
 70
    32
  0
VERTEX
  8
T14SSILL
 62
8
 10
3364.580
 20
-5242.604
 30
3839.030
 70
    32
  0
VERTEX
  8
T14SSILL
 62
8
 10
3370.825
 20
-5237.067
 30
3839.030
 70
    32
  0
VERTEX
  8
T14SSILL
 62
8
 10
2749.016
 20
-4473.334
 30
3839.034
 70
    32
  0
VERTEX
  8
T14SSILL
 62
8
 10
1968.989
 20
-3447.865
 30
3838.973
 70
    32
  0
VERTEX
  8
T14SSILL
 62
8
 10
1923.966
 20
-3390.602
 30
3838.985
 70
    32
  0
VERTEX
  8
T14SSILL
 62
8
 10
1951.899
 20
-3179.353
 30
3837.940
 70
    32
  0
VERTEX
  8
T14SSILL
 62
8
 10
1955.473
 20
-3181.821
 30
3837.934
 70
    32
  0
VERTEX
  8
T14SSILL
 62
8
 10
1961.292
 20
-3182.478
 30
3837.902
 70
    32
  0
VERTEX
  8
T14SSILL
 62
8
 10
1966.717
 20
-3181.298
 30
3837.859
 70
    32
  0
VERTEX
  8
T14SSILL
 62
8
 10
1976.698
 20
-3175.616
 30
3837.757
 70
    32
  0
VERTEX
  8
T14SSILL
 62
8
 10
1980.897
 20
-3170.859
 30
3837.698
 70
    32
  0
VERTEX
  8
T14SSILL
 62
8
 10
1987.899
 20
-3165.597
 30
3837.617
 70
    32
  0
VERTEX
  8
T14SSILL
 62
8
 10
1992.111
 20
-3165.236
 30
3837.588
 70
    32
  0
VERTEX
  8
T14SSILL
 62
8
 10
1995.638
 20
-3169.464
 30
3837.595
 70
    32
  0
VERTEX
  8
T14SSILL
 62
8
 10
1996.202
 20
-3182.465
 30
3837.681
 70
    32
  0
VERTEX
  8
T14SSILL
 62
8
 10
2007.071
 20
-3203.847
 30
3837.759
 70
    32
  0
VERTEX
  8
T14SSILL
 62
8
 10
2012.619
 20
-3208.028
 30
3837.752
 70
    32
  0
VERTEX
  8
T14SSILL
 62
8
 10
2019.515
 20
-3209.628
 30
3837.742
 70
    32
  0
VERTEX
  8
T14SSILL
 62
8
 10
2025.704
 20
-3207.287
 30
3837.901
 70
    32
  0
VERTEX
  8
T14SSILL
 62
8
 10
2029.820
 20
-3202.707
 30
3838.006
 70
    32
  0
VERTEX
  8
T14SSILL
 62
8
 10
2031.361
 20
-3193.263
 30
3838.046
 70
    32
  0
VERTEX
  8
T14SSILL
 62
8
 10
2030.017
 20
-3188.369
 30
3838.011
 70
    32
  0
VERTEX
  8
T14SSILL
 62
8
 10
2022.360
 20
-3180.456
 30
3837.814
 70
    32
  0
VERTEX
  8
T14SSILL
 62
8
 10
2013.191
 20
-3164.135
 30
3837.578
 70
    32
  0
VERTEX
  8
T14SSILL
 62
8
 10
2016.293
 20
-3153.775
 30
3837.658
 70
    32
  0
VERTEX
  8
T14SSILL
 62
8
 10
2016.156
 20
-3147.799
 30
3837.654
 70
    32
  0
VERTEX
  8
T14SSILL
 62
8
 10
2014.099
 20
-3142.482
 30
3837.601
 70
    32
  0
VERTEX
  8
T14SSILL
 62
8
 10
2012.223
 20
-3141.206
 30
3837.553
 70
    32
  0
VERTEX
  8
T14SSILL
 62
8
 10
2010.743
 20
-3141.856
 30
3837.515
 70
    32
  0
VERTEX
  8
T14SSILL
 62
8
 10
2008.675
 20
-3139.881
 30
3837.462
 70
    32
  0
VERTEX
  8
T14SSILL
 62
8
 10
2004.439
 20
-3131.625
 30
3837.353
 70
    32
  0
VERTEX
  8
T14SSILL
 62
8
 10
2007.021
 20
-3129.191
 30
3837.419
 70
    32
  0
VERTEX
  8
T14SSILL
 62
8
 10
2006.839
 20
-3126.735
 30
3837.415
 70
    32
  0
VERTEX
  8
T14SSILL
 62
8
 10
2008.468
 20
-3125.155
 30
3837.456
 70
    32
  0
VERTEX
  8
T14SSILL
 62
8
 10
2003.951
 20
-3120.497
 30
3837.340
 70
    32
  0
VERTEX
  8
T14SSILL
 62
8
 10
2003.382
 20
-3121.049
 30
3837.326
 70
    32
  0
VERTEX
  8
T14SSILL
 62
8
 10
2001.679
 20
-3118.674
 30
3837.282
 70
    32
  0
VERTEX
  8
T14SSILL
 62
8
 10
1997.606
 20
-3117.449
 30
3837.225
 70
    32
  0
VERTEX
  8
T14SSILL
 62
8
 10
1991.046
 20
-3119.007
 30
3837.277
 70
    32
  0
VERTEX
  8
T14SSILL
 62
8
 10
1981.639
 20
-3115.266
 30
3837.311
 70
    32
  0
VERTEX
  8
T14SSILL
 62
8
 10
1969.956
 20
-3104.368
 30
3837.310
 70
    32
  0
VERTEX
  8
T14SSILL
 62
8
 10
1963.298
 20
-3093.969
 30
3837.281
 70
    32
  0
VERTEX
  8
T14SSILL
 62
8
 10
1969.421
 20
-3077.296
 30
3837.127
 70
    32
  0
VERTEX
  8
T14SSILL
 62
8
 10
1972.282
 20
-3060.259
 30
3836.992
 70
    32
  0
VERTEX
  8
T14SSILL
 62
8
 10
1974.412
 20
-3057.308
 30
3836.958
 70
    32
  0
VERTEX
  8
T14SSILL
 62
8
 10
1988.450
 20
-3048.279
 30
3836.941
 70
    32
  0
VERTEX
  8
T14SSILL
 62
8
 10
2002.349
 20
-3037.055
 30
3837.298
 70
    32
  0
VERTEX
  8
T14SSILL
 62
8
 10
2025.667
 20
-3011.016
 30
3837.896
 70
    32
  0
VERTEX
  8
T14SSILL
 62
8
 10
2021.061
 20
-3005.758
 30
3837.777
 70
    32
  0
VERTEX
  8
T14SSILL
 62
8
 10
2003.179
 20
-3027.275
 30
3837.319
 70
    32
  0
VERTEX
  8
T14SSILL
 62
8
 10
1994.993
 20
-3034.586
 30
3837.109
 70
    32
  0
VERTEX
  8
T14SSILL
 62
8
 10
1991.075
 20
-3036.259
 30
3837.008
 70
    32
  0
VERTEX
  8
T14SSILL
 62
8
 10
1977.707
 20
-3047.647
 30
3836.871
 70
    32
  0
VERTEX
  8
T14SSILL
 62
8
 10
1975.338
 20
-3047.877
 30
3836.888
 70
    32
  0
VERTEX
  8
T14SSILL
 62
8
 10
1976.295
 20
-3028.334
 30
3836.747
 70
    32
  0
VERTEX
  8
T14SSILL
 62
8
 10
1939.698
 20
-3031.463
 30
3837.001
 70
    32
  0
VERTEX
  8
T14SSILL
 62
8
 10
1935.361
 20
-3030.244
 30
3837.020
 70
    32
  0
VERTEX
  8
T14SSILL
 62
8
 10
1933.738
 20
-3028.523
 30
3837.018
 70
    32
  0
VERTEX
  8
T14SSILL
 62
8
 10
1932.467
 20
-3026.793
 30
3837.014
 70
    32
  0
VERTEX
  8
T14SSILL
 62
8
 10
1932.554
 20
-3022.922
 30
3836.987
 70
    32
  0
VERTEX
  8
T14SSILL
 62
8
 10
1938.372
 20
-3008.279
 30
3836.850
 70
    32
  0
VERTEX
  8
T14SSILL
 62
8
 10
1942.823
 20
-3002.988
 30
3836.785
 70
    32
  0
VERTEX
  8
T14SSILL
 62
8
 10
1946.719
 20
-3000.348
 30
3836.742
 70
    32
  0
VERTEX
  8
T14SSILL
 62
8
 10
1951.381
 20
-3000.417
 30
3836.713
 70
    32
  0
VERTEX
  8
T14SSILL
 62
8
 10
1957.926
 20
-3002.025
 30
3836.683
 70
    32
  0
VERTEX
  8
T14SSILL
 62
8
 10
1980.294
 20
-3011.094
 30
3836.731
 70
    32
  0
VERTEX
  8
T14SSILL
 62
8
 10
1980.867
 20
-3001.584
 30
3836.745
 70
    32
  0
VERTEX
  8
T14SSILL
 62
8
 10
1979.224
 20
-2998.984
 30
3836.703
 70
    32
  0
VERTEX
  8
T14SSILL
 62
8
 10
1973.929
 20
-2994.357
 30
3836.567
 70
    32
  0
VERTEX
  8
T14SSILL
 62
8
 10
1956.865
 20
-2990.354
 30
3836.609
 70
    32
  0
VERTEX
  8
T14SSILL
 62
8
 10
1938.710
 20
-2988.574
 30
3836.712
 70
    32
  0
VERTEX
  8
T14SSILL
 62
8
 10
1933.417
 20
-2991.685
 30
3836.767
 70
    32
  0
VERTEX
  8
T14SSILL
 62
8
 10
1929.455
 20
-2999.075
 30
3836.843
 70
    32
  0
VERTEX
  8
T14SSILL
 62
8
 10
1926.006
 20
-3009.707
 30
3836.938
 70
    32
  0
VERTEX
  8
T14SSILL
 62
8
 10
1927.178
 20
-3033.862
 30
3837.096
 70
    32
  0
VERTEX
  8
T14SSILL
 62
8
 10
1924.281
 20
-3037.886
 30
3837.142
 70
    32
  0
VERTEX
  8
T14SSILL
 62
8
 10
1920.698
 20
-3038.848
 30
3837.172
 70
    32
  0
VERTEX
  8
T14SSILL
 62
8
 10
1913.786
 20
-3036.545
 30
3837.200
 70
    32
  0
VERTEX
  8
T14SSILL
 62
8
 10
1915.245
 20
-3031.147
 30
3837.153
 70
    32
  0
VERTEX
  8
T14SSILL
 62
8
 10
1915.237
 20
-3027.014
 30
3837.125
 70
    32
  0
VERTEX
  8
T14SSILL
 62
8
 10
1911.321
 20
-3017.344
 30
3837.083
 70
    32
  0
VERTEX
  8
T14SSILL
 62
8
 10
1882.188
 20
-2974.223
 30
3836.971
 70
    32
  0
VERTEX
  8
T14SSILL
 62
8
 10
1881.215
 20
-2966.331
 30
3836.923
 70
    32
  0
VERTEX
  8
T14SSILL
 62
8
 10
1870.866
 20
-2940.805
 30
3836.813
 70
    32
  0
VERTEX
  8
T14SSILL
 62
8
 10
1869.152
 20
-2938.910
 30
3836.811
 70
    32
  0
VERTEX
  8
T14SSILL
 62
8
 10
1866.755
 20
-2937.910
 30
3836.820
 70
    32
  0
VERTEX
  8
T14SSILL
 62
8
 10
1856.469
 20
-2930.408
 30
3836.833
 70
    32
  0
VERTEX
  8
T14SSILL
 62
8
 10
1843.010
 20
-2922.541
 30
3836.864
 70
    32
  0
VERTEX
  8
T14SSILL
 62
8
 10
1832.883
 20
-2906.682
 30
3836.819
 70
    32
  0
VERTEX
  8
T14SSILL
 62
8
 10
1824.125
 20
-2896.771
 30
3836.807
 70
    32
  0
VERTEX
  8
T14SSILL
 62
8
 10
1817.341
 20
-2892.355
 30
3836.819
 70
    32
  0
VERTEX
  8
T14SSILL
 62
8
 10
1807.931
 20
-2880.876
 30
3836.800
 70
    32
  0
VERTEX
  8
T14SSILL
 62
8
 10
1797.173
 20
-2875.760
 30
3836.833
 70
    32
  0
VERTEX
  8
T14SSILL
 62
8
 10
1791.919
 20
-2869.110
 30
3836.821
 70
    32
  0
VERTEX
  8
T14SSILL
 62
8
 10
1789.368
 20
-2861.430
 30
3836.784
 70
    32
  0
VERTEX
  8
T14SSILL
 62
8
 10
1783.254
 20
-2855.592
 30
3836.783
 70
    32
  0
VERTEX
  8
T14SSILL
 62
8
 10
1772.464
 20
-2849.069
 30
3836.806
 70
    32
  0
VERTEX
  8
T14SSILL
 62
8
 10
1770.991
 20
-2846.201
 30
3836.796
 70
    32
  0
VERTEX
  8
T14SSILL
 62
8
 10
1769.868
 20
-2839.456
 30
3836.756
 70
    32
  0
VERTEX
  8
T14SSILL
 62
8
 10
1768.221
 20
-2836.680
 30
3836.748
 70
    32
  0
VERTEX
  8
T14SSILL
 62
8
 10
1760.240
 20
-2833.786
 30
3836.778
 70
    32
  0
VERTEX
  8
T14SSILL
 62
8
 10
1757.001
 20
-2830.607
 30
3836.777
 70
    32
  0
VERTEX
  8
T14SSILL
 62
8
 10
1752.161
 20
-2822.805
 30
3836.729
 70
    32
  0
VERTEX
  8
T14SSILL
 62
8
 10
1748.373
 20
-2814.890
 30
3836.655
 70
    32
  0
VERTEX
  8
T14SSILL
 62
8
 10
1748.492
 20
-2804.774
 30
3836.547
 70
    32
  0
VERTEX
  8
T14SSILL
 62
8
 10
1828.561
 20
-2745.772
 30
3835.699
 70
    32
  0
VERTEX
  8
T14SSILL
 62
8
 10
1870.823
 20
-2717.538
 30
3835.279
 70
    32
  0
VERTEX
  8
T14SSILL
 62
8
 10
1871.916
 20
-2719.184
 30
3835.284
 70
    32
  0
VERTEX
  8
T14SSILL
 62
8
 10
1879.596
 20
-2724.283
 30
3835.270
 70
    32
  0
VERTEX
  8
T14SSILL
 62
8
 10
1883.753
 20
-2725.330
 30
3835.251
 70
    32
  0
VERTEX
  8
T14SSILL
 62
8
 10
1892.212
 20
-2737.534
 30
3835.281
 70
    32
  0
VERTEX
  8
T14SSILL
 62
8
 10
1899.332
 20
-2733.589
 30
3835.209
 70
    32
  0
VERTEX
  8
T14SSILL
 62
8
 10
1896.150
 20
-2729.090
 30
3835.198
 70
    32
  0
VERTEX
  8
T14SSILL
 62
8
 10
1899.087
 20
-2722.955
 30
3835.137
 70
    32
  0
VERTEX
  8
T14SSILL
 62
8
 10
1902.950
 20
-2722.690
 30
3835.111
 70
    32
  0
VERTEX
  8
T14SSILL
 62
8
 10
1908.099
 20
-2720.988
 30
3835.067
 70
    32
  0
VERTEX
  8
T14SSILL
 62
8
 10
1933.986
 20
-2707.202
 30
3835.536
 70
    32
  0
VERTEX
  8
T14SSILL
 62
8
 10
1942.174
 20
-2696.197
 30
3835.746
 70
    32
  0
VERTEX
  8
T14SSILL
 62
8
 10
1947.298
 20
-2659.058
 30
3835.892
 70
    32
  0
VERTEX
  8
T14SSILL
 62
8
 10
1949.067
 20
-2655.676
 30
3835.959
 70
    32
  0
VERTEX
  8
T14SSILL
 62
8
 10
1958.492
 20
-2644.906
 30
3836.253
 70
    32
  0
VERTEX
  8
T14SSILL
 62
8
 10
1967.414
 20
-2631.423
 30
3836.561
 70
    32
  0
VERTEX
  8
T14SSILL
 62
8
 10
1971.783
 20
-2614.966
 30
3836.803
 70
    32
  0
VERTEX
  8
T14SSILL
 62
8
 10
1971.962
 20
-2599.837
 30
3836.946
 70
    32
  0
VERTEX
  8
T14SSILL
 62
8
 10
1969.557
 20
-2590.835
 30
3836.979
 70
    32
  0
VERTEX
  8
T14SSILL
 62
8
 10
1685.553
 20
-1988.509
 30
3836.882
 70
    32
  0
VERTEX
  8
T14SSILL
 62
8
 10
1701.277
 20
-1981.386
 30
3837.063
 70
    32
  0
VERTEX
  8
T14SSILL
 62
8
 10
1708.275
 20
-1983.127
 30
3837.191
 70
    32
  0
VERTEX
  8
T14SSILL
 62
8
 10
1722.600
 20
-1976.307
 30
3837.549
 70
    32
  0
VERTEX
  8
T14SSILL
 62
8
 10
1715.580
 20
-1964.275
 30
3837.515
 70
    32
  0
VERTEX
  8
T14SSILL
 62
8
 10
1682.377
 20
-1981.823
 30
3836.908
 70
    32
  0
VERTEX
  8
T14SSILL
 62
8
 10
1538.127
 20
-1680.431
 30
3838.107
 70
    32
  0
VERTEX
  8
T14SSILL
 62
8
 10
1464.787
 20
-1524.535
 30
3838.718
 70
    32
  0
VERTEX
  8
T14SSILL
 62
8
 10
1387.194
 20
-1359.598
 30
3838.736
 70
    32
  0
VERTEX
  8
T14SSILL
 62
8
 10
1339.868
 20
-1259.000
 30
3837.333
 70
    32
  0
VERTEX
  8
T14SSILL
 62
8
 10
1341.836
 20
-1254.166
 30
3837.264
 70
    32
  0
VERTEX
  8
T14SSILL
 62
8
 10
1343.829
 20
-1251.958
 30
3837.233
 70
    32
  0
VERTEX
  8
T14SSILL
 62
8
 10
1402.444
 20
-1195.660
 30
3838.682
 70
    32
  0
VERTEX
  8
T14SSILL
 62
8
 10
1588.065
 20
-1017.378
 30
3838.588
 70
    32
  0
VERTEX
  8
T14SSILL
 62
8
 10
1620.064
 20
-989.522
 30
3838.590
 70
    32
  0
VERTEX
  8
T14SSILL
 62
8
 10
1657.246
 20
-894.269
 30
3838.521
 70
    32
  0
VERTEX
  8
T14SSILL
 62
8
 10
1662.677
 20
-884.604
 30
3838.499
 70
    32
  0
VERTEX
  8
T14SSILL
 62
8
 10
1744.212
 20
-844.756
 30
3838.415
 70
    32
  0
VERTEX
  8
T14SSILL
 62
8
 10
2085.131
 20
-965.443
 30
3838.666
 70
    32
  0
VERTEX
  8
T14SSILL
 62
8
 10
2265.194
 20
-919.420
 30
3838.666
 70
    32
  0
VERTEX
  8
T14SSILL
 62
8
 10
2272.026
 20
-933.171
 30
3838.666
 70
    32
  0
VERTEX
  8
T14SSILL
 62
8
 10
2280.918
 20
-932.753
 30
3838.666
 70
    32
  0
VERTEX
  8
T14SSILL
 62
8
 10
2469.993
 20
-1184.491
 30
3838.666
 70
    32
  0
VERTEX
  8
T14SSILL
 62
8
 10
2462.389
 20
-1197.413
 30
3838.666
 70
    32
  0
VERTEX
  8
T14SSILL
 62
8
 10
2454.197
 20
-1199.152
 30
3838.666
 70
    32
  0
VERTEX
  8
T14SSILL
 62
8
 10
2441.693
 20
-1200.265
 30
3838.666
 70
    32
  0
VERTEX
  8
T14SSILL
 62
8
 10
2428.047
 20
-1200.406
 30
3838.666
 70
    32
  0
VERTEX
  8
T14SSILL
 62
8
 10
2409.700
 20
-1214.533
 30
3838.666
 70
    32
  0
VERTEX
  8
T14SSILL
 62
8
 10
2409.687
 20
-1219.375
 30
3838.666
 70
    32
  0
VERTEX
  8
T14SSILL
 62
8
 10
2413.433
 20
-1234.791
 30
3838.666
 70
    32
  0
VERTEX
  8
T14SSILL
 62
8
 10
2420.084
 20
-1250.654
 30
3838.666
 70
    32
  0
VERTEX
  8
T14SSILL
 62
8
 10
2429.109
 20
-1267.316
 30
3838.666
 70
    32
  0
VERTEX
  8
T14SSILL
 62
8
 10
2432.727
 20
-1263.804
 30
3838.666
 70
    32
  0
VERTEX
  8
T14SSILL
 62
8
 10
2434.138
 20
-1263.103
 30
3838.666
 70
    32
  0
VERTEX
  8
T14SSILL
 62
8
 10
2436.866
 20
-1263.286
 30
3838.666
 70
    32
  0
VERTEX
  8
T14SSILL
 62
8
 10
2442.221
 20
-1269.374
 30
3838.666
 70
    32
  0
VERTEX
  8
T14SSILL
 62
8
 10
2449.688
 20
-1275.556
 30
3838.666
 70
    32
  0
VERTEX
  8
T14SSILL
 62
8
 10
2464.631
 20
-1284.838
 30
3838.666
 70
    32
  0
VERTEX
  8
T14SSILL
 62
8
 10
2467.618
 20
-1287.223
 30
3838.666
 70
    32
  0
VERTEX
  8
T14SSILL
 62
8
 10
2468.404
 20
-1289.425
 30
3838.666
 70
    32
  0
VERTEX
  8
T14SSILL
 62
8
 10
2462.569
 20
-1299.359
 30
3838.666
 70
    32
  0
VERTEX
  8
T14SSILL
 62
8
 10
2452.862
 20
-1308.137
 30
3838.666
 70
    32
  0
VERTEX
  8
T14SSILL
 62
8
 10
2453.553
 20
-1313.333
 30
3838.666
 70
    32
  0
VERTEX
  8
T14SSILL
 62
8
 10
2453.104
 20
-1316.854
 30
3838.666
 70
    32
  0
VERTEX
  8
T14SSILL
 62
8
 10
2460.931
 20
-1320.307
 30
3838.666
 70
    32
  0
VERTEX
  8
T14SSILL
 62
8
 10
2462.331
 20
-1323.480
 30
3838.666
 70
    32
  0
VERTEX
  8
T14SSILL
 62
8
 10
2464.151
 20
-1334.841
 30
3838.666
 70
    32
  0
VERTEX
  8
T14SSILL
 62
8
 10
2463.163
 20
-1342.498
 30
3838.666
 70
    32
  0
VERTEX
  8
T14SSILL
 62
8
 10
2461.569
 20
-1346.015
 30
3838.666
 70
    32
  0
VERTEX
  8
T14SSILL
 62
8
 10
2454.420
 20
-1353.128
 30
3838.666
 70
    32
  0
VERTEX
  8
T14SSILL
 62
8
 10
2450.103
 20
-1354.613
 30
3838.666
 70
    32
  0
VERTEX
  8
T14SSILL
 62
8
 10
2436.647
 20
-1349.209
 30
3838.666
 70
    32
  0
VERTEX
  8
T14SSILL
 62
8
 10
2425.883
 20
-1358.601
 30
3838.666
 70
    32
  0
VERTEX
  8
T14SSILL
 62
8
 10
2425.080
 20
-1362.561
 30
3838.666
 70
    32
  0
VERTEX
  8
T14SSILL
 62
8
 10
2427.594
 20
-1378.061
 30
3838.666
 70
    32
  0
VERTEX
  8
T14SSILL
 62
8
 10
2433.101
 20
-1393.130
 30
3838.666
 70
    32
  0
VERTEX
  8
T14SSILL
 62
8
 10
2441.288
 20
-1393.503
 30
3838.666
 70
    32
  0
VERTEX
  8
T14SSILL
 62
8
 10
2450.278
 20
-1389.476
 30
3838.666
 70
    32
  0
VERTEX
  8
T14SSILL
 62
8
 10
2448.925
 20
-1436.396
 30
3838.666
 70
    32
  0
VERTEX
  8
T14SSILL
 62
8
 10
2462.290
 20
-1436.130
 30
3838.666
 70
    32
  0
VERTEX
  8
T14SSILL
 62
8
 10
2461.270
 20
-1428.856
 30
3838.666
 70
    32
  0
VERTEX
  8
T14SSILL
 62
8
 10
2455.576
 20
-1417.661
 30
3838.666
 70
    32
  0
VERTEX
  8
T14SSILL
 62
8
 10
2457.598
 20
-1384.125
 30
3838.666
 70
    32
  0
VERTEX
  8
T14SSILL
 62
8
 10
2467.313
 20
-1372.264
 30
3838.666
 70
    32
  0
VERTEX
  8
T14SSILL
 62
8
 10
2470.583
 20
-1367.167
 30
3838.666
 70
    32
  0
VERTEX
  8
T14SSILL
 62
8
 10
2471.029
 20
-1365.055
 30
3838.666
 70
    32
  0
VERTEX
  8
T14SSILL
 62
8
 10
2473.677
 20
-1362.245
 30
3838.666
 70
    32
  0
VERTEX
  8
T14SSILL
 62
8
 10
2475.411
 20
-1338.215
 30
3838.666
 70
    32
  0
VERTEX
  8
T14SSILL
 62
8
 10
2475.077
 20
-1331.172
 30
3838.666
 70
    32
  0
VERTEX
  8
T14SSILL
 62
8
 10
2479.838
 20
-1328.102
 30
3838.666
 70
    32
  0
VERTEX
  8
T14SSILL
 62
8
 10
2468.513
 20
-1315.925
 30
3838.666
 70
    32
  0
VERTEX
  8
T14SSILL
 62
8
 10
2467.737
 20
-1309.672
 30
3838.666
 70
    32
  0
VERTEX
  8
T14SSILL
 62
8
 10
2468.185
 20
-1306.240
 30
3838.666
 70
    32
  0
VERTEX
  8
T14SSILL
 62
8
 10
2474.548
 20
-1296.748
 30
3838.666
 70
    32
  0
VERTEX
  8
T14SSILL
 62
8
 10
2482.528
 20
-1274.671
 30
3838.666
 70
    32
  0
VERTEX
  8
T14SSILL
 62
8
 10
2481.060
 20
-1263.575
 30
3838.666
 70
    32
  0
VERTEX
  8
T14SSILL
 62
8
 10
2481.421
 20
-1259.967
 30
3838.666
 70
    32
  0
VERTEX
  8
T14SSILL
 62
8
 10
2495.168
 20
-1220.210
 30
3838.666
 70
    32
  0
VERTEX
  8
T14SSILL
 62
8
 10
2497.372
 20
-1219.071
 30
3838.666
 70
    32
  0
VERTEX
  8
T14SSILL
 62
8
 10
2562.383
 20
-1306.744
 30
3838.666
 70
    32
  0
VERTEX
  8
T14SSILL
 62
8
 10
2568.407
 20
-1301.634
 30
3838.666
 70
    32
  0
VERTEX
  8
T14SSILL
 62
8
 10
2497.138
 20
-1207.185
 30
3838.666
 70
    32
  0
VERTEX
  8
T14SSILL
 62
8
 10
2497.173
 20
-1193.628
 30
3838.666
 70
    32
  0
VERTEX
  8
T14SSILL
 62
8
 10
2494.648
 20
-1182.529
 30
3838.666
 70
    32
  0
VERTEX
  8
T14SSILL
 62
8
 10
2492.458
 20
-1178.121
 30
3838.666
 70
    32
  0
VERTEX
  8
T14SSILL
 62
8
 10
2489.471
 20
-1175.825
 30
3838.666
 70
    32
  0
VERTEX
  8
T14SSILL
 62
8
 10
2486.656
 20
-1174.849
 30
3838.666
 70
    32
  0
VERTEX
  8
T14SSILL
 62
8
 10
2485.254
 20
-1172.381
 30
3838.666
 70
    32
  0
VERTEX
  8
T14SSILL
 62
8
 10
2484.737
 20
-1168.154
 30
3838.666
 70
    32
  0
VERTEX
  8
T14SSILL
 62
8
 10
2477.174
 20
-1164.701
 30
3838.666
 70
    32
  0
VERTEX
  8
T14SSILL
 62
8
 10
2474.015
 20
-1160.907
 30
3838.666
 70
    32
  0
VERTEX
  8
T14SSILL
 62
8
 10
2467.314
 20
-1165.028
 30
3838.666
 70
    32
  0
VERTEX
  8
T14SSILL
 62
8
 10
2468.277
 20
-1166.967
 30
3838.666
 70
    32
  0
VERTEX
  8
T14SSILL
 62
8
 10
2465.637
 20
-1166.432
 30
3838.666
 70
    32
  0
VERTEX
  8
T14SSILL
 62
8
 10
2376.234
 20
-1046.915
 30
3838.666
 70
    32
  0
VERTEX
  8
T14SSILL
 62
8
 10
2285.597
 20
-927.659
 30
3838.666
 70
    32
  0
VERTEX
  8
T14SSILL
 62
8
 10
2288.605
 20
-921.857
 30
3838.666
 70
    32
  0
VERTEX
  8
T14SSILL
 62
8
 10
2288.529
 20
-917.367
 30
3838.666
 70
    32
  0
VERTEX
  8
T14SSILL
 62
8
 10
2282.079
 20
-891.996
 30
3838.666
 70
    32
  0
VERTEX
  8
T14SSILL
 62
8
 10
2260.841
 20
-900.129
 30
3838.666
 70
    32
  0
VERTEX
  8
T14SSILL
 62
8
 10
2260.395
 20
-902.505
 30
3838.666
 70
    32
  0
VERTEX
  8
T14SSILL
 62
8
 10
2261.787
 20
-908.847
 30
3838.666
 70
    32
  0
VERTEX
  8
T14SSILL
 62
8
 10
2258.782
 20
-913.505
 30
3838.666
 70
    32
  0
VERTEX
  8
T14SSILL
 62
8
 10
2086.205
 20
-958.403
 30
3838.666
 70
    32
  0
VERTEX
  8
T14SSILL
 62
8
 10
1743.440
 20
-836.567
 30
3838.408
 70
    32
  0
VERTEX
  8
T14SSILL
 62
8
 10
1665.955
 20
-876.425
 30
3838.480
 70
    32
  0
VERTEX
  8
T14SSILL
 62
8
 10
1693.459
 20
-811.082
 30
3838.333
 70
    32
  0
VERTEX
  8
T14SSILL
 62
8
 10
1699.041
 20
-813.476
 30
3838.336
 70
    32
  0
VERTEX
  8
T14SSILL
 62
8
 10
1701.964
 20
-806.440
 30
3838.330
 70
    32
  0
VERTEX
  8
T14SSILL
 62
8
 10
1683.850
 20
-798.119
 30
3838.326
 70
    32
  0
VERTEX
  8
T14SSILL
 62
8
 10
1680.662
 20
-805.594
 30
3838.327
 70
    32
  0
VERTEX
  8
T14SSILL
 62
8
 10
1686.474
 20
-808.086
 30
3838.330
 70
    32
  0
VERTEX
  8
T14SSILL
 62
8
 10
1612.590
 20
-985.806
 30
3838.586
 70
    32
  0
VERTEX
  8
T14SSILL
 62
8
 10
1398.711
 20
-1189.493
 30
3838.683
 70
    32
  0
VERTEX
  8
T14SSILL
 62
8
 10
1336.446
 20
-1248.964
 30
3837.192
 70
    32
  0
VERTEX
  8
T14SSILL
 62
8
 10
1335.216
 20
-1248.450
 30
3837.185
 70
    32
  0
VERTEX
  8
T14SSILL
 62
8
 10
1316.179
 20
-1207.394
 30
3837.095
 70
    32
  0
VERTEX
  8
T14SSILL
 62
8
 10
1299.262
 20
-1186.804
 30
3837.021
 70
    32
  0
VERTEX
  8
T14SSILL
 62
8
 10
1297.778
 20
-1187.256
 30
3836.991
 70
    32
  0
VERTEX
  8
T14SSILL
 62
8
 10
1270.214
 20
-1170.182
 30
3836.700
 70
    32
  0
VERTEX
  8
T14SSILL
 62
8
 10
1241.558
 20
-1148.828
 30
3836.435
 70
    32
  0
VERTEX
  8
T14SSILL
 62
8
 10
1206.523
 20
-1128.760
 30
3836.048
 70
    32
  0
VERTEX
  8
T14SSILL
 62
8
 10
1203.254
 20
-1125.639
 30
3836.025
 70
    32
  0
VERTEX
  8
T14SSILL
 62
8
 10
1172.871
 20
-1106.753
 30
3835.801
 70
    32
  0
VERTEX
  8
T14SSILL
 62
8
 10
1170.461
 20
-1101.873
 30
3835.927
 70
    32
  0
VERTEX
  8
T14SSILL
 62
8
 10
1143.420
 20
-1084.618
 30
3836.088
 70
    32
  0
VERTEX
  8
T14SSILL
 62
8
 10
1127.172
 20
-1079.256
 30
3836.095
 70
    32
  0
VERTEX
  8
T14SSILL
 62
8
 10
1116.920
 20
-1078.303
 30
3836.194
 70
    32
  0
VERTEX
  8
T14SSILL
 62
8
 10
1067.376
 20
-1051.543
 30
3837.061
 70
    32
  0
VERTEX
  8
T14SSILL
 62
8
 10
1059.039
 20
-1049.521
 30
3837.164
 70
    32
  0
VERTEX
  8
T14SSILL
 62
8
 10
1037.171
 20
-1042.286
 30
3837.466
 70
    32
  0
VERTEX
  8
T14SSILL
 62
8
 10
1036.365
 20
-1040.367
 30
3837.506
 70
    32
  0
VERTEX
  8
T14SSILL
 62
8
 10
1070.015
 20
-1015.885
 30
3837.665
 70
    32
  0
SEQEND
  8
T14SSILL
  0
POLYLINE
  8
T14SSILL
 62
8
 66
     1
 70
     9
  0
VERTEX
  8
T14SSILL
 62
8
 10
1026.571
 20
-1689.733
 30
3839.020
 70
    32
  0
VERTEX
  8
T14SSILL
 62
8
 10
1049.399
 20
-1742.293
 30
3839.016
 70
    32
  0
VERTEX
  8
T14SSILL
 62
8
 10
1051.545
 20
-1749.887
 30
3839.016
 70
    32
  0
VERTEX
  8
T14SSILL
 62
8
 10
1054.792
 20
-1752.787
 30
3839.014
 70
    32
  0
VERTEX
  8
T14SSILL
 62
8
 10
1055.872
 20
-1756.804
 30
3839.015
 70
    32
  0
VERTEX
  8
T14SSILL
 62
8
 10
1055.264
 20
-1760.251
 30
3839.016
 70
    32
  0
VERTEX
  8
T14SSILL
 62
8
 10
1050.898
 20
-1764.595
 30
3839.019
 70
    32
  0
VERTEX
  8
T14SSILL
 62
8
 10
850.473
 20
-1908.801
 30
3839.170
 70
    32
  0
VERTEX
  8
T14SSILL
 62
8
 10
844.206
 20
-1914.341
 30
3839.175
 70
    32
  0
VERTEX
  8
T14SSILL
 62
8
 10
839.989
 20
-1914.546
 30
3839.177
 70
    32
  0
VERTEX
  8
T14SSILL
 62
8
 10
796.393
 20
-1852.511
 30
3839.193
 70
    32
  0
VERTEX
  8
T14SSILL
 62
8
 10
752.152
 20
-1802.104
 30
3839.211
 70
    32
  0
VERTEX
  8
T14SSILL
 62
8
 10
751.930
 20
-1800.439
 30
3839.211
 70
    32
  0
VERTEX
  8
T14SSILL
 62
8
 10
753.275
 20
-1798.202
 30
3839.209
 70
    32
  0
VERTEX
  8
T14SSILL
 62
8
 10
756.547
 20
-1795.648
 30
3839.207
 70
    32
  0
VERTEX
  8
T14SSILL
 62
8
 10
849.337
 20
-1728.678
 30
3839.137
 70
    32
  0
VERTEX
  8
T14SSILL
 62
8
 10
1005.830
 20
-1644.403
 30
3839.025
 70
    32
  0
SEQEND
  8
T14SSILL
  0
POLYLINE
  8
T14SSILL
 62
8
 66
     1
 70
     9
  0
VERTEX
  8
T14SSILL
 62
8
 10
780.532
 20
-2092.855
 30
3839.206
 70
    32
  0
VERTEX
  8
T14SSILL
 62
8
 10
773.739
 20
-2097.686
 30
3839.206
 70
    32
  0
VERTEX
  8
T14SSILL
 62
8
 10
768.937
 20
-2105.297
 30
3839.206
 70
    32
  0
VERTEX
  8
T14SSILL
 62
8
 10
768.304
 20
-2107.866
 30
3839.206
 70
    32
  0
VERTEX
  8
T14SSILL
 62
8
 10
771.474
 20
-2114.287
 30
3839.205
 70
    32
  0
VERTEX
  8
T14SSILL
 62
8
 10
773.286
 20
-2116.172
 30
3839.205
 70
    32
  0
VERTEX
  8
T14SSILL
 62
8
 10
776.753
 20
-2117.483
 30
3839.205
 70
    32
  0
VERTEX
  8
T14SSILL
 62
8
 10
780.938
 20
-2116.135
 30
3839.205
 70
    32
  0
VERTEX
  8
T14SSILL
 62
8
 10
786.727
 20
-2112.368
 30
3839.205
 70
    32
  0
VERTEX
  8
T14SSILL
 62
8
 10
789.268
 20
-2112.033
 30
3839.205
 70
    32
  0
VERTEX
  8
T14SSILL
 62
8
 10
790.777
 20
-2112.519
 30
3839.205
 70
    32
  0
VERTEX
  8
T14SSILL
 62
8
 10
796.354
 20
-2120.105
 30
3839.204
 70
    32
  0
VERTEX
  8
T14SSILL
 62
8
 10
799.284
 20
-2127.413
 30
3839.204
 70
    32
  0
VERTEX
  8
T14SSILL
 62
8
 10
800.493
 20
-2136.088
 30
3839.203
 70
    32
  0
VERTEX
  8
T14SSILL
 62
8
 10
807.630
 20
-2161.839
 30
3839.202
 70
    32
  0
VERTEX
  8
T14SSILL
 62
8
 10
808.168
 20
-2165.343
 30
3839.201
 70
    32
  0
VERTEX
  8
T14SSILL
 62
8
 10
805.372
 20
-2172.370
 30
3839.201
 70
    32
  0
VERTEX
  8
T14SSILL
 62
8
 10
805.628
 20
-2178.433
 30
3839.201
 70
    32
  0
VERTEX
  8
T14SSILL
 62
8
 10
808.182
 20
-2181.704
 30
3839.201
 70
    32
  0
VERTEX
  8
T14SSILL
 62
8
 10
813.456
 20
-2184.724
 30
3839.200
 70
    32
  0
VERTEX
  8
T14SSILL
 62
8
 10
816.010
 20
-2184.829
 30
3839.200
 70
    32
  0
VERTEX
  8
T14SSILL
 62
8
 10
820.374
 20
-2183.565
 30
3839.200
 70
    32
  0
VERTEX
  8
T14SSILL
 62
8
 10
827.220
 20
-2176.689
 30
3839.200
 70
    32
  0
VERTEX
  8
T14SSILL
 62
8
 10
943.627
 20
-2092.260
 30
3839.146
 70
    32
  0
VERTEX
  8
T14SSILL
 62
8
 10
945.107
 20
-2088.524
 30
3839.145
 70
    32
  0
VERTEX
  8
T14SSILL
 62
8
 10
936.209
 20
-2062.734
 30
3839.145
 70
    32
  0
VERTEX
  8
T14SSILL
 62
8
 10
935.169
 20
-2060.124
 30
3839.145
 70
    32
  0
VERTEX
  8
T14SSILL
 62
8
 10
902.343
 20
-2015.294
 30
3839.157
 70
    32
  0
VERTEX
  8
T14SSILL
 62
8
 10
901.210
 20
-2012.510
 30
3839.158
 70
    32
  0
VERTEX
  8
T14SSILL
 62
8
 10
896.339
 20
-2011.326
 30
3839.160
 70
    32
  0
VERTEX
  8
T14SSILL
 62
8
 10
894.591
 20
-2011.727
 30
3839.162
 70
    32
  0
VERTEX
  8
T14SSILL
 62
8
 10
786.218
 20
-2088.810
 30
3839.206
 70
    32
  0
SEQEND
  8
T14SSILL
  0
POLYLINE
  8
T14SSILL
 62
8
 66
     1
 70
     9
  0
VERTEX
  8
T14SSILL
 62
8
 10
901.827
 20
-1691.350
 30
3839.098
 70
    32
  0
VERTEX
  8
T14SSILL
 62
8
 10
1002.960
 20
-1637.076
 30
3839.025
 70
    32
  0
VERTEX
  8
T14SSILL
 62
8
 10
885.808
 20
-1374.497
 30
3839.049
 70
    32
  0
VERTEX
  8
T14SSILL
 62
8
 10
826.483
 20
-1241.529
 30
3837.553
 70
    32
  0
VERTEX
  8
T14SSILL
 62
8
 10
822.237
 20
-1236.929
 30
3837.600
 70
    32
  0
VERTEX
  8
T14SSILL
 62
8
 10
817.866
 20
-1219.110
 30
3837.686
 70
    32
  0
VERTEX
  8
T14SSILL
 62
8
 10
814.812
 20
-1210.909
 30
3837.734
 70
    32
  0
VERTEX
  8
T14SSILL
 62
8
 10
812.231
 20
-1206.468
 30
3837.767
 70
    32
  0
VERTEX
  8
T14SSILL
 62
8
 10
459.517
 20
-1468.514
 30
3839.249
 70
    32
  0
VERTEX
  8
T14SSILL
 62
8
 10
481.274
 20
-1491.772
 30
3839.247
 70
    32
  0
VERTEX
  8
T14SSILL
 62
8
 10
646.314
 20
-1677.745
 30
3839.232
 70
    32
  0
VERTEX
  8
T14SSILL
 62
8
 10
742.993
 20
-1792.243
 30
3839.215
 70
    32
  0
VERTEX
  8
T14SSILL
 62
8
 10
745.943
 20
-1793.920
 30
3839.213
 70
    32
  0
VERTEX
  8
T14SSILL
 62
8
 10
799.414
 20
-1755.488
 30
3839.173
 70
    32
  0
VERTEX
  8
T14SSILL
 62
8
 10
813.360
 20
-1744.544
 30
3839.162
 70
    32
  0
VERTEX
  8
T14SSILL
 62
8
 10
842.957
 20
-1723.841
 30
3839.140
 70
    32
  0
SEQEND
  8
T14SSILL
  0
POLYLINE
  8
T14SSILL
 62
8
 66
     1
 70
     9
  0
VERTEX
  8
T14SSILL
 62
8
 10
1595.021
 20
-2288.615
 30
3837.153
 70
    32
  0
VERTEX
  8
T14SSILL
 62
8
 10
1590.027
 20
-2286.121
 30
3837.187
 70
    32
  0
VERTEX
  8
T14SSILL
 62
8
 10
1597.951
 20
-2280.089
 30
3837.143
 70
    32
  0
VERTEX
  8
T14SSILL
 62
8
 10
1600.981
 20
-2284.667
 30
3837.120
 70
    32
  0
VERTEX
  8
T14SSILL
 62
8
 10
1610.535
 20
-2277.100
 30
3837.068
 70
    32
  0
VERTEX
  8
T14SSILL
 62
8
 10
1597.069
 20
-2259.449
 30
3837.169
 70
    32
  0
VERTEX
  8
T14SSILL
 62
8
 10
1662.838
 20
-2212.486
 30
3836.804
 70
    32
  0
VERTEX
  8
T14SSILL
 62
8
 10
1660.035
 20
-2206.582
 30
3836.827
 70
    32
  0
VERTEX
  8
T14SSILL
 62
8
 10
1593.029
 20
-2254.199
 30
3837.200
 70
    32
  0
VERTEX
  8
T14SSILL
 62
8
 10
1585.327
 20
-2243.670
 30
3837.258
 70
    32
  0
VERTEX
  8
T14SSILL
 62
8
 10
1558.392
 20
-2264.195
 30
3837.406
 70
    32
  0
VERTEX
  8
T14SSILL
 62
8
 10
1558.997
 20
-2258.476
 30
3837.408
 70
    32
  0
VERTEX
  8
T14SSILL
 62
8
 10
1566.776
 20
-2250.343
 30
3837.367
 70
    32
  0
VERTEX
  8
T14SSILL
 62
8
 10
1577.621
 20
-2241.773
 30
3837.308
 70
    32
  0
VERTEX
  8
T14SSILL
 62
8
 10
1578.151
 20
-2238.679
 30
3837.308
 70
    32
  0
VERTEX
  8
T14SSILL
 62
8
 10
1577.416
 20
-2234.389
 30
3837.317
 70
    32
  0
VERTEX
  8
T14SSILL
 62
8
 10
1568.235
 20
-2223.737
 30
3837.384
 70
    32
  0
VERTEX
  8
T14SSILL
 62
8
 10
1566.621
 20
-2219.471
 30
3837.399
 70
    32
  0
VERTEX
  8
T14SSILL
 62
8
 10
1564.277
 20
-2207.925
 30
3837.425
 70
    32
  0
VERTEX
  8
T14SSILL
 62
8
 10
1558.283
 20
-2194.808
 30
3837.475
 70
    32
  0
VERTEX
  8
T14SSILL
 62
8
 10
1555.748
 20
-2185.906
 30
3837.500
 70
    32
  0
VERTEX
  8
T14SSILL
 62
8
 10
1554.080
 20
-2176.540
 30
3837.519
 70
    32
  0
VERTEX
  8
T14SSILL
 62
8
 10
1555.731
 20
-2172.624
 30
3837.513
 70
    32
  0
VERTEX
  8
T14SSILL
 62
8
 10
1568.410
 20
-2166.730
 30
3837.439
 70
    32
  0
VERTEX
  8
T14SSILL
 62
8
 10
1573.208
 20
-2162.110
 30
3837.414
 70
    32
  0
VERTEX
  8
T14SSILL
 62
8
 10
1576.333
 20
-2157.449
 30
3837.399
 70
    32
  0
VERTEX
  8
T14SSILL
 62
8
 10
1605.288
 20
-2138.963
 30
3837.236
 70
    32
  0
VERTEX
  8
T14SSILL
 62
8
 10
1607.366
 20
-2137.761
 30
3837.224
 70
    32
  0
VERTEX
  8
T14SSILL
 62
8
 10
1612.391
 20
-2138.150
 30
3837.192
 70
    32
  0
VERTEX
  8
T14SSILL
 62
8
 10
1617.703
 20
-2136.243
 30
3837.161
 70
    32
  0
VERTEX
  8
T14SSILL
 62
8
 10
1620.465
 20
-2134.319
 30
3837.146
 70
    32
  0
VERTEX
  8
T14SSILL
 62
8
 10
1621.529
 20
-2131.474
 30
3837.142
 70
    32
  0
VERTEX
  8
T14SSILL
 62
8
 10
1620.526
 20
-2123.849
 30
3837.156
 70
    32
  0
VERTEX
  8
T14SSILL
 62
8
 10
1621.851
 20
-2120.909
 30
3837.150
 70
    32
  0
VERTEX
  8
T14SSILL
 62
8
 10
1635.202
 20
-2110.686
 30
3837.077
 70
    32
  0
VERTEX
  8
T14SSILL
 62
8
 10
1681.963
 20
-2077.718
 30
3836.817
 70
    32
  0
VERTEX
  8
T14SSILL
 62
8
 10
1685.001
 20
-2076.226
 30
3836.799
 70
    32
  0
VERTEX
  8
T14SSILL
 62
8
 10
1686.534
 20
-2077.591
 30
3836.788
 70
    32
  0
VERTEX
  8
T14SSILL
 62
8
 10
1690.021
 20
-2085.939
 30
3836.758
 70
    32
  0
VERTEX
  8
T14SSILL
 62
8
 10
1697.941
 20
-2082.904
 30
3836.712
 70
    32
  0
VERTEX
  8
T14SSILL
 62
8
 10
1693.790
 20
-2072.815
 30
3836.748
 70
    32
  0
VERTEX
  8
T14SSILL
 62
8
 10
1694.508
 20
-2070.156
 30
3836.746
 70
    32
  0
VERTEX
  8
T14SSILL
 62
8
 10
1696.728
 20
-2067.719
 30
3836.734
 70
    32
  0
VERTEX
  8
T14SSILL
 62
8
 10
1702.573
 20
-2065.974
 30
3836.699
 70
    32
  0
VERTEX
  8
T14SSILL
 62
8
 10
1711.773
 20
-2067.829
 30
3836.640
 70
    32
  0
VERTEX
  8
T14SSILL
 62
8
 10
1714.456
 20
-2069.426
 30
3836.622
 70
    32
  0
VERTEX
  8
T14SSILL
 62
8
 10
1791.637
 20
-2232.041
 30
3836.617
 70
    32
  0
VERTEX
  8
T14SSILL
 62
8
 10
1877.129
 20
-2415.185
 30
3836.692
 70
    32
  0
VERTEX
  8
T14SSILL
 62
8
 10
1875.530
 20
-2427.281
 30
3836.547
 70
    32
  0
VERTEX
  8
T14SSILL
 62
8
 10
1870.993
 20
-2434.972
 30
3836.383
 70
    32
  0
VERTEX
  8
T14SSILL
 62
8
 10
1837.446
 20
-2459.034
 30
3835.470
 70
    32
  0
VERTEX
  8
T14SSILL
 62
8
 10
1772.133
 20
-2505.103
 30
3835.833
 70
    32
  0
VERTEX
  8
T14SSILL
 62
8
 10
1776.521
 20
-2511.050
 30
3835.800
 70
    32
  0
VERTEX
  8
T14SSILL
 62
8
 10
1787.411
 20
-2504.062
 30
3835.738
 70
    32
  0
VERTEX
  8
T14SSILL
 62
8
 10
1841.294
 20
-2584.901
 30
3835.322
 70
    32
  0
VERTEX
  8
T14SSILL
 62
8
 10
1846.790
 20
-2580.086
 30
3835.292
 70
    32
  0
VERTEX
  8
T14SSILL
 62
8
 10
1795.976
 20
-2505.231
 30
3835.684
 70
    32
  0
VERTEX
  8
T14SSILL
 62
8
 10
1797.839
 20
-2496.295
 30
3835.681
 70
    32
  0
VERTEX
  8
T14SSILL
 62
8
 10
1839.890
 20
-2467.012
 30
3835.447
 70
    32
  0
VERTEX
  8
T14SSILL
 62
8
 10
1869.809
 20
-2446.177
 30
3836.255
 70
    32
  0
VERTEX
  8
T14SSILL
 62
8
 10
1874.517
 20
-2441.472
 30
3836.396
 70
    32
  0
VERTEX
  8
T14SSILL
 62
8
 10
1878.987
 20
-2434.574
 30
3836.551
 70
    32
  0
VERTEX
  8
T14SSILL
 62
8
 10
1883.130
 20
-2425.399
 30
3836.721
 70
    32
  0
VERTEX
  8
T14SSILL
 62
8
 10
1955.671
 20
-2579.346
 30
3836.799
 70
    32
  0
VERTEX
  8
T14SSILL
 62
8
 10
1959.618
 20
-2588.761
 30
3836.793
 70
    32
  0
VERTEX
  8
T14SSILL
 62
8
 10
1960.428
 20
-2600.873
 30
3836.698
 70
    32
  0
VERTEX
  8
T14SSILL
 62
8
 10
1955.126
 20
-2614.710
 30
3836.462
 70
    32
  0
VERTEX
  8
T14SSILL
 62
8
 10
1953.404
 20
-2616.244
 30
3836.412
 70
    32
  0
VERTEX
  8
T14SSILL
 62
8
 10
1955.055
 20
-2622.974
 30
3836.384
 70
    32
  0
VERTEX
  8
T14SSILL
 62
8
 10
1953.732
 20
-2630.301
 30
3836.289
 70
    32
  0
VERTEX
  8
T14SSILL
 62
8
 10
1950.341
 20
-2635.655
 30
3836.170
 70
    32
  0
VERTEX
  8
T14SSILL
 62
8
 10
1945.955
 20
-2639.801
 30
3836.041
 70
    32
  0
VERTEX
  8
T14SSILL
 62
8
 10
1941.710
 20
-2642.449
 30
3835.929
 70
    32
  0
VERTEX
  8
T14SSILL
 62
8
 10
1929.618
 20
-2655.390
 30
3835.561
 70
    32
  0
VERTEX
  8
T14SSILL
 62
8
 10
1922.212
 20
-2658.201
 30
3835.382
 70
    32
  0
VERTEX
  8
T14SSILL
 62
8
 10
1898.385
 20
-2676.778
 30
3834.875
 70
    32
  0
VERTEX
  8
T14SSILL
 62
8
 10
1852.832
 20
-2709.841
 30
3835.249
 70
    32
  0
VERTEX
  8
T14SSILL
 62
8
 10
1849.408
 20
-2710.009
 30
3835.261
 70
    32
  0
VERTEX
  8
T14SSILL
 62
8
 10
1845.820
 20
-2706.928
 30
3835.238
 70
    32
  0
VERTEX
  8
T14SSILL
 62
8
 10
1840.553
 20
-2699.755
 30
3835.214
 70
    32
  0
VERTEX
  8
T14SSILL
 62
8
 10
1839.726
 20
-2696.597
 30
3835.222
 70
    32
  0
VERTEX
  8
T14SSILL
 62
8
 10
1840.291
 20
-2696.069
 30
3835.219
 70
    32
  0
VERTEX
  8
T14SSILL
 62
8
 10
1831.096
 20
-2686.263
 30
3835.286
 70
    32
  0
VERTEX
  8
T14SSILL
 62
8
 10
1823.198
 20
-2694.359
 30
3835.328
 70
    32
  0
VERTEX
  8
T14SSILL
 62
8
 10
1831.689
 20
-2704.094
 30
3835.265
 70
    32
  0
VERTEX
  8
T14SSILL
 62
8
 10
1834.083
 20
-2701.860
 30
3835.252
 70
    32
  0
VERTEX
  8
T14SSILL
 62
8
 10
1839.985
 20
-2713.042
 30
3835.319
 70
    32
  0
VERTEX
  8
T14SSILL
 62
8
 10
1843.069
 20
-2717.101
 30
3835.354
 70
    32
  0
VERTEX
  8
T14SSILL
 62
8
 10
1698.427
 20
-2824.474
 30
3836.894
 70
    32
  0
VERTEX
  8
T14SSILL
 62
8
 10
1694.082
 20
-2826.598
 30
3836.929
 70
    32
  0
VERTEX
  8
T14SSILL
 62
8
 10
1691.084
 20
-2826.228
 30
3836.933
 70
    32
  0
VERTEX
  8
T14SSILL
 62
8
 10
1611.165
 20
-2772.342
 30
3836.577
 70
    32
  0
VERTEX
  8
T14SSILL
 62
8
 10
1511.300
 20
-2705.080
 30
3837.268
 70
    32
  0
VERTEX
  8
T14SSILL
 62
8
 10
1510.099
 20
-2702.559
 30
3837.278
 70
    32
  0
VERTEX
  8
T14SSILL
 62
8
 10
1510.846
 20
-2700.696
 30
3837.275
 70
    32
  0
VERTEX
  8
T14SSILL
 62
8
 10
1734.844
 20
-2539.780
 30
3836.032
 70
    32
  0
VERTEX
  8
T14SSILL
 62
8
 10
1727.973
 20
-2531.677
 30
3836.083
 70
    32
  0
VERTEX
  8
T14SSILL
 62
8
 10
1673.652
 20
-2569.856
 30
3836.385
 70
    32
  0
VERTEX
  8
T14SSILL
 62
8
 10
1630.568
 20
-2602.194
 30
3836.623
 70
    32
  0
VERTEX
  8
T14SSILL
 62
8
 10
1626.978
 20
-2602.821
 30
3836.645
 70
    32
  0
VERTEX
  8
T14SSILL
 62
8
 10
1617.939
 20
-2590.933
 30
3836.713
 70
    32
  0
VERTEX
  8
T14SSILL
 62
8
 10
1628.875
 20
-2582.449
 30
3836.653
 70
    32
  0
VERTEX
  8
T14SSILL
 62
8
 10
1638.974
 20
-2581.816
 30
3836.590
 70
    32
  0
VERTEX
  8
T14SSILL
 62
8
 10
1643.830
 20
-2579.306
 30
3836.562
 70
    32
  0
VERTEX
  8
T14SSILL
 62
8
 10
1647.234
 20
-2571.998
 30
3836.548
 70
    32
  0
VERTEX
  8
T14SSILL
 62
8
 10
1656.580
 20
-2544.293
 30
3836.517
 70
    32
  0
VERTEX
  8
T14SSILL
 62
8
 10
1660.996
 20
-2535.461
 30
3836.498
 70
    32
  0
VERTEX
  8
T14SSILL
 62
8
 10
1661.660
 20
-2527.702
 30
3836.502
 70
    32
  0
VERTEX
  8
T14SSILL
 62
8
 10
1665.852
 20
-2513.951
 30
3836.489
 70
    32
  0
VERTEX
  8
T14SSILL
 62
8
 10
1664.170
 20
-2510.391
 30
3836.503
 70
    32
  0
VERTEX
  8
T14SSILL
 62
8
 10
1650.265
 20
-2500.661
 30
3836.599
 70
    32
  0
VERTEX
  8
T14SSILL
 62
8
 10
1647.977
 20
-2497.470
 30
3836.617
 70
    32
  0
VERTEX
  8
T14SSILL
 62
8
 10
1644.827
 20
-2488.585
 30
3836.645
 70
    32
  0
VERTEX
  8
T14SSILL
 62
8
 10
1626.690
 20
-2462.699
 30
3836.784
 70
    32
  0
VERTEX
  8
T14SSILL
 62
8
 10
1622.925
 20
-2447.498
 30
3836.823
 70
    32
  0
VERTEX
  8
T14SSILL
 62
8
 10
1621.252
 20
-2444.290
 30
3836.836
 70
    32
  0
VERTEX
  8
T14SSILL
 62
8
 10
1617.831
 20
-2441.482
 30
3836.860
 70
    32
  0
VERTEX
  8
T14SSILL
 62
8
 10
1616.264
 20
-2435.720
 30
3836.876
 70
    32
  0
VERTEX
  8
T14SSILL
 62
8
 10
1615.814
 20
-2429.047
 30
3836.885
 70
    32
  0
VERTEX
  8
T14SSILL
 62
8
 10
1612.618
 20
-2421.658
 30
3836.912
 70
    32
  0
VERTEX
  8
T14SSILL
 62
8
 10
1607.576
 20
-2414.321
 30
3836.951
 70
    32
  0
VERTEX
  8
T14SSILL
 62
8
 10
1598.588
 20
-2407.446
 30
3837.014
 70
    32
  0
VERTEX
  8
T14SSILL
 62
8
 10
1600.978
 20
-2396.295
 30
3837.010
 70
    32
  0
VERTEX
  8
T14SSILL
 62
8
 10
1605.918
 20
-2392.640
 30
3836.983
 70
    32
  0
VERTEX
  8
T14SSILL
 62
8
 10
1602.460
 20
-2388.514
 30
3837.009
 70
    32
  0
VERTEX
  8
T14SSILL
 62
8
 10
1612.305
 20
-2381.906
 30
3836.953
 70
    32
  0
VERTEX
  8
T14SSILL
 62
8
 10
1608.539
 20
-2376.855
 30
3836.982
 70
    32
  0
VERTEX
  8
T14SSILL
 62
8
 10
1623.829
 20
-2366.104
 30
3836.897
 70
    32
  0
VERTEX
  8
T14SSILL
 62
8
 10
1619.617
 20
-2360.151
 30
3836.929
 70
    32
  0
VERTEX
  8
T14SSILL
 62
8
 10
1609.260
 20
-2367.301
 30
3836.987
 70
    32
  0
VERTEX
  8
T14SSILL
 62
8
 10
1600.184
 20
-2354.094
 30
3837.057
 70
    32
  0
VERTEX
  8
T14SSILL
 62
8
 10
1598.927
 20
-2349.995
 30
3837.068
 70
    32
  0
VERTEX
  8
T14SSILL
 62
8
 10
1600.362
 20
-2341.510
 30
3837.068
 70
    32
  0
VERTEX
  8
T14SSILL
 62
8
 10
1599.896
 20
-2337.389
 30
3837.075
 70
    32
  0
VERTEX
  8
T14SSILL
 62
8
 10
1597.994
 20
-2335.418
 30
3837.089
 70
    32
  0
VERTEX
  8
T14SSILL
 62
8
 10
1598.172
 20
-2332.334
 30
3837.091
 70
    32
  0
VERTEX
  8
T14SSILL
 62
8
 10
1601.021
 20
-2327.241
 30
3837.078
 70
    32
  0
VERTEX
  8
T14SSILL
 62
8
 10
1600.630
 20
-2319.511
 30
3837.088
 70
    32
  0
VERTEX
  8
T14SSILL
 62
8
 10
1605.999
 20
-2310.125
 30
3837.063
 70
    32
  0
VERTEX
  8
T14SSILL
 62
8
 10
1602.661
 20
-2300.806
 30
3837.093
 70
    32
  0
VERTEX
  8
T14SSILL
 62
8
 10
1599.612
 20
-2295.525
 30
3837.118
 70
    32
  0
VERTEX
  8
T14SSILL
 62
8
 10
1598.462
 20
-2295.293
 30
3837.125
 70
    32
  0
VERTEX
  8
T14SSILL
 62
8
 10
1596.638
 20
-2292.968
 30
3837.139
 70
    32
  0
VERTEX
  8
T14SSILL
 62
8
 10
1596.027
 20
-2289.994
 30
3837.146
 70
    32
  0
SEQEND
  8
T14SSILL
  0
POLYLINE
  8
T14SSILL
 62
8
 66
     1
 70
     9
  0
VERTEX
  8
T14SSILL
 62
8
 10
1522.841
 20
-2295.201
 30
3837.598
 70
    32
  0
VERTEX
  8
T14SSILL
 62
8
 10
1519.443
 20
-2291.243
 30
3837.623
 70
    32
  0
VERTEX
  8
T14SSILL
 62
8
 10
1502.552
 20
-2265.851
 30
3837.754
 70
    32
  0
VERTEX
  8
T14SSILL
 62
8
 10
1494.853
 20
-2251.551
 30
3837.816
 70
    32
  0
VERTEX
  8
T14SSILL
 62
8
 10
1494.120
 20
-2244.182
 30
3837.828
 70
    32
  0
VERTEX
  8
T14SSILL
 62
8
 10
1490.421
 20
-2237.687
 30
3837.857
 70
    32
  0
VERTEX
  8
T14SSILL
 62
8
 10
1483.819
 20
-2234.352
 30
3837.902
 70
    32
  0
VERTEX
  8
T14SSILL
 62
8
 10
1480.410
 20
-2228.817
 30
3837.929
 70
    32
  0
VERTEX
  8
T14SSILL
 62
8
 10
1474.756
 20
-2227.918
 30
3837.965
 70
    32
  0
VERTEX
  8
T14SSILL
 62
8
 10
1470.641
 20
-2229.254
 30
3837.989
 70
    32
  0
VERTEX
  8
T14SSILL
 62
8
 10
1425.628
 20
-2261.216
 30
3838.239
 70
    32
  0
VERTEX
  8
T14SSILL
 62
8
 10
1416.600
 20
-2271.847
 30
3838.285
 70
    32
  0
VERTEX
  8
T14SSILL
 62
8
 10
1415.581
 20
-2276.361
 30
3838.287
 70
    32
  0
VERTEX
  8
T14SSILL
 62
8
 10
1459.322
 20
-2330.916
 30
3837.960
 70
    32
  0
VERTEX
  8
T14SSILL
 62
8
 10
1465.279
 20
-2336.380
 30
3837.918
 70
    32
  0
VERTEX
  8
T14SSILL
 62
8
 10
1474.147
 20
-2335.782
 30
3837.863
 70
    32
  0
VERTEX
  8
T14SSILL
 62
8
 10
1476.587
 20
-2334.485
 30
3837.849
 70
    32
  0
VERTEX
  8
T14SSILL
 62
8
 10
1475.219
 20
-2330.034
 30
3837.862
 70
    32
  0
VERTEX
  8
T14SSILL
 62
8
 10
1480.470
 20
-2328.347
 30
3837.831
 70
    32
  0
VERTEX
  8
T14SSILL
 62
8
 10
1476.684
 20
-2316.271
 30
3837.866
 70
    32
  0
VERTEX
  8
T14SSILL
 62
8
 10
1487.483
 20
-2312.364
 30
3837.802
 70
    32
  0
VERTEX
  8
T14SSILL
 62
8
 10
1490.201
 20
-2318.358
 30
3837.780
 70
    32
  0
VERTEX
  8
T14SSILL
 62
8
 10
1484.177
 20
-2320.021
 30
3837.816
 70
    32
  0
VERTEX
  8
T14SSILL
 62
8
 10
1487.145
 20
-2328.832
 30
3837.788
 70
    32
  0
VERTEX
  8
T14SSILL
 62
8
 10
1500.289
 20
-2320.541
 30
3837.714
 70
    32
  0
VERTEX
  8
T14SSILL
 62
8
 10
1499.879
 20
-2315.274
 30
3837.722
 70
    32
  0
VERTEX
  8
T14SSILL
 62
8
 10
1487.910
 20
-2300.081
 30
3837.812
 70
    32
  0
VERTEX
  8
T14SSILL
 62
8
 10
1493.294
 20
-2296.721
 30
3837.781
 70
    32
  0
VERTEX
  8
T14SSILL
 62
8
 10
1500.258
 20
-2305.174
 30
3837.730
 70
    32
  0
VERTEX
  8
T14SSILL
 62
8
 10
1511.589
 20
-2296.652
 30
3837.667
 70
    32
  0
VERTEX
  8
T14SSILL
 62
8
 10
1514.712
 20
-2301.403
 30
3837.643
 70
    32
  0
SEQEND
  8
T14SSILL
  0
POLYLINE
  8
T14SSILL
 62
8
 66
     1
 70
     9
  0
VERTEX
  8
T14SSILL
 62
8
 10
1214.253
 20
-2305.501
 30
3839.018
 70
    32
  0
VERTEX
  8
T14SSILL
 62
8
 10
1216.632
 20
-2303.758
 30
3839.016
 70
    32
  0
VERTEX
  8
T14SSILL
 62
8
 10
1212.777
 20
-2298.239
 30
3839.018
 70
    32
  0
VERTEX
  8
T14SSILL
 62
8
 10
1228.849
 20
-2287.190
 30
3839.006
 70
    32
  0
VERTEX
  8
T14SSILL
 62
8
 10
1232.772
 20
-2292.995
 30
3839.004
 70
    32
  0
VERTEX
  8
T14SSILL
 62
8
 10
1236.652
 20
-2290.036
 30
3839.002
 70
    32
  0
VERTEX
  8
T14SSILL
 62
8
 10
1235.461
 20
-2293.420
 30
3839.003
 70
    32
  0
VERTEX
  8
T14SSILL
 62
8
 10
1232.829
 20
-2296.836
 30
3839.005
 70
    32
  0
VERTEX
  8
T14SSILL
 62
8
 10
1221.996
 20
-2302.679
 30
3839.013
 70
    32
  0
SEQEND
  8
T14SSILL
  0
POLYLINE
  8
T14SSILL
 62
8
 66
     1
 70
     9
  0
VERTEX
  8
T14SSILL
 62
8
 10
1546.864
 20
-2609.975
 30
3837.139
 70
    32
  0
VERTEX
  8
T14SSILL
 62
8
 10
1537.000
 20
-2593.711
 30
3837.216
 70
    32
  0
VERTEX
  8
T14SSILL
 62
8
 10
1534.949
 20
-2583.212
 30
3837.239
 70
    32
  0
VERTEX
  8
T14SSILL
 62
8
 10
1536.940
 20
-2550.433
 30
3837.259
 70
    32
  0
VERTEX
  8
T14SSILL
 62
8
 10
1540.287
 20
-2522.103
 30
3837.266
 70
    32
  0
VERTEX
  8
T14SSILL
 62
8
 10
1457.066
 20
-2341.535
 30
3837.964
 70
    32
  0
VERTEX
  8
T14SSILL
 62
8
 10
1453.088
 20
-2334.520
 30
3837.996
 70
    32
  0
VERTEX
  8
T14SSILL
 62
8
 10
1432.944
 20
-2309.218
 30
3838.147
 70
    32
  0
VERTEX
  8
T14SSILL
 62
8
 10
1411.926
 20
-2280.949
 30
3838.306
 70
    32
  0
VERTEX
  8
T14SSILL
 62
8
 10
1409.075
 20
-2279.621
 30
3838.325
 70
    32
  0
VERTEX
  8
T14SSILL
 62
8
 10
1378.042
 20
-2302.475
 30
3838.497
 70
    32
  0
VERTEX
  8
T14SSILL
 62
8
 10
1369.223
 20
-2307.998
 30
3838.546
 70
    32
  0
VERTEX
  8
T14SSILL
 62
8
 10
1366.430
 20
-2311.947
 30
3838.560
 70
    32
  0
VERTEX
  8
T14SSILL
 62
8
 10
1366.408
 20
-2314.322
 30
3838.558
 70
    32
  0
VERTEX
  8
T14SSILL
 62
8
 10
1388.867
 20
-2388.117
 30
3838.345
 70
    32
  0
VERTEX
  8
T14SSILL
 62
8
 10
1404.470
 20
-2443.102
 30
3838.193
 70
    32
  0
VERTEX
  8
T14SSILL
 62
8
 10
1387.426
 20
-2488.175
 30
3838.255
 70
    32
  0
VERTEX
  8
T14SSILL
 62
8
 10
1386.633
 20
-2491.276
 30
3838.257
 70
    32
  0
VERTEX
  8
T14SSILL
 62
8
 10
1387.229
 20
-2500.056
 30
3838.245
 70
    32
  0
VERTEX
  8
T14SSILL
 62
8
 10
1395.331
 20
-2519.359
 30
3838.175
 70
    32
  0
VERTEX
  8
T14SSILL
 62
8
 10
1397.218
 20
-2527.136
 30
3838.156
 70
    32
  0
VERTEX
  8
T14SSILL
 62
8
 10
1400.966
 20
-2535.388
 30
3838.124
 70
    32
  0
VERTEX
  8
T14SSILL
 62
8
 10
1413.663
 20
-2552.277
 30
3838.028
 70
    32
  0
VERTEX
  8
T14SSILL
 62
8
 10
1433.000
 20
-2608.283
 30
3837.852
 70
    32
  0
VERTEX
  8
T14SSILL
 62
8
 10
1435.360
 20
-2626.511
 30
3837.820
 70
    32
  0
VERTEX
  8
T14SSILL
 62
8
 10
1434.533
 20
-2632.508
 30
3837.819
 70
    32
  0
VERTEX
  8
T14SSILL
 62
8
 10
1435.976
 20
-2637.837
 30
3837.805
 70
    32
  0
VERTEX
  8
T14SSILL
 62
8
 10
1441.427
 20
-2649.137
 30
3837.760
 70
    32
  0
VERTEX
  8
T14SSILL
 62
8
 10
1444.560
 20
-2659.085
 30
3837.730
 70
    32
  0
VERTEX
  8
T14SSILL
 62
8
 10
1499.177
 20
-2697.892
 30
3837.350
 70
    32
  0
VERTEX
  8
T14SSILL
 62
8
 10
1503.127
 20
-2697.624
 30
3837.326
 70
    32
  0
VERTEX
  8
T14SSILL
 62
8
 10
1569.957
 20
-2649.736
 30
3836.955
 70
    32
  0
VERTEX
  8
T14SSILL
 62
8
 10
1569.878
 20
-2642.617
 30
3836.963
 70
    32
  0
VERTEX
  8
T14SSILL
 62
8
 10
1567.176
 20
-2636.087
 30
3836.986
 70
    32
  0
VERTEX
  8
T14SSILL
 62
8
 10
1559.789
 20
-2624.657
 30
3837.043
 70
    32
  0
SEQEND
  8
T14SSILL
  0
POLYLINE
  8
T14SSILL
 62
8
 66
     1
 70
     9
  0
VERTEX
  8
T14SSILL
 62
8
 10
1168.769
 20
-2306.462
 30
3839.047
 70
    32
  0
VERTEX
  8
T14SSILL
 62
8
 10
1151.710
 20
-2319.192
 30
3839.059
 70
    32
  0
VERTEX
  8
T14SSILL
 62
8
 10
1131.957
 20
-2332.539
 30
3839.074
 70
    32
  0
VERTEX
  8
T14SSILL
 62
8
 10
1128.990
 20
-2330.246
 30
3839.076
 70
    32
  0
VERTEX
  8
T14SSILL
 62
8
 10
1126.802
 20
-2317.992
 30
3839.075
 70
    32
  0
VERTEX
  8
T14SSILL
 62
8
 10
1127.896
 20
-2316.202
 30
3839.074
 70
    32
  0
VERTEX
  8
T14SSILL
 62
8
 10
1136.310
 20
-2308.755
 30
3839.067
 70
    32
  0
VERTEX
  8
T14SSILL
 62
8
 10
1135.230
 20
-2304.738
 30
3839.067
 70
    32
  0
VERTEX
  8
T14SSILL
 62
8
 10
1123.430
 20
-2285.274
 30
3839.071
 70
    32
  0
VERTEX
  8
T14SSILL
 62
8
 10
1124.931
 20
-2282.330
 30
3839.069
 70
    32
  0
VERTEX
  8
T14SSILL
 62
8
 10
1136.182
 20
-2275.683
 30
3839.061
 70
    32
  0
VERTEX
  8
T14SSILL
 62
8
 10
1139.759
 20
-2274.616
 30
3839.059
 70
    32
  0
VERTEX
  8
T14SSILL
 62
8
 10
1143.543
 20
-2274.687
 30
3839.056
 70
    32
  0
VERTEX
  8
T14SSILL
 62
8
 10
1146.173
 20
-2277.517
 30
3839.055
 70
    32
  0
VERTEX
  8
T14SSILL
 62
8
 10
1154.441
 20
-2290.130
 30
3839.052
 70
    32
  0
VERTEX
  8
T14SSILL
 62
8
 10
1157.678
 20
-2292.679
 30
3839.051
 70
    32
  0
VERTEX
  8
T14SSILL
 62
8
 10
1160.574
 20
-2292.422
 30
3839.049
 70
    32
  0
VERTEX
  8
T14SSILL
 62
8
 10
1164.564
 20
-2293.543
 30
3839.047
 70
    32
  0
VERTEX
  8
T14SSILL
 62
8
 10
1166.033
 20
-2294.766
 30
3839.046
 70
    32
  0
VERTEX
  8
T14SSILL
 62
8
 10
1162.311
 20
-2297.248
 30
3839.049
 70
    32
  0
SEQEND
  8
T14SSILL
  0
POLYLINE
  8
T14SSILL
 62
8
 66
     1
 70
     9
  0
VERTEX
  8
T14SSILL
 62
8
 10
818.389
 20
-2191.273
 30
3839.200
 70
    32
  0
VERTEX
  8
T14SSILL
 62
8
 10
813.916
 20
-2194.916
 30
3839.200
 70
    32
  0
VERTEX
  8
T14SSILL
 62
8
 10
815.237
 20
-2198.134
 30
3839.200
 70
    32
  0
VERTEX
  8
T14SSILL
 62
8
 10
823.531
 20
-2208.547
 30
3839.199
 70
    32
  0
VERTEX
  8
T14SSILL
 62
8
 10
834.169
 20
-2214.673
 30
3839.198
 70
    32
  0
VERTEX
  8
T14SSILL
 62
8
 10
844.402
 20
-2222.042
 30
3839.197
 70
    32
  0
VERTEX
  8
T14SSILL
 62
8
 10
862.327
 20
-2246.614
 30
3839.195
 70
    32
  0
VERTEX
  8
T14SSILL
 62
8
 10
863.113
 20
-2249.583
 30
3839.195
 70
    32
  0
VERTEX
  8
T14SSILL
 62
8
 10
862.561
 20
-2258.219
 30
3839.195
 70
    32
  0
VERTEX
  8
T14SSILL
 62
8
 10
864.913
 20
-2263.695
 30
3839.194
 70
    32
  0
VERTEX
  8
T14SSILL
 62
8
 10
867.550
 20
-2266.789
 30
3839.194
 70
    32
  0
VERTEX
  8
T14SSILL
 62
8
 10
873.063
 20
-2268.923
 30
3839.194
 70
    32
  0
VERTEX
  8
T14SSILL
 62
8
 10
884.695
 20
-2260.155
 30
3839.194
 70
    32
  0
VERTEX
  8
T14SSILL
 62
8
 10
888.274
 20
-2265.509
 30
3839.194
 70
    32
  0
VERTEX
  8
T14SSILL
 62
8
 10
866.788
 20
-2280.533
 30
3839.193
 70
    32
  0
VERTEX
  8
T14SSILL
 62
8
 10
865.987
 20
-2283.370
 30
3839.193
 70
    32
  0
VERTEX
  8
T14SSILL
 62
8
 10
868.766
 20
-2294.728
 30
3839.193
 70
    32
  0
VERTEX
  8
T14SSILL
 62
8
 10
872.160
 20
-2302.903
 30
3839.192
 70
    32
  0
VERTEX
  8
T14SSILL
 62
8
 10
873.535
 20
-2311.221
 30
3839.192
 70
    32
  0
VERTEX
  8
T14SSILL
 62
8
 10
880.621
 20
-2322.460
 30
3839.191
 70
    32
  0
VERTEX
  8
T14SSILL
 62
8
 10
887.462
 20
-2331.242
 30
3839.190
 70
    32
  0
VERTEX
  8
T14SSILL
 62
8
 10
919.324
 20
-2360.353
 30
3839.188
 70
    32
  0
VERTEX
  8
T14SSILL
 62
8
 10
930.701
 20
-2351.944
 30
3839.188
 70
    32
  0
VERTEX
  8
T14SSILL
 62
8
 10
923.687
 20
-2343.254
 30
3839.188
 70
    32
  0
VERTEX
  8
T14SSILL
 62
8
 10
918.334
 20
-2343.755
 30
3839.188
 70
    32
  0
VERTEX
  8
T14SSILL
 62
8
 10
906.773
 20
-2332.905
 30
3839.189
 70
    32
  0
VERTEX
  8
T14SSILL
 62
8
 10
900.569
 20
-2331.230
 30
3839.190
 70
    32
  0
VERTEX
  8
T14SSILL
 62
8
 10
896.196
 20
-2325.809
 30
3839.190
 70
    32
  0
VERTEX
  8
T14SSILL
 62
8
 10
901.409
 20
-2320.299
 30
3839.190
 70
    32
  0
VERTEX
  8
T14SSILL
 62
8
 10
935.873
 20
-2348.106
 30
3839.188
 70
    32
  0
VERTEX
  8
T14SSILL
 62
8
 10
1006.928
 20
-2296.693
 30
3839.145
 70
    32
  0
VERTEX
  8
T14SSILL
 62
8
 10
1006.991
 20
-2292.645
 30
3839.144
 70
    32
  0
VERTEX
  8
T14SSILL
 62
8
 10
948.633
 20
-2101.445
 30
3839.145
 70
    32
  0
VERTEX
  8
T14SSILL
 62
8
 10
946.208
 20
-2099.666
 30
3839.146
 70
    32
  0
VERTEX
  8
T14SSILL
 62
8
 10
941.288
 20
-2103.057
 30
3839.150
 70
    32
  0
SEQEND
  8
T14SSILL
  0
POLYLINE
  8
T14SSILL
 62
8
 66
     1
 70
     9
  0
VERTEX
  8
T14SSILL
 62
8
 10
1070.556
 20
-2259.738
 30
3839.099
 70
    32
  0
VERTEX
  8
T14SSILL
 62
8
 10
1018.462
 20
-2297.077
 30
3839.138
 70
    32
  0
VERTEX
  8
T14SSILL
 62
8
 10
1017.163
 20
-2304.150
 30
3839.140
 70
    32
  0
VERTEX
  8
T14SSILL
 62
8
 10
1019.331
 20
-2309.368
 30
3839.140
 70
    32
  0
VERTEX
  8
T14SSILL
 62
8
 10
1043.542
 20
-2389.184
 30
3839.139
 70
    32
  0
VERTEX
  8
T14SSILL
 62
8
 10
1046.096
 20
-2392.455
 30
3839.138
 70
    32
  0
VERTEX
  8
T14SSILL
 62
8
 10
1048.735
 20
-2392.470
 30
3839.137
 70
    32
  0
VERTEX
  8
T14SSILL
 62
8
 10
1052.681
 20
-2388.842
 30
3839.134
 70
    32
  0
VERTEX
  8
T14SSILL
 62
8
 10
1115.149
 20
-2344.969
 30
3839.087
 70
    32
  0
VERTEX
  8
T14SSILL
 62
8
 10
1117.090
 20
-2342.013
 30
3839.085
 70
    32
  0
VERTEX
  8
T14SSILL
 62
8
 10
1112.978
 20
-2330.164
 30
3839.085
 70
    32
  0
VERTEX
  8
T14SSILL
 62
8
 10
1111.459
 20
-2329.326
 30
3839.086
 70
    32
  0
VERTEX
  8
T14SSILL
 62
8
 10
1106.378
 20
-2330.083
 30
3839.090
 70
    32
  0
VERTEX
  8
T14SSILL
 62
8
 10
1104.693
 20
-2329.602
 30
3839.091
 70
    32
  0
VERTEX
  8
T14SSILL
 62
8
 10
1099.815
 20
-2321.821
 30
3839.092
 70
    32
  0
VERTEX
  8
T14SSILL
 62
8
 10
1091.200
 20
-2303.060
 30
3839.094
 70
    32
  0
VERTEX
  8
T14SSILL
 62
8
 10
1084.596
 20
-2296.470
 30
3839.097
 70
    32
  0
VERTEX
  8
T14SSILL
 62
8
 10
1074.001
 20
-2282.426
 30
3839.101
 70
    32
  0
VERTEX
  8
T14SSILL
 62
8
 10
1072.878
 20
-2279.994
 30
3839.101
 70
    32
  0
VERTEX
  8
T14SSILL
 62
8
 10
1077.678
 20
-2275.462
 30
3839.097
 70
    32
  0
VERTEX
  8
T14SSILL
 62
8
 10
1078.220
 20
-2272.808
 30
3839.096
 70
    32
  0
VERTEX
  8
T14SSILL
 62
8
 10
1077.886
 20
-2270.266
 30
3839.096
 70
    32
  0
VERTEX
  8
T14SSILL
 62
8
 10
1075.708
 20
-2267.864
 30
3839.097
 70
    32
  0
SEQEND
  8
T14SSILL
  0
POLYLINE
  8
T14SSILL
 62
8
 66
     1
 70
     9
  0
VERTEX
  8
T14SSILL
 62
8
 10
1300.038
 20
-2220.988
 30
3838.949
 70
    32
  0
VERTEX
  8
T14SSILL
 62
8
 10
1274.743
 20
-2238.228
 30
3838.968
 70
    32
  0
VERTEX
  8
T14SSILL
 62
8
 10
1271.393
 20
-2241.136
 30
3838.971
 70
    32
  0
VERTEX
  8
T14SSILL
 62
8
 10
1270.739
 20
-2242.914
 30
3838.972
 70
    32
  0
VERTEX
  8
T14SSILL
 62
8
 10
1270.617
 20
-2248.019
 30
3838.973
 70
    32
  0
VERTEX
  8
T14SSILL
 62
8
 10
1272.304
 20
-2254.922
 30
3838.973
 70
    32
  0
VERTEX
  8
T14SSILL
 62
8
 10
1277.486
 20
-2264.102
 30
3838.971
 70
    32
  0
VERTEX
  8
T14SSILL
 62
8
 10
1285.194
 20
-2272.421
 30
3838.968
 70
    32
  0
VERTEX
  8
T14SSILL
 62
8
 10
1288.568
 20
-2283.059
 30
3838.968
 70
    32
  0
VERTEX
  8
T14SSILL
 62
8
 10
1291.743
 20
-2286.489
 30
3838.967
 70
    32
  0
VERTEX
  8
T14SSILL
 62
8
 10
1295.874
 20
-2299.041
 30
3838.967
 70
    32
  0
VERTEX
  8
T14SSILL
 62
8
 10
1300.362
 20
-2299.093
 30
3838.964
 70
    32
  0
VERTEX
  8
T14SSILL
 62
8
 10
1314.052
 20
-2310.588
 30
3838.889
 70
    32
  0
VERTEX
  8
T14SSILL
 62
8
 10
1323.201
 20
-2316.931
 30
3838.825
 70
    32
  0
VERTEX
  8
T14SSILL
 62
8
 10
1327.826
 20
-2318.737
 30
3838.795
 70
    32
  0
VERTEX
  8
T14SSILL
 62
8
 10
1342.448
 20
-2309.974
 30
3838.712
 70
    32
  0
VERTEX
  8
T14SSILL
 62
8
 10
1348.708
 20
-2304.170
 30
3838.678
 70
    32
  0
VERTEX
  8
T14SSILL
 62
8
 10
1350.706
 20
-2300.068
 30
3838.670
 70
    32
  0
VERTEX
  8
T14SSILL
 62
8
 10
1342.756
 20
-2289.382
 30
3838.730
 70
    32
  0
SEQEND
  8
T14SSILL
  0
POLYLINE
  8
T14SSILL
 62
8
 66
     1
 70
     9
  0
VERTEX
  8
T14SSILL
 62
8
 10
2139.068
 20
-4606.788
 30
3839.031
 70
    32
  0
VERTEX
  8
T14SSILL
 62
8
 10
2172.199
 20
-4607.012
 30
3839.030
 70
    32
  0
VERTEX
  8
T14SSILL
 62
8
 10
2172.315
 20
-4537.826
 30
3839.035
 70
    32
  0
VERTEX
  8
T14SSILL
 62
8
 10
2124.076
 20
-4586.203
 30
3839.034
 70
    32
  0
VERTEX
  8
T14SSILL
 62
8
 10
2123.572
 20
-4606.676
 30
3839.032
 70
    32
  0
SEQEND
  8
T14SSILL
  0
POLYLINE
  8
T14SSILL
 62
8
 66
     1
 70
     9
  0
VERTEX
  8
T14SSILL
 62
8
 10
1559.202
 20
-2607.608
 30
3837.064
 70
    32
  0
VERTEX
  8
T14SSILL
 62
8
 10
1560.321
 20
-2613.568
 30
3837.051
 70
    32
  0
VERTEX
  8
T14SSILL
 62
8
 10
1570.161
 20
-2628.370
 30
3836.975
 70
    32
  0
VERTEX
  8
T14SSILL
 62
8
 10
1576.131
 20
-2643.086
 30
3836.923
 70
    32
  0
VERTEX
  8
T14SSILL
 62
8
 10
1580.513
 20
-2642.544
 30
3836.896
 70
    32
  0
VERTEX
  8
T14SSILL
 62
8
 10
1608.102
 20
-2623.176
 30
3836.743
 70
    32
  0
VERTEX
  8
T14SSILL
 62
8
 10
1620.239
 20
-2612.167
 30
3836.678
 70
    32
  0
VERTEX
  8
T14SSILL
 62
8
 10
1619.082
 20
-2609.902
 30
3836.687
 70
    32
  0
VERTEX
  8
T14SSILL
 62
8
 10
1618.816
 20
-2606.655
 30
3836.692
 70
    32
  0
VERTEX
  8
T14SSILL
 62
8
 10
1611.218
 20
-2599.125
 30
3836.747
 70
    32
  0
VERTEX
  8
T14SSILL
 62
8
 10
1607.106
 20
-2596.776
 30
3836.775
 70
    32
  0
VERTEX
  8
T14SSILL
 62
8
 10
1603.727
 20
-2598.630
 30
3836.794
 70
    32
  0
VERTEX
  8
T14SSILL
 62
8
 10
1601.271
 20
-2598.874
 30
3836.809
 70
    32
  0
VERTEX
  8
T14SSILL
 62
8
 10
1591.023
 20
-2587.811
 30
3836.884
 70
    32
  0
VERTEX
  8
T14SSILL
 62
8
 10
1584.035
 20
-2583.255
 30
3836.932
 70
    32
  0
VERTEX
  8
T14SSILL
 62
8
 10
1580.802
 20
-2584.049
 30
3836.952
 70
    32
  0
VERTEX
  8
T14SSILL
 62
8
 10
1576.420
 20
-2587.777
 30
3836.976
 70
    32
  0
VERTEX
  8
T14SSILL
 62
8
 10
1565.081
 20
-2594.426
 30
3837.040
 70
    32
  0
VERTEX
  8
T14SSILL
 62
8
 10
1563.301
 20
-2596.851
 30
3837.049
 70
    32
  0
VERTEX
  8
T14SSILL
 62
8
 10
1561.250
 20
-2602.186
 30
3837.056
 70
    32
  0
VERTEX
  8
T14SSILL
 62
8
 10
1559.206
 20
-2604.617
 30
3837.067
 70
    32
  0
SEQEND
  8
T14SSILL
  0
POLYLINE
  8
T14SSILL
 62
8
 66
     1
 70
     9
  0
VERTEX
  8
T14SSILL
 62
8
 10
1680.314
 20
-2839.314
 30
3837.102
 70
    32
  0
VERTEX
  8
T14SSILL
 62
8
 10
1684.476
 20
-2836.843
 30
3837.064
 70
    32
  0
VERTEX
  8
T14SSILL
 62
8
 10
1685.473
 20
-2834.359
 30
3837.035
 70
    32
  0
VERTEX
  8
T14SSILL
 62
8
 10
1683.443
 20
-2830.275
 30
3836.997
 70
    32
  0
VERTEX
  8
T14SSILL
 62
8
 10
1669.044
 20
-2819.711
 30
3836.924
 70
    32
  0
VERTEX
  8
T14SSILL
 62
8
 10
1505.711
 20
-2710.397
 30
3837.297
 70
    32
  0
VERTEX
  8
T14SSILL
 62
8
 10
1499.751
 20
-2711.152
 30
3837.334
 70
    32
  0
VERTEX
  8
T14SSILL
 62
8
 10
1413.988
 20
-2847.827
 30
3837.921
 70
    32
  0
VERTEX
  8
T14SSILL
 62
8
 10
1413.784
 20
-2850.381
 30
3837.949
 70
    32
  0
VERTEX
  8
T14SSILL
 62
8
 10
1415.155
 20
-2852.634
 30
3837.969
 70
    32
  0
VERTEX
  8
T14SSILL
 62
8
 10
1529.940
 20
-2896.979
 30
3838.128
 70
    32
  0
VERTEX
  8
T14SSILL
 62
8
 10
1539.063
 20
-2899.930
 30
3838.135
 70
    32
  0
VERTEX
  8
T14SSILL
 62
8
 10
1556.451
 20
-2902.952
 30
3838.119
 70
    32
  0
VERTEX
  8
T14SSILL
 62
8
 10
1566.123
 20
-2903.078
 30
3838.094
 70
    32
  0
VERTEX
  8
T14SSILL
 62
8
 10
1579.263
 20
-2901.100
 30
3838.037
 70
    32
  0
VERTEX
  8
T14SSILL
 62
8
 10
1589.748
 20
-2898.394
 30
3837.979
 70
    32
  0
VERTEX
  8
T14SSILL
 62
8
 10
1606.313
 20
-2892.556
 30
3837.872
 70
    32
  0
VERTEX
  8
T14SSILL
 62
8
 10
1632.014
 20
-2875.166
 30
3837.616
 70
    32
  0
SEQEND
  8
T14SSILL
  0
POLYLINE
  8
T14SSILL
 62
8
 66
     1
 70
     9
  0
VERTEX
  8
T14SSILL
 62
8
 10
1581.109
 20
-2544.455
 30
3836.989
 70
    32
  0
VERTEX
  8
T14SSILL
 62
8
 10
1577.947
 20
-2547.798
 30
3837.005
 70
    32
  0
VERTEX
  8
T14SSILL
 62
8
 10
1577.381
 20
-2549.573
 30
3837.007
 70
    32
  0
VERTEX
  8
T14SSILL
 62
8
 10
1583.295
 20
-2559.789
 30
3836.960
 70
    32
  0
VERTEX
  8
T14SSILL
 62
8
 10
1587.152
 20
-2562.496
 30
3836.933
 70
    32
  0
VERTEX
  8
T14SSILL
 62
8
 10
1589.894
 20
-2563.036
 30
3836.916
 70
    32
  0
VERTEX
  8
T14SSILL
 62
8
 10
1596.199
 20
-2561.981
 30
3836.877
 70
    32
  0
VERTEX
  8
T14SSILL
 62
8
 10
1598.975
 20
-2560.584
 30
3836.861
 70
    32
  0
VERTEX
  8
T14SSILL
 62
8
 10
1606.575
 20
-2552.368
 30
3836.822
 70
    32
  0
VERTEX
  8
T14SSILL
 62
8
 10
1607.364
 20
-2549.092
 30
3836.820
 70
    32
  0
VERTEX
  8
T14SSILL
 62
8
 10
1601.807
 20
-2535.875
 30
3836.868
 70
    32
  0
VERTEX
  8
T14SSILL
 62
8
 10
1599.353
 20
-2533.041
 30
3836.886
 70
    32
  0
VERTEX
  8
T14SSILL
 62
8
 10
1595.805
 20
-2531.996
 30
3836.909
 70
    32
  0
VERTEX
  8
T14SSILL
 62
8
 10
1593.805
 20
-2532.843
 30
3836.921
 70
    32
  0
SEQEND
  8
T14SSILL
  0
POLYLINE
  8
T14SSILL
 62
8
 66
     1
 70
     9
  0
VERTEX
  8
T14SSILL
 62
8
 10
1228.830
 20
-2620.406
 30
3839.068
 70
    32
  0
VERTEX
  8
T14SSILL
 62
8
 10
1223.479
 20
-2606.033
 30
3839.068
 70
    32
  0
VERTEX
  8
T14SSILL
 62
8
 10
1215.116
 20
-2593.158
 30
3839.071
 70
    32
  0
VERTEX
  8
T14SSILL
 62
8
 10
1207.220
 20
-2584.405
 30
3839.074
 70
    32
  0
VERTEX
  8
T14SSILL
 62
8
 10
1199.225
 20
-2572.136
 30
3839.077
 70
    32
  0
VERTEX
  8
T14SSILL
 62
8
 10
1189.734
 20
-2550.321
 30
3839.079
 70
    32
  0
VERTEX
  8
T14SSILL
 62
8
 10
1187.525
 20
-2549.942
 30
3839.080
 70
    32
  0
VERTEX
  8
T14SSILL
 62
8
 10
1153.533
 20
-2573.934
 30
3839.106
 70
    32
  0
VERTEX
  8
T14SSILL
 62
8
 10
1151.726
 20
-2581.725
 30
3839.108
 70
    32
  0
VERTEX
  8
T14SSILL
 62
8
 10
1151.839
 20
-2588.936
 30
3839.109
 70
    32
  0
VERTEX
  8
T14SSILL
 62
8
 10
1165.834
 20
-2605.084
 30
3839.104
 70
    32
  0
VERTEX
  8
T14SSILL
 62
8
 10
1200.910
 20
-2650.190
 30
3839.090
 70
    32
  0
VERTEX
  8
T14SSILL
 62
8
 10
1208.427
 20
-2649.116
 30
3839.086
 70
    32
  0
VERTEX
  8
T14SSILL
 62
8
 10
1225.340
 20
-2637.042
 30
3839.073
 70
    32
  0
SEQEND
  8
T14SSILL
  0
POLYLINE
  8
T14SSILL
 62
8
 66
     1
 70
     9
  0
VERTEX
  8
T14SSILL
 62
8
 10
1221.373
 20
-2512.349
 30
3839.052
 70
    32
  0
VERTEX
  8
T14SSILL
 62
8
 10
1221.970
 20
-2507.465
 30
3839.051
 70
    32
  0
VERTEX
  8
T14SSILL
 62
8
 10
1220.977
 20
-2503.358
 30
3839.051
 70
    32
  0
VERTEX
  8
T14SSILL
 62
8
 10
1218.017
 20
-2501.329
 30
3839.052
 70
    32
  0
VERTEX
  8
T14SSILL
 62
8
 10
1214.850
 20
-2501.329
 30
3839.054
 70
    32
  0
VERTEX
  8
T14SSILL
 62
8
 10
1197.925
 20
-2512.707
 30
3839.067
 70
    32
  0
VERTEX
  8
T14SSILL
 62
8
 10
1191.043
 20
-2521.431
 30
3839.073
 70
    32
  0
VERTEX
  8
T14SSILL
 62
8
 10
1191.551
 20
-2527.047
 30
3839.073
 70
    32
  0
VERTEX
  8
T14SSILL
 62
8
 10
1197.149
 20
-2535.424
 30
3839.071
 70
    32
  0
VERTEX
  8
T14SSILL
 62
8
 10
1198.649
 20
-2535.558
 30
3839.071
 70
    32
  0
VERTEX
  8
T14SSILL
 62
8
 10
1217.468
 20
-2521.649
 30
3839.056
 70
    32
  0
VERTEX
  8
T14SSILL
 62
8
 10
1214.554
 20
-2517.249
 30
3839.057
 70
    32
  0
SEQEND
  8
T14SSILL
  0
POLYLINE
  8
T14SSILL
 62
8
 66
     1
 70
     9
  0
VERTEX
  8
T14SSILL
 62
8
 10
1210.168
 20
-2416.460
 30
3839.041
 70
    32
  0
VERTEX
  8
T14SSILL
 62
8
 10
1194.746
 20
-2427.117
 30
3839.053
 70
    32
  0
VERTEX
  8
T14SSILL
 62
8
 10
1193.622
 20
-2437.000
 30
3839.055
 70
    32
  0
VERTEX
  8
T14SSILL
 62
8
 10
1195.289
 20
-2440.032
 30
3839.055
 70
    32
  0
VERTEX
  8
T14SSILL
 62
8
 10
1202.046
 20
-2448.905
 30
3839.052
 70
    32
  0
VERTEX
  8
T14SSILL
 62
8
 10
1204.538
 20
-2449.979
 30
3839.051
 70
    32
  0
VERTEX
  8
T14SSILL
 62
8
 10
1208.008
 20
-2448.212
 30
3839.049
 70
    32
  0
VERTEX
  8
T14SSILL
 62
8
 10
1225.309
 20
-2434.536
 30
3839.035
 70
    32
  0
VERTEX
  8
T14SSILL
 62
8
 10
1225.685
 20
-2432.238
 30
3839.035
 70
    32
  0
VERTEX
  8
T14SSILL
 62
8
 10
1218.506
 20
-2420.826
 30
3839.037
 70
    32
  0
VERTEX
  8
T14SSILL
 62
8
 10
1215.897
 20
-2418.464
 30
3839.038
 70
    32
  0
VERTEX
  8
T14SSILL
 62
8
 10
1212.640
 20
-2420.512
 30
3839.041
 70
    32
  0
SEQEND
  8
T14SSILL
  0
POLYLINE
  8
T14SSILL
 62
8
 66
     1
 70
     9
  0
VERTEX
  8
T14SSILL
 62
8
 10
1220.661
 20
-2526.471
 30
3839.055
 70
    32
  0
VERTEX
  8
T14SSILL
 62
8
 10
1200.653
 20
-2541.220
 30
3839.070
 70
    32
  0
VERTEX
  8
T14SSILL
 62
8
 10
1200.036
 20
-2550.650
 30
3839.072
 70
    32
  0
VERTEX
  8
T14SSILL
 62
8
 10
1200.802
 20
-2552.916
 30
3839.072
 70
    32
  0
VERTEX
  8
T14SSILL
 62
8
 10
1206.465
 20
-2566.745
 30
3839.071
 70
    32
  0
VERTEX
  8
T14SSILL
 62
8
 10
1215.494
 20
-2581.448
 30
3839.069
 70
    32
  0
VERTEX
  8
T14SSILL
 62
8
 10
1215.445
 20
-2582.857
 30
3839.069
 70
    32
  0
VERTEX
  8
T14SSILL
 62
8
 10
1217.491
 20
-2583.680
 30
3839.068
 70
    32
  0
VERTEX
  8
T14SSILL
 62
8
 10
1220.341
 20
-2581.753
 30
3839.066
 70
    32
  0
VERTEX
  8
T14SSILL
 62
8
 10
1221.483
 20
-2578.555
 30
3839.064
 70
    32
  0
VERTEX
  8
T14SSILL
 62
8
 10
1222.357
 20
-2565.687
 30
3839.061
 70
    32
  0
VERTEX
  8
T14SSILL
 62
8
 10
1222.487
 20
-2560.846
 30
3839.060
 70
    32
  0
VERTEX
  8
T14SSILL
 62
8
 10
1220.521
 20
-2556.590
 30
3839.061
 70
    32
  0
VERTEX
  8
T14SSILL
 62
8
 10
1217.266
 20
-2553.426
 30
3839.062
 70
    32
  0
VERTEX
  8
T14SSILL
 62
8
 10
1216.563
 20
-2550.279
 30
3839.062
 70
    32
  0
VERTEX
  8
T14SSILL
 62
8
 10
1217.125
 20
-2548.328
 30
3839.061
 70
    32
  0
VERTEX
  8
T14SSILL
 62
8
 10
1226.788
 20
-2541.550
 30
3839.054
 70
    32
  0
VERTEX
  8
T14SSILL
 62
8
 10
1226.987
 20
-2536.024
 30
3839.053
 70
    32
  0
SEQEND
  8
T14SSILL
  0
POLYLINE
  8
T14SSILL
 62
8
 66
     1
 70
     9
  0
VERTEX
  8
T14SSILL
 62
8
 10
941.545
 20
-2352.786
 30
3839.187
 70
    32
  0
VERTEX
  8
T14SSILL
 62
8
 10
942.981
 20
-2360.135
 30
3839.187
 70
    32
  0
VERTEX
  8
T14SSILL
 62
8
 10
948.892
 20
-2367.096
 30
3839.186
 70
    32
  0
VERTEX
  8
T14SSILL
 62
8
 10
951.675
 20
-2369.130
 30
3839.186
 70
    32
  0
VERTEX
  8
T14SSILL
 62
8
 10
954.049
 20
-2375.398
 30
3839.186
 70
    32
  0
VERTEX
  8
T14SSILL
 62
8
 10
956.271
 20
-2376.216
 30
3839.185
 70
    32
  0
VERTEX
  8
T14SSILL
 62
8
 10
957.230
 20
-2379.092
 30
3839.185
 70
    32
  0
VERTEX
  8
T14SSILL
 62
8
 10
961.552
 20
-2385.833
 30
3839.185
 70
    32
  0
VERTEX
  8
T14SSILL
 62
8
 10
970.313
 20
-2394.034
 30
3839.184
 70
    32
  0
VERTEX
  8
T14SSILL
 62
8
 10
978.119
 20
-2399.535
 30
3839.182
 70
    32
  0
VERTEX
  8
T14SSILL
 62
8
 10
984.262
 20
-2405.346
 30
3839.179
 70
    32
  0
VERTEX
  8
T14SSILL
 62
8
 10
1003.209
 20
-2425.579
 30
3839.171
 70
    32
  0
VERTEX
  8
T14SSILL
 62
8
 10
1039.340
 20
-2399.417
 30
3839.144
 70
    32
  0
VERTEX
  8
T14SSILL
 62
8
 10
1025.918
 20
-2359.589
 30
3839.145
 70
    32
  0
VERTEX
  8
T14SSILL
 62
8
 10
1011.653
 20
-2308.438
 30
3839.144
 70
    32
  0
VERTEX
  8
T14SSILL
 62
8
 10
1010.256
 20
-2305.661
 30
3839.145
 70
    32
  0
VERTEX
  8
T14SSILL
 62
8
 10
1008.459
 20
-2304.304
 30
3839.145
 70
    32
  0
SEQEND
  8
T14SSILL
  0
POLYLINE
  8
T14SSILL
 62
8
 66
     1
 70
     9
  0
VERTEX
  8
T14SSILL
 62
8
 10
932.140
 20
-2359.381
 30
3839.187
 70
    32
  0
VERTEX
  8
T14SSILL
 62
8
 10
923.350
 20
-2365.959
 30
3839.187
 70
    32
  0
VERTEX
  8
T14SSILL
 62
8
 10
940.241
 20
-2381.851
 30
3839.186
 70
    32
  0
VERTEX
  8
T14SSILL
 62
8
 10
944.822
 20
-2382.076
 30
3839.186
 70
    32
  0
VERTEX
  8
T14SSILL
 62
8
 10
946.035
 20
-2381.426
 30
3839.186
 70
    32
  0
SEQEND
  8
T14SSILL
  0
POLYLINE
  8
T14SSILL
 62
8
 66
     1
 70
     9
  0
VERTEX
  8
T14SSILL
 62
8
 10
1150.750
 20
-2464.052
 30
3839.087
 70
    32
  0
VERTEX
  8
T14SSILL
 62
8
 10
1148.199
 20
-2460.378
 30
3839.088
 70
    32
  0
VERTEX
  8
T14SSILL
 62
8
 10
1092.286
 20
-2500.338
 30
3839.130
 70
    32
  0
VERTEX
  8
T14SSILL
 62
8
 10
1090.621
 20
-2503.727
 30
3839.131
 70
    32
  0
VERTEX
  8
T14SSILL
 62
8
 10
1091.256
 20
-2510.746
 30
3839.132
 70
    32
  0
VERTEX
  8
T14SSILL
 62
8
 10
1092.970
 20
-2515.449
 30
3839.132
 70
    32
  0
VERTEX
  8
T14SSILL
 62
8
 10
1102.846
 20
-2525.818
 30
3839.128
 70
    32
  0
VERTEX
  8
T14SSILL
 62
8
 10
1104.036
 20
-2530.623
 30
3839.128
 70
    32
  0
VERTEX
  8
T14SSILL
 62
8
 10
1131.443
 20
-2560.913
 30
3839.117
 70
    32
  0
VERTEX
  8
T14SSILL
 62
8
 10
1138.295
 20
-2566.881
 30
3839.114
 70
    32
  0
VERTEX
  8
T14SSILL
 62
8
 10
1145.183
 20
-2570.999
 30
3839.110
 70
    32
  0
VERTEX
  8
T14SSILL
 62
8
 10
1148.283
 20
-2571.793
 30
3839.108
 70
    32
  0
VERTEX
  8
T14SSILL
 62
8
 10
1184.102
 20
-2543.880
 30
3839.081
 70
    32
  0
VERTEX
  8
T14SSILL
 62
8
 10
1185.774
 20
-2537.588
 30
3839.079
 70
    32
  0
VERTEX
  8
T14SSILL
 62
8
 10
1184.372
 20
-2531.469
 30
3839.079
 70
    32
  0
VERTEX
  8
T14SSILL
 62
8
 10
1178.974
 20
-2520.799
 30
3839.080
 70
    32
  0
VERTEX
  8
T14SSILL
 62
8
 10
1172.266
 20
-2504.184
 30
3839.081
 70
    32
  0
VERTEX
  8
T14SSILL
 62
8
 10
1167.688
 20
-2497.714
 30
3839.083
 70
    32
  0
VERTEX
  8
T14SSILL
 62
8
 10
1162.263
 20
-2495.577
 30
3839.086
 70
    32
  0
VERTEX
  8
T14SSILL
 62
8
 10
1159.660
 20
-2493.715
 30
3839.087
 70
    32
  0
VERTEX
  8
T14SSILL
 62
8
 10
1159.291
 20
-2489.942
 30
3839.086
 70
    32
  0
VERTEX
  8
T14SSILL
 62
8
 10
1163.122
 20
-2485.350
 30
3839.083
 70
    32
  0
VERTEX
  8
T14SSILL
 62
8
 10
1160.943
 20
-2468.044
 30
3839.081
 70
    32
  0
VERTEX
  8
T14SSILL
 62
8
 10
1155.840
 20
-2460.780
 30
3839.083
 70
    32
  0
SEQEND
  8
T14SSILL
  0
POLYLINE
  8
T14SSILL
 62
8
 66
     1
 70
     9
  0
VERTEX
  8
T14SSILL
 62
8
 10
1145.658
 20
-2446.465
 30
3839.087
 70
    32
  0
VERTEX
  8
T14SSILL
 62
8
 10
1147.079
 20
-2437.714
 30
3839.084
 70
    32
  0
VERTEX
  8
T14SSILL
 62
8
 10
1151.511
 20
-2434.740
 30
3839.081
 70
    32
  0
VERTEX
  8
T14SSILL
 62
8
 10
1122.701
 20
-2382.497
 30
3839.089
 70
    32
  0
VERTEX
  8
T14SSILL
 62
8
 10
1120.604
 20
-2370.328
 30
3839.088
 70
    32
  0
VERTEX
  8
T14SSILL
 62
8
 10
1114.736
 20
-2361.782
 30
3839.090
 70
    32
  0
VERTEX
  8
T14SSILL
 62
8
 10
1110.630
 20
-2359.610
 30
3839.092
 70
    32
  0
VERTEX
  8
T14SSILL
 62
8
 10
1108.312
 20
-2358.530
 30
3839.094
 70
    32
  0
VERTEX
  8
T14SSILL
 62
8
 10
1105.675
 20
-2358.604
 30
3839.095
 70
    32
  0
VERTEX
  8
T14SSILL
 62
8
 10
1050.994
 20
-2397.773
 30
3839.136
 70
    32
  0
VERTEX
  8
T14SSILL
 62
8
 10
1048.235
 20
-2402.952
 30
3839.139
 70
    32
  0
VERTEX
  8
T14SSILL
 62
8
 10
1048.152
 20
-2406.297
 30
3839.140
 70
    32
  0
VERTEX
  8
T14SSILL
 62
8
 10
1062.124
 20
-2450.068
 30
3839.139
 70
    32
  0
VERTEX
  8
T14SSILL
 62
8
 10
1065.549
 20
-2453.051
 30
3839.138
 70
    32
  0
VERTEX
  8
T14SSILL
 62
8
 10
1067.427
 20
-2457.309
 30
3839.137
 70
    32
  0
VERTEX
  8
T14SSILL
 62
8
 10
1067.864
 20
-2460.376
 30
3839.138
 70
    32
  0
VERTEX
  8
T14SSILL
 62
8
 10
1070.789
 20
-2464.341
 30
3839.136
 70
    32
  0
VERTEX
  8
T14SSILL
 62
8
 10
1077.838
 20
-2471.095
 30
3839.133
 70
    32
  0
VERTEX
  8
T14SSILL
 62
8
 10
1087.107
 20
-2472.244
 30
3839.128
 70
    32
  0
VERTEX
  8
T14SSILL
 62
8
 10
1096.390
 20
-2470.755
 30
3839.122
 70
    32
  0
VERTEX
  8
T14SSILL
 62
8
 10
1113.815
 20
-2461.562
 30
3839.109
 70
    32
  0
VERTEX
  8
T14SSILL
 62
8
 10
1125.555
 20
-2456.661
 30
3839.101
 70
    32
  0
VERTEX
  8
T14SSILL
 62
8
 10
1130.789
 20
-2455.108
 30
3839.098
 70
    32
  0
VERTEX
  8
T14SSILL
 62
8
 10
1138.485
 20
-2456.654
 30
3839.093
 70
    32
  0
VERTEX
  8
T14SSILL
 62
8
 10
1144.579
 20
-2455.164
 30
3839.089
 70
    32
  0
VERTEX
  8
T14SSILL
 62
8
 10
1141.192
 20
-2450.288
 30
3839.090
 70
    32
  0
SEQEND
  8
T14SSILL
  0
POLYLINE
  8
T14SSILL
 62
8
 66
     1
 70
     9
  0
VERTEX
  8
T14SSILL
 62
8
 10
1105.431
 20
-2482.731
 30
3839.118
 70
    32
  0
VERTEX
  8
T14SSILL
 62
8
 10
1114.482
 20
-2476.058
 30
3839.112
 70
    32
  0
VERTEX
  8
T14SSILL
 62
8
 10
1117.559
 20
-2472.805
 30
3839.109
 70
    32
  0
VERTEX
  8
T14SSILL
 62
8
 10
1118.118
 20
-2470.767
 30
3839.108
 70
    32
  0
VERTEX
  8
T14SSILL
 62
8
 10
1116.838
 20
-2469.043
 30
3839.109
 70
    32
  0
VERTEX
  8
T14SSILL
 62
8
 10
1113.068
 20
-2469.500
 30
3839.111
 70
    32
  0
VERTEX
  8
T14SSILL
 62
8
 10
1080.825
 20
-2483.591
 30
3839.134
 70
    32
  0
VERTEX
  8
T14SSILL
 62
8
 10
1077.765
 20
-2487.458
 30
3839.136
 70
    32
  0
VERTEX
  8
T14SSILL
 62
8
 10
1077.270
 20
-2491.782
 30
3839.138
 70
    32
  0
VERTEX
  8
T14SSILL
 62
8
 10
1079.138
 20
-2495.689
 30
3839.137
 70
    32
  0
VERTEX
  8
T14SSILL
 62
8
 10
1082.353
 20
-2497.447
 30
3839.135
 70
    32
  0
VERTEX
  8
T14SSILL
 62
8
 10
1084.888
 20
-2496.849
 30
3839.134
 70
    32
  0
SEQEND
  8
T14SSILL
  0
POLYLINE
  8
T14SSILL
 62
8
 66
     1
 70
     9
  0
VERTEX
  8
T14SSILL
 62
8
 10
1007.939
 20
-2431.166
 30
3839.169
 70
    32
  0
VERTEX
  8
T14SSILL
 62
8
 10
1010.700
 20
-2438.742
 30
3839.169
 70
    32
  0
VERTEX
  8
T14SSILL
 62
8
 10
1017.581
 20
-2448.931
 30
3839.167
 70
    32
  0
VERTEX
  8
T14SSILL
 62
8
 10
1019.964
 20
-2449.216
 30
3839.165
 70
    32
  0
VERTEX
  8
T14SSILL
 62
8
 10
1023.160
 20
-2453.438
 30
3839.164
 70
    32
  0
VERTEX
  8
T14SSILL
 62
8
 10
1032.299
 20
-2459.429
 30
3839.159
 70
    32
  0
VERTEX
  8
T14SSILL
 62
8
 10
1034.153
 20
-2462.809
 30
3839.159
 70
    32
  0
VERTEX
  8
T14SSILL
 62
8
 10
1040.960
 20
-2483.027
 30
3839.158
 70
    32
  0
VERTEX
  8
T14SSILL
 62
8
 10
1048.258
 20
-2492.413
 30
3839.156
 70
    32
  0
VERTEX
  8
T14SSILL
 62
8
 10
1053.208
 20
-2493.243
 30
3839.153
 70
    32
  0
VERTEX
  8
T14SSILL
 62
8
 10
1060.027
 20
-2491.734
 30
3839.148
 70
    32
  0
VERTEX
  8
T14SSILL
 62
8
 10
1061.045
 20
-2490.386
 30
3839.147
 70
    32
  0
VERTEX
  8
T14SSILL
 62
8
 10
1044.607
 20
-2440.175
 30
3839.148
 70
    32
  0
VERTEX
  8
T14SSILL
 62
8
 10
1045.940
 20
-2421.665
 30
3839.144
 70
    32
  0
VERTEX
  8
T14SSILL
 62
8
 10
1041.049
 20
-2407.110
 30
3839.144
 70
    32
  0
SEQEND
  8
T14SSILL
  0
POLYLINE
  8
T14SSILL
 62
8
 66
     1
 70
     9
  0
VERTEX
  8
T14SSILL
 62
8
 10
1180.755
 20
-2406.306
 30
3839.058
 70
    32
  0
VERTEX
  8
T14SSILL
 62
8
 10
1202.248
 20
-2391.124
 30
3839.042
 70
    32
  0
VERTEX
  8
T14SSILL
 62
8
 10
1199.932
 20
-2388.707
 30
3839.043
 70
    32
  0
VERTEX
  8
T14SSILL
 62
8
 10
1176.501
 20
-2406.512
 30
3839.060
 70
    32
  0
VERTEX
  8
T14SSILL
 62
8
 10
1176.112
 20
-2408.370
 30
3839.061
 70
    32
  0
VERTEX
  8
T14SSILL
 62
8
 10
1182.959
 20
-2422.034
 30
3839.059
 70
    32
  0
VERTEX
  8
T14SSILL
 62
8
 10
1188.298
 20
-2418.523
 30
3839.055
 70
    32
  0
SEQEND
  8
T14SSILL
  0
POLYLINE
  8
T14SSILL
 62
8
 66
     1
 70
     9
  0
VERTEX
  8
T14SSILL
 62
8
 10
1175.401
 20
-2427.003
 30
3839.065
 70
    32
  0
VERTEX
  8
T14SSILL
 62
8
 10
1175.124
 20
-2423.440
 30
3839.064
 70
    32
  0
VERTEX
  8
T14SSILL
 62
8
 10
1168.763
 20
-2412.972
 30
3839.066
 70
    32
  0
VERTEX
  8
T14SSILL
 62
8
 10
1154.929
 20
-2421.626
 30
3839.076
 70
    32
  0
VERTEX
  8
T14SSILL
 62
8
 10
1154.198
 20
-2424.304
 30
3839.077
 70
    32
  0
VERTEX
  8
T14SSILL
 62
8
 10
1157.709
 20
-2421.836
 30
3839.075
 70
    32
  0
VERTEX
  8
T14SSILL
 62
8
 10
1165.516
 20
-2433.314
 30
3839.072
 70
    32
  0
SEQEND
  8
T14SSILL
  0
POLYLINE
  8
T14SSILL
 62
8
 66
     1
 70
     9
  0
VERTEX
  8
T14SSILL
 62
8
 10
1146.058
 20
-2337.682
 30
3839.066
 70
    32
  0
VERTEX
  8
T14SSILL
 62
8
 10
1147.754
 20
-2340.720
 30
3839.066
 70
    32
  0
VERTEX
  8
T14SSILL
 62
8
 10
1154.845
 20
-2348.968
 30
3839.063
 70
    32
  0
VERTEX
  8
T14SSILL
 62
8
 10
1165.502
 20
-2339.963
 30
3839.055
 70
    32
  0
VERTEX
  8
T14SSILL
 62
8
 10
1168.552
 20
-2335.744
 30
3839.052
 70
    32
  0
VERTEX
  8
T14SSILL
 62
8
 10
1169.396
 20
-2331.322
 30
3839.051
 70
    32
  0
VERTEX
  8
T14SSILL
 62
8
 10
1168.693
 20
-2329.834
 30
3839.051
 70
    32
  0
VERTEX
  8
T14SSILL
 62
8
 10
1162.268
 20
-2334.370
 30
3839.056
 70
    32
  0
VERTEX
  8
T14SSILL
 62
8
 10
1155.076
 20
-2324.031
 30
3839.058
 70
    32
  0
VERTEX
  8
T14SSILL
 62
8
 10
1141.730
 20
-2333.585
 30
3839.068
 70
    32
  0
SEQEND
  8
T14SSILL
  0
POLYLINE
  8
T14SSILL
 62
8
 66
     1
 70
     9
  0
VERTEX
  8
T14SSILL
 62
8
 10
1135.712
 20
-2337.888
 30
3839.073
 70
    32
  0
VERTEX
  8
T14SSILL
 62
8
 10
1118.635
 20
-2350.151
 30
3839.086
 70
    32
  0
VERTEX
  8
T14SSILL
 62
8
 10
1118.557
 20
-2353.671
 30
3839.086
 70
    32
  0
VERTEX
  8
T14SSILL
 62
8
 10
1123.719
 20
-2362.149
 30
3839.085
 70
    32
  0
VERTEX
  8
T14SSILL
 62
8
 10
1127.079
 20
-2365.926
 30
3839.083
 70
    32
  0
VERTEX
  8
T14SSILL
 62
8
 10
1130.058
 20
-2365.491
 30
3839.081
 70
    32
  0
VERTEX
  8
T14SSILL
 62
8
 10
1145.230
 20
-2354.337
 30
3839.070
 70
    32
  0
VERTEX
  8
T14SSILL
 62
8
 10
1145.882
 20
-2352.472
 30
3839.069
 70
    32
  0
VERTEX
  8
T14SSILL
 62
8
 10
1145.274
 20
-2349.586
 30
3839.069
 70
    32
  0
VERTEX
  8
T14SSILL
 62
8
 10
1141.306
 20
-2342.923
 30
3839.070
 70
    32
  0
VERTEX
  8
T14SSILL
 62
8
 10
1138.053
 20
-2339.847
 30
3839.072
 70
    32
  0
SEQEND
  8
T14SSILL
  0
POLYLINE
  8
T14SSILL
 62
8
 66
     1
 70
     9
  0
VERTEX
  8
T14SSILL
 62
8
 10
1313.088
 20
-2769.490
 30
3838.444
 70
    32
  0
VERTEX
  8
T14SSILL
 62
8
 10
1318.009
 20
-2765.683
 30
3838.417
 70
    32
  0
VERTEX
  8
T14SSILL
 62
8
 10
1316.656
 20
-2760.440
 30
3838.430
 70
    32
  0
VERTEX
  8
T14SSILL
 62
8
 10
1309.620
 20
-2749.002
 30
3838.486
 70
    32
  0
VERTEX
  8
T14SSILL
 62
8
 10
1299.817
 20
-2735.781
 30
3838.560
 70
    32
  0
VERTEX
  8
T14SSILL
 62
8
 10
1292.741
 20
-2730.145
 30
3838.610
 70
    32
  0
VERTEX
  8
T14SSILL
 62
8
 10
1290.879
 20
-2729.485
 30
3838.622
 70
    32
  0
VERTEX
  8
T14SSILL
 62
8
 10
1287.473
 20
-2730.444
 30
3838.642
 70
    32
  0
VERTEX
  8
T14SSILL
 62
8
 10
1273.252
 20
-2738.776
 30
3838.723
 70
    32
  0
VERTEX
  8
T14SSILL
 62
8
 10
1271.450
 20
-2740.664
 30
3838.733
 70
    32
  0
VERTEX
  8
T14SSILL
 62
8
 10
1270.891
 20
-2743.051
 30
3838.734
 70
    32
  0
VERTEX
  8
T14SSILL
 62
8
 10
1299.401
 20
-2778.161
 30
3838.521
 70
    32
  0
VERTEX
  8
T14SSILL
 62
8
 10
1301.083
 20
-2778.649
 30
3838.510
 70
    32
  0
VERTEX
  8
T14SSILL
 62
8
 10
1306.556
 20
-2775.884
 30
3838.478
 70
    32
  0
VERTEX
  8
T14SSILL
 62
8
 10
1312.512
 20
-2771.174
 30
3838.446
 70
    32
  0
SEQEND
  8
T14SSILL
  0
POLYLINE
  8
T14SSILL
 62
8
 66
     1
 70
     9
  0
VERTEX
  8
T14SSILL
 62
8
 10
1490.643
 20
-2712.596
 30
3837.389
 70
    32
  0
VERTEX
  8
T14SSILL
 62
8
 10
1494.367
 20
-2706.443
 30
3837.372
 70
    32
  0
VERTEX
  8
T14SSILL
 62
8
 10
1493.655
 20
-2702.328
 30
3837.381
 70
    32
  0
VERTEX
  8
T14SSILL
 62
8
 10
1469.088
 20
-2685.498
 30
3837.551
 70
    32
  0
VERTEX
  8
T14SSILL
 62
8
 10
1465.210
 20
-2685.061
 30
3837.575
 70
    32
  0
VERTEX
  8
T14SSILL
 62
8
 10
1461.902
 20
-2686.457
 30
3837.595
 70
    32
  0
VERTEX
  8
T14SSILL
 62
8
 10
1444.597
 20
-2705.761
 30
3837.684
 70
    32
  0
VERTEX
  8
T14SSILL
 62
8
 10
1423.390
 20
-2731.134
 30
3837.792
 70
    32
  0
VERTEX
  8
T14SSILL
 62
8
 10
1422.841
 20
-2756.551
 30
3837.770
 70
    32
  0
VERTEX
  8
T14SSILL
 62
8
 10
1421.503
 20
-2759.483
 30
3837.776
 70
    32
  0
VERTEX
  8
T14SSILL
 62
8
 10
1419.608
 20
-2761.110
 30
3837.786
 70
    32
  0
VERTEX
  8
T14SSILL
 62
8
 10
1411.593
 20
-2764.198
 30
3837.833
 70
    32
  0
VERTEX
  8
T14SSILL
 62
8
 10
1409.642
 20
-2767.232
 30
3837.842
 70
    32
  0
VERTEX
  8
T14SSILL
 62
8
 10
1410.723
 20
-2772.130
 30
3837.831
 70
    32
  0
VERTEX
  8
T14SSILL
 62
8
 10
1410.779
 20
-2778.282
 30
3837.824
 70
    32
  0
VERTEX
  8
T14SSILL
 62
8
 10
1409.319
 20
-2783.502
 30
3837.828
 70
    32
  0
VERTEX
  8
T14SSILL
 62
8
 10
1407.452
 20
-2786.359
 30
3837.837
 70
    32
  0
VERTEX
  8
T14SSILL
 62
8
 10
1403.555
 20
-2796.383
 30
3837.852
 70
    32
  0
VERTEX
  8
T14SSILL
 62
8
 10
1401.259
 20
-2799.689
 30
3837.863
 70
    32
  0
VERTEX
  8
T14SSILL
 62
8
 10
1398.566
 20
-2801.071
 30
3837.878
 70
    32
  0
VERTEX
  8
T14SSILL
 62
8
 10
1395.925
 20
-2808.429
 30
3837.888
 70
    32
  0
VERTEX
  8
T14SSILL
 62
8
 10
1393.183
 20
-2811.481
 30
3837.902
 70
    32
  0
VERTEX
  8
T14SSILL
 62
8
 10
1386.593
 20
-2815.328
 30
3837.939
 70
    32
  0
VERTEX
  8
T14SSILL
 62
8
 10
1383.256
 20
-2815.493
 30
3837.960
 70
    32
  0
VERTEX
  8
T14SSILL
 62
8
 10
1371.209
 20
-2811.556
 30
3838.039
 70
    32
  0
VERTEX
  8
T14SSILL
 62
8
 10
1363.700
 20
-2809.973
 30
3838.088
 70
    32
  0
VERTEX
  8
T14SSILL
 62
8
 10
1361.624
 20
-2811.428
 30
3838.099
 70
    32
  0
VERTEX
  8
T14SSILL
 62
8
 10
1361.319
 20
-2817.149
 30
3838.095
 70
    32
  0
VERTEX
  8
T14SSILL
 62
8
 10
1371.760
 20
-2835.101
 30
3838.012
 70
    32
  0
VERTEX
  8
T14SSILL
 62
8
 10
1373.370
 20
-2836.294
 30
3838.001
 70
    32
  0
VERTEX
  8
T14SSILL
 62
8
 10
1401.933
 20
-2847.318
 30
3837.949
 70
    32
  0
VERTEX
  8
T14SSILL
 62
8
 10
1407.190
 20
-2846.579
 30
3837.927
 70
    32
  0
VERTEX
  8
T14SSILL
 62
8
 10
1438.769
 20
-2794.856
 30
3837.633
 70
    32
  0
SEQEND
  8
T14SSILL
  0
POLYLINE
  8
T14SSILL
 62
8
 66
     1
 70
     9
  0
VERTEX
  8
T14SSILL
 62
8
 10
1332.110
 20
-2819.854
 30
3838.275
 70
    32
  0
VERTEX
  8
T14SSILL
 62
8
 10
1356.157
 20
-2829.489
 30
3838.116
 70
    32
  0
VERTEX
  8
T14SSILL
 62
8
 10
1358.090
 20
-2829.443
 30
3838.104
 70
    32
  0
VERTEX
  8
T14SSILL
 62
8
 10
1359.152
 20
-2825.990
 30
3838.100
 70
    32
  0
VERTEX
  8
T14SSILL
 62
8
 10
1351.439
 20
-2808.150
 30
3838.166
 70
    32
  0
VERTEX
  8
T14SSILL
 62
8
 10
1338.803
 20
-2797.809
 30
3838.255
 70
    32
  0
VERTEX
  8
T14SSILL
 62
8
 10
1331.761
 20
-2793.667
 30
3838.303
 70
    32
  0
VERTEX
  8
T14SSILL
 62
8
 10
1325.023
 20
-2779.935
 30
3838.359
 70
    32
  0
VERTEX
  8
T14SSILL
 62
8
 10
1322.048
 20
-2776.752
 30
3838.381
 70
    32
  0
VERTEX
  8
T14SSILL
 62
8
 10
1318.168
 20
-2776.228
 30
3838.405
 70
    32
  0
VERTEX
  8
T14SSILL
 62
8
 10
1309.844
 20
-2781.169
 30
3838.453
 70
    32
  0
VERTEX
  8
T14SSILL
 62
8
 10
1307.332
 20
-2786.502
 30
3838.463
 70
    32
  0
VERTEX
  8
T14SSILL
 62
8
 10
1307.300
 20
-2788.876
 30
3838.461
 70
    32
  0
SEQEND
  8
T14SSILL
  0
POLYLINE
  8
T14SSILL
 62
8
 66
     1
 70
     9
  0
VERTEX
  8
T14SSILL
 62
8
 10
1408.896
 20
-2596.665
 30
3838.015
 70
    32
  0
VERTEX
  8
T14SSILL
 62
8
 10
1387.187
 20
-2566.759
 30
3838.180
 70
    32
  0
VERTEX
  8
T14SSILL
 62
8
 10
1381.234
 20
-2570.888
 30
3838.213
 70
    32
  0
VERTEX
  8
T14SSILL
 62
8
 10
1377.300
 20
-2565.634
 30
3838.243
 70
    32
  0
VERTEX
  8
T14SSILL
 62
8
 10
1371.413
 20
-2570.001
 30
3838.275
 70
    32
  0
VERTEX
  8
T14SSILL
 62
8
 10
1367.990
 20
-2567.445
 30
3838.299
 70
    32
  0
VERTEX
  8
T14SSILL
 62
8
 10
1345.591
 20
-2555.928
 30
3838.450
 70
    32
  0
VERTEX
  8
T14SSILL
 62
8
 10
1345.295
 20
-2554.793
 30
3838.453
 70
    32
  0
VERTEX
  8
T14SSILL
 62
8
 10
1382.878
 20
-2527.095
 30
3838.246
 70
    32
  0
VERTEX
  8
T14SSILL
 62
8
 10
1385.554
 20
-2528.428
 30
3838.228
 70
    32
  0
VERTEX
  8
T14SSILL
 62
8
 10
1388.614
 20
-2530.894
 30
3838.206
 70
    32
  0
VERTEX
  8
T14SSILL
 62
8
 10
1396.632
 20
-2547.208
 30
3838.140
 70
    32
  0
VERTEX
  8
T14SSILL
 62
8
 10
1418.640
 20
-2607.909
 30
3837.943
 70
    32
  0
VERTEX
  8
T14SSILL
 62
8
 10
1429.403
 20
-2634.914
 30
3837.849
 70
    32
  0
VERTEX
  8
T14SSILL
 62
8
 10
1432.516
 20
-2643.983
 30
3837.820
 70
    32
  0
VERTEX
  8
T14SSILL
 62
8
 10
1432.792
 20
-2648.284
 30
3837.814
 70
    32
  0
VERTEX
  8
T14SSILL
 62
8
 10
1430.563
 20
-2650.709
 30
3837.826
 70
    32
  0
VERTEX
  8
T14SSILL
 62
8
 10
1409.490
 20
-2636.698
 30
3837.971
 70
    32
  0
VERTEX
  8
T14SSILL
 62
8
 10
1402.420
 20
-2627.545
 30
3838.025
 70
    32
  0
VERTEX
  8
T14SSILL
 62
8
 10
1400.449
 20
-2622.229
 30
3838.042
 70
    32
  0
VERTEX
  8
T14SSILL
 62
8
 10
1389.993
 20
-2611.134
 30
3838.119
 70
    32
  0
VERTEX
  8
T14SSILL
 62
8
 10
1385.995
 20
-2598.085
 30
3838.156
 70
    32
  0
VERTEX
  8
T14SSILL
 62
8
 10
1387.199
 20
-2597.083
 30
3838.150
 70
    32
  0
VERTEX
  8
T14SSILL
 62
8
 10
1388.994
 20
-2598.353
 30
3838.137
 70
    32
  0
VERTEX
  8
T14SSILL
 62
8
 10
1393.948
 20
-2605.693
 30
3838.099
 70
    32
  0
VERTEX
  8
T14SSILL
 62
8
 10
1396.280
 20
-2607.299
 30
3838.083
 70
    32
  0
VERTEX
  8
T14SSILL
 62
8
 10
1404.642
 20
-2604.340
 30
3838.034
 70
    32
  0
VERTEX
  8
T14SSILL
 62
8
 10
1404.288
 20
-2600.161
 30
3838.040
 70
    32
  0
SEQEND
  8
T14SSILL
  0
POLYLINE
  8
T14SSILL
 62
8
 66
     1
 70
     9
  0
VERTEX
  8
T14SSILL
 62
8
 10
1412.487
 20
-2693.414
 30
3837.897
 70
    32
  0
VERTEX
  8
T14SSILL
 62
8
 10
1403.644
 20
-2694.939
 30
3837.951
 70
    32
  0
VERTEX
  8
T14SSILL
 62
8
 10
1403.082
 20
-2697.238
 30
3837.952
 70
    32
  0
VERTEX
  8
T14SSILL
 62
8
 10
1405.116
 20
-2701.498
 30
3837.935
 70
    32
  0
VERTEX
  8
T14SSILL
 62
8
 10
1407.905
 20
-2704.246
 30
3837.915
 70
    32
  0
VERTEX
  8
T14SSILL
 62
8
 10
1415.534
 20
-2703.452
 30
3837.868
 70
    32
  0
VERTEX
  8
T14SSILL
 62
8
 10
1417.512
 20
-2701.560
 30
3837.858
 70
    32
  0
VERTEX
  8
T14SSILL
 62
8
 10
1418.069
 20
-2699.085
 30
3837.857
 70
    32
  0
SEQEND
  8
T14SSILL
  0
POLYLINE
  8
T14SSILL
 62
8
 66
     1
 70
     9
  0
VERTEX
  8
T14SSILL
 62
8
 10
1322.812
 20
-2464.348
 30
3838.683
 70
    32
  0
VERTEX
  8
T14SSILL
 62
8
 10
1324.491
 20
-2477.257
 30
3838.660
 70
    32
  0
VERTEX
  8
T14SSILL
 62
8
 10
1324.139
 20
-2480.434
 30
3838.659
 70
    32
  0
VERTEX
  8
T14SSILL
 62
8
 10
1321.744
 20
-2482.876
 30
3838.671
 70
    32
  0
VERTEX
  8
T14SSILL
 62
8
 10
1320.338
 20
-2486.081
 30
3838.677
 70
    32
  0
VERTEX
  8
T14SSILL
 62
8
 10
1320.629
 20
-2490.208
 30
3838.671
 70
    32
  0
VERTEX
  8
T14SSILL
 62
8
 10
1328.095
 20
-2508.825
 30
3838.606
 70
    32
  0
VERTEX
  8
T14SSILL
 62
8
 10
1333.157
 20
-2516.865
 30
3838.567
 70
    32
  0
VERTEX
  8
T14SSILL
 62
8
 10
1334.253
 20
-2521.497
 30
3838.555
 70
    32
  0
VERTEX
  8
T14SSILL
 62
8
 10
1333.030
 20
-2528.128
 30
3838.556
 70
    32
  0
VERTEX
  8
T14SSILL
 62
8
 10
1329.312
 20
-2536.764
 30
3838.571
 70
    32
  0
VERTEX
  8
T14SSILL
 62
8
 10
1328.111
 20
-2544.187
 30
3838.571
 70
    32
  0
VERTEX
  8
T14SSILL
 62
8
 10
1336.615
 20
-2554.263
 30
3838.508
 70
    32
  0
VERTEX
  8
T14SSILL
 62
8
 10
1383.450
 20
-2519.162
 30
3838.250
 70
    32
  0
VERTEX
  8
T14SSILL
 62
8
 10
1384.692
 20
-2516.400
 30
3838.245
 70
    32
  0
VERTEX
  8
T14SSILL
 62
8
 10
1383.176
 20
-2509.317
 30
3838.261
 70
    32
  0
VERTEX
  8
T14SSILL
 62
8
 10
1371.060
 20
-2478.514
 30
3838.367
 70
    32
  0
VERTEX
  8
T14SSILL
 62
8
 10
1366.865
 20
-2466.843
 30
3838.405
 70
    32
  0
VERTEX
  8
T14SSILL
 62
8
 10
1364.204
 20
-2456.537
 30
3838.432
 70
    32
  0
VERTEX
  8
T14SSILL
 62
8
 10
1360.458
 20
-2451.539
 30
3838.460
 70
    32
  0
VERTEX
  8
T14SSILL
 62
8
 10
1352.728
 20
-2436.096
 30
3838.524
 70
    32
  0
VERTEX
  8
T14SSILL
 62
8
 10
1349.807
 20
-2435.473
 30
3838.542
 70
    32
  0
VERTEX
  8
T14SSILL
 62
8
 10
1346.680
 20
-2436.880
 30
3838.561
 70
    32
  0
VERTEX
  8
T14SSILL
 62
8
 10
1322.176
 20
-2454.099
 30
3838.697
 70
    32
  0
VERTEX
  8
T14SSILL
 62
8
 10
1322.157
 20
-2458.951
 30
3838.692
 70
    32
  0
SEQEND
  8
T14SSILL
  0
POLYLINE
  8
T14SSILL
 62
8
 66
     1
 70
     9
  0
VERTEX
  8
T14SSILL
 62
8
 10
1259.649
 20
-2660.771
 30
3838.885
 70
    32
  0
VERTEX
  8
T14SSILL
 62
8
 10
1248.484
 20
-2656.989
 30
3838.958
 70
    32
  0
VERTEX
  8
T14SSILL
 62
8
 10
1238.145
 20
-2650.901
 30
3839.029
 70
    32
  0
VERTEX
  8
T14SSILL
 62
8
 10
1235.431
 20
-2647.624
 30
3839.049
 70
    32
  0
VERTEX
  8
T14SSILL
 62
8
 10
1232.483
 20
-2645.584
 30
3839.070
 70
    32
  0
VERTEX
  8
T14SSILL
 62
8
 10
1228.501
 20
-2644.446
 30
3839.072
 70
    32
  0
VERTEX
  8
T14SSILL
 62
8
 10
1210.581
 20
-2656.293
 30
3839.086
 70
    32
  0
VERTEX
  8
T14SSILL
 62
8
 10
1207.155
 20
-2660.153
 30
3839.088
 70
    32
  0
VERTEX
  8
T14SSILL
 62
8
 10
1207.133
 20
-2662.966
 30
3839.089
 70
    32
  0
VERTEX
  8
T14SSILL
 62
8
 10
1265.163
 20
-2734.921
 30
3838.778
 70
    32
  0
VERTEX
  8
T14SSILL
 62
8
 10
1268.403
 20
-2734.406
 30
3838.758
 70
    32
  0
VERTEX
  8
T14SSILL
 62
8
 10
1286.612
 20
-2723.696
 30
3838.654
 70
    32
  0
VERTEX
  8
T14SSILL
 62
8
 10
1286.154
 20
-2719.135
 30
3838.662
 70
    32
  0
VERTEX
  8
T14SSILL
 62
8
 10
1290.178
 20
-2710.778
 30
3838.645
 70
    32
  0
VERTEX
  8
T14SSILL
 62
8
 10
1290.662
 20
-2705.141
 30
3838.647
 70
    32
  0
VERTEX
  8
T14SSILL
 62
8
 10
1289.302
 20
-2699.635
 30
3838.661
 70
    32
  0
VERTEX
  8
T14SSILL
 62
8
 10
1286.020
 20
-2694.613
 30
3838.687
 70
    32
  0
VERTEX
  8
T14SSILL
 62
8
 10
1274.883
 20
-2680.721
 30
3838.770
 70
    32
  0
VERTEX
  8
T14SSILL
 62
8
 10
1265.083
 20
-2671.368
 30
3838.840
 70
    32
  0
VERTEX
  8
T14SSILL
 62
8
 10
1264.331
 20
-2669.276
 30
3838.847
 70
    32
  0
VERTEX
  8
T14SSILL
 62
8
 10
1264.396
 20
-2664.528
 30
3838.851
 70
    32
  0
VERTEX
  8
T14SSILL
 62
8
 10
1262.232
 20
-2661.195
 30
3838.868
 70
    32
  0
SEQEND
  8
T14SSILL
  0
POLYLINE
  8
T14SSILL
 62
8
 66
     1
 70
     9
  0
VERTEX
  8
T14SSILL
 62
8
 10
1251.375
 20
-2652.790
 30
3838.944
 70
    32
  0
VERTEX
  8
T14SSILL
 62
8
 10
1257.863
 20
-2654.463
 30
3838.902
 70
    32
  0
VERTEX
  8
T14SSILL
 62
8
 10
1250.626
 20
-2643.313
 30
3838.958
 70
    32
  0
VERTEX
  8
T14SSILL
 62
8
 10
1242.828
 20
-2633.123
 30
3839.017
 70
    32
  0
VERTEX
  8
T14SSILL
 62
8
 10
1235.759
 20
-2639.090
 30
3839.056
 70
    32
  0
VERTEX
  8
T14SSILL
 62
8
 10
1238.297
 20
-2642.371
 30
3839.036
 70
    32
  0
VERTEX
  8
T14SSILL
 62
8
 10
1248.520
 20
-2651.010
 30
3838.964
 70
    32
  0
SEQEND
  8
T14SSILL
  0
POLYLINE
  8
T14SSILL
 62
8
 66
     1
 70
     9
  0
VERTEX
  8
T14SSILL
 62
8
 10
1370.760
 20
-2578.724
 30
3838.271
 70
    32
  0
VERTEX
  8
T14SSILL
 62
8
 10
1356.815
 20
-2570.483
 30
3838.366
 70
    32
  0
VERTEX
  8
T14SSILL
 62
8
 10
1350.689
 20
-2568.454
 30
3838.406
 70
    32
  0
VERTEX
  8
T14SSILL
 62
8
 10
1361.325
 20
-2580.825
 30
3838.328
 70
    32
  0
VERTEX
  8
T14SSILL
 62
8
 10
1365.764
 20
-2588.619
 30
3838.292
 70
    32
  0
VERTEX
  8
T14SSILL
 62
8
 10
1369.749
 20
-2586.397
 30
3838.269
 70
    32
  0
VERTEX
  8
T14SSILL
 62
8
 10
1370.167
 20
-2584.900
 30
3838.268
 70
    32
  0
VERTEX
  8
T14SSILL
 62
8
 10
1367.449
 20
-2581.050
 30
3838.289
 70
    32
  0
SEQEND
  8
T14SSILL
  0
POLYLINE
  8
T14SSILL
 62
8
 66
     1
 70
     9
  0
VERTEX
  8
T14SSILL
 62
8
 10
1274.613
 20
-2347.394
 30
3838.989
 70
    32
  0
VERTEX
  8
T14SSILL
 62
8
 10
1280.890
 20
-2356.439
 30
3838.986
 70
    32
  0
VERTEX
  8
T14SSILL
 62
8
 10
1300.060
 20
-2342.029
 30
3838.945
 70
    32
  0
VERTEX
  8
T14SSILL
 62
8
 10
1310.857
 20
-2331.700
 30
3838.888
 70
    32
  0
VERTEX
  8
T14SSILL
 62
8
 10
1311.672
 20
-2329.391
 30
3838.885
 70
    32
  0
VERTEX
  8
T14SSILL
 62
8
 10
1308.547
 20
-2327.718
 30
3838.906
 70
    32
  0
VERTEX
  8
T14SSILL
 62
8
 10
1297.125
 20
-2325.045
 30
3838.971
 70
    32
  0
VERTEX
  8
T14SSILL
 62
8
 10
1292.652
 20
-2325.521
 30
3838.973
 70
    32
  0
VERTEX
  8
T14SSILL
 62
8
 10
1279.565
 20
-2335.737
 30
3838.983
 70
    32
  0
VERTEX
  8
T14SSILL
 62
8
 10
1272.723
 20
-2339.622
 30
3838.988
 70
    32
  0
VERTEX
  8
T14SSILL
 62
8
 10
1267.662
 20
-2344.249
 30
3838.992
 70
    32
  0
VERTEX
  8
T14SSILL
 62
8
 10
1258.699
 20
-2357.253
 30
3839.000
 70
    32
  0
VERTEX
  8
T14SSILL
 62
8
 10
1258.579
 20
-2358.804
 30
3839.001
 70
    32
  0
SEQEND
  8
T14SSILL
  0
POLYLINE
  8
T14SSILL
 62
8
 66
     1
 70
     9
  0
VERTEX
  8
T14SSILL
 62
8
 10
1295.446
 20
-2377.414
 30
3838.939
 70
    32
  0
VERTEX
  8
T14SSILL
 62
8
 10
1287.013
 20
-2383.386
 30
3838.986
 70
    32
  0
VERTEX
  8
T14SSILL
 62
8
 10
1291.083
 20
-2386.173
 30
3838.958
 70
    32
  0
VERTEX
  8
T14SSILL
 62
8
 10
1322.426
 20
-2364.982
 30
3838.783
 70
    32
  0
VERTEX
  8
T14SSILL
 62
8
 10
1322.142
 20
-2357.952
 30
3838.792
 70
    32
  0
VERTEX
  8
T14SSILL
 62
8
 10
1315.245
 20
-2350.315
 30
3838.842
 70
    32
  0
VERTEX
  8
T14SSILL
 62
8
 10
1312.920
 20
-2348.972
 30
3838.858
 70
    32
  0
VERTEX
  8
T14SSILL
 62
8
 10
1310.112
 20
-2349.226
 30
3838.875
 70
    32
  0
VERTEX
  8
T14SSILL
 62
8
 10
1287.479
 20
-2365.934
 30
3838.984
 70
    32
  0
SEQEND
  8
T14SSILL
  0
POLYLINE
  8
T14SSILL
 62
8
 66
     1
 70
     9
  0
VERTEX
  8
T14SSILL
 62
8
 10
1249.128
 20
-2403.641
 30
3839.015
 70
    32
  0
VERTEX
  8
T14SSILL
 62
8
 10
1252.331
 20
-2407.948
 30
3839.014
 70
    32
  0
VERTEX
  8
T14SSILL
 62
8
 10
1281.910
 20
-2387.000
 30
3838.991
 70
    32
  0
VERTEX
  8
T14SSILL
 62
8
 10
1282.498
 20
-2390.634
 30
3838.992
 70
    32
  0
VERTEX
  8
T14SSILL
 62
8
 10
1280.985
 20
-2393.139
 30
3838.993
 70
    32
  0
VERTEX
  8
T14SSILL
 62
8
 10
1275.252
 20
-2398.929
 30
3838.998
 70
    32
  0
VERTEX
  8
T14SSILL
 62
8
 10
1257.496
 20
-2412.089
 30
3839.011
 70
    32
  0
VERTEX
  8
T14SSILL
 62
8
 10
1253.653
 20
-2413.076
 30
3839.014
 70
    32
  0
VERTEX
  8
T14SSILL
 62
8
 10
1251.178
 20
-2412.617
 30
3839.015
 70
    32
  0
VERTEX
  8
T14SSILL
 62
8
 10
1248.304
 20
-2410.498
 30
3839.017
 70
    32
  0
VERTEX
  8
T14SSILL
 62
8
 10
1246.786
 20
-2405.121
 30
3839.017
 70
    32
  0
SEQEND
  8
T14SSILL
  0
POLYLINE
  8
T14SSILL
 62
8
 66
     1
 70
     9
  0
VERTEX
  8
T14SSILL
 62
8
 10
1250.457
 20
-2364.585
 30
3839.007
 70
    32
  0
VERTEX
  8
T14SSILL
 62
8
 10
1231.330
 20
-2378.197
 30
3839.021
 70
    32
  0
VERTEX
  8
T14SSILL
 62
8
 10
1227.696
 20
-2373.149
 30
3839.022
 70
    32
  0
VERTEX
  8
T14SSILL
 62
8
 10
1227.620
 20
-2372.103
 30
3839.022
 70
    32
  0
VERTEX
  8
T14SSILL
 62
8
 10
1229.813
 20
-2368.700
 30
3839.020
 70
    32
  0
VERTEX
  8
T14SSILL
 62
8
 10
1242.988
 20
-2367.982
 30
3839.012
 70
    32
  0
SEQEND
  8
T14SSILL
  0
POLYLINE
  8
T14SSILL
 62
8
 66
     1
 70
     9
  0
VERTEX
  8
T14SSILL
 62
8
 10
1342.175
 20
-2433.047
 30
3838.593
 70
    32
  0
VERTEX
  8
T14SSILL
 62
8
 10
1344.038
 20
-2430.444
 30
3838.583
 70
    32
  0
VERTEX
  8
T14SSILL
 62
8
 10
1344.807
 20
-2426.464
 30
3838.583
 70
    32
  0
VERTEX
  8
T14SSILL
 62
8
 10
1339.967
 20
-2413.755
 30
3838.625
 70
    32
  0
VERTEX
  8
T14SSILL
 62
8
 10
1337.474
 20
-2412.681
 30
3838.642
 70
    32
  0
VERTEX
  8
T14SSILL
 62
8
 10
1312.734
 20
-2430.874
 30
3838.779
 70
    32
  0
VERTEX
  8
T14SSILL
 62
8
 10
1310.724
 20
-2434.537
 30
3838.788
 70
    32
  0
VERTEX
  8
T14SSILL
 62
8
 10
1311.345
 20
-2441.029
 30
3838.777
 70
    32
  0
VERTEX
  8
T14SSILL
 62
8
 10
1312.605
 20
-2445.216
 30
3838.765
 70
    32
  0
VERTEX
  8
T14SSILL
 62
8
 10
1313.913
 20
-2447.995
 30
3838.755
 70
    32
  0
VERTEX
  8
T14SSILL
 62
8
 10
1317.227
 20
-2450.102
 30
3838.732
 70
    32
  0
SEQEND
  8
T14SSILL
  0
POLYLINE
  8
T14SSILL
 62
8
 66
     1
 70
     9
  0
VERTEX
  8
T14SSILL
 62
8
 10
1380.815
 20
-2389.573
 30
3838.394
 70
    32
  0
VERTEX
  8
T14SSILL
 62
8
 10
1360.917
 20
-2322.480
 30
3838.584
 70
    32
  0
VERTEX
  8
T14SSILL
 62
8
 10
1359.091
 20
-2320.068
 30
3838.598
 70
    32
  0
VERTEX
  8
T14SSILL
 62
8
 10
1354.427
 20
-2320.021
 30
3838.627
 70
    32
  0
VERTEX
  8
T14SSILL
 62
8
 10
1335.226
 20
-2331.815
 30
3838.735
 70
    32
  0
VERTEX
  8
T14SSILL
 62
8
 10
1332.470
 20
-2333.914
 30
3838.751
 70
    32
  0
VERTEX
  8
T14SSILL
 62
8
 10
1331.220
 20
-2336.412
 30
3838.756
 70
    32
  0
VERTEX
  8
T14SSILL
 62
8
 10
1331.120
 20
-2339.142
 30
3838.754
 70
    32
  0
VERTEX
  8
T14SSILL
 62
8
 10
1333.317
 20
-2348.581
 30
3838.731
 70
    32
  0
VERTEX
  8
T14SSILL
 62
8
 10
1337.984
 20
-2364.549
 30
3838.686
 70
    32
  0
VERTEX
  8
T14SSILL
 62
8
 10
1347.269
 20
-2375.815
 30
3838.617
 70
    32
  0
VERTEX
  8
T14SSILL
 62
8
 10
1350.881
 20
-2382.312
 30
3838.588
 70
    32
  0
VERTEX
  8
T14SSILL
 62
8
 10
1353.410
 20
-2391.038
 30
3838.564
 70
    32
  0
VERTEX
  8
T14SSILL
 62
8
 10
1353.911
 20
-2396.390
 30
3838.555
 70
    32
  0
VERTEX
  8
T14SSILL
 62
8
 10
1361.143
 20
-2419.236
 30
3838.487
 70
    32
  0
VERTEX
  8
T14SSILL
 62
8
 10
1383.916
 20
-2403.033
 30
3838.361
 70
    32
  0
VERTEX
  8
T14SSILL
 62
8
 10
1384.658
 20
-2401.253
 30
3838.358
 70
    32
  0
VERTEX
  8
T14SSILL
 62
8
 10
1384.251
 20
-2399.241
 30
3838.363
 70
    32
  0
SEQEND
  8
T14SSILL
  0
POLYLINE
  8
T14SSILL
 62
8
 66
     1
 70
     9
  0
VERTEX
  8
T14SSILL
 62
8
 10
1372.739
 20
-2418.650
 30
3838.416
 70
    32
  0
VERTEX
  8
T14SSILL
 62
8
 10
1365.233
 20
-2423.961
 30
3838.457
 70
    32
  0
VERTEX
  8
T14SSILL
 62
8
 10
1365.387
 20
-2429.498
 30
3838.451
 70
    32
  0
VERTEX
  8
T14SSILL
 62
8
 10
1369.545
 20
-2439.851
 30
3838.415
 70
    32
  0
VERTEX
  8
T14SSILL
 62
8
 10
1373.401
 20
-2461.471
 30
3838.369
 70
    32
  0
VERTEX
  8
T14SSILL
 62
8
 10
1379.166
 20
-2472.659
 30
3838.322
 70
    32
  0
VERTEX
  8
T14SSILL
 62
8
 10
1380.870
 20
-2473.843
 30
3838.310
 70
    32
  0
VERTEX
  8
T14SSILL
 62
8
 10
1383.678
 20
-2473.589
 30
3838.293
 70
    32
  0
VERTEX
  8
T14SSILL
 62
8
 10
1384.955
 20
-2472.058
 30
3838.287
 70
    32
  0
VERTEX
  8
T14SSILL
 62
8
 10
1396.555
 20
-2443.146
 30
3838.243
 70
    32
  0
VERTEX
  8
T14SSILL
 62
8
 10
1389.735
 20
-2419.321
 30
3838.309
 70
    32
  0
VERTEX
  8
T14SSILL
 62
8
 10
1387.298
 20
-2413.935
 30
3838.329
 70
    32
  0
VERTEX
  8
T14SSILL
 62
8
 10
1382.429
 20
-2412.839
 30
3838.361
 70
    32
  0
VERTEX
  8
T14SSILL
 62
8
 10
1380.693
 20
-2413.679
 30
3838.371
 70
    32
  0
SEQEND
  8
T14SSILL
  0
POLYLINE
  8
T14SSILL
 62
8
 66
     1
 70
     9
  0
VERTEX
  8
T14SSILL
 62
8
 10
1553.948
 20
-2513.543
 30
3837.189
 70
    32
  0
VERTEX
  8
T14SSILL
 62
8
 10
1548.403
 20
-2516.600
 30
3837.221
 70
    32
  0
VERTEX
  8
T14SSILL
 62
8
 10
1547.231
 20
-2518.743
 30
3837.226
 70
    32
  0
VERTEX
  8
T14SSILL
 62
8
 10
1552.256
 20
-2531.799
 30
3837.182
 70
    32
  0
VERTEX
  8
T14SSILL
 62
8
 10
1566.413
 20
-2541.081
 30
3837.084
 70
    32
  0
VERTEX
  8
T14SSILL
 62
8
 10
1570.776
 20
-2542.983
 30
3837.055
 70
    32
  0
VERTEX
  8
T14SSILL
 62
8
 10
1583.572
 20
-2534.975
 30
3836.983
 70
    32
  0
VERTEX
  8
T14SSILL
 62
8
 10
1591.884
 20
-2527.003
 30
3836.939
 70
    32
  0
VERTEX
  8
T14SSILL
 62
8
 10
1593.441
 20
-2522.913
 30
3836.933
 70
    32
  0
VERTEX
  8
T14SSILL
 62
8
 10
1592.132
 20
-2516.967
 30
3836.947
 70
    32
  0
VERTEX
  8
T14SSILL
 62
8
 10
1582.617
 20
-2500.606
 30
3837.023
 70
    32
  0
VERTEX
  8
T14SSILL
 62
8
 10
1579.465
 20
-2497.967
 30
3837.045
 70
    32
  0
VERTEX
  8
T14SSILL
 62
8
 10
1576.286
 20
-2497.528
 30
3837.065
 70
    32
  0
SEQEND
  8
T14SSILL
  0
POLYLINE
  8
T14SSILL
 62
8
 66
     1
 70
     9
  0
VERTEX
  8
T14SSILL
 62
8
 10
1431.821
 20
-2708.257
 30
3837.761
 70
    32
  0
VERTEX
  8
T14SSILL
 62
8
 10
1427.144
 20
-2703.708
 30
3837.795
 70
    32
  0
VERTEX
  8
T14SSILL
 62
8
 10
1423.141
 20
-2705.472
 30
3837.819
 70
    32
  0
VERTEX
  8
T14SSILL
 62
8
 10
1420.584
 20
-2708.872
 30
3837.831
 70
    32
  0
VERTEX
  8
T14SSILL
 62
8
 10
1420.032
 20
-2711.610
 30
3837.832
 70
    32
  0
VERTEX
  8
T14SSILL
 62
8
 10
1424.205
 20
-2717.138
 30
3837.800
 70
    32
  0
VERTEX
  8
T14SSILL
 62
8
 10
1426.557
 20
-2716.204
 30
3837.787
 70
    32
  0
VERTEX
  8
T14SSILL
 62
8
 10
1429.035
 20
-2713.157
 30
3837.774
 70
    32
  0
SEQEND
  8
T14SSILL
  0
POLYLINE
  8
T14SSILL
 62
8
 66
     1
 70
     9
  0
VERTEX
  8
T14SSILL
 62
8
 10
1437.047
 20
-2702.421
 30
3837.735
 70
    32
  0
VERTEX
  8
T14SSILL
 62
8
 10
1450.928
 20
-2687.065
 30
3837.663
 70
    32
  0
VERTEX
  8
T14SSILL
 62
8
 10
1452.393
 20
-2682.020
 30
3837.659
 70
    32
  0
VERTEX
  8
T14SSILL
 62
8
 10
1450.729
 20
-2678.543
 30
3837.672
 70
    32
  0
VERTEX
  8
T14SSILL
 62
8
 10
1428.985
 20
-2658.394
 30
3837.828
 70
    32
  0
VERTEX
  8
T14SSILL
 62
8
 10
1417.722
 20
-2654.174
 30
3837.903
 70
    32
  0
VERTEX
  8
T14SSILL
 62
8
 10
1415.630
 20
-2654.926
 30
3837.915
 70
    32
  0
VERTEX
  8
T14SSILL
 62
8
 10
1414.278
 20
-2657.243
 30
3837.921
 70
    32
  0
VERTEX
  8
T14SSILL
 62
8
 10
1414.244
 20
-2659.530
 30
3837.919
 70
    32
  0
VERTEX
  8
T14SSILL
 62
8
 10
1419.700
 20
-2667.314
 30
3837.878
 70
    32
  0
VERTEX
  8
T14SSILL
 62
8
 10
1423.808
 20
-2677.590
 30
3837.842
 70
    32
  0
VERTEX
  8
T14SSILL
 62
8
 10
1424.698
 20
-2689.349
 30
3837.825
 70
    32
  0
VERTEX
  8
T14SSILL
 62
8
 10
1424.049
 20
-2691.649
 30
3837.826
 70
    32
  0
VERTEX
  8
T14SSILL
 62
8
 10
1424.688
 20
-2692.689
 30
3837.821
 70
    32
  0
SEQEND
  8
T14SSILL
  0
POLYLINE
  8
T14SSILL
 62
8
 66
     1
 70
     9
  0
VERTEX
  8
T14SSILL
 62
8
 10
1541.739
 20
-2574.315
 30
3837.206
 70
    32
  0
VERTEX
  8
T14SSILL
 62
8
 10
1541.368
 20
-2583.122
 30
3837.199
 70
    32
  0
VERTEX
  8
T14SSILL
 62
8
 10
1545.667
 20
-2595.405
 30
3837.160
 70
    32
  0
VERTEX
  8
T14SSILL
 62
8
 10
1549.523
 20
-2598.025
 30
3837.134
 70
    32
  0
VERTEX
  8
T14SSILL
 62
8
 10
1553.788
 20
-2596.411
 30
3837.109
 70
    32
  0
VERTEX
  8
T14SSILL
 62
8
 10
1560.190
 20
-2589.372
 30
3837.076
 70
    32
  0
VERTEX
  8
T14SSILL
 62
8
 10
1563.665
 20
-2587.780
 30
3837.055
 70
    32
  0
VERTEX
  8
T14SSILL
 62
8
 10
1581.095
 20
-2575.596
 30
3836.958
 70
    32
  0
VERTEX
  8
T14SSILL
 62
8
 10
1583.544
 20
-2571.921
 30
3836.947
 70
    32
  0
VERTEX
  8
T14SSILL
 62
8
 10
1583.292
 20
-2569.201
 30
3836.951
 70
    32
  0
VERTEX
  8
T14SSILL
 62
8
 10
1554.876
 20
-2540.610
 30
3837.157
 70
    32
  0
VERTEX
  8
T14SSILL
 62
8
 10
1547.292
 20
-2536.775
 30
3837.208
 70
    32
  0
SEQEND
  8
T14SSILL
  0
POLYLINE
  8
T14SSILL
 62
8
 66
     1
 70
     9
  0
VERTEX
  8
T14SSILL
 62
8
 10
1487.385
 20
-2337.796
 30
3837.778
 70
    32
  0
VERTEX
  8
T14SSILL
 62
8
 10
1476.557
 20
-2343.368
 30
3837.840
 70
    32
  0
VERTEX
  8
T14SSILL
 62
8
 10
1467.677
 20
-2346.694
 30
3837.893
 70
    32
  0
VERTEX
  8
T14SSILL
 62
8
 10
1468.017
 20
-2349.411
 30
3837.888
 70
    32
  0
VERTEX
  8
T14SSILL
 62
8
 10
1471.040
 20
-2353.726
 30
3837.865
 70
    32
  0
VERTEX
  8
T14SSILL
 62
8
 10
1508.981
 20
-2437.030
 30
3837.545
 70
    32
  0
VERTEX
  8
T14SSILL
 62
8
 10
1511.455
 20
-2437.402
 30
3837.530
 70
    32
  0
VERTEX
  8
T14SSILL
 62
8
 10
1513.359
 20
-2436.293
 30
3837.519
 70
    32
  0
VERTEX
  8
T14SSILL
 62
8
 10
1536.974
 20
-2418.747
 30
3837.388
 70
    32
  0
VERTEX
  8
T14SSILL
 62
8
 10
1538.278
 20
-2415.016
 30
3837.384
 70
    32
  0
VERTEX
  8
T14SSILL
 62
8
 10
1533.031
 20
-2403.463
 30
3837.428
 70
    32
  0
VERTEX
  8
T14SSILL
 62
8
 10
1527.832
 20
-2387.333
 30
3837.476
 70
    32
  0
VERTEX
  8
T14SSILL
 62
8
 10
1511.573
 20
-2346.705
 30
3837.618
 70
    32
  0
VERTEX
  8
T14SSILL
 62
8
 10
1512.166
 20
-2342.730
 30
3837.618
 70
    32
  0
VERTEX
  8
T14SSILL
 62
8
 10
1507.742
 20
-2332.297
 30
3837.656
 70
    32
  0
VERTEX
  8
T14SSILL
 62
8
 10
1501.816
 20
-2327.976
 30
3837.697
 70
    32
  0
VERTEX
  8
T14SSILL
 62
8
 10
1498.329
 20
-2329.128
 30
3837.718
 70
    32
  0
VERTEX
  8
T14SSILL
 62
8
 10
1489.579
 20
-2336.061
 30
3837.766
 70
    32
  0
SEQEND
  8
T14SSILL
  0
POLYLINE
  8
T14SSILL
 62
8
 66
     1
 70
     9
  0
VERTEX
  8
T14SSILL
 62
8
 10
1515.483
 20
-2450.827
 30
3837.491
 70
    32
  0
VERTEX
  8
T14SSILL
 62
8
 10
1527.404
 20
-2476.367
 30
3837.392
 70
    32
  0
VERTEX
  8
T14SSILL
 62
8
 10
1529.656
 20
-2478.240
 30
3837.376
 70
    32
  0
VERTEX
  8
T14SSILL
 62
8
 10
1538.799
 20
-2478.073
 30
3837.319
 70
    32
  0
VERTEX
  8
T14SSILL
 62
8
 10
1546.246
 20
-2473.820
 30
3837.276
 70
    32
  0
VERTEX
  8
T14SSILL
 62
8
 10
1552.709
 20
-2468.978
 30
3837.241
 70
    32
  0
VERTEX
  8
T14SSILL
 62
8
 10
1564.236
 20
-2462.764
 30
3837.175
 70
    32
  0
VERTEX
  8
T14SSILL
 62
8
 10
1573.455
 20
-2455.822
 30
3837.124
 70
    32
  0
VERTEX
  8
T14SSILL
 62
8
 10
1562.856
 20
-2438.436
 30
3837.207
 70
    32
  0
VERTEX
  8
T14SSILL
 62
8
 10
1558.766
 20
-2433.711
 30
3837.237
 70
    32
  0
VERTEX
  8
T14SSILL
 62
8
 10
1554.752
 20
-2430.505
 30
3837.266
 70
    32
  0
VERTEX
  8
T14SSILL
 62
8
 10
1552.564
 20
-2432.124
 30
3837.278
 70
    32
  0
VERTEX
  8
T14SSILL
 62
8
 10
1549.539
 20
-2427.841
 30
3837.301
 70
    32
  0
VERTEX
  8
T14SSILL
 62
8
 10
1537.563
 20
-2436.764
 30
3837.367
 70
    32
  0
VERTEX
  8
T14SSILL
 62
8
 10
1533.141
 20
-2431.151
 30
3837.400
 70
    32
  0
VERTEX
  8
T14SSILL
 62
8
 10
1531.758
 20
-2431.636
 30
3837.408
 70
    32
  0
VERTEX
  8
T14SSILL
 62
8
 10
1514.893
 20
-2443.621
 30
3837.502
 70
    32
  0
SEQEND
  8
T14SSILL
  0
POLYLINE
  8
T14SSILL
 62
8
 66
     1
 70
     9
  0
VERTEX
  8
T14SSILL
 62
8
 10
1534.390
 20
-2490.335
 30
3837.334
 70
    32
  0
VERTEX
  8
T14SSILL
 62
8
 10
1542.374
 20
-2508.586
 30
3837.266
 70
    32
  0
VERTEX
  8
T14SSILL
 62
8
 10
1544.679
 20
-2509.226
 30
3837.251
 70
    32
  0
VERTEX
  8
T14SSILL
 62
8
 10
1552.107
 20
-2507.436
 30
3837.207
 70
    32
  0
VERTEX
  8
T14SSILL
 62
8
 10
1555.884
 20
-2504.076
 30
3837.186
 70
    32
  0
VERTEX
  8
T14SSILL
 62
8
 10
1575.492
 20
-2491.128
 30
3837.076
 70
    32
  0
VERTEX
  8
T14SSILL
 62
8
 10
1577.524
 20
-2488.257
 30
3837.066
 70
    32
  0
VERTEX
  8
T14SSILL
 62
8
 10
1576.364
 20
-2481.340
 30
3837.081
 70
    32
  0
VERTEX
  8
T14SSILL
 62
8
 10
1572.364
 20
-2470.367
 30
3837.116
 70
    32
  0
VERTEX
  8
T14SSILL
 62
8
 10
1571.080
 20
-2468.468
 30
3837.126
 70
    32
  0
VERTEX
  8
T14SSILL
 62
8
 10
1569.571
 20
-2467.982
 30
3837.136
 70
    32
  0
SEQEND
  8
T14SSILL
  0
POLYLINE
  8
T14SSILL
 62
8
 66
     1
 70
     9
  0
VERTEX
  8
T14SSILL
 62
8
 10
1512.950
 20
-2327.139
 30
3837.629
 70
    32
  0
VERTEX
  8
T14SSILL
 62
8
 10
1515.252
 20
-2333.496
 30
3837.608
 70
    32
  0
VERTEX
  8
T14SSILL
 62
8
 10
1517.970
 20
-2336.323
 30
3837.588
 70
    32
  0
VERTEX
  8
T14SSILL
 62
8
 10
1525.775
 20
-2332.324
 30
3837.543
 70
    32
  0
VERTEX
  8
T14SSILL
 62
8
 10
1534.231
 20
-2326.371
 30
3837.496
 70
    32
  0
VERTEX
  8
T14SSILL
 62
8
 10
1539.068
 20
-2312.657
 30
3837.480
 70
    32
  0
VERTEX
  8
T14SSILL
 62
8
 10
1528.961
 20
-2320.360
 30
3837.535
 70
    32
  0
VERTEX
  8
T14SSILL
 62
8
 10
1526.326
 20
-2316.854
 30
3837.555
 70
    32
  0
SEQEND
  8
T14SSILL
  0
POLYLINE
  8
T14SSILL
 62
8
 66
     1
 70
     9
  0
VERTEX
  8
T14SSILL
 62
8
 10
1778.091
 20
-2904.363
 30
3837.150
 70
    32
  0
VERTEX
  8
T14SSILL
 62
8
 10
1765.947
 20
-2911.327
 30
3837.275
 70
    32
  0
VERTEX
  8
T14SSILL
 62
8
 10
1761.314
 20
-2916.182
 30
3837.338
 70
    32
  0
VERTEX
  8
T14SSILL
 62
8
 10
1776.826
 20
-2936.741
 30
3837.381
 70
    32
  0
VERTEX
  8
T14SSILL
 62
8
 10
1803.335
 20
-2923.814
 30
3837.124
 70
    32
  0
VERTEX
  8
T14SSILL
 62
8
 10
1805.653
 20
-2921.475
 30
3837.093
 70
    32
  0
VERTEX
  8
T14SSILL
 62
8
 10
1805.686
 20
-2919.101
 30
3837.077
 70
    32
  0
VERTEX
  8
T14SSILL
 62
8
 10
1797.578
 20
-2903.204
 30
3837.019
 70
    32
  0
VERTEX
  8
T14SSILL
 62
8
 10
1797.102
 20
-2897.853
 30
3836.985
 70
    32
  0
VERTEX
  8
T14SSILL
 62
8
 10
1795.912
 20
-2895.859
 30
3836.979
 70
    32
  0
VERTEX
  8
T14SSILL
 62
8
 10
1793.949
 20
-2894.586
 30
3836.983
 70
    32
  0
VERTEX
  8
T14SSILL
 62
8
 10
1791.850
 20
-2895.075
 30
3836.999
 70
    32
  0
VERTEX
  8
T14SSILL
 62
8
 10
1788.396
 20
-2897.705
 30
3837.039
 70
    32
  0
SEQEND
  8
T14SSILL
  0
POLYLINE
  8
T14SSILL
 62
8
 66
     1
 70
     9
  0
VERTEX
  8
T14SSILL
 62
8
 10
1793.233
 20
-2935.390
 30
3837.268
 70
    32
  0
VERTEX
  8
T14SSILL
 62
8
 10
1785.185
 20
-2940.853
 30
3837.356
 70
    32
  0
VERTEX
  8
T14SSILL
 62
8
 10
1782.873
 20
-2943.456
 30
3837.389
 70
    32
  0
VERTEX
  8
T14SSILL
 62
8
 10
1782.912
 20
-2945.125
 30
3837.400
 70
    32
  0
VERTEX
  8
T14SSILL
 62
8
 10
1796.011
 20
-2963.982
 30
3837.447
 70
    32
  0
VERTEX
  8
T14SSILL
 62
8
 10
1814.754
 20
-2957.303
 30
3837.282
 70
    32
  0
VERTEX
  8
T14SSILL
 62
8
 10
1819.169
 20
-2954.387
 30
3837.234
 70
    32
  0
VERTEX
  8
T14SSILL
 62
8
 10
1821.032
 20
-2951.354
 30
3837.201
 70
    32
  0
VERTEX
  8
T14SSILL
 62
8
 10
1820.970
 20
-2944.939
 30
3837.158
 70
    32
  0
VERTEX
  8
T14SSILL
 62
8
 10
1819.196
 20
-2940.497
 30
3837.138
 70
    32
  0
VERTEX
  8
T14SSILL
 62
8
 10
1810.059
 20
-2929.459
 30
3837.120
 70
    32
  0
VERTEX
  8
T14SSILL
 62
8
 10
1807.941
 20
-2929.069
 30
3837.131
 70
    32
  0
VERTEX
  8
T14SSILL
 62
8
 10
1805.499
 20
-2929.917
 30
3837.152
 70
    32
  0
SEQEND
  8
T14SSILL
  0
POLYLINE
  8
T14SSILL
 62
8
 66
     1
 70
     9
  0
VERTEX
  8
T14SSILL
 62
8
 10
1817.245
 20
-2992.406
 30
3837.508
 70
    32
  0
VERTEX
  8
T14SSILL
 62
8
 10
1824.408
 20
-3001.732
 30
3837.526
 70
    32
  0
VERTEX
  8
T14SSILL
 62
8
 10
1841.767
 20
-2988.492
 30
3837.325
 70
    32
  0
VERTEX
  8
T14SSILL
 62
8
 10
1843.989
 20
-2985.803
 30
3837.293
 70
    32
  0
VERTEX
  8
T14SSILL
 62
8
 10
1844.049
 20
-2984.571
 30
3837.284
 70
    32
  0
VERTEX
  8
T14SSILL
 62
8
 10
1835.350
 20
-2977.215
 30
3837.289
 70
    32
  0
VERTEX
  8
T14SSILL
 62
8
 10
1832.054
 20
-2975.358
 30
3837.297
 70
    32
  0
VERTEX
  8
T14SSILL
 62
8
 10
1830.064
 20
-2972.943
 30
3837.293
 70
    32
  0
VERTEX
  8
T14SSILL
 62
8
 10
1827.329
 20
-2965.008
 30
3837.255
 70
    32
  0
VERTEX
  8
T14SSILL
 62
8
 10
1825.408
 20
-2961.800
 30
3837.246
 70
    32
  0
VERTEX
  8
T14SSILL
 62
8
 10
1823.890
 20
-2960.781
 30
3837.248
 70
    32
  0
VERTEX
  8
T14SSILL
 62
8
 10
1822.040
 20
-2960.648
 30
3837.259
 70
    32
  0
VERTEX
  8
T14SSILL
 62
8
 10
1803.422
 20
-2968.907
 30
3837.434
 70
    32
  0
VERTEX
  8
T14SSILL
 62
8
 10
1801.355
 20
-2970.714
 30
3837.459
 70
    32
  0
VERTEX
  8
T14SSILL
 62
8
 10
1802.544
 20
-2972.708
 30
3837.465
 70
    32
  0
SEQEND
  8
T14SSILL
  0
POLYLINE
  8
T14SSILL
 62
8
 66
     1
 70
     9
  0
VERTEX
  8
T14SSILL
 62
8
 10
1714.293
 20
-2830.081
 30
3836.910
 70
    32
  0
VERTEX
  8
T14SSILL
 62
8
 10
1705.570
 20
-2836.702
 30
3837.005
 70
    32
  0
VERTEX
  8
T14SSILL
 62
8
 10
1705.227
 20
-2840.841
 30
3837.050
 70
    32
  0
VERTEX
  8
T14SSILL
 62
8
 10
1755.138
 20
-2907.712
 30
3837.319
 70
    32
  0
VERTEX
  8
T14SSILL
 62
8
 10
1757.696
 20
-2908.092
 30
3837.305
 70
    32
  0
VERTEX
  8
T14SSILL
 62
8
 10
1759.954
 20
-2906.896
 30
3837.283
 70
    32
  0
VERTEX
  8
T14SSILL
 62
8
 10
1786.566
 20
-2890.891
 30
3837.004
 70
    32
  0
VERTEX
  8
T14SSILL
 62
8
 10
1790.108
 20
-2884.479
 30
3836.938
 70
    32
  0
VERTEX
  8
T14SSILL
 62
8
 10
1781.619
 20
-2871.052
 30
3836.899
 70
    32
  0
VERTEX
  8
T14SSILL
 62
8
 10
1778.865
 20
-2869.798
 30
3836.908
 70
    32
  0
VERTEX
  8
T14SSILL
 62
8
 10
1774.886
 20
-2861.276
 30
3836.875
 70
    32
  0
VERTEX
  8
T14SSILL
 62
8
 10
1763.570
 20
-2854.772
 30
3836.902
 70
    32
  0
VERTEX
  8
T14SSILL
 62
8
 10
1758.504
 20
-2848.650
 30
3836.892
 70
    32
  0
VERTEX
  8
T14SSILL
 62
8
 10
1754.363
 20
-2840.747
 30
3836.863
 70
    32
  0
VERTEX
  8
T14SSILL
 62
8
 10
1744.164
 20
-2825.602
 30
3836.781
 70
    32
  0
VERTEX
  8
T14SSILL
 62
8
 10
1736.485
 20
-2816.728
 30
3836.707
 70
    32
  0
VERTEX
  8
T14SSILL
 62
8
 10
1734.266
 20
-2815.813
 30
3836.704
 70
    32
  0
VERTEX
  8
T14SSILL
 62
8
 10
1732.351
 20
-2816.649
 30
3836.718
 70
    32
  0
SEQEND
  8
T14SSILL
  0
POLYLINE
  8
T14SSILL
 62
8
 66
     1
 70
     9
  0
VERTEX
  8
T14SSILL
 62
8
 10
1842.187
 20
-2998.943
 30
3837.395
 70
    32
  0
VERTEX
  8
T14SSILL
 62
8
 10
1832.550
 20
-3007.871
 30
3837.517
 70
    32
  0
VERTEX
  8
T14SSILL
 62
8
 10
1831.386
 20
-3010.711
 30
3837.544
 70
    32
  0
VERTEX
  8
T14SSILL
 62
8
 10
1831.628
 20
-3013.519
 30
3837.562
 70
    32
  0
VERTEX
  8
T14SSILL
 62
8
 10
1832.451
 20
-3014.906
 30
3837.566
 70
    32
  0
VERTEX
  8
T14SSILL
 62
8
 10
1839.817
 20
-3017.898
 30
3837.540
 70
    32
  0
VERTEX
  8
T14SSILL
 62
8
 10
1842.901
 20
-3021.957
 30
3837.548
 70
    32
  0
VERTEX
  8
T14SSILL
 62
8
 10
1845.772
 20
-3028.219
 30
3837.573
 70
    32
  0
VERTEX
  8
T14SSILL
 62
8
 10
1851.193
 20
-3026.950
 30
3837.530
 70
    32
  0
VERTEX
  8
T14SSILL
 62
8
 10
1863.479
 20
-3018.575
 30
3837.395
 70
    32
  0
VERTEX
  8
T14SSILL
 62
8
 10
1865.287
 20
-3016.951
 30
3837.372
 70
    32
  0
VERTEX
  8
T14SSILL
 62
8
 10
1868.188
 20
-3009.411
 30
3837.302
 70
    32
  0
VERTEX
  8
T14SSILL
 62
8
 10
1857.273
 20
-2993.756
 30
3837.263
 70
    32
  0
VERTEX
  8
T14SSILL
 62
8
 10
1854.502
 20
-2991.799
 30
3837.268
 70
    32
  0
VERTEX
  8
T14SSILL
 62
8
 10
1851.427
 20
-2991.871
 30
3837.287
 70
    32
  0
VERTEX
  8
T14SSILL
 62
8
 10
1848.731
 20
-2993.076
 30
3837.313
 70
    32
  0
SEQEND
  8
T14SSILL
  0
POLYLINE
  8
T14SSILL
 62
8
 66
     1
 70
     9
  0
VERTEX
  8
T14SSILL
 62
8
 10
1882.801
 20
-3059.175
 30
3837.551
 70
    32
  0
VERTEX
  8
T14SSILL
 62
8
 10
1874.186
 20
-3066.673
 30
3837.657
 70
    32
  0
VERTEX
  8
T14SSILL
 62
8
 10
1874.496
 20
-3068.687
 30
3837.669
 70
    32
  0
VERTEX
  8
T14SSILL
 62
8
 10
1888.098
 20
-3086.477
 30
3837.705
 70
    32
  0
VERTEX
  8
T14SSILL
 62
8
 10
1890.031
 20
-3086.432
 30
3837.693
 70
    32
  0
VERTEX
  8
T14SSILL
 62
8
 10
1906.185
 20
-3074.275
 30
3837.507
 70
    32
  0
VERTEX
  8
T14SSILL
 62
8
 10
1908.142
 20
-3071.504
 30
3837.476
 70
    32
  0
VERTEX
  8
T14SSILL
 62
8
 10
1908.450
 20
-3069.651
 30
3837.461
 70
    32
  0
VERTEX
  8
T14SSILL
 62
8
 10
1905.536
 20
-3065.324
 30
3837.450
 70
    32
  0
VERTEX
  8
T14SSILL
 62
8
 10
1902.755
 20
-3062.928
 30
3837.451
 70
    32
  0
VERTEX
  8
T14SSILL
 62
8
 10
1901.610
 20
-3059.087
 30
3837.432
 70
    32
  0
VERTEX
  8
T14SSILL
 62
8
 10
1899.881
 20
-3056.578
 30
3837.425
 70
    32
  0
VERTEX
  8
T14SSILL
 62
8
 10
1895.472
 20
-3052.198
 30
3837.423
 70
    32
  0
VERTEX
  8
T14SSILL
 62
8
 10
1891.872
 20
-3052.370
 30
3837.447
 70
    32
  0
VERTEX
  8
T14SSILL
 62
8
 10
1889.963
 20
-3053.470
 30
3837.467
 70
    32
  0
SEQEND
  8
T14SSILL
  0
POLYLINE
  8
T14SSILL
 62
8
 66
     1
 70
     9
  0
VERTEX
  8
T14SSILL
 62
8
 10
1902.991
 20
-3106.875
 30
3837.751
 70
    32
  0
VERTEX
  8
T14SSILL
 62
8
 10
1909.725
 20
-3116.650
 30
3837.776
 70
    32
  0
VERTEX
  8
T14SSILL
 62
8
 10
1912.986
 20
-3117.014
 30
3837.758
 70
    32
  0
VERTEX
  8
T14SSILL
 62
8
 10
1930.147
 20
-3102.811
 30
3837.551
 70
    32
  0
VERTEX
  8
T14SSILL
 62
8
 10
1931.660
 20
-3099.875
 30
3837.522
 70
    32
  0
VERTEX
  8
T14SSILL
 62
8
 10
1930.614
 20
-3096.471
 30
3837.505
 70
    32
  0
VERTEX
  8
T14SSILL
 62
8
 10
1925.501
 20
-3092.108
 30
3837.507
 70
    32
  0
VERTEX
  8
T14SSILL
 62
8
 10
1920.263
 20
-3082.385
 30
3837.474
 70
    32
  0
VERTEX
  8
T14SSILL
 62
8
 10
1918.363
 20
-3080.056
 30
3837.470
 70
    32
  0
VERTEX
  8
T14SSILL
 62
8
 10
1914.446
 20
-3077.950
 30
3837.480
 70
    32
  0
VERTEX
  8
T14SSILL
 62
8
 10
1894.410
 20
-3093.274
 30
3837.712
 70
    32
  0
VERTEX
  8
T14SSILL
 62
8
 10
1894.104
 20
-3095.215
 30
3837.728
 70
    32
  0
VERTEX
  8
T14SSILL
 62
8
 10
1895.839
 20
-3097.988
 30
3837.736
 70
    32
  0
SEQEND
  8
T14SSILL
  0
POLYLINE
  8
T14SSILL
 62
8
 66
     1
 70
     9
  0
VERTEX
  8
T14SSILL
 62
8
 10
1860.299
 20
-3029.198
 30
3837.488
 70
    32
  0
VERTEX
  8
T14SSILL
 62
8
 10
1852.375
 20
-3036.152
 30
3837.586
 70
    32
  0
VERTEX
  8
T14SSILL
 62
8
 10
1851.891
 20
-3038.010
 30
3837.602
 70
    32
  0
VERTEX
  8
T14SSILL
 62
8
 10
1866.937
 20
-3057.436
 30
3837.640
 70
    32
  0
VERTEX
  8
T14SSILL
 62
8
 10
1869.504
 20
-3058.167
 30
3837.629
 70
    32
  0
VERTEX
  8
T14SSILL
 62
8
 10
1885.047
 20
-3046.201
 30
3837.448
 70
    32
  0
VERTEX
  8
T14SSILL
 62
8
 10
1887.700
 20
-3043.150
 30
3837.410
 70
    32
  0
VERTEX
  8
T14SSILL
 62
8
 10
1886.088
 20
-3026.837
 30
3837.308
 70
    32
  0
VERTEX
  8
T14SSILL
 62
8
 10
1884.980
 20
-3024.578
 30
3837.300
 70
    32
  0
VERTEX
  8
T14SSILL
 62
8
 10
1876.262
 20
-3020.123
 30
3837.324
 70
    32
  0
VERTEX
  8
T14SSILL
 62
8
 10
1870.234
 20
-3021.758
 30
3837.374
 70
    32
  0
SEQEND
  8
T14SSILL
  0
POLYLINE
  8
T14SSILL
 62
8
 66
     1
 70
     9
  0
VERTEX
  8
T14SSILL
 62
8
 10
1923.147
 20
-3134.269
 30
3837.812
 70
    32
  0
VERTEX
  8
T14SSILL
 62
8
 10
1930.137
 20
-3143.775
 30
3837.833
 70
    32
  0
VERTEX
  8
T14SSILL
 62
8
 10
1933.997
 20
-3143.421
 30
3837.806
 70
    32
  0
VERTEX
  8
T14SSILL
 62
8
 10
1947.074
 20
-3135.028
 30
3837.666
 70
    32
  0
VERTEX
  8
T14SSILL
 62
8
 10
1957.453
 20
-3127.753
 30
3837.550
 70
    32
  0
VERTEX
  8
T14SSILL
 62
8
 10
1958.362
 20
-3125.270
 30
3837.527
 70
    32
  0
VERTEX
  8
T14SSILL
 62
8
 10
1951.117
 20
-3116.210
 30
3837.511
 70
    32
  0
VERTEX
  8
T14SSILL
 62
8
 10
1948.430
 20
-3114.075
 30
3837.513
 70
    32
  0
VERTEX
  8
T14SSILL
 62
8
 10
1944.291
 20
-3113.732
 30
3837.537
 70
    32
  0
VERTEX
  8
T14SSILL
 62
8
 10
1942.251
 20
-3109.209
 30
3837.519
 70
    32
  0
VERTEX
  8
T14SSILL
 62
8
 10
1937.460
 20
-3107.299
 30
3837.536
 70
    32
  0
VERTEX
  8
T14SSILL
 62
8
 10
1934.322
 20
-3108.427
 30
3837.564
 70
    32
  0
VERTEX
  8
T14SSILL
 62
8
 10
1917.228
 20
-3121.749
 30
3837.763
 70
    32
  0
VERTEX
  8
T14SSILL
 62
8
 10
1915.077
 20
-3123.733
 30
3837.791
 70
    32
  0
VERTEX
  8
T14SSILL
 62
8
 10
1916.542
 20
-3126.248
 30
3837.799
 70
    32
  0
SEQEND
  8
T14SSILL
  0
POLYLINE
  8
T14SSILL
 62
8
 66
     1
 70
     9
  0
VERTEX
  8
T14SSILL
 62
8
 10
1949.561
 20
-3169.956
 30
3837.890
 70
    32
  0
VERTEX
  8
T14SSILL
 62
8
 10
1951.468
 20
-3172.548
 30
3837.896
 70
    32
  0
VERTEX
  8
T14SSILL
 62
8
 10
1956.970
 20
-3174.793
 30
3837.876
 70
    32
  0
VERTEX
  8
T14SSILL
 62
8
 10
1960.599
 20
-3175.851
 30
3837.861
 70
    32
  0
VERTEX
  8
T14SSILL
 62
8
 10
1963.672
 20
-3175.691
 30
3837.840
 70
    32
  0
VERTEX
  8
T14SSILL
 62
8
 10
1970.694
 20
-3171.483
 30
3837.767
 70
    32
  0
VERTEX
  8
T14SSILL
 62
8
 10
1987.356
 20
-3158.523
 30
3837.572
 70
    32
  0
VERTEX
  8
T14SSILL
 62
8
 10
1987.291
 20
-3155.712
 30
3837.553
 70
    32
  0
VERTEX
  8
T14SSILL
 62
8
 10
1985.846
 20
-3154.076
 30
3837.551
 70
    32
  0
VERTEX
  8
T14SSILL
 62
8
 10
1980.011
 20
-3152.630
 30
3837.578
 70
    32
  0
VERTEX
  8
T14SSILL
 62
8
 10
1977.810
 20
-3148.726
 30
3837.565
 70
    32
  0
VERTEX
  8
T14SSILL
 62
8
 10
1974.369
 20
-3148.191
 30
3837.583
 70
    32
  0
VERTEX
  8
T14SSILL
 62
8
 10
1971.964
 20
-3146.841
 30
3837.589
 70
    32
  0
VERTEX
  8
T14SSILL
 62
8
 10
1964.748
 20
-3135.230
 30
3837.555
 70
    32
  0
VERTEX
  8
T14SSILL
 62
8
 10
1960.923
 20
-3133.298
 30
3837.566
 70
    32
  0
VERTEX
  8
T14SSILL
 62
8
 10
1936.086
 20
-3150.053
 30
3837.839
 70
    32
  0
VERTEX
  8
T14SSILL
 62
8
 10
1937.413
 20
-3154.153
 30
3837.858
 70
    32
  0
SEQEND
  8
T14SSILL
  0
POLYLINE
  8
T14SSILL
 62
8
 66
     1
 70
     9
  0
VERTEX
  8
T14SSILL
 62
8
 10
1932.927
 20
-2684.146
 30
3835.508
 70
    32
  0
VERTEX
  8
T14SSILL
 62
8
 10
1930.068
 20
-2689.663
 30
3835.435
 70
    32
  0
VERTEX
  8
T14SSILL
 62
8
 10
1924.679
 20
-2696.030
 30
3835.297
 70
    32
  0
VERTEX
  8
T14SSILL
 62
8
 10
1920.094
 20
-2699.214
 30
3835.179
 70
    32
  0
VERTEX
  8
T14SSILL
 62
8
 10
1913.783
 20
-2699.977
 30
3835.017
 70
    32
  0
VERTEX
  8
T14SSILL
 62
8
 10
1898.581
 20
-2711.496
 30
3835.062
 70
    32
  0
VERTEX
  8
T14SSILL
 62
8
 10
1896.710
 20
-2714.177
 30
3835.092
 70
    32
  0
VERTEX
  8
T14SSILL
 62
8
 10
1900.676
 20
-2714.611
 30
3835.070
 70
    32
  0
VERTEX
  8
T14SSILL
 62
8
 10
1929.119
 20
-2701.728
 30
3835.411
 70
    32
  0
VERTEX
  8
T14SSILL
 62
8
 10
1935.960
 20
-2689.789
 30
3835.586
 70
    32
  0
VERTEX
  8
T14SSILL
 62
8
 10
1936.452
 20
-2684.503
 30
3835.599
 70
    32
  0
VERTEX
  8
T14SSILL
 62
8
 10
1933.542
 20
-2684.131
 30
3835.524
 70
    32
  0
SEQEND
  8
T14SSILL
  0
POLYLINE
  8
T14SSILL
 62
8
 66
     1
 70
     9
  0
VERTEX
  8
T14SSILL
 62
8
 10
1432.799
 20
-2242.009
 30
3838.213
 70
    32
  0
VERTEX
  8
T14SSILL
 62
8
 10
1437.716
 20
-2238.615
 30
3838.186
 70
    32
  0
VERTEX
  8
T14SSILL
 62
8
 10
1426.828
 20
-2223.708
 30
3838.269
 70
    32
  0
VERTEX
  8
T14SSILL
 62
8
 10
1431.632
 20
-2219.438
 30
3838.243
 70
    32
  0
VERTEX
  8
T14SSILL
 62
8
 10
1445.543
 20
-2238.100
 30
3838.138
 70
    32
  0
VERTEX
  8
T14SSILL
 62
8
 10
1473.068
 20
-2217.849
 30
3837.985
 70
    32
  0
VERTEX
  8
T14SSILL
 62
8
 10
1480.000
 20
-2207.716
 30
3837.952
 70
    32
  0
VERTEX
  8
T14SSILL
 62
8
 10
1480.639
 20
-2202.245
 30
3837.953
 70
    32
  0
VERTEX
  8
T14SSILL
 62
8
 10
1474.799
 20
-2188.332
 30
3838.004
 70
    32
  0
VERTEX
  8
T14SSILL
 62
8
 10
1467.413
 20
-2178.949
 30
3838.059
 70
    32
  0
VERTEX
  8
T14SSILL
 62
8
 10
1466.258
 20
-2175.375
 30
3838.070
 70
    32
  0
VERTEX
  8
T14SSILL
 62
8
 10
1470.430
 20
-2167.254
 30
3838.052
 70
    32
  0
VERTEX
  8
T14SSILL
 62
8
 10
1468.928
 20
-2125.864
 30
3838.102
 70
    32
  0
VERTEX
  8
T14SSILL
 62
8
 10
1467.509
 20
-2122.297
 30
3838.114
 70
    32
  0
VERTEX
  8
T14SSILL
 62
8
 10
1458.861
 20
-2111.805
 30
3838.178
 70
    32
  0
VERTEX
  8
T14SSILL
 62
8
 10
1456.285
 20
-2110.909
 30
3838.195
 70
    32
  0
VERTEX
  8
T14SSILL
 62
8
 10
1452.205
 20
-2106.536
 30
3838.225
 70
    32
  0
VERTEX
  8
T14SSILL
 62
8
 10
1448.288
 20
-2098.552
 30
3838.258
 70
    32
  0
VERTEX
  8
T14SSILL
 62
8
 10
1454.956
 20
-2094.760
 30
3838.220
 70
    32
  0
VERTEX
  8
T14SSILL
 62
8
 10
1464.982
 20
-2107.325
 30
3838.145
 70
    32
  0
VERTEX
  8
T14SSILL
 62
8
 10
1475.984
 20
-2117.047
 30
3838.066
 70
    32
  0
VERTEX
  8
T14SSILL
 62
8
 10
1476.905
 20
-2118.517
 30
3838.059
 70
    32
  0
VERTEX
  8
T14SSILL
 62
8
 10
1477.752
 20
-2126.850
 30
3838.046
 70
    32
  0
VERTEX
  8
T14SSILL
 62
8
 10
1477.515
 20
-2137.325
 30
3838.037
 70
    32
  0
VERTEX
  8
T14SSILL
 62
8
 10
1478.751
 20
-2140.633
 30
3838.026
 70
    32
  0
VERTEX
  8
T14SSILL
 62
8
 10
1489.426
 20
-2141.744
 30
3837.958
 70
    32
  0
VERTEX
  8
T14SSILL
 62
8
 10
1493.340
 20
-2143.306
 30
3837.932
 70
    32
  0
VERTEX
  8
T14SSILL
 62
8
 10
1495.613
 20
-2145.970
 30
3837.915
 70
    32
  0
VERTEX
  8
T14SSILL
 62
8
 10
1495.230
 20
-2151.171
 30
3837.912
 70
    32
  0
VERTEX
  8
T14SSILL
 62
8
 10
1490.605
 20
-2158.864
 30
3837.934
 70
    32
  0
VERTEX
  8
T14SSILL
 62
8
 10
1489.673
 20
-2163.288
 30
3837.935
 70
    32
  0
VERTEX
  8
T14SSILL
 62
8
 10
1491.536
 20
-2170.186
 30
3837.917
 70
    32
  0
VERTEX
  8
T14SSILL
 62
8
 10
1491.287
 20
-2177.054
 30
3837.912
 70
    32
  0
VERTEX
  8
T14SSILL
 62
8
 10
1488.328
 20
-2184.526
 30
3837.923
 70
    32
  0
VERTEX
  8
T14SSILL
 62
8
 10
1486.108
 20
-2194.123
 30
3837.927
 70
    32
  0
VERTEX
  8
T14SSILL
 62
8
 10
1491.105
 20
-2205.560
 30
3837.885
 70
    32
  0
VERTEX
  8
T14SSILL
 62
8
 10
1526.983
 20
-2179.581
 30
3837.686
 70
    32
  0
VERTEX
  8
T14SSILL
 62
8
 10
1529.256
 20
-2175.911
 30
3837.675
 70
    32
  0
VERTEX
  8
T14SSILL
 62
8
 10
1525.792
 20
-2162.021
 30
3837.711
 70
    32
  0
VERTEX
  8
T14SSILL
 62
8
 10
1525.831
 20
-2154.280
 30
3837.718
 70
    32
  0
VERTEX
  8
T14SSILL
 62
8
 10
1530.195
 20
-2102.081
 30
3837.742
 70
    32
  0
VERTEX
  8
T14SSILL
 62
8
 10
1556.108
 20
-1850.745
 30
3837.827
 70
    32
  0
VERTEX
  8
T14SSILL
 62
8
 10
1545.633
 20
-1850.508
 30
3837.893
 70
    32
  0
VERTEX
  8
T14SSILL
 62
8
 10
1546.905
 20
-1842.468
 30
3837.892
 70
    32
  0
VERTEX
  8
T14SSILL
 62
8
 10
1608.610
 20
-1843.920
 30
3837.505
 70
    32
  0
VERTEX
  8
T14SSILL
 62
8
 10
1532.571
 20
-1685.386
 30
3838.136
 70
    32
  0
VERTEX
  8
T14SSILL
 62
8
 10
1421.071
 20
-1448.829
 30
3838.731
 70
    32
  0
VERTEX
  8
T14SSILL
 62
8
 10
1392.362
 20
-1440.345
 30
3838.748
 70
    32
  0
VERTEX
  8
T14SSILL
 62
8
 10
1012.012
 20
-1640.755
 30
3839.020
 70
    32
  0
VERTEX
  8
T14SSILL
 62
8
 10
1033.366
 20
-1686.167
 30
3839.015
 70
    32
  0
VERTEX
  8
T14SSILL
 62
8
 10
1036.679
 20
-1689.779
 30
3839.014
 70
    32
  0
VERTEX
  8
T14SSILL
 62
8
 10
1062.856
 20
-1704.270
 30
3839.000
 70
    32
  0
VERTEX
  8
T14SSILL
 62
8
 10
1065.019
 20
-1702.978
 30
3838.999
 70
    32
  0
VERTEX
  8
T14SSILL
 62
8
 10
1068.188
 20
-1676.378
 30
3838.992
 70
    32
  0
VERTEX
  8
T14SSILL
 62
8
 10
1070.250
 20
-1668.367
 30
3838.989
 70
    32
  0
VERTEX
  8
T14SSILL
 62
8
 10
1073.901
 20
-1659.962
 30
3838.985
 70
    32
  0
VERTEX
  8
T14SSILL
 62
8
 10
1077.483
 20
-1654.098
 30
3838.982
 70
    32
  0
VERTEX
  8
T14SSILL
 62
8
 10
1082.712
 20
-1648.893
 30
3838.978
 70
    32
  0
VERTEX
  8
T14SSILL
 62
8
 10
1093.320
 20
-1642.608
 30
3838.970
 70
    32
  0
VERTEX
  8
T14SSILL
 62
8
 10
1106.112
 20
-1639.804
 30
3838.962
 70
    32
  0
VERTEX
  8
T14SSILL
 62
8
 10
1123.317
 20
-1639.137
 30
3838.951
 70
    32
  0
VERTEX
  8
T14SSILL
 62
8
 10
1133.815
 20
-1640.040
 30
3838.945
 70
    32
  0
VERTEX
  8
T14SSILL
 62
8
 10
1141.408
 20
-1644.546
 30
3838.941
 70
    32
  0
VERTEX
  8
T14SSILL
 62
8
 10
1147.462
 20
-1650.763
 30
3838.938
 70
    32
  0
VERTEX
  8
T14SSILL
 62
8
 10
1150.638
 20
-1656.463
 30
3838.937
 70
    32
  0
VERTEX
  8
T14SSILL
 62
8
 10
1154.376
 20
-1667.176
 30
3838.937
 70
    32
  0
VERTEX
  8
T14SSILL
 62
8
 10
1155.169
 20
-1673.424
 30
3838.938
 70
    32
  0
VERTEX
  8
T14SSILL
 62
8
 10
1153.325
 20
-1689.420
 30
3838.942
 70
    32
  0
VERTEX
  8
T14SSILL
 62
8
 10
1157.910
 20
-1694.895
 30
3838.940
 70
    32
  0
VERTEX
  8
T14SSILL
 62
8
 10
1171.254
 20
-1701.960
 30
3838.933
 70
    32
  0
VERTEX
  8
T14SSILL
 62
8
 10
1172.658
 20
-1705.000
 30
3838.933
 70
    32
  0
VERTEX
  8
T14SSILL
 62
8
 10
1178.560
 20
-1711.609
 30
3838.930
 70
    32
  0
VERTEX
  8
T14SSILL
 62
8
 10
1184.444
 20
-1708.103
 30
3838.926
 70
    32
  0
VERTEX
  8
T14SSILL
 62
8
 10
1192.770
 20
-1710.159
 30
3838.921
 70
    32
  0
VERTEX
  8
T14SSILL
 62
8
 10
1201.067
 20
-1711.160
 30
3838.916
 70
    32
  0
VERTEX
  8
T14SSILL
 62
8
 10
1203.604
 20
-1716.983
 30
3838.916
 70
    32
  0
VERTEX
  8
T14SSILL
 62
8
 10
1210.269
 20
-1722.603
 30
3838.913
 70
    32
  0
VERTEX
  8
T14SSILL
 62
8
 10
1216.007
 20
-1732.824
 30
3838.911
 70
    32
  0
VERTEX
  8
T14SSILL
 62
8
 10
1217.758
 20
-1748.345
 30
3838.913
 70
    32
  0
VERTEX
  8
T14SSILL
 62
8
 10
1222.141
 20
-1750.950
 30
3838.911
 70
    32
  0
VERTEX
  8
T14SSILL
 62
8
 10
1225.484
 20
-1760.446
 30
3838.910
 70
    32
  0
VERTEX
  8
T14SSILL
 62
8
 10
1238.496
 20
-1779.173
 30
3838.906
 70
    32
  0
VERTEX
  8
T14SSILL
 62
8
 10
1243.777
 20
-1788.790
 30
3838.904
 70
    32
  0
VERTEX
  8
T14SSILL
 62
8
 10
1244.788
 20
-1793.512
 30
3838.904
 70
    32
  0
VERTEX
  8
T14SSILL
 62
8
 10
1244.151
 20
-1799.072
 30
3838.906
 70
    32
  0
VERTEX
  8
T14SSILL
 62
8
 10
1245.562
 20
-1802.375
 30
3838.906
 70
    32
  0
VERTEX
  8
T14SSILL
 62
8
 10
1257.981
 20
-1825.077
 30
3838.902
 70
    32
  0
VERTEX
  8
T14SSILL
 62
8
 10
1261.975
 20
-1835.874
 30
3838.902
 70
    32
  0
VERTEX
  8
T14SSILL
 62
8
 10
1263.043
 20
-1842.618
 30
3838.902
 70
    32
  0
VERTEX
  8
T14SSILL
 62
8
 10
1271.012
 20
-1850.841
 30
3838.899
 70
    32
  0
VERTEX
  8
T14SSILL
 62
8
 10
1278.477
 20
-1869.370
 30
3838.898
 70
    32
  0
VERTEX
  8
T14SSILL
 62
8
 10
1281.431
 20
-1880.724
 30
3838.898
 70
    32
  0
VERTEX
  8
T14SSILL
 62
8
 10
1283.990
 20
-1906.339
 30
3838.901
 70
    32
  0
VERTEX
  8
T14SSILL
 62
8
 10
1277.970
 20
-1942.924
 30
3838.912
 70
    32
  0
VERTEX
  8
T14SSILL
 62
8
 10
1268.084
 20
-1948.037
 30
3838.919
 70
    32
  0
VERTEX
  8
T14SSILL
 62
8
 10
1265.870
 20
-1950.650
 30
3838.920
 70
    32
  0
VERTEX
  8
T14SSILL
 62
8
 10
1266.107
 20
-1956.009
 30
3838.921
 70
    32
  0
VERTEX
  8
T14SSILL
 62
8
 10
1268.116
 20
-1965.014
 30
3838.922
 70
    32
  0
VERTEX
  8
T14SSILL
 62
8
 10
1264.803
 20
-1972.407
 30
3838.925
 70
    32
  0
VERTEX
  8
T14SSILL
 62
8
 10
1265.982
 20
-1976.860
 30
3838.925
 70
    32
  0
VERTEX
  8
T14SSILL
 62
8
 10
1269.699
 20
-1983.970
 30
3838.924
 70
    32
  0
VERTEX
  8
T14SSILL
 62
8
 10
1273.886
 20
-1989.044
 30
3838.923
 70
    32
  0
VERTEX
  8
T14SSILL
 62
8
 10
1272.656
 20
-1995.412
 30
3838.925
 70
    32
  0
VERTEX
  8
T14SSILL
 62
8
 10
1274.302
 20
-2003.987
 30
3838.925
 70
    32
  0
VERTEX
  8
T14SSILL
 62
8
 10
1274.548
 20
-2009.698
 30
3838.926
 70
    32
  0
VERTEX
  8
T14SSILL
 62
8
 10
1277.398
 20
-2023.605
 30
3838.927
 70
    32
  0
VERTEX
  8
T14SSILL
 62
8
 10
1276.971
 20
-2030.390
 30
3838.928
 70
    32
  0
VERTEX
  8
T14SSILL
 62
8
 10
1272.686
 20
-2034.468
 30
3838.932
 70
    32
  0
VERTEX
  8
T14SSILL
 62
8
 10
1266.897
 20
-2035.069
 30
3838.936
 70
    32
  0
VERTEX
  8
T14SSILL
 62
8
 10
1263.014
 20
-2031.482
 30
3838.937
 70
    32
  0
VERTEX
  8
T14SSILL
 62
8
 10
1258.334
 20
-2021.320
 30
3838.938
 70
    32
  0
VERTEX
  8
T14SSILL
 62
8
 10
1255.892
 20
-2009.425
 30
3838.938
 70
    32
  0
VERTEX
  8
T14SSILL
 62
8
 10
1252.996
 20
-2006.514
 30
3838.939
 70
    32
  0
VERTEX
  8
T14SSILL
 62
8
 10
1249.736
 20
-2006.341
 30
3838.941
 70
    32
  0
VERTEX
  8
T14SSILL
 62
8
 10
1233.234
 20
-2017.092
 30
3838.953
 70
    32
  0
VERTEX
  8
T14SSILL
 62
8
 10
1277.907
 20
-2092.556
 30
3838.939
 70
    32
  0
VERTEX
  8
T14SSILL
 62
8
 10
1283.499
 20
-2097.503
 30
3838.937
 70
    32
  0
VERTEX
  8
T14SSILL
 62
8
 10
1284.917
 20
-2097.903
 30
3838.936
 70
    32
  0
VERTEX
  8
T14SSILL
 62
8
 10
1293.216
 20
-2092.659
 30
3838.930
 70
    32
  0
VERTEX
  8
T14SSILL
 62
8
 10
1330.216
 20
-2066.120
 30
3838.902
 70
    32
  0
VERTEX
  8
T14SSILL
 62
8
 10
1334.342
 20
-2072.163
 30
3838.901
 70
    32
  0
VERTEX
  8
T14SSILL
 62
8
 10
1289.991
 20
-2103.216
 30
3838.934
 70
    32
  0
VERTEX
  8
T14SSILL
 62
8
 10
1291.283
 20
-2105.380
 30
3838.933
 70
    32
  0
VERTEX
  8
T14SSILL
 62
8
 10
1294.613
 20
-2108.102
 30
3838.932
 70
    32
  0
VERTEX
  8
T14SSILL
 62
8
 10
1295.888
 20
-2112.817
 30
3838.932
 70
    32
  0
VERTEX
  8
T14SSILL
 62
8
 10
1301.578
 20
-2206.782
 30
3838.946
 70
    32
  0
VERTEX
  8
T14SSILL
 62
8
 10
1303.957
 20
-2210.059
 30
3838.945
 70
    32
  0
VERTEX
  8
T14SSILL
 62
8
 10
1356.309
 20
-2172.538
 30
3838.760
 70
    32
  0
VERTEX
  8
T14SSILL
 62
8
 10
1357.725
 20
-2169.683
 30
3838.754
 70
    32
  0
VERTEX
  8
T14SSILL
 62
8
 10
1357.801
 20
-2166.075
 30
3838.757
 70
    32
  0
VERTEX
  8
T14SSILL
 62
8
 10
1357.171
 20
-2162.397
 30
3838.765
 70
    32
  0
VERTEX
  8
T14SSILL
 62
8
 10
1355.027
 20
-2158.059
 30
3838.782
 70
    32
  0
VERTEX
  8
T14SSILL
 62
8
 10
1352.619
 20
-2147.394
 30
3838.808
 70
    32
  0
VERTEX
  8
T14SSILL
 62
8
 10
1353.764
 20
-2144.283
 30
3838.804
 70
    32
  0
VERTEX
  8
T14SSILL
 62
8
 10
1357.913
 20
-2141.617
 30
3838.780
 70
    32
  0
VERTEX
  8
T14SSILL
 62
8
 10
1360.318
 20
-2142.693
 30
3838.764
 70
    32
  0
VERTEX
  8
T14SSILL
 62
8
 10
1369.142
 20
-2150.013
 30
3838.702
 70
    32
  0
VERTEX
  8
T14SSILL
 62
8
 10
1374.582
 20
-2155.844
 30
3838.662
 70
    32
  0
VERTEX
  8
T14SSILL
 62
8
 10
1378.891
 20
-2162.146
 30
3838.629
 70
    32
  0
VERTEX
  8
T14SSILL
 62
8
 10
1384.803
 20
-2178.607
 30
3838.576
 70
    32
  0
VERTEX
  8
T14SSILL
 62
8
 10
1383.399
 20
-2181.901
 30
3838.581
 70
    32
  0
VERTEX
  8
T14SSILL
 62
8
 10
1381.783
 20
-2183.881
 30
3838.590
 70
    32
  0
VERTEX
  8
T14SSILL
 62
8
 10
1374.634
 20
-2186.191
 30
3838.632
 70
    32
  0
VERTEX
  8
T14SSILL
 62
8
 10
1371.882
 20
-2185.300
 30
3838.650
 70
    32
  0
VERTEX
  8
T14SSILL
 62
8
 10
1369.418
 20
-2182.113
 30
3838.669
 70
    32
  0
VERTEX
  8
T14SSILL
 62
8
 10
1368.808
 20
-2179.139
 30
3838.675
 70
    32
  0
VERTEX
  8
T14SSILL
 62
8
 10
1366.732
 20
-2177.262
 30
3838.690
 70
    32
  0
VERTEX
  8
T14SSILL
 62
8
 10
1362.660
 20
-2176.319
 30
3838.717
 70
    32
  0
VERTEX
  8
T14SSILL
 62
8
 10
1308.664
 20
-2214.854
 30
3838.943
 70
    32
  0
VERTEX
  8
T14SSILL
 62
8
 10
1307.390
 20
-2216.473
 30
3838.944
 70
    32
  0
VERTEX
  8
T14SSILL
 62
8
 10
1307.448
 20
-2218.583
 30
3838.944
 70
    32
  0
VERTEX
  8
T14SSILL
 62
8
 10
1356.119
 20
-2295.432
 30
3838.641
 70
    32
  0
VERTEX
  8
T14SSILL
 62
8
 10
1358.514
 20
-2296.157
 30
3838.625
 70
    32
  0
VERTEX
  8
T14SSILL
 62
8
 10
1361.932
 20
-2295.710
 30
3838.604
 70
    32
  0
VERTEX
  8
T14SSILL
 62
8
 10
1379.306
 20
-2284.671
 30
3838.506
 70
    32
  0
VERTEX
  8
T14SSILL
 62
8
 10
1402.519
 20
-2265.289
 30
3838.380
 70
    32
  0
VERTEX
  8
T14SSILL
 62
8
 10
1408.215
 20
-2261.348
 30
3838.348
 70
    32
  0
VERTEX
  8
T14SSILL
 62
8
 10
1415.056
 20
-2260.630
 30
3838.306
 70
    32
  0
VERTEX
  8
T14SSILL
 62
8
 10
1435.605
 20
-2245.444
 30
3838.193
 70
    32
  0
SEQEND
  8
T14SSILL
  0
POLYLINE
  8
T14SSILL
 62
8
 66
     1
 70
     9
  0
VERTEX
  8
T14SSILL
 62
8
 10
1612.441
 20
-1851.994
 30
3837.473
 70
    32
  0
VERTEX
  8
T14SSILL
 62
8
 10
1563.667
 20
-1850.535
 30
3837.780
 70
    32
  0
VERTEX
  8
T14SSILL
 62
8
 10
1533.617
 20
-2139.724
 30
3837.684
 70
    32
  0
VERTEX
  8
T14SSILL
 62
8
 10
1535.311
 20
-2143.723
 30
3837.669
 70
    32
  0
VERTEX
  8
T14SSILL
 62
8
 10
1541.332
 20
-2151.472
 30
3837.624
 70
    32
  0
VERTEX
  8
T14SSILL
 62
8
 10
1548.137
 20
-2155.770
 30
3837.577
 70
    32
  0
VERTEX
  8
T14SSILL
 62
8
 10
1551.590
 20
-2156.553
 30
3837.555
 70
    32
  0
VERTEX
  8
T14SSILL
 62
8
 10
1579.841
 20
-2138.087
 30
3837.396
 70
    32
  0
VERTEX
  8
T14SSILL
 62
8
 10
1590.929
 20
-2131.885
 30
3837.333
 70
    32
  0
VERTEX
  8
T14SSILL
 62
8
 10
1596.591
 20
-2126.713
 30
3837.302
 70
    32
  0
VERTEX
  8
T14SSILL
 62
8
 10
1602.795
 20
-2118.888
 30
3837.271
 70
    32
  0
VERTEX
  8
T14SSILL
 62
8
 10
1610.837
 20
-2117.081
 30
3837.223
 70
    32
  0
VERTEX
  8
T14SSILL
 62
8
 10
1613.928
 20
-2117.523
 30
3837.203
 70
    32
  0
VERTEX
  8
T14SSILL
 62
8
 10
1694.398
 20
-2059.867
 30
3836.757
 70
    32
  0
VERTEX
  8
T14SSILL
 62
8
 10
1700.439
 20
-2049.319
 30
3836.729
 70
    32
  0
VERTEX
  8
T14SSILL
 62
8
 10
1700.363
 20
-2046.594
 30
3836.732
 70
    32
  0
VERTEX
  8
T14SSILL
 62
8
 10
1662.379
 20
-1968.129
 30
3837.047
 70
    32
  0
VERTEX
  8
T14SSILL
 62
8
 10
1662.179
 20
-1964.088
 30
3837.052
 70
    32
  0
VERTEX
  8
T14SSILL
 62
8
 10
1663.283
 20
-1959.483
 30
3837.050
 70
    32
  0
SEQEND
  8
T14SSILL
  0
POLYLINE
  8
T14SSILL
 62
8
 66
     1
 70
     9
  0
VERTEX
  8
T14SSILL
 62
8
 10
1416.787
 20
-1440.202
 30
3838.732
 70
    32
  0
VERTEX
  8
T14SSILL
 62
8
 10
1379.248
 20
-1359.834
 30
3838.741
 70
    32
  0
VERTEX
  8
T14SSILL
 62
8
 10
1316.794
 20
-1226.124
 30
3836.911
 70
    32
  0
VERTEX
  8
T14SSILL
 62
8
 10
1306.824
 20
-1208.708
 30
3836.922
 70
    32
  0
VERTEX
  8
T14SSILL
 62
8
 10
1287.166
 20
-1194.536
 30
3836.735
 70
    32
  0
VERTEX
  8
T14SSILL
 62
8
 10
1222.028
 20
-1157.417
 30
3836.014
 70
    32
  0
VERTEX
  8
T14SSILL
 62
8
 10
1210.904
 20
-1156.910
 30
3835.925
 70
    32
  0
VERTEX
  8
T14SSILL
 62
8
 10
1205.923
 20
-1157.920
 30
3835.941
 70
    32
  0
VERTEX
  8
T14SSILL
 62
8
 10
1202.506
 20
-1157.602
 30
3835.937
 70
    32
  0
VERTEX
  8
T14SSILL
 62
8
 10
1154.131
 20
-1180.385
 30
3836.267
 70
    32
  0
VERTEX
  8
T14SSILL
 62
8
 10
1133.343
 20
-1172.243
 30
3836.157
 70
    32
  0
VERTEX
  8
T14SSILL
 62
8
 10
1132.701
 20
-1173.233
 30
3836.171
 70
    32
  0
VERTEX
  8
T14SSILL
 62
8
 10
1110.770
 20
-1159.432
 30
3835.981
 70
    32
  0
VERTEX
  8
T14SSILL
 62
8
 10
1111.361
 20
-1158.524
 30
3835.969
 70
    32
  0
VERTEX
  8
T14SSILL
 62
8
 10
1109.653
 20
-1152.351
 30
3835.882
 70
    32
  0
VERTEX
  8
T14SSILL
 62
8
 10
1125.178
 20
-1136.883
 30
3835.662
 70
    32
  0
VERTEX
  8
T14SSILL
 62
8
 10
1130.352
 20
-1137.797
 30
3835.674
 70
    32
  0
VERTEX
  8
T14SSILL
 62
8
 10
1132.708
 20
-1136.987
 30
3835.662
 70
    32
  0
VERTEX
  8
T14SSILL
 62
8
 10
1134.888
 20
-1136.004
 30
3835.647
 70
    32
  0
VERTEX
  8
T14SSILL
 62
8
 10
1136.776
 20
-1131.958
 30
3835.590
 70
    32
  0
VERTEX
  8
T14SSILL
 62
8
 10
1127.316
 20
-1122.242
 30
3835.487
 70
    32
  0
VERTEX
  8
T14SSILL
 62
8
 10
1124.021
 20
-1116.320
 30
3835.530
 70
    32
  0
VERTEX
  8
T14SSILL
 62
8
 10
1120.577
 20
-1113.288
 30
3835.588
 70
    32
  0
VERTEX
  8
T14SSILL
 62
8
 10
1113.227
 20
-1113.708
 30
3835.649
 70
    32
  0
VERTEX
  8
T14SSILL
 62
8
 10
1090.067
 20
-1127.322
 30
3835.770
 70
    32
  0
VERTEX
  8
T14SSILL
 62
8
 10
1079.607
 20
-1104.395
 30
3836.074
 70
    32
  0
VERTEX
  8
T14SSILL
 62
8
 10
1078.302
 20
-1096.003
 30
3836.196
 70
    32
  0
VERTEX
  8
T14SSILL
 62
8
 10
1079.614
 20
-1077.342
 30
3836.511
 70
    32
  0
VERTEX
  8
T14SSILL
 62
8
 10
1046.528
 20
-1059.707
 30
3837.086
 70
    32
  0
VERTEX
  8
T14SSILL
 62
8
 10
1017.498
 20
-1054.291
 30
3837.414
 70
    32
  0
VERTEX
  8
T14SSILL
 62
8
 10
843.360
 20
-1183.848
 30
3837.582
 70
    32
  0
VERTEX
  8
T14SSILL
 62
8
 10
832.196
 20
-1206.892
 30
3837.606
 70
    32
  0
VERTEX
  8
T14SSILL
 62
8
 10
828.999
 20
-1220.580
 30
3837.593
 70
    32
  0
VERTEX
  8
T14SSILL
 62
8
 10
828.946
 20
-1224.258
 30
3837.583
 70
    32
  0
VERTEX
  8
T14SSILL
 62
8
 10
830.428
 20
-1232.824
 30
3837.546
 70
    32
  0
VERTEX
  8
T14SSILL
 62
8
 10
834.915
 20
-1244.426
 30
3837.478
 70
    32
  0
VERTEX
  8
T14SSILL
 62
8
 10
893.103
 20
-1374.280
 30
3839.044
 70
    32
  0
VERTEX
  8
T14SSILL
 62
8
 10
1009.229
 20
-1633.427
 30
3839.020
 70
    32
  0
VERTEX
  8
T14SSILL
 62
8
 10
1392.376
 20
-1432.553
 30
3838.746
 70
    32
  0
SEQEND
  8
T14SSILL
  0
POLYLINE
  8
T14SSILL
 62
8
 66
     1
 70
     9
  0
VERTEX
  8
T14SSILL
 62
8
 10
1200.684
 20
-2270.828
 30
3839.020
 70
    32
  0
VERTEX
  8
T14SSILL
 62
8
 10
1207.204
 20
-2264.209
 30
3839.015
 70
    32
  0
VERTEX
  8
T14SSILL
 62
8
 10
1210.465
 20
-2258.136
 30
3839.012
 70
    32
  0
VERTEX
  8
T14SSILL
 62
8
 10
1214.958
 20
-2255.196
 30
3839.008
 70
    32
  0
VERTEX
  8
T14SSILL
 62
8
 10
1217.182
 20
-2256.102
 30
3839.007
 70
    32
  0
VERTEX
  8
T14SSILL
 62
8
 10
1219.734
 20
-2259.286
 30
3839.006
 70
    32
  0
VERTEX
  8
T14SSILL
 62
8
 10
1221.724
 20
-2263.480
 30
3839.006
 70
    32
  0
VERTEX
  8
T14SSILL
 62
8
 10
1213.874
 20
-2269.137
 30
3839.012
 70
    32
  0
VERTEX
  8
T14SSILL
 62
8
 10
1209.834
 20
-2263.572
 30
3839.013
 70
    32
  0
SEQEND
  8
T14SSILL
  0
POLYLINE
  8
T14SSILL
 62
8
 66
     1
 70
     9
  0
VERTEX
  8
T14SSILL
 62
8
 10
1176.634
 20
-2065.521
 30
3838.997
 70
    32
  0
VERTEX
  8
T14SSILL
 62
8
 10
1181.286
 20
-2071.193
 30
3838.995
 70
    32
  0
VERTEX
  8
T14SSILL
 62
8
 10
1178.933
 20
-2072.828
 30
3838.997
 70
    32
  0
VERTEX
  8
T14SSILL
 62
8
 10
1180.845
 20
-2075.462
 30
3838.996
 70
    32
  0
VERTEX
  8
T14SSILL
 62
8
 10
1204.521
 20
-2056.947
 30
3838.978
 70
    32
  0
VERTEX
  8
T14SSILL
 62
8
 10
1204.228
 20
-2052.733
 30
3838.978
 70
    32
  0
VERTEX
  8
T14SSILL
 62
8
 10
1196.297
 20
-2045.916
 30
3838.981
 70
    32
  0
VERTEX
  8
T14SSILL
 62
8
 10
1193.932
 20
-2046.245
 30
3838.983
 70
    32
  0
VERTEX
  8
T14SSILL
 62
8
 10
1178.982
 20
-2056.467
 30
3838.994
 70
    32
  0
VERTEX
  8
T14SSILL
 62
8
 10
1182.582
 20
-2061.301
 30
3838.993
 70
    32
  0
SEQEND
  8
T14SSILL
  0
POLYLINE
  8
T14SSILL
 62
8
 66
     1
 70
     9
  0
VERTEX
  8
T14SSILL
 62
8
 10
1205.419
 20
-2187.244
 30
3839.002
 70
    32
  0
VERTEX
  8
T14SSILL
 62
8
 10
1194.252
 20
-2171.559
 30
3839.006
 70
    32
  0
VERTEX
  8
T14SSILL
 62
8
 10
1189.332
 20
-2175.068
 30
3839.009
 70
    32
  0
VERTEX
  8
T14SSILL
 62
8
 10
1190.023
 20
-2180.942
 30
3839.010
 70
    32
  0
VERTEX
  8
T14SSILL
 62
8
 10
1194.420
 20
-2190.408
 30
3839.009
 70
    32
  0
VERTEX
  8
T14SSILL
 62
8
 10
1197.550
 20
-2192.257
 30
3839.008
 70
    32
  0
SEQEND
  8
T14SSILL
  0
POLYLINE
  8
T14SSILL
 62
8
 66
     1
 70
     9
  0
VERTEX
  8
T14SSILL
 62
8
 10
1220.781
 20
-2008.993
 30
3838.959
 70
    32
  0
VERTEX
  8
T14SSILL
 62
8
 10
1204.329
 20
-1980.422
 30
3838.964
 70
    32
  0
VERTEX
  8
T14SSILL
 62
8
 10
1200.838
 20
-1978.231
 30
3838.966
 70
    32
  0
VERTEX
  8
T14SSILL
 62
8
 10
1187.276
 20
-1958.728
 30
3838.971
 70
    32
  0
VERTEX
  8
T14SSILL
 62
8
 10
1182.300
 20
-1947.431
 30
3838.972
 70
    32
  0
VERTEX
  8
T14SSILL
 62
8
 10
1176.977
 20
-1942.653
 30
3838.974
 70
    32
  0
VERTEX
  8
T14SSILL
 62
8
 10
1171.447
 20
-1943.070
 30
3838.978
 70
    32
  0
VERTEX
  8
T14SSILL
 62
8
 10
1162.882
 20
-1945.068
 30
3838.983
 70
    32
  0
VERTEX
  8
T14SSILL
 62
8
 10
1158.214
 20
-1948.012
 30
3838.987
 70
    32
  0
VERTEX
  8
T14SSILL
 62
8
 10
1156.866
 20
-1953.328
 30
3838.988
 70
    32
  0
VERTEX
  8
T14SSILL
 62
8
 10
1160.345
 20
-1967.745
 30
3838.989
 70
    32
  0
VERTEX
  8
T14SSILL
 62
8
 10
1173.157
 20
-1985.598
 30
3838.984
 70
    32
  0
VERTEX
  8
T14SSILL
 62
8
 10
1174.092
 20
-1990.762
 30
3838.985
 70
    32
  0
VERTEX
  8
T14SSILL
 62
8
 10
1185.407
 20
-2005.402
 30
3838.980
 70
    32
  0
VERTEX
  8
T14SSILL
 62
8
 10
1191.983
 20
-2020.438
 30
3838.979
 70
    32
  0
VERTEX
  8
T14SSILL
 62
8
 10
1200.492
 20
-2032.252
 30
3838.976
 70
    32
  0
VERTEX
  8
T14SSILL
 62
8
 10
1222.505
 20
-2017.214
 30
3838.960
 70
    32
  0
SEQEND
  8
T14SSILL
  0
POLYLINE
  8
T14SSILL
 62
8
 66
     1
 70
     9
  0
VERTEX
  8
T14SSILL
 62
8
 10
1191.629
 20
-1938.111
 30
3838.964
 70
    32
  0
VERTEX
  8
T14SSILL
 62
8
 10
1189.500
 20
-1940.633
 30
3838.966
 70
    32
  0
VERTEX
  8
T14SSILL
 62
8
 10
1189.115
 20
-1942.579
 30
3838.967
 70
    32
  0
VERTEX
  8
T14SSILL
 62
8
 10
1206.644
 20
-1971.912
 30
3838.961
 70
    32
  0
VERTEX
  8
T14SSILL
 62
8
 10
1210.289
 20
-1973.307
 30
3838.959
 70
    32
  0
VERTEX
  8
T14SSILL
 62
8
 10
1227.739
 20
-1964.992
 30
3838.947
 70
    32
  0
VERTEX
  8
T14SSILL
 62
8
 10
1227.060
 20
-1950.057
 30
3838.944
 70
    32
  0
VERTEX
  8
T14SSILL
 62
8
 10
1228.781
 20
-1920.189
 30
3838.938
 70
    32
  0
VERTEX
  8
T14SSILL
 62
8
 10
1226.312
 20
-1913.660
 30
3838.938
 70
    32
  0
VERTEX
  8
T14SSILL
 62
8
 10
1221.915
 20
-1910.527
 30
3838.940
 70
    32
  0
VERTEX
  8
T14SSILL
 62
8
 10
1218.721
 20
-1909.561
 30
3838.942
 70
    32
  0
VERTEX
  8
T14SSILL
 62
8
 10
1215.164
 20
-1911.331
 30
3838.945
 70
    32
  0
SEQEND
  8
T14SSILL
  0
POLYLINE
  8
T14SSILL
 62
8
 66
     1
 70
     9
  0
VERTEX
  8
T14SSILL
 62
8
 10
1177.413
 20
-1891.884
 30
3838.964
 70
    32
  0
VERTEX
  8
T14SSILL
 62
8
 10
1174.003
 20
-1895.761
 30
3838.967
 70
    32
  0
VERTEX
  8
T14SSILL
 62
8
 10
1169.513
 20
-1908.289
 30
3838.972
 70
    32
  0
VERTEX
  8
T14SSILL
 62
8
 10
1182.180
 20
-1930.457
 30
3838.969
 70
    32
  0
VERTEX
  8
T14SSILL
 62
8
 10
1184.058
 20
-1931.548
 30
3838.968
 70
    32
  0
VERTEX
  8
T14SSILL
 62
8
 10
1187.564
 20
-1931.099
 30
3838.965
 70
    32
  0
VERTEX
  8
T14SSILL
 62
8
 10
1215.593
 20
-1901.467
 30
3838.942
 70
    32
  0
VERTEX
  8
T14SSILL
 62
8
 10
1210.700
 20
-1889.991
 30
3838.943
 70
    32
  0
VERTEX
  8
T14SSILL
 62
8
 10
1207.194
 20
-1884.107
 30
3838.944
 70
    32
  0
VERTEX
  8
T14SSILL
 62
8
 10
1194.885
 20
-1878.027
 30
3838.951
 70
    32
  0
VERTEX
  8
T14SSILL
 62
8
 10
1191.804
 20
-1877.937
 30
3838.953
 70
    32
  0
VERTEX
  8
T14SSILL
 62
8
 10
1188.464
 20
-1881.197
 30
3838.956
 70
    32
  0
SEQEND
  8
T14SSILL
  0
POLYLINE
  8
T14SSILL
 62
8
 66
     1
 70
     9
  0
VERTEX
  8
T14SSILL
 62
8
 10
950.249
 20
-1963.382
 30
3839.118
 70
    32
  0
VERTEX
  8
T14SSILL
 62
8
 10
957.110
 20
-1966.534
 30
3839.115
 70
    32
  0
VERTEX
  8
T14SSILL
 62
8
 10
974.551
 20
-1995.869
 30
3839.109
 70
    32
  0
VERTEX
  8
T14SSILL
 62
8
 10
978.116
 20
-2000.696
 30
3839.108
 70
    32
  0
VERTEX
  8
T14SSILL
 62
8
 10
980.010
 20
-2002.403
 30
3839.107
 70
    32
  0
VERTEX
  8
T14SSILL
 62
8
 10
981.593
 20
-2002.359
 30
3839.106
 70
    32
  0
VERTEX
  8
T14SSILL
 62
8
 10
1030.310
 20
-1966.962
 30
3839.069
 70
    32
  0
VERTEX
  8
T14SSILL
 62
8
 10
1049.438
 20
-1895.617
 30
3839.044
 70
    32
  0
VERTEX
  8
T14SSILL
 62
8
 10
1055.330
 20
-1898.708
 30
3839.041
 70
    32
  0
VERTEX
  8
T14SSILL
 62
8
 10
1038.765
 20
-1961.009
 30
3839.063
 70
    32
  0
VERTEX
  8
T14SSILL
 62
8
 10
1058.102
 20
-1947.804
 30
3839.049
 70
    32
  0
VERTEX
  8
T14SSILL
 62
8
 10
1059.345
 20
-1945.043
 30
3839.047
 70
    32
  0
VERTEX
  8
T14SSILL
 62
8
 10
1071.773
 20
-1930.095
 30
3839.037
 70
    32
  0
VERTEX
  8
T14SSILL
 62
8
 10
1092.728
 20
-1899.164
 30
3839.018
 70
    32
  0
VERTEX
  8
T14SSILL
 62
8
 10
1095.075
 20
-1894.964
 30
3839.016
 70
    32
  0
VERTEX
  8
T14SSILL
 62
8
 10
1097.536
 20
-1879.062
 30
3839.011
 70
    32
  0
VERTEX
  8
T14SSILL
 62
8
 10
1105.251
 20
-1874.977
 30
3839.006
 70
    32
  0
VERTEX
  8
T14SSILL
 62
8
 10
1107.629
 20
-1871.920
 30
3839.004
 70
    32
  0
VERTEX
  8
T14SSILL
 62
8
 10
1107.883
 20
-1868.395
 30
3839.003
 70
    32
  0
VERTEX
  8
T14SSILL
 62
8
 10
1098.026
 20
-1846.061
 30
3839.005
 70
    32
  0
VERTEX
  8
T14SSILL
 62
8
 10
1078.897
 20
-1809.823
 30
3839.010
 70
    32
  0
VERTEX
  8
T14SSILL
 62
8
 10
1071.259
 20
-1788.220
 30
3839.011
 70
    32
  0
VERTEX
  8
T14SSILL
 62
8
 10
1066.379
 20
-1783.517
 30
3839.013
 70
    32
  0
VERTEX
  8
T14SSILL
 62
8
 10
1061.998
 20
-1777.833
 30
3839.015
 70
    32
  0
VERTEX
  8
T14SSILL
 62
8
 10
1039.982
 20
-1780.117
 30
3839.029
 70
    32
  0
VERTEX
  8
T14SSILL
 62
8
 10
907.970
 20
-1875.975
 30
3839.128
 70
    32
  0
VERTEX
  8
T14SSILL
 62
8
 10
903.939
 20
-1879.693
 30
3839.131
 70
    32
  0
VERTEX
  8
T14SSILL
 62
8
 10
902.938
 20
-1881.657
 30
3839.132
 70
    32
  0
VERTEX
  8
T14SSILL
 62
8
 10
903.454
 20
-1887.536
 30
3839.133
 70
    32
  0
VERTEX
  8
T14SSILL
 62
8
 10
908.367
 20
-1906.048
 30
3839.133
 70
    32
  0
VERTEX
  8
T14SSILL
 62
8
 10
912.823
 20
-1914.457
 30
3839.132
 70
    32
  0
VERTEX
  8
T14SSILL
 62
8
 10
919.213
 20
-1919.645
 30
3839.129
 70
    32
  0
VERTEX
  8
T14SSILL
 62
8
 10
926.530
 20
-1936.068
 30
3839.128
 70
    32
  0
VERTEX
  8
T14SSILL
 62
8
 10
938.336
 20
-1955.708
 30
3839.124
 70
    32
  0
VERTEX
  8
T14SSILL
 62
8
 10
939.156
 20
-1956.741
 30
3839.124
 70
    32
  0
VERTEX
  8
T14SSILL
 62
8
 10
944.443
 20
-1957.033
 30
3839.121
 70
    32
  0
VERTEX
  8
T14SSILL
 62
8
 10
946.860
 20
-1958.550
 30
3839.119
 70
    32
  0
SEQEND
  8
T14SSILL
  0
POLYLINE
  8
T14SSILL
 62
8
 66
     1
 70
     9
  0
VERTEX
  8
T14SSILL
 62
8
 10
1135.344
 20
-1865.784
 30
3838.986
 70
    32
  0
VERTEX
  8
T14SSILL
 62
8
 10
1123.184
 20
-1846.066
 30
3838.989
 70
    32
  0
VERTEX
  8
T14SSILL
 62
8
 10
1114.399
 20
-1840.152
 30
3838.994
 70
    32
  0
VERTEX
  8
T14SSILL
 62
8
 10
1106.947
 20
-1837.896
 30
3838.998
 70
    32
  0
VERTEX
  8
T14SSILL
 62
8
 10
1103.456
 20
-1838.873
 30
3839.000
 70
    32
  0
VERTEX
  8
T14SSILL
 62
8
 10
1103.009
 20
-1841.788
 30
3839.001
 70
    32
  0
VERTEX
  8
T14SSILL
 62
8
 10
1115.076
 20
-1861.333
 30
3838.997
 70
    32
  0
VERTEX
  8
T14SSILL
 62
8
 10
1118.277
 20
-1868.897
 30
3838.997
 70
    32
  0
VERTEX
  8
T14SSILL
 62
8
 10
1119.813
 20
-1870.350
 30
3838.996
 70
    32
  0
VERTEX
  8
T14SSILL
 62
8
 10
1129.938
 20
-1873.851
 30
3838.990
 70
    32
  0
VERTEX
  8
T14SSILL
 62
8
 10
1132.485
 20
-1873.692
 30
3838.989
 70
    32
  0
VERTEX
  8
T14SSILL
 62
8
 10
1133.908
 20
-1871.102
 30
3838.987
 70
    32
  0
SEQEND
  8
T14SSILL
  0
POLYLINE
  8
T14SSILL
 62
8
 66
     1
 70
     9
  0
VERTEX
  8
T14SSILL
 62
8
 10
1148.650
 20
-1819.144
 30
3838.969
 70
    32
  0
VERTEX
  8
T14SSILL
 62
8
 10
1145.622
 20
-1817.820
 30
3838.970
 70
    32
  0
VERTEX
  8
T14SSILL
 62
8
 10
1142.680
 20
-1819.574
 30
3838.972
 70
    32
  0
VERTEX
  8
T14SSILL
 62
8
 10
1135.453
 20
-1828.571
 30
3838.979
 70
    32
  0
VERTEX
  8
T14SSILL
 62
8
 10
1131.173
 20
-1839.158
 30
3838.983
 70
    32
  0
VERTEX
  8
T14SSILL
 62
8
 10
1131.781
 20
-1845.211
 30
3838.984
 70
    32
  0
VERTEX
  8
T14SSILL
 62
8
 10
1138.105
 20
-1854.360
 30
3838.982
 70
    32
  0
VERTEX
  8
T14SSILL
 62
8
 10
1149.615
 20
-1850.697
 30
3838.974
 70
    32
  0
VERTEX
  8
T14SSILL
 62
8
 10
1162.912
 20
-1841.707
 30
3838.964
 70
    32
  0
VERTEX
  8
T14SSILL
 62
8
 10
1168.381
 20
-1839.091
 30
3838.960
 70
    32
  0
VERTEX
  8
T14SSILL
 62
8
 10
1169.653
 20
-1837.385
 30
3838.959
 70
    32
  0
VERTEX
  8
T14SSILL
 62
8
 10
1168.652
 20
-1833.014
 30
3838.959
 70
    32
  0
SEQEND
  8
T14SSILL
  0
POLYLINE
  8
T14SSILL
 62
8
 66
     1
 70
     9
  0
VERTEX
  8
T14SSILL
 62
8
 10
1051.291
 20
-2134.177
 30
3839.087
 70
    32
  0
VERTEX
  8
T14SSILL
 62
8
 10
1047.794
 20
-2129.307
 30
3839.089
 70
    32
  0
VERTEX
  8
T14SSILL
 62
8
 10
1062.716
 20
-2119.480
 30
3839.078
 70
    32
  0
VERTEX
  8
T14SSILL
 62
8
 10
1058.703
 20
-2114.322
 30
3839.079
 70
    32
  0
VERTEX
  8
T14SSILL
 62
8
 10
1061.659
 20
-2112.244
 30
3839.077
 70
    32
  0
VERTEX
  8
T14SSILL
 62
8
 10
1055.825
 20
-2103.216
 30
3839.079
 70
    32
  0
VERTEX
  8
T14SSILL
 62
8
 10
1052.497
 20
-2091.081
 30
3839.079
 70
    32
  0
VERTEX
  8
T14SSILL
 62
8
 10
1043.796
 20
-2043.909
 30
3839.075
 70
    32
  0
VERTEX
  8
T14SSILL
 62
8
 10
1045.937
 20
-2029.159
 30
3839.071
 70
    32
  0
VERTEX
  8
T14SSILL
 62
8
 10
1049.346
 20
-2018.861
 30
3839.067
 70
    32
  0
VERTEX
  8
T14SSILL
 62
8
 10
1060.674
 20
-2009.421
 30
3839.058
 70
    32
  0
VERTEX
  8
T14SSILL
 62
8
 10
1063.866
 20
-2004.748
 30
3839.056
 70
    32
  0
VERTEX
  8
T14SSILL
 62
8
 10
1074.382
 20
-1997.997
 30
3839.048
 70
    32
  0
VERTEX
  8
T14SSILL
 62
8
 10
1067.850
 20
-1988.051
 30
3839.050
 70
    32
  0
VERTEX
  8
T14SSILL
 62
8
 10
1079.188
 20
-1980.913
 30
3839.042
 70
    32
  0
VERTEX
  8
T14SSILL
 62
8
 10
1080.185
 20
-1976.395
 30
3839.040
 70
    32
  0
VERTEX
  8
T14SSILL
 62
8
 10
1076.415
 20
-1964.185
 30
3839.040
 70
    32
  0
VERTEX
  8
T14SSILL
 62
8
 10
1072.173
 20
-1957.177
 30
3839.042
 70
    32
  0
VERTEX
  8
T14SSILL
 62
8
 10
1062.973
 20
-1952.155
 30
3839.046
 70
    32
  0
VERTEX
  8
T14SSILL
 62
8
 10
986.383
 20
-2006.976
 30
3839.104
 70
    32
  0
VERTEX
  8
T14SSILL
 62
8
 10
985.653
 20
-2009.195
 30
3839.105
 70
    32
  0
VERTEX
  8
T14SSILL
 62
8
 10
986.349
 20
-2012.079
 30
3839.105
 70
    32
  0
VERTEX
  8
T14SSILL
 62
8
 10
990.842
 20
-2015.473
 30
3839.103
 70
    32
  0
VERTEX
  8
T14SSILL
 62
8
 10
992.932
 20
-2021.044
 30
3839.102
 70
    32
  0
VERTEX
  8
T14SSILL
 62
8
 10
994.263
 20
-2027.781
 30
3839.103
 70
    32
  0
VERTEX
  8
T14SSILL
 62
8
 10
983.102
 20
-2034.513
 30
3839.111
 70
    32
  0
VERTEX
  8
T14SSILL
 62
8
 10
976.654
 20
-2027.215
 30
3839.114
 70
    32
  0
VERTEX
  8
T14SSILL
 62
8
 10
971.880
 20
-2023.213
 30
3839.116
 70
    32
  0
VERTEX
  8
T14SSILL
 62
8
 10
966.919
 20
-2021.943
 30
3839.119
 70
    32
  0
VERTEX
  8
T14SSILL
 62
8
 10
940.347
 20
-2040.715
 30
3839.139
 70
    32
  0
VERTEX
  8
T14SSILL
 62
8
 10
936.236
 20
-2044.700
 30
3839.142
 70
    32
  0
VERTEX
  8
T14SSILL
 62
8
 10
935.166
 20
-2047.369
 30
3839.143
 70
    32
  0
VERTEX
  8
T14SSILL
 62
8
 10
935.674
 20
-2049.818
 30
3839.143
 70
    32
  0
VERTEX
  8
T14SSILL
 62
8
 10
942.020
 20
-2056.591
 30
3839.141
 70
    32
  0
VERTEX
  8
T14SSILL
 62
8
 10
945.338
 20
-2062.040
 30
3839.140
 70
    32
  0
VERTEX
  8
T14SSILL
 62
8
 10
981.882
 20
-2183.649
 30
3839.139
 70
    32
  0
VERTEX
  8
T14SSILL
 62
8
 10
983.794
 20
-2185.971
 30
3839.139
 70
    32
  0
VERTEX
  8
T14SSILL
 62
8
 10
985.576
 20
-2186.801
 30
3839.138
 70
    32
  0
VERTEX
  8
T14SSILL
 62
8
 10
988.696
 20
-2185.131
 30
3839.135
 70
    32
  0
VERTEX
  8
T14SSILL
 62
8
 10
1049.138
 20
-2141.183
 30
3839.090
 70
    32
  0
VERTEX
  8
T14SSILL
 62
8
 10
1046.361
 20
-2137.608
 30
3839.091
 70
    32
  0
SEQEND
  8
T14SSILL
  0
POLYLINE
  8
T14SSILL
 62
8
 66
     1
 70
     9
  0
VERTEX
  8
T14SSILL
 62
8
 10
1043.285
 20
-2153.891
 30
3839.096
 70
    32
  0
VERTEX
  8
T14SSILL
 62
8
 10
988.665
 20
-2193.489
 30
3839.137
 70
    32
  0
VERTEX
  8
T14SSILL
 62
8
 10
986.292
 20
-2199.888
 30
3839.140
 70
    32
  0
VERTEX
  8
T14SSILL
 62
8
 10
1008.241
 20
-2274.313
 30
3839.140
 70
    32
  0
VERTEX
  8
T14SSILL
 62
8
 10
1012.443
 20
-2286.248
 30
3839.140
 70
    32
  0
VERTEX
  8
T14SSILL
 62
8
 10
1017.722
 20
-2289.444
 30
3839.137
 70
    32
  0
VERTEX
  8
T14SSILL
 62
8
 10
1064.732
 20
-2255.942
 30
3839.102
 70
    32
  0
VERTEX
  8
T14SSILL
 62
8
 10
1068.072
 20
-2252.682
 30
3839.099
 70
    32
  0
VERTEX
  8
T14SSILL
 62
8
 10
1068.790
 20
-2250.023
 30
3839.098
 70
    32
  0
VERTEX
  8
T14SSILL
 62
8
 10
1064.603
 20
-2244.949
 30
3839.100
 70
    32
  0
VERTEX
  8
T14SSILL
 62
8
 10
1050.849
 20
-2221.669
 30
3839.104
 70
    32
  0
VERTEX
  8
T14SSILL
 62
8
 10
1050.045
 20
-2218.085
 30
3839.104
 70
    32
  0
VERTEX
  8
T14SSILL
 62
8
 10
1051.561
 20
-2215.667
 30
3839.102
 70
    32
  0
VERTEX
  8
T14SSILL
 62
8
 10
1084.315
 20
-2194.613
 30
3839.078
 70
    32
  0
VERTEX
  8
T14SSILL
 62
8
 10
1085.675
 20
-2192.903
 30
3839.077
 70
    32
  0
VERTEX
  8
T14SSILL
 62
8
 10
1085.705
 20
-2187.625
 30
3839.076
 70
    32
  0
VERTEX
  8
T14SSILL
 62
8
 10
1080.584
 20
-2177.475
 30
3839.077
 70
    32
  0
VERTEX
  8
T14SSILL
 62
8
 10
1078.311
 20
-2174.811
 30
3839.078
 70
    32
  0
VERTEX
  8
T14SSILL
 62
8
 10
1071.677
 20
-2170.333
 30
3839.081
 70
    32
  0
VERTEX
  8
T14SSILL
 62
8
 10
1068.500
 20
-2160.482
 30
3839.082
 70
    32
  0
VERTEX
  8
T14SSILL
 62
8
 10
1065.707
 20
-2154.689
 30
3839.082
 70
    32
  0
VERTEX
  8
T14SSILL
 62
8
 10
1051.365
 20
-2165.234
 30
3839.093
 70
    32
  0
SEQEND
  8
T14SSILL
  0
POLYLINE
  8
T14SSILL
 62
8
 66
     1
 70
     9
  0
VERTEX
  8
T14SSILL
 62
8
 10
925.387
 20
-2034.182
 30
3839.147
 70
    32
  0
VERTEX
  8
T14SSILL
 62
8
 10
928.412
 20
-2038.584
 30
3839.146
 70
    32
  0
VERTEX
  8
T14SSILL
 62
8
 10
930.732
 20
-2039.751
 30
3839.144
 70
    32
  0
VERTEX
  8
T14SSILL
 62
8
 10
962.451
 20
-2016.262
 30
3839.120
 70
    32
  0
VERTEX
  8
T14SSILL
 62
8
 10
962.678
 20
-2008.603
 30
3839.119
 70
    32
  0
VERTEX
  8
T14SSILL
 62
8
 10
961.694
 20
-2004.847
 30
3839.119
 70
    32
  0
VERTEX
  8
T14SSILL
 62
8
 10
959.296
 20
-2000.868
 30
3839.120
 70
    32
  0
VERTEX
  8
T14SSILL
 62
8
 10
946.531
 20
-1987.852
 30
3839.125
 70
    32
  0
VERTEX
  8
T14SSILL
 62
8
 10
936.359
 20
-1979.514
 30
3839.130
 70
    32
  0
VERTEX
  8
T14SSILL
 62
8
 10
926.582
 20
-1969.581
 30
3839.134
 70
    32
  0
VERTEX
  8
T14SSILL
 62
8
 10
915.573
 20
-1953.262
 30
3839.138
 70
    32
  0
VERTEX
  8
T14SSILL
 62
8
 10
910.396
 20
-1947.424
 30
3839.140
 70
    32
  0
VERTEX
  8
T14SSILL
 62
8
 10
908.223
 20
-1942.030
 30
3839.140
 70
    32
  0
VERTEX
  8
T14SSILL
 62
8
 10
903.384
 20
-1935.655
 30
3839.142
 70
    32
  0
VERTEX
  8
T14SSILL
 62
8
 10
898.456
 20
-1926.116
 30
3839.143
 70
    32
  0
VERTEX
  8
T14SSILL
 62
8
 10
898.681
 20
-1918.369
 30
3839.142
 70
    32
  0
VERTEX
  8
T14SSILL
 62
8
 10
901.760
 20
-1915.204
 30
3839.139
 70
    32
  0
VERTEX
  8
T14SSILL
 62
8
 10
901.955
 20
-1912.736
 30
3839.139
 70
    32
  0
VERTEX
  8
T14SSILL
 62
8
 10
900.087
 20
-1908.829
 30
3839.139
 70
    32
  0
VERTEX
  8
T14SSILL
 62
8
 10
897.228
 20
-1907.238
 30
3839.141
 70
    32
  0
VERTEX
  8
T14SSILL
 62
8
 10
891.749
 20
-1890.500
 30
3839.141
 70
    32
  0
VERTEX
  8
T14SSILL
 62
8
 10
888.567
 20
-1889.973
 30
3839.143
 70
    32
  0
VERTEX
  8
T14SSILL
 62
8
 10
848.723
 20
-1918.614
 30
3839.173
 70
    32
  0
VERTEX
  8
T14SSILL
 62
8
 10
846.672
 20
-1920.782
 30
3839.174
 70
    32
  0
VERTEX
  8
T14SSILL
 62
8
 10
846.191
 20
-1922.467
 30
3839.175
 70
    32
  0
VERTEX
  8
T14SSILL
 62
8
 10
857.638
 20
-1938.686
 30
3839.171
 70
    32
  0
SEQEND
  8
T14SSILL
  0
POLYLINE
  8
T14SSILL
 62
8
 66
     1
 70
     9
  0
VERTEX
  8
T14SSILL
 62
8
 10
1160.140
 20
-2061.611
 30
3839.007
 70
    32
  0
VERTEX
  8
T14SSILL
 62
8
 10
1158.894
 20
-2051.618
 30
3839.005
 70
    32
  0
VERTEX
  8
T14SSILL
 62
8
 10
1155.742
 20
-2048.978
 30
3839.007
 70
    32
  0
VERTEX
  8
T14SSILL
 62
8
 10
1152.998
 20
-2048.351
 30
3839.008
 70
    32
  0
VERTEX
  8
T14SSILL
 62
8
 10
1139.547
 20
-2054.970
 30
3839.018
 70
    32
  0
VERTEX
  8
T14SSILL
 62
8
 10
1128.826
 20
-2064.857
 30
3839.026
 70
    32
  0
VERTEX
  8
T14SSILL
 62
8
 10
1128.396
 20
-2066.426
 30
3839.027
 70
    32
  0
VERTEX
  8
T14SSILL
 62
8
 10
1130.991
 20
-2069.996
 30
3839.026
 70
    32
  0
VERTEX
  8
T14SSILL
 62
8
 10
1135.294
 20
-2067.051
 30
3839.023
 70
    32
  0
VERTEX
  8
T14SSILL
 62
8
 10
1141.033
 20
-2075.705
 30
3839.021
 70
    32
  0
SEQEND
  8
T14SSILL
  0
POLYLINE
  8
T14SSILL
 62
8
 66
     1
 70
     9
  0
VERTEX
  8
T14SSILL
 62
8
 10
1104.007
 20
-2236.448
 30
3839.074
 70
    32
  0
VERTEX
  8
T14SSILL
 62
8
 10
1084.275
 20
-2250.120
 30
3839.088
 70
    32
  0
VERTEX
  8
T14SSILL
 62
8
 10
1088.375
 20
-2258.363
 30
3839.087
 70
    32
  0
VERTEX
  8
T14SSILL
 62
8
 10
1093.509
 20
-2259.540
 30
3839.084
 70
    32
  0
VERTEX
  8
T14SSILL
 62
8
 10
1103.500
 20
-2258.207
 30
3839.078
 70
    32
  0
VERTEX
  8
T14SSILL
 62
8
 10
1105.634
 20
-2259.027
 30
3839.077
 70
    32
  0
VERTEX
  8
T14SSILL
 62
8
 10
1120.531
 20
-2272.776
 30
3839.070
 70
    32
  0
VERTEX
  8
T14SSILL
 62
8
 10
1131.120
 20
-2270.810
 30
3839.063
 70
    32
  0
VERTEX
  8
T14SSILL
 62
8
 10
1134.116
 20
-2267.824
 30
3839.061
 70
    32
  0
VERTEX
  8
T14SSILL
 62
8
 10
1134.641
 20
-2264.554
 30
3839.060
 70
    32
  0
VERTEX
  8
T14SSILL
 62
8
 10
1133.247
 20
-2261.866
 30
3839.060
 70
    32
  0
VERTEX
  8
T14SSILL
 62
8
 10
1131.618
 20
-2260.240
 30
3839.061
 70
    32
  0
VERTEX
  8
T14SSILL
 62
8
 10
1121.656
 20
-2259.461
 30
3839.067
 70
    32
  0
VERTEX
  8
T14SSILL
 62
8
 10
1117.576
 20
-2255.088
 30
3839.069
 70
    32
  0
SEQEND
  8
T14SSILL
  0
POLYLINE
  8
T14SSILL
 62
8
 66
     1
 70
     9
  0
VERTEX
  8
T14SSILL
 62
8
 10
1101.722
 20
-2223.388
 30
3839.073
 70
    32
  0
VERTEX
  8
T14SSILL
 62
8
 10
1096.910
 20
-2214.143
 30
3839.074
 70
    32
  0
VERTEX
  8
T14SSILL
 62
8
 10
1087.101
 20
-2203.068
 30
3839.078
 70
    32
  0
VERTEX
  8
T14SSILL
 62
8
 10
1083.857
 20
-2203.422
 30
3839.080
 70
    32
  0
VERTEX
  8
T14SSILL
 62
8
 10
1072.276
 20
-2210.869
 30
3839.089
 70
    32
  0
VERTEX
  8
T14SSILL
 62
8
 10
1069.446
 20
-2213.499
 30
3839.091
 70
    32
  0
VERTEX
  8
T14SSILL
 62
8
 10
1068.631
 20
-2215.809
 30
3839.092
 70
    32
  0
VERTEX
  8
T14SSILL
 62
8
 10
1069.241
 20
-2218.783
 30
3839.092
 70
    32
  0
VERTEX
  8
T14SSILL
 62
8
 10
1081.306
 20
-2244.573
 30
3839.089
 70
    32
  0
VERTEX
  8
T14SSILL
 62
8
 10
1102.259
 20
-2230.198
 30
3839.074
 70
    32
  0
VERTEX
  8
T14SSILL
 62
8
 10
1099.014
 20
-2225.438
 30
3839.075
 70
    32
  0
SEQEND
  8
T14SSILL
  0
POLYLINE
  8
T14SSILL
 62
8
 66
     1
 70
     9
  0
VERTEX
  8
T14SSILL
 62
8
 10
1072.431
 20
-2149.918
 30
3839.077
 70
    32
  0
VERTEX
  8
T14SSILL
 62
8
 10
1074.521
 20
-2152.397
 30
3839.076
 70
    32
  0
VERTEX
  8
T14SSILL
 62
8
 10
1074.114
 20
-2153.552
 30
3839.077
 70
    32
  0
VERTEX
  8
T14SSILL
 62
8
 10
1080.799
 20
-2150.375
 30
3839.072
 70
    32
  0
VERTEX
  8
T14SSILL
 62
8
 10
1082.445
 20
-2147.433
 30
3839.070
 70
    32
  0
VERTEX
  8
T14SSILL
 62
8
 10
1080.382
 20
-2144.284
 30
3839.071
 70
    32
  0
SEQEND
  8
T14SSILL
  0
POLYLINE
  8
T14SSILL
 62
8
 66
     1
 70
     9
  0
VERTEX
  8
T14SSILL
 62
8
 10
1099.660
 20
-2092.199
 30
3839.050
 70
    32
  0
VERTEX
  8
T14SSILL
 62
8
 10
1095.408
 20
-2090.504
 30
3839.052
 70
    32
  0
VERTEX
  8
T14SSILL
 62
8
 10
1089.048
 20
-2092.704
 30
3839.056
 70
    32
  0
VERTEX
  8
T14SSILL
 62
8
 10
1081.576
 20
-2099.245
 30
3839.062
 70
    32
  0
VERTEX
  8
T14SSILL
 62
8
 10
1081.100
 20
-2101.106
 30
3839.063
 70
    32
  0
VERTEX
  8
T14SSILL
 62
8
 10
1082.818
 20
-2104.223
 30
3839.062
 70
    32
  0
SEQEND
  8
T14SSILL
  0
POLYLINE
  8
T14SSILL
 62
8
 66
     1
 70
     9
  0
VERTEX
  8
T14SSILL
 62
8
 10
1106.129
 20
-2219.868
 30
3839.069
 70
    32
  0
VERTEX
  8
T14SSILL
 62
8
 10
1113.510
 20
-2214.466
 30
3839.064
 70
    32
  0
VERTEX
  8
T14SSILL
 62
8
 10
1110.081
 20
-2209.632
 30
3839.065
 70
    32
  0
VERTEX
  8
T14SSILL
 62
8
 10
1127.323
 20
-2197.251
 30
3839.052
 70
    32
  0
VERTEX
  8
T14SSILL
 62
8
 10
1124.419
 20
-2194.290
 30
3839.053
 70
    32
  0
VERTEX
  8
T14SSILL
 62
8
 10
1122.654
 20
-2194.075
 30
3839.054
 70
    32
  0
VERTEX
  8
T14SSILL
 62
8
 10
1117.136
 20
-2198.099
 30
3839.058
 70
    32
  0
VERTEX
  8
T14SSILL
 62
8
 10
1104.676
 20
-2208.737
 30
3839.068
 70
    32
  0
VERTEX
  8
T14SSILL
 62
8
 10
1103.097
 20
-2212.036
 30
3839.070
 70
    32
  0
VERTEX
  8
T14SSILL
 62
8
 10
1104.276
 20
-2216.489
 30
3839.070
 70
    32
  0
SEQEND
  8
T14SSILL
  0
POLYLINE
  8
T14SSILL
 62
8
 66
     1
 70
     9
  0
VERTEX
  8
T14SSILL
 62
8
 10
1184.587
 20
-2168.954
 30
3839.011
 70
    32
  0
VERTEX
  8
T14SSILL
 62
8
 10
1186.521
 20
-2168.900
 30
3839.010
 70
    32
  0
VERTEX
  8
T14SSILL
 62
8
 10
1190.519
 20
-2166.316
 30
3839.007
 70
    32
  0
VERTEX
  8
T14SSILL
 62
8
 10
1180.379
 20
-2152.074
 30
3839.011
 70
    32
  0
VERTEX
  8
T14SSILL
 62
8
 10
1177.582
 20
-2154.283
 30
3839.013
 70
    32
  0
VERTEX
  8
T14SSILL
 62
8
 10
1175.983
 20
-2156.878
 30
3839.014
 70
    32
  0
VERTEX
  8
T14SSILL
 62
8
 10
1182.612
 20
-2167.514
 30
3839.012
 70
    32
  0
SEQEND
  8
T14SSILL
  0
POLYLINE
  8
T14SSILL
 62
8
 66
     1
 70
     9
  0
VERTEX
  8
T14SSILL
 62
8
 10
1173.230
 20
-2076.817
 30
3839.001
 70
    32
  0
VERTEX
  8
T14SSILL
 62
8
 10
1162.140
 20
-2084.506
 30
3839.010
 70
    32
  0
VERTEX
  8
T14SSILL
 62
8
 10
1164.753
 20
-2087.989
 30
3839.009
 70
    32
  0
VERTEX
  8
T14SSILL
 62
8
 10
1173.447
 20
-2081.474
 30
3839.002
 70
    32
  0
SEQEND
  8
T14SSILL
  0
POLYLINE
  8
T14SSILL
 62
8
 66
     1
 70
     9
  0
VERTEX
  8
T14SSILL
 62
8
 10
1074.946
 20
-2011.509
 30
3839.050
 70
    32
  0
VERTEX
  8
T14SSILL
 62
8
 10
1065.707
 20
-2017.725
 30
3839.057
 70
    32
  0
VERTEX
  8
T14SSILL
 62
8
 10
1063.380
 20
-2013.887
 30
3839.058
 70
    32
  0
VERTEX
  8
T14SSILL
 62
8
 10
1056.978
 20
-2021.287
 30
3839.063
 70
    32
  0
VERTEX
  8
T14SSILL
 62
8
 10
1053.611
 20
-2023.580
 30
3839.065
 70
    32
  0
VERTEX
  8
T14SSILL
 62
8
 10
1054.349
 20
-2037.458
 30
3839.067
 70
    32
  0
VERTEX
  8
T14SSILL
 62
8
 10
1057.289
 20
-2038.784
 30
3839.066
 70
    32
  0
VERTEX
  8
T14SSILL
 62
8
 10
1064.115
 20
-2034.372
 30
3839.061
 70
    32
  0
VERTEX
  8
T14SSILL
 62
8
 10
1065.448
 20
-2031.696
 30
3839.060
 70
    32
  0
VERTEX
  8
T14SSILL
 62
8
 10
1073.762
 20
-2026.978
 30
3839.054
 70
    32
  0
VERTEX
  8
T14SSILL
 62
8
 10
1075.161
 20
-2023.509
 30
3839.052
 70
    32
  0
VERTEX
  8
T14SSILL
 62
8
 10
1076.176
 20
-2013.667
 30
3839.050
 70
    32
  0
SEQEND
  8
T14SSILL
  0
POLYLINE
  8
T14SSILL
 62
8
 66
     1
 70
     9
  0
VERTEX
  8
T14SSILL
 62
8
 10
1117.761
 20
-1963.343
 30
3839.015
 70
    32
  0
VERTEX
  8
T14SSILL
 62
8
 10
1119.365
 20
-1965.880
 30
3839.014
 70
    32
  0
VERTEX
  8
T14SSILL
 62
8
 10
1134.118
 20
-1953.779
 30
3839.003
 70
    32
  0
VERTEX
  8
T14SSILL
 62
8
 10
1138.445
 20
-1951.196
 30
3838.999
 70
    32
  0
VERTEX
  8
T14SSILL
 62
8
 10
1138.161
 20
-1949.829
 30
3838.999
 70
    32
  0
VERTEX
  8
T14SSILL
 62
8
 10
1131.915
 20
-1941.794
 30
3839.002
 70
    32
  0
VERTEX
  8
T14SSILL
 62
8
 10
1128.450
 20
-1940.571
 30
3839.004
 70
    32
  0
VERTEX
  8
T14SSILL
 62
8
 10
1123.782
 20
-1943.516
 30
3839.007
 70
    32
  0
VERTEX
  8
T14SSILL
 62
8
 10
1108.329
 20
-1954.061
 30
3839.019
 70
    32
  0
VERTEX
  8
T14SSILL
 62
8
 10
1102.711
 20
-1960.815
 30
3839.023
 70
    32
  0
VERTEX
  8
T14SSILL
 62
8
 10
1102.484
 20
-1965.307
 30
3839.024
 70
    32
  0
VERTEX
  8
T14SSILL
 62
8
 10
1107.356
 20
-1970.071
 30
3839.022
 70
    32
  0
SEQEND
  8
T14SSILL
  0
POLYLINE
  8
T14SSILL
 62
8
 66
     1
 70
     9
  0
VERTEX
  8
T14SSILL
 62
8
 10
1139.562
 20
-1963.749
 30
3839.001
 70
    32
  0
VERTEX
  8
T14SSILL
 62
8
 10
1132.111
 20
-1967.827
 30
3839.006
 70
    32
  0
VERTEX
  8
T14SSILL
 62
8
 10
1131.095
 20
-1969.262
 30
3839.007
 70
    32
  0
VERTEX
  8
T14SSILL
 62
8
 10
1130.729
 20
-1971.911
 30
3839.008
 70
    32
  0
VERTEX
  8
T14SSILL
 62
8
 10
1135.795
 20
-1983.294
 30
3839.007
 70
    32
  0
VERTEX
  8
T14SSILL
 62
8
 10
1138.923
 20
-1981.888
 30
3839.005
 70
    32
  0
VERTEX
  8
T14SSILL
 62
8
 10
1142.261
 20
-1978.540
 30
3839.002
 70
    32
  0
VERTEX
  8
T14SSILL
 62
8
 10
1139.147
 20
-1970.974
 30
3839.003
 70
    32
  0
SEQEND
  8
T14SSILL
  0
POLYLINE
  8
T14SSILL
 62
8
 66
     1
 70
     9
  0
VERTEX
  8
T14SSILL
 62
8
 10
1176.542
 20
-2050.423
 30
3838.994
 70
    32
  0
VERTEX
  8
T14SSILL
 62
8
 10
1187.471
 20
-2041.675
 30
3838.986
 70
    32
  0
VERTEX
  8
T14SSILL
 62
8
 10
1188.467
 20
-2036.369
 30
3838.984
 70
    32
  0
VERTEX
  8
T14SSILL
 62
8
 10
1187.827
 20
-2032.340
 30
3838.984
 70
    32
  0
VERTEX
  8
T14SSILL
 62
8
 10
1185.827
 20
-2030.021
 30
3838.985
 70
    32
  0
VERTEX
  8
T14SSILL
 62
8
 10
1183.432
 20
-2029.296
 30
3838.986
 70
    32
  0
VERTEX
  8
T14SSILL
 62
8
 10
1178.095
 20
-2030.324
 30
3838.990
 70
    32
  0
VERTEX
  8
T14SSILL
 62
8
 10
1166.475
 20
-2036.365
 30
3838.998
 70
    32
  0
VERTEX
  8
T14SSILL
 62
8
 10
1162.618
 20
-2039.991
 30
3839.001
 70
    32
  0
VERTEX
  8
T14SSILL
 62
8
 10
1161.924
 20
-2043.528
 30
3839.002
 70
    32
  0
VERTEX
  8
T14SSILL
 62
8
 10
1162.857
 20
-2048.605
 30
3839.002
 70
    32
  0
VERTEX
  8
T14SSILL
 62
8
 10
1168.690
 20
-2055.920
 30
3839.000
 70
    32
  0
SEQEND
  8
T14SSILL
  0
POLYLINE
  8
T14SSILL
 62
8
 66
     1
 70
     9
  0
VERTEX
  8
T14SSILL
 62
8
 10
1159.585
 20
-1937.246
 30
3838.984
 70
    32
  0
VERTEX
  8
T14SSILL
 62
8
 10
1168.654
 20
-1930.424
 30
3838.977
 70
    32
  0
VERTEX
  8
T14SSILL
 62
8
 10
1167.530
 20
-1922.419
 30
3838.976
 70
    32
  0
VERTEX
  8
T14SSILL
 62
8
 10
1145.858
 20
-1883.261
 30
3838.982
 70
    32
  0
VERTEX
  8
T14SSILL
 62
8
 10
1139.917
 20
-1875.245
 30
3838.984
 70
    32
  0
VERTEX
  8
T14SSILL
 62
8
 10
1137.810
 20
-1875.392
 30
3838.986
 70
    32
  0
VERTEX
  8
T14SSILL
 62
8
 10
1135.918
 20
-1876.940
 30
3838.987
 70
    32
  0
VERTEX
  8
T14SSILL
 62
8
 10
1136.704
 20
-1886.242
 30
3838.988
 70
    32
  0
VERTEX
  8
T14SSILL
 62
8
 10
1139.942
 20
-1895.125
 30
3838.988
 70
    32
  0
VERTEX
  8
T14SSILL
 62
8
 10
1147.206
 20
-1906.446
 30
3838.986
 70
    32
  0
VERTEX
  8
T14SSILL
 62
8
 10
1151.501
 20
-1918.554
 30
3838.985
 70
    32
  0
VERTEX
  8
T14SSILL
 62
8
 10
1151.863
 20
-1928.397
 30
3838.987
 70
    32
  0
VERTEX
  8
T14SSILL
 62
8
 10
1153.166
 20
-1936.360
 30
3838.988
 70
    32
  0
SEQEND
  8
T14SSILL
  0
POLYLINE
  8
T14SSILL
 62
8
 66
     1
 70
     9
  0
VERTEX
  8
T14SSILL
 62
8
 10
1148.900
 20
-1859.777
 30
3838.976
 70
    32
  0
VERTEX
  8
T14SSILL
 62
8
 10
1144.785
 20
-1863.674
 30
3838.979
 70
    32
  0
VERTEX
  8
T14SSILL
 62
8
 10
1144.976
 20
-1867.363
 30
3838.980
 70
    32
  0
VERTEX
  8
T14SSILL
 62
8
 10
1160.837
 20
-1893.664
 30
3838.975
 70
    32
  0
VERTEX
  8
T14SSILL
 62
8
 10
1162.744
 20
-1895.810
 30
3838.974
 70
    32
  0
VERTEX
  8
T14SSILL
 62
8
 10
1164.400
 20
-1895.237
 30
3838.973
 70
    32
  0
VERTEX
  8
T14SSILL
 62
8
 10
1166.353
 20
-1892.719
 30
3838.971
 70
    32
  0
VERTEX
  8
T14SSILL
 62
8
 10
1185.719
 20
-1877.403
 30
3838.957
 70
    32
  0
VERTEX
  8
T14SSILL
 62
8
 10
1188.283
 20
-1874.692
 30
3838.954
 70
    32
  0
VERTEX
  8
T14SSILL
 62
8
 10
1189.416
 20
-1871.142
 30
3838.953
 70
    32
  0
VERTEX
  8
T14SSILL
 62
8
 10
1187.489
 20
-1858.793
 30
3838.952
 70
    32
  0
VERTEX
  8
T14SSILL
 62
8
 10
1182.262
 20
-1847.942
 30
3838.953
 70
    32
  0
VERTEX
  8
T14SSILL
 62
8
 10
1178.228
 20
-1845.239
 30
3838.955
 70
    32
  0
VERTEX
  8
T14SSILL
 62
8
 10
1175.396
 20
-1844.614
 30
3838.957
 70
    32
  0
VERTEX
  8
T14SSILL
 62
8
 10
1171.916
 20
-1846.030
 30
3838.959
 70
    32
  0
SEQEND
  8
T14SSILL
  0
POLYLINE
  8
T14SSILL
 62
8
 66
     1
 70
     9
  0
VERTEX
  8
T14SSILL
 62
8
 10
1098.041
 20
-1739.006
 30
3838.985
 70
    32
  0
VERTEX
  8
T14SSILL
 62
8
 10
1096.610
 20
-1741.333
 30
3838.986
 70
    32
  0
VERTEX
  8
T14SSILL
 62
8
 10
1098.129
 20
-1745.337
 30
3838.986
 70
    32
  0
VERTEX
  8
T14SSILL
 62
8
 10
1104.182
 20
-1754.229
 30
3838.984
 70
    32
  0
VERTEX
  8
T14SSILL
 62
8
 10
1110.554
 20
-1758.802
 30
3838.981
 70
    32
  0
VERTEX
  8
T14SSILL
 62
8
 10
1124.166
 20
-1754.817
 30
3838.972
 70
    32
  0
VERTEX
  8
T14SSILL
 62
8
 10
1127.108
 20
-1753.064
 30
3838.970
 70
    32
  0
VERTEX
  8
T14SSILL
 62
8
 10
1127.313
 20
-1747.781
 30
3838.969
 70
    32
  0
VERTEX
  8
T14SSILL
 62
8
 10
1125.458
 20
-1744.313
 30
3838.969
 70
    32
  0
VERTEX
  8
T14SSILL
 62
8
 10
1113.518
 20
-1729.339
 30
3838.974
 70
    32
  0
VERTEX
  8
T14SSILL
 62
8
 10
1110.610
 20
-1729.156
 30
3838.976
 70
    32
  0
SEQEND
  8
T14SSILL
  0
POLYLINE
  8
T14SSILL
 62
8
 66
     1
 70
     9
  0
VERTEX
  8
T14SSILL
 62
8
 10
1105.207
 20
-1724.644
 30
3838.978
 70
    32
  0
VERTEX
  8
T14SSILL
 62
8
 10
1105.878
 20
-1720.315
 30
3838.977
 70
    32
  0
VERTEX
  8
T14SSILL
 62
8
 10
1104.718
 20
-1716.565
 30
3838.977
 70
    32
  0
VERTEX
  8
T14SSILL
 62
8
 10
1099.463
 20
-1707.914
 30
3838.978
 70
    32
  0
VERTEX
  8
T14SSILL
 62
8
 10
1097.327
 20
-1707.006
 30
3838.980
 70
    32
  0
VERTEX
  8
T14SSILL
 62
8
 10
1091.213
 20
-1708.583
 30
3838.984
 70
    32
  0
VERTEX
  8
T14SSILL
 62
8
 10
1084.387
 20
-1712.996
 30
3838.989
 70
    32
  0
VERTEX
  8
T14SSILL
 62
8
 10
1082.731
 20
-1716.736
 30
3838.990
 70
    32
  0
VERTEX
  8
T14SSILL
 62
8
 10
1082.665
 20
-1720.696
 30
3838.991
 70
    32
  0
VERTEX
  8
T14SSILL
 62
8
 10
1084.191
 20
-1724.964
 30
3838.991
 70
    32
  0
VERTEX
  8
T14SSILL
 62
8
 10
1087.485
 20
-1729.535
 30
3838.990
 70
    32
  0
VERTEX
  8
T14SSILL
 62
8
 10
1090.176
 20
-1731.396
 30
3838.989
 70
    32
  0
VERTEX
  8
T14SSILL
 62
8
 10
1095.218
 20
-1732.399
 30
3838.986
 70
    32
  0
SEQEND
  8
T14SSILL
  0
POLYLINE
  8
T14SSILL
 62
8
 66
     1
 70
     9
  0
VERTEX
  8
T14SSILL
 62
8
 10
1068.983
 20
-1760.134
 30
3839.007
 70
    32
  0
VERTEX
  8
T14SSILL
 62
8
 10
1070.278
 20
-1768.719
 30
3839.008
 70
    32
  0
VERTEX
  8
T14SSILL
 62
8
 10
1076.990
 20
-1782.343
 30
3839.006
 70
    32
  0
VERTEX
  8
T14SSILL
 62
8
 10
1081.067
 20
-1786.628
 30
3839.004
 70
    32
  0
VERTEX
  8
T14SSILL
 62
8
 10
1083.541
 20
-1793.332
 30
3839.004
 70
    32
  0
VERTEX
  8
T14SSILL
 62
8
 10
1085.375
 20
-1805.509
 30
3839.005
 70
    32
  0
VERTEX
  8
T14SSILL
 62
8
 10
1086.977
 20
-1809.335
 30
3839.005
 70
    32
  0
VERTEX
  8
T14SSILL
 62
8
 10
1092.932
 20
-1817.878
 30
3839.003
 70
    32
  0
VERTEX
  8
T14SSILL
 62
8
 10
1098.091
 20
-1823.100
 30
3839.001
 70
    32
  0
VERTEX
  8
T14SSILL
 62
8
 10
1103.297
 20
-1826.826
 30
3838.998
 70
    32
  0
VERTEX
  8
T14SSILL
 62
8
 10
1106.966
 20
-1825.932
 30
3838.996
 70
    32
  0
VERTEX
  8
T14SSILL
 62
8
 10
1100.312
 20
-1785.917
 30
3838.992
 70
    32
  0
VERTEX
  8
T14SSILL
 62
8
 10
1100.317
 20
-1763.925
 30
3838.988
 70
    32
  0
VERTEX
  8
T14SSILL
 62
8
 10
1095.108
 20
-1750.611
 30
3838.989
 70
    32
  0
VERTEX
  8
T14SSILL
 62
8
 10
1091.256
 20
-1748.079
 30
3838.991
 70
    32
  0
VERTEX
  8
T14SSILL
 62
8
 10
1087.544
 20
-1747.479
 30
3838.993
 70
    32
  0
SEQEND
  8
T14SSILL
  0
POLYLINE
  8
T14SSILL
 62
8
 66
     1
 70
     9
  0
VERTEX
  8
T14SSILL
 62
8
 10
1106.667
 20
-1680.156
 30
3838.969
 70
    32
  0
VERTEX
  8
T14SSILL
 62
8
 10
1113.162
 20
-1676.739
 30
3838.964
 70
    32
  0
VERTEX
  8
T14SSILL
 62
8
 10
1123.022
 20
-1675.345
 30
3838.958
 70
    32
  0
VERTEX
  8
T14SSILL
 62
8
 10
1134.445
 20
-1677.676
 30
3838.951
 70
    32
  0
VERTEX
  8
T14SSILL
 62
8
 10
1144.734
 20
-1682.957
 30
3838.946
 70
    32
  0
VERTEX
  8
T14SSILL
 62
8
 10
1148.073
 20
-1679.542
 30
3838.943
 70
    32
  0
VERTEX
  8
T14SSILL
 62
8
 10
1147.954
 20
-1671.120
 30
3838.942
 70
    32
  0
VERTEX
  8
T14SSILL
 62
8
 10
1145.377
 20
-1662.807
 30
3838.942
 70
    32
  0
VERTEX
  8
T14SSILL
 62
8
 10
1141.281
 20
-1655.504
 30
3838.943
 70
    32
  0
VERTEX
  8
T14SSILL
 62
8
 10
1137.788
 20
-1651.812
 30
3838.944
 70
    32
  0
VERTEX
  8
T14SSILL
 62
8
 10
1128.518
 20
-1647.699
 30
3838.949
 70
    32
  0
VERTEX
  8
T14SSILL
 62
8
 10
1121.779
 20
-1647.250
 30
3838.953
 70
    32
  0
VERTEX
  8
T14SSILL
 62
8
 10
1099.947
 20
-1650.332
 30
3838.967
 70
    32
  0
VERTEX
  8
T14SSILL
 62
8
 10
1086.452
 20
-1656.361
 30
3838.977
 70
    32
  0
VERTEX
  8
T14SSILL
 62
8
 10
1082.422
 20
-1659.407
 30
3838.980
 70
    32
  0
VERTEX
  8
T14SSILL
 62
8
 10
1080.201
 20
-1663.643
 30
3838.982
 70
    32
  0
VERTEX
  8
T14SSILL
 62
8
 10
1078.180
 20
-1670.164
 30
3838.985
 70
    32
  0
VERTEX
  8
T14SSILL
 62
8
 10
1078.566
 20
-1675.260
 30
3838.985
 70
    32
  0
SEQEND
  8
T14SSILL
  0
POLYLINE
  8
T14SSILL
 62
8
 66
     1
 70
     9
  0
VERTEX
  8
T14SSILL
 62
8
 10
1070.154
 20
-1713.655
 30
3838.998
 70
    32
  0
VERTEX
  8
T14SSILL
 62
8
 10
1045.928
 20
-1702.893
 30
3839.011
 70
    32
  0
VERTEX
  8
T14SSILL
 62
8
 10
1043.035
 20
-1703.237
 30
3839.013
 70
    32
  0
VERTEX
  8
T14SSILL
 62
8
 10
1042.408
 20
-1705.982
 30
3839.013
 70
    32
  0
VERTEX
  8
T14SSILL
 62
8
 10
1044.193
 20
-1713.233
 30
3839.014
 70
    32
  0
VERTEX
  8
T14SSILL
 62
8
 10
1062.825
 20
-1750.629
 30
3839.009
 70
    32
  0
VERTEX
  8
T14SSILL
 62
8
 10
1067.318
 20
-1754.022
 30
3839.007
 70
    32
  0
VERTEX
  8
T14SSILL
 62
8
 10
1079.956
 20
-1743.467
 30
3838.997
 70
    32
  0
VERTEX
  8
T14SSILL
 62
8
 10
1080.678
 20
-1737.817
 30
3838.996
 70
    32
  0
VERTEX
  8
T14SSILL
 62
8
 10
1080.082
 20
-1732.204
 30
3838.995
 70
    32
  0
VERTEX
  8
T14SSILL
 62
8
 10
1077.179
 20
-1725.863
 30
3838.996
 70
    32
  0
VERTEX
  8
T14SSILL
 62
8
 10
1071.282
 20
-1716.263
 30
3838.997
 70
    32
  0
SEQEND
  8
T14SSILL
  0
POLYLINE
  8
T14SSILL
 62
8
 66
     1
 70
     9
  0
VERTEX
  8
T14SSILL
 62
8
 10
1093.020
 20
-1700.792
 30
3838.981
 70
    32
  0
VERTEX
  8
T14SSILL
 62
8
 10
1091.567
 20
-1702.328
 30
3838.982
 70
    32
  0
VERTEX
  8
T14SSILL
 62
8
 10
1088.942
 20
-1702.841
 30
3838.984
 70
    32
  0
VERTEX
  8
T14SSILL
 62
8
 10
1085.148
 20
-1705.585
 30
3838.987
 70
    32
  0
VERTEX
  8
T14SSILL
 62
8
 10
1077.486
 20
-1708.437
 30
3838.992
 70
    32
  0
VERTEX
  8
T14SSILL
 62
8
 10
1075.245
 20
-1703.749
 30
3838.993
 70
    32
  0
VERTEX
  8
T14SSILL
 62
8
 10
1073.223
 20
-1694.142
 30
3838.992
 70
    32
  0
VERTEX
  8
T14SSILL
 62
8
 10
1075.060
 20
-1687.966
 30
3838.990
 70
    32
  0
VERTEX
  8
T14SSILL
 62
8
 10
1077.359
 20
-1684.084
 30
3838.988
 70
    32
  0
VERTEX
  8
T14SSILL
 62
8
 10
1078.986
 20
-1682.287
 30
3838.986
 70
    32
  0
VERTEX
  8
T14SSILL
 62
8
 10
1097.213
 20
-1685.946
 30
3838.976
 70
    32
  0
VERTEX
  8
T14SSILL
 62
8
 10
1100.015
 20
-1689.267
 30
3838.975
 70
    32
  0
VERTEX
  8
T14SSILL
 62
8
 10
1093.957
 20
-1699.711
 30
3838.980
 70
    32
  0
SEQEND
  8
T14SSILL
  0
POLYLINE
  8
T14SSILL
 62
8
 66
     1
 70
     9
  0
VERTEX
  8
T14SSILL
 62
8
 10
1123.061
 20
-1800.503
 30
3838.981
 70
    32
  0
VERTEX
  8
T14SSILL
 62
8
 10
1118.334
 20
-1801.338
 30
3838.984
 70
    32
  0
VERTEX
  8
T14SSILL
 62
8
 10
1113.641
 20
-1803.403
 30
3838.987
 70
    32
  0
VERTEX
  8
T14SSILL
 62
8
 10
1111.752
 20
-1808.206
 30
3838.989
 70
    32
  0
VERTEX
  8
T14SSILL
 62
8
 10
1112.531
 20
-1814.078
 30
3838.990
 70
    32
  0
VERTEX
  8
T14SSILL
 62
8
 10
1119.621
 20
-1831.826
 30
3838.989
 70
    32
  0
VERTEX
  8
T14SSILL
 62
8
 10
1123.091
 20
-1833.225
 30
3838.987
 70
    32
  0
VERTEX
  8
T14SSILL
 62
8
 10
1124.732
 20
-1832.124
 30
3838.986
 70
    32
  0
VERTEX
  8
T14SSILL
 62
8
 10
1131.903
 20
-1821.105
 30
3838.979
 70
    32
  0
VERTEX
  8
T14SSILL
 62
8
 10
1140.377
 20
-1812.688
 30
3838.973
 70
    32
  0
VERTEX
  8
T14SSILL
 62
8
 10
1143.278
 20
-1806.274
 30
3838.970
 70
    32
  0
VERTEX
  8
T14SSILL
 62
8
 10
1142.152
 20
-1800.588
 30
3838.969
 70
    32
  0
VERTEX
  8
T14SSILL
 62
8
 10
1137.357
 20
-1795.795
 30
3838.971
 70
    32
  0
VERTEX
  8
T14SSILL
 62
8
 10
1132.769
 20
-1795.307
 30
3838.974
 70
    32
  0
SEQEND
  8
T14SSILL
  0
POLYLINE
  8
T14SSILL
 62
8
 66
     1
 70
     9
  0
VERTEX
  8
T14SSILL
 62
8
 10
1113.687
 20
-1767.072
 30
3838.981
 70
    32
  0
VERTEX
  8
T14SSILL
 62
8
 10
1110.201
 20
-1771.391
 30
3838.984
 70
    32
  0
VERTEX
  8
T14SSILL
 62
8
 10
1108.372
 20
-1775.225
 30
3838.985
 70
    32
  0
VERTEX
  8
T14SSILL
 62
8
 10
1108.990
 20
-1784.796
 30
3838.987
 70
    32
  0
VERTEX
  8
T14SSILL
 62
8
 10
1112.645
 20
-1792.875
 30
3838.986
 70
    32
  0
VERTEX
  8
T14SSILL
 62
8
 10
1117.074
 20
-1793.984
 30
3838.984
 70
    32
  0
VERTEX
  8
T14SSILL
 62
8
 10
1124.682
 20
-1792.365
 30
3838.979
 70
    32
  0
VERTEX
  8
T14SSILL
 62
8
 10
1134.688
 20
-1788.392
 30
3838.972
 70
    32
  0
VERTEX
  8
T14SSILL
 62
8
 10
1136.380
 20
-1785.970
 30
3838.970
 70
    32
  0
VERTEX
  8
T14SSILL
 62
8
 10
1136.849
 20
-1777.512
 30
3838.968
 70
    32
  0
VERTEX
  8
T14SSILL
 62
8
 10
1135.667
 20
-1772.971
 30
3838.968
 70
    32
  0
VERTEX
  8
T14SSILL
 62
8
 10
1132.617
 20
-1767.689
 30
3838.969
 70
    32
  0
VERTEX
  8
T14SSILL
 62
8
 10
1134.577
 20
-1762.269
 30
3838.967
 70
    32
  0
VERTEX
  8
T14SSILL
 62
8
 10
1132.924
 20
-1759.764
 30
3838.967
 70
    32
  0
VERTEX
  8
T14SSILL
 62
8
 10
1127.724
 20
-1759.381
 30
3838.971
 70
    32
  0
VERTEX
  8
T14SSILL
 62
8
 10
1125.390
 20
-1760.853
 30
3838.972
 70
    32
  0
SEQEND
  8
T14SSILL
  0
POLYLINE
  8
T14SSILL
 62
8
 66
     1
 70
     9
  0
VERTEX
  8
T14SSILL
 62
8
 10
1270.277
 20
-2109.218
 30
3838.947
 70
    32
  0
VERTEX
  8
T14SSILL
 62
8
 10
1272.834
 20
-2106.244
 30
3838.945
 70
    32
  0
VERTEX
  8
T14SSILL
 62
8
 10
1273.175
 20
-2102.716
 30
3838.944
 70
    32
  0
VERTEX
  8
T14SSILL
 62
8
 10
1271.334
 20
-2096.610
 30
3838.944
 70
    32
  0
VERTEX
  8
T14SSILL
 62
8
 10
1239.084
 20
-2040.856
 30
3838.954
 70
    32
  0
VERTEX
  8
T14SSILL
 62
8
 10
1232.621
 20
-2033.031
 30
3838.956
 70
    32
  0
VERTEX
  8
T14SSILL
 62
8
 10
1224.500
 20
-2028.858
 30
3838.961
 70
    32
  0
VERTEX
  8
T14SSILL
 62
8
 10
1217.290
 20
-2028.970
 30
3838.965
 70
    32
  0
VERTEX
  8
T14SSILL
 62
8
 10
1208.242
 20
-2035.731
 30
3838.972
 70
    32
  0
VERTEX
  8
T14SSILL
 62
8
 10
1207.324
 20
-2040.683
 30
3838.973
 70
    32
  0
VERTEX
  8
T14SSILL
 62
8
 10
1207.527
 20
-2047.979
 30
3838.975
 70
    32
  0
VERTEX
  8
T14SSILL
 62
8
 10
1237.215
 20
-2109.697
 30
3838.968
 70
    32
  0
VERTEX
  8
T14SSILL
 62
8
 10
1239.564
 20
-2115.086
 30
3838.967
 70
    32
  0
VERTEX
  8
T14SSILL
 62
8
 10
1239.909
 20
-2117.979
 30
3838.968
 70
    32
  0
VERTEX
  8
T14SSILL
 62
8
 10
1243.500
 20
-2123.773
 30
3838.966
 70
    32
  0
VERTEX
  8
T14SSILL
 62
8
 10
1246.347
 20
-2124.926
 30
3838.965
 70
    32
  0
VERTEX
  8
T14SSILL
 62
8
 10
1248.188
 20
-2124.698
 30
3838.964
 70
    32
  0
VERTEX
  8
T14SSILL
 62
8
 10
1251.209
 20
-2122.591
 30
3838.961
 70
    32
  0
SEQEND
  8
T14SSILL
  0
POLYLINE
  8
T14SSILL
 62
8
 66
     1
 70
     9
  0
VERTEX
  8
T14SSILL
 62
8
 10
1289.742
 20
-2129.085
 30
3838.939
 70
    32
  0
VERTEX
  8
T14SSILL
 62
8
 10
1288.783
 20
-2123.042
 30
3838.938
 70
    32
  0
VERTEX
  8
T14SSILL
 62
8
 10
1285.582
 20
-2118.645
 30
3838.939
 70
    32
  0
VERTEX
  8
T14SSILL
 62
8
 10
1281.101
 20
-2115.691
 30
3838.942
 70
    32
  0
VERTEX
  8
T14SSILL
 62
8
 10
1276.089
 20
-2115.742
 30
3838.945
 70
    32
  0
VERTEX
  8
T14SSILL
 62
8
 10
1269.477
 20
-2118.389
 30
3838.949
 70
    32
  0
VERTEX
  8
T14SSILL
 62
8
 10
1256.688
 20
-2126.661
 30
3838.959
 70
    32
  0
VERTEX
  8
T14SSILL
 62
8
 10
1255.323
 20
-2128.195
 30
3838.960
 70
    32
  0
VERTEX
  8
T14SSILL
 62
8
 10
1253.338
 20
-2139.070
 30
3838.963
 70
    32
  0
VERTEX
  8
T14SSILL
 62
8
 10
1262.387
 20
-2160.810
 30
3838.962
 70
    32
  0
VERTEX
  8
T14SSILL
 62
8
 10
1263.716
 20
-2173.792
 30
3838.963
 70
    32
  0
VERTEX
  8
T14SSILL
 62
8
 10
1260.384
 20
-2221.650
 30
3838.974
 70
    32
  0
VERTEX
  8
T14SSILL
 62
8
 10
1261.588
 20
-2230.149
 30
3838.975
 70
    32
  0
VERTEX
  8
T14SSILL
 62
8
 10
1263.556
 20
-2234.493
 30
3838.975
 70
    32
  0
VERTEX
  8
T14SSILL
 62
8
 10
1265.096
 20
-2236.122
 30
3838.974
 70
    32
  0
VERTEX
  8
T14SSILL
 62
8
 10
1266.688
 20
-2236.429
 30
3838.973
 70
    32
  0
VERTEX
  8
T14SSILL
 62
8
 10
1268.778
 20
-2235.667
 30
3838.972
 70
    32
  0
VERTEX
  8
T14SSILL
 62
8
 10
1294.290
 20
-2216.749
 30
3838.952
 70
    32
  0
SEQEND
  8
T14SSILL
  0
POLYLINE
  8
T14SSILL
 62
8
 66
     1
 70
     9
  0
VERTEX
  8
T14SSILL
 62
8
 10
1228.044
 20
-2258.925
 30
3839.001
 70
    32
  0
VERTEX
  8
T14SSILL
 62
8
 10
1231.714
 20
-2256.280
 30
3838.998
 70
    32
  0
VERTEX
  8
T14SSILL
 62
8
 10
1227.948
 20
-2251.080
 30
3839.000
 70
    32
  0
VERTEX
  8
T14SSILL
 62
8
 10
1243.866
 20
-2238.740
 30
3838.988
 70
    32
  0
VERTEX
  8
T14SSILL
 62
8
 10
1250.535
 20
-2248.046
 30
3838.985
 70
    32
  0
VERTEX
  8
T14SSILL
 62
8
 10
1252.373
 20
-2246.767
 30
3838.984
 70
    32
  0
VERTEX
  8
T14SSILL
 62
8
 10
1253.909
 20
-2245.053
 30
3838.982
 70
    32
  0
VERTEX
  8
T14SSILL
 62
8
 10
1254.932
 20
-2240.714
 30
3838.981
 70
    32
  0
VERTEX
  8
T14SSILL
 62
8
 10
1254.216
 20
-2237.128
 30
3838.981
 70
    32
  0
VERTEX
  8
T14SSILL
 62
8
 10
1250.102
 20
-2231.524
 30
3838.982
 70
    32
  0
VERTEX
  8
T14SSILL
 62
8
 10
1248.229
 20
-2230.609
 30
3838.983
 70
    32
  0
VERTEX
  8
T14SSILL
 62
8
 10
1223.838
 20
-2248.704
 30
3839.002
 70
    32
  0
VERTEX
  8
T14SSILL
 62
8
 10
1223.765
 20
-2252.401
 30
3839.003
 70
    32
  0
VERTEX
  8
T14SSILL
 62
8
 10
1225.227
 20
-2254.383
 30
3839.002
 70
    32
  0
SEQEND
  8
T14SSILL
  0
POLYLINE
  8
T14SSILL
 62
8
 66
     1
 70
     9
  0
VERTEX
  8
T14SSILL
 62
8
 10
1245.267
 20
-2283.465
 30
3838.995
 70
    32
  0
VERTEX
  8
T14SSILL
 62
8
 10
1246.802
 20
-2282.294
 30
3838.994
 70
    32
  0
VERTEX
  8
T14SSILL
 62
8
 10
1243.161
 20
-2276.730
 30
3838.995
 70
    32
  0
VERTEX
  8
T14SSILL
 62
8
 10
1261.655
 20
-2263.563
 30
3838.981
 70
    32
  0
VERTEX
  8
T14SSILL
 62
8
 10
1253.783
 20
-2252.578
 30
3838.984
 70
    32
  0
VERTEX
  8
T14SSILL
 62
8
 10
1258.260
 20
-2249.682
 30
3838.981
 70
    32
  0
VERTEX
  8
T14SSILL
 62
8
 10
1262.865
 20
-2250.786
 30
3838.978
 70
    32
  0
VERTEX
  8
T14SSILL
 62
8
 10
1267.236
 20
-2259.285
 30
3838.977
 70
    32
  0
VERTEX
  8
T14SSILL
 62
8
 10
1272.812
 20
-2266.871
 30
3838.975
 70
    32
  0
VERTEX
  8
T14SSILL
 62
8
 10
1273.577
 20
-2269.049
 30
3838.975
 70
    32
  0
VERTEX
  8
T14SSILL
 62
8
 10
1272.944
 20
-2271.618
 30
3838.976
 70
    32
  0
VERTEX
  8
T14SSILL
 62
8
 10
1270.591
 20
-2275.554
 30
3838.978
 70
    32
  0
VERTEX
  8
T14SSILL
 62
8
 10
1264.909
 20
-2280.022
 30
3838.982
 70
    32
  0
VERTEX
  8
T14SSILL
 62
8
 10
1253.849
 20
-2284.024
 30
3838.990
 70
    32
  0
VERTEX
  8
T14SSILL
 62
8
 10
1251.373
 20
-2286.732
 30
3838.992
 70
    32
  0
VERTEX
  8
T14SSILL
 62
8
 10
1247.210
 20
-2285.704
 30
3838.994
 70
    32
  0
SEQEND
  8
T14SSILL
  0
POLYLINE
  8
T14SSILL
 62
8
 66
     1
 70
     9
  0
VERTEX
  8
T14SSILL
 62
8
 10
1234.752
 20
-2135.076
 30
3838.974
 70
    32
  0
VERTEX
  8
T14SSILL
 62
8
 10
1236.630
 20
-2126.603
 30
3838.971
 70
    32
  0
VERTEX
  8
T14SSILL
 62
8
 10
1232.049
 20
-2116.878
 30
3838.972
 70
    32
  0
VERTEX
  8
T14SSILL
 62
8
 10
1224.825
 20
-2121.411
 30
3838.978
 70
    32
  0
SEQEND
  8
T14SSILL
  0
POLYLINE
  8
T14SSILL
 62
8
 66
     1
 70
     9
  0
VERTEX
  8
T14SSILL
 62
8
 10
1249.542
 20
-2155.433
 30
3838.969
 70
    32
  0
VERTEX
  8
T14SSILL
 62
8
 10
1251.443
 20
-2152.826
 30
3838.967
 70
    32
  0
VERTEX
  8
T14SSILL
 62
8
 10
1249.305
 20
-2145.867
 30
3838.967
 70
    32
  0
VERTEX
  8
T14SSILL
 62
8
 10
1246.758
 20
-2142.859
 30
3838.968
 70
    32
  0
VERTEX
  8
T14SSILL
 62
8
 10
1243.630
 20
-2141.099
 30
3838.970
 70
    32
  0
VERTEX
  8
T14SSILL
 62
8
 10
1238.769
 20
-2140.604
 30
3838.972
 70
    32
  0
SEQEND
  8
T14SSILL
  0
POLYLINE
  8
T14SSILL
 62
8
 66
     1
 70
     9
  0
VERTEX
  8
T14SSILL
 62
8
 10
1222.753
 20
-1975.511
 30
3838.952
 70
    32
  0
VERTEX
  8
T14SSILL
 62
8
 10
1217.953
 20
-1980.043
 30
3838.956
 70
    32
  0
VERTEX
  8
T14SSILL
 62
8
 10
1217.512
 20
-1989.467
 30
3838.958
 70
    32
  0
VERTEX
  8
T14SSILL
 62
8
 10
1229.627
 20
-2010.770
 30
3838.954
 70
    32
  0
VERTEX
  8
T14SSILL
 62
8
 10
1231.986
 20
-2010.177
 30
3838.953
 70
    32
  0
VERTEX
  8
T14SSILL
 62
8
 10
1246.372
 20
-1999.221
 30
3838.942
 70
    32
  0
VERTEX
  8
T14SSILL
 62
8
 10
1248.554
 20
-1992.299
 30
3838.939
 70
    32
  0
VERTEX
  8
T14SSILL
 62
8
 10
1247.780
 20
-1989.770
 30
3838.939
 70
    32
  0
VERTEX
  8
T14SSILL
 62
8
 10
1238.194
 20
-1974.026
 30
3838.942
 70
    32
  0
VERTEX
  8
T14SSILL
 62
8
 10
1231.936
 20
-1970.418
 30
3838.945
 70
    32
  0
VERTEX
  8
T14SSILL
 62
8
 10
1226.975
 20
-1972.315
 30
3838.949
 70
    32
  0
SEQEND
  8
T14SSILL
  0
POLYLINE
  8
T14SSILL
 62
8
 66
     1
 70
     9
  0
VERTEX
  8
T14SSILL
 62
8
 10
1530.395
 20
-2188.370
 30
3837.656
 70
    32
  0
VERTEX
  8
T14SSILL
 62
8
 10
1527.657
 20
-2188.007
 30
3837.673
 70
    32
  0
VERTEX
  8
T14SSILL
 62
8
 10
1494.943
 20
-2212.350
 30
3837.854
 70
    32
  0
VERTEX
  8
T14SSILL
 62
8
 10
1503.512
 20
-2223.383
 30
3837.790
 70
    32
  0
VERTEX
  8
T14SSILL
 62
8
 10
1492.834
 20
-2231.425
 30
3837.848
 70
    32
  0
VERTEX
  8
T14SSILL
 62
8
 10
1502.004
 20
-2233.495
 30
3837.789
 70
    32
  0
VERTEX
  8
T14SSILL
 62
8
 10
1505.677
 20
-2239.022
 30
3837.761
 70
    32
  0
VERTEX
  8
T14SSILL
 62
8
 10
1507.459
 20
-2239.852
 30
3837.749
 70
    32
  0
VERTEX
  8
T14SSILL
 62
8
 10
1542.579
 20
-2231.135
 30
3837.538
 70
    32
  0
VERTEX
  8
T14SSILL
 62
8
 10
1543.783
 20
-2226.967
 30
3837.534
 70
    32
  0
VERTEX
  8
T14SSILL
 62
8
 10
1540.620
 20
-2192.309
 30
3837.588
 70
    32
  0
VERTEX
  8
T14SSILL
 62
8
 10
1533.229
 20
-2189.083
 30
3837.637
 70
    32
  0
SEQEND
  8
T14SSILL
  0
POLYLINE
  8
T14SSILL
 62
8
 66
     1
 70
     9
  0
VERTEX
  8
T14SSILL
 62
8
 10
1550.566
 20
-2268.475
 30
3837.451
 70
    32
  0
VERTEX
  8
T14SSILL
 62
8
 10
1549.167
 20
-2265.611
 30
3837.463
 70
    32
  0
VERTEX
  8
T14SSILL
 62
8
 10
1543.901
 20
-2266.021
 30
3837.495
 70
    32
  0
VERTEX
  8
T14SSILL
 62
8
 10
1541.659
 20
-2267.667
 30
3837.508
 70
    32
  0
VERTEX
  8
T14SSILL
 62
8
 10
1540.138
 20
-2266.741
 30
3837.518
 70
    32
  0
VERTEX
  8
T14SSILL
 62
8
 10
1537.447
 20
-2261.714
 30
3837.540
 70
    32
  0
VERTEX
  8
T14SSILL
 62
8
 10
1540.761
 20
-2254.321
 30
3837.526
 70
    32
  0
VERTEX
  8
T14SSILL
 62
8
 10
1540.668
 20
-2247.814
 30
3837.533
 70
    32
  0
VERTEX
  8
T14SSILL
 62
8
 10
1541.383
 20
-2245.067
 30
3837.531
 70
    32
  0
VERTEX
  8
T14SSILL
 62
8
 10
1542.631
 20
-2242.481
 30
3837.526
 70
    32
  0
VERTEX
  8
T14SSILL
 62
8
 10
1544.264
 20
-2241.117
 30
3837.517
 70
    32
  0
VERTEX
  8
T14SSILL
 62
8
 10
1543.553
 20
-2237.706
 30
3837.525
 70
    32
  0
VERTEX
  8
T14SSILL
 62
8
 10
1539.068
 20
-2237.742
 30
3837.553
 70
    32
  0
VERTEX
  8
T14SSILL
 62
8
 10
1507.877
 20
-2245.383
 30
3837.741
 70
    32
  0
VERTEX
  8
T14SSILL
 62
8
 10
1505.213
 20
-2250.823
 30
3837.752
 70
    32
  0
VERTEX
  8
T14SSILL
 62
8
 10
1505.608
 20
-2252.395
 30
3837.748
 70
    32
  0
VERTEX
  8
T14SSILL
 62
8
 10
1515.829
 20
-2259.324
 30
3837.677
 70
    32
  0
VERTEX
  8
T14SSILL
 62
8
 10
1521.264
 20
-2264.979
 30
3837.638
 70
    32
  0
VERTEX
  8
T14SSILL
 62
8
 10
1524.915
 20
-2272.882
 30
3837.607
 70
    32
  0
VERTEX
  8
T14SSILL
 62
8
 10
1525.838
 20
-2280.774
 30
3837.594
 70
    32
  0
VERTEX
  8
T14SSILL
 62
8
 10
1524.712
 20
-2284.588
 30
3837.597
 70
    32
  0
VERTEX
  8
T14SSILL
 62
8
 10
1527.784
 20
-2291.429
 30
3837.571
 70
    32
  0
VERTEX
  8
T14SSILL
 62
8
 10
1532.325
 20
-2287.964
 30
3837.546
 70
    32
  0
VERTEX
  8
T14SSILL
 62
8
 10
1530.455
 20
-2285.483
 30
3837.560
 70
    32
  0
VERTEX
  8
T14SSILL
 62
8
 10
1549.384
 20
-2271.059
 30
3837.456
 70
    32
  0
SEQEND
  8
T14SSILL
  0
POLYLINE
  8
T14SSILL
 62
8
 66
     1
 70
     9
  0
VERTEX
  8
T14SSILL
 62
8
 10
1581.248
 20
-2296.299
 30
3837.232
 70
    32
  0
VERTEX
  8
T14SSILL
 62
8
 10
1579.022
 20
-2294.617
 30
3837.247
 70
    32
  0
VERTEX
  8
T14SSILL
 62
8
 10
1584.404
 20
-2290.486
 30
3837.218
 70
    32
  0
VERTEX
  8
T14SSILL
 62
8
 10
1586.161
 20
-2292.644
 30
3837.205
 70
    32
  0
VERTEX
  8
T14SSILL
 62
8
 10
1585.038
 20
-2296.545
 30
3837.208
 70
    32
  0
VERTEX
  8
T14SSILL
 62
8
 10
1583.490
 20
-2297.820
 30
3837.216
 70
    32
  0
SEQEND
  8
T14SSILL
  0
POLYLINE
  8
T14SSILL
 62
8
 66
     1
 70
     9
  0
VERTEX
  8
T14SSILL
 62
8
 10
1092.525
 20
-1118.719
 30
3835.775
 70
    32
  0
VERTEX
  8
T14SSILL
 62
8
 10
1110.982
 20
-1107.776
 30
3835.747
 70
    32
  0
VERTEX
  8
T14SSILL
 62
8
 10
1113.146
 20
-1105.129
 30
3835.762
 70
    32
  0
VERTEX
  8
T14SSILL
 62
8
 10
1112.599
 20
-1102.858
 30
3835.799
 70
    32
  0
VERTEX
  8
T14SSILL
 62
8
 10
1105.662
 20
-1091.454
 30
3836.055
 70
    32
  0
VERTEX
  8
T14SSILL
 62
8
 10
1091.669
 20
-1083.707
 30
3836.303
 70
    32
  0
VERTEX
  8
T14SSILL
 62
8
 10
1083.201
 20
-1086.326
 30
3836.325
 70
    32
  0
VERTEX
  8
T14SSILL
 62
8
 10
1082.568
 20
-1093.423
 30
3836.206
 70
    32
  0
VERTEX
  8
T14SSILL
 62
8
 10
1084.225
 20
-1101.988
 30
3836.064
 70
    32
  0
SEQEND
  8
T14SSILL
  0
POLYLINE
  8
T14SSILL
 62
3
 66
     1
 70
     9
  0
VERTEX
  8
T14SSILL
 62
3
 10
-857.841
 20
-544.819
 30
3846.426
 70
    32
  0
VERTEX
  8
T14SSILL
 62
3
 10
-850.380
 20
-546.899
 30
3847.671
 70
    32
  0
VERTEX
  8
T14SSILL
 62
3
 10
-842.176
 20
-540.303
 30
3847.870
 70
    32
  0
VERTEX
  8
T14SSILL
 62
3
 10
-837.625
 20
-543.884
 30
3848.053
 70
    32
  0
VERTEX
  8
T14SSILL
 62
3
 10
-828.838
 20
-547.849
 30
3848.228
 70
    32
  0
VERTEX
  8
T14SSILL
 62
3
 10
-818.477
 20
-560.830
 30
3850.393
 70
    32
  0
VERTEX
  8
T14SSILL
 62
3
 10
-810.351
 20
-567.589
 30
3852.655
 70
    32
  0
VERTEX
  8
T14SSILL
 62
3
 10
-814.579
 20
-577.192
 30
3852.887
 70
    32
  0
VERTEX
  8
T14SSILL
 62
3
 10
-822.776
 20
-570.284
 30
3850.608
 70
    32
  0
VERTEX
  8
T14SSILL
 62
3
 10
-825.126
 20
-575.833
 30
3850.814
 70
    32
  0
VERTEX
  8
T14SSILL
 62
3
 10
-834.586
 20
-568.131
 30
3848.746
 70
    32
  0
VERTEX
  8
T14SSILL
 62
3
 10
-839.102
 20
-570.524
 30
3846.155
 70
    32
  0
SEQEND
  8
T14SSILL
  0
TEXT
  8
T14SSILL
 62
8
 10
4.996
 20
-143.334
 30
3839.030
 40
0.200
  1
1400
 50
-50.849
 41
 1.0 
  0
TEXT
  8
T14SSILL
 62
3
 10
-1449.224
 20
241.132
 30
3862.757
 40
0.200
  1
U
 41
 1.0 
  0
TEXT
  8
T14SSILL
 62
3
 10
-835.230
 20
-559.590
 30
3847.671
 40
0.200
  1
U
 41
 1.0 
  0
POLYLINE
  8
T14SSILL
 62
8
 66
     1
 70
     9
  0
VERTEX
  8
T14SSILL
 62
8
 10
-1425.936
 20
224.577
 30
3859.000
 70
    32
  0
VERTEX
  8
T14SSILL
 62
8
 10
-1420.881
 20
220.348
 30
3859.000
 70
    32
  0
VERTEX
  8
T14SSILL
 62
8
 10
-1412.989
 20
228.265
 30
3859.000
 70
    32
  0
VERTEX
  8
T14SSILL
 62
8
 10
-1437.814
 20
262.833
 30
3859.000
 70
    32
  0
VERTEX
  8
T14SSILL
 62
8
 10
-1437.053
 20
283.627
 30
3859.000
 70
    32
  0
VERTEX
  8
T14SSILL
 62
8
 10
-1430.410
 20
294.182
 30
3859.000
 70
    32
  0
VERTEX
  8
T14SSILL
 62
8
 10
-1435.749
 20
298.955
 30
3859.000
 70
    32
  0
VERTEX
  8
T14SSILL
 62
8
 10
-1441.854
 20
298.808
 30
3859.000
 70
    32
  0
VERTEX
  8
T14SSILL
 62
8
 10
-1448.984
 20
297.540
 30
3859.000
 70
    32
  0
VERTEX
  8
T14SSILL
 62
8
 10
-1449.089
 20
291.907
 30
3859.000
 70
    32
  0
VERTEX
  8
T14SSILL
 62
8
 10
-1458.821
 20
291.856
 30
3859.000
 70
    32
  0
VERTEX
  8
T14SSILL
 62
8
 10
-1463.710
 20
298.926
 30
3859.000
 70
    32
  0
VERTEX
  8
T14SSILL
 62
8
 10
-1465.864
 20
300.075
 30
3859.453
 70
    32
  0
VERTEX
  8
T14SSILL
 62
8
 10
-1473.174
 20
313.160
 30
3859.718
 70
    32
  0
VERTEX
  8
T14SSILL
 62
8
 10
-1480.152
 20
334.596
 30
3859.000
 70
    32
  0
VERTEX
  8
T14SSILL
 62
8
 10
-1491.708
 20
333.692
 30
3859.000
 70
    32
  0
VERTEX
  8
T14SSILL
 62
8
 10
-1484.096
 20
309.794
 30
3859.673
 70
    32
  0
VERTEX
  8
T14SSILL
 62
8
 10
-1473.385
 20
293.897
 30
3859.347
 70
    32
  0
VERTEX
  8
T14SSILL
 62
8
 10
-1469.232
 20
278.696
 30
3859.047
 70
    32
  0
VERTEX
  8
T14SSILL
 62
8
 10
-1468.441
 20
274.099
 30
3859.000
 70
    32
  0
VERTEX
  8
T14SSILL
 62
8
 10
-1459.051
 20
252.185
 30
3859.000
 70
    32
  0
VERTEX
  8
T14SSILL
 62
8
 10
-1460.341
 20
245.968
 30
3859.000
 70
    32
  0
VERTEX
  8
T14SSILL
 62
8
 10
-1456.680
 20
243.717
 30
3859.000
 70
    32
  0
VERTEX
  8
T14SSILL
 62
8
 10
-1454.862
 20
235.719
 30
3859.000
 70
    32
  0
VERTEX
  8
T14SSILL
 62
8
 10
-1457.532
 20
228.408
 30
3859.000
 70
    32
  0
VERTEX
  8
T14SSILL
 62
8
 10
-1458.505
 20
221.443
 30
3859.000
 70
    32
  0
VERTEX
  8
T14SSILL
 62
8
 10
-1450.356
 20
216.236
 30
3859.000
 70
    32
  0
VERTEX
  8
T14SSILL
 62
8
 10
-1438.039
 20
231.840
 30
3859.000
 70
    32
  0
VERTEX
  8
T14SSILL
 62
8
 10
-1433.100
 20
230.826
 30
3859.000
 70
    32
  0
SEQEND
  8
T14SSILL
  0
POLYLINE
  8
T14SSILL
 62
8
 66
     1
 70
     8
  0
VERTEX
  8
T14SSILL
 62
8
 10
-748.708
 20
-1208.574
 30
3855.045
 70
    32
  0
VERTEX
  8
T14SSILL
 62
8
 10
-758.705
 20
-1203.918
 30
3855.045
 70
    32
  0
VERTEX
  8
T14SSILL
 62
8
 10
-762.189
 20
-1200.207
 30
3855.045
 70
    32
  0
VERTEX
  8
T14SSILL
 62
8
 10
-768.165
 20
-1196.607
 30
3855.045
 70
    32
  0
VERTEX
  8
T14SSILL
 62
8
 10
-774.034
 20
-1187.108
 30
3855.045
 70
    32
  0
VERTEX
  8
T14SSILL
 62
8
 10
-776.338
 20
-1183.297
 30
3855.045
 70
    32
  0
VERTEX
  8
T14SSILL
 62
8
 10
-775.089
 20
-1178.009
 30
3851.045
 70
    32
  0
VERTEX
  8
T14SSILL
 62
8
 10
-777.505
 20
-1170.096
 30
3850.045
 70
    32
  0
VERTEX
  8
T14SSILL
 62
8
 10
-774.938
 20
-1166.458
 30
3850.045
 70
    32
  0
VERTEX
  8
T14SSILL
 62
8
 10
-765.730
 20
-1161.382
 30
3850.445
 70
    32
  0
VERTEX
  8
T14SSILL
 62
8
 10
-758.529
 20
-1169.174
 30
3851.045
 70
    32
  0
VERTEX
  8
T14SSILL
 62
8
 10
-752.653
 20
-1172.859
 30
3855.045
 70
    32
  0
VERTEX
  8
T14SSILL
 62
8
 10
-749.392
 20
-1173.689
 30
3855.045
 70
    32
  0
VERTEX
  8
T14SSILL
 62
8
 10
-745.573
 20
-1179.245
 30
3855.045
 70
    32
  0
VERTEX
  8
T14SSILL
 62
8
 10
-742.884
 20
-1180.082
 30
3855.045
 70
    32
  0
VERTEX
  8
T14SSILL
 62
8
 10
-736.542
 20
-1189.622
 30
3855.045
 70
    32
  0
VERTEX
  8
T14SSILL
 62
8
 10
-731.089
 20
-1200.280
 30
3855.045
 70
    32
  0
VERTEX
  8
T14SSILL
 62
8
 10
-734.251
 20
-1209.497
 30
3855.045
 70
    32
  0
SEQEND
  8
T14SSILL
  0
POLYLINE
  8
T14SSILL
 62
8
 66
     1
 70
     9
  0
VERTEX
  8
T14SSILL
 62
8
 10
-1412.989
 20
228.265
 30
3858.742
 70
    32
  0
VERTEX
  8
T14SSILL
 62
8
 10
-1334.350
 20
118.699
 30
3859.800
 70
    32
  0
VERTEX
  8
T14SSILL
 62
8
 10
-1288.329
 20
54.535
 30
3858.369
 70
    32
  0
VERTEX
  8
T14SSILL
 62
8
 10
-1281.204
 20
51.532
 30
3860.057
 70
    32
  0
VERTEX
  8
T14SSILL
 62
8
 10
-1275.959
 20
51.552
 30
3860.425
 70
    32
  0
VERTEX
  8
T14SSILL
 62
8
 10
-1270.214
 20
54.467
 30
3861.105
 70
    32
  0
VERTEX
  8
T14SSILL
 62
8
 10
-1265.837
 20
58.438
 30
3861.790
 70
    32
  0
VERTEX
  8
T14SSILL
 62
8
 10
-1260.077
 20
66.130
 30
3862.928
 70
    32
  0
VERTEX
  8
T14SSILL
 62
8
 10
-1251.997
 20
59.497
 30
3862.858
 70
    32
  0
VERTEX
  8
T14SSILL
 62
8
 10
-1256.991
 20
51.088
 30
3861.705
 70
    32
  0
VERTEX
  8
T14SSILL
 62
8
 10
-1261.340
 20
38.510
 30
3860.199
 70
    32
  0
VERTEX
  8
T14SSILL
 62
8
 10
-1262.904
 20
24.806
 30
3858.780
 70
    32
  0
VERTEX
  8
T14SSILL
 62
8
 10
-1260.718
 20
16.038
 30
3857.511
 70
    32
  0
VERTEX
  8
T14SSILL
 62
8
 10
-941.775
 20
-428.646
 30
3847.597
 70
    32
  0
VERTEX
  8
T14SSILL
 62
8
 10
-936.883
 20
-427.212
 30
3847.572
 70
    32
  0
VERTEX
  8
T14SSILL
 62
8
 10
-926.474
 20
-448.958
 30
3847.228
 70
    32
  0
VERTEX
  8
T14SSILL
 62
8
 10
-915.684
 20
-463.920
 30
3846.961
 70
    32
  0
VERTEX
  8
T14SSILL
 62
8
 10
-886.741
 20
-417.605
 30
3846.712
 70
    32
  0
VERTEX
  8
T14SSILL
 62
8
 10
-870.751
 20
-402.696
 30
3847.242
 70
    32
  0
VERTEX
  8
T14SSILL
 62
8
 10
-854.296
 20
-394.841
 30
3847.073
 70
    32
  0
VERTEX
  8
T14SSILL
 62
8
 10
-827.979
 20
-376.648
 30
3847.028
 70
    32
  0
VERTEX
  8
T14SSILL
 62
8
 10
-831.211
 20
-366.392
 30
3847.280
 70
    32
  0
VERTEX
  8
T14SSILL
 62
8
 10
-815.688
 20
-356.064
 30
3847.259
 70
    32
  0
VERTEX
  8
T14SSILL
 62
8
 10
-812.369
 20
-354.950
 30
3847.256
 70
    32
  0
VERTEX
  8
T14SSILL
 62
8
 10
-802.759
 20
-360.233
 30
3847.143
 70
    32
  0
VERTEX
  8
T14SSILL
 62
8
 10
-797.561
 20
-365.578
 30
3847.042
 70
    32
  0
VERTEX
  8
T14SSILL
 62
8
 10
-817.613
 20
-381.925
 30
3846.845
 70
    32
  0
VERTEX
  8
T14SSILL
 62
8
 10
-817.910
 20
-390.620
 30
3846.708
 70
    32
  0
VERTEX
  8
T14SSILL
 62
8
 10
-746.184
 20
-390.442
 30
3846.297
 70
    32
  0
VERTEX
  8
T14SSILL
 62
8
 10
-745.567
 20
-386.514
 30
3846.337
 70
    32
  0
VERTEX
  8
T14SSILL
 62
8
 10
-743.831
 20
-384.271
 30
3846.348
 70
    32
  0
VERTEX
  8
T14SSILL
 62
8
 10
-744.000
 20
-373.741
 30
3846.471
 70
    32
  0
VERTEX
  8
T14SSILL
 62
8
 10
-736.913
 20
-365.861
 30
3846.498
 70
    32
  0
VERTEX
  8
T14SSILL
 62
8
 10
-742.568
 20
-354.218
 30
3846.683
 70
    32
  0
VERTEX
  8
T14SSILL
 62
8
 10
-743.066
 20
-345.775
 30
3846.785
 70
    32
  0
VERTEX
  8
T14SSILL
 62
8
 10
-744.794
 20
-341.164
 30
3846.853
 70
    32
  0
VERTEX
  8
T14SSILL
 62
8
 10
-734.504
 20
-331.711
 30
3846.871
 70
    32
  0
VERTEX
  8
T14SSILL
 62
8
 10
-728.297
 20
-339.039
 30
3846.731
 70
    32
  0
VERTEX
  8
T14SSILL
 62
8
 10
-720.764
 20
-339.530
 30
3846.658
 70
    32
  0
VERTEX
  8
T14SSILL
 62
8
 10
-719.022
 20
-353.263
 30
3846.484
 70
    32
  0
VERTEX
  8
T14SSILL
 62
8
 10
-720.285
 20
-365.706
 30
3846.352
 70
    32
  0
VERTEX
  8
T14SSILL
 62
8
 10
-715.707
 20
-371.394
 30
3846.245
 70
    32
  0
VERTEX
  8
T14SSILL
 62
8
 10
-714.645
 20
-374.643
 30
3846.199
 70
    32
  0
VERTEX
  8
T14SSILL
 62
8
 10
-716.700
 20
-382.118
 30
3846.131
 70
    32
  0
VERTEX
  8
T14SSILL
 62
8
 10
-709.884
 20
-391.177
 30
3845.965
 70
    32
  0
VERTEX
  8
T14SSILL
 62
8
 10
-677.654
 20
-392.592
 30
3845.662
 70
    32
  0
VERTEX
  8
T14SSILL
 62
8
 10
-669.684
 20
-390.700
 30
3845.613
 70
    32
  0
VERTEX
  8
T14SSILL
 62
8
 10
-647.596
 20
-391.025
 30
3845.412
 70
    32
  0
VERTEX
  8
T14SSILL
 62
8
 10
-647.291
 20
-407.233
 30
3845.222
 70
    32
  0
VERTEX
  8
T14SSILL
 62
8
 10
-700.896
 20
-402.023
 30
3845.760
 70
    32
  0
VERTEX
  8
T14SSILL
 62
8
 10
-711.682
 20
-414.228
 30
3845.716
 70
    32
  0
VERTEX
  8
T14SSILL
 62
8
 10
-713.791
 20
-418.047
 30
3845.690
 70
    32
  0
VERTEX
  8
T14SSILL
 62
8
 10
-719.102
 20
-417.024
 30
3845.749
 70
    32
  0
VERTEX
  8
T14SSILL
 62
8
 10
-723.592
 20
-417.577
 30
3845.783
 70
    32
  0
VERTEX
  8
T14SSILL
 62
8
 10
-725.373
 20
-419.309
 30
3845.779
 70
    32
  0
VERTEX
  8
T14SSILL
 62
8
 10
-726.931
 20
-426.423
 30
3845.711
 70
    32
  0
VERTEX
  8
T14SSILL
 62
8
 10
-731.607
 20
-427.764
 30
3845.737
 70
    32
  0
VERTEX
  8
T14SSILL
 62
8
 10
-740.826
 20
-444.806
 30
3845.623
 70
    32
  0
VERTEX
  8
T14SSILL
 62
8
 10
-728.098
 20
-469.950
 30
3845.219
 70
    32
  0
VERTEX
  8
T14SSILL
 62
8
 10
-740.543
 20
-474.736
 30
3845.275
 70
    32
  0
VERTEX
  8
T14SSILL
 62
8
 10
-747.306
 20
-471.553
 30
3845.372
 70
    32
  0
VERTEX
  8
T14SSILL
 62
8
 10
-750.764
 20
-441.610
 30
3845.748
 70
    32
  0
VERTEX
  8
T14SSILL
 62
8
 10
-746.524
 20
-427.433
 30
3845.874
 70
    32
  0
VERTEX
  8
T14SSILL
 62
8
 10
-742.677
 20
-422.566
 30
3845.896
 70
    32
  0
VERTEX
  8
T14SSILL
 62
8
 10
-740.963
 20
-416.860
 30
3845.946
 70
    32
  0
VERTEX
  8
T14SSILL
 62
8
 10
-741.520
 20
-415.200
 30
3845.970
 70
    32
  0
VERTEX
  8
T14SSILL
 62
8
 10
-747.331
 20
-410.954
 30
3846.071
 70
    32
  0
VERTEX
  8
T14SSILL
 62
8
 10
-745.824
 20
-404.964
 30
3846.127
 70
    32
  0
VERTEX
  8
T14SSILL
 62
8
 10
-746.569
 20
-401.702
 30
3846.171
 70
    32
  0
VERTEX
  8
T14SSILL
 62
8
 10
-749.110
 20
-399.857
 30
3846.215
 70
    32
  0
VERTEX
  8
T14SSILL
 62
8
 10
-804.839
 20
-402.296
 30
3846.568
 70
    32
  0
VERTEX
  8
T14SSILL
 62
8
 10
-822.954
 20
-400.708
 30
3846.742
 70
    32
  0
VERTEX
  8
T14SSILL
 62
8
 10
-831.280
 20
-401.664
 30
3846.804
 70
    32
  0
VERTEX
  8
T14SSILL
 62
8
 10
-847.653
 20
-406.199
 30
3846.915
 70
    32
  0
VERTEX
  8
T14SSILL
 62
8
 10
-862.177
 20
-412.974
 30
3847.066
 70
    32
  0
VERTEX
  8
T14SSILL
 62
8
 10
-880.757
 20
-428.357
 30
3846.474
 70
    32
  0
VERTEX
  8
T14SSILL
 62
8
 10
-899.723
 20
-462.610
 30
3846.833
 70
    32
  0
VERTEX
  8
T14SSILL
 62
8
 10
-898.574
 20
-487.649
 30
3846.589
 70
    32
  0
VERTEX
  8
T14SSILL
 62
8
 10
-857.711
 20
-544.369
 30
3846.438
 70
    32
  0
VERTEX
  8
T14SSILL
 62
8
 10
-839.149
 20
-570.457
 30
3846.156
 70
    32
  0
VERTEX
  8
T14SSILL
 62
8
 10
-649.644
 20
-836.804
 30
3842.995
 70
    32
  0
VERTEX
  8
T14SSILL
 62
8
 10
-642.810
 20
-844.545
 30
3842.935
 70
    32
  0
VERTEX
  8
T14SSILL
 62
8
 10
-638.042
 20
-853.030
 30
3842.908
 70
    32
  0
VERTEX
  8
T14SSILL
 62
8
 10
-636.436
 20
-857.622
 30
3842.903
 70
    32
  0
VERTEX
  8
T14SSILL
 62
8
 10
-636.274
 20
-883.811
 30
3842.885
 70
    32
  0
VERTEX
  8
T14SSILL
 62
8
 10
-638.579
 20
-894.077
 30
3842.877
 70
    32
  0
VERTEX
  8
T14SSILL
 62
8
 10
-649.283
 20
-911.767
 30
3842.930
 70
    32
  0
VERTEX
  8
T14SSILL
 62
8
 10
-660.023
 20
-923.287
 30
3842.960
 70
    32
  0
VERTEX
  8
T14SSILL
 62
8
 10
-673.969
 20
-933.989
 30
3843.041
 70
    32
  0
VERTEX
  8
T14SSILL
 62
8
 10
-673.068
 20
-937.464
 30
3843.030
 70
    32
  0
VERTEX
  8
T14SSILL
 62
8
 10
-665.936
 20
-937.704
 30
3843.016
 70
    32
  0
VERTEX
  8
T14SSILL
 62
8
 10
-646.752
 20
-943.296
 30
3843.152
 70
    32
  0
VERTEX
  8
T14SSILL
 62
8
 10
-636.192
 20
-948.540
 30
3843.205
 70
    32
  0
VERTEX
  8
T14SSILL
 62
8
 10
-624.930
 20
-960.121
 30
3843.281
 70
    32
  0
VERTEX
  8
T14SSILL
 62
8
 10
-524.222
 20
-1079.717
 30
3844.205
 70
    32
  0
VERTEX
  8
T14SSILL
 62
8
 10
-510.206
 20
-1085.378
 30
3844.353
 70
    32
  0
VERTEX
  8
T14SSILL
 62
8
 10
-513.230
 20
-1093.016
 30
3844.462
 70
    32
  0
VERTEX
  8
T14SSILL
 62
8
 10
-490.139
 20
-1120.983
 30
3845.519
 70
    32
  0
VERTEX
  8
T14SSILL
 62
8
 10
-475.545
 20
-1130.572
 30
3846.034
 70
    32
  0
VERTEX
  8
T14SSILL
 62
8
 10
-464.271
 20
-1132.469
 30
3846.269
 70
    32
  0
VERTEX
  8
T14SSILL
 62
8
 10
-452.258
 20
-1129.262
 30
3846.568
 70
    32
  0
VERTEX
  8
T14SSILL
 62
8
 10
-383.492
 20
-1084.279
 30
3846.880
 70
    32
  0
VERTEX
  8
T14SSILL
 62
8
 10
-380.901
 20
-1077.391
 30
3846.880
 70
    32
  0
VERTEX
  8
T14SSILL
 62
8
 10
-373.062
 20
-1063.528
 30
3846.880
 70
    32
  0
VERTEX
  8
T14SSILL
 62
8
 10
-371.421
 20
-1055.484
 30
3846.880
 70
    32
  0
VERTEX
  8
T14SSILL
 62
8
 10
-356.098
 20
-1063.237
 30
3846.880
 70
    32
  0
VERTEX
  8
T14SSILL
 62
8
 10
-342.604
 20
-1054.602
 30
3846.880
 70
    32
  0
VERTEX
  8
T14SSILL
 62
8
 10
-336.745
 20
-1062.511
 30
3846.880
 70
    32
  0
VERTEX
  8
T14SSILL
 62
8
 10
-363.139
 20
-1081.628
 30
3846.880
 70
    32
  0
VERTEX
  8
T14SSILL
 62
8
 10
-362.230
 20
-1087.053
 30
3846.880
 70
    32
  0
VERTEX
  8
T14SSILL
 62
8
 10
-358.923
 20
-1094.428
 30
3846.880
 70
    32
  0
VERTEX
  8
T14SSILL
 62
8
 10
-363.420
 20
-1101.835
 30
3846.880
 70
    32
  0
VERTEX
  8
T14SSILL
 62
8
 10
-367.879
 20
-1100.191
 30
3846.880
 70
    32
  0
VERTEX
  8
T14SSILL
 62
8
 10
-378.145
 20
-1099.081
 30
3846.880
 70
    32
  0
VERTEX
  8
T14SSILL
 62
8
 10
-388.429
 20
-1099.290
 30
3846.880
 70
    32
  0
VERTEX
  8
T14SSILL
 62
8
 10
-435.058
 20
-1133.473
 30
3846.880
 70
    32
  0
VERTEX
  8
T14SSILL
 62
8
 10
-453.907
 20
-1142.965
 30
3846.548
 70
    32
  0
VERTEX
  8
T14SSILL
 62
8
 10
-458.842
 20
-1143.950
 30
3846.425
 70
    32
  0
VERTEX
  8
T14SSILL
 62
8
 10
-462.496
 20
-1155.200
 30
3846.596
 70
    32
  0
VERTEX
  8
T14SSILL
 62
8
 10
-357.280
 20
-1278.054
 30
3846.910
 70
    32
  0
VERTEX
  8
T14SSILL
 62
8
 10
-320.356
 20
-1288.769
 30
3846.880
 70
    32
  0
VERTEX
  8
T14SSILL
 62
8
 10
-296.079
 20
-1287.029
 30
3846.880
 70
    32
  0
VERTEX
  8
T14SSILL
 62
8
 10
-295.449
 20
-1300.449
 30
3846.880
 70
    32
  0
VERTEX
  8
T14SSILL
 62
8
 10
-320.604
 20
-1302.996
 30
3846.880
 70
    32
  0
VERTEX
  8
T14SSILL
 62
8
 10
-338.702
 20
-1296.969
 30
3846.880
 70
    32
  0
VERTEX
  8
T14SSILL
 62
8
 10
-340.720
 20
-1298.683
 30
3846.880
 70
    32
  0
VERTEX
  8
T14SSILL
 62
8
 10
-233.141
 20
-1454.954
 30
3846.880
 70
    32
  0
VERTEX
  8
T14SSILL
 62
8
 10
-243.197
 20
-1460.590
 30
3846.880
 70
    32
  0
VERTEX
  8
T14SSILL
 62
8
 10
-328.836
 20
-1332.866
 30
3846.935
 70
    32
  0
VERTEX
  8
T14SSILL
 62
8
 10
-353.948
 20
-1297.348
 30
3847.000
 70
    32
  0
VERTEX
  8
T14SSILL
 62
8
 10
-449.818
 20
-1184.991
 30
3847.318
 70
    32
  0
VERTEX
  8
T14SSILL
 62
8
 10
-456.205
 20
-1188.013
 30
3847.408
 70
    32
  0
VERTEX
  8
T14SSILL
 62
8
 10
-455.063
 20
-1194.356
 30
3847.537
 70
    32
  0
VERTEX
  8
T14SSILL
 62
8
 10
-460.389
 20
-1199.431
 30
3847.683
 70
    32
  0
VERTEX
  8
T14SSILL
 62
8
 10
-471.447
 20
-1217.379
 30
3847.950
 70
    32
  0
VERTEX
  8
T14SSILL
 62
8
 10
-476.825
 20
-1222.383
 30
3847.950
 70
    32
  0
VERTEX
  8
T14SSILL
 62
8
 10
-582.839
 20
-1291.891
 30
3847.950
 70
    32
  0
VERTEX
  8
T14SSILL
 62
8
 10
-590.060
 20
-1299.223
 30
3847.950
 70
    32
  0
VERTEX
  8
T14SSILL
 62
8
 10
-594.204
 20
-1303.368
 30
3847.950
 70
    32
  0
VERTEX
  8
T14SSILL
 62
8
 10
-598.140
 20
-1301.503
 30
3847.950
 70
    32
  0
VERTEX
  8
T14SSILL
 62
8
 10
-662.378
 20
-1348.200
 30
3847.950
 70
    32
  0
VERTEX
  8
T14SSILL
 62
8
 10
-669.236
 20
-1338.623
 30
3847.950
 70
    32
  0
VERTEX
  8
T14SSILL
 62
8
 10
-650.396
 20
-1325.435
 30
3847.950
 70
    32
  0
VERTEX
  8
T14SSILL
 62
8
 10
-666.043
 20
-1323.288
 30
3847.950
 70
    32
  0
VERTEX
  8
T14SSILL
 62
8
 10
-700.593
 20
-1300.793
 30
3847.950
 70
    32
  0
VERTEX
  8
T14SSILL
 62
8
 10
-710.764
 20
-1303.334
 30
3847.950
 70
    32
  0
VERTEX
  8
T14SSILL
 62
8
 10
-707.692
 20
-1318.923
 30
3847.950
 70
    32
  0
VERTEX
  8
T14SSILL
 62
8
 10
-710.797
 20
-1322.556
 30
3847.950
 70
    32
  0
VERTEX
  8
T14SSILL
 62
8
 10
-701.355
 20
-1336.684
 30
3847.950
 70
    32
  0
VERTEX
  8
T14SSILL
 62
8
 10
-704.947
 20
-1345.397
 30
3847.950
 70
    32
  0
VERTEX
  8
T14SSILL
 62
8
 10
-715.016
 20
-1348.959
 30
3847.950
 70
    32
  0
VERTEX
  8
T14SSILL
 62
8
 10
-718.708
 20
-1341.950
 30
3847.950
 70
    32
  0
VERTEX
  8
T14SSILL
 62
8
 10
-725.015
 20
-1339.524
 30
3847.950
 70
    32
  0
VERTEX
  8
T14SSILL
 62
8
 10
-730.274
 20
-1306.150
 30
3847.950
 70
    32
  0
VERTEX
  8
T14SSILL
 62
8
 10
-737.563
 20
-1309.173
 30
3847.950
 70
    32
  0
VERTEX
  8
T14SSILL
 62
8
 10
-738.841
 20
-1286.871
 30
3847.950
 70
    32
  0
VERTEX
  8
T14SSILL
 62
8
 10
-741.796
 20
-1280.410
 30
3847.950
 70
    32
  0
VERTEX
  8
T14SSILL
 62
8
 10
-735.195
 20
-1257.495
 30
3847.950
 70
    32
  0
VERTEX
  8
T14SSILL
 62
8
 10
-738.069
 20
-1253.935
 30
3847.950
 70
    32
  0
VERTEX
  8
T14SSILL
 62
8
 10
-730.472
 20
-1247.061
 30
3847.950
 70
    32
  0
VERTEX
  8
T14SSILL
 62
8
 10
-733.568
 20
-1240.705
 30
3847.950
 70
    32
  0
VERTEX
  8
T14SSILL
 62
8
 10
-733.627
 20
-1236.621
 30
3847.950
 70
    32
  0
VERTEX
  8
T14SSILL
 62
8
 10
-734.170
 20
-1236.080
 30
3850.047
 70
    32
  0
VERTEX
  8
T14SSILL
 62
8
 10
-738.967
 20
-1231.740
 30
3849.899
 70
    32
  0
VERTEX
  8
T14SSILL
 62
8
 10
-740.227
 20
-1224.328
 30
3849.780
 70
    32
  0
VERTEX
  8
T14SSILL
 62
8
 10
-745.267
 20
-1214.820
 30
3849.669
 70
    32
  0
VERTEX
  8
T14SSILL
 62
8
 10
-749.113
 20
-1207.840
 30
3855.000
 70
    32
  0
VERTEX
  8
T14SSILL
 62
8
 10
-753.265
 20
-1199.823
 30
3855.000
 70
    32
  0
VERTEX
  8
T14SSILL
 62
8
 10
-758.446
 20
-1189.672
 30
3855.000
 70
    32
  0
VERTEX
  8
T14SSILL
 62
8
 10
-746.514
 20
-1184.662
 30
3855.000
 70
    32
  0
VERTEX
  8
T14SSILL
 62
8
 10
-742.321
 20
-1192.581
 30
3855.000
 70
    32
  0
VERTEX
  8
T14SSILL
 62
8
 10
-737.957
 20
-1201.535
 30
3855.000
 70
    32
  0
VERTEX
  8
T14SSILL
 62
8
 10
-734.940
 20
-1208.378
 30
3848.604
 70
    32
  0
VERTEX
  8
T14SSILL
 62
8
 10
-730.185
 20
-1216.104
 30
3848.445
 70
    32
  0
VERTEX
  8
T14SSILL
 62
8
 10
-727.211
 20
-1218.994
 30
3849.598
 70
    32
  0
VERTEX
  8
T14SSILL
 62
8
 10
-724.274
 20
-1223.516
 30
3849.303
 70
    32
  0
VERTEX
  8
T14SSILL
 62
8
 10
-722.827
 20
-1224.524
 30
3848.657
 70
    32
  0
VERTEX
  8
T14SSILL
 62
8
 10
-722.747
 20
-1225.064
 30
3847.950
 70
    32
  0
VERTEX
  8
T14SSILL
 62
8
 10
-718.634
 20
-1246.019
 30
3847.950
 70
    32
  0
VERTEX
  8
T14SSILL
 62
8
 10
-709.272
 20
-1243.423
 30
3847.950
 70
    32
  0
VERTEX
  8
T14SSILL
 62
8
 10
-688.403
 20
-1245.518
 30
3847.950
 70
    32
  0
VERTEX
  8
T14SSILL
 62
8
 10
-688.811
 20
-1247.029
 30
3847.950
 70
    32
  0
VERTEX
  8
T14SSILL
 62
8
 10
-678.628
 20
-1253.474
 30
3847.950
 70
    32
  0
VERTEX
  8
T14SSILL
 62
8
 10
-682.739
 20
-1298.993
 30
3847.950
 70
    32
  0
VERTEX
  8
T14SSILL
 62
8
 10
-675.507
 20
-1304.130
 30
3847.950
 70
    32
  0
VERTEX
  8
T14SSILL
 62
8
 10
-667.146
 20
-1307.985
 30
3847.950
 70
    32
  0
VERTEX
  8
T14SSILL
 62
8
 10
-647.106
 20
-1311.027
 30
3847.950
 70
    32
  0
VERTEX
  8
T14SSILL
 62
8
 10
-621.563
 20
-1305.251
 30
3847.950
 70
    32
  0
VERTEX
  8
T14SSILL
 62
8
 10
-607.830
 20
-1295.638
 30
3847.950
 70
    32
  0
VERTEX
  8
T14SSILL
 62
8
 10
-607.877
 20
-1284.713
 30
3847.950
 70
    32
  0
VERTEX
  8
T14SSILL
 62
8
 10
-598.968
 20
-1283.677
 30
3847.950
 70
    32
  0
VERTEX
  8
T14SSILL
 62
8
 10
-590.267
 20
-1281.397
 30
3847.950
 70
    32
  0
VERTEX
  8
T14SSILL
 62
8
 10
-483.298
 20
-1213.945
 30
3847.950
 70
    32
  0
VERTEX
  8
T14SSILL
 62
8
 10
-468.062
 20
-1192.628
 30
3847.577
 70
    32
  0
VERTEX
  8
T14SSILL
 62
8
 10
-468.550
 20
-1170.916
 30
3847.011
 70
    32
  0
VERTEX
  8
T14SSILL
 62
8
 10
-472.643
 20
-1158.134
 30
3846.564
 70
    32
  0
VERTEX
  8
T14SSILL
 62
8
 10
-526.704
 20
-1094.339
 30
3844.218
 70
    32
  0
VERTEX
  8
T14SSILL
 62
8
 10
-629.849
 20
-972.619
 30
3843.304
 70
    32
  0
VERTEX
  8
T14SSILL
 62
8
 10
-643.678
 20
-958.559
 30
3843.196
 70
    32
  0
VERTEX
  8
T14SSILL
 62
8
 10
-652.345
 20
-953.676
 30
3843.177
 70
    32
  0
VERTEX
  8
T14SSILL
 62
8
 10
-671.191
 20
-950.337
 30
3843.114
 70
    32
  0
VERTEX
  8
T14SSILL
 62
8
 10
-673.454
 20
-948.724
 30
3843.098
 70
    32
  0
VERTEX
  8
T14SSILL
 62
8
 10
-708.020
 20
-958.576
 30
3842.947
 70
    32
  0
VERTEX
  8
T14SSILL
 62
8
 10
-716.570
 20
-962.956
 30
3842.704
 70
    32
  0
VERTEX
  8
T14SSILL
 62
8
 10
-720.662
 20
-967.785
 30
3842.559
 70
    32
  0
VERTEX
  8
T14SSILL
 62
8
 10
-721.216
 20
-978.516
 30
3842.630
 70
    32
  0
VERTEX
  8
T14SSILL
 62
8
 10
-716.952
 20
-986.607
 30
3842.785
 70
    32
  0
VERTEX
  8
T14SSILL
 62
8
 10
-711.775
 20
-990.880
 30
3842.796
 70
    32
  0
VERTEX
  8
T14SSILL
 62
8
 10
-714.223
 20
-998.860
 30
3842.743
 70
    32
  0
VERTEX
  8
T14SSILL
 62
8
 10
-709.781
 20
-1004.212
 30
3842.744
 70
    32
  0
VERTEX
  8
T14SSILL
 62
8
 10
-710.362
 20
-1005.504
 30
3842.734
 70
    32
  0
VERTEX
  8
T14SSILL
 62
8
 10
-719.002
 20
-1010.059
 30
3842.660
 70
    32
  0
VERTEX
  8
T14SSILL
 62
8
 10
-730.299
 20
-994.699
 30
3842.666
 70
    32
  0
VERTEX
  8
T14SSILL
 62
8
 10
-743.208
 20
-983.992
 30
3840.377
 70
    32
  0
VERTEX
  8
T14SSILL
 62
8
 10
-762.928
 20
-979.007
 30
3835.953
 70
    32
  0
VERTEX
  8
T14SSILL
 62
8
 10
-773.819
 20
-979.874
 30
3833.595
 70
    32
  0
VERTEX
  8
T14SSILL
 62
8
 10
-779.068
 20
-977.713
 30
3832.334
 70
    32
  0
VERTEX
  8
T14SSILL
 62
8
 10
-799.378
 20
-967.620
 30
3831.091
 70
    32
  0
VERTEX
  8
T14SSILL
 62
8
 10
-807.917
 20
-961.121
 30
3830.880
 70
    32
  0
VERTEX
  8
T14SSILL
 62
8
 10
-810.891
 20
-954.111
 30
3830.880
 70
    32
  0
VERTEX
  8
T14SSILL
 62
8
 10
-847.279
 20
-896.500
 30
3830.880
 70
    32
  0
VERTEX
  8
T14SSILL
 62
8
 10
-838.579
 20
-891.546
 30
3830.880
 70
    32
  0
VERTEX
  8
T14SSILL
 62
8
 10
-802.642
 20
-949.560
 30
3830.880
 70
    32
  0
VERTEX
  8
T14SSILL
 62
8
 10
-782.532
 20
-965.675
 30
3832.079
 70
    32
  0
VERTEX
  8
T14SSILL
 62
8
 10
-775.643
 20
-968.267
 30
3832.762
 70
    32
  0
VERTEX
  8
T14SSILL
 62
8
 10
-765.740
 20
-968.879
 30
3835.250
 70
    32
  0
VERTEX
  8
T14SSILL
 62
8
 10
-751.005
 20
-968.364
 30
3838.461
 70
    32
  0
VERTEX
  8
T14SSILL
 62
8
 10
-745.521
 20
-967.087
 30
3839.744
 70
    32
  0
VERTEX
  8
T14SSILL
 62
8
 10
-737.765
 20
-964.155
 30
3841.649
 70
    32
  0
VERTEX
  8
T14SSILL
 62
8
 10
-725.735
 20
-957.240
 30
3842.294
 70
    32
  0
VERTEX
  8
T14SSILL
 62
8
 10
-694.620
 20
-936.531
 30
3843.100
 70
    32
  0
VERTEX
  8
T14SSILL
 62
8
 10
-673.675
 20
-921.708
 30
3843.033
 70
    32
  0
VERTEX
  8
T14SSILL
 62
8
 10
-660.365
 20
-907.447
 30
3842.938
 70
    32
  0
VERTEX
  8
T14SSILL
 62
8
 10
-654.107
 20
-897.235
 30
3842.902
 70
    32
  0
VERTEX
  8
T14SSILL
 62
8
 10
-648.090
 20
-882.960
 30
3842.891
 70
    32
  0
VERTEX
  8
T14SSILL
 62
8
 10
-647.506
 20
-878.838
 30
3842.894
 70
    32
  0
VERTEX
  8
T14SSILL
 62
8
 10
-648.122
 20
-866.352
 30
3842.906
 70
    32
  0
VERTEX
  8
T14SSILL
 62
8
 10
-654.563
 20
-849.302
 30
3842.940
 70
    32
  0
VERTEX
  8
T14SSILL
 62
8
 10
-753.685
 20
-709.201
 30
3844.143
 70
    32
  0
VERTEX
  8
T14SSILL
 62
8
 10
-762.261
 20
-704.143
 30
3844.227
 70
    32
  0
VERTEX
  8
T14SSILL
 62
8
 10
-760.856
 20
-699.206
 30
3844.257
 70
    32
  0
VERTEX
  8
T14SSILL
 62
8
 10
-781.907
 20
-669.861
 30
3844.830
 70
    32
  0
VERTEX
  8
T14SSILL
 62
8
 10
-800.728
 20
-665.961
 30
3844.722
 70
    32
  0
VERTEX
  8
T14SSILL
 62
8
 10
-804.414
 20
-660.602
 30
3844.783
 70
    32
  0
VERTEX
  8
T14SSILL
 62
8
 10
-810.014
 20
-661.420
 30
3844.807
 70
    32
  0
VERTEX
  8
T14SSILL
 62
8
 10
-818.358
 20
-664.889
 30
3844.825
 70
    32
  0
VERTEX
  8
T14SSILL
 62
8
 10
-831.884
 20
-675.720
 30
3844.816
 70
    32
  0
VERTEX
  8
T14SSILL
 62
8
 10
-840.181
 20
-664.480
 30
3844.946
 70
    32
  0
VERTEX
  8
T14SSILL
 62
8
 10
-824.893
 20
-652.039
 30
3844.957
 70
    32
  0
VERTEX
  8
T14SSILL
 62
8
 10
-821.095
 20
-650.686
 30
3844.947
 70
    32
  0
VERTEX
  8
T14SSILL
 62
8
 10
-813.615
 20
-641.106
 30
3845.019
 70
    32
  0
VERTEX
  8
T14SSILL
 62
8
 10
-811.999
 20
-634.819
 30
3845.296
 70
    32
  0
VERTEX
  8
T14SSILL
 62
8
 10
-814.649
 20
-624.466
 30
3845.589
 70
    32
  0
VERTEX
  8
T14SSILL
 62
8
 10
-856.257
 20
-567.048
 30
3845.984
 70
    32
  0
VERTEX
  8
T14SSILL
 62
8
 10
-863.127
 20
-563.139
 30
3845.955
 70
    32
  0
VERTEX
  8
T14SSILL
 62
8
 10
-883.004
 20
-560.016
 30
3845.963
 70
    32
  0
VERTEX
  8
T14SSILL
 62
8
 10
-880.909
 20
-550.220
 30
3846.027
 70
    32
  0
VERTEX
  8
T14SSILL
 62
8
 10
-869.660
 20
-552.679
 30
3846.088
 70
    32
  0
VERTEX
  8
T14SSILL
 62
8
 10
-867.847
 20
-549.945
 30
3846.170
 70
    32
  0
VERTEX
  8
T14SSILL
 62
8
 10
-870.436
 20
-544.844
 30
3846.230
 70
    32
  0
VERTEX
  8
T14SSILL
 62
8
 10
-1046.960
 20
-299.636
 30
3850.160
 70
    32
  0
VERTEX
  8
T14SSILL
 62
8
 10
-1053.050
 20
-295.330
 30
3850.283
 70
    32
  0
VERTEX
  8
T14SSILL
 62
8
 10
-1051.581
 20
-293.200
 30
3850.298
 70
    32
  0
VERTEX
  8
T14SSILL
 62
8
 10
-1154.603
 20
-149.978
 30
3853.378
 70
    32
  0
VERTEX
  8
T14SSILL
 62
8
 10
-1165.039
 20
-142.911
 30
3853.585
 70
    32
  0
VERTEX
  8
T14SSILL
 62
8
 10
-1163.066
 20
-138.838
 30
3853.623
 70
    32
  0
VERTEX
  8
T14SSILL
 62
8
 10
-1251.500
 20
-15.145
 30
3856.495
 70
    32
  0
VERTEX
  8
T14SSILL
 62
8
 10
-1266.418
 20
-2.977
 30
3856.887
 70
    32
  0
VERTEX
  8
T14SSILL
 62
8
 10
-1264.596
 20
3.311
 30
3856.972
 70
    32
  0
VERTEX
  8
T14SSILL
 62
8
 10
-1343.235
 20
112.214
 30
3859.800
 70
    32
  0
VERTEX
  8
T14SSILL
 62
8
 10
-1369.008
 20
147.906
 30
3859.154
 70
    32
  0
VERTEX
  8
T14SSILL
 62
8
 10
-1377.556
 20
154.540
 30
3859.002
 70
    32
  0
VERTEX
  8
T14SSILL
 62
8
 10
-1377.225
 20
159.014
 30
3858.952
 70
    32
  0
VERTEX
  8
T14SSILL
 62
8
 10
-1420.881
 20
220.348
 30
3858.815
 70
    32
  0
SEQEND
  8
T14SSILL
  0
POLYLINE
  8
T14SSILL
 62
27
 66
     1
 70
     9
  0
VERTEX
  8
T14SSILL
 62
27
 10
-597.253
 20
-1300.810
 30
3849.038
 70
    32
  0
VERTEX
  8
T14SSILL
 62
27
 10
-617.054
 20
-1316.186
 30
3857.089
 70
    32
  0
VERTEX
  8
T14SSILL
 62
27
 10
-630.480
 20
-1327.790
 30
3861.981
 70
    32
  0
VERTEX
  8
T14SSILL
 62
27
 10
-648.430
 20
-1343.713
 30
3868.408
 70
    32
  0
VERTEX
  8
T14SSILL
 62
27
 10
-653.038
 20
-1349.031
 30
3869.852
 70
    32
  0
VERTEX
  8
T14SSILL
 62
27
 10
-661.262
 20
-1350.515
 30
3870.226
 70
    32
  0
VERTEX
  8
T14SSILL
 62
27
 10
-667.051
 20
-1353.960
 30
3870.933
 70
    32
  0
VERTEX
  8
T14SSILL
 62
27
 10
-676.383
 20
-1355.846
 30
3872.906
 70
    32
  0
VERTEX
  8
T14SSILL
 62
27
 10
-680.195
 20
-1356.666
 30
3873.364
 70
    32
  0
VERTEX
  8
T14SSILL
 62
27
 10
-689.931
 20
-1358.118
 30
3874.008
 70
    32
  0
VERTEX
  8
T14SSILL
 62
27
 10
-697.158
 20
-1358.330
 30
3875.684
 70
    32
  0
VERTEX
  8
T14SSILL
 62
27
 10
-701.538
 20
-1357.208
 30
3874.915
 70
    32
  0
VERTEX
  8
T14SSILL
 62
27
 10
-710.215
 20
-1354.593
 30
3875.828
 70
    32
  0
VERTEX
  8
T14SSILL
 62
27
 10
-718.543
 20
-1350.930
 30
3876.022
 70
    32
  0
VERTEX
  8
T14SSILL
 62
27
 10
-721.148
 20
-1348.518
 30
3874.099
 70
    32
  0
VERTEX
  8
T14SSILL
 62
27
 10
-722.525
 20
-1344.515
 30
3874.099
 70
    32
  0
VERTEX
  8
T14SSILL
 62
27
 10
-724.589
 20
-1337.751
 30
3874.099
 70
    32
  0
VERTEX
  8
T14SSILL
 62
27
 10
-725.553
 20
-1332.092
 30
3874.099
 70
    32
  0
VERTEX
  8
T14SSILL
 62
27
 10
-725.553
 20
-1327.813
 30
3874.099
 70
    32
  0
VERTEX
  8
T14SSILL
 62
27
 10
-729.681
 20
-1321.050
 30
3874.099
 70
    32
  0
VERTEX
  8
T14SSILL
 62
27
 10
-733.132
 20
-1315.185
 30
3874.099
 70
    32
  0
VERTEX
  8
T14SSILL
 62
27
 10
-731.459
 20
-1309.855
 30
3874.099
 70
    32
  0
VERTEX
  8
T14SSILL
 62
27
 10
-736.022
 20
-1291.440
 30
3874.099
 70
    32
  0
VERTEX
  8
T14SSILL
 62
27
 10
-733.360
 20
-1279.272
 30
3874.099
 70
    32
  0
VERTEX
  8
T14SSILL
 62
27
 10
-731.577
 20
-1258.402
 30
3874.099
 70
    32
  0
VERTEX
  8
T14SSILL
 62
27
 10
-735.139
 20
-1247.874
 30
3876.055
 70
    32
  0
VERTEX
  8
T14SSILL
 62
27
 10
-737.601
 20
-1235.789
 30
3876.055
 70
    32
  0
VERTEX
  8
T14SSILL
 62
27
 10
-746.523
 20
-1211.835
 30
3876.055
 70
    32
  0
VERTEX
  8
T14SSILL
 62
27
 10
-754.372
 20
-1204.768
 30
3876.055
 70
    32
  0
VERTEX
  8
T14SSILL
 62
27
 10
-758.894
 20
-1196.134
 30
3876.055
 70
    32
  0
VERTEX
  8
T14SSILL
 62
27
 10
-750.527
 20
-1187.718
 30
3876.055
 70
    32
  0
VERTEX
  8
T14SSILL
 62
27
 10
-746.454
 20
-1186.960
 30
3876.055
 70
    32
  0
VERTEX
  8
T14SSILL
 62
27
 10
-736.348
 20
-1201.729
 30
3876.055
 70
    32
  0
VERTEX
  8
T14SSILL
 62
27
 10
-729.617
 20
-1224.671
 30
3876.055
 70
    32
  0
VERTEX
  8
T14SSILL
 62
27
 10
-724.672
 20
-1229.579
 30
3876.055
 70
    32
  0
VERTEX
  8
T14SSILL
 62
27
 10
-719.482
 20
-1240.725
 30
3876.055
 70
    32
  0
VERTEX
  8
T14SSILL
 62
27
 10
-716.641
 20
-1255.913
 30
3876.055
 70
    32
  0
VERTEX
  8
T14SSILL
 62
27
 10
-716.566
 20
-1258.015
 30
3874.099
 70
    32
  0
VERTEX
  8
T14SSILL
 62
27
 10
-714.834
 20
-1267.678
 30
3874.099
 70
    32
  0
VERTEX
  8
T14SSILL
 62
27
 10
-718.021
 20
-1290.846
 30
3874.099
 70
    32
  0
VERTEX
  8
T14SSILL
 62
27
 10
-714.817
 20
-1311.388
 30
3874.099
 70
    32
  0
VERTEX
  8
T14SSILL
 62
27
 10
-708.211
 20
-1331.402
 30
3874.099
 70
    32
  0
VERTEX
  8
T14SSILL
 62
27
 10
-704.358
 20
-1337.475
 30
3874.099
 70
    32
  0
VERTEX
  8
T14SSILL
 62
27
 10
-702.844
 20
-1342.996
 30
3875.559
 70
    32
  0
VERTEX
  8
T14SSILL
 62
27
 10
-697.839
 20
-1345.238
 30
3874.883
 70
    32
  0
VERTEX
  8
T14SSILL
 62
27
 10
-690.003
 20
-1345.936
 30
3874.227
 70
    32
  0
VERTEX
  8
T14SSILL
 62
27
 10
-688.515
 20
-1345.706
 30
3873.930
 70
    32
  0
VERTEX
  8
T14SSILL
 62
27
 10
-680.675
 20
-1344.812
 30
3873.000
 70
    32
  0
VERTEX
  8
T14SSILL
 62
27
 10
-670.583
 20
-1341.940
 30
3870.425
 70
    32
  0
VERTEX
  8
T14SSILL
 62
27
 10
-659.945
 20
-1337.082
 30
3869.818
 70
    32
  0
VERTEX
  8
T14SSILL
 62
27
 10
-656.209
 20
-1334.893
 30
3868.455
 70
    32
  0
VERTEX
  8
T14SSILL
 62
27
 10
-637.819
 20
-1319.031
 30
3862.067
 70
    32
  0
VERTEX
  8
T14SSILL
 62
27
 10
-626.655
 20
-1308.620
 30
3857.034
 70
    32
  0
VERTEX
  8
T14SSILL
 62
27
 10
-610.247
 20
-1298.134
 30
3850.293
 70
    32
  0
VERTEX
  8
T14SSILL
 62
27
 10
-607.474
 20
-1292.461
 30
3849.077
 70
    32
  0
SEQEND
  8
T14SSILL
  0
ENDSEC
  0
EOF
