999
********************************
999
*   DXF File - Entities Only   *
999
*        3D Data Format        *
999
*     Output from ENVISAGE     *
999
*     20-Dec-2007 09:16:46     *
999
********************************
  0
SECTION 
  2
HEADER
  9
$ACADVER
  1
AC1009
  9
$EXTMIN
 10
-290000.000
 20
-250000.000
 30
-4000.000
  9
$EXTMAX
 10
5000000.000
 20
600000.000
 30
6000.000
  0
ENDSEC
  0
SECTION
  2
ENTITIES
  0
POLYLINE
  8
T15SSILL
 62
2
 66
     1
 70
     9
  0
VERTEX
  8
T15SSILL
 62
2
 10
1418.691
 20
-2610.400
 30
3685.650
 70
    32
  0
VERTEX
  8
T15SSILL
 62
2
 10
1429.051
 20
-2622.942
 30
3685.633
 70
    32
  0
VERTEX
  8
T15SSILL
 62
2
 10
1431.265
 20
-2624.147
 30
3685.628
 70
    32
  0
VERTEX
  8
T15SSILL
 62
2
 10
1446.503
 20
-2612.218
 30
3685.564
 70
    32
  0
VERTEX
  8
T15SSILL
 62
2
 10
1438.612
 20
-2601.423
 30
3685.575
 70
    32
  0
VERTEX
  8
T15SSILL
 62
2
 10
1445.959
 20
-2596.037
 30
3685.545
 70
    32
  0
VERTEX
  8
T15SSILL
 62
2
 10
1444.575
 20
-2590.199
 30
3685.542
 70
    32
  0
VERTEX
  8
T15SSILL
 62
2
 10
1419.281
 20
-2608.281
 30
3685.645
 70
    32
  0
SEQEND
  8
T15SSILL
  0
POLYLINE
  8
T15SSILL
 62
2
 66
     1
 70
     9
  0
VERTEX
  8
T15SSILL
 62
2
 10
1237.406
 20
-2266.576
 30
3685.778
 70
    32
  0
VERTEX
  8
T15SSILL
 62
2
 10
1236.905
 20
-2265.911
 30
3685.778
 70
    32
  0
VERTEX
  8
T15SSILL
 62
2
 10
1231.596
 20
-2269.841
 30
3685.800
 70
    32
  0
VERTEX
  8
T15SSILL
 62
2
 10
1230.125
 20
-2278.556
 30
3685.816
 70
    32
  0
VERTEX
  8
T15SSILL
 62
2
 10
1237.361
 20
-2287.865
 30
3685.806
 70
    32
  0
VERTEX
  8
T15SSILL
 62
2
 10
1249.315
 20
-2278.571
 30
3685.756
 70
    32
  0
VERTEX
  8
T15SSILL
 62
2
 10
1252.781
 20
-2272.593
 30
3685.737
 70
    32
  0
VERTEX
  8
T15SSILL
 62
2
 10
1252.938
 20
-2269.016
 30
3685.732
 70
    32
  0
VERTEX
  8
T15SSILL
 62
2
 10
1246.795
 20
-2260.127
 30
3685.740
 70
    32
  0
SEQEND
  8
T15SSILL
  0
POLYLINE
  8
T15SSILL
 62
2
 66
     1
 70
     9
  0
VERTEX
  8
T15SSILL
 62
2
 10
1816.907
 20
-2884.608
 30
3684.744
 70
    32
  0
VERTEX
  8
T15SSILL
 62
2
 10
1846.763
 20
-2915.916
 30
3684.690
 70
    32
  0
VERTEX
  8
T15SSILL
 62
2
 10
1850.644
 20
-2923.875
 30
3684.688
 70
    32
  0
VERTEX
  8
T15SSILL
 62
2
 10
1858.766
 20
-2926.151
 30
3684.666
 70
    32
  0
VERTEX
  8
T15SSILL
 62
2
 10
1872.019
 20
-2937.866
 30
3684.639
 70
    32
  0
VERTEX
  8
T15SSILL
 62
2
 10
1875.698
 20
-2936.590
 30
3684.626
 70
    32
  0
VERTEX
  8
T15SSILL
 62
2
 10
1817.999
 20
-2858.816
 30
3684.707
 70
    32
  0
VERTEX
  8
T15SSILL
 62
2
 10
1814.549
 20
-2857.274
 30
3684.716
 70
    32
  0
VERTEX
  8
T15SSILL
 62
2
 10
1814.515
 20
-2861.674
 30
3684.722
 70
    32
  0
SEQEND
  8
T15SSILL
  0
POLYLINE
  8
T15SSILL
 62
2
 66
     1
 70
     9
  0
VERTEX
  8
T15SSILL
 62
2
 10
1852.095
 20
-2949.020
 30
3684.717
 70
    32
  0
VERTEX
  8
T15SSILL
 62
2
 10
1858.390
 20
-2945.775
 30
3684.692
 70
    32
  0
VERTEX
  8
T15SSILL
 62
2
 10
1865.469
 20
-2956.247
 30
3684.684
 70
    32
  0
VERTEX
  8
T15SSILL
 62
2
 10
1873.743
 20
-2963.800
 30
3684.667
 70
    32
  0
VERTEX
  8
T15SSILL
 62
2
 10
1877.666
 20
-2982.404
 30
3684.679
 70
    32
  0
VERTEX
  8
T15SSILL
 62
2
 10
1877.387
 20
-2988.390
 30
3684.688
 70
    32
  0
VERTEX
  8
T15SSILL
 62
2
 10
1875.924
 20
-2991.048
 30
3684.696
 70
    32
  0
VERTEX
  8
T15SSILL
 62
2
 10
1866.185
 20
-2993.190
 30
3684.729
 70
    32
  0
VERTEX
  8
T15SSILL
 62
2
 10
1844.966
 20
-2963.184
 30
3684.758
 70
    32
  0
VERTEX
  8
T15SSILL
 62
2
 10
1845.495
 20
-2956.051
 30
3684.747
 70
    32
  0
VERTEX
  8
T15SSILL
 62
2
 10
1847.303
 20
-2952.862
 30
3684.737
 70
    32
  0
SEQEND
  8
T15SSILL
  0
POLYLINE
  8
T15SSILL
 62
2
 66
     1
 70
     9
  0
VERTEX
  8
T15SSILL
 62
2
 10
1852.756
 20
-2938.278
 30
3684.700
 70
    32
  0
VERTEX
  8
T15SSILL
 62
2
 10
1828.971
 20
-2907.071
 30
3684.735
 70
    32
  0
VERTEX
  8
T15SSILL
 62
2
 10
1818.486
 20
-2898.665
 30
3684.758
 70
    32
  0
VERTEX
  8
T15SSILL
 62
2
 10
1815.720
 20
-2902.658
 30
3684.772
 70
    32
  0
VERTEX
  8
T15SSILL
 62
2
 10
1817.940
 20
-2925.946
 30
3684.795
 70
    32
  0
VERTEX
  8
T15SSILL
 62
2
 10
1835.203
 20
-2949.050
 30
3684.770
 70
    32
  0
VERTEX
  8
T15SSILL
 62
2
 10
1841.347
 20
-2947.831
 30
3684.749
 70
    32
  0
VERTEX
  8
T15SSILL
 62
2
 10
1849.216
 20
-2943.776
 30
3684.719
 70
    32
  0
VERTEX
  8
T15SSILL
 62
2
 10
1853.133
 20
-2940.385
 30
3684.702
 70
    32
  0
SEQEND
  8
T15SSILL
  0
POLYLINE
  8
T15SSILL
 62
2
 66
     1
 70
     9
  0
VERTEX
  8
T15SSILL
 62
2
 10
1880.979
 20
-2943.916
 30
3684.618
 70
    32
  0
VERTEX
  8
T15SSILL
 62
2
 10
1877.976
 20
-2942.984
 30
3684.627
 70
    32
  0
VERTEX
  8
T15SSILL
 62
2
 10
1876.066
 20
-2945.119
 30
3684.635
 70
    32
  0
VERTEX
  8
T15SSILL
 62
2
 10
1879.712
 20
-2955.457
 30
3684.637
 70
    32
  0
VERTEX
  8
T15SSILL
 62
2
 10
1888.984
 20
-2965.373
 30
3684.621
 70
    32
  0
VERTEX
  8
T15SSILL
 62
2
 10
1894.298
 20
-2961.085
 30
3684.598
 70
    32
  0
VERTEX
  8
T15SSILL
 62
2
 10
1885.710
 20
-2949.489
 30
3684.611
 70
    32
  0
SEQEND
  8
T15SSILL
  0
POLYLINE
  8
T15SSILL
 62
2
 66
     1
 70
     9
  0
VERTEX
  8
T15SSILL
 62
2
 10
1901.103
 20
-3021.093
 30
3684.655
 70
    32
  0
VERTEX
  8
T15SSILL
 62
2
 10
1904.650
 20
-3016.211
 30
3684.637
 70
    32
  0
VERTEX
  8
T15SSILL
 62
2
 10
1892.355
 20
-2996.477
 30
3684.651
 70
    32
  0
VERTEX
  8
T15SSILL
 62
2
 10
1888.103
 20
-2994.066
 30
3684.661
 70
    32
  0
VERTEX
  8
T15SSILL
 62
2
 10
1882.936
 20
-2996.065
 30
3684.680
 70
    32
  0
VERTEX
  8
T15SSILL
 62
2
 10
1873.004
 20
-3004.017
 30
3684.722
 70
    32
  0
VERTEX
  8
T15SSILL
 62
2
 10
1890.627
 20
-3027.820
 30
3684.697
 70
    32
  0
VERTEX
  8
T15SSILL
 62
2
 10
1897.447
 20
-3024.305
 30
3684.671
 70
    32
  0
SEQEND
  8
T15SSILL
  0
POLYLINE
  8
T15SSILL
 62
2
 66
     1
 70
     9
  0
VERTEX
  8
T15SSILL
 62
2
 10
1931.731
 20
-3043.594
 30
3684.587
 70
    32
  0
VERTEX
  8
T15SSILL
 62
2
 10
1927.093
 20
-3038.372
 30
3684.595
 70
    32
  0
VERTEX
  8
T15SSILL
 62
2
 10
1912.866
 20
-3026.140
 30
3684.624
 70
    32
  0
VERTEX
  8
T15SSILL
 62
2
 10
1908.797
 20
-3024.343
 30
3684.635
 70
    32
  0
VERTEX
  8
T15SSILL
 62
2
 10
1905.018
 20
-3024.741
 30
3684.647
 70
    32
  0
VERTEX
  8
T15SSILL
 62
2
 10
1901.460
 20
-3028.743
 30
3684.664
 70
    32
  0
VERTEX
  8
T15SSILL
 62
2
 10
1897.794
 20
-3038.290
 30
3684.688
 70
    32
  0
VERTEX
  8
T15SSILL
 62
2
 10
1908.172
 20
-3052.416
 30
3684.673
 70
    32
  0
VERTEX
  8
T15SSILL
 62
2
 10
1919.441
 20
-3052.982
 30
3684.638
 70
    32
  0
VERTEX
  8
T15SSILL
 62
2
 10
1926.972
 20
-3050.075
 30
3684.611
 70
    32
  0
SEQEND
  8
T15SSILL
  0
POLYLINE
  8
T15SSILL
 62
2
 66
     1
 70
     9
  0
VERTEX
  8
T15SSILL
 62
2
 10
1918.495
 20
-3061.968
 30
3684.653
 70
    32
  0
VERTEX
  8
T15SSILL
 62
2
 10
1918.246
 20
-3063.203
 30
3684.655
 70
    32
  0
VERTEX
  8
T15SSILL
 62
2
 10
1934.877
 20
-3077.780
 30
3684.621
 70
    32
  0
VERTEX
  8
T15SSILL
 62
2
 10
1946.490
 20
-3077.726
 30
3684.585
 70
    32
  0
VERTEX
  8
T15SSILL
 62
2
 10
1952.120
 20
-3070.443
 30
3684.560
 70
    32
  0
VERTEX
  8
T15SSILL
 62
2
 10
1950.743
 20
-3065.797
 30
3684.556
 70
    32
  0
VERTEX
  8
T15SSILL
 62
2
 10
1936.691
 20
-3053.475
 30
3684.584
 70
    32
  0
VERTEX
  8
T15SSILL
 62
2
 10
1923.215
 20
-3059.447
 30
3684.635
 70
    32
  0
SEQEND
  8
T15SSILL
  0
POLYLINE
  8
T15SSILL
 62
2
 66
     1
 70
     9
  0
VERTEX
  8
T15SSILL
 62
2
 10
1978.963
 20
-3092.726
 30
3684.594
 70
    32
  0
VERTEX
  8
T15SSILL
 62
2
 10
1962.569
 20
-3075.946
 30
3684.571
 70
    32
  0
VERTEX
  8
T15SSILL
 62
2
 10
1959.215
 20
-3075.107
 30
3684.568
 70
    32
  0
VERTEX
  8
T15SSILL
 62
2
 10
1945.838
 20
-3089.172
 30
3684.602
 70
    32
  0
VERTEX
  8
T15SSILL
 62
2
 10
1967.564
 20
-3110.286
 30
3684.603
 70
    32
  0
VERTEX
  8
T15SSILL
 62
2
 10
1973.518
 20
-3100.799
 30
3684.598
 70
    32
  0
VERTEX
  8
T15SSILL
 62
2
 10
1979.110
 20
-3097.563
 30
3684.599
 70
    32
  0
SEQEND
  8
T15SSILL
  0
POLYLINE
  8
T15SSILL
 62
2
 66
     1
 70
     9
  0
VERTEX
  8
T15SSILL
 62
2
 10
2007.068
 20
-3139.101
 30
3684.650
 70
    32
  0
VERTEX
  8
T15SSILL
 62
2
 10
2010.249
 20
-3132.991
 30
3684.646
 70
    32
  0
VERTEX
  8
T15SSILL
 62
2
 10
2008.524
 20
-3128.701
 30
3684.641
 70
    32
  0
VERTEX
  8
T15SSILL
 62
2
 10
1997.758
 20
-3111.676
 30
3684.621
 70
    32
  0
VERTEX
  8
T15SSILL
 62
2
 10
1988.472
 20
-3100.528
 30
3684.606
 70
    32
  0
VERTEX
  8
T15SSILL
 62
2
 10
1984.789
 20
-3101.541
 30
3684.605
 70
    32
  0
VERTEX
  8
T15SSILL
 62
2
 10
1975.276
 20
-3115.030
 30
3684.612
 70
    32
  0
VERTEX
  8
T15SSILL
 62
2
 10
1996.028
 20
-3142.843
 30
3684.647
 70
    32
  0
VERTEX
  8
T15SSILL
 62
2
 10
2000.674
 20
-3141.466
 30
3684.648
 70
    32
  0
SEQEND
  8
T15SSILL
  0
POLYLINE
  8
T15SSILL
 62
2
 66
     1
 70
     9
  0
VERTEX
  8
T15SSILL
 62
2
 10
2037.300
 20
-3172.340
 30
3684.695
 70
    32
  0
VERTEX
  8
T15SSILL
 62
2
 10
2037.601
 20
-3168.113
 30
3684.691
 70
    32
  0
VERTEX
  8
T15SSILL
 62
2
 10
2036.213
 20
-3162.587
 30
3684.686
 70
    32
  0
VERTEX
  8
T15SSILL
 62
2
 10
2030.979
 20
-3159.044
 30
3684.680
 70
    32
  0
VERTEX
  8
T15SSILL
 62
2
 10
2025.804
 20
-3153.125
 30
3684.672
 70
    32
  0
VERTEX
  8
T15SSILL
 62
2
 10
2023.804
 20
-3147.870
 30
3684.666
 70
    32
  0
VERTEX
  8
T15SSILL
 62
2
 10
2017.406
 20
-3142.669
 30
3684.658
 70
    32
  0
VERTEX
  8
T15SSILL
 62
2
 10
2013.516
 20
-3141.133
 30
3684.655
 70
    32
  0
VERTEX
  8
T15SSILL
 62
2
 10
2001.845
 20
-3150.866
 30
3684.657
 70
    32
  0
VERTEX
  8
T15SSILL
 62
2
 10
2002.223
 20
-3152.973
 30
3684.659
 70
    32
  0
VERTEX
  8
T15SSILL
 62
2
 10
2023.132
 20
-3179.288
 30
3684.693
 70
    32
  0
VERTEX
  8
T15SSILL
 62
2
 10
2025.773
 20
-3179.431
 30
3684.695
 70
    32
  0
VERTEX
  8
T15SSILL
 62
2
 10
2033.625
 20
-3173.969
 30
3684.694
 70
    32
  0
SEQEND
  8
T15SSILL
  0
POLYLINE
  8
T15SSILL
 62
2
 66
     1
 70
     9
  0
VERTEX
  8
T15SSILL
 62
2
 10
2162.572
 20
-3218.015
 30
3684.802
 70
    32
  0
VERTEX
  8
T15SSILL
 62
2
 10
2160.997
 20
-3216.330
 30
3684.800
 70
    32
  0
VERTEX
  8
T15SSILL
 62
2
 10
2149.616
 20
-3218.371
 30
3684.796
 70
    32
  0
VERTEX
  8
T15SSILL
 62
2
 10
2146.370
 20
-3216.147
 30
3684.792
 70
    32
  0
VERTEX
  8
T15SSILL
 62
2
 10
2140.954
 20
-3208.797
 30
3684.783
 70
    32
  0
VERTEX
  8
T15SSILL
 62
2
 10
2136.918
 20
-3219.698
 30
3684.790
 70
    32
  0
VERTEX
  8
T15SSILL
 62
2
 10
2130.532
 20
-3226.001
 30
3684.792
 70
    32
  0
VERTEX
  8
T15SSILL
 62
2
 10
2124.524
 20
-3228.341
 30
3684.791
 70
    32
  0
VERTEX
  8
T15SSILL
 62
2
 10
2124.075
 20
-3229.748
 30
3684.792
 70
    32
  0
VERTEX
  8
T15SSILL
 62
2
 10
2127.751
 20
-3233.561
 30
3684.797
 70
    32
  0
VERTEX
  8
T15SSILL
 62
2
 10
2135.405
 20
-3248.944
 30
3684.814
 70
    32
  0
VERTEX
  8
T15SSILL
 62
2
 10
2154.933
 20
-3240.788
 30
3684.818
 70
    32
  0
VERTEX
  8
T15SSILL
 62
2
 10
2160.068
 20
-3237.209
 30
3684.817
 70
    32
  0
VERTEX
  8
T15SSILL
 62
2
 10
2163.464
 20
-3229.829
 30
3684.813
 70
    32
  0
VERTEX
  8
T15SSILL
 62
2
 10
2163.527
 20
-3220.136
 30
3684.805
 70
    32
  0
SEQEND
  8
T15SSILL
  0
POLYLINE
  8
T15SSILL
 62
2
 66
     1
 70
     9
  0
VERTEX
  8
T15SSILL
 62
2
 10
2110.361
 20
-3196.873
 30
3684.756
 70
    32
  0
VERTEX
  8
T15SSILL
 62
2
 10
2117.138
 20
-3204.269
 30
3684.766
 70
    32
  0
VERTEX
  8
T15SSILL
 62
2
 10
2121.731
 20
-3205.708
 30
3684.769
 70
    32
  0
VERTEX
  8
T15SSILL
 62
2
 10
2127.773
 20
-3203.347
 30
3684.771
 70
    32
  0
VERTEX
  8
T15SSILL
 62
2
 10
2131.076
 20
-3200.051
 30
3684.770
 70
    32
  0
VERTEX
  8
T15SSILL
 62
2
 10
2137.975
 20
-3181.491
 30
3684.757
 70
    32
  0
VERTEX
  8
T15SSILL
 62
2
 10
2137.829
 20
-3176.741
 30
3684.753
 70
    32
  0
VERTEX
  8
T15SSILL
 62
2
 10
2131.980
 20
-3173.294
 30
3684.747
 70
    32
  0
VERTEX
  8
T15SSILL
 62
2
 10
2124.580
 20
-3172.504
 30
3684.742
 70
    32
  0
VERTEX
  8
T15SSILL
 62
2
 10
2119.501
 20
-3174.414
 30
3684.741
 70
    32
  0
VERTEX
  8
T15SSILL
 62
2
 10
2108.326
 20
-3181.501
 30
3684.741
 70
    32
  0
SEQEND
  8
T15SSILL
  0
POLYLINE
  8
T15SSILL
 62
2
 66
     1
 70
     9
  0
VERTEX
  8
T15SSILL
 62
2
 10
2113.662
 20
-3313.043
 30
3684.858
 70
    32
  0
VERTEX
  8
T15SSILL
 62
2
 10
2120.795
 20
-3313.706
 30
3684.863
 70
    32
  0
VERTEX
  8
T15SSILL
 62
2
 10
2128.301
 20
-3311.376
 30
3684.865
 70
    32
  0
VERTEX
  8
T15SSILL
 62
2
 10
2126.711
 20
-3298.412
 30
3684.852
 70
    32
  0
VERTEX
  8
T15SSILL
 62
2
 10
2113.880
 20
-3279.646
 30
3684.829
 70
    32
  0
VERTEX
  8
T15SSILL
 62
2
 10
2106.327
 20
-3275.632
 30
3684.822
 70
    32
  0
VERTEX
  8
T15SSILL
 62
2
 10
2101.907
 20
-3277.806
 30
3684.821
 70
    32
  0
VERTEX
  8
T15SSILL
 62
2
 10
2095.916
 20
-3277.591
 30
3684.818
 70
    32
  0
VERTEX
  8
T15SSILL
 62
2
 10
2093.788
 20
-3279.692
 30
3684.818
 70
    32
  0
VERTEX
  8
T15SSILL
 62
2
 10
2091.175
 20
-3288.487
 30
3684.825
 70
    32
  0
VERTEX
  8
T15SSILL
 62
2
 10
2102.608
 20
-3305.392
 30
3684.846
 70
    32
  0
VERTEX
  8
T15SSILL
 62
2
 10
2108.211
 20
-3311.157
 30
3684.854
 70
    32
  0
SEQEND
  8
T15SSILL
  0
POLYLINE
  8
T15SSILL
 62
2
 66
     1
 70
     9
  0
VERTEX
  8
T15SSILL
 62
2
 10
2097.816
 20
-3270.025
 30
3684.812
 70
    32
  0
VERTEX
  8
T15SSILL
 62
2
 10
2100.857
 20
-3263.171
 30
3684.808
 70
    32
  0
VERTEX
  8
T15SSILL
 62
2
 10
2096.331
 20
-3254.594
 30
3684.798
 70
    32
  0
VERTEX
  8
T15SSILL
 62
2
 10
2095.838
 20
-3249.127
 30
3684.793
 70
    32
  0
VERTEX
  8
T15SSILL
 62
2
 10
2087.413
 20
-3243.697
 30
3684.784
 70
    32
  0
VERTEX
  8
T15SSILL
 62
2
 10
2074.610
 20
-3247.579
 30
3684.780
 70
    32
  0
VERTEX
  8
T15SSILL
 62
2
 10
2071.772
 20
-3250.468
 30
3684.781
 70
    32
  0
VERTEX
  8
T15SSILL
 62
2
 10
2071.395
 20
-3254.255
 30
3684.784
 70
    32
  0
VERTEX
  8
T15SSILL
 62
2
 10
2072.251
 20
-3258.050
 30
3684.788
 70
    32
  0
VERTEX
  8
T15SSILL
 62
2
 10
2078.018
 20
-3265.577
 30
3684.798
 70
    32
  0
VERTEX
  8
T15SSILL
 62
2
 10
2085.199
 20
-3272.410
 30
3684.808
 70
    32
  0
VERTEX
  8
T15SSILL
 62
2
 10
2089.332
 20
-3273.847
 30
3684.811
 70
    32
  0
VERTEX
  8
T15SSILL
 62
2
 10
2094.544
 20
-3271.854
 30
3684.812
 70
    32
  0
SEQEND
  8
T15SSILL
  0
POLYLINE
  8
T15SSILL
 62
2
 66
     1
 70
     9
  0
VERTEX
  8
T15SSILL
 62
2
 10
2068.037
 20
-3242.160
 30
3684.772
 70
    32
  0
VERTEX
  8
T15SSILL
 62
2
 10
2075.632
 20
-3239.566
 30
3684.774
 70
    32
  0
VERTEX
  8
T15SSILL
 62
2
 10
2079.350
 20
-3237.035
 30
3684.774
 70
    32
  0
VERTEX
  8
T15SSILL
 62
2
 10
2080.067
 20
-3235.101
 30
3684.772
 70
    32
  0
VERTEX
  8
T15SSILL
 62
2
 10
2071.396
 20
-3213.543
 30
3684.749
 70
    32
  0
VERTEX
  8
T15SSILL
 62
2
 10
2068.337
 20
-3209.645
 30
3684.744
 70
    32
  0
VERTEX
  8
T15SSILL
 62
2
 10
2065.700
 20
-3208.571
 30
3684.742
 70
    32
  0
VERTEX
  8
T15SSILL
 62
2
 10
2066.233
 20
-3207.957
 30
3684.741
 70
    32
  0
VERTEX
  8
T15SSILL
 62
2
 10
2055.723
 20
-3211.590
 30
3684.739
 70
    32
  0
VERTEX
  8
T15SSILL
 62
2
 10
2048.201
 20
-3216.476
 30
3684.739
 70
    32
  0
VERTEX
  8
T15SSILL
 62
2
 10
2048.171
 20
-3220.970
 30
3684.743
 70
    32
  0
VERTEX
  8
T15SSILL
 62
2
 10
2062.670
 20
-3240.892
 30
3684.768
 70
    32
  0
SEQEND
  8
T15SSILL
  0
POLYLINE
  8
T15SSILL
 62
2
 66
     1
 70
     9
  0
VERTEX
  8
T15SSILL
 62
2
 10
2037.350
 20
-3205.156
 30
3684.723
 70
    32
  0
VERTEX
  8
T15SSILL
 62
2
 10
2042.129
 20
-3207.474
 30
3684.728
 70
    32
  0
VERTEX
  8
T15SSILL
 62
2
 10
2050.734
 20
-3206.049
 30
3684.731
 70
    32
  0
VERTEX
  8
T15SSILL
 62
2
 10
2061.896
 20
-3197.906
 30
3684.730
 70
    32
  0
VERTEX
  8
T15SSILL
 62
2
 10
2061.157
 20
-3195.011
 30
3684.727
 70
    32
  0
VERTEX
  8
T15SSILL
 62
2
 10
2050.139
 20
-3186.172
 30
3684.714
 70
    32
  0
VERTEX
  8
T15SSILL
 62
2
 10
2047.871
 20
-3180.569
 30
3684.708
 70
    32
  0
VERTEX
  8
T15SSILL
 62
2
 10
2044.755
 20
-3177.616
 30
3684.703
 70
    32
  0
VERTEX
  8
T15SSILL
 62
2
 10
2040.373
 20
-3178.989
 30
3684.702
 70
    32
  0
VERTEX
  8
T15SSILL
 62
2
 10
2028.175
 20
-3188.728
 30
3684.704
 70
    32
  0
VERTEX
  8
T15SSILL
 62
2
 10
2033.029
 20
-3197.203
 30
3684.714
 70
    32
  0
SEQEND
  8
T15SSILL
  0
POLYLINE
  8
T15SSILL
 62
2
 66
     1
 70
     9
  0
VERTEX
  8
T15SSILL
 62
2
 10
1969.132
 20
-2637.833
 30
3684.259
 70
    32
  0
VERTEX
  8
T15SSILL
 62
2
 10
1964.824
 20
-2641.719
 30
3684.255
 70
    32
  0
VERTEX
  8
T15SSILL
 62
2
 10
1961.643
 20
-2647.750
 30
3684.252
 70
    32
  0
VERTEX
  8
T15SSILL
 62
2
 10
1934.391
 20
-2678.349
 30
3684.228
 70
    32
  0
VERTEX
  8
T15SSILL
 62
2
 10
1930.190
 20
-2687.375
 30
3684.225
 70
    32
  0
VERTEX
  8
T15SSILL
 62
2
 10
1925.338
 20
-2693.505
 30
3684.221
 70
    32
  0
VERTEX
  8
T15SSILL
 62
2
 10
1897.731
 20
-2709.415
 30
3684.261
 70
    32
  0
VERTEX
  8
T15SSILL
 62
2
 10
1892.939
 20
-2713.257
 30
3684.281
 70
    32
  0
VERTEX
  8
T15SSILL
 62
2
 10
1895.072
 20
-2736.634
 30
3684.304
 70
    32
  0
VERTEX
  8
T15SSILL
 62
2
 10
1894.121
 20
-2737.966
 30
3684.309
 70
    32
  0
VERTEX
  8
T15SSILL
 62
2
 10
1886.405
 20
-2740.172
 30
3684.336
 70
    32
  0
VERTEX
  8
T15SSILL
 62
2
 10
1879.174
 20
-2724.423
 30
3684.339
 70
    32
  0
VERTEX
  8
T15SSILL
 62
2
 10
1877.482
 20
-2722.772
 30
3684.342
 70
    32
  0
VERTEX
  8
T15SSILL
 62
2
 10
1869.380
 20
-2722.080
 30
3684.367
 70
    32
  0
VERTEX
  8
T15SSILL
 62
2
 10
1806.760
 20
-2767.188
 30
3684.624
 70
    32
  0
VERTEX
  8
T15SSILL
 62
2
 10
1781.885
 20
-2783.505
 30
3684.724
 70
    32
  0
VERTEX
  8
T15SSILL
 62
2
 10
1785.704
 20
-2800.791
 30
3684.734
 70
    32
  0
VERTEX
  8
T15SSILL
 62
2
 10
1812.994
 20
-2838.025
 30
3684.696
 70
    32
  0
VERTEX
  8
T15SSILL
 62
2
 10
1860.718
 20
-2841.137
 30
3684.549
 70
    32
  0
VERTEX
  8
T15SSILL
 62
2
 10
1874.171
 20
-2847.659
 30
3684.515
 70
    32
  0
VERTEX
  8
T15SSILL
 62
2
 10
1909.572
 20
-2814.321
 30
3684.359
 70
    32
  0
VERTEX
  8
T15SSILL
 62
2
 10
1843.650
 20
-2783.629
 30
3684.528
 70
    32
  0
VERTEX
  8
T15SSILL
 62
2
 10
1845.876
 20
-2778.587
 30
3684.515
 70
    32
  0
VERTEX
  8
T15SSILL
 62
2
 10
1915.862
 20
-2810.725
 30
3684.335
 70
    32
  0
VERTEX
  8
T15SSILL
 62
2
 10
2020.662
 20
-2711.633
 30
3684.319
 70
    32
  0
VERTEX
  8
T15SSILL
 62
2
 10
2023.262
 20
-2703.551
 30
3684.321
 70
    32
  0
VERTEX
  8
T15SSILL
 62
2
 10
2022.660
 20
-2700.909
 30
3684.320
 70
    32
  0
VERTEX
  8
T15SSILL
 62
2
 10
2019.163
 20
-2696.845
 30
3684.316
 70
    32
  0
VERTEX
  8
T15SSILL
 62
2
 10
2012.421
 20
-2691.006
 30
3684.308
 70
    32
  0
VERTEX
  8
T15SSILL
 62
2
 10
2014.482
 20
-2683.716
 30
3684.310
 70
    32
  0
VERTEX
  8
T15SSILL
 62
2
 10
2017.539
 20
-2687.866
 30
3684.313
 70
    32
  0
VERTEX
  8
T15SSILL
 62
2
 10
2024.064
 20
-2684.558
 30
3684.319
 70
    32
  0
VERTEX
  8
T15SSILL
 62
2
 10
2025.892
 20
-2688.261
 30
3684.322
 70
    32
  0
VERTEX
  8
T15SSILL
 62
2
 10
2036.400
 20
-2696.752
 30
3684.333
 70
    32
  0
VERTEX
  8
T15SSILL
 62
2
 10
2051.893
 20
-2682.103
 30
3684.347
 70
    32
  0
VERTEX
  8
T15SSILL
 62
2
 10
1997.482
 20
-2610.797
 30
3684.284
 70
    32
  0
VERTEX
  8
T15SSILL
 62
2
 10
1984.477
 20
-2628.141
 30
3684.273
 70
    32
  0
VERTEX
  8
T15SSILL
 62
2
 10
1975.722
 20
-2633.717
 30
3684.265
 70
    32
  0
SEQEND
  8
T15SSILL
  0
POLYLINE
  8
T15SSILL
 62
2
 66
     1
 70
     9
  0
VERTEX
  8
T15SSILL
 62
2
 10
1474.650
 20
-2739.302
 30
3685.640
 70
    32
  0
VERTEX
  8
T15SSILL
 62
2
 10
1496.698
 20
-2722.766
 30
3685.549
 70
    32
  0
VERTEX
  8
T15SSILL
 62
2
 10
1499.926
 20
-2727.742
 30
3685.545
 70
    32
  0
VERTEX
  8
T15SSILL
 62
2
 10
1508.311
 20
-2721.680
 30
3685.511
 70
    32
  0
VERTEX
  8
T15SSILL
 62
2
 10
1508.762
 20
-2723.674
 30
3685.512
 70
    32
  0
VERTEX
  8
T15SSILL
 62
2
 10
1480.132
 20
-2742.325
 30
3685.627
 70
    32
  0
SEQEND
  8
T15SSILL
  0
POLYLINE
  8
T15SSILL
 62
2
 66
     1
 70
     9
  0
VERTEX
  8
T15SSILL
 62
2
 10
1538.500
 20
-2738.092
 30
3685.436
 70
    32
  0
VERTEX
  8
T15SSILL
 62
2
 10
1546.343
 20
-2746.266
 30
3685.422
 70
    32
  0
VERTEX
  8
T15SSILL
 62
2
 10
1547.628
 20
-2750.649
 30
3685.424
 70
    32
  0
VERTEX
  8
T15SSILL
 62
2
 10
1547.331
 20
-2755.140
 30
3685.430
 70
    32
  0
VERTEX
  8
T15SSILL
 62
2
 10
1543.818
 20
-2762.837
 30
3685.452
 70
    32
  0
VERTEX
  8
T15SSILL
 62
2
 10
1542.253
 20
-2771.567
 30
3685.468
 70
    32
  0
VERTEX
  8
T15SSILL
 62
2
 10
1555.440
 20
-2792.345
 30
3685.453
 70
    32
  0
VERTEX
  8
T15SSILL
 62
2
 10
1562.319
 20
-2822.439
 30
3685.470
 70
    32
  0
VERTEX
  8
T15SSILL
 62
2
 10
1568.964
 20
-2840.570
 30
3685.473
 70
    32
  0
VERTEX
  8
T15SSILL
 62
2
 10
1575.463
 20
-2854.039
 30
3685.470
 70
    32
  0
VERTEX
  8
T15SSILL
 62
2
 10
1586.658
 20
-2862.965
 30
3685.446
 70
    32
  0
VERTEX
  8
T15SSILL
 62
2
 10
1581.052
 20
-2872.183
 30
3685.476
 70
    32
  0
VERTEX
  8
T15SSILL
 62
2
 10
1572.867
 20
-2879.146
 30
3685.511
 70
    32
  0
VERTEX
  8
T15SSILL
 62
2
 10
1568.448
 20
-2884.743
 30
3685.532
 70
    32
  0
VERTEX
  8
T15SSILL
 62
2
 10
1554.856
 20
-2895.643
 30
3685.589
 70
    32
  0
VERTEX
  8
T15SSILL
 62
2
 10
1555.888
 20
-2900.909
 30
3685.593
 70
    32
  0
VERTEX
  8
T15SSILL
 62
2
 10
1560.111
 20
-2908.072
 30
3685.589
 70
    32
  0
VERTEX
  8
T15SSILL
 62
2
 10
1562.307
 20
-2907.781
 30
3685.581
 70
    32
  0
VERTEX
  8
T15SSILL
 62
2
 10
1567.653
 20
-2913.259
 30
3685.571
 70
    32
  0
VERTEX
  8
T15SSILL
 62
2
 10
1575.055
 20
-2914.224
 30
3685.549
 70
    32
  0
VERTEX
  8
T15SSILL
 62
2
 10
1579.092
 20
-2913.383
 30
3685.535
 70
    32
  0
VERTEX
  8
T15SSILL
 62
2
 10
1615.386
 20
-2887.727
 30
3685.387
 70
    32
  0
VERTEX
  8
T15SSILL
 62
2
 10
1613.099
 20
-2882.439
 30
3685.387
 70
    32
  0
VERTEX
  8
T15SSILL
 62
2
 10
1612.095
 20
-2871.012
 30
3685.376
 70
    32
  0
VERTEX
  8
T15SSILL
 62
2
 10
1602.453
 20
-2852.389
 30
3685.382
 70
    32
  0
VERTEX
  8
T15SSILL
 62
2
 10
1596.012
 20
-2843.670
 30
3685.391
 70
    32
  0
VERTEX
  8
T15SSILL
 62
2
 10
1591.777
 20
-2835.540
 30
3685.394
 70
    32
  0
VERTEX
  8
T15SSILL
 62
2
 10
1591.044
 20
-2833.173
 30
3685.393
 70
    32
  0
VERTEX
  8
T15SSILL
 62
2
 10
1592.932
 20
-2829.279
 30
3685.382
 70
    32
  0
VERTEX
  8
T15SSILL
 62
2
 10
1592.527
 20
-2824.885
 30
3685.378
 70
    32
  0
VERTEX
  8
T15SSILL
 62
2
 10
1579.332
 20
-2786.415
 30
3685.370
 70
    32
  0
VERTEX
  8
T15SSILL
 62
2
 10
1566.182
 20
-2791.608
 30
3685.418
 70
    32
  0
VERTEX
  8
T15SSILL
 62
2
 10
1563.174
 20
-2783.116
 30
3685.417
 70
    32
  0
VERTEX
  8
T15SSILL
 62
2
 10
1576.528
 20
-2778.429
 30
3685.368
 70
    32
  0
VERTEX
  8
T15SSILL
 62
2
 10
1541.559
 20
-2678.842
 30
3685.350
 70
    32
  0
VERTEX
  8
T15SSILL
 62
2
 10
1516.792
 20
-2696.830
 30
3685.451
 70
    32
  0
VERTEX
  8
T15SSILL
 62
2
 10
1521.825
 20
-2719.907
 30
3685.465
 70
    32
  0
VERTEX
  8
T15SSILL
 62
2
 10
1524.332
 20
-2723.396
 30
3685.462
 70
    32
  0
VERTEX
  8
T15SSILL
 62
2
 10
1531.415
 20
-2727.092
 30
3685.444
 70
    32
  0
VERTEX
  8
T15SSILL
 62
2
 10
1533.945
 20
-2732.516
 30
3685.443
 70
    32
  0
SEQEND
  8
T15SSILL
  0
POLYLINE
  8
T15SSILL
 62
2
 66
     1
 70
     9
  0
VERTEX
  8
T15SSILL
 62
2
 10
1475.708
 20
-2963.301
 30
3685.928
 70
    32
  0
VERTEX
  8
T15SSILL
 62
2
 10
1482.647
 20
-2962.336
 30
3685.905
 70
    32
  0
VERTEX
  8
T15SSILL
 62
2
 10
1486.901
 20
-2957.709
 30
3685.885
 70
    32
  0
VERTEX
  8
T15SSILL
 62
2
 10
1488.440
 20
-2953.995
 30
3685.875
 70
    32
  0
VERTEX
  8
T15SSILL
 62
2
 10
1484.839
 20
-2940.138
 30
3685.869
 70
    32
  0
VERTEX
  8
T15SSILL
 62
2
 10
1479.552
 20
-2932.284
 30
3685.875
 70
    32
  0
VERTEX
  8
T15SSILL
 62
2
 10
1477.045
 20
-2928.708
 30
3685.879
 70
    32
  0
VERTEX
  8
T15SSILL
 62
2
 10
1471.320
 20
-2928.250
 30
3685.896
 70
    32
  0
VERTEX
  8
T15SSILL
 62
2
 10
1465.781
 20
-2921.367
 30
3685.905
 70
    32
  0
VERTEX
  8
T15SSILL
 62
2
 10
1459.537
 20
-2921.531
 30
3685.925
 70
    32
  0
VERTEX
  8
T15SSILL
 62
2
 10
1446.838
 20
-2926.350
 30
3685.971
 70
    32
  0
VERTEX
  8
T15SSILL
 62
2
 10
1466.491
 20
-2957.783
 30
3685.950
 70
    32
  0
SEQEND
  8
T15SSILL
  0
POLYLINE
  8
T15SSILL
 62
2
 66
     1
 70
     9
  0
VERTEX
  8
T15SSILL
 62
2
 10
1478.235
 20
-2853.381
 30
3685.777
 70
    32
  0
VERTEX
  8
T15SSILL
 62
2
 10
1474.004
 20
-2852.729
 30
3685.790
 70
    32
  0
VERTEX
  8
T15SSILL
 62
2
 10
1451.065
 20
-2869.110
 30
3685.884
 70
    32
  0
VERTEX
  8
T15SSILL
 62
2
 10
1451.733
 20
-2873.325
 30
3685.887
 70
    32
  0
VERTEX
  8
T15SSILL
 62
2
 10
1461.530
 20
-2883.059
 30
3685.868
 70
    32
  0
VERTEX
  8
T15SSILL
 62
2
 10
1485.514
 20
-2865.873
 30
3685.770
 70
    32
  0
VERTEX
  8
T15SSILL
 62
2
 10
1482.851
 20
-2856.756
 30
3685.767
 70
    32
  0
SEQEND
  8
T15SSILL
  0
POLYLINE
  8
T15SSILL
 62
2
 66
     1
 70
     9
  0
VERTEX
  8
T15SSILL
 62
2
 10
1438.933
 20
-2877.089
 30
3685.932
 70
    32
  0
VERTEX
  8
T15SSILL
 62
2
 10
1413.046
 20
-2897.025
 30
3686.040
 70
    32
  0
VERTEX
  8
T15SSILL
 62
2
 10
1414.806
 20
-2904.218
 30
3686.044
 70
    32
  0
VERTEX
  8
T15SSILL
 62
2
 10
1441.867
 20
-2922.715
 30
3685.982
 70
    32
  0
VERTEX
  8
T15SSILL
 62
2
 10
1458.634
 20
-2912.480
 30
3685.916
 70
    32
  0
VERTEX
  8
T15SSILL
 62
2
 10
1460.013
 20
-2910.088
 30
3685.908
 70
    32
  0
VERTEX
  8
T15SSILL
 62
2
 10
1444.223
 20
-2877.992
 30
3685.917
 70
    32
  0
VERTEX
  8
T15SSILL
 62
2
 10
1441.478
 20
-2876.530
 30
3685.924
 70
    32
  0
SEQEND
  8
T15SSILL
  0
POLYLINE
  8
T15SSILL
 62
2
 66
     1
 70
     9
  0
VERTEX
  8
T15SSILL
 62
2
 10
1415.780
 20
-2875.964
 30
3686.004
 70
    32
  0
VERTEX
  8
T15SSILL
 62
2
 10
1422.350
 20
-2880.811
 30
3685.990
 70
    32
  0
VERTEX
  8
T15SSILL
 62
2
 10
1434.386
 20
-2872.129
 30
3685.940
 70
    32
  0
VERTEX
  8
T15SSILL
 62
2
 10
1433.869
 20
-2865.889
 30
3685.934
 70
    32
  0
VERTEX
  8
T15SSILL
 62
2
 10
1429.131
 20
-2859.700
 30
3685.941
 70
    32
  0
VERTEX
  8
T15SSILL
 62
2
 10
1425.596
 20
-2858.424
 30
3685.950
 70
    32
  0
VERTEX
  8
T15SSILL
 62
2
 10
1416.441
 20
-2865.222
 30
3685.988
 70
    32
  0
VERTEX
  8
T15SSILL
 62
2
 10
1411.299
 20
-2869.244
 30
3686.010
 70
    32
  0
VERTEX
  8
T15SSILL
 62
2
 10
1412.135
 20
-2872.841
 30
3686.012
 70
    32
  0
SEQEND
  8
T15SSILL
  0
POLYLINE
  8
T15SSILL
 62
2
 66
     1
 70
     9
  0
VERTEX
  8
T15SSILL
 62
2
 10
1426.872
 20
-2761.364
 30
3685.820
 70
    32
  0
VERTEX
  8
T15SSILL
 62
2
 10
1436.676
 20
-2771.626
 30
3685.802
 70
    32
  0
VERTEX
  8
T15SSILL
 62
2
 10
1440.211
 20
-2772.903
 30
3685.793
 70
    32
  0
VERTEX
  8
T15SSILL
 62
2
 10
1457.835
 20
-2760.810
 30
3685.721
 70
    32
  0
VERTEX
  8
T15SSILL
 62
2
 10
1446.837
 20
-2746.427
 30
3685.738
 70
    32
  0
VERTEX
  8
T15SSILL
 62
2
 10
1430.619
 20
-2758.415
 30
3685.804
 70
    32
  0
SEQEND
  8
T15SSILL
  0
POLYLINE
  8
T15SSILL
 62
2
 66
     1
 70
     9
  0
VERTEX
  8
T15SSILL
 62
2
 10
1443.492
 20
-2739.077
 30
3685.739
 70
    32
  0
VERTEX
  8
T15SSILL
 62
2
 10
1445.617
 20
-2733.919
 30
3685.725
 70
    32
  0
VERTEX
  8
T15SSILL
 62
2
 10
1439.990
 20
-2726.099
 30
3685.733
 70
    32
  0
VERTEX
  8
T15SSILL
 62
2
 10
1444.212
 20
-2723.041
 30
3685.715
 70
    32
  0
VERTEX
  8
T15SSILL
 62
2
 10
1442.204
 20
-2720.089
 30
3685.718
 70
    32
  0
VERTEX
  8
T15SSILL
 62
2
 10
1412.981
 20
-2740.594
 30
3685.837
 70
    32
  0
VERTEX
  8
T15SSILL
 62
2
 10
1418.974
 20
-2748.615
 30
3685.829
 70
    32
  0
VERTEX
  8
T15SSILL
 62
2
 10
1424.752
 20
-2753.472
 30
3685.817
 70
    32
  0
SEQEND
  8
T15SSILL
  0
POLYLINE
  8
T15SSILL
 62
2
 66
     1
 70
     9
  0
VERTEX
  8
T15SSILL
 62
2
 10
1290.610
 20
-2835.088
 30
3686.348
 70
    32
  0
VERTEX
  8
T15SSILL
 62
2
 10
1284.838
 20
-2830.671
 30
3686.360
 70
    32
  0
VERTEX
  8
T15SSILL
 62
2
 10
1277.608
 20
-2807.884
 30
3686.354
 70
    32
  0
VERTEX
  8
T15SSILL
 62
2
 10
1275.390
 20
-2806.328
 30
3686.359
 70
    32
  0
VERTEX
  8
T15SSILL
 62
2
 10
1270.140
 20
-2808.679
 30
3686.378
 70
    32
  0
VERTEX
  8
T15SSILL
 62
2
 10
1227.947
 20
-2840.605
 30
3686.554
 70
    32
  0
VERTEX
  8
T15SSILL
 62
2
 10
1226.770
 20
-2845.106
 30
3686.563
 70
    32
  0
VERTEX
  8
T15SSILL
 62
2
 10
1229.182
 20
-2848.068
 30
3686.559
 70
    32
  0
VERTEX
  8
T15SSILL
 62
2
 10
1228.783
 20
-2851.416
 30
3686.565
 70
    32
  0
VERTEX
  8
T15SSILL
 62
2
 10
1291.773
 20
-2894.197
 30
3686.421
 70
    32
  0
VERTEX
  8
T15SSILL
 62
2
 10
1298.822
 20
-2873.435
 30
3686.372
 70
    32
  0
VERTEX
  8
T15SSILL
 62
2
 10
1304.691
 20
-2849.784
 30
3686.322
 70
    32
  0
VERTEX
  8
T15SSILL
 62
2
 10
1302.022
 20
-2847.353
 30
3686.328
 70
    32
  0
SEQEND
  8
T15SSILL
  0
POLYLINE
  8
T15SSILL
 62
2
 66
     1
 70
     9
  0
VERTEX
  8
T15SSILL
 62
2
 10
1400.529
 20
-3002.932
 30
3686.218
 70
    32
  0
VERTEX
  8
T15SSILL
 62
2
 10
1420.390
 20
-3015.447
 30
3686.171
 70
    32
  0
VERTEX
  8
T15SSILL
 62
2
 10
1425.151
 20
-3016.268
 30
3686.157
 70
    32
  0
VERTEX
  8
T15SSILL
 62
2
 10
1436.384
 20
-3013.931
 30
3686.118
 70
    32
  0
VERTEX
  8
T15SSILL
 62
2
 10
1443.125
 20
-3011.209
 30
3686.093
 70
    32
  0
VERTEX
  8
T15SSILL
 62
2
 10
1485.411
 20
-2979.723
 30
3685.918
 70
    32
  0
VERTEX
  8
T15SSILL
 62
2
 10
1487.567
 20
-2976.177
 30
3685.907
 70
    32
  0
VERTEX
  8
T15SSILL
 62
2
 10
1486.834
 20
-2973.810
 30
3685.906
 70
    32
  0
VERTEX
  8
T15SSILL
 62
2
 10
1471.368
 20
-2968.105
 30
3685.948
 70
    32
  0
VERTEX
  8
T15SSILL
 62
2
 10
1459.941
 20
-2961.822
 30
3685.976
 70
    32
  0
VERTEX
  8
T15SSILL
 62
2
 10
1439.397
 20
-2929.432
 30
3685.999
 70
    32
  0
VERTEX
  8
T15SSILL
 62
2
 10
1384.502
 20
-2893.855
 30
3686.127
 70
    32
  0
VERTEX
  8
T15SSILL
 62
2
 10
1381.706
 20
-2895.473
 30
3686.138
 70
    32
  0
VERTEX
  8
T15SSILL
 62
2
 10
1376.845
 20
-2893.685
 30
3686.151
 70
    32
  0
VERTEX
  8
T15SSILL
 62
2
 10
1373.069
 20
-2894.259
 30
3686.163
 70
    32
  0
VERTEX
  8
T15SSILL
 62
2
 10
1368.699
 20
-2896.600
 30
3686.180
 70
    32
  0
VERTEX
  8
T15SSILL
 62
2
 10
1363.914
 20
-2893.843
 30
3686.192
 70
    32
  0
VERTEX
  8
T15SSILL
 62
2
 10
1350.966
 20
-2878.252
 30
3686.213
 70
    32
  0
VERTEX
  8
T15SSILL
 62
2
 10
1343.527
 20
-2867.082
 30
3686.222
 70
    32
  0
VERTEX
  8
T15SSILL
 62
2
 10
1319.411
 20
-2851.980
 30
3686.278
 70
    32
  0
VERTEX
  8
T15SSILL
 62
2
 10
1312.010
 20
-2851.102
 30
3686.301
 70
    32
  0
VERTEX
  8
T15SSILL
 62
2
 10
1299.393
 20
-2898.591
 30
3686.402
 70
    32
  0
VERTEX
  8
T15SSILL
 62
2
 10
1349.692
 20
-2932.377
 30
3686.287
 70
    32
  0
VERTEX
  8
T15SSILL
 62
2
 10
1368.119
 20
-2949.924
 30
3686.251
 70
    32
  0
VERTEX
  8
T15SSILL
 62
2
 10
1389.252
 20
-2987.321
 30
3686.233
 70
    32
  0
VERTEX
  8
T15SSILL
 62
2
 10
1396.236
 20
-2997.266
 30
3686.224
 70
    32
  0
SEQEND
  8
T15SSILL
  0
POLYLINE
  8
T15SSILL
 62
2
 66
     1
 70
     9
  0
VERTEX
  8
T15SSILL
 62
2
 10
1535.472
 20
-2871.773
 30
3685.620
 70
    32
  0
VERTEX
  8
T15SSILL
 62
2
 10
1531.851
 20
-2870.673
 30
3685.630
 70
    32
  0
VERTEX
  8
T15SSILL
 62
2
 10
1520.119
 20
-2882.518
 30
3685.682
 70
    32
  0
VERTEX
  8
T15SSILL
 62
2
 10
1511.787
 20
-2884.644
 30
3685.711
 70
    32
  0
VERTEX
  8
T15SSILL
 62
2
 10
1509.432
 20
-2893.559
 30
3685.730
 70
    32
  0
VERTEX
  8
T15SSILL
 62
2
 10
1509.070
 20
-2899.898
 30
3685.740
 70
    32
  0
VERTEX
  8
T15SSILL
 62
2
 10
1511.082
 20
-2906.208
 30
3685.742
 70
    32
  0
VERTEX
  8
T15SSILL
 62
2
 10
1510.764
 20
-2908.939
 30
3685.746
 70
    32
  0
VERTEX
  8
T15SSILL
 62
2
 10
1508.763
 20
-2910.811
 30
3685.755
 70
    32
  0
VERTEX
  8
T15SSILL
 62
2
 10
1507.490
 20
-2914.610
 30
3685.764
 70
    32
  0
VERTEX
  8
T15SSILL
 62
2
 10
1507.472
 20
-2920.329
 30
3685.771
 70
    32
  0
VERTEX
  8
T15SSILL
 62
2
 10
1502.163
 20
-2925.057
 30
3685.794
 70
    32
  0
VERTEX
  8
T15SSILL
 62
2
 10
1496.572
 20
-2935.507
 30
3685.826
 70
    32
  0
VERTEX
  8
T15SSILL
 62
2
 10
1503.081
 20
-2949.769
 30
3685.823
 70
    32
  0
VERTEX
  8
T15SSILL
 62
2
 10
1497.142
 20
-2953.361
 30
3685.847
 70
    32
  0
VERTEX
  8
T15SSILL
 62
2
 10
1496.310
 20
-2957.242
 30
3685.855
 70
    32
  0
VERTEX
  8
T15SSILL
 62
2
 10
1492.759
 20
-2961.861
 30
3685.872
 70
    32
  0
VERTEX
  8
T15SSILL
 62
2
 10
1492.892
 20
-2965.554
 30
3685.876
 70
    32
  0
VERTEX
  8
T15SSILL
 62
2
 10
1507.756
 20
-2965.108
 30
3685.829
 70
    32
  0
VERTEX
  8
T15SSILL
 62
2
 10
1529.390
 20
-2949.975
 30
3685.740
 70
    32
  0
VERTEX
  8
T15SSILL
 62
2
 10
1533.906
 20
-2930.740
 30
3685.701
 70
    32
  0
VERTEX
  8
T15SSILL
 62
2
 10
1549.875
 20
-2905.646
 30
3685.618
 70
    32
  0
VERTEX
  8
T15SSILL
 62
2
 10
1540.507
 20
-2880.597
 30
3685.615
 70
    32
  0
SEQEND
  8
T15SSILL
  0
POLYLINE
  8
T15SSILL
 62
2
 66
     1
 70
     9
  0
VERTEX
  8
T15SSILL
 62
2
 10
1368.182
 20
-2645.770
 30
3685.856
 70
    32
  0
VERTEX
  8
T15SSILL
 62
2
 10
1370.903
 20
-2645.209
 30
3685.847
 70
    32
  0
VERTEX
  8
T15SSILL
 62
2
 10
1375.238
 20
-2648.911
 30
3685.838
 70
    32
  0
VERTEX
  8
T15SSILL
 62
2
 10
1346.126
 20
-2669.531
 30
3685.957
 70
    32
  0
VERTEX
  8
T15SSILL
 62
2
 10
1349.797
 20
-2674.765
 30
3685.952
 70
    32
  0
VERTEX
  8
T15SSILL
 62
2
 10
1338.208
 20
-2682.996
 30
3685.999
 70
    32
  0
VERTEX
  8
T15SSILL
 62
2
 10
1335.125
 20
-2669.314
 30
3685.991
 70
    32
  0
SEQEND
  8
T15SSILL
  0
POLYLINE
  8
T15SSILL
 62
2
 66
     1
 70
     9
  0
VERTEX
  8
T15SSILL
 62
2
 10
1350.133
 20
-2709.426
 30
3685.996
 70
    32
  0
VERTEX
  8
T15SSILL
 62
2
 10
1344.615
 20
-2701.430
 30
3686.003
 70
    32
  0
VERTEX
  8
T15SSILL
 62
2
 10
1355.226
 20
-2694.230
 30
3685.960
 70
    32
  0
VERTEX
  8
T15SSILL
 62
2
 10
1358.280
 20
-2699.384
 30
3685.957
 70
    32
  0
VERTEX
  8
T15SSILL
 62
2
 10
1384.357
 20
-2680.589
 30
3685.850
 70
    32
  0
VERTEX
  8
T15SSILL
 62
2
 10
1380.512
 20
-2675.533
 30
3685.856
 70
    32
  0
VERTEX
  8
T15SSILL
 62
2
 10
1390.413
 20
-2668.448
 30
3685.815
 70
    32
  0
VERTEX
  8
T15SSILL
 62
2
 10
1397.253
 20
-2677.528
 30
3685.805
 70
    32
  0
VERTEX
  8
T15SSILL
 62
2
 10
1352.340
 20
-2710.014
 30
3685.990
 70
    32
  0
SEQEND
  8
T15SSILL
  0
POLYLINE
  8
T15SSILL
 62
2
 66
     1
 70
     9
  0
VERTEX
  8
T15SSILL
 62
2
 10
1417.143
 20
-2656.433
 30
3685.715
 70
    32
  0
VERTEX
  8
T15SSILL
 62
2
 10
1402.752
 20
-2666.727
 30
3685.774
 70
    32
  0
VERTEX
  8
T15SSILL
 62
2
 10
1399.526
 20
-2661.927
 30
3685.778
 70
    32
  0
VERTEX
  8
T15SSILL
 62
2
 10
1395.218
 20
-2665.010
 30
3685.795
 70
    32
  0
VERTEX
  8
T15SSILL
 62
2
 10
1397.851
 20
-2668.898
 30
3685.792
 70
    32
  0
VERTEX
  8
T15SSILL
 62
2
 10
1402.397
 20
-2673.682
 30
3685.784
 70
    32
  0
VERTEX
  8
T15SSILL
 62
2
 10
1432.139
 20
-2652.466
 30
3685.662
 70
    32
  0
VERTEX
  8
T15SSILL
 62
2
 10
1429.139
 20
-2639.675
 30
3685.655
 70
    32
  0
VERTEX
  8
T15SSILL
 62
2
 10
1413.471
 20
-2651.199
 30
3685.720
 70
    32
  0
SEQEND
  8
T15SSILL
  0
POLYLINE
  8
T15SSILL
 62
2
 66
     1
 70
     9
  0
VERTEX
  8
T15SSILL
 62
2
 10
1435.718
 20
-2635.794
 30
3685.629
 70
    32
  0
VERTEX
  8
T15SSILL
 62
2
 10
1442.339
 20
-2644.775
 30
3685.620
 70
    32
  0
VERTEX
  8
T15SSILL
 62
2
 10
1460.485
 20
-2632.148
 30
3685.546
 70
    32
  0
VERTEX
  8
T15SSILL
 62
2
 10
1450.553
 20
-2617.759
 30
3685.559
 70
    32
  0
VERTEX
  8
T15SSILL
 62
2
 10
1434.310
 20
-2628.509
 30
3685.624
 70
    32
  0
SEQEND
  8
T15SSILL
  0
POLYLINE
  8
T15SSILL
 62
2
 66
     1
 70
     9
  0
VERTEX
  8
T15SSILL
 62
2
 10
1419.080
 20
-2620.601
 30
3685.662
 70
    32
  0
VERTEX
  8
T15SSILL
 62
2
 10
1423.900
 20
-2628.981
 30
3685.658
 70
    32
  0
VERTEX
  8
T15SSILL
 62
2
 10
1421.141
 20
-2630.869
 30
3685.669
 70
    32
  0
VERTEX
  8
T15SSILL
 62
2
 10
1418.178
 20
-2625.979
 30
3685.672
 70
    32
  0
VERTEX
  8
T15SSILL
 62
2
 10
1413.031
 20
-2629.561
 30
3685.693
 70
    32
  0
VERTEX
  8
T15SSILL
 62
2
 10
1409.452
 20
-2624.678
 30
3685.698
 70
    32
  0
VERTEX
  8
T15SSILL
 62
2
 10
1380.456
 20
-2645.215
 30
3685.816
 70
    32
  0
VERTEX
  8
T15SSILL
 62
2
 10
1377.341
 20
-2639.235
 30
3685.818
 70
    32
  0
VERTEX
  8
T15SSILL
 62
2
 10
1411.166
 20
-2613.747
 30
3685.678
 70
    32
  0
SEQEND
  8
T15SSILL
  0
POLYLINE
  8
T15SSILL
 62
2
 66
     1
 70
     9
  0
VERTEX
  8
T15SSILL
 62
2
 10
1331.776
 20
-2798.336
 30
3686.170
 70
    32
  0
VERTEX
  8
T15SSILL
 62
2
 10
1331.266
 20
-2792.623
 30
3686.164
 70
    32
  0
VERTEX
  8
T15SSILL
 62
2
 10
1338.357
 20
-2789.721
 30
3686.138
 70
    32
  0
VERTEX
  8
T15SSILL
 62
2
 10
1341.457
 20
-2791.355
 30
3686.130
 70
    32
  0
VERTEX
  8
T15SSILL
 62
2
 10
1349.839
 20
-2807.705
 30
3686.125
 70
    32
  0
VERTEX
  8
T15SSILL
 62
2
 10
1362.580
 20
-2799.191
 30
3686.073
 70
    32
  0
VERTEX
  8
T15SSILL
 62
2
 10
1349.360
 20
-2775.685
 30
3686.084
 70
    32
  0
VERTEX
  8
T15SSILL
 62
2
 10
1341.788
 20
-2768.036
 30
3686.098
 70
    32
  0
VERTEX
  8
T15SSILL
 62
2
 10
1331.853
 20
-2761.470
 30
3686.121
 70
    32
  0
VERTEX
  8
T15SSILL
 62
2
 10
1326.959
 20
-2764.170
 30
3686.140
 70
    32
  0
VERTEX
  8
T15SSILL
 62
2
 10
1306.591
 20
-2782.103
 30
3686.228
 70
    32
  0
VERTEX
  8
T15SSILL
 62
2
 10
1298.297
 20
-2787.395
 30
3686.261
 70
    32
  0
VERTEX
  8
T15SSILL
 62
2
 10
1289.195
 20
-2798.504
 30
3686.305
 70
    32
  0
VERTEX
  8
T15SSILL
 62
2
 10
1289.444
 20
-2804.484
 30
3686.312
 70
    32
  0
VERTEX
  8
T15SSILL
 62
2
 10
1292.286
 20
-2813.863
 30
3686.315
 70
    32
  0
VERTEX
  8
T15SSILL
 62
2
 10
1299.361
 20
-2823.983
 30
3686.306
 70
    32
  0
VERTEX
  8
T15SSILL
 62
2
 10
1304.358
 20
-2829.729
 30
3686.297
 70
    32
  0
VERTEX
  8
T15SSILL
 62
2
 10
1311.810
 20
-2834.740
 30
3686.280
 70
    32
  0
VERTEX
  8
T15SSILL
 62
2
 10
1331.787
 20
-2819.946
 30
3686.198
 70
    32
  0
VERTEX
  8
T15SSILL
 62
2
 10
1328.107
 20
-2814.833
 30
3686.203
 70
    32
  0
VERTEX
  8
T15SSILL
 62
2
 10
1333.078
 20
-2811.253
 30
3686.182
 70
    32
  0
VERTEX
  8
T15SSILL
 62
2
 10
1329.230
 20
-2805.933
 30
3686.188
 70
    32
  0
VERTEX
  8
T15SSILL
 62
2
 10
1333.018
 20
-2802.697
 30
3686.171
 70
    32
  0
SEQEND
  8
T15SSILL
  0
POLYLINE
  8
T15SSILL
 62
2
 66
     1
 70
     9
  0
VERTEX
  8
T15SSILL
 62
2
 10
1336.666
 20
-2826.725
 30
3686.191
 70
    32
  0
VERTEX
  8
T15SSILL
 62
2
 10
1333.806
 20
-2827.609
 30
3686.201
 70
    32
  0
VERTEX
  8
T15SSILL
 62
2
 10
1318.457
 20
-2838.706
 30
3686.264
 70
    32
  0
VERTEX
  8
T15SSILL
 62
2
 10
1321.123
 20
-2840.873
 30
3686.259
 70
    32
  0
VERTEX
  8
T15SSILL
 62
2
 10
1320.724
 20
-2844.221
 30
3686.264
 70
    32
  0
VERTEX
  8
T15SSILL
 62
2
 10
1351.926
 20
-2863.284
 30
3686.190
 70
    32
  0
VERTEX
  8
T15SSILL
 62
2
 10
1346.119
 20
-2848.654
 30
3686.190
 70
    32
  0
VERTEX
  8
T15SSILL
 62
2
 10
1342.627
 20
-2843.865
 30
3686.194
 70
    32
  0
VERTEX
  8
T15SSILL
 62
2
 10
1343.919
 20
-2842.926
 30
3686.189
 70
    32
  0
VERTEX
  8
T15SSILL
 62
2
 10
1341.099
 20
-2834.030
 30
3686.186
 70
    32
  0
SEQEND
  8
T15SSILL
  0
POLYLINE
  8
T15SSILL
 62
2
 66
     1
 70
     9
  0
VERTEX
  8
T15SSILL
 62
2
 10
1380.933
 20
-2846.652
 30
3686.077
 70
    32
  0
VERTEX
  8
T15SSILL
 62
2
 10
1370.217
 20
-2826.548
 30
3686.084
 70
    32
  0
VERTEX
  8
T15SSILL
 62
2
 10
1369.741
 20
-2823.562
 30
3686.082
 70
    32
  0
VERTEX
  8
T15SSILL
 62
2
 10
1374.511
 20
-2817.961
 30
3686.060
 70
    32
  0
VERTEX
  8
T15SSILL
 62
2
 10
1374.989
 20
-2813.820
 30
3686.053
 70
    32
  0
VERTEX
  8
T15SSILL
 62
2
 10
1374.599
 20
-2810.745
 30
3686.050
 70
    32
  0
VERTEX
  8
T15SSILL
 62
2
 10
1371.824
 20
-2806.820
 30
3686.054
 70
    32
  0
VERTEX
  8
T15SSILL
 62
2
 10
1368.702
 20
-2803.339
 30
3686.059
 70
    32
  0
VERTEX
  8
T15SSILL
 62
2
 10
1353.344
 20
-2813.733
 30
3686.121
 70
    32
  0
VERTEX
  8
T15SSILL
 62
2
 10
1361.336
 20
-2839.721
 30
3686.130
 70
    32
  0
VERTEX
  8
T15SSILL
 62
2
 10
1374.914
 20
-2858.076
 30
3686.111
 70
    32
  0
VERTEX
  8
T15SSILL
 62
2
 10
1371.521
 20
-2860.304
 30
3686.124
 70
    32
  0
VERTEX
  8
T15SSILL
 62
2
 10
1372.574
 20
-2861.008
 30
3686.122
 70
    32
  0
VERTEX
  8
T15SSILL
 62
2
 10
1377.996
 20
-2858.302
 30
3686.101
 70
    32
  0
VERTEX
  8
T15SSILL
 62
2
 10
1384.163
 20
-2851.804
 30
3686.073
 70
    32
  0
SEQEND
  8
T15SSILL
  0
POLYLINE
  8
T15SSILL
 62
2
 66
     1
 70
     9
  0
VERTEX
  8
T15SSILL
 62
2
 10
1279.663
 20
-2781.641
 30
3686.313
 70
    32
  0
VERTEX
  8
T15SSILL
 62
2
 10
1282.356
 20
-2786.007
 30
3686.310
 70
    32
  0
VERTEX
  8
T15SSILL
 62
2
 10
1284.925
 20
-2787.471
 30
3686.304
 70
    32
  0
VERTEX
  8
T15SSILL
 62
2
 10
1299.352
 20
-2780.080
 30
3686.249
 70
    32
  0
VERTEX
  8
T15SSILL
 62
2
 10
1305.284
 20
-2775.960
 30
3686.224
 70
    32
  0
VERTEX
  8
T15SSILL
 62
2
 10
1311.302
 20
-2764.449
 30
3686.190
 70
    32
  0
VERTEX
  8
T15SSILL
 62
2
 10
1326.193
 20
-2751.862
 30
3686.127
 70
    32
  0
VERTEX
  8
T15SSILL
 62
2
 10
1333.889
 20
-2748.072
 30
3686.098
 70
    32
  0
VERTEX
  8
T15SSILL
 62
2
 10
1335.563
 20
-2741.101
 30
3686.083
 70
    32
  0
VERTEX
  8
T15SSILL
 62
2
 10
1329.955
 20
-2721.374
 30
3686.075
 70
    32
  0
VERTEX
  8
T15SSILL
 62
2
 10
1336.866
 20
-2718.122
 30
3686.049
 70
    32
  0
VERTEX
  8
T15SSILL
 62
2
 10
1336.301
 20
-2715.050
 30
3686.047
 70
    32
  0
VERTEX
  8
T15SSILL
 62
2
 10
1330.669
 20
-2701.091
 30
3686.047
 70
    32
  0
VERTEX
  8
T15SSILL
 62
2
 10
1324.589
 20
-2692.670
 30
3686.055
 70
    32
  0
VERTEX
  8
T15SSILL
 62
2
 10
1326.832
 20
-2691.077
 30
3686.046
 70
    32
  0
VERTEX
  8
T15SSILL
 62
2
 10
1316.956
 20
-2658.450
 30
3686.035
 70
    32
  0
VERTEX
  8
T15SSILL
 62
2
 10
1311.730
 20
-2655.523
 30
3686.048
 70
    32
  0
VERTEX
  8
T15SSILL
 62
2
 10
1308.868
 20
-2651.774
 30
3686.052
 70
    32
  0
VERTEX
  8
T15SSILL
 62
2
 10
1301.628
 20
-2649.663
 30
3686.072
 70
    32
  0
VERTEX
  8
T15SSILL
 62
2
 10
1297.365
 20
-2646.372
 30
3686.081
 70
    32
  0
VERTEX
  8
T15SSILL
 62
2
 10
1279.527
 20
-2645.896
 30
3686.137
 70
    32
  0
VERTEX
  8
T15SSILL
 62
2
 10
1268.124
 20
-2636.889
 30
3686.162
 70
    32
  0
VERTEX
  8
T15SSILL
 62
2
 10
1252.892
 20
-2606.892
 30
3686.171
 70
    32
  0
VERTEX
  8
T15SSILL
 62
2
 10
1250.274
 20
-2604.138
 30
3686.176
 70
    32
  0
VERTEX
  8
T15SSILL
 62
2
 10
1246.855
 20
-2604.659
 30
3686.187
 70
    32
  0
VERTEX
  8
T15SSILL
 62
2
 10
1199.104
 20
-2639.321
 30
3686.383
 70
    32
  0
VERTEX
  8
T15SSILL
 62
2
 10
1202.051
 20
-2651.145
 30
3686.389
 70
    32
  0
VERTEX
  8
T15SSILL
 62
2
 10
1207.989
 20
-2654.680
 30
3686.375
 70
    32
  0
VERTEX
  8
T15SSILL
 62
2
 10
1213.371
 20
-2663.148
 30
3686.369
 70
    32
  0
VERTEX
  8
T15SSILL
 62
2
 10
1219.417
 20
-2682.694
 30
3686.375
 70
    32
  0
VERTEX
  8
T15SSILL
 62
2
 10
1224.212
 20
-2693.457
 30
3686.374
 70
    32
  0
VERTEX
  8
T15SSILL
 62
2
 10
1247.378
 20
-2731.622
 30
3686.350
 70
    32
  0
VERTEX
  8
T15SSILL
 62
2
 10
1249.518
 20
-2733.971
 30
3686.347
 70
    32
  0
VERTEX
  8
T15SSILL
 62
2
 10
1265.606
 20
-2732.895
 30
3686.294
 70
    32
  0
VERTEX
  8
T15SSILL
 62
2
 10
1267.743
 20
-2734.980
 30
3686.290
 70
    32
  0
VERTEX
  8
T15SSILL
 62
2
 10
1270.634
 20
-2741.191
 30
3686.289
 70
    32
  0
VERTEX
  8
T15SSILL
 62
2
 10
1275.143
 20
-2757.413
 30
3686.296
 70
    32
  0
VERTEX
  8
T15SSILL
 62
2
 10
1277.169
 20
-2771.993
 30
3686.308
 70
    32
  0
SEQEND
  8
T15SSILL
  0
POLYLINE
  8
T15SSILL
 62
2
 66
     1
 70
     9
  0
VERTEX
  8
T15SSILL
 62
2
 10
1303.185
 20
-2601.473
 30
3686.004
 70
    32
  0
VERTEX
  8
T15SSILL
 62
2
 10
1294.907
 20
-2582.662
 30
3686.006
 70
    32
  0
VERTEX
  8
T15SSILL
 62
2
 10
1291.303
 20
-2579.140
 30
3686.013
 70
    32
  0
VERTEX
  8
T15SSILL
 62
2
 10
1287.938
 20
-2578.252
 30
3686.023
 70
    32
  0
VERTEX
  8
T15SSILL
 62
2
 10
1282.584
 20
-2578.819
 30
3686.040
 70
    32
  0
VERTEX
  8
T15SSILL
 62
2
 10
1258.177
 20
-2596.031
 30
3686.140
 70
    32
  0
VERTEX
  8
T15SSILL
 62
2
 10
1258.613
 20
-2599.953
 30
3686.144
 70
    32
  0
VERTEX
  8
T15SSILL
 62
2
 10
1272.153
 20
-2630.639
 30
3686.141
 70
    32
  0
VERTEX
  8
T15SSILL
 62
2
 10
1280.284
 20
-2630.176
 30
3686.114
 70
    32
  0
VERTEX
  8
T15SSILL
 62
2
 10
1306.223
 20
-2610.817
 30
3686.007
 70
    32
  0
VERTEX
  8
T15SSILL
 62
2
 10
1306.508
 20
-2607.994
 30
3686.002
 70
    32
  0
VERTEX
  8
T15SSILL
 62
2
 10
1304.747
 20
-2604.252
 30
3686.003
 70
    32
  0
SEQEND
  8
T15SSILL
  0
POLYLINE
  8
T15SSILL
 62
2
 66
     1
 70
     9
  0
VERTEX
  8
T15SSILL
 62
2
 10
726.103
 20
-1881.634
 30
3686.898
 70
    32
  0
VERTEX
  8
T15SSILL
 62
2
 10
689.992
 20
-1908.614
 30
3687.047
 70
    32
  0
VERTEX
  8
T15SSILL
 62
2
 10
686.001
 20
-1913.224
 30
3687.066
 70
    32
  0
VERTEX
  8
T15SSILL
 62
2
 10
685.832
 20
-1916.308
 30
3687.071
 70
    32
  0
VERTEX
  8
T15SSILL
 62
2
 10
730.582
 20
-1995.059
 30
3687.031
 70
    32
  0
VERTEX
  8
T15SSILL
 62
2
 10
735.238
 20
-1992.012
 30
3687.012
 70
    32
  0
VERTEX
  8
T15SSILL
 62
2
 10
733.341
 20
-1990.400
 30
3687.016
 70
    32
  0
VERTEX
  8
T15SSILL
 62
2
 10
741.933
 20
-1983.800
 30
3686.980
 70
    32
  0
VERTEX
  8
T15SSILL
 62
2
 10
743.932
 20
-1985.849
 30
3686.977
 70
    32
  0
VERTEX
  8
T15SSILL
 62
2
 10
758.886
 20
-1974.479
 30
3686.915
 70
    32
  0
VERTEX
  8
T15SSILL
 62
2
 10
757.415
 20
-1972.413
 30
3686.917
 70
    32
  0
VERTEX
  8
T15SSILL
 62
2
 10
765.743
 20
-1965.821
 30
3686.882
 70
    32
  0
VERTEX
  8
T15SSILL
 62
2
 10
767.687
 20
-1968.928
 30
3686.880
 70
    32
  0
VERTEX
  8
T15SSILL
 62
2
 10
781.575
 20
-1957.238
 30
3686.820
 70
    32
  0
VERTEX
  8
T15SSILL
 62
2
 10
787.056
 20
-1941.059
 30
3686.782
 70
    32
  0
VERTEX
  8
T15SSILL
 62
2
 10
784.988
 20
-1939.627
 30
3686.787
 70
    32
  0
VERTEX
  8
T15SSILL
 62
2
 10
746.830
 20
-1886.270
 30
3686.838
 70
    32
  0
VERTEX
  8
T15SSILL
 62
2
 10
736.358
 20
-1877.622
 30
3686.860
 70
    32
  0
VERTEX
  8
T15SSILL
 62
2
 10
729.962
 20
-1878.435
 30
3686.881
 70
    32
  0
SEQEND
  8
T15SSILL
  0
POLYLINE
  8
T15SSILL
 62
2
 66
     1
 70
     9
  0
VERTEX
  8
T15SSILL
 62
2
 10
832.406
 20
-2165.023
 30
3686.929
 70
    32
  0
VERTEX
  8
T15SSILL
 62
2
 10
849.891
 20
-2152.167
 30
3686.857
 70
    32
  0
VERTEX
  8
T15SSILL
 62
2
 10
846.130
 20
-2147.182
 30
3686.863
 70
    32
  0
VERTEX
  8
T15SSILL
 62
2
 10
848.598
 20
-2145.514
 30
3686.853
 70
    32
  0
VERTEX
  8
T15SSILL
 62
2
 10
846.255
 20
-2140.137
 30
3686.853
 70
    32
  0
VERTEX
  8
T15SSILL
 62
2
 10
852.639
 20
-2134.793
 30
3686.826
 70
    32
  0
VERTEX
  8
T15SSILL
 62
2
 10
857.424
 20
-2146.513
 30
3686.826
 70
    32
  0
VERTEX
  8
T15SSILL
 62
2
 10
859.005
 20
-2145.376
 30
3686.819
 70
    32
  0
VERTEX
  8
T15SSILL
 62
2
 10
863.490
 20
-2151.417
 30
3686.813
 70
    32
  0
VERTEX
  8
T15SSILL
 62
2
 10
904.573
 20
-2120.623
 30
3686.643
 70
    32
  0
VERTEX
  8
T15SSILL
 62
2
 10
905.786
 20
-2112.411
 30
3686.628
 70
    32
  0
VERTEX
  8
T15SSILL
 62
2
 10
905.162
 20
-2108.378
 30
3686.625
 70
    32
  0
VERTEX
  8
T15SSILL
 62
2
 10
798.741
 20
-1958.847
 30
3686.768
 70
    32
  0
VERTEX
  8
T15SSILL
 62
2
 10
793.906
 20
-1959.050
 30
3686.784
 70
    32
  0
VERTEX
  8
T15SSILL
 62
2
 10
787.295
 20
-1962.287
 30
3686.809
 70
    32
  0
VERTEX
  8
T15SSILL
 62
2
 10
736.813
 20
-2000.533
 30
3687.018
 70
    32
  0
VERTEX
  8
T15SSILL
 62
2
 10
734.786
 20
-2004.101
 30
3687.029
 70
    32
  0
VERTEX
  8
T15SSILL
 62
2
 10
734.897
 20
-2008.763
 30
3687.035
 70
    32
  0
VERTEX
  8
T15SSILL
 62
2
 10
742.642
 20
-2023.626
 30
3687.030
 70
    32
  0
VERTEX
  8
T15SSILL
 62
2
 10
750.433
 20
-2029.337
 30
3687.013
 70
    32
  0
VERTEX
  8
T15SSILL
 62
2
 10
752.822
 20
-2033.592
 30
3687.011
 70
    32
  0
VERTEX
  8
T15SSILL
 62
2
 10
761.796
 20
-2059.426
 30
3687.016
 70
    32
  0
VERTEX
  8
T15SSILL
 62
2
 10
781.509
 20
-2089.140
 30
3686.992
 70
    32
  0
VERTEX
  8
T15SSILL
 62
2
 10
790.753
 20
-2100.448
 30
3686.977
 70
    32
  0
VERTEX
  8
T15SSILL
 62
2
 10
803.189
 20
-2120.128
 30
3686.963
 70
    32
  0
VERTEX
  8
T15SSILL
 62
2
 10
808.678
 20
-2132.670
 30
3686.962
 70
    32
  0
SEQEND
  8
T15SSILL
  0
POLYLINE
  8
T15SSILL
 62
2
 66
     1
 70
     9
  0
VERTEX
  8
T15SSILL
 62
2
 10
874.445
 20
-2171.058
 30
3686.804
 70
    32
  0
VERTEX
  8
T15SSILL
 62
2
 10
889.594
 20
-2186.449
 30
3686.776
 70
    32
  0
VERTEX
  8
T15SSILL
 62
2
 10
894.545
 20
-2194.867
 30
3686.771
 70
    32
  0
VERTEX
  8
T15SSILL
 62
2
 10
894.101
 20
-2198.398
 30
3686.777
 70
    32
  0
VERTEX
  8
T15SSILL
 62
2
 10
902.539
 20
-2220.197
 30
3686.779
 70
    32
  0
VERTEX
  8
T15SSILL
 62
2
 10
901.100
 20
-2226.303
 30
3686.791
 70
    32
  0
VERTEX
  8
T15SSILL
 62
2
 10
896.439
 20
-2230.109
 30
3686.811
 70
    32
  0
VERTEX
  8
T15SSILL
 62
2
 10
893.304
 20
-2235.200
 30
3686.827
 70
    32
  0
VERTEX
  8
T15SSILL
 62
2
 10
895.590
 20
-2242.537
 30
3686.830
 70
    32
  0
VERTEX
  8
T15SSILL
 62
2
 10
898.222
 20
-2245.906
 30
3686.826
 70
    32
  0
VERTEX
  8
T15SSILL
 62
2
 10
901.874
 20
-2247.756
 30
3686.817
 70
    32
  0
VERTEX
  8
T15SSILL
 62
2
 10
962.953
 20
-2203.714
 30
3686.566
 70
    32
  0
VERTEX
  8
T15SSILL
 62
2
 10
962.619
 20
-2200.730
 30
3686.563
 70
    32
  0
VERTEX
  8
T15SSILL
 62
2
 10
950.416
 20
-2168.637
 30
3686.560
 70
    32
  0
VERTEX
  8
T15SSILL
 62
2
 10
917.933
 20
-2123.650
 30
3686.604
 70
    32
  0
VERTEX
  8
T15SSILL
 62
2
 10
915.275
 20
-2122.921
 30
3686.612
 70
    32
  0
VERTEX
  8
T15SSILL
 62
2
 10
869.840
 20
-2155.064
 30
3686.798
 70
    32
  0
VERTEX
  8
T15SSILL
 62
2
 10
868.086
 20
-2157.609
 30
3686.807
 70
    32
  0
VERTEX
  8
T15SSILL
 62
2
 10
876.814
 20
-2169.367
 30
3686.794
 70
    32
  0
SEQEND
  8
T15SSILL
  0
POLYLINE
  8
T15SSILL
 62
2
 66
     1
 70
     9
  0
VERTEX
  8
T15SSILL
 62
2
 10
945.373
 20
-2363.758
 30
3686.829
 70
    32
  0
VERTEX
  8
T15SSILL
 62
2
 10
969.630
 20
-2392.133
 30
3686.789
 70
    32
  0
VERTEX
  8
T15SSILL
 62
2
 10
972.304
 20
-2400.957
 30
3686.792
 70
    32
  0
VERTEX
  8
T15SSILL
 62
2
 10
966.653
 20
-2414.995
 30
3686.829
 70
    32
  0
VERTEX
  8
T15SSILL
 62
2
 10
978.553
 20
-2430.640
 30
3686.811
 70
    32
  0
VERTEX
  8
T15SSILL
 62
2
 10
983.915
 20
-2435.452
 30
3686.800
 70
    32
  0
VERTEX
  8
T15SSILL
 62
2
 10
990.391
 20
-2431.156
 30
3686.774
 70
    32
  0
VERTEX
  8
T15SSILL
 62
2
 10
992.936
 20
-2435.378
 30
3686.772
 70
    32
  0
VERTEX
  8
T15SSILL
 62
2
 10
1022.642
 20
-2412.257
 30
3686.648
 70
    32
  0
VERTEX
  8
T15SSILL
 62
2
 10
980.709
 20
-2325.080
 30
3686.667
 70
    32
  0
VERTEX
  8
T15SSILL
 62
2
 10
944.037
 20
-2351.998
 30
3686.818
 70
    32
  0
VERTEX
  8
T15SSILL
 62
2
 10
942.291
 20
-2356.264
 30
3686.829
 70
    32
  0
VERTEX
  8
T15SSILL
 62
2
 10
943.354
 20
-2360.286
 30
3686.831
 70
    32
  0
SEQEND
  8
T15SSILL
  0
POLYLINE
  8
T15SSILL
 62
2
 66
     1
 70
     9
  0
VERTEX
  8
T15SSILL
 62
2
 10
1038.143
 20
-2401.681
 30
3686.585
 70
    32
  0
VERTEX
  8
T15SSILL
 62
2
 10
1039.508
 20
-2396.193
 30
3686.573
 70
    32
  0
VERTEX
  8
T15SSILL
 62
2
 10
1009.445
 20
-2319.733
 30
3686.569
 70
    32
  0
VERTEX
  8
T15SSILL
 62
2
 10
1007.066
 20
-2315.918
 30
3686.572
 70
    32
  0
VERTEX
  8
T15SSILL
 62
2
 10
1002.776
 20
-2313.116
 30
3686.582
 70
    32
  0
VERTEX
  8
T15SSILL
 62
2
 10
998.370
 20
-2312.869
 30
3686.595
 70
    32
  0
VERTEX
  8
T15SSILL
 62
2
 10
987.298
 20
-2320.964
 30
3686.641
 70
    32
  0
VERTEX
  8
T15SSILL
 62
2
 10
1025.669
 20
-2402.593
 30
3686.625
 70
    32
  0
VERTEX
  8
T15SSILL
 62
2
 10
1032.612
 20
-2405.948
 30
3686.608
 70
    32
  0
SEQEND
  8
T15SSILL
  0
POLYLINE
  8
T15SSILL
 62
2
 66
     1
 70
     9
  0
VERTEX
  8
T15SSILL
 62
2
 10
1206.821
 20
-2419.673
 30
3686.074
 70
    32
  0
VERTEX
  8
T15SSILL
 62
2
 10
1190.014
 20
-2430.807
 30
3686.141
 70
    32
  0
VERTEX
  8
T15SSILL
 62
2
 10
1189.446
 20
-2432.845
 30
3686.146
 70
    32
  0
VERTEX
  8
T15SSILL
 62
2
 10
1191.770
 20
-2441.765
 30
3686.150
 70
    32
  0
VERTEX
  8
T15SSILL
 62
2
 10
1196.733
 20
-2450.623
 30
3686.146
 70
    32
  0
VERTEX
  8
T15SSILL
 62
2
 10
1198.973
 20
-2452.330
 30
3686.141
 70
    32
  0
VERTEX
  8
T15SSILL
 62
2
 10
1216.195
 20
-2440.129
 30
3686.070
 70
    32
  0
VERTEX
  8
T15SSILL
 62
2
 10
1214.800
 20
-2433.298
 30
3686.066
 70
    32
  0
VERTEX
  8
T15SSILL
 62
2
 10
1209.415
 20
-2421.459
 30
3686.068
 70
    32
  0
SEQEND
  8
T15SSILL
  0
POLYLINE
  8
T15SSILL
 62
2
 66
     1
 70
     9
  0
VERTEX
  8
T15SSILL
 62
2
 10
1239.828
 20
-2416.336
 30
3685.965
 70
    32
  0
VERTEX
  8
T15SSILL
 62
2
 10
1228.949
 20
-2402.867
 30
3685.982
 70
    32
  0
VERTEX
  8
T15SSILL
 62
2
 10
1215.708
 20
-2412.246
 30
3686.036
 70
    32
  0
VERTEX
  8
T15SSILL
 62
2
 10
1214.812
 20
-2415.259
 30
3686.043
 70
    32
  0
VERTEX
  8
T15SSILL
 62
2
 10
1224.770
 20
-2434.382
 30
3686.036
 70
    32
  0
VERTEX
  8
T15SSILL
 62
2
 10
1239.820
 20
-2423.376
 30
3685.974
 70
    32
  0
VERTEX
  8
T15SSILL
 62
2
 10
1240.557
 20
-2421.071
 30
3685.968
 70
    32
  0
SEQEND
  8
T15SSILL
  0
POLYLINE
  8
T15SSILL
 62
2
 66
     1
 70
     9
  0
VERTEX
  8
T15SSILL
 62
2
 10
1261.820
 20
-2397.510
 30
3685.870
 70
    32
  0
VERTEX
  8
T15SSILL
 62
2
 10
1256.266
 20
-2389.635
 30
3685.878
 70
    32
  0
VERTEX
  8
T15SSILL
 62
2
 10
1250.666
 20
-2387.304
 30
3685.893
 70
    32
  0
VERTEX
  8
T15SSILL
 62
2
 10
1236.841
 20
-2398.016
 30
3685.950
 70
    32
  0
VERTEX
  8
T15SSILL
 62
2
 10
1238.190
 20
-2402.912
 30
3685.952
 70
    32
  0
VERTEX
  8
T15SSILL
 62
2
 10
1247.938
 20
-2416.936
 30
3685.940
 70
    32
  0
VERTEX
  8
T15SSILL
 62
2
 10
1264.896
 20
-2404.741
 30
3685.870
 70
    32
  0
VERTEX
  8
T15SSILL
 62
2
 10
1265.202
 20
-2402.798
 30
3685.867
 70
    32
  0
SEQEND
  8
T15SSILL
  0
POLYLINE
  8
T15SSILL
 62
2
 66
     1
 70
     9
  0
VERTEX
  8
T15SSILL
 62
2
 10
1257.417
 20
-2515.883
 30
3686.038
 70
    32
  0
VERTEX
  8
T15SSILL
 62
2
 10
1262.886
 20
-2520.153
 30
3686.026
 70
    32
  0
VERTEX
  8
T15SSILL
 62
2
 10
1282.162
 20
-2505.528
 30
3685.946
 70
    32
  0
VERTEX
  8
T15SSILL
 62
2
 10
1279.298
 20
-2499.788
 30
3685.948
 70
    32
  0
VERTEX
  8
T15SSILL
 62
2
 10
1259.030
 20
-2472.638
 30
3685.977
 70
    32
  0
VERTEX
  8
T15SSILL
 62
2
 10
1240.526
 20
-2486.454
 30
3686.054
 70
    32
  0
VERTEX
  8
T15SSILL
 62
2
 10
1246.785
 20
-2498.008
 30
3686.049
 70
    32
  0
SEQEND
  8
T15SSILL
  0
POLYLINE
  8
T15SSILL
 62
2
 66
     1
 70
     9
  0
VERTEX
  8
T15SSILL
 62
2
 10
1213.676
 20
-2511.907
 30
3686.172
 70
    32
  0
VERTEX
  8
T15SSILL
 62
2
 10
1216.264
 20
-2517.125
 30
3686.170
 70
    32
  0
VERTEX
  8
T15SSILL
 62
2
 10
1232.104
 20
-2535.668
 30
3686.144
 70
    32
  0
VERTEX
  8
T15SSILL
 62
2
 10
1238.560
 20
-2537.011
 30
3686.125
 70
    32
  0
VERTEX
  8
T15SSILL
 62
2
 10
1252.672
 20
-2527.260
 30
3686.068
 70
    32
  0
VERTEX
  8
T15SSILL
 62
2
 10
1238.968
 20
-2498.634
 30
3686.074
 70
    32
  0
VERTEX
  8
T15SSILL
 62
2
 10
1233.892
 20
-2492.419
 30
3686.082
 70
    32
  0
VERTEX
  8
T15SSILL
 62
2
 10
1231.694
 20
-2492.471
 30
3686.089
 70
    32
  0
VERTEX
  8
T15SSILL
 62
2
 10
1213.877
 20
-2505.566
 30
3686.163
 70
    32
  0
SEQEND
  8
T15SSILL
  0
POLYLINE
  8
T15SSILL
 62
2
 66
     1
 70
     9
  0
VERTEX
  8
T15SSILL
 62
2
 10
1203.887
 20
-2510.995
 30
3686.202
 70
    32
  0
VERTEX
  8
T15SSILL
 62
2
 10
1202.859
 20
-2501.076
 30
3686.192
 70
    32
  0
VERTEX
  8
T15SSILL
 62
2
 10
1191.808
 20
-2473.003
 30
3686.190
 70
    32
  0
VERTEX
  8
T15SSILL
 62
2
 10
1192.246
 20
-2465.513
 30
3686.179
 70
    32
  0
VERTEX
  8
T15SSILL
 62
2
 10
1189.602
 20
-2457.920
 30
3686.178
 70
    32
  0
VERTEX
  8
T15SSILL
 62
2
 10
1181.972
 20
-2444.198
 30
3686.184
 70
    32
  0
VERTEX
  8
T15SSILL
 62
2
 10
1180.821
 20
-2440.178
 30
3686.183
 70
    32
  0
VERTEX
  8
T15SSILL
 62
2
 10
1178.501
 20
-2438.825
 30
3686.188
 70
    32
  0
VERTEX
  8
T15SSILL
 62
2
 10
1135.939
 20
-2469.667
 30
3686.363
 70
    32
  0
VERTEX
  8
T15SSILL
 62
2
 10
1122.981
 20
-2483.527
 30
3686.422
 70
    32
  0
VERTEX
  8
T15SSILL
 62
2
 10
1121.898
 20
-2486.104
 30
3686.429
 70
    32
  0
VERTEX
  8
T15SSILL
 62
2
 10
1126.283
 20
-2489.168
 30
3686.419
 70
    32
  0
VERTEX
  8
T15SSILL
 62
2
 10
1131.991
 20
-2484.984
 30
3686.396
 70
    32
  0
VERTEX
  8
T15SSILL
 62
2
 10
1134.095
 20
-2484.670
 30
3686.388
 70
    32
  0
VERTEX
  8
T15SSILL
 62
2
 10
1156.110
 20
-2514.946
 30
3686.358
 70
    32
  0
VERTEX
  8
T15SSILL
 62
2
 10
1172.705
 20
-2550.455
 30
3686.352
 70
    32
  0
VERTEX
  8
T15SSILL
 62
2
 10
1178.425
 20
-2568.974
 30
3686.358
 70
    32
  0
VERTEX
  8
T15SSILL
 62
2
 10
1183.360
 20
-2576.689
 30
3686.352
 70
    32
  0
VERTEX
  8
T15SSILL
 62
2
 10
1227.308
 20
-2544.934
 30
3686.171
 70
    32
  0
VERTEX
  8
T15SSILL
 62
2
 10
1224.513
 20
-2538.400
 30
3686.172
 70
    32
  0
VERTEX
  8
T15SSILL
 62
2
 10
1208.880
 20
-2521.172
 30
3686.199
 70
    32
  0
VERTEX
  8
T15SSILL
 62
2
 10
1204.322
 20
-2514.505
 30
3686.205
 70
    32
  0
SEQEND
  8
T15SSILL
  0
POLYLINE
  8
T15SSILL
 62
2
 66
     1
 70
     9
  0
VERTEX
  8
T15SSILL
 62
2
 10
1236.081
 20
-2562.325
 30
3686.166
 70
    32
  0
VERTEX
  8
T15SSILL
 62
2
 10
1242.672
 20
-2576.776
 30
3686.164
 70
    32
  0
VERTEX
  8
T15SSILL
 62
2
 10
1244.808
 20
-2585.173
 30
3686.168
 70
    32
  0
VERTEX
  8
T15SSILL
 62
2
 10
1245.888
 20
-2593.595
 30
3686.176
 70
    32
  0
VERTEX
  8
T15SSILL
 62
2
 10
1244.453
 20
-2596.181
 30
3686.184
 70
    32
  0
VERTEX
  8
T15SSILL
 62
2
 10
1197.061
 20
-2631.098
 30
3686.379
 70
    32
  0
VERTEX
  8
T15SSILL
 62
2
 10
1191.279
 20
-2628.507
 30
3686.394
 70
    32
  0
VERTEX
  8
T15SSILL
 62
2
 10
1188.671
 20
-2603.930
 30
3686.370
 70
    32
  0
VERTEX
  8
T15SSILL
 62
2
 10
1186.140
 20
-2601.086
 30
3686.375
 70
    32
  0
VERTEX
  8
T15SSILL
 62
2
 10
1183.680
 20
-2586.449
 30
3686.364
 70
    32
  0
VERTEX
  8
T15SSILL
 62
2
 10
1226.864
 20
-2555.856
 30
3686.187
 70
    32
  0
VERTEX
  8
T15SSILL
 62
2
 10
1229.557
 20
-2554.384
 30
3686.177
 70
    32
  0
VERTEX
  8
T15SSILL
 62
2
 10
1232.478
 20
-2555.107
 30
3686.168
 70
    32
  0
SEQEND
  8
T15SSILL
  0
POLYLINE
  8
T15SSILL
 62
2
 66
     1
 70
     9
  0
VERTEX
  8
T15SSILL
 62
2
 10
1177.506
 20
-2641.418
 30
3686.455
 70
    32
  0
VERTEX
  8
T15SSILL
 62
2
 10
1176.490
 20
-2647.411
 30
3686.466
 70
    32
  0
VERTEX
  8
T15SSILL
 62
2
 10
1152.505
 20
-2664.508
 30
3686.564
 70
    32
  0
VERTEX
  8
T15SSILL
 62
2
 10
1144.262
 20
-2642.208
 30
3686.561
 70
    32
  0
VERTEX
  8
T15SSILL
 62
2
 10
1142.280
 20
-2632.839
 30
3686.555
 70
    32
  0
VERTEX
  8
T15SSILL
 62
2
 10
1142.668
 20
-2615.847
 30
3686.532
 70
    32
  0
VERTEX
  8
T15SSILL
 62
2
 10
1160.937
 20
-2603.269
 30
3686.458
 70
    32
  0
VERTEX
  8
T15SSILL
 62
2
 10
1162.555
 20
-2604.726
 30
3686.454
 70
    32
  0
VERTEX
  8
T15SSILL
 62
2
 10
1177.262
 20
-2638.520
 30
3686.452
 70
    32
  0
SEQEND
  8
T15SSILL
  0
POLYLINE
  8
T15SSILL
 62
2
 66
     1
 70
     9
  0
VERTEX
  8
T15SSILL
 62
2
 10
1226.357
 20
-2832.882
 30
3686.549
 70
    32
  0
VERTEX
  8
T15SSILL
 62
2
 10
1237.015
 20
-2826.681
 30
3686.507
 70
    32
  0
VERTEX
  8
T15SSILL
 62
2
 10
1263.216
 20
-2803.661
 30
3686.394
 70
    32
  0
VERTEX
  8
T15SSILL
 62
2
 10
1255.213
 20
-2782.380
 30
3686.391
 70
    32
  0
VERTEX
  8
T15SSILL
 62
2
 10
1254.878
 20
-2769.362
 30
3686.376
 70
    32
  0
VERTEX
  8
T15SSILL
 62
2
 10
1252.445
 20
-2757.515
 30
3686.368
 70
    32
  0
VERTEX
  8
T15SSILL
 62
2
 10
1243.439
 20
-2754.897
 30
3686.393
 70
    32
  0
VERTEX
  8
T15SSILL
 62
2
 10
1235.437
 20
-2748.045
 30
3686.410
 70
    32
  0
VERTEX
  8
T15SSILL
 62
2
 10
1222.537
 20
-2729.198
 30
3686.426
 70
    32
  0
VERTEX
  8
T15SSILL
 62
2
 10
1206.340
 20
-2714.088
 30
3686.458
 70
    32
  0
VERTEX
  8
T15SSILL
 62
2
 10
1199.868
 20
-2695.691
 30
3686.454
 70
    32
  0
VERTEX
  8
T15SSILL
 62
2
 10
1202.332
 20
-2688.534
 30
3686.437
 70
    32
  0
VERTEX
  8
T15SSILL
 62
2
 10
1201.053
 20
-2684.678
 30
3686.436
 70
    32
  0
VERTEX
  8
T15SSILL
 62
2
 10
1197.589
 20
-2681.993
 30
3686.444
 70
    32
  0
VERTEX
  8
T15SSILL
 62
2
 10
1188.945
 20
-2665.822
 30
3686.450
 70
    32
  0
VERTEX
  8
T15SSILL
 62
2
 10
1183.496
 20
-2659.114
 30
3686.459
 70
    32
  0
VERTEX
  8
T15SSILL
 62
2
 10
1180.213
 20
-2656.867
 30
3686.466
 70
    32
  0
VERTEX
  8
T15SSILL
 62
2
 10
1175.390
 20
-2658.158
 30
3686.483
 70
    32
  0
VERTEX
  8
T15SSILL
 62
2
 10
1163.638
 20
-2668.419
 30
3686.534
 70
    32
  0
VERTEX
  8
T15SSILL
 62
2
 10
1154.468
 20
-2673.986
 30
3686.570
 70
    32
  0
VERTEX
  8
T15SSILL
 62
2
 10
1190.168
 20
-2765.843
 30
3686.576
 70
    32
  0
VERTEX
  8
T15SSILL
 62
2
 10
1202.581
 20
-2788.038
 30
3686.566
 70
    32
  0
VERTEX
  8
T15SSILL
 62
2
 10
1215.996
 20
-2820.251
 30
3686.565
 70
    32
  0
VERTEX
  8
T15SSILL
 62
2
 10
1222.397
 20
-2832.842
 30
3686.561
 70
    32
  0
SEQEND
  8
T15SSILL
  0
POLYLINE
  8
T15SSILL
 62
2
 66
     1
 70
     9
  0
VERTEX
  8
T15SSILL
 62
2
 10
1419.023
 20
-2510.284
 30
3685.519
 70
    32
  0
VERTEX
  8
T15SSILL
 62
2
 10
1424.826
 20
-2506.362
 30
3685.495
 70
    32
  0
VERTEX
  8
T15SSILL
 62
2
 10
1430.670
 20
-2504.199
 30
3685.474
 70
    32
  0
VERTEX
  8
T15SSILL
 62
2
 10
1431.757
 20
-2501.797
 30
3685.467
 70
    32
  0
VERTEX
  8
T15SSILL
 62
2
 10
1431.809
 20
-2497.593
 30
3685.462
 70
    32
  0
VERTEX
  8
T15SSILL
 62
2
 10
1428.105
 20
-2492.556
 30
3685.467
 70
    32
  0
VERTEX
  8
T15SSILL
 62
2
 10
1432.617
 20
-2489.167
 30
3685.448
 70
    32
  0
VERTEX
  8
T15SSILL
 62
2
 10
1428.962
 20
-2484.176
 30
3685.453
 70
    32
  0
VERTEX
  8
T15SSILL
 62
2
 10
1433.102
 20
-2481.091
 30
3685.436
 70
    32
  0
VERTEX
  8
T15SSILL
 62
2
 10
1433.703
 20
-2476.320
 30
3685.428
 70
    32
  0
VERTEX
  8
T15SSILL
 62
2
 10
1430.963
 20
-2472.073
 30
3685.431
 70
    32
  0
VERTEX
  8
T15SSILL
 62
2
 10
1401.541
 20
-2493.012
 30
3685.552
 70
    32
  0
VERTEX
  8
T15SSILL
 62
2
 10
1401.152
 20
-2495.133
 30
3685.556
 70
    32
  0
VERTEX
  8
T15SSILL
 62
2
 10
1402.699
 20
-2497.296
 30
3685.554
 70
    32
  0
VERTEX
  8
T15SSILL
 62
2
 10
1413.999
 20
-2509.963
 30
3685.534
 70
    32
  0
VERTEX
  8
T15SSILL
 62
2
 10
1417.002
 20
-2510.420
 30
3685.525
 70
    32
  0
SEQEND
  8
T15SSILL
  0
POLYLINE
  8
T15SSILL
 62
2
 66
     1
 70
     9
  0
VERTEX
  8
T15SSILL
 62
2
 10
1408.544
 20
-2432.215
 30
3685.451
 70
    32
  0
VERTEX
  8
T15SSILL
 62
2
 10
1429.400
 20
-2447.031
 30
3685.404
 70
    32
  0
VERTEX
  8
T15SSILL
 62
2
 10
1435.939
 20
-2455.588
 30
3685.394
 70
    32
  0
VERTEX
  8
T15SSILL
 62
2
 10
1445.568
 20
-2471.990
 30
3685.385
 70
    32
  0
VERTEX
  8
T15SSILL
 62
2
 10
1449.000
 20
-2475.693
 30
3685.379
 70
    32
  0
VERTEX
  8
T15SSILL
 62
2
 10
1453.175
 20
-2477.353
 30
3685.368
 70
    32
  0
VERTEX
  8
T15SSILL
 62
2
 10
1457.577
 20
-2477.425
 30
3685.354
 70
    32
  0
VERTEX
  8
T15SSILL
 62
2
 10
1501.443
 20
-2445.935
 30
3685.174
 70
    32
  0
VERTEX
  8
T15SSILL
 62
2
 10
1502.017
 20
-2440.466
 30
3685.165
 70
    32
  0
VERTEX
  8
T15SSILL
 62
2
 10
1500.144
 20
-2435.671
 30
3685.165
 70
    32
  0
VERTEX
  8
T15SSILL
 62
2
 10
1455.974
 20
-2365.530
 30
3685.214
 70
    32
  0
VERTEX
  8
T15SSILL
 62
2
 10
1450.771
 20
-2365.038
 30
3685.230
 70
    32
  0
VERTEX
  8
T15SSILL
 62
2
 10
1392.598
 20
-2406.763
 30
3685.468
 70
    32
  0
VERTEX
  8
T15SSILL
 62
2
 10
1390.522
 20
-2411.315
 30
3685.481
 70
    32
  0
VERTEX
  8
T15SSILL
 62
2
 10
1391.504
 20
-2415.021
 30
3685.482
 70
    32
  0
SEQEND
  8
T15SSILL
  0
POLYLINE
  8
T15SSILL
 62
2
 66
     1
 70
     9
  0
VERTEX
  8
T15SSILL
 62
2
 10
1407.201
 20
-2286.788
 30
3685.266
 70
    32
  0
VERTEX
  8
T15SSILL
 62
2
 10
1402.624
 20
-2286.720
 30
3685.280
 70
    32
  0
VERTEX
  8
T15SSILL
 62
2
 10
1377.432
 20
-2300.519
 30
3685.378
 70
    32
  0
VERTEX
  8
T15SSILL
 62
2
 10
1375.526
 20
-2309.188
 30
3685.395
 70
    32
  0
VERTEX
  8
T15SSILL
 62
2
 10
1379.676
 20
-2320.881
 30
3685.397
 70
    32
  0
VERTEX
  8
T15SSILL
 62
2
 10
1382.751
 20
-2339.199
 30
3685.412
 70
    32
  0
VERTEX
  8
T15SSILL
 62
2
 10
1384.034
 20
-2359.848
 30
3685.434
 70
    32
  0
VERTEX
  8
T15SSILL
 62
2
 10
1381.510
 20
-2364.748
 30
3685.449
 70
    32
  0
VERTEX
  8
T15SSILL
 62
2
 10
1385.002
 20
-2382.088
 30
3685.460
 70
    32
  0
VERTEX
  8
T15SSILL
 62
2
 10
1372.643
 20
-2391.533
 30
3685.512
 70
    32
  0
VERTEX
  8
T15SSILL
 62
2
 10
1373.246
 20
-2394.687
 30
3685.514
 70
    32
  0
VERTEX
  8
T15SSILL
 62
2
 10
1379.701
 20
-2403.421
 30
3685.505
 70
    32
  0
VERTEX
  8
T15SSILL
 62
2
 10
1383.424
 20
-2404.565
 30
3685.494
 70
    32
  0
VERTEX
  8
T15SSILL
 62
2
 10
1449.408
 20
-2355.831
 30
3685.222
 70
    32
  0
VERTEX
  8
T15SSILL
 62
2
 10
1447.714
 20
-2351.207
 30
3685.221
 70
    32
  0
VERTEX
  8
T15SSILL
 62
2
 10
1409.490
 20
-2290.517
 30
3685.264
 70
    32
  0
SEQEND
  8
T15SSILL
  0
POLYLINE
  8
T15SSILL
 62
2
 66
     1
 70
     9
  0
VERTEX
  8
T15SSILL
 62
2
 10
1357.622
 20
-2274.150
 30
3685.407
 70
    32
  0
VERTEX
  8
T15SSILL
 62
2
 10
1355.717
 20
-2279.123
 30
3685.419
 70
    32
  0
VERTEX
  8
T15SSILL
 62
2
 10
1355.970
 20
-2286.069
 30
3685.427
 70
    32
  0
VERTEX
  8
T15SSILL
 62
2
 10
1362.576
 20
-2297.440
 30
3685.421
 70
    32
  0
VERTEX
  8
T15SSILL
 62
2
 10
1379.816
 20
-2286.030
 30
3685.352
 70
    32
  0
VERTEX
  8
T15SSILL
 62
2
 10
1380.790
 20
-2282.575
 30
3685.344
 70
    32
  0
VERTEX
  8
T15SSILL
 62
2
 10
1385.939
 20
-2277.085
 30
3685.321
 70
    32
  0
VERTEX
  8
T15SSILL
 62
2
 10
1425.563
 20
-2248.513
 30
3685.127
 70
    32
  0
VERTEX
  8
T15SSILL
 62
2
 10
1431.106
 20
-2241.077
 30
3685.091
 70
    32
  0
VERTEX
  8
T15SSILL
 62
2
 10
1434.629
 20
-2233.778
 30
3685.062
 70
    32
  0
VERTEX
  8
T15SSILL
 62
2
 10
1434.445
 20
-2229.734
 30
3685.054
 70
    32
  0
VERTEX
  8
T15SSILL
 62
2
 10
1427.825
 20
-2206.660
 30
3685.032
 70
    32
  0
VERTEX
  8
T15SSILL
 62
2
 10
1427.737
 20
-2199.271
 30
3685.017
 70
    32
  0
VERTEX
  8
T15SSILL
 62
2
 10
1431.733
 20
-2193.368
 30
3684.989
 70
    32
  0
VERTEX
  8
T15SSILL
 62
2
 10
1431.584
 20
-2187.095
 30
3684.977
 70
    32
  0
VERTEX
  8
T15SSILL
 62
2
 10
1425.014
 20
-2177.727
 30
3684.983
 70
    32
  0
VERTEX
  8
T15SSILL
 62
2
 10
1426.974
 20
-2176.443
 30
3684.972
 70
    32
  0
VERTEX
  8
T15SSILL
 62
2
 10
1424.373
 20
-2172.511
 30
3684.974
 70
    32
  0
VERTEX
  8
T15SSILL
 62
2
 10
1418.642
 20
-2168.336
 30
3684.987
 70
    32
  0
VERTEX
  8
T15SSILL
 62
2
 10
1407.601
 20
-2166.574
 30
3685.026
 70
    32
  0
VERTEX
  8
T15SSILL
 62
2
 10
1389.147
 20
-2160.237
 30
3685.083
 70
    32
  0
VERTEX
  8
T15SSILL
 62
2
 10
1384.498
 20
-2160.875
 30
3685.102
 70
    32
  0
VERTEX
  8
T15SSILL
 62
2
 10
1321.245
 20
-2206.025
 30
3685.433
 70
    32
  0
VERTEX
  8
T15SSILL
 62
2
 10
1320.658
 20
-2214.662
 30
3685.446
 70
    32
  0
VERTEX
  8
T15SSILL
 62
2
 10
1323.805
 20
-2228.579
 30
3685.455
 70
    32
  0
VERTEX
  8
T15SSILL
 62
2
 10
1342.863
 20
-2256.637
 30
3685.431
 70
    32
  0
VERTEX
  8
T15SSILL
 62
2
 10
1353.967
 20
-2268.429
 30
3685.411
 70
    32
  0
SEQEND
  8
T15SSILL
  0
POLYLINE
  8
T15SSILL
 62
2
 66
     1
 70
     9
  0
VERTEX
  8
T15SSILL
 62
2
 10
1291.875
 20
-2326.817
 30
3685.683
 70
    32
  0
VERTEX
  8
T15SSILL
 62
2
 10
1294.651
 20
-2331.218
 30
3685.680
 70
    32
  0
VERTEX
  8
T15SSILL
 62
2
 10
1296.758
 20
-2329.744
 30
3685.672
 70
    32
  0
VERTEX
  8
T15SSILL
 62
2
 10
1292.589
 20
-2325.854
 30
3685.680
 70
    32
  0
VERTEX
  8
T15SSILL
 62
2
 10
1289.668
 20
-2325.131
 30
3685.688
 70
    32
  0
VERTEX
  8
T15SSILL
 62
2
 10
1251.707
 20
-2353.312
 30
3685.845
 70
    32
  0
VERTEX
  8
T15SSILL
 62
2
 10
1246.269
 20
-2354.057
 30
3685.863
 70
    32
  0
VERTEX
  8
T15SSILL
 62
2
 10
1236.530
 20
-2340.473
 30
3685.877
 70
    32
  0
VERTEX
  8
T15SSILL
 62
2
 10
1228.140
 20
-2320.697
 30
3685.877
 70
    32
  0
VERTEX
  8
T15SSILL
 62
2
 10
1230.868
 20
-2302.153
 30
3685.845
 70
    32
  0
VERTEX
  8
T15SSILL
 62
2
 10
1225.466
 20
-2285.914
 30
3685.841
 70
    32
  0
VERTEX
  8
T15SSILL
 62
2
 10
1219.917
 20
-2278.302
 30
3685.848
 70
    32
  0
VERTEX
  8
T15SSILL
 62
2
 10
1204.067
 20
-2288.974
 30
3685.912
 70
    32
  0
VERTEX
  8
T15SSILL
 62
2
 10
1185.904
 20
-2302.253
 30
3685.987
 70
    32
  0
VERTEX
  8
T15SSILL
 62
2
 10
1185.728
 20
-2305.953
 30
3685.993
 70
    32
  0
VERTEX
  8
T15SSILL
 62
2
 10
1223.088
 20
-2396.935
 30
3685.992
 70
    32
  0
VERTEX
  8
T15SSILL
 62
2
 10
1277.529
 20
-2358.652
 30
3685.770
 70
    32
  0
VERTEX
  8
T15SSILL
 62
2
 10
1270.582
 20
-2349.380
 30
3685.780
 70
    32
  0
VERTEX
  8
T15SSILL
 62
2
 10
1274.953
 20
-2345.638
 30
3685.761
 70
    32
  0
VERTEX
  8
T15SSILL
 62
2
 10
1271.370
 20
-2340.735
 30
3685.766
 70
    32
  0
SEQEND
  8
T15SSILL
  0
POLYLINE
  8
T15SSILL
 62
2
 66
     1
 70
     9
  0
VERTEX
  8
T15SSILL
 62
2
 10
1194.612
 20
-2228.041
 30
3685.863
 70
    32
  0
VERTEX
  8
T15SSILL
 62
2
 10
1186.804
 20
-2214.235
 30
3685.870
 70
    32
  0
VERTEX
  8
T15SSILL
 62
2
 10
1184.141
 20
-2205.850
 30
3685.868
 70
    32
  0
VERTEX
  8
T15SSILL
 62
2
 10
1184.261
 20
-2192.384
 30
3685.850
 70
    32
  0
VERTEX
  8
T15SSILL
 62
2
 10
1179.450
 20
-2182.466
 30
3685.852
 70
    32
  0
VERTEX
  8
T15SSILL
 62
2
 10
1148.062
 20
-2205.827
 30
3685.982
 70
    32
  0
VERTEX
  8
T15SSILL
 62
2
 10
1147.417
 20
-2208.307
 30
3685.987
 70
    32
  0
VERTEX
  8
T15SSILL
 62
2
 10
1182.510
 20
-2296.438
 30
3685.991
 70
    32
  0
VERTEX
  8
T15SSILL
 62
2
 10
1216.272
 20
-2273.021
 30
3685.853
 70
    32
  0
VERTEX
  8
T15SSILL
 62
2
 10
1215.353
 20
-2267.675
 30
3685.849
 70
    32
  0
VERTEX
  8
T15SSILL
 62
2
 10
1210.935
 20
-2259.508
 30
3685.852
 70
    32
  0
SEQEND
  8
T15SSILL
  0
POLYLINE
  8
T15SSILL
 62
2
 66
     1
 70
     9
  0
VERTEX
  8
T15SSILL
 62
2
 10
1550.877
 20
-2223.507
 30
3684.599
 70
    32
  0
VERTEX
  8
T15SSILL
 62
2
 10
1520.055
 20
-2236.676
 30
3684.743
 70
    32
  0
VERTEX
  8
T15SSILL
 62
2
 10
1516.711
 20
-2229.276
 30
3684.741
 70
    32
  0
VERTEX
  8
T15SSILL
 62
2
 10
1550.364
 20
-2216.068
 30
3684.585
 70
    32
  0
VERTEX
  8
T15SSILL
 62
2
 10
1549.239
 20
-2198.320
 30
3684.553
 70
    32
  0
VERTEX
  8
T15SSILL
 62
2
 10
1545.415
 20
-2192.955
 30
3684.556
 70
    32
  0
VERTEX
  8
T15SSILL
 62
2
 10
1543.372
 20
-2184.732
 30
3684.547
 70
    32
  0
VERTEX
  8
T15SSILL
 62
2
 10
1540.664
 20
-2181.892
 30
3684.551
 70
    32
  0
VERTEX
  8
T15SSILL
 62
2
 10
1537.480
 20
-2181.176
 30
3684.562
 70
    32
  0
VERTEX
  8
T15SSILL
 62
2
 10
1478.031
 20
-2223.507
 30
3684.876
 70
    32
  0
VERTEX
  8
T15SSILL
 62
2
 10
1470.672
 20
-2236.001
 30
3684.930
 70
    32
  0
VERTEX
  8
T15SSILL
 62
2
 10
1469.152
 20
-2240.700
 30
3684.945
 70
    32
  0
VERTEX
  8
T15SSILL
 62
2
 10
1478.262
 20
-2252.520
 30
3684.935
 70
    32
  0
VERTEX
  8
T15SSILL
 62
2
 10
1472.852
 20
-2256.195
 30
3684.963
 70
    32
  0
VERTEX
  8
T15SSILL
 62
2
 10
1475.675
 20
-2265.097
 30
3684.971
 70
    32
  0
VERTEX
  8
T15SSILL
 62
2
 10
1482.183
 20
-2276.030
 30
3684.969
 70
    32
  0
VERTEX
  8
T15SSILL
 62
2
 10
1478.384
 20
-2290.200
 30
3685.013
 70
    32
  0
VERTEX
  8
T15SSILL
 62
2
 10
1478.099
 20
-2300.415
 30
3685.035
 70
    32
  0
VERTEX
  8
T15SSILL
 62
2
 10
1513.723
 20
-2318.312
 30
3684.936
 70
    32
  0
VERTEX
  8
T15SSILL
 62
2
 10
1558.803
 20
-2293.481
 30
3684.713
 70
    32
  0
VERTEX
  8
T15SSILL
 62
2
 10
1552.448
 20
-2234.547
 30
3684.616
 70
    32
  0
SEQEND
  8
T15SSILL
  0
POLYLINE
  8
T15SSILL
 62
2
 66
     1
 70
     9
  0
VERTEX
  8
T15SSILL
 62
2
 10
1742.250
 20
-2700.847
 30
3684.742
 70
    32
  0
VERTEX
  8
T15SSILL
 62
2
 10
1737.906
 20
-2690.958
 30
3684.743
 70
    32
  0
VERTEX
  8
T15SSILL
 62
2
 10
1736.204
 20
-2674.087
 30
3684.727
 70
    32
  0
VERTEX
  8
T15SSILL
 62
2
 10
1733.213
 20
-2666.909
 30
3684.727
 70
    32
  0
VERTEX
  8
T15SSILL
 62
2
 10
1731.531
 20
-2666.049
 30
3684.731
 70
    32
  0
VERTEX
  8
T15SSILL
 62
2
 10
1699.799
 20
-2690.017
 30
3684.863
 70
    32
  0
VERTEX
  8
T15SSILL
 62
2
 10
1729.361
 20
-2790.746
 30
3684.900
 70
    32
  0
VERTEX
  8
T15SSILL
 62
2
 10
1730.729
 20
-2794.688
 30
3684.901
 70
    32
  0
VERTEX
  8
T15SSILL
 62
2
 10
1734.890
 20
-2796.837
 30
3684.890
 70
    32
  0
VERTEX
  8
T15SSILL
 62
2
 10
1874.803
 20
-2690.692
 30
3684.309
 70
    32
  0
VERTEX
  8
T15SSILL
 62
2
 10
1938.055
 20
-2639.769
 30
3684.227
 70
    32
  0
VERTEX
  8
T15SSILL
 62
2
 10
1967.397
 20
-2612.756
 30
3684.254
 70
    32
  0
VERTEX
  8
T15SSILL
 62
2
 10
1983.630
 20
-2599.914
 30
3684.269
 70
    32
  0
VERTEX
  8
T15SSILL
 62
2
 10
1988.587
 20
-2593.724
 30
3684.273
 70
    32
  0
VERTEX
  8
T15SSILL
 62
2
 10
1986.644
 20
-2586.027
 30
3684.271
 70
    32
  0
VERTEX
  8
T15SSILL
 62
2
 10
1983.095
 20
-2581.095
 30
3684.266
 70
    32
  0
VERTEX
  8
T15SSILL
 62
2
 10
1978.635
 20
-2578.561
 30
3684.262
 70
    32
  0
VERTEX
  8
T15SSILL
 62
2
 10
1973.459
 20
-2571.820
 30
3684.256
 70
    32
  0
VERTEX
  8
T15SSILL
 62
2
 10
1893.372
 20
-2426.944
 30
3684.266
 70
    32
  0
VERTEX
  8
T15SSILL
 62
2
 10
1885.494
 20
-2428.715
 30
3684.262
 70
    32
  0
VERTEX
  8
T15SSILL
 62
2
 10
1756.131
 20
-2521.018
 30
3684.434
 70
    32
  0
VERTEX
  8
T15SSILL
 62
2
 10
1761.602
 20
-2529.071
 30
3684.430
 70
    32
  0
VERTEX
  8
T15SSILL
 62
2
 10
1755.632
 20
-2540.741
 30
3684.477
 70
    32
  0
VERTEX
  8
T15SSILL
 62
2
 10
1753.187
 20
-2567.462
 30
3684.534
 70
    32
  0
VERTEX
  8
T15SSILL
 62
2
 10
1750.110
 20
-2578.711
 30
3684.559
 70
    32
  0
VERTEX
  8
T15SSILL
 62
2
 10
1746.175
 20
-2587.164
 30
3684.582
 70
    32
  0
VERTEX
  8
T15SSILL
 62
2
 10
1737.788
 20
-2593.435
 30
3684.617
 70
    32
  0
VERTEX
  8
T15SSILL
 62
2
 10
1735.654
 20
-2596.214
 30
3684.627
 70
    32
  0
VERTEX
  8
T15SSILL
 62
2
 10
1735.145
 20
-2600.714
 30
3684.635
 70
    32
  0
VERTEX
  8
T15SSILL
 62
2
 10
1744.306
 20
-2619.591
 30
3684.630
 70
    32
  0
VERTEX
  8
T15SSILL
 62
2
 10
1744.950
 20
-2624.504
 30
3684.634
 70
    32
  0
VERTEX
  8
T15SSILL
 62
2
 10
1750.898
 20
-2630.972
 30
3684.624
 70
    32
  0
VERTEX
  8
T15SSILL
 62
2
 10
1759.924
 20
-2636.718
 30
3684.603
 70
    32
  0
VERTEX
  8
T15SSILL
 62
2
 10
1806.737
 20
-2602.797
 30
3684.410
 70
    32
  0
VERTEX
  8
T15SSILL
 62
2
 10
1812.038
 20
-2607.423
 30
3684.400
 70
    32
  0
VERTEX
  8
T15SSILL
 62
2
 10
1762.989
 20
-2642.995
 30
3684.601
 70
    32
  0
VERTEX
  8
T15SSILL
 62
2
 10
1781.377
 20
-2648.459
 30
3684.550
 70
    32
  0
VERTEX
  8
T15SSILL
 62
2
 10
1798.906
 20
-2664.522
 30
3684.515
 70
    32
  0
VERTEX
  8
T15SSILL
 62
2
 10
1805.704
 20
-2673.589
 30
3684.506
 70
    32
  0
VERTEX
  8
T15SSILL
 62
2
 10
1808.153
 20
-2679.629
 30
3684.506
 70
    32
  0
VERTEX
  8
T15SSILL
 62
2
 10
1807.757
 20
-2683.241
 30
3684.512
 70
    32
  0
VERTEX
  8
T15SSILL
 62
2
 10
1780.259
 20
-2729.680
 30
3684.659
 70
    32
  0
VERTEX
  8
T15SSILL
 62
2
 10
1771.404
 20
-2739.378
 30
3684.700
 70
    32
  0
VERTEX
  8
T15SSILL
 62
2
 10
1766.361
 20
-2737.153
 30
3684.713
 70
    32
  0
VERTEX
  8
T15SSILL
 62
2
 10
1746.927
 20
-2709.148
 30
3684.738
 70
    32
  0
SEQEND
  8
T15SSILL
  0
POLYLINE
  8
T15SSILL
 62
2
 66
     1
 70
     9
  0
VERTEX
  8
T15SSILL
 62
2
 10
1673.161
 20
-2579.948
 30
3684.804
 70
    32
  0
VERTEX
  8
T15SSILL
 62
2
 10
1670.647
 20
-2582.359
 30
3684.815
 70
    32
  0
VERTEX
  8
T15SSILL
 62
2
 10
1669.634
 20
-2587.839
 30
3684.825
 70
    32
  0
VERTEX
  8
T15SSILL
 62
2
 10
1673.557
 20
-2597.425
 30
3684.825
 70
    32
  0
VERTEX
  8
T15SSILL
 62
2
 10
1673.827
 20
-2601.379
 30
3684.830
 70
    32
  0
VERTEX
  8
T15SSILL
 62
2
 10
1697.769
 20
-2682.299
 30
3684.859
 70
    32
  0
VERTEX
  8
T15SSILL
 62
2
 10
1729.172
 20
-2660.183
 30
3684.731
 70
    32
  0
VERTEX
  8
T15SSILL
 62
2
 10
1729.921
 20
-2656.743
 30
3684.724
 70
    32
  0
VERTEX
  8
T15SSILL
 62
2
 10
1728.940
 20
-2648.397
 30
3684.716
 70
    32
  0
VERTEX
  8
T15SSILL
 62
2
 10
1724.797
 20
-2635.542
 30
3684.713
 70
    32
  0
VERTEX
  8
T15SSILL
 62
2
 10
1719.134
 20
-2623.093
 30
3684.714
 70
    32
  0
VERTEX
  8
T15SSILL
 62
2
 10
1713.769
 20
-2615.829
 30
3684.722
 70
    32
  0
VERTEX
  8
T15SSILL
 62
2
 10
1714.040
 20
-2608.695
 30
3684.712
 70
    32
  0
VERTEX
  8
T15SSILL
 62
2
 10
1706.295
 20
-2593.831
 30
3684.717
 70
    32
  0
VERTEX
  8
T15SSILL
 62
2
 10
1689.466
 20
-2589.215
 30
3684.764
 70
    32
  0
VERTEX
  8
T15SSILL
 62
2
 10
1685.748
 20
-2585.426
 30
3684.771
 70
    32
  0
VERTEX
  8
T15SSILL
 62
2
 10
1679.840
 20
-2589.619
 30
3684.795
 70
    32
  0
SEQEND
  8
T15SSILL
  0
POLYLINE
  8
T15SSILL
 62
2
 66
     1
 70
     9
  0
VERTEX
  8
T15SSILL
 62
2
 10
1679.441
 20
-2511.752
 30
3684.696
 70
    32
  0
VERTEX
  8
T15SSILL
 62
2
 10
1644.487
 20
-2536.870
 30
3684.839
 70
    32
  0
VERTEX
  8
T15SSILL
 62
2
 10
1641.239
 20
-2540.907
 30
3684.854
 70
    32
  0
VERTEX
  8
T15SSILL
 62
2
 10
1641.070
 20
-2544.871
 30
3684.860
 70
    32
  0
VERTEX
  8
T15SSILL
 62
2
 10
1645.041
 20
-2556.480
 30
3684.863
 70
    32
  0
VERTEX
  8
T15SSILL
 62
2
 10
1658.580
 20
-2570.766
 30
3684.838
 70
    32
  0
VERTEX
  8
T15SSILL
 62
2
 10
1663.137
 20
-2573.650
 30
3684.828
 70
    32
  0
VERTEX
  8
T15SSILL
 62
2
 10
1666.761
 20
-2574.355
 30
3684.817
 70
    32
  0
VERTEX
  8
T15SSILL
 62
2
 10
1670.355
 20
-2573.742
 30
3684.805
 70
    32
  0
VERTEX
  8
T15SSILL
 62
2
 10
1673.634
 20
-2571.405
 30
3684.791
 70
    32
  0
VERTEX
  8
T15SSILL
 62
2
 10
1656.808
 20
-2547.695
 30
3684.814
 70
    32
  0
VERTEX
  8
T15SSILL
 62
2
 10
1682.515
 20
-2526.287
 30
3684.705
 70
    32
  0
VERTEX
  8
T15SSILL
 62
2
 10
1684.050
 20
-2520.530
 30
3684.692
 70
    32
  0
VERTEX
  8
T15SSILL
 62
2
 10
1682.090
 20
-2512.129
 30
3684.688
 70
    32
  0
SEQEND
  8
T15SSILL
  0
POLYLINE
  8
T15SSILL
 62
2
 66
     1
 70
     9
  0
VERTEX
  8
T15SSILL
 62
2
 10
1671.489
 20
-2470.147
 30
3684.651
 70
    32
  0
VERTEX
  8
T15SSILL
 62
2
 10
1665.052
 20
-2461.110
 30
3684.657
 70
    32
  0
VERTEX
  8
T15SSILL
 62
2
 10
1660.572
 20
-2464.152
 30
3684.680
 70
    32
  0
VERTEX
  8
T15SSILL
 62
2
 10
1664.261
 20
-2469.667
 30
3684.677
 70
    32
  0
VERTEX
  8
T15SSILL
 62
2
 10
1659.018
 20
-2473.612
 30
3684.705
 70
    32
  0
VERTEX
  8
T15SSILL
 62
2
 10
1654.442
 20
-2468.243
 30
3684.712
 70
    32
  0
VERTEX
  8
T15SSILL
 62
2
 10
1646.426
 20
-2473.211
 30
3684.750
 70
    32
  0
VERTEX
  8
T15SSILL
 62
2
 10
1633.696
 20
-2476.860
 30
3684.795
 70
    32
  0
VERTEX
  8
T15SSILL
 62
2
 10
1629.283
 20
-2476.380
 30
3684.809
 70
    32
  0
VERTEX
  8
T15SSILL
 62
2
 10
1624.927
 20
-2477.747
 30
3684.824
 70
    32
  0
VERTEX
  8
T15SSILL
 62
2
 10
1623.877
 20
-2480.770
 30
3684.831
 70
    32
  0
VERTEX
  8
T15SSILL
 62
2
 10
1636.391
 20
-2529.820
 30
3684.855
 70
    32
  0
VERTEX
  8
T15SSILL
 62
2
 10
1637.519
 20
-2532.160
 30
3684.855
 70
    32
  0
VERTEX
  8
T15SSILL
 62
2
 10
1640.255
 20
-2532.427
 30
3684.847
 70
    32
  0
VERTEX
  8
T15SSILL
 62
2
 10
1642.155
 20
-2531.313
 30
3684.839
 70
    32
  0
VERTEX
  8
T15SSILL
 62
2
 10
1680.062
 20
-2502.693
 30
3684.682
 70
    32
  0
VERTEX
  8
T15SSILL
 62
2
 10
1679.564
 20
-2497.959
 30
3684.677
 70
    32
  0
VERTEX
  8
T15SSILL
 62
2
 10
1671.480
 20
-2484.046
 30
3684.680
 70
    32
  0
VERTEX
  8
T15SSILL
 62
2
 10
1670.734
 20
-2479.847
 30
3684.674
 70
    32
  0
VERTEX
  8
T15SSILL
 62
2
 10
1673.226
 20
-2475.108
 30
3684.655
 70
    32
  0
VERTEX
  8
T15SSILL
 62
2
 10
1674.793
 20
-2467.881
 30
3684.634
 70
    32
  0
SEQEND
  8
T15SSILL
  0
POLYLINE
  8
T15SSILL
 62
2
 66
     1
 70
     9
  0
VERTEX
  8
T15SSILL
 62
2
 10
1664.862
 20
-2452.144
 30
3684.639
 70
    32
  0
VERTEX
  8
T15SSILL
 62
2
 10
1664.897
 20
-2447.568
 30
3684.629
 70
    32
  0
VERTEX
  8
T15SSILL
 62
2
 10
1660.933
 20
-2441.709
 30
3684.632
 70
    32
  0
VERTEX
  8
T15SSILL
 62
2
 10
1655.998
 20
-2438.607
 30
3684.644
 70
    32
  0
VERTEX
  8
T15SSILL
 62
2
 10
1648.682
 20
-2440.945
 30
3684.677
 70
    32
  0
VERTEX
  8
T15SSILL
 62
2
 10
1639.803
 20
-2429.784
 30
3684.688
 70
    32
  0
VERTEX
  8
T15SSILL
 62
2
 10
1618.098
 20
-2444.707
 30
3684.801
 70
    32
  0
VERTEX
  8
T15SSILL
 62
2
 10
1617.025
 20
-2449.842
 30
3684.813
 70
    32
  0
VERTEX
  8
T15SSILL
 62
2
 10
1618.475
 20
-2459.738
 30
3684.821
 70
    32
  0
VERTEX
  8
T15SSILL
 62
2
 10
1623.605
 20
-2469.167
 30
3684.817
 70
    32
  0
VERTEX
  8
T15SSILL
 62
2
 10
1627.444
 20
-2470.983
 30
3684.807
 70
    32
  0
VERTEX
  8
T15SSILL
 62
2
 10
1633.148
 20
-2470.543
 30
3684.789
 70
    32
  0
VERTEX
  8
T15SSILL
 62
2
 10
1653.169
 20
-2460.862
 30
3684.701
 70
    32
  0
SEQEND
  8
T15SSILL
  0
POLYLINE
  8
T15SSILL
 62
2
 66
     1
 70
     9
  0
VERTEX
  8
T15SSILL
 62
2
 10
1638.487
 20
-2421.380
 30
3684.675
 70
    32
  0
VERTEX
  8
T15SSILL
 62
2
 10
1638.345
 20
-2416.655
 30
3684.666
 70
    32
  0
VERTEX
  8
T15SSILL
 62
2
 10
1634.473
 20
-2411.037
 30
3684.669
 70
    32
  0
VERTEX
  8
T15SSILL
 62
2
 10
1642.713
 20
-2404.448
 30
3684.624
 70
    32
  0
VERTEX
  8
T15SSILL
 62
2
 10
1643.732
 20
-2405.794
 30
3684.623
 70
    32
  0
VERTEX
  8
T15SSILL
 62
2
 10
1648.970
 20
-2401.967
 30
3684.595
 70
    32
  0
VERTEX
  8
T15SSILL
 62
2
 10
1651.691
 20
-2405.632
 30
3684.593
 70
    32
  0
VERTEX
  8
T15SSILL
 62
2
 10
1658.445
 20
-2401.146
 30
3684.558
 70
    32
  0
VERTEX
  8
T15SSILL
 62
2
 10
1658.970
 20
-2398.227
 30
3684.550
 70
    32
  0
VERTEX
  8
T15SSILL
 62
2
 10
1642.055
 20
-2371.833
 30
3684.559
 70
    32
  0
VERTEX
  8
T15SSILL
 62
2
 10
1631.935
 20
-2366.481
 30
3684.587
 70
    32
  0
VERTEX
  8
T15SSILL
 62
2
 10
1629.363
 20
-2368.179
 30
3684.600
 70
    32
  0
VERTEX
  8
T15SSILL
 62
2
 10
1625.867
 20
-2363.272
 30
3684.603
 70
    32
  0
VERTEX
  8
T15SSILL
 62
2
 10
1570.808
 20
-2335.070
 30
3684.754
 70
    32
  0
VERTEX
  8
T15SSILL
 62
2
 10
1575.364
 20
-2382.783
 30
3684.835
 70
    32
  0
VERTEX
  8
T15SSILL
 62
2
 10
1607.997
 20
-2436.663
 30
3684.823
 70
    32
  0
VERTEX
  8
T15SSILL
 62
2
 10
1609.817
 20
-2438.630
 30
3684.820
 70
    32
  0
VERTEX
  8
T15SSILL
 62
2
 10
1613.769
 20
-2438.420
 30
3684.805
 70
    32
  0
VERTEX
  8
T15SSILL
 62
2
 10
1619.062
 20
-2433.242
 30
3684.774
 70
    32
  0
SEQEND
  8
T15SSILL
  0
POLYLINE
  8
T15SSILL
 62
2
 66
     1
 70
     9
  0
VERTEX
  8
T15SSILL
 62
2
 10
1662.169
 20
-2390.739
 30
3684.522
 70
    32
  0
VERTEX
  8
T15SSILL
 62
2
 10
1664.295
 20
-2391.201
 30
3684.515
 70
    32
  0
VERTEX
  8
T15SSILL
 62
2
 10
1687.588
 20
-2373.590
 30
3684.384
 70
    32
  0
VERTEX
  8
T15SSILL
 62
2
 10
1663.485
 20
-2330.969
 30
3684.375
 70
    32
  0
VERTEX
  8
T15SSILL
 62
2
 10
1570.504
 20
-2282.652
 30
3684.647
 70
    32
  0
VERTEX
  8
T15SSILL
 62
2
 10
1564.124
 20
-2282.940
 30
3684.671
 70
    32
  0
VERTEX
  8
T15SSILL
 62
2
 10
1569.053
 20
-2326.680
 30
3684.743
 70
    32
  0
VERTEX
  8
T15SSILL
 62
2
 10
1630.326
 20
-2358.424
 30
3684.576
 70
    32
  0
VERTEX
  8
T15SSILL
 62
2
 10
1633.023
 20
-2352.848
 30
3684.554
 70
    32
  0
VERTEX
  8
T15SSILL
 62
2
 10
1637.141
 20
-2355.200
 30
3684.543
 70
    32
  0
VERTEX
  8
T15SSILL
 62
2
 10
1641.273
 20
-2352.241
 30
3684.522
 70
    32
  0
VERTEX
  8
T15SSILL
 62
2
 10
1648.336
 20
-2361.610
 30
3684.514
 70
    32
  0
VERTEX
  8
T15SSILL
 62
2
 10
1643.237
 20
-2365.215
 30
3684.541
 70
    32
  0
VERTEX
  8
T15SSILL
 62
2
 10
1646.209
 20
-2366.778
 30
3684.533
 70
    32
  0
SEQEND
  8
T15SSILL
  0
POLYLINE
  8
T15SSILL
 62
2
 66
     1
 70
     9
  0
VERTEX
  8
T15SSILL
 62
2
 10
1602.324
 20
-2279.027
 30
3684.518
 70
    32
  0
VERTEX
  8
T15SSILL
 62
2
 10
1593.213
 20
-2263.212
 30
3684.520
 70
    32
  0
VERTEX
  8
T15SSILL
 62
2
 10
1581.187
 20
-2255.491
 30
3684.550
 70
    32
  0
VERTEX
  8
T15SSILL
 62
2
 10
1559.695
 20
-2233.904
 30
3684.587
 70
    32
  0
VERTEX
  8
T15SSILL
 62
2
 10
1562.994
 20
-2270.280
 30
3684.649
 70
    32
  0
VERTEX
  8
T15SSILL
 62
2
 10
1582.054
 20
-2269.275
 30
3684.575
 70
    32
  0
VERTEX
  8
T15SSILL
 62
2
 10
1582.439
 20
-2276.036
 30
3684.587
 70
    32
  0
VERTEX
  8
T15SSILL
 62
2
 10
1574.079
 20
-2276.233
 30
3684.620
 70
    32
  0
VERTEX
  8
T15SSILL
 62
2
 10
1597.971
 20
-2289.014
 30
3684.555
 70
    32
  0
VERTEX
  8
T15SSILL
 62
2
 10
1601.522
 20
-2287.233
 30
3684.538
 70
    32
  0
VERTEX
  8
T15SSILL
 62
2
 10
1602.784
 20
-2282.532
 30
3684.524
 70
    32
  0
SEQEND
  8
T15SSILL
  0
POLYLINE
  8
T15SSILL
 62
2
 66
     1
 70
     9
  0
VERTEX
  8
T15SSILL
 62
2
 10
1462.927
 20
-2262.935
 30
3685.015
 70
    32
  0
VERTEX
  8
T15SSILL
 62
2
 10
1451.241
 20
-2246.548
 30
3685.025
 70
    32
  0
VERTEX
  8
T15SSILL
 62
2
 10
1416.208
 20
-2273.286
 30
3685.214
 70
    32
  0
VERTEX
  8
T15SSILL
 62
2
 10
1415.793
 20
-2281.744
 30
3685.232
 70
    32
  0
VERTEX
  8
T15SSILL
 62
2
 10
1420.594
 20
-2294.917
 30
3685.234
 70
    32
  0
VERTEX
  8
T15SSILL
 62
2
 10
1478.347
 20
-2388.670
 30
3685.173
 70
    32
  0
VERTEX
  8
T15SSILL
 62
2
 10
1481.817
 20
-2390.260
 30
3685.164
 70
    32
  0
VERTEX
  8
T15SSILL
 62
2
 10
1484.535
 20
-2389.843
 30
3685.155
 70
    32
  0
VERTEX
  8
T15SSILL
 62
2
 10
1486.573
 20
-2386.715
 30
3685.144
 70
    32
  0
VERTEX
  8
T15SSILL
 62
2
 10
1489.377
 20
-2371.425
 30
3685.115
 70
    32
  0
VERTEX
  8
T15SSILL
 62
2
 10
1492.225
 20
-2369.069
 30
3685.103
 70
    32
  0
VERTEX
  8
T15SSILL
 62
2
 10
1495.002
 20
-2363.723
 30
3685.088
 70
    32
  0
VERTEX
  8
T15SSILL
 62
2
 10
1495.430
 20
-2359.489
 30
3685.081
 70
    32
  0
VERTEX
  8
T15SSILL
 62
2
 10
1491.661
 20
-2352.715
 30
3685.084
 70
    32
  0
VERTEX
  8
T15SSILL
 62
2
 10
1481.143
 20
-2339.677
 30
3685.100
 70
    32
  0
VERTEX
  8
T15SSILL
 62
2
 10
1461.426
 20
-2302.395
 30
3685.102
 70
    32
  0
VERTEX
  8
T15SSILL
 62
2
 10
1460.905
 20
-2287.888
 30
3685.074
 70
    32
  0
VERTEX
  8
T15SSILL
 62
2
 10
1456.132
 20
-2268.466
 30
3685.052
 70
    32
  0
SEQEND
  8
T15SSILL
  0
POLYLINE
  8
T15SSILL
 62
2
 66
     1
 70
     9
  0
VERTEX
  8
T15SSILL
 62
2
 10
1468.760
 20
-2499.950
 30
3685.348
 70
    32
  0
VERTEX
  8
T15SSILL
 62
2
 10
1475.054
 20
-2501.913
 30
3685.330
 70
    32
  0
VERTEX
  8
T15SSILL
 62
2
 10
1481.761
 20
-2506.417
 30
3685.315
 70
    32
  0
VERTEX
  8
T15SSILL
 62
2
 10
1485.928
 20
-2511.422
 30
3685.308
 70
    32
  0
VERTEX
  8
T15SSILL
 62
2
 10
1490.015
 20
-2520.477
 30
3685.307
 70
    32
  0
VERTEX
  8
T15SSILL
 62
2
 10
1491.478
 20
-2526.514
 30
3685.310
 70
    32
  0
VERTEX
  8
T15SSILL
 62
2
 10
1489.065
 20
-2554.554
 30
3685.354
 70
    32
  0
VERTEX
  8
T15SSILL
 62
2
 10
1483.590
 20
-2564.892
 30
3685.385
 70
    32
  0
VERTEX
  8
T15SSILL
 62
2
 10
1491.040
 20
-2574.746
 30
3685.374
 70
    32
  0
VERTEX
  8
T15SSILL
 62
2
 10
1493.637
 20
-2576.621
 30
3685.369
 70
    32
  0
VERTEX
  8
T15SSILL
 62
2
 10
1520.355
 20
-2556.715
 30
3685.258
 70
    32
  0
VERTEX
  8
T15SSILL
 62
2
 10
1521.431
 20
-2553.873
 30
3685.251
 70
    32
  0
VERTEX
  8
T15SSILL
 62
2
 10
1519.084
 20
-2543.985
 30
3685.246
 70
    32
  0
VERTEX
  8
T15SSILL
 62
2
 10
1507.995
 20
-2462.411
 30
3685.175
 70
    32
  0
VERTEX
  8
T15SSILL
 62
2
 10
1506.387
 20
-2457.698
 30
3685.174
 70
    32
  0
VERTEX
  8
T15SSILL
 62
2
 10
1500.945
 20
-2454.571
 30
3685.187
 70
    32
  0
VERTEX
  8
T15SSILL
 62
2
 10
1448.974
 20
-2491.767
 30
3685.400
 70
    32
  0
VERTEX
  8
T15SSILL
 62
2
 10
1454.058
 20
-2498.697
 30
3685.393
 70
    32
  0
VERTEX
  8
T15SSILL
 62
2
 10
1460.302
 20
-2499.535
 30
3685.374
 70
    32
  0
SEQEND
  8
T15SSILL
  0
POLYLINE
  8
T15SSILL
 62
2
 66
     1
 70
     9
  0
VERTEX
  8
T15SSILL
 62
2
 10
1490.344
 20
-2587.084
 30
3685.393
 70
    32
  0
VERTEX
  8
T15SSILL
 62
2
 10
1512.768
 20
-2570.710
 30
3685.300
 70
    32
  0
VERTEX
  8
T15SSILL
 62
2
 10
1520.840
 20
-2573.422
 30
3685.278
 70
    32
  0
VERTEX
  8
T15SSILL
 62
2
 10
1523.279
 20
-2576.092
 30
3685.274
 70
    32
  0
VERTEX
  8
T15SSILL
 62
2
 10
1527.864
 20
-2598.687
 30
3685.289
 70
    32
  0
VERTEX
  8
T15SSILL
 62
2
 10
1505.444
 20
-2599.483
 30
3685.361
 70
    32
  0
VERTEX
  8
T15SSILL
 62
2
 10
1501.159
 20
-2600.641
 30
3685.376
 70
    32
  0
VERTEX
  8
T15SSILL
 62
2
 10
1494.429
 20
-2606.257
 30
3685.405
 70
    32
  0
VERTEX
  8
T15SSILL
 62
2
 10
1508.016
 20
-2622.566
 30
3685.383
 70
    32
  0
VERTEX
  8
T15SSILL
 62
2
 10
1512.311
 20
-2618.152
 30
3685.363
 70
    32
  0
VERTEX
  8
T15SSILL
 62
2
 10
1516.066
 20
-2605.831
 30
3685.335
 70
    32
  0
VERTEX
  8
T15SSILL
 62
2
 10
1528.900
 20
-2605.262
 30
3685.294
 70
    32
  0
VERTEX
  8
T15SSILL
 62
2
 10
1534.085
 20
-2642.010
 30
3685.325
 70
    32
  0
VERTEX
  8
T15SSILL
 62
2
 10
1534.345
 20
-2657.287
 30
3685.344
 70
    32
  0
VERTEX
  8
T15SSILL
 62
2
 10
1539.012
 20
-2672.011
 30
3685.349
 70
    32
  0
VERTEX
  8
T15SSILL
 62
2
 10
1514.335
 20
-2690.173
 30
3685.451
 70
    32
  0
VERTEX
  8
T15SSILL
 62
2
 10
1509.851
 20
-2683.189
 30
3685.456
 70
    32
  0
VERTEX
  8
T15SSILL
 62
2
 10
1509.191
 20
-2679.590
 30
3685.453
 70
    32
  0
VERTEX
  8
T15SSILL
 62
2
 10
1509.697
 20
-2677.824
 30
3685.449
 70
    32
  0
VERTEX
  8
T15SSILL
 62
2
 10
1517.523
 20
-2670.250
 30
3685.415
 70
    32
  0
VERTEX
  8
T15SSILL
 62
2
 10
1517.148
 20
-2668.407
 30
3685.413
 70
    32
  0
VERTEX
  8
T15SSILL
 62
2
 10
1498.681
 20
-2654.732
 30
3685.454
 70
    32
  0
VERTEX
  8
T15SSILL
 62
2
 10
1492.329
 20
-2653.314
 30
3685.472
 70
    32
  0
VERTEX
  8
T15SSILL
 62
2
 10
1489.082
 20
-2653.970
 30
3685.484
 70
    32
  0
VERTEX
  8
T15SSILL
 62
2
 10
1487.263
 20
-2656.367
 30
3685.492
 70
    32
  0
VERTEX
  8
T15SSILL
 62
2
 10
1484.912
 20
-2665.546
 30
3685.512
 70
    32
  0
VERTEX
  8
T15SSILL
 62
2
 10
1479.528
 20
-2664.116
 30
3685.527
 70
    32
  0
VERTEX
  8
T15SSILL
 62
2
 10
1476.543
 20
-2657.466
 30
3685.528
 70
    32
  0
VERTEX
  8
T15SSILL
 62
2
 10
1477.600
 20
-2643.200
 30
3685.506
 70
    32
  0
VERTEX
  8
T15SSILL
 62
2
 10
1471.037
 20
-2631.667
 30
3685.512
 70
    32
  0
VERTEX
  8
T15SSILL
 62
2
 10
1464.935
 20
-2605.638
 30
3685.497
 70
    32
  0
VERTEX
  8
T15SSILL
 62
2
 10
1466.623
 20
-2604.406
 30
3685.490
 70
    32
  0
VERTEX
  8
T15SSILL
 62
2
 10
1470.132
 20
-2609.562
 30
3685.486
 70
    32
  0
VERTEX
  8
T15SSILL
 62
2
 10
1475.853
 20
-2605.906
 30
3685.463
 70
    32
  0
VERTEX
  8
T15SSILL
 62
2
 10
1472.030
 20
-2600.457
 30
3685.468
 70
    32
  0
VERTEX
  8
T15SSILL
 62
2
 10
1480.738
 20
-2594.099
 30
3685.432
 70
    32
  0
VERTEX
  8
T15SSILL
 62
2
 10
1484.502
 20
-2599.541
 30
3685.427
 70
    32
  0
VERTEX
  8
T15SSILL
 62
2
 10
1494.103
 20
-2592.537
 30
3685.388
 70
    32
  0
SEQEND
  8
T15SSILL
  0
POLYLINE
  8
T15SSILL
 62
2
 66
     1
 70
     9
  0
VERTEX
  8
T15SSILL
 62
2
 10
1377.252
 20
-2797.428
 30
3686.024
 70
    32
  0
VERTEX
  8
T15SSILL
 62
2
 10
1379.040
 20
-2796.073
 30
3686.017
 70
    32
  0
VERTEX
  8
T15SSILL
 62
2
 10
1387.561
 20
-2808.470
 30
3686.006
 70
    32
  0
VERTEX
  8
T15SSILL
 62
2
 10
1382.787
 20
-2811.173
 30
3686.025
 70
    32
  0
VERTEX
  8
T15SSILL
 62
2
 10
1375.975
 20
-2800.962
 30
3686.033
 70
    32
  0
SEQEND
  8
T15SSILL
  0
POLYLINE
  8
T15SSILL
 62
2
 66
     1
 70
     9
  0
VERTEX
  8
T15SSILL
 62
2
 10
1367.178
 20
-2786.641
 30
3686.042
 70
    32
  0
VERTEX
  8
T15SSILL
 62
2
 10
1360.916
 20
-2778.183
 30
3686.051
 70
    32
  0
VERTEX
  8
T15SSILL
 62
2
 10
1368.693
 20
-2772.136
 30
3686.019
 70
    32
  0
VERTEX
  8
T15SSILL
 62
2
 10
1375.938
 20
-2783.060
 30
3686.010
 70
    32
  0
VERTEX
  8
T15SSILL
 62
2
 10
1372.045
 20
-2785.564
 30
3686.025
 70
    32
  0
VERTEX
  8
T15SSILL
 62
2
 10
1374.981
 20
-2790.167
 30
3686.022
 70
    32
  0
VERTEX
  8
T15SSILL
 62
2
 10
1371.091
 20
-2790.112
 30
3686.034
 70
    32
  0
SEQEND
  8
T15SSILL
  0
POLYLINE
  8
T15SSILL
 62
2
 66
     1
 70
     9
  0
VERTEX
  8
T15SSILL
 62
2
 10
1304.512
 20
-2481.521
 30
3685.844
 70
    32
  0
VERTEX
  8
T15SSILL
 62
2
 10
1300.207
 20
-2484.684
 30
3685.862
 70
    32
  0
VERTEX
  8
T15SSILL
 62
2
 10
1296.542
 20
-2479.564
 30
3685.867
 70
    32
  0
VERTEX
  8
T15SSILL
 62
2
 10
1292.980
 20
-2482.229
 30
3685.882
 70
    32
  0
VERTEX
  8
T15SSILL
 62
2
 10
1296.438
 20
-2486.776
 30
3685.877
 70
    32
  0
VERTEX
  8
T15SSILL
 62
2
 10
1291.629
 20
-2490.115
 30
3685.896
 70
    32
  0
VERTEX
  8
T15SSILL
 62
2
 10
1288.329
 20
-2485.523
 30
3685.901
 70
    32
  0
VERTEX
  8
T15SSILL
 62
2
 10
1283.709
 20
-2488.794
 30
3685.920
 70
    32
  0
VERTEX
  8
T15SSILL
 62
2
 10
1279.489
 20
-2482.177
 30
3685.925
 70
    32
  0
VERTEX
  8
T15SSILL
 62
2
 10
1288.401
 20
-2475.738
 30
3685.888
 70
    32
  0
VERTEX
  8
T15SSILL
 62
2
 10
1284.760
 20
-2470.576
 30
3685.893
 70
    32
  0
VERTEX
  8
T15SSILL
 62
2
 10
1292.463
 20
-2465.020
 30
3685.861
 70
    32
  0
VERTEX
  8
T15SSILL
 62
2
 10
1289.189
 20
-2460.537
 30
3685.866
 70
    32
  0
VERTEX
  8
T15SSILL
 62
2
 10
1292.315
 20
-2458.268
 30
3685.853
 70
    32
  0
VERTEX
  8
T15SSILL
 62
2
 10
1288.675
 20
-2453.719
 30
3685.858
 70
    32
  0
VERTEX
  8
T15SSILL
 62
2
 10
1283.520
 20
-2455.250
 30
3685.877
 70
    32
  0
VERTEX
  8
T15SSILL
 62
2
 10
1268.214
 20
-2466.612
 30
3685.940
 70
    32
  0
VERTEX
  8
T15SSILL
 62
2
 10
1268.681
 20
-2471.441
 30
3685.945
 70
    32
  0
VERTEX
  8
T15SSILL
 62
2
 10
1272.423
 20
-2477.072
 30
3685.940
 70
    32
  0
VERTEX
  8
T15SSILL
 62
2
 10
1288.941
 20
-2498.239
 30
3685.915
 70
    32
  0
VERTEX
  8
T15SSILL
 62
2
 10
1291.357
 20
-2499.941
 30
3685.910
 70
    32
  0
VERTEX
  8
T15SSILL
 62
2
 10
1308.417
 20
-2486.868
 30
3685.839
 70
    32
  0
SEQEND
  8
T15SSILL
  0
POLYLINE
  8
T15SSILL
 62
2
 66
     1
 70
     9
  0
VERTEX
  8
T15SSILL
 62
2
 10
1282.543
 20
-2386.220
 30
3685.790
 70
    32
  0
VERTEX
  8
T15SSILL
 62
2
 10
1276.087
 20
-2376.567
 30
3685.798
 70
    32
  0
VERTEX
  8
T15SSILL
 62
2
 10
1270.574
 20
-2380.345
 30
3685.820
 70
    32
  0
VERTEX
  8
T15SSILL
 62
2
 10
1266.711
 20
-2375.214
 30
3685.826
 70
    32
  0
VERTEX
  8
T15SSILL
 62
2
 10
1261.031
 20
-2378.969
 30
3685.849
 70
    32
  0
VERTEX
  8
T15SSILL
 62
2
 10
1259.560
 20
-2382.621
 30
3685.858
 70
    32
  0
VERTEX
  8
T15SSILL
 62
2
 10
1273.100
 20
-2399.443
 30
3685.837
 70
    32
  0
VERTEX
  8
T15SSILL
 62
2
 10
1289.694
 20
-2387.054
 30
3685.769
 70
    32
  0
VERTEX
  8
T15SSILL
 62
2
 10
1288.347
 20
-2381.952
 30
3685.766
 70
    32
  0
SEQEND
  8
T15SSILL
  0
POLYLINE
  8
T15SSILL
 62
2
 66
     1
 70
     9
  0
VERTEX
  8
T15SSILL
 62
2
 10
1234.601
 20
-2241.328
 30
3685.754
 70
    32
  0
VERTEX
  8
T15SSILL
 62
2
 10
1232.984
 20
-2240.235
 30
3685.758
 70
    32
  0
VERTEX
  8
T15SSILL
 62
2
 10
1231.070
 20
-2240.910
 30
3685.764
 70
    32
  0
VERTEX
  8
T15SSILL
 62
2
 10
1225.299
 20
-2244.871
 30
3685.788
 70
    32
  0
VERTEX
  8
T15SSILL
 62
2
 10
1215.656
 20
-2254.494
 30
3685.831
 70
    32
  0
VERTEX
  8
T15SSILL
 62
2
 10
1219.038
 20
-2261.427
 30
3685.829
 70
    32
  0
VERTEX
  8
T15SSILL
 62
2
 10
1223.804
 20
-2267.613
 30
3685.822
 70
    32
  0
VERTEX
  8
T15SSILL
 62
2
 10
1232.727
 20
-2260.373
 30
3685.785
 70
    32
  0
VERTEX
  8
T15SSILL
 62
2
 10
1229.884
 20
-2256.605
 30
3685.789
 70
    32
  0
VERTEX
  8
T15SSILL
 62
2
 10
1239.270
 20
-2250.068
 30
3685.750
 70
    32
  0
VERTEX
  8
T15SSILL
 62
2
 10
1235.770
 20
-2244.987
 30
3685.755
 70
    32
  0
VERTEX
  8
T15SSILL
 62
2
 10
1237.561
 20
-2243.719
 30
3685.748
 70
    32
  0
SEQEND
  8
T15SSILL
  0
POLYLINE
  8
T15SSILL
 62
2
 66
     1
 70
     9
  0
VERTEX
  8
T15SSILL
 62
2
 10
1298.324
 20
-2200.585
 30
3685.499
 70
    32
  0
VERTEX
  8
T15SSILL
 62
2
 10
1299.369
 20
-2203.816
 30
3685.500
 70
    32
  0
VERTEX
  8
T15SSILL
 62
2
 10
1298.902
 20
-2210.075
 30
3685.509
 70
    32
  0
VERTEX
  8
T15SSILL
 62
2
 10
1297.090
 20
-2215.310
 30
3685.522
 70
    32
  0
VERTEX
  8
T15SSILL
 62
2
 10
1296.199
 20
-2215.941
 30
3685.526
 70
    32
  0
VERTEX
  8
T15SSILL
 62
2
 10
1289.562
 20
-2206.639
 30
3685.535
 70
    32
  0
VERTEX
  8
T15SSILL
 62
2
 10
1284.917
 20
-2210.038
 30
3685.554
 70
    32
  0
VERTEX
  8
T15SSILL
 62
2
 10
1281.705
 20
-2205.739
 30
3685.558
 70
    32
  0
VERTEX
  8
T15SSILL
 62
2
 10
1277.411
 20
-2209.127
 30
3685.576
 70
    32
  0
VERTEX
  8
T15SSILL
 62
2
 10
1279.843
 20
-2213.801
 30
3685.575
 70
    32
  0
VERTEX
  8
T15SSILL
 62
2
 10
1268.935
 20
-2221.520
 30
3685.619
 70
    32
  0
VERTEX
  8
T15SSILL
 62
2
 10
1269.226
 20
-2216.588
 30
3685.612
 70
    32
  0
VERTEX
  8
T15SSILL
 62
2
 10
1275.219
 20
-2209.582
 30
3685.584
 70
    32
  0
VERTEX
  8
T15SSILL
 62
2
 10
1277.303
 20
-2204.693
 30
3685.571
 70
    32
  0
VERTEX
  8
T15SSILL
 62
2
 10
1277.093
 20
-2199.594
 30
3685.565
 70
    32
  0
VERTEX
  8
T15SSILL
 62
2
 10
1280.563
 20
-2197.487
 30
3685.551
 70
    32
  0
VERTEX
  8
T15SSILL
 62
2
 10
1292.290
 20
-2198.441
 30
3685.515
 70
    32
  0
SEQEND
  8
T15SSILL
  0
POLYLINE
  8
T15SSILL
 62
2
 66
     1
 70
     9
  0
VERTEX
  8
T15SSILL
 62
2
 10
1305.806
 20
-2239.215
 30
3685.525
 70
    32
  0
VERTEX
  8
T15SSILL
 62
2
 10
1312.585
 20
-2234.125
 30
3685.497
 70
    32
  0
VERTEX
  8
T15SSILL
 62
2
 10
1313.487
 20
-2231.376
 30
3685.491
 70
    32
  0
VERTEX
  8
T15SSILL
 62
2
 10
1307.114
 20
-2218.680
 30
3685.495
 70
    32
  0
VERTEX
  8
T15SSILL
 62
2
 10
1305.583
 20
-2217.220
 30
3685.498
 70
    32
  0
VERTEX
  8
T15SSILL
 62
2
 10
1300.114
 20
-2221.428
 30
3685.520
 70
    32
  0
VERTEX
  8
T15SSILL
 62
2
 10
1307.367
 20
-2231.594
 30
3685.511
 70
    32
  0
VERTEX
  8
T15SSILL
 62
2
 10
1302.822
 20
-2234.842
 30
3685.529
 70
    32
  0
SEQEND
  8
T15SSILL
  0
POLYLINE
  8
T15SSILL
 62
2
 66
     1
 70
     9
  0
VERTEX
  8
T15SSILL
 62
2
 10
1211.417
 20
-2168.683
 30
3685.733
 70
    32
  0
VERTEX
  8
T15SSILL
 62
2
 10
1209.690
 20
-2162.653
 30
3685.731
 70
    32
  0
VERTEX
  8
T15SSILL
 62
2
 10
1206.440
 20
-2162.906
 30
3685.741
 70
    32
  0
VERTEX
  8
T15SSILL
 62
2
 10
1188.364
 20
-2176.183
 30
3685.816
 70
    32
  0
VERTEX
  8
T15SSILL
 62
2
 10
1187.786
 20
-2181.476
 30
3685.824
 70
    32
  0
VERTEX
  8
T15SSILL
 62
2
 10
1192.365
 20
-2189.023
 30
3685.820
 70
    32
  0
VERTEX
  8
T15SSILL
 62
2
 10
1195.918
 20
-2190.435
 30
3685.810
 70
    32
  0
VERTEX
  8
T15SSILL
 62
2
 10
1213.249
 20
-2179.111
 30
3685.741
 70
    32
  0
VERTEX
  8
T15SSILL
 62
2
 10
1212.855
 20
-2173.665
 30
3685.735
 70
    32
  0
SEQEND
  8
T15SSILL
  0
POLYLINE
  8
T15SSILL
 62
2
 66
     1
 70
     9
  0
VERTEX
  8
T15SSILL
 62
2
 10
1398.941
 20
-2153.932
 30
3685.032
 70
    32
  0
VERTEX
  8
T15SSILL
 62
2
 10
1400.048
 20
-2156.106
 30
3685.033
 70
    32
  0
VERTEX
  8
T15SSILL
 62
2
 10
1410.380
 20
-2157.620
 30
3684.997
 70
    32
  0
VERTEX
  8
T15SSILL
 62
2
 10
1412.779
 20
-2159.028
 30
3684.990
 70
    32
  0
VERTEX
  8
T15SSILL
 62
2
 10
1419.828
 20
-2158.537
 30
3684.962
 70
    32
  0
VERTEX
  8
T15SSILL
 62
2
 10
1418.804
 20
-2152.932
 30
3684.955
 70
    32
  0
VERTEX
  8
T15SSILL
 62
2
 10
1421.376
 20
-2146.359
 30
3684.931
 70
    32
  0
VERTEX
  8
T15SSILL
 62
2
 10
1418.851
 20
-2140.084
 30
3684.928
 70
    32
  0
VERTEX
  8
T15SSILL
 62
2
 10
1416.776
 20
-2137.933
 30
3684.931
 70
    32
  0
VERTEX
  8
T15SSILL
 62
2
 10
1398.960
 20
-2151.028
 30
3685.026
 70
    32
  0
SEQEND
  8
T15SSILL
  0
POLYLINE
  8
T15SSILL
 62
2
 66
     1
 70
     9
  0
VERTEX
  8
T15SSILL
 62
2
 10
1112.795
 20
-2495.560
 30
3686.470
 70
    32
  0
VERTEX
  8
T15SSILL
 62
2
 10
1110.326
 20
-2499.051
 30
3686.482
 70
    32
  0
VERTEX
  8
T15SSILL
 62
2
 10
1107.101
 20
-2511.447
 30
3686.509
 70
    32
  0
VERTEX
  8
T15SSILL
 62
2
 10
1105.975
 20
-2527.049
 30
3686.533
 70
    32
  0
VERTEX
  8
T15SSILL
 62
2
 10
1106.859
 20
-2534.596
 30
3686.540
 70
    32
  0
VERTEX
  8
T15SSILL
 62
2
 10
1130.046
 20
-2595.731
 30
3686.546
 70
    32
  0
VERTEX
  8
T15SSILL
 62
2
 10
1133.824
 20
-2602.857
 30
3686.543
 70
    32
  0
VERTEX
  8
T15SSILL
 62
2
 10
1139.841
 20
-2607.994
 30
3686.531
 70
    32
  0
VERTEX
  8
T15SSILL
 62
2
 10
1162.838
 20
-2590.728
 30
3686.435
 70
    32
  0
VERTEX
  8
T15SSILL
 62
2
 10
1150.356
 20
-2546.850
 30
3686.418
 70
    32
  0
VERTEX
  8
T15SSILL
 62
2
 10
1121.914
 20
-2494.200
 30
3686.439
 70
    32
  0
VERTEX
  8
T15SSILL
 62
2
 10
1117.249
 20
-2490.438
 30
3686.449
 70
    32
  0
SEQEND
  8
T15SSILL
  0
POLYLINE
  8
T15SSILL
 62
2
 66
     1
 70
     9
  0
VERTEX
  8
T15SSILL
 62
2
 10
1225.717
 20
-2156.100
 30
3685.671
 70
    32
  0
VERTEX
  8
T15SSILL
 62
2
 10
1223.986
 20
-2157.317
 30
3685.678
 70
    32
  0
VERTEX
  8
T15SSILL
 62
2
 10
1225.012
 20
-2159.385
 30
3685.678
 70
    32
  0
VERTEX
  8
T15SSILL
 62
2
 10
1232.269
 20
-2164.844
 30
3685.662
 70
    32
  0
VERTEX
  8
T15SSILL
 62
2
 10
1246.756
 20
-2156.052
 30
3685.605
 70
    32
  0
VERTEX
  8
T15SSILL
 62
2
 10
1246.917
 20
-2151.736
 30
3685.598
 70
    32
  0
VERTEX
  8
T15SSILL
 62
2
 10
1245.404
 20
-2147.284
 30
3685.597
 70
    32
  0
VERTEX
  8
T15SSILL
 62
2
 10
1239.924
 20
-2138.879
 30
3685.604
 70
    32
  0
VERTEX
  8
T15SSILL
 62
2
 10
1222.608
 20
-2151.355
 30
3685.675
 70
    32
  0
SEQEND
  8
T15SSILL
  0
POLYLINE
  8
T15SSILL
 62
2
 66
     1
 70
     9
  0
VERTEX
  8
T15SSILL
 62
2
 10
-724.695
 20
-533.985
 30
3693.648
 70
    32
  0
VERTEX
  8
T15SSILL
 62
2
 10
-722.559
 20
-527.810
 30
3692.417
 70
    32
  0
VERTEX
  8
T15SSILL
 62
2
 10
-712.205
 20
-517.158
 30
3689.779
 70
    32
  0
VERTEX
  8
T15SSILL
 62
2
 10
-716.739
 20
-512.105
 30
3689.258
 70
    32
  0
VERTEX
  8
T15SSILL
 62
2
 10
-716.439
 20
-506.916
 30
3688.339
 70
    32
  0
VERTEX
  8
T15SSILL
 62
2
 10
-714.024
 20
-502.321
 30
3687.360
 70
    32
  0
VERTEX
  8
T15SSILL
 62
2
 10
-724.426
 20
-490.646
 30
3686.150
 70
    32
  0
VERTEX
  8
T15SSILL
 62
2
 10
-726.803
 20
-490.230
 30
3686.262
 70
    32
  0
VERTEX
  8
T15SSILL
 62
2
 10
-734.221
 20
-513.159
 30
3690.792
 70
    32
  0
VERTEX
  8
T15SSILL
 62
2
 10
-734.532
 20
-517.206
 30
3691.514
 70
    32
  0
VERTEX
  8
T15SSILL
 62
2
 10
-730.103
 20
-538.171
 30
3694.788
 70
    32
  0
SEQEND
  8
T15SSILL
  0
POLYLINE
  8
T15SSILL
 62
2
 66
     1
 70
     9
  0
VERTEX
  8
T15SSILL
 62
2
 10
-445.780
 20
-875.512
 30
3689.131
 70
    32
  0
VERTEX
  8
T15SSILL
 62
2
 10
-430.620
 20
-879.491
 30
3689.359
 70
    32
  0
VERTEX
  8
T15SSILL
 62
2
 10
-425.790
 20
-879.091
 30
3689.414
 70
    32
  0
VERTEX
  8
T15SSILL
 62
2
 10
-423.731
 20
-865.269
 30
3689.293
 70
    32
  0
VERTEX
  8
T15SSILL
 62
2
 10
-424.841
 20
-859.743
 30
3689.221
 70
    32
  0
VERTEX
  8
T15SSILL
 62
2
 10
-429.655
 20
-853.022
 30
3689.040
 70
    32
  0
VERTEX
  8
T15SSILL
 62
2
 10
-427.176
 20
-846.053
 30
3688.942
 70
    32
  0
VERTEX
  8
T15SSILL
 62
2
 10
-427.476
 20
-842.364
 30
3689.084
 70
    32
  0
VERTEX
  8
T15SSILL
 62
2
 10
-431.161
 20
-834.314
 30
3689.909
 70
    32
  0
VERTEX
  8
T15SSILL
 62
2
 10
-437.084
 20
-830.945
 30
3690.291
 70
    32
  0
VERTEX
  8
T15SSILL
 62
2
 10
-440.604
 20
-830.628
 30
3690.351
 70
    32
  0
VERTEX
  8
T15SSILL
 62
2
 10
-446.372
 20
-825.148
 30
3690.857
 70
    32
  0
VERTEX
  8
T15SSILL
 62
2
 10
-463.460
 20
-804.222
 30
3691.359
 70
    32
  0
VERTEX
  8
T15SSILL
 62
2
 10
-466.332
 20
-798.274
 30
3691.582
 70
    32
  0
VERTEX
  8
T15SSILL
 62
2
 10
-494.258
 20
-783.522
 30
3691.296
 70
    32
  0
VERTEX
  8
T15SSILL
 62
2
 10
-459.683
 20
-865.278
 30
3688.683
 70
    32
  0
VERTEX
  8
T15SSILL
 62
2
 10
-449.426
 20
-872.909
 30
3689.059
 70
    32
  0
SEQEND
  8
T15SSILL
  0
POLYLINE
  8
T15SSILL
 62
2
 66
     1
 70
     9
  0
VERTEX
  8
T15SSILL
 62
2
 10
-407.291
 20
-900.530
 30
3689.878
 70
    32
  0
VERTEX
  8
T15SSILL
 62
2
 10
-405.751
 20
-905.086
 30
3689.974
 70
    32
  0
VERTEX
  8
T15SSILL
 62
2
 10
-404.059
 20
-907.266
 30
3690.029
 70
    32
  0
VERTEX
  8
T15SSILL
 62
2
 10
-399.646
 20
-908.980
 30
3690.104
 70
    32
  0
VERTEX
  8
T15SSILL
 62
2
 10
-395.637
 20
-914.302
 30
3690.238
 70
    32
  0
VERTEX
  8
T15SSILL
 62
2
 10
-394.279
 20
-918.244
 30
3690.321
 70
    32
  0
VERTEX
  8
T15SSILL
 62
2
 10
-396.281
 20
-937.779
 30
3690.644
 70
    32
  0
VERTEX
  8
T15SSILL
 62
2
 10
-398.629
 20
-940.352
 30
3690.666
 70
    32
  0
VERTEX
  8
T15SSILL
 62
2
 10
-399.590
 20
-949.679
 30
3690.820
 70
    32
  0
VERTEX
  8
T15SSILL
 62
2
 10
-391.778
 20
-957.337
 30
3691.033
 70
    32
  0
VERTEX
  8
T15SSILL
 62
2
 10
-389.015
 20
-969.879
 30
3691.282
 70
    32
  0
VERTEX
  8
T15SSILL
 62
2
 10
-385.577
 20
-974.249
 30
3691.320
 70
    32
  0
VERTEX
  8
T15SSILL
 62
2
 10
-408.395
 20
-968.601
 30
3691.064
 70
    32
  0
VERTEX
  8
T15SSILL
 62
2
 10
-419.634
 20
-958.118
 30
3690.767
 70
    32
  0
VERTEX
  8
T15SSILL
 62
2
 10
-428.840
 20
-936.063
 30
3690.286
 70
    32
  0
VERTEX
  8
T15SSILL
 62
2
 10
-428.059
 20
-934.011
 30
3690.258
 70
    32
  0
VERTEX
  8
T15SSILL
 62
2
 10
-408.397
 20
-940.261
 30
3690.566
 70
    32
  0
VERTEX
  8
T15SSILL
 62
2
 10
-405.142
 20
-928.762
 30
3690.396
 70
    32
  0
VERTEX
  8
T15SSILL
 62
2
 10
-425.698
 20
-923.899
 30
3690.104
 70
    32
  0
VERTEX
  8
T15SSILL
 62
2
 10
-424.971
 20
-917.840
 30
3690.005
 70
    32
  0
VERTEX
  8
T15SSILL
 62
2
 10
-430.548
 20
-915.164
 30
3689.901
 70
    32
  0
VERTEX
  8
T15SSILL
 62
2
 10
-442.175
 20
-905.048
 30
3689.607
 70
    32
  0
VERTEX
  8
T15SSILL
 62
2
 10
-448.768
 20
-888.715
 30
3689.253
 70
    32
  0
VERTEX
  8
T15SSILL
 62
2
 10
-446.671
 20
-886.501
 30
3689.237
 70
    32
  0
VERTEX
  8
T15SSILL
 62
2
 10
-424.960
 20
-891.741
 30
3689.558
 70
    32
  0
VERTEX
  8
T15SSILL
 62
2
 10
-421.840
 20
-896.017
 30
3689.653
 70
    32
  0
VERTEX
  8
T15SSILL
 62
2
 10
-408.819
 20
-897.117
 30
3689.813
 70
    32
  0
VERTEX
  8
T15SSILL
 62
2
 10
-408.091
 20
-898.744
 30
3689.839
 70
    32
  0
SEQEND
  8
T15SSILL
  0
POLYLINE
  8
T15SSILL
 62
2
 66
     1
 70
     9
  0
VERTEX
  8
T15SSILL
 62
2
 10
-352.663
 20
-1000.897
 30
3691.187
 70
    32
  0
VERTEX
  8
T15SSILL
 62
2
 10
-340.794
 20
-993.843
 30
3690.872
 70
    32
  0
VERTEX
  8
T15SSILL
 62
2
 10
-336.127
 20
-999.907
 30
3690.905
 70
    32
  0
VERTEX
  8
T15SSILL
 62
2
 10
-332.845
 20
-1009.549
 30
3691.025
 70
    32
  0
VERTEX
  8
T15SSILL
 62
2
 10
-357.429
 20
-1018.605
 30
3691.571
 70
    32
  0
VERTEX
  8
T15SSILL
 62
2
 10
-370.705
 20
-1016.495
 30
3691.748
 70
    32
  0
VERTEX
  8
T15SSILL
 62
2
 10
-402.232
 20
-995.844
 30
3691.643
 70
    32
  0
VERTEX
  8
T15SSILL
 62
2
 10
-408.139
 20
-983.555
 30
3691.355
 70
    32
  0
VERTEX
  8
T15SSILL
 62
2
 10
-404.541
 20
-980.108
 30
3691.305
 70
    32
  0
VERTEX
  8
T15SSILL
 62
2
 10
-374.432
 20
-988.311
 30
3691.305
 70
    32
  0
VERTEX
  8
T15SSILL
 62
2
 10
-365.886
 20
-1005.952
 30
3691.488
 70
    32
  0
VERTEX
  8
T15SSILL
 62
2
 10
-359.139
 20
-1003.863
 30
3691.343
 70
    32
  0
SEQEND
  8
T15SSILL
  0
POLYLINE
  8
T15SSILL
 62
2
 66
     1
 70
     9
  0
VERTEX
  8
T15SSILL
 62
2
 10
-327.749
 20
-1018.250
 30
3691.092
 70
    32
  0
VERTEX
  8
T15SSILL
 62
2
 10
-347.344
 20
-1027.554
 30
3691.560
 70
    32
  0
VERTEX
  8
T15SSILL
 62
2
 10
-348.198
 20
-1034.509
 30
3691.569
 70
    32
  0
VERTEX
  8
T15SSILL
 62
2
 10
-340.524
 20
-1040.093
 30
3691.477
 70
    32
  0
VERTEX
  8
T15SSILL
 62
2
 10
-331.212
 20
-1040.306
 30
3691.428
 70
    32
  0
VERTEX
  8
T15SSILL
 62
2
 10
-325.371
 20
-1038.555
 30
3691.404
 70
    32
  0
VERTEX
  8
T15SSILL
 62
2
 10
-311.250
 20
-1031.390
 30
3691.044
 70
    32
  0
VERTEX
  8
T15SSILL
 62
2
 10
-321.578
 20
-1017.520
 30
3690.981
 70
    32
  0
SEQEND
  8
T15SSILL
  0
POLYLINE
  8
T15SSILL
 62
2
 66
     1
 70
     9
  0
VERTEX
  8
T15SSILL
 62
2
 10
1544.742
 20
-2164.636
 30
3684.482
 70
    32
  0
VERTEX
  8
T15SSILL
 62
2
 10
1540.925
 20
-2155.839
 30
3684.473
 70
    32
  0
VERTEX
  8
T15SSILL
 62
2
 10
1535.094
 20
-2158.529
 30
3684.517
 70
    32
  0
VERTEX
  8
T15SSILL
 62
2
 10
1533.212
 20
-2172.858
 30
3684.561
 70
    32
  0
VERTEX
  8
T15SSILL
 62
2
 10
1530.697
 20
-2177.201
 30
3684.579
 70
    32
  0
VERTEX
  8
T15SSILL
 62
2
 10
1471.429
 20
-2219.704
 30
3684.893
 70
    32
  0
VERTEX
  8
T15SSILL
 62
2
 10
1464.180
 20
-2221.988
 30
3684.925
 70
    32
  0
VERTEX
  8
T15SSILL
 62
2
 10
1456.883
 20
-2212.387
 30
3684.933
 70
    32
  0
VERTEX
  8
T15SSILL
 62
2
 10
1466.863
 20
-2208.989
 30
3684.888
 70
    32
  0
VERTEX
  8
T15SSILL
 62
2
 10
1469.863
 20
-2205.661
 30
3684.870
 70
    32
  0
VERTEX
  8
T15SSILL
 62
2
 10
1471.013
 20
-2202.202
 30
3684.858
 70
    32
  0
VERTEX
  8
T15SSILL
 62
2
 10
1467.837
 20
-2194.446
 30
3684.854
 70
    32
  0
VERTEX
  8
T15SSILL
 62
2
 10
1462.569
 20
-2187.531
 30
3684.860
 70
    32
  0
VERTEX
  8
T15SSILL
 62
2
 10
1459.978
 20
-2181.762
 30
3684.858
 70
    32
  0
VERTEX
  8
T15SSILL
 62
2
 10
1462.382
 20
-2180.000
 30
3684.845
 70
    32
  0
VERTEX
  8
T15SSILL
 62
2
 10
1457.437
 20
-2172.512
 30
3684.848
 70
    32
  0
VERTEX
  8
T15SSILL
 62
2
 10
1451.873
 20
-2152.147
 30
3684.827
 70
    32
  0
VERTEX
  8
T15SSILL
 62
2
 10
1445.250
 20
-2143.768
 30
3684.835
 70
    32
  0
VERTEX
  8
T15SSILL
 62
2
 10
1429.807
 20
-2138.239
 30
3684.882
 70
    32
  0
VERTEX
  8
T15SSILL
 62
2
 10
1415.702
 20
-2129.775
 30
3684.919
 70
    32
  0
VERTEX
  8
T15SSILL
 62
2
 10
1310.624
 20
-2203.461
 30
3685.464
 70
    32
  0
VERTEX
  8
T15SSILL
 62
2
 10
1303.021
 20
-2194.578
 30
3685.476
 70
    32
  0
VERTEX
  8
T15SSILL
 62
2
 10
1294.279
 20
-2189.594
 30
3685.497
 70
    32
  0
VERTEX
  8
T15SSILL
 62
2
 10
1282.582
 20
-2160.217
 30
3685.488
 70
    32
  0
VERTEX
  8
T15SSILL
 62
2
 10
1279.387
 20
-2155.365
 30
3685.490
 70
    32
  0
VERTEX
  8
T15SSILL
 62
2
 10
1267.794
 20
-2152.648
 30
3685.528
 70
    32
  0
VERTEX
  8
T15SSILL
 62
2
 10
1254.242
 20
-2156.314
 30
3685.581
 70
    32
  0
VERTEX
  8
T15SSILL
 62
2
 10
1252.795
 20
-2154.677
 30
3685.584
 70
    32
  0
VERTEX
  8
T15SSILL
 62
2
 10
1252.077
 20
-2146.686
 30
3685.575
 70
    32
  0
VERTEX
  8
T15SSILL
 62
2
 10
1246.746
 20
-2137.133
 30
3685.576
 70
    32
  0
VERTEX
  8
T15SSILL
 62
2
 10
1247.536
 20
-2133.330
 30
3685.565
 70
    32
  0
VERTEX
  8
T15SSILL
 62
2
 10
1350.311
 20
-2058.995
 30
3685.021
 70
    32
  0
VERTEX
  8
T15SSILL
 62
2
 10
1352.976
 20
-2060.075
 30
3685.013
 70
    32
  0
VERTEX
  8
T15SSILL
 62
2
 10
1358.566
 20
-2076.838
 30
3685.026
 70
    32
  0
VERTEX
  8
T15SSILL
 62
2
 10
1362.351
 20
-2106.491
 30
3685.073
 70
    32
  0
VERTEX
  8
T15SSILL
 62
2
 10
1361.613
 20
-2116.188
 30
3685.096
 70
    32
  0
VERTEX
  8
T15SSILL
 62
2
 10
1366.486
 20
-2117.569
 30
3685.080
 70
    32
  0
VERTEX
  8
T15SSILL
 62
2
 10
1369.145
 20
-2114.689
 30
3685.064
 70
    32
  0
VERTEX
  8
T15SSILL
 62
2
 10
1370.323
 20
-2104.982
 30
3685.040
 70
    32
  0
VERTEX
  8
T15SSILL
 62
2
 10
1369.098
 20
-2094.187
 30
3685.022
 70
    32
  0
VERTEX
  8
T15SSILL
 62
2
 10
1370.887
 20
-2087.985
 30
3685.002
 70
    32
  0
VERTEX
  8
T15SSILL
 62
2
 10
1364.873
 20
-2038.585
 30
3684.923
 70
    32
  0
VERTEX
  8
T15SSILL
 62
2
 10
1361.708
 20
-2027.573
 30
3684.912
 70
    32
  0
VERTEX
  8
T15SSILL
 62
2
 10
1353.952
 20
-2008.574
 30
3684.902
 70
    32
  0
VERTEX
  8
T15SSILL
 62
2
 10
1351.028
 20
-1996.588
 30
3684.889
 70
    32
  0
VERTEX
  8
T15SSILL
 62
2
 10
1350.988
 20
-1991.221
 30
3684.878
 70
    32
  0
VERTEX
  8
T15SSILL
 62
2
 10
1354.769
 20
-1968.868
 30
3684.817
 70
    32
  0
VERTEX
  8
T15SSILL
 62
2
 10
1349.686
 20
-1951.213
 30
3684.800
 70
    32
  0
VERTEX
  8
T15SSILL
 62
2
 10
1341.243
 20
-1940.326
 30
3684.809
 70
    32
  0
VERTEX
  8
T15SSILL
 62
2
 10
1337.552
 20
-1933.110
 30
3684.808
 70
    32
  0
VERTEX
  8
T15SSILL
 62
2
 10
1333.980
 20
-1930.907
 30
3684.817
 70
    32
  0
VERTEX
  8
T15SSILL
 62
2
 10
1327.620
 20
-1937.306
 30
3684.855
 70
    32
  0
VERTEX
  8
T15SSILL
 62
2
 10
1325.216
 20
-1943.523
 30
3684.877
 70
    32
  0
VERTEX
  8
T15SSILL
 62
2
 10
1276.338
 20
-1978.915
 30
3685.136
 70
    32
  0
VERTEX
  8
T15SSILL
 62
2
 10
1282.593
 20
-1982.902
 30
3685.121
 70
    32
  0
VERTEX
  8
T15SSILL
 62
2
 10
1325.854
 20
-1951.867
 30
3684.892
 70
    32
  0
VERTEX
  8
T15SSILL
 62
2
 10
1331.650
 20
-1951.378
 30
3684.869
 70
    32
  0
VERTEX
  8
T15SSILL
 62
2
 10
1336.522
 20
-1974.933
 30
3684.899
 70
    32
  0
VERTEX
  8
T15SSILL
 62
2
 10
1336.360
 20
-1979.249
 30
3684.909
 70
    32
  0
VERTEX
  8
T15SSILL
 62
2
 10
1331.032
 20
-1995.743
 30
3684.963
 70
    32
  0
VERTEX
  8
T15SSILL
 62
2
 10
1335.837
 20
-2009.092
 30
3684.972
 70
    32
  0
VERTEX
  8
T15SSILL
 62
2
 10
1336.595
 20
-2015.058
 30
3684.982
 70
    32
  0
VERTEX
  8
T15SSILL
 62
2
 10
1345.293
 20
-2032.979
 30
3684.986
 70
    32
  0
VERTEX
  8
T15SSILL
 62
2
 10
1348.716
 20
-2043.721
 30
3684.995
 70
    32
  0
VERTEX
  8
T15SSILL
 62
2
 10
1348.652
 20
-2052.170
 30
3685.013
 70
    32
  0
VERTEX
  8
T15SSILL
 62
2
 10
1223.034
 20
-2142.800
 30
3685.662
 70
    32
  0
VERTEX
  8
T15SSILL
 62
2
 10
1220.345
 20
-2140.752
 30
3685.668
 70
    32
  0
VERTEX
  8
T15SSILL
 62
2
 10
1221.022
 20
-2124.809
 30
3685.645
 70
    32
  0
VERTEX
  8
T15SSILL
 62
2
 10
1235.572
 20
-2111.263
 30
3685.565
 70
    32
  0
VERTEX
  8
T15SSILL
 62
2
 10
1232.233
 20
-2092.951
 30
3685.540
 70
    32
  0
VERTEX
  8
T15SSILL
 62
2
 10
1228.806
 20
-2085.729
 30
3685.538
 70
    32
  0
VERTEX
  8
T15SSILL
 62
2
 10
1222.113
 20
-2085.536
 30
3685.563
 70
    32
  0
VERTEX
  8
T15SSILL
 62
2
 10
1212.047
 20
-2087.799
 30
3685.606
 70
    32
  0
VERTEX
  8
T15SSILL
 62
2
 10
1208.751
 20
-2086.117
 30
3685.615
 70
    32
  0
VERTEX
  8
T15SSILL
 62
2
 10
1206.017
 20
-2078.439
 30
3685.610
 70
    32
  0
VERTEX
  8
T15SSILL
 62
2
 10
1202.430
 20
-2045.965
 30
3685.556
 70
    32
  0
VERTEX
  8
T15SSILL
 62
2
 10
1196.831
 20
-2036.242
 30
3685.557
 70
    32
  0
VERTEX
  8
T15SSILL
 62
2
 10
1121.210
 20
-2090.485
 30
3685.917
 70
    32
  0
VERTEX
  8
T15SSILL
 62
2
 10
1108.099
 20
-2105.316
 30
3685.978
 70
    32
  0
VERTEX
  8
T15SSILL
 62
2
 10
1096.224
 20
-2061.072
 30
3685.958
 70
    32
  0
VERTEX
  8
T15SSILL
 62
2
 10
1096.496
 20
-2057.721
 30
3685.953
 70
    32
  0
VERTEX
  8
T15SSILL
 62
2
 10
1101.522
 20
-2050.738
 30
3685.928
 70
    32
  0
VERTEX
  8
T15SSILL
 62
2
 10
1129.204
 20
-2030.633
 30
3685.803
 70
    32
  0
VERTEX
  8
T15SSILL
 62
2
 10
1124.932
 20
-2024.927
 30
3685.807
 70
    32
  0
VERTEX
  8
T15SSILL
 62
2
 10
1092.229
 20
-2048.495
 30
3685.954
 70
    32
  0
VERTEX
  8
T15SSILL
 62
2
 10
1085.510
 20
-2050.855
 30
3685.979
 70
    32
  0
VERTEX
  8
T15SSILL
 62
2
 10
1102.489
 20
-2113.633
 30
3686.007
 70
    32
  0
VERTEX
  8
T15SSILL
 62
2
 10
1105.196
 20
-2116.473
 30
3686.002
 70
    32
  0
VERTEX
  8
T15SSILL
 62
2
 10
1107.289
 20
-2126.807
 30
3686.008
 70
    32
  0
VERTEX
  8
T15SSILL
 62
2
 10
1215.600
 20
-2400.281
 30
3686.021
 70
    32
  0
VERTEX
  8
T15SSILL
 62
2
 10
1215.480
 20
-2402.659
 30
3686.024
 70
    32
  0
VERTEX
  8
T15SSILL
 62
2
 10
1196.192
 20
-2416.757
 30
3686.103
 70
    32
  0
VERTEX
  8
T15SSILL
 62
2
 10
1184.983
 20
-2419.047
 30
3686.142
 70
    32
  0
VERTEX
  8
T15SSILL
 62
2
 10
1183.812
 20
-2425.323
 30
3686.154
 70
    32
  0
VERTEX
  8
T15SSILL
 62
2
 10
1112.096
 20
-2477.273
 30
3686.449
 70
    32
  0
VERTEX
  8
T15SSILL
 62
2
 10
1104.016
 20
-2474.209
 30
3686.470
 70
    32
  0
VERTEX
  8
T15SSILL
 62
2
 10
1099.085
 20
-2470.367
 30
3686.481
 70
    32
  0
VERTEX
  8
T15SSILL
 62
2
 10
1092.518
 20
-2475.451
 30
3686.508
 70
    32
  0
VERTEX
  8
T15SSILL
 62
2
 10
1089.262
 20
-2475.440
 30
3686.519
 70
    32
  0
VERTEX
  8
T15SSILL
 62
2
 10
1075.497
 20
-2455.352
 30
3686.536
 70
    32
  0
VERTEX
  8
T15SSILL
 62
2
 10
1056.216
 20
-2406.795
 30
3686.534
 70
    32
  0
VERTEX
  8
T15SSILL
 62
2
 10
1048.707
 20
-2398.174
 30
3686.547
 70
    32
  0
VERTEX
  8
T15SSILL
 62
2
 10
957.733
 20
-2165.471
 30
3686.533
 70
    32
  0
VERTEX
  8
T15SSILL
 62
2
 10
827.383
 20
-1986.590
 30
3686.713
 70
    32
  0
VERTEX
  8
T15SSILL
 62
2
 10
621.894
 20
-1697.034
 30
3686.988
 70
    32
  0
VERTEX
  8
T15SSILL
 62
2
 10
462.632
 20
-1477.311
 30
3687.192
 70
    32
  0
VERTEX
  8
T15SSILL
 62
2
 10
461.895
 20
-1466.000
 30
3687.171
 70
    32
  0
VERTEX
  8
T15SSILL
 62
2
 10
543.454
 20
-1406.007
 30
3686.736
 70
    32
  0
VERTEX
  8
T15SSILL
 62
2
 10
562.282
 20
-1402.522
 30
3686.658
 70
    32
  0
VERTEX
  8
T15SSILL
 62
2
 10
588.470
 20
-1380.727
 30
3686.513
 70
    32
  0
VERTEX
  8
T15SSILL
 62
2
 10
602.047
 20
-1365.363
 30
3686.429
 70
    32
  0
VERTEX
  8
T15SSILL
 62
2
 10
610.780
 20
-1358.772
 30
3686.383
 70
    32
  0
VERTEX
  8
T15SSILL
 62
2
 10
615.190
 20
-1357.234
 30
3686.363
 70
    32
  0
VERTEX
  8
T15SSILL
 62
2
 10
620.562
 20
-1352.041
 30
3686.331
 70
    32
  0
VERTEX
  8
T15SSILL
 62
2
 10
623.996
 20
-1345.009
 30
3686.304
 70
    32
  0
VERTEX
  8
T15SSILL
 62
2
 10
1020.743
 20
-1047.528
 30
3683.308
 70
    32
  0
VERTEX
  8
T15SSILL
 62
2
 10
1101.305
 20
-1093.320
 30
3683.286
 70
    32
  0
VERTEX
  8
T15SSILL
 62
2
 10
1101.766
 20
-1102.622
 30
3683.316
 70
    32
  0
VERTEX
  8
T15SSILL
 62
2
 10
1116.829
 20
-1111.903
 30
3683.293
 70
    32
  0
VERTEX
  8
T15SSILL
 62
2
 10
1112.272
 20
-1119.342
 30
3683.314
 70
    32
  0
VERTEX
  8
T15SSILL
 62
2
 10
1118.628
 20
-1123.337
 30
3683.291
 70
    32
  0
VERTEX
  8
T15SSILL
 62
2
 10
1123.168
 20
-1115.547
 30
3683.304
 70
    32
  0
VERTEX
  8
T15SSILL
 62
2
 10
1125.184
 20
-1120.725
 30
3683.306
 70
    32
  0
VERTEX
  8
T15SSILL
 62
2
 10
1146.238
 20
-1133.755
 30
3683.344
 70
    32
  0
VERTEX
  8
T15SSILL
 62
2
 10
1149.774
 20
-1134.107
 30
3683.351
 70
    32
  0
VERTEX
  8
T15SSILL
 62
2
 10
1171.308
 20
-1146.146
 30
3683.391
 70
    32
  0
VERTEX
  8
T15SSILL
 62
2
 10
1197.751
 20
-1156.093
 30
3683.441
 70
    32
  0
VERTEX
  8
T15SSILL
 62
2
 10
1258.487
 20
-1188.794
 30
3683.553
 70
    32
  0
VERTEX
  8
T15SSILL
 62
2
 10
1281.976
 20
-1203.023
 30
3683.595
 70
    32
  0
VERTEX
  8
T15SSILL
 62
2
 10
1290.854
 20
-1209.972
 30
3683.610
 70
    32
  0
VERTEX
  8
T15SSILL
 62
2
 10
1308.336
 20
-1225.466
 30
3683.639
 70
    32
  0
VERTEX
  8
T15SSILL
 62
2
 10
1316.633
 20
-1236.666
 30
3683.651
 70
    32
  0
VERTEX
  8
T15SSILL
 62
2
 10
1323.332
 20
-1249.353
 30
3683.659
 70
    32
  0
VERTEX
  8
T15SSILL
 62
2
 10
1329.126
 20
-1252.672
 30
3683.670
 70
    32
  0
VERTEX
  8
T15SSILL
 62
2
 10
1595.516
 20
-1845.434
 30
3683.947
 70
    32
  0
VERTEX
  8
T15SSILL
 62
2
 10
1553.191
 20
-1847.136
 30
3683.857
 70
    32
  0
VERTEX
  8
T15SSILL
 62
2
 10
1546.865
 20
-1846.563
 30
3683.844
 70
    32
  0
VERTEX
  8
T15SSILL
 62
2
 10
1545.106
 20
-1839.213
 30
3683.844
 70
    32
  0
VERTEX
  8
T15SSILL
 62
2
 10
1538.407
 20
-1842.452
 30
3683.829
 70
    32
  0
VERTEX
  8
T15SSILL
 62
2
 10
1542.741
 20
-1854.493
 30
3683.832
 70
    32
  0
VERTEX
  8
T15SSILL
 62
2
 10
1556.137
 20
-2144.214
 30
3684.343
 70
    32
  0
VERTEX
  8
T15SSILL
 62
2
 10
1560.174
 20
-2151.157
 30
3684.344
 70
    32
  0
VERTEX
  8
T15SSILL
 62
2
 10
1558.538
 20
-2156.388
 30
3684.372
 70
    32
  0
VERTEX
  8
T15SSILL
 62
2
 10
1546.447
 20
-2166.003
 30
3684.477
 70
    32
  0
SEQEND
  8
T15SSILL
  0
POLYLINE
  8
T15SSILL
 62
2
 66
     1
 70
     9
  0
VERTEX
  8
T15SSILL
 62
2
 10
1532.620
 20
-2584.054
 30
3685.255
 70
    32
  0
VERTEX
  8
T15SSILL
 62
2
 10
1543.155
 20
-2658.235
 30
3685.318
 70
    32
  0
VERTEX
  8
T15SSILL
 62
2
 10
1600.540
 20
-2825.490
 30
3685.353
 70
    32
  0
VERTEX
  8
T15SSILL
 62
2
 10
1603.121
 20
-2842.263
 30
3685.367
 70
    32
  0
VERTEX
  8
T15SSILL
 62
2
 10
1611.599
 20
-2852.014
 30
3685.353
 70
    32
  0
VERTEX
  8
T15SSILL
 62
2
 10
1626.104
 20
-2872.688
 30
3685.333
 70
    32
  0
VERTEX
  8
T15SSILL
 62
2
 10
1683.769
 20
-2832.479
 30
3685.099
 70
    32
  0
VERTEX
  8
T15SSILL
 62
2
 10
1713.541
 20
-2813.727
 30
3684.980
 70
    32
  0
VERTEX
  8
T15SSILL
 62
2
 10
1719.869
 20
-2805.995
 30
3684.950
 70
    32
  0
VERTEX
  8
T15SSILL
 62
2
 10
1723.127
 20
-2799.005
 30
3684.930
 70
    32
  0
VERTEX
  8
T15SSILL
 62
2
 10
1722.350
 20
-2793.031
 30
3684.925
 70
    32
  0
VERTEX
  8
T15SSILL
 62
2
 10
1663.347
 20
-2593.620
 30
3684.853
 70
    32
  0
VERTEX
  8
T15SSILL
 62
2
 10
1661.165
 20
-2590.680
 30
3684.856
 70
    32
  0
VERTEX
  8
T15SSILL
 62
2
 10
1651.022
 20
-2597.081
 30
3684.896
 70
    32
  0
VERTEX
  8
T15SSILL
 62
2
 10
1647.542
 20
-2591.355
 30
3684.900
 70
    32
  0
VERTEX
  8
T15SSILL
 62
2
 10
1657.941
 20
-2584.597
 30
3684.858
 70
    32
  0
VERTEX
  8
T15SSILL
 62
2
 10
1657.319
 20
-2580.652
 30
3684.855
 70
    32
  0
VERTEX
  8
T15SSILL
 62
2
 10
1639.082
 20
-2561.197
 30
3684.888
 70
    32
  0
VERTEX
  8
T15SSILL
 62
2
 10
1634.900
 20
-2551.881
 30
3684.889
 70
    32
  0
VERTEX
  8
T15SSILL
 62
2
 10
1611.588
 20
-2459.598
 30
3684.843
 70
    32
  0
VERTEX
  8
T15SSILL
 62
2
 10
1606.149
 20
-2445.472
 30
3684.842
 70
    32
  0
VERTEX
  8
T15SSILL
 62
2
 10
1598.789
 20
-2435.703
 30
3684.852
 70
    32
  0
VERTEX
  8
T15SSILL
 62
2
 10
1593.433
 20
-2425.094
 30
3684.854
 70
    32
  0
VERTEX
  8
T15SSILL
 62
2
 10
1570.382
 20
-2388.243
 30
3684.866
 70
    32
  0
VERTEX
  8
T15SSILL
 62
2
 10
1560.034
 20
-2300.844
 30
3684.724
 70
    32
  0
VERTEX
  8
T15SSILL
 62
2
 10
1512.204
 20
-2327.532
 30
3684.961
 70
    32
  0
VERTEX
  8
T15SSILL
 62
2
 10
1511.061
 20
-2325.099
 30
3684.961
 70
    32
  0
VERTEX
  8
T15SSILL
 62
2
 10
1484.081
 20
-2311.448
 30
3685.035
 70
    32
  0
VERTEX
  8
T15SSILL
 62
2
 10
1491.009
 20
-2317.883
 30
3685.022
 70
    32
  0
VERTEX
  8
T15SSILL
 62
2
 10
1497.611
 20
-2321.686
 30
3685.005
 70
    32
  0
VERTEX
  8
T15SSILL
 62
2
 10
1511.089
 20
-2348.205
 30
3685.008
 70
    32
  0
VERTEX
  8
T15SSILL
 62
2
 10
1510.743
 20
-2352.173
 30
3685.018
 70
    32
  0
VERTEX
  8
T15SSILL
 62
2
 10
1507.941
 20
-2356.464
 30
3685.037
 70
    32
  0
VERTEX
  8
T15SSILL
 62
2
 10
1508.238
 20
-2361.561
 30
3685.043
 70
    32
  0
VERTEX
  8
T15SSILL
 62
2
 10
1520.952
 20
-2381.850
 30
3685.029
 70
    32
  0
VERTEX
  8
T15SSILL
 62
2
 10
1521.869
 20
-2387.108
 30
3685.033
 70
    32
  0
VERTEX
  8
T15SSILL
 62
2
 10
1520.340
 20
-2389.432
 30
3685.041
 70
    32
  0
VERTEX
  8
T15SSILL
 62
2
 10
1518.072
 20
-2390.278
 30
3685.049
 70
    32
  0
VERTEX
  8
T15SSILL
 62
2
 10
1514.486
 20
-2387.459
 30
3685.057
 70
    32
  0
VERTEX
  8
T15SSILL
 62
2
 10
1508.212
 20
-2378.985
 30
3685.066
 70
    32
  0
VERTEX
  8
T15SSILL
 62
2
 10
1501.120
 20
-2376.777
 30
3685.085
 70
    32
  0
VERTEX
  8
T15SSILL
 62
2
 10
1496.430
 20
-2379.353
 30
3685.103
 70
    32
  0
VERTEX
  8
T15SSILL
 62
2
 10
1491.297
 20
-2389.242
 30
3685.133
 70
    32
  0
VERTEX
  8
T15SSILL
 62
2
 10
1488.536
 20
-2402.683
 30
3685.159
 70
    32
  0
VERTEX
  8
T15SSILL
 62
2
 10
1489.137
 20
-2405.749
 30
3685.161
 70
    32
  0
VERTEX
  8
T15SSILL
 62
2
 10
1511.781
 20
-2443.361
 30
3685.138
 70
    32
  0
VERTEX
  8
T15SSILL
 62
2
 10
1520.752
 20
-2442.716
 30
3685.109
 70
    32
  0
VERTEX
  8
T15SSILL
 62
2
 10
1521.108
 20
-2450.534
 30
3685.118
 70
    32
  0
VERTEX
  8
T15SSILL
 62
2
 10
1513.252
 20
-2451.325
 30
3685.144
 70
    32
  0
VERTEX
  8
T15SSILL
 62
2
 10
1517.169
 20
-2485.601
 30
3685.176
 70
    32
  0
VERTEX
  8
T15SSILL
 62
2
 10
1523.091
 20
-2520.043
 30
3685.202
 70
    32
  0
SEQEND
  8
T15SSILL
  0
POLYLINE
  8
T15SSILL
 62
2
 66
     1
 70
     9
  0
VERTEX
  8
T15SSILL
 62
2
 10
1651.668
 20
-2198.350
 30
3683.974
 70
    32
  0
VERTEX
  8
T15SSILL
 62
2
 10
1641.251
 20
-2189.534
 30
3684.004
 70
    32
  0
VERTEX
  8
T15SSILL
 62
2
 10
1634.503
 20
-2175.879
 30
3683.995
 70
    32
  0
VERTEX
  8
T15SSILL
 62
2
 10
1606.005
 20
-2139.421
 30
3684.033
 70
    32
  0
VERTEX
  8
T15SSILL
 62
2
 10
1600.408
 20
-2137.178
 30
3684.058
 70
    32
  0
VERTEX
  8
T15SSILL
 62
2
 10
1599.085
 20
-2137.033
 30
3684.065
 70
    32
  0
VERTEX
  8
T15SSILL
 62
2
 10
1580.054
 20
-2150.861
 30
3684.226
 70
    32
  0
VERTEX
  8
T15SSILL
 62
2
 10
1579.582
 20
-2160.640
 30
3684.263
 70
    32
  0
VERTEX
  8
T15SSILL
 62
2
 10
1585.413
 20
-2172.733
 30
3684.272
 70
    32
  0
VERTEX
  8
T15SSILL
 62
2
 10
1585.145
 20
-2179.955
 30
3684.299
 70
    32
  0
VERTEX
  8
T15SSILL
 62
2
 10
1581.535
 20
-2179.865
 30
3684.320
 70
    32
  0
VERTEX
  8
T15SSILL
 62
2
 10
1577.408
 20
-2176.531
 30
3684.332
 70
    32
  0
VERTEX
  8
T15SSILL
 62
2
 10
1569.154
 20
-2162.472
 30
3684.331
 70
    32
  0
VERTEX
  8
T15SSILL
 62
2
 10
1566.133
 20
-2161.224
 30
3684.344
 70
    32
  0
VERTEX
  8
T15SSILL
 62
2
 10
1552.890
 20
-2170.514
 30
3684.455
 70
    32
  0
VERTEX
  8
T15SSILL
 62
2
 10
1550.666
 20
-2176.903
 30
3684.491
 70
    32
  0
VERTEX
  8
T15SSILL
 62
2
 10
1550.519
 20
-2181.834
 30
3684.509
 70
    32
  0
VERTEX
  8
T15SSILL
 62
2
 10
1554.354
 20
-2195.118
 30
3684.527
 70
    32
  0
VERTEX
  8
T15SSILL
 62
2
 10
1557.565
 20
-2220.887
 30
3684.568
 70
    32
  0
VERTEX
  8
T15SSILL
 62
2
 10
1563.030
 20
-2220.251
 30
3684.546
 70
    32
  0
VERTEX
  8
T15SSILL
 62
2
 10
1563.874
 20
-2228.913
 30
3684.560
 70
    32
  0
VERTEX
  8
T15SSILL
 62
2
 10
1578.194
 20
-2242.950
 30
3684.535
 70
    32
  0
VERTEX
  8
T15SSILL
 62
2
 10
1586.710
 20
-2238.436
 30
3684.493
 70
    32
  0
VERTEX
  8
T15SSILL
 62
2
 10
1588.488
 20
-2239.186
 30
3684.488
 70
    32
  0
VERTEX
  8
T15SSILL
 62
2
 10
1627.164
 20
-2278.130
 30
3684.401
 70
    32
  0
VERTEX
  8
T15SSILL
 62
2
 10
1639.101
 20
-2295.358
 30
3684.392
 70
    32
  0
VERTEX
  8
T15SSILL
 62
2
 10
1642.304
 20
-2307.953
 30
3684.418
 70
    32
  0
VERTEX
  8
T15SSILL
 62
2
 10
1641.412
 20
-2311.142
 30
3684.434
 70
    32
  0
VERTEX
  8
T15SSILL
 62
2
 10
1667.505
 20
-2324.162
 30
3684.327
 70
    32
  0
VERTEX
  8
T15SSILL
 62
2
 10
1695.124
 20
-2375.512
 30
3684.347
 70
    32
  0
VERTEX
  8
T15SSILL
 62
2
 10
1668.391
 20
-2394.802
 30
3684.507
 70
    32
  0
VERTEX
  8
T15SSILL
 62
2
 10
1667.375
 20
-2396.498
 30
3684.514
 70
    32
  0
VERTEX
  8
T15SSILL
 62
2
 10
1672.131
 20
-2404.041
 30
3684.512
 70
    32
  0
VERTEX
  8
T15SSILL
 62
2
 10
1668.889
 20
-2408.342
 30
3684.533
 70
    32
  0
VERTEX
  8
T15SSILL
 62
2
 10
1658.018
 20
-2417.488
 30
3684.593
 70
    32
  0
VERTEX
  8
T15SSILL
 62
2
 10
1658.196
 20
-2421.268
 30
3684.600
 70
    32
  0
VERTEX
  8
T15SSILL
 62
2
 10
1660.973
 20
-2427.010
 30
3684.602
 70
    32
  0
VERTEX
  8
T15SSILL
 62
2
 10
1665.835
 20
-2431.646
 30
3684.593
 70
    32
  0
VERTEX
  8
T15SSILL
 62
2
 10
1694.812
 20
-2410.542
 30
3684.439
 70
    32
  0
VERTEX
  8
T15SSILL
 62
2
 10
1704.646
 20
-2424.031
 30
3684.429
 70
    32
  0
VERTEX
  8
T15SSILL
 62
2
 10
1731.473
 20
-2404.515
 30
3684.237
 70
    32
  0
VERTEX
  8
T15SSILL
 62
2
 10
1737.119
 20
-2407.858
 30
3684.215
 70
    32
  0
VERTEX
  8
T15SSILL
 62
2
 10
1708.368
 20
-2428.988
 30
3684.425
 70
    32
  0
VERTEX
  8
T15SSILL
 62
2
 10
1715.912
 20
-2439.344
 30
3684.418
 70
    32
  0
VERTEX
  8
T15SSILL
 62
2
 10
1710.551
 20
-2443.343
 30
3684.447
 70
    32
  0
VERTEX
  8
T15SSILL
 62
2
 10
1733.064
 20
-2468.679
 30
3684.414
 70
    32
  0
VERTEX
  8
T15SSILL
 62
2
 10
1733.181
 20
-2473.604
 30
3684.423
 70
    32
  0
VERTEX
  8
T15SSILL
 62
2
 10
1738.081
 20
-2483.520
 30
3684.425
 70
    32
  0
VERTEX
  8
T15SSILL
 62
2
 10
1745.246
 20
-2485.109
 30
3684.401
 70
    32
  0
VERTEX
  8
T15SSILL
 62
2
 10
1748.025
 20
-2487.243
 30
3684.395
 70
    32
  0
VERTEX
  8
T15SSILL
 62
2
 10
1750.397
 20
-2494.491
 30
3684.401
 70
    32
  0
VERTEX
  8
T15SSILL
 62
2
 10
1749.570
 20
-2496.710
 30
3684.409
 70
    32
  0
VERTEX
  8
T15SSILL
 62
2
 10
1742.812
 20
-2501.183
 30
3684.444
 70
    32
  0
VERTEX
  8
T15SSILL
 62
2
 10
1752.907
 20
-2514.934
 30
3684.434
 70
    32
  0
VERTEX
  8
T15SSILL
 62
2
 10
1881.231
 20
-2423.360
 30
3684.262
 70
    32
  0
VERTEX
  8
T15SSILL
 62
2
 10
1884.253
 20
-2420.913
 30
3684.264
 70
    32
  0
VERTEX
  8
T15SSILL
 62
2
 10
1885.936
 20
-2417.705
 30
3684.266
 70
    32
  0
VERTEX
  8
T15SSILL
 62
2
 10
1886.098
 20
-2413.389
 30
3684.267
 70
    32
  0
VERTEX
  8
T15SSILL
 62
2
 10
1878.868
 20
-2397.985
 30
3684.269
 70
    32
  0
VERTEX
  8
T15SSILL
 62
2
 10
1883.464
 20
-2395.148
 30
3684.271
 70
    32
  0
VERTEX
  8
T15SSILL
 62
2
 10
1712.321
 20
-2076.844
 30
3684.081
 70
    32
  0
VERTEX
  8
T15SSILL
 62
2
 10
1708.548
 20
-2074.330
 30
3684.075
 70
    32
  0
VERTEX
  8
T15SSILL
 62
2
 10
1687.898
 20
-2073.677
 30
3684.032
 70
    32
  0
VERTEX
  8
T15SSILL
 62
2
 10
1612.166
 20
-2128.363
 30
3683.958
 70
    32
  0
VERTEX
  8
T15SSILL
 62
2
 10
1613.355
 20
-2137.662
 30
3683.984
 70
    32
  0
VERTEX
  8
T15SSILL
 62
2
 10
1627.715
 20
-2153.161
 30
3683.954
 70
    32
  0
VERTEX
  8
T15SSILL
 62
2
 10
1641.212
 20
-2173.079
 30
3683.946
 70
    32
  0
VERTEX
  8
T15SSILL
 62
2
 10
1645.521
 20
-2176.673
 30
3683.933
 70
    32
  0
VERTEX
  8
T15SSILL
 62
2
 10
1658.241
 20
-2193.530
 30
3683.918
 70
    32
  0
VERTEX
  8
T15SSILL
 62
2
 10
1673.591
 20
-2209.973
 30
3683.938
 70
    32
  0
VERTEX
  8
T15SSILL
 62
2
 10
1681.929
 20
-2223.854
 30
3683.949
 70
    32
  0
VERTEX
  8
T15SSILL
 62
2
 10
1680.197
 20
-2228.735
 30
3683.943
 70
    32
  0
VERTEX
  8
T15SSILL
 62
2
 10
1675.883
 20
-2228.662
 30
3683.939
 70
    32
  0
VERTEX
  8
T15SSILL
 62
2
 10
1673.756
 20
-2224.312
 30
3683.936
 70
    32
  0
VERTEX
  8
T15SSILL
 62
2
 10
1658.791
 20
-2205.573
 30
3683.958
 70
    32
  0
SEQEND
  8
T15SSILL
  0
POLYLINE
  8
T15SSILL
 62
2
 66
     1
 70
     9
  0
VERTEX
  8
T15SSILL
 62
2
 10
1691.850
 20
-2052.552
 30
3684.050
 70
    32
  0
VERTEX
  8
T15SSILL
 62
2
 10
1692.769
 20
-2045.562
 30
3684.055
 70
    32
  0
VERTEX
  8
T15SSILL
 62
2
 10
1691.809
 20
-2039.705
 30
3684.056
 70
    32
  0
VERTEX
  8
T15SSILL
 62
2
 10
1688.752
 20
-2032.221
 30
3684.053
 70
    32
  0
VERTEX
  8
T15SSILL
 62
2
 10
1599.564
 20
-1854.248
 30
3683.951
 70
    32
  0
VERTEX
  8
T15SSILL
 62
2
 10
1556.403
 20
-1855.290
 30
3683.860
 70
    32
  0
VERTEX
  8
T15SSILL
 62
2
 10
1549.603
 20
-1854.418
 30
3683.846
 70
    32
  0
VERTEX
  8
T15SSILL
 62
2
 10
1562.410
 20
-2141.601
 30
3684.297
 70
    32
  0
VERTEX
  8
T15SSILL
 62
2
 10
1569.214
 20
-2146.455
 30
3684.274
 70
    32
  0
VERTEX
  8
T15SSILL
 62
2
 10
1572.935
 20
-2147.510
 30
3684.256
 70
    32
  0
VERTEX
  8
T15SSILL
 62
2
 10
1684.891
 20
-2067.061
 30
3684.029
 70
    32
  0
VERTEX
  8
T15SSILL
 62
2
 10
1690.799
 20
-2056.449
 30
3684.046
 70
    32
  0
SEQEND
  8
T15SSILL
  0
POLYLINE
  8
T15SSILL
 62
2
 66
     1
 70
     9
  0
VERTEX
  8
T15SSILL
 62
2
 10
1145.595
 20
-2198.318
 30
3685.980
 70
    32
  0
VERTEX
  8
T15SSILL
 62
2
 10
1205.980
 20
-2154.645
 30
3685.732
 70
    32
  0
VERTEX
  8
T15SSILL
 62
2
 10
1204.751
 20
-2143.675
 30
3685.722
 70
    32
  0
VERTEX
  8
T15SSILL
 62
2
 10
1202.578
 20
-2141.086
 30
3685.725
 70
    32
  0
VERTEX
  8
T15SSILL
 62
2
 10
1200.092
 20
-2140.177
 30
3685.732
 70
    32
  0
VERTEX
  8
T15SSILL
 62
2
 10
1196.155
 20
-2141.151
 30
3685.746
 70
    32
  0
VERTEX
  8
T15SSILL
 62
2
 10
1184.836
 20
-2150.046
 30
3685.778
 70
    32
  0
VERTEX
  8
T15SSILL
 62
2
 10
1175.352
 20
-2135.925
 30
3685.805
 70
    32
  0
VERTEX
  8
T15SSILL
 62
2
 10
1131.655
 20
-2167.147
 30
3685.984
 70
    32
  0
VERTEX
  8
T15SSILL
 62
2
 10
1133.121
 20
-2173.272
 30
3685.987
 70
    32
  0
SEQEND
  8
T15SSILL
  0
POLYLINE
  8
T15SSILL
 62
2
 66
     1
 70
     9
  0
VERTEX
  8
T15SSILL
 62
2
 10
1169.596
 20
-2123.302
 30
3685.806
 70
    32
  0
VERTEX
  8
T15SSILL
 62
2
 10
1165.637
 20
-2119.613
 30
3685.814
 70
    32
  0
VERTEX
  8
T15SSILL
 62
2
 10
1164.602
 20
-2116.821
 30
3685.814
 70
    32
  0
VERTEX
  8
T15SSILL
 62
2
 10
1165.430
 20
-2110.906
 30
3685.804
 70
    32
  0
VERTEX
  8
T15SSILL
 62
2
 10
1151.027
 20
-2086.169
 30
3685.817
 70
    32
  0
VERTEX
  8
T15SSILL
 62
2
 10
1144.824
 20
-2084.380
 30
3685.834
 70
    32
  0
VERTEX
  8
T15SSILL
 62
2
 10
1141.844
 20
-2084.891
 30
3685.845
 70
    32
  0
VERTEX
  8
T15SSILL
 62
2
 10
1124.979
 20
-2097.259
 30
3685.914
 70
    32
  0
VERTEX
  8
T15SSILL
 62
2
 10
1113.530
 20
-2111.699
 30
3685.969
 70
    32
  0
VERTEX
  8
T15SSILL
 62
2
 10
1111.817
 20
-2117.371
 30
3685.982
 70
    32
  0
VERTEX
  8
T15SSILL
 62
2
 10
1128.475
 20
-2159.214
 30
3685.983
 70
    32
  0
VERTEX
  8
T15SSILL
 62
2
 10
1131.097
 20
-2158.448
 30
3685.974
 70
    32
  0
VERTEX
  8
T15SSILL
 62
2
 10
1165.096
 20
-2133.881
 30
3685.834
 70
    32
  0
VERTEX
  8
T15SSILL
 62
2
 10
1170.195
 20
-2129.976
 30
3685.813
 70
    32
  0
VERTEX
  8
T15SSILL
 62
2
 10
1171.956
 20
-2126.326
 30
3685.803
 70
    32
  0
SEQEND
  8
T15SSILL
  0
POLYLINE
  8
T15SSILL
 62
2
 66
     1
 70
     9
  0
VERTEX
  8
T15SSILL
 62
2
 10
1162.165
 20
-2069.801
 30
3685.759
 70
    32
  0
VERTEX
  8
T15SSILL
 62
2
 10
1154.461
 20
-2075.176
 30
3685.792
 70
    32
  0
VERTEX
  8
T15SSILL
 62
2
 10
1154.348
 20
-2081.514
 30
3685.801
 70
    32
  0
VERTEX
  8
T15SSILL
 62
2
 10
1167.468
 20
-2096.690
 30
3685.779
 70
    32
  0
VERTEX
  8
T15SSILL
 62
2
 10
1170.021
 20
-2096.717
 30
3685.771
 70
    32
  0
VERTEX
  8
T15SSILL
 62
2
 10
1176.116
 20
-2094.020
 30
3685.748
 70
    32
  0
VERTEX
  8
T15SSILL
 62
2
 10
1194.818
 20
-2092.256
 30
3685.681
 70
    32
  0
VERTEX
  8
T15SSILL
 62
2
 10
1198.436
 20
-2089.002
 30
3685.660
 70
    32
  0
VERTEX
  8
T15SSILL
 62
2
 10
1199.955
 20
-2075.151
 30
3685.626
 70
    32
  0
VERTEX
  8
T15SSILL
 62
2
 10
1198.020
 20
-2049.237
 30
3685.580
 70
    32
  0
VERTEX
  8
T15SSILL
 62
2
 10
1195.348
 20
-2047.893
 30
3685.587
 70
    32
  0
VERTEX
  8
T15SSILL
 62
2
 10
1190.033
 20
-2050.131
 30
3685.612
 70
    32
  0
SEQEND
  8
T15SSILL
  0
POLYLINE
  8
T15SSILL
 62
2
 66
     1
 70
     9
  0
VERTEX
  8
T15SSILL
 62
2
 10
463.955
 20
-1449.009
 30
3687.128
 70
    32
  0
VERTEX
  8
T15SSILL
 62
2
 10
462.631
 20
-1447.139
 30
3687.129
 70
    32
  0
VERTEX
  8
T15SSILL
 62
2
 10
440.795
 20
-1446.727
 30
3687.211
 70
    32
  0
VERTEX
  8
T15SSILL
 62
2
 10
442.300
 20
-1457.560
 30
3687.228
 70
    32
  0
VERTEX
  8
T15SSILL
 62
2
 10
448.908
 20
-1466.645
 30
3687.222
 70
    32
  0
VERTEX
  8
T15SSILL
 62
2
 10
467.599
 20
-1453.314
 30
3687.123
 70
    32
  0
SEQEND
  8
T15SSILL
  0
POLYLINE
  8
T15SSILL
 62
2
 66
     1
 70
     9
  0
VERTEX
  8
T15SSILL
 62
2
 10
1663.630
 20
-857.777
 30
3684.555
 70
    32
  0
VERTEX
  8
T15SSILL
 62
2
 10
1655.082
 20
-877.342
 30
3684.528
 70
    32
  0
VERTEX
  8
T15SSILL
 62
2
 10
1525.543
 20
-1019.141
 30
3684.191
 70
    32
  0
VERTEX
  8
T15SSILL
 62
2
 10
1541.406
 20
-946.103
 30
3684.258
 70
    32
  0
VERTEX
  8
T15SSILL
 62
2
 10
1556.500
 20
-885.993
 30
3684.318
 70
    32
  0
VERTEX
  8
T15SSILL
 62
2
 10
1563.249
 20
-872.414
 30
3684.339
 70
    32
  0
VERTEX
  8
T15SSILL
 62
2
 10
1573.022
 20
-863.732
 30
3684.363
 70
    32
  0
VERTEX
  8
T15SSILL
 62
2
 10
1579.672
 20
-860.343
 30
3684.379
 70
    32
  0
VERTEX
  8
T15SSILL
 62
2
 10
1599.934
 20
-856.325
 30
3684.423
 70
    32
  0
VERTEX
  8
T15SSILL
 62
2
 10
1660.580
 20
-849.279
 30
3684.553
 70
    32
  0
SEQEND
  8
T15SSILL
  0
POLYLINE
  8
T15SSILL
 62
2
 66
     1
 70
     9
  0
VERTEX
  8
T15SSILL
 62
2
 10
2146.123
 20
-4607.757
 30
3685.994
 70
    32
  0
VERTEX
  8
T15SSILL
 62
2
 10
2149.163
 20
-4610.014
 30
3685.993
 70
    32
  0
VERTEX
  8
T15SSILL
 62
2
 10
2152.908
 20
-4617.040
 30
3685.993
 70
    32
  0
VERTEX
  8
T15SSILL
 62
2
 10
2172.732
 20
-4616.438
 30
3685.987
 70
    32
  0
VERTEX
  8
T15SSILL
 62
2
 10
2172.268
 20
-4560.600
 30
3685.971
 70
    32
  0
VERTEX
  8
T15SSILL
 62
2
 10
2125.922
 20
-4562.033
 30
3685.947
 70
    32
  0
VERTEX
  8
T15SSILL
 62
2
 10
2125.540
 20
-4606.496
 30
3686.003
 70
    32
  0
VERTEX
  8
T15SSILL
 62
2
 10
2143.149
 20
-4606.645
 30
3685.995
 70
    32
  0
SEQEND
  8
T15SSILL
  0
POLYLINE
  8
T15SSILL
 62
2
 66
     1
 70
     9
  0
VERTEX
  8
T15SSILL
 62
2
 10
1418.401
 20
-2788.126
 30
3685.882
 70
    32
  0
VERTEX
  8
T15SSILL
 62
2
 10
1412.112
 20
-2793.116
 30
3685.907
 70
    32
  0
VERTEX
  8
T15SSILL
 62
2
 10
1407.876
 20
-2790.806
 30
3685.919
 70
    32
  0
VERTEX
  8
T15SSILL
 62
2
 10
1405.975
 20
-2787.312
 30
3685.920
 70
    32
  0
VERTEX
  8
T15SSILL
 62
2
 10
1412.090
 20
-2782.836
 30
3685.895
 70
    32
  0
VERTEX
  8
T15SSILL
 62
2
 10
1415.494
 20
-2787.810
 30
3685.891
 70
    32
  0
VERTEX
  8
T15SSILL
 62
2
 10
1430.150
 20
-2777.601
 30
3685.831
 70
    32
  0
VERTEX
  8
T15SSILL
 62
2
 10
1419.067
 20
-2763.395
 30
3685.848
 70
    32
  0
VERTEX
  8
T15SSILL
 62
2
 10
1428.695
 20
-2773.747
 30
3685.831
 70
    32
  0
VERTEX
  8
T15SSILL
 62
2
 10
1430.943
 20
-2777.679
 30
3685.828
 70
    32
  0
VERTEX
  8
T15SSILL
 62
2
 10
1428.776
 20
-2780.345
 30
3685.839
 70
    32
  0
SEQEND
  8
T15SSILL
  0
POLYLINE
  8
T15SSILL
 62
3
 66
     1
 70
     9
  0
VERTEX
  8
T15SSILL
 62
3
 10
-1465.434
 20
-1208.764
 30
3702.666
 70
    32
  0
VERTEX
  8
T15SSILL
 62
3
 10
-1478.233
 20
-1206.283
 30
3704.640
 70
    32
  0
VERTEX
  8
T15SSILL
 62
3
 10
-1473.036
 20
-1195.681
 30
3704.559
 70
    32
  0
VERTEX
  8
T15SSILL
 62
3
 10
-1459.264
 20
-1196.545
 30
3702.062
 70
    32
  0
SEQEND
  8
T15SSILL
  0
POLYLINE
  8
T15SSILL
 62
3
 66
     1
 70
     9
  0
VERTEX
  8
T15SSILL
 62
3
 10
-1341.821
 20
-1308.452
 30
3694.222
 70
    32
  0
VERTEX
  8
T15SSILL
 62
3
 10
-1331.459
 20
-1327.565
 30
3694.188
 70
    32
  0
VERTEX
  8
T15SSILL
 62
3
 10
-1340.285
 20
-1342.257
 30
3693.337
 70
    32
  0
VERTEX
  8
T15SSILL
 62
3
 10
-1343.992
 20
-1328.735
 30
3693.774
 70
    32
  0
SEQEND
  8
T15SSILL
  0
POLYLINE
  8
T15SSILL
 62
3
 66
     1
 70
     9
  0
VERTEX
  8
T15SSILL
 62
3
 10
-416.121
 20
-826.380
 30
3690.566
 70
    32
  0
VERTEX
  8
T15SSILL
 62
3
 10
-412.707
 20
-799.050
 30
3694.779
 70
    32
  0
VERTEX
  8
T15SSILL
 62
3
 10
-401.320
 20
-805.093
 30
3693.855
 70
    32
  0
VERTEX
  8
T15SSILL
 62
3
 10
-403.122
 20
-836.669
 30
3689.830
 70
    32
  0
SEQEND
  8
T15SSILL
  0
POLYLINE
  8
T15SSILL
 62
3
 66
     1
 70
     9
  0
VERTEX
  8
T15SSILL
 62
3
 10
-854.774
 20
-296.542
 30
3689.840
 70
    32
  0
VERTEX
  8
T15SSILL
 62
3
 10
-851.678
 20
-302.500
 30
3692.485
 70
    32
  0
VERTEX
  8
T15SSILL
 62
3
 10
-841.843
 20
-306.992
 30
3695.408
 70
    32
  0
VERTEX
  8
T15SSILL
 62
3
 10
-844.328
 20
-318.882
 30
3695.875
 70
    32
  0
VERTEX
  8
T15SSILL
 62
3
 10
-860.070
 20
-315.220
 30
3691.241
 70
    32
  0
VERTEX
  8
T15SSILL
 62
3
 10
-870.011
 20
-318.400
 30
3690.242
 70
    32
  0
SEQEND
  8
T15SSILL
  0
POLYLINE
  8
T15SSILL
 62
3
 66
     1
 70
     9
  0
VERTEX
  8
T15SSILL
 62
3
 10
-888.429
 20
-50.494
 30
3693.540
 70
    32
  0
VERTEX
  8
T15SSILL
 62
3
 10
-904.823
 20
-38.582
 30
3692.046
 70
    32
  0
VERTEX
  8
T15SSILL
 62
3
 10
-892.796
 20
-32.573
 30
3692.476
 70
    32
  0
VERTEX
  8
T15SSILL
 62
3
 10
-872.479
 20
-47.177
 30
3693.781
 70
    32
  0
SEQEND
  8
T15SSILL
  0
TEXT
  8
T15SSILL
 62
2
 10
-981.030
 20
-2790.050
 30
3686.142
 40
0.200
  1
1550
 50
-115.730
 41
 1.0 
  0
TEXT
  8
T15SSILL
 62
3
 10
-1470.715
 20
-1205.037
 30
3704.783
 40
0.200
  1
U
 41
 1.0 
  0
TEXT
  8
T15SSILL
 62
3
 10
-1340.232
 20
-1330.605
 30
3693.560
 40
0.200
  1
D
 41
 1.0 
  0
TEXT
  8
T15SSILL
 62
3
 10
-409.537
 20
-819.859
 30
3689.582
 40
0.200
  1
U
 41
 1.0 
  0
TEXT
  8
T15SSILL
 62
3
 10
-853.486
 20
-312.503
 30
3690.831
 40
0.200
  1
U
 41
 1.0 
  0
TEXT
  8
T15SSILL
 62
3
 10
-893.300
 20
-43.473
 30
3692.784
 40
0.200
  1
D
 41
 1.0 
  0
POLYLINE
  8
T15SSILL
 62
1
 66
     1
 70
     9
  0
VERTEX
  8
T15SSILL
 62
1
 10
-336.368
 20
-1055.133
 30
3691.313
 70
    32
  0
VERTEX
  8
T15SSILL
 62
1
 10
-336.368
 20
-1055.133
 30
3691.313
 70
    32
  0
VERTEX
  8
T15SSILL
 62
1
 10
-336.368
 20
-1055.133
 30
3691.313
 70
    32
  0
SEQEND
  8
T15SSILL
  0
POLYLINE
  8
T15SSILL
 62
3
 66
     1
 70
     9
  0
VERTEX
  8
T15SSILL
 62
3
 10
-336.542
 20
-1054.745
 30
3691.319
 70
    32
  0
VERTEX
  8
T15SSILL
 62
3
 10
-329.733
 20
-1052.077
 30
3691.271
 70
    32
  0
VERTEX
  8
T15SSILL
 62
3
 10
-321.637
 20
-1067.034
 30
3695.354
 70
    32
  0
VERTEX
  8
T15SSILL
 62
3
 10
-328.672
 20
-1070.342
 30
3695.384
 70
    32
  0
SEQEND
  8
T15SSILL
  0
TEXT
  8
T15SSILL
 62
3
 10
-339.512
 20
-1066.056
 30
3695.384
 40
8.202
  1
U
 41
 1.0 
  0
POLYLINE
  8
T15SSILL
 62
2
 66
     1
 70
     9
  0
VERTEX
  8
T15SSILL
 62
2
 10
595.788
 20
-2602.001
 30
3688.361
 70
    32
  0
VERTEX
  8
T15SSILL
 62
2
 10
670.285
 20
-2548.576
 30
3688.026
 70
    32
  0
VERTEX
  8
T15SSILL
 62
2
 10
673.553
 20
-2549.115
 30
3688.015
 70
    32
  0
VERTEX
  8
T15SSILL
 62
2
 10
675.469
 20
-2551.973
 30
3688.013
 70
    32
  0
VERTEX
  8
T15SSILL
 62
2
 10
676.581
 20
-2554.323
 30
3688.012
 70
    32
  0
VERTEX
  8
T15SSILL
 62
2
 10
675.687
 20
-2561.120
 30
3688.025
 70
    32
  0
VERTEX
  8
T15SSILL
 62
2
 10
662.799
 20
-2585.361
 30
3688.105
 70
    32
  0
VERTEX
  8
T15SSILL
 62
2
 10
663.697
 20
-2589.828
 30
3688.109
 70
    32
  0
VERTEX
  8
T15SSILL
 62
2
 10
671.190
 20
-2593.270
 30
3688.088
 70
    32
  0
VERTEX
  8
T15SSILL
 62
2
 10
673.328
 20
-2647.054
 30
3688.159
 70
    32
  0
VERTEX
  8
T15SSILL
 62
2
 10
670.226
 20
-2661.808
 30
3688.191
 70
    32
  0
VERTEX
  8
T15SSILL
 62
2
 10
663.929
 20
-2664.564
 30
3688.217
 70
    32
  0
VERTEX
  8
T15SSILL
 62
2
 10
663.031
 20
-2669.886
 30
3688.228
 70
    32
  0
VERTEX
  8
T15SSILL
 62
2
 10
636.594
 20
-2688.184
 30
3688.346
 70
    32
  0
VERTEX
  8
T15SSILL
 62
2
 10
642.480
 20
-2694.062
 30
3688.334
 70
    32
  0
VERTEX
  8
T15SSILL
 62
2
 10
666.908
 20
-2675.691
 30
3688.223
 70
    32
  0
VERTEX
  8
T15SSILL
 62
2
 10
670.277
 20
-2670.519
 30
3688.204
 70
    32
  0
VERTEX
  8
T15SSILL
 62
2
 10
675.915
 20
-2666.825
 30
3688.179
 70
    32
  0
VERTEX
  8
T15SSILL
 62
2
 10
680.703
 20
-2644.776
 30
3688.130
 70
    32
  0
VERTEX
  8
T15SSILL
 62
2
 10
679.825
 20
-2625.806
 30
3688.106
 70
    32
  0
VERTEX
  8
T15SSILL
 62
2
 10
682.314
 20
-2622.523
 30
3688.092
 70
    32
  0
VERTEX
  8
T15SSILL
 62
2
 10
695.309
 20
-2616.620
 30
3688.039
 70
    32
  0
VERTEX
  8
T15SSILL
 62
2
 10
696.565
 20
-2613.950
 30
3688.030
 70
    32
  0
VERTEX
  8
T15SSILL
 62
2
 10
695.788
 20
-2610.889
 30
3688.029
 70
    32
  0
VERTEX
  8
T15SSILL
 62
2
 10
680.706
 20
-2590.920
 30
3688.052
 70
    32
  0
VERTEX
  8
T15SSILL
 62
2
 10
678.805
 20
-2584.981
 30
3688.050
 70
    32
  0
VERTEX
  8
T15SSILL
 62
2
 10
679.371
 20
-2571.768
 30
3688.028
 70
    32
  0
VERTEX
  8
T15SSILL
 62
2
 10
683.189
 20
-2558.390
 30
3687.996
 70
    32
  0
VERTEX
  8
T15SSILL
 62
2
 10
683.406
 20
-2541.577
 30
3687.970
 70
    32
  0
VERTEX
  8
T15SSILL
 62
2
 10
684.914
 20
-2538.373
 30
3687.960
 70
    32
  0
VERTEX
  8
T15SSILL
 62
2
 10
925.943
 20
-2364.484
 30
3686.892
 70
    32
  0
VERTEX
  8
T15SSILL
 62
2
 10
929.352
 20
-2363.523
 30
3686.880
 70
    32
  0
VERTEX
  8
T15SSILL
 62
2
 10
936.674
 20
-2364.317
 30
3686.858
 70
    32
  0
VERTEX
  8
T15SSILL
 62
2
 10
941.021
 20
-2369.494
 30
3686.851
 70
    32
  0
VERTEX
  8
T15SSILL
 62
2
 10
943.146
 20
-2373.755
 30
3686.849
 70
    32
  0
VERTEX
  8
T15SSILL
 62
2
 10
941.391
 20
-2381.364
 30
3686.865
 70
    32
  0
VERTEX
  8
T15SSILL
 62
2
 10
942.580
 20
-2386.968
 30
3686.868
 70
    32
  0
VERTEX
  8
T15SSILL
 62
2
 10
954.138
 20
-2410.453
 30
3686.862
 70
    32
  0
VERTEX
  8
T15SSILL
 62
2
 10
962.873
 20
-2426.260
 30
3686.855
 70
    32
  0
VERTEX
  8
T15SSILL
 62
2
 10
968.428
 20
-2430.440
 30
3686.843
 70
    32
  0
VERTEX
  8
T15SSILL
 62
2
 10
976.841
 20
-2440.144
 30
3686.829
 70
    32
  0
VERTEX
  8
T15SSILL
 62
2
 10
970.221
 20
-2444.536
 30
3686.856
 70
    32
  0
VERTEX
  8
T15SSILL
 62
2
 10
985.754
 20
-2463.659
 30
3686.831
 70
    32
  0
VERTEX
  8
T15SSILL
 62
2
 10
1005.106
 20
-2485.271
 30
3686.798
 70
    32
  0
VERTEX
  8
T15SSILL
 62
2
 10
1014.055
 20
-2502.658
 30
3686.792
 70
    32
  0
VERTEX
  8
T15SSILL
 62
2
 10
1019.339
 20
-2525.060
 30
3686.805
 70
    32
  0
VERTEX
  8
T15SSILL
 62
2
 10
1036.887
 20
-2545.146
 30
3686.775
 70
    32
  0
VERTEX
  8
T15SSILL
 62
2
 10
1041.716
 20
-2540.984
 30
3686.754
 70
    32
  0
VERTEX
  8
T15SSILL
 62
2
 10
1034.195
 20
-2528.139
 30
3686.762
 70
    32
  0
VERTEX
  8
T15SSILL
 62
2
 10
1033.892
 20
-2519.082
 30
3686.751
 70
    32
  0
VERTEX
  8
T15SSILL
 62
2
 10
1025.395
 20
-2509.604
 30
3686.765
 70
    32
  0
VERTEX
  8
T15SSILL
 62
2
 10
1009.029
 20
-2468.898
 30
3686.764
 70
    32
  0
VERTEX
  8
T15SSILL
 62
2
 10
1004.307
 20
-2462.763
 30
3686.771
 70
    32
  0
VERTEX
  8
T15SSILL
 62
2
 10
1004.287
 20
-2454.492
 30
3686.761
 70
    32
  0
VERTEX
  8
T15SSILL
 62
2
 10
1007.298
 20
-2451.604
 30
3686.747
 70
    32
  0
VERTEX
  8
T15SSILL
 62
2
 10
1002.172
 20
-2444.851
 30
3686.755
 70
    32
  0
VERTEX
  8
T15SSILL
 62
2
 10
1005.954
 20
-2442.286
 30
3686.739
 70
    32
  0
VERTEX
  8
T15SSILL
 62
2
 10
1002.084
 20
-2437.651
 30
3686.746
 70
    32
  0
VERTEX
  8
T15SSILL
 62
2
 10
1038.092
 20
-2410.658
 30
3686.597
 70
    32
  0
VERTEX
  8
T15SSILL
 62
2
 10
1043.235
 20
-2412.296
 30
3686.582
 70
    32
  0
VERTEX
  8
T15SSILL
 62
2
 10
1047.437
 20
-2415.100
 30
3686.573
 70
    32
  0
VERTEX
  8
T15SSILL
 62
2
 10
1061.503
 20
-2451.548
 30
3686.575
 70
    32
  0
VERTEX
  8
T15SSILL
 62
2
 10
1063.025
 20
-2452.656
 30
3686.572
 70
    32
  0
VERTEX
  8
T15SSILL
 62
2
 10
1072.171
 20
-2474.614
 30
3686.572
 70
    32
  0
VERTEX
  8
T15SSILL
 62
2
 10
1072.761
 20
-2484.632
 30
3686.583
 70
    32
  0
VERTEX
  8
T15SSILL
 62
2
 10
1079.461
 20
-2499.960
 30
3686.581
 70
    32
  0
VERTEX
  8
T15SSILL
 62
2
 10
1065.700
 20
-2509.703
 30
3686.638
 70
    32
  0
VERTEX
  8
T15SSILL
 62
2
 10
1059.668
 20
-2507.646
 30
3686.654
 70
    32
  0
VERTEX
  8
T15SSILL
 62
2
 10
1051.671
 20
-2497.012
 30
3686.666
 70
    32
  0
VERTEX
  8
T15SSILL
 62
2
 10
1043.519
 20
-2502.046
 30
3686.698
 70
    32
  0
VERTEX
  8
T15SSILL
 62
2
 10
1042.698
 20
-2504.529
 30
3686.704
 70
    32
  0
VERTEX
  8
T15SSILL
 62
2
 10
1048.241
 20
-2508.182
 30
3686.691
 70
    32
  0
VERTEX
  8
T15SSILL
 62
2
 10
1050.695
 20
-2511.467
 30
3686.688
 70
    32
  0
VERTEX
  8
T15SSILL
 62
2
 10
1058.281
 20
-2527.038
 30
3686.684
 70
    32
  0
VERTEX
  8
T15SSILL
 62
2
 10
1066.348
 20
-2533.270
 30
3686.666
 70
    32
  0
VERTEX
  8
T15SSILL
 62
2
 10
1072.333
 20
-2529.608
 30
3686.643
 70
    32
  0
VERTEX
  8
T15SSILL
 62
2
 10
1070.610
 20
-2527.449
 30
3686.645
 70
    32
  0
VERTEX
  8
T15SSILL
 62
2
 10
1068.496
 20
-2516.236
 30
3686.637
 70
    32
  0
VERTEX
  8
T15SSILL
 62
2
 10
1075.848
 20
-2510.870
 30
3686.607
 70
    32
  0
VERTEX
  8
T15SSILL
 62
2
 10
1084.136
 20
-2511.553
 30
3686.582
 70
    32
  0
VERTEX
  8
T15SSILL
 62
2
 10
1087.873
 20
-2517.008
 30
3686.577
 70
    32
  0
VERTEX
  8
T15SSILL
 62
2
 10
1089.669
 20
-2529.637
 30
3686.588
 70
    32
  0
VERTEX
  8
T15SSILL
 62
2
 10
1094.298
 20
-2546.686
 30
3686.595
 70
    32
  0
VERTEX
  8
T15SSILL
 62
2
 10
1106.388
 20
-2574.030
 30
3686.592
 70
    32
  0
VERTEX
  8
T15SSILL
 62
2
 10
1113.923
 20
-2594.882
 30
3686.596
 70
    32
  0
VERTEX
  8
T15SSILL
 62
2
 10
1125.349
 20
-2616.522
 30
3686.588
 70
    32
  0
VERTEX
  8
T15SSILL
 62
2
 10
1179.136
 20
-2755.860
 30
3686.598
 70
    32
  0
VERTEX
  8
T15SSILL
 62
2
 10
1206.541
 20
-2816.848
 30
3686.590
 70
    32
  0
VERTEX
  8
T15SSILL
 62
2
 10
1211.281
 20
-2830.339
 30
3686.593
 70
    32
  0
VERTEX
  8
T15SSILL
 62
2
 10
1225.271
 20
-2859.202
 30
3686.586
 70
    32
  0
VERTEX
  8
T15SSILL
 62
2
 10
1344.730
 20
-2936.660
 30
3686.308
 70
    32
  0
VERTEX
  8
T15SSILL
 62
2
 10
1364.838
 20
-2962.193
 30
3686.278
 70
    32
  0
VERTEX
  8
T15SSILL
 62
2
 10
1380.716
 20
-2987.162
 30
3686.260
 70
    32
  0
VERTEX
  8
T15SSILL
 62
2
 10
1386.685
 20
-3000.462
 30
3686.258
 70
    32
  0
VERTEX
  8
T15SSILL
 62
2
 10
1390.538
 20
-3006.134
 30
3686.253
 70
    32
  0
VERTEX
  8
T15SSILL
 62
2
 10
1408.907
 20
-3018.930
 30
3686.212
 70
    32
  0
VERTEX
  8
T15SSILL
 62
2
 10
1419.782
 20
-3023.284
 30
3686.183
 70
    32
  0
VERTEX
  8
T15SSILL
 62
2
 10
1420.247
 20
-3025.390
 30
3686.184
 70
    32
  0
VERTEX
  8
T15SSILL
 62
2
 10
1416.615
 20
-3030.538
 30
3686.202
 70
    32
  0
VERTEX
  8
T15SSILL
 62
2
 10
868.553
 20
-3423.508
 30
3688.618
 70
    32
  0
VERTEX
  8
T15SSILL
 62
2
 10
798.562
 20
-3474.548
 30
3692.839
 70
    32
  0
VERTEX
  8
T15SSILL
 62
2
 10
768.557
 20
-3495.963
 30
3693.209
 70
    32
  0
VERTEX
  8
T15SSILL
 62
2
 10
760.212
 20
-3495.738
 30
3693.284
 70
    32
  0
VERTEX
  8
T15SSILL
 62
2
 10
750.855
 20
-3485.241
 30
3693.320
 70
    32
  0
VERTEX
  8
T15SSILL
 62
2
 10
735.251
 20
-3453.168
 30
3693.315
 70
    32
  0
VERTEX
  8
T15SSILL
 62
2
 10
717.956
 20
-3435.418
 30
3693.390
 70
    32
  0
VERTEX
  8
T15SSILL
 62
2
 10
709.800
 20
-3418.856
 30
3693.388
 70
    32
  0
VERTEX
  8
T15SSILL
 62
2
 10
707.698
 20
-3401.036
 30
3693.326
 70
    32
  0
VERTEX
  8
T15SSILL
 62
2
 10
702.600
 20
-3400.006
 30
3693.367
 70
    32
  0
VERTEX
  8
T15SSILL
 62
2
 10
698.719
 20
-3396.335
 30
3693.385
 70
    32
  0
VERTEX
  8
T15SSILL
 62
2
 10
696.327
 20
-3391.866
 30
3693.387
 70
    32
  0
VERTEX
  8
T15SSILL
 62
2
 10
670.242
 20
-3372.576
 30
3693.535
 70
    32
  0
VERTEX
  8
T15SSILL
 62
2
 10
647.556
 20
-3347.561
 30
3693.626
 70
    32
  0
VERTEX
  8
T15SSILL
 62
2
 10
638.409
 20
-3325.470
 30
3693.258
 70
    32
  0
VERTEX
  8
T15SSILL
 62
2
 10
642.609
 20
-3302.879
 30
3692.326
 70
    32
  0
VERTEX
  8
T15SSILL
 62
2
 10
639.662
 20
-3292.090
 30
3692.054
 70
    32
  0
VERTEX
  8
T15SSILL
 62
2
 10
625.213
 20
-3262.910
 30
3691.545
 70
    32
  0
VERTEX
  8
T15SSILL
 62
2
 10
620.909
 20
-3243.695
 30
3691.028
 70
    32
  0
VERTEX
  8
T15SSILL
 62
2
 10
622.266
 20
-3233.062
 30
3690.611
 70
    32
  0
VERTEX
  8
T15SSILL
 62
2
 10
628.788
 20
-3218.892
 30
3689.890
 70
    32
  0
VERTEX
  8
T15SSILL
 62
2
 10
636.035
 20
-3209.549
 30
3689.312
 70
    32
  0
VERTEX
  8
T15SSILL
 62
2
 10
651.005
 20
-3198.854
 30
3689.041
 70
    32
  0
VERTEX
  8
T15SSILL
 62
2
 10
657.075
 20
-3201.022
 30
3689.023
 70
    32
  0
VERTEX
  8
T15SSILL
 62
2
 10
669.021
 20
-3201.406
 30
3688.983
 70
    32
  0
VERTEX
  8
T15SSILL
 62
2
 10
678.582
 20
-3198.640
 30
3688.946
 70
    32
  0
VERTEX
  8
T15SSILL
 62
2
 10
678.012
 20
-3189.333
 30
3688.934
 70
    32
  0
VERTEX
  8
T15SSILL
 62
2
 10
674.730
 20
-3182.146
 30
3688.935
 70
    32
  0
VERTEX
  8
T15SSILL
 62
2
 10
690.576
 20
-3171.095
 30
3688.864
 70
    32
  0
VERTEX
  8
T15SSILL
 62
2
 10
686.245
 20
-3165.143
 30
3688.870
 70
    32
  0
VERTEX
  8
T15SSILL
 62
2
 10
667.074
 20
-3178.844
 30
3688.957
 70
    32
  0
VERTEX
  8
T15SSILL
 62
2
 10
649.351
 20
-3182.964
 30
3689.024
 70
    32
  0
VERTEX
  8
T15SSILL
 62
2
 10
648.076
 20
-3192.280
 30
3689.042
 70
    32
  0
VERTEX
  8
T15SSILL
 62
2
 10
630.744
 20
-3204.831
 30
3689.333
 70
    32
  0
VERTEX
  8
T15SSILL
 62
2
 10
621.053
 20
-3217.434
 30
3690.110
 70
    32
  0
VERTEX
  8
T15SSILL
 62
2
 10
618.701
 20
-3221.661
 30
3690.339
 70
    32
  0
VERTEX
  8
T15SSILL
 62
2
 10
616.803
 20
-3229.135
 30
3690.665
 70
    32
  0
VERTEX
  8
T15SSILL
 62
2
 10
603.573
 20
-3178.431
 30
3689.366
 70
    32
  0
VERTEX
  8
T15SSILL
 62
2
 10
589.412
 20
-3154.782
 30
3689.190
 70
    32
  0
VERTEX
  8
T15SSILL
 62
2
 10
583.166
 20
-3133.293
 30
3689.180
 70
    32
  0
VERTEX
  8
T15SSILL
 62
2
 10
515.757
 20
-3046.389
 30
3689.286
 70
    32
  0
VERTEX
  8
T15SSILL
 62
2
 10
503.535
 20
-3024.136
 30
3689.296
 70
    32
  0
VERTEX
  8
T15SSILL
 62
2
 10
502.769
 20
-3010.175
 30
3689.278
 70
    32
  0
VERTEX
  8
T15SSILL
 62
2
 10
491.973
 20
-2991.774
 30
3689.288
 70
    32
  0
VERTEX
  8
T15SSILL
 62
2
 10
485.053
 20
-2996.467
 30
3689.319
 70
    32
  0
VERTEX
  8
T15SSILL
 62
2
 10
491.776
 20
-3006.976
 30
3689.311
 70
    32
  0
VERTEX
  8
T15SSILL
 62
2
 10
494.973
 20
-3014.690
 30
3689.311
 70
    32
  0
VERTEX
  8
T15SSILL
 62
2
 10
496.009
 20
-3029.879
 30
3689.330
 70
    32
  0
VERTEX
  8
T15SSILL
 62
2
 10
501.587
 20
-3039.778
 30
3689.325
 70
    32
  0
VERTEX
  8
T15SSILL
 62
2
 10
551.431
 20
-3107.617
 30
3689.252
 70
    32
  0
VERTEX
  8
T15SSILL
 62
2
 10
575.886
 20
-3135.346
 30
3689.208
 70
    32
  0
VERTEX
  8
T15SSILL
 62
2
 10
581.510
 20
-3155.257
 30
3689.332
 70
    32
  0
VERTEX
  8
T15SSILL
 62
2
 10
596.122
 20
-3181.715
 30
3689.741
 70
    32
  0
VERTEX
  8
T15SSILL
 62
2
 10
617.933
 20
-3265.139
 30
3691.877
 70
    32
  0
VERTEX
  8
T15SSILL
 62
2
 10
633.987
 20
-3299.493
 30
3692.510
 70
    32
  0
VERTEX
  8
T15SSILL
 62
2
 10
630.246
 20
-3326.561
 30
3693.581
 70
    32
  0
VERTEX
  8
T15SSILL
 62
2
 10
641.786
 20
-3353.296
 30
3693.704
 70
    32
  0
VERTEX
  8
T15SSILL
 62
2
 10
664.287
 20
-3376.380
 30
3693.606
 70
    32
  0
VERTEX
  8
T15SSILL
 62
2
 10
688.706
 20
-3396.293
 30
3693.476
 70
    32
  0
VERTEX
  8
T15SSILL
 62
2
 10
695.242
 20
-3404.255
 30
3693.453
 70
    32
  0
VERTEX
  8
T15SSILL
 62
2
 10
703.030
 20
-3417.218
 30
3693.442
 70
    32
  0
VERTEX
  8
T15SSILL
 62
2
 10
709.612
 20
-3435.456
 30
3693.466
 70
    32
  0
VERTEX
  8
T15SSILL
 62
2
 10
725.770
 20
-3454.089
 30
3693.405
 70
    32
  0
VERTEX
  8
T15SSILL
 62
2
 10
735.848
 20
-3468.623
 30
3693.380
 70
    32
  0
VERTEX
  8
T15SSILL
 62
2
 10
742.859
 20
-3484.575
 30
3693.390
 70
    32
  0
VERTEX
  8
T15SSILL
 62
2
 10
755.414
 20
-3502.874
 30
3693.360
 70
    32
  0
VERTEX
  8
T15SSILL
 62
2
 10
754.812
 20
-3505.599
 30
3693.378
 70
    32
  0
VERTEX
  8
T15SSILL
 62
2
 10
747.809
 20
-3510.549
 30
3693.464
 70
    32
  0
VERTEX
  8
T15SSILL
 62
2
 10
751.700
 20
-3516.504
 30
3693.456
 70
    32
  0
VERTEX
  8
T15SSILL
 62
2
 10
760.191
 20
-3510.229
 30
3693.350
 70
    32
  0
VERTEX
  8
T15SSILL
 62
2
 10
768.128
 20
-3517.483
 30
3693.311
 70
    32
  0
VERTEX
  8
T15SSILL
 62
2
 10
774.405
 20
-3526.412
 30
3693.296
 70
    32
  0
VERTEX
  8
T15SSILL
 62
2
 10
780.099
 20
-3523.137
 30
3693.229
 70
    32
  0
VERTEX
  8
T15SSILL
 62
2
 10
774.619
 20
-3515.696
 30
3693.244
 70
    32
  0
VERTEX
  8
T15SSILL
 62
2
 10
777.923
 20
-3508.216
 30
3693.180
 70
    32
  0
VERTEX
  8
T15SSILL
 62
2
 10
775.279
 20
-3506.208
 30
3693.195
 70
    32
  0
VERTEX
  8
T15SSILL
 62
2
 10
773.322
 20
-3500.860
 30
3693.188
 70
    32
  0
VERTEX
  8
T15SSILL
 62
2
 10
803.829
 20
-3479.070
 30
3692.812
 70
    32
  0
VERTEX
  8
T15SSILL
 62
2
 10
874.172
 20
-3428.826
 30
3688.606
 70
    32
  0
VERTEX
  8
T15SSILL
 62
2
 10
995.590
 20
-3341.787
 30
3688.060
 70
    32
  0
VERTEX
  8
T15SSILL
 62
2
 10
1000.886
 20
-3349.512
 30
3688.053
 70
    32
  0
VERTEX
  8
T15SSILL
 62
2
 10
1021.817
 20
-3334.855
 30
3687.959
 70
    32
  0
VERTEX
  8
T15SSILL
 62
2
 10
1015.925
 20
-3327.208
 30
3687.968
 70
    32
  0
VERTEX
  8
T15SSILL
 62
2
 10
1076.618
 20
-3283.694
 30
3687.695
 70
    32
  0
VERTEX
  8
T15SSILL
 62
2
 10
1090.875
 20
-3283.937
 30
3687.646
 70
    32
  0
VERTEX
  8
T15SSILL
 62
2
 10
1106.316
 20
-3291.229
 30
3687.604
 70
    32
  0
VERTEX
  8
T15SSILL
 62
2
 10
1110.415
 20
-3280.960
 30
3687.575
 70
    32
  0
VERTEX
  8
T15SSILL
 62
2
 10
1093.915
 20
-3274.278
 30
3687.622
 70
    32
  0
VERTEX
  8
T15SSILL
 62
2
 10
1094.511
 20
-3270.866
 30
3687.615
 70
    32
  0
VERTEX
  8
T15SSILL
 62
2
 10
1298.986
 20
-3124.269
 30
3686.697
 70
    32
  0
VERTEX
  8
T15SSILL
 62
2
 10
1304.841
 20
-3121.030
 30
3686.674
 70
    32
  0
VERTEX
  8
T15SSILL
 62
2
 10
1309.423
 20
-3121.590
 30
3686.660
 70
    32
  0
VERTEX
  8
T15SSILL
 62
2
 10
1322.103
 20
-3144.046
 30
3686.649
 70
    32
  0
VERTEX
  8
T15SSILL
 62
2
 10
1328.781
 20
-3150.563
 30
3686.637
 70
    32
  0
VERTEX
  8
T15SSILL
 62
2
 10
1330.718
 20
-3150.627
 30
3686.631
 70
    32
  0
VERTEX
  8
T15SSILL
 62
2
 10
1336.367
 20
-3144.927
 30
3686.605
 70
    32
  0
VERTEX
  8
T15SSILL
 62
2
 10
1335.607
 20
-3140.362
 30
3686.602
 70
    32
  0
VERTEX
  8
T15SSILL
 62
2
 10
1341.254
 20
-3134.486
 30
3686.576
 70
    32
  0
VERTEX
  8
T15SSILL
 62
2
 10
1344.614
 20
-3128.638
 30
3686.558
 70
    32
  0
VERTEX
  8
T15SSILL
 62
2
 10
1341.393
 20
-3124.278
 30
3686.563
 70
    32
  0
VERTEX
  8
T15SSILL
 62
2
 10
1329.096
 20
-3133.139
 30
3686.613
 70
    32
  0
VERTEX
  8
T15SSILL
 62
2
 10
1327.413
 20
-3132.192
 30
3686.617
 70
    32
  0
VERTEX
  8
T15SSILL
 62
2
 10
1325.071
 20
-3127.733
 30
3686.619
 70
    32
  0
VERTEX
  8
T15SSILL
 62
2
 10
1317.870
 20
-3121.663
 30
3686.634
 70
    32
  0
VERTEX
  8
T15SSILL
 62
2
 10
1313.985
 20
-3113.352
 30
3686.635
 70
    32
  0
VERTEX
  8
T15SSILL
 62
2
 10
1497.750
 20
-2981.507
 30
3685.882
 70
    32
  0
VERTEX
  8
T15SSILL
 62
2
 10
1511.951
 20
-2977.199
 30
3685.831
 70
    32
  0
VERTEX
  8
T15SSILL
 62
2
 10
1518.373
 20
-2977.208
 30
3685.811
 70
    32
  0
VERTEX
  8
T15SSILL
 62
2
 10
1547.566
 20
-2954.240
 30
3685.688
 70
    32
  0
VERTEX
  8
T15SSILL
 62
2
 10
1580.673
 20
-2934.743
 30
3685.558
 70
    32
  0
VERTEX
  8
T15SSILL
 62
2
 10
1610.829
 20
-2911.411
 30
3685.432
 70
    32
  0
VERTEX
  8
T15SSILL
 62
2
 10
1621.433
 20
-2900.811
 30
3685.385
 70
    32
  0
VERTEX
  8
T15SSILL
 62
2
 10
1625.092
 20
-2904.990
 30
3685.379
 70
    32
  0
VERTEX
  8
T15SSILL
 62
2
 10
1627.644
 20
-2912.261
 30
3685.380
 70
    32
  0
VERTEX
  8
T15SSILL
 62
2
 10
1628.788
 20
-2919.461
 30
3685.386
 70
    32
  0
VERTEX
  8
T15SSILL
 62
2
 10
1628.584
 20
-2931.517
 30
3685.402
 70
    32
  0
VERTEX
  8
T15SSILL
 62
2
 10
1631.327
 20
-2932.804
 30
3685.395
 70
    32
  0
VERTEX
  8
T15SSILL
 62
2
 10
1633.334
 20
-2931.459
 30
3685.387
 70
    32
  0
VERTEX
  8
T15SSILL
 62
2
 10
1638.737
 20
-2920.044
 30
3685.355
 70
    32
  0
VERTEX
  8
T15SSILL
 62
2
 10
1644.162
 20
-2917.602
 30
3685.335
 70
    32
  0
VERTEX
  8
T15SSILL
 62
2
 10
1645.882
 20
-2914.325
 30
3685.325
 70
    32
  0
VERTEX
  8
T15SSILL
 62
2
 10
1640.630
 20
-2902.160
 30
3685.326
 70
    32
  0
VERTEX
  8
T15SSILL
 62
2
 10
1637.880
 20
-2893.132
 30
3685.323
 70
    32
  0
VERTEX
  8
T15SSILL
 62
2
 10
1637.724
 20
-2887.591
 30
3685.316
 70
    32
  0
VERTEX
  8
T15SSILL
 62
2
 10
1677.228
 20
-2858.778
 30
3685.153
 70
    32
  0
VERTEX
  8
T15SSILL
 62
2
 10
1702.532
 20
-2841.576
 30
3685.051
 70
    32
  0
VERTEX
  8
T15SSILL
 62
2
 10
1712.939
 20
-2836.433
 30
3685.011
 70
    32
  0
VERTEX
  8
T15SSILL
 62
2
 10
1756.089
 20
-2803.616
 30
3684.832
 70
    32
  0
VERTEX
  8
T15SSILL
 62
2
 10
1761.168
 20
-2801.707
 30
3684.813
 70
    32
  0
VERTEX
  8
T15SSILL
 62
2
 10
1769.520
 20
-2801.165
 30
3684.786
 70
    32
  0
VERTEX
  8
T15SSILL
 62
2
 10
1776.408
 20
-2803.280
 30
3684.767
 70
    32
  0
VERTEX
  8
T15SSILL
 62
2
 10
1800.455
 20
-2834.307
 30
3684.731
 70
    32
  0
VERTEX
  8
T15SSILL
 62
2
 10
1807.484
 20
-2862.288
 30
3684.745
 70
    32
  0
VERTEX
  8
T15SSILL
 62
2
 10
1808.962
 20
-2925.616
 30
3684.823
 70
    32
  0
VERTEX
  8
T15SSILL
 62
2
 10
1905.270
 20
-3059.666
 30
3684.692
 70
    32
  0
VERTEX
  8
T15SSILL
 62
2
 10
1934.820
 20
-3087.547
 30
3684.634
 70
    32
  0
VERTEX
  8
T15SSILL
 62
2
 10
1972.950
 20
-3126.233
 30
3684.620
 70
    32
  0
VERTEX
  8
T15SSILL
 62
2
 10
2022.873
 20
-3194.072
 30
3684.706
 70
    32
  0
VERTEX
  8
T15SSILL
 62
2
 10
2048.126
 20
-3235.249
 30
3684.755
 70
    32
  0
VERTEX
  8
T15SSILL
 62
2
 10
1989.222
 20
-3585.231
 30
3685.109
 70
    32
  0
VERTEX
  8
T15SSILL
 62
2
 10
2176.588
 20
-4326.971
 30
3685.771
 70
    32
  0
VERTEX
  8
T15SSILL
 62
2
 10
2174.687
 20
-4505.960
 30
3685.925
 70
    32
  0
VERTEX
  8
T15SSILL
 62
2
 10
2172.692
 20
-4513.849
 30
3685.931
 70
    32
  0
VERTEX
  8
T15SSILL
 62
2
 10
2172.657
 20
-4553.827
 30
3685.965
 70
    32
  0
VERTEX
  8
T15SSILL
 62
2
 10
2118.400
 20
-4554.497
 30
3685.959
 70
    32
  0
VERTEX
  8
T15SSILL
 62
2
 10
2120.225
 20
-4565.362
 30
3685.967
 70
    32
  0
VERTEX
  8
T15SSILL
 62
2
 10
2119.129
 20
-4605.584
 30
3686.024
 70
    32
  0
VERTEX
  8
T15SSILL
 62
2
 10
2123.689
 20
-4616.148
 30
3686.060
 70
    32
  0
VERTEX
  8
T15SSILL
 62
2
 10
2125.169
 20
-4626.566
 30
3686.094
 70
    32
  0
VERTEX
  8
T15SSILL
 62
2
 10
2172.633
 20
-4626.563
 30
3685.989
 70
    32
  0
VERTEX
  8
T15SSILL
 62
2
 10
2172.047
 20
-4734.425
 30
3686.164
 70
    32
  0
VERTEX
  8
T15SSILL
 62
2
 10
2173.389
 20
-4738.060
 30
3686.168
 70
    32
  0
VERTEX
  8
T15SSILL
 62
2
 10
2173.288
 20
-4753.028
 30
3686.238
 70
    32
  0
VERTEX
  8
T15SSILL
 62
2
 10
2181.299
 20
-4753.177
 30
3686.166
 70
    32
  0
VERTEX
  8
T15SSILL
 62
2
 10
2182.178
 20
-4622.249
 30
3685.985
 70
    32
  0
VERTEX
  8
T15SSILL
 62
2
 10
2193.051
 20
-4622.450
 30
3685.982
 70
    32
  0
VERTEX
  8
T15SSILL
 62
2
 10
2193.008
 20
-4615.228
 30
3685.981
 70
    32
  0
VERTEX
  8
T15SSILL
 62
2
 10
2182.225
 20
-4615.256
 30
3685.984
 70
    32
  0
VERTEX
  8
T15SSILL
 62
2
 10
2183.790
 20
-4323.230
 30
3685.772
 70
    32
  0
VERTEX
  8
T15SSILL
 62
2
 10
2164.944
 20
-4248.825
 30
3685.697
 70
    32
  0
VERTEX
  8
T15SSILL
 62
2
 10
2164.254
 20
-4241.360
 30
3685.690
 70
    32
  0
VERTEX
  8
T15SSILL
 62
2
 10
2165.471
 20
-4238.702
 30
3685.688
 70
    32
  0
VERTEX
  8
T15SSILL
 62
2
 10
2168.924
 20
-4237.155
 30
3685.689
 70
    32
  0
VERTEX
  8
T15SSILL
 62
2
 10
2179.347
 20
-4242.192
 30
3685.699
 70
    32
  0
VERTEX
  8
T15SSILL
 62
2
 10
2184.585
 20
-4246.417
 30
3685.705
 70
    32
  0
VERTEX
  8
T15SSILL
 62
2
 10
2187.496
 20
-4253.665
 30
3685.713
 70
    32
  0
VERTEX
  8
T15SSILL
 62
2
 10
2186.882
 20
-4260.947
 30
3685.719
 70
    32
  0
VERTEX
  8
T15SSILL
 62
2
 10
2181.388
 20
-4269.015
 30
3685.723
 70
    32
  0
VERTEX
  8
T15SSILL
 62
2
 10
2185.826
 20
-4273.173
 30
3685.729
 70
    32
  0
VERTEX
  8
T15SSILL
 62
2
 10
2189.749
 20
-4271.717
 30
3685.730
 70
    32
  0
VERTEX
  8
T15SSILL
 62
2
 10
2191.863
 20
-4275.075
 30
3685.734
 70
    32
  0
VERTEX
  8
T15SSILL
 62
2
 10
2192.811
 20
-4280.400
 30
3685.739
 70
    32
  0
VERTEX
  8
T15SSILL
 62
2
 10
2200.104
 20
-4278.750
 30
3685.742
 70
    32
  0
VERTEX
  8
T15SSILL
 62
2
 10
2198.003
 20
-4255.479
 30
3685.721
 70
    32
  0
VERTEX
  8
T15SSILL
 62
2
 10
2203.829
 20
-4254.639
 30
3685.723
 70
    32
  0
VERTEX
  8
T15SSILL
 62
2
 10
2206.968
 20
-4249.420
 30
3685.720
 70
    32
  0
VERTEX
  8
T15SSILL
 62
2
 10
2207.591
 20
-4245.410
 30
3685.717
 70
    32
  0
VERTEX
  8
T15SSILL
 62
2
 10
2217.136
 20
-4239.460
 30
3685.717
 70
    32
  0
VERTEX
  8
T15SSILL
 62
2
 10
2231.400
 20
-4233.476
 30
3685.720
 70
    32
  0
VERTEX
  8
T15SSILL
 62
2
 10
2227.971
 20
-4226.828
 30
3685.712
 70
    32
  0
VERTEX
  8
T15SSILL
 62
2
 10
2224.482
 20
-4223.057
 30
3685.707
 70
    32
  0
VERTEX
  8
T15SSILL
 62
2
 10
2222.094
 20
-4222.980
 30
3685.705
 70
    32
  0
VERTEX
  8
T15SSILL
 62
2
 10
2221.189
 20
-4220.864
 30
3685.703
 70
    32
  0
VERTEX
  8
T15SSILL
 62
2
 10
2211.053
 20
-4232.036
 30
3685.707
 70
    32
  0
VERTEX
  8
T15SSILL
 62
2
 10
2203.708
 20
-4235.054
 30
3685.706
 70
    32
  0
VERTEX
  8
T15SSILL
 62
2
 10
2189.467
 20
-4237.704
 30
3685.701
 70
    32
  0
VERTEX
  8
T15SSILL
 62
2
 10
2177.437
 20
-4231.572
 30
3685.689
 70
    32
  0
VERTEX
  8
T15SSILL
 62
2
 10
2161.387
 20
-4219.674
 30
3685.670
 70
    32
  0
VERTEX
  8
T15SSILL
 62
2
 10
2149.968
 20
-4190.262
 30
3685.638
 70
    32
  0
VERTEX
  8
T15SSILL
 62
2
 10
1996.805
 20
-3584.576
 30
3685.084
 70
    32
  0
VERTEX
  8
T15SSILL
 62
2
 10
2053.660
 20
-3244.093
 30
3684.766
 70
    32
  0
VERTEX
  8
T15SSILL
 62
2
 10
2098.233
 20
-3314.176
 30
3684.851
 70
    32
  0
VERTEX
  8
T15SSILL
 62
2
 10
2104.816
 20
-3318.273
 30
3684.858
 70
    32
  0
VERTEX
  8
T15SSILL
 62
2
 10
2114.669
 20
-3320.716
 30
3684.865
 70
    32
  0
VERTEX
  8
T15SSILL
 62
2
 10
2129.656
 20
-3319.756
 30
3684.873
 70
    32
  0
VERTEX
  8
T15SSILL
 62
2
 10
2132.379
 20
-3321.096
 30
3684.875
 70
    32
  0
VERTEX
  8
T15SSILL
 62
2
 10
2134.738
 20
-3324.284
 30
3684.879
 70
    32
  0
VERTEX
  8
T15SSILL
 62
2
 10
2134.616
 20
-3329.482
 30
3684.884
 70
    32
  0
VERTEX
  8
T15SSILL
 62
2
 10
2136.092
 20
-3332.840
 30
3684.887
 70
    32
  0
VERTEX
  8
T15SSILL
 62
2
 10
2142.414
 20
-3336.230
 30
3684.894
 70
    32
  0
VERTEX
  8
T15SSILL
 62
2
 10
2143.395
 20
-3334.562
 30
3684.893
 70
    32
  0
VERTEX
  8
T15SSILL
 62
2
 10
2159.198
 20
-3330.083
 30
3684.898
 70
    32
  0
VERTEX
  8
T15SSILL
 62
2
 10
2165.713
 20
-3330.918
 30
3684.902
 70
    32
  0
VERTEX
  8
T15SSILL
 62
2
 10
2170.621
 20
-3335.092
 30
3684.908
 70
    32
  0
VERTEX
  8
T15SSILL
 62
2
 10
2172.928
 20
-3332.640
 30
3684.907
 70
    32
  0
VERTEX
  8
T15SSILL
 62
2
 10
2174.369
 20
-3327.891
 30
3684.904
 70
    32
  0
VERTEX
  8
T15SSILL
 62
2
 10
2175.638
 20
-3322.435
 30
3684.900
 70
    32
  0
VERTEX
  8
T15SSILL
 62
2
 10
2174.604
 20
-3318.904
 30
3684.896
 70
    32
  0
VERTEX
  8
T15SSILL
 62
2
 10
2167.859
 20
-3312.603
 30
3684.887
 70
    32
  0
VERTEX
  8
T15SSILL
 62
2
 10
2162.297
 20
-3300.671
 30
3684.874
 70
    32
  0
VERTEX
  8
T15SSILL
 62
2
 10
2159.142
 20
-3298.006
 30
3684.870
 70
    32
  0
VERTEX
  8
T15SSILL
 62
2
 10
2156.022
 20
-3289.967
 30
3684.861
 70
    32
  0
VERTEX
  8
T15SSILL
 62
2
 10
2150.747
 20
-3288.082
 30
3684.857
 70
    32
  0
VERTEX
  8
T15SSILL
 62
2
 10
2149.590
 20
-3276.354
 30
3684.846
 70
    32
  0
VERTEX
  8
T15SSILL
 62
2
 10
2141.574
 20
-3262.467
 30
3684.829
 70
    32
  0
VERTEX
  8
T15SSILL
 62
2
 10
2140.804
 20
-3258.849
 30
3684.826
 70
    32
  0
VERTEX
  8
T15SSILL
 62
2
 10
2143.382
 20
-3255.429
 30
3684.824
 70
    32
  0
VERTEX
  8
T15SSILL
 62
2
 10
2166.743
 20
-3240.513
 30
3684.824
 70
    32
  0
VERTEX
  8
T15SSILL
 62
2
 10
2170.574
 20
-3234.105
 30
3684.820
 70
    32
  0
VERTEX
  8
T15SSILL
 62
2
 10
2173.079
 20
-3228.305
 30
3684.817
 70
    32
  0
VERTEX
  8
T15SSILL
 62
2
 10
2167.326
 20
-3218.663
 30
3684.805
 70
    32
  0
VERTEX
  8
T15SSILL
 62
2
 10
2166.123
 20
-3213.984
 30
3684.801
 70
    32
  0
VERTEX
  8
T15SSILL
 62
2
 10
2172.035
 20
-3203.949
 30
3684.795
 70
    32
  0
VERTEX
  8
T15SSILL
 62
2
 10
2154.261
 20
-3175.045
 30
3684.760
 70
    32
  0
VERTEX
  8
T15SSILL
 62
2
 10
2144.383
 20
-3165.839
 30
3684.747
 70
    32
  0
VERTEX
  8
T15SSILL
 62
2
 10
2140.648
 20
-3162.630
 30
3684.742
 70
    32
  0
VERTEX
  8
T15SSILL
 62
2
 10
2134.222
 20
-3162.356
 30
3684.739
 70
    32
  0
VERTEX
  8
T15SSILL
 62
2
 10
2130.055
 20
-3159.768
 30
3684.734
 70
    32
  0
VERTEX
  8
T15SSILL
 62
2
 10
2119.025
 20
-3164.302
 30
3684.732
 70
    32
  0
VERTEX
  8
T15SSILL
 62
2
 10
2116.034
 20
-3157.124
 30
3684.724
 70
    32
  0
VERTEX
  8
T15SSILL
 62
2
 10
2105.743
 20
-3142.997
 30
3684.706
 70
    32
  0
VERTEX
  8
T15SSILL
 62
2
 10
2099.909
 20
-3147.995
 30
3684.708
 70
    32
  0
VERTEX
  8
T15SSILL
 62
2
 10
2108.886
 20
-3162.578
 30
3684.725
 70
    32
  0
VERTEX
  8
T15SSILL
 62
2
 10
2110.369
 20
-3168.719
 30
3684.731
 70
    32
  0
VERTEX
  8
T15SSILL
 62
2
 10
2109.354
 20
-3172.075
 30
3684.734
 70
    32
  0
VERTEX
  8
T15SSILL
 62
2
 10
2095.208
 20
-3180.782
 30
3684.734
 70
    32
  0
VERTEX
  8
T15SSILL
 62
2
 10
2093.270
 20
-3180.630
 30
3684.732
 70
    32
  0
VERTEX
  8
T15SSILL
 62
2
 10
2065.721
 20
-3150.965
 30
3684.692
 70
    32
  0
VERTEX
  8
T15SSILL
 62
2
 10
2063.483
 20
-3140.610
 30
3684.682
 70
    32
  0
VERTEX
  8
T15SSILL
 62
2
 10
2038.650
 20
-3124.461
 30
3684.654
 70
    32
  0
VERTEX
  8
T15SSILL
 62
2
 10
2031.348
 20
-3110.122
 30
3684.638
 70
    32
  0
VERTEX
  8
T15SSILL
 62
2
 10
2021.951
 20
-3097.127
 30
3684.621
 70
    32
  0
VERTEX
  8
T15SSILL
 62
2
 10
2016.990
 20
-3087.070
 30
3684.610
 70
    32
  0
VERTEX
  8
T15SSILL
 62
2
 10
2012.755
 20
-3071.725
 30
3684.594
 70
    32
  0
VERTEX
  8
T15SSILL
 62
2
 10
2014.472
 20
-3068.273
 30
3684.592
 70
    32
  0
VERTEX
  8
T15SSILL
 62
2
 10
2017.180
 20
-3066.656
 30
3684.592
 70
    32
  0
VERTEX
  8
T15SSILL
 62
2
 10
2013.769
 20
-3061.155
 30
3684.586
 70
    32
  0
VERTEX
  8
T15SSILL
 62
2
 10
2008.075
 20
-3063.160
 30
3684.584
 70
    32
  0
VERTEX
  8
T15SSILL
 62
2
 10
2002.507
 20
-3053.902
 30
3684.573
 70
    32
  0
VERTEX
  8
T15SSILL
 62
2
 10
1989.585
 20
-3040.423
 30
3684.555
 70
    32
  0
VERTEX
  8
T15SSILL
 62
2
 10
1987.627
 20
-3038.599
 30
3684.552
 70
    32
  0
VERTEX
  8
T15SSILL
 62
2
 10
1984.901
 20
-3038.721
 30
3684.551
 70
    32
  0
VERTEX
  8
T15SSILL
 62
2
 10
1970.862
 20
-3027.455
 30
3684.533
 70
    32
  0
VERTEX
  8
T15SSILL
 62
2
 10
1969.545
 20
-3020.520
 30
3684.527
 70
    32
  0
VERTEX
  8
T15SSILL
 62
2
 10
1965.083
 20
-3015.384
 30
3684.520
 70
    32
  0
VERTEX
  8
T15SSILL
 62
2
 10
1931.369
 20
-2999.608
 30
3684.531
 70
    32
  0
VERTEX
  8
T15SSILL
 62
2
 10
1914.172
 20
-2974.655
 30
3684.553
 70
    32
  0
VERTEX
  8
T15SSILL
 62
2
 10
1818.899
 20
-2846.047
 30
3684.688
 70
    32
  0
VERTEX
  8
T15SSILL
 62
2
 10
1859.210
 20
-2847.314
 30
3684.562
 70
    32
  0
VERTEX
  8
T15SSILL
 62
2
 10
1887.722
 20
-2862.186
 30
3684.491
 70
    32
  0
VERTEX
  8
T15SSILL
 62
2
 10
1890.888
 20
-2854.933
 30
3684.471
 70
    32
  0
VERTEX
  8
T15SSILL
 62
2
 10
1880.802
 20
-2850.305
 30
3684.497
 70
    32
  0
VERTEX
  8
T15SSILL
 62
2
 10
2033.226
 20
-2708.862
 30
3684.331
 70
    32
  0
VERTEX
  8
T15SSILL
 62
2
 10
2039.464
 20
-2716.827
 30
3684.339
 70
    32
  0
VERTEX
  8
T15SSILL
 62
2
 10
2049.079
 20
-2711.336
 30
3684.348
 70
    32
  0
VERTEX
  8
T15SSILL
 62
2
 10
2042.030
 20
-2700.911
 30
3684.339
 70
    32
  0
VERTEX
  8
T15SSILL
 62
2
 10
2056.189
 20
-2688.122
 30
3684.352
 70
    32
  0
VERTEX
  8
T15SSILL
 62
2
 10
2170.567
 20
-2846.309
 30
3684.486
 70
    32
  0
VERTEX
  8
T15SSILL
 62
2
 10
2306.395
 20
-3030.583
 30
3684.718
 70
    32
  0
VERTEX
  8
T15SSILL
 62
2
 10
2321.567
 20
-3019.729
 30
3684.716
 70
    32
  0
VERTEX
  8
T15SSILL
 62
2
 10
2324.080
 20
-3029.907
 30
3684.727
 70
    32
  0
VERTEX
  8
T15SSILL
 62
2
 10
2331.267
 20
-3027.610
 30
3684.728
 70
    32
  0
VERTEX
  8
T15SSILL
 62
2
 10
2328.022
 20
-3015.329
 30
3684.716
 70
    32
  0
VERTEX
  8
T15SSILL
 62
2
 10
2340.836
 20
-3005.915
 30
3684.715
 70
    32
  0
VERTEX
  8
T15SSILL
 62
2
 10
2991.582
 20
-3469.567
 30
3685.469
 70
    32
  0
VERTEX
  8
T15SSILL
 62
2
 10
3005.242
 20
-3450.986
 30
3685.460
 70
    32
  0
VERTEX
  8
T15SSILL
 62
2
 10
2997.135
 20
-3443.788
 30
3685.449
 70
    32
  0
VERTEX
  8
T15SSILL
 62
2
 10
2986.577
 20
-3457.310
 30
3685.455
 70
    32
  0
VERTEX
  8
T15SSILL
 62
2
 10
2908.357
 20
-3400.874
 30
3685.364
 70
    32
  0
VERTEX
  8
T15SSILL
 62
2
 10
2951.649
 20
-3412.707
 30
3685.398
 70
    32
  0
VERTEX
  8
T15SSILL
 62
2
 10
2955.017
 20
-3421.024
 30
3685.407
 70
    32
  0
VERTEX
  8
T15SSILL
 62
2
 10
2954.395
 20
-3433.709
 30
3685.417
 70
    32
  0
VERTEX
  8
T15SSILL
 62
2
 10
2965.028
 20
-3432.334
 30
3685.422
 70
    32
  0
VERTEX
  8
T15SSILL
 62
2
 10
2964.722
 20
-3416.053
 30
3685.408
 70
    32
  0
VERTEX
  8
T15SSILL
 62
2
 10
3052.907
 20
-3440.929
 30
3685.477
 70
    32
  0
VERTEX
  8
T15SSILL
 62
2
 10
3056.128
 20
-3431.643
 30
3685.471
 70
    32
  0
VERTEX
  8
T15SSILL
 62
2
 10
3049.051
 20
-3429.097
 30
3685.465
 70
    32
  0
VERTEX
  8
T15SSILL
 62
2
 10
3048.125
 20
-3431.680
 30
3685.466
 70
    32
  0
VERTEX
  8
T15SSILL
 62
2
 10
2888.536
 20
-3386.615
 30
3685.341
 70
    32
  0
VERTEX
  8
T15SSILL
 62
2
 10
2340.877
 20
-2995.791
 30
3684.706
 70
    32
  0
VERTEX
  8
T15SSILL
 62
2
 10
2308.184
 20
-3019.556
 30
3684.709
 70
    32
  0
VERTEX
  8
T15SSILL
 62
2
 10
2069.627
 20
-2694.703
 30
3684.367
 70
    32
  0
VERTEX
  8
T15SSILL
 62
2
 10
2075.711
 20
-2666.578
 30
3684.370
 70
    32
  0
VERTEX
  8
T15SSILL
 62
2
 10
2061.608
 20
-2663.851
 30
3684.355
 70
    32
  0
VERTEX
  8
T15SSILL
 62
2
 10
2041.373
 20
-2648.889
 30
3684.333
 70
    32
  0
VERTEX
  8
T15SSILL
 62
2
 10
2040.321
 20
-2649.166
 30
3684.332
 70
    32
  0
VERTEX
  8
T15SSILL
 62
2
 10
2039.257
 20
-2653.073
 30
3684.331
 70
    32
  0
VERTEX
  8
T15SSILL
 62
2
 10
2002.112
 20
-2602.156
 30
3684.288
 70
    32
  0
VERTEX
  8
T15SSILL
 62
2
 10
2003.226
 20
-2598.744
 30
3684.289
 70
    32
  0
VERTEX
  8
T15SSILL
 62
2
 10
2000.538
 20
-2581.913
 30
3684.284
 70
    32
  0
VERTEX
  8
T15SSILL
 62
2
 10
1996.600
 20
-2575.406
 30
3684.279
 70
    32
  0
VERTEX
  8
T15SSILL
 62
2
 10
1993.237
 20
-2574.606
 30
3684.276
 70
    32
  0
VERTEX
  8
T15SSILL
 62
2
 10
1991.338
 20
-2572.451
 30
3684.274
 70
    32
  0
VERTEX
  8
T15SSILL
 62
2
 10
1990.641
 20
-2569.036
 30
3684.273
 70
    32
  0
VERTEX
  8
T15SSILL
 62
2
 10
1969.824
 20
-2541.020
 30
3684.262
 70
    32
  0
VERTEX
  8
T15SSILL
 62
2
 10
1945.198
 20
-2497.166
 30
3684.265
 70
    32
  0
VERTEX
  8
T15SSILL
 62
2
 10
1943.888
 20
-2486.462
 30
3684.268
 70
    32
  0
VERTEX
  8
T15SSILL
 62
2
 10
1949.551
 20
-2472.952
 30
3684.273
 70
    32
  0
VERTEX
  8
T15SSILL
 62
2
 10
1952.384
 20
-2469.980
 30
3684.275
 70
    32
  0
VERTEX
  8
T15SSILL
 62
2
 10
2009.341
 20
-2430.172
 30
3684.306
 70
    32
  0
VERTEX
  8
T15SSILL
 62
2
 10
2005.496
 20
-2423.928
 30
3684.307
 70
    32
  0
VERTEX
  8
T15SSILL
 62
2
 10
1947.426
 20
-2464.994
 30
3684.275
 70
    32
  0
VERTEX
  8
T15SSILL
 62
2
 10
1940.928
 20
-2472.980
 30
3684.270
 70
    32
  0
VERTEX
  8
T15SSILL
 62
2
 10
1938.270
 20
-2483.339
 30
3684.266
 70
    32
  0
VERTEX
  8
T15SSILL
 62
2
 10
1856.305
 20
-2330.609
 30
3684.262
 70
    32
  0
VERTEX
  8
T15SSILL
 62
2
 10
1858.704
 20
-2323.922
 30
3684.271
 70
    32
  0
VERTEX
  8
T15SSILL
 62
2
 10
2176.215
 20
-1905.106
 30
3684.510
 70
    32
  0
VERTEX
  8
T15SSILL
 62
2
 10
2505.513
 20
-1467.828
 30
3684.748
 70
    32
  0
VERTEX
  8
T15SSILL
 62
2
 10
2548.564
 20
-1483.489
 30
3684.760
 70
    32
  0
VERTEX
  8
T15SSILL
 62
2
 10
2554.517
 20
-1493.500
 30
3684.759
 70
    32
  0
VERTEX
  8
T15SSILL
 62
2
 10
2554.238
 20
-1506.030
 30
3684.755
 70
    32
  0
VERTEX
  8
T15SSILL
 62
2
 10
2572.900
 20
-1530.893
 30
3684.755
 70
    32
  0
VERTEX
  8
T15SSILL
 62
2
 10
2574.515
 20
-1537.294
 30
3684.754
 70
    32
  0
VERTEX
  8
T15SSILL
 62
2
 10
2573.560
 20
-1542.939
 30
3684.752
 70
    32
  0
VERTEX
  8
T15SSILL
 62
2
 10
2569.199
 20
-1553.510
 30
3684.748
 70
    32
  0
VERTEX
  8
T15SSILL
 62
2
 10
2557.683
 20
-1565.194
 30
3684.740
 70
    32
  0
VERTEX
  8
T15SSILL
 62
2
 10
2560.628
 20
-1567.639
 30
3684.741
 70
    32
  0
VERTEX
  8
T15SSILL
 62
2
 10
2559.668
 20
-1572.890
 30
3684.739
 70
    32
  0
VERTEX
  8
T15SSILL
 62
2
 10
2561.173
 20
-1573.502
 30
3684.739
 70
    32
  0
VERTEX
  8
T15SSILL
 62
2
 10
2561.591
 20
-1575.466
 30
3684.739
 70
    32
  0
VERTEX
  8
T15SSILL
 62
2
 10
2560.906
 20
-1580.674
 30
3684.739
 70
    32
  0
VERTEX
  8
T15SSILL
 62
2
 10
2569.110
 20
-1603.893
 30
3684.750
 70
    32
  0
VERTEX
  8
T15SSILL
 62
2
 10
2571.766
 20
-1627.693
 30
3684.755
 70
    32
  0
VERTEX
  8
T15SSILL
 62
2
 10
2571.372
 20
-1637.309
 30
3684.756
 70
    32
  0
VERTEX
  8
T15SSILL
 62
2
 10
2573.911
 20
-1638.775
 30
3684.758
 70
    32
  0
VERTEX
  8
T15SSILL
 62
2
 10
2580.905
 20
-1675.796
 30
3684.770
 70
    32
  0
VERTEX
  8
T15SSILL
 62
2
 10
2587.725
 20
-1721.131
 30
3684.782
 70
    32
  0
VERTEX
  8
T15SSILL
 62
2
 10
2575.661
 20
-1761.932
 30
3684.774
 70
    32
  0
VERTEX
  8
T15SSILL
 62
2
 10
2608.901
 20
-1847.949
 30
3684.817
 70
    32
  0
VERTEX
  8
T15SSILL
 62
2
 10
2608.816
 20
-1850.668
 30
3684.817
 70
    32
  0
VERTEX
  8
T15SSILL
 62
2
 10
2587.627
 20
-1892.605
 30
3684.801
 70
    32
  0
VERTEX
  8
T15SSILL
 62
2
 10
2584.125
 20
-1912.147
 30
3684.799
 70
    32
  0
VERTEX
  8
T15SSILL
 62
2
 10
2574.982
 20
-1927.858
 30
3684.792
 70
    32
  0
VERTEX
  8
T15SSILL
 62
2
 10
2561.703
 20
-1969.186
 30
3684.783
 70
    32
  0
VERTEX
  8
T15SSILL
 62
2
 10
2698.153
 20
-2337.354
 30
3684.962
 70
    32
  0
VERTEX
  8
T15SSILL
 62
2
 10
2705.691
 20
-2334.229
 30
3684.970
 70
    32
  0
VERTEX
  8
T15SSILL
 62
2
 10
2568.633
 20
-1968.982
 30
3684.790
 70
    32
  0
VERTEX
  8
T15SSILL
 62
2
 10
2581.782
 20
-1929.902
 30
3684.799
 70
    32
  0
VERTEX
  8
T15SSILL
 62
2
 10
2592.882
 20
-1909.912
 30
3684.808
 70
    32
  0
VERTEX
  8
T15SSILL
 62
2
 10
2596.106
 20
-1890.216
 30
3684.809
 70
    32
  0
VERTEX
  8
T15SSILL
 62
2
 10
2612.443
 20
-1857.320
 30
3684.822
 70
    32
  0
VERTEX
  8
T15SSILL
 62
2
 10
2618.606
 20
-1871.583
 30
3684.830
 70
    32
  0
VERTEX
  8
T15SSILL
 62
2
 10
2624.601
 20
-1868.988
 30
3684.835
 70
    32
  0
VERTEX
  8
T15SSILL
 62
2
 10
2584.254
 20
-1759.187
 30
3684.782
 70
    32
  0
VERTEX
  8
T15SSILL
 62
2
 10
2594.786
 20
-1721.950
 30
3684.789
 70
    32
  0
VERTEX
  8
T15SSILL
 62
2
 10
2590.240
 20
-1682.181
 30
3684.780
 70
    32
  0
VERTEX
  8
T15SSILL
 62
2
 10
2579.280
 20
-1630.161
 30
3684.763
 70
    32
  0
VERTEX
  8
T15SSILL
 62
2
 10
2575.489
 20
-1600.506
 30
3684.756
 70
    32
  0
VERTEX
  8
T15SSILL
 62
2
 10
2572.731
 20
-1587.659
 30
3684.752
 70
    32
  0
VERTEX
  8
T15SSILL
 62
2
 10
2568.890
 20
-1579.631
 30
3684.747
 70
    32
  0
VERTEX
  8
T15SSILL
 62
2
 10
2568.969
 20
-1573.248
 30
3684.746
 70
    32
  0
VERTEX
  8
T15SSILL
 62
2
 10
2571.418
 20
-1564.158
 30
3684.748
 70
    32
  0
VERTEX
  8
T15SSILL
 62
2
 10
2582.277
 20
-1543.895
 30
3684.756
 70
    32
  0
VERTEX
  8
T15SSILL
 62
2
 10
2587.176
 20
-1541.866
 30
3684.761
 70
    32
  0
VERTEX
  8
T15SSILL
 62
2
 10
2586.178
 20
-1534.354
 30
3684.759
 70
    32
  0
VERTEX
  8
T15SSILL
 62
2
 10
2578.323
 20
-1526.612
 30
3684.758
 70
    32
  0
VERTEX
  8
T15SSILL
 62
2
 10
2563.284
 20
-1504.934
 30
3684.759
 70
    32
  0
VERTEX
  8
T15SSILL
 62
2
 10
2562.089
 20
-1497.425
 30
3684.761
 70
    32
  0
VERTEX
  8
T15SSILL
 62
2
 10
2563.525
 20
-1489.253
 30
3684.763
 70
    32
  0
VERTEX
  8
T15SSILL
 62
2
 10
2594.275
 20
-1500.850
 30
3684.771
 70
    32
  0
VERTEX
  8
T15SSILL
 62
2
 10
2596.907
 20
-1493.846
 30
3684.774
 70
    32
  0
VERTEX
  8
T15SSILL
 62
2
 10
2579.609
 20
-1487.007
 30
3684.770
 70
    32
  0
VERTEX
  8
T15SSILL
 62
2
 10
2579.507
 20
-1469.124
 30
3684.775
 70
    32
  0
VERTEX
  8
T15SSILL
 62
2
 10
2572.194
 20
-1438.213
 30
3684.780
 70
    32
  0
VERTEX
  8
T15SSILL
 62
2
 10
2571.005
 20
-1428.025
 30
3684.783
 70
    32
  0
VERTEX
  8
T15SSILL
 62
2
 10
2572.025
 20
-1414.816
 30
3684.787
 70
    32
  0
VERTEX
  8
T15SSILL
 62
2
 10
2564.883
 20
-1413.841
 30
3684.784
 70
    32
  0
VERTEX
  8
T15SSILL
 62
2
 10
2562.541
 20
-1431.596
 30
3684.779
 70
    32
  0
VERTEX
  8
T15SSILL
 62
2
 10
2569.991
 20
-1460.851
 30
3684.773
 70
    32
  0
VERTEX
  8
T15SSILL
 62
2
 10
2572.199
 20
-1477.053
 30
3684.770
 70
    32
  0
VERTEX
  8
T15SSILL
 62
2
 10
2570.579
 20
-1479.870
 30
3684.768
 70
    32
  0
VERTEX
  8
T15SSILL
 62
2
 10
2567.977
 20
-1482.896
 30
3684.767
 70
    32
  0
VERTEX
  8
T15SSILL
 62
2
 10
2510.354
 20
-1461.072
 30
3684.752
 70
    32
  0
VERTEX
  8
T15SSILL
 62
2
 10
2531.561
 20
-1433.395
 30
3684.767
 70
    32
  0
VERTEX
  8
T15SSILL
 62
2
 10
2525.126
 20
-1428.983
 30
3684.766
 70
    32
  0
VERTEX
  8
T15SSILL
 62
2
 10
1853.685
 20
-2319.375
 30
3684.262
 70
    32
  0
VERTEX
  8
T15SSILL
 62
2
 10
1850.655
 20
-2319.648
 30
3684.256
 70
    32
  0
VERTEX
  8
T15SSILL
 62
2
 10
1838.028
 20
-2293.995
 30
3684.242
 70
    32
  0
VERTEX
  8
T15SSILL
 62
2
 10
1786.043
 20
-2200.258
 30
3684.177
 70
    32
  0
VERTEX
  8
T15SSILL
 62
2
 10
1660.401
 20
-1964.585
 30
3684.026
 70
    32
  0
VERTEX
  8
T15SSILL
 62
2
 10
1620.445
 20
-1883.417
 30
3683.981
 70
    32
  0
VERTEX
  8
T15SSILL
 62
2
 10
1335.226
 20
-1249.730
 30
3683.684
 70
    32
  0
VERTEX
  8
T15SSILL
 62
2
 10
1336.231
 20
-1236.309
 30
3683.693
 70
    32
  0
VERTEX
  8
T15SSILL
 62
2
 10
1338.668
 20
-1232.230
 30
3683.700
 70
    32
  0
VERTEX
  8
T15SSILL
 62
2
 10
1643.133
 20
-902.733
 30
3684.491
 70
    32
  0
VERTEX
  8
T15SSILL
 62
2
 10
1657.332
 20
-884.528
 30
3684.529
 70
    32
  0
VERTEX
  8
T15SSILL
 62
2
 10
1662.682
 20
-883.434
 30
3684.541
 70
    32
  0
VERTEX
  8
T15SSILL
 62
2
 10
2314.333
 20
-1114.192
 30
3684.777
 70
    32
  0
VERTEX
  8
T15SSILL
 62
2
 10
2314.614
 20
-1116.565
 30
3684.776
 70
    32
  0
VERTEX
  8
T15SSILL
 62
2
 10
2311.525
 20
-1126.876
 30
3684.772
 70
    32
  0
VERTEX
  8
T15SSILL
 62
2
 10
2327.911
 20
-1131.064
 30
3684.777
 70
    32
  0
VERTEX
  8
T15SSILL
 62
2
 10
2338.365
 20
-1129.667
 30
3684.781
 70
    32
  0
VERTEX
  8
T15SSILL
 62
2
 10
2345.025
 20
-1126.453
 30
3684.783
 70
    32
  0
VERTEX
  8
T15SSILL
 62
2
 10
2349.485
 20
-1111.207
 30
3684.779
 70
    32
  0
VERTEX
  8
T15SSILL
 62
2
 10
2348.495
 20
-1108.136
 30
3684.778
 70
    32
  0
VERTEX
  8
T15SSILL
 62
2
 10
2345.128
 20
-1104.644
 30
3684.776
 70
    32
  0
VERTEX
  8
T15SSILL
 62
2
 10
2321.779
 20
-1098.485
 30
3684.773
 70
    32
  0
VERTEX
  8
T15SSILL
 62
2
 10
2316.650
 20
-1106.437
 30
3684.775
 70
    32
  0
VERTEX
  8
T15SSILL
 62
2
 10
2299.376
 20
-1101.288
 30
3684.772
 70
    32
  0
VERTEX
  8
T15SSILL
 62
2
 10
1666.935
 20
-876.638
 30
3684.553
 70
    32
  0
VERTEX
  8
T15SSILL
 62
2
 10
1664.550
 20
-874.899
 30
3684.549
 70
    32
  0
VERTEX
  8
T15SSILL
 62
2
 10
1669.541
 20
-861.070
 30
3684.566
 70
    32
  0
VERTEX
  8
T15SSILL
 62
2
 10
1681.941
 20
-851.401
 30
3684.596
 70
    32
  0
VERTEX
  8
T15SSILL
 62
2
 10
1684.186
 20
-846.202
 30
3684.604
 70
    32
  0
VERTEX
  8
T15SSILL
 62
2
 10
1739.050
 20
-839.965
 30
3684.646
 70
    32
  0
VERTEX
  8
T15SSILL
 62
2
 10
1738.459
 20
-832.791
 30
3684.648
 70
    32
  0
VERTEX
  8
T15SSILL
 62
2
 10
1687.032
 20
-839.241
 30
3684.613
 70
    32
  0
VERTEX
  8
T15SSILL
 62
2
 10
1700.669
 20
-807.163
 30
3684.641
 70
    32
  0
VERTEX
  8
T15SSILL
 62
2
 10
1682.508
 20
-798.516
 30
3684.600
 70
    32
  0
VERTEX
  8
T15SSILL
 62
2
 10
1662.807
 20
-841.795
 30
3684.561
 70
    32
  0
VERTEX
  8
T15SSILL
 62
2
 10
1588.907
 20
-850.259
 30
3684.403
 70
    32
  0
VERTEX
  8
T15SSILL
 62
2
 10
1571.642
 20
-855.485
 30
3684.368
 70
    32
  0
VERTEX
  8
T15SSILL
 62
2
 10
1562.994
 20
-861.963
 30
3684.343
 70
    32
  0
VERTEX
  8
T15SSILL
 62
2
 10
1558.203
 20
-867.269
 30
3684.330
 70
    32
  0
VERTEX
  8
T15SSILL
 62
2
 10
1552.822
 20
-875.919
 30
3684.315
 70
    32
  0
VERTEX
  8
T15SSILL
 62
2
 10
1540.503
 20
-919.582
 30
3684.269
 70
    32
  0
VERTEX
  8
T15SSILL
 62
2
 10
1514.621
 20
-1030.988
 30
3684.162
 70
    32
  0
VERTEX
  8
T15SSILL
 62
2
 10
1329.981
 20
-1230.902
 30
3683.682
 70
    32
  0
VERTEX
  8
T15SSILL
 62
2
 10
1326.880
 20
-1228.680
 30
3683.677
 70
    32
  0
VERTEX
  8
T15SSILL
 62
2
 10
1320.891
 20
-1217.894
 30
3683.669
 70
    32
  0
VERTEX
  8
T15SSILL
 62
2
 10
1308.696
 20
-1202.577
 30
3683.651
 70
    32
  0
VERTEX
  8
T15SSILL
 62
2
 10
1276.049
 20
-1179.302
 30
3683.594
 70
    32
  0
VERTEX
  8
T15SSILL
 62
2
 10
1248.423
 20
-1165.015
 30
3683.543
 70
    32
  0
VERTEX
  8
T15SSILL
 62
2
 10
1224.120
 20
-1145.021
 30
3683.501
 70
    32
  0
VERTEX
  8
T15SSILL
 62
2
 10
1197.718
 20
-1118.181
 30
3683.459
 70
    32
  0
VERTEX
  8
T15SSILL
 62
2
 10
1168.214
 20
-1101.524
 30
3683.405
 70
    32
  0
VERTEX
  8
T15SSILL
 62
2
 10
1129.677
 20
-1085.403
 30
3683.332
 70
    32
  0
VERTEX
  8
T15SSILL
 62
2
 10
1114.120
 20
-1082.128
 30
3683.301
 70
    32
  0
VERTEX
  8
T15SSILL
 62
2
 10
1107.576
 20
-1088.523
 30
3683.285
 70
    32
  0
VERTEX
  8
T15SSILL
 62
2
 10
1019.869
 20
-1038.775
 30
3683.311
 70
    32
  0
VERTEX
  8
T15SSILL
 62
2
 10
818.827
 20
-1190.463
 30
3685.243
 70
    32
  0
VERTEX
  8
T15SSILL
 62
2
 10
489.442
 20
-1436.133
 30
3687.004
 70
    32
  0
VERTEX
  8
T15SSILL
 62
2
 10
478.477
 20
-1438.524
 30
3687.051
 70
    32
  0
VERTEX
  8
T15SSILL
 62
2
 10
460.160
 20
-1438.113
 30
3687.120
 70
    32
  0
VERTEX
  8
T15SSILL
 62
2
 10
451.632
 20
-1434.666
 30
3687.145
 70
    32
  0
VERTEX
  8
T15SSILL
 62
2
 10
444.728
 20
-1430.258
 30
3687.162
 70
    32
  0
VERTEX
  8
T15SSILL
 62
2
 10
437.081
 20
-1417.970
 30
3687.166
 70
    32
  0
VERTEX
  8
T15SSILL
 62
2
 10
384.995
 20
-997.936
 30
3686.033
 70
    32
  0
VERTEX
  8
T15SSILL
 62
2
 10
376.363
 20
-928.328
 30
3688.265
 70
    32
  0
VERTEX
  8
T15SSILL
 62
2
 10
363.069
 20
-823.345
 30
3681.072
 70
    32
  0
VERTEX
  8
T15SSILL
 62
2
 10
342.735
 20
-670.900
 30
3687.154
 70
    32
  0
VERTEX
  8
T15SSILL
 62
2
 10
335.112
 20
-671.396
 30
3687.163
 70
    32
  0
VERTEX
  8
T15SSILL
 62
2
 10
345.823
 20
-754.064
 30
3683.987
 70
    32
  0
VERTEX
  8
T15SSILL
 62
2
 10
343.143
 20
-771.389
 30
3683.125
 70
    32
  0
VERTEX
  8
T15SSILL
 62
2
 10
349.244
 20
-818.720
 30
3681.026
 70
    32
  0
VERTEX
  8
T15SSILL
 62
2
 10
354.183
 20
-860.729
 30
3683.912
 70
    32
  0
VERTEX
  8
T15SSILL
 62
2
 10
358.452
 20
-879.319
 30
3685.147
 70
    32
  0
VERTEX
  8
T15SSILL
 62
2
 10
364.789
 20
-892.059
 30
3685.923
 70
    32
  0
VERTEX
  8
T15SSILL
 62
2
 10
369.207
 20
-927.050
 30
3688.321
 70
    32
  0
VERTEX
  8
T15SSILL
 62
2
 10
378.095
 20
-997.442
 30
3686.063
 70
    32
  0
VERTEX
  8
T15SSILL
 62
2
 10
433.647
 20
-1437.405
 30
3687.219
 70
    32
  0
VERTEX
  8
T15SSILL
 62
2
 10
425.986
 20
-1437.258
 30
3687.248
 70
    32
  0
VERTEX
  8
T15SSILL
 62
2
 10
418.577
 20
-1435.074
 30
3687.272
 70
    32
  0
VERTEX
  8
T15SSILL
 62
2
 10
384.354
 20
-1415.484
 30
3687.361
 70
    32
  0
VERTEX
  8
T15SSILL
 62
2
 10
304.699
 20
-1361.378
 30
3687.570
 70
    32
  0
VERTEX
  8
T15SSILL
 62
2
 10
306.516
 20
-1359.001
 30
3687.565
 70
    32
  0
VERTEX
  8
T15SSILL
 62
2
 10
302.828
 20
-1353.818
 30
3687.594
 70
    32
  0
VERTEX
  8
T15SSILL
 62
2
 10
297.418
 20
-1356.462
 30
3687.617
 70
    32
  0
VERTEX
  8
T15SSILL
 62
2
 10
237.181
 20
-1314.324
 30
3687.982
 70
    32
  0
VERTEX
  8
T15SSILL
 62
2
 10
222.423
 20
-1306.456
 30
3687.978
 70
    32
  0
VERTEX
  8
T15SSILL
 62
2
 10
222.458
 20
-1300.365
 30
3687.946
 70
    32
  0
VERTEX
  8
T15SSILL
 62
2
 10
216.253
 20
-1295.663
 30
3687.945
 70
    32
  0
VERTEX
  8
T15SSILL
 62
2
 10
211.856
 20
-1299.108
 30
3687.978
 70
    32
  0
VERTEX
  8
T15SSILL
 62
2
 10
140.789
 20
-1248.586
 30
3687.968
 70
    32
  0
VERTEX
  8
T15SSILL
 62
2
 10
136.303
 20
-1235.716
 30
3687.910
 70
    32
  0
VERTEX
  8
T15SSILL
 62
2
 10
137.027
 20
-1228.334
 30
3687.865
 70
    32
  0
VERTEX
  8
T15SSILL
 62
2
 10
141.042
 20
-1219.097
 30
3687.797
 70
    32
  0
VERTEX
  8
T15SSILL
 62
2
 10
164.648
 20
-1182.810
 30
3687.553
 70
    32
  0
VERTEX
  8
T15SSILL
 62
2
 10
157.914
 20
-1178.512
 30
3687.568
 70
    32
  0
VERTEX
  8
T15SSILL
 62
2
 10
120.846
 20
-1234.561
 30
3687.957
 70
    32
  0
VERTEX
  8
T15SSILL
 62
2
 10
57.477
 20
-1189.617
 30
3687.948
 70
    32
  0
VERTEX
  8
T15SSILL
 62
2
 10
57.695
 20
-1186.864
 30
3687.942
 70
    32
  0
VERTEX
  8
T15SSILL
 62
2
 10
59.611
 20
-1185.474
 30
3687.932
 70
    32
  0
VERTEX
  8
T15SSILL
 62
2
 10
55.152
 20
-1180.542
 30
3687.938
 70
    32
  0
VERTEX
  8
T15SSILL
 62
2
 10
49.967
 20
-1184.051
 30
3687.964
 70
    32
  0
VERTEX
  8
T15SSILL
 62
2
 10
-21.070
 20
-1129.556
 30
3688.115
 70
    32
  0
VERTEX
  8
T15SSILL
 62
2
 10
-19.187
 20
-1123.403
 30
3688.100
 70
    32
  0
VERTEX
  8
T15SSILL
 62
2
 10
-24.416
 20
-1119.857
 30
3688.121
 70
    32
  0
VERTEX
  8
T15SSILL
 62
2
 10
-28.673
 20
-1122.850
 30
3688.143
 70
    32
  0
VERTEX
  8
T15SSILL
 62
2
 10
-98.319
 20
-1070.271
 30
3688.412
 70
    32
  0
VERTEX
  8
T15SSILL
 62
2
 10
-97.517
 20
-1063.853
 30
3688.402
 70
    32
  0
VERTEX
  8
T15SSILL
 62
2
 10
-102.549
 20
-1060.556
 30
3688.422
 70
    32
  0
VERTEX
  8
T15SSILL
 62
2
 10
-107.265
 20
-1063.321
 30
3688.446
 70
    32
  0
VERTEX
  8
T15SSILL
 62
2
 10
-257.812
 20
-947.784
 30
3688.953
 70
    32
  0
VERTEX
  8
T15SSILL
 62
2
 10
-256.483
 20
-941.324
 30
3689.156
 70
    32
  0
VERTEX
  8
T15SSILL
 62
2
 10
-261.321
 20
-936.070
 30
3689.333
 70
    32
  0
VERTEX
  8
T15SSILL
 62
2
 10
-268.871
 20
-938.712
 30
3689.265
 70
    32
  0
VERTEX
  8
T15SSILL
 62
2
 10
-335.310
 20
-888.696
 30
3689.458
 70
    32
  0
VERTEX
  8
T15SSILL
 62
2
 10
-333.943
 20
-881.615
 30
3690.400
 70
    32
  0
VERTEX
  8
T15SSILL
 62
2
 10
-337.130
 20
-879.315
 30
3690.384
 70
    32
  0
VERTEX
  8
T15SSILL
 62
2
 10
-344.547
 20
-881.417
 30
3689.493
 70
    32
  0
VERTEX
  8
T15SSILL
 62
2
 10
-408.081
 20
-832.881
 30
3689.858
 70
    32
  0
VERTEX
  8
T15SSILL
 62
2
 10
-419.710
 20
-823.478
 30
3690.883
 70
    32
  0
VERTEX
  8
T15SSILL
 62
2
 10
-430.660
 20
-814.179
 30
3691.891
 70
    32
  0
VERTEX
  8
T15SSILL
 62
2
 10
-432.809
 20
-810.244
 30
3692.250
 70
    32
  0
VERTEX
  8
T15SSILL
 62
2
 10
-437.598
 20
-805.985
 30
3692.299
 70
    32
  0
VERTEX
  8
T15SSILL
 62
2
 10
-441.621
 20
-790.554
 30
3693.015
 70
    32
  0
VERTEX
  8
T15SSILL
 62
2
 10
-436.089
 20
-772.390
 30
3693.431
 70
    32
  0
VERTEX
  8
T15SSILL
 62
2
 10
-448.350
 20
-759.416
 30
3692.651
 70
    32
  0
VERTEX
  8
T15SSILL
 62
2
 10
-459.137
 20
-726.823
 30
3690.759
 70
    32
  0
VERTEX
  8
T15SSILL
 62
2
 10
-458.810
 20
-715.568
 30
3690.118
 70
    32
  0
VERTEX
  8
T15SSILL
 62
2
 10
-460.390
 20
-707.057
 30
3689.628
 70
    32
  0
VERTEX
  8
T15SSILL
 62
2
 10
-459.441
 20
-696.499
 30
3688.864
 70
    32
  0
VERTEX
  8
T15SSILL
 62
2
 10
-465.772
 20
-696.299
 30
3688.979
 70
    32
  0
VERTEX
  8
T15SSILL
 62
2
 10
-473.570
 20
-690.048
 30
3688.616
 70
    32
  0
VERTEX
  8
T15SSILL
 62
2
 10
-483.986
 20
-668.176
 30
3687.335
 70
    32
  0
VERTEX
  8
T15SSILL
 62
2
 10
-486.820
 20
-666.095
 30
3687.207
 70
    32
  0
VERTEX
  8
T15SSILL
 62
2
 10
-494.524
 20
-651.756
 30
3686.365
 70
    32
  0
VERTEX
  8
T15SSILL
 62
2
 10
-508.530
 20
-657.610
 30
3686.653
 70
    32
  0
VERTEX
  8
T15SSILL
 62
2
 10
-506.228
 20
-667.960
 30
3687.250
 70
    32
  0
VERTEX
  8
T15SSILL
 62
2
 10
-506.079
 20
-674.112
 30
3687.601
 70
    32
  0
VERTEX
  8
T15SSILL
 62
2
 10
-508.593
 20
-677.565
 30
3687.790
 70
    32
  0
VERTEX
  8
T15SSILL
 62
2
 10
-509.317
 20
-684.341
 30
3688.174
 70
    32
  0
VERTEX
  8
T15SSILL
 62
2
 10
-507.854
 20
-689.952
 30
3688.498
 70
    32
  0
VERTEX
  8
T15SSILL
 62
2
 10
-490.116
 20
-714.388
 30
3689.949
 70
    32
  0
VERTEX
  8
T15SSILL
 62
2
 10
-486.915
 20
-726.750
 30
3690.664
 70
    32
  0
VERTEX
  8
T15SSILL
 62
2
 10
-487.369
 20
-734.139
 30
3691.084
 70
    32
  0
VERTEX
  8
T15SSILL
 62
2
 10
-484.459
 20
-743.779
 30
3691.643
 70
    32
  0
VERTEX
  8
T15SSILL
 62
2
 10
-478.356
 20
-756.288
 30
3692.375
 70
    32
  0
VERTEX
  8
T15SSILL
 62
2
 10
-466.805
 20
-768.655
 30
3693.118
 70
    32
  0
VERTEX
  8
T15SSILL
 62
2
 10
-458.342
 20
-779.822
 30
3692.952
 70
    32
  0
VERTEX
  8
T15SSILL
 62
2
 10
-452.857
 20
-783.283
 30
3692.976
 70
    32
  0
VERTEX
  8
T15SSILL
 62
2
 10
-452.874
 20
-790.403
 30
3692.570
 70
    32
  0
VERTEX
  8
T15SSILL
 62
2
 10
-459.641
 20
-793.378
 30
3692.129
 70
    32
  0
VERTEX
  8
T15SSILL
 62
2
 10
-495.320
 20
-774.039
 30
3691.793
 70
    32
  0
VERTEX
  8
T15SSILL
 62
2
 10
-500.218
 20
-767.759
 30
3691.952
 70
    32
  0
VERTEX
  8
T15SSILL
 62
2
 10
-499.522
 20
-766.961
 30
3692.026
 70
    32
  0
VERTEX
  8
T15SSILL
 62
2
 10
-500.691
 20
-764.423
 30
3692.123
 70
    32
  0
VERTEX
  8
T15SSILL
 62
2
 10
-503.256
 20
-762.779
 30
3692.113
 70
    32
  0
VERTEX
  8
T15SSILL
 62
2
 10
-504.895
 20
-757.169
 30
3692.339
 70
    32
  0
VERTEX
  8
T15SSILL
 62
2
 10
-510.629
 20
-746.327
 30
3691.702
 70
    32
  0
VERTEX
  8
T15SSILL
 62
2
 10
-517.422
 20
-717.650
 30
3690.046
 70
    32
  0
VERTEX
  8
T15SSILL
 62
2
 10
-518.939
 20
-689.008
 30
3688.409
 70
    32
  0
VERTEX
  8
T15SSILL
 62
2
 10
-517.377
 20
-669.478
 30
3687.300
 70
    32
  0
VERTEX
  8
T15SSILL
 62
2
 10
-519.723
 20
-654.646
 30
3686.447
 70
    32
  0
VERTEX
  8
T15SSILL
 62
2
 10
-520.716
 20
-652.106
 30
3686.300
 70
    32
  0
VERTEX
  8
T15SSILL
 62
2
 10
-531.410
 20
-655.114
 30
3686.436
 70
    32
  0
VERTEX
  8
T15SSILL
 62
2
 10
-537.924
 20
-645.422
 30
3685.862
 70
    32
  0
VERTEX
  8
T15SSILL
 62
2
 10
-531.460
 20
-632.523
 30
3685.148
 70
    32
  0
VERTEX
  8
T15SSILL
 62
2
 10
-524.757
 20
-626.039
 30
3684.801
 70
    32
  0
VERTEX
  8
T15SSILL
 62
2
 10
-517.148
 20
-622.183
 30
3684.606
 70
    32
  0
VERTEX
  8
T15SSILL
 62
2
 10
-508.816
 20
-620.254
 30
3684.452
 70
    32
  0
VERTEX
  8
T15SSILL
 62
2
 10
-498.609
 20
-621.294
 30
3684.317
 70
    32
  0
VERTEX
  8
T15SSILL
 62
2
 10
-479.466
 20
-619.256
 30
3683.781
 70
    32
  0
VERTEX
  8
T15SSILL
 62
2
 10
-476.470
 20
-620.017
 30
3683.774
 70
    32
  0
VERTEX
  8
T15SSILL
 62
2
 10
-468.496
 20
-626.179
 30
3684.049
 70
    32
  0
VERTEX
  8
T15SSILL
 62
2
 10
-461.270
 20
-645.533
 30
3685.278
 70
    32
  0
VERTEX
  8
T15SSILL
 62
2
 10
-460.215
 20
-671.894
 30
3687.130
 70
    32
  0
VERTEX
  8
T15SSILL
 62
2
 10
-452.132
 20
-671.461
 30
3686.934
 70
    32
  0
VERTEX
  8
T15SSILL
 62
2
 10
-445.622
 20
-680.714
 30
3687.459
 70
    32
  0
VERTEX
  8
T15SSILL
 62
2
 10
-436.456
 20
-683.083
 30
3687.440
 70
    32
  0
VERTEX
  8
T15SSILL
 62
2
 10
-430.266
 20
-686.801
 30
3687.578
 70
    32
  0
VERTEX
  8
T15SSILL
 62
2
 10
-420.118
 20
-681.953
 30
3687.026
 70
    32
  0
VERTEX
  8
T15SSILL
 62
2
 10
-435.036
 20
-649.402
 30
3685.016
 70
    32
  0
VERTEX
  8
T15SSILL
 62
2
 10
-446.136
 20
-629.471
 30
3683.826
 70
    32
  0
VERTEX
  8
T15SSILL
 62
2
 10
-447.956
 20
-623.248
 30
3683.421
 70
    32
  0
VERTEX
  8
T15SSILL
 62
2
 10
-451.333
 20
-619.590
 30
3683.230
 70
    32
  0
VERTEX
  8
T15SSILL
 62
2
 10
-455.058
 20
-607.496
 30
3682.446
 70
    32
  0
VERTEX
  8
T15SSILL
 62
2
 10
-463.782
 20
-605.386
 30
3682.474
 70
    32
  0
VERTEX
  8
T15SSILL
 62
2
 10
-476.356
 20
-605.072
 30
3682.709
 70
    32
  0
VERTEX
  8
T15SSILL
 62
2
 10
-488.199
 20
-607.477
 30
3683.122
 70
    32
  0
VERTEX
  8
T15SSILL
 62
2
 10
-500.334
 20
-607.071
 30
3683.341
 70
    32
  0
VERTEX
  8
T15SSILL
 62
2
 10
-520.703
 20
-609.473
 30
3683.870
 70
    32
  0
VERTEX
  8
T15SSILL
 62
2
 10
-522.671
 20
-606.064
 30
3683.669
 70
    32
  0
VERTEX
  8
T15SSILL
 62
2
 10
-496.720
 20
-535.442
 30
3678.206
 70
    32
  0
VERTEX
  8
T15SSILL
 62
2
 10
-506.894
 20
-531.363
 30
3678.204
 70
    32
  0
VERTEX
  8
T15SSILL
 62
2
 10
-525.564
 20
-580.601
 30
3681.975
 70
    32
  0
VERTEX
  8
T15SSILL
 62
2
 10
-527.665
 20
-581.413
 30
3682.075
 70
    32
  0
VERTEX
  8
T15SSILL
 62
2
 10
-537.692
 20
-536.946
 30
3679.119
 70
    32
  0
VERTEX
  8
T15SSILL
 62
2
 10
-554.477
 20
-519.885
 30
3678.249
 70
    32
  0
VERTEX
  8
T15SSILL
 62
2
 10
-573.896
 20
-503.114
 30
3678.253
 70
    32
  0
VERTEX
  8
T15SSILL
 62
2
 10
-577.188
 20
-497.501
 30
3678.453
 70
    32
  0
VERTEX
  8
T15SSILL
 62
2
 10
-586.748
 20
-506.879
 30
3678.311
 70
    32
  0
VERTEX
  8
T15SSILL
 62
2
 10
-551.209
 20
-539.015
 30
3679.542
 70
    32
  0
VERTEX
  8
T15SSILL
 62
2
 10
-550.733
 20
-542.615
 30
3679.788
 70
    32
  0
VERTEX
  8
T15SSILL
 62
2
 10
-547.061
 20
-549.608
 30
3680.210
 70
    32
  0
VERTEX
  8
T15SSILL
 62
2
 10
-537.553
 20
-585.907
 30
3682.472
 70
    32
  0
VERTEX
  8
T15SSILL
 62
2
 10
-536.661
 20
-604.798
 30
3683.551
 70
    32
  0
VERTEX
  8
T15SSILL
 62
2
 10
-540.030
 20
-619.512
 30
3684.379
 70
    32
  0
VERTEX
  8
T15SSILL
 62
2
 10
-554.203
 20
-617.456
 30
3684.215
 70
    32
  0
VERTEX
  8
T15SSILL
 62
2
 10
-562.837
 20
-624.223
 30
3684.573
 70
    32
  0
VERTEX
  8
T15SSILL
 62
2
 10
-556.342
 20
-640.772
 30
3685.537
 70
    32
  0
VERTEX
  8
T15SSILL
 62
2
 10
-569.398
 20
-653.737
 30
3686.234
 70
    32
  0
VERTEX
  8
T15SSILL
 62
2
 10
-555.934
 20
-655.184
 30
3686.360
 70
    32
  0
VERTEX
  8
T15SSILL
 62
2
 10
-551.375
 20
-662.786
 30
3686.808
 70
    32
  0
VERTEX
  8
T15SSILL
 62
2
 10
-542.224
 20
-672.452
 30
3687.389
 70
    32
  0
VERTEX
  8
T15SSILL
 62
2
 10
-535.023
 20
-689.257
 30
3688.370
 70
    32
  0
VERTEX
  8
T15SSILL
 62
2
 10
-521.942
 20
-748.989
 30
3691.817
 70
    32
  0
VERTEX
  8
T15SSILL
 62
2
 10
-527.661
 20
-757.310
 30
3691.442
 70
    32
  0
VERTEX
  8
T15SSILL
 62
2
 10
-589.247
 20
-725.666
 30
3690.344
 70
    32
  0
VERTEX
  8
T15SSILL
 62
2
 10
-590.729
 20
-718.121
 30
3689.986
 70
    32
  0
VERTEX
  8
T15SSILL
 62
2
 10
-595.686
 20
-714.654
 30
3689.990
 70
    32
  0
VERTEX
  8
T15SSILL
 62
2
 10
-602.368
 20
-705.843
 30
3689.767
 70
    32
  0
VERTEX
  8
T15SSILL
 62
2
 10
-606.043
 20
-698.760
 30
3689.521
 70
    32
  0
VERTEX
  8
T15SSILL
 62
2
 10
-606.246
 20
-696.037
 30
3689.379
 70
    32
  0
VERTEX
  8
T15SSILL
 62
2
 10
-600.766
 20
-690.268
 30
3688.844
 70
    32
  0
VERTEX
  8
T15SSILL
 62
2
 10
-598.449
 20
-693.321
 30
3688.921
 70
    32
  0
VERTEX
  8
T15SSILL
 62
2
 10
-585.162
 20
-703.473
 30
3689.017
 70
    32
  0
VERTEX
  8
T15SSILL
 62
2
 10
-577.427
 20
-694.605
 30
3688.537
 70
    32
  0
VERTEX
  8
T15SSILL
 62
2
 10
-582.836
 20
-690.000
 30
3688.257
 70
    32
  0
VERTEX
  8
T15SSILL
 62
2
 10
-582.036
 20
-682.081
 30
3687.808
 70
    32
  0
VERTEX
  8
T15SSILL
 62
2
 10
-587.605
 20
-678.972
 30
3687.701
 70
    32
  0
VERTEX
  8
T15SSILL
 62
2
 10
-588.212
 20
-671.067
 30
3687.289
 70
    32
  0
VERTEX
  8
T15SSILL
 62
2
 10
-593.602
 20
-668.308
 30
3687.349
 70
    32
  0
VERTEX
  8
T15SSILL
 62
2
 10
-595.299
 20
-665.600
 30
3687.266
 70
    32
  0
VERTEX
  8
T15SSILL
 62
2
 10
-589.082
 20
-654.462
 30
3686.406
 70
    32
  0
VERTEX
  8
T15SSILL
 62
2
 10
-588.074
 20
-649.705
 30
3686.104
 70
    32
  0
VERTEX
  8
T15SSILL
 62
2
 10
-597.011
 20
-643.905
 30
3686.136
 70
    32
  0
VERTEX
  8
T15SSILL
 62
2
 10
-617.824
 20
-637.169
 30
3686.585
 70
    32
  0
VERTEX
  8
T15SSILL
 62
2
 10
-624.068
 20
-636.880
 30
3686.816
 70
    32
  0
VERTEX
  8
T15SSILL
 62
2
 10
-626.881
 20
-628.117
 30
3686.443
 70
    32
  0
VERTEX
  8
T15SSILL
 62
2
 10
-633.390
 20
-627.655
 30
3686.674
 70
    32
  0
VERTEX
  8
T15SSILL
 62
2
 10
-635.429
 20
-626.006
 30
3686.663
 70
    32
  0
VERTEX
  8
T15SSILL
 62
2
 10
-638.124
 20
-620.231
 30
3686.451
 70
    32
  0
VERTEX
  8
T15SSILL
 62
2
 10
-643.549
 20
-613.956
 30
3686.319
 70
    32
  0
VERTEX
  8
T15SSILL
 62
2
 10
-649.511
 20
-615.422
 30
3686.635
 70
    32
  0
VERTEX
  8
T15SSILL
 62
2
 10
-655.808
 20
-618.650
 30
3687.061
 70
    32
  0
VERTEX
  8
T15SSILL
 62
2
 10
-655.318
 20
-623.656
 30
3687.318
 70
    32
  0
VERTEX
  8
T15SSILL
 62
2
 10
-647.419
 20
-631.224
 30
3687.425
 70
    32
  0
VERTEX
  8
T15SSILL
 62
2
 10
-647.745
 20
-633.777
 30
3687.578
 70
    32
  0
VERTEX
  8
T15SSILL
 62
2
 10
-645.655
 20
-640.612
 30
3687.873
 70
    32
  0
VERTEX
  8
T15SSILL
 62
2
 10
-639.177
 20
-646.701
 30
3687.954
 70
    32
  0
VERTEX
  8
T15SSILL
 62
2
 10
-635.953
 20
-652.646
 30
3688.155
 70
    32
  0
VERTEX
  8
T15SSILL
 62
2
 10
-631.597
 20
-657.437
 30
3688.248
 70
    32
  0
VERTEX
  8
T15SSILL
 62
2
 10
-626.660
 20
-667.672
 30
3688.618
 70
    32
  0
VERTEX
  8
T15SSILL
 62
2
 10
-625.686
 20
-677.156
 30
3689.103
 70
    32
  0
VERTEX
  8
T15SSILL
 62
2
 10
-627.741
 20
-682.627
 30
3689.486
 70
    32
  0
VERTEX
  8
T15SSILL
 62
2
 10
-616.201
 20
-702.641
 30
3690.136
 70
    32
  0
VERTEX
  8
T15SSILL
 62
2
 10
-615.740
 20
-704.746
 30
3690.234
 70
    32
  0
VERTEX
  8
T15SSILL
 62
2
 10
-618.314
 20
-711.013
 30
3690.576
 70
    32
  0
VERTEX
  8
T15SSILL
 62
2
 10
-687.502
 20
-675.226
 30
3690.651
 70
    32
  0
VERTEX
  8
T15SSILL
 62
2
 10
-678.015
 20
-657.023
 30
3690.056
 70
    32
  0
VERTEX
  8
T15SSILL
 62
2
 10
-692.947
 20
-649.437
 30
3690.226
 70
    32
  0
VERTEX
  8
T15SSILL
 62
2
 10
-701.218
 20
-666.134
 30
3690.663
 70
    32
  0
VERTEX
  8
T15SSILL
 62
2
 10
-708.292
 20
-661.985
 30
3690.669
 70
    32
  0
VERTEX
  8
T15SSILL
 62
2
 10
-719.871
 20
-646.894
 30
3690.665
 70
    32
  0
VERTEX
  8
T15SSILL
 62
2
 10
-722.639
 20
-625.121
 30
3690.055
 70
    32
  0
VERTEX
  8
T15SSILL
 62
2
 10
-724.552
 20
-602.478
 30
3688.881
 70
    32
  0
VERTEX
  8
T15SSILL
 62
2
 10
-724.745
 20
-590.332
 30
3690.609
 70
    32
  0
VERTEX
  8
T15SSILL
 62
2
 10
-727.462
 20
-573.658
 30
3693.386
 70
    32
  0
VERTEX
  8
T15SSILL
 62
2
 10
-723.447
 20
-553.224
 30
3695.579
 70
    32
  0
VERTEX
  8
T15SSILL
 62
2
 10
-721.631
 20
-548.577
 30
3695.928
 70
    32
  0
VERTEX
  8
T15SSILL
 62
2
 10
-717.962
 20
-539.192
 30
3694.025
 70
    32
  0
VERTEX
  8
T15SSILL
 62
2
 10
-703.643
 20
-529.467
 30
3691.240
 70
    32
  0
VERTEX
  8
T15SSILL
 62
2
 10
-698.124
 20
-536.356
 30
3692.002
 70
    32
  0
VERTEX
  8
T15SSILL
 62
2
 10
-685.059
 20
-533.061
 30
3690.423
 70
    32
  0
VERTEX
  8
T15SSILL
 62
2
 10
-676.069
 20
-526.641
 30
3688.621
 70
    32
  0
VERTEX
  8
T15SSILL
 62
2
 10
-669.114
 20
-527.714
 30
3688.268
 70
    32
  0
VERTEX
  8
T15SSILL
 62
2
 10
-661.313
 20
-516.736
 30
3685.771
 70
    32
  0
VERTEX
  8
T15SSILL
 62
2
 10
-662.573
 20
-504.970
 30
3683.838
 70
    32
  0
VERTEX
  8
T15SSILL
 62
2
 10
-670.216
 20
-505.486
 30
3684.518
 70
    32
  0
VERTEX
  8
T15SSILL
 62
2
 10
-680.628
 20
-501.546
 30
3684.644
 70
    32
  0
VERTEX
  8
T15SSILL
 62
2
 10
-686.257
 20
-492.461
 30
3683.512
 70
    32
  0
VERTEX
  8
T15SSILL
 62
2
 10
-690.681
 20
-489.604
 30
3683.361
 70
    32
  0
VERTEX
  8
T15SSILL
 62
2
 10
-694.109
 20
-489.639
 30
3683.632
 70
    32
  0
VERTEX
  8
T15SSILL
 62
2
 10
-702.624
 20
-473.198
 30
3683.328
 70
    32
  0
VERTEX
  8
T15SSILL
 62
2
 10
-703.700
 20
-462.396
 30
3683.029
 70
    32
  0
VERTEX
  8
T15SSILL
 62
2
 10
-732.561
 20
-477.102
 30
3685.038
 70
    32
  0
VERTEX
  8
T15SSILL
 62
2
 10
-736.894
 20
-483.299
 30
3685.847
 70
    32
  0
VERTEX
  8
T15SSILL
 62
2
 10
-743.436
 20
-497.165
 30
3688.745
 70
    32
  0
VERTEX
  8
T15SSILL
 62
2
 10
-746.949
 20
-514.957
 30
3692.086
 70
    32
  0
VERTEX
  8
T15SSILL
 62
2
 10
-741.039
 20
-546.219
 30
3697.022
 70
    32
  0
VERTEX
  8
T15SSILL
 62
2
 10
-738.301
 20
-574.454
 30
3695.063
 70
    32
  0
VERTEX
  8
T15SSILL
 62
2
 10
-735.349
 20
-609.430
 30
3689.690
 70
    32
  0
VERTEX
  8
T15SSILL
 62
2
 10
-733.323
 20
-629.096
 30
3690.660
 70
    32
  0
VERTEX
  8
T15SSILL
 62
2
 10
-753.459
 20
-602.223
 30
3691.293
 70
    32
  0
VERTEX
  8
T15SSILL
 62
2
 10
-750.066
 20
-598.673
 30
3691.936
 70
    32
  0
VERTEX
  8
T15SSILL
 62
2
 10
-754.614
 20
-592.214
 30
3691.922
 70
    32
  0
VERTEX
  8
T15SSILL
 62
2
 10
-759.169
 20
-593.842
 30
3691.297
 70
    32
  0
VERTEX
  8
T15SSILL
 62
2
 10
-760.317
 20
-593.238
 30
3691.216
 70
    32
  0
VERTEX
  8
T15SSILL
 62
2
 10
-811.361
 20
-525.975
 30
3690.996
 70
    32
  0
VERTEX
  8
T15SSILL
 62
2
 10
-806.823
 20
-522.677
 30
3691.881
 70
    32
  0
VERTEX
  8
T15SSILL
 62
2
 10
-811.010
 20
-517.093
 30
3691.995
 70
    32
  0
VERTEX
  8
T15SSILL
 62
2
 10
-815.645
 20
-519.513
 30
3691.193
 70
    32
  0
VERTEX
  8
T15SSILL
 62
2
 10
-853.773
 20
-469.087
 30
3692.178
 70
    32
  0
VERTEX
  8
T15SSILL
 62
2
 10
-856.297
 20
-445.290
 30
3690.532
 70
    32
  0
VERTEX
  8
T15SSILL
 62
2
 10
-855.108
 20
-441.146
 30
3690.333
 70
    32
  0
VERTEX
  8
T15SSILL
 62
2
 10
-850.511
 20
-434.947
 30
3689.886
 70
    32
  0
VERTEX
  8
T15SSILL
 62
2
 10
-842.573
 20
-420.100
 30
3688.978
 70
    32
  0
VERTEX
  8
T15SSILL
 62
2
 10
-839.008
 20
-407.406
 30
3688.447
 70
    32
  0
VERTEX
  8
T15SSILL
 62
2
 10
-846.892
 20
-383.838
 30
3688.877
 70
    32
  0
VERTEX
  8
T15SSILL
 62
2
 10
-847.404
 20
-367.845
 30
3688.983
 70
    32
  0
VERTEX
  8
T15SSILL
 62
2
 10
-860.935
 20
-368.420
 30
3689.498
 70
    32
  0
VERTEX
  8
T15SSILL
 62
2
 10
-862.747
 20
-363.076
 30
3689.596
 70
    32
  0
VERTEX
  8
T15SSILL
 62
2
 10
-873.643
 20
-345.956
 30
3690.106
 70
    32
  0
VERTEX
  8
T15SSILL
 62
2
 10
-883.704
 20
-350.716
 30
3690.466
 70
    32
  0
VERTEX
  8
T15SSILL
 62
2
 10
-884.339
 20
-357.579
 30
3690.453
 70
    32
  0
VERTEX
  8
T15SSILL
 62
2
 10
-894.784
 20
-367.880
 30
3690.797
 70
    32
  0
VERTEX
  8
T15SSILL
 62
2
 10
-879.942
 20
-375.291
 30
3690.189
 70
    32
  0
VERTEX
  8
T15SSILL
 62
2
 10
-884.482
 20
-387.116
 30
3690.299
 70
    32
  0
VERTEX
  8
T15SSILL
 62
2
 10
-868.466
 20
-397.592
 30
3689.629
 70
    32
  0
VERTEX
  8
T15SSILL
 62
2
 10
-864.137
 20
-408.537
 30
3689.737
 70
    32
  0
VERTEX
  8
T15SSILL
 62
2
 10
-865.122
 20
-415.579
 30
3690.021
 70
    32
  0
VERTEX
  8
T15SSILL
 62
2
 10
-868.787
 20
-418.253
 30
3690.303
 70
    32
  0
VERTEX
  8
T15SSILL
 62
2
 10
-872.119
 20
-419.077
 30
3690.506
 70
    32
  0
VERTEX
  8
T15SSILL
 62
2
 10
-873.241
 20
-421.110
 30
3690.632
 70
    32
  0
VERTEX
  8
T15SSILL
 62
2
 10
-870.874
 20
-438.052
 30
3691.064
 70
    32
  0
VERTEX
  8
T15SSILL
 62
2
 10
-875.235
 20
-441.436
 30
3691.406
 70
    32
  0
VERTEX
  8
T15SSILL
 62
2
 10
-900.063
 20
-406.451
 30
3691.568
 70
    32
  0
VERTEX
  8
T15SSILL
 62
2
 10
-904.298
 20
-382.458
 30
3691.083
 70
    32
  0
VERTEX
  8
T15SSILL
 62
2
 10
-904.302
 20
-374.847
 30
3691.124
 70
    32
  0
VERTEX
  8
T15SSILL
 62
2
 10
-900.403
 20
-361.997
 30
3691.044
 70
    32
  0
VERTEX
  8
T15SSILL
 62
2
 10
-839.326
 20
-274.383
 30
3689.432
 70
    32
  0
VERTEX
  8
T15SSILL
 62
2
 10
-824.400
 20
-265.021
 30
3689.063
 70
    32
  0
VERTEX
  8
T15SSILL
 62
2
 10
-818.434
 20
-267.087
 30
3688.842
 70
    32
  0
VERTEX
  8
T15SSILL
 62
2
 10
-810.408
 20
-272.872
 30
3688.505
 70
    32
  0
VERTEX
  8
T15SSILL
 62
2
 10
-796.855
 20
-291.158
 30
3687.829
 70
    32
  0
VERTEX
  8
T15SSILL
 62
2
 10
-787.366
 20
-299.248
 30
3687.416
 70
    32
  0
VERTEX
  8
T15SSILL
 62
2
 10
-759.054
 20
-328.525
 30
3686.117
 70
    32
  0
VERTEX
  8
T15SSILL
 62
2
 10
-752.977
 20
-326.269
 30
3685.947
 70
    32
  0
VERTEX
  8
T15SSILL
 62
2
 10
-748.189
 20
-321.797
 30
3685.848
 70
    32
  0
VERTEX
  8
T15SSILL
 62
2
 10
-775.839
 20
-294.323
 30
3687.102
 70
    32
  0
VERTEX
  8
T15SSILL
 62
2
 10
-792.282
 20
-269.986
 30
3687.949
 70
    32
  0
VERTEX
  8
T15SSILL
 62
2
 10
-801.571
 20
-266.645
 30
3688.296
 70
    32
  0
VERTEX
  8
T15SSILL
 62
2
 10
-800.884
 20
-258.639
 30
3688.375
 70
    32
  0
VERTEX
  8
T15SSILL
 62
2
 10
-814.168
 20
-258.320
 30
3688.814
 70
    32
  0
VERTEX
  8
T15SSILL
 62
2
 10
-819.515
 20
-245.470
 30
3689.152
 70
    32
  0
VERTEX
  8
T15SSILL
 62
2
 10
-808.081
 20
-229.083
 30
3688.986
 70
    32
  0
VERTEX
  8
T15SSILL
 62
2
 10
-789.381
 20
-210.877
 30
3688.606
 70
    32
  0
VERTEX
  8
T15SSILL
 62
2
 10
-721.598
 20
-167.208
 30
3691.168
 70
    32
  0
VERTEX
  8
T15SSILL
 62
2
 10
-715.929
 20
-169.165
 30
3691.184
 70
    32
  0
VERTEX
  8
T15SSILL
 62
2
 10
-713.360
 20
-171.643
 30
3691.117
 70
    32
  0
VERTEX
  8
T15SSILL
 62
2
 10
-713.363
 20
-174.473
 30
3690.985
 70
    32
  0
VERTEX
  8
T15SSILL
 62
2
 10
-717.459
 20
-184.964
 30
3690.416
 70
    32
  0
VERTEX
  8
T15SSILL
 62
2
 10
-720.845
 20
-189.717
 30
3690.129
 70
    32
  0
VERTEX
  8
T15SSILL
 62
2
 10
-727.434
 20
-194.850
 30
3689.763
 70
    32
  0
VERTEX
  8
T15SSILL
 62
2
 10
-721.900
 20
-202.886
 30
3689.492
 70
    32
  0
VERTEX
  8
T15SSILL
 62
2
 10
-711.702
 20
-214.484
 30
3689.143
 70
    32
  0
VERTEX
  8
T15SSILL
 62
2
 10
-703.744
 20
-208.245
 30
3689.587
 70
    32
  0
VERTEX
  8
T15SSILL
 62
2
 10
-693.196
 20
-215.997
 30
3689.424
 70
    32
  0
VERTEX
  8
T15SSILL
 62
2
 10
-691.018
 20
-216.149
 30
3689.459
 70
    32
  0
VERTEX
  8
T15SSILL
 62
2
 10
-686.532
 20
-222.449
 30
3689.249
 70
    32
  0
VERTEX
  8
T15SSILL
 62
2
 10
-685.149
 20
-222.855
 30
3689.256
 70
    32
  0
VERTEX
  8
T15SSILL
 62
2
 10
-678.772
 20
-217.878
 30
3689.610
 70
    32
  0
VERTEX
  8
T15SSILL
 62
2
 10
-679.251
 20
-197.235
 30
3690.568
 70
    32
  0
VERTEX
  8
T15SSILL
 62
2
 10
-675.048
 20
-190.471
 30
3690.964
 70
    32
  0
VERTEX
  8
T15SSILL
 62
2
 10
-679.919
 20
-170.966
 30
3691.785
 70
    32
  0
VERTEX
  8
T15SSILL
 62
2
 10
-680.113
 20
-165.778
 30
3692.024
 70
    32
  0
VERTEX
  8
T15SSILL
 62
2
 10
-674.222
 20
-160.284
 30
3692.393
 70
    32
  0
VERTEX
  8
T15SSILL
 62
2
 10
-668.888
 20
-147.911
 30
3692.699
 70
    32
  0
VERTEX
  8
T15SSILL
 62
2
 10
-676.017
 20
-131.574
 30
3692.831
 70
    32
  0
VERTEX
  8
T15SSILL
 62
2
 10
-673.536
 20
-126.176
 30
3692.867
 70
    32
  0
VERTEX
  8
T15SSILL
 62
2
 10
-671.132
 20
-92.337
 30
3693.112
 70
    32
  0
VERTEX
  8
T15SSILL
 62
2
 10
-670.526
 20
-86.456
 30
3690.995
 70
    32
  0
VERTEX
  8
T15SSILL
 62
2
 10
-671.907
 20
-75.628
 30
3687.303
 70
    32
  0
VERTEX
  8
T15SSILL
 62
2
 10
-673.039
 20
-66.753
 30
3687.424
 70
    32
  0
VERTEX
  8
T15SSILL
 62
2
 10
-683.146
 20
-45.736
 30
3687.695
 70
    32
  0
VERTEX
  8
T15SSILL
 62
2
 10
-690.369
 20
-36.428
 30
3687.809
 70
    32
  0
VERTEX
  8
T15SSILL
 62
2
 10
-702.378
 20
-47.253
 30
3687.633
 70
    32
  0
VERTEX
  8
T15SSILL
 62
2
 10
-697.348
 20
-60.117
 30
3687.464
 70
    32
  0
VERTEX
  8
T15SSILL
 62
2
 10
-691.261
 20
-71.161
 30
3687.323
 70
    32
  0
VERTEX
  8
T15SSILL
 62
2
 10
-689.912
 20
-74.490
 30
3688.382
 70
    32
  0
VERTEX
  8
T15SSILL
 62
2
 10
-687.556
 20
-88.653
 30
3693.167
 70
    32
  0
VERTEX
  8
T15SSILL
 62
2
 10
-686.259
 20
-95.755
 30
3693.112
 70
    32
  0
VERTEX
  8
T15SSILL
 62
2
 10
-687.446
 20
-112.174
 30
3692.993
 70
    32
  0
VERTEX
  8
T15SSILL
 62
2
 10
-688.954
 20
-114.579
 30
3692.978
 70
    32
  0
VERTEX
  8
T15SSILL
 62
2
 10
-702.024
 20
-115.300
 30
3692.994
 70
    32
  0
VERTEX
  8
T15SSILL
 62
2
 10
-708.123
 20
-120.510
 30
3692.966
 70
    32
  0
VERTEX
  8
T15SSILL
 62
2
 10
-717.126
 20
-123.377
 30
3692.960
 70
    32
  0
VERTEX
  8
T15SSILL
 62
2
 10
-727.041
 20
-130.064
 30
3692.803
 70
    32
  0
VERTEX
  8
T15SSILL
 62
2
 10
-731.005
 20
-137.306
 30
3692.389
 70
    32
  0
VERTEX
  8
T15SSILL
 62
2
 10
-722.778
 20
-154.255
 30
3691.752
 70
    32
  0
VERTEX
  8
T15SSILL
 62
2
 10
-787.595
 20
-198.263
 30
3688.708
 70
    32
  0
VERTEX
  8
T15SSILL
 62
2
 10
-791.911
 20
-193.687
 30
3688.908
 70
    32
  0
VERTEX
  8
T15SSILL
 62
2
 10
-820.153
 20
-58.913
 30
3693.607
 70
    32
  0
VERTEX
  8
T15SSILL
 62
2
 10
-823.453
 20
-40.654
 30
3687.462
 70
    32
  0
VERTEX
  8
T15SSILL
 62
2
 10
-824.888
 20
-31.093
 30
3687.592
 70
    32
  0
VERTEX
  8
T15SSILL
 62
2
 10
-824.934
 20
-20.142
 30
3687.744
 70
    32
  0
VERTEX
  8
T15SSILL
 62
2
 10
-818.612
 20
-17.924
 30
3687.789
 70
    32
  0
VERTEX
  8
T15SSILL
 62
2
 10
-813.758
 20
-19.061
 30
3687.784
 70
    32
  0
VERTEX
  8
T15SSILL
 62
2
 10
-810.841
 20
-16.499
 30
3687.826
 70
    32
  0
VERTEX
  8
T15SSILL
 62
2
 10
-807.923
 20
-9.911
 30
3687.924
 70
    32
  0
VERTEX
  8
T15SSILL
 62
2
 10
-811.286
 20
-2.466
 30
3688.020
 70
    32
  0
VERTEX
  8
T15SSILL
 62
2
 10
-808.642
 20
11.209
 30
3688.217
 70
    32
  0
VERTEX
  8
T15SSILL
 62
2
 10
-810.776
 20
17.267
 30
3688.296
 70
    32
  0
VERTEX
  8
T15SSILL
 62
2
 10
-805.231
 20
30.991
 30
3688.500
 70
    32
  0
VERTEX
  8
T15SSILL
 62
2
 10
-797.669
 20
39.116
 30
3688.629
 70
    32
  0
VERTEX
  8
T15SSILL
 62
2
 10
-806.086
 20
52.447
 30
3688.797
 70
    32
  0
VERTEX
  8
T15SSILL
 62
2
 10
-803.601
 20
59.479
 30
3688.900
 70
    32
  0
VERTEX
  8
T15SSILL
 62
2
 10
-815.485
 20
65.931
 30
3688.964
 70
    32
  0
VERTEX
  8
T15SSILL
 62
2
 10
-818.475
 20
55.267
 30
3688.809
 70
    32
  0
VERTEX
  8
T15SSILL
 62
2
 10
-821.221
 20
49.784
 30
3688.727
 70
    32
  0
VERTEX
  8
T15SSILL
 62
2
 10
-830.051
 20
48.022
 30
3688.683
 70
    32
  0
VERTEX
  8
T15SSILL
 62
2
 10
-833.677
 20
34.500
 30
3688.487
 70
    32
  0
VERTEX
  8
T15SSILL
 62
2
 10
-834.175
 20
24.892
 30
3688.352
 70
    32
  0
VERTEX
  8
T15SSILL
 62
2
 10
-840.420
 20
23.165
 30
3688.314
 70
    32
  0
VERTEX
  8
T15SSILL
 62
2
 10
-837.443
 20
14.460
 30
3688.199
 70
    32
  0
VERTEX
  8
T15SSILL
 62
2
 10
-833.984
 20
-12.058
 30
3687.837
 70
    32
  0
VERTEX
  8
T15SSILL
 62
2
 10
-837.842
 20
-16.612
 30
3687.765
 70
    32
  0
VERTEX
  8
T15SSILL
 62
2
 10
-834.610
 20
-38.080
 30
3687.473
 70
    32
  0
VERTEX
  8
T15SSILL
 62
2
 10
-831.511
 20
-56.366
 30
3693.645
 70
    32
  0
VERTEX
  8
T15SSILL
 62
2
 10
-826.458
 20
-80.096
 30
3693.253
 70
    32
  0
VERTEX
  8
T15SSILL
 62
2
 10
-829.358
 20
-81.340
 30
3693.139
 70
    32
  0
VERTEX
  8
T15SSILL
 62
2
 10
-840.628
 20
-69.764
 30
3693.467
 70
    32
  0
VERTEX
  8
T15SSILL
 62
2
 10
-872.479
 20
-47.177
 30
3693.781
 70
    32
  0
VERTEX
  8
T15SSILL
 62
2
 10
-888.497
 20
-50.508
 30
3693.539
 70
    32
  0
VERTEX
  8
T15SSILL
 62
2
 10
-909.803
 20
-62.457
 30
3691.369
 70
    32
  0
VERTEX
  8
T15SSILL
 62
2
 10
-922.406
 20
-74.258
 30
3690.315
 70
    32
  0
VERTEX
  8
T15SSILL
 62
2
 10
-927.896
 20
-85.223
 30
3690.139
 70
    32
  0
VERTEX
  8
T15SSILL
 62
2
 10
-930.097
 20
-86.829
 30
3689.932
 70
    32
  0
VERTEX
  8
T15SSILL
 62
2
 10
-929.647
 20
-89.981
 30
3690.143
 70
    32
  0
VERTEX
  8
T15SSILL
 62
2
 10
-933.650
 20
-97.468
 30
3689.990
 70
    32
  0
VERTEX
  8
T15SSILL
 62
2
 10
-931.601
 20
-103.261
 30
3690.536
 70
    32
  0
VERTEX
  8
T15SSILL
 62
2
 10
-928.889
 20
-106.830
 30
3691.059
 70
    32
  0
VERTEX
  8
T15SSILL
 62
2
 10
-930.080
 20
-114.443
 30
3691.275
 70
    32
  0
VERTEX
  8
T15SSILL
 62
2
 10
-926.036
 20
-114.321
 30
3691.791
 70
    32
  0
VERTEX
  8
T15SSILL
 62
2
 10
-921.827
 20
-116.364
 30
3692.433
 70
    32
  0
VERTEX
  8
T15SSILL
 62
2
 10
-913.840
 20
-122.395
 30
3693.756
 70
    32
  0
VERTEX
  8
T15SSILL
 62
2
 10
-905.074
 20
-141.127
 30
3693.278
 70
    32
  0
VERTEX
  8
T15SSILL
 62
2
 10
-896.006
 20
-133.426
 30
3693.080
 70
    32
  0
VERTEX
  8
T15SSILL
 62
2
 10
-901.701
 20
-116.370
 30
3693.483
 70
    32
  0
VERTEX
  8
T15SSILL
 62
2
 10
-907.714
 20
-106.982
 30
3693.799
 70
    32
  0
VERTEX
  8
T15SSILL
 62
2
 10
-909.563
 20
-102.308
 30
3693.334
 70
    32
  0
VERTEX
  8
T15SSILL
 62
2
 10
-911.225
 20
-91.230
 30
3692.581
 70
    32
  0
VERTEX
  8
T15SSILL
 62
2
 10
-910.306
 20
-82.945
 30
3692.298
 70
    32
  0
VERTEX
  8
T15SSILL
 62
2
 10
-906.164
 20
-78.185
 30
3692.602
 70
    32
  0
VERTEX
  8
T15SSILL
 62
2
 10
-895.469
 20
-69.733
 30
3693.572
 70
    32
  0
VERTEX
  8
T15SSILL
 62
2
 10
-885.963
 20
-66.063
 30
3693.608
 70
    32
  0
VERTEX
  8
T15SSILL
 62
2
 10
-862.926
 20
-69.166
 30
3693.071
 70
    32
  0
VERTEX
  8
T15SSILL
 62
2
 10
-847.649
 20
-80.867
 30
3692.814
 70
    32
  0
VERTEX
  8
T15SSILL
 62
2
 10
-839.295
 20
-90.980
 30
3692.499
 70
    32
  0
VERTEX
  8
T15SSILL
 62
2
 10
-835.725
 20
-93.489
 30
3692.450
 70
    32
  0
VERTEX
  8
T15SSILL
 62
2
 10
-825.413
 20
-108.375
 30
3691.949
 70
    32
  0
VERTEX
  8
T15SSILL
 62
2
 10
-817.900
 20
-122.256
 30
3691.442
 70
    32
  0
VERTEX
  8
T15SSILL
 62
2
 10
-809.702
 20
-161.089
 30
3689.904
 70
    32
  0
VERTEX
  8
T15SSILL
 62
2
 10
-805.145
 20
-187.024
 30
3689.425
 70
    32
  0
VERTEX
  8
T15SSILL
 62
2
 10
-816.907
 20
-223.990
 30
3689.340
 70
    32
  0
VERTEX
  8
T15SSILL
 62
2
 10
-881.029
 20
-315.782
 30
3690.552
 70
    32
  0
VERTEX
  8
T15SSILL
 62
2
 10
-888.096
 20
-317.129
 30
3690.815
 70
    32
  0
VERTEX
  8
T15SSILL
 62
2
 10
-901.998
 20
-264.509
 30
3691.632
 70
    32
  0
VERTEX
  8
T15SSILL
 62
2
 10
-901.772
 20
-254.229
 30
3691.732
 70
    32
  0
VERTEX
  8
T15SSILL
 62
2
 10
-903.036
 20
-251.453
 30
3691.808
 70
    32
  0
VERTEX
  8
T15SSILL
 62
2
 10
-907.202
 20
-247.530
 30
3691.994
 70
    32
  0
VERTEX
  8
T15SSILL
 62
2
 10
-912.002
 20
-233.193
 30
3692.334
 70
    32
  0
VERTEX
  8
T15SSILL
 62
2
 10
-922.774
 20
-236.915
 30
3692.639
 70
    32
  0
VERTEX
  8
T15SSILL
 62
2
 10
-921.651
 20
-240.991
 30
3692.550
 70
    32
  0
VERTEX
  8
T15SSILL
 62
2
 10
-924.552
 20
-241.040
 30
3692.645
 70
    32
  0
VERTEX
  8
T15SSILL
 62
2
 10
-929.342
 20
-239.095
 30
3692.826
 70
    32
  0
VERTEX
  8
T15SSILL
 62
2
 10
-939.671
 20
-230.748
 30
3693.270
 70
    32
  0
VERTEX
  8
T15SSILL
 62
2
 10
-947.115
 20
-205.178
 30
3693.479
 70
    32
  0
VERTEX
  8
T15SSILL
 62
2
 10
-946.636
 20
-191.668
 30
3692.885
 70
    32
  0
VERTEX
  8
T15SSILL
 62
2
 10
-952.818
 20
-192.587
 30
3692.132
 70
    32
  0
VERTEX
  8
T15SSILL
 62
2
 10
-954.459
 20
-182.581
 30
3691.435
 70
    32
  0
VERTEX
  8
T15SSILL
 62
2
 10
-963.671
 20
-183.969
 30
3691.279
 70
    32
  0
VERTEX
  8
T15SSILL
 62
2
 10
-966.433
 20
-181.524
 30
3691.179
 70
    32
  0
VERTEX
  8
T15SSILL
 62
2
 10
-969.228
 20
-173.665
 30
3690.694
 70
    32
  0
VERTEX
  8
T15SSILL
 62
2
 10
-975.908
 20
-173.751
 30
3690.877
 70
    32
  0
VERTEX
  8
T15SSILL
 62
2
 10
-983.623
 20
-168.392
 30
3690.701
 70
    32
  0
VERTEX
  8
T15SSILL
 62
2
 10
-992.150
 20
-175.045
 30
3691.402
 70
    32
  0
VERTEX
  8
T15SSILL
 62
2
 10
-995.820
 20
-189.251
 30
3692.511
 70
    32
  0
VERTEX
  8
T15SSILL
 62
2
 10
-988.715
 20
-192.879
 30
3692.580
 70
    32
  0
VERTEX
  8
T15SSILL
 62
2
 10
-987.290
 20
-195.430
 30
3692.724
 70
    32
  0
VERTEX
  8
T15SSILL
 62
2
 10
-987.038
 20
-200.249
 30
3693.060
 70
    32
  0
VERTEX
  8
T15SSILL
 62
2
 10
-973.712
 20
-207.933
 30
3693.253
 70
    32
  0
VERTEX
  8
T15SSILL
 62
2
 10
-960.696
 20
-220.412
 30
3693.610
 70
    32
  0
VERTEX
  8
T15SSILL
 62
2
 10
-950.830
 20
-239.756
 30
3693.539
 70
    32
  0
VERTEX
  8
T15SSILL
 62
2
 10
-951.027
 20
-247.839
 30
3693.417
 70
    32
  0
VERTEX
  8
T15SSILL
 62
2
 10
-926.066
 20
-254.326
 30
3692.609
 70
    32
  0
VERTEX
  8
T15SSILL
 62
2
 10
-909.941
 20
-272.260
 30
3691.894
 70
    32
  0
VERTEX
  8
T15SSILL
 62
2
 10
-896.001
 20
-324.634
 30
3691.077
 70
    32
  0
VERTEX
  8
T15SSILL
 62
2
 10
-899.076
 20
-329.813
 30
3691.167
 70
    32
  0
VERTEX
  8
T15SSILL
 62
2
 10
-902.881
 20
-344.879
 30
3691.232
 70
    32
  0
VERTEX
  8
T15SSILL
 62
2
 10
-913.949
 20
-364.154
 30
3691.551
 70
    32
  0
VERTEX
  8
T15SSILL
 62
2
 10
-916.725
 20
-375.858
 30
3691.595
 70
    32
  0
VERTEX
  8
T15SSILL
 62
2
 10
-923.234
 20
-375.168
 30
3691.848
 70
    32
  0
VERTEX
  8
T15SSILL
 62
2
 10
-981.280
 20
-296.980
 30
3692.054
 70
    32
  0
VERTEX
  8
T15SSILL
 62
2
 10
-980.245
 20
-295.952
 30
3692.091
 70
    32
  0
VERTEX
  8
T15SSILL
 62
2
 10
-982.163
 20
-288.763
 30
3692.155
 70
    32
  0
VERTEX
  8
T15SSILL
 62
2
 10
-986.664
 20
-289.765
 30
3692.044
 70
    32
  0
VERTEX
  8
T15SSILL
 62
2
 10
-1228.551
 20
33.654
 30
3691.997
 70
    32
  0
VERTEX
  8
T15SSILL
 62
2
 10
-1337.583
 20
178.885
 30
3695.379
 70
    32
  0
VERTEX
  8
T15SSILL
 62
2
 10
-1448.595
 20
326.753
 30
3691.225
 70
    32
  0
VERTEX
  8
T15SSILL
 62
2
 10
-1456.198
 20
320.773
 30
3691.929
 70
    32
  0
VERTEX
  8
T15SSILL
 62
2
 10
-1386.697
 20
227.561
 30
3694.624
 70
    32
  0
VERTEX
  8
T15SSILL
 62
2
 10
-1388.080
 20
222.746
 30
3695.017
 70
    32
  0
VERTEX
  8
T15SSILL
 62
2
 10
-1378.278
 20
217.060
 30
3694.898
 70
    32
  0
VERTEX
  8
T15SSILL
 62
2
 10
-1351.868
 20
181.487
 30
3695.605
 70
    32
  0
VERTEX
  8
T15SSILL
 62
2
 10
-1286.077
 20
92.870
 30
3693.703
 70
    32
  0
VERTEX
  8
T15SSILL
 62
2
 10
-1285.841
 20
89.563
 30
3693.663
 70
    32
  0
VERTEX
  8
T15SSILL
 62
2
 10
-1287.595
 20
87.196
 30
3693.661
 70
    32
  0
VERTEX
  8
T15SSILL
 62
2
 10
-1276.770
 20
80.406
 30
3693.434
 70
    32
  0
VERTEX
  8
T15SSILL
 62
2
 10
-1187.291
 20
-38.262
 30
3692.119
 70
    32
  0
VERTEX
  8
T15SSILL
 62
2
 10
-1188.592
 20
-40.952
 30
3692.130
 70
    32
  0
VERTEX
  8
T15SSILL
 62
2
 10
-1179.738
 20
-47.873
 30
3692.078
 70
    32
  0
VERTEX
  8
T15SSILL
 62
2
 10
-982.183
 20
-313.025
 30
3691.969
 70
    32
  0
VERTEX
  8
T15SSILL
 62
2
 10
-987.098
 20
-322.568
 30
3692.019
 70
    32
  0
VERTEX
  8
T15SSILL
 62
2
 10
-952.146
 20
-354.302
 30
3692.033
 70
    32
  0
VERTEX
  8
T15SSILL
 62
2
 10
-881.497
 20
-448.180
 30
3691.689
 70
    32
  0
VERTEX
  8
T15SSILL
 62
2
 10
-884.268
 20
-452.339
 30
3691.691
 70
    32
  0
VERTEX
  8
T15SSILL
 62
2
 10
-880.444
 20
-456.784
 30
3691.666
 70
    32
  0
VERTEX
  8
T15SSILL
 62
2
 10
-876.065
 20
-455.157
 30
3691.652
 70
    32
  0
VERTEX
  8
T15SSILL
 62
2
 10
-824.474
 20
-524.437
 30
3690.598
 70
    32
  0
VERTEX
  8
T15SSILL
 62
2
 10
-827.780
 20
-527.810
 30
3690.652
 70
    32
  0
VERTEX
  8
T15SSILL
 62
2
 10
-823.232
 20
-534.357
 30
3690.549
 70
    32
  0
VERTEX
  8
T15SSILL
 62
2
 10
-819.218
 20
-531.328
 30
3690.481
 70
    32
  0
VERTEX
  8
T15SSILL
 62
2
 10
-767.651
 20
-598.234
 30
3690.555
 70
    32
  0
VERTEX
  8
T15SSILL
 62
2
 10
-770.869
 20
-601.695
 30
3690.556
 70
    32
  0
VERTEX
  8
T15SSILL
 62
2
 10
-766.856
 20
-607.456
 30
3690.586
 70
    32
  0
VERTEX
  8
T15SSILL
 62
2
 10
-762.033
 20
-606.265
 30
3690.596
 70
    32
  0
VERTEX
  8
T15SSILL
 62
2
 10
-722.659
 20
-658.174
 30
3690.692
 70
    32
  0
VERTEX
  8
T15SSILL
 62
2
 10
-709.808
 20
-677.384
 30
3690.701
 70
    32
  0
VERTEX
  8
T15SSILL
 62
2
 10
-721.873
 20
-684.010
 30
3690.737
 70
    32
  0
VERTEX
  8
T15SSILL
 62
2
 10
-801.554
 20
-741.419
 30
3690.853
 70
    32
  0
VERTEX
  8
T15SSILL
 62
2
 10
-809.284
 20
-742.023
 30
3690.816
 70
    32
  0
VERTEX
  8
T15SSILL
 62
2
 10
-820.231
 20
-746.089
 30
3690.772
 70
    32
  0
VERTEX
  8
T15SSILL
 62
2
 10
-828.747
 20
-747.141
 30
3690.732
 70
    32
  0
VERTEX
  8
T15SSILL
 62
2
 10
-834.561
 20
-745.881
 30
3690.699
 70
    32
  0
VERTEX
  8
T15SSILL
 62
2
 10
-837.305
 20
-747.287
 30
3690.689
 70
    32
  0
VERTEX
  8
T15SSILL
 62
2
 10
-846.135
 20
-757.600
 30
3690.674
 70
    32
  0
VERTEX
  8
T15SSILL
 62
2
 10
-846.738
 20
-758.837
 30
3690.674
 70
    32
  0
VERTEX
  8
T15SSILL
 62
2
 10
-844.775
 20
-761.718
 30
3690.692
 70
    32
  0
VERTEX
  8
T15SSILL
 62
2
 10
-847.126
 20
-764.027
 30
3690.687
 70
    32
  0
VERTEX
  8
T15SSILL
 62
2
 10
-848.840
 20
-768.352
 30
3690.690
 70
    32
  0
VERTEX
  8
T15SSILL
 62
2
 10
-857.545
 20
-776.878
 30
3690.670
 70
    32
  0
VERTEX
  8
T15SSILL
 62
2
 10
-866.399
 20
-788.130
 30
3690.685
 70
    32
  0
VERTEX
  8
T15SSILL
 62
2
 10
-1271.558
 20
-1080.232
 30
3692.627
 70
    32
  0
VERTEX
  8
T15SSILL
 62
2
 10
-1284.420
 20
-1086.366
 30
3692.689
 70
    32
  0
VERTEX
  8
T15SSILL
 62
2
 10
-1289.574
 20
-1086.275
 30
3692.726
 70
    32
  0
VERTEX
  8
T15SSILL
 62
2
 10
-1293.201
 20
-1084.851
 30
3692.758
 70
    32
  0
VERTEX
  8
T15SSILL
 62
2
 10
-1295.678
 20
-1088.560
 30
3692.760
 70
    32
  0
VERTEX
  8
T15SSILL
 62
2
 10
-1299.639
 20
-1089.253
 30
3692.786
 70
    32
  0
VERTEX
  8
T15SSILL
 62
2
 10
-1312.333
 20
-1087.624
 30
3692.884
 70
    32
  0
VERTEX
  8
T15SSILL
 62
2
 10
-1319.835
 20
-1084.782
 30
3692.950
 70
    32
  0
VERTEX
  8
T15SSILL
 62
2
 10
-1332.362
 20
-1075.390
 30
3693.080
 70
    32
  0
VERTEX
  8
T15SSILL
 62
2
 10
-1338.479
 20
-1066.811
 30
3693.161
 70
    32
  0
VERTEX
  8
T15SSILL
 62
2
 10
-1378.598
 20
-991.685
 30
3694.836
 70
    32
  0
VERTEX
  8
T15SSILL
 62
2
 10
-1373.941
 20
-988.371
 30
3694.849
 70
    32
  0
VERTEX
  8
T15SSILL
 62
2
 10
-1377.093
 20
-982.407
 30
3694.984
 70
    32
  0
VERTEX
  8
T15SSILL
 62
2
 10
-1382.213
 20
-984.178
 30
3695.002
 70
    32
  0
VERTEX
  8
T15SSILL
 62
2
 10
-1423.244
 20
-906.710
 30
3694.670
 70
    32
  0
VERTEX
  8
T15SSILL
 62
2
 10
-1419.532
 20
-902.606
 30
3694.590
 70
    32
  0
VERTEX
  8
T15SSILL
 62
2
 10
-1423.356
 20
-897.213
 30
3694.565
 70
    32
  0
VERTEX
  8
T15SSILL
 62
2
 10
-1427.044
 20
-899.268
 30
3694.621
 70
    32
  0
VERTEX
  8
T15SSILL
 62
2
 10
-1512.308
 20
-735.637
 30
3694.183
 70
    32
  0
VERTEX
  8
T15SSILL
 62
2
 10
-1508.323
 20
-732.894
 30
3694.168
 70
    32
  0
VERTEX
  8
T15SSILL
 62
2
 10
-1512.336
 20
-727.319
 30
3694.185
 70
    32
  0
VERTEX
  8
T15SSILL
 62
2
 10
-1515.396
 20
-729.734
 30
3694.196
 70
    32
  0
VERTEX
  8
T15SSILL
 62
2
 10
-1601.229
 20
-564.259
 30
3694.574
 70
    32
  0
VERTEX
  8
T15SSILL
 62
2
 10
-1597.183
 20
-561.427
 30
3694.559
 70
    32
  0
VERTEX
  8
T15SSILL
 62
2
 10
-1600.319
 20
-556.278
 30
3694.573
 70
    32
  0
VERTEX
  8
T15SSILL
 62
2
 10
-1603.811
 20
-558.675
 30
3694.586
 70
    32
  0
VERTEX
  8
T15SSILL
 62
2
 10
-1690.766
 20
-394.024
 30
3695.485
 70
    32
  0
VERTEX
  8
T15SSILL
 62
2
 10
-1686.597
 20
-391.207
 30
3695.460
 70
    32
  0
VERTEX
  8
T15SSILL
 62
2
 10
-1690.623
 20
-385.636
 30
3695.503
 70
    32
  0
VERTEX
  8
T15SSILL
 62
2
 10
-1693.535
 20
-387.916
 30
3695.520
 70
    32
  0
VERTEX
  8
T15SSILL
 62
2
 10
-1735.557
 20
-309.092
 30
3696.042
 70
    32
  0
VERTEX
  8
T15SSILL
 62
2
 10
-1731.789
 20
-306.478
 30
3696.015
 70
    32
  0
VERTEX
  8
T15SSILL
 62
2
 10
-1736.141
 20
-300.490
 30
3696.067
 70
    32
  0
VERTEX
  8
T15SSILL
 62
2
 10
-1738.685
 20
-301.811
 30
3696.087
 70
    32
  0
VERTEX
  8
T15SSILL
 62
2
 10
-1759.530
 20
-264.897
 30
3696.369
 70
    32
  0
VERTEX
  8
T15SSILL
 62
2
 10
-1786.243
 20
-228.774
 30
3696.541
 70
    32
  0
VERTEX
  8
T15SSILL
 62
2
 10
-1783.083
 20
-226.524
 30
3696.533
 70
    32
  0
VERTEX
  8
T15SSILL
 62
2
 10
-1786.156
 20
-221.885
 30
3696.554
 70
    32
  0
VERTEX
  8
T15SSILL
 62
2
 10
-1789.509
 20
-224.174
 30
3696.563
 70
    32
  0
VERTEX
  8
T15SSILL
 62
2
 10
-1791.577
 20
-222.102
 30
3696.575
 70
    32
  0
VERTEX
  8
T15SSILL
 62
2
 10
-1796.834
 20
-208.101
 30
3696.622
 70
    32
  0
VERTEX
  8
T15SSILL
 62
2
 10
-1796.893
 20
-194.168
 30
3696.648
 70
    32
  0
VERTEX
  8
T15SSILL
 62
2
 10
-1793.271
 20
-179.367
 30
3696.662
 70
    32
  0
VERTEX
  8
T15SSILL
 62
2
 10
-1789.775
 20
-173.834
 30
3696.658
 70
    32
  0
VERTEX
  8
T15SSILL
 62
2
 10
-1766.737
 20
-165.976
 30
3696.583
 70
    32
  0
VERTEX
  8
T15SSILL
 62
2
 10
-1759.362
 20
-165.683
 30
3696.554
 70
    32
  0
VERTEX
  8
T15SSILL
 62
2
 10
-1757.515
 20
-158.757
 30
3696.560
 70
    32
  0
VERTEX
  8
T15SSILL
 62
2
 10
-1758.099
 20
-147.583
 30
3696.583
 70
    32
  0
VERTEX
  8
T15SSILL
 62
2
 10
-1597.080
 20
-32.077
 30
3696.167
 70
    32
  0
VERTEX
  8
T15SSILL
 62
2
 10
-1603.417
 20
-24.035
 30
3696.207
 70
    32
  0
VERTEX
  8
T15SSILL
 62
2
 10
-1785.918
 20
-155.046
 30
3696.678
 70
    32
  0
VERTEX
  8
T15SSILL
 62
2
 10
-1795.058
 20
-163.656
 30
3696.698
 70
    32
  0
VERTEX
  8
T15SSILL
 62
2
 10
-1802.622
 20
-175.280
 30
3696.706
 70
    32
  0
VERTEX
  8
T15SSILL
 62
2
 10
-1806.425
 20
-186.421
 30
3696.700
 70
    32
  0
VERTEX
  8
T15SSILL
 62
2
 10
-1807.038
 20
-200.209
 30
3696.677
 70
    32
  0
VERTEX
  8
T15SSILL
 62
2
 10
-1842.150
 20
-150.643
 30
3696.908
 70
    32
  0
VERTEX
  8
T15SSILL
 62
2
 10
-1839.810
 20
-147.917
 30
3696.904
 70
    32
  0
VERTEX
  8
T15SSILL
 62
2
 10
-1842.820
 20
-143.786
 30
3696.923
 70
    32
  0
VERTEX
  8
T15SSILL
 62
2
 10
-1845.865
 20
-145.611
 30
3696.932
 70
    32
  0
VERTEX
  8
T15SSILL
 62
2
 10
-1897.185
 20
-74.625
 30
3697.355
 70
    32
  0
VERTEX
  8
T15SSILL
 62
2
 10
-1892.584
 20
-71.359
 30
3697.345
 70
    32
  0
VERTEX
  8
T15SSILL
 62
2
 10
-1897.035
 20
-65.673
 30
3697.392
 70
    32
  0
VERTEX
  8
T15SSILL
 62
2
 10
-1901.353
 20
-68.158
 30
3697.404
 70
    32
  0
VERTEX
  8
T15SSILL
 62
2
 10
-1953.007
 20
3.685
 30
3697.977
 70
    32
  0
VERTEX
  8
T15SSILL
 62
2
 10
-1949.046
 20
6.338
 30
3697.968
 70
    32
  0
VERTEX
  8
T15SSILL
 62
2
 10
-1952.475
 20
11.147
 30
3698.006
 70
    32
  0
VERTEX
  8
T15SSILL
 62
2
 10
-1956.445
 20
8.933
 30
3698.017
 70
    32
  0
VERTEX
  8
T15SSILL
 62
2
 10
-2063.618
 20
157.982
 30
3699.174
 70
    32
  0
VERTEX
  8
T15SSILL
 62
2
 10
-2059.533
 20
160.621
 30
3699.160
 70
    32
  0
VERTEX
  8
T15SSILL
 62
2
 10
-2063.435
 20
166.177
 30
3699.194
 70
    32
  0
VERTEX
  8
T15SSILL
 62
2
 10
-2067.219
 20
163.439
 30
3699.206
 70
    32
  0
VERTEX
  8
T15SSILL
 62
2
 10
-2119.477
 20
235.480
 30
3699.651
 70
    32
  0
VERTEX
  8
T15SSILL
 62
2
 10
-2115.594
 20
238.520
 30
3699.639
 70
    32
  0
VERTEX
  8
T15SSILL
 62
2
 10
-2119.342
 20
244.308
 30
3699.672
 70
    32
  0
VERTEX
  8
T15SSILL
 62
2
 10
-2123.141
 20
241.446
 30
3699.684
 70
    32
  0
VERTEX
  8
T15SSILL
 62
2
 10
-2173.040
 20
310.190
 30
3700.047
 70
    32
  0
VERTEX
  8
T15SSILL
 62
2
 10
-2170.665
 20
316.299
 30
3699.989
 70
    32
  0
VERTEX
  8
T15SSILL
 62
2
 10
-2174.761
 20
321.816
 30
3699.976
 70
    32
  0
VERTEX
  8
T15SSILL
 62
2
 10
-2177.736
 20
320.045
 30
3700.008
 70
    32
  0
VERTEX
  8
T15SSILL
 62
2
 10
-2179.051
 20
320.582
 30
3700.013
 70
    32
  0
VERTEX
  8
T15SSILL
 62
2
 10
-2285.180
 20
469.440
 30
3699.767
 70
    32
  0
VERTEX
  8
T15SSILL
 62
2
 10
-2280.806
 20
473.424
 30
3699.724
 70
    32
  0
VERTEX
  8
T15SSILL
 62
2
 10
-2285.435
 20
479.194
 30
3699.727
 70
    32
  0
VERTEX
  8
T15SSILL
 62
2
 10
-2289.803
 20
475.775
 30
3699.766
 70
    32
  0
VERTEX
  8
T15SSILL
 62
2
 10
-2353.600
 20
564.293
 30
3699.789
 70
    32
  0
VERTEX
  8
T15SSILL
 62
2
 10
-2354.913
 20
572.483
 30
3699.784
 70
    32
  0
VERTEX
  8
T15SSILL
 62
2
 10
-2358.977
 20
584.748
 30
3699.785
 70
    32
  0
VERTEX
  8
T15SSILL
 62
2
 10
-2358.590
 20
600.155
 30
3699.762
 70
    32
  0
VERTEX
  8
T15SSILL
 62
2
 10
-2355.000
 20
613.115
 30
3699.727
 70
    32
  0
VERTEX
  8
T15SSILL
 62
2
 10
-2356.708
 20
617.091
 30
3699.729
 70
    32
  0
VERTEX
  8
T15SSILL
 62
2
 10
-2368.198
 20
615.987
 30
3699.785
 70
    32
  0
VERTEX
  8
T15SSILL
 62
2
 10
-2367.945
 20
609.534
 30
3699.793
 70
    32
  0
VERTEX
  8
T15SSILL
 62
2
 10
-2370.584
 20
599.445
 30
3699.819
 70
    32
  0
VERTEX
  8
T15SSILL
 62
2
 10
-2377.335
 20
596.471
 30
3699.855
 70
    32
  0
VERTEX
  8
T15SSILL
 62
2
 10
-2384.558
 20
609.040
 30
3699.872
 70
    32
  0
VERTEX
  8
T15SSILL
 62
2
 10
-2384.586
 20
627.844
 30
3699.845
 70
    32
  0
VERTEX
  8
T15SSILL
 62
2
 10
-2388.286
 20
629.929
 30
3699.860
 70
    32
  0
VERTEX
  8
T15SSILL
 62
2
 10
-2388.831
 20
634.101
 30
3699.856
 70
    32
  0
VERTEX
  8
T15SSILL
 62
2
 10
-2383.697
 20
649.713
 30
3699.810
 70
    32
  0
VERTEX
  8
T15SSILL
 62
2
 10
-2376.255
 20
658.740
 30
3699.763
 70
    32
  0
VERTEX
  8
T15SSILL
 62
2
 10
-2338.163
 20
685.723
 30
3699.628
 70
    32
  0
VERTEX
  8
T15SSILL
 62
2
 10
-2333.663
 20
679.913
 30
3699.627
 70
    32
  0
VERTEX
  8
T15SSILL
 62
2
 10
-2323.161
 20
676.040
 30
3699.609
 70
    32
  0
VERTEX
  8
T15SSILL
 62
2
 10
-2316.945
 20
658.395
 30
3699.623
 70
    32
  0
VERTEX
  8
T15SSILL
 62
2
 10
-2298.299
 20
664.850
 30
3699.569
 70
    32
  0
VERTEX
  8
T15SSILL
 62
2
 10
-2300.227
 20
676.040
 30
3699.555
 70
    32
  0
VERTEX
  8
T15SSILL
 62
2
 10
-2296.156
 20
680.989
 30
3699.537
 70
    32
  0
VERTEX
  8
T15SSILL
 62
2
 10
-2303.014
 20
702.292
 30
3699.518
 70
    32
  0
VERTEX
  8
T15SSILL
 62
2
 10
-2307.691
 20
706.982
 30
3699.521
 70
    32
  0
VERTEX
  8
T15SSILL
 62
2
 10
-2320.250
 20
728.492
 30
3699.601
 70
    32
  0
VERTEX
  8
T15SSILL
 62
2
 10
-2331.422
 20
759.721
 30
3699.720
 70
    32
  0
VERTEX
  8
T15SSILL
 62
2
 10
-2336.900
 20
765.730
 30
3699.753
 70
    32
  0
VERTEX
  8
T15SSILL
 62
2
 10
-2343.129
 20
766.511
 30
3699.769
 70
    32
  0
VERTEX
  8
T15SSILL
 62
2
 10
-2347.257
 20
769.480
 30
3699.788
 70
    32
  0
VERTEX
  8
T15SSILL
 62
2
 10
-2348.942
 20
778.042
 30
3699.823
 70
    32
  0
VERTEX
  8
T15SSILL
 62
2
 10
-2356.391
 20
796.430
 30
3699.906
 70
    32
  0
VERTEX
  8
T15SSILL
 62
2
 10
-2358.366
 20
798.687
 30
3699.918
 70
    32
  0
VERTEX
  8
T15SSILL
 62
2
 10
-2362.489
 20
799.266
 30
3699.928
 70
    32
  0
VERTEX
  8
T15SSILL
 62
2
 10
-2376.772
 20
796.774
 30
3699.949
 70
    32
  0
VERTEX
  8
T15SSILL
 62
2
 10
-2379.959
 20
794.881
 30
3699.948
 70
    32
  0
VERTEX
  8
T15SSILL
 62
2
 10
-2384.048
 20
788.412
 30
3699.933
 70
    32
  0
VERTEX
  8
T15SSILL
 62
2
 10
-2383.003
 20
783.408
 30
3699.913
 70
    32
  0
VERTEX
  8
T15SSILL
 62
2
 10
-2379.593
 20
777.847
 30
3699.885
 70
    32
  0
VERTEX
  8
T15SSILL
 62
2
 10
-2367.502
 20
766.658
 30
3699.819
 70
    32
  0
VERTEX
  8
T15SSILL
 62
2
 10
-2366.430
 20
763.851
 30
3699.810
 70
    32
  0
VERTEX
  8
T15SSILL
 62
2
 10
-2370.892
 20
757.000
 30
3699.810
 70
    32
  0
VERTEX
  8
T15SSILL
 62
2
 10
-2362.213
 20
755.397
 30
3699.781
 70
    32
  0
VERTEX
  8
T15SSILL
 62
2
 10
-2354.197
 20
755.596
 30
3699.757
 70
    32
  0
VERTEX
  8
T15SSILL
 62
2
 10
-2350.077
 20
753.382
 30
3699.740
 70
    32
  0
VERTEX
  8
T15SSILL
 62
2
 10
-2341.410
 20
745.242
 30
3699.698
 70
    32
  0
VERTEX
  8
T15SSILL
 62
2
 10
-2333.146
 20
720.377
 30
3699.624
 70
    32
  0
VERTEX
  8
T15SSILL
 62
2
 10
-2333.387
 20
712.366
 30
3699.609
 70
    32
  0
VERTEX
  8
T15SSILL
 62
2
 10
-2335.297
 20
705.747
 30
3699.602
 70
    32
  0
VERTEX
  8
T15SSILL
 62
2
 10
-2340.477
 20
696.304
 30
3699.599
 70
    32
  0
VERTEX
  8
T15SSILL
 62
2
 10
-2374.170
 20
672.382
 30
3699.780
 70
    32
  0
VERTEX
  8
T15SSILL
 62
2
 10
-2383.172
 20
674.318
 30
3699.789
 70
    32
  0
VERTEX
  8
T15SSILL
 62
2
 10
-2389.816
 20
673.243
 30
3699.799
 70
    32
  0
VERTEX
  8
T15SSILL
 62
2
 10
-2392.388
 20
653.446
 30
3699.828
 70
    32
  0
VERTEX
  8
T15SSILL
 62
2
 10
-2396.403
 20
646.850
 30
3699.874
 70
    32
  0
VERTEX
  8
T15SSILL
 62
2
 10
-2397.517
 20
647.777
 30
3699.878
 70
    32
  0
VERTEX
  8
T15SSILL
 62
2
 10
-2400.976
 20
670.386
 30
3699.863
 70
    32
  0
VERTEX
  8
T15SSILL
 62
2
 10
-2400.403
 20
674.069
 30
3699.855
 70
    32
  0
VERTEX
  8
T15SSILL
 62
2
 10
-2407.895
 20
694.602
 30
3699.861
 70
    32
  0
VERTEX
  8
T15SSILL
 62
2
 10
-2408.734
 20
700.229
 30
3699.857
 70
    32
  0
VERTEX
  8
T15SSILL
 62
2
 10
-2419.449
 20
697.901
 30
3699.911
 70
    32
  0
VERTEX
  8
T15SSILL
 62
2
 10
-2416.219
 20
657.291
 30
3699.953
 70
    32
  0
VERTEX
  8
T15SSILL
 62
2
 10
-2420.206
 20
654.705
 30
3699.975
 70
    32
  0
VERTEX
  8
T15SSILL
 62
2
 10
-2481.997
 20
740.029
 30
3700.146
 70
    32
  0
VERTEX
  8
T15SSILL
 62
2
 10
-2486.765
 20
757.874
 30
3700.161
 70
    32
  0
VERTEX
  8
T15SSILL
 62
2
 10
-2486.485
 20
766.130
 30
3700.177
 70
    32
  0
VERTEX
  8
T15SSILL
 62
2
 10
-2483.510
 20
779.186
 30
3700.193
 70
    32
  0
VERTEX
  8
T15SSILL
 62
2
 10
-2479.446
 20
787.922
 30
3700.198
 70
    32
  0
VERTEX
  8
T15SSILL
 62
2
 10
-2470.959
 20
797.604
 30
3700.192
 70
    32
  0
VERTEX
  8
T15SSILL
 62
2
 10
-2408.703
 20
841.672
 30
3700.178
 70
    32
  0
VERTEX
  8
T15SSILL
 62
2
 10
-2402.166
 20
841.660
 30
3700.129
 70
    32
  0
VERTEX
  8
T15SSILL
 62
2
 10
-2397.107
 20
820.438
 30
3700.077
 70
    32
  0
VERTEX
  8
T15SSILL
 62
2
 10
-2392.254
 20
816.475
 30
3700.052
 70
    32
  0
VERTEX
  8
T15SSILL
 62
2
 10
-2388.608
 20
803.143
 30
3699.996
 70
    32
  0
VERTEX
  8
T15SSILL
 62
2
 10
-2374.201
 20
808.446
 30
3699.986
 70
    32
  0
VERTEX
  8
T15SSILL
 62
2
 10
-2379.804
 20
818.498
 30
3700.034
 70
    32
  0
VERTEX
  8
T15SSILL
 62
2
 10
-2376.592
 20
823.783
 30
3700.031
 70
    32
  0
VERTEX
  8
T15SSILL
 62
2
 10
-2381.725
 20
837.660
 30
3699.989
 70
    32
  0
VERTEX
  8
T15SSILL
 62
2
 10
-2393.566
 20
861.762
 30
3699.938
 70
    32
  0
VERTEX
  8
T15SSILL
 62
2
 10
-2398.471
 20
865.796
 30
3699.954
 70
    32
  0
VERTEX
  8
T15SSILL
 62
2
 10
-2400.288
 20
869.474
 30
3699.946
 70
    32
  0
VERTEX
  8
T15SSILL
 62
2
 10
-2398.858
 20
871.389
 30
3699.923
 70
    32
  0
VERTEX
  8
T15SSILL
 62
2
 10
-2398.978
 20
875.872
 30
3699.897
 70
    32
  0
VERTEX
  8
T15SSILL
 62
2
 10
-2401.896
 20
881.357
 30
3699.887
 70
    32
  0
VERTEX
  8
T15SSILL
 62
2
 10
-2413.889
 20
891.964
 30
3699.920
 70
    32
  0
VERTEX
  8
T15SSILL
 62
2
 10
-2421.169
 20
891.651
 30
3699.980
 70
    32
  0
VERTEX
  8
T15SSILL
 62
2
 10
-2431.790
 20
879.974
 30
3700.137
 70
    32
  0
VERTEX
  8
T15SSILL
 62
2
 10
-2442.467
 20
876.418
 30
3700.245
 70
    32
  0
VERTEX
  8
T15SSILL
 62
2
 10
-2454.546
 20
875.972
 30
3700.345
 70
    32
  0
VERTEX
  8
T15SSILL
 62
2
 10
-2478.727
 20
883.006
 30
3700.473
 70
    32
  0
VERTEX
  8
T15SSILL
 62
2
 10
-2484.962
 20
883.348
 30
3700.487
 70
    32
  0
VERTEX
  8
T15SSILL
 62
2
 10
-2489.723
 20
880.631
 30
3700.487
 70
    32
  0
VERTEX
  8
T15SSILL
 62
2
 10
-2493.403
 20
864.667
 30
3700.436
 70
    32
  0
VERTEX
  8
T15SSILL
 62
2
 10
-2496.378
 20
860.100
 30
3700.426
 70
    32
  0
VERTEX
  8
T15SSILL
 62
2
 10
-2495.385
 20
857.996
 30
3700.416
 70
    32
  0
VERTEX
  8
T15SSILL
 62
2
 10
-2481.514
 20
854.202
 30
3700.374
 70
    32
  0
VERTEX
  8
T15SSILL
 62
2
 10
-2473.676
 20
847.197
 30
3700.332
 70
    32
  0
VERTEX
  8
T15SSILL
 62
2
 10
-2446.405
 20
842.637
 30
3700.259
 70
    32
  0
VERTEX
  8
T15SSILL
 62
2
 10
-2443.830
 20
837.772
 30
3700.236
 70
    32
  0
VERTEX
  8
T15SSILL
 62
2
 10
-2437.898
 20
832.686
 30
3700.205
 70
    32
  0
VERTEX
  8
T15SSILL
 62
2
 10
-2473.725
 20
806.900
 30
3700.219
 70
    32
  0
VERTEX
  8
T15SSILL
 62
2
 10
-2483.698
 20
797.764
 30
3700.231
 70
    32
  0
VERTEX
  8
T15SSILL
 62
2
 10
-2491.230
 20
785.732
 30
3700.230
 70
    32
  0
VERTEX
  8
T15SSILL
 62
2
 10
-2496.515
 20
767.943
 30
3700.210
 70
    32
  0
VERTEX
  8
T15SSILL
 62
2
 10
-2498.408
 20
768.301
 30
3700.217
 70
    32
  0
VERTEX
  8
T15SSILL
 62
2
 10
-2503.341
 20
772.967
 30
3700.241
 70
    32
  0
VERTEX
  8
T15SSILL
 62
2
 10
-2505.698
 20
772.768
 30
3700.248
 70
    32
  0
VERTEX
  8
T15SSILL
 62
2
 10
-2641.151
 20
962.493
 30
3701.097
 70
    32
  0
VERTEX
  8
T15SSILL
 62
2
 10
-2632.790
 20
973.390
 30
3701.120
 70
    32
  0
VERTEX
  8
T15SSILL
 62
2
 10
-2620.114
 20
963.934
 30
3701.059
 70
    32
  0
VERTEX
  8
T15SSILL
 62
2
 10
-2612.011
 20
965.502
 30
3701.049
 70
    32
  0
VERTEX
  8
T15SSILL
 62
2
 10
-2604.129
 20
962.011
 30
3701.020
 70
    32
  0
VERTEX
  8
T15SSILL
 62
2
 10
-2600.336
 20
961.735
 30
3701.004
 70
    32
  0
VERTEX
  8
T15SSILL
 62
2
 10
-2595.026
 20
964.744
 30
3700.943
 70
    32
  0
VERTEX
  8
T15SSILL
 62
2
 10
-2592.190
 20
973.671
 30
3700.866
 70
    32
  0
VERTEX
  8
T15SSILL
 62
2
 10
-2594.811
 20
979.046
 30
3700.854
 70
    32
  0
VERTEX
  8
T15SSILL
 62
2
 10
-2589.562
 20
980.052
 30
3700.806
 70
    32
  0
VERTEX
  8
T15SSILL
 62
2
 10
-2586.833
 20
981.828
 30
3700.773
 70
    32
  0
VERTEX
  8
T15SSILL
 62
2
 10
-2587.152
 20
985.839
 30
3700.751
 70
    32
  0
VERTEX
  8
T15SSILL
 62
2
 10
-2581.200
 20
990.949
 30
3700.672
 70
    32
  0
VERTEX
  8
T15SSILL
 62
2
 10
-2580.826
 20
996.990
 30
3700.633
 70
    32
  0
VERTEX
  8
T15SSILL
 62
2
 10
-2565.243
 20
1002.172
 30
3700.476
 70
    32
  0
VERTEX
  8
T15SSILL
 62
2
 10
-2563.387
 20
1004.398
 30
3700.447
 70
    32
  0
VERTEX
  8
T15SSILL
 62
2
 10
-2567.844
 20
1013.329
 30
3700.420
 70
    32
  0
VERTEX
  8
T15SSILL
 62
2
 10
-2575.591
 20
1010.825
 30
3700.507
 70
    32
  0
VERTEX
  8
T15SSILL
 62
2
 10
-2577.640
 20
1011.396
 30
3700.520
 70
    32
  0
VERTEX
  8
T15SSILL
 62
2
 10
-2581.885
 20
1017.653
 30
3700.516
 70
    32
  0
VERTEX
  8
T15SSILL
 62
2
 10
-2597.287
 20
1012.820
 30
3700.670
 70
    32
  0
VERTEX
  8
T15SSILL
 62
2
 10
-2606.731
 20
1006.682
 30
3700.783
 70
    32
  0
VERTEX
  8
T15SSILL
 62
2
 10
-2614.125
 20
1008.462
 30
3700.832
 70
    32
  0
VERTEX
  8
T15SSILL
 62
2
 10
-2620.011
 20
1002.965
 30
3700.913
 70
    32
  0
VERTEX
  8
T15SSILL
 62
2
 10
-2632.795
 20
1014.952
 30
3700.944
 70
    32
  0
VERTEX
  8
T15SSILL
 62
2
 10
-2631.911
 20
1021.039
 30
3700.900
 70
    32
  0
VERTEX
  8
T15SSILL
 62
2
 10
-2633.899
 20
1023.613
 30
3700.901
 70
    32
  0
VERTEX
  8
T15SSILL
 62
2
 10
-2642.649
 20
1027.993
 30
3700.945
 70
    32
  0
VERTEX
  8
T15SSILL
 62
2
 10
-2649.806
 20
1027.661
 30
3701.005
 70
    32
  0
VERTEX
  8
T15SSILL
 62
2
 10
-2654.957
 20
1031.732
 30
3701.022
 70
    32
  0
VERTEX
  8
T15SSILL
 62
2
 10
-2654.172
 20
1042.425
 30
3700.950
 70
    32
  0
VERTEX
  8
T15SSILL
 62
2
 10
-2655.045
 20
1042.876
 30
3700.955
 70
    32
  0
VERTEX
  8
T15SSILL
 62
2
 10
-2669.918
 20
1041.041
 30
3701.086
 70
    32
  0
VERTEX
  8
T15SSILL
 62
2
 10
-2672.137
 20
1036.482
 30
3701.132
 70
    32
  0
VERTEX
  8
T15SSILL
 62
2
 10
-2681.826
 20
1033.212
 30
3701.230
 70
    32
  0
VERTEX
  8
T15SSILL
 62
2
 10
-2691.916
 20
1033.022
 30
3701.312
 70
    32
  0
VERTEX
  8
T15SSILL
 62
2
 10
-2848.770
 20
1252.487
 30
3700.949
 70
    32
  0
VERTEX
  8
T15SSILL
 62
2
 10
-3028.689
 20
1438.796
 30
3700.821
 70
    32
  0
VERTEX
  8
T15SSILL
 62
2
 10
-3034.977
 20
1432.445
 30
3700.901
 70
    32
  0
VERTEX
  8
T15SSILL
 62
2
 10
-2855.437
 20
1246.420
 30
3701.054
 70
    32
  0
VERTEX
  8
T15SSILL
 62
2
 10
-2784.255
 20
1147.498
 30
3701.320
 70
    32
  0
VERTEX
  8
T15SSILL
 62
2
 10
-2792.392
 20
1140.466
 30
3701.310
 70
    32
  0
VERTEX
  8
T15SSILL
 62
2
 10
-2755.227
 20
1106.573
 30
3701.334
 70
    32
  0
VERTEX
  8
T15SSILL
 62
2
 10
-2715.035
 20
1050.517
 30
3701.353
 70
    32
  0
VERTEX
  8
T15SSILL
 62
2
 10
-2721.465
 20
1039.509
 30
3701.221
 70
    32
  0
VERTEX
  8
T15SSILL
 62
2
 10
-2723.839
 20
1037.992
 30
3701.180
 70
    32
  0
VERTEX
  8
T15SSILL
 62
2
 10
-2723.825
 20
1036.269
 30
3701.069
 70
    32
  0
VERTEX
  8
T15SSILL
 62
2
 10
-2729.940
 20
1036.717
 30
3701.069
 70
    32
  0
VERTEX
  8
T15SSILL
 62
2
 10
-2732.027
 20
1028.200
 30
3701.062
 70
    32
  0
VERTEX
  8
T15SSILL
 62
2
 10
-2740.081
 20
1026.407
 30
3701.060
 70
    32
  0
VERTEX
  8
T15SSILL
 62
2
 10
-2738.142
 20
1015.349
 30
3701.050
 70
    32
  0
VERTEX
  8
T15SSILL
 62
2
 10
-2725.018
 20
1013.407
 30
3701.049
 70
    32
  0
VERTEX
  8
T15SSILL
 62
2
 10
-2728.411
 20
1001.355
 30
3700.770
 70
    32
  0
VERTEX
  8
T15SSILL
 62
2
 10
-2725.077
 20
998.132
 30
3700.774
 70
    32
  0
VERTEX
  8
T15SSILL
 62
2
 10
-2722.188
 20
997.305
 30
3700.798
 70
    32
  0
VERTEX
  8
T15SSILL
 62
2
 10
-2716.739
 20
993.124
 30
3700.816
 70
    32
  0
VERTEX
  8
T15SSILL
 62
2
 10
-2714.284
 20
992.742
 30
3700.840
 70
    32
  0
VERTEX
  8
T15SSILL
 62
2
 10
-2708.314
 20
999.210
 30
3701.193
 70
    32
  0
VERTEX
  8
T15SSILL
 62
2
 10
-2697.576
 20
998.613
 30
3701.201
 70
    32
  0
VERTEX
  8
T15SSILL
 62
2
 10
-2698.169
 20
996.898
 30
3701.057
 70
    32
  0
VERTEX
  8
T15SSILL
 62
2
 10
-2690.039
 20
989.345
 30
3701.072
 70
    32
  0
VERTEX
  8
T15SSILL
 62
2
 10
-2695.397
 20
975.528
 30
3700.877
 70
    32
  0
VERTEX
  8
T15SSILL
 62
2
 10
-2672.187
 20
969.526
 30
3701.072
 70
    32
  0
VERTEX
  8
T15SSILL
 62
2
 10
-2671.814
 20
958.590
 30
3700.969
 70
    32
  0
VERTEX
  8
T15SSILL
 62
2
 10
-2654.445
 20
953.434
 30
3701.108
 70
    32
  0
VERTEX
  8
T15SSILL
 62
2
 10
-2639.841
 20
945.061
 30
3701.097
 70
    32
  0
VERTEX
  8
T15SSILL
 62
2
 10
-2529.322
 20
787.827
 30
3700.399
 70
    32
  0
VERTEX
  8
T15SSILL
 62
2
 10
-2530.949
 20
781.415
 30
3700.431
 70
    32
  0
VERTEX
  8
T15SSILL
 62
2
 10
-2546.741
 20
789.030
 30
3700.589
 70
    32
  0
VERTEX
  8
T15SSILL
 62
2
 10
-2561.256
 20
807.288
 30
3700.692
 70
    32
  0
VERTEX
  8
T15SSILL
 62
2
 10
-2571.232
 20
801.919
 30
3700.529
 70
    32
  0
VERTEX
  8
T15SSILL
 62
2
 10
-2569.405
 20
799.349
 30
3700.524
 70
    32
  0
VERTEX
  8
T15SSILL
 62
2
 10
-2569.913
 20
792.449
 30
3700.451
 70
    32
  0
VERTEX
  8
T15SSILL
 62
2
 10
-2559.058
 20
782.207
 30
3700.469
 70
    32
  0
VERTEX
  8
T15SSILL
 62
2
 10
-2553.236
 20
778.409
 30
3700.495
 70
    32
  0
VERTEX
  8
T15SSILL
 62
2
 10
-2525.628
 20
764.302
 30
3700.425
 70
    32
  0
VERTEX
  8
T15SSILL
 62
2
 10
-2526.480
 20
755.192
 30
3700.478
 70
    32
  0
VERTEX
  8
T15SSILL
 62
2
 10
-2510.451
 20
753.953
 30
3700.309
 70
    32
  0
VERTEX
  8
T15SSILL
 62
2
 10
-2508.440
 20
755.967
 30
3700.285
 70
    32
  0
VERTEX
  8
T15SSILL
 62
2
 10
-2504.145
 20
753.663
 30
3700.250
 70
    32
  0
VERTEX
  8
T15SSILL
 62
2
 10
-2494.195
 20
740.379
 30
3700.201
 70
    32
  0
VERTEX
  8
T15SSILL
 62
2
 10
-2497.839
 20
733.708
 30
3700.238
 70
    32
  0
VERTEX
  8
T15SSILL
 62
2
 10
-2526.130
 20
729.189
 30
3700.274
 70
    32
  0
VERTEX
  8
T15SSILL
 62
2
 10
-2525.487
 20
717.785
 30
3700.334
 70
    32
  0
VERTEX
  8
T15SSILL
 62
2
 10
-2496.767
 20
709.178
 30
3700.367
 70
    32
  0
VERTEX
  8
T15SSILL
 62
2
 10
-2492.760
 20
704.419
 30
3700.271
 70
    32
  0
VERTEX
  8
T15SSILL
 62
2
 10
-2477.936
 20
707.958
 30
3700.140
 70
    32
  0
VERTEX
  8
T15SSILL
 62
2
 10
-2469.664
 20
706.167
 30
3700.120
 70
    32
  0
VERTEX
  8
T15SSILL
 62
2
 10
-2416.663
 20
632.370
 30
3699.974
 70
    32
  0
VERTEX
  8
T15SSILL
 62
2
 10
-2418.296
 20
631.835
 30
3699.978
 70
    32
  0
VERTEX
  8
T15SSILL
 62
2
 10
-2417.859
 20
630.195
 30
3699.976
 70
    32
  0
VERTEX
  8
T15SSILL
 62
2
 10
-2419.827
 20
626.037
 30
3699.980
 70
    32
  0
VERTEX
  8
T15SSILL
 62
2
 10
-2423.457
 20
622.515
 30
3699.987
 70
    32
  0
VERTEX
  8
T15SSILL
 62
2
 10
-2439.984
 20
612.072
 30
3700.024
 70
    32
  0
VERTEX
  8
T15SSILL
 62
2
 10
-2465.553
 20
588.387
 30
3700.334
 70
    32
  0
VERTEX
  8
T15SSILL
 62
2
 10
-2448.491
 20
575.608
 30
3700.264
 70
    32
  0
VERTEX
  8
T15SSILL
 62
2
 10
-2442.618
 20
581.421
 30
3700.176
 70
    32
  0
VERTEX
  8
T15SSILL
 62
2
 10
-2433.224
 20
580.776
 30
3700.097
 70
    32
  0
VERTEX
  8
T15SSILL
 62
2
 10
-2424.248
 20
600.065
 30
3699.983
 70
    32
  0
VERTEX
  8
T15SSILL
 62
2
 10
-2415.769
 20
610.503
 30
3699.966
 70
    32
  0
VERTEX
  8
T15SSILL
 62
2
 10
-2409.065
 20
613.987
 30
3699.951
 70
    32
  0
VERTEX
  8
T15SSILL
 62
2
 10
-2402.825
 20
613.102
 30
3699.936
 70
    32
  0
VERTEX
  8
T15SSILL
 62
2
 10
-2260.978
 20
418.380
 30
3699.888
 70
    32
  0
VERTEX
  8
T15SSILL
 62
2
 10
-2264.998
 20
407.516
 30
3700.052
 70
    32
  0
VERTEX
  8
T15SSILL
 62
2
 10
-2258.400
 20
396.802
 30
3700.079
 70
    32
  0
VERTEX
  8
T15SSILL
 62
2
 10
-2227.281
 20
371.621
 30
3699.994
 70
    32
  0
VERTEX
  8
T15SSILL
 62
2
 10
-2187.321
 20
315.003
 30
3700.112
 70
    32
  0
VERTEX
  8
T15SSILL
 62
2
 10
-2187.938
 20
312.506
 30
3700.127
 70
    32
  0
VERTEX
  8
T15SSILL
 62
2
 10
-2191.004
 20
309.994
 30
3700.154
 70
    32
  0
VERTEX
  8
T15SSILL
 62
2
 10
-2186.604
 20
303.374
 30
3700.163
 70
    32
  0
VERTEX
  8
T15SSILL
 62
2
 10
-2182.935
 20
305.687
 30
3700.134
 70
    32
  0
VERTEX
  8
T15SSILL
 62
2
 10
-2179.160
 20
303.722
 30
3700.124
 70
    32
  0
VERTEX
  8
T15SSILL
 62
2
 10
-2130.678
 20
236.217
 30
3699.796
 70
    32
  0
VERTEX
  8
T15SSILL
 62
2
 10
-2135.740
 20
232.255
 30
3699.953
 70
    32
  0
VERTEX
  8
T15SSILL
 62
2
 10
-2131.328
 20
226.762
 30
3699.908
 70
    32
  0
VERTEX
  8
T15SSILL
 62
2
 10
-2126.311
 20
230.354
 30
3699.756
 70
    32
  0
VERTEX
  8
T15SSILL
 62
2
 10
-2074.834
 20
158.595
 30
3699.317
 70
    32
  0
VERTEX
  8
T15SSILL
 62
2
 10
-2079.148
 20
155.106
 30
3699.452
 70
    32
  0
VERTEX
  8
T15SSILL
 62
2
 10
-2075.192
 20
149.481
 30
3699.419
 70
    32
  0
VERTEX
  8
T15SSILL
 62
2
 10
-2070.823
 20
152.900
 30
3699.284
 70
    32
  0
VERTEX
  8
T15SSILL
 62
2
 10
-2029.600
 20
94.811
 30
3698.877
 70
    32
  0
VERTEX
  8
T15SSILL
 62
2
 10
-2029.255
 20
90.943
 30
3698.911
 70
    32
  0
VERTEX
  8
T15SSILL
 62
2
 10
-2033.434
 20
85.995
 30
3699.080
 70
    32
  0
VERTEX
  8
T15SSILL
 62
2
 10
-2009.514
 20
58.868
 30
3698.745
 70
    32
  0
VERTEX
  8
T15SSILL
 62
2
 10
-1998.463
 20
51.751
 30
3698.529
 70
    32
  0
VERTEX
  8
T15SSILL
 62
2
 10
-1963.750
 20
3.551
 30
3698.143
 70
    32
  0
VERTEX
  8
T15SSILL
 62
2
 10
-1968.034
 20
0.309
 30
3698.295
 70
    32
  0
VERTEX
  8
T15SSILL
 62
2
 10
-1964.225
 20
-4.985
 30
3698.253
 70
    32
  0
VERTEX
  8
T15SSILL
 62
2
 10
-1960.119
 20
-1.659
 30
3698.104
 70
    32
  0
VERTEX
  8
T15SSILL
 62
2
 10
-1908.356
 20
-73.640
 30
3697.530
 70
    32
  0
VERTEX
  8
T15SSILL
 62
2
 10
-1912.170
 20
-76.626
 30
3697.667
 70
    32
  0
VERTEX
  8
T15SSILL
 62
2
 10
-1908.095
 20
-82.830
 30
3697.628
 70
    32
  0
VERTEX
  8
T15SSILL
 62
2
 10
-1904.143
 20
-79.736
 30
3697.486
 70
    32
  0
VERTEX
  8
T15SSILL
 62
2
 10
-1852.838
 20
-150.846
 30
3696.948
 70
    32
  0
VERTEX
  8
T15SSILL
 62
2
 10
-1857.840
 20
-154.314
 30
3697.113
 70
    32
  0
VERTEX
  8
T15SSILL
 62
2
 10
-1853.916
 20
-159.183
 30
3697.068
 70
    32
  0
VERTEX
  8
T15SSILL
 62
2
 10
-1849.123
 20
-155.878
 30
3696.910
 70
    32
  0
VERTEX
  8
T15SSILL
 62
2
 10
-1796.467
 20
-229.285
 30
3696.489
 70
    32
  0
VERTEX
  8
T15SSILL
 62
2
 10
-1800.820
 20
-232.581
 30
3696.539
 70
    32
  0
VERTEX
  8
T15SSILL
 62
2
 10
-1797.485
 20
-237.127
 30
3696.506
 70
    32
  0
VERTEX
  8
T15SSILL
 62
2
 10
-1792.815
 20
-233.807
 30
3696.473
 70
    32
  0
VERTEX
  8
T15SSILL
 62
2
 10
-1767.308
 20
-269.532
 30
3696.301
 70
    32
  0
VERTEX
  8
T15SSILL
 62
2
 10
-1747.003
 20
-309.329
 30
3696.030
 70
    32
  0
VERTEX
  8
T15SSILL
 62
2
 10
-1752.131
 20
-311.778
 30
3696.187
 70
    32
  0
VERTEX
  8
T15SSILL
 62
2
 10
-1748.750
 20
-318.525
 30
3696.176
 70
    32
  0
VERTEX
  8
T15SSILL
 62
2
 10
-1743.631
 20
-315.636
 30
3696.015
 70
    32
  0
VERTEX
  8
T15SSILL
 62
2
 10
-1701.814
 20
-393.055
 30
3695.710
 70
    32
  0
VERTEX
  8
T15SSILL
 62
2
 10
-1707.732
 20
-397.352
 30
3695.962
 70
    32
  0
VERTEX
  8
T15SSILL
 62
2
 10
-1702.105
 20
-403.683
 30
3695.843
 70
    32
  0
VERTEX
  8
T15SSILL
 62
2
 10
-1698.122
 20
-400.342
 30
3695.668
 70
    32
  0
VERTEX
  8
T15SSILL
 62
2
 10
-1674.396
 20
-447.078
 30
3695.399
 70
    32
  0
VERTEX
  8
T15SSILL
 62
2
 10
-1677.039
 20
-458.988
 30
3695.628
 70
    32
  0
VERTEX
  8
T15SSILL
 62
2
 10
-1665.078
 20
-480.267
 30
3695.466
 70
    32
  0
VERTEX
  8
T15SSILL
 62
2
 10
-1645.933
 20
-499.724
 30
3695.036
 70
    32
  0
VERTEX
  8
T15SSILL
 62
2
 10
-1612.653
 20
-563.808
 30
3694.726
 70
    32
  0
VERTEX
  8
T15SSILL
 62
2
 10
-1618.031
 20
-567.795
 30
3694.921
 70
    32
  0
VERTEX
  8
T15SSILL
 62
2
 10
-1614.425
 20
-572.688
 30
3694.880
 70
    32
  0
VERTEX
  8
T15SSILL
 62
2
 10
-1609.909
 20
-569.600
 30
3694.719
 70
    32
  0
VERTEX
  8
T15SSILL
 62
2
 10
-1523.012
 20
-734.220
 30
3694.293
 70
    32
  0
VERTEX
  8
T15SSILL
 62
2
 10
-1528.459
 20
-738.479
 30
3694.493
 70
    32
  0
VERTEX
  8
T15SSILL
 62
2
 10
-1524.005
 20
-744.357
 30
3694.441
 70
    32
  0
VERTEX
  8
T15SSILL
 62
2
 10
-1519.785
 20
-740.865
 30
3694.284
 70
    32
  0
VERTEX
  8
T15SSILL
 62
2
 10
-1490.191
 20
-797.312
 30
3694.143
 70
    32
  0
VERTEX
  8
T15SSILL
 62
2
 10
-1497.059
 20
-805.322
 30
3694.427
 70
    32
  0
VERTEX
  8
T15SSILL
 62
2
 10
-1490.731
 20
-818.615
 30
3694.411
 70
    32
  0
VERTEX
  8
T15SSILL
 62
2
 10
-1480.033
 20
-833.194
 30
3694.665
 70
    32
  0
VERTEX
  8
T15SSILL
 62
2
 10
-1466.071
 20
-842.995
 30
3694.422
 70
    32
  0
VERTEX
  8
T15SSILL
 62
2
 10
-1433.643
 20
-904.976
 30
3694.836
 70
    32
  0
VERTEX
  8
T15SSILL
 62
2
 10
-1437.554
 20
-908.401
 30
3695.058
 70
    32
  0
VERTEX
  8
T15SSILL
 62
2
 10
-1433.861
 20
-913.423
 30
3695.055
 70
    32
  0
VERTEX
  8
T15SSILL
 62
2
 10
-1430.363
 20
-911.186
 30
3694.877
 70
    32
  0
VERTEX
  8
T15SSILL
 62
2
 10
-1390.434
 20
-986.129
 30
3695.164
 70
    32
  0
VERTEX
  8
T15SSILL
 62
2
 10
-1394.533
 20
-992.785
 30
3695.562
 70
    32
  0
VERTEX
  8
T15SSILL
 62
2
 10
-1392.664
 20
-996.538
 30
3695.396
 70
    32
  0
VERTEX
  8
T15SSILL
 62
2
 10
-1385.844
 20
-996.040
 30
3694.897
 70
    32
  0
VERTEX
  8
T15SSILL
 62
2
 10
-1340.297
 20
-1082.737
 30
3693.105
 70
    32
  0
VERTEX
  8
T15SSILL
 62
2
 10
-1328.633
 20
-1092.518
 30
3692.980
 70
    32
  0
VERTEX
  8
T15SSILL
 62
2
 10
-1321.230
 20
-1096.727
 30
3692.909
 70
    32
  0
VERTEX
  8
T15SSILL
 62
2
 10
-1307.443
 20
-1100.385
 30
3692.794
 70
    32
  0
VERTEX
  8
T15SSILL
 62
2
 10
-1304.775
 20
-1103.688
 30
3692.761
 70
    32
  0
VERTEX
  8
T15SSILL
 62
2
 10
-1362.527
 20
-1145.397
 30
3692.930
 70
    32
  0
VERTEX
  8
T15SSILL
 62
2
 10
-1370.576
 20
-1151.210
 30
3693.693
 70
    32
  0
VERTEX
  8
T15SSILL
 62
2
 10
-1380.683
 20
-1155.245
 30
3694.644
 70
    32
  0
VERTEX
  8
T15SSILL
 62
2
 10
-1383.630
 20
-1160.452
 30
3694.931
 70
    32
  0
VERTEX
  8
T15SSILL
 62
2
 10
-1399.073
 20
-1167.999
 30
3696.388
 70
    32
  0
VERTEX
  8
T15SSILL
 62
2
 10
-1403.917
 20
-1174.668
 30
3696.854
 70
    32
  0
VERTEX
  8
T15SSILL
 62
2
 10
-1420.546
 20
-1187.280
 30
3698.433
 70
    32
  0
VERTEX
  8
T15SSILL
 62
2
 10
-1433.566
 20
-1189.616
 30
3699.652
 70
    32
  0
VERTEX
  8
T15SSILL
 62
2
 10
-1444.507
 20
-1195.529
 30
3700.685
 70
    32
  0
VERTEX
  8
T15SSILL
 62
2
 10
-1459.264
 20
-1196.545
 30
3702.062
 70
    32
  0
VERTEX
  8
T15SSILL
 62
2
 10
-1465.434
 20
-1208.764
 30
3702.666
 70
    32
  0
VERTEX
  8
T15SSILL
 62
2
 10
-1462.015
 20
-1216.269
 30
3702.364
 70
    32
  0
VERTEX
  8
T15SSILL
 62
2
 10
-1494.006
 20
-1239.429
 30
3705.288
 70
    32
  0
VERTEX
  8
T15SSILL
 62
2
 10
-1599.364
 20
-1315.707
 30
3705.145
 70
    32
  0
VERTEX
  8
T15SSILL
 62
2
 10
-1593.434
 20
-1324.227
 30
3705.309
 70
    32
  0
VERTEX
  8
T15SSILL
 62
2
 10
-1488.480
 20
-1248.281
 30
3705.073
 70
    32
  0
VERTEX
  8
T15SSILL
 62
2
 10
-1396.340
 20
-1181.606
 30
3696.105
 70
    32
  0
VERTEX
  8
T15SSILL
 62
2
 10
-1391.499
 20
-1184.932
 30
3695.608
 70
    32
  0
VERTEX
  8
T15SSILL
 62
2
 10
-1391.791
 20
-1202.817
 30
3695.539
 70
    32
  0
VERTEX
  8
T15SSILL
 62
2
 10
-1383.244
 20
-1218.614
 30
3694.608
 70
    32
  0
VERTEX
  8
T15SSILL
 62
2
 10
-1386.355
 20
-1221.589
 30
3694.900
 70
    32
  0
VERTEX
  8
T15SSILL
 62
2
 10
-1387.118
 20
-1224.025
 30
3694.962
 70
    32
  0
VERTEX
  8
T15SSILL
 62
2
 10
-1385.869
 20
-1227.789
 30
3694.818
 70
    32
  0
VERTEX
  8
T15SSILL
 62
2
 10
-1383.013
 20
-1231.150
 30
3694.517
 70
    32
  0
VERTEX
  8
T15SSILL
 62
2
 10
-1380.743
 20
-1229.681
 30
3694.301
 70
    32
  0
VERTEX
  8
T15SSILL
 62
2
 10
-1377.519
 20
-1229.497
 30
3693.983
 70
    32
  0
VERTEX
  8
T15SSILL
 62
2
 10
-1338.142
 20
-1304.761
 30
3693.694
 70
    32
  0
VERTEX
  8
T15SSILL
 62
2
 10
-1341.863
 20
-1308.368
 30
3694.222
 70
    32
  0
VERTEX
  8
T15SSILL
 62
2
 10
-1339.476
 20
-1313.229
 30
3694.237
 70
    32
  0
VERTEX
  8
T15SSILL
 62
2
 10
-1331.514
 20
-1327.609
 30
3694.195
 70
    32
  0
VERTEX
  8
T15SSILL
 62
2
 10
-1330.474
 20
-1326.783
 30
3694.057
 70
    32
  0
VERTEX
  8
T15SSILL
 62
2
 10
-1326.118
 20
-1327.324
 30
3693.673
 70
    32
  0
VERTEX
  8
T15SSILL
 62
2
 10
-1296.000
 20
-1385.251
 30
3693.467
 70
    32
  0
VERTEX
  8
T15SSILL
 62
2
 10
-1296.085
 20
-1387.363
 30
3693.544
 70
    32
  0
VERTEX
  8
T15SSILL
 62
2
 10
-1310.077
 20
-1399.602
 30
3694.458
 70
    32
  0
VERTEX
  8
T15SSILL
 62
2
 10
-1307.068
 20
-1404.575
 30
3694.526
 70
    32
  0
VERTEX
  8
T15SSILL
 62
2
 10
-1304.251
 20
-1405.827
 30
3694.471
 70
    32
  0
VERTEX
  8
T15SSILL
 62
2
 10
-1288.936
 20
-1398.034
 30
3693.665
 70
    32
  0
VERTEX
  8
T15SSILL
 62
2
 10
-1249.108
 20
-1474.220
 30
3694.920
 70
    32
  0
VERTEX
  8
T15SSILL
 62
2
 10
-1253.822
 20
-1477.845
 30
3695.211
 70
    32
  0
VERTEX
  8
T15SSILL
 62
2
 10
-1250.370
 20
-1483.245
 30
3695.277
 70
    32
  0
VERTEX
  8
T15SSILL
 62
2
 10
-1246.146
 20
-1480.001
 30
3695.017
 70
    32
  0
VERTEX
  8
T15SSILL
 62
2
 10
-1205.860
 20
-1557.483
 30
3696.301
 70
    32
  0
VERTEX
  8
T15SSILL
 62
2
 10
-1210.828
 20
-1560.740
 30
3696.588
 70
    32
  0
VERTEX
  8
T15SSILL
 62
2
 10
-1207.740
 20
-1566.643
 30
3696.685
 70
    32
  0
VERTEX
  8
T15SSILL
 62
2
 10
-1203.150
 20
-1563.020
 30
3696.399
 70
    32
  0
VERTEX
  8
T15SSILL
 62
2
 10
-1191.280
 20
-1583.972
 30
3696.712
 70
    32
  0
VERTEX
  8
T15SSILL
 62
2
 10
-975.174
 20
-1805.006
 30
3696.837
 70
    32
  0
VERTEX
  8
T15SSILL
 62
2
 10
-968.239
 20
-1798.607
 30
3696.372
 70
    32
  0
VERTEX
  8
T15SSILL
 62
2
 10
-1036.882
 20
-1730.245
 30
3696.397
 70
    32
  0
VERTEX
  8
T15SSILL
 62
2
 10
-1039.026
 20
-1721.720
 30
3696.175
 70
    32
  0
VERTEX
  8
T15SSILL
 62
2
 10
-1036.270
 20
-1719.968
 30
3696.018
 70
    32
  0
VERTEX
  8
T15SSILL
 62
2
 10
-1036.684
 20
-1717.524
 30
3695.948
 70
    32
  0
VERTEX
  8
T15SSILL
 62
2
 10
-1039.619
 20
-1713.788
 30
3695.921
 70
    32
  0
VERTEX
  8
T15SSILL
 62
2
 10
-1042.311
 20
-1704.685
 30
3695.698
 70
    32
  0
VERTEX
  8
T15SSILL
 62
2
 10
-1049.547
 20
-1698.907
 30
3695.750
 70
    32
  0
VERTEX
  8
T15SSILL
 62
2
 10
-1061.742
 20
-1693.571
 30
3695.991
 70
    32
  0
VERTEX
  8
T15SSILL
 62
2
 10
-1071.800
 20
-1685.957
 30
3696.078
 70
    32
  0
VERTEX
  8
T15SSILL
 62
2
 10
-1079.023
 20
-1687.779
 30
3696.394
 70
    32
  0
VERTEX
  8
T15SSILL
 62
2
 10
-1126.669
 20
-1637.230
 30
3696.304
 70
    32
  0
VERTEX
  8
T15SSILL
 62
2
 10
-1125.430
 20
-1633.668
 30
3696.137
 70
    32
  0
VERTEX
  8
T15SSILL
 62
2
 10
-1133.028
 20
-1625.613
 30
3696.122
 70
    32
  0
VERTEX
  8
T15SSILL
 62
2
 10
-1136.338
 20
-1627.909
 30
3696.318
 70
    32
  0
VERTEX
  8
T15SSILL
 62
2
 10
-1185.933
 20
-1577.666
 30
3696.306
 70
    32
  0
VERTEX
  8
T15SSILL
 62
2
 10
-1195.973
 20
-1558.357
 30
3695.986
 70
    32
  0
VERTEX
  8
T15SSILL
 62
2
 10
-1191.627
 20
-1554.986
 30
3695.717
 70
    32
  0
VERTEX
  8
T15SSILL
 62
2
 10
-1194.762
 20
-1549.891
 30
3695.649
 70
    32
  0
VERTEX
  8
T15SSILL
 62
2
 10
-1199.433
 20
-1552.460
 30
3695.902
 70
    32
  0
VERTEX
  8
T15SSILL
 62
2
 10
-1239.654
 20
-1475.164
 30
3694.622
 70
    32
  0
VERTEX
  8
T15SSILL
 62
2
 10
-1236.161
 20
-1472.678
 30
3694.413
 70
    32
  0
VERTEX
  8
T15SSILL
 62
2
 10
-1239.114
 20
-1467.394
 30
3694.333
 70
    32
  0
VERTEX
  8
T15SSILL
 62
2
 10
-1242.736
 20
-1469.633
 30
3694.537
 70
    32
  0
VERTEX
  8
T15SSILL
 62
2
 10
-1284.219
 20
-1391.242
 30
3693.264
 70
    32
  0
VERTEX
  8
T15SSILL
 62
2
 10
-1279.390
 20
-1387.118
 30
3693.064
 70
    32
  0
VERTEX
  8
T15SSILL
 62
2
 10
-1283.275
 20
-1381.789
 30
3693.070
 70
    32
  0
VERTEX
  8
T15SSILL
 62
2
 10
-1287.194
 20
-1384.716
 30
3693.141
 70
    32
  0
VERTEX
  8
T15SSILL
 62
2
 10
-1327.551
 20
-1306.801
 30
3693.143
 70
    32
  0
VERTEX
  8
T15SSILL
 62
2
 10
-1324.284
 20
-1302.147
 30
3693.123
 70
    32
  0
VERTEX
  8
T15SSILL
 62
2
 10
-1326.609
 20
-1297.224
 30
3693.126
 70
    32
  0
VERTEX
  8
T15SSILL
 62
2
 10
-1331.161
 20
-1299.542
 30
3693.148
 70
    32
  0
VERTEX
  8
T15SSILL
 62
2
 10
-1371.034
 20
-1224.288
 30
3693.371
 70
    32
  0
VERTEX
  8
T15SSILL
 62
2
 10
-1367.548
 20
-1218.016
 30
3693.161
 70
    32
  0
VERTEX
  8
T15SSILL
 62
2
 10
-1367.797
 20
-1214.606
 30
3693.144
 70
    32
  0
VERTEX
  8
T15SSILL
 62
2
 10
-1370.756
 20
-1212.363
 30
3693.409
 70
    32
  0
VERTEX
  8
T15SSILL
 62
2
 10
-1376.581
 20
-1212.967
 30
3693.981
 70
    32
  0
VERTEX
  8
T15SSILL
 62
2
 10
-1381.516
 20
-1204.552
 30
3694.515
 70
    32
  0
VERTEX
  8
T15SSILL
 62
2
 10
-1383.345
 20
-1196.205
 30
3694.741
 70
    32
  0
VERTEX
  8
T15SSILL
 62
2
 10
-1382.564
 20
-1188.058
 30
3694.708
 70
    32
  0
VERTEX
  8
T15SSILL
 62
2
 10
-1381.206
 20
-1180.832
 30
3694.614
 70
    32
  0
VERTEX
  8
T15SSILL
 62
2
 10
-1377.282
 20
-1171.447
 30
3694.277
 70
    32
  0
VERTEX
  8
T15SSILL
 62
2
 10
-1369.956
 20
-1161.318
 30
3693.609
 70
    32
  0
VERTEX
  8
T15SSILL
 62
2
 10
-1362.799
 20
-1155.537
 30
3692.933
 70
    32
  0
VERTEX
  8
T15SSILL
 62
2
 10
-1091.866
 20
-960.218
 30
3692.341
 70
    32
  0
VERTEX
  8
T15SSILL
 62
2
 10
-1078.119
 20
-978.590
 30
3692.444
 70
    32
  0
VERTEX
  8
T15SSILL
 62
2
 10
-1070.090
 20
-972.917
 30
3692.431
 70
    32
  0
VERTEX
  8
T15SSILL
 62
2
 10
-1074.561
 20
-959.341
 30
3692.305
 70
    32
  0
VERTEX
  8
T15SSILL
 62
2
 10
-1049.522
 20
-940.195
 30
3692.017
 70
    32
  0
VERTEX
  8
T15SSILL
 62
2
 10
-1042.342
 20
-949.189
 30
3692.125
 70
    32
  0
VERTEX
  8
T15SSILL
 62
2
 10
-1034.981
 20
-944.335
 30
3692.051
 70
    32
  0
VERTEX
  8
T15SSILL
 62
2
 10
-1042.210
 20
-929.320
 30
3691.864
 70
    32
  0
VERTEX
  8
T15SSILL
 62
2
 10
-1029.929
 20
-915.189
 30
3691.661
 70
    32
  0
VERTEX
  8
T15SSILL
 62
2
 10
-958.927
 20
-863.536
 30
3691.167
 70
    32
  0
VERTEX
  8
T15SSILL
 62
2
 10
-934.809
 20
-847.448
 30
3690.995
 70
    32
  0
VERTEX
  8
T15SSILL
 62
2
 10
-923.365
 20
-866.672
 30
3691.170
 70
    32
  0
VERTEX
  8
T15SSILL
 62
2
 10
-912.005
 20
-859.878
 30
3691.109
 70
    32
  0
VERTEX
  8
T15SSILL
 62
2
 10
-914.860
 20
-846.984
 30
3690.910
 70
    32
  0
VERTEX
  8
T15SSILL
 62
2
 10
-913.024
 20
-837.209
 30
3690.897
 70
    32
  0
VERTEX
  8
T15SSILL
 62
2
 10
-910.666
 20
-835.603
 30
3690.886
 70
    32
  0
VERTEX
  8
T15SSILL
 62
2
 10
-910.633
 20
-830.152
 30
3690.883
 70
    32
  0
VERTEX
  8
T15SSILL
 62
2
 10
-723.502
 20
-696.860
 30
3690.764
 70
    32
  0
VERTEX
  8
T15SSILL
 62
2
 10
-720.070
 20
-697.265
 30
3690.758
 70
    32
  0
VERTEX
  8
T15SSILL
 62
2
 10
-709.576
 20
-691.798
 30
3690.727
 70
    32
  0
VERTEX
  8
T15SSILL
 62
2
 10
-703.085
 20
-690.414
 30
3690.711
 70
    32
  0
VERTEX
  8
T15SSILL
 62
2
 10
-695.305
 20
-694.819
 30
3690.703
 70
    32
  0
VERTEX
  8
T15SSILL
 62
2
 10
-683.274
 20
-693.644
 30
3690.677
 70
    32
  0
VERTEX
  8
T15SSILL
 62
2
 10
-654.888
 20
-701.710
 30
3690.634
 70
    32
  0
VERTEX
  8
T15SSILL
 62
2
 10
-617.516
 20
-720.499
 30
3690.592
 70
    32
  0
VERTEX
  8
T15SSILL
 62
2
 10
-614.546
 20
-727.414
 30
3690.599
 70
    32
  0
VERTEX
  8
T15SSILL
 62
2
 10
-611.276
 20
-729.139
 30
3690.595
 70
    32
  0
VERTEX
  8
T15SSILL
 62
2
 10
-607.172
 20
-726.461
 30
3690.582
 70
    32
  0
VERTEX
  8
T15SSILL
 62
2
 10
-568.123
 20
-745.936
 30
3690.461
 70
    32
  0
VERTEX
  8
T15SSILL
 62
2
 10
-565.150
 20
-753.114
 30
3690.172
 70
    32
  0
VERTEX
  8
T15SSILL
 62
2
 10
-553.033
 20
-769.255
 30
3689.984
 70
    32
  0
VERTEX
  8
T15SSILL
 62
2
 10
-533.284
 20
-775.123
 30
3690.204
 70
    32
  0
VERTEX
  8
T15SSILL
 62
2
 10
-521.899
 20
-770.877
 30
3690.903
 70
    32
  0
VERTEX
  8
T15SSILL
 62
2
 10
-519.557
 20
-776.479
 30
3690.679
 70
    32
  0
VERTEX
  8
T15SSILL
 62
2
 10
-507.222
 20
-779.345
 30
3691.012
 70
    32
  0
VERTEX
  8
T15SSILL
 62
2
 10
-480.516
 20
-843.387
 30
3688.447
 70
    32
  0
VERTEX
  8
T15SSILL
 62
2
 10
-467.141
 20
-875.462
 30
3689.078
 70
    32
  0
VERTEX
  8
T15SSILL
 62
2
 10
-469.723
 20
-880.938
 30
3689.045
 70
    32
  0
VERTEX
  8
T15SSILL
 62
2
 10
-462.371
 20
-893.738
 30
3689.322
 70
    32
  0
VERTEX
  8
T15SSILL
 62
2
 10
-458.424
 20
-912.697
 30
3689.796
 70
    32
  0
VERTEX
  8
T15SSILL
 62
2
 10
-451.402
 20
-918.559
 30
3689.908
 70
    32
  0
VERTEX
  8
T15SSILL
 62
2
 10
-449.442
 20
-924.998
 30
3690.065
 70
    32
  0
VERTEX
  8
T15SSILL
 62
2
 10
-446.482
 20
-927.347
 30
3690.109
 70
    32
  0
VERTEX
  8
T15SSILL
 62
2
 10
-441.195
 20
-936.523
 30
3690.318
 70
    32
  0
VERTEX
  8
T15SSILL
 62
2
 10
-411.944
 20
-1003.150
 30
3691.893
 70
    32
  0
VERTEX
  8
T15SSILL
 62
2
 10
-384.790
 20
-1023.467
 30
3691.859
 70
    32
  0
VERTEX
  8
T15SSILL
 62
2
 10
-336.368
 20
-1055.133
 30
3691.313
 70
    32
  0
VERTEX
  8
T15SSILL
 62
2
 10
-305.841
 20
-1040.989
 30
3691.117
 70
    32
  0
VERTEX
  8
T15SSILL
 62
2
 10
-304.161
 20
-1042.700
 30
3691.123
 70
    32
  0
VERTEX
  8
T15SSILL
 62
2
 10
-300.228
 20
-1043.471
 30
3691.071
 70
    32
  0
VERTEX
  8
T15SSILL
 62
2
 10
-287.837
 20
-1060.003
 30
3691.022
 70
    32
  0
VERTEX
  8
T15SSILL
 62
2
 10
-279.926
 20
-1059.157
 30
3690.990
 70
    32
  0
VERTEX
  8
T15SSILL
 62
2
 10
-276.288
 20
-1063.231
 30
3690.933
 70
    32
  0
VERTEX
  8
T15SSILL
 62
2
 10
-264.789
 20
-1083.274
 30
3690.684
 70
    32
  0
VERTEX
  8
T15SSILL
 62
2
 10
-252.369
 20
-1079.669
 30
3690.656
 70
    32
  0
VERTEX
  8
T15SSILL
 62
2
 10
-242.835
 20
-1072.890
 30
3690.672
 70
    32
  0
VERTEX
  8
T15SSILL
 62
2
 10
-288.497
 20
-1019.077
 30
3690.480
 70
    32
  0
VERTEX
  8
T15SSILL
 62
2
 10
-289.980
 20
-1012.007
 30
3690.383
 70
    32
  0
VERTEX
  8
T15SSILL
 62
2
 10
-299.389
 20
-1005.221
 30
3690.413
 70
    32
  0
VERTEX
  8
T15SSILL
 62
2
 10
-316.309
 20
-988.314
 30
3690.382
 70
    32
  0
VERTEX
  8
T15SSILL
 62
2
 10
-321.957
 20
-977.295
 30
3690.275
 70
    32
  0
VERTEX
  8
T15SSILL
 62
2
 10
-326.837
 20
-964.070
 30
3690.111
 70
    32
  0
VERTEX
  8
T15SSILL
 62
2
 10
-330.903
 20
-961.825
 30
3690.135
 70
    32
  0
VERTEX
  8
T15SSILL
 62
2
 10
-338.925
 20
-950.830
 30
3690.061
 70
    32
  0
VERTEX
  8
T15SSILL
 62
2
 10
-339.036
 20
-948.457
 30
3690.020
 70
    32
  0
VERTEX
  8
T15SSILL
 62
2
 10
-356.826
 20
-910.046
 30
3689.717
 70
    32
  0
VERTEX
  8
T15SSILL
 62
2
 10
-369.277
 20
-895.666
 30
3689.735
 70
    32
  0
VERTEX
  8
T15SSILL
 62
2
 10
-376.283
 20
-889.495
 30
3689.747
 70
    32
  0
VERTEX
  8
T15SSILL
 62
2
 10
-377.393
 20
-884.056
 30
3689.650
 70
    32
  0
VERTEX
  8
T15SSILL
 62
2
 10
-386.171
 20
-876.496
 30
3689.668
 70
    32
  0
VERTEX
  8
T15SSILL
 62
2
 10
-412.005
 20
-859.966
 30
3689.381
 70
    32
  0
VERTEX
  8
T15SSILL
 62
2
 10
-414.331
 20
-855.857
 30
3689.309
 70
    32
  0
VERTEX
  8
T15SSILL
 62
2
 10
-414.341
 20
-847.271
 30
3689.218
 70
    32
  0
VERTEX
  8
T15SSILL
 62
2
 10
-395.704
 20
-853.366
 30
3689.357
 70
    32
  0
VERTEX
  8
T15SSILL
 62
2
 10
-351.445
 20
-886.653
 30
3689.157
 70
    32
  0
VERTEX
  8
T15SSILL
 62
2
 10
-354.025
 20
-890.745
 30
3689.302
 70
    32
  0
VERTEX
  8
T15SSILL
 62
2
 10
-348.829
 20
-896.058
 30
3689.310
 70
    32
  0
VERTEX
  8
T15SSILL
 62
2
 10
-344.110
 20
-892.234
 30
3689.125
 70
    32
  0
VERTEX
  8
T15SSILL
 62
2
 10
-275.137
 20
-945.220
 30
3688.951
 70
    32
  0
VERTEX
  8
T15SSILL
 62
2
 10
-276.835
 20
-950.387
 30
3689.072
 70
    32
  0
VERTEX
  8
T15SSILL
 62
2
 10
-271.999
 20
-953.436
 30
3689.051
 70
    32
  0
VERTEX
  8
T15SSILL
 62
2
 10
-266.911
 20
-950.905
 30
3688.925
 70
    32
  0
VERTEX
  8
T15SSILL
 62
2
 10
-203.962
 20
-1000.322
 30
3688.801
 70
    32
  0
VERTEX
  8
T15SSILL
 62
2
 10
-206.470
 20
-1008.554
 30
3688.988
 70
    32
  0
VERTEX
  8
T15SSILL
 62
2
 10
-186.631
 20
-1023.619
 30
3688.930
 70
    32
  0
VERTEX
  8
T15SSILL
 62
2
 10
-155.688
 20
-1037.430
 30
3688.664
 70
    32
  0
VERTEX
  8
T15SSILL
 62
2
 10
-151.670
 20
-1040.192
 30
3688.645
 70
    32
  0
VERTEX
  8
T15SSILL
 62
2
 10
-116.620
 20
-1066.551
 30
3688.519
 70
    32
  0
VERTEX
  8
T15SSILL
 62
2
 10
-117.224
 20
-1072.159
 30
3688.621
 70
    32
  0
VERTEX
  8
T15SSILL
 62
2
 10
-112.651
 20
-1075.228
 30
3688.598
 70
    32
  0
VERTEX
  8
T15SSILL
 62
2
 10
-106.821
 20
-1074.226
 30
3688.489
 70
    32
  0
VERTEX
  8
T15SSILL
 62
2
 10
-36.587
 20
-1128.610
 30
3688.262
 70
    32
  0
VERTEX
  8
T15SSILL
 62
2
 10
-37.904
 20
-1133.040
 30
3688.365
 70
    32
  0
VERTEX
  8
T15SSILL
 62
2
 10
-32.742
 20
-1136.856
 30
3688.353
 70
    32
  0
VERTEX
  8
T15SSILL
 62
2
 10
-27.558
 20
-1134.406
 30
3688.215
 70
    32
  0
VERTEX
  8
T15SSILL
 62
2
 10
42.823
 20
-1188.424
 30
3688.090
 70
    32
  0
VERTEX
  8
T15SSILL
 62
2
 10
39.765
 20
-1194.231
 30
3688.091
 70
    32
  0
VERTEX
  8
T15SSILL
 62
2
 10
47.038
 20
-1197.964
 30
3688.019
 70
    32
  0
VERTEX
  8
T15SSILL
 62
2
 10
49.814
 20
-1194.121
 30
3688.042
 70
    32
  0
VERTEX
  8
T15SSILL
 62
2
 10
104.513
 20
-1235.384
 30
3688.016
 70
    32
  0
VERTEX
  8
T15SSILL
 62
2
 10
108.340
 20
-1239.044
 30
3688.024
 70
    32
  0
VERTEX
  8
T15SSILL
 62
2
 10
112.815
 20
-1246.357
 30
3688.048
 70
    32
  0
VERTEX
  8
T15SSILL
 62
2
 10
113.287
 20
-1247.819
 30
3688.055
 70
    32
  0
VERTEX
  8
T15SSILL
 62
2
 10
111.041
 20
-1252.765
 30
3688.088
 70
    32
  0
VERTEX
  8
T15SSILL
 62
2
 10
130.975
 20
-1264.646
 30
3688.082
 70
    32
  0
VERTEX
  8
T15SSILL
 62
2
 10
157.097
 20
-1272.320
 30
3688.034
 70
    32
  0
VERTEX
  8
T15SSILL
 62
2
 10
202.807
 20
-1302.843
 30
3688.026
 70
    32
  0
VERTEX
  8
T15SSILL
 62
2
 10
200.815
 20
-1308.739
 30
3688.059
 70
    32
  0
VERTEX
  8
T15SSILL
 62
2
 10
207.049
 20
-1313.792
 30
3688.047
 70
    32
  0
VERTEX
  8
T15SSILL
 62
2
 10
212.980
 20
-1309.693
 30
3688.025
 70
    32
  0
VERTEX
  8
T15SSILL
 62
2
 10
289.860
 20
-1361.939
 30
3687.628
 70
    32
  0
VERTEX
  8
T15SSILL
 62
2
 10
287.131
 20
-1363.657
 30
3687.633
 70
    32
  0
VERTEX
  8
T15SSILL
 62
2
 10
291.656
 20
-1369.767
 30
3687.613
 70
    32
  0
VERTEX
  8
T15SSILL
 62
2
 10
296.944
 20
-1366.425
 30
3687.592
 70
    32
  0
VERTEX
  8
T15SSILL
 62
2
 10
399.890
 20
-1437.849
 30
3687.348
 70
    32
  0
VERTEX
  8
T15SSILL
 62
2
 10
416.507
 20
-1444.765
 30
3687.300
 70
    32
  0
VERTEX
  8
T15SSILL
 62
2
 10
434.938
 20
-1445.698
 30
3687.231
 70
    32
  0
VERTEX
  8
T15SSILL
 62
2
 10
436.608
 20
-1461.625
 30
3687.258
 70
    32
  0
VERTEX
  8
T15SSILL
 62
2
 10
444.019
 20
-1470.934
 30
3687.249
 70
    32
  0
VERTEX
  8
T15SSILL
 62
2
 10
442.246
 20
-1472.429
 30
3687.259
 70
    32
  0
VERTEX
  8
T15SSILL
 62
2
 10
444.714
 20
-1476.089
 30
3687.257
 70
    32
  0
VERTEX
  8
T15SSILL
 62
2
 10
448.663
 20
-1477.653
 30
3687.245
 70
    32
  0
VERTEX
  8
T15SSILL
 62
2
 10
468.499
 20
-1498.044
 30
3687.212
 70
    32
  0
VERTEX
  8
T15SSILL
 62
2
 10
613.113
 20
-1697.858
 30
3687.017
 70
    32
  0
VERTEX
  8
T15SSILL
 62
2
 10
726.179
 20
-1856.647
 30
3686.865
 70
    32
  0
VERTEX
  8
T15SSILL
 62
2
 10
727.571
 20
-1867.085
 30
3686.874
 70
    32
  0
VERTEX
  8
T15SSILL
 62
2
 10
725.043
 20
-1871.809
 30
3686.888
 70
    32
  0
VERTEX
  8
T15SSILL
 62
2
 10
715.812
 20
-1879.596
 30
3686.928
 70
    32
  0
VERTEX
  8
T15SSILL
 62
2
 10
681.974
 20
-1903.543
 30
3687.066
 70
    32
  0
VERTEX
  8
T15SSILL
 62
2
 10
678.100
 20
-1907.155
 30
3687.083
 70
    32
  0
VERTEX
  8
T15SSILL
 62
2
 10
676.760
 20
-1913.699
 30
3687.096
 70
    32
  0
VERTEX
  8
T15SSILL
 62
2
 10
718.678
 20
-1989.085
 30
3687.061
 70
    32
  0
VERTEX
  8
T15SSILL
 62
2
 10
726.063
 20
-1999.909
 30
3687.052
 70
    32
  0
VERTEX
  8
T15SSILL
 62
2
 10
725.840
 20
-2005.370
 30
3687.059
 70
    32
  0
VERTEX
  8
T15SSILL
 62
2
 10
727.274
 20
-2010.176
 30
3687.061
 70
    32
  0
VERTEX
  8
T15SSILL
 62
2
 10
743.552
 20
-2036.012
 30
3687.043
 70
    32
  0
VERTEX
  8
T15SSILL
 62
2
 10
756.611
 20
-2063.421
 30
3687.037
 70
    32
  0
VERTEX
  8
T15SSILL
 62
2
 10
793.952
 20
-2116.564
 30
3686.988
 70
    32
  0
VERTEX
  8
T15SSILL
 62
2
 10
809.036
 20
-2144.013
 30
3686.976
 70
    32
  0
VERTEX
  8
T15SSILL
 62
2
 10
815.730
 20
-2151.685
 30
3686.965
 70
    32
  0
VERTEX
  8
T15SSILL
 62
2
 10
812.457
 20
-2154.667
 30
3686.979
 70
    32
  0
VERTEX
  8
T15SSILL
 62
2
 10
817.390
 20
-2162.294
 30
3686.973
 70
    32
  0
VERTEX
  8
T15SSILL
 62
2
 10
818.602
 20
-2161.473
 30
3686.968
 70
    32
  0
VERTEX
  8
T15SSILL
 62
2
 10
827.522
 20
-2173.933
 30
3686.956
 70
    32
  0
VERTEX
  8
T15SSILL
 62
2
 10
829.478
 20
-2178.462
 30
3686.956
 70
    32
  0
VERTEX
  8
T15SSILL
 62
2
 10
843.662
 20
-2193.964
 30
3686.931
 70
    32
  0
VERTEX
  8
T15SSILL
 62
2
 10
842.439
 20
-2195.590
 30
3686.937
 70
    32
  0
VERTEX
  8
T15SSILL
 62
2
 10
851.034
 20
-2204.261
 30
3686.921
 70
    32
  0
VERTEX
  8
T15SSILL
 62
2
 10
861.740
 20
-2217.822
 30
3686.905
 70
    32
  0
VERTEX
  8
T15SSILL
 62
2
 10
876.803
 20
-2240.695
 30
3686.887
 70
    32
  0
VERTEX
  8
T15SSILL
 62
2
 10
879.133
 20
-2242.488
 30
3686.882
 70
    32
  0
VERTEX
  8
T15SSILL
 62
2
 10
884.339
 20
-2239.372
 30
3686.861
 70
    32
  0
VERTEX
  8
T15SSILL
 62
2
 10
887.313
 20
-2242.294
 30
3686.856
 70
    32
  0
VERTEX
  8
T15SSILL
 62
2
 10
890.143
 20
-2246.626
 30
3686.852
 70
    32
  0
VERTEX
  8
T15SSILL
 62
2
 10
891.538
 20
-2253.457
 30
3686.857
 70
    32
  0
VERTEX
  8
T15SSILL
 62
2
 10
891.236
 20
-2255.576
 30
3686.860
 70
    32
  0
VERTEX
  8
T15SSILL
 62
2
 10
885.618
 20
-2259.845
 30
3686.884
 70
    32
  0
VERTEX
  8
T15SSILL
 62
2
 10
889.874
 20
-2264.936
 30
3686.877
 70
    32
  0
VERTEX
  8
T15SSILL
 62
2
 10
894.134
 20
-2262.567
 30
3686.860
 70
    32
  0
VERTEX
  8
T15SSILL
 62
2
 10
903.766
 20
-2275.587
 30
3686.847
 70
    32
  0
VERTEX
  8
T15SSILL
 62
2
 10
923.746
 20
-2261.774
 30
3686.765
 70
    32
  0
VERTEX
  8
T15SSILL
 62
2
 10
913.754
 20
-2248.035
 30
3686.779
 70
    32
  0
VERTEX
  8
T15SSILL
 62
2
 10
962.388
 20
-2213.231
 30
3686.580
 70
    32
  0
VERTEX
  8
T15SSILL
 62
2
 10
967.677
 20
-2213.633
 30
3686.564
 70
    32
  0
VERTEX
  8
T15SSILL
 62
2
 10
1000.825
 20
-2297.675
 30
3686.568
 70
    32
  0
VERTEX
  8
T15SSILL
 62
2
 10
999.375
 20
-2303.341
 30
3686.580
 70
    32
  0
VERTEX
  8
T15SSILL
 62
2
 10
939.741
 20
-2345.237
 30
3686.823
 70
    32
  0
VERTEX
  8
T15SSILL
 62
2
 10
932.854
 20
-2340.560
 30
3686.839
 70
    32
  0
VERTEX
  8
T15SSILL
 62
2
 10
931.568
 20
-2334.607
 30
3686.835
 70
    32
  0
VERTEX
  8
T15SSILL
 62
2
 10
944.734
 20
-2318.367
 30
3686.772
 70
    32
  0
VERTEX
  8
T15SSILL
 62
2
 10
941.382
 20
-2303.223
 30
3686.763
 70
    32
  0
VERTEX
  8
T15SSILL
 62
2
 10
930.842
 20
-2281.826
 30
3686.769
 70
    32
  0
VERTEX
  8
T15SSILL
 62
2
 10
926.266
 20
-2266.975
 30
3686.764
 70
    32
  0
VERTEX
  8
T15SSILL
 62
2
 10
924.019
 20
-2265.005
 30
3686.769
 70
    32
  0
VERTEX
  8
T15SSILL
 62
2
 10
920.777
 20
-2265.610
 30
3686.780
 70
    32
  0
VERTEX
  8
T15SSILL
 62
2
 10
915.848
 20
-2269.247
 30
3686.800
 70
    32
  0
VERTEX
  8
T15SSILL
 62
2
 10
911.709
 20
-2270.361
 30
3686.815
 70
    32
  0
VERTEX
  8
T15SSILL
 62
2
 10
901.980
 20
-2277.578
 30
3686.855
 70
    32
  0
VERTEX
  8
T15SSILL
 62
2
 10
905.560
 20
-2282.393
 30
3686.850
 70
    32
  0
VERTEX
  8
T15SSILL
 62
2
 10
906.271
 20
-2281.845
 30
3686.847
 70
    32
  0
VERTEX
  8
T15SSILL
 62
2
 10
911.625
 20
-2291.522
 30
3686.843
 70
    32
  0
VERTEX
  8
T15SSILL
 62
2
 10
918.902
 20
-2331.124
 30
3686.871
 70
    32
  0
VERTEX
  8
T15SSILL
 62
2
 10
927.357
 20
-2349.931
 30
3686.869
 70
    32
  0
VERTEX
  8
T15SSILL
 62
2
 10
927.287
 20
-2354.420
 30
3686.875
 70
    32
  0
VERTEX
  8
T15SSILL
 62
2
 10
679.365
 20
-2534.457
 30
3687.974
 70
    32
  0
VERTEX
  8
T15SSILL
 62
2
 10
674.951
 20
-2533.858
 30
3687.988
 70
    32
  0
VERTEX
  8
T15SSILL
 62
2
 10
671.915
 20
-2528.298
 30
3687.991
 70
    32
  0
VERTEX
  8
T15SSILL
 62
2
 10
670.359
 20
-2522.088
 30
3687.987
 70
    32
  0
VERTEX
  8
T15SSILL
 62
2
 10
669.083
 20
-2505.398
 30
3687.967
 70
    32
  0
VERTEX
  8
T15SSILL
 62
2
 10
664.917
 20
-2489.306
 30
3687.958
 70
    32
  0
VERTEX
  8
T15SSILL
 62
2
 10
656.491
 20
-2475.427
 30
3687.967
 70
    32
  0
VERTEX
  8
T15SSILL
 62
2
 10
582.415
 20
-2372.060
 30
3688.072
 70
    32
  0
VERTEX
  8
T15SSILL
 62
2
 10
576.960
 20
-2376.207
 30
3688.097
 70
    32
  0
VERTEX
  8
T15SSILL
 62
2
 10
657.705
 20
-2489.477
 30
3687.983
 70
    32
  0
VERTEX
  8
T15SSILL
 62
2
 10
662.582
 20
-2520.688
 30
3688.012
 70
    32
  0
VERTEX
  8
T15SSILL
 62
2
 10
661.619
 20
-2524.583
 30
3688.021
 70
    32
  0
VERTEX
  8
T15SSILL
 62
2
 10
666.141
 20
-2537.147
 30
3688.023
 70
    32
  0
VERTEX
  8
T15SSILL
 62
2
 10
664.811
 20
-2544.131
 30
3688.038
 70
    32
  0
VERTEX
  8
T15SSILL
 62
2
 10
592.382
 20
-2595.658
 30
3688.364
 70
    32
  0
SEQEND
  8
T15SSILL
  0
ENDSEC
  0
EOF
