999
********************************
999
*   DXF File - Entities Only   *
999
*        3D Data Format        *
999
*     Output from ENVISAGE     *
999
*     20-Dec-2007 09:17:10     *
999
********************************
  0
SECTION 
  2
HEADER
  9
$ACADVER
  1
AC1009
  9
$EXTMIN
 10
-290000.000
 20
-250000.000
 30
-4000.000
  9
$EXTMAX
 10
5000000.000
 20
600000.000
 30
6000.000
  0
ENDSEC
  0
SECTION
  2
ENTITIES
  0
TEXT
  8
T17SSILL
 62
7
 10
-441.008
 20
-760.624
 30
3535.724
 40
0.200
  1
U
 41
 1.0 
  0
TEXT
  8
T17SSILL
 62
3
 10
399.743
 20
-4921.806
 30
3534.028
 40
0.200
  1
1700
 50
7.767
 41
 1.0 
  0
POLYLINE
  8
T17SSILL
 62
3
 66
     1
 70
     9
  0
VERTEX
  8
T17SSILL
 62
3
 10
256.817
 20
-1929.964
 30
3537.375
 70
    32
  0
VERTEX
  8
T17SSILL
 62
3
 10
261.687
 20
-1925.770
 30
3537.370
 70
    32
  0
SEQEND
  8
T17SSILL
  0
POLYLINE
  8
T17SSILL
 62
3
 66
     1
 70
     9
  0
VERTEX
  8
T17SSILL
 62
3
 10
13.616
 20
-2318.930
 30
3536.951
 70
    32
  0
VERTEX
  8
T17SSILL
 62
3
 10
19.519
 20
-2325.640
 30
3536.973
 70
    32
  0
SEQEND
  8
T17SSILL
  0
POLYLINE
  8
T17SSILL
 62
3
 66
     1
 70
     9
  0
VERTEX
  8
T17SSILL
 62
3
 10
-1070.849
 20
-1344.463
 30
3535.280
 70
    32
  0
VERTEX
  8
T17SSILL
 62
3
 10
-1066.751
 20
-1349.659
 30
3535.280
 70
    32
  0
SEQEND
  8
T17SSILL
  0
POLYLINE
  8
T17SSILL
 62
3
 66
     1
 70
     9
  0
VERTEX
  8
T17SSILL
 62
3
 10
-277.567
 20
-2059.690
 30
3535.882
 70
    32
  0
VERTEX
  8
T17SSILL
 62
3
 10
-277.876
 20
-2059.914
 30
3535.881
 70
    32
  0
SEQEND
  8
T17SSILL
  0
POLYLINE
  8
T17SSILL
 62
3
 66
     1
 70
     9
  0
VERTEX
  8
T17SSILL
 62
3
 10
1491.725
 20
-2824.057
 30
3533.801
 70
    32
  0
VERTEX
  8
T17SSILL
 62
3
 10
1491.716
 20
-2824.047
 30
3533.801
 70
    32
  0
SEQEND
  8
T17SSILL
  0
POLYLINE
  8
T17SSILL
 62
3
 66
     1
 70
     9
  0
VERTEX
  8
T17SSILL
 62
3
 10
-421.532
 20
-763.160
 30
3536.296
 70
    32
  0
VERTEX
  8
T17SSILL
 62
3
 10
-350.409
 20
-878.153
 30
3536.530
 70
    32
  0
VERTEX
  8
T17SSILL
 62
3
 10
-320.778
 20
-900.322
 30
3536.559
 70
    32
  0
VERTEX
  8
T17SSILL
 62
3
 10
-331.206
 20
-884.170
 30
3536.527
 70
    32
  0
VERTEX
  8
T17SSILL
 62
3
 10
-329.661
 20
-883.136
 30
3536.523
 70
    32
  0
VERTEX
  8
T17SSILL
 62
3
 10
-418.092
 20
-749.388
 30
3536.256
 70
    32
  0
VERTEX
  8
T17SSILL
 62
3
 10
-437.568
 20
-732.459
 30
3536.230
 70
    32
  0
VERTEX
  8
T17SSILL
 62
3
 10
-422.722
 20
-760.960
 30
3536.291
 70
    32
  0
SEQEND
  8
T17SSILL
  0
POLYLINE
  8
T17SSILL
 62
3
 66
     1
 70
     9
  0
VERTEX
  8
T17SSILL
 62
3
 10
1386.021
 20
-2397.383
 30
3534.409
 70
    32
  0
VERTEX
  8
T17SSILL
 62
3
 10
1397.619
 20
-2389.015
 30
3534.344
 70
    32
  0
VERTEX
  8
T17SSILL
 62
3
 10
1394.101
 20
-2375.620
 30
3534.325
 70
    32
  0
VERTEX
  8
T17SSILL
 62
3
 10
1366.461
 20
-2396.141
 30
3534.481
 70
    32
  0
VERTEX
  8
T17SSILL
 62
3
 10
1367.947
 20
-2415.577
 30
3534.523
 70
    32
  0
VERTEX
  8
T17SSILL
 62
3
 10
1388.443
 20
-2400.716
 30
3534.408
 70
    32
  0
SEQEND
  8
T17SSILL
  0
POLYLINE
  8
T17SSILL
 62
3
 66
     1
 70
     9
  0
VERTEX
  8
T17SSILL
 62
3
 10
1326.801
 20
-2329.807
 30
3534.469
 70
    32
  0
VERTEX
  8
T17SSILL
 62
3
 10
1326.218
 20
-2339.237
 30
3534.495
 70
    32
  0
VERTEX
  8
T17SSILL
 62
3
 10
1331.427
 20
-2347.183
 30
3534.494
 70
    32
  0
VERTEX
  8
T17SSILL
 62
3
 10
1333.111
 20
-2348.042
 30
3534.490
 70
    32
  0
VERTEX
  8
T17SSILL
 62
3
 10
1345.314
 20
-2338.287
 30
3534.419
 70
    32
  0
VERTEX
  8
T17SSILL
 62
3
 10
1333.873
 20
-2325.049
 30
3534.431
 70
    32
  0
SEQEND
  8
T17SSILL
  0
POLYLINE
  8
T17SSILL
 62
3
 66
     1
 70
     9
  0
VERTEX
  8
T17SSILL
 62
3
 10
1457.492
 20
-2626.273
 30
3534.108
 70
    32
  0
VERTEX
  8
T17SSILL
 62
3
 10
1459.871
 20
-2631.989
 30
3534.096
 70
    32
  0
VERTEX
  8
T17SSILL
 62
3
 10
1495.457
 20
-2606.292
 30
3534.055
 70
    32
  0
VERTEX
  8
T17SSILL
 62
3
 10
1488.805
 20
-2596.916
 30
3534.079
 70
    32
  0
VERTEX
  8
T17SSILL
 62
3
 10
1474.298
 20
-2606.637
 30
3534.097
 70
    32
  0
VERTEX
  8
T17SSILL
 62
3
 10
1477.634
 20
-2611.940
 30
3534.084
 70
    32
  0
SEQEND
  8
T17SSILL
  0
POLYLINE
  8
T17SSILL
 62
3
 66
     1
 70
     9
  0
VERTEX
  8
T17SSILL
 62
3
 10
846.594
 20
-3562.095
 30
3534.412
 70
    32
  0
VERTEX
  8
T17SSILL
 62
3
 10
844.998
 20
-3559.453
 30
3534.409
 70
    32
  0
VERTEX
  8
T17SSILL
 62
3
 10
845.612
 20
-3558.040
 30
3534.407
 70
    32
  0
VERTEX
  8
T17SSILL
 62
3
 10
850.561
 20
-3561.378
 30
3534.411
 70
    32
  0
VERTEX
  8
T17SSILL
 62
3
 10
855.496
 20
-3559.600
 30
3534.408
 70
    32
  0
VERTEX
  8
T17SSILL
 62
3
 10
859.212
 20
-3563.294
 30
3534.412
 70
    32
  0
VERTEX
  8
T17SSILL
 62
3
 10
866.064
 20
-3574.388
 30
3534.426
 70
    32
  0
VERTEX
  8
T17SSILL
 62
3
 10
862.778
 20
-3576.781
 30
3534.429
 70
    32
  0
SEQEND
  8
T17SSILL
  0
POLYLINE
  8
T17SSILL
 62
3
 66
     1
 70
     9
  0
VERTEX
  8
T17SSILL
 62
3
 10
-2309.761
 20
657.140
 30
3535.148
 70
    32
  0
VERTEX
  8
T17SSILL
 62
3
 10
-2315.546
 20
665.686
 30
3535.145
 70
    32
  0
VERTEX
  8
T17SSILL
 62
3
 10
-2318.421
 20
673.007
 30
3535.143
 70
    32
  0
VERTEX
  8
T17SSILL
 62
3
 10
-2281.076
 20
699.414
 30
3535.136
 70
    32
  0
VERTEX
  8
T17SSILL
 62
3
 10
-2272.614
 20
697.411
 30
3535.137
 70
    32
  0
VERTEX
  8
T17SSILL
 62
3
 10
-2267.382
 20
691.207
 30
3535.139
 70
    32
  0
VERTEX
  8
T17SSILL
 62
3
 10
-2249.632
 20
675.137
 30
3535.145
 70
    32
  0
VERTEX
  8
T17SSILL
 62
3
 10
-2249.200
 20
659.353
 30
3535.149
 70
    32
  0
VERTEX
  8
T17SSILL
 62
3
 10
-2240.461
 20
658.885
 30
3535.150
 70
    32
  0
VERTEX
  8
T17SSILL
 62
3
 10
-2232.079
 20
647.774
 30
3535.153
 70
    32
  0
VERTEX
  8
T17SSILL
 62
3
 10
-2237.216
 20
645.223
 30
3535.154
 70
    32
  0
VERTEX
  8
T17SSILL
 62
3
 10
-2293.659
 20
650.861
 30
3535.150
 70
    32
  0
VERTEX
  8
T17SSILL
 62
3
 10
-2307.026
 20
655.562
 30
3535.148
 70
    32
  0
SEQEND
  8
T17SSILL
  0
POLYLINE
  8
T17SSILL
 62
3
 66
     1
 70
     9
  0
VERTEX
  8
T17SSILL
 62
3
 10
-2354.939
 20
779.188
 30
3535.110
 70
    32
  0
VERTEX
  8
T17SSILL
 62
3
 10
-2404.773
 20
783.964
 30
3535.106
 70
    32
  0
VERTEX
  8
T17SSILL
 62
3
 10
-2405.943
 20
786.392
 30
3535.106
 70
    32
  0
VERTEX
  8
T17SSILL
 62
3
 10
-2375.139
 20
808.306
 30
3535.100
 70
    32
  0
VERTEX
  8
T17SSILL
 62
3
 10
-2347.080
 20
785.006
 30
3535.108
 70
    32
  0
VERTEX
  8
T17SSILL
 62
3
 10
-2352.809
 20
780.022
 30
3535.110
 70
    32
  0
SEQEND
  8
T17SSILL
  0
POLYLINE
  8
T17SSILL
 62
3
 66
     1
 70
     9
  0
VERTEX
  8
T17SSILL
 62
3
 10
-1061.700
 20
-1345.662
 30
3535.270
 70
    32
  0
VERTEX
  8
T17SSILL
 62
3
 10
-1066.751
 20
-1349.659
 30
3535.280
 70
    32
  0
VERTEX
  8
T17SSILL
 62
3
 10
-1070.849
 20
-1344.463
 30
3535.280
 70
    32
  0
VERTEX
  8
T17SSILL
 62
3
 10
-1066.315
 20
-1341.263
 30
3535.272
 70
    32
  0
VERTEX
  8
T17SSILL
 62
3
 10
-1083.758
 20
-1325.105
 30
3535.278
 70
    32
  0
VERTEX
  8
T17SSILL
 62
3
 10
-1117.480
 20
-1278.702
 30
3535.313
 70
    32
  0
VERTEX
  8
T17SSILL
 62
3
 10
-1127.540
 20
-1273.617
 30
3535.358
 70
    32
  0
VERTEX
  8
T17SSILL
 62
3
 10
-1140.746
 20
-1274.311
 30
3535.438
 70
    32
  0
VERTEX
  8
T17SSILL
 62
3
 10
-1195.968
 20
-1313.718
 30
3535.878
 70
    32
  0
VERTEX
  8
T17SSILL
 62
3
 10
-1192.992
 20
-1318.088
 30
3535.873
 70
    32
  0
VERTEX
  8
T17SSILL
 62
3
 10
-1201.088
 20
-1324.341
 30
3535.939
 70
    32
  0
VERTEX
  8
T17SSILL
 62
3
 10
-1204.381
 20
-1319.980
 30
3535.946
 70
    32
  0
VERTEX
  8
T17SSILL
 62
3
 10
-1270.570
 20
-1367.991
 30
3536.476
 70
    32
  0
VERTEX
  8
T17SSILL
 62
3
 10
-1271.777
 20
-1371.323
 30
3536.493
 70
    32
  0
VERTEX
  8
T17SSILL
 62
3
 10
-1269.825
 20
-1377.602
 30
3536.470
 70
    32
  0
VERTEX
  8
T17SSILL
 62
3
 10
-1278.730
 20
-1383.780
 30
3536.534
 70
    32
  0
VERTEX
  8
T17SSILL
 62
3
 10
-1283.603
 20
-1377.945
 30
3536.581
 70
    32
  0
VERTEX
  8
T17SSILL
 62
3
 10
-1294.735
 20
-1386.772
 30
3536.659
 70
    32
  0
VERTEX
  8
T17SSILL
 62
3
 10
-1299.613
 20
-1392.695
 30
3536.664
 70
    32
  0
VERTEX
  8
T17SSILL
 62
3
 10
-1300.629
 20
-1394.923
 30
3536.660
 70
    32
  0
VERTEX
  8
T17SSILL
 62
3
 10
-1295.426
 20
-1402.142
 30
3536.634
 70
    32
  0
VERTEX
  8
T17SSILL
 62
3
 10
-1294.215
 20
-1407.218
 30
3536.619
 70
    32
  0
VERTEX
  8
T17SSILL
 62
3
 10
-1294.389
 20
-1414.459
 30
3536.601
 70
    32
  0
VERTEX
  8
T17SSILL
 62
3
 10
-1292.759
 20
-1421.504
 30
3536.581
 70
    32
  0
VERTEX
  8
T17SSILL
 62
3
 10
-1301.067
 20
-1439.985
 30
3536.548
 70
    32
  0
VERTEX
  8
T17SSILL
 62
3
 10
-1301.558
 20
-1443.567
 30
3536.540
 70
    32
  0
VERTEX
  8
T17SSILL
 62
3
 10
-1296.970
 20
-1478.181
 30
3536.446
 70
    32
  0
VERTEX
  8
T17SSILL
 62
3
 10
-1299.570
 20
-1479.692
 30
3536.446
 70
    32
  0
VERTEX
  8
T17SSILL
 62
3
 10
-1280.934
 20
-1607.701
 30
3536.096
 70
    32
  0
VERTEX
  8
T17SSILL
 62
3
 10
-1270.924
 20
-1605.381
 30
3536.086
 70
    32
  0
VERTEX
  8
T17SSILL
 62
3
 10
-1264.231
 20
-1615.323
 30
3536.050
 70
    32
  0
VERTEX
  8
T17SSILL
 62
3
 10
-1277.336
 20
-1627.161
 30
3536.041
 70
    32
  0
VERTEX
  8
T17SSILL
 62
3
 10
-1276.891
 20
-1631.916
 30
3536.029
 70
    32
  0
VERTEX
  8
T17SSILL
 62
3
 10
-1250.938
 20
-1670.214
 30
3535.892
 70
    32
  0
VERTEX
  8
T17SSILL
 62
3
 10
-1244.333
 20
-1672.238
 30
3535.876
 70
    32
  0
VERTEX
  8
T17SSILL
 62
3
 10
-1228.524
 20
-1682.108
 30
3535.777
 70
    32
  0
VERTEX
  8
T17SSILL
 62
3
 10
-1223.498
 20
-1682.659
 30
3535.772
 70
    32
  0
VERTEX
  8
T17SSILL
 62
3
 10
-946.853
 20
-1476.292
 30
3535.250
 70
    32
  0
VERTEX
  8
T17SSILL
 62
3
 10
-938.042
 20
-1472.122
 30
3535.235
 70
    32
  0
VERTEX
  8
T17SSILL
 62
3
 10
-925.907
 20
-1470.674
 30
3535.219
 70
    32
  0
VERTEX
  8
T17SSILL
 62
3
 10
-989.195
 20
-1412.788
 30
3535.243
 70
    32
  0
VERTEX
  8
T17SSILL
 62
3
 10
-995.025
 20
-1416.903
 30
3535.254
 70
    32
  0
VERTEX
  8
T17SSILL
 62
3
 10
-1000.013
 20
-1411.365
 30
3535.255
 70
    32
  0
VERTEX
  8
T17SSILL
 62
3
 10
-994.779
 20
-1407.779
 30
3535.246
 70
    32
  0
SEQEND
  8
T17SSILL
  0
POLYLINE
  8
T17SSILL
 62
3
 66
     1
 70
     9
  0
VERTEX
  8
T17SSILL
 62
3
 10
-1078.205
 20
-1642.980
 30
3535.560
 70
    32
  0
VERTEX
  8
T17SSILL
 62
3
 10
-1083.743
 20
-1638.801
 30
3535.563
 70
    32
  0
VERTEX
  8
T17SSILL
 62
3
 10
-1081.202
 20
-1635.066
 30
3535.557
 70
    32
  0
VERTEX
  8
T17SSILL
 62
3
 10
-1086.274
 20
-1611.686
 30
3535.542
 70
    32
  0
VERTEX
  8
T17SSILL
 62
3
 10
-1087.205
 20
-1609.755
 30
3535.541
 70
    32
  0
VERTEX
  8
T17SSILL
 62
3
 10
-1090.186
 20
-1607.977
 30
3535.543
 70
    32
  0
VERTEX
  8
T17SSILL
 62
3
 10
-1082.022
 20
-1602.430
 30
3535.528
 70
    32
  0
VERTEX
  8
T17SSILL
 62
3
 10
-1081.201
 20
-1594.733
 30
3535.520
 70
    32
  0
VERTEX
  8
T17SSILL
 62
3
 10
-1076.446
 20
-1590.622
 30
3535.510
 70
    32
  0
VERTEX
  8
T17SSILL
 62
3
 10
-1077.292
 20
-1586.367
 30
3535.508
 70
    32
  0
VERTEX
  8
T17SSILL
 62
3
 10
-1079.557
 20
-1584.838
 30
3535.509
 70
    32
  0
VERTEX
  8
T17SSILL
 62
3
 10
-1083.601
 20
-1588.123
 30
3535.517
 70
    32
  0
VERTEX
  8
T17SSILL
 62
3
 10
-1088.784
 20
-1597.281
 30
3535.531
 70
    32
  0
VERTEX
  8
T17SSILL
 62
3
 10
-1095.745
 20
-1603.920
 30
3535.546
 70
    32
  0
VERTEX
  8
T17SSILL
 62
3
 10
-1105.860
 20
-1610.520
 30
3535.564
 70
    32
  0
VERTEX
  8
T17SSILL
 62
3
 10
-1107.554
 20
-1616.677
 30
3535.572
 70
    32
  0
VERTEX
  8
T17SSILL
 62
3
 10
-1107.648
 20
-1622.350
 30
3535.577
 70
    32
  0
VERTEX
  8
T17SSILL
 62
3
 10
-1105.438
 20
-1630.065
 30
3535.581
 70
    32
  0
VERTEX
  8
T17SSILL
 62
3
 10
-1081.094
 20
-1663.028
 30
3535.582
 70
    32
  0
SEQEND
  8
T17SSILL
  0
POLYLINE
  8
T17SSILL
 62
3
 66
     1
 70
     9
  0
VERTEX
  8
T17SSILL
 62
3
 10
-315.887
 20
-934.989
 30
3536.646
 70
    32
  0
VERTEX
  8
T17SSILL
 62
3
 10
-309.977
 20
-940.293
 30
3536.654
 70
    32
  0
VERTEX
  8
T17SSILL
 62
3
 10
-305.988
 20
-938.548
 30
3536.646
 70
    32
  0
VERTEX
  8
T17SSILL
 62
3
 10
-299.817
 20
-944.649
 30
3536.656
 70
    32
  0
VERTEX
  8
T17SSILL
 62
3
 10
-296.229
 20
-935.828
 30
3536.629
 70
    32
  0
VERTEX
  8
T17SSILL
 62
3
 10
-307.009
 20
-919.498
 30
3536.596
 70
    32
  0
VERTEX
  8
T17SSILL
 62
3
 10
-325.961
 20
-906.692
 30
3536.581
 70
    32
  0
VERTEX
  8
T17SSILL
 62
3
 10
-330.681
 20
-909.530
 30
3536.593
 70
    32
  0
VERTEX
  8
T17SSILL
 62
3
 10
-325.720
 20
-916.967
 30
3536.608
 70
    32
  0
VERTEX
  8
T17SSILL
 62
3
 10
-322.843
 20
-926.939
 30
3536.632
 70
    32
  0
SEQEND
  8
T17SSILL
  0
POLYLINE
  8
T17SSILL
 62
3
 66
     1
 70
     9
  0
VERTEX
  8
T17SSILL
 62
3
 10
1540.756
 20
-1665.197
 30
3533.896
 70
    32
  0
VERTEX
  8
T17SSILL
 62
3
 10
1540.297
 20
-1670.485
 30
3533.895
 70
    32
  0
VERTEX
  8
T17SSILL
 62
3
 10
1572.642
 20
-1734.065
 30
3533.836
 70
    32
  0
VERTEX
  8
T17SSILL
 62
3
 10
1580.364
 20
-1738.895
 30
3533.825
 70
    32
  0
VERTEX
  8
T17SSILL
 62
3
 10
1721.008
 20
-2013.055
 30
3533.571
 70
    32
  0
VERTEX
  8
T17SSILL
 62
3
 10
1721.448
 20
-2026.519
 30
3533.566
 70
    32
  0
VERTEX
  8
T17SSILL
 62
3
 10
1717.038
 20
-2039.429
 30
3533.566
 70
    32
  0
VERTEX
  8
T17SSILL
 62
3
 10
1714.186
 20
-2043.516
 30
3533.568
 70
    32
  0
VERTEX
  8
T17SSILL
 62
3
 10
1476.843
 20
-2212.556
 30
3533.781
 70
    32
  0
VERTEX
  8
T17SSILL
 62
3
 10
1463.339
 20
-2216.694
 30
3533.812
 70
    32
  0
VERTEX
  8
T17SSILL
 62
3
 10
1459.034
 20
-2203.809
 30
3533.806
 70
    32
  0
VERTEX
  8
T17SSILL
 62
3
 10
1449.840
 20
-2207.626
 30
3533.840
 70
    32
  0
VERTEX
  8
T17SSILL
 62
3
 10
1445.285
 20
-2222.916
 30
3533.876
 70
    32
  0
VERTEX
  8
T17SSILL
 62
3
 10
1438.551
 20
-2233.127
 30
3533.911
 70
    32
  0
VERTEX
  8
T17SSILL
 62
3
 10
1409.771
 20
-2260.706
 30
3534.039
 70
    32
  0
VERTEX
  8
T17SSILL
 62
3
 10
1395.999
 20
-2271.273
 30
3534.096
 70
    32
  0
VERTEX
  8
T17SSILL
 62
3
 10
1394.398
 20
-2256.504
 30
3534.080
 70
    32
  0
VERTEX
  8
T17SSILL
 62
3
 10
1386.277
 20
-2254.849
 30
3534.102
 70
    32
  0
VERTEX
  8
T17SSILL
 62
3
 10
1384.557
 20
-2251.262
 30
3534.102
 70
    32
  0
VERTEX
  8
T17SSILL
 62
3
 10
1379.446
 20
-2257.579
 30
3534.127
 70
    32
  0
VERTEX
  8
T17SSILL
 62
3
 10
1377.769
 20
-2257.249
 30
3534.132
 70
    32
  0
VERTEX
  8
T17SSILL
 62
3
 10
842.367
 20
-1570.179
 30
3534.783
 70
    32
  0
VERTEX
  8
T17SSILL
 62
3
 10
649.937
 20
-1325.910
 30
3535.029
 70
    32
  0
VERTEX
  8
T17SSILL
 62
3
 10
1010.344
 20
-1051.068
 30
3534.746
 70
    32
  0
VERTEX
  8
T17SSILL
 62
3
 10
1032.174
 20
-1055.198
 30
3534.711
 70
    32
  0
VERTEX
  8
T17SSILL
 62
3
 10
1050.782
 20
-1063.045
 30
3534.676
 70
    32
  0
VERTEX
  8
T17SSILL
 62
3
 10
1089.276
 20
-1084.618
 30
3534.610
 70
    32
  0
VERTEX
  8
T17SSILL
 62
3
 10
1095.579
 20
-1092.389
 30
3534.601
 70
    32
  0
VERTEX
  8
T17SSILL
 62
3
 10
1111.859
 20
-1105.793
 30
3534.577
 70
    32
  0
VERTEX
  8
T17SSILL
 62
3
 10
1130.104
 20
-1123.135
 30
3534.551
 70
    32
  0
VERTEX
  8
T17SSILL
 62
3
 10
1151.117
 20
-1134.918
 30
3534.523
 70
    32
  0
VERTEX
  8
T17SSILL
 62
3
 10
1180.412
 20
-1149.183
 30
3534.484
 70
    32
  0
VERTEX
  8
T17SSILL
 62
3
 10
1190.518
 20
-1149.013
 30
3534.473
 70
    32
  0
VERTEX
  8
T17SSILL
 62
3
 10
1195.625
 20
-1150.290
 30
3534.466
 70
    32
  0
VERTEX
  8
T17SSILL
 62
3
 10
1214.957
 20
-1160.681
 30
3534.441
 70
    32
  0
VERTEX
  8
T17SSILL
 62
3
 10
1230.116
 20
-1165.831
 30
3534.422
 70
    32
  0
VERTEX
  8
T17SSILL
 62
3
 10
1312.410
 20
-1213.065
 30
3534.312
 70
    32
  0
VERTEX
  8
T17SSILL
 62
3
 10
1482.244
 20
-1543.209
 30
3534.005
 70
    32
  0
VERTEX
  8
T17SSILL
 62
3
 10
1540.714
 20
-1661.940
 30
3533.897
 70
    32
  0
SEQEND
  8
T17SSILL
  0
POLYLINE
  8
T17SSILL
 62
3
 66
     1
 70
     9
  0
VERTEX
  8
T17SSILL
 62
3
 10
745.117
 20
-3191.620
 30
3534.874
 70
    32
  0
VERTEX
  8
T17SSILL
 62
3
 10
750.115
 20
-3193.392
 30
3534.861
 70
    32
  0
VERTEX
  8
T17SSILL
 62
3
 10
761.999
 20
-3204.993
 30
3534.823
 70
    32
  0
VERTEX
  8
T17SSILL
 62
3
 10
764.813
 20
-3206.135
 30
3534.816
 70
    32
  0
VERTEX
  8
T17SSILL
 62
3
 10
765.288
 20
-3207.444
 30
3534.814
 70
    32
  0
VERTEX
  8
T17SSILL
 62
3
 10
772.405
 20
-3209.336
 30
3534.797
 70
    32
  0
VERTEX
  8
T17SSILL
 62
3
 10
774.644
 20
-3212.731
 30
3534.789
 70
    32
  0
VERTEX
  8
T17SSILL
 62
3
 10
776.581
 20
-3218.725
 30
3534.777
 70
    32
  0
VERTEX
  8
T17SSILL
 62
3
 10
780.461
 20
-3224.192
 30
3534.763
 70
    32
  0
VERTEX
  8
T17SSILL
 62
3
 10
780.704
 20
-3228.045
 30
3534.758
 70
    32
  0
VERTEX
  8
T17SSILL
 62
3
 10
792.021
 20
-3242.903
 30
3534.717
 70
    32
  0
VERTEX
  8
T17SSILL
 62
3
 10
784.402
 20
-3250.734
 30
3534.723
 70
    32
  0
VERTEX
  8
T17SSILL
 62
3
 10
795.875
 20
-3270.188
 30
3534.677
 70
    32
  0
VERTEX
  8
T17SSILL
 62
3
 10
805.358
 20
-3263.577
 30
3534.665
 70
    32
  0
VERTEX
  8
T17SSILL
 62
3
 10
815.362
 20
-3274.081
 30
3534.633
 70
    32
  0
VERTEX
  8
T17SSILL
 62
3
 10
821.450
 20
-3305.890
 30
3534.582
 70
    32
  0
VERTEX
  8
T17SSILL
 62
3
 10
827.620
 20
-3324.038
 30
3534.548
 70
    32
  0
VERTEX
  8
T17SSILL
 62
3
 10
841.934
 20
-3347.646
 30
3534.491
 70
    32
  0
VERTEX
  8
T17SSILL
 62
3
 10
899.247
 20
-3427.540
 30
3534.279
 70
    32
  0
VERTEX
  8
T17SSILL
 62
3
 10
1011.924
 20
-3342.243
 30
3534.152
 70
    32
  0
VERTEX
  8
T17SSILL
 62
3
 10
1009.938
 20
-3337.748
 30
3534.162
 70
    32
  0
VERTEX
  8
T17SSILL
 62
3
 10
1018.953
 20
-3331.396
 30
3534.151
 70
    32
  0
VERTEX
  8
T17SSILL
 62
3
 10
1025.082
 20
-3332.609
 30
3534.137
 70
    32
  0
VERTEX
  8
T17SSILL
 62
3
 10
1061.025
 20
-3305.494
 30
3534.097
 70
    32
  0
VERTEX
  8
T17SSILL
 62
3
 10
744.520
 20
-3014.789
 30
3535.087
 70
    32
  0
VERTEX
  8
T17SSILL
 62
3
 10
743.277
 20
-3029.819
 30
3535.071
 70
    32
  0
VERTEX
  8
T17SSILL
 62
3
 10
739.928
 20
-3036.515
 30
3535.070
 70
    32
  0
VERTEX
  8
T17SSILL
 62
3
 10
695.126
 20
-3085.928
 30
3535.102
 70
    32
  0
VERTEX
  8
T17SSILL
 62
3
 10
690.460
 20
-3097.488
 30
3535.097
 70
    32
  0
VERTEX
  8
T17SSILL
 62
3
 10
687.120
 20
-3102.492
 30
3535.098
 70
    32
  0
VERTEX
  8
T17SSILL
 62
3
 10
686.945
 20
-3107.237
 30
3535.093
 70
    32
  0
VERTEX
  8
T17SSILL
 62
3
 10
688.175
 20
-3114.466
 30
3535.082
 70
    32
  0
VERTEX
  8
T17SSILL
 62
3
 10
691.304
 20
-3121.538
 30
3535.067
 70
    32
  0
VERTEX
  8
T17SSILL
 62
3
 10
733.430
 20
-3184.808
 30
3534.906
 70
    32
  0
VERTEX
  8
T17SSILL
 62
3
 10
736.471
 20
-3181.837
 30
3534.903
 70
    32
  0
VERTEX
  8
T17SSILL
 62
3
 10
743.051
 20
-3192.133
 30
3534.877
 70
    32
  0
SEQEND
  8
T17SSILL
  0
POLYLINE
  8
T17SSILL
 62
3
 66
     1
 70
     9
  0
VERTEX
  8
T17SSILL
 62
3
 10
660.421
 20
-3140.714
 30
3535.106
 70
    32
  0
VERTEX
  8
T17SSILL
 62
3
 10
662.687
 20
-3149.818
 30
3535.091
 70
    32
  0
VERTEX
  8
T17SSILL
 62
3
 10
672.824
 20
-3141.903
 30
3535.080
 70
    32
  0
VERTEX
  8
T17SSILL
 62
3
 10
676.439
 20
-3148.029
 30
3535.065
 70
    32
  0
VERTEX
  8
T17SSILL
 62
3
 10
665.114
 20
-3156.997
 30
3535.077
 70
    32
  0
VERTEX
  8
T17SSILL
 62
3
 10
670.770
 20
-3167.687
 30
3535.053
 70
    32
  0
VERTEX
  8
T17SSILL
 62
3
 10
678.055
 20
-3177.311
 30
3535.027
 70
    32
  0
VERTEX
  8
T17SSILL
 62
3
 10
679.200
 20
-3176.629
 30
3535.025
 70
    32
  0
VERTEX
  8
T17SSILL
 62
3
 10
682.208
 20
-3183.123
 30
3535.011
 70
    32
  0
VERTEX
  8
T17SSILL
 62
3
 10
688.736
 20
-3190.089
 30
3534.990
 70
    32
  0
VERTEX
  8
T17SSILL
 62
3
 10
684.302
 20
-3193.712
 30
3534.994
 70
    32
  0
VERTEX
  8
T17SSILL
 62
3
 10
705.302
 20
-3247.756
 30
3534.887
 70
    32
  0
VERTEX
  8
T17SSILL
 62
3
 10
707.809
 20
-3249.929
 30
3534.879
 70
    32
  0
VERTEX
  8
T17SSILL
 62
3
 10
717.987
 20
-3250.295
 30
3534.858
 70
    32
  0
VERTEX
  8
T17SSILL
 62
3
 10
722.471
 20
-3253.262
 30
3534.846
 70
    32
  0
VERTEX
  8
T17SSILL
 62
3
 10
731.886
 20
-3254.794
 30
3534.825
 70
    32
  0
VERTEX
  8
T17SSILL
 62
3
 10
744.601
 20
-3245.736
 30
3534.810
 70
    32
  0
VERTEX
  8
T17SSILL
 62
3
 10
739.570
 20
-3239.383
 30
3534.828
 70
    32
  0
VERTEX
  8
T17SSILL
 62
3
 10
717.556
 20
-3195.693
 30
3534.925
 70
    32
  0
VERTEX
  8
T17SSILL
 62
3
 10
728.348
 20
-3188.607
 30
3534.911
 70
    32
  0
VERTEX
  8
T17SSILL
 62
3
 10
681.758
 20
-3118.423
 30
3535.090
 70
    32
  0
VERTEX
  8
T17SSILL
 62
3
 10
678.919
 20
-3102.919
 30
3535.114
 70
    32
  0
VERTEX
  8
T17SSILL
 62
3
 10
665.626
 20
-3117.491
 30
3535.124
 70
    32
  0
VERTEX
  8
T17SSILL
 62
3
 10
661.150
 20
-3126.878
 30
3535.121
 70
    32
  0
VERTEX
  8
T17SSILL
 62
3
 10
659.854
 20
-3135.882
 30
3535.113
 70
    32
  0
SEQEND
  8
T17SSILL
  0
POLYLINE
  8
T17SSILL
 62
3
 66
     1
 70
     9
  0
VERTEX
  8
T17SSILL
 62
3
 10
698.379
 20
-3251.216
 30
3534.897
 70
    32
  0
VERTEX
  8
T17SSILL
 62
3
 10
691.268
 20
-3228.758
 30
3534.938
 70
    32
  0
VERTEX
  8
T17SSILL
 62
3
 10
678.000
 20
-3196.680
 30
3535.004
 70
    32
  0
VERTEX
  8
T17SSILL
 62
3
 10
667.869
 20
-3203.467
 30
3535.016
 70
    32
  0
VERTEX
  8
T17SSILL
 62
3
 10
682.960
 20
-3261.966
 30
3534.915
 70
    32
  0
VERTEX
  8
T17SSILL
 62
3
 10
698.446
 20
-3257.118
 30
3534.890
 70
    32
  0
SEQEND
  8
T17SSILL
  0
POLYLINE
  8
T17SSILL
 62
3
 66
     1
 70
     9
  0
VERTEX
  8
T17SSILL
 62
3
 10
746.899
 20
-3412.231
 30
3534.606
 70
    32
  0
VERTEX
  8
T17SSILL
 62
3
 10
756.363
 20
-3429.006
 30
3534.566
 70
    32
  0
VERTEX
  8
T17SSILL
 62
3
 10
760.843
 20
-3424.447
 30
3534.563
 70
    32
  0
VERTEX
  8
T17SSILL
 62
3
 10
764.287
 20
-3418.012
 30
3534.564
 70
    32
  0
VERTEX
  8
T17SSILL
 62
3
 10
756.295
 20
-3398.273
 30
3534.603
 70
    32
  0
VERTEX
  8
T17SSILL
 62
3
 10
751.027
 20
-3381.546
 30
3534.634
 70
    32
  0
VERTEX
  8
T17SSILL
 62
3
 10
742.012
 20
-3368.460
 30
3534.668
 70
    32
  0
VERTEX
  8
T17SSILL
 62
3
 10
739.269
 20
-3361.307
 30
3534.682
 70
    32
  0
VERTEX
  8
T17SSILL
 62
3
 10
731.500
 20
-3363.415
 30
3534.695
 70
    32
  0
VERTEX
  8
T17SSILL
 62
3
 10
723.083
 20
-3368.394
 30
3534.706
 70
    32
  0
VERTEX
  8
T17SSILL
 62
3
 10
732.081
 20
-3384.864
 30
3534.669
 70
    32
  0
VERTEX
  8
T17SSILL
 62
3
 10
738.555
 20
-3380.412
 30
3534.661
 70
    32
  0
VERTEX
  8
T17SSILL
 62
3
 10
741.022
 20
-3387.784
 30
3534.647
 70
    32
  0
VERTEX
  8
T17SSILL
 62
3
 10
735.380
 20
-3391.016
 30
3534.654
 70
    32
  0
VERTEX
  8
T17SSILL
 62
3
 10
743.327
 20
-3405.734
 30
3534.621
 70
    32
  0
VERTEX
  8
T17SSILL
 62
3
 10
749.726
 20
-3402.464
 30
3534.612
 70
    32
  0
VERTEX
  8
T17SSILL
 62
3
 10
753.077
 20
-3409.249
 30
3534.597
 70
    32
  0
SEQEND
  8
T17SSILL
  0
POLYLINE
  8
T17SSILL
 62
3
 66
     1
 70
     9
  0
VERTEX
  8
T17SSILL
 62
3
 10
791.763
 20
-3461.647
 30
3534.456
 70
    32
  0
VERTEX
  8
T17SSILL
 62
3
 10
787.803
 20
-3461.187
 30
3534.464
 70
    32
  0
VERTEX
  8
T17SSILL
 62
3
 10
783.901
 20
-3462.929
 30
3534.470
 70
    32
  0
VERTEX
  8
T17SSILL
 62
3
 10
778.035
 20
-3469.709
 30
3534.474
 70
    32
  0
VERTEX
  8
T17SSILL
 62
3
 10
779.932
 20
-3472.814
 30
3534.466
 70
    32
  0
VERTEX
  8
T17SSILL
 62
3
 10
797.961
 20
-3462.806
 30
3534.442
 70
    32
  0
SEQEND
  8
T17SSILL
  0
POLYLINE
  8
T17SSILL
 62
3
 66
     1
 70
     9
  0
VERTEX
  8
T17SSILL
 62
3
 10
818.430
 20
-3482.552
 30
3534.376
 70
    32
  0
VERTEX
  8
T17SSILL
 62
3
 10
816.955
 20
-3477.427
 30
3534.386
 70
    32
  0
VERTEX
  8
T17SSILL
 62
3
 10
813.919
 20
-3473.876
 30
3534.396
 70
    32
  0
VERTEX
  8
T17SSILL
 62
3
 10
803.826
 20
-3467.374
 30
3534.424
 70
    32
  0
VERTEX
  8
T17SSILL
 62
3
 10
783.400
 20
-3478.045
 30
3534.453
 70
    32
  0
VERTEX
  8
T17SSILL
 62
3
 10
797.812
 20
-3504.047
 30
3534.392
 70
    32
  0
VERTEX
  8
T17SSILL
 62
3
 10
819.766
 20
-3487.786
 30
3534.367
 70
    32
  0
SEQEND
  8
T17SSILL
  0
POLYLINE
  8
T17SSILL
 62
3
 66
     1
 70
     9
  0
VERTEX
  8
T17SSILL
 62
3
 10
841.615
 20
-3523.275
 30
3534.363
 70
    32
  0
VERTEX
  8
T17SSILL
 62
3
 10
844.863
 20
-3520.046
 30
3534.358
 70
    32
  0
VERTEX
  8
T17SSILL
 62
3
 10
843.775
 20
-3517.536
 30
3534.355
 70
    32
  0
VERTEX
  8
T17SSILL
 62
3
 10
834.087
 20
-3507.006
 30
3534.343
 70
    32
  0
VERTEX
  8
T17SSILL
 62
3
 10
824.078
 20
-3503.022
 30
3534.340
 70
    32
  0
VERTEX
  8
T17SSILL
 62
3
 10
810.016
 20
-3506.405
 30
3534.365
 70
    32
  0
VERTEX
  8
T17SSILL
 62
3
 10
803.194
 20
-3511.695
 30
3534.372
 70
    32
  0
VERTEX
  8
T17SSILL
 62
3
 10
820.400
 20
-3534.699
 30
3534.380
 70
    32
  0
VERTEX
  8
T17SSILL
 62
3
 10
827.947
 20
-3532.485
 30
3534.376
 70
    32
  0
SEQEND
  8
T17SSILL
  0
POLYLINE
  8
T17SSILL
 62
3
 66
     1
 70
     9
  0
VERTEX
  8
T17SSILL
 62
3
 10
841.520
 20
-3389.547
 30
3534.441
 70
    32
  0
VERTEX
  8
T17SSILL
 62
3
 10
840.566
 20
-3396.145
 30
3534.435
 70
    32
  0
VERTEX
  8
T17SSILL
 62
3
 10
838.842
 20
-3399.645
 30
3534.434
 70
    32
  0
VERTEX
  8
T17SSILL
 62
3
 10
830.081
 20
-3407.594
 30
3534.443
 70
    32
  0
VERTEX
  8
T17SSILL
 62
3
 10
828.032
 20
-3407.419
 30
3534.447
 70
    32
  0
VERTEX
  8
T17SSILL
 62
3
 10
826.180
 20
-3412.032
 30
3534.445
 70
    32
  0
VERTEX
  8
T17SSILL
 62
3
 10
819.312
 20
-3401.515
 30
3534.472
 70
    32
  0
VERTEX
  8
T17SSILL
 62
3
 10
822.894
 20
-3397.667
 30
3534.469
 70
    32
  0
VERTEX
  8
T17SSILL
 62
3
 10
824.873
 20
-3387.112
 30
3534.478
 70
    32
  0
VERTEX
  8
T17SSILL
 62
3
 10
820.214
 20
-3369.453
 30
3534.508
 70
    32
  0
VERTEX
  8
T17SSILL
 62
3
 10
804.092
 20
-3341.433
 30
3534.575
 70
    32
  0
VERTEX
  8
T17SSILL
 62
3
 10
761.521
 20
-3282.000
 30
3534.732
 70
    32
  0
VERTEX
  8
T17SSILL
 62
3
 10
770.849
 20
-3273.490
 30
3534.723
 70
    32
  0
VERTEX
  8
T17SSILL
 62
3
 10
776.476
 20
-3262.292
 30
3534.725
 70
    32
  0
VERTEX
  8
T17SSILL
 62
3
 10
768.633
 20
-3251.537
 30
3534.754
 70
    32
  0
VERTEX
  8
T17SSILL
 62
3
 10
749.580
 20
-3254.152
 30
3534.790
 70
    32
  0
VERTEX
  8
T17SSILL
 62
3
 10
747.485
 20
-3252.216
 30
3534.796
 70
    32
  0
VERTEX
  8
T17SSILL
 62
3
 10
734.811
 20
-3261.467
 30
3534.811
 70
    32
  0
VERTEX
  8
T17SSILL
 62
3
 10
735.718
 20
-3267.153
 30
3534.802
 70
    32
  0
VERTEX
  8
T17SSILL
 62
3
 10
733.236
 20
-3276.646
 30
3534.796
 70
    32
  0
VERTEX
  8
T17SSILL
 62
3
 10
728.368
 20
-3279.153
 30
3534.803
 70
    32
  0
VERTEX
  8
T17SSILL
 62
3
 10
726.040
 20
-3282.457
 30
3534.803
 70
    32
  0
VERTEX
  8
T17SSILL
 62
3
 10
723.697
 20
-3294.538
 30
3534.794
 70
    32
  0
VERTEX
  8
T17SSILL
 62
3
 10
735.105
 20
-3321.571
 30
3534.738
 70
    32
  0
VERTEX
  8
T17SSILL
 62
3
 10
739.565
 20
-3337.702
 30
3534.710
 70
    32
  0
VERTEX
  8
T17SSILL
 62
3
 10
745.200
 20
-3346.947
 30
3534.687
 70
    32
  0
VERTEX
  8
T17SSILL
 62
3
 10
753.776
 20
-3351.392
 30
3534.665
 70
    32
  0
VERTEX
  8
T17SSILL
 62
3
 10
762.088
 20
-3359.192
 30
3534.638
 70
    32
  0
VERTEX
  8
T17SSILL
 62
3
 10
763.907
 20
-3364.043
 30
3534.629
 70
    32
  0
VERTEX
  8
T17SSILL
 62
3
 10
763.540
 20
-3368.828
 30
3534.624
 70
    32
  0
VERTEX
  8
T17SSILL
 62
3
 10
760.772
 20
-3372.144
 30
3534.626
 70
    32
  0
VERTEX
  8
T17SSILL
 62
3
 10
758.951
 20
-3378.642
 30
3534.622
 70
    32
  0
VERTEX
  8
T17SSILL
 62
3
 10
761.085
 20
-3386.727
 30
3534.608
 70
    32
  0
VERTEX
  8
T17SSILL
 62
3
 10
771.278
 20
-3409.105
 30
3534.560
 70
    32
  0
VERTEX
  8
T17SSILL
 62
3
 10
775.005
 20
-3414.805
 30
3534.546
 70
    32
  0
VERTEX
  8
T17SSILL
 62
3
 10
786.771
 20
-3408.521
 30
3534.529
 70
    32
  0
VERTEX
  8
T17SSILL
 62
3
 10
792.817
 20
-3412.610
 30
3534.512
 70
    32
  0
VERTEX
  8
T17SSILL
 62
3
 10
809.088
 20
-3438.264
 30
3534.448
 70
    32
  0
VERTEX
  8
T17SSILL
 62
3
 10
809.978
 20
-3444.638
 30
3534.439
 70
    32
  0
VERTEX
  8
T17SSILL
 62
3
 10
808.615
 20
-3453.132
 30
3534.432
 70
    32
  0
VERTEX
  8
T17SSILL
 62
3
 10
811.060
 20
-3462.320
 30
3534.416
 70
    32
  0
VERTEX
  8
T17SSILL
 62
3
 10
829.404
 20
-3480.377
 30
3534.357
 70
    32
  0
VERTEX
  8
T17SSILL
 62
3
 10
893.832
 20
-3432.053
 30
3534.284
 70
    32
  0
VERTEX
  8
T17SSILL
 62
3
 10
850.752
 20
-3375.382
 30
3534.439
 70
    32
  0
VERTEX
  8
T17SSILL
 62
3
 10
840.997
 20
-3375.691
 30
3534.459
 70
    32
  0
VERTEX
  8
T17SSILL
 62
3
 10
840.872
 20
-3387.026
 30
3534.445
 70
    32
  0
SEQEND
  8
T17SSILL
  0
POLYLINE
  8
T17SSILL
 62
3
 66
     1
 70
     9
  0
VERTEX
  8
T17SSILL
 62
3
 10
797.374
 20
-2667.015
 30
3535.396
 70
    32
  0
VERTEX
  8
T17SSILL
 62
3
 10
789.707
 20
-2667.939
 30
3535.411
 70
    32
  0
VERTEX
  8
T17SSILL
 62
3
 10
786.703
 20
-2669.771
 30
3535.415
 70
    32
  0
VERTEX
  8
T17SSILL
 62
3
 10
785.897
 20
-2671.968
 30
3535.414
 70
    32
  0
VERTEX
  8
T17SSILL
 62
3
 10
787.770
 20
-2683.162
 30
3535.397
 70
    32
  0
VERTEX
  8
T17SSILL
 62
3
 10
773.904
 20
-2690.039
 30
3535.416
 70
    32
  0
VERTEX
  8
T17SSILL
 62
3
 10
766.737
 20
-2695.897
 30
3535.424
 70
    32
  0
VERTEX
  8
T17SSILL
 62
3
 10
764.250
 20
-2699.669
 30
3535.424
 70
    32
  0
VERTEX
  8
T17SSILL
 62
3
 10
763.613
 20
-2703.188
 30
3535.422
 70
    32
  0
VERTEX
  8
T17SSILL
 62
3
 10
767.362
 20
-2709.726
 30
3535.406
 70
    32
  0
VERTEX
  8
T17SSILL
 62
3
 10
773.147
 20
-2714.338
 30
3535.389
 70
    32
  0
VERTEX
  8
T17SSILL
 62
3
 10
778.782
 20
-2714.371
 30
3535.377
 70
    32
  0
VERTEX
  8
T17SSILL
 62
3
 10
810.969
 20
-2691.487
 30
3535.340
 70
    32
  0
VERTEX
  8
T17SSILL
 62
3
 10
813.213
 20
-2684.103
 30
3535.344
 70
    32
  0
SEQEND
  8
T17SSILL
  0
POLYLINE
  8
T17SSILL
 62
3
 66
     1
 70
     9
  0
VERTEX
  8
T17SSILL
 62
3
 10
1475.425
 20
-2340.227
 30
3533.952
 70
    32
  0
VERTEX
  8
T17SSILL
 62
3
 10
1450.123
 20
-2357.724
 30
3534.066
 70
    32
  0
VERTEX
  8
T17SSILL
 62
3
 10
1440.801
 20
-2344.992
 30
3534.071
 70
    32
  0
VERTEX
  8
T17SSILL
 62
3
 10
1449.224
 20
-2336.078
 30
3534.026
 70
    32
  0
VERTEX
  8
T17SSILL
 62
3
 10
1448.877
 20
-2329.656
 30
3534.018
 70
    32
  0
VERTEX
  8
T17SSILL
 62
3
 10
1440.958
 20
-2302.997
 30
3534.004
 70
    32
  0
VERTEX
  8
T17SSILL
 62
3
 10
1432.150
 20
-2289.114
 30
3534.011
 70
    32
  0
VERTEX
  8
T17SSILL
 62
3
 10
1429.381
 20
-2286.068
 30
3534.015
 70
    32
  0
VERTEX
  8
T17SSILL
 62
3
 10
1399.675
 20
-2289.889
 30
3534.112
 70
    32
  0
VERTEX
  8
T17SSILL
 62
3
 10
1398.337
 20
-2288.586
 30
3534.114
 70
    32
  0
VERTEX
  8
T17SSILL
 62
3
 10
1397.240
 20
-2278.740
 30
3534.103
 70
    32
  0
VERTEX
  8
T17SSILL
 62
3
 10
1426.547
 20
-2257.758
 30
3533.983
 70
    32
  0
VERTEX
  8
T17SSILL
 62
3
 10
1430.517
 20
-2258.410
 30
3533.972
 70
    32
  0
VERTEX
  8
T17SSILL
 62
3
 10
1443.864
 20
-2248.993
 30
3533.918
 70
    32
  0
VERTEX
  8
T17SSILL
 62
3
 10
1447.360
 20
-2247.010
 30
3533.904
 70
    32
  0
VERTEX
  8
T17SSILL
 62
3
 10
1449.740
 20
-2247.243
 30
3533.897
 70
    32
  0
VERTEX
  8
T17SSILL
 62
3
 10
1457.519
 20
-2236.226
 30
3533.858
 70
    32
  0
VERTEX
  8
T17SSILL
 62
3
 10
1473.660
 20
-2225.011
 30
3533.792
 70
    32
  0
VERTEX
  8
T17SSILL
 62
3
 10
1478.779
 20
-2320.639
 30
3533.914
 70
    32
  0
VERTEX
  8
T17SSILL
 62
3
 10
1472.901
 20
-2328.903
 30
3533.944
 70
    32
  0
VERTEX
  8
T17SSILL
 62
3
 10
1476.961
 20
-2336.509
 30
3533.942
 70
    32
  0
SEQEND
  8
T17SSILL
  0
POLYLINE
  8
T17SSILL
 62
3
 66
     1
 70
     9
  0
VERTEX
  8
T17SSILL
 62
3
 10
1487.186
 20
-2330.742
 30
3533.902
 70
    32
  0
VERTEX
  8
T17SSILL
 62
3
 10
1503.496
 20
-2318.997
 30
3533.836
 70
    32
  0
VERTEX
  8
T17SSILL
 62
3
 10
1508.500
 20
-2324.654
 30
3533.828
 70
    32
  0
VERTEX
  8
T17SSILL
 62
3
 10
1491.579
 20
-2336.759
 30
3533.898
 70
    32
  0
VERTEX
  8
T17SSILL
 62
3
 10
1490.032
 20
-2339.684
 30
3533.907
 70
    32
  0
VERTEX
  8
T17SSILL
 62
3
 10
1510.413
 20
-2376.922
 30
3533.898
 70
    32
  0
VERTEX
  8
T17SSILL
 62
3
 10
1562.568
 20
-2339.268
 30
3533.684
 70
    32
  0
VERTEX
  8
T17SSILL
 62
3
 10
1515.081
 20
-2194.627
 30
3533.744
 70
    32
  0
VERTEX
  8
T17SSILL
 62
3
 10
1481.762
 20
-2218.479
 30
3533.774
 70
    32
  0
VERTEX
  8
T17SSILL
 62
3
 10
1486.125
 20
-2316.846
 30
3533.886
 70
    32
  0
SEQEND
  8
T17SSILL
  0
POLYLINE
  8
T17SSILL
 62
3
 66
     1
 70
     9
  0
VERTEX
  8
T17SSILL
 62
3
 10
1339.223
 20
-2373.166
 30
3534.529
 70
    32
  0
VERTEX
  8
T17SSILL
 62
3
 10
1341.640
 20
-2369.525
 30
3534.510
 70
    32
  0
VERTEX
  8
T17SSILL
 62
3
 10
1337.034
 20
-2367.384
 30
3534.523
 70
    32
  0
VERTEX
  8
T17SSILL
 62
3
 10
1335.509
 20
-2358.425
 30
3534.507
 70
    32
  0
VERTEX
  8
T17SSILL
 62
3
 10
1330.022
 20
-2356.207
 30
3534.522
 70
    32
  0
VERTEX
  8
T17SSILL
 62
3
 10
1318.437
 20
-2338.663
 30
3534.523
 70
    32
  0
VERTEX
  8
T17SSILL
 62
3
 10
1315.072
 20
-2337.210
 30
3534.532
 70
    32
  0
VERTEX
  8
T17SSILL
 62
3
 10
1282.730
 20
-2361.665
 30
3534.716
 70
    32
  0
VERTEX
  8
T17SSILL
 62
3
 10
1297.431
 20
-2395.368
 30
3534.709
 70
    32
  0
VERTEX
  8
T17SSILL
 62
3
 10
1327.101
 20
-2382.040
 30
3534.597
 70
    32
  0
VERTEX
  8
T17SSILL
 62
3
 10
1336.182
 20
-2376.287
 30
3534.548
 70
    32
  0
SEQEND
  8
T17SSILL
  0
POLYLINE
  8
T17SSILL
 62
3
 66
     1
 70
     9
  0
VERTEX
  8
T17SSILL
 62
3
 10
1377.761
 20
-2283.660
 30
3534.170
 70
    32
  0
VERTEX
  8
T17SSILL
 62
3
 10
1370.966
 20
-2268.958
 30
3534.169
 70
    32
  0
VERTEX
  8
T17SSILL
 62
3
 10
1372.568
 20
-2263.479
 30
3534.157
 70
    32
  0
VERTEX
  8
T17SSILL
 62
3
 10
1308.654
 20
-2182.439
 30
3534.236
 70
    32
  0
VERTEX
  8
T17SSILL
 62
3
 10
1299.182
 20
-2333.808
 30
3534.585
 70
    32
  0
VERTEX
  8
T17SSILL
 62
3
 10
1302.402
 20
-2337.727
 30
3534.582
 70
    32
  0
VERTEX
  8
T17SSILL
 62
3
 10
1371.726
 20
-2287.989
 30
3534.194
 70
    32
  0
SEQEND
  8
T17SSILL
  0
POLYLINE
  8
T17SSILL
 62
3
 66
     1
 70
     9
  0
VERTEX
  8
T17SSILL
 62
3
 10
1355.855
 20
-2308.828
 30
3534.306
 70
    32
  0
VERTEX
  8
T17SSILL
 62
3
 10
1345.378
 20
-2315.831
 30
3534.364
 70
    32
  0
VERTEX
  8
T17SSILL
 62
3
 10
1345.496
 20
-2324.987
 30
3534.386
 70
    32
  0
VERTEX
  8
T17SSILL
 62
3
 10
1346.863
 20
-2328.580
 30
3534.390
 70
    32
  0
VERTEX
  8
T17SSILL
 62
3
 10
1352.038
 20
-2333.885
 30
3534.383
 70
    32
  0
VERTEX
  8
T17SSILL
 62
3
 10
1365.897
 20
-2322.788
 30
3534.302
 70
    32
  0
VERTEX
  8
T17SSILL
 62
3
 10
1361.458
 20
-2313.158
 30
3534.296
 70
    32
  0
SEQEND
  8
T17SSILL
  0
POLYLINE
  8
T17SSILL
 62
3
 66
     1
 70
     9
  0
VERTEX
  8
T17SSILL
 62
3
 10
1379.758
 20
-2304.998
 30
3534.206
 70
    32
  0
VERTEX
  8
T17SSILL
 62
3
 10
1376.465
 20
-2300.449
 30
3534.207
 70
    32
  0
VERTEX
  8
T17SSILL
 62
3
 10
1371.815
 20
-2303.603
 30
3534.232
 70
    32
  0
VERTEX
  8
T17SSILL
 62
3
 10
1368.963
 20
-2299.744
 30
3534.234
 70
    32
  0
VERTEX
  8
T17SSILL
 62
3
 10
1366.143
 20
-2307.639
 30
3534.264
 70
    32
  0
VERTEX
  8
T17SSILL
 62
3
 10
1371.829
 20
-2318.397
 30
3534.269
 70
    32
  0
VERTEX
  8
T17SSILL
 62
3
 10
1386.763
 20
-2308.782
 30
3534.188
 70
    32
  0
VERTEX
  8
T17SSILL
 62
3
 10
1389.091
 20
-2304.878
 30
3534.170
 70
    32
  0
VERTEX
  8
T17SSILL
 62
3
 10
1382.387
 20
-2290.346
 30
3534.165
 70
    32
  0
VERTEX
  8
T17SSILL
 62
3
 10
1378.580
 20
-2292.714
 30
3534.180
 70
    32
  0
VERTEX
  8
T17SSILL
 62
3
 10
1385.442
 20
-2301.931
 30
3534.176
 70
    32
  0
SEQEND
  8
T17SSILL
  0
POLYLINE
  8
T17SSILL
 62
3
 66
     1
 70
     9
  0
VERTEX
  8
T17SSILL
 62
3
 10
1518.756
 20
-2436.150
 30
3533.997
 70
    32
  0
VERTEX
  8
T17SSILL
 62
3
 10
1510.681
 20
-2438.016
 30
3534.033
 70
    32
  0
VERTEX
  8
T17SSILL
 62
3
 10
1498.900
 20
-2446.444
 30
3534.099
 70
    32
  0
VERTEX
  8
T17SSILL
 62
3
 10
1496.529
 20
-2446.475
 30
3534.108
 70
    32
  0
VERTEX
  8
T17SSILL
 62
3
 10
1493.512
 20
-2444.578
 30
3534.115
 70
    32
  0
VERTEX
  8
T17SSILL
 62
3
 10
1492.151
 20
-2441.514
 30
3534.112
 70
    32
  0
VERTEX
  8
T17SSILL
 62
3
 10
1496.109
 20
-2414.172
 30
3534.030
 70
    32
  0
VERTEX
  8
T17SSILL
 62
3
 10
1491.095
 20
-2401.032
 30
3534.017
 70
    32
  0
VERTEX
  8
T17SSILL
 62
3
 10
1488.209
 20
-2395.699
 30
3534.014
 70
    32
  0
VERTEX
  8
T17SSILL
 62
3
 10
1473.487
 20
-2380.661
 30
3534.034
 70
    32
  0
VERTEX
  8
T17SSILL
 62
3
 10
1468.105
 20
-2372.984
 30
3534.035
 70
    32
  0
VERTEX
  8
T17SSILL
 62
3
 10
1462.354
 20
-2377.548
 30
3534.069
 70
    32
  0
VERTEX
  8
T17SSILL
 62
3
 10
1456.776
 20
-2368.377
 30
3534.067
 70
    32
  0
VERTEX
  8
T17SSILL
 62
3
 10
1456.512
 20
-2361.602
 30
3534.052
 70
    32
  0
VERTEX
  8
T17SSILL
 62
3
 10
1471.166
 20
-2351.199
 30
3533.981
 70
    32
  0
VERTEX
  8
T17SSILL
 62
3
 10
1487.567
 20
-2353.186
 30
3533.933
 70
    32
  0
VERTEX
  8
T17SSILL
 62
3
 10
1534.064
 20
-2432.813
 30
3533.931
 70
    32
  0
VERTEX
  8
T17SSILL
 62
3
 10
1529.046
 20
-2436.230
 30
3533.958
 70
    32
  0
VERTEX
  8
T17SSILL
 62
3
 10
1523.415
 20
-2435.649
 30
3533.978
 70
    32
  0
SEQEND
  8
T17SSILL
  0
POLYLINE
  8
T17SSILL
 62
3
 66
     1
 70
     9
  0
VERTEX
  8
T17SSILL
 62
3
 10
1499.973
 20
-2477.369
 30
3534.171
 70
    32
  0
VERTEX
  8
T17SSILL
 62
3
 10
1501.750
 20
-2485.448
 30
3534.184
 70
    32
  0
VERTEX
  8
T17SSILL
 62
3
 10
1506.689
 20
-2492.869
 30
3534.168
 70
    32
  0
VERTEX
  8
T17SSILL
 62
3
 10
1510.891
 20
-2502.764
 30
3534.147
 70
    32
  0
VERTEX
  8
T17SSILL
 62
3
 10
1517.691
 20
-2510.469
 30
3534.124
 70
    32
  0
VERTEX
  8
T17SSILL
 62
3
 10
1523.714
 20
-2524.334
 30
3534.096
 70
    32
  0
VERTEX
  8
T17SSILL
 62
3
 10
1529.043
 20
-2533.380
 30
3534.074
 70
    32
  0
VERTEX
  8
T17SSILL
 62
3
 10
1532.826
 20
-2539.202
 30
3534.059
 70
    32
  0
VERTEX
  8
T17SSILL
 62
3
 10
1536.384
 20
-2541.954
 30
3534.049
 70
    32
  0
VERTEX
  8
T17SSILL
 62
3
 10
1540.450
 20
-2543.556
 30
3534.039
 70
    32
  0
VERTEX
  8
T17SSILL
 62
3
 10
1578.719
 20
-2515.444
 30
3533.964
 70
    32
  0
VERTEX
  8
T17SSILL
 62
3
 10
1542.324
 20
-2447.727
 30
3533.936
 70
    32
  0
VERTEX
  8
T17SSILL
 62
3
 10
1530.814
 20
-2442.683
 30
3533.967
 70
    32
  0
VERTEX
  8
T17SSILL
 62
3
 10
1516.064
 20
-2445.781
 30
3534.031
 70
    32
  0
VERTEX
  8
T17SSILL
 62
3
 10
1499.858
 20
-2454.624
 30
3534.115
 70
    32
  0
VERTEX
  8
T17SSILL
 62
3
 10
1501.774
 20
-2459.910
 30
3534.121
 70
    32
  0
VERTEX
  8
T17SSILL
 62
3
 10
1500.243
 20
-2464.069
 30
3534.137
 70
    32
  0
SEQEND
  8
T17SSILL
  0
POLYLINE
  8
T17SSILL
 62
3
 66
     1
 70
     9
  0
VERTEX
  8
T17SSILL
 62
3
 10
1419.870
 20
-2936.707
 30
3533.812
 70
    32
  0
VERTEX
  8
T17SSILL
 62
3
 10
1432.319
 20
-2938.709
 30
3533.784
 70
    32
  0
VERTEX
  8
T17SSILL
 62
3
 10
1445.427
 20
-2936.297
 30
3533.760
 70
    32
  0
VERTEX
  8
T17SSILL
 62
3
 10
1450.491
 20
-2938.167
 30
3533.748
 70
    32
  0
VERTEX
  8
T17SSILL
 62
3
 10
1456.173
 20
-2943.094
 30
3533.731
 70
    32
  0
VERTEX
  8
T17SSILL
 62
3
 10
1471.907
 20
-2946.228
 30
3533.695
 70
    32
  0
VERTEX
  8
T17SSILL
 62
3
 10
1473.350
 20
-2953.390
 30
3533.683
 70
    32
  0
VERTEX
  8
T17SSILL
 62
3
 10
1478.938
 20
-2961.044
 30
3533.663
 70
    32
  0
VERTEX
  8
T17SSILL
 62
3
 10
1486.092
 20
-2979.985
 30
3533.626
 70
    32
  0
VERTEX
  8
T17SSILL
 62
3
 10
1489.987
 20
-2983.911
 30
3533.613
 70
    32
  0
VERTEX
  8
T17SSILL
 62
3
 10
1502.542
 20
-2971.763
 30
3533.602
 70
    32
  0
VERTEX
  8
T17SSILL
 62
3
 10
1504.173
 20
-2964.598
 30
3533.608
 70
    32
  0
VERTEX
  8
T17SSILL
 62
3
 10
1503.937
 20
-2959.596
 30
3533.614
 70
    32
  0
VERTEX
  8
T17SSILL
 62
3
 10
1500.990
 20
-2952.128
 30
3533.629
 70
    32
  0
VERTEX
  8
T17SSILL
 62
3
 10
1489.269
 20
-2947.996
 30
3533.658
 70
    32
  0
VERTEX
  8
T17SSILL
 62
3
 10
1488.836
 20
-2942.297
 30
3533.665
 70
    32
  0
VERTEX
  8
T17SSILL
 62
3
 10
1469.393
 20
-2914.935
 30
3533.738
 70
    32
  0
VERTEX
  8
T17SSILL
 62
3
 10
1459.419
 20
-2895.726
 30
3533.781
 70
    32
  0
VERTEX
  8
T17SSILL
 62
3
 10
1455.324
 20
-2882.141
 30
3533.805
 70
    32
  0
VERTEX
  8
T17SSILL
 62
3
 10
1454.353
 20
-2867.233
 30
3533.825
 70
    32
  0
VERTEX
  8
T17SSILL
 62
3
 10
1392.747
 20
-2911.067
 30
3533.897
 70
    32
  0
VERTEX
  8
T17SSILL
 62
3
 10
1390.561
 20
-2920.271
 30
3533.891
 70
    32
  0
VERTEX
  8
T17SSILL
 62
3
 10
1402.512
 20
-2932.128
 30
3533.852
 70
    32
  0
VERTEX
  8
T17SSILL
 62
3
 10
1410.561
 20
-2933.909
 30
3533.834
 70
    32
  0
SEQEND
  8
T17SSILL
  0
POLYLINE
  8
T17SSILL
 62
3
 66
     1
 70
     9
  0
VERTEX
  8
T17SSILL
 62
3
 10
1470.145
 20
-2963.766
 30
3533.677
 70
    32
  0
VERTEX
  8
T17SSILL
 62
3
 10
1464.409
 20
-2959.983
 30
3533.694
 70
    32
  0
VERTEX
  8
T17SSILL
 62
3
 10
1461.584
 20
-2974.301
 30
3533.682
 70
    32
  0
VERTEX
  8
T17SSILL
 62
3
 10
1465.894
 20
-2989.198
 30
3533.656
 70
    32
  0
VERTEX
  8
T17SSILL
 62
3
 10
1455.337
 20
-2997.596
 30
3533.667
 70
    32
  0
VERTEX
  8
T17SSILL
 62
3
 10
1454.340
 20
-3005.446
 30
3533.660
 70
    32
  0
VERTEX
  8
T17SSILL
 62
3
 10
1457.904
 20
-3007.097
 30
3533.650
 70
    32
  0
VERTEX
  8
T17SSILL
 62
3
 10
1481.616
 20
-2988.993
 30
3533.624
 70
    32
  0
VERTEX
  8
T17SSILL
 62
3
 10
1480.757
 20
-2983.747
 30
3533.632
 70
    32
  0
VERTEX
  8
T17SSILL
 62
3
 10
1473.813
 20
-2968.929
 30
3533.664
 70
    32
  0
SEQEND
  8
T17SSILL
  0
POLYLINE
  8
T17SSILL
 62
3
 66
     1
 70
     9
  0
VERTEX
  8
T17SSILL
 62
3
 10
1271.983
 20
-2753.519
 30
3534.331
 70
    32
  0
VERTEX
  8
T17SSILL
 62
3
 10
1265.390
 20
-2750.464
 30
3534.348
 70
    32
  0
VERTEX
  8
T17SSILL
 62
3
 10
1231.216
 20
-2774.239
 30
3534.389
 70
    32
  0
VERTEX
  8
T17SSILL
 62
3
 10
1228.767
 20
-2777.563
 30
3534.390
 70
    32
  0
VERTEX
  8
T17SSILL
 62
3
 10
1228.755
 20
-2780.112
 30
3534.387
 70
    32
  0
VERTEX
  8
T17SSILL
 62
3
 10
1244.694
 20
-2796.068
 30
3534.335
 70
    32
  0
VERTEX
  8
T17SSILL
 62
3
 10
1257.647
 20
-2806.138
 30
3534.297
 70
    32
  0
VERTEX
  8
T17SSILL
 62
3
 10
1274.760
 20
-2817.227
 30
3534.249
 70
    32
  0
VERTEX
  8
T17SSILL
 62
3
 10
1291.429
 20
-2822.266
 30
3534.209
 70
    32
  0
VERTEX
  8
T17SSILL
 62
3
 10
1310.019
 20
-2829.883
 30
3534.162
 70
    32
  0
VERTEX
  8
T17SSILL
 62
3
 10
1315.052
 20
-2830.700
 30
3534.151
 70
    32
  0
VERTEX
  8
T17SSILL
 62
3
 10
1318.490
 20
-2828.137
 30
3534.147
 70
    32
  0
VERTEX
  8
T17SSILL
 62
3
 10
1320.709
 20
-2822.975
 30
3534.149
 70
    32
  0
VERTEX
  8
T17SSILL
 62
3
 10
1325.161
 20
-2819.064
 30
3534.145
 70
    32
  0
VERTEX
  8
T17SSILL
 62
3
 10
1327.587
 20
-2814.950
 30
3534.145
 70
    32
  0
VERTEX
  8
T17SSILL
 62
3
 10
1335.793
 20
-2816.112
 30
3534.127
 70
    32
  0
VERTEX
  8
T17SSILL
 62
3
 10
1417.492
 20
-2756.565
 30
3534.033
 70
    32
  0
VERTEX
  8
T17SSILL
 62
3
 10
1421.259
 20
-2741.428
 30
3534.043
 70
    32
  0
VERTEX
  8
T17SSILL
 62
3
 10
1422.053
 20
-2717.944
 30
3534.070
 70
    32
  0
VERTEX
  8
T17SSILL
 62
3
 10
1423.704
 20
-2708.493
 30
3534.078
 70
    32
  0
VERTEX
  8
T17SSILL
 62
3
 10
1425.112
 20
-2702.652
 30
3534.082
 70
    32
  0
VERTEX
  8
T17SSILL
 62
3
 10
1431.264
 20
-2693.858
 30
3534.080
 70
    32
  0
VERTEX
  8
T17SSILL
 62
3
 10
1426.345
 20
-2685.043
 30
3534.100
 70
    32
  0
VERTEX
  8
T17SSILL
 62
3
 10
1404.046
 20
-2654.293
 30
3534.182
 70
    32
  0
VERTEX
  8
T17SSILL
 62
3
 10
1400.265
 20
-2653.133
 30
3534.191
 70
    32
  0
VERTEX
  8
T17SSILL
 62
3
 10
1382.882
 20
-2665.425
 30
3534.212
 70
    32
  0
VERTEX
  8
T17SSILL
 62
3
 10
1381.556
 20
-2668.101
 30
3534.211
 70
    32
  0
VERTEX
  8
T17SSILL
 62
3
 10
1406.470
 20
-2711.028
 30
3534.109
 70
    32
  0
VERTEX
  8
T17SSILL
 62
3
 10
1400.384
 20
-2716.130
 30
3534.116
 70
    32
  0
VERTEX
  8
T17SSILL
 62
3
 10
1379.101
 20
-2683.023
 30
3534.198
 70
    32
  0
VERTEX
  8
T17SSILL
 62
3
 10
1368.200
 20
-2676.934
 30
3534.228
 70
    32
  0
VERTEX
  8
T17SSILL
 62
3
 10
1367.066
 20
-2677.231
 30
3534.230
 70
    32
  0
VERTEX
  8
T17SSILL
 62
3
 10
1282.406
 20
-2737.656
 30
3534.329
 70
    32
  0
VERTEX
  8
T17SSILL
 62
3
 10
1279.878
 20
-2744.233
 30
3534.326
 70
    32
  0
VERTEX
  8
T17SSILL
 62
3
 10
1284.600
 20
-2775.900
 30
3534.279
 70
    32
  0
VERTEX
  8
T17SSILL
 62
3
 10
1279.188
 20
-2777.116
 30
3534.288
 70
    32
  0
VERTEX
  8
T17SSILL
 62
3
 10
1277.767
 20
-2773.644
 30
3534.295
 70
    32
  0
SEQEND
  8
T17SSILL
  0
POLYLINE
  8
T17SSILL
 62
3
 66
     1
 70
     9
  0
VERTEX
  8
T17SSILL
 62
3
 10
1383.438
 20
-2614.005
 30
3534.272
 70
    32
  0
VERTEX
  8
T17SSILL
 62
3
 10
1382.190
 20
-2607.527
 30
3534.283
 70
    32
  0
VERTEX
  8
T17SSILL
 62
3
 10
1380.233
 20
-2605.978
 30
3534.288
 70
    32
  0
VERTEX
  8
T17SSILL
 62
3
 10
1362.441
 20
-2618.915
 30
3534.309
 70
    32
  0
VERTEX
  8
T17SSILL
 62
3
 10
1359.989
 20
-2613.949
 30
3534.320
 70
    32
  0
VERTEX
  8
T17SSILL
 62
3
 10
1395.469
 20
-2587.112
 30
3534.280
 70
    32
  0
VERTEX
  8
T17SSILL
 62
3
 10
1388.370
 20
-2561.145
 30
3534.326
 70
    32
  0
VERTEX
  8
T17SSILL
 62
3
 10
1388.120
 20
-2556.583
 30
3534.332
 70
    32
  0
VERTEX
  8
T17SSILL
 62
3
 10
1395.586
 20
-2551.280
 30
3534.323
 70
    32
  0
VERTEX
  8
T17SSILL
 62
3
 10
1394.926
 20
-2548.480
 30
3534.328
 70
    32
  0
VERTEX
  8
T17SSILL
 62
3
 10
1391.464
 20
-2546.253
 30
3534.337
 70
    32
  0
VERTEX
  8
T17SSILL
 62
3
 10
1387.255
 20
-2535.872
 30
3534.358
 70
    32
  0
VERTEX
  8
T17SSILL
 62
3
 10
1249.258
 20
-2636.044
 30
3534.518
 70
    32
  0
VERTEX
  8
T17SSILL
 62
3
 10
1246.233
 20
-2638.992
 30
3534.520
 70
    32
  0
VERTEX
  8
T17SSILL
 62
3
 10
1245.323
 20
-2642.432
 30
3534.518
 70
    32
  0
VERTEX
  8
T17SSILL
 62
3
 10
1251.729
 20
-2652.865
 30
3534.493
 70
    32
  0
VERTEX
  8
T17SSILL
 62
3
 10
1274.073
 20
-2708.968
 30
3534.380
 70
    32
  0
VERTEX
  8
T17SSILL
 62
3
 10
1280.655
 20
-2708.685
 30
3534.367
 70
    32
  0
VERTEX
  8
T17SSILL
 62
3
 10
1287.246
 20
-2719.731
 30
3534.341
 70
    32
  0
VERTEX
  8
T17SSILL
 62
3
 10
1288.938
 20
-2721.196
 30
3534.335
 70
    32
  0
VERTEX
  8
T17SSILL
 62
3
 10
1293.774
 20
-2721.556
 30
3534.325
 70
    32
  0
VERTEX
  8
T17SSILL
 62
3
 10
1395.763
 20
-2648.142
 30
3534.206
 70
    32
  0
VERTEX
  8
T17SSILL
 62
3
 10
1396.376
 20
-2643.578
 30
3534.211
 70
    32
  0
VERTEX
  8
T17SSILL
 62
3
 10
1387.854
 20
-2631.673
 30
3534.242
 70
    32
  0
VERTEX
  8
T17SSILL
 62
3
 10
1391.753
 20
-2628.805
 30
3534.238
 70
    32
  0
VERTEX
  8
T17SSILL
 62
3
 10
1386.778
 20
-2619.571
 30
3534.259
 70
    32
  0
SEQEND
  8
T17SSILL
  0
POLYLINE
  8
T17SSILL
 62
3
 66
     1
 70
     9
  0
VERTEX
  8
T17SSILL
 62
3
 10
1393.544
 20
-2614.455
 30
3534.251
 70
    32
  0
VERTEX
  8
T17SSILL
 62
3
 10
1391.249
 20
-2608.345
 30
3534.263
 70
    32
  0
VERTEX
  8
T17SSILL
 62
3
 10
1390.684
 20
-2600.626
 30
3534.274
 70
    32
  0
VERTEX
  8
T17SSILL
 62
3
 10
1398.200
 20
-2593.039
 30
3534.268
 70
    32
  0
VERTEX
  8
T17SSILL
 62
3
 10
1409.294
 20
-2610.949
 30
3534.224
 70
    32
  0
VERTEX
  8
T17SSILL
 62
3
 10
1410.747
 20
-2614.833
 30
3534.216
 70
    32
  0
VERTEX
  8
T17SSILL
 62
3
 10
1398.068
 20
-2624.159
 30
3534.231
 70
    32
  0
SEQEND
  8
T17SSILL
  0
POLYLINE
  8
T17SSILL
 62
3
 66
     1
 70
     9
  0
VERTEX
  8
T17SSILL
 62
3
 10
1374.371
 20
-2510.527
 30
3534.415
 70
    32
  0
VERTEX
  8
T17SSILL
 62
3
 10
1371.942
 20
-2501.609
 30
3534.430
 70
    32
  0
VERTEX
  8
T17SSILL
 62
3
 10
1368.196
 20
-2495.511
 30
3534.445
 70
    32
  0
VERTEX
  8
T17SSILL
 62
3
 10
1367.771
 20
-2489.970
 30
3534.453
 70
    32
  0
VERTEX
  8
T17SSILL
 62
3
 10
1358.582
 20
-2500.949
 30
3534.458
 70
    32
  0
VERTEX
  8
T17SSILL
 62
3
 10
1348.707
 20
-2509.277
 30
3534.468
 70
    32
  0
VERTEX
  8
T17SSILL
 62
3
 10
1342.075
 20
-2511.845
 30
3534.479
 70
    32
  0
VERTEX
  8
T17SSILL
 62
3
 10
1334.078
 20
-2516.893
 30
3534.489
 70
    32
  0
VERTEX
  8
T17SSILL
 62
3
 10
1335.671
 20
-2533.816
 30
3534.465
 70
    32
  0
VERTEX
  8
T17SSILL
 62
3
 10
1341.682
 20
-2552.336
 30
3534.431
 70
    32
  0
VERTEX
  8
T17SSILL
 62
3
 10
1347.035
 20
-2557.430
 30
3534.414
 70
    32
  0
VERTEX
  8
T17SSILL
 62
3
 10
1383.821
 20
-2529.956
 30
3534.372
 70
    32
  0
VERTEX
  8
T17SSILL
 62
3
 10
1377.564
 20
-2517.851
 30
3534.399
 70
    32
  0
SEQEND
  8
T17SSILL
  0
POLYLINE
  8
T17SSILL
 62
3
 66
     1
 70
     9
  0
VERTEX
  8
T17SSILL
 62
3
 10
1470.634
 20
-2575.873
 30
3534.141
 70
    32
  0
VERTEX
  8
T17SSILL
 62
3
 10
1467.384
 20
-2575.838
 30
3534.148
 70
    32
  0
VERTEX
  8
T17SSILL
 62
3
 10
1452.091
 20
-2585.836
 30
3534.167
 70
    32
  0
VERTEX
  8
T17SSILL
 62
3
 10
1450.656
 20
-2589.372
 30
3534.166
 70
    32
  0
VERTEX
  8
T17SSILL
 62
3
 10
1450.529
 20
-2594.907
 30
3534.159
 70
    32
  0
VERTEX
  8
T17SSILL
 62
3
 10
1473.461
 20
-2578.517
 30
3534.132
 70
    32
  0
SEQEND
  8
T17SSILL
  0
POLYLINE
  8
T17SSILL
 62
3
 66
     1
 70
     9
  0
VERTEX
  8
T17SSILL
 62
3
 10
1519.918
 20
-2558.383
 30
3534.062
 70
    32
  0
VERTEX
  8
T17SSILL
 62
3
 10
1524.824
 20
-2554.701
 30
3534.057
 70
    32
  0
VERTEX
  8
T17SSILL
 62
3
 10
1524.655
 20
-2549.698
 30
3534.063
 70
    32
  0
VERTEX
  8
T17SSILL
 62
3
 10
1518.892
 20
-2541.010
 30
3534.085
 70
    32
  0
VERTEX
  8
T17SSILL
 62
3
 10
1517.122
 20
-2540.161
 30
3534.090
 70
    32
  0
VERTEX
  8
T17SSILL
 62
3
 10
1507.633
 20
-2545.234
 30
3534.103
 70
    32
  0
VERTEX
  8
T17SSILL
 62
3
 10
1504.354
 20
-2548.800
 30
3534.105
 70
    32
  0
VERTEX
  8
T17SSILL
 62
3
 10
1510.327
 20
-2558.266
 30
3534.082
 70
    32
  0
VERTEX
  8
T17SSILL
 62
3
 10
1511.953
 20
-2557.019
 30
3534.080
 70
    32
  0
VERTEX
  8
T17SSILL
 62
3
 10
1514.925
 20
-2561.537
 30
3534.069
 70
    32
  0
VERTEX
  8
T17SSILL
 62
3
 10
1519.699
 20
-2558.122
 30
3534.063
 70
    32
  0
SEQEND
  8
T17SSILL
  0
POLYLINE
  8
T17SSILL
 62
3
 66
     1
 70
     9
  0
VERTEX
  8
T17SSILL
 62
3
 10
1560.426
 20
-2640.718
 30
3533.882
 70
    32
  0
VERTEX
  8
T17SSILL
 62
3
 10
1562.481
 20
-2641.887
 30
3533.876
 70
    32
  0
VERTEX
  8
T17SSILL
 62
3
 10
1573.473
 20
-2642.175
 30
3533.853
 70
    32
  0
VERTEX
  8
T17SSILL
 62
3
 10
1578.693
 20
-2640.438
 30
3533.845
 70
    32
  0
VERTEX
  8
T17SSILL
 62
3
 10
1587.132
 20
-2634.651
 30
3533.835
 70
    32
  0
VERTEX
  8
T17SSILL
 62
3
 10
1577.751
 20
-2620.608
 30
3533.871
 70
    32
  0
VERTEX
  8
T17SSILL
 62
3
 10
1558.420
 20
-2635.330
 30
3533.892
 70
    32
  0
VERTEX
  8
T17SSILL
 62
3
 10
1559.400
 20
-2638.728
 30
3533.886
 70
    32
  0
SEQEND
  8
T17SSILL
  0
POLYLINE
  8
T17SSILL
 62
3
 66
     1
 70
     9
  0
VERTEX
  8
T17SSILL
 62
3
 10
1597.118
 20
-2651.312
 30
3533.795
 70
    32
  0
VERTEX
  8
T17SSILL
 62
3
 10
1591.465
 20
-2644.451
 30
3533.814
 70
    32
  0
VERTEX
  8
T17SSILL
 62
3
 10
1581.757
 20
-2651.857
 30
3533.825
 70
    32
  0
VERTEX
  8
T17SSILL
 62
3
 10
1581.562
 20
-2654.147
 30
3533.823
 70
    32
  0
VERTEX
  8
T17SSILL
 62
3
 10
1585.572
 20
-2656.049
 30
3533.812
 70
    32
  0
VERTEX
  8
T17SSILL
 62
3
 10
1592.134
 20
-2658.050
 30
3533.797
 70
    32
  0
VERTEX
  8
T17SSILL
 62
3
 10
1595.635
 20
-2657.594
 30
3533.790
 70
    32
  0
SEQEND
  8
T17SSILL
  0
POLYLINE
  8
T17SSILL
 62
3
 66
     1
 70
     9
  0
VERTEX
  8
T17SSILL
 62
3
 10
1527.674
 20
-2665.066
 30
3533.919
 70
    32
  0
VERTEX
  8
T17SSILL
 62
3
 10
1525.752
 20
-2662.487
 30
3533.926
 70
    32
  0
VERTEX
  8
T17SSILL
 62
3
 10
1522.098
 20
-2660.751
 30
3533.935
 70
    32
  0
VERTEX
  8
T17SSILL
 62
3
 10
1501.442
 20
-2675.249
 30
3533.960
 70
    32
  0
VERTEX
  8
T17SSILL
 62
3
 10
1511.362
 20
-2689.715
 30
3533.922
 70
    32
  0
VERTEX
  8
T17SSILL
 62
3
 10
1528.985
 20
-2676.625
 30
3533.902
 70
    32
  0
VERTEX
  8
T17SSILL
 62
3
 10
1529.010
 20
-2668.629
 30
3533.912
 70
    32
  0
SEQEND
  8
T17SSILL
  0
POLYLINE
  8
T17SSILL
 62
3
 66
     1
 70
     9
  0
VERTEX
  8
T17SSILL
 62
3
 10
1448.537
 20
-2713.289
 30
3534.021
 70
    32
  0
VERTEX
  8
T17SSILL
 62
3
 10
1450.758
 20
-2714.102
 30
3534.016
 70
    32
  0
VERTEX
  8
T17SSILL
 62
3
 10
1454.047
 20
-2718.309
 30
3534.004
 70
    32
  0
VERTEX
  8
T17SSILL
 62
3
 10
1451.741
 20
-2720.293
 30
3534.007
 70
    32
  0
VERTEX
  8
T17SSILL
 62
3
 10
1454.619
 20
-2724.461
 30
3533.996
 70
    32
  0
VERTEX
  8
T17SSILL
 62
3
 10
1438.379
 20
-2735.616
 30
3534.015
 70
    32
  0
VERTEX
  8
T17SSILL
 62
3
 10
1441.814
 20
-2740.308
 30
3534.003
 70
    32
  0
VERTEX
  8
T17SSILL
 62
3
 10
1435.507
 20
-2744.870
 30
3534.010
 70
    32
  0
VERTEX
  8
T17SSILL
 62
3
 10
1434.196
 20
-2745.085
 30
3534.012
 70
    32
  0
VERTEX
  8
T17SSILL
 62
3
 10
1432.654
 20
-2743.461
 30
3534.017
 70
    32
  0
VERTEX
  8
T17SSILL
 62
3
 10
1430.872
 20
-2736.748
 30
3534.029
 70
    32
  0
VERTEX
  8
T17SSILL
 62
3
 10
1429.666
 20
-2708.052
 30
3534.066
 70
    32
  0
VERTEX
  8
T17SSILL
 62
3
 10
1430.806
 20
-2705.031
 30
3534.067
 70
    32
  0
VERTEX
  8
T17SSILL
 62
3
 10
1435.067
 20
-2700.599
 30
3534.064
 70
    32
  0
VERTEX
  8
T17SSILL
 62
3
 10
1446.098
 20
-2713.977
 30
3534.026
 70
    32
  0
SEQEND
  8
T17SSILL
  0
POLYLINE
  8
T17SSILL
 62
3
 66
     1
 70
     9
  0
VERTEX
  8
T17SSILL
 62
3
 10
1445.737
 20
-2745.668
 30
3533.988
 70
    32
  0
VERTEX
  8
T17SSILL
 62
3
 10
1434.997
 20
-2754.287
 30
3534.000
 70
    32
  0
VERTEX
  8
T17SSILL
 62
3
 10
1434.144
 20
-2758.090
 30
3533.997
 70
    32
  0
VERTEX
  8
T17SSILL
 62
3
 10
1434.156
 20
-2761.429
 30
3533.993
 70
    32
  0
VERTEX
  8
T17SSILL
 62
3
 10
1436.683
 20
-2766.625
 30
3533.982
 70
    32
  0
VERTEX
  8
T17SSILL
 62
3
 10
1439.310
 20
-2769.271
 30
3533.973
 70
    32
  0
VERTEX
  8
T17SSILL
 62
3
 10
1442.507
 20
-2770.406
 30
3533.965
 70
    32
  0
VERTEX
  8
T17SSILL
 62
3
 10
1473.544
 20
-2747.515
 30
3533.930
 70
    32
  0
VERTEX
  8
T17SSILL
 62
3
 10
1471.240
 20
-2743.893
 30
3533.939
 70
    32
  0
VERTEX
  8
T17SSILL
 62
3
 10
1464.318
 20
-2748.564
 30
3533.947
 70
    32
  0
VERTEX
  8
T17SSILL
 62
3
 10
1462.919
 20
-2746.448
 30
3533.953
 70
    32
  0
VERTEX
  8
T17SSILL
 62
3
 10
1452.482
 20
-2754.882
 30
3533.964
 70
    32
  0
SEQEND
  8
T17SSILL
  0
POLYLINE
  8
T17SSILL
 62
3
 66
     1
 70
     9
  0
VERTEX
  8
T17SSILL
 62
3
 10
1498.734
 20
-2684.644
 30
3533.954
 70
    32
  0
VERTEX
  8
T17SSILL
 62
3
 10
1494.449
 20
-2679.411
 30
3533.969
 70
    32
  0
VERTEX
  8
T17SSILL
 62
3
 10
1469.609
 20
-2697.988
 30
3533.997
 70
    32
  0
VERTEX
  8
T17SSILL
 62
3
 10
1471.215
 20
-2704.706
 30
3533.986
 70
    32
  0
VERTEX
  8
T17SSILL
 62
3
 10
1478.592
 20
-2713.448
 30
3533.960
 70
    32
  0
VERTEX
  8
T17SSILL
 62
3
 10
1499.560
 20
-2697.623
 30
3533.937
 70
    32
  0
VERTEX
  8
T17SSILL
 62
3
 10
1500.163
 20
-2688.379
 30
3533.947
 70
    32
  0
SEQEND
  8
T17SSILL
  0
POLYLINE
  8
T17SSILL
 62
3
 66
     1
 70
     9
  0
VERTEX
  8
T17SSILL
 62
3
 10
1516.548
 20
-2707.485
 30
3533.891
 70
    32
  0
VERTEX
  8
T17SSILL
 62
3
 10
1512.265
 20
-2702.341
 30
3533.905
 70
    32
  0
VERTEX
  8
T17SSILL
 62
3
 10
1508.356
 20
-2700.876
 30
3533.915
 70
    32
  0
VERTEX
  8
T17SSILL
 62
3
 10
1484.264
 20
-2718.024
 30
3533.943
 70
    32
  0
VERTEX
  8
T17SSILL
 62
3
 10
1492.374
 20
-2730.699
 30
3533.912
 70
    32
  0
VERTEX
  8
T17SSILL
 62
3
 10
1492.992
 20
-2733.756
 30
3533.907
 70
    32
  0
VERTEX
  8
T17SSILL
 62
3
 10
1520.602
 20
-2713.779
 30
3533.875
 70
    32
  0
VERTEX
  8
T17SSILL
 62
3
 10
1520.098
 20
-2711.597
 30
3533.878
 70
    32
  0
SEQEND
  8
T17SSILL
  0
POLYLINE
  8
T17SSILL
 62
3
 66
     1
 70
     9
  0
VERTEX
  8
T17SSILL
 62
3
 10
1526.745
 20
-2686.972
 30
3533.895
 70
    32
  0
VERTEX
  8
T17SSILL
 62
3
 10
1529.894
 20
-2692.414
 30
3533.882
 70
    32
  0
VERTEX
  8
T17SSILL
 62
3
 10
1520.323
 20
-2698.498
 30
3533.894
 70
    32
  0
VERTEX
  8
T17SSILL
 62
3
 10
1520.858
 20
-2701.734
 30
3533.889
 70
    32
  0
VERTEX
  8
T17SSILL
 62
3
 10
1523.633
 20
-2706.396
 30
3533.878
 70
    32
  0
VERTEX
  8
T17SSILL
 62
3
 10
1526.882
 20
-2709.286
 30
3533.867
 70
    32
  0
VERTEX
  8
T17SSILL
 62
3
 10
1539.800
 20
-2700.466
 30
3533.852
 70
    32
  0
VERTEX
  8
T17SSILL
 62
3
 10
1542.307
 20
-2693.187
 30
3533.856
 70
    32
  0
VERTEX
  8
T17SSILL
 62
3
 10
1542.181
 20
-2688.973
 30
3533.861
 70
    32
  0
VERTEX
  8
T17SSILL
 62
3
 10
1536.564
 20
-2680.354
 30
3533.883
 70
    32
  0
VERTEX
  8
T17SSILL
 62
3
 10
1532.119
 20
-2683.350
 30
3533.888
 70
    32
  0
SEQEND
  8
T17SSILL
  0
POLYLINE
  8
T17SSILL
 62
3
 66
     1
 70
     9
  0
VERTEX
  8
T17SSILL
 62
3
 10
1530.283
 20
-2655.323
 30
3533.925
 70
    32
  0
VERTEX
  8
T17SSILL
 62
3
 10
1530.064
 20
-2656.823
 30
3533.924
 70
    32
  0
VERTEX
  8
T17SSILL
 62
3
 10
1536.500
 20
-2666.385
 30
3533.899
 70
    32
  0
VERTEX
  8
T17SSILL
 62
3
 10
1537.100
 20
-2662.940
 30
3533.902
 70
    32
  0
VERTEX
  8
T17SSILL
 62
3
 10
1535.611
 20
-2651.298
 30
3533.919
 70
    32
  0
SEQEND
  8
T17SSILL
  0
POLYLINE
  8
T17SSILL
 62
3
 66
     1
 70
     9
  0
VERTEX
  8
T17SSILL
 62
3
 10
1548.194
 20
-2672.539
 30
3533.868
 70
    32
  0
VERTEX
  8
T17SSILL
 62
3
 10
1552.025
 20
-2692.019
 30
3533.837
 70
    32
  0
VERTEX
  8
T17SSILL
 62
3
 10
1548.666
 20
-2694.315
 30
3533.841
 70
    32
  0
VERTEX
  8
T17SSILL
 62
3
 10
1548.272
 20
-2695.821
 30
3533.840
 70
    32
  0
VERTEX
  8
T17SSILL
 62
3
 10
1548.181
 20
-2707.510
 30
3533.826
 70
    32
  0
VERTEX
  8
T17SSILL
 62
3
 10
1555.350
 20
-2718.104
 30
3533.799
 70
    32
  0
VERTEX
  8
T17SSILL
 62
3
 10
1558.717
 20
-2719.058
 30
3533.791
 70
    32
  0
VERTEX
  8
T17SSILL
 62
3
 10
1580.746
 20
-2715.238
 30
3533.751
 70
    32
  0
VERTEX
  8
T17SSILL
 62
3
 10
1589.807
 20
-2718.571
 30
3533.729
 70
    32
  0
VERTEX
  8
T17SSILL
 62
3
 10
1595.700
 20
-2712.860
 30
3533.724
 70
    32
  0
VERTEX
  8
T17SSILL
 62
3
 10
1591.262
 20
-2708.423
 30
3533.738
 70
    32
  0
VERTEX
  8
T17SSILL
 62
3
 10
1568.182
 20
-2694.613
 30
3533.801
 70
    32
  0
VERTEX
  8
T17SSILL
 62
3
 10
1555.682
 20
-2682.069
 30
3533.842
 70
    32
  0
VERTEX
  8
T17SSILL
 62
3
 10
1548.859
 20
-2671.289
 30
3533.868
 70
    32
  0
SEQEND
  8
T17SSILL
  0
POLYLINE
  8
T17SSILL
 62
3
 66
     1
 70
     9
  0
VERTEX
  8
T17SSILL
 62
3
 10
1497.567
 20
-2940.456
 30
3533.650
 70
    32
  0
VERTEX
  8
T17SSILL
 62
3
 10
1506.000
 20
-2946.267
 30
3533.626
 70
    32
  0
VERTEX
  8
T17SSILL
 62
3
 10
1513.886
 20
-2954.379
 30
3533.600
 70
    32
  0
VERTEX
  8
T17SSILL
 62
3
 10
1522.447
 20
-2958.606
 30
3533.578
 70
    32
  0
VERTEX
  8
T17SSILL
 62
3
 10
1541.887
 20
-2944.583
 30
3533.555
 70
    32
  0
VERTEX
  8
T17SSILL
 62
3
 10
1540.806
 20
-2940.749
 30
3533.562
 70
    32
  0
VERTEX
  8
T17SSILL
 62
3
 10
1534.984
 20
-2934.069
 30
3533.582
 70
    32
  0
VERTEX
  8
T17SSILL
 62
3
 10
1533.820
 20
-2930.413
 30
3533.588
 70
    32
  0
VERTEX
  8
T17SSILL
 62
3
 10
1548.943
 20
-2915.992
 30
3533.575
 70
    32
  0
VERTEX
  8
T17SSILL
 62
3
 10
1540.126
 20
-2903.163
 30
3533.608
 70
    32
  0
VERTEX
  8
T17SSILL
 62
3
 10
1537.505
 20
-2903.680
 30
3533.613
 70
    32
  0
VERTEX
  8
T17SSILL
 62
3
 10
1530.133
 20
-2909.875
 30
3533.621
 70
    32
  0
VERTEX
  8
T17SSILL
 62
3
 10
1521.957
 20
-2912.666
 30
3533.634
 70
    32
  0
VERTEX
  8
T17SSILL
 62
3
 10
1495.316
 20
-2932.703
 30
3533.664
 70
    32
  0
VERTEX
  8
T17SSILL
 62
3
 10
1494.837
 20
-2937.286
 30
3533.659
 70
    32
  0
SEQEND
  8
T17SSILL
  0
POLYLINE
  8
T17SSILL
 62
3
 66
     1
 70
     9
  0
VERTEX
  8
T17SSILL
 62
3
 10
1620.141
 20
-2853.993
 30
3533.505
 70
    32
  0
VERTEX
  8
T17SSILL
 62
3
 10
1618.719
 20
-2847.605
 30
3533.516
 70
    32
  0
VERTEX
  8
T17SSILL
 62
3
 10
1617.390
 20
-2846.925
 30
3533.519
 70
    32
  0
VERTEX
  8
T17SSILL
 62
3
 10
1580.571
 20
-2872.122
 30
3533.564
 70
    32
  0
VERTEX
  8
T17SSILL
 62
3
 10
1581.584
 20
-2878.030
 30
3533.554
 70
    32
  0
VERTEX
  8
T17SSILL
 62
3
 10
1585.559
 20
-2875.040
 30
3533.550
 70
    32
  0
VERTEX
  8
T17SSILL
 62
3
 10
1589.332
 20
-2880.248
 30
3533.536
 70
    32
  0
VERTEX
  8
T17SSILL
 62
3
 10
1594.102
 20
-2876.570
 30
3533.531
 70
    32
  0
VERTEX
  8
T17SSILL
 62
3
 10
1598.228
 20
-2881.859
 30
3533.516
 70
    32
  0
VERTEX
  8
T17SSILL
 62
3
 10
1602.742
 20
-2878.624
 30
3533.511
 70
    32
  0
VERTEX
  8
T17SSILL
 62
3
 10
1612.390
 20
-2891.132
 30
3533.476
 70
    32
  0
VERTEX
  8
T17SSILL
 62
3
 10
1624.986
 20
-2881.488
 30
3533.462
 70
    32
  0
VERTEX
  8
T17SSILL
 62
3
 10
1623.997
 20
-2874.742
 30
3533.472
 70
    32
  0
SEQEND
  8
T17SSILL
  0
POLYLINE
  8
T17SSILL
 62
3
 66
     1
 70
     9
  0
VERTEX
  8
T17SSILL
 62
3
 10
1633.979
 20
-2844.573
 30
3533.488
 70
    32
  0
VERTEX
  8
T17SSILL
 62
3
 10
1632.752
 20
-2865.345
 30
3533.466
 70
    32
  0
VERTEX
  8
T17SSILL
 62
3
 10
1635.424
 20
-2869.483
 30
3533.456
 70
    32
  0
VERTEX
  8
T17SSILL
 62
3
 10
1638.993
 20
-2871.310
 30
3533.446
 70
    32
  0
VERTEX
  8
T17SSILL
 62
3
 10
1707.392
 20
-2819.541
 30
3533.370
 70
    32
  0
VERTEX
  8
T17SSILL
 62
3
 10
1647.131
 20
-2740.411
 30
3533.586
 70
    32
  0
VERTEX
  8
T17SSILL
 62
3
 10
1636.140
 20
-2734.237
 30
3533.616
 70
    32
  0
VERTEX
  8
T17SSILL
 62
3
 10
1623.634
 20
-2745.065
 30
3533.629
 70
    32
  0
VERTEX
  8
T17SSILL
 62
3
 10
1620.071
 20
-2752.289
 30
3533.627
 70
    32
  0
VERTEX
  8
T17SSILL
 62
3
 10
1627.917
 20
-2770.858
 30
3533.589
 70
    32
  0
VERTEX
  8
T17SSILL
 62
3
 10
1631.329
 20
-2782.179
 30
3533.568
 70
    32
  0
VERTEX
  8
T17SSILL
 62
3
 10
1635.215
 20
-2788.741
 30
3533.553
 70
    32
  0
VERTEX
  8
T17SSILL
 62
3
 10
1637.773
 20
-2800.878
 30
3533.533
 70
    32
  0
VERTEX
  8
T17SSILL
 62
3
 10
1634.740
 20
-2802.287
 30
3533.537
 70
    32
  0
VERTEX
  8
T17SSILL
 62
3
 10
1626.575
 20
-2799.542
 30
3533.557
 70
    32
  0
VERTEX
  8
T17SSILL
 62
3
 10
1613.854
 20
-2809.059
 30
3533.572
 70
    32
  0
VERTEX
  8
T17SSILL
 62
3
 10
1615.622
 20
-2815.333
 30
3533.561
 70
    32
  0
VERTEX
  8
T17SSILL
 62
3
 10
1632.964
 20
-2837.046
 30
3533.499
 70
    32
  0
VERTEX
  8
T17SSILL
 62
3
 10
1633.794
 20
-2841.327
 30
3533.493
 70
    32
  0
SEQEND
  8
T17SSILL
  0
POLYLINE
  8
T17SSILL
 62
3
 66
     1
 70
     9
  0
VERTEX
  8
T17SSILL
 62
3
 10
1616.959
 20
-2771.712
 30
3533.610
 70
    32
  0
VERTEX
  8
T17SSILL
 62
3
 10
1616.701
 20
-2766.008
 30
3533.617
 70
    32
  0
VERTEX
  8
T17SSILL
 62
3
 10
1615.115
 20
-2762.892
 30
3533.624
 70
    32
  0
VERTEX
  8
T17SSILL
 62
3
 10
1608.481
 20
-2755.533
 30
3533.647
 70
    32
  0
VERTEX
  8
T17SSILL
 62
3
 10
1594.976
 20
-2765.249
 30
3533.662
 70
    32
  0
VERTEX
  8
T17SSILL
 62
3
 10
1594.242
 20
-2770.104
 30
3533.658
 70
    32
  0
VERTEX
  8
T17SSILL
 62
3
 10
1596.859
 20
-2781.273
 30
3533.639
 70
    32
  0
VERTEX
  8
T17SSILL
 62
3
 10
1600.296
 20
-2781.610
 30
3533.632
 70
    32
  0
VERTEX
  8
T17SSILL
 62
3
 10
1602.140
 20
-2784.542
 30
3533.625
 70
    32
  0
VERTEX
  8
T17SSILL
 62
3
 10
1608.641
 20
-2802.185
 30
3533.590
 70
    32
  0
VERTEX
  8
T17SSILL
 62
3
 10
1618.298
 20
-2796.011
 30
3533.578
 70
    32
  0
VERTEX
  8
T17SSILL
 62
3
 10
1618.408
 20
-2793.811
 30
3533.581
 70
    32
  0
SEQEND
  8
T17SSILL
  0
POLYLINE
  8
T17SSILL
 62
3
 66
     1
 70
     9
  0
VERTEX
  8
T17SSILL
 62
3
 10
1586.099
 20
-2763.095
 30
3533.683
 70
    32
  0
VERTEX
  8
T17SSILL
 62
3
 10
1600.561
 20
-2752.167
 30
3533.667
 70
    32
  0
VERTEX
  8
T17SSILL
 62
3
 10
1601.399
 20
-2741.949
 30
3533.677
 70
    32
  0
VERTEX
  8
T17SSILL
 62
3
 10
1595.912
 20
-2734.732
 30
3533.697
 70
    32
  0
VERTEX
  8
T17SSILL
 62
3
 10
1576.276
 20
-2748.058
 30
3533.721
 70
    32
  0
VERTEX
  8
T17SSILL
 62
3
 10
1575.564
 20
-2750.715
 30
3533.719
 70
    32
  0
VERTEX
  8
T17SSILL
 62
3
 10
1578.674
 20
-2754.840
 30
3533.708
 70
    32
  0
SEQEND
  8
T17SSILL
  0
POLYLINE
  8
T17SSILL
 62
3
 66
     1
 70
     9
  0
VERTEX
  8
T17SSILL
 62
3
 10
1556.166
 20
-2769.171
 30
3533.736
 70
    32
  0
VERTEX
  8
T17SSILL
 62
3
 10
1560.202
 20
-2774.567
 30
3533.722
 70
    32
  0
VERTEX
  8
T17SSILL
 62
3
 10
1573.527
 20
-2764.922
 30
3533.706
 70
    32
  0
VERTEX
  8
T17SSILL
 62
3
 10
1572.349
 20
-2757.840
 30
3533.717
 70
    32
  0
VERTEX
  8
T17SSILL
 62
3
 10
1568.188
 20
-2753.834
 30
3533.730
 70
    32
  0
VERTEX
  8
T17SSILL
 62
3
 10
1550.222
 20
-2767.197
 30
3533.751
 70
    32
  0
VERTEX
  8
T17SSILL
 62
3
 10
1552.242
 20
-2772.031
 30
3533.741
 70
    32
  0
SEQEND
  8
T17SSILL
  0
POLYLINE
  8
T17SSILL
 62
3
 66
     1
 70
     9
  0
VERTEX
  8
T17SSILL
 62
3
 10
1500.906
 20
-2816.963
 30
3533.791
 70
    32
  0
VERTEX
  8
T17SSILL
 62
3
 10
1505.775
 20
-2813.202
 30
3533.786
 70
    32
  0
VERTEX
  8
T17SSILL
 62
3
 10
1509.548
 20
-2818.409
 30
3533.772
 70
    32
  0
VERTEX
  8
T17SSILL
 62
3
 10
1513.027
 20
-2816.019
 30
3533.768
 70
    32
  0
VERTEX
  8
T17SSILL
 62
3
 10
1506.521
 20
-2807.424
 30
3533.791
 70
    32
  0
VERTEX
  8
T17SSILL
 62
3
 10
1505.908
 20
-2798.655
 30
3533.803
 70
    32
  0
VERTEX
  8
T17SSILL
 62
3
 10
1493.755
 20
-2806.574
 30
3533.818
 70
    32
  0
VERTEX
  8
T17SSILL
 62
3
 10
1494.607
 20
-2811.557
 30
3533.810
 70
    32
  0
VERTEX
  8
T17SSILL
 62
3
 10
1496.877
 20
-2814.037
 30
3533.803
 70
    32
  0
SEQEND
  8
T17SSILL
  0
POLYLINE
  8
T17SSILL
 62
3
 66
     1
 70
     9
  0
VERTEX
  8
T17SSILL
 62
3
 10
1477.826
 20
-2826.379
 30
3533.827
 70
    32
  0
VERTEX
  8
T17SSILL
 62
3
 10
1481.758
 20
-2831.534
 30
3533.812
 70
    32
  0
VERTEX
  8
T17SSILL
 62
3
 10
1495.474
 20
-2821.161
 30
3533.797
 70
    32
  0
VERTEX
  8
T17SSILL
 62
3
 10
1486.864
 20
-2814.160
 30
3533.823
 70
    32
  0
VERTEX
  8
T17SSILL
 62
3
 10
1486.463
 20
-2812.502
 30
3533.826
 70
    32
  0
VERTEX
  8
T17SSILL
 62
3
 10
1474.860
 20
-2821.195
 30
3533.839
 70
    32
  0
VERTEX
  8
T17SSILL
 62
3
 10
1475.912
 20
-2824.063
 30
3533.833
 70
    32
  0
SEQEND
  8
T17SSILL
  0
POLYLINE
  8
T17SSILL
 62
3
 66
     1
 70
     9
  0
VERTEX
  8
T17SSILL
 62
3
 10
1462.196
 20
-2835.543
 30
3533.847
 70
    32
  0
VERTEX
  8
T17SSILL
 62
3
 10
1467.231
 20
-2842.334
 30
3533.829
 70
    32
  0
VERTEX
  8
T17SSILL
 62
3
 10
1471.691
 20
-2845.348
 30
3533.816
 70
    32
  0
VERTEX
  8
T17SSILL
 62
3
 10
1478.162
 20
-2840.800
 30
3533.809
 70
    32
  0
VERTEX
  8
T17SSILL
 62
3
 10
1476.482
 20
-2834.327
 30
3533.820
 70
    32
  0
VERTEX
  8
T17SSILL
 62
3
 10
1468.732
 20
-2824.892
 30
3533.847
 70
    32
  0
VERTEX
  8
T17SSILL
 62
3
 10
1460.828
 20
-2830.927
 30
3533.856
 70
    32
  0
VERTEX
  8
T17SSILL
 62
3
 10
1460.790
 20
-2832.598
 30
3533.854
 70
    32
  0
SEQEND
  8
T17SSILL
  0
POLYLINE
  8
T17SSILL
 62
3
 66
     1
 70
     9
  0
VERTEX
  8
T17SSILL
 62
3
 10
1928.101
 20
-2717.886
 30
3533.184
 70
    32
  0
VERTEX
  8
T17SSILL
 62
3
 10
1923.972
 20
-2708.095
 30
3533.170
 70
    32
  0
VERTEX
  8
T17SSILL
 62
3
 10
1920.142
 20
-2703.414
 30
3533.162
 70
    32
  0
VERTEX
  8
T17SSILL
 62
3
 10
1916.090
 20
-2700.399
 30
3533.156
 70
    32
  0
VERTEX
  8
T17SSILL
 62
3
 10
1912.630
 20
-2701.448
 30
3533.155
 70
    32
  0
VERTEX
  8
T17SSILL
 62
3
 10
1900.021
 20
-2712.010
 30
3533.167
 70
    32
  0
VERTEX
  8
T17SSILL
 62
3
 10
1872.426
 20
-2726.628
 30
3533.189
 70
    32
  0
VERTEX
  8
T17SSILL
 62
3
 10
1879.331
 20
-2736.229
 30
3533.201
 70
    32
  0
VERTEX
  8
T17SSILL
 62
3
 10
1854.584
 20
-2753.495
 30
3533.227
 70
    32
  0
VERTEX
  8
T17SSILL
 62
3
 10
1851.168
 20
-2748.633
 30
3533.221
 70
    32
  0
VERTEX
  8
T17SSILL
 62
3
 10
1840.655
 20
-2755.567
 30
3533.231
 70
    32
  0
VERTEX
  8
T17SSILL
 62
3
 10
1834.970
 20
-2747.765
 30
3533.222
 70
    32
  0
VERTEX
  8
T17SSILL
 62
3
 10
1821.163
 20
-2755.797
 30
3533.234
 70
    32
  0
VERTEX
  8
T17SSILL
 62
3
 10
1816.378
 20
-2763.955
 30
3533.245
 70
    32
  0
VERTEX
  8
T17SSILL
 62
3
 10
1817.346
 20
-2769.472
 30
3533.252
 70
    32
  0
VERTEX
  8
T17SSILL
 62
3
 10
1813.209
 20
-2779.638
 30
3533.266
 70
    32
  0
VERTEX
  8
T17SSILL
 62
3
 10
1829.555
 20
-2801.853
 30
3533.293
 70
    32
  0
VERTEX
  8
T17SSILL
 62
3
 10
1859.591
 20
-2780.462
 30
3533.261
 70
    32
  0
VERTEX
  8
T17SSILL
 62
3
 10
1857.268
 20
-2767.239
 30
3533.244
 70
    32
  0
VERTEX
  8
T17SSILL
 62
3
 10
1855.073
 20
-2761.918
 30
3533.237
 70
    32
  0
VERTEX
  8
T17SSILL
 62
3
 10
1852.573
 20
-2759.412
 30
3533.235
 70
    32
  0
VERTEX
  8
T17SSILL
 62
3
 10
1868.812
 20
-2748.169
 30
3533.218
 70
    32
  0
VERTEX
  8
T17SSILL
 62
3
 10
1880.918
 20
-2763.515
 30
3533.236
 70
    32
  0
VERTEX
  8
T17SSILL
 62
3
 10
1884.741
 20
-2760.994
 30
3533.232
 70
    32
  0
VERTEX
  8
T17SSILL
 62
3
 10
1893.677
 20
-2748.905
 30
3533.215
 70
    32
  0
VERTEX
  8
T17SSILL
 62
3
 10
1900.002
 20
-2749.065
 30
3533.215
 70
    32
  0
VERTEX
  8
T17SSILL
 62
3
 10
1903.373
 20
-2750.350
 30
3533.216
 70
    32
  0
VERTEX
  8
T17SSILL
 62
3
 10
1931.640
 20
-2729.949
 30
3533.201
 70
    32
  0
VERTEX
  8
T17SSILL
 62
3
 10
1932.802
 20
-2726.110
 30
3533.197
 70
    32
  0
SEQEND
  8
T17SSILL
  0
POLYLINE
  8
T17SSILL
 62
3
 66
     1
 70
     9
  0
VERTEX
  8
T17SSILL
 62
3
 10
1830.638
 20
-2725.718
 30
3533.232
 70
    32
  0
VERTEX
  8
T17SSILL
 62
3
 10
1816.074
 20
-2738.028
 30
3533.247
 70
    32
  0
VERTEX
  8
T17SSILL
 62
3
 10
1811.166
 20
-2730.943
 30
3533.265
 70
    32
  0
VERTEX
  8
T17SSILL
 62
3
 10
1802.784
 20
-2728.600
 30
3533.285
 70
    32
  0
VERTEX
  8
T17SSILL
 62
3
 10
1796.565
 20
-2708.457
 30
3533.322
 70
    32
  0
VERTEX
  8
T17SSILL
 62
3
 10
1792.834
 20
-2703.340
 30
3533.336
 70
    32
  0
VERTEX
  8
T17SSILL
 62
3
 10
1791.382
 20
-2695.381
 30
3533.348
 70
    32
  0
VERTEX
  8
T17SSILL
 62
3
 10
1792.289
 20
-2688.016
 30
3533.355
 70
    32
  0
VERTEX
  8
T17SSILL
 62
3
 10
1795.269
 20
-2682.027
 30
3533.356
 70
    32
  0
VERTEX
  8
T17SSILL
 62
3
 10
1799.485
 20
-2681.284
 30
3533.349
 70
    32
  0
SEQEND
  8
T17SSILL
  0
POLYLINE
  8
T17SSILL
 62
3
 66
     1
 70
     9
  0
VERTEX
  8
T17SSILL
 62
3
 10
1803.340
 20
-2641.338
 30
3533.389
 70
    32
  0
VERTEX
  8
T17SSILL
 62
3
 10
1803.182
 20
-2624.705
 30
3533.375
 70
    32
  0
VERTEX
  8
T17SSILL
 62
3
 10
1806.111
 20
-2598.215
 30
3533.311
 70
    32
  0
VERTEX
  8
T17SSILL
 62
3
 10
1799.896
 20
-2587.486
 30
3533.314
 70
    32
  0
VERTEX
  8
T17SSILL
 62
3
 10
1795.504
 20
-2571.265
 30
3533.304
 70
    32
  0
VERTEX
  8
T17SSILL
 62
3
 10
1792.207
 20
-2553.577
 30
3533.304
 70
    32
  0
VERTEX
  8
T17SSILL
 62
3
 10
1792.660
 20
-2546.727
 30
3533.306
 70
    32
  0
VERTEX
  8
T17SSILL
 62
3
 10
1759.752
 20
-2501.597
 30
3533.359
 70
    32
  0
VERTEX
  8
T17SSILL
 62
3
 10
1731.591
 20
-2460.404
 30
3533.405
 70
    32
  0
VERTEX
  8
T17SSILL
 62
3
 10
1653.019
 20
-2470.583
 30
3533.596
 70
    32
  0
VERTEX
  8
T17SSILL
 62
3
 10
1590.586
 20
-2516.647
 30
3533.921
 70
    32
  0
VERTEX
  8
T17SSILL
 62
3
 10
1618.602
 20
-2553.872
 30
3533.868
 70
    32
  0
VERTEX
  8
T17SSILL
 62
3
 10
1645.200
 20
-2725.212
 30
3533.609
 70
    32
  0
VERTEX
  8
T17SSILL
 62
3
 10
1712.456
 20
-2815.797
 30
3533.364
 70
    32
  0
VERTEX
  8
T17SSILL
 62
3
 10
1783.157
 20
-2762.390
 30
3533.285
 70
    32
  0
VERTEX
  8
T17SSILL
 62
3
 10
1790.302
 20
-2753.579
 30
3533.281
 70
    32
  0
VERTEX
  8
T17SSILL
 62
3
 10
1789.909
 20
-2729.523
 30
3533.310
 70
    32
  0
VERTEX
  8
T17SSILL
 62
3
 10
1794.156
 20
-2726.116
 30
3533.306
 70
    32
  0
VERTEX
  8
T17SSILL
 62
3
 10
1787.292
 20
-2709.104
 30
3533.340
 70
    32
  0
VERTEX
  8
T17SSILL
 62
3
 10
1775.236
 20
-2691.473
 30
3533.386
 70
    32
  0
VERTEX
  8
T17SSILL
 62
3
 10
1773.027
 20
-2685.274
 30
3533.397
 70
    32
  0
VERTEX
  8
T17SSILL
 62
3
 10
1792.262
 20
-2676.241
 30
3533.369
 70
    32
  0
VERTEX
  8
T17SSILL
 62
3
 10
1804.657
 20
-2666.977
 30
3533.355
 70
    32
  0
VERTEX
  8
T17SSILL
 62
3
 10
1804.982
 20
-2655.196
 30
3533.369
 70
    32
  0
SEQEND
  8
T17SSILL
  0
POLYLINE
  8
T17SSILL
 62
3
 66
     1
 70
     9
  0
VERTEX
  8
T17SSILL
 62
3
 10
1862.427
 20
-2851.900
 30
3533.353
 70
    32
  0
VERTEX
  8
T17SSILL
 62
3
 10
1879.290
 20
-2841.262
 30
3533.337
 70
    32
  0
VERTEX
  8
T17SSILL
 62
3
 10
1892.439
 20
-2845.175
 30
3533.340
 70
    32
  0
VERTEX
  8
T17SSILL
 62
3
 10
1900.168
 20
-2839.867
 30
3533.332
 70
    32
  0
VERTEX
  8
T17SSILL
 62
3
 10
1888.403
 20
-2823.901
 30
3533.313
 70
    32
  0
VERTEX
  8
T17SSILL
 62
3
 10
1882.524
 20
-2823.896
 30
3533.314
 70
    32
  0
VERTEX
  8
T17SSILL
 62
3
 10
1877.312
 20
-2827.682
 30
3533.320
 70
    32
  0
VERTEX
  8
T17SSILL
 62
3
 10
1874.702
 20
-2823.891
 30
3533.315
 70
    32
  0
VERTEX
  8
T17SSILL
 62
3
 10
1872.947
 20
-2823.890
 30
3533.315
 70
    32
  0
VERTEX
  8
T17SSILL
 62
3
 10
1855.270
 20
-2833.136
 30
3533.330
 70
    32
  0
VERTEX
  8
T17SSILL
 62
3
 10
1862.410
 20
-2845.490
 30
3533.345
 70
    32
  0
SEQEND
  8
T17SSILL
  0
POLYLINE
  8
T17SSILL
 62
3
 66
     1
 70
     9
  0
VERTEX
  8
T17SSILL
 62
3
 10
1880.708
 20
-2788.284
 30
3533.268
 70
    32
  0
VERTEX
  8
T17SSILL
 62
3
 10
1876.485
 20
-2787.826
 30
3533.268
 70
    32
  0
VERTEX
  8
T17SSILL
 62
3
 10
1864.965
 20
-2792.229
 30
3533.275
 70
    32
  0
VERTEX
  8
T17SSILL
 62
3
 10
1860.764
 20
-2787.731
 30
3533.270
 70
    32
  0
VERTEX
  8
T17SSILL
 62
3
 10
1833.432
 20
-2808.025
 30
3533.300
 70
    32
  0
VERTEX
  8
T17SSILL
 62
3
 10
1842.064
 20
-2820.354
 30
3533.315
 70
    32
  0
VERTEX
  8
T17SSILL
 62
3
 10
1846.939
 20
-2823.085
 30
3533.318
 70
    32
  0
VERTEX
  8
T17SSILL
 62
3
 10
1851.046
 20
-2827.233
 30
3533.323
 70
    32
  0
VERTEX
  8
T17SSILL
 62
3
 10
1870.304
 20
-2817.500
 30
3533.308
 70
    32
  0
VERTEX
  8
T17SSILL
 62
3
 10
1883.225
 20
-2808.002
 30
3533.293
 70
    32
  0
VERTEX
  8
T17SSILL
 62
3
 10
1879.356
 20
-2802.269
 30
3533.287
 70
    32
  0
VERTEX
  8
T17SSILL
 62
3
 10
1888.844
 20
-2795.571
 30
3533.277
 70
    32
  0
SEQEND
  8
T17SSILL
  0
POLYLINE
  8
T17SSILL
 62
3
 66
     1
 70
     9
  0
VERTEX
  8
T17SSILL
 62
3
 10
1836.212
 20
-2853.810
 30
3533.359
 70
    32
  0
VERTEX
  8
T17SSILL
 62
3
 10
1826.237
 20
-2867.509
 30
3533.378
 70
    32
  0
VERTEX
  8
T17SSILL
 62
3
 10
1824.667
 20
-2873.594
 30
3533.386
 70
    32
  0
VERTEX
  8
T17SSILL
 62
3
 10
1830.223
 20
-2874.996
 30
3533.388
 70
    32
  0
VERTEX
  8
T17SSILL
 62
3
 10
1845.329
 20
-2864.299
 30
3533.372
 70
    32
  0
VERTEX
  8
T17SSILL
 62
3
 10
1844.073
 20
-2860.706
 30
3533.367
 70
    32
  0
VERTEX
  8
T17SSILL
 62
3
 10
1842.131
 20
-2862.068
 30
3533.369
 70
    32
  0
SEQEND
  8
T17SSILL
  0
POLYLINE
  8
T17SSILL
 62
3
 66
     1
 70
     9
  0
VERTEX
  8
T17SSILL
 62
3
 10
1922.993
 20
-2989.905
 30
3533.524
 70
    32
  0
VERTEX
  8
T17SSILL
 62
3
 10
1911.266
 20
-2979.710
 30
3533.512
 70
    32
  0
VERTEX
  8
T17SSILL
 62
3
 10
1902.713
 20
-2960.986
 30
3533.489
 70
    32
  0
VERTEX
  8
T17SSILL
 62
3
 10
1900.232
 20
-2942.608
 30
3533.466
 70
    32
  0
VERTEX
  8
T17SSILL
 62
3
 10
1894.735
 20
-2929.153
 30
3533.449
 70
    32
  0
VERTEX
  8
T17SSILL
 62
3
 10
1894.372
 20
-2916.950
 30
3533.433
 70
    32
  0
VERTEX
  8
T17SSILL
 62
3
 10
1889.934
 20
-2912.513
 30
3533.428
 70
    32
  0
VERTEX
  8
T17SSILL
 62
3
 10
1883.388
 20
-2911.039
 30
3533.427
 70
    32
  0
VERTEX
  8
T17SSILL
 62
3
 10
1879.176
 20
-2908.265
 30
3533.424
 70
    32
  0
VERTEX
  8
T17SSILL
 62
3
 10
1871.196
 20
-2896.992
 30
3533.411
 70
    32
  0
VERTEX
  8
T17SSILL
 62
3
 10
1861.040
 20
-2895.273
 30
3533.410
 70
    32
  0
VERTEX
  8
T17SSILL
 62
3
 10
1857.122
 20
-2884.671
 30
3533.396
 70
    32
  0
VERTEX
  8
T17SSILL
 62
3
 10
1848.702
 20
-2870.424
 30
3533.379
 70
    32
  0
VERTEX
  8
T17SSILL
 62
3
 10
1828.314
 20
-2885.089
 30
3533.401
 70
    32
  0
VERTEX
  8
T17SSILL
 62
3
 10
1821.006
 20
-2896.378
 30
3533.417
 70
    32
  0
VERTEX
  8
T17SSILL
 62
3
 10
1819.322
 20
-2901.788
 30
3533.424
 70
    32
  0
VERTEX
  8
T17SSILL
 62
3
 10
1820.028
 20
-2904.842
 30
3533.428
 70
    32
  0
VERTEX
  8
T17SSILL
 62
3
 10
1890.307
 20
-3004.673
 30
3533.548
 70
    32
  0
VERTEX
  8
T17SSILL
 62
3
 10
1948.506
 20
-3005.751
 30
3533.546
 70
    32
  0
VERTEX
  8
T17SSILL
 62
3
 10
1942.585
 20
-2995.735
 30
3533.530
 70
    32
  0
VERTEX
  8
T17SSILL
 62
3
 10
1936.966
 20
-2990.016
 30
3533.522
 70
    32
  0
VERTEX
  8
T17SSILL
 62
3
 10
1932.398
 20
-2987.076
 30
3533.519
 70
    32
  0
VERTEX
  8
T17SSILL
 62
3
 10
1926.039
 20
-2988.935
 30
3533.522
 70
    32
  0
SEQEND
  8
T17SSILL
  0
POLYLINE
  8
T17SSILL
 62
3
 66
     1
 70
     9
  0
VERTEX
  8
T17SSILL
 62
3
 10
1588.124
 20
-2526.707
 30
3533.955
 70
    32
  0
VERTEX
  8
T17SSILL
 62
3
 10
1583.785
 20
-2524.494
 30
3533.967
 70
    32
  0
VERTEX
  8
T17SSILL
 62
3
 10
1577.817
 20
-2524.767
 30
3533.985
 70
    32
  0
VERTEX
  8
T17SSILL
 62
3
 10
1551.256
 20
-2543.819
 30
3534.016
 70
    32
  0
VERTEX
  8
T17SSILL
 62
3
 10
1545.226
 20
-2556.388
 30
3534.014
 70
    32
  0
VERTEX
  8
T17SSILL
 62
3
 10
1557.959
 20
-2583.228
 30
3533.956
 70
    32
  0
VERTEX
  8
T17SSILL
 62
3
 10
1577.323
 20
-2607.414
 30
3533.887
 70
    32
  0
VERTEX
  8
T17SSILL
 62
3
 10
1593.242
 20
-2630.338
 30
3533.828
 70
    32
  0
VERTEX
  8
T17SSILL
 62
3
 10
1619.099
 20
-2611.210
 30
3533.798
 70
    32
  0
VERTEX
  8
T17SSILL
 62
3
 10
1619.999
 20
-2607.156
 30
3533.801
 70
    32
  0
VERTEX
  8
T17SSILL
 62
3
 10
1616.990
 20
-2594.998
 30
3533.822
 70
    32
  0
VERTEX
  8
T17SSILL
 62
3
 10
1611.084
 20
-2556.015
 30
3533.881
 70
    32
  0
VERTEX
  8
T17SSILL
 62
3
 10
1590.485
 20
-2529.720
 30
3533.954
 70
    32
  0
SEQEND
  8
T17SSILL
  0
POLYLINE
  8
T17SSILL
 62
3
 66
     1
 70
     9
  0
VERTEX
  8
T17SSILL
 62
3
 10
1598.438
 20
-2639.586
 30
3533.806
 70
    32
  0
VERTEX
  8
T17SSILL
 62
3
 10
1604.675
 20
-2651.350
 30
3533.779
 70
    32
  0
VERTEX
  8
T17SSILL
 62
3
 10
1607.375
 20
-2662.341
 30
3533.761
 70
    32
  0
VERTEX
  8
T17SSILL
 62
3
 10
1606.271
 20
-2666.591
 30
3533.758
 70
    32
  0
VERTEX
  8
T17SSILL
 62
3
 10
1599.786
 20
-2676.010
 30
3533.760
 70
    32
  0
VERTEX
  8
T17SSILL
 62
3
 10
1602.439
 20
-2685.421
 30
3533.743
 70
    32
  0
VERTEX
  8
T17SSILL
 62
3
 10
1614.189
 20
-2705.280
 30
3533.695
 70
    32
  0
VERTEX
  8
T17SSILL
 62
3
 10
1622.583
 20
-2730.423
 30
3533.648
 70
    32
  0
VERTEX
  8
T17SSILL
 62
3
 10
1624.810
 20
-2734.399
 30
3533.639
 70
    32
  0
VERTEX
  8
T17SSILL
 62
3
 10
1636.826
 20
-2724.815
 30
3533.626
 70
    32
  0
VERTEX
  8
T17SSILL
 62
3
 10
1637.691
 20
-2718.463
 30
3533.632
 70
    32
  0
VERTEX
  8
T17SSILL
 62
3
 10
1635.956
 20
-2713.330
 30
3533.642
 70
    32
  0
VERTEX
  8
T17SSILL
 62
3
 10
1621.385
 20
-2622.384
 30
3533.780
 70
    32
  0
VERTEX
  8
T17SSILL
 62
3
 10
1615.176
 20
-2623.360
 30
3533.792
 70
    32
  0
VERTEX
  8
T17SSILL
 62
3
 10
1599.174
 20
-2634.819
 30
3533.810
 70
    32
  0
VERTEX
  8
T17SSILL
 62
3
 10
1598.484
 20
-2638.179
 30
3533.808
 70
    32
  0
SEQEND
  8
T17SSILL
  0
POLYLINE
  8
T17SSILL
 62
3
 66
     1
 70
     9
  0
VERTEX
  8
T17SSILL
 62
3
 10
1595.930
 20
-2720.585
 30
3533.714
 70
    32
  0
VERTEX
  8
T17SSILL
 62
3
 10
1595.009
 20
-2722.106
 30
3533.714
 70
    32
  0
VERTEX
  8
T17SSILL
 62
3
 10
1596.311
 20
-2724.528
 30
3533.709
 70
    32
  0
VERTEX
  8
T17SSILL
 62
3
 10
1603.535
 20
-2731.078
 30
3533.686
 70
    32
  0
VERTEX
  8
T17SSILL
 62
3
 10
1612.404
 20
-2742.676
 30
3533.654
 70
    32
  0
VERTEX
  8
T17SSILL
 62
3
 10
1615.672
 20
-2740.294
 30
3533.650
 70
    32
  0
VERTEX
  8
T17SSILL
 62
3
 10
1605.568
 20
-2719.683
 30
3533.696
 70
    32
  0
VERTEX
  8
T17SSILL
 62
3
 10
1601.849
 20
-2715.752
 30
3533.708
 70
    32
  0
SEQEND
  8
T17SSILL
  0
POLYLINE
  8
T17SSILL
 62
3
 66
     1
 70
     9
  0
VERTEX
  8
T17SSILL
 62
3
 10
1540.164
 20
-2886.731
 30
3533.628
 70
    32
  0
VERTEX
  8
T17SSILL
 62
3
 10
1539.258
 20
-2882.892
 30
3533.634
 70
    32
  0
VERTEX
  8
T17SSILL
 62
3
 10
1539.874
 20
-2871.099
 30
3533.647
 70
    32
  0
VERTEX
  8
T17SSILL
 62
3
 10
1546.295
 20
-2856.586
 30
3533.652
 70
    32
  0
VERTEX
  8
T17SSILL
 62
3
 10
1546.890
 20
-2852.966
 30
3533.655
 70
    32
  0
VERTEX
  8
T17SSILL
 62
3
 10
1532.761
 20
-2853.562
 30
3533.683
 70
    32
  0
VERTEX
  8
T17SSILL
 62
3
 10
1523.318
 20
-2858.061
 30
3533.696
 70
    32
  0
VERTEX
  8
T17SSILL
 62
3
 10
1502.139
 20
-2875.650
 30
3533.718
 70
    32
  0
VERTEX
  8
T17SSILL
 62
3
 10
1492.358
 20
-2889.473
 30
3533.722
 70
    32
  0
VERTEX
  8
T17SSILL
 62
3
 10
1489.405
 20
-2896.502
 30
3533.719
 70
    32
  0
VERTEX
  8
T17SSILL
 62
3
 10
1506.292
 20
-2900.041
 30
3533.681
 70
    32
  0
VERTEX
  8
T17SSILL
 62
3
 10
1510.044
 20
-2899.138
 30
3533.674
 70
    32
  0
VERTEX
  8
T17SSILL
 62
3
 10
1529.267
 20
-2886.704
 30
3533.650
 70
    32
  0
VERTEX
  8
T17SSILL
 62
3
 10
1534.358
 20
-2889.452
 30
3533.636
 70
    32
  0
VERTEX
  8
T17SSILL
 62
3
 10
1539.785
 20
-2888.763
 30
3533.626
 70
    32
  0
SEQEND
  8
T17SSILL
  0
POLYLINE
  8
T17SSILL
 62
3
 66
     1
 70
     9
  0
VERTEX
  8
T17SSILL
 62
3
 10
1419.919
 20
-2764.313
 30
3534.018
 70
    32
  0
VERTEX
  8
T17SSILL
 62
3
 10
1338.636
 20
-2823.056
 30
3534.113
 70
    32
  0
VERTEX
  8
T17SSILL
 62
3
 10
1340.293
 20
-2834.429
 30
3534.096
 70
    32
  0
VERTEX
  8
T17SSILL
 62
3
 10
1353.045
 20
-2855.434
 30
3534.045
 70
    32
  0
VERTEX
  8
T17SSILL
 62
3
 10
1350.056
 20
-2864.277
 30
3534.040
 70
    32
  0
VERTEX
  8
T17SSILL
 62
3
 10
1350.072
 20
-2870.690
 30
3534.032
 70
    32
  0
VERTEX
  8
T17SSILL
 62
3
 10
1351.015
 20
-2872.859
 30
3534.028
 70
    32
  0
VERTEX
  8
T17SSILL
 62
3
 10
1356.604
 20
-2877.613
 30
3534.011
 70
    32
  0
VERTEX
  8
T17SSILL
 62
3
 10
1361.589
 20
-2888.623
 30
3533.988
 70
    32
  0
VERTEX
  8
T17SSILL
 62
3
 10
1372.898
 20
-2902.521
 30
3533.948
 70
    32
  0
VERTEX
  8
T17SSILL
 62
3
 10
1381.612
 20
-2908.939
 30
3533.923
 70
    32
  0
VERTEX
  8
T17SSILL
 62
3
 10
1400.222
 20
-2896.523
 30
3533.900
 70
    32
  0
VERTEX
  8
T17SSILL
 62
3
 10
1391.887
 20
-2876.298
 30
3533.941
 70
    32
  0
VERTEX
  8
T17SSILL
 62
3
 10
1378.817
 20
-2862.278
 30
3533.984
 70
    32
  0
VERTEX
  8
T17SSILL
 62
3
 10
1378.692
 20
-2861.051
 30
3533.986
 70
    32
  0
VERTEX
  8
T17SSILL
 62
3
 10
1385.414
 20
-2856.633
 30
3533.978
 70
    32
  0
VERTEX
  8
T17SSILL
 62
3
 10
1387.684
 20
-2856.126
 30
3533.974
 70
    32
  0
VERTEX
  8
T17SSILL
 62
3
 10
1406.505
 20
-2871.470
 30
3533.917
 70
    32
  0
VERTEX
  8
T17SSILL
 62
3
 10
1407.022
 20
-2879.977
 30
3533.906
 70
    32
  0
VERTEX
  8
T17SSILL
 62
3
 10
1412.591
 20
-2887.016
 30
3533.886
 70
    32
  0
VERTEX
  8
T17SSILL
 62
3
 10
1452.937
 20
-2858.049
 30
3533.839
 70
    32
  0
VERTEX
  8
T17SSILL
 62
3
 10
1452.686
 20
-2849.621
 30
3533.850
 70
    32
  0
VERTEX
  8
T17SSILL
 62
3
 10
1446.090
 20
-2831.717
 30
3533.884
 70
    32
  0
VERTEX
  8
T17SSILL
 62
3
 10
1438.409
 20
-2803.917
 30
3533.933
 70
    32
  0
VERTEX
  8
T17SSILL
 62
3
 10
1431.359
 20
-2788.487
 30
3533.966
 70
    32
  0
VERTEX
  8
T17SSILL
 62
3
 10
1426.449
 20
-2771.148
 30
3533.997
 70
    32
  0
VERTEX
  8
T17SSILL
 62
3
 10
1422.802
 20
-2766.687
 30
3534.010
 70
    32
  0
SEQEND
  8
T17SSILL
  0
POLYLINE
  8
T17SSILL
 62
3
 66
     1
 70
     9
  0
VERTEX
  8
T17SSILL
 62
3
 10
1550.944
 20
-2901.074
 30
3533.589
 70
    32
  0
VERTEX
  8
T17SSILL
 62
3
 10
1555.849
 20
-2897.385
 30
3533.583
 70
    32
  0
VERTEX
  8
T17SSILL
 62
3
 10
1554.577
 20
-2893.452
 30
3533.591
 70
    32
  0
VERTEX
  8
T17SSILL
 62
3
 10
1552.454
 20
-2892.521
 30
3533.596
 70
    32
  0
VERTEX
  8
T17SSILL
 62
3
 10
1543.423
 20
-2898.730
 30
3533.607
 70
    32
  0
VERTEX
  8
T17SSILL
 62
3
 10
1552.164
 20
-2912.198
 30
3533.573
 70
    32
  0
VERTEX
  8
T17SSILL
 62
3
 10
1560.740
 20
-2914.465
 30
3533.553
 70
    32
  0
SEQEND
  8
T17SSILL
  0
POLYLINE
  8
T17SSILL
 62
3
 66
     1
 70
     9
  0
VERTEX
  8
T17SSILL
 62
3
 10
1568.526
 20
-2887.851
 30
3533.569
 70
    32
  0
VERTEX
  8
T17SSILL
 62
3
 10
1560.307
 20
-2894.032
 30
3533.578
 70
    32
  0
VERTEX
  8
T17SSILL
 62
3
 10
1558.701
 20
-2887.939
 30
3533.589
 70
    32
  0
VERTEX
  8
T17SSILL
 62
3
 10
1560.872
 20
-2886.410
 30
3533.586
 70
    32
  0
VERTEX
  8
T17SSILL
 62
3
 10
1563.694
 20
-2887.154
 30
3533.580
 70
    32
  0
SEQEND
  8
T17SSILL
  0
POLYLINE
  8
T17SSILL
 62
3
 66
     1
 70
     9
  0
VERTEX
  8
T17SSILL
 62
3
 10
1604.843
 20
-2933.612
 30
3533.494
 70
    32
  0
VERTEX
  8
T17SSILL
 62
3
 10
1595.704
 20
-2929.577
 30
3533.490
 70
    32
  0
VERTEX
  8
T17SSILL
 62
3
 10
1589.780
 20
-2933.734
 30
3533.496
 70
    32
  0
VERTEX
  8
T17SSILL
 62
3
 10
1586.659
 20
-2928.608
 30
3533.490
 70
    32
  0
VERTEX
  8
T17SSILL
 62
3
 10
1571.901
 20
-2939.315
 30
3533.506
 70
    32
  0
VERTEX
  8
T17SSILL
 62
3
 10
1575.964
 20
-2944.095
 30
3533.512
 70
    32
  0
VERTEX
  8
T17SSILL
 62
3
 10
1579.893
 20
-2960.936
 30
3533.533
 70
    32
  0
VERTEX
  8
T17SSILL
 62
3
 10
1575.840
 20
-2963.517
 30
3533.537
 70
    32
  0
VERTEX
  8
T17SSILL
 62
3
 10
1567.736
 20
-2974.654
 30
3533.552
 70
    32
  0
VERTEX
  8
T17SSILL
 62
3
 10
1565.880
 20
-2989.031
 30
3533.571
 70
    32
  0
VERTEX
  8
T17SSILL
 62
3
 10
1564.842
 20
-2989.590
 30
3533.572
 70
    32
  0
VERTEX
  8
T17SSILL
 62
3
 10
1555.795
 20
-2983.796
 30
3533.566
 70
    32
  0
VERTEX
  8
T17SSILL
 62
3
 10
1555.741
 20
-2955.417
 30
3533.529
 70
    32
  0
VERTEX
  8
T17SSILL
 62
3
 10
1554.175
 20
-2953.004
 30
3533.526
 70
    32
  0
VERTEX
  8
T17SSILL
 62
3
 10
1542.671
 20
-2962.045
 30
3533.539
 70
    32
  0
VERTEX
  8
T17SSILL
 62
3
 10
1540.044
 20
-2968.274
 30
3533.548
 70
    32
  0
VERTEX
  8
T17SSILL
 62
3
 10
1539.878
 20
-2971.530
 30
3533.552
 70
    32
  0
VERTEX
  8
T17SSILL
 62
3
 10
1540.510
 20
-2978.013
 30
3533.561
 70
    32
  0
VERTEX
  8
T17SSILL
 62
3
 10
1543.940
 20
-2986.961
 30
3533.572
 70
    32
  0
VERTEX
  8
T17SSILL
 62
3
 10
1547.393
 20
-2990.812
 30
3533.576
 70
    32
  0
VERTEX
  8
T17SSILL
 62
3
 10
1553.723
 20
-2993.875
 30
3533.579
 70
    32
  0
VERTEX
  8
T17SSILL
 62
3
 10
1555.193
 20
-2996.028
 30
3533.582
 70
    32
  0
VERTEX
  8
T17SSILL
 62
3
 10
1650.986
 20
-3002.576
 30
3533.577
 70
    32
  0
VERTEX
  8
T17SSILL
 62
3
 10
1802.844
 20
-2894.283
 30
3533.416
 70
    32
  0
VERTEX
  8
T17SSILL
 62
3
 10
1807.895
 20
-2889.827
 30
3533.410
 70
    32
  0
VERTEX
  8
T17SSILL
 62
3
 10
1810.738
 20
-2884.998
 30
3533.403
 70
    32
  0
VERTEX
  8
T17SSILL
 62
3
 10
1817.362
 20
-2865.470
 30
3533.377
 70
    32
  0
VERTEX
  8
T17SSILL
 62
3
 10
1825.055
 20
-2855.312
 30
3533.363
 70
    32
  0
VERTEX
  8
T17SSILL
 62
3
 10
1830.013
 20
-2850.683
 30
3533.356
 70
    32
  0
VERTEX
  8
T17SSILL
 62
3
 10
1834.917
 20
-2838.324
 30
3533.339
 70
    32
  0
VERTEX
  8
T17SSILL
 62
3
 10
1833.937
 20
-2834.926
 30
3533.335
 70
    32
  0
VERTEX
  8
T17SSILL
 62
3
 10
1829.321
 20
-2830.407
 30
3533.330
 70
    32
  0
VERTEX
  8
T17SSILL
 62
3
 10
1831.720
 20
-2816.540
 30
3533.312
 70
    32
  0
VERTEX
  8
T17SSILL
 62
3
 10
1807.084
 20
-2785.906
 30
3533.275
 70
    32
  0
VERTEX
  8
T17SSILL
 62
3
 10
1795.161
 20
-2775.015
 30
3533.263
 70
    32
  0
VERTEX
  8
T17SSILL
 62
3
 10
1639.274
 20
-2892.565
 30
3533.436
 70
    32
  0
VERTEX
  8
T17SSILL
 62
3
 10
1639.050
 20
-2893.890
 30
3533.438
 70
    32
  0
VERTEX
  8
T17SSILL
 62
3
 10
1658.818
 20
-2920.364
 30
3533.470
 70
    32
  0
VERTEX
  8
T17SSILL
 62
3
 10
1652.279
 20
-2925.040
 30
3533.477
 70
    32
  0
VERTEX
  8
T17SSILL
 62
3
 10
1632.315
 20
-2897.869
 30
3533.444
 70
    32
  0
VERTEX
  8
T17SSILL
 62
3
 10
1612.899
 20
-2912.681
 30
3533.466
 70
    32
  0
VERTEX
  8
T17SSILL
 62
3
 10
1612.421
 20
-2920.252
 30
3533.476
 70
    32
  0
VERTEX
  8
T17SSILL
 62
3
 10
1613.620
 20
-2927.501
 30
3533.485
 70
    32
  0
VERTEX
  8
T17SSILL
 62
3
 10
1625.623
 20
-2941.650
 30
3533.502
 70
    32
  0
VERTEX
  8
T17SSILL
 62
3
 10
1620.702
 20
-2947.507
 30
3533.510
 70
    32
  0
VERTEX
  8
T17SSILL
 62
3
 10
1623.848
 20
-2964.635
 30
3533.532
 70
    32
  0
VERTEX
  8
T17SSILL
 62
3
 10
1635.824
 20
-2965.509
 30
3533.531
 70
    32
  0
VERTEX
  8
T17SSILL
 62
3
 10
1643.070
 20
-2969.862
 30
3533.536
 70
    32
  0
VERTEX
  8
T17SSILL
 62
3
 10
1644.721
 20
-2972.185
 30
3533.539
 70
    32
  0
VERTEX
  8
T17SSILL
 62
3
 10
1637.975
 20
-2981.700
 30
3533.552
 70
    32
  0
VERTEX
  8
T17SSILL
 62
3
 10
1628.016
 20
-2980.679
 30
3533.552
 70
    32
  0
VERTEX
  8
T17SSILL
 62
3
 10
1612.460
 20
-2983.514
 30
3533.558
 70
    32
  0
VERTEX
  8
T17SSILL
 62
3
 10
1607.341
 20
-2970.926
 30
3533.542
 70
    32
  0
VERTEX
  8
T17SSILL
 62
3
 10
1615.492
 20
-2964.357
 30
3533.533
 70
    32
  0
VERTEX
  8
T17SSILL
 62
3
 10
1613.525
 20
-2957.299
 30
3533.524
 70
    32
  0
VERTEX
  8
T17SSILL
 62
3
 10
1609.679
 20
-2955.041
 30
3533.521
 70
    32
  0
VERTEX
  8
T17SSILL
 62
3
 10
1610.578
 20
-2940.955
 30
3533.503
 70
    32
  0
VERTEX
  8
T17SSILL
 62
3
 10
1604.860
 20
-2933.632
 30
3533.494
 70
    32
  0
SEQEND
  8
T17SSILL
  0
POLYLINE
  8
T17SSILL
 62
3
 66
     1
 70
     9
  0
VERTEX
  8
T17SSILL
 62
3
 10
2183.377
 20
-3274.390
 30
3533.941
 70
    32
  0
VERTEX
  8
T17SSILL
 62
3
 10
2158.861
 20
-3268.443
 30
3533.936
 70
    32
  0
VERTEX
  8
T17SSILL
 62
3
 10
2182.751
 20
-3312.367
 30
3533.988
 70
    32
  0
VERTEX
  8
T17SSILL
 62
3
 10
2200.675
 20
-3297.599
 30
3533.968
 70
    32
  0
SEQEND
  8
T17SSILL
  0
POLYLINE
  8
T17SSILL
 62
3
 66
     1
 70
     9
  0
VERTEX
  8
T17SSILL
 62
3
 10
2135.163
 20
-3301.747
 30
3533.979
 70
    32
  0
VERTEX
  8
T17SSILL
 62
3
 10
2131.971
 20
-3300.787
 30
3533.978
 70
    32
  0
VERTEX
  8
T17SSILL
 62
3
 10
2117.574
 20
-3286.455
 30
3533.962
 70
    32
  0
VERTEX
  8
T17SSILL
 62
3
 10
2099.327
 20
-3246.141
 30
3533.914
 70
    32
  0
VERTEX
  8
T17SSILL
 62
3
 10
2081.290
 20
-3201.076
 30
3533.860
 70
    32
  0
VERTEX
  8
T17SSILL
 62
3
 10
2059.201
 20
-3158.592
 30
3533.799
 70
    32
  0
VERTEX
  8
T17SSILL
 62
3
 10
2053.706
 20
-3151.111
 30
3533.787
 70
    32
  0
VERTEX
  8
T17SSILL
 62
3
 10
2049.648
 20
-3147.629
 30
3533.780
 70
    32
  0
VERTEX
  8
T17SSILL
 62
3
 10
2042.598
 20
-3143.973
 30
3533.771
 70
    32
  0
VERTEX
  8
T17SSILL
 62
3
 10
2036.623
 20
-3143.975
 30
3533.767
 70
    32
  0
VERTEX
  8
T17SSILL
 62
3
 10
2026.690
 20
-3137.945
 30
3533.754
 70
    32
  0
VERTEX
  8
T17SSILL
 62
3
 10
2005.157
 20
-3105.285
 30
3533.701
 70
    32
  0
VERTEX
  8
T17SSILL
 62
3
 10
2008.082
 20
-3103.177
 30
3533.700
 70
    32
  0
VERTEX
  8
T17SSILL
 62
3
 10
1989.245
 20
-3072.546
 30
3533.652
 70
    32
  0
VERTEX
  8
T17SSILL
 62
3
 10
1981.339
 20
-3081.480
 30
3533.658
 70
    32
  0
VERTEX
  8
T17SSILL
 62
3
 10
1976.015
 20
-3094.467
 30
3533.670
 70
    32
  0
VERTEX
  8
T17SSILL
 62
3
 10
1974.639
 20
-3110.236
 30
3533.688
 70
    32
  0
VERTEX
  8
T17SSILL
 62
3
 10
1978.539
 20
-3126.112
 30
3533.710
 70
    32
  0
VERTEX
  8
T17SSILL
 62
3
 10
2099.797
 20
-3294.365
 30
3533.974
 70
    32
  0
VERTEX
  8
T17SSILL
 62
3
 10
2111.555
 20
-3284.965
 30
3533.961
 70
    32
  0
VERTEX
  8
T17SSILL
 62
3
 10
2115.941
 20
-3290.633
 30
3533.967
 70
    32
  0
VERTEX
  8
T17SSILL
 62
3
 10
2104.615
 20
-3299.757
 30
3533.980
 70
    32
  0
VERTEX
  8
T17SSILL
 62
3
 10
2114.447
 20
-3314.226
 30
3533.997
 70
    32
  0
VERTEX
  8
T17SSILL
 62
3
 10
2157.788
 20
-3317.943
 30
3533.997
 70
    32
  0
VERTEX
  8
T17SSILL
 62
3
 10
2146.558
 20
-3303.780
 30
3533.981
 70
    32
  0
VERTEX
  8
T17SSILL
 62
3
 10
2141.420
 20
-3302.351
 30
3533.979
 70
    32
  0
SEQEND
  8
T17SSILL
  0
POLYLINE
  8
T17SSILL
 62
3
 66
     1
 70
     9
  0
VERTEX
  8
T17SSILL
 62
3
 10
1968.020
 20
-3106.304
 30
3533.680
 70
    32
  0
VERTEX
  8
T17SSILL
 62
3
 10
1968.618
 20
-3096.884
 30
3533.669
 70
    32
  0
VERTEX
  8
T17SSILL
 62
3
 10
1972.727
 20
-3084.373
 30
3533.656
 70
    32
  0
VERTEX
  8
T17SSILL
 62
3
 10
1980.267
 20
-3072.023
 30
3533.646
 70
    32
  0
VERTEX
  8
T17SSILL
 62
3
 10
1985.545
 20
-3066.330
 30
3533.642
 70
    32
  0
VERTEX
  8
T17SSILL
 62
3
 10
1951.584
 20
-3011.722
 30
3533.555
 70
    32
  0
VERTEX
  8
T17SSILL
 62
3
 10
1896.132
 20
-3011.441
 30
3533.556
 70
    32
  0
VERTEX
  8
T17SSILL
 62
3
 10
1968.167
 20
-3111.220
 30
3533.686
 70
    32
  0
SEQEND
  8
T17SSILL
  0
POLYLINE
  8
T17SSILL
 62
3
 66
     1
 70
     9
  0
VERTEX
  8
T17SSILL
 62
3
 10
1772.448
 20
-2504.639
 30
3533.344
 70
    32
  0
VERTEX
  8
T17SSILL
 62
3
 10
1786.408
 20
-2524.560
 30
3533.321
 70
    32
  0
VERTEX
  8
T17SSILL
 62
3
 10
1789.248
 20
-2523.670
 30
3533.318
 70
    32
  0
VERTEX
  8
T17SSILL
 62
3
 10
1796.812
 20
-2517.368
 30
3533.311
 70
    32
  0
VERTEX
  8
T17SSILL
 62
3
 10
1793.654
 20
-2504.260
 30
3533.319
 70
    32
  0
VERTEX
  8
T17SSILL
 62
3
 10
1799.353
 20
-2501.777
 30
3533.314
 70
    32
  0
VERTEX
  8
T17SSILL
 62
3
 10
1805.919
 20
-2522.106
 30
3533.299
 70
    32
  0
VERTEX
  8
T17SSILL
 62
3
 10
1812.391
 20
-2533.106
 30
3533.288
 70
    32
  0
VERTEX
  8
T17SSILL
 62
3
 10
1816.770
 20
-2543.432
 30
3533.280
 70
    32
  0
VERTEX
  8
T17SSILL
 62
3
 10
1827.592
 20
-2581.738
 30
3533.254
 70
    32
  0
VERTEX
  8
T17SSILL
 62
3
 10
1832.445
 20
-2594.013
 30
3533.244
 70
    32
  0
VERTEX
  8
T17SSILL
 62
3
 10
1839.784
 20
-2605.477
 30
3533.232
 70
    32
  0
VERTEX
  8
T17SSILL
 62
3
 10
1848.803
 20
-2616.635
 30
3533.218
 70
    32
  0
VERTEX
  8
T17SSILL
 62
3
 10
1860.218
 20
-2639.825
 30
3533.205
 70
    32
  0
VERTEX
  8
T17SSILL
 62
3
 10
1862.188
 20
-2648.149
 30
3533.211
 70
    32
  0
VERTEX
  8
T17SSILL
 62
3
 10
1860.423
 20
-2651.532
 30
3533.222
 70
    32
  0
VERTEX
  8
T17SSILL
 62
3
 10
1845.106
 20
-2662.346
 30
3533.279
 70
    32
  0
VERTEX
  8
T17SSILL
 62
3
 10
1868.512
 20
-2694.860
 30
3533.192
 70
    32
  0
VERTEX
  8
T17SSILL
 62
3
 10
1883.753
 20
-2682.968
 30
3533.176
 70
    32
  0
VERTEX
  8
T17SSILL
 62
3
 10
1961.794
 20
-2631.800
 30
3533.201
 70
    32
  0
VERTEX
  8
T17SSILL
 62
3
 10
1973.430
 20
-2621.387
 30
3533.215
 70
    32
  0
VERTEX
  8
T17SSILL
 62
3
 10
1974.539
 20
-2613.059
 30
3533.220
 70
    32
  0
VERTEX
  8
T17SSILL
 62
3
 10
1967.320
 20
-2581.275
 30
3533.231
 70
    32
  0
VERTEX
  8
T17SSILL
 62
3
 10
1961.123
 20
-2576.265
 30
3533.229
 70
    32
  0
VERTEX
  8
T17SSILL
 62
3
 10
1893.493
 20
-2393.161
 30
3533.272
 70
    32
  0
VERTEX
  8
T17SSILL
 62
3
 10
1897.267
 20
-2387.106
 30
3533.278
 70
    32
  0
VERTEX
  8
T17SSILL
 62
3
 10
1860.504
 20
-2284.387
 30
3533.319
 70
    32
  0
VERTEX
  8
T17SSILL
 62
3
 10
1793.503
 20
-2151.889
 30
3533.440
 70
    32
  0
VERTEX
  8
T17SSILL
 62
3
 10
1744.764
 20
-2059.316
 30
3533.528
 70
    32
  0
VERTEX
  8
T17SSILL
 62
3
 10
1737.114
 20
-2053.254
 30
3533.539
 70
    32
  0
VERTEX
  8
T17SSILL
 62
3
 10
1729.318
 20
-2049.482
 30
3533.549
 70
    32
  0
VERTEX
  8
T17SSILL
 62
3
 10
1721.661
 20
-2049.669
 30
3533.558
 70
    32
  0
VERTEX
  8
T17SSILL
 62
3
 10
1715.256
 20
-2051.337
 30
3533.564
 70
    32
  0
VERTEX
  8
T17SSILL
 62
3
 10
1520.742
 20
-2189.887
 30
3533.739
 70
    32
  0
VERTEX
  8
T17SSILL
 62
3
 10
1567.884
 20
-2335.061
 30
3533.662
 70
    32
  0
VERTEX
  8
T17SSILL
 62
3
 10
1593.876
 20
-2316.498
 30
3533.612
 70
    32
  0
VERTEX
  8
T17SSILL
 62
3
 10
1593.234
 20
-2307.703
 30
3533.616
 70
    32
  0
VERTEX
  8
T17SSILL
 62
3
 10
1580.677
 20
-2289.908
 30
3533.636
 70
    32
  0
VERTEX
  8
T17SSILL
 62
3
 10
1586.872
 20
-2285.689
 30
3533.631
 70
    32
  0
VERTEX
  8
T17SSILL
 62
3
 10
1602.551
 20
-2306.613
 30
3533.605
 70
    32
  0
VERTEX
  8
T17SSILL
 62
3
 10
1609.236
 20
-2306.174
 30
3533.598
 70
    32
  0
VERTEX
  8
T17SSILL
 62
3
 10
1623.262
 20
-2328.617
 30
3533.574
 70
    32
  0
VERTEX
  8
T17SSILL
 62
3
 10
1635.344
 20
-2350.468
 30
3533.553
 70
    32
  0
VERTEX
  8
T17SSILL
 62
3
 10
1636.404
 20
-2357.497
 30
3533.549
 70
    32
  0
VERTEX
  8
T17SSILL
 62
3
 10
1641.634
 20
-2367.025
 30
3533.540
 70
    32
  0
VERTEX
  8
T17SSILL
 62
3
 10
1647.579
 20
-2384.115
 30
3533.527
 70
    32
  0
VERTEX
  8
T17SSILL
 62
3
 10
1648.887
 20
-2391.296
 30
3533.524
 70
    32
  0
VERTEX
  8
T17SSILL
 62
3
 10
1642.505
 20
-2400.115
 30
3533.528
 70
    32
  0
VERTEX
  8
T17SSILL
 62
3
 10
1642.260
 20
-2394.836
 30
3533.530
 70
    32
  0
VERTEX
  8
T17SSILL
 62
3
 10
1626.003
 20
-2376.825
 30
3533.555
 70
    32
  0
VERTEX
  8
T17SSILL
 62
3
 10
1622.026
 20
-2368.865
 30
3533.562
 70
    32
  0
VERTEX
  8
T17SSILL
 62
3
 10
1618.281
 20
-2351.747
 30
3533.572
 70
    32
  0
VERTEX
  8
T17SSILL
 62
3
 10
1613.196
 20
-2339.840
 30
3533.582
 70
    32
  0
VERTEX
  8
T17SSILL
 62
3
 10
1608.793
 20
-2332.943
 30
3533.589
 70
    32
  0
VERTEX
  8
T17SSILL
 62
3
 10
1606.133
 20
-2331.481
 30
3533.593
 70
    32
  0
VERTEX
  8
T17SSILL
 62
3
 10
1601.906
 20
-2331.448
 30
3533.598
 70
    32
  0
VERTEX
  8
T17SSILL
 62
3
 10
1595.810
 20
-2322.988
 30
3533.608
 70
    32
  0
VERTEX
  8
T17SSILL
 62
3
 10
1513.479
 20
-2382.517
 30
3533.896
 70
    32
  0
VERTEX
  8
T17SSILL
 62
3
 10
1586.457
 20
-2510.538
 30
3533.922
 70
    32
  0
VERTEX
  8
T17SSILL
 62
3
 10
1649.668
 20
-2463.408
 30
3533.596
 70
    32
  0
VERTEX
  8
T17SSILL
 62
3
 10
1734.487
 20
-2452.971
 30
3533.405
 70
    32
  0
SEQEND
  8
T17SSILL
  0
POLYLINE
  8
T17SSILL
 62
3
 66
     1
 70
     9
  0
VERTEX
  8
T17SSILL
 62
3
 10
56.984
 20
-1463.782
 30
3536.724
 70
    32
  0
VERTEX
  8
T17SSILL
 62
3
 10
53.991
 20
-1459.319
 30
3536.724
 70
    32
  0
VERTEX
  8
T17SSILL
 62
3
 10
57.549
 20
-1457.024
 30
3536.711
 70
    32
  0
VERTEX
  8
T17SSILL
 62
3
 10
67.970
 20
-1462.202
 30
3536.694
 70
    32
  0
VERTEX
  8
T17SSILL
 62
3
 10
71.337
 20
-1465.711
 30
3536.692
 70
    32
  0
VERTEX
  8
T17SSILL
 62
3
 10
46.573
 20
-1491.259
 30
3536.837
 70
    32
  0
VERTEX
  8
T17SSILL
 62
3
 10
37.132
 20
-1477.624
 30
3536.799
 70
    32
  0
VERTEX
  8
T17SSILL
 62
3
 10
47.377
 20
-1470.481
 30
3536.759
 70
    32
  0
SEQEND
  8
T17SSILL
  0
POLYLINE
  8
T17SSILL
 62
3
 66
     1
 70
     9
  0
VERTEX
  8
T17SSILL
 62
3
 10
2159.461
 20
-4579.064
 30
3535.557
 70
    32
  0
VERTEX
  8
T17SSILL
 62
3
 10
2159.354
 20
-4573.438
 30
3535.551
 70
    32
  0
VERTEX
  8
T17SSILL
 62
3
 10
2171.329
 20
-4571.563
 30
3535.547
 70
    32
  0
VERTEX
  8
T17SSILL
 62
3
 10
2171.025
 20
-4538.867
 30
3535.507
 70
    32
  0
VERTEX
  8
T17SSILL
 62
3
 10
2123.172
 20
-4585.827
 30
3535.568
 70
    32
  0
VERTEX
  8
T17SSILL
 62
3
 10
2123.345
 20
-4607.623
 30
3535.595
 70
    32
  0
VERTEX
  8
T17SSILL
 62
3
 10
2171.064
 20
-4607.679
 30
3535.557
 70
    32
  0
VERTEX
  8
T17SSILL
 62
3
 10
2171.224
 20
-4580.174
 30
3535.554
 70
    32
  0
VERTEX
  8
T17SSILL
 62
3
 10
2168.745
 20
-4579.940
 30
3535.558
 70
    32
  0
SEQEND
  8
T17SSILL
  0
POLYLINE
  8
T17SSILL
 62
3
 66
     1
 70
     9
  0
VERTEX
  8
T17SSILL
 62
3
 10
717.692
 20
-3359.742
 30
3534.728
 70
    32
  0
VERTEX
  8
T17SSILL
 62
3
 10
732.749
 20
-3349.953
 30
3534.709
 70
    32
  0
VERTEX
  8
T17SSILL
 62
3
 10
733.416
 20
-3345.829
 30
3534.713
 70
    32
  0
VERTEX
  8
T17SSILL
 62
3
 10
727.072
 20
-3332.426
 30
3534.742
 70
    32
  0
VERTEX
  8
T17SSILL
 62
3
 10
725.176
 20
-3317.973
 30
3534.763
 70
    32
  0
VERTEX
  8
T17SSILL
 62
3
 10
717.085
 20
-3299.100
 30
3534.802
 70
    32
  0
VERTEX
  8
T17SSILL
 62
3
 10
714.266
 20
-3287.736
 30
3534.821
 70
    32
  0
VERTEX
  8
T17SSILL
 62
3
 10
711.837
 20
-3283.817
 30
3534.831
 70
    32
  0
VERTEX
  8
T17SSILL
 62
3
 10
702.400
 20
-3275.448
 30
3534.860
 70
    32
  0
VERTEX
  8
T17SSILL
 62
3
 10
699.372
 20
-3270.205
 30
3534.872
 70
    32
  0
VERTEX
  8
T17SSILL
 62
3
 10
699.014
 20
-3264.646
 30
3534.880
 70
    32
  0
VERTEX
  8
T17SSILL
 62
3
 10
684.276
 20
-3268.452
 30
3534.905
 70
    32
  0
VERTEX
  8
T17SSILL
 62
3
 10
692.830
 20
-3299.544
 30
3534.850
 70
    32
  0
VERTEX
  8
T17SSILL
 62
3
 10
705.035
 20
-3293.248
 30
3534.833
 70
    32
  0
VERTEX
  8
T17SSILL
 62
3
 10
710.578
 20
-3308.717
 30
3534.803
 70
    32
  0
VERTEX
  8
T17SSILL
 62
3
 10
713.140
 20
-3320.651
 30
3534.784
 70
    32
  0
VERTEX
  8
T17SSILL
 62
3
 10
699.849
 20
-3323.873
 30
3534.807
 70
    32
  0
VERTEX
  8
T17SSILL
 62
3
 10
700.215
 20
-3327.740
 30
3534.802
 70
    32
  0
VERTEX
  8
T17SSILL
 62
3
 10
707.270
 20
-3342.041
 30
3534.770
 70
    32
  0
VERTEX
  8
T17SSILL
 62
3
 10
719.211
 20
-3336.405
 30
3534.753
 70
    32
  0
VERTEX
  8
T17SSILL
 62
3
 10
720.941
 20
-3342.562
 30
3534.742
 70
    32
  0
VERTEX
  8
T17SSILL
 62
3
 10
711.026
 20
-3347.493
 30
3534.756
 70
    32
  0
SEQEND
  8
T17SSILL
  0
POLYLINE
  8
T17SSILL
 62
3
 66
     1
 70
     9
  0
VERTEX
  8
T17SSILL
 62
3
 10
1349.682
 20
-2385.355
 30
3534.519
 70
    32
  0
VERTEX
  8
T17SSILL
 62
3
 10
1352.955
 20
-2400.102
 30
3534.543
 70
    32
  0
VERTEX
  8
T17SSILL
 62
3
 10
1354.929
 20
-2402.982
 30
3534.542
 70
    32
  0
VERTEX
  8
T17SSILL
 62
3
 10
1359.653
 20
-2400.631
 30
3534.518
 70
    32
  0
VERTEX
  8
T17SSILL
 62
3
 10
1360.760
 20
-2404.579
 30
3534.524
 70
    32
  0
VERTEX
  8
T17SSILL
 62
3
 10
1359.174
 20
-2417.981
 30
3534.556
 70
    32
  0
VERTEX
  8
T17SSILL
 62
3
 10
1356.010
 20
-2425.153
 30
3534.554
 70
    32
  0
VERTEX
  8
T17SSILL
 62
3
 10
1338.410
 20
-2439.204
 30
3534.573
 70
    32
  0
VERTEX
  8
T17SSILL
 62
3
 10
1329.136
 20
-2443.638
 30
3534.587
 70
    32
  0
VERTEX
  8
T17SSILL
 62
3
 10
1319.189
 20
-2443.680
 30
3534.607
 70
    32
  0
VERTEX
  8
T17SSILL
 62
3
 10
1300.680
 20
-2401.488
 30
3534.695
 70
    32
  0
VERTEX
  8
T17SSILL
 62
3
 10
1347.456
 20
-2378.286
 30
3534.510
 70
    32
  0
SEQEND
  8
T17SSILL
  0
POLYLINE
  8
T17SSILL
 62
7
 66
     1
 70
     9
  0
VERTEX
  8
T17SSILL
 62
7
 10
-437.432
 20
-751.418
 30
3536.280
 70
    32
  0
VERTEX
  8
T17SSILL
 62
7
 10
-444.318
 20
-756.637
 30
3538.023
 70
    32
  0
VERTEX
  8
T17SSILL
 62
7
 10
-464.410
 20
-762.532
 30
3542.368
 70
    32
  0
VERTEX
  8
T17SSILL
 62
7
 10
-459.757
 20
-772.248
 30
3542.312
 70
    32
  0
VERTEX
  8
T17SSILL
 62
7
 10
-431.277
 20
-765.490
 30
3536.311
 70
    32
  0
SEQEND
  8
T17SSILL
  0
POLYLINE
  8
T17SSILL
 62
3
 66
     1
 70
     9
  0
VERTEX
  8
T17SSILL
 62
3
 10
990.625
 20
-2394.097
 30
3535.332
 70
    32
  0
VERTEX
  8
T17SSILL
 62
3
 10
992.740
 20
-2332.605
 30
3535.401
 70
    32
  0
VERTEX
  8
T17SSILL
 62
3
 10
985.584
 20
-2332.788
 30
3535.416
 70
    32
  0
VERTEX
  8
T17SSILL
 62
3
 10
982.763
 20
-2393.305
 30
3535.349
 70
    32
  0
VERTEX
  8
T17SSILL
 62
3
 10
981.459
 20
-2394.554
 30
3535.350
 70
    32
  0
VERTEX
  8
T17SSILL
 62
3
 10
1013.923
 20
-2433.484
 30
3535.238
 70
    32
  0
VERTEX
  8
T17SSILL
 62
3
 10
1064.763
 20
-2484.058
 30
3535.074
 70
    32
  0
VERTEX
  8
T17SSILL
 62
3
 10
1074.973
 20
-2497.394
 30
3535.037
 70
    32
  0
VERTEX
  8
T17SSILL
 62
3
 10
1072.840
 20
-2502.616
 30
3535.035
 70
    32
  0
VERTEX
  8
T17SSILL
 62
3
 10
1005.148
 20
-2553.658
 30
3535.111
 70
    32
  0
VERTEX
  8
T17SSILL
 62
3
 10
827.853
 20
-2680.313
 30
3535.319
 70
    32
  0
VERTEX
  8
T17SSILL
 62
3
 10
816.728
 20
-2670.210
 30
3535.353
 70
    32
  0
VERTEX
  8
T17SSILL
 62
3
 10
812.892
 20
-2663.583
 30
3535.369
 70
    32
  0
VERTEX
  8
T17SSILL
 62
3
 10
824.572
 20
-2653.965
 30
3535.357
 70
    32
  0
VERTEX
  8
T17SSILL
 62
3
 10
829.164
 20
-2651.790
 30
3535.350
 70
    32
  0
VERTEX
  8
T17SSILL
 62
3
 10
826.047
 20
-2642.525
 30
3535.368
 70
    32
  0
VERTEX
  8
T17SSILL
 62
3
 10
828.928
 20
-2631.799
 30
3535.375
 70
    32
  0
VERTEX
  8
T17SSILL
 62
3
 10
806.910
 20
-2617.053
 30
3535.437
 70
    32
  0
VERTEX
  8
T17SSILL
 62
3
 10
805.514
 20
-2614.844
 30
3535.443
 70
    32
  0
VERTEX
  8
T17SSILL
 62
3
 10
789.100
 20
-2620.912
 30
3535.469
 70
    32
  0
VERTEX
  8
T17SSILL
 62
3
 10
791.169
 20
-2643.732
 30
3535.437
 70
    32
  0
VERTEX
  8
T17SSILL
 62
3
 10
789.429
 20
-2655.257
 30
3535.427
 70
    32
  0
VERTEX
  8
T17SSILL
 62
3
 10
783.863
 20
-2658.307
 30
3535.434
 70
    32
  0
VERTEX
  8
T17SSILL
 62
3
 10
779.818
 20
-2657.315
 30
3535.444
 70
    32
  0
VERTEX
  8
T17SSILL
 62
3
 10
774.655
 20
-2651.737
 30
3535.461
 70
    32
  0
VERTEX
  8
T17SSILL
 62
3
 10
773.972
 20
-2648.123
 30
3535.467
 70
    32
  0
VERTEX
  8
T17SSILL
 62
3
 10
777.042
 20
-2635.020
 30
3535.476
 70
    32
  0
VERTEX
  8
T17SSILL
 62
3
 10
763.630
 20
-2609.405
 30
3535.534
 70
    32
  0
VERTEX
  8
T17SSILL
 62
3
 10
741.113
 20
-2589.725
 30
3535.603
 70
    32
  0
VERTEX
  8
T17SSILL
 62
3
 10
739.482
 20
-2582.406
 30
3535.615
 70
    32
  0
VERTEX
  8
T17SSILL
 62
3
 10
731.203
 20
-2567.564
 30
3535.650
 70
    32
  0
VERTEX
  8
T17SSILL
 62
3
 10
724.377
 20
-2560.216
 30
3535.672
 70
    32
  0
VERTEX
  8
T17SSILL
 62
3
 10
718.762
 20
-2556.573
 30
3535.688
 70
    32
  0
VERTEX
  8
T17SSILL
 62
3
 10
705.662
 20
-2553.062
 30
3535.719
 70
    32
  0
VERTEX
  8
T17SSILL
 62
3
 10
698.110
 20
-2549.408
 30
3535.739
 70
    32
  0
VERTEX
  8
T17SSILL
 62
3
 10
690.218
 20
-2543.726
 30
3535.761
 70
    32
  0
VERTEX
  8
T17SSILL
 62
3
 10
682.081
 20
-2540.790
 30
3535.781
 70
    32
  0
VERTEX
  8
T17SSILL
 62
3
 10
671.181
 20
-2540.790
 30
3535.803
 70
    32
  0
VERTEX
  8
T17SSILL
 62
3
 10
662.024
 20
-2546.292
 30
3535.815
 70
    32
  0
VERTEX
  8
T17SSILL
 62
3
 10
642.293
 20
-2562.380
 30
3535.836
 70
    32
  0
VERTEX
  8
T17SSILL
 62
3
 10
635.405
 20
-2565.775
 30
3535.846
 70
    32
  0
VERTEX
  8
T17SSILL
 62
3
 10
637.751
 20
-2571.248
 30
3535.835
 70
    32
  0
VERTEX
  8
T17SSILL
 62
3
 10
672.759
 20
-2547.763
 30
3535.792
 70
    32
  0
VERTEX
  8
T17SSILL
 62
3
 10
680.064
 20
-2548.422
 30
3535.776
 70
    32
  0
VERTEX
  8
T17SSILL
 62
3
 10
686.740
 20
-2551.279
 30
3535.759
 70
    32
  0
VERTEX
  8
T17SSILL
 62
3
 10
701.314
 20
-2558.761
 30
3535.721
 70
    32
  0
VERTEX
  8
T17SSILL
 62
3
 10
720.730
 20
-2566.447
 30
3535.672
 70
    32
  0
VERTEX
  8
T17SSILL
 62
3
 10
725.986
 20
-2571.232
 30
3535.656
 70
    32
  0
VERTEX
  8
T17SSILL
 62
3
 10
735.453
 20
-2593.831
 30
3535.610
 70
    32
  0
VERTEX
  8
T17SSILL
 62
3
 10
747.703
 20
-2607.287
 30
3535.569
 70
    32
  0
VERTEX
  8
T17SSILL
 62
3
 10
764.523
 20
-2622.355
 30
3535.517
 70
    32
  0
VERTEX
  8
T17SSILL
 62
3
 10
770.174
 20
-2634.980
 30
3535.490
 70
    32
  0
VERTEX
  8
T17SSILL
 62
3
 10
769.254
 20
-2641.755
 30
3535.484
 70
    32
  0
VERTEX
  8
T17SSILL
 62
3
 10
767.019
 20
-2647.378
 30
3535.482
 70
    32
  0
VERTEX
  8
T17SSILL
 62
3
 10
758.553
 20
-2649.530
 30
3535.496
 70
    32
  0
VERTEX
  8
T17SSILL
 62
3
 10
754.080
 20
-2646.510
 30
3535.509
 70
    32
  0
VERTEX
  8
T17SSILL
 62
3
 10
744.981
 20
-2651.477
 30
3535.521
 70
    32
  0
VERTEX
  8
T17SSILL
 62
3
 10
736.686
 20
-2669.657
 30
3535.516
 70
    32
  0
VERTEX
  8
T17SSILL
 62
3
 10
737.596
 20
-2679.613
 30
3535.503
 70
    32
  0
VERTEX
  8
T17SSILL
 62
3
 10
749.642
 20
-2713.057
 30
3535.438
 70
    32
  0
VERTEX
  8
T17SSILL
 62
3
 10
758.707
 20
-2729.137
 30
3535.400
 70
    32
  0
VERTEX
  8
T17SSILL
 62
3
 10
753.752
 20
-2733.247
 30
3535.406
 70
    32
  0
VERTEX
  8
T17SSILL
 62
3
 10
757.851
 20
-2740.051
 30
3535.389
 70
    32
  0
VERTEX
  8
T17SSILL
 62
3
 10
762.359
 20
-2737.171
 30
3535.383
 70
    32
  0
VERTEX
  8
T17SSILL
 62
3
 10
779.333
 20
-2771.173
 30
3535.308
 70
    32
  0
VERTEX
  8
T17SSILL
 62
3
 10
784.808
 20
-2768.475
 30
3535.300
 70
    32
  0
VERTEX
  8
T17SSILL
 62
3
 10
785.879
 20
-2766.103
 30
3535.301
 70
    32
  0
VERTEX
  8
T17SSILL
 62
3
 10
784.803
 20
-2754.209
 30
3535.317
 70
    32
  0
VERTEX
  8
T17SSILL
 62
3
 10
789.570
 20
-2752.211
 30
3535.310
 70
    32
  0
VERTEX
  8
T17SSILL
 62
3
 10
782.502
 20
-2740.987
 30
3535.338
 70
    32
  0
VERTEX
  8
T17SSILL
 62
3
 10
780.180
 20
-2731.375
 30
3535.354
 70
    32
  0
VERTEX
  8
T17SSILL
 62
3
 10
780.571
 20
-2724.861
 30
3535.361
 70
    32
  0
VERTEX
  8
T17SSILL
 62
3
 10
782.527
 20
-2721.614
 30
3535.361
 70
    32
  0
VERTEX
  8
T17SSILL
 62
3
 10
796.051
 20
-2712.887
 30
3535.344
 70
    32
  0
VERTEX
  8
T17SSILL
 62
3
 10
807.731
 20
-2733.472
 30
3535.296
 70
    32
  0
VERTEX
  8
T17SSILL
 62
3
 10
813.109
 20
-2732.359
 30
3535.286
 70
    32
  0
VERTEX
  8
T17SSILL
 62
3
 10
818.014
 20
-2736.790
 30
3535.271
 70
    32
  0
VERTEX
  8
T17SSILL
 62
3
 10
821.809
 20
-2735.491
 30
3535.265
 70
    32
  0
VERTEX
  8
T17SSILL
 62
3
 10
831.373
 20
-2741.271
 30
3535.239
 70
    32
  0
VERTEX
  8
T17SSILL
 62
3
 10
838.710
 20
-2736.470
 30
3535.229
 70
    32
  0
VERTEX
  8
T17SSILL
 62
3
 10
848.464
 20
-2739.961
 30
3535.206
 70
    32
  0
VERTEX
  8
T17SSILL
 62
3
 10
874.605
 20
-2757.373
 30
3535.132
 70
    32
  0
VERTEX
  8
T17SSILL
 62
3
 10
886.900
 20
-2763.168
 30
3535.100
 70
    32
  0
VERTEX
  8
T17SSILL
 62
3
 10
792.991
 20
-2830.252
 30
3535.210
 70
    32
  0
VERTEX
  8
T17SSILL
 62
3
 10
797.273
 20
-2835.824
 30
3535.194
 70
    32
  0
VERTEX
  8
T17SSILL
 62
3
 10
893.658
 20
-2766.994
 30
3535.082
 70
    32
  0
VERTEX
  8
T17SSILL
 62
3
 10
906.036
 20
-2773.582
 30
3535.049
 70
    32
  0
VERTEX
  8
T17SSILL
 62
3
 10
909.776
 20
-2766.471
 30
3535.050
 70
    32
  0
VERTEX
  8
T17SSILL
 62
3
 10
880.267
 20
-2752.826
 30
3535.126
 70
    32
  0
VERTEX
  8
T17SSILL
 62
3
 10
851.761
 20
-2733.288
 30
3535.207
 70
    32
  0
VERTEX
  8
T17SSILL
 62
3
 10
838.752
 20
-2729.338
 30
3535.238
 70
    32
  0
VERTEX
  8
T17SSILL
 62
3
 10
835.774
 20
-2726.590
 30
3535.247
 70
    32
  0
VERTEX
  8
T17SSILL
 62
3
 10
822.077
 20
-2719.642
 30
3535.283
 70
    32
  0
VERTEX
  8
T17SSILL
 62
3
 10
811.485
 20
-2708.749
 30
3535.318
 70
    32
  0
VERTEX
  8
T17SSILL
 62
3
 10
809.937
 20
-2702.400
 30
3535.329
 70
    32
  0
VERTEX
  8
T17SSILL
 62
3
 10
834.248
 20
-2685.986
 30
3535.299
 70
    32
  0
VERTEX
  8
T17SSILL
 62
3
 10
849.448
 20
-2707.121
 30
3535.243
 70
    32
  0
VERTEX
  8
T17SSILL
 62
3
 10
855.995
 20
-2701.787
 30
3535.236
 70
    32
  0
VERTEX
  8
T17SSILL
 62
3
 10
840.088
 20
-2681.265
 30
3535.293
 70
    32
  0
VERTEX
  8
T17SSILL
 62
3
 10
1012.780
 20
-2558.634
 30
3535.090
 70
    32
  0
VERTEX
  8
T17SSILL
 62
3
 10
1277.227
 20
-2364.994
 30
3534.746
 70
    32
  0
VERTEX
  8
T17SSILL
 62
3
 10
1307.813
 20
-2435.465
 30
3534.640
 70
    32
  0
VERTEX
  8
T17SSILL
 62
3
 10
1311.037
 20
-2439.648
 30
3534.628
 70
    32
  0
VERTEX
  8
T17SSILL
 62
3
 10
1310.638
 20
-2449.602
 30
3534.617
 70
    32
  0
VERTEX
  8
T17SSILL
 62
3
 10
1318.858
 20
-2458.826
 30
3534.589
 70
    32
  0
VERTEX
  8
T17SSILL
 62
3
 10
1331.541
 20
-2452.499
 30
3534.571
 70
    32
  0
VERTEX
  8
T17SSILL
 62
3
 10
1360.404
 20
-2431.258
 30
3534.538
 70
    32
  0
VERTEX
  8
T17SSILL
 62
3
 10
1363.527
 20
-2454.723
 30
3534.504
 70
    32
  0
VERTEX
  8
T17SSILL
 62
3
 10
1360.619
 20
-2461.276
 30
3534.502
 70
    32
  0
VERTEX
  8
T17SSILL
 62
3
 10
1365.227
 20
-2477.150
 30
3534.473
 70
    32
  0
VERTEX
  8
T17SSILL
 62
3
 10
1361.971
 20
-2483.971
 30
3534.472
 70
    32
  0
VERTEX
  8
T17SSILL
 62
3
 10
1350.540
 20
-2498.558
 30
3534.477
 70
    32
  0
VERTEX
  8
T17SSILL
 62
3
 10
1322.728
 20
-2515.586
 30
3534.513
 70
    32
  0
VERTEX
  8
T17SSILL
 62
3
 10
1336.854
 20
-2557.859
 30
3534.434
 70
    32
  0
VERTEX
  8
T17SSILL
 62
3
 10
1334.252
 20
-2565.191
 30
3534.431
 70
    32
  0
VERTEX
  8
T17SSILL
 62
3
 10
1246.425
 20
-2629.241
 30
3534.532
 70
    32
  0
VERTEX
  8
T17SSILL
 62
3
 10
1240.938
 20
-2626.696
 30
3534.546
 70
    32
  0
VERTEX
  8
T17SSILL
 62
3
 10
1234.964
 20
-2621.173
 30
3534.565
 70
    32
  0
VERTEX
  8
T17SSILL
 62
3
 10
1229.450
 20
-2611.515
 30
3534.587
 70
    32
  0
VERTEX
  8
T17SSILL
 62
3
 10
1227.033
 20
-2603.387
 30
3534.602
 70
    32
  0
VERTEX
  8
T17SSILL
 62
3
 10
1225.993
 20
-2577.322
 30
3534.635
 70
    32
  0
VERTEX
  8
T17SSILL
 62
3
 10
1223.255
 20
-2565.599
 30
3534.655
 70
    32
  0
VERTEX
  8
T17SSILL
 62
3
 10
1216.889
 20
-2584.496
 30
3534.645
 70
    32
  0
VERTEX
  8
T17SSILL
 62
3
 10
1211.730
 20
-2591.255
 30
3534.648
 70
    32
  0
VERTEX
  8
T17SSILL
 62
3
 10
1192.526
 20
-2609.132
 30
3534.665
 70
    32
  0
VERTEX
  8
T17SSILL
 62
3
 10
1193.053
 20
-2614.481
 30
3534.658
 70
    32
  0
VERTEX
  8
T17SSILL
 62
3
 10
1196.440
 20
-2622.944
 30
3534.641
 70
    32
  0
VERTEX
  8
T17SSILL
 62
3
 10
1206.866
 20
-2632.170
 30
3534.608
 70
    32
  0
VERTEX
  8
T17SSILL
 62
3
 10
1215.276
 20
-2630.891
 30
3534.593
 70
    32
  0
VERTEX
  8
T17SSILL
 62
3
 10
1224.411
 20
-2625.649
 30
3534.581
 70
    32
  0
VERTEX
  8
T17SSILL
 62
3
 10
1231.916
 20
-2638.874
 30
3534.550
 70
    32
  0
VERTEX
  8
T17SSILL
 62
3
 10
1209.008
 20
-2655.759
 30
3534.576
 70
    32
  0
VERTEX
  8
T17SSILL
 62
3
 10
1201.358
 20
-2649.824
 30
3534.598
 70
    32
  0
VERTEX
  8
T17SSILL
 62
3
 10
1197.847
 20
-2644.525
 30
3534.612
 70
    32
  0
VERTEX
  8
T17SSILL
 62
3
 10
1191.862
 20
-2649.101
 30
3534.619
 70
    32
  0
VERTEX
  8
T17SSILL
 62
3
 10
1200.362
 20
-2658.710
 30
3534.590
 70
    32
  0
VERTEX
  8
T17SSILL
 62
3
 10
1200.675
 20
-2661.779
 30
3534.585
 70
    32
  0
VERTEX
  8
T17SSILL
 62
3
 10
1171.514
 20
-2682.980
 30
3534.619
 70
    32
  0
VERTEX
  8
T17SSILL
 62
3
 10
1174.140
 20
-2689.919
 30
3534.606
 70
    32
  0
VERTEX
  8
T17SSILL
 62
3
 10
1206.316
 20
-2666.906
 30
3534.568
 70
    32
  0
VERTEX
  8
T17SSILL
 62
3
 10
1212.010
 20
-2675.172
 30
3534.546
 70
    32
  0
VERTEX
  8
T17SSILL
 62
3
 10
1218.394
 20
-2671.203
 30
3534.538
 70
    32
  0
VERTEX
  8
T17SSILL
 62
3
 10
1212.751
 20
-2661.706
 30
3534.561
 70
    32
  0
VERTEX
  8
T17SSILL
 62
3
 10
1231.682
 20
-2648.314
 30
3534.539
 70
    32
  0
VERTEX
  8
T17SSILL
 62
3
 10
1235.442
 20
-2647.675
 30
3534.532
 70
    32
  0
VERTEX
  8
T17SSILL
 62
3
 10
1238.375
 20
-2648.817
 30
3534.525
 70
    32
  0
VERTEX
  8
T17SSILL
 62
3
 10
1245.834
 20
-2660.281
 30
3534.496
 70
    32
  0
VERTEX
  8
T17SSILL
 62
3
 10
1261.649
 20
-2695.660
 30
3534.421
 70
    32
  0
VERTEX
  8
T17SSILL
 62
3
 10
1259.799
 20
-2698.438
 30
3534.422
 70
    32
  0
VERTEX
  8
T17SSILL
 62
3
 10
1274.709
 20
-2724.090
 30
3534.361
 70
    32
  0
VERTEX
  8
T17SSILL
 62
3
 10
1274.148
 20
-2728.852
 30
3534.356
 70
    32
  0
VERTEX
  8
T17SSILL
 62
3
 10
1273.009
 20
-2734.861
 30
3534.351
 70
    32
  0
VERTEX
  8
T17SSILL
 62
3
 10
1270.797
 20
-2737.299
 30
3534.353
 70
    32
  0
VERTEX
  8
T17SSILL
 62
3
 10
1209.878
 20
-2780.586
 30
3534.424
 70
    32
  0
VERTEX
  8
T17SSILL
 62
3
 10
1217.116
 20
-2796.450
 30
3534.391
 70
    32
  0
VERTEX
  8
T17SSILL
 62
3
 10
1233.241
 20
-2809.765
 30
3534.342
 70
    32
  0
VERTEX
  8
T17SSILL
 62
3
 10
1252.357
 20
-2829.141
 30
3534.280
 70
    32
  0
VERTEX
  8
T17SSILL
 62
3
 10
1257.733
 20
-2829.684
 30
3534.269
 70
    32
  0
VERTEX
  8
T17SSILL
 62
3
 10
1277.878
 20
-2836.376
 30
3534.220
 70
    32
  0
VERTEX
  8
T17SSILL
 62
3
 10
1290.006
 20
-2842.341
 30
3534.188
 70
    32
  0
VERTEX
  8
T17SSILL
 62
3
 10
1291.489
 20
-2844.933
 30
3534.182
 70
    32
  0
VERTEX
  8
T17SSILL
 62
3
 10
1290.545
 20
-2848.652
 30
3534.179
 70
    32
  0
VERTEX
  8
T17SSILL
 62
3
 10
1271.946
 20
-2861.419
 30
3534.202
 70
    32
  0
VERTEX
  8
T17SSILL
 62
3
 10
1277.038
 20
-2867.154
 30
3534.185
 70
    32
  0
VERTEX
  8
T17SSILL
 62
3
 10
1300.267
 20
-2850.559
 30
3534.157
 70
    32
  0
VERTEX
  8
T17SSILL
 62
3
 10
1307.336
 20
-2848.942
 30
3534.145
 70
    32
  0
VERTEX
  8
T17SSILL
 62
3
 10
1311.300
 20
-2849.264
 30
3534.137
 70
    32
  0
VERTEX
  8
T17SSILL
 62
3
 10
1315.313
 20
-2851.253
 30
3534.126
 70
    32
  0
VERTEX
  8
T17SSILL
 62
3
 10
1325.794
 20
-2866.844
 30
3534.086
 70
    32
  0
VERTEX
  8
T17SSILL
 62
3
 10
1337.171
 20
-2888.911
 30
3534.037
 70
    32
  0
VERTEX
  8
T17SSILL
 62
3
 10
1357.229
 20
-2913.356
 30
3533.967
 70
    32
  0
VERTEX
  8
T17SSILL
 62
3
 10
1357.914
 20
-2915.707
 30
3533.963
 70
    32
  0
VERTEX
  8
T17SSILL
 62
3
 10
1354.505
 20
-2919.236
 30
3533.965
 70
    32
  0
VERTEX
  8
T17SSILL
 62
3
 10
1356.222
 20
-2926.741
 30
3533.953
 70
    32
  0
VERTEX
  8
T17SSILL
 62
3
 10
1330.334
 20
-2945.525
 30
3533.983
 70
    32
  0
VERTEX
  8
T17SSILL
 62
3
 10
1335.005
 20
-2951.888
 30
3533.966
 70
    32
  0
VERTEX
  8
T17SSILL
 62
3
 10
1360.547
 20
-2933.290
 30
3533.936
 70
    32
  0
VERTEX
  8
T17SSILL
 62
3
 10
1372.829
 20
-2932.661
 30
3533.912
 70
    32
  0
VERTEX
  8
T17SSILL
 62
3
 10
1376.345
 20
-2935.631
 30
3533.901
 70
    32
  0
VERTEX
  8
T17SSILL
 62
3
 10
1380.511
 20
-2933.926
 30
3533.895
 70
    32
  0
VERTEX
  8
T17SSILL
 62
3
 10
1397.262
 20
-2944.673
 30
3533.848
 70
    32
  0
VERTEX
  8
T17SSILL
 62
3
 10
1405.033
 20
-2940.049
 30
3533.838
 70
    32
  0
VERTEX
  8
T17SSILL
 62
3
 10
1432.946
 20
-2945.016
 30
3533.775
 70
    32
  0
VERTEX
  8
T17SSILL
 62
3
 10
1439.565
 20
-2954.836
 30
3533.750
 70
    32
  0
VERTEX
  8
T17SSILL
 62
3
 10
1444.992
 20
-2960.034
 30
3533.733
 70
    32
  0
VERTEX
  8
T17SSILL
 62
3
 10
1445.951
 20
-2962.729
 30
3533.728
 70
    32
  0
VERTEX
  8
T17SSILL
 62
3
 10
1443.563
 20
-2976.947
 30
3533.716
 70
    32
  0
VERTEX
  8
T17SSILL
 62
3
 10
1447.038
 20
-3005.822
 30
3533.674
 70
    32
  0
VERTEX
  8
T17SSILL
 62
3
 10
1441.901
 20
-3016.433
 30
3533.672
 70
    32
  0
VERTEX
  8
T17SSILL
 62
3
 10
1416.657
 20
-3036.812
 30
3533.698
 70
    32
  0
VERTEX
  8
T17SSILL
 62
3
 10
1074.902
 20
-3295.066
 30
3534.081
 70
    32
  0
VERTEX
  8
T17SSILL
 62
3
 10
1066.557
 20
-3296.731
 30
3534.096
 70
    32
  0
VERTEX
  8
T17SSILL
 62
3
 10
1062.160
 20
-3295.719
 30
3534.106
 70
    32
  0
VERTEX
  8
T17SSILL
 62
3
 10
1056.373
 20
-3292.099
 30
3534.123
 70
    32
  0
VERTEX
  8
T17SSILL
 62
3
 10
753.495
 20
-3013.636
 30
3535.070
 70
    32
  0
VERTEX
  8
T17SSILL
 62
3
 10
762.610
 20
-3003.722
 30
3535.063
 70
    32
  0
VERTEX
  8
T17SSILL
 62
3
 10
765.356
 20
-3004.918
 30
3535.056
 70
    32
  0
VERTEX
  8
T17SSILL
 62
3
 10
769.516
 20
-3000.950
 30
3535.053
 70
    32
  0
VERTEX
  8
T17SSILL
 62
3
 10
767.490
 20
-2998.959
 30
3535.059
 70
    32
  0
VERTEX
  8
T17SSILL
 62
3
 10
771.000
 20
-2995.729
 30
3535.056
 70
    32
  0
VERTEX
  8
T17SSILL
 62
3
 10
762.003
 20
-2987.348
 30
3535.084
 70
    32
  0
VERTEX
  8
T17SSILL
 62
3
 10
742.539
 20
-3003.774
 30
3535.104
 70
    32
  0
VERTEX
  8
T17SSILL
 62
3
 10
117.208
 20
-2427.519
 30
3537.062
 70
    32
  0
VERTEX
  8
T17SSILL
 62
3
 10
13.580
 20
-2329.146
 30
3536.952
 70
    32
  0
VERTEX
  8
T17SSILL
 62
3
 10
19.519
 20
-2325.640
 30
3536.973
 70
    32
  0
VERTEX
  8
T17SSILL
 62
3
 10
13.616
 20
-2318.930
 30
3536.951
 70
    32
  0
VERTEX
  8
T17SSILL
 62
3
 10
7.024
 20
-2323.338
 30
3536.928
 70
    32
  0
VERTEX
  8
T17SSILL
 62
3
 10
-129.155
 20
-2198.018
 30
3536.428
 70
    32
  0
VERTEX
  8
T17SSILL
 62
3
 10
-122.901
 20
-2193.744
 30
3536.449
 70
    32
  0
VERTEX
  8
T17SSILL
 62
3
 10
-127.359
 20
-2187.839
 30
3536.433
 70
    32
  0
VERTEX
  8
T17SSILL
 62
3
 10
-134.460
 20
-2193.047
 30
3536.408
 70
    32
  0
VERTEX
  8
T17SSILL
 62
3
 10
-270.105
 20
-2066.809
 30
3535.910
 70
    32
  0
VERTEX
  8
T17SSILL
 62
3
 10
-255.722
 20
-2057.797
 30
3535.960
 70
    32
  0
VERTEX
  8
T17SSILL
 62
3
 10
-262.350
 20
-2050.041
 30
3535.936
 70
    32
  0
VERTEX
  8
T17SSILL
 62
3
 10
-276.853
 20
-2060.347
 30
3535.885
 70
    32
  0
VERTEX
  8
T17SSILL
 62
3
 10
-412.628
 20
-1935.373
 30
3535.386
 70
    32
  0
VERTEX
  8
T17SSILL
 62
3
 10
-398.714
 20
-1926.055
 30
3535.435
 70
    32
  0
VERTEX
  8
T17SSILL
 62
3
 10
-405.126
 20
-1917.699
 30
3535.411
 70
    32
  0
VERTEX
  8
T17SSILL
 62
3
 10
-420.183
 20
-1928.744
 30
3535.358
 70
    32
  0
VERTEX
  8
T17SSILL
 62
3
 10
-477.789
 20
-1875.822
 30
3535.147
 70
    32
  0
VERTEX
  8
T17SSILL
 62
3
 10
-482.634
 20
-1865.864
 30
3535.129
 70
    32
  0
VERTEX
  8
T17SSILL
 62
3
 10
-483.710
 20
-1856.087
 30
3535.112
 70
    32
  0
VERTEX
  8
T17SSILL
 62
3
 10
-479.932
 20
-1845.578
 30
3535.132
 70
    32
  0
VERTEX
  8
T17SSILL
 62
3
 10
-472.281
 20
-1834.994
 30
3535.164
 70
    32
  0
VERTEX
  8
T17SSILL
 62
3
 10
-65.577
 20
-1544.941
 30
3536.502
 70
    32
  0
VERTEX
  8
T17SSILL
 62
3
 10
-57.453
 20
-1542.237
 30
3536.496
 70
    32
  0
VERTEX
  8
T17SSILL
 62
3
 10
-41.176
 20
-1540.466
 30
3536.444
 70
    32
  0
VERTEX
  8
T17SSILL
 62
3
 10
-31.051
 20
-1543.099
 30
3536.372
 70
    32
  0
VERTEX
  8
T17SSILL
 62
3
 10
-18.678
 20
-1549.659
 30
3536.248
 70
    32
  0
VERTEX
  8
T17SSILL
 62
3
 10
-19.460
 20
-1551.814
 30
3536.256
 70
    32
  0
VERTEX
  8
T17SSILL
 62
3
 10
-15.164
 20
-1557.826
 30
3536.278
 70
    32
  0
VERTEX
  8
T17SSILL
 62
3
 10
-12.046
 20
-1555.536
 30
3536.258
 70
    32
  0
VERTEX
  8
T17SSILL
 62
3
 10
-0.773
 20
-1571.041
 30
3536.315
 70
    32
  0
VERTEX
  8
T17SSILL
 62
3
 10
-3.420
 20
-1573.079
 30
3536.332
 70
    32
  0
VERTEX
  8
T17SSILL
 62
3
 10
0.581
 20
-1579.429
 30
3536.357
 70
    32
  0
VERTEX
  8
T17SSILL
 62
3
 10
3.528
 20
-1577.493
 30
3536.339
 70
    32
  0
VERTEX
  8
T17SSILL
 62
3
 10
53.096
 20
-1647.494
 30
3536.574
 70
    32
  0
VERTEX
  8
T17SSILL
 62
3
 10
49.785
 20
-1649.822
 30
3536.592
 70
    32
  0
VERTEX
  8
T17SSILL
 62
3
 10
54.225
 20
-1656.165
 30
3536.611
 70
    32
  0
VERTEX
  8
T17SSILL
 62
3
 10
57.762
 20
-1653.554
 30
3536.592
 70
    32
  0
VERTEX
  8
T17SSILL
 62
3
 10
109.218
 20
-1725.430
 30
3536.789
 70
    32
  0
VERTEX
  8
T17SSILL
 62
3
 10
105.644
 20
-1727.849
 30
3536.777
 70
    32
  0
VERTEX
  8
T17SSILL
 62
3
 10
109.671
 20
-1733.512
 30
3536.789
 70
    32
  0
VERTEX
  8
T17SSILL
 62
3
 10
113.100
 20
-1730.762
 30
3536.792
 70
    32
  0
VERTEX
  8
T17SSILL
 62
3
 10
165.693
 20
-1803.538
 30
3537.265
 70
    32
  0
VERTEX
  8
T17SSILL
 62
3
 10
161.980
 20
-1806.064
 30
3537.261
 70
    32
  0
VERTEX
  8
T17SSILL
 62
3
 10
166.206
 20
-1812.129
 30
3537.300
 70
    32
  0
VERTEX
  8
T17SSILL
 62
3
 10
170.090
 20
-1809.250
 30
3537.303
 70
    32
  0
VERTEX
  8
T17SSILL
 62
3
 10
219.401
 20
-1878.340
 30
3537.513
 70
    32
  0
VERTEX
  8
T17SSILL
 62
3
 10
216.058
 20
-1880.914
 30
3537.517
 70
    32
  0
VERTEX
  8
T17SSILL
 62
3
 10
220.182
 20
-1887.280
 30
3537.501
 70
    32
  0
VERTEX
  8
T17SSILL
 62
3
 10
223.997
 20
-1884.453
 30
3537.496
 70
    32
  0
VERTEX
  8
T17SSILL
 62
3
 10
256.817
 20
-1929.964
 30
3537.375
 70
    32
  0
VERTEX
  8
T17SSILL
 62
3
 10
261.687
 20
-1925.770
 30
3537.370
 70
    32
  0
VERTEX
  8
T17SSILL
 62
3
 10
229.698
 20
-1880.619
 30
3537.489
 70
    32
  0
VERTEX
  8
T17SSILL
 62
3
 10
232.553
 20
-1878.420
 30
3537.486
 70
    32
  0
VERTEX
  8
T17SSILL
 62
3
 10
227.722
 20
-1871.712
 30
3537.504
 70
    32
  0
VERTEX
  8
T17SSILL
 62
3
 10
224.635
 20
-1873.755
 30
3537.508
 70
    32
  0
VERTEX
  8
T17SSILL
 62
3
 10
175.507
 20
-1805.190
 30
3537.328
 70
    32
  0
VERTEX
  8
T17SSILL
 62
3
 10
178.523
 20
-1803.200
 30
3537.363
 70
    32
  0
VERTEX
  8
T17SSILL
 62
3
 10
174.249
 20
-1797.505
 30
3537.324
 70
    32
  0
VERTEX
  8
T17SSILL
 62
3
 10
171.742
 20
-1799.435
 30
3537.294
 70
    32
  0
VERTEX
  8
T17SSILL
 62
3
 10
162.929
 20
-1787.080
 30
3537.213
 70
    32
  0
VERTEX
  8
T17SSILL
 62
3
 10
165.247
 20
-1785.917
 30
3537.215
 70
    32
  0
VERTEX
  8
T17SSILL
 62
3
 10
175.874
 20
-1789.017
 30
3537.262
 70
    32
  0
VERTEX
  8
T17SSILL
 62
3
 10
179.158
 20
-1788.242
 30
3537.268
 70
    32
  0
VERTEX
  8
T17SSILL
 62
3
 10
196.160
 20
-1797.733
 30
3537.363
 70
    32
  0
VERTEX
  8
T17SSILL
 62
3
 10
202.536
 20
-1795.409
 30
3537.373
 70
    32
  0
VERTEX
  8
T17SSILL
 62
3
 10
206.014
 20
-1786.305
 30
3537.344
 70
    32
  0
VERTEX
  8
T17SSILL
 62
3
 10
204.082
 20
-1773.133
 30
3537.280
 70
    32
  0
VERTEX
  8
T17SSILL
 62
3
 10
198.672
 20
-1763.254
 30
3537.221
 70
    32
  0
VERTEX
  8
T17SSILL
 62
3
 10
195.001
 20
-1764.804
 30
3537.216
 70
    32
  0
VERTEX
  8
T17SSILL
 62
3
 10
179.738
 20
-1773.520
 30
3537.206
 70
    32
  0
VERTEX
  8
T17SSILL
 62
3
 10
172.782
 20
-1776.620
 30
3537.198
 70
    32
  0
VERTEX
  8
T17SSILL
 62
3
 10
163.895
 20
-1775.845
 30
3537.167
 70
    32
  0
VERTEX
  8
T17SSILL
 62
3
 10
159.644
 20
-1770.809
 30
3537.132
 70
    32
  0
VERTEX
  8
T17SSILL
 62
3
 10
153.268
 20
-1768.097
 30
3537.100
 70
    32
  0
VERTEX
  8
T17SSILL
 62
3
 10
150.177
 20
-1769.647
 30
3537.097
 70
    32
  0
VERTEX
  8
T17SSILL
 62
3
 10
135.393
 20
-1748.766
 30
3536.960
 70
    32
  0
VERTEX
  8
T17SSILL
 62
3
 10
137.413
 20
-1747.210
 30
3536.984
 70
    32
  0
VERTEX
  8
T17SSILL
 62
3
 10
152.352
 20
-1752.349
 30
3537.140
 70
    32
  0
VERTEX
  8
T17SSILL
 62
3
 10
164.835
 20
-1752.279
 30
3537.276
 70
    32
  0
VERTEX
  8
T17SSILL
 62
3
 10
175.199
 20
-1750.179
 30
3537.391
 70
    32
  0
VERTEX
  8
T17SSILL
 62
3
 10
214.188
 20
-1720.272
 30
3537.852
 70
    32
  0
VERTEX
  8
T17SSILL
 62
3
 10
224.320
 20
-1724.786
 30
3537.956
 70
    32
  0
VERTEX
  8
T17SSILL
 62
3
 10
228.444
 20
-1720.057
 30
3538.007
 70
    32
  0
VERTEX
  8
T17SSILL
 62
3
 10
235.989
 20
-1728.560
 30
3538.079
 70
    32
  0
VERTEX
  8
T17SSILL
 62
3
 10
246.731
 20
-1745.250
 30
3537.862
 70
    32
  0
VERTEX
  8
T17SSILL
 62
3
 10
247.146
 20
-1748.814
 30
3537.787
 70
    32
  0
VERTEX
  8
T17SSILL
 62
3
 10
242.860
 20
-1753.334
 30
3537.858
 70
    32
  0
VERTEX
  8
T17SSILL
 62
3
 10
242.737
 20
-1754.760
 30
3537.838
 70
    32
  0
VERTEX
  8
T17SSILL
 62
3
 10
246.424
 20
-1765.456
 30
3537.529
 70
    32
  0
VERTEX
  8
T17SSILL
 62
3
 10
252.382
 20
-1773.627
 30
3537.207
 70
    32
  0
VERTEX
  8
T17SSILL
 62
3
 10
260.494
 20
-1781.137
 30
3537.195
 70
    32
  0
VERTEX
  8
T17SSILL
 62
3
 10
267.542
 20
-1780.925
 30
3537.167
 70
    32
  0
VERTEX
  8
T17SSILL
 62
3
 10
271.222
 20
-1777.204
 30
3537.144
 70
    32
  0
VERTEX
  8
T17SSILL
 62
3
 10
271.644
 20
-1774.438
 30
3537.135
 70
    32
  0
VERTEX
  8
T17SSILL
 62
3
 10
270.476
 20
-1762.691
 30
3537.111
 70
    32
  0
VERTEX
  8
T17SSILL
 62
3
 10
271.241
 20
-1759.217
 30
3537.099
 70
    32
  0
VERTEX
  8
T17SSILL
 62
3
 10
267.801
 20
-1748.553
 30
3537.086
 70
    32
  0
VERTEX
  8
T17SSILL
 62
3
 10
262.780
 20
-1737.997
 30
3537.434
 70
    32
  0
VERTEX
  8
T17SSILL
 62
3
 10
250.582
 20
-1727.197
 30
3538.037
 70
    32
  0
VERTEX
  8
T17SSILL
 62
3
 10
244.825
 20
-1723.754
 30
3538.181
 70
    32
  0
VERTEX
  8
T17SSILL
 62
3
 10
240.170
 20
-1718.573
 30
3538.136
 70
    32
  0
VERTEX
  8
T17SSILL
 62
3
 10
237.493
 20
-1711.205
 30
3538.116
 70
    32
  0
VERTEX
  8
T17SSILL
 62
3
 10
240.838
 20
-1700.420
 30
3538.166
 70
    32
  0
VERTEX
  8
T17SSILL
 62
3
 10
281.537
 20
-1672.302
 30
3537.906
 70
    32
  0
VERTEX
  8
T17SSILL
 62
3
 10
287.349
 20
-1663.279
 30
3537.859
 70
    32
  0
VERTEX
  8
T17SSILL
 62
3
 10
377.786
 20
-1570.069
 30
3536.225
 70
    32
  0
VERTEX
  8
T17SSILL
 62
3
 10
523.365
 20
-1422.293
 30
3535.538
 70
    32
  0
VERTEX
  8
T17SSILL
 62
3
 10
644.520
 20
-1329.909
 30
3535.044
 70
    32
  0
VERTEX
  8
T17SSILL
 62
3
 10
836.160
 20
-1574.185
 30
3534.808
 70
    32
  0
VERTEX
  8
T17SSILL
 62
3
 10
1294.598
 20
-2164.486
 30
3534.253
 70
    32
  0
VERTEX
  8
T17SSILL
 62
3
 10
1300.704
 20
-2187.120
 30
3534.267
 70
    32
  0
VERTEX
  8
T17SSILL
 62
3
 10
1292.665
 20
-2333.628
 30
3534.609
 70
    32
  0
VERTEX
  8
T17SSILL
 62
3
 10
1283.208
 20
-2351.095
 30
3534.689
 70
    32
  0
VERTEX
  8
T17SSILL
 62
3
 10
1090.800
 20
-2489.177
 30
3535.015
 70
    32
  0
VERTEX
  8
T17SSILL
 62
3
 10
1081.488
 20
-2490.707
 30
3535.032
 70
    32
  0
VERTEX
  8
T17SSILL
 62
3
 10
1074.219
 20
-2486.840
 30
3535.051
 70
    32
  0
VERTEX
  8
T17SSILL
 62
3
 10
1020.896
 20
-2428.111
 30
3535.230
 70
    32
  0
VERTEX
  8
T17SSILL
 62
3
 10
1023.461
 20
-2415.488
 30
3535.240
 70
    32
  0
VERTEX
  8
T17SSILL
 62
3
 10
1019.565
 20
-2393.530
 30
3535.274
 70
    32
  0
VERTEX
  8
T17SSILL
 62
3
 10
1034.484
 20
-2383.123
 30
3535.256
 70
    32
  0
VERTEX
  8
T17SSILL
 62
3
 10
1040.298
 20
-2390.178
 30
3535.236
 70
    32
  0
VERTEX
  8
T17SSILL
 62
3
 10
1045.454
 20
-2387.206
 30
3535.229
 70
    32
  0
VERTEX
  8
T17SSILL
 62
3
 10
1040.586
 20
-2378.466
 30
3535.249
 70
    32
  0
VERTEX
  8
T17SSILL
 62
3
 10
1044.593
 20
-2375.244
 30
3535.245
 70
    32
  0
VERTEX
  8
T17SSILL
 62
3
 10
1023.371
 20
-2327.541
 30
3535.345
 70
    32
  0
VERTEX
  8
T17SSILL
 62
3
 10
1018.141
 20
-2318.013
 30
3535.367
 70
    32
  0
VERTEX
  8
T17SSILL
 62
3
 10
1013.221
 20
-2312.003
 30
3535.385
 70
    32
  0
VERTEX
  8
T17SSILL
 62
3
 10
1005.683
 20
-2307.788
 30
3535.405
 70
    32
  0
VERTEX
  8
T17SSILL
 62
3
 10
994.916
 20
-2312.506
 30
3535.421
 70
    32
  0
VERTEX
  8
T17SSILL
 62
3
 10
979.831
 20
-2296.592
 30
3535.471
 70
    32
  0
VERTEX
  8
T17SSILL
 62
3
 10
989.593
 20
-2289.069
 30
3535.460
 70
    32
  0
VERTEX
  8
T17SSILL
 62
3
 10
981.867
 20
-2277.197
 30
3535.490
 70
    32
  0
VERTEX
  8
T17SSILL
 62
3
 10
981.138
 20
-2268.579
 30
3535.502
 70
    32
  0
VERTEX
  8
T17SSILL
 62
3
 10
971.580
 20
-2264.742
 30
3535.526
 70
    32
  0
VERTEX
  8
T17SSILL
 62
3
 10
962.580
 20
-2269.877
 30
3535.538
 70
    32
  0
VERTEX
  8
T17SSILL
 62
3
 10
955.698
 20
-2255.265
 30
3535.569
 70
    32
  0
VERTEX
  8
T17SSILL
 62
3
 10
949.530
 20
-2248.039
 30
3535.590
 70
    32
  0
VERTEX
  8
T17SSILL
 62
3
 10
937.148
 20
-2236.931
 30
3535.629
 70
    32
  0
VERTEX
  8
T17SSILL
 62
3
 10
924.954
 20
-2219.923
 30
3535.674
 70
    32
  0
VERTEX
  8
T17SSILL
 62
3
 10
931.312
 20
-2214.646
 30
3535.667
 70
    32
  0
VERTEX
  8
T17SSILL
 62
3
 10
916.499
 20
-2199.433
 30
3535.715
 70
    32
  0
VERTEX
  8
T17SSILL
 62
3
 10
910.117
 20
-2196.083
 30
3535.732
 70
    32
  0
VERTEX
  8
T17SSILL
 62
3
 10
901.106
 20
-2207.205
 30
3535.737
 70
    32
  0
VERTEX
  8
T17SSILL
 62
3
 10
906.460
 20
-2212.681
 30
3535.720
 70
    32
  0
VERTEX
  8
T17SSILL
 62
3
 10
913.650
 20
-2217.253
 30
3535.700
 70
    32
  0
VERTEX
  8
T17SSILL
 62
3
 10
931.133
 20
-2241.499
 30
3535.635
 70
    32
  0
VERTEX
  8
T17SSILL
 62
3
 10
954.056
 20
-2291.381
 30
3535.529
 70
    32
  0
VERTEX
  8
T17SSILL
 62
3
 10
963.579
 20
-2306.047
 30
3535.492
 70
    32
  0
VERTEX
  8
T17SSILL
 62
3
 10
965.707
 20
-2307.164
 30
3535.487
 70
    32
  0
VERTEX
  8
T17SSILL
 62
3
 10
973.722
 20
-2300.721
 30
3535.478
 70
    32
  0
VERTEX
  8
T17SSILL
 62
3
 10
991.392
 20
-2319.066
 30
3535.420
 70
    32
  0
VERTEX
  8
T17SSILL
 62
3
 10
1000.898
 20
-2336.991
 30
3535.380
 70
    32
  0
VERTEX
  8
T17SSILL
 62
3
 10
1005.932
 20
-2357.078
 30
3535.345
 70
    32
  0
VERTEX
  8
T17SSILL
 62
3
 10
1005.685
 20
-2364.234
 30
3535.337
 70
    32
  0
VERTEX
  8
T17SSILL
 62
3
 10
1004.374
 20
-2367.591
 30
3535.336
 70
    32
  0
VERTEX
  8
T17SSILL
 62
3
 10
1004.978
 20
-2373.483
 30
3535.328
 70
    32
  0
VERTEX
  8
T17SSILL
 62
3
 10
1010.378
 20
-2382.572
 30
3535.306
 70
    32
  0
VERTEX
  8
T17SSILL
 62
3
 10
1016.809
 20
-2410.140
 30
3535.260
 70
    32
  0
VERTEX
  8
T17SSILL
 62
3
 10
1016.193
 20
-2417.016
 30
3535.253
 70
    32
  0
VERTEX
  8
T17SSILL
 62
3
 10
1014.561
 20
-2420.207
 30
3535.252
 70
    32
  0
VERTEX
  8
T17SSILL
 62
3
 10
1011.718
 20
-2418.307
 30
3535.260
 70
    32
  0
VERTEX
  8
T17SSILL
 62
3
 10
1002.056
 20
-2406.455
 30
3535.294
 70
    32
  0
SEQEND
  8
T17SSILL
  0
POLYLINE
  8
T17SSILL
 62
3
 66
     1
 70
     9
  0
VERTEX
  8
T17SSILL
 62
3
 10
-1575.482
 20
-498.023
 30
3535.878
 70
    32
  0
VERTEX
  8
T17SSILL
 62
3
 10
-1600.721
 20
-470.429
 30
3535.852
 70
    32
  0
VERTEX
  8
T17SSILL
 62
3
 10
-1594.052
 20
-465.429
 30
3535.782
 70
    32
  0
VERTEX
  8
T17SSILL
 62
3
 10
-1603.439
 20
-450.979
 30
3535.767
 70
    32
  0
VERTEX
  8
T17SSILL
 62
3
 10
-1604.095
 20
-446.038
 30
3535.693
 70
    32
  0
VERTEX
  8
T17SSILL
 62
3
 10
-1570.574
 20
-428.389
 30
3536.773
 70
    32
  0
VERTEX
  8
T17SSILL
 62
3
 10
-1566.535
 20
-429.992
 30
3536.878
 70
    32
  0
VERTEX
  8
T17SSILL
 62
3
 10
-1559.995
 20
-442.856
 30
3537.332
 70
    32
  0
VERTEX
  8
T17SSILL
 62
3
 10
-1546.091
 20
-480.355
 30
3539.754
 70
    32
  0
VERTEX
  8
T17SSILL
 62
3
 10
-1542.325
 20
-494.685
 30
3539.285
 70
    32
  0
VERTEX
  8
T17SSILL
 62
3
 10
-1534.876
 20
-508.637
 30
3539.194
 70
    32
  0
VERTEX
  8
T17SSILL
 62
3
 10
-1538.600
 20
-511.351
 30
3538.675
 70
    32
  0
VERTEX
  8
T17SSILL
 62
3
 10
-1559.873
 20
-505.985
 30
3536.927
 70
    32
  0
VERTEX
  8
T17SSILL
 62
3
 10
-1570.667
 20
-501.882
 30
3536.120
 70
    32
  0
SEQEND
  8
T17SSILL
  0
POLYLINE
  8
T17SSILL
 62
3
 66
     1
 70
     9
  0
VERTEX
  8
T17SSILL
 62
3
 10
-58.025
 20
-1157.212
 30
3536.488
 70
    32
  0
VERTEX
  8
T17SSILL
 62
3
 10
-56.724
 20
-1164.611
 30
3536.498
 70
    32
  0
VERTEX
  8
T17SSILL
 62
3
 10
-54.629
 20
-1169.220
 30
3536.500
 70
    32
  0
VERTEX
  8
T17SSILL
 62
3
 10
-55.565
 20
-1175.085
 30
3536.513
 70
    32
  0
VERTEX
  8
T17SSILL
 62
3
 10
-46.935
 20
-1205.443
 30
3536.543
 70
    32
  0
VERTEX
  8
T17SSILL
 62
3
 10
-43.961
 20
-1210.941
 30
3536.545
 70
    32
  0
VERTEX
  8
T17SSILL
 62
3
 10
-37.230
 20
-1214.977
 30
3536.535
 70
    32
  0
VERTEX
  8
T17SSILL
 62
3
 10
-29.205
 20
-1212.442
 30
3536.511
 70
    32
  0
VERTEX
  8
T17SSILL
 62
3
 10
-18.404
 20
-1215.882
 30
3536.490
 70
    32
  0
VERTEX
  8
T17SSILL
 62
3
 10
-2.066
 20
-1255.602
 30
3536.517
 70
    32
  0
VERTEX
  8
T17SSILL
 62
3
 10
-3.199
 20
-1261.943
 30
3536.530
 70
    32
  0
VERTEX
  8
T17SSILL
 62
3
 10
-9.323
 20
-1269.122
 30
3536.558
 70
    32
  0
VERTEX
  8
T17SSILL
 62
3
 10
-10.449
 20
-1275.773
 30
3536.572
 70
    32
  0
VERTEX
  8
T17SSILL
 62
3
 10
-26.864
 20
-1295.367
 30
3536.645
 70
    32
  0
VERTEX
  8
T17SSILL
 62
3
 10
-30.633
 20
-1306.034
 30
3536.673
 70
    32
  0
VERTEX
  8
T17SSILL
 62
3
 10
-32.894
 20
-1319.091
 30
3536.701
 70
    32
  0
VERTEX
  8
T17SSILL
 62
3
 10
-60.343
 20
-1275.658
 30
3536.695
 70
    32
  0
VERTEX
  8
T17SSILL
 62
3
 10
-112.374
 20
-1198.804
 30
3536.693
 70
    32
  0
VERTEX
  8
T17SSILL
 62
3
 10
-110.278
 20
-1194.059
 30
3536.680
 70
    32
  0
VERTEX
  8
T17SSILL
 62
3
 10
-106.374
 20
-1191.606
 30
3536.666
 70
    32
  0
VERTEX
  8
T17SSILL
 62
3
 10
-94.250
 20
-1204.850
 30
3536.659
 70
    32
  0
VERTEX
  8
T17SSILL
 62
3
 10
-86.639
 20
-1197.450
 30
3536.627
 70
    32
  0
VERTEX
  8
T17SSILL
 62
3
 10
-100.865
 20
-1183.894
 30
3536.639
 70
    32
  0
VERTEX
  8
T17SSILL
 62
3
 10
-90.192
 20
-1174.133
 30
3536.597
 70
    32
  0
SEQEND
  8
T17SSILL
  0
POLYLINE
  8
T17SSILL
 62
3
 66
     1
 70
     9
  0
VERTEX
  8
T17SSILL
 62
3
 10
-2345.858
 20
435.784
 30
3537.000
 70
    32
  0
VERTEX
  8
T17SSILL
 62
3
 10
-2342.701
 20
429.166
 30
3537.000
 70
    32
  0
VERTEX
  8
T17SSILL
 62
3
 10
-2341.433
 20
414.485
 30
3537.000
 70
    32
  0
VERTEX
  8
T17SSILL
 62
3
 10
-2332.807
 20
412.207
 30
3537.000
 70
    32
  0
VERTEX
  8
T17SSILL
 62
3
 10
-2325.322
 20
406.732
 30
3537.000
 70
    32
  0
SEQEND
  8
T17SSILL
  0
POLYLINE
  8
T17SSILL
 62
3
 66
     1
 70
     9
  0
VERTEX
  8
T17SSILL
 62
3
 10
-99.081
 20
-1165.956
 30
3536.605
 70
    32
  0
VERTEX
  8
T17SSILL
 62
3
 10
-105.300
 20
-1171.225
 30
3536.629
 70
    32
  0
VERTEX
  8
T17SSILL
 62
3
 10
-116.951
 20
-1173.916
 30
3536.662
 70
    32
  0
VERTEX
  8
T17SSILL
 62
3
 10
-125.125
 20
-1162.587
 30
3536.663
 70
    32
  0
VERTEX
  8
T17SSILL
 62
3
 10
-130.903
 20
-1146.622
 30
3536.650
 70
    32
  0
VERTEX
  8
T17SSILL
 62
3
 10
-139.656
 20
-1134.512
 30
3536.652
 70
    32
  0
VERTEX
  8
T17SSILL
 62
3
 10
-147.467
 20
-1139.860
 30
3536.680
 70
    32
  0
VERTEX
  8
T17SSILL
 62
3
 10
-139.088
 20
-1152.357
 30
3536.680
 70
    32
  0
VERTEX
  8
T17SSILL
 62
3
 10
-140.853
 20
-1154.875
 30
3536.689
 70
    32
  0
VERTEX
  8
T17SSILL
 62
3
 10
-218.939
 20
-1036.128
 30
3536.681
 70
    32
  0
VERTEX
  8
T17SSILL
 62
3
 10
-211.901
 20
-1030.033
 30
3536.653
 70
    32
  0
VERTEX
  8
T17SSILL
 62
3
 10
-228.208
 20
-1006.244
 30
3536.653
 70
    32
  0
VERTEX
  8
T17SSILL
 62
3
 10
-231.497
 20
-1003.290
 30
3536.656
 70
    32
  0
VERTEX
  8
T17SSILL
 62
3
 10
-239.377
 20
-1005.278
 30
3536.679
 70
    32
  0
VERTEX
  8
T17SSILL
 62
3
 10
-260.446
 20
-973.115
 30
3536.637
 70
    32
  0
VERTEX
  8
T17SSILL
 62
3
 10
-260.936
 20
-966.992
 30
3536.612
 70
    32
  0
VERTEX
  8
T17SSILL
 62
3
 10
-225.882
 20
-882.375
 30
3536.612
 70
    32
  0
VERTEX
  8
T17SSILL
 62
3
 10
-224.758
 20
-875.254
 30
3536.612
 70
    32
  0
VERTEX
  8
T17SSILL
 62
3
 10
-227.106
 20
-854.250
 30
3536.612
 70
    32
  0
VERTEX
  8
T17SSILL
 62
3
 10
-232.721
 20
-854.748
 30
3536.612
 70
    32
  0
VERTEX
  8
T17SSILL
 62
3
 10
-346.875
 20
-627.314
 30
3536.612
 70
    32
  0
VERTEX
  8
T17SSILL
 62
3
 10
-357.619
 20
-632.413
 30
3536.612
 70
    32
  0
VERTEX
  8
T17SSILL
 62
3
 10
-345.430
 20
-658.430
 30
3536.612
 70
    32
  0
VERTEX
  8
T17SSILL
 62
3
 10
-335.601
 20
-675.079
 30
3536.612
 70
    32
  0
VERTEX
  8
T17SSILL
 62
3
 10
-337.565
 20
-678.355
 30
3536.612
 70
    32
  0
VERTEX
  8
T17SSILL
 62
3
 10
-344.207
 20
-679.383
 30
3536.612
 70
    32
  0
VERTEX
  8
T17SSILL
 62
3
 10
-356.173
 20
-674.286
 30
3536.612
 70
    32
  0
VERTEX
  8
T17SSILL
 62
3
 10
-380.326
 20
-661.102
 30
3536.612
 70
    32
  0
VERTEX
  8
T17SSILL
 62
3
 10
-385.418
 20
-654.700
 30
3536.612
 70
    32
  0
VERTEX
  8
T17SSILL
 62
3
 10
-389.664
 20
-643.335
 30
3536.612
 70
    32
  0
VERTEX
  8
T17SSILL
 62
3
 10
-395.234
 20
-639.563
 30
3536.612
 70
    32
  0
VERTEX
  8
T17SSILL
 62
3
 10
-405.048
 20
-643.550
 30
3536.612
 70
    32
  0
VERTEX
  8
T17SSILL
 62
3
 10
-397.021
 20
-665.640
 30
3536.612
 70
    32
  0
VERTEX
  8
T17SSILL
 62
3
 10
-388.866
 20
-675.356
 30
3536.612
 70
    32
  0
VERTEX
  8
T17SSILL
 62
3
 10
-379.038
 20
-678.857
 30
3536.612
 70
    32
  0
VERTEX
  8
T17SSILL
 62
3
 10
-374.728
 20
-687.023
 30
3536.612
 70
    32
  0
VERTEX
  8
T17SSILL
 62
3
 10
-366.864
 20
-689.019
 30
3536.612
 70
    32
  0
VERTEX
  8
T17SSILL
 62
3
 10
-357.102
 20
-684.960
 30
3536.612
 70
    32
  0
VERTEX
  8
T17SSILL
 62
3
 10
-348.948
 20
-689.895
 30
3536.612
 70
    32
  0
VERTEX
  8
T17SSILL
 62
3
 10
-335.948
 20
-694.022
 30
3536.612
 70
    32
  0
VERTEX
  8
T17SSILL
 62
3
 10
-319.981
 20
-706.859
 30
3536.612
 70
    32
  0
VERTEX
  8
T17SSILL
 62
3
 10
-304.865
 20
-738.245
 30
3536.612
 70
    32
  0
VERTEX
  8
T17SSILL
 62
3
 10
-299.605
 20
-741.591
 30
3536.612
 70
    32
  0
VERTEX
  8
T17SSILL
 62
3
 10
-279.933
 20
-781.182
 30
3536.612
 70
    32
  0
VERTEX
  8
T17SSILL
 62
3
 10
-286.336
 20
-785.078
 30
3536.612
 70
    32
  0
VERTEX
  8
T17SSILL
 62
3
 10
-258.407
 20
-822.575
 30
3536.612
 70
    32
  0
VERTEX
  8
T17SSILL
 62
3
 10
-251.873
 20
-836.188
 30
3536.612
 70
    32
  0
VERTEX
  8
T17SSILL
 62
3
 10
-243.272
 20
-850.252
 30
3536.612
 70
    32
  0
VERTEX
  8
T17SSILL
 62
3
 10
-239.129
 20
-861.475
 30
3536.612
 70
    32
  0
VERTEX
  8
T17SSILL
 62
3
 10
-238.287
 20
-877.272
 30
3536.612
 70
    32
  0
VERTEX
  8
T17SSILL
 62
3
 10
-241.154
 20
-897.831
 30
3536.612
 70
    32
  0
VERTEX
  8
T17SSILL
 62
3
 10
-245.890
 20
-898.342
 30
3536.612
 70
    32
  0
VERTEX
  8
T17SSILL
 62
3
 10
-254.168
 20
-886.216
 30
3536.612
 70
    32
  0
VERTEX
  8
T17SSILL
 62
3
 10
-266.807
 20
-874.219
 30
3536.612
 70
    32
  0
VERTEX
  8
T17SSILL
 62
3
 10
-270.418
 20
-821.749
 30
3536.612
 70
    32
  0
VERTEX
  8
T17SSILL
 62
3
 10
-272.867
 20
-819.727
 30
3536.612
 70
    32
  0
VERTEX
  8
T17SSILL
 62
3
 10
-278.921
 20
-819.024
 30
3536.612
 70
    32
  0
VERTEX
  8
T17SSILL
 62
3
 10
-283.458
 20
-809.501
 30
3536.612
 70
    32
  0
VERTEX
  8
T17SSILL
 62
3
 10
-281.121
 20
-795.086
 30
3536.612
 70
    32
  0
VERTEX
  8
T17SSILL
 62
3
 10
-286.859
 20
-790.784
 30
3536.612
 70
    32
  0
VERTEX
  8
T17SSILL
 62
3
 10
-292.919
 20
-791.715
 30
3536.612
 70
    32
  0
VERTEX
  8
T17SSILL
 62
3
 10
-299.741
 20
-795.482
 30
3536.612
 70
    32
  0
VERTEX
  8
T17SSILL
 62
3
 10
-307.875
 20
-797.596
 30
3536.612
 70
    32
  0
VERTEX
  8
T17SSILL
 62
3
 10
-305.898
 20
-804.199
 30
3536.612
 70
    32
  0
VERTEX
  8
T17SSILL
 62
3
 10
-310.039
 20
-806.125
 30
3536.612
 70
    32
  0
VERTEX
  8
T17SSILL
 62
3
 10
-305.888
 20
-830.056
 30
3536.612
 70
    32
  0
VERTEX
  8
T17SSILL
 62
3
 10
-307.225
 20
-837.331
 30
3536.612
 70
    32
  0
VERTEX
  8
T17SSILL
 62
3
 10
-273.906
 20
-884.926
 30
3536.612
 70
    32
  0
VERTEX
  8
T17SSILL
 62
3
 10
-258.208
 20
-925.777
 30
3536.612
 70
    32
  0
VERTEX
  8
T17SSILL
 62
3
 10
-256.773
 20
-931.036
 30
3536.612
 70
    32
  0
VERTEX
  8
T17SSILL
 62
3
 10
-268.374
 20
-955.124
 30
3536.612
 70
    32
  0
VERTEX
  8
T17SSILL
 62
3
 10
-272.621
 20
-954.530
 30
3536.612
 70
    32
  0
VERTEX
  8
T17SSILL
 62
3
 10
-314.060
 20
-891.272
 30
3536.529
 70
    32
  0
VERTEX
  8
T17SSILL
 62
3
 10
-307.074
 20
-888.077
 30
3536.513
 70
    32
  0
VERTEX
  8
T17SSILL
 62
3
 10
-291.891
 20
-898.173
 30
3536.525
 70
    32
  0
VERTEX
  8
T17SSILL
 62
3
 10
-289.223
 20
-898.506
 30
3536.524
 70
    32
  0
VERTEX
  8
T17SSILL
 62
3
 10
-282.598
 20
-893.488
 30
3536.504
 70
    32
  0
VERTEX
  8
T17SSILL
 62
3
 10
-281.933
 20
-891.564
 30
3536.498
 70
    32
  0
VERTEX
  8
T17SSILL
 62
3
 10
-282.823
 20
-889.473
 30
3536.493
 70
    32
  0
VERTEX
  8
T17SSILL
 62
3
 10
-293.428
 20
-879.615
 30
3536.478
 70
    32
  0
VERTEX
  8
T17SSILL
 62
3
 10
-297.357
 20
-871.193
 30
3536.459
 70
    32
  0
VERTEX
  8
T17SSILL
 62
3
 10
-312.898
 20
-849.478
 30
3536.417
 70
    32
  0
VERTEX
  8
T17SSILL
 62
3
 10
-316.635
 20
-841.464
 30
3536.400
 70
    32
  0
VERTEX
  8
T17SSILL
 62
3
 10
-313.094
 20
-837.630
 30
3536.386
 70
    32
  0
VERTEX
  8
T17SSILL
 62
3
 10
-315.256
 20
-826.247
 30
3536.358
 70
    32
  0
VERTEX
  8
T17SSILL
 62
3
 10
-324.163
 20
-820.056
 30
3536.351
 70
    32
  0
VERTEX
  8
T17SSILL
 62
3
 10
-328.446
 20
-813.793
 30
3536.338
 70
    32
  0
VERTEX
  8
T17SSILL
 62
3
 10
-329.570
 20
-791.189
 30
3536.280
 70
    32
  0
VERTEX
  8
T17SSILL
 62
3
 10
-335.551
 20
-788.909
 30
3536.279
 70
    32
  0
VERTEX
  8
T17SSILL
 62
3
 10
-337.643
 20
-786.828
 30
3536.276
 70
    32
  0
VERTEX
  8
T17SSILL
 62
3
 10
-341.034
 20
-776.906
 30
3536.253
 70
    32
  0
VERTEX
  8
T17SSILL
 62
3
 10
-345.742
 20
-768.621
 30
3536.236
 70
    32
  0
VERTEX
  8
T17SSILL
 62
3
 10
-359.885
 20
-768.097
 30
3536.248
 70
    32
  0
VERTEX
  8
T17SSILL
 62
3
 10
-374.057
 20
-751.199
 30
3536.218
 70
    32
  0
VERTEX
  8
T17SSILL
 62
3
 10
-381.973
 20
-759.375
 30
3536.247
 70
    32
  0
VERTEX
  8
T17SSILL
 62
3
 10
-384.439
 20
-770.006
 30
3536.277
 70
    32
  0
VERTEX
  8
T17SSILL
 62
3
 10
-367.179
 20
-797.160
 30
3536.332
 70
    32
  0
VERTEX
  8
T17SSILL
 62
3
 10
-375.126
 20
-798.316
 30
3536.343
 70
    32
  0
VERTEX
  8
T17SSILL
 62
3
 10
-389.621
 20
-776.377
 30
3536.299
 70
    32
  0
VERTEX
  8
T17SSILL
 62
3
 10
-393.702
 20
-763.445
 30
3536.269
 70
    32
  0
VERTEX
  8
T17SSILL
 62
3
 10
-395.292
 20
-741.846
 30
3536.214
 70
    32
  0
VERTEX
  8
T17SSILL
 62
3
 10
-388.659
 20
-741.442
 30
3536.206
 70
    32
  0
VERTEX
  8
T17SSILL
 62
3
 10
-389.058
 20
-727.984
 30
3536.171
 70
    32
  0
VERTEX
  8
T17SSILL
 62
3
 10
-396.665
 20
-728.558
 30
3536.180
 70
    32
  0
VERTEX
  8
T17SSILL
 62
3
 10
-398.781
 20
-706.249
 30
3536.123
 70
    32
  0
VERTEX
  8
T17SSILL
 62
3
 10
-408.324
 20
-687.132
 30
3536.082
 70
    32
  0
VERTEX
  8
T17SSILL
 62
3
 10
-403.210
 20
-683.342
 30
3536.067
 70
    32
  0
VERTEX
  8
T17SSILL
 62
3
 10
-405.278
 20
-664.959
 30
3536.020
 70
    32
  0
VERTEX
  8
T17SSILL
 62
3
 10
-409.614
 20
-650.346
 30
3535.986
 70
    32
  0
VERTEX
  8
T17SSILL
 62
3
 10
-415.333
 20
-639.509
 30
3535.963
 70
    32
  0
VERTEX
  8
T17SSILL
 62
3
 10
-419.831
 20
-634.478
 30
3535.954
 70
    32
  0
VERTEX
  8
T17SSILL
 62
3
 10
-425.207
 20
-631.530
 30
3535.952
 70
    32
  0
VERTEX
  8
T17SSILL
 62
3
 10
-438.400
 20
-628.872
 30
3535.958
 70
    32
  0
VERTEX
  8
T17SSILL
 62
3
 10
-474.189
 20
-561.754
 30
3535.815
 70
    32
  0
VERTEX
  8
T17SSILL
 62
3
 10
-480.132
 20
-565.274
 30
3535.830
 70
    32
  0
VERTEX
  8
T17SSILL
 62
3
 10
-462.899
 20
-596.848
 30
3535.897
 70
    32
  0
VERTEX
  8
T17SSILL
 62
3
 10
-462.489
 20
-611.509
 30
3535.935
 70
    32
  0
VERTEX
  8
T17SSILL
 62
3
 10
-456.819
 20
-621.833
 30
3535.957
 70
    32
  0
VERTEX
  8
T17SSILL
 62
3
 10
-451.541
 20
-623.314
 30
3535.956
 70
    32
  0
VERTEX
  8
T17SSILL
 62
3
 10
-447.867
 20
-627.084
 30
3535.962
 70
    32
  0
VERTEX
  8
T17SSILL
 62
3
 10
-446.731
 20
-638.566
 30
3535.991
 70
    32
  0
VERTEX
  8
T17SSILL
 62
3
 10
-442.625
 20
-647.077
 30
3536.010
 70
    32
  0
VERTEX
  8
T17SSILL
 62
3
 10
-419.640
 20
-680.772
 30
3536.076
 70
    32
  0
VERTEX
  8
T17SSILL
 62
3
 10
-405.553
 20
-709.286
 30
3536.138
 70
    32
  0
VERTEX
  8
T17SSILL
 62
3
 10
-402.104
 20
-757.897
 30
3536.263
 70
    32
  0
VERTEX
  8
T17SSILL
 62
3
 10
-411.007
 20
-744.248
 30
3536.235
 70
    32
  0
VERTEX
  8
T17SSILL
 62
3
 10
-496.225
 20
-669.188
 30
3536.121
 70
    32
  0
VERTEX
  8
T17SSILL
 62
3
 10
-554.666
 20
-620.612
 30
3536.050
 70
    32
  0
VERTEX
  8
T17SSILL
 62
3
 10
-568.260
 20
-607.908
 30
3536.029
 70
    32
  0
VERTEX
  8
T17SSILL
 62
3
 10
-726.136
 20
-392.256
 30
3535.615
 70
    32
  0
VERTEX
  8
T17SSILL
 62
3
 10
-734.748
 20
-398.336
 30
3535.639
 70
    32
  0
VERTEX
  8
T17SSILL
 62
3
 10
-574.062
 20
-613.104
 30
3536.049
 70
    32
  0
VERTEX
  8
T17SSILL
 62
3
 10
-526.804
 20
-655.094
 30
3536.113
 70
    32
  0
VERTEX
  8
T17SSILL
 62
3
 10
-533.278
 20
-661.652
 30
3536.137
 70
    32
  0
VERTEX
  8
T17SSILL
 62
3
 10
-511.728
 20
-683.756
 30
3536.174
 70
    32
  0
VERTEX
  8
T17SSILL
 62
3
 10
-462.450
 20
-711.503
 30
3536.199
 70
    32
  0
VERTEX
  8
T17SSILL
 62
3
 10
-437.766
 20
-751.201
 30
3536.280
 70
    32
  0
VERTEX
  8
T17SSILL
 62
3
 10
-431.277
 20
-765.490
 30
3536.311
 70
    32
  0
VERTEX
  8
T17SSILL
 62
3
 10
-424.594
 20
-776.699
 30
3536.334
 70
    32
  0
VERTEX
  8
T17SSILL
 62
3
 10
-363.200
 20
-876.187
 30
3536.537
 70
    32
  0
VERTEX
  8
T17SSILL
 62
3
 10
-356.816
 20
-894.454
 30
3536.579
 70
    32
  0
VERTEX
  8
T17SSILL
 62
3
 10
-339.504
 20
-924.650
 30
3536.626
 70
    32
  0
VERTEX
  8
T17SSILL
 62
3
 10
-326.774
 20
-940.196
 30
3536.642
 70
    32
  0
VERTEX
  8
T17SSILL
 62
3
 10
-314.707
 20
-960.193
 30
3536.645
 70
    32
  0
VERTEX
  8
T17SSILL
 62
3
 10
-312.097
 20
-961.340
 30
3536.648
 70
    32
  0
VERTEX
  8
T17SSILL
 62
3
 10
-307.218
 20
-967.628
 30
3536.650
 70
    32
  0
VERTEX
  8
T17SSILL
 62
3
 10
-312.870
 20
-981.829
 30
3536.632
 70
    32
  0
VERTEX
  8
T17SSILL
 62
3
 10
-303.256
 20
-994.952
 30
3536.628
 70
    32
  0
VERTEX
  8
T17SSILL
 62
3
 10
-287.543
 20
-1008.287
 30
3536.625
 70
    32
  0
VERTEX
  8
T17SSILL
 62
3
 10
-379.730
 20
-1073.955
 30
3536.419
 70
    32
  0
VERTEX
  8
T17SSILL
 62
3
 10
-375.888
 20
-1079.665
 30
3536.414
 70
    32
  0
VERTEX
  8
T17SSILL
 62
3
 10
-278.007
 20
-1010.465
 30
3536.636
 70
    32
  0
VERTEX
  8
T17SSILL
 62
3
 10
-267.802
 20
-1022.159
 30
3536.648
 70
    32
  0
VERTEX
  8
T17SSILL
 62
3
 10
-261.821
 20
-1021.468
 30
3536.664
 70
    32
  0
VERTEX
  8
T17SSILL
 62
3
 10
-248.387
 20
-1037.372
 30
3536.681
 70
    32
  0
VERTEX
  8
T17SSILL
 62
3
 10
-230.304
 20
-1062.815
 30
3536.704
 70
    32
  0
VERTEX
  8
T17SSILL
 62
3
 10
-219.950
 20
-1079.461
 30
3536.714
 70
    32
  0
VERTEX
  8
T17SSILL
 62
3
 10
-218.710
 20
-1085.145
 30
3536.710
 70
    32
  0
VERTEX
  8
T17SSILL
 62
3
 10
-223.580
 20
-1086.442
 30
3536.693
 70
    32
  0
VERTEX
  8
T17SSILL
 62
3
 10
-239.721
 20
-1095.102
 30
3536.634
 70
    32
  0
VERTEX
  8
T17SSILL
 62
3
 10
-247.630
 20
-1096.010
 30
3536.613
 70
    32
  0
VERTEX
  8
T17SSILL
 62
3
 10
-256.610
 20
-1080.327
 30
3536.608
 70
    32
  0
VERTEX
  8
T17SSILL
 62
3
 10
-260.596
 20
-1069.306
 30
3536.611
 70
    32
  0
VERTEX
  8
T17SSILL
 62
3
 10
-269.515
 20
-1070.633
 30
3536.587
 70
    32
  0
VERTEX
  8
T17SSILL
 62
3
 10
-276.751
 20
-1074.234
 30
3536.564
 70
    32
  0
VERTEX
  8
T17SSILL
 62
3
 10
-280.921
 20
-1073.803
 30
3536.554
 70
    32
  0
VERTEX
  8
T17SSILL
 62
3
 10
-287.244
 20
-1069.576
 30
3536.542
 70
    32
  0
VERTEX
  8
T17SSILL
 62
3
 10
-298.810
 20
-1094.211
 30
3536.484
 70
    32
  0
VERTEX
  8
T17SSILL
 62
3
 10
-293.973
 20
-1098.659
 30
3536.491
 70
    32
  0
VERTEX
  8
T17SSILL
 62
3
 10
-292.102
 20
-1102.224
 30
3536.491
 70
    32
  0
VERTEX
  8
T17SSILL
 62
3
 10
-282.292
 20
-1108.930
 30
3536.509
 70
    32
  0
VERTEX
  8
T17SSILL
 62
3
 10
-273.512
 20
-1107.265
 30
3536.533
 70
    32
  0
VERTEX
  8
T17SSILL
 62
3
 10
-271.922
 20
-1110.599
 30
3536.533
 70
    32
  0
VERTEX
  8
T17SSILL
 62
3
 10
-273.584
 20
-1116.672
 30
3536.522
 70
    32
  0
VERTEX
  8
T17SSILL
 62
3
 10
-268.397
 20
-1124.712
 30
3536.526
 70
    32
  0
VERTEX
  8
T17SSILL
 62
3
 10
-263.666
 20
-1126.048
 30
3536.536
 70
    32
  0
VERTEX
  8
T17SSILL
 62
3
 10
-254.506
 20
-1126.083
 30
3536.560
 70
    32
  0
VERTEX
  8
T17SSILL
 62
3
 10
-240.254
 20
-1119.924
 30
3536.604
 70
    32
  0
VERTEX
  8
T17SSILL
 62
3
 10
-232.593
 20
-1113.037
 30
3536.631
 70
    32
  0
VERTEX
  8
T17SSILL
 62
3
 10
-231.820
 20
-1107.843
 30
3536.639
 70
    32
  0
VERTEX
  8
T17SSILL
 62
3
 10
-220.073
 20
-1100.679
 30
3536.685
 70
    32
  0
VERTEX
  8
T17SSILL
 62
3
 10
-215.311
 20
-1096.711
 30
3536.705
 70
    32
  0
VERTEX
  8
T17SSILL
 62
3
 10
-213.436
 20
-1093.450
 30
3536.716
 70
    32
  0
VERTEX
  8
T17SSILL
 62
3
 10
-210.515
 20
-1095.907
 30
3536.721
 70
    32
  0
VERTEX
  8
T17SSILL
 62
3
 10
-205.141
 20
-1105.239
 30
3536.726
 70
    32
  0
VERTEX
  8
T17SSILL
 62
3
 10
-184.851
 20
-1106.931
 30
3536.717
 70
    32
  0
VERTEX
  8
T17SSILL
 62
3
 10
-133.781
 20
-1185.506
 30
3536.724
 70
    32
  0
VERTEX
  8
T17SSILL
 62
3
 10
-136.195
 20
-1193.237
 30
3536.743
 70
    32
  0
VERTEX
  8
T17SSILL
 62
3
 10
-135.358
 20
-1198.228
 30
3536.749
 70
    32
  0
VERTEX
  8
T17SSILL
 62
3
 10
-132.394
 20
-1202.525
 30
3536.749
 70
    32
  0
VERTEX
  8
T17SSILL
 62
3
 10
-135.279
 20
-1217.863
 30
3536.781
 70
    32
  0
VERTEX
  8
T17SSILL
 62
3
 10
-126.520
 20
-1224.803
 30
3536.771
 70
    32
  0
VERTEX
  8
T17SSILL
 62
3
 10
-121.379
 20
-1211.748
 30
3536.737
 70
    32
  0
VERTEX
  8
T17SSILL
 62
3
 10
-117.732
 20
-1211.026
 30
3536.727
 70
    32
  0
VERTEX
  8
T17SSILL
 62
3
 10
-100.386
 20
-1238.446
 30
3536.731
 70
    32
  0
VERTEX
  8
T17SSILL
 62
3
 10
-105.865
 20
-1280.798
 30
3536.801
 70
    32
  0
VERTEX
  8
T17SSILL
 62
3
 10
-93.217
 20
-1282.870
 30
3536.788
 70
    32
  0
VERTEX
  8
T17SSILL
 62
3
 10
-89.236
 20
-1248.890
 30
3536.721
 70
    32
  0
VERTEX
  8
T17SSILL
 62
3
 10
-87.070
 20
-1253.447
 30
3536.723
 70
    32
  0
VERTEX
  8
T17SSILL
 62
3
 10
-66.767
 20
-1280.715
 30
3536.719
 70
    32
  0
VERTEX
  8
T17SSILL
 62
3
 10
-16.911
 20
-1358.150
 30
3536.727
 70
    32
  0
VERTEX
  8
T17SSILL
 62
3
 10
-16.762
 20
-1381.110
 30
3536.766
 70
    32
  0
VERTEX
  8
T17SSILL
 62
3
 10
3.780
 20
-1389.923
 30
3536.730
 70
    32
  0
VERTEX
  8
T17SSILL
 62
3
 10
12.650
 20
-1403.174
 30
3536.731
 70
    32
  0
VERTEX
  8
T17SSILL
 62
3
 10
0.335
 20
-1481.992
 30
3536.862
 70
    32
  0
VERTEX
  8
T17SSILL
 62
3
 10
-3.686
 20
-1490.746
 30
3536.812
 70
    32
  0
VERTEX
  8
T17SSILL
 62
3
 10
-477.060
 20
-1828.355
 30
3535.160
 70
    32
  0
VERTEX
  8
T17SSILL
 62
3
 10
-489.087
 20
-1846.303
 30
3535.108
 70
    32
  0
VERTEX
  8
T17SSILL
 62
3
 10
-491.647
 20
-1863.510
 30
3535.096
 70
    32
  0
VERTEX
  8
T17SSILL
 62
3
 10
-553.511
 20
-1806.032
 30
3535.085
 70
    32
  0
VERTEX
  8
T17SSILL
 62
3
 10
-543.055
 20
-1797.845
 30
3535.109
 70
    32
  0
VERTEX
  8
T17SSILL
 62
3
 10
-549.625
 20
-1789.275
 30
3535.115
 70
    32
  0
VERTEX
  8
T17SSILL
 62
3
 10
-562.369
 20
-1798.387
 30
3535.086
 70
    32
  0
VERTEX
  8
T17SSILL
 62
3
 10
-700.523
 20
-1671.541
 30
3535.130
 70
    32
  0
VERTEX
  8
T17SSILL
 62
3
 10
-693.931
 20
-1667.207
 30
3535.142
 70
    32
  0
VERTEX
  8
T17SSILL
 62
3
 10
-699.189
 20
-1661.300
 30
3535.145
 70
    32
  0
VERTEX
  8
T17SSILL
 62
3
 10
-705.446
 20
-1665.936
 30
3535.131
 70
    32
  0
VERTEX
  8
T17SSILL
 62
3
 10
-767.193
 20
-1609.804
 30
3535.154
 70
    32
  0
VERTEX
  8
T17SSILL
 62
3
 10
-843.283
 20
-1537.826
 30
3535.181
 70
    32
  0
VERTEX
  8
T17SSILL
 62
3
 10
-821.245
 20
-1523.683
 30
3535.222
 70
    32
  0
VERTEX
  8
T17SSILL
 62
3
 10
-826.690
 20
-1517.454
 30
3535.225
 70
    32
  0
VERTEX
  8
T17SSILL
 62
3
 10
-848.282
 20
-1532.526
 30
3535.182
 70
    32
  0
VERTEX
  8
T17SSILL
 62
3
 10
-1078.254
 20
-1320.680
 30
3535.267
 70
    32
  0
VERTEX
  8
T17SSILL
 62
3
 10
-1114.766
 20
-1269.561
 30
3535.271
 70
    32
  0
VERTEX
  8
T17SSILL
 62
3
 10
-1098.815
 20
-1258.088
 30
3535.301
 70
    32
  0
VERTEX
  8
T17SSILL
 62
3
 10
-1103.697
 20
-1251.935
 30
3535.299
 70
    32
  0
VERTEX
  8
T17SSILL
 62
3
 10
-1118.940
 20
-1263.341
 30
3535.277
 70
    32
  0
VERTEX
  8
T17SSILL
 62
3
 10
-1336.642
 20
-960.147
 30
3535.688
 70
    32
  0
VERTEX
  8
T17SSILL
 62
3
 10
-1320.087
 20
-947.847
 30
3535.555
 70
    32
  0
VERTEX
  8
T17SSILL
 62
3
 10
-1324.043
 20
-942.345
 30
3535.562
 70
    32
  0
VERTEX
  8
T17SSILL
 62
3
 10
-1340.600
 20
-954.629
 30
3535.696
 70
    32
  0
VERTEX
  8
T17SSILL
 62
3
 10
-1557.004
 20
-652.010
 30
3535.627
 70
    32
  0
VERTEX
  8
T17SSILL
 62
3
 10
-1541.578
 20
-641.015
 30
3535.704
 70
    32
  0
VERTEX
  8
T17SSILL
 62
3
 10
-1545.876
 20
-634.774
 30
3535.685
 70
    32
  0
VERTEX
  8
T17SSILL
 62
3
 10
-1561.271
 20
-645.964
 30
3535.608
 70
    32
  0
VERTEX
  8
T17SSILL
 62
3
 10
-1592.556
 20
-604.117
 30
3535.469
 70
    32
  0
VERTEX
  8
T17SSILL
 62
3
 10
-1648.085
 20
-527.119
 30
3535.457
 70
    32
  0
VERTEX
  8
T17SSILL
 62
3
 10
-1648.085
 20
-527.119
 30
3535.457
 70
    32
  0
VERTEX
  8
T17SSILL
 62
3
 10
-1646.563
 20
-516.125
 30
3534.531
 70
    32
  0
VERTEX
  8
T17SSILL
 62
3
 10
-1649.116
 20
-508.452
 30
3535.377
 70
    32
  0
VERTEX
  8
T17SSILL
 62
3
 10
-1648.333
 20
-498.673
 30
3536.251
 70
    32
  0
VERTEX
  8
T17SSILL
 62
3
 10
-1640.726
 20
-474.146
 30
3535.655
 70
    32
  0
VERTEX
  8
T17SSILL
 62
3
 10
-1631.565
 20
-460.855
 30
3535.249
 70
    32
  0
VERTEX
  8
T17SSILL
 62
3
 10
-1625.256
 20
-457.881
 30
3535.549
 70
    32
  0
VERTEX
  8
T17SSILL
 62
3
 10
-1620.092
 20
-462.458
 30
3535.744
 70
    32
  0
VERTEX
  8
T17SSILL
 62
3
 10
-1610.640
 20
-475.385
 30
3535.728
 70
    32
  0
VERTEX
  8
T17SSILL
 62
3
 10
-1584.914
 20
-503.433
 30
3535.871
 70
    32
  0
VERTEX
  8
T17SSILL
 62
3
 10
-1580.977
 20
-508.134
 30
3536.037
 70
    32
  0
VERTEX
  8
T17SSILL
 62
3
 10
-1576.998
 20
-508.666
 30
3536.278
 70
    32
  0
VERTEX
  8
T17SSILL
 62
3
 10
-1569.570
 20
-513.276
 30
3536.665
 70
    32
  0
VERTEX
  8
T17SSILL
 62
3
 10
-1535.968
 20
-527.104
 30
3538.539
 70
    32
  0
VERTEX
  8
T17SSILL
 62
3
 10
-1531.370
 20
-524.268
 30
3538.877
 70
    32
  0
VERTEX
  8
T17SSILL
 62
3
 10
-1528.364
 20
-527.547
 30
3539.010
 70
    32
  0
VERTEX
  8
T17SSILL
 62
3
 10
-1515.984
 20
-525.420
 30
3539.825
 70
    32
  0
VERTEX
  8
T17SSILL
 62
3
 10
-1510.855
 20
-520.013
 30
3540.242
 70
    32
  0
VERTEX
  8
T17SSILL
 62
3
 10
-1516.780
 20
-504.322
 30
3540.142
 70
    32
  0
VERTEX
  8
T17SSILL
 62
3
 10
-1521.782
 20
-486.005
 30
3540.145
 70
    32
  0
VERTEX
  8
T17SSILL
 62
3
 10
-1527.268
 20
-457.562
 30
3538.557
 70
    32
  0
VERTEX
  8
T17SSILL
 62
3
 10
-1524.863
 20
-455.399
 30
3538.420
 70
    32
  0
VERTEX
  8
T17SSILL
 62
3
 10
-1532.200
 20
-439.013
 30
3537.875
 70
    32
  0
VERTEX
  8
T17SSILL
 62
3
 10
-1536.613
 20
-433.252
 30
3537.810
 70
    32
  0
VERTEX
  8
T17SSILL
 62
3
 10
-1535.885
 20
-429.131
 30
3537.776
 70
    32
  0
VERTEX
  8
T17SSILL
 62
3
 10
-1540.496
 20
-408.907
 30
3537.132
 70
    32
  0
VERTEX
  8
T17SSILL
 62
3
 10
-1544.396
 20
-400.814
 30
3537.192
 70
    32
  0
VERTEX
  8
T17SSILL
 62
3
 10
-1545.133
 20
-393.753
 30
3538.100
 70
    32
  0
VERTEX
  8
T17SSILL
 62
3
 10
-1543.832
 20
-387.479
 30
3538.694
 70
    32
  0
VERTEX
  8
T17SSILL
 62
3
 10
-1544.536
 20
-378.791
 30
3538.795
 70
    32
  0
VERTEX
  8
T17SSILL
 62
3
 10
-1548.407
 20
-372.506
 30
3538.273
 70
    32
  0
VERTEX
  8
T17SSILL
 62
3
 10
-1551.638
 20
-360.096
 30
3537.875
 70
    32
  0
VERTEX
  8
T17SSILL
 62
3
 10
-1556.394
 20
-325.437
 30
3538.607
 70
    32
  0
VERTEX
  8
T17SSILL
 62
3
 10
-1566.382
 20
-327.457
 30
3538.607
 70
    32
  0
VERTEX
  8
T17SSILL
 62
3
 10
-1568.813
 20
-328.575
 30
3538.595
 70
    32
  0
VERTEX
  8
T17SSILL
 62
3
 10
-1576.471
 20
-331.906
 30
3538.559
 70
    32
  0
VERTEX
  8
T17SSILL
 62
3
 10
-1576.446
 20
-342.207
 30
3538.514
 70
    32
  0
VERTEX
  8
T17SSILL
 62
3
 10
-1575.676
 20
-351.875
 30
3538.202
 70
    32
  0
VERTEX
  8
T17SSILL
 62
3
 10
-1577.446
 20
-356.587
 30
3538.052
 70
    32
  0
VERTEX
  8
T17SSILL
 62
3
 10
-1573.667
 20
-368.823
 30
3537.660
 70
    32
  0
VERTEX
  8
T17SSILL
 62
3
 10
-1571.419
 20
-385.120
 30
3538.857
 70
    32
  0
VERTEX
  8
T17SSILL
 62
3
 10
-1572.680
 20
-396.395
 30
3538.860
 70
    32
  0
VERTEX
  8
T17SSILL
 62
3
 10
-1569.864
 20
-418.975
 30
3536.877
 70
    32
  0
VERTEX
  8
T17SSILL
 62
3
 10
-1609.272
 20
-439.722
 30
3535.664
 70
    32
  0
VERTEX
  8
T17SSILL
 62
3
 10
-1624.374
 20
-445.328
 30
3535.335
 70
    32
  0
VERTEX
  8
T17SSILL
 62
3
 10
-1627.664
 20
-444.905
 30
3535.274
 70
    32
  0
VERTEX
  8
T17SSILL
 62
3
 10
-1632.201
 20
-440.060
 30
3535.252
 70
    32
  0
VERTEX
  8
T17SSILL
 62
3
 10
-1636.617
 20
-431.213
 30
3535.190
 70
    32
  0
VERTEX
  8
T17SSILL
 62
3
 10
-1645.230
 20
-437.033
 30
3535.190
 70
    32
  0
VERTEX
  8
T17SSILL
 62
3
 10
-1638.342
 20
-455.589
 30
3535.236
 70
    32
  0
VERTEX
  8
T17SSILL
 62
3
 10
-1648.528
 20
-469.749
 30
3535.648
 70
    32
  0
VERTEX
  8
T17SSILL
 62
3
 10
-1657.263
 20
-494.556
 30
3536.297
 70
    32
  0
VERTEX
  8
T17SSILL
 62
3
 10
-1657.837
 20
-505.190
 30
3535.929
 70
    32
  0
VERTEX
  8
T17SSILL
 62
3
 10
-1665.038
 20
-503.398
 30
3535.453
 70
    32
  0
VERTEX
  8
T17SSILL
 62
3
 10
-1792.787
 20
-326.503
 30
3535.424
 70
    32
  0
VERTEX
  8
T17SSILL
 62
3
 10
-1796.803
 20
-315.645
 30
3535.422
 70
    32
  0
VERTEX
  8
T17SSILL
 62
3
 10
-1796.634
 20
-305.061
 30
3535.419
 70
    32
  0
VERTEX
  8
T17SSILL
 62
3
 10
-1790.841
 20
-293.735
 30
3535.417
 70
    32
  0
VERTEX
  8
T17SSILL
 62
3
 10
-1783.985
 20
-287.265
 30
3535.413
 70
    32
  0
VERTEX
  8
T17SSILL
 62
3
 10
-1655.073
 20
-195.499
 30
3535.282
 70
    32
  0
VERTEX
  8
T17SSILL
 62
3
 10
-1645.179
 20
-198.962
 30
3535.288
 70
    32
  0
VERTEX
  8
T17SSILL
 62
3
 10
-1634.820
 20
-191.954
 30
3535.286
 70
    32
  0
VERTEX
  8
T17SSILL
 62
3
 10
-1635.255
 20
-181.583
 30
3535.283
 70
    32
  0
VERTEX
  8
T17SSILL
 62
3
 10
-1557.880
 20
-125.978
 30
3535.336
 70
    32
  0
VERTEX
  8
T17SSILL
 62
3
 10
-1545.903
 20
-130.866
 30
3535.348
 70
    32
  0
VERTEX
  8
T17SSILL
 62
3
 10
-1541.504
 20
-129.155
 30
3535.352
 70
    32
  0
VERTEX
  8
T17SSILL
 62
3
 10
-1537.352
 20
-122.980
 30
3535.354
 70
    32
  0
VERTEX
  8
T17SSILL
 62
3
 10
-1541.723
 20
-114.366
 30
3535.347
 70
    32
  0
VERTEX
  8
T17SSILL
 62
3
 10
-1497.816
 20
-82.812
 30
3535.377
 70
    32
  0
VERTEX
  8
T17SSILL
 62
3
 10
-1501.768
 20
-76.008
 30
3535.372
 70
    32
  0
VERTEX
  8
T17SSILL
 62
3
 10
-1545.642
 20
-107.454
 30
3535.342
 70
    32
  0
VERTEX
  8
T17SSILL
 62
3
 10
-1547.107
 20
-104.317
 30
3535.340
 70
    32
  0
VERTEX
  8
T17SSILL
 62
3
 10
-1554.017
 20
-97.449
 30
3535.332
 70
    32
  0
VERTEX
  8
T17SSILL
 62
3
 10
-1554.964
 20
-94.128
 30
3535.330
 70
    32
  0
VERTEX
  8
T17SSILL
 62
3
 10
-1554.589
 20
-85.664
 30
3535.328
 70
    32
  0
VERTEX
  8
T17SSILL
 62
3
 10
-1559.532
 20
-78.374
 30
3535.322
 70
    32
  0
VERTEX
  8
T17SSILL
 62
3
 10
-1572.253
 20
-70.764
 30
3535.309
 70
    32
  0
VERTEX
  8
T17SSILL
 62
3
 10
-1599.508
 20
-51.000
 30
3535.280
 70
    32
  0
VERTEX
  8
T17SSILL
 62
3
 10
-1602.664
 20
-51.723
 30
3535.280
 70
    32
  0
VERTEX
  8
T17SSILL
 62
3
 10
-1605.890
 20
-54.330
 30
3535.280
 70
    32
  0
VERTEX
  8
T17SSILL
 62
3
 10
-1609.638
 20
-54.825
 30
3535.280
 70
    32
  0
VERTEX
  8
T17SSILL
 62
3
 10
-1615.446
 20
-53.325
 30
3535.280
 70
    32
  0
VERTEX
  8
T17SSILL
 62
3
 10
-1620.901
 20
-60.098
 30
3535.280
 70
    32
  0
VERTEX
  8
T17SSILL
 62
3
 10
-1621.393
 20
-62.604
 30
3535.280
 70
    32
  0
VERTEX
  8
T17SSILL
 62
3
 10
-1618.409
 20
-63.620
 30
3535.280
 70
    32
  0
VERTEX
  8
T17SSILL
 62
3
 10
-1615.315
 20
-67.688
 30
3535.280
 70
    32
  0
VERTEX
  8
T17SSILL
 62
3
 10
-1610.661
 20
-77.771
 30
3535.280
 70
    32
  0
VERTEX
  8
T17SSILL
 62
3
 10
-1608.437
 20
-79.541
 30
3535.280
 70
    32
  0
VERTEX
  8
T17SSILL
 62
3
 10
-1596.850
 20
-79.756
 30
3535.289
 70
    32
  0
VERTEX
  8
T17SSILL
 62
3
 10
-1575.650
 20
-93.556
 30
3535.312
 70
    32
  0
VERTEX
  8
T17SSILL
 62
3
 10
-1569.685
 20
-98.936
 30
3535.319
 70
    32
  0
VERTEX
  8
T17SSILL
 62
3
 10
-1565.814
 20
-105.473
 30
3535.324
 70
    32
  0
VERTEX
  8
T17SSILL
 62
3
 10
-1564.059
 20
-118.471
 30
3535.329
 70
    32
  0
VERTEX
  8
T17SSILL
 62
3
 10
-1562.822
 20
-119.768
 30
3535.330
 70
    32
  0
VERTEX
  8
T17SSILL
 62
3
 10
-1690.909
 20
-211.474
 30
3535.315
 70
    32
  0
VERTEX
  8
T17SSILL
 62
3
 10
-1683.067
 20
-183.379
 30
3535.298
 70
    32
  0
VERTEX
  8
T17SSILL
 62
3
 10
-1675.633
 20
-175.744
 30
3535.289
 70
    32
  0
VERTEX
  8
T17SSILL
 62
3
 10
-1672.031
 20
-169.096
 30
3535.284
 70
    32
  0
VERTEX
  8
T17SSILL
 62
3
 10
-1666.651
 20
-163.132
 30
3535.280
 70
    32
  0
VERTEX
  8
T17SSILL
 62
3
 10
-1666.350
 20
-159.898
 30
3535.280
 70
    32
  0
VERTEX
  8
T17SSILL
 62
3
 10
-1673.781
 20
-145.739
 30
3535.280
 70
    32
  0
VERTEX
  8
T17SSILL
 62
3
 10
-1683.441
 20
-142.759
 30
3535.282
 70
    32
  0
VERTEX
  8
T17SSILL
 62
3
 10
-1687.951
 20
-144.008
 30
3535.285
 70
    32
  0
VERTEX
  8
T17SSILL
 62
3
 10
-1700.071
 20
-150.967
 30
3535.297
 70
    32
  0
VERTEX
  8
T17SSILL
 62
3
 10
-1703.561
 20
-155.486
 30
3535.301
 70
    32
  0
VERTEX
  8
T17SSILL
 62
3
 10
-1712.918
 20
-176.563
 30
3535.317
 70
    32
  0
VERTEX
  8
T17SSILL
 62
3
 10
-1721.942
 20
-203.445
 30
3535.334
 70
    32
  0
VERTEX
  8
T17SSILL
 62
3
 10
-1714.532
 20
-210.715
 30
3535.332
 70
    32
  0
VERTEX
  8
T17SSILL
 62
3
 10
-1717.957
 20
-223.710
 30
3535.340
 70
    32
  0
VERTEX
  8
T17SSILL
 62
3
 10
-1724.892
 20
-231.746
 30
3535.348
 70
    32
  0
VERTEX
  8
T17SSILL
 62
3
 10
-1726.553
 20
-237.021
 30
3535.351
 70
    32
  0
VERTEX
  8
T17SSILL
 62
3
 10
-1793.437
 20
-285.647
 30
3535.415
 70
    32
  0
VERTEX
  8
T17SSILL
 62
3
 10
-1802.014
 20
-297.002
 30
3535.417
 70
    32
  0
VERTEX
  8
T17SSILL
 62
3
 10
-1804.734
 20
-308.097
 30
3535.419
 70
    32
  0
VERTEX
  8
T17SSILL
 62
3
 10
-2202.192
 20
246.238
 30
3535.253
 70
    32
  0
VERTEX
  8
T17SSILL
 62
3
 10
-2197.693
 20
249.637
 30
3535.253
 70
    32
  0
VERTEX
  8
T17SSILL
 62
3
 10
-2202.478
 20
255.636
 30
3535.251
 70
    32
  0
VERTEX
  8
T17SSILL
 62
3
 10
-2206.791
 20
252.584
 30
3535.251
 70
    32
  0
VERTEX
  8
T17SSILL
 62
3
 10
-2432.384
 20
568.611
 30
3535.156
 70
    32
  0
VERTEX
  8
T17SSILL
 62
3
 10
-2433.687
 20
577.886
 30
3535.154
 70
    32
  0
VERTEX
  8
T17SSILL
 62
3
 10
-2431.652
 20
587.035
 30
3535.152
 70
    32
  0
VERTEX
  8
T17SSILL
 62
3
 10
-2428.654
 20
592.276
 30
3535.152
 70
    32
  0
VERTEX
  8
T17SSILL
 62
3
 10
-2426.844
 20
593.972
 30
3535.151
 70
    32
  0
VERTEX
  8
T17SSILL
 62
3
 10
-2420.254
 20
587.137
 30
3535.154
 70
    32
  0
VERTEX
  8
T17SSILL
 62
3
 10
-2399.082
 20
601.343
 30
3535.153
 70
    32
  0
VERTEX
  8
T17SSILL
 62
3
 10
-2401.099
 20
604.456
 30
3535.152
 70
    32
  0
VERTEX
  8
T17SSILL
 62
3
 10
-2399.776
 20
609.868
 30
3535.151
 70
    32
  0
VERTEX
  8
T17SSILL
 62
3
 10
-2390.649
 20
615.760
 30
3535.150
 70
    32
  0
VERTEX
  8
T17SSILL
 62
3
 10
-2384.155
 20
618.121
 30
3535.150
 70
    32
  0
VERTEX
  8
T17SSILL
 62
3
 10
-2375.107
 20
614.465
 30
3535.152
 70
    32
  0
VERTEX
  8
T17SSILL
 62
3
 10
-2368.898
 20
599.067
 30
3535.156
 70
    32
  0
VERTEX
  8
T17SSILL
 62
3
 10
-2359.854
 20
603.021
 30
3535.156
 70
    32
  0
VERTEX
  8
T17SSILL
 62
3
 10
-2359.402
 20
605.348
 30
3535.156
 70
    32
  0
VERTEX
  8
T17SSILL
 62
3
 10
-2365.891
 20
620.093
 30
3535.152
 70
    32
  0
VERTEX
  8
T17SSILL
 62
3
 10
-2364.209
 20
623.128
 30
3535.151
 70
    32
  0
VERTEX
  8
T17SSILL
 62
3
 10
-2363.688
 20
632.237
 30
3535.149
 70
    32
  0
VERTEX
  8
T17SSILL
 62
3
 10
-2361.847
 20
635.501
 30
3535.149
 70
    32
  0
VERTEX
  8
T17SSILL
 62
3
 10
-2358.171
 20
637.502
 30
3535.149
 70
    32
  0
VERTEX
  8
T17SSILL
 62
3
 10
-2356.444
 20
637.261
 30
3535.149
 70
    32
  0
VERTEX
  8
T17SSILL
 62
3
 10
-2353.562
 20
639.876
 30
3535.149
 70
    32
  0
VERTEX
  8
T17SSILL
 62
3
 10
-2346.959
 20
647.505
 30
3535.147
 70
    32
  0
VERTEX
  8
T17SSILL
 62
3
 10
-2338.691
 20
651.756
 30
3535.147
 70
    32
  0
VERTEX
  8
T17SSILL
 62
3
 10
-2327.678
 20
650.906
 30
3535.149
 70
    32
  0
VERTEX
  8
T17SSILL
 62
3
 10
-2314.173
 20
647.192
 30
3535.150
 70
    32
  0
VERTEX
  8
T17SSILL
 62
3
 10
-2308.808
 20
643.736
 30
3535.152
 70
    32
  0
VERTEX
  8
T17SSILL
 62
3
 10
-2291.602
 20
639.503
 30
3535.153
 70
    32
  0
VERTEX
  8
T17SSILL
 62
3
 10
-2234.610
 20
633.286
 30
3535.158
 70
    32
  0
VERTEX
  8
T17SSILL
 62
3
 10
-2227.372
 20
627.933
 30
3535.159
 70
    32
  0
VERTEX
  8
T17SSILL
 62
3
 10
-2214.219
 20
611.374
 30
3535.165
 70
    32
  0
VERTEX
  8
T17SSILL
 62
3
 10
-2209.538
 20
600.782
 30
3535.168
 70
    32
  0
VERTEX
  8
T17SSILL
 62
3
 10
-2206.127
 20
596.845
 30
3535.169
 70
    32
  0
VERTEX
  8
T17SSILL
 62
3
 10
-2202.151
 20
598.741
 30
3535.169
 70
    32
  0
VERTEX
  8
T17SSILL
 62
3
 10
-2185.496
 20
583.831
 30
3535.174
 70
    32
  0
VERTEX
  8
T17SSILL
 62
3
 10
-2174.613
 20
585.201
 30
3535.174
 70
    32
  0
VERTEX
  8
T17SSILL
 62
3
 10
-2167.261
 20
583.354
 30
3535.175
 70
    32
  0
VERTEX
  8
T17SSILL
 62
3
 10
-2165.116
 20
584.751
 30
3535.175
 70
    32
  0
VERTEX
  8
T17SSILL
 62
3
 10
-2164.291
 20
585.705
 30
3535.174
 70
    32
  0
VERTEX
  8
T17SSILL
 62
3
 10
-2164.382
 20
599.429
 30
3535.170
 70
    32
  0
VERTEX
  8
T17SSILL
 62
3
 10
-2177.513
 20
608.059
 30
3535.167
 70
    32
  0
VERTEX
  8
T17SSILL
 62
3
 10
-2187.951
 20
617.508
 30
3535.164
 70
    32
  0
VERTEX
  8
T17SSILL
 62
3
 10
-2200.647
 20
621.613
 30
3535.162
 70
    32
  0
VERTEX
  8
T17SSILL
 62
3
 10
-2204.986
 20
629.704
 30
3535.160
 70
    32
  0
VERTEX
  8
T17SSILL
 62
3
 10
-2206.183
 20
635.532
 30
3535.158
 70
    32
  0
VERTEX
  8
T17SSILL
 62
3
 10
-2213.442
 20
648.372
 30
3535.154
 70
    32
  0
VERTEX
  8
T17SSILL
 62
3
 10
-2208.882
 20
655.784
 30
3535.152
 70
    32
  0
VERTEX
  8
T17SSILL
 62
3
 10
-2216.632
 20
661.523
 30
3535.150
 70
    32
  0
VERTEX
  8
T17SSILL
 62
3
 10
-2219.964
 20
656.141
 30
3535.151
 70
    32
  0
VERTEX
  8
T17SSILL
 62
3
 10
-2222.873
 20
656.926
 30
3535.151
 70
    32
  0
VERTEX
  8
T17SSILL
 62
3
 10
-2227.923
 20
654.551
 30
3535.152
 70
    32
  0
VERTEX
  8
T17SSILL
 62
3
 10
-2233.828
 20
662.233
 30
3535.149
 70
    32
  0
VERTEX
  8
T17SSILL
 62
3
 10
-2216.739
 20
674.683
 30
3535.146
 70
    32
  0
VERTEX
  8
T17SSILL
 62
3
 10
-2216.975
 20
677.043
 30
3535.145
 70
    32
  0
VERTEX
  8
T17SSILL
 62
3
 10
-2220.867
 20
682.934
 30
3535.143
 70
    32
  0
VERTEX
  8
T17SSILL
 62
3
 10
-2232.438
 20
687.887
 30
3535.142
 70
    32
  0
VERTEX
  8
T17SSILL
 62
3
 10
-2240.419
 20
694.225
 30
3535.139
 70
    32
  0
VERTEX
  8
T17SSILL
 62
3
 10
-2245.901
 20
708.074
 30
3535.135
 70
    32
  0
VERTEX
  8
T17SSILL
 62
3
 10
-2245.963
 20
711.227
 30
3535.134
 70
    32
  0
VERTEX
  8
T17SSILL
 62
3
 10
-2243.139
 20
715.675
 30
3535.133
 70
    32
  0
VERTEX
  8
T17SSILL
 62
3
 10
-2248.215
 20
722.989
 30
3535.131
 70
    32
  0
VERTEX
  8
T17SSILL
 62
3
 10
-2198.391
 20
759.473
 30
3535.122
 70
    32
  0
VERTEX
  8
T17SSILL
 62
3
 10
-2202.669
 20
764.852
 30
3535.120
 70
    32
  0
VERTEX
  8
T17SSILL
 62
3
 10
-2254.099
 20
729.033
 30
3535.129
 70
    32
  0
VERTEX
  8
T17SSILL
 62
3
 10
-2265.029
 20
738.110
 30
3535.125
 70
    32
  0
VERTEX
  8
T17SSILL
 62
3
 10
-2262.943
 20
754.359
 30
3535.121
 70
    32
  0
VERTEX
  8
T17SSILL
 62
3
 10
-2284.465
 20
752.026
 30
3535.121
 70
    32
  0
VERTEX
  8
T17SSILL
 62
3
 10
-2290.794
 20
747.252
 30
3535.122
 70
    32
  0
VERTEX
  8
T17SSILL
 62
3
 10
-2310.605
 20
763.422
 30
3535.116
 70
    32
  0
VERTEX
  8
T17SSILL
 62
3
 10
-2310.832
 20
768.988
 30
3535.115
 70
    32
  0
VERTEX
  8
T17SSILL
 62
3
 10
-2304.761
 20
771.472
 30
3535.114
 70
    32
  0
VERTEX
  8
T17SSILL
 62
3
 10
-2307.997
 20
782.050
 30
3535.111
 70
    32
  0
VERTEX
  8
T17SSILL
 62
3
 10
-2311.532
 20
786.004
 30
3535.110
 70
    32
  0
VERTEX
  8
T17SSILL
 62
3
 10
-2319.852
 20
793.962
 30
3535.107
 70
    32
  0
VERTEX
  8
T17SSILL
 62
3
 10
-2343.047
 20
810.668
 30
3535.101
 70
    32
  0
VERTEX
  8
T17SSILL
 62
3
 10
-2350.521
 20
805.802
 30
3535.102
 70
    32
  0
VERTEX
  8
T17SSILL
 62
3
 10
-2354.854
 20
805.403
 30
3535.102
 70
    32
  0
VERTEX
  8
T17SSILL
 62
3
 10
-2358.810
 20
809.038
 30
3535.101
 70
    32
  0
VERTEX
  8
T17SSILL
 62
3
 10
-2366.672
 20
823.410
 30
3535.096
 70
    32
  0
VERTEX
  8
T17SSILL
 62
3
 10
-2384.714
 20
811.344
 30
3535.099
 70
    32
  0
VERTEX
  8
T17SSILL
 62
3
 10
-2391.825
 20
815.359
 30
3535.098
 70
    32
  0
VERTEX
  8
T17SSILL
 62
3
 10
-2397.670
 20
814.039
 30
3535.098
 70
    32
  0
VERTEX
  8
T17SSILL
 62
3
 10
-2399.003
 20
812.150
 30
3535.098
 70
    32
  0
VERTEX
  8
T17SSILL
 62
3
 10
-2398.517
 20
808.434
 30
3535.099
 70
    32
  0
VERTEX
  8
T17SSILL
 62
3
 10
-2394.311
 20
803.442
 30
3535.101
 70
    32
  0
VERTEX
  8
T17SSILL
 62
3
 10
-2419.470
 20
785.455
 30
3535.105
 70
    32
  0
VERTEX
  8
T17SSILL
 62
3
 10
-2424.813
 20
787.273
 30
3535.105
 70
    32
  0
VERTEX
  8
T17SSILL
 62
3
 10
-2425.996
 20
788.256
 30
3535.104
 70
    32
  0
VERTEX
  8
T17SSILL
 62
3
 10
-2420.546
 20
804.725
 30
3535.100
 70
    32
  0
VERTEX
  8
T17SSILL
 62
3
 10
-2416.844
 20
803.767
 30
3535.100
 70
    32
  0
VERTEX
  8
T17SSILL
 62
3
 10
-2409.553
 20
804.633
 30
3535.100
 70
    32
  0
VERTEX
  8
T17SSILL
 62
3
 10
-2403.281
 20
810.799
 30
3535.099
 70
    32
  0
VERTEX
  8
T17SSILL
 62
3
 10
-2398.826
 20
817.911
 30
3535.097
 70
    32
  0
VERTEX
  8
T17SSILL
 62
3
 10
-2394.943
 20
828.122
 30
3535.094
 70
    32
  0
VERTEX
  8
T17SSILL
 62
3
 10
-2393.473
 20
837.728
 30
3535.091
 70
    32
  0
VERTEX
  8
T17SSILL
 62
3
 10
-2397.548
 20
852.198
 30
3535.087
 70
    32
  0
VERTEX
  8
T17SSILL
 62
3
 10
-2403.873
 20
858.681
 30
3535.084
 70
    32
  0
VERTEX
  8
T17SSILL
 62
3
 10
-2412.286
 20
862.374
 30
3535.083
 70
    32
  0
VERTEX
  8
T17SSILL
 62
3
 10
-2419.161
 20
876.167
 30
3535.079
 70
    32
  0
VERTEX
  8
T17SSILL
 62
3
 10
-2423.765
 20
878.321
 30
3535.078
 70
    32
  0
VERTEX
  8
T17SSILL
 62
3
 10
-2431.941
 20
885.503
 30
3535.075
 70
    32
  0
VERTEX
  8
T17SSILL
 62
3
 10
-2437.838
 20
902.681
 30
3535.070
 70
    32
  0
VERTEX
  8
T17SSILL
 62
3
 10
-2447.988
 20
909.699
 30
3535.068
 70
    32
  0
VERTEX
  8
T17SSILL
 62
3
 10
-2480.065
 20
920.920
 30
3535.063
 70
    32
  0
VERTEX
  8
T17SSILL
 62
3
 10
-2488.394
 20
913.092
 30
3535.065
 70
    32
  0
VERTEX
  8
T17SSILL
 62
3
 10
-2494.631
 20
913.462
 30
3535.065
 70
    32
  0
VERTEX
  8
T17SSILL
 62
3
 10
-2486.374
 20
883.941
 30
3535.074
 70
    32
  0
VERTEX
  8
T17SSILL
 62
3
 10
-2484.615
 20
872.249
 30
3535.077
 70
    32
  0
VERTEX
  8
T17SSILL
 62
3
 10
-2478.913
 20
855.475
 30
3535.082
 70
    32
  0
VERTEX
  8
T17SSILL
 62
3
 10
-2463.234
 20
836.740
 30
3535.089
 70
    32
  0
VERTEX
  8
T17SSILL
 62
3
 10
-2464.847
 20
827.909
 30
3535.091
 70
    32
  0
VERTEX
  8
T17SSILL
 62
3
 10
-2451.867
 20
822.695
 30
3535.093
 70
    32
  0
VERTEX
  8
T17SSILL
 62
3
 10
-2446.495
 20
817.038
 30
3535.095
 70
    32
  0
VERTEX
  8
T17SSILL
 62
3
 10
-2436.775
 20
818.633
 30
3535.095
 70
    32
  0
VERTEX
  8
T17SSILL
 62
3
 10
-2432.636
 20
812.707
 30
3535.097
 70
    32
  0
VERTEX
  8
T17SSILL
 62
3
 10
-2428.189
 20
809.884
 30
3535.098
 70
    32
  0
VERTEX
  8
T17SSILL
 62
3
 10
-2437.027
 20
782.693
 30
3535.105
 70
    32
  0
VERTEX
  8
T17SSILL
 62
3
 10
-2446.950
 20
765.718
 30
3535.110
 70
    32
  0
VERTEX
  8
T17SSILL
 62
3
 10
-2515.782
 20
716.109
 30
3535.115
 70
    32
  0
VERTEX
  8
T17SSILL
 62
3
 10
-2522.916
 20
702.894
 30
3535.117
 70
    32
  0
VERTEX
  8
T17SSILL
 62
3
 10
-2523.880
 20
695.104
 30
3535.118
 70
    32
  0
VERTEX
  8
T17SSILL
 62
3
 10
-3068.935
 20
1454.582
 30
3534.886
 70
    32
  0
VERTEX
  8
T17SSILL
 62
3
 10
-3074.637
 20
1450.195
 30
3534.887
 70
    32
  0
VERTEX
  8
T17SSILL
 62
3
 10
-2995.477
 20
1338.235
 30
3534.920
 70
    32
  0
VERTEX
  8
T17SSILL
 62
3
 10
-2500.295
 20
651.255
 30
3535.147
 70
    32
  0
VERTEX
  8
T17SSILL
 62
3
 10
-2495.252
 20
625.736
 30
3535.152
 70
    32
  0
VERTEX
  8
T17SSILL
 62
3
 10
-2459.787
 20
590.984
 30
3535.161
 70
    32
  0
VERTEX
  8
T17SSILL
 62
3
 10
-2460.291
 20
585.780
 30
3535.162
 70
    32
  0
VERTEX
  8
T17SSILL
 62
3
 10
-2464.661
 20
582.254
 30
3535.163
 70
    32
  0
VERTEX
  8
T17SSILL
 62
3
 10
-2457.770
 20
571.510
 30
3535.164
 70
    32
  0
VERTEX
  8
T17SSILL
 62
3
 10
-2445.499
 20
575.371
 30
3535.165
 70
    32
  0
VERTEX
  8
T17SSILL
 62
3
 10
-1598.288
 20
-608.821
 30
3535.441
 70
    32
  0
VERTEX
  8
T17SSILL
 62
3
 10
-1235.060
 20
-1113.336
 30
3535.530
 70
    32
  0
VERTEX
  8
T17SSILL
 62
3
 10
-1241.445
 20
-1117.735
 30
3535.581
 70
    32
  0
VERTEX
  8
T17SSILL
 62
3
 10
-1236.560
 20
-1124.963
 30
3535.573
 70
    32
  0
VERTEX
  8
T17SSILL
 62
3
 10
-1230.060
 20
-1120.268
 30
3535.521
 70
    32
  0
VERTEX
  8
T17SSILL
 62
3
 10
-1124.567
 20
-1267.744
 30
3535.323
 70
    32
  0
VERTEX
  8
T17SSILL
 62
3
 10
-1130.245
 20
-1266.575
 30
3535.354
 70
    32
  0
VERTEX
  8
T17SSILL
 62
3
 10
-1145.327
 20
-1269.348
 30
3535.451
 70
    32
  0
VERTEX
  8
T17SSILL
 62
3
 10
-1196.129
 20
-1305.852
 30
3535.856
 70
    32
  0
VERTEX
  8
T17SSILL
 62
3
 10
-1202.636
 20
-1304.729
 30
3535.892
 70
    32
  0
VERTEX
  8
T17SSILL
 62
3
 10
-1207.852
 20
-1297.950
 30
3535.903
 70
    32
  0
VERTEX
  8
T17SSILL
 62
3
 10
-1215.821
 20
-1303.467
 30
3535.966
 70
    32
  0
VERTEX
  8
T17SSILL
 62
3
 10
-1207.955
 20
-1314.306
 30
3535.951
 70
    32
  0
VERTEX
  8
T17SSILL
 62
3
 10
-1277.133
 20
-1363.888
 30
3536.503
 70
    32
  0
VERTEX
  8
T17SSILL
 62
3
 10
-1279.559
 20
-1361.826
 30
3536.511
 70
    32
  0
VERTEX
  8
T17SSILL
 62
3
 10
-1289.221
 20
-1369.832
 30
3536.591
 70
    32
  0
VERTEX
  8
T17SSILL
 62
3
 10
-1288.324
 20
-1372.326
 30
3536.593
 70
    32
  0
VERTEX
  8
T17SSILL
 62
3
 10
-1296.449
 20
-1378.385
 30
3536.659
 70
    32
  0
VERTEX
  8
T17SSILL
 62
3
 10
-1307.916
 20
-1392.085
 30
3536.626
 70
    32
  0
VERTEX
  8
T17SSILL
 62
3
 10
-1311.887
 20
-1389.820
 30
3536.607
 70
    32
  0
VERTEX
  8
T17SSILL
 62
3
 10
-1329.517
 20
-1370.343
 30
3536.528
 70
    32
  0
VERTEX
  8
T17SSILL
 62
3
 10
-1331.172
 20
-1367.844
 30
3536.521
 70
    32
  0
VERTEX
  8
T17SSILL
 62
3
 10
-1330.634
 20
-1365.092
 30
3536.524
 70
    32
  0
VERTEX
  8
T17SSILL
 62
3
 10
-1356.647
 20
-1335.571
 30
3536.407
 70
    32
  0
VERTEX
  8
T17SSILL
 62
3
 10
-1359.390
 20
-1335.351
 30
3536.394
 70
    32
  0
VERTEX
  8
T17SSILL
 62
3
 10
-1360.872
 20
-1336.613
 30
3536.387
 70
    32
  0
VERTEX
  8
T17SSILL
 62
3
 10
-1361.156
 20
-1341.558
 30
3536.384
 70
    32
  0
VERTEX
  8
T17SSILL
 62
3
 10
-1369.299
 20
-1352.482
 30
3536.343
 70
    32
  0
VERTEX
  8
T17SSILL
 62
3
 10
-1370.557
 20
-1361.242
 30
3536.334
 70
    32
  0
VERTEX
  8
T17SSILL
 62
3
 10
-1365.989
 20
-1368.478
 30
3536.354
 70
    32
  0
VERTEX
  8
T17SSILL
 62
3
 10
-1364.583
 20
-1375.358
 30
3536.359
 70
    32
  0
VERTEX
  8
T17SSILL
 62
3
 10
-1364.825
 20
-1380.058
 30
3536.357
 70
    32
  0
VERTEX
  8
T17SSILL
 62
3
 10
-1369.737
 20
-1386.544
 30
3536.332
 70
    32
  0
VERTEX
  8
T17SSILL
 62
3
 10
-1370.313
 20
-1390.617
 30
3536.328
 70
    32
  0
VERTEX
  8
T17SSILL
 62
3
 10
-1364.170
 20
-1401.918
 30
3536.354
 70
    32
  0
VERTEX
  8
T17SSILL
 62
3
 10
-1368.637
 20
-1405.826
 30
3536.332
 70
    32
  0
VERTEX
  8
T17SSILL
 62
3
 10
-1372.914
 20
-1423.296
 30
3536.307
 70
    32
  0
VERTEX
  8
T17SSILL
 62
3
 10
-1389.135
 20
-1426.441
 30
3536.229
 70
    32
  0
VERTEX
  8
T17SSILL
 62
3
 10
-1391.480
 20
-1430.145
 30
3536.216
 70
    32
  0
VERTEX
  8
T17SSILL
 62
3
 10
-1387.005
 20
-1433.889
 30
3536.237
 70
    32
  0
VERTEX
  8
T17SSILL
 62
3
 10
-1367.249
 20
-1435.905
 30
3536.331
 70
    32
  0
VERTEX
  8
T17SSILL
 62
3
 10
-1357.253
 20
-1441.359
 30
3536.377
 70
    32
  0
VERTEX
  8
T17SSILL
 62
3
 10
-1344.923
 20
-1441.715
 30
3536.436
 70
    32
  0
VERTEX
  8
T17SSILL
 62
3
 10
-1334.694
 20
-1443.985
 30
3536.484
 70
    32
  0
VERTEX
  8
T17SSILL
 62
3
 10
-1332.670
 20
-1446.547
 30
3536.493
 70
    32
  0
VERTEX
  8
T17SSILL
 62
3
 10
-1331.498
 20
-1456.611
 30
3536.496
 70
    32
  0
VERTEX
  8
T17SSILL
 62
3
 10
-1334.149
 20
-1463.551
 30
3536.482
 70
    32
  0
VERTEX
  8
T17SSILL
 62
3
 10
-1342.215
 20
-1466.332
 30
3536.443
 70
    32
  0
VERTEX
  8
T17SSILL
 62
3
 10
-1360.400
 20
-1465.472
 30
3536.356
 70
    32
  0
VERTEX
  8
T17SSILL
 62
3
 10
-1363.432
 20
-1467.288
 30
3536.341
 70
    32
  0
VERTEX
  8
T17SSILL
 62
3
 10
-1364.554
 20
-1470.129
 30
3536.335
 70
    32
  0
VERTEX
  8
T17SSILL
 62
3
 10
-1363.754
 20
-1479.054
 30
3536.336
 70
    32
  0
VERTEX
  8
T17SSILL
 62
3
 10
-1354.274
 20
-1481.637
 30
3536.381
 70
    32
  0
VERTEX
  8
T17SSILL
 62
3
 10
-1348.918
 20
-1481.739
 30
3536.406
 70
    32
  0
VERTEX
  8
T17SSILL
 62
3
 10
-1337.731
 20
-1474.059
 30
3536.462
 70
    32
  0
VERTEX
  8
T17SSILL
 62
3
 10
-1320.092
 20
-1471.854
 30
3536.498
 70
    32
  0
VERTEX
  8
T17SSILL
 62
3
 10
-1312.526
 20
-1474.170
 30
3536.480
 70
    32
  0
VERTEX
  8
T17SSILL
 62
3
 10
-1309.397
 20
-1478.756
 30
3536.464
 70
    32
  0
VERTEX
  8
T17SSILL
 62
3
 10
-1306.781
 20
-1479.713
 30
3536.457
 70
    32
  0
VERTEX
  8
T17SSILL
 62
3
 10
-1304.664
 20
-1494.935
 30
3536.416
 70
    32
  0
VERTEX
  8
T17SSILL
 62
3
 10
-1310.296
 20
-1511.096
 30
3536.384
 70
    32
  0
VERTEX
  8
T17SSILL
 62
3
 10
-1355.378
 20
-1546.689
 30
3536.359
 70
    32
  0
VERTEX
  8
T17SSILL
 62
3
 10
-1351.322
 20
-1552.130
 30
3536.346
 70
    32
  0
VERTEX
  8
T17SSILL
 62
3
 10
-1336.460
 20
-1541.101
 30
3536.350
 70
    32
  0
VERTEX
  8
T17SSILL
 62
3
 10
-1332.023
 20
-1546.165
 30
3536.331
 70
    32
  0
VERTEX
  8
T17SSILL
 62
3
 10
-1311.305
 20
-1530.140
 30
3536.338
 70
    32
  0
VERTEX
  8
T17SSILL
 62
3
 10
-1315.496
 20
-1525.119
 30
3536.357
 70
    32
  0
VERTEX
  8
T17SSILL
 62
3
 10
-1302.896
 20
-1515.470
 30
3536.362
 70
    32
  0
VERTEX
  8
T17SSILL
 62
3
 10
-1301.867
 20
-1516.469
 30
3536.357
 70
    32
  0
VERTEX
  8
T17SSILL
 62
3
 10
-1286.887
 20
-1613.628
 30
3536.090
 70
    32
  0
VERTEX
  8
T17SSILL
 62
3
 10
-1287.975
 20
-1615.906
 30
3536.086
 70
    32
  0
VERTEX
  8
T17SSILL
 62
3
 10
-1290.922
 20
-1617.231
 30
3536.088
 70
    32
  0
VERTEX
  8
T17SSILL
 62
3
 10
-1300.830
 20
-1617.862
 30
3536.102
 70
    32
  0
VERTEX
  8
T17SSILL
 62
3
 10
-1307.664
 20
-1621.930
 30
3536.102
 70
    32
  0
VERTEX
  8
T17SSILL
 62
3
 10
-1308.494
 20
-1631.144
 30
3536.081
 70
    32
  0
VERTEX
  8
T17SSILL
 62
3
 10
-1303.079
 20
-1637.135
 30
3536.057
 70
    32
  0
VERTEX
  8
T17SSILL
 62
3
 10
-1287.874
 20
-1628.883
 30
3536.054
 70
    32
  0
VERTEX
  8
T17SSILL
 62
3
 10
-1284.144
 20
-1630.349
 30
3536.044
 70
    32
  0
VERTEX
  8
T17SSILL
 62
3
 10
-1284.077
 20
-1634.722
 30
3536.033
 70
    32
  0
VERTEX
  8
T17SSILL
 62
3
 10
-1238.026
 20
-1703.481
 30
3535.794
 70
    32
  0
VERTEX
  8
T17SSILL
 62
3
 10
-1219.955
 20
-1689.971
 30
3535.774
 70
    32
  0
VERTEX
  8
T17SSILL
 62
3
 10
-1214.108
 20
-1697.491
 30
3535.774
 70
    32
  0
VERTEX
  8
T17SSILL
 62
3
 10
-1190.803
 20
-1680.395
 30
3535.730
 70
    32
  0
VERTEX
  8
T17SSILL
 62
3
 10
-1196.832
 20
-1672.464
 30
3535.730
 70
    32
  0
VERTEX
  8
T17SSILL
 62
3
 10
-1164.834
 20
-1648.586
 30
3535.670
 70
    32
  0
VERTEX
  8
T17SSILL
 62
3
 10
-1158.974
 20
-1655.666
 30
3535.669
 70
    32
  0
VERTEX
  8
T17SSILL
 62
3
 10
-1136.368
 20
-1638.955
 30
3535.627
 70
    32
  0
VERTEX
  8
T17SSILL
 62
3
 10
-1142.143
 20
-1631.384
 30
3535.627
 70
    32
  0
VERTEX
  8
T17SSILL
 62
3
 10
-1114.621
 20
-1611.096
 30
3535.575
 70
    32
  0
VERTEX
  8
T17SSILL
 62
3
 10
-1114.935
 20
-1626.847
 30
3535.590
 70
    32
  0
VERTEX
  8
T17SSILL
 62
3
 10
-1110.684
 20
-1637.758
 30
3535.595
 70
    32
  0
VERTEX
  8
T17SSILL
 62
3
 10
-1055.484
 20
-1707.715
 30
3535.592
 70
    32
  0
VERTEX
  8
T17SSILL
 62
3
 10
-1083.505
 20
-1703.768
 30
3535.622
 70
    32
  0
VERTEX
  8
T17SSILL
 62
3
 10
-1083.713
 20
-1709.738
 30
3535.628
 70
    32
  0
VERTEX
  8
T17SSILL
 62
3
 10
-1078.679
 20
-1716.106
 30
3535.627
 70
    32
  0
VERTEX
  8
T17SSILL
 62
3
 10
-1067.259
 20
-1718.075
 30
3535.615
 70
    32
  0
VERTEX
  8
T17SSILL
 62
3
 10
-1064.160
 20
-1715.133
 30
3535.609
 70
    32
  0
VERTEX
  8
T17SSILL
 62
3
 10
-1055.082
 20
-1716.382
 30
3535.599
 70
    32
  0
VERTEX
  8
T17SSILL
 62
3
 10
-1040.598
 20
-1726.972
 30
3535.591
 70
    32
  0
VERTEX
  8
T17SSILL
 62
3
 10
-959.161
 20
-1832.116
 30
3535.434
 70
    32
  0
VERTEX
  8
T17SSILL
 62
3
 10
-953.276
 20
-1827.315
 30
3535.435
 70
    32
  0
VERTEX
  8
T17SSILL
 62
3
 10
-987.099
 20
-1784.435
 30
3535.511
 70
    32
  0
VERTEX
  8
T17SSILL
 62
3
 10
-986.820
 20
-1778.414
 30
3535.518
 70
    32
  0
VERTEX
  8
T17SSILL
 62
3
 10
-981.679
 20
-1773.168
 30
3535.521
 70
    32
  0
VERTEX
  8
T17SSILL
 62
3
 10
-1002.044
 20
-1755.622
 30
3535.556
 70
    32
  0
VERTEX
  8
T17SSILL
 62
3
 10
-1007.536
 20
-1757.772
 30
3535.558
 70
    32
  0
VERTEX
  8
T17SSILL
 62
3
 10
-1070.924
 20
-1675.908
 30
3535.581
 70
    32
  0
VERTEX
  8
T17SSILL
 62
3
 10
-1074.760
 20
-1664.057
 30
3535.575
 70
    32
  0
VERTEX
  8
T17SSILL
 62
3
 10
-1072.049
 20
-1646.507
 30
3535.556
 70
    32
  0
VERTEX
  8
T17SSILL
 62
3
 10
-1066.333
 20
-1639.022
 30
3535.542
 70
    32
  0
VERTEX
  8
T17SSILL
 62
3
 10
-1063.004
 20
-1628.153
 30
3535.528
 70
    32
  0
VERTEX
  8
T17SSILL
 62
3
 10
-1060.392
 20
-1624.368
 30
3535.522
 70
    32
  0
VERTEX
  8
T17SSILL
 62
3
 10
-1064.079
 20
-1620.824
 30
3535.523
 70
    32
  0
VERTEX
  8
T17SSILL
 62
3
 10
-1061.043
 20
-1609.083
 30
3535.509
 70
    32
  0
VERTEX
  8
T17SSILL
 62
3
 10
-1067.237
 20
-1606.877
 30
3535.514
 70
    32
  0
VERTEX
  8
T17SSILL
 62
3
 10
-1069.507
 20
-1609.773
 30
3535.520
 70
    32
  0
VERTEX
  8
T17SSILL
 62
3
 10
-1072.864
 20
-1607.613
 30
3535.522
 70
    32
  0
VERTEX
  8
T17SSILL
 62
3
 10
-1071.183
 20
-1596.397
 30
3535.509
 70
    32
  0
VERTEX
  8
T17SSILL
 62
3
 10
-1066.055
 20
-1589.759
 30
3535.497
 70
    32
  0
VERTEX
  8
T17SSILL
 62
3
 10
-1061.109
 20
-1579.042
 30
3535.481
 70
    32
  0
VERTEX
  8
T17SSILL
 62
3
 10
-1058.366
 20
-1575.596
 30
3535.475
 70
    32
  0
VERTEX
  8
T17SSILL
 62
3
 10
-1058.713
 20
-1571.743
 30
3535.472
 70
    32
  0
VERTEX
  8
T17SSILL
 62
3
 10
-1060.228
 20
-1569.901
 30
3535.472
 70
    32
  0
VERTEX
  8
T17SSILL
 62
3
 10
-940.519
 20
-1480.988
 30
3535.247
 70
    32
  0
VERTEX
  8
T17SSILL
 62
3
 10
-936.082
 20
-1478.718
 30
3535.239
 70
    32
  0
VERTEX
  8
T17SSILL
 62
3
 10
-927.279
 20
-1477.897
 30
3535.228
 70
    32
  0
VERTEX
  8
T17SSILL
 62
3
 10
-917.215
 20
-1480.392
 30
3535.218
 70
    32
  0
VERTEX
  8
T17SSILL
 62
3
 10
-913.134
 20
-1483.119
 30
3535.215
 70
    32
  0
VERTEX
  8
T17SSILL
 62
3
 10
-852.393
 20
-1537.972
 30
3535.192
 70
    32
  0
VERTEX
  8
T17SSILL
 62
3
 10
-854.664
 20
-1538.735
 30
3535.195
 70
    32
  0
VERTEX
  8
T17SSILL
 62
3
 10
-852.435
 20
-1541.688
 30
3535.195
 70
    32
  0
VERTEX
  8
T17SSILL
 62
3
 10
-849.869
 20
-1540.279
 30
3535.191
 70
    32
  0
VERTEX
  8
T17SSILL
 62
3
 10
-768.140
 20
-1620.418
 30
3535.165
 70
    32
  0
VERTEX
  8
T17SSILL
 62
3
 10
-567.288
 20
-1804.235
 30
3535.089
 70
    32
  0
VERTEX
  8
T17SSILL
 62
3
 10
-569.443
 20
-1806.382
 30
3535.094
 70
    32
  0
VERTEX
  8
T17SSILL
 62
3
 10
-566.930
 20
-1809.476
 30
3535.094
 70
    32
  0
VERTEX
  8
T17SSILL
 62
3
 10
-563.801
 20
-1807.158
 30
3535.088
 70
    32
  0
VERTEX
  8
T17SSILL
 62
3
 10
-271.241
 20
-2075.354
 30
3535.907
 70
    32
  0
VERTEX
  8
T17SSILL
 62
3
 10
75.743
 20
-2397.931
 30
3537.181
 70
    32
  0
VERTEX
  8
T17SSILL
 62
3
 10
733.126
 20
-3004.374
 30
3535.122
 70
    32
  0
VERTEX
  8
T17SSILL
 62
3
 10
735.334
 20
-3008.580
 30
3535.113
 70
    32
  0
VERTEX
  8
T17SSILL
 62
3
 10
736.923
 20
-3012.715
 30
3535.105
 70
    32
  0
VERTEX
  8
T17SSILL
 62
3
 10
737.348
 20
-3021.480
 30
3535.093
 70
    32
  0
VERTEX
  8
T17SSILL
 62
3
 10
735.855
 20
-3028.393
 30
3535.088
 70
    32
  0
VERTEX
  8
T17SSILL
 62
3
 10
732.866
 20
-3034.692
 30
3535.087
 70
    32
  0
VERTEX
  8
T17SSILL
 62
3
 10
661.880
 20
-3110.955
 30
3535.139
 70
    32
  0
VERTEX
  8
T17SSILL
 62
3
 10
655.579
 20
-3119.561
 30
3535.141
 70
    32
  0
VERTEX
  8
T17SSILL
 62
3
 10
651.256
 20
-3130.363
 30
3535.137
 70
    32
  0
VERTEX
  8
T17SSILL
 62
3
 10
651.688
 20
-3143.326
 30
3535.121
 70
    32
  0
VERTEX
  8
T17SSILL
 62
3
 10
654.553
 20
-3156.147
 30
3535.100
 70
    32
  0
VERTEX
  8
T17SSILL
 62
3
 10
642.029
 20
-3165.728
 30
3535.114
 70
    32
  0
VERTEX
  8
T17SSILL
 62
3
 10
646.875
 20
-3170.430
 30
3535.098
 70
    32
  0
VERTEX
  8
T17SSILL
 62
3
 10
657.800
 20
-3161.666
 30
3535.087
 70
    32
  0
VERTEX
  8
T17SSILL
 62
3
 10
670.551
 20
-3181.456
 30
3535.037
 70
    32
  0
VERTEX
  8
T17SSILL
 62
3
 10
662.885
 20
-3184.830
 30
3535.048
 70
    32
  0
VERTEX
  8
T17SSILL
 62
3
 10
661.561
 20
-3180.036
 30
3535.057
 70
    32
  0
VERTEX
  8
T17SSILL
 62
3
 10
653.944
 20
-3181.910
 30
3535.070
 70
    32
  0
VERTEX
  8
T17SSILL
 62
3
 10
659.769
 20
-3203.028
 30
3535.033
 70
    32
  0
VERTEX
  8
T17SSILL
 62
3
 10
656.940
 20
-3218.752
 30
3535.020
 70
    32
  0
VERTEX
  8
T17SSILL
 62
3
 10
656.779
 20
-3226.069
 30
3535.011
 70
    32
  0
VERTEX
  8
T17SSILL
 62
3
 10
659.721
 20
-3246.100
 30
3534.981
 70
    32
  0
VERTEX
  8
T17SSILL
 62
3
 10
662.528
 20
-3257.023
 30
3534.963
 70
    32
  0
VERTEX
  8
T17SSILL
 62
3
 10
669.751
 20
-3276.359
 30
3534.925
 70
    32
  0
VERTEX
  8
T17SSILL
 62
3
 10
677.699
 20
-3282.424
 30
3534.901
 70
    32
  0
VERTEX
  8
T17SSILL
 62
3
 10
682.400
 20
-3288.927
 30
3534.884
 70
    32
  0
VERTEX
  8
T17SSILL
 62
3
 10
701.776
 20
-3359.649
 30
3534.760
 70
    32
  0
VERTEX
  8
T17SSILL
 62
3
 10
707.517
 20
-3356.115
 30
3534.753
 70
    32
  0
VERTEX
  8
T17SSILL
 62
3
 10
711.359
 20
-3363.521
 30
3534.736
 70
    32
  0
VERTEX
  8
T17SSILL
 62
3
 10
707.095
 20
-3366.224
 30
3534.741
 70
    32
  0
VERTEX
  8
T17SSILL
 62
3
 10
709.709
 20
-3371.795
 30
3534.730
 70
    32
  0
VERTEX
  8
T17SSILL
 62
3
 10
715.279
 20
-3369.181
 30
3534.721
 70
    32
  0
VERTEX
  8
T17SSILL
 62
3
 10
750.522
 20
-3433.407
 30
3534.573
 70
    32
  0
VERTEX
  8
T17SSILL
 62
3
 10
747.881
 20
-3436.172
 30
3534.575
 70
    32
  0
VERTEX
  8
T17SSILL
 62
3
 10
758.313
 20
-3460.271
 30
3534.525
 70
    32
  0
VERTEX
  8
T17SSILL
 62
3
 10
765.888
 20
-3469.553
 30
3534.499
 70
    32
  0
VERTEX
  8
T17SSILL
 62
3
 10
772.130
 20
-3473.036
 30
3534.482
 70
    32
  0
VERTEX
  8
T17SSILL
 62
3
 10
786.249
 20
-3499.946
 30
3534.421
 70
    32
  0
VERTEX
  8
T17SSILL
 62
3
 10
792.947
 20
-3508.687
 30
3534.397
 70
    32
  0
VERTEX
  8
T17SSILL
 62
3
 10
173.881
 20
-3972.516
 30
3535.095
 70
    32
  0
VERTEX
  8
T17SSILL
 62
3
 10
167.881
 20
-3971.739
 30
3535.109
 70
    32
  0
VERTEX
  8
T17SSILL
 62
3
 10
163.465
 20
-3969.810
 30
3535.120
 70
    32
  0
VERTEX
  8
T17SSILL
 62
3
 10
149.399
 20
-3955.912
 30
3535.165
 70
    32
  0
VERTEX
  8
T17SSILL
 62
3
 10
124.507
 20
-3919.109
 30
3535.260
 70
    32
  0
VERTEX
  8
T17SSILL
 62
3
 10
115.572
 20
-3910.048
 30
3535.288
 70
    32
  0
VERTEX
  8
T17SSILL
 62
3
 10
97.977
 20
-3895.895
 30
3535.341
 70
    32
  0
VERTEX
  8
T17SSILL
 62
3
 10
87.699
 20
-3879.957
 30
3535.381
 70
    32
  0
VERTEX
  8
T17SSILL
 62
3
 10
72.830
 20
-3862.533
 30
3535.432
 70
    32
  0
VERTEX
  8
T17SSILL
 62
3
 10
4.979
 20
-3795.064
 30
3535.650
 70
    32
  0
VERTEX
  8
T17SSILL
 62
3
 10
1.602
 20
-3786.340
 30
3535.668
 70
    32
  0
VERTEX
  8
T17SSILL
 62
3
 10
-5.372
 20
-3784.507
 30
3535.684
 70
    32
  0
VERTEX
  8
T17SSILL
 62
3
 10
-34.476
 20
-3755.478
 30
3535.778
 70
    32
  0
VERTEX
  8
T17SSILL
 62
3
 10
-33.960
 20
-3750.978
 30
3535.782
 70
    32
  0
VERTEX
  8
T17SSILL
 62
3
 10
-38.636
 20
-3750.727
 30
3535.792
 70
    32
  0
VERTEX
  8
T17SSILL
 62
3
 10
-70.656
 20
-3720.118
 30
3535.893
 70
    32
  0
VERTEX
  8
T17SSILL
 62
3
 10
-70.404
 20
-3715.707
 30
3535.898
 70
    32
  0
VERTEX
  8
T17SSILL
 62
3
 10
-75.436
 20
-3714.310
 30
3535.910
 70
    32
  0
VERTEX
  8
T17SSILL
 62
3
 10
-121.841
 20
-3650.309
 30
3536.081
 70
    32
  0
VERTEX
  8
T17SSILL
 62
3
 10
-121.192
 20
-3630.282
 30
3536.104
 70
    32
  0
VERTEX
  8
T17SSILL
 62
3
 10
-122.646
 20
-3615.113
 30
3536.125
 70
    32
  0
VERTEX
  8
T17SSILL
 62
3
 10
-127.890
 20
-3601.278
 30
3536.152
 70
    32
  0
VERTEX
  8
T17SSILL
 62
3
 10
-239.838
 20
-3443.779
 30
3536.164
 70
    32
  0
VERTEX
  8
T17SSILL
 62
3
 10
-245.061
 20
-3438.079
 30
3536.145
 70
    32
  0
VERTEX
  8
T17SSILL
 62
3
 10
-246.755
 20
-3426.533
 30
3536.138
 70
    32
  0
VERTEX
  8
T17SSILL
 62
3
 10
-253.148
 20
-3405.274
 30
3536.113
 70
    32
  0
VERTEX
  8
T17SSILL
 62
3
 10
-275.021
 20
-3365.784
 30
3536.030
 70
    32
  0
VERTEX
  8
T17SSILL
 62
3
 10
-283.060
 20
-3354.906
 30
3536.000
 70
    32
  0
VERTEX
  8
T17SSILL
 62
3
 10
-298.412
 20
-3329.808
 30
3535.943
 70
    32
  0
VERTEX
  8
T17SSILL
 62
3
 10
-304.754
 20
-3314.890
 30
3535.918
 70
    32
  0
VERTEX
  8
T17SSILL
 62
3
 10
-306.786
 20
-3285.730
 30
3535.908
 70
    32
  0
VERTEX
  8
T17SSILL
 62
3
 10
-312.589
 20
-3269.053
 30
3535.886
 70
    32
  0
VERTEX
  8
T17SSILL
 62
3
 10
-319.366
 20
-3238.193
 30
3535.858
 70
    32
  0
VERTEX
  8
T17SSILL
 62
3
 10
-343.461
 20
-3202.125
 30
3535.768
 70
    32
  0
VERTEX
  8
T17SSILL
 62
3
 10
-346.108
 20
-3187.844
 30
3535.757
 70
    32
  0
VERTEX
  8
T17SSILL
 62
3
 10
-344.297
 20
-3149.109
 30
3535.760
 70
    32
  0
VERTEX
  8
T17SSILL
 62
3
 10
-351.165
 20
-3148.892
 30
3535.735
 70
    32
  0
VERTEX
  8
T17SSILL
 62
3
 10
-354.022
 20
-3186.037
 30
3535.729
 70
    32
  0
VERTEX
  8
T17SSILL
 62
3
 10
-353.000
 20
-3191.943
 30
3535.733
 70
    32
  0
VERTEX
  8
T17SSILL
 62
3
 10
-348.685
 20
-3207.114
 30
3535.750
 70
    32
  0
VERTEX
  8
T17SSILL
 62
3
 10
-326.945
 20
-3239.206
 30
3535.831
 70
    32
  0
VERTEX
  8
T17SSILL
 62
3
 10
-322.813
 20
-3255.521
 30
3535.848
 70
    32
  0
VERTEX
  8
T17SSILL
 62
3
 10
-321.647
 20
-3267.063
 30
3535.853
 70
    32
  0
VERTEX
  8
T17SSILL
 62
3
 10
-314.618
 20
-3284.892
 30
3535.880
 70
    32
  0
VERTEX
  8
T17SSILL
 62
3
 10
-313.964
 20
-3308.760
 30
3535.885
 70
    32
  0
VERTEX
  8
T17SSILL
 62
3
 10
-312.869
 20
-3317.308
 30
3535.890
 70
    32
  0
VERTEX
  8
T17SSILL
 62
3
 10
-309.315
 20
-3326.927
 30
3535.903
 70
    32
  0
VERTEX
  8
T17SSILL
 62
3
 10
-290.023
 20
-3356.099
 30
3535.976
 70
    32
  0
VERTEX
  8
T17SSILL
 62
3
 10
-262.467
 20
-3402.666
 30
3536.079
 70
    32
  0
VERTEX
  8
T17SSILL
 62
3
 10
-255.960
 20
-3419.347
 30
3536.104
 70
    32
  0
VERTEX
  8
T17SSILL
 62
3
 10
-250.721
 20
-3442.273
 30
3536.125
 70
    32
  0
VERTEX
  8
T17SSILL
 62
3
 10
-247.495
 20
-3447.839
 30
3536.137
 70
    32
  0
VERTEX
  8
T17SSILL
 62
3
 10
-244.233
 20
-3449.172
 30
3536.149
 70
    32
  0
VERTEX
  8
T17SSILL
 62
3
 10
-131.574
 20
-3608.611
 30
3536.151
 70
    32
  0
VERTEX
  8
T17SSILL
 62
3
 10
-129.978
 20
-3611.517
 30
3536.144
 70
    32
  0
VERTEX
  8
T17SSILL
 62
3
 10
-128.533
 20
-3623.422
 30
3536.127
 70
    32
  0
VERTEX
  8
T17SSILL
 62
3
 10
-128.444
 20
-3654.826
 30
3536.089
 70
    32
  0
VERTEX
  8
T17SSILL
 62
3
 10
-87.085
 20
-3712.755
 30
3535.936
 70
    32
  0
VERTEX
  8
T17SSILL
 62
3
 10
-81.246
 20
-3718.649
 30
3535.917
 70
    32
  0
VERTEX
  8
T17SSILL
 62
3
 10
-80.885
 20
-3721.647
 30
3535.912
 70
    32
  0
VERTEX
  8
T17SSILL
 62
3
 10
-75.761
 20
-3724.102
 30
3535.899
 70
    32
  0
VERTEX
  8
T17SSILL
 62
3
 10
-45.594
 20
-3754.716
 30
3535.801
 70
    32
  0
VERTEX
  8
T17SSILL
 62
3
 10
-46.284
 20
-3760.275
 30
3535.796
 70
    32
  0
VERTEX
  8
T17SSILL
 62
3
 10
-40.374
 20
-3759.994
 30
3535.784
 70
    32
  0
VERTEX
  8
T17SSILL
 62
3
 10
-9.059
 20
-3790.869
 30
3535.684
 70
    32
  0
VERTEX
  8
T17SSILL
 62
3
 10
-8.249
 20
-3796.512
 30
3535.675
 70
    32
  0
VERTEX
  8
T17SSILL
 62
3
 10
-2.954
 20
-3797.468
 30
3535.664
 70
    32
  0
VERTEX
  8
T17SSILL
 62
3
 10
79.052
 20
-3879.011
 30
3535.400
 70
    32
  0
VERTEX
  8
T17SSILL
 62
3
 10
96.504
 20
-3905.426
 30
3535.333
 70
    32
  0
VERTEX
  8
T17SSILL
 62
3
 10
113.035
 20
-3917.553
 30
3535.285
 70
    32
  0
VERTEX
  8
T17SSILL
 62
3
 10
126.136
 20
-3933.836
 30
3535.239
 70
    32
  0
VERTEX
  8
T17SSILL
 62
3
 10
147.305
 20
-3964.034
 30
3535.159
 70
    32
  0
VERTEX
  8
T17SSILL
 62
3
 10
164.200
 20
-3980.218
 30
3535.106
 70
    32
  0
VERTEX
  8
T17SSILL
 62
3
 10
-314.145
 20
-4339.101
 30
3535.645
 70
    32
  0
VERTEX
  8
T17SSILL
 62
3
 10
-306.639
 20
-4341.991
 30
3535.626
 70
    32
  0
VERTEX
  8
T17SSILL
 62
3
 10
797.589
 20
-3515.684
 30
3534.379
 70
    32
  0
VERTEX
  8
T17SSILL
 62
3
 10
803.990
 20
-3525.896
 30
3534.371
 70
    32
  0
VERTEX
  8
T17SSILL
 62
3
 10
807.197
 20
-3533.918
 30
3534.381
 70
    32
  0
VERTEX
  8
T17SSILL
 62
3
 10
810.342
 20
-3532.214
 30
3534.378
 70
    32
  0
VERTEX
  8
T17SSILL
 62
3
 10
815.781
 20
-3539.509
 30
3534.387
 70
    32
  0
VERTEX
  8
T17SSILL
 62
3
 10
819.264
 20
-3568.083
 30
3534.424
 70
    32
  0
VERTEX
  8
T17SSILL
 62
3
 10
825.814
 20
-3576.003
 30
3534.433
 70
    32
  0
VERTEX
  8
T17SSILL
 62
3
 10
835.100
 20
-3584.181
 30
3534.443
 70
    32
  0
VERTEX
  8
T17SSILL
 62
3
 10
836.346
 20
-3587.971
 30
3534.447
 70
    32
  0
VERTEX
  8
T17SSILL
 62
3
 10
835.735
 20
-3590.531
 30
3534.451
 70
    32
  0
VERTEX
  8
T17SSILL
 62
3
 10
843.788
 20
-3599.506
 30
3534.461
 70
    32
  0
VERTEX
  8
T17SSILL
 62
3
 10
849.959
 20
-3597.901
 30
3534.458
 70
    32
  0
VERTEX
  8
T17SSILL
 62
3
 10
867.714
 20
-3606.496
 30
3534.467
 70
    32
  0
VERTEX
  8
T17SSILL
 62
3
 10
877.047
 20
-3600.030
 30
3534.457
 70
    32
  0
VERTEX
  8
T17SSILL
 62
3
 10
871.718
 20
-3587.430
 30
3534.442
 70
    32
  0
VERTEX
  8
T17SSILL
 62
3
 10
868.355
 20
-3583.646
 30
3534.437
 70
    32
  0
VERTEX
  8
T17SSILL
 62
3
 10
870.730
 20
-3581.258
 30
3534.434
 70
    32
  0
VERTEX
  8
T17SSILL
 62
3
 10
881.267
 20
-3595.078
 30
3534.450
 70
    32
  0
VERTEX
  8
T17SSILL
 62
3
 10
882.157
 20
-3597.722
 30
3534.454
 70
    32
  0
VERTEX
  8
T17SSILL
 62
3
 10
893.830
 20
-3608.098
 30
3534.466
 70
    32
  0
VERTEX
  8
T17SSILL
 62
3
 10
942.148
 20
-3662.302
 30
3534.529
 70
    32
  0
VERTEX
  8
T17SSILL
 62
3
 10
946.902
 20
-3658.671
 30
3534.524
 70
    32
  0
VERTEX
  8
T17SSILL
 62
3
 10
933.984
 20
-3645.211
 30
3534.508
 70
    32
  0
VERTEX
  8
T17SSILL
 62
3
 10
911.410
 20
-3617.134
 30
3534.475
 70
    32
  0
VERTEX
  8
T17SSILL
 62
3
 10
886.636
 20
-3590.740
 30
3534.444
 70
    32
  0
VERTEX
  8
T17SSILL
 62
3
 10
879.465
 20
-3581.586
 30
3534.433
 70
    32
  0
VERTEX
  8
T17SSILL
 62
3
 10
865.199
 20
-3559.220
 30
3534.406
 70
    32
  0
VERTEX
  8
T17SSILL
 62
3
 10
864.747
 20
-3555.516
 30
3534.401
 70
    32
  0
VERTEX
  8
T17SSILL
 62
3
 10
868.872
 20
-3547.918
 30
3534.391
 70
    32
  0
VERTEX
  8
T17SSILL
 62
3
 10
864.262
 20
-3539.815
 30
3534.381
 70
    32
  0
VERTEX
  8
T17SSILL
 62
3
 10
865.827
 20
-3531.695
 30
3534.370
 70
    32
  0
VERTEX
  8
T17SSILL
 62
3
 10
864.584
 20
-3528.964
 30
3534.367
 70
    32
  0
VERTEX
  8
T17SSILL
 62
3
 10
858.843
 20
-3524.930
 30
3534.362
 70
    32
  0
VERTEX
  8
T17SSILL
 62
3
 10
853.124
 20
-3518.559
 30
3534.355
 70
    32
  0
VERTEX
  8
T17SSILL
 62
3
 10
841.542
 20
-3498.968
 30
3534.331
 70
    32
  0
VERTEX
  8
T17SSILL
 62
3
 10
840.092
 20
-3483.374
 30
3534.332
 70
    32
  0
VERTEX
  8
T17SSILL
 62
3
 10
1016.193
 20
-3349.761
 30
3534.135
 70
    32
  0
VERTEX
  8
T17SSILL
 62
3
 10
1021.341
 20
-3349.167
 30
3534.125
 70
    32
  0
VERTEX
  8
T17SSILL
 62
3
 10
1026.339
 20
-3345.547
 30
3534.119
 70
    32
  0
VERTEX
  8
T17SSILL
 62
3
 10
1027.915
 20
-3341.152
 30
3534.121
 70
    32
  0
VERTEX
  8
T17SSILL
 62
3
 10
1446.922
 20
-3024.822
 30
3533.651
 70
    32
  0
VERTEX
  8
T17SSILL
 62
3
 10
1466.536
 20
-3022.568
 30
3533.628
 70
    32
  0
VERTEX
  8
T17SSILL
 62
3
 10
1518.428
 20
-2982.976
 30
3533.570
 70
    32
  0
VERTEX
  8
T17SSILL
 62
3
 10
1524.949
 20
-2986.560
 30
3533.574
 70
    32
  0
VERTEX
  8
T17SSILL
 62
3
 10
1528.471
 20
-2986.807
 30
3533.574
 70
    32
  0
VERTEX
  8
T17SSILL
 62
3
 10
1531.148
 20
-2985.233
 30
3533.571
 70
    32
  0
VERTEX
  8
T17SSILL
 62
3
 10
1546.875
 20
-2999.966
 30
3533.588
 70
    32
  0
VERTEX
  8
T17SSILL
 62
3
 10
1550.732
 20
-3005.562
 30
3533.595
 70
    32
  0
VERTEX
  8
T17SSILL
 62
3
 10
1553.897
 20
-3002.656
 30
3533.591
 70
    32
  0
VERTEX
  8
T17SSILL
 62
3
 10
1653.847
 20
-3010.135
 30
3533.587
 70
    32
  0
VERTEX
  8
T17SSILL
 62
3
 10
1802.578
 20
-2903.078
 30
3533.428
 70
    32
  0
VERTEX
  8
T17SSILL
 62
3
 10
1811.611
 20
-2905.444
 30
3533.430
 70
    32
  0
VERTEX
  8
T17SSILL
 62
3
 10
1862.240
 20
-2976.865
 30
3533.515
 70
    32
  0
VERTEX
  8
T17SSILL
 62
3
 10
1818.794
 20
-3007.946
 30
3533.562
 70
    32
  0
VERTEX
  8
T17SSILL
 62
3
 10
1823.013
 20
-3013.883
 30
3533.569
 70
    32
  0
VERTEX
  8
T17SSILL
 62
3
 10
1866.366
 20
-2982.629
 30
3533.522
 70
    32
  0
VERTEX
  8
T17SSILL
 62
3
 10
1881.792
 20
-3004.927
 30
3533.549
 70
    32
  0
VERTEX
  8
T17SSILL
 62
3
 10
1882.013
 20
-3009.401
 30
3533.555
 70
    32
  0
VERTEX
  8
T17SSILL
 62
3
 10
1878.800
 20
-3013.627
 30
3533.561
 70
    32
  0
VERTEX
  8
T17SSILL
 62
3
 10
1851.871
 20
-3032.881
 30
3533.589
 70
    32
  0
VERTEX
  8
T17SSILL
 62
3
 10
1844.482
 20
-3020.800
 30
3533.575
 70
    32
  0
VERTEX
  8
T17SSILL
 62
3
 10
1838.808
 20
-3025.010
 30
3533.581
 70
    32
  0
VERTEX
  8
T17SSILL
 62
3
 10
1844.355
 20
-3034.247
 30
3533.592
 70
    32
  0
VERTEX
  8
T17SSILL
 62
3
 10
1746.812
 20
-3053.849
 30
3533.631
 70
    32
  0
VERTEX
  8
T17SSILL
 62
3
 10
1744.403
 20
-3061.275
 30
3533.641
 70
    32
  0
VERTEX
  8
T17SSILL
 62
3
 10
1844.120
 20
-3041.107
 30
3533.601
 70
    32
  0
VERTEX
  8
T17SSILL
 62
3
 10
1848.972
 20
-3041.754
 30
3533.601
 70
    32
  0
VERTEX
  8
T17SSILL
 62
3
 10
1850.613
 20
-3043.726
 30
3533.604
 70
    32
  0
VERTEX
  8
T17SSILL
 62
3
 10
1884.503
 20
-3019.256
 30
3533.567
 70
    32
  0
VERTEX
  8
T17SSILL
 62
3
 10
1888.391
 20
-3017.032
 30
3533.564
 70
    32
  0
VERTEX
  8
T17SSILL
 62
3
 10
1891.409
 20
-3018.084
 30
3533.565
 70
    32
  0
VERTEX
  8
T17SSILL
 62
3
 10
2109.058
 20
-3319.131
 30
3534.003
 70
    32
  0
VERTEX
  8
T17SSILL
 62
3
 10
2115.949
 20
-3435.436
 30
3534.147
 70
    32
  0
VERTEX
  8
T17SSILL
 62
3
 10
2161.906
 20
-4322.346
 30
3535.240
 70
    32
  0
VERTEX
  8
T17SSILL
 62
3
 10
2171.330
 20
-4524.290
 30
3535.489
 70
    32
  0
VERTEX
  8
T17SSILL
 62
3
 10
2171.065
 20
-4528.410
 30
3535.494
 70
    32
  0
VERTEX
  8
T17SSILL
 62
3
 10
2116.901
 20
-4581.180
 30
3535.562
 70
    32
  0
VERTEX
  8
T17SSILL
 62
3
 10
2116.141
 20
-4614.654
 30
3535.605
 70
    32
  0
VERTEX
  8
T17SSILL
 62
3
 10
2123.058
 20
-4614.725
 30
3535.605
 70
    32
  0
VERTEX
  8
T17SSILL
 62
3
 10
2122.462
 20
-4629.495
 30
3535.620
 70
    32
  0
VERTEX
  8
T17SSILL
 62
3
 10
2171.493
 20
-4630.094
 30
3535.558
 70
    32
  0
VERTEX
  8
T17SSILL
 62
3
 10
2172.062
 20
-4763.329
 30
3535.570
 70
    32
  0
VERTEX
  8
T17SSILL
 62
3
 10
2179.286
 20
-4761.923
 30
3535.559
 70
    32
  0
VERTEX
  8
T17SSILL
 62
3
 10
2179.422
 20
-4736.351
 30
3535.557
 70
    32
  0
VERTEX
  8
T17SSILL
 62
3
 10
2181.451
 20
-4728.555
 30
3535.553
 70
    32
  0
VERTEX
  8
T17SSILL
 62
3
 10
2181.250
 20
-4615.537
 30
3535.543
 70
    32
  0
VERTEX
  8
T17SSILL
 62
3
 10
2200.661
 20
-4616.389
 30
3535.516
 70
    32
  0
VERTEX
  8
T17SSILL
 62
3
 10
2200.586
 20
-4608.127
 30
3535.516
 70
    32
  0
VERTEX
  8
T17SSILL
 62
3
 10
2181.084
 20
-4607.538
 30
3535.543
 70
    32
  0
VERTEX
  8
T17SSILL
 62
3
 10
2179.719
 20
-4489.057
 30
3535.444
 70
    32
  0
VERTEX
  8
T17SSILL
 62
3
 10
2176.199
 20
-4403.066
 30
3535.338
 70
    32
  0
VERTEX
  8
T17SSILL
 62
3
 10
2170.529
 20
-4322.266
 30
3535.239
 70
    32
  0
VERTEX
  8
T17SSILL
 62
3
 10
2123.446
 20
-3433.455
 30
3534.143
 70
    32
  0
VERTEX
  8
T17SSILL
 62
3
 10
2116.268
 20
-3322.255
 30
3534.006
 70
    32
  0
VERTEX
  8
T17SSILL
 62
3
 10
2163.541
 20
-3325.240
 30
3534.006
 70
    32
  0
VERTEX
  8
T17SSILL
 62
3
 10
2180.466
 20
-3353.644
 30
3534.039
 70
    32
  0
VERTEX
  8
T17SSILL
 62
3
 10
2189.815
 20
-3372.520
 30
3534.061
 70
    32
  0
VERTEX
  8
T17SSILL
 62
3
 10
2199.316
 20
-3384.714
 30
3534.076
 70
    32
  0
VERTEX
  8
T17SSILL
 62
3
 10
2199.511
 20
-3388.311
 30
3534.080
 70
    32
  0
VERTEX
  8
T17SSILL
 62
3
 10
2202.054
 20
-3394.034
 30
3534.087
 70
    32
  0
VERTEX
  8
T17SSILL
 62
3
 10
2214.228
 20
-3407.467
 30
3534.102
 70
    32
  0
VERTEX
  8
T17SSILL
 62
3
 10
2218.632
 20
-3417.478
 30
3534.114
 70
    32
  0
VERTEX
  8
T17SSILL
 62
3
 10
2216.639
 20
-3418.584
 30
3534.116
 70
    32
  0
VERTEX
  8
T17SSILL
 62
3
 10
2216.572
 20
-3425.331
 30
3534.124
 70
    32
  0
VERTEX
  8
T17SSILL
 62
3
 10
2220.954
 20
-3435.890
 30
3534.137
 70
    32
  0
VERTEX
  8
T17SSILL
 62
3
 10
2224.373
 20
-3436.658
 30
3534.137
 70
    32
  0
VERTEX
  8
T17SSILL
 62
3
 10
2227.481
 20
-3439.974
 30
3534.141
 70
    32
  0
VERTEX
  8
T17SSILL
 62
3
 10
2235.063
 20
-3458.253
 30
3534.163
 70
    32
  0
VERTEX
  8
T17SSILL
 62
3
 10
2248.361
 20
-3472.236
 30
3534.179
 70
    32
  0
VERTEX
  8
T17SSILL
 62
3
 10
2364.714
 20
-3389.533
 30
3534.065
 70
    32
  0
VERTEX
  8
T17SSILL
 62
3
 10
2360.951
 20
-3383.564
 30
3534.058
 70
    32
  0
VERTEX
  8
T17SSILL
 62
3
 10
2261.383
 20
-3453.813
 30
3534.155
 70
    32
  0
VERTEX
  8
T17SSILL
 62
3
 10
2246.568
 20
-3450.367
 30
3534.152
 70
    32
  0
VERTEX
  8
T17SSILL
 62
3
 10
2237.860
 20
-3440.520
 30
3534.141
 70
    32
  0
VERTEX
  8
T17SSILL
 62
3
 10
2238.502
 20
-3429.703
 30
3534.127
 70
    32
  0
VERTEX
  8
T17SSILL
 62
3
 10
2235.326
 20
-3425.329
 30
3534.122
 70
    32
  0
VERTEX
  8
T17SSILL
 62
3
 10
2234.433
 20
-3421.263
 30
3534.117
 70
    32
  0
VERTEX
  8
T17SSILL
 62
3
 10
2237.069
 20
-3416.822
 30
3534.112
 70
    32
  0
VERTEX
  8
T17SSILL
 62
3
 10
2237.679
 20
-3408.538
 30
3534.101
 70
    32
  0
VERTEX
  8
T17SSILL
 62
3
 10
2236.322
 20
-3404.479
 30
3534.096
 70
    32
  0
VERTEX
  8
T17SSILL
 62
3
 10
2221.421
 20
-3377.554
 30
3534.065
 70
    32
  0
VERTEX
  8
T17SSILL
 62
3
 10
2186.661
 20
-3319.719
 30
3533.996
 70
    32
  0
VERTEX
  8
T17SSILL
 62
3
 10
2285.775
 20
-3240.148
 30
3533.888
 70
    32
  0
VERTEX
  8
T17SSILL
 62
3
 10
2280.873
 20
-3234.846
 30
3533.882
 70
    32
  0
VERTEX
  8
T17SSILL
 62
3
 10
2205.748
 20
-3293.845
 30
3533.963
 70
    32
  0
VERTEX
  8
T17SSILL
 62
3
 10
2187.478
 20
-3267.502
 30
3533.932
 70
    32
  0
VERTEX
  8
T17SSILL
 62
3
 10
2155.202
 20
-3260.644
 30
3533.926
 70
    32
  0
VERTEX
  8
T17SSILL
 62
3
 10
2135.622
 20
-3216.855
 30
3533.874
 70
    32
  0
VERTEX
  8
T17SSILL
 62
3
 10
2132.168
 20
-3204.129
 30
3533.859
 70
    32
  0
VERTEX
  8
T17SSILL
 62
3
 10
2127.105
 20
-3193.473
 30
3533.846
 70
    32
  0
VERTEX
  8
T17SSILL
 62
3
 10
2118.950
 20
-3182.205
 30
3533.833
 70
    32
  0
VERTEX
  8
T17SSILL
 62
3
 10
2096.492
 20
-3162.753
 30
3533.811
 70
    32
  0
VERTEX
  8
T17SSILL
 62
3
 10
2081.156
 20
-3152.314
 30
3533.800
 70
    32
  0
VERTEX
  8
T17SSILL
 62
3
 10
2075.469
 20
-3150.199
 30
3533.798
 70
    32
  0
VERTEX
  8
T17SSILL
 62
3
 10
2064.128
 20
-3141.135
 30
3533.781
 70
    32
  0
VERTEX
  8
T17SSILL
 62
3
 10
2052.448
 20
-3135.420
 30
3533.767
 70
    32
  0
VERTEX
  8
T17SSILL
 62
3
 10
2049.012
 20
-3138.071
 30
3533.768
 70
    32
  0
VERTEX
  8
T17SSILL
 62
3
 10
2043.765
 20
-3134.354
 30
3533.760
 70
    32
  0
VERTEX
  8
T17SSILL
 62
3
 10
2036.749
 20
-3127.541
 30
3533.748
 70
    32
  0
VERTEX
  8
T17SSILL
 62
3
 10
2016.997
 20
-3095.707
 30
3533.697
 70
    32
  0
VERTEX
  8
T17SSILL
 62
3
 10
2013.972
 20
-3097.378
 30
3533.697
 70
    32
  0
VERTEX
  8
T17SSILL
 62
3
 10
1996.551
 20
-3070.044
 30
3533.653
 70
    32
  0
VERTEX
  8
T17SSILL
 62
3
 10
1997.262
 20
-3067.387
 30
3533.650
 70
    32
  0
VERTEX
  8
T17SSILL
 62
3
 10
1999.735
 20
-3064.853
 30
3533.649
 70
    32
  0
VERTEX
  8
T17SSILL
 62
3
 10
2051.535
 20
-3028.076
 30
3533.636
 70
    32
  0
VERTEX
  8
T17SSILL
 62
3
 10
2046.800
 20
-3022.505
 30
3533.626
 70
    32
  0
VERTEX
  8
T17SSILL
 62
3
 10
2037.930
 20
-3028.569
 30
3533.628
 70
    32
  0
VERTEX
  8
T17SSILL
 62
3
 10
2047.380
 20
-3006.584
 30
3533.608
 70
    32
  0
VERTEX
  8
T17SSILL
 62
3
 10
2049.686
 20
-2986.658
 30
3533.585
 70
    32
  0
VERTEX
  8
T17SSILL
 62
3
 10
2052.492
 20
-2744.592
 30
3533.293
 70
    32
  0
VERTEX
  8
T17SSILL
 62
3
 10
2063.047
 20
-2736.106
 30
3533.286
 70
    32
  0
VERTEX
  8
T17SSILL
 62
3
 10
2052.093
 20
-2725.274
 30
3533.270
 70
    32
  0
VERTEX
  8
T17SSILL
 62
3
 10
2052.555
 20
-2717.176
 30
3533.260
 70
    32
  0
VERTEX
  8
T17SSILL
 62
3
 10
2056.256
 20
-2714.606
 30
3533.259
 70
    32
  0
VERTEX
  8
T17SSILL
 62
3
 10
2063.032
 20
-2714.931
 30
3533.260
 70
    32
  0
VERTEX
  8
T17SSILL
 62
3
 10
2066.002
 20
-2711.416
 30
3533.256
 70
    32
  0
VERTEX
  8
T17SSILL
 62
3
 10
2065.355
 20
-2701.506
 30
3533.243
 70
    32
  0
VERTEX
  8
T17SSILL
 62
3
 10
2053.067
 20
-2687.199
 30
3533.242
 70
    32
  0
VERTEX
  8
T17SSILL
 62
3
 10
2053.752
 20
-2598.083
 30
3533.276
 70
    32
  0
VERTEX
  8
T17SSILL
 62
3
 10
2055.240
 20
-2586.089
 30
3533.280
 70
    32
  0
VERTEX
  8
T17SSILL
 62
3
 10
2058.774
 20
-2577.900
 30
3533.282
 70
    32
  0
VERTEX
  8
T17SSILL
 62
3
 10
2069.415
 20
-2564.153
 30
3533.284
 70
    32
  0
VERTEX
  8
T17SSILL
 62
3
 10
2088.793
 20
-2550.395
 30
3533.284
 70
    32
  0
VERTEX
  8
T17SSILL
 62
3
 10
2096.347
 20
-2560.457
 30
3533.279
 70
    32
  0
VERTEX
  8
T17SSILL
 62
3
 10
2104.107
 20
-2566.214
 30
3533.275
 70
    32
  0
VERTEX
  8
T17SSILL
 62
3
 10
2110.011
 20
-2575.438
 30
3533.270
 70
    32
  0
VERTEX
  8
T17SSILL
 62
3
 10
2121.619
 20
-2566.080
 30
3533.270
 70
    32
  0
VERTEX
  8
T17SSILL
 62
3
 10
2105.677
 20
-2537.927
 30
3533.284
 70
    32
  0
VERTEX
  8
T17SSILL
 62
3
 10
2900.066
 20
-1969.182
 30
3533.289
 70
    32
  0
VERTEX
  8
T17SSILL
 62
3
 10
3098.454
 20
-1969.542
 30
3533.240
 70
    32
  0
VERTEX
  8
T17SSILL
 62
3
 10
3252.855
 20
-2056.057
 30
3533.173
 70
    32
  0
VERTEX
  8
T17SSILL
 62
3
 10
3718.080
 20
-2310.833
 30
3532.970
 70
    32
  0
VERTEX
  8
T17SSILL
 62
3
 10
3998.834
 20
-2666.957
 30
3533.033
 70
    32
  0
VERTEX
  8
T17SSILL
 62
3
 10
4004.517
 20
-2661.552
 30
3533.028
 70
    32
  0
VERTEX
  8
T17SSILL
 62
3
 10
3965.515
 20
-2612.914
 30
3532.948
 70
    32
  0
VERTEX
  8
T17SSILL
 62
3
 10
3967.843
 20
-2610.838
 30
3532.946
 70
    32
  0
VERTEX
  8
T17SSILL
 62
3
 10
3946.016
 20
-2582.834
 30
3532.901
 70
    32
  0
VERTEX
  8
T17SSILL
 62
3
 10
3946.215
 20
-2579.927
 30
3532.898
 70
    32
  0
VERTEX
  8
T17SSILL
 62
3
 10
3948.169
 20
-2576.893
 30
3532.895
 70
    32
  0
VERTEX
  8
T17SSILL
 62
3
 10
3974.399
 20
-2566.100
 30
3532.887
 70
    32
  0
VERTEX
  8
T17SSILL
 62
3
 10
3977.142
 20
-2566.830
 30
3532.889
 70
    32
  0
VERTEX
  8
T17SSILL
 62
3
 10
3995.616
 20
-2551.374
 30
3532.873
 70
    32
  0
VERTEX
  8
T17SSILL
 62
3
 10
3996.545
 20
-2549.682
 30
3532.871
 70
    32
  0
VERTEX
  8
T17SSILL
 62
3
 10
3995.429
 20
-2546.981
 30
3532.867
 70
    32
  0
VERTEX
  8
T17SSILL
 62
3
 10
3990.290
 20
-2541.380
 30
3532.858
 70
    32
  0
VERTEX
  8
T17SSILL
 62
3
 10
3991.577
 20
-2536.074
 30
3532.851
 70
    32
  0
VERTEX
  8
T17SSILL
 62
3
 10
3988.981
 20
-2530.151
 30
3532.842
 70
    32
  0
VERTEX
  8
T17SSILL
 62
3
 10
3998.029
 20
-2521.856
 30
3532.834
 70
    32
  0
VERTEX
  8
T17SSILL
 62
3
 10
3991.190
 20
-2514.974
 30
3532.833
 70
    32
  0
VERTEX
  8
T17SSILL
 62
3
 10
3978.636
 20
-2523.788
 30
3532.835
 70
    32
  0
VERTEX
  8
T17SSILL
 62
3
 10
3971.337
 20
-2519.907
 30
3532.835
 70
    32
  0
VERTEX
  8
T17SSILL
 62
3
 10
3964.962
 20
-2525.855
 30
3532.839
 70
    32
  0
VERTEX
  8
T17SSILL
 62
3
 10
3965.655
 20
-2529.269
 30
3532.843
 70
    32
  0
VERTEX
  8
T17SSILL
 62
3
 10
3957.322
 20
-2534.206
 30
3532.850
 70
    32
  0
VERTEX
  8
T17SSILL
 62
3
 10
3960.686
 20
-2546.883
 30
3532.865
 70
    32
  0
VERTEX
  8
T17SSILL
 62
3
 10
3958.531
 20
-2552.737
 30
3532.873
 70
    32
  0
VERTEX
  8
T17SSILL
 62
3
 10
3944.440
 20
-2563.608
 30
3532.888
 70
    32
  0
VERTEX
  8
T17SSILL
 62
3
 10
3935.326
 20
-2565.045
 30
3532.890
 70
    32
  0
VERTEX
  8
T17SSILL
 62
3
 10
3931.336
 20
-2563.639
 30
3532.889
 70
    32
  0
VERTEX
  8
T17SSILL
 62
3
 10
3902.974
 20
-2530.505
 30
3532.851
 70
    32
  0
VERTEX
  8
T17SSILL
 62
3
 10
3894.085
 20
-2522.437
 30
3532.853
 70
    32
  0
VERTEX
  8
T17SSILL
 62
3
 10
3722.525
 20
-2305.104
 30
3532.971
 70
    32
  0
VERTEX
  8
T17SSILL
 62
3
 10
3256.470
 20
-2049.382
 30
3533.174
 70
    32
  0
VERTEX
  8
T17SSILL
 62
3
 10
3102.319
 20
-1963.402
 30
3533.242
 70
    32
  0
VERTEX
  8
T17SSILL
 62
3
 10
2897.717
 20
-1961.815
 30
3533.292
 70
    32
  0
VERTEX
  8
T17SSILL
 62
3
 10
2107.006
 20
-2528.022
 30
3533.287
 70
    32
  0
VERTEX
  8
T17SSILL
 62
3
 10
2097.540
 20
-2526.705
 30
3533.290
 70
    32
  0
VERTEX
  8
T17SSILL
 62
3
 10
2093.333
 20
-2538.907
 30
3533.287
 70
    32
  0
VERTEX
  8
T17SSILL
 62
3
 10
2092.280
 20
-2539.651
 30
3533.287
 70
    32
  0
VERTEX
  8
T17SSILL
 62
3
 10
2089.078
 20
-2533.701
 30
3533.290
 70
    32
  0
VERTEX
  8
T17SSILL
 62
3
 10
2077.903
 20
-2542.147
 30
3533.290
 70
    32
  0
VERTEX
  8
T17SSILL
 62
3
 10
2081.352
 20
-2547.375
 30
3533.287
 70
    32
  0
VERTEX
  8
T17SSILL
 62
3
 10
1986.826
 20
-2614.189
 30
3533.229
 70
    32
  0
VERTEX
  8
T17SSILL
 62
3
 10
1903.122
 20
-2382.164
 30
3533.285
 70
    32
  0
VERTEX
  8
T17SSILL
 62
3
 10
1872.660
 20
-2293.432
 30
3533.308
 70
    32
  0
VERTEX
  8
T17SSILL
 62
3
 10
1875.216
 20
-2290.071
 30
3533.311
 70
    32
  0
VERTEX
  8
T17SSILL
 62
3
 10
1882.737
 20
-2285.351
 30
3533.320
 70
    32
  0
VERTEX
  8
T17SSILL
 62
3
 10
1902.240
 20
-2279.993
 30
3533.337
 70
    32
  0
VERTEX
  8
T17SSILL
 62
3
 10
1895.874
 20
-2261.957
 30
3533.342
 70
    32
  0
VERTEX
  8
T17SSILL
 62
3
 10
1874.813
 20
-2269.560
 30
3533.322
 70
    32
  0
VERTEX
  8
T17SSILL
 62
3
 10
1878.731
 20
-2280.665
 30
3533.319
 70
    32
  0
VERTEX
  8
T17SSILL
 62
3
 10
1875.410
 20
-2283.037
 30
3533.315
 70
    32
  0
VERTEX
  8
T17SSILL
 62
3
 10
1868.106
 20
-2283.100
 30
3533.310
 70
    32
  0
VERTEX
  8
T17SSILL
 62
3
 10
1794.110
 20
-2136.245
 30
3533.445
 70
    32
  0
VERTEX
  8
T17SSILL
 62
3
 10
1738.132
 20
-2029.999
 30
3533.545
 70
    32
  0
VERTEX
  8
T17SSILL
 62
3
 10
1614.021
 20
-1788.285
 30
3533.770
 70
    32
  0
VERTEX
  8
T17SSILL
 62
3
 10
1488.806
 20
-1539.553
 30
3533.998
 70
    32
  0
VERTEX
  8
T17SSILL
 62
3
 10
1341.833
 20
-1254.135
 30
3534.264
 70
    32
  0
VERTEX
  8
T17SSILL
 62
3
 10
1572.330
 20
-1032.286
 30
3534.077
 70
    32
  0
VERTEX
  8
T17SSILL
 62
3
 10
1611.968
 20
-996.476
 30
3534.044
 70
    32
  0
VERTEX
  8
T17SSILL
 62
3
 10
1691.570
 20
-811.268
 30
3534.017
 70
    32
  0
VERTEX
  8
T17SSILL
 62
3
 10
1698.635
 20
-814.432
 30
3534.007
 70
    32
  0
VERTEX
  8
T17SSILL
 62
3
 10
1701.871
 20
-805.822
 30
3534.007
 70
    32
  0
VERTEX
  8
T17SSILL
 62
3
 10
1682.046
 20
-797.262
 30
3534.032
 70
    32
  0
VERTEX
  8
T17SSILL
 62
3
 10
1678.726
 20
-805.646
 30
3534.033
 70
    32
  0
VERTEX
  8
T17SSILL
 62
3
 10
1684.807
 20
-808.308
 30
3534.025
 70
    32
  0
VERTEX
  8
T17SSILL
 62
3
 10
1607.252
 20
-989.775
 30
3534.052
 70
    32
  0
VERTEX
  8
T17SSILL
 62
3
 10
1570.851
 20
-1023.245
 30
3534.082
 70
    32
  0
VERTEX
  8
T17SSILL
 62
3
 10
1338.705
 20
-1247.657
 30
3534.270
 70
    32
  0
VERTEX
  8
T17SSILL
 62
3
 10
1318.257
 20
-1207.921
 30
3534.307
 70
    32
  0
VERTEX
  8
T17SSILL
 62
3
 10
1231.989
 20
-1158.346
 30
3534.422
 70
    32
  0
VERTEX
  8
T17SSILL
 62
3
 10
1225.061
 20
-1149.437
 30
3534.433
 70
    32
  0
VERTEX
  8
T17SSILL
 62
3
 10
1199.442
 20
-1133.121
 30
3534.468
 70
    32
  0
VERTEX
  8
T17SSILL
 62
3
 10
1189.629
 20
-1115.183
 30
3534.485
 70
    32
  0
VERTEX
  8
T17SSILL
 62
3
 10
1186.615
 20
-1111.956
 30
3534.490
 70
    32
  0
VERTEX
  8
T17SSILL
 62
3
 10
1147.608
 20
-1092.232
 30
3534.541
 70
    32
  0
VERTEX
  8
T17SSILL
 62
3
 10
1124.079
 20
-1084.513
 30
3534.571
 70
    32
  0
VERTEX
  8
T17SSILL
 62
3
 10
1095.658
 20
-1080.436
 30
3534.605
 70
    32
  0
VERTEX
  8
T17SSILL
 62
3
 10
1046.559
 20
-1051.566
 30
3534.693
 70
    32
  0
VERTEX
  8
T17SSILL
 62
3
 10
1031.319
 20
-1047.295
 30
3534.719
 70
    32
  0
VERTEX
  8
T17SSILL
 62
3
 10
1016.709
 20
-1044.776
 30
3534.743
 70
    32
  0
VERTEX
  8
T17SSILL
 62
3
 10
1006.687
 20
-1044.418
 30
3534.758
 70
    32
  0
VERTEX
  8
T17SSILL
 62
3
 10
603.909
 20
-1350.891
 30
3535.189
 70
    32
  0
VERTEX
  8
T17SSILL
 62
3
 10
587.692
 20
-1356.032
 30
3535.239
 70
    32
  0
VERTEX
  8
T17SSILL
 62
3
 10
563.607
 20
-1366.510
 30
3535.319
 70
    32
  0
VERTEX
  8
T17SSILL
 62
3
 10
555.052
 20
-1373.698
 30
3535.355
 70
    32
  0
VERTEX
  8
T17SSILL
 62
3
 10
540.518
 20
-1391.393
 30
3535.429
 70
    32
  0
VERTEX
  8
T17SSILL
 62
3
 10
522.128
 20
-1410.614
 30
3535.515
 70
    32
  0
VERTEX
  8
T17SSILL
 62
3
 10
380.896
 20
-1555.017
 30
3536.169
 70
    32
  0
VERTEX
  8
T17SSILL
 62
3
 10
265.738
 20
-1674.260
 30
3538.248
 70
    32
  0
VERTEX
  8
T17SSILL
 62
3
 10
231.035
 20
-1699.647
 30
3538.060
 70
    32
  0
VERTEX
  8
T17SSILL
 62
3
 10
228.933
 20
-1696.052
 30
3538.041
 70
    32
  0
VERTEX
  8
T17SSILL
 62
3
 10
222.715
 20
-1695.181
 30
3537.977
 70
    32
  0
VERTEX
  8
T17SSILL
 62
3
 10
219.966
 20
-1696.077
 30
3537.946
 70
    32
  0
VERTEX
  8
T17SSILL
 62
3
 10
194.719
 20
-1714.294
 30
3537.647
 70
    32
  0
VERTEX
  8
T17SSILL
 62
3
 10
193.455
 20
-1715.822
 30
3537.632
 70
    32
  0
VERTEX
  8
T17SSILL
 62
3
 10
193.058
 20
-1727.554
 30
3537.613
 70
    32
  0
VERTEX
  8
T17SSILL
 62
3
 10
174.493
 20
-1741.626
 30
3537.394
 70
    32
  0
VERTEX
  8
T17SSILL
 62
3
 10
151.020
 20
-1744.278
 30
3537.135
 70
    32
  0
VERTEX
  8
T17SSILL
 62
3
 10
138.584
 20
-1741.095
 30
3537.004
 70
    32
  0
VERTEX
  8
T17SSILL
 62
3
 10
131.610
 20
-1737.367
 30
3536.933
 70
    32
  0
VERTEX
  8
T17SSILL
 62
3
 10
120.248
 20
-1725.924
 30
3536.833
 70
    32
  0
VERTEX
  8
T17SSILL
 62
3
 10
121.346
 20
-1725.189
 30
3536.847
 70
    32
  0
VERTEX
  8
T17SSILL
 62
3
 10
117.442
 20
-1719.542
 30
3536.831
 70
    32
  0
VERTEX
  8
T17SSILL
 62
3
 10
115.406
 20
-1721.221
 30
3536.804
 70
    32
  0
VERTEX
  8
T17SSILL
 62
3
 10
64.298
 20
-1649.076
 30
3536.592
 70
    32
  0
VERTEX
  8
T17SSILL
 62
3
 10
67.835
 20
-1646.464
 30
3536.638
 70
    32
  0
VERTEX
  8
T17SSILL
 62
3
 10
63.062
 20
-1640.265
 30
3536.616
 70
    32
  0
VERTEX
  8
T17SSILL
 62
3
 10
59.563
 20
-1643.070
 30
3536.570
 70
    32
  0
VERTEX
  8
T17SSILL
 62
3
 10
9.711
 20
-1572.843
 30
3536.355
 70
    32
  0
VERTEX
  8
T17SSILL
 62
3
 10
14.592
 20
-1569.529
 30
3536.443
 70
    32
  0
VERTEX
  8
T17SSILL
 62
3
 10
10.151
 20
-1563.185
 30
3536.422
 70
    32
  0
VERTEX
  8
T17SSILL
 62
3
 10
4.852
 20
-1566.821
 30
3536.326
 70
    32
  0
VERTEX
  8
T17SSILL
 62
3
 10
-6.002
 20
-1550.994
 30
3536.277
 70
    32
  0
VERTEX
  8
T17SSILL
 62
3
 10
-2.729
 20
-1548.473
 30
3536.338
 70
    32
  0
VERTEX
  8
T17SSILL
 62
3
 10
-5.716
 20
-1543.008
 30
3536.332
 70
    32
  0
VERTEX
  8
T17SSILL
 62
3
 10
-10.094
 20
-1544.382
 30
3536.267
 70
    32
  0
VERTEX
  8
T17SSILL
 62
3
 10
-26.053
 20
-1536.478
 30
3536.421
 70
    32
  0
VERTEX
  8
T17SSILL
 62
3
 10
-48.121
 20
-1532.167
 30
3536.563
 70
    32
  0
VERTEX
  8
T17SSILL
 62
3
 10
-4.941
 20
-1501.363
 30
3536.704
 70
    32
  0
VERTEX
  8
T17SSILL
 62
3
 10
-0.099
 20
-1507.509
 30
3536.635
 70
    32
  0
VERTEX
  8
T17SSILL
 62
3
 10
22.496
 20
-1492.332
 30
3536.874
 70
    32
  0
VERTEX
  8
T17SSILL
 62
3
 10
17.225
 20
-1485.629
 30
3536.888
 70
    32
  0
VERTEX
  8
T17SSILL
 62
3
 10
25.010
 20
-1479.746
 30
3536.832
 70
    32
  0
VERTEX
  8
T17SSILL
 62
3
 10
45.319
 20
-1509.151
 30
3536.861
 70
    32
  0
VERTEX
  8
T17SSILL
 62
3
 10
54.376
 20
-1502.530
 30
3536.906
 70
    32
  0
VERTEX
  8
T17SSILL
 62
3
 10
50.011
 20
-1496.225
 30
3536.894
 70
    32
  0
VERTEX
  8
T17SSILL
 62
3
 10
90.409
 20
-1459.791
 30
3536.634
 70
    32
  0
VERTEX
  8
T17SSILL
 62
3
 10
85.374
 20
-1453.683
 30
3536.636
 70
    32
  0
VERTEX
  8
T17SSILL
 62
3
 10
80.435
 20
-1457.930
 30
3536.656
 70
    32
  0
VERTEX
  8
T17SSILL
 62
3
 10
66.481
 20
-1451.478
 30
3536.679
 70
    32
  0
VERTEX
  8
T17SSILL
 62
3
 10
82.678
 20
-1439.230
 30
3536.619
 70
    32
  0
VERTEX
  8
T17SSILL
 62
3
 10
77.685
 20
-1432.313
 30
3536.619
 70
    32
  0
VERTEX
  8
T17SSILL
 62
3
 10
9.510
 20
-1480.364
 30
3536.870
 70
    32
  0
VERTEX
  8
T17SSILL
 62
3
 10
20.887
 20
-1401.048
 30
3536.707
 70
    32
  0
VERTEX
  8
T17SSILL
 62
3
 10
18.520
 20
-1399.018
 30
3536.706
 70
    32
  0
VERTEX
  8
T17SSILL
 62
3
 10
21.933
 20
-1387.827
 30
3536.706
 70
    32
  0
VERTEX
  8
T17SSILL
 62
3
 10
27.052
 20
-1381.143
 30
3536.678
 70
    32
  0
VERTEX
  8
T17SSILL
 62
3
 10
18.985
 20
-1370.573
 30
3536.675
 70
    32
  0
VERTEX
  8
T17SSILL
 62
3
 10
24.725
 20
-1361.869
 30
3536.675
 70
    32
  0
VERTEX
  8
T17SSILL
 62
3
 10
16.038
 20
-1354.253
 30
3536.664
 70
    32
  0
VERTEX
  8
T17SSILL
 62
3
 10
4.093
 20
-1360.626
 30
3536.677
 70
    32
  0
VERTEX
  8
T17SSILL
 62
3
 10
-5.371
 20
-1347.490
 30
3536.681
 70
    32
  0
VERTEX
  8
T17SSILL
 62
3
 10
-13.161
 20
-1341.839
 30
3536.690
 70
    32
  0
VERTEX
  8
T17SSILL
 62
3
 10
-17.170
 20
-1341.820
 30
3536.700
 70
    32
  0
VERTEX
  8
T17SSILL
 62
3
 10
-20.930
 20
-1336.504
 30
3536.701
 70
    32
  0
VERTEX
  8
T17SSILL
 62
3
 10
-23.086
 20
-1318.862
 30
3536.676
 70
    32
  0
VERTEX
  8
T17SSILL
 62
3
 10
-22.485
 20
-1309.412
 30
3536.658
 70
    32
  0
VERTEX
  8
T17SSILL
 62
3
 10
-18.213
 20
-1296.805
 30
3536.627
 70
    32
  0
VERTEX
  8
T17SSILL
 62
3
 10
-12.209
 20
-1287.745
 30
3536.596
 70
    32
  0
VERTEX
  8
T17SSILL
 62
3
 10
-7.537
 20
-1283.150
 30
3536.577
 70
    32
  0
VERTEX
  8
T17SSILL
 62
3
 10
-2.402
 20
-1286.074
 30
3536.569
 70
    32
  0
VERTEX
  8
T17SSILL
 62
3
 10
8.292
 20
-1289.156
 30
3536.548
 70
    32
  0
VERTEX
  8
T17SSILL
 62
3
 10
10.764
 20
-1292.800
 30
3536.548
 70
    32
  0
VERTEX
  8
T17SSILL
 62
3
 10
13.301
 20
-1308.486
 30
3536.568
 70
    32
  0
VERTEX
  8
T17SSILL
 62
3
 10
17.515
 20
-1324.767
 30
3536.586
 70
    32
  0
VERTEX
  8
T17SSILL
 62
3
 10
29.095
 20
-1320.067
 30
3536.549
 70
    32
  0
VERTEX
  8
T17SSILL
 62
3
 10
29.769
 20
-1317.772
 30
3536.544
 70
    32
  0
VERTEX
  8
T17SSILL
 62
3
 10
35.170
 20
-1313.836
 30
3536.523
 70
    32
  0
VERTEX
  8
T17SSILL
 62
3
 10
41.488
 20
-1311.524
 30
3536.504
 70
    32
  0
VERTEX
  8
T17SSILL
 62
3
 10
47.649
 20
-1305.116
 30
3536.478
 70
    32
  0
VERTEX
  8
T17SSILL
 62
3
 10
50.846
 20
-1299.326
 30
3536.460
 70
    32
  0
VERTEX
  8
T17SSILL
 62
3
 10
47.183
 20
-1293.272
 30
3536.459
 70
    32
  0
VERTEX
  8
T17SSILL
 62
3
 10
40.696
 20
-1276.633
 30
3536.447
 70
    32
  0
VERTEX
  8
T17SSILL
 62
3
 10
36.298
 20
-1269.480
 30
3536.446
 70
    32
  0
VERTEX
  8
T17SSILL
 62
3
 10
34.059
 20
-1260.664
 30
3536.436
 70
    32
  0
VERTEX
  8
T17SSILL
 62
3
 10
37.062
 20
-1252.029
 30
3536.414
 70
    32
  0
VERTEX
  8
T17SSILL
 62
3
 10
69.510
 20
-1229.044
 30
3536.295
 70
    32
  0
VERTEX
  8
T17SSILL
 62
3
 10
90.837
 20
-1231.816
 30
3536.247
 70
    32
  0
VERTEX
  8
T17SSILL
 62
3
 10
96.897
 20
-1216.056
 30
3536.205
 70
    32
  0
VERTEX
  8
T17SSILL
 62
3
 10
92.811
 20
-1211.326
 30
3536.207
 70
    32
  0
VERTEX
  8
T17SSILL
 62
3
 10
116.863
 20
-1194.583
 30
3536.119
 70
    32
  0
VERTEX
  8
T17SSILL
 62
3
 10
111.898
 20
-1188.421
 30
3536.121
 70
    32
  0
VERTEX
  8
T17SSILL
 62
3
 10
32.922
 20
-1245.787
 30
3536.414
 70
    32
  0
VERTEX
  8
T17SSILL
 62
3
 10
26.028
 20
-1243.918
 30
3536.428
 70
    32
  0
VERTEX
  8
T17SSILL
 62
3
 10
18.803
 20
-1212.190
 30
3536.392
 70
    32
  0
VERTEX
  8
T17SSILL
 62
3
 10
19.917
 20
-1200.031
 30
3536.368
 70
    32
  0
VERTEX
  8
T17SSILL
 62
3
 10
12.161
 20
-1189.712
 30
3536.370
 70
    32
  0
VERTEX
  8
T17SSILL
 62
3
 10
7.195
 20
-1180.188
 30
3536.366
 70
    32
  0
VERTEX
  8
T17SSILL
 62
3
 10
3.971
 20
-1178.065
 30
3536.370
 70
    32
  0
VERTEX
  8
T17SSILL
 62
3
 10
1.197
 20
-1168.678
 30
3536.361
 70
    32
  0
VERTEX
  8
T17SSILL
 62
3
 10
-17.602
 20
-1156.969
 30
3536.388
 70
    32
  0
VERTEX
  8
T17SSILL
 62
3
 10
-57.457
 20
-1138.525
 30
3536.455
 70
    32
  0
VERTEX
  8
T17SSILL
 62
3
 10
-66.590
 20
-1140.011
 30
3536.480
 70
    32
  0
VERTEX
  8
T17SSILL
 62
3
 10
-68.528
 20
-1144.968
 30
3536.494
 70
    32
  0
VERTEX
  8
T17SSILL
 62
3
 10
-65.621
 20
-1148.235
 30
3536.492
 70
    32
  0
SEQEND
  8
T17SSILL
  0
POLYLINE
  8
T17SSILL
 62
3
 66
     1
 70
     9
  0
VERTEX
  8
T17SSILL
 62
3
 10
-2315.515
 20
749.015
 30
3535.120
 70
    32
  0
VERTEX
  8
T17SSILL
 62
3
 10
-2309.098
 20
753.525
 30
3535.119
 70
    32
  0
VERTEX
  8
T17SSILL
 62
3
 10
-2317.749
 20
760.460
 30
3535.117
 70
    32
  0
VERTEX
  8
T17SSILL
 62
3
 10
-2333.129
 20
753.934
 30
3535.118
 70
    32
  0
VERTEX
  8
T17SSILL
 62
3
 10
-2340.061
 20
756.980
 30
3535.117
 70
    32
  0
VERTEX
  8
T17SSILL
 62
3
 10
-2346.858
 20
762.334
 30
3535.115
 70
    32
  0
VERTEX
  8
T17SSILL
 62
3
 10
-2358.919
 20
766.035
 30
3535.114
 70
    32
  0
VERTEX
  8
T17SSILL
 62
3
 10
-2364.532
 20
769.965
 30
3535.112
 70
    32
  0
VERTEX
  8
T17SSILL
 62
3
 10
-2404.730
 20
774.838
 30
3535.109
 70
    32
  0
VERTEX
  8
T17SSILL
 62
3
 10
-2410.145
 20
770.754
 30
3535.110
 70
    32
  0
VERTEX
  8
T17SSILL
 62
3
 10
-2424.141
 20
767.367
 30
3535.111
 70
    32
  0
VERTEX
  8
T17SSILL
 62
3
 10
-2432.209
 20
767.239
 30
3535.110
 70
    32
  0
VERTEX
  8
T17SSILL
 62
3
 10
-2505.260
 20
714.447
 30
3535.116
 70
    32
  0
VERTEX
  8
T17SSILL
 62
3
 10
-2511.481
 20
708.651
 30
3535.117
 70
    32
  0
VERTEX
  8
T17SSILL
 62
3
 10
-2515.966
 20
699.971
 30
3535.118
 70
    32
  0
VERTEX
  8
T17SSILL
 62
3
 10
-2516.562
 20
692.570
 30
3535.120
 70
    32
  0
VERTEX
  8
T17SSILL
 62
3
 10
-2513.622
 20
680.775
 30
3535.123
 70
    32
  0
VERTEX
  8
T17SSILL
 62
3
 10
-2495.420
 20
654.780
 30
3535.140
 70
    32
  0
VERTEX
  8
T17SSILL
 62
3
 10
-2478.207
 20
652.547
 30
3535.141
 70
    32
  0
VERTEX
  8
T17SSILL
 62
3
 10
-2474.688
 20
647.612
 30
3535.143
 70
    32
  0
VERTEX
  8
T17SSILL
 62
3
 10
-2482.430
 20
636.862
 30
3535.144
 70
    32
  0
VERTEX
  8
T17SSILL
 62
3
 10
-2461.635
 20
607.941
 30
3535.149
 70
    32
  0
VERTEX
  8
T17SSILL
 62
3
 10
-2454.912
 20
603.743
 30
3535.154
 70
    32
  0
VERTEX
  8
T17SSILL
 62
3
 10
-2449.870
 20
601.561
 30
3535.152
 70
    32
  0
VERTEX
  8
T17SSILL
 62
3
 10
-2444.155
 20
601.225
 30
3535.150
 70
    32
  0
VERTEX
  8
T17SSILL
 62
3
 10
-2421.127
 20
607.269
 30
3535.149
 70
    32
  0
VERTEX
  8
T17SSILL
 62
3
 10
-2399.760
 20
623.010
 30
3535.148
 70
    32
  0
VERTEX
  8
T17SSILL
 62
3
 10
-2392.593
 20
630.623
 30
3535.147
 70
    32
  0
VERTEX
  8
T17SSILL
 62
3
 10
-2389.877
 20
635.652
 30
3535.146
 70
    32
  0
VERTEX
  8
T17SSILL
 62
3
 10
-2389.663
 20
641.220
 30
3535.144
 70
    32
  0
VERTEX
  8
T17SSILL
 62
3
 10
-2391.071
 20
646.888
 30
3535.143
 70
    32
  0
VERTEX
  8
T17SSILL
 62
3
 10
-2428.471
 20
696.904
 30
3535.128
 70
    32
  0
VERTEX
  8
T17SSILL
 62
3
 10
-2420.103
 20
703.217
 30
3535.127
 70
    32
  0
VERTEX
  8
T17SSILL
 62
3
 10
-2415.308
 20
695.690
 30
3535.130
 70
    32
  0
VERTEX
  8
T17SSILL
 62
3
 10
-2407.323
 20
694.321
 30
3535.131
 70
    32
  0
VERTEX
  8
T17SSILL
 62
3
 10
-2406.644
 20
684.351
 30
3535.133
 70
    32
  0
VERTEX
  8
T17SSILL
 62
3
 10
-2387.613
 20
657.662
 30
3535.141
 70
    32
  0
VERTEX
  8
T17SSILL
 62
3
 10
-2380.744
 20
651.920
 30
3535.143
 70
    32
  0
VERTEX
  8
T17SSILL
 62
3
 10
-2370.922
 20
648.847
 30
3535.145
 70
    32
  0
VERTEX
  8
T17SSILL
 62
3
 10
-2365.358
 20
649.955
 30
3535.145
 70
    32
  0
VERTEX
  8
T17SSILL
 62
3
 10
-2354.946
 20
656.045
 30
3535.145
 70
    32
  0
VERTEX
  8
T17SSILL
 62
3
 10
-2315.211
 20
684.255
 30
3535.139
 70
    32
  0
VERTEX
  8
T17SSILL
 62
3
 10
-2313.364
 20
691.607
 30
3535.137
 70
    32
  0
VERTEX
  8
T17SSILL
 62
3
 10
-2317.163
 20
695.912
 30
3535.136
 70
    32
  0
VERTEX
  8
T17SSILL
 62
3
 10
-2311.345
 20
700.632
 30
3535.135
 70
    32
  0
VERTEX
  8
T17SSILL
 62
3
 10
-2304.785
 20
691.789
 30
3535.138
 70
    32
  0
VERTEX
  8
T17SSILL
 62
3
 10
-2289.630
 20
703.001
 30
3535.135
 70
    32
  0
VERTEX
  8
T17SSILL
 62
3
 10
-2297.317
 20
724.014
 30
3535.128
 70
    32
  0
VERTEX
  8
T17SSILL
 62
3
 10
-2313.580
 20
737.234
 30
3535.124
 70
    32
  0
VERTEX
  8
T17SSILL
 62
3
 10
-2318.236
 20
745.308
 30
3535.121
 70
    32
  0
SEQEND
  8
T17SSILL
  0
POLYLINE
  8
T17SSILL
 62
1
 66
     1
 70
     8
  0
VERTEX
  8
T17SSILL
 62
1
 10
2000.429
 20
-3063.630
 30
1000.000
 70
    32
  0
VERTEX
  8
T17SSILL
 62
1
 10
1994.424
 20
-3071.615
 30
1000.000
 70
    32
  0
VERTEX
  8
T17SSILL
 62
1
 10
1989.617
 20
-3080.375
 30
1000.000
 70
    32
  0
VERTEX
  8
T17SSILL
 62
1
 10
1986.106
 20
-3089.729
 30
1000.000
 70
    32
  0
VERTEX
  8
T17SSILL
 62
1
 10
1983.963
 20
-3099.488
 30
1000.000
 70
    32
  0
VERTEX
  8
T17SSILL
 62
1
 10
1983.231
 20
-3109.453
 30
1000.000
 70
    32
  0
VERTEX
  8
T17SSILL
 62
1
 10
1983.925
 20
-3119.420
 30
1000.000
 70
    32
  0
VERTEX
  8
T17SSILL
 62
1
 10
1986.031
 20
-3129.187
 30
1000.000
 70
    32
  0
VERTEX
  8
T17SSILL
 62
1
 10
1988.418
 20
-3138.509
 30
1000.000
 70
    32
  0
VERTEX
  8
T17SSILL
 62
1
 10
1990.640
 20
-3142.466
 30
3533.710
 70
    32
  0
SEQEND
  8
T17SSILL
  0
POLYLINE
  8
T17SSILL
 62
3
 66
     1
 70
     9
  0
VERTEX
  8
T17SSILL
 62
3
 10
1891.934
 20
-2770.199
 30
3533.243
 70
    32
  0
VERTEX
  8
T17SSILL
 62
3
 10
1895.838
 20
-2771.489
 30
3533.244
 70
    32
  0
VERTEX
  8
T17SSILL
 62
3
 10
1903.064
 20
-2781.026
 30
3533.256
 70
    32
  0
VERTEX
  8
T17SSILL
 62
3
 10
1906.542
 20
-2782.768
 30
3533.258
 70
    32
  0
VERTEX
  8
T17SSILL
 62
3
 10
1916.199
 20
-2776.593
 30
3533.248
 70
    32
  0
VERTEX
  8
T17SSILL
 62
3
 10
1915.685
 20
-2774.061
 30
3533.245
 70
    32
  0
VERTEX
  8
T17SSILL
 62
3
 10
1905.720
 20
-2757.478
 30
3533.225
 70
    32
  0
VERTEX
  8
T17SSILL
 62
3
 10
1938.101
 20
-2734.966
 30
3533.211
 70
    32
  0
VERTEX
  8
T17SSILL
 62
3
 10
1949.904
 20
-2747.257
 30
3533.233
 70
    32
  0
VERTEX
  8
T17SSILL
 62
3
 10
1958.583
 20
-2745.208
 30
3533.236
 70
    32
  0
VERTEX
  8
T17SSILL
 62
3
 10
1967.116
 20
-2738.845
 30
3533.234
 70
    32
  0
VERTEX
  8
T17SSILL
 62
3
 10
1967.797
 20
-2736.488
 30
3533.231
 70
    32
  0
VERTEX
  8
T17SSILL
 62
3
 10
1957.034
 20
-2721.586
 30
3533.207
 70
    32
  0
VERTEX
  8
T17SSILL
 62
3
 10
1949.537
 20
-2715.837
 30
3533.195
 70
    32
  0
VERTEX
  8
T17SSILL
 62
3
 10
1945.122
 20
-2716.419
 30
3533.193
 70
    32
  0
VERTEX
  8
T17SSILL
 62
3
 10
1940.777
 20
-2714.452
 30
3533.188
 70
    32
  0
VERTEX
  8
T17SSILL
 62
3
 10
1932.914
 20
-2702.886
 30
3533.169
 70
    32
  0
VERTEX
  8
T17SSILL
 62
3
 10
1927.936
 20
-2701.517
 30
3533.165
 70
    32
  0
VERTEX
  8
T17SSILL
 62
3
 10
1923.269
 20
-2698.485
 30
3533.158
 70
    32
  0
VERTEX
  8
T17SSILL
 62
3
 10
1922.384
 20
-2695.469
 30
3533.154
 70
    32
  0
VERTEX
  8
T17SSILL
 62
3
 10
1939.287
 20
-2682.298
 30
3533.157
 70
    32
  0
VERTEX
  8
T17SSILL
 62
3
 10
1942.597
 20
-2683.533
 30
3533.159
 70
    32
  0
VERTEX
  8
T17SSILL
 62
3
 10
1951.867
 20
-2695.138
 30
3533.172
 70
    32
  0
VERTEX
  8
T17SSILL
 62
3
 10
1958.191
 20
-2689.153
 30
3533.168
 70
    32
  0
VERTEX
  8
T17SSILL
 62
3
 10
1951.656
 20
-2680.439
 30
3533.168
 70
    32
  0
VERTEX
  8
T17SSILL
 62
3
 10
1950.133
 20
-2675.030
 30
3533.169
 70
    32
  0
VERTEX
  8
T17SSILL
 62
3
 10
1951.210
 20
-2664.678
 30
3533.175
 70
    32
  0
VERTEX
  8
T17SSILL
 62
3
 10
1953.373
 20
-2659.634
 30
3533.180
 70
    32
  0
VERTEX
  8
T17SSILL
 62
3
 10
1960.673
 20
-2653.325
 30
3533.189
 70
    32
  0
VERTEX
  8
T17SSILL
 62
3
 10
1976.161
 20
-2643.633
 30
3533.206
 70
    32
  0
VERTEX
  8
T17SSILL
 62
3
 10
1981.693
 20
-2632.803
 30
3533.215
 70
    32
  0
VERTEX
  8
T17SSILL
 62
3
 10
1985.036
 20
-2636.599
 30
3530.000
 70
    32
  0
VERTEX
  8
T17SSILL
 62
3
 10
1986.297
 20
-2642.674
 30
3530.000
 70
    32
  0
VERTEX
  8
T17SSILL
 62
3
 10
1994.180
 20
-2639.827
 30
3530.000
 70
    32
  0
VERTEX
  8
T17SSILL
 62
3
 10
1989.514
 20
-2621.096
 30
3530.000
 70
    32
  0
VERTEX
  8
T17SSILL
 62
3
 10
2044.708
 20
-2584.346
 30
3533.280
 70
    32
  0
VERTEX
  8
T17SSILL
 62
3
 10
2047.630
 20
-2583.089
 30
3533.284
 70
    32
  0
VERTEX
  8
T17SSILL
 62
3
 10
2049.280
 20
-2583.630
 30
3533.282
 70
    32
  0
VERTEX
  8
T17SSILL
 62
3
 10
2046.936
 20
-2599.340
 30
3533.277
 70
    32
  0
VERTEX
  8
T17SSILL
 62
3
 10
2042.266
 20
-2994.172
 30
3533.589
 70
    32
  0
VERTEX
  8
T17SSILL
 62
3
 10
2038.992
 20
-3008.152
 30
3533.604
 70
    32
  0
VERTEX
  8
T17SSILL
 62
3
 10
2034.000
 20
-3020.514
 30
3533.616
 70
    32
  0
VERTEX
  8
T17SSILL
 62
3
 10
2023.755
 20
-3036.460
 30
3533.629
 70
    32
  0
VERTEX
  8
T17SSILL
 62
3
 10
2013.841
 20
-3045.805
 30
3533.634
 70
    32
  0
VERTEX
  8
T17SSILL
 62
3
 10
1993.906
 20
-3060.897
 30
3533.641
 70
    32
  0
VERTEX
  8
T17SSILL
 62
3
 10
1989.831
 20
-3059.788
 30
3533.637
 70
    32
  0
VERTEX
  8
T17SSILL
 62
3
 10
1958.081
 20
-3008.629
 30
3533.555
 70
    32
  0
VERTEX
  8
T17SSILL
 62
3
 10
2013.779
 20
-2969.979
 30
3533.543
 70
    32
  0
VERTEX
  8
T17SSILL
 62
3
 10
2006.865
 20
-2965.001
 30
3533.532
 70
    32
  0
VERTEX
  8
T17SSILL
 62
3
 10
1954.217
 20
-3002.770
 30
3533.546
 70
    32
  0
VERTEX
  8
T17SSILL
 62
3
 10
1946.724
 20
-2990.164
 30
3533.526
 70
    32
  0
VERTEX
  8
T17SSILL
 62
3
 10
1943.430
 20
-2976.907
 30
3533.508
 70
    32
  0
VERTEX
  8
T17SSILL
 62
3
 10
1946.675
 20
-2976.722
 30
3533.510
 70
    32
  0
VERTEX
  8
T17SSILL
 62
3
 10
1950.126
 20
-2974.599
 30
3533.509
 70
    32
  0
VERTEX
  8
T17SSILL
 62
3
 10
1957.209
 20
-2967.534
 30
3533.505
 70
    32
  0
VERTEX
  8
T17SSILL
 62
3
 10
1958.445
 20
-2964.774
 30
3533.502
 70
    32
  0
VERTEX
  8
T17SSILL
 62
3
 10
1993.066
 20
-2941.249
 30
3533.495
 70
    32
  0
VERTEX
  8
T17SSILL
 62
3
 10
1997.162
 20
-2937.173
 30
3533.493
 70
    32
  0
VERTEX
  8
T17SSILL
 62
3
 10
1996.536
 20
-2933.852
 30
3533.488
 70
    32
  0
VERTEX
  8
T17SSILL
 62
3
 10
1980.517
 20
-2912.275
 30
3533.452
 70
    32
  0
VERTEX
  8
T17SSILL
 62
3
 10
1972.184
 20
-2898.026
 30
3533.430
 70
    32
  0
VERTEX
  8
T17SSILL
 62
3
 10
1964.801
 20
-2880.233
 30
3533.404
 70
    32
  0
VERTEX
  8
T17SSILL
 62
3
 10
1944.980
 20
-2854.903
 30
3533.361
 70
    32
  0
VERTEX
  8
T17SSILL
 62
3
 10
1928.949
 20
-2826.920
 30
3533.317
 70
    32
  0
VERTEX
  8
T17SSILL
 62
3
 10
1925.992
 20
-2819.131
 30
3533.306
 70
    32
  0
VERTEX
  8
T17SSILL
 62
3
 10
1922.742
 20
-2818.598
 30
3533.303
 70
    32
  0
VERTEX
  8
T17SSILL
 62
3
 10
1916.755
 20
-2823.086
 30
3533.308
 70
    32
  0
VERTEX
  8
T17SSILL
 62
3
 10
1912.337
 20
-2816.045
 30
3533.300
 70
    32
  0
VERTEX
  8
T17SSILL
 62
3
 10
1922.231
 20
-2808.858
 30
3533.291
 70
    32
  0
VERTEX
  8
T17SSILL
 62
3
 10
1918.822
 20
-2804.435
 30
3533.284
 70
    32
  0
VERTEX
  8
T17SSILL
 62
3
 10
1924.555
 20
-2800.565
 30
3533.283
 70
    32
  0
VERTEX
  8
T17SSILL
 62
3
 10
1917.756
 20
-2791.771
 30
3533.268
 70
    32
  0
VERTEX
  8
T17SSILL
 62
3
 10
1924.416
 20
-2786.692
 30
3533.266
 70
    32
  0
VERTEX
  8
T17SSILL
 62
3
 10
1920.539
 20
-2780.682
 30
3533.256
 70
    32
  0
VERTEX
  8
T17SSILL
 62
3
 10
1908.595
 20
-2789.736
 30
3533.266
 70
    32
  0
VERTEX
  8
T17SSILL
 62
3
 10
1904.658
 20
-2784.406
 30
3533.260
 70
    32
  0
VERTEX
  8
T17SSILL
 62
3
 10
1893.203
 20
-2780.354
 30
3533.256
 70
    32
  0
VERTEX
  8
T17SSILL
 62
3
 10
1888.003
 20
-2773.919
 30
3533.249
 70
    32
  0
VERTEX
  8
T17SSILL
 62
3
 10
1888.046
 20
-2772.424
 30
3533.247
 70
    32
  0
VERTEX
  8
T17SSILL
 62
3
 10
1889.848
 20
-2770.964
 30
3533.245
 70
    32
  0
SEQEND
  8
T17SSILL
  0
POLYLINE
  8
T17SSILL
 62
3
 66
     1
 70
     9
  0
VERTEX
  8
T17SSILL
 62
3
 10
-2346.419
 20
448.075
 30
3537.000
 70
    32
  0
VERTEX
  8
T17SSILL
 62
3
 10
-2327.908
 20
431.201
 30
3537.000
 70
    32
  0
VERTEX
  8
T17SSILL
 62
3
 10
-2316.672
 20
423.335
 30
3537.000
 70
    32
  0
VERTEX
  8
T17SSILL
 62
3
 10
-2300.911
 20
416.816
 30
3537.000
 70
    32
  0
VERTEX
  8
T17SSILL
 62
3
 10
-2285.148
 20
412.881
 30
3537.000
 70
    32
  0
VERTEX
  8
T17SSILL
 62
3
 10
-2268.203
 20
411.472
 30
3537.000
 70
    32
  0
VERTEX
  8
T17SSILL
 62
3
 10
-2263.157
 20
410.783
 30
3537.000
 70
    32
  0
VERTEX
  8
T17SSILL
 62
3
 10
-2226.258
 20
407.296
 30
3537.000
 70
    32
  0
VERTEX
  8
T17SSILL
 62
3
 10
-2210.273
 20
404.986
 30
3537.000
 70
    32
  0
VERTEX
  8
T17SSILL
 62
3
 10
-2193.386
 20
405.690
 30
3537.000
 70
    32
  0
VERTEX
  8
T17SSILL
 62
3
 10
-2166.861
 20
406.506
 30
3537.000
 70
    32
  0
VERTEX
  8
T17SSILL
 62
3
 10
-2164.161
 20
406.553
 30
3537.000
 70
    32
  0
VERTEX
  8
T17SSILL
 62
3
 10
-2100.873
 20
405.544
 30
3537.000
 70
    32
  0
VERTEX
  8
T17SSILL
 62
3
 10
-2082.762
 20
403.671
 30
3537.000
 70
    32
  0
VERTEX
  8
T17SSILL
 62
3
 10
-2041.072
 20
404.667
 30
3537.000
 70
    32
  0
VERTEX
  8
T17SSILL
 62
3
 10
-1990.191
 20
406.484
 30
3537.000
 70
    32
  0
VERTEX
  8
T17SSILL
 62
3
 10
-1951.656
 20
408.287
 30
3537.717
 70
    32
  0
VERTEX
  8
T17SSILL
 62
3
 10
-1846.549
 20
412.827
 30
3538.916
 70
    32
  0
VERTEX
  8
T17SSILL
 62
3
 10
-1826.141
 20
412.000
 30
3538.916
 70
    32
  0
VERTEX
  8
T17SSILL
 62
3
 10
-1799.468
 20
421.776
 30
3538.916
 70
    32
  0
VERTEX
  8
T17SSILL
 62
3
 10
-1784.615
 20
430.622
 30
3538.916
 70
    32
  0
VERTEX
  8
T17SSILL
 62
3
 10
-1768.354
 20
441.520
 30
3538.916
 70
    32
  0
VERTEX
  8
T17SSILL
 62
3
 10
-1765.354
 20
443.772
 30
3538.000
 70
    32
  0
VERTEX
  8
T17SSILL
 62
3
 10
-1695.413
 20
495.824
 30
3538.000
 70
    32
  0
VERTEX
  8
T17SSILL
 62
3
 10
-1658.860
 20
521.043
 30
3538.000
 70
    32
  0
VERTEX
  8
T17SSILL
 62
3
 10
-1651.002
 20
528.237
 30
3539.000
 70
    32
  0
VERTEX
  8
T17SSILL
 62
3
 10
-1656.275
 20
532.535
 30
3539.000
 70
    32
  0
VERTEX
  8
T17SSILL
 62
3
 10
-1661.466
 20
536.266
 30
3539.000
 70
    32
  0
VERTEX
  8
T17SSILL
 62
3
 10
-1655.464
 20
548.268
 30
3538.000
 70
    32
  0
VERTEX
  8
T17SSILL
 62
3
 10
-1649.461
 20
554.756
 30
3538.000
 70
    32
  0
VERTEX
  8
T17SSILL
 62
3
 10
-1642.972
 20
557.513
 30
3538.000
 70
    32
  0
VERTEX
  8
T17SSILL
 62
3
 10
-1637.943
 20
559.946
 30
3538.000
 70
    32
  0
VERTEX
  8
T17SSILL
 62
3
 10
-1633.293
 20
563.454
 30
3535.000
 70
    32
  0
VERTEX
  8
T17SSILL
 62
3
 10
-1631.129
 20
564.569
 30
3538.000
 70
    32
  0
VERTEX
  8
T17SSILL
 62
3
 10
-1625.532
 20
557.432
 30
3538.000
 70
    32
  0
VERTEX
  8
T17SSILL
 62
3
 10
-1622.449
 20
553.539
 30
3538.000
 70
    32
  0
VERTEX
  8
T17SSILL
 62
3
 10
-1620.178
 20
550.295
 30
3538.000
 70
    32
  0
VERTEX
  8
T17SSILL
 62
3
 10
-1618.312
 20
549.728
 30
3539.000
 70
    32
  0
VERTEX
  8
T17SSILL
 62
3
 10
-1602.102
 20
560.345
 30
3539.000
 70
    32
  0
VERTEX
  8
T17SSILL
 62
3
 10
-1589.160
 20
568.840
 30
3539.000
 70
    32
  0
VERTEX
  8
T17SSILL
 62
3
 10
-1578.487
 20
576.786
 30
3539.000
 70
    32
  0
VERTEX
  8
T17SSILL
 62
3
 10
-1568.699
 20
583.808
 30
3539.000
 70
    32
  0
VERTEX
  8
T17SSILL
 62
3
 10
-1557.026
 20
592.995
 30
3539.000
 70
    32
  0
VERTEX
  8
T17SSILL
 62
3
 10
-1546.523
 20
600.646
 30
3539.000
 70
    32
  0
VERTEX
  8
T17SSILL
 62
3
 10
-1539.792
 20
606.769
 30
3539.000
 70
    32
  0
VERTEX
  8
T17SSILL
 62
3
 10
-1532.758
 20
611.819
 30
3539.000
 70
    32
  0
VERTEX
  8
T17SSILL
 62
3
 10
-1529.960
 20
609.606
 30
3539.000
 70
    32
  0
VERTEX
  8
T17SSILL
 62
3
 10
-1525.219
 20
602.769
 30
3539.000
 70
    32
  0
VERTEX
  8
T17SSILL
 62
3
 10
-1533.559
 20
597.536
 30
3539.000
 70
    32
  0
VERTEX
  8
T17SSILL
 62
3
 10
-1542.416
 20
590.862
 30
3539.000
 70
    32
  0
VERTEX
  8
T17SSILL
 62
3
 10
-1554.074
 20
582.408
 30
3539.000
 70
    32
  0
VERTEX
  8
T17SSILL
 62
3
 10
-1566.250
 20
573.717
 30
3539.000
 70
    32
  0
VERTEX
  8
T17SSILL
 62
3
 10
-1575.405
 20
566.225
 30
3539.000
 70
    32
  0
VERTEX
  8
T17SSILL
 62
3
 10
-1583.987
 20
559.726
 30
3539.000
 70
    32
  0
VERTEX
  8
T17SSILL
 62
3
 10
-1593.493
 20
553.288
 30
3539.000
 70
    32
  0
VERTEX
  8
T17SSILL
 62
3
 10
-1607.550
 20
543.833
 30
3539.000
 70
    32
  0
VERTEX
  8
T17SSILL
 62
3
 10
-1618.436
 20
536.105
 30
3539.000
 70
    32
  0
VERTEX
  8
T17SSILL
 62
3
 10
-1629.481
 20
528.296
 30
3539.000
 70
    32
  0
VERTEX
  8
T17SSILL
 62
3
 10
-1642.051
 20
520.865
 30
3539.000
 70
    32
  0
VERTEX
  8
T17SSILL
 62
3
 10
-1652.423
 20
513.477
 30
3538.000
 70
    32
  0
VERTEX
  8
T17SSILL
 62
3
 10
-1682.309
 20
494.907
 30
3538.000
 70
    32
  0
VERTEX
  8
T17SSILL
 62
3
 10
-1761.393
 20
431.860
 30
3538.000
 70
    32
  0
VERTEX
  8
T17SSILL
 62
3
 10
-1763.174
 20
430.333
 30
3538.916
 70
    32
  0
VERTEX
  8
T17SSILL
 62
3
 10
-1793.309
 20
413.073
 30
3538.916
 70
    32
  0
VERTEX
  8
T17SSILL
 62
3
 10
-1820.317
 20
403.696
 30
3538.916
 70
    32
  0
VERTEX
  8
T17SSILL
 62
3
 10
-1845.366
 20
403.389
 30
3538.916
 70
    32
  0
VERTEX
  8
T17SSILL
 62
3
 10
-1951.077
 20
397.019
 30
3537.717
 70
    32
  0
VERTEX
  8
T17SSILL
 62
3
 10
-1993.715
 20
395.351
 30
3537.000
 70
    32
  0
VERTEX
  8
T17SSILL
 62
3
 10
-2033.268
 20
394.115
 30
3537.000
 70
    32
  0
VERTEX
  8
T17SSILL
 62
3
 10
-2073.256
 20
393.880
 30
3537.000
 70
    32
  0
VERTEX
  8
T17SSILL
 62
3
 10
-2102.160
 20
394.193
 30
3537.000
 70
    32
  0
VERTEX
  8
T17SSILL
 62
3
 10
-2121.182
 20
396.305
 30
3537.000
 70
    32
  0
VERTEX
  8
T17SSILL
 62
3
 10
-2164.636
 20
396.164
 30
3537.000
 70
    32
  0
VERTEX
  8
T17SSILL
 62
3
 10
-2166.986
 20
396.497
 30
3537.000
 70
    32
  0
VERTEX
  8
T17SSILL
 62
3
 10
-2187.719
 20
395.097
 30
3537.000
 70
    32
  0
VERTEX
  8
T17SSILL
 62
3
 10
-2195.606
 20
395.192
 30
3537.000
 70
    32
  0
VERTEX
  8
T17SSILL
 62
3
 10
-2210.496
 20
394.994
 30
3537.000
 70
    32
  0
VERTEX
  8
T17SSILL
 62
3
 10
-2235.064
 20
397.993
 30
3537.000
 70
    32
  0
VERTEX
  8
T17SSILL
 62
3
 10
-2263.157
 20
399.990
 30
3537.000
 70
    32
  0
VERTEX
  8
T17SSILL
 62
3
 10
-2268.111
 20
400.362
 30
3537.000
 70
    32
  0
VERTEX
  8
T17SSILL
 62
3
 10
-2282.469
 20
401.588
 30
3537.000
 70
    32
  0
VERTEX
  8
T17SSILL
 62
3
 10
-2303.481
 20
406.204
 30
3537.000
 70
    32
  0
VERTEX
  8
T17SSILL
 62
3
 10
-2314.997
 20
408.559
 30
3537.000
 70
    32
  0
VERTEX
  8
T17SSILL
 62
3
 10
-2315.442
 20
407.331
 30
3537.000
 70
    32
  0
VERTEX
  8
T17SSILL
 62
3
 10
-2313.747
 20
402.262
 30
3537.000
 70
    32
  0
SEQEND
  8
T17SSILL
  0
ENDSEC
  0
EOF
