999
********************************
999
*   DXF File - Entities Only   *
999
*        3D Data Format        *
999
*     Output from ENVISAGE     *
999
*     20-Dec-2007 09:17:46     *
999
********************************
  0
SECTION 
  2
HEADER
  9
$ACADVER
  1
AC1009
  9
$EXTMIN
 10
-290000.000
 20
-250000.000
 30
-4000.000
  9
$EXTMAX
 10
5000000.000
 20
600000.000
 30
6000.000
  0
ENDSEC
  0
SECTION
  2
ENTITIES
  0
POLYLINE
  8
T18SSILL
 62
6
 66
     1
 70
     9
  0
VERTEX
  8
T18SSILL
 62
6
 10
-1173.959
 20
-1474.204
 30
3384.768
 70
    32
  0
VERTEX
  8
T18SSILL
 62
6
 10
-1183.648
 20
-1475.655
 30
3384.648
 70
    32
  0
VERTEX
  8
T18SSILL
 62
6
 10
-1176.023
 20
-1482.367
 30
3384.777
 70
    32
  0
VERTEX
  8
T18SSILL
 62
6
 10
-1171.508
 20
-1478.107
 30
3384.817
 70
    32
  0
SEQEND
  8
T18SSILL
  0
POLYLINE
  8
T18SSILL
 62
6
 66
     1
 70
     9
  0
VERTEX
  8
T18SSILL
 62
6
 10
2072.961
 20
-3148.207
 30
3384.118
 70
    32
  0
VERTEX
  8
T18SSILL
 62
6
 10
2089.133
 20
-3142.245
 30
3384.121
 70
    32
  0
VERTEX
  8
T18SSILL
 62
6
 10
2085.378
 20
-3133.644
 30
3384.107
 70
    32
  0
VERTEX
  8
T18SSILL
 62
6
 10
2078.798
 20
-3124.955
 30
3384.091
 70
    32
  0
VERTEX
  8
T18SSILL
 62
6
 10
2073.163
 20
-3114.929
 30
3384.074
 70
    32
  0
VERTEX
  8
T18SSILL
 62
6
 10
2071.031
 20
-3113.822
 30
3384.071
 70
    32
  0
VERTEX
  8
T18SSILL
 62
6
 10
2059.413
 20
-3119.045
 30
3384.070
 70
    32
  0
VERTEX
  8
T18SSILL
 62
6
 10
2069.771
 20
-3142.283
 30
3384.108
 70
    32
  0
SEQEND
  8
T18SSILL
  0
POLYLINE
  8
T18SSILL
 62
6
 66
     1
 70
     9
  0
VERTEX
  8
T18SSILL
 62
6
 10
1550.856
 20
-2676.586
 30
3383.787
 70
    32
  0
VERTEX
  8
T18SSILL
 62
6
 10
1545.549
 20
-2679.863
 30
3383.787
 70
    32
  0
VERTEX
  8
T18SSILL
 62
6
 10
1543.041
 20
-2676.409
 30
3383.787
 70
    32
  0
VERTEX
  8
T18SSILL
 62
6
 10
1532.144
 20
-2684.716
 30
3383.788
 70
    32
  0
VERTEX
  8
T18SSILL
 62
6
 10
1555.100
 20
-2689.457
 30
3383.788
 70
    32
  0
VERTEX
  8
T18SSILL
 62
6
 10
1557.941
 20
-2686.767
 30
3383.788
 70
    32
  0
SEQEND
  8
T18SSILL
  0
POLYLINE
  8
T18SSILL
 62
6
 66
     1
 70
     9
  0
VERTEX
  8
T18SSILL
 62
6
 10
1674.967
 20
-2698.643
 30
3383.788
 70
    32
  0
VERTEX
  8
T18SSILL
 62
6
 10
1674.104
 20
-2697.315
 30
3383.788
 70
    32
  0
VERTEX
  8
T18SSILL
 62
6
 10
1652.280
 20
-2693.378
 30
3383.788
 70
    32
  0
VERTEX
  8
T18SSILL
 62
6
 10
1612.638
 20
-2722.668
 30
3383.789
 70
    32
  0
VERTEX
  8
T18SSILL
 62
6
 10
1622.588
 20
-2736.681
 30
3383.789
 70
    32
  0
SEQEND
  8
T18SSILL
  0
POLYLINE
  8
T18SSILL
 62
6
 66
     1
 70
     9
  0
VERTEX
  8
T18SSILL
 62
6
 10
1644.720
 20
-2594.892
 30
3383.728
 70
    32
  0
VERTEX
  8
T18SSILL
 62
6
 10
1634.594
 20
-2580.784
 30
3383.722
 70
    32
  0
VERTEX
  8
T18SSILL
 62
6
 10
1636.543
 20
-2579.374
 30
3383.720
 70
    32
  0
VERTEX
  8
T18SSILL
 62
6
 10
1658.900
 20
-2582.791
 30
3383.713
 70
    32
  0
VERTEX
  8
T18SSILL
 62
6
 10
1659.848
 20
-2584.383
 30
3383.714
 70
    32
  0
SEQEND
  8
T18SSILL
  0
POLYLINE
  8
T18SSILL
 62
6
 66
     1
 70
     9
  0
VERTEX
  8
T18SSILL
 62
6
 10
3967.091
 20
-2537.675
 30
3383.761
 70
    32
  0
VERTEX
  8
T18SSILL
 62
6
 10
3984.989
 20
-2561.124
 30
3383.750
 70
    32
  0
VERTEX
  8
T18SSILL
 62
6
 10
3946.376
 20
-2591.570
 30
3383.776
 70
    32
  0
VERTEX
  8
T18SSILL
 62
6
 10
4012.292
 20
-2627.448
 30
3383.857
 70
    32
  0
VERTEX
  8
T18SSILL
 62
6
 10
4014.835
 20
-2631.238
 30
3383.863
 70
    32
  0
VERTEX
  8
T18SSILL
 62
6
 10
4028.403
 20
-2638.641
 30
3383.880
 70
    32
  0
VERTEX
  8
T18SSILL
 62
6
 10
4024.409
 20
-2645.826
 30
3383.888
 70
    32
  0
VERTEX
  8
T18SSILL
 62
6
 10
3726.900
 20
-2481.160
 30
3383.934
 70
    32
  0
VERTEX
  8
T18SSILL
 62
6
 10
3710.896
 20
-2476.195
 30
3383.950
 70
    32
  0
VERTEX
  8
T18SSILL
 62
6
 10
3703.593
 20
-2475.915
 30
3383.958
 70
    32
  0
VERTEX
  8
T18SSILL
 62
6
 10
2194.872
 20
-2506.782
 30
3383.440
 70
    32
  0
VERTEX
  8
T18SSILL
 62
6
 10
2181.140
 20
-2511.954
 30
3383.434
 70
    32
  0
VERTEX
  8
T18SSILL
 62
6
 10
2003.973
 20
-2620.638
 30
3383.364
 70
    32
  0
VERTEX
  8
T18SSILL
 62
6
 10
2087.876
 20
-2805.461
 30
3383.667
 70
    32
  0
VERTEX
  8
T18SSILL
 62
6
 10
2091.994
 20
-2809.350
 30
3383.675
 70
    32
  0
VERTEX
  8
T18SSILL
 62
6
 10
2097.663
 20
-2806.257
 30
3383.675
 70
    32
  0
VERTEX
  8
T18SSILL
 62
6
 10
2099.794
 20
-2807.276
 30
3383.677
 70
    32
  0
VERTEX
  8
T18SSILL
 62
6
 10
2114.493
 20
-2797.068
 30
3383.673
 70
    32
  0
VERTEX
  8
T18SSILL
 62
6
 10
2111.930
 20
-2793.112
 30
3383.666
 70
    32
  0
VERTEX
  8
T18SSILL
 62
6
 10
2119.100
 20
-2788.711
 30
3383.665
 70
    32
  0
VERTEX
  8
T18SSILL
 62
6
 10
2125.528
 20
-2798.723
 30
3383.682
 70
    32
  0
VERTEX
  8
T18SSILL
 62
6
 10
2105.359
 20
-2813.341
 30
3383.689
 70
    32
  0
VERTEX
  8
T18SSILL
 62
6
 10
2098.556
 20
-2822.001
 30
3383.696
 70
    32
  0
VERTEX
  8
T18SSILL
 62
6
 10
2082.325
 20
-2830.211
 30
3383.697
 70
    32
  0
VERTEX
  8
T18SSILL
 62
6
 10
2012.128
 20
-2878.726
 30
3383.764
 70
    32
  0
VERTEX
  8
T18SSILL
 62
6
 10
2022.235
 20
-2892.723
 30
3383.750
 70
    32
  0
VERTEX
  8
T18SSILL
 62
6
 10
2015.104
 20
-2897.779
 30
3383.786
 70
    32
  0
VERTEX
  8
T18SSILL
 62
6
 10
2021.536
 20
-2928.041
 30
3383.815
 70
    32
  0
VERTEX
  8
T18SSILL
 62
6
 10
2026.019
 20
-2932.629
 30
3383.806
 70
    32
  0
VERTEX
  8
T18SSILL
 62
6
 10
2030.802
 20
-2934.217
 30
3383.803
 70
    32
  0
VERTEX
  8
T18SSILL
 62
6
 10
2038.998
 20
-2934.689
 30
3383.809
 70
    32
  0
VERTEX
  8
T18SSILL
 62
6
 10
2047.886
 20
-2939.463
 30
3383.821
 70
    32
  0
VERTEX
  8
T18SSILL
 62
6
 10
2060.803
 20
-2957.989
 30
3383.855
 70
    32
  0
VERTEX
  8
T18SSILL
 62
6
 10
2069.954
 20
-2987.675
 30
3383.900
 70
    32
  0
VERTEX
  8
T18SSILL
 62
6
 10
2070.231
 20
-2998.411
 30
3383.915
 70
    32
  0
VERTEX
  8
T18SSILL
 62
6
 10
2077.400
 20
-3015.541
 30
3383.943
 70
    32
  0
VERTEX
  8
T18SSILL
 62
6
 10
2049.975
 20
-3028.086
 30
3383.942
 70
    32
  0
VERTEX
  8
T18SSILL
 62
6
 10
2051.915
 20
-3033.247
 30
3383.950
 70
    32
  0
VERTEX
  8
T18SSILL
 62
6
 10
2041.004
 20
-3038.633
 30
3383.950
 70
    32
  0
VERTEX
  8
T18SSILL
 62
6
 10
2050.720
 20
-3060.385
 30
3383.986
 70
    32
  0
VERTEX
  8
T18SSILL
 62
6
 10
2052.198
 20
-3059.303
 30
3383.985
 70
    32
  0
VERTEX
  8
T18SSILL
 62
6
 10
2048.516
 20
-3050.211
 30
3383.971
 70
    32
  0
VERTEX
  8
T18SSILL
 62
6
 10
2048.363
 20
-3046.516
 30
3383.966
 70
    32
  0
VERTEX
  8
T18SSILL
 62
6
 10
2049.917
 20
-3039.797
 30
3383.958
 70
    32
  0
VERTEX
  8
T18SSILL
 62
6
 10
2052.224
 20
-3035.795
 30
3383.954
 70
    32
  0
VERTEX
  8
T18SSILL
 62
6
 10
2062.521
 20
-3030.595
 30
3383.953
 70
    32
  0
VERTEX
  8
T18SSILL
 62
6
 10
2076.335
 20
-3020.050
 30
3383.948
 70
    32
  0
VERTEX
  8
T18SSILL
 62
6
 10
2077.658
 20
-3020.203
 30
3383.949
 70
    32
  0
VERTEX
  8
T18SSILL
 62
6
 10
2110.702
 20
-3076.762
 30
3384.047
 70
    32
  0
VERTEX
  8
T18SSILL
 62
6
 10
2117.937
 20
-3087.640
 30
3384.066
 70
    32
  0
VERTEX
  8
T18SSILL
 62
6
 10
2127.199
 20
-3098.658
 30
3384.087
 70
    32
  0
VERTEX
  8
T18SSILL
 62
6
 10
2130.228
 20
-3105.648
 30
3384.098
 70
    32
  0
VERTEX
  8
T18SSILL
 62
6
 10
2135.096
 20
-3112.078
 30
3384.110
 70
    32
  0
VERTEX
  8
T18SSILL
 62
6
 10
2146.665
 20
-3119.094
 30
3384.127
 70
    32
  0
VERTEX
  8
T18SSILL
 62
6
 10
2150.606
 20
-3122.898
 30
3384.135
 70
    32
  0
VERTEX
  8
T18SSILL
 62
6
 10
2152.972
 20
-3127.259
 30
3384.142
 70
    32
  0
VERTEX
  8
T18SSILL
 62
6
 10
2155.039
 20
-3139.637
 30
3384.160
 70
    32
  0
VERTEX
  8
T18SSILL
 62
6
 10
2153.818
 20
-3143.334
 30
3384.164
 70
    32
  0
VERTEX
  8
T18SSILL
 62
6
 10
2156.618
 20
-3151.885
 30
3384.178
 70
    32
  0
VERTEX
  8
T18SSILL
 62
6
 10
2147.203
 20
-3161.087
 30
3384.184
 70
    32
  0
VERTEX
  8
T18SSILL
 62
6
 10
2145.611
 20
-3162.123
 30
3384.184
 70
    32
  0
VERTEX
  8
T18SSILL
 62
6
 10
2139.560
 20
-3161.263
 30
3384.179
 70
    32
  0
VERTEX
  8
T18SSILL
 62
6
 10
2139.531
 20
-3163.810
 30
3384.182
 70
    32
  0
VERTEX
  8
T18SSILL
 62
6
 10
2154.265
 20
-3188.745
 30
3384.226
 70
    32
  0
VERTEX
  8
T18SSILL
 62
6
 10
2158.513
 20
-3193.624
 30
3384.235
 70
    32
  0
VERTEX
  8
T18SSILL
 62
6
 10
2159.335
 20
-3198.552
 30
3384.242
 70
    32
  0
VERTEX
  8
T18SSILL
 62
6
 10
2170.885
 20
-3217.742
 30
3384.275
 70
    32
  0
VERTEX
  8
T18SSILL
 62
6
 10
2168.905
 20
-3221.936
 30
3384.280
 70
    32
  0
VERTEX
  8
T18SSILL
 62
6
 10
2165.468
 20
-3222.950
 30
3384.279
 70
    32
  0
VERTEX
  8
T18SSILL
 62
6
 10
2155.175
 20
-3232.142
 30
3384.285
 70
    32
  0
VERTEX
  8
T18SSILL
 62
6
 10
2201.908
 20
-3285.197
 30
3384.386
 70
    32
  0
VERTEX
  8
T18SSILL
 62
6
 10
2210.312
 20
-3287.576
 30
3384.395
 70
    32
  0
VERTEX
  8
T18SSILL
 62
6
 10
2217.195
 20
-3284.756
 30
3384.396
 70
    32
  0
VERTEX
  8
T18SSILL
 62
6
 10
2226.575
 20
-3278.628
 30
3384.393
 70
    32
  0
VERTEX
  8
T18SSILL
 62
6
 10
2230.724
 20
-3284.472
 30
3384.404
 70
    32
  0
VERTEX
  8
T18SSILL
 62
6
 10
2209.907
 20
-3299.955
 30
3384.411
 70
    32
  0
VERTEX
  8
T18SSILL
 62
6
 10
2210.365
 20
-3306.020
 30
3384.420
 70
    32
  0
VERTEX
  8
T18SSILL
 62
6
 10
2231.724
 20
-3327.606
 30
3384.463
 70
    32
  0
VERTEX
  8
T18SSILL
 62
6
 10
2236.795
 20
-3337.325
 30
3384.479
 70
    32
  0
VERTEX
  8
T18SSILL
 62
6
 10
2248.032
 20
-3353.174
 30
3384.508
 70
    32
  0
VERTEX
  8
T18SSILL
 62
6
 10
2257.164
 20
-3353.279
 30
3384.514
 70
    32
  0
VERTEX
  8
T18SSILL
 62
6
 10
2259.872
 20
-3354.627
 30
3384.517
 70
    32
  0
VERTEX
  8
T18SSILL
 62
6
 10
2263.851
 20
-3359.942
 30
3384.527
 70
    32
  0
VERTEX
  8
T18SSILL
 62
6
 10
2264.942
 20
-3364.346
 30
3384.534
 70
    32
  0
VERTEX
  8
T18SSILL
 62
6
 10
2261.037
 20
-3375.631
 30
3384.546
 70
    32
  0
VERTEX
  8
T18SSILL
 62
6
 10
2252.692
 20
-3391.169
 30
3384.562
 70
    32
  0
VERTEX
  8
T18SSILL
 62
6
 10
2250.528
 20
-3403.791
 30
3384.577
 70
    32
  0
VERTEX
  8
T18SSILL
 62
6
 10
2241.790
 20
-3407.556
 30
3384.577
 70
    32
  0
VERTEX
  8
T18SSILL
 62
6
 10
2237.142
 20
-3406.976
 30
3384.573
 70
    32
  0
VERTEX
  8
T18SSILL
 62
6
 10
2232.197
 20
-3401.562
 30
3384.562
 70
    32
  0
VERTEX
  8
T18SSILL
 62
6
 10
2224.636
 20
-3409.995
 30
3384.569
 70
    32
  0
VERTEX
  8
T18SSILL
 62
6
 10
2221.849
 20
-3415.584
 30
3384.575
 70
    32
  0
VERTEX
  8
T18SSILL
 62
6
 10
2220.761
 20
-3418.558
 30
3384.578
 70
    32
  0
VERTEX
  8
T18SSILL
 62
6
 10
2222.076
 20
-3426.477
 30
3384.589
 70
    32
  0
VERTEX
  8
T18SSILL
 62
6
 10
2232.833
 20
-3438.193
 30
3384.612
 70
    32
  0
VERTEX
  8
T18SSILL
 62
6
 10
2266.033
 20
-3438.045
 30
3384.633
 70
    32
  0
VERTEX
  8
T18SSILL
 62
6
 10
2448.283
 20
-3306.541
 30
3384.575
 70
    32
  0
VERTEX
  8
T18SSILL
 62
6
 10
2445.582
 20
-3302.330
 30
3384.568
 70
    32
  0
VERTEX
  8
T18SSILL
 62
6
 10
2453.595
 20
-3297.242
 30
3384.566
 70
    32
  0
VERTEX
  8
T18SSILL
 62
6
 10
2479.802
 20
-3338.255
 30
3384.638
 70
    32
  0
VERTEX
  8
T18SSILL
 62
6
 10
2472.465
 20
-3342.387
 30
3384.639
 70
    32
  0
VERTEX
  8
T18SSILL
 62
6
 10
2451.998
 20
-3311.941
 30
3384.585
 70
    32
  0
VERTEX
  8
T18SSILL
 62
6
 10
2355.033
 20
-3381.535
 30
3384.615
 70
    32
  0
VERTEX
  8
T18SSILL
 62
6
 10
2361.171
 20
-3390.036
 30
3384.631
 70
    32
  0
VERTEX
  8
T18SSILL
 62
6
 10
2354.795
 20
-3394.618
 30
3384.633
 70
    32
  0
VERTEX
  8
T18SSILL
 62
6
 10
2348.567
 20
-3386.291
 30
3384.617
 70
    32
  0
VERTEX
  8
T18SSILL
 62
6
 10
2268.056
 20
-3445.534
 30
3384.645
 70
    32
  0
VERTEX
  8
T18SSILL
 62
6
 10
2229.516
 20
-3444.040
 30
3384.618
 70
    32
  0
VERTEX
  8
T18SSILL
 62
6
 10
2139.336
 20
-3350.177
 30
3384.433
 70
    32
  0
VERTEX
  8
T18SSILL
 62
6
 10
2137.045
 20
-3350.853
 30
3384.432
 70
    32
  0
VERTEX
  8
T18SSILL
 62
6
 10
2061.234
 20
-3406.109
 30
3384.500
 70
    32
  0
VERTEX
  8
T18SSILL
 62
6
 10
2060.748
 20
-3410.144
 30
3384.509
 70
    32
  0
VERTEX
  8
T18SSILL
 62
6
 10
2057.715
 20
-3414.325
 30
3384.528
 70
    32
  0
VERTEX
  8
T18SSILL
 62
6
 10
2050.921
 20
-3417.058
 30
3384.559
 70
    32
  0
VERTEX
  8
T18SSILL
 62
6
 10
2047.154
 20
-3416.224
 30
3384.572
 70
    32
  0
VERTEX
  8
T18SSILL
 62
6
 10
2042.048
 20
-3409.579
 30
3384.580
 70
    32
  0
VERTEX
  8
T18SSILL
 62
6
 10
2042.563
 20
-3402.910
 30
3384.566
 70
    32
  0
VERTEX
  8
T18SSILL
 62
6
 10
2048.742
 20
-3400.170
 30
3384.538
 70
    32
  0
VERTEX
  8
T18SSILL
 62
6
 10
2057.164
 20
-3400.969
 30
3384.507
 70
    32
  0
VERTEX
  8
T18SSILL
 62
6
 10
2134.398
 20
-3344.148
 30
3384.422
 70
    32
  0
VERTEX
  8
T18SSILL
 62
6
 10
2056.556
 20
-3261.932
 30
3384.266
 70
    32
  0
VERTEX
  8
T18SSILL
 62
6
 10
2043.573
 20
-3268.282
 30
3384.326
 70
    32
  0
VERTEX
  8
T18SSILL
 62
6
 10
2035.312
 20
-3253.345
 30
3384.332
 70
    32
  0
VERTEX
  8
T18SSILL
 62
6
 10
2041.618
 20
-3247.182
 30
3384.297
 70
    32
  0
VERTEX
  8
T18SSILL
 62
6
 10
2008.657
 20
-3210.972
 30
3384.360
 70
    32
  0
VERTEX
  8
T18SSILL
 62
6
 10
1984.054
 20
-3111.973
 30
3384.280
 70
    32
  0
VERTEX
  8
T18SSILL
 62
6
 10
1981.510
 20
-3111.769
 30
3384.290
 70
    32
  0
VERTEX
  8
T18SSILL
 62
6
 10
1935.103
 20
-3145.491
 30
3384.405
 70
    32
  0
VERTEX
  8
T18SSILL
 62
6
 10
1936.754
 20
-3170.190
 30
3384.431
 70
    32
  0
VERTEX
  8
T18SSILL
 62
6
 10
1940.131
 20
-3182.085
 30
3384.448
 70
    32
  0
VERTEX
  8
T18SSILL
 62
6
 10
1925.800
 20
-3191.055
 30
3384.437
 70
    32
  0
VERTEX
  8
T18SSILL
 62
6
 10
1918.069
 20
-3191.318
 30
3384.427
 70
    32
  0
VERTEX
  8
T18SSILL
 62
6
 10
1909.868
 20
-3194.211
 30
3384.419
 70
    32
  0
VERTEX
  8
T18SSILL
 62
6
 10
1901.666
 20
-3204.832
 30
3384.418
 70
    32
  0
VERTEX
  8
T18SSILL
 62
6
 10
1883.267
 20
-3208.662
 30
3384.397
 70
    32
  0
VERTEX
  8
T18SSILL
 62
6
 10
1879.434
 20
-3205.896
 30
3384.389
 70
    32
  0
VERTEX
  8
T18SSILL
 62
6
 10
1856.446
 20
-3173.137
 30
3384.321
 70
    32
  0
VERTEX
  8
T18SSILL
 62
6
 10
1847.949
 20
-3163.467
 30
3384.233
 70
    32
  0
VERTEX
  8
T18SSILL
 62
6
 10
1837.249
 20
-3146.833
 30
3384.195
 70
    32
  0
VERTEX
  8
T18SSILL
 62
6
 10
1825.087
 20
-3135.101
 30
3384.181
 70
    32
  0
VERTEX
  8
T18SSILL
 62
6
 10
1824.148
 20
-3132.719
 30
3384.178
 70
    32
  0
VERTEX
  8
T18SSILL
 62
6
 10
1825.906
 20
-3124.923
 30
3384.171
 70
    32
  0
VERTEX
  8
T18SSILL
 62
6
 10
1828.785
 20
-3118.895
 30
3384.166
 70
    32
  0
VERTEX
  8
T18SSILL
 62
6
 10
1839.402
 20
-3104.349
 30
3384.214
 70
    32
  0
VERTEX
  8
T18SSILL
 62
6
 10
1840.865
 20
-3099.360
 30
3384.234
 70
    32
  0
VERTEX
  8
T18SSILL
 62
6
 10
1840.399
 20
-3063.170
 30
3384.198
 70
    32
  0
VERTEX
  8
T18SSILL
 62
6
 10
1836.397
 20
-3044.505
 30
3384.175
 70
    32
  0
VERTEX
  8
T18SSILL
 62
6
 10
1837.643
 20
-3027.656
 30
3384.160
 70
    32
  0
VERTEX
  8
T18SSILL
 62
6
 10
1840.450
 20
-3020.311
 30
3384.157
 70
    32
  0
VERTEX
  8
T18SSILL
 62
6
 10
1837.035
 20
-3011.665
 30
3384.144
 70
    32
  0
VERTEX
  8
T18SSILL
 62
6
 10
1832.426
 20
-3007.660
 30
3384.134
 70
    32
  0
VERTEX
  8
T18SSILL
 62
6
 10
1808.197
 20
-3024.077
 30
3384.068
 70
    32
  0
VERTEX
  8
T18SSILL
 62
6
 10
1811.719
 20
-3028.941
 30
3384.074
 70
    32
  0
VERTEX
  8
T18SSILL
 62
6
 10
1801.536
 20
-3036.202
 30
3384.079
 70
    32
  0
VERTEX
  8
T18SSILL
 62
6
 10
1809.060
 20
-3046.476
 30
3384.090
 70
    32
  0
VERTEX
  8
T18SSILL
 62
6
 10
1797.276
 20
-3054.761
 30
3384.096
 70
    32
  0
VERTEX
  8
T18SSILL
 62
6
 10
1802.685
 20
-3066.340
 30
3384.108
 70
    32
  0
VERTEX
  8
T18SSILL
 62
6
 10
1803.638
 20
-3075.222
 30
3384.117
 70
    32
  0
VERTEX
  8
T18SSILL
 62
6
 10
1802.100
 20
-3086.885
 30
3384.128
 70
    32
  0
VERTEX
  8
T18SSILL
 62
6
 10
1791.957
 20
-3090.634
 30
3384.130
 70
    32
  0
VERTEX
  8
T18SSILL
 62
6
 10
1790.253
 20
-3093.688
 30
3384.132
 70
    32
  0
VERTEX
  8
T18SSILL
 62
6
 10
1792.860
 20
-3103.818
 30
3384.143
 70
    32
  0
VERTEX
  8
T18SSILL
 62
6
 10
1792.497
 20
-3120.238
 30
3384.159
 70
    32
  0
VERTEX
  8
T18SSILL
 62
6
 10
1798.796
 20
-3130.058
 30
3384.170
 70
    32
  0
VERTEX
  8
T18SSILL
 62
6
 10
1813.223
 20
-3135.756
 30
3384.179
 70
    32
  0
VERTEX
  8
T18SSILL
 62
6
 10
1814.757
 20
-3139.814
 30
3384.183
 70
    32
  0
VERTEX
  8
T18SSILL
 62
6
 10
1813.843
 20
-3142.965
 30
3384.186
 70
    32
  0
VERTEX
  8
T18SSILL
 62
6
 10
1809.966
 20
-3144.062
 30
3384.186
 70
    32
  0
VERTEX
  8
T18SSILL
 62
6
 10
1792.841
 20
-3136.226
 30
3384.175
 70
    32
  0
VERTEX
  8
T18SSILL
 62
6
 10
1784.575
 20
-3129.457
 30
3384.166
 70
    32
  0
VERTEX
  8
T18SSILL
 62
6
 10
1778.177
 20
-3120.601
 30
3384.156
 70
    32
  0
VERTEX
  8
T18SSILL
 62
6
 10
1776.291
 20
-3116.539
 30
3384.152
 70
    32
  0
VERTEX
  8
T18SSILL
 62
6
 10
1775.234
 20
-3109.150
 30
3384.144
 70
    32
  0
VERTEX
  8
T18SSILL
 62
6
 10
1775.894
 20
-3097.476
 30
3384.133
 70
    32
  0
VERTEX
  8
T18SSILL
 62
6
 10
1770.711
 20
-3089.864
 30
3384.124
 70
    32
  0
VERTEX
  8
T18SSILL
 62
6
 10
1766.919
 20
-3075.856
 30
3384.110
 70
    32
  0
VERTEX
  8
T18SSILL
 62
6
 10
1765.356
 20
-3074.258
 30
3384.108
 70
    32
  0
VERTEX
  8
T18SSILL
 62
6
 10
1773.545
 20
-3068.572
 30
3384.104
 70
    32
  0
VERTEX
  8
T18SSILL
 62
6
 10
1764.689
 20
-3055.806
 30
3384.090
 70
    32
  0
VERTEX
  8
T18SSILL
 62
6
 10
1742.381
 20
-3071.185
 30
3384.100
 70
    32
  0
VERTEX
  8
T18SSILL
 62
6
 10
1753.803
 20
-3086.158
 30
3384.117
 70
    32
  0
VERTEX
  8
T18SSILL
 62
6
 10
1749.017
 20
-3089.968
 30
3384.119
 70
    32
  0
VERTEX
  8
T18SSILL
 62
6
 10
1752.819
 20
-3095.369
 30
3384.126
 70
    32
  0
VERTEX
  8
T18SSILL
 62
6
 10
1742.461
 20
-3102.628
 30
3384.130
 70
    32
  0
VERTEX
  8
T18SSILL
 62
6
 10
1735.555
 20
-3092.097
 30
3384.119
 70
    32
  0
VERTEX
  8
T18SSILL
 62
6
 10
1730.508
 20
-3095.641
 30
3384.121
 70
    32
  0
VERTEX
  8
T18SSILL
 62
6
 10
1723.340
 20
-3085.020
 30
3384.109
 70
    32
  0
VERTEX
  8
T18SSILL
 62
6
 10
1714.304
 20
-3091.767
 30
3384.113
 70
    32
  0
VERTEX
  8
T18SSILL
 62
6
 10
1729.446
 20
-3142.528
 30
3384.167
 70
    32
  0
VERTEX
  8
T18SSILL
 62
6
 10
1723.006
 20
-3145.002
 30
3384.168
 70
    32
  0
VERTEX
  8
T18SSILL
 62
6
 10
1708.876
 20
-3097.941
 30
3384.118
 70
    32
  0
VERTEX
  8
T18SSILL
 62
6
 10
1706.688
 20
-3097.301
 30
3384.117
 70
    32
  0
VERTEX
  8
T18SSILL
 62
6
 10
1590.505
 20
-3180.816
 30
3384.173
 70
    32
  0
VERTEX
  8
T18SSILL
 62
6
 10
1558.668
 20
-3223.136
 30
3384.207
 70
    32
  0
VERTEX
  8
T18SSILL
 62
6
 10
1564.661
 20
-3259.741
 30
3384.245
 70
    32
  0
VERTEX
  8
T18SSILL
 62
6
 10
1657.719
 20
-3440.058
 30
3384.442
 70
    32
  0
VERTEX
  8
T18SSILL
 62
6
 10
2093.941
 20
-4295.091
 30
3385.584
 70
    32
  0
VERTEX
  8
T18SSILL
 62
6
 10
2182.677
 20
-4465.623
 30
3385.961
 70
    32
  0
VERTEX
  8
T18SSILL
 62
6
 10
2183.387
 20
-4612.255
 30
3386.159
 70
    32
  0
VERTEX
  8
T18SSILL
 62
6
 10
2199.070
 20
-4612.318
 30
3386.150
 70
    32
  0
VERTEX
  8
T18SSILL
 62
6
 10
2199.130
 20
-4619.183
 30
3386.153
 70
    32
  0
VERTEX
  8
T18SSILL
 62
6
 10
2183.388
 20
-4619.315
 30
3386.167
 70
    32
  0
VERTEX
  8
T18SSILL
 62
6
 10
2183.405
 20
-4764.164
 30
3385.952
 70
    32
  0
VERTEX
  8
T18SSILL
 62
6
 10
2176.008
 20
-4765.103
 30
3385.942
 70
    32
  0
VERTEX
  8
T18SSILL
 62
6
 10
2175.914
 20
-4744.859
 30
3385.916
 70
    32
  0
VERTEX
  8
T18SSILL
 62
6
 10
2173.911
 20
-4739.747
 30
3385.906
 70
    32
  0
VERTEX
  8
T18SSILL
 62
6
 10
2174.026
 20
-4624.362
 30
3386.069
 70
    32
  0
VERTEX
  8
T18SSILL
 62
6
 10
2140.298
 20
-4624.402
 30
3385.709
 70
    32
  0
VERTEX
  8
T18SSILL
 62
6
 10
2140.308
 20
-4626.426
 30
3385.710
 70
    32
  0
VERTEX
  8
T18SSILL
 62
6
 10
2125.786
 20
-4626.543
 30
3385.698
 70
    32
  0
VERTEX
  8
T18SSILL
 62
6
 10
2125.686
 20
-4607.620
 30
3385.686
 70
    32
  0
VERTEX
  8
T18SSILL
 62
6
 10
2140.210
 20
-4607.239
 30
3385.699
 70
    32
  0
VERTEX
  8
T18SSILL
 62
6
 10
2140.255
 20
-4615.953
 30
3385.702
 70
    32
  0
VERTEX
  8
T18SSILL
 62
6
 10
2174.059
 20
-4616.001
 30
3386.091
 70
    32
  0
VERTEX
  8
T18SSILL
 62
6
 10
2173.852
 20
-4558.616
 30
3386.088
 70
    32
  0
VERTEX
  8
T18SSILL
 62
6
 10
2124.048
 20
-4577.601
 30
3385.661
 70
    32
  0
VERTEX
  8
T18SSILL
 62
6
 10
2124.193
 20
-4606.822
 30
3385.684
 70
    32
  0
VERTEX
  8
T18SSILL
 62
6
 10
2117.326
 20
-4607.498
 30
3385.679
 70
    32
  0
VERTEX
  8
T18SSILL
 62
6
 10
2117.084
 20
-4580.302
 30
3385.661
 70
    32
  0
VERTEX
  8
T18SSILL
 62
6
 10
2114.879
 20
-4581.437
 30
3385.660
 70
    32
  0
VERTEX
  8
T18SSILL
 62
6
 10
2115.000
 20
-4573.340
 30
3385.655
 70
    32
  0
VERTEX
  8
T18SSILL
 62
6
 10
2173.881
 20
-4551.399
 30
3386.075
 70
    32
  0
VERTEX
  8
T18SSILL
 62
6
 10
2173.709
 20
-4506.952
 30
3386.011
 70
    32
  0
VERTEX
  8
T18SSILL
 62
6
 10
2175.129
 20
-4503.965
 30
3386.008
 70
    32
  0
VERTEX
  8
T18SSILL
 62
6
 10
2175.193
 20
-4466.560
 30
3385.957
 70
    32
  0
VERTEX
  8
T18SSILL
 62
6
 10
2084.126
 20
-4291.071
 30
3385.473
 70
    32
  0
VERTEX
  8
T18SSILL
 62
6
 10
1652.918
 20
-3445.185
 30
3384.446
 70
    32
  0
VERTEX
  8
T18SSILL
 62
6
 10
1556.334
 20
-3258.328
 30
3384.241
 70
    32
  0
VERTEX
  8
T18SSILL
 62
6
 10
1532.450
 20
-3096.366
 30
3384.077
 70
    32
  0
VERTEX
  8
T18SSILL
 62
6
 10
1529.200
 20
-3088.688
 30
3384.069
 70
    32
  0
VERTEX
  8
T18SSILL
 62
6
 10
1512.635
 20
-2970.283
 30
3383.949
 70
    32
  0
VERTEX
  8
T18SSILL
 62
6
 10
1511.158
 20
-2968.861
 30
3383.948
 70
    32
  0
VERTEX
  8
T18SSILL
 62
6
 10
1509.653
 20
-2969.898
 30
3383.948
 70
    32
  0
VERTEX
  8
T18SSILL
 62
6
 10
1397.463
 20
-3049.857
 30
3384.001
 70
    32
  0
VERTEX
  8
T18SSILL
 62
6
 10
1393.138
 20
-3044.099
 30
3383.995
 70
    32
  0
VERTEX
  8
T18SSILL
 62
6
 10
1481.513
 20
-2980.730
 30
3383.953
 70
    32
  0
VERTEX
  8
T18SSILL
 62
6
 10
1481.892
 20
-2978.276
 30
3383.950
 70
    32
  0
VERTEX
  8
T18SSILL
 62
6
 10
1479.840
 20
-2973.422
 30
3383.945
 70
    32
  0
VERTEX
  8
T18SSILL
 62
6
 10
1469.875
 20
-2961.539
 30
3383.931
 70
    32
  0
VERTEX
  8
T18SSILL
 62
6
 10
1461.435
 20
-2954.592
 30
3383.922
 70
    32
  0
VERTEX
  8
T18SSILL
 62
6
 10
1449.385
 20
-2963.852
 30
3383.929
 70
    32
  0
VERTEX
  8
T18SSILL
 62
6
 10
1441.981
 20
-2958.498
 30
3383.922
 70
    32
  0
VERTEX
  8
T18SSILL
 62
6
 10
1419.889
 20
-2947.267
 30
3383.906
 70
    32
  0
VERTEX
  8
T18SSILL
 62
6
 10
1407.704
 20
-2937.555
 30
3383.894
 70
    32
  0
VERTEX
  8
T18SSILL
 62
6
 10
1399.297
 20
-2927.710
 30
3383.882
 70
    32
  0
VERTEX
  8
T18SSILL
 62
6
 10
1398.882
 20
-2925.598
 30
3383.880
 70
    32
  0
VERTEX
  8
T18SSILL
 62
6
 10
1424.135
 20
-2906.125
 30
3383.867
 70
    32
  0
VERTEX
  8
T18SSILL
 62
6
 10
1424.518
 20
-2895.678
 30
3383.856
 70
    32
  0
VERTEX
  8
T18SSILL
 62
6
 10
1421.707
 20
-2888.005
 30
3383.848
 70
    32
  0
VERTEX
  8
T18SSILL
 62
6
 10
1373.979
 20
-2922.152
 30
3383.871
 70
    32
  0
VERTEX
  8
T18SSILL
 62
6
 10
1369.821
 20
-2917.098
 30
3383.865
 70
    32
  0
VERTEX
  8
T18SSILL
 62
6
 10
1417.546
 20
-2883.215
 30
3383.843
 70
    32
  0
VERTEX
  8
T18SSILL
 62
6
 10
1416.968
 20
-2880.046
 30
3383.839
 70
    32
  0
VERTEX
  8
T18SSILL
 62
6
 10
1409.093
 20
-2869.768
 30
3383.828
 70
    32
  0
VERTEX
  8
T18SSILL
 62
6
 10
1396.352
 20
-2877.966
 30
3383.833
 70
    32
  0
VERTEX
  8
T18SSILL
 62
6
 10
1394.326
 20
-2878.470
 30
3383.833
 70
    32
  0
VERTEX
  8
T18SSILL
 62
6
 10
1392.155
 20
-2876.338
 30
3383.830
 70
    32
  0
VERTEX
  8
T18SSILL
 62
6
 10
1385.188
 20
-2848.066
 30
3383.801
 70
    32
  0
VERTEX
  8
T18SSILL
 62
6
 10
1376.494
 20
-2824.956
 30
3383.790
 70
    32
  0
VERTEX
  8
T18SSILL
 62
6
 10
1377.051
 20
-2822.327
 30
3383.790
 70
    32
  0
VERTEX
  8
T18SSILL
 62
6
 10
1383.265
 20
-2816.514
 30
3383.790
 70
    32
  0
VERTEX
  8
T18SSILL
 62
6
 10
1381.153
 20
-2801.471
 30
3383.789
 70
    32
  0
VERTEX
  8
T18SSILL
 62
6
 10
1369.835
 20
-2769.724
 30
3383.789
 70
    32
  0
VERTEX
  8
T18SSILL
 62
6
 10
1372.763
 20
-2767.123
 30
3383.788
 70
    32
  0
VERTEX
  8
T18SSILL
 62
6
 10
1376.266
 20
-2767.953
 30
3383.789
 70
    32
  0
VERTEX
  8
T18SSILL
 62
6
 10
1379.872
 20
-2775.196
 30
3383.789
 70
    32
  0
VERTEX
  8
T18SSILL
 62
6
 10
1387.544
 20
-2795.572
 30
3383.789
 70
    32
  0
VERTEX
  8
T18SSILL
 62
6
 10
1389.716
 20
-2805.345
 30
3383.789
 70
    32
  0
VERTEX
  8
T18SSILL
 62
6
 10
1398.246
 20
-2819.759
 30
3383.790
 70
    32
  0
VERTEX
  8
T18SSILL
 62
6
 10
1401.016
 20
-2823.303
 30
3383.790
 70
    32
  0
VERTEX
  8
T18SSILL
 62
6
 10
1407.288
 20
-2827.854
 30
3383.790
 70
    32
  0
VERTEX
  8
T18SSILL
 62
6
 10
1408.316
 20
-2830.149
 30
3383.790
 70
    32
  0
VERTEX
  8
T18SSILL
 62
6
 10
1407.802
 20
-2836.643
 30
3383.795
 70
    32
  0
VERTEX
  8
T18SSILL
 62
6
 10
1404.444
 20
-2846.178
 30
3383.803
 70
    32
  0
VERTEX
  8
T18SSILL
 62
6
 10
1404.668
 20
-2849.605
 30
3383.807
 70
    32
  0
VERTEX
  8
T18SSILL
 62
6
 10
1412.509
 20
-2862.869
 30
3383.822
 70
    32
  0
VERTEX
  8
T18SSILL
 62
6
 10
1419.348
 20
-2871.554
 30
3383.832
 70
    32
  0
VERTEX
  8
T18SSILL
 62
6
 10
1425.269
 20
-2876.013
 30
3383.837
 70
    32
  0
VERTEX
  8
T18SSILL
 62
6
 10
1427.457
 20
-2876.741
 30
3383.839
 70
    32
  0
VERTEX
  8
T18SSILL
 62
6
 10
1492.281
 20
-2829.878
 30
3383.807
 70
    32
  0
VERTEX
  8
T18SSILL
 62
6
 10
1459.696
 20
-2614.593
 30
3383.786
 70
    32
  0
VERTEX
  8
T18SSILL
 62
6
 10
1456.902
 20
-2613.156
 30
3383.786
 70
    32
  0
VERTEX
  8
T18SSILL
 62
6
 10
1263.326
 20
-2752.084
 30
3383.788
 70
    32
  0
VERTEX
  8
T18SSILL
 62
6
 10
1258.114
 20
-2747.019
 30
3383.788
 70
    32
  0
VERTEX
  8
T18SSILL
 62
6
 10
1276.532
 20
-2733.879
 30
3383.787
 70
    32
  0
VERTEX
  8
T18SSILL
 62
6
 10
1178.245
 20
-2596.186
 30
3383.784
 70
    32
  0
VERTEX
  8
T18SSILL
 62
6
 10
1150.002
 20
-2546.768
 30
3383.783
 70
    32
  0
VERTEX
  8
T18SSILL
 62
6
 10
1141.213
 20
-2524.184
 30
3383.782
 70
    32
  0
VERTEX
  8
T18SSILL
 62
6
 10
1134.938
 20
-2485.412
 30
3383.781
 70
    32
  0
VERTEX
  8
T18SSILL
 62
6
 10
1126.619
 20
-2468.989
 30
3383.781
 70
    32
  0
VERTEX
  8
T18SSILL
 62
6
 10
1091.470
 20
-2413.950
 30
3383.780
 70
    32
  0
VERTEX
  8
T18SSILL
 62
6
 10
1061.560
 20
-2379.952
 30
3383.779
 70
    32
  0
VERTEX
  8
T18SSILL
 62
6
 10
1052.758
 20
-2364.694
 30
3383.779
 70
    32
  0
VERTEX
  8
T18SSILL
 62
6
 10
1029.195
 20
-2315.017
 30
3383.777
 70
    32
  0
VERTEX
  8
T18SSILL
 62
6
 10
1018.462
 20
-2302.216
 30
3383.777
 70
    32
  0
VERTEX
  8
T18SSILL
 62
6
 10
989.621
 20
-2272.937
 30
3383.776
 70
    32
  0
VERTEX
  8
T18SSILL
 62
6
 10
974.975
 20
-2254.824
 30
3383.773
 70
    32
  0
VERTEX
  8
T18SSILL
 62
6
 10
975.859
 20
-2252.673
 30
3383.772
 70
    32
  0
VERTEX
  8
T18SSILL
 62
6
 10
972.923
 20
-2245.295
 30
3383.767
 70
    32
  0
VERTEX
  8
T18SSILL
 62
6
 10
969.856
 20
-2223.462
 30
3383.753
 70
    32
  0
VERTEX
  8
T18SSILL
 62
6
 10
965.308
 20
-2215.442
 30
3383.749
 70
    32
  0
VERTEX
  8
T18SSILL
 62
6
 10
942.503
 20
-2188.966
 30
3383.740
 70
    32
  0
VERTEX
  8
T18SSILL
 62
6
 10
947.830
 20
-2183.686
 30
3383.734
 70
    32
  0
VERTEX
  8
T18SSILL
 62
6
 10
974.126
 20
-2213.242
 30
3383.744
 70
    32
  0
VERTEX
  8
T18SSILL
 62
6
 10
984.288
 20
-2254.015
 30
3383.769
 70
    32
  0
VERTEX
  8
T18SSILL
 62
6
 10
991.660
 20
-2264.304
 30
3383.773
 70
    32
  0
VERTEX
  8
T18SSILL
 62
6
 10
1031.253
 20
-2304.620
 30
3383.777
 70
    32
  0
VERTEX
  8
T18SSILL
 62
6
 10
1037.646
 20
-2314.683
 30
3383.777
 70
    32
  0
VERTEX
  8
T18SSILL
 62
6
 10
1066.330
 20
-2375.708
 30
3383.779
 70
    32
  0
VERTEX
  8
T18SSILL
 62
6
 10
1096.497
 20
-2409.519
 30
3383.780
 70
    32
  0
VERTEX
  8
T18SSILL
 62
6
 10
1142.644
 20
-2481.846
 30
3383.781
 70
    32
  0
VERTEX
  8
T18SSILL
 62
6
 10
1143.921
 20
-2502.434
 30
3383.782
 70
    32
  0
VERTEX
  8
T18SSILL
 62
6
 10
1153.435
 20
-2538.376
 30
3383.783
 70
    32
  0
VERTEX
  8
T18SSILL
 62
6
 10
1183.916
 20
-2591.771
 30
3383.784
 70
    32
  0
VERTEX
  8
T18SSILL
 62
6
 10
1279.183
 20
-2724.775
 30
3383.787
 70
    32
  0
VERTEX
  8
T18SSILL
 62
6
 10
1286.980
 20
-2726.533
 30
3383.787
 70
    32
  0
VERTEX
  8
T18SSILL
 62
6
 10
1458.419
 20
-2603.425
 30
3383.785
 70
    32
  0
VERTEX
  8
T18SSILL
 62
6
 10
1442.985
 20
-2501.369
 30
3383.748
 70
    32
  0
VERTEX
  8
T18SSILL
 62
6
 10
1435.599
 20
-2441.003
 30
3383.708
 70
    32
  0
VERTEX
  8
T18SSILL
 62
6
 10
1436.657
 20
-2438.757
 30
3383.705
 70
    32
  0
VERTEX
  8
T18SSILL
 62
6
 10
1442.746
 20
-2436.665
 30
3383.701
 70
    32
  0
VERTEX
  8
T18SSILL
 62
6
 10
1478.682
 20
-2412.457
 30
3383.668
 70
    32
  0
VERTEX
  8
T18SSILL
 62
6
 10
1482.623
 20
-2419.119
 30
3383.671
 70
    32
  0
VERTEX
  8
T18SSILL
 62
6
 10
1447.419
 20
-2443.357
 30
3383.704
 70
    32
  0
VERTEX
  8
T18SSILL
 62
6
 10
1444.564
 20
-2449.201
 30
3383.710
 70
    32
  0
VERTEX
  8
T18SSILL
 62
6
 10
1457.867
 20
-2540.458
 30
3383.770
 70
    32
  0
VERTEX
  8
T18SSILL
 62
6
 10
1591.116
 20
-2445.175
 30
3383.643
 70
    32
  0
VERTEX
  8
T18SSILL
 62
6
 10
1594.839
 20
-2450.142
 30
3383.645
 70
    32
  0
VERTEX
  8
T18SSILL
 62
6
 10
1653.134
 20
-2452.777
 30
3383.621
 70
    32
  0
VERTEX
  8
T18SSILL
 62
6
 10
1659.458
 20
-2452.174
 30
3383.618
 70
    32
  0
VERTEX
  8
T18SSILL
 62
6
 10
1665.700
 20
-2453.956
 30
3383.616
 70
    32
  0
VERTEX
  8
T18SSILL
 62
6
 10
1712.797
 20
-2419.977
 30
3383.571
 70
    32
  0
VERTEX
  8
T18SSILL
 62
6
 10
1715.795
 20
-2425.889
 30
3383.574
 70
    32
  0
VERTEX
  8
T18SSILL
 62
6
 10
1668.056
 20
-2460.034
 30
3383.620
 70
    32
  0
VERTEX
  8
T18SSILL
 62
6
 10
1675.979
 20
-2502.361
 30
3383.647
 70
    32
  0
VERTEX
  8
T18SSILL
 62
6
 10
1691.113
 20
-2561.465
 30
3383.684
 70
    32
  0
VERTEX
  8
T18SSILL
 62
6
 10
1699.605
 20
-2556.117
 30
3383.676
 70
    32
  0
VERTEX
  8
T18SSILL
 62
6
 10
1703.936
 20
-2561.436
 30
3383.678
 70
    32
  0
VERTEX
  8
T18SSILL
 62
6
 10
1694.722
 20
-2568.445
 30
3383.687
 70
    32
  0
VERTEX
  8
T18SSILL
 62
6
 10
1693.375
 20
-2570.977
 30
3383.689
 70
    32
  0
VERTEX
  8
T18SSILL
 62
6
 10
1708.249
 20
-2629.815
 30
3383.726
 70
    32
  0
VERTEX
  8
T18SSILL
 62
6
 10
1715.552
 20
-2625.767
 30
3383.720
 70
    32
  0
VERTEX
  8
T18SSILL
 62
6
 10
1717.632
 20
-2631.064
 30
3383.723
 70
    32
  0
VERTEX
  8
T18SSILL
 62
6
 10
1709.582
 20
-2636.154
 30
3383.730
 70
    32
  0
VERTEX
  8
T18SSILL
 62
6
 10
1717.044
 20
-2667.242
 30
3383.749
 70
    32
  0
VERTEX
  8
T18SSILL
 62
6
 10
1724.123
 20
-2662.580
 30
3383.743
 70
    32
  0
VERTEX
  8
T18SSILL
 62
6
 10
1727.204
 20
-2669.641
 30
3383.746
 70
    32
  0
VERTEX
  8
T18SSILL
 62
6
 10
1720.836
 20
-2673.521
 30
3383.752
 70
    32
  0
VERTEX
  8
T18SSILL
 62
6
 10
1719.737
 20
-2677.461
 30
3383.755
 70
    32
  0
VERTEX
  8
T18SSILL
 62
6
 10
1727.376
 20
-2708.463
 30
3383.775
 70
    32
  0
VERTEX
  8
T18SSILL
 62
6
 10
1774.755
 20
-2758.802
 30
3383.814
 70
    32
  0
VERTEX
  8
T18SSILL
 62
6
 10
1780.375
 20
-2758.866
 30
3383.822
 70
    32
  0
VERTEX
  8
T18SSILL
 62
6
 10
1786.371
 20
-2756.739
 30
3383.828
 70
    32
  0
VERTEX
  8
T18SSILL
 62
6
 10
1840.514
 20
-2714.673
 30
3383.860
 70
    32
  0
VERTEX
  8
T18SSILL
 62
6
 10
1840.182
 20
-2713.000
 30
3383.858
 70
    32
  0
VERTEX
  8
T18SSILL
 62
6
 10
1836.354
 20
-2709.795
 30
3383.841
 70
    32
  0
VERTEX
  8
T18SSILL
 62
6
 10
1833.980
 20
-2710.031
 30
3383.837
 70
    32
  0
VERTEX
  8
T18SSILL
 62
6
 10
1831.806
 20
-2708.162
 30
3383.827
 70
    32
  0
VERTEX
  8
T18SSILL
 62
6
 10
1828.106
 20
-2701.445
 30
3383.800
 70
    32
  0
VERTEX
  8
T18SSILL
 62
6
 10
1833.425
 20
-2697.114
 30
3383.800
 70
    32
  0
VERTEX
  8
T18SSILL
 62
6
 10
1838.542
 20
-2695.065
 30
3383.806
 70
    32
  0
VERTEX
  8
T18SSILL
 62
6
 10
1842.004
 20
-2699.584
 30
3383.826
 70
    32
  0
VERTEX
  8
T18SSILL
 62
6
 10
1844.795
 20
-2708.925
 30
3383.857
 70
    32
  0
VERTEX
  8
T18SSILL
 62
6
 10
1846.094
 20
-2710.609
 30
3383.863
 70
    32
  0
VERTEX
  8
T18SSILL
 62
6
 10
1848.733
 20
-2710.200
 30
3383.866
 70
    32
  0
VERTEX
  8
T18SSILL
 62
6
 10
1916.666
 20
-2660.299
 30
3383.780
 70
    32
  0
VERTEX
  8
T18SSILL
 62
6
 10
1951.895
 20
-2643.126
 30
3383.589
 70
    32
  0
VERTEX
  8
T18SSILL
 62
6
 10
1963.647
 20
-2635.523
 30
3383.529
 70
    32
  0
VERTEX
  8
T18SSILL
 62
6
 10
1978.515
 20
-2619.854
 30
3383.464
 70
    32
  0
VERTEX
  8
T18SSILL
 62
6
 10
1982.541
 20
-2613.532
 30
3383.449
 70
    32
  0
VERTEX
  8
T18SSILL
 62
6
 10
1986.146
 20
-2603.255
 30
3383.445
 70
    32
  0
VERTEX
  8
T18SSILL
 62
6
 10
1986.484
 20
-2597.438
 30
3383.453
 70
    32
  0
VERTEX
  8
T18SSILL
 62
6
 10
1984.467
 20
-2592.895
 30
3383.473
 70
    32
  0
VERTEX
  8
T18SSILL
 62
6
 10
1969.913
 20
-2576.335
 30
3383.593
 70
    32
  0
VERTEX
  8
T18SSILL
 62
6
 10
1941.751
 20
-2517.050
 30
3383.550
 70
    32
  0
VERTEX
  8
T18SSILL
 62
6
 10
1937.189
 20
-2516.673
 30
3383.543
 70
    32
  0
VERTEX
  8
T18SSILL
 62
6
 10
1896.070
 20
-2502.150
 30
3383.551
 70
    32
  0
VERTEX
  8
T18SSILL
 62
6
 10
1897.963
 20
-2495.885
 30
3383.545
 70
    32
  0
VERTEX
  8
T18SSILL
 62
6
 10
1939.378
 20
-2509.889
 30
3383.537
 70
    32
  0
VERTEX
  8
T18SSILL
 62
6
 10
1927.431
 20
-2481.971
 30
3383.522
 70
    32
  0
VERTEX
  8
T18SSILL
 62
6
 10
1891.258
 20
-2405.459
 30
3383.483
 70
    32
  0
VERTEX
  8
T18SSILL
 62
6
 10
1889.664
 20
-2396.353
 30
3383.477
 70
    32
  0
VERTEX
  8
T18SSILL
 62
6
 10
1890.548
 20
-2387.501
 30
3383.470
 70
    32
  0
VERTEX
  8
T18SSILL
 62
6
 10
1888.660
 20
-2382.109
 30
3383.467
 70
    32
  0
VERTEX
  8
T18SSILL
 62
6
 10
1574.637
 20
-1690.933
 30
3383.388
 70
    32
  0
VERTEX
  8
T18SSILL
 62
6
 10
1311.659
 20
-1207.494
 30
3383.377
 70
    32
  0
VERTEX
  8
T18SSILL
 62
6
 10
1082.629
 20
-1075.662
 30
3383.429
 70
    32
  0
VERTEX
  8
T18SSILL
 62
6
 10
1085.589
 20
-1070.637
 30
3383.427
 70
    32
  0
VERTEX
  8
T18SSILL
 62
6
 10
1316.587
 20
-1203.311
 30
3383.374
 70
    32
  0
VERTEX
  8
T18SSILL
 62
6
 10
1580.794
 20
-1688.309
 30
3383.386
 70
    32
  0
VERTEX
  8
T18SSILL
 62
6
 10
1903.361
 20
-2397.134
 30
3383.471
 70
    32
  0
VERTEX
  8
T18SSILL
 62
6
 10
1918.150
 20
-2389.849
 30
3383.459
 70
    32
  0
VERTEX
  8
T18SSILL
 62
6
 10
1915.951
 20
-2385.528
 30
3383.457
 70
    32
  0
VERTEX
  8
T18SSILL
 62
6
 10
1929.285
 20
-2379.358
 30
3383.447
 70
    32
  0
VERTEX
  8
T18SSILL
 62
6
 10
1936.471
 20
-2396.091
 30
3383.456
 70
    32
  0
VERTEX
  8
T18SSILL
 62
6
 10
1923.844
 20
-2402.320
 30
3383.466
 70
    32
  0
VERTEX
  8
T18SSILL
 62
6
 10
1921.519
 20
-2397.034
 30
3383.463
 70
    32
  0
VERTEX
  8
T18SSILL
 62
6
 10
1906.442
 20
-2403.713
 30
3383.475
 70
    32
  0
VERTEX
  8
T18SSILL
 62
6
 10
1972.919
 20
-2552.070
 30
3383.617
 70
    32
  0
VERTEX
  8
T18SSILL
 62
6
 10
1985.601
 20
-2577.292
 30
3383.494
 70
    32
  0
VERTEX
  8
T18SSILL
 62
6
 10
1992.183
 20
-2581.050
 30
3383.446
 70
    32
  0
VERTEX
  8
T18SSILL
 62
6
 10
1995.537
 20
-2586.537
 30
3383.415
 70
    32
  0
VERTEX
  8
T18SSILL
 62
6
 10
2001.745
 20
-2614.074
 30
3383.354
 70
    32
  0
VERTEX
  8
T18SSILL
 62
6
 10
2181.873
 20
-2503.577
 30
3383.433
 70
    32
  0
VERTEX
  8
T18SSILL
 62
6
 10
2193.948
 20
-2499.314
 30
3383.439
 70
    32
  0
VERTEX
  8
T18SSILL
 62
6
 10
2201.595
 20
-2498.563
 30
3383.443
 70
    32
  0
VERTEX
  8
T18SSILL
 62
6
 10
3698.592
 20
-2469.039
 30
3383.963
 70
    32
  0
VERTEX
  8
T18SSILL
 62
6
 10
3706.426
 20
-2468.089
 30
3383.955
 70
    32
  0
VERTEX
  8
T18SSILL
 62
6
 10
3715.926
 20
-2470.047
 30
3383.946
 70
    32
  0
VERTEX
  8
T18SSILL
 62
6
 10
3730.169
 20
-2475.359
 30
3383.931
 70
    32
  0
VERTEX
  8
T18SSILL
 62
6
 10
3832.556
 20
-2531.912
 30
3383.823
 70
    32
  0
VERTEX
  8
T18SSILL
 62
6
 10
3848.645
 20
-2538.548
 30
3383.806
 70
    32
  0
VERTEX
  8
T18SSILL
 62
6
 10
3932.137
 20
-2584.410
 30
3383.759
 70
    32
  0
VERTEX
  8
T18SSILL
 62
6
 10
3969.251
 20
-2555.016
 30
3383.744
 70
    32
  0
VERTEX
  8
T18SSILL
 62
6
 10
3959.421
 20
-2543.994
 30
3383.757
 70
    32
  0
SEQEND
  8
T18SSILL
  0
POLYLINE
  8
T18SSILL
 62
6
 66
     1
 70
     9
  0
VERTEX
  8
T18SSILL
 62
6
 10
1738.316
 20
-3065.605
 30
3384.093
 70
    32
  0
VERTEX
  8
T18SSILL
 62
6
 10
1732.177
 20
-3057.192
 30
3384.084
 70
    32
  0
VERTEX
  8
T18SSILL
 62
6
 10
1709.680
 20
-3073.710
 30
3384.095
 70
    32
  0
VERTEX
  8
T18SSILL
 62
6
 10
1707.339
 20
-3071.048
 30
3384.092
 70
    32
  0
VERTEX
  8
T18SSILL
 62
6
 10
1707.046
 20
-3065.951
 30
3384.087
 70
    32
  0
VERTEX
  8
T18SSILL
 62
6
 10
1732.037
 20
-3046.387
 30
3384.073
 70
    32
  0
VERTEX
  8
T18SSILL
 62
6
 10
1736.130
 20
-3041.691
 30
3384.069
 70
    32
  0
VERTEX
  8
T18SSILL
 62
6
 10
1738.301
 20
-3036.183
 30
3384.064
 70
    32
  0
VERTEX
  8
T18SSILL
 62
6
 10
1741.812
 20
-3021.029
 30
3384.050
 70
    32
  0
VERTEX
  8
T18SSILL
 62
6
 10
1743.604
 20
-2971.691
 30
3384.002
 70
    32
  0
VERTEX
  8
T18SSILL
 62
6
 10
1741.880
 20
-2968.860
 30
3383.999
 70
    32
  0
VERTEX
  8
T18SSILL
 62
6
 10
1735.511
 20
-2972.828
 30
3384.002
 70
    32
  0
VERTEX
  8
T18SSILL
 62
6
 10
1725.662
 20
-2958.575
 30
3383.986
 70
    32
  0
VERTEX
  8
T18SSILL
 62
6
 10
1739.743
 20
-2948.372
 30
3383.979
 70
    32
  0
VERTEX
  8
T18SSILL
 62
6
 10
1735.858
 20
-2942.443
 30
3383.972
 70
    32
  0
VERTEX
  8
T18SSILL
 62
6
 10
1721.594
 20
-2953.347
 30
3383.979
 70
    32
  0
VERTEX
  8
T18SSILL
 62
6
 10
1711.310
 20
-2938.650
 30
3383.963
 70
    32
  0
VERTEX
  8
T18SSILL
 62
6
 10
1732.924
 20
-2922.561
 30
3383.952
 70
    32
  0
VERTEX
  8
T18SSILL
 62
6
 10
1731.910
 20
-2919.036
 30
3383.948
 70
    32
  0
VERTEX
  8
T18SSILL
 62
6
 10
1707.603
 20
-2878.710
 30
3383.903
 70
    32
  0
VERTEX
  8
T18SSILL
 62
6
 10
1700.725
 20
-2873.449
 30
3383.897
 70
    32
  0
VERTEX
  8
T18SSILL
 62
6
 10
1697.720
 20
-2875.084
 30
3383.897
 70
    32
  0
VERTEX
  8
T18SSILL
 62
6
 10
1687.188
 20
-2859.067
 30
3383.879
 70
    32
  0
VERTEX
  8
T18SSILL
 62
6
 10
1706.467
 20
-2847.430
 30
3383.872
 70
    32
  0
VERTEX
  8
T18SSILL
 62
6
 10
1708.304
 20
-2848.066
 30
3383.873
 70
    32
  0
VERTEX
  8
T18SSILL
 62
6
 10
1708.286
 20
-2849.647
 30
3383.875
 70
    32
  0
VERTEX
  8
T18SSILL
 62
6
 10
1714.614
 20
-2849.280
 30
3383.876
 70
    32
  0
VERTEX
  8
T18SSILL
 62
6
 10
1715.677
 20
-2840.773
 30
3383.868
 70
    32
  0
VERTEX
  8
T18SSILL
 62
6
 10
1784.410
 20
-2797.732
 30
3383.865
 70
    32
  0
VERTEX
  8
T18SSILL
 62
6
 10
1780.897
 20
-2790.051
 30
3383.853
 70
    32
  0
VERTEX
  8
T18SSILL
 62
6
 10
1799.573
 20
-2777.441
 30
3383.866
 70
    32
  0
VERTEX
  8
T18SSILL
 62
6
 10
1805.624
 20
-2778.213
 30
3383.875
 70
    32
  0
VERTEX
  8
T18SSILL
 62
6
 10
1812.958
 20
-2781.985
 30
3383.888
 70
    32
  0
VERTEX
  8
T18SSILL
 62
6
 10
1815.695
 20
-2780.787
 30
3383.891
 70
    32
  0
VERTEX
  8
T18SSILL
 62
6
 10
1828.595
 20
-2781.637
 30
3383.909
 70
    32
  0
VERTEX
  8
T18SSILL
 62
6
 10
1856.835
 20
-2792.938
 30
3383.958
 70
    32
  0
VERTEX
  8
T18SSILL
 62
6
 10
1864.158
 20
-2797.676
 30
3383.972
 70
    32
  0
VERTEX
  8
T18SSILL
 62
6
 10
1938.894
 20
-2921.136
 30
3384.119
 70
    32
  0
VERTEX
  8
T18SSILL
 62
6
 10
1855.118
 20
-2981.746
 30
3384.139
 70
    32
  0
VERTEX
  8
T18SSILL
 62
6
 10
1849.561
 20
-2968.421
 30
3384.118
 70
    32
  0
VERTEX
  8
T18SSILL
 62
6
 10
1849.125
 20
-2960.512
 30
3384.110
 70
    32
  0
VERTEX
  8
T18SSILL
 62
6
 10
1844.894
 20
-2946.411
 30
3384.091
 70
    32
  0
VERTEX
  8
T18SSILL
 62
6
 10
1840.352
 20
-2936.523
 30
3384.075
 70
    32
  0
VERTEX
  8
T18SSILL
 62
6
 10
1829.310
 20
-2919.007
 30
3384.043
 70
    32
  0
VERTEX
  8
T18SSILL
 62
6
 10
1823.760
 20
-2912.795
 30
3384.030
 70
    32
  0
VERTEX
  8
T18SSILL
 62
6
 10
1823.673
 20
-2905.066
 30
3384.022
 70
    32
  0
VERTEX
  8
T18SSILL
 62
6
 10
1824.867
 20
-2900.512
 30
3384.019
 70
    32
  0
VERTEX
  8
T18SSILL
 62
6
 10
1808.362
 20
-2884.515
 30
3383.982
 70
    32
  0
VERTEX
  8
T18SSILL
 62
6
 10
1797.065
 20
-2879.536
 30
3383.962
 70
    32
  0
VERTEX
  8
T18SSILL
 62
6
 10
1792.075
 20
-2885.537
 30
3383.955
 70
    32
  0
VERTEX
  8
T18SSILL
 62
6
 10
1790.243
 20
-2891.838
 30
3383.935
 70
    32
  0
VERTEX
  8
T18SSILL
 62
6
 10
1792.239
 20
-2893.882
 30
3383.945
 70
    32
  0
VERTEX
  8
T18SSILL
 62
6
 10
1795.656
 20
-2894.538
 30
3383.974
 70
    32
  0
VERTEX
  8
T18SSILL
 62
6
 10
1802.476
 20
-2892.352
 30
3383.981
 70
    32
  0
VERTEX
  8
T18SSILL
 62
6
 10
1808.907
 20
-2898.310
 30
3383.996
 70
    32
  0
VERTEX
  8
T18SSILL
 62
6
 10
1813.111
 20
-2907.053
 30
3384.010
 70
    32
  0
VERTEX
  8
T18SSILL
 62
6
 10
1814.647
 20
-2918.664
 30
3384.023
 70
    32
  0
VERTEX
  8
T18SSILL
 62
6
 10
1816.352
 20
-2923.162
 30
3384.030
 70
    32
  0
VERTEX
  8
T18SSILL
 62
6
 10
1827.007
 20
-2943.835
 30
3384.064
 70
    32
  0
VERTEX
  8
T18SSILL
 62
6
 10
1826.880
 20
-2954.988
 30
3384.075
 70
    32
  0
VERTEX
  8
T18SSILL
 62
6
 10
1832.686
 20
-2961.817
 30
3384.089
 70
    32
  0
VERTEX
  8
T18SSILL
 62
6
 10
1842.955
 20
-2970.102
 30
3384.111
 70
    32
  0
VERTEX
  8
T18SSILL
 62
6
 10
1848.443
 20
-2981.758
 30
3384.130
 70
    32
  0
VERTEX
  8
T18SSILL
 62
6
 10
1842.429
 20
-2985.378
 30
3384.125
 70
    32
  0
VERTEX
  8
T18SSILL
 62
6
 10
1841.297
 20
-2984.575
 30
3384.123
 70
    32
  0
VERTEX
  8
T18SSILL
 62
6
 10
1836.334
 20
-2988.470
 30
3384.120
 70
    32
  0
VERTEX
  8
T18SSILL
 62
6
 10
1781.597
 20
-2913.368
 30
3383.954
 70
    32
  0
VERTEX
  8
T18SSILL
 62
6
 10
1776.374
 20
-2916.997
 30
3383.956
 70
    32
  0
VERTEX
  8
T18SSILL
 62
6
 10
1783.100
 20
-2927.877
 30
3383.968
 70
    32
  0
VERTEX
  8
T18SSILL
 62
6
 10
1831.538
 20
-2993.158
 30
3384.118
 70
    32
  0
VERTEX
  8
T18SSILL
 62
6
 10
1828.081
 20
-2995.929
 30
3384.116
 70
    32
  0
VERTEX
  8
T18SSILL
 62
6
 10
1830.504
 20
-2999.119
 30
3384.123
 70
    32
  0
VERTEX
  8
T18SSILL
 62
6
 10
1804.088
 20
-3018.405
 30
3384.062
 70
    32
  0
VERTEX
  8
T18SSILL
 62
6
 10
1794.081
 20
-3004.587
 30
3384.046
 70
    32
  0
VERTEX
  8
T18SSILL
 62
6
 10
1786.275
 20
-3010.723
 30
3384.050
 70
    32
  0
VERTEX
  8
T18SSILL
 62
6
 10
1792.507
 20
-3003.954
 30
3384.045
 70
    32
  0
VERTEX
  8
T18SSILL
 62
6
 10
1797.641
 20
-3000.500
 30
3384.043
 70
    32
  0
VERTEX
  8
T18SSILL
 62
6
 10
1798.543
 20
-2998.402
 30
3384.041
 70
    32
  0
VERTEX
  8
T18SSILL
 62
6
 10
1797.893
 20
-2993.740
 30
3384.036
 70
    32
  0
VERTEX
  8
T18SSILL
 62
6
 10
1794.663
 20
-2984.394
 30
3384.026
 70
    32
  0
VERTEX
  8
T18SSILL
 62
6
 10
1785.181
 20
-2968.652
 30
3384.009
 70
    32
  0
VERTEX
  8
T18SSILL
 62
6
 10
1780.661
 20
-2964.561
 30
3384.004
 70
    32
  0
VERTEX
  8
T18SSILL
 62
6
 10
1775.672
 20
-2963.098
 30
3384.001
 70
    32
  0
VERTEX
  8
T18SSILL
 62
6
 10
1773.470
 20
-2963.600
 30
3384.001
 70
    32
  0
VERTEX
  8
T18SSILL
 62
6
 10
1770.529
 20
-2967.343
 30
3384.004
 70
    32
  0
VERTEX
  8
T18SSILL
 62
6
 10
1769.882
 20
-2970.146
 30
3384.007
 70
    32
  0
VERTEX
  8
T18SSILL
 62
6
 10
1775.825
 20
-2988.131
 30
3384.026
 70
    32
  0
VERTEX
  8
T18SSILL
 62
6
 10
1776.999
 20
-3000.703
 30
3384.038
 70
    32
  0
VERTEX
  8
T18SSILL
 62
6
 10
1771.923
 20
-3006.793
 30
3384.043
 70
    32
  0
VERTEX
  8
T18SSILL
 62
6
 10
1771.452
 20
-3009.599
 30
3384.046
 70
    32
  0
VERTEX
  8
T18SSILL
 62
6
 10
1778.133
 20
-3017.122
 30
3384.055
 70
    32
  0
VERTEX
  8
T18SSILL
 62
6
 10
1775.027
 20
-3019.564
 30
3384.056
 70
    32
  0
VERTEX
  8
T18SSILL
 62
6
 10
1781.681
 20
-3029.037
 30
3384.067
 70
    32
  0
VERTEX
  8
T18SSILL
 62
6
 10
1767.877
 20
-3038.102
 30
3384.073
 70
    32
  0
VERTEX
  8
T18SSILL
 62
6
 10
1770.458
 20
-3042.786
 30
3384.078
 70
    32
  0
SEQEND
  8
T18SSILL
  0
POLYLINE
  8
T18SSILL
 62
6
 66
     1
 70
     9
  0
VERTEX
  8
T18SSILL
 62
6
 10
1626.480
 20
-2845.375
 30
3383.852
 70
    32
  0
VERTEX
  8
T18SSILL
 62
6
 10
1627.734
 20
-2850.923
 30
3383.858
 70
    32
  0
VERTEX
  8
T18SSILL
 62
6
 10
1633.604
 20
-2859.860
 30
3383.868
 70
    32
  0
VERTEX
  8
T18SSILL
 62
6
 10
1638.590
 20
-2861.674
 30
3383.871
 70
    32
  0
VERTEX
  8
T18SSILL
 62
6
 10
1653.191
 20
-2852.092
 30
3383.865
 70
    32
  0
VERTEX
  8
T18SSILL
 62
6
 10
1660.137
 20
-2843.652
 30
3383.858
 70
    32
  0
VERTEX
  8
T18SSILL
 62
6
 10
1659.072
 20
-2836.965
 30
3383.851
 70
    32
  0
VERTEX
  8
T18SSILL
 62
6
 10
1656.318
 20
-2832.015
 30
3383.846
 70
    32
  0
VERTEX
  8
T18SSILL
 62
6
 10
1661.271
 20
-2828.997
 30
3383.844
 70
    32
  0
VERTEX
  8
T18SSILL
 62
6
 10
1663.770
 20
-2833.154
 30
3383.849
 70
    32
  0
VERTEX
  8
T18SSILL
 62
6
 10
1668.983
 20
-2830.491
 30
3383.847
 70
    32
  0
VERTEX
  8
T18SSILL
 62
6
 10
1670.358
 20
-2833.141
 30
3383.850
 70
    32
  0
VERTEX
  8
T18SSILL
 62
6
 10
1675.212
 20
-2831.089
 30
3383.849
 70
    32
  0
VERTEX
  8
T18SSILL
 62
6
 10
1677.195
 20
-2834.273
 30
3383.853
 70
    32
  0
VERTEX
  8
T18SSILL
 62
6
 10
1691.540
 20
-2824.073
 30
3383.846
 70
    32
  0
VERTEX
  8
T18SSILL
 62
6
 10
1689.210
 20
-2812.717
 30
3383.834
 70
    32
  0
VERTEX
  8
T18SSILL
 62
6
 10
1672.804
 20
-2803.484
 30
3383.822
 70
    32
  0
VERTEX
  8
T18SSILL
 62
6
 10
1629.413
 20
-2834.606
 30
3383.842
 70
    32
  0
VERTEX
  8
T18SSILL
 62
6
 10
1626.066
 20
-2843.175
 30
3383.850
 70
    32
  0
SEQEND
  8
T18SSILL
  0
POLYLINE
  8
T18SSILL
 62
6
 66
     1
 70
     9
  0
VERTEX
  8
T18SSILL
 62
6
 10
1431.499
 20
-2899.622
 30
3383.862
 70
    32
  0
VERTEX
  8
T18SSILL
 62
6
 10
1439.589
 20
-2929.575
 30
3383.893
 70
    32
  0
VERTEX
  8
T18SSILL
 62
6
 10
1455.014
 20
-2940.115
 30
3383.907
 70
    32
  0
VERTEX
  8
T18SSILL
 62
6
 10
1487.879
 20
-2969.298
 30
3383.943
 70
    32
  0
VERTEX
  8
T18SSILL
 62
6
 10
1493.645
 20
-2971.998
 30
3383.947
 70
    32
  0
VERTEX
  8
T18SSILL
 62
6
 10
1506.577
 20
-2962.397
 30
3383.940
 70
    32
  0
VERTEX
  8
T18SSILL
 62
6
 10
1510.150
 20
-2949.440
 30
3383.928
 70
    32
  0
VERTEX
  8
T18SSILL
 62
6
 10
1492.971
 20
-2838.669
 30
3383.816
 70
    32
  0
VERTEX
  8
T18SSILL
 62
6
 10
1490.771
 20
-2839.083
 30
3383.816
 70
    32
  0
VERTEX
  8
T18SSILL
 62
6
 10
1432.067
 20
-2880.658
 30
3383.843
 70
    32
  0
VERTEX
  8
T18SSILL
 62
6
 10
1430.890
 20
-2891.447
 30
3383.854
 70
    32
  0
SEQEND
  8
T18SSILL
  0
POLYLINE
  8
T18SSILL
 62
6
 66
     1
 70
     9
  0
VERTEX
  8
T18SSILL
 62
6
 10
1554.681
 20
-2926.147
 30
3383.915
 70
    32
  0
VERTEX
  8
T18SSILL
 62
6
 10
1564.144
 20
-2866.620
 30
3383.859
 70
    32
  0
VERTEX
  8
T18SSILL
 62
6
 10
1555.349
 20
-2821.552
 30
3383.813
 70
    32
  0
VERTEX
  8
T18SSILL
 62
6
 10
1534.584
 20
-2817.100
 30
3383.804
 70
    32
  0
VERTEX
  8
T18SSILL
 62
6
 10
1521.848
 20
-2817.218
 30
3383.801
 70
    32
  0
VERTEX
  8
T18SSILL
 62
6
 10
1502.111
 20
-2830.518
 30
3383.810
 70
    32
  0
VERTEX
  8
T18SSILL
 62
6
 10
1500.539
 20
-2837.438
 30
3383.816
 70
    32
  0
VERTEX
  8
T18SSILL
 62
6
 10
1515.617
 20
-2939.841
 30
3383.920
 70
    32
  0
VERTEX
  8
T18SSILL
 62
6
 10
1523.373
 20
-2945.199
 30
3383.927
 70
    32
  0
VERTEX
  8
T18SSILL
 62
6
 10
1529.065
 20
-2946.669
 30
3383.930
 70
    32
  0
SEQEND
  8
T18SSILL
  0
POLYLINE
  8
T18SSILL
 62
6
 66
     1
 70
     9
  0
VERTEX
  8
T18SSILL
 62
6
 10
1584.408
 20
-3099.506
 30
3384.092
 70
    32
  0
VERTEX
  8
T18SSILL
 62
6
 10
1570.811
 20
-3082.663
 30
3384.072
 70
    32
  0
VERTEX
  8
T18SSILL
 62
6
 10
1567.746
 20
-3074.197
 30
3384.063
 70
    32
  0
VERTEX
  8
T18SSILL
 62
6
 10
1568.758
 20
-3070.168
 30
3384.060
 70
    32
  0
VERTEX
  8
T18SSILL
 62
6
 10
1648.358
 20
-3013.814
 30
3384.022
 70
    32
  0
VERTEX
  8
T18SSILL
 62
6
 10
1658.381
 20
-3028.244
 30
3384.039
 70
    32
  0
VERTEX
  8
T18SSILL
 62
6
 10
1662.899
 20
-3032.512
 30
3384.044
 70
    32
  0
VERTEX
  8
T18SSILL
 62
6
 10
1696.498
 20
-3059.068
 30
3384.077
 70
    32
  0
VERTEX
  8
T18SSILL
 62
6
 10
1704.373
 20
-3084.715
 30
3384.104
 70
    32
  0
VERTEX
  8
T18SSILL
 62
6
 10
1703.043
 20
-3085.754
 30
3384.105
 70
    32
  0
VERTEX
  8
T18SSILL
 62
6
 10
1705.202
 20
-3089.028
 30
3384.109
 70
    32
  0
VERTEX
  8
T18SSILL
 62
6
 10
1595.315
 20
-3167.257
 30
3384.161
 70
    32
  0
VERTEX
  8
T18SSILL
 62
6
 10
1591.122
 20
-3165.277
 30
3384.158
 70
    32
  0
VERTEX
  8
T18SSILL
 62
6
 10
1586.744
 20
-3125.617
 30
3384.118
 70
    32
  0
VERTEX
  8
T18SSILL
 62
6
 10
1589.228
 20
-3115.809
 30
3384.109
 70
    32
  0
VERTEX
  8
T18SSILL
 62
6
 10
1583.327
 20
-3101.865
 30
3384.094
 70
    32
  0
SEQEND
  8
T18SSILL
  0
POLYLINE
  8
T18SSILL
 62
6
 66
     1
 70
     9
  0
VERTEX
  8
T18SSILL
 62
6
 10
1612.347
 20
-2967.821
 30
3383.969
 70
    32
  0
VERTEX
  8
T18SSILL
 62
6
 10
1596.154
 20
-2978.351
 30
3383.976
 70
    32
  0
VERTEX
  8
T18SSILL
 62
6
 10
1566.117
 20
-2930.849
 30
3383.923
 70
    32
  0
VERTEX
  8
T18SSILL
 62
6
 10
1555.257
 20
-2937.220
 30
3383.926
 70
    32
  0
VERTEX
  8
T18SSILL
 62
6
 10
1527.630
 20
-2956.929
 30
3383.940
 70
    32
  0
VERTEX
  8
T18SSILL
 62
6
 10
1523.533
 20
-2961.976
 30
3383.944
 70
    32
  0
VERTEX
  8
T18SSILL
 62
6
 10
1521.090
 20
-2968.184
 30
3383.949
 70
    32
  0
VERTEX
  8
T18SSILL
 62
6
 10
1520.867
 20
-2972.397
 30
3383.953
 70
    32
  0
VERTEX
  8
T18SSILL
 62
6
 10
1537.213
 20
-3079.206
 30
3384.062
 70
    32
  0
VERTEX
  8
T18SSILL
 62
6
 10
1538.413
 20
-3081.767
 30
3384.064
 70
    32
  0
VERTEX
  8
T18SSILL
 62
6
 10
1540.425
 20
-3082.492
 30
3384.065
 70
    32
  0
VERTEX
  8
T18SSILL
 62
6
 10
1544.041
 20
-3081.128
 30
3384.065
 70
    32
  0
VERTEX
  8
T18SSILL
 62
6
 10
1613.029
 20
-3031.152
 30
3384.031
 70
    32
  0
VERTEX
  8
T18SSILL
 62
6
 10
1605.683
 20
-3020.704
 30
3384.020
 70
    32
  0
VERTEX
  8
T18SSILL
 62
6
 10
1609.934
 20
-3017.591
 30
3384.017
 70
    32
  0
VERTEX
  8
T18SSILL
 62
6
 10
1617.896
 20
-3027.958
 30
3384.029
 70
    32
  0
VERTEX
  8
T18SSILL
 62
6
 10
1644.381
 20
-3008.323
 30
3384.016
 70
    32
  0
VERTEX
  8
T18SSILL
 62
6
 10
1634.174
 20
-2994.594
 30
3384.000
 70
    32
  0
VERTEX
  8
T18SSILL
 62
6
 10
1644.982
 20
-2986.461
 30
3383.995
 70
    32
  0
SEQEND
  8
T18SSILL
  0
POLYLINE
  8
T18SSILL
 62
6
 66
     1
 70
     9
  0
VERTEX
  8
T18SSILL
 62
6
 10
1576.816
 20
-3118.214
 30
3384.109
 70
    32
  0
VERTEX
  8
T18SSILL
 62
6
 10
1560.690
 20
-3099.850
 30
3384.087
 70
    32
  0
VERTEX
  8
T18SSILL
 62
6
 10
1561.157
 20
-3097.396
 30
3384.085
 70
    32
  0
VERTEX
  8
T18SSILL
 62
6
 10
1566.748
 20
-3092.366
 30
3384.081
 70
    32
  0
VERTEX
  8
T18SSILL
 62
6
 10
1564.802
 20
-3085.844
 30
3384.074
 70
    32
  0
VERTEX
  8
T18SSILL
 62
6
 10
1559.951
 20
-3079.992
 30
3384.067
 70
    32
  0
VERTEX
  8
T18SSILL
 62
6
 10
1556.886
 20
-3079.167
 30
3384.066
 70
    32
  0
VERTEX
  8
T18SSILL
 62
6
 10
1540.248
 20
-3090.307
 30
3384.073
 70
    32
  0
VERTEX
  8
T18SSILL
 62
6
 10
1539.427
 20
-3092.932
 30
3384.075
 70
    32
  0
VERTEX
  8
T18SSILL
 62
6
 10
1557.734
 20
-3212.586
 30
3384.197
 70
    32
  0
VERTEX
  8
T18SSILL
 62
6
 10
1585.284
 20
-3176.628
 30
3384.168
 70
    32
  0
VERTEX
  8
T18SSILL
 62
6
 10
1578.438
 20
-3122.361
 30
3384.113
 70
    32
  0
SEQEND
  8
T18SSILL
  0
POLYLINE
  8
T18SSILL
 62
6
 66
     1
 70
     9
  0
VERTEX
  8
T18SSILL
 62
6
 10
1634.520
 20
-2956.568
 30
3383.963
 70
    32
  0
VERTEX
  8
T18SSILL
 62
6
 10
1620.481
 20
-2939.984
 30
3383.944
 70
    32
  0
VERTEX
  8
T18SSILL
 62
6
 10
1614.716
 20
-2930.549
 30
3383.933
 70
    32
  0
VERTEX
  8
T18SSILL
 62
6
 10
1618.153
 20
-2928.540
 30
3383.932
 70
    32
  0
VERTEX
  8
T18SSILL
 62
6
 10
1606.623
 20
-2911.672
 30
3383.913
 70
    32
  0
VERTEX
  8
T18SSILL
 62
6
 10
1608.902
 20
-2907.971
 30
3383.910
 70
    32
  0
VERTEX
  8
T18SSILL
 62
6
 10
1639.407
 20
-2890.051
 30
3383.899
 70
    32
  0
VERTEX
  8
T18SSILL
 62
6
 10
1648.662
 20
-2910.269
 30
3383.921
 70
    32
  0
VERTEX
  8
T18SSILL
 62
6
 10
1637.664
 20
-2919.717
 30
3383.928
 70
    32
  0
VERTEX
  8
T18SSILL
 62
6
 10
1635.384
 20
-2942.438
 30
3383.949
 70
    32
  0
VERTEX
  8
T18SSILL
 62
6
 10
1636.922
 20
-2953.873
 30
3383.961
 70
    32
  0
SEQEND
  8
T18SSILL
  0
POLYLINE
  8
T18SSILL
 62
6
 66
     1
 70
     9
  0
VERTEX
  8
T18SSILL
 62
6
 10
1565.333
 20
-2908.615
 30
3383.901
 70
    32
  0
VERTEX
  8
T18SSILL
 62
6
 10
1566.352
 20
-2896.648
 30
3383.889
 70
    32
  0
VERTEX
  8
T18SSILL
 62
6
 10
1571.066
 20
-2903.273
 30
3383.897
 70
    32
  0
VERTEX
  8
T18SSILL
 62
6
 10
1566.099
 20
-2906.653
 30
3383.899
 70
    32
  0
VERTEX
  8
T18SSILL
 62
6
 10
1568.888
 20
-2911.220
 30
3383.904
 70
    32
  0
VERTEX
  8
T18SSILL
 62
6
 10
1566.851
 20
-2912.539
 30
3383.905
 70
    32
  0
SEQEND
  8
T18SSILL
  0
POLYLINE
  8
T18SSILL
 62
6
 66
     1
 70
     9
  0
VERTEX
  8
T18SSILL
 62
6
 10
1567.474
 20
-2890.935
 30
3383.884
 70
    32
  0
VERTEX
  8
T18SSILL
 62
6
 10
1569.372
 20
-2877.922
 30
3383.871
 70
    32
  0
VERTEX
  8
T18SSILL
 62
6
 10
1616.383
 20
-2845.084
 30
3383.850
 70
    32
  0
VERTEX
  8
T18SSILL
 62
6
 10
1621.963
 20
-2848.661
 30
3383.855
 70
    32
  0
VERTEX
  8
T18SSILL
 62
6
 10
1625.868
 20
-2860.475
 30
3383.867
 70
    32
  0
VERTEX
  8
T18SSILL
 62
6
 10
1626.367
 20
-2870.668
 30
3383.877
 70
    32
  0
VERTEX
  8
T18SSILL
 62
6
 10
1625.285
 20
-2873.115
 30
3383.879
 70
    32
  0
VERTEX
  8
T18SSILL
 62
6
 10
1620.083
 20
-2877.332
 30
3383.882
 70
    32
  0
VERTEX
  8
T18SSILL
 62
6
 10
1606.844
 20
-2856.196
 30
3383.859
 70
    32
  0
VERTEX
  8
T18SSILL
 62
6
 10
1570.355
 20
-2881.922
 30
3383.876
 70
    32
  0
VERTEX
  8
T18SSILL
 62
6
 10
1573.816
 20
-2886.267
 30
3383.881
 70
    32
  0
SEQEND
  8
T18SSILL
  0
POLYLINE
  8
T18SSILL
 62
6
 66
     1
 70
     9
  0
VERTEX
  8
T18SSILL
 62
6
 10
1674.102
 20
-2874.463
 30
3383.892
 70
    32
  0
VERTEX
  8
T18SSILL
 62
6
 10
1672.026
 20
-2871.629
 30
3383.888
 70
    32
  0
VERTEX
  8
T18SSILL
 62
6
 10
1667.489
 20
-2869.030
 30
3383.885
 70
    32
  0
VERTEX
  8
T18SSILL
 62
6
 10
1656.585
 20
-2877.864
 30
3383.891
 70
    32
  0
VERTEX
  8
T18SSILL
 62
6
 10
1664.428
 20
-2898.680
 30
3383.913
 70
    32
  0
VERTEX
  8
T18SSILL
 62
6
 10
1680.982
 20
-2887.188
 30
3383.906
 70
    32
  0
VERTEX
  8
T18SSILL
 62
6
 10
1676.153
 20
-2879.405
 30
3383.897
 70
    32
  0
SEQEND
  8
T18SSILL
  0
POLYLINE
  8
T18SSILL
 62
6
 66
     1
 70
     9
  0
VERTEX
  8
T18SSILL
 62
6
 10
1482.473
 20
-2711.990
 30
3383.788
 70
    32
  0
VERTEX
  8
T18SSILL
 62
6
 10
1560.929
 20
-2655.886
 30
3383.787
 70
    32
  0
VERTEX
  8
T18SSILL
 62
6
 10
1561.419
 20
-2651.413
 30
3383.787
 70
    32
  0
VERTEX
  8
T18SSILL
 62
6
 10
1540.590
 20
-2583.372
 30
3383.765
 70
    32
  0
VERTEX
  8
T18SSILL
 62
6
 10
1513.038
 20
-2581.126
 30
3383.776
 70
    32
  0
VERTEX
  8
T18SSILL
 62
6
 10
1498.798
 20
-2582.192
 30
3383.783
 70
    32
  0
VERTEX
  8
T18SSILL
 62
6
 10
1469.479
 20
-2603.902
 30
3383.786
 70
    32
  0
VERTEX
  8
T18SSILL
 62
6
 10
1467.328
 20
-2607.742
 30
3383.786
 70
    32
  0
VERTEX
  8
T18SSILL
 62
6
 10
1466.844
 20
-2611.689
 30
3383.786
 70
    32
  0
VERTEX
  8
T18SSILL
 62
6
 10
1477.055
 20
-2678.818
 30
3383.787
 70
    32
  0
SEQEND
  8
T18SSILL
  0
POLYLINE
  8
T18SSILL
 62
6
 66
     1
 70
     9
  0
VERTEX
  8
T18SSILL
 62
6
 10
1530.089
 20
-2498.371
 30
3383.708
 70
    32
  0
VERTEX
  8
T18SSILL
 62
6
 10
1523.082
 20
-2501.405
 30
3383.713
 70
    32
  0
VERTEX
  8
T18SSILL
 62
6
 10
1458.175
 20
-2547.827
 30
3383.775
 70
    32
  0
VERTEX
  8
T18SSILL
 62
6
 10
1464.399
 20
-2595.062
 30
3383.785
 70
    32
  0
VERTEX
  8
T18SSILL
 62
6
 10
1468.870
 20
-2595.727
 30
3383.785
 70
    32
  0
VERTEX
  8
T18SSILL
 62
6
 10
1537.859
 20
-2538.022
 30
3383.733
 70
    32
  0
VERTEX
  8
T18SSILL
 62
6
 10
1541.130
 20
-2543.768
 30
3383.736
 70
    32
  0
VERTEX
  8
T18SSILL
 62
6
 10
1656.499
 20
-2462.078
 30
3383.626
 70
    32
  0
VERTEX
  8
T18SSILL
 62
6
 10
1651.042
 20
-2460.089
 30
3383.627
 70
    32
  0
VERTEX
  8
T18SSILL
 62
6
 10
1586.276
 20
-2456.564
 30
3383.653
 70
    32
  0
VERTEX
  8
T18SSILL
 62
6
 10
1535.894
 20
-2493.557
 30
3383.702
 70
    32
  0
SEQEND
  8
T18SSILL
  0
POLYLINE
  8
T18SSILL
 62
6
 66
     1
 70
     9
  0
VERTEX
  8
T18SSILL
 62
6
 10
1554.586
 20
-2757.605
 30
3383.789
 70
    32
  0
VERTEX
  8
T18SSILL
 62
6
 10
1554.444
 20
-2746.889
 30
3383.789
 70
    32
  0
VERTEX
  8
T18SSILL
 62
6
 10
1552.239
 20
-2740.013
 30
3383.789
 70
    32
  0
VERTEX
  8
T18SSILL
 62
6
 10
1554.136
 20
-2704.641
 30
3383.788
 70
    32
  0
VERTEX
  8
T18SSILL
 62
6
 10
1552.914
 20
-2696.283
 30
3383.788
 70
    32
  0
VERTEX
  8
T18SSILL
 62
6
 10
1523.646
 20
-2690.504
 30
3383.788
 70
    32
  0
VERTEX
  8
T18SSILL
 62
6
 10
1491.675
 20
-2713.764
 30
3383.788
 70
    32
  0
VERTEX
  8
T18SSILL
 62
6
 10
1486.173
 20
-2718.707
 30
3383.788
 70
    32
  0
VERTEX
  8
T18SSILL
 62
6
 10
1483.716
 20
-2726.232
 30
3383.788
 70
    32
  0
VERTEX
  8
T18SSILL
 62
6
 10
1498.569
 20
-2825.295
 30
3383.804
 70
    32
  0
VERTEX
  8
T18SSILL
 62
6
 10
1549.319
 20
-2788.109
 30
3383.790
 70
    32
  0
VERTEX
  8
T18SSILL
 62
6
 10
1553.903
 20
-2763.570
 30
3383.789
 70
    32
  0
SEQEND
  8
T18SSILL
  0
POLYLINE
  8
T18SSILL
 62
6
 66
     1
 70
     9
  0
VERTEX
  8
T18SSILL
 62
6
 10
1708.763
 20
-2669.431
 30
3383.754
 70
    32
  0
VERTEX
  8
T18SSILL
 62
6
 10
1709.498
 20
-2666.541
 30
3383.752
 70
    32
  0
VERTEX
  8
T18SSILL
 62
6
 10
1708.676
 20
-2661.613
 30
3383.749
 70
    32
  0
VERTEX
  8
T18SSILL
 62
6
 10
1686.464
 20
-2576.343
 30
3383.696
 70
    32
  0
VERTEX
  8
T18SSILL
 62
6
 10
1636.997
 20
-2608.889
 30
3383.742
 70
    32
  0
VERTEX
  8
T18SSILL
 62
6
 10
1642.513
 20
-2618.086
 30
3383.746
 70
    32
  0
VERTEX
  8
T18SSILL
 62
6
 10
1635.341
 20
-2623.098
 30
3383.753
 70
    32
  0
VERTEX
  8
T18SSILL
 62
6
 10
1632.047
 20
-2642.382
 30
3383.768
 70
    32
  0
VERTEX
  8
T18SSILL
 62
6
 10
1642.680
 20
-2664.988
 30
3383.780
 70
    32
  0
VERTEX
  8
T18SSILL
 62
6
 10
1644.962
 20
-2672.830
 30
3383.785
 70
    32
  0
VERTEX
  8
T18SSILL
 62
6
 10
1651.925
 20
-2685.996
 30
3383.788
 70
    32
  0
VERTEX
  8
T18SSILL
 62
6
 10
1683.211
 20
-2691.974
 30
3383.782
 70
    32
  0
VERTEX
  8
T18SSILL
 62
6
 10
1685.943
 20
-2691.215
 30
3383.780
 70
    32
  0
SEQEND
  8
T18SSILL
  0
POLYLINE
  8
T18SSILL
 62
6
 66
     1
 70
     9
  0
VERTEX
  8
T18SSILL
 62
6
 10
1641.351
 20
-2750.604
 30
3383.789
 70
    32
  0
VERTEX
  8
T18SSILL
 62
6
 10
1644.775
 20
-2735.361
 30
3383.789
 70
    32
  0
VERTEX
  8
T18SSILL
 62
6
 10
1643.072
 20
-2730.599
 30
3383.789
 70
    32
  0
VERTEX
  8
T18SSILL
 62
6
 10
1616.781
 20
-2749.229
 30
3383.789
 70
    32
  0
VERTEX
  8
T18SSILL
 62
6
 10
1627.364
 20
-2764.133
 30
3383.790
 70
    32
  0
VERTEX
  8
T18SSILL
 62
6
 10
1641.046
 20
-2754.201
 30
3383.789
 70
    32
  0
SEQEND
  8
T18SSILL
  0
POLYLINE
  8
T18SSILL
 62
6
 66
     1
 70
     9
  0
VERTEX
  8
T18SSILL
 62
6
 10
1600.063
 20
-2751.362
 30
3383.789
 70
    32
  0
VERTEX
  8
T18SSILL
 62
6
 10
1596.511
 20
-2739.465
 30
3383.789
 70
    32
  0
VERTEX
  8
T18SSILL
 62
6
 10
1599.661
 20
-2732.738
 30
3383.789
 70
    32
  0
VERTEX
  8
T18SSILL
 62
6
 10
1602.985
 20
-2729.800
 30
3383.789
 70
    32
  0
VERTEX
  8
T18SSILL
 62
6
 10
1612.838
 20
-2743.677
 30
3383.789
 70
    32
  0
VERTEX
  8
T18SSILL
 62
6
 10
1602.082
 20
-2751.473
 30
3383.789
 70
    32
  0
SEQEND
  8
T18SSILL
  0
POLYLINE
  8
T18SSILL
 62
6
 66
     1
 70
     9
  0
VERTEX
  8
T18SSILL
 62
6
 10
1556.665
 20
-2813.926
 30
3383.806
 70
    32
  0
VERTEX
  8
T18SSILL
 62
6
 10
1601.299
 20
-2781.589
 30
3383.790
 70
    32
  0
VERTEX
  8
T18SSILL
 62
6
 10
1601.515
 20
-2778.078
 30
3383.790
 70
    32
  0
VERTEX
  8
T18SSILL
 62
6
 10
1596.224
 20
-2764.580
 30
3383.789
 70
    32
  0
VERTEX
  8
T18SSILL
 62
6
 10
1534.336
 20
-2808.051
 30
3383.795
 70
    32
  0
SEQEND
  8
T18SSILL
  0
POLYLINE
  8
T18SSILL
 62
6
 66
     1
 70
     9
  0
VERTEX
  8
T18SSILL
 62
6
 10
1558.346
 20
-2782.064
 30
3383.790
 70
    32
  0
VERTEX
  8
T18SSILL
 62
6
 10
1593.680
 20
-2756.647
 30
3383.789
 70
    32
  0
VERTEX
  8
T18SSILL
 62
6
 10
1590.150
 20
-2742.730
 30
3383.789
 70
    32
  0
VERTEX
  8
T18SSILL
 62
6
 10
1587.097
 20
-2740.850
 30
3383.789
 70
    32
  0
VERTEX
  8
T18SSILL
 62
6
 10
1561.071
 20
-2758.821
 30
3383.789
 70
    32
  0
VERTEX
  8
T18SSILL
 62
6
 10
1558.088
 20
-2773.894
 30
3383.790
 70
    32
  0
SEQEND
  8
T18SSILL
  0
POLYLINE
  8
T18SSILL
 62
6
 66
     1
 70
     9
  0
VERTEX
  8
T18SSILL
 62
6
 10
1602.697
 20
-2759.209
 30
3383.789
 70
    32
  0
VERTEX
  8
T18SSILL
 62
6
 10
1606.990
 20
-2756.167
 30
3383.789
 70
    32
  0
VERTEX
  8
T18SSILL
 62
6
 10
1617.652
 20
-2771.182
 30
3383.790
 70
    32
  0
VERTEX
  8
T18SSILL
 62
6
 10
1609.876
 20
-2776.593
 30
3383.790
 70
    32
  0
VERTEX
  8
T18SSILL
 62
6
 10
1607.606
 20
-2775.337
 30
3383.790
 70
    32
  0
SEQEND
  8
T18SSILL
  0
POLYLINE
  8
T18SSILL
 62
6
 66
     1
 70
     9
  0
VERTEX
  8
T18SSILL
 62
6
 10
1574.860
 20
-2666.497
 30
3383.787
 70
    32
  0
VERTEX
  8
T18SSILL
 62
6
 10
1573.106
 20
-2667.802
 30
3383.787
 70
    32
  0
VERTEX
  8
T18SSILL
 62
6
 10
1574.631
 20
-2670.925
 30
3383.787
 70
    32
  0
VERTEX
  8
T18SSILL
 62
6
 10
1581.211
 20
-2671.530
 30
3383.787
 70
    32
  0
VERTEX
  8
T18SSILL
 62
6
 10
1588.929
 20
-2665.076
 30
3383.787
 70
    32
  0
VERTEX
  8
T18SSILL
 62
6
 10
1579.251
 20
-2651.177
 30
3383.787
 70
    32
  0
VERTEX
  8
T18SSILL
 62
6
 10
1569.162
 20
-2657.825
 30
3383.787
 70
    32
  0
SEQEND
  8
T18SSILL
  0
POLYLINE
  8
T18SSILL
 62
6
 66
     1
 70
     9
  0
VERTEX
  8
T18SSILL
 62
6
 10
1629.489
 20
-2543.372
 30
3383.697
 70
    32
  0
VERTEX
  8
T18SSILL
 62
6
 10
1625.707
 20
-2528.486
 30
3383.688
 70
    32
  0
VERTEX
  8
T18SSILL
 62
6
 10
1626.882
 20
-2517.872
 30
3383.680
 70
    32
  0
VERTEX
  8
T18SSILL
 62
6
 10
1635.980
 20
-2485.019
 30
3383.652
 70
    32
  0
VERTEX
  8
T18SSILL
 62
6
 10
1659.482
 20
-2468.396
 30
3383.630
 70
    32
  0
VERTEX
  8
T18SSILL
 62
6
 10
1662.062
 20
-2469.000
 30
3383.629
 70
    32
  0
VERTEX
  8
T18SSILL
 62
6
 10
1663.280
 20
-2470.803
 30
3383.630
 70
    32
  0
VERTEX
  8
T18SSILL
 62
6
 10
1665.589
 20
-2480.146
 30
3383.636
 70
    32
  0
VERTEX
  8
T18SSILL
 62
6
 10
1667.985
 20
-2502.445
 30
3383.651
 70
    32
  0
VERTEX
  8
T18SSILL
 62
6
 10
1682.496
 20
-2562.333
 30
3383.688
 70
    32
  0
VERTEX
  8
T18SSILL
 62
6
 10
1679.430
 20
-2569.324
 30
3383.694
 70
    32
  0
VERTEX
  8
T18SSILL
 62
6
 10
1676.315
 20
-2572.890
 30
3383.698
 70
    32
  0
VERTEX
  8
T18SSILL
 62
6
 10
1669.510
 20
-2576.588
 30
3383.704
 70
    32
  0
VERTEX
  8
T18SSILL
 62
6
 10
1664.586
 20
-2577.147
 30
3383.707
 70
    32
  0
VERTEX
  8
T18SSILL
 62
6
 10
1637.072
 20
-2571.563
 30
3383.715
 70
    32
  0
VERTEX
  8
T18SSILL
 62
6
 10
1635.042
 20
-2557.049
 30
3383.705
 70
    32
  0
VERTEX
  8
T18SSILL
 62
6
 10
1632.464
 20
-2552.013
 30
3383.702
 70
    32
  0
SEQEND
  8
T18SSILL
  0
POLYLINE
  8
T18SSILL
 62
6
 66
     1
 70
     9
  0
VERTEX
  8
T18SSILL
 62
6
 10
1561.844
 20
-2537.242
 30
3383.722
 70
    32
  0
VERTEX
  8
T18SSILL
 62
6
 10
1539.177
 20
-2553.319
 30
3383.744
 70
    32
  0
VERTEX
  8
T18SSILL
 62
6
 10
1544.326
 20
-2571.558
 30
3383.755
 70
    32
  0
VERTEX
  8
T18SSILL
 62
6
 10
1621.008
 20
-2516.927
 30
3383.682
 70
    32
  0
VERTEX
  8
T18SSILL
 62
6
 10
1623.568
 20
-2500.445
 30
3383.669
 70
    32
  0
VERTEX
  8
T18SSILL
 62
6
 10
1627.586
 20
-2491.257
 30
3383.660
 70
    32
  0
VERTEX
  8
T18SSILL
 62
6
 10
1569.462
 20
-2531.620
 30
3383.715
 70
    32
  0
SEQEND
  8
T18SSILL
  0
POLYLINE
  8
T18SSILL
 62
6
 66
     1
 70
     9
  0
VERTEX
  8
T18SSILL
 62
6
 10
1555.367
 20
-2604.532
 30
3383.774
 70
    32
  0
VERTEX
  8
T18SSILL
 62
6
 10
1565.193
 20
-2605.522
 30
3383.771
 70
    32
  0
VERTEX
  8
T18SSILL
 62
6
 10
1568.235
 20
-2592.910
 30
3383.760
 70
    32
  0
VERTEX
  8
T18SSILL
 62
6
 10
1572.445
 20
-2585.668
 30
3383.753
 70
    32
  0
VERTEX
  8
T18SSILL
 62
6
 10
1572.485
 20
-2582.156
 30
3383.750
 70
    32
  0
VERTEX
  8
T18SSILL
 62
6
 10
1568.307
 20
-2563.488
 30
3383.739
 70
    32
  0
VERTEX
  8
T18SSILL
 62
6
 10
1547.225
 20
-2579.232
 30
3383.759
 70
    32
  0
SEQEND
  8
T18SSILL
  0
POLYLINE
  8
T18SSILL
 62
6
 66
     1
 70
     9
  0
VERTEX
  8
T18SSILL
 62
6
 10
1537.351
 20
-2574.816
 30
3383.760
 70
    32
  0
VERTEX
  8
T18SSILL
 62
6
 10
1533.826
 20
-2560.460
 30
3383.752
 70
    32
  0
VERTEX
  8
T18SSILL
 62
6
 10
1532.001
 20
-2558.770
 30
3383.751
 70
    32
  0
VERTEX
  8
T18SSILL
 62
6
 10
1512.508
 20
-2573.742
 30
3383.771
 70
    32
  0
SEQEND
  8
T18SSILL
  0
POLYLINE
  8
T18SSILL
 62
6
 66
     1
 70
     9
  0
VERTEX
  8
T18SSILL
 62
6
 10
1947.540
 20
-2845.791
 30
3383.954
 70
    32
  0
VERTEX
  8
T18SSILL
 62
6
 10
1932.659
 20
-2828.846
 30
3383.981
 70
    32
  0
VERTEX
  8
T18SSILL
 62
6
 10
1925.486
 20
-2818.577
 30
3383.990
 70
    32
  0
VERTEX
  8
T18SSILL
 62
6
 10
1921.129
 20
-2815.541
 30
3384.002
 70
    32
  0
VERTEX
  8
T18SSILL
 62
6
 10
1875.910
 20
-2799.128
 30
3383.989
 70
    32
  0
VERTEX
  8
T18SSILL
 62
6
 10
1873.793
 20
-2799.982
 30
3383.987
 70
    32
  0
VERTEX
  8
T18SSILL
 62
6
 10
1944.706
 20
-2914.867
 30
3384.086
 70
    32
  0
VERTEX
  8
T18SSILL
 62
6
 10
1947.023
 20
-2916.411
 30
3384.079
 70
    32
  0
VERTEX
  8
T18SSILL
 62
6
 10
1963.546
 20
-2904.762
 30
3383.996
 70
    32
  0
VERTEX
  8
T18SSILL
 62
6
 10
1965.151
 20
-2900.948
 30
3383.983
 70
    32
  0
VERTEX
  8
T18SSILL
 62
6
 10
1964.397
 20
-2893.126
 30
3383.972
 70
    32
  0
VERTEX
  8
T18SSILL
 62
6
 10
1965.703
 20
-2887.292
 30
3383.957
 70
    32
  0
VERTEX
  8
T18SSILL
 62
6
 10
1964.892
 20
-2881.231
 30
3383.949
 70
    32
  0
VERTEX
  8
T18SSILL
 62
6
 10
1961.127
 20
-2872.405
 30
3383.948
 70
    32
  0
VERTEX
  8
T18SSILL
 62
6
 10
1948.179
 20
-2847.100
 30
3383.954
 70
    32
  0
SEQEND
  8
T18SSILL
  0
POLYLINE
  8
T18SSILL
 62
6
 66
     1
 70
     9
  0
VERTEX
  8
T18SSILL
 62
6
 10
2159.280
 20
-3303.329
 30
3384.383
 70
    32
  0
VERTEX
  8
T18SSILL
 62
6
 10
2156.154
 20
-3292.579
 30
3384.366
 70
    32
  0
VERTEX
  8
T18SSILL
 62
6
 10
2139.056
 20
-3282.371
 30
3384.342
 70
    32
  0
VERTEX
  8
T18SSILL
 62
6
 10
2081.469
 20
-3272.228
 30
3384.291
 70
    32
  0
VERTEX
  8
T18SSILL
 62
6
 10
2140.151
 20
-3340.350
 30
3384.420
 70
    32
  0
VERTEX
  8
T18SSILL
 62
6
 10
2169.735
 20
-3318.467
 30
3384.410
 70
    32
  0
VERTEX
  8
T18SSILL
 62
6
 10
2167.675
 20
-3314.228
 30
3384.403
 70
    32
  0
SEQEND
  8
T18SSILL
  0
POLYLINE
  8
T18SSILL
 62
6
 66
     1
 70
     9
  0
VERTEX
  8
T18SSILL
 62
6
 10
2186.582
 20
-3370.598
 30
3384.491
 70
    32
  0
VERTEX
  8
T18SSILL
 62
6
 10
2189.936
 20
-3356.815
 30
3384.475
 70
    32
  0
VERTEX
  8
T18SSILL
 62
6
 10
2188.077
 20
-3342.741
 30
3384.455
 70
    32
  0
VERTEX
  8
T18SSILL
 62
6
 10
2185.419
 20
-3337.090
 30
3384.445
 70
    32
  0
VERTEX
  8
T18SSILL
 62
6
 10
2174.672
 20
-3324.496
 30
3384.421
 70
    32
  0
VERTEX
  8
T18SSILL
 62
6
 10
2145.450
 20
-3345.416
 30
3384.431
 70
    32
  0
VERTEX
  8
T18SSILL
 62
6
 10
2181.202
 20
-3383.327
 30
3384.505
 70
    32
  0
VERTEX
  8
T18SSILL
 62
6
 10
2185.606
 20
-3374.506
 30
3384.496
 70
    32
  0
SEQEND
  8
T18SSILL
  0
POLYLINE
  8
T18SSILL
 62
6
 66
     1
 70
     9
  0
VERTEX
  8
T18SSILL
 62
6
 10
2189.620
 20
-3376.836
 30
3384.501
 70
    32
  0
VERTEX
  8
T18SSILL
 62
6
 10
2190.580
 20
-3385.015
 30
3384.513
 70
    32
  0
VERTEX
  8
T18SSILL
 62
6
 10
2189.442
 20
-3392.379
 30
3384.522
 70
    32
  0
VERTEX
  8
T18SSILL
 62
6
 10
2208.969
 20
-3412.890
 30
3384.563
 70
    32
  0
VERTEX
  8
T18SSILL
 62
6
 10
2212.858
 20
-3410.739
 30
3384.562
 70
    32
  0
VERTEX
  8
T18SSILL
 62
6
 10
2217.038
 20
-3406.219
 30
3384.559
 70
    32
  0
VERTEX
  8
T18SSILL
 62
6
 10
2217.783
 20
-3402.451
 30
3384.554
 70
    32
  0
VERTEX
  8
T18SSILL
 62
6
 10
2216.945
 20
-3398.929
 30
3384.549
 70
    32
  0
VERTEX
  8
T18SSILL
 62
6
 10
2196.213
 20
-3368.567
 30
3384.495
 70
    32
  0
VERTEX
  8
T18SSILL
 62
6
 10
2194.079
 20
-3370.914
 30
3384.496
 70
    32
  0
SEQEND
  8
T18SSILL
  0
POLYLINE
  8
T18SSILL
 62
6
 66
     1
 70
     9
  0
VERTEX
  8
T18SSILL
 62
6
 10
2009.467
 20
-2977.646
 30
3383.948
 70
    32
  0
VERTEX
  8
T18SSILL
 62
6
 10
2002.599
 20
-2962.624
 30
3383.948
 70
    32
  0
VERTEX
  8
T18SSILL
 62
6
 10
2001.038
 20
-2953.935
 30
3383.938
 70
    32
  0
VERTEX
  8
T18SSILL
 62
6
 10
2001.380
 20
-2948.382
 30
3383.927
 70
    32
  0
VERTEX
  8
T18SSILL
 62
6
 10
2007.585
 20
-2930.752
 30
3383.873
 70
    32
  0
VERTEX
  8
T18SSILL
 62
6
 10
2009.590
 20
-2919.623
 30
3383.846
 70
    32
  0
VERTEX
  8
T18SSILL
 62
6
 10
2009.315
 20
-2908.975
 30
3383.828
 70
    32
  0
VERTEX
  8
T18SSILL
 62
6
 10
2006.966
 20
-2903.329
 30
3383.827
 70
    32
  0
VERTEX
  8
T18SSILL
 62
6
 10
1998.465
 20
-2909.125
 30
3383.870
 70
    32
  0
VERTEX
  8
T18SSILL
 62
6
 10
1987.658
 20
-2894.524
 30
3383.886
 70
    32
  0
VERTEX
  8
T18SSILL
 62
6
 10
1950.224
 20
-2923.222
 30
3384.079
 70
    32
  0
VERTEX
  8
T18SSILL
 62
6
 10
1950.164
 20
-2929.826
 30
3384.091
 70
    32
  0
VERTEX
  8
T18SSILL
 62
6
 10
1971.294
 20
-3020.202
 30
3384.168
 70
    32
  0
VERTEX
  8
T18SSILL
 62
6
 10
1998.277
 20
-3074.019
 30
3384.159
 70
    32
  0
VERTEX
  8
T18SSILL
 62
6
 10
1992.361
 20
-3076.762
 30
3384.187
 70
    32
  0
VERTEX
  8
T18SSILL
 62
6
 10
1977.705
 20
-3047.620
 30
3384.192
 70
    32
  0
VERTEX
  8
T18SSILL
 62
6
 10
1988.599
 20
-3092.559
 30
3384.229
 70
    32
  0
VERTEX
  8
T18SSILL
 62
6
 10
1990.851
 20
-3095.424
 30
3384.225
 70
    32
  0
VERTEX
  8
T18SSILL
 62
6
 10
1992.966
 20
-3095.563
 30
3384.217
 70
    32
  0
VERTEX
  8
T18SSILL
 62
6
 10
1999.433
 20
-3092.808
 30
3384.188
 70
    32
  0
VERTEX
  8
T18SSILL
 62
6
 10
2026.088
 20
-3071.560
 30
3384.049
 70
    32
  0
VERTEX
  8
T18SSILL
 62
6
 10
2027.543
 20
-3064.139
 30
3384.030
 70
    32
  0
VERTEX
  8
T18SSILL
 62
6
 10
2017.648
 20
-3042.214
 30
3384.030
 70
    32
  0
VERTEX
  8
T18SSILL
 62
6
 10
2022.035
 20
-3040.140
 30
3384.009
 70
    32
  0
VERTEX
  8
T18SSILL
 62
6
 10
2021.840
 20
-3035.273
 30
3384.001
 70
    32
  0
VERTEX
  8
T18SSILL
 62
6
 10
2024.100
 20
-3028.630
 30
3383.981
 70
    32
  0
VERTEX
  8
T18SSILL
 62
6
 10
2024.656
 20
-3021.897
 30
3383.967
 70
    32
  0
VERTEX
  8
T18SSILL
 62
6
 10
2022.251
 20
-2998.640
 30
3383.936
 70
    32
  0
SEQEND
  8
T18SSILL
  0
POLYLINE
  8
T18SSILL
 62
6
 66
     1
 70
     9
  0
VERTEX
  8
T18SSILL
 62
6
 10
2029.989
 20
-3003.082
 30
3383.914
 70
    32
  0
VERTEX
  8
T18SSILL
 62
6
 10
2023.736
 20
-2967.974
 30
3383.876
 70
    32
  0
VERTEX
  8
T18SSILL
 62
6
 10
2021.216
 20
-2944.863
 30
3383.845
 70
    32
  0
VERTEX
  8
T18SSILL
 62
6
 10
2020.817
 20
-2937.210
 30
3383.834
 70
    32
  0
VERTEX
  8
T18SSILL
 62
6
 10
2025.150
 20
-2938.279
 30
3383.819
 70
    32
  0
VERTEX
  8
T18SSILL
 62
6
 10
2029.618
 20
-2941.986
 30
3383.813
 70
    32
  0
VERTEX
  8
T18SSILL
 62
6
 10
2033.417
 20
-2947.730
 30
3383.823
 70
    32
  0
VERTEX
  8
T18SSILL
 62
6
 10
2039.442
 20
-2974.917
 30
3383.863
 70
    32
  0
VERTEX
  8
T18SSILL
 62
6
 10
2038.851
 20
-3001.341
 30
3383.899
 70
    32
  0
VERTEX
  8
T18SSILL
 62
6
 10
2033.707
 20
-3004.249
 30
3383.902
 70
    32
  0
SEQEND
  8
T18SSILL
  0
POLYLINE
  8
T18SSILL
 62
6
 66
     1
 70
     9
  0
VERTEX
  8
T18SSILL
 62
6
 10
2152.842
 20
-3251.877
 30
3384.310
 70
    32
  0
VERTEX
  8
T18SSILL
 62
6
 10
2143.542
 20
-3258.709
 30
3384.313
 70
    32
  0
VERTEX
  8
T18SSILL
 62
6
 10
2135.925
 20
-3248.873
 30
3384.295
 70
    32
  0
VERTEX
  8
T18SSILL
 62
6
 10
2129.981
 20
-3253.445
 30
3384.297
 70
    32
  0
VERTEX
  8
T18SSILL
 62
6
 10
2120.337
 20
-3237.278
 30
3384.269
 70
    32
  0
VERTEX
  8
T18SSILL
 62
6
 10
2085.449
 20
-3208.248
 30
3384.207
 70
    32
  0
VERTEX
  8
T18SSILL
 62
6
 10
2035.517
 20
-3150.766
 30
3384.151
 70
    32
  0
VERTEX
  8
T18SSILL
 62
6
 10
2026.248
 20
-3147.235
 30
3384.181
 70
    32
  0
VERTEX
  8
T18SSILL
 62
6
 10
1999.360
 20
-3140.692
 30
3384.272
 70
    32
  0
VERTEX
  8
T18SSILL
 62
6
 10
1998.140
 20
-3132.159
 30
3384.262
 70
    32
  0
VERTEX
  8
T18SSILL
 62
6
 10
1998.910
 20
-3126.195
 30
3384.248
 70
    32
  0
VERTEX
  8
T18SSILL
 62
6
 10
2002.827
 20
-3115.552
 30
3384.215
 70
    32
  0
VERTEX
  8
T18SSILL
 62
6
 10
2013.097
 20
-3108.767
 30
3384.164
 70
    32
  0
VERTEX
  8
T18SSILL
 62
6
 10
2009.213
 20
-3103.201
 30
3384.169
 70
    32
  0
VERTEX
  8
T18SSILL
 62
6
 10
1993.371
 20
-3113.517
 30
3384.247
 70
    32
  0
VERTEX
  8
T18SSILL
 62
6
 10
1991.945
 20
-3107.555
 30
3384.242
 70
    32
  0
VERTEX
  8
T18SSILL
 62
6
 10
1997.029
 20
-3101.303
 30
3384.212
 70
    32
  0
VERTEX
  8
T18SSILL
 62
6
 10
2031.320
 20
-3078.688
 30
3384.041
 70
    32
  0
VERTEX
  8
T18SSILL
 62
6
 10
2039.106
 20
-3095.807
 30
3384.041
 70
    32
  0
VERTEX
  8
T18SSILL
 62
6
 10
2026.095
 20
-3101.935
 30
3384.102
 70
    32
  0
VERTEX
  8
T18SSILL
 62
6
 10
2036.427
 20
-3123.676
 30
3384.100
 70
    32
  0
VERTEX
  8
T18SSILL
 62
6
 10
2043.247
 20
-3121.003
 30
3384.070
 70
    32
  0
VERTEX
  8
T18SSILL
 62
6
 10
2045.760
 20
-3128.706
 30
3384.074
 70
    32
  0
VERTEX
  8
T18SSILL
 62
6
 10
2048.203
 20
-3147.397
 30
3384.101
 70
    32
  0
VERTEX
  8
T18SSILL
 62
6
 10
2061.430
 20
-3158.175
 30
3384.124
 70
    32
  0
VERTEX
  8
T18SSILL
 62
6
 10
2066.152
 20
-3159.986
 30
3384.130
 70
    32
  0
VERTEX
  8
T18SSILL
 62
6
 10
2074.516
 20
-3165.878
 30
3384.143
 70
    32
  0
VERTEX
  8
T18SSILL
 62
6
 10
2075.710
 20
-3168.966
 30
3384.148
 70
    32
  0
VERTEX
  8
T18SSILL
 62
6
 10
2089.775
 20
-3183.266
 30
3384.176
 70
    32
  0
VERTEX
  8
T18SSILL
 62
6
 10
2099.181
 20
-3197.865
 30
3384.202
 70
    32
  0
VERTEX
  8
T18SSILL
 62
6
 10
2114.224
 20
-3211.123
 30
3384.230
 70
    32
  0
VERTEX
  8
T18SSILL
 62
6
 10
2145.044
 20
-3234.837
 30
3384.282
 70
    32
  0
VERTEX
  8
T18SSILL
 62
6
 10
2162.340
 20
-3250.756
 30
3384.314
 70
    32
  0
VERTEX
  8
T18SSILL
 62
6
 10
2156.201
 20
-3256.299
 30
3384.318
 70
    32
  0
SEQEND
  8
T18SSILL
  0
POLYLINE
  8
T18SSILL
 62
6
 66
     1
 70
     9
  0
VERTEX
  8
T18SSILL
 62
6
 10
2121.451
 20
-3273.188
 30
3384.318
 70
    32
  0
VERTEX
  8
T18SSILL
 62
6
 10
2128.211
 20
-3273.444
 30
3384.323
 70
    32
  0
VERTEX
  8
T18SSILL
 62
6
 10
2122.337
 20
-3265.206
 30
3384.308
 70
    32
  0
VERTEX
  8
T18SSILL
 62
6
 10
2102.179
 20
-3246.961
 30
3384.270
 70
    32
  0
VERTEX
  8
T18SSILL
 62
6
 10
2076.870
 20
-3218.817
 30
3384.216
 70
    32
  0
VERTEX
  8
T18SSILL
 62
6
 10
2044.415
 20
-3185.934
 30
3384.179
 70
    32
  0
VERTEX
  8
T18SSILL
 62
6
 10
2039.678
 20
-3178.148
 30
3384.183
 70
    32
  0
VERTEX
  8
T18SSILL
 62
6
 10
2036.114
 20
-3175.032
 30
3384.192
 70
    32
  0
VERTEX
  8
T18SSILL
 62
6
 10
2029.464
 20
-3165.643
 30
3384.201
 70
    32
  0
VERTEX
  8
T18SSILL
 62
6
 10
2027.821
 20
-3156.138
 30
3384.190
 70
    32
  0
VERTEX
  8
T18SSILL
 62
6
 10
2005.491
 20
-3150.601
 30
3384.266
 70
    32
  0
VERTEX
  8
T18SSILL
 62
6
 10
2001.189
 20
-3150.462
 30
3384.282
 70
    32
  0
VERTEX
  8
T18SSILL
 62
6
 10
2014.112
 20
-3208.231
 30
3384.334
 70
    32
  0
VERTEX
  8
T18SSILL
 62
6
 10
2057.474
 20
-3254.419
 30
3384.251
 70
    32
  0
VERTEX
  8
T18SSILL
 62
6
 10
2080.612
 20
-3265.850
 30
3384.281
 70
    32
  0
SEQEND
  8
T18SSILL
  0
POLYLINE
  8
T18SSILL
 62
6
 66
     1
 70
     9
  0
VERTEX
  8
T18SSILL
 62
6
 10
1868.984
 20
-3005.794
 30
3384.181
 70
    32
  0
VERTEX
  8
T18SSILL
 62
6
 10
1885.883
 20
-3025.660
 30
3384.223
 70
    32
  0
VERTEX
  8
T18SSILL
 62
6
 10
1897.312
 20
-3032.378
 30
3384.245
 70
    32
  0
VERTEX
  8
T18SSILL
 62
6
 10
1908.845
 20
-3045.332
 30
3384.273
 70
    32
  0
VERTEX
  8
T18SSILL
 62
6
 10
1901.567
 20
-3052.012
 30
3384.269
 70
    32
  0
VERTEX
  8
T18SSILL
 62
6
 10
1900.139
 20
-3054.015
 30
3384.269
 70
    32
  0
VERTEX
  8
T18SSILL
 62
6
 10
1899.924
 20
-3057.438
 30
3384.272
 70
    32
  0
VERTEX
  8
T18SSILL
 62
6
 10
1910.139
 20
-3078.106
 30
3384.306
 70
    32
  0
VERTEX
  8
T18SSILL
 62
6
 10
1930.847
 20
-3110.575
 30
3384.366
 70
    32
  0
VERTEX
  8
T18SSILL
 62
6
 10
1932.012
 20
-3131.667
 30
3384.388
 70
    32
  0
VERTEX
  8
T18SSILL
 62
6
 10
1932.748
 20
-3136.418
 30
3384.393
 70
    32
  0
VERTEX
  8
T18SSILL
 62
6
 10
1934.494
 20
-3137.316
 30
3384.396
 70
    32
  0
VERTEX
  8
T18SSILL
 62
6
 10
1976.640
 20
-3107.497
 30
3384.301
 70
    32
  0
VERTEX
  8
T18SSILL
 62
6
 10
1981.413
 20
-3097.188
 30
3384.264
 70
    32
  0
VERTEX
  8
T18SSILL
 62
6
 10
1966.716
 20
-3035.139
 30
3384.212
 70
    32
  0
VERTEX
  8
T18SSILL
 62
6
 10
1965.005
 20
-3035.921
 30
3384.220
 70
    32
  0
VERTEX
  8
T18SSILL
 62
6
 10
1956.476
 20
-3019.703
 30
3384.224
 70
    32
  0
VERTEX
  8
T18SSILL
 62
6
 10
1961.345
 20
-3016.334
 30
3384.200
 70
    32
  0
VERTEX
  8
T18SSILL
 62
6
 10
1952.447
 20
-2995.680
 30
3384.197
 70
    32
  0
VERTEX
  8
T18SSILL
 62
6
 10
1956.515
 20
-2993.268
 30
3384.178
 70
    32
  0
VERTEX
  8
T18SSILL
 62
6
 10
1941.765
 20
-2931.269
 30
3384.125
 70
    32
  0
VERTEX
  8
T18SSILL
 62
6
 10
1940.814
 20
-2929.941
 30
3384.127
 70
    32
  0
VERTEX
  8
T18SSILL
 62
6
 10
1938.615
 20
-2930.267
 30
3384.136
 70
    32
  0
VERTEX
  8
T18SSILL
 62
6
 10
1917.630
 20
-2945.134
 30
3384.187
 70
    32
  0
VERTEX
  8
T18SSILL
 62
6
 10
1921.605
 20
-2950.800
 30
3384.198
 70
    32
  0
VERTEX
  8
T18SSILL
 62
6
 10
1910.889
 20
-2958.582
 30
3384.191
 70
    32
  0
VERTEX
  8
T18SSILL
 62
6
 10
1907.353
 20
-2952.921
 30
3384.181
 70
    32
  0
VERTEX
  8
T18SSILL
 62
6
 10
1853.249
 20
-2991.562
 30
3384.146
 70
    32
  0
VERTEX
  8
T18SSILL
 62
6
 10
1861.477
 20
-3001.756
 30
3384.167
 70
    32
  0
VERTEX
  8
T18SSILL
 62
6
 10
1846.430
 20
-3011.948
 30
3384.157
 70
    32
  0
VERTEX
  8
T18SSILL
 62
6
 10
1849.901
 20
-3015.588
 30
3384.165
 70
    32
  0
VERTEX
  8
T18SSILL
 62
6
 10
1856.589
 20
-3014.435
 30
3384.173
 70
    32
  0
VERTEX
  8
T18SSILL
 62
6
 10
1859.789
 20
-3011.134
 30
3384.174
 70
    32
  0
SEQEND
  8
T18SSILL
  0
POLYLINE
  8
T18SSILL
 62
6
 66
     1
 70
     9
  0
VERTEX
  8
T18SSILL
 62
6
 10
2118.067
 20
-3203.588
 30
3384.222
 70
    32
  0
VERTEX
  8
T18SSILL
 62
6
 10
2108.370
 20
-3192.878
 30
3384.201
 70
    32
  0
VERTEX
  8
T18SSILL
 62
6
 10
2124.838
 20
-3187.193
 30
3384.204
 70
    32
  0
VERTEX
  8
T18SSILL
 62
6
 10
2135.189
 20
-3189.214
 30
3384.214
 70
    32
  0
VERTEX
  8
T18SSILL
 62
6
 10
2140.608
 20
-3191.474
 30
3384.220
 70
    32
  0
VERTEX
  8
T18SSILL
 62
6
 10
2143.514
 20
-3190.806
 30
3384.221
 70
    32
  0
VERTEX
  8
T18SSILL
 62
6
 10
2153.896
 20
-3211.306
 30
3384.256
 70
    32
  0
VERTEX
  8
T18SSILL
 62
6
 10
2160.218
 20
-3218.847
 30
3384.270
 70
    32
  0
VERTEX
  8
T18SSILL
 62
6
 10
2151.586
 20
-3228.229
 30
3384.277
 70
    32
  0
VERTEX
  8
T18SSILL
 62
6
 10
2142.997
 20
-3219.344
 30
3384.259
 70
    32
  0
VERTEX
  8
T18SSILL
 62
6
 10
2132.155
 20
-3215.350
 30
3384.247
 70
    32
  0
VERTEX
  8
T18SSILL
 62
6
 10
2122.236
 20
-3207.503
 30
3384.230
 70
    32
  0
SEQEND
  8
T18SSILL
  0
POLYLINE
  8
T18SSILL
 62
6
 66
     1
 70
     9
  0
VERTEX
  8
T18SSILL
 62
6
 10
2050.114
 20
-3090.947
 30
3384.026
 70
    32
  0
VERTEX
  8
T18SSILL
 62
6
 10
2060.065
 20
-3086.106
 30
3384.026
 70
    32
  0
VERTEX
  8
T18SSILL
 62
6
 10
2061.052
 20
-3082.126
 30
3384.022
 70
    32
  0
VERTEX
  8
T18SSILL
 62
6
 10
2058.839
 20
-3076.442
 30
3384.013
 70
    32
  0
VERTEX
  8
T18SSILL
 62
6
 10
2050.741
 20
-3071.566
 30
3384.001
 70
    32
  0
VERTEX
  8
T18SSILL
 62
6
 10
2042.589
 20
-3073.647
 30
3383.998
 70
    32
  0
VERTEX
  8
T18SSILL
 62
6
 10
2047.635
 20
-3090.198
 30
3384.024
 70
    32
  0
SEQEND
  8
T18SSILL
  0
POLYLINE
  8
T18SSILL
 62
6
 66
     1
 70
     9
  0
VERTEX
  8
T18SSILL
 62
6
 10
2047.772
 20
-3007.963
 30
3383.913
 70
    32
  0
VERTEX
  8
T18SSILL
 62
6
 10
2043.280
 20
-3007.866
 30
3383.910
 70
    32
  0
VERTEX
  8
T18SSILL
 62
6
 10
2041.098
 20
-3008.961
 30
3383.910
 70
    32
  0
VERTEX
  8
T18SSILL
 62
6
 10
2034.165
 20
-3015.246
 30
3383.919
 70
    32
  0
VERTEX
  8
T18SSILL
 62
6
 10
2033.265
 20
-3034.830
 30
3383.957
 70
    32
  0
VERTEX
  8
T18SSILL
 62
6
 10
2043.755
 20
-3029.869
 30
3383.940
 70
    32
  0
VERTEX
  8
T18SSILL
 62
6
 10
2038.979
 20
-3018.595
 30
3383.922
 70
    32
  0
VERTEX
  8
T18SSILL
 62
6
 10
2050.075
 20
-3013.733
 30
3383.923
 70
    32
  0
SEQEND
  8
T18SSILL
  0
POLYLINE
  8
T18SSILL
 62
6
 66
     1
 70
     9
  0
VERTEX
  8
T18SSILL
 62
6
 10
2015.274
 20
-2662.436
 30
3383.428
 70
    32
  0
VERTEX
  8
T18SSILL
 62
6
 10
1997.823
 20
-2626.381
 30
3383.377
 70
    32
  0
VERTEX
  8
T18SSILL
 62
6
 10
1970.685
 20
-2655.209
 30
3383.531
 70
    32
  0
VERTEX
  8
T18SSILL
 62
6
 10
2014.271
 20
-2665.447
 30
3383.431
 70
    32
  0
VERTEX
  8
T18SSILL
 62
6
 10
2015.307
 20
-2664.284
 30
3383.430
 70
    32
  0
SEQEND
  8
T18SSILL
  0
POLYLINE
  8
T18SSILL
 62
6
 66
     1
 70
     9
  0
VERTEX
  8
T18SSILL
 62
6
 10
-1132.823
 20
-1698.292
 30
3385.007
 70
    32
  0
VERTEX
  8
T18SSILL
 62
6
 10
-1149.533
 20
-1693.234
 30
3385.058
 70
    32
  0
VERTEX
  8
T18SSILL
 62
6
 10
-1167.162
 20
-1666.603
 30
3385.054
 70
    32
  0
VERTEX
  8
T18SSILL
 62
6
 10
-1167.549
 20
-1661.330
 30
3385.042
 70
    32
  0
VERTEX
  8
T18SSILL
 62
6
 10
-1173.151
 20
-1659.410
 30
3385.058
 70
    32
  0
VERTEX
  8
T18SSILL
 62
6
 10
-1218.067
 20
-1691.910
 30
3385.164
 70
    32
  0
VERTEX
  8
T18SSILL
 62
6
 10
-1226.374
 20
-1680.264
 30
3385.060
 70
    32
  0
VERTEX
  8
T18SSILL
 62
6
 10
-1216.008
 20
-1672.610
 30
3385.130
 70
    32
  0
VERTEX
  8
T18SSILL
 62
6
 10
-1199.446
 20
-1669.092
 30
3385.214
 70
    32
  0
VERTEX
  8
T18SSILL
 62
6
 10
-1156.531
 20
-1637.464
 30
3384.963
 70
    32
  0
VERTEX
  8
T18SSILL
 62
6
 10
-1153.680
 20
-1636.827
 30
3384.944
 70
    32
  0
VERTEX
  8
T18SSILL
 62
6
 10
-1148.396
 20
-1631.974
 30
3384.914
 70
    32
  0
VERTEX
  8
T18SSILL
 62
6
 10
-1141.359
 20
-1631.564
 30
3384.867
 70
    32
  0
VERTEX
  8
T18SSILL
 62
6
 10
-1136.126
 20
-1624.189
 30
3384.841
 70
    32
  0
VERTEX
  8
T18SSILL
 62
6
 10
-1137.385
 20
-1606.220
 30
3384.873
 70
    32
  0
VERTEX
  8
T18SSILL
 62
6
 10
-1171.136
 20
-1558.815
 30
3385.167
 70
    32
  0
VERTEX
  8
T18SSILL
 62
6
 10
-1180.354
 20
-1557.118
 30
3385.050
 70
    32
  0
VERTEX
  8
T18SSILL
 62
6
 10
-1197.589
 20
-1569.038
 30
3384.878
 70
    32
  0
VERTEX
  8
T18SSILL
 62
6
 10
-1202.884
 20
-1564.489
 30
3384.789
 70
    32
  0
VERTEX
  8
T18SSILL
 62
6
 10
-1210.286
 20
-1554.563
 30
3384.649
 70
    32
  0
VERTEX
  8
T18SSILL
 62
6
 10
-1210.912
 20
-1552.595
 30
3384.632
 70
    32
  0
VERTEX
  8
T18SSILL
 62
6
 10
-1206.496
 20
-1551.531
 30
3384.685
 70
    32
  0
VERTEX
  8
T18SSILL
 62
6
 10
-1201.458
 20
-1548.094
 30
3384.735
 70
    32
  0
VERTEX
  8
T18SSILL
 62
6
 10
-1199.811
 20
-1543.148
 30
3384.735
 70
    32
  0
VERTEX
  8
T18SSILL
 62
6
 10
-1194.879
 20
-1535.670
 30
3384.766
 70
    32
  0
VERTEX
  8
T18SSILL
 62
6
 10
-1196.801
 20
-1529.130
 30
3384.713
 70
    32
  0
VERTEX
  8
T18SSILL
 62
6
 10
-1210.360
 20
-1509.946
 30
3384.451
 70
    32
  0
VERTEX
  8
T18SSILL
 62
6
 10
-1203.495
 20
-1504.543
 30
3384.517
 70
    32
  0
VERTEX
  8
T18SSILL
 62
6
 10
-1265.448
 20
-1360.558
 30
3382.896
 70
    32
  0
VERTEX
  8
T18SSILL
 62
6
 10
-1270.631
 20
-1352.966
 30
3382.769
 70
    32
  0
VERTEX
  8
T18SSILL
 62
6
 10
-1257.749
 20
-1348.720
 30
3382.899
 70
    32
  0
VERTEX
  8
T18SSILL
 62
6
 10
-1248.070
 20
-1354.629
 30
3383.070
 70
    32
  0
VERTEX
  8
T18SSILL
 62
6
 10
-1181.278
 20
-1357.741
 30
3383.949
 70
    32
  0
VERTEX
  8
T18SSILL
 62
6
 10
-1200.549
 20
-1329.701
 30
3383.477
 70
    32
  0
VERTEX
  8
T18SSILL
 62
6
 10
-1207.404
 20
-1329.191
 30
3383.385
 70
    32
  0
VERTEX
  8
T18SSILL
 62
6
 10
-1206.215
 20
-1322.927
 30
3383.350
 70
    32
  0
VERTEX
  8
T18SSILL
 62
6
 10
-1212.454
 20
-1314.255
 30
3383.201
 70
    32
  0
VERTEX
  8
T18SSILL
 62
6
 10
-1220.563
 20
-1312.261
 30
3383.081
 70
    32
  0
VERTEX
  8
T18SSILL
 62
6
 10
-1225.242
 20
-1314.864
 30
3383.042
 70
    32
  0
VERTEX
  8
T18SSILL
 62
6
 10
-1226.587
 20
-1314.564
 30
3383.023
 70
    32
  0
VERTEX
  8
T18SSILL
 62
6
 10
-1235.727
 20
-1304.006
 30
3382.934
 70
    32
  0
VERTEX
  8
T18SSILL
 62
6
 10
-1240.533
 20
-1302.251
 30
3382.946
 70
    32
  0
VERTEX
  8
T18SSILL
 62
6
 10
-1240.374
 20
-1299.566
 30
3382.970
 70
    32
  0
VERTEX
  8
T18SSILL
 62
6
 10
-1243.359
 20
-1295.405
 30
3382.984
 70
    32
  0
VERTEX
  8
T18SSILL
 62
6
 10
-1305.146
 20
-1282.308
 30
3382.810
 70
    32
  0
VERTEX
  8
T18SSILL
 62
6
 10
-1351.573
 20
-1315.305
 30
3382.726
 70
    32
  0
VERTEX
  8
T18SSILL
 62
6
 10
-1336.736
 20
-1336.290
 30
3382.546
 70
    32
  0
VERTEX
  8
T18SSILL
 62
6
 10
-1328.104
 20
-1356.598
 30
3382.366
 70
    32
  0
VERTEX
  8
T18SSILL
 62
6
 10
-1299.435
 20
-1400.010
 30
3382.779
 70
    32
  0
VERTEX
  8
T18SSILL
 62
6
 10
-1293.577
 20
-1410.647
 30
3382.931
 70
    32
  0
VERTEX
  8
T18SSILL
 62
6
 10
-1293.782
 20
-1415.150
 30
3382.948
 70
    32
  0
VERTEX
  8
T18SSILL
 62
6
 10
-1292.699
 20
-1416.989
 30
3382.970
 70
    32
  0
VERTEX
  8
T18SSILL
 62
6
 10
-1285.878
 20
-1421.647
 30
3383.079
 70
    32
  0
VERTEX
  8
T18SSILL
 62
6
 10
-1272.753
 20
-1425.234
 30
3383.266
 70
    32
  0
VERTEX
  8
T18SSILL
 62
6
 10
-1267.126
 20
-1430.367
 30
3383.362
 70
    32
  0
VERTEX
  8
T18SSILL
 62
6
 10
-1266.628
 20
-1433.326
 30
3383.381
 70
    32
  0
VERTEX
  8
T18SSILL
 62
6
 10
-1268.969
 20
-1449.947
 30
3383.424
 70
    32
  0
VERTEX
  8
T18SSILL
 62
6
 10
-1273.032
 20
-1460.432
 30
3383.417
 70
    32
  0
VERTEX
  8
T18SSILL
 62
6
 10
-1275.327
 20
-1463.092
 30
3383.399
 70
    32
  0
VERTEX
  8
T18SSILL
 62
6
 10
-1281.279
 20
-1466.788
 30
3383.338
 70
    32
  0
VERTEX
  8
T18SSILL
 62
6
 10
-1285.352
 20
-1467.141
 30
3383.287
 70
    32
  0
VERTEX
  8
T18SSILL
 62
6
 10
-1288.512
 20
-1458.993
 30
3383.209
 70
    32
  0
VERTEX
  8
T18SSILL
 62
6
 10
-1291.008
 20
-1459.803
 30
3383.181
 70
    32
  0
VERTEX
  8
T18SSILL
 62
6
 10
-1293.069
 20
-1453.370
 30
3383.125
 70
    32
  0
VERTEX
  8
T18SSILL
 62
6
 10
-1295.572
 20
-1452.291
 30
3383.088
 70
    32
  0
VERTEX
  8
T18SSILL
 62
6
 10
-1297.379
 20
-1453.127
 30
3383.068
 70
    32
  0
VERTEX
  8
T18SSILL
 62
6
 10
-1299.726
 20
-1457.164
 30
3383.055
 70
    32
  0
VERTEX
  8
T18SSILL
 62
6
 10
-1301.302
 20
-1468.851
 30
3383.086
 70
    32
  0
VERTEX
  8
T18SSILL
 62
6
 10
-1278.280
 20
-1469.378
 30
3383.388
 70
    32
  0
VERTEX
  8
T18SSILL
 62
6
 10
-1245.285
 20
-1456.537
 30
3383.761
 70
    32
  0
VERTEX
  8
T18SSILL
 62
6
 10
-1238.662
 20
-1467.587
 30
3383.896
 70
    32
  0
VERTEX
  8
T18SSILL
 62
6
 10
-1242.098
 20
-1469.345
 30
3383.859
 70
    32
  0
VERTEX
  8
T18SSILL
 62
6
 10
-1241.450
 20
-1472.115
 30
3383.880
 70
    32
  0
VERTEX
  8
T18SSILL
 62
6
 10
-1244.517
 20
-1475.393
 30
3383.855
 70
    32
  0
VERTEX
  8
T18SSILL
 62
6
 10
-1257.186
 20
-1473.620
 30
3383.682
 70
    32
  0
VERTEX
  8
T18SSILL
 62
6
 10
-1258.124
 20
-1477.462
 30
3383.686
 70
    32
  0
VERTEX
  8
T18SSILL
 62
6
 10
-1303.188
 20
-1477.101
 30
3383.098
 70
    32
  0
VERTEX
  8
T18SSILL
 62
6
 10
-1304.899
 20
-1491.262
 30
3383.138
 70
    32
  0
VERTEX
  8
T18SSILL
 62
6
 10
-1314.782
 20
-1490.395
 30
3383.006
 70
    32
  0
VERTEX
  8
T18SSILL
 62
6
 10
-1313.249
 20
-1477.056
 30
3382.967
 70
    32
  0
VERTEX
  8
T18SSILL
 62
6
 10
-1319.471
 20
-1480.403
 30
3382.901
 70
    32
  0
VERTEX
  8
T18SSILL
 62
6
 10
-1369.868
 20
-1409.954
 30
3381.975
 70
    32
  0
VERTEX
  8
T18SSILL
 62
6
 10
-1370.200
 20
-1428.867
 30
3382.178
 70
    32
  0
VERTEX
  8
T18SSILL
 62
6
 10
-1379.198
 20
-1429.042
 30
3382.160
 70
    32
  0
VERTEX
  8
T18SSILL
 62
6
 10
-1377.224
 20
-1408.939
 30
3381.948
 70
    32
  0
VERTEX
  8
T18SSILL
 62
6
 10
-1365.747
 20
-1330.017
 30
3382.572
 70
    32
  0
VERTEX
  8
T18SSILL
 62
6
 10
-1368.918
 20
-1327.782
 30
3382.586
 70
    32
  0
VERTEX
  8
T18SSILL
 62
6
 10
-1388.601
 20
-1342.284
 30
3382.414
 70
    32
  0
VERTEX
  8
T18SSILL
 62
6
 10
-1402.694
 20
-1345.681
 30
3382.355
 70
    32
  0
VERTEX
  8
T18SSILL
 62
6
 10
-1406.496
 20
-1335.688
 30
3382.438
 70
    32
  0
VERTEX
  8
T18SSILL
 62
6
 10
-1395.241
 20
-1335.258
 30
3382.464
 70
    32
  0
VERTEX
  8
T18SSILL
 62
6
 10
-1317.775
 20
-1280.233
 30
3382.785
 70
    32
  0
VERTEX
  8
T18SSILL
 62
6
 10
-1381.449
 20
-1266.589
 30
3382.738
 70
    32
  0
VERTEX
  8
T18SSILL
 62
6
 10
-1380.220
 20
-1259.423
 30
3382.746
 70
    32
  0
VERTEX
  8
T18SSILL
 62
6
 10
-1234.650
 20
-1287.913
 30
3382.998
 70
    32
  0
VERTEX
  8
T18SSILL
 62
6
 10
-1223.338
 20
-1279.752
 30
3383.018
 70
    32
  0
VERTEX
  8
T18SSILL
 62
6
 10
-1215.591
 20
-1290.381
 30
3383.050
 70
    32
  0
VERTEX
  8
T18SSILL
 62
6
 10
-1209.036
 20
-1286.888
 30
3383.063
 70
    32
  0
VERTEX
  8
T18SSILL
 62
6
 10
-1199.345
 20
-1293.680
 30
3383.222
 70
    32
  0
VERTEX
  8
T18SSILL
 62
6
 10
-1206.834
 20
-1305.356
 30
3383.201
 70
    32
  0
VERTEX
  8
T18SSILL
 62
6
 10
-1132.006
 20
-1410.578
 30
3385.013
 70
    32
  0
VERTEX
  8
T18SSILL
 62
6
 10
-1030.596
 20
-1553.104
 30
3384.248
 70
    32
  0
VERTEX
  8
T18SSILL
 62
6
 10
-1012.035
 20
-1563.309
 30
3384.255
 70
    32
  0
VERTEX
  8
T18SSILL
 62
6
 10
-998.084
 20
-1563.920
 30
3384.251
 70
    32
  0
VERTEX
  8
T18SSILL
 62
6
 10
-995.264
 20
-1564.977
 30
3384.252
 70
    32
  0
VERTEX
  8
T18SSILL
 62
6
 10
-993.473
 20
-1569.613
 30
3384.263
 70
    32
  0
VERTEX
  8
T18SSILL
 62
6
 10
-1002.061
 20
-1574.227
 30
3384.279
 70
    32
  0
VERTEX
  8
T18SSILL
 62
6
 10
-1008.783
 20
-1583.863
 30
3384.308
 70
    32
  0
VERTEX
  8
T18SSILL
 62
6
 10
-1015.904
 20
-1585.898
 30
3384.316
 70
    32
  0
VERTEX
  8
T18SSILL
 62
6
 10
-1042.720
 20
-1654.026
 30
3384.541
 70
    32
  0
VERTEX
  8
T18SSILL
 62
6
 10
-1045.776
 20
-1653.819
 30
3384.552
 70
    32
  0
VERTEX
  8
T18SSILL
 62
6
 10
-1055.320
 20
-1676.995
 30
3384.651
 70
    32
  0
VERTEX
  8
T18SSILL
 62
6
 10
-1058.370
 20
-1694.720
 30
3384.711
 70
    32
  0
VERTEX
  8
T18SSILL
 62
6
 10
-1052.868
 20
-1703.737
 30
3384.714
 70
    32
  0
VERTEX
  8
T18SSILL
 62
6
 10
-1041.708
 20
-1728.335
 30
3384.737
 70
    32
  0
VERTEX
  8
T18SSILL
 62
6
 10
-1051.876
 20
-1734.946
 30
3384.781
 70
    32
  0
VERTEX
  8
T18SSILL
 62
6
 10
-1057.711
 20
-1726.075
 30
3384.792
 70
    32
  0
VERTEX
  8
T18SSILL
 62
6
 10
-1063.937
 20
-1719.732
 30
3384.799
 70
    32
  0
VERTEX
  8
T18SSILL
 62
6
 10
-1067.577
 20
-1704.601
 30
3384.773
 70
    32
  0
VERTEX
  8
T18SSILL
 62
6
 10
-1078.240
 20
-1699.005
 30
3384.799
 70
    32
  0
SEQEND
  8
T18SSILL
  0
POLYLINE
  8
T18SSILL
 62
6
 66
     1
 70
     9
  0
VERTEX
  8
T18SSILL
 62
6
 10
-1035.407
 20
-1589.937
 30
3384.341
 70
    32
  0
VERTEX
  8
T18SSILL
 62
6
 10
-1040.165
 20
-1583.764
 30
3384.343
 70
    32
  0
VERTEX
  8
T18SSILL
 62
6
 10
-1042.909
 20
-1577.746
 30
3384.337
 70
    32
  0
VERTEX
  8
T18SSILL
 62
6
 10
-1044.242
 20
-1567.632
 30
3384.315
 70
    32
  0
VERTEX
  8
T18SSILL
 62
6
 10
-1044.077
 20
-1549.345
 30
3384.311
 70
    32
  0
VERTEX
  8
T18SSILL
 62
6
 10
-1065.965
 20
-1518.198
 30
3384.502
 70
    32
  0
VERTEX
  8
T18SSILL
 62
6
 10
-1073.389
 20
-1518.684
 30
3384.552
 70
    32
  0
VERTEX
  8
T18SSILL
 62
6
 10
-1075.295
 20
-1517.368
 30
3384.567
 70
    32
  0
VERTEX
  8
T18SSILL
 62
6
 10
-1072.790
 20
-1509.198
 30
3384.560
 70
    32
  0
VERTEX
  8
T18SSILL
 62
6
 10
-1088.220
 20
-1487.445
 30
3384.695
 70
    32
  0
VERTEX
  8
T18SSILL
 62
6
 10
-1096.102
 20
-1486.613
 30
3384.750
 70
    32
  0
VERTEX
  8
T18SSILL
 62
6
 10
-1098.849
 20
-1483.048
 30
3384.773
 70
    32
  0
VERTEX
  8
T18SSILL
 62
6
 10
-1095.767
 20
-1477.219
 30
3384.760
 70
    32
  0
VERTEX
  8
T18SSILL
 62
6
 10
-1117.997
 20
-1472.516
 30
3384.918
 70
    32
  0
VERTEX
  8
T18SSILL
 62
6
 10
-1147.829
 20
-1473.560
 30
3385.105
 70
    32
  0
VERTEX
  8
T18SSILL
 62
6
 10
-1161.384
 20
-1481.557
 30
3384.964
 70
    32
  0
VERTEX
  8
T18SSILL
 62
6
 10
-1190.523
 20
-1511.256
 30
3384.716
 70
    32
  0
VERTEX
  8
T18SSILL
 62
6
 10
-1183.703
 20
-1519.815
 30
3384.842
 70
    32
  0
VERTEX
  8
T18SSILL
 62
6
 10
-1184.491
 20
-1522.985
 30
3384.846
 70
    32
  0
VERTEX
  8
T18SSILL
 62
6
 10
-1179.508
 20
-1530.173
 30
3384.942
 70
    32
  0
VERTEX
  8
T18SSILL
 62
6
 10
-1175.434
 20
-1531.267
 30
3385.000
 70
    32
  0
VERTEX
  8
T18SSILL
 62
6
 10
-1146.641
 20
-1507.753
 30
3385.067
 70
    32
  0
VERTEX
  8
T18SSILL
 62
6
 10
-1141.625
 20
-1514.953
 30
3385.023
 70
    32
  0
VERTEX
  8
T18SSILL
 62
6
 10
-1168.821
 20
-1537.534
 30
3385.114
 70
    32
  0
VERTEX
  8
T18SSILL
 62
6
 10
-1165.562
 20
-1542.486
 30
3385.150
 70
    32
  0
VERTEX
  8
T18SSILL
 62
6
 10
-1167.656
 20
-1546.997
 30
3385.158
 70
    32
  0
VERTEX
  8
T18SSILL
 62
6
 10
-1132.967
 20
-1595.908
 30
3384.857
 70
    32
  0
VERTEX
  8
T18SSILL
 62
6
 10
-1117.709
 20
-1612.669
 30
3384.730
 70
    32
  0
VERTEX
  8
T18SSILL
 62
6
 10
-1111.479
 20
-1608.408
 30
3384.693
 70
    32
  0
VERTEX
  8
T18SSILL
 62
6
 10
-1106.334
 20
-1616.369
 30
3384.685
 70
    32
  0
VERTEX
  8
T18SSILL
 62
6
 10
-1111.908
 20
-1620.341
 30
3384.717
 70
    32
  0
VERTEX
  8
T18SSILL
 62
6
 10
-1096.425
 20
-1642.164
 30
3384.716
 70
    32
  0
VERTEX
  8
T18SSILL
 62
6
 10
-1095.655
 20
-1648.367
 30
3384.730
 70
    32
  0
VERTEX
  8
T18SSILL
 62
6
 10
-1071.897
 20
-1682.084
 30
3384.729
 70
    32
  0
VERTEX
  8
T18SSILL
 62
6
 10
-1064.663
 20
-1673.834
 30
3384.679
 70
    32
  0
VERTEX
  8
T18SSILL
 62
6
 10
-1054.507
 20
-1648.850
 30
3384.573
 70
    32
  0
VERTEX
  8
T18SSILL
 62
6
 10
-1051.278
 20
-1650.149
 30
3384.564
 70
    32
  0
VERTEX
  8
T18SSILL
 62
6
 10
-1028.979
 20
-1593.333
 30
3384.342
 70
    32
  0
SEQEND
  8
T18SSILL
  0
POLYLINE
  8
T18SSILL
 62
6
 66
     1
 70
     9
  0
VERTEX
  8
T18SSILL
 62
6
 10
-1126.097
 20
-1445.671
 30
3385.009
 70
    32
  0
VERTEX
  8
T18SSILL
 62
6
 10
-1123.220
 20
-1438.997
 30
3384.998
 70
    32
  0
VERTEX
  8
T18SSILL
 62
6
 10
-1137.911
 20
-1418.345
 30
3384.989
 70
    32
  0
VERTEX
  8
T18SSILL
 62
6
 10
-1141.672
 20
-1418.236
 30
3384.940
 70
    32
  0
VERTEX
  8
T18SSILL
 62
6
 10
-1166.973
 20
-1408.102
 30
3384.536
 70
    32
  0
VERTEX
  8
T18SSILL
 62
6
 10
-1167.648
 20
-1411.852
 30
3384.557
 70
    32
  0
VERTEX
  8
T18SSILL
 62
6
 10
-1171.185
 20
-1415.358
 30
3384.540
 70
    32
  0
VERTEX
  8
T18SSILL
 62
6
 10
-1178.702
 20
-1419.481
 30
3384.465
 70
    32
  0
VERTEX
  8
T18SSILL
 62
6
 10
-1190.961
 20
-1416.006
 30
3384.290
 70
    32
  0
VERTEX
  8
T18SSILL
 62
6
 10
-1196.286
 20
-1417.770
 30
3384.229
 70
    32
  0
VERTEX
  8
T18SSILL
 62
6
 10
-1202.786
 20
-1422.780
 30
3384.166
 70
    32
  0
VERTEX
  8
T18SSILL
 62
6
 10
-1209.880
 20
-1430.922
 30
3384.110
 70
    32
  0
VERTEX
  8
T18SSILL
 62
6
 10
-1217.897
 20
-1448.129
 30
3384.081
 70
    32
  0
VERTEX
  8
T18SSILL
 62
6
 10
-1211.523
 20
-1463.048
 30
3384.230
 70
    32
  0
VERTEX
  8
T18SSILL
 62
6
 10
-1208.865
 20
-1463.896
 30
3384.268
 70
    32
  0
VERTEX
  8
T18SSILL
 62
6
 10
-1203.633
 20
-1460.420
 30
3384.321
 70
    32
  0
VERTEX
  8
T18SSILL
 62
6
 10
-1194.868
 20
-1461.241
 30
3384.439
 70
    32
  0
VERTEX
  8
T18SSILL
 62
6
 10
-1189.953
 20
-1459.235
 30
3384.494
 70
    32
  0
VERTEX
  8
T18SSILL
 62
6
 10
-1182.871
 20
-1466.255
 30
3384.617
 70
    32
  0
VERTEX
  8
T18SSILL
 62
6
 10
-1113.804
 20
-1462.488
 30
3384.902
 70
    32
  0
VERTEX
  8
T18SSILL
 62
6
 10
-1111.605
 20
-1455.223
 30
3384.897
 70
    32
  0
VERTEX
  8
T18SSILL
 62
6
 10
-1117.251
 20
-1447.320
 30
3384.946
 70
    32
  0
VERTEX
  8
T18SSILL
 62
6
 10
-1123.264
 20
-1449.058
 30
3384.985
 70
    32
  0
SEQEND
  8
T18SSILL
  0
POLYLINE
  8
T18SSILL
 62
6
 66
     1
 70
     9
  0
VERTEX
  8
T18SSILL
 62
6
 10
-1204.377
 20
-1413.199
 30
3384.099
 70
    32
  0
VERTEX
  8
T18SSILL
 62
6
 10
-1204.513
 20
-1405.506
 30
3384.036
 70
    32
  0
VERTEX
  8
T18SSILL
 62
6
 10
-1233.084
 20
-1403.128
 30
3383.652
 70
    32
  0
VERTEX
  8
T18SSILL
 62
6
 10
-1234.558
 20
-1409.166
 30
3383.681
 70
    32
  0
VERTEX
  8
T18SSILL
 62
6
 10
-1225.947
 20
-1429.156
 30
3383.893
 70
    32
  0
SEQEND
  8
T18SSILL
  0
POLYLINE
  8
T18SSILL
 62
6
 66
     1
 70
     9
  0
VERTEX
  8
T18SSILL
 62
6
 10
-1203.843
 20
-1397.414
 30
3383.979
 70
    32
  0
VERTEX
  8
T18SSILL
 62
6
 10
-1195.928
 20
-1392.650
 30
3384.042
 70
    32
  0
VERTEX
  8
T18SSILL
 62
6
 10
-1188.494
 20
-1396.947
 30
3384.171
 70
    32
  0
VERTEX
  8
T18SSILL
 62
6
 10
-1179.883
 20
-1394.098
 30
3384.258
 70
    32
  0
VERTEX
  8
T18SSILL
 62
6
 10
-1175.417
 20
-1399.458
 30
3384.359
 70
    32
  0
VERTEX
  8
T18SSILL
 62
6
 10
-1160.438
 20
-1400.391
 30
3384.557
 70
    32
  0
VERTEX
  8
T18SSILL
 62
6
 10
-1158.521
 20
-1390.447
 30
3384.502
 70
    32
  0
VERTEX
  8
T18SSILL
 62
6
 10
-1164.835
 20
-1381.387
 30
3384.349
 70
    32
  0
VERTEX
  8
T18SSILL
 62
6
 10
-1173.590
 20
-1380.002
 30
3384.226
 70
    32
  0
VERTEX
  8
T18SSILL
 62
6
 10
-1182.900
 20
-1365.899
 30
3383.993
 70
    32
  0
VERTEX
  8
T18SSILL
 62
6
 10
-1254.326
 20
-1362.124
 30
3383.051
 70
    32
  0
VERTEX
  8
T18SSILL
 62
6
 10
-1242.765
 20
-1388.976
 30
3383.414
 70
    32
  0
VERTEX
  8
T18SSILL
 62
6
 10
-1229.465
 20
-1395.103
 30
3383.633
 70
    32
  0
SEQEND
  8
T18SSILL
  0
POLYLINE
  8
T18SSILL
 62
6
 66
     1
 70
     9
  0
VERTEX
  8
T18SSILL
 62
6
 10
-1194.696
 20
-1501.215
 30
3384.617
 70
    32
  0
VERTEX
  8
T18SSILL
 62
6
 10
-1187.143
 20
-1494.392
 30
3384.685
 70
    32
  0
VERTEX
  8
T18SSILL
 62
6
 10
-1188.255
 20
-1484.999
 30
3384.629
 70
    32
  0
VERTEX
  8
T18SSILL
 62
6
 10
-1194.709
 20
-1481.395
 30
3384.529
 70
    32
  0
VERTEX
  8
T18SSILL
 62
6
 10
-1197.480
 20
-1481.413
 30
3384.493
 70
    32
  0
VERTEX
  8
T18SSILL
 62
6
 10
-1197.740
 20
-1491.195
 30
3384.533
 70
    32
  0
SEQEND
  8
T18SSILL
  0
POLYLINE
  8
T18SSILL
 62
6
 66
     1
 70
     9
  0
VERTEX
  8
T18SSILL
 62
6
 10
-1115.681
 20
-1639.836
 30
3384.784
 70
    32
  0
VERTEX
  8
T18SSILL
 62
6
 10
-1127.964
 20
-1633.756
 30
3384.815
 70
    32
  0
VERTEX
  8
T18SSILL
 62
6
 10
-1140.662
 20
-1641.809
 30
3384.886
 70
    32
  0
VERTEX
  8
T18SSILL
 62
6
 10
-1137.526
 20
-1653.192
 30
3384.904
 70
    32
  0
VERTEX
  8
T18SSILL
 62
6
 10
-1141.062
 20
-1660.274
 30
3384.937
 70
    32
  0
VERTEX
  8
T18SSILL
 62
6
 10
-1140.881
 20
-1662.808
 30
3384.943
 70
    32
  0
VERTEX
  8
T18SSILL
 62
6
 10
-1133.394
 20
-1676.501
 30
3384.951
 70
    32
  0
VERTEX
  8
T18SSILL
 62
6
 10
-1123.273
 20
-1689.712
 30
3384.947
 70
    32
  0
VERTEX
  8
T18SSILL
 62
6
 10
-1076.904
 20
-1690.331
 30
3384.770
 70
    32
  0
VERTEX
  8
T18SSILL
 62
6
 10
-1104.367
 20
-1651.567
 30
3384.772
 70
    32
  0
VERTEX
  8
T18SSILL
 62
6
 10
-1107.900
 20
-1649.737
 30
3384.781
 70
    32
  0
SEQEND
  8
T18SSILL
  0
POLYLINE
  8
T18SSILL
 62
6
 66
     1
 70
     9
  0
VERTEX
  8
T18SSILL
 62
6
 10
-1340.549
 20
-1359.009
 30
3382.332
 70
    32
  0
VERTEX
  8
T18SSILL
 62
6
 10
-1344.713
 20
-1343.855
 30
3382.469
 70
    32
  0
VERTEX
  8
T18SSILL
 62
6
 10
-1356.814
 20
-1335.853
 30
3382.532
 70
    32
  0
VERTEX
  8
T18SSILL
 62
6
 10
-1365.270
 20
-1396.980
 30
3381.960
 70
    32
  0
VERTEX
  8
T18SSILL
 62
6
 10
-1361.945
 20
-1402.424
 30
3382.000
 70
    32
  0
VERTEX
  8
T18SSILL
 62
6
 10
-1361.515
 20
-1407.437
 30
3382.032
 70
    32
  0
VERTEX
  8
T18SSILL
 62
6
 10
-1321.658
 20
-1462.777
 30
3382.795
 70
    32
  0
VERTEX
  8
T18SSILL
 62
6
 10
-1310.144
 20
-1467.002
 30
3382.963
 70
    32
  0
VERTEX
  8
T18SSILL
 62
6
 10
-1311.286
 20
-1462.651
 30
3382.929
 70
    32
  0
VERTEX
  8
T18SSILL
 62
6
 10
-1308.349
 20
-1449.906
 30
3382.911
 70
    32
  0
VERTEX
  8
T18SSILL
 62
6
 10
-1310.007
 20
-1437.268
 30
3382.834
 70
    32
  0
VERTEX
  8
T18SSILL
 62
6
 10
-1307.674
 20
-1425.324
 30
3382.812
 70
    32
  0
VERTEX
  8
T18SSILL
 62
6
 10
-1311.408
 20
-1400.371
 30
3382.629
 70
    32
  0
VERTEX
  8
T18SSILL
 62
6
 10
-1328.909
 20
-1373.606
 30
3382.208
 70
    32
  0
SEQEND
  8
T18SSILL
  0
POLYLINE
  8
T18SSILL
 62
6
 66
     1
 70
     9
  0
VERTEX
  8
T18SSILL
 62
6
 10
1987.335
 20
-2865.780
 30
3383.836
 70
    32
  0
VERTEX
  8
T18SSILL
 62
6
 10
1994.364
 20
-2859.934
 30
3383.799
 70
    32
  0
VERTEX
  8
T18SSILL
 62
6
 10
1995.891
 20
-2856.649
 30
3383.788
 70
    32
  0
VERTEX
  8
T18SSILL
 62
6
 10
1994.425
 20
-2853.417
 30
3383.788
 70
    32
  0
VERTEX
  8
T18SSILL
 62
6
 10
1991.738
 20
-2850.823
 30
3383.793
 70
    32
  0
VERTEX
  8
T18SSILL
 62
6
 10
1983.539
 20
-2850.175
 30
3383.824
 70
    32
  0
VERTEX
  8
T18SSILL
 62
6
 10
1978.347
 20
-2845.336
 30
3383.835
 70
    32
  0
VERTEX
  8
T18SSILL
 62
6
 10
1967.311
 20
-2823.608
 30
3383.839
 70
    32
  0
VERTEX
  8
T18SSILL
 62
6
 10
1946.439
 20
-2793.248
 30
3383.866
 70
    32
  0
VERTEX
  8
T18SSILL
 62
6
 10
1944.400
 20
-2792.796
 30
3383.873
 70
    32
  0
VERTEX
  8
T18SSILL
 62
6
 10
1940.150
 20
-2795.821
 30
3383.894
 70
    32
  0
VERTEX
  8
T18SSILL
 62
6
 10
1940.019
 20
-2799.596
 30
3383.902
 70
    32
  0
VERTEX
  8
T18SSILL
 62
6
 10
1956.096
 20
-2821.091
 30
3383.878
 70
    32
  0
VERTEX
  8
T18SSILL
 62
6
 10
1977.161
 20
-2857.948
 30
3383.862
 70
    32
  0
VERTEX
  8
T18SSILL
 62
6
 10
1977.916
 20
-2860.840
 30
3383.864
 70
    32
  0
VERTEX
  8
T18SSILL
 62
6
 10
1975.794
 20
-2865.367
 30
3383.880
 70
    32
  0
VERTEX
  8
T18SSILL
 62
6
 10
1970.285
 20
-2867.489
 30
3383.905
 70
    32
  0
VERTEX
  8
T18SSILL
 62
6
 10
1966.374
 20
-2865.357
 30
3383.916
 70
    32
  0
VERTEX
  8
T18SSILL
 62
6
 10
1959.348
 20
-2851.394
 30
3383.918
 70
    32
  0
VERTEX
  8
T18SSILL
 62
6
 10
1944.211
 20
-2831.762
 30
3383.942
 70
    32
  0
VERTEX
  8
T18SSILL
 62
6
 10
1939.437
 20
-2827.431
 30
3383.953
 70
    32
  0
VERTEX
  8
T18SSILL
 62
6
 10
1927.686
 20
-2810.522
 30
3383.968
 70
    32
  0
VERTEX
  8
T18SSILL
 62
6
 10
1822.125
 20
-2771.463
 30
3383.890
 70
    32
  0
VERTEX
  8
T18SSILL
 62
6
 10
1810.107
 20
-2770.184
 30
3383.873
 70
    32
  0
VERTEX
  8
T18SSILL
 62
6
 10
1884.242
 20
-2723.252
 30
3383.927
 70
    32
  0
VERTEX
  8
T18SSILL
 62
6
 10
1889.973
 20
-2728.939
 30
3383.940
 70
    32
  0
VERTEX
  8
T18SSILL
 62
6
 10
1893.773
 20
-2734.603
 30
3383.950
 70
    32
  0
VERTEX
  8
T18SSILL
 62
6
 10
1896.075
 20
-2740.689
 30
3383.959
 70
    32
  0
VERTEX
  8
T18SSILL
 62
6
 10
1893.329
 20
-2750.407
 30
3383.965
 70
    32
  0
VERTEX
  8
T18SSILL
 62
6
 10
1884.056
 20
-2762.597
 30
3383.965
 70
    32
  0
VERTEX
  8
T18SSILL
 62
6
 10
1884.519
 20
-2768.223
 30
3383.971
 70
    32
  0
VERTEX
  8
T18SSILL
 62
6
 10
1896.593
 20
-2779.954
 30
3383.998
 70
    32
  0
VERTEX
  8
T18SSILL
 62
6
 10
1912.539
 20
-2767.928
 30
3383.951
 70
    32
  0
VERTEX
  8
T18SSILL
 62
6
 10
1924.513
 20
-2788.441
 30
3383.941
 70
    32
  0
VERTEX
  8
T18SSILL
 62
6
 10
1919.117
 20
-2791.804
 30
3383.968
 70
    32
  0
VERTEX
  8
T18SSILL
 62
6
 10
1925.149
 20
-2801.973
 30
3383.963
 70
    32
  0
VERTEX
  8
T18SSILL
 62
6
 10
1930.452
 20
-2799.048
 30
3383.937
 70
    32
  0
VERTEX
  8
T18SSILL
 62
6
 10
1933.131
 20
-2804.101
 30
3383.936
 70
    32
  0
VERTEX
  8
T18SSILL
 62
6
 10
1939.477
 20
-2800.907
 30
3383.906
 70
    32
  0
VERTEX
  8
T18SSILL
 62
6
 10
1905.159
 20
-2737.368
 30
3383.926
 70
    32
  0
VERTEX
  8
T18SSILL
 62
6
 10
1899.101
 20
-2729.482
 30
3383.935
 70
    32
  0
VERTEX
  8
T18SSILL
 62
6
 10
1894.631
 20
-2721.000
 30
3383.938
 70
    32
  0
VERTEX
  8
T18SSILL
 62
6
 10
1894.505
 20
-2716.695
 30
3383.930
 70
    32
  0
VERTEX
  8
T18SSILL
 62
6
 10
1964.362
 20
-2661.131
 30
3383.566
 70
    32
  0
VERTEX
  8
T18SSILL
 62
6
 10
2018.061
 20
-2675.681
 30
3383.447
 70
    32
  0
VERTEX
  8
T18SSILL
 62
6
 10
2024.468
 20
-2684.549
 30
3383.463
 70
    32
  0
VERTEX
  8
T18SSILL
 62
6
 10
2078.320
 20
-2802.812
 30
3383.657
 70
    32
  0
VERTEX
  8
T18SSILL
 62
6
 10
2078.649
 20
-2806.504
 30
3383.663
 70
    32
  0
VERTEX
  8
T18SSILL
 62
6
 10
2069.222
 20
-2826.127
 30
3383.683
 70
    32
  0
VERTEX
  8
T18SSILL
 62
6
 10
2034.871
 20
-2850.328
 30
3383.693
 70
    32
  0
VERTEX
  8
T18SSILL
 62
6
 10
2031.452
 20
-2851.181
 30
3383.692
 70
    32
  0
VERTEX
  8
T18SSILL
 62
6
 10
2025.012
 20
-2855.432
 30
3383.693
 70
    32
  0
VERTEX
  8
T18SSILL
 62
6
 10
2000.935
 20
-2873.113
 30
3383.797
 70
    32
  0
VERTEX
  8
T18SSILL
 62
6
 10
1995.887
 20
-2866.422
 30
3383.805
 70
    32
  0
VERTEX
  8
T18SSILL
 62
6
 10
1991.128
 20
-2870.169
 30
3383.830
 70
    32
  0
SEQEND
  8
T18SSILL
  0
POLYLINE
  8
T18SSILL
 62
6
 66
     1
 70
     9
  0
VERTEX
  8
T18SSILL
 62
6
 10
-608.446
 20
-589.911
 30
3395.591
 70
    32
  0
VERTEX
  8
T18SSILL
 62
6
 10
-606.464
 20
-559.767
 30
3395.948
 70
    32
  0
VERTEX
  8
T18SSILL
 62
6
 10
-599.860
 20
-539.004
 30
3396.199
 70
    32
  0
VERTEX
  8
T18SSILL
 62
6
 10
-609.012
 20
-538.073
 30
3396.202
 70
    32
  0
VERTEX
  8
T18SSILL
 62
6
 10
-610.190
 20
-530.502
 30
3396.290
 70
    32
  0
VERTEX
  8
T18SSILL
 62
6
 10
-613.229
 20
-525.426
 30
3396.282
 70
    32
  0
VERTEX
  8
T18SSILL
 62
6
 10
-616.707
 20
-522.106
 30
3396.263
 70
    32
  0
VERTEX
  8
T18SSILL
 62
6
 10
-617.672
 20
-515.902
 30
3396.245
 70
    32
  0
VERTEX
  8
T18SSILL
 62
6
 10
-605.597
 20
-505.709
 30
3396.260
 70
    32
  0
VERTEX
  8
T18SSILL
 62
6
 10
-591.813
 20
-497.556
 30
3396.286
 70
    32
  0
VERTEX
  8
T18SSILL
 62
6
 10
-574.452
 20
-493.529
 30
3396.333
 70
    32
  0
VERTEX
  8
T18SSILL
 62
6
 10
-541.726
 20
-512.490
 30
3396.484
 70
    32
  0
VERTEX
  8
T18SSILL
 62
6
 10
-536.167
 20
-521.843
 30
3396.460
 70
    32
  0
VERTEX
  8
T18SSILL
 62
6
 10
-535.983
 20
-537.488
 30
3396.212
 70
    32
  0
VERTEX
  8
T18SSILL
 62
6
 10
-538.511
 20
-558.388
 30
3395.865
 70
    32
  0
VERTEX
  8
T18SSILL
 62
6
 10
-602.824
 20
-608.091
 30
3395.334
 70
    32
  0
VERTEX
  8
T18SSILL
 62
6
 10
-610.571
 20
-606.546
 30
3395.393
 70
    32
  0
VERTEX
  8
T18SSILL
 62
6
 10
-609.763
 20
-599.572
 30
3395.476
 70
    32
  0
SEQEND
  8
T18SSILL
  0
POLYLINE
  8
T18SSILL
 62
6
 66
     1
 70
     9
  0
VERTEX
  8
T18SSILL
 62
6
 10
-622.903
 20
-597.570
 30
3395.487
 70
    32
  0
VERTEX
  8
T18SSILL
 62
6
 10
-623.990
 20
-619.247
 30
3395.231
 70
    32
  0
VERTEX
  8
T18SSILL
 62
6
 10
-624.939
 20
-622.813
 30
3395.188
 70
    32
  0
VERTEX
  8
T18SSILL
 62
6
 10
-627.750
 20
-616.138
 30
3395.264
 70
    32
  0
VERTEX
  8
T18SSILL
 62
6
 10
-629.244
 20
-598.484
 30
3395.471
 70
    32
  0
VERTEX
  8
T18SSILL
 62
6
 10
-628.314
 20
-584.063
 30
3395.642
 70
    32
  0
VERTEX
  8
T18SSILL
 62
6
 10
-625.908
 20
-583.026
 30
3395.656
 70
    32
  0
VERTEX
  8
T18SSILL
 62
6
 10
-624.766
 20
-585.573
 30
3395.627
 70
    32
  0
VERTEX
  8
T18SSILL
 62
6
 10
-624.361
 20
-590.210
 30
3395.573
 70
    32
  0
SEQEND
  8
T18SSILL
  0
POLYLINE
  8
T18SSILL
 62
6
 66
     1
 70
     9
  0
VERTEX
  8
T18SSILL
 62
6
 10
1655.826
 20
-2721.259
 30
3383.789
 70
    32
  0
VERTEX
  8
T18SSILL
 62
6
 10
1653.489
 20
-2725.975
 30
3383.789
 70
    32
  0
VERTEX
  8
T18SSILL
 62
6
 10
1652.365
 20
-2732.110
 30
3383.789
 70
    32
  0
VERTEX
  8
T18SSILL
 62
6
 10
1648.867
 20
-2753.851
 30
3383.790
 70
    32
  0
VERTEX
  8
T18SSILL
 62
6
 10
1649.167
 20
-2758.334
 30
3383.790
 70
    32
  0
VERTEX
  8
T18SSILL
 62
6
 10
1676.371
 20
-2791.053
 30
3383.810
 70
    32
  0
VERTEX
  8
T18SSILL
 62
6
 10
1679.004
 20
-2798.900
 30
3383.819
 70
    32
  0
VERTEX
  8
T18SSILL
 62
6
 10
1694.974
 20
-2807.865
 30
3383.831
 70
    32
  0
VERTEX
  8
T18SSILL
 62
6
 10
1698.867
 20
-2813.091
 30
3383.837
 70
    32
  0
VERTEX
  8
T18SSILL
 62
6
 10
1704.043
 20
-2815.156
 30
3383.840
 70
    32
  0
VERTEX
  8
T18SSILL
 62
6
 10
1736.482
 20
-2795.516
 30
3383.828
 70
    32
  0
VERTEX
  8
T18SSILL
 62
6
 10
1746.085
 20
-2785.174
 30
3383.820
 70
    32
  0
VERTEX
  8
T18SSILL
 62
6
 10
1766.688
 20
-2773.026
 30
3383.813
 70
    32
  0
VERTEX
  8
T18SSILL
 62
6
 10
1770.337
 20
-2768.764
 30
3383.818
 70
    32
  0
VERTEX
  8
T18SSILL
 62
6
 10
1771.258
 20
-2765.085
 30
3383.816
 70
    32
  0
VERTEX
  8
T18SSILL
 62
6
 10
1740.097
 20
-2732.761
 30
3383.787
 70
    32
  0
VERTEX
  8
T18SSILL
 62
6
 10
1677.577
 20
-2777.717
 30
3383.798
 70
    32
  0
VERTEX
  8
T18SSILL
 62
6
 10
1673.252
 20
-2771.959
 30
3383.791
 70
    32
  0
VERTEX
  8
T18SSILL
 62
6
 10
1735.148
 20
-2727.698
 30
3383.785
 70
    32
  0
VERTEX
  8
T18SSILL
 62
6
 10
1721.086
 20
-2713.222
 30
3383.781
 70
    32
  0
VERTEX
  8
T18SSILL
 62
6
 10
1713.097
 20
-2682.127
 30
3383.762
 70
    32
  0
SEQEND
  8
T18SSILL
  0
POLYLINE
  8
T18SSILL
 62
6
 66
     1
 70
     9
  0
VERTEX
  8
T18SSILL
 62
6
 10
-2405.714
 20
688.493
 30
3389.736
 70
    32
  0
VERTEX
  8
T18SSILL
 62
6
 10
-2390.552
 20
671.957
 30
3390.063
 70
    32
  0
VERTEX
  8
T18SSILL
 62
6
 10
-2391.707
 20
667.043
 30
3389.942
 70
    32
  0
VERTEX
  8
T18SSILL
 62
6
 10
-2386.948
 20
660.172
 30
3390.033
 70
    32
  0
VERTEX
  8
T18SSILL
 62
6
 10
-2379.760
 20
659.765
 30
3390.320
 70
    32
  0
VERTEX
  8
T18SSILL
 62
6
 10
-2358.619
 20
637.222
 30
3390.844
 70
    32
  0
VERTEX
  8
T18SSILL
 62
6
 10
-2368.266
 20
628.772
 30
3390.323
 70
    32
  0
VERTEX
  8
T18SSILL
 62
6
 10
-2373.734
 20
634.818
 30
3390.191
 70
    32
  0
VERTEX
  8
T18SSILL
 62
6
 10
-2379.848
 20
630.056
 30
3389.869
 70
    32
  0
VERTEX
  8
T18SSILL
 62
6
 10
-2375.696
 20
624.803
 30
3389.960
 70
    32
  0
VERTEX
  8
T18SSILL
 62
6
 10
-2377.620
 20
622.040
 30
3389.840
 70
    32
  0
VERTEX
  8
T18SSILL
 62
6
 10
-2388.278
 20
613.952
 30
3389.283
 70
    32
  0
VERTEX
  8
T18SSILL
 62
6
 10
-2389.360
 20
614.263
 30
3389.243
 70
    32
  0
VERTEX
  8
T18SSILL
 62
6
 10
-2392.585
 20
618.663
 30
3389.178
 70
    32
  0
VERTEX
  8
T18SSILL
 62
6
 10
-2398.546
 20
613.686
 30
3388.860
 70
    32
  0
VERTEX
  8
T18SSILL
 62
6
 10
-2395.648
 20
609.594
 30
3388.916
 70
    32
  0
VERTEX
  8
T18SSILL
 62
6
 10
-2406.799
 20
606.008
 30
3388.407
 70
    32
  0
VERTEX
  8
T18SSILL
 62
6
 10
-2425.327
 20
596.550
 30
3387.511
 70
    32
  0
VERTEX
  8
T18SSILL
 62
6
 10
-2427.876
 20
596.039
 30
3387.396
 70
    32
  0
VERTEX
  8
T18SSILL
 62
6
 10
-2432.099
 20
598.653
 30
3387.263
 70
    32
  0
VERTEX
  8
T18SSILL
 62
6
 10
-2438.734
 20
596.757
 30
3386.996
 70
    32
  0
VERTEX
  8
T18SSILL
 62
6
 10
-2461.475
 20
628.408
 30
3388.096
 70
    32
  0
VERTEX
  8
T18SSILL
 62
6
 10
-2461.989
 20
635.374
 30
3388.199
 70
    32
  0
VERTEX
  8
T18SSILL
 62
6
 10
-2467.262
 20
636.275
 30
3388.410
 70
    32
  0
VERTEX
  8
T18SSILL
 62
6
 10
-2480.494
 20
654.792
 30
3389.135
 70
    32
  0
VERTEX
  8
T18SSILL
 62
6
 10
-2516.414
 20
705.062
 30
3388.884
 70
    32
  0
VERTEX
  8
T18SSILL
 62
6
 10
-2513.812
 20
711.433
 30
3388.958
 70
    32
  0
VERTEX
  8
T18SSILL
 62
6
 10
-2522.905
 20
713.617
 30
3388.836
 70
    32
  0
VERTEX
  8
T18SSILL
 62
6
 10
-2571.791
 20
782.486
 30
3388.498
 70
    32
  0
VERTEX
  8
T18SSILL
 62
6
 10
-2568.494
 20
791.073
 30
3388.594
 70
    32
  0
VERTEX
  8
T18SSILL
 62
6
 10
-2570.956
 20
794.396
 30
3388.576
 70
    32
  0
VERTEX
  8
T18SSILL
 62
6
 10
-2579.807
 20
793.194
 30
3388.439
 70
    32
  0
VERTEX
  8
T18SSILL
 62
6
 10
-2603.026
 20
825.368
 30
3388.276
 70
    32
  0
VERTEX
  8
T18SSILL
 62
6
 10
-2609.918
 20
820.487
 30
3388.147
 70
    32
  0
VERTEX
  8
T18SSILL
 62
6
 10
-2587.775
 20
790.138
 30
3388.305
 70
    32
  0
VERTEX
  8
T18SSILL
 62
6
 10
-2588.356
 20
780.455
 30
3388.243
 70
    32
  0
VERTEX
  8
T18SSILL
 62
6
 10
-2582.873
 20
778.194
 30
3388.311
 70
    32
  0
VERTEX
  8
T18SSILL
 62
6
 10
-2579.245
 20
777.637
 30
3388.362
 70
    32
  0
VERTEX
  8
T18SSILL
 62
6
 10
-2529.420
 20
708.356
 30
3388.711
 70
    32
  0
VERTEX
  8
T18SSILL
 62
6
 10
-2530.288
 20
701.058
 30
3388.658
 70
    32
  0
VERTEX
  8
T18SSILL
 62
6
 10
-2522.505
 20
698.593
 30
3388.759
 70
    32
  0
VERTEX
  8
T18SSILL
 62
6
 10
-2475.769
 20
634.131
 30
3388.706
 70
    32
  0
VERTEX
  8
T18SSILL
 62
6
 10
-2476.443
 20
626.862
 30
3388.644
 70
    32
  0
VERTEX
  8
T18SSILL
 62
6
 10
-2474.609
 20
625.034
 30
3388.552
 70
    32
  0
VERTEX
  8
T18SSILL
 62
6
 10
-2468.268
 20
622.626
 30
3388.283
 70
    32
  0
VERTEX
  8
T18SSILL
 62
6
 10
-2445.048
 20
590.452
 30
3386.830
 70
    32
  0
VERTEX
  8
T18SSILL
 62
6
 10
-2451.094
 20
584.984
 30
3386.830
 70
    32
  0
VERTEX
  8
T18SSILL
 62
6
 10
-2448.668
 20
580.342
 30
3386.830
 70
    32
  0
VERTEX
  8
T18SSILL
 62
6
 10
-2455.569
 20
575.777
 30
3386.830
 70
    32
  0
VERTEX
  8
T18SSILL
 62
6
 10
-2450.990
 20
567.486
 30
3386.830
 70
    32
  0
VERTEX
  8
T18SSILL
 62
6
 10
-2441.729
 20
574.045
 30
3387.114
 70
    32
  0
VERTEX
  8
T18SSILL
 62
6
 10
-2439.300
 20
572.747
 30
3387.265
 70
    32
  0
VERTEX
  8
T18SSILL
 62
6
 10
-2433.664
 20
575.445
 30
3387.489
 70
    32
  0
VERTEX
  8
T18SSILL
 62
6
 10
-2424.671
 20
561.148
 30
3388.253
 70
    32
  0
VERTEX
  8
T18SSILL
 62
6
 10
-2324.519
 20
422.682
 30
3387.437
 70
    32
  0
VERTEX
  8
T18SSILL
 62
6
 10
-2317.342
 20
427.792
 30
3387.770
 70
    32
  0
VERTEX
  8
T18SSILL
 62
6
 10
-2415.098
 20
563.692
 30
3388.678
 70
    32
  0
VERTEX
  8
T18SSILL
 62
6
 10
-2399.290
 20
554.945
 30
3389.062
 70
    32
  0
VERTEX
  8
T18SSILL
 62
6
 10
-2393.640
 20
564.122
 30
3389.612
 70
    32
  0
VERTEX
  8
T18SSILL
 62
6
 10
-2416.961
 20
578.651
 30
3388.258
 70
    32
  0
VERTEX
  8
T18SSILL
 62
6
 10
-2416.327
 20
589.018
 30
3388.063
 70
    32
  0
VERTEX
  8
T18SSILL
 62
6
 10
-2413.189
 20
591.133
 30
3388.192
 70
    32
  0
VERTEX
  8
T18SSILL
 62
6
 10
-2393.988
 20
600.097
 30
3389.064
 70
    32
  0
VERTEX
  8
T18SSILL
 62
6
 10
-2388.039
 20
602.047
 30
3389.344
 70
    32
  0
VERTEX
  8
T18SSILL
 62
6
 10
-2381.075
 20
606.979
 30
3389.641
 70
    32
  0
VERTEX
  8
T18SSILL
 62
6
 10
-2369.137
 20
618.130
 30
3390.127
 70
    32
  0
VERTEX
  8
T18SSILL
 62
6
 10
-2363.998
 20
611.636
 30
3390.455
 70
    32
  0
VERTEX
  8
T18SSILL
 62
6
 10
-2367.265
 20
602.854
 30
3390.392
 70
    32
  0
VERTEX
  8
T18SSILL
 62
6
 10
-2367.307
 20
600.021
 30
3390.423
 70
    32
  0
VERTEX
  8
T18SSILL
 62
6
 10
-2366.801
 20
595.959
 30
3390.496
 70
    32
  0
VERTEX
  8
T18SSILL
 62
6
 10
-2364.172
 20
591.029
 30
3390.688
 70
    32
  0
VERTEX
  8
T18SSILL
 62
6
 10
-2353.979
 20
585.313
 30
3391.276
 70
    32
  0
VERTEX
  8
T18SSILL
 62
6
 10
-2344.263
 20
574.945
 30
3391.988
 70
    32
  0
VERTEX
  8
T18SSILL
 62
6
 10
-2332.419
 20
565.223
 30
3392.127
 70
    32
  0
VERTEX
  8
T18SSILL
 62
6
 10
-2299.848
 20
546.787
 30
3392.635
 70
    32
  0
VERTEX
  8
T18SSILL
 62
6
 10
-2287.390
 20
536.961
 30
3392.503
 70
    32
  0
VERTEX
  8
T18SSILL
 62
6
 10
-2270.470
 20
517.789
 30
3392.101
 70
    32
  0
VERTEX
  8
T18SSILL
 62
6
 10
-2261.281
 20
506.186
 30
3391.837
 70
    32
  0
VERTEX
  8
T18SSILL
 62
6
 10
-2237.822
 20
475.044
 30
3389.036
 70
    32
  0
VERTEX
  8
T18SSILL
 62
6
 10
-2235.145
 20
477.048
 30
3389.103
 70
    32
  0
VERTEX
  8
T18SSILL
 62
6
 10
-2233.132
 20
476.641
 30
3388.999
 70
    32
  0
VERTEX
  8
T18SSILL
 62
6
 10
-2217.076
 20
461.278
 30
3387.188
 70
    32
  0
VERTEX
  8
T18SSILL
 62
6
 10
-2211.060
 20
466.940
 30
3387.433
 70
    32
  0
VERTEX
  8
T18SSILL
 62
6
 10
-2218.708
 20
474.998
 30
3388.355
 70
    32
  0
VERTEX
  8
T18SSILL
 62
6
 10
-2226.249
 20
489.602
 30
3389.803
 70
    32
  0
VERTEX
  8
T18SSILL
 62
6
 10
-2231.106
 20
494.786
 30
3390.394
 70
    32
  0
VERTEX
  8
T18SSILL
 62
6
 10
-2232.416
 20
497.092
 30
3390.626
 70
    32
  0
VERTEX
  8
T18SSILL
 62
6
 10
-2231.381
 20
500.197
 30
3390.841
 70
    32
  0
VERTEX
  8
T18SSILL
 62
6
 10
-2238.452
 20
506.831
 30
3391.627
 70
    32
  0
VERTEX
  8
T18SSILL
 62
6
 10
-2247.351
 20
521.982
 30
3392.708
 70
    32
  0
VERTEX
  8
T18SSILL
 62
6
 10
-2247.431
 20
524.836
 30
3392.815
 70
    32
  0
VERTEX
  8
T18SSILL
 62
6
 10
-2249.121
 20
526.765
 30
3392.855
 70
    32
  0
VERTEX
  8
T18SSILL
 62
6
 10
-2251.146
 20
531.907
 30
3393.012
 70
    32
  0
VERTEX
  8
T18SSILL
 62
6
 10
-2257.798
 20
535.820
 30
3393.032
 70
    32
  0
VERTEX
  8
T18SSILL
 62
6
 10
-2264.489
 20
542.832
 30
3393.169
 70
    32
  0
VERTEX
  8
T18SSILL
 62
6
 10
-2265.423
 20
544.758
 30
3393.224
 70
    32
  0
VERTEX
  8
T18SSILL
 62
6
 10
-2278.667
 20
557.369
 30
3393.448
 70
    32
  0
VERTEX
  8
T18SSILL
 62
6
 10
-2272.271
 20
571.170
 30
3393.786
 70
    32
  0
VERTEX
  8
T18SSILL
 62
6
 10
-2297.866
 20
589.804
 30
3393.602
 70
    32
  0
VERTEX
  8
T18SSILL
 62
6
 10
-2312.580
 20
598.248
 30
3393.151
 70
    32
  0
VERTEX
  8
T18SSILL
 62
6
 10
-2313.669
 20
597.046
 30
3393.159
 70
    32
  0
VERTEX
  8
T18SSILL
 62
6
 10
-2315.733
 20
600.112
 30
3393.006
 70
    32
  0
VERTEX
  8
T18SSILL
 62
6
 10
-2306.486
 20
608.062
 30
3393.014
 70
    32
  0
VERTEX
  8
T18SSILL
 62
6
 10
-2311.721
 20
614.025
 30
3392.684
 70
    32
  0
VERTEX
  8
T18SSILL
 62
6
 10
-2316.594
 20
609.851
 30
3392.679
 70
    32
  0
VERTEX
  8
T18SSILL
 62
6
 10
-2324.134
 20
608.930
 30
3392.500
 70
    32
  0
VERTEX
  8
T18SSILL
 62
6
 10
-2329.357
 20
612.346
 30
3392.210
 70
    32
  0
VERTEX
  8
T18SSILL
 62
6
 10
-2316.037
 20
621.242
 30
3392.340
 70
    32
  0
VERTEX
  8
T18SSILL
 62
6
 10
-2304.455
 20
625.133
 30
3392.538
 70
    32
  0
VERTEX
  8
T18SSILL
 62
6
 10
-2301.655
 20
627.116
 30
3392.440
 70
    32
  0
VERTEX
  8
T18SSILL
 62
6
 10
-2306.156
 20
634.385
 30
3392.203
 70
    32
  0
VERTEX
  8
T18SSILL
 62
6
 10
-2308.205
 20
636.060
 30
3392.094
 70
    32
  0
VERTEX
  8
T18SSILL
 62
6
 10
-2310.341
 20
636.488
 30
3392.022
 70
    32
  0
VERTEX
  8
T18SSILL
 62
6
 10
-2312.294
 20
639.093
 30
3391.887
 70
    32
  0
VERTEX
  8
T18SSILL
 62
6
 10
-2314.815
 20
647.980
 30
3391.791
 70
    32
  0
VERTEX
  8
T18SSILL
 62
6
 10
-2321.387
 20
649.039
 30
3391.673
 70
    32
  0
VERTEX
  8
T18SSILL
 62
6
 10
-2325.060
 20
648.594
 30
3391.612
 70
    32
  0
VERTEX
  8
T18SSILL
 62
6
 10
-2333.810
 20
644.660
 30
3391.480
 70
    32
  0
VERTEX
  8
T18SSILL
 62
6
 10
-2347.704
 20
635.358
 30
3391.262
 70
    32
  0
VERTEX
  8
T18SSILL
 62
6
 10
-2348.945
 20
636.959
 30
3391.235
 70
    32
  0
VERTEX
  8
T18SSILL
 62
6
 10
-2287.588
 20
692.491
 30
3391.577
 70
    32
  0
VERTEX
  8
T18SSILL
 62
6
 10
-2297.405
 20
703.002
 30
3391.362
 70
    32
  0
VERTEX
  8
T18SSILL
 62
6
 10
-2301.009
 20
699.264
 30
3391.370
 70
    32
  0
VERTEX
  8
T18SSILL
 62
6
 10
-2305.011
 20
703.544
 30
3391.282
 70
    32
  0
VERTEX
  8
T18SSILL
 62
6
 10
-2310.901
 20
698.618
 30
3391.283
 70
    32
  0
VERTEX
  8
T18SSILL
 62
6
 10
-2311.829
 20
683.946
 30
3391.443
 70
    32
  0
VERTEX
  8
T18SSILL
 62
6
 10
-2309.415
 20
681.451
 30
3391.495
 70
    32
  0
VERTEX
  8
T18SSILL
 62
6
 10
-2353.600
 20
641.855
 30
3391.119
 70
    32
  0
VERTEX
  8
T18SSILL
 62
6
 10
-2357.805
 20
646.423
 30
3391.016
 70
    32
  0
VERTEX
  8
T18SSILL
 62
6
 10
-2357.236
 20
653.079
 30
3391.139
 70
    32
  0
VERTEX
  8
T18SSILL
 62
6
 10
-2364.218
 20
659.130
 30
3390.945
 70
    32
  0
VERTEX
  8
T18SSILL
 62
6
 10
-2367.021
 20
656.390
 30
3390.789
 70
    32
  0
VERTEX
  8
T18SSILL
 62
6
 10
-2392.424
 20
684.646
 30
3390.177
 70
    32
  0
VERTEX
  8
T18SSILL
 62
6
 10
-2391.960
 20
690.688
 30
3390.287
 70
    32
  0
VERTEX
  8
T18SSILL
 62
6
 10
-2387.398
 20
695.491
 30
3390.546
 70
    32
  0
VERTEX
  8
T18SSILL
 62
6
 10
-2392.876
 20
701.797
 30
3390.417
 70
    32
  0
VERTEX
  8
T18SSILL
 62
6
 10
-2401.415
 20
694.448
 30
3389.957
 70
    32
  0
VERTEX
  8
T18SSILL
 62
6
 10
-2411.414
 20
705.370
 30
3390.223
 70
    32
  0
VERTEX
  8
T18SSILL
 62
6
 10
-2416.458
 20
701.148
 30
3390.091
 70
    32
  0
SEQEND
  8
T18SSILL
  0
TEXT
  8
T18SSILL
 62
6
 10
2885.531
 20
-3873.132
 30
3385.942
 40
0.200
  1
1850
 50
109.924
 41
 1.0 
  0
TEXT
  8
T18SSILL
 62
6
 10
-2285.889
 20
-601.187
 30
3393.969
 40
0.200
  1
1850
 50
109.924
 41
 1.0 
  0
POLYLINE
  8
T18SSILL
 62
7
 66
     1
 70
     8
  0
VERTEX
  8
T18SSILL
 62
7
 10
-610.236
 20
-626.606
 30
3394.500
 70
    32
  0
VERTEX
  8
T18SSILL
 62
7
 10
-607.601
 20
-628.802
 30
3394.500
 70
    32
  0
VERTEX
  8
T18SSILL
 62
7
 10
-605.001
 20
-632.561
 30
3394.500
 70
    32
  0
VERTEX
  8
T18SSILL
 62
7
 10
-602.875
 20
-636.127
 30
3394.500
 70
    32
  0
VERTEX
  8
T18SSILL
 62
7
 10
-600.029
 20
-640.360
 30
3394.500
 70
    32
  0
VERTEX
  8
T18SSILL
 62
7
 10
-598.606
 20
-644.453
 30
3394.500
 70
    32
  0
VERTEX
  8
T18SSILL
 62
7
 10
-597.305
 20
-649.406
 30
3394.500
 70
    32
  0
VERTEX
  8
T18SSILL
 62
7
 10
-593.370
 20
-652.164
 30
3394.500
 70
    32
  0
VERTEX
  8
T18SSILL
 62
7
 10
-584.411
 20
-650.220
 30
3394.500
 70
    32
  0
VERTEX
  8
T18SSILL
 62
7
 10
-576.044
 20
-660.983
 30
3394.500
 70
    32
  0
VERTEX
  8
T18SSILL
 62
7
 10
-569.695
 20
-684.376
 30
3394.500
 70
    32
  0
VERTEX
  8
T18SSILL
 62
7
 10
-570.394
 20
-689.969
 30
3394.500
 70
    32
  0
VERTEX
  8
T18SSILL
 62
7
 10
-567.679
 20
-699.460
 30
3394.500
 70
    32
  0
VERTEX
  8
T18SSILL
 62
7
 10
-562.825
 20
-700.893
 30
3394.500
 70
    32
  0
VERTEX
  8
T18SSILL
 62
7
 10
-556.715
 20
-697.219
 30
3394.500
 70
    32
  0
VERTEX
  8
T18SSILL
 62
7
 10
-559.417
 20
-683.923
 30
3394.500
 70
    32
  0
VERTEX
  8
T18SSILL
 62
7
 10
-557.555
 20
-677.069
 30
3394.500
 70
    32
  0
VERTEX
  8
T18SSILL
 62
7
 10
-557.136
 20
-671.933
 30
3394.500
 70
    32
  0
VERTEX
  8
T18SSILL
 62
7
 10
-558.495
 20
-666.292
 30
3394.500
 70
    32
  0
VERTEX
  8
T18SSILL
 62
7
 10
-557.647
 20
-650.976
 30
3394.500
 70
    32
  0
VERTEX
  8
T18SSILL
 62
7
 10
-570.144
 20
-647.802
 30
3394.500
 70
    32
  0
VERTEX
  8
T18SSILL
 62
7
 10
-572.736
 20
-643.621
 30
3394.500
 70
    32
  0
VERTEX
  8
T18SSILL
 62
7
 10
-576.902
 20
-640.402
 30
3394.500
 70
    32
  0
VERTEX
  8
T18SSILL
 62
7
 10
-591.203
 20
-612.010
 30
3394.500
 70
    32
  0
SEQEND
  8
T18SSILL
  0
POLYLINE
  8
T18SSILL
 62
6
 66
     1
 70
     9
  0
VERTEX
  8
T18SSILL
 62
6
 10
-273.663
 20
-905.200
 30
3390.514
 70
    32
  0
VERTEX
  8
T18SSILL
 62
6
 10
-261.340
 20
-919.063
 30
3390.563
 70
    32
  0
VERTEX
  8
T18SSILL
 62
6
 10
-257.909
 20
-924.942
 30
3390.572
 70
    32
  0
VERTEX
  8
T18SSILL
 62
6
 10
-259.529
 20
-931.793
 30
3390.549
 70
    32
  0
VERTEX
  8
T18SSILL
 62
6
 10
-268.163
 20
-939.964
 30
3390.479
 70
    32
  0
VERTEX
  8
T18SSILL
 62
6
 10
-272.565
 20
-935.884
 30
3390.459
 70
    32
  0
VERTEX
  8
T18SSILL
 62
6
 10
-277.946
 20
-932.849
 30
3390.432
 70
    32
  0
VERTEX
  8
T18SSILL
 62
6
 10
-287.302
 20
-938.824
 30
3390.362
 70
    32
  0
VERTEX
  8
T18SSILL
 62
6
 10
-298.318
 20
-949.826
 30
3390.272
 70
    32
  0
VERTEX
  8
T18SSILL
 62
6
 10
-299.604
 20
-958.939
 30
3390.245
 70
    32
  0
VERTEX
  8
T18SSILL
 62
6
 10
-294.102
 20
-968.096
 30
3390.261
 70
    32
  0
VERTEX
  8
T18SSILL
 62
6
 10
-294.543
 20
-969.727
 30
3390.255
 70
    32
  0
VERTEX
  8
T18SSILL
 62
6
 10
-297.871
 20
-974.559
 30
3390.219
 70
    32
  0
VERTEX
  8
T18SSILL
 62
6
 10
-301.159
 20
-981.977
 30
3390.166
 70
    32
  0
VERTEX
  8
T18SSILL
 62
6
 10
-307.758
 20
-981.841
 30
3390.149
 70
    32
  0
VERTEX
  8
T18SSILL
 62
6
 10
-368.504
 20
-896.483
 30
3389.944
 70
    32
  0
VERTEX
  8
T18SSILL
 62
6
 10
-387.024
 20
-870.460
 30
3390.668
 70
    32
  0
VERTEX
  8
T18SSILL
 62
6
 10
-390.380
 20
-868.036
 30
3390.669
 70
    32
  0
VERTEX
  8
T18SSILL
 62
6
 10
-400.919
 20
-864.524
 30
3391.058
 70
    32
  0
VERTEX
  8
T18SSILL
 62
6
 10
-404.345
 20
-859.518
 30
3391.221
 70
    32
  0
VERTEX
  8
T18SSILL
 62
6
 10
-404.978
 20
-855.600
 30
3391.277
 70
    32
  0
VERTEX
  8
T18SSILL
 62
6
 10
-409.985
 20
-848.487
 30
3391.514
 70
    32
  0
VERTEX
  8
T18SSILL
 62
6
 10
-431.230
 20
-736.508
 30
3393.824
 70
    32
  0
VERTEX
  8
T18SSILL
 62
6
 10
-442.595
 20
-737.682
 30
3393.457
 70
    32
  0
VERTEX
  8
T18SSILL
 62
6
 10
-423.793
 20
-833.591
 30
3391.839
 70
    32
  0
VERTEX
  8
T18SSILL
 62
6
 10
-425.075
 20
-839.055
 30
3391.731
 70
    32
  0
VERTEX
  8
T18SSILL
 62
6
 10
-424.775
 20
-846.626
 30
3391.607
 70
    32
  0
VERTEX
  8
T18SSILL
 62
6
 10
-427.006
 20
-849.067
 30
3391.521
 70
    32
  0
VERTEX
  8
T18SSILL
 62
6
 10
-501.161
 20
-803.583
 30
3391.731
 70
    32
  0
VERTEX
  8
T18SSILL
 62
6
 10
-502.094
 20
-800.115
 30
3391.740
 70
    32
  0
VERTEX
  8
T18SSILL
 62
6
 10
-507.163
 20
-794.780
 30
3391.754
 70
    32
  0
VERTEX
  8
T18SSILL
 62
6
 10
-508.230
 20
-792.113
 30
3391.775
 70
    32
  0
VERTEX
  8
T18SSILL
 62
6
 10
-506.630
 20
-786.645
 30
3391.846
 70
    32
  0
VERTEX
  8
T18SSILL
 62
6
 10
-525.037
 20
-772.775
 30
3391.978
 70
    32
  0
VERTEX
  8
T18SSILL
 62
6
 10
-527.172
 20
-763.174
 30
3391.930
 70
    32
  0
VERTEX
  8
T18SSILL
 62
6
 10
-531.220
 20
-748.728
 30
3391.952
 70
    32
  0
VERTEX
  8
T18SSILL
 62
6
 10
-532.561
 20
-743.892
 30
3395.000
 70
    32
  0
VERTEX
  8
T18SSILL
 62
6
 10
-533.418
 20
-731.924
 30
3395.000
 70
    32
  0
VERTEX
  8
T18SSILL
 62
6
 10
-543.490
 20
-728.775
 30
3395.000
 70
    32
  0
VERTEX
  8
T18SSILL
 62
6
 10
-548.817
 20
-712.274
 30
3395.000
 70
    32
  0
VERTEX
  8
T18SSILL
 62
6
 10
-560.197
 20
-715.715
 30
3395.000
 70
    32
  0
VERTEX
  8
T18SSILL
 62
6
 10
-546.500
 20
-750.281
 30
3395.000
 70
    32
  0
VERTEX
  8
T18SSILL
 62
6
 10
-545.846
 20
-752.238
 30
3392.059
 70
    32
  0
VERTEX
  8
T18SSILL
 62
6
 10
-542.511
 20
-767.708
 30
3392.114
 70
    32
  0
VERTEX
  8
T18SSILL
 62
6
 10
-548.914
 20
-773.042
 30
3392.181
 70
    32
  0
VERTEX
  8
T18SSILL
 62
6
 10
-631.150
 20
-720.797
 30
3393.402
 70
    32
  0
VERTEX
  8
T18SSILL
 62
6
 10
-633.698
 20
-716.669
 30
3393.490
 70
    32
  0
VERTEX
  8
T18SSILL
 62
6
 10
-639.846
 20
-710.521
 30
3393.627
 70
    32
  0
VERTEX
  8
T18SSILL
 62
6
 10
-646.118
 20
-696.891
 30
3393.914
 70
    32
  0
VERTEX
  8
T18SSILL
 62
6
 10
-649.651
 20
-664.077
 30
3394.580
 70
    32
  0
VERTEX
  8
T18SSILL
 62
6
 10
-648.352
 20
-656.296
 30
3394.733
 70
    32
  0
VERTEX
  8
T18SSILL
 62
6
 10
-610.236
 20
-626.606
 30
3395.053
 70
    32
  0
VERTEX
  8
T18SSILL
 62
6
 10
-607.601
 20
-628.802
 30
3395.002
 70
    32
  0
VERTEX
  8
T18SSILL
 62
6
 10
-600.029
 20
-640.360
 30
3394.765
 70
    32
  0
VERTEX
  8
T18SSILL
 62
6
 10
-596.567
 20
-652.146
 30
3394.545
 70
    32
  0
VERTEX
  8
T18SSILL
 62
6
 10
-589.928
 20
-651.338
 30
3394.525
 70
    32
  0
VERTEX
  8
T18SSILL
 62
6
 10
-586.713
 20
-649.476
 30
3394.541
 70
    32
  0
VERTEX
  8
T18SSILL
 62
6
 10
-578.581
 20
-639.093
 30
3394.678
 70
    32
  0
VERTEX
  8
T18SSILL
 62
6
 10
-584.009
 20
-632.735
 30
3394.815
 70
    32
  0
VERTEX
  8
T18SSILL
 62
6
 10
-589.420
 20
-630.645
 30
3394.878
 70
    32
  0
VERTEX
  8
T18SSILL
 62
6
 10
-593.144
 20
-628.168
 30
3394.940
 70
    32
  0
VERTEX
  8
T18SSILL
 62
6
 10
-598.695
 20
-617.840
 30
3395.146
 70
    32
  0
VERTEX
  8
T18SSILL
 62
6
 10
-511.880
 20
-550.285
 30
3396.114
 70
    32
  0
VERTEX
  8
T18SSILL
 62
6
 10
-503.711
 20
-550.765
 30
3396.345
 70
    32
  0
VERTEX
  8
T18SSILL
 62
6
 10
-491.135
 20
-553.657
 30
3396.626
 70
    32
  0
VERTEX
  8
T18SSILL
 62
6
 10
-484.856
 20
-561.047
 30
3396.642
 70
    32
  0
VERTEX
  8
T18SSILL
 62
6
 10
-476.316
 20
-567.655
 30
3396.659
 70
    32
  0
VERTEX
  8
T18SSILL
 62
6
 10
-472.719
 20
-572.868
 30
3396.670
 70
    32
  0
VERTEX
  8
T18SSILL
 62
6
 10
-461.112
 20
-598.219
 30
3396.416
 70
    32
  0
VERTEX
  8
T18SSILL
 62
6
 10
-452.197
 20
-593.897
 30
3396.718
 70
    32
  0
VERTEX
  8
T18SSILL
 62
6
 10
-461.954
 20
-571.201
 30
3396.675
 70
    32
  0
VERTEX
  8
T18SSILL
 62
6
 10
-442.441
 20
-580.893
 30
3396.705
 70
    32
  0
VERTEX
  8
T18SSILL
 62
6
 10
-437.867
 20
-582.231
 30
3396.711
 70
    32
  0
VERTEX
  8
T18SSILL
 62
6
 10
-432.223
 20
-582.350
 30
3396.715
 70
    32
  0
VERTEX
  8
T18SSILL
 62
6
 10
-426.978
 20
-585.050
 30
3396.723
 70
    32
  0
VERTEX
  8
T18SSILL
 62
6
 10
-420.768
 20
-586.389
 30
3396.732
 70
    32
  0
VERTEX
  8
T18SSILL
 62
6
 10
-417.618
 20
-589.205
 30
3396.739
 70
    32
  0
VERTEX
  8
T18SSILL
 62
6
 10
-415.387
 20
-593.892
 30
3396.746
 70
    32
  0
VERTEX
  8
T18SSILL
 62
6
 10
-411.674
 20
-596.732
 30
3396.753
 70
    32
  0
VERTEX
  8
T18SSILL
 62
6
 10
-404.959
 20
-611.866
 30
3396.782
 70
    32
  0
VERTEX
  8
T18SSILL
 62
6
 10
-394.169
 20
-609.636
 30
3396.786
 70
    32
  0
VERTEX
  8
T18SSILL
 62
6
 10
-387.558
 20
-602.292
 30
3396.787
 70
    32
  0
VERTEX
  8
T18SSILL
 62
6
 10
-385.604
 20
-600.644
 30
3396.788
 70
    32
  0
VERTEX
  8
T18SSILL
 62
6
 10
-383.433
 20
-600.037
 30
3396.790
 70
    32
  0
VERTEX
  8
T18SSILL
 62
6
 10
-381.564
 20
-598.124
 30
3396.791
 70
    32
  0
VERTEX
  8
T18SSILL
 62
6
 10
-375.861
 20
-609.641
 30
3396.808
 70
    32
  0
VERTEX
  8
T18SSILL
 62
6
 10
-360.657
 20
-649.180
 30
3396.873
 70
    32
  0
VERTEX
  8
T18SSILL
 62
6
 10
-361.133
 20
-652.252
 30
3396.878
 70
    32
  0
VERTEX
  8
T18SSILL
 62
6
 10
-363.528
 20
-655.530
 30
3396.881
 70
    32
  0
VERTEX
  8
T18SSILL
 62
6
 10
-353.721
 20
-662.082
 30
3396.899
 70
    32
  0
VERTEX
  8
T18SSILL
 62
6
 10
-349.138
 20
-668.644
 30
3396.912
 70
    32
  0
VERTEX
  8
T18SSILL
 62
6
 10
-345.033
 20
-670.978
 30
3396.919
 70
    32
  0
VERTEX
  8
T18SSILL
 62
6
 10
-336.116
 20
-673.933
 30
3396.930
 70
    32
  0
VERTEX
  8
T18SSILL
 62
6
 10
-318.600
 20
-685.957
 30
3396.962
 70
    32
  0
VERTEX
  8
T18SSILL
 62
6
 10
-300.670
 20
-704.653
 30
3397.005
 70
    32
  0
VERTEX
  8
T18SSILL
 62
6
 10
-289.513
 20
-721.984
 30
3397.040
 70
    32
  0
VERTEX
  8
T18SSILL
 62
6
 10
-288.087
 20
-727.805
 30
3397.050
 70
    32
  0
VERTEX
  8
T18SSILL
 62
6
 10
-294.129
 20
-733.098
 30
3397.054
 70
    32
  0
VERTEX
  8
T18SSILL
 62
6
 10
-294.946
 20
-736.746
 30
3397.059
 70
    32
  0
VERTEX
  8
T18SSILL
 62
6
 10
-297.625
 20
-740.232
 30
3397.063
 70
    32
  0
VERTEX
  8
T18SSILL
 62
6
 10
-292.715
 20
-745.900
 30
3397.075
 70
    32
  0
VERTEX
  8
T18SSILL
 62
6
 10
-297.398
 20
-749.327
 30
3397.077
 70
    32
  0
VERTEX
  8
T18SSILL
 62
6
 10
-298.682
 20
-752.337
 30
3397.081
 70
    32
  0
VERTEX
  8
T18SSILL
 62
6
 10
-291.255
 20
-756.382
 30
3397.093
 70
    32
  0
VERTEX
  8
T18SSILL
 62
6
 10
-278.757
 20
-765.868
 30
3397.117
 70
    32
  0
VERTEX
  8
T18SSILL
 62
6
 10
-254.872
 20
-794.042
 30
3397.179
 70
    32
  0
VERTEX
  8
T18SSILL
 62
6
 10
-249.712
 20
-809.879
 30
3397.207
 70
    32
  0
VERTEX
  8
T18SSILL
 62
6
 10
-255.377
 20
-811.518
 30
3397.159
 70
    32
  0
VERTEX
  8
T18SSILL
 62
6
 10
-261.768
 20
-812.163
 30
3396.953
 70
    32
  0
VERTEX
  8
T18SSILL
 62
6
 10
-295.934
 20
-796.742
 30
3396.326
 70
    32
  0
VERTEX
  8
T18SSILL
 62
6
 10
-300.141
 20
-806.031
 30
3395.967
 70
    32
  0
VERTEX
  8
T18SSILL
 62
6
 10
-253.698
 20
-825.404
 30
3396.862
 70
    32
  0
VERTEX
  8
T18SSILL
 62
6
 10
-253.270
 20
-825.919
 30
3396.036
 70
    32
  0
VERTEX
  8
T18SSILL
 62
6
 10
-252.236
 20
-827.616
 30
3396.035
 70
    32
  0
VERTEX
  8
T18SSILL
 62
6
 10
-249.833
 20
-837.942
 30
3396.038
 70
    32
  0
VERTEX
  8
T18SSILL
 62
6
 10
-246.962
 20
-846.303
 30
3396.001
 70
    32
  0
VERTEX
  8
T18SSILL
 62
6
 10
-247.362
 20
-846.576
 30
3398.878
 70
    32
  0
VERTEX
  8
T18SSILL
 62
6
 10
-251.637
 20
-852.257
 30
3398.878
 70
    32
  0
VERTEX
  8
T18SSILL
 62
6
 10
-255.642
 20
-851.648
 30
3398.878
 70
    32
  0
VERTEX
  8
T18SSILL
 62
6
 10
-263.446
 20
-842.693
 30
3398.878
 70
    32
  0
VERTEX
  8
T18SSILL
 62
6
 10
-271.012
 20
-851.535
 30
3398.878
 70
    32
  0
VERTEX
  8
T18SSILL
 62
6
 10
-269.709
 20
-866.257
 30
3398.878
 70
    32
  0
VERTEX
  8
T18SSILL
 62
6
 10
-259.945
 20
-871.102
 30
3398.878
 70
    32
  0
VERTEX
  8
T18SSILL
 62
6
 10
-251.750
 20
-877.036
 30
3398.878
 70
    32
  0
VERTEX
  8
T18SSILL
 62
6
 10
-242.640
 20
-882.399
 30
3398.878
 70
    32
  0
VERTEX
  8
T18SSILL
 62
6
 10
-235.715
 20
-877.359
 30
3398.878
 70
    32
  0
VERTEX
  8
T18SSILL
 62
6
 10
-231.782
 20
-879.380
 30
3398.878
 70
    32
  0
VERTEX
  8
T18SSILL
 62
6
 10
-231.179
 20
-879.615
 30
3396.029
 70
    32
  0
VERTEX
  8
T18SSILL
 62
6
 10
-228.468
 20
-882.801
 30
3394.857
 70
    32
  0
VERTEX
  8
T18SSILL
 62
6
 10
-225.571
 20
-892.453
 30
3391.717
 70
    32
  0
VERTEX
  8
T18SSILL
 62
6
 10
-224.809
 20
-896.472
 30
3391.386
 70
    32
  0
VERTEX
  8
T18SSILL
 62
6
 10
-231.616
 20
-901.017
 30
3391.128
 70
    32
  0
VERTEX
  8
T18SSILL
 62
6
 10
-241.646
 20
-899.967
 30
3391.101
 70
    32
  0
VERTEX
  8
T18SSILL
 62
6
 10
-250.326
 20
-896.294
 30
3391.307
 70
    32
  0
VERTEX
  8
T18SSILL
 62
6
 10
-252.138
 20
-893.371
 30
3391.530
 70
    32
  0
VERTEX
  8
T18SSILL
 62
6
 10
-253.952
 20
-892.083
 30
3391.616
 70
    32
  0
VERTEX
  8
T18SSILL
 62
6
 10
-259.144
 20
-893.921
 30
3391.404
 70
    32
  0
VERTEX
  8
T18SSILL
 62
6
 10
-261.190
 20
-897.380
 30
3391.093
 70
    32
  0
VERTEX
  8
T18SSILL
 62
6
 10
-264.082
 20
-896.554
 30
3391.129
 70
    32
  0
VERTEX
  8
T18SSILL
 62
6
 10
-265.716
 20
-894.917
 30
3391.246
 70
    32
  0
VERTEX
  8
T18SSILL
 62
6
 10
-275.528
 20
-857.534
 30
3394.241
 70
    32
  0
VERTEX
  8
T18SSILL
 62
6
 10
-278.478
 20
-857.077
 30
3394.245
 70
    32
  0
VERTEX
  8
T18SSILL
 62
6
 10
-291.912
 20
-847.950
 30
3394.656
 70
    32
  0
VERTEX
  8
T18SSILL
 62
6
 10
-298.761
 20
-847.078
 30
3394.478
 70
    32
  0
VERTEX
  8
T18SSILL
 62
6
 10
-301.430
 20
-840.750
 30
3394.672
 70
    32
  0
VERTEX
  8
T18SSILL
 62
6
 10
-303.486
 20
-840.620
 30
3394.613
 70
    32
  0
VERTEX
  8
T18SSILL
 62
6
 10
-314.293
 20
-845.804
 30
3394.044
 70
    32
  0
VERTEX
  8
T18SSILL
 62
6
 10
-319.428
 20
-833.872
 30
3394.407
 70
    32
  0
VERTEX
  8
T18SSILL
 62
6
 10
-323.946
 20
-827.699
 30
3394.536
 70
    32
  0
VERTEX
  8
T18SSILL
 62
6
 10
-325.132
 20
-822.356
 30
3394.734
 70
    32
  0
VERTEX
  8
T18SSILL
 62
6
 10
-334.427
 20
-824.691
 30
3394.338
 70
    32
  0
VERTEX
  8
T18SSILL
 62
6
 10
-332.487
 20
-831.661
 30
3394.093
 70
    32
  0
VERTEX
  8
T18SSILL
 62
6
 10
-327.786
 20
-843.148
 30
3393.736
 70
    32
  0
VERTEX
  8
T18SSILL
 62
6
 10
-319.618
 20
-857.437
 30
3393.365
 70
    32
  0
VERTEX
  8
T18SSILL
 62
6
 10
-299.463
 20
-881.259
 30
3391.996
 70
    32
  0
VERTEX
  8
T18SSILL
 62
6
 10
-287.703
 20
-892.266
 30
3391.216
 70
    32
  0
VERTEX
  8
T18SSILL
 62
6
 10
-281.270
 20
-897.037
 30
3390.893
 70
    32
  0
SEQEND
  8
T18SSILL
  0
POLYLINE
  8
T18SSILL
 62
6
 66
     1
 70
     9
  0
VERTEX
  8
T18SSILL
 62
6
 10
-1429.654
 20
-412.944
 30
3398.000
 70
    32
  0
VERTEX
  8
T18SSILL
 62
6
 10
-1409.200
 20
-416.913
 30
3398.000
 70
    32
  0
VERTEX
  8
T18SSILL
 62
6
 10
-1398.091
 20
-419.152
 30
3398.000
 70
    32
  0
VERTEX
  8
T18SSILL
 62
6
 10
-1390.476
 20
-425.778
 30
3398.000
 70
    32
  0
VERTEX
  8
T18SSILL
 62
6
 10
-1389.371
 20
-429.409
 30
3398.000
 70
    32
  0
VERTEX
  8
T18SSILL
 62
6
 10
-1388.547
 20
-439.206
 30
3398.000
 70
    32
  0
VERTEX
  8
T18SSILL
 62
6
 10
-1391.527
 20
-441.046
 30
3398.000
 70
    32
  0
VERTEX
  8
T18SSILL
 62
6
 10
-1392.377
 20
-441.450
 30
3398.000
 70
    32
  0
VERTEX
  8
T18SSILL
 62
6
 10
-1424.863
 20
-456.907
 30
3398.000
 70
    32
  0
VERTEX
  8
T18SSILL
 62
6
 10
-1427.083
 20
-457.879
 30
3398.000
 70
    32
  0
VERTEX
  8
T18SSILL
 62
6
 10
-1445.382
 20
-455.263
 30
3398.000
 70
    32
  0
VERTEX
  8
T18SSILL
 62
6
 10
-1463.488
 20
-448.596
 30
3398.000
 70
    32
  0
VERTEX
  8
T18SSILL
 62
6
 10
-1470.150
 20
-456.643
 30
3398.000
 70
    32
  0
VERTEX
  8
T18SSILL
 62
6
 10
-1455.424
 20
-461.967
 30
3398.000
 70
    32
  0
VERTEX
  8
T18SSILL
 62
6
 10
-1447.977
 20
-465.136
 30
3398.000
 70
    32
  0
VERTEX
  8
T18SSILL
 62
6
 10
-1446.031
 20
-469.065
 30
3398.000
 70
    32
  0
VERTEX
  8
T18SSILL
 62
6
 10
-1447.307
 20
-474.882
 30
3398.000
 70
    32
  0
VERTEX
  8
T18SSILL
 62
6
 10
-1460.824
 20
-484.774
 30
3398.000
 70
    32
  0
VERTEX
  8
T18SSILL
 62
6
 10
-1453.516
 20
-479.111
 30
3398.000
 70
    32
  0
VERTEX
  8
T18SSILL
 62
6
 10
-1454.421
 20
-478.774
 30
3397.000
 70
    32
  0
VERTEX
  8
T18SSILL
 62
6
 10
-1462.731
 20
-477.929
 30
3397.000
 70
    32
  0
VERTEX
  8
T18SSILL
 62
6
 10
-1468.640
 20
-473.749
 30
3397.000
 70
    32
  0
VERTEX
  8
T18SSILL
 62
6
 10
-1488.526
 20
-462.701
 30
3397.000
 70
    32
  0
VERTEX
  8
T18SSILL
 62
6
 10
-1490.743
 20
-470.260
 30
3397.000
 70
    32
  0
VERTEX
  8
T18SSILL
 62
6
 10
-1492.975
 20
-483.397
 30
3397.000
 70
    32
  0
VERTEX
  8
T18SSILL
 62
6
 10
-1493.185
 20
-484.039
 30
3398.000
 70
    32
  0
VERTEX
  8
T18SSILL
 62
6
 10
-1493.363
 20
-489.683
 30
3398.000
 70
    32
  0
VERTEX
  8
T18SSILL
 62
6
 10
-1496.810
 20
-491.207
 30
3398.000
 70
    32
  0
VERTEX
  8
T18SSILL
 62
6
 10
-1502.941
 20
-488.476
 30
3398.000
 70
    32
  0
VERTEX
  8
T18SSILL
 62
6
 10
-1511.476
 20
-495.095
 30
3398.000
 70
    32
  0
VERTEX
  8
T18SSILL
 62
6
 10
-1504.824
 20
-499.453
 30
3398.000
 70
    32
  0
VERTEX
  8
T18SSILL
 62
6
 10
-1505.105
 20
-501.807
 30
3398.000
 70
    32
  0
VERTEX
  8
T18SSILL
 62
6
 10
-1516.002
 20
-513.481
 30
3398.000
 70
    32
  0
VERTEX
  8
T18SSILL
 62
6
 10
-1509.785
 20
-519.391
 30
3398.000
 70
    32
  0
VERTEX
  8
T18SSILL
 62
6
 10
-1509.343
 20
-519.438
 30
3398.000
 70
    32
  0
VERTEX
  8
T18SSILL
 62
6
 10
-1515.001
 20
-524.006
 30
3398.000
 70
    32
  0
VERTEX
  8
T18SSILL
 62
6
 10
-1545.818
 20
-544.670
 30
3398.000
 70
    32
  0
VERTEX
  8
T18SSILL
 62
6
 10
-1553.682
 20
-550.647
 30
3398.000
 70
    32
  0
VERTEX
  8
T18SSILL
 62
6
 10
-1561.834
 20
-556.394
 30
3398.000
 70
    32
  0
VERTEX
  8
T18SSILL
 62
6
 10
-1556.120
 20
-564.895
 30
3398.000
 70
    32
  0
VERTEX
  8
T18SSILL
 62
6
 10
-1548.059
 20
-558.921
 30
3398.000
 70
    32
  0
VERTEX
  8
T18SSILL
 62
6
 10
-1540.986
 20
-553.982
 30
3398.000
 70
    32
  0
VERTEX
  8
T18SSILL
 62
6
 10
-1538.574
 20
-559.175
 30
3398.000
 70
    32
  0
VERTEX
  8
T18SSILL
 62
6
 10
-1527.828
 20
-569.641
 30
3398.000
 70
    32
  0
VERTEX
  8
T18SSILL
 62
6
 10
-1512.148
 20
-562.796
 30
3398.000
 70
    32
  0
VERTEX
  8
T18SSILL
 62
6
 10
-1518.592
 20
-544.255
 30
3398.000
 70
    32
  0
VERTEX
  8
T18SSILL
 62
6
 10
-1512.467
 20
-533.122
 30
3398.000
 70
    32
  0
VERTEX
  8
T18SSILL
 62
6
 10
-1509.343
 20
-530.502
 30
3398.000
 70
    32
  0
VERTEX
  8
T18SSILL
 62
6
 10
-1499.551
 20
-524.851
 30
3398.000
 70
    32
  0
VERTEX
  8
T18SSILL
 62
6
 10
-1499.840
 20
-525.018
 30
3398.000
 70
    32
  0
VERTEX
  8
T18SSILL
 62
6
 10
-1496.341
 20
-525.905
 30
3396.587
 70
    32
  0
VERTEX
  8
T18SSILL
 62
6
 10
-1489.984
 20
-528.219
 30
3396.579
 70
    32
  0
VERTEX
  8
T18SSILL
 62
6
 10
-1489.947
 20
-528.996
 30
3396.577
 70
    32
  0
VERTEX
  8
T18SSILL
 62
6
 10
-1489.605
 20
-536.074
 30
3396.562
 70
    32
  0
VERTEX
  8
T18SSILL
 62
6
 10
-1489.578
 20
-536.643
 30
3396.564
 70
    32
  0
VERTEX
  8
T18SSILL
 62
6
 10
-1486.716
 20
-540.184
 30
3396.571
 70
    32
  0
VERTEX
  8
T18SSILL
 62
6
 10
-1486.164
 20
-541.411
 30
3396.574
 70
    32
  0
VERTEX
  8
T18SSILL
 62
6
 10
-1483.924
 20
-546.391
 30
3395.759
 70
    32
  0
VERTEX
  8
T18SSILL
 62
6
 10
-1482.754
 20
-548.993
 30
3395.335
 70
    32
  0
VERTEX
  8
T18SSILL
 62
6
 10
-1480.501
 20
-554.002
 30
3394.519
 70
    32
  0
VERTEX
  8
T18SSILL
 62
6
 10
-1479.590
 20
-556.028
 30
3394.137
 70
    32
  0
VERTEX
  8
T18SSILL
 62
6
 10
-1479.173
 20
-557.452
 30
3393.883
 70
    32
  0
VERTEX
  8
T18SSILL
 62
6
 10
-1477.390
 20
-563.546
 30
3392.928
 70
    32
  0
VERTEX
  8
T18SSILL
 62
6
 10
-1475.478
 20
-570.079
 30
3391.902
 70
    32
  0
VERTEX
  8
T18SSILL
 62
6
 10
-1475.421
 20
-570.276
 30
3391.867
 70
    32
  0
VERTEX
  8
T18SSILL
 62
6
 10
-1473.906
 20
-574.024
 30
3391.201
 70
    32
  0
VERTEX
  8
T18SSILL
 62
6
 10
-1473.363
 20
-575.368
 30
3390.988
 70
    32
  0
VERTEX
  8
T18SSILL
 62
6
 10
-1471.407
 20
-587.970
 30
3389.078
 70
    32
  0
VERTEX
  8
T18SSILL
 62
6
 10
-1470.259
 20
-595.372
 30
3387.957
 70
    32
  0
VERTEX
  8
T18SSILL
 62
6
 10
-1469.546
 20
-599.968
 30
3387.257
 70
    32
  0
VERTEX
  8
T18SSILL
 62
6
 10
-1469.033
 20
-603.062
 30
3386.785
 70
    32
  0
VERTEX
  8
T18SSILL
 62
6
 10
-1467.927
 20
-609.745
 30
3386.136
 70
    32
  0
VERTEX
  8
T18SSILL
 62
6
 10
-1465.493
 20
-609.296
 30
3386.000
 70
    32
  0
VERTEX
  8
T18SSILL
 62
6
 10
-1458.849
 20
-608.071
 30
3386.000
 70
    32
  0
VERTEX
  8
T18SSILL
 62
6
 10
-1456.984
 20
-607.727
 30
3386.088
 70
    32
  0
VERTEX
  8
T18SSILL
 62
6
 10
-1457.862
 20
-598.867
 30
3387.068
 70
    32
  0
VERTEX
  8
T18SSILL
 62
6
 10
-1458.108
 20
-596.375
 30
3387.444
 70
    32
  0
VERTEX
  8
T18SSILL
 62
6
 10
-1459.359
 20
-593.159
 30
3387.956
 70
    32
  0
VERTEX
  8
T18SSILL
 62
6
 10
-1461.887
 20
-586.660
 30
3388.986
 70
    32
  0
VERTEX
  8
T18SSILL
 62
6
 10
-1459.930
 20
-585.433
 30
3389.108
 70
    32
  0
VERTEX
  8
T18SSILL
 62
6
 10
-1460.090
 20
-584.355
 30
3389.271
 70
    32
  0
VERTEX
  8
T18SSILL
 62
6
 10
-1461.550
 20
-574.523
 30
3390.757
 70
    32
  0
VERTEX
  8
T18SSILL
 62
6
 10
-1462.464
 20
-571.672
 30
3391.203
 70
    32
  0
VERTEX
  8
T18SSILL
 62
6
 10
-1464.059
 20
-566.697
 30
3391.986
 70
    32
  0
VERTEX
  8
T18SSILL
 62
6
 10
-1464.557
 20
-565.142
 30
3392.210
 70
    32
  0
VERTEX
  8
T18SSILL
 62
6
 10
-1466.551
 20
-560.273
 30
3392.929
 70
    32
  0
VERTEX
  8
T18SSILL
 62
6
 10
-1468.606
 20
-555.257
 30
3393.653
 70
    32
  0
VERTEX
  8
T18SSILL
 62
6
 10
-1470.378
 20
-550.931
 30
3394.357
 70
    32
  0
VERTEX
  8
T18SSILL
 62
6
 10
-1470.913
 20
-550.004
 30
3394.516
 70
    32
  0
VERTEX
  8
T18SSILL
 62
6
 10
-1473.465
 20
-545.586
 30
3395.260
 70
    32
  0
VERTEX
  8
T18SSILL
 62
6
 10
-1473.536
 20
-545.329
 30
3395.299
 70
    32
  0
VERTEX
  8
T18SSILL
 62
6
 10
-1475.753
 20
-537.333
 30
3396.520
 70
    32
  0
VERTEX
  8
T18SSILL
 62
6
 10
-1475.799
 20
-537.166
 30
3396.520
 70
    32
  0
VERTEX
  8
T18SSILL
 62
6
 10
-1476.269
 20
-531.795
 30
3396.525
 70
    32
  0
VERTEX
  8
T18SSILL
 62
6
 10
-1476.547
 20
-527.179
 30
3396.580
 70
    32
  0
VERTEX
  8
T18SSILL
 62
6
 10
-1474.584
 20
-527.374
 30
3398.000
 70
    32
  0
VERTEX
  8
T18SSILL
 62
6
 10
-1468.053
 20
-527.663
 30
3398.000
 70
    32
  0
VERTEX
  8
T18SSILL
 62
6
 10
-1466.382
 20
-502.093
 30
3398.000
 70
    32
  0
VERTEX
  8
T18SSILL
 62
6
 10
-1465.990
 20
-501.264
 30
3398.000
 70
    32
  0
VERTEX
  8
T18SSILL
 62
6
 10
-1411.799
 20
-462.866
 30
3398.000
 70
    32
  0
VERTEX
  8
T18SSILL
 62
6
 10
-1391.517
 20
-453.762
 30
3398.000
 70
    32
  0
VERTEX
  8
T18SSILL
 62
6
 10
-1387.725
 20
-454.230
 30
3398.000
 70
    32
  0
VERTEX
  8
T18SSILL
 62
6
 10
-1385.432
 20
-457.393
 30
3398.000
 70
    32
  0
VERTEX
  8
T18SSILL
 62
6
 10
-1377.520
 20
-453.122
 30
3398.000
 70
    32
  0
VERTEX
  8
T18SSILL
 62
6
 10
-1367.025
 20
-448.823
 30
3398.000
 70
    32
  0
VERTEX
  8
T18SSILL
 62
6
 10
-1353.474
 20
-441.974
 30
3398.000
 70
    32
  0
VERTEX
  8
T18SSILL
 62
6
 10
-1347.572
 20
-432.010
 30
3397.814
 70
    32
  0
VERTEX
  8
T18SSILL
 62
6
 10
-1333.369
 20
-424.420
 30
3397.550
 70
    32
  0
VERTEX
  8
T18SSILL
 62
6
 10
-1326.149
 20
-436.580
 30
3397.460
 70
    32
  0
VERTEX
  8
T18SSILL
 62
6
 10
-1315.299
 20
-430.312
 30
3397.453
 70
    32
  0
VERTEX
  8
T18SSILL
 62
6
 10
-1318.775
 20
-424.345
 30
3397.416
 70
    32
  0
VERTEX
  8
T18SSILL
 62
6
 10
-1315.812
 20
-416.594
 30
3397.334
 70
    32
  0
VERTEX
  8
T18SSILL
 62
6
 10
-1309.115
 20
-412.196
 30
3397.192
 70
    32
  0
VERTEX
  8
T18SSILL
 62
6
 10
-1287.077
 20
-402.447
 30
3396.795
 70
    32
  0
VERTEX
  8
T18SSILL
 62
6
 10
-1244.666
 20
-378.608
 30
3396.170
 70
    32
  0
VERTEX
  8
T18SSILL
 62
6
 10
-1209.531
 20
-362.023
 30
3396.030
 70
    32
  0
VERTEX
  8
T18SSILL
 62
6
 10
-1160.474
 20
-339.733
 30
3395.835
 70
    32
  0
VERTEX
  8
T18SSILL
 62
6
 10
-1143.014
 20
-333.777
 30
3395.769
 70
    32
  0
VERTEX
  8
T18SSILL
 62
6
 10
-1128.673
 20
-326.139
 30
3395.711
 70
    32
  0
VERTEX
  8
T18SSILL
 62
6
 10
-1122.594
 20
-325.064
 30
3395.689
 70
    32
  0
VERTEX
  8
T18SSILL
 62
6
 10
-1114.473
 20
-319.482
 30
3395.654
 70
    32
  0
VERTEX
  8
T18SSILL
 62
6
 10
-1111.508
 20
-320.115
 30
3395.645
 70
    32
  0
VERTEX
  8
T18SSILL
 62
6
 10
-1091.410
 20
-306.677
 30
3395.568
 70
    32
  0
VERTEX
  8
T18SSILL
 62
6
 10
-1022.526
 20
-277.201
 30
3395.343
 70
    32
  0
VERTEX
  8
T18SSILL
 62
6
 10
-1005.887
 20
-277.582
 30
3395.231
 70
    32
  0
VERTEX
  8
T18SSILL
 62
6
 10
-994.051
 20
-285.138
 30
3393.978
 70
    32
  0
VERTEX
  8
T18SSILL
 62
6
 10
-880.632
 20
-443.899
 30
3393.969
 70
    32
  0
VERTEX
  8
T18SSILL
 62
6
 10
-794.706
 20
-564.176
 30
3395.790
 70
    32
  0
VERTEX
  8
T18SSILL
 62
6
 10
-760.953
 20
-611.422
 30
3395.440
 70
    32
  0
VERTEX
  8
T18SSILL
 62
6
 10
-759.425
 20
-615.216
 30
3395.417
 70
    32
  0
VERTEX
  8
T18SSILL
 62
6
 10
-756.403
 20
-616.463
 30
3395.399
 70
    32
  0
VERTEX
  8
T18SSILL
 62
6
 10
-754.981
 20
-616.165
 30
3395.395
 70
    32
  0
VERTEX
  8
T18SSILL
 62
6
 10
-711.342
 20
-675.219
 30
3394.487
 70
    32
  0
VERTEX
  8
T18SSILL
 62
6
 10
-715.382
 20
-682.421
 30
3394.351
 70
    32
  0
VERTEX
  8
T18SSILL
 62
6
 10
-709.585
 20
-687.515
 30
3394.237
 70
    32
  0
VERTEX
  8
T18SSILL
 62
6
 10
-693.758
 20
-693.100
 30
3394.091
 70
    32
  0
VERTEX
  8
T18SSILL
 62
6
 10
-560.785
 20
-776.377
 30
3392.357
 70
    32
  0
VERTEX
  8
T18SSILL
 62
6
 10
-553.049
 20
-783.178
 30
3392.357
 70
    32
  0
VERTEX
  8
T18SSILL
 62
6
 10
-543.578
 20
-794.381
 30
3392.220
 70
    32
  0
VERTEX
  8
T18SSILL
 62
6
 10
-537.309
 20
-807.717
 30
3392.090
 70
    32
  0
VERTEX
  8
T18SSILL
 62
6
 10
-526.905
 20
-816.919
 30
3393.001
 70
    32
  0
VERTEX
  8
T18SSILL
 62
6
 10
-523.837
 20
-825.320
 30
3393.001
 70
    32
  0
VERTEX
  8
T18SSILL
 62
6
 10
-522.096
 20
-826.861
 30
3393.001
 70
    32
  0
VERTEX
  8
T18SSILL
 62
6
 10
-512.766
 20
-848.487
 30
3391.003
 70
    32
  0
VERTEX
  8
T18SSILL
 62
6
 10
-505.919
 20
-860.339
 30
3389.881
 70
    32
  0
VERTEX
  8
T18SSILL
 62
6
 10
-500.012
 20
-873.424
 30
3387.702
 70
    32
  0
VERTEX
  8
T18SSILL
 62
6
 10
-496.609
 20
-872.522
 30
3387.737
 70
    32
  0
VERTEX
  8
T18SSILL
 62
6
 10
-490.227
 20
-881.093
 30
3387.765
 70
    32
  0
VERTEX
  8
T18SSILL
 62
6
 10
-487.800
 20
-879.920
 30
3387.789
 70
    32
  0
VERTEX
  8
T18SSILL
 62
6
 10
-484.923
 20
-878.116
 30
3387.955
 70
    32
  0
VERTEX
  8
T18SSILL
 62
6
 10
-480.249
 20
-874.597
 30
3388.090
 70
    32
  0
VERTEX
  8
T18SSILL
 62
6
 10
-491.109
 20
-862.230
 30
3388.417
 70
    32
  0
VERTEX
  8
T18SSILL
 62
6
 10
-493.089
 20
-855.481
 30
3389.078
 70
    32
  0
VERTEX
  8
T18SSILL
 62
6
 10
-498.318
 20
-851.571
 30
3390.343
 70
    32
  0
VERTEX
  8
T18SSILL
 62
6
 10
-500.212
 20
-843.878
 30
3391.614
 70
    32
  0
VERTEX
  8
T18SSILL
 62
6
 10
-497.509
 20
-837.645
 30
3391.893
 70
    32
  0
VERTEX
  8
T18SSILL
 62
6
 10
-497.509
 20
-836.681
 30
3393.001
 70
    32
  0
VERTEX
  8
T18SSILL
 62
6
 10
-502.228
 20
-828.655
 30
3393.001
 70
    32
  0
VERTEX
  8
T18SSILL
 62
6
 10
-506.496
 20
-820.386
 30
3393.001
 70
    32
  0
VERTEX
  8
T18SSILL
 62
6
 10
-504.629
 20
-817.452
 30
3393.001
 70
    32
  0
VERTEX
  8
T18SSILL
 62
6
 10
-499.961
 20
-816.519
 30
3393.001
 70
    32
  0
VERTEX
  8
T18SSILL
 62
6
 10
-497.960
 20
-816.385
 30
3391.554
 70
    32
  0
VERTEX
  8
T18SSILL
 62
6
 10
-408.894
 20
-871.603
 30
3390.377
 70
    32
  0
VERTEX
  8
T18SSILL
 62
6
 10
-409.421
 20
-873.536
 30
3390.306
 70
    32
  0
VERTEX
  8
T18SSILL
 62
6
 10
-392.574
 20
-882.967
 30
3390.205
 70
    32
  0
VERTEX
  8
T18SSILL
 62
6
 10
-295.143
 20
-1017.833
 30
3390.174
 70
    32
  0
VERTEX
  8
T18SSILL
 62
6
 10
-306.262
 20
-1026.283
 30
3390.134
 70
    32
  0
VERTEX
  8
T18SSILL
 62
6
 10
-301.536
 20
-1032.729
 30
3390.151
 70
    32
  0
VERTEX
  8
T18SSILL
 62
6
 10
-295.722
 20
-1028.478
 30
3390.172
 70
    32
  0
VERTEX
  8
T18SSILL
 62
6
 10
-285.006
 20
-1043.057
 30
3390.209
 70
    32
  0
VERTEX
  8
T18SSILL
 62
6
 10
-276.504
 20
-1043.706
 30
3390.239
 70
    32
  0
VERTEX
  8
T18SSILL
 62
6
 10
-185.777
 20
-1170.419
 30
3390.478
 70
    32
  0
VERTEX
  8
T18SSILL
 62
6
 10
-173.704
 20
-1183.196
 30
3390.506
 70
    32
  0
VERTEX
  8
T18SSILL
 62
6
 10
-156.327
 20
-1205.126
 30
3390.530
 70
    32
  0
VERTEX
  8
T18SSILL
 62
6
 10
-158.261
 20
-1208.288
 30
3390.517
 70
    32
  0
VERTEX
  8
T18SSILL
 62
6
 10
-151.738
 20
-1219.422
 30
3390.521
 70
    32
  0
VERTEX
  8
T18SSILL
 62
6
 10
-149.314
 20
-1221.243
 30
3390.527
 70
    32
  0
VERTEX
  8
T18SSILL
 62
6
 10
-146.969
 20
-1222.360
 30
3390.533
 70
    32
  0
VERTEX
  8
T18SSILL
 62
6
 10
-145.244
 20
-1222.186
 30
3390.540
 70
    32
  0
VERTEX
  8
T18SSILL
 62
6
 10
-128.047
 20
-1246.101
 30
3390.579
 70
    32
  0
VERTEX
  8
T18SSILL
 62
6
 10
-128.667
 20
-1248.082
 30
3390.576
 70
    32
  0
VERTEX
  8
T18SSILL
 62
6
 10
-127.468
 20
-1250.909
 30
3390.580
 70
    32
  0
VERTEX
  8
T18SSILL
 62
6
 10
-122.885
 20
-1256.271
 30
3390.596
 70
    32
  0
VERTEX
  8
T18SSILL
 62
6
 10
-120.139
 20
-1257.638
 30
3390.606
 70
    32
  0
VERTEX
  8
T18SSILL
 62
6
 10
-100.278
 20
-1285.488
 30
3390.675
 70
    32
  0
VERTEX
  8
T18SSILL
 62
6
 10
-101.726
 20
-1290.801
 30
3390.667
 70
    32
  0
VERTEX
  8
T18SSILL
 62
6
 10
-96.304
 20
-1290.316
 30
3390.689
 70
    32
  0
VERTEX
  8
T18SSILL
 62
6
 10
-71.775
 20
-1323.793
 30
3390.774
 70
    32
  0
VERTEX
  8
T18SSILL
 62
6
 10
-73.168
 20
-1330.372
 30
3390.766
 70
    32
  0
VERTEX
  8
T18SSILL
 62
6
 10
-68.015
 20
-1330.412
 30
3390.786
 70
    32
  0
VERTEX
  8
T18SSILL
 62
6
 10
-46.434
 20
-1360.163
 30
3390.922
 70
    32
  0
VERTEX
  8
T18SSILL
 62
6
 10
-42.476
 20
-1367.945
 30
3390.948
 70
    32
  0
VERTEX
  8
T18SSILL
 62
6
 10
-41.575
 20
-1372.299
 30
3390.952
 70
    32
  0
VERTEX
  8
T18SSILL
 62
6
 10
-35.578
 20
-1375.425
 30
3390.997
 70
    32
  0
VERTEX
  8
T18SSILL
 62
6
 10
-14.795
 20
-1404.235
 30
3391.142
 70
    32
  0
VERTEX
  8
T18SSILL
 62
6
 10
-17.628
 20
-1407.510
 30
3391.117
 70
    32
  0
VERTEX
  8
T18SSILL
 62
6
 10
-9.218
 20
-1418.243
 30
3391.176
 70
    32
  0
VERTEX
  8
T18SSILL
 62
6
 10
-6.083
 20
-1416.273
 30
3391.202
 70
    32
  0
VERTEX
  8
T18SSILL
 62
6
 10
2.095
 20
-1427.286
 30
3391.259
 70
    32
  0
VERTEX
  8
T18SSILL
 62
6
 10
1.399
 20
-1429.758
 30
3391.252
 70
    32
  0
VERTEX
  8
T18SSILL
 62
6
 10
4.952
 20
-1434.458
 30
3391.277
 70
    32
  0
VERTEX
  8
T18SSILL
 62
6
 10
6.223
 20
-1433.962
 30
3391.287
 70
    32
  0
VERTEX
  8
T18SSILL
 62
6
 10
25.197
 20
-1459.410
 30
3391.419
 70
    32
  0
VERTEX
  8
T18SSILL
 62
6
 10
22.833
 20
-1471.061
 30
3391.392
 70
    32
  0
VERTEX
  8
T18SSILL
 62
6
 10
12.173
 20
-1485.521
 30
3391.298
 70
    32
  0
VERTEX
  8
T18SSILL
 62
6
 10
9.547
 20
-1490.715
 30
3391.274
 70
    32
  0
VERTEX
  8
T18SSILL
 62
6
 10
-6.378
 20
-1502.602
 30
3391.140
 70
    32
  0
VERTEX
  8
T18SSILL
 62
6
 10
-11.034
 20
-1502.198
 30
3391.103
 70
    32
  0
VERTEX
  8
T18SSILL
 62
6
 10
-10.647
 20
-1505.403
 30
3391.104
 70
    32
  0
VERTEX
  8
T18SSILL
 62
6
 10
-11.886
 20
-1506.093
 30
3391.094
 70
    32
  0
VERTEX
  8
T18SSILL
 62
6
 10
-7.275
 20
-1512.089
 30
3391.126
 70
    32
  0
VERTEX
  8
T18SSILL
 62
6
 10
-3.852
 20
-1509.471
 30
3391.155
 70
    32
  0
VERTEX
  8
T18SSILL
 62
6
 10
-1.819
 20
-1510.162
 30
3391.170
 70
    32
  0
VERTEX
  8
T18SSILL
 62
6
 10
-0.741
 20
-1508.064
 30
3391.180
 70
    32
  0
VERTEX
  8
T18SSILL
 62
6
 10
27.100
 20
-1487.446
 30
3391.415
 70
    32
  0
VERTEX
  8
T18SSILL
 62
6
 10
45.418
 20
-1495.934
 30
3391.554
 70
    32
  0
VERTEX
  8
T18SSILL
 62
6
 10
49.262
 20
-1495.080
 30
3391.585
 70
    32
  0
VERTEX
  8
T18SSILL
 62
6
 10
65.873
 20
-1517.899
 30
3391.700
 70
    32
  0
VERTEX
  8
T18SSILL
 62
6
 10
64.235
 20
-1524.440
 30
3391.683
 70
    32
  0
VERTEX
  8
T18SSILL
 62
6
 10
66.611
 20
-1527.386
 30
3391.699
 70
    32
  0
VERTEX
  8
T18SSILL
 62
6
 10
72.520
 20
-1527.417
 30
3391.746
 70
    32
  0
VERTEX
  8
T18SSILL
 62
6
 10
97.975
 20
-1563.049
 30
3391.922
 70
    32
  0
VERTEX
  8
T18SSILL
 62
6
 10
93.496
 20
-1567.203
 30
3391.884
 70
    32
  0
VERTEX
  8
T18SSILL
 62
6
 10
97.233
 20
-1572.749
 30
3391.910
 70
    32
  0
VERTEX
  8
T18SSILL
 62
6
 10
102.864
 20
-1569.277
 30
3391.957
 70
    32
  0
VERTEX
  8
T18SSILL
 62
6
 10
122.679
 20
-1596.616
 30
3392.094
 70
    32
  0
VERTEX
  8
T18SSILL
 62
6
 10
120.799
 20
-1604.315
 30
3392.074
 70
    32
  0
VERTEX
  8
T18SSILL
 62
6
 10
124.456
 20
-1609.157
 30
3392.100
 70
    32
  0
VERTEX
  8
T18SSILL
 62
6
 10
131.664
 20
-1609.326
 30
3392.157
 70
    32
  0
VERTEX
  8
T18SSILL
 62
6
 10
144.665
 20
-1627.813
 30
3392.246
 70
    32
  0
VERTEX
  8
T18SSILL
 62
6
 10
146.485
 20
-1639.669
 30
3392.269
 70
    32
  0
VERTEX
  8
T18SSILL
 62
6
 10
147.511
 20
-1640.771
 30
3392.298
 70
    32
  0
VERTEX
  8
T18SSILL
 62
6
 10
155.206
 20
-1641.455
 30
3392.320
 70
    32
  0
VERTEX
  8
T18SSILL
 62
6
 10
174.793
 20
-1668.633
 30
3393.007
 70
    32
  0
VERTEX
  8
T18SSILL
 62
6
 10
172.893
 20
-1679.727
 30
3393.530
 70
    32
  0
VERTEX
  8
T18SSILL
 62
6
 10
174.301
 20
-1681.202
 30
3393.568
 70
    32
  0
VERTEX
  8
T18SSILL
 62
6
 10
180.829
 20
-1680.888
 30
3393.431
 70
    32
  0
VERTEX
  8
T18SSILL
 62
6
 10
182.428
 20
-1679.499
 30
3393.340
 70
    32
  0
VERTEX
  8
T18SSILL
 62
6
 10
205.360
 20
-1711.093
 30
3394.149
 70
    32
  0
VERTEX
  8
T18SSILL
 62
6
 10
203.500
 20
-1717.035
 30
3394.053
 70
    32
  0
VERTEX
  8
T18SSILL
 62
6
 10
205.045
 20
-1718.846
 30
3394.067
 70
    32
  0
VERTEX
  8
T18SSILL
 62
6
 10
211.572
 20
-1720.167
 30
3394.188
 70
    32
  0
VERTEX
  8
T18SSILL
 62
6
 10
234.613
 20
-1751.464
 30
3394.811
 70
    32
  0
VERTEX
  8
T18SSILL
 62
6
 10
230.679
 20
-1755.764
 30
3395.141
 70
    32
  0
VERTEX
  8
T18SSILL
 62
6
 10
234.681
 20
-1759.590
 30
3395.228
 70
    32
  0
VERTEX
  8
T18SSILL
 62
6
 10
240.344
 20
-1759.582
 30
3395.071
 70
    32
  0
VERTEX
  8
T18SSILL
 62
6
 10
259.657
 20
-1786.090
 30
3395.569
 70
    32
  0
VERTEX
  8
T18SSILL
 62
6
 10
261.190
 20
-1795.322
 30
3395.501
 70
    32
  0
VERTEX
  8
T18SSILL
 62
6
 10
262.173
 20
-1795.474
 30
3395.524
 70
    32
  0
VERTEX
  8
T18SSILL
 62
6
 10
268.031
 20
-1826.825
 30
3395.307
 70
    32
  0
VERTEX
  8
T18SSILL
 62
6
 10
271.414
 20
-1830.996
 30
3395.344
 70
    32
  0
VERTEX
  8
T18SSILL
 62
6
 10
275.914
 20
-1843.831
 30
3395.309
 70
    32
  0
VERTEX
  8
T18SSILL
 62
6
 10
281.178
 20
-1848.040
 30
3395.394
 70
    32
  0
VERTEX
  8
T18SSILL
 62
6
 10
283.657
 20
-1854.399
 30
3395.383
 70
    32
  0
VERTEX
  8
T18SSILL
 62
6
 10
285.070
 20
-1855.435
 30
3395.407
 70
    32
  0
VERTEX
  8
T18SSILL
 62
6
 10
293.503
 20
-1856.232
 30
3395.613
 70
    32
  0
VERTEX
  8
T18SSILL
 62
6
 10
296.305
 20
-1857.231
 30
3395.673
 70
    32
  0
VERTEX
  8
T18SSILL
 62
6
 10
300.312
 20
-1862.252
 30
3395.717
 70
    32
  0
VERTEX
  8
T18SSILL
 62
6
 10
304.666
 20
-1872.360
 30
3395.710
 70
    32
  0
VERTEX
  8
T18SSILL
 62
6
 10
317.429
 20
-1872.819
 30
3396.031
 70
    32
  0
VERTEX
  8
T18SSILL
 62
6
 10
324.258
 20
-1875.445
 30
3396.174
 70
    32
  0
VERTEX
  8
T18SSILL
 62
6
 10
411.130
 20
-1995.492
 30
3396.503
 70
    32
  0
VERTEX
  8
T18SSILL
 62
6
 10
559.626
 20
-2200.694
 30
3391.595
 70
    32
  0
VERTEX
  8
T18SSILL
 62
6
 10
566.281
 20
-2196.034
 30
3391.557
 70
    32
  0
VERTEX
  8
T18SSILL
 62
6
 10
420.159
 20
-1993.983
 30
3396.388
 70
    32
  0
VERTEX
  8
T18SSILL
 62
6
 10
362.134
 20
-1913.749
 30
3396.027
 70
    32
  0
VERTEX
  8
T18SSILL
 62
6
 10
362.984
 20
-1903.752
 30
3395.109
 70
    32
  0
VERTEX
  8
T18SSILL
 62
6
 10
364.419
 20
-1898.122
 30
3394.489
 70
    32
  0
VERTEX
  8
T18SSILL
 62
6
 10
366.276
 20
-1894.674
 30
3393.255
 70
    32
  0
VERTEX
  8
T18SSILL
 62
6
 10
371.699
 20
-1885.594
 30
3392.570
 70
    32
  0
VERTEX
  8
T18SSILL
 62
6
 10
378.427
 20
-1879.901
 30
3391.950
 70
    32
  0
VERTEX
  8
T18SSILL
 62
6
 10
374.436
 20
-1871.925
 30
3391.850
 70
    32
  0
VERTEX
  8
T18SSILL
 62
6
 10
375.482
 20
-1869.633
 30
3391.696
 70
    32
  0
VERTEX
  8
T18SSILL
 62
6
 10
371.411
 20
-1860.952
 30
3391.571
 70
    32
  0
VERTEX
  8
T18SSILL
 62
6
 10
366.375
 20
-1853.633
 30
3391.557
 70
    32
  0
VERTEX
  8
T18SSILL
 62
6
 10
366.200
 20
-1851.908
 30
3391.496
 70
    32
  0
VERTEX
  8
T18SSILL
 62
6
 10
367.217
 20
-1850.618
 30
3391.385
 70
    32
  0
VERTEX
  8
T18SSILL
 62
6
 10
364.298
 20
-1845.889
 30
3391.357
 70
    32
  0
VERTEX
  8
T18SSILL
 62
6
 10
359.481
 20
-1834.704
 30
3391.172
 70
    32
  0
VERTEX
  8
T18SSILL
 62
6
 10
348.474
 20
-1829.797
 30
3391.600
 70
    32
  0
VERTEX
  8
T18SSILL
 62
6
 10
343.674
 20
-1823.395
 30
3391.610
 70
    32
  0
VERTEX
  8
T18SSILL
 62
6
 10
331.897
 20
-1814.910
 30
3391.935
 70
    32
  0
VERTEX
  8
T18SSILL
 62
6
 10
326.444
 20
-1811.930
 30
3392.124
 70
    32
  0
VERTEX
  8
T18SSILL
 62
6
 10
318.049
 20
-1810.887
 30
3392.562
 70
    32
  0
VERTEX
  8
T18SSILL
 62
6
 10
311.877
 20
-1807.670
 30
3392.783
 70
    32
  0
VERTEX
  8
T18SSILL
 62
6
 10
308.715
 20
-1807.371
 30
3392.952
 70
    32
  0
VERTEX
  8
T18SSILL
 62
6
 10
305.031
 20
-1809.634
 30
3393.256
 70
    32
  0
VERTEX
  8
T18SSILL
 62
6
 10
298.083
 20
-1809.820
 30
3393.661
 70
    32
  0
VERTEX
  8
T18SSILL
 62
6
 10
291.220
 20
-1807.000
 30
3393.938
 70
    32
  0
VERTEX
  8
T18SSILL
 62
6
 10
286.369
 20
-1798.891
 30
3393.882
 70
    32
  0
VERTEX
  8
T18SSILL
 62
6
 10
279.343
 20
-1791.831
 30
3393.993
 70
    32
  0
VERTEX
  8
T18SSILL
 62
6
 10
271.226
 20
-1780.011
 30
3393.970
 70
    32
  0
VERTEX
  8
T18SSILL
 62
6
 10
257.284
 20
-1762.321
 30
3394.039
 70
    32
  0
VERTEX
  8
T18SSILL
 62
6
 10
254.016
 20
-1754.142
 30
3393.889
 70
    32
  0
VERTEX
  8
T18SSILL
 62
6
 10
250.454
 20
-1748.686
 30
3393.868
 70
    32
  0
VERTEX
  8
T18SSILL
 62
6
 10
243.717
 20
-1740.978
 30
3393.936
 70
    32
  0
VERTEX
  8
T18SSILL
 62
6
 10
240.753
 20
-1740.207
 30
3394.074
 70
    32
  0
VERTEX
  8
T18SSILL
 62
6
 10
237.581
 20
-1740.787
 30
3394.279
 70
    32
  0
VERTEX
  8
T18SSILL
 62
6
 10
150.428
 20
-1620.219
 30
3392.297
 70
    32
  0
VERTEX
  8
T18SSILL
 62
6
 10
61.929
 20
-1497.789
 30
3391.683
 70
    32
  0
VERTEX
  8
T18SSILL
 62
6
 10
63.314
 20
-1496.556
 30
3391.695
 70
    32
  0
VERTEX
  8
T18SSILL
 62
6
 10
47.181
 20
-1473.496
 30
3391.583
 70
    32
  0
VERTEX
  8
T18SSILL
 62
6
 10
50.094
 20
-1470.925
 30
3391.608
 70
    32
  0
VERTEX
  8
T18SSILL
 62
6
 10
45.497
 20
-1465.246
 30
3391.576
 70
    32
  0
VERTEX
  8
T18SSILL
 62
6
 10
42.764
 20
-1467.467
 30
3391.552
 70
    32
  0
VERTEX
  8
T18SSILL
 62
6
 10
14.058
 20
-1428.439
 30
3391.353
 70
    32
  0
VERTEX
  8
T18SSILL
 62
6
 10
14.522
 20
-1427.882
 30
3391.357
 70
    32
  0
VERTEX
  8
T18SSILL
 62
6
 10
10.889
 20
-1422.477
 30
3391.332
 70
    32
  0
VERTEX
  8
T18SSILL
 62
6
 10
9.967
 20
-1423.153
 30
3391.324
 70
    32
  0
VERTEX
  8
T18SSILL
 62
6
 10
2.039
 20
-1411.739
 30
3391.269
 70
    32
  0
VERTEX
  8
T18SSILL
 62
6
 10
3.037
 20
-1410.572
 30
3391.278
 70
    32
  0
VERTEX
  8
T18SSILL
 62
6
 10
-4.234
 20
-1400.203
 30
3391.228
 70
    32
  0
VERTEX
  8
T18SSILL
 62
6
 10
-5.510
 20
-1401.138
 30
3391.217
 70
    32
  0
VERTEX
  8
T18SSILL
 62
6
 10
-30.209
 20
-1367.132
 30
3391.045
 70
    32
  0
VERTEX
  8
T18SSILL
 62
6
 10
-30.180
 20
-1364.494
 30
3391.048
 70
    32
  0
VERTEX
  8
T18SSILL
 62
6
 10
-32.978
 20
-1363.056
 30
3391.026
 70
    32
  0
VERTEX
  8
T18SSILL
 62
6
 10
-60.620
 20
-1324.884
 30
3390.834
 70
    32
  0
VERTEX
  8
T18SSILL
 62
6
 10
-60.865
 20
-1321.575
 30
3390.835
 70
    32
  0
VERTEX
  8
T18SSILL
 62
6
 10
-63.195
 20
-1320.775
 30
3390.817
 70
    32
  0
VERTEX
  8
T18SSILL
 62
6
 10
-89.595
 20
-1284.745
 30
3390.717
 70
    32
  0
VERTEX
  8
T18SSILL
 62
6
 10
-89.986
 20
-1281.980
 30
3390.716
 70
    32
  0
VERTEX
  8
T18SSILL
 62
6
 10
-91.687
 20
-1281.592
 30
3390.710
 70
    32
  0
VERTEX
  8
T18SSILL
 62
6
 10
-112.347
 20
-1252.801
 30
3390.638
 70
    32
  0
VERTEX
  8
T18SSILL
 62
6
 10
-114.732
 20
-1247.463
 30
3390.631
 70
    32
  0
VERTEX
  8
T18SSILL
 62
6
 10
-118.144
 20
-1244.295
 30
3390.619
 70
    32
  0
VERTEX
  8
T18SSILL
 62
6
 10
-139.361
 20
-1215.041
 30
3390.575
 70
    32
  0
VERTEX
  8
T18SSILL
 62
6
 10
-138.707
 20
-1209.983
 30
3390.586
 70
    32
  0
VERTEX
  8
T18SSILL
 62
6
 10
-140.214
 20
-1207.926
 30
3390.584
 70
    32
  0
VERTEX
  8
T18SSILL
 62
6
 10
-143.866
 20
-1204.280
 30
3390.578
 70
    32
  0
VERTEX
  8
T18SSILL
 62
6
 10
-148.181
 20
-1203.300
 30
3390.564
 70
    32
  0
VERTEX
  8
T18SSILL
 62
6
 10
-177.679
 20
-1165.001
 30
3390.506
 70
    32
  0
VERTEX
  8
T18SSILL
 62
6
 10
-199.082
 20
-1135.024
 30
3390.455
 70
    32
  0
VERTEX
  8
T18SSILL
 62
6
 10
-144.931
 20
-1096.182
 30
3390.644
 70
    32
  0
VERTEX
  8
T18SSILL
 62
6
 10
-149.705
 20
-1091.641
 30
3390.631
 70
    32
  0
VERTEX
  8
T18SSILL
 62
6
 10
-202.915
 20
-1129.656
 30
3390.446
 70
    32
  0
VERTEX
  8
T18SSILL
 62
6
 10
-267.932
 20
-1038.594
 30
3390.270
 70
    32
  0
VERTEX
  8
T18SSILL
 62
6
 10
-272.834
 20
-1031.181
 30
3390.253
 70
    32
  0
VERTEX
  8
T18SSILL
 62
6
 10
-280.002
 20
-1016.795
 30
3390.228
 70
    32
  0
VERTEX
  8
T18SSILL
 62
6
 10
-281.846
 20
-1018.728
 30
3390.222
 70
    32
  0
VERTEX
  8
T18SSILL
 62
6
 10
-288.504
 20
-1009.559
 30
3390.199
 70
    32
  0
VERTEX
  8
T18SSILL
 62
6
 10
-289.524
 20
-997.807
 30
3390.196
 70
    32
  0
VERTEX
  8
T18SSILL
 62
6
 10
-287.170
 20
-997.139
 30
3390.204
 70
    32
  0
VERTEX
  8
T18SSILL
 62
6
 10
-269.024
 20
-1000.107
 30
3390.268
 70
    32
  0
VERTEX
  8
T18SSILL
 62
6
 10
-252.635
 20
-1004.392
 30
3390.326
 70
    32
  0
VERTEX
  8
T18SSILL
 62
6
 10
-237.967
 20
-1010.187
 30
3390.378
 70
    32
  0
VERTEX
  8
T18SSILL
 62
6
 10
-225.494
 20
-1018.179
 30
3390.422
 70
    32
  0
VERTEX
  8
T18SSILL
 62
6
 10
-219.821
 20
-1010.081
 30
3390.443
 70
    32
  0
VERTEX
  8
T18SSILL
 62
6
 10
-217.661
 20
-1004.618
 30
3390.451
 70
    32
  0
VERTEX
  8
T18SSILL
 62
6
 10
-217.749
 20
-999.963
 30
3390.451
 70
    32
  0
VERTEX
  8
T18SSILL
 62
6
 10
-235.157
 20
-992.709
 30
3390.389
 70
    32
  0
VERTEX
  8
T18SSILL
 62
6
 10
-235.878
 20
-985.015
 30
3390.387
 70
    32
  0
VERTEX
  8
T18SSILL
 62
6
 10
-253.268
 20
-986.422
 30
3390.325
 70
    32
  0
VERTEX
  8
T18SSILL
 62
6
 10
-254.867
 20
-984.437
 30
3390.320
 70
    32
  0
VERTEX
  8
T18SSILL
 62
6
 10
-255.974
 20
-984.279
 30
3390.316
 70
    32
  0
VERTEX
  8
T18SSILL
 62
6
 10
-259.996
 20
-986.528
 30
3390.301
 70
    32
  0
VERTEX
  8
T18SSILL
 62
6
 10
-266.970
 20
-987.916
 30
3390.277
 70
    32
  0
VERTEX
  8
T18SSILL
 62
6
 10
-278.247
 20
-986.933
 30
3390.237
 70
    32
  0
VERTEX
  8
T18SSILL
 62
6
 10
-283.113
 20
-985.862
 30
3390.219
 70
    32
  0
VERTEX
  8
T18SSILL
 62
6
 10
-288.664
 20
-983.438
 30
3390.200
 70
    32
  0
VERTEX
  8
T18SSILL
 62
6
 10
-283.325
 20
-970.649
 30
3390.274
 70
    32
  0
VERTEX
  8
T18SSILL
 62
6
 10
-278.319
 20
-964.589
 30
3390.323
 70
    32
  0
VERTEX
  8
T18SSILL
 62
6
 10
-270.257
 20
-955.577
 30
3390.396
 70
    32
  0
VERTEX
  8
T18SSILL
 62
6
 10
-250.303
 20
-937.535
 30
3390.551
 70
    32
  0
VERTEX
  8
T18SSILL
 62
6
 10
-237.672
 20
-949.251
 30
3390.504
 70
    32
  0
VERTEX
  8
T18SSILL
 62
6
 10
-222.811
 20
-958.085
 30
3390.480
 70
    32
  0
VERTEX
  8
T18SSILL
 62
6
 10
-212.903
 20
-961.633
 30
3390.479
 70
    32
  0
VERTEX
  8
T18SSILL
 62
6
 10
-207.985
 20
-964.531
 30
3390.488
 70
    32
  0
VERTEX
  8
T18SSILL
 62
6
 10
-204.085
 20
-967.535
 30
3390.501
 70
    32
  0
VERTEX
  8
T18SSILL
 62
6
 10
-190.874
 20
-981.780
 30
3390.547
 70
    32
  0
VERTEX
  8
T18SSILL
 62
6
 10
-170.989
 20
-987.944
 30
3390.618
 70
    32
  0
VERTEX
  8
T18SSILL
 62
6
 10
-168.494
 20
-987.171
 30
3390.626
 70
    32
  0
VERTEX
  8
T18SSILL
 62
6
 10
-163.014
 20
-980.425
 30
3390.646
 70
    32
  0
VERTEX
  8
T18SSILL
 62
6
 10
-174.678
 20
-976.439
 30
3390.605
 70
    32
  0
VERTEX
  8
T18SSILL
 62
6
 10
-180.071
 20
-973.787
 30
3390.586
 70
    32
  0
VERTEX
  8
T18SSILL
 62
6
 10
-185.482
 20
-969.501
 30
3390.567
 70
    32
  0
VERTEX
  8
T18SSILL
 62
6
 10
-194.793
 20
-958.698
 30
3390.535
 70
    32
  0
VERTEX
  8
T18SSILL
 62
6
 10
-194.653
 20
-952.884
 30
3390.572
 70
    32
  0
VERTEX
  8
T18SSILL
 62
6
 10
-209.058
 20
-941.291
 30
3390.614
 70
    32
  0
VERTEX
  8
T18SSILL
 62
6
 10
-212.659
 20
-940.150
 30
3390.614
 70
    32
  0
VERTEX
  8
T18SSILL
 62
6
 10
-216.190
 20
-934.564
 30
3390.642
 70
    32
  0
VERTEX
  8
T18SSILL
 62
6
 10
-222.409
 20
-930.226
 30
3390.656
 70
    32
  0
VERTEX
  8
T18SSILL
 62
6
 10
-223.428
 20
-925.501
 30
3390.683
 70
    32
  0
VERTEX
  8
T18SSILL
 62
6
 10
-222.532
 20
-923.621
 30
3390.697
 70
    32
  0
VERTEX
  8
T18SSILL
 62
6
 10
-222.638
 20
-914.258
 30
3390.755
 70
    32
  0
VERTEX
  8
T18SSILL
 62
6
 10
-221.897
 20
-910.576
 30
3390.780
 70
    32
  0
VERTEX
  8
T18SSILL
 62
6
 10
-213.077
 20
-906.846
 30
3390.949
 70
    32
  0
VERTEX
  8
T18SSILL
 62
6
 10
-211.087
 20
-902.120
 30
3391.177
 70
    32
  0
VERTEX
  8
T18SSILL
 62
6
 10
-208.192
 20
-899.675
 30
3391.322
 70
    32
  0
VERTEX
  8
T18SSILL
 62
6
 10
-212.512
 20
-890.197
 30
3391.662
 70
    32
  0
VERTEX
  8
T18SSILL
 62
6
 10
-212.983
 20
-879.428
 30
3392.239
 70
    32
  0
VERTEX
  8
T18SSILL
 62
6
 10
-218.594
 20
-879.503
 30
3392.438
 70
    32
  0
VERTEX
  8
T18SSILL
 62
6
 10
-234.725
 20
-823.676
 30
3397.240
 70
    32
  0
VERTEX
  8
T18SSILL
 62
6
 10
-253.983
 20
-757.436
 30
3397.122
 70
    32
  0
VERTEX
  8
T18SSILL
 62
6
 10
-263.493
 20
-728.657
 30
3397.070
 70
    32
  0
VERTEX
  8
T18SSILL
 62
6
 10
-272.439
 20
-726.705
 30
3397.061
 70
    32
  0
VERTEX
  8
T18SSILL
 62
6
 10
-295.195
 20
-693.673
 30
3396.992
 70
    32
  0
VERTEX
  8
T18SSILL
 62
6
 10
-314.339
 20
-675.104
 30
3396.949
 70
    32
  0
VERTEX
  8
T18SSILL
 62
6
 10
-323.419
 20
-669.545
 30
3396.933
 70
    32
  0
VERTEX
  8
T18SSILL
 62
6
 10
-340.315
 20
-657.175
 30
3396.901
 70
    32
  0
VERTEX
  8
T18SSILL
 62
6
 10
-344.782
 20
-652.708
 30
3396.891
 70
    32
  0
VERTEX
  8
T18SSILL
 62
6
 10
-349.360
 20
-645.708
 30
3396.876
 70
    32
  0
VERTEX
  8
T18SSILL
 62
6
 10
-359.197
 20
-622.289
 30
3396.839
 70
    32
  0
VERTEX
  8
T18SSILL
 62
6
 10
-361.745
 20
-613.149
 30
3396.828
 70
    32
  0
VERTEX
  8
T18SSILL
 62
6
 10
-367.497
 20
-598.290
 30
3396.808
 70
    32
  0
VERTEX
  8
T18SSILL
 62
6
 10
-374.934
 20
-586.191
 30
3396.788
 70
    32
  0
VERTEX
  8
T18SSILL
 62
6
 10
-373.011
 20
-578.246
 30
3396.783
 70
    32
  0
VERTEX
  8
T18SSILL
 62
6
 10
-380.674
 20
-564.350
 30
3396.762
 70
    32
  0
VERTEX
  8
T18SSILL
 62
6
 10
-383.608
 20
-562.574
 30
3396.757
 70
    32
  0
VERTEX
  8
T18SSILL
 62
6
 10
-382.644
 20
-558.382
 30
3396.754
 70
    32
  0
VERTEX
  8
T18SSILL
 62
6
 10
-382.857
 20
-554.071
 30
3396.750
 70
    32
  0
VERTEX
  8
T18SSILL
 62
6
 10
-386.080
 20
-544.009
 30
3396.737
 70
    32
  0
VERTEX
  8
T18SSILL
 62
6
 10
-388.811
 20
-538.489
 30
3396.729
 70
    32
  0
VERTEX
  8
T18SSILL
 62
6
 10
-393.756
 20
-534.263
 30
3396.719
 70
    32
  0
VERTEX
  8
T18SSILL
 62
6
 10
-397.621
 20
-523.472
 30
3396.705
 70
    32
  0
VERTEX
  8
T18SSILL
 62
6
 10
-409.870
 20
-524.154
 30
3396.690
 70
    32
  0
VERTEX
  8
T18SSILL
 62
6
 10
-405.295
 20
-543.360
 30
3396.713
 70
    32
  0
VERTEX
  8
T18SSILL
 62
6
 10
-404.630
 20
-554.096
 30
3396.723
 70
    32
  0
VERTEX
  8
T18SSILL
 62
6
 10
-403.055
 20
-557.737
 30
3396.728
 70
    32
  0
VERTEX
  8
T18SSILL
 62
6
 10
-405.896
 20
-563.086
 30
3396.730
 70
    32
  0
VERTEX
  8
T18SSILL
 62
6
 10
-409.659
 20
-567.473
 30
3396.729
 70
    32
  0
VERTEX
  8
T18SSILL
 62
6
 10
-411.675
 20
-574.396
 30
3396.733
 70
    32
  0
VERTEX
  8
T18SSILL
 62
6
 10
-414.167
 20
-575.457
 30
3396.731
 70
    32
  0
VERTEX
  8
T18SSILL
 62
6
 10
-431.428
 20
-573.161
 30
3396.707
 70
    32
  0
VERTEX
  8
T18SSILL
 62
6
 10
-436.872
 20
-570.934
 30
3396.699
 70
    32
  0
VERTEX
  8
T18SSILL
 62
6
 10
-460.803
 20
-560.117
 30
3396.660
 70
    32
  0
VERTEX
  8
T18SSILL
 62
6
 10
-489.926
 20
-545.036
 30
3396.613
 70
    32
  0
VERTEX
  8
T18SSILL
 62
6
 10
-493.438
 20
-540.088
 30
3396.603
 70
    32
  0
VERTEX
  8
T18SSILL
 62
6
 10
-492.653
 20
-535.324
 30
3396.599
 70
    32
  0
VERTEX
  8
T18SSILL
 62
6
 10
-477.303
 20
-523.379
 30
3396.607
 70
    32
  0
VERTEX
  8
T18SSILL
 62
6
 10
-473.509
 20
-525.803
 30
3396.614
 70
    32
  0
VERTEX
  8
T18SSILL
 62
6
 10
-470.487
 20
-530.124
 30
3396.622
 70
    32
  0
VERTEX
  8
T18SSILL
 62
6
 10
-470.610
 20
-532.302
 30
3396.623
 70
    32
  0
VERTEX
  8
T18SSILL
 62
6
 10
-468.642
 20
-537.853
 30
3396.631
 70
    32
  0
VERTEX
  8
T18SSILL
 62
6
 10
-466.147
 20
-542.789
 30
3396.638
 70
    32
  0
VERTEX
  8
T18SSILL
 62
6
 10
-463.776
 20
-543.315
 30
3396.641
 70
    32
  0
VERTEX
  8
T18SSILL
 62
6
 10
-463.747
 20
-546.855
 30
3396.645
 70
    32
  0
VERTEX
  8
T18SSILL
 62
6
 10
-461.825
 20
-550.693
 30
3396.650
 70
    32
  0
VERTEX
  8
T18SSILL
 62
6
 10
-452.847
 20
-546.964
 30
3396.658
 70
    32
  0
VERTEX
  8
T18SSILL
 62
6
 10
-452.589
 20
-543.988
 30
3396.656
 70
    32
  0
VERTEX
  8
T18SSILL
 62
6
 10
-449.478
 20
-540.211
 30
3396.656
 70
    32
  0
VERTEX
  8
T18SSILL
 62
6
 10
-446.930
 20
-535.228
 30
3396.655
 70
    32
  0
VERTEX
  8
T18SSILL
 62
6
 10
-452.159
 20
-522.875
 30
3396.638
 70
    32
  0
VERTEX
  8
T18SSILL
 62
6
 10
-453.695
 20
-515.771
 30
3396.629
 70
    32
  0
VERTEX
  8
T18SSILL
 62
6
 10
-445.966
 20
-513.926
 30
3396.637
 70
    32
  0
VERTEX
  8
T18SSILL
 62
6
 10
-445.756
 20
-500.593
 30
3396.626
 70
    32
  0
VERTEX
  8
T18SSILL
 62
6
 10
-431.212
 20
-487.049
 30
3396.631
 70
    32
  0
VERTEX
  8
T18SSILL
 62
6
 10
-435.341
 20
-479.057
 30
3396.619
 70
    32
  0
VERTEX
  8
T18SSILL
 62
6
 10
-426.173
 20
-457.028
 30
3396.611
 70
    32
  0
VERTEX
  8
T18SSILL
 62
6
 10
-436.133
 20
-452.532
 30
3396.595
 70
    32
  0
VERTEX
  8
T18SSILL
 62
6
 10
-441.297
 20
-460.139
 30
3396.595
 70
    32
  0
VERTEX
  8
T18SSILL
 62
6
 10
-447.498
 20
-463.582
 30
3396.591
 70
    32
  0
VERTEX
  8
T18SSILL
 62
6
 10
-452.381
 20
-468.343
 30
3396.589
 70
    32
  0
VERTEX
  8
T18SSILL
 62
6
 10
-458.107
 20
-470.662
 30
3396.584
 70
    32
  0
VERTEX
  8
T18SSILL
 62
6
 10
-461.954
 20
-469.485
 30
3396.578
 70
    32
  0
VERTEX
  8
T18SSILL
 62
6
 10
-473.443
 20
-462.512
 30
3396.558
 70
    32
  0
VERTEX
  8
T18SSILL
 62
6
 10
-476.395
 20
-443.207
 30
3396.533
 70
    32
  0
VERTEX
  8
T18SSILL
 62
6
 10
-484.793
 20
-424.254
 30
3396.460
 70
    32
  0
VERTEX
  8
T18SSILL
 62
6
 10
-480.545
 20
-389.227
 30
3396.391
 70
    32
  0
VERTEX
  8
T18SSILL
 62
6
 10
-480.668
 20
-383.061
 30
3396.376
 70
    32
  0
VERTEX
  8
T18SSILL
 62
6
 10
-479.895
 20
-379.408
 30
3396.370
 70
    32
  0
VERTEX
  8
T18SSILL
 62
6
 10
-476.523
 20
-372.926
 30
3396.366
 70
    32
  0
VERTEX
  8
T18SSILL
 62
6
 10
-474.398
 20
-365.513
 30
3396.355
 70
    32
  0
VERTEX
  8
T18SSILL
 62
6
 10
-485.482
 20
-364.934
 30
3396.317
 70
    32
  0
VERTEX
  8
T18SSILL
 62
6
 10
-486.747
 20
-372.030
 30
3396.330
 70
    32
  0
VERTEX
  8
T18SSILL
 62
6
 10
-499.041
 20
-391.793
 30
3396.337
 70
    32
  0
VERTEX
  8
T18SSILL
 62
6
 10
-499.129
 20
-395.043
 30
3396.344
 70
    32
  0
VERTEX
  8
T18SSILL
 62
6
 10
-499.023
 20
-398.257
 30
3396.352
 70
    32
  0
VERTEX
  8
T18SSILL
 62
6
 10
-496.177
 20
-409.956
 30
3396.389
 70
    32
  0
VERTEX
  8
T18SSILL
 62
6
 10
-496.879
 20
-417.510
 30
3396.405
 70
    32
  0
VERTEX
  8
T18SSILL
 62
6
 10
-493.839
 20
-437.956
 30
3396.463
 70
    32
  0
VERTEX
  8
T18SSILL
 62
6
 10
-494.067
 20
-443.068
 30
3396.475
 70
    32
  0
VERTEX
  8
T18SSILL
 62
6
 10
-495.542
 20
-449.005
 30
3396.484
 70
    32
  0
VERTEX
  8
T18SSILL
 62
6
 10
-496.543
 20
-450.305
 30
3396.484
 70
    32
  0
VERTEX
  8
T18SSILL
 62
6
 10
-499.564
 20
-451.693
 30
3396.477
 70
    32
  0
VERTEX
  8
T18SSILL
 62
6
 10
-500.459
 20
-464.552
 30
3396.505
 70
    32
  0
VERTEX
  8
T18SSILL
 62
6
 10
-475.372
 20
-508.096
 30
3396.596
 70
    32
  0
VERTEX
  8
T18SSILL
 62
6
 10
-477.813
 20
-511.135
 30
3396.596
 70
    32
  0
VERTEX
  8
T18SSILL
 62
6
 10
-521.051
 20
-544.774
 30
3396.061
 70
    32
  0
VERTEX
  8
T18SSILL
 62
6
 10
-523.339
 20
-523.910
 30
3396.438
 70
    32
  0
VERTEX
  8
T18SSILL
 62
6
 10
-521.488
 20
-510.362
 30
3396.542
 70
    32
  0
VERTEX
  8
T18SSILL
 62
6
 10
-527.469
 20
-496.191
 30
3396.492
 70
    32
  0
VERTEX
  8
T18SSILL
 62
6
 10
-530.508
 20
-472.893
 30
3396.427
 70
    32
  0
VERTEX
  8
T18SSILL
 62
6
 10
-542.982
 20
-473.947
 30
3396.388
 70
    32
  0
VERTEX
  8
T18SSILL
 62
6
 10
-539.869
 20
-495.716
 30
3396.450
 70
    32
  0
VERTEX
  8
T18SSILL
 62
6
 10
-543.049
 20
-497.380
 30
3396.444
 70
    32
  0
VERTEX
  8
T18SSILL
 62
6
 10
-555.444
 20
-488.473
 30
3396.382
 70
    32
  0
VERTEX
  8
T18SSILL
 62
6
 10
-581.455
 20
-480.968
 30
3396.280
 70
    32
  0
VERTEX
  8
T18SSILL
 62
6
 10
-609.883
 20
-494.836
 30
3396.220
 70
    32
  0
VERTEX
  8
T18SSILL
 62
6
 10
-623.856
 20
-505.302
 30
3396.200
 70
    32
  0
VERTEX
  8
T18SSILL
 62
6
 10
-631.939
 20
-496.092
 30
3396.152
 70
    32
  0
VERTEX
  8
T18SSILL
 62
6
 10
-640.968
 20
-499.571
 30
3396.131
 70
    32
  0
VERTEX
  8
T18SSILL
 62
6
 10
-657.690
 20
-509.040
 30
3396.099
 70
    32
  0
VERTEX
  8
T18SSILL
 62
6
 10
-656.074
 20
-511.341
 30
3396.109
 70
    32
  0
VERTEX
  8
T18SSILL
 62
6
 10
-661.853
 20
-513.590
 30
3396.096
 70
    32
  0
VERTEX
  8
T18SSILL
 62
6
 10
-662.115
 20
-527.291
 30
3396.127
 70
    32
  0
VERTEX
  8
T18SSILL
 62
6
 10
-655.018
 20
-537.778
 30
3396.164
 70
    32
  0
VERTEX
  8
T18SSILL
 62
6
 10
-640.542
 20
-549.757
 30
3396.036
 70
    32
  0
VERTEX
  8
T18SSILL
 62
6
 10
-639.752
 20
-553.885
 30
3395.988
 70
    32
  0
VERTEX
  8
T18SSILL
 62
6
 10
-642.122
 20
-566.533
 30
3395.836
 70
    32
  0
VERTEX
  8
T18SSILL
 62
6
 10
-643.439
 20
-580.586
 30
3395.669
 70
    32
  0
VERTEX
  8
T18SSILL
 62
6
 10
-647.829
 20
-596.395
 30
3395.479
 70
    32
  0
VERTEX
  8
T18SSILL
 62
6
 10
-651.746
 20
-606.250
 30
3395.359
 70
    32
  0
VERTEX
  8
T18SSILL
 62
6
 10
-648.179
 20
-617.299
 30
3395.232
 70
    32
  0
VERTEX
  8
T18SSILL
 62
6
 10
-646.774
 20
-618.441
 30
3395.219
 70
    32
  0
VERTEX
  8
T18SSILL
 62
6
 10
-640.977
 20
-620.021
 30
3395.206
 70
    32
  0
VERTEX
  8
T18SSILL
 62
6
 10
-633.456
 20
-632.176
 30
3395.069
 70
    32
  0
VERTEX
  8
T18SSILL
 62
6
 10
-658.189
 20
-650.499
 30
3394.848
 70
    32
  0
VERTEX
  8
T18SSILL
 62
6
 10
-665.741
 20
-679.660
 30
3394.301
 70
    32
  0
VERTEX
  8
T18SSILL
 62
6
 10
-664.546
 20
-680.520
 30
3394.281
 70
    32
  0
VERTEX
  8
T18SSILL
 62
6
 10
-661.032
 20
-688.425
 30
3394.115
 70
    32
  0
VERTEX
  8
T18SSILL
 62
6
 10
-657.132
 20
-693.624
 30
3394.003
 70
    32
  0
VERTEX
  8
T18SSILL
 62
6
 10
-662.121
 20
-695.609
 30
3393.973
 70
    32
  0
VERTEX
  8
T18SSILL
 62
6
 10
-671.589
 20
-694.697
 30
3394.012
 70
    32
  0
VERTEX
  8
T18SSILL
 62
6
 10
-691.721
 20
-681.471
 30
3394.320
 70
    32
  0
VERTEX
  8
T18SSILL
 62
6
 10
-696.218
 20
-675.622
 30
3394.447
 70
    32
  0
VERTEX
  8
T18SSILL
 62
6
 10
-706.073
 20
-667.314
 30
3394.635
 70
    32
  0
VERTEX
  8
T18SSILL
 62
6
 10
-731.810
 20
-632.271
 30
3395.228
 70
    32
  0
VERTEX
  8
T18SSILL
 62
6
 10
-727.120
 20
-625.350
 30
3395.240
 70
    32
  0
VERTEX
  8
T18SSILL
 62
6
 10
-724.415
 20
-622.662
 30
3395.242
 70
    32
  0
VERTEX
  8
T18SSILL
 62
6
 10
-721.535
 20
-614.792
 30
3395.265
 70
    32
  0
VERTEX
  8
T18SSILL
 62
6
 10
-729.598
 20
-607.995
 30
3395.329
 70
    32
  0
VERTEX
  8
T18SSILL
 62
6
 10
-735.430
 20
-613.247
 30
3395.329
 70
    32
  0
VERTEX
  8
T18SSILL
 62
6
 10
-743.738
 20
-616.076
 30
3395.350
 70
    32
  0
VERTEX
  8
T18SSILL
 62
6
 10
-751.012
 20
-601.110
 30
3395.446
 70
    32
  0
VERTEX
  8
T18SSILL
 62
6
 10
-749.765
 20
-595.454
 30
3395.467
 70
    32
  0
VERTEX
  8
T18SSILL
 62
6
 10
-751.891
 20
-593.206
 30
3395.486
 70
    32
  0
VERTEX
  8
T18SSILL
 62
6
 10
-752.804
 20
-590.817
 30
3395.500
 70
    32
  0
VERTEX
  8
T18SSILL
 62
6
 10
-756.739
 20
-592.890
 30
3395.507
 70
    32
  0
VERTEX
  8
T18SSILL
 62
6
 10
-783.604
 20
-555.275
 30
3395.799
 70
    32
  0
VERTEX
  8
T18SSILL
 62
6
 10
-855.083
 20
-455.196
 30
3394.283
 70
    32
  0
VERTEX
  8
T18SSILL
 62
6
 10
-867.117
 20
-439.739
 30
3394.041
 70
    32
  0
VERTEX
  8
T18SSILL
 62
6
 10
-870.034
 20
-430.289
 30
3393.929
 70
    32
  0
VERTEX
  8
T18SSILL
 62
6
 10
-871.983
 20
-431.642
 30
3393.926
 70
    32
  0
VERTEX
  8
T18SSILL
 62
6
 10
-983.195
 20
-276.145
 30
3393.976
 70
    32
  0
VERTEX
  8
T18SSILL
 62
6
 10
-1004.657
 20
-264.984
 30
3395.248
 70
    32
  0
VERTEX
  8
T18SSILL
 62
6
 10
-1018.709
 20
-263.261
 30
3395.322
 70
    32
  0
VERTEX
  8
T18SSILL
 62
6
 10
-1039.331
 20
-271.111
 30
3395.392
 70
    32
  0
VERTEX
  8
T18SSILL
 62
6
 10
-1042.698
 20
-274.426
 30
3395.403
 70
    32
  0
VERTEX
  8
T18SSILL
 62
6
 10
-1097.863
 20
-299.389
 30
3395.576
 70
    32
  0
VERTEX
  8
T18SSILL
 62
6
 10
-1109.599
 20
-306.979
 30
3395.619
 70
    32
  0
VERTEX
  8
T18SSILL
 62
6
 10
-1137.667
 20
-320.601
 30
3395.732
 70
    32
  0
VERTEX
  8
T18SSILL
 62
6
 10
-1213.884
 20
-353.919
 30
3396.031
 70
    32
  0
VERTEX
  8
T18SSILL
 62
6
 10
-1317.521
 20
-405.835
 30
3397.266
 70
    32
  0
VERTEX
  8
T18SSILL
 62
6
 10
-1319.636
 20
-405.980
 30
3397.305
 70
    32
  0
VERTEX
  8
T18SSILL
 62
6
 10
-1333.209
 20
-395.530
 30
3397.454
 70
    32
  0
VERTEX
  8
T18SSILL
 62
6
 10
-1345.020
 20
-372.249
 30
3397.454
 70
    32
  0
VERTEX
  8
T18SSILL
 62
6
 10
-1353.723
 20
-377.319
 30
3397.454
 70
    32
  0
VERTEX
  8
T18SSILL
 62
6
 10
-1337.504
 20
-409.198
 30
3397.506
 70
    32
  0
VERTEX
  8
T18SSILL
 62
6
 10
-1338.694
 20
-414.365
 30
3397.567
 70
    32
  0
VERTEX
  8
T18SSILL
 62
6
 10
-1342.124
 20
-417.779
 30
3397.656
 70
    32
  0
VERTEX
  8
T18SSILL
 62
6
 10
-1365.984
 20
-428.433
 30
3398.102
 70
    32
  0
VERTEX
  8
T18SSILL
 62
6
 10
-1377.357
 20
-425.597
 30
3398.000
 70
    32
  0
VERTEX
  8
T18SSILL
 62
6
 10
-1391.263
 20
-409.437
 30
3398.000
 70
    32
  0
VERTEX
  8
T18SSILL
 62
6
 10
-1404.186
 20
-393.970
 30
3398.000
 70
    32
  0
VERTEX
  8
T18SSILL
 62
6
 10
-1425.059
 20
-363.043
 30
3398.000
 70
    32
  0
VERTEX
  8
T18SSILL
 62
6
 10
-1435.224
 20
-369.727
 30
3398.000
 70
    32
  0
VERTEX
  8
T18SSILL
 62
6
 10
-1413.214
 20
-401.394
 30
3398.000
 70
    32
  0
VERTEX
  8
T18SSILL
 62
6
 10
-1415.608
 20
-403.998
 30
3398.000
 70
    32
  0
VERTEX
  8
T18SSILL
 62
6
 10
-1433.530
 20
-400.894
 30
3398.000
 70
    32
  0
SEQEND
  8
T18SSILL
  0
POLYLINE
  8
T18SSILL
 62
2
 66
     1
 70
     9
  0
VERTEX
  8
T18SSILL
 62
2
 10
-1399.626
 20
-456.206
 30
3398.840
 70
    32
  0
VERTEX
  8
T18SSILL
 62
2
 10
-1407.528
 20
-459.433
 30
3400.042
 70
    32
  0
VERTEX
  8
T18SSILL
 62
2
 10
-1423.022
 20
-465.484
 30
3402.063
 70
    32
  0
VERTEX
  8
T18SSILL
 62
2
 10
-1435.232
 20
-474.318
 30
3404.806
 70
    32
  0
VERTEX
  8
T18SSILL
 62
2
 10
-1447.969
 20
-483.743
 30
3407.202
 70
    32
  0
VERTEX
  8
T18SSILL
 62
2
 10
-1457.082
 20
-490.073
 30
3409.668
 70
    32
  0
VERTEX
  8
T18SSILL
 62
2
 10
-1466.566
 20
-497.032
 30
3410.555
 70
    32
  0
VERTEX
  8
T18SSILL
 62
2
 10
-1467.503
 20
-497.909
 30
3410.555
 70
    32
  0
VERTEX
  8
T18SSILL
 62
2
 10
-1471.946
 20
-504.328
 30
3410.555
 70
    32
  0
VERTEX
  8
T18SSILL
 62
2
 10
-1471.476
 20
-505.255
 30
3410.000
 70
    32
  0
VERTEX
  8
T18SSILL
 62
2
 10
-1465.876
 20
-515.999
 30
3410.000
 70
    32
  0
VERTEX
  8
T18SSILL
 62
2
 10
-1477.779
 20
-522.375
 30
3410.000
 70
    32
  0
VERTEX
  8
T18SSILL
 62
2
 10
-1487.044
 20
-535.174
 30
3410.000
 70
    32
  0
VERTEX
  8
T18SSILL
 62
2
 10
-1495.174
 20
-529.560
 30
3410.000
 70
    32
  0
VERTEX
  8
T18SSILL
 62
2
 10
-1501.582
 20
-526.390
 30
3410.000
 70
    32
  0
VERTEX
  8
T18SSILL
 62
2
 10
-1513.000
 20
-511.448
 30
3410.000
 70
    32
  0
VERTEX
  8
T18SSILL
 62
2
 10
-1515.851
 20
-503.896
 30
3410.000
 70
    32
  0
VERTEX
  8
T18SSILL
 62
2
 10
-1505.264
 20
-498.812
 30
3410.000
 70
    32
  0
VERTEX
  8
T18SSILL
 62
2
 10
-1502.016
 20
-495.086
 30
3410.000
 70
    32
  0
VERTEX
  8
T18SSILL
 62
2
 10
-1499.404
 20
-489.395
 30
3410.000
 70
    32
  0
VERTEX
  8
T18SSILL
 62
2
 10
-1498.856
 20
-473.473
 30
3410.000
 70
    32
  0
VERTEX
  8
T18SSILL
 62
2
 10
-1492.168
 20
-470.183
 30
3410.000
 70
    32
  0
VERTEX
  8
T18SSILL
 62
2
 10
-1486.717
 20
-466.018
 30
3410.000
 70
    32
  0
VERTEX
  8
T18SSILL
 62
2
 10
-1484.566
 20
-460.499
 30
3410.000
 70
    32
  0
VERTEX
  8
T18SSILL
 62
2
 10
-1481.128
 20
-457.179
 30
3410.000
 70
    32
  0
VERTEX
  8
T18SSILL
 62
2
 10
-1469.379
 20
-448.222
 30
3410.000
 70
    32
  0
VERTEX
  8
T18SSILL
 62
2
 10
-1461.964
 20
-458.316
 30
3410.000
 70
    32
  0
VERTEX
  8
T18SSILL
 62
2
 10
-1463.321
 20
-466.636
 30
3410.000
 70
    32
  0
VERTEX
  8
T18SSILL
 62
2
 10
-1461.293
 20
-467.545
 30
3408.466
 70
    32
  0
VERTEX
  8
T18SSILL
 62
2
 10
-1446.170
 20
-468.092
 30
3405.028
 70
    32
  0
VERTEX
  8
T18SSILL
 62
2
 10
-1434.337
 20
-456.341
 30
3404.373
 70
    32
  0
VERTEX
  8
T18SSILL
 62
2
 10
-1429.009
 20
-457.188
 30
3402.083
 70
    32
  0
VERTEX
  8
T18SSILL
 62
2
 10
-1414.549
 20
-450.044
 30
3400.180
 70
    32
  0
VERTEX
  8
T18SSILL
 62
2
 10
-1405.542
 20
-445.894
 30
3398.843
 70
    32
  0
SEQEND
  8
T18SSILL
  0
ENDSEC
  0
EOF
