999
********************************
999
*   DXF File - Entities Only   *
999
*        3D Data Format        *
999
*     Output from ENVISAGE     *
999
*     20-Dec-2007 09:18:16     *
999
********************************
  0
SECTION 
  2
HEADER
  9
$ACADVER
  1
AC1009
  9
$EXTMIN
 10
-290000.000
 20
-250000.000
 30
-4000.000
  9
$EXTMAX
 10
5000000.000
 20
600000.000
 30
6000.000
  0
ENDSEC
  0
SECTION
  2
ENTITIES
  0
POLYLINE
  8
T20SSILL
 62
4
 66
     1
 70
     9
  0
VERTEX
  8
T20SSILL
 62
4
 10
1897.942
 20
-2495.575
 30
3233.518
 70
    32
  0
VERTEX
  8
T20SSILL
 62
4
 10
1898.293
 20
-2495.922
 30
3233.518
 70
    32
  0
SEQEND
  8
T20SSILL
  0
POLYLINE
  8
T20SSILL
 62
4
 66
     1
 70
     9
  0
VERTEX
  8
T20SSILL
 62
4
 10
-1091.583
 20
-1545.272
 30
3235.445
 70
    32
  0
VERTEX
  8
T20SSILL
 62
4
 10
-1086.314
 20
-1538.111
 30
3235.442
 70
    32
  0
VERTEX
  8
T20SSILL
 62
4
 10
-1074.790
 20
-1500.767
 30
3235.431
 70
    32
  0
VERTEX
  8
T20SSILL
 62
4
 10
-1074.153
 20
-1479.332
 30
3235.427
 70
    32
  0
VERTEX
  8
T20SSILL
 62
4
 10
-1086.199
 20
-1463.230
 30
3235.426
 70
    32
  0
VERTEX
  8
T20SSILL
 62
4
 10
-1103.203
 20
-1524.671
 30
3235.443
 70
    32
  0
VERTEX
  8
T20SSILL
 62
4
 10
-1097.514
 20
-1538.500
 30
3235.445
 70
    32
  0
SEQEND
  8
T20SSILL
  0
POLYLINE
  8
T20SSILL
 62
4
 66
     1
 70
     9
  0
VERTEX
  8
T20SSILL
 62
4
 10
-1090.017
 20
-1733.043
 30
3235.536
 70
    32
  0
VERTEX
  8
T20SSILL
 62
4
 10
-1090.877
 20
-1739.749
 30
3235.540
 70
    32
  0
VERTEX
  8
T20SSILL
 62
4
 10
-1093.065
 20
-1745.136
 30
3235.544
 70
    32
  0
VERTEX
  8
T20SSILL
 62
4
 10
-1088.539
 20
-1754.118
 30
3235.550
 70
    32
  0
VERTEX
  8
T20SSILL
 62
4
 10
-1078.029
 20
-1758.671
 30
3235.552
 70
    32
  0
VERTEX
  8
T20SSILL
 62
4
 10
-1064.655
 20
-1748.397
 30
3235.544
 70
    32
  0
VERTEX
  8
T20SSILL
 62
4
 10
-1077.683
 20
-1728.770
 30
3235.532
 70
    32
  0
VERTEX
  8
T20SSILL
 62
4
 10
-1083.415
 20
-1728.788
 30
3235.532
 70
    32
  0
VERTEX
  8
T20SSILL
 62
4
 10
-1087.994
 20
-1731.273
 30
3235.534
 70
    32
  0
SEQEND
  8
T20SSILL
  0
POLYLINE
  8
T20SSILL
 62
4
 66
     1
 70
     9
  0
VERTEX
  8
T20SSILL
 62
4
 10
334.662
 20
-1870.477
 30
3235.029
 70
    32
  0
VERTEX
  8
T20SSILL
 62
4
 10
341.930
 20
-1865.043
 30
3235.041
 70
    32
  0
VERTEX
  8
T20SSILL
 62
4
 10
341.986
 20
-1855.281
 30
3235.051
 70
    32
  0
VERTEX
  8
T20SSILL
 62
4
 10
334.593
 20
-1843.550
 30
3235.058
 70
    32
  0
VERTEX
  8
T20SSILL
 62
4
 10
327.711
 20
-1855.474
 30
3235.039
 70
    32
  0
VERTEX
  8
T20SSILL
 62
4
 10
323.490
 20
-1867.304
 30
3235.023
 70
    32
  0
VERTEX
  8
T20SSILL
 62
4
 10
328.380
 20
-1872.786
 30
3235.021
 70
    32
  0
SEQEND
  8
T20SSILL
  0
POLYLINE
  8
T20SSILL
 62
4
 66
     1
 70
     9
  0
VERTEX
  8
T20SSILL
 62
4
 10
2153.600
 20
-4571.697
 30
3237.145
 70
    32
  0
VERTEX
  8
T20SSILL
 62
4
 10
2167.137
 20
-4571.147
 30
3237.133
 70
    32
  0
VERTEX
  8
T20SSILL
 62
4
 10
2165.755
 20
-4549.802
 30
3237.100
 70
    32
  0
VERTEX
  8
T20SSILL
 62
4
 10
2153.721
 20
-4550.575
 30
3237.111
 70
    32
  0
VERTEX
  8
T20SSILL
 62
4
 10
2125.164
 20
-4593.514
 30
3237.205
 70
    32
  0
VERTEX
  8
T20SSILL
 62
4
 10
2124.874
 20
-4605.314
 30
3237.224
 70
    32
  0
VERTEX
  8
T20SSILL
 62
4
 10
2170.104
 20
-4605.296
 30
3237.186
 70
    32
  0
VERTEX
  8
T20SSILL
 62
4
 10
2168.042
 20
-4578.426
 30
3237.144
 70
    32
  0
VERTEX
  8
T20SSILL
 62
4
 10
2153.902
 20
-4579.433
 30
3237.158
 70
    32
  0
SEQEND
  8
T20SSILL
  0
POLYLINE
  8
T20SSILL
 62
4
 66
     1
 70
     9
  0
VERTEX
  8
T20SSILL
 62
4
 10
-2262.739
 20
521.804
 30
3236.566
 70
    32
  0
VERTEX
  8
T20SSILL
 62
4
 10
-2257.534
 20
511.531
 30
3236.539
 70
    32
  0
VERTEX
  8
T20SSILL
 62
4
 10
-2255.845
 20
511.469
 30
3236.535
 70
    32
  0
VERTEX
  8
T20SSILL
 62
4
 10
-2245.431
 20
501.114
 30
3236.498
 70
    32
  0
VERTEX
  8
T20SSILL
 62
4
 10
-2217.551
 20
507.540
 30
3236.469
 70
    32
  0
VERTEX
  8
T20SSILL
 62
4
 10
-2216.349
 20
508.431
 30
3236.470
 70
    32
  0
VERTEX
  8
T20SSILL
 62
4
 10
-2216.374
 20
513.341
 30
3236.474
 70
    32
  0
VERTEX
  8
T20SSILL
 62
4
 10
-2225.226
 20
519.815
 30
3236.487
 70
    32
  0
VERTEX
  8
T20SSILL
 62
4
 10
-2228.725
 20
520.398
 30
3236.495
 70
    32
  0
VERTEX
  8
T20SSILL
 62
4
 10
-2238.222
 20
528.037
 30
3236.527
 70
    32
  0
VERTEX
  8
T20SSILL
 62
4
 10
-2260.144
 20
523.179
 30
3236.563
 70
    32
  0
SEQEND
  8
T20SSILL
  0
POLYLINE
  8
T20SSILL
 62
4
 66
     1
 70
     9
  0
VERTEX
  8
T20SSILL
 62
4
 10
-2264.796
 20
531.671
 30
3236.586
 70
    32
  0
VERTEX
  8
T20SSILL
 62
4
 10
-2246.043
 20
536.371
 30
3236.556
 70
    32
  0
VERTEX
  8
T20SSILL
 62
4
 10
-2242.335
 20
538.462
 30
3236.552
 70
    32
  0
VERTEX
  8
T20SSILL
 62
4
 10
-2242.336
 20
541.419
 30
3236.557
 70
    32
  0
VERTEX
  8
T20SSILL
 62
4
 10
-2251.091
 20
555.742
 30
3236.597
 70
    32
  0
VERTEX
  8
T20SSILL
 62
4
 10
-2256.740
 20
555.827
 30
3236.609
 70
    32
  0
VERTEX
  8
T20SSILL
 62
4
 10
-2259.124
 20
557.565
 30
3236.616
 70
    32
  0
VERTEX
  8
T20SSILL
 62
4
 10
-2281.692
 20
556.829
 30
3236.660
 70
    32
  0
VERTEX
  8
T20SSILL
 62
4
 10
-2269.951
 20
535.080
 30
3236.602
 70
    32
  0
VERTEX
  8
T20SSILL
 62
4
 10
-2267.038
 20
533.514
 30
3236.593
 70
    32
  0
SEQEND
  8
T20SSILL
  0
POLYLINE
  8
T20SSILL
 62
4
 66
     1
 70
     9
  0
VERTEX
  8
T20SSILL
 62
4
 10
-2286.187
 20
574.420
 30
3236.698
 70
    32
  0
VERTEX
  8
T20SSILL
 62
4
 10
-2281.753
 20
567.847
 30
3236.678
 70
    32
  0
VERTEX
  8
T20SSILL
 62
4
 10
-2278.225
 20
566.191
 30
3236.668
 70
    32
  0
VERTEX
  8
T20SSILL
 62
4
 10
-2258.121
 20
566.852
 30
3236.629
 70
    32
  0
VERTEX
  8
T20SSILL
 62
4
 10
-2266.138
 20
581.065
 30
3236.668
 70
    32
  0
VERTEX
  8
T20SSILL
 62
4
 10
-2272.285
 20
583.300
 30
3236.684
 70
    32
  0
VERTEX
  8
T20SSILL
 62
4
 10
-2275.438
 20
589.179
 30
3236.700
 70
    32
  0
VERTEX
  8
T20SSILL
 62
4
 10
-2307.922
 20
605.958
 30
3236.792
 70
    32
  0
VERTEX
  8
T20SSILL
 62
4
 10
-2290.812
 20
575.044
 30
3236.708
 70
    32
  0
VERTEX
  8
T20SSILL
 62
4
 10
-2286.836
 20
574.705
 30
3236.700
 70
    32
  0
SEQEND
  8
T20SSILL
  0
POLYLINE
  8
T20SSILL
 62
4
 66
     1
 70
     9
  0
VERTEX
  8
T20SSILL
 62
4
 10
-2273.435
 20
644.996
 30
3236.787
 70
    32
  0
VERTEX
  8
T20SSILL
 62
4
 10
-2287.896
 20
649.283
 30
3236.822
 70
    32
  0
VERTEX
  8
T20SSILL
 62
4
 10
-2296.232
 20
647.377
 30
3236.836
 70
    32
  0
VERTEX
  8
T20SSILL
 62
4
 10
-2294.647
 20
638.145
 30
3236.818
 70
    32
  0
VERTEX
  8
T20SSILL
 62
4
 10
-2299.504
 20
635.092
 30
3236.823
 70
    32
  0
VERTEX
  8
T20SSILL
 62
4
 10
-2307.623
 20
637.180
 30
3236.842
 70
    32
  0
VERTEX
  8
T20SSILL
 62
4
 10
-2318.447
 20
627.842
 30
3236.849
 70
    32
  0
VERTEX
  8
T20SSILL
 62
4
 10
-2324.536
 20
624.972
 30
3236.856
 70
    32
  0
VERTEX
  8
T20SSILL
 62
4
 10
-2305.686
 20
615.503
 30
3236.803
 70
    32
  0
VERTEX
  8
T20SSILL
 62
4
 10
-2294.702
 20
615.758
 30
3236.782
 70
    32
  0
VERTEX
  8
T20SSILL
 62
4
 10
-2292.179
 20
613.684
 30
3236.773
 70
    32
  0
VERTEX
  8
T20SSILL
 62
4
 10
-2256.524
 20
628.832
 30
3236.727
 70
    32
  0
VERTEX
  8
T20SSILL
 62
4
 10
-2268.264
 20
634.917
 30
3236.760
 70
    32
  0
VERTEX
  8
T20SSILL
 62
4
 10
-2272.308
 20
643.073
 30
3236.781
 70
    32
  0
SEQEND
  8
T20SSILL
  0
POLYLINE
  8
T20SSILL
 62
4
 66
     1
 70
     9
  0
VERTEX
  8
T20SSILL
 62
4
 10
-2336.352
 20
630.125
 30
3236.888
 70
    32
  0
VERTEX
  8
T20SSILL
 62
4
 10
-2331.258
 20
631.381
 30
3236.880
 70
    32
  0
VERTEX
  8
T20SSILL
 62
4
 10
-2315.970
 20
642.823
 30
3236.868
 70
    32
  0
VERTEX
  8
T20SSILL
 62
4
 10
-2310.331
 20
650.289
 30
3236.869
 70
    32
  0
VERTEX
  8
T20SSILL
 62
4
 10
-2306.995
 20
661.306
 30
3236.880
 70
    32
  0
VERTEX
  8
T20SSILL
 62
4
 10
-2311.339
 20
665.097
 30
3236.895
 70
    32
  0
VERTEX
  8
T20SSILL
 62
4
 10
-2314.290
 20
663.019
 30
3236.897
 70
    32
  0
VERTEX
  8
T20SSILL
 62
4
 10
-2324.728
 20
668.974
 30
3236.928
 70
    32
  0
VERTEX
  8
T20SSILL
 62
4
 10
-2358.605
 20
644.629
 30
3236.956
 70
    32
  0
VERTEX
  8
T20SSILL
 62
4
 10
-2358.237
 20
641.177
 30
3236.950
 70
    32
  0
SEQEND
  8
T20SSILL
  0
POLYLINE
  8
T20SSILL
 62
4
 66
     1
 70
     9
  0
VERTEX
  8
T20SSILL
 62
4
 10
-1077.856
 20
-1451.914
 30
3235.422
 70
    32
  0
VERTEX
  8
T20SSILL
 62
4
 10
-1077.470
 20
-1462.497
 30
3235.424
 70
    32
  0
VERTEX
  8
T20SSILL
 62
4
 10
-1168.890
 20
-1336.839
 30
3235.420
 70
    32
  0
VERTEX
  8
T20SSILL
 62
4
 10
-1171.466
 20
-1331.114
 30
3235.420
 70
    32
  0
VERTEX
  8
T20SSILL
 62
4
 10
-1172.999
 20
-1320.447
 30
3235.418
 70
    32
  0
VERTEX
  8
T20SSILL
 62
4
 10
-1171.609
 20
-1313.739
 30
3235.416
 70
    32
  0
VERTEX
  8
T20SSILL
 62
4
 10
-1168.014
 20
-1307.113
 30
3235.414
 70
    32
  0
VERTEX
  8
T20SSILL
 62
4
 10
-1157.897
 20
-1299.055
 30
3235.410
 70
    32
  0
VERTEX
  8
T20SSILL
 62
4
 10
-1102.142
 20
-1414.242
 30
3235.420
 70
    32
  0
VERTEX
  8
T20SSILL
 62
4
 10
-1079.101
 20
-1448.655
 30
3235.421
 70
    32
  0
SEQEND
  8
T20SSILL
  0
POLYLINE
  8
T20SSILL
 62
4
 66
     1
 70
     9
  0
VERTEX
  8
T20SSILL
 62
4
 10
-1041.757
 20
-1432.131
 30
3235.409
 70
    32
  0
VERTEX
  8
T20SSILL
 62
4
 10
-1060.236
 20
-1445.772
 30
3235.416
 70
    32
  0
VERTEX
  8
T20SSILL
 62
4
 10
-1064.542
 20
-1450.637
 30
3235.418
 70
    32
  0
VERTEX
  8
T20SSILL
 62
4
 10
-1069.796
 20
-1462.472
 30
3235.422
 70
    32
  0
VERTEX
  8
T20SSILL
 62
4
 10
-1070.225
 20
-1466.266
 30
3235.423
 70
    32
  0
VERTEX
  8
T20SSILL
 62
4
 10
-1068.517
 20
-1476.404
 30
3235.425
 70
    32
  0
VERTEX
  8
T20SSILL
 62
4
 10
-1054.080
 20
-1495.674
 30
3235.425
 70
    32
  0
VERTEX
  8
T20SSILL
 62
4
 10
-1044.534
 20
-1501.905
 30
3235.424
 70
    32
  0
VERTEX
  8
T20SSILL
 62
4
 10
-1030.663
 20
-1454.057
 30
3235.411
 70
    32
  0
VERTEX
  8
T20SSILL
 62
4
 10
-1032.735
 20
-1440.217
 30
3235.408
 70
    32
  0
SEQEND
  8
T20SSILL
  0
POLYLINE
  8
T20SSILL
 62
4
 66
     1
 70
     9
  0
VERTEX
  8
T20SSILL
 62
4
 10
-1071.510
 20
-1561.614
 30
3235.443
 70
    32
  0
VERTEX
  8
T20SSILL
 62
4
 10
-1064.005
 20
-1564.059
 30
3235.442
 70
    32
  0
VERTEX
  8
T20SSILL
 62
4
 10
-1054.054
 20
-1531.659
 30
3235.433
 70
    32
  0
VERTEX
  8
T20SSILL
 62
4
 10
-1060.772
 20
-1499.135
 30
3235.427
 70
    32
  0
VERTEX
  8
T20SSILL
 62
4
 10
-1063.959
 20
-1495.264
 30
3235.427
 70
    32
  0
VERTEX
  8
T20SSILL
 62
4
 10
-1076.961
 20
-1539.317
 30
3235.440
 70
    32
  0
VERTEX
  8
T20SSILL
 62
4
 10
-1079.012
 20
-1560.050
 30
3235.445
 70
    32
  0
SEQEND
  8
T20SSILL
  0
POLYLINE
  8
T20SSILL
 62
4
 66
     1
 70
     9
  0
VERTEX
  8
T20SSILL
 62
4
 10
-1119.847
 20
-1504.879
 30
3235.443
 70
    32
  0
VERTEX
  8
T20SSILL
 62
4
 10
-1124.157
 20
-1508.685
 30
3235.445
 70
    32
  0
VERTEX
  8
T20SSILL
 62
4
 10
-1112.207
 20
-1522.053
 30
3235.445
 70
    32
  0
VERTEX
  8
T20SSILL
 62
4
 10
-1099.123
 20
-1476.060
 30
3235.432
 70
    32
  0
VERTEX
  8
T20SSILL
 62
4
 10
-1105.296
 20
-1448.738
 30
3235.428
 70
    32
  0
VERTEX
  8
T20SSILL
 62
4
 10
-1109.537
 20
-1446.458
 30
3235.429
 70
    32
  0
VERTEX
  8
T20SSILL
 62
4
 10
-1114.210
 20
-1446.826
 30
3235.430
 70
    32
  0
VERTEX
  8
T20SSILL
 62
4
 10
-1123.253
 20
-1487.691
 30
3235.441
 70
    32
  0
VERTEX
  8
T20SSILL
 62
4
 10
-1112.460
 20
-1498.152
 30
3235.440
 70
    32
  0
VERTEX
  8
T20SSILL
 62
4
 10
-1116.856
 20
-1502.400
 30
3235.442
 70
    32
  0
SEQEND
  8
T20SSILL
  0
POLYLINE
  8
T20SSILL
 62
4
 66
     1
 70
     9
  0
VERTEX
  8
T20SSILL
 62
4
 10
-1142.737
 20
-1462.528
 30
3235.440
 70
    32
  0
VERTEX
  8
T20SSILL
 62
4
 10
-1145.336
 20
-1477.265
 30
3235.444
 70
    32
  0
VERTEX
  8
T20SSILL
 62
4
 10
-1141.589
 20
-1490.748
 30
3235.446
 70
    32
  0
VERTEX
  8
T20SSILL
 62
4
 10
-1135.839
 20
-1495.933
 30
3235.445
 70
    32
  0
VERTEX
  8
T20SSILL
 62
4
 10
-1131.013
 20
-1488.068
 30
3235.443
 70
    32
  0
VERTEX
  8
T20SSILL
 62
4
 10
-1122.495
 20
-1448.704
 30
3235.432
 70
    32
  0
VERTEX
  8
T20SSILL
 62
4
 10
-1135.265
 20
-1457.425
 30
3235.437
 70
    32
  0
SEQEND
  8
T20SSILL
  0
POLYLINE
  8
T20SSILL
 62
4
 66
     1
 70
     9
  0
VERTEX
  8
T20SSILL
 62
4
 10
-1153.134
 20
-1493.430
 30
3235.449
 70
    32
  0
VERTEX
  8
T20SSILL
 62
4
 10
-1160.825
 20
-1487.898
 30
3235.450
 70
    32
  0
VERTEX
  8
T20SSILL
 62
4
 10
-1168.080
 20
-1480.689
 30
3235.450
 70
    32
  0
VERTEX
  8
T20SSILL
 62
4
 10
-1194.037
 20
-1500.087
 30
3235.461
 70
    32
  0
VERTEX
  8
T20SSILL
 62
4
 10
-1195.431
 20
-1505.560
 30
3235.462
 70
    32
  0
VERTEX
  8
T20SSILL
 62
4
 10
-1193.204
 20
-1512.520
 30
3235.463
 70
    32
  0
VERTEX
  8
T20SSILL
 62
4
 10
-1155.350
 20
-1517.692
 30
3235.455
 70
    32
  0
VERTEX
  8
T20SSILL
 62
4
 10
-1157.654
 20
-1514.260
 30
3235.455
 70
    32
  0
VERTEX
  8
T20SSILL
 62
4
 10
-1143.493
 20
-1502.220
 30
3235.449
 70
    32
  0
VERTEX
  8
T20SSILL
 62
4
 10
-1147.655
 20
-1497.029
 30
3235.449
 70
    32
  0
SEQEND
  8
T20SSILL
  0
POLYLINE
  8
T20SSILL
 62
4
 66
     1
 70
     9
  0
VERTEX
  8
T20SSILL
 62
4
 10
-1126.946
 20
-1518.925
 30
3235.448
 70
    32
  0
VERTEX
  8
T20SSILL
 62
4
 10
-1081.628
 20
-1569.495
 30
3235.447
 70
    32
  0
VERTEX
  8
T20SSILL
 62
4
 10
-1084.411
 20
-1581.940
 30
3235.451
 70
    32
  0
VERTEX
  8
T20SSILL
 62
4
 10
-1101.130
 20
-1594.077
 30
3235.457
 70
    32
  0
VERTEX
  8
T20SSILL
 62
4
 10
-1113.705
 20
-1578.064
 30
3235.457
 70
    32
  0
VERTEX
  8
T20SSILL
 62
4
 10
-1138.002
 20
-1592.518
 30
3235.466
 70
    32
  0
VERTEX
  8
T20SSILL
 62
4
 10
-1147.781
 20
-1596.077
 30
3235.469
 70
    32
  0
VERTEX
  8
T20SSILL
 62
4
 10
-1150.489
 20
-1604.376
 30
3235.472
 70
    32
  0
VERTEX
  8
T20SSILL
 62
4
 10
-1150.344
 20
-1622.368
 30
3235.476
 70
    32
  0
VERTEX
  8
T20SSILL
 62
4
 10
-1148.476
 20
-1627.213
 30
3235.476
 70
    32
  0
VERTEX
  8
T20SSILL
 62
4
 10
-1178.919
 20
-1650.330
 30
3235.489
 70
    32
  0
VERTEX
  8
T20SSILL
 62
4
 10
-1197.070
 20
-1628.250
 30
3235.488
 70
    32
  0
VERTEX
  8
T20SSILL
 62
4
 10
-1204.433
 20
-1531.519
 30
3235.470
 70
    32
  0
VERTEX
  8
T20SSILL
 62
4
 10
-1201.801
 20
-1527.277
 30
3235.468
 70
    32
  0
VERTEX
  8
T20SSILL
 62
4
 10
-1197.754
 20
-1524.177
 30
3235.467
 70
    32
  0
VERTEX
  8
T20SSILL
 62
4
 10
-1190.001
 20
-1521.330
 30
3235.464
 70
    32
  0
VERTEX
  8
T20SSILL
 62
4
 10
-1156.647
 20
-1525.899
 30
3235.457
 70
    32
  0
VERTEX
  8
T20SSILL
 62
4
 10
-1156.983
 20
-1531.192
 30
3235.458
 70
    32
  0
VERTEX
  8
T20SSILL
 62
4
 10
-1149.637
 20
-1539.371
 30
3235.458
 70
    32
  0
SEQEND
  8
T20SSILL
  0
POLYLINE
  8
T20SSILL
 62
4
 66
     1
 70
     9
  0
VERTEX
  8
T20SSILL
 62
4
 10
-1027.923
 20
-1566.943
 30
3235.433
 70
    32
  0
VERTEX
  8
T20SSILL
 62
4
 10
-1039.389
 20
-1566.892
 30
3235.436
 70
    32
  0
VERTEX
  8
T20SSILL
 62
4
 10
-1056.751
 20
-1571.180
 30
3235.442
 70
    32
  0
VERTEX
  8
T20SSILL
 62
4
 10
-1097.497
 20
-1599.445
 30
3235.458
 70
    32
  0
VERTEX
  8
T20SSILL
 62
4
 10
-1083.484
 20
-1623.832
 30
3235.461
 70
    32
  0
VERTEX
  8
T20SSILL
 62
4
 10
-1072.727
 20
-1622.739
 30
3235.459
 70
    32
  0
VERTEX
  8
T20SSILL
 62
4
 10
-1074.373
 20
-1632.270
 30
3235.466
 70
    32
  0
VERTEX
  8
T20SSILL
 62
4
 10
-1079.387
 20
-1636.255
 30
3235.469
 70
    32
  0
VERTEX
  8
T20SSILL
 62
4
 10
-1078.130
 20
-1643.483
 30
3235.474
 70
    32
  0
VERTEX
  8
T20SSILL
 62
4
 10
-1028.516
 20
-1713.532
 30
3235.517
 70
    32
  0
VERTEX
  8
T20SSILL
 62
4
 10
-1019.247
 20
-1715.972
 30
3235.518
 70
    32
  0
VERTEX
  8
T20SSILL
 62
4
 10
-957.202
 20
-1673.440
 30
3235.483
 70
    32
  0
VERTEX
  8
T20SSILL
 62
4
 10
-944.598
 20
-1670.930
 30
3235.480
 70
    32
  0
VERTEX
  8
T20SSILL
 62
4
 10
-935.950
 20
-1672.049
 30
3235.480
 70
    32
  0
VERTEX
  8
T20SSILL
 62
4
 10
-1002.922
 20
-1579.741
 30
3235.430
 70
    32
  0
VERTEX
  8
T20SSILL
 62
4
 10
-1013.176
 20
-1572.630
 30
3235.431
 70
    32
  0
VERTEX
  8
T20SSILL
 62
4
 10
-1020.683
 20
-1569.390
 30
3235.432
 70
    32
  0
SEQEND
  8
T20SSILL
  0
POLYLINE
  8
T20SSILL
 62
4
 66
     1
 70
     9
  0
VERTEX
  8
T20SSILL
 62
4
 10
-889.051
 20
-1776.152
 30
3235.547
 70
    32
  0
VERTEX
  8
T20SSILL
 62
4
 10
-959.330
 20
-1808.744
 30
3235.575
 70
    32
  0
VERTEX
  8
T20SSILL
 62
4
 10
-1014.254
 20
-1732.891
 30
3235.529
 70
    32
  0
VERTEX
  8
T20SSILL
 62
4
 10
-1014.993
 20
-1722.485
 30
3235.522
 70
    32
  0
VERTEX
  8
T20SSILL
 62
4
 10
-961.842
 20
-1684.215
 30
3235.491
 70
    32
  0
VERTEX
  8
T20SSILL
 62
4
 10
-948.632
 20
-1677.999
 30
3235.485
 70
    32
  0
VERTEX
  8
T20SSILL
 62
4
 10
-935.838
 20
-1679.546
 30
3235.485
 70
    32
  0
VERTEX
  8
T20SSILL
 62
4
 10
-926.737
 20
-1684.897
 30
3235.488
 70
    32
  0
VERTEX
  8
T20SSILL
 62
4
 10
-863.214
 20
-1774.570
 30
3235.543
 70
    32
  0
VERTEX
  8
T20SSILL
 62
4
 10
-880.591
 20
-1774.008
 30
3235.545
 70
    32
  0
VERTEX
  8
T20SSILL
 62
4
 10
-885.527
 20
-1774.906
 30
3235.546
 70
    32
  0
SEQEND
  8
T20SSILL
  0
POLYLINE
  8
T20SSILL
 62
4
 66
     1
 70
     9
  0
VERTEX
  8
T20SSILL
 62
4
 10
-815.802
 20
-1998.750
 30
3235.692
 70
    32
  0
VERTEX
  8
T20SSILL
 62
4
 10
-777.050
 20
-2052.151
 30
3235.724
 70
    32
  0
VERTEX
  8
T20SSILL
 62
4
 10
-779.495
 20
-2071.550
 30
3235.738
 70
    32
  0
VERTEX
  8
T20SSILL
 62
4
 10
-793.652
 20
-2082.252
 30
3235.746
 70
    32
  0
VERTEX
  8
T20SSILL
 62
4
 10
-807.222
 20
-2082.643
 30
3235.748
 70
    32
  0
VERTEX
  8
T20SSILL
 62
4
 10
-821.577
 20
-2054.485
 30
3235.730
 70
    32
  0
VERTEX
  8
T20SSILL
 62
4
 10
-818.329
 20
-2050.246
 30
3235.727
 70
    32
  0
VERTEX
  8
T20SSILL
 62
4
 10
-824.809
 20
-2033.521
 30
3235.716
 70
    32
  0
VERTEX
  8
T20SSILL
 62
4
 10
-820.235
 20
-2030.512
 30
3235.714
 70
    32
  0
VERTEX
  8
T20SSILL
 62
4
 10
-821.482
 20
-2025.757
 30
3235.711
 70
    32
  0
VERTEX
  8
T20SSILL
 62
4
 10
-821.050
 20
-2022.495
 30
3235.708
 70
    32
  0
VERTEX
  8
T20SSILL
 62
4
 10
-835.121
 20
-2001.474
 30
3235.695
 70
    32
  0
VERTEX
  8
T20SSILL
 62
4
 10
-847.456
 20
-2002.302
 30
3235.697
 70
    32
  0
VERTEX
  8
T20SSILL
 62
4
 10
-875.191
 20
-1947.833
 30
3235.662
 70
    32
  0
VERTEX
  8
T20SSILL
 62
4
 10
-851.990
 20
-1894.454
 30
3235.624
 70
    32
  0
VERTEX
  8
T20SSILL
 62
4
 10
-869.768
 20
-1870.976
 30
3235.610
 70
    32
  0
VERTEX
  8
T20SSILL
 62
4
 10
-875.978
 20
-1856.365
 30
3235.600
 70
    32
  0
VERTEX
  8
T20SSILL
 62
4
 10
-881.643
 20
-1847.393
 30
3235.595
 70
    32
  0
VERTEX
  8
T20SSILL
 62
4
 10
-890.607
 20
-1841.688
 30
3235.592
 70
    32
  0
VERTEX
  8
T20SSILL
 62
4
 10
-921.348
 20
-1798.921
 30
3235.565
 70
    32
  0
VERTEX
  8
T20SSILL
 62
4
 10
-892.462
 20
-1785.159
 30
3235.553
 70
    32
  0
VERTEX
  8
T20SSILL
 62
4
 10
-884.533
 20
-1782.487
 30
3235.551
 70
    32
  0
VERTEX
  8
T20SSILL
 62
4
 10
-867.602
 20
-1781.375
 30
3235.548
 70
    32
  0
VERTEX
  8
T20SSILL
 62
4
 10
-855.332
 20
-1784.512
 30
3235.549
 70
    32
  0
VERTEX
  8
T20SSILL
 62
4
 10
-685.966
 20
-2020.616
 30
3235.695
 70
    32
  0
VERTEX
  8
T20SSILL
 62
4
 10
-701.476
 20
-2020.219
 30
3235.696
 70
    32
  0
VERTEX
  8
T20SSILL
 62
4
 10
-712.391
 20
-2024.656
 30
3235.700
 70
    32
  0
VERTEX
  8
T20SSILL
 62
4
 10
-754.868
 20
-2055.001
 30
3235.724
 70
    32
  0
VERTEX
  8
T20SSILL
 62
4
 10
-761.932
 20
-2049.734
 30
3235.721
 70
    32
  0
VERTEX
  8
T20SSILL
 62
4
 10
-807.082
 20
-1992.046
 30
3235.686
 70
    32
  0
SEQEND
  8
T20SSILL
  0
POLYLINE
  8
T20SSILL
 62
4
 66
     1
 70
     9
  0
VERTEX
  8
T20SSILL
 62
4
 10
-891.298
 20
-1860.814
 30
3235.605
 70
    32
  0
VERTEX
  8
T20SSILL
 62
4
 10
-885.285
 20
-1868.200
 30
3235.609
 70
    32
  0
VERTEX
  8
T20SSILL
 62
4
 10
-876.542
 20
-1875.137
 30
3235.613
 70
    32
  0
VERTEX
  8
T20SSILL
 62
4
 10
-866.276
 20
-1890.705
 30
3235.623
 70
    32
  0
VERTEX
  8
T20SSILL
 62
4
 10
-864.746
 20
-1901.804
 30
3235.630
 70
    32
  0
VERTEX
  8
T20SSILL
 62
4
 10
-870.962
 20
-1916.273
 30
3235.641
 70
    32
  0
VERTEX
  8
T20SSILL
 62
4
 10
-876.173
 20
-1912.323
 30
3235.638
 70
    32
  0
VERTEX
  8
T20SSILL
 62
4
 10
-870.981
 20
-1909.488
 30
3235.636
 70
    32
  0
VERTEX
  8
T20SSILL
 62
4
 10
-879.300
 20
-1896.998
 30
3235.628
 70
    32
  0
VERTEX
  8
T20SSILL
 62
4
 10
-894.439
 20
-1903.298
 30
3235.634
 70
    32
  0
VERTEX
  8
T20SSILL
 62
4
 10
-899.289
 20
-1902.078
 30
3235.633
 70
    32
  0
VERTEX
  8
T20SSILL
 62
4
 10
-911.874
 20
-1876.822
 30
3235.617
 70
    32
  0
VERTEX
  8
T20SSILL
 62
4
 10
-896.924
 20
-1865.941
 30
3235.609
 70
    32
  0
VERTEX
  8
T20SSILL
 62
4
 10
-901.081
 20
-1860.401
 30
3235.605
 70
    32
  0
VERTEX
  8
T20SSILL
 62
4
 10
-916.474
 20
-1870.579
 30
3235.614
 70
    32
  0
VERTEX
  8
T20SSILL
 62
4
 10
-955.077
 20
-1814.904
 30
3235.579
 70
    32
  0
VERTEX
  8
T20SSILL
 62
4
 10
-928.394
 20
-1801.942
 30
3235.568
 70
    32
  0
VERTEX
  8
T20SSILL
 62
4
 10
-896.273
 20
-1846.641
 30
3235.595
 70
    32
  0
VERTEX
  8
T20SSILL
 62
4
 10
-893.701
 20
-1852.362
 30
3235.599
 70
    32
  0
VERTEX
  8
T20SSILL
 62
4
 10
-896.515
 20
-1854.572
 30
3235.601
 70
    32
  0
VERTEX
  8
T20SSILL
 62
4
 10
-894.744
 20
-1857.740
 30
3235.603
 70
    32
  0
SEQEND
  8
T20SSILL
  0
POLYLINE
  8
T20SSILL
 62
4
 66
     1
 70
     9
  0
VERTEX
  8
T20SSILL
 62
4
 10
-910.817
 20
-1907.750
 30
3235.638
 70
    32
  0
VERTEX
  8
T20SSILL
 62
4
 10
-926.733
 20
-1919.779
 30
3235.648
 70
    32
  0
VERTEX
  8
T20SSILL
 62
4
 10
-937.452
 20
-1930.913
 30
3235.656
 70
    32
  0
VERTEX
  8
T20SSILL
 62
4
 10
-948.443
 20
-1939.756
 30
3235.663
 70
    32
  0
VERTEX
  8
T20SSILL
 62
4
 10
-960.581
 20
-1947.633
 30
3235.670
 70
    32
  0
VERTEX
  8
T20SSILL
 62
4
 10
-963.561
 20
-1953.545
 30
3235.674
 70
    32
  0
VERTEX
  8
T20SSILL
 62
4
 10
-970.167
 20
-1954.533
 30
3235.675
 70
    32
  0
VERTEX
  8
T20SSILL
 62
4
 10
-1029.844
 20
-1850.950
 30
3235.610
 70
    32
  0
VERTEX
  8
T20SSILL
 62
4
 10
-963.532
 20
-1818.724
 30
3235.582
 70
    32
  0
VERTEX
  8
T20SSILL
 62
4
 10
-920.414
 20
-1879.490
 30
3235.620
 70
    32
  0
VERTEX
  8
T20SSILL
 62
4
 10
-909.510
 20
-1902.547
 30
3235.635
 70
    32
  0
SEQEND
  8
T20SSILL
  0
POLYLINE
  8
T20SSILL
 62
4
 66
     1
 70
     9
  0
VERTEX
  8
T20SSILL
 62
4
 10
-971.948
 20
-1807.196
 30
3235.575
 70
    32
  0
VERTEX
  8
T20SSILL
 62
4
 10
-1026.874
 20
-1730.726
 30
3235.528
 70
    32
  0
VERTEX
  8
T20SSILL
 62
4
 10
-1043.506
 20
-1742.421
 30
3235.538
 70
    32
  0
VERTEX
  8
T20SSILL
 62
4
 10
-1050.188
 20
-1749.057
 30
3235.543
 70
    32
  0
VERTEX
  8
T20SSILL
 62
4
 10
-1050.313
 20
-1765.198
 30
3235.554
 70
    32
  0
VERTEX
  8
T20SSILL
 62
4
 10
-1052.665
 20
-1774.642
 30
3235.561
 70
    32
  0
VERTEX
  8
T20SSILL
 62
4
 10
-1055.463
 20
-1782.325
 30
3235.566
 70
    32
  0
VERTEX
  8
T20SSILL
 62
4
 10
-1064.249
 20
-1792.936
 30
3235.574
 70
    32
  0
VERTEX
  8
T20SSILL
 62
4
 10
-1041.902
 20
-1830.879
 30
3235.598
 70
    32
  0
VERTEX
  8
T20SSILL
 62
4
 10
-1022.473
 20
-1838.932
 30
3235.602
 70
    32
  0
VERTEX
  8
T20SSILL
 62
4
 10
-1020.709
 20
-1838.838
 30
3235.601
 70
    32
  0
VERTEX
  8
T20SSILL
 62
4
 10
-997.684
 20
-1812.658
 30
3235.581
 70
    32
  0
VERTEX
  8
T20SSILL
 62
4
 10
-991.842
 20
-1819.166
 30
3235.585
 70
    32
  0
VERTEX
  8
T20SSILL
 62
4
 10
-985.307
 20
-1821.968
 30
3235.587
 70
    32
  0
VERTEX
  8
T20SSILL
 62
4
 10
-972.891
 20
-1815.754
 30
3235.581
 70
    32
  0
SEQEND
  8
T20SSILL
  0
POLYLINE
  8
T20SSILL
 62
4
 66
     1
 70
     9
  0
VERTEX
  8
T20SSILL
 62
4
 10
-1075.154
 20
-1775.243
 30
3235.563
 70
    32
  0
VERTEX
  8
T20SSILL
 62
4
 10
-1071.252
 20
-1781.757
 30
3235.567
 70
    32
  0
VERTEX
  8
T20SSILL
 62
4
 10
-1059.894
 20
-1775.547
 30
3235.562
 70
    32
  0
VERTEX
  8
T20SSILL
 62
4
 10
-1058.670
 20
-1772.280
 30
3235.559
 70
    32
  0
VERTEX
  8
T20SSILL
 62
4
 10
-1058.792
 20
-1761.608
 30
3235.552
 70
    32
  0
VERTEX
  8
T20SSILL
 62
4
 10
-1063.924
 20
-1756.421
 30
3235.549
 70
    32
  0
VERTEX
  8
T20SSILL
 62
4
 10
-1072.018
 20
-1762.621
 30
3235.554
 70
    32
  0
SEQEND
  8
T20SSILL
  0
POLYLINE
  8
T20SSILL
 62
4
 66
     1
 70
     9
  0
VERTEX
  8
T20SSILL
 62
4
 10
-1053.693
 20
-1561.822
 30
3235.439
 70
    32
  0
VERTEX
  8
T20SSILL
 62
4
 10
-1043.117
 20
-1559.318
 30
3235.436
 70
    32
  0
VERTEX
  8
T20SSILL
 62
4
 10
-1033.946
 20
-1559.025
 30
3235.433
 70
    32
  0
VERTEX
  8
T20SSILL
 62
4
 10
-1022.741
 20
-1560.224
 30
3235.431
 70
    32
  0
VERTEX
  8
T20SSILL
 62
4
 10
-1015.060
 20
-1562.404
 30
3235.429
 70
    32
  0
VERTEX
  8
T20SSILL
 62
4
 10
-1042.434
 20
-1524.478
 30
3235.428
 70
    32
  0
SEQEND
  8
T20SSILL
  0
POLYLINE
  8
T20SSILL
 62
4
 66
     1
 70
     9
  0
VERTEX
  8
T20SSILL
 62
4
 10
154.252
 20
-1709.948
 30
3235.028
 70
    32
  0
VERTEX
  8
T20SSILL
 62
4
 10
153.677
 20
-1712.443
 30
3235.017
 70
    32
  0
VERTEX
  8
T20SSILL
 62
4
 10
155.411
 20
-1722.860
 30
3234.990
 70
    32
  0
VERTEX
  8
T20SSILL
 62
4
 10
174.852
 20
-1749.246
 30
3234.984
 70
    32
  0
VERTEX
  8
T20SSILL
 62
4
 10
180.590
 20
-1734.120
 30
3235.070
 70
    32
  0
VERTEX
  8
T20SSILL
 62
4
 10
188.735
 20
-1725.859
 30
3235.129
 70
    32
  0
VERTEX
  8
T20SSILL
 62
4
 10
271.451
 20
-1667.771
 30
3235.482
 70
    32
  0
VERTEX
  8
T20SSILL
 62
4
 10
285.212
 20
-1664.788
 30
3235.499
 70
    32
  0
VERTEX
  8
T20SSILL
 62
4
 10
296.460
 20
-1665.830
 30
3235.491
 70
    32
  0
VERTEX
  8
T20SSILL
 62
4
 10
300.760
 20
-1667.377
 30
3235.480
 70
    32
  0
VERTEX
  8
T20SSILL
 62
4
 10
285.008
 20
-1634.247
 30
3235.602
 70
    32
  0
VERTEX
  8
T20SSILL
 62
4
 10
266.941
 20
-1639.402
 30
3235.662
 70
    32
  0
VERTEX
  8
T20SSILL
 62
4
 10
249.555
 20
-1624.616
 30
3235.748
 70
    32
  0
VERTEX
  8
T20SSILL
 62
4
 10
242.622
 20
-1611.128
 30
3235.754
 70
    32
  0
VERTEX
  8
T20SSILL
 62
4
 10
245.608
 20
-1607.303
 30
3235.776
 70
    32
  0
VERTEX
  8
T20SSILL
 62
4
 10
251.856
 20
-1606.439
 30
3235.785
 70
    32
  0
VERTEX
  8
T20SSILL
 62
4
 10
254.938
 20
-1608.112
 30
3235.769
 70
    32
  0
VERTEX
  8
T20SSILL
 62
4
 10
264.421
 20
-1617.329
 30
3235.716
 70
    32
  0
VERTEX
  8
T20SSILL
 62
4
 10
265.615
 20
-1617.765
 30
3235.709
 70
    32
  0
VERTEX
  8
T20SSILL
 62
4
 10
266.051
 20
-1616.572
 30
3235.708
 70
    32
  0
VERTEX
  8
T20SSILL
 62
4
 10
265.081
 20
-1613.459
 30
3235.715
 70
    32
  0
VERTEX
  8
T20SSILL
 62
4
 10
260.556
 20
-1608.475
 30
3235.741
 70
    32
  0
VERTEX
  8
T20SSILL
 62
4
 10
256.382
 20
-1600.392
 30
3235.766
 70
    32
  0
VERTEX
  8
T20SSILL
 62
4
 10
258.472
 20
-1586.847
 30
3235.764
 70
    32
  0
VERTEX
  8
T20SSILL
 62
4
 10
252.019
 20
-1580.871
 30
3235.800
 70
    32
  0
VERTEX
  8
T20SSILL
 62
4
 10
248.613
 20
-1570.260
 30
3235.824
 70
    32
  0
VERTEX
  8
T20SSILL
 62
4
 10
248.555
 20
-1562.876
 30
3235.829
 70
    32
  0
VERTEX
  8
T20SSILL
 62
4
 10
250.257
 20
-1560.428
 30
3235.822
 70
    32
  0
VERTEX
  8
T20SSILL
 62
4
 10
240.546
 20
-1541.658
 30
3235.882
 70
    32
  0
VERTEX
  8
T20SSILL
 62
4
 10
234.506
 20
-1544.445
 30
3235.882
 70
    32
  0
VERTEX
  8
T20SSILL
 62
4
 10
229.424
 20
-1532.440
 30
3235.890
 70
    32
  0
VERTEX
  8
T20SSILL
 62
4
 10
228.184
 20
-1520.461
 30
3235.920
 70
    32
  0
VERTEX
  8
T20SSILL
 62
4
 10
229.109
 20
-1516.507
 30
3235.949
 70
    32
  0
VERTEX
  8
T20SSILL
 62
4
 10
211.734
 20
-1480.416
 30
3236.093
 70
    32
  0
VERTEX
  8
T20SSILL
 62
4
 10
205.390
 20
-1483.535
 30
3236.044
 70
    32
  0
VERTEX
  8
T20SSILL
 62
4
 10
199.627
 20
-1471.047
 30
3236.095
 70
    32
  0
VERTEX
  8
T20SSILL
 62
4
 10
206.055
 20
-1468.194
 30
3236.143
 70
    32
  0
VERTEX
  8
T20SSILL
 62
4
 10
167.926
 20
-1387.675
 30
3236.394
 70
    32
  0
VERTEX
  8
T20SSILL
 62
4
 10
156.479
 20
-1385.468
 30
3236.370
 70
    32
  0
VERTEX
  8
T20SSILL
 62
4
 10
132.281
 20
-1321.282
 30
3236.302
 70
    32
  0
VERTEX
  8
T20SSILL
 62
4
 10
131.446
 20
-1314.030
 30
3236.282
 70
    32
  0
VERTEX
  8
T20SSILL
 62
4
 10
123.189
 20
-1296.052
 30
3236.252
 70
    32
  0
VERTEX
  8
T20SSILL
 62
4
 10
115.395
 20
-1290.185
 30
3236.260
 70
    32
  0
VERTEX
  8
T20SSILL
 62
4
 10
102.950
 20
-1285.869
 30
3236.290
 70
    32
  0
VERTEX
  8
T20SSILL
 62
4
 10
90.370
 20
-1285.692
 30
3236.326
 70
    32
  0
VERTEX
  8
T20SSILL
 62
4
 10
73.888
 20
-1292.415
 30
3236.267
 70
    32
  0
VERTEX
  8
T20SSILL
 62
4
 10
-11.675
 20
-1353.027
 30
3235.656
 70
    32
  0
VERTEX
  8
T20SSILL
 62
4
 10
-11.033
 20
-1357.034
 30
3235.640
 70
    32
  0
VERTEX
  8
T20SSILL
 62
4
 10
-22.996
 20
-1366.345
 30
3235.532
 70
    32
  0
VERTEX
  8
T20SSILL
 62
4
 10
-27.362
 20
-1364.411
 30
3235.518
 70
    32
  0
VERTEX
  8
T20SSILL
 62
4
 10
-55.890
 20
-1384.656
 30
3235.271
 70
    32
  0
VERTEX
  8
T20SSILL
 62
4
 10
-60.552
 20
-1388.727
 30
3235.227
 70
    32
  0
VERTEX
  8
T20SSILL
 62
4
 10
-65.601
 20
-1397.340
 30
3235.158
 70
    32
  0
VERTEX
  8
T20SSILL
 62
4
 10
-66.540
 20
-1400.978
 30
3235.136
 70
    32
  0
VERTEX
  8
T20SSILL
 62
4
 10
-67.022
 20
-1409.413
 30
3235.093
 70
    32
  0
VERTEX
  8
T20SSILL
 62
4
 10
-63.853
 20
-1419.105
 30
3235.063
 70
    32
  0
VERTEX
  8
T20SSILL
 62
4
 10
-26.596
 20
-1470.556
 30
3235.010
 70
    32
  0
VERTEX
  8
T20SSILL
 62
4
 10
-15.107
 20
-1462.684
 30
3235.108
 70
    32
  0
VERTEX
  8
T20SSILL
 62
4
 10
-11.363
 20
-1468.242
 30
3235.101
 70
    32
  0
VERTEX
  8
T20SSILL
 62
4
 10
-21.242
 20
-1477.118
 30
3235.006
 70
    32
  0
VERTEX
  8
T20SSILL
 62
4
 10
-6.919
 20
-1497.861
 30
3234.980
 70
    32
  0
VERTEX
  8
T20SSILL
 62
4
 10
0.958
 20
-1497.879
 30
3235.014
 70
    32
  0
VERTEX
  8
T20SSILL
 62
4
 10
4.641
 20
-1502.607
 30
3235.018
 70
    32
  0
VERTEX
  8
T20SSILL
 62
4
 10
5.956
 20
-1504.701
 30
3235.018
 70
    32
  0
VERTEX
  8
T20SSILL
 62
4
 10
3.613
 20
-1512.534
 30
3234.981
 70
    32
  0
VERTEX
  8
T20SSILL
 62
4
 10
28.516
 20
-1546.823
 30
3234.984
 70
    32
  0
VERTEX
  8
T20SSILL
 62
4
 10
39.962
 20
-1539.639
 30
3235.060
 70
    32
  0
VERTEX
  8
T20SSILL
 62
4
 10
43.825
 20
-1545.656
 30
3235.058
 70
    32
  0
VERTEX
  8
T20SSILL
 62
4
 10
33.827
 20
-1554.073
 30
3234.984
 70
    32
  0
VERTEX
  8
T20SSILL
 62
4
 10
84.409
 20
-1624.157
 30
3234.987
 70
    32
  0
VERTEX
  8
T20SSILL
 62
4
 10
95.832
 20
-1615.897
 30
3235.067
 70
    32
  0
VERTEX
  8
T20SSILL
 62
4
 10
99.728
 20
-1622.109
 30
3235.065
 70
    32
  0
VERTEX
  8
T20SSILL
 62
4
 10
88.854
 20
-1630.075
 30
3234.988
 70
    32
  0
VERTEX
  8
T20SSILL
 62
4
 10
146.474
 20
-1710.512
 30
3234.990
 70
    32
  0
VERTEX
  8
T20SSILL
 62
4
 10
149.378
 20
-1699.866
 30
3235.038
 70
    32
  0
VERTEX
  8
T20SSILL
 62
4
 10
155.795
 20
-1690.140
 30
3235.100
 70
    32
  0
VERTEX
  8
T20SSILL
 62
4
 10
213.580
 20
-1648.873
 30
3235.502
 70
    32
  0
VERTEX
  8
T20SSILL
 62
4
 10
217.525
 20
-1654.229
 30
3235.503
 70
    32
  0
VERTEX
  8
T20SSILL
 62
4
 10
161.145
 20
-1695.504
 30
3235.107
 70
    32
  0
VERTEX
  8
T20SSILL
 62
4
 10
154.888
 20
-1706.642
 30
3235.041
 70
    32
  0
SEQEND
  8
T20SSILL
  0
POLYLINE
  8
T20SSILL
 62
4
 66
     1
 70
     9
  0
VERTEX
  8
T20SSILL
 62
4
 10
236.434
 20
-1793.797
 30
3235.009
 70
    32
  0
VERTEX
  8
T20SSILL
 62
4
 10
242.883
 20
-1798.574
 30
3235.013
 70
    32
  0
VERTEX
  8
T20SSILL
 62
4
 10
248.326
 20
-1806.600
 30
3235.012
 70
    32
  0
VERTEX
  8
T20SSILL
 62
4
 10
248.829
 20
-1815.187
 30
3235.004
 70
    32
  0
VERTEX
  8
T20SSILL
 62
4
 10
261.863
 20
-1837.748
 30
3234.998
 70
    32
  0
VERTEX
  8
T20SSILL
 62
4
 10
269.392
 20
-1842.062
 30
3235.003
 70
    32
  0
VERTEX
  8
T20SSILL
 62
4
 10
271.150
 20
-1840.883
 30
3235.007
 70
    32
  0
VERTEX
  8
T20SSILL
 62
4
 10
271.494
 20
-1833.750
 30
3235.014
 70
    32
  0
VERTEX
  8
T20SSILL
 62
4
 10
276.365
 20
-1828.325
 30
3235.025
 70
    32
  0
VERTEX
  8
T20SSILL
 62
4
 10
285.774
 20
-1823.725
 30
3235.039
 70
    32
  0
VERTEX
  8
T20SSILL
 62
4
 10
294.191
 20
-1824.330
 30
3235.046
 70
    32
  0
VERTEX
  8
T20SSILL
 62
4
 10
343.646
 20
-1788.972
 30
3235.125
 70
    32
  0
VERTEX
  8
T20SSILL
 62
4
 10
346.580
 20
-1783.436
 30
3235.132
 70
    32
  0
VERTEX
  8
T20SSILL
 62
4
 10
348.880
 20
-1777.929
 30
3235.134
 70
    32
  0
VERTEX
  8
T20SSILL
 62
4
 10
348.878
 20
-1771.814
 30
3235.138
 70
    32
  0
VERTEX
  8
T20SSILL
 62
4
 10
344.143
 20
-1758.791
 30
3235.150
 70
    32
  0
VERTEX
  8
T20SSILL
 62
4
 10
308.497
 20
-1684.644
 30
3235.352
 70
    32
  0
VERTEX
  8
T20SSILL
 62
4
 10
305.775
 20
-1680.631
 30
3235.383
 70
    32
  0
VERTEX
  8
T20SSILL
 62
4
 10
298.209
 20
-1674.925
 30
3235.430
 70
    32
  0
VERTEX
  8
T20SSILL
 62
4
 10
292.748
 20
-1673.137
 30
3235.445
 70
    32
  0
VERTEX
  8
T20SSILL
 62
4
 10
284.545
 20
-1672.376
 30
3235.451
 70
    32
  0
VERTEX
  8
T20SSILL
 62
4
 10
276.156
 20
-1674.044
 30
3235.442
 70
    32
  0
VERTEX
  8
T20SSILL
 62
4
 10
271.812
 20
-1676.462
 30
3235.428
 70
    32
  0
VERTEX
  8
T20SSILL
 62
4
 10
191.010
 20
-1733.585
 30
3235.080
 70
    32
  0
VERTEX
  8
T20SSILL
 62
4
 10
184.110
 20
-1742.354
 30
3235.026
 70
    32
  0
VERTEX
  8
T20SSILL
 62
4
 10
182.006
 20
-1753.943
 30
3234.981
 70
    32
  0
VERTEX
  8
T20SSILL
 62
4
 10
184.190
 20
-1763.483
 30
3234.974
 70
    32
  0
VERTEX
  8
T20SSILL
 62
4
 10
208.369
 20
-1796.337
 30
3234.972
 70
    32
  0
VERTEX
  8
T20SSILL
 62
4
 10
217.415
 20
-1797.355
 30
3234.983
 70
    32
  0
VERTEX
  8
T20SSILL
 62
4
 10
232.730
 20
-1792.469
 30
3235.006
 70
    32
  0
SEQEND
  8
T20SSILL
  0
POLYLINE
  8
T20SSILL
 62
4
 66
     1
 70
     9
  0
VERTEX
  8
T20SSILL
 62
4
 10
308.110
 20
-1827.676
 30
3235.053
 70
    32
  0
VERTEX
  8
T20SSILL
 62
4
 10
298.488
 20
-1830.793
 30
3235.042
 70
    32
  0
VERTEX
  8
T20SSILL
 62
4
 10
275.770
 20
-1846.891
 30
3235.006
 70
    32
  0
VERTEX
  8
T20SSILL
 62
4
 10
273.039
 20
-1853.152
 30
3234.997
 70
    32
  0
VERTEX
  8
T20SSILL
 62
4
 10
266.290
 20
-1860.935
 30
3234.982
 70
    32
  0
VERTEX
  8
T20SSILL
 62
4
 10
268.407
 20
-1871.726
 30
3234.973
 70
    32
  0
VERTEX
  8
T20SSILL
 62
4
 10
267.201
 20
-1878.726
 30
3234.964
 70
    32
  0
VERTEX
  8
T20SSILL
 62
4
 10
274.046
 20
-1887.473
 30
3234.960
 70
    32
  0
VERTEX
  8
T20SSILL
 62
4
 10
277.186
 20
-1888.777
 30
3234.961
 70
    32
  0
VERTEX
  8
T20SSILL
 62
4
 10
282.846
 20
-1888.452
 30
3234.966
 70
    32
  0
VERTEX
  8
T20SSILL
 62
4
 10
289.263
 20
-1889.758
 30
3234.970
 70
    32
  0
VERTEX
  8
T20SSILL
 62
4
 10
297.339
 20
-1889.302
 30
3234.977
 70
    32
  0
VERTEX
  8
T20SSILL
 62
4
 10
304.532
 20
-1882.722
 30
3234.991
 70
    32
  0
VERTEX
  8
T20SSILL
 62
4
 10
327.012
 20
-1829.773
 30
3235.067
 70
    32
  0
VERTEX
  8
T20SSILL
 62
4
 10
318.847
 20
-1827.127
 30
3235.063
 70
    32
  0
VERTEX
  8
T20SSILL
 62
4
 10
312.557
 20
-1827.039
 30
3235.058
 70
    32
  0
SEQEND
  8
T20SSILL
  0
POLYLINE
  8
T20SSILL
 62
4
 66
     1
 70
     9
  0
VERTEX
  8
T20SSILL
 62
4
 10
358.430
 20
-1889.652
 30
3235.027
 70
    32
  0
VERTEX
  8
T20SSILL
 62
4
 10
357.139
 20
-1885.355
 30
3235.031
 70
    32
  0
VERTEX
  8
T20SSILL
 62
4
 10
349.426
 20
-1878.555
 30
3235.032
 70
    32
  0
VERTEX
  8
T20SSILL
 62
4
 10
337.969
 20
-1878.867
 30
3235.022
 70
    32
  0
VERTEX
  8
T20SSILL
 62
4
 10
333.319
 20
-1884.894
 30
3235.012
 70
    32
  0
VERTEX
  8
T20SSILL
 62
4
 10
329.562
 20
-1886.773
 30
3235.007
 70
    32
  0
VERTEX
  8
T20SSILL
 62
4
 10
329.893
 20
-1888.715
 30
3235.005
 70
    32
  0
VERTEX
  8
T20SSILL
 62
4
 10
326.031
 20
-1892.091
 30
3234.998
 70
    32
  0
VERTEX
  8
T20SSILL
 62
4
 10
327.539
 20
-1899.068
 30
3234.992
 70
    32
  0
VERTEX
  8
T20SSILL
 62
4
 10
334.165
 20
-1900.658
 30
3234.995
 70
    32
  0
VERTEX
  8
T20SSILL
 62
4
 10
358.625
 20
-1899.011
 30
3235.017
 70
    32
  0
VERTEX
  8
T20SSILL
 62
4
 10
358.968
 20
-1893.517
 30
3235.024
 70
    32
  0
SEQEND
  8
T20SSILL
  0
POLYLINE
  8
T20SSILL
 62
4
 66
     1
 70
     9
  0
VERTEX
  8
T20SSILL
 62
4
 10
299.335
 20
-1906.188
 30
3234.961
 70
    32
  0
VERTEX
  8
T20SSILL
 62
4
 10
299.034
 20
-1912.635
 30
3234.953
 70
    32
  0
VERTEX
  8
T20SSILL
 62
4
 10
296.142
 20
-1919.122
 30
3234.944
 70
    32
  0
VERTEX
  8
T20SSILL
 62
4
 10
334.449
 20
-1972.752
 30
3234.917
 70
    32
  0
VERTEX
  8
T20SSILL
 62
4
 10
346.332
 20
-1964.373
 30
3234.936
 70
    32
  0
VERTEX
  8
T20SSILL
 62
4
 10
349.688
 20
-1969.997
 30
3234.933
 70
    32
  0
VERTEX
  8
T20SSILL
 62
4
 10
338.369
 20
-1978.399
 30
3234.914
 70
    32
  0
VERTEX
  8
T20SSILL
 62
4
 10
387.701
 20
-2046.778
 30
3234.880
 70
    32
  0
VERTEX
  8
T20SSILL
 62
4
 10
389.766
 20
-2046.467
 30
3234.882
 70
    32
  0
VERTEX
  8
T20SSILL
 62
4
 10
394.415
 20
-2040.439
 30
3234.893
 70
    32
  0
VERTEX
  8
T20SSILL
 62
4
 10
333.658
 20
-1931.719
 30
3234.961
 70
    32
  0
VERTEX
  8
T20SSILL
 62
4
 10
313.518
 20
-1901.695
 30
3234.977
 70
    32
  0
VERTEX
  8
T20SSILL
 62
4
 10
298.423
 20
-1901.068
 30
3234.965
 70
    32
  0
SEQEND
  8
T20SSILL
  0
POLYLINE
  8
T20SSILL
 62
4
 66
     1
 70
     9
  0
VERTEX
  8
T20SSILL
 62
4
 10
455.681
 20
-2124.213
 30
3234.836
 70
    32
  0
VERTEX
  8
T20SSILL
 62
4
 10
466.728
 20
-2110.221
 30
3234.837
 70
    32
  0
VERTEX
  8
T20SSILL
 62
4
 10
470.668
 20
-2101.437
 30
3234.840
 70
    32
  0
VERTEX
  8
T20SSILL
 62
4
 10
472.987
 20
-2086.414
 30
3234.848
 70
    32
  0
VERTEX
  8
T20SSILL
 62
4
 10
472.474
 20
-2078.708
 30
3234.853
 70
    32
  0
VERTEX
  8
T20SSILL
 62
4
 10
469.196
 20
-2069.314
 30
3234.862
 70
    32
  0
VERTEX
  8
T20SSILL
 62
4
 10
447.222
 20
-2050.353
 30
3234.889
 70
    32
  0
VERTEX
  8
T20SSILL
 62
4
 10
443.557
 20
-2037.748
 30
3234.900
 70
    32
  0
VERTEX
  8
T20SSILL
 62
4
 10
431.331
 20
-2010.773
 30
3234.926
 70
    32
  0
VERTEX
  8
T20SSILL
 62
4
 10
429.866
 20
-2003.108
 30
3234.932
 70
    32
  0
VERTEX
  8
T20SSILL
 62
4
 10
430.459
 20
-2000.489
 30
3234.933
 70
    32
  0
VERTEX
  8
T20SSILL
 62
4
 10
390.889
 20
-1932.167
 30
3235.005
 70
    32
  0
VERTEX
  8
T20SSILL
 62
4
 10
381.094
 20
-1930.277
 30
3235.002
 70
    32
  0
VERTEX
  8
T20SSILL
 62
4
 10
375.683
 20
-1924.084
 30
3235.004
 70
    32
  0
VERTEX
  8
T20SSILL
 62
4
 10
370.119
 20
-1922.154
 30
3235.002
 70
    32
  0
VERTEX
  8
T20SSILL
 62
4
 10
360.060
 20
-1909.318
 30
3235.007
 70
    32
  0
VERTEX
  8
T20SSILL
 62
4
 10
337.627
 20
-1910.900
 30
3234.987
 70
    32
  0
VERTEX
  8
T20SSILL
 62
4
 10
335.750
 20
-1913.258
 30
3234.983
 70
    32
  0
VERTEX
  8
T20SSILL
 62
4
 10
342.532
 20
-1926.092
 30
3234.975
 70
    32
  0
VERTEX
  8
T20SSILL
 62
4
 10
355.896
 20
-1931.810
 30
3234.979
 70
    32
  0
VERTEX
  8
T20SSILL
 62
4
 10
362.351
 20
-1932.869
 30
3234.984
 70
    32
  0
VERTEX
  8
T20SSILL
 62
4
 10
362.109
 20
-1943.422
 30
3234.972
 70
    32
  0
VERTEX
  8
T20SSILL
 62
4
 10
359.229
 20
-1945.751
 30
3234.967
 70
    32
  0
VERTEX
  8
T20SSILL
 62
4
 10
356.223
 20
-1951.339
 30
3234.958
 70
    32
  0
VERTEX
  8
T20SSILL
 62
4
 10
414.716
 20
-2051.451
 30
3234.898
 70
    32
  0
VERTEX
  8
T20SSILL
 62
4
 10
405.394
 20
-2071.823
 30
3234.868
 70
    32
  0
VERTEX
  8
T20SSILL
 62
4
 10
452.734
 20
-2137.184
 30
3234.830
 70
    32
  0
VERTEX
  8
T20SSILL
 62
4
 10
454.486
 20
-2127.054
 30
3234.835
 70
    32
  0
SEQEND
  8
T20SSILL
  0
POLYLINE
  8
T20SSILL
 62
4
 66
     1
 70
     9
  0
VERTEX
  8
T20SSILL
 62
4
 10
2873.651
 20
-3809.535
 30
3236.348
 70
    32
  0
VERTEX
  8
T20SSILL
 62
4
 10
2878.105
 20
-3806.589
 30
3236.340
 70
    32
  0
VERTEX
  8
T20SSILL
 62
4
 10
2882.307
 20
-3813.492
 30
3236.339
 70
    32
  0
VERTEX
  8
T20SSILL
 62
4
 10
2878.819
 20
-3816.253
 30
3236.346
 70
    32
  0
VERTEX
  8
T20SSILL
 62
4
 10
2909.960
 20
-3861.038
 30
3236.337
 70
    32
  0
VERTEX
  8
T20SSILL
 62
4
 10
2932.226
 20
-3846.040
 30
3236.294
 70
    32
  0
VERTEX
  8
T20SSILL
 62
4
 10
2956.045
 20
-3879.822
 30
3236.287
 70
    32
  0
VERTEX
  8
T20SSILL
 62
4
 10
2934.133
 20
-3895.080
 30
3236.330
 70
    32
  0
VERTEX
  8
T20SSILL
 62
4
 10
2953.927
 20
-3922.133
 30
3236.323
 70
    32
  0
VERTEX
  8
T20SSILL
 62
4
 10
3103.650
 20
-3913.045
 30
3236.104
 70
    32
  0
VERTEX
  8
T20SSILL
 62
4
 10
3004.463
 20
-3773.825
 30
3236.136
 70
    32
  0
VERTEX
  8
T20SSILL
 62
4
 10
2788.159
 20
-3685.561
 30
3236.372
 70
    32
  0
VERTEX
  8
T20SSILL
 62
4
 10
2786.852
 20
-3686.630
 30
3236.375
 70
    32
  0
VERTEX
  8
T20SSILL
 62
4
 10
2787.217
 20
-3687.945
 30
3236.376
 70
    32
  0
SEQEND
  8
T20SSILL
  0
POLYLINE
  8
T20SSILL
 62
4
 66
     1
 70
     9
  0
VERTEX
  8
T20SSILL
 62
4
 10
2107.748
 20
-3933.766
 30
3237.120
 70
    32
  0
VERTEX
  8
T20SSILL
 62
4
 10
2094.636
 20
-3922.909
 30
3237.117
 70
    32
  0
VERTEX
  8
T20SSILL
 62
4
 10
2072.034
 20
-3912.774
 30
3237.048
 70
    32
  0
VERTEX
  8
T20SSILL
 62
4
 10
2045.912
 20
-3907.271
 30
3236.921
 70
    32
  0
VERTEX
  8
T20SSILL
 62
4
 10
1949.908
 20
-3882.562
 30
3236.626
 70
    32
  0
VERTEX
  8
T20SSILL
 62
4
 10
1862.295
 20
-3863.702
 30
3236.710
 70
    32
  0
VERTEX
  8
T20SSILL
 62
4
 10
1934.633
 20
-3811.576
 30
3237.743
 70
    32
  0
VERTEX
  8
T20SSILL
 62
4
 10
2100.314
 20
-3692.190
 30
3237.064
 70
    32
  0
VERTEX
  8
T20SSILL
 62
4
 10
2120.334
 20
-3940.149
 30
3237.153
 70
    32
  0
VERTEX
  8
T20SSILL
 62
4
 10
2114.093
 20
-3940.568
 30
3237.110
 70
    32
  0
VERTEX
  8
T20SSILL
 62
4
 10
2111.679
 20
-3937.402
 30
3237.118
 70
    32
  0
SEQEND
  8
T20SSILL
  0
POLYLINE
  8
T20SSILL
 62
4
 66
     1
 70
     9
  0
VERTEX
  8
T20SSILL
 62
4
 10
1696.136
 20
-3230.883
 30
3235.762
 70
    32
  0
VERTEX
  8
T20SSILL
 62
4
 10
1697.695
 20
-3228.926
 30
3235.756
 70
    32
  0
VERTEX
  8
T20SSILL
 62
4
 10
1698.849
 20
-3229.615
 30
3235.758
 70
    32
  0
VERTEX
  8
T20SSILL
 62
4
 10
1718.765
 20
-3258.413
 30
3235.857
 70
    32
  0
VERTEX
  8
T20SSILL
 62
4
 10
1726.937
 20
-3257.164
 30
3235.854
 70
    32
  0
VERTEX
  8
T20SSILL
 62
4
 10
1736.139
 20
-3253.876
 30
3235.843
 70
    32
  0
VERTEX
  8
T20SSILL
 62
4
 10
1738.050
 20
-3251.826
 30
3235.836
 70
    32
  0
VERTEX
  8
T20SSILL
 62
4
 10
1740.803
 20
-3239.993
 30
3235.796
 70
    32
  0
VERTEX
  8
T20SSILL
 62
4
 10
1739.947
 20
-3235.074
 30
3235.779
 70
    32
  0
VERTEX
  8
T20SSILL
 62
4
 10
1728.748
 20
-3213.119
 30
3235.703
 70
    32
  0
VERTEX
  8
T20SSILL
 62
4
 10
1726.995
 20
-3206.890
 30
3235.682
 70
    32
  0
VERTEX
  8
T20SSILL
 62
4
 10
1787.020
 20
-3164.210
 30
3235.539
 70
    32
  0
VERTEX
  8
T20SSILL
 62
4
 10
1790.512
 20
-3168.743
 30
3235.555
 70
    32
  0
VERTEX
  8
T20SSILL
 62
4
 10
1794.953
 20
-3164.900
 30
3235.542
 70
    32
  0
VERTEX
  8
T20SSILL
 62
4
 10
1802.392
 20
-3175.106
 30
3235.577
 70
    32
  0
VERTEX
  8
T20SSILL
 62
4
 10
1805.881
 20
-3172.596
 30
3235.569
 70
    32
  0
VERTEX
  8
T20SSILL
 62
4
 10
1830.340
 20
-3191.827
 30
3235.636
 70
    32
  0
VERTEX
  8
T20SSILL
 62
4
 10
1831.156
 20
-3193.665
 30
3235.642
 70
    32
  0
VERTEX
  8
T20SSILL
 62
4
 10
1807.311
 20
-3242.748
 30
3235.809
 70
    32
  0
VERTEX
  8
T20SSILL
 62
4
 10
1812.251
 20
-3263.991
 30
3235.881
 70
    32
  0
VERTEX
  8
T20SSILL
 62
4
 10
1671.361
 20
-3365.203
 30
3236.089
 70
    32
  0
VERTEX
  8
T20SSILL
 62
4
 10
1674.785
 20
-3371.323
 30
3236.112
 70
    32
  0
VERTEX
  8
T20SSILL
 62
4
 10
1813.673
 20
-3271.897
 30
3235.908
 70
    32
  0
VERTEX
  8
T20SSILL
 62
4
 10
1817.354
 20
-3284.264
 30
3235.951
 70
    32
  0
VERTEX
  8
T20SSILL
 62
4
 10
1891.675
 20
-3387.992
 30
3236.309
 70
    32
  0
VERTEX
  8
T20SSILL
 62
4
 10
1898.580
 20
-3384.030
 30
3236.296
 70
    32
  0
VERTEX
  8
T20SSILL
 62
4
 10
1876.523
 20
-3353.058
 30
3236.189
 70
    32
  0
VERTEX
  8
T20SSILL
 62
4
 10
1876.762
 20
-3351.118
 30
3236.182
 70
    32
  0
VERTEX
  8
T20SSILL
 62
4
 10
1957.206
 20
-3294.176
 30
3235.992
 70
    32
  0
VERTEX
  8
T20SSILL
 62
4
 10
1961.506
 20
-3286.197
 30
3235.965
 70
    32
  0
VERTEX
  8
T20SSILL
 62
4
 10
1984.519
 20
-3295.674
 30
3235.998
 70
    32
  0
VERTEX
  8
T20SSILL
 62
4
 10
1991.615
 20
-3306.588
 30
3236.036
 70
    32
  0
VERTEX
  8
T20SSILL
 62
4
 10
2009.926
 20
-3326.955
 30
3236.107
 70
    32
  0
VERTEX
  8
T20SSILL
 62
4
 10
2017.223
 20
-3339.891
 30
3236.151
 70
    32
  0
VERTEX
  8
T20SSILL
 62
4
 10
2023.565
 20
-3346.941
 30
3236.176
 70
    32
  0
VERTEX
  8
T20SSILL
 62
4
 10
2031.028
 20
-3352.128
 30
3236.194
 70
    32
  0
VERTEX
  8
T20SSILL
 62
4
 10
2043.278
 20
-3355.470
 30
3236.206
 70
    32
  0
VERTEX
  8
T20SSILL
 62
4
 10
2099.845
 20
-3432.223
 30
3236.471
 70
    32
  0
VERTEX
  8
T20SSILL
 62
4
 10
2105.653
 20
-3434.288
 30
3236.465
 70
    32
  0
VERTEX
  8
T20SSILL
 62
4
 10
2114.821
 20
-3434.372
 30
3236.442
 70
    32
  0
VERTEX
  8
T20SSILL
 62
4
 10
2126.403
 20
-3428.545
 30
3236.401
 70
    32
  0
VERTEX
  8
T20SSILL
 62
4
 10
2145.781
 20
-3414.748
 30
3236.321
 70
    32
  0
VERTEX
  8
T20SSILL
 62
4
 10
2150.028
 20
-3421.985
 30
3236.327
 70
    32
  0
VERTEX
  8
T20SSILL
 62
4
 10
2155.586
 20
-3417.627
 30
3236.304
 70
    32
  0
VERTEX
  8
T20SSILL
 62
4
 10
2159.166
 20
-3423.568
 30
3236.309
 70
    32
  0
VERTEX
  8
T20SSILL
 62
4
 10
2168.377
 20
-3415.719
 30
3236.268
 70
    32
  0
VERTEX
  8
T20SSILL
 62
4
 10
2160.320
 20
-3403.431
 30
3236.260
 70
    32
  0
VERTEX
  8
T20SSILL
 62
4
 10
2166.455
 20
-3400.284
 30
3236.238
 70
    32
  0
VERTEX
  8
T20SSILL
 62
4
 10
2171.970
 20
-3406.150
 30
3236.238
 70
    32
  0
VERTEX
  8
T20SSILL
 62
4
 10
2174.105
 20
-3411.178
 30
3236.244
 70
    32
  0
VERTEX
  8
T20SSILL
 62
4
 10
2179.374
 20
-3417.494
 30
3236.245
 70
    32
  0
VERTEX
  8
T20SSILL
 62
4
 10
2185.439
 20
-3432.943
 30
3236.265
 70
    32
  0
VERTEX
  8
T20SSILL
 62
4
 10
2185.814
 20
-3438.039
 30
3236.276
 70
    32
  0
VERTEX
  8
T20SSILL
 62
4
 10
2178.506
 20
-3442.730
 30
3236.305
 70
    32
  0
VERTEX
  8
T20SSILL
 62
4
 10
2163.410
 20
-3444.287
 30
3236.345
 70
    32
  0
VERTEX
  8
T20SSILL
 62
4
 10
2165.066
 20
-3452.859
 30
3236.361
 70
    32
  0
VERTEX
  8
T20SSILL
 62
4
 10
2182.360
 20
-3448.925
 30
3236.309
 70
    32
  0
VERTEX
  8
T20SSILL
 62
4
 10
2185.767
 20
-3445.884
 30
3236.294
 70
    32
  0
VERTEX
  8
T20SSILL
 62
4
 10
2188.643
 20
-3445.067
 30
3236.285
 70
    32
  0
VERTEX
  8
T20SSILL
 62
4
 10
2196.093
 20
-3448.566
 30
3236.275
 70
    32
  0
VERTEX
  8
T20SSILL
 62
4
 10
2213.514
 20
-3445.596
 30
3236.253
 70
    32
  0
VERTEX
  8
T20SSILL
 62
4
 10
2214.588
 20
-3441.501
 30
3236.242
 70
    32
  0
VERTEX
  8
T20SSILL
 62
4
 10
2213.983
 20
-3437.295
 30
3236.231
 70
    32
  0
VERTEX
  8
T20SSILL
 62
4
 10
2212.692
 20
-3433.556
 30
3236.222
 70
    32
  0
VERTEX
  8
T20SSILL
 62
4
 10
2208.382
 20
-3429.229
 30
3236.212
 70
    32
  0
VERTEX
  8
T20SSILL
 62
4
 10
2206.799
 20
-3424.797
 30
3236.201
 70
    32
  0
VERTEX
  8
T20SSILL
 62
4
 10
2214.440
 20
-3415.070
 30
3236.172
 70
    32
  0
VERTEX
  8
T20SSILL
 62
4
 10
2198.851
 20
-3399.463
 30
3236.156
 70
    32
  0
VERTEX
  8
T20SSILL
 62
4
 10
2181.392
 20
-3405.959
 30
3236.214
 70
    32
  0
VERTEX
  8
T20SSILL
 62
4
 10
2179.641
 20
-3404.001
 30
3236.214
 70
    32
  0
VERTEX
  8
T20SSILL
 62
4
 10
2194.283
 20
-3393.032
 30
3236.153
 70
    32
  0
VERTEX
  8
T20SSILL
 62
4
 10
2186.941
 20
-3383.272
 30
3236.149
 70
    32
  0
VERTEX
  8
T20SSILL
 62
4
 10
2194.495
 20
-3377.232
 30
3236.116
 70
    32
  0
VERTEX
  8
T20SSILL
 62
4
 10
2199.088
 20
-3380.032
 30
3236.111
 70
    32
  0
VERTEX
  8
T20SSILL
 62
4
 10
2202.520
 20
-3385.053
 30
3236.114
 70
    32
  0
VERTEX
  8
T20SSILL
 62
4
 10
2204.633
 20
-3382.793
 30
3236.104
 70
    32
  0
VERTEX
  8
T20SSILL
 62
4
 10
2206.610
 20
-3383.740
 30
3236.101
 70
    32
  0
VERTEX
  8
T20SSILL
 62
4
 10
2234.135
 20
-3400.380
 30
3236.125
 70
    32
  0
VERTEX
  8
T20SSILL
 62
4
 10
2234.397
 20
-3402.573
 30
3236.131
 70
    32
  0
VERTEX
  8
T20SSILL
 62
4
 10
2231.143
 20
-3404.991
 30
3236.139
 70
    32
  0
VERTEX
  8
T20SSILL
 62
4
 10
2242.436
 20
-3425.700
 30
3236.189
 70
    32
  0
VERTEX
  8
T20SSILL
 62
4
 10
2247.626
 20
-3423.207
 30
3236.180
 70
    32
  0
VERTEX
  8
T20SSILL
 62
4
 10
2249.888
 20
-3426.996
 30
3236.189
 70
    32
  0
VERTEX
  8
T20SSILL
 62
4
 10
2252.783
 20
-3428.910
 30
3236.193
 70
    32
  0
VERTEX
  8
T20SSILL
 62
4
 10
2255.994
 20
-3427.639
 30
3236.188
 70
    32
  0
VERTEX
  8
T20SSILL
 62
4
 10
2265.978
 20
-3437.384
 30
3236.209
 70
    32
  0
VERTEX
  8
T20SSILL
 62
4
 10
2262.468
 20
-3442.280
 30
3236.224
 70
    32
  0
VERTEX
  8
T20SSILL
 62
4
 10
2285.433
 20
-3461.741
 30
3236.265
 70
    32
  0
VERTEX
  8
T20SSILL
 62
4
 10
2290.228
 20
-3476.271
 30
3236.302
 70
    32
  0
VERTEX
  8
T20SSILL
 62
4
 10
2290.258
 20
-3481.557
 30
3236.316
 70
    32
  0
VERTEX
  8
T20SSILL
 62
4
 10
2293.908
 20
-3484.763
 30
3236.323
 70
    32
  0
VERTEX
  8
T20SSILL
 62
4
 10
2302.872
 20
-3497.720
 30
3236.353
 70
    32
  0
VERTEX
  8
T20SSILL
 62
4
 10
2316.466
 20
-3496.045
 30
3236.343
 70
    32
  0
VERTEX
  8
T20SSILL
 62
4
 10
2336.488
 20
-3485.220
 30
3236.306
 70
    32
  0
VERTEX
  8
T20SSILL
 62
4
 10
2341.179
 20
-3485.742
 30
3236.305
 70
    32
  0
VERTEX
  8
T20SSILL
 62
4
 10
2345.178
 20
-3484.352
 30
3236.300
 70
    32
  0
VERTEX
  8
T20SSILL
 62
4
 10
2369.177
 20
-3473.812
 30
3236.262
 70
    32
  0
VERTEX
  8
T20SSILL
 62
4
 10
2374.685
 20
-3477.211
 30
3236.268
 70
    32
  0
VERTEX
  8
T20SSILL
 62
4
 10
2376.473
 20
-3480.137
 30
3236.275
 70
    32
  0
VERTEX
  8
T20SSILL
 62
4
 10
2375.652
 20
-3488.453
 30
3236.298
 70
    32
  0
VERTEX
  8
T20SSILL
 62
4
 10
2153.970
 20
-3644.038
 30
3236.823
 70
    32
  0
VERTEX
  8
T20SSILL
 62
4
 10
1928.341
 20
-3806.382
 30
3237.740
 70
    32
  0
VERTEX
  8
T20SSILL
 62
4
 10
1858.709
 20
-3856.482
 30
3236.816
 70
    32
  0
VERTEX
  8
T20SSILL
 62
4
 10
1836.309
 20
-3858.425
 30
3236.729
 70
    32
  0
VERTEX
  8
T20SSILL
 62
4
 10
1593.941
 20
-3804.901
 30
3236.446
 70
    32
  0
VERTEX
  8
T20SSILL
 62
4
 10
1587.743
 20
-3802.296
 30
3236.427
 70
    32
  0
VERTEX
  8
T20SSILL
 62
4
 10
1576.436
 20
-3794.767
 30
3236.403
 70
    32
  0
VERTEX
  8
T20SSILL
 62
4
 10
1573.793
 20
-3791.782
 30
3236.402
 70
    32
  0
VERTEX
  8
T20SSILL
 62
4
 10
1425.544
 20
-3584.259
 30
3236.213
 70
    32
  0
VERTEX
  8
T20SSILL
 62
4
 10
1429.639
 20
-3578.860
 30
3236.197
 70
    32
  0
VERTEX
  8
T20SSILL
 62
4
 10
1429.970
 20
-3576.520
 30
3236.192
 70
    32
  0
VERTEX
  8
T20SSILL
 62
4
 10
1425.989
 20
-3567.768
 30
3236.179
 70
    32
  0
VERTEX
  8
T20SSILL
 62
4
 10
1398.358
 20
-3529.203
 30
3236.147
 70
    32
  0
VERTEX
  8
T20SSILL
 62
4
 10
1382.649
 20
-3523.470
 30
3236.194
 70
    32
  0
VERTEX
  8
T20SSILL
 62
4
 10
1174.721
 20
-3230.675
 30
3236.108
 70
    32
  0
VERTEX
  8
T20SSILL
 62
4
 10
1174.690
 20
-3216.938
 30
3236.020
 70
    32
  0
VERTEX
  8
T20SSILL
 62
4
 10
1168.819
 20
-3204.906
 30
3235.997
 70
    32
  0
VERTEX
  8
T20SSILL
 62
4
 10
1158.458
 20
-3190.602
 30
3235.992
 70
    32
  0
VERTEX
  8
T20SSILL
 62
4
 10
1148.390
 20
-3194.199
 30
3236.029
 70
    32
  0
VERTEX
  8
T20SSILL
 62
4
 10
951.796
 20
-2921.403
 30
3235.597
 70
    32
  0
VERTEX
  8
T20SSILL
 62
4
 10
944.393
 20
-2903.945
 30
3235.526
 70
    32
  0
VERTEX
  8
T20SSILL
 62
4
 10
943.245
 20
-2891.066
 30
3235.466
 70
    32
  0
VERTEX
  8
T20SSILL
 62
4
 10
947.183
 20
-2871.272
 30
3235.366
 70
    32
  0
VERTEX
  8
T20SSILL
 62
4
 10
957.085
 20
-2856.569
 30
3235.281
 70
    32
  0
VERTEX
  8
T20SSILL
 62
4
 10
965.607
 20
-2849.885
 30
3235.236
 70
    32
  0
VERTEX
  8
T20SSILL
 62
4
 10
975.720
 20
-2845.095
 30
3235.197
 70
    32
  0
VERTEX
  8
T20SSILL
 62
4
 10
985.842
 20
-2842.521
 30
3235.169
 70
    32
  0
VERTEX
  8
T20SSILL
 62
4
 10
996.122
 20
-2843.015
 30
3235.155
 70
    32
  0
VERTEX
  8
T20SSILL
 62
4
 10
1176.986
 20
-2880.035
 30
3235.046
 70
    32
  0
VERTEX
  8
T20SSILL
 62
4
 10
1267.866
 20
-2900.149
 30
3234.989
 70
    32
  0
VERTEX
  8
T20SSILL
 62
4
 10
1268.842
 20
-2900.753
 30
3234.990
 70
    32
  0
VERTEX
  8
T20SSILL
 62
4
 10
1268.825
 20
-2906.300
 30
3235.006
 70
    32
  0
VERTEX
  8
T20SSILL
 62
4
 10
1271.391
 20
-2907.235
 30
3235.006
 70
    32
  0
VERTEX
  8
T20SSILL
 62
4
 10
1275.719
 20
-2901.457
 30
3234.984
 70
    32
  0
VERTEX
  8
T20SSILL
 62
4
 10
1547.375
 20
-2959.507
 30
3234.831
 70
    32
  0
VERTEX
  8
T20SSILL
 62
4
 10
1519.018
 20
-2979.505
 30
3234.924
 70
    32
  0
VERTEX
  8
T20SSILL
 62
4
 10
1506.807
 20
-2961.085
 30
3234.883
 70
    32
  0
VERTEX
  8
T20SSILL
 62
4
 10
1499.479
 20
-2966.286
 30
3234.907
 70
    32
  0
VERTEX
  8
T20SSILL
 62
4
 10
1512.473
 20
-2983.992
 30
3234.944
 70
    32
  0
VERTEX
  8
T20SSILL
 62
4
 10
1481.498
 20
-3005.873
 30
3235.045
 70
    32
  0
VERTEX
  8
T20SSILL
 62
4
 10
1485.884
 20
-3011.451
 30
3235.098
 70
    32
  0
VERTEX
  8
T20SSILL
 62
4
 10
1517.200
 20
-2988.773
 30
3234.991
 70
    32
  0
VERTEX
  8
T20SSILL
 62
4
 10
1605.880
 20
-3168.387
 30
3235.461
 70
    32
  0
VERTEX
  8
T20SSILL
 62
4
 10
1674.454
 20
-3119.522
 30
3235.381
 70
    32
  0
VERTEX
  8
T20SSILL
 62
4
 10
1698.017
 20
-3151.179
 30
3235.490
 70
    32
  0
VERTEX
  8
T20SSILL
 62
4
 10
1681.326
 20
-3181.504
 30
3235.593
 70
    32
  0
VERTEX
  8
T20SSILL
 62
4
 10
1678.952
 20
-3188.578
 30
3235.617
 70
    32
  0
VERTEX
  8
T20SSILL
 62
4
 10
1685.813
 20
-3208.652
 30
3235.686
 70
    32
  0
VERTEX
  8
T20SSILL
 62
4
 10
1684.970
 20
-3211.568
 30
3235.696
 70
    32
  0
VERTEX
  8
T20SSILL
 62
4
 10
1683.393
 20
-3212.205
 30
3235.698
 70
    32
  0
VERTEX
  8
T20SSILL
 62
4
 10
1684.570
 20
-3221.523
 30
3235.730
 70
    32
  0
VERTEX
  8
T20SSILL
 62
4
 10
1682.786
 20
-3233.431
 30
3235.770
 70
    32
  0
VERTEX
  8
T20SSILL
 62
4
 10
1688.777
 20
-3240.574
 30
3235.795
 70
    32
  0
VERTEX
  8
T20SSILL
 62
4
 10
1694.226
 20
-3233.020
 30
3235.769
 70
    32
  0
SEQEND
  8
T20SSILL
  0
POLYLINE
  8
T20SSILL
 62
4
 66
     1
 70
     9
  0
VERTEX
  8
T20SSILL
 62
4
 10
1697.278
 20
-2758.073
 30
3234.092
 70
    32
  0
VERTEX
  8
T20SSILL
 62
4
 10
1701.445
 20
-2760.397
 30
3234.089
 70
    32
  0
VERTEX
  8
T20SSILL
 62
4
 10
1721.884
 20
-2788.748
 30
3234.147
 70
    32
  0
VERTEX
  8
T20SSILL
 62
4
 10
1730.298
 20
-2792.602
 30
3234.162
 70
    32
  0
VERTEX
  8
T20SSILL
 62
4
 10
1741.251
 20
-2795.367
 30
3234.173
 70
    32
  0
VERTEX
  8
T20SSILL
 62
4
 10
1765.294
 20
-2775.424
 30
3234.093
 70
    32
  0
VERTEX
  8
T20SSILL
 62
4
 10
1762.657
 20
-2768.855
 30
3234.067
 70
    32
  0
VERTEX
  8
T20SSILL
 62
4
 10
1756.726
 20
-2759.510
 30
3234.030
 70
    32
  0
VERTEX
  8
T20SSILL
 62
4
 10
1752.895
 20
-2756.038
 30
3234.017
 70
    32
  0
VERTEX
  8
T20SSILL
 62
4
 10
1751.150
 20
-2757.293
 30
3234.022
 70
    32
  0
VERTEX
  8
T20SSILL
 62
4
 10
1745.950
 20
-2749.964
 30
3233.993
 70
    32
  0
VERTEX
  8
T20SSILL
 62
4
 10
1747.320
 20
-2746.953
 30
3233.981
 70
    32
  0
VERTEX
  8
T20SSILL
 62
4
 10
1754.576
 20
-2742.986
 30
3233.965
 70
    32
  0
VERTEX
  8
T20SSILL
 62
4
 10
1758.021
 20
-2743.822
 30
3233.968
 70
    32
  0
VERTEX
  8
T20SSILL
 62
4
 10
1761.177
 20
-2749.680
 30
3233.991
 70
    32
  0
VERTEX
  8
T20SSILL
 62
4
 10
1761.198
 20
-2751.265
 30
3233.998
 70
    32
  0
VERTEX
  8
T20SSILL
 62
4
 10
1758.932
 20
-2753.055
 30
3234.005
 70
    32
  0
VERTEX
  8
T20SSILL
 62
4
 10
1769.052
 20
-2766.395
 30
3234.057
 70
    32
  0
VERTEX
  8
T20SSILL
 62
4
 10
1774.999
 20
-2770.105
 30
3234.072
 70
    32
  0
VERTEX
  8
T20SSILL
 62
4
 10
1851.343
 20
-2709.254
 30
3233.828
 70
    32
  0
VERTEX
  8
T20SSILL
 62
4
 10
1871.507
 20
-2695.700
 30
3233.774
 70
    32
  0
VERTEX
  8
T20SSILL
 62
4
 10
1888.927
 20
-2681.037
 30
3233.715
 70
    32
  0
VERTEX
  8
T20SSILL
 62
4
 10
1918.681
 20
-2660.140
 30
3233.642
 70
    32
  0
VERTEX
  8
T20SSILL
 62
4
 10
1911.501
 20
-2649.491
 30
3233.604
 70
    32
  0
VERTEX
  8
T20SSILL
 62
4
 10
1917.346
 20
-2645.278
 30
3233.605
 70
    32
  0
VERTEX
  8
T20SSILL
 62
4
 10
1924.607
 20
-2655.398
 30
3233.642
 70
    32
  0
VERTEX
  8
T20SSILL
 62
4
 10
1953.864
 20
-2636.885
 30
3233.660
 70
    32
  0
VERTEX
  8
T20SSILL
 62
4
 10
1953.667
 20
-2635.302
 30
3233.657
 70
    32
  0
VERTEX
  8
T20SSILL
 62
4
 10
1950.019
 20
-2632.268
 30
3233.643
 70
    32
  0
VERTEX
  8
T20SSILL
 62
4
 10
1670.412
 20
-2565.339
 30
3233.709
 70
    32
  0
VERTEX
  8
T20SSILL
 62
4
 10
1661.860
 20
-2564.392
 30
3233.717
 70
    32
  0
VERTEX
  8
T20SSILL
 62
4
 10
1653.515
 20
-2565.908
 30
3233.730
 70
    32
  0
VERTEX
  8
T20SSILL
 62
4
 10
1214.700
 20
-2880.582
 30
3234.995
 70
    32
  0
VERTEX
  8
T20SSILL
 62
4
 10
1462.343
 20
-2933.483
 30
3234.855
 70
    32
  0
VERTEX
  8
T20SSILL
 62
4
 10
1457.025
 20
-2903.352
 30
3234.771
 70
    32
  0
VERTEX
  8
T20SSILL
 62
4
 10
1458.578
 20
-2900.867
 30
3234.761
 70
    32
  0
VERTEX
  8
T20SSILL
 62
4
 10
1450.850
 20
-2868.214
 30
3234.672
 70
    32
  0
VERTEX
  8
T20SSILL
 62
4
 10
1445.270
 20
-2858.777
 30
3234.650
 70
    32
  0
VERTEX
  8
T20SSILL
 62
4
 10
1438.490
 20
-2858.688
 30
3234.658
 70
    32
  0
VERTEX
  8
T20SSILL
 62
4
 10
1433.099
 20
-2843.438
 30
3234.619
 70
    32
  0
VERTEX
  8
T20SSILL
 62
4
 10
1433.184
 20
-2836.305
 30
3234.597
 70
    32
  0
VERTEX
  8
T20SSILL
 62
4
 10
1434.212
 20
-2834.091
 30
3234.589
 70
    32
  0
VERTEX
  8
T20SSILL
 62
4
 10
1426.421
 20
-2823.890
 30
3234.568
 70
    32
  0
VERTEX
  8
T20SSILL
 62
4
 10
1431.451
 20
-2817.926
 30
3234.544
 70
    32
  0
VERTEX
  8
T20SSILL
 62
4
 10
1439.768
 20
-2827.945
 30
3234.564
 70
    32
  0
VERTEX
  8
T20SSILL
 62
4
 10
1446.012
 20
-2827.424
 30
3234.555
 70
    32
  0
VERTEX
  8
T20SSILL
 62
4
 10
1449.308
 20
-2830.375
 30
3234.560
 70
    32
  0
VERTEX
  8
T20SSILL
 62
4
 10
1457.533
 20
-2840.130
 30
3234.579
 70
    32
  0
VERTEX
  8
T20SSILL
 62
4
 10
1455.511
 20
-2847.200
 30
3234.603
 70
    32
  0
VERTEX
  8
T20SSILL
 62
4
 10
1477.805
 20
-2869.276
 30
3234.643
 70
    32
  0
VERTEX
  8
T20SSILL
 62
4
 10
1486.842
 20
-2880.518
 30
3234.666
 70
    32
  0
VERTEX
  8
T20SSILL
 62
4
 10
1498.539
 20
-2906.869
 30
3234.731
 70
    32
  0
VERTEX
  8
T20SSILL
 62
4
 10
1500.300
 20
-2913.713
 30
3234.749
 70
    32
  0
VERTEX
  8
T20SSILL
 62
4
 10
1502.040
 20
-2912.106
 30
3234.742
 70
    32
  0
VERTEX
  8
T20SSILL
 62
4
 10
1504.591
 20
-2911.985
 30
3234.739
 70
    32
  0
VERTEX
  8
T20SSILL
 62
4
 10
1505.031
 20
-2925.626
 30
3234.780
 70
    32
  0
VERTEX
  8
T20SSILL
 62
4
 10
1507.579
 20
-2925.242
 30
3234.775
 70
    32
  0
VERTEX
  8
T20SSILL
 62
4
 10
1512.977
 20
-2927.373
 30
3234.775
 70
    32
  0
VERTEX
  8
T20SSILL
 62
4
 10
1514.694
 20
-2930.785
 30
3234.783
 70
    32
  0
VERTEX
  8
T20SSILL
 62
4
 10
1517.444
 20
-2939.202
 30
3234.805
 70
    32
  0
VERTEX
  8
T20SSILL
 62
4
 10
1518.052
 20
-2945.445
 30
3234.823
 70
    32
  0
VERTEX
  8
T20SSILL
 62
4
 10
1555.669
 20
-2954.030
 30
3234.807
 70
    32
  0
VERTEX
  8
T20SSILL
 62
4
 10
1657.019
 20
-2881.410
 30
3234.516
 70
    32
  0
VERTEX
  8
T20SSILL
 62
4
 10
1584.951
 20
-2779.943
 30
3234.329
 70
    32
  0
VERTEX
  8
T20SSILL
 62
4
 10
1583.561
 20
-2637.595
 30
3233.951
 70
    32
  0
VERTEX
  8
T20SSILL
 62
4
 10
1654.428
 20
-2588.149
 30
3233.779
 70
    32
  0
VERTEX
  8
T20SSILL
 62
4
 10
1658.448
 20
-2593.666
 30
3233.791
 70
    32
  0
VERTEX
  8
T20SSILL
 62
4
 10
1590.665
 20
-2642.258
 30
3233.959
 70
    32
  0
VERTEX
  8
T20SSILL
 62
4
 10
1592.317
 20
-2777.648
 30
3234.318
 70
    32
  0
VERTEX
  8
T20SSILL
 62
4
 10
1611.055
 20
-2803.820
 30
3234.359
 70
    32
  0
VERTEX
  8
T20SSILL
 62
4
 10
1617.577
 20
-2804.352
 30
3234.348
 70
    32
  0
VERTEX
  8
T20SSILL
 62
4
 10
1682.914
 20
-2757.113
 30
3234.117
 70
    32
  0
VERTEX
  8
T20SSILL
 62
4
 10
1689.063
 20
-2755.978
 30
3234.102
 70
    32
  0
VERTEX
  8
T20SSILL
 62
4
 10
1694.353
 20
-2756.614
 30
3234.094
 70
    32
  0
SEQEND
  8
T20SSILL
  0
POLYLINE
  8
T20SSILL
 62
4
 66
     1
 70
     9
  0
VERTEX
  8
T20SSILL
 62
4
 10
1469.632
 20
-2918.334
 30
3234.800
 70
    32
  0
VERTEX
  8
T20SSILL
 62
4
 10
1471.120
 20
-2931.345
 30
3234.838
 70
    32
  0
VERTEX
  8
T20SSILL
 62
4
 10
1475.599
 20
-2937.362
 30
3234.851
 70
    32
  0
VERTEX
  8
T20SSILL
 62
4
 10
1506.838
 20
-2942.948
 30
3234.830
 70
    32
  0
VERTEX
  8
T20SSILL
 62
4
 10
1469.157
 20
-2901.964
 30
3234.752
 70
    32
  0
VERTEX
  8
T20SSILL
 62
4
 10
1468.093
 20
-2908.228
 30
3234.772
 70
    32
  0
VERTEX
  8
T20SSILL
 62
4
 10
1468.864
 20
-2913.413
 30
3234.787
 70
    32
  0
SEQEND
  8
T20SSILL
  0
POLYLINE
  8
T20SSILL
 62
4
 66
     1
 70
     9
  0
VERTEX
  8
T20SSILL
 62
4
 10
883.109
 20
-2819.118
 30
3235.219
 70
    32
  0
VERTEX
  8
T20SSILL
 62
4
 10
879.721
 20
-2818.644
 30
3235.222
 70
    32
  0
VERTEX
  8
T20SSILL
 62
4
 10
879.534
 20
-2820.569
 30
3235.232
 70
    32
  0
VERTEX
  8
T20SSILL
 62
4
 10
930.844
 20
-2890.093
 30
3235.481
 70
    32
  0
VERTEX
  8
T20SSILL
 62
4
 10
935.409
 20
-2874.852
 30
3235.402
 70
    32
  0
VERTEX
  8
T20SSILL
 62
4
 10
933.975
 20
-2869.572
 30
3235.379
 70
    32
  0
VERTEX
  8
T20SSILL
 62
4
 10
929.052
 20
-2862.724
 30
3235.354
 70
    32
  0
VERTEX
  8
T20SSILL
 62
4
 10
926.936
 20
-2839.594
 30
3235.248
 70
    32
  0
VERTEX
  8
T20SSILL
 62
4
 10
930.059
 20
-2828.816
 30
3235.192
 70
    32
  0
VERTEX
  8
T20SSILL
 62
4
 10
887.616
 20
-2819.367
 30
3235.213
 70
    32
  0
SEQEND
  8
T20SSILL
  0
POLYLINE
  8
T20SSILL
 62
4
 66
     1
 70
     9
  0
VERTEX
  8
T20SSILL
 62
4
 10
944.747
 20
-2859.153
 30
3235.312
 70
    32
  0
VERTEX
  8
T20SSILL
 62
4
 10
953.280
 20
-2849.180
 30
3235.252
 70
    32
  0
VERTEX
  8
T20SSILL
 62
4
 10
963.820
 20
-2841.563
 30
3235.199
 70
    32
  0
VERTEX
  8
T20SSILL
 62
4
 10
964.455
 20
-2836.056
 30
3235.172
 70
    32
  0
VERTEX
  8
T20SSILL
 62
4
 10
941.221
 20
-2830.621
 30
3235.183
 70
    32
  0
VERTEX
  8
T20SSILL
 62
4
 10
942.760
 20
-2861.548
 30
3235.327
 70
    32
  0
SEQEND
  8
T20SSILL
  0
POLYLINE
  8
T20SSILL
 62
4
 66
     1
 70
     9
  0
VERTEX
  8
T20SSILL
 62
4
 10
2376.544
 20
-3466.123
 30
3236.238
 70
    32
  0
VERTEX
  8
T20SSILL
 62
4
 10
2369.237
 20
-3450.458
 30
3236.200
 70
    32
  0
VERTEX
  8
T20SSILL
 62
4
 10
2357.054
 20
-3443.090
 30
3236.186
 70
    32
  0
VERTEX
  8
T20SSILL
 62
4
 10
2344.632
 20
-3438.639
 30
3236.179
 70
    32
  0
VERTEX
  8
T20SSILL
 62
4
 10
2331.189
 20
-3437.400
 30
3236.182
 70
    32
  0
VERTEX
  8
T20SSILL
 62
4
 10
2324.546
 20
-3432.019
 30
3236.170
 70
    32
  0
VERTEX
  8
T20SSILL
 62
4
 10
2299.941
 20
-3406.629
 30
3236.114
 70
    32
  0
VERTEX
  8
T20SSILL
 62
4
 10
2290.788
 20
-3395.618
 30
3236.089
 70
    32
  0
VERTEX
  8
T20SSILL
 62
4
 10
2280.127
 20
-3386.604
 30
3236.069
 70
    32
  0
VERTEX
  8
T20SSILL
 62
4
 10
2279.742
 20
-3381.244
 30
3236.055
 70
    32
  0
VERTEX
  8
T20SSILL
 62
4
 10
2296.615
 20
-3373.272
 30
3236.027
 70
    32
  0
VERTEX
  8
T20SSILL
 62
4
 10
2303.864
 20
-3367.086
 30
3236.008
 70
    32
  0
VERTEX
  8
T20SSILL
 62
4
 10
2304.780
 20
-3363.437
 30
3235.998
 70
    32
  0
VERTEX
  8
T20SSILL
 62
4
 10
2300.879
 20
-3351.517
 30
3235.968
 70
    32
  0
VERTEX
  8
T20SSILL
 62
4
 10
2280.782
 20
-3335.547
 30
3235.934
 70
    32
  0
VERTEX
  8
T20SSILL
 62
4
 10
2285.133
 20
-3332.486
 30
3235.925
 70
    32
  0
VERTEX
  8
T20SSILL
 62
4
 10
2275.171
 20
-3317.734
 30
3235.890
 70
    32
  0
VERTEX
  8
T20SSILL
 62
4
 10
2370.522
 20
-3249.243
 30
3235.669
 70
    32
  0
VERTEX
  8
T20SSILL
 62
4
 10
2373.154
 20
-3248.505
 30
3235.666
 70
    32
  0
VERTEX
  8
T20SSILL
 62
4
 10
2376.530
 20
-3250.839
 30
3235.670
 70
    32
  0
VERTEX
  8
T20SSILL
 62
4
 10
2484.660
 20
-3411.595
 30
3236.049
 70
    32
  0
VERTEX
  8
T20SSILL
 62
4
 10
2386.569
 20
-3481.418
 30
3236.274
 70
    32
  0
SEQEND
  8
T20SSILL
  0
POLYLINE
  8
T20SSILL
 62
4
 66
     1
 70
     9
  0
VERTEX
  8
T20SSILL
 62
4
 10
2249.503
 20
-3238.737
 30
3235.692
 70
    32
  0
VERTEX
  8
T20SSILL
 62
4
 10
2248.056
 20
-3235.762
 30
3235.685
 70
    32
  0
VERTEX
  8
T20SSILL
 62
4
 10
2250.320
 20
-3233.796
 30
3235.679
 70
    32
  0
VERTEX
  8
T20SSILL
 62
4
 10
2241.497
 20
-3218.678
 30
3235.643
 70
    32
  0
VERTEX
  8
T20SSILL
 62
4
 10
2239.138
 20
-3220.029
 30
3235.649
 70
    32
  0
VERTEX
  8
T20SSILL
 62
4
 10
2233.558
 20
-3210.592
 30
3235.641
 70
    32
  0
VERTEX
  8
T20SSILL
 62
4
 10
2240.435
 20
-3204.516
 30
3235.611
 70
    32
  0
VERTEX
  8
T20SSILL
 62
4
 10
2237.248
 20
-3189.502
 30
3235.584
 70
    32
  0
VERTEX
  8
T20SSILL
 62
4
 10
2230.882
 20
-3173.648
 30
3235.564
 70
    32
  0
VERTEX
  8
T20SSILL
 62
4
 10
2229.741
 20
-3167.147
 30
3235.552
 70
    32
  0
VERTEX
  8
T20SSILL
 62
4
 10
2219.520
 20
-3145.972
 30
3235.499
 70
    32
  0
VERTEX
  8
T20SSILL
 62
4
 10
2212.258
 20
-3135.764
 30
3235.464
 70
    32
  0
VERTEX
  8
T20SSILL
 62
4
 10
2206.119
 20
-3130.825
 30
3235.447
 70
    32
  0
VERTEX
  8
T20SSILL
 62
4
 10
2220.597
 20
-3120.161
 30
3235.411
 70
    32
  0
VERTEX
  8
T20SSILL
 62
4
 10
2216.394
 20
-3115.109
 30
3235.394
 70
    32
  0
VERTEX
  8
T20SSILL
 62
4
 10
2219.015
 20
-3113.490
 30
3235.388
 70
    32
  0
VERTEX
  8
T20SSILL
 62
4
 10
2249.179
 20
-3145.062
 30
3235.454
 70
    32
  0
VERTEX
  8
T20SSILL
 62
4
 10
2253.955
 20
-3139.895
 30
3235.431
 70
    32
  0
VERTEX
  8
T20SSILL
 62
4
 10
2221.214
 20
-3106.507
 30
3235.365
 70
    32
  0
VERTEX
  8
T20SSILL
 62
4
 10
2221.371
 20
-3105.008
 30
3235.359
 70
    32
  0
VERTEX
  8
T20SSILL
 62
4
 10
2265.682
 20
-3072.743
 30
3235.249
 70
    32
  0
VERTEX
  8
T20SSILL
 62
4
 10
2269.590
 20
-3075.334
 30
3235.253
 70
    32
  0
VERTEX
  8
T20SSILL
 62
4
 10
2366.801
 20
-3233.707
 30
3235.629
 70
    32
  0
VERTEX
  8
T20SSILL
 62
4
 10
2366.331
 20
-3238.292
 30
3235.642
 70
    32
  0
VERTEX
  8
T20SSILL
 62
4
 10
2362.997
 20
-3245.994
 30
3235.663
 70
    32
  0
VERTEX
  8
T20SSILL
 62
4
 10
2277.598
 20
-3307.930
 30
3235.863
 70
    32
  0
VERTEX
  8
T20SSILL
 62
4
 10
2270.504
 20
-3290.325
 30
3235.820
 70
    32
  0
VERTEX
  8
T20SSILL
 62
4
 10
2267.247
 20
-3276.632
 30
3235.785
 70
    32
  0
VERTEX
  8
T20SSILL
 62
4
 10
2256.662
 20
-3254.581
 30
3235.731
 70
    32
  0
VERTEX
  8
T20SSILL
 62
4
 10
2252.545
 20
-3242.484
 30
3235.701
 70
    32
  0
SEQEND
  8
T20SSILL
  0
POLYLINE
  8
T20SSILL
 62
4
 66
     1
 70
     9
  0
VERTEX
  8
T20SSILL
 62
4
 10
2241.890
 20
-3332.994
 30
3235.944
 70
    32
  0
VERTEX
  8
T20SSILL
 62
4
 10
2231.163
 20
-3318.828
 30
3235.911
 70
    32
  0
VERTEX
  8
T20SSILL
 62
4
 10
2234.648
 20
-3315.966
 30
3235.902
 70
    32
  0
VERTEX
  8
T20SSILL
 62
4
 10
2213.838
 20
-3286.123
 30
3235.862
 70
    32
  0
VERTEX
  8
T20SSILL
 62
4
 10
2207.530
 20
-3281.713
 30
3235.867
 70
    32
  0
VERTEX
  8
T20SSILL
 62
4
 10
2203.914
 20
-3281.232
 30
3235.875
 70
    32
  0
VERTEX
  8
T20SSILL
 62
4
 10
2190.976
 20
-3274.707
 30
3235.892
 70
    32
  0
VERTEX
  8
T20SSILL
 62
4
 10
2201.106
 20
-3268.237
 30
3235.852
 70
    32
  0
VERTEX
  8
T20SSILL
 62
4
 10
2190.526
 20
-3253.406
 30
3235.845
 70
    32
  0
VERTEX
  8
T20SSILL
 62
4
 10
2198.030
 20
-3248.115
 30
3235.814
 70
    32
  0
VERTEX
  8
T20SSILL
 62
4
 10
2227.324
 20
-3232.507
 30
3235.707
 70
    32
  0
VERTEX
  8
T20SSILL
 62
4
 10
2231.716
 20
-3238.525
 30
3235.710
 70
    32
  0
VERTEX
  8
T20SSILL
 62
4
 10
2238.693
 20
-3233.417
 30
3235.683
 70
    32
  0
VERTEX
  8
T20SSILL
 62
4
 10
2240.563
 20
-3235.066
 30
3235.686
 70
    32
  0
VERTEX
  8
T20SSILL
 62
4
 10
2240.612
 20
-3238.851
 30
3235.696
 70
    32
  0
VERTEX
  8
T20SSILL
 62
4
 10
2229.688
 20
-3252.022
 30
3235.745
 70
    32
  0
VERTEX
  8
T20SSILL
 62
4
 10
2244.695
 20
-3268.821
 30
3235.774
 70
    32
  0
VERTEX
  8
T20SSILL
 62
4
 10
2258.576
 20
-3293.912
 30
3235.834
 70
    32
  0
VERTEX
  8
T20SSILL
 62
4
 10
2260.396
 20
-3298.466
 30
3235.845
 70
    32
  0
VERTEX
  8
T20SSILL
 62
4
 10
2260.319
 20
-3306.215
 30
3235.866
 70
    32
  0
VERTEX
  8
T20SSILL
 62
4
 10
2263.373
 20
-3310.930
 30
3235.877
 70
    32
  0
VERTEX
  8
T20SSILL
 62
4
 10
2258.055
 20
-3314.961
 30
3235.890
 70
    32
  0
VERTEX
  8
T20SSILL
 62
4
 10
2261.405
 20
-3318.859
 30
3235.899
 70
    32
  0
VERTEX
  8
T20SSILL
 62
4
 10
2241.823
 20
-3333.042
 30
3235.944
 70
    32
  0
SEQEND
  8
T20SSILL
  0
POLYLINE
  8
T20SSILL
 62
4
 66
     1
 70
     9
  0
VERTEX
  8
T20SSILL
 62
4
 10
2142.760
 20
-3290.910
 30
3235.990
 70
    32
  0
VERTEX
  8
T20SSILL
 62
4
 10
2138.016
 20
-3294.606
 30
3236.003
 70
    32
  0
VERTEX
  8
T20SSILL
 62
4
 10
2139.041
 20
-3296.064
 30
3236.008
 70
    32
  0
VERTEX
  8
T20SSILL
 62
4
 10
2120.373
 20
-3309.599
 30
3236.053
 70
    32
  0
VERTEX
  8
T20SSILL
 62
4
 10
2118.251
 20
-3315.701
 30
3236.074
 70
    32
  0
VERTEX
  8
T20SSILL
 62
4
 10
2123.779
 20
-3321.089
 30
3236.092
 70
    32
  0
VERTEX
  8
T20SSILL
 62
4
 10
2185.217
 20
-3278.743
 30
3235.915
 70
    32
  0
VERTEX
  8
T20SSILL
 62
4
 10
2181.980
 20
-3273.502
 30
3235.911
 70
    32
  0
VERTEX
  8
T20SSILL
 62
4
 10
2161.999
 20
-3287.581
 30
3235.980
 70
    32
  0
VERTEX
  8
T20SSILL
 62
4
 10
2158.854
 20
-3282.603
 30
3235.963
 70
    32
  0
VERTEX
  8
T20SSILL
 62
4
 10
2143.927
 20
-3292.656
 30
3235.996
 70
    32
  0
SEQEND
  8
T20SSILL
  0
POLYLINE
  8
T20SSILL
 62
4
 66
     1
 70
     9
  0
VERTEX
  8
T20SSILL
 62
4
 10
2103.367
 20
-3301.630
 30
3236.025
 70
    32
  0
VERTEX
  8
T20SSILL
 62
4
 10
2104.334
 20
-3308.396
 30
3236.048
 70
    32
  0
VERTEX
  8
T20SSILL
 62
4
 10
2110.175
 20
-3317.566
 30
3236.080
 70
    32
  0
VERTEX
  8
T20SSILL
 62
4
 10
2108.652
 20
-3329.207
 30
3236.119
 70
    32
  0
VERTEX
  8
T20SSILL
 62
4
 10
2109.421
 20
-3341.083
 30
3236.160
 70
    32
  0
VERTEX
  8
T20SSILL
 62
4
 10
2111.739
 20
-3350.210
 30
3236.191
 70
    32
  0
VERTEX
  8
T20SSILL
 62
4
 10
2137.708
 20
-3384.695
 30
3236.273
 70
    32
  0
VERTEX
  8
T20SSILL
 62
4
 10
2141.315
 20
-3397.386
 30
3236.293
 70
    32
  0
VERTEX
  8
T20SSILL
 62
4
 10
2136.803
 20
-3401.439
 30
3236.313
 70
    32
  0
VERTEX
  8
T20SSILL
 62
4
 10
2141.378
 20
-3408.046
 30
3236.317
 70
    32
  0
VERTEX
  8
T20SSILL
 62
4
 10
2119.791
 20
-3423.956
 30
3236.406
 70
    32
  0
VERTEX
  8
T20SSILL
 62
4
 10
2113.673
 20
-3425.252
 30
3236.424
 70
    32
  0
VERTEX
  8
T20SSILL
 62
4
 10
2106.038
 20
-3423.787
 30
3236.440
 70
    32
  0
VERTEX
  8
T20SSILL
 62
4
 10
2102.094
 20
-3422.090
 30
3236.436
 70
    32
  0
VERTEX
  8
T20SSILL
 62
4
 10
2097.134
 20
-3416.908
 30
3236.418
 70
    32
  0
VERTEX
  8
T20SSILL
 62
4
 10
2071.518
 20
-3381.423
 30
3236.296
 70
    32
  0
VERTEX
  8
T20SSILL
 62
4
 10
2076.937
 20
-3368.963
 30
3236.254
 70
    32
  0
VERTEX
  8
T20SSILL
 62
4
 10
2081.267
 20
-3370.059
 30
3236.258
 70
    32
  0
VERTEX
  8
T20SSILL
 62
4
 10
2084.895
 20
-3378.377
 30
3236.286
 70
    32
  0
VERTEX
  8
T20SSILL
 62
4
 10
2092.932
 20
-3387.166
 30
3236.317
 70
    32
  0
VERTEX
  8
T20SSILL
 62
4
 10
2095.228
 20
-3387.665
 30
3236.318
 70
    32
  0
VERTEX
  8
T20SSILL
 62
4
 10
2101.924
 20
-3381.152
 30
3236.296
 70
    32
  0
VERTEX
  8
T20SSILL
 62
4
 10
2103.488
 20
-3379.547
 30
3236.291
 70
    32
  0
VERTEX
  8
T20SSILL
 62
4
 10
2103.274
 20
-3376.644
 30
3236.281
 70
    32
  0
VERTEX
  8
T20SSILL
 62
4
 10
2096.340
 20
-3364.583
 30
3236.240
 70
    32
  0
VERTEX
  8
T20SSILL
 62
4
 10
2094.053
 20
-3357.921
 30
3236.217
 70
    32
  0
VERTEX
  8
T20SSILL
 62
4
 10
2093.805
 20
-3352.290
 30
3236.197
 70
    32
  0
VERTEX
  8
T20SSILL
 62
4
 10
2092.289
 20
-3350.812
 30
3236.192
 70
    32
  0
VERTEX
  8
T20SSILL
 62
4
 10
2082.438
 20
-3351.555
 30
3236.194
 70
    32
  0
VERTEX
  8
T20SSILL
 62
4
 10
2072.863
 20
-3332.749
 30
3236.130
 70
    32
  0
VERTEX
  8
T20SSILL
 62
4
 10
2078.722
 20
-3329.592
 30
3236.119
 70
    32
  0
VERTEX
  8
T20SSILL
 62
4
 10
2067.626
 20
-3308.868
 30
3236.048
 70
    32
  0
VERTEX
  8
T20SSILL
 62
4
 10
2073.053
 20
-3306.421
 30
3236.040
 70
    32
  0
VERTEX
  8
T20SSILL
 62
4
 10
2053.638
 20
-3268.636
 30
3235.910
 70
    32
  0
VERTEX
  8
T20SSILL
 62
4
 10
2049.353
 20
-3270.892
 30
3235.917
 70
    32
  0
VERTEX
  8
T20SSILL
 62
4
 10
2042.791
 20
-3246.677
 30
3235.834
 70
    32
  0
VERTEX
  8
T20SSILL
 62
4
 10
2044.263
 20
-3231.074
 30
3235.781
 70
    32
  0
VERTEX
  8
T20SSILL
 62
4
 10
2056.038
 20
-3222.470
 30
3235.752
 70
    32
  0
VERTEX
  8
T20SSILL
 62
4
 10
2059.932
 20
-3224.005
 30
3235.758
 70
    32
  0
VERTEX
  8
T20SSILL
 62
4
 10
2063.765
 20
-3227.654
 30
3235.770
 70
    32
  0
VERTEX
  8
T20SSILL
 62
4
 10
2067.814
 20
-3234.469
 30
3235.794
 70
    32
  0
VERTEX
  8
T20SSILL
 62
4
 10
2067.612
 20
-3239.314
 30
3235.810
 70
    32
  0
VERTEX
  8
T20SSILL
 62
4
 10
2069.512
 20
-3243.252
 30
3235.824
 70
    32
  0
VERTEX
  8
T20SSILL
 62
4
 10
2091.508
 20
-3276.337
 30
3235.938
 70
    32
  0
VERTEX
  8
T20SSILL
 62
4
 10
2100.992
 20
-3294.969
 30
3236.002
 70
    32
  0
VERTEX
  8
T20SSILL
 62
4
 10
2101.560
 20
-3298.043
 30
3236.013
 70
    32
  0
SEQEND
  8
T20SSILL
  0
POLYLINE
  8
T20SSILL
 62
4
 66
     1
 70
     9
  0
VERTEX
  8
T20SSILL
 62
4
 10
1948.437
 20
-3276.328
 30
3235.931
 70
    32
  0
VERTEX
  8
T20SSILL
 62
4
 10
1942.173
 20
-3254.837
 30
3235.857
 70
    32
  0
VERTEX
  8
T20SSILL
 62
4
 10
1906.378
 20
-3209.867
 30
3235.701
 70
    32
  0
VERTEX
  8
T20SSILL
 62
4
 10
1903.278
 20
-3208.410
 30
3235.696
 70
    32
  0
VERTEX
  8
T20SSILL
 62
4
 10
1820.384
 20
-3266.616
 30
3235.891
 70
    32
  0
VERTEX
  8
T20SSILL
 62
4
 10
1824.081
 20
-3280.215
 30
3235.937
 70
    32
  0
VERTEX
  8
T20SSILL
 62
4
 10
1871.235
 20
-3345.818
 30
3236.164
 70
    32
  0
VERTEX
  8
T20SSILL
 62
4
 10
1952.818
 20
-3288.421
 30
3235.972
 70
    32
  0
VERTEX
  8
T20SSILL
 62
4
 10
1950.708
 20
-3281.757
 30
3235.949
 70
    32
  0
SEQEND
  8
T20SSILL
  0
POLYLINE
  8
T20SSILL
 62
4
 66
     1
 70
     9
  0
VERTEX
  8
T20SSILL
 62
4
 10
1860.706
 20
-3225.333
 30
3235.752
 70
    32
  0
VERTEX
  8
T20SSILL
 62
4
 10
1856.729
 20
-3217.285
 30
3235.724
 70
    32
  0
VERTEX
  8
T20SSILL
 62
4
 10
1856.557
 20
-3210.771
 30
3235.702
 70
    32
  0
VERTEX
  8
T20SSILL
 62
4
 10
1847.048
 20
-3217.585
 30
3235.725
 70
    32
  0
VERTEX
  8
T20SSILL
 62
4
 10
1836.478
 20
-3210.413
 30
3235.700
 70
    32
  0
VERTEX
  8
T20SSILL
 62
4
 10
1830.153
 20
-3211.463
 30
3235.703
 70
    32
  0
VERTEX
  8
T20SSILL
 62
4
 10
1816.306
 20
-3243.865
 30
3235.813
 70
    32
  0
VERTEX
  8
T20SSILL
 62
4
 10
1818.862
 20
-3257.743
 30
3235.860
 70
    32
  0
VERTEX
  8
T20SSILL
 62
4
 10
1821.512
 20
-3258.413
 30
3235.863
 70
    32
  0
VERTEX
  8
T20SSILL
 62
4
 10
1863.112
 20
-3227.592
 30
3235.760
 70
    32
  0
SEQEND
  8
T20SSILL
  0
POLYLINE
  8
T20SSILL
 62
4
 66
     1
 70
     9
  0
VERTEX
  8
T20SSILL
 62
4
 10
1711.781
 20
-3160.335
 30
3235.522
 70
    32
  0
VERTEX
  8
T20SSILL
 62
4
 10
1712.447
 20
-3171.067
 30
3235.559
 70
    32
  0
VERTEX
  8
T20SSILL
 62
4
 10
1724.451
 20
-3200.760
 30
3235.661
 70
    32
  0
VERTEX
  8
T20SSILL
 62
4
 10
1736.667
 20
-3192.239
 30
3235.632
 70
    32
  0
VERTEX
  8
T20SSILL
 62
4
 10
1726.049
 20
-3174.414
 30
3235.571
 70
    32
  0
VERTEX
  8
T20SSILL
 62
4
 10
1722.688
 20
-3166.357
 30
3235.543
 70
    32
  0
VERTEX
  8
T20SSILL
 62
4
 10
1759.781
 20
-3175.301
 30
3235.576
 70
    32
  0
VERTEX
  8
T20SSILL
 62
4
 10
1782.462
 20
-3158.898
 30
3235.521
 70
    32
  0
VERTEX
  8
T20SSILL
 62
4
 10
1776.168
 20
-3148.766
 30
3235.486
 70
    32
  0
VERTEX
  8
T20SSILL
 62
4
 10
1800.255
 20
-3132.168
 30
3235.430
 70
    32
  0
VERTEX
  8
T20SSILL
 62
4
 10
1796.849
 20
-3127.457
 30
3235.414
 70
    32
  0
VERTEX
  8
T20SSILL
 62
4
 10
1776.169
 20
-3141.986
 30
3235.463
 70
    32
  0
VERTEX
  8
T20SSILL
 62
4
 10
1770.626
 20
-3142.234
 30
3235.463
 70
    32
  0
VERTEX
  8
T20SSILL
 62
4
 10
1761.334
 20
-3138.567
 30
3235.450
 70
    32
  0
VERTEX
  8
T20SSILL
 62
4
 10
1754.517
 20
-3128.794
 30
3235.417
 70
    32
  0
VERTEX
  8
T20SSILL
 62
4
 10
1744.553
 20
-3134.469
 30
3235.435
 70
    32
  0
VERTEX
  8
T20SSILL
 62
4
 10
1718.824
 20
-3091.834
 30
3235.289
 70
    32
  0
VERTEX
  8
T20SSILL
 62
4
 10
1714.680
 20
-3091.359
 30
3235.287
 70
    32
  0
VERTEX
  8
T20SSILL
 62
4
 10
1679.867
 20
-3115.931
 30
3235.369
 70
    32
  0
VERTEX
  8
T20SSILL
 62
4
 10
1702.551
 20
-3147.775
 30
3235.479
 70
    32
  0
VERTEX
  8
T20SSILL
 62
4
 10
1710.732
 20
-3147.230
 30
3235.477
 70
    32
  0
VERTEX
  8
T20SSILL
 62
4
 10
1712.343
 20
-3149.234
 30
3235.484
 70
    32
  0
VERTEX
  8
T20SSILL
 62
4
 10
1712.702
 20
-3156.625
 30
3235.509
 70
    32
  0
SEQEND
  8
T20SSILL
  0
POLYLINE
  8
T20SSILL
 62
4
 66
     1
 70
     9
  0
VERTEX
  8
T20SSILL
 62
4
 10
1752.047
 20
-2998.257
 30
3234.971
 70
    32
  0
VERTEX
  8
T20SSILL
 62
4
 10
1750.462
 20
-3005.145
 30
3234.994
 70
    32
  0
VERTEX
  8
T20SSILL
 62
4
 10
1590.469
 20
-3120.161
 30
3235.309
 70
    32
  0
VERTEX
  8
T20SSILL
 62
4
 10
1606.127
 20
-3153.329
 30
3235.425
 70
    32
  0
VERTEX
  8
T20SSILL
 62
4
 10
1613.901
 20
-3155.430
 30
3235.447
 70
    32
  0
VERTEX
  8
T20SSILL
 62
4
 10
1796.676
 20
-3024.977
 30
3235.064
 70
    32
  0
VERTEX
  8
T20SSILL
 62
4
 10
1791.070
 20
-3006.648
 30
3235.001
 70
    32
  0
VERTEX
  8
T20SSILL
 62
4
 10
1756.932
 20
-2994.760
 30
3234.959
 70
    32
  0
VERTEX
  8
T20SSILL
 62
4
 10
1754.554
 20
-2994.703
 30
3234.959
 70
    32
  0
VERTEX
  8
T20SSILL
 62
4
 10
1753.080
 20
-2996.483
 30
3234.965
 70
    32
  0
SEQEND
  8
T20SSILL
  0
POLYLINE
  8
T20SSILL
 62
4
 66
     1
 70
     9
  0
VERTEX
  8
T20SSILL
 62
4
 10
1770.691
 20
-2941.845
 30
3234.752
 70
    32
  0
VERTEX
  8
T20SSILL
 62
4
 10
1765.409
 20
-2935.046
 30
3234.725
 70
    32
  0
VERTEX
  8
T20SSILL
 62
4
 10
1759.473
 20
-2932.129
 30
3234.714
 70
    32
  0
VERTEX
  8
T20SSILL
 62
4
 10
1743.424
 20
-2943.869
 30
3234.761
 70
    32
  0
VERTEX
  8
T20SSILL
 62
4
 10
1756.837
 20
-2987.366
 30
3234.933
 70
    32
  0
VERTEX
  8
T20SSILL
 62
4
 10
1788.053
 20
-2997.970
 30
3234.971
 70
    32
  0
VERTEX
  8
T20SSILL
 62
4
 10
1786.575
 20
-2993.192
 30
3234.955
 70
    32
  0
SEQEND
  8
T20SSILL
  0
POLYLINE
  8
T20SSILL
 62
4
 66
     1
 70
     9
  0
VERTEX
  8
T20SSILL
 62
4
 10
1932.505
 20
-3023.231
 30
3235.065
 70
    32
  0
VERTEX
  8
T20SSILL
 62
4
 10
1918.661
 20
-2994.178
 30
3234.955
 70
    32
  0
VERTEX
  8
T20SSILL
 62
4
 10
1925.049
 20
-2991.103
 30
3234.942
 70
    32
  0
VERTEX
  8
T20SSILL
 62
4
 10
1944.751
 20
-3030.733
 30
3235.091
 70
    32
  0
VERTEX
  8
T20SSILL
 62
4
 10
1951.112
 20
-3039.280
 30
3235.121
 70
    32
  0
VERTEX
  8
T20SSILL
 62
4
 10
1973.355
 20
-3023.058
 30
3235.067
 70
    32
  0
VERTEX
  8
T20SSILL
 62
4
 10
1958.931
 20
-2996.830
 30
3234.964
 70
    32
  0
VERTEX
  8
T20SSILL
 62
4
 10
1959.118
 20
-2990.841
 30
3234.940
 70
    32
  0
VERTEX
  8
T20SSILL
 62
4
 10
1962.114
 20
-2984.199
 30
3234.914
 70
    32
  0
VERTEX
  8
T20SSILL
 62
4
 10
1960.744
 20
-2980.343
 30
3234.899
 70
    32
  0
VERTEX
  8
T20SSILL
 62
4
 10
1966.528
 20
-2978.243
 30
3234.890
 70
    32
  0
VERTEX
  8
T20SSILL
 62
4
 10
1972.133
 20
-2989.617
 30
3234.935
 70
    32
  0
VERTEX
  8
T20SSILL
 62
4
 10
1978.376
 20
-3016.390
 30
3235.041
 70
    32
  0
VERTEX
  8
T20SSILL
 62
4
 10
1982.958
 20
-3016.683
 30
3235.042
 70
    32
  0
VERTEX
  8
T20SSILL
 62
4
 10
2091.224
 20
-2939.222
 30
3234.732
 70
    32
  0
VERTEX
  8
T20SSILL
 62
4
 10
2090.426
 20
-2931.924
 30
3234.703
 70
    32
  0
VERTEX
  8
T20SSILL
 62
4
 10
2085.957
 20
-2919.832
 30
3234.655
 70
    32
  0
VERTEX
  8
T20SSILL
 62
4
 10
2083.881
 20
-2909.029
 30
3234.612
 70
    32
  0
VERTEX
  8
T20SSILL
 62
4
 10
2062.904
 20
-2866.157
 30
3234.443
 70
    32
  0
VERTEX
  8
T20SSILL
 62
4
 10
2052.832
 20
-2842.955
 30
3234.352
 70
    32
  0
VERTEX
  8
T20SSILL
 62
4
 10
2086.611
 20
-2778.954
 30
3234.225
 70
    32
  0
VERTEX
  8
T20SSILL
 62
4
 10
2012.887
 20
-2661.101
 30
3233.828
 70
    32
  0
VERTEX
  8
T20SSILL
 62
4
 10
2006.402
 20
-2648.712
 30
3233.791
 70
    32
  0
VERTEX
  8
T20SSILL
 62
4
 10
1998.513
 20
-2644.587
 30
3233.766
 70
    32
  0
VERTEX
  8
T20SSILL
 62
4
 10
1993.483
 20
-2643.683
 30
3233.754
 70
    32
  0
VERTEX
  8
T20SSILL
 62
4
 10
1982.750
 20
-2644.349
 30
3233.734
 70
    32
  0
VERTEX
  8
T20SSILL
 62
4
 10
1969.878
 20
-2656.665
 30
3233.732
 70
    32
  0
VERTEX
  8
T20SSILL
 62
4
 10
1969.707
 20
-2663.886
 30
3233.745
 70
    32
  0
VERTEX
  8
T20SSILL
 62
4
 10
1972.730
 20
-2673.092
 30
3233.770
 70
    32
  0
VERTEX
  8
T20SSILL
 62
4
 10
1975.233
 20
-2675.965
 30
3233.782
 70
    32
  0
VERTEX
  8
T20SSILL
 62
4
 10
1966.468
 20
-2685.939
 30
3233.789
 70
    32
  0
VERTEX
  8
T20SSILL
 62
4
 10
1963.749
 20
-2693.546
 30
3233.802
 70
    32
  0
VERTEX
  8
T20SSILL
 62
4
 10
1970.467
 20
-2702.528
 30
3233.836
 70
    32
  0
VERTEX
  8
T20SSILL
 62
4
 10
1982.797
 20
-2723.324
 30
3233.907
 70
    32
  0
VERTEX
  8
T20SSILL
 62
4
 10
1968.030
 20
-2732.054
 30
3233.915
 70
    32
  0
VERTEX
  8
T20SSILL
 62
4
 10
1954.202
 20
-2704.322
 30
3233.811
 70
    32
  0
VERTEX
  8
T20SSILL
 62
4
 10
1951.734
 20
-2690.355
 30
3233.773
 70
    32
  0
VERTEX
  8
T20SSILL
 62
4
 10
1943.523
 20
-2681.744
 30
3233.738
 70
    32
  0
VERTEX
  8
T20SSILL
 62
4
 10
1922.154
 20
-2697.426
 30
3233.779
 70
    32
  0
VERTEX
  8
T20SSILL
 62
4
 10
1889.755
 20
-2718.093
 30
3233.862
 70
    32
  0
VERTEX
  8
T20SSILL
 62
4
 10
1889.251
 20
-2726.815
 30
3233.897
 70
    32
  0
VERTEX
  8
T20SSILL
 62
4
 10
1890.852
 20
-2734.895
 30
3233.929
 70
    32
  0
VERTEX
  8
T20SSILL
 62
4
 10
1904.146
 20
-2755.414
 30
3234.010
 70
    32
  0
VERTEX
  8
T20SSILL
 62
4
 10
1912.139
 20
-2760.770
 30
3234.031
 70
    32
  0
VERTEX
  8
T20SSILL
 62
4
 10
1915.123
 20
-2766.895
 30
3234.055
 70
    32
  0
VERTEX
  8
T20SSILL
 62
4
 10
1916.527
 20
-2773.392
 30
3234.080
 70
    32
  0
VERTEX
  8
T20SSILL
 62
4
 10
1911.766
 20
-2779.704
 30
3234.106
 70
    32
  0
VERTEX
  8
T20SSILL
 62
4
 10
1908.084
 20
-2780.984
 30
3234.111
 70
    32
  0
VERTEX
  8
T20SSILL
 62
4
 10
1901.566
 20
-2780.716
 30
3234.110
 70
    32
  0
VERTEX
  8
T20SSILL
 62
4
 10
1891.130
 20
-2763.417
 30
3234.042
 70
    32
  0
VERTEX
  8
T20SSILL
 62
4
 10
1891.552
 20
-2755.136
 30
3234.009
 70
    32
  0
VERTEX
  8
T20SSILL
 62
4
 10
1889.616
 20
-2748.381
 30
3233.982
 70
    32
  0
VERTEX
  8
T20SSILL
 62
4
 10
1886.767
 20
-2745.865
 30
3233.972
 70
    32
  0
VERTEX
  8
T20SSILL
 62
4
 10
1878.823
 20
-2744.294
 30
3233.966
 70
    32
  0
VERTEX
  8
T20SSILL
 62
4
 10
1875.890
 20
-2735.351
 30
3233.931
 70
    32
  0
VERTEX
  8
T20SSILL
 62
4
 10
1878.861
 20
-2733.552
 30
3233.924
 70
    32
  0
VERTEX
  8
T20SSILL
 62
4
 10
1875.879
 20
-2727.604
 30
3233.900
 70
    32
  0
VERTEX
  8
T20SSILL
 62
4
 10
1871.933
 20
-2728.887
 30
3233.906
 70
    32
  0
VERTEX
  8
T20SSILL
 62
4
 10
1864.520
 20
-2734.353
 30
3233.927
 70
    32
  0
VERTEX
  8
T20SSILL
 62
4
 10
1850.398
 20
-2738.496
 30
3233.944
 70
    32
  0
VERTEX
  8
T20SSILL
 62
4
 10
1795.353
 20
-2778.207
 30
3234.103
 70
    32
  0
VERTEX
  8
T20SSILL
 62
4
 10
1775.439
 20
-2797.481
 30
3234.180
 70
    32
  0
VERTEX
  8
T20SSILL
 62
4
 10
1765.531
 20
-2800.690
 30
3234.193
 70
    32
  0
VERTEX
  8
T20SSILL
 62
4
 10
1744.355
 20
-2817.690
 30
3234.261
 70
    32
  0
VERTEX
  8
T20SSILL
 62
4
 10
1741.672
 20
-2821.334
 30
3234.276
 70
    32
  0
VERTEX
  8
T20SSILL
 62
4
 10
1723.460
 20
-2829.140
 30
3234.307
 70
    32
  0
VERTEX
  8
T20SSILL
 62
4
 10
1711.245
 20
-2837.837
 30
3234.342
 70
    32
  0
VERTEX
  8
T20SSILL
 62
4
 10
1737.699
 20
-2923.164
 30
3234.679
 70
    32
  0
VERTEX
  8
T20SSILL
 62
4
 10
1739.852
 20
-2926.306
 30
3234.692
 70
    32
  0
VERTEX
  8
T20SSILL
 62
4
 10
1746.864
 20
-2930.706
 30
3234.709
 70
    32
  0
VERTEX
  8
T20SSILL
 62
4
 10
1750.485
 20
-2931.540
 30
3234.712
 70
    32
  0
VERTEX
  8
T20SSILL
 62
4
 10
1763.133
 20
-2922.397
 30
3234.675
 70
    32
  0
VERTEX
  8
T20SSILL
 62
4
 10
1739.120
 20
-2889.865
 30
3234.547
 70
    32
  0
VERTEX
  8
T20SSILL
 62
4
 10
1736.765
 20
-2884.789
 30
3234.527
 70
    32
  0
VERTEX
  8
T20SSILL
 62
4
 10
1734.802
 20
-2875.922
 30
3234.492
 70
    32
  0
VERTEX
  8
T20SSILL
 62
4
 10
1731.744
 20
-2870.855
 30
3234.472
 70
    32
  0
VERTEX
  8
T20SSILL
 62
4
 10
1741.154
 20
-2863.162
 30
3234.441
 70
    32
  0
VERTEX
  8
T20SSILL
 62
4
 10
1749.917
 20
-2873.702
 30
3234.483
 70
    32
  0
VERTEX
  8
T20SSILL
 62
4
 10
1758.254
 20
-2878.438
 30
3234.501
 70
    32
  0
VERTEX
  8
T20SSILL
 62
4
 10
1780.579
 20
-2909.670
 30
3234.624
 70
    32
  0
VERTEX
  8
T20SSILL
 62
4
 10
1788.622
 20
-2905.253
 30
3234.607
 70
    32
  0
VERTEX
  8
T20SSILL
 62
4
 10
1792.835
 20
-2911.098
 30
3234.630
 70
    32
  0
VERTEX
  8
T20SSILL
 62
4
 10
1788.214
 20
-2914.591
 30
3234.644
 70
    32
  0
VERTEX
  8
T20SSILL
 62
4
 10
1794.808
 20
-2920.757
 30
3234.668
 70
    32
  0
VERTEX
  8
T20SSILL
 62
4
 10
1805.801
 20
-2947.205
 30
3234.772
 70
    32
  0
VERTEX
  8
T20SSILL
 62
4
 10
1798.285
 20
-2951.528
 30
3234.790
 70
    32
  0
VERTEX
  8
T20SSILL
 62
4
 10
1792.857
 20
-2947.019
 30
3234.772
 70
    32
  0
VERTEX
  8
T20SSILL
 62
4
 10
1790.315
 20
-2947.932
 30
3234.776
 70
    32
  0
VERTEX
  8
T20SSILL
 62
4
 10
1788.062
 20
-2937.044
 30
3234.733
 70
    32
  0
VERTEX
  8
T20SSILL
 62
4
 10
1787.432
 20
-2935.995
 30
3234.729
 70
    32
  0
VERTEX
  8
T20SSILL
 62
4
 10
1785.504
 20
-2936.636
 30
3234.731
 70
    32
  0
VERTEX
  8
T20SSILL
 62
4
 10
1780.708
 20
-2926.573
 30
3234.691
 70
    32
  0
VERTEX
  8
T20SSILL
 62
4
 10
1773.988
 20
-2924.370
 30
3234.683
 70
    32
  0
VERTEX
  8
T20SSILL
 62
4
 10
1772.245
 20
-2925.713
 30
3234.688
 70
    32
  0
VERTEX
  8
T20SSILL
 62
4
 10
1772.444
 20
-2927.560
 30
3234.696
 70
    32
  0
VERTEX
  8
T20SSILL
 62
4
 10
1776.446
 20
-2937.457
 30
3234.735
 70
    32
  0
VERTEX
  8
T20SSILL
 62
4
 10
1800.231
 20
-3013.837
 30
3235.026
 70
    32
  0
VERTEX
  8
T20SSILL
 62
4
 10
1808.986
 20
-3016.895
 30
3235.037
 70
    32
  0
VERTEX
  8
T20SSILL
 62
4
 10
1818.227
 20
-3009.732
 30
3235.013
 70
    32
  0
VERTEX
  8
T20SSILL
 62
4
 10
1815.081
 20
-3004.754
 30
3234.996
 70
    32
  0
VERTEX
  8
T20SSILL
 62
4
 10
1830.177
 20
-2994.171
 30
3234.958
 70
    32
  0
VERTEX
  8
T20SSILL
 62
4
 10
1833.939
 20
-2999.141
 30
3234.977
 70
    32
  0
VERTEX
  8
T20SSILL
 62
4
 10
1936.350
 20
-2925.101
 30
3234.681
 70
    32
  0
VERTEX
  8
T20SSILL
 62
4
 10
1989.749
 20
-2853.187
 30
3234.394
 70
    32
  0
VERTEX
  8
T20SSILL
 62
4
 10
2007.960
 20
-2845.293
 30
3234.362
 70
    32
  0
VERTEX
  8
T20SSILL
 62
4
 10
2010.949
 20
-2851.770
 30
3234.388
 70
    32
  0
VERTEX
  8
T20SSILL
 62
4
 10
1992.491
 20
-2861.076
 30
3234.425
 70
    32
  0
VERTEX
  8
T20SSILL
 62
4
 10
1941.517
 20
-2929.789
 30
3234.699
 70
    32
  0
VERTEX
  8
T20SSILL
 62
4
 10
1856.724
 20
-2990.924
 30
3234.944
 70
    32
  0
VERTEX
  8
T20SSILL
 62
4
 10
1870.685
 20
-3063.293
 30
3235.199
 70
    32
  0
VERTEX
  8
T20SSILL
 62
4
 10
1876.592
 20
-3057.054
 30
3235.178
 70
    32
  0
VERTEX
  8
T20SSILL
 62
4
 10
1878.135
 20
-3046.997
 30
3235.144
 70
    32
  0
VERTEX
  8
T20SSILL
 62
4
 10
1884.908
 20
-3046.470
 30
3235.142
 70
    32
  0
VERTEX
  8
T20SSILL
 62
4
 10
1885.050
 20
-3050.694
 30
3235.157
 70
    32
  0
VERTEX
  8
T20SSILL
 62
4
 10
1882.013
 20
-3060.946
 30
3235.191
 70
    32
  0
VERTEX
  8
T20SSILL
 62
4
 10
1878.639
 20
-3065.656
 30
3235.207
 70
    32
  0
VERTEX
  8
T20SSILL
 62
4
 10
1874.713
 20
-3068.436
 30
3235.217
 70
    32
  0
VERTEX
  8
T20SSILL
 62
4
 10
1876.325
 20
-3070.528
 30
3235.224
 70
    32
  0
VERTEX
  8
T20SSILL
 62
4
 10
1878.335
 20
-3069.358
 30
3235.220
 70
    32
  0
VERTEX
  8
T20SSILL
 62
4
 10
1888.815
 20
-3083.310
 30
3235.268
 70
    32
  0
VERTEX
  8
T20SSILL
 62
4
 10
1945.005
 20
-3043.584
 30
3235.135
 70
    32
  0
VERTEX
  8
T20SSILL
 62
4
 10
1936.391
 20
-3031.017
 30
3235.092
 70
    32
  0
SEQEND
  8
T20SSILL
  0
POLYLINE
  8
T20SSILL
 62
4
 66
     1
 70
     9
  0
VERTEX
  8
T20SSILL
 62
4
 10
1740.202
 20
-3001.491
 30
3234.981
 70
    32
  0
VERTEX
  8
T20SSILL
 62
4
 10
1736.783
 20
-2995.724
 30
3234.961
 70
    32
  0
VERTEX
  8
T20SSILL
 62
4
 10
1744.862
 20
-2987.256
 30
3234.933
 70
    32
  0
VERTEX
  8
T20SSILL
 62
4
 10
1747.168
 20
-2981.767
 30
3234.911
 70
    32
  0
VERTEX
  8
T20SSILL
 62
4
 10
1737.947
 20
-2949.310
 30
3234.783
 70
    32
  0
VERTEX
  8
T20SSILL
 62
4
 10
1663.778
 20
-3001.723
 30
3234.978
 70
    32
  0
VERTEX
  8
T20SSILL
 62
4
 10
1659.134
 20
-2996.194
 30
3234.959
 70
    32
  0
VERTEX
  8
T20SSILL
 62
4
 10
1733.894
 20
-2942.230
 30
3234.755
 70
    32
  0
VERTEX
  8
T20SSILL
 62
4
 10
1734.737
 20
-2939.314
 30
3234.743
 70
    32
  0
VERTEX
  8
T20SSILL
 62
4
 10
1721.798
 20
-2898.540
 30
3234.582
 70
    32
  0
VERTEX
  8
T20SSILL
 62
4
 10
1545.569
 20
-3024.507
 30
3234.975
 70
    32
  0
VERTEX
  8
T20SSILL
 62
4
 10
1543.571
 20
-3026.557
 30
3234.975
 70
    32
  0
VERTEX
  8
T20SSILL
 62
4
 10
1581.983
 20
-3103.894
 30
3235.250
 70
    32
  0
VERTEX
  8
T20SSILL
 62
4
 10
1593.126
 20
-3107.713
 30
3235.284
 70
    32
  0
VERTEX
  8
T20SSILL
 62
4
 10
1611.361
 20
-3094.544
 30
3235.292
 70
    32
  0
SEQEND
  8
T20SSILL
  0
POLYLINE
  8
T20SSILL
 62
4
 66
     1
 70
     9
  0
VERTEX
  8
T20SSILL
 62
4
 10
1705.802
 20
-2845.919
 30
3234.374
 70
    32
  0
VERTEX
  8
T20SSILL
 62
4
 10
1668.588
 20
-2882.320
 30
3234.520
 70
    32
  0
VERTEX
  8
T20SSILL
 62
4
 10
1526.887
 20
-2982.046
 30
3234.961
 70
    32
  0
VERTEX
  8
T20SSILL
 62
4
 10
1525.221
 20
-2989.463
 30
3234.976
 70
    32
  0
VERTEX
  8
T20SSILL
 62
4
 10
1539.413
 20
-3018.159
 30
3234.954
 70
    32
  0
VERTEX
  8
T20SSILL
 62
4
 10
1541.451
 20
-3019.189
 30
3234.954
 70
    32
  0
VERTEX
  8
T20SSILL
 62
4
 10
1718.644
 20
-2892.858
 30
3234.560
 70
    32
  0
VERTEX
  8
T20SSILL
 62
4
 10
1719.412
 20
-2890.999
 30
3234.552
 70
    32
  0
VERTEX
  8
T20SSILL
 62
4
 10
1718.576
 20
-2887.576
 30
3234.539
 70
    32
  0
SEQEND
  8
T20SSILL
  0
POLYLINE
  8
T20SSILL
 62
4
 66
     1
 70
     9
  0
VERTEX
  8
T20SSILL
 62
4
 10
2090.177
 20
-2905.691
 30
3234.599
 70
    32
  0
VERTEX
  8
T20SSILL
 62
4
 10
2095.649
 20
-2927.279
 30
3234.684
 70
    32
  0
VERTEX
  8
T20SSILL
 62
4
 10
2098.814
 20
-2933.754
 30
3234.710
 70
    32
  0
VERTEX
  8
T20SSILL
 62
4
 10
2155.077
 20
-2892.882
 30
3234.618
 70
    32
  0
VERTEX
  8
T20SSILL
 62
4
 10
2155.584
 20
-2891.291
 30
3234.615
 70
    32
  0
VERTEX
  8
T20SSILL
 62
4
 10
2090.051
 20
-2786.305
 30
3234.249
 70
    32
  0
VERTEX
  8
T20SSILL
 62
4
 10
2060.332
 20
-2844.180
 30
3234.356
 70
    32
  0
VERTEX
  8
T20SSILL
 62
4
 10
2088.274
 20
-2901.489
 30
3234.582
 70
    32
  0
VERTEX
  8
T20SSILL
 62
4
 10
2090.329
 20
-2903.840
 30
3234.592
 70
    32
  0
SEQEND
  8
T20SSILL
  0
POLYLINE
  8
T20SSILL
 62
4
 66
     1
 70
     9
  0
VERTEX
  8
T20SSILL
 62
4
 10
2167.360
 20
-3081.314
 30
3235.276
 70
    32
  0
VERTEX
  8
T20SSILL
 62
4
 10
2186.010
 20
-3100.708
 30
3235.343
 70
    32
  0
VERTEX
  8
T20SSILL
 62
4
 10
2193.947
 20
-3094.883
 30
3235.323
 70
    32
  0
VERTEX
  8
T20SSILL
 62
4
 10
2190.275
 20
-3090.000
 30
3235.307
 70
    32
  0
VERTEX
  8
T20SSILL
 62
4
 10
2194.900
 20
-3086.771
 30
3235.296
 70
    32
  0
VERTEX
  8
T20SSILL
 62
4
 10
2159.840
 20
-3037.389
 30
3235.118
 70
    32
  0
VERTEX
  8
T20SSILL
 62
4
 10
2169.865
 20
-3029.600
 30
3235.087
 70
    32
  0
VERTEX
  8
T20SSILL
 62
4
 10
2194.342
 20
-3063.975
 30
3235.218
 70
    32
  0
VERTEX
  8
T20SSILL
 62
4
 10
2199.227
 20
-3060.390
 30
3235.206
 70
    32
  0
VERTEX
  8
T20SSILL
 62
4
 10
2221.364
 20
-3090.745
 30
3235.311
 70
    32
  0
VERTEX
  8
T20SSILL
 62
4
 10
2216.387
 20
-3093.978
 30
3235.322
 70
    32
  0
VERTEX
  8
T20SSILL
 62
4
 10
2219.079
 20
-3097.906
 30
3235.335
 70
    32
  0
VERTEX
  8
T20SSILL
 62
4
 10
2256.072
 20
-3071.722
 30
3235.248
 70
    32
  0
VERTEX
  8
T20SSILL
 62
4
 10
2259.774
 20
-3065.159
 30
3235.225
 70
    32
  0
VERTEX
  8
T20SSILL
 62
4
 10
2260.404
 20
-3059.340
 30
3235.202
 70
    32
  0
VERTEX
  8
T20SSILL
 62
4
 10
2159.095
 20
-2897.233
 30
3234.635
 70
    32
  0
VERTEX
  8
T20SSILL
 62
4
 10
2104.665
 20
-2936.848
 30
3234.722
 70
    32
  0
VERTEX
  8
T20SSILL
 62
4
 10
2102.916
 20
-2944.618
 30
3234.753
 70
    32
  0
VERTEX
  8
T20SSILL
 62
4
 10
2104.337
 20
-2952.436
 30
3234.784
 70
    32
  0
VERTEX
  8
T20SSILL
 62
4
 10
2104.288
 20
-2969.165
 30
3234.850
 70
    32
  0
VERTEX
  8
T20SSILL
 62
4
 10
2108.221
 20
-2973.781
 30
3234.868
 70
    32
  0
VERTEX
  8
T20SSILL
 62
4
 10
2122.872
 20
-2976.586
 30
3234.879
 70
    32
  0
VERTEX
  8
T20SSILL
 62
4
 10
2124.918
 20
-2978.232
 30
3234.885
 70
    32
  0
VERTEX
  8
T20SSILL
 62
4
 10
2126.899
 20
-2981.640
 30
3234.899
 70
    32
  0
VERTEX
  8
T20SSILL
 62
4
 10
2132.337
 20
-3000.588
 30
3234.974
 70
    32
  0
VERTEX
  8
T20SSILL
 62
4
 10
2127.088
 20
-3003.209
 30
3234.984
 70
    32
  0
VERTEX
  8
T20SSILL
 62
4
 10
2128.657
 20
-3008.823
 30
3235.006
 70
    32
  0
VERTEX
  8
T20SSILL
 62
4
 10
2124.828
 20
-3012.306
 30
3235.020
 70
    32
  0
VERTEX
  8
T20SSILL
 62
4
 10
2126.396
 20
-3017.833
 30
3235.042
 70
    32
  0
VERTEX
  8
T20SSILL
 62
4
 10
2122.824
 20
-3020.784
 30
3235.054
 70
    32
  0
VERTEX
  8
T20SSILL
 62
4
 10
2120.356
 20
-3020.552
 30
3235.053
 70
    32
  0
VERTEX
  8
T20SSILL
 62
4
 10
2116.765
 20
-3001.493
 30
3234.978
 70
    32
  0
VERTEX
  8
T20SSILL
 62
4
 10
2110.849
 20
-2993.292
 30
3234.945
 70
    32
  0
VERTEX
  8
T20SSILL
 62
4
 10
2108.355
 20
-2991.035
 30
3234.936
 70
    32
  0
VERTEX
  8
T20SSILL
 62
4
 10
2106.866
 20
-2991.671
 30
3234.939
 70
    32
  0
VERTEX
  8
T20SSILL
 62
4
 10
2108.266
 20
-3004.683
 30
3234.991
 70
    32
  0
VERTEX
  8
T20SSILL
 62
4
 10
2124.387
 20
-3032.826
 30
3235.101
 70
    32
  0
VERTEX
  8
T20SSILL
 62
4
 10
2133.431
 20
-3051.463
 30
3235.172
 70
    32
  0
VERTEX
  8
T20SSILL
 62
4
 10
2145.604
 20
-3066.890
 30
3235.225
 70
    32
  0
VERTEX
  8
T20SSILL
 62
4
 10
2161.485
 20
-3076.371
 30
3235.259
 70
    32
  0
SEQEND
  8
T20SSILL
  0
POLYLINE
  8
T20SSILL
 62
4
 66
     1
 70
     9
  0
VERTEX
  8
T20SSILL
 62
4
 10
1693.328
 20
-2841.237
 30
3234.356
 70
    32
  0
VERTEX
  8
T20SSILL
 62
4
 10
1698.624
 20
-2835.446
 30
3234.333
 70
    32
  0
VERTEX
  8
T20SSILL
 62
4
 10
1695.307
 20
-2830.823
 30
3234.315
 70
    32
  0
VERTEX
  8
T20SSILL
 62
4
 10
1699.485
 20
-2827.071
 30
3234.300
 70
    32
  0
VERTEX
  8
T20SSILL
 62
4
 10
1701.896
 20
-2822.814
 30
3234.283
 70
    32
  0
VERTEX
  8
T20SSILL
 62
4
 10
1709.377
 20
-2815.763
 30
3234.255
 70
    32
  0
VERTEX
  8
T20SSILL
 62
4
 10
1714.622
 20
-2812.878
 30
3234.243
 70
    32
  0
VERTEX
  8
T20SSILL
 62
4
 10
1718.352
 20
-2808.516
 30
3234.226
 70
    32
  0
VERTEX
  8
T20SSILL
 62
4
 10
1731.289
 20
-2801.218
 30
3234.196
 70
    32
  0
VERTEX
  8
T20SSILL
 62
4
 10
1716.137
 20
-2793.753
 30
3234.167
 70
    32
  0
VERTEX
  8
T20SSILL
 62
4
 10
1702.075
 20
-2775.092
 30
3234.121
 70
    32
  0
VERTEX
  8
T20SSILL
 62
4
 10
1697.033
 20
-2766.441
 30
3234.111
 70
    32
  0
VERTEX
  8
T20SSILL
 62
4
 10
1693.385
 20
-2763.494
 30
3234.111
 70
    32
  0
VERTEX
  8
T20SSILL
 62
4
 10
1688.451
 20
-2763.205
 30
3234.120
 70
    32
  0
VERTEX
  8
T20SSILL
 62
4
 10
1685.561
 20
-2764.387
 30
3234.128
 70
    32
  0
VERTEX
  8
T20SSILL
 62
4
 10
1617.331
 20
-2812.632
 30
3234.367
 70
    32
  0
VERTEX
  8
T20SSILL
 62
4
 10
1662.983
 20
-2877.813
 30
3234.502
 70
    32
  0
VERTEX
  8
T20SSILL
 62
4
 10
1687.523
 20
-2855.399
 30
3234.412
 70
    32
  0
VERTEX
  8
T20SSILL
 62
4
 10
1689.951
 20
-2852.462
 30
3234.401
 70
    32
  0
VERTEX
  8
T20SSILL
 62
4
 10
1687.346
 20
-2848.446
 30
3234.385
 70
    32
  0
VERTEX
  8
T20SSILL
 62
4
 10
1692.219
 20
-2843.981
 30
3234.367
 70
    32
  0
SEQEND
  8
T20SSILL
  0
POLYLINE
  8
T20SSILL
 62
4
 66
     1
 70
     9
  0
VERTEX
  8
T20SSILL
 62
4
 10
2194.528
 20
-3242.789
 30
3235.811
 70
    32
  0
VERTEX
  8
T20SSILL
 62
4
 10
2231.765
 20
-3221.796
 30
3235.671
 70
    32
  0
VERTEX
  8
T20SSILL
 62
4
 10
2226.041
 20
-3214.914
 30
3235.670
 70
    32
  0
VERTEX
  8
T20SSILL
 62
4
 10
2170.123
 20
-3255.165
 30
3235.870
 70
    32
  0
VERTEX
  8
T20SSILL
 62
4
 10
2172.193
 20
-3258.660
 30
3235.882
 70
    32
  0
VERTEX
  8
T20SSILL
 62
4
 10
2183.943
 20
-3250.310
 30
3235.854
 70
    32
  0
SEQEND
  8
T20SSILL
  0
POLYLINE
  8
T20SSILL
 62
4
 66
     1
 70
     9
  0
VERTEX
  8
T20SSILL
 62
4
 10
2228.024
 20
-3376.009
 30
3236.064
 70
    32
  0
VERTEX
  8
T20SSILL
 62
4
 10
2231.891
 20
-3375.431
 30
3236.060
 70
    32
  0
VERTEX
  8
T20SSILL
 62
4
 10
2236.503
 20
-3378.101
 30
3236.066
 70
    32
  0
VERTEX
  8
T20SSILL
 62
4
 10
2247.784
 20
-3395.209
 30
3236.106
 70
    32
  0
VERTEX
  8
T20SSILL
 62
4
 10
2262.931
 20
-3386.305
 30
3236.076
 70
    32
  0
VERTEX
  8
T20SSILL
 62
4
 10
2265.540
 20
-3392.195
 30
3236.090
 70
    32
  0
VERTEX
  8
T20SSILL
 62
4
 10
2260.205
 20
-3395.487
 30
3236.101
 70
    32
  0
VERTEX
  8
T20SSILL
 62
4
 10
2262.901
 20
-3400.086
 30
3236.112
 70
    32
  0
VERTEX
  8
T20SSILL
 62
4
 10
2272.256
 20
-3392.345
 30
3236.088
 70
    32
  0
VERTEX
  8
T20SSILL
 62
4
 10
2266.367
 20
-3386.257
 30
3236.074
 70
    32
  0
VERTEX
  8
T20SSILL
 62
4
 10
2251.871
 20
-3381.865
 30
3236.069
 70
    32
  0
VERTEX
  8
T20SSILL
 62
4
 10
2232.881
 20
-3370.312
 30
3236.047
 70
    32
  0
VERTEX
  8
T20SSILL
 62
4
 10
2225.273
 20
-3360.637
 30
3236.024
 70
    32
  0
VERTEX
  8
T20SSILL
 62
4
 10
2219.946
 20
-3364.051
 30
3236.035
 70
    32
  0
VERTEX
  8
T20SSILL
 62
4
 10
2217.519
 20
-3360.120
 30
3236.026
 70
    32
  0
VERTEX
  8
T20SSILL
 62
4
 10
2211.842
 20
-3363.715
 30
3236.043
 70
    32
  0
VERTEX
  8
T20SSILL
 62
4
 10
2218.570
 20
-3373.401
 30
3236.061
 70
    32
  0
VERTEX
  8
T20SSILL
 62
4
 10
2211.782
 20
-3377.976
 30
3236.076
 70
    32
  0
VERTEX
  8
T20SSILL
 62
4
 10
2216.646
 20
-3381.262
 30
3236.082
 70
    32
  0
VERTEX
  8
T20SSILL
 62
4
 10
2224.248
 20
-3376.762
 30
3236.067
 70
    32
  0
SEQEND
  8
T20SSILL
  0
POLYLINE
  8
T20SSILL
 62
4
 66
     1
 70
     9
  0
VERTEX
  8
T20SSILL
 62
4
 10
2134.996
 20
-3221.103
 30
3235.752
 70
    32
  0
VERTEX
  8
T20SSILL
 62
4
 10
2138.166
 20
-3228.018
 30
3235.775
 70
    32
  0
VERTEX
  8
T20SSILL
 62
4
 10
2143.438
 20
-3234.025
 30
3235.796
 70
    32
  0
VERTEX
  8
T20SSILL
 62
4
 10
2144.564
 20
-3239.469
 30
3235.815
 70
    32
  0
VERTEX
  8
T20SSILL
 62
4
 10
2154.234
 20
-3252.023
 30
3235.858
 70
    32
  0
VERTEX
  8
T20SSILL
 62
4
 10
2157.352
 20
-3261.668
 30
3235.891
 70
    32
  0
VERTEX
  8
T20SSILL
 62
4
 10
2133.870
 20
-3277.378
 30
3235.944
 70
    32
  0
VERTEX
  8
T20SSILL
 62
4
 10
2138.713
 20
-3284.271
 30
3235.967
 70
    32
  0
VERTEX
  8
T20SSILL
 62
4
 10
2133.464
 20
-3288.130
 30
3235.980
 70
    32
  0
VERTEX
  8
T20SSILL
 62
4
 10
2131.866
 20
-3285.856
 30
3235.973
 70
    32
  0
VERTEX
  8
T20SSILL
 62
4
 10
2116.600
 20
-3296.881
 30
3236.009
 70
    32
  0
VERTEX
  8
T20SSILL
 62
4
 10
2120.190
 20
-3301.666
 30
3236.026
 70
    32
  0
VERTEX
  8
T20SSILL
 62
4
 10
2113.532
 20
-3308.784
 30
3236.050
 70
    32
  0
VERTEX
  8
T20SSILL
 62
4
 10
2109.061
 20
-3299.443
 30
3236.018
 70
    32
  0
VERTEX
  8
T20SSILL
 62
4
 10
2115.851
 20
-3293.369
 30
3235.997
 70
    32
  0
VERTEX
  8
T20SSILL
 62
4
 10
2120.399
 20
-3263.640
 30
3235.896
 70
    32
  0
VERTEX
  8
T20SSILL
 62
4
 10
2119.284
 20
-3252.209
 30
3235.857
 70
    32
  0
VERTEX
  8
T20SSILL
 62
4
 10
2107.142
 20
-3246.025
 30
3235.835
 70
    32
  0
VERTEX
  8
T20SSILL
 62
4
 10
2099.652
 20
-3231.859
 30
3235.786
 70
    32
  0
VERTEX
  8
T20SSILL
 62
4
 10
2088.615
 20
-3215.712
 30
3235.731
 70
    32
  0
VERTEX
  8
T20SSILL
 62
4
 10
2072.125
 20
-3227.370
 30
3235.770
 70
    32
  0
VERTEX
  8
T20SSILL
 62
4
 10
2065.753
 20
-3217.943
 30
3235.737
 70
    32
  0
VERTEX
  8
T20SSILL
 62
4
 10
2066.423
 20
-3215.293
 30
3235.728
 70
    32
  0
VERTEX
  8
T20SSILL
 62
4
 10
2120.156
 20
-3176.216
 30
3235.597
 70
    32
  0
VERTEX
  8
T20SSILL
 62
4
 10
2123.687
 20
-3176.963
 30
3235.600
 70
    32
  0
VERTEX
  8
T20SSILL
 62
4
 10
2131.969
 20
-3184.252
 30
3235.626
 70
    32
  0
VERTEX
  8
T20SSILL
 62
4
 10
2131.816
 20
-3199.750
 30
3235.678
 70
    32
  0
SEQEND
  8
T20SSILL
  0
POLYLINE
  8
T20SSILL
 62
4
 66
     1
 70
     9
  0
VERTEX
  8
T20SSILL
 62
4
 10
2067.766
 20
-3375.577
 30
3236.276
 70
    32
  0
VERTEX
  8
T20SSILL
 62
4
 10
2049.490
 20
-3352.055
 30
3236.194
 70
    32
  0
VERTEX
  8
T20SSILL
 62
4
 10
2037.719
 20
-3317.881
 30
3236.077
 70
    32
  0
VERTEX
  8
T20SSILL
 62
4
 10
2033.460
 20
-3301.648
 30
3236.021
 70
    32
  0
VERTEX
  8
T20SSILL
 62
4
 10
2021.815
 20
-3279.258
 30
3235.944
 70
    32
  0
VERTEX
  8
T20SSILL
 62
4
 10
2022.773
 20
-3271.586
 30
3235.918
 70
    32
  0
VERTEX
  8
T20SSILL
 62
4
 10
2025.677
 20
-3264.681
 30
3235.895
 70
    32
  0
VERTEX
  8
T20SSILL
 62
4
 10
2027.416
 20
-3256.119
 30
3235.866
 70
    32
  0
VERTEX
  8
T20SSILL
 62
4
 10
2027.716
 20
-3252.065
 30
3235.852
 70
    32
  0
VERTEX
  8
T20SSILL
 62
4
 10
2025.591
 20
-3244.256
 30
3235.825
 70
    32
  0
VERTEX
  8
T20SSILL
 62
4
 10
2036.845
 20
-3236.188
 30
3235.798
 70
    32
  0
VERTEX
  8
T20SSILL
 62
4
 10
2036.299
 20
-3248.521
 30
3235.840
 70
    32
  0
VERTEX
  8
T20SSILL
 62
4
 10
2041.401
 20
-3268.705
 30
3235.909
 70
    32
  0
VERTEX
  8
T20SSILL
 62
4
 10
2035.277
 20
-3271.778
 30
3235.919
 70
    32
  0
VERTEX
  8
T20SSILL
 62
4
 10
2046.032
 20
-3293.386
 30
3235.994
 70
    32
  0
VERTEX
  8
T20SSILL
 62
4
 10
2040.606
 20
-3295.921
 30
3236.002
 70
    32
  0
VERTEX
  8
T20SSILL
 62
4
 10
2057.308
 20
-3328.106
 30
3236.113
 70
    32
  0
VERTEX
  8
T20SSILL
 62
4
 10
2061.938
 20
-3325.318
 30
3236.104
 70
    32
  0
VERTEX
  8
T20SSILL
 62
4
 10
2077.842
 20
-3357.073
 30
3236.213
 70
    32
  0
VERTEX
  8
T20SSILL
 62
4
 10
2074.184
 20
-3359.377
 30
3236.221
 70
    32
  0
SEQEND
  8
T20SSILL
  0
POLYLINE
  8
T20SSILL
 62
4
 66
     1
 70
     9
  0
VERTEX
  8
T20SSILL
 62
4
 10
2102.382
 20
-3046.932
 30
3235.155
 70
    32
  0
VERTEX
  8
T20SSILL
 62
4
 10
2101.266
 20
-3001.252
 30
3234.977
 70
    32
  0
VERTEX
  8
T20SSILL
 62
4
 10
2097.071
 20
-2962.566
 30
3234.824
 70
    32
  0
VERTEX
  8
T20SSILL
 62
4
 10
2098.268
 20
-2946.087
 30
3234.759
 70
    32
  0
VERTEX
  8
T20SSILL
 62
4
 10
2095.500
 20
-2943.041
 30
3234.747
 70
    32
  0
VERTEX
  8
T20SSILL
 62
4
 10
2005.905
 20
-3007.320
 30
3235.004
 70
    32
  0
VERTEX
  8
T20SSILL
 62
4
 10
2024.640
 20
-3067.565
 30
3235.221
 70
    32
  0
VERTEX
  8
T20SSILL
 62
4
 10
2038.966
 20
-3079.267
 30
3235.262
 70
    32
  0
VERTEX
  8
T20SSILL
 62
4
 10
2041.534
 20
-3087.246
 30
3235.289
 70
    32
  0
VERTEX
  8
T20SSILL
 62
4
 10
2034.182
 20
-3097.553
 30
3235.324
 70
    32
  0
VERTEX
  8
T20SSILL
 62
4
 10
2036.237
 20
-3106.683
 30
3235.356
 70
    32
  0
VERTEX
  8
T20SSILL
 62
4
 10
2042.547
 20
-3118.136
 30
3235.395
 70
    32
  0
VERTEX
  8
T20SSILL
 62
4
 10
2037.229
 20
-3122.254
 30
3235.409
 70
    32
  0
VERTEX
  8
T20SSILL
 62
4
 10
2030.602
 20
-3113.535
 30
3235.379
 70
    32
  0
VERTEX
  8
T20SSILL
 62
4
 10
2025.423
 20
-3114.746
 30
3235.383
 70
    32
  0
VERTEX
  8
T20SSILL
 62
4
 10
2023.217
 20
-3107.555
 30
3235.358
 70
    32
  0
VERTEX
  8
T20SSILL
 62
4
 10
2027.963
 20
-3106.878
 30
3235.356
 70
    32
  0
VERTEX
  8
T20SSILL
 62
4
 10
2023.939
 20
-3095.220
 30
3235.316
 70
    32
  0
VERTEX
  8
T20SSILL
 62
4
 10
2017.310
 20
-3093.192
 30
3235.309
 70
    32
  0
VERTEX
  8
T20SSILL
 62
4
 10
2012.514
 20
-3083.128
 30
3235.274
 70
    32
  0
VERTEX
  8
T20SSILL
 62
4
 10
2013.855
 20
-3057.314
 30
3235.186
 70
    32
  0
VERTEX
  8
T20SSILL
 62
4
 10
1999.881
 20
-3011.271
 30
3235.020
 70
    32
  0
VERTEX
  8
T20SSILL
 62
4
 10
1982.877
 20
-3024.080
 30
3235.071
 70
    32
  0
VERTEX
  8
T20SSILL
 62
4
 10
1983.107
 20
-3035.170
 30
3235.109
 70
    32
  0
VERTEX
  8
T20SSILL
 62
4
 10
1985.391
 20
-3048.436
 30
3235.154
 70
    32
  0
VERTEX
  8
T20SSILL
 62
4
 10
1977.323
 20
-3044.049
 30
3235.139
 70
    32
  0
VERTEX
  8
T20SSILL
 62
4
 10
1973.176
 20
-3036.531
 30
3235.113
 70
    32
  0
VERTEX
  8
T20SSILL
 62
4
 10
1969.008
 20
-3034.207
 30
3235.105
 70
    32
  0
VERTEX
  8
T20SSILL
 62
4
 10
1930.435
 20
-3060.852
 30
3235.194
 70
    32
  0
VERTEX
  8
T20SSILL
 62
4
 10
1928.947
 20
-3068.355
 30
3235.219
 70
    32
  0
VERTEX
  8
T20SSILL
 62
4
 10
1943.667
 20
-3090.176
 30
3235.294
 70
    32
  0
VERTEX
  8
T20SSILL
 62
4
 10
1947.502
 20
-3094.001
 30
3235.308
 70
    32
  0
VERTEX
  8
T20SSILL
 62
4
 10
1957.086
 20
-3099.865
 30
3235.328
 70
    32
  0
VERTEX
  8
T20SSILL
 62
4
 10
1969.349
 20
-3115.555
 30
3235.382
 70
    32
  0
VERTEX
  8
T20SSILL
 62
4
 10
1971.653
 20
-3123.537
 30
3235.410
 70
    32
  0
VERTEX
  8
T20SSILL
 62
4
 10
1971.621
 20
-3127.852
 30
3235.425
 70
    32
  0
VERTEX
  8
T20SSILL
 62
4
 10
1962.290
 20
-3134.839
 30
3235.448
 70
    32
  0
VERTEX
  8
T20SSILL
 62
4
 10
1972.428
 20
-3149.588
 30
3235.499
 70
    32
  0
VERTEX
  8
T20SSILL
 62
4
 10
1982.548
 20
-3142.327
 30
3235.475
 70
    32
  0
VERTEX
  8
T20SSILL
 62
4
 10
1986.578
 20
-3147.646
 30
3235.493
 70
    32
  0
VERTEX
  8
T20SSILL
 62
4
 10
1971.128
 20
-3158.057
 30
3235.528
 70
    32
  0
VERTEX
  8
T20SSILL
 62
4
 10
1974.625
 20
-3162.943
 30
3235.545
 70
    32
  0
VERTEX
  8
T20SSILL
 62
4
 10
1973.253
 20
-3163.975
 30
3235.548
 70
    32
  0
VERTEX
  8
T20SSILL
 62
4
 10
1991.081
 20
-3182.893
 30
3235.614
 70
    32
  0
VERTEX
  8
T20SSILL
 62
4
 10
2000.308
 20
-3195.189
 30
3235.656
 70
    32
  0
VERTEX
  8
T20SSILL
 62
4
 10
2012.608
 20
-3213.696
 30
3235.720
 70
    32
  0
VERTEX
  8
T20SSILL
 62
4
 10
2023.130
 20
-3237.773
 30
3235.803
 70
    32
  0
VERTEX
  8
T20SSILL
 62
4
 10
2061.609
 20
-3210.689
 30
3235.712
 70
    32
  0
VERTEX
  8
T20SSILL
 62
4
 10
2059.506
 20
-3204.553
 30
3235.691
 70
    32
  0
VERTEX
  8
T20SSILL
 62
4
 10
2053.243
 20
-3196.798
 30
3235.664
 70
    32
  0
VERTEX
  8
T20SSILL
 62
4
 10
2050.936
 20
-3195.419
 30
3235.659
 70
    32
  0
VERTEX
  8
T20SSILL
 62
4
 10
2042.580
 20
-3196.054
 30
3235.661
 70
    32
  0
VERTEX
  8
T20SSILL
 62
4
 10
2041.371
 20
-3191.051
 30
3235.644
 70
    32
  0
VERTEX
  8
T20SSILL
 62
4
 10
2042.711
 20
-3185.663
 30
3235.626
 70
    32
  0
VERTEX
  8
T20SSILL
 62
4
 10
2054.464
 20
-3175.387
 30
3235.591
 70
    32
  0
VERTEX
  8
T20SSILL
 62
4
 10
2056.564
 20
-3174.304
 30
3235.588
 70
    32
  0
VERTEX
  8
T20SSILL
 62
4
 10
2065.169
 20
-3179.388
 30
3235.605
 70
    32
  0
VERTEX
  8
T20SSILL
 62
4
 10
2065.130
 20
-3183.174
 30
3235.618
 70
    32
  0
VERTEX
  8
T20SSILL
 62
4
 10
2060.794
 20
-3188.336
 30
3235.636
 70
    32
  0
VERTEX
  8
T20SSILL
 62
4
 10
2059.363
 20
-3193.461
 30
3235.653
 70
    32
  0
VERTEX
  8
T20SSILL
 62
4
 10
2071.476
 20
-3204.311
 30
3235.691
 70
    32
  0
VERTEX
  8
T20SSILL
 62
4
 10
2129.474
 20
-3161.393
 30
3235.547
 70
    32
  0
VERTEX
  8
T20SSILL
 62
4
 10
2128.863
 20
-3154.973
 30
3235.525
 70
    32
  0
VERTEX
  8
T20SSILL
 62
4
 10
2126.597
 20
-3149.896
 30
3235.508
 70
    32
  0
VERTEX
  8
T20SSILL
 62
4
 10
2122.772
 20
-3133.217
 30
3235.451
 70
    32
  0
VERTEX
  8
T20SSILL
 62
4
 10
2123.390
 20
-3119.650
 30
3235.404
 70
    32
  0
VERTEX
  8
T20SSILL
 62
4
 10
2121.935
 20
-3102.324
 30
3235.345
 70
    32
  0
VERTEX
  8
T20SSILL
 62
4
 10
2114.998
 20
-3083.220
 30
3235.280
 70
    32
  0
VERTEX
  8
T20SSILL
 62
4
 10
2105.882
 20
-3065.816
 30
3235.220
 70
    32
  0
VERTEX
  8
T20SSILL
 62
4
 10
2103.622
 20
-3054.400
 30
3235.181
 70
    32
  0
SEQEND
  8
T20SSILL
  0
POLYLINE
  8
T20SSILL
 62
4
 66
     1
 70
     9
  0
VERTEX
  8
T20SSILL
 62
4
 10
1931.227
 20
-3231.999
 30
3235.778
 70
    32
  0
VERTEX
  8
T20SSILL
 62
4
 10
1946.699
 20
-3250.729
 30
3235.843
 70
    32
  0
VERTEX
  8
T20SSILL
 62
4
 10
1949.413
 20
-3249.550
 30
3235.839
 70
    32
  0
VERTEX
  8
T20SSILL
 62
4
 10
1952.363
 20
-3246.166
 30
3235.828
 70
    32
  0
VERTEX
  8
T20SSILL
 62
4
 10
1964.831
 20
-3229.806
 30
3235.772
 70
    32
  0
VERTEX
  8
T20SSILL
 62
4
 10
1965.854
 20
-3227.151
 30
3235.763
 70
    32
  0
VERTEX
  8
T20SSILL
 62
4
 10
1964.158
 20
-3218.545
 30
3235.734
 70
    32
  0
VERTEX
  8
T20SSILL
 62
4
 10
1959.453
 20
-3208.656
 30
3235.700
 70
    32
  0
VERTEX
  8
T20SSILL
 62
4
 10
1953.532
 20
-3200.104
 30
3235.670
 70
    32
  0
VERTEX
  8
T20SSILL
 62
4
 10
1945.538
 20
-3180.925
 30
3235.605
 70
    32
  0
VERTEX
  8
T20SSILL
 62
4
 10
1953.300
 20
-3175.191
 30
3235.585
 70
    32
  0
VERTEX
  8
T20SSILL
 62
4
 10
1951.254
 20
-3173.544
 30
3235.580
 70
    32
  0
VERTEX
  8
T20SSILL
 62
4
 10
1938.513
 20
-3182.424
 30
3235.609
 70
    32
  0
VERTEX
  8
T20SSILL
 62
4
 10
1941.674
 20
-3188.547
 30
3235.630
 70
    32
  0
VERTEX
  8
T20SSILL
 62
4
 10
1939.698
 20
-3192.358
 30
3235.643
 70
    32
  0
VERTEX
  8
T20SSILL
 62
4
 10
1936.523
 20
-3191.959
 30
3235.642
 70
    32
  0
VERTEX
  8
T20SSILL
 62
4
 10
1935.698
 20
-3189.416
 30
3235.633
 70
    32
  0
VERTEX
  8
T20SSILL
 62
4
 10
1931.620
 20
-3187.267
 30
3235.625
 70
    32
  0
VERTEX
  8
T20SSILL
 62
4
 10
1910.679
 20
-3201.976
 30
3235.675
 70
    32
  0
VERTEX
  8
T20SSILL
 62
4
 10
1910.083
 20
-3203.568
 30
3235.680
 70
    32
  0
VERTEX
  8
T20SSILL
 62
4
 10
1911.529
 20
-3206.455
 30
3235.690
 70
    32
  0
VERTEX
  8
T20SSILL
 62
4
 10
1918.508
 20
-3215.170
 30
3235.720
 70
    32
  0
SEQEND
  8
T20SSILL
  0
POLYLINE
  8
T20SSILL
 62
4
 66
     1
 70
     9
  0
VERTEX
  8
T20SSILL
 62
4
 10
1950.524
 20
-3164.868
 30
3235.550
 70
    32
  0
VERTEX
  8
T20SSILL
 62
4
 10
1950.557
 20
-3160.435
 30
3235.535
 70
    32
  0
VERTEX
  8
T20SSILL
 62
4
 10
1945.276
 20
-3153.723
 30
3235.512
 70
    32
  0
VERTEX
  8
T20SSILL
 62
4
 10
1949.203
 20
-3151.032
 30
3235.503
 70
    32
  0
VERTEX
  8
T20SSILL
 62
4
 10
1943.642
 20
-3136.224
 30
3235.452
 70
    32
  0
VERTEX
  8
T20SSILL
 62
4
 10
1930.742
 20
-3118.957
 30
3235.392
 70
    32
  0
VERTEX
  8
T20SSILL
 62
4
 10
1930.710
 20
-3116.492
 30
3235.384
 70
    32
  0
VERTEX
  8
T20SSILL
 62
4
 10
1941.137
 20
-3105.705
 30
3235.347
 70
    32
  0
VERTEX
  8
T20SSILL
 62
4
 10
1942.054
 20
-3101.731
 30
3235.334
 70
    32
  0
VERTEX
  8
T20SSILL
 62
4
 10
1919.885
 20
-3068.823
 30
3235.220
 70
    32
  0
VERTEX
  8
T20SSILL
 62
4
 10
1895.028
 20
-3087.192
 30
3235.282
 70
    32
  0
VERTEX
  8
T20SSILL
 62
4
 10
1893.568
 20
-3090.028
 30
3235.291
 70
    32
  0
VERTEX
  8
T20SSILL
 62
4
 10
1896.177
 20
-3108.044
 30
3235.353
 70
    32
  0
VERTEX
  8
T20SSILL
 62
4
 10
1894.903
 20
-3132.272
 30
3235.436
 70
    32
  0
VERTEX
  8
T20SSILL
 62
4
 10
1905.196
 20
-3158.993
 30
3235.528
 70
    32
  0
VERTEX
  8
T20SSILL
 62
4
 10
1915.804
 20
-3176.025
 30
3235.586
 70
    32
  0
VERTEX
  8
T20SSILL
 62
4
 10
1909.099
 20
-3181.834
 30
3235.606
 70
    32
  0
VERTEX
  8
T20SSILL
 62
4
 10
1905.416
 20
-3189.805
 30
3235.633
 70
    32
  0
VERTEX
  8
T20SSILL
 62
4
 10
1904.945
 20
-3194.302
 30
3235.648
 70
    32
  0
VERTEX
  8
T20SSILL
 62
4
 10
1906.300
 20
-3196.926
 30
3235.657
 70
    32
  0
VERTEX
  8
T20SSILL
 62
4
 10
1929.239
 20
-3180.078
 30
3235.601
 70
    32
  0
VERTEX
  8
T20SSILL
 62
4
 10
1923.680
 20
-3172.314
 30
3235.574
 70
    32
  0
VERTEX
  8
T20SSILL
 62
4
 10
1929.527
 20
-3169.490
 30
3235.565
 70
    32
  0
VERTEX
  8
T20SSILL
 62
4
 10
1933.563
 20
-3174.036
 30
3235.580
 70
    32
  0
VERTEX
  8
T20SSILL
 62
4
 10
1937.883
 20
-3174.509
 30
3235.582
 70
    32
  0
VERTEX
  8
T20SSILL
 62
4
 10
1950.084
 20
-3165.175
 30
3235.551
 70
    32
  0
SEQEND
  8
T20SSILL
  0
POLYLINE
  8
T20SSILL
 62
4
 66
     1
 70
     9
  0
VERTEX
  8
T20SSILL
 62
4
 10
1850.554
 20
-3182.146
 30
3235.604
 70
    32
  0
VERTEX
  8
T20SSILL
 62
4
 10
1854.656
 20
-3193.011
 30
3235.641
 70
    32
  0
VERTEX
  8
T20SSILL
 62
4
 10
1861.398
 20
-3203.842
 30
3235.678
 70
    32
  0
VERTEX
  8
T20SSILL
 62
4
 10
1870.780
 20
-3214.551
 30
3235.716
 70
    32
  0
VERTEX
  8
T20SSILL
 62
4
 10
1876.642
 20
-3218.525
 30
3235.729
 70
    32
  0
VERTEX
  8
T20SSILL
 62
4
 10
1893.819
 20
-3205.450
 30
3235.686
 70
    32
  0
VERTEX
  8
T20SSILL
 62
4
 10
1899.717
 20
-3184.860
 30
3235.616
 70
    32
  0
VERTEX
  8
T20SSILL
 62
4
 10
1899.268
 20
-3177.294
 30
3235.590
 70
    32
  0
VERTEX
  8
T20SSILL
 62
4
 10
1887.441
 20
-3161.334
 30
3235.535
 70
    32
  0
VERTEX
  8
T20SSILL
 62
4
 10
1876.281
 20
-3142.460
 30
3235.470
 70
    32
  0
VERTEX
  8
T20SSILL
 62
4
 10
1872.809
 20
-3125.777
 30
3235.412
 70
    32
  0
VERTEX
  8
T20SSILL
 62
4
 10
1878.641
 20
-3120.595
 30
3235.395
 70
    32
  0
VERTEX
  8
T20SSILL
 62
4
 10
1867.976
 20
-3105.941
 30
3235.344
 70
    32
  0
VERTEX
  8
T20SSILL
 62
4
 10
1835.787
 20
-3129.246
 30
3235.422
 70
    32
  0
VERTEX
  8
T20SSILL
 62
4
 10
1844.408
 20
-3156.076
 30
3235.514
 70
    32
  0
VERTEX
  8
T20SSILL
 62
4
 10
1847.813
 20
-3174.346
 30
3235.577
 70
    32
  0
SEQEND
  8
T20SSILL
  0
POLYLINE
  8
T20SSILL
 62
4
 66
     1
 70
     9
  0
VERTEX
  8
T20SSILL
 62
4
 10
1822.625
 20
-3016.279
 30
3235.036
 70
    32
  0
VERTEX
  8
T20SSILL
 62
4
 10
1808.650
 20
-3024.999
 30
3235.065
 70
    32
  0
VERTEX
  8
T20SSILL
 62
4
 10
1805.986
 20
-3030.052
 30
3235.082
 70
    32
  0
VERTEX
  8
T20SSILL
 62
4
 10
1815.184
 20
-3060.661
 30
3235.187
 70
    32
  0
VERTEX
  8
T20SSILL
 62
4
 10
1820.789
 20
-3058.387
 30
3235.180
 70
    32
  0
VERTEX
  8
T20SSILL
 62
4
 10
1822.688
 20
-3062.237
 30
3235.193
 70
    32
  0
VERTEX
  8
T20SSILL
 62
4
 10
1826.589
 20
-3084.902
 30
3235.270
 70
    32
  0
VERTEX
  8
T20SSILL
 62
4
 10
1831.902
 20
-3100.946
 30
3235.325
 70
    32
  0
VERTEX
  8
T20SSILL
 62
4
 10
1828.014
 20
-3106.719
 30
3235.345
 70
    32
  0
VERTEX
  8
T20SSILL
 62
4
 10
1833.049
 20
-3121.709
 30
3235.396
 70
    32
  0
VERTEX
  8
T20SSILL
 62
4
 10
1835.255
 20
-3122.121
 30
3235.398
 70
    32
  0
VERTEX
  8
T20SSILL
 62
4
 10
1864.215
 20
-3101.059
 30
3235.328
 70
    32
  0
VERTEX
  8
T20SSILL
 62
4
 10
1861.334
 20
-3096.077
 30
3235.310
 70
    32
  0
VERTEX
  8
T20SSILL
 62
4
 10
1875.121
 20
-3086.479
 30
3235.278
 70
    32
  0
VERTEX
  8
T20SSILL
 62
4
 10
1867.950
 20
-3076.535
 30
3235.244
 70
    32
  0
VERTEX
  8
T20SSILL
 62
4
 10
1870.298
 20
-3074.303
 30
3235.236
 70
    32
  0
VERTEX
  8
T20SSILL
 62
4
 10
1863.602
 20
-3067.082
 30
3235.211
 70
    32
  0
VERTEX
  8
T20SSILL
 62
4
 10
1858.283
 20
-3057.377
 30
3235.178
 70
    32
  0
VERTEX
  8
T20SSILL
 62
4
 10
1857.714
 20
-3054.215
 30
3235.167
 70
    32
  0
VERTEX
  8
T20SSILL
 62
4
 10
1861.478
 20
-3052.494
 30
3235.162
 70
    32
  0
VERTEX
  8
T20SSILL
 62
4
 10
1860.478
 20
-3050.041
 30
3235.153
 70
    32
  0
VERTEX
  8
T20SSILL
 62
4
 10
1840.162
 20
-3065.446
 30
3235.205
 70
    32
  0
VERTEX
  8
T20SSILL
 62
4
 10
1837.089
 20
-3072.969
 30
3235.230
 70
    32
  0
VERTEX
  8
T20SSILL
 62
4
 10
1829.481
 20
-3063.294
 30
3235.197
 70
    32
  0
VERTEX
  8
T20SSILL
 62
4
 10
1829.784
 20
-3059.504
 30
3235.184
 70
    32
  0
VERTEX
  8
T20SSILL
 62
4
 10
1815.760
 20
-3050.704
 30
3235.153
 70
    32
  0
VERTEX
  8
T20SSILL
 62
4
 10
1820.229
 20
-3042.195
 30
3235.124
 70
    32
  0
VERTEX
  8
T20SSILL
 62
4
 10
1833.478
 20
-3031.811
 30
3235.089
 70
    32
  0
VERTEX
  8
T20SSILL
 62
4
 10
1841.848
 20
-3039.099
 30
3235.115
 70
    32
  0
VERTEX
  8
T20SSILL
 62
4
 10
1848.552
 20
-3046.937
 30
3235.142
 70
    32
  0
VERTEX
  8
T20SSILL
 62
4
 10
1850.943
 20
-3048.051
 30
3235.146
 70
    32
  0
VERTEX
  8
T20SSILL
 62
4
 10
1859.490
 20
-3041.690
 30
3235.125
 70
    32
  0
VERTEX
  8
T20SSILL
 62
4
 10
1846.855
 20
-2997.126
 30
3234.969
 70
    32
  0
VERTEX
  8
T20SSILL
 62
4
 10
1832.911
 20
-3008.223
 30
3235.009
 70
    32
  0
VERTEX
  8
T20SSILL
 62
4
 10
1839.018
 20
-3017.565
 30
3235.041
 70
    32
  0
VERTEX
  8
T20SSILL
 62
4
 10
1834.045
 20
-3021.151
 30
3235.053
 70
    32
  0
VERTEX
  8
T20SSILL
 62
4
 10
1837.800
 20
-3025.593
 30
3235.068
 70
    32
  0
VERTEX
  8
T20SSILL
 62
4
 10
1832.213
 20
-3029.274
 30
3235.081
 70
    32
  0
VERTEX
  8
T20SSILL
 62
4
 10
1828.275
 20
-3024.306
 30
3235.064
 70
    32
  0
VERTEX
  8
T20SSILL
 62
4
 10
1824.008
 20
-3027.971
 30
3235.076
 70
    32
  0
VERTEX
  8
T20SSILL
 62
4
 10
1820.331
 20
-3022.736
 30
3235.058
 70
    32
  0
VERTEX
  8
T20SSILL
 62
4
 10
1824.338
 20
-3019.427
 30
3235.047
 70
    32
  0
SEQEND
  8
T20SSILL
  0
POLYLINE
  8
T20SSILL
 62
4
 66
     1
 70
     9
  0
VERTEX
  8
T20SSILL
 62
4
 10
1778.283
 20
-3046.168
 30
3235.136
 70
    32
  0
VERTEX
  8
T20SSILL
 62
4
 10
1722.799
 20
-3085.972
 30
3235.269
 70
    32
  0
VERTEX
  8
T20SSILL
 62
4
 10
1740.691
 20
-3114.885
 30
3235.368
 70
    32
  0
VERTEX
  8
T20SSILL
 62
4
 10
1744.480
 20
-3115.100
 30
3235.369
 70
    32
  0
VERTEX
  8
T20SSILL
 62
4
 10
1765.245
 20
-3107.173
 30
3235.343
 70
    32
  0
VERTEX
  8
T20SSILL
 62
4
 10
1780.333
 20
-3082.327
 30
3235.259
 70
    32
  0
VERTEX
  8
T20SSILL
 62
4
 10
1807.901
 20
-3062.603
 30
3235.193
 70
    32
  0
VERTEX
  8
T20SSILL
 62
4
 10
1798.549
 20
-3033.669
 30
3235.094
 70
    32
  0
VERTEX
  8
T20SSILL
 62
4
 10
1794.507
 20
-3034.337
 30
3235.096
 70
    32
  0
SEQEND
  8
T20SSILL
  0
POLYLINE
  8
T20SSILL
 62
4
 66
     1
 70
     9
  0
VERTEX
  8
T20SSILL
 62
4
 10
1819.458
 20
-3112.375
 30
3235.364
 70
    32
  0
VERTEX
  8
T20SSILL
 62
4
 10
1821.658
 20
-3112.259
 30
3235.364
 70
    32
  0
VERTEX
  8
T20SSILL
 62
4
 10
1826.062
 20
-3126.024
 30
3235.411
 70
    32
  0
VERTEX
  8
T20SSILL
 62
4
 10
1817.007
 20
-3113.463
 30
3235.367
 70
    32
  0
SEQEND
  8
T20SSILL
  0
POLYLINE
  8
T20SSILL
 62
4
 66
     1
 70
     9
  0
VERTEX
  8
T20SSILL
 62
4
 10
2115.678
 20
-3334.752
 30
3236.139
 70
    32
  0
VERTEX
  8
T20SSILL
 62
4
 10
2117.581
 20
-3345.821
 30
3236.177
 70
    32
  0
VERTEX
  8
T20SSILL
 62
4
 10
2126.114
 20
-3358.918
 30
3236.222
 70
    32
  0
VERTEX
  8
T20SSILL
 62
4
 10
2133.587
 20
-3366.279
 30
3236.241
 70
    32
  0
VERTEX
  8
T20SSILL
 62
4
 10
2138.303
 20
-3363.048
 30
3236.222
 70
    32
  0
VERTEX
  8
T20SSILL
 62
4
 10
2145.831
 20
-3373.065
 30
3236.227
 70
    32
  0
VERTEX
  8
T20SSILL
 62
4
 10
2150.957
 20
-3391.547
 30
3236.256
 70
    32
  0
VERTEX
  8
T20SSILL
 62
4
 10
2155.224
 20
-3397.021
 30
3236.258
 70
    32
  0
VERTEX
  8
T20SSILL
 62
4
 10
2162.132
 20
-3391.112
 30
3236.228
 70
    32
  0
VERTEX
  8
T20SSILL
 62
4
 10
2160.013
 20
-3377.447
 30
3236.202
 70
    32
  0
VERTEX
  8
T20SSILL
 62
4
 10
2152.108
 20
-3367.388
 30
3236.198
 70
    32
  0
VERTEX
  8
T20SSILL
 62
4
 10
2140.248
 20
-3348.875
 30
3236.185
 70
    32
  0
VERTEX
  8
T20SSILL
 62
4
 10
2135.012
 20
-3331.950
 30
3236.130
 70
    32
  0
VERTEX
  8
T20SSILL
 62
4
 10
2134.565
 20
-3324.560
 30
3236.105
 70
    32
  0
VERTEX
  8
T20SSILL
 62
4
 10
2128.845
 20
-3324.810
 30
3236.105
 70
    32
  0
VERTEX
  8
T20SSILL
 62
4
 10
2120.378
 20
-3330.465
 30
3236.124
 70
    32
  0
VERTEX
  8
T20SSILL
 62
4
 10
2116.263
 20
-3325.412
 30
3236.107
 70
    32
  0
VERTEX
  8
T20SSILL
 62
4
 10
2115.539
 20
-3330.792
 30
3236.125
 70
    32
  0
SEQEND
  8
T20SSILL
  0
TEXT
  8
T20SSILL
 62
4
 10
1419.611
 20
-953.681
 30
3250.541
 40
0.200
  1
2000
 41
 1.0 
  0
POLYLINE
  8
T20SSILL
 62
4
 66
     1
 70
     9
  0
VERTEX
  8
T20SSILL
 62
4
 10
143.570
 20
-2323.727
 30
3240.000
 70
    32
  0
VERTEX
  8
T20SSILL
 62
4
 10
149.545
 20
-2335.758
 30
3240.000
 70
    32
  0
VERTEX
  8
T20SSILL
 62
4
 10
158.566
 20
-2346.105
 30
3240.000
 70
    32
  0
VERTEX
  8
T20SSILL
 62
4
 10
173.957
 20
-2351.615
 30
3240.000
 70
    32
  0
VERTEX
  8
T20SSILL
 62
4
 10
183.698
 20
-2346.536
 30
3240.000
 70
    32
  0
VERTEX
  8
T20SSILL
 62
4
 10
195.523
 20
-2336.620
 30
3240.000
 70
    32
  0
VERTEX
  8
T20SSILL
 62
4
 10
191.520
 20
-2330.654
 30
3240.000
 70
    32
  0
VERTEX
  8
T20SSILL
 62
4
 10
184.282
 20
-2328.125
 30
3240.000
 70
    32
  0
VERTEX
  8
T20SSILL
 62
4
 10
177.607
 20
-2327.086
 30
3240.000
 70
    32
  0
VERTEX
  8
T20SSILL
 62
4
 10
177.616
 20
-2327.036
 30
3240.000
 70
    32
  0
VERTEX
  8
T20SSILL
 62
4
 10
151.599
 20
-2321.089
 30
3240.000
 70
    32
  0
VERTEX
  8
T20SSILL
 62
4
 10
145.945
 20
-2322.306
 30
3240.000
 70
    32
  0
SEQEND
  8
T20SSILL
  0
POLYLINE
  8
T20SSILL
 62
4
 66
     1
 70
     8
  0
VERTEX
  8
T20SSILL
 62
4
 10
2009.147
 20
-2609.443
 30
3233.719
 70
    32
  0
VERTEX
  8
T20SSILL
 62
4
 10
2011.766
 20
-2607.086
 30
3233.720
 70
    32
  0
VERTEX
  8
T20SSILL
 62
4
 10
2014.326
 20
-2600.802
 30
3233.713
 70
    32
  0
VERTEX
  8
T20SSILL
 62
4
 10
2015.615
 20
-2591.453
 30
3233.697
 70
    32
  0
VERTEX
  8
T20SSILL
 62
4
 10
2014.804
 20
-2569.452
 30
3233.652
 70
    32
  0
VERTEX
  8
T20SSILL
 62
4
 10
2011.046
 20
-2557.967
 30
3233.622
 70
    32
  0
VERTEX
  8
T20SSILL
 62
4
 10
1856.377
 20
-2398.273
 30
3233.588
 70
    32
  0
VERTEX
  8
T20SSILL
 62
4
 10
1851.513
 20
-2402.751
 30
3233.591
 70
    32
  0
VERTEX
  8
T20SSILL
 62
4
 10
1919.734
 20
-2475.072
 30
3233.505
 70
    32
  0
VERTEX
  8
T20SSILL
 62
4
 10
1897.942
 20
-2495.575
 30
3233.518
 70
    32
  0
VERTEX
  8
T20SSILL
 62
4
 10
1897.229
 20
-2495.057
 30
3233.519
 70
    32
  0
VERTEX
  8
T20SSILL
 62
4
 10
1890.973
 20
-2500.614
 30
3233.521
 70
    32
  0
VERTEX
  8
T20SSILL
 62
4
 10
1897.241
 20
-2507.300
 30
3233.507
 70
    32
  0
VERTEX
  8
T20SSILL
 62
4
 10
1925.178
 20
-2479.744
 30
3233.499
 70
    32
  0
VERTEX
  8
T20SSILL
 62
4
 10
1955.488
 20
-2509.817
 30
3233.439
 70
    32
  0
VERTEX
  8
T20SSILL
 62
4
 10
2004.145
 20
-2562.194
 30
3233.616
 70
    32
  0
VERTEX
  8
T20SSILL
 62
4
 10
2007.036
 20
-2567.879
 30
3233.633
 70
    32
  0
VERTEX
  8
T20SSILL
 62
4
 10
2008.775
 20
-2573.051
 30
3233.647
 70
    32
  0
VERTEX
  8
T20SSILL
 62
4
 10
2009.218
 20
-2580.089
 30
3233.662
 70
    32
  0
VERTEX
  8
T20SSILL
 62
4
 10
2004.778
 20
-2597.755
 30
3233.687
 70
    32
  0
VERTEX
  8
T20SSILL
 62
4
 10
2001.869
 20
-2604.308
 30
3233.694
 70
    32
  0
VERTEX
  8
T20SSILL
 62
4
 10
1998.305
 20
-2607.875
 30
3233.694
 70
    32
  0
VERTEX
  8
T20SSILL
 62
4
 10
1966.522
 20
-2628.446
 30
3233.669
 70
    32
  0
VERTEX
  8
T20SSILL
 62
4
 10
1668.636
 20
-2557.350
 30
3233.704
 70
    32
  0
VERTEX
  8
T20SSILL
 62
4
 10
1659.125
 20
-2557.120
 30
3233.712
 70
    32
  0
VERTEX
  8
T20SSILL
 62
4
 10
1646.852
 20
-2561.240
 30
3233.733
 70
    32
  0
VERTEX
  8
T20SSILL
 62
4
 10
1220.512
 20
-2866.949
 30
3234.947
 70
    32
  0
VERTEX
  8
T20SSILL
 62
4
 10
1197.210
 20
-2876.141
 30
3235.003
 70
    32
  0
VERTEX
  8
T20SSILL
 62
4
 10
1117.123
 20
-2860.692
 30
3235.052
 70
    32
  0
VERTEX
  8
T20SSILL
 62
4
 10
946.495
 20
-2824.286
 30
3235.148
 70
    32
  0
VERTEX
  8
T20SSILL
 62
4
 10
714.726
 20
-2504.327
 30
3235.329
 70
    32
  0
VERTEX
  8
T20SSILL
 62
4
 10
488.917
 20
-2187.019
 30
3234.882
 70
    32
  0
VERTEX
  8
T20SSILL
 62
4
 10
486.790
 20
-2177.109
 30
3234.856
 70
    32
  0
VERTEX
  8
T20SSILL
 62
4
 10
489.623
 20
-2164.876
 30
3234.810
 70
    32
  0
VERTEX
  8
T20SSILL
 62
4
 10
496.921
 20
-2156.799
 30
3234.787
 70
    32
  0
VERTEX
  8
T20SSILL
 62
4
 10
519.109
 20
-2140.871
 30
3234.781
 70
    32
  0
VERTEX
  8
T20SSILL
 62
4
 10
526.733
 20
-2144.569
 30
3234.773
 70
    32
  0
VERTEX
  8
T20SSILL
 62
4
 10
539.696
 20
-2146.758
 30
3234.762
 70
    32
  0
VERTEX
  8
T20SSILL
 62
4
 10
552.364
 20
-2151.676
 30
3234.750
 70
    32
  0
VERTEX
  8
T20SSILL
 62
4
 10
556.812
 20
-2151.038
 30
3234.748
 70
    32
  0
VERTEX
  8
T20SSILL
 62
4
 10
560.806
 20
-2146.801
 30
3234.748
 70
    32
  0
VERTEX
  8
T20SSILL
 62
4
 10
569.334
 20
-2131.161
 30
3234.752
 70
    32
  0
VERTEX
  8
T20SSILL
 62
4
 10
575.543
 20
-2133.820
 30
3234.746
 70
    32
  0
VERTEX
  8
T20SSILL
 62
4
 10
583.732
 20
-2134.265
 30
3234.740
 70
    32
  0
VERTEX
  8
T20SSILL
 62
4
 10
594.243
 20
-2141.308
 30
3234.728
 70
    32
  0
VERTEX
  8
T20SSILL
 62
4
 10
596.665
 20
-2139.097
 30
3234.727
 70
    32
  0
VERTEX
  8
T20SSILL
 62
4
 10
597.371
 20
-2137.378
 30
3234.728
 70
    32
  0
VERTEX
  8
T20SSILL
 62
4
 10
581.942
 20
-2122.579
 30
3234.748
 70
    32
  0
VERTEX
  8
T20SSILL
 62
4
 10
568.186
 20
-2104.697
 30
3234.770
 70
    32
  0
VERTEX
  8
T20SSILL
 62
4
 10
616.458
 20
-2070.516
 30
3234.758
 70
    32
  0
VERTEX
  8
T20SSILL
 62
4
 10
611.673
 20
-2064.311
 30
3234.765
 70
    32
  0
VERTEX
  8
T20SSILL
 62
4
 10
563.210
 20
-2098.950
 30
3234.777
 70
    32
  0
VERTEX
  8
T20SSILL
 62
4
 10
550.240
 20
-2083.332
 30
3234.796
 70
    32
  0
VERTEX
  8
T20SSILL
 62
4
 10
545.964
 20
-2081.223
 30
3234.800
 70
    32
  0
VERTEX
  8
T20SSILL
 62
4
 10
541.875
 20
-2084.437
 30
3234.801
 70
    32
  0
VERTEX
  8
T20SSILL
 62
4
 10
544.398
 20
-2087.285
 30
3234.797
 70
    32
  0
VERTEX
  8
T20SSILL
 62
4
 10
544.234
 20
-2092.429
 30
3234.794
 70
    32
  0
VERTEX
  8
T20SSILL
 62
4
 10
547.759
 20
-2101.860
 30
3234.786
 70
    32
  0
VERTEX
  8
T20SSILL
 62
4
 10
545.723
 20
-2110.560
 30
3234.781
 70
    32
  0
VERTEX
  8
T20SSILL
 62
4
 10
544.520
 20
-2111.005
 30
3234.782
 70
    32
  0
VERTEX
  8
T20SSILL
 62
4
 10
537.596
 20
-2109.306
 30
3234.788
 70
    32
  0
VERTEX
  8
T20SSILL
 62
4
 10
525.715
 20
-2101.737
 30
3234.801
 70
    32
  0
VERTEX
  8
T20SSILL
 62
4
 10
518.535
 20
-2100.881
 30
3234.807
 70
    32
  0
VERTEX
  8
T20SSILL
 62
4
 10
516.389
 20
-2102.126
 30
3234.808
 70
    32
  0
VERTEX
  8
T20SSILL
 62
4
 10
513.916
 20
-2104.265
 30
3234.808
 70
    32
  0
VERTEX
  8
T20SSILL
 62
4
 10
513.346
 20
-2107.960
 30
3234.806
 70
    32
  0
VERTEX
  8
T20SSILL
 62
4
 10
512.929
 20
-2129.453
 30
3234.792
 70
    32
  0
VERTEX
  8
T20SSILL
 62
4
 10
514.295
 20
-2134.896
 30
3234.788
 70
    32
  0
VERTEX
  8
T20SSILL
 62
4
 10
492.694
 20
-2150.285
 30
3234.793
 70
    32
  0
VERTEX
  8
T20SSILL
 62
4
 10
486.477
 20
-2156.259
 30
3234.801
 70
    32
  0
VERTEX
  8
T20SSILL
 62
4
 10
481.590
 20
-2164.645
 30
3234.830
 70
    32
  0
VERTEX
  8
T20SSILL
 62
4
 10
479.151
 20
-2174.733
 30
3234.868
 70
    32
  0
VERTEX
  8
T20SSILL
 62
4
 10
462.735
 20
-2152.028
 30
3234.836
 70
    32
  0
VERTEX
  8
T20SSILL
 62
4
 10
460.187
 20
-2141.991
 30
3234.821
 70
    32
  0
VERTEX
  8
T20SSILL
 62
4
 10
460.637
 20
-2131.722
 30
3234.828
 70
    32
  0
VERTEX
  8
T20SSILL
 62
4
 10
471.966
 20
-2113.047
 30
3234.832
 70
    32
  0
VERTEX
  8
T20SSILL
 62
4
 10
477.898
 20
-2097.888
 30
3234.837
 70
    32
  0
VERTEX
  8
T20SSILL
 62
4
 10
481.831
 20
-2061.367
 30
3234.858
 70
    32
  0
VERTEX
  8
T20SSILL
 62
4
 10
483.800
 20
-2053.917
 30
3234.861
 70
    32
  0
VERTEX
  8
T20SSILL
 62
4
 10
488.626
 20
-2046.341
 30
3234.863
 70
    32
  0
VERTEX
  8
T20SSILL
 62
4
 10
525.636
 20
-2018.900
 30
3234.855
 70
    32
  0
VERTEX
  8
T20SSILL
 62
4
 10
521.401
 20
-2013.334
 30
3234.861
 70
    32
  0
VERTEX
  8
T20SSILL
 62
4
 10
506.407
 20
-2024.249
 30
3234.865
 70
    32
  0
VERTEX
  8
T20SSILL
 62
4
 10
432.760
 20
-1854.509
 30
3235.026
 70
    32
  0
VERTEX
  8
T20SSILL
 62
4
 10
425.852
 20
-1857.939
 30
3235.028
 70
    32
  0
VERTEX
  8
T20SSILL
 62
4
 10
455.567
 20
-1926.830
 30
3234.963
 70
    32
  0
VERTEX
  8
T20SSILL
 62
4
 10
447.807
 20
-1930.549
 30
3234.966
 70
    32
  0
VERTEX
  8
T20SSILL
 62
4
 10
454.262
 20
-1944.278
 30
3234.953
 70
    32
  0
VERTEX
  8
T20SSILL
 62
4
 10
461.808
 20
-1940.715
 30
3234.950
 70
    32
  0
VERTEX
  8
T20SSILL
 62
4
 10
485.220
 20
-1994.883
 30
3234.898
 70
    32
  0
VERTEX
  8
T20SSILL
 62
4
 10
477.801
 20
-1998.024
 30
3234.902
 70
    32
  0
VERTEX
  8
T20SSILL
 62
4
 10
483.758
 20
-2012.118
 30
3234.888
 70
    32
  0
VERTEX
  8
T20SSILL
 62
4
 10
491.291
 20
-2008.237
 30
3234.886
 70
    32
  0
VERTEX
  8
T20SSILL
 62
4
 10
492.908
 20
-2013.278
 30
3234.881
 70
    32
  0
VERTEX
  8
T20SSILL
 62
4
 10
493.282
 20
-2023.926
 30
3234.874
 70
    32
  0
VERTEX
  8
T20SSILL
 62
4
 10
491.190
 20
-2031.356
 30
3234.871
 70
    32
  0
VERTEX
  8
T20SSILL
 62
4
 10
477.346
 20
-2051.219
 30
3234.868
 70
    32
  0
VERTEX
  8
T20SSILL
 62
4
 10
474.106
 20
-2062.003
 30
3234.863
 70
    32
  0
VERTEX
  8
T20SSILL
 62
4
 10
467.244
 20
-2048.463
 30
3234.877
 70
    32
  0
VERTEX
  8
T20SSILL
 62
4
 10
469.205
 20
-2038.617
 30
3234.882
 70
    32
  0
VERTEX
  8
T20SSILL
 62
4
 10
465.229
 20
-2031.700
 30
3234.889
 70
    32
  0
VERTEX
  8
T20SSILL
 62
4
 10
458.715
 20
-2024.895
 30
3234.898
 70
    32
  0
VERTEX
  8
T20SSILL
 62
4
 10
445.202
 20
-1993.183
 30
3234.928
 70
    32
  0
VERTEX
  8
T20SSILL
 62
4
 10
452.891
 20
-1978.485
 30
3234.932
 70
    32
  0
VERTEX
  8
T20SSILL
 62
4
 10
450.995
 20
-1971.573
 30
3234.938
 70
    32
  0
VERTEX
  8
T20SSILL
 62
4
 10
448.070
 20
-1966.835
 30
3234.943
 70
    32
  0
VERTEX
  8
T20SSILL
 62
4
 10
440.592
 20
-1965.870
 30
3234.949
 70
    32
  0
VERTEX
  8
T20SSILL
 62
4
 10
428.844
 20
-1959.078
 30
3234.961
 70
    32
  0
VERTEX
  8
T20SSILL
 62
4
 10
421.574
 20
-1936.335
 30
3234.981
 70
    32
  0
VERTEX
  8
T20SSILL
 62
4
 10
417.424
 20
-1927.689
 30
3234.989
 70
    32
  0
VERTEX
  8
T20SSILL
 62
4
 10
405.236
 20
-1909.860
 30
3235.009
 70
    32
  0
VERTEX
  8
T20SSILL
 62
4
 10
398.047
 20
-1908.246
 30
3235.015
 70
    32
  0
VERTEX
  8
T20SSILL
 62
4
 10
394.344
 20
-1905.280
 30
3235.020
 70
    32
  0
VERTEX
  8
T20SSILL
 62
4
 10
389.327
 20
-1898.580
 30
3235.028
 70
    32
  0
VERTEX
  8
T20SSILL
 62
4
 10
383.467
 20
-1888.346
 30
3235.039
 70
    32
  0
VERTEX
  8
T20SSILL
 62
4
 10
376.054
 20
-1868.985
 30
3235.056
 70
    32
  0
VERTEX
  8
T20SSILL
 62
4
 10
373.659
 20
-1865.716
 30
3235.060
 70
    32
  0
VERTEX
  8
T20SSILL
 62
4
 10
369.614
 20
-1864.966
 30
3235.063
 70
    32
  0
VERTEX
  8
T20SSILL
 62
4
 10
359.347
 20
-1840.815
 30
3235.081
 70
    32
  0
VERTEX
  8
T20SSILL
 62
4
 10
352.894
 20
-1834.839
 30
3235.083
 70
    32
  0
VERTEX
  8
T20SSILL
 62
4
 10
355.013
 20
-1790.473
 30
3235.122
 70
    32
  0
VERTEX
  8
T20SSILL
 62
4
 10
390.439
 20
-1764.737
 30
3235.113
 70
    32
  0
VERTEX
  8
T20SSILL
 62
4
 10
385.331
 20
-1758.213
 30
3235.121
 70
    32
  0
VERTEX
  8
T20SSILL
 62
4
 10
355.624
 20
-1779.978
 30
3235.128
 70
    32
  0
VERTEX
  8
T20SSILL
 62
4
 10
355.874
 20
-1770.183
 30
3235.134
 70
    32
  0
VERTEX
  8
T20SSILL
 62
4
 10
353.960
 20
-1761.756
 30
3235.141
 70
    32
  0
VERTEX
  8
T20SSILL
 62
4
 10
304.298
 20
-1658.341
 30
3235.509
 70
    32
  0
VERTEX
  8
T20SSILL
 62
4
 10
318.970
 20
-1651.087
 30
3235.538
 70
    32
  0
VERTEX
  8
T20SSILL
 62
4
 10
316.240
 20
-1644.677
 30
3235.558
 70
    32
  0
VERTEX
  8
T20SSILL
 62
4
 10
301.426
 20
-1652.035
 30
3235.529
 70
    32
  0
VERTEX
  8
T20SSILL
 62
4
 10
290.320
 20
-1628.826
 30
3235.601
 70
    32
  0
VERTEX
  8
T20SSILL
 62
4
 10
295.413
 20
-1625.641
 30
3235.613
 70
    32
  0
VERTEX
  8
T20SSILL
 62
4
 10
288.369
 20
-1606.337
 30
3235.674
 70
    32
  0
VERTEX
  8
T20SSILL
 62
4
 10
278.225
 20
-1593.236
 30
3235.714
 70
    32
  0
VERTEX
  8
T20SSILL
 62
4
 10
276.455
 20
-1589.181
 30
3235.727
 70
    32
  0
VERTEX
  8
T20SSILL
 62
4
 10
270.659
 20
-1585.891
 30
3235.735
 70
    32
  0
VERTEX
  8
T20SSILL
 62
4
 10
252.275
 20
-1548.573
 30
3235.852
 70
    32
  0
VERTEX
  8
T20SSILL
 62
4
 10
255.235
 20
-1539.197
 30
3235.883
 70
    32
  0
VERTEX
  8
T20SSILL
 62
4
 10
243.266
 20
-1528.525
 30
3235.914
 70
    32
  0
VERTEX
  8
T20SSILL
 62
4
 10
185.106
 20
-1406.653
 30
3236.396
 70
    32
  0
VERTEX
  8
T20SSILL
 62
4
 10
190.651
 20
-1399.314
 30
3236.352
 70
    32
  0
VERTEX
  8
T20SSILL
 62
4
 10
176.510
 20
-1382.696
 30
3236.348
 70
    32
  0
VERTEX
  8
T20SSILL
 62
4
 10
187.993
 20
-1375.206
 30
3236.283
 70
    32
  0
VERTEX
  8
T20SSILL
 62
4
 10
182.830
 20
-1366.380
 30
3236.272
 70
    32
  0
VERTEX
  8
T20SSILL
 62
4
 10
174.492
 20
-1372.488
 30
3236.321
 70
    32
  0
VERTEX
  8
T20SSILL
 62
4
 10
175.435
 20
-1362.296
 30
3236.285
 70
    32
  0
VERTEX
  8
T20SSILL
 62
4
 10
172.739
 20
-1354.442
 30
3236.268
 70
    32
  0
VERTEX
  8
T20SSILL
 62
4
 10
174.585
 20
-1346.973
 30
3236.237
 70
    32
  0
VERTEX
  8
T20SSILL
 62
4
 10
184.397
 20
-1329.955
 30
3236.147
 70
    32
  0
VERTEX
  8
T20SSILL
 62
4
 10
180.889
 20
-1325.316
 30
3236.144
 70
    32
  0
VERTEX
  8
T20SSILL
 62
4
 10
178.746
 20
-1320.006
 30
3236.134
 70
    32
  0
VERTEX
  8
T20SSILL
 62
4
 10
177.537
 20
-1311.498
 30
3236.111
 70
    32
  0
VERTEX
  8
T20SSILL
 62
4
 10
168.552
 20
-1301.917
 30
3236.111
 70
    32
  0
VERTEX
  8
T20SSILL
 62
4
 10
162.381
 20
-1300.650
 30
3236.129
 70
    32
  0
VERTEX
  8
T20SSILL
 62
4
 10
147.934
 20
-1301.950
 30
3236.184
 70
    32
  0
VERTEX
  8
T20SSILL
 62
4
 10
144.340
 20
-1300.324
 30
3236.191
 70
    32
  0
VERTEX
  8
T20SSILL
 62
4
 10
135.729
 20
-1299.752
 30
3236.220
 70
    32
  0
VERTEX
  8
T20SSILL
 62
4
 10
120.461
 20
-1284.726
 30
3236.224
 70
    32
  0
VERTEX
  8
T20SSILL
 62
4
 10
109.062
 20
-1279.752
 30
3236.248
 70
    32
  0
VERTEX
  8
T20SSILL
 62
4
 10
100.926
 20
-1277.740
 30
3236.270
 70
    32
  0
VERTEX
  8
T20SSILL
 62
4
 10
92.850
 20
-1278.196
 30
3236.300
 70
    32
  0
VERTEX
  8
T20SSILL
 62
4
 10
80.274
 20
-1280.857
 30
3236.303
 70
    32
  0
VERTEX
  8
T20SSILL
 62
4
 10
72.177
 20
-1284.713
 30
3236.274
 70
    32
  0
VERTEX
  8
T20SSILL
 62
4
 10
-14.296
 20
-1346.319
 30
3235.674
 70
    32
  0
VERTEX
  8
T20SSILL
 62
4
 10
-17.960
 20
-1341.467
 30
3235.675
 70
    32
  0
VERTEX
  8
T20SSILL
 62
4
 10
-20.816
 20
-1341.594
 30
3235.660
 70
    32
  0
VERTEX
  8
T20SSILL
 62
4
 10
-24.970
 20
-1342.781
 30
3235.635
 70
    32
  0
VERTEX
  8
T20SSILL
 62
4
 10
-33.110
 20
-1348.963
 30
3235.563
 70
    32
  0
VERTEX
  8
T20SSILL
 62
4
 10
-30.325
 20
-1358.281
 30
3235.533
 70
    32
  0
VERTEX
  8
T20SSILL
 62
4
 10
-62.889
 20
-1381.811
 30
3235.248
 70
    32
  0
VERTEX
  8
T20SSILL
 62
4
 10
-71.407
 20
-1394.932
 30
3235.140
 70
    32
  0
VERTEX
  8
T20SSILL
 62
4
 10
-73.467
 20
-1405.834
 30
3235.076
 70
    32
  0
VERTEX
  8
T20SSILL
 62
4
 10
-228.106
 20
-1191.261
 30
3235.218
 70
    32
  0
VERTEX
  8
T20SSILL
 62
4
 10
-229.303
 20
-1187.753
 30
3235.226
 70
    32
  0
VERTEX
  8
T20SSILL
 62
4
 10
-230.580
 20
-1170.322
 30
3235.288
 70
    32
  0
VERTEX
  8
T20SSILL
 62
4
 10
-228.196
 20
-1161.159
 30
3235.343
 70
    32
  0
VERTEX
  8
T20SSILL
 62
4
 10
-224.280
 20
-1155.363
 30
3235.394
 70
    32
  0
VERTEX
  8
T20SSILL
 62
4
 10
-208.447
 20
-1142.840
 30
3235.544
 70
    32
  0
VERTEX
  8
T20SSILL
 62
4
 10
-200.378
 20
-1147.585
 30
3235.565
 70
    32
  0
VERTEX
  8
T20SSILL
 62
4
 10
-194.161
 20
-1156.912
 30
3235.554
 70
    32
  0
VERTEX
  8
T20SSILL
 62
4
 10
-188.167
 20
-1152.861
 30
3235.607
 70
    32
  0
VERTEX
  8
T20SSILL
 62
4
 10
-199.014
 20
-1135.883
 30
3235.631
 70
    32
  0
VERTEX
  8
T20SSILL
 62
4
 10
-145.895
 20
-1097.712
 30
3235.914
 70
    32
  0
VERTEX
  8
T20SSILL
 62
4
 10
-150.164
 20
-1092.448
 30
3235.910
 70
    32
  0
VERTEX
  8
T20SSILL
 62
4
 10
-203.330
 20
-1130.858
 30
3235.631
 70
    32
  0
VERTEX
  8
T20SSILL
 62
4
 10
-207.116
 20
-1125.657
 30
3235.636
 70
    32
  0
VERTEX
  8
T20SSILL
 62
4
 10
-212.935
 20
-1130.236
 30
3235.581
 70
    32
  0
VERTEX
  8
T20SSILL
 62
4
 10
-209.395
 20
-1135.402
 30
3235.575
 70
    32
  0
VERTEX
  8
T20SSILL
 62
4
 10
-230.235
 20
-1150.795
 30
3235.383
 70
    32
  0
VERTEX
  8
T20SSILL
 62
4
 10
-236.091
 20
-1160.467
 30
3235.303
 70
    32
  0
VERTEX
  8
T20SSILL
 62
4
 10
-238.598
 20
-1168.732
 30
3235.254
 70
    32
  0
VERTEX
  8
T20SSILL
 62
4
 10
-242.371
 20
-1170.898
 30
3235.227
 70
    32
  0
VERTEX
  8
T20SSILL
 62
4
 10
-250.296
 20
-1159.878
 30
3235.231
 70
    32
  0
VERTEX
  8
T20SSILL
 62
4
 10
-244.160
 20
-1155.282
 30
3235.283
 70
    32
  0
VERTEX
  8
T20SSILL
 62
4
 10
-242.553
 20
-1148.902
 30
3235.324
 70
    32
  0
VERTEX
  8
T20SSILL
 62
4
 10
-247.361
 20
-1142.044
 30
3235.331
 70
    32
  0
VERTEX
  8
T20SSILL
 62
4
 10
-257.975
 20
-1149.775
 30
3235.234
 70
    32
  0
VERTEX
  8
T20SSILL
 62
4
 10
-299.291
 20
-1091.981
 30
3235.289
 70
    32
  0
VERTEX
  8
T20SSILL
 62
4
 10
-284.060
 20
-1080.877
 30
3235.429
 70
    32
  0
VERTEX
  8
T20SSILL
 62
4
 10
-289.025
 20
-1074.686
 30
3235.432
 70
    32
  0
VERTEX
  8
T20SSILL
 62
4
 10
-304.204
 20
-1085.423
 30
3235.294
 70
    32
  0
VERTEX
  8
T20SSILL
 62
4
 10
-340.554
 20
-1034.698
 30
3235.342
 70
    32
  0
VERTEX
  8
T20SSILL
 62
4
 10
-339.738
 20
-1025.058
 30
3235.394
 70
    32
  0
VERTEX
  8
T20SSILL
 62
4
 10
-351.907
 20
-1007.639
 30
3235.412
 70
    32
  0
VERTEX
  8
T20SSILL
 62
4
 10
-344.740
 20
-1000.832
 30
3235.476
 70
    32
  0
VERTEX
  8
T20SSILL
 62
4
 10
-349.042
 20
-995.010
 30
3235.472
 70
    32
  0
VERTEX
  8
T20SSILL
 62
4
 10
-350.737
 20
-994.651
 30
3235.468
 70
    32
  0
VERTEX
  8
T20SSILL
 62
4
 10
-358.935
 20
-998.700
 30
3235.417
 70
    32
  0
VERTEX
  8
T20SSILL
 62
4
 10
-368.727
 20
-985.776
 30
3235.427
 70
    32
  0
VERTEX
  8
T20SSILL
 62
4
 10
-381.148
 20
-977.134
 30
3235.400
 70
    32
  0
VERTEX
  8
T20SSILL
 62
4
 10
-730.712
 20
-487.312
 30
3235.724
 70
    32
  0
VERTEX
  8
T20SSILL
 62
4
 10
-726.019
 20
-477.850
 30
3235.724
 70
    32
  0
VERTEX
  8
T20SSILL
 62
4
 10
-729.006
 20
-473.345
 30
3235.723
 70
    32
  0
VERTEX
  8
T20SSILL
 62
4
 10
-733.695
 20
-469.840
 30
3235.723
 70
    32
  0
VERTEX
  8
T20SSILL
 62
4
 10
-738.828
 20
-469.278
 30
3235.722
 70
    32
  0
VERTEX
  8
T20SSILL
 62
4
 10
-742.318
 20
-471.673
 30
3235.722
 70
    32
  0
VERTEX
  8
T20SSILL
 62
4
 10
-800.136
 20
-390.677
 30
3235.745
 70
    32
  0
VERTEX
  8
T20SSILL
 62
4
 10
-808.140
 20
-395.131
 30
3235.742
 70
    32
  0
VERTEX
  8
T20SSILL
 62
4
 10
-688.876
 20
-561.673
 30
3235.719
 70
    32
  0
VERTEX
  8
T20SSILL
 62
4
 10
-687.360
 20
-560.757
 30
3235.718
 70
    32
  0
VERTEX
  8
T20SSILL
 62
4
 10
-677.956
 20
-573.752
 30
3235.698
 70
    32
  0
VERTEX
  8
T20SSILL
 62
4
 10
-679.562
 20
-578.809
 30
3235.698
 70
    32
  0
VERTEX
  8
T20SSILL
 62
4
 10
-679.214
 20
-586.916
 30
3235.693
 70
    32
  0
VERTEX
  8
T20SSILL
 62
4
 10
-663.961
 20
-604.778
 30
3235.663
 70
    32
  0
VERTEX
  8
T20SSILL
 62
4
 10
-653.249
 20
-612.168
 30
3235.645
 70
    32
  0
VERTEX
  8
T20SSILL
 62
4
 10
-649.972
 20
-613.016
 30
3235.640
 70
    32
  0
VERTEX
  8
T20SSILL
 62
4
 10
-388.870
 20
-982.258
 30
3235.379
 70
    32
  0
VERTEX
  8
T20SSILL
 62
4
 10
-391.727
 20
-987.262
 30
3235.376
 70
    32
  0
VERTEX
  8
T20SSILL
 62
4
 10
-380.332
 20
-1001.738
 30
3235.361
 70
    32
  0
VERTEX
  8
T20SSILL
 62
4
 10
-362.311
 20
-1016.974
 30
3235.343
 70
    32
  0
VERTEX
  8
T20SSILL
 62
4
 10
-264.040
 20
-1154.319
 30
3235.209
 70
    32
  0
VERTEX
  8
T20SSILL
 62
4
 10
-266.738
 20
-1156.450
 30
3235.209
 70
    32
  0
VERTEX
  8
T20SSILL
 62
4
 10
-259.147
 20
-1167.170
 30
3235.206
 70
    32
  0
VERTEX
  8
T20SSILL
 62
4
 10
-256.361
 20
-1164.422
 30
3235.206
 70
    32
  0
VERTEX
  8
T20SSILL
 62
4
 10
-13.177
 20
-1501.244
 30
3234.963
 70
    32
  0
VERTEX
  8
T20SSILL
 62
4
 10
-14.718
 20
-1503.465
 30
3234.965
 70
    32
  0
VERTEX
  8
T20SSILL
 62
4
 10
-4.129
 20
-1517.769
 30
3234.966
 70
    32
  0
VERTEX
  8
T20SSILL
 62
4
 10
-2.688
 20
-1516.605
 30
3234.964
 70
    32
  0
VERTEX
  8
T20SSILL
 62
4
 10
202.678
 20
-1802.582
 30
3234.970
 70
    32
  0
VERTEX
  8
T20SSILL
 62
4
 10
202.520
 20
-1805.646
 30
3234.971
 70
    32
  0
VERTEX
  8
T20SSILL
 62
4
 10
201.132
 20
-1806.882
 30
3234.973
 70
    32
  0
VERTEX
  8
T20SSILL
 62
4
 10
193.283
 20
-1807.499
 30
3234.979
 70
    32
  0
VERTEX
  8
T20SSILL
 62
4
 10
186.650
 20
-1811.806
 30
3234.985
 70
    32
  0
VERTEX
  8
T20SSILL
 62
4
 10
187.584
 20
-1819.749
 30
3234.988
 70
    32
  0
VERTEX
  8
T20SSILL
 62
4
 10
192.892
 20
-1823.512
 30
3234.986
 70
    32
  0
VERTEX
  8
T20SSILL
 62
4
 10
197.284
 20
-1821.606
 30
3234.982
 70
    32
  0
VERTEX
  8
T20SSILL
 62
4
 10
214.767
 20
-1819.828
 30
3234.969
 70
    32
  0
VERTEX
  8
T20SSILL
 62
4
 10
228.267
 20
-1838.553
 30
3234.967
 70
    32
  0
VERTEX
  8
T20SSILL
 62
4
 10
225.987
 20
-1853.329
 30
3234.975
 70
    32
  0
VERTEX
  8
T20SSILL
 62
4
 10
228.752
 20
-1866.048
 30
3234.979
 70
    32
  0
VERTEX
  8
T20SSILL
 62
4
 10
237.547
 20
-1867.468
 30
3234.973
 70
    32
  0
VERTEX
  8
T20SSILL
 62
4
 10
246.679
 20
-1876.505
 30
3234.970
 70
    32
  0
VERTEX
  8
T20SSILL
 62
4
 10
255.186
 20
-1875.296
 30
3234.964
 70
    32
  0
VERTEX
  8
T20SSILL
 62
4
 10
262.551
 20
-1886.392
 30
3234.981
 70
    32
  0
VERTEX
  8
T20SSILL
 62
4
 10
261.302
 20
-1894.079
 30
3235.002
 70
    32
  0
VERTEX
  8
T20SSILL
 62
4
 10
254.488
 20
-1899.835
 30
3235.018
 70
    32
  0
VERTEX
  8
T20SSILL
 62
4
 10
256.076
 20
-1907.519
 30
3235.040
 70
    32
  0
VERTEX
  8
T20SSILL
 62
4
 10
259.897
 20
-1910.945
 30
3235.050
 70
    32
  0
VERTEX
  8
T20SSILL
 62
4
 10
270.732
 20
-1926.926
 30
3235.097
 70
    32
  0
VERTEX
  8
T20SSILL
 62
4
 10
279.240
 20
-1941.867
 30
3235.140
 70
    32
  0
VERTEX
  8
T20SSILL
 62
4
 10
284.184
 20
-1945.139
 30
3235.119
 70
    32
  0
VERTEX
  8
T20SSILL
 62
4
 10
295.972
 20
-1959.439
 30
3235.101
 70
    32
  0
VERTEX
  8
T20SSILL
 62
4
 10
307.050
 20
-1959.951
 30
3235.021
 70
    32
  0
VERTEX
  8
T20SSILL
 62
4
 10
318.037
 20
-1963.915
 30
3234.958
 70
    32
  0
VERTEX
  8
T20SSILL
 62
4
 10
583.801
 20
-2335.612
 30
3235.119
 70
    32
  0
VERTEX
  8
T20SSILL
 62
4
 10
573.301
 20
-2333.802
 30
3235.139
 70
    32
  0
VERTEX
  8
T20SSILL
 62
4
 10
562.207
 20
-2336.251
 30
3235.174
 70
    32
  0
VERTEX
  8
T20SSILL
 62
4
 10
530.150
 20
-2358.536
 30
3235.324
 70
    32
  0
VERTEX
  8
T20SSILL
 62
4
 10
519.373
 20
-2342.185
 30
3235.299
 70
    32
  0
VERTEX
  8
T20SSILL
 62
4
 10
516.454
 20
-2335.368
 30
3235.285
 70
    32
  0
VERTEX
  8
T20SSILL
 62
4
 10
512.723
 20
-2320.735
 30
3235.248
 70
    32
  0
VERTEX
  8
T20SSILL
 62
4
 10
506.234
 20
-2311.728
 30
3235.235
 70
    32
  0
VERTEX
  8
T20SSILL
 62
4
 10
499.865
 20
-2307.657
 30
3235.238
 70
    32
  0
VERTEX
  8
T20SSILL
 62
4
 10
498.937
 20
-2305.497
 30
3235.233
 70
    32
  0
VERTEX
  8
T20SSILL
 62
4
 10
490.676
 20
-2308.382
 30
3235.263
 70
    32
  0
VERTEX
  8
T20SSILL
 62
4
 10
491.093
 20
-2318.343
 30
3235.294
 70
    32
  0
VERTEX
  8
T20SSILL
 62
4
 10
487.226
 20
-2322.159
 30
3235.315
 70
    32
  0
VERTEX
  8
T20SSILL
 62
4
 10
483.495
 20
-2329.589
 30
3235.348
 70
    32
  0
VERTEX
  8
T20SSILL
 62
4
 10
478.923
 20
-2331.846
 30
3235.386
 70
    32
  0
VERTEX
  8
T20SSILL
 62
4
 10
463.111
 20
-2335.457
 30
3235.530
 70
    32
  0
VERTEX
  8
T20SSILL
 62
4
 10
460.814
 20
-2345.441
 30
3235.590
 70
    32
  0
VERTEX
  8
T20SSILL
 62
4
 10
468.097
 20
-2349.716
 30
3235.548
 70
    32
  0
VERTEX
  8
T20SSILL
 62
4
 10
482.516
 20
-2347.781
 30
3235.423
 70
    32
  0
VERTEX
  8
T20SSILL
 62
4
 10
486.745
 20
-2349.379
 30
3235.403
 70
    32
  0
VERTEX
  8
T20SSILL
 62
4
 10
494.057
 20
-2362.043
 30
3235.425
 70
    32
  0
VERTEX
  8
T20SSILL
 62
4
 10
496.686
 20
-2361.755
 30
3235.417
 70
    32
  0
VERTEX
  8
T20SSILL
 62
4
 10
502.638
 20
-2365.258
 30
3235.414
 70
    32
  0
VERTEX
  8
T20SSILL
 62
4
 10
505.810
 20
-2379.426
 30
3235.451
 70
    32
  0
VERTEX
  8
T20SSILL
 62
4
 10
507.807
 20
-2382.004
 30
3235.454
 70
    32
  0
VERTEX
  8
T20SSILL
 62
4
 10
516.378
 20
-2387.739
 30
3235.451
 70
    32
  0
VERTEX
  8
T20SSILL
 62
4
 10
519.724
 20
-2392.605
 30
3235.458
 70
    32
  0
VERTEX
  8
T20SSILL
 62
4
 10
530.114
 20
-2416.775
 30
3235.509
 70
    32
  0
VERTEX
  8
T20SSILL
 62
4
 10
538.470
 20
-2414.913
 30
3235.483
 70
    32
  0
VERTEX
  8
T20SSILL
 62
4
 10
541.195
 20
-2412.370
 30
3235.468
 70
    32
  0
VERTEX
  8
T20SSILL
 62
4
 10
535.957
 20
-2400.153
 30
3235.442
 70
    32
  0
VERTEX
  8
T20SSILL
 62
4
 10
535.880
 20
-2392.892
 30
3235.419
 70
    32
  0
VERTEX
  8
T20SSILL
 62
4
 10
538.240
 20
-2389.852
 30
3235.404
 70
    32
  0
VERTEX
  8
T20SSILL
 62
4
 10
531.991
 20
-2371.931
 30
3235.362
 70
    32
  0
VERTEX
  8
T20SSILL
 62
4
 10
532.094
 20
-2365.958
 30
3235.343
 70
    32
  0
VERTEX
  8
T20SSILL
 62
4
 10
561.711
 20
-2344.369
 30
3235.201
 70
    32
  0
VERTEX
  8
T20SSILL
 62
4
 10
567.500
 20
-2341.984
 30
3235.179
 70
    32
  0
VERTEX
  8
T20SSILL
 62
4
 10
576.741
 20
-2341.330
 30
3235.154
 70
    32
  0
VERTEX
  8
T20SSILL
 62
4
 10
580.236
 20
-2342.374
 30
3235.149
 70
    32
  0
VERTEX
  8
T20SSILL
 62
4
 10
586.658
 20
-2344.878
 30
3235.141
 70
    32
  0
VERTEX
  8
T20SSILL
 62
4
 10
593.964
 20
-2350.228
 30
3235.140
 70
    32
  0
VERTEX
  8
T20SSILL
 62
4
 10
756.795
 20
-2577.700
 30
3235.458
 70
    32
  0
VERTEX
  8
T20SSILL
 62
4
 10
935.118
 20
-2821.634
 30
3235.154
 70
    32
  0
VERTEX
  8
T20SSILL
 62
4
 10
662.354
 20
-2761.972
 30
3235.314
 70
    32
  0
VERTEX
  8
T20SSILL
 62
4
 10
648.786
 20
-2755.829
 30
3235.300
 70
    32
  0
VERTEX
  8
T20SSILL
 62
4
 10
635.852
 20
-2745.276
 30
3235.308
 70
    32
  0
VERTEX
  8
T20SSILL
 62
4
 10
494.589
 20
-2549.804
 30
3236.160
 70
    32
  0
VERTEX
  8
T20SSILL
 62
4
 10
145.349
 20
-2057.742
 30
3235.448
 70
    32
  0
VERTEX
  8
T20SSILL
 62
4
 10
138.897
 20
-2062.509
 30
3235.460
 70
    32
  0
VERTEX
  8
T20SSILL
 62
4
 10
299.991
 20
-2289.752
 30
3236.010
 70
    32
  0
VERTEX
  8
T20SSILL
 62
4
 10
300.065
 20
-2289.733
 30
3240.000
 70
    32
  0
VERTEX
  8
T20SSILL
 62
4
 10
299.897
 20
-2289.839
 30
3236.009
 70
    32
  0
VERTEX
  8
T20SSILL
 62
4
 10
297.165
 20
-2293.581
 30
3236.150
 70
    32
  0
VERTEX
  8
T20SSILL
 62
4
 10
292.857
 20
-2293.522
 30
3236.288
 70
    32
  0
VERTEX
  8
T20SSILL
 62
4
 10
283.955
 20
-2293.252
 30
3236.569
 70
    32
  0
VERTEX
  8
T20SSILL
 62
4
 10
270.541
 20
-2289.885
 30
3236.954
 70
    32
  0
VERTEX
  8
T20SSILL
 62
4
 10
260.256
 20
-2290.458
 30
3237.291
 70
    32
  0
VERTEX
  8
T20SSILL
 62
4
 10
256.115
 20
-2293.579
 30
3237.465
 70
    32
  0
VERTEX
  8
T20SSILL
 62
4
 10
245.502
 20
-2301.139
 30
3237.904
 70
    32
  0
VERTEX
  8
T20SSILL
 62
4
 10
240.462
 20
-2304.894
 30
3238.112
 70
    32
  0
VERTEX
  8
T20SSILL
 62
4
 10
219.407
 20
-2320.688
 30
3238.996
 70
    32
  0
VERTEX
  8
T20SSILL
 62
4
 10
212.108
 20
-2321.545
 30
3239.241
 70
    32
  0
VERTEX
  8
T20SSILL
 62
4
 10
203.060
 20
-2320.284
 30
3239.514
 70
    32
  0
VERTEX
  8
T20SSILL
 62
4
 10
194.170
 20
-2318.941
 30
3239.781
 70
    32
  0
VERTEX
  8
T20SSILL
 62
4
 10
187.228
 20
-2316.826
 30
3239.976
 70
    32
  0
VERTEX
  8
T20SSILL
 62
4
 10
181.002
 20
-2311.452
 30
3240.000
 70
    32
  0
VERTEX
  8
T20SSILL
 62
4
 10
166.048
 20
-2293.245
 30
3240.000
 70
    32
  0
VERTEX
  8
T20SSILL
 62
4
 10
165.459
 20
-2289.618
 30
3240.000
 70
    32
  0
VERTEX
  8
T20SSILL
 62
4
 10
165.481
 20
-2289.508
 30
3240.000
 70
    32
  0
VERTEX
  8
T20SSILL
 62
4
 10
164.615
 20
-2288.013
 30
3240.000
 70
    32
  0
VERTEX
  8
T20SSILL
 62
4
 10
157.792
 20
-2278.503
 30
3240.000
 70
    32
  0
VERTEX
  8
T20SSILL
 62
4
 10
148.322
 20
-2269.120
 30
3240.000
 70
    32
  0
VERTEX
  8
T20SSILL
 62
4
 10
147.759
 20
-2268.153
 30
3240.000
 70
    32
  0
VERTEX
  8
T20SSILL
 62
4
 10
142.514
 20
-2258.077
 30
3240.000
 70
    32
  0
VERTEX
  8
T20SSILL
 62
4
 10
129.976
 20
-2241.289
 30
3240.000
 70
    32
  0
VERTEX
  8
T20SSILL
 62
4
 10
118.975
 20
-2225.022
 30
3240.000
 70
    32
  0
VERTEX
  8
T20SSILL
 62
4
 10
113.307
 20
-2216.918
 30
3240.000
 70
    32
  0
VERTEX
  8
T20SSILL
 62
4
 10
100.796
 20
-2199.245
 30
3240.000
 70
    32
  0
VERTEX
  8
T20SSILL
 62
4
 10
90.186
 20
-2185.887
 30
3240.000
 70
    32
  0
VERTEX
  8
T20SSILL
 62
4
 10
88.907
 20
-2182.635
 30
3240.000
 70
    32
  0
VERTEX
  8
T20SSILL
 62
4
 10
83.785
 20
-2175.422
 30
3240.000
 70
    32
  0
VERTEX
  8
T20SSILL
 62
4
 10
73.706
 20
-2159.713
 30
3240.000
 70
    32
  0
VERTEX
  8
T20SSILL
 62
4
 10
66.570
 20
-2163.632
 30
3240.000
 70
    32
  0
VERTEX
  8
T20SSILL
 62
4
 10
61.638
 20
-2168.899
 30
3240.000
 70
    32
  0
VERTEX
  8
T20SSILL
 62
4
 10
68.258
 20
-2180.476
 30
3240.000
 70
    32
  0
VERTEX
  8
T20SSILL
 62
4
 10
77.361
 20
-2193.924
 30
3240.000
 70
    32
  0
VERTEX
  8
T20SSILL
 62
4
 10
87.425
 20
-2207.082
 30
3240.000
 70
    32
  0
VERTEX
  8
T20SSILL
 62
4
 10
90.249
 20
-2211.059
 30
3240.000
 70
    32
  0
VERTEX
  8
T20SSILL
 62
4
 10
102.324
 20
-2227.338
 30
3240.000
 70
    32
  0
VERTEX
  8
T20SSILL
 62
4
 10
111.737
 20
-2244.025
 30
3240.000
 70
    32
  0
VERTEX
  8
T20SSILL
 62
4
 10
118.611
 20
-2254.690
 30
3240.000
 70
    32
  0
VERTEX
  8
T20SSILL
 62
4
 10
137.796
 20
-2279.099
 30
3240.000
 70
    32
  0
VERTEX
  8
T20SSILL
 62
4
 10
152.781
 20
-2300.236
 30
3240.000
 70
    32
  0
VERTEX
  8
T20SSILL
 62
4
 10
157.442
 20
-2307.458
 30
3240.000
 70
    32
  0
VERTEX
  8
T20SSILL
 62
4
 10
156.048
 20
-2309.320
 30
3240.000
 70
    32
  0
VERTEX
  8
T20SSILL
 62
4
 10
144.325
 20
-2309.010
 30
3240.000
 70
    32
  0
VERTEX
  8
T20SSILL
 62
4
 10
137.815
 20
-2307.759
 30
3240.000
 70
    32
  0
VERTEX
  8
T20SSILL
 62
4
 10
133.732
 20
-2305.399
 30
3240.000
 70
    32
  0
VERTEX
  8
T20SSILL
 62
4
 10
125.568
 20
-2299.483
 30
3240.000
 70
    32
  0
VERTEX
  8
T20SSILL
 62
4
 10
122.208
 20
-2293.021
 30
3240.000
 70
    32
  0
VERTEX
  8
T20SSILL
 62
4
 10
118.893
 20
-2273.875
 30
3240.000
 70
    32
  0
VERTEX
  8
T20SSILL
 62
4
 10
111.838
 20
-2266.955
 30
3240.000
 70
    32
  0
VERTEX
  8
T20SSILL
 62
4
 10
101.148
 20
-2249.869
 30
3240.000
 70
    32
  0
VERTEX
  8
T20SSILL
 62
4
 10
88.952
 20
-2233.803
 30
3240.000
 70
    32
  0
VERTEX
  8
T20SSILL
 62
4
 10
77.828
 20
-2219.101
 30
3240.000
 70
    32
  0
VERTEX
  8
T20SSILL
 62
4
 10
70.577
 20
-2211.666
 30
3240.000
 70
    32
  0
VERTEX
  8
T20SSILL
 62
4
 10
70.128
 20
-2211.129
 30
3240.000
 70
    32
  0
VERTEX
  8
T20SSILL
 62
4
 10
61.497
 20
-2196.538
 30
3240.000
 70
    32
  0
VERTEX
  8
T20SSILL
 62
4
 10
49.644
 20
-2180.141
 30
3240.000
 70
    32
  0
VERTEX
  8
T20SSILL
 62
4
 10
42.068
 20
-2179.221
 30
3240.000
 70
    32
  0
VERTEX
  8
T20SSILL
 62
4
 10
34.856
 20
-2183.862
 30
3240.000
 70
    32
  0
VERTEX
  8
T20SSILL
 62
4
 10
23.888
 20
-2200.637
 30
3240.000
 70
    32
  0
VERTEX
  8
T20SSILL
 62
4
 10
35.072
 20
-2214.689
 30
3240.000
 70
    32
  0
VERTEX
  8
T20SSILL
 62
4
 10
45.090
 20
-2225.824
 30
3240.000
 70
    32
  0
VERTEX
  8
T20SSILL
 62
4
 10
52.050
 20
-2236.169
 30
3240.000
 70
    32
  0
VERTEX
  8
T20SSILL
 62
4
 10
65.434
 20
-2234.011
 30
3240.000
 70
    32
  0
VERTEX
  8
T20SSILL
 62
4
 10
70.516
 20
-2235.668
 30
3240.000
 70
    32
  0
VERTEX
  8
T20SSILL
 62
4
 10
78.952
 20
-2246.618
 30
3240.000
 70
    32
  0
VERTEX
  8
T20SSILL
 62
4
 10
80.208
 20
-2253.258
 30
3240.000
 70
    32
  0
VERTEX
  8
T20SSILL
 62
4
 10
84.256
 20
-2255.249
 30
3240.000
 70
    32
  0
VERTEX
  8
T20SSILL
 62
4
 10
95.666
 20
-2271.868
 30
3240.000
 70
    32
  0
VERTEX
  8
T20SSILL
 62
4
 10
101.810
 20
-2282.210
 30
3240.000
 70
    32
  0
VERTEX
  8
T20SSILL
 62
4
 10
103.275
 20
-2284.918
 30
3240.000
 70
    32
  0
VERTEX
  8
T20SSILL
 62
4
 10
106.460
 20
-2296.034
 30
3240.000
 70
    32
  0
VERTEX
  8
T20SSILL
 62
4
 10
102.048
 20
-2300.424
 30
3240.000
 70
    32
  0
VERTEX
  8
T20SSILL
 62
4
 10
91.093
 20
-2298.925
 30
3240.000
 70
    32
  0
VERTEX
  8
T20SSILL
 62
4
 10
72.879
 20
-2284.246
 30
3240.000
 70
    32
  0
VERTEX
  8
T20SSILL
 62
4
 10
63.427
 20
-2270.619
 30
3240.000
 70
    32
  0
VERTEX
  8
T20SSILL
 62
4
 10
53.638
 20
-2252.571
 30
3240.000
 70
    32
  0
VERTEX
  8
T20SSILL
 62
4
 10
41.706
 20
-2259.253
 30
3240.000
 70
    32
  0
VERTEX
  8
T20SSILL
 62
4
 10
40.400
 20
-2261.286
 30
3240.000
 70
    32
  0
VERTEX
  8
T20SSILL
 62
4
 10
38.099
 20
-2263.590
 30
3240.000
 70
    32
  0
VERTEX
  8
T20SSILL
 62
4
 10
31.947
 20
-2275.685
 30
3240.000
 70
    32
  0
VERTEX
  8
T20SSILL
 62
4
 10
34.919
 20
-2280.398
 30
3240.000
 70
    32
  0
VERTEX
  8
T20SSILL
 62
4
 10
34.717
 20
-2283.187
 30
3240.000
 70
    32
  0
VERTEX
  8
T20SSILL
 62
4
 10
40.964
 20
-2290.097
 30
3240.000
 70
    32
  0
VERTEX
  8
T20SSILL
 62
4
 10
45.502
 20
-2299.001
 30
3240.000
 70
    32
  0
VERTEX
  8
T20SSILL
 62
4
 10
49.237
 20
-2309.294
 30
3240.000
 70
    32
  0
VERTEX
  8
T20SSILL
 62
4
 10
53.990
 20
-2309.010
 30
3240.000
 70
    32
  0
VERTEX
  8
T20SSILL
 62
4
 10
55.064
 20
-2309.045
 30
3240.000
 70
    32
  0
VERTEX
  8
T20SSILL
 62
4
 10
64.345
 20
-2313.892
 30
3240.000
 70
    32
  0
VERTEX
  8
T20SSILL
 62
4
 10
67.198
 20
-2315.618
 30
3240.000
 70
    32
  0
VERTEX
  8
T20SSILL
 62
4
 10
76.317
 20
-2311.218
 30
3240.000
 70
    32
  0
VERTEX
  8
T20SSILL
 62
4
 10
99.877
 20
-2311.946
 30
3240.000
 70
    32
  0
VERTEX
  8
T20SSILL
 62
4
 10
111.860
 20
-2313.475
 30
3240.000
 70
    32
  0
VERTEX
  8
T20SSILL
 62
4
 10
116.911
 20
-2314.730
 30
3240.000
 70
    32
  0
VERTEX
  8
T20SSILL
 62
4
 10
123.103
 20
-2323.033
 30
3240.000
 70
    32
  0
VERTEX
  8
T20SSILL
 62
4
 10
125.030
 20
-2329.473
 30
3240.000
 70
    32
  0
VERTEX
  8
T20SSILL
 62
4
 10
134.862
 20
-2341.402
 30
3240.000
 70
    32
  0
VERTEX
  8
T20SSILL
 62
4
 10
136.343
 20
-2347.987
 30
3240.000
 70
    32
  0
VERTEX
  8
T20SSILL
 62
4
 10
136.635
 20
-2348.516
 30
3240.000
 70
    32
  0
VERTEX
  8
T20SSILL
 62
4
 10
153.235
 20
-2355.817
 30
3240.000
 70
    32
  0
VERTEX
  8
T20SSILL
 62
4
 10
158.405
 20
-2362.275
 30
3240.000
 70
    32
  0
VERTEX
  8
T20SSILL
 62
4
 10
147.819
 20
-2369.448
 30
3240.000
 70
    32
  0
VERTEX
  8
T20SSILL
 62
4
 10
146.428
 20
-2370.304
 30
3240.000
 70
    32
  0
VERTEX
  8
T20SSILL
 62
4
 10
150.573
 20
-2379.914
 30
3240.000
 70
    32
  0
VERTEX
  8
T20SSILL
 62
4
 10
160.150
 20
-2389.263
 30
3240.000
 70
    32
  0
VERTEX
  8
T20SSILL
 62
4
 10
169.662
 20
-2384.520
 30
3240.000
 70
    32
  0
VERTEX
  8
T20SSILL
 62
4
 10
179.435
 20
-2379.232
 30
3240.000
 70
    32
  0
VERTEX
  8
T20SSILL
 62
4
 10
176.979
 20
-2369.021
 30
3240.000
 70
    32
  0
VERTEX
  8
T20SSILL
 62
4
 10
175.955
 20
-2365.125
 30
3240.000
 70
    32
  0
VERTEX
  8
T20SSILL
 62
4
 10
184.599
 20
-2357.981
 30
3240.000
 70
    32
  0
VERTEX
  8
T20SSILL
 62
4
 10
199.292
 20
-2348.015
 30
3240.000
 70
    32
  0
VERTEX
  8
T20SSILL
 62
4
 10
207.084
 20
-2342.730
 30
3239.681
 70
    32
  0
VERTEX
  8
T20SSILL
 62
4
 10
223.410
 20
-2330.458
 30
3238.997
 70
    32
  0
VERTEX
  8
T20SSILL
 62
4
 10
246.715
 20
-2311.519
 30
3237.999
 70
    32
  0
VERTEX
  8
T20SSILL
 62
4
 10
250.150
 20
-2308.757
 30
3237.855
 70
    32
  0
VERTEX
  8
T20SSILL
 62
4
 10
261.508
 20
-2303.109
 30
3237.417
 70
    32
  0
VERTEX
  8
T20SSILL
 62
4
 10
269.849
 20
-2301.163
 30
3237.125
 70
    32
  0
VERTEX
  8
T20SSILL
 62
4
 10
279.678
 20
-2302.128
 30
3236.823
 70
    32
  0
VERTEX
  8
T20SSILL
 62
4
 10
288.732
 20
-2305.203
 30
3236.573
 70
    32
  0
VERTEX
  8
T20SSILL
 62
4
 10
299.189
 20
-2307.650
 30
3236.271
 70
    32
  0
VERTEX
  8
T20SSILL
 62
4
 10
307.580
 20
-2310.549
 30
3236.040
 70
    32
  0
VERTEX
  8
T20SSILL
 62
4
 10
315.515
 20
-2316.564
 30
3240.000
 70
    32
  0
VERTEX
  8
T20SSILL
 62
4
 10
321.834
 20
-2320.424
 30
3240.000
 70
    32
  0
VERTEX
  8
T20SSILL
 62
4
 10
321.806
 20
-2320.240
 30
3236.084
 70
    32
  0
VERTEX
  8
T20SSILL
 62
4
 10
424.293
 20
-2464.877
 30
3236.434
 70
    32
  0
VERTEX
  8
T20SSILL
 62
4
 10
422.025
 20
-2473.255
 30
3236.371
 70
    32
  0
VERTEX
  8
T20SSILL
 62
4
 10
437.156
 20
-2495.331
 30
3236.281
 70
    32
  0
VERTEX
  8
T20SSILL
 62
4
 10
447.120
 20
-2497.329
 30
3236.303
 70
    32
  0
VERTEX
  8
T20SSILL
 62
4
 10
494.897
 20
-2565.224
 30
3236.112
 70
    32
  0
VERTEX
  8
T20SSILL
 62
4
 10
564.604
 20
-2659.915
 30
3235.613
 70
    32
  0
VERTEX
  8
T20SSILL
 62
4
 10
565.103
 20
-2667.773
 30
3235.542
 70
    32
  0
VERTEX
  8
T20SSILL
 62
4
 10
572.306
 20
-2676.539
 30
3235.471
 70
    32
  0
VERTEX
  8
T20SSILL
 62
4
 10
577.823
 20
-2687.769
 30
3235.390
 70
    32
  0
VERTEX
  8
T20SSILL
 62
4
 10
589.713
 20
-2694.258
 30
3235.396
 70
    32
  0
VERTEX
  8
T20SSILL
 62
4
 10
627.986
 20
-2748.158
 30
3235.272
 70
    32
  0
VERTEX
  8
T20SSILL
 62
4
 10
628.320
 20
-2753.102
 30
3235.251
 70
    32
  0
VERTEX
  8
T20SSILL
 62
4
 10
626.462
 20
-2754.330
 30
3235.240
 70
    32
  0
VERTEX
  8
T20SSILL
 62
4
 10
492.523
 20
-2723.585
 30
3234.974
 70
    32
  0
VERTEX
  8
T20SSILL
 62
4
 10
-260.136
 20
-2561.713
 30
3235.920
 70
    32
  0
VERTEX
  8
T20SSILL
 62
4
 10
-282.721
 20
-2552.524
 30
3235.934
 70
    32
  0
VERTEX
  8
T20SSILL
 62
4
 10
-301.706
 20
-2538.919
 30
3235.924
 70
    32
  0
VERTEX
  8
T20SSILL
 62
4
 10
-314.078
 20
-2526.265
 30
3235.902
 70
    32
  0
VERTEX
  8
T20SSILL
 62
4
 10
-724.938
 20
-1952.902
 30
3235.652
 70
    32
  0
VERTEX
  8
T20SSILL
 62
4
 10
-728.351
 20
-1943.219
 30
3235.646
 70
    32
  0
VERTEX
  8
T20SSILL
 62
4
 10
-728.726
 20
-1936.253
 30
3235.641
 70
    32
  0
VERTEX
  8
T20SSILL
 62
4
 10
-727.071
 20
-1929.544
 30
3235.637
 70
    32
  0
VERTEX
  8
T20SSILL
 62
4
 10
-723.474
 20
-1923.800
 30
3235.632
 70
    32
  0
VERTEX
  8
T20SSILL
 62
4
 10
-717.387
 20
-1924.134
 30
3235.632
 70
    32
  0
VERTEX
  8
T20SSILL
 62
4
 10
-713.046
 20
-1930.205
 30
3235.636
 70
    32
  0
VERTEX
  8
T20SSILL
 62
4
 10
-705.742
 20
-1925.067
 30
3235.632
 70
    32
  0
VERTEX
  8
T20SSILL
 62
4
 10
-710.348
 20
-1918.731
 30
3235.628
 70
    32
  0
VERTEX
  8
T20SSILL
 62
4
 10
-707.992
 20
-1910.874
 30
3235.622
 70
    32
  0
VERTEX
  8
T20SSILL
 62
4
 10
-520.902
 20
-1778.158
 30
3235.515
 70
    32
  0
VERTEX
  8
T20SSILL
 62
4
 10
-523.030
 20
-1770.299
 30
3235.510
 70
    32
  0
VERTEX
  8
T20SSILL
 62
4
 10
-545.749
 20
-1785.910
 30
3235.522
 70
    32
  0
VERTEX
  8
T20SSILL
 62
4
 10
-549.382
 20
-1780.806
 30
3235.519
 70
    32
  0
VERTEX
  8
T20SSILL
 62
4
 10
-559.328
 20
-1787.100
 30
3235.524
 70
    32
  0
VERTEX
  8
T20SSILL
 62
4
 10
-559.828
 20
-1796.274
 30
3235.531
 70
    32
  0
VERTEX
  8
T20SSILL
 62
4
 10
-619.674
 20
-1837.035
 30
3235.564
 70
    32
  0
VERTEX
  8
T20SSILL
 62
4
 10
-620.912
 20
-1836.157
 30
3235.563
 70
    32
  0
VERTEX
  8
T20SSILL
 62
4
 10
-626.523
 20
-1818.976
 30
3235.552
 70
    32
  0
VERTEX
  8
T20SSILL
 62
4
 10
-644.725
 20
-1697.408
 30
3235.471
 70
    32
  0
VERTEX
  8
T20SSILL
 62
4
 10
-645.518
 20
-1697.587
 30
3235.471
 70
    32
  0
VERTEX
  8
T20SSILL
 62
4
 10
-644.215
 20
-1635.755
 30
3235.429
 70
    32
  0
VERTEX
  8
T20SSILL
 62
4
 10
-633.115
 20
-1631.663
 30
3235.425
 70
    32
  0
VERTEX
  8
T20SSILL
 62
4
 10
-632.093
 20
-1620.370
 30
3235.418
 70
    32
  0
VERTEX
  8
T20SSILL
 62
4
 10
-638.356
 20
-1619.861
 30
3235.418
 70
    32
  0
VERTEX
  8
T20SSILL
 62
4
 10
-642.598
 20
-1617.405
 30
3235.417
 70
    32
  0
VERTEX
  8
T20SSILL
 62
4
 10
-643.488
 20
-1614.673
 30
3235.415
 70
    32
  0
VERTEX
  8
T20SSILL
 62
4
 10
-643.476
 20
-1592.682
 30
3235.400
 70
    32
  0
VERTEX
  8
T20SSILL
 62
4
 10
-649.940
 20
-1592.682
 30
3235.400
 70
    32
  0
VERTEX
  8
T20SSILL
 62
4
 10
-650.620
 20
-1618.665
 30
3235.418
 70
    32
  0
VERTEX
  8
T20SSILL
 62
4
 10
-655.732
 20
-1619.828
 30
3235.419
 70
    32
  0
VERTEX
  8
T20SSILL
 62
4
 10
-657.305
 20
-1624.419
 30
3235.423
 70
    32
  0
VERTEX
  8
T20SSILL
 62
4
 10
-656.938
 20
-1628.651
 30
3235.426
 70
    32
  0
VERTEX
  8
T20SSILL
 62
4
 10
-651.554
 20
-1629.869
 30
3235.426
 70
    32
  0
VERTEX
  8
T20SSILL
 62
4
 10
-650.484
 20
-1633.835
 30
3235.428
 70
    32
  0
VERTEX
  8
T20SSILL
 62
4
 10
-652.122
 20
-1701.047
 30
3235.474
 70
    32
  0
VERTEX
  8
T20SSILL
 62
4
 10
-635.178
 20
-1815.388
 30
3235.551
 70
    32
  0
VERTEX
  8
T20SSILL
 62
4
 10
-634.526
 20
-1826.322
 30
3235.558
 70
    32
  0
VERTEX
  8
T20SSILL
 62
4
 10
-636.085
 20
-1835.235
 30
3235.564
 70
    32
  0
VERTEX
  8
T20SSILL
 62
4
 10
-639.756
 20
-1845.655
 30
3235.572
 70
    32
  0
VERTEX
  8
T20SSILL
 62
4
 10
-650.560
 20
-1859.889
 30
3235.582
 70
    32
  0
VERTEX
  8
T20SSILL
 62
4
 10
-657.244
 20
-1865.819
 30
3235.587
 70
    32
  0
VERTEX
  8
T20SSILL
 62
4
 10
-714.444
 20
-1906.484
 30
3235.620
 70
    32
  0
VERTEX
  8
T20SSILL
 62
4
 10
-719.568
 20
-1903.678
 30
3235.618
 70
    32
  0
VERTEX
  8
T20SSILL
 62
4
 10
-727.579
 20
-1908.731
 30
3235.622
 70
    32
  0
VERTEX
  8
T20SSILL
 62
4
 10
-726.943
 20
-1914.550
 30
3235.626
 70
    32
  0
VERTEX
  8
T20SSILL
 62
4
 10
-732.552
 20
-1925.857
 30
3235.635
 70
    32
  0
VERTEX
  8
T20SSILL
 62
4
 10
-735.413
 20
-1938.284
 30
3235.643
 70
    32
  0
VERTEX
  8
T20SSILL
 62
4
 10
-973.727
 20
-1607.960
 30
3235.440
 70
    32
  0
VERTEX
  8
T20SSILL
 62
4
 10
-974.546
 20
-1599.937
 30
3235.435
 70
    32
  0
VERTEX
  8
T20SSILL
 62
4
 10
-973.066
 20
-1593.758
 30
3235.430
 70
    32
  0
VERTEX
  8
T20SSILL
 62
4
 10
-957.510
 20
-1576.334
 30
3235.418
 70
    32
  0
VERTEX
  8
T20SSILL
 62
4
 10
-966.443
 20
-1568.512
 30
3235.418
 70
    32
  0
VERTEX
  8
T20SSILL
 62
4
 10
-971.974
 20
-1576.644
 30
3235.422
 70
    32
  0
VERTEX
  8
T20SSILL
 62
4
 10
-978.925
 20
-1581.782
 30
3235.424
 70
    32
  0
VERTEX
  8
T20SSILL
 62
4
 10
-996.023
 20
-1558.022
 30
3235.424
 70
    32
  0
VERTEX
  8
T20SSILL
 62
4
 10
-1001.128
 20
-1561.566
 30
3235.426
 70
    32
  0
VERTEX
  8
T20SSILL
 62
4
 10
-1007.035
 20
-1562.026
 30
3235.427
 70
    32
  0
VERTEX
  8
T20SSILL
 62
4
 10
-1039.192
 20
-1517.676
 30
3235.426
 70
    32
  0
VERTEX
  8
T20SSILL
 62
4
 10
-1035.057
 20
-1514.664
 30
3235.424
 70
    32
  0
VERTEX
  8
T20SSILL
 62
4
 10
-1014.044
 20
-1521.301
 30
3235.420
 70
    32
  0
VERTEX
  8
T20SSILL
 62
4
 10
-1017.831
 20
-1523.253
 30
3235.422
 70
    32
  0
VERTEX
  8
T20SSILL
 62
4
 10
-1014.101
 20
-1531.091
 30
3235.423
 70
    32
  0
VERTEX
  8
T20SSILL
 62
4
 10
-1007.143
 20
-1528.158
 30
3235.420
 70
    32
  0
VERTEX
  8
T20SSILL
 62
4
 10
-1003.082
 20
-1529.468
 30
3235.419
 70
    32
  0
VERTEX
  8
T20SSILL
 62
4
 10
-998.479
 20
-1534.657
 30
3235.419
 70
    32
  0
VERTEX
  8
T20SSILL
 62
4
 10
-994.948
 20
-1535.440
 30
3235.419
 70
    32
  0
VERTEX
  8
T20SSILL
 62
4
 10
-988.176
 20
-1529.333
 30
3235.416
 70
    32
  0
VERTEX
  8
T20SSILL
 62
4
 10
-982.438
 20
-1530.990
 30
3235.415
 70
    32
  0
VERTEX
  8
T20SSILL
 62
4
 10
-979.204
 20
-1521.807
 30
3235.412
 70
    32
  0
VERTEX
  8
T20SSILL
 62
4
 10
-990.415
 20
-1518.668
 30
3235.414
 70
    32
  0
VERTEX
  8
T20SSILL
 62
4
 10
-989.536
 20
-1517.695
 30
3235.414
 70
    32
  0
VERTEX
  8
T20SSILL
 62
4
 10
-990.424
 20
-1515.757
 30
3235.413
 70
    32
  0
VERTEX
  8
T20SSILL
 62
4
 10
-975.890
 20
-1509.978
 30
3235.409
 70
    32
  0
VERTEX
  8
T20SSILL
 62
4
 10
-963.217
 20
-1501.294
 30
3235.404
 70
    32
  0
VERTEX
  8
T20SSILL
 62
4
 10
-907.618
 20
-1487.816
 30
3235.387
 70
    32
  0
VERTEX
  8
T20SSILL
 62
4
 10
-909.868
 20
-1479.157
 30
3235.386
 70
    32
  0
VERTEX
  8
T20SSILL
 62
4
 10
-968.095
 20
-1492.843
 30
3235.403
 70
    32
  0
VERTEX
  8
T20SSILL
 62
4
 10
-975.597
 20
-1491.279
 30
3235.405
 70
    32
  0
VERTEX
  8
T20SSILL
 62
4
 10
-984.587
 20
-1492.983
 30
3235.407
 70
    32
  0
VERTEX
  8
T20SSILL
 62
4
 10
-990.837
 20
-1496.796
 30
3235.410
 70
    32
  0
VERTEX
  8
T20SSILL
 62
4
 10
-991.802
 20
-1498.563
 30
3235.410
 70
    32
  0
VERTEX
  8
T20SSILL
 62
4
 10
-1006.168
 20
-1501.960
 30
3235.414
 70
    32
  0
VERTEX
  8
T20SSILL
 62
4
 10
-1010.655
 20
-1505.414
 30
3235.416
 70
    32
  0
VERTEX
  8
T20SSILL
 62
4
 10
-1014.003
 20
-1506.395
 30
3235.417
 70
    32
  0
VERTEX
  8
T20SSILL
 62
4
 10
-1024.669
 20
-1508.369
 30
3235.420
 70
    32
  0
VERTEX
  8
T20SSILL
 62
4
 10
-1036.233
 20
-1505.142
 30
3235.423
 70
    32
  0
VERTEX
  8
T20SSILL
 62
4
 10
-1006.648
 20
-1406.266
 30
3235.395
 70
    32
  0
VERTEX
  8
T20SSILL
 62
4
 10
-1006.867
 20
-1392.684
 30
3235.392
 70
    32
  0
VERTEX
  8
T20SSILL
 62
4
 10
-992.456
 20
-1375.880
 30
3235.385
 70
    32
  0
VERTEX
  8
T20SSILL
 62
4
 10
-992.815
 20
-1373.853
 30
3235.384
 70
    32
  0
VERTEX
  8
T20SSILL
 62
4
 10
-1000.339
 20
-1365.321
 30
3235.384
 70
    32
  0
VERTEX
  8
T20SSILL
 62
4
 10
-1005.003
 20
-1368.688
 30
3235.386
 70
    32
  0
VERTEX
  8
T20SSILL
 62
4
 10
-1006.768
 20
-1368.605
 30
3235.387
 70
    32
  0
VERTEX
  8
T20SSILL
 62
4
 10
-1006.802
 20
-1357.845
 30
3235.384
 70
    32
  0
VERTEX
  8
T20SSILL
 62
4
 10
-1015.798
 20
-1357.785
 30
3235.387
 70
    32
  0
VERTEX
  8
T20SSILL
 62
4
 10
-1015.822
 20
-1405.854
 30
3235.397
 70
    32
  0
VERTEX
  8
T20SSILL
 62
4
 10
-1025.166
 20
-1435.342
 30
3235.405
 70
    32
  0
VERTEX
  8
T20SSILL
 62
4
 10
-1040.379
 20
-1421.719
 30
3235.406
 70
    32
  0
VERTEX
  8
T20SSILL
 62
4
 10
-1051.027
 20
-1429.250
 30
3235.410
 70
    32
  0
VERTEX
  8
T20SSILL
 62
4
 10
-1059.075
 20
-1422.484
 30
3235.411
 70
    32
  0
VERTEX
  8
T20SSILL
 62
4
 10
-1072.283
 20
-1401.623
 30
3235.410
 70
    32
  0
VERTEX
  8
T20SSILL
 62
4
 10
-1076.965
 20
-1399.080
 30
3235.411
 70
    32
  0
VERTEX
  8
T20SSILL
 62
4
 10
-1078.386
 20
-1396.174
 30
3235.410
 70
    32
  0
VERTEX
  8
T20SSILL
 62
4
 10
-1098.555
 20
-1349.669
 30
3235.406
 70
    32
  0
VERTEX
  8
T20SSILL
 62
4
 10
-1101.244
 20
-1336.095
 30
3235.403
 70
    32
  0
VERTEX
  8
T20SSILL
 62
4
 10
-1118.439
 20
-1309.249
 30
3235.402
 70
    32
  0
VERTEX
  8
T20SSILL
 62
4
 10
-1125.595
 20
-1305.655
 30
3235.403
 70
    32
  0
VERTEX
  8
T20SSILL
 62
4
 10
-1130.747
 20
-1294.030
 30
3235.402
 70
    32
  0
VERTEX
  8
T20SSILL
 62
4
 10
-1132.712
 20
-1286.539
 30
3235.403
 70
    32
  0
VERTEX
  8
T20SSILL
 62
4
 10
-1139.095
 20
-1276.063
 30
3235.410
 70
    32
  0
VERTEX
  8
T20SSILL
 62
4
 10
-1139.378
 20
-1270.420
 30
3235.414
 70
    32
  0
VERTEX
  8
T20SSILL
 62
4
 10
-1148.925
 20
-1235.876
 30
3235.476
 70
    32
  0
VERTEX
  8
T20SSILL
 62
4
 10
-1154.154
 20
-1227.778
 30
3235.501
 70
    32
  0
VERTEX
  8
T20SSILL
 62
4
 10
-1181.333
 20
-1223.366
 30
3235.544
 70
    32
  0
VERTEX
  8
T20SSILL
 62
4
 10
-1239.935
 20
-1100.603
 30
3235.900
 70
    32
  0
VERTEX
  8
T20SSILL
 62
4
 10
-1251.908
 20
-1107.344
 30
3235.907
 70
    32
  0
VERTEX
  8
T20SSILL
 62
4
 10
-1161.975
 20
-1292.453
 30
3235.409
 70
    32
  0
VERTEX
  8
T20SSILL
 62
4
 10
-1170.949
 20
-1299.449
 30
3235.413
 70
    32
  0
VERTEX
  8
T20SSILL
 62
4
 10
-1174.637
 20
-1304.488
 30
3235.415
 70
    32
  0
VERTEX
  8
T20SSILL
 62
4
 10
-1177.703
 20
-1311.113
 30
3235.417
 70
    32
  0
VERTEX
  8
T20SSILL
 62
4
 10
-1179.787
 20
-1321.439
 30
3235.420
 70
    32
  0
VERTEX
  8
T20SSILL
 62
4
 10
-1293.321
 20
-1161.209
 30
3235.859
 70
    32
  0
VERTEX
  8
T20SSILL
 62
4
 10
-1295.063
 20
-1154.756
 30
3235.859
 70
    32
  0
VERTEX
  8
T20SSILL
 62
4
 10
-1294.902
 20
-1150.169
 30
3235.864
 70
    32
  0
VERTEX
  8
T20SSILL
 62
4
 10
-1291.934
 20
-1140.458
 30
3235.882
 70
    32
  0
VERTEX
  8
T20SSILL
 62
4
 10
-1286.312
 20
-1133.031
 30
3235.907
 70
    32
  0
VERTEX
  8
T20SSILL
 62
4
 10
-1266.161
 20
-1118.414
 30
3235.909
 70
    32
  0
VERTEX
  8
T20SSILL
 62
4
 10
-1257.655
 20
-1103.129
 30
3235.927
 70
    32
  0
VERTEX
  8
T20SSILL
 62
4
 10
-1292.939
 20
-1129.436
 30
3235.888
 70
    32
  0
VERTEX
  8
T20SSILL
 62
4
 10
-1298.382
 20
-1137.303
 30
3235.863
 70
    32
  0
VERTEX
  8
T20SSILL
 62
4
 10
-1302.055
 20
-1149.008
 30
3235.841
 70
    32
  0
VERTEX
  8
T20SSILL
 62
4
 10
-1362.150
 20
-1065.058
 30
3235.718
 70
    32
  0
VERTEX
  8
T20SSILL
 62
4
 10
-1366.873
 20
-1056.314
 30
3235.710
 70
    32
  0
VERTEX
  8
T20SSILL
 62
4
 10
-1366.998
 20
-1048.486
 30
3235.717
 70
    32
  0
VERTEX
  8
T20SSILL
 62
4
 10
-1365.483
 20
-1043.377
 30
3235.726
 70
    32
  0
VERTEX
  8
T20SSILL
 62
4
 10
-1362.206
 20
-1037.103
 30
3235.742
 70
    32
  0
VERTEX
  8
T20SSILL
 62
4
 10
-1355.251
 20
-1030.666
 30
3235.770
 70
    32
  0
VERTEX
  8
T20SSILL
 62
4
 10
-1216.662
 20
-931.374
 30
3236.220
 70
    32
  0
VERTEX
  8
T20SSILL
 62
4
 10
-1201.278
 20
-929.694
 30
3236.204
 70
    32
  0
VERTEX
  8
T20SSILL
 62
4
 10
-1195.449
 20
-930.254
 30
3236.201
 70
    32
  0
VERTEX
  8
T20SSILL
 62
4
 10
-1189.231
 20
-932.703
 30
3236.200
 70
    32
  0
VERTEX
  8
T20SSILL
 62
4
 10
-1183.796
 20
-937.671
 30
3236.183
 70
    32
  0
VERTEX
  8
T20SSILL
 62
4
 10
-1097.808
 20
-1056.801
 30
3235.812
 70
    32
  0
VERTEX
  8
T20SSILL
 62
4
 10
-1091.861
 20
-1052.721
 30
3235.814
 70
    32
  0
VERTEX
  8
T20SSILL
 62
4
 10
-1097.186
 20
-1045.503
 30
3235.836
 70
    32
  0
VERTEX
  8
T20SSILL
 62
4
 10
-1089.889
 20
-1039.688
 30
3235.840
 70
    32
  0
VERTEX
  8
T20SSILL
 62
4
 10
-1105.871
 20
-1018.476
 30
3235.907
 70
    32
  0
VERTEX
  8
T20SSILL
 62
4
 10
-1112.906
 20
-1023.452
 30
3235.905
 70
    32
  0
VERTEX
  8
T20SSILL
 62
4
 10
-1176.408
 20
-935.586
 30
3236.179
 70
    32
  0
VERTEX
  8
T20SSILL
 62
4
 10
-1185.170
 20
-927.815
 30
3236.191
 70
    32
  0
VERTEX
  8
T20SSILL
 62
4
 10
-1193.859
 20
-923.898
 30
3236.194
 70
    32
  0
VERTEX
  8
T20SSILL
 62
4
 10
-1204.041
 20
-921.818
 30
3236.209
 70
    32
  0
VERTEX
  8
T20SSILL
 62
4
 10
-1170.155
 20
-898.305
 30
3236.177
 70
    32
  0
VERTEX
  8
T20SSILL
 62
4
 10
-1149.202
 20
-901.929
 30
3236.147
 70
    32
  0
VERTEX
  8
T20SSILL
 62
4
 10
-1145.015
 20
-893.913
 30
3236.146
 70
    32
  0
VERTEX
  8
T20SSILL
 62
4
 10
-1155.994
 20
-888.179
 30
3236.163
 70
    32
  0
VERTEX
  8
T20SSILL
 62
4
 10
-1118.898
 20
-861.152
 30
3236.129
 70
    32
  0
VERTEX
  8
T20SSILL
 62
4
 10
-1108.605
 20
-864.887
 30
3236.113
 70
    32
  0
VERTEX
  8
T20SSILL
 62
4
 10
-1103.087
 20
-872.072
 30
3236.102
 70
    32
  0
VERTEX
  8
T20SSILL
 62
4
 10
-1093.787
 20
-866.328
 30
3236.093
 70
    32
  0
VERTEX
  8
T20SSILL
 62
4
 10
-1092.069
 20
-864.652
 30
3236.091
 70
    32
  0
VERTEX
  8
T20SSILL
 62
4
 10
-1094.155
 20
-855.311
 30
3236.099
 70
    32
  0
VERTEX
  8
T20SSILL
 62
4
 10
-1085.547
 20
-851.911
 30
3236.089
 70
    32
  0
VERTEX
  8
T20SSILL
 62
4
 10
-1089.914
 20
-840.314
 30
3236.101
 70
    32
  0
VERTEX
  8
T20SSILL
 62
4
 10
-1014.336
 20
-785.980
 30
3236.030
 70
    32
  0
VERTEX
  8
T20SSILL
 62
4
 10
-1019.170
 20
-780.290
 30
3236.031
 70
    32
  0
VERTEX
  8
T20SSILL
 62
4
 10
-1099.403
 20
-837.842
 30
3236.106
 70
    32
  0
VERTEX
  8
T20SSILL
 62
4
 10
-1108.977
 20
-831.200
 30
3236.095
 70
    32
  0
VERTEX
  8
T20SSILL
 62
4
 10
-1118.887
 20
-835.650
 30
3236.101
 70
    32
  0
VERTEX
  8
T20SSILL
 62
4
 10
-1124.075
 20
-832.674
 30
3236.096
 70
    32
  0
VERTEX
  8
T20SSILL
 62
4
 10
-1125.338
 20
-833.478
 30
3236.097
 70
    32
  0
VERTEX
  8
T20SSILL
 62
4
 10
-1131.027
 20
-839.868
 30
3236.106
 70
    32
  0
VERTEX
  8
T20SSILL
 62
4
 10
-1120.977
 20
-849.420
 30
3236.120
 70
    32
  0
VERTEX
  8
T20SSILL
 62
4
 10
-1121.787
 20
-854.453
 30
3236.127
 70
    32
  0
VERTEX
  8
T20SSILL
 62
4
 10
-1163.955
 20
-884.819
 30
3236.167
 70
    32
  0
VERTEX
  8
T20SSILL
 62
4
 10
-1168.537
 20
-882.382
 30
3236.163
 70
    32
  0
VERTEX
  8
T20SSILL
 62
4
 10
-1173.199
 20
-891.392
 30
3236.175
 70
    32
  0
VERTEX
  8
T20SSILL
 62
4
 10
-1206.930
 20
-915.119
 30
3236.206
 70
    32
  0
VERTEX
  8
T20SSILL
 62
4
 10
-1216.014
 20
-902.700
 30
3236.188
 70
    32
  0
VERTEX
  8
T20SSILL
 62
4
 10
-1224.514
 20
-908.951
 30
3236.196
 70
    32
  0
VERTEX
  8
T20SSILL
 62
4
 10
-1215.378
 20
-921.442
 30
3236.214
 70
    32
  0
VERTEX
  8
T20SSILL
 62
4
 10
-1363.829
 20
-1028.404
 30
3235.744
 70
    32
  0
VERTEX
  8
T20SSILL
 62
4
 10
-1371.120
 20
-1038.880
 30
3235.711
 70
    32
  0
VERTEX
  8
T20SSILL
 62
4
 10
-1374.156
 20
-1048.286
 30
3235.693
 70
    32
  0
VERTEX
  8
T20SSILL
 62
4
 10
-1407.751
 20
-1001.354
 30
3235.624
 70
    32
  0
VERTEX
  8
T20SSILL
 62
4
 10
-1397.677
 20
-994.177
 30
3235.664
 70
    32
  0
VERTEX
  8
T20SSILL
 62
4
 10
-1403.659
 20
-986.351
 30
3235.651
 70
    32
  0
VERTEX
  8
T20SSILL
 62
4
 10
-1412.205
 20
-995.132
 30
3235.615
 70
    32
  0
VERTEX
  8
T20SSILL
 62
4
 10
-1433.086
 20
-965.962
 30
3235.572
 70
    32
  0
VERTEX
  8
T20SSILL
 62
4
 10
-1424.114
 20
-956.547
 30
3235.610
 70
    32
  0
VERTEX
  8
T20SSILL
 62
4
 10
-1428.377
 20
-950.949
 30
3235.601
 70
    32
  0
VERTEX
  8
T20SSILL
 62
4
 10
-1438.407
 20
-958.528
 30
3235.562
 70
    32
  0
VERTEX
  8
T20SSILL
 62
4
 10
-1451.049
 20
-940.868
 30
3235.562
 70
    32
  0
VERTEX
  8
T20SSILL
 62
4
 10
-1447.638
 20
-937.206
 30
3235.561
 70
    32
  0
VERTEX
  8
T20SSILL
 62
4
 10
-1452.563
 20
-930.242
 30
3235.565
 70
    32
  0
VERTEX
  8
T20SSILL
 62
4
 10
-1456.426
 20
-933.357
 30
3235.566
 70
    32
  0
VERTEX
  8
T20SSILL
 62
4
 10
-1643.188
 20
-672.455
 30
3235.715
 70
    32
  0
VERTEX
  8
T20SSILL
 62
4
 10
-1643.425
 20
-670.806
 30
3235.716
 70
    32
  0
VERTEX
  8
T20SSILL
 62
4
 10
-1642.311
 20
-661.540
 30
3235.717
 70
    32
  0
VERTEX
  8
T20SSILL
 62
4
 10
-1640.598
 20
-657.156
 30
3235.717
 70
    32
  0
VERTEX
  8
T20SSILL
 62
4
 10
-1636.343
 20
-650.284
 30
3235.716
 70
    32
  0
VERTEX
  8
T20SSILL
 62
4
 10
-1633.718
 20
-648.061
 30
3235.715
 70
    32
  0
VERTEX
  8
T20SSILL
 62
4
 10
-1360.759
 20
-450.899
 30
3235.738
 70
    32
  0
VERTEX
  8
T20SSILL
 62
4
 10
-1365.548
 20
-445.353
 30
3235.742
 70
    32
  0
VERTEX
  8
T20SSILL
 62
4
 10
-1637.415
 20
-641.295
 30
3235.718
 70
    32
  0
VERTEX
  8
T20SSILL
 62
4
 10
-1645.609
 20
-651.122
 30
3235.721
 70
    32
  0
VERTEX
  8
T20SSILL
 62
4
 10
-1648.134
 20
-656.635
 30
3235.721
 70
    32
  0
VERTEX
  8
T20SSILL
 62
4
 10
-1649.399
 20
-663.779
 30
3235.720
 70
    32
  0
VERTEX
  8
T20SSILL
 62
4
 10
-1864.365
 20
-363.897
 30
3235.891
 70
    32
  0
VERTEX
  8
T20SSILL
 62
4
 10
-1865.077
 20
-355.407
 30
3235.893
 70
    32
  0
VERTEX
  8
T20SSILL
 62
4
 10
-1863.543
 20
-348.223
 30
3235.894
 70
    32
  0
VERTEX
  8
T20SSILL
 62
4
 10
-1860.662
 20
-342.453
 30
3235.894
 70
    32
  0
VERTEX
  8
T20SSILL
 62
4
 10
-1855.183
 20
-336.974
 30
3235.892
 70
    32
  0
VERTEX
  8
T20SSILL
 62
4
 10
-1522.520
 20
-98.063
 30
3236.015
 70
    32
  0
VERTEX
  8
T20SSILL
 62
4
 10
-1526.312
 20
-91.374
 30
3236.020
 70
    32
  0
VERTEX
  8
T20SSILL
 62
4
 10
-1665.467
 20
-191.944
 30
3235.954
 70
    32
  0
VERTEX
  8
T20SSILL
 62
4
 10
-1669.579
 20
-185.803
 30
3235.959
 70
    32
  0
VERTEX
  8
T20SSILL
 62
4
 10
-1689.714
 20
-200.572
 30
3235.944
 70
    32
  0
VERTEX
  8
T20SSILL
 62
4
 10
-1685.277
 20
-206.261
 30
3235.940
 70
    32
  0
VERTEX
  8
T20SSILL
 62
4
 10
-1861.635
 20
-332.850
 30
3235.896
 70
    32
  0
VERTEX
  8
T20SSILL
 62
4
 10
-1869.658
 20
-343.964
 30
3235.898
 70
    32
  0
VERTEX
  8
T20SSILL
 62
4
 10
-1872.457
 20
-352.173
 30
3235.898
 70
    32
  0
VERTEX
  8
T20SSILL
 62
4
 10
-2495.848
 20
516.935
 30
3236.592
 70
    32
  0
VERTEX
  8
T20SSILL
 62
4
 10
-2498.651
 20
525.592
 30
3236.613
 70
    32
  0
VERTEX
  8
T20SSILL
 62
4
 10
-2498.709
 20
534.093
 30
3236.635
 70
    32
  0
VERTEX
  8
T20SSILL
 62
4
 10
-2495.786
 20
543.599
 30
3236.660
 70
    32
  0
VERTEX
  8
T20SSILL
 62
4
 10
-2492.433
 20
548.385
 30
3236.671
 70
    32
  0
VERTEX
  8
T20SSILL
 62
4
 10
-2476.155
 20
560.561
 30
3236.713
 70
    32
  0
VERTEX
  8
T20SSILL
 62
4
 10
-2465.162
 20
559.179
 30
3236.716
 70
    32
  0
VERTEX
  8
T20SSILL
 62
4
 10
-2460.465
 20
562.004
 30
3236.726
 70
    32
  0
VERTEX
  8
T20SSILL
 62
4
 10
-2458.980
 20
569.458
 30
3236.745
 70
    32
  0
VERTEX
  8
T20SSILL
 62
4
 10
-2459.452
 20
573.051
 30
3236.755
 70
    32
  0
VERTEX
  8
T20SSILL
 62
4
 10
-2439.469
 20
586.879
 30
3236.800
 70
    32
  0
VERTEX
  8
T20SSILL
 62
4
 10
-2444.148
 20
568.513
 30
3236.750
 70
    32
  0
VERTEX
  8
T20SSILL
 62
4
 10
-2448.117
 20
563.818
 30
3236.736
 70
    32
  0
VERTEX
  8
T20SSILL
 62
4
 10
-2452.208
 20
556.185
 30
3236.715
 70
    32
  0
VERTEX
  8
T20SSILL
 62
4
 10
-2462.382
 20
546.562
 30
3236.685
 70
    32
  0
VERTEX
  8
T20SSILL
 62
4
 10
-2456.398
 20
540.262
 30
3236.672
 70
    32
  0
VERTEX
  8
T20SSILL
 62
4
 10
-2447.345
 20
544.453
 30
3236.687
 70
    32
  0
VERTEX
  8
T20SSILL
 62
4
 10
-2442.306
 20
542.383
 30
3236.684
 70
    32
  0
VERTEX
  8
T20SSILL
 62
4
 10
-2436.990
 20
536.246
 30
3236.671
 70
    32
  0
VERTEX
  8
T20SSILL
 62
4
 10
-2432.647
 20
535.412
 30
3236.671
 70
    32
  0
VERTEX
  8
T20SSILL
 62
4
 10
-2427.020
 20
540.678
 30
3236.687
 70
    32
  0
VERTEX
  8
T20SSILL
 62
4
 10
-2425.710
 20
545.265
 30
3236.699
 70
    32
  0
VERTEX
  8
T20SSILL
 62
4
 10
-2426.049
 20
547.643
 30
3236.705
 70
    32
  0
VERTEX
  8
T20SSILL
 62
4
 10
-2435.751
 20
559.401
 30
3236.731
 70
    32
  0
VERTEX
  8
T20SSILL
 62
4
 10
-2431.280
 20
575.093
 30
3236.773
 70
    32
  0
VERTEX
  8
T20SSILL
 62
4
 10
-2426.894
 20
575.826
 30
3236.778
 70
    32
  0
VERTEX
  8
T20SSILL
 62
4
 10
-2421.963
 20
570.060
 30
3236.765
 70
    32
  0
VERTEX
  8
T20SSILL
 62
4
 10
-2410.869
 20
549.036
 30
3236.716
 70
    32
  0
VERTEX
  8
T20SSILL
 62
4
 10
-2416.780
 20
524.499
 30
3236.650
 70
    32
  0
VERTEX
  8
T20SSILL
 62
4
 10
-2429.981
 20
521.176
 30
3236.635
 70
    32
  0
VERTEX
  8
T20SSILL
 62
4
 10
-2435.030
 20
518.529
 30
3236.626
 70
    32
  0
VERTEX
  8
T20SSILL
 62
4
 10
-2439.507
 20
514.225
 30
3236.613
 70
    32
  0
VERTEX
  8
T20SSILL
 62
4
 10
-2441.827
 20
514.695
 30
3236.613
 70
    32
  0
VERTEX
  8
T20SSILL
 62
4
 10
-2446.038
 20
520.228
 30
3236.625
 70
    32
  0
VERTEX
  8
T20SSILL
 62
4
 10
-2453.456
 20
515.605
 30
3236.609
 70
    32
  0
VERTEX
  8
T20SSILL
 62
4
 10
-2454.355
 20
512.475
 30
3236.601
 70
    32
  0
VERTEX
  8
T20SSILL
 62
4
 10
-2451.756
 20
498.682
 30
3236.567
 70
    32
  0
VERTEX
  8
T20SSILL
 62
4
 10
-2445.294
 20
502.377
 30
3236.579
 70
    32
  0
VERTEX
  8
T20SSILL
 62
4
 10
-2409.321
 20
517.540
 30
3236.636
 70
    32
  0
VERTEX
  8
T20SSILL
 62
4
 10
-2398.478
 20
539.708
 30
3236.698
 70
    32
  0
VERTEX
  8
T20SSILL
 62
4
 10
-2398.096
 20
548.207
 30
3236.720
 70
    32
  0
VERTEX
  8
T20SSILL
 62
4
 10
-2414.421
 20
574.664
 30
3236.781
 70
    32
  0
VERTEX
  8
T20SSILL
 62
4
 10
-2421.236
 20
583.415
 30
3236.800
 70
    32
  0
VERTEX
  8
T20SSILL
 62
4
 10
-2422.185
 20
599.472
 30
3236.841
 70
    32
  0
VERTEX
  8
T20SSILL
 62
4
 10
-2374.810
 20
632.945
 30
3236.950
 70
    32
  0
VERTEX
  8
T20SSILL
 62
4
 10
-2364.871
 20
632.098
 30
3236.949
 70
    32
  0
VERTEX
  8
T20SSILL
 62
4
 10
-2360.300
 20
631.104
 30
3236.938
 70
    32
  0
VERTEX
  8
T20SSILL
 62
4
 10
-2338.252
 20
620.719
 30
3236.877
 70
    32
  0
VERTEX
  8
T20SSILL
 62
4
 10
-2335.128
 20
612.957
 30
3236.858
 70
    32
  0
VERTEX
  8
T20SSILL
 62
4
 10
-2347.113
 20
591.148
 30
3236.847
 70
    32
  0
VERTEX
  8
T20SSILL
 62
4
 10
-2354.116
 20
582.123
 30
3236.846
 70
    32
  0
VERTEX
  8
T20SSILL
 62
4
 10
-2338.915
 20
574.768
 30
3236.804
 70
    32
  0
VERTEX
  8
T20SSILL
 62
4
 10
-2338.558
 20
578.867
 30
3236.810
 70
    32
  0
VERTEX
  8
T20SSILL
 62
4
 10
-2333.615
 20
590.966
 30
3236.819
 70
    32
  0
VERTEX
  8
T20SSILL
 62
4
 10
-2327.578
 20
600.260
 30
3236.822
 70
    32
  0
VERTEX
  8
T20SSILL
 62
4
 10
-2323.475
 20
610.094
 30
3236.830
 70
    32
  0
VERTEX
  8
T20SSILL
 62
4
 10
-2321.241
 20
609.887
 30
3236.825
 70
    32
  0
VERTEX
  8
T20SSILL
 62
4
 10
-2253.395
 20
483.928
 30
3236.486
 70
    32
  0
VERTEX
  8
T20SSILL
 62
4
 10
-2245.272
 20
488.634
 30
3236.477
 70
    32
  0
VERTEX
  8
T20SSILL
 62
4
 10
-2241.803
 20
492.082
 30
3236.476
 70
    32
  0
VERTEX
  8
T20SSILL
 62
4
 10
-2218.179
 20
499.078
 30
3236.462
 70
    32
  0
VERTEX
  8
T20SSILL
 62
4
 10
-2214.172
 20
498.105
 30
3236.462
 70
    32
  0
VERTEX
  8
T20SSILL
 62
4
 10
-2211.471
 20
496.382
 30
3236.461
 70
    32
  0
VERTEX
  8
T20SSILL
 62
4
 10
-2210.292
 20
493.313
 30
3236.458
 70
    32
  0
VERTEX
  8
T20SSILL
 62
4
 10
-2193.525
 20
470.251
 30
3236.441
 70
    32
  0
VERTEX
  8
T20SSILL
 62
4
 10
-2188.702
 20
460.790
 30
3236.434
 70
    32
  0
VERTEX
  8
T20SSILL
 62
4
 10
-2180.067
 20
450.322
 30
3236.426
 70
    32
  0
VERTEX
  8
T20SSILL
 62
4
 10
-2168.889
 20
444.257
 30
3236.423
 70
    32
  0
VERTEX
  8
T20SSILL
 62
4
 10
-2153.833
 20
445.669
 30
3236.426
 70
    32
  0
VERTEX
  8
T20SSILL
 62
4
 10
-2149.034
 20
450.869
 30
3236.431
 70
    32
  0
VERTEX
  8
T20SSILL
 62
4
 10
-2147.943
 20
453.978
 30
3236.434
 70
    32
  0
VERTEX
  8
T20SSILL
 62
4
 10
-2148.802
 20
460.900
 30
3236.439
 70
    32
  0
VERTEX
  8
T20SSILL
 62
4
 10
-2146.657
 20
469.829
 30
3236.447
 70
    32
  0
VERTEX
  8
T20SSILL
 62
4
 10
-2144.280
 20
473.125
 30
3236.450
 70
    32
  0
VERTEX
  8
T20SSILL
 62
4
 10
-2135.888
 20
478.798
 30
3236.456
 70
    32
  0
VERTEX
  8
T20SSILL
 62
4
 10
-2138.749
 20
489.603
 30
3236.465
 70
    32
  0
VERTEX
  8
T20SSILL
 62
4
 10
-2145.270
 20
488.055
 30
3236.462
 70
    32
  0
VERTEX
  8
T20SSILL
 62
4
 10
-2162.086
 20
493.007
 30
3236.464
 70
    32
  0
VERTEX
  8
T20SSILL
 62
4
 10
-2168.184
 20
497.688
 30
3236.468
 70
    32
  0
VERTEX
  8
T20SSILL
 62
4
 10
-2172.948
 20
505.002
 30
3236.473
 70
    32
  0
VERTEX
  8
T20SSILL
 62
4
 10
-2182.763
 20
509.228
 30
3236.475
 70
    32
  0
VERTEX
  8
T20SSILL
 62
4
 10
-2192.221
 20
511.199
 30
3236.476
 70
    32
  0
VERTEX
  8
T20SSILL
 62
4
 10
-2216.253
 20
550.566
 30
3236.519
 70
    32
  0
VERTEX
  8
T20SSILL
 62
4
 10
-2221.824
 20
564.730
 30
3236.553
 70
    32
  0
VERTEX
  8
T20SSILL
 62
4
 10
-2240.102
 20
581.852
 30
3236.618
 70
    32
  0
VERTEX
  8
T20SSILL
 62
4
 10
-2285.031
 20
604.633
 30
3236.744
 70
    32
  0
VERTEX
  8
T20SSILL
 62
4
 10
-2282.207
 20
609.246
 30
3236.746
 70
    32
  0
VERTEX
  8
T20SSILL
 62
4
 10
-2278.009
 20
610.824
 30
3236.740
 70
    32
  0
VERTEX
  8
T20SSILL
 62
4
 10
-2268.439
 20
610.031
 30
3236.720
 70
    32
  0
VERTEX
  8
T20SSILL
 62
4
 10
-2123.175
 20
577.060
 30
3243.540
 70
    32
  0
VERTEX
  8
T20SSILL
 62
4
 10
-2121.858
 20
570.258
 30
3243.000
 70
    32
  0
VERTEX
  8
T20SSILL
 62
4
 10
-2121.681
 20
567.213
 30
3243.000
 70
    32
  0
VERTEX
  8
T20SSILL
 62
4
 10
-2121.743
 20
565.523
 30
3243.000
 70
    32
  0
VERTEX
  8
T20SSILL
 62
4
 10
-2123.097
 20
562.768
 30
3243.000
 70
    32
  0
VERTEX
  8
T20SSILL
 62
4
 10
-2123.811
 20
560.924
 30
3243.000
 70
    32
  0
VERTEX
  8
T20SSILL
 62
4
 10
-2121.599
 20
556.757
 30
3243.000
 70
    32
  0
VERTEX
  8
T20SSILL
 62
4
 10
-2119.778
 20
555.040
 30
3243.000
 70
    32
  0
VERTEX
  8
T20SSILL
 62
4
 10
-2120.370
 20
553.178
 30
3243.000
 70
    32
  0
VERTEX
  8
T20SSILL
 62
4
 10
-2122.021
 20
550.529
 30
3243.000
 70
    32
  0
VERTEX
  8
T20SSILL
 62
4
 10
-2119.523
 20
546.504
 30
3243.000
 70
    32
  0
VERTEX
  8
T20SSILL
 62
4
 10
-2117.753
 20
543.653
 30
3243.000
 70
    32
  0
VERTEX
  8
T20SSILL
 62
4
 10
-2119.551
 20
532.482
 30
3243.000
 70
    32
  0
VERTEX
  8
T20SSILL
 62
4
 10
-2108.132
 20
531.265
 30
3243.000
 70
    32
  0
VERTEX
  8
T20SSILL
 62
4
 10
-2103.968
 20
523.481
 30
3243.000
 70
    32
  0
VERTEX
  8
T20SSILL
 62
4
 10
-2096.216
 20
527.183
 30
3243.000
 70
    32
  0
VERTEX
  8
T20SSILL
 62
4
 10
-2093.356
 20
531.792
 30
3243.000
 70
    32
  0
VERTEX
  8
T20SSILL
 62
4
 10
-2081.807
 20
531.333
 30
3243.000
 70
    32
  0
VERTEX
  8
T20SSILL
 62
4
 10
-2080.158
 20
536.943
 30
3243.500
 70
    32
  0
VERTEX
  8
T20SSILL
 62
4
 10
-2073.645
 20
540.807
 30
3243.000
 70
    32
  0
VERTEX
  8
T20SSILL
 62
4
 10
-2063.822
 20
545.760
 30
3242.250
 70
    32
  0
VERTEX
  8
T20SSILL
 62
4
 10
-2063.550
 20
549.955
 30
3242.250
 70
    32
  0
VERTEX
  8
T20SSILL
 62
4
 10
-2056.623
 20
556.212
 30
3242.500
 70
    32
  0
VERTEX
  8
T20SSILL
 62
4
 10
-2063.091
 20
565.423
 30
3242.500
 70
    32
  0
VERTEX
  8
T20SSILL
 62
4
 10
-2073.617
 20
559.010
 30
3242.250
 70
    32
  0
VERTEX
  8
T20SSILL
 62
4
 10
-2082.800
 20
551.079
 30
3243.000
 70
    32
  0
VERTEX
  8
T20SSILL
 62
4
 10
-2088.257
 20
547.720
 30
3243.500
 70
    32
  0
VERTEX
  8
T20SSILL
 62
4
 10
-2098.825
 20
541.914
 30
3243.000
 70
    32
  0
VERTEX
  8
T20SSILL
 62
4
 10
-2100.897
 20
545.972
 30
3243.000
 70
    32
  0
VERTEX
  8
T20SSILL
 62
4
 10
-2103.327
 20
551.023
 30
3243.000
 70
    32
  0
VERTEX
  8
T20SSILL
 62
4
 10
-2103.508
 20
553.189
 30
3243.000
 70
    32
  0
VERTEX
  8
T20SSILL
 62
4
 10
-2102.692
 20
554.451
 30
3243.000
 70
    32
  0
VERTEX
  8
T20SSILL
 62
4
 10
-2097.002
 20
558.450
 30
3243.000
 70
    32
  0
VERTEX
  8
T20SSILL
 62
4
 10
-2091.977
 20
560.094
 30
3243.000
 70
    32
  0
VERTEX
  8
T20SSILL
 62
4
 10
-2085.663
 20
562.364
 30
3243.000
 70
    32
  0
VERTEX
  8
T20SSILL
 62
4
 10
-2080.884
 20
564.044
 30
3243.000
 70
    32
  0
VERTEX
  8
T20SSILL
 62
4
 10
-2078.066
 20
564.380
 30
3243.000
 70
    32
  0
VERTEX
  8
T20SSILL
 62
4
 10
-2076.838
 20
573.068
 30
3243.000
 70
    32
  0
VERTEX
  8
T20SSILL
 62
4
 10
-2076.706
 20
577.767
 30
3243.000
 70
    32
  0
VERTEX
  8
T20SSILL
 62
4
 10
-2078.642
 20
580.822
 30
3243.000
 70
    32
  0
VERTEX
  8
T20SSILL
 62
4
 10
-2082.944
 20
585.739
 30
3243.000
 70
    32
  0
VERTEX
  8
T20SSILL
 62
4
 10
-2087.935
 20
590.256
 30
3243.000
 70
    32
  0
VERTEX
  8
T20SSILL
 62
4
 10
-2091.823
 20
593.727
 30
3243.000
 70
    32
  0
VERTEX
  8
T20SSILL
 62
4
 10
-2094.199
 20
596.785
 30
3243.000
 70
    32
  0
VERTEX
  8
T20SSILL
 62
4
 10
-2088.576
 20
610.922
 30
3243.000
 70
    32
  0
VERTEX
  8
T20SSILL
 62
4
 10
-2099.100
 20
614.184
 30
3243.000
 70
    32
  0
VERTEX
  8
T20SSILL
 62
4
 10
-2107.565
 20
604.033
 30
3243.000
 70
    32
  0
VERTEX
  8
T20SSILL
 62
4
 10
-2105.708
 20
595.362
 30
3243.000
 70
    32
  0
VERTEX
  8
T20SSILL
 62
4
 10
-2107.474
 20
586.616
 30
3243.000
 70
    32
  0
VERTEX
  8
T20SSILL
 62
4
 10
-2111.022
 20
584.753
 30
3243.000
 70
    32
  0
VERTEX
  8
T20SSILL
 62
4
 10
-2113.738
 20
583.836
 30
3243.547
 70
    32
  0
VERTEX
  8
T20SSILL
 62
4
 10
-2153.627
 20
592.552
 30
3242.652
 70
    32
  0
VERTEX
  8
T20SSILL
 62
4
 10
-2154.750
 20
593.477
 30
3243.000
 70
    32
  0
VERTEX
  8
T20SSILL
 62
4
 10
-2164.450
 20
609.203
 30
3243.000
 70
    32
  0
VERTEX
  8
T20SSILL
 62
4
 10
-2172.085
 20
622.275
 30
3243.000
 70
    32
  0
VERTEX
  8
T20SSILL
 62
4
 10
-2175.364
 20
624.284
 30
3243.000
 70
    32
  0
VERTEX
  8
T20SSILL
 62
4
 10
-2182.082
 20
632.652
 30
3243.000
 70
    32
  0
VERTEX
  8
T20SSILL
 62
4
 10
-2191.774
 20
623.687
 30
3243.000
 70
    32
  0
VERTEX
  8
T20SSILL
 62
4
 10
-2185.694
 20
616.795
 30
3243.000
 70
    32
  0
VERTEX
  8
T20SSILL
 62
4
 10
-2185.759
 20
613.986
 30
3243.000
 70
    32
  0
VERTEX
  8
T20SSILL
 62
4
 10
-2173.509
 20
601.156
 30
3243.000
 70
    32
  0
VERTEX
  8
T20SSILL
 62
4
 10
-2175.903
 20
598.521
 30
3243.000
 70
    32
  0
VERTEX
  8
T20SSILL
 62
4
 10
-2177.053
 20
597.877
 30
3242.650
 70
    32
  0
VERTEX
  8
T20SSILL
 62
4
 10
-2241.040
 20
612.376
 30
3236.669
 70
    32
  0
VERTEX
  8
T20SSILL
 62
4
 10
-2242.340
 20
615.904
 30
3236.677
 70
    32
  0
VERTEX
  8
T20SSILL
 62
4
 10
-2251.937
 20
618.211
 30
3236.700
 70
    32
  0
VERTEX
  8
T20SSILL
 62
4
 10
-2256.818
 20
617.112
 30
3236.708
 70
    32
  0
VERTEX
  8
T20SSILL
 62
4
 10
-2259.608
 20
618.658
 30
3236.716
 70
    32
  0
VERTEX
  8
T20SSILL
 62
4
 10
-2245.088
 20
624.931
 30
3236.697
 70
    32
  0
VERTEX
  8
T20SSILL
 62
4
 10
-2233.711
 20
632.488
 30
3236.687
 70
    32
  0
VERTEX
  8
T20SSILL
 62
4
 10
-2228.412
 20
638.935
 30
3236.687
 70
    32
  0
VERTEX
  8
T20SSILL
 62
4
 10
-2221.634
 20
661.267
 30
3236.709
 70
    32
  0
VERTEX
  8
T20SSILL
 62
4
 10
-2230.463
 20
678.054
 30
3236.754
 70
    32
  0
VERTEX
  8
T20SSILL
 62
4
 10
-2236.092
 20
681.659
 30
3236.771
 70
    32
  0
VERTEX
  8
T20SSILL
 62
4
 10
-2258.009
 20
684.035
 30
3236.819
 70
    32
  0
VERTEX
  8
T20SSILL
 62
4
 10
-2262.995
 20
683.077
 30
3236.827
 70
    32
  0
VERTEX
  8
T20SSILL
 62
4
 10
-2267.177
 20
681.182
 30
3236.833
 70
    32
  0
VERTEX
  8
T20SSILL
 62
4
 10
-2276.673
 20
670.200
 30
3236.834
 70
    32
  0
VERTEX
  8
T20SSILL
 62
4
 10
-2276.993
 20
666.347
 30
3236.828
 70
    32
  0
VERTEX
  8
T20SSILL
 62
4
 10
-2278.446
 20
664.613
 30
3236.828
 70
    32
  0
VERTEX
  8
T20SSILL
 62
4
 10
-2291.570
 20
662.663
 30
3236.851
 70
    32
  0
VERTEX
  8
T20SSILL
 62
4
 10
-2293.534
 20
663.835
 30
3236.857
 70
    32
  0
VERTEX
  8
T20SSILL
 62
4
 10
-2300.064
 20
673.235
 30
3236.886
 70
    32
  0
VERTEX
  8
T20SSILL
 62
4
 10
-2289.530
 20
681.044
 30
3236.877
 70
    32
  0
VERTEX
  8
T20SSILL
 62
4
 10
-2292.143
 20
685.898
 30
3236.890
 70
    32
  0
VERTEX
  8
T20SSILL
 62
4
 10
-2288.765
 20
695.085
 30
3236.898
 70
    32
  0
VERTEX
  8
T20SSILL
 62
4
 10
-2168.338
 20
780.650
 30
3236.796
 70
    32
  0
VERTEX
  8
T20SSILL
 62
4
 10
-2172.434
 20
786.702
 30
3236.809
 70
    32
  0
VERTEX
  8
T20SSILL
 62
4
 10
-2317.167
 20
683.452
 30
3236.936
 70
    32
  0
VERTEX
  8
T20SSILL
 62
4
 10
-2323.305
 20
681.093
 30
3236.945
 70
    32
  0
VERTEX
  8
T20SSILL
 62
4
 10
-2327.526
 20
684.865
 30
3236.948
 70
    32
  0
VERTEX
  8
T20SSILL
 62
4
 10
-2335.069
 20
695.485
 30
3236.950
 70
    32
  0
VERTEX
  8
T20SSILL
 62
4
 10
-2343.605
 20
689.267
 30
3236.958
 70
    32
  0
VERTEX
  8
T20SSILL
 62
4
 10
-2335.273
 20
678.027
 30
3236.955
 70
    32
  0
VERTEX
  8
T20SSILL
 62
4
 10
-2337.994
 20
676.229
 30
3236.958
 70
    32
  0
VERTEX
  8
T20SSILL
 62
4
 10
-2340.232
 20
672.599
 30
3236.960
 70
    32
  0
VERTEX
  8
T20SSILL
 62
4
 10
-2366.936
 20
652.913
 30
3236.985
 70
    32
  0
VERTEX
  8
T20SSILL
 62
4
 10
-2378.636
 20
653.771
 30
3236.985
 70
    32
  0
VERTEX
  8
T20SSILL
 62
4
 10
-2388.801
 20
659.888
 30
3236.976
 70
    32
  0
VERTEX
  8
T20SSILL
 62
4
 10
-2402.648
 20
656.017
 30
3236.951
 70
    32
  0
VERTEX
  8
T20SSILL
 62
4
 10
-2379.643
 20
643.603
 30
3236.973
 70
    32
  0
VERTEX
  8
T20SSILL
 62
4
 10
-2380.571
 20
638.205
 30
3236.961
 70
    32
  0
VERTEX
  8
T20SSILL
 62
4
 10
-2433.072
 20
600.712
 30
3236.833
 70
    32
  0
VERTEX
  8
T20SSILL
 62
4
 10
-2435.375
 20
601.306
 30
3236.830
 70
    32
  0
VERTEX
  8
T20SSILL
 62
4
 10
-2448.853
 20
627.025
 30
3236.839
 70
    32
  0
VERTEX
  8
T20SSILL
 62
4
 10
-2457.395
 20
622.884
 30
3236.820
 70
    32
  0
VERTEX
  8
T20SSILL
 62
4
 10
-2443.091
 20
596.791
 30
3236.812
 70
    32
  0
VERTEX
  8
T20SSILL
 62
4
 10
-2442.561
 20
594.007
 30
3236.809
 70
    32
  0
VERTEX
  8
T20SSILL
 62
4
 10
-2463.731
 20
578.972
 30
3236.756
 70
    32
  0
VERTEX
  8
T20SSILL
 62
4
 10
-2466.261
 20
579.725
 30
3236.753
 70
    32
  0
VERTEX
  8
T20SSILL
 62
4
 10
-2472.078
 20
578.262
 30
3236.741
 70
    32
  0
VERTEX
  8
T20SSILL
 62
4
 10
-2477.149
 20
574.612
 30
3236.729
 70
    32
  0
VERTEX
  8
T20SSILL
 62
4
 10
-2478.374
 20
572.718
 30
3236.724
 70
    32
  0
VERTEX
  8
T20SSILL
 62
4
 10
-2478.169
 20
568.598
 30
3236.720
 70
    32
  0
VERTEX
  8
T20SSILL
 62
4
 10
-2491.829
 20
558.801
 30
3236.685
 70
    32
  0
VERTEX
  8
T20SSILL
 62
4
 10
-2500.430
 20
550.454
 30
3236.661
 70
    32
  0
VERTEX
  8
T20SSILL
 62
4
 10
-2504.338
 20
544.052
 30
3236.647
 70
    32
  0
VERTEX
  8
T20SSILL
 62
4
 10
-2507.078
 20
532.380
 30
3236.627
 70
    32
  0
VERTEX
  8
T20SSILL
 62
4
 10
-2711.483
 20
817.204
 30
3236.641
 70
    32
  0
VERTEX
  8
T20SSILL
 62
4
 10
-2717.501
 20
813.054
 30
3236.626
 70
    32
  0
VERTEX
  8
T20SSILL
 62
4
 10
-2545.937
 20
573.572
 30
3236.620
 70
    32
  0
VERTEX
  8
T20SSILL
 62
4
 10
-2558.655
 20
565.459
 30
3236.620
 70
    32
  0
VERTEX
  8
T20SSILL
 62
4
 10
-2551.811
 20
555.635
 30
3236.619
 70
    32
  0
VERTEX
  8
T20SSILL
 62
4
 10
-2539.335
 20
564.665
 30
3236.620
 70
    32
  0
VERTEX
  8
T20SSILL
 62
4
 10
-1940.436
 20
-269.592
 30
3235.950
 70
    32
  0
VERTEX
  8
T20SSILL
 62
4
 10
-1468.915
 20
-929.109
 30
3235.574
 70
    32
  0
VERTEX
  8
T20SSILL
 62
4
 10
-1472.450
 20
-935.577
 30
3235.574
 70
    32
  0
VERTEX
  8
T20SSILL
 62
4
 10
-1470.444
 20
-937.618
 30
3235.573
 70
    32
  0
VERTEX
  8
T20SSILL
 62
4
 10
-1464.684
 20
-935.027
 30
3235.570
 70
    32
  0
VERTEX
  8
T20SSILL
 62
4
 10
-1281.697
 20
-1190.971
 30
3235.779
 70
    32
  0
VERTEX
  8
T20SSILL
 62
4
 10
-1233.518
 20
-1260.311
 30
3235.541
 70
    32
  0
VERTEX
  8
T20SSILL
 62
4
 10
-1240.107
 20
-1268.446
 30
3235.535
 70
    32
  0
VERTEX
  8
T20SSILL
 62
4
 10
-1245.224
 20
-1268.198
 30
3235.545
 70
    32
  0
VERTEX
  8
T20SSILL
 62
4
 10
-1254.214
 20
-1270.167
 30
3235.557
 70
    32
  0
VERTEX
  8
T20SSILL
 62
4
 10
-1259.671
 20
-1273.536
 30
3235.559
 70
    32
  0
VERTEX
  8
T20SSILL
 62
4
 10
-1258.339
 20
-1276.442
 30
3235.551
 70
    32
  0
VERTEX
  8
T20SSILL
 62
4
 10
-1261.682
 20
-1279.099
 30
3235.551
 70
    32
  0
VERTEX
  8
T20SSILL
 62
4
 10
-1332.088
 20
-1329.561
 30
3235.568
 70
    32
  0
VERTEX
  8
T20SSILL
 62
4
 10
-1327.925
 20
-1336.008
 30
3235.547
 70
    32
  0
VERTEX
  8
T20SSILL
 62
4
 10
-1252.851
 20
-1282.599
 30
3235.527
 70
    32
  0
VERTEX
  8
T20SSILL
 62
4
 10
-1249.770
 20
-1284.422
 30
3235.518
 70
    32
  0
VERTEX
  8
T20SSILL
 62
4
 10
-1233.906
 20
-1276.982
 30
3235.505
 70
    32
  0
VERTEX
  8
T20SSILL
 62
4
 10
-1224.734
 20
-1276.865
 30
3235.489
 70
    32
  0
VERTEX
  8
T20SSILL
 62
4
 10
-1220.937
 20
-1278.087
 30
3235.479
 70
    32
  0
VERTEX
  8
T20SSILL
 62
4
 10
-1218.108
 20
-1280.283
 30
3235.469
 70
    32
  0
VERTEX
  8
T20SSILL
 62
4
 10
-1121.988
 20
-1413.864
 30
3235.425
 70
    32
  0
VERTEX
  8
T20SSILL
 62
4
 10
-1125.330
 20
-1416.874
 30
3235.426
 70
    32
  0
VERTEX
  8
T20SSILL
 62
4
 10
-1129.123
 20
-1444.404
 30
3235.433
 70
    32
  0
VERTEX
  8
T20SSILL
 62
4
 10
-1155.874
 20
-1463.892
 30
3235.444
 70
    32
  0
VERTEX
  8
T20SSILL
 62
4
 10
-1161.443
 20
-1460.029
 30
3235.444
 70
    32
  0
VERTEX
  8
T20SSILL
 62
4
 10
-1168.506
 20
-1457.670
 30
3235.446
 70
    32
  0
VERTEX
  8
T20SSILL
 62
4
 10
-1170.381
 20
-1450.532
 30
3235.445
 70
    32
  0
VERTEX
  8
T20SSILL
 62
4
 10
-1167.298
 20
-1421.417
 30
3235.438
 70
    32
  0
VERTEX
  8
T20SSILL
 62
4
 10
-1169.286
 20
-1406.694
 30
3235.435
 70
    32
  0
VERTEX
  8
T20SSILL
 62
4
 10
-1174.847
 20
-1405.124
 30
3235.436
 70
    32
  0
VERTEX
  8
T20SSILL
 62
4
 10
-1178.631
 20
-1407.782
 30
3235.438
 70
    32
  0
VERTEX
  8
T20SSILL
 62
4
 10
-1181.213
 20
-1400.117
 30
3235.437
 70
    32
  0
VERTEX
  8
T20SSILL
 62
4
 10
-1187.512
 20
-1388.671
 30
3235.436
 70
    32
  0
VERTEX
  8
T20SSILL
 62
4
 10
-1197.721
 20
-1395.671
 30
3235.440
 70
    32
  0
VERTEX
  8
T20SSILL
 62
4
 10
-1197.794
 20
-1400.346
 30
3235.441
 70
    32
  0
VERTEX
  8
T20SSILL
 62
4
 10
-1203.732
 20
-1419.151
 30
3235.446
 70
    32
  0
VERTEX
  8
T20SSILL
 62
4
 10
-1198.615
 20
-1419.664
 30
3235.445
 70
    32
  0
VERTEX
  8
T20SSILL
 62
4
 10
-1196.313
 20
-1422.214
 30
3235.445
 70
    32
  0
VERTEX
  8
T20SSILL
 62
4
 10
-1196.121
 20
-1427.241
 30
3235.446
 70
    32
  0
VERTEX
  8
T20SSILL
 62
4
 10
-1198.311
 20
-1431.923
 30
3235.448
 70
    32
  0
VERTEX
  8
T20SSILL
 62
4
 10
-1190.634
 20
-1433.045
 30
3235.446
 70
    32
  0
VERTEX
  8
T20SSILL
 62
4
 10
-1192.203
 20
-1438.871
 30
3235.448
 70
    32
  0
VERTEX
  8
T20SSILL
 62
4
 10
-1185.760
 20
-1440.262
 30
3235.446
 70
    32
  0
VERTEX
  8
T20SSILL
 62
4
 10
-1181.158
 20
-1445.363
 30
3235.446
 70
    32
  0
VERTEX
  8
T20SSILL
 62
4
 10
-1180.447
 20
-1446.860
 30
3235.446
 70
    32
  0
VERTEX
  8
T20SSILL
 62
4
 10
-1182.177
 20
-1457.626
 30
3235.449
 70
    32
  0
VERTEX
  8
T20SSILL
 62
4
 10
-1210.940
 20
-1482.236
 30
3235.461
 70
    32
  0
VERTEX
  8
T20SSILL
 62
4
 10
-1210.123
 20
-1489.554
 30
3235.463
 70
    32
  0
VERTEX
  8
T20SSILL
 62
4
 10
-1210.557
 20
-1491.760
 30
3235.463
 70
    32
  0
VERTEX
  8
T20SSILL
 62
4
 10
-1214.693
 20
-1494.596
 30
3235.465
 70
    32
  0
VERTEX
  8
T20SSILL
 62
4
 10
-1214.569
 20
-1505.885
 30
3235.467
 70
    32
  0
VERTEX
  8
T20SSILL
 62
4
 10
-1248.977
 20
-1530.602
 30
3235.481
 70
    32
  0
VERTEX
  8
T20SSILL
 62
4
 10
-1245.254
 20
-1536.323
 30
3235.481
 70
    32
  0
VERTEX
  8
T20SSILL
 62
4
 10
-1238.711
 20
-1541.594
 30
3235.481
 70
    32
  0
VERTEX
  8
T20SSILL
 62
4
 10
-1215.826
 20
-1526.880
 30
3235.472
 70
    32
  0
VERTEX
  8
T20SSILL
 62
4
 10
-1212.909
 20
-1528.811
 30
3235.472
 70
    32
  0
VERTEX
  8
T20SSILL
 62
4
 10
-1203.095
 20
-1647.408
 30
3235.494
 70
    32
  0
VERTEX
  8
T20SSILL
 62
4
 10
-1195.247
 20
-1646.854
 30
3235.492
 70
    32
  0
VERTEX
  8
T20SSILL
 62
4
 10
-1193.880
 20
-1660.697
 30
3235.496
 70
    32
  0
VERTEX
  8
T20SSILL
 62
4
 10
-1205.933
 20
-1670.261
 30
3235.503
 70
    32
  0
VERTEX
  8
T20SSILL
 62
4
 10
-1214.141
 20
-1668.611
 30
3235.503
 70
    32
  0
VERTEX
  8
T20SSILL
 62
4
 10
-1223.475
 20
-1673.227
 30
3235.507
 70
    32
  0
VERTEX
  8
T20SSILL
 62
4
 10
-1229.807
 20
-1679.068
 30
3235.512
 70
    32
  0
VERTEX
  8
T20SSILL
 62
4
 10
-1227.321
 20
-1684.176
 30
3235.515
 70
    32
  0
VERTEX
  8
T20SSILL
 62
4
 10
-1246.062
 20
-1698.435
 30
3235.526
 70
    32
  0
VERTEX
  8
T20SSILL
 62
4
 10
-1241.899
 20
-1704.067
 30
3235.530
 70
    32
  0
VERTEX
  8
T20SSILL
 62
4
 10
-1222.276
 20
-1689.981
 30
3235.518
 70
    32
  0
VERTEX
  8
T20SSILL
 62
4
 10
-1217.480
 20
-1700.373
 30
3235.525
 70
    32
  0
VERTEX
  8
T20SSILL
 62
4
 10
-1203.226
 20
-1689.479
 30
3235.516
 70
    32
  0
VERTEX
  8
T20SSILL
 62
4
 10
-1200.697
 20
-1680.387
 30
3235.510
 70
    32
  0
VERTEX
  8
T20SSILL
 62
4
 10
-1201.420
 20
-1674.921
 30
3235.506
 70
    32
  0
VERTEX
  8
T20SSILL
 62
4
 10
-1155.397
 20
-1641.965
 30
3235.481
 70
    32
  0
VERTEX
  8
T20SSILL
 62
4
 10
-1134.470
 20
-1672.186
 30
3235.498
 70
    32
  0
VERTEX
  8
T20SSILL
 62
4
 10
-1128.764
 20
-1668.129
 30
3235.495
 70
    32
  0
VERTEX
  8
T20SSILL
 62
4
 10
-1150.029
 20
-1637.979
 30
3235.479
 70
    32
  0
VERTEX
  8
T20SSILL
 62
4
 10
-1144.310
 20
-1633.815
 30
3235.476
 70
    32
  0
VERTEX
  8
T20SSILL
 62
4
 10
-1137.866
 20
-1635.470
 30
3235.475
 70
    32
  0
VERTEX
  8
T20SSILL
 62
4
 10
-1134.736
 20
-1648.867
 30
3235.482
 70
    32
  0
VERTEX
  8
T20SSILL
 62
4
 10
-1126.150
 20
-1658.541
 30
3235.488
 70
    32
  0
VERTEX
  8
T20SSILL
 62
4
 10
-1123.331
 20
-1657.474
 30
3235.487
 70
    32
  0
VERTEX
  8
T20SSILL
 62
4
 10
-1096.670
 20
-1637.545
 30
3235.471
 70
    32
  0
VERTEX
  8
T20SSILL
 62
4
 10
-1093.847
 20
-1637.977
 30
3235.471
 70
    32
  0
VERTEX
  8
T20SSILL
 62
4
 10
-1031.302
 20
-1724.919
 30
3235.525
 70
    32
  0
VERTEX
  8
T20SSILL
 62
4
 10
-1049.081
 20
-1736.617
 30
3235.534
 70
    32
  0
VERTEX
  8
T20SSILL
 62
4
 10
-1063.644
 20
-1733.488
 30
3235.534
 70
    32
  0
VERTEX
  8
T20SSILL
 62
4
 10
-1068.259
 20
-1724.507
 30
3235.528
 70
    32
  0
VERTEX
  8
T20SSILL
 62
4
 10
-1058.961
 20
-1708.337
 30
3235.516
 70
    32
  0
VERTEX
  8
T20SSILL
 62
4
 10
-1064.188
 20
-1701.033
 30
3235.512
 70
    32
  0
VERTEX
  8
T20SSILL
 62
4
 10
-1066.915
 20
-1703.247
 30
3235.513
 70
    32
  0
VERTEX
  8
T20SSILL
 62
4
 10
-1077.769
 20
-1701.517
 30
3235.513
 70
    32
  0
VERTEX
  8
T20SSILL
 62
4
 10
-1081.502
 20
-1692.356
 30
3235.507
 70
    32
  0
VERTEX
  8
T20SSILL
 62
4
 10
-1097.444
 20
-1699.286
 30
3235.513
 70
    32
  0
VERTEX
  8
T20SSILL
 62
4
 10
-1091.233
 20
-1711.262
 30
3235.521
 70
    32
  0
VERTEX
  8
T20SSILL
 62
4
 10
-1104.873
 20
-1725.464
 30
3235.532
 70
    32
  0
VERTEX
  8
T20SSILL
 62
4
 10
-1128.991
 20
-1684.467
 30
3235.506
 70
    32
  0
VERTEX
  8
T20SSILL
 62
4
 10
-1136.740
 20
-1689.962
 30
3235.511
 70
    32
  0
VERTEX
  8
T20SSILL
 62
4
 10
-1107.195
 20
-1739.556
 30
3235.542
 70
    32
  0
VERTEX
  8
T20SSILL
 62
4
 10
-1115.363
 20
-1750.410
 30
3235.550
 70
    32
  0
VERTEX
  8
T20SSILL
 62
4
 10
-1108.382
 20
-1754.445
 30
3235.552
 70
    32
  0
VERTEX
  8
T20SSILL
 62
4
 10
-1101.338
 20
-1750.719
 30
3235.549
 70
    32
  0
VERTEX
  8
T20SSILL
 62
4
 10
-1091.317
 20
-1767.886
 30
3235.559
 70
    32
  0
VERTEX
  8
T20SSILL
 62
4
 10
-1110.414
 20
-1781.264
 30
3235.570
 70
    32
  0
VERTEX
  8
T20SSILL
 62
4
 10
-1106.710
 20
-1788.358
 30
3235.575
 70
    32
  0
VERTEX
  8
T20SSILL
 62
4
 10
-1087.767
 20
-1774.930
 30
3235.564
 70
    32
  0
VERTEX
  8
T20SSILL
 62
4
 10
-1079.882
 20
-1786.018
 30
3235.571
 70
    32
  0
VERTEX
  8
T20SSILL
 62
4
 10
-1082.952
 20
-1791.408
 30
3235.575
 70
    32
  0
VERTEX
  8
T20SSILL
 62
4
 10
-1080.637
 20
-1798.192
 30
3235.579
 70
    32
  0
VERTEX
  8
T20SSILL
 62
4
 10
-1075.789
 20
-1797.207
 30
3235.578
 70
    32
  0
VERTEX
  8
T20SSILL
 62
4
 10
-1074.295
 20
-1795.702
 30
3235.577
 70
    32
  0
VERTEX
  8
T20SSILL
 62
4
 10
-977.196
 20
-1961.779
 30
3235.681
 70
    32
  0
VERTEX
  8
T20SSILL
 62
4
 10
-988.263
 20
-1974.764
 30
3235.691
 70
    32
  0
VERTEX
  8
T20SSILL
 62
4
 10
-986.292
 20
-1986.126
 30
3235.698
 70
    32
  0
VERTEX
  8
T20SSILL
 62
4
 10
-973.162
 20
-1986.089
 30
3235.697
 70
    32
  0
VERTEX
  8
T20SSILL
 62
4
 10
-967.626
 20
-1980.698
 30
3235.693
 70
    32
  0
VERTEX
  8
T20SSILL
 62
4
 10
-961.288
 20
-1978.389
 30
3235.691
 70
    32
  0
VERTEX
  8
T20SSILL
 62
4
 10
-953.285
 20
-1972.639
 30
3235.686
 70
    32
  0
VERTEX
  8
T20SSILL
 62
4
 10
-942.306
 20
-1959.742
 30
3235.677
 70
    32
  0
VERTEX
  8
T20SSILL
 62
4
 10
-940.367
 20
-1959.913
 30
3235.676
 70
    32
  0
VERTEX
  8
T20SSILL
 62
4
 10
-939.390
 20
-1962.554
 30
3235.678
 70
    32
  0
VERTEX
  8
T20SSILL
 62
4
 10
-931.259
 20
-1971.079
 30
3235.683
 70
    32
  0
VERTEX
  8
T20SSILL
 62
4
 10
-931.695
 20
-1972.490
 30
3235.684
 70
    32
  0
VERTEX
  8
T20SSILL
 62
4
 10
-927.898
 20
-1975.387
 30
3235.686
 70
    32
  0
VERTEX
  8
T20SSILL
 62
4
 10
-922.619
 20
-1972.640
 30
3235.684
 70
    32
  0
VERTEX
  8
T20SSILL
 62
4
 10
-913.099
 20
-1942.124
 30
3235.662
 70
    32
  0
VERTEX
  8
T20SSILL
 62
4
 10
-910.814
 20
-1939.914
 30
3235.660
 70
    32
  0
VERTEX
  8
T20SSILL
 62
4
 10
-902.835
 20
-1925.792
 30
3235.650
 70
    32
  0
VERTEX
  8
T20SSILL
 62
4
 10
-899.409
 20
-1922.258
 30
3235.647
 70
    32
  0
VERTEX
  8
T20SSILL
 62
4
 10
-884.700
 20
-1950.856
 30
3235.665
 70
    32
  0
VERTEX
  8
T20SSILL
 62
4
 10
-886.345
 20
-1960.994
 30
3235.672
 70
    32
  0
VERTEX
  8
T20SSILL
 62
4
 10
-890.288
 20
-1969.289
 30
3235.678
 70
    32
  0
VERTEX
  8
T20SSILL
 62
4
 10
-885.603
 20
-1974.210
 30
3235.681
 70
    32
  0
VERTEX
  8
T20SSILL
 62
4
 10
-882.944
 20
-1979.666
 30
3235.685
 70
    32
  0
VERTEX
  8
T20SSILL
 62
4
 10
-884.244
 20
-1987.513
 30
3235.690
 70
    32
  0
VERTEX
  8
T20SSILL
 62
4
 10
-891.454
 20
-1992.997
 30
3235.695
 70
    32
  0
VERTEX
  8
T20SSILL
 62
4
 10
-895.155
 20
-1993.271
 30
3235.695
 70
    32
  0
VERTEX
  8
T20SSILL
 62
4
 10
-895.760
 20
-1997.503
 30
3235.698
 70
    32
  0
VERTEX
  8
T20SSILL
 62
4
 10
-891.583
 20
-2009.828
 30
3235.706
 70
    32
  0
VERTEX
  8
T20SSILL
 62
4
 10
-893.242
 20
-2015.296
 30
3235.710
 70
    32
  0
VERTEX
  8
T20SSILL
 62
4
 10
-896.226
 20
-2019.711
 30
3235.713
 70
    32
  0
VERTEX
  8
T20SSILL
 62
4
 10
-907.301
 20
-2029.788
 30
3235.721
 70
    32
  0
VERTEX
  8
T20SSILL
 62
4
 10
-902.616
 20
-2034.886
 30
3235.724
 70
    32
  0
VERTEX
  8
T20SSILL
 62
4
 10
-887.498
 20
-2021.096
 30
3235.713
 70
    32
  0
VERTEX
  8
T20SSILL
 62
4
 10
-883.571
 20
-2007.250
 30
3235.704
 70
    32
  0
VERTEX
  8
T20SSILL
 62
4
 10
-869.953
 20
-1992.936
 30
3235.693
 70
    32
  0
VERTEX
  8
T20SSILL
 62
4
 10
-866.004
 20
-1986.933
 30
3235.688
 70
    32
  0
VERTEX
  8
T20SSILL
 62
4
 10
-795.471
 20
-2124.908
 30
3235.776
 70
    32
  0
VERTEX
  8
T20SSILL
 62
4
 10
-795.538
 20
-2132.222
 30
3235.781
 70
    32
  0
VERTEX
  8
T20SSILL
 62
4
 10
-788.120
 20
-2138.017
 30
3235.784
 70
    32
  0
VERTEX
  8
T20SSILL
 62
4
 10
-782.179
 20
-2151.042
 30
3235.792
 70
    32
  0
VERTEX
  8
T20SSILL
 62
4
 10
-783.653
 20
-2159.682
 30
3235.798
 70
    32
  0
VERTEX
  8
T20SSILL
 62
4
 10
-780.542
 20
-2169.015
 30
3235.804
 70
    32
  0
VERTEX
  8
T20SSILL
 62
4
 10
-774.085
 20
-2177.544
 30
3235.809
 70
    32
  0
VERTEX
  8
T20SSILL
 62
4
 10
-767.727
 20
-2182.285
 30
3235.812
 70
    32
  0
VERTEX
  8
T20SSILL
 62
4
 10
-754.614
 20
-2207.450
 30
3235.828
 70
    32
  0
VERTEX
  8
T20SSILL
 62
4
 10
-749.245
 20
-2205.409
 30
3235.826
 70
    32
  0
VERTEX
  8
T20SSILL
 62
4
 10
-739.060
 20
-2191.985
 30
3235.816
 70
    32
  0
VERTEX
  8
T20SSILL
 62
4
 10
-735.684
 20
-2170.562
 30
3235.801
 70
    32
  0
VERTEX
  8
T20SSILL
 62
4
 10
-745.626
 20
-2145.035
 30
3235.785
 70
    32
  0
VERTEX
  8
T20SSILL
 62
4
 10
-752.513
 20
-2139.944
 30
3235.782
 70
    32
  0
VERTEX
  8
T20SSILL
 62
4
 10
-757.013
 20
-2138.106
 30
3235.781
 70
    32
  0
VERTEX
  8
T20SSILL
 62
4
 10
-767.313
 20
-2141.660
 30
3235.784
 70
    32
  0
VERTEX
  8
T20SSILL
 62
4
 10
-775.617
 20
-2134.457
 30
3235.780
 70
    32
  0
VERTEX
  8
T20SSILL
 62
4
 10
-780.820
 20
-2132.886
 30
3235.780
 70
    32
  0
VERTEX
  8
T20SSILL
 62
4
 10
-795.354
 20
-2103.935
 30
3235.761
 70
    32
  0
VERTEX
  8
T20SSILL
 62
4
 10
-791.517
 20
-2089.560
 30
3235.751
 70
    32
  0
VERTEX
  8
T20SSILL
 62
4
 10
-705.242
 20
-2028.425
 30
3235.702
 70
    32
  0
VERTEX
  8
T20SSILL
 62
4
 10
-698.724
 20
-2027.349
 30
3235.701
 70
    32
  0
VERTEX
  8
T20SSILL
 62
4
 10
-689.030
 20
-2027.851
 30
3235.700
 70
    32
  0
VERTEX
  8
T20SSILL
 62
4
 10
-684.444
 20
-2029.160
 30
3235.700
 70
    32
  0
VERTEX
  8
T20SSILL
 62
4
 10
-677.115
 20
-2034.514
 30
3235.703
 70
    32
  0
VERTEX
  8
T20SSILL
 62
4
 10
-429.141
 20
-2378.369
 30
3235.623
 70
    32
  0
VERTEX
  8
T20SSILL
 62
4
 10
-311.576
 20
-2538.771
 30
3235.945
 70
    32
  0
VERTEX
  8
T20SSILL
 62
4
 10
-305.298
 20
-2546.067
 30
3235.958
 70
    32
  0
VERTEX
  8
T20SSILL
 62
4
 10
-289.580
 20
-2557.831
 30
3235.967
 70
    32
  0
VERTEX
  8
T20SSILL
 62
4
 10
-280.313
 20
-2562.916
 30
3235.967
 70
    32
  0
VERTEX
  8
T20SSILL
 62
4
 10
-256.498
 20
-2570.603
 30
3235.947
 70
    32
  0
VERTEX
  8
T20SSILL
 62
4
 10
491.842
 20
-2732.046
 30
3234.953
 70
    32
  0
VERTEX
  8
T20SSILL
 62
4
 10
858.441
 20
-2814.542
 30
3235.236
 70
    32
  0
VERTEX
  8
T20SSILL
 62
4
 10
869.671
 20
-2820.853
 30
3235.249
 70
    32
  0
VERTEX
  8
T20SSILL
 62
4
 10
913.446
 20
-2882.321
 30
3235.472
 70
    32
  0
VERTEX
  8
T20SSILL
 62
4
 10
912.451
 20
-2895.161
 30
3235.534
 70
    32
  0
VERTEX
  8
T20SSILL
 62
4
 10
916.321
 20
-2900.601
 30
3235.554
 70
    32
  0
VERTEX
  8
T20SSILL
 62
4
 10
914.390
 20
-2904.969
 30
3235.578
 70
    32
  0
VERTEX
  8
T20SSILL
 62
4
 10
903.337
 20
-2918.117
 30
3235.657
 70
    32
  0
VERTEX
  8
T20SSILL
 62
4
 10
783.307
 20
-2968.730
 30
3235.668
 70
    32
  0
VERTEX
  8
T20SSILL
 62
4
 10
786.921
 20
-2976.982
 30
3235.615
 70
    32
  0
VERTEX
  8
T20SSILL
 62
4
 10
906.393
 20
-2926.751
 30
3235.693
 70
    32
  0
VERTEX
  8
T20SSILL
 62
4
 10
917.102
 20
-2918.914
 30
3235.639
 70
    32
  0
VERTEX
  8
T20SSILL
 62
4
 10
924.827
 20
-2907.898
 30
3235.575
 70
    32
  0
VERTEX
  8
T20SSILL
 62
4
 10
931.208
 20
-2907.945
 30
3235.565
 70
    32
  0
VERTEX
  8
T20SSILL
 62
4
 10
936.865
 20
-2915.253
 30
3235.591
 70
    32
  0
VERTEX
  8
T20SSILL
 62
4
 10
937.037
 20
-2921.804
 30
3235.622
 70
    32
  0
VERTEX
  8
T20SSILL
 62
4
 10
942.301
 20
-2922.392
 30
3235.616
 70
    32
  0
VERTEX
  8
T20SSILL
 62
4
 10
1211.383
 20
-3298.065
 30
3236.779
 70
    32
  0
VERTEX
  8
T20SSILL
 62
4
 10
1574.801
 20
-3806.026
 30
3236.394
 70
    32
  0
VERTEX
  8
T20SSILL
 62
4
 10
1587.685
 20
-3811.965
 30
3236.390
 70
    32
  0
VERTEX
  8
T20SSILL
 62
4
 10
1934.217
 20
-3887.083
 30
3236.559
 70
    32
  0
VERTEX
  8
T20SSILL
 62
4
 10
2078.760
 20
-3922.558
 30
3237.018
 70
    32
  0
VERTEX
  8
T20SSILL
 62
4
 10
2097.650
 20
-3934.688
 30
3237.048
 70
    32
  0
VERTEX
  8
T20SSILL
 62
4
 10
2121.542
 20
-3962.132
 30
3236.996
 70
    32
  0
VERTEX
  8
T20SSILL
 62
4
 10
2148.228
 20
-4283.000
 30
3236.456
 70
    32
  0
VERTEX
  8
T20SSILL
 62
4
 10
2164.284
 20
-4499.772
 30
3237.020
 70
    32
  0
VERTEX
  8
T20SSILL
 62
4
 10
2162.454
 20
-4506.775
 30
3237.033
 70
    32
  0
VERTEX
  8
T20SSILL
 62
4
 10
2165.297
 20
-4542.775
 30
3237.089
 70
    32
  0
VERTEX
  8
T20SSILL
 62
4
 10
2150.187
 20
-4543.721
 30
3237.103
 70
    32
  0
VERTEX
  8
T20SSILL
 62
4
 10
2117.761
 20
-4593.103
 30
3237.210
 70
    32
  0
VERTEX
  8
T20SSILL
 62
4
 10
2117.115
 20
-4614.328
 30
3237.245
 70
    32
  0
VERTEX
  8
T20SSILL
 62
4
 10
2123.898
 20
-4614.581
 30
3237.240
 70
    32
  0
VERTEX
  8
T20SSILL
 62
4
 10
2123.784
 20
-4626.376
 30
3237.259
 70
    32
  0
VERTEX
  8
T20SSILL
 62
4
 10
2171.567
 20
-4626.375
 30
3237.219
 70
    32
  0
VERTEX
  8
T20SSILL
 62
4
 10
2185.941
 20
-4805.844
 30
3237.497
 70
    32
  0
VERTEX
  8
T20SSILL
 62
4
 10
2193.762
 20
-4805.143
 30
3237.490
 70
    32
  0
VERTEX
  8
T20SSILL
 62
4
 10
2193.605
 20
-4796.569
 30
3237.476
 70
    32
  0
VERTEX
  8
T20SSILL
 62
4
 10
2202.107
 20
-4795.366
 30
3237.467
 70
    32
  0
VERTEX
  8
T20SSILL
 62
4
 10
2201.622
 20
-4787.372
 30
3237.454
 70
    32
  0
VERTEX
  8
T20SSILL
 62
4
 10
2192.492
 20
-4788.152
 30
3237.463
 70
    32
  0
VERTEX
  8
T20SSILL
 62
4
 10
2179.721
 20
-4618.934
 30
3237.200
 70
    32
  0
VERTEX
  8
T20SSILL
 62
4
 10
2198.960
 20
-4617.787
 30
3237.182
 70
    32
  0
VERTEX
  8
T20SSILL
 62
4
 10
2198.509
 20
-4611.023
 30
3237.171
 70
    32
  0
VERTEX
  8
T20SSILL
 62
4
 10
2178.466
 20
-4611.753
 30
3237.189
 70
    32
  0
VERTEX
  8
T20SSILL
 62
4
 10
2155.168
 20
-4282.465
 30
3236.455
 70
    32
  0
VERTEX
  8
T20SSILL
 62
4
 10
2107.014
 20
-3686.731
 30
3237.035
 70
    32
  0
VERTEX
  8
T20SSILL
 62
4
 10
2384.080
 20
-3492.178
 30
3236.304
 70
    32
  0
VERTEX
  8
T20SSILL
 62
4
 10
2400.819
 20
-3521.487
 30
3236.374
 70
    32
  0
VERTEX
  8
T20SSILL
 62
4
 10
2419.492
 20
-3573.280
 30
3236.503
 70
    32
  0
VERTEX
  8
T20SSILL
 62
4
 10
2427.413
 20
-3570.769
 30
3236.493
 70
    32
  0
VERTEX
  8
T20SSILL
 62
4
 10
2426.539
 20
-3568.688
 30
3236.488
 70
    32
  0
VERTEX
  8
T20SSILL
 62
4
 10
2439.840
 20
-3564.028
 30
3236.470
 70
    32
  0
VERTEX
  8
T20SSILL
 62
4
 10
2437.643
 20
-3557.416
 30
3236.453
 70
    32
  0
VERTEX
  8
T20SSILL
 62
4
 10
2423.676
 20
-3563.071
 30
3236.474
 70
    32
  0
VERTEX
  8
T20SSILL
 62
4
 10
2407.433
 20
-3517.088
 30
3236.360
 70
    32
  0
VERTEX
  8
T20SSILL
 62
4
 10
2389.909
 20
-3487.986
 30
3236.290
 70
    32
  0
VERTEX
  8
T20SSILL
 62
4
 10
2488.532
 20
-3418.230
 30
3236.065
 70
    32
  0
VERTEX
  8
T20SSILL
 62
4
 10
2572.970
 20
-3547.651
 30
3236.370
 70
    32
  0
VERTEX
  8
T20SSILL
 62
4
 10
2741.713
 20
-3665.901
 30
3236.423
 70
    32
  0
VERTEX
  8
T20SSILL
 62
4
 10
2741.737
 20
-3668.275
 30
3236.425
 70
    32
  0
VERTEX
  8
T20SSILL
 62
4
 10
2780.978
 20
-3696.888
 30
3236.391
 70
    32
  0
VERTEX
  8
T20SSILL
 62
4
 10
2902.719
 20
-3866.651
 30
3236.352
 70
    32
  0
VERTEX
  8
T20SSILL
 62
4
 10
2893.731
 20
-3873.248
 30
3236.370
 70
    32
  0
VERTEX
  8
T20SSILL
 62
4
 10
2917.288
 20
-3907.209
 30
3236.363
 70
    32
  0
VERTEX
  8
T20SSILL
 62
4
 10
2926.191
 20
-3900.788
 30
3236.345
 70
    32
  0
VERTEX
  8
T20SSILL
 62
4
 10
2946.079
 20
-3928.456
 30
3236.339
 70
    32
  0
VERTEX
  8
T20SSILL
 62
4
 10
2950.535
 20
-3925.773
 30
3236.330
 70
    32
  0
VERTEX
  8
T20SSILL
 62
4
 10
2952.399
 20
-3927.512
 30
3236.329
 70
    32
  0
VERTEX
  8
T20SSILL
 62
4
 10
3107.385
 20
-3917.227
 30
3236.102
 70
    32
  0
VERTEX
  8
T20SSILL
 62
4
 10
3491.456
 20
-4454.557
 30
3236.078
 70
    32
  0
VERTEX
  8
T20SSILL
 62
4
 10
3801.495
 20
-4885.120
 30
3236.189
 70
    32
  0
VERTEX
  8
T20SSILL
 62
4
 10
3785.121
 20
-4986.942
 30
3236.264
 70
    32
  0
VERTEX
  8
T20SSILL
 62
4
 10
3495.794
 20
-5194.147
 30
3236.556
 70
    32
  0
VERTEX
  8
T20SSILL
 62
4
 10
3493.639
 20
-5187.032
 30
3236.553
 70
    32
  0
VERTEX
  8
T20SSILL
 62
4
 10
3482.308
 20
-5190.444
 30
3236.560
 70
    32
  0
VERTEX
  8
T20SSILL
 62
4
 10
3487.529
 20
-5210.036
 30
3236.566
 70
    32
  0
VERTEX
  8
T20SSILL
 62
4
 10
3498.775
 20
-5206.977
 30
3236.563
 70
    32
  0
VERTEX
  8
T20SSILL
 62
4
 10
3497.528
 20
-5201.612
 30
3236.560
 70
    32
  0
VERTEX
  8
T20SSILL
 62
4
 10
3783.422
 20
-4997.248
 30
3236.272
 70
    32
  0
VERTEX
  8
T20SSILL
 62
4
 10
3979.081
 20
-5349.804
 30
3236.388
 70
    32
  0
VERTEX
  8
T20SSILL
 62
4
 10
3965.255
 20
-5359.314
 30
3236.402
 70
    32
  0
VERTEX
  8
T20SSILL
 62
4
 10
3968.608
 20
-5365.934
 30
3236.405
 70
    32
  0
VERTEX
  8
T20SSILL
 62
4
 10
3982.550
 20
-5356.336
 30
3236.391
 70
    32
  0
VERTEX
  8
T20SSILL
 62
4
 10
4177.656
 20
-5709.026
 30
3236.508
 70
    32
  0
VERTEX
  8
T20SSILL
 62
4
 10
4161.839
 20
-5720.545
 30
3236.524
 70
    32
  0
VERTEX
  8
T20SSILL
 62
4
 10
4166.342
 20
-5726.943
 30
3236.526
 70
    32
  0
VERTEX
  8
T20SSILL
 62
4
 10
4181.661
 20
-5715.959
 30
3236.510
 70
    32
  0
VERTEX
  8
T20SSILL
 62
4
 10
5108.765
 20
-7390.797
 30
3237.198
 70
    32
  0
VERTEX
  8
T20SSILL
 62
4
 10
5754.828
 20
-8560.188
 30
3240.565
 70
    32
  0
VERTEX
  8
T20SSILL
 62
4
 10
5874.323
 20
-8680.742
 30
3240.641
 70
    32
  0
VERTEX
  8
T20SSILL
 62
4
 10
5879.057
 20
-8676.840
 30
3240.611
 70
    32
  0
VERTEX
  8
T20SSILL
 62
4
 10
5873.966
 20
-8669.972
 30
3240.610
 70
    32
  0
VERTEX
  8
T20SSILL
 62
4
 10
5880.600
 20
-8656.947
 30
3240.454
 70
    32
  0
VERTEX
  8
T20SSILL
 62
4
 10
5880.627
 20
-8649.445
 30
3240.396
 70
    32
  0
VERTEX
  8
T20SSILL
 62
4
 10
5878.473
 20
-8646.559
 30
3240.392
 70
    32
  0
VERTEX
  8
T20SSILL
 62
4
 10
5871.716
 20
-8642.931
 30
3240.421
 70
    32
  0
VERTEX
  8
T20SSILL
 62
4
 10
5863.751
 20
-8641.034
 30
3240.473
 70
    32
  0
VERTEX
  8
T20SSILL
 62
4
 10
5859.195
 20
-8636.796
 30
3240.479
 70
    32
  0
VERTEX
  8
T20SSILL
 62
4
 10
5848.981
 20
-8633.315
 30
3240.538
 70
    32
  0
VERTEX
  8
T20SSILL
 62
4
 10
5840.756
 20
-8625.257
 30
3240.539
 70
    32
  0
VERTEX
  8
T20SSILL
 62
4
 10
5835.744
 20
-8627.406
 30
3240.585
 70
    32
  0
VERTEX
  8
T20SSILL
 62
4
 10
5829.638
 20
-8626.171
 30
3240.610
 70
    32
  0
VERTEX
  8
T20SSILL
 62
4
 10
5760.438
 20
-8555.672
 30
3240.554
 70
    32
  0
VERTEX
  8
T20SSILL
 62
4
 10
5128.477
 20
-7411.265
 30
3237.198
 70
    32
  0
VERTEX
  8
T20SSILL
 62
4
 10
3791.065
 20
-4995.002
 30
3236.266
 70
    32
  0
VERTEX
  8
T20SSILL
 62
4
 10
3809.587
 20
-4884.455
 30
3236.184
 70
    32
  0
VERTEX
  8
T20SSILL
 62
4
 10
3008.977
 20
-3768.152
 30
3236.125
 70
    32
  0
VERTEX
  8
T20SSILL
 62
4
 10
2910.536
 20
-3727.921
 30
3236.233
 70
    32
  0
VERTEX
  8
T20SSILL
 62
4
 10
2959.075
 20
-3616.559
 30
3236.078
 70
    32
  0
VERTEX
  8
T20SSILL
 62
4
 10
3032.109
 20
-3431.010
 30
3235.830
 70
    32
  0
VERTEX
  8
T20SSILL
 62
4
 10
3045.694
 20
-3437.152
 30
3235.816
 70
    32
  0
VERTEX
  8
T20SSILL
 62
4
 10
3045.176
 20
-3438.474
 30
3235.817
 70
    32
  0
VERTEX
  8
T20SSILL
 62
4
 10
3053.420
 20
-3441.729
 30
3235.808
 70
    32
  0
VERTEX
  8
T20SSILL
 62
4
 10
3058.434
 20
-3432.125
 30
3235.794
 70
    32
  0
VERTEX
  8
T20SSILL
 62
4
 10
3048.376
 20
-3431.329
 30
3235.807
 70
    32
  0
VERTEX
  8
T20SSILL
 62
4
 10
3034.001
 20
-3425.281
 30
3235.823
 70
    32
  0
VERTEX
  8
T20SSILL
 62
4
 10
3063.751
 20
-3354.044
 30
3235.651
 70
    32
  0
VERTEX
  8
T20SSILL
 62
4
 10
3056.501
 20
-3350.671
 30
3235.646
 70
    32
  0
VERTEX
  8
T20SSILL
 62
4
 10
3014.179
 20
-3455.672
 30
3235.875
 70
    32
  0
VERTEX
  8
T20SSILL
 62
4
 10
3000.867
 20
-3450.758
 30
3235.890
 70
    32
  0
VERTEX
  8
T20SSILL
 62
4
 10
2998.986
 20
-3457.894
 30
3235.898
 70
    32
  0
VERTEX
  8
T20SSILL
 62
4
 10
3011.242
 20
-3462.639
 30
3235.884
 70
    32
  0
VERTEX
  8
T20SSILL
 62
4
 10
2952.373
 20
-3614.606
 30
3236.086
 70
    32
  0
VERTEX
  8
T20SSILL
 62
4
 10
2903.919
 20
-3725.615
 30
3236.240
 70
    32
  0
VERTEX
  8
T20SSILL
 62
4
 10
2747.819
 20
-3661.179
 30
3236.410
 70
    32
  0
VERTEX
  8
T20SSILL
 62
4
 10
2691.686
 20
-3622.715
 30
3236.460
 70
    32
  0
VERTEX
  8
T20SSILL
 62
4
 10
2577.735
 20
-3541.033
 30
3236.351
 70
    32
  0
VERTEX
  8
T20SSILL
 62
4
 10
2544.657
 20
-3490.418
 30
3236.231
 70
    32
  0
VERTEX
  8
T20SSILL
 62
4
 10
2558.917
 20
-3480.962
 30
3236.200
 70
    32
  0
VERTEX
  8
T20SSILL
 62
4
 10
2565.192
 20
-3490.499
 30
3236.223
 70
    32
  0
VERTEX
  8
T20SSILL
 62
4
 10
2576.248
 20
-3482.490
 30
3236.197
 70
    32
  0
VERTEX
  8
T20SSILL
 62
4
 10
2570.115
 20
-3474.358
 30
3236.178
 70
    32
  0
VERTEX
  8
T20SSILL
 62
4
 10
2572.693
 20
-3472.671
 30
3236.172
 70
    32
  0
VERTEX
  8
T20SSILL
 62
4
 10
2568.751
 20
-3466.480
 30
3236.158
 70
    32
  0
VERTEX
  8
T20SSILL
 62
4
 10
2540.569
 20
-3485.025
 30
3236.219
 70
    32
  0
VERTEX
  8
T20SSILL
 62
4
 10
2451.790
 20
-3350.485
 30
3235.901
 70
    32
  0
VERTEX
  8
T20SSILL
 62
4
 10
2154.334
 20
-2876.164
 30
3234.577
 70
    32
  0
VERTEX
  8
T20SSILL
 62
4
 10
2149.048
 20
-2841.719
 30
3234.486
 70
    32
  0
VERTEX
  8
T20SSILL
 62
4
 10
2146.766
 20
-2842.276
 30
3234.483
 70
    32
  0
VERTEX
  8
T20SSILL
 62
4
 10
2149.491
 20
-2835.022
 30
3234.471
 70
    32
  0
VERTEX
  8
T20SSILL
 62
4
 10
2156.068
 20
-2833.000
 30
3234.478
 70
    32
  0
VERTEX
  8
T20SSILL
 62
4
 10
2158.339
 20
-2817.915
 30
3234.447
 70
    32
  0
VERTEX
  8
T20SSILL
 62
4
 10
2142.313
 20
-2817.769
 30
3234.417
 70
    32
  0
VERTEX
  8
T20SSILL
 62
4
 10
2137.731
 20
-2824.343
 30
3234.425
 70
    32
  0
VERTEX
  8
T20SSILL
 62
4
 10
2141.773
 20
-2830.542
 30
3234.447
 70
    32
  0
VERTEX
  8
T20SSILL
 62
4
 10
2138.410
 20
-2842.912
 30
3234.470
 70
    32
  0
VERTEX
  8
T20SSILL
 62
4
 10
2137.631
 20
-2843.890
 30
3234.471
 70
    32
  0
VERTEX
  8
T20SSILL
 62
4
 10
2133.911
 20
-2842.177
 30
3234.460
 70
    32
  0
VERTEX
  8
T20SSILL
 62
4
 10
2009.480
 20
-2641.628
 30
3233.783
 70
    32
  0
VERTEX
  8
T20SSILL
 62
4
 10
1992.161
 20
-2636.745
 30
3233.738
 70
    32
  0
VERTEX
  8
T20SSILL
 62
4
 10
1990.100
 20
-2633.954
 30
3233.728
 70
    32
  0
VERTEX
  8
T20SSILL
 62
4
 10
1989.251
 20
-2629.562
 30
3233.718
 70
    32
  0
VERTEX
  8
T20SSILL
 62
4
 10
1993.712
 20
-2627.304
 30
3233.723
 70
    32
  0
VERTEX
  8
T20SSILL
 62
4
 10
2012.900
 20
-2633.661
 30
3233.774
 70
    32
  0
VERTEX
  8
T20SSILL
 62
4
 10
2080.763
 20
-2681.656
 30
3234.007
 70
    32
  0
VERTEX
  8
T20SSILL
 62
4
 10
2086.245
 20
-2676.747
 30
3234.009
 70
    32
  0
VERTEX
  8
T20SSILL
 62
4
 10
2014.632
 20
-2624.570
 30
3233.760
 70
    32
  0
VERTEX
  8
T20SSILL
 62
4
 10
1998.802
 20
-2619.138
 30
3233.717
 70
    32
  0
SEQEND
  8
T20SSILL
  0
ENDSEC
  0
EOF
