999
********************************
999
*   DXF File - Entities Only   *
999
*        3D Data Format        *
999
*     Output from ENVISAGE     *
999
*     20-Dec-2007 09:06:06     *
999
********************************
  0
SECTION 
  2
HEADER
  9
$ACADVER
  1
AC1009
  9
$EXTMIN
 10
-290000.000
 20
-250000.000
 30
-4000.000
  9
$EXTMAX
 10
5000000.000
 20
600000.000
 30
6000.000
  0
ENDSEC
  0
SECTION
  2
ENTITIES
  0
POLYLINE
  8
T02SSILL
 62
6
 66
     1
 70
     9
  0
VERTEX
  8
T02SSILL
 62
6
 10
449.076
 20
-1023.123
 30
5036.938
 70
    32
  0
VERTEX
  8
T02SSILL
 62
6
 10
446.237
 20
-1019.967
 30
5036.941
 70
    32
  0
SEQEND
  8
T02SSILL
  0
POLYLINE
  8
T02SSILL
 62
6
 66
     1
 70
     9
  0
VERTEX
  8
T02SSILL
 62
6
 10
-483.094
 20
166.024
 30
5039.398
 70
    32
  0
VERTEX
  8
T02SSILL
 62
6
 10
-451.329
 20
148.282
 30
5039.276
 70
    32
  0
VERTEX
  8
T02SSILL
 62
6
 10
-411.561
 20
104.843
 30
5039.112
 70
    32
  0
VERTEX
  8
T02SSILL
 62
6
 10
-427.998
 20
88.694
 30
5039.160
 70
    32
  0
VERTEX
  8
T02SSILL
 62
6
 10
-442.017
 20
82.023
 30
5039.206
 70
    32
  0
VERTEX
  8
T02SSILL
 62
6
 10
-445.472
 20
90.395
 30
5039.223
 70
    32
  0
VERTEX
  8
T02SSILL
 62
6
 10
-431.541
 20
97.063
 30
5039.178
 70
    32
  0
VERTEX
  8
T02SSILL
 62
6
 10
-437.429
 20
107.755
 30
5039.204
 70
    32
  0
VERTEX
  8
T02SSILL
 62
6
 10
-450.662
 20
101.367
 30
5039.247
 70
    32
  0
VERTEX
  8
T02SSILL
 62
6
 10
-455.177
 20
113.587
 30
5039.270
 70
    32
  0
VERTEX
  8
T02SSILL
 62
6
 10
-461.861
 20
120.738
 30
5039.297
 70
    32
  0
VERTEX
  8
T02SSILL
 62
6
 10
-472.435
 20
143.470
 30
5039.348
 70
    32
  0
SEQEND
  8
T02SSILL
  0
POLYLINE
  8
T02SSILL
 62
6
 66
     1
 70
     9
  0
VERTEX
  8
T02SSILL
 62
6
 10
-323.333
 20
-3.403
 30
5038.741
 70
    32
  0
VERTEX
  8
T02SSILL
 62
6
 10
-334.676
 20
18.342
 30
5038.793
 70
    32
  0
VERTEX
  8
T02SSILL
 62
6
 10
-367.260
 20
55.875
 30
5038.929
 70
    32
  0
VERTEX
  8
T02SSILL
 62
6
 10
-367.951
 20
59.029
 30
5038.933
 70
    32
  0
VERTEX
  8
T02SSILL
 62
6
 10
-403.980
 20
97.009
 30
5039.081
 70
    32
  0
VERTEX
  8
T02SSILL
 62
6
 10
-409.614
 20
96.964
 30
5039.101
 70
    32
  0
VERTEX
  8
T02SSILL
 62
6
 10
-423.917
 20
83.683
 30
5039.143
 70
    32
  0
VERTEX
  8
T02SSILL
 62
6
 10
-438.894
 20
76.550
 30
5039.192
 70
    32
  0
VERTEX
  8
T02SSILL
 62
6
 10
-435.633
 20
68.966
 30
5039.176
 70
    32
  0
VERTEX
  8
T02SSILL
 62
6
 10
-430.229
 20
71.295
 30
5039.158
 70
    32
  0
VERTEX
  8
T02SSILL
 62
6
 10
-419.730
 20
48.033
 30
5039.108
 70
    32
  0
VERTEX
  8
T02SSILL
 62
6
 10
-382.101
 20
28.053
 30
5038.965
 70
    32
  0
SEQEND
  8
T02SSILL
  0
POLYLINE
  8
T02SSILL
 62
6
 66
     1
 70
     9
  0
VERTEX
  8
T02SSILL
 62
6
 10
-413.509
 20
38.142
 30
5039.081
 70
    32
  0
VERTEX
  8
T02SSILL
 62
6
 10
-410.971
 20
31.334
 30
5039.068
 70
    32
  0
VERTEX
  8
T02SSILL
 62
6
 10
-407.288
 20
28.251
 30
5039.053
 70
    32
  0
VERTEX
  8
T02SSILL
 62
6
 10
-402.727
 20
28.975
 30
5039.038
 70
    32
  0
VERTEX
  8
T02SSILL
 62
6
 10
-402.451
 20
32.239
 30
5039.038
 70
    32
  0
SEQEND
  8
T02SSILL
  0
POLYLINE
  8
T02SSILL
 62
6
 66
     1
 70
     9
  0
VERTEX
  8
T02SSILL
 62
6
 10
-239.070
 20
-59.265
 30
5038.414
 70
    32
  0
VERTEX
  8
T02SSILL
 62
6
 10
-336.942
 20
-75.927
 30
5038.747
 70
    32
  0
VERTEX
  8
T02SSILL
 62
6
 10
-347.301
 20
-77.228
 30
5038.782
 70
    32
  0
VERTEX
  8
T02SSILL
 62
6
 10
-355.984
 20
-74.967
 30
5038.814
 70
    32
  0
VERTEX
  8
T02SSILL
 62
6
 10
-369.030
 20
-66.910
 30
5038.864
 70
    32
  0
VERTEX
  8
T02SSILL
 62
6
 10
-374.258
 20
-61.751
 30
5038.886
 70
    32
  0
VERTEX
  8
T02SSILL
 62
6
 10
-412.735
 20
20.286
 30
5039.068
 70
    32
  0
VERTEX
  8
T02SSILL
 62
6
 10
-392.810
 20
26.656
 30
5039.002
 70
    32
  0
VERTEX
  8
T02SSILL
 62
6
 10
-387.750
 20
24.926
 30
5038.983
 70
    32
  0
VERTEX
  8
T02SSILL
 62
6
 10
-326.282
 20
-9.020
 30
5038.748
 70
    32
  0
VERTEX
  8
T02SSILL
 62
6
 10
-324.749
 20
-14.267
 30
5038.740
 70
    32
  0
VERTEX
  8
T02SSILL
 62
6
 10
-288.725
 20
-33.405
 30
5038.602
 70
    32
  0
SEQEND
  8
T02SSILL
  0
POLYLINE
  8
T02SSILL
 62
6
 66
     1
 70
     9
  0
VERTEX
  8
T02SSILL
 62
6
 10
-154.909
 20
-189.180
 30
5038.044
 70
    32
  0
VERTEX
  8
T02SSILL
 62
6
 10
-209.148
 20
-222.775
 30
5038.215
 70
    32
  0
VERTEX
  8
T02SSILL
 62
6
 10
-220.321
 20
-234.397
 30
5038.247
 70
    32
  0
VERTEX
  8
T02SSILL
 62
6
 10
-228.028
 20
-239.862
 30
5038.271
 70
    32
  0
VERTEX
  8
T02SSILL
 62
6
 10
-237.100
 20
-243.510
 30
5038.301
 70
    32
  0
VERTEX
  8
T02SSILL
 62
6
 10
-245.081
 20
-244.843
 30
5038.328
 70
    32
  0
VERTEX
  8
T02SSILL
 62
6
 10
-274.048
 20
-263.577
 30
5038.419
 70
    32
  0
VERTEX
  8
T02SSILL
 62
6
 10
-303.033
 20
-199.455
 30
5038.557
 70
    32
  0
VERTEX
  8
T02SSILL
 62
6
 10
-308.050
 20
-184.605
 30
5038.583
 70
    32
  0
VERTEX
  8
T02SSILL
 62
6
 10
-318.018
 20
-146.538
 30
5038.640
 70
    32
  0
VERTEX
  8
T02SSILL
 62
6
 10
-344.398
 20
-88.342
 30
5038.766
 70
    32
  0
VERTEX
  8
T02SSILL
 62
6
 10
-342.796
 20
-85.310
 30
5038.762
 70
    32
  0
VERTEX
  8
T02SSILL
 62
6
 10
-338.903
 20
-82.401
 30
5038.750
 70
    32
  0
VERTEX
  8
T02SSILL
 62
6
 10
-229.621
 20
-64.149
 30
5038.378
 70
    32
  0
VERTEX
  8
T02SSILL
 62
6
 10
-222.506
 20
-67.151
 30
5038.351
 70
    32
  0
VERTEX
  8
T02SSILL
 62
6
 10
-211.745
 20
-86.620
 30
5038.302
 70
    32
  0
SEQEND
  8
T02SSILL
  0
POLYLINE
  8
T02SSILL
 62
6
 66
     1
 70
     9
  0
VERTEX
  8
T02SSILL
 62
6
 10
-245.313
 20
-253.654
 30
5038.324
 70
    32
  0
VERTEX
  8
T02SSILL
 62
6
 10
-271.013
 20
-269.053
 30
5038.405
 70
    32
  0
VERTEX
  8
T02SSILL
 62
6
 10
-270.328
 20
-271.942
 30
5038.401
 70
    32
  0
VERTEX
  8
T02SSILL
 62
6
 10
-265.409
 20
-275.172
 30
5038.382
 70
    32
  0
VERTEX
  8
T02SSILL
 62
6
 10
-243.040
 20
-256.682
 30
5038.314
 70
    32
  0
SEQEND
  8
T02SSILL
  0
POLYLINE
  8
T02SSILL
 62
6
 66
     1
 70
     9
  0
VERTEX
  8
T02SSILL
 62
6
 10
-276.826
 20
-272.712
 30
5038.423
 70
    32
  0
VERTEX
  8
T02SSILL
 62
6
 10
-278.070
 20
-290.880
 30
5038.417
 70
    32
  0
VERTEX
  8
T02SSILL
 62
6
 10
-280.346
 20
-291.462
 30
5038.425
 70
    32
  0
VERTEX
  8
T02SSILL
 62
6
 10
-295.409
 20
-283.717
 30
5038.482
 70
    32
  0
SEQEND
  8
T02SSILL
  0
POLYLINE
  8
T02SSILL
 62
6
 66
     1
 70
     9
  0
VERTEX
  8
T02SSILL
 62
6
 10
-279.356
 20
-266.256
 30
5038.436
 70
    32
  0
VERTEX
  8
T02SSILL
 62
6
 10
-301.114
 20
-280.769
 30
5038.504
 70
    32
  0
VERTEX
  8
T02SSILL
 62
6
 10
-306.939
 20
-272.718
 30
5038.529
 70
    32
  0
VERTEX
  8
T02SSILL
 62
6
 10
-327.062
 20
-199.846
 30
5038.641
 70
    32
  0
VERTEX
  8
T02SSILL
 62
6
 10
-324.580
 20
-196.794
 30
5038.634
 70
    32
  0
VERTEX
  8
T02SSILL
 62
6
 10
-314.141
 20
-195.139
 30
5038.599
 70
    32
  0
VERTEX
  8
T02SSILL
 62
6
 10
-309.662
 20
-198.379
 30
5038.581
 70
    32
  0
VERTEX
  8
T02SSILL
 62
6
 10
-293.496
 20
-234.187
 30
5038.504
 70
    32
  0
SEQEND
  8
T02SSILL
  0
POLYLINE
  8
T02SSILL
 62
6
 66
     1
 70
     9
  0
VERTEX
  8
T02SSILL
 62
6
 10
-351.748
 20
-108.943
 30
5038.780
 70
    32
  0
VERTEX
  8
T02SSILL
 62
6
 10
-357.768
 20
-88.922
 30
5038.812
 70
    32
  0
VERTEX
  8
T02SSILL
 62
6
 10
-356.121
 20
-87.826
 30
5038.807
 70
    32
  0
VERTEX
  8
T02SSILL
 62
6
 10
-347.351
 20
-93.783
 30
5038.773
 70
    32
  0
VERTEX
  8
T02SSILL
 62
6
 10
-341.446
 20
-108.964
 30
5038.744
 70
    32
  0
VERTEX
  8
T02SSILL
 62
6
 10
-325.455
 20
-141.078
 30
5038.669
 70
    32
  0
VERTEX
  8
T02SSILL
 62
6
 10
-320.722
 20
-155.054
 30
5038.645
 70
    32
  0
VERTEX
  8
T02SSILL
 62
6
 10
-313.356
 20
-187.372
 30
5038.600
 70
    32
  0
VERTEX
  8
T02SSILL
 62
6
 10
-316.368
 20
-190.348
 30
5038.609
 70
    32
  0
VERTEX
  8
T02SSILL
 62
6
 10
-323.303
 20
-191.216
 30
5038.633
 70
    32
  0
VERTEX
  8
T02SSILL
 62
6
 10
-326.490
 20
-190.499
 30
5038.644
 70
    32
  0
VERTEX
  8
T02SSILL
 62
6
 10
-329.031
 20
-187.301
 30
5038.655
 70
    32
  0
SEQEND
  8
T02SSILL
  0
POLYLINE
  8
T02SSILL
 62
6
 66
     1
 70
     9
  0
VERTEX
  8
T02SSILL
 62
6
 10
-457.371
 20
-58.341
 30
5039.179
 70
    32
  0
VERTEX
  8
T02SSILL
 62
6
 10
-448.526
 20
-52.585
 30
5039.151
 70
    32
  0
VERTEX
  8
T02SSILL
 62
6
 10
-424.259
 20
-54.830
 30
5039.065
 70
    32
  0
VERTEX
  8
T02SSILL
 62
6
 10
-386.242
 20
-76.298
 30
5038.919
 70
    32
  0
VERTEX
  8
T02SSILL
 62
6
 10
-383.440
 20
-71.917
 30
5038.912
 70
    32
  0
VERTEX
  8
T02SSILL
 62
6
 10
-395.350
 20
-44.814
 30
5038.969
 70
    32
  0
VERTEX
  8
T02SSILL
 62
6
 10
-417.296
 20
-55.106
 30
5039.040
 70
    32
  0
VERTEX
  8
T02SSILL
 62
6
 10
-427.854
 20
-33.078
 30
5039.090
 70
    32
  0
VERTEX
  8
T02SSILL
 62
6
 10
-411.566
 20
-25.561
 30
5039.037
 70
    32
  0
VERTEX
  8
T02SSILL
 62
6
 10
-413.892
 20
-20.245
 30
5039.048
 70
    32
  0
VERTEX
  8
T02SSILL
 62
6
 10
-420.174
 20
-22.683
 30
5039.069
 70
    32
  0
VERTEX
  8
T02SSILL
 62
6
 10
-422.397
 20
-18.068
 30
5039.079
 70
    32
  0
VERTEX
  8
T02SSILL
 62
6
 10
-428.155
 20
-20.317
 30
5039.098
 70
    32
  0
VERTEX
  8
T02SSILL
 62
6
 10
-436.277
 20
-11.968
 30
5039.132
 70
    32
  0
VERTEX
  8
T02SSILL
 62
6
 10
-469.654
 20
10.666
 30
5039.262
 70
    32
  0
VERTEX
  8
T02SSILL
 62
6
 10
-473.815
 20
11.624
 30
5039.277
 70
    32
  0
VERTEX
  8
T02SSILL
 62
6
 10
-497.267
 20
1.737
 30
5039.353
 70
    32
  0
VERTEX
  8
T02SSILL
 62
6
 10
-496.913
 20
-5.827
 30
5039.348
 70
    32
  0
SEQEND
  8
T02SSILL
  0
POLYLINE
  8
T02SSILL
 62
6
 66
     1
 70
     9
  0
VERTEX
  8
T02SSILL
 62
6
 10
-554.872
 20
-53.421
 30
5039.523
 70
    32
  0
VERTEX
  8
T02SSILL
 62
6
 10
-539.713
 20
-106.247
 30
5039.440
 70
    32
  0
VERTEX
  8
T02SSILL
 62
6
 10
-452.201
 20
-221.466
 30
5039.067
 70
    32
  0
VERTEX
  8
T02SSILL
 62
6
 10
-440.693
 20
-216.616
 30
5039.030
 70
    32
  0
VERTEX
  8
T02SSILL
 62
6
 10
-437.557
 20
-222.617
 30
5039.015
 70
    32
  0
VERTEX
  8
T02SSILL
 62
6
 10
-450.893
 20
-228.391
 30
5039.059
 70
    32
  0
VERTEX
  8
T02SSILL
 62
6
 10
-437.661
 20
-259.249
 30
5038.994
 70
    32
  0
VERTEX
  8
T02SSILL
 62
6
 10
-433.844
 20
-260.568
 30
5038.980
 70
    32
  0
VERTEX
  8
T02SSILL
 62
6
 10
-423.809
 20
-256.721
 30
5038.947
 70
    32
  0
VERTEX
  8
T02SSILL
 62
6
 10
-426.957
 20
-250.191
 30
5038.962
 70
    32
  0
VERTEX
  8
T02SSILL
 62
6
 10
-384.117
 20
-229.809
 30
5038.824
 70
    32
  0
VERTEX
  8
T02SSILL
 62
6
 10
-376.168
 20
-245.735
 30
5038.787
 70
    32
  0
VERTEX
  8
T02SSILL
 62
6
 10
-381.656
 20
-248.242
 30
5038.805
 70
    32
  0
VERTEX
  8
T02SSILL
 62
6
 10
-363.119
 20
-283.818
 30
5038.719
 70
    32
  0
VERTEX
  8
T02SSILL
 62
6
 10
-359.622
 20
-286.465
 30
5038.705
 70
    32
  0
VERTEX
  8
T02SSILL
 62
6
 10
-324.423
 20
-274.363
 30
5038.589
 70
    32
  0
VERTEX
  8
T02SSILL
 62
6
 10
-321.436
 20
-270.331
 30
5038.581
 70
    32
  0
VERTEX
  8
T02SSILL
 62
6
 10
-323.814
 20
-266.601
 30
5038.591
 70
    32
  0
VERTEX
  8
T02SSILL
 62
6
 10
-321.219
 20
-264.602
 30
5038.583
 70
    32
  0
VERTEX
  8
T02SSILL
 62
6
 10
-331.343
 20
-231.117
 30
5038.638
 70
    32
  0
VERTEX
  8
T02SSILL
 62
6
 10
-336.162
 20
-232.112
 30
5038.654
 70
    32
  0
VERTEX
  8
T02SSILL
 62
6
 10
-350.726
 20
-178.392
 30
5038.736
 70
    32
  0
VERTEX
  8
T02SSILL
 62
6
 10
-357.850
 20
-182.434
 30
5038.759
 70
    32
  0
VERTEX
  8
T02SSILL
 62
6
 10
-366.677
 20
-166.617
 30
5038.799
 70
    32
  0
VERTEX
  8
T02SSILL
 62
6
 10
-355.985
 20
-160.729
 30
5038.765
 70
    32
  0
VERTEX
  8
T02SSILL
 62
6
 10
-356.781
 20
-156.874
 30
5038.770
 70
    32
  0
VERTEX
  8
T02SSILL
 62
6
 10
-363.170
 20
-158.522
 30
5038.791
 70
    32
  0
VERTEX
  8
T02SSILL
 62
6
 10
-373.983
 20
-118.185
 30
5038.852
 70
    32
  0
VERTEX
  8
T02SSILL
 62
6
 10
-386.241
 20
-121.116
 30
5038.894
 70
    32
  0
VERTEX
  8
T02SSILL
 62
6
 10
-388.467
 20
-112.627
 30
5038.906
 70
    32
  0
VERTEX
  8
T02SSILL
 62
6
 10
-392.105
 20
-115.179
 30
5038.918
 70
    32
  0
VERTEX
  8
T02SSILL
 62
6
 10
-400.157
 20
-106.035
 30
5038.951
 70
    32
  0
VERTEX
  8
T02SSILL
 62
6
 10
-391.768
 20
-99.586
 30
5038.925
 70
    32
  0
VERTEX
  8
T02SSILL
 62
6
 10
-402.809
 20
-75.720
 30
5038.978
 70
    32
  0
VERTEX
  8
T02SSILL
 62
6
 10
-426.477
 20
-61.574
 30
5039.069
 70
    32
  0
VERTEX
  8
T02SSILL
 62
6
 10
-445.097
 20
-59.812
 30
5039.135
 70
    32
  0
VERTEX
  8
T02SSILL
 62
6
 10
-457.503
 20
-67.677
 30
5039.174
 70
    32
  0
VERTEX
  8
T02SSILL
 62
6
 10
-451.326
 20
-75.720
 30
5039.148
 70
    32
  0
VERTEX
  8
T02SSILL
 62
6
 10
-456.525
 20
-79.277
 30
5039.164
 70
    32
  0
VERTEX
  8
T02SSILL
 62
6
 10
-453.148
 20
-84.304
 30
5039.149
 70
    32
  0
VERTEX
  8
T02SSILL
 62
6
 10
-457.910
 20
-87.763
 30
5039.164
 70
    32
  0
VERTEX
  8
T02SSILL
 62
6
 10
-437.405
 20
-117.128
 30
5039.075
 70
    32
  0
VERTEX
  8
T02SSILL
 62
6
 10
-442.005
 20
-119.966
 30
5039.090
 70
    32
  0
VERTEX
  8
T02SSILL
 62
6
 10
-407.116
 20
-169.332
 30
5038.939
 70
    32
  0
VERTEX
  8
T02SSILL
 62
6
 10
-431.545
 20
-186.374
 30
5039.015
 70
    32
  0
VERTEX
  8
T02SSILL
 62
6
 10
-462.514
 20
-142.639
 30
5039.148
 70
    32
  0
VERTEX
  8
T02SSILL
 62
6
 10
-468.147
 20
-146.470
 30
5039.166
 70
    32
  0
VERTEX
  8
T02SSILL
 62
6
 10
-492.372
 20
-112.438
 30
5039.270
 70
    32
  0
VERTEX
  8
T02SSILL
 62
6
 10
-497.225
 20
-115.722
 30
5039.286
 70
    32
  0
VERTEX
  8
T02SSILL
 62
6
 10
-545.957
 20
-46.871
 30
5039.496
 70
    32
  0
SEQEND
  8
T02SSILL
  0
POLYLINE
  8
T02SSILL
 62
6
 66
     1
 70
     9
  0
VERTEX
  8
T02SSILL
 62
6
 10
-420.477
 20
-263.598
 30
5038.932
 70
    32
  0
VERTEX
  8
T02SSILL
 62
6
 10
-432.859
 20
-268.733
 30
5038.972
 70
    32
  0
VERTEX
  8
T02SSILL
 62
6
 10
-433.783
 20
-270.604
 30
5038.974
 70
    32
  0
VERTEX
  8
T02SSILL
 62
6
 10
-421.085
 20
-304.997
 30
5038.910
 70
    32
  0
VERTEX
  8
T02SSILL
 62
6
 10
-418.743
 20
-307.231
 30
5038.901
 70
    32
  0
VERTEX
  8
T02SSILL
 62
6
 10
-414.772
 20
-307.578
 30
5038.886
 70
    32
  0
VERTEX
  8
T02SSILL
 62
6
 10
-397.013
 20
-298.970
 30
5038.829
 70
    32
  0
VERTEX
  8
T02SSILL
 62
6
 10
-403.562
 20
-286.357
 30
5038.859
 70
    32
  0
VERTEX
  8
T02SSILL
 62
6
 10
-408.531
 20
-288.499
 30
5038.876
 70
    32
  0
SEQEND
  8
T02SSILL
  0
POLYLINE
  8
T02SSILL
 62
6
 66
     1
 70
     9
  0
VERTEX
  8
T02SSILL
 62
6
 10
-516.724
 20
-147.617
 30
5039.336
 70
    32
  0
VERTEX
  8
T02SSILL
 62
6
 10
-580.261
 20
-171.569
 30
5039.544
 70
    32
  0
VERTEX
  8
T02SSILL
 62
6
 10
-581.751
 20
-175.567
 30
5039.547
 70
    32
  0
VERTEX
  8
T02SSILL
 62
6
 10
-527.259
 20
-294.471
 30
5039.288
 70
    32
  0
VERTEX
  8
T02SSILL
 62
6
 10
-523.535
 20
-299.314
 30
5039.272
 70
    32
  0
VERTEX
  8
T02SSILL
 62
6
 10
-516.336
 20
-302.138
 30
5039.245
 70
    32
  0
VERTEX
  8
T02SSILL
 62
6
 10
-510.217
 20
-300.232
 30
5039.225
 70
    32
  0
VERTEX
  8
T02SSILL
 62
6
 10
-447.773
 20
-267.324
 30
5039.025
 70
    32
  0
VERTEX
  8
T02SSILL
 62
6
 10
-444.425
 20
-259.937
 30
5039.018
 70
    32
  0
VERTEX
  8
T02SSILL
 62
6
 10
-463.033
 20
-217.671
 30
5039.107
 70
    32
  0
SEQEND
  8
T02SSILL
  0
POLYLINE
  8
T02SSILL
 62
6
 66
     1
 70
     9
  0
VERTEX
  8
T02SSILL
 62
6
 10
-591.794
 20
-37.299
 30
5039.662
 70
    32
  0
VERTEX
  8
T02SSILL
 62
6
 10
-600.409
 20
-34.156
 30
5039.683
 70
    32
  0
VERTEX
  8
T02SSILL
 62
6
 10
-626.832
 20
-52.478
 30
5039.741
 70
    32
  0
VERTEX
  8
T02SSILL
 62
6
 10
-631.646
 20
-64.919
 30
5039.750
 70
    32
  0
VERTEX
  8
T02SSILL
 62
6
 10
-587.484
 20
-163.991
 30
5039.574
 70
    32
  0
VERTEX
  8
T02SSILL
 62
6
 10
-583.404
 20
-165.215
 30
5039.559
 70
    32
  0
VERTEX
  8
T02SSILL
 62
6
 10
-524.520
 20
-141.901
 30
5039.366
 70
    32
  0
VERTEX
  8
T02SSILL
 62
6
 10
-523.534
 20
-138.884
 30
5039.364
 70
    32
  0
VERTEX
  8
T02SSILL
 62
6
 10
-545.076
 20
-110.336
 30
5039.456
 70
    32
  0
VERTEX
  8
T02SSILL
 62
6
 10
-559.974
 20
-61.114
 30
5039.537
 70
    32
  0
SEQEND
  8
T02SSILL
  0
POLYLINE
  8
T02SSILL
 62
6
 66
     1
 70
     9
  0
VERTEX
  8
T02SSILL
 62
6
 10
904.555
 20
-725.513
 30
5032.338
 70
    32
  0
VERTEX
  8
T02SSILL
 62
6
 10
1085.006
 20
-934.856
 30
5030.987
 70
    32
  0
VERTEX
  8
T02SSILL
 62
6
 10
1095.466
 20
-948.928
 30
5030.904
 70
    32
  0
VERTEX
  8
T02SSILL
 62
6
 10
1108.028
 20
-977.308
 30
5030.787
 70
    32
  0
VERTEX
  8
T02SSILL
 62
6
 10
1107.717
 20
-984.531
 30
5030.770
 70
    32
  0
VERTEX
  8
T02SSILL
 62
6
 10
1136.963
 20
-1050.373
 30
5030.513
 70
    32
  0
VERTEX
  8
T02SSILL
 62
6
 10
1135.451
 20
-1054.448
 30
5030.497
 70
    32
  0
VERTEX
  8
T02SSILL
 62
6
 10
1143.029
 20
-1074.732
 30
5030.421
 70
    32
  0
VERTEX
  8
T02SSILL
 62
6
 10
1143.400
 20
-1084.046
 30
5030.386
 70
    32
  0
VERTEX
  8
T02SSILL
 62
6
 10
1135.183
 20
-1088.866
 30
5030.419
 70
    32
  0
VERTEX
  8
T02SSILL
 62
6
 10
1126.323
 20
-1090.520
 30
5030.497
 70
    32
  0
VERTEX
  8
T02SSILL
 62
6
 10
1121.275
 20
-1088.761
 30
5030.544
 70
    32
  0
VERTEX
  8
T02SSILL
 62
6
 10
1117.261
 20
-1070.878
 30
5030.547
 70
    32
  0
VERTEX
  8
T02SSILL
 62
6
 10
1117.099
 20
-1056.799
 30
5030.576
 70
    32
  0
VERTEX
  8
T02SSILL
 62
6
 10
1108.654
 20
-1047.179
 30
5030.639
 70
    32
  0
VERTEX
  8
T02SSILL
 62
6
 10
1099.771
 20
-1042.585
 30
5030.694
 70
    32
  0
VERTEX
  8
T02SSILL
 62
6
 10
1078.841
 20
-1038.556
 30
5030.849
 70
    32
  0
VERTEX
  8
T02SSILL
 62
6
 10
1069.983
 20
-1035.369
 30
5030.931
 70
    32
  0
VERTEX
  8
T02SSILL
 62
6
 10
1065.744
 20
-1029.636
 30
5030.960
 70
    32
  0
VERTEX
  8
T02SSILL
 62
6
 10
1063.195
 20
-1019.912
 30
5030.961
 70
    32
  0
VERTEX
  8
T02SSILL
 62
6
 10
1058.720
 20
-1020.695
 30
5031.009
 70
    32
  0
VERTEX
  8
T02SSILL
 62
6
 10
1060.762
 20
-1031.572
 30
5031.016
 70
    32
  0
VERTEX
  8
T02SSILL
 62
6
 10
1052.287
 20
-1035.068
 30
5031.113
 70
    32
  0
VERTEX
  8
T02SSILL
 62
6
 10
1040.837
 20
-1024.710
 30
5031.203
 70
    32
  0
VERTEX
  8
T02SSILL
 62
6
 10
1041.392
 20
-1021.267
 30
5031.189
 70
    32
  0
VERTEX
  8
T02SSILL
 62
6
 10
1048.296
 20
-1013.575
 30
5031.097
 70
    32
  0
VERTEX
  8
T02SSILL
 62
6
 10
1043.827
 20
-1009.694
 30
5031.133
 70
    32
  0
VERTEX
  8
T02SSILL
 62
6
 10
1075.399
 20
-973.664
 30
5030.958
 70
    32
  0
VERTEX
  8
T02SSILL
 62
6
 10
1056.988
 20
-957.885
 30
5031.085
 70
    32
  0
VERTEX
  8
T02SSILL
 62
6
 10
1019.479
 20
-1001.590
 30
5031.362
 70
    32
  0
VERTEX
  8
T02SSILL
 62
6
 10
1014.888
 20
-1000.791
 30
5031.407
 70
    32
  0
VERTEX
  8
T02SSILL
 62
6
 10
915.936
 20
-910.225
 30
5032.187
 70
    32
  0
VERTEX
  8
T02SSILL
 62
6
 10
911.274
 20
-900.451
 30
5032.209
 70
    32
  0
VERTEX
  8
T02SSILL
 62
6
 10
865.673
 20
-875.122
 30
5032.612
 70
    32
  0
VERTEX
  8
T02SSILL
 62
6
 10
835.099
 20
-843.541
 30
5032.843
 70
    32
  0
VERTEX
  8
T02SSILL
 62
6
 10
845.029
 20
-837.731
 30
5032.726
 70
    32
  0
VERTEX
  8
T02SSILL
 62
6
 10
867.127
 20
-796.072
 30
5032.389
 70
    32
  0
SEQEND
  8
T02SSILL
  0
POLYLINE
  8
T02SSILL
 62
6
 66
     1
 70
     9
  0
VERTEX
  8
T02SSILL
 62
6
 10
963.111
 20
-979.533
 30
5031.884
 70
    32
  0
VERTEX
  8
T02SSILL
 62
6
 10
970.653
 20
-973.062
 30
5031.790
 70
    32
  0
VERTEX
  8
T02SSILL
 62
6
 10
969.781
 20
-968.589
 30
5031.787
 70
    32
  0
VERTEX
  8
T02SSILL
 62
6
 10
914.136
 20
-917.914
 30
5032.226
 70
    32
  0
VERTEX
  8
T02SSILL
 62
6
 10
908.260
 20
-919.075
 30
5032.289
 70
    32
  0
VERTEX
  8
T02SSILL
 62
6
 10
915.070
 20
-930.836
 30
5032.250
 70
    32
  0
VERTEX
  8
T02SSILL
 62
6
 10
927.034
 20
-945.321
 30
5032.165
 70
    32
  0
SEQEND
  8
T02SSILL
  0
POLYLINE
  8
T02SSILL
 62
6
 66
     1
 70
     9
  0
VERTEX
  8
T02SSILL
 62
6
 10
825.084
 20
-849.528
 30
5032.962
 70
    32
  0
VERTEX
  8
T02SSILL
 62
6
 10
828.858
 20
-848.932
 30
5032.922
 70
    32
  0
VERTEX
  8
T02SSILL
 62
6
 10
832.138
 20
-850.282
 30
5032.892
 70
    32
  0
VERTEX
  8
T02SSILL
 62
6
 10
862.880
 20
-881.420
 30
5032.657
 70
    32
  0
VERTEX
  8
T02SSILL
 62
6
 10
905.620
 20
-904.248
 30
5032.278
 70
    32
  0
VERTEX
  8
T02SSILL
 62
6
 10
907.581
 20
-910.550
 30
5032.274
 70
    32
  0
VERTEX
  8
T02SSILL
 62
6
 10
902.586
 20
-911.783
 30
5032.329
 70
    32
  0
VERTEX
  8
T02SSILL
 62
6
 10
898.229
 20
-909.308
 30
5032.367
 70
    32
  0
VERTEX
  8
T02SSILL
 62
6
 10
875.598
 20
-913.583
 30
5032.611
 70
    32
  0
VERTEX
  8
T02SSILL
 62
6
 10
868.163
 20
-921.108
 30
5032.707
 70
    32
  0
VERTEX
  8
T02SSILL
 62
6
 10
800.845
 20
-936.651
 30
5033.441
 70
    32
  0
VERTEX
  8
T02SSILL
 62
6
 10
797.318
 20
-936.274
 30
5033.476
 70
    32
  0
VERTEX
  8
T02SSILL
 62
6
 10
786.589
 20
-911.997
 30
5033.523
 70
    32
  0
VERTEX
  8
T02SSILL
 62
6
 10
779.149
 20
-899.455
 30
5033.566
 70
    32
  0
VERTEX
  8
T02SSILL
 62
6
 10
775.249
 20
-887.995
 30
5033.576
 70
    32
  0
VERTEX
  8
T02SSILL
 62
6
 10
775.113
 20
-880.340
 30
5033.558
 70
    32
  0
VERTEX
  8
T02SSILL
 62
6
 10
783.208
 20
-875.268
 30
5033.461
 70
    32
  0
SEQEND
  8
T02SSILL
  0
POLYLINE
  8
T02SSILL
 62
6
 66
     1
 70
     9
  0
VERTEX
  8
T02SSILL
 62
6
 10
783.319
 20
-921.120
 30
5033.581
 70
    32
  0
VERTEX
  8
T02SSILL
 62
6
 10
777.136
 20
-924.839
 30
5033.654
 70
    32
  0
VERTEX
  8
T02SSILL
 62
6
 10
762.268
 20
-944.994
 30
5033.860
 70
    32
  0
VERTEX
  8
T02SSILL
 62
6
 10
786.284
 20
-939.374
 30
5033.598
 70
    32
  0
VERTEX
  8
T02SSILL
 62
6
 10
788.495
 20
-935.022
 30
5033.564
 70
    32
  0
SEQEND
  8
T02SSILL
  0
POLYLINE
  8
T02SSILL
 62
6
 66
     1
 70
     9
  0
VERTEX
  8
T02SSILL
 62
6
 10
489.929
 20
-1116.708
 30
5036.943
 70
    32
  0
VERTEX
  8
T02SSILL
 62
6
 10
467.675
 20
-1122.384
 30
5037.002
 70
    32
  0
VERTEX
  8
T02SSILL
 62
6
 10
463.229
 20
-1119.823
 30
5037.009
 70
    32
  0
VERTEX
  8
T02SSILL
 62
6
 10
454.163
 20
-1085.131
 30
5036.993
 70
    32
  0
VERTEX
  8
T02SSILL
 62
6
 10
455.161
 20
-1076.928
 30
5036.982
 70
    32
  0
VERTEX
  8
T02SSILL
 62
6
 10
467.783
 20
-1044.315
 30
5036.916
 70
    32
  0
VERTEX
  8
T02SSILL
 62
6
 10
479.950
 20
-1060.381
 30
5036.905
 70
    32
  0
VERTEX
  8
T02SSILL
 62
6
 10
477.369
 20
-1063.683
 30
5036.915
 70
    32
  0
VERTEX
  8
T02SSILL
 62
6
 10
478.787
 20
-1074.132
 30
5036.923
 70
    32
  0
VERTEX
  8
T02SSILL
 62
6
 10
484.056
 20
-1073.510
 30
5036.910
 70
    32
  0
SEQEND
  8
T02SSILL
  0
POLYLINE
  8
T02SSILL
 62
6
 66
     1
 70
     9
  0
VERTEX
  8
T02SSILL
 62
6
 10
468.420
 20
-1015.788
 30
5036.884
 70
    32
  0
VERTEX
  8
T02SSILL
 62
6
 10
470.139
 20
-1018.397
 30
5036.883
 70
    32
  0
VERTEX
  8
T02SSILL
 62
6
 10
466.850
 20
-1026.465
 30
5036.899
 70
    32
  0
VERTEX
  8
T02SSILL
 62
6
 10
464.218
 20
-1026.952
 30
5036.906
 70
    32
  0
VERTEX
  8
T02SSILL
 62
6
 10
458.710
 20
-1019.129
 30
5036.910
 70
    32
  0
VERTEX
  8
T02SSILL
 62
6
 10
459.299
 20
-1017.622
 30
5036.907
 70
    32
  0
SEQEND
  8
T02SSILL
  0
POLYLINE
  8
T02SSILL
 62
6
 66
     1
 70
     9
  0
VERTEX
  8
T02SSILL
 62
6
 10
446.237
 20
-1019.967
 30
5036.941
 70
    32
  0
VERTEX
  8
T02SSILL
 62
6
 10
433.951
 20
-1021.818
 30
5036.972
 70
    32
  0
VERTEX
  8
T02SSILL
 62
6
 10
428.251
 20
-1043.762
 30
5037.009
 70
    32
  0
VERTEX
  8
T02SSILL
 62
6
 10
431.032
 20
-1055.411
 30
5037.015
 70
    32
  0
VERTEX
  8
T02SSILL
 62
6
 10
441.038
 20
-1068.813
 30
5037.006
 70
    32
  0
VERTEX
  8
T02SSILL
 62
6
 10
446.979
 20
-1073.307
 30
5036.997
 70
    32
  0
VERTEX
  8
T02SSILL
 62
6
 10
458.050
 20
-1045.323
 30
5036.941
 70
    32
  0
VERTEX
  8
T02SSILL
 62
6
 10
458.293
 20
-1036.711
 30
5036.931
 70
    32
  0
VERTEX
  8
T02SSILL
 62
6
 10
449.076
 20
-1023.123
 30
5036.938
 70
    32
  0
SEQEND
  8
T02SSILL
  0
POLYLINE
  8
T02SSILL
 62
6
 66
     1
 70
     9
  0
VERTEX
  8
T02SSILL
 62
6
 10
-147.481
 20
-197.729
 30
5038.013
 70
    32
  0
VERTEX
  8
T02SSILL
 62
6
 10
-196.829
 20
-227.420
 30
5038.169
 70
    32
  0
VERTEX
  8
T02SSILL
 62
6
 10
-206.943
 20
-240.547
 30
5038.197
 70
    32
  0
VERTEX
  8
T02SSILL
 62
6
 10
-231.371
 20
-261.055
 30
5038.271
 70
    32
  0
VERTEX
  8
T02SSILL
 62
6
 10
-267.398
 20
-288.297
 30
5038.381
 70
    32
  0
VERTEX
  8
T02SSILL
 62
6
 10
-268.533
 20
-295.953
 30
5038.381
 70
    32
  0
VERTEX
  8
T02SSILL
 62
6
 10
-266.902
 20
-299.886
 30
5038.373
 70
    32
  0
VERTEX
  8
T02SSILL
 62
6
 10
-228.530
 20
-319.787
 30
5038.188
 70
    32
  0
VERTEX
  8
T02SSILL
 62
6
 10
-203.068
 20
-318.854
 30
5038.092
 70
    32
  0
VERTEX
  8
T02SSILL
 62
6
 10
-184.147
 20
-307.550
 30
5038.049
 70
    32
  0
VERTEX
  8
T02SSILL
 62
6
 10
-180.386
 20
-299.158
 30
5038.057
 70
    32
  0
VERTEX
  8
T02SSILL
 62
6
 10
-191.651
 20
-283.399
 30
5038.119
 70
    32
  0
VERTEX
  8
T02SSILL
 62
6
 10
-194.454
 20
-277.021
 30
5038.132
 70
    32
  0
VERTEX
  8
T02SSILL
 62
6
 10
-199.434
 20
-279.192
 30
5038.148
 70
    32
  0
VERTEX
  8
T02SSILL
 62
6
 10
-205.531
 20
-269.254
 30
5038.175
 70
    32
  0
VERTEX
  8
T02SSILL
 62
6
 10
-194.448
 20
-263.406
 30
5038.140
 70
    32
  0
VERTEX
  8
T02SSILL
 62
6
 10
-177.938
 20
-291.222
 30
5038.066
 70
    32
  0
VERTEX
  8
T02SSILL
 62
6
 10
-160.581
 20
-295.397
 30
5037.991
 70
    32
  0
VERTEX
  8
T02SSILL
 62
6
 10
-154.898
 20
-293.218
 30
5037.975
 70
    32
  0
VERTEX
  8
T02SSILL
 62
6
 10
-145.045
 20
-294.413
 30
5037.934
 70
    32
  0
VERTEX
  8
T02SSILL
 62
6
 10
-98.199
 20
-289.436
 30
5037.767
 70
    32
  0
VERTEX
  8
T02SSILL
 62
6
 10
-103.170
 20
-280.187
 30
5037.811
 70
    32
  0
SEQEND
  8
T02SSILL
  0
POLYLINE
  8
T02SSILL
 62
6
 66
     1
 70
     9
  0
VERTEX
  8
T02SSILL
 62
6
 10
-266.015
 20
-307.605
 30
5038.365
 70
    32
  0
VERTEX
  8
T02SSILL
 62
6
 10
-262.895
 20
-318.371
 30
5038.324
 70
    32
  0
VERTEX
  8
T02SSILL
 62
6
 10
-257.420
 20
-320.674
 30
5038.297
 70
    32
  0
VERTEX
  8
T02SSILL
 62
6
 10
-241.705
 20
-319.951
 30
5038.238
 70
    32
  0
SEQEND
  8
T02SSILL
  0
POLYLINE
  8
T02SSILL
 62
6
 66
     1
 70
     9
  0
VERTEX
  8
T02SSILL
 62
6
 10
-94.236
 20
-297.293
 30
5037.730
 70
    32
  0
VERTEX
  8
T02SSILL
 62
6
 10
-138.295
 20
-300.390
 30
5037.892
 70
    32
  0
VERTEX
  8
T02SSILL
 62
6
 10
-103.929
 20
-323.064
 30
5037.698
 70
    32
  0
VERTEX
  8
T02SSILL
 62
6
 10
-89.378
 20
-327.626
 30
5037.630
 70
    32
  0
VERTEX
  8
T02SSILL
 62
6
 10
-80.747
 20
-322.335
 30
5037.611
 70
    32
  0
SEQEND
  8
T02SSILL
  0
POLYLINE
  8
T02SSILL
 62
6
 66
     1
 70
     9
  0
VERTEX
  8
T02SSILL
 62
6
 10
-216.157
 20
-325.869
 30
5038.124
 70
    32
  0
VERTEX
  8
T02SSILL
 62
6
 10
-202.632
 20
-325.613
 30
5038.072
 70
    32
  0
VERTEX
  8
T02SSILL
 62
6
 10
-196.471
 20
-326.590
 30
5038.046
 70
    32
  0
VERTEX
  8
T02SSILL
 62
6
 10
-181.248
 20
-321.656
 30
5038.000
 70
    32
  0
VERTEX
  8
T02SSILL
 62
6
 10
-162.684
 20
-309.918
 30
5037.960
 70
    32
  0
VERTEX
  8
T02SSILL
 62
6
 10
-148.370
 20
-302.536
 30
5037.925
 70
    32
  0
VERTEX
  8
T02SSILL
 62
6
 10
-99.923
 20
-334.345
 30
5037.653
 70
    32
  0
VERTEX
  8
T02SSILL
 62
6
 10
-78.086
 20
-345.580
 30
5037.538
 70
    32
  0
VERTEX
  8
T02SSILL
 62
6
 10
-66.987
 20
-347.989
 30
5037.489
 70
    32
  0
VERTEX
  8
T02SSILL
 62
6
 10
-57.278
 20
-365.788
 30
5037.417
 70
    32
  0
VERTEX
  8
T02SSILL
 62
6
 10
-56.788
 20
-369.911
 30
5037.421
 70
    32
  0
VERTEX
  8
T02SSILL
 62
6
 10
-58.067
 20
-373.001
 30
5037.427
 70
    32
  0
VERTEX
  8
T02SSILL
 62
6
 10
-75.749
 20
-377.965
 30
5037.474
 70
    32
  0
VERTEX
  8
T02SSILL
 62
6
 10
-119.106
 20
-373.938
 30
5037.620
 70
    32
  0
VERTEX
  8
T02SSILL
 62
6
 10
-143.763
 20
-361.948
 30
5037.748
 70
    32
  0
SEQEND
  8
T02SSILL
  0
POLYLINE
  8
T02SSILL
 62
6
 66
     1
 70
     9
  0
VERTEX
  8
T02SSILL
 62
6
 10
-78.644
 20
-328.985
 30
5037.585
 70
    32
  0
VERTEX
  8
T02SSILL
 62
6
 10
-87.099
 20
-334.273
 30
5037.603
 70
    32
  0
VERTEX
  8
T02SSILL
 62
6
 10
-74.864
 20
-336.229
 30
5037.551
 70
    32
  0
SEQEND
  8
T02SSILL
  0
POLYLINE
  8
T02SSILL
 62
6
 66
     1
 70
     9
  0
VERTEX
  8
T02SSILL
 62
6
 10
-249.137
 20
-442.408
 30
5037.953
 70
    32
  0
VERTEX
  8
T02SSILL
 62
6
 10
-241.789
 20
-468.142
 30
5037.964
 70
    32
  0
VERTEX
  8
T02SSILL
 62
6
 10
-231.805
 20
-465.734
 30
5037.938
 70
    32
  0
VERTEX
  8
T02SSILL
 62
6
 10
-227.291
 20
-482.544
 30
5037.946
 70
    32
  0
VERTEX
  8
T02SSILL
 62
6
 10
-215.210
 20
-479.230
 30
5037.913
 70
    32
  0
VERTEX
  8
T02SSILL
 62
6
 10
-212.789
 20
-490.181
 30
5037.920
 70
    32
  0
VERTEX
  8
T02SSILL
 62
6
 10
-197.083
 20
-488.755
 30
5037.881
 70
    32
  0
VERTEX
  8
T02SSILL
 62
6
 10
-178.108
 20
-481.842
 30
5037.829
 70
    32
  0
VERTEX
  8
T02SSILL
 62
6
 10
-161.255
 20
-473.726
 30
5037.780
 70
    32
  0
VERTEX
  8
T02SSILL
 62
6
 10
-194.399
 20
-408.170
 30
5037.819
 70
    32
  0
VERTEX
  8
T02SSILL
 62
6
 10
-231.251
 20
-431.220
 30
5037.899
 70
    32
  0
SEQEND
  8
T02SSILL
  0
POLYLINE
  8
T02SSILL
 62
6
 66
     1
 70
     9
  0
VERTEX
  8
T02SSILL
 62
6
 10
-303.430
 20
-301.044
 30
5038.500
 70
    32
  0
VERTEX
  8
T02SSILL
 62
6
 10
-296.179
 20
-297.879
 30
5038.477
 70
    32
  0
VERTEX
  8
T02SSILL
 62
6
 10
-285.717
 20
-298.539
 30
5038.440
 70
    32
  0
VERTEX
  8
T02SSILL
 62
6
 10
-274.501
 20
-303.406
 30
5038.397
 70
    32
  0
VERTEX
  8
T02SSILL
 62
6
 10
-269.470
 20
-319.419
 30
5038.347
 70
    32
  0
VERTEX
  8
T02SSILL
 62
6
 10
-272.774
 20
-322.095
 30
5038.352
 70
    32
  0
VERTEX
  8
T02SSILL
 62
6
 10
-268.224
 20
-327.748
 30
5038.320
 70
    32
  0
VERTEX
  8
T02SSILL
 62
6
 10
-228.880
 20
-326.994
 30
5038.170
 70
    32
  0
VERTEX
  8
T02SSILL
 62
6
 10
-156.489
 20
-362.897
 30
5037.794
 70
    32
  0
VERTEX
  8
T02SSILL
 62
6
 10
-168.510
 20
-371.041
 30
5037.819
 70
    32
  0
VERTEX
  8
T02SSILL
 62
6
 10
-165.814
 20
-375.839
 30
5037.795
 70
    32
  0
VERTEX
  8
T02SSILL
 62
6
 10
-191.789
 20
-392.062
 30
5037.852
 70
    32
  0
VERTEX
  8
T02SSILL
 62
6
 10
-204.257
 20
-371.399
 30
5037.956
 70
    32
  0
VERTEX
  8
T02SSILL
 62
6
 10
-212.278
 20
-376.242
 30
5037.974
 70
    32
  0
VERTEX
  8
T02SSILL
 62
6
 10
-219.227
 20
-368.423
 30
5038.021
 70
    32
  0
VERTEX
  8
T02SSILL
 62
6
 10
-228.709
 20
-375.920
 30
5038.038
 70
    32
  0
VERTEX
  8
T02SSILL
 62
6
 10
-210.581
 20
-399.587
 30
5037.904
 70
    32
  0
VERTEX
  8
T02SSILL
 62
6
 10
-202.822
 20
-394.923
 30
5037.887
 70
    32
  0
VERTEX
  8
T02SSILL
 62
6
 10
-201.469
 20
-397.717
 30
5037.874
 70
    32
  0
VERTEX
  8
T02SSILL
 62
6
 10
-252.634
 20
-429.715
 30
5037.986
 70
    32
  0
VERTEX
  8
T02SSILL
 62
6
 10
-257.153
 20
-412.466
 30
5038.049
 70
    32
  0
VERTEX
  8
T02SSILL
 62
6
 10
-286.452
 20
-366.451
 30
5038.286
 70
    32
  0
VERTEX
  8
T02SSILL
 62
6
 10
-300.364
 20
-313.293
 30
5038.482
 70
    32
  0
SEQEND
  8
T02SSILL
  0
POLYLINE
  8
T02SSILL
 62
6
 66
     1
 70
     9
  0
VERTEX
  8
T02SSILL
 62
6
 10
-188.733
 20
-404.673
 30
5037.806
 70
    32
  0
VERTEX
  8
T02SSILL
 62
6
 10
-171.077
 20
-439.854
 30
5037.766
 70
    32
  0
VERTEX
  8
T02SSILL
 62
6
 10
-137.277
 20
-417.208
 30
5037.662
 70
    32
  0
VERTEX
  8
T02SSILL
 62
6
 10
-150.076
 20
-398.130
 30
5037.675
 70
    32
  0
VERTEX
  8
T02SSILL
 62
6
 10
-167.634
 20
-391.936
 30
5037.759
 70
    32
  0
SEQEND
  8
T02SSILL
  0
POLYLINE
  8
T02SSILL
 62
6
 66
     1
 70
     9
  0
VERTEX
  8
T02SSILL
 62
6
 10
-159.439
 20
-386.915
 30
5037.741
 70
    32
  0
VERTEX
  8
T02SSILL
 62
6
 10
-145.139
 20
-392.534
 30
5037.671
 70
    32
  0
VERTEX
  8
T02SSILL
 62
6
 10
-134.674
 20
-407.513
 30
5037.645
 70
    32
  0
VERTEX
  8
T02SSILL
 62
6
 10
-128.918
 20
-404.191
 30
5037.628
 70
    32
  0
VERTEX
  8
T02SSILL
 62
6
 10
-135.196
 20
-393.904
 30
5037.632
 70
    32
  0
VERTEX
  8
T02SSILL
 62
6
 10
-120.462
 20
-384.935
 30
5037.596
 70
    32
  0
VERTEX
  8
T02SSILL
 62
6
 10
-124.398
 20
-379.275
 30
5037.626
 70
    32
  0
VERTEX
  8
T02SSILL
 62
6
 10
-136.958
 20
-372.316
 30
5037.693
 70
    32
  0
SEQEND
  8
T02SSILL
  0
POLYLINE
  8
T02SSILL
 62
6
 66
     1
 70
     9
  0
VERTEX
  8
T02SSILL
 62
6
 10
-198.931
 20
-495.542
 30
5037.893
 70
    32
  0
VERTEX
  8
T02SSILL
 62
6
 10
-193.836
 20
-516.736
 30
5037.904
 70
    32
  0
VERTEX
  8
T02SSILL
 62
6
 10
-187.966
 20
-515.433
 30
5037.889
 70
    32
  0
VERTEX
  8
T02SSILL
 62
6
 10
-174.127
 20
-519.301
 30
5037.860
 70
    32
  0
VERTEX
  8
T02SSILL
 62
6
 10
-142.673
 20
-505.733
 30
5037.771
 70
    32
  0
VERTEX
  8
T02SSILL
 62
6
 10
-157.066
 20
-478.593
 30
5037.776
 70
    32
  0
VERTEX
  8
T02SSILL
 62
6
 10
-174.790
 20
-487.247
 30
5037.827
 70
    32
  0
SEQEND
  8
T02SSILL
  0
POLYLINE
  8
T02SSILL
 62
6
 66
     1
 70
     9
  0
VERTEX
  8
T02SSILL
 62
6
 10
-72.893
 20
-402.701
 30
5037.494
 70
    32
  0
VERTEX
  8
T02SSILL
 62
6
 10
-78.419
 20
-389.242
 30
5037.493
 70
    32
  0
VERTEX
  8
T02SSILL
 62
6
 10
-77.325
 20
-385.452
 30
5037.486
 70
    32
  0
VERTEX
  8
T02SSILL
 62
6
 10
-52.388
 20
-377.586
 30
5037.419
 70
    32
  0
VERTEX
  8
T02SSILL
 62
6
 10
-48.685
 20
-378.682
 30
5037.411
 70
    32
  0
VERTEX
  8
T02SSILL
 62
6
 10
-11.775
 20
-415.203
 30
5037.364
 70
    32
  0
VERTEX
  8
T02SSILL
 62
6
 10
-1.654
 20
-423.773
 30
5037.349
 70
    32
  0
VERTEX
  8
T02SSILL
 62
6
 10
1.476
 20
-428.214
 30
5037.347
 70
    32
  0
VERTEX
  8
T02SSILL
 62
6
 10
5.718
 20
-444.324
 30
5037.354
 70
    32
  0
VERTEX
  8
T02SSILL
 62
6
 10
3.019
 20
-446.291
 30
5037.363
 70
    32
  0
VERTEX
  8
T02SSILL
 62
6
 10
-4.895
 20
-445.599
 30
5037.380
 70
    32
  0
VERTEX
  8
T02SSILL
 62
6
 10
-6.626
 20
-440.613
 30
5037.379
 70
    32
  0
VERTEX
  8
T02SSILL
 62
6
 10
-12.661
 20
-442.709
 30
5037.396
 70
    32
  0
VERTEX
  8
T02SSILL
 62
6
 10
-19.367
 20
-426.278
 30
5037.394
 70
    32
  0
VERTEX
  8
T02SSILL
 62
6
 10
-24.870
 20
-428.719
 30
5037.409
 70
    32
  0
VERTEX
  8
T02SSILL
 62
6
 10
-31.400
 20
-412.286
 30
5037.407
 70
    32
  0
VERTEX
  8
T02SSILL
 62
6
 10
-36.558
 20
-414.282
 30
5037.421
 70
    32
  0
VERTEX
  8
T02SSILL
 62
6
 10
-38.829
 20
-408.250
 30
5037.420
 70
    32
  0
VERTEX
  8
T02SSILL
 62
6
 10
-43.978
 20
-410.949
 30
5037.435
 70
    32
  0
VERTEX
  8
T02SSILL
 62
6
 10
-46.508
 20
-405.271
 30
5037.435
 70
    32
  0
VERTEX
  8
T02SSILL
 62
6
 10
-51.663
 20
-407.531
 30
5037.449
 70
    32
  0
VERTEX
  8
T02SSILL
 62
6
 10
-56.809
 20
-396.352
 30
5037.449
 70
    32
  0
SEQEND
  8
T02SSILL
  0
POLYLINE
  8
T02SSILL
 62
6
 66
     1
 70
     9
  0
VERTEX
  8
T02SSILL
 62
6
 10
-132.208
 20
-422.152
 30
5037.655
 70
    32
  0
VERTEX
  8
T02SSILL
 62
6
 10
-167.942
 20
-444.734
 30
5037.764
 70
    32
  0
VERTEX
  8
T02SSILL
 62
6
 10
-137.954
 20
-503.741
 30
5037.758
 70
    32
  0
VERTEX
  8
T02SSILL
 62
6
 10
-91.794
 20
-486.036
 30
5037.630
 70
    32
  0
VERTEX
  8
T02SSILL
 62
6
 10
-85.781
 20
-482.184
 30
5037.611
 70
    32
  0
VERTEX
  8
T02SSILL
 62
6
 10
-82.405
 20
-478.189
 30
5037.599
 70
    32
  0
VERTEX
  8
T02SSILL
 62
6
 10
-84.780
 20
-470.840
 30
5037.596
 70
    32
  0
VERTEX
  8
T02SSILL
 62
6
 10
-101.797
 20
-444.699
 30
5037.608
 70
    32
  0
SEQEND
  8
T02SSILL
  0
POLYLINE
  8
T02SSILL
 62
6
 66
     1
 70
     9
  0
VERTEX
  8
T02SSILL
 62
6
 10
-91.636
 20
-491.656
 30
5037.635
 70
    32
  0
VERTEX
  8
T02SSILL
 62
6
 10
-117.595
 20
-502.082
 30
5037.708
 70
    32
  0
VERTEX
  8
T02SSILL
 62
6
 10
-104.051
 20
-531.604
 30
5037.708
 70
    32
  0
VERTEX
  8
T02SSILL
 62
6
 10
-94.888
 20
-547.828
 30
5037.704
 70
    32
  0
VERTEX
  8
T02SSILL
 62
6
 10
-66.579
 20
-535.704
 30
5037.624
 70
    32
  0
VERTEX
  8
T02SSILL
 62
6
 10
-55.250
 20
-535.475
 30
5037.597
 70
    32
  0
VERTEX
  8
T02SSILL
 62
6
 10
-45.100
 20
-532.274
 30
5037.570
 70
    32
  0
VERTEX
  8
T02SSILL
 62
6
 10
-41.710
 20
-529.420
 30
5037.559
 70
    32
  0
VERTEX
  8
T02SSILL
 62
6
 10
-47.245
 20
-515.259
 30
5037.556
 70
    32
  0
SEQEND
  8
T02SSILL
  0
POLYLINE
  8
T02SSILL
 62
6
 66
     1
 70
     9
  0
VERTEX
  8
T02SSILL
 62
6
 10
24.022
 20
-432.852
 30
5037.298
 70
    32
  0
VERTEX
  8
T02SSILL
 62
6
 10
24.312
 20
-427.929
 30
5037.292
 70
    32
  0
VERTEX
  8
T02SSILL
 62
6
 10
18.916
 20
-424.922
 30
5037.302
 70
    32
  0
VERTEX
  8
T02SSILL
 62
6
 10
3.396
 20
-420.109
 30
5037.333
 70
    32
  0
VERTEX
  8
T02SSILL
 62
6
 10
7.614
 20
-427.347
 30
5037.331
 70
    32
  0
VERTEX
  8
T02SSILL
 62
6
 10
9.462
 20
-434.615
 30
5037.335
 70
    32
  0
VERTEX
  8
T02SSILL
 62
6
 10
14.251
 20
-438.245
 30
5037.327
 70
    32
  0
SEQEND
  8
T02SSILL
  0
POLYLINE
  8
T02SSILL
 62
6
 66
     1
 70
     9
  0
VERTEX
  8
T02SSILL
 62
6
 10
26.290
 20
-438.621
 30
5037.299
 70
    32
  0
VERTEX
  8
T02SSILL
 62
6
 10
26.245
 20
-442.048
 30
5037.303
 70
    32
  0
VERTEX
  8
T02SSILL
 62
6
 10
16.176
 20
-458.776
 30
5037.345
 70
    32
  0
VERTEX
  8
T02SSILL
 62
6
 10
12.518
 20
-447.226
 30
5037.341
 70
    32
  0
VERTEX
  8
T02SSILL
 62
6
 10
14.947
 20
-444.736
 30
5037.333
 70
    32
  0
SEQEND
  8
T02SSILL
  0
POLYLINE
  8
T02SSILL
 62
6
 66
     1
 70
     9
  0
VERTEX
  8
T02SSILL
 62
6
 10
-17.141
 20
-463.847
 30
5037.429
 70
    32
  0
VERTEX
  8
T02SSILL
 62
6
 10
1.838
 20
-457.198
 30
5037.377
 70
    32
  0
VERTEX
  8
T02SSILL
 62
6
 10
8.906
 20
-460.448
 30
5037.364
 70
    32
  0
VERTEX
  8
T02SSILL
 62
6
 10
11.251
 20
-465.338
 30
5037.364
 70
    32
  0
VERTEX
  8
T02SSILL
 62
6
 10
5.979
 20
-472.255
 30
5037.384
 70
    32
  0
VERTEX
  8
T02SSILL
 62
6
 10
-3.505
 20
-479.576
 30
5037.414
 70
    32
  0
VERTEX
  8
T02SSILL
 62
6
 10
-6.739
 20
-480.847
 30
5037.423
 70
    32
  0
VERTEX
  8
T02SSILL
 62
6
 10
-11.871
 20
-477.924
 30
5037.432
 70
    32
  0
SEQEND
  8
T02SSILL
  0
POLYLINE
  8
T02SSILL
 62
6
 66
     1
 70
     9
  0
VERTEX
  8
T02SSILL
 62
6
 10
-263.666
 20
-503.025
 30
5038.054
 70
    32
  0
VERTEX
  8
T02SSILL
 62
6
 10
-241.583
 20
-498.709
 30
5037.997
 70
    32
  0
VERTEX
  8
T02SSILL
 62
6
 10
-240.282
 20
-504.403
 30
5038.000
 70
    32
  0
VERTEX
  8
T02SSILL
 62
6
 10
-261.444
 20
-512.133
 30
5038.058
 70
    32
  0
SEQEND
  8
T02SSILL
  0
POLYLINE
  8
T02SSILL
 62
6
 66
     1
 70
     9
  0
VERTEX
  8
T02SSILL
 62
6
 10
-270.146
 20
-504.600
 30
5038.071
 70
    32
  0
VERTEX
  8
T02SSILL
 62
6
 10
-295.570
 20
-508.694
 30
5038.135
 70
    32
  0
VERTEX
  8
T02SSILL
 62
6
 10
-300.938
 20
-514.910
 30
5038.155
 70
    32
  0
VERTEX
  8
T02SSILL
 62
6
 10
-294.922
 20
-525.376
 30
5038.152
 70
    32
  0
VERTEX
  8
T02SSILL
 62
6
 10
-268.963
 20
-514.950
 30
5038.079
 70
    32
  0
SEQEND
  8
T02SSILL
  0
POLYLINE
  8
T02SSILL
 62
6
 66
     1
 70
     9
  0
VERTEX
  8
T02SSILL
 62
6
 10
-336.806
 20
-808.488
 30
5038.559
 70
    32
  0
VERTEX
  8
T02SSILL
 62
6
 10
-340.903
 20
-810.999
 30
5038.571
 70
    32
  0
VERTEX
  8
T02SSILL
 62
6
 10
-343.205
 20
-816.561
 30
5038.583
 70
    32
  0
VERTEX
  8
T02SSILL
 62
6
 10
-341.993
 20
-822.168
 30
5038.586
 70
    32
  0
VERTEX
  8
T02SSILL
 62
6
 10
-334.522
 20
-836.657
 30
5038.584
 70
    32
  0
VERTEX
  8
T02SSILL
 62
6
 10
-310.535
 20
-900.483
 30
5038.597
 70
    32
  0
VERTEX
  8
T02SSILL
 62
6
 10
-234.840
 20
-1032.269
 30
5038.470
 70
    32
  0
VERTEX
  8
T02SSILL
 62
6
 10
-230.678
 20
-1034.940
 30
5038.462
 70
    32
  0
VERTEX
  8
T02SSILL
 62
6
 10
-92.392
 20
-980.334
 30
5038.169
 70
    32
  0
VERTEX
  8
T02SSILL
 62
6
 10
-87.879
 20
-975.973
 30
5038.154
 70
    32
  0
VERTEX
  8
T02SSILL
 62
6
 10
-86.274
 20
-970.858
 30
5038.144
 70
    32
  0
VERTEX
  8
T02SSILL
 62
6
 10
-103.233
 20
-928.115
 30
5038.138
 70
    32
  0
VERTEX
  8
T02SSILL
 62
6
 10
-108.481
 20
-929.937
 30
5038.152
 70
    32
  0
VERTEX
  8
T02SSILL
 62
6
 10
-110.659
 20
-924.342
 30
5038.151
 70
    32
  0
VERTEX
  8
T02SSILL
 62
6
 10
-105.854
 20
-922.262
 30
5038.137
 70
    32
  0
VERTEX
  8
T02SSILL
 62
6
 10
-107.858
 20
-916.489
 30
5038.136
 70
    32
  0
VERTEX
  8
T02SSILL
 62
6
 10
-96.930
 20
-912.312
 30
5038.106
 70
    32
  0
VERTEX
  8
T02SSILL
 62
6
 10
-98.671
 20
-906.536
 30
5038.103
 70
    32
  0
VERTEX
  8
T02SSILL
 62
6
 10
-93.082
 20
-903.919
 30
5038.087
 70
    32
  0
VERTEX
  8
T02SSILL
 62
6
 10
-95.250
 20
-899.115
 30
5038.087
 70
    32
  0
VERTEX
  8
T02SSILL
 62
6
 10
-89.438
 20
-893.245
 30
5038.067
 70
    32
  0
VERTEX
  8
T02SSILL
 62
6
 10
-87.564
 20
-888.566
 30
5038.058
 70
    32
  0
VERTEX
  8
T02SSILL
 62
6
 10
-91.543
 20
-872.365
 30
5038.049
 70
    32
  0
VERTEX
  8
T02SSILL
 62
6
 10
-86.030
 20
-863.599
 30
5038.027
 70
    32
  0
VERTEX
  8
T02SSILL
 62
6
 10
-86.357
 20
-858.509
 30
5038.022
 70
    32
  0
VERTEX
  8
T02SSILL
 62
6
 10
-92.370
 20
-848.306
 30
5038.025
 70
    32
  0
VERTEX
  8
T02SSILL
 62
6
 10
-72.845
 20
-836.116
 30
5037.966
 70
    32
  0
VERTEX
  8
T02SSILL
 62
6
 10
-37.965
 20
-893.042
 30
5037.945
 70
    32
  0
VERTEX
  8
T02SSILL
 62
6
 10
-53.047
 20
-902.190
 30
5037.991
 70
    32
  0
VERTEX
  8
T02SSILL
 62
6
 10
-56.100
 20
-896.870
 30
5037.992
 70
    32
  0
VERTEX
  8
T02SSILL
 62
6
 10
-61.244
 20
-900.008
 30
5038.008
 70
    32
  0
VERTEX
  8
T02SSILL
 62
6
 10
-78.814
 20
-871.679
 30
5038.019
 70
    32
  0
VERTEX
  8
T02SSILL
 62
6
 10
-81.619
 20
-872.153
 30
5038.026
 70
    32
  0
VERTEX
  8
T02SSILL
 62
6
 10
-82.435
 20
-877.170
 30
5038.033
 70
    32
  0
VERTEX
  8
T02SSILL
 62
6
 10
-77.997
 20
-894.947
 30
5038.042
 70
    32
  0
VERTEX
  8
T02SSILL
 62
6
 10
-60.420
 20
-937.858
 30
5038.047
 70
    32
  0
VERTEX
  8
T02SSILL
 62
6
 10
-54.830
 20
-935.329
 30
5038.031
 70
    32
  0
VERTEX
  8
T02SSILL
 62
6
 10
-52.306
 20
-940.480
 30
5038.031
 70
    32
  0
VERTEX
  8
T02SSILL
 62
6
 10
-47.407
 20
-938.838
 30
5038.018
 70
    32
  0
VERTEX
  8
T02SSILL
 62
6
 10
-45.059
 20
-943.991
 30
5038.018
 70
    32
  0
VERTEX
  8
T02SSILL
 62
6
 10
-39.550
 20
-941.990
 30
5038.002
 70
    32
  0
VERTEX
  8
T02SSILL
 62
6
 10
-37.024
 20
-947.317
 30
5038.002
 70
    32
  0
VERTEX
  8
T02SSILL
 62
6
 10
-32.399
 20
-944.888
 30
5037.989
 70
    32
  0
VERTEX
  8
T02SSILL
 62
6
 10
-24.187
 20
-948.299
 30
5037.973
 70
    32
  0
VERTEX
  8
T02SSILL
 62
6
 10
76.663
 20
-906.545
 30
5037.690
 70
    32
  0
VERTEX
  8
T02SSILL
 62
6
 10
76.528
 20
-902.770
 30
5037.686
 70
    32
  0
VERTEX
  8
T02SSILL
 62
6
 10
73.898
 20
-896.127
 30
5037.685
 70
    32
  0
VERTEX
  8
T02SSILL
 62
6
 10
69.983
 20
-892.135
 30
5037.690
 70
    32
  0
VERTEX
  8
T02SSILL
 62
6
 10
79.663
 20
-886.480
 30
5037.661
 70
    32
  0
VERTEX
  8
T02SSILL
 62
6
 10
79.031
 20
-892.198
 30
5037.668
 70
    32
  0
VERTEX
  8
T02SSILL
 62
6
 10
82.290
 20
-899.887
 30
5037.669
 70
    32
  0
VERTEX
  8
T02SSILL
 62
6
 10
85.489
 20
-902.834
 30
5037.665
 70
    32
  0
VERTEX
  8
T02SSILL
 62
6
 10
106.637
 20
-894.049
 30
5037.605
 70
    32
  0
VERTEX
  8
T02SSILL
 62
6
 10
104.636
 20
-888.540
 30
5037.604
 70
    32
  0
VERTEX
  8
T02SSILL
 62
6
 10
110.315
 20
-886.098
 30
5037.588
 70
    32
  0
VERTEX
  8
T02SSILL
 62
6
 10
82.778
 20
-819.329
 30
5037.580
 70
    32
  0
VERTEX
  8
T02SSILL
 62
6
 10
88.021
 20
-817.156
 30
5037.566
 70
    32
  0
VERTEX
  8
T02SSILL
 62
6
 10
66.934
 20
-767.436
 30
5037.561
 70
    32
  0
VERTEX
  8
T02SSILL
 62
6
 10
80.479
 20
-761.821
 30
5037.523
 70
    32
  0
VERTEX
  8
T02SSILL
 62
6
 10
84.604
 20
-754.479
 30
5037.505
 70
    32
  0
VERTEX
  8
T02SSILL
 62
6
 10
82.959
 20
-749.317
 30
5037.504
 70
    32
  0
VERTEX
  8
T02SSILL
 62
6
 10
78.398
 20
-742.873
 30
5037.507
 70
    32
  0
VERTEX
  8
T02SSILL
 62
6
 10
71.189
 20
-742.348
 30
5037.524
 70
    32
  0
VERTEX
  8
T02SSILL
 62
6
 10
68.399
 20
-737.025
 30
5037.525
 70
    32
  0
VERTEX
  8
T02SSILL
 62
6
 10
63.250
 20
-739.724
 30
5037.540
 70
    32
  0
VERTEX
  8
T02SSILL
 62
6
 10
31.605
 20
-681.616
 30
5037.551
 70
    32
  0
VERTEX
  8
T02SSILL
 62
6
 10
26.286
 20
-684.756
 30
5037.567
 70
    32
  0
VERTEX
  8
T02SSILL
 62
6
 10
23.144
 20
-679.349
 30
5037.569
 70
    32
  0
VERTEX
  8
T02SSILL
 62
6
 10
12.323
 20
-685.106
 30
5037.600
 70
    32
  0
VERTEX
  8
T02SSILL
 62
6
 10
-32.399
 20
-684.259
 30
5037.705
 70
    32
  0
VERTEX
  8
T02SSILL
 62
6
 10
-82.320
 20
-696.301
 30
5037.836
 70
    32
  0
VERTEX
  8
T02SSILL
 62
6
 10
-76.751
 20
-720.212
 30
5037.849
 70
    32
  0
VERTEX
  8
T02SSILL
 62
6
 10
-82.530
 20
-721.690
 30
5037.864
 70
    32
  0
VERTEX
  8
T02SSILL
 62
6
 10
-79.492
 20
-732.808
 30
5037.869
 70
    32
  0
VERTEX
  8
T02SSILL
 62
6
 10
-85.622
 20
-734.378
 30
5037.885
 70
    32
  0
VERTEX
  8
T02SSILL
 62
6
 10
-75.539
 20
-775.099
 30
5037.906
 70
    32
  0
VERTEX
  8
T02SSILL
 62
6
 10
-68.968
 20
-773.699
 30
5037.889
 70
    32
  0
VERTEX
  8
T02SSILL
 62
6
 10
-63.055
 20
-797.080
 30
5037.900
 70
    32
  0
VERTEX
  8
T02SSILL
 62
6
 10
-92.226
 20
-803.505
 30
5037.976
 70
    32
  0
VERTEX
  8
T02SSILL
 62
6
 10
-96.308
 20
-786.163
 30
5037.967
 70
    32
  0
VERTEX
  8
T02SSILL
 62
6
 10
-108.132
 20
-788.945
 30
5037.998
 70
    32
  0
VERTEX
  8
T02SSILL
 62
6
 10
-127.299
 20
-780.488
 30
5038.034
 70
    32
  0
VERTEX
  8
T02SSILL
 62
6
 10
-151.983
 20
-773.417
 30
5038.084
 70
    32
  0
VERTEX
  8
T02SSILL
 62
6
 10
-179.878
 20
-727.209
 30
5038.100
 70
    32
  0
VERTEX
  8
T02SSILL
 62
6
 10
-182.798
 20
-725.576
 30
5038.105
 70
    32
  0
VERTEX
  8
T02SSILL
 62
6
 10
-188.157
 20
-725.467
 30
5038.118
 70
    32
  0
VERTEX
  8
T02SSILL
 62
6
 10
-277.656
 20
-775.775
 30
5038.384
 70
    32
  0
SEQEND
  8
T02SSILL
  0
POLYLINE
  8
T02SSILL
 62
6
 66
     1
 70
     9
  0
VERTEX
  8
T02SSILL
 62
6
 10
-329.247
 20
-520.094
 30
5038.227
 70
    32
  0
VERTEX
  8
T02SSILL
 62
6
 10
-477.661
 20
-586.686
 30
5038.650
 70
    32
  0
VERTEX
  8
T02SSILL
 62
6
 10
-479.465
 20
-589.958
 30
5038.658
 70
    32
  0
VERTEX
  8
T02SSILL
 62
6
 10
-479.064
 20
-593.906
 30
5038.661
 70
    32
  0
VERTEX
  8
T02SSILL
 62
6
 10
-428.604
 20
-674.443
 30
5038.630
 70
    32
  0
VERTEX
  8
T02SSILL
 62
6
 10
-418.422
 20
-687.932
 30
5038.620
 70
    32
  0
VERTEX
  8
T02SSILL
 62
6
 10
-404.622
 20
-716.748
 30
5038.619
 70
    32
  0
VERTEX
  8
T02SSILL
 62
6
 10
-382.323
 20
-743.876
 30
5038.596
 70
    32
  0
VERTEX
  8
T02SSILL
 62
6
 10
-361.034
 20
-774.532
 30
5038.579
 70
    32
  0
VERTEX
  8
T02SSILL
 62
6
 10
-348.401
 20
-801.429
 30
5038.578
 70
    32
  0
VERTEX
  8
T02SSILL
 62
6
 10
-344.504
 20
-804.016
 30
5038.572
 70
    32
  0
VERTEX
  8
T02SSILL
 62
6
 10
-341.074
 20
-804.325
 30
5038.564
 70
    32
  0
VERTEX
  8
T02SSILL
 62
6
 10
-180.295
 20
-714.916
 30
5038.088
 70
    32
  0
VERTEX
  8
T02SSILL
 62
6
 10
-150.629
 20
-705.937
 30
5038.008
 70
    32
  0
VERTEX
  8
T02SSILL
 62
6
 10
-146.538
 20
-702.900
 30
5037.995
 70
    32
  0
VERTEX
  8
T02SSILL
 62
6
 10
-142.907
 20
-698.199
 30
5037.981
 70
    32
  0
VERTEX
  8
T02SSILL
 62
6
 10
-154.811
 20
-652.318
 30
5037.959
 70
    32
  0
VERTEX
  8
T02SSILL
 62
6
 10
-178.111
 20
-657.615
 30
5038.020
 70
    32
  0
VERTEX
  8
T02SSILL
 62
6
 10
-182.363
 20
-640.715
 30
5038.012
 70
    32
  0
VERTEX
  8
T02SSILL
 62
6
 10
-188.233
 20
-641.930
 30
5038.027
 70
    32
  0
VERTEX
  8
T02SSILL
 62
6
 10
-190.930
 20
-629.929
 30
5038.020
 70
    32
  0
VERTEX
  8
T02SSILL
 62
6
 10
-197.067
 20
-630.884
 30
5038.036
 70
    32
  0
VERTEX
  8
T02SSILL
 62
6
 10
-204.536
 20
-602.516
 30
5038.022
 70
    32
  0
VERTEX
  8
T02SSILL
 62
6
 10
-163.464
 20
-592.429
 30
5037.915
 70
    32
  0
VERTEX
  8
T02SSILL
 62
6
 10
-165.722
 20
-580.423
 30
5037.907
 70
    32
  0
VERTEX
  8
T02SSILL
 62
6
 10
-160.205
 20
-579.036
 30
5037.892
 70
    32
  0
VERTEX
  8
T02SSILL
 62
6
 10
-157.157
 20
-591.033
 30
5037.898
 70
    32
  0
VERTEX
  8
T02SSILL
 62
6
 10
-123.263
 20
-582.880
 30
5037.809
 70
    32
  0
VERTEX
  8
T02SSILL
 62
6
 10
-117.359
 20
-605.557
 30
5037.820
 70
    32
  0
VERTEX
  8
T02SSILL
 62
6
 10
-111.054
 20
-603.985
 30
5037.803
 70
    32
  0
VERTEX
  8
T02SSILL
 62
6
 10
-106.704
 20
-621.675
 30
5037.812
 70
    32
  0
VERTEX
  8
T02SSILL
 62
6
 10
-94.524
 20
-619.327
 30
5037.781
 70
    32
  0
VERTEX
  8
T02SSILL
 62
6
 10
-93.143
 20
-624.405
 30
5037.783
 70
    32
  0
VERTEX
  8
T02SSILL
 62
6
 10
-88.063
 20
-623.200
 30
5037.770
 70
    32
  0
VERTEX
  8
T02SSILL
 62
6
 10
-85.194
 20
-634.847
 30
5037.776
 70
    32
  0
VERTEX
  8
T02SSILL
 62
6
 10
-72.933
 20
-631.883
 30
5037.744
 70
    32
  0
VERTEX
  8
T02SSILL
 62
6
 10
-68.682
 20
-648.784
 30
5037.752
 70
    32
  0
VERTEX
  8
T02SSILL
 62
6
 10
-63.243
 20
-648.189
 30
5037.739
 70
    32
  0
VERTEX
  8
T02SSILL
 62
6
 10
-61.589
 20
-654.054
 30
5037.741
 70
    32
  0
VERTEX
  8
T02SSILL
 62
6
 10
-56.252
 20
-652.318
 30
5037.727
 70
    32
  0
VERTEX
  8
T02SSILL
 62
6
 10
-54.771
 20
-658.361
 30
5037.730
 70
    32
  0
VERTEX
  8
T02SSILL
 62
6
 10
-36.550
 20
-654.356
 30
5037.682
 70
    32
  0
VERTEX
  8
T02SSILL
 62
6
 10
-32.519
 20
-674.685
 30
5037.695
 70
    32
  0
VERTEX
  8
T02SSILL
 62
6
 10
-26.930
 20
-679.096
 30
5037.687
 70
    32
  0
VERTEX
  8
T02SSILL
 62
6
 10
5.750
 20
-679.303
 30
5037.610
 70
    32
  0
VERTEX
  8
T02SSILL
 62
6
 10
7.911
 20
-676.465
 30
5037.602
 70
    32
  0
VERTEX
  8
T02SSILL
 62
6
 10
4.482
 20
-669.217
 30
5037.602
 70
    32
  0
VERTEX
  8
T02SSILL
 62
6
 10
9.105
 20
-666.524
 30
5037.588
 70
    32
  0
VERTEX
  8
T02SSILL
 62
6
 10
-2.223
 20
-645.759
 30
5037.592
 70
    32
  0
VERTEX
  8
T02SSILL
 62
6
 10
8.774
 20
-639.999
 30
5037.560
 70
    32
  0
VERTEX
  8
T02SSILL
 62
6
 10
22.893
 20
-666.264
 30
5037.555
 70
    32
  0
VERTEX
  8
T02SSILL
 62
6
 10
28.215
 20
-663.387
 30
5037.539
 70
    32
  0
VERTEX
  8
T02SSILL
 62
6
 10
30.738
 20
-668.450
 30
5037.539
 70
    32
  0
VERTEX
  8
T02SSILL
 62
6
 10
41.732
 20
-662.515
 30
5037.507
 70
    32
  0
VERTEX
  8
T02SSILL
 62
6
 10
53.507
 20
-683.978
 30
5037.502
 70
    32
  0
VERTEX
  8
T02SSILL
 62
6
 10
63.625
 20
-678.230
 30
5037.472
 70
    32
  0
VERTEX
  8
T02SSILL
 62
6
 10
92.478
 20
-730.751
 30
5037.461
 70
    32
  0
VERTEX
  8
T02SSILL
 62
6
 10
87.246
 20
-733.891
 30
5037.477
 70
    32
  0
VERTEX
  8
T02SSILL
 62
6
 10
85.491
 20
-741.028
 30
5037.489
 70
    32
  0
VERTEX
  8
T02SSILL
 62
6
 10
94.071
 20
-752.867
 30
5037.481
 70
    32
  0
VERTEX
  8
T02SSILL
 62
6
 10
98.756
 20
-755.181
 30
5037.473
 70
    32
  0
VERTEX
  8
T02SSILL
 62
6
 10
133.019
 20
-748.516
 30
5037.385
 70
    32
  0
VERTEX
  8
T02SSILL
 62
6
 10
135.947
 20
-743.824
 30
5037.373
 70
    32
  0
VERTEX
  8
T02SSILL
 62
6
 10
104.641
 20
-684.745
 30
5037.382
 70
    32
  0
VERTEX
  8
T02SSILL
 62
6
 10
60.677
 20
-624.946
 30
5037.421
 70
    32
  0
VERTEX
  8
T02SSILL
 62
6
 10
41.140
 20
-615.088
 30
5037.456
 70
    32
  0
VERTEX
  8
T02SSILL
 62
6
 10
36.238
 20
-616.466
 30
5037.469
 70
    32
  0
VERTEX
  8
T02SSILL
 62
6
 10
37.360
 20
-621.899
 30
5037.473
 70
    32
  0
VERTEX
  8
T02SSILL
 62
6
 10
32.287
 20
-623.631
 30
5037.486
 70
    32
  0
VERTEX
  8
T02SSILL
 62
6
 10
33.673
 20
-629.148
 30
5037.489
 70
    32
  0
VERTEX
  8
T02SSILL
 62
6
 10
27.811
 20
-630.978
 30
5037.505
 70
    32
  0
VERTEX
  8
T02SSILL
 62
6
 10
29.200
 20
-636.670
 30
5037.508
 70
    32
  0
VERTEX
  8
T02SSILL
 62
6
 10
23.510
 20
-638.322
 30
5037.523
 70
    32
  0
VERTEX
  8
T02SSILL
 62
6
 10
7.769
 20
-580.543
 30
5037.497
 70
    32
  0
VERTEX
  8
T02SSILL
 62
6
 10
-9.381
 20
-585.939
 30
5037.544
 70
    32
  0
VERTEX
  8
T02SSILL
 62
6
 10
-36.131
 20
-610.430
 30
5037.634
 70
    32
  0
VERTEX
  8
T02SSILL
 62
6
 10
-27.506
 20
-618.843
 30
5037.622
 70
    32
  0
VERTEX
  8
T02SSILL
 62
6
 10
-32.195
 20
-623.206
 30
5037.638
 70
    32
  0
VERTEX
  8
T02SSILL
 62
6
 10
-28.279
 20
-627.285
 30
5037.633
 70
    32
  0
VERTEX
  8
T02SSILL
 62
6
 10
-32.444
 20
-631.378
 30
5037.648
 70
    32
  0
VERTEX
  8
T02SSILL
 62
6
 10
-28.429
 20
-636.335
 30
5037.644
 70
    32
  0
VERTEX
  8
T02SSILL
 62
6
 10
-41.978
 20
-648.714
 30
5037.689
 70
    32
  0
VERTEX
  8
T02SSILL
 62
6
 10
-49.645
 20
-639.762
 30
5037.697
 70
    32
  0
VERTEX
  8
T02SSILL
 62
6
 10
-53.986
 20
-643.857
 30
5037.712
 70
    32
  0
VERTEX
  8
T02SSILL
 62
6
 10
-62.179
 20
-634.911
 30
5037.722
 70
    32
  0
VERTEX
  8
T02SSILL
 62
6
 10
-48.630
 20
-622.532
 30
5037.676
 70
    32
  0
VERTEX
  8
T02SSILL
 62
6
 10
-52.900
 20
-618.193
 30
5037.682
 70
    32
  0
VERTEX
  8
T02SSILL
 62
6
 10
-48.295
 20
-614.183
 30
5037.666
 70
    32
  0
VERTEX
  8
T02SSILL
 62
6
 10
-53.011
 20
-609.323
 30
5037.672
 70
    32
  0
VERTEX
  8
T02SSILL
 62
6
 10
-48.315
 20
-605.487
 30
5037.657
 70
    32
  0
VERTEX
  8
T02SSILL
 62
6
 10
-52.326
 20
-600.881
 30
5037.661
 70
    32
  0
VERTEX
  8
T02SSILL
 62
6
 10
-88.127
 20
-618.018
 30
5037.765
 70
    32
  0
VERTEX
  8
T02SSILL
 62
6
 10
-95.615
 20
-602.212
 30
5037.765
 70
    32
  0
VERTEX
  8
T02SSILL
 62
6
 10
-73.516
 20
-592.185
 30
5037.702
 70
    32
  0
VERTEX
  8
T02SSILL
 62
6
 10
-70.815
 20
-597.510
 30
5037.701
 70
    32
  0
VERTEX
  8
T02SSILL
 62
6
 10
-60.166
 20
-592.019
 30
5037.670
 70
    32
  0
VERTEX
  8
T02SSILL
 62
6
 10
-55.974
 20
-597.149
 30
5037.666
 70
    32
  0
VERTEX
  8
T02SSILL
 62
6
 10
-24.044
 20
-565.391
 30
5037.556
 70
    32
  0
VERTEX
  8
T02SSILL
 62
6
 10
-24.215
 20
-558.717
 30
5037.549
 70
    32
  0
VERTEX
  8
T02SSILL
 62
6
 10
-26.472
 20
-553.826
 30
5037.549
 70
    32
  0
VERTEX
  8
T02SSILL
 62
6
 10
-39.684
 20
-536.862
 30
5037.562
 70
    32
  0
VERTEX
  8
T02SSILL
 62
6
 10
-50.352
 20
-540.772
 30
5037.591
 70
    32
  0
VERTEX
  8
T02SSILL
 62
6
 10
-61.319
 20
-541.875
 30
5037.618
 70
    32
  0
VERTEX
  8
T02SSILL
 62
6
 10
-72.079
 20
-545.435
 30
5037.648
 70
    32
  0
VERTEX
  8
T02SSILL
 62
6
 10
-77.439
 20
-559.381
 30
5037.676
 70
    32
  0
VERTEX
  8
T02SSILL
 62
6
 10
-82.411
 20
-562.166
 30
5037.690
 70
    32
  0
VERTEX
  8
T02SSILL
 62
6
 10
-77.276
 20
-572.468
 30
5037.689
 70
    32
  0
VERTEX
  8
T02SSILL
 62
6
 10
-92.817
 20
-580.040
 30
5037.734
 70
    32
  0
VERTEX
  8
T02SSILL
 62
6
 10
-103.628
 20
-558.478
 30
5037.736
 70
    32
  0
VERTEX
  8
T02SSILL
 62
6
 10
-114.361
 20
-564.146
 30
5037.768
 70
    32
  0
VERTEX
  8
T02SSILL
 62
6
 10
-121.769
 20
-547.724
 30
5037.767
 70
    32
  0
VERTEX
  8
T02SSILL
 62
6
 10
-139.495
 20
-556.290
 30
5037.819
 70
    32
  0
VERTEX
  8
T02SSILL
 62
6
 10
-149.429
 20
-534.541
 30
5037.818
 70
    32
  0
VERTEX
  8
T02SSILL
 62
6
 10
-132.845
 20
-525.989
 30
5037.770
 70
    32
  0
VERTEX
  8
T02SSILL
 62
6
 10
-134.484
 20
-521.354
 30
5037.769
 70
    32
  0
VERTEX
  8
T02SSILL
 62
6
 10
-159.500
 20
-529.923
 30
5037.837
 70
    32
  0
VERTEX
  8
T02SSILL
 62
6
 10
-160.891
 20
-524.055
 30
5037.834
 70
    32
  0
VERTEX
  8
T02SSILL
 62
6
 10
-137.012
 20
-515.852
 30
5037.769
 70
    32
  0
VERTEX
  8
T02SSILL
 62
6
 10
-140.334
 20
-510.096
 30
5037.770
 70
    32
  0
VERTEX
  8
T02SSILL
 62
6
 10
-165.494
 20
-521.214
 30
5037.842
 70
    32
  0
VERTEX
  8
T02SSILL
 62
6
 10
-170.337
 20
-534.363
 30
5037.868
 70
    32
  0
VERTEX
  8
T02SSILL
 62
6
 10
-162.406
 20
-564.570
 30
5037.882
 70
    32
  0
VERTEX
  8
T02SSILL
 62
6
 10
-156.101
 20
-562.998
 30
5037.865
 70
    32
  0
VERTEX
  8
T02SSILL
 62
6
 10
-152.880
 20
-574.728
 30
5037.870
 70
    32
  0
VERTEX
  8
T02SSILL
 62
6
 10
-188.258
 20
-583.603
 30
5037.963
 70
    32
  0
VERTEX
  8
T02SSILL
 62
6
 10
-190.862
 20
-572.040
 30
5037.957
 70
    32
  0
VERTEX
  8
T02SSILL
 62
6
 10
-214.679
 20
-578.135
 30
5038.020
 70
    32
  0
VERTEX
  8
T02SSILL
 62
6
 10
-218.929
 20
-561.322
 30
5038.012
 70
    32
  0
VERTEX
  8
T02SSILL
 62
6
 10
-224.267
 20
-562.970
 30
5038.026
 70
    32
  0
VERTEX
  8
T02SSILL
 62
6
 10
-238.540
 20
-510.266
 30
5038.002
 70
    32
  0
VERTEX
  8
T02SSILL
 62
6
 10
-297.380
 20
-532.610
 30
5038.165
 70
    32
  0
VERTEX
  8
T02SSILL
 62
6
 10
-297.059
 20
-537.173
 30
5038.170
 70
    32
  0
VERTEX
  8
T02SSILL
 62
6
 10
-303.030
 20
-537.336
 30
5038.184
 70
    32
  0
VERTEX
  8
T02SSILL
 62
6
 10
-300.791
 20
-561.904
 30
5038.205
 70
    32
  0
VERTEX
  8
T02SSILL
 62
6
 10
-294.733
 20
-561.653
 30
5038.191
 70
    32
  0
VERTEX
  8
T02SSILL
 62
6
 10
-293.014
 20
-579.814
 30
5038.207
 70
    32
  0
VERTEX
  8
T02SSILL
 62
6
 10
-287.220
 20
-579.479
 30
5038.193
 70
    32
  0
VERTEX
  8
T02SSILL
 62
6
 10
-284.494
 20
-614.933
 30
5038.225
 70
    32
  0
VERTEX
  8
T02SSILL
 62
6
 10
-289.935
 20
-615.352
 30
5038.238
 70
    32
  0
VERTEX
  8
T02SSILL
 62
6
 10
-289.589
 20
-621.936
 30
5038.244
 70
    32
  0
VERTEX
  8
T02SSILL
 62
6
 10
-301.178
 20
-622.432
 30
5038.272
 70
    32
  0
VERTEX
  8
T02SSILL
 62
6
 10
-305.972
 20
-569.084
 30
5038.225
 70
    32
  0
VERTEX
  8
T02SSILL
 62
6
 10
-312.030
 20
-569.335
 30
5038.240
 70
    32
  0
VERTEX
  8
T02SSILL
 62
6
 10
-312.371
 20
-563.190
 30
5038.234
 70
    32
  0
VERTEX
  8
T02SSILL
 62
6
 10
-318.340
 20
-563.528
 30
5038.249
 70
    32
  0
VERTEX
  8
T02SSILL
 62
6
 10
-318.585
 20
-557.909
 30
5038.243
 70
    32
  0
VERTEX
  8
T02SSILL
 62
6
 10
-325.343
 20
-558.433
 30
5038.260
 70
    32
  0
SEQEND
  8
T02SSILL
  0
POLYLINE
  8
T02SSILL
 62
6
 66
     1
 70
     9
  0
VERTEX
  8
T02SSILL
 62
6
 10
14.384
 20
-498.239
 30
5037.392
 70
    32
  0
VERTEX
  8
T02SSILL
 62
6
 10
-7.407
 20
-504.748
 30
5037.451
 70
    32
  0
VERTEX
  8
T02SSILL
 62
6
 10
-5.838
 20
-510.877
 30
5037.454
 70
    32
  0
VERTEX
  8
T02SSILL
 62
6
 10
-10.120
 20
-512.600
 30
5037.466
 70
    32
  0
VERTEX
  8
T02SSILL
 62
6
 10
-8.468
 20
-518.289
 30
5037.468
 70
    32
  0
VERTEX
  8
T02SSILL
 62
6
 10
2.865
 20
-532.466
 30
5037.457
 70
    32
  0
VERTEX
  8
T02SSILL
 62
6
 10
-1.749
 20
-535.862
 30
5037.471
 70
    32
  0
VERTEX
  8
T02SSILL
 62
6
 10
0.425
 20
-541.105
 30
5037.472
 70
    32
  0
VERTEX
  8
T02SSILL
 62
6
 10
-13.212
 20
-546.458
 30
5037.510
 70
    32
  0
VERTEX
  8
T02SSILL
 62
6
 10
-17.160
 20
-553.886
 30
5037.527
 70
    32
  0
VERTEX
  8
T02SSILL
 62
6
 10
-12.987
 20
-564.463
 30
5037.529
 70
    32
  0
VERTEX
  8
T02SSILL
 62
6
 10
-7.607
 20
-566.240
 30
5037.518
 70
    32
  0
VERTEX
  8
T02SSILL
 62
6
 10
25.832
 20
-556.863
 30
5037.429
 70
    32
  0
VERTEX
  8
T02SSILL
 62
6
 10
40.269
 20
-608.598
 30
5037.451
 70
    32
  0
VERTEX
  8
T02SSILL
 62
6
 10
45.218
 20
-610.996
 30
5037.442
 70
    32
  0
SEQEND
  8
T02SSILL
  0
POLYLINE
  8
T02SSILL
 62
6
 66
     1
 70
     9
  0
VERTEX
  8
T02SSILL
 62
6
 10
21.498
 20
-462.027
 30
5037.336
 70
    32
  0
VERTEX
  8
T02SSILL
 62
6
 10
35.205
 20
-440.587
 30
5037.280
 70
    32
  0
VERTEX
  8
T02SSILL
 62
6
 10
43.983
 20
-432.656
 30
5037.251
 70
    32
  0
VERTEX
  8
T02SSILL
 62
6
 10
56.801
 20
-424.498
 30
5037.212
 70
    32
  0
VERTEX
  8
T02SSILL
 62
6
 10
114.186
 20
-402.864
 30
5037.053
 70
    32
  0
VERTEX
  8
T02SSILL
 62
6
 10
136.456
 20
-405.574
 30
5037.003
 70
    32
  0
VERTEX
  8
T02SSILL
 62
6
 10
227.258
 20
-448.913
 30
5036.836
 70
    32
  0
VERTEX
  8
T02SSILL
 62
6
 10
227.724
 20
-451.016
 30
5036.837
 70
    32
  0
VERTEX
  8
T02SSILL
 62
6
 10
219.709
 20
-449.622
 30
5036.855
 70
    32
  0
VERTEX
  8
T02SSILL
 62
6
 10
207.877
 20
-452.319
 30
5036.886
 70
    32
  0
VERTEX
  8
T02SSILL
 62
6
 10
197.654
 20
-457.104
 30
5036.915
 70
    32
  0
VERTEX
  8
T02SSILL
 62
6
 10
194.571
 20
-463.559
 30
5036.929
 70
    32
  0
VERTEX
  8
T02SSILL
 62
6
 10
183.160
 20
-478.818
 30
5036.973
 70
    32
  0
VERTEX
  8
T02SSILL
 62
6
 10
178.478
 20
-491.005
 30
5036.997
 70
    32
  0
VERTEX
  8
T02SSILL
 62
6
 10
172.894
 20
-501.358
 30
5037.022
 70
    32
  0
VERTEX
  8
T02SSILL
 62
6
 10
130.845
 20
-540.554
 30
5037.163
 70
    32
  0
VERTEX
  8
T02SSILL
 62
6
 10
79.583
 20
-503.489
 30
5037.244
 70
    32
  0
SEQEND
  8
T02SSILL
  0
POLYLINE
  8
T02SSILL
 62
6
 66
     1
 70
     9
  0
VERTEX
  8
T02SSILL
 62
6
 10
4.076
 20
-481.492
 30
5037.398
 70
    32
  0
VERTEX
  8
T02SSILL
 62
6
 10
4.153
 20
-487.732
 30
5037.405
 70
    32
  0
VERTEX
  8
T02SSILL
 62
6
 10
17.201
 20
-483.877
 30
5037.370
 70
    32
  0
VERTEX
  8
T02SSILL
 62
6
 10
52.487
 20
-614.040
 30
5037.428
 70
    32
  0
VERTEX
  8
T02SSILL
 62
6
 10
64.249
 20
-619.870
 30
5037.407
 70
    32
  0
VERTEX
  8
T02SSILL
 62
6
 10
109.552
 20
-679.420
 30
5037.365
 70
    32
  0
VERTEX
  8
T02SSILL
 62
6
 10
142.697
 20
-743.693
 30
5037.357
 70
    32
  0
VERTEX
  8
T02SSILL
 62
6
 10
145.794
 20
-745.412
 30
5037.351
 70
    32
  0
VERTEX
  8
T02SSILL
 62
6
 10
150.365
 20
-745.443
 30
5037.340
 70
    32
  0
VERTEX
  8
T02SSILL
 62
6
 10
182.808
 20
-739.325
 30
5037.257
 70
    32
  0
VERTEX
  8
T02SSILL
 62
6
 10
147.754
 20
-670.067
 30
5037.264
 70
    32
  0
VERTEX
  8
T02SSILL
 62
6
 10
151.398
 20
-652.180
 30
5037.236
 70
    32
  0
VERTEX
  8
T02SSILL
 62
6
 10
191.685
 20
-640.779
 30
5037.129
 70
    32
  0
VERTEX
  8
T02SSILL
 62
6
 10
196.962
 20
-627.002
 30
5037.101
 70
    32
  0
VERTEX
  8
T02SSILL
 62
6
 10
200.503
 20
-607.886
 30
5037.072
 70
    32
  0
VERTEX
  8
T02SSILL
 62
6
 10
184.047
 20
-585.153
 30
5037.086
 70
    32
  0
VERTEX
  8
T02SSILL
 62
6
 10
134.214
 20
-549.916
 30
5037.166
 70
    32
  0
VERTEX
  8
T02SSILL
 62
6
 10
132.146
 20
-553.193
 30
5037.174
 70
    32
  0
VERTEX
  8
T02SSILL
 62
6
 10
116.065
 20
-630.912
 30
5037.297
 70
    32
  0
VERTEX
  8
T02SSILL
 62
6
 10
110.089
 20
-630.899
 30
5037.311
 70
    32
  0
VERTEX
  8
T02SSILL
 62
6
 10
127.644
 20
-544.637
 30
5037.175
 70
    32
  0
VERTEX
  8
T02SSILL
 62
6
 10
22.567
 20
-470.188
 30
5037.342
 70
    32
  0
VERTEX
  8
T02SSILL
 62
6
 10
18.087
 20
-470.419
 30
5037.353
 70
    32
  0
VERTEX
  8
T02SSILL
 62
6
 10
13.733
 20
-473.638
 30
5037.367
 70
    32
  0
SEQEND
  8
T02SSILL
  0
POLYLINE
  8
T02SSILL
 62
6
 66
     1
 70
     9
  0
VERTEX
  8
T02SSILL
 62
6
 10
211.393
 20
-487.518
 30
5036.916
 70
    32
  0
VERTEX
  8
T02SSILL
 62
6
 10
205.690
 20
-467.199
 30
5036.907
 70
    32
  0
VERTEX
  8
T02SSILL
 62
6
 10
199.907
 20
-468.590
 30
5036.922
 70
    32
  0
VERTEX
  8
T02SSILL
 62
6
 10
187.215
 20
-493.884
 30
5036.980
 70
    32
  0
VERTEX
  8
T02SSILL
 62
6
 10
200.532
 20
-490.554
 30
5036.945
 70
    32
  0
SEQEND
  8
T02SSILL
  0
POLYLINE
  8
T02SSILL
 62
6
 66
     1
 70
     9
  0
VERTEX
  8
T02SSILL
 62
6
 10
223.388
 20
-483.853
 30
5036.883
 70
    32
  0
VERTEX
  8
T02SSILL
 62
6
 10
236.256
 20
-479.737
 30
5036.848
 70
    32
  0
VERTEX
  8
T02SSILL
 62
6
 10
239.969
 20
-474.418
 30
5036.834
 70
    32
  0
VERTEX
  8
T02SSILL
 62
6
 10
247.097
 20
-468.089
 30
5036.810
 70
    32
  0
VERTEX
  8
T02SSILL
 62
6
 10
246.267
 20
-464.935
 30
5036.809
 70
    32
  0
VERTEX
  8
T02SSILL
 62
6
 10
240.968
 20
-462.892
 30
5036.819
 70
    32
  0
VERTEX
  8
T02SSILL
 62
6
 10
222.497
 20
-461.804
 30
5036.861
 70
    32
  0
VERTEX
  8
T02SSILL
 62
6
 10
224.802
 20
-470.388
 30
5036.865
 70
    32
  0
VERTEX
  8
T02SSILL
 62
6
 10
220.071
 20
-471.590
 30
5036.878
 70
    32
  0
SEQEND
  8
T02SSILL
  0
POLYLINE
  8
T02SSILL
 62
6
 66
     1
 70
     9
  0
VERTEX
  8
T02SSILL
 62
6
 10
257.511
 20
-492.655
 30
5036.812
 70
    32
  0
VERTEX
  8
T02SSILL
 62
6
 10
278.090
 20
-486.686
 30
5036.757
 70
    32
  0
VERTEX
  8
T02SSILL
 62
6
 10
278.018
 20
-480.886
 30
5036.751
 70
    32
  0
VERTEX
  8
T02SSILL
 62
6
 10
274.600
 20
-474.601
 30
5036.752
 70
    32
  0
VERTEX
  8
T02SSILL
 62
6
 10
271.040
 20
-471.042
 30
5036.757
 70
    32
  0
VERTEX
  8
T02SSILL
 62
6
 10
266.042
 20
-471.983
 30
5036.770
 70
    32
  0
VERTEX
  8
T02SSILL
 62
6
 10
259.769
 20
-476.456
 30
5036.789
 70
    32
  0
VERTEX
  8
T02SSILL
 62
6
 10
254.306
 20
-482.325
 30
5036.809
 70
    32
  0
SEQEND
  8
T02SSILL
  0
POLYLINE
  8
T02SSILL
 62
6
 66
     1
 70
     9
  0
VERTEX
  8
T02SSILL
 62
6
 10
307.583
 20
-540.018
 30
5036.746
 70
    32
  0
VERTEX
  8
T02SSILL
 62
6
 10
347.861
 20
-534.945
 30
5036.645
 70
    32
  0
VERTEX
  8
T02SSILL
 62
6
 10
327.778
 20
-496.173
 30
5036.650
 70
    32
  0
VERTEX
  8
T02SSILL
 62
6
 10
284.924
 20
-477.900
 30
5036.732
 70
    32
  0
VERTEX
  8
T02SSILL
 62
6
 10
286.673
 20
-484.294
 30
5036.734
 70
    32
  0
VERTEX
  8
T02SSILL
 62
6
 10
291.315
 20
-483.005
 30
5036.722
 70
    32
  0
SEQEND
  8
T02SSILL
  0
POLYLINE
  8
T02SSILL
 62
6
 66
     1
 70
     9
  0
VERTEX
  8
T02SSILL
 62
6
 10
326.386
 20
-602.975
 30
5036.770
 70
    32
  0
VERTEX
  8
T02SSILL
 62
6
 10
378.584
 20
-595.293
 30
5036.638
 70
    32
  0
VERTEX
  8
T02SSILL
 62
6
 10
355.172
 20
-550.322
 30
5036.645
 70
    32
  0
VERTEX
  8
T02SSILL
 62
6
 10
322.230
 20
-544.581
 30
5036.716
 70
    32
  0
VERTEX
  8
T02SSILL
 62
6
 10
310.206
 20
-545.962
 30
5036.746
 70
    32
  0
VERTEX
  8
T02SSILL
 62
6
 10
313.066
 20
-556.824
 30
5036.751
 70
    32
  0
VERTEX
  8
T02SSILL
 62
6
 10
318.499
 20
-555.526
 30
5036.737
 70
    32
  0
VERTEX
  8
T02SSILL
 62
6
 10
320.153
 20
-561.306
 30
5036.739
 70
    32
  0
VERTEX
  8
T02SSILL
 62
6
 10
314.635
 20
-562.781
 30
5036.754
 70
    32
  0
SEQEND
  8
T02SSILL
  0
POLYLINE
  8
T02SSILL
 62
6
 66
     1
 70
     9
  0
VERTEX
  8
T02SSILL
 62
6
 10
136.075
 20
-544.092
 30
5037.155
 70
    32
  0
VERTEX
  8
T02SSILL
 62
6
 10
182.485
 20
-502.205
 30
5037.000
 70
    32
  0
VERTEX
  8
T02SSILL
 62
6
 10
201.746
 20
-496.252
 30
5036.948
 70
    32
  0
VERTEX
  8
T02SSILL
 62
6
 10
205.324
 20
-508.248
 30
5036.953
 70
    32
  0
VERTEX
  8
T02SSILL
 62
6
 10
182.119
 20
-515.129
 30
5037.015
 70
    32
  0
VERTEX
  8
T02SSILL
 62
6
 10
186.365
 20
-531.423
 30
5037.022
 70
    32
  0
VERTEX
  8
T02SSILL
 62
6
 10
279.194
 20
-504.689
 30
5036.774
 70
    32
  0
VERTEX
  8
T02SSILL
 62
6
 10
282.055
 20
-515.640
 30
5036.779
 70
    32
  0
VERTEX
  8
T02SSILL
 62
6
 10
276.623
 20
-517.026
 30
5036.794
 70
    32
  0
VERTEX
  8
T02SSILL
 62
6
 10
281.677
 20
-534.628
 30
5036.801
 70
    32
  0
VERTEX
  8
T02SSILL
 62
6
 10
183.435
 20
-564.243
 30
5037.065
 70
    32
  0
VERTEX
  8
T02SSILL
 62
6
 10
188.049
 20
-581.851
 30
5037.073
 70
    32
  0
SEQEND
  8
T02SSILL
  0
POLYLINE
  8
T02SSILL
 62
6
 66
     1
 70
     9
  0
VERTEX
  8
T02SSILL
 62
6
 10
221.746
 20
-626.957
 30
5037.043
 70
    32
  0
VERTEX
  8
T02SSILL
 62
6
 10
188.133
 20
-581.498
 30
5037.073
 70
    32
  0
VERTEX
  8
T02SSILL
 62
6
 10
240.935
 20
-565.898
 30
5036.931
 70
    32
  0
VERTEX
  8
T02SSILL
 62
6
 10
246.255
 20
-583.761
 30
5036.938
 70
    32
  0
VERTEX
  8
T02SSILL
 62
6
 10
263.340
 20
-579.417
 30
5036.893
 70
    32
  0
VERTEX
  8
T02SSILL
 62
6
 10
258.543
 20
-561.284
 30
5036.885
 70
    32
  0
VERTEX
  8
T02SSILL
 62
6
 10
275.613
 20
-555.797
 30
5036.838
 70
    32
  0
VERTEX
  8
T02SSILL
 62
6
 10
276.560
 20
-561.235
 30
5036.842
 70
    32
  0
VERTEX
  8
T02SSILL
 62
6
 10
293.371
 20
-556.191
 30
5036.797
 70
    32
  0
VERTEX
  8
T02SSILL
 62
6
 10
297.899
 20
-573.888
 30
5036.805
 70
    32
  0
VERTEX
  8
T02SSILL
 62
6
 10
225.133
 20
-595.538
 30
5037.001
 70
    32
  0
VERTEX
  8
T02SSILL
 62
6
 10
230.267
 20
-612.524
 30
5037.007
 70
    32
  0
VERTEX
  8
T02SSILL
 62
6
 10
309.347
 20
-589.829
 30
5036.796
 70
    32
  0
VERTEX
  8
T02SSILL
 62
6
 10
314.477
 20
-606.464
 30
5036.802
 70
    32
  0
VERTEX
  8
T02SSILL
 62
6
 10
240.484
 20
-628.393
 30
5037.000
 70
    32
  0
VERTEX
  8
T02SSILL
 62
6
 10
238.742
 20
-622.614
 30
5036.998
 70
    32
  0
SEQEND
  8
T02SSILL
  0
POLYLINE
  8
T02SSILL
 62
6
 66
     1
 70
     9
  0
VERTEX
  8
T02SSILL
 62
6
 10
328.669
 20
-609.802
 30
5036.772
 70
    32
  0
VERTEX
  8
T02SSILL
 62
6
 10
377.434
 20
-601.723
 30
5036.648
 70
    32
  0
VERTEX
  8
T02SSILL
 62
6
 10
384.263
 20
-606.647
 30
5036.637
 70
    32
  0
VERTEX
  8
T02SSILL
 62
6
 10
454.246
 20
-742.353
 30
5036.496
 70
    32
  0
VERTEX
  8
T02SSILL
 62
6
 10
450.953
 20
-753.117
 30
5036.558
 70
    32
  0
VERTEX
  8
T02SSILL
 62
6
 10
436.580
 20
-763.404
 30
5036.684
 70
    32
  0
VERTEX
  8
T02SSILL
 62
6
 10
428.001
 20
-773.178
 30
5036.715
 70
    32
  0
VERTEX
  8
T02SSILL
 62
6
 10
423.006
 20
-781.414
 30
5036.736
 70
    32
  0
VERTEX
  8
T02SSILL
 62
6
 10
430.349
 20
-799.340
 30
5036.738
 70
    32
  0
VERTEX
  8
T02SSILL
 62
6
 10
430.200
 20
-801.539
 30
5036.741
 70
    32
  0
VERTEX
  8
T02SSILL
 62
6
 10
402.597
 20
-808.124
 30
5036.813
 70
    32
  0
VERTEX
  8
T02SSILL
 62
6
 10
400.508
 20
-795.670
 30
5036.805
 70
    32
  0
VERTEX
  8
T02SSILL
 62
6
 10
397.204
 20
-791.492
 30
5036.808
 70
    32
  0
VERTEX
  8
T02SSILL
 62
6
 10
369.426
 20
-769.954
 30
5036.850
 70
    32
  0
VERTEX
  8
T02SSILL
 62
6
 10
330.883
 20
-639.305
 30
5036.799
 70
    32
  0
VERTEX
  8
T02SSILL
 62
6
 10
336.665
 20
-637.827
 30
5036.784
 70
    32
  0
SEQEND
  8
T02SSILL
  0
POLYLINE
  8
T02SSILL
 62
6
 66
     1
 70
     9
  0
VERTEX
  8
T02SSILL
 62
6
 10
430.131
 20
-781.941
 30
5036.720
 70
    32
  0
VERTEX
  8
T02SSILL
 62
6
 10
441.514
 20
-771.428
 30
5036.682
 70
    32
  0
VERTEX
  8
T02SSILL
 62
6
 10
449.323
 20
-770.364
 30
5036.621
 70
    32
  0
VERTEX
  8
T02SSILL
 62
6
 10
456.896
 20
-764.556
 30
5036.527
 70
    32
  0
VERTEX
  8
T02SSILL
 62
6
 10
464.966
 20
-763.225
 30
5036.441
 70
    32
  0
VERTEX
  8
T02SSILL
 62
6
 10
467.765
 20
-769.254
 30
5036.428
 70
    32
  0
VERTEX
  8
T02SSILL
 62
6
 10
462.175
 20
-793.142
 30
5036.548
 70
    32
  0
VERTEX
  8
T02SSILL
 62
6
 10
452.989
 20
-796.509
 30
5036.652
 70
    32
  0
VERTEX
  8
T02SSILL
 62
6
 10
436.298
 20
-797.156
 30
5036.722
 70
    32
  0
SEQEND
  8
T02SSILL
  0
POLYLINE
  8
T02SSILL
 62
6
 66
     1
 70
     9
  0
VERTEX
  8
T02SSILL
 62
6
 10
410.126
 20
-862.081
 30
5036.854
 70
    32
  0
VERTEX
  8
T02SSILL
 62
6
 10
403.886
 20
-819.797
 30
5036.823
 70
    32
  0
VERTEX
  8
T02SSILL
 62
6
 10
405.161
 20
-816.353
 30
5036.816
 70
    32
  0
VERTEX
  8
T02SSILL
 62
6
 10
408.124
 20
-814.295
 30
5036.807
 70
    32
  0
VERTEX
  8
T02SSILL
 62
6
 10
438.877
 20
-806.616
 30
5036.726
 70
    32
  0
VERTEX
  8
T02SSILL
 62
6
 10
439.465
 20
-811.531
 30
5036.730
 70
    32
  0
SEQEND
  8
T02SSILL
  0
POLYLINE
  8
T02SSILL
 62
6
 66
     1
 70
     9
  0
VERTEX
  8
T02SSILL
 62
6
 10
157.630
 20
-658.518
 30
5037.229
 70
    32
  0
VERTEX
  8
T02SSILL
 62
6
 10
212.890
 20
-642.711
 30
5037.081
 70
    32
  0
VERTEX
  8
T02SSILL
 62
6
 10
223.836
 20
-653.561
 30
5037.067
 70
    32
  0
VERTEX
  8
T02SSILL
 62
6
 10
237.156
 20
-685.650
 30
5037.070
 70
    32
  0
VERTEX
  8
T02SSILL
 62
6
 10
236.590
 20
-689.612
 30
5037.076
 70
    32
  0
VERTEX
  8
T02SSILL
 62
6
 10
238.995
 20
-713.312
 30
5037.096
 70
    32
  0
VERTEX
  8
T02SSILL
 62
6
 10
236.762
 20
-717.471
 30
5037.106
 70
    32
  0
VERTEX
  8
T02SSILL
 62
6
 10
188.770
 20
-738.196
 30
5037.242
 70
    32
  0
VERTEX
  8
T02SSILL
 62
6
 10
175.818
 20
-707.421
 30
5037.239
 70
    32
  0
VERTEX
  8
T02SSILL
 62
6
 10
155.124
 20
-669.008
 30
5037.246
 70
    32
  0
SEQEND
  8
T02SSILL
  0
POLYLINE
  8
T02SSILL
 62
6
 66
     1
 70
     9
  0
VERTEX
  8
T02SSILL
 62
6
 10
201.141
 20
-637.936
 30
5037.104
 70
    32
  0
VERTEX
  8
T02SSILL
 62
6
 10
203.710
 20
-625.424
 30
5037.084
 70
    32
  0
VERTEX
  8
T02SSILL
 62
6
 10
205.519
 20
-622.501
 30
5037.076
 70
    32
  0
VERTEX
  8
T02SSILL
 62
6
 10
210.774
 20
-621.029
 30
5037.062
 70
    32
  0
VERTEX
  8
T02SSILL
 62
6
 10
213.558
 20
-625.828
 30
5037.061
 70
    32
  0
VERTEX
  8
T02SSILL
 62
6
 10
213.787
 20
-630.044
 30
5037.065
 70
    32
  0
VERTEX
  8
T02SSILL
 62
6
 10
211.489
 20
-636.049
 30
5037.077
 70
    32
  0
SEQEND
  8
T02SSILL
  0
POLYLINE
  8
T02SSILL
 62
6
 66
     1
 70
     9
  0
VERTEX
  8
T02SSILL
 62
6
 10
313.926
 20
-625.718
 30
5036.824
 70
    32
  0
VERTEX
  8
T02SSILL
 62
6
 10
318.887
 20
-642.970
 30
5036.831
 70
    32
  0
VERTEX
  8
T02SSILL
 62
6
 10
313.812
 20
-644.704
 30
5036.845
 70
    32
  0
VERTEX
  8
T02SSILL
 62
6
 10
315.636
 20
-650.042
 30
5036.846
 70
    32
  0
VERTEX
  8
T02SSILL
 62
6
 10
257.751
 20
-666.848
 30
5037.001
 70
    32
  0
VERTEX
  8
T02SSILL
 62
6
 10
258.128
 20
-675.896
 30
5037.010
 70
    32
  0
VERTEX
  8
T02SSILL
 62
6
 10
247.111
 20
-680.516
 30
5037.041
 70
    32
  0
VERTEX
  8
T02SSILL
 62
6
 10
240.284
 20
-675.679
 30
5037.052
 70
    32
  0
VERTEX
  8
T02SSILL
 62
6
 10
229.504
 20
-649.975
 30
5037.050
 70
    32
  0
VERTEX
  8
T02SSILL
 62
6
 10
229.345
 20
-644.264
 30
5037.044
 70
    32
  0
VERTEX
  8
T02SSILL
 62
6
 10
243.530
 20
-640.044
 30
5037.006
 70
    32
  0
VERTEX
  8
T02SSILL
 62
6
 10
245.445
 20
-645.557
 30
5037.007
 70
    32
  0
SEQEND
  8
T02SSILL
  0
POLYLINE
  8
T02SSILL
 62
6
 66
     1
 70
     9
  0
VERTEX
  8
T02SSILL
 62
6
 10
99.742
 20
-766.641
 30
5037.483
 70
    32
  0
VERTEX
  8
T02SSILL
 62
6
 10
100.661
 20
-762.850
 30
5037.477
 70
    32
  0
VERTEX
  8
T02SSILL
 62
6
 10
103.265
 20
-760.181
 30
5037.468
 70
    32
  0
VERTEX
  8
T02SSILL
 62
6
 10
136.492
 20
-753.526
 30
5037.382
 70
    32
  0
VERTEX
  8
T02SSILL
 62
6
 10
142.955
 20
-757.312
 30
5037.371
 70
    32
  0
VERTEX
  8
T02SSILL
 62
6
 10
168.140
 20
-803.491
 30
5037.362
 70
    32
  0
VERTEX
  8
T02SSILL
 62
6
 10
167.637
 20
-805.431
 30
5037.365
 70
    32
  0
VERTEX
  8
T02SSILL
 62
6
 10
147.465
 20
-801.816
 30
5037.409
 70
    32
  0
VERTEX
  8
T02SSILL
 62
6
 10
143.985
 20
-797.641
 30
5037.412
 70
    32
  0
VERTEX
  8
T02SSILL
 62
6
 10
141.221
 20
-808.573
 30
5037.431
 70
    32
  0
VERTEX
  8
T02SSILL
 62
6
 10
147.883
 20
-807.172
 30
5037.413
 70
    32
  0
VERTEX
  8
T02SSILL
 62
6
 10
174.140
 20
-812.469
 30
5037.357
 70
    32
  0
VERTEX
  8
T02SSILL
 62
6
 10
206.132
 20
-854.696
 30
5037.328
 70
    32
  0
VERTEX
  8
T02SSILL
 62
6
 10
203.529
 20
-857.453
 30
5037.337
 70
    32
  0
VERTEX
  8
T02SSILL
 62
6
 10
150.500
 20
-875.956
 30
5037.482
 70
    32
  0
VERTEX
  8
T02SSILL
 62
6
 10
142.233
 20
-868.501
 30
5037.493
 70
    32
  0
SEQEND
  8
T02SSILL
  0
POLYLINE
  8
T02SSILL
 62
6
 66
     1
 70
     9
  0
VERTEX
  8
T02SSILL
 62
6
 10
236.251
 20
-845.531
 30
5037.247
 70
    32
  0
VERTEX
  8
T02SSILL
 62
6
 10
230.925
 20
-848.322
 30
5037.262
 70
    32
  0
VERTEX
  8
T02SSILL
 62
6
 10
226.667
 20
-852.242
 30
5037.277
 70
    32
  0
VERTEX
  8
T02SSILL
 62
6
 10
216.946
 20
-855.000
 30
5037.302
 70
    32
  0
VERTEX
  8
T02SSILL
 62
6
 10
214.028
 20
-853.631
 30
5037.308
 70
    32
  0
VERTEX
  8
T02SSILL
 62
6
 10
173.917
 20
-801.574
 30
5037.346
 70
    32
  0
VERTEX
  8
T02SSILL
 62
6
 10
148.727
 20
-755.043
 30
5037.355
 70
    32
  0
VERTEX
  8
T02SSILL
 62
6
 10
149.217
 20
-752.049
 30
5037.350
 70
    32
  0
VERTEX
  8
T02SSILL
 62
6
 10
151.831
 20
-750.258
 30
5037.342
 70
    32
  0
VERTEX
  8
T02SSILL
 62
6
 10
194.266
 20
-741.995
 30
5037.233
 70
    32
  0
VERTEX
  8
T02SSILL
 62
6
 10
240.977
 20
-724.185
 30
5037.103
 70
    32
  0
VERTEX
  8
T02SSILL
 62
6
 10
243.308
 20
-727.848
 30
5037.102
 70
    32
  0
VERTEX
  8
T02SSILL
 62
6
 10
243.202
 20
-733.474
 30
5037.108
 70
    32
  0
VERTEX
  8
T02SSILL
 62
6
 10
221.814
 20
-815.477
 30
5037.248
 70
    32
  0
VERTEX
  8
T02SSILL
 62
6
 10
222.694
 20
-822.585
 30
5037.254
 70
    32
  0
VERTEX
  8
T02SSILL
 62
6
 10
229.791
 20
-834.977
 30
5037.250
 70
    32
  0
SEQEND
  8
T02SSILL
  0
POLYLINE
  8
T02SSILL
 62
6
 66
     1
 70
     9
  0
VERTEX
  8
T02SSILL
 62
6
 10
233.498
 20
-829.130
 30
5037.235
 70
    32
  0
VERTEX
  8
T02SSILL
 62
6
 10
229.438
 20
-820.744
 30
5037.236
 70
    32
  0
VERTEX
  8
T02SSILL
 62
6
 10
229.110
 20
-815.562
 30
5037.231
 70
    32
  0
VERTEX
  8
T02SSILL
 62
6
 10
247.834
 20
-738.426
 30
5037.103
 70
    32
  0
VERTEX
  8
T02SSILL
 62
6
 10
251.898
 20
-733.102
 30
5037.087
 70
    32
  0
VERTEX
  8
T02SSILL
 62
6
 10
255.139
 20
-732.182
 30
5037.079
 70
    32
  0
VERTEX
  8
T02SSILL
 62
6
 10
257.381
 20
-735.758
 30
5037.077
 70
    32
  0
VERTEX
  8
T02SSILL
 62
6
 10
275.623
 20
-788.967
 30
5037.092
 70
    32
  0
VERTEX
  8
T02SSILL
 62
6
 10
273.936
 20
-794.700
 30
5037.102
 70
    32
  0
VERTEX
  8
T02SSILL
 62
6
 10
270.318
 20
-800.546
 30
5037.117
 70
    32
  0
VERTEX
  8
T02SSILL
 62
6
 10
272.030
 20
-803.953
 30
5037.117
 70
    32
  0
VERTEX
  8
T02SSILL
 62
6
 10
266.790
 20
-806.567
 30
5037.132
 70
    32
  0
VERTEX
  8
T02SSILL
 62
6
 10
275.067
 20
-828.963
 30
5037.137
 70
    32
  0
VERTEX
  8
T02SSILL
 62
6
 10
240.971
 20
-843.451
 30
5037.233
 70
    32
  0
SEQEND
  8
T02SSILL
  0
POLYLINE
  8
T02SSILL
 62
6
 66
     1
 70
     9
  0
VERTEX
  8
T02SSILL
 62
6
 10
308.906
 20
-815.006
 30
5037.042
 70
    32
  0
VERTEX
  8
T02SSILL
 62
6
 10
324.329
 20
-818.417
 30
5037.009
 70
    32
  0
VERTEX
  8
T02SSILL
 62
6
 10
325.501
 20
-813.744
 30
5037.001
 70
    32
  0
VERTEX
  8
T02SSILL
 62
6
 10
324.655
 20
-809.360
 30
5036.999
 70
    32
  0
VERTEX
  8
T02SSILL
 62
6
 10
295.924
 20
-739.583
 30
5036.990
 70
    32
  0
VERTEX
  8
T02SSILL
 62
6
 10
284.740
 20
-730.758
 30
5037.007
 70
    32
  0
VERTEX
  8
T02SSILL
 62
6
 10
274.046
 20
-726.058
 30
5037.027
 70
    32
  0
VERTEX
  8
T02SSILL
 62
6
 10
267.975
 20
-725.518
 30
5037.041
 70
    32
  0
VERTEX
  8
T02SSILL
 62
6
 10
264.410
 20
-728.551
 30
5037.053
 70
    32
  0
VERTEX
  8
T02SSILL
 62
6
 10
262.189
 20
-733.676
 30
5037.064
 70
    32
  0
VERTEX
  8
T02SSILL
 62
6
 10
283.258
 20
-788.080
 30
5037.073
 70
    32
  0
VERTEX
  8
T02SSILL
 62
6
 10
293.804
 20
-795.068
 30
5037.056
 70
    32
  0
VERTEX
  8
T02SSILL
 62
6
 10
299.665
 20
-792.885
 30
5037.040
 70
    32
  0
SEQEND
  8
T02SSILL
  0
POLYLINE
  8
T02SSILL
 62
6
 66
     1
 70
     9
  0
VERTEX
  8
T02SSILL
 62
6
 10
334.034
 20
-694.636
 30
5036.852
 70
    32
  0
VERTEX
  8
T02SSILL
 62
6
 10
313.279
 20
-700.608
 30
5036.907
 70
    32
  0
VERTEX
  8
T02SSILL
 62
6
 10
319.453
 20
-716.439
 30
5036.910
 70
    32
  0
VERTEX
  8
T02SSILL
 62
6
 10
313.680
 20
-718.708
 30
5036.926
 70
    32
  0
VERTEX
  8
T02SSILL
 62
6
 10
318.040
 20
-729.991
 30
5036.928
 70
    32
  0
VERTEX
  8
T02SSILL
 62
6
 10
302.305
 20
-736.779
 30
5036.972
 70
    32
  0
VERTEX
  8
T02SSILL
 62
6
 10
332.941
 20
-811.278
 30
5036.981
 70
    32
  0
VERTEX
  8
T02SSILL
 62
6
 10
338.242
 20
-820.528
 30
5036.979
 70
    32
  0
VERTEX
  8
T02SSILL
 62
6
 10
380.954
 20
-813.316
 30
5036.870
 70
    32
  0
VERTEX
  8
T02SSILL
 62
6
 10
395.661
 20
-808.650
 30
5036.830
 70
    32
  0
VERTEX
  8
T02SSILL
 62
6
 10
393.314
 20
-796.638
 30
5036.823
 70
    32
  0
VERTEX
  8
T02SSILL
 62
6
 10
372.025
 20
-780.996
 30
5036.856
 70
    32
  0
VERTEX
  8
T02SSILL
 62
6
 10
354.056
 20
-763.730
 30
5036.880
 70
    32
  0
SEQEND
  8
T02SSILL
  0
POLYLINE
  8
T02SSILL
 62
6
 66
     1
 70
     9
  0
VERTEX
  8
T02SSILL
 62
6
 10
238.735
 20
-952.988
 30
5037.358
 70
    32
  0
VERTEX
  8
T02SSILL
 62
6
 10
283.367
 20
-944.697
 30
5037.243
 70
    32
  0
VERTEX
  8
T02SSILL
 62
6
 10
287.946
 20
-938.400
 30
5037.226
 70
    32
  0
VERTEX
  8
T02SSILL
 62
6
 10
280.575
 20
-925.220
 30
5037.229
 70
    32
  0
VERTEX
  8
T02SSILL
 62
6
 10
274.325
 20
-924.420
 30
5037.243
 70
    32
  0
SEQEND
  8
T02SSILL
  0
POLYLINE
  8
T02SSILL
 62
6
 66
     1
 70
     9
  0
VERTEX
  8
T02SSILL
 62
6
 10
258.551
 20
-885.857
 30
5037.238
 70
    32
  0
VERTEX
  8
T02SSILL
 62
6
 10
265.189
 20
-917.766
 30
5037.257
 70
    32
  0
VERTEX
  8
T02SSILL
 62
6
 10
264.743
 20
-924.275
 30
5037.265
 70
    32
  0
VERTEX
  8
T02SSILL
 62
6
 10
272.406
 20
-918.555
 30
5037.241
 70
    32
  0
VERTEX
  8
T02SSILL
 62
6
 10
274.715
 20
-913.429
 30
5037.230
 70
    32
  0
VERTEX
  8
T02SSILL
 62
6
 10
271.236
 20
-909.341
 30
5037.233
 70
    32
  0
SEQEND
  8
T02SSILL
  0
POLYLINE
  8
T02SSILL
 62
6
 66
     1
 70
     9
  0
VERTEX
  8
T02SSILL
 62
6
 10
149.063
 20
-887.575
 30
5037.498
 70
    32
  0
VERTEX
  8
T02SSILL
 62
6
 10
152.263
 20
-883.405
 30
5037.486
 70
    32
  0
VERTEX
  8
T02SSILL
 62
6
 10
211.854
 20
-862.534
 30
5037.323
 70
    32
  0
VERTEX
  8
T02SSILL
 62
6
 10
236.658
 20
-857.039
 30
5037.258
 70
    32
  0
VERTEX
  8
T02SSILL
 62
6
 10
241.762
 20
-857.503
 30
5037.247
 70
    32
  0
VERTEX
  8
T02SSILL
 62
6
 10
249.384
 20
-869.624
 30
5037.242
 70
    32
  0
VERTEX
  8
T02SSILL
 62
6
 10
249.600
 20
-879.905
 30
5037.252
 70
    32
  0
VERTEX
  8
T02SSILL
 62
6
 10
255.456
 20
-898.464
 30
5037.259
 70
    32
  0
VERTEX
  8
T02SSILL
 62
6
 10
257.070
 20
-908.024
 30
5037.265
 70
    32
  0
VERTEX
  8
T02SSILL
 62
6
 10
255.735
 20
-913.753
 30
5037.275
 70
    32
  0
VERTEX
  8
T02SSILL
 62
6
 10
248.479
 20
-923.863
 30
5037.303
 70
    32
  0
VERTEX
  8
T02SSILL
 62
6
 10
238.720
 20
-930.665
 30
5037.333
 70
    32
  0
VERTEX
  8
T02SSILL
 62
6
 10
223.993
 20
-933.749
 30
5037.372
 70
    32
  0
VERTEX
  8
T02SSILL
 62
6
 10
226.423
 20
-945.320
 30
5037.378
 70
    32
  0
VERTEX
  8
T02SSILL
 62
6
 10
230.667
 20
-954.407
 30
5037.378
 70
    32
  0
VERTEX
  8
T02SSILL
 62
6
 10
201.033
 20
-960.226
 30
5037.455
 70
    32
  0
VERTEX
  8
T02SSILL
 62
6
 10
197.236
 20
-958.779
 30
5037.462
 70
    32
  0
VERTEX
  8
T02SSILL
 62
6
 10
192.148
 20
-952.515
 30
5037.467
 70
    32
  0
VERTEX
  8
T02SSILL
 62
6
 10
175.178
 20
-916.692
 30
5037.468
 70
    32
  0
VERTEX
  8
T02SSILL
 62
6
 10
158.828
 20
-923.576
 30
5037.514
 70
    32
  0
VERTEX
  8
T02SSILL
 62
6
 10
153.946
 20
-912.651
 30
5037.514
 70
    32
  0
SEQEND
  8
T02SSILL
  0
POLYLINE
  8
T02SSILL
 62
6
 66
     1
 70
     9
  0
VERTEX
  8
T02SSILL
 62
6
 10
288.426
 20
-843.034
 30
5037.121
 70
    32
  0
VERTEX
  8
T02SSILL
 62
6
 10
278.627
 20
-846.584
 30
5037.148
 70
    32
  0
VERTEX
  8
T02SSILL
 62
6
 10
253.565
 20
-852.522
 30
5037.213
 70
    32
  0
VERTEX
  8
T02SSILL
 62
6
 10
250.280
 20
-856.957
 30
5037.226
 70
    32
  0
VERTEX
  8
T02SSILL
 62
6
 10
286.694
 20
-922.595
 30
5037.211
 70
    32
  0
VERTEX
  8
T02SSILL
 62
6
 10
293.833
 20
-931.207
 30
5037.204
 70
    32
  0
VERTEX
  8
T02SSILL
 62
6
 10
300.554
 20
-934.551
 30
5037.192
 70
    32
  0
VERTEX
  8
T02SSILL
 62
6
 10
304.580
 20
-933.182
 30
5037.181
 70
    32
  0
VERTEX
  8
T02SSILL
 62
6
 10
307.412
 20
-927.698
 30
5037.168
 70
    32
  0
VERTEX
  8
T02SSILL
 62
6
 10
300.979
 20
-891.129
 30
5037.143
 70
    32
  0
VERTEX
  8
T02SSILL
 62
6
 10
293.546
 20
-873.028
 30
5037.141
 70
    32
  0
VERTEX
  8
T02SSILL
 62
6
 10
299.405
 20
-870.670
 30
5037.125
 70
    32
  0
SEQEND
  8
T02SSILL
  0
POLYLINE
  8
T02SSILL
 62
6
 66
     1
 70
     9
  0
VERTEX
  8
T02SSILL
 62
6
 10
310.044
 20
-906.220
 30
5037.138
 70
    32
  0
VERTEX
  8
T02SSILL
 62
6
 10
311.756
 20
-902.508
 30
5037.130
 70
    32
  0
VERTEX
  8
T02SSILL
 62
6
 10
314.909
 20
-901.677
 30
5037.122
 70
    32
  0
VERTEX
  8
T02SSILL
 62
6
 10
321.037
 20
-906.786
 30
5037.113
 70
    32
  0
VERTEX
  8
T02SSILL
 62
6
 10
324.922
 20
-915.263
 30
5037.113
 70
    32
  0
VERTEX
  8
T02SSILL
 62
6
 10
326.238
 20
-922.102
 30
5037.118
 70
    32
  0
VERTEX
  8
T02SSILL
 62
6
 10
323.655
 20
-926.353
 30
5037.128
 70
    32
  0
VERTEX
  8
T02SSILL
 62
6
 10
318.412
 20
-928.791
 30
5037.143
 70
    32
  0
VERTEX
  8
T02SSILL
 62
6
 10
314.333
 20
-925.942
 30
5037.150
 70
    32
  0
SEQEND
  8
T02SSILL
  0
POLYLINE
  8
T02SSILL
 62
6
 66
     1
 70
     9
  0
VERTEX
  8
T02SSILL
 62
6
 10
327.251
 20
-975.086
 30
5037.173
 70
    32
  0
VERTEX
  8
T02SSILL
 62
6
 10
328.577
 20
-982.716
 30
5037.178
 70
    32
  0
VERTEX
  8
T02SSILL
 62
6
 10
332.357
 20
-989.876
 30
5037.177
 70
    32
  0
VERTEX
  8
T02SSILL
 62
6
 10
343.233
 20
-1002.132
 30
5037.165
 70
    32
  0
VERTEX
  8
T02SSILL
 62
6
 10
347.746
 20
-1004.625
 30
5037.157
 70
    32
  0
VERTEX
  8
T02SSILL
 62
6
 10
354.247
 20
-1004.368
 30
5037.141
 70
    32
  0
VERTEX
  8
T02SSILL
 62
6
 10
358.476
 20
-998.163
 30
5037.124
 70
    32
  0
VERTEX
  8
T02SSILL
 62
6
 10
351.848
 20
-981.195
 30
5037.121
 70
    32
  0
VERTEX
  8
T02SSILL
 62
6
 10
352.707
 20
-972.571
 30
5037.110
 70
    32
  0
VERTEX
  8
T02SSILL
 62
6
 10
351.787
 20
-962.212
 30
5037.101
 70
    32
  0
VERTEX
  8
T02SSILL
 62
6
 10
343.657
 20
-951.591
 30
5037.109
 70
    32
  0
VERTEX
  8
T02SSILL
 62
6
 10
340.824
 20
-942.925
 30
5037.106
 70
    32
  0
VERTEX
  8
T02SSILL
 62
6
 10
327.678
 20
-938.871
 30
5037.132
 70
    32
  0
VERTEX
  8
T02SSILL
 62
6
 10
319.366
 20
-941.875
 30
5037.155
 70
    32
  0
VERTEX
  8
T02SSILL
 62
6
 10
320.401
 20
-947.311
 30
5037.159
 70
    32
  0
SEQEND
  8
T02SSILL
  0
POLYLINE
  8
T02SSILL
 62
6
 66
     1
 70
     9
  0
VERTEX
  8
T02SSILL
 62
6
 10
178.512
 20
-951.455
 30
5037.498
 70
    32
  0
VERTEX
  8
T02SSILL
 62
6
 10
179.194
 20
-949.776
 30
5037.495
 70
    32
  0
VERTEX
  8
T02SSILL
 62
6
 10
182.097
 20
-950.004
 30
5037.488
 70
    32
  0
VERTEX
  8
T02SSILL
 62
6
 10
187.545
 20
-956.967
 30
5037.483
 70
    32
  0
VERTEX
  8
T02SSILL
 62
6
 10
187.768
 20
-960.743
 30
5037.486
 70
    32
  0
VERTEX
  8
T02SSILL
 62
6
 10
186.560
 20
-962.516
 30
5037.491
 70
    32
  0
VERTEX
  8
T02SSILL
 62
6
 10
183.561
 20
-961.675
 30
5037.497
 70
    32
  0
VERTEX
  8
T02SSILL
 62
6
 10
182.391
 20
-959.492
 30
5037.498
 70
    32
  0
SEQEND
  8
T02SSILL
  0
POLYLINE
  8
T02SSILL
 62
6
 66
     1
 70
     9
  0
VERTEX
  8
T02SSILL
 62
6
 10
192.446
 20
-969.386
 30
5037.485
 70
    32
  0
VERTEX
  8
T02SSILL
 62
6
 10
188.402
 20
-969.261
 30
5037.494
 70
    32
  0
VERTEX
  8
T02SSILL
 62
6
 10
186.665
 20
-970.952
 30
5037.500
 70
    32
  0
VERTEX
  8
T02SSILL
 62
6
 10
189.571
 20
-978.474
 30
5037.501
 70
    32
  0
VERTEX
  8
T02SSILL
 62
6
 10
191.516
 20
-979.329
 30
5037.498
 70
    32
  0
VERTEX
  8
T02SSILL
 62
6
 10
195.110
 20
-978.581
 30
5037.488
 70
    32
  0
VERTEX
  8
T02SSILL
 62
6
 10
196.297
 20
-975.138
 30
5037.482
 70
    32
  0
SEQEND
  8
T02SSILL
  0
POLYLINE
  8
T02SSILL
 62
6
 66
     1
 70
     9
  0
VERTEX
  8
T02SSILL
 62
6
 10
205.935
 20
-965.702
 30
5037.449
 70
    32
  0
VERTEX
  8
T02SSILL
 62
6
 10
200.860
 20
-967.523
 30
5037.463
 70
    32
  0
VERTEX
  8
T02SSILL
 62
6
 10
200.802
 20
-969.897
 30
5037.466
 70
    32
  0
VERTEX
  8
T02SSILL
 62
6
 10
243.383
 20
-1064.901
 30
5037.468
 70
    32
  0
VERTEX
  8
T02SSILL
 62
6
 10
248.368
 20
-1062.905
 30
5037.455
 70
    32
  0
VERTEX
  8
T02SSILL
 62
6
 10
257.759
 20
-1083.002
 30
5037.454
 70
    32
  0
VERTEX
  8
T02SSILL
 62
6
 10
266.770
 20
-1079.638
 30
5037.429
 70
    32
  0
VERTEX
  8
T02SSILL
 62
6
 10
281.343
 20
-1071.282
 30
5037.386
 70
    32
  0
VERTEX
  8
T02SSILL
 62
6
 10
282.888
 20
-1068.275
 30
5037.379
 70
    32
  0
VERTEX
  8
T02SSILL
 62
6
 10
275.596
 20
-1040.329
 30
5037.366
 70
    32
  0
VERTEX
  8
T02SSILL
 62
6
 10
260.023
 20
-1053.092
 30
5037.416
 70
    32
  0
VERTEX
  8
T02SSILL
 62
6
 10
244.253
 20
-1035.974
 30
5037.435
 70
    32
  0
VERTEX
  8
T02SSILL
 62
6
 10
249.211
 20
-1031.870
 30
5037.419
 70
    32
  0
VERTEX
  8
T02SSILL
 62
6
 10
240.834
 20
-1022.570
 30
5037.428
 70
    32
  0
VERTEX
  8
T02SSILL
 62
6
 10
250.229
 20
-1014.806
 30
5037.398
 70
    32
  0
VERTEX
  8
T02SSILL
 62
6
 10
266.000
 20
-1032.012
 30
5037.379
 70
    32
  0
VERTEX
  8
T02SSILL
 62
6
 10
270.804
 20
-1029.667
 30
5037.365
 70
    32
  0
VERTEX
  8
T02SSILL
 62
6
 10
287.511
 20
-1009.156
 30
5037.304
 70
    32
  0
VERTEX
  8
T02SSILL
 62
6
 10
296.632
 20
-1000.517
 30
5037.273
 70
    32
  0
VERTEX
  8
T02SSILL
 62
6
 10
313.007
 20
-988.711
 30
5037.221
 70
    32
  0
VERTEX
  8
T02SSILL
 62
6
 10
316.389
 20
-985.065
 30
5037.209
 70
    32
  0
VERTEX
  8
T02SSILL
 62
6
 10
317.563
 20
-980.480
 30
5037.202
 70
    32
  0
VERTEX
  8
T02SSILL
 62
6
 10
314.364
 20
-970.677
 30
5037.198
 70
    32
  0
VERTEX
  8
T02SSILL
 62
6
 10
307.104
 20
-959.342
 30
5037.203
 70
    32
  0
VERTEX
  8
T02SSILL
 62
6
 10
299.732
 20
-953.194
 30
5037.214
 70
    32
  0
VERTEX
  8
T02SSILL
 62
6
 10
293.269
 20
-949.407
 30
5037.225
 70
    32
  0
VERTEX
  8
T02SSILL
 62
6
 10
272.136
 20
-953.274
 30
5037.279
 70
    32
  0
SEQEND
  8
T02SSILL
  0
POLYLINE
  8
T02SSILL
 62
6
 66
     1
 70
     9
  0
VERTEX
  8
T02SSILL
 62
6
 10
-148.644
 20
-716.392
 30
5038.014
 70
    32
  0
VERTEX
  8
T02SSILL
 62
6
 10
-150.793
 20
-713.255
 30
5038.016
 70
    32
  0
VERTEX
  8
T02SSILL
 62
6
 10
-154.311
 20
-713.035
 30
5038.024
 70
    32
  0
VERTEX
  8
T02SSILL
 62
6
 10
-172.610
 20
-718.625
 30
5038.073
 70
    32
  0
VERTEX
  8
T02SSILL
 62
6
 10
-175.025
 20
-722.258
 30
5038.083
 70
    32
  0
VERTEX
  8
T02SSILL
 62
6
 10
-147.563
 20
-767.793
 30
5038.068
 70
    32
  0
VERTEX
  8
T02SSILL
 62
6
 10
-144.812
 20
-769.956
 30
5038.064
 70
    32
  0
VERTEX
  8
T02SSILL
 62
6
 10
-136.260
 20
-772.047
 30
5038.046
 70
    32
  0
VERTEX
  8
T02SSILL
 62
6
 10
-133.829
 20
-769.644
 30
5038.037
 70
    32
  0
VERTEX
  8
T02SSILL
 62
6
 10
-134.753
 20
-766.052
 30
5038.036
 70
    32
  0
SEQEND
  8
T02SSILL
  0
POLYLINE
  8
T02SSILL
 62
6
 66
     1
 70
     9
  0
VERTEX
  8
T02SSILL
 62
6
 10
444.531
 20
-1133.693
 30
5037.069
 70
    32
  0
VERTEX
  8
T02SSILL
 62
6
 10
456.766
 20
-1130.777
 30
5037.037
 70
    32
  0
VERTEX
  8
T02SSILL
 62
6
 10
459.154
 20
-1131.425
 30
5037.032
 70
    32
  0
VERTEX
  8
T02SSILL
 62
6
 10
460.527
 20
-1133.854
 30
5037.031
 70
    32
  0
VERTEX
  8
T02SSILL
 62
6
 10
476.134
 20
-1190.000
 30
5037.055
 70
    32
  0
VERTEX
  8
T02SSILL
 62
6
 10
474.818
 20
-1205.496
 30
5037.075
 70
    32
  0
VERTEX
  8
T02SSILL
 62
6
 10
471.918
 20
-1205.475
 30
5037.082
 70
    32
  0
VERTEX
  8
T02SSILL
 62
6
 10
457.155
 20
-1190.083
 30
5037.100
 70
    32
  0
VERTEX
  8
T02SSILL
 62
6
 10
456.096
 20
-1186.065
 30
5037.098
 70
    32
  0
VERTEX
  8
T02SSILL
 62
6
 10
458.448
 20
-1185.132
 30
5037.092
 70
    32
  0
SEQEND
  8
T02SSILL
  0
POLYLINE
  8
T02SSILL
 62
6
 66
     1
 70
     9
  0
VERTEX
  8
T02SSILL
 62
6
 10
290.621
 20
-1074.116
 30
5037.367
 70
    32
  0
VERTEX
  8
T02SSILL
 62
6
 10
296.002
 20
-1071.181
 30
5037.351
 70
    32
  0
VERTEX
  8
T02SSILL
 62
6
 10
310.072
 20
-1067.784
 30
5037.314
 70
    32
  0
VERTEX
  8
T02SSILL
 62
6
 10
311.784
 20
-1073.457
 30
5037.316
 70
    32
  0
VERTEX
  8
T02SSILL
 62
6
 10
264.138
 20
-1095.723
 30
5037.453
 70
    32
  0
VERTEX
  8
T02SSILL
 62
6
 10
262.013
 20
-1091.202
 30
5037.453
 70
    32
  0
VERTEX
  8
T02SSILL
 62
6
 10
270.865
 20
-1086.342
 30
5037.427
 70
    32
  0
SEQEND
  8
T02SSILL
  0
POLYLINE
  8
T02SSILL
 62
6
 66
     1
 70
     9
  0
VERTEX
  8
T02SSILL
 62
6
 10
412.485
 20
-1331.086
 30
5037.317
 70
    32
  0
VERTEX
  8
T02SSILL
 62
6
 10
409.294
 20
-1333.707
 30
5037.320
 70
    32
  0
VERTEX
  8
T02SSILL
 62
6
 10
364.259
 20
-1324.103
 30
5037.392
 70
    32
  0
VERTEX
  8
T02SSILL
 62
6
 10
365.105
 20
-1318.811
 30
5037.394
 70
    32
  0
VERTEX
  8
T02SSILL
 62
6
 10
378.744
 20
-1315.776
 30
5037.377
 70
    32
  0
VERTEX
  8
T02SSILL
 62
6
 10
379.930
 20
-1321.548
 30
5037.371
 70
    32
  0
VERTEX
  8
T02SSILL
 62
6
 10
408.689
 20
-1314.916
 30
5037.334
 70
    32
  0
SEQEND
  8
T02SSILL
  0
POLYLINE
  8
T02SSILL
 62
6
 66
     1
 70
     9
  0
VERTEX
  8
T02SSILL
 62
6
 10
414.025
 20
-1436.938
 30
5037.237
 70
    32
  0
VERTEX
  8
T02SSILL
 62
6
 10
407.223
 20
-1443.069
 30
5037.242
 70
    32
  0
VERTEX
  8
T02SSILL
 62
6
 10
377.641
 20
-1455.959
 30
5037.276
 70
    32
  0
VERTEX
  8
T02SSILL
 62
6
 10
348.762
 20
-1376.566
 30
5037.375
 70
    32
  0
VERTEX
  8
T02SSILL
 62
6
 10
344.143
 20
-1378.253
 30
5037.381
 70
    32
  0
VERTEX
  8
T02SSILL
 62
6
 10
333.840
 20
-1350.369
 30
5037.416
 70
    32
  0
VERTEX
  8
T02SSILL
 62
6
 10
338.630
 20
-1348.502
 30
5037.411
 70
    32
  0
VERTEX
  8
T02SSILL
 62
6
 10
332.442
 20
-1331.508
 30
5037.432
 70
    32
  0
VERTEX
  8
T02SSILL
 62
6
 10
349.258
 20
-1325.237
 30
5037.412
 70
    32
  0
VERTEX
  8
T02SSILL
 62
6
 10
351.141
 20
-1330.730
 30
5037.406
 70
    32
  0
VERTEX
  8
T02SSILL
 62
6
 10
358.726
 20
-1328.096
 30
5037.397
 70
    32
  0
VERTEX
  8
T02SSILL
 62
6
 10
408.272
 20
-1339.003
 30
5037.317
 70
    32
  0
VERTEX
  8
T02SSILL
 62
6
 10
415.660
 20
-1343.140
 30
5037.303
 70
    32
  0
VERTEX
  8
T02SSILL
 62
6
 10
437.187
 20
-1431.488
 30
5037.208
 70
    32
  0
SEQEND
  8
T02SSILL
  0
POLYLINE
  8
T02SSILL
 62
6
 66
     1
 70
     9
  0
VERTEX
  8
T02SSILL
 62
6
 10
438.769
 20
-1508.429
 30
5037.149
 70
    32
  0
VERTEX
  8
T02SSILL
 62
6
 10
440.088
 20
-1504.620
 30
5037.150
 70
    32
  0
VERTEX
  8
T02SSILL
 62
6
 10
502.530
 20
-1422.262
 30
5037.120
 70
    32
  0
VERTEX
  8
T02SSILL
 62
6
 10
530.194
 20
-1413.897
 30
5037.086
 70
    32
  0
VERTEX
  8
T02SSILL
 62
6
 10
568.541
 20
-1396.149
 30
5037.047
 70
    32
  0
VERTEX
  8
T02SSILL
 62
6
 10
577.378
 20
-1398.320
 30
5037.036
 70
    32
  0
VERTEX
  8
T02SSILL
 62
6
 10
587.791
 20
-1407.924
 30
5037.019
 70
    32
  0
VERTEX
  8
T02SSILL
 62
6
 10
578.301
 20
-1538.721
 30
5036.940
 70
    32
  0
VERTEX
  8
T02SSILL
 62
6
 10
572.495
 20
-1546.147
 30
5036.941
 70
    32
  0
VERTEX
  8
T02SSILL
 62
6
 10
466.613
 20
-1565.613
 30
5037.065
 70
    32
  0
VERTEX
  8
T02SSILL
 62
6
 10
461.611
 20
-1562.037
 30
5037.075
 70
    32
  0
VERTEX
  8
T02SSILL
 62
6
 10
442.037
 20
-1528.389
 30
5037.129
 70
    32
  0
VERTEX
  8
T02SSILL
 62
6
 10
444.250
 20
-1525.263
 30
5037.128
 70
    32
  0
VERTEX
  8
T02SSILL
 62
6
 10
492.541
 20
-1515.812
 30
5037.065
 70
    32
  0
VERTEX
  8
T02SSILL
 62
6
 10
491.448
 20
-1510.301
 30
5037.071
 70
    32
  0
VERTEX
  8
T02SSILL
 62
6
 10
440.347
 20
-1519.816
 30
5037.138
 70
    32
  0
VERTEX
  8
T02SSILL
 62
6
 10
439.082
 20
-1510.690
 30
5037.147
 70
    32
  0
SEQEND
  8
T02SSILL
  0
POLYLINE
  8
T02SSILL
 62
6
 66
     1
 70
     9
  0
VERTEX
  8
T02SSILL
 62
6
 10
447.618
 20
-1441.882
 30
5037.185
 70
    32
  0
VERTEX
  8
T02SSILL
 62
6
 10
483.707
 20
-1429.195
 30
5037.142
 70
    32
  0
VERTEX
  8
T02SSILL
 62
6
 10
487.047
 20
-1429.206
 30
5037.137
 70
    32
  0
VERTEX
  8
T02SSILL
 62
6
 10
488.147
 20
-1431.202
 30
5037.134
 70
    32
  0
VERTEX
  8
T02SSILL
 62
6
 10
436.892
 20
-1499.333
 30
5037.158
 70
    32
  0
VERTEX
  8
T02SSILL
 62
6
 10
434.171
 20
-1499.483
 30
5037.162
 70
    32
  0
VERTEX
  8
T02SSILL
 62
6
 10
431.478
 20
-1496.996
 30
5037.168
 70
    32
  0
VERTEX
  8
T02SSILL
 62
6
 10
426.049
 20
-1470.934
 30
5037.195
 70
    32
  0
VERTEX
  8
T02SSILL
 62
6
 10
424.696
 20
-1454.005
 30
5037.209
 70
    32
  0
VERTEX
  8
T02SSILL
 62
6
 10
429.361
 20
-1450.472
 30
5037.205
 70
    32
  0
SEQEND
  8
T02SSILL
  0
POLYLINE
  8
T02SSILL
 62
6
 66
     1
 70
     9
  0
VERTEX
  8
T02SSILL
 62
6
 10
707.587
 20
-1612.832
 30
5036.756
 70
    32
  0
VERTEX
  8
T02SSILL
 62
6
 10
707.615
 20
-1614.062
 30
5036.755
 70
    32
  0
VERTEX
  8
T02SSILL
 62
6
 10
695.784
 20
-1615.474
 30
5036.766
 70
    32
  0
VERTEX
  8
T02SSILL
 62
6
 10
696.438
 20
-1620.995
 30
5036.762
 70
    32
  0
VERTEX
  8
T02SSILL
 62
6
 10
703.108
 20
-1620.667
 30
5036.755
 70
    32
  0
VERTEX
  8
T02SSILL
 62
6
 10
707.528
 20
-1656.419
 30
5036.726
 70
    32
  0
VERTEX
  8
T02SSILL
 62
6
 10
701.133
 20
-1657.268
 30
5036.732
 70
    32
  0
VERTEX
  8
T02SSILL
 62
6
 10
702.360
 20
-1668.663
 30
5036.723
 70
    32
  0
VERTEX
  8
T02SSILL
 62
6
 10
696.930
 20
-1669.490
 30
5036.728
 70
    32
  0
VERTEX
  8
T02SSILL
 62
6
 10
697.084
 20
-1672.386
 30
5036.726
 70
    32
  0
VERTEX
  8
T02SSILL
 62
6
 10
694.095
 20
-1676.145
 30
5036.727
 70
    32
  0
VERTEX
  8
T02SSILL
 62
6
 10
676.332
 20
-1679.451
 30
5036.743
 70
    32
  0
VERTEX
  8
T02SSILL
 62
6
 10
657.497
 20
-1693.502
 30
5036.752
 70
    32
  0
VERTEX
  8
T02SSILL
 62
6
 10
655.039
 20
-1693.646
 30
5036.755
 70
    32
  0
VERTEX
  8
T02SSILL
 62
6
 10
652.269
 20
-1691.600
 30
5036.759
 70
    32
  0
VERTEX
  8
T02SSILL
 62
6
 10
641.118
 20
-1672.786
 30
5036.783
 70
    32
  0
VERTEX
  8
T02SSILL
 62
6
 10
642.913
 20
-1662.904
 30
5036.788
 70
    32
  0
VERTEX
  8
T02SSILL
 62
6
 10
674.448
 20
-1600.847
 30
5036.798
 70
    32
  0
VERTEX
  8
T02SSILL
 62
6
 10
678.718
 20
-1599.256
 30
5036.795
 70
    32
  0
SEQEND
  8
T02SSILL
  0
POLYLINE
  8
T02SSILL
 62
6
 66
     1
 70
     9
  0
VERTEX
  8
T02SSILL
 62
6
 10
686.657
 20
-1377.546
 30
5035.990
 70
    32
  0
VERTEX
  8
T02SSILL
 62
6
 10
699.476
 20
-1527.077
 30
5036.822
 70
    32
  0
VERTEX
  8
T02SSILL
 62
6
 10
703.495
 20
-1529.885
 30
5036.816
 70
    32
  0
VERTEX
  8
T02SSILL
 62
6
 10
709.366
 20
-1583.002
 30
5036.774
 70
    32
  0
VERTEX
  8
T02SSILL
 62
6
 10
704.026
 20
-1583.915
 30
5036.779
 70
    32
  0
VERTEX
  8
T02SSILL
 62
6
 10
706.312
 20
-1607.061
 30
5036.761
 70
    32
  0
VERTEX
  8
T02SSILL
 62
6
 10
666.510
 20
-1588.023
 30
5036.815
 70
    32
  0
VERTEX
  8
T02SSILL
 62
6
 10
672.234
 20
-1576.996
 30
5036.817
 70
    32
  0
VERTEX
  8
T02SSILL
 62
6
 10
661.652
 20
-1571.526
 30
5036.831
 70
    32
  0
VERTEX
  8
T02SSILL
 62
6
 10
666.854
 20
-1560.775
 30
5036.833
 70
    32
  0
VERTEX
  8
T02SSILL
 62
6
 10
661.445
 20
-1558.614
 30
5036.840
 70
    32
  0
VERTEX
  8
T02SSILL
 62
6
 10
664.229
 20
-1553.541
 30
5036.841
 70
    32
  0
VERTEX
  8
T02SSILL
 62
6
 10
658.627
 20
-1550.682
 30
5036.849
 70
    32
  0
VERTEX
  8
T02SSILL
 62
6
 10
661.303
 20
-1544.733
 30
5036.850
 70
    32
  0
VERTEX
  8
T02SSILL
 62
6
 10
656.237
 20
-1542.213
 30
5036.857
 70
    32
  0
VERTEX
  8
T02SSILL
 62
6
 10
658.847
 20
-1537.232
 30
5036.857
 70
    32
  0
VERTEX
  8
T02SSILL
 62
6
 10
654.226
 20
-1534.965
 30
5036.864
 70
    32
  0
VERTEX
  8
T02SSILL
 62
6
 10
659.263
 20
-1524.657
 30
5036.866
 70
    32
  0
VERTEX
  8
T02SSILL
 62
6
 10
653.749
 20
-1521.795
 30
5036.873
 70
    32
  0
VERTEX
  8
T02SSILL
 62
6
 10
656.689
 20
-1515.840
 30
5036.874
 70
    32
  0
VERTEX
  8
T02SSILL
 62
6
 10
629.936
 20
-1502.567
 30
5036.911
 70
    32
  0
VERTEX
  8
T02SSILL
 62
6
 10
608.311
 20
-1544.538
 30
5036.905
 70
    32
  0
VERTEX
  8
T02SSILL
 62
6
 10
602.720
 20
-1542.117
 30
5036.912
 70
    32
  0
VERTEX
  8
T02SSILL
 62
6
 10
600.036
 20
-1547.714
 30
5036.911
 70
    32
  0
VERTEX
  8
T02SSILL
 62
6
 10
589.881
 20
-1541.707
 30
5036.926
 70
    32
  0
VERTEX
  8
T02SSILL
 62
6
 10
584.474
 20
-1531.989
 30
5036.938
 70
    32
  0
VERTEX
  8
T02SSILL
 62
6
 10
593.347
 20
-1416.496
 30
5037.007
 70
    32
  0
VERTEX
  8
T02SSILL
 62
6
 10
599.332
 20
-1405.376
 30
5036.909
 70
    32
  0
VERTEX
  8
T02SSILL
 62
6
 10
610.903
 20
-1388.767
 30
5036.698
 70
    32
  0
VERTEX
  8
T02SSILL
 62
6
 10
643.514
 20
-1431.519
 30
5036.720
 70
    32
  0
VERTEX
  8
T02SSILL
 62
6
 10
642.380
 20
-1458.786
 30
5036.917
 70
    32
  0
VERTEX
  8
T02SSILL
 62
6
 10
648.173
 20
-1462.344
 30
5036.893
 70
    32
  0
VERTEX
  8
T02SSILL
 62
6
 10
650.061
 20
-1429.612
 30
5036.652
 70
    32
  0
VERTEX
  8
T02SSILL
 62
6
 10
613.917
 20
-1382.195
 30
5036.628
 70
    32
  0
VERTEX
  8
T02SSILL
 62
6
 10
615.460
 20
-1372.845
 30
5036.551
 70
    32
  0
VERTEX
  8
T02SSILL
 62
6
 10
616.362
 20
-1370.013
 30
5036.524
 70
    32
  0
VERTEX
  8
T02SSILL
 62
6
 10
627.226
 20
-1360.889
 30
5036.371
 70
    32
  0
VERTEX
  8
T02SSILL
 62
6
 10
669.818
 20
-1344.363
 30
5035.902
 70
    32
  0
VERTEX
  8
T02SSILL
 62
6
 10
675.859
 20
-1347.212
 30
5035.871
 70
    32
  0
SEQEND
  8
T02SSILL
  0
POLYLINE
  8
T02SSILL
 62
6
 66
     1
 70
     9
  0
VERTEX
  8
T02SSILL
 62
6
 10
522.077
 20
-1370.146
 30
5037.130
 70
    32
  0
VERTEX
  8
T02SSILL
 62
6
 10
527.212
 20
-1364.141
 30
5037.124
 70
    32
  0
VERTEX
  8
T02SSILL
 62
6
 10
553.559
 20
-1367.318
 30
5037.066
 70
    32
  0
VERTEX
  8
T02SSILL
 62
6
 10
556.364
 20
-1370.856
 30
5037.063
 70
    32
  0
VERTEX
  8
T02SSILL
 62
6
 10
555.580
 20
-1375.004
 30
5037.069
 70
    32
  0
VERTEX
  8
T02SSILL
 62
6
 10
540.489
 20
-1387.564
 30
5037.091
 70
    32
  0
VERTEX
  8
T02SSILL
 62
6
 10
530.527
 20
-1393.854
 30
5037.101
 70
    32
  0
VERTEX
  8
T02SSILL
 62
6
 10
526.365
 20
-1392.456
 30
5037.108
 70
    32
  0
SEQEND
  8
T02SSILL
  0
POLYLINE
  8
T02SSILL
 62
6
 66
     1
 70
     9
  0
VERTEX
  8
T02SSILL
 62
6
 10
454.574
 20
-1427.136
 30
5037.186
 70
    32
  0
VERTEX
  8
T02SSILL
 62
6
 10
444.775
 20
-1386.675
 30
5037.230
 70
    32
  0
VERTEX
  8
T02SSILL
 62
6
 10
450.284
 20
-1385.494
 30
5037.222
 70
    32
  0
VERTEX
  8
T02SSILL
 62
6
 10
438.725
 20
-1337.252
 30
5037.275
 70
    32
  0
VERTEX
  8
T02SSILL
 62
6
 10
442.762
 20
-1333.206
 30
5037.272
 70
    32
  0
VERTEX
  8
T02SSILL
 62
6
 10
480.609
 20
-1324.345
 30
5037.191
 70
    32
  0
VERTEX
  8
T02SSILL
 62
6
 10
487.099
 20
-1327.623
 30
5037.179
 70
    32
  0
VERTEX
  8
T02SSILL
 62
6
 10
507.139
 20
-1358.624
 30
5037.160
 70
    32
  0
VERTEX
  8
T02SSILL
 62
6
 10
514.171
 20
-1374.105
 30
5037.139
 70
    32
  0
VERTEX
  8
T02SSILL
 62
6
 10
514.690
 20
-1389.120
 30
5037.127
 70
    32
  0
VERTEX
  8
T02SSILL
 62
6
 10
510.278
 20
-1399.853
 30
5037.125
 70
    32
  0
VERTEX
  8
T02SSILL
 62
6
 10
502.771
 20
-1405.912
 30
5037.132
 70
    32
  0
SEQEND
  8
T02SSILL
  0
POLYLINE
  8
T02SSILL
 62
6
 66
     1
 70
     9
  0
VERTEX
  8
T02SSILL
 62
6
 10
511.224
 20
-1329.708
 30
5037.125
 70
    32
  0
VERTEX
  8
T02SSILL
 62
6
 10
513.682
 20
-1337.297
 30
5037.127
 70
    32
  0
VERTEX
  8
T02SSILL
 62
6
 10
514.591
 20
-1346.327
 30
5037.135
 70
    32
  0
VERTEX
  8
T02SSILL
 62
6
 10
513.655
 20
-1351.533
 30
5037.143
 70
    32
  0
VERTEX
  8
T02SSILL
 62
6
 10
512.073
 20
-1351.482
 30
5037.146
 70
    32
  0
VERTEX
  8
T02SSILL
 62
6
 10
496.760
 20
-1327.403
 30
5037.156
 70
    32
  0
VERTEX
  8
T02SSILL
 62
6
 10
497.300
 20
-1324.139
 30
5037.151
 70
    32
  0
VERTEX
  8
T02SSILL
 62
6
 10
503.753
 20
-1321.970
 30
5037.134
 70
    32
  0
VERTEX
  8
T02SSILL
 62
6
 10
506.428
 20
-1323.667
 30
5037.129
 70
    32
  0
SEQEND
  8
T02SSILL
  0
POLYLINE
  8
T02SSILL
 62
6
 66
     1
 70
     9
  0
VERTEX
  8
T02SSILL
 62
6
 10
433.868
 20
-1316.977
 30
5037.293
 70
    32
  0
VERTEX
  8
T02SSILL
 62
6
 10
434.677
 20
-1321.615
 30
5037.292
 70
    32
  0
VERTEX
  8
T02SSILL
 62
6
 10
441.821
 20
-1326.637
 30
5037.278
 70
    32
  0
VERTEX
  8
T02SSILL
 62
6
 10
478.375
 20
-1318.860
 30
5037.190
 70
    32
  0
VERTEX
  8
T02SSILL
 62
6
 10
479.937
 20
-1314.167
 30
5037.181
 70
    32
  0
VERTEX
  8
T02SSILL
 62
6
 10
469.221
 20
-1291.301
 30
5037.182
 70
    32
  0
VERTEX
  8
T02SSILL
 62
6
 10
448.017
 20
-1293.982
 30
5037.235
 70
    32
  0
VERTEX
  8
T02SSILL
 62
6
 10
447.821
 20
-1289.241
 30
5037.230
 70
    32
  0
VERTEX
  8
T02SSILL
 62
6
 10
466.304
 20
-1286.710
 30
5037.184
 70
    32
  0
VERTEX
  8
T02SSILL
 62
6
 10
468.558
 20
-1285.341
 30
5037.177
 70
    32
  0
VERTEX
  8
T02SSILL
 62
6
 10
475.866
 20
-1224.453
 30
5037.093
 70
    32
  0
VERTEX
  8
T02SSILL
 62
6
 10
474.518
 20
-1219.299
 30
5037.091
 70
    32
  0
VERTEX
  8
T02SSILL
 62
6
 10
470.907
 20
-1215.076
 30
5037.095
 70
    32
  0
VERTEX
  8
T02SSILL
 62
6
 10
443.206
 20
-1187.238
 30
5037.130
 70
    32
  0
VERTEX
  8
T02SSILL
 62
6
 10
424.751
 20
-1175.621
 30
5037.161
 70
    32
  0
VERTEX
  8
T02SSILL
 62
6
 10
416.960
 20
-1146.185
 30
5037.147
 70
    32
  0
VERTEX
  8
T02SSILL
 62
6
 10
393.010
 20
-1151.741
 30
5037.210
 70
    32
  0
SEQEND
  8
T02SSILL
  0
POLYLINE
  8
T02SSILL
 62
6
 66
     1
 70
     9
  0
VERTEX
  8
T02SSILL
 62
6
 10
477.996
 20
-1286.882
 30
5037.156
 70
    32
  0
VERTEX
  8
T02SSILL
 62
6
 10
477.011
 20
-1282.248
 30
5037.154
 70
    32
  0
VERTEX
  8
T02SSILL
 62
6
 10
478.731
 20
-1276.760
 30
5037.144
 70
    32
  0
VERTEX
  8
T02SSILL
 62
6
 10
480.421
 20
-1273.822
 30
5037.136
 70
    32
  0
VERTEX
  8
T02SSILL
 62
6
 10
483.146
 20
-1273.847
 30
5037.130
 70
    32
  0
VERTEX
  8
T02SSILL
 62
6
 10
484.376
 20
-1277.686
 30
5037.131
 70
    32
  0
VERTEX
  8
T02SSILL
 62
6
 10
490.982
 20
-1286.058
 30
5037.125
 70
    32
  0
VERTEX
  8
T02SSILL
 62
6
 10
495.197
 20
-1293.607
 30
5037.123
 70
    32
  0
VERTEX
  8
T02SSILL
 62
6
 10
501.039
 20
-1310.873
 30
5037.128
 70
    32
  0
VERTEX
  8
T02SSILL
 62
6
 10
499.600
 20
-1313.278
 30
5037.134
 70
    32
  0
VERTEX
  8
T02SSILL
 62
6
 10
492.175
 20
-1315.205
 30
5037.154
 70
    32
  0
VERTEX
  8
T02SSILL
 62
6
 10
488.724
 20
-1314.142
 30
5037.161
 70
    32
  0
VERTEX
  8
T02SSILL
 62
6
 10
486.899
 20
-1311.196
 30
5037.162
 70
    32
  0
SEQEND
  8
T02SSILL
  0
POLYLINE
  8
T02SSILL
 62
6
 66
     1
 70
     9
  0
VERTEX
  8
T02SSILL
 62
6
 10
675.678
 20
-1239.308
 30
5035.526
 70
    32
  0
VERTEX
  8
T02SSILL
 62
6
 10
656.596
 20
-1242.556
 30
5035.731
 70
    32
  0
VERTEX
  8
T02SSILL
 62
6
 10
656.000
 20
-1247.227
 30
5035.749
 70
    32
  0
VERTEX
  8
T02SSILL
 62
6
 10
650.333
 20
-1249.202
 30
5035.813
 70
    32
  0
VERTEX
  8
T02SSILL
 62
6
 10
671.390
 20
-1332.376
 30
5035.815
 70
    32
  0
VERTEX
  8
T02SSILL
 62
6
 10
674.586
 20
-1333.797
 30
5035.790
 70
    32
  0
VERTEX
  8
T02SSILL
 62
6
 10
677.215
 20
-1333.473
 30
5035.766
 70
    32
  0
VERTEX
  8
T02SSILL
 62
6
 10
703.673
 20
-1322.324
 30
5035.468
 70
    32
  0
VERTEX
  8
T02SSILL
 62
6
 10
710.512
 20
-1317.774
 30
5035.380
 70
    32
  0
VERTEX
  8
T02SSILL
 62
6
 10
693.529
 20
-1270.622
 30
5035.425
 70
    32
  0
VERTEX
  8
T02SSILL
 62
6
 10
688.038
 20
-1272.593
 30
5035.486
 70
    32
  0
SEQEND
  8
T02SSILL
  0
POLYLINE
  8
T02SSILL
 62
6
 66
     1
 70
     9
  0
VERTEX
  8
T02SSILL
 62
6
 10
710.010
 20
-1334.306
 30
5035.498
 70
    32
  0
VERTEX
  8
T02SSILL
 62
6
 10
706.417
 20
-1330.873
 30
5035.504
 70
    32
  0
VERTEX
  8
T02SSILL
 62
6
 10
684.719
 20
-1338.838
 30
5035.740
 70
    32
  0
VERTEX
  8
T02SSILL
 62
6
 10
681.630
 20
-1345.938
 30
5035.814
 70
    32
  0
VERTEX
  8
T02SSILL
 62
6
 10
692.710
 20
-1377.056
 30
5035.936
 70
    32
  0
VERTEX
  8
T02SSILL
 62
6
 10
699.537
 20
-1387.445
 30
5035.950
 70
    32
  0
VERTEX
  8
T02SSILL
 62
6
 10
700.498
 20
-1406.403
 30
5036.072
 70
    32
  0
VERTEX
  8
T02SSILL
 62
6
 10
724.443
 20
-1404.450
 30
5035.859
 70
    32
  0
VERTEX
  8
T02SSILL
 62
6
 10
725.160
 20
-1408.916
 30
5035.884
 70
    32
  0
VERTEX
  8
T02SSILL
 62
6
 10
733.205
 20
-1403.371
 30
5035.779
 70
    32
  0
VERTEX
  8
T02SSILL
 62
6
 10
733.313
 20
-1400.381
 30
5035.757
 70
    32
  0
VERTEX
  8
T02SSILL
 62
6
 10
725.929
 20
-1381.042
 30
5035.686
 70
    32
  0
SEQEND
  8
T02SSILL
  0
POLYLINE
  8
T02SSILL
 62
6
 66
     1
 70
     9
  0
VERTEX
  8
T02SSILL
 62
6
 10
787.934
 20
-1487.270
 30
5035.899
 70
    32
  0
VERTEX
  8
T02SSILL
 62
6
 10
786.828
 20
-1488.877
 30
5035.919
 70
    32
  0
VERTEX
  8
T02SSILL
 62
6
 10
740.178
 20
-1473.950
 30
5036.205
 70
    32
  0
VERTEX
  8
T02SSILL
 62
6
 10
736.174
 20
-1471.757
 30
5036.224
 70
    32
  0
VERTEX
  8
T02SSILL
 62
6
 10
733.517
 20
-1440.095
 30
5036.028
 70
    32
  0
VERTEX
  8
T02SSILL
 62
6
 10
727.902
 20
-1440.487
 30
5036.078
 70
    32
  0
VERTEX
  8
T02SSILL
 62
6
 10
725.698
 20
-1417.075
 30
5035.936
 70
    32
  0
VERTEX
  8
T02SSILL
 62
6
 10
737.029
 20
-1409.172
 30
5035.787
 70
    32
  0
VERTEX
  8
T02SSILL
 62
6
 10
741.003
 20
-1410.047
 30
5035.760
 70
    32
  0
VERTEX
  8
T02SSILL
 62
6
 10
747.625
 20
-1419.123
 30
5035.767
 70
    32
  0
SEQEND
  8
T02SSILL
  0
POLYLINE
  8
T02SSILL
 62
6
 66
     1
 70
     9
  0
VERTEX
  8
T02SSILL
 62
6
 10
751.840
 20
-1361.294
 30
5035.334
 70
    32
  0
VERTEX
  8
T02SSILL
 62
6
 10
752.116
 20
-1365.681
 30
5035.362
 70
    32
  0
VERTEX
  8
T02SSILL
 62
6
 10
776.421
 20
-1410.293
 30
5035.466
 70
    32
  0
VERTEX
  8
T02SSILL
 62
6
 10
776.333
 20
-1421.806
 30
5035.546
 70
    32
  0
VERTEX
  8
T02SSILL
 62
6
 10
773.990
 20
-1423.090
 30
5035.574
 70
    32
  0
VERTEX
  8
T02SSILL
 62
6
 10
761.244
 20
-1419.075
 30
5035.653
 70
    32
  0
VERTEX
  8
T02SSILL
 62
6
 10
752.375
 20
-1411.633
 30
5035.676
 70
    32
  0
VERTEX
  8
T02SSILL
 62
6
 10
741.043
 20
-1392.560
 30
5035.639
 70
    32
  0
VERTEX
  8
T02SSILL
 62
6
 10
738.763
 20
-1373.543
 30
5035.528
 70
    32
  0
VERTEX
  8
T02SSILL
 62
6
 10
734.246
 20
-1360.465
 30
5035.475
 70
    32
  0
VERTEX
  8
T02SSILL
 62
6
 10
732.874
 20
-1350.391
 30
5035.418
 70
    32
  0
VERTEX
  8
T02SSILL
 62
6
 10
734.024
 20
-1339.205
 30
5035.331
 70
    32
  0
VERTEX
  8
T02SSILL
 62
6
 10
741.367
 20
-1318.299
 30
5035.127
 70
    32
  0
VERTEX
  8
T02SSILL
 62
6
 10
745.073
 20
-1315.139
 30
5035.074
 70
    32
  0
VERTEX
  8
T02SSILL
 62
6
 10
758.730
 20
-1309.027
 30
5034.918
 70
    32
  0
VERTEX
  8
T02SSILL
 62
6
 10
759.778
 20
-1312.606
 30
5034.934
 70
    32
  0
VERTEX
  8
T02SSILL
 62
6
 10
757.213
 20
-1327.252
 30
5035.056
 70
    32
  0
SEQEND
  8
T02SSILL
  0
POLYLINE
  8
T02SSILL
 62
6
 66
     1
 70
     9
  0
VERTEX
  8
T02SSILL
 62
6
 10
768.277
 20
-1442.289
 30
5035.754
 70
    32
  0
VERTEX
  8
T02SSILL
 62
6
 10
767.861
 20
-1435.620
 30
5035.711
 70
    32
  0
VERTEX
  8
T02SSILL
 62
6
 10
769.552
 20
-1432.682
 30
5035.677
 70
    32
  0
VERTEX
  8
T02SSILL
 62
6
 10
777.937
 20
-1434.335
 30
5035.619
 70
    32
  0
VERTEX
  8
T02SSILL
 62
6
 10
784.605
 20
-1437.698
 30
5035.586
 70
    32
  0
VERTEX
  8
T02SSILL
 62
6
 10
797.514
 20
-1460.426
 30
5035.635
 70
    32
  0
VERTEX
  8
T02SSILL
 62
6
 10
807.534
 20
-1472.060
 30
5035.631
 70
    32
  0
VERTEX
  8
T02SSILL
 62
6
 10
822.396
 20
-1480.244
 30
5035.563
 70
    32
  0
VERTEX
  8
T02SSILL
 62
6
 10
829.125
 20
-1486.329
 30
5035.549
 70
    32
  0
VERTEX
  8
T02SSILL
 62
6
 10
837.146
 20
-1502.754
 30
5035.595
 70
    32
  0
VERTEX
  8
T02SSILL
 62
6
 10
832.629
 20
-1505.054
 30
5035.648
 70
    32
  0
VERTEX
  8
T02SSILL
 62
6
 10
804.831
 20
-1499.890
 30
5035.845
 70
    32
  0
VERTEX
  8
T02SSILL
 62
6
 10
794.543
 20
-1488.086
 30
5035.849
 70
    32
  0
VERTEX
  8
T02SSILL
 62
6
 10
785.573
 20
-1472.386
 30
5035.816
 70
    32
  0
SEQEND
  8
T02SSILL
  0
POLYLINE
  8
T02SSILL
 62
6
 66
     1
 70
     9
  0
VERTEX
  8
T02SSILL
 62
6
 10
968.346
 20
-1599.141
 30
5035.163
 70
    32
  0
VERTEX
  8
T02SSILL
 62
6
 10
966.418
 20
-1603.228
 30
5035.207
 70
    32
  0
VERTEX
  8
T02SSILL
 62
6
 10
935.416
 20
-1611.669
 30
5035.524
 70
    32
  0
VERTEX
  8
T02SSILL
 62
6
 10
929.853
 20
-1610.478
 30
5035.562
 70
    32
  0
VERTEX
  8
T02SSILL
 62
6
 10
886.095
 20
-1583.710
 30
5035.743
 70
    32
  0
VERTEX
  8
T02SSILL
 62
6
 10
842.658
 20
-1497.883
 30
5035.515
 70
    32
  0
VERTEX
  8
T02SSILL
 62
6
 10
844.081
 20
-1490.909
 30
5035.456
 70
    32
  0
VERTEX
  8
T02SSILL
 62
6
 10
851.876
 20
-1493.630
 30
5035.409
 70
    32
  0
VERTEX
  8
T02SSILL
 62
6
 10
890.551
 20
-1501.798
 30
5035.143
 70
    32
  0
VERTEX
  8
T02SSILL
 62
6
 10
894.041
 20
-1508.396
 30
5035.159
 70
    32
  0
VERTEX
  8
T02SSILL
 62
6
 10
902.861
 20
-1536.754
 30
5035.280
 70
    32
  0
VERTEX
  8
T02SSILL
 62
6
 10
906.282
 20
-1551.878
 30
5035.356
 70
    32
  0
VERTEX
  8
T02SSILL
 62
6
 10
908.500
 20
-1556.660
 30
5035.370
 70
    32
  0
VERTEX
  8
T02SSILL
 62
6
 10
912.694
 20
-1559.464
 30
5035.354
 70
    32
  0
VERTEX
  8
T02SSILL
 62
6
 10
927.260
 20
-1562.382
 30
5035.253
 70
    32
  0
VERTEX
  8
T02SSILL
 62
6
 10
947.732
 20
-1562.266
 30
5035.082
 70
    32
  0
SEQEND
  8
T02SSILL
  0
POLYLINE
  8
T02SSILL
 62
6
 66
     1
 70
     9
  0
VERTEX
  8
T02SSILL
 62
6
 10
1210.885
 20
-2198.684
 30
5035.837
 70
    32
  0
VERTEX
  8
T02SSILL
 62
6
 10
1221.846
 20
-2218.827
 30
5035.812
 70
    32
  0
VERTEX
  8
T02SSILL
 62
6
 10
1269.959
 20
-2396.870
 30
5035.642
 70
    32
  0
VERTEX
  8
T02SSILL
 62
6
 10
1256.856
 20
-2408.071
 30
5035.647
 70
    32
  0
VERTEX
  8
T02SSILL
 62
6
 10
1252.112
 20
-2408.410
 30
5035.652
 70
    32
  0
VERTEX
  8
T02SSILL
 62
6
 10
1238.831
 20
-2391.734
 30
5035.677
 70
    32
  0
VERTEX
  8
T02SSILL
 62
6
 10
1234.227
 20
-2395.324
 30
5035.679
 70
    32
  0
VERTEX
  8
T02SSILL
 62
6
 10
1230.802
 20
-2390.102
 30
5035.687
 70
    32
  0
VERTEX
  8
T02SSILL
 62
6
 10
1225.935
 20
-2393.785
 30
5035.689
 70
    32
  0
VERTEX
  8
T02SSILL
 62
6
 10
1218.837
 20
-2384.310
 30
5035.703
 70
    32
  0
VERTEX
  8
T02SSILL
 62
6
 10
1213.793
 20
-2387.908
 30
5035.706
 70
    32
  0
VERTEX
  8
T02SSILL
 62
6
 10
1203.450
 20
-2373.472
 30
5035.726
 70
    32
  0
VERTEX
  8
T02SSILL
 62
6
 10
1198.667
 20
-2376.890
 30
5035.729
 70
    32
  0
VERTEX
  8
T02SSILL
 62
6
 10
1194.907
 20
-2372.728
 30
5035.735
 70
    32
  0
VERTEX
  8
T02SSILL
 62
6
 10
1189.946
 20
-2376.061
 30
5035.738
 70
    32
  0
VERTEX
  8
T02SSILL
 62
6
 10
1182.756
 20
-2366.324
 30
5035.752
 70
    32
  0
VERTEX
  8
T02SSILL
 62
6
 10
1177.976
 20
-2369.918
 30
5035.755
 70
    32
  0
VERTEX
  8
T02SSILL
 62
6
 10
1163.604
 20
-2350.972
 30
5035.783
 70
    32
  0
VERTEX
  8
T02SSILL
 62
6
 10
1154.736
 20
-2351.904
 30
5035.791
 70
    32
  0
VERTEX
  8
T02SSILL
 62
6
 10
1140.640
 20
-2355.997
 30
5035.803
 70
    32
  0
VERTEX
  8
T02SSILL
 62
6
 10
1119.861
 20
-2365.649
 30
5035.818
 70
    32
  0
VERTEX
  8
T02SSILL
 62
6
 10
1098.818
 20
-2319.808
 30
5035.871
 70
    32
  0
VERTEX
  8
T02SSILL
 62
6
 10
1104.360
 20
-2308.726
 30
5035.872
 70
    32
  0
VERTEX
  8
T02SSILL
 62
6
 10
1190.230
 20
-2210.621
 30
5035.851
 70
    32
  0
SEQEND
  8
T02SSILL
  0
POLYLINE
  8
T02SSILL
 62
6
 66
     1
 70
     9
  0
VERTEX
  8
T02SSILL
 62
6
 10
1350.285
 20
-2398.588
 30
5035.557
 70
    32
  0
VERTEX
  8
T02SSILL
 62
6
 10
1354.284
 20
-2401.163
 30
5035.552
 70
    32
  0
VERTEX
  8
T02SSILL
 62
6
 10
1353.367
 20
-2404.344
 30
5035.550
 70
    32
  0
VERTEX
  8
T02SSILL
 62
6
 10
1317.215
 20
-2426.289
 30
5035.573
 70
    32
  0
VERTEX
  8
T02SSILL
 62
6
 10
1308.531
 20
-2427.745
 30
5035.581
 70
    32
  0
VERTEX
  8
T02SSILL
 62
6
 10
1302.779
 20
-2425.550
 30
5035.588
 70
    32
  0
VERTEX
  8
T02SSILL
 62
6
 10
1277.453
 20
-2397.982
 30
5035.633
 70
    32
  0
VERTEX
  8
T02SSILL
 62
6
 10
1266.197
 20
-2359.198
 30
5035.671
 70
    32
  0
VERTEX
  8
T02SSILL
 62
6
 10
1267.369
 20
-2355.486
 30
5035.672
 70
    32
  0
VERTEX
  8
T02SSILL
 62
6
 10
1269.728
 20
-2354.481
 30
5035.671
 70
    32
  0
VERTEX
  8
T02SSILL
 62
6
 10
1295.277
 20
-2368.325
 30
5035.635
 70
    32
  0
SEQEND
  8
T02SSILL
  0
POLYLINE
  8
T02SSILL
 62
6
 66
     1
 70
     9
  0
VERTEX
  8
T02SSILL
 62
6
 10
1259.132
 20
-2418.501
 30
5035.638
 70
    32
  0
VERTEX
  8
T02SSILL
 62
6
 10
1259.928
 20
-2413.211
 30
5035.641
 70
    32
  0
VERTEX
  8
T02SSILL
 62
6
 10
1271.916
 20
-2403.787
 30
5035.635
 70
    32
  0
VERTEX
  8
T02SSILL
 62
6
 10
1280.185
 20
-2431.712
 30
5035.607
 70
    32
  0
VERTEX
  8
T02SSILL
 62
6
 10
1279.623
 20
-2435.063
 30
5035.606
 70
    32
  0
VERTEX
  8
T02SSILL
 62
6
 10
1276.566
 20
-2436.431
 30
5035.608
 70
    32
  0
VERTEX
  8
T02SSILL
 62
6
 10
1271.617
 20
-2434.926
 30
5035.614
 70
    32
  0
SEQEND
  8
T02SSILL
  0
POLYLINE
  8
T02SSILL
 62
6
 66
     1
 70
     9
  0
VERTEX
  8
T02SSILL
 62
6
 10
1301.211
 20
-2454.246
 30
5035.570
 70
    32
  0
VERTEX
  8
T02SSILL
 62
6
 10
1300.300
 20
-2463.408
 30
5035.565
 70
    32
  0
VERTEX
  8
T02SSILL
 62
6
 10
1293.273
 20
-2458.418
 30
5035.576
 70
    32
  0
VERTEX
  8
T02SSILL
 62
6
 10
1283.684
 20
-2447.136
 30
5035.593
 70
    32
  0
VERTEX
  8
T02SSILL
 62
6
 10
1284.253
 20
-2444.225
 30
5035.595
 70
    32
  0
VERTEX
  8
T02SSILL
 62
6
 10
1294.298
 20
-2439.844
 30
5035.587
 70
    32
  0
SEQEND
  8
T02SSILL
  0
POLYLINE
  8
T02SSILL
 62
6
 66
     1
 70
     9
  0
VERTEX
  8
T02SSILL
 62
6
 10
1928.897
 20
-2731.061
 30
5034.811
 70
    32
  0
VERTEX
  8
T02SSILL
 62
6
 10
1926.683
 20
-2725.714
 30
5034.809
 70
    32
  0
VERTEX
  8
T02SSILL
 62
6
 10
1921.336
 20
-2723.499
 30
5034.809
 70
    32
  0
VERTEX
  8
T02SSILL
 62
6
 10
1915.989
 20
-2725.715
 30
5034.813
 70
    32
  0
VERTEX
  8
T02SSILL
 62
6
 10
1913.775
 20
-2731.062
 30
5034.817
 70
    32
  0
VERTEX
  8
T02SSILL
 62
6
 10
1915.990
 20
-2736.408
 30
5034.819
 70
    32
  0
VERTEX
  8
T02SSILL
 62
6
 10
1921.337
 20
-2738.622
 30
5034.819
 70
    32
  0
VERTEX
  8
T02SSILL
 62
6
 10
1926.684
 20
-2736.406
 30
5034.815
 70
    32
  0
VERTEX
  8
T02SSILL
 62
6
 10
1928.869
 20
-2731.718
 30
5034.812
 70
    32
  0
SEQEND
  8
T02SSILL
  0
POLYLINE
  8
T02SSILL
 62
6
 66
     1
 70
     9
  0
VERTEX
  8
T02SSILL
 62
6
 10
-60.144
 20
-346.311
 30
5037.467
 70
    32
  0
VERTEX
  8
T02SSILL
 62
6
 10
-52.501
 20
-340.342
 30
5037.454
 70
    32
  0
VERTEX
  8
T02SSILL
 62
6
 10
-44.375
 20
-343.930
 30
5037.413
 70
    32
  0
VERTEX
  8
T02SSILL
 62
6
 10
-37.172
 20
-343.928
 30
5037.385
 70
    32
  0
VERTEX
  8
T02SSILL
 62
6
 10
-28.152
 20
-341.707
 30
5037.356
 70
    32
  0
VERTEX
  8
T02SSILL
 62
6
 10
-23.226
 20
-349.288
 30
5037.319
 70
    32
  0
VERTEX
  8
T02SSILL
 62
6
 10
-45.780
 20
-365.965
 30
5037.390
 70
    32
  0
VERTEX
  8
T02SSILL
 62
6
 10
-49.581
 20
-365.351
 30
5037.399
 70
    32
  0
VERTEX
  8
T02SSILL
 62
6
 10
-52.416
 20
-360.241
 30
5037.400
 70
    32
  0
SEQEND
  8
T02SSILL
  0
POLYLINE
  8
T02SSILL
 62
6
 66
     1
 70
     9
  0
VERTEX
  8
T02SSILL
 62
6
 10
-22.945
 20
-356.005
 30
5037.326
 70
    32
  0
VERTEX
  8
T02SSILL
 62
6
 10
-41.196
 20
-369.908
 30
5037.384
 70
    32
  0
VERTEX
  8
T02SSILL
 62
6
 10
-42.446
 20
-376.629
 30
5037.394
 70
    32
  0
VERTEX
  8
T02SSILL
 62
6
 10
-5.252
 20
-411.764
 30
5037.345
 70
    32
  0
VERTEX
  8
T02SSILL
 62
6
 10
29.229
 20
-420.753
 30
5037.273
 70
    32
  0
VERTEX
  8
T02SSILL
 62
6
 10
48.449
 20
-419.283
 30
5037.226
 70
    32
  0
VERTEX
  8
T02SSILL
 62
6
 10
64.844
 20
-409.767
 30
5037.177
 70
    32
  0
VERTEX
  8
T02SSILL
 62
6
 10
109.437
 20
-393.136
 30
5037.054
 70
    32
  0
VERTEX
  8
T02SSILL
 62
6
 10
19.521
 20
-346.647
 30
5037.215
 70
    32
  0
VERTEX
  8
T02SSILL
 62
6
 10
15.775
 20
-342.126
 30
5037.219
 70
    32
  0
VERTEX
  8
T02SSILL
 62
6
 10
7.310
 20
-339.596
 30
5037.236
 70
    32
  0
VERTEX
  8
T02SSILL
 62
6
 10
-12.216
 20
-337.556
 30
5037.306
 70
    32
  0
VERTEX
  8
T02SSILL
 62
6
 10
-18.614
 20
-338.690
 30
5037.327
 70
    32
  0
VERTEX
  8
T02SSILL
 62
6
 10
-20.240
 20
-342.136
 30
5037.324
 70
    32
  0
VERTEX
  8
T02SSILL
 62
6
 10
-19.048
 20
-346.162
 30
5037.309
 70
    32
  0
VERTEX
  8
T02SSILL
 62
6
 10
-15.298
 20
-351.034
 30
5037.302
 70
    32
  0
SEQEND
  8
T02SSILL
  0
POLYLINE
  8
T02SSILL
 62
6
 66
     1
 70
     9
  0
VERTEX
  8
T02SSILL
 62
6
 10
-264.720
 20
-412.604
 30
5038.078
 70
    32
  0
VERTEX
  8
T02SSILL
 62
6
 10
-289.821
 20
-371.284
 30
5038.286
 70
    32
  0
VERTEX
  8
T02SSILL
 62
6
 10
-295.865
 20
-357.691
 30
5038.346
 70
    32
  0
VERTEX
  8
T02SSILL
 62
6
 10
-309.204
 20
-311.074
 30
5038.515
 70
    32
  0
VERTEX
  8
T02SSILL
 62
6
 10
-318.707
 20
-285.235
 30
5038.563
 70
    32
  0
VERTEX
  8
T02SSILL
 62
6
 10
-325.030
 20
-282.214
 30
5038.587
 70
    32
  0
VERTEX
  8
T02SSILL
 62
6
 10
-366.475
 20
-294.551
 30
5038.725
 70
    32
  0
VERTEX
  8
T02SSILL
 62
6
 10
-347.435
 20
-332.756
 30
5038.612
 70
    32
  0
VERTEX
  8
T02SSILL
 62
6
 10
-352.747
 20
-335.259
 30
5038.625
 70
    32
  0
VERTEX
  8
T02SSILL
 62
6
 10
-342.196
 20
-357.023
 30
5038.526
 70
    32
  0
VERTEX
  8
T02SSILL
 62
6
 10
-363.538
 20
-366.772
 30
5038.582
 70
    32
  0
VERTEX
  8
T02SSILL
 62
6
 10
-393.964
 20
-305.061
 30
5038.815
 70
    32
  0
VERTEX
  8
T02SSILL
 62
6
 10
-414.359
 20
-313.908
 30
5038.881
 70
    32
  0
VERTEX
  8
T02SSILL
 62
6
 10
-416.154
 20
-319.937
 30
5038.884
 70
    32
  0
VERTEX
  8
T02SSILL
 62
6
 10
-391.449
 20
-385.481
 30
5038.640
 70
    32
  0
VERTEX
  8
T02SSILL
 62
6
 10
-388.753
 20
-387.795
 30
5038.623
 70
    32
  0
VERTEX
  8
T02SSILL
 62
6
 10
-371.147
 20
-380.159
 30
5038.576
 70
    32
  0
VERTEX
  8
T02SSILL
 62
6
 10
-368.016
 20
-385.985
 30
5038.548
 70
    32
  0
VERTEX
  8
T02SSILL
 62
6
 10
-390.337
 20
-395.317
 30
5038.609
 70
    32
  0
VERTEX
  8
T02SSILL
 62
6
 10
-394.138
 20
-394.702
 30
5038.626
 70
    32
  0
VERTEX
  8
T02SSILL
 62
6
 10
-396.450
 20
-390.002
 30
5038.647
 70
    32
  0
VERTEX
  8
T02SSILL
 62
6
 10
-438.933
 20
-276.273
 30
5038.989
 70
    32
  0
VERTEX
  8
T02SSILL
 62
6
 10
-442.153
 20
-274.148
 30
5039.002
 70
    32
  0
VERTEX
  8
T02SSILL
 62
6
 10
-446.035
 20
-273.799
 30
5039.015
 70
    32
  0
VERTEX
  8
T02SSILL
 62
6
 10
-462.296
 20
-282.460
 30
5039.067
 70
    32
  0
VERTEX
  8
T02SSILL
 62
6
 10
-460.533
 20
-297.475
 30
5039.053
 70
    32
  0
VERTEX
  8
T02SSILL
 62
6
 10
-465.661
 20
-300.326
 30
5039.069
 70
    32
  0
VERTEX
  8
T02SSILL
 62
6
 10
-474.862
 20
-291.033
 30
5039.106
 70
    32
  0
VERTEX
  8
T02SSILL
 62
6
 10
-478.302
 20
-290.762
 30
5039.119
 70
    32
  0
VERTEX
  8
T02SSILL
 62
6
 10
-604.192
 20
-355.193
 30
5039.523
 70
    32
  0
VERTEX
  8
T02SSILL
 62
6
 10
-664.518
 20
-388.315
 30
5039.686
 70
    32
  0
VERTEX
  8
T02SSILL
 62
6
 10
-668.128
 20
-395.796
 30
5039.680
 70
    32
  0
VERTEX
  8
T02SSILL
 62
6
 10
-657.240
 20
-413.150
 30
5039.591
 70
    32
  0
VERTEX
  8
T02SSILL
 62
6
 10
-636.885
 20
-434.508
 30
5039.455
 70
    32
  0
VERTEX
  8
T02SSILL
 62
6
 10
-470.759
 20
-569.558
 30
5038.615
 70
    32
  0
VERTEX
  8
T02SSILL
 62
6
 10
-465.729
 20
-571.428
 30
5038.605
 70
    32
  0
VERTEX
  8
T02SSILL
 62
6
 10
-459.062
 20
-570.730
 30
5038.589
 70
    32
  0
VERTEX
  8
T02SSILL
 62
6
 10
-323.566
 20
-510.712
 30
5038.203
 70
    32
  0
VERTEX
  8
T02SSILL
 62
6
 10
-323.989
 20
-497.980
 30
5038.191
 70
    32
  0
VERTEX
  8
T02SSILL
 62
6
 10
-336.714
 20
-498.929
 30
5038.222
 70
    32
  0
VERTEX
  8
T02SSILL
 62
6
 10
-337.907
 20
-480.761
 30
5038.205
 70
    32
  0
VERTEX
  8
T02SSILL
 62
6
 10
-325.531
 20
-479.992
 30
5038.175
 70
    32
  0
VERTEX
  8
T02SSILL
 62
6
 10
-328.020
 20
-456.481
 30
5038.205
 70
    32
  0
VERTEX
  8
T02SSILL
 62
6
 10
-309.948
 20
-454.586
 30
5038.140
 70
    32
  0
VERTEX
  8
T02SSILL
 62
6
 10
-305.724
 20
-504.516
 30
5038.155
 70
    32
  0
VERTEX
  8
T02SSILL
 62
6
 10
-246.840
 20
-492.801
 30
5038.003
 70
    32
  0
VERTEX
  8
T02SSILL
 62
6
 10
-244.646
 20
-485.571
 30
5037.990
 70
    32
  0
VERTEX
  8
T02SSILL
 62
6
 10
-245.830
 20
-475.132
 30
5037.981
 70
    32
  0
VERTEX
  8
T02SSILL
 62
6
 10
-262.012
 20
-417.270
 30
5038.055
 70
    32
  0
SEQEND
  8
T02SSILL
  0
POLYLINE
  8
T02SSILL
 62
6
 66
     1
 70
     9
  0
VERTEX
  8
T02SSILL
 62
6
 10
193.956
 20
-1930.523
 30
5037.189
 70
    32
  0
VERTEX
  8
T02SSILL
 62
6
 10
206.322
 20
-1991.055
 30
5037.126
 70
    32
  0
VERTEX
  8
T02SSILL
 62
6
 10
203.499
 20
-1994.129
 30
5037.128
 70
    32
  0
VERTEX
  8
T02SSILL
 62
6
 10
78.058
 20
-2004.051
 30
5037.303
 70
    32
  0
VERTEX
  8
T02SSILL
 62
6
 10
74.464
 20
-1997.706
 30
5037.313
 70
    32
  0
VERTEX
  8
T02SSILL
 62
6
 10
80.492
 20
-1978.709
 30
5037.319
 70
    32
  0
VERTEX
  8
T02SSILL
 62
6
 10
79.891
 20
-1972.459
 30
5037.324
 70
    32
  0
VERTEX
  8
T02SSILL
 62
6
 10
75.262
 20
-1956.694
 30
5037.343
 70
    32
  0
VERTEX
  8
T02SSILL
 62
6
 10
78.034
 20
-1937.778
 30
5037.353
 70
    32
  0
VERTEX
  8
T02SSILL
 62
6
 10
77.744
 20
-1910.405
 30
5037.374
 70
    32
  0
VERTEX
  8
T02SSILL
 62
6
 10
81.963
 20
-1909.140
 30
5037.369
 70
    32
  0
VERTEX
  8
T02SSILL
 62
6
 10
126.717
 20
-1867.360
 30
5037.335
 70
    32
  0
VERTEX
  8
T02SSILL
 62
6
 10
131.655
 20
-1860.307
 30
5037.333
 70
    32
  0
VERTEX
  8
T02SSILL
 62
6
 10
137.847
 20
-1854.280
 30
5037.329
 70
    32
  0
VERTEX
  8
T02SSILL
 62
6
 10
143.808
 20
-1849.753
 30
5037.323
 70
    32
  0
VERTEX
  8
T02SSILL
 62
6
 10
148.867
 20
-1848.057
 30
5037.317
 70
    32
  0
VERTEX
  8
T02SSILL
 62
6
 10
166.322
 20
-1834.923
 30
5037.302
 70
    32
  0
SEQEND
  8
T02SSILL
  0
POLYLINE
  8
T02SSILL
 62
6
 66
     1
 70
     9
  0
VERTEX
  8
T02SSILL
 62
6
 10
923.065
 20
-1217.175
 30
5032.922
 70
    32
  0
VERTEX
  8
T02SSILL
 62
6
 10
805.708
 20
-1281.084
 30
5034.335
 70
    32
  0
VERTEX
  8
T02SSILL
 62
6
 10
792.206
 20
-1282.442
 30
5034.456
 70
    32
  0
VERTEX
  8
T02SSILL
 62
6
 10
787.364
 20
-1289.845
 30
5034.548
 70
    32
  0
VERTEX
  8
T02SSILL
 62
6
 10
782.142
 20
-1288.205
 30
5034.580
 70
    32
  0
VERTEX
  8
T02SSILL
 62
6
 10
780.602
 20
-1293.951
 30
5034.632
 70
    32
  0
VERTEX
  8
T02SSILL
 62
6
 10
769.031
 20
-1291.312
 30
5034.711
 70
    32
  0
VERTEX
  8
T02SSILL
 62
6
 10
753.818
 20
-1302.550
 30
5034.915
 70
    32
  0
VERTEX
  8
T02SSILL
 62
6
 10
747.061
 20
-1302.966
 30
5034.974
 70
    32
  0
VERTEX
  8
T02SSILL
 62
6
 10
743.180
 20
-1298.396
 30
5034.987
 70
    32
  0
VERTEX
  8
T02SSILL
 62
6
 10
741.197
 20
-1276.648
 30
5034.950
 70
    32
  0
VERTEX
  8
T02SSILL
 62
6
 10
727.596
 20
-1238.465
 30
5034.989
 70
    32
  0
VERTEX
  8
T02SSILL
 62
6
 10
698.822
 20
-1213.278
 30
5035.219
 70
    32
  0
VERTEX
  8
T02SSILL
 62
6
 10
691.451
 20
-1202.020
 30
5035.265
 70
    32
  0
VERTEX
  8
T02SSILL
 62
6
 10
656.283
 20
-1138.664
 30
5035.461
 70
    32
  0
VERTEX
  8
T02SSILL
 62
6
 10
644.975
 20
-1093.048
 30
5035.457
 70
    32
  0
VERTEX
  8
T02SSILL
 62
6
 10
639.727
 20
-1078.491
 30
5035.472
 70
    32
  0
VERTEX
  8
T02SSILL
 62
6
 10
634.099
 20
-1074.400
 30
5035.520
 70
    32
  0
VERTEX
  8
T02SSILL
 62
6
 10
622.081
 20
-1055.777
 30
5035.594
 70
    32
  0
VERTEX
  8
T02SSILL
 62
6
 10
611.050
 20
-1049.787
 30
5035.692
 70
    32
  0
VERTEX
  8
T02SSILL
 62
6
 10
603.073
 20
-1042.848
 30
5035.756
 70
    32
  0
VERTEX
  8
T02SSILL
 62
6
 10
593.892
 20
-1029.259
 30
5035.815
 70
    32
  0
VERTEX
  8
T02SSILL
 62
6
 10
594.212
 20
-988.834
 30
5035.705
 70
    32
  0
VERTEX
  8
T02SSILL
 62
6
 10
786.583
 20
-946.322
 30
5033.613
 70
    32
  0
VERTEX
  8
T02SSILL
 62
6
 10
795.878
 20
-949.325
 30
5033.526
 70
    32
  0
VERTEX
  8
T02SSILL
 62
6
 10
816.794
 20
-977.293
 30
5033.384
 70
    32
  0
VERTEX
  8
T02SSILL
 62
6
 10
821.220
 20
-973.782
 30
5033.329
 70
    32
  0
VERTEX
  8
T02SSILL
 62
6
 10
801.644
 20
-946.934
 30
5033.460
 70
    32
  0
VERTEX
  8
T02SSILL
 62
6
 10
803.236
 20
-942.417
 30
5033.432
 70
    32
  0
VERTEX
  8
T02SSILL
 62
6
 10
884.578
 20
-923.633
 30
5032.545
 70
    32
  0
VERTEX
  8
T02SSILL
 62
6
 10
897.543
 20
-930.091
 30
5032.429
 70
    32
  0
VERTEX
  8
T02SSILL
 62
6
 10
956.443
 20
-1000.510
 30
5032.008
 70
    32
  0
VERTEX
  8
T02SSILL
 62
6
 10
974.572
 20
-985.578
 30
5031.782
 70
    32
  0
VERTEX
  8
T02SSILL
 62
6
 10
960.319
 20
-1000.705
 30
5031.969
 70
    32
  0
VERTEX
  8
T02SSILL
 62
6
 10
965.147
 20
-1004.932
 30
5031.930
 70
    32
  0
VERTEX
  8
T02SSILL
 62
6
 10
960.819
 20
-1009.058
 30
5031.986
 70
    32
  0
VERTEX
  8
T02SSILL
 62
6
 10
970.041
 20
-1017.871
 30
5031.914
 70
    32
  0
VERTEX
  8
T02SSILL
 62
6
 10
995.014
 20
-991.815
 30
5031.588
 70
    32
  0
VERTEX
  8
T02SSILL
 62
6
 10
1010.393
 20
-1005.360
 30
5031.466
 70
    32
  0
VERTEX
  8
T02SSILL
 62
6
 10
1012.228
 20
-1009.552
 30
5031.458
 70
    32
  0
VERTEX
  8
T02SSILL
 62
6
 10
978.486
 20
-1047.293
 30
5031.904
 70
    32
  0
VERTEX
  8
T02SSILL
 62
6
 10
997.334
 20
-1062.888
 30
5031.751
 70
    32
  0
VERTEX
  8
T02SSILL
 62
6
 10
1028.734
 20
-1027.125
 30
5031.334
 70
    32
  0
VERTEX
  8
T02SSILL
 62
6
 10
1032.676
 20
-1031.016
 30
5031.304
 70
    32
  0
VERTEX
  8
T02SSILL
 62
6
 10
1036.720
 20
-1030.768
 30
5031.262
 70
    32
  0
VERTEX
  8
T02SSILL
 62
6
 10
1077.160
 20
-1067.806
 30
5030.943
 70
    32
  0
VERTEX
  8
T02SSILL
 62
6
 10
1090.291
 20
-1108.323
 30
5030.915
 70
    32
  0
VERTEX
  8
T02SSILL
 62
6
 10
1085.110
 20
-1109.031
 30
5030.970
 70
    32
  0
VERTEX
  8
T02SSILL
 62
6
 10
1086.299
 20
-1116.491
 30
5030.977
 70
    32
  0
VERTEX
  8
T02SSILL
 62
6
 10
1084.558
 20
-1122.507
 30
5031.011
 70
    32
  0
VERTEX
  8
T02SSILL
 62
6
 10
1079.773
 20
-1130.601
 30
5031.081
 70
    32
  0
SEQEND
  8
T02SSILL
  0
POLYLINE
  8
T02SSILL
 62
6
 66
     1
 70
     9
  0
VERTEX
  8
T02SSILL
 62
6
 10
677.528
 20
-1218.196
 30
5035.451
 70
    32
  0
VERTEX
  8
T02SSILL
 62
6
 10
674.361
 20
-1227.448
 30
5035.508
 70
    32
  0
VERTEX
  8
T02SSILL
 62
6
 10
645.335
 20
-1230.123
 30
5035.814
 70
    32
  0
VERTEX
  8
T02SSILL
 62
6
 10
642.594
 20
-1221.573
 30
5035.820
 70
    32
  0
VERTEX
  8
T02SSILL
 62
6
 10
644.405
 20
-1220.038
 30
5035.797
 70
    32
  0
VERTEX
  8
T02SSILL
 62
6
 10
638.765
 20
-1199.778
 30
5035.802
 70
    32
  0
VERTEX
  8
T02SSILL
 62
6
 10
632.884
 20
-1200.086
 30
5035.863
 70
    32
  0
VERTEX
  8
T02SSILL
 62
6
 10
626.723
 20
-1203.564
 30
5035.936
 70
    32
  0
VERTEX
  8
T02SSILL
 62
6
 10
627.925
 20
-1213.994
 30
5035.951
 70
    32
  0
VERTEX
  8
T02SSILL
 62
6
 10
631.017
 20
-1222.536
 30
5035.941
 70
    32
  0
VERTEX
  8
T02SSILL
 62
6
 10
637.837
 20
-1224.931
 30
5035.877
 70
    32
  0
VERTEX
  8
T02SSILL
 62
6
 10
639.394
 20
-1231.662
 30
5035.879
 70
    32
  0
VERTEX
  8
T02SSILL
 62
6
 10
620.532
 20
-1236.919
 30
5036.087
 70
    32
  0
VERTEX
  8
T02SSILL
 62
6
 10
617.246
 20
-1239.278
 30
5036.127
 70
    32
  0
VERTEX
  8
T02SSILL
 62
6
 10
621.533
 20
-1250.166
 30
5036.112
 70
    32
  0
VERTEX
  8
T02SSILL
 62
6
 10
637.234
 20
-1248.934
 30
5035.947
 70
    32
  0
VERTEX
  8
T02SSILL
 62
6
 10
638.832
 20
-1253.555
 30
5035.943
 70
    32
  0
VERTEX
  8
T02SSILL
 62
6
 10
643.709
 20
-1251.600
 30
5035.887
 70
    32
  0
VERTEX
  8
T02SSILL
 62
6
 10
645.443
 20
-1254.461
 30
5035.877
 70
    32
  0
VERTEX
  8
T02SSILL
 62
6
 10
665.306
 20
-1332.749
 30
5035.879
 70
    32
  0
VERTEX
  8
T02SSILL
 62
6
 10
663.906
 20
-1336.910
 30
5035.904
 70
    32
  0
VERTEX
  8
T02SSILL
 62
6
 10
660.007
 20
-1339.371
 30
5035.951
 70
    32
  0
VERTEX
  8
T02SSILL
 62
6
 10
624.295
 20
-1353.443
 30
5036.355
 70
    32
  0
VERTEX
  8
T02SSILL
 62
6
 10
618.805
 20
-1351.545
 30
5036.407
 70
    32
  0
VERTEX
  8
T02SSILL
 62
6
 10
608.729
 20
-1321.631
 30
5036.432
 70
    32
  0
VERTEX
  8
T02SSILL
 62
6
 10
603.247
 20
-1324.039
 30
5036.494
 70
    32
  0
VERTEX
  8
T02SSILL
 62
6
 10
613.566
 20
-1353.069
 30
5036.465
 70
    32
  0
VERTEX
  8
T02SSILL
 62
6
 10
611.913
 20
-1357.676
 30
5036.494
 70
    32
  0
VERTEX
  8
T02SSILL
 62
6
 10
600.675
 20
-1362.059
 30
5036.621
 70
    32
  0
VERTEX
  8
T02SSILL
 62
6
 10
584.033
 20
-1364.454
 30
5036.798
 70
    32
  0
VERTEX
  8
T02SSILL
 62
6
 10
529.903
 20
-1356.621
 30
5037.110
 70
    32
  0
VERTEX
  8
T02SSILL
 62
6
 10
522.350
 20
-1352.924
 30
5037.124
 70
    32
  0
VERTEX
  8
T02SSILL
 62
6
 10
520.786
 20
-1326.334
 30
5037.098
 70
    32
  0
VERTEX
  8
T02SSILL
 62
6
 10
529.336
 20
-1323.593
 30
5037.075
 70
    32
  0
VERTEX
  8
T02SSILL
 62
6
 10
531.051
 20
-1329.530
 30
5037.078
 70
    32
  0
VERTEX
  8
T02SSILL
 62
6
 10
542.841
 20
-1326.277
 30
5037.046
 70
    32
  0
VERTEX
  8
T02SSILL
 62
6
 10
544.283
 20
-1331.781
 30
5037.049
 70
    32
  0
VERTEX
  8
T02SSILL
 62
6
 10
561.388
 20
-1326.563
 30
5036.932
 70
    32
  0
VERTEX
  8
T02SSILL
 62
6
 10
559.671
 20
-1320.538
 30
5036.933
 70
    32
  0
VERTEX
  8
T02SSILL
 62
6
 10
571.537
 20
-1316.756
 30
5036.801
 70
    32
  0
VERTEX
  8
T02SSILL
 62
6
 10
555.261
 20
-1265.101
 30
5036.833
 70
    32
  0
VERTEX
  8
T02SSILL
 62
6
 10
543.479
 20
-1268.706
 30
5036.964
 70
    32
  0
VERTEX
  8
T02SSILL
 62
6
 10
539.984
 20
-1257.888
 30
5036.971
 70
    32
  0
VERTEX
  8
T02SSILL
 62
6
 10
528.637
 20
-1261.307
 30
5037.009
 70
    32
  0
VERTEX
  8
T02SSILL
 62
6
 10
518.008
 20
-1226.308
 30
5036.996
 70
    32
  0
VERTEX
  8
T02SSILL
 62
6
 10
492.009
 20
-1234.626
 30
5037.066
 70
    32
  0
VERTEX
  8
T02SSILL
 62
6
 10
483.030
 20
-1218.749
 30
5037.070
 70
    32
  0
VERTEX
  8
T02SSILL
 62
6
 10
482.875
 20
-1190.236
 30
5037.040
 70
    32
  0
VERTEX
  8
T02SSILL
 62
6
 10
467.495
 20
-1132.069
 30
5037.013
 70
    32
  0
VERTEX
  8
T02SSILL
 62
6
 10
468.837
 20
-1128.348
 30
5037.005
 70
    32
  0
VERTEX
  8
T02SSILL
 62
6
 10
484.711
 20
-1125.162
 30
5036.965
 70
    32
  0
VERTEX
  8
T02SSILL
 62
6
 10
487.916
 20
-1147.020
 30
5036.981
 70
    32
  0
VERTEX
  8
T02SSILL
 62
6
 10
504.947
 20
-1144.605
 30
5036.938
 70
    32
  0
VERTEX
  8
T02SSILL
 62
6
 10
499.166
 20
-1096.653
 30
5036.899
 70
    32
  0
VERTEX
  8
T02SSILL
 62
6
 10
493.458
 20
-1097.370
 30
5036.914
 70
    32
  0
VERTEX
  8
T02SSILL
 62
6
 10
488.505
 20
-1061.373
 30
5036.886
 70
    32
  0
VERTEX
  8
T02SSILL
 62
6
 10
472.084
 20
-1038.694
 30
5036.900
 70
    32
  0
VERTEX
  8
T02SSILL
 62
6
 10
471.638
 20
-1033.421
 30
5036.896
 70
    32
  0
VERTEX
  8
T02SSILL
 62
6
 10
477.910
 20
-1014.915
 30
5036.861
 70
    32
  0
VERTEX
  8
T02SSILL
 62
6
 10
480.330
 20
-1012.407
 30
5036.852
 70
    32
  0
VERTEX
  8
T02SSILL
 62
6
 10
576.277
 20
-993.363
 30
5035.901
 70
    32
  0
VERTEX
  8
T02SSILL
 62
6
 10
579.840
 20
-995.764
 30
5035.871
 70
    32
  0
VERTEX
  8
T02SSILL
 62
6
 10
587.082
 20
-1046.683
 30
5035.930
 70
    32
  0
VERTEX
  8
T02SSILL
 62
6
 10
620.581
 20
-1069.499
 30
5035.646
 70
    32
  0
VERTEX
  8
T02SSILL
 62
6
 10
623.658
 20
-1074.285
 30
5035.627
 70
    32
  0
VERTEX
  8
T02SSILL
 62
6
 10
649.951
 20
-1142.291
 30
5035.535
 70
    32
  0
VERTEX
  8
T02SSILL
 62
6
 10
680.798
 20
-1194.198
 30
5035.354
 70
    32
  0
SEQEND
  8
T02SSILL
  0
POLYLINE
  8
T02SSILL
 62
6
 66
     1
 70
     9
  0
VERTEX
  8
T02SSILL
 62
6
 10
441.735
 20
-1127.118
 30
5037.068
 70
    32
  0
VERTEX
  8
T02SSILL
 62
6
 10
439.659
 20
-1127.334
 30
5037.073
 70
    32
  0
VERTEX
  8
T02SSILL
 62
6
 10
429.062
 20
-1087.585
 30
5037.055
 70
    32
  0
VERTEX
  8
T02SSILL
 62
6
 10
434.581
 20
-1086.375
 30
5037.041
 70
    32
  0
VERTEX
  8
T02SSILL
 62
6
 10
433.137
 20
-1076.291
 30
5037.033
 70
    32
  0
VERTEX
  8
T02SSILL
 62
6
 10
434.335
 20
-1073.728
 30
5037.027
 70
    32
  0
VERTEX
  8
T02SSILL
 62
6
 10
439.052
 20
-1078.677
 30
5037.022
 70
    32
  0
VERTEX
  8
T02SSILL
 62
6
 10
444.876
 20
-1087.827
 30
5037.018
 70
    32
  0
VERTEX
  8
T02SSILL
 62
6
 10
455.125
 20
-1120.728
 30
5037.030
 70
    32
  0
VERTEX
  8
T02SSILL
 62
6
 10
454.271
 20
-1122.672
 30
5037.034
 70
    32
  0
VERTEX
  8
T02SSILL
 62
6
 10
450.257
 20
-1124.830
 30
5037.045
 70
    32
  0
SEQEND
  8
T02SSILL
  0
POLYLINE
  8
T02SSILL
 62
6
 66
     1
 70
     9
  0
VERTEX
  8
T02SSILL
 62
6
 10
506.053
 20
-1000.447
 30
5036.643
 70
    32
  0
VERTEX
  8
T02SSILL
 62
6
 10
505.032
 20
-994.930
 30
5036.639
 70
    32
  0
VERTEX
  8
T02SSILL
 62
6
 10
442.724
 20
-929.386
 30
5036.851
 70
    32
  0
VERTEX
  8
T02SSILL
 62
6
 10
439.630
 20
-934.871
 30
5036.864
 70
    32
  0
VERTEX
  8
T02SSILL
 62
6
 10
434.677
 20
-932.122
 30
5036.873
 70
    32
  0
VERTEX
  8
T02SSILL
 62
6
 10
438.364
 20
-924.873
 30
5036.856
 70
    32
  0
VERTEX
  8
T02SSILL
 62
6
 10
407.993
 20
-891.520
 30
5036.891
 70
    32
  0
VERTEX
  8
T02SSILL
 62
6
 10
396.517
 20
-816.558
 30
5036.837
 70
    32
  0
VERTEX
  8
T02SSILL
 62
6
 10
364.268
 20
-822.758
 30
5036.920
 70
    32
  0
VERTEX
  8
T02SSILL
 62
6
 10
385.208
 20
-874.675
 30
5036.927
 70
    32
  0
VERTEX
  8
T02SSILL
 62
6
 10
379.879
 20
-877.025
 30
5036.942
 70
    32
  0
VERTEX
  8
T02SSILL
 62
6
 10
390.581
 20
-904.035
 30
5036.946
 70
    32
  0
VERTEX
  8
T02SSILL
 62
6
 10
384.903
 20
-906.566
 30
5036.962
 70
    32
  0
VERTEX
  8
T02SSILL
 62
6
 10
403.559
 20
-951.484
 30
5036.967
 70
    32
  0
VERTEX
  8
T02SSILL
 62
6
 10
397.788
 20
-953.664
 30
5036.983
 70
    32
  0
VERTEX
  8
T02SSILL
 62
6
 10
411.722
 20
-986.256
 30
5036.986
 70
    32
  0
VERTEX
  8
T02SSILL
 62
6
 10
428.122
 20
-1005.201
 30
5036.968
 70
    32
  0
VERTEX
  8
T02SSILL
 62
6
 10
436.954
 20
-1009.044
 30
5036.951
 70
    32
  0
VERTEX
  8
T02SSILL
 62
6
 10
449.617
 20
-1012.601
 30
5036.925
 70
    32
  0
VERTEX
  8
T02SSILL
 62
6
 10
489.612
 20
-1003.988
 30
5036.821
 70
    32
  0
SEQEND
  8
T02SSILL
  0
POLYLINE
  8
T02SSILL
 62
6
 66
     1
 70
     9
  0
VERTEX
  8
T02SSILL
 62
6
 10
577.095
 20
-985.147
 30
5035.871
 70
    32
  0
VERTEX
  8
T02SSILL
 62
6
 10
577.234
 20
-938.250
 30
5035.746
 70
    32
  0
VERTEX
  8
T02SSILL
 62
6
 10
570.861
 20
-927.349
 30
5035.783
 70
    32
  0
VERTEX
  8
T02SSILL
 62
6
 10
512.833
 20
-845.676
 30
5036.165
 70
    32
  0
VERTEX
  8
T02SSILL
 62
6
 10
489.966
 20
-815.304
 30
5036.321
 70
    32
  0
VERTEX
  8
T02SSILL
 62
6
 10
478.229
 20
-796.916
 30
5036.393
 70
    32
  0
VERTEX
  8
T02SSILL
 62
6
 10
471.656
 20
-798.140
 30
5036.464
 70
    32
  0
VERTEX
  8
T02SSILL
 62
6
 10
454.008
 20
-805.827
 30
5036.666
 70
    32
  0
VERTEX
  8
T02SSILL
 62
6
 10
446.211
 20
-814.533
 30
5036.717
 70
    32
  0
VERTEX
  8
T02SSILL
 62
6
 10
411.630
 20
-873.203
 30
5036.863
 70
    32
  0
VERTEX
  8
T02SSILL
 62
6
 10
413.753
 20
-888.462
 30
5036.874
 70
    32
  0
VERTEX
  8
T02SSILL
 62
6
 10
505.442
 20
-985.614
 30
5036.610
 70
    32
  0
VERTEX
  8
T02SSILL
 62
6
 10
512.289
 20
-992.204
 30
5036.557
 70
    32
  0
VERTEX
  8
T02SSILL
 62
6
 10
522.278
 20
-996.952
 30
5036.466
 70
    32
  0
SEQEND
  8
T02SSILL
  0
POLYLINE
  8
T02SSILL
 62
6
 66
     1
 70
     9
  0
VERTEX
  8
T02SSILL
 62
6
 10
1116.258
 20
-317.489
 30
5033.271
 70
    32
  0
VERTEX
  8
T02SSILL
 62
6
 10
1376.916
 20
176.024
 30
5033.210
 70
    32
  0
VERTEX
  8
T02SSILL
 62
6
 10
1382.905
 20
172.167
 30
5033.189
 70
    32
  0
VERTEX
  8
T02SSILL
 62
6
 10
1123.822
 20
-317.121
 30
5033.272
 70
    32
  0
VERTEX
  8
T02SSILL
 62
6
 10
1074.054
 20
-407.942
 30
5032.929
 70
    32
  0
VERTEX
  8
T02SSILL
 62
6
 10
910.770
 20
-713.697
 30
5032.329
 70
    32
  0
VERTEX
  8
T02SSILL
 62
6
 10
913.445
 20
-725.531
 30
5032.292
 70
    32
  0
VERTEX
  8
T02SSILL
 62
6
 10
1081.155
 20
-921.194
 30
5031.034
 70
    32
  0
VERTEX
  8
T02SSILL
 62
6
 10
1088.479
 20
-927.225
 30
5030.984
 70
    32
  0
VERTEX
  8
T02SSILL
 62
6
 10
1095.307
 20
-935.024
 30
5030.946
 70
    32
  0
VERTEX
  8
T02SSILL
 62
6
 10
1101.462
 20
-944.596
 30
5030.910
 70
    32
  0
VERTEX
  8
T02SSILL
 62
6
 10
1111.165
 20
-965.635
 30
5030.831
 70
    32
  0
VERTEX
  8
T02SSILL
 62
6
 10
1116.157
 20
-979.100
 30
5030.780
 70
    32
  0
VERTEX
  8
T02SSILL
 62
6
 10
1116.144
 20
-983.325
 30
5030.764
 70
    32
  0
VERTEX
  8
T02SSILL
 62
6
 10
1132.494
 20
-1021.760
 30
5030.620
 70
    32
  0
VERTEX
  8
T02SSILL
 62
6
 10
1140.683
 20
-1036.841
 30
5030.564
 70
    32
  0
VERTEX
  8
T02SSILL
 62
6
 10
1144.017
 20
-1060.985
 30
5030.473
 70
    32
  0
VERTEX
  8
T02SSILL
 62
6
 10
1147.660
 20
-1067.873
 30
5030.447
 70
    32
  0
VERTEX
  8
T02SSILL
 62
6
 10
1152.959
 20
-1073.852
 30
5030.425
 70
    32
  0
VERTEX
  8
T02SSILL
 62
6
 10
1179.048
 20
-1046.280
 30
5030.529
 70
    32
  0
VERTEX
  8
T02SSILL
 62
6
 10
1226.644
 20
-1025.367
 30
5030.609
 70
    32
  0
VERTEX
  8
T02SSILL
 62
6
 10
1326.506
 20
-988.914
 30
5030.748
 70
    32
  0
VERTEX
  8
T02SSILL
 62
6
 10
1461.954
 20
-864.961
 30
5031.218
 70
    32
  0
VERTEX
  8
T02SSILL
 62
6
 10
1471.813
 20
-869.978
 30
5031.200
 70
    32
  0
VERTEX
  8
T02SSILL
 62
6
 10
1639.741
 20
-904.662
 30
5031.286
 70
    32
  0
VERTEX
  8
T02SSILL
 62
6
 10
1649.079
 20
-900.184
 30
5031.306
 70
    32
  0
VERTEX
  8
T02SSILL
 62
6
 10
1709.475
 20
-757.673
 30
5031.524
 70
    32
  0
VERTEX
  8
T02SSILL
 62
6
 10
1716.472
 20
-760.189
 30
5031.518
 70
    32
  0
VERTEX
  8
T02SSILL
 62
6
 10
1654.543
 20
-905.543
 30
5031.310
 70
    32
  0
VERTEX
  8
T02SSILL
 62
6
 10
1656.446
 20
-908.590
 30
5031.311
 70
    32
  0
VERTEX
  8
T02SSILL
 62
6
 10
1932.397
 20
-964.853
 30
5031.719
 70
    32
  0
VERTEX
  8
T02SSILL
 62
6
 10
1931.476
 20
-972.438
 30
5031.723
 70
    32
  0
VERTEX
  8
T02SSILL
 62
6
 10
1465.394
 20
-875.285
 30
5031.179
 70
    32
  0
VERTEX
  8
T02SSILL
 62
6
 10
1440.798
 20
-892.797
 30
5031.113
 70
    32
  0
VERTEX
  8
T02SSILL
 62
6
 10
1330.719
 20
-993.240
 30
5030.732
 70
    32
  0
VERTEX
  8
T02SSILL
 62
6
 10
1212.069
 20
-1037.244
 30
5030.564
 70
    32
  0
VERTEX
  8
T02SSILL
 62
6
 10
1183.884
 20
-1050.947
 30
5030.511
 70
    32
  0
VERTEX
  8
T02SSILL
 62
6
 10
1150.105
 20
-1086.576
 30
5030.377
 70
    32
  0
VERTEX
  8
T02SSILL
 62
6
 10
1148.924
 20
-1089.502
 30
5030.366
 70
    32
  0
VERTEX
  8
T02SSILL
 62
6
 10
1153.713
 20
-1096.457
 30
5030.339
 70
    32
  0
VERTEX
  8
T02SSILL
 62
6
 10
1163.149
 20
-1102.451
 30
5030.317
 70
    32
  0
VERTEX
  8
T02SSILL
 62
6
 10
1166.766
 20
-1117.789
 30
5030.320
 70
    32
  0
VERTEX
  8
T02SSILL
 62
6
 10
1160.349
 20
-1138.058
 30
5030.396
 70
    32
  0
VERTEX
  8
T02SSILL
 62
6
 10
1180.582
 20
-1182.056
 30
5030.529
 70
    32
  0
VERTEX
  8
T02SSILL
 62
6
 10
1185.208
 20
-1179.862
 30
5030.475
 70
    32
  0
VERTEX
  8
T02SSILL
 62
6
 10
1190.074
 20
-1191.217
 30
5030.513
 70
    32
  0
VERTEX
  8
T02SSILL
 62
6
 10
1179.852
 20
-1195.447
 30
5030.627
 70
    32
  0
VERTEX
  8
T02SSILL
 62
6
 10
1182.502
 20
-1200.945
 30
5030.643
 70
    32
  0
VERTEX
  8
T02SSILL
 62
6
 10
1177.089
 20
-1203.417
 30
5030.705
 70
    32
  0
VERTEX
  8
T02SSILL
 62
6
 10
1179.301
 20
-1209.011
 30
5030.725
 70
    32
  0
VERTEX
  8
T02SSILL
 62
6
 10
1173.805
 20
-1211.749
 30
5030.790
 70
    32
  0
VERTEX
  8
T02SSILL
 62
6
 10
1176.372
 20
-1217.512
 30
5030.808
 70
    32
  0
VERTEX
  8
T02SSILL
 62
6
 10
1178.768
 20
-1228.052
 30
5030.860
 70
    32
  0
VERTEX
  8
T02SSILL
 62
6
 10
1157.352
 20
-1236.970
 30
5031.100
 70
    32
  0
VERTEX
  8
T02SSILL
 62
6
 10
1125.168
 20
-1169.592
 30
5030.906
 70
    32
  0
VERTEX
  8
T02SSILL
 62
6
 10
1120.533
 20
-1162.754
 30
5030.897
 70
    32
  0
VERTEX
  8
T02SSILL
 62
6
 10
1118.876
 20
-1163.319
 30
5030.915
 70
    32
  0
VERTEX
  8
T02SSILL
 62
6
 10
1118.114
 20
-1254.461
 30
5031.547
 70
    32
  0
VERTEX
  8
T02SSILL
 62
6
 10
1111.154
 20
-1253.651
 30
5031.600
 70
    32
  0
VERTEX
  8
T02SSILL
 62
6
 10
1112.475
 20
-1217.504
 30
5031.340
 70
    32
  0
VERTEX
  8
T02SSILL
 62
6
 10
1111.888
 20
-1164.707
 30
5030.983
 70
    32
  0
VERTEX
  8
T02SSILL
 62
6
 10
1099.448
 20
-1133.331
 30
5030.886
 70
    32
  0
VERTEX
  8
T02SSILL
 62
6
 10
1095.019
 20
-1131.738
 30
5030.928
 70
    32
  0
VERTEX
  8
T02SSILL
 62
6
 10
1090.978
 20
-1132.162
 30
5030.970
 70
    32
  0
VERTEX
  8
T02SSILL
 62
6
 10
987.251
 20
-1188.838
 30
5032.187
 70
    32
  0
VERTEX
  8
T02SSILL
 62
6
 10
986.441
 20
-1192.813
 30
5032.222
 70
    32
  0
VERTEX
  8
T02SSILL
 62
6
 10
990.031
 20
-1201.638
 30
5032.252
 70
    32
  0
VERTEX
  8
T02SSILL
 62
6
 10
995.868
 20
-1198.278
 30
5032.180
 70
    32
  0
VERTEX
  8
T02SSILL
 62
6
 10
999.214
 20
-1203.323
 30
5032.187
 70
    32
  0
VERTEX
  8
T02SSILL
 62
6
 10
1003.755
 20
-1201.306
 30
5032.136
 70
    32
  0
VERTEX
  8
T02SSILL
 62
6
 10
1022.756
 20
-1238.152
 30
5032.230
 70
    32
  0
VERTEX
  8
T02SSILL
 62
6
 10
1019.715
 20
-1243.581
 30
5032.293
 70
    32
  0
VERTEX
  8
T02SSILL
 62
6
 10
1006.606
 20
-1254.597
 30
5032.478
 70
    32
  0
VERTEX
  8
T02SSILL
 62
6
 10
1004.218
 20
-1257.814
 30
5032.520
 70
    32
  0
VERTEX
  8
T02SSILL
 62
6
 10
1009.138
 20
-1277.299
 30
5032.613
 70
    32
  0
VERTEX
  8
T02SSILL
 62
6
 10
1004.526
 20
-1279.336
 30
5032.665
 70
    32
  0
VERTEX
  8
T02SSILL
 62
6
 10
992.896
 20
-1250.599
 30
5032.565
 70
    32
  0
VERTEX
  8
T02SSILL
 62
6
 10
990.850
 20
-1241.682
 30
5032.520
 70
    32
  0
VERTEX
  8
T02SSILL
 62
6
 10
975.041
 20
-1210.002
 30
5032.435
 70
    32
  0
VERTEX
  8
T02SSILL
 62
6
 10
979.136
 20
-1207.641
 30
5032.384
 70
    32
  0
VERTEX
  8
T02SSILL
 62
6
 10
977.785
 20
-1200.976
 30
5032.350
 70
    32
  0
VERTEX
  8
T02SSILL
 62
6
 10
972.890
 20
-1197.894
 30
5032.369
 70
    32
  0
VERTEX
  8
T02SSILL
 62
6
 10
866.803
 20
-1254.754
 30
5033.644
 70
    32
  0
VERTEX
  8
T02SSILL
 62
6
 10
864.596
 20
-1258.231
 30
5033.687
 70
    32
  0
VERTEX
  8
T02SSILL
 62
6
 10
892.990
 20
-1356.362
 30
5034.124
 70
    32
  0
VERTEX
  8
T02SSILL
 62
6
 10
885.826
 20
-1358.192
 30
5034.196
 70
    32
  0
VERTEX
  8
T02SSILL
 62
6
 10
860.909
 20
-1270.089
 30
5033.799
 70
    32
  0
VERTEX
  8
T02SSILL
 62
6
 10
852.036
 20
-1262.380
 30
5033.820
 70
    32
  0
VERTEX
  8
T02SSILL
 62
6
 10
793.443
 20
-1294.453
 30
5034.529
 70
    32
  0
VERTEX
  8
T02SSILL
 62
6
 10
781.209
 20
-1344.377
 30
5034.973
 70
    32
  0
VERTEX
  8
T02SSILL
 62
6
 10
787.125
 20
-1345.650
 30
5034.933
 70
    32
  0
VERTEX
  8
T02SSILL
 62
6
 10
785.413
 20
-1351.576
 30
5034.988
 70
    32
  0
VERTEX
  8
T02SSILL
 62
6
 10
791.693
 20
-1353.368
 30
5034.948
 70
    32
  0
VERTEX
  8
T02SSILL
 62
6
 10
790.837
 20
-1358.308
 30
5034.989
 70
    32
  0
VERTEX
  8
T02SSILL
 62
6
 10
801.631
 20
-1361.580
 30
5034.921
 70
    32
  0
VERTEX
  8
T02SSILL
 62
6
 10
800.602
 20
-1366.612
 30
5034.964
 70
    32
  0
VERTEX
  8
T02SSILL
 62
6
 10
811.648
 20
-1369.351
 30
5034.891
 70
    32
  0
VERTEX
  8
T02SSILL
 62
6
 10
810.118
 20
-1375.537
 30
5034.946
 70
    32
  0
VERTEX
  8
T02SSILL
 62
6
 10
816.049
 20
-1377.512
 30
5034.911
 70
    32
  0
VERTEX
  8
T02SSILL
 62
6
 10
811.604
 20
-1394.748
 30
5035.066
 70
    32
  0
VERTEX
  8
T02SSILL
 62
6
 10
817.700
 20
-1396.192
 30
5035.025
 70
    32
  0
VERTEX
  8
T02SSILL
 62
6
 10
814.625
 20
-1407.949
 30
5035.131
 70
    32
  0
VERTEX
  8
T02SSILL
 62
6
 10
808.795
 20
-1406.586
 30
5035.171
 70
    32
  0
VERTEX
  8
T02SSILL
 62
6
 10
805.974
 20
-1417.897
 30
5035.272
 70
    32
  0
VERTEX
  8
T02SSILL
 62
6
 10
800.315
 20
-1416.355
 30
5035.308
 70
    32
  0
VERTEX
  8
T02SSILL
 62
6
 10
798.021
 20
-1427.654
 30
5035.405
 70
    32
  0
VERTEX
  8
T02SSILL
 62
6
 10
826.501
 20
-1439.755
 30
5035.251
 70
    32
  0
VERTEX
  8
T02SSILL
 62
6
 10
829.269
 20
-1433.893
 30
5035.188
 70
    32
  0
VERTEX
  8
T02SSILL
 62
6
 10
891.804
 20
-1459.903
 30
5034.845
 70
    32
  0
VERTEX
  8
T02SSILL
 62
6
 10
897.714
 20
-1456.958
 30
5034.775
 70
    32
  0
VERTEX
  8
T02SSILL
 62
6
 10
898.554
 20
-1447.449
 30
5034.703
 70
    32
  0
VERTEX
  8
T02SSILL
 62
6
 10
897.260
 20
-1440.712
 30
5034.668
 70
    32
  0
VERTEX
  8
T02SSILL
 62
6
 10
868.157
 20
-1404.811
 30
5034.664
 70
    32
  0
VERTEX
  8
T02SSILL
 62
6
 10
877.038
 20
-1397.230
 30
5034.538
 70
    32
  0
VERTEX
  8
T02SSILL
 62
6
 10
893.680
 20
-1418.297
 30
5034.543
 70
    32
  0
VERTEX
  8
T02SSILL
 62
6
 10
908.772
 20
-1440.717
 30
5034.572
 70
    32
  0
VERTEX
  8
T02SSILL
 62
6
 10
909.205
 20
-1448.264
 30
5034.620
 70
    32
  0
VERTEX
  8
T02SSILL
 62
6
 10
905.126
 20
-1462.240
 30
5034.750
 70
    32
  0
VERTEX
  8
T02SSILL
 62
6
 10
905.915
 20
-1477.776
 30
5034.850
 70
    32
  0
VERTEX
  8
T02SSILL
 62
6
 10
932.438
 20
-1488.866
 30
5034.705
 70
    32
  0
VERTEX
  8
T02SSILL
 62
6
 10
930.108
 20
-1494.630
 30
5034.764
 70
    32
  0
VERTEX
  8
T02SSILL
 62
6
 10
902.953
 20
-1482.851
 30
5034.909
 70
    32
  0
VERTEX
  8
T02SSILL
 62
6
 10
900.861
 20
-1483.601
 30
5034.932
 70
    32
  0
VERTEX
  8
T02SSILL
 62
6
 10
921.261
 20
-1546.675
 30
5035.195
 70
    32
  0
VERTEX
  8
T02SSILL
 62
6
 10
925.514
 20
-1548.249
 30
5035.171
 70
    32
  0
VERTEX
  8
T02SSILL
 62
6
 10
934.201
 20
-1547.702
 30
5035.094
 70
    32
  0
VERTEX
  8
T02SSILL
 62
6
 10
936.673
 20
-1544.307
 30
5035.050
 70
    32
  0
VERTEX
  8
T02SSILL
 62
6
 10
958.826
 20
-1552.508
 30
5034.922
 70
    32
  0
VERTEX
  8
T02SSILL
 62
6
 10
985.735
 20
-1600.233
 30
5035.025
 70
    32
  0
VERTEX
  8
T02SSILL
 62
6
 10
991.806
 20
-1596.669
 30
5034.950
 70
    32
  0
VERTEX
  8
T02SSILL
 62
6
 10
1039.629
 20
-1578.019
 30
5034.424
 70
    32
  0
VERTEX
  8
T02SSILL
 62
6
 10
1015.849
 20
-1524.863
 30
5034.257
 70
    32
  0
VERTEX
  8
T02SSILL
 62
6
 10
976.939
 20
-1541.292
 30
5034.694
 70
    32
  0
VERTEX
  8
T02SSILL
 62
6
 10
971.944
 20
-1530.157
 30
5034.659
 70
    32
  0
VERTEX
  8
T02SSILL
 62
6
 10
955.660
 20
-1536.762
 30
5034.840
 70
    32
  0
VERTEX
  8
T02SSILL
 62
6
 10
940.870
 20
-1504.318
 30
5034.741
 70
    32
  0
VERTEX
  8
T02SSILL
 62
6
 10
946.710
 20
-1502.165
 30
5034.677
 70
    32
  0
VERTEX
  8
T02SSILL
 62
6
 10
941.991
 20
-1491.639
 30
5034.644
 70
    32
  0
VERTEX
  8
T02SSILL
 62
6
 10
947.737
 20
-1489.225
 30
5034.580
 70
    32
  0
VERTEX
  8
T02SSILL
 62
6
 10
944.692
 20
-1482.791
 30
5034.561
 70
    32
  0
VERTEX
  8
T02SSILL
 62
6
 10
961.411
 20
-1476.000
 30
5034.375
 70
    32
  0
VERTEX
  8
T02SSILL
 62
6
 10
968.817
 20
-1492.705
 30
5034.428
 70
    32
  0
VERTEX
  8
T02SSILL
 62
6
 10
963.245
 20
-1495.027
 30
5034.490
 70
    32
  0
VERTEX
  8
T02SSILL
 62
6
 10
975.461
 20
-1522.433
 30
5034.577
 70
    32
  0
VERTEX
  8
T02SSILL
 62
6
 10
986.592
 20
-1517.261
 30
5034.448
 70
    32
  0
VERTEX
  8
T02SSILL
 62
6
 10
988.828
 20
-1522.923
 30
5034.469
 70
    32
  0
VERTEX
  8
T02SSILL
 62
6
 10
1010.838
 20
-1513.025
 30
5034.217
 70
    32
  0
VERTEX
  8
T02SSILL
 62
6
 10
1006.203
 20
-1502.321
 30
5034.182
 70
    32
  0
VERTEX
  8
T02SSILL
 62
6
 10
1023.431
 20
-1494.728
 30
5033.987
 70
    32
  0
VERTEX
  8
T02SSILL
 62
6
 10
1028.595
 20
-1505.508
 30
5034.018
 70
    32
  0
VERTEX
  8
T02SSILL
 62
6
 10
1021.977
 20
-1508.205
 30
5034.091
 70
    32
  0
VERTEX
  8
T02SSILL
 62
6
 10
1035.890
 20
-1540.757
 30
5034.199
 70
    32
  0
VERTEX
  8
T02SSILL
 62
6
 10
1042.245
 20
-1538.065
 30
5034.127
 70
    32
  0
VERTEX
  8
T02SSILL
 62
6
 10
1049.816
 20
-1554.328
 30
5034.176
 70
    32
  0
VERTEX
  8
T02SSILL
 62
6
 10
1055.046
 20
-1552.452
 30
5034.119
 70
    32
  0
VERTEX
  8
T02SSILL
 62
6
 10
1063.593
 20
-1572.998
 30
5034.189
 70
    32
  0
VERTEX
  8
T02SSILL
 62
6
 10
1067.044
 20
-1574.063
 30
5034.168
 70
    32
  0
VERTEX
  8
T02SSILL
 62
6
 10
1072.368
 20
-1572.449
 30
5034.112
 70
    32
  0
VERTEX
  8
T02SSILL
 62
6
 10
1075.539
 20
-1568.863
 30
5034.061
 70
    32
  0
VERTEX
  8
T02SSILL
 62
6
 10
1076.322
 20
-1564.628
 30
5034.026
 70
    32
  0
VERTEX
  8
T02SSILL
 62
6
 10
1078.043
 20
-1563.007
 30
5034.000
 70
    32
  0
VERTEX
  8
T02SSILL
 62
6
 10
1095.716
 20
-1555.668
 30
5033.802
 70
    32
  0
VERTEX
  8
T02SSILL
 62
6
 10
1095.729
 20
-1552.328
 30
5033.779
 70
    32
  0
VERTEX
  8
T02SSILL
 62
6
 10
1083.655
 20
-1515.605
 30
5033.628
 70
    32
  0
VERTEX
  8
T02SSILL
 62
6
 10
1083.945
 20
-1512.874
 30
5033.607
 70
    32
  0
VERTEX
  8
T02SSILL
 62
6
 10
1090.510
 20
-1507.806
 30
5033.517
 70
    32
  0
VERTEX
  8
T02SSILL
 62
6
 10
1095.634
 20
-1497.321
 30
5033.402
 70
    32
  0
VERTEX
  8
T02SSILL
 62
6
 10
1098.450
 20
-1497.522
 30
5033.380
 70
    32
  0
VERTEX
  8
T02SSILL
 62
6
 10
1100.258
 20
-1499.766
 30
5033.381
 70
    32
  0
VERTEX
  8
T02SSILL
 62
6
 10
1101.986
 20
-1521.871
 30
5033.518
 70
    32
  0
VERTEX
  8
T02SSILL
 62
6
 10
1105.157
 20
-1533.926
 30
5033.574
 70
    32
  0
VERTEX
  8
T02SSILL
 62
6
 10
1110.269
 20
-1542.423
 30
5033.590
 70
    32
  0
VERTEX
  8
T02SSILL
 62
6
 10
1117.244
 20
-1547.802
 30
5033.569
 70
    32
  0
VERTEX
  8
T02SSILL
 62
6
 10
1123.693
 20
-1549.326
 30
5033.526
 70
    32
  0
VERTEX
  8
T02SSILL
 62
6
 10
1254.036
 20
-1491.913
 30
5032.045
 70
    32
  0
VERTEX
  8
T02SSILL
 62
6
 10
1257.053
 20
-1497.117
 30
5032.055
 70
    32
  0
VERTEX
  8
T02SSILL
 62
6
 10
1236.784
 20
-1506.273
 30
5032.287
 70
    32
  0
VERTEX
  8
T02SSILL
 62
6
 10
1234.894
 20
-1508.161
 30
5032.316
 70
    32
  0
VERTEX
  8
T02SSILL
 62
6
 10
1240.548
 20
-1521.214
 30
5032.358
 70
    32
  0
VERTEX
  8
T02SSILL
 62
6
 10
1235.313
 20
-1522.914
 30
5032.414
 70
    32
  0
VERTEX
  8
T02SSILL
 62
6
 10
1229.777
 20
-1511.175
 30
5032.379
 70
    32
  0
VERTEX
  8
T02SSILL
 62
6
 10
1228.174
 20
-1510.245
 30
5032.386
 70
    32
  0
VERTEX
  8
T02SSILL
 62
6
 10
1126.392
 20
-1556.032
 30
5033.549
 70
    32
  0
VERTEX
  8
T02SSILL
 62
6
 10
1125.868
 20
-1560.086
 30
5033.581
 70
    32
  0
VERTEX
  8
T02SSILL
 62
6
 10
1127.881
 20
-1575.331
 30
5033.669
 70
    32
  0
VERTEX
  8
T02SSILL
 62
6
 10
1124.554
 20
-1579.799
 30
5033.728
 70
    32
  0
VERTEX
  8
T02SSILL
 62
6
 10
1117.752
 20
-1578.195
 30
5033.773
 70
    32
  0
VERTEX
  8
T02SSILL
 62
6
 10
1112.587
 20
-1575.147
 30
5033.796
 70
    32
  0
VERTEX
  8
T02SSILL
 62
6
 10
1080.462
 20
-1580.703
 30
5034.102
 70
    32
  0
VERTEX
  8
T02SSILL
 62
6
 10
1077.003
 20
-1579.287
 30
5034.121
 70
    32
  0
VERTEX
  8
T02SSILL
 62
6
 10
1073.510
 20
-1580.244
 30
5034.156
 70
    32
  0
VERTEX
  8
T02SSILL
 62
6
 10
1070.277
 20
-1584.974
 30
5034.216
 70
    32
  0
VERTEX
  8
T02SSILL
 62
6
 10
1070.065
 20
-1587.264
 30
5034.233
 70
    32
  0
VERTEX
  8
T02SSILL
 62
6
 10
1078.982
 20
-1600.859
 30
5034.252
 70
    32
  0
VERTEX
  8
T02SSILL
 62
6
 10
1098.439
 20
-1641.547
 30
5034.370
 70
    32
  0
VERTEX
  8
T02SSILL
 62
6
 10
1112.085
 20
-1697.391
 30
5034.639
 70
    32
  0
VERTEX
  8
T02SSILL
 62
6
 10
1113.454
 20
-1699.645
 30
5034.643
 70
    32
  0
VERTEX
  8
T02SSILL
 62
6
 10
1173.383
 20
-1683.973
 30
5034.036
 70
    32
  0
VERTEX
  8
T02SSILL
 62
6
 10
1174.747
 20
-1689.918
 30
5034.066
 70
    32
  0
VERTEX
  8
T02SSILL
 62
6
 10
1117.859
 20
-1704.027
 30
5034.637
 70
    32
  0
VERTEX
  8
T02SSILL
 62
6
 10
1115.263
 20
-1705.843
 30
5034.671
 70
    32
  0
VERTEX
  8
T02SSILL
 62
6
 10
1123.523
 20
-1740.982
 30
5034.843
 70
    32
  0
VERTEX
  8
T02SSILL
 62
6
 10
1117.131
 20
-1742.005
 30
5034.904
 70
    32
  0
VERTEX
  8
T02SSILL
 62
6
 10
1092.378
 20
-1645.549
 30
5034.448
 70
    32
  0
VERTEX
  8
T02SSILL
 62
6
 10
1078.157
 20
-1614.938
 30
5034.356
 70
    32
  0
VERTEX
  8
T02SSILL
 62
6
 10
1068.921
 20
-1598.889
 30
5034.323
 70
    32
  0
VERTEX
  8
T02SSILL
 62
6
 10
1052.381
 20
-1605.852
 30
5034.508
 70
    32
  0
VERTEX
  8
T02SSILL
 62
6
 10
1049.805
 20
-1600.725
 30
5034.495
 70
    32
  0
VERTEX
  8
T02SSILL
 62
6
 10
1044.148
 20
-1603.137
 30
5034.558
 70
    32
  0
VERTEX
  8
T02SSILL
 62
6
 10
1038.428
 20
-1591.051
 30
5034.523
 70
    32
  0
VERTEX
  8
T02SSILL
 62
6
 10
993.815
 20
-1607.872
 30
5035.011
 70
    32
  0
VERTEX
  8
T02SSILL
 62
6
 10
992.058
 20
-1611.778
 30
5035.052
 70
    32
  0
VERTEX
  8
T02SSILL
 62
6
 10
997.375
 20
-1621.588
 30
5035.075
 70
    32
  0
VERTEX
  8
T02SSILL
 62
6
 10
986.509
 20
-1626.841
 30
5035.202
 70
    32
  0
VERTEX
  8
T02SSILL
 62
6
 10
977.160
 20
-1613.607
 30
5035.189
 70
    32
  0
VERTEX
  8
T02SSILL
 62
6
 10
973.420
 20
-1611.406
 30
5035.205
 70
    32
  0
VERTEX
  8
T02SSILL
 62
6
 10
936.005
 20
-1620.069
 30
5035.576
 70
    32
  0
VERTEX
  8
T02SSILL
 62
6
 10
931.174
 20
-1620.177
 30
5035.617
 70
    32
  0
VERTEX
  8
T02SSILL
 62
6
 10
880.734
 20
-1588.887
 30
5035.823
 70
    32
  0
VERTEX
  8
T02SSILL
 62
6
 10
845.134
 20
-1518.071
 30
5035.633
 70
    32
  0
VERTEX
  8
T02SSILL
 62
6
 10
833.656
 20
-1511.738
 30
5035.686
 70
    32
  0
VERTEX
  8
T02SSILL
 62
6
 10
808.758
 20
-1506.499
 30
5035.857
 70
    32
  0
VERTEX
  8
T02SSILL
 62
6
 10
808.029
 20
-1509.239
 30
5035.882
 70
    32
  0
VERTEX
  8
T02SSILL
 62
6
 10
1226.123
 20
-2211.196
 30
5035.813
 70
    32
  0
VERTEX
  8
T02SSILL
 62
6
 10
1258.160
 20
-2329.334
 30
5035.700
 70
    32
  0
VERTEX
  8
T02SSILL
 62
6
 10
1263.555
 20
-2342.354
 30
5035.685
 70
    32
  0
VERTEX
  8
T02SSILL
 62
6
 10
1267.499
 20
-2347.040
 30
5035.678
 70
    32
  0
VERTEX
  8
T02SSILL
 62
6
 10
1358.954
 20
-2396.164
 30
5035.550
 70
    32
  0
VERTEX
  8
T02SSILL
 62
6
 10
1364.339
 20
-2397.398
 30
5035.544
 70
    32
  0
VERTEX
  8
T02SSILL
 62
6
 10
1369.707
 20
-2397.577
 30
5035.538
 70
    32
  0
VERTEX
  8
T02SSILL
 62
6
 10
1436.408
 20
-2371.983
 30
5035.487
 70
    32
  0
VERTEX
  8
T02SSILL
 62
6
 10
1438.974
 20
-2378.539
 30
5035.480
 70
    32
  0
VERTEX
  8
T02SSILL
 62
6
 10
1377.956
 20
-2402.020
 30
5035.527
 70
    32
  0
VERTEX
  8
T02SSILL
 62
6
 10
1383.066
 20
-2408.096
 30
5035.517
 70
    32
  0
VERTEX
  8
T02SSILL
 62
6
 10
1890.304
 20
-2665.325
 30
5034.799
 70
    32
  0
VERTEX
  8
T02SSILL
 62
6
 10
1911.223
 20
-2697.799
 30
5034.797
 70
    32
  0
VERTEX
  8
T02SSILL
 62
6
 10
1936.676
 20
-2733.368
 30
5034.810
 70
    32
  0
VERTEX
  8
T02SSILL
 62
6
 10
1919.987
 20
-2745.858
 30
5034.824
 70
    32
  0
VERTEX
  8
T02SSILL
 62
6
 10
1906.949
 20
-2727.858
 30
5034.817
 70
    32
  0
VERTEX
  8
T02SSILL
 62
6
 10
1918.071
 20
-2719.239
 30
5034.808
 70
    32
  0
VERTEX
  8
T02SSILL
 62
6
 10
1903.863
 20
-2699.587
 30
5034.801
 70
    32
  0
VERTEX
  8
T02SSILL
 62
6
 10
1895.102
 20
-2701.749
 30
5034.805
 70
    32
  0
VERTEX
  8
T02SSILL
 62
6
 10
1885.496
 20
-2700.493
 30
5034.808
 70
    32
  0
VERTEX
  8
T02SSILL
 62
6
 10
1879.192
 20
-2696.723
 30
5034.808
 70
    32
  0
VERTEX
  8
T02SSILL
 62
6
 10
1872.539
 20
-2687.594
 30
5034.822
 70
    32
  0
VERTEX
  8
T02SSILL
 62
6
 10
1864.350
 20
-2670.309
 30
5034.842
 70
    32
  0
VERTEX
  8
T02SSILL
 62
6
 10
1857.599
 20
-2660.566
 30
5034.856
 70
    32
  0
VERTEX
  8
T02SSILL
 62
6
 10
1849.389
 20
-2653.044
 30
5034.869
 70
    32
  0
VERTEX
  8
T02SSILL
 62
6
 10
1367.313
 20
-2407.466
 30
5035.534
 70
    32
  0
VERTEX
  8
T02SSILL
 62
6
 10
1358.880
 20
-2408.127
 30
5035.542
 70
    32
  0
VERTEX
  8
T02SSILL
 62
6
 10
1337.459
 20
-2421.746
 30
5035.555
 70
    32
  0
VERTEX
  8
T02SSILL
 62
6
 10
1338.326
 20
-2426.482
 30
5035.551
 70
    32
  0
VERTEX
  8
T02SSILL
 62
6
 10
1326.455
 20
-2437.752
 30
5035.555
 70
    32
  0
VERTEX
  8
T02SSILL
 62
6
 10
1317.005
 20
-2435.263
 30
5035.567
 70
    32
  0
VERTEX
  8
T02SSILL
 62
6
 10
1311.865
 20
-2438.335
 30
5035.570
 70
    32
  0
VERTEX
  8
T02SSILL
 62
6
 10
1318.905
 20
-2455.286
 30
5035.551
 70
    32
  0
VERTEX
  8
T02SSILL
 62
6
 10
1342.322
 20
-2490.007
 30
5035.503
 70
    32
  0
VERTEX
  8
T02SSILL
 62
6
 10
1363.990
 20
-2530.913
 30
5035.453
 70
    32
  0
VERTEX
  8
T02SSILL
 62
6
 10
1368.336
 20
-2533.219
 30
5035.447
 70
    32
  0
VERTEX
  8
T02SSILL
 62
6
 10
1374.612
 20
-2546.312
 30
5035.432
 70
    32
  0
VERTEX
  8
T02SSILL
 62
6
 10
1373.961
 20
-2555.206
 30
5035.426
 70
    32
  0
VERTEX
  8
T02SSILL
 62
6
 10
1375.854
 20
-2569.248
 30
5035.415
 70
    32
  0
VERTEX
  8
T02SSILL
 62
6
 10
1391.984
 20
-2610.329
 30
5035.370
 70
    32
  0
VERTEX
  8
T02SSILL
 62
6
 10
1386.288
 20
-2611.651
 30
5035.375
 70
    32
  0
VERTEX
  8
T02SSILL
 62
6
 10
1381.414
 20
-2598.183
 30
5035.389
 70
    32
  0
VERTEX
  8
T02SSILL
 62
6
 10
1374.140
 20
-2583.171
 30
5035.407
 70
    32
  0
VERTEX
  8
T02SSILL
 62
6
 10
1365.276
 20
-2556.574
 30
5035.434
 70
    32
  0
VERTEX
  8
T02SSILL
 62
6
 10
1358.028
 20
-2554.314
 30
5035.443
 70
    32
  0
VERTEX
  8
T02SSILL
 62
6
 10
1333.724
 20
-2574.664
 30
5035.455
 70
    32
  0
VERTEX
  8
T02SSILL
 62
6
 10
1329.958
 20
-2570.150
 30
5035.462
 70
    32
  0
VERTEX
  8
T02SSILL
 62
6
 10
1356.018
 20
-2549.597
 30
5035.449
 70
    32
  0
VERTEX
  8
T02SSILL
 62
6
 10
1353.439
 20
-2542.250
 30
5035.456
 70
    32
  0
VERTEX
  8
T02SSILL
 62
6
 10
1353.938
 20
-2534.854
 30
5035.461
 70
    32
  0
VERTEX
  8
T02SSILL
 62
6
 10
1350.576
 20
-2528.047
 30
5035.469
 70
    32
  0
VERTEX
  8
T02SSILL
 62
6
 10
1331.785
 20
-2502.223
 30
5035.506
 70
    32
  0
VERTEX
  8
T02SSILL
 62
6
 10
1323.683
 20
-2484.849
 30
5035.526
 70
    32
  0
VERTEX
  8
T02SSILL
 62
6
 10
1316.504
 20
-2475.816
 30
5035.540
 70
    32
  0
VERTEX
  8
T02SSILL
 62
6
 10
1307.113
 20
-2482.649
 30
5035.545
 70
    32
  0
VERTEX
  8
T02SSILL
 62
6
 10
1310.792
 20
-2487.252
 30
5035.538
 70
    32
  0
VERTEX
  8
T02SSILL
 62
6
 10
1305.928
 20
-2491.111
 30
5035.540
 70
    32
  0
VERTEX
  8
T02SSILL
 62
6
 10
1309.526
 20
-2496.155
 30
5035.533
 70
    32
  0
VERTEX
  8
T02SSILL
 62
6
 10
1305.005
 20
-2499.481
 30
5035.536
 70
    32
  0
VERTEX
  8
T02SSILL
 62
6
 10
1307.987
 20
-2504.535
 30
5035.529
 70
    32
  0
VERTEX
  8
T02SSILL
 62
6
 10
1303.293
 20
-2508.039
 30
5035.531
 70
    32
  0
VERTEX
  8
T02SSILL
 62
6
 10
1321.266
 20
-2532.205
 30
5035.496
 70
    32
  0
VERTEX
  8
T02SSILL
 62
6
 10
1316.659
 20
-2535.620
 30
5035.499
 70
    32
  0
VERTEX
  8
T02SSILL
 62
6
 10
1320.260
 20
-2540.840
 30
5035.492
 70
    32
  0
VERTEX
  8
T02SSILL
 62
6
 10
1315.567
 20
-2544.433
 30
5035.494
 70
    32
  0
VERTEX
  8
T02SSILL
 62
6
 10
1319.338
 20
-2549.298
 30
5035.487
 70
    32
  0
VERTEX
  8
T02SSILL
 62
6
 10
1314.376
 20
-2552.543
 30
5035.490
 70
    32
  0
VERTEX
  8
T02SSILL
 62
6
 10
1317.437
 20
-2556.980
 30
5035.484
 70
    32
  0
VERTEX
  8
T02SSILL
 62
6
 10
1307.880
 20
-2564.431
 30
5035.488
 70
    32
  0
VERTEX
  8
T02SSILL
 62
6
 10
1289.902
 20
-2539.914
 30
5035.524
 70
    32
  0
VERTEX
  8
T02SSILL
 62
6
 10
1295.122
 20
-2536.313
 30
5035.521
 70
    32
  0
VERTEX
  8
T02SSILL
 62
6
 10
1241.214
 20
-2464.431
 30
5035.625
 70
    32
  0
VERTEX
  8
T02SSILL
 62
6
 10
1236.429
 20
-2467.761
 30
5035.628
 70
    32
  0
VERTEX
  8
T02SSILL
 62
6
 10
1222.404
 20
-2448.546
 30
5035.655
 70
    32
  0
VERTEX
  8
T02SSILL
 62
6
 10
1216.833
 20
-2452.152
 30
5035.659
 70
    32
  0
VERTEX
  8
T02SSILL
 62
6
 10
1210.353
 20
-2442.844
 30
5035.672
 70
    32
  0
VERTEX
  8
T02SSILL
 62
6
 10
1205.311
 20
-2446.618
 30
5035.674
 70
    32
  0
VERTEX
  8
T02SSILL
 62
6
 10
1180.595
 20
-2413.148
 30
5035.723
 70
    32
  0
VERTEX
  8
T02SSILL
 62
6
 10
1170.244
 20
-2420.436
 30
5035.728
 70
    32
  0
VERTEX
  8
T02SSILL
 62
6
 10
1166.817
 20
-2415.037
 30
5035.736
 70
    32
  0
VERTEX
  8
T02SSILL
 62
6
 10
1161.249
 20
-2418.907
 30
5035.739
 70
    32
  0
VERTEX
  8
T02SSILL
 62
6
 10
1158.531
 20
-2413.849
 30
5035.745
 70
    32
  0
VERTEX
  8
T02SSILL
 62
6
 10
1152.615
 20
-2417.988
 30
5035.748
 70
    32
  0
VERTEX
  8
T02SSILL
 62
6
 10
1146.573
 20
-2408.498
 30
5035.761
 70
    32
  0
VERTEX
  8
T02SSILL
 62
6
 10
1141.358
 20
-2412.450
 30
5035.764
 70
    32
  0
VERTEX
  8
T02SSILL
 62
6
 10
1131.386
 20
-2399.239
 30
5035.783
 70
    32
  0
VERTEX
  8
T02SSILL
 62
6
 10
1114.754
 20
-2387.541
 30
5035.808
 70
    32
  0
VERTEX
  8
T02SSILL
 62
6
 10
1110.850
 20
-2379.775
 30
5035.817
 70
    32
  0
VERTEX
  8
T02SSILL
 62
6
 10
1114.829
 20
-2370.038
 30
5035.820
 70
    32
  0
VERTEX
  8
T02SSILL
 62
6
 10
1091.484
 20
-2323.178
 30
5035.876
 70
    32
  0
VERTEX
  8
T02SSILL
 62
6
 10
782.640
 20
-2675.649
 30
5035.955
 70
    32
  0
VERTEX
  8
T02SSILL
 62
6
 10
754.977
 20
-2756.034
 30
5035.929
 70
    32
  0
VERTEX
  8
T02SSILL
 62
6
 10
750.412
 20
-2772.692
 30
5035.922
 70
    32
  0
VERTEX
  8
T02SSILL
 62
6
 10
757.254
 20
-2787.388
 30
5035.905
 70
    32
  0
VERTEX
  8
T02SSILL
 62
6
 10
753.294
 20
-2788.966
 30
5035.908
 70
    32
  0
VERTEX
  8
T02SSILL
 62
6
 10
753.287
 20
-2795.123
 30
5035.904
 70
    32
  0
VERTEX
  8
T02SSILL
 62
6
 10
746.676
 20
-2807.076
 30
5035.902
 70
    32
  0
VERTEX
  8
T02SSILL
 62
6
 10
740.957
 20
-2808.564
 30
5035.907
 70
    32
  0
VERTEX
  8
T02SSILL
 62
6
 10
727.314
 20
-2817.166
 30
5035.916
 70
    32
  0
VERTEX
  8
T02SSILL
 62
6
 10
713.587
 20
-2822.163
 30
5035.926
 70
    32
  0
VERTEX
  8
T02SSILL
 62
6
 10
708.916
 20
-2830.688
 30
5035.925
 70
    32
  0
VERTEX
  8
T02SSILL
 62
6
 10
704.162
 20
-2833.761
 30
5035.928
 70
    32
  0
VERTEX
  8
T02SSILL
 62
6
 10
689.833
 20
-2828.114
 30
5035.947
 70
    32
  0
VERTEX
  8
T02SSILL
 62
6
 10
654.967
 20
-2858.942
 30
5035.962
 70
    32
  0
VERTEX
  8
T02SSILL
 62
6
 10
644.220
 20
-2872.737
 30
5035.963
 70
    32
  0
VERTEX
  8
T02SSILL
 62
6
 10
642.277
 20
-2879.595
 30
5035.961
 70
    32
  0
VERTEX
  8
T02SSILL
 62
6
 10
643.588
 20
-2885.929
 30
5035.955
 70
    32
  0
VERTEX
  8
T02SSILL
 62
6
 10
674.835
 20
-2937.682
 30
5035.887
 70
    32
  0
VERTEX
  8
T02SSILL
 62
6
 10
678.966
 20
-2939.358
 30
5035.881
 70
    32
  0
VERTEX
  8
T02SSILL
 62
6
 10
686.708
 20
-2937.961
 30
5035.874
 70
    32
  0
VERTEX
  8
T02SSILL
 62
6
 10
694.534
 20
-2939.114
 30
5035.865
 70
    32
  0
VERTEX
  8
T02SSILL
 62
6
 10
708.091
 20
-2928.928
 30
5035.858
 70
    32
  0
VERTEX
  8
T02SSILL
 62
6
 10
714.684
 20
-2931.575
 30
5035.850
 70
    32
  0
VERTEX
  8
T02SSILL
 62
6
 10
735.713
 20
-2924.301
 30
5035.833
 70
    32
  0
VERTEX
  8
T02SSILL
 62
6
 10
740.448
 20
-2936.444
 30
5035.820
 70
    32
  0
VERTEX
  8
T02SSILL
 62
6
 10
769.919
 20
-2929.884
 30
5035.794
 70
    32
  0
VERTEX
  8
T02SSILL
 62
6
 10
770.969
 20
-2934.546
 30
5035.789
 70
    32
  0
VERTEX
  8
T02SSILL
 62
6
 10
778.178
 20
-2936.666
 30
5035.780
 70
    32
  0
VERTEX
  8
T02SSILL
 62
6
 10
793.928
 20
-2931.584
 30
5035.768
 70
    32
  0
VERTEX
  8
T02SSILL
 62
6
 10
800.347
 20
-2932.824
 30
5035.760
 70
    32
  0
VERTEX
  8
T02SSILL
 62
6
 10
809.308
 20
-2940.750
 30
5035.745
 70
    32
  0
VERTEX
  8
T02SSILL
 62
6
 10
825.981
 20
-2970.938
 30
5035.707
 70
    32
  0
VERTEX
  8
T02SSILL
 62
6
 10
832.815
 20
-2992.406
 30
5035.685
 70
    32
  0
VERTEX
  8
T02SSILL
 62
6
 10
837.452
 20
-3012.025
 30
5035.667
 70
    32
  0
VERTEX
  8
T02SSILL
 62
6
 10
828.741
 20
-3015.268
 30
5035.673
 70
    32
  0
VERTEX
  8
T02SSILL
 62
6
 10
811.485
 20
-3029.495
 30
5035.681
 70
    32
  0
VERTEX
  8
T02SSILL
 62
6
 10
795.209
 20
-3033.521
 30
5035.695
 70
    32
  0
VERTEX
  8
T02SSILL
 62
6
 10
774.457
 20
-3029.977
 30
5035.719
 70
    32
  0
VERTEX
  8
T02SSILL
 62
6
 10
766.641
 20
-3020.469
 30
5035.734
 70
    32
  0
VERTEX
  8
T02SSILL
 62
6
 10
756.526
 20
-3021.336
 30
5035.744
 70
    32
  0
VERTEX
  8
T02SSILL
 62
6
 10
740.331
 20
-3030.991
 30
5035.754
 70
    32
  0
VERTEX
  8
T02SSILL
 62
6
 10
728.724
 20
-3028.778
 30
5035.767
 70
    32
  0
VERTEX
  8
T02SSILL
 62
6
 10
715.451
 20
-3022.605
 30
5035.786
 70
    32
  0
VERTEX
  8
T02SSILL
 62
6
 10
695.592
 20
-3008.420
 30
5035.816
 70
    32
  0
VERTEX
  8
T02SSILL
 62
6
 10
682.317
 20
-3003.655
 30
5035.833
 70
    32
  0
VERTEX
  8
T02SSILL
 62
6
 10
672.748
 20
-2990.010
 30
5035.852
 70
    32
  0
VERTEX
  8
T02SSILL
 62
6
 10
671.170
 20
-2985.523
 30
5035.857
 70
    32
  0
VERTEX
  8
T02SSILL
 62
6
 10
671.619
 20
-2978.048
 30
5035.862
 70
    32
  0
VERTEX
  8
T02SSILL
 62
6
 10
669.165
 20
-2971.009
 30
5035.869
 70
    32
  0
VERTEX
  8
T02SSILL
 62
6
 10
653.544
 20
-2943.549
 30
5035.904
 70
    32
  0
VERTEX
  8
T02SSILL
 62
6
 10
658.305
 20
-2933.968
 30
5035.906
 70
    32
  0
VERTEX
  8
T02SSILL
 62
6
 10
655.948
 20
-2919.365
 30
5035.919
 70
    32
  0
VERTEX
  8
T02SSILL
 62
6
 10
641.720
 20
-2902.989
 30
5035.945
 70
    32
  0
VERTEX
  8
T02SSILL
 62
6
 10
628.462
 20
-2884.855
 30
5035.971
 70
    32
  0
VERTEX
  8
T02SSILL
 62
6
 10
623.798
 20
-2886.520
 30
5035.975
 70
    32
  0
VERTEX
  8
T02SSILL
 62
6
 10
619.394
 20
-2891.880
 30
5035.976
 70
    32
  0
VERTEX
  8
T02SSILL
 62
6
 10
612.705
 20
-2896.181
 30
5035.980
 70
    32
  0
VERTEX
  8
T02SSILL
 62
6
 10
608.301
 20
-2901.189
 30
5035.981
 70
    32
  0
VERTEX
  8
T02SSILL
 62
6
 10
604.792
 20
-2893.621
 30
5035.990
 70
    32
  0
VERTEX
  8
T02SSILL
 62
6
 10
614.386
 20
-2887.564
 30
5035.984
 70
    32
  0
VERTEX
  8
T02SSILL
 62
6
 10
622.844
 20
-2876.317
 30
5035.983
 70
    32
  0
VERTEX
  8
T02SSILL
 62
6
 10
619.069
 20
-2870.683
 30
5035.991
 70
    32
  0
VERTEX
  8
T02SSILL
 62
6
 10
606.756
 20
-2870.492
 30
5036.004
 70
    32
  0
VERTEX
  8
T02SSILL
 62
6
 10
598.847
 20
-2864.853
 30
5036.016
 70
    32
  0
VERTEX
  8
T02SSILL
 62
6
 10
583.395
 20
-2842.583
 30
5036.047
 70
    32
  0
VERTEX
  8
T02SSILL
 62
6
 10
581.558
 20
-2834.401
 30
5036.054
 70
    32
  0
VERTEX
  8
T02SSILL
 62
6
 10
603.915
 20
-2820.269
 30
5036.041
 70
    32
  0
VERTEX
  8
T02SSILL
 62
6
 10
609.366
 20
-2822.210
 30
5036.034
 70
    32
  0
VERTEX
  8
T02SSILL
 62
6
 10
623.591
 20
-2841.137
 30
5036.006
 70
    32
  0
VERTEX
  8
T02SSILL
 62
6
 10
628.580
 20
-2860.580
 30
5035.988
 70
    32
  0
VERTEX
  8
T02SSILL
 62
6
 10
631.216
 20
-2862.607
 30
5035.984
 70
    32
  0
VERTEX
  8
T02SSILL
 62
6
 10
638.781
 20
-2861.648
 30
5035.977
 70
    32
  0
VERTEX
  8
T02SSILL
 62
6
 10
683.597
 20
-2821.334
 30
5035.958
 70
    32
  0
VERTEX
  8
T02SSILL
 62
6
 10
662.342
 20
-2798.089
 30
5035.996
 70
    32
  0
VERTEX
  8
T02SSILL
 62
6
 10
672.306
 20
-2777.345
 30
5035.999
 70
    32
  0
VERTEX
  8
T02SSILL
 62
6
 10
673.032
 20
-2759.316
 30
5036.011
 70
    32
  0
VERTEX
  8
T02SSILL
 62
6
 10
681.835
 20
-2752.818
 30
5036.006
 70
    32
  0
VERTEX
  8
T02SSILL
 62
6
 10
697.763
 20
-2745.450
 30
5035.995
 70
    32
  0
VERTEX
  8
T02SSILL
 62
6
 10
715.528
 20
-2745.912
 30
5035.976
 70
    32
  0
VERTEX
  8
T02SSILL
 62
6
 10
741.292
 20
-2750.341
 30
5035.947
 70
    32
  0
VERTEX
  8
T02SSILL
 62
6
 10
743.922
 20
-2757.820
 30
5035.939
 70
    32
  0
VERTEX
  8
T02SSILL
 62
6
 10
747.380
 20
-2753.955
 30
5035.938
 70
    32
  0
VERTEX
  8
T02SSILL
 62
6
 10
751.605
 20
-2743.070
 30
5035.941
 70
    32
  0
VERTEX
  8
T02SSILL
 62
6
 10
763.069
 20
-2694.956
 30
5035.962
 70
    32
  0
VERTEX
  8
T02SSILL
 62
6
 10
756.863
 20
-2697.429
 30
5035.967
 70
    32
  0
VERTEX
  8
T02SSILL
 62
6
 10
752.182
 20
-2696.184
 30
5035.972
 70
    32
  0
VERTEX
  8
T02SSILL
 62
6
 10
733.385
 20
-2703.253
 30
5035.987
 70
    32
  0
VERTEX
  8
T02SSILL
 62
6
 10
630.140
 20
-2664.980
 30
5036.119
 70
    32
  0
VERTEX
  8
T02SSILL
 62
6
 10
620.992
 20
-2666.024
 30
5036.128
 70
    32
  0
VERTEX
  8
T02SSILL
 62
6
 10
548.115
 20
-2637.878
 30
5036.223
 70
    32
  0
VERTEX
  8
T02SSILL
 62
6
 10
536.517
 20
-2628.453
 30
5036.241
 70
    32
  0
VERTEX
  8
T02SSILL
 62
6
 10
538.633
 20
-2624.322
 30
5036.242
 70
    32
  0
VERTEX
  8
T02SSILL
 62
6
 10
612.126
 20
-2652.117
 30
5036.147
 70
    32
  0
VERTEX
  8
T02SSILL
 62
6
 10
530.891
 20
-2483.239
 30
5036.346
 70
    32
  0
VERTEX
  8
T02SSILL
 62
6
 10
539.597
 20
-2484.306
 30
5036.336
 70
    32
  0
VERTEX
  8
T02SSILL
 62
6
 10
622.587
 20
-2656.176
 30
5036.133
 70
    32
  0
VERTEX
  8
T02SSILL
 62
6
 10
732.216
 20
-2696.060
 30
5035.993
 70
    32
  0
VERTEX
  8
T02SSILL
 62
6
 10
768.070
 20
-2683.091
 30
5035.965
 70
    32
  0
VERTEX
  8
T02SSILL
 62
6
 10
774.686
 20
-2673.224
 30
5035.965
 70
    32
  0
VERTEX
  8
T02SSILL
 62
6
 10
797.946
 20
-2648.054
 30
5035.958
 70
    32
  0
VERTEX
  8
T02SSILL
 62
6
 10
1051.233
 20
-2358.468
 30
5035.893
 70
    32
  0
VERTEX
  8
T02SSILL
 62
6
 10
1052.703
 20
-2351.320
 30
5035.897
 70
    32
  0
VERTEX
  8
T02SSILL
 62
6
 10
1040.599
 20
-2336.736
 30
5035.919
 70
    32
  0
VERTEX
  8
T02SSILL
 62
6
 10
1027.237
 20
-2326.042
 30
5035.940
 70
    32
  0
VERTEX
  8
T02SSILL
 62
6
 10
1001.715
 20
-2308.328
 30
5035.979
 70
    32
  0
VERTEX
  8
T02SSILL
 62
6
 10
997.951
 20
-2303.902
 30
5035.986
 70
    32
  0
VERTEX
  8
T02SSILL
 62
6
 10
997.172
 20
-2299.165
 30
5035.990
 70
    32
  0
VERTEX
  8
T02SSILL
 62
6
 10
1030.833
 20
-2247.621
 30
5035.990
 70
    32
  0
VERTEX
  8
T02SSILL
 62
6
 10
1037.753
 20
-2251.381
 30
5035.980
 70
    32
  0
VERTEX
  8
T02SSILL
 62
6
 10
1009.662
 20
-2299.231
 30
5035.977
 70
    32
  0
VERTEX
  8
T02SSILL
 62
6
 10
1008.576
 20
-2302.855
 30
5035.975
 70
    32
  0
VERTEX
  8
T02SSILL
 62
6
 10
1014.089
 20
-2306.637
 30
5035.967
 70
    32
  0
VERTEX
  8
T02SSILL
 62
6
 10
1019.303
 20
-2308.226
 30
5035.961
 70
    32
  0
VERTEX
  8
T02SSILL
 62
6
 10
1023.742
 20
-2305.253
 30
5035.958
 70
    32
  0
VERTEX
  8
T02SSILL
 62
6
 10
1031.096
 20
-2303.114
 30
5035.952
 70
    32
  0
VERTEX
  8
T02SSILL
 62
6
 10
1047.242
 20
-2317.458
 30
5035.925
 70
    32
  0
VERTEX
  8
T02SSILL
 62
6
 10
1047.797
 20
-2330.290
 30
5035.916
 70
    32
  0
VERTEX
  8
T02SSILL
 62
6
 10
1053.575
 20
-2339.697
 30
5035.904
 70
    32
  0
VERTEX
  8
T02SSILL
 62
6
 10
1059.004
 20
-2343.745
 30
5035.895
 70
    32
  0
VERTEX
  8
T02SSILL
 62
6
 10
1064.200
 20
-2344.190
 30
5035.890
 70
    32
  0
VERTEX
  8
T02SSILL
 62
6
 10
1185.147
 20
-2206.216
 30
5035.859
 70
    32
  0
VERTEX
  8
T02SSILL
 62
6
 10
1207.540
 20
-2192.933
 30
5035.845
 70
    32
  0
VERTEX
  8
T02SSILL
 62
6
 10
798.436
 20
-1504.710
 30
5035.931
 70
    32
  0
VERTEX
  8
T02SSILL
 62
6
 10
792.334
 20
-1499.048
 30
5035.943
 70
    32
  0
VERTEX
  8
T02SSILL
 62
6
 10
786.725
 20
-1495.835
 30
5035.968
 70
    32
  0
VERTEX
  8
T02SSILL
 62
6
 10
749.798
 20
-1483.221
 30
5036.189
 70
    32
  0
VERTEX
  8
T02SSILL
 62
6
 10
713.413
 20
-1482.985
 30
5036.491
 70
    32
  0
VERTEX
  8
T02SSILL
 62
6
 10
718.452
 20
-1542.889
 30
5036.792
 70
    32
  0
VERTEX
  8
T02SSILL
 62
6
 10
710.725
 20
-1543.151
 30
5036.800
 70
    32
  0
VERTEX
  8
T02SSILL
 62
6
 10
719.244
 20
-1613.258
 30
5036.743
 70
    32
  0
VERTEX
  8
T02SSILL
 62
6
 10
753.002
 20
-1629.546
 30
5036.697
 70
    32
  0
VERTEX
  8
T02SSILL
 62
6
 10
751.256
 20
-1633.979
 30
5036.696
 70
    32
  0
VERTEX
  8
T02SSILL
 62
6
 10
720.163
 20
-1618.949
 30
5036.739
 70
    32
  0
VERTEX
  8
T02SSILL
 62
6
 10
726.720
 20
-1672.141
 30
5036.696
 70
    32
  0
VERTEX
  8
T02SSILL
 62
6
 10
720.494
 20
-1672.720
 30
5036.702
 70
    32
  0
VERTEX
  8
T02SSILL
 62
6
 10
725.656
 20
-1714.695
 30
5036.668
 70
    32
  0
VERTEX
  8
T02SSILL
 62
6
 10
732.051
 20
-1713.848
 30
5036.662
 70
    32
  0
VERTEX
  8
T02SSILL
 62
6
 10
732.625
 20
-1719.811
 30
5036.657
 70
    32
  0
VERTEX
  8
T02SSILL
 62
6
 10
726.668
 20
-1720.648
 30
5036.663
 70
    32
  0
VERTEX
  8
T02SSILL
 62
6
 10
728.169
 20
-1732.653
 30
5036.653
 70
    32
  0
VERTEX
  8
T02SSILL
 62
6
 10
722.384
 20
-1733.310
 30
5036.658
 70
    32
  0
VERTEX
  8
T02SSILL
 62
6
 10
725.277
 20
-1756.444
 30
5036.640
 70
    32
  0
VERTEX
  8
T02SSILL
 62
6
 10
713.446
 20
-1757.852
 30
5036.651
 70
    32
  0
VERTEX
  8
T02SSILL
 62
6
 10
712.878
 20
-1752.153
 30
5036.655
 70
    32
  0
VERTEX
  8
T02SSILL
 62
6
 10
706.830
 20
-1752.816
 30
5036.661
 70
    32
  0
VERTEX
  8
T02SSILL
 62
6
 10
706.434
 20
-1746.938
 30
5036.666
 70
    32
  0
VERTEX
  8
T02SSILL
 62
6
 10
700.116
 20
-1747.344
 30
5036.672
 70
    32
  0
VERTEX
  8
T02SSILL
 62
6
 10
699.552
 20
-1741.820
 30
5036.676
 70
    32
  0
VERTEX
  8
T02SSILL
 62
6
 10
693.584
 20
-1742.130
 30
5036.682
 70
    32
  0
VERTEX
  8
T02SSILL
 62
6
 10
693.026
 20
-1736.870
 30
5036.686
 70
    32
  0
VERTEX
  8
T02SSILL
 62
6
 10
687.056
 20
-1737.093
 30
5036.692
 70
    32
  0
VERTEX
  8
T02SSILL
 62
6
 10
686.576
 20
-1731.392
 30
5036.697
 70
    32
  0
VERTEX
  8
T02SSILL
 62
6
 10
680.348
 20
-1731.883
 30
5036.703
 70
    32
  0
VERTEX
  8
T02SSILL
 62
6
 10
677.517
 20
-1707.606
 30
5036.722
 70
    32
  0
VERTEX
  8
T02SSILL
 62
6
 10
683.398
 20
-1707.298
 30
5036.716
 70
    32
  0
VERTEX
  8
T02SSILL
 62
6
 10
683.000
 20
-1701.331
 30
5036.721
 70
    32
  0
VERTEX
  8
T02SSILL
 62
6
 10
688.525
 20
-1700.856
 30
5036.715
 70
    32
  0
VERTEX
  8
T02SSILL
 62
6
 10
686.304
 20
-1684.122
 30
5036.729
 70
    32
  0
VERTEX
  8
T02SSILL
 62
6
 10
677.195
 20
-1685.469
 30
5036.738
 70
    32
  0
VERTEX
  8
T02SSILL
 62
6
 10
659.053
 20
-1699.322
 30
5036.747
 70
    32
  0
VERTEX
  8
T02SSILL
 62
6
 10
657.947
 20
-1700.928
 30
5036.747
 70
    32
  0
VERTEX
  8
T02SSILL
 62
6
 10
662.921
 20
-1711.098
 30
5036.735
 70
    32
  0
VERTEX
  8
T02SSILL
 62
6
 10
657.982
 20
-1714.197
 30
5036.738
 70
    32
  0
VERTEX
  8
T02SSILL
 62
6
 10
651.896
 20
-1705.370
 30
5036.750
 70
    32
  0
VERTEX
  8
T02SSILL
 62
6
 10
642.131
 20
-1712.708
 30
5036.755
 70
    32
  0
VERTEX
  8
T02SSILL
 62
6
 10
638.505
 20
-1707.781
 30
5036.762
 70
    32
  0
VERTEX
  8
T02SSILL
 62
6
 10
647.400
 20
-1700.814
 30
5036.758
 70
    32
  0
VERTEX
  8
T02SSILL
 62
6
 10
648.195
 20
-1697.106
 30
5036.760
 70
    32
  0
VERTEX
  8
T02SSILL
 62
6
 10
634.180
 20
-1671.762
 30
5036.791
 70
    32
  0
VERTEX
  8
T02SSILL
 62
6
 10
626.692
 20
-1667.009
 30
5036.802
 70
    32
  0
VERTEX
  8
T02SSILL
 62
6
 10
628.965
 20
-1662.565
 30
5036.803
 70
    32
  0
VERTEX
  8
T02SSILL
 62
6
 10
613.143
 20
-1654.573
 30
5036.825
 70
    32
  0
VERTEX
  8
T02SSILL
 62
6
 10
618.270
 20
-1644.176
 30
5036.827
 70
    32
  0
VERTEX
  8
T02SSILL
 62
6
 10
607.602
 20
-1638.704
 30
5036.841
 70
    32
  0
VERTEX
  8
T02SSILL
 62
6
 10
610.126
 20
-1633.727
 30
5036.842
 70
    32
  0
VERTEX
  8
T02SSILL
 62
6
 10
600.422
 20
-1628.145
 30
5036.856
 70
    32
  0
VERTEX
  8
T02SSILL
 62
6
 10
603.110
 20
-1622.637
 30
5036.857
 70
    32
  0
VERTEX
  8
T02SSILL
 62
6
 10
591.726
 20
-1616.566
 30
5036.873
 70
    32
  0
VERTEX
  8
T02SSILL
 62
6
 10
593.985
 20
-1611.506
 30
5036.874
 70
    32
  0
VERTEX
  8
T02SSILL
 62
6
 10
589.175
 20
-1608.627
 30
5036.881
 70
    32
  0
VERTEX
  8
T02SSILL
 62
6
 10
591.531
 20
-1604.004
 30
5036.881
 70
    32
  0
VERTEX
  8
T02SSILL
 62
6
 10
586.370
 20
-1601.133
 30
5036.889
 70
    32
  0
VERTEX
  8
T02SSILL
 62
6
 10
589.323
 20
-1595.706
 30
5036.889
 70
    32
  0
VERTEX
  8
T02SSILL
 62
6
 10
583.709
 20
-1592.229
 30
5036.898
 70
    32
  0
VERTEX
  8
T02SSILL
 62
6
 10
600.406
 20
-1561.010
 30
5036.902
 70
    32
  0
VERTEX
  8
T02SSILL
 62
6
 10
584.376
 20
-1555.483
 30
5036.922
 70
    32
  0
VERTEX
  8
T02SSILL
 62
6
 10
580.852
 20
-1551.169
 30
5036.928
 70
    32
  0
VERTEX
  8
T02SSILL
 62
6
 10
577.591
 20
-1550.715
 30
5036.932
 70
    32
  0
VERTEX
  8
T02SSILL
 62
6
 10
434.933
 20
-1576.332
 30
5037.104
 70
    32
  0
VERTEX
  8
T02SSILL
 62
6
 10
175.206
 20
-1819.697
 30
5037.300
 70
    32
  0
VERTEX
  8
T02SSILL
 62
6
 10
173.160
 20
-1826.421
 30
5037.298
 70
    32
  0
VERTEX
  8
T02SSILL
 62
6
 10
173.322
 20
-1833.623
 30
5037.292
 70
    32
  0
VERTEX
  8
T02SSILL
 62
6
 10
201.038
 20
-1928.957
 30
5037.180
 70
    32
  0
VERTEX
  8
T02SSILL
 62
6
 10
205.978
 20
-1949.160
 30
5037.158
 70
    32
  0
VERTEX
  8
T02SSILL
 62
6
 10
213.280
 20
-1988.782
 30
5037.118
 70
    32
  0
VERTEX
  8
T02SSILL
 62
6
 10
234.562
 20
-1996.312
 30
5037.081
 70
    32
  0
VERTEX
  8
T02SSILL
 62
6
 10
228.019
 20
-2009.587
 30
5037.080
 70
    32
  0
VERTEX
  8
T02SSILL
 62
6
 10
230.359
 20
-2025.611
 30
5037.065
 70
    32
  0
VERTEX
  8
T02SSILL
 62
6
 10
233.965
 20
-2026.499
 30
5037.059
 70
    32
  0
VERTEX
  8
T02SSILL
 62
6
 10
233.325
 20
-2036.795
 30
5037.052
 70
    32
  0
VERTEX
  8
T02SSILL
 62
6
 10
226.978
 20
-2041.533
 30
5037.058
 70
    32
  0
VERTEX
  8
T02SSILL
 62
6
 10
224.602
 20
-2041.264
 30
5037.062
 70
    32
  0
VERTEX
  8
T02SSILL
 62
6
 10
223.115
 20
-2037.388
 30
5037.067
 70
    32
  0
VERTEX
  8
T02SSILL
 62
6
 10
224.108
 20
-2026.125
 30
5037.074
 70
    32
  0
VERTEX
  8
T02SSILL
 62
6
 10
223.421
 20
-2018.818
 30
5037.080
 70
    32
  0
VERTEX
  8
T02SSILL
 62
6
 10
220.095
 20
-2010.625
 30
5037.091
 70
    32
  0
VERTEX
  8
T02SSILL
 62
6
 10
213.593
 20
-2005.946
 30
5037.104
 70
    32
  0
VERTEX
  8
T02SSILL
 62
6
 10
199.873
 20
-2001.514
 30
5037.128
 70
    32
  0
VERTEX
  8
T02SSILL
 62
6
 10
78.482
 20
-2011.269
 30
5037.297
 70
    32
  0
VERTEX
  8
T02SSILL
 62
6
 10
78.018
 20
-2021.478
 30
5037.290
 70
    32
  0
VERTEX
  8
T02SSILL
 62
6
 10
70.800
 20
-2021.813
 30
5037.301
 70
    32
  0
VERTEX
  8
T02SSILL
 62
6
 10
71.178
 20
-2010.636
 30
5037.309
 70
    32
  0
VERTEX
  8
T02SSILL
 62
6
 10
67.245
 20
-1998.394
 30
5037.323
 70
    32
  0
VERTEX
  8
T02SSILL
 62
6
 10
72.142
 20
-1973.761
 30
5037.335
 70
    32
  0
VERTEX
  8
T02SSILL
 62
6
 10
68.049
 20
-1954.917
 30
5037.355
 70
    32
  0
VERTEX
  8
T02SSILL
 62
6
 10
70.020
 20
-1939.696
 30
5037.363
 70
    32
  0
VERTEX
  8
T02SSILL
 62
6
 10
69.966
 20
-1910.992
 30
5037.385
 70
    32
  0
VERTEX
  8
T02SSILL
 62
6
 10
120.560
 20
-1863.193
 30
5037.347
 70
    32
  0
VERTEX
  8
T02SSILL
 62
6
 10
112.738
 20
-1851.418
 30
5037.367
 70
    32
  0
VERTEX
  8
T02SSILL
 62
6
 10
122.763
 20
-1843.899
 30
5037.358
 70
    32
  0
VERTEX
  8
T02SSILL
 62
6
 10
125.309
 20
-1847.708
 30
5037.352
 70
    32
  0
VERTEX
  8
T02SSILL
 62
6
 10
152.553
 20
-1832.245
 30
5037.324
 70
    32
  0
VERTEX
  8
T02SSILL
 62
6
 10
431.834
 20
-1571.393
 30
5037.112
 70
    32
  0
VERTEX
  8
T02SSILL
 62
6
 10
449.343
 20
-1568.451
 30
5037.088
 70
    32
  0
VERTEX
  8
T02SSILL
 62
6
 10
455.640
 20
-1563.212
 30
5037.083
 70
    32
  0
VERTEX
  8
T02SSILL
 62
6
 10
437.796
 20
-1531.716
 30
5037.133
 70
    32
  0
VERTEX
  8
T02SSILL
 62
6
 10
432.437
 20
-1527.882
 30
5037.144
 70
    32
  0
VERTEX
  8
T02SSILL
 62
6
 10
424.636
 20
-1528.760
 30
5037.154
 70
    32
  0
VERTEX
  8
T02SSILL
 62
6
 10
420.690
 20
-1505.651
 30
5037.177
 70
    32
  0
VERTEX
  8
T02SSILL
 62
6
 10
414.378
 20
-1506.320
 30
5037.186
 70
    32
  0
VERTEX
  8
T02SSILL
 62
6
 10
410.309
 20
-1481.719
 30
5037.210
 70
    32
  0
VERTEX
  8
T02SSILL
 62
6
 10
416.262
 20
-1480.706
 30
5037.202
 70
    32
  0
VERTEX
  8
T02SSILL
 62
6
 10
415.541
 20
-1456.469
 30
5037.220
 70
    32
  0
VERTEX
  8
T02SSILL
 62
6
 10
412.486
 20
-1453.463
 30
5037.227
 70
    32
  0
VERTEX
  8
T02SSILL
 62
6
 10
407.376
 20
-1452.874
 30
5037.235
 70
    32
  0
VERTEX
  8
T02SSILL
 62
6
 10
379.536
 20
-1461.409
 30
5037.269
 70
    32
  0
VERTEX
  8
T02SSILL
 62
6
 10
381.575
 20
-1466.109
 30
5037.262
 70
    32
  0
VERTEX
  8
T02SSILL
 62
6
 10
364.844
 20
-1472.373
 30
5037.282
 70
    32
  0
VERTEX
  8
T02SSILL
 62
6
 10
363.574
 20
-1466.689
 30
5037.288
 70
    32
  0
VERTEX
  8
T02SSILL
 62
6
 10
345.270
 20
-1473.340
 30
5037.309
 70
    32
  0
VERTEX
  8
T02SSILL
 62
6
 10
343.832
 20
-1468.012
 30
5037.315
 70
    32
  0
VERTEX
  8
T02SSILL
 62
6
 10
355.944
 20
-1463.434
 30
5037.301
 70
    32
  0
VERTEX
  8
T02SSILL
 62
6
 10
332.574
 20
-1401.130
 30
5037.381
 70
    32
  0
VERTEX
  8
T02SSILL
 62
6
 10
338.762
 20
-1398.882
 30
5037.374
 70
    32
  0
VERTEX
  8
T02SSILL
 62
6
 10
318.165
 20
-1342.667
 30
5037.444
 70
    32
  0
VERTEX
  8
T02SSILL
 62
6
 10
305.781
 20
-1346.812
 30
5037.459
 70
    32
  0
VERTEX
  8
T02SSILL
 62
6
 10
279.096
 20
-1273.862
 30
5037.551
 70
    32
  0
VERTEX
  8
T02SSILL
 62
6
 10
285.108
 20
-1271.618
 30
5037.544
 70
    32
  0
VERTEX
  8
T02SSILL
 62
6
 10
266.500
 20
-1221.773
 30
5037.585
 70
    32
  0
VERTEX
  8
T02SSILL
 62
6
 10
295.093
 20
-1211.552
 30
5037.506
 70
    32
  0
VERTEX
  8
T02SSILL
 62
6
 10
297.329
 20
-1217.213
 30
5037.507
 70
    32
  0
VERTEX
  8
T02SSILL
 62
6
 10
308.039
 20
-1212.842
 30
5037.477
 70
    32
  0
VERTEX
  8
T02SSILL
 62
6
 10
335.339
 20
-1285.778
 30
5037.461
 70
    32
  0
VERTEX
  8
T02SSILL
 62
6
 10
340.737
 20
-1283.548
 30
5037.455
 70
    32
  0
VERTEX
  8
T02SSILL
 62
6
 10
346.903
 20
-1299.841
 30
5037.434
 70
    32
  0
VERTEX
  8
T02SSILL
 62
6
 10
352.651
 20
-1297.515
 30
5037.428
 70
    32
  0
VERTEX
  8
T02SSILL
 62
6
 10
357.380
 20
-1312.435
 30
5037.410
 70
    32
  0
VERTEX
  8
T02SSILL
 62
6
 10
351.580
 20
-1285.061
 30
5037.439
 70
    32
  0
VERTEX
  8
T02SSILL
 62
6
 10
364.086
 20
-1282.407
 30
5037.420
 70
    32
  0
VERTEX
  8
T02SSILL
 62
6
 10
347.151
 20
-1213.192
 30
5037.385
 70
    32
  0
VERTEX
  8
T02SSILL
 62
6
 10
340.406
 20
-1214.135
 30
5037.402
 70
    32
  0
VERTEX
  8
T02SSILL
 62
6
 10
337.961
 20
-1203.118
 30
5037.396
 70
    32
  0
VERTEX
  8
T02SSILL
 62
6
 10
325.641
 20
-1206.207
 30
5037.428
 70
    32
  0
VERTEX
  8
T02SSILL
 62
6
 10
323.190
 20
-1194.926
 30
5037.422
 70
    32
  0
VERTEX
  8
T02SSILL
 62
6
 10
317.768
 20
-1196.103
 30
5037.436
 70
    32
  0
VERTEX
  8
T02SSILL
 62
6
 10
310.002
 20
-1167.279
 30
5037.423
 70
    32
  0
VERTEX
  8
T02SSILL
 62
6
 10
303.966
 20
-1168.470
 30
5037.438
 70
    32
  0
VERTEX
  8
T02SSILL
 62
6
 10
303.035
 20
-1162.252
 30
5037.434
 70
    32
  0
VERTEX
  8
T02SSILL
 62
6
 10
320.248
 20
-1157.910
 30
5037.388
 70
    32
  0
VERTEX
  8
T02SSILL
 62
6
 10
318.904
 20
-1152.844
 30
5037.386
 70
    32
  0
VERTEX
  8
T02SSILL
 62
6
 10
330.337
 20
-1149.335
 30
5037.355
 70
    32
  0
VERTEX
  8
T02SSILL
 62
6
 10
313.298
 20
-1079.420
 30
5037.319
 70
    32
  0
VERTEX
  8
T02SSILL
 62
6
 10
293.634
 20
-1088.122
 30
5037.375
 70
    32
  0
VERTEX
  8
T02SSILL
 62
6
 10
296.390
 20
-1093.420
 30
5037.374
 70
    32
  0
VERTEX
  8
T02SSILL
 62
6
 10
291.259
 20
-1095.821
 30
5037.389
 70
    32
  0
VERTEX
  8
T02SSILL
 62
6
 10
293.390
 20
-1100.694
 30
5037.389
 70
    32
  0
VERTEX
  8
T02SSILL
 62
6
 10
282.522
 20
-1105.859
 30
5037.421
 70
    32
  0
VERTEX
  8
T02SSILL
 62
6
 10
297.415
 20
-1139.004
 30
5037.422
 70
    32
  0
VERTEX
  8
T02SSILL
 62
6
 10
286.370
 20
-1144.085
 30
5037.453
 70
    32
  0
VERTEX
  8
T02SSILL
 62
6
 10
288.600
 20
-1149.483
 30
5037.454
 70
    32
  0
VERTEX
  8
T02SSILL
 62
6
 10
283.284
 20
-1151.448
 30
5037.468
 70
    32
  0
VERTEX
  8
T02SSILL
 62
6
 10
296.116
 20
-1178.927
 30
5037.468
 70
    32
  0
VERTEX
  8
T02SSILL
 62
6
 10
290.207
 20
-1181.872
 30
5037.485
 70
    32
  0
VERTEX
  8
T02SSILL
 62
6
 10
295.199
 20
-1192.832
 30
5037.485
 70
    32
  0
VERTEX
  8
T02SSILL
 62
6
 10
289.977
 20
-1195.059
 30
5037.500
 70
    32
  0
VERTEX
  8
T02SSILL
 62
6
 10
294.970
 20
-1206.106
 30
5037.500
 70
    32
  0
VERTEX
  8
T02SSILL
 62
6
 10
262.079
 20
-1220.554
 30
5037.594
 70
    32
  0
VERTEX
  8
T02SSILL
 62
6
 10
251.920
 20
-1198.639
 30
5037.594
 70
    32
  0
VERTEX
  8
T02SSILL
 62
6
 10
257.664
 20
-1196.137
 30
5037.578
 70
    32
  0
VERTEX
  8
T02SSILL
 62
6
 10
245.809
 20
-1169.163
 30
5037.576
 70
    32
  0
VERTEX
  8
T02SSILL
 62
6
 10
250.329
 20
-1166.952
 30
5037.563
 70
    32
  0
VERTEX
  8
T02SSILL
 62
6
 10
223.220
 20
-1106.402
 30
5037.561
 70
    32
  0
VERTEX
  8
T02SSILL
 62
6
 10
195.514
 20
-1117.818
 30
5037.639
 70
    32
  0
VERTEX
  8
T02SSILL
 62
6
 10
193.874
 20
-1113.095
 30
5037.638
 70
    32
  0
VERTEX
  8
T02SSILL
 62
6
 10
214.748
 20
-1103.435
 30
5037.578
 70
    32
  0
VERTEX
  8
T02SSILL
 62
6
 10
207.791
 20
-1087.974
 30
5037.578
 70
    32
  0
VERTEX
  8
T02SSILL
 62
6
 10
201.937
 20
-1090.506
 30
5037.594
 70
    32
  0
VERTEX
  8
T02SSILL
 62
6
 10
199.409
 20
-1085.004
 30
5037.594
 70
    32
  0
VERTEX
  8
T02SSILL
 62
6
 10
210.761
 20
-1079.592
 30
5037.561
 70
    32
  0
VERTEX
  8
T02SSILL
 62
6
 10
197.947
 20
-1052.345
 30
5037.562
 70
    32
  0
VERTEX
  8
T02SSILL
 62
6
 10
192.706
 20
-1054.694
 30
5037.577
 70
    32
  0
VERTEX
  8
T02SSILL
 62
6
 10
175.016
 20
-1016.791
 30
5037.577
 70
    32
  0
VERTEX
  8
T02SSILL
 62
6
 10
180.695
 20
-1014.348
 30
5037.561
 70
    32
  0
VERTEX
  8
T02SSILL
 62
6
 10
175.731
 20
-1003.693
 30
5037.562
 70
    32
  0
VERTEX
  8
T02SSILL
 62
6
 10
192.149
 20
-995.934
 30
5037.514
 70
    32
  0
VERTEX
  8
T02SSILL
 62
6
 10
186.816
 20
-983.878
 30
5037.514
 70
    32
  0
VERTEX
  8
T02SSILL
 62
6
 10
149.928
 20
-998.481
 30
5037.617
 70
    32
  0
VERTEX
  8
T02SSILL
 62
6
 10
145.140
 20
-987.824
 30
5037.616
 70
    32
  0
VERTEX
  8
T02SSILL
 62
6
 10
134.822
 20
-991.642
 30
5037.645
 70
    32
  0
VERTEX
  8
T02SSILL
 62
6
 10
132.741
 20
-986.749
 30
5037.645
 70
    32
  0
VERTEX
  8
T02SSILL
 62
6
 10
127.060
 20
-989.104
 30
5037.661
 70
    32
  0
VERTEX
  8
T02SSILL
 62
6
 10
95.177
 20
-911.936
 30
5037.652
 70
    32
  0
VERTEX
  8
T02SSILL
 62
6
 10
100.597
 20
-909.848
 30
5037.637
 70
    32
  0
VERTEX
  8
T02SSILL
 62
6
 10
92.327
 20
-908.810
 30
5037.655
 70
    32
  0
VERTEX
  8
T02SSILL
 62
6
 10
-21.987
 20
-955.650
 30
5037.976
 70
    32
  0
VERTEX
  8
T02SSILL
 62
6
 10
-25.265
 20
-960.435
 30
5037.989
 70
    32
  0
VERTEX
  8
T02SSILL
 62
6
 10
-20.721
 20
-972.588
 30
5037.991
 70
    32
  0
VERTEX
  8
T02SSILL
 62
6
 10
-26.581
 20
-974.682
 30
5038.007
 70
    32
  0
VERTEX
  8
T02SSILL
 62
6
 10
-24.318
 20
-980.012
 30
5038.008
 70
    32
  0
VERTEX
  8
T02SSILL
 62
6
 10
-29.996
 20
-982.542
 30
5038.024
 70
    32
  0
VERTEX
  8
T02SSILL
 62
6
 10
-27.821
 20
-987.961
 30
5038.025
 70
    32
  0
VERTEX
  8
T02SSILL
 62
6
 10
-71.696
 20
-1005.726
 30
5038.148
 70
    32
  0
VERTEX
  8
T02SSILL
 62
6
 10
-76.940
 20
-993.757
 30
5038.147
 70
    32
  0
VERTEX
  8
T02SSILL
 62
6
 10
-83.438
 20
-986.898
 30
5038.155
 70
    32
  0
VERTEX
  8
T02SSILL
 62
6
 10
-87.500
 20
-985.192
 30
5038.163
 70
    32
  0
VERTEX
  8
T02SSILL
 62
6
 10
-306.014
 20
-1072.774
 30
5038.543
 70
    32
  0
VERTEX
  8
T02SSILL
 62
6
 10
-396.968
 20
-1105.004
 30
5038.650
 70
    32
  0
VERTEX
  8
T02SSILL
 62
6
 10
-400.020
 20
-1099.772
 30
5038.659
 70
    32
  0
VERTEX
  8
T02SSILL
 62
6
 10
-382.351
 20
-1093.754
 30
5038.638
 70
    32
  0
VERTEX
  8
T02SSILL
 62
6
 10
-380.803
 20
-1091.099
 30
5038.637
 70
    32
  0
VERTEX
  8
T02SSILL
 62
6
 10
-381.203
 20
-1087.239
 30
5038.641
 70
    32
  0
VERTEX
  8
T02SSILL
 62
6
 10
-429.368
 20
-1014.579
 30
5038.764
 70
    32
  0
VERTEX
  8
T02SSILL
 62
6
 10
-433.669
 20
-1014.896
 30
5038.770
 70
    32
  0
VERTEX
  8
T02SSILL
 62
6
 10
-431.925
 20
-1020.848
 30
5038.763
 70
    32
  0
VERTEX
  8
T02SSILL
 62
6
 10
-448.632
 20
-1026.590
 30
5038.783
 70
    32
  0
VERTEX
  8
T02SSILL
 62
6
 10
-467.261
 20
-976.753
 30
5038.846
 70
    32
  0
VERTEX
  8
T02SSILL
 62
6
 10
-444.350
 20
-968.473
 30
5038.819
 70
    32
  0
VERTEX
  8
T02SSILL
 62
6
 10
-436.161
 20
-991.122
 30
5038.791
 70
    32
  0
VERTEX
  8
T02SSILL
 62
6
 10
-428.348
 20
-1004.816
 30
5038.769
 70
    32
  0
VERTEX
  8
T02SSILL
 62
6
 10
-374.798
 20
-1086.632
 30
5038.632
 70
    32
  0
VERTEX
  8
T02SSILL
 62
6
 10
-372.402
 20
-1088.535
 30
5038.627
 70
    32
  0
VERTEX
  8
T02SSILL
 62
6
 10
-366.440
 20
-1087.670
 30
5038.619
 70
    32
  0
VERTEX
  8
T02SSILL
 62
6
 10
-311.513
 20
-1068.538
 30
5038.554
 70
    32
  0
VERTEX
  8
T02SSILL
 62
6
 10
-254.875
 20
-1045.783
 30
5038.489
 70
    32
  0
VERTEX
  8
T02SSILL
 62
6
 10
-241.337
 20
-1039.553
 30
5038.474
 70
    32
  0
VERTEX
  8
T02SSILL
 62
6
 10
-240.074
 20
-1035.233
 30
5038.475
 70
    32
  0
VERTEX
  8
T02SSILL
 62
6
 10
-315.483
 20
-905.200
 30
5038.614
 70
    32
  0
VERTEX
  8
T02SSILL
 62
6
 10
-335.651
 20
-851.780
 30
5038.603
 70
    32
  0
VERTEX
  8
T02SSILL
 62
6
 10
-362.439
 20
-823.917
 30
5038.636
 70
    32
  0
VERTEX
  8
T02SSILL
 62
6
 10
-375.449
 20
-830.228
 30
5038.674
 70
    32
  0
VERTEX
  8
T02SSILL
 62
6
 10
-378.141
 20
-825.694
 30
5038.675
 70
    32
  0
VERTEX
  8
T02SSILL
 62
6
 10
-368.987
 20
-820.045
 30
5038.647
 70
    32
  0
VERTEX
  8
T02SSILL
 62
6
 10
-368.158
 20
-816.082
 30
5038.641
 70
    32
  0
VERTEX
  8
T02SSILL
 62
6
 10
-379.893
 20
-797.869
 30
5038.649
 70
    32
  0
VERTEX
  8
T02SSILL
 62
6
 10
-386.497
 20
-782.491
 30
5038.648
 70
    32
  0
VERTEX
  8
T02SSILL
 62
6
 10
-389.994
 20
-769.798
 30
5038.642
 70
    32
  0
VERTEX
  8
T02SSILL
 62
6
 10
-436.264
 20
-687.100
 30
5038.661
 70
    32
  0
VERTEX
  8
T02SSILL
 62
6
 10
-435.428
 20
-676.637
 30
5038.648
 70
    32
  0
VERTEX
  8
T02SSILL
 62
6
 10
-486.804
 20
-593.124
 30
5038.678
 70
    32
  0
VERTEX
  8
T02SSILL
 62
6
 10
-588.485
 20
-666.775
 30
5038.999
 70
    32
  0
VERTEX
  8
T02SSILL
 62
6
 10
-587.682
 20
-674.846
 30
5039.005
 70
    32
  0
VERTEX
  8
T02SSILL
 62
6
 10
-583.271
 20
-683.400
 30
5039.004
 70
    32
  0
VERTEX
  8
T02SSILL
 62
6
 10
-575.257
 20
-692.084
 30
5038.995
 70
    32
  0
VERTEX
  8
T02SSILL
 62
6
 10
-554.667
 20
-737.154
 30
5038.995
 70
    32
  0
VERTEX
  8
T02SSILL
 62
6
 10
-532.410
 20
-782.028
 30
5038.992
 70
    32
  0
VERTEX
  8
T02SSILL
 62
6
 10
-511.771
 20
-809.880
 30
5038.973
 70
    32
  0
VERTEX
  8
T02SSILL
 62
6
 10
-483.408
 20
-851.251
 30
5038.951
 70
    32
  0
VERTEX
  8
T02SSILL
 62
6
 10
-478.738
 20
-866.565
 30
5038.943
 70
    32
  0
VERTEX
  8
T02SSILL
 62
6
 10
-453.728
 20
-913.776
 30
5038.873
 70
    32
  0
VERTEX
  8
T02SSILL
 62
6
 10
-448.034
 20
-933.646
 30
5038.850
 70
    32
  0
VERTEX
  8
T02SSILL
 62
6
 10
-452.220
 20
-957.240
 30
5038.839
 70
    32
  0
VERTEX
  8
T02SSILL
 62
6
 10
-458.831
 20
-955.389
 30
5038.850
 70
    32
  0
VERTEX
  8
T02SSILL
 62
6
 10
-455.394
 20
-935.143
 30
5038.859
 70
    32
  0
VERTEX
  8
T02SSILL
 62
6
 10
-456.560
 20
-926.197
 30
5038.868
 70
    32
  0
VERTEX
  8
T02SSILL
 62
6
 10
-461.003
 20
-915.097
 30
5038.882
 70
    32
  0
VERTEX
  8
T02SSILL
 62
6
 10
-483.851
 20
-872.075
 30
5038.947
 70
    32
  0
VERTEX
  8
T02SSILL
 62
6
 10
-490.938
 20
-853.278
 30
5038.971
 70
    32
  0
VERTEX
  8
T02SSILL
 62
6
 10
-523.425
 20
-805.106
 30
5038.996
 70
    32
  0
VERTEX
  8
T02SSILL
 62
6
 10
-535.101
 20
-791.636
 30
5039.008
 70
    32
  0
VERTEX
  8
T02SSILL
 62
6
 10
-547.670
 20
-769.920
 30
5039.014
 70
    32
  0
VERTEX
  8
T02SSILL
 62
6
 10
-581.263
 20
-696.463
 30
5039.014
 70
    32
  0
VERTEX
  8
T02SSILL
 62
6
 10
-587.947
 20
-688.817
 30
5039.021
 70
    32
  0
VERTEX
  8
T02SSILL
 62
6
 10
-593.591
 20
-680.015
 30
5039.025
 70
    32
  0
VERTEX
  8
T02SSILL
 62
6
 10
-595.712
 20
-671.960
 30
5039.021
 70
    32
  0
VERTEX
  8
T02SSILL
 62
6
 10
-635.773
 20
-699.691
 30
5039.146
 70
    32
  0
VERTEX
  8
T02SSILL
 62
6
 10
-639.532
 20
-694.116
 30
5039.149
 70
    32
  0
VERTEX
  8
T02SSILL
 62
6
 10
-595.731
 20
-663.352
 30
5039.012
 70
    32
  0
VERTEX
  8
T02SSILL
 62
6
 10
-617.911
 20
-617.599
 30
5039.014
 70
    32
  0
VERTEX
  8
T02SSILL
 62
6
 10
-633.462
 20
-575.101
 30
5039.064
 70
    32
  0
VERTEX
  8
T02SSILL
 62
6
 10
-626.908
 20
-572.384
 30
5039.046
 70
    32
  0
VERTEX
  8
T02SSILL
 62
6
 10
-611.168
 20
-615.933
 30
5038.997
 70
    32
  0
VERTEX
  8
T02SSILL
 62
6
 10
-589.646
 20
-658.269
 30
5038.992
 70
    32
  0
VERTEX
  8
T02SSILL
 62
6
 10
-507.266
 20
-600.583
 30
5038.735
 70
    32
  0
VERTEX
  8
T02SSILL
 62
6
 10
-489.355
 20
-585.777
 30
5038.676
 70
    32
  0
VERTEX
  8
T02SSILL
 62
6
 10
-474.775
 20
-578.568
 30
5038.634
 70
    32
  0
VERTEX
  8
T02SSILL
 62
6
 10
-474.734
 20
-574.878
 30
5038.630
 70
    32
  0
VERTEX
  8
T02SSILL
 62
6
 10
-641.572
 20
-439.046
 30
5039.461
 70
    32
  0
VERTEX
  8
T02SSILL
 62
6
 10
-654.062
 20
-423.654
 30
5039.551
 70
    32
  0
VERTEX
  8
T02SSILL
 62
6
 10
-680.946
 20
-401.118
 30
5039.715
 70
    32
  0
VERTEX
  8
T02SSILL
 62
6
 10
-698.734
 20
-397.311
 30
5039.794
 70
    32
  0
VERTEX
  8
T02SSILL
 62
6
 10
-692.963
 20
-376.923
 30
5039.821
 70
    32
  0
VERTEX
  8
T02SSILL
 62
6
 10
-668.836
 20
-376.970
 30
5039.733
 70
    32
  0
VERTEX
  8
T02SSILL
 62
6
 10
-651.342
 20
-372.218
 30
5039.678
 70
    32
  0
VERTEX
  8
T02SSILL
 62
6
 10
-648.129
 20
-370.142
 30
5039.668
 70
    32
  0
VERTEX
  8
T02SSILL
 62
6
 10
-648.042
 20
-366.353
 30
5039.670
 70
    32
  0
VERTEX
  8
T02SSILL
 62
6
 10
-670.758
 20
-351.480
 30
5039.758
 70
    32
  0
VERTEX
  8
T02SSILL
 62
6
 10
-667.761
 20
-347.888
 30
5039.750
 70
    32
  0
VERTEX
  8
T02SSILL
 62
6
 10
-641.492
 20
-364.086
 30
5039.648
 70
    32
  0
VERTEX
  8
T02SSILL
 62
6
 10
-635.739
 20
-365.359
 30
5039.627
 70
    32
  0
VERTEX
  8
T02SSILL
 62
6
 10
-534.999
 20
-313.496
 30
5039.304
 70
    32
  0
VERTEX
  8
T02SSILL
 62
6
 10
-529.942
 20
-307.654
 30
5039.290
 70
    32
  0
VERTEX
  8
T02SSILL
 62
6
 10
-529.587
 20
-304.035
 30
5039.291
 70
    32
  0
VERTEX
  8
T02SSILL
 62
6
 10
-638.058
 20
-65.598
 30
5039.764
 70
    32
  0
VERTEX
  8
T02SSILL
 62
6
 10
-630.307
 20
-47.013
 30
5039.750
 70
    32
  0
VERTEX
  8
T02SSILL
 62
6
 10
-605.366
 20
-29.342
 30
5039.696
 70
    32
  0
VERTEX
  8
T02SSILL
 62
6
 10
-604.021
 20
-22.883
 30
5039.694
 70
    32
  0
VERTEX
  8
T02SSILL
 62
6
 10
-602.951
 20
2.678
 30
5039.697
 70
    32
  0
VERTEX
  8
T02SSILL
 62
6
 10
-604.667
 20
11.971
 30
5039.703
 70
    32
  0
VERTEX
  8
T02SSILL
 62
6
 10
-622.966
 20
29.941
 30
5039.750
 70
    32
  0
VERTEX
  8
T02SSILL
 62
6
 10
-630.783
 20
21.656
 30
5039.767
 70
    32
  0
VERTEX
  8
T02SSILL
 62
6
 10
-635.105
 20
25.693
 30
5039.778
 70
    32
  0
VERTEX
  8
T02SSILL
 62
6
 10
-631.150
 20
29.748
 30
5039.770
 70
    32
  0
VERTEX
  8
T02SSILL
 62
6
 10
-635.300
 20
33.965
 30
5039.780
 70
    32
  0
VERTEX
  8
T02SSILL
 62
6
 10
-632.810
 20
36.665
 30
5039.775
 70
    32
  0
VERTEX
  8
T02SSILL
 62
6
 10
-664.451
 20
105.127
 30
5039.865
 70
    32
  0
VERTEX
  8
T02SSILL
 62
6
 10
-658.251
 20
107.298
 30
5039.851
 70
    32
  0
VERTEX
  8
T02SSILL
 62
6
 10
-655.216
 20
101.823
 30
5039.842
 70
    32
  0
VERTEX
  8
T02SSILL
 62
6
 10
-651.027
 20
103.419
 30
5039.833
 70
    32
  0
VERTEX
  8
T02SSILL
 62
6
 10
-649.276
 20
100.114
 30
5039.828
 70
    32
  0
VERTEX
  8
T02SSILL
 62
6
 10
-653.457
 20
98.166
 30
5039.837
 70
    32
  0
VERTEX
  8
T02SSILL
 62
6
 10
-641.019
 20
71.076
 30
5039.802
 70
    32
  0
VERTEX
  8
T02SSILL
 62
6
 10
-605.990
 20
38.179
 30
5039.712
 70
    32
  0
VERTEX
  8
T02SSILL
 62
6
 10
-613.814
 20
30.157
 30
5039.729
 70
    32
  0
VERTEX
  8
T02SSILL
 62
6
 10
-595.550
 20
13.683
 30
5039.682
 70
    32
  0
VERTEX
  8
T02SSILL
 62
6
 10
-586.810
 20
20.140
 30
5039.663
 70
    32
  0
VERTEX
  8
T02SSILL
 62
6
 10
-582.901
 20
14.950
 30
5039.653
 70
    32
  0
VERTEX
  8
T02SSILL
 62
6
 10
-543.843
 20
42.639
 30
5039.540
 70
    32
  0
VERTEX
  8
T02SSILL
 62
6
 10
-526.545
 20
18.569
 30
5039.465
 70
    32
  0
VERTEX
  8
T02SSILL
 62
6
 10
-521.786
 20
22.115
 30
5039.451
 70
    32
  0
VERTEX
  8
T02SSILL
 62
6
 10
-513.864
 20
11.031
 30
5039.417
 70
    32
  0
VERTEX
  8
T02SSILL
 62
6
 10
-504.792
 20
7.195
 30
5039.383
 70
    32
  0
VERTEX
  8
T02SSILL
 62
6
 10
-500.746
 20
7.379
 30
5039.369
 70
    32
  0
VERTEX
  8
T02SSILL
 62
6
 10
-469.400
 20
22.295
 30
5039.267
 70
    32
  0
VERTEX
  8
T02SSILL
 62
6
 10
-464.605
 20
28.043
 30
5039.254
 70
    32
  0
VERTEX
  8
T02SSILL
 62
6
 10
-478.781
 20
61.608
 30
5039.323
 70
    32
  0
VERTEX
  8
T02SSILL
 62
6
 10
-468.603
 20
66.868
 30
5039.290
 70
    32
  0
VERTEX
  8
T02SSILL
 62
6
 10
-480.507
 20
93.706
 30
5039.347
 70
    32
  0
VERTEX
  8
T02SSILL
 62
6
 10
-469.719
 20
99.244
 30
5039.313
 70
    32
  0
VERTEX
  8
T02SSILL
 62
6
 10
-465.891
 20
108.668
 30
5039.305
 70
    32
  0
VERTEX
  8
T02SSILL
 62
6
 10
-465.377
 20
112.995
 30
5039.305
 70
    32
  0
VERTEX
  8
T02SSILL
 62
6
 10
-466.260
 20
116.848
 30
5039.311
 70
    32
  0
VERTEX
  8
T02SSILL
 62
6
 10
-504.585
 20
196.158
 30
5039.490
 70
    32
  0
VERTEX
  8
T02SSILL
 62
6
 10
-510.206
 20
199.284
 30
5039.512
 70
    32
  0
VERTEX
  8
T02SSILL
 62
6
 10
-571.660
 20
184.097
 30
5039.665
 70
    32
  0
VERTEX
  8
T02SSILL
 62
6
 10
-576.088
 20
181.440
 30
5039.674
 70
    32
  0
VERTEX
  8
T02SSILL
 62
6
 10
-578.231
 20
190.194
 30
5039.681
 70
    32
  0
VERTEX
  8
T02SSILL
 62
6
 10
-505.471
 20
207.584
 30
5039.500
 70
    32
  0
VERTEX
  8
T02SSILL
 62
6
 10
-503.350
 20
207.282
 30
5039.493
 70
    32
  0
VERTEX
  8
T02SSILL
 62
6
 10
-487.904
 20
175.860
 30
5039.420
 70
    32
  0
VERTEX
  8
T02SSILL
 62
6
 10
-446.181
 20
154.039
 30
5039.262
 70
    32
  0
VERTEX
  8
T02SSILL
 62
6
 10
-323.790
 20
23.441
 30
5038.758
 70
    32
  0
VERTEX
  8
T02SSILL
 62
6
 10
-310.162
 20
-5.558
 30
5038.693
 70
    32
  0
VERTEX
  8
T02SSILL
 62
6
 10
-301.483
 20
-15.127
 30
5038.658
 70
    32
  0
VERTEX
  8
T02SSILL
 62
6
 10
-223.912
 20
-56.089
 30
5038.362
 70
    32
  0
VERTEX
  8
T02SSILL
 62
6
 10
-217.119
 20
-56.634
 30
5038.338
 70
    32
  0
VERTEX
  8
T02SSILL
 62
6
 10
-177.437
 20
-47.949
 30
5038.204
 70
    32
  0
VERTEX
  8
T02SSILL
 62
6
 10
-175.714
 20
-53.807
 30
5038.195
 70
    32
  0
VERTEX
  8
T02SSILL
 62
6
 10
-211.802
 20
-61.791
 30
5038.317
 70
    32
  0
VERTEX
  8
T02SSILL
 62
6
 10
-215.124
 20
-66.536
 30
5038.325
 70
    32
  0
VERTEX
  8
T02SSILL
 62
6
 10
-75.759
 20
-318.167
 30
5037.603
 70
    32
  0
VERTEX
  8
T02SSILL
 62
6
 10
-67.913
 20
-323.054
 30
5037.559
 70
    32
  0
VERTEX
  8
T02SSILL
 62
6
 10
-61.163
 20
-329.031
 30
5037.517
 70
    32
  0
VERTEX
  8
T02SSILL
 62
6
 10
-34.739
 20
-334.762
 30
5037.400
 70
    32
  0
VERTEX
  8
T02SSILL
 62
6
 10
-20.358
 20
-332.738
 30
5037.350
 70
    32
  0
VERTEX
  8
T02SSILL
 62
6
 10
2.915
 20
-325.245
 30
5037.280
 70
    32
  0
VERTEX
  8
T02SSILL
 62
6
 10
20.279
 20
-329.947
 30
5037.201
 70
    32
  0
VERTEX
  8
T02SSILL
 62
6
 10
51.958
 20
-348.526
 30
5037.141
 70
    32
  0
VERTEX
  8
T02SSILL
 62
6
 10
89.676
 20
-365.273
 30
5037.070
 70
    32
  0
VERTEX
  8
T02SSILL
 62
6
 10
109.334
 20
-384.880
 30
5037.045
 70
    32
  0
VERTEX
  8
T02SSILL
 62
6
 10
191.107
 20
-426.464
 30
5036.897
 70
    32
  0
VERTEX
  8
T02SSILL
 62
6
 10
263.004
 20
-457.981
 30
5036.762
 70
    32
  0
VERTEX
  8
T02SSILL
 62
6
 10
274.706
 20
-459.504
 30
5036.736
 70
    32
  0
VERTEX
  8
T02SSILL
 62
6
 10
332.774
 20
-488.031
 30
5036.630
 70
    32
  0
VERTEX
  8
T02SSILL
 62
6
 10
341.465
 20
-494.599
 30
5036.616
 70
    32
  0
VERTEX
  8
T02SSILL
 62
6
 10
375.848
 20
-567.958
 30
5036.615
 70
    32
  0
VERTEX
  8
T02SSILL
 62
6
 10
384.941
 20
-592.704
 30
5036.621
 70
    32
  0
VERTEX
  8
T02SSILL
 62
6
 10
462.460
 20
-743.968
 30
5036.416
 70
    32
  0
VERTEX
  8
T02SSILL
 62
6
 10
492.149
 20
-807.196
 30
5036.277
 70
    32
  0
VERTEX
  8
T02SSILL
 62
6
 10
541.114
 20
-873.521
 30
5035.948
 70
    32
  0
VERTEX
  8
T02SSILL
 62
6
 10
586.805
 20
-937.954
 30
5035.647
 70
    32
  0
VERTEX
  8
T02SSILL
 62
6
 10
590.285
 20
-982.306
 30
5035.728
 70
    32
  0
VERTEX
  8
T02SSILL
 62
6
 10
748.946
 20
-948.135
 30
5034.005
 70
    32
  0
VERTEX
  8
T02SSILL
 62
6
 10
776.082
 20
-915.088
 30
5033.639
 70
    32
  0
VERTEX
  8
T02SSILL
 62
6
 10
777.736
 20
-909.074
 30
5033.606
 70
    32
  0
VERTEX
  8
T02SSILL
 62
6
 10
732.494
 20
-814.825
 30
5033.824
 70
    32
  0
VERTEX
  8
T02SSILL
 62
6
 10
683.693
 20
-718.438
 30
5034.072
 70
    32
  0
VERTEX
  8
T02SSILL
 62
6
 10
670.399
 20
-673.612
 30
5034.091
 70
    32
  0
VERTEX
  8
T02SSILL
 62
6
 10
671.675
 20
-552.308
 30
5033.886
 70
    32
  0
VERTEX
  8
T02SSILL
 62
6
 10
661.472
 20
-508.131
 30
5034.028
 70
    32
  0
VERTEX
  8
T02SSILL
 62
6
 10
657.169
 20
-503.719
 30
5034.059
 70
    32
  0
VERTEX
  8
T02SSILL
 62
6
 10
654.301
 20
-505.794
 30
5034.069
 70
    32
  0
VERTEX
  8
T02SSILL
 62
6
 10
617.603
 20
-451.527
 30
5034.368
 70
    32
  0
VERTEX
  8
T02SSILL
 62
6
 10
612.112
 20
-454.529
 30
5034.390
 70
    32
  0
VERTEX
  8
T02SSILL
 62
6
 10
599.081
 20
-434.429
 30
5034.497
 70
    32
  0
VERTEX
  8
T02SSILL
 62
6
 10
608.302
 20
-428.369
 30
5034.462
 70
    32
  0
VERTEX
  8
T02SSILL
 62
6
 10
603.126
 20
-414.467
 30
5034.517
 70
    32
  0
VERTEX
  8
T02SSILL
 62
6
 10
602.772
 20
-404.439
 30
5034.539
 70
    32
  0
VERTEX
  8
T02SSILL
 62
6
 10
607.562
 20
-396.609
 30
5034.530
 70
    32
  0
VERTEX
  8
T02SSILL
 62
6
 10
625.640
 20
-344.184
 30
5034.542
 70
    32
  0
VERTEX
  8
T02SSILL
 62
6
 10
639.122
 20
-313.922
 30
5034.533
 70
    32
  0
VERTEX
  8
T02SSILL
 62
6
 10
665.698
 20
-235.488
 30
5034.553
 70
    32
  0
VERTEX
  8
T02SSILL
 62
6
 10
665.775
 20
-230.649
 30
5034.563
 70
    32
  0
VERTEX
  8
T02SSILL
 62
6
 10
672.262
 20
-219.552
 30
5034.552
 70
    32
  0
VERTEX
  8
T02SSILL
 62
6
 10
680.708
 20
-220.238
 30
5034.507
 70
    32
  0
VERTEX
  8
T02SSILL
 62
6
 10
685.896
 20
-219.171
 30
5034.482
 70
    32
  0
VERTEX
  8
T02SSILL
 62
6
 10
691.694
 20
-215.728
 30
5034.459
 70
    32
  0
VERTEX
  8
T02SSILL
 62
6
 10
699.326
 20
-205.948
 30
5034.439
 70
    32
  0
VERTEX
  8
T02SSILL
 62
6
 10
707.211
 20
-190.449
 30
5034.430
 70
    32
  0
VERTEX
  8
T02SSILL
 62
6
 10
711.478
 20
-170.296
 30
5034.448
 70
    32
  0
VERTEX
  8
T02SSILL
 62
6
 10
718.991
 20
-145.298
 30
5034.460
 70
    32
  0
VERTEX
  8
T02SSILL
 62
6
 10
719.670
 20
-133.509
 30
5034.480
 70
    32
  0
VERTEX
  8
T02SSILL
 62
6
 10
724.480
 20
-120.304
 30
5034.482
 70
    32
  0
VERTEX
  8
T02SSILL
 62
6
 10
727.964
 20
-103.759
 30
5034.497
 70
    32
  0
VERTEX
  8
T02SSILL
 62
6
 10
737.778
 20
-85.881
 30
5034.482
 70
    32
  0
VERTEX
  8
T02SSILL
 62
6
 10
740.818
 20
-67.489
 30
5034.503
 70
    32
  0
VERTEX
  8
T02SSILL
 62
6
 10
745.980
 20
-54.372
 30
5034.503
 70
    32
  0
VERTEX
  8
T02SSILL
 62
6
 10
755.811
 20
-44.323
 30
5034.472
 70
    32
  0
VERTEX
  8
T02SSILL
 62
6
 10
781.305
 20
4.992
 30
5034.477
 70
    32
  0
VERTEX
  8
T02SSILL
 62
6
 10
787.911
 20
1.048
 30
5034.462
 70
    32
  0
VERTEX
  8
T02SSILL
 62
6
 10
780.017
 20
-11.990
 30
5034.413
 70
    32
  0
VERTEX
  8
T02SSILL
 62
6
 10
772.767
 20
-34.171
 30
5034.405
 70
    32
  0
VERTEX
  8
T02SSILL
 62
6
 10
766.902
 20
-47.554
 30
5034.409
 70
    32
  0
VERTEX
  8
T02SSILL
 62
6
 10
752.245
 20
-63.155
 30
5034.453
 70
    32
  0
VERTEX
  8
T02SSILL
 62
6
 10
747.692
 20
-73.545
 30
5034.456
 70
    32
  0
VERTEX
  8
T02SSILL
 62
6
 10
751.587
 20
-84.884
 30
5034.413
 70
    32
  0
VERTEX
  8
T02SSILL
 62
6
 10
751.437
 20
-97.552
 30
5034.388
 70
    32
  0
VERTEX
  8
T02SSILL
 62
6
 10
746.441
 20
-105.743
 30
5034.397
 70
    32
  0
VERTEX
  8
T02SSILL
 62
6
 10
744.080
 20
-112.521
 30
5034.396
 70
    32
  0
VERTEX
  8
T02SSILL
 62
6
 10
743.841
 20
-124.133
 30
5034.374
 70
    32
  0
VERTEX
  8
T02SSILL
 62
6
 10
731.307
 20
-145.799
 30
5034.395
 70
    32
  0
VERTEX
  8
T02SSILL
 62
6
 10
734.485
 20
-150.983
 30
5034.368
 70
    32
  0
VERTEX
  8
T02SSILL
 62
6
 10
728.977
 20
-167.092
 30
5034.364
 70
    32
  0
VERTEX
  8
T02SSILL
 62
6
 10
729.692
 20
-172.545
 30
5034.350
 70
    32
  0
VERTEX
  8
T02SSILL
 62
6
 10
726.630
 20
-180.644
 30
5034.349
 70
    32
  0
VERTEX
  8
T02SSILL
 62
6
 10
727.978
 20
-194.012
 30
5034.315
 70
    32
  0
VERTEX
  8
T02SSILL
 62
6
 10
714.539
 20
-203.101
 30
5034.367
 70
    32
  0
VERTEX
  8
T02SSILL
 62
6
 10
705.504
 20
-215.523
 30
5034.388
 70
    32
  0
VERTEX
  8
T02SSILL
 62
6
 10
695.488
 20
-221.086
 30
5034.429
 70
    32
  0
VERTEX
  8
T02SSILL
 62
6
 10
678.011
 20
-234.758
 30
5034.491
 70
    32
  0
VERTEX
  8
T02SSILL
 62
6
 10
675.210
 20
-241.185
 30
5034.493
 70
    32
  0
VERTEX
  8
T02SSILL
 62
6
 10
668.187
 20
-247.798
 30
5034.516
 70
    32
  0
VERTEX
  8
T02SSILL
 62
6
 10
660.678
 20
-274.555
 30
5034.501
 70
    32
  0
VERTEX
  8
T02SSILL
 62
6
 10
647.126
 20
-313.905
 30
5034.492
 70
    32
  0
VERTEX
  8
T02SSILL
 62
6
 10
632.855
 20
-344.056
 30
5034.505
 70
    32
  0
VERTEX
  8
T02SSILL
 62
6
 10
618.121
 20
-386.564
 30
5034.495
 70
    32
  0
VERTEX
  8
T02SSILL
 62
6
 10
609.844
 20
-406.162
 30
5034.499
 70
    32
  0
VERTEX
  8
T02SSILL
 62
6
 10
609.007
 20
-413.570
 30
5034.488
 70
    32
  0
VERTEX
  8
T02SSILL
 62
6
 10
613.513
 20
-424.403
 30
5034.443
 70
    32
  0
VERTEX
  8
T02SSILL
 62
6
 10
638.627
 20
-406.354
 30
5034.350
 70
    32
  0
VERTEX
  8
T02SSILL
 62
6
 10
639.897
 20
-408.444
 30
5034.339
 70
    32
  0
VERTEX
  8
T02SSILL
 62
6
 10
643.229
 20
-407.769
 30
5034.323
 70
    32
  0
VERTEX
  8
T02SSILL
 62
6
 10
656.175
 20
-428.045
 30
5034.216
 70
    32
  0
VERTEX
  8
T02SSILL
 62
6
 10
659.410
 20
-436.701
 30
5034.182
 70
    32
  0
VERTEX
  8
T02SSILL
 62
6
 10
652.752
 20
-443.421
 30
5034.203
 70
    32
  0
VERTEX
  8
T02SSILL
 62
6
 10
651.413
 20
-447.317
 30
5034.202
 70
    32
  0
VERTEX
  8
T02SSILL
 62
6
 10
649.129
 20
-467.336
 30
5034.173
 70
    32
  0
VERTEX
  8
T02SSILL
 62
6
 10
652.827
 20
-472.375
 30
5034.144
 70
    32
  0
VERTEX
  8
T02SSILL
 62
6
 10
700.692
 20
-432.007
 30
5033.978
 70
    32
  0
VERTEX
  8
T02SSILL
 62
6
 10
700.661
 20
-425.318
 30
5033.992
 70
    32
  0
VERTEX
  8
T02SSILL
 62
6
 10
686.315
 20
-410.435
 30
5034.096
 70
    32
  0
VERTEX
  8
T02SSILL
 62
6
 10
680.699
 20
-401.470
 30
5034.143
 70
    32
  0
VERTEX
  8
T02SSILL
 62
6
 10
676.070
 20
-383.685
 30
5034.202
 70
    32
  0
VERTEX
  8
T02SSILL
 62
6
 10
678.021
 20
-364.728
 30
5034.230
 70
    32
  0
VERTEX
  8
T02SSILL
 62
6
 10
682.416
 20
-344.583
 30
5034.248
 70
    32
  0
VERTEX
  8
T02SSILL
 62
6
 10
675.618
 20
-328.598
 30
5034.315
 70
    32
  0
VERTEX
  8
T02SSILL
 62
6
 10
659.493
 20
-317.619
 30
5034.420
 70
    32
  0
VERTEX
  8
T02SSILL
 62
6
 10
663.530
 20
-312.002
 30
5034.411
 70
    32
  0
VERTEX
  8
T02SSILL
 62
6
 10
687.900
 20
-326.355
 30
5034.256
 70
    32
  0
VERTEX
  8
T02SSILL
 62
6
 10
697.859
 20
-322.129
 30
5034.214
 70
    32
  0
VERTEX
  8
T02SSILL
 62
6
 10
710.130
 20
-319.271
 30
5034.156
 70
    32
  0
VERTEX
  8
T02SSILL
 62
6
 10
728.210
 20
-306.539
 30
5034.088
 70
    32
  0
VERTEX
  8
T02SSILL
 62
6
 10
732.182
 20
-307.173
 30
5034.067
 70
    32
  0
VERTEX
  8
T02SSILL
 62
6
 10
756.122
 20
-322.062
 30
5033.913
 70
    32
  0
VERTEX
  8
T02SSILL
 62
6
 10
767.105
 20
-326.003
 30
5033.849
 70
    32
  0
VERTEX
  8
T02SSILL
 62
6
 10
778.037
 20
-331.969
 30
5033.780
 70
    32
  0
VERTEX
  8
T02SSILL
 62
6
 10
790.111
 20
-342.756
 30
5033.696
 70
    32
  0
VERTEX
  8
T02SSILL
 62
6
 10
801.571
 20
-358.659
 30
5033.605
 70
    32
  0
VERTEX
  8
T02SSILL
 62
6
 10
804.832
 20
-368.810
 30
5033.568
 70
    32
  0
VERTEX
  8
T02SSILL
 62
6
 10
796.563
 20
-433.383
 30
5033.481
 70
    32
  0
VERTEX
  8
T02SSILL
 62
6
 10
774.101
 20
-442.231
 30
5033.579
 70
    32
  0
VERTEX
  8
T02SSILL
 62
6
 10
751.353
 20
-444.924
 30
5033.691
 70
    32
  0
VERTEX
  8
T02SSILL
 62
6
 10
740.578
 20
-442.827
 30
5033.751
 70
    32
  0
VERTEX
  8
T02SSILL
 62
6
 10
732.252
 20
-434.878
 30
5033.810
 70
    32
  0
VERTEX
  8
T02SSILL
 62
6
 10
710.991
 20
-432.088
 30
5033.925
 70
    32
  0
VERTEX
  8
T02SSILL
 62
6
 10
662.801
 20
-473.958
 30
5034.089
 70
    32
  0
VERTEX
  8
T02SSILL
 62
6
 10
663.769
 20
-483.887
 30
5034.065
 70
    32
  0
VERTEX
  8
T02SSILL
 62
6
 10
670.064
 20
-491.432
 30
5034.017
 70
    32
  0
VERTEX
  8
T02SSILL
 62
6
 10
672.183
 20
-496.763
 30
5033.995
 70
    32
  0
VERTEX
  8
T02SSILL
 62
6
 10
666.779
 20
-504.692
 30
5034.007
 70
    32
  0
VERTEX
  8
T02SSILL
 62
6
 10
677.447
 20
-550.269
 30
5033.861
 70
    32
  0
VERTEX
  8
T02SSILL
 62
6
 10
676.264
 20
-671.835
 30
5034.026
 70
    32
  0
VERTEX
  8
T02SSILL
 62
6
 10
688.984
 20
-714.031
 30
5034.006
 70
    32
  0
VERTEX
  8
T02SSILL
 62
6
 10
766.956
 20
-872.036
 30
5033.620
 70
    32
  0
VERTEX
  8
T02SSILL
 62
6
 10
772.200
 20
-874.935
 30
5033.573
 70
    32
  0
VERTEX
  8
T02SSILL
 62
6
 10
840.461
 20
-833.236
 30
5032.761
 70
    32
  0
SEQEND
  8
T02SSILL
  0
TEXT
  8
T02SSILL
 62
6
 10
1549.990
 20
-1348.660
 30
5033.260
 40
8.202
  1
200
 41
 1.0 
  0
ENDSEC
  0
EOF
