999
********************************
999
*   DXF File - Entities Only   *
999
*        3D Data Format        *
999
*     Output from ENVISAGE     *
999
*     20-Dec-2007 09:19:05     *
999
********************************
  0
SECTION 
  2
HEADER
  9
$ACADVER
  1
AC1009
  9
$EXTMIN
 10
-290000.000
 20
-250000.000
 30
-4000.000
  9
$EXTMAX
 10
5000000.000
 20
600000.000
 30
6000.000
  0
ENDSEC
  0
SECTION
  2
ENTITIES
  0
POLYLINE
  8
T21SSILL
 62
7
 66
     1
 70
     9
  0
VERTEX
  8
T21SSILL
 62
7
 10
2364.274
 20
-3475.050
 30
3088.532
 70
    32
  0
VERTEX
  8
T21SSILL
 62
7
 10
2340.896
 20
-3492.970
 30
3088.566
 70
    32
  0
VERTEX
  8
T21SSILL
 62
7
 10
2351.299
 20
-3506.468
 30
3088.647
 70
    32
  0
VERTEX
  8
T21SSILL
 62
7
 10
2382.698
 20
-3483.923
 30
3088.608
 70
    32
  0
SEQEND
  8
T21SSILL
  0
POLYLINE
  8
T21SSILL
 62
7
 66
     1
 70
     9
  0
VERTEX
  8
T21SSILL
 62
7
 10
1956.160
 20
-3352.805
 30
3087.178
 70
    32
  0
VERTEX
  8
T21SSILL
 62
7
 10
1964.803
 20
-3346.513
 30
3087.167
 70
    32
  0
VERTEX
  8
T21SSILL
 62
7
 10
1941.735
 20
-3314.145
 30
3086.976
 70
    32
  0
VERTEX
  8
T21SSILL
 62
7
 10
1935.739
 20
-3318.163
 30
3086.982
 70
    32
  0
SEQEND
  8
T21SSILL
  0
POLYLINE
  8
T21SSILL
 62
7
 66
     1
 70
     9
  0
VERTEX
  8
T21SSILL
 62
7
 10
-1123.616
 20
-1199.410
 30
3085.047
 70
    32
  0
VERTEX
  8
T21SSILL
 62
7
 10
-1116.918
 20
-1202.407
 30
3085.050
 70
    32
  0
VERTEX
  8
T21SSILL
 62
7
 10
-1070.703
 20
-1278.668
 30
3084.983
 70
    32
  0
VERTEX
  8
T21SSILL
 62
7
 10
-1104.540
 20
-1278.548
 30
3084.943
 70
    32
  0
VERTEX
  8
T21SSILL
 62
7
 10
-1154.847
 20
-1198.642
 30
3085.011
 70
    32
  0
SEQEND
  8
T21SSILL
  0
POLYLINE
  8
T21SSILL
 62
7
 66
     1
 70
     9
  0
VERTEX
  8
T21SSILL
 62
7
 10
-984.752
 20
-1459.558
 30
3084.796
 70
    32
  0
VERTEX
  8
T21SSILL
 62
7
 10
-973.200
 20
-1407.094
 30
3084.894
 70
    32
  0
VERTEX
  8
T21SSILL
 62
7
 10
-982.078
 20
-1388.821
 30
3084.913
 70
    32
  0
VERTEX
  8
T21SSILL
 62
7
 10
-1013.724
 20
-1379.627
 30
3084.890
 70
    32
  0
VERTEX
  8
T21SSILL
 62
7
 10
-1007.147
 20
-1429.297
 30
3084.818
 70
    32
  0
VERTEX
  8
T21SSILL
 62
7
 10
-987.937
 20
-1460.757
 30
3084.790
 70
    32
  0
SEQEND
  8
T21SSILL
  0
POLYLINE
  8
T21SSILL
 62
7
 66
     1
 70
     9
  0
VERTEX
  8
T21SSILL
 62
7
 10
-960.360
 20
-1940.950
 30
3084.053
 70
    32
  0
VERTEX
  8
T21SSILL
 62
7
 10
-952.611
 20
-1965.611
 30
3084.023
 70
    32
  0
VERTEX
  8
T21SSILL
 62
7
 10
-915.429
 20
-1981.230
 30
3084.042
 70
    32
  0
VERTEX
  8
T21SSILL
 62
7
 10
-918.893
 20
-1969.805
 30
3084.057
 70
    32
  0
VERTEX
  8
T21SSILL
 62
7
 10
-940.352
 20
-1956.536
 30
3084.052
 70
    32
  0
VERTEX
  8
T21SSILL
 62
7
 10
-939.949
 20
-1952.690
 30
3084.059
 70
    32
  0
SEQEND
  8
T21SSILL
  0
POLYLINE
  8
T21SSILL
 62
7
 66
     1
 70
     9
  0
VERTEX
  8
T21SSILL
 62
7
 10
-936.039
 20
-1829.455
 30
3084.261
 70
    32
  0
VERTEX
  8
T21SSILL
 62
7
 10
-929.964
 20
-1814.558
 30
3084.292
 70
    32
  0
VERTEX
  8
T21SSILL
 62
7
 10
-935.690
 20
-1798.984
 30
3084.310
 70
    32
  0
VERTEX
  8
T21SSILL
 62
7
 10
-941.108
 20
-1801.323
 30
3084.300
 70
    32
  0
VERTEX
  8
T21SSILL
 62
7
 10
-954.661
 20
-1828.972
 30
3084.240
 70
    32
  0
VERTEX
  8
T21SSILL
 62
7
 10
-947.823
 20
-1851.558
 30
3084.212
 70
    32
  0
VERTEX
  8
T21SSILL
 62
7
 10
-940.468
 20
-1841.997
 30
3084.236
 70
    32
  0
SEQEND
  8
T21SSILL
  0
POLYLINE
  8
T21SSILL
 62
7
 66
     1
 70
     9
  0
VERTEX
  8
T21SSILL
 62
7
 10
-970.485
 20
-1648.783
 30
3084.510
 70
    32
  0
VERTEX
  8
T21SSILL
 62
7
 10
-990.263
 20
-1692.881
 30
3084.415
 70
    32
  0
VERTEX
  8
T21SSILL
 62
7
 10
-1005.575
 20
-1671.522
 30
3084.431
 70
    32
  0
VERTEX
  8
T21SSILL
 62
7
 10
-982.093
 20
-1621.074
 30
3084.540
 70
    32
  0
SEQEND
  8
T21SSILL
  0
POLYLINE
  8
T21SSILL
 62
7
 66
     1
 70
     9
  0
VERTEX
  8
T21SSILL
 62
7
 10
-965.958
 20
-1661.172
 30
3084.495
 70
    32
  0
VERTEX
  8
T21SSILL
 62
7
 10
-955.066
 20
-1686.769
 30
3084.467
 70
    32
  0
VERTEX
  8
T21SSILL
 62
7
 10
-971.604
 20
-1720.112
 30
3084.394
 70
    32
  0
VERTEX
  8
T21SSILL
 62
7
 10
-984.541
 20
-1701.155
 30
3084.409
 70
    32
  0
SEQEND
  8
T21SSILL
  0
POLYLINE
  8
T21SSILL
 62
7
 66
     1
 70
     9
  0
VERTEX
  8
T21SSILL
 62
7
 10
-938.767
 20
-1724.310
 30
3084.427
 70
    32
  0
VERTEX
  8
T21SSILL
 62
7
 10
-949.909
 20
-1698.238
 30
3084.455
 70
    32
  0
VERTEX
  8
T21SSILL
 62
7
 10
-964.661
 20
-1729.120
 30
3084.388
 70
    32
  0
VERTEX
  8
T21SSILL
 62
7
 10
-949.847
 20
-1749.530
 30
3084.373
 70
    32
  0
SEQEND
  8
T21SSILL
  0
POLYLINE
  8
T21SSILL
 62
7
 66
     1
 70
     9
  0
VERTEX
  8
T21SSILL
 62
7
 10
-1029.138
 20
-1667.151
 30
3084.410
 70
    32
  0
VERTEX
  8
T21SSILL
 62
7
 10
-1019.488
 20
-1691.256
 30
3084.383
 70
    32
  0
VERTEX
  8
T21SSILL
 62
7
 10
-1004.418
 20
-1690.118
 30
3084.403
 70
    32
  0
VERTEX
  8
T21SSILL
 62
7
 10
-1021.189
 20
-1666.544
 30
3084.420
 70
    32
  0
SEQEND
  8
T21SSILL
  0
POLYLINE
  8
T21SSILL
 62
7
 66
     1
 70
     9
  0
VERTEX
  8
T21SSILL
 62
7
 10
-975.093
 20
-1730.392
 30
3084.373
 70
    32
  0
VERTEX
  8
T21SSILL
 62
7
 10
-1002.374
 20
-1732.936
 30
3084.336
 70
    32
  0
VERTEX
  8
T21SSILL
 62
7
 10
-991.874
 20
-1757.724
 30
3084.309
 70
    32
  0
VERTEX
  8
T21SSILL
 62
7
 10
-957.807
 20
-1754.792
 30
3084.355
 70
    32
  0
SEQEND
  8
T21SSILL
  0
POLYLINE
  8
T21SSILL
 62
7
 66
     1
 70
     9
  0
VERTEX
  8
T21SSILL
 62
7
 10
1838.069
 20
-2739.644
 30
3088.284
 70
    32
  0
VERTEX
  8
T21SSILL
 62
7
 10
1819.430
 20
-2753.408
 30
3088.274
 70
    32
  0
VERTEX
  8
T21SSILL
 62
7
 10
1823.881
 20
-2758.012
 30
3088.286
 70
    32
  0
VERTEX
  8
T21SSILL
 62
7
 10
2066.514
 20
-2705.721
 30
3088.567
 70
    32
  0
VERTEX
  8
T21SSILL
 62
7
 10
2008.571
 20
-2646.581
 30
3088.416
 70
    32
  0
VERTEX
  8
T21SSILL
 62
7
 10
2000.435
 20
-2635.344
 30
3088.391
 70
    32
  0
VERTEX
  8
T21SSILL
 62
7
 10
1990.317
 20
-2627.294
 30
3088.368
 70
    32
  0
VERTEX
  8
T21SSILL
 62
7
 10
1982.976
 20
-2623.605
 30
3088.353
 70
    32
  0
VERTEX
  8
T21SSILL
 62
7
 10
1946.746
 20
-2650.506
 30
3088.333
 70
    32
  0
VERTEX
  8
T21SSILL
 62
7
 10
1954.876
 20
-2661.304
 30
3088.358
 70
    32
  0
VERTEX
  8
T21SSILL
 62
7
 10
1946.221
 20
-2665.014
 30
3088.350
 70
    32
  0
VERTEX
  8
T21SSILL
 62
7
 10
1940.145
 20
-2656.915
 30
3088.332
 70
    32
  0
VERTEX
  8
T21SSILL
 62
7
 10
1919.133
 20
-2670.709
 30
3088.318
 70
    32
  0
VERTEX
  8
T21SSILL
 62
7
 10
1923.794
 20
-2678.034
 30
3088.333
 70
    32
  0
VERTEX
  8
T21SSILL
 62
7
 10
1923.250
 20
-2683.841
 30
3088.339
 70
    32
  0
VERTEX
  8
T21SSILL
 62
7
 10
1887.793
 20
-2709.326
 30
3088.319
 70
    32
  0
VERTEX
  8
T21SSILL
 62
7
 10
1839.981
 20
-2737.863
 30
3088.285
 70
    32
  0
SEQEND
  8
T21SSILL
  0
POLYLINE
  8
T21SSILL
 62
7
 66
     1
 70
     9
  0
VERTEX
  8
T21SSILL
 62
7
 10
508.908
 20
-2040.607
 30
3085.069
 70
    32
  0
VERTEX
  8
T21SSILL
 62
7
 10
505.688
 20
-2033.689
 30
3085.073
 70
    32
  0
VERTEX
  8
T21SSILL
 62
7
 10
473.929
 20
-2055.249
 30
3085.111
 70
    32
  0
VERTEX
  8
T21SSILL
 62
7
 10
469.465
 20
-2060.075
 30
3085.117
 70
    32
  0
VERTEX
  8
T21SSILL
 62
7
 10
466.112
 20
-2067.361
 30
3085.121
 70
    32
  0
VERTEX
  8
T21SSILL
 62
7
 10
464.604
 20
-2074.193
 30
3085.123
 70
    32
  0
VERTEX
  8
T21SSILL
 62
7
 10
465.797
 20
-2084.190
 30
3085.122
 70
    32
  0
VERTEX
  8
T21SSILL
 62
7
 10
512.427
 20
-2149.426
 30
3085.067
 70
    32
  0
VERTEX
  8
T21SSILL
 62
7
 10
514.454
 20
-2139.835
 30
3085.064
 70
    32
  0
VERTEX
  8
T21SSILL
 62
7
 10
521.882
 20
-2128.544
 30
3085.055
 70
    32
  0
VERTEX
  8
T21SSILL
 62
7
 10
565.185
 20
-2097.195
 30
3085.002
 70
    32
  0
VERTEX
  8
T21SSILL
 62
7
 10
571.633
 20
-2090.719
 30
3084.994
 70
    32
  0
VERTEX
  8
T21SSILL
 62
7
 10
563.201
 20
-2087.004
 30
3085.004
 70
    32
  0
VERTEX
  8
T21SSILL
 62
7
 10
549.316
 20
-2086.860
 30
3085.021
 70
    32
  0
VERTEX
  8
T21SSILL
 62
7
 10
535.377
 20
-2070.585
 30
3085.037
 70
    32
  0
VERTEX
  8
T21SSILL
 62
7
 10
510.585
 20
-2051.885
 30
3085.067
 70
    32
  0
VERTEX
  8
T21SSILL
 62
7
 10
508.818
 20
-2049.570
 30
3085.069
 70
    32
  0
VERTEX
  8
T21SSILL
 62
7
 10
510.526
 20
-2046.501
 30
3085.067
 70
    32
  0
VERTEX
  8
T21SSILL
 62
7
 10
509.742
 20
-2042.831
 30
3085.068
 70
    32
  0
SEQEND
  8
T21SSILL
  0
POLYLINE
  8
T21SSILL
 62
7
 66
     1
 70
     9
  0
VERTEX
  8
T21SSILL
 62
7
 10
430.832
 20
-2072.344
 30
3085.164
 70
    32
  0
VERTEX
  8
T21SSILL
 62
7
 10
426.576
 20
-2065.192
 30
3085.169
 70
    32
  0
VERTEX
  8
T21SSILL
 62
7
 10
420.051
 20
-2063.356
 30
3085.177
 70
    32
  0
VERTEX
  8
T21SSILL
 62
7
 10
411.121
 20
-2050.437
 30
3085.187
 70
    32
  0
VERTEX
  8
T21SSILL
 62
7
 10
412.836
 20
-2044.651
 30
3085.185
 70
    32
  0
VERTEX
  8
T21SSILL
 62
7
 10
399.566
 20
-2015.525
 30
3085.209
 70
    32
  0
VERTEX
  8
T21SSILL
 62
7
 10
396.525
 20
-2004.465
 30
3085.217
 70
    32
  0
VERTEX
  8
T21SSILL
 62
7
 10
398.123
 20
-2003.211
 30
3085.214
 70
    32
  0
VERTEX
  8
T21SSILL
 62
7
 10
411.808
 20
-2021.404
 30
3085.186
 70
    32
  0
VERTEX
  8
T21SSILL
 62
7
 10
414.428
 20
-2032.332
 30
3085.183
 70
    32
  0
VERTEX
  8
T21SSILL
 62
7
 10
417.309
 20
-2038.625
 30
3085.179
 70
    32
  0
VERTEX
  8
T21SSILL
 62
7
 10
422.347
 20
-2040.658
 30
3085.173
 70
    32
  0
VERTEX
  8
T21SSILL
 62
7
 10
427.636
 20
-2046.527
 30
3085.167
 70
    32
  0
VERTEX
  8
T21SSILL
 62
7
 10
430.458
 20
-2047.435
 30
3085.164
 70
    32
  0
VERTEX
  8
T21SSILL
 62
7
 10
444.444
 20
-2068.017
 30
3085.147
 70
    32
  0
VERTEX
  8
T21SSILL
 62
7
 10
436.166
 20
-2073.731
 30
3085.157
 70
    32
  0
VERTEX
  8
T21SSILL
 62
7
 10
431.888
 20
-2072.455
 30
3085.163
 70
    32
  0
SEQEND
  8
T21SSILL
  0
POLYLINE
  8
T21SSILL
 62
7
 66
     1
 70
     9
  0
VERTEX
  8
T21SSILL
 62
7
 10
971.028
 20
-2808.168
 30
3084.703
 70
    32
  0
VERTEX
  8
T21SSILL
 62
7
 10
974.452
 20
-2807.343
 30
3084.707
 70
    32
  0
VERTEX
  8
T21SSILL
 62
7
 10
1005.269
 20
-2850.810
 30
3084.717
 70
    32
  0
VERTEX
  8
T21SSILL
 62
7
 10
998.456
 20
-2855.691
 30
3084.708
 70
    32
  0
VERTEX
  8
T21SSILL
 62
7
 10
1007.344
 20
-2868.097
 30
3084.711
 70
    32
  0
VERTEX
  8
T21SSILL
 62
7
 10
1014.638
 20
-2862.980
 30
3084.720
 70
    32
  0
VERTEX
  8
T21SSILL
 62
7
 10
1023.857
 20
-2878.929
 30
3084.735
 70
    32
  0
VERTEX
  8
T21SSILL
 62
7
 10
945.639
 20
-2867.701
 30
3084.695
 70
    32
  0
VERTEX
  8
T21SSILL
 62
7
 10
943.802
 20
-2864.124
 30
3084.685
 70
    32
  0
VERTEX
  8
T21SSILL
 62
7
 10
949.238
 20
-2849.043
 30
3084.664
 70
    32
  0
VERTEX
  8
T21SSILL
 62
7
 10
955.581
 20
-2840.236
 30
3084.674
 70
    32
  0
VERTEX
  8
T21SSILL
 62
7
 10
963.892
 20
-2809.645
 30
3084.696
 70
    32
  0
VERTEX
  8
T21SSILL
 62
7
 10
967.379
 20
-2808.830
 30
3084.700
 70
    32
  0
SEQEND
  8
T21SSILL
  0
POLYLINE
  8
T21SSILL
 62
7
 66
     1
 70
     9
  0
VERTEX
  8
T21SSILL
 62
7
 10
2150.043
 20
-4605.440
 30
3090.544
 70
    32
  0
VERTEX
  8
T21SSILL
 62
7
 10
2175.038
 20
-4605.325
 30
3090.552
 70
    32
  0
VERTEX
  8
T21SSILL
 62
7
 10
2204.558
 20
-4550.015
 30
3090.583
 70
    32
  0
VERTEX
  8
T21SSILL
 62
7
 10
2124.155
 20
-4600.772
 30
3090.481
 70
    32
  0
VERTEX
  8
T21SSILL
 62
7
 10
2123.884
 20
-4606.131
 30
3090.490
 70
    32
  0
VERTEX
  8
T21SSILL
 62
7
 10
2143.714
 20
-4605.607
 30
3090.542
 70
    32
  0
SEQEND
  8
T21SSILL
  0
POLYLINE
  8
T21SSILL
 62
7
 66
     1
 70
     9
  0
VERTEX
  8
T21SSILL
 62
7
 10
2463.419
 20
-3581.517
 30
3089.205
 70
    32
  0
VERTEX
  8
T21SSILL
 62
7
 10
2469.942
 20
-3577.501
 30
3089.200
 70
    32
  0
VERTEX
  8
T21SSILL
 62
7
 10
2492.777
 20
-3603.098
 30
3089.359
 70
    32
  0
VERTEX
  8
T21SSILL
 62
7
 10
2508.878
 20
-3600.356
 30
3089.379
 70
    32
  0
VERTEX
  8
T21SSILL
 62
7
 10
2512.732
 20
-3603.713
 30
3089.402
 70
    32
  0
VERTEX
  8
T21SSILL
 62
7
 10
2514.650
 20
-3607.414
 30
3089.422
 70
    32
  0
VERTEX
  8
T21SSILL
 62
7
 10
2513.385
 20
-3615.234
 30
3089.454
 70
    32
  0
VERTEX
  8
T21SSILL
 62
7
 10
2514.756
 20
-3623.416
 30
3089.494
 70
    32
  0
VERTEX
  8
T21SSILL
 62
7
 10
2516.676
 20
-3626.590
 30
3089.512
 70
    32
  0
VERTEX
  8
T21SSILL
 62
7
 10
2525.087
 20
-3633.309
 30
3089.559
 70
    32
  0
VERTEX
  8
T21SSILL
 62
7
 10
2575.093
 20
-3597.745
 30
3089.512
 70
    32
  0
VERTEX
  8
T21SSILL
 62
7
 10
2522.605
 20
-3517.859
 30
3089.167
 70
    32
  0
VERTEX
  8
T21SSILL
 62
7
 10
2460.687
 20
-3562.954
 30
3089.116
 70
    32
  0
VERTEX
  8
T21SSILL
 62
7
 10
2466.978
 20
-3571.949
 30
3089.169
 70
    32
  0
VERTEX
  8
T21SSILL
 62
7
 10
2459.570
 20
-3577.104
 30
3089.177
 70
    32
  0
VERTEX
  8
T21SSILL
 62
7
 10
2462.719
 20
-3580.722
 30
3089.200
 70
    32
  0
SEQEND
  8
T21SSILL
  0
POLYLINE
  8
T21SSILL
 62
7
 66
     1
 70
     9
  0
VERTEX
  8
T21SSILL
 62
7
 10
2390.036
 20
-3514.551
 30
3088.760
 70
    32
  0
VERTEX
  8
T21SSILL
 62
7
 10
2394.133
 20
-3522.658
 30
3088.804
 70
    32
  0
VERTEX
  8
T21SSILL
 62
7
 10
2395.138
 20
-3533.916
 30
3088.857
 70
    32
  0
VERTEX
  8
T21SSILL
 62
7
 10
2383.456
 20
-3551.360
 30
3088.912
 70
    32
  0
VERTEX
  8
T21SSILL
 62
7
 10
2383.088
 20
-3555.051
 30
3088.927
 70
    32
  0
VERTEX
  8
T21SSILL
 62
7
 10
2393.227
 20
-3568.811
 30
3089.009
 70
    32
  0
VERTEX
  8
T21SSILL
 62
7
 10
2400.032
 20
-3580.798
 30
3089.076
 70
    32
  0
VERTEX
  8
T21SSILL
 62
7
 10
2404.940
 20
-3584.161
 30
3089.101
 70
    32
  0
VERTEX
  8
T21SSILL
 62
7
 10
2415.572
 20
-3585.790
 30
3089.129
 70
    32
  0
VERTEX
  8
T21SSILL
 62
7
 10
2417.860
 20
-3585.273
 30
3089.131
 70
    32
  0
VERTEX
  8
T21SSILL
 62
7
 10
2445.028
 20
-3564.995
 30
3089.094
 70
    32
  0
VERTEX
  8
T21SSILL
 62
7
 10
2431.578
 20
-3544.626
 30
3088.977
 70
    32
  0
VERTEX
  8
T21SSILL
 62
7
 10
2442.337
 20
-3537.200
 30
3088.965
 70
    32
  0
VERTEX
  8
T21SSILL
 62
7
 10
2456.403
 20
-3557.484
 30
3089.083
 70
    32
  0
VERTEX
  8
T21SSILL
 62
7
 10
2519.292
 20
-3511.514
 30
3089.144
 70
    32
  0
VERTEX
  8
T21SSILL
 62
7
 10
2491.428
 20
-3469.894
 30
3088.962
 70
    32
  0
VERTEX
  8
T21SSILL
 62
7
 10
2488.728
 20
-3464.167
 30
3088.942
 70
    32
  0
VERTEX
  8
T21SSILL
 62
7
 10
2466.534
 20
-3432.946
 30
3088.800
 70
    32
  0
VERTEX
  8
T21SSILL
 62
7
 10
2380.278
 20
-3494.374
 30
3088.650
 70
    32
  0
VERTEX
  8
T21SSILL
 62
7
 10
2384.890
 20
-3505.209
 30
3088.708
 70
    32
  0
SEQEND
  8
T21SSILL
  0
POLYLINE
  8
T21SSILL
 62
7
 66
     1
 70
     9
  0
VERTEX
  8
T21SSILL
 62
7
 10
2355.639
 20
-3406.097
 30
3088.306
 70
    32
  0
VERTEX
  8
T21SSILL
 62
7
 10
2359.443
 20
-3414.012
 30
3088.334
 70
    32
  0
VERTEX
  8
T21SSILL
 62
7
 10
2371.719
 20
-3461.279
 30
3088.485
 70
    32
  0
VERTEX
  8
T21SSILL
 62
7
 10
2371.616
 20
-3464.795
 30
3088.501
 70
    32
  0
VERTEX
  8
T21SSILL
 62
7
 10
2368.257
 20
-3468.913
 30
3088.513
 70
    32
  0
VERTEX
  8
T21SSILL
 62
7
 10
2388.958
 20
-3479.906
 30
3088.603
 70
    32
  0
VERTEX
  8
T21SSILL
 62
7
 10
2465.073
 20
-3425.290
 30
3088.782
 70
    32
  0
VERTEX
  8
T21SSILL
 62
7
 10
2436.563
 20
-3330.651
 30
3088.511
 70
    32
  0
VERTEX
  8
T21SSILL
 62
7
 10
2347.370
 20
-3393.005
 30
3088.251
 70
    32
  0
SEQEND
  8
T21SSILL
  0
POLYLINE
  8
T21SSILL
 62
7
 66
     1
 70
     9
  0
VERTEX
  8
T21SSILL
 62
7
 10
2327.197
 20
-3289.200
 30
3087.998
 70
    32
  0
VERTEX
  8
T21SSILL
 62
7
 10
2329.779
 20
-3301.784
 30
3088.030
 70
    32
  0
VERTEX
  8
T21SSILL
 62
7
 10
2336.628
 20
-3303.924
 30
3088.061
 70
    32
  0
VERTEX
  8
T21SSILL
 62
7
 10
2343.002
 20
-3313.799
 30
3088.103
 70
    32
  0
VERTEX
  8
T21SSILL
 62
7
 10
2348.224
 20
-3325.955
 30
3088.144
 70
    32
  0
VERTEX
  8
T21SSILL
 62
7
 10
2347.828
 20
-3336.064
 30
3088.159
 70
    32
  0
VERTEX
  8
T21SSILL
 62
7
 10
2354.093
 20
-3350.950
 30
3088.209
 70
    32
  0
VERTEX
  8
T21SSILL
 62
7
 10
2354.342
 20
-3354.380
 30
3088.216
 70
    32
  0
VERTEX
  8
T21SSILL
 62
7
 10
2348.868
 20
-3359.543
 30
3088.202
 70
    32
  0
VERTEX
  8
T21SSILL
 62
7
 10
2352.677
 20
-3373.012
 30
3088.240
 70
    32
  0
VERTEX
  8
T21SSILL
 62
7
 10
2344.298
 20
-3379.041
 30
3088.215
 70
    32
  0
VERTEX
  8
T21SSILL
 62
7
 10
2348.754
 20
-3385.391
 30
3088.244
 70
    32
  0
VERTEX
  8
T21SSILL
 62
7
 10
2434.217
 20
-3324.399
 30
3088.491
 70
    32
  0
VERTEX
  8
T21SSILL
 62
7
 10
2404.838
 20
-3227.382
 30
3088.212
 70
    32
  0
VERTEX
  8
T21SSILL
 62
7
 10
2329.253
 20
-3281.472
 30
3087.994
 70
    32
  0
VERTEX
  8
T21SSILL
 62
7
 10
2326.948
 20
-3285.946
 30
3087.992
 70
    32
  0
SEQEND
  8
T21SSILL
  0
POLYLINE
  8
T21SSILL
 62
7
 66
     1
 70
     9
  0
VERTEX
  8
T21SSILL
 62
7
 10
2367.859
 20
-3125.022
 30
3087.894
 70
    32
  0
VERTEX
  8
T21SSILL
 62
7
 10
2360.797
 20
-3129.591
 30
3087.873
 70
    32
  0
VERTEX
  8
T21SSILL
 62
7
 10
2314.449
 20
-3169.221
 30
3087.750
 70
    32
  0
VERTEX
  8
T21SSILL
 62
7
 10
2257.916
 20
-3209.328
 30
3087.586
 70
    32
  0
VERTEX
  8
T21SSILL
 62
7
 10
2263.035
 20
-3224.824
 30
3087.632
 70
    32
  0
VERTEX
  8
T21SSILL
 62
7
 10
2266.467
 20
-3224.136
 30
3087.645
 70
    32
  0
VERTEX
  8
T21SSILL
 62
7
 10
2284.199
 20
-3210.323
 30
3087.694
 70
    32
  0
VERTEX
  8
T21SSILL
 62
7
 10
2289.042
 20
-3208.673
 30
3087.711
 70
    32
  0
VERTEX
  8
T21SSILL
 62
7
 10
2296.942
 20
-3211.697
 30
3087.748
 70
    32
  0
VERTEX
  8
T21SSILL
 62
7
 10
2310.611
 20
-3222.132
 30
3087.821
 70
    32
  0
VERTEX
  8
T21SSILL
 62
7
 10
2319.440
 20
-3233.688
 30
3087.876
 70
    32
  0
VERTEX
  8
T21SSILL
 62
7
 10
2319.594
 20
-3238.788
 30
3087.885
 70
    32
  0
VERTEX
  8
T21SSILL
 62
7
 10
2322.264
 20
-3251.285
 30
3087.916
 70
    32
  0
VERTEX
  8
T21SSILL
 62
7
 10
2323.489
 20
-3252.785
 30
3087.924
 70
    32
  0
VERTEX
  8
T21SSILL
 62
7
 10
2321.982
 20
-3255.592
 30
3087.922
 70
    32
  0
VERTEX
  8
T21SSILL
 62
7
 10
2296.935
 20
-3273.241
 30
3087.849
 70
    32
  0
VERTEX
  8
T21SSILL
 62
7
 10
2296.110
 20
-3280.975
 30
3087.859
 70
    32
  0
VERTEX
  8
T21SSILL
 62
7
 10
2302.487
 20
-3290.146
 30
3087.900
 70
    32
  0
VERTEX
  8
T21SSILL
 62
7
 10
2305.038
 20
-3289.894
 30
3087.910
 70
    32
  0
VERTEX
  8
T21SSILL
 62
7
 10
2400.909
 20
-3221.122
 30
3088.186
 70
    32
  0
VERTEX
  8
T21SSILL
 62
7
 10
2401.907
 20
-3214.181
 30
3088.179
 70
    32
  0
VERTEX
  8
T21SSILL
 62
7
 10
2372.780
 20
-3124.961
 30
3087.914
 70
    32
  0
SEQEND
  8
T21SSILL
  0
POLYLINE
  8
T21SSILL
 62
7
 66
     1
 70
     9
  0
VERTEX
  8
T21SSILL
 62
7
 10
2245.143
 20
-3194.941
 30
3087.510
 70
    32
  0
VERTEX
  8
T21SSILL
 62
7
 10
2236.958
 20
-3176.881
 30
3087.448
 70
    32
  0
VERTEX
  8
T21SSILL
 62
7
 10
2247.708
 20
-3171.478
 30
3087.482
 70
    32
  0
VERTEX
  8
T21SSILL
 62
7
 10
2250.499
 20
-3176.501
 30
3087.502
 70
    32
  0
VERTEX
  8
T21SSILL
 62
7
 10
2248.187
 20
-3182.470
 30
3087.502
 70
    32
  0
VERTEX
  8
T21SSILL
 62
7
 10
2248.253
 20
-3187.305
 30
3087.511
 70
    32
  0
VERTEX
  8
T21SSILL
 62
7
 10
2252.972
 20
-3193.832
 30
3087.540
 70
    32
  0
VERTEX
  8
T21SSILL
 62
7
 10
2255.755
 20
-3200.878
 30
3087.563
 70
    32
  0
VERTEX
  8
T21SSILL
 62
7
 10
2268.652
 20
-3191.930
 30
3087.601
 70
    32
  0
VERTEX
  8
T21SSILL
 62
7
 10
2249.451
 20
-3166.117
 30
3087.481
 70
    32
  0
VERTEX
  8
T21SSILL
 62
7
 10
2225.830
 20
-3092.507
 30
3087.264
 70
    32
  0
VERTEX
  8
T21SSILL
 62
7
 10
2232.159
 20
-3089.339
 30
3087.284
 70
    32
  0
VERTEX
  8
T21SSILL
 62
7
 10
2256.082
 20
-3162.168
 30
3087.501
 70
    32
  0
VERTEX
  8
T21SSILL
 62
7
 10
2274.918
 20
-3187.582
 30
3087.619
 70
    32
  0
VERTEX
  8
T21SSILL
 62
7
 10
2306.375
 20
-3165.757
 30
3087.711
 70
    32
  0
VERTEX
  8
T21SSILL
 62
7
 10
2368.434
 20
-3114.556
 30
3087.879
 70
    32
  0
VERTEX
  8
T21SSILL
 62
7
 10
2369.017
 20
-3112.000
 30
3087.877
 70
    32
  0
VERTEX
  8
T21SSILL
 62
7
 10
2325.236
 20
-2968.137
 30
3089.240
 70
    32
  0
VERTEX
  8
T21SSILL
 62
7
 10
2290.154
 20
-2931.216
 30
3089.147
 70
    32
  0
VERTEX
  8
T21SSILL
 62
7
 10
2128.183
 20
-3046.146
 30
3086.791
 70
    32
  0
VERTEX
  8
T21SSILL
 62
7
 10
2127.302
 20
-3053.188
 30
3086.799
 70
    32
  0
VERTEX
  8
T21SSILL
 62
7
 10
2191.484
 20
-3169.291
 30
3087.250
 70
    32
  0
VERTEX
  8
T21SSILL
 62
7
 10
2195.474
 20
-3173.622
 30
3087.274
 70
    32
  0
VERTEX
  8
T21SSILL
 62
7
 10
2220.413
 20
-3220.417
 30
3087.452
 70
    32
  0
VERTEX
  8
T21SSILL
 62
7
 10
2228.945
 20
-3219.575
 30
3087.485
 70
    32
  0
VERTEX
  8
T21SSILL
 62
7
 10
2248.787
 20
-3205.947
 30
3087.543
 70
    32
  0
VERTEX
  8
T21SSILL
 62
7
 10
2249.065
 20
-3202.607
 30
3087.539
 70
    32
  0
VERTEX
  8
T21SSILL
 62
7
 10
2246.107
 20
-3195.561
 30
3087.515
 70
    32
  0
SEQEND
  8
T21SSILL
  0
POLYLINE
  8
T21SSILL
 62
7
 66
     1
 70
     9
  0
VERTEX
  8
T21SSILL
 62
7
 10
1968.030
 20
-3166.064
 30
3086.365
 70
    32
  0
VERTEX
  8
T21SSILL
 62
7
 10
1967.601
 20
-3170.070
 30
3086.382
 70
    32
  0
VERTEX
  8
T21SSILL
 62
7
 10
2013.315
 20
-3251.070
 30
3086.835
 70
    32
  0
VERTEX
  8
T21SSILL
 62
7
 10
2113.137
 20
-3178.731
 30
3086.948
 70
    32
  0
VERTEX
  8
T21SSILL
 62
7
 10
2109.929
 20
-3169.767
 30
3086.920
 70
    32
  0
VERTEX
  8
T21SSILL
 62
7
 10
2105.380
 20
-3171.493
 30
3086.904
 70
    32
  0
VERTEX
  8
T21SSILL
 62
7
 10
2106.763
 20
-3162.511
 30
3086.895
 70
    32
  0
VERTEX
  8
T21SSILL
 62
7
 10
2101.129
 20
-3147.464
 30
3086.848
 70
    32
  0
VERTEX
  8
T21SSILL
 62
7
 10
2103.530
 20
-3135.481
 30
3086.838
 70
    32
  0
VERTEX
  8
T21SSILL
 62
7
 10
2119.493
 20
-3125.617
 30
3086.886
 70
    32
  0
VERTEX
  8
T21SSILL
 62
7
 10
2129.497
 20
-3138.677
 30
3086.949
 70
    32
  0
VERTEX
  8
T21SSILL
 62
7
 10
2131.786
 20
-3146.120
 30
3086.970
 70
    32
  0
VERTEX
  8
T21SSILL
 62
7
 10
2132.688
 20
-3155.161
 30
3086.989
 70
    32
  0
VERTEX
  8
T21SSILL
 62
7
 10
2135.352
 20
-3157.413
 30
3087.003
 70
    32
  0
VERTEX
  8
T21SSILL
 62
7
 10
2143.976
 20
-3151.155
 30
3087.028
 70
    32
  0
VERTEX
  8
T21SSILL
 62
7
 10
2149.395
 20
-3141.509
 30
3087.034
 70
    32
  0
VERTEX
  8
T21SSILL
 62
7
 10
2154.186
 20
-3116.665
 30
3087.013
 70
    32
  0
VERTEX
  8
T21SSILL
 62
7
 10
2118.942
 20
-3052.324
 30
3086.764
 70
    32
  0
VERTEX
  8
T21SSILL
 62
7
 10
2046.128
 20
-3106.042
 30
3086.556
 70
    32
  0
VERTEX
  8
T21SSILL
 62
7
 10
2067.774
 20
-3136.624
 30
3086.694
 70
    32
  0
VERTEX
  8
T21SSILL
 62
7
 10
2062.286
 20
-3140.647
 30
3086.679
 70
    32
  0
VERTEX
  8
T21SSILL
 62
7
 10
2039.940
 20
-3109.395
 30
3086.537
 70
    32
  0
VERTEX
  8
T21SSILL
 62
7
 10
2034.802
 20
-3114.091
 30
3086.524
 70
    32
  0
VERTEX
  8
T21SSILL
 62
7
 10
1972.329
 20
-3158.277
 30
3086.342
 70
    32
  0
VERTEX
  8
T21SSILL
 62
7
 10
1969.330
 20
-3164.554
 30
3086.361
 70
    32
  0
SEQEND
  8
T21SSILL
  0
POLYLINE
  8
T21SSILL
 62
7
 66
     1
 70
     9
  0
VERTEX
  8
T21SSILL
 62
7
 10
2128.750
 20
-3292.020
 30
3087.247
 70
    32
  0
VERTEX
  8
T21SSILL
 62
7
 10
2115.609
 20
-3301.370
 30
3087.263
 70
    32
  0
VERTEX
  8
T21SSILL
 62
7
 10
2107.828
 20
-3311.183
 30
3087.291
 70
    32
  0
VERTEX
  8
T21SSILL
 62
7
 10
2104.452
 20
-3319.169
 30
3087.320
 70
    32
  0
VERTEX
  8
T21SSILL
 62
7
 10
2107.025
 20
-3334.038
 30
3087.392
 70
    32
  0
VERTEX
  8
T21SSILL
 62
7
 10
2152.545
 20
-3399.035
 30
3087.773
 70
    32
  0
VERTEX
  8
T21SSILL
 62
7
 10
2132.788
 20
-3413.279
 30
3087.798
 70
    32
  0
VERTEX
  8
T21SSILL
 62
7
 10
2130.242
 20
-3412.653
 30
3087.790
 70
    32
  0
VERTEX
  8
T21SSILL
 62
7
 10
2106.155
 20
-3371.928
 30
3087.560
 70
    32
  0
VERTEX
  8
T21SSILL
 62
7
 10
2097.371
 20
-3369.955
 30
3087.534
 70
    32
  0
VERTEX
  8
T21SSILL
 62
7
 10
2093.499
 20
-3370.817
 30
3087.530
 70
    32
  0
VERTEX
  8
T21SSILL
 62
7
 10
2089.525
 20
-3374.844
 30
3087.540
 70
    32
  0
VERTEX
  8
T21SSILL
 62
7
 10
2085.208
 20
-3376.847
 30
3087.541
 70
    32
  0
VERTEX
  8
T21SSILL
 62
7
 10
2017.240
 20
-3258.296
 30
3086.876
 70
    32
  0
VERTEX
  8
T21SSILL
 62
7
 10
2103.785
 20
-3194.984
 30
3086.937
 70
    32
  0
VERTEX
  8
T21SSILL
 62
7
 10
2101.957
 20
-3214.776
 30
3086.962
 70
    32
  0
VERTEX
  8
T21SSILL
 62
7
 10
2108.232
 20
-3217.600
 30
3086.992
 70
    32
  0
VERTEX
  8
T21SSILL
 62
7
 10
2118.668
 20
-3230.039
 30
3087.055
 70
    32
  0
VERTEX
  8
T21SSILL
 62
7
 10
2121.844
 20
-3245.293
 30
3087.092
 70
    32
  0
VERTEX
  8
T21SSILL
 62
7
 10
2126.233
 20
-3244.887
 30
3087.110
 70
    32
  0
VERTEX
  8
T21SSILL
 62
7
 10
2127.973
 20
-3250.579
 30
3087.126
 70
    32
  0
VERTEX
  8
T21SSILL
 62
7
 10
2123.339
 20
-3266.807
 30
3087.134
 70
    32
  0
VERTEX
  8
T21SSILL
 62
7
 10
2128.664
 20
-3291.404
 30
3087.244
 70
    32
  0
SEQEND
  8
T21SSILL
  0
POLYLINE
  8
T21SSILL
 62
7
 66
     1
 70
     9
  0
VERTEX
  8
T21SSILL
 62
7
 10
2174.014
 20
-3355.258
 30
3087.620
 70
    32
  0
VERTEX
  8
T21SSILL
 62
7
 10
2182.208
 20
-3351.425
 30
3087.619
 70
    32
  0
VERTEX
  8
T21SSILL
 62
7
 10
2183.122
 20
-3343.341
 30
3087.584
 70
    32
  0
VERTEX
  8
T21SSILL
 62
7
 10
2170.043
 20
-3298.708
 30
3087.376
 70
    32
  0
VERTEX
  8
T21SSILL
 62
7
 10
2170.067
 20
-3293.169
 30
3087.367
 70
    32
  0
VERTEX
  8
T21SSILL
 62
7
 10
2171.751
 20
-3290.187
 30
3087.369
 70
    32
  0
VERTEX
  8
T21SSILL
 62
7
 10
2172.387
 20
-3285.354
 30
3087.363
 70
    32
  0
VERTEX
  8
T21SSILL
 62
7
 10
2170.479
 20
-3279.455
 30
3087.346
 70
    32
  0
VERTEX
  8
T21SSILL
 62
7
 10
2167.247
 20
-3274.693
 30
3087.325
 70
    32
  0
VERTEX
  8
T21SSILL
 62
7
 10
2166.106
 20
-3274.161
 30
3087.320
 70
    32
  0
VERTEX
  8
T21SSILL
 62
7
 10
2146.879
 20
-3287.968
 30
3087.265
 70
    32
  0
VERTEX
  8
T21SSILL
 62
7
 10
2145.448
 20
-3293.500
 30
3087.287
 70
    32
  0
VERTEX
  8
T21SSILL
 62
7
 10
2148.418
 20
-3317.955
 30
3087.402
 70
    32
  0
VERTEX
  8
T21SSILL
 62
7
 10
2142.092
 20
-3316.872
 30
3087.385
 70
    32
  0
VERTEX
  8
T21SSILL
 62
7
 10
2140.380
 20
-3306.402
 30
3087.334
 70
    32
  0
VERTEX
  8
T21SSILL
 62
7
 10
2136.632
 20
-3298.913
 30
3087.294
 70
    32
  0
VERTEX
  8
T21SSILL
 62
7
 10
2134.093
 20
-3296.440
 30
3087.277
 70
    32
  0
VERTEX
  8
T21SSILL
 62
7
 10
2120.066
 20
-3307.280
 30
3087.298
 70
    32
  0
VERTEX
  8
T21SSILL
 62
7
 10
2113.788
 20
-3315.517
 30
3087.323
 70
    32
  0
VERTEX
  8
T21SSILL
 62
7
 10
2112.271
 20
-3320.698
 30
3087.343
 70
    32
  0
VERTEX
  8
T21SSILL
 62
7
 10
2113.366
 20
-3331.516
 30
3087.393
 70
    32
  0
VERTEX
  8
T21SSILL
 62
7
 10
2158.276
 20
-3395.368
 30
3087.768
 70
    32
  0
VERTEX
  8
T21SSILL
 62
7
 10
2182.795
 20
-3377.716
 30
3087.737
 70
    32
  0
VERTEX
  8
T21SSILL
 62
7
 10
2178.360
 20
-3366.706
 30
3087.679
 70
    32
  0
VERTEX
  8
T21SSILL
 62
7
 10
2172.336
 20
-3357.009
 30
3087.624
 70
    32
  0
SEQEND
  8
T21SSILL
  0
POLYLINE
  8
T21SSILL
 62
7
 66
     1
 70
     9
  0
VERTEX
  8
T21SSILL
 62
7
 10
2198.005
 20
-3317.909
 30
3087.521
 70
    32
  0
VERTEX
  8
T21SSILL
 62
7
 10
2200.427
 20
-3326.888
 30
3087.546
 70
    32
  0
VERTEX
  8
T21SSILL
 62
7
 10
2204.525
 20
-3334.731
 30
3087.588
 70
    32
  0
VERTEX
  8
T21SSILL
 62
7
 10
2205.381
 20
-3340.010
 30
3087.613
 70
    32
  0
VERTEX
  8
T21SSILL
 62
7
 10
2204.576
 20
-3343.083
 30
3087.626
 70
    32
  0
VERTEX
  8
T21SSILL
 62
7
 10
2213.139
 20
-3355.254
 30
3087.697
 70
    32
  0
VERTEX
  8
T21SSILL
 62
7
 10
2247.981
 20
-3329.383
 30
3087.743
 70
    32
  0
VERTEX
  8
T21SSILL
 62
7
 10
2245.210
 20
-3319.524
 30
3087.715
 70
    32
  0
VERTEX
  8
T21SSILL
 62
7
 10
2199.931
 20
-3299.806
 30
3087.499
 70
    32
  0
VERTEX
  8
T21SSILL
 62
7
 10
2197.677
 20
-3312.457
 30
3087.511
 70
    32
  0
SEQEND
  8
T21SSILL
  0
POLYLINE
  8
T21SSILL
 62
7
 66
     1
 70
     9
  0
VERTEX
  8
T21SSILL
 62
7
 10
2259.860
 20
-3347.107
 30
3087.820
 70
    32
  0
VERTEX
  8
T21SSILL
 62
7
 10
2253.388
 20
-3339.341
 30
3087.781
 70
    32
  0
VERTEX
  8
T21SSILL
 62
7
 10
2250.495
 20
-3337.482
 30
3087.766
 70
    32
  0
VERTEX
  8
T21SSILL
 62
7
 10
2227.473
 20
-3354.350
 30
3087.721
 70
    32
  0
VERTEX
  8
T21SSILL
 62
7
 10
2237.433
 20
-3368.637
 30
3087.805
 70
    32
  0
VERTEX
  8
T21SSILL
 62
7
 10
2261.247
 20
-3351.597
 30
3087.833
 70
    32
  0
SEQEND
  8
T21SSILL
  0
POLYLINE
  8
T21SSILL
 62
7
 66
     1
 70
     9
  0
VERTEX
  8
T21SSILL
 62
7
 10
2239.449
 20
-3290.045
 30
3087.644
 70
    32
  0
VERTEX
  8
T21SSILL
 62
7
 10
2240.814
 20
-3279.677
 30
3087.632
 70
    32
  0
VERTEX
  8
T21SSILL
 62
7
 10
2249.064
 20
-3263.008
 30
3087.638
 70
    32
  0
VERTEX
  8
T21SSILL
 62
7
 10
2250.851
 20
-3256.510
 30
3087.635
 70
    32
  0
VERTEX
  8
T21SSILL
 62
7
 10
2251.876
 20
-3243.238
 30
3087.617
 70
    32
  0
VERTEX
  8
T21SSILL
 62
7
 10
2254.465
 20
-3234.194
 30
3087.613
 70
    32
  0
VERTEX
  8
T21SSILL
 62
7
 10
2254.678
 20
-3225.931
 30
3087.600
 70
    32
  0
VERTEX
  8
T21SSILL
 62
7
 10
2251.986
 20
-3212.909
 30
3087.568
 70
    32
  0
VERTEX
  8
T21SSILL
 62
7
 10
2177.133
 20
-3265.769
 30
3087.351
 70
    32
  0
VERTEX
  8
T21SSILL
 62
7
 10
2174.657
 20
-3269.011
 30
3087.346
 70
    32
  0
VERTEX
  8
T21SSILL
 62
7
 10
2174.106
 20
-3274.284
 30
3087.352
 70
    32
  0
VERTEX
  8
T21SSILL
 62
7
 10
2176.369
 20
-3279.657
 30
3087.370
 70
    32
  0
VERTEX
  8
T21SSILL
 62
7
 10
2181.002
 20
-3285.744
 30
3087.399
 70
    32
  0
VERTEX
  8
T21SSILL
 62
7
 10
2191.656
 20
-3282.010
 30
3087.436
 70
    32
  0
VERTEX
  8
T21SSILL
 62
7
 10
2199.701
 20
-3291.980
 30
3087.485
 70
    32
  0
VERTEX
  8
T21SSILL
 62
7
 10
2239.016
 20
-3308.682
 30
3087.672
 70
    32
  0
VERTEX
  8
T21SSILL
 62
7
 10
2238.896
 20
-3295.845
 30
3087.651
 70
    32
  0
SEQEND
  8
T21SSILL
  0
POLYLINE
  8
T21SSILL
 62
7
 66
     1
 70
     9
  0
VERTEX
  8
T21SSILL
 62
7
 10
2008.198
 20
-3395.148
 30
3087.470
 70
    32
  0
VERTEX
  8
T21SSILL
 62
7
 10
2012.105
 20
-3406.331
 30
3087.528
 70
    32
  0
VERTEX
  8
T21SSILL
 62
7
 10
2020.150
 20
-3416.301
 30
3087.588
 70
    32
  0
VERTEX
  8
T21SSILL
 62
7
 10
2022.094
 20
-3414.024
 30
3087.582
 70
    32
  0
VERTEX
  8
T21SSILL
 62
7
 10
2025.696
 20
-3414.743
 30
3087.592
 70
    32
  0
VERTEX
  8
T21SSILL
 62
7
 10
2026.742
 20
-3416.682
 30
3087.603
 70
    32
  0
VERTEX
  8
T21SSILL
 62
7
 10
2026.427
 20
-3428.462
 30
3087.655
 70
    32
  0
VERTEX
  8
T21SSILL
 62
7
 10
2027.908
 20
-3431.457
 30
3087.672
 70
    32
  0
VERTEX
  8
T21SSILL
 62
7
 10
2042.746
 20
-3456.140
 30
3087.811
 70
    32
  0
VERTEX
  8
T21SSILL
 62
7
 10
2053.151
 20
-3469.110
 30
3087.890
 70
    32
  0
VERTEX
  8
T21SSILL
 62
7
 10
2069.996
 20
-3457.315
 30
3087.871
 70
    32
  0
VERTEX
  8
T21SSILL
 62
7
 10
2037.778
 20
-3366.176
 30
3087.399
 70
    32
  0
VERTEX
  8
T21SSILL
 62
7
 10
2008.945
 20
-3385.216
 30
3087.427
 70
    32
  0
VERTEX
  8
T21SSILL
 62
7
 10
2008.132
 20
-3390.048
 30
3087.447
 70
    32
  0
SEQEND
  8
T21SSILL
  0
POLYLINE
  8
T21SSILL
 62
7
 66
     1
 70
     9
  0
VERTEX
  8
T21SSILL
 62
7
 10
2105.270
 20
-3433.116
 30
3087.832
 70
    32
  0
VERTEX
  8
T21SSILL
 62
7
 10
2104.926
 20
-3431.444
 30
3087.824
 70
    32
  0
VERTEX
  8
T21SSILL
 62
7
 10
2097.470
 20
-3427.455
 30
3087.791
 70
    32
  0
VERTEX
  8
T21SSILL
 62
7
 10
2093.009
 20
-3422.336
 30
3087.760
 70
    32
  0
VERTEX
  8
T21SSILL
 62
7
 10
2077.876
 20
-3384.816
 30
3087.562
 70
    32
  0
VERTEX
  8
T21SSILL
 62
7
 10
2076.150
 20
-3377.511
 30
3087.526
 70
    32
  0
VERTEX
  8
T21SSILL
 62
7
 10
2060.183
 20
-3349.658
 30
3087.369
 70
    32
  0
VERTEX
  8
T21SSILL
 62
7
 10
2042.634
 20
-3361.714
 30
3087.389
 70
    32
  0
VERTEX
  8
T21SSILL
 62
7
 10
2045.316
 20
-3371.573
 30
3087.438
 70
    32
  0
VERTEX
  8
T21SSILL
 62
7
 10
2051.111
 20
-3373.268
 30
3087.457
 70
    32
  0
VERTEX
  8
T21SSILL
 62
7
 10
2054.608
 20
-3377.768
 30
3087.484
 70
    32
  0
VERTEX
  8
T21SSILL
 62
7
 10
2076.311
 20
-3440.726
 30
3087.809
 70
    32
  0
VERTEX
  8
T21SSILL
 62
7
 10
2085.691
 20
-3447.009
 30
3087.855
 70
    32
  0
SEQEND
  8
T21SSILL
  0
POLYLINE
  8
T21SSILL
 62
7
 66
     1
 70
     9
  0
VERTEX
  8
T21SSILL
 62
7
 10
1994.535
 20
-3363.173
 30
3087.300
 70
    32
  0
VERTEX
  8
T21SSILL
 62
7
 10
1976.727
 20
-3354.039
 30
3087.224
 70
    32
  0
VERTEX
  8
T21SSILL
 62
7
 10
1972.263
 20
-3349.623
 30
3087.195
 70
    32
  0
VERTEX
  8
T21SSILL
 62
7
 10
1959.827
 20
-3358.536
 30
3087.211
 70
    32
  0
VERTEX
  8
T21SSILL
 62
7
 10
1962.530
 20
-3363.647
 30
3087.239
 70
    32
  0
VERTEX
  8
T21SSILL
 62
7
 10
2017.105
 20
-3368.899
 30
3087.370
 70
    32
  0
VERTEX
  8
T21SSILL
 62
7
 10
2055.998
 20
-3341.551
 30
3087.325
 70
    32
  0
VERTEX
  8
T21SSILL
 62
7
 10
2034.797
 20
-3304.356
 30
3087.116
 70
    32
  0
VERTEX
  8
T21SSILL
 62
7
 10
2005.512
 20
-3326.031
 30
3087.155
 70
    32
  0
VERTEX
  8
T21SSILL
 62
7
 10
2009.144
 20
-3339.938
 30
3087.225
 70
    32
  0
VERTEX
  8
T21SSILL
 62
7
 10
2013.059
 20
-3349.363
 30
3087.275
 70
    32
  0
VERTEX
  8
T21SSILL
 62
7
 10
2011.905
 20
-3351.907
 30
3087.284
 70
    32
  0
VERTEX
  8
T21SSILL
 62
7
 10
1995.679
 20
-3363.002
 30
3087.301
 70
    32
  0
SEQEND
  8
T21SSILL
  0
POLYLINE
  8
T21SSILL
 62
7
 66
     1
 70
     9
  0
VERTEX
  8
T21SSILL
 62
7
 10
2011.419
 20
-3262.491
 30
3086.883
 70
    32
  0
VERTEX
  8
T21SSILL
 62
7
 10
1965.726
 20
-3296.667
 30
3086.945
 70
    32
  0
VERTEX
  8
T21SSILL
 62
7
 10
1968.611
 20
-3300.372
 30
3086.968
 70
    32
  0
VERTEX
  8
T21SSILL
 62
7
 10
1973.723
 20
-3297.405
 30
3086.964
 70
    32
  0
VERTEX
  8
T21SSILL
 62
7
 10
1985.612
 20
-3312.931
 30
3087.057
 70
    32
  0
VERTEX
  8
T21SSILL
 62
7
 10
1994.829
 20
-3316.225
 30
3087.090
 70
    32
  0
VERTEX
  8
T21SSILL
 62
7
 10
1999.648
 20
-3320.027
 30
3087.117
 70
    32
  0
VERTEX
  8
T21SSILL
 62
7
 10
2031.299
 20
-3297.991
 30
3087.081
 70
    32
  0
VERTEX
  8
T21SSILL
 62
7
 10
2028.779
 20
-3293.251
 30
3087.055
 70
    32
  0
SEQEND
  8
T21SSILL
  0
POLYLINE
  8
T21SSILL
 62
7
 66
     1
 70
     9
  0
VERTEX
  8
T21SSILL
 62
7
 10
1936.660
 20
-3308.672
 30
3086.942
 70
    32
  0
VERTEX
  8
T21SSILL
 62
7
 10
1933.079
 20
-3303.117
 30
3086.910
 70
    32
  0
VERTEX
  8
T21SSILL
 62
7
 10
1943.047
 20
-3295.776
 30
3086.896
 70
    32
  0
VERTEX
  8
T21SSILL
 62
7
 10
1936.667
 20
-3287.044
 30
3086.845
 70
    32
  0
VERTEX
  8
T21SSILL
 62
7
 10
1931.200
 20
-3290.536
 30
3086.850
 70
    32
  0
VERTEX
  8
T21SSILL
 62
7
 10
1919.926
 20
-3275.189
 30
3086.759
 70
    32
  0
VERTEX
  8
T21SSILL
 62
7
 10
1930.686
 20
-3267.587
 30
3086.746
 70
    32
  0
VERTEX
  8
T21SSILL
 62
7
 10
1934.004
 20
-3272.789
 30
3086.776
 70
    32
  0
VERTEX
  8
T21SSILL
 62
7
 10
1939.294
 20
-3269.471
 30
3086.771
 70
    32
  0
VERTEX
  8
T21SSILL
 62
7
 10
1946.195
 20
-3279.612
 30
3086.830
 70
    32
  0
VERTEX
  8
T21SSILL
 62
7
 10
1952.101
 20
-3276.034
 30
3086.826
 70
    32
  0
VERTEX
  8
T21SSILL
 62
7
 10
1961.271
 20
-3289.965
 30
3086.907
 70
    32
  0
VERTEX
  8
T21SSILL
 62
7
 10
2007.578
 20
-3256.056
 30
3086.846
 70
    32
  0
VERTEX
  8
T21SSILL
 62
7
 10
1983.759
 20
-3214.453
 30
3086.613
 70
    32
  0
VERTEX
  8
T21SSILL
 62
7
 10
1907.290
 20
-3269.594
 30
3086.709
 70
    32
  0
VERTEX
  8
T21SSILL
 62
7
 10
1932.164
 20
-3311.290
 30
3086.944
 70
    32
  0
SEQEND
  8
T21SSILL
  0
POLYLINE
  8
T21SSILL
 62
7
 66
     1
 70
     9
  0
VERTEX
  8
T21SSILL
 62
7
 10
1882.244
 20
-3227.107
 30
3086.469
 70
    32
  0
VERTEX
  8
T21SSILL
 62
7
 10
1904.150
 20
-3263.954
 30
3086.677
 70
    32
  0
VERTEX
  8
T21SSILL
 62
7
 10
1981.062
 20
-3208.023
 30
3086.579
 70
    32
  0
VERTEX
  8
T21SSILL
 62
7
 10
1959.682
 20
-3171.530
 30
3086.373
 70
    32
  0
SEQEND
  8
T21SSILL
  0
POLYLINE
  8
T21SSILL
 62
7
 66
     1
 70
     9
  0
VERTEX
  8
T21SSILL
 62
7
 10
2264.746
 20
-3535.628
 30
3088.606
 70
    32
  0
VERTEX
  8
T21SSILL
 62
7
 10
2259.151
 20
-3528.394
 30
3088.563
 70
    32
  0
VERTEX
  8
T21SSILL
 62
7
 10
2257.854
 20
-3523.465
 30
3088.538
 70
    32
  0
VERTEX
  8
T21SSILL
 62
7
 10
2247.889
 20
-3530.103
 30
3088.548
 70
    32
  0
VERTEX
  8
T21SSILL
 62
7
 10
2249.733
 20
-3530.815
 30
3088.555
 70
    32
  0
VERTEX
  8
T21SSILL
 62
7
 10
2246.013
 20
-3537.041
 30
3088.576
 70
    32
  0
VERTEX
  8
T21SSILL
 62
7
 10
2250.480
 20
-3540.841
 30
3088.601
 70
    32
  0
VERTEX
  8
T21SSILL
 62
7
 10
2247.824
 20
-3544.961
 30
3088.615
 70
    32
  0
VERTEX
  8
T21SSILL
 62
7
 10
2253.260
 20
-3548.502
 30
3088.641
 70
    32
  0
VERTEX
  8
T21SSILL
 62
7
 10
2267.953
 20
-3566.063
 30
3088.749
 70
    32
  0
VERTEX
  8
T21SSILL
 62
7
 10
2279.594
 20
-3557.849
 30
3088.735
 70
    32
  0
VERTEX
  8
T21SSILL
 62
7
 10
2268.844
 20
-3543.471
 30
3088.650
 70
    32
  0
VERTEX
  8
T21SSILL
 62
7
 10
2270.874
 20
-3541.546
 30
3088.645
 70
    32
  0
VERTEX
  8
T21SSILL
 62
7
 10
2268.772
 20
-3539.778
 30
3088.633
 70
    32
  0
SEQEND
  8
T21SSILL
  0
POLYLINE
  8
T21SSILL
 62
7
 66
     1
 70
     9
  0
VERTEX
  8
T21SSILL
 62
7
 10
2335.794
 20
-3493.475
 30
3088.558
 70
    32
  0
VERTEX
  8
T21SSILL
 62
7
 10
2314.757
 20
-3479.140
 30
3088.452
 70
    32
  0
VERTEX
  8
T21SSILL
 62
7
 10
2317.792
 20
-3508.606
 30
3088.590
 70
    32
  0
VERTEX
  8
T21SSILL
 62
7
 10
2313.558
 20
-3511.841
 30
3088.596
 70
    32
  0
VERTEX
  8
T21SSILL
 62
7
 10
2323.255
 20
-3526.039
 30
3088.679
 70
    32
  0
VERTEX
  8
T21SSILL
 62
7
 10
2345.040
 20
-3510.309
 30
3088.652
 70
    32
  0
VERTEX
  8
T21SSILL
 62
7
 10
2335.516
 20
-3496.727
 30
3088.572
 70
    32
  0
VERTEX
  8
T21SSILL
 62
7
 10
2339.603
 20
-3493.873
 30
3088.568
 70
    32
  0
SEQEND
  8
T21SSILL
  0
POLYLINE
  8
T21SSILL
 62
7
 66
     1
 70
     9
  0
VERTEX
  8
T21SSILL
 62
7
 10
2359.573
 20
-3509.566
 30
3088.677
 70
    32
  0
VERTEX
  8
T21SSILL
 62
7
 10
2369.147
 20
-3523.612
 30
3088.759
 70
    32
  0
VERTEX
  8
T21SSILL
 62
7
 10
2382.564
 20
-3514.342
 30
3088.744
 70
    32
  0
VERTEX
  8
T21SSILL
 62
7
 10
2380.034
 20
-3509.759
 30
3088.719
 70
    32
  0
VERTEX
  8
T21SSILL
 62
7
 10
2371.633
 20
-3500.930
 30
3088.663
 70
    32
  0
VERTEX
  8
T21SSILL
 62
7
 10
2359.463
 20
-3509.405
 30
3088.676
 70
    32
  0
SEQEND
  8
T21SSILL
  0
POLYLINE
  8
T21SSILL
 62
7
 66
     1
 70
     9
  0
VERTEX
  8
T21SSILL
 62
7
 10
2231.686
 20
-3533.040
 30
3088.529
 70
    32
  0
VERTEX
  8
T21SSILL
 62
7
 10
2230.173
 20
-3535.337
 30
3088.537
 70
    32
  0
VERTEX
  8
T21SSILL
 62
7
 10
2224.907
 20
-3538.179
 30
3088.539
 70
    32
  0
VERTEX
  8
T21SSILL
 62
7
 10
2217.959
 20
-3538.588
 30
3088.527
 70
    32
  0
VERTEX
  8
T21SSILL
 62
7
 10
2183.465
 20
-3465.463
 30
3088.132
 70
    32
  0
VERTEX
  8
T21SSILL
 62
7
 10
2166.634
 20
-3454.135
 30
3088.048
 70
    32
  0
VERTEX
  8
T21SSILL
 62
7
 10
2169.113
 20
-3450.102
 30
3088.034
 70
    32
  0
VERTEX
  8
T21SSILL
 62
7
 10
2162.970
 20
-3447.525
 30
3088.011
 70
    32
  0
VERTEX
  8
T21SSILL
 62
7
 10
2161.025
 20
-3449.978
 30
3088.018
 70
    32
  0
VERTEX
  8
T21SSILL
 62
7
 10
2154.978
 20
-3445.570
 30
3087.986
 70
    32
  0
VERTEX
  8
T21SSILL
 62
7
 10
2155.120
 20
-3413.290
 30
3087.842
 70
    32
  0
VERTEX
  8
T21SSILL
 62
7
 10
2159.092
 20
-3409.702
 30
3087.834
 70
    32
  0
VERTEX
  8
T21SSILL
 62
7
 10
2156.210
 20
-3405.294
 30
3087.808
 70
    32
  0
VERTEX
  8
T21SSILL
 62
7
 10
2185.136
 20
-3385.375
 30
3087.776
 70
    32
  0
VERTEX
  8
T21SSILL
 62
7
 10
2191.365
 20
-3388.392
 30
3087.802
 70
    32
  0
VERTEX
  8
T21SSILL
 62
7
 10
2194.941
 20
-3394.738
 30
3087.838
 70
    32
  0
VERTEX
  8
T21SSILL
 62
7
 10
2195.107
 20
-3397.024
 30
3087.848
 70
    32
  0
VERTEX
  8
T21SSILL
 62
7
 10
2185.850
 20
-3402.874
 30
3087.856
 70
    32
  0
VERTEX
  8
T21SSILL
 62
7
 10
2183.283
 20
-3406.819
 30
3087.869
 70
    32
  0
VERTEX
  8
T21SSILL
 62
7
 10
2183.962
 20
-3412.273
 30
3087.894
 70
    32
  0
VERTEX
  8
T21SSILL
 62
7
 10
2191.371
 20
-3426.989
 30
3087.975
 70
    32
  0
VERTEX
  8
T21SSILL
 62
7
 10
2192.708
 20
-3442.732
 30
3088.048
 70
    32
  0
VERTEX
  8
T21SSILL
 62
7
 10
2195.843
 20
-3449.604
 30
3088.085
 70
    32
  0
VERTEX
  8
T21SSILL
 62
7
 10
2206.074
 20
-3462.221
 30
3088.162
 70
    32
  0
VERTEX
  8
T21SSILL
 62
7
 10
2219.391
 20
-3453.048
 30
3088.147
 70
    32
  0
VERTEX
  8
T21SSILL
 62
7
 10
2235.246
 20
-3466.218
 30
3088.237
 70
    32
  0
VERTEX
  8
T21SSILL
 62
7
 10
2227.664
 20
-3470.932
 30
3088.243
 70
    32
  0
VERTEX
  8
T21SSILL
 62
7
 10
2225.231
 20
-3464.503
 30
3088.210
 70
    32
  0
VERTEX
  8
T21SSILL
 62
7
 10
2214.221
 20
-3468.939
 30
3088.208
 70
    32
  0
VERTEX
  8
T21SSILL
 62
7
 10
2216.214
 20
-3475.542
 30
3088.241
 70
    32
  0
VERTEX
  8
T21SSILL
 62
7
 10
2210.492
 20
-3477.363
 30
3088.238
 70
    32
  0
VERTEX
  8
T21SSILL
 62
7
 10
2214.660
 20
-3489.162
 30
3088.299
 70
    32
  0
VERTEX
  8
T21SSILL
 62
7
 10
2209.817
 20
-3490.724
 30
3088.297
 70
    32
  0
VERTEX
  8
T21SSILL
 62
7
 10
2215.895
 20
-3508.158
 30
3088.387
 70
    32
  0
VERTEX
  8
T21SSILL
 62
7
 10
2223.514
 20
-3516.681
 30
3088.440
 70
    32
  0
VERTEX
  8
T21SSILL
 62
7
 10
2225.488
 20
-3532.346
 30
3088.514
 70
    32
  0
SEQEND
  8
T21SSILL
  0
POLYLINE
  8
T21SSILL
 62
7
 66
     1
 70
     9
  0
VERTEX
  8
T21SSILL
 62
7
 10
2242.995
 20
-3462.203
 30
3088.235
 70
    32
  0
VERTEX
  8
T21SSILL
 62
7
 10
2247.410
 20
-3459.238
 30
3088.230
 70
    32
  0
VERTEX
  8
T21SSILL
 62
7
 10
2244.265
 20
-3454.564
 30
3088.203
 70
    32
  0
VERTEX
  8
T21SSILL
 62
7
 10
2249.466
 20
-3451.422
 30
3088.199
 70
    32
  0
VERTEX
  8
T21SSILL
 62
7
 10
2245.971
 20
-3446.483
 30
3088.170
 70
    32
  0
VERTEX
  8
T21SSILL
 62
7
 10
2248.407
 20
-3444.814
 30
3088.168
 70
    32
  0
VERTEX
  8
T21SSILL
 62
7
 10
2245.660
 20
-3437.250
 30
3088.128
 70
    32
  0
VERTEX
  8
T21SSILL
 62
7
 10
2256.860
 20
-3429.475
 30
3088.116
 70
    32
  0
VERTEX
  8
T21SSILL
 62
7
 10
2256.354
 20
-3424.549
 30
3088.093
 70
    32
  0
VERTEX
  8
T21SSILL
 62
7
 10
2251.369
 20
-3418.548
 30
3088.056
 70
    32
  0
VERTEX
  8
T21SSILL
 62
7
 10
2243.553
 20
-3416.580
 30
3088.032
 70
    32
  0
VERTEX
  8
T21SSILL
 62
7
 10
2239.418
 20
-3417.177
 30
3088.026
 70
    32
  0
VERTEX
  8
T21SSILL
 62
7
 10
2233.498
 20
-3403.787
 30
3087.954
 70
    32
  0
VERTEX
  8
T21SSILL
 62
7
 10
2227.777
 20
-3385.211
 30
3087.860
 70
    32
  0
VERTEX
  8
T21SSILL
 62
7
 10
2228.440
 20
-3374.576
 30
3087.814
 70
    32
  0
VERTEX
  8
T21SSILL
 62
7
 10
2232.331
 20
-3372.883
 30
3087.814
 70
    32
  0
VERTEX
  8
T21SSILL
 62
7
 10
2222.622
 20
-3357.845
 30
3087.727
 70
    32
  0
VERTEX
  8
T21SSILL
 62
7
 10
2212.657
 20
-3364.747
 30
3087.739
 70
    32
  0
VERTEX
  8
T21SSILL
 62
7
 10
2215.363
 20
-3369.155
 30
3087.764
 70
    32
  0
VERTEX
  8
T21SSILL
 62
7
 10
2210.953
 20
-3372.389
 30
3087.769
 70
    32
  0
VERTEX
  8
T21SSILL
 62
7
 10
2217.943
 20
-3382.266
 30
3087.827
 70
    32
  0
VERTEX
  8
T21SSILL
 62
7
 10
2213.975
 20
-3384.974
 30
3087.832
 70
    32
  0
VERTEX
  8
T21SSILL
 62
7
 10
2219.761
 20
-3388.692
 30
3087.860
 70
    32
  0
VERTEX
  8
T21SSILL
 62
7
 10
2230.337
 20
-3423.028
 30
3088.034
 70
    32
  0
VERTEX
  8
T21SSILL
 62
7
 10
2228.473
 20
-3426.888
 30
3088.048
 70
    32
  0
VERTEX
  8
T21SSILL
 62
7
 10
2225.214
 20
-3428.368
 30
3088.048
 70
    32
  0
VERTEX
  8
T21SSILL
 62
7
 10
2222.914
 20
-3431.523
 30
3088.058
 70
    32
  0
VERTEX
  8
T21SSILL
 62
7
 10
2222.866
 20
-3442.513
 30
3088.107
 70
    32
  0
VERTEX
  8
T21SSILL
 62
7
 10
2225.304
 20
-3447.799
 30
3088.135
 70
    32
  0
VERTEX
  8
T21SSILL
 62
7
 10
2243.001
 20
-3462.208
 30
3088.235
 70
    32
  0
SEQEND
  8
T21SSILL
  0
POLYLINE
  8
T21SSILL
 62
7
 66
     1
 70
     9
  0
VERTEX
  8
T21SSILL
 62
7
 10
2200.076
 20
-3386.760
 30
3087.812
 70
    32
  0
VERTEX
  8
T21SSILL
 62
7
 10
2195.795
 20
-3380.586
 30
3087.776
 70
    32
  0
VERTEX
  8
T21SSILL
 62
7
 10
2195.542
 20
-3378.036
 30
3087.764
 70
    32
  0
VERTEX
  8
T21SSILL
 62
7
 10
2197.796
 20
-3375.899
 30
3087.759
 70
    32
  0
VERTEX
  8
T21SSILL
 62
7
 10
2206.472
 20
-3388.377
 30
3087.832
 70
    32
  0
VERTEX
  8
T21SSILL
 62
7
 10
2203.146
 20
-3388.268
 30
3087.825
 70
    32
  0
SEQEND
  8
T21SSILL
  0
POLYLINE
  8
T21SSILL
 62
7
 66
     1
 70
     9
  0
VERTEX
  8
T21SSILL
 62
7
 10
2185.579
 20
-3364.540
 30
3087.684
 70
    32
  0
VERTEX
  8
T21SSILL
 62
7
 10
2181.995
 20
-3359.689
 30
3087.655
 70
    32
  0
VERTEX
  8
T21SSILL
 62
7
 10
2184.826
 20
-3357.241
 30
3087.650
 70
    32
  0
VERTEX
  8
T21SSILL
 62
7
 10
2192.415
 20
-3368.158
 30
3087.714
 70
    32
  0
VERTEX
  8
T21SSILL
 62
7
 10
2188.207
 20
-3366.574
 30
3087.698
 70
    32
  0
SEQEND
  8
T21SSILL
  0
POLYLINE
  8
T21SSILL
 62
7
 66
     1
 70
     9
  0
VERTEX
  8
T21SSILL
 62
7
 10
2276.067
 20
-3320.363
 30
3087.842
 70
    32
  0
VERTEX
  8
T21SSILL
 62
7
 10
2279.038
 20
-3324.420
 30
3087.861
 70
    32
  0
VERTEX
  8
T21SSILL
 62
7
 10
2267.840
 20
-3331.844
 30
3087.827
 70
    32
  0
VERTEX
  8
T21SSILL
 62
7
 10
2265.398
 20
-3327.173
 30
3087.810
 70
    32
  0
VERTEX
  8
T21SSILL
 62
7
 10
2259.840
 20
-3331.545
 30
3087.794
 70
    32
  0
VERTEX
  8
T21SSILL
 62
7
 10
2261.656
 20
-3338.586
 30
3087.813
 70
    32
  0
VERTEX
  8
T21SSILL
 62
7
 10
2268.478
 20
-3346.617
 30
3087.854
 70
    32
  0
VERTEX
  8
T21SSILL
 62
7
 10
2323.160
 20
-3307.645
 30
3088.012
 70
    32
  0
VERTEX
  8
T21SSILL
 62
7
 10
2318.581
 20
-3289.162
 30
3087.963
 70
    32
  0
SEQEND
  8
T21SSILL
  0
POLYLINE
  8
T21SSILL
 62
7
 66
     1
 70
     9
  0
VERTEX
  8
T21SSILL
 62
7
 10
2292.811
 20
-3291.423
 30
3087.862
 70
    32
  0
VERTEX
  8
T21SSILL
 62
7
 10
2281.280
 20
-3294.361
 30
3087.820
 70
    32
  0
VERTEX
  8
T21SSILL
 62
7
 10
2268.638
 20
-3299.964
 30
3087.778
 70
    32
  0
VERTEX
  8
T21SSILL
 62
7
 10
2275.812
 20
-3310.073
 30
3087.824
 70
    32
  0
VERTEX
  8
T21SSILL
 62
7
 10
2299.483
 20
-3293.650
 30
3087.893
 70
    32
  0
VERTEX
  8
T21SSILL
 62
7
 10
2295.798
 20
-3291.875
 30
3087.875
 70
    32
  0
SEQEND
  8
T21SSILL
  0
POLYLINE
  8
T21SSILL
 62
7
 66
     1
 70
     9
  0
VERTEX
  8
T21SSILL
 62
7
 10
2240.501
 20
-3470.813
 30
3088.268
 70
    32
  0
VERTEX
  8
T21SSILL
 62
7
 10
2251.978
 20
-3480.007
 30
3088.332
 70
    32
  0
VERTEX
  8
T21SSILL
 62
7
 10
2257.690
 20
-3500.605
 30
3088.436
 70
    32
  0
VERTEX
  8
T21SSILL
 62
7
 10
2258.427
 20
-3512.917
 30
3088.492
 70
    32
  0
VERTEX
  8
T21SSILL
 62
7
 10
2257.716
 20
-3514.673
 30
3088.499
 70
    32
  0
VERTEX
  8
T21SSILL
 62
7
 10
2241.228
 20
-3525.414
 30
3088.514
 70
    32
  0
VERTEX
  8
T21SSILL
 62
7
 10
2236.368
 20
-3521.707
 30
3088.488
 70
    32
  0
VERTEX
  8
T21SSILL
 62
7
 10
2239.724
 20
-3507.560
 30
3088.431
 70
    32
  0
VERTEX
  8
T21SSILL
 62
7
 10
2241.752
 20
-3506.338
 30
3088.430
 70
    32
  0
VERTEX
  8
T21SSILL
 62
7
 10
2230.011
 20
-3477.097
 30
3088.276
 70
    32
  0
SEQEND
  8
T21SSILL
  0
POLYLINE
  8
T21SSILL
 62
7
 66
     1
 70
     9
  0
VERTEX
  8
T21SSILL
 62
7
 10
2213.095
 20
-3225.044
 30
3087.430
 70
    32
  0
VERTEX
  8
T21SSILL
 62
7
 10
2208.921
 20
-3234.609
 30
3087.429
 70
    32
  0
VERTEX
  8
T21SSILL
 62
7
 10
2168.352
 20
-3263.181
 30
3087.311
 70
    32
  0
VERTEX
  8
T21SSILL
 62
7
 10
2165.987
 20
-3261.236
 30
3087.298
 70
    32
  0
VERTEX
  8
T21SSILL
 62
7
 10
2163.208
 20
-3253.487
 30
3087.274
 70
    32
  0
VERTEX
  8
T21SSILL
 62
7
 10
2161.844
 20
-3243.722
 30
3087.252
 70
    32
  0
VERTEX
  8
T21SSILL
 62
7
 10
2126.230
 20
-3173.170
 30
3086.992
 70
    32
  0
VERTEX
  8
T21SSILL
 62
7
 10
2144.434
 20
-3162.068
 30
3087.048
 70
    32
  0
VERTEX
  8
T21SSILL
 62
7
 10
2152.081
 20
-3152.725
 30
3087.063
 70
    32
  0
VERTEX
  8
T21SSILL
 62
7
 10
2154.185
 20
-3148.800
 30
3087.065
 70
    32
  0
VERTEX
  8
T21SSILL
 62
7
 10
2159.088
 20
-3129.349
 30
3087.053
 70
    32
  0
VERTEX
  8
T21SSILL
 62
7
 10
2160.738
 20
-3127.658
 30
3087.057
 70
    32
  0
VERTEX
  8
T21SSILL
 62
7
 10
2213.636
 20
-3222.145
 30
3087.427
 70
    32
  0
SEQEND
  8
T21SSILL
  0
POLYLINE
  8
T21SSILL
 62
7
 66
     1
 70
     9
  0
VERTEX
  8
T21SSILL
 62
7
 10
2140.704
 20
-3278.107
 30
3087.223
 70
    32
  0
VERTEX
  8
T21SSILL
 62
7
 10
2150.401
 20
-3275.342
 30
3087.258
 70
    32
  0
VERTEX
  8
T21SSILL
 62
7
 10
2159.802
 20
-3268.330
 30
3087.284
 70
    32
  0
VERTEX
  8
T21SSILL
 62
7
 10
2159.908
 20
-3264.023
 30
3087.278
 70
    32
  0
VERTEX
  8
T21SSILL
 62
7
 10
2155.296
 20
-3253.188
 30
3087.241
 70
    32
  0
VERTEX
  8
T21SSILL
 62
7
 10
2155.317
 20
-3248.529
 30
3087.234
 70
    32
  0
VERTEX
  8
T21SSILL
 62
7
 10
2153.839
 20
-3244.654
 30
3087.221
 70
    32
  0
VERTEX
  8
T21SSILL
 62
7
 10
2122.506
 20
-3181.288
 30
3086.990
 70
    32
  0
VERTEX
  8
T21SSILL
 62
7
 10
2116.794
 20
-3185.467
 30
3086.974
 70
    32
  0
VERTEX
  8
T21SSILL
 62
7
 10
2121.362
 20
-3198.981
 30
3087.014
 70
    32
  0
VERTEX
  8
T21SSILL
 62
7
 10
2124.152
 20
-3218.546
 30
3087.058
 70
    32
  0
VERTEX
  8
T21SSILL
 62
7
 10
2138.686
 20
-3249.744
 30
3087.168
 70
    32
  0
VERTEX
  8
T21SSILL
 62
7
 10
2134.717
 20
-3250.053
 30
3087.153
 70
    32
  0
VERTEX
  8
T21SSILL
 62
7
 10
2130.933
 20
-3269.702
 30
3087.169
 70
    32
  0
VERTEX
  8
T21SSILL
 62
7
 10
2132.340
 20
-3276.892
 30
3087.187
 70
    32
  0
VERTEX
  8
T21SSILL
 62
7
 10
2134.823
 20
-3278.707
 30
3087.200
 70
    32
  0
VERTEX
  8
T21SSILL
 62
7
 10
2138.078
 20
-3278.930
 30
3087.214
 70
    32
  0
SEQEND
  8
T21SSILL
  0
POLYLINE
  8
T21SSILL
 62
7
 66
     1
 70
     9
  0
VERTEX
  8
T21SSILL
 62
7
 10
-2057.492
 20
482.924
 30
3078.792
 70
    32
  0
VERTEX
  8
T21SSILL
 62
7
 10
-2045.054
 20
490.454
 30
3078.810
 70
    32
  0
VERTEX
  8
T21SSILL
 62
7
 10
-2040.646
 20
490.750
 30
3078.787
 70
    32
  0
VERTEX
  8
T21SSILL
 62
7
 10
-2032.217
 20
484.845
 30
3078.667
 70
    32
  0
VERTEX
  8
T21SSILL
 62
7
 10
-2036.797
 20
479.276
 30
3078.627
 70
    32
  0
VERTEX
  8
T21SSILL
 62
7
 10
-2049.652
 20
469.737
 30
3078.589
 70
    32
  0
VERTEX
  8
T21SSILL
 62
7
 10
-2051.539
 20
466.913
 30
3078.566
 70
    32
  0
VERTEX
  8
T21SSILL
 62
7
 10
-2067.731
 20
461.370
 30
3078.595
 70
    32
  0
VERTEX
  8
T21SSILL
 62
7
 10
-2071.038
 20
466.246
 30
3078.672
 70
    32
  0
VERTEX
  8
T21SSILL
 62
7
 10
-2079.417
 20
474.225
 30
3078.817
 70
    32
  0
VERTEX
  8
T21SSILL
 62
7
 10
-2081.392
 20
481.644
 30
3078.917
 70
    32
  0
VERTEX
  8
T21SSILL
 62
7
 10
-2063.335
 20
486.669
 30
3078.872
 70
    32
  0
VERTEX
  8
T21SSILL
 62
7
 10
-2059.099
 20
483.839
 30
3078.813
 70
    32
  0
SEQEND
  8
T21SSILL
  0
POLYLINE
  8
T21SSILL
 62
7
 66
     1
 70
     9
  0
VERTEX
  8
T21SSILL
 62
7
 10
-1027.010
 20
-1003.776
 30
3085.246
 70
    32
  0
VERTEX
  8
T21SSILL
 62
7
 10
-1036.515
 20
-1010.210
 30
3085.346
 70
    32
  0
VERTEX
  8
T21SSILL
 62
7
 10
-1042.030
 20
-1010.962
 30
3085.367
 70
    32
  0
VERTEX
  8
T21SSILL
 62
7
 10
-1054.985
 20
-995.338
 30
3085.208
 70
    32
  0
VERTEX
  8
T21SSILL
 62
7
 10
-1051.742
 20
-981.814
 30
3085.037
 70
    32
  0
VERTEX
  8
T21SSILL
 62
7
 10
-1046.083
 20
-971.769
 30
3084.903
 70
    32
  0
VERTEX
  8
T21SSILL
 62
7
 10
-1037.293
 20
-961.094
 30
3084.754
 70
    32
  0
VERTEX
  8
T21SSILL
 62
7
 10
-1053.783
 20
-925.343
 30
3084.360
 70
    32
  0
VERTEX
  8
T21SSILL
 62
7
 10
-1060.215
 20
-913.887
 30
3084.237
 70
    32
  0
VERTEX
  8
T21SSILL
 62
7
 10
-1066.298
 20
-913.743
 30
3084.249
 70
    32
  0
VERTEX
  8
T21SSILL
 62
7
 10
-1075.924
 20
-917.391
 30
3084.315
 70
    32
  0
VERTEX
  8
T21SSILL
 62
7
 10
-1080.592
 20
-921.595
 30
3084.376
 70
    32
  0
VERTEX
  8
T21SSILL
 62
7
 10
-1102.427
 20
-927.089
 30
3084.492
 70
    32
  0
VERTEX
  8
T21SSILL
 62
7
 10
-1105.149
 20
-925.834
 30
3084.483
 70
    32
  0
VERTEX
  8
T21SSILL
 62
7
 10
-1107.120
 20
-923.235
 30
3084.456
 70
    32
  0
VERTEX
  8
T21SSILL
 62
7
 10
-1113.639
 20
-907.489
 30
3084.281
 70
    32
  0
VERTEX
  8
T21SSILL
 62
7
 10
-1075.801
 20
-890.854
 30
3083.994
 70
    32
  0
VERTEX
  8
T21SSILL
 62
7
 10
-1072.821
 20
-884.279
 30
3083.908
 70
    32
  0
VERTEX
  8
T21SSILL
 62
7
 10
-1092.421
 20
-843.397
 30
3083.459
 70
    32
  0
VERTEX
  8
T21SSILL
 62
7
 10
-1210.976
 20
-929.413
 30
3084.768
 70
    32
  0
VERTEX
  8
T21SSILL
 62
7
 10
-1217.495
 20
-937.012
 30
3084.874
 70
    32
  0
VERTEX
  8
T21SSILL
 62
7
 10
-1219.395
 20
-944.427
 30
3084.968
 70
    32
  0
VERTEX
  8
T21SSILL
 62
7
 10
-1220.600
 20
-949.988
 30
3085.038
 70
    32
  0
VERTEX
  8
T21SSILL
 62
7
 10
-1218.335
 20
-961.437
 30
3085.171
 70
    32
  0
VERTEX
  8
T21SSILL
 62
7
 10
-1215.233
 20
-967.715
 30
3085.240
 70
    32
  0
VERTEX
  8
T21SSILL
 62
7
 10
-1118.136
 20
-1102.756
 30
3085.218
 70
    32
  0
VERTEX
  8
T21SSILL
 62
7
 10
-1114.060
 20
-1090.039
 30
3085.270
 70
    32
  0
VERTEX
  8
T21SSILL
 62
7
 10
-1107.308
 20
-1079.829
 30
3085.323
 70
    32
  0
VERTEX
  8
T21SSILL
 62
7
 10
-1101.355
 20
-1075.424
 30
3085.355
 70
    32
  0
VERTEX
  8
T21SSILL
 62
7
 10
-1095.600
 20
-1060.106
 30
3085.421
 70
    32
  0
VERTEX
  8
T21SSILL
 62
7
 10
-1061.267
 20
-1037.389
 30
3085.601
 70
    32
  0
VERTEX
  8
T21SSILL
 62
7
 10
-1055.155
 20
-1042.823
 30
3085.604
 70
    32
  0
VERTEX
  8
T21SSILL
 62
7
 10
-1038.575
 20
-1030.692
 30
3085.598
 70
    32
  0
VERTEX
  8
T21SSILL
 62
7
 10
-1037.380
 20
-1026.577
 30
3085.545
 70
    32
  0
VERTEX
  8
T21SSILL
 62
7
 10
-1026.145
 20
-1017.172
 30
3085.406
 70
    32
  0
VERTEX
  8
T21SSILL
 62
7
 10
-1024.169
 20
-1014.235
 30
3085.366
 70
    32
  0
VERTEX
  8
T21SSILL
 62
7
 10
-1023.761
 20
-1011.270
 30
3085.329
 70
    32
  0
VERTEX
  8
T21SSILL
 62
7
 10
-1025.596
 20
-1007.683
 30
3085.290
 70
    32
  0
SEQEND
  8
T21SSILL
  0
POLYLINE
  8
T21SSILL
 62
7
 66
     1
 70
     9
  0
VERTEX
  8
T21SSILL
 62
7
 10
-1030.228
 20
-1310.155
 30
3084.981
 70
    32
  0
VERTEX
  8
T21SSILL
 62
7
 10
-1020.468
 20
-1331.632
 30
3084.959
 70
    32
  0
VERTEX
  8
T21SSILL
 62
7
 10
-1016.691
 20
-1335.738
 30
3084.957
 70
    32
  0
VERTEX
  8
T21SSILL
 62
7
 10
-1008.995
 20
-1340.634
 30
3084.958
 70
    32
  0
VERTEX
  8
T21SSILL
 62
7
 10
-999.390
 20
-1343.087
 30
3084.966
 70
    32
  0
VERTEX
  8
T21SSILL
 62
7
 10
-992.563
 20
-1346.982
 30
3084.967
 70
    32
  0
VERTEX
  8
T21SSILL
 62
7
 10
-983.817
 20
-1346.989
 30
3084.978
 70
    32
  0
VERTEX
  8
T21SSILL
 62
7
 10
-967.370
 20
-1336.286
 30
3085.015
 70
    32
  0
VERTEX
  8
T21SSILL
 62
7
 10
-964.757
 20
-1323.683
 30
3085.038
 70
    32
  0
VERTEX
  8
T21SSILL
 62
7
 10
-1159.788
 20
-1055.564
 30
3085.235
 70
    32
  0
VERTEX
  8
T21SSILL
 62
7
 10
-1186.294
 20
-1071.239
 30
3085.178
 70
    32
  0
VERTEX
  8
T21SSILL
 62
7
 10
-1056.046
 20
-1282.821
 30
3084.994
 70
    32
  0
VERTEX
  8
T21SSILL
 62
7
 10
-1051.333
 20
-1283.784
 30
3084.998
 70
    32
  0
VERTEX
  8
T21SSILL
 62
7
 10
-1042.577
 20
-1292.412
 30
3084.995
 70
    32
  0
SEQEND
  8
T21SSILL
  0
POLYLINE
  8
T21SSILL
 62
7
 66
     1
 70
     9
  0
VERTEX
  8
T21SSILL
 62
7
 10
-1178.723
 20
-1042.705
 30
3085.232
 70
    32
  0
VERTEX
  8
T21SSILL
 62
7
 10
-1167.356
 20
-1051.566
 30
3085.232
 70
    32
  0
VERTEX
  8
T21SSILL
 62
7
 10
-1165.465
 20
-1052.456
 30
3085.233
 70
    32
  0
VERTEX
  8
T21SSILL
 62
7
 10
-1163.251
 20
-1050.998
 30
3085.238
 70
    32
  0
VERTEX
  8
T21SSILL
 62
7
 10
-1206.538
 20
-991.437
 30
3085.281
 70
    32
  0
VERTEX
  8
T21SSILL
 62
7
 10
-1211.963
 20
-1022.217
 30
3085.033
 70
    32
  0
VERTEX
  8
T21SSILL
 62
7
 10
-1209.853
 20
-1031.128
 30
3085.019
 70
    32
  0
VERTEX
  8
T21SSILL
 62
7
 10
-1205.858
 20
-1039.605
 30
3085.057
 70
    32
  0
VERTEX
  8
T21SSILL
 62
7
 10
-1199.122
 20
-1049.655
 30
3085.154
 70
    32
  0
VERTEX
  8
T21SSILL
 62
7
 10
-1181.251
 20
-1041.414
 30
3085.232
 70
    32
  0
SEQEND
  8
T21SSILL
  0
POLYLINE
  8
T21SSILL
 62
7
 66
     1
 70
     9
  0
VERTEX
  8
T21SSILL
 62
7
 10
-1208.986
 20
-1058.242
 30
3084.834
 70
    32
  0
VERTEX
  8
T21SSILL
 62
7
 10
-1207.832
 20
-1053.052
 30
3084.903
 70
    32
  0
VERTEX
  8
T21SSILL
 62
7
 10
-1215.057
 20
-1040.606
 30
3084.812
 70
    32
  0
VERTEX
  8
T21SSILL
 62
7
 10
-1217.297
 20
-1040.424
 30
3084.755
 70
    32
  0
VERTEX
  8
T21SSILL
 62
7
 10
-1219.300
 20
-1038.513
 30
3084.718
 70
    32
  0
VERTEX
  8
T21SSILL
 62
7
 10
-1221.718
 20
-1031.385
 30
3084.710
 70
    32
  0
VERTEX
  8
T21SSILL
 62
7
 10
-1217.292
 20
-1011.543
 30
3084.977
 70
    32
  0
VERTEX
  8
T21SSILL
 62
7
 10
-1223.194
 20
-1009.158
 30
3084.843
 70
    32
  0
VERTEX
  8
T21SSILL
 62
7
 10
-1252.954
 20
-1046.221
 30
3083.790
 70
    32
  0
VERTEX
  8
T21SSILL
 62
7
 10
-1238.877
 20
-1067.411
 30
3083.991
 70
    32
  0
VERTEX
  8
T21SSILL
 62
7
 10
-1215.248
 20
-1067.638
 30
3084.600
 70
    32
  0
VERTEX
  8
T21SSILL
 62
7
 10
-1209.410
 20
-1061.330
 30
3084.799
 70
    32
  0
SEQEND
  8
T21SSILL
  0
POLYLINE
  8
T21SSILL
 62
7
 66
     1
 70
     9
  0
VERTEX
  8
T21SSILL
 62
7
 10
-1195.845
 20
-1078.925
 30
3085.015
 70
    32
  0
VERTEX
  8
T21SSILL
 62
7
 10
-1197.868
 20
-1079.905
 30
3084.955
 70
    32
  0
VERTEX
  8
T21SSILL
 62
7
 10
-1200.563
 20
-1077.081
 30
3084.907
 70
    32
  0
VERTEX
  8
T21SSILL
 62
7
 10
-1232.850
 20
-1076.671
 30
3084.076
 70
    32
  0
VERTEX
  8
T21SSILL
 62
7
 10
-1219.438
 20
-1098.587
 30
3084.255
 70
    32
  0
VERTEX
  8
T21SSILL
 62
7
 10
-1180.772
 20
-1098.364
 30
3085.141
 70
    32
  0
VERTEX
  8
T21SSILL
 62
7
 10
-1194.181
 20
-1076.888
 30
3085.073
 70
    32
  0
SEQEND
  8
T21SSILL
  0
POLYLINE
  8
T21SSILL
 62
7
 66
     1
 70
     9
  0
VERTEX
  8
T21SSILL
 62
7
 10
-1174.496
 20
-1108.098
 30
3085.133
 70
    32
  0
VERTEX
  8
T21SSILL
 62
7
 10
-1213.007
 20
-1107.651
 30
3084.351
 70
    32
  0
VERTEX
  8
T21SSILL
 62
7
 10
-1199.475
 20
-1129.143
 30
3084.536
 70
    32
  0
VERTEX
  8
T21SSILL
 62
7
 10
-1161.547
 20
-1129.259
 30
3085.114
 70
    32
  0
SEQEND
  8
T21SSILL
  0
POLYLINE
  8
T21SSILL
 62
7
 66
     1
 70
     9
  0
VERTEX
  8
T21SSILL
 62
7
 10
-1193.554
 20
-1138.263
 30
3084.619
 70
    32
  0
VERTEX
  8
T21SSILL
 62
7
 10
-1180.446
 20
-1159.634
 30
3084.794
 70
    32
  0
VERTEX
  8
T21SSILL
 62
7
 10
-1142.905
 20
-1159.822
 30
3085.087
 70
    32
  0
VERTEX
  8
T21SSILL
 62
7
 10
-1155.786
 20
-1138.168
 30
3085.107
 70
    32
  0
VERTEX
  8
T21SSILL
 62
7
 10
-1175.629
 20
-1138.218
 30
3085.083
 70
    32
  0
SEQEND
  8
T21SSILL
  0
POLYLINE
  8
T21SSILL
 62
7
 66
     1
 70
     9
  0
VERTEX
  8
T21SSILL
 62
7
 10
-1125.794
 20
-1187.784
 30
3085.063
 70
    32
  0
VERTEX
  8
T21SSILL
 62
7
 10
-1128.778
 20
-1190.269
 30
3085.056
 70
    32
  0
VERTEX
  8
T21SSILL
 62
7
 10
-1160.978
 20
-1189.682
 30
3085.018
 70
    32
  0
VERTEX
  8
T21SSILL
 62
7
 10
-1173.927
 20
-1168.521
 30
3084.895
 70
    32
  0
VERTEX
  8
T21SSILL
 62
7
 10
-1137.305
 20
-1168.520
 30
3085.080
 70
    32
  0
SEQEND
  8
T21SSILL
  0
POLYLINE
  8
T21SSILL
 62
7
 66
     1
 70
     9
  0
VERTEX
  8
T21SSILL
 62
7
 10
-1065.757
 20
-1306.782
 30
3084.944
 70
    32
  0
VERTEX
  8
T21SSILL
 62
7
 10
-1067.465
 20
-1294.026
 30
3084.963
 70
    32
  0
VERTEX
  8
T21SSILL
 62
7
 10
-1066.391
 20
-1287.126
 30
3084.975
 70
    32
  0
VERTEX
  8
T21SSILL
 62
7
 10
-1099.385
 20
-1286.367
 30
3084.937
 70
    32
  0
VERTEX
  8
T21SSILL
 62
7
 10
-1083.182
 20
-1312.694
 30
3084.914
 70
    32
  0
VERTEX
  8
T21SSILL
 62
7
 10
-1064.508
 20
-1312.806
 30
3084.936
 70
    32
  0
SEQEND
  8
T21SSILL
  0
POLYLINE
  8
T21SSILL
 62
7
 66
     1
 70
     9
  0
VERTEX
  8
T21SSILL
 62
7
 10
-1024.825
 20
-1371.116
 30
3084.890
 70
    32
  0
VERTEX
  8
T21SSILL
 62
7
 10
-1027.633
 20
-1363.620
 30
3084.899
 70
    32
  0
VERTEX
  8
T21SSILL
 62
7
 10
-1027.616
 20
-1360.287
 30
3084.904
 70
    32
  0
VERTEX
  8
T21SSILL
 62
7
 10
-1033.463
 20
-1351.555
 30
3084.911
 70
    32
  0
VERTEX
  8
T21SSILL
 62
7
 10
-1035.040
 20
-1350.206
 30
3084.911
 70
    32
  0
VERTEX
  8
T21SSILL
 62
7
 10
-1040.247
 20
-1349.176
 30
3084.907
 70
    32
  0
VERTEX
  8
T21SSILL
 62
7
 10
-1044.752
 20
-1337.545
 30
3084.920
 70
    32
  0
VERTEX
  8
T21SSILL
 62
7
 10
-1050.423
 20
-1328.900
 30
3084.927
 70
    32
  0
VERTEX
  8
T21SSILL
 62
7
 10
-1058.785
 20
-1324.730
 30
3084.924
 70
    32
  0
VERTEX
  8
T21SSILL
 62
7
 10
-1061.427
 20
-1321.976
 30
3084.925
 70
    32
  0
VERTEX
  8
T21SSILL
 62
7
 10
-1077.545
 20
-1321.586
 30
3084.906
 70
    32
  0
VERTEX
  8
T21SSILL
 62
7
 10
-1025.975
 20
-1400.092
 30
3084.842
 70
    32
  0
VERTEX
  8
T21SSILL
 62
7
 10
-1020.305
 20
-1398.669
 30
3084.851
 70
    32
  0
VERTEX
  8
T21SSILL
 62
7
 10
-1023.925
 20
-1374.638
 30
3084.885
 70
    32
  0
SEQEND
  8
T21SSILL
  0
POLYLINE
  8
T21SSILL
 62
7
 66
     1
 70
     9
  0
VERTEX
  8
T21SSILL
 62
7
 10
-962.660
 20
-1350.085
 30
3084.998
 70
    32
  0
VERTEX
  8
T21SSILL
 62
7
 10
-964.907
 20
-1348.581
 30
3084.998
 70
    32
  0
VERTEX
  8
T21SSILL
 62
7
 10
-969.189
 20
-1349.062
 30
3084.992
 70
    32
  0
VERTEX
  8
T21SSILL
 62
7
 10
-970.936
 20
-1352.157
 30
3084.985
 70
    32
  0
VERTEX
  8
T21SSILL
 62
7
 10
-972.984
 20
-1361.566
 30
3084.968
 70
    32
  0
VERTEX
  8
T21SSILL
 62
7
 10
-977.080
 20
-1367.107
 30
3084.954
 70
    32
  0
VERTEX
  8
T21SSILL
 62
7
 10
-974.436
 20
-1370.302
 30
3084.952
 70
    32
  0
VERTEX
  8
T21SSILL
 62
7
 10
-975.327
 20
-1381.820
 30
3084.932
 70
    32
  0
VERTEX
  8
T21SSILL
 62
7
 10
-969.693
 20
-1393.480
 30
3084.920
 70
    32
  0
VERTEX
  8
T21SSILL
 62
7
 10
-961.554
 20
-1355.774
 30
3084.991
 70
    32
  0
VERTEX
  8
T21SSILL
 62
7
 10
-961.662
 20
-1351.984
 30
3084.996
 70
    32
  0
SEQEND
  8
T21SSILL
  0
POLYLINE
  8
T21SSILL
 62
7
 66
     1
 70
     9
  0
VERTEX
  8
T21SSILL
 62
7
 10
-962.915
 20
-1285.552
 30
3085.158
 70
    32
  0
VERTEX
  8
T21SSILL
 62
7
 10
-961.510
 20
-1284.487
 30
3085.166
 70
    32
  0
VERTEX
  8
T21SSILL
 62
7
 10
-949.904
 20
-1285.201
 30
3085.201
 70
    32
  0
VERTEX
  8
T21SSILL
 62
7
 10
-945.251
 20
-1278.352
 30
3085.237
 70
    32
  0
VERTEX
  8
T21SSILL
 62
7
 10
-939.849
 20
-1259.651
 30
3085.312
 70
    32
  0
VERTEX
  8
T21SSILL
 62
7
 10
-949.130
 20
-1245.224
 30
3085.326
 70
    32
  0
VERTEX
  8
T21SSILL
 62
7
 10
-931.849
 20
-1232.119
 30
3085.421
 70
    32
  0
VERTEX
  8
T21SSILL
 62
7
 10
-929.113
 20
-1219.533
 30
3085.469
 70
    32
  0
VERTEX
  8
T21SSILL
 62
7
 10
-943.819
 20
-1189.636
 30
3085.513
 70
    32
  0
VERTEX
  8
T21SSILL
 62
7
 10
-964.794
 20
-1154.536
 30
3085.553
 70
    32
  0
VERTEX
  8
T21SSILL
 62
7
 10
-975.916
 20
-1142.059
 30
3085.555
 70
    32
  0
VERTEX
  8
T21SSILL
 62
7
 10
-995.457
 20
-1131.319
 30
3085.525
 70
    32
  0
VERTEX
  8
T21SSILL
 62
7
 10
-1004.580
 20
-1113.453
 30
3085.550
 70
    32
  0
VERTEX
  8
T21SSILL
 62
7
 10
-1007.883
 20
-1109.098
 30
3085.553
 70
    32
  0
VERTEX
  8
T21SSILL
 62
7
 10
-1013.230
 20
-1104.965
 30
3085.548
 70
    32
  0
VERTEX
  8
T21SSILL
 62
7
 10
-1015.040
 20
-1086.091
 30
3085.600
 70
    32
  0
VERTEX
  8
T21SSILL
 62
7
 10
-1017.580
 20
-1079.386
 30
3085.613
 70
    32
  0
VERTEX
  8
T21SSILL
 62
7
 10
-1036.734
 20
-1045.229
 30
3085.656
 70
    32
  0
VERTEX
  8
T21SSILL
 62
7
 10
-1055.894
 20
-1056.439
 30
3085.560
 70
    32
  0
VERTEX
  8
T21SSILL
 62
7
 10
-1067.727
 20
-1069.285
 30
3085.482
 70
    32
  0
VERTEX
  8
T21SSILL
 62
7
 10
-1097.506
 20
-1089.545
 30
3085.324
 70
    32
  0
VERTEX
  8
T21SSILL
 62
7
 10
-1105.622
 20
-1088.618
 30
3085.301
 70
    32
  0
VERTEX
  8
T21SSILL
 62
7
 10
-1108.498
 20
-1094.893
 30
3085.273
 70
    32
  0
VERTEX
  8
T21SSILL
 62
7
 10
-1109.976
 20
-1101.989
 30
3085.246
 70
    32
  0
VERTEX
  8
T21SSILL
 62
7
 10
-1110.234
 20
-1109.819
 30
3085.221
 70
    32
  0
VERTEX
  8
T21SSILL
 62
7
 10
-1108.409
 20
-1114.852
 30
3085.212
 70
    32
  0
VERTEX
  8
T21SSILL
 62
7
 10
-971.795
 20
-1303.461
 30
3085.075
 70
    32
  0
VERTEX
  8
T21SSILL
 62
7
 10
-967.897
 20
-1300.284
 30
3085.097
 70
    32
  0
VERTEX
  8
T21SSILL
 62
7
 10
-962.715
 20
-1293.256
 30
3085.135
 70
    32
  0
VERTEX
  8
T21SSILL
 62
7
 10
-964.153
 20
-1288.151
 30
3085.146
 70
    32
  0
SEQEND
  8
T21SSILL
  0
POLYLINE
  8
T21SSILL
 62
7
 66
     1
 70
     9
  0
VERTEX
  8
T21SSILL
 62
7
 10
-948.428
 20
-1487.476
 30
3084.795
 70
    32
  0
VERTEX
  8
T21SSILL
 62
7
 10
-945.185
 20
-1492.620
 30
3084.791
 70
    32
  0
VERTEX
  8
T21SSILL
 62
7
 10
-954.532
 20
-1498.823
 30
3084.769
 70
    32
  0
VERTEX
  8
T21SSILL
 62
7
 10
-956.257
 20
-1512.744
 30
3084.745
 70
    32
  0
VERTEX
  8
T21SSILL
 62
7
 10
-945.814
 20
-1530.162
 30
3084.730
 70
    32
  0
VERTEX
  8
T21SSILL
 62
7
 10
-929.524
 20
-1532.967
 30
3084.745
 70
    32
  0
VERTEX
  8
T21SSILL
 62
7
 10
-924.637
 20
-1546.853
 30
3084.728
 70
    32
  0
VERTEX
  8
T21SSILL
 62
7
 10
-918.514
 20
-1557.700
 30
3084.718
 70
    32
  0
VERTEX
  8
T21SSILL
 62
7
 10
-920.662
 20
-1571.500
 30
3084.693
 70
    32
  0
VERTEX
  8
T21SSILL
 62
7
 10
-907.303
 20
-1593.346
 30
3084.674
 70
    32
  0
VERTEX
  8
T21SSILL
 62
7
 10
-906.448
 20
-1588.492
 30
3084.683
 70
    32
  0
VERTEX
  8
T21SSILL
 62
7
 10
-901.621
 20
-1577.640
 30
3084.706
 70
    32
  0
VERTEX
  8
T21SSILL
 62
7
 10
-890.953
 20
-1567.780
 30
3084.735
 70
    32
  0
VERTEX
  8
T21SSILL
 62
7
 10
-895.682
 20
-1560.523
 30
3084.741
 70
    32
  0
VERTEX
  8
T21SSILL
 62
7
 10
-884.770
 20
-1550.256
 30
3084.771
 70
    32
  0
VERTEX
  8
T21SSILL
 62
7
 10
-874.955
 20
-1545.690
 30
3084.790
 70
    32
  0
VERTEX
  8
T21SSILL
 62
7
 10
-869.272
 20
-1553.329
 30
3084.784
 70
    32
  0
VERTEX
  8
T21SSILL
 62
7
 10
-841.591
 20
-1533.222
 30
3084.850
 70
    32
  0
VERTEX
  8
T21SSILL
 62
7
 10
-830.960
 20
-1529.586
 30
3084.868
 70
    32
  0
VERTEX
  8
T21SSILL
 62
7
 10
-824.789
 20
-1529.553
 30
3084.876
 70
    32
  0
VERTEX
  8
T21SSILL
 62
7
 10
-822.120
 20
-1530.738
 30
3084.877
 70
    32
  0
VERTEX
  8
T21SSILL
 62
7
 10
-819.635
 20
-1527.304
 30
3084.885
 70
    32
  0
VERTEX
  8
T21SSILL
 62
7
 10
-931.551
 20
-1370.972
 30
3085.002
 70
    32
  0
VERTEX
  8
T21SSILL
 62
7
 10
-940.230
 20
-1376.890
 30
3084.982
 70
    32
  0
VERTEX
  8
T21SSILL
 62
7
 10
-943.963
 20
-1371.091
 30
3084.987
 70
    32
  0
VERTEX
  8
T21SSILL
 62
7
 10
-935.795
 20
-1365.229
 30
3085.006
 70
    32
  0
VERTEX
  8
T21SSILL
 62
7
 10
-949.413
 20
-1344.355
 30
3085.023
 70
    32
  0
VERTEX
  8
T21SSILL
 62
7
 10
-976.651
 20
-1461.049
 30
3084.804
 70
    32
  0
VERTEX
  8
T21SSILL
 62
7
 10
-976.023
 20
-1472.965
 30
3084.785
 70
    32
  0
VERTEX
  8
T21SSILL
 62
7
 10
-973.528
 20
-1484.572
 30
3084.770
 70
    32
  0
VERTEX
  8
T21SSILL
 62
7
 10
-965.629
 20
-1494.404
 30
3084.763
 70
    32
  0
VERTEX
  8
T21SSILL
 62
7
 10
-949.929
 20
-1484.786
 30
3084.797
 70
    32
  0
SEQEND
  8
T21SSILL
  0
POLYLINE
  8
T21SSILL
 62
7
 66
     1
 70
     9
  0
VERTEX
  8
T21SSILL
 62
7
 10
-973.133
 20
-1886.463
 30
3084.125
 70
    32
  0
VERTEX
  8
T21SSILL
 62
7
 10
-967.818
 20
-1891.284
 30
3084.124
 70
    32
  0
VERTEX
  8
T21SSILL
 62
7
 10
-954.637
 20
-1895.719
 30
3084.133
 70
    32
  0
VERTEX
  8
T21SSILL
 62
7
 10
-955.476
 20
-1904.495
 30
3084.117
 70
    32
  0
VERTEX
  8
T21SSILL
 62
7
 10
-962.295
 20
-1901.922
 30
3084.113
 70
    32
  0
VERTEX
  8
T21SSILL
 62
7
 10
-971.722
 20
-1906.416
 30
3084.095
 70
    32
  0
VERTEX
  8
T21SSILL
 62
7
 10
-965.085
 20
-1927.715
 30
3084.069
 70
    32
  0
VERTEX
  8
T21SSILL
 62
7
 10
-936.593
 20
-1943.838
 30
3084.077
 70
    32
  0
VERTEX
  8
T21SSILL
 62
7
 10
-930.530
 20
-1933.597
 30
3084.101
 70
    32
  0
VERTEX
  8
T21SSILL
 62
7
 10
-950.740
 20
-1870.034
 30
3084.178
 70
    32
  0
VERTEX
  8
T21SSILL
 62
7
 10
-982.081
 20
-1861.826
 30
3084.154
 70
    32
  0
VERTEX
  8
T21SSILL
 62
7
 10
-985.883
 20
-1862.939
 30
3084.148
 70
    32
  0
VERTEX
  8
T21SSILL
 62
7
 10
-980.011
 20
-1882.938
 30
3084.123
 70
    32
  0
VERTEX
  8
T21SSILL
 62
7
 10
-975.875
 20
-1884.891
 30
3084.124
 70
    32
  0
SEQEND
  8
T21SSILL
  0
POLYLINE
  8
T21SSILL
 62
7
 66
     1
 70
     9
  0
VERTEX
  8
T21SSILL
 62
7
 10
-994.445
 20
-1821.302
 30
3084.204
 70
    32
  0
VERTEX
  8
T21SSILL
 62
7
 10
-995.963
 20
-1830.973
 30
3084.187
 70
    32
  0
VERTEX
  8
T21SSILL
 62
7
 10
-995.431
 20
-1834.884
 30
3084.181
 70
    32
  0
VERTEX
  8
T21SSILL
 62
7
 10
-990.676
 20
-1843.781
 30
3084.173
 70
    32
  0
VERTEX
  8
T21SSILL
 62
7
 10
-976.974
 20
-1853.970
 30
3084.173
 70
    32
  0
VERTEX
  8
T21SSILL
 62
7
 10
-954.264
 20
-1860.426
 30
3084.190
 70
    32
  0
VERTEX
  8
T21SSILL
 62
7
 10
-962.802
 20
-1833.265
 30
3084.223
 70
    32
  0
VERTEX
  8
T21SSILL
 62
7
 10
-960.065
 20
-1800.983
 30
3084.278
 70
    32
  0
VERTEX
  8
T21SSILL
 62
7
 10
-989.660
 20
-1822.652
 30
3084.208
 70
    32
  0
VERTEX
  8
T21SSILL
 62
7
 10
-992.735
 20
-1818.013
 30
3084.212
 70
    32
  0
SEQEND
  8
T21SSILL
  0
POLYLINE
  8
T21SSILL
 62
7
 66
     1
 70
     9
  0
VERTEX
  8
T21SSILL
 62
7
 10
-925.040
 20
-1898.233
 30
3084.164
 70
    32
  0
VERTEX
  8
T21SSILL
 62
7
 10
-917.181
 20
-1880.876
 30
3084.201
 70
    32
  0
VERTEX
  8
T21SSILL
 62
7
 10
-918.762
 20
-1878.645
 30
3084.203
 70
    32
  0
VERTEX
  8
T21SSILL
 62
7
 10
-912.995
 20
-1865.531
 30
3084.231
 70
    32
  0
VERTEX
  8
T21SSILL
 62
7
 10
-922.537
 20
-1831.939
 30
3084.273
 70
    32
  0
VERTEX
  8
T21SSILL
 62
7
 10
-933.712
 20
-1849.155
 30
3084.232
 70
    32
  0
VERTEX
  8
T21SSILL
 62
7
 10
-940.982
 20
-1871.375
 30
3084.188
 70
    32
  0
VERTEX
  8
T21SSILL
 62
7
 10
-930.263
 20
-1904.185
 30
3084.148
 70
    32
  0
SEQEND
  8
T21SSILL
  0
POLYLINE
  8
T21SSILL
 62
7
 66
     1
 70
     9
  0
VERTEX
  8
T21SSILL
 62
7
 10
-853.545
 20
-1890.817
 30
3084.262
 70
    32
  0
VERTEX
  8
T21SSILL
 62
7
 10
-853.640
 20
-1892.880
 30
3084.258
 70
    32
  0
VERTEX
  8
T21SSILL
 62
7
 10
-812.289
 20
-1983.008
 30
3084.021
 70
    32
  0
VERTEX
  8
T21SSILL
 62
7
 10
-791.932
 20
-2011.164
 30
3083.917
 70
    32
  0
VERTEX
  8
T21SSILL
 62
7
 10
-794.433
 20
-2018.371
 30
3083.902
 70
    32
  0
VERTEX
  8
T21SSILL
 62
7
 10
-799.062
 20
-2023.210
 30
3083.897
 70
    32
  0
VERTEX
  8
T21SSILL
 62
7
 10
-796.329
 20
-2029.878
 30
3083.875
 70
    32
  0
VERTEX
  8
T21SSILL
 62
7
 10
-794.040
 20
-2032.458
 30
3083.865
 70
    32
  0
VERTEX
  8
T21SSILL
 62
7
 10
-785.304
 20
-2030.701
 30
3083.856
 70
    32
  0
VERTEX
  8
T21SSILL
 62
7
 10
-775.195
 20
-2031.775
 30
3083.838
 70
    32
  0
VERTEX
  8
T21SSILL
 62
7
 10
-757.725
 20
-2057.584
 30
3083.752
 70
    32
  0
VERTEX
  8
T21SSILL
 62
7
 10
-780.383
 20
-2074.103
 30
3083.755
 70
    32
  0
VERTEX
  8
T21SSILL
 62
7
 10
-793.683
 20
-2079.763
 30
3083.753
 70
    32
  0
VERTEX
  8
T21SSILL
 62
7
 10
-807.074
 20
-2081.510
 30
3083.759
 70
    32
  0
VERTEX
  8
T21SSILL
 62
7
 10
-816.568
 20
-2080.079
 30
3083.777
 70
    32
  0
VERTEX
  8
T21SSILL
 62
7
 10
-824.998
 20
-2076.404
 30
3083.800
 70
    32
  0
VERTEX
  8
T21SSILL
 62
7
 10
-834.251
 20
-2070.475
 30
3083.829
 70
    32
  0
VERTEX
  8
T21SSILL
 62
7
 10
-843.884
 20
-2059.524
 30
3083.872
 70
    32
  0
VERTEX
  8
T21SSILL
 62
7
 10
-865.499
 20
-1986.959
 30
3084.093
 70
    32
  0
VERTEX
  8
T21SSILL
 62
7
 10
-862.567
 20
-1977.986
 30
3084.111
 70
    32
  0
VERTEX
  8
T21SSILL
 62
7
 10
-854.923
 20
-1976.394
 30
3084.104
 70
    32
  0
VERTEX
  8
T21SSILL
 62
7
 10
-857.850
 20
-1966.553
 30
3084.134
 70
    32
  0
VERTEX
  8
T21SSILL
 62
7
 10
-865.773
 20
-1968.799
 30
3084.122
 70
    32
  0
VERTEX
  8
T21SSILL
 62
7
 10
-871.555
 20
-1959.132
 30
3084.130
 70
    32
  0
VERTEX
  8
T21SSILL
 62
7
 10
-874.572
 20
-1958.654
 30
3084.128
 70
    32
  0
VERTEX
  8
T21SSILL
 62
7
 10
-918.431
 20
-1811.676
 30
3084.311
 70
    32
  0
VERTEX
  8
T21SSILL
 62
7
 10
-920.964
 20
-1812.712
 30
3084.306
 70
    32
  0
VERTEX
  8
T21SSILL
 62
7
 10
-933.369
 20
-1781.181
 30
3084.342
 70
    32
  0
VERTEX
  8
T21SSILL
 62
7
 10
-923.547
 20
-1774.728
 30
3084.364
 70
    32
  0
VERTEX
  8
T21SSILL
 62
7
 10
-913.432
 20
-1778.845
 30
3084.369
 70
    32
  0
VERTEX
  8
T21SSILL
 62
7
 10
-906.899
 20
-1775.301
 30
3084.383
 70
    32
  0
VERTEX
  8
T21SSILL
 62
7
 10
-854.388
 20
-1888.247
 30
3084.265
 70
    32
  0
SEQEND
  8
T21SSILL
  0
POLYLINE
  8
T21SSILL
 62
7
 66
     1
 70
     9
  0
VERTEX
  8
T21SSILL
 62
7
 10
-849.325
 20
-2070.732
 30
3083.852
 70
    32
  0
VERTEX
  8
T21SSILL
 62
7
 10
-846.805
 20
-2073.910
 30
3083.840
 70
    32
  0
VERTEX
  8
T21SSILL
 62
7
 10
-849.147
 20
-2074.469
 30
3083.842
 70
    32
  0
VERTEX
  8
T21SSILL
 62
7
 10
-853.959
 20
-2071.480
 30
3083.857
 70
    32
  0
VERTEX
  8
T21SSILL
 62
7
 10
-865.242
 20
-2051.933
 30
3083.925
 70
    32
  0
VERTEX
  8
T21SSILL
 62
7
 10
-872.162
 20
-2043.682
 30
3083.957
 70
    32
  0
VERTEX
  8
T21SSILL
 62
7
 10
-887.911
 20
-2036.484
 30
3083.987
 70
    32
  0
VERTEX
  8
T21SSILL
 62
7
 10
-895.727
 20
-2012.316
 30
3084.016
 70
    32
  0
VERTEX
  8
T21SSILL
 62
7
 10
-895.211
 20
-2009.933
 30
3084.021
 70
    32
  0
VERTEX
  8
T21SSILL
 62
7
 10
-891.922
 20
-2008.435
 30
3084.027
 70
    32
  0
VERTEX
  8
T21SSILL
 62
7
 10
-894.456
 20
-1999.403
 30
3084.038
 70
    32
  0
VERTEX
  8
T21SSILL
 62
7
 10
-899.055
 20
-1999.903
 30
3084.032
 70
    32
  0
VERTEX
  8
T21SSILL
 62
7
 10
-910.471
 20
-1965.299
 30
3084.074
 70
    32
  0
VERTEX
  8
T21SSILL
 62
7
 10
-897.593
 20
-1930.195
 30
3084.146
 70
    32
  0
VERTEX
  8
T21SSILL
 62
7
 10
-892.793
 20
-1930.980
 30
3084.150
 70
    32
  0
VERTEX
  8
T21SSILL
 62
7
 10
-867.279
 20
-2013.646
 30
3084.027
 70
    32
  0
VERTEX
  8
T21SSILL
 62
7
 10
-870.549
 20
-2015.462
 30
3084.027
 70
    32
  0
VERTEX
  8
T21SSILL
 62
7
 10
-882.605
 20
-2009.778
 30
3084.036
 70
    32
  0
VERTEX
  8
T21SSILL
 62
7
 10
-887.164
 20
-2017.772
 30
3084.018
 70
    32
  0
VERTEX
  8
T21SSILL
 62
7
 10
-871.500
 20
-2025.588
 30
3084.003
 70
    32
  0
VERTEX
  8
T21SSILL
 62
7
 10
-861.645
 20
-2035.374
 30
3083.962
 70
    32
  0
VERTEX
  8
T21SSILL
 62
7
 10
-852.294
 20
-2066.234
 30
3083.868
 70
    32
  0
SEQEND
  8
T21SSILL
  0
POLYLINE
  8
T21SSILL
 62
7
 66
     1
 70
     9
  0
VERTEX
  8
T21SSILL
 62
7
 10
-912.785
 20
-1941.384
 30
3084.109
 70
    32
  0
VERTEX
  8
T21SSILL
 62
7
 10
-903.268
 20
-1920.668
 30
3084.154
 70
    32
  0
VERTEX
  8
T21SSILL
 62
7
 10
-901.228
 20
-1903.078
 30
3084.185
 70
    32
  0
VERTEX
  8
T21SSILL
 62
7
 10
-904.990
 20
-1888.781
 30
3084.203
 70
    32
  0
VERTEX
  8
T21SSILL
 62
7
 10
-911.299
 20
-1889.361
 30
3084.195
 70
    32
  0
VERTEX
  8
T21SSILL
 62
7
 10
-923.427
 20
-1923.121
 30
3084.126
 70
    32
  0
VERTEX
  8
T21SSILL
 62
7
 10
-916.639
 20
-1946.077
 30
3084.097
 70
    32
  0
SEQEND
  8
T21SSILL
  0
POLYLINE
  8
T21SSILL
 62
7
 66
     1
 70
     9
  0
VERTEX
  8
T21SSILL
 62
7
 10
-811.941
 20
-2091.286
 30
3083.753
 70
    32
  0
VERTEX
  8
T21SSILL
 62
7
 10
-818.575
 20
-2090.563
 30
3083.753
 70
    32
  0
VERTEX
  8
T21SSILL
 62
7
 10
-830.463
 20
-2086.413
 30
3083.782
 70
    32
  0
VERTEX
  8
T21SSILL
 62
7
 10
-837.821
 20
-2082.255
 30
3083.804
 70
    32
  0
VERTEX
  8
T21SSILL
 62
7
 10
-843.509
 20
-2076.943
 30
3083.827
 70
    32
  0
VERTEX
  8
T21SSILL
 62
7
 10
-843.103
 20
-2080.397
 30
3083.817
 70
    32
  0
VERTEX
  8
T21SSILL
 62
7
 10
-828.241
 20
-2103.204
 30
3083.755
 70
    32
  0
VERTEX
  8
T21SSILL
 62
7
 10
-822.038
 20
-2105.693
 30
3083.761
 70
    32
  0
VERTEX
  8
T21SSILL
 62
7
 10
-802.556
 20
-2092.135
 30
3083.760
 70
    32
  0
VERTEX
  8
T21SSILL
 62
7
 10
-810.265
 20
-2091.454
 30
3083.754
 70
    32
  0
SEQEND
  8
T21SSILL
  0
POLYLINE
  8
T21SSILL
 62
7
 66
     1
 70
     9
  0
VERTEX
  8
T21SSILL
 62
7
 10
-983.547
 20
-1798.322
 30
3084.254
 70
    32
  0
VERTEX
  8
T21SSILL
 62
7
 10
-977.593
 20
-1793.917
 30
3084.268
 70
    32
  0
VERTEX
  8
T21SSILL
 62
7
 10
-991.881
 20
-1782.956
 30
3084.269
 70
    32
  0
VERTEX
  8
T21SSILL
 62
7
 10
-997.075
 20
-1774.502
 30
3084.276
 70
    32
  0
VERTEX
  8
T21SSILL
 62
7
 10
-1011.905
 20
-1734.520
 30
3084.322
 70
    32
  0
VERTEX
  8
T21SSILL
 62
7
 10
-1018.345
 20
-1750.248
 30
3084.290
 70
    32
  0
VERTEX
  8
T21SSILL
 62
7
 10
-1019.152
 20
-1767.567
 30
3084.261
 70
    32
  0
VERTEX
  8
T21SSILL
 62
7
 10
-1009.987
 20
-1780.090
 30
3084.252
 70
    32
  0
SEQEND
  8
T21SSILL
  0
POLYLINE
  8
T21SSILL
 62
7
 66
     1
 70
     9
  0
VERTEX
  8
T21SSILL
 62
7
 10
-1049.589
 20
-1723.930
 30
3083.853
 70
    32
  0
VERTEX
  8
T21SSILL
 62
7
 10
-1028.980
 20
-1753.002
 30
3084.163
 70
    32
  0
VERTEX
  8
T21SSILL
 62
7
 10
-1016.597
 20
-1724.248
 30
3084.333
 70
    32
  0
VERTEX
  8
T21SSILL
 62
7
 10
-1032.728
 20
-1685.032
 30
3084.377
 70
    32
  0
VERTEX
  8
T21SSILL
 62
7
 10
-1046.993
 20
-1711.450
 30
3084.016
 70
    32
  0
VERTEX
  8
T21SSILL
 62
7
 10
-1043.740
 20
-1712.967
 30
3084.088
 70
    32
  0
SEQEND
  8
T21SSILL
  0
POLYLINE
  8
T21SSILL
 62
7
 66
     1
 70
     9
  0
VERTEX
  8
T21SSILL
 62
7
 10
-1055.359
 20
-1630.386
 30
3084.421
 70
    32
  0
VERTEX
  8
T21SSILL
 62
7
 10
-1055.974
 20
-1614.256
 30
3084.463
 70
    32
  0
VERTEX
  8
T21SSILL
 62
7
 10
-1067.996
 20
-1598.257
 30
3084.340
 70
    32
  0
VERTEX
  8
T21SSILL
 62
7
 10
-1085.516
 20
-1592.955
 30
3083.928
 70
    32
  0
VERTEX
  8
T21SSILL
 62
7
 10
-1093.431
 20
-1593.314
 30
3083.721
 70
    32
  0
VERTEX
  8
T21SSILL
 62
7
 10
-1100.160
 20
-1601.073
 30
3083.488
 70
    32
  0
VERTEX
  8
T21SSILL
 62
7
 10
-1104.928
 20
-1609.668
 30
3083.299
 70
    32
  0
VERTEX
  8
T21SSILL
 62
7
 10
-1106.382
 20
-1614.753
 30
3083.222
 70
    32
  0
VERTEX
  8
T21SSILL
 62
7
 10
-1108.343
 20
-1623.986
 30
3083.101
 70
    32
  0
VERTEX
  8
T21SSILL
 62
7
 10
-1108.383
 20
-1632.978
 30
3083.031
 70
    32
  0
VERTEX
  8
T21SSILL
 62
7
 10
-1106.358
 20
-1642.507
 30
3083.010
 70
    32
  0
VERTEX
  8
T21SSILL
 62
7
 10
-1102.326
 20
-1651.178
 30
3083.048
 70
    32
  0
VERTEX
  8
T21SSILL
 62
7
 10
-1099.346
 20
-1654.671
 30
3083.098
 70
    32
  0
VERTEX
  8
T21SSILL
 62
7
 10
-1094.816
 20
-1651.014
 30
3083.243
 70
    32
  0
VERTEX
  8
T21SSILL
 62
7
 10
-1104.240
 20
-1622.976
 30
3083.214
 70
    32
  0
VERTEX
  8
T21SSILL
 62
7
 10
-1093.503
 20
-1619.481
 30
3083.519
 70
    32
  0
VERTEX
  8
T21SSILL
 62
7
 10
-1082.626
 20
-1652.060
 30
3083.550
 70
    32
  0
VERTEX
  8
T21SSILL
 62
7
 10
-1087.018
 20
-1671.656
 30
3083.287
 70
    32
  0
VERTEX
  8
T21SSILL
 62
7
 10
-1073.352
 20
-1691.719
 30
3083.486
 70
    32
  0
VERTEX
  8
T21SSILL
 62
7
 10
-1054.873
 20
-1652.036
 30
3084.267
 70
    32
  0
VERTEX
  8
T21SSILL
 62
7
 10
-1047.180
 20
-1656.491
 30
3084.405
 70
    32
  0
VERTEX
  8
T21SSILL
 62
7
 10
-1061.852
 20
-1689.083
 30
3083.803
 70
    32
  0
VERTEX
  8
T21SSILL
 62
7
 10
-1065.182
 20
-1702.784
 30
3083.612
 70
    32
  0
VERTEX
  8
T21SSILL
 62
7
 10
-1058.078
 20
-1712.444
 30
3083.722
 70
    32
  0
VERTEX
  8
T21SSILL
 62
7
 10
-1037.289
 20
-1672.890
 30
3084.391
 70
    32
  0
VERTEX
  8
T21SSILL
 62
7
 10
-1053.732
 20
-1634.213
 30
3084.433
 70
    32
  0
SEQEND
  8
T21SSILL
  0
POLYLINE
  8
T21SSILL
 62
7
 66
     1
 70
     9
  0
VERTEX
  8
T21SSILL
 62
7
 10
-997.776
 20
-1699.022
 30
3084.396
 70
    32
  0
VERTEX
  8
T21SSILL
 62
7
 10
-1015.646
 20
-1700.845
 30
3084.372
 70
    32
  0
VERTEX
  8
T21SSILL
 62
7
 10
-1005.417
 20
-1724.400
 30
3084.347
 70
    32
  0
VERTEX
  8
T21SSILL
 62
7
 10
-981.364
 20
-1721.539
 30
3084.380
 70
    32
  0
VERTEX
  8
T21SSILL
 62
7
 10
-993.387
 20
-1705.540
 30
3084.391
 70
    32
  0
SEQEND
  8
T21SSILL
  0
POLYLINE
  8
T21SSILL
 62
7
 66
     1
 70
     9
  0
VERTEX
  8
T21SSILL
 62
7
 10
-971.789
 20
-1784.647
 30
3084.290
 70
    32
  0
VERTEX
  8
T21SSILL
 62
7
 10
-964.550
 20
-1786.460
 30
3084.296
 70
    32
  0
VERTEX
  8
T21SSILL
 62
7
 10
-953.995
 20
-1785.205
 30
3084.311
 70
    32
  0
VERTEX
  8
T21SSILL
 62
7
 10
-934.905
 20
-1770.839
 30
3084.357
 70
    32
  0
VERTEX
  8
T21SSILL
 62
7
 10
-942.013
 20
-1768.310
 30
3084.352
 70
    32
  0
VERTEX
  8
T21SSILL
 62
7
 10
-956.866
 20
-1779.084
 30
3084.317
 70
    32
  0
VERTEX
  8
T21SSILL
 62
7
 10
-960.154
 20
-1774.165
 30
3084.321
 70
    32
  0
VERTEX
  8
T21SSILL
 62
7
 10
-947.243
 20
-1765.977
 30
3084.350
 70
    32
  0
VERTEX
  8
T21SSILL
 62
7
 10
-950.956
 20
-1763.095
 30
3084.350
 70
    32
  0
VERTEX
  8
T21SSILL
 62
7
 10
-988.337
 20
-1766.327
 30
3084.300
 70
    32
  0
VERTEX
  8
T21SSILL
 62
7
 10
-983.241
 20
-1776.403
 30
3084.290
 70
    32
  0
VERTEX
  8
T21SSILL
 62
7
 10
-974.351
 20
-1783.603
 30
3084.289
 70
    32
  0
SEQEND
  8
T21SSILL
  0
POLYLINE
  8
T21SSILL
 62
7
 66
     1
 70
     9
  0
VERTEX
  8
T21SSILL
 62
7
 10
-931.186
 20
-1763.925
 30
3084.372
 70
    32
  0
VERTEX
  8
T21SSILL
 62
7
 10
-927.146
 20
-1764.291
 30
3084.376
 70
    32
  0
VERTEX
  8
T21SSILL
 62
7
 10
-922.639
 20
-1763.086
 30
3084.384
 70
    32
  0
VERTEX
  8
T21SSILL
 62
7
 10
-922.023
 20
-1759.521
 30
3084.390
 70
    32
  0
VERTEX
  8
T21SSILL
 62
7
 10
-912.484
 20
-1752.840
 30
3084.412
 70
    32
  0
VERTEX
  8
T21SSILL
 62
7
 10
-926.668
 20
-1744.787
 30
3084.408
 70
    32
  0
VERTEX
  8
T21SSILL
 62
7
 10
-934.066
 20
-1736.345
 30
3084.413
 70
    32
  0
VERTEX
  8
T21SSILL
 62
7
 10
-943.925
 20
-1759.091
 30
3084.365
 70
    32
  0
VERTEX
  8
T21SSILL
 62
7
 10
-935.318
 20
-1762.853
 30
3084.369
 70
    32
  0
SEQEND
  8
T21SSILL
  0
POLYLINE
  8
T21SSILL
 62
7
 66
     1
 70
     9
  0
VERTEX
  8
T21SSILL
 62
7
 10
-835.571
 20
-1726.599
 30
3084.547
 70
    32
  0
VERTEX
  8
T21SSILL
 62
7
 10
-833.356
 20
-1732.000
 30
3084.541
 70
    32
  0
VERTEX
  8
T21SSILL
 62
7
 10
-718.459
 20
-1891.825
 30
3084.111
 70
    32
  0
VERTEX
  8
T21SSILL
 62
7
 10
-710.393
 20
-1916.468
 30
3084.035
 70
    32
  0
VERTEX
  8
T21SSILL
 62
7
 10
-698.128
 20
-1928.410
 30
3083.985
 70
    32
  0
VERTEX
  8
T21SSILL
 62
7
 10
-689.823
 20
-1941.696
 30
3083.938
 70
    32
  0
VERTEX
  8
T21SSILL
 62
7
 10
-681.408
 20
-1935.867
 30
3083.940
 70
    32
  0
VERTEX
  8
T21SSILL
 62
7
 10
-688.352
 20
-1926.418
 30
3083.975
 70
    32
  0
VERTEX
  8
T21SSILL
 62
7
 10
-685.498
 20
-1919.385
 30
3083.989
 70
    32
  0
VERTEX
  8
T21SSILL
 62
7
 10
-682.056
 20
-1916.775
 30
3083.992
 70
    32
  0
VERTEX
  8
T21SSILL
 62
7
 10
-663.676
 20
-1944.660
 30
3083.945
 70
    32
  0
VERTEX
  8
T21SSILL
 62
7
 10
-660.998
 20
-1950.817
 30
3083.931
 70
    32
  0
VERTEX
  8
T21SSILL
 62
7
 10
-658.748
 20
-1962.830
 30
3083.896
 70
    32
  0
VERTEX
  8
T21SSILL
 62
7
 10
-661.228
 20
-1977.214
 30
3083.840
 70
    32
  0
VERTEX
  8
T21SSILL
 62
7
 10
-671.161
 20
-1995.921
 30
3083.770
 70
    32
  0
VERTEX
  8
T21SSILL
 62
7
 10
-751.139
 20
-2052.700
 30
3083.751
 70
    32
  0
VERTEX
  8
T21SSILL
 62
7
 10
-769.573
 20
-2027.954
 30
3083.839
 70
    32
  0
VERTEX
  8
T21SSILL
 62
7
 10
-772.646
 20
-2010.480
 30
3083.889
 70
    32
  0
VERTEX
  8
T21SSILL
 62
7
 10
-777.762
 20
-2003.295
 30
3083.915
 70
    32
  0
VERTEX
  8
T21SSILL
 62
7
 10
-784.393
 20
-2003.013
 30
3083.926
 70
    32
  0
VERTEX
  8
T21SSILL
 62
7
 10
-799.096
 20
-1983.625
 30
3083.999
 70
    32
  0
VERTEX
  8
T21SSILL
 62
7
 10
-804.806
 20
-1974.346
 30
3084.032
 70
    32
  0
VERTEX
  8
T21SSILL
 62
7
 10
-844.872
 20
-1887.226
 30
3084.278
 70
    32
  0
VERTEX
  8
T21SSILL
 62
7
 10
-832.276
 20
-1878.449
 30
3084.307
 70
    32
  0
VERTEX
  8
T21SSILL
 62
7
 10
-836.485
 20
-1872.899
 30
3084.311
 70
    32
  0
VERTEX
  8
T21SSILL
 62
7
 10
-848.271
 20
-1881.285
 30
3084.283
 70
    32
  0
VERTEX
  8
T21SSILL
 62
7
 10
-899.446
 20
-1771.257
 30
3084.398
 70
    32
  0
VERTEX
  8
T21SSILL
 62
7
 10
-884.190
 20
-1762.981
 30
3084.430
 70
    32
  0
VERTEX
  8
T21SSILL
 62
7
 10
-884.902
 20
-1747.192
 30
3084.454
 70
    32
  0
VERTEX
  8
T21SSILL
 62
7
 10
-842.060
 20
-1716.583
 30
3084.555
 70
    32
  0
SEQEND
  8
T21SSILL
  0
POLYLINE
  8
T21SSILL
 62
7
 66
     1
 70
     9
  0
VERTEX
  8
T21SSILL
 62
7
 10
-792.983
 20
-1707.911
 30
3084.628
 70
    32
  0
VERTEX
  8
T21SSILL
 62
7
 10
-796.670
 20
-1714.138
 30
3084.613
 70
    32
  0
VERTEX
  8
T21SSILL
 62
7
 10
-792.775
 20
-1753.560
 30
3084.555
 70
    32
  0
VERTEX
  8
T21SSILL
 62
7
 10
-788.457
 20
-1759.691
 30
3084.550
 70
    32
  0
VERTEX
  8
T21SSILL
 62
7
 10
-774.185
 20
-1757.940
 30
3084.542
 70
    32
  0
VERTEX
  8
T21SSILL
 62
7
 10
-767.928
 20
-1754.080
 30
3084.543
 70
    32
  0
VERTEX
  8
T21SSILL
 62
7
 10
-771.366
 20
-1720.950
 30
3084.633
 70
    32
  0
VERTEX
  8
T21SSILL
 62
7
 10
-777.467
 20
-1717.720
 30
3084.631
 70
    32
  0
VERTEX
  8
T21SSILL
 62
7
 10
-780.966
 20
-1702.893
 30
3084.650
 70
    32
  0
VERTEX
  8
T21SSILL
 62
7
 10
-754.483
 20
-1724.672
 30
3084.598
 70
    32
  0
VERTEX
  8
T21SSILL
 62
7
 10
-749.097
 20
-1716.888
 30
3084.609
 70
    32
  0
VERTEX
  8
T21SSILL
 62
7
 10
-781.824
 20
-1690.819
 30
3084.668
 70
    32
  0
VERTEX
  8
T21SSILL
 62
7
 10
-783.710
 20
-1674.325
 30
3084.693
 70
    32
  0
VERTEX
  8
T21SSILL
 62
7
 10
-753.549
 20
-1653.112
 30
3084.763
 70
    32
  0
VERTEX
  8
T21SSILL
 62
7
 10
-750.029
 20
-1651.770
 30
3084.769
 70
    32
  0
VERTEX
  8
T21SSILL
 62
7
 10
-740.543
 20
-1651.879
 30
3084.764
 70
    32
  0
VERTEX
  8
T21SSILL
 62
7
 10
-730.877
 20
-1655.724
 30
3084.759
 70
    32
  0
VERTEX
  8
T21SSILL
 62
7
 10
-724.627
 20
-1660.610
 30
3084.759
 70
    32
  0
VERTEX
  8
T21SSILL
 62
7
 10
-660.107
 20
-1750.650
 30
3084.621
 70
    32
  0
VERTEX
  8
T21SSILL
 62
7
 10
-668.907
 20
-1756.991
 30
3084.576
 70
    32
  0
VERTEX
  8
T21SSILL
 62
7
 10
-664.834
 20
-1763.529
 30
3084.564
 70
    32
  0
VERTEX
  8
T21SSILL
 62
7
 10
-655.349
 20
-1756.778
 30
3084.613
 70
    32
  0
VERTEX
  8
T21SSILL
 62
7
 10
-576.385
 20
-1867.177
 30
3084.444
 70
    32
  0
VERTEX
  8
T21SSILL
 62
7
 10
-607.252
 20
-1861.928
 30
3084.379
 70
    32
  0
VERTEX
  8
T21SSILL
 62
7
 10
-652.510
 20
-1895.917
 30
3084.142
 70
    32
  0
VERTEX
  8
T21SSILL
 62
7
 10
-666.660
 20
-1900.895
 30
3084.087
 70
    32
  0
VERTEX
  8
T21SSILL
 62
7
 10
-677.762
 20
-1902.012
 30
3084.054
 70
    32
  0
VERTEX
  8
T21SSILL
 62
7
 10
-690.646
 20
-1899.612
 30
3084.048
 70
    32
  0
VERTEX
  8
T21SSILL
 62
7
 10
-698.491
 20
-1896.709
 30
3084.068
 70
    32
  0
VERTEX
  8
T21SSILL
 62
7
 10
-707.887
 20
-1890.446
 30
3084.098
 70
    32
  0
VERTEX
  8
T21SSILL
 62
7
 10
-823.086
 20
-1730.077
 30
3084.556
 70
    32
  0
VERTEX
  8
T21SSILL
 62
7
 10
-825.862
 20
-1718.683
 30
3084.571
 70
    32
  0
VERTEX
  8
T21SSILL
 62
7
 10
-824.507
 20
-1711.570
 30
3084.584
 70
    32
  0
VERTEX
  8
T21SSILL
 62
7
 10
-820.507
 20
-1701.234
 30
3084.605
 70
    32
  0
VERTEX
  8
T21SSILL
 62
7
 10
-792.072
 20
-1680.224
 30
3084.673
 70
    32
  0
VERTEX
  8
T21SSILL
 62
7
 10
-789.812
 20
-1707.277
 30
3084.632
 70
    32
  0
SEQEND
  8
T21SSILL
  0
POLYLINE
  8
T21SSILL
 62
7
 66
     1
 70
     9
  0
VERTEX
  8
T21SSILL
 62
7
 10
-892.210
 20
-1580.129
 30
3084.714
 70
    32
  0
VERTEX
  8
T21SSILL
 62
7
 10
-836.712
 20
-1542.136
 30
3084.841
 70
    32
  0
VERTEX
  8
T21SSILL
 62
7
 10
-814.953
 20
-1542.231
 30
3084.867
 70
    32
  0
VERTEX
  8
T21SSILL
 62
7
 10
-808.351
 20
-1543.642
 30
3084.873
 70
    32
  0
VERTEX
  8
T21SSILL
 62
7
 10
-736.923
 20
-1642.937
 30
3084.787
 70
    32
  0
VERTEX
  8
T21SSILL
 62
7
 10
-749.606
 20
-1641.824
 30
3084.786
 70
    32
  0
VERTEX
  8
T21SSILL
 62
7
 10
-757.831
 20
-1643.525
 30
3084.773
 70
    32
  0
VERTEX
  8
T21SSILL
 62
7
 10
-826.669
 20
-1692.962
 30
3084.611
 70
    32
  0
VERTEX
  8
T21SSILL
 62
7
 10
-835.193
 20
-1695.000
 30
3084.598
 70
    32
  0
VERTEX
  8
T21SSILL
 62
7
 10
-841.601
 20
-1693.553
 30
3084.592
 70
    32
  0
VERTEX
  8
T21SSILL
 62
7
 10
-850.532
 20
-1685.278
 30
3084.595
 70
    32
  0
VERTEX
  8
T21SSILL
 62
7
 10
-898.253
 20
-1607.615
 30
3084.662
 70
    32
  0
VERTEX
  8
T21SSILL
 62
7
 10
-900.528
 20
-1597.612
 30
3084.676
 70
    32
  0
VERTEX
  8
T21SSILL
 62
7
 10
-899.604
 20
-1592.264
 30
3084.685
 70
    32
  0
VERTEX
  8
T21SSILL
 62
7
 10
-895.681
 20
-1583.868
 30
3084.704
 70
    32
  0
SEQEND
  8
T21SSILL
  0
POLYLINE
  8
T21SSILL
 62
7
 66
     1
 70
     9
  0
VERTEX
  8
T21SSILL
 62
7
 10
-815.888
 20
-2144.733
 30
3083.803
 70
    32
  0
VERTEX
  8
T21SSILL
 62
7
 10
-816.004
 20
-2156.107
 30
3083.814
 70
    32
  0
VERTEX
  8
T21SSILL
 62
7
 10
-814.082
 20
-2162.726
 30
3083.821
 70
    32
  0
VERTEX
  8
T21SSILL
 62
7
 10
-808.840
 20
-2170.368
 30
3083.832
 70
    32
  0
VERTEX
  8
T21SSILL
 62
7
 10
-820.251
 20
-2175.652
 30
3083.830
 70
    32
  0
VERTEX
  8
T21SSILL
 62
7
 10
-813.921
 20
-2180.313
 30
3083.839
 70
    32
  0
VERTEX
  8
T21SSILL
 62
7
 10
-797.597
 20
-2186.306
 30
3083.854
 70
    32
  0
VERTEX
  8
T21SSILL
 62
7
 10
-778.773
 20
-2187.638
 30
3083.866
 70
    32
  0
VERTEX
  8
T21SSILL
 62
7
 10
-734.782
 20
-2153.766
 30
3083.859
 70
    32
  0
VERTEX
  8
T21SSILL
 62
7
 10
-722.152
 20
-2145.531
 30
3083.858
 70
    32
  0
VERTEX
  8
T21SSILL
 62
7
 10
-719.624
 20
-2138.032
 30
3083.852
 70
    32
  0
VERTEX
  8
T21SSILL
 62
7
 10
-720.693
 20
-2133.558
 30
3083.848
 70
    32
  0
VERTEX
  8
T21SSILL
 62
7
 10
-720.030
 20
-2131.531
 30
3083.846
 70
    32
  0
VERTEX
  8
T21SSILL
 62
7
 10
-712.828
 20
-2119.444
 30
3083.838
 70
    32
  0
VERTEX
  8
T21SSILL
 62
7
 10
-751.565
 20
-2065.415
 30
3083.763
 70
    32
  0
VERTEX
  8
T21SSILL
 62
7
 10
-819.303
 20
-2116.011
 30
3083.773
 70
    32
  0
VERTEX
  8
T21SSILL
 62
7
 10
-821.259
 20
-2122.915
 30
3083.779
 70
    32
  0
VERTEX
  8
T21SSILL
 62
7
 10
-815.326
 20
-2141.098
 30
3083.800
 70
    32
  0
SEQEND
  8
T21SSILL
  0
POLYLINE
  8
T21SSILL
 62
7
 66
     1
 70
     9
  0
VERTEX
  8
T21SSILL
 62
7
 10
-675.915
 20
-2011.532
 30
3083.755
 70
    32
  0
VERTEX
  8
T21SSILL
 62
7
 10
-739.967
 20
-2057.948
 30
3083.763
 70
    32
  0
VERTEX
  8
T21SSILL
 62
7
 10
-742.950
 20
-2064.082
 30
3083.767
 70
    32
  0
VERTEX
  8
T21SSILL
 62
7
 10
-709.464
 20
-2110.558
 30
3083.832
 70
    32
  0
VERTEX
  8
T21SSILL
 62
7
 10
-699.144
 20
-2102.944
 30
3083.830
 70
    32
  0
VERTEX
  8
T21SSILL
 62
7
 10
-689.075
 20
-2105.827
 30
3083.839
 70
    32
  0
VERTEX
  8
T21SSILL
 62
7
 10
-677.760
 20
-2114.075
 30
3083.854
 70
    32
  0
VERTEX
  8
T21SSILL
 62
7
 10
-510.158
 20
-1993.744
 30
3084.133
 70
    32
  0
VERTEX
  8
T21SSILL
 62
7
 10
-501.702
 20
-1990.949
 30
3084.156
 70
    32
  0
VERTEX
  8
T21SSILL
 62
7
 10
-486.584
 20
-1991.637
 30
3084.192
 70
    32
  0
VERTEX
  8
T21SSILL
 62
7
 10
-566.153
 20
-1881.546
 30
3084.421
 70
    32
  0
VERTEX
  8
T21SSILL
 62
7
 10
-571.224
 20
-1879.527
 30
3084.415
 70
    32
  0
VERTEX
  8
T21SSILL
 62
7
 10
-577.496
 20
-1873.883
 30
3084.418
 70
    32
  0
VERTEX
  8
T21SSILL
 62
7
 10
-595.728
 20
-1870.559
 30
3084.380
 70
    32
  0
VERTEX
  8
T21SSILL
 62
7
 10
-598.320
 20
-1873.853
 30
3084.362
 70
    32
  0
VERTEX
  8
T21SSILL
 62
7
 10
-611.541
 20
-1874.364
 30
3084.325
 70
    32
  0
VERTEX
  8
T21SSILL
 62
7
 10
-656.982
 20
-1906.944
 30
3084.092
 70
    32
  0
VERTEX
  8
T21SSILL
 62
7
 10
-673.799
 20
-1911.177
 30
3084.033
 70
    32
  0
VERTEX
  8
T21SSILL
 62
7
 10
-671.073
 20
-1916.523
 30
3084.022
 70
    32
  0
VERTEX
  8
T21SSILL
 62
7
 10
-655.302
 20
-1937.756
 30
3083.991
 70
    32
  0
VERTEX
  8
T21SSILL
 62
7
 10
-598.635
 20
-2040.316
 30
3083.878
 70
    32
  0
VERTEX
  8
T21SSILL
 62
7
 10
-606.651
 20
-2044.322
 30
3083.855
 70
    32
  0
VERTEX
  8
T21SSILL
 62
7
 10
-649.463
 20
-1968.855
 30
3083.900
 70
    32
  0
VERTEX
  8
T21SSILL
 62
7
 10
-653.455
 20
-1986.588
 30
3083.828
 70
    32
  0
VERTEX
  8
T21SSILL
 62
7
 10
-658.730
 20
-1995.623
 30
3083.785
 70
    32
  0
VERTEX
  8
T21SSILL
 62
7
 10
-678.576
 20
-2054.839
 30
3083.788
 70
    32
  0
VERTEX
  8
T21SSILL
 62
7
 10
-689.740
 20
-2053.554
 30
3083.788
 70
    32
  0
SEQEND
  8
T21SSILL
  0
POLYLINE
  8
T21SSILL
 62
7
 66
     1
 70
     9
  0
VERTEX
  8
T21SSILL
 62
7
 10
138.395
 20
-2330.002
 30
3085.100
 70
    32
  0
VERTEX
  8
T21SSILL
 62
7
 10
137.349
 20
-2329.917
 30
3085.100
 70
    32
  0
VERTEX
  8
T21SSILL
 62
7
 10
132.241
 20
-2329.501
 30
3085.100
 70
    32
  0
VERTEX
  8
T21SSILL
 62
7
 10
127.602
 20
-2323.212
 30
3085.100
 70
    32
  0
VERTEX
  8
T21SSILL
 62
7
 10
117.937
 20
-2307.503
 30
3085.100
 70
    32
  0
VERTEX
  8
T21SSILL
 62
7
 10
121.784
 20
-2305.452
 30
3085.100
 70
    32
  0
VERTEX
  8
T21SSILL
 62
7
 10
132.571
 20
-2305.468
 30
3085.100
 70
    32
  0
VERTEX
  8
T21SSILL
 62
7
 10
142.502
 20
-2310.394
 30
3085.100
 70
    32
  0
VERTEX
  8
T21SSILL
 62
7
 10
153.891
 20
-2310.668
 30
3085.100
 70
    32
  0
VERTEX
  8
T21SSILL
 62
7
 10
165.396
 20
-2327.038
 30
3085.100
 70
    32
  0
VERTEX
  8
T21SSILL
 62
7
 10
157.369
 20
-2332.636
 30
3085.100
 70
    32
  0
VERTEX
  8
T21SSILL
 62
7
 10
150.655
 20
-2331.682
 30
3085.100
 70
    32
  0
SEQEND
  8
T21SSILL
  0
POLYLINE
  8
T21SSILL
 62
7
 66
     1
 70
     9
  0
VERTEX
  8
T21SSILL
 62
7
 10
124.603
 20
-2272.905
 30
3085.100
 70
    32
  0
VERTEX
  8
T21SSILL
 62
7
 10
128.245
 20
-2276.767
 30
3085.100
 70
    32
  0
VERTEX
  8
T21SSILL
 62
7
 10
137.621
 20
-2287.320
 30
3085.100
 70
    32
  0
VERTEX
  8
T21SSILL
 62
7
 10
138.511
 20
-2293.368
 30
3085.100
 70
    32
  0
VERTEX
  8
T21SSILL
 62
7
 10
136.895
 20
-2295.450
 30
3085.100
 70
    32
  0
VERTEX
  8
T21SSILL
 62
7
 10
128.520
 20
-2295.244
 30
3085.100
 70
    32
  0
VERTEX
  8
T21SSILL
 62
7
 10
105.609
 20
-2293.290
 30
3085.100
 70
    32
  0
VERTEX
  8
T21SSILL
 62
7
 10
93.771
 20
-2276.411
 30
3085.100
 70
    32
  0
VERTEX
  8
T21SSILL
 62
7
 10
96.127
 20
-2270.401
 30
3085.100
 70
    32
  0
VERTEX
  8
T21SSILL
 62
7
 10
115.645
 20
-2272.692
 30
3085.100
 70
    32
  0
SEQEND
  8
T21SSILL
  0
LINE
  8
T21SSILL
 62
7
 10
180.993
 20
-2349.532
 30
3085.100
 11
164.489
 21
-2349.427
 31
3085.100
  0
POLYLINE
  8
T21SSILL
 62
7
 66
     1
 70
     8
  0
VERTEX
  8
T21SSILL
 62
7
 10
180.530
 20
-2381.374
 30
3085.100
 70
    32
  0
VERTEX
  8
T21SSILL
 62
7
 10
175.369
 20
-2383.580
 30
3085.100
 70
    32
  0
VERTEX
  8
T21SSILL
 62
7
 10
171.787
 20
-2385.988
 30
3085.100
 70
    32
  0
VERTEX
  8
T21SSILL
 62
7
 10
176.680
 20
-2394.261
 30
3085.100
 70
    32
  0
VERTEX
  8
T21SSILL
 62
7
 10
181.313
 20
-2394.053
 30
3085.100
 70
    32
  0
VERTEX
  8
T21SSILL
 62
7
 10
188.938
 20
-2393.854
 30
3085.100
 70
    32
  0
VERTEX
  8
T21SSILL
 62
7
 10
194.628
 20
-2399.539
 30
3085.100
 70
    32
  0
VERTEX
  8
T21SSILL
 62
7
 10
196.476
 20
-2405.119
 30
3085.100
 70
    32
  0
VERTEX
  8
T21SSILL
 62
7
 10
204.499
 20
-2406.731
 30
3085.100
 70
    32
  0
VERTEX
  8
T21SSILL
 62
7
 10
221.992
 20
-2406.968
 30
3085.100
 70
    32
  0
VERTEX
  8
T21SSILL
 62
7
 10
214.570
 20
-2395.021
 30
3085.100
 70
    32
  0
VERTEX
  8
T21SSILL
 62
7
 10
210.377
 20
-2389.087
 30
3085.100
 70
    32
  0
VERTEX
  8
T21SSILL
 62
7
 10
205.016
 20
-2385.879
 30
3085.100
 70
    32
  0
VERTEX
  8
T21SSILL
 62
7
 10
199.108
 20
-2385.754
 30
3085.100
 70
    32
  0
VERTEX
  8
T21SSILL
 62
7
 10
194.909
 20
-2382.690
 30
3085.100
 70
    32
  0
VERTEX
  8
T21SSILL
 62
7
 10
180.530
 20
-2381.374
 30
3085.100
 70
    32
  0
VERTEX
  8
T21SSILL
 62
7
 10
180.529
 20
-2381.371
 30
3085.100
 70
    32
  0
SEQEND
  8
T21SSILL
  0
POLYLINE
  8
T21SSILL
 62
7
 66
     1
 70
     9
  0
VERTEX
  8
T21SSILL
 62
7
 10
180.973
 20
-2372.276
 30
3085.100
 70
    32
  0
VERTEX
  8
T21SSILL
 62
7
 10
193.853
 20
-2372.061
 30
3085.100
 70
    32
  0
VERTEX
  8
T21SSILL
 62
7
 10
194.267
 20
-2369.960
 30
3085.100
 70
    32
  0
VERTEX
  8
T21SSILL
 62
7
 10
190.420
 20
-2361.687
 30
3085.100
 70
    32
  0
VERTEX
  8
T21SSILL
 62
7
 10
180.993
 20
-2349.532
 30
3085.100
 70
    32
  0
VERTEX
  8
T21SSILL
 62
7
 10
164.489
 20
-2349.427
 30
3085.100
 70
    32
  0
VERTEX
  8
T21SSILL
 62
7
 10
156.776
 20
-2345.676
 30
3085.100
 70
    32
  0
VERTEX
  8
T21SSILL
 62
7
 10
150.442
 20
-2344.247
 30
3085.100
 70
    32
  0
VERTEX
  8
T21SSILL
 62
7
 10
147.468
 20
-2343.204
 30
3085.100
 70
    32
  0
VERTEX
  8
T21SSILL
 62
7
 10
143.556
 20
-2346.029
 30
3085.100
 70
    32
  0
VERTEX
  8
T21SSILL
 62
7
 10
143.753
 20
-2347.419
 30
3085.100
 70
    32
  0
VERTEX
  8
T21SSILL
 62
7
 10
149.666
 20
-2356.809
 30
3085.100
 70
    32
  0
VERTEX
  8
T21SSILL
 62
7
 10
161.553
 20
-2373.055
 30
3085.100
 70
    32
  0
VERTEX
  8
T21SSILL
 62
7
 10
163.281
 20
-2375.080
 30
3085.100
 70
    32
  0
SEQEND
  8
T21SSILL
  0
POLYLINE
  8
T21SSILL
 62
7
 66
     1
 70
     9
  0
VERTEX
  8
T21SSILL
 62
7
 10
-2209.977
 20
452.352
 30
3081.233
 70
    32
  0
VERTEX
  8
T21SSILL
 62
7
 10
-2205.382
 20
454.067
 30
3080.926
 70
    32
  0
VERTEX
  8
T21SSILL
 62
7
 10
-2195.463
 20
453.392
 30
3080.461
 70
    32
  0
VERTEX
  8
T21SSILL
 62
7
 10
-2173.506
 20
447.944
 30
3079.607
 70
    32
  0
VERTEX
  8
T21SSILL
 62
7
 10
-2157.037
 20
433.384
 30
3082.173
 70
    32
  0
VERTEX
  8
T21SSILL
 62
7
 10
-2154.335
 20
420.763
 30
3082.176
 70
    32
  0
VERTEX
  8
T21SSILL
 62
7
 10
-2157.048
 20
373.082
 30
3082.185
 70
    32
  0
VERTEX
  8
T21SSILL
 62
7
 10
-2163.540
 20
367.514
 30
3082.186
 70
    32
  0
VERTEX
  8
T21SSILL
 62
7
 10
-2207.134
 20
428.366
 30
3082.167
 70
    32
  0
VERTEX
  8
T21SSILL
 62
7
 10
-2210.817
 20
441.136
 30
3081.778
 70
    32
  0
SEQEND
  8
T21SSILL
  0
POLYLINE
  8
T21SSILL
 62
7
 66
     1
 70
     9
  0
VERTEX
  8
T21SSILL
 62
7
 10
-2146.302
 20
388.768
 30
3082.184
 70
    32
  0
VERTEX
  8
T21SSILL
 62
7
 10
-2142.011
 20
420.023
 30
3082.178
 70
    32
  0
VERTEX
  8
T21SSILL
 62
7
 10
-2110.953
 20
392.933
 30
3082.188
 70
    32
  0
VERTEX
  8
T21SSILL
 62
7
 10
-2099.848
 20
379.842
 30
3082.192
 70
    32
  0
VERTEX
  8
T21SSILL
 62
7
 10
-2097.623
 20
365.397
 30
3082.196
 70
    32
  0
VERTEX
  8
T21SSILL
 62
7
 10
-2101.352
 20
350.188
 30
3082.198
 70
    32
  0
VERTEX
  8
T21SSILL
 62
7
 10
-2106.149
 20
341.332
 30
3082.199
 70
    32
  0
VERTEX
  8
T21SSILL
 62
7
 10
-2118.874
 20
309.127
 30
3082.204
 70
    32
  0
VERTEX
  8
T21SSILL
 62
7
 10
-2122.319
 20
309.974
 30
3082.203
 70
    32
  0
VERTEX
  8
T21SSILL
 62
7
 10
-2151.388
 20
350.552
 30
3082.191
 70
    32
  0
VERTEX
  8
T21SSILL
 62
7
 10
-2142.921
 20
352.150
 30
3082.192
 70
    32
  0
VERTEX
  8
T21SSILL
 62
7
 10
-2130.591
 20
364.922
 30
3082.191
 70
    32
  0
VERTEX
  8
T21SSILL
 62
7
 10
-2136.082
 20
372.373
 30
3082.189
 70
    32
  0
VERTEX
  8
T21SSILL
 62
7
 10
-2130.801
 20
380.003
 30
3082.188
 70
    32
  0
VERTEX
  8
T21SSILL
 62
7
 10
-2138.128
 20
387.112
 30
3082.185
 70
    32
  0
VERTEX
  8
T21SSILL
 62
7
 10
-2140.993
 20
385.870
 30
3082.185
 70
    32
  0
SEQEND
  8
T21SSILL
  0
POLYLINE
  8
T21SSILL
 62
7
 66
     1
 70
     9
  0
VERTEX
  8
T21SSILL
 62
7
 10
-2151.233
 20
449.014
 30
3082.171
 70
    32
  0
VERTEX
  8
T21SSILL
 62
7
 10
-2117.643
 20
465.580
 30
3082.172
 70
    32
  0
VERTEX
  8
T21SSILL
 62
7
 10
-2096.710
 20
471.543
 30
3082.174
 70
    32
  0
VERTEX
  8
T21SSILL
 62
7
 10
-2087.533
 20
464.356
 30
3078.746
 70
    32
  0
VERTEX
  8
T21SSILL
 62
7
 10
-2086.264
 20
461.165
 30
3078.701
 70
    32
  0
VERTEX
  8
T21SSILL
 62
7
 10
-2082.778
 20
461.245
 30
3078.681
 70
    32
  0
VERTEX
  8
T21SSILL
 62
7
 10
-2071.791
 20
449.575
 30
3078.565
 70
    32
  0
VERTEX
  8
T21SSILL
 62
7
 10
-2124.940
 20
434.142
 30
3082.178
 70
    32
  0
VERTEX
  8
T21SSILL
 62
7
 10
-2128.442
 20
435.230
 30
3082.177
 70
    32
  0
VERTEX
  8
T21SSILL
 62
7
 10
-2134.668
 20
432.673
 30
3082.177
 70
    32
  0
VERTEX
  8
T21SSILL
 62
7
 10
-2141.643
 20
434.917
 30
3082.175
 70
    32
  0
VERTEX
  8
T21SSILL
 62
7
 10
-2147.538
 20
439.933
 30
3082.173
 70
    32
  0
VERTEX
  8
T21SSILL
 62
7
 10
-2151.233
 20
449.014
 30
3082.171
 70
    32
  0
SEQEND
  8
T21SSILL
  0
POLYLINE
  8
T21SSILL
 62
7
 66
     1
 70
     9
  0
VERTEX
  8
T21SSILL
 62
7
 10
-2190.898
 20
462.815
 30
3079.810
 70
    32
  0
VERTEX
  8
T21SSILL
 62
7
 10
-2185.304
 20
476.286
 30
3079.679
 70
    32
  0
VERTEX
  8
T21SSILL
 62
7
 10
-2114.428
 20
527.745
 30
3086.235
 70
    32
  0
VERTEX
  8
T21SSILL
 62
7
 10
-2112.023
 20
526.248
 30
3086.619
 70
    32
  0
VERTEX
  8
T21SSILL
 62
7
 10
-2108.909
 20
524.310
 30
3086.605
 70
    32
  0
VERTEX
  8
T21SSILL
 62
7
 10
-2104.652
 20
523.749
 30
3086.589
 70
    32
  0
VERTEX
  8
T21SSILL
 62
7
 10
-2096.514
 20
530.522
 30
3086.568
 70
    32
  0
VERTEX
  8
T21SSILL
 62
7
 10
-2087.532
 20
531.338
 30
3086.536
 70
    32
  0
VERTEX
  8
T21SSILL
 62
7
 10
-2078.844
 20
525.829
 30
3086.497
 70
    32
  0
VERTEX
  8
T21SSILL
 62
7
 10
-2079.088
 20
521.579
 30
3086.492
 70
    32
  0
VERTEX
  8
T21SSILL
 62
7
 10
-2075.197
 20
515.717
 30
3086.471
 70
    32
  0
VERTEX
  8
T21SSILL
 62
7
 10
-2070.846
 20
514.255
 30
3086.453
 70
    32
  0
VERTEX
  8
T21SSILL
 62
7
 10
-2066.149
 20
510.460
 30
3086.431
 70
    32
  0
VERTEX
  8
T21SSILL
 62
7
 10
-2065.837
 20
500.052
 30
3086.416
 70
    32
  0
VERTEX
  8
T21SSILL
 62
7
 10
-2079.456
 20
489.763
 30
3086.453
 70
    32
  0
VERTEX
  8
T21SSILL
 62
7
 10
-2091.741
 20
493.308
 30
3086.503
 70
    32
  0
VERTEX
  8
T21SSILL
 62
7
 10
-2100.301
 20
507.282
 30
3086.552
 70
    32
  0
VERTEX
  8
T21SSILL
 62
7
 10
-2108.058
 20
501.486
 30
3086.573
 70
    32
  0
VERTEX
  8
T21SSILL
 62
7
 10
-2106.286
 20
492.393
 30
3086.555
 70
    32
  0
VERTEX
  8
T21SSILL
 62
7
 10
-2107.744
 20
488.606
 30
3086.556
 70
    32
  0
VERTEX
  8
T21SSILL
 62
7
 10
-2107.744
 20
488.606
 30
3086.556
 70
    32
  0
VERTEX
  8
T21SSILL
 62
7
 10
-2111.243
 20
479.518
 30
3082.171
 70
    32
  0
VERTEX
  8
T21SSILL
 62
7
 10
-2155.820
 20
459.520
 30
3082.168
 70
    32
  0
VERTEX
  8
T21SSILL
 62
7
 10
-2167.486
 20
456.668
 30
3082.169
 70
    32
  0
VERTEX
  8
T21SSILL
 62
7
 10
-2190.898
 20
462.815
 30
3079.810
 70
    32
  0
SEQEND
  8
T21SSILL
  0
POLYLINE
  8
T21SSILL
 62
7
 66
     1
 70
     9
  0
VERTEX
  8
T21SSILL
 62
7
 10
-1997.682
 20
385.737
 30
3083.629
 70
    32
  0
VERTEX
  8
T21SSILL
 62
7
 10
-2031.375
 20
365.128
 30
3083.331
 70
    32
  0
VERTEX
  8
T21SSILL
 62
7
 10
-2031.375
 20
365.128
 30
3083.331
 70
    32
  0
VERTEX
  8
T21SSILL
 62
7
 10
-2050.717
 20
353.297
 30
3082.205
 70
    32
  0
VERTEX
  8
T21SSILL
 62
7
 10
-2068.418
 20
358.071
 30
3082.201
 70
    32
  0
VERTEX
  8
T21SSILL
 62
7
 10
-2091.096
 20
383.903
 30
3082.193
 70
    32
  0
VERTEX
  8
T21SSILL
 62
7
 10
-2095.756
 20
394.813
 30
3082.190
 70
    32
  0
VERTEX
  8
T21SSILL
 62
7
 10
-2045.167
 20
407.130
 30
3084.786
 70
    32
  0
VERTEX
  8
T21SSILL
 62
7
 10
-2021.558
 20
412.878
 30
3084.723
 70
    32
  0
VERTEX
  8
T21SSILL
 62
7
 10
-2013.844
 20
395.138
 30
3084.089
 70
    32
  0
VERTEX
  8
T21SSILL
 62
7
 10
-2004.078
 20
394.031
 30
3083.954
 70
    32
  0
VERTEX
  8
T21SSILL
 62
7
 10
-1997.682
 20
385.737
 30
3083.629
 70
    32
  0
SEQEND
  8
T21SSILL
  0
POLYLINE
  8
T21SSILL
 62
7
 66
     1
 70
     9
  0
VERTEX
  8
T21SSILL
 62
7
 10
-2122.581
 20
418.004
 30
3082.181
 70
    32
  0
VERTEX
  8
T21SSILL
 62
7
 10
-2120.411
 20
425.324
 30
3082.180
 70
    32
  0
VERTEX
  8
T21SSILL
 62
7
 10
-2070.707
 20
439.313
 30
3082.185
 70
    32
  0
VERTEX
  8
T21SSILL
 62
7
 10
-2061.564
 20
436.362
 30
3082.187
 70
    32
  0
VERTEX
  8
T21SSILL
 62
7
 10
-2052.302
 20
425.696
 30
3078.579
 70
    32
  0
VERTEX
  8
T21SSILL
 62
7
 10
-2051.155
 20
425.362
 30
3085.417
 70
    32
  0
VERTEX
  8
T21SSILL
 62
7
 10
-2042.035
 20
422.704
 30
3085.240
 70
    32
  0
VERTEX
  8
T21SSILL
 62
7
 10
-2040.651
 20
419.351
 30
3085.121
 70
    32
  0
VERTEX
  8
T21SSILL
 62
7
 10
-2048.683
 20
417.835
 30
3085.156
 70
    32
  0
VERTEX
  8
T21SSILL
 62
7
 10
-2091.039
 20
409.837
 30
3082.188
 70
    32
  0
VERTEX
  8
T21SSILL
 62
7
 10
-2093.228
 20
413.154
 30
3082.187
 70
    32
  0
VERTEX
  8
T21SSILL
 62
7
 10
-2108.076
 20
409.682
 30
3082.185
 70
    32
  0
VERTEX
  8
T21SSILL
 62
7
 10
-2114.042
 20
410.160
 30
3082.184
 70
    32
  0
VERTEX
  8
T21SSILL
 62
7
 10
-2122.581
 20
418.004
 30
3082.181
 70
    32
  0
SEQEND
  8
T21SSILL
  0
POLYLINE
  8
T21SSILL
 62
7
 66
     1
 70
     9
  0
VERTEX
  8
T21SSILL
 62
7
 10
175.452
 20
-1749.262
 30
3085.800
 70
    32
  0
VERTEX
  8
T21SSILL
 62
7
 10
185.971
 20
-1742.203
 30
3085.800
 70
    32
  0
VERTEX
  8
T21SSILL
 62
7
 10
192.878
 20
-1735.491
 30
3085.800
 70
    32
  0
VERTEX
  8
T21SSILL
 62
7
 10
200.277
 20
-1732.709
 30
3085.742
 70
    32
  0
VERTEX
  8
T21SSILL
 62
7
 10
207.028
 20
-1733.434
 30
3085.720
 70
    32
  0
VERTEX
  8
T21SSILL
 62
7
 10
217.790
 20
-1744.095
 30
3085.667
 70
    32
  0
VERTEX
  8
T21SSILL
 62
7
 10
230.614
 20
-1762.629
 30
3085.609
 70
    32
  0
VERTEX
  8
T21SSILL
 62
7
 10
225.948
 20
-1765.941
 30
3085.618
 70
    32
  0
VERTEX
  8
T21SSILL
 62
7
 10
231.058
 20
-1770.326
 30
3085.606
 70
    32
  0
VERTEX
  8
T21SSILL
 62
7
 10
251.547
 20
-1798.863
 30
3085.558
 70
    32
  0
VERTEX
  8
T21SSILL
 62
7
 10
251.613
 20
-1812.709
 30
3085.555
 70
    32
  0
VERTEX
  8
T21SSILL
 62
7
 10
259.010
 20
-1824.786
 30
3085.536
 70
    32
  0
VERTEX
  8
T21SSILL
 62
7
 10
259.429
 20
-1825.419
 30
3085.000
 70
    32
  0
VERTEX
  8
T21SSILL
 62
7
 10
259.835
 20
-1826.083
 30
3085.000
 70
    32
  0
VERTEX
  8
T21SSILL
 62
7
 10
260.377
 20
-1834.072
 30
3085.000
 70
    32
  0
VERTEX
  8
T21SSILL
 62
7
 10
258.567
 20
-1849.743
 30
3085.000
 70
    32
  0
VERTEX
  8
T21SSILL
 62
7
 10
258.552
 20
-1855.634
 30
3085.000
 70
    32
  0
VERTEX
  8
T21SSILL
 62
7
 10
254.961
 20
-1856.636
 30
3085.000
 70
    32
  0
VERTEX
  8
T21SSILL
 62
7
 10
222.045
 20
-1848.767
 30
3085.609
 70
    32
  0
VERTEX
  8
T21SSILL
 62
7
 10
222.045
 20
-1848.767
 30
3085.609
 70
    32
  0
VERTEX
  8
T21SSILL
 62
7
 10
217.897
 20
-1847.247
 30
3085.618
 70
    32
  0
VERTEX
  8
T21SSILL
 62
7
 10
216.814
 20
-1841.602
 30
3085.621
 70
    32
  0
VERTEX
  8
T21SSILL
 62
7
 10
199.001
 20
-1838.292
 30
3085.658
 70
    32
  0
VERTEX
  8
T21SSILL
 62
7
 10
188.081
 20
-1842.151
 30
3085.680
 70
    32
  0
VERTEX
  8
T21SSILL
 62
7
 10
183.794
 20
-1841.365
 30
3085.689
 70
    32
  0
VERTEX
  8
T21SSILL
 62
7
 10
174.305
 20
-1833.481
 30
3085.710
 70
    32
  0
VERTEX
  8
T21SSILL
 62
7
 10
169.011
 20
-1826.558
 30
3085.723
 70
    32
  0
VERTEX
  8
T21SSILL
 62
7
 10
164.859
 20
-1818.363
 30
3085.733
 70
    32
  0
VERTEX
  8
T21SSILL
 62
7
 10
166.737
 20
-1786.541
 30
3085.761
 70
    32
  0
VERTEX
  8
T21SSILL
 62
7
 10
171.906
 20
-1774.240
 30
3085.765
 70
    32
  0
VERTEX
  8
T21SSILL
 62
7
 10
186.079
 20
-1783.601
 30
3085.704
 70
    32
  0
VERTEX
  8
T21SSILL
 62
7
 10
187.189
 20
-1799.702
 30
3085.691
 70
    32
  0
VERTEX
  8
T21SSILL
 62
7
 10
196.594
 20
-1800.773
 30
3085.671
 70
    32
  0
VERTEX
  8
T21SSILL
 62
7
 10
197.528
 20
-1791.031
 30
3085.671
 70
    32
  0
VERTEX
  8
T21SSILL
 62
7
 10
196.829
 20
-1784.123
 30
3085.674
 70
    32
  0
VERTEX
  8
T21SSILL
 62
7
 10
193.287
 20
-1773.188
 30
3085.698
 70
    32
  0
VERTEX
  8
T21SSILL
 62
7
 10
184.573
 20
-1765.172
 30
3085.739
 70
    32
  0
VERTEX
  8
T21SSILL
 62
7
 10
180.216
 20
-1759.527
 30
3085.763
 70
    32
  0
VERTEX
  8
T21SSILL
 62
7
 10
176.981
 20
-1754.369
 30
3085.782
 70
    32
  0
SEQEND
  8
T21SSILL
  0
POLYLINE
  8
T21SSILL
 62
7
 66
     1
 70
     9
  0
VERTEX
  8
T21SSILL
 62
7
 10
294.948
 20
-1866.169
 30
3085.455
 70
    32
  0
VERTEX
  8
T21SSILL
 62
7
 10
294.496
 20
-1857.812
 30
3085.458
 70
    32
  0
VERTEX
  8
T21SSILL
 62
7
 10
274.736
 20
-1831.160
 30
3085.504
 70
    32
  0
VERTEX
  8
T21SSILL
 62
7
 10
269.982
 20
-1829.543
 30
3085.000
 70
    32
  0
VERTEX
  8
T21SSILL
 62
7
 10
269.632
 20
-1835.596
 30
3085.000
 70
    32
  0
VERTEX
  8
T21SSILL
 62
7
 10
267.789
 20
-1850.311
 30
3085.000
 70
    32
  0
VERTEX
  8
T21SSILL
 62
7
 10
269.779
 20
-1856.723
 30
3085.000
 70
    32
  0
VERTEX
  8
T21SSILL
 62
7
 10
270.494
 20
-1859.122
 30
3085.000
 70
    32
  0
SEQEND
  8
T21SSILL
  0
TEXT
  8
T21SSILL
 62
7
 10
328.454
 20
-2533.863
 30
3085.100
 40
3.000
  1
9-3-80
 50
35.575
 41
 1.0 
  0
TEXT
  8
T21SSILL
 62
7
 10
325.545
 20
-2529.797
 30
3085.100
 40
3.000
  1
3083.93
 50
35.575
 41
 1.0 
  0
TEXT
  8
T21SSILL
 62
7
 10
221.263
 20
-2383.220
 30
3085.100
 40
3.000
  1
10-1-80
 50
30.751
 41
 1.0 
  0
TEXT
  8
T21SSILL
 62
7
 10
964.383
 20
-1549.463
 30
3090.921
 40
0.200
  1
2150
 50
125.002
 41
 1.0 
  0
TEXT
  8
T21SSILL
 62
7
 10
322.636
 20
-2525.730
 30
3085.100
 40
3.000
  1
B.M.
 50
35.575
 41
 1.0 
  0
POLYLINE
  8
T21SSILL
 62
1
 66
     1
 70
     8
  0
VERTEX
  8
T21SSILL
 62
1
 10
67.497
 20
-1577.660
 30
3087.041
 70
    32
  0
VERTEX
  8
T21SSILL
 62
1
 10
66.499
 20
-1572.653
 30
3087.533
 70
    32
  0
VERTEX
  8
T21SSILL
 62
1
 10
61.320
 20
-1565.459
 30
3087.684
 70
    32
  0
VERTEX
  8
T21SSILL
 62
1
 10
63.503
 20
-1557.132
 30
3087.926
 70
    32
  0
VERTEX
  8
T21SSILL
 62
1
 10
63.146
 20
-1550.952
 30
3088.329
 70
    32
  0
VERTEX
  8
T21SSILL
 62
1
 10
61.077
 20
-1542.906
 30
3089.545
 70
    32
  0
VERTEX
  8
T21SSILL
 62
1
 10
59.229
 20
-1535.924
 30
3090.587
 70
    32
  0
VERTEX
  8
T21SSILL
 62
1
 10
57.049
 20
-1533.364
 30
3090.846
 70
    32
  0
VERTEX
  8
T21SSILL
 62
1
 10
58.835
 20
-1530.429
 30
3091.000
 70
    32
  0
VERTEX
  8
T21SSILL
 62
1
 10
56.101
 20
-1515.391
 30
3094.800
 70
    32
  0
VERTEX
  8
T21SSILL
 62
1
 10
56.458
 20
-1513.252
 30
3094.037
 70
    32
  0
VERTEX
  8
T21SSILL
 62
1
 10
53.590
 20
-1481.502
 30
3096.974
 70
    32
  0
VERTEX
  8
T21SSILL
 62
1
 10
54.959
 20
-1454.219
 30
3097.979
 70
    32
  0
VERTEX
  8
T21SSILL
 62
1
 10
54.941
 20
-1453.657
 30
3098.001
 70
    32
  0
VERTEX
  8
T21SSILL
 62
1
 10
54.745
 20
-1446.230
 30
3098.001
 70
    32
  0
VERTEX
  8
T21SSILL
 62
1
 10
54.486
 20
-1432.960
 30
3098.001
 70
    32
  0
VERTEX
  8
T21SSILL
 62
1
 10
50.096
 20
-1427.035
 30
3098.001
 70
    32
  0
VERTEX
  8
T21SSILL
 62
1
 10
42.575
 20
-1419.565
 30
3097.101
 70
    32
  0
VERTEX
  8
T21SSILL
 62
1
 10
34.227
 20
-1416.246
 30
3097.101
 70
    32
  0
VERTEX
  8
T21SSILL
 62
1
 10
31.945
 20
-1409.782
 30
3097.101
 70
    32
  0
VERTEX
  8
T21SSILL
 62
1
 10
25.856
 20
-1404.778
 30
3097.101
 70
    32
  0
VERTEX
  8
T21SSILL
 62
1
 10
17.062
 20
-1394.836
 30
3097.101
 70
    32
  0
VERTEX
  8
T21SSILL
 62
1
 10
10.822
 20
-1386.843
 30
3097.101
 70
    32
  0
VERTEX
  8
T21SSILL
 62
1
 10
12.634
 20
-1381.249
 30
3097.101
 70
    32
  0
VERTEX
  8
T21SSILL
 62
1
 10
8.208
 20
-1373.651
 30
3097.101
 70
    32
  0
VERTEX
  8
T21SSILL
 62
1
 10
7.523
 20
-1372.668
 30
3096.700
 70
    32
  0
VERTEX
  8
T21SSILL
 62
1
 10
-0.024
 20
-1356.723
 30
3094.500
 70
    32
  0
VERTEX
  8
T21SSILL
 62
1
 10
-1.325
 20
-1348.358
 30
3092.500
 70
    32
  0
VERTEX
  8
T21SSILL
 62
1
 10
-0.804
 20
-1341.824
 30
3091.000
 70
    32
  0
VERTEX
  8
T21SSILL
 62
1
 10
-12.445
 20
-1310.139
 30
3083.292
 70
    32
  0
VERTEX
  8
T21SSILL
 62
1
 10
-2.548
 20
-1305.337
 30
3083.294
 70
    32
  0
VERTEX
  8
T21SSILL
 62
1
 10
3.575
 20
-1320.596
 30
3087.333
 70
    32
  0
VERTEX
  8
T21SSILL
 62
1
 10
9.359
 20
-1335.790
 30
3090.403
 70
    32
  0
VERTEX
  8
T21SSILL
 62
1
 10
10.387
 20
-1338.426
 30
3091.000
 70
    32
  0
VERTEX
  8
T21SSILL
 62
1
 10
11.688
 20
-1349.143
 30
3093.000
 70
    32
  0
VERTEX
  8
T21SSILL
 62
1
 10
14.550
 20
-1356.723
 30
3095.000
 70
    32
  0
VERTEX
  8
T21SSILL
 62
1
 10
17.934
 20
-1366.917
 30
3097.000
 70
    32
  0
VERTEX
  8
T21SSILL
 62
1
 10
18.259
 20
-1368.973
 30
3097.101
 70
    32
  0
VERTEX
  8
T21SSILL
 62
1
 10
26.993
 20
-1383.728
 30
3097.101
 70
    32
  0
VERTEX
  8
T21SSILL
 62
1
 10
36.392
 20
-1392.404
 30
3097.101
 70
    32
  0
VERTEX
  8
T21SSILL
 62
1
 10
45.052
 20
-1402.014
 30
3097.101
 70
    32
  0
VERTEX
  8
T21SSILL
 62
1
 10
55.295
 20
-1405.632
 30
3097.101
 70
    32
  0
VERTEX
  8
T21SSILL
 62
1
 10
59.557
 20
-1411.378
 30
3097.101
 70
    32
  0
VERTEX
  8
T21SSILL
 62
1
 10
63.824
 20
-1418.521
 30
3097.101
 70
    32
  0
VERTEX
  8
T21SSILL
 62
1
 10
64.508
 20
-1420.134
 30
3098.001
 70
    32
  0
VERTEX
  8
T21SSILL
 62
1
 10
69.099
 20
-1435.358
 30
3098.001
 70
    32
  0
VERTEX
  8
T21SSILL
 62
1
 10
69.188
 20
-1448.606
 30
3098.001
 70
    32
  0
VERTEX
  8
T21SSILL
 62
1
 10
66.307
 20
-1450.978
 30
3097.341
 70
    32
  0
VERTEX
  8
T21SSILL
 62
1
 10
70.511
 20
-1463.608
 30
3097.587
 70
    32
  0
VERTEX
  8
T21SSILL
 62
1
 10
71.538
 20
-1477.817
 30
3097.144
 70
    32
  0
VERTEX
  8
T21SSILL
 62
1
 10
65.775
 20
-1490.761
 30
3096.698
 70
    32
  0
VERTEX
  8
T21SSILL
 62
1
 10
68.508
 20
-1513.448
 30
3094.592
 70
    32
  0
VERTEX
  8
T21SSILL
 62
1
 10
68.682
 20
-1514.511
 30
3094.830
 70
    32
  0
VERTEX
  8
T21SSILL
 62
1
 10
67.972
 20
-1523.014
 30
3092.017
 70
    32
  0
VERTEX
  8
T21SSILL
 62
1
 10
69.992
 20
-1525.836
 30
3091.681
 70
    32
  0
VERTEX
  8
T21SSILL
 62
1
 10
69.348
 20
-1532.254
 30
3091.034
 70
    32
  0
VERTEX
  8
T21SSILL
 62
1
 10
71.361
 20
-1536.206
 30
3090.524
 70
    32
  0
VERTEX
  8
T21SSILL
 62
1
 10
71.545
 20
-1544.969
 30
3089.387
 70
    32
  0
VERTEX
  8
T21SSILL
 62
1
 10
77.129
 20
-1550.862
 30
3088.393
 70
    32
  0
VERTEX
  8
T21SSILL
 62
1
 10
75.124
 20
-1554.216
 30
3088.230
 70
    32
  0
VERTEX
  8
T21SSILL
 62
1
 10
76.149
 20
-1562.780
 30
3087.593
 70
    32
  0
VERTEX
  8
T21SSILL
 62
1
 10
76.031
 20
-1568.601
 30
3087.472
 70
    32
  0
VERTEX
  8
T21SSILL
 62
1
 10
78.327
 20
-1575.645
 30
3087.084
 70
    32
  0
VERTEX
  8
T21SSILL
 62
1
 10
77.802
 20
-1578.315
 30
3087.058
 70
    32
  0
SEQEND
  8
T21SSILL
  0
POLYLINE
  8
T21SSILL
 62
7
 66
     1
 70
     8
  0
VERTEX
  8
T21SSILL
 62
7
 10
155.535
 20
-1792.884
 30
3085.805
 70
    32
  0
VERTEX
  8
T21SSILL
 62
7
 10
129.596
 20
-1755.677
 30
3086.018
 70
    32
  0
VERTEX
  8
T21SSILL
 62
7
 10
115.182
 20
-1735.000
 30
3086.137
 70
    32
  0
VERTEX
  8
T21SSILL
 62
7
 10
101.697
 20
-1715.657
 30
3086.239
 70
    32
  0
VERTEX
  8
T21SSILL
 62
7
 10
101.392
 20
-1714.049
 30
3086.247
 70
    32
  0
VERTEX
  8
T21SSILL
 62
7
 10
101.179
 20
-1712.929
 30
3086.261
 70
    32
  0
VERTEX
  8
T21SSILL
 62
7
 10
99.432
 20
-1703.726
 30
3086.375
 70
    32
  0
VERTEX
  8
T21SSILL
 62
7
 10
96.857
 20
-1688.831
 30
3086.559
 70
    32
  0
VERTEX
  8
T21SSILL
 62
7
 10
91.675
 20
-1658.854
 30
3086.938
 70
    32
  0
VERTEX
  8
T21SSILL
 62
7
 10
85.980
 20
-1627.549
 30
3087.335
 70
    32
  0
VERTEX
  8
T21SSILL
 62
7
 10
83.709
 20
-1614.058
 30
3087.506
 70
    32
  0
VERTEX
  8
T21SSILL
 62
7
 10
85.550
 20
-1610.443
 30
3087.547
 70
    32
  0
VERTEX
  8
T21SSILL
 62
7
 10
87.719
 20
-1606.860
 30
3087.586
 70
    32
  0
VERTEX
  8
T21SSILL
 62
7
 10
90.282
 20
-1602.628
 30
3087.754
 70
    32
  0
VERTEX
  8
T21SSILL
 62
7
 10
90.821
 20
-1601.738
 30
3087.740
 70
    32
  0
VERTEX
  8
T21SSILL
 62
7
 10
99.159
 20
-1594.618
 30
3087.632
 70
    32
  0
VERTEX
  8
T21SSILL
 62
7
 10
99.159
 20
-1594.618
 30
3087.783
 70
    32
  0
VERTEX
  8
T21SSILL
 62
7
 10
99.967
 20
-1594.040
 30
3087.777
 70
    32
  0
VERTEX
  8
T21SSILL
 62
7
 10
116.274
 20
-1582.392
 30
3087.645
 70
    32
  0
VERTEX
  8
T21SSILL
 62
7
 10
123.615
 20
-1577.147
 30
3087.995
 70
    32
  0
VERTEX
  8
T21SSILL
 62
7
 10
124.382
 20
-1576.599
 30
3088.031
 70
    32
  0
VERTEX
  8
T21SSILL
 62
7
 10
124.336
 20
-1576.632
 30
3088.029
 70
    32
  0
VERTEX
  8
T21SSILL
 62
7
 10
139.939
 20
-1568.031
 30
3086.210
 70
    32
  0
VERTEX
  8
T21SSILL
 62
7
 10
145.349
 20
-1565.080
 30
3088.977
 70
    32
  0
VERTEX
  8
T21SSILL
 62
7
 10
150.164
 20
-1567.693
 30
3089.992
 70
    32
  0
VERTEX
  8
T21SSILL
 62
7
 10
148.011
 20
-1575.059
 30
3086.210
 70
    32
  0
VERTEX
  8
T21SSILL
 62
7
 10
144.185
 20
-1588.922
 30
3087.655
 70
    32
  0
VERTEX
  8
T21SSILL
 62
7
 10
140.381
 20
-1599.709
 30
3085.563
 70
    32
  0
VERTEX
  8
T21SSILL
 62
7
 10
131.883
 20
-1623.809
 30
3081.049
 70
    32
  0
VERTEX
  8
T21SSILL
 62
7
 10
128.357
 20
-1633.614
 30
3080.614
 70
    32
  0
VERTEX
  8
T21SSILL
 62
7
 10
127.987
 20
-1634.134
 30
3080.000
 70
    32
  0
VERTEX
  8
T21SSILL
 62
7
 10
118.809
 20
-1636.211
 30
3079.000
 70
    32
  0
VERTEX
  8
T21SSILL
 62
7
 10
112.369
 20
-1642.516
 30
3077.000
 70
    32
  0
VERTEX
  8
T21SSILL
 62
7
 10
109.084
 20
-1645.712
 30
3076.600
 70
    32
  0
VERTEX
  8
T21SSILL
 62
7
 10
102.134
 20
-1650.968
 30
3075.000
 70
    32
  0
VERTEX
  8
T21SSILL
 62
7
 10
108.147
 20
-1659.182
 30
3075.000
 70
    32
  0
VERTEX
  8
T21SSILL
 62
7
 10
110.811
 20
-1657.792
 30
3074.800
 70
    32
  0
VERTEX
  8
T21SSILL
 62
7
 10
112.792
 20
-1658.411
 30
3074.400
 70
    32
  0
VERTEX
  8
T21SSILL
 62
7
 10
114.407
 20
-1660.822
 30
3074.000
 70
    32
  0
VERTEX
  8
T21SSILL
 62
7
 10
116.662
 20
-1665.289
 30
3072.000
 70
    32
  0
VERTEX
  8
T21SSILL
 62
7
 10
117.032
 20
-1665.883
 30
3072.882
 70
    32
  0
VERTEX
  8
T21SSILL
 62
7
 10
114.978
 20
-1671.751
 30
3072.068
 70
    32
  0
VERTEX
  8
T21SSILL
 62
7
 10
124.887
 20
-1673.719
 30
3072.007
 70
    32
  0
VERTEX
  8
T21SSILL
 62
7
 10
132.949
 20
-1650.857
 30
3076.289
 70
    32
  0
VERTEX
  8
T21SSILL
 62
7
 10
134.485
 20
-1646.500
 30
3077.134
 70
    32
  0
VERTEX
  8
T21SSILL
 62
7
 10
141.164
 20
-1627.560
 30
3080.807
 70
    32
  0
VERTEX
  8
T21SSILL
 62
7
 10
145.640
 20
-1614.896
 30
3083.263
 70
    32
  0
VERTEX
  8
T21SSILL
 62
7
 10
147.956
 20
-1614.532
 30
3083.578
 70
    32
  0
VERTEX
  8
T21SSILL
 62
7
 10
152.494
 20
-1612.596
 30
3084.920
 70
    32
  0
VERTEX
  8
T21SSILL
 62
7
 10
164.101
 20
-1636.519
 30
3085.920
 70
    32
  0
VERTEX
  8
T21SSILL
 62
7
 10
164.361
 20
-1637.168
 30
3089.001
 70
    32
  0
VERTEX
  8
T21SSILL
 62
7
 10
168.611
 20
-1648.282
 30
3089.001
 70
    32
  0
VERTEX
  8
T21SSILL
 62
7
 10
168.579
 20
-1659.439
 30
3089.001
 70
    32
  0
VERTEX
  8
T21SSILL
 62
7
 10
175.335
 20
-1676.552
 30
3089.001
 70
    32
  0
VERTEX
  8
T21SSILL
 62
7
 10
175.625
 20
-1677.475
 30
3088.092
 70
    32
  0
VERTEX
  8
T21SSILL
 62
7
 10
177.028
 20
-1681.642
 30
3088.092
 70
    32
  0
VERTEX
  8
T21SSILL
 62
7
 10
174.343
 20
-1684.265
 30
3088.092
 70
    32
  0
VERTEX
  8
T21SSILL
 62
7
 10
179.554
 20
-1690.153
 30
3088.092
 70
    32
  0
VERTEX
  8
T21SSILL
 62
7
 10
182.478
 20
-1694.572
 30
3088.092
 70
    32
  0
VERTEX
  8
T21SSILL
 62
7
 10
192.069
 20
-1694.580
 30
3088.092
 70
    32
  0
VERTEX
  8
T21SSILL
 62
7
 10
202.827
 20
-1688.301
 30
3088.092
 70
    32
  0
VERTEX
  8
T21SSILL
 62
7
 10
201.172
 20
-1679.038
 30
3088.092
 70
    32
  0
VERTEX
  8
T21SSILL
 62
7
 10
201.035
 20
-1678.643
 30
3089.001
 70
    32
  0
VERTEX
  8
T21SSILL
 62
7
 10
204.680
 20
-1675.563
 30
3089.001
 70
    32
  0
VERTEX
  8
T21SSILL
 62
7
 10
201.347
 20
-1668.335
 30
3089.001
 70
    32
  0
VERTEX
  8
T21SSILL
 62
7
 10
203.017
 20
-1663.429
 30
3089.001
 70
    32
  0
VERTEX
  8
T21SSILL
 62
7
 10
195.212
 20
-1647.539
 30
3089.001
 70
    32
  0
VERTEX
  8
T21SSILL
 62
7
 10
199.094
 20
-1639.249
 30
3089.001
 70
    32
  0
VERTEX
  8
T21SSILL
 62
7
 10
192.071
 20
-1621.539
 30
3089.001
 70
    32
  0
VERTEX
  8
T21SSILL
 62
7
 10
184.547
 20
-1618.443
 30
3089.001
 70
    32
  0
VERTEX
  8
T21SSILL
 62
7
 10
178.230
 20
-1612.391
 30
3089.001
 70
    32
  0
VERTEX
  8
T21SSILL
 62
7
 10
165.399
 20
-1607.542
 30
3089.001
 70
    32
  0
VERTEX
  8
T21SSILL
 62
7
 10
163.972
 20
-1607.412
 30
3085.920
 70
    32
  0
VERTEX
  8
T21SSILL
 62
7
 10
160.776
 20
-1601.235
 30
3085.920
 70
    32
  0
VERTEX
  8
T21SSILL
 62
7
 10
156.327
 20
-1588.626
 30
3086.920
 70
    32
  0
VERTEX
  8
T21SSILL
 62
7
 10
155.301
 20
-1587.564
 30
3088.565
 70
    32
  0
VERTEX
  8
T21SSILL
 62
7
 10
158.326
 20
-1579.152
 30
3090.200
 70
    32
  0
VERTEX
  8
T21SSILL
 62
7
 10
160.645
 20
-1572.501
 30
3090.019
 70
    32
  0
VERTEX
  8
T21SSILL
 62
7
 10
161.405
 20
-1570.321
 30
3089.960
 70
    32
  0
VERTEX
  8
T21SSILL
 62
7
 10
163.300
 20
-1564.887
 30
3086.210
 70
    32
  0
VERTEX
  8
T21SSILL
 62
7
 10
173.201
 20
-1560.732
 30
3089.960
 70
    32
  0
VERTEX
  8
T21SSILL
 62
7
 10
174.257
 20
-1557.350
 30
3089.959
 70
    32
  0
VERTEX
  8
T21SSILL
 62
7
 10
178.900
 20
-1556.008
 30
3089.960
 70
    32
  0
VERTEX
  8
T21SSILL
 62
7
 10
193.662
 20
-1560.705
 30
3090.777
 70
    32
  0
VERTEX
  8
T21SSILL
 62
7
 10
197.418
 20
-1561.464
 30
3089.847
 70
    32
  0
VERTEX
  8
T21SSILL
 62
7
 10
204.600
 20
-1563.348
 30
3089.847
 70
    32
  0
VERTEX
  8
T21SSILL
 62
7
 10
214.043
 20
-1563.133
 30
3089.847
 70
    32
  0
VERTEX
  8
T21SSILL
 62
7
 10
226.705
 20
-1561.843
 30
3089.847
 70
    32
  0
VERTEX
  8
T21SSILL
 62
7
 10
233.358
 20
-1558.616
 30
3089.847
 70
    32
  0
VERTEX
  8
T21SSILL
 62
7
 10
267.481
 20
-1553.455
 30
3089.847
 70
    32
  0
VERTEX
  8
T21SSILL
 62
7
 10
295.381
 20
-1549.154
 30
3089.847
 70
    32
  0
VERTEX
  8
T21SSILL
 62
7
 10
317.057
 20
-1545.713
 30
3089.847
 70
    32
  0
VERTEX
  8
T21SSILL
 62
7
 10
331.436
 20
-1543.347
 30
3089.847
 70
    32
  0
VERTEX
  8
T21SSILL
 62
7
 10
331.222
 20
-1533.239
 30
3089.942
 70
    32
  0
VERTEX
  8
T21SSILL
 62
7
 10
222.627
 20
-1550.444
 30
3089.942
 70
    32
  0
VERTEX
  8
T21SSILL
 62
7
 10
202.668
 20
-1552.380
 30
3089.942
 70
    32
  0
VERTEX
  8
T21SSILL
 62
7
 10
198.923
 20
-1551.159
 30
3089.942
 70
    32
  0
VERTEX
  8
T21SSILL
 62
7
 10
186.797
 20
-1548.416
 30
3089.955
 70
    32
  0
VERTEX
  8
T21SSILL
 62
7
 10
185.325
 20
-1543.736
 30
3089.953
 70
    32
  0
VERTEX
  8
T21SSILL
 62
7
 10
185.436
 20
-1543.677
 30
3089.953
 70
    32
  0
VERTEX
  8
T21SSILL
 62
7
 10
206.959
 20
-1532.156
 30
3089.947
 70
    32
  0
VERTEX
  8
T21SSILL
 62
7
 10
241.553
 20
-1513.380
 30
3089.939
 70
    32
  0
VERTEX
  8
T21SSILL
 62
7
 10
249.529
 20
-1508.953
 30
3089.936
 70
    32
  0
VERTEX
  8
T21SSILL
 62
7
 10
317.704
 20
-1471.118
 30
3089.958
 70
    32
  0
VERTEX
  8
T21SSILL
 62
7
 10
312.851
 20
-1462.375
 30
3089.958
 70
    32
  0
VERTEX
  8
T21SSILL
 62
7
 10
238.204
 20
-1503.802
 30
3089.934
 70
    32
  0
VERTEX
  8
T21SSILL
 62
7
 10
202.106
 20
-1523.411
 30
3089.944
 70
    32
  0
VERTEX
  8
T21SSILL
 62
7
 10
160.257
 20
-1545.812
 30
3089.954
 70
    32
  0
VERTEX
  8
T21SSILL
 62
7
 10
146.278
 20
-1553.295
 30
3089.257
 70
    32
  0
VERTEX
  8
T21SSILL
 62
7
 10
140.146
 20
-1556.578
 30
3088.951
 70
    32
  0
VERTEX
  8
T21SSILL
 62
7
 10
135.253
 20
-1559.197
 30
3088.735
 70
    32
  0
VERTEX
  8
T21SSILL
 62
7
 10
135.253
 20
-1559.197
 30
3086.210
 70
    32
  0
VERTEX
  8
T21SSILL
 62
7
 10
122.054
 20
-1566.262
 30
3086.367
 70
    32
  0
VERTEX
  8
T21SSILL
 62
7
 10
119.807
 20
-1568.058
 30
3088.040
 70
    32
  0
VERTEX
  8
T21SSILL
 62
7
 10
119.870
 20
-1568.013
 30
3088.043
 70
    32
  0
VERTEX
  8
T21SSILL
 62
7
 10
112.813
 20
-1573.087
 30
3087.706
 70
    32
  0
VERTEX
  8
T21SSILL
 62
7
 10
111.148
 20
-1574.285
 30
3087.627
 70
    32
  0
VERTEX
  8
T21SSILL
 62
7
 10
92.204
 20
-1587.905
 30
3087.780
 70
    32
  0
VERTEX
  8
T21SSILL
 62
7
 10
92.204
 20
-1587.905
 30
3087.526
 70
    32
  0
VERTEX
  8
T21SSILL
 62
7
 10
86.364
 20
-1592.359
 30
3087.576
 70
    32
  0
VERTEX
  8
T21SSILL
 62
7
 10
85.413
 20
-1593.084
 30
3087.587
 70
    32
  0
VERTEX
  8
T21SSILL
 62
7
 10
83.024
 20
-1591.946
 30
3087.565
 70
    32
  0
VERTEX
  8
T21SSILL
 62
7
 10
79.846
 20
-1590.432
 30
3087.538
 70
    32
  0
VERTEX
  8
T21SSILL
 62
7
 10
77.728
 20
-1577.629
 30
3087.360
 70
    32
  0
VERTEX
  8
T21SSILL
 62
7
 10
76.335
 20
-1569.211
 30
3085.843
 70
    32
  0
VERTEX
  8
T21SSILL
 62
7
 10
69.819
 20
-1530.273
 30
3078.825
 70
    32
  0
VERTEX
  8
T21SSILL
 62
7
 10
70.221
 20
-1526.542
 30
3078.176
 70
    32
  0
VERTEX
  8
T21SSILL
 62
7
 10
69.187
 20
-1515.252
 30
3076.161
 70
    32
  0
VERTEX
  8
T21SSILL
 62
7
 10
68.606
 20
-1508.906
 30
3075.002
 70
    32
  0
VERTEX
  8
T21SSILL
 62
7
 10
64.784
 20
-1494.727
 30
3072.342
 70
    32
  0
VERTEX
  8
T21SSILL
 62
7
 10
63.871
 20
-1474.032
 30
3068.591
 70
    32
  0
VERTEX
  8
T21SSILL
 62
7
 10
73.841
 20
-1466.661
 30
3067.546
 70
    32
  0
VERTEX
  8
T21SSILL
 62
7
 10
84.287
 20
-1467.395
 30
3067.974
 70
    32
  0
VERTEX
  8
T21SSILL
 62
7
 10
84.138
 20
-1463.338
 30
3067.240
 70
    32
  0
VERTEX
  8
T21SSILL
 62
7
 10
84.038
 20
-1460.616
 30
3067.240
 70
    32
  0
VERTEX
  8
T21SSILL
 62
7
 10
86.571
 20
-1454.970
 30
3067.240
 70
    32
  0
VERTEX
  8
T21SSILL
 62
7
 10
67.145
 20
-1432.700
 30
3067.240
 70
    32
  0
VERTEX
  8
T21SSILL
 62
7
 10
60.827
 20
-1429.092
 30
3067.240
 70
    32
  0
VERTEX
  8
T21SSILL
 62
7
 10
57.351
 20
-1423.408
 30
3067.240
 70
    32
  0
VERTEX
  8
T21SSILL
 62
7
 10
53.932
 20
-1417.816
 30
3067.240
 70
    32
  0
VERTEX
  8
T21SSILL
 62
7
 10
50.761
 20
-1405.502
 30
3067.240
 70
    32
  0
VERTEX
  8
T21SSILL
 62
7
 10
41.901
 20
-1407.803
 30
3067.240
 70
    32
  0
VERTEX
  8
T21SSILL
 62
7
 10
45.864
 20
-1429.462
 30
3067.240
 70
    32
  0
VERTEX
  8
T21SSILL
 62
7
 10
36.246
 20
-1436.843
 30
3067.240
 70
    32
  0
VERTEX
  8
T21SSILL
 62
7
 10
37.455
 20
-1440.747
 30
3067.240
 70
    32
  0
VERTEX
  8
T21SSILL
 62
7
 10
38.987
 20
-1442.267
 30
3067.240
 70
    32
  0
VERTEX
  8
T21SSILL
 62
7
 10
47.124
 20
-1450.342
 30
3067.240
 70
    32
  0
VERTEX
  8
T21SSILL
 62
7
 10
48.419
 20
-1466.825
 30
3067.240
 70
    32
  0
VERTEX
  8
T21SSILL
 62
7
 10
48.834
 20
-1468.889
 30
3067.240
 70
    32
  0
VERTEX
  8
T21SSILL
 62
7
 10
49.113
 20
-1470.275
 30
3067.497
 70
    32
  0
VERTEX
  8
T21SSILL
 62
7
 10
52.123
 20
-1475.813
 30
3068.579
 70
    32
  0
VERTEX
  8
T21SSILL
 62
7
 10
57.266
 20
-1499.352
 30
3072.961
 70
    32
  0
VERTEX
  8
T21SSILL
 62
7
 10
60.892
 20
-1527.915
 30
3078.205
 70
    32
  0
VERTEX
  8
T21SSILL
 62
7
 10
61.513
 20
-1532.805
 30
3079.082
 70
    32
  0
VERTEX
  8
T21SSILL
 62
7
 10
60.937
 20
-1537.785
 30
3079.947
 70
    32
  0
VERTEX
  8
T21SSILL
 62
7
 10
66.387
 20
-1570.354
 30
3085.818
 70
    32
  0
VERTEX
  8
T21SSILL
 62
7
 10
68.041
 20
-1578.606
 30
3087.311
 70
    32
  0
VERTEX
  8
T21SSILL
 62
7
 10
68.086
 20
-1578.877
 30
3087.360
 70
    32
  0
VERTEX
  8
T21SSILL
 62
7
 10
69.988
 20
-1590.334
 30
3087.520
 70
    32
  0
VERTEX
  8
T21SSILL
 62
7
 10
71.585
 20
-1599.959
 30
3087.684
 70
    32
  0
VERTEX
  8
T21SSILL
 62
7
 10
69.215
 20
-1605.759
 30
3087.778
 70
    32
  0
VERTEX
  8
T21SSILL
 62
7
 10
68.562
 20
-1607.494
 30
3087.618
 70
    32
  0
VERTEX
  8
T21SSILL
 62
7
 10
68.287
 20
-1608.222
 30
3087.610
 70
    32
  0
VERTEX
  8
T21SSILL
 62
7
 10
67.823
 20
-1608.345
 30
3087.609
 70
    32
  0
VERTEX
  8
T21SSILL
 62
7
 10
67.695
 20
-1608.379
 30
3087.609
 70
    32
  0
VERTEX
  8
T21SSILL
 62
7
 10
60.802
 20
-1610.202
 30
3087.460
 70
    32
  0
VERTEX
  8
T21SSILL
 62
7
 10
55.515
 20
-1607.796
 30
3087.794
 70
    32
  0
VERTEX
  8
T21SSILL
 62
7
 10
50.460
 20
-1605.495
 30
3087.748
 70
    32
  0
VERTEX
  8
T21SSILL
 62
7
 10
50.259
 20
-1605.271
 30
3087.744
 70
    32
  0
VERTEX
  8
T21SSILL
 62
7
 10
50.187
 20
-1605.192
 30
3087.743
 70
    32
  0
VERTEX
  8
T21SSILL
 62
7
 10
42.982
 20
-1597.120
 30
3087.597
 70
    32
  0
VERTEX
  8
T21SSILL
 62
7
 10
38.699
 20
-1601.123
 30
3087.658
 70
    32
  0
VERTEX
  8
T21SSILL
 62
7
 10
30.910
 20
-1596.909
 30
3087.577
 70
    32
  0
VERTEX
  8
T21SSILL
 62
7
 10
26.669
 20
-1605.825
 30
3087.721
 70
    32
  0
VERTEX
  8
T21SSILL
 62
7
 10
32.911
 20
-1607.425
 30
3087.756
 70
    32
  0
VERTEX
  8
T21SSILL
 62
7
 10
37.069
 20
-1610.537
 30
3087.815
 70
    32
  0
VERTEX
  8
T21SSILL
 62
7
 10
38.646
 20
-1611.717
 30
3087.668
 70
    32
  0
VERTEX
  8
T21SSILL
 62
7
 10
38.645
 20
-1611.720
 30
3087.667
 70
    32
  0
VERTEX
  8
T21SSILL
 62
7
 10
36.772
 20
-1618.891
 30
3086.963
 70
    32
  0
VERTEX
  8
T21SSILL
 62
7
 10
36.428
 20
-1620.207
 30
3086.837
 70
    32
  0
VERTEX
  8
T21SSILL
 62
7
 10
37.167
 20
-1626.641
 30
3086.178
 70
    32
  0
VERTEX
  8
T21SSILL
 62
7
 10
44.772
 20
-1624.714
 30
3086.235
 70
    32
  0
VERTEX
  8
T21SSILL
 62
7
 10
56.366
 20
-1621.777
 30
3086.346
 70
    32
  0
VERTEX
  8
T21SSILL
 62
7
 10
66.502
 20
-1620.842
 30
3086.276
 70
    32
  0
VERTEX
  8
T21SSILL
 62
7
 10
70.122
 20
-1622.890
 30
3087.430
 70
    32
  0
VERTEX
  8
T21SSILL
 62
7
 10
73.825
 20
-1624.985
 30
3087.392
 70
    32
  0
VERTEX
  8
T21SSILL
 62
7
 10
75.936
 20
-1626.179
 30
3087.373
 70
    32
  0
VERTEX
  8
T21SSILL
 62
7
 10
75.943
 20
-1626.221
 30
3087.372
 70
    32
  0
VERTEX
  8
T21SSILL
 62
7
 10
76.534
 20
-1630.188
 30
3087.264
 70
    32
  0
VERTEX
  8
T21SSILL
 62
7
 10
83.328
 20
-1671.833
 30
3087.073
 70
    32
  0
SEQEND
  8
T21SSILL
  0
POLYLINE
  8
T21SSILL
 62
7
 66
     1
 70
     8
  0
VERTEX
  8
T21SSILL
 62
7
 10
83.328
 20
-1671.833
 30
3087.073
 70
    32
  0
VERTEX
  8
T21SSILL
 62
7
 10
88.363
 20
-1701.501
 30
3086.443
 70
    32
  0
VERTEX
  8
T21SSILL
 62
7
 10
85.054
 20
-1701.733
 30
3086.453
 70
    32
  0
VERTEX
  8
T21SSILL
 62
7
 10
85.690
 20
-1705.843
 30
3086.403
 70
    32
  0
VERTEX
  8
T21SSILL
 62
7
 10
91.001
 20
-1717.050
 30
3086.252
 70
    32
  0
VERTEX
  8
T21SSILL
 62
7
 10
91.339
 20
-1717.765
 30
3086.242
 70
    32
  0
VERTEX
  8
T21SSILL
 62
7
 10
91.537
 20
-1718.054
 30
3086.238
 70
    32
  0
VERTEX
  8
T21SSILL
 62
7
 10
126.565
 20
-1769.350
 30
3085.967
 70
    32
  0
VERTEX
  8
T21SSILL
 62
7
 10
136.328
 20
-1783.647
 30
3085.892
 70
    32
  0
VERTEX
  8
T21SSILL
 62
7
 10
150.092
 20
-1803.802
 30
3085.777
 70
    32
  0
VERTEX
  8
T21SSILL
 62
7
 10
153.952
 20
-1809.455
 30
3086.210
 70
    32
  0
VERTEX
  8
T21SSILL
 62
7
 10
153.942
 20
-1825.056
 30
3085.754
 70
    32
  0
VERTEX
  8
T21SSILL
 62
7
 10
156.038
 20
-1828.212
 30
3085.749
 70
    32
  0
VERTEX
  8
T21SSILL
 62
7
 10
156.373
 20
-1831.349
 30
3085.748
 70
    32
  0
VERTEX
  8
T21SSILL
 62
7
 10
152.009
 20
-1832.049
 30
3085.757
 70
    32
  0
VERTEX
  8
T21SSILL
 62
7
 10
112.648
 20
-1823.356
 30
3085.820
 70
    32
  0
VERTEX
  8
T21SSILL
 62
7
 10
104.657
 20
-1820.047
 30
3085.822
 70
    32
  0
VERTEX
  8
T21SSILL
 62
7
 10
98.247
 20
-1815.471
 30
3085.839
 70
    32
  0
VERTEX
  8
T21SSILL
 62
7
 10
94.737
 20
-1811.279
 30
3085.861
 70
    32
  0
VERTEX
  8
T21SSILL
 62
7
 10
-5.024
 20
-1671.623
 30
3086.626
 70
    32
  0
VERTEX
  8
T21SSILL
 62
7
 10
-7.180
 20
-1666.002
 30
3086.651
 70
    32
  0
VERTEX
  8
T21SSILL
 62
7
 10
-51.408
 20
-1604.033
 30
3086.833
 70
    32
  0
VERTEX
  8
T21SSILL
 62
7
 10
-54.228
 20
-1605.992
 30
3086.849
 70
    32
  0
VERTEX
  8
T21SSILL
 62
7
 10
-72.087
 20
-1595.622
 30
3086.842
 70
    32
  0
VERTEX
  8
T21SSILL
 62
7
 10
-136.066
 20
-1546.605
 30
3086.765
 70
    32
  0
VERTEX
  8
T21SSILL
 62
7
 10
-141.023
 20
-1541.182
 30
3086.752
 70
    32
  0
VERTEX
  8
T21SSILL
 62
7
 10
-163.404
 20
-1522.561
 30
3086.718
 70
    32
  0
VERTEX
  8
T21SSILL
 62
7
 10
-166.688
 20
-1523.440
 30
3086.729
 70
    32
  0
VERTEX
  8
T21SSILL
 62
7
 10
-204.491
 20
-1493.755
 30
3086.698
 70
    32
  0
VERTEX
  8
T21SSILL
 62
7
 10
-350.505
 20
-1286.227
 30
3087.094
 70
    32
  0
VERTEX
  8
T21SSILL
 62
7
 10
-456.497
 20
-1135.580
 30
3085.630
 70
    32
  0
VERTEX
  8
T21SSILL
 62
7
 10
-463.257
 20
-1140.020
 30
3085.729
 70
    32
  0
VERTEX
  8
T21SSILL
 62
7
 10
-362.965
 20
-1282.513
 30
3087.098
 70
    32
  0
VERTEX
  8
T21SSILL
 62
7
 10
-211.002
 20
-1498.419
 30
3086.683
 70
    32
  0
VERTEX
  8
T21SSILL
 62
7
 10
-183.167
 20
-1522.099
 30
3086.708
 70
    32
  0
VERTEX
  8
T21SSILL
 62
7
 10
-180.040
 20
-1525.918
 30
3086.708
 70
    32
  0
VERTEX
  8
T21SSILL
 62
7
 10
-179.222
 20
-1530.010
 30
3086.699
 70
    32
  0
VERTEX
  8
T21SSILL
 62
7
 10
-180.183
 20
-1532.570
 30
3086.689
 70
    32
  0
VERTEX
  8
T21SSILL
 62
7
 10
-173.957
 20
-1537.936
 30
3086.694
 70
    32
  0
VERTEX
  8
T21SSILL
 62
7
 10
-160.470
 20
-1547.254
 30
3086.713
 70
    32
  0
VERTEX
  8
T21SSILL
 62
7
 10
-141.687
 20
-1552.036
 30
3086.763
 70
    32
  0
VERTEX
  8
T21SSILL
 62
7
 10
-73.357
 20
-1605.501
 30
3086.841
 70
    32
  0
VERTEX
  8
T21SSILL
 62
7
 10
-73.106
 20
-1606.736
 30
3086.838
 70
    32
  0
VERTEX
  8
T21SSILL
 62
7
 10
-53.857
 20
-1620.342
 30
3086.865
 70
    32
  0
VERTEX
  8
T21SSILL
 62
7
 10
52.441
 20
-1767.427
 30
3086.088
 70
    32
  0
VERTEX
  8
T21SSILL
 62
7
 10
49.858
 20
-1768.666
 30
3086.077
 70
    32
  0
VERTEX
  8
T21SSILL
 62
7
 10
56.145
 20
-1774.860
 30
3086.044
 70
    32
  0
VERTEX
  8
T21SSILL
 62
7
 10
58.827
 20
-1775.840
 30
3086.040
 70
    32
  0
VERTEX
  8
T21SSILL
 62
7
 10
93.301
 20
-1823.461
 30
3085.772
 70
    32
  0
VERTEX
  8
T21SSILL
 62
7
 10
104.173
 20
-1830.551
 30
3085.761
 70
    32
  0
VERTEX
  8
T21SSILL
 62
7
 10
116.691
 20
-1835.123
 30
3085.776
 70
    32
  0
VERTEX
  8
T21SSILL
 62
7
 10
134.736
 20
-1836.730
 30
3085.791
 70
    32
  0
VERTEX
  8
T21SSILL
 62
7
 10
156.860
 20
-1841.911
 30
3085.745
 70
    32
  0
VERTEX
  8
T21SSILL
 62
7
 10
174.676
 20
-1858.658
 30
3085.701
 70
    32
  0
VERTEX
  8
T21SSILL
 62
7
 10
180.152
 20
-1865.286
 30
3085.687
 70
    32
  0
VERTEX
  8
T21SSILL
 62
7
 10
187.797
 20
-1858.445
 30
3085.675
 70
    32
  0
VERTEX
  8
T21SSILL
 62
7
 10
183.850
 20
-1852.993
 30
3085.685
 70
    32
  0
VERTEX
  8
T21SSILL
 62
7
 10
185.486
 20
-1850.712
 30
3085.683
 70
    32
  0
VERTEX
  8
T21SSILL
 62
7
 10
185.913
 20
-1848.788
 30
3085.683
 70
    32
  0
VERTEX
  8
T21SSILL
 62
7
 10
295.504
 20
-1874.670
 30
3085.452
 70
    32
  0
VERTEX
  8
T21SSILL
 62
7
 10
297.012
 20
-1882.379
 30
3085.447
 70
    32
  0
VERTEX
  8
T21SSILL
 62
7
 10
304.467
 20
-1882.030
 30
3085.432
 70
    32
  0
VERTEX
  8
T21SSILL
 62
7
 10
317.369
 20
-1890.041
 30
3085.404
 70
    32
  0
VERTEX
  8
T21SSILL
 62
7
 10
388.802
 20
-1989.596
 30
3085.236
 70
    32
  0
VERTEX
  8
T21SSILL
 62
7
 10
383.368
 20
-1990.342
 30
3085.247
 70
    32
  0
VERTEX
  8
T21SSILL
 62
7
 10
376.352
 20
-1989.183
 30
3085.262
 70
    32
  0
VERTEX
  8
T21SSILL
 62
7
 10
370.727
 20
-1992.237
 30
3085.273
 70
    32
  0
VERTEX
  8
T21SSILL
 62
7
 10
373.515
 20
-1998.704
 30
3085.266
 70
    32
  0
VERTEX
  8
T21SSILL
 62
7
 10
365.838
 20
-2001.165
 30
3085.281
 70
    32
  0
VERTEX
  8
T21SSILL
 62
7
 10
365.041
 20
-2003.689
 30
3085.283
 70
    32
  0
VERTEX
  8
T21SSILL
 62
7
 10
363.300
 20
-2019.587
 30
3085.283
 70
    32
  0
VERTEX
  8
T21SSILL
 62
7
 10
366.065
 20
-2023.900
 30
3085.276
 70
    32
  0
VERTEX
  8
T21SSILL
 62
7
 10
379.763
 20
-2036.658
 30
3085.245
 70
    32
  0
VERTEX
  8
T21SSILL
 62
7
 10
384.959
 20
-2048.454
 30
3085.232
 70
    32
  0
VERTEX
  8
T21SSILL
 62
7
 10
388.904
 20
-2053.658
 30
3085.223
 70
    32
  0
VERTEX
  8
T21SSILL
 62
7
 10
409.324
 20
-2069.739
 30
3085.190
 70
    32
  0
VERTEX
  8
T21SSILL
 62
7
 10
416.472
 20
-2077.748
 30
3085.181
 70
    32
  0
VERTEX
  8
T21SSILL
 62
7
 10
423.113
 20
-2081.564
 30
3085.173
 70
    32
  0
VERTEX
  8
T21SSILL
 62
7
 10
429.294
 20
-2087.010
 30
3085.166
 70
    32
  0
VERTEX
  8
T21SSILL
 62
7
 10
430.945
 20
-2087.347
 30
3085.164
 70
    32
  0
VERTEX
  8
T21SSILL
 62
7
 10
449.253
 20
-2074.881
 30
3085.142
 70
    32
  0
VERTEX
  8
T21SSILL
 62
7
 10
526.388
 20
-2181.637
 30
3085.051
 70
    32
  0
VERTEX
  8
T21SSILL
 62
7
 10
535.198
 20
-2196.812
 30
3085.041
 70
    32
  0
VERTEX
  8
T21SSILL
 62
7
 10
525.225
 20
-2200.159
 30
3085.053
 70
    32
  0
VERTEX
  8
T21SSILL
 62
7
 10
523.772
 20
-2202.068
 30
3085.054
 70
    32
  0
VERTEX
  8
T21SSILL
 62
7
 10
523.622
 20
-2204.889
 30
3085.055
 70
    32
  0
VERTEX
  8
T21SSILL
 62
7
 10
524.179
 20
-2207.636
 30
3085.054
 70
    32
  0
VERTEX
  8
T21SSILL
 62
7
 10
530.572
 20
-2217.164
 30
3085.047
 70
    32
  0
VERTEX
  8
T21SSILL
 62
7
 10
536.558
 20
-2229.913
 30
3085.040
 70
    32
  0
VERTEX
  8
T21SSILL
 62
7
 10
533.682
 20
-2233.926
 30
3085.043
 70
    32
  0
VERTEX
  8
T21SSILL
 62
7
 10
515.677
 20
-2243.027
 30
3085.065
 70
    32
  0
VERTEX
  8
T21SSILL
 62
7
 10
527.256
 20
-2258.280
 30
3085.052
 70
    32
  0
VERTEX
  8
T21SSILL
 62
7
 10
537.018
 20
-2250.093
 30
3085.040
 70
    32
  0
VERTEX
  8
T21SSILL
 62
7
 10
543.620
 20
-2249.161
 30
3085.032
 70
    32
  0
VERTEX
  8
T21SSILL
 62
7
 10
549.109
 20
-2250.763
 30
3085.025
 70
    32
  0
VERTEX
  8
T21SSILL
 62
7
 10
560.967
 20
-2267.769
 30
3085.011
 70
    32
  0
VERTEX
  8
T21SSILL
 62
7
 10
568.804
 20
-2283.858
 30
3085.002
 70
    32
  0
VERTEX
  8
T21SSILL
 62
7
 10
579.589
 20
-2295.882
 30
3084.989
 70
    32
  0
VERTEX
  8
T21SSILL
 62
7
 10
586.458
 20
-2294.867
 30
3084.981
 70
    32
  0
VERTEX
  8
T21SSILL
 62
7
 10
597.573
 20
-2286.904
 30
3084.967
 70
    32
  0
VERTEX
  8
T21SSILL
 62
7
 10
599.711
 20
-2290.039
 30
3084.965
 70
    32
  0
VERTEX
  8
T21SSILL
 62
7
 10
602.395
 20
-2288.333
 30
3084.961
 70
    32
  0
VERTEX
  8
T21SSILL
 62
7
 10
717.601
 20
-2448.985
 30
3084.826
 70
    32
  0
VERTEX
  8
T21SSILL
 62
7
 10
699.602
 20
-2461.880
 30
3084.848
 70
    32
  0
VERTEX
  8
T21SSILL
 62
7
 10
710.021
 20
-2476.120
 30
3084.836
 70
    32
  0
VERTEX
  8
T21SSILL
 62
7
 10
727.856
 20
-2463.450
 30
3084.814
 70
    32
  0
VERTEX
  8
T21SSILL
 62
7
 10
956.223
 20
-2781.445
 30
3084.701
 70
    32
  0
VERTEX
  8
T21SSILL
 62
7
 10
952.685
 20
-2795.591
 30
3084.692
 70
    32
  0
VERTEX
  8
T21SSILL
 62
7
 10
953.541
 20
-2805.574
 30
3084.688
 70
    32
  0
VERTEX
  8
T21SSILL
 62
7
 10
935.758
 20
-2863.723
 30
3084.682
 70
    32
  0
VERTEX
  8
T21SSILL
 62
7
 10
932.597
 20
-2866.203
 30
3084.689
 70
    32
  0
VERTEX
  8
T21SSILL
 62
7
 10
812.548
 20
-2849.762
 30
3084.628
 70
    32
  0
VERTEX
  8
T21SSILL
 62
7
 10
819.381
 20
-2844.758
 30
3084.615
 70
    32
  0
VERTEX
  8
T21SSILL
 62
7
 10
815.127
 20
-2839.124
 30
3084.599
 70
    32
  0
VERTEX
  8
T21SSILL
 62
7
 10
801.368
 20
-2848.548
 30
3084.623
 70
    32
  0
VERTEX
  8
T21SSILL
 62
7
 10
528.566
 20
-2812.745
 30
3084.540
 70
    32
  0
VERTEX
  8
T21SSILL
 62
7
 10
518.121
 20
-2806.117
 30
3084.522
 70
    32
  0
VERTEX
  8
T21SSILL
 62
7
 10
465.938
 20
-2733.158
 30
3084.265
 70
    32
  0
VERTEX
  8
T21SSILL
 62
7
 10
467.848
 20
-2722.567
 30
3084.287
 70
    32
  0
VERTEX
  8
T21SSILL
 62
7
 10
472.122
 20
-2717.434
 30
3084.328
 70
    32
  0
VERTEX
  8
T21SSILL
 62
7
 10
498.268
 20
-2702.401
 30
3084.429
 70
    32
  0
VERTEX
  8
T21SSILL
 62
7
 10
499.277
 20
-2698.207
 30
3084.465
 70
    32
  0
VERTEX
  8
T21SSILL
 62
7
 10
493.492
 20
-2681.163
 30
3084.621
 70
    32
  0
VERTEX
  8
T21SSILL
 62
7
 10
497.449
 20
-2678.373
 30
3084.641
 70
    32
  0
VERTEX
  8
T21SSILL
 62
7
 10
502.660
 20
-2678.829
 30
3084.631
 70
    32
  0
VERTEX
  8
T21SSILL
 62
7
 10
506.446
 20
-2676.832
 30
3084.644
 70
    32
  0
VERTEX
  8
T21SSILL
 62
7
 10
510.185
 20
-2670.560
 30
3084.695
 70
    32
  0
VERTEX
  8
T21SSILL
 62
7
 10
510.396
 20
-2668.078
 30
3084.716
 70
    32
  0
VERTEX
  8
T21SSILL
 62
7
 10
507.687
 20
-2663.065
 30
3084.764
 70
    32
  0
VERTEX
  8
T21SSILL
 62
7
 10
504.666
 20
-2661.274
 30
3084.783
 70
    32
  0
VERTEX
  8
T21SSILL
 62
7
 10
502.783
 20
-2661.269
 30
3084.785
 70
    32
  0
VERTEX
  8
T21SSILL
 62
7
 10
499.339
 20
-2664.443
 30
3084.762
 70
    32
  0
VERTEX
  8
T21SSILL
 62
7
 10
493.516
 20
-2662.020
 30
3084.790
 70
    32
  0
VERTEX
  8
T21SSILL
 62
7
 10
490.194
 20
-2649.956
 30
3084.900
 70
    32
  0
VERTEX
  8
T21SSILL
 62
7
 10
488.436
 20
-2647.646
 30
3084.909
 70
    32
  0
VERTEX
  8
T21SSILL
 62
7
 10
480.023
 20
-2642.110
 30
3084.925
 70
    32
  0
VERTEX
  8
T21SSILL
 62
7
 10
477.695
 20
-2638.906
 30
3084.933
 70
    32
  0
VERTEX
  8
T21SSILL
 62
7
 10
475.943
 20
-2619.899
 30
3084.968
 70
    32
  0
VERTEX
  8
T21SSILL
 62
7
 10
471.336
 20
-2600.190
 30
3085.006
 70
    32
  0
VERTEX
  8
T21SSILL
 62
7
 10
463.319
 20
-2600.985
 30
3085.011
 70
    32
  0
VERTEX
  8
T21SSILL
 62
7
 10
456.732
 20
-2605.113
 30
3085.009
 70
    32
  0
VERTEX
  8
T21SSILL
 62
7
 10
459.212
 20
-2615.054
 30
3084.989
 70
    32
  0
VERTEX
  8
T21SSILL
 62
7
 10
459.924
 20
-2623.688
 30
3084.973
 70
    32
  0
VERTEX
  8
T21SSILL
 62
7
 10
455.518
 20
-2630.247
 30
3084.965
 70
    32
  0
VERTEX
  8
T21SSILL
 62
7
 10
457.584
 20
-2636.302
 30
3084.953
 70
    32
  0
VERTEX
  8
T21SSILL
 62
7
 10
456.366
 20
-2645.742
 30
3084.937
 70
    32
  0
VERTEX
  8
T21SSILL
 62
7
 10
456.466
 20
-2662.579
 30
3084.829
 70
    32
  0
VERTEX
  8
T21SSILL
 62
7
 10
462.218
 20
-2672.462
 30
3084.735
 70
    32
  0
VERTEX
  8
T21SSILL
 62
7
 10
461.624
 20
-2680.542
 30
3084.665
 70
    32
  0
VERTEX
  8
T21SSILL
 62
7
 10
464.915
 20
-2688.208
 30
3084.593
 70
    32
  0
VERTEX
  8
T21SSILL
 62
7
 10
459.824
 20
-2692.413
 30
3084.562
 70
    32
  0
VERTEX
  8
T21SSILL
 62
7
 10
449.433
 20
-2695.899
 30
3084.544
 70
    32
  0
VERTEX
  8
T21SSILL
 62
7
 10
445.691
 20
-2696.647
 30
3084.542
 70
    32
  0
VERTEX
  8
T21SSILL
 62
7
 10
438.392
 20
-2695.324
 30
3084.562
 70
    32
  0
VERTEX
  8
T21SSILL
 62
7
 10
391.244
 20
-2629.777
 30
3085.015
 70
    32
  0
VERTEX
  8
T21SSILL
 62
7
 10
393.317
 20
-2619.545
 30
3085.031
 70
    32
  0
VERTEX
  8
T21SSILL
 62
7
 10
378.361
 20
-2594.226
 30
3085.088
 70
    32
  0
VERTEX
  8
T21SSILL
 62
7
 10
372.600
 20
-2588.108
 30
3085.103
 70
    32
  0
VERTEX
  8
T21SSILL
 62
7
 10
361.125
 20
-2587.763
 30
3085.112
 70
    32
  0
VERTEX
  8
T21SSILL
 62
7
 10
361.219
 20
-2587.824
 30
3085.100
 70
    32
  0
VERTEX
  8
T21SSILL
 62
7
 10
352.453
 20
-2575.659
 30
3085.100
 70
    32
  0
VERTEX
  8
T21SSILL
 62
7
 10
343.820
 20
-2562.227
 30
3085.100
 70
    32
  0
VERTEX
  8
T21SSILL
 62
7
 10
340.295
 20
-2556.723
 30
3085.100
 70
    32
  0
VERTEX
  8
T21SSILL
 62
7
 10
329.313
 20
-2541.622
 30
3085.100
 70
    32
  0
VERTEX
  8
T21SSILL
 62
7
 10
330.649
 20
-2536.868
 30
3085.100
 70
    32
  0
VERTEX
  8
T21SSILL
 62
7
 10
332.199
 20
-2535.461
 30
3085.100
 70
    32
  0
VERTEX
  8
T21SSILL
 62
7
 10
329.216
 20
-2530.853
 30
3085.100
 70
    32
  0
VERTEX
  8
T21SSILL
 62
7
 10
325.942
 20
-2532.356
 30
3085.100
 70
    32
  0
VERTEX
  8
T21SSILL
 62
7
 10
321.418
 20
-2531.251
 30
3085.100
 70
    32
  0
VERTEX
  8
T21SSILL
 62
7
 10
311.274
 20
-2517.207
 30
3085.100
 70
    32
  0
VERTEX
  8
T21SSILL
 62
7
 10
310.474
 20
-2508.521
 30
3085.100
 70
    32
  0
VERTEX
  8
T21SSILL
 62
7
 10
302.268
 20
-2500.005
 30
3085.100
 70
    32
  0
VERTEX
  8
T21SSILL
 62
7
 10
294.902
 20
-2486.400
 30
3085.100
 70
    32
  0
VERTEX
  8
T21SSILL
 62
7
 10
280.637
 20
-2464.309
 30
3085.100
 70
    32
  0
VERTEX
  8
T21SSILL
 62
7
 10
276.457
 20
-2460.019
 30
3085.100
 70
    32
  0
VERTEX
  8
T21SSILL
 62
7
 10
276.498
 20
-2454.285
 30
3085.100
 70
    32
  0
VERTEX
  8
T21SSILL
 62
7
 10
281.623
 20
-2443.206
 30
3085.100
 70
    32
  0
VERTEX
  8
T21SSILL
 62
7
 10
296.959
 20
-2424.297
 30
3085.100
 70
    32
  0
VERTEX
  8
T21SSILL
 62
7
 10
302.909
 20
-2423.868
 30
3085.100
 70
    32
  0
VERTEX
  8
T21SSILL
 62
7
 10
304.907
 20
-2419.851
 30
3085.100
 70
    32
  0
VERTEX
  8
T21SSILL
 62
7
 10
300.312
 20
-2411.604
 30
3085.100
 70
    32
  0
VERTEX
  8
T21SSILL
 62
7
 10
294.099
 20
-2407.376
 30
3085.100
 70
    32
  0
VERTEX
  8
T21SSILL
 62
7
 10
288.056
 20
-2406.531
 30
3085.100
 70
    32
  0
VERTEX
  8
T21SSILL
 62
7
 10
281.429
 20
-2415.570
 30
3085.100
 70
    32
  0
VERTEX
  8
T21SSILL
 62
7
 10
272.105
 20
-2424.991
 30
3085.100
 70
    32
  0
VERTEX
  8
T21SSILL
 62
7
 10
278.102
 20
-2431.032
 30
3085.100
 70
    32
  0
VERTEX
  8
T21SSILL
 62
7
 10
271.646
 20
-2440.563
 30
3085.100
 70
    32
  0
VERTEX
  8
T21SSILL
 62
7
 10
264.884
 20
-2445.807
 30
3085.100
 70
    32
  0
VERTEX
  8
T21SSILL
 62
7
 10
241.048
 20
-2414.351
 30
3085.100
 70
    32
  0
VERTEX
  8
T21SSILL
 62
7
 10
216.969
 20
-2379.755
 30
3085.100
 70
    32
  0
VERTEX
  8
T21SSILL
 62
7
 10
204.738
 20
-2365.725
 30
3085.100
 70
    32
  0
VERTEX
  8
T21SSILL
 62
7
 10
188.898
 20
-2342.238
 30
3085.100
 70
    32
  0
VERTEX
  8
T21SSILL
 62
7
 10
181.894
 20
-2330.590
 30
3085.100
 70
    32
  0
VERTEX
  8
T21SSILL
 62
7
 10
182.543
 20
-2326.109
 30
3085.100
 70
    32
  0
VERTEX
  8
T21SSILL
 62
7
 10
180.230
 20
-2323.186
 30
3085.100
 70
    32
  0
VERTEX
  8
T21SSILL
 62
7
 10
171.373
 20
-2317.076
 30
3085.100
 70
    32
  0
VERTEX
  8
T21SSILL
 62
7
 10
158.858
 20
-2298.063
 30
3085.100
 70
    32
  0
VERTEX
  8
T21SSILL
 62
7
 10
148.478
 20
-2283.479
 30
3085.100
 70
    32
  0
VERTEX
  8
T21SSILL
 62
7
 10
147.113
 20
-2279.362
 30
3085.100
 70
    32
  0
VERTEX
  8
T21SSILL
 62
7
 10
131.704
 20
-2259.245
 30
3085.100
 70
    32
  0
VERTEX
  8
T21SSILL
 62
7
 10
127.901
 20
-2253.522
 30
3085.100
 70
    32
  0
VERTEX
  8
T21SSILL
 62
7
 10
127.482
 20
-2250.193
 30
3085.100
 70
    32
  0
VERTEX
  8
T21SSILL
 62
7
 10
121.498
 20
-2249.199
 30
3085.100
 70
    32
  0
VERTEX
  8
T21SSILL
 62
7
 10
116.868
 20
-2243.521
 30
3085.100
 70
    32
  0
VERTEX
  8
T21SSILL
 62
7
 10
109.982
 20
-2248.504
 30
3085.100
 70
    32
  0
VERTEX
  8
T21SSILL
 62
7
 10
112.652
 20
-2254.455
 30
3085.100
 70
    32
  0
VERTEX
  8
T21SSILL
 62
7
 10
112.016
 20
-2257.792
 30
3085.100
 70
    32
  0
VERTEX
  8
T21SSILL
 62
7
 10
86.518
 20
-2259.692
 30
3085.100
 70
    32
  0
VERTEX
  8
T21SSILL
 62
7
 10
84.677
 20
-2260.556
 30
3085.100
 70
    32
  0
VERTEX
  8
T21SSILL
 62
7
 10
82.674
 20
-2259.320
 30
3085.100
 70
    32
  0
VERTEX
  8
T21SSILL
 62
7
 10
77.084
 20
-2252.789
 30
3085.100
 70
    32
  0
VERTEX
  8
T21SSILL
 62
7
 10
65.401
 20
-2235.748
 30
3085.100
 70
    32
  0
VERTEX
  8
T21SSILL
 62
7
 10
57.804
 20
-2237.665
 30
3085.100
 70
    32
  0
VERTEX
  8
T21SSILL
 62
7
 10
54.171
 20
-2242.096
 30
3085.100
 70
    32
  0
VERTEX
  8
T21SSILL
 62
7
 10
63.148
 20
-2253.709
 30
3085.100
 70
    32
  0
VERTEX
  8
T21SSILL
 62
7
 10
73.556
 20
-2268.165
 30
3085.100
 70
    32
  0
VERTEX
  8
T21SSILL
 62
7
 10
74.743
 20
-2269.490
 30
3085.100
 70
    32
  0
VERTEX
  8
T21SSILL
 62
7
 10
80.549
 20
-2279.392
 30
3085.100
 70
    32
  0
VERTEX
  8
T21SSILL
 62
7
 10
84.361
 20
-2287.810
 30
3085.100
 70
    32
  0
VERTEX
  8
T21SSILL
 62
7
 10
81.395
 20
-2290.808
 30
3085.100
 70
    32
  0
VERTEX
  8
T21SSILL
 62
7
 10
67.759
 20
-2290.763
 30
3085.100
 70
    32
  0
VERTEX
  8
T21SSILL
 62
7
 10
55.583
 20
-2287.625
 30
3085.100
 70
    32
  0
VERTEX
  8
T21SSILL
 62
7
 10
50.887
 20
-2293.548
 30
3085.100
 70
    32
  0
VERTEX
  8
T21SSILL
 62
7
 10
55.916
 20
-2299.772
 30
3085.100
 70
    32
  0
VERTEX
  8
T21SSILL
 62
7
 10
65.271
 20
-2299.089
 30
3085.100
 70
    32
  0
VERTEX
  8
T21SSILL
 62
7
 10
88.920
 20
-2301.194
 30
3085.100
 70
    32
  0
VERTEX
  8
T21SSILL
 62
7
 10
94.389
 20
-2303.311
 30
3085.100
 70
    32
  0
VERTEX
  8
T21SSILL
 62
7
 10
100.342
 20
-2313.341
 30
3085.100
 70
    32
  0
VERTEX
  8
T21SSILL
 62
7
 10
112.173
 20
-2325.802
 30
3085.100
 70
    32
  0
VERTEX
  8
T21SSILL
 62
7
 10
115.012
 20
-2329.205
 30
3085.100
 70
    32
  0
VERTEX
  8
T21SSILL
 62
7
 10
117.562
 20
-2333.568
 30
3085.100
 70
    32
  0
VERTEX
  8
T21SSILL
 62
7
 10
117.062
 20
-2338.221
 30
3085.100
 70
    32
  0
VERTEX
  8
T21SSILL
 62
7
 10
116.521
 20
-2345.836
 30
3085.100
 70
    32
  0
VERTEX
  8
T21SSILL
 62
7
 10
119.310
 20
-2350.591
 30
3085.100
 70
    32
  0
VERTEX
  8
T21SSILL
 62
7
 10
125.563
 20
-2349.739
 30
3085.100
 70
    32
  0
VERTEX
  8
T21SSILL
 62
7
 10
128.727
 20
-2349.815
 30
3085.100
 70
    32
  0
VERTEX
  8
T21SSILL
 62
7
 10
144.174
 20
-2370.195
 30
3085.100
 70
    32
  0
VERTEX
  8
T21SSILL
 62
7
 10
150.460
 20
-2380.346
 30
3085.100
 70
    32
  0
VERTEX
  8
T21SSILL
 62
7
 10
160.110
 20
-2391.138
 30
3085.100
 70
    32
  0
VERTEX
  8
T21SSILL
 62
7
 10
168.127
 20
-2401.717
 30
3085.100
 70
    32
  0
VERTEX
  8
T21SSILL
 62
7
 10
167.785
 20
-2403.705
 30
3085.100
 70
    32
  0
VERTEX
  8
T21SSILL
 62
7
 10
174.430
 20
-2411.831
 30
3085.100
 70
    32
  0
VERTEX
  8
T21SSILL
 62
7
 10
174.420
 20
-2417.797
 30
3085.100
 70
    32
  0
VERTEX
  8
T21SSILL
 62
7
 10
186.878
 20
-2417.122
 30
3085.100
 70
    32
  0
VERTEX
  8
T21SSILL
 62
7
 10
189.948
 20
-2419.072
 30
3085.100
 70
    32
  0
VERTEX
  8
T21SSILL
 62
7
 10
195.855
 20
-2430.241
 30
3085.100
 70
    32
  0
VERTEX
  8
T21SSILL
 62
7
 10
197.113
 20
-2433.147
 30
3085.100
 70
    32
  0
VERTEX
  8
T21SSILL
 62
7
 10
197.799
 20
-2438.408
 30
3085.100
 70
    32
  0
VERTEX
  8
T21SSILL
 62
7
 10
203.305
 20
-2455.297
 30
3085.100
 70
    32
  0
VERTEX
  8
T21SSILL
 62
7
 10
209.216
 20
-2457.083
 30
3085.100
 70
    32
  0
VERTEX
  8
T21SSILL
 62
7
 10
218.291
 20
-2470.067
 30
3085.100
 70
    32
  0
VERTEX
  8
T21SSILL
 62
7
 10
225.419
 20
-2466.553
 30
3085.100
 70
    32
  0
VERTEX
  8
T21SSILL
 62
7
 10
222.708
 20
-2458.605
 30
3085.100
 70
    32
  0
VERTEX
  8
T21SSILL
 62
7
 10
215.081
 20
-2447.496
 30
3085.100
 70
    32
  0
VERTEX
  8
T21SSILL
 62
7
 10
206.749
 20
-2435.544
 30
3085.100
 70
    32
  0
VERTEX
  8
T21SSILL
 62
7
 10
206.311
 20
-2434.664
 30
3085.100
 70
    32
  0
VERTEX
  8
T21SSILL
 62
7
 10
204.110
 20
-2430.624
 30
3085.100
 70
    32
  0
VERTEX
  8
T21SSILL
 62
7
 10
200.732
 20
-2420.683
 30
3085.100
 70
    32
  0
VERTEX
  8
T21SSILL
 62
7
 10
202.791
 20
-2417.882
 30
3085.100
 70
    32
  0
VERTEX
  8
T21SSILL
 62
7
 10
223.936
 20
-2418.521
 30
3085.100
 70
    32
  0
VERTEX
  8
T21SSILL
 62
7
 10
233.912
 20
-2421.924
 30
3085.100
 70
    32
  0
VERTEX
  8
T21SSILL
 62
7
 10
260.209
 20
-2458.156
 30
3085.100
 70
    32
  0
VERTEX
  8
T21SSILL
 62
7
 10
264.753
 20
-2464.554
 30
3085.100
 70
    32
  0
VERTEX
  8
T21SSILL
 62
7
 10
264.884
 20
-2464.727
 30
3085.100
 70
    32
  0
VERTEX
  8
T21SSILL
 62
7
 10
274.424
 20
-2478.783
 30
3085.100
 70
    32
  0
VERTEX
  8
T21SSILL
 62
7
 10
277.086
 20
-2489.838
 30
3085.100
 70
    32
  0
VERTEX
  8
T21SSILL
 62
7
 10
283.120
 20
-2490.885
 30
3085.100
 70
    32
  0
VERTEX
  8
T21SSILL
 62
7
 10
297.786
 20
-2512.443
 30
3085.100
 70
    32
  0
VERTEX
  8
T21SSILL
 62
7
 10
299.271
 20
-2520.350
 30
3085.100
 70
    32
  0
VERTEX
  8
T21SSILL
 62
7
 10
296.274
 20
-2525.610
 30
3085.100
 70
    32
  0
VERTEX
  8
T21SSILL
 62
7
 10
297.860
 20
-2532.086
 30
3085.100
 70
    32
  0
VERTEX
  8
T21SSILL
 62
7
 10
303.568
 20
-2541.455
 30
3085.100
 70
    32
  0
VERTEX
  8
T21SSILL
 62
7
 10
315.106
 20
-2554.960
 30
3085.100
 70
    32
  0
VERTEX
  8
T21SSILL
 62
7
 10
319.293
 20
-2562.380
 30
3085.100
 70
    32
  0
VERTEX
  8
T21SSILL
 62
7
 10
325.987
 20
-2559.943
 30
3085.100
 70
    32
  0
VERTEX
  8
T21SSILL
 62
7
 10
330.983
 20
-2560.240
 30
3085.100
 70
    32
  0
VERTEX
  8
T21SSILL
 62
7
 10
340.360
 20
-2572.235
 30
3085.100
 70
    32
  0
VERTEX
  8
T21SSILL
 62
7
 10
349.591
 20
-2585.434
 30
3085.100
 70
    32
  0
VERTEX
  8
T21SSILL
 62
7
 10
354.646
 20
-2592.573
 30
3085.100
 70
    32
  0
VERTEX
  8
T21SSILL
 62
7
 10
370.669
 20
-2614.981
 30
3085.048
 70
    32
  0
VERTEX
  8
T21SSILL
 62
7
 10
366.186
 20
-2621.952
 30
3085.025
 70
    32
  0
VERTEX
  8
T21SSILL
 62
7
 10
359.531
 20
-2623.811
 30
3085.015
 70
    32
  0
VERTEX
  8
T21SSILL
 62
7
 10
357.345
 20
-2623.263
 30
3085.015
 70
    32
  0
VERTEX
  8
T21SSILL
 62
7
 10
352.739
 20
-2613.724
 30
3085.039
 70
    32
  0
VERTEX
  8
T21SSILL
 62
7
 10
350.314
 20
-2611.700
 30
3085.043
 70
    32
  0
VERTEX
  8
T21SSILL
 62
7
 10
347.922
 20
-2611.752
 30
3085.041
 70
    32
  0
VERTEX
  8
T21SSILL
 62
7
 10
343.957
 20
-2615.985
 30
3085.026
 70
    32
  0
VERTEX
  8
T21SSILL
 62
7
 10
345.349
 20
-2623.769
 30
3085.005
 70
    32
  0
VERTEX
  8
T21SSILL
 62
7
 10
339.224
 20
-2630.973
 30
3084.981
 70
    32
  0
VERTEX
  8
T21SSILL
 62
7
 10
341.620
 20
-2636.446
 30
3084.967
 70
    32
  0
VERTEX
  8
T21SSILL
 62
7
 10
340.659
 20
-2644.916
 30
3084.942
 70
    32
  0
VERTEX
  8
T21SSILL
 62
7
 10
341.685
 20
-2650.767
 30
3084.932
 70
    32
  0
VERTEX
  8
T21SSILL
 62
7
 10
335.500
 20
-2657.021
 30
3084.931
 70
    32
  0
VERTEX
  8
T21SSILL
 62
7
 10
335.767
 20
-2662.456
 30
3084.919
 70
    32
  0
VERTEX
  8
T21SSILL
 62
7
 10
338.233
 20
-2667.876
 30
3084.867
 70
    32
  0
VERTEX
  8
T21SSILL
 62
7
 10
343.667
 20
-2675.016
 30
3084.798
 70
    32
  0
VERTEX
  8
T21SSILL
 62
7
 10
344.147
 20
-2680.731
 30
3084.744
 70
    32
  0
VERTEX
  8
T21SSILL
 62
7
 10
349.780
 20
-2688.715
 30
3084.667
 70
    32
  0
VERTEX
  8
T21SSILL
 62
7
 10
357.139
 20
-2691.848
 30
3084.635
 70
    32
  0
VERTEX
  8
T21SSILL
 62
7
 10
362.922
 20
-2706.129
 30
3084.499
 70
    32
  0
VERTEX
  8
T21SSILL
 62
7
 10
363.163
 20
-2710.368
 30
3084.459
 70
    32
  0
VERTEX
  8
T21SSILL
 62
7
 10
365.426
 20
-2714.504
 30
3084.420
 70
    32
  0
VERTEX
  8
T21SSILL
 62
7
 10
372.087
 20
-2720.932
 30
3084.357
 70
    32
  0
VERTEX
  8
T21SSILL
 62
7
 10
381.745
 20
-2740.887
 30
3084.392
 70
    32
  0
VERTEX
  8
T21SSILL
 62
7
 10
387.712
 20
-2748.728
 30
3084.419
 70
    32
  0
VERTEX
  8
T21SSILL
 62
7
 10
405.228
 20
-2785.254
 30
3084.558
 70
    32
  0
VERTEX
  8
T21SSILL
 62
7
 10
419.326
 20
-2773.420
 30
3084.491
 70
    32
  0
VERTEX
  8
T21SSILL
 62
7
 10
412.232
 20
-2762.790
 30
3084.453
 70
    32
  0
VERTEX
  8
T21SSILL
 62
7
 10
406.338
 20
-2750.251
 30
3084.405
 70
    32
  0
VERTEX
  8
T21SSILL
 62
7
 10
402.981
 20
-2745.841
 30
3084.390
 70
    32
  0
VERTEX
  8
T21SSILL
 62
7
 10
392.290
 20
-2736.731
 30
3084.362
 70
    32
  0
VERTEX
  8
T21SSILL
 62
7
 10
382.604
 20
-2712.818
 30
3084.427
 70
    32
  0
VERTEX
  8
T21SSILL
 62
7
 10
382.605
 20
-2705.411
 30
3084.496
 70
    32
  0
VERTEX
  8
T21SSILL
 62
7
 10
380.359
 20
-2693.744
 30
3084.606
 70
    32
  0
VERTEX
  8
T21SSILL
 62
7
 10
372.419
 20
-2665.296
 30
3084.875
 70
    32
  0
VERTEX
  8
T21SSILL
 62
7
 10
374.961
 20
-2659.050
 30
3084.932
 70
    32
  0
VERTEX
  8
T21SSILL
 62
7
 10
393.970
 20
-2649.891
 30
3084.965
 70
    32
  0
VERTEX
  8
T21SSILL
 62
7
 10
396.887
 20
-2650.835
 30
3084.965
 70
    32
  0
VERTEX
  8
T21SSILL
 62
7
 10
437.593
 20
-2707.652
 30
3084.450
 70
    32
  0
VERTEX
  8
T21SSILL
 62
7
 10
436.727
 20
-2711.745
 30
3084.412
 70
    32
  0
VERTEX
  8
T21SSILL
 62
7
 10
439.974
 20
-2716.580
 30
3084.366
 70
    32
  0
VERTEX
  8
T21SSILL
 62
7
 10
441.176
 20
-2718.107
 30
3084.351
 70
    32
  0
VERTEX
  8
T21SSILL
 62
7
 10
446.635
 20
-2720.273
 30
3084.328
 70
    32
  0
VERTEX
  8
T21SSILL
 62
7
 10
503.672
 20
-2799.431
 30
3084.510
 70
    32
  0
VERTEX
  8
T21SSILL
 62
7
 10
490.264
 20
-2807.604
 30
3084.560
 70
    32
  0
VERTEX
  8
T21SSILL
 62
7
 10
83.859
 20
-2753.231
 30
3084.780
 70
    32
  0
VERTEX
  8
T21SSILL
 62
7
 10
74.906
 20
-2750.798
 30
3084.779
 70
    32
  0
VERTEX
  8
T21SSILL
 62
7
 10
63.974
 20
-2744.240
 30
3084.763
 70
    32
  0
VERTEX
  8
T21SSILL
 62
7
 10
55.495
 20
-2735.084
 30
3084.733
 70
    32
  0
VERTEX
  8
T21SSILL
 62
7
 10
-527.624
 20
-1921.701
 30
3084.416
 70
    32
  0
VERTEX
  8
T21SSILL
 62
7
 10
-528.656
 20
-1909.981
 30
3084.461
 70
    32
  0
VERTEX
  8
T21SSILL
 62
7
 10
-525.847
 20
-1900.991
 30
3084.496
 70
    32
  0
VERTEX
  8
T21SSILL
 62
7
 10
-522.155
 20
-1895.646
 30
3084.523
 70
    32
  0
VERTEX
  8
T21SSILL
 62
7
 10
-513.837
 20
-1888.232
 30
3084.572
 70
    32
  0
VERTEX
  8
T21SSILL
 62
7
 10
-431.890
 20
-1828.975
 30
3085.013
 70
    32
  0
VERTEX
  8
T21SSILL
 62
7
 10
-427.136
 20
-1821.975
 30
3085.048
 70
    32
  0
VERTEX
  8
T21SSILL
 62
7
 10
-429.598
 20
-1818.732
 30
3085.049
 70
    32
  0
VERTEX
  8
T21SSILL
 62
7
 10
-527.165
 20
-1888.603
 30
3084.526
 70
    32
  0
VERTEX
  8
T21SSILL
 62
7
 10
-533.360
 20
-1897.505
 30
3084.480
 70
    32
  0
VERTEX
  8
T21SSILL
 62
7
 10
-536.748
 20
-1910.253
 30
3084.433
 70
    32
  0
VERTEX
  8
T21SSILL
 62
7
 10
-584.512
 20
-1844.351
 30
3084.500
 70
    32
  0
VERTEX
  8
T21SSILL
 62
7
 10
-585.063
 20
-1836.913
 30
3084.524
 70
    32
  0
VERTEX
  8
T21SSILL
 62
7
 10
-583.838
 20
-1828.461
 30
3084.557
 70
    32
  0
VERTEX
  8
T21SSILL
 62
7
 10
-578.855
 20
-1820.588
 30
3084.597
 70
    32
  0
VERTEX
  8
T21SSILL
 62
7
 10
-572.802
 20
-1815.001
 30
3084.632
 70
    32
  0
VERTEX
  8
T21SSILL
 62
7
 10
-498.676
 20
-1761.886
 30
3085.012
 70
    32
  0
VERTEX
  8
T21SSILL
 62
7
 10
-485.973
 20
-1760.108
 30
3085.052
 70
    32
  0
VERTEX
  8
T21SSILL
 62
7
 10
-485.319
 20
-1773.664
 30
3085.007
 70
    32
  0
VERTEX
  8
T21SSILL
 62
7
 10
-473.347
 20
-1786.824
 30
3084.994
 70
    32
  0
VERTEX
  8
T21SSILL
 62
7
 10
-476.351
 20
-1805.478
 30
3084.930
 70
    32
  0
VERTEX
  8
T21SSILL
 62
7
 10
-478.289
 20
-1809.050
 30
3084.913
 70
    32
  0
VERTEX
  8
T21SSILL
 62
7
 10
-477.168
 20
-1824.243
 30
3084.874
 70
    32
  0
VERTEX
  8
T21SSILL
 62
7
 10
-466.983
 20
-1822.937
 30
3084.912
 70
    32
  0
VERTEX
  8
T21SSILL
 62
7
 10
-461.491
 20
-1801.290
 30
3084.991
 70
    32
  0
VERTEX
  8
T21SSILL
 62
7
 10
-446.937
 20
-1782.840
 30
3085.092
 70
    32
  0
VERTEX
  8
T21SSILL
 62
7
 10
-437.222
 20
-1782.665
 30
3085.125
 70
    32
  0
VERTEX
  8
T21SSILL
 62
7
 10
-431.431
 20
-1777.609
 30
3085.159
 70
    32
  0
VERTEX
  8
T21SSILL
 62
7
 10
-431.217
 20
-1774.680
 30
3085.168
 70
    32
  0
VERTEX
  8
T21SSILL
 62
7
 10
-451.447
 20
-1770.327
 30
3085.112
 70
    32
  0
VERTEX
  8
T21SSILL
 62
7
 10
-454.897
 20
-1764.756
 30
3085.119
 70
    32
  0
VERTEX
  8
T21SSILL
 62
7
 10
-465.202
 20
-1760.068
 30
3085.108
 70
    32
  0
VERTEX
  8
T21SSILL
 62
7
 10
-465.683
 20
-1755.786
 30
3085.121
 70
    32
  0
VERTEX
  8
T21SSILL
 62
7
 10
-469.657
 20
-1751.275
 30
3085.126
 70
    32
  0
VERTEX
  8
T21SSILL
 62
7
 10
-469.008
 20
-1740.604
 30
3085.164
 70
    32
  0
VERTEX
  8
T21SSILL
 62
7
 10
-429.152
 20
-1711.767
 30
3085.370
 70
    32
  0
VERTEX
  8
T21SSILL
 62
7
 10
-433.571
 20
-1705.357
 30
3085.380
 70
    32
  0
VERTEX
  8
T21SSILL
 62
7
 10
-578.594
 20
-1809.989
 30
3084.634
 70
    32
  0
VERTEX
  8
T21SSILL
 62
7
 10
-588.890
 20
-1823.551
 30
3084.560
 70
    32
  0
VERTEX
  8
T21SSILL
 62
7
 10
-600.217
 20
-1822.183
 30
3084.535
 70
    32
  0
VERTEX
  8
T21SSILL
 62
7
 10
-650.398
 20
-1752.802
 30
3084.640
 70
    32
  0
VERTEX
  8
T21SSILL
 62
7
 10
-641.615
 20
-1746.584
 30
3084.684
 70
    32
  0
VERTEX
  8
T21SSILL
 62
7
 10
-645.525
 20
-1740.698
 30
3084.694
 70
    32
  0
VERTEX
  8
T21SSILL
 62
7
 10
-654.872
 20
-1746.901
 30
3084.648
 70
    32
  0
VERTEX
  8
T21SSILL
 62
7
 10
-664.609
 20
-1733.041
 30
3084.670
 70
    32
  0
VERTEX
  8
T21SSILL
 62
7
 10
-667.488
 20
-1718.739
 30
3084.711
 70
    32
  0
VERTEX
  8
T21SSILL
 62
7
 10
-665.910
 20
-1710.461
 30
3084.744
 70
    32
  0
VERTEX
  8
T21SSILL
 62
7
 10
-661.312
 20
-1703.102
 30
3084.781
 70
    32
  0
VERTEX
  8
T21SSILL
 62
7
 10
-655.399
 20
-1697.622
 30
3084.816
 70
    32
  0
VERTEX
  8
T21SSILL
 62
7
 10
-569.962
 20
-1636.371
 30
3085.254
 70
    32
  0
VERTEX
  8
T21SSILL
 62
7
 10
-565.750
 20
-1635.943
 30
3085.267
 70
    32
  0
VERTEX
  8
T21SSILL
 62
7
 10
-556.175
 20
-1629.456
 30
3085.314
 70
    32
  0
VERTEX
  8
T21SSILL
 62
7
 10
-555.482
 20
-1627.160
 30
3085.324
 70
    32
  0
VERTEX
  8
T21SSILL
 62
7
 10
-526.890
 20
-1605.920
 30
3085.473
 70
    32
  0
VERTEX
  8
T21SSILL
 62
7
 10
-530.449
 20
-1599.767
 30
3085.485
 70
    32
  0
VERTEX
  8
T21SSILL
 62
7
 10
-560.959
 20
-1621.688
 30
3085.328
 70
    32
  0
VERTEX
  8
T21SSILL
 62
7
 10
-565.487
 20
-1615.717
 30
3085.337
 70
    32
  0
VERTEX
  8
T21SSILL
 62
7
 10
-578.555
 20
-1625.185
 30
3085.270
 70
    32
  0
VERTEX
  8
T21SSILL
 62
7
 10
-573.570
 20
-1631.030
 30
3085.263
 70
    32
  0
VERTEX
  8
T21SSILL
 62
7
 10
-663.016
 20
-1694.436
 30
3084.807
 70
    32
  0
VERTEX
  8
T21SSILL
 62
7
 10
-668.309
 20
-1700.441
 30
3084.772
 70
    32
  0
VERTEX
  8
T21SSILL
 62
7
 10
-671.558
 20
-1706.224
 30
3084.743
 70
    32
  0
VERTEX
  8
T21SSILL
 62
7
 10
-673.947
 20
-1714.454
 30
3084.709
 70
    32
  0
VERTEX
  8
T21SSILL
 62
7
 10
-674.147
 20
-1720.027
 30
3084.689
 70
    32
  0
VERTEX
  8
T21SSILL
 62
7
 10
-876.206
 20
-1436.658
 30
3084.975
 70
    32
  0
VERTEX
  8
T21SSILL
 62
7
 10
-873.242
 20
-1426.997
 30
3085.014
 70
    32
  0
VERTEX
  8
T21SSILL
 62
7
 10
-865.980
 20
-1419.941
 30
3085.059
 70
    32
  0
VERTEX
  8
T21SSILL
 62
7
 10
-872.401
 20
-1409.431
 30
3085.070
 70
    32
  0
VERTEX
  8
T21SSILL
 62
7
 10
-879.315
 20
-1392.435
 30
3085.100
 70
    32
  0
VERTEX
  8
T21SSILL
 62
7
 10
-886.667
 20
-1382.741
 30
3085.106
 70
    32
  0
VERTEX
  8
T21SSILL
 62
7
 10
-888.630
 20
-1375.046
 30
3085.123
 70
    32
  0
VERTEX
  8
T21SSILL
 62
7
 10
-885.734
 20
-1365.880
 30
3085.161
 70
    32
  0
VERTEX
  8
T21SSILL
 62
7
 10
-881.618
 20
-1360.656
 30
3085.190
 70
    32
  0
VERTEX
  8
T21SSILL
 62
7
 10
-866.673
 20
-1352.642
 30
3085.263
 70
    32
  0
VERTEX
  8
T21SSILL
 62
7
 10
-859.969
 20
-1350.102
 30
3085.292
 70
    32
  0
VERTEX
  8
T21SSILL
 62
7
 10
-845.049
 20
-1347.308
 30
3085.348
 70
    32
  0
VERTEX
  8
T21SSILL
 62
7
 10
-841.491
 20
-1343.392
 30
3085.372
 70
    32
  0
VERTEX
  8
T21SSILL
 62
7
 10
-842.093
 20
-1339.534
 30
3085.382
 70
    32
  0
VERTEX
  8
T21SSILL
 62
7
 10
-850.673
 20
-1320.924
 30
3085.411
 70
    32
  0
VERTEX
  8
T21SSILL
 62
7
 10
-865.395
 20
-1301.219
 30
3085.424
 70
    32
  0
VERTEX
  8
T21SSILL
 62
7
 10
-869.453
 20
-1277.631
 30
3085.483
 70
    32
  0
VERTEX
  8
T21SSILL
 62
7
 10
-873.678
 20
-1268.996
 30
3085.496
 70
    32
  0
VERTEX
  8
T21SSILL
 62
7
 10
-893.968
 20
-1246.764
 30
3085.499
 70
    32
  0
VERTEX
  8
T21SSILL
 62
7
 10
-902.547
 20
-1251.500
 30
3085.456
 70
    32
  0
VERTEX
  8
T21SSILL
 62
7
 10
-898.533
 20
-1260.295
 30
3085.443
 70
    32
  0
VERTEX
  8
T21SSILL
 62
7
 10
-892.264
 20
-1281.984
 30
3085.396
 70
    32
  0
VERTEX
  8
T21SSILL
 62
7
 10
-890.295
 20
-1300.629
 30
3085.346
 70
    32
  0
VERTEX
  8
T21SSILL
 62
7
 10
-889.926
 20
-1323.584
 30
3085.277
 70
    32
  0
VERTEX
  8
T21SSILL
 62
7
 10
-892.027
 20
-1326.505
 30
3085.261
 70
    32
  0
VERTEX
  8
T21SSILL
 62
7
 10
-895.507
 20
-1328.481
 30
3085.244
 70
    32
  0
VERTEX
  8
T21SSILL
 62
7
 10
-912.064
 20
-1331.742
 30
3085.180
 70
    32
  0
VERTEX
  8
T21SSILL
 62
7
 10
-909.797
 20
-1346.841
 30
3085.142
 70
    32
  0
VERTEX
  8
T21SSILL
 62
7
 10
-928.538
 20
-1360.500
 30
3085.039
 70
    32
  0
VERTEX
  8
T21SSILL
 62
7
 10
-939.282
 20
-1346.187
 30
3085.049
 70
    32
  0
VERTEX
  8
T21SSILL
 62
7
 10
-922.808
 20
-1333.916
 30
3085.139
 70
    32
  0
VERTEX
  8
T21SSILL
 62
7
 10
-909.690
 20
-1327.286
 30
3085.202
 70
    32
  0
VERTEX
  8
T21SSILL
 62
7
 10
-905.964
 20
-1318.486
 30
3085.241
 70
    32
  0
VERTEX
  8
T21SSILL
 62
7
 10
-898.451
 20
-1308.695
 30
3085.295
 70
    32
  0
VERTEX
  8
T21SSILL
 62
7
 10
-896.765
 20
-1304.207
 30
3085.314
 70
    32
  0
VERTEX
  8
T21SSILL
 62
7
 10
-899.348
 20
-1299.196
 30
3085.321
 70
    32
  0
VERTEX
  8
T21SSILL
 62
7
 10
-901.722
 20
-1297.234
 30
3085.319
 70
    32
  0
VERTEX
  8
T21SSILL
 62
7
 10
-916.913
 20
-1302.005
 30
3085.256
 70
    32
  0
VERTEX
  8
T21SSILL
 62
7
 10
-937.878
 20
-1278.736
 30
3085.260
 70
    32
  0
VERTEX
  8
T21SSILL
 62
7
 10
-923.287
 20
-1230.716
 30
3085.453
 70
    32
  0
VERTEX
  8
T21SSILL
 62
7
 10
-919.880
 20
-1231.562
 30
3085.462
 70
    32
  0
VERTEX
  8
T21SSILL
 62
7
 10
-916.032
 20
-1235.615
 30
3085.462
 70
    32
  0
VERTEX
  8
T21SSILL
 62
7
 10
-904.165
 20
-1225.730
 30
3085.530
 70
    32
  0
VERTEX
  8
T21SSILL
 62
7
 10
-899.855
 20
-1214.052
 30
3085.580
 70
    32
  0
VERTEX
  8
T21SSILL
 62
7
 10
-899.537
 20
-1210.824
 30
3085.591
 70
    32
  0
VERTEX
  8
T21SSILL
 62
7
 10
-902.566
 20
-1204.933
 30
3085.599
 70
    32
  0
VERTEX
  8
T21SSILL
 62
7
 10
-907.792
 20
-1187.099
 30
3085.637
 70
    32
  0
VERTEX
  8
T21SSILL
 62
7
 10
-911.044
 20
-1169.096
 30
3085.681
 70
    32
  0
VERTEX
  8
T21SSILL
 62
7
 10
-911.462
 20
-1166.648
 30
3085.687
 70
    32
  0
VERTEX
  8
T21SSILL
 62
7
 10
-909.114
 20
-1160.552
 30
3085.714
 70
    32
  0
VERTEX
  8
T21SSILL
 62
7
 10
-910.213
 20
-1156.185
 30
3085.723
 70
    32
  0
VERTEX
  8
T21SSILL
 62
7
 10
-914.852
 20
-1149.192
 30
3085.730
 70
    32
  0
VERTEX
  8
T21SSILL
 62
7
 10
-925.473
 20
-1124.828
 30
3085.770
 70
    32
  0
VERTEX
  8
T21SSILL
 62
7
 10
-926.918
 20
-1118.400
 30
3085.785
 70
    32
  0
VERTEX
  8
T21SSILL
 62
7
 10
-924.282
 20
-1110.204
 30
3085.819
 70
    32
  0
VERTEX
  8
T21SSILL
 62
7
 10
-896.180
 20
-1069.641
 30
3085.743
 70
    32
  0
VERTEX
  8
T21SSILL
 62
7
 10
-895.307
 20
-1061.455
 30
3085.642
 70
    32
  0
VERTEX
  8
T21SSILL
 62
7
 10
-897.195
 20
-1057.798
 30
3085.603
 70
    32
  0
VERTEX
  8
T21SSILL
 62
7
 10
-901.126
 20
-1058.013
 30
3085.614
 70
    32
  0
VERTEX
  8
T21SSILL
 62
7
 10
-914.203
 20
-1072.576
 30
3085.820
 70
    32
  0
VERTEX
  8
T21SSILL
 62
7
 10
-926.222
 20
-1083.572
 30
3085.894
 70
    32
  0
VERTEX
  8
T21SSILL
 62
7
 10
-927.373
 20
-1085.994
 30
3085.883
 70
    32
  0
VERTEX
  8
T21SSILL
 62
7
 10
-936.192
 20
-1092.018
 30
3085.836
 70
    32
  0
VERTEX
  8
T21SSILL
 62
7
 10
-940.000
 20
-1066.372
 30
3085.804
 70
    32
  0
VERTEX
  8
T21SSILL
 62
7
 10
-937.613
 20
-1065.603
 30
3085.789
 70
    32
  0
VERTEX
  8
T21SSILL
 62
7
 10
-935.809
 20
-1063.295
 30
3085.757
 70
    32
  0
VERTEX
  8
T21SSILL
 62
7
 10
-934.576
 20
-1058.125
 30
3085.692
 70
    32
  0
VERTEX
  8
T21SSILL
 62
7
 10
-940.370
 20
-1043.683
 30
3085.531
 70
    32
  0
VERTEX
  8
T21SSILL
 62
7
 10
-944.447
 20
-1025.028
 30
3085.315
 70
    32
  0
VERTEX
  8
T21SSILL
 62
7
 10
-941.963
 20
-1019.924
 30
3085.247
 70
    32
  0
VERTEX
  8
T21SSILL
 62
7
 10
-941.960
 20
-1016.205
 30
3085.202
 70
    32
  0
VERTEX
  8
T21SSILL
 62
7
 10
-944.143
 20
-1010.701
 30
3085.141
 70
    32
  0
VERTEX
  8
T21SSILL
 62
7
 10
-942.721
 20
-1004.299
 30
3085.060
 70
    32
  0
VERTEX
  8
T21SSILL
 62
7
 10
-943.127
 20
-992.132
 30
3084.914
 70
    32
  0
VERTEX
  8
T21SSILL
 62
7
 10
-944.447
 20
-988.400
 30
3084.872
 70
    32
  0
VERTEX
  8
T21SSILL
 62
7
 10
-961.553
 20
-991.012
 30
3084.943
 70
    32
  0
VERTEX
  8
T21SSILL
 62
7
 10
-963.769
 20
-1000.948
 30
3085.068
 70
    32
  0
VERTEX
  8
T21SSILL
 62
7
 10
-962.414
 20
-1008.154
 30
3085.152
 70
    32
  0
VERTEX
  8
T21SSILL
 62
7
 10
-958.734
 20
-1013.761
 30
3085.211
 70
    32
  0
VERTEX
  8
T21SSILL
 62
7
 10
-953.854
 20
-1014.004
 30
3085.203
 70
    32
  0
VERTEX
  8
T21SSILL
 62
7
 10
-952.682
 20
-1023.640
 30
3085.317
 70
    32
  0
VERTEX
  8
T21SSILL
 62
7
 10
-958.140
 20
-1031.693
 30
3085.426
 70
    32
  0
VERTEX
  8
T21SSILL
 62
7
 10
-959.066
 20
-1036.091
 30
3085.481
 70
    32
  0
VERTEX
  8
T21SSILL
 62
7
 10
-958.503
 20
-1041.473
 30
3085.545
 70
    32
  0
VERTEX
  8
T21SSILL
 62
7
 10
-966.669
 20
-1038.393
 30
3085.527
 70
    32
  0
VERTEX
  8
T21SSILL
 62
7
 10
-969.404
 20
-1050.898
 30
3085.684
 70
    32
  0
VERTEX
  8
T21SSILL
 62
7
 10
-957.110
 20
-1057.069
 30
3085.730
 70
    32
  0
VERTEX
  8
T21SSILL
 62
7
 10
-952.416
 20
-1061.822
 30
3085.777
 70
    32
  0
VERTEX
  8
T21SSILL
 62
7
 10
-947.694
 20
-1074.209
 30
3085.853
 70
    32
  0
VERTEX
  8
T21SSILL
 62
7
 10
-954.053
 20
-1075.110
 30
3085.830
 70
    32
  0
VERTEX
  8
T21SSILL
 62
7
 10
-965.436
 20
-1071.764
 30
3085.804
 70
    32
  0
VERTEX
  8
T21SSILL
 62
7
 10
-976.485
 20
-1066.410
 30
3085.785
 70
    32
  0
VERTEX
  8
T21SSILL
 62
7
 10
-984.185
 20
-1056.372
 30
3085.784
 70
    32
  0
VERTEX
  8
T21SSILL
 62
7
 10
-989.207
 20
-1046.334
 30
3085.674
 70
    32
  0
VERTEX
  8
T21SSILL
 62
7
 10
-991.885
 20
-1034.957
 30
3085.543
 70
    32
  0
VERTEX
  8
T21SSILL
 62
7
 10
-997.242
 20
-1026.926
 30
3085.458
 70
    32
  0
VERTEX
  8
T21SSILL
 62
7
 10
-1008.303
 20
-1016.918
 30
3085.362
 70
    32
  0
VERTEX
  8
T21SSILL
 62
7
 10
-888.735
 20
-931.492
 30
3084.225
 70
    32
  0
VERTEX
  8
T21SSILL
 62
7
 10
-892.662
 20
-926.182
 30
3084.267
 70
    32
  0
VERTEX
  8
T21SSILL
 62
7
 10
-1005.625
 20
-1006.589
 30
3085.231
 70
    32
  0
VERTEX
  8
T21SSILL
 62
7
 10
-1042.677
 20
-925.925
 30
3084.342
 70
    32
  0
VERTEX
  8
T21SSILL
 62
7
 10
-1053.841
 20
-905.513
 30
3084.121
 70
    32
  0
VERTEX
  8
T21SSILL
 62
7
 10
-1044.275
 20
-897.263
 30
3083.999
 70
    32
  0
VERTEX
  8
T21SSILL
 62
7
 10
-1027.187
 20
-887.844
 30
3083.847
 70
    32
  0
VERTEX
  8
T21SSILL
 62
7
 10
-1036.457
 20
-865.554
 30
3083.599
 70
    32
  0
VERTEX
  8
T21SSILL
 62
7
 10
-1064.389
 20
-881.536
 30
3083.855
 70
    32
  0
VERTEX
  8
T21SSILL
 62
7
 10
-1084.697
 20
-837.872
 30
3083.375
 70
    32
  0
VERTEX
  8
T21SSILL
 62
7
 10
-1012.385
 20
-785.736
 30
3083.992
 70
    32
  0
VERTEX
  8
T21SSILL
 62
7
 10
-1016.989
 20
-779.757
 30
3083.924
 70
    32
  0
VERTEX
  8
T21SSILL
 62
7
 10
-1069.364
 20
-817.798
 30
3083.097
 70
    32
  0
VERTEX
  8
T21SSILL
 62
7
 10
-1216.594
 20
-924.047
 30
3084.716
 70
    32
  0
VERTEX
  8
T21SSILL
 62
7
 10
-1224.652
 20
-934.141
 30
3084.856
 70
    32
  0
VERTEX
  8
T21SSILL
 62
7
 10
-1228.200
 20
-949.887
 30
3085.054
 70
    32
  0
VERTEX
  8
T21SSILL
 62
7
 10
-1256.993
 20
-910.315
 30
3084.642
 70
    32
  0
VERTEX
  8
T21SSILL
 62
7
 10
-1258.922
 20
-905.582
 30
3084.589
 70
    32
  0
VERTEX
  8
T21SSILL
 62
7
 10
-1259.144
 20
-900.329
 30
3084.526
 70
    32
  0
VERTEX
  8
T21SSILL
 62
7
 10
-1253.893
 20
-896.457
 30
3084.468
 70
    32
  0
VERTEX
  8
T21SSILL
 62
7
 10
-1277.275
 20
-866.429
 30
3084.158
 70
    32
  0
VERTEX
  8
T21SSILL
 62
7
 10
-1279.565
 20
-862.122
 30
3084.112
 70
    32
  0
VERTEX
  8
T21SSILL
 62
7
 10
-1277.909
 20
-858.368
 30
3084.062
 70
    32
  0
VERTEX
  8
T21SSILL
 62
7
 10
-1278.383
 20
-857.087
 30
3084.048
 70
    32
  0
VERTEX
  8
T21SSILL
 62
7
 10
-1291.477
 20
-835.964
 30
3083.823
 70
    32
  0
VERTEX
  8
T21SSILL
 62
7
 10
-1304.794
 20
-818.338
 30
3083.640
 70
    32
  0
VERTEX
  8
T21SSILL
 62
7
 10
-1311.967
 20
-811.235
 30
3083.571
 70
    32
  0
VERTEX
  8
T21SSILL
 62
7
 10
-1325.212
 20
-801.636
 30
3083.485
 70
    32
  0
VERTEX
  8
T21SSILL
 62
7
 10
-1334.695
 20
-790.349
 30
3083.371
 70
    32
  0
VERTEX
  8
T21SSILL
 62
7
 10
-1343.510
 20
-788.392
 30
3083.367
 70
    32
  0
VERTEX
  8
T21SSILL
 62
7
 10
-1364.010
 20
-759.684
 30
3083.067
 70
    32
  0
VERTEX
  8
T21SSILL
 62
7
 10
-1358.189
 20
-751.155
 30
3082.951
 70
    32
  0
VERTEX
  8
T21SSILL
 62
7
 10
-1352.041
 20
-752.843
 30
3082.957
 70
    32
  0
VERTEX
  8
T21SSILL
 62
7
 10
-1339.181
 20
-753.665
 30
3082.938
 70
    32
  0
VERTEX
  8
T21SSILL
 62
7
 10
-1331.711
 20
-752.803
 30
3082.910
 70
    32
  0
VERTEX
  8
T21SSILL
 62
7
 10
-1321.986
 20
-730.744
 30
3082.622
 70
    32
  0
VERTEX
  8
T21SSILL
 62
7
 10
-1316.127
 20
-720.896
 30
3082.490
 70
    32
  0
VERTEX
  8
T21SSILL
 62
7
 10
-1306.258
 20
-708.644
 30
3082.319
 70
    32
  0
VERTEX
  8
T21SSILL
 62
7
 10
-1301.140
 20
-695.765
 30
3082.152
 70
    32
  0
VERTEX
  8
T21SSILL
 62
7
 10
-1284.765
 20
-683.117
 30
3081.962
 70
    32
  0
VERTEX
  8
T21SSILL
 62
7
 10
-1271.024
 20
-677.716
 30
3082.146
 70
    32
  0
VERTEX
  8
T21SSILL
 62
7
 10
-1262.417
 20
-676.482
 30
3082.355
 70
    32
  0
VERTEX
  8
T21SSILL
 62
7
 10
-1252.491
 20
-677.115
 30
3082.549
 70
    32
  0
VERTEX
  8
T21SSILL
 62
7
 10
-1220.457
 20
-685.396
 30
3083.028
 70
    32
  0
VERTEX
  8
T21SSILL
 62
7
 10
-1218.318
 20
-676.493
 30
3083.281
 70
    32
  0
VERTEX
  8
T21SSILL
 62
7
 10
-1243.431
 20
-669.206
 30
3082.925
 70
    32
  0
VERTEX
  8
T21SSILL
 62
7
 10
-1257.860
 20
-667.230
 30
3082.668
 70
    32
  0
VERTEX
  8
T21SSILL
 62
7
 10
-1270.648
 20
-668.187
 30
3082.377
 70
    32
  0
VERTEX
  8
T21SSILL
 62
7
 10
-1282.069
 20
-671.841
 30
3082.052
 70
    32
  0
VERTEX
  8
T21SSILL
 62
7
 10
-1291.899
 20
-676.525
 30
3081.899
 70
    32
  0
VERTEX
  8
T21SSILL
 62
7
 10
-1291.726
 20
-668.539
 30
3081.926
 70
    32
  0
VERTEX
  8
T21SSILL
 62
7
 10
-1297.184
 20
-658.071
 30
3082.057
 70
    32
  0
VERTEX
  8
T21SSILL
 62
7
 10
-1304.799
 20
-655.373
 30
3081.960
 70
    32
  0
VERTEX
  8
T21SSILL
 62
7
 10
-1314.420
 20
-657.001
 30
3081.720
 70
    32
  0
VERTEX
  8
T21SSILL
 62
7
 10
-1321.477
 20
-663.172
 30
3081.805
 70
    32
  0
VERTEX
  8
T21SSILL
 62
7
 10
-1333.293
 20
-680.138
 30
3082.037
 70
    32
  0
VERTEX
  8
T21SSILL
 62
7
 10
-1336.359
 20
-687.690
 30
3082.135
 70
    32
  0
VERTEX
  8
T21SSILL
 62
7
 10
-1341.335
 20
-694.976
 30
3082.234
 70
    32
  0
VERTEX
  8
T21SSILL
 62
7
 10
-1352.589
 20
-703.897
 30
3082.368
 70
    32
  0
VERTEX
  8
T21SSILL
 62
7
 10
-1362.230
 20
-707.478
 30
3082.433
 70
    32
  0
VERTEX
  8
T21SSILL
 62
7
 10
-1369.216
 20
-711.768
 30
3082.501
 70
    32
  0
VERTEX
  8
T21SSILL
 62
7
 10
-1371.986
 20
-717.603
 30
3082.577
 70
    32
  0
VERTEX
  8
T21SSILL
 62
7
 10
-1370.636
 20
-729.575
 30
3082.719
 70
    32
  0
VERTEX
  8
T21SSILL
 62
7
 10
-1368.583
 20
-735.987
 30
3082.792
 70
    32
  0
VERTEX
  8
T21SSILL
 62
7
 10
-1369.356
 20
-737.180
 30
3082.808
 70
    32
  0
VERTEX
  8
T21SSILL
 62
7
 10
-1379.738
 20
-737.730
 30
3082.838
 70
    32
  0
VERTEX
  8
T21SSILL
 62
7
 10
-1472.032
 20
-608.100
 30
3081.483
 70
    32
  0
VERTEX
  8
T21SSILL
 62
7
 10
-1487.502
 20
-575.940
 30
3081.130
 70
    32
  0
VERTEX
  8
T21SSILL
 62
7
 10
-1522.007
 20
-529.581
 30
3080.649
 70
    32
  0
VERTEX
  8
T21SSILL
 62
7
 10
-1523.758
 20
-523.401
 30
3080.578
 70
    32
  0
VERTEX
  8
T21SSILL
 62
7
 10
-1524.071
 20
-510.846
 30
3080.743
 70
    32
  0
VERTEX
  8
T21SSILL
 62
7
 10
-1519.195
 20
-505.392
 30
3080.974
 70
    32
  0
VERTEX
  8
T21SSILL
 62
7
 10
-1477.081
 20
-474.556
 30
3082.580
 70
    32
  0
VERTEX
  8
T21SSILL
 62
7
 10
-1414.386
 20
-430.887
 30
3081.386
 70
    32
  0
VERTEX
  8
T21SSILL
 62
7
 10
-1420.785
 20
-424.586
 30
3081.336
 70
    32
  0
VERTEX
  8
T21SSILL
 62
7
 10
-1483.928
 20
-469.604
 30
3082.552
 70
    32
  0
VERTEX
  8
T21SSILL
 62
7
 10
-1512.067
 20
-489.666
 30
3081.492
 70
    32
  0
VERTEX
  8
T21SSILL
 62
7
 10
-1523.117
 20
-488.602
 30
3081.285
 70
    32
  0
VERTEX
  8
T21SSILL
 62
7
 10
-1531.558
 20
-492.796
 30
3081.009
 70
    32
  0
VERTEX
  8
T21SSILL
 62
7
 10
-1531.830
 20
-502.218
 30
3080.783
 70
    32
  0
VERTEX
  8
T21SSILL
 62
7
 10
-1533.652
 20
-504.674
 30
3080.687
 70
    32
  0
VERTEX
  8
T21SSILL
 62
7
 10
-1538.096
 20
-505.533
 30
3080.573
 70
    32
  0
VERTEX
  8
T21SSILL
 62
7
 10
-1649.781
 20
-349.634
 30
3081.882
 70
    32
  0
VERTEX
  8
T21SSILL
 62
7
 10
-1740.613
 20
-222.843
 30
3080.379
 70
    32
  0
VERTEX
  8
T21SSILL
 62
7
 10
-1938.380
 20
53.217
 30
3082.282
 70
    32
  0
VERTEX
  8
T21SSILL
 62
7
 10
-2107.954
 20
289.923
 30
3082.209
 70
    32
  0
VERTEX
  8
T21SSILL
 62
7
 10
-2107.710
 20
289.582
 30
3082.210
 70
    32
  0
VERTEX
  8
T21SSILL
 62
7
 10
-2106.445
 20
308.518
 30
3082.206
 70
    32
  0
VERTEX
  8
T21SSILL
 62
7
 10
-2097.158
 20
334.783
 30
3082.202
 70
    32
  0
VERTEX
  8
T21SSILL
 62
7
 10
-2086.905
 20
352.759
 30
3082.200
 70
    32
  0
VERTEX
  8
T21SSILL
 62
7
 10
-2080.598
 20
352.968
 30
3082.201
 70
    32
  0
VERTEX
  8
T21SSILL
 62
7
 10
-2075.311
 20
348.931
 30
3082.202
 70
    32
  0
VERTEX
  8
T21SSILL
 62
7
 10
-2070.722
 20
340.052
 30
3082.205
 70
    32
  0
VERTEX
  8
T21SSILL
 62
7
 10
-2068.831
 20
333.927
 30
3082.206
 70
    32
  0
VERTEX
  8
T21SSILL
 62
7
 10
-2064.670
 20
330.380
 30
3082.208
 70
    32
  0
VERTEX
  8
T21SSILL
 62
7
 10
-2054.092
 20
316.830
 30
3082.212
 70
    32
  0
VERTEX
  8
T21SSILL
 62
7
 10
-2045.583
 20
323.668
 30
3082.212
 70
    32
  0
VERTEX
  8
T21SSILL
 62
7
 10
-2053.809
 20
334.007
 30
3082.208
 70
    32
  0
VERTEX
  8
T21SSILL
 62
7
 10
-2052.071
 20
339.992
 30
3082.207
 70
    32
  0
VERTEX
  8
T21SSILL
 62
7
 10
-2028.052
 20
355.009
 30
3082.981
 70
    32
  0
VERTEX
  8
T21SSILL
 62
7
 10
-1996.041
 20
375.023
 30
3083.278
 70
    32
  0
VERTEX
  8
T21SSILL
 62
7
 10
-1999.704
 20
366.825
 30
3083.059
 70
    32
  0
VERTEX
  8
T21SSILL
 62
7
 10
-1999.024
 20
358.322
 30
3082.786
 70
    32
  0
VERTEX
  8
T21SSILL
 62
7
 10
-1973.670
 20
348.445
 30
3082.217
 70
    32
  0
VERTEX
  8
T21SSILL
 62
7
 10
-1973.362
 20
348.324
 30
3082.217
 70
    32
  0
VERTEX
  8
T21SSILL
 62
7
 10
-1973.308
 20
348.564
 30
3082.217
 70
    32
  0
VERTEX
  8
T21SSILL
 62
7
 10
-1969.614
 20
365.022
 30
3082.694
 70
    32
  0
VERTEX
  8
T21SSILL
 62
7
 10
-1975.700
 20
372.204
 30
3082.981
 70
    32
  0
VERTEX
  8
T21SSILL
 62
7
 10
-1979.382
 20
379.054
 30
3083.233
 70
    32
  0
VERTEX
  8
T21SSILL
 62
7
 10
-1981.718
 20
390.159
 30
3083.604
 70
    32
  0
VERTEX
  8
T21SSILL
 62
7
 10
-1985.892
 20
394.559
 30
3083.784
 70
    32
  0
VERTEX
  8
T21SSILL
 62
7
 10
-1985.688
 20
399.720
 30
3083.943
 70
    32
  0
VERTEX
  8
T21SSILL
 62
7
 10
-1990.074
 20
406.191
 30
3084.191
 70
    32
  0
VERTEX
  8
T21SSILL
 62
7
 10
-1994.712
 20
413.036
 30
3084.435
 70
    32
  0
VERTEX
  8
T21SSILL
 62
7
 10
-1992.536
 20
418.007
 30
3084.540
 70
    32
  0
VERTEX
  8
T21SSILL
 62
7
 10
-1996.362
 20
421.613
 30
3084.687
 70
    32
  0
VERTEX
  8
T21SSILL
 62
7
 10
-1990.870
 20
436.596
 30
3085.016
 70
    32
  0
VERTEX
  8
T21SSILL
 62
7
 10
-1995.327
 20
438.172
 30
3085.117
 70
    32
  0
VERTEX
  8
T21SSILL
 62
7
 10
-1992.944
 20
456.475
 30
3085.576
 70
    32
  0
VERTEX
  8
T21SSILL
 62
7
 10
-1992.702
 20
458.310
 30
3085.622
 70
    32
  0
VERTEX
  8
T21SSILL
 62
7
 10
-2001.513
 20
463.840
 30
3085.887
 70
    32
  0
VERTEX
  8
T21SSILL
 62
7
 10
-2009.407
 20
487.558
 30
3086.627
 70
    32
  0
VERTEX
  8
T21SSILL
 62
7
 10
-2011.625
 20
494.221
 30
3086.628
 70
    32
  0
VERTEX
  8
T21SSILL
 62
7
 10
-2020.464
 20
497.799
 30
3086.593
 70
    32
  0
VERTEX
  8
T21SSILL
 62
7
 10
-2030.406
 20
505.864
 30
3086.561
 70
    32
  0
VERTEX
  8
T21SSILL
 62
7
 10
-2036.940
 20
512.130
 30
3086.541
 70
    32
  0
VERTEX
  8
T21SSILL
 62
7
 10
-2043.497
 20
523.639
 30
3086.530
 70
    32
  0
VERTEX
  8
T21SSILL
 62
7
 10
-2054.195
 20
527.419
 30
3086.487
 70
    32
  0
VERTEX
  8
T21SSILL
 62
7
 10
-2061.594
 20
534.152
 30
3086.465
 70
    32
  0
VERTEX
  8
T21SSILL
 62
7
 10
-2064.146
 20
535.302
 30
3086.455
 70
    32
  0
VERTEX
  8
T21SSILL
 62
7
 10
-2065.045
 20
535.707
 30
3086.459
 70
    32
  0
VERTEX
  8
T21SSILL
 62
7
 10
-2069.741
 20
537.356
 30
3086.478
 70
    32
  0
VERTEX
  8
T21SSILL
 62
7
 10
-2072.017
 20
535.547
 30
3086.484
 70
    32
  0
VERTEX
  8
T21SSILL
 62
7
 10
-2075.151
 20
537.110
 30
3086.497
 70
    32
  0
VERTEX
  8
T21SSILL
 62
7
 10
-2090.715
 20
552.926
 30
3086.575
 70
    32
  0
VERTEX
  8
T21SSILL
 62
7
 10
-2090.785
 20
552.997
 30
3086.561
 70
    32
  0
VERTEX
  8
T21SSILL
 62
7
 10
-2095.381
 20
553.428
 30
3086.037
 70
    32
  0
VERTEX
  8
T21SSILL
 62
7
 10
-2099.545
 20
556.309
 30
3085.348
 70
    32
  0
VERTEX
  8
T21SSILL
 62
7
 10
-2102.275
 20
560.515
 30
3084.696
 70
    32
  0
VERTEX
  8
T21SSILL
 62
7
 10
-2103.552
 20
564.858
 30
3084.187
 70
    32
  0
VERTEX
  8
T21SSILL
 62
7
 10
-2104.762
 20
568.971
 30
3083.690
 70
    32
  0
VERTEX
  8
T21SSILL
 62
7
 10
-2109.480
 20
569.424
 30
3083.144
 70
    32
  0
VERTEX
  8
T21SSILL
 62
7
 10
-2113.141
 20
575.877
 30
3082.176
 70
    32
  0
VERTEX
  8
T21SSILL
 62
7
 10
-2118.889
 20
573.355
 30
3081.784
 70
    32
  0
VERTEX
  8
T21SSILL
 62
7
 10
-2121.993
 20
573.649
 30
3081.425
 70
    32
  0
VERTEX
  8
T21SSILL
 62
7
 10
-2128.253
 20
577.531
 30
3080.408
 70
    32
  0
VERTEX
  8
T21SSILL
 62
7
 10
-2132.821
 20
573.092
 30
3080.313
 70
    32
  0
VERTEX
  8
T21SSILL
 62
7
 10
-2136.557
 20
569.461
 30
3080.292
 70
    32
  0
VERTEX
  8
T21SSILL
 62
7
 10
-2136.230
 20
568.986
 30
3080.313
 70
    32
  0
VERTEX
  8
T21SSILL
 62
7
 10
-2130.728
 20
560.984
 30
3081.616
 70
    32
  0
VERTEX
  8
T21SSILL
 62
7
 10
-2124.114
 20
554.701
 30
3082.885
 70
    32
  0
VERTEX
  8
T21SSILL
 62
7
 10
-2116.939
 20
547.885
 30
3084.233
 70
    32
  0
VERTEX
  8
T21SSILL
 62
7
 10
-2116.663
 20
539.061
 30
3085.023
 70
    32
  0
VERTEX
  8
T21SSILL
 62
7
 10
-2145.014
 20
518.227
 30
3083.818
 70
    32
  0
VERTEX
  8
T21SSILL
 62
7
 10
-2163.225
 20
504.844
 30
3079.726
 70
    32
  0
VERTEX
  8
T21SSILL
 62
7
 10
-2168.058
 20
506.074
 30
3079.815
 70
    32
  0
VERTEX
  8
T21SSILL
 62
7
 10
-2167.031
 20
510.065
 30
3079.867
 70
    32
  0
VERTEX
  8
T21SSILL
 62
7
 10
-2164.810
 20
512.691
 30
3079.902
 70
    32
  0
VERTEX
  8
T21SSILL
 62
7
 10
-2165.369
 20
537.762
 30
3080.440
 70
    32
  0
VERTEX
  8
T21SSILL
 62
7
 10
-2162.837
 20
545.369
 30
3080.255
 70
    32
  0
VERTEX
  8
T21SSILL
 62
7
 10
-2161.419
 20
550.548
 30
3080.302
 70
    32
  0
VERTEX
  8
T21SSILL
 62
7
 10
-2161.801
 20
553.393
 30
3080.346
 70
    32
  0
VERTEX
  8
T21SSILL
 62
7
 10
-2169.048
 20
554.544
 30
3080.469
 70
    32
  0
VERTEX
  8
T21SSILL
 62
7
 10
-2173.973
 20
544.869
 30
3080.415
 70
    32
  0
VERTEX
  8
T21SSILL
 62
7
 10
-2176.976
 20
543.947
 30
3080.448
 70
    32
  0
VERTEX
  8
T21SSILL
 62
7
 10
-2177.868
 20
539.243
 30
3080.399
 70
    32
  0
VERTEX
  8
T21SSILL
 62
7
 10
-2180.800
 20
516.512
 30
3080.101
 70
    32
  0
VERTEX
  8
T21SSILL
 62
7
 10
-2177.758
 20
511.021
 30
3080.024
 70
    32
  0
VERTEX
  8
T21SSILL
 62
7
 10
-2178.113
 20
502.039
 30
3079.911
 70
    32
  0
VERTEX
  8
T21SSILL
 62
7
 10
-2181.231
 20
495.454
 30
3079.871
 70
    32
  0
VERTEX
  8
T21SSILL
 62
7
 10
-2186.610
 20
488.574
 30
3079.861
 70
    32
  0
VERTEX
  8
T21SSILL
 62
7
 10
-2204.999
 20
475.204
 30
3079.959
 70
    32
  0
VERTEX
  8
T21SSILL
 62
7
 10
-2224.594
 20
460.042
 30
3081.619
 70
    32
  0
VERTEX
  8
T21SSILL
 62
7
 10
-2232.186
 20
460.307
 30
3081.986
 70
    32
  0
VERTEX
  8
T21SSILL
 62
7
 10
-2273.878
 20
496.696
 30
3082.438
 70
    32
  0
VERTEX
  8
T21SSILL
 62
7
 10
-2273.504
 20
498.461
 30
3082.341
 70
    32
  0
VERTEX
  8
T21SSILL
 62
7
 10
-2274.123
 20
499.959
 30
3082.304
 70
    32
  0
VERTEX
  8
T21SSILL
 62
7
 10
-2278.669
 20
504.611
 30
3082.323
 70
    32
  0
VERTEX
  8
T21SSILL
 62
7
 10
-2287.148
 20
508.442
 30
3082.575
 70
    32
  0
VERTEX
  8
T21SSILL
 62
7
 10
-2367.507
 20
579.045
 30
3083.668
 70
    32
  0
VERTEX
  8
T21SSILL
 62
7
 10
-2374.241
 20
573.793
 30
3083.640
 70
    32
  0
VERTEX
  8
T21SSILL
 62
7
 10
-2291.173
 20
499.934
 30
3083.158
 70
    32
  0
VERTEX
  8
T21SSILL
 62
7
 10
-2292.830
 20
497.701
 30
3083.341
 70
    32
  0
VERTEX
  8
T21SSILL
 62
7
 10
-2293.937
 20
490.699
 30
3083.431
 70
    32
  0
VERTEX
  8
T21SSILL
 62
7
 10
-2292.381
 20
486.637
 30
3083.442
 70
    32
  0
VERTEX
  8
T21SSILL
 62
7
 10
-2289.196
 20
483.929
 30
3083.424
 70
    32
  0
VERTEX
  8
T21SSILL
 62
7
 10
-2256.397
 20
468.362
 30
3082.836
 70
    32
  0
VERTEX
  8
T21SSILL
 62
7
 10
-2232.644
 20
448.393
 30
3082.544
 70
    32
  0
VERTEX
  8
T21SSILL
 62
7
 10
-2228.783
 20
444.871
 30
3082.509
 70
    32
  0
VERTEX
  8
T21SSILL
 62
7
 10
-2173.520
 20
367.238
 30
3082.529
 70
    32
  0
VERTEX
  8
T21SSILL
 62
7
 10
-2172.956
 20
363.932
 30
3082.529
 70
    32
  0
VERTEX
  8
T21SSILL
 62
7
 10
-2174.936
 20
355.502
 30
3082.530
 70
    32
  0
VERTEX
  8
T21SSILL
 62
7
 10
-2167.391
 20
344.944
 30
3082.533
 70
    32
  0
VERTEX
  8
T21SSILL
 62
7
 10
-2157.573
 20
344.837
 30
3082.534
 70
    32
  0
VERTEX
  8
T21SSILL
 62
7
 10
-2036.952
 20
175.389
 30
3082.577
 70
    32
  0
VERTEX
  8
T21SSILL
 62
7
 10
-2042.431
 20
166.507
 30
3082.600
 70
    32
  0
VERTEX
  8
T21SSILL
 62
7
 10
-2030.687
 20
152.189
 30
3082.563
 70
    32
  0
VERTEX
  8
T21SSILL
 62
7
 10
-2013.742
 20
135.503
 30
3082.489
 70
    32
  0
VERTEX
  8
T21SSILL
 62
7
 10
-2006.611
 20
132.983
 30
3082.469
 70
    32
  0
VERTEX
  8
T21SSILL
 62
7
 10
-1795.232
 20
-162.419
 30
3081.112
 70
    32
  0
VERTEX
  8
T21SSILL
 62
7
 10
-1800.524
 20
-173.102
 30
3081.511
 70
    32
  0
VERTEX
  8
T21SSILL
 62
7
 10
-1783.211
 20
-193.073
 30
3081.205
 70
    32
  0
VERTEX
  8
T21SSILL
 62
7
 10
-1781.396
 20
-191.373
 30
3081.104
 70
    32
  0
VERTEX
  8
T21SSILL
 62
7
 10
-1754.573
 20
-219.712
 30
3080.582
 70
    32
  0
VERTEX
  8
T21SSILL
 62
7
 10
-1649.292
 20
-368.778
 30
3081.868
 70
    32
  0
VERTEX
  8
T21SSILL
 62
7
 10
-1532.576
 20
-534.573
 30
3080.484
 70
    32
  0
VERTEX
  8
T21SSILL
 62
7
 10
-1347.418
 20
-794.599
 30
3083.277
 70
    32
  0
VERTEX
  8
T21SSILL
 62
7
 10
-1346.642
 20
-798.898
 30
3083.264
 70
    32
  0
VERTEX
  8
T21SSILL
 62
7
 10
-1340.620
 20
-813.062
 30
3083.311
 70
    32
  0
VERTEX
  8
T21SSILL
 62
7
 10
-1343.680
 20
-823.518
 30
3083.152
 70
    32
  0
VERTEX
  8
T21SSILL
 62
7
 10
-1338.147
 20
-831.349
 30
3083.235
 70
    32
  0
VERTEX
  8
T21SSILL
 62
7
 10
-1329.078
 20
-833.665
 30
3083.451
 70
    32
  0
VERTEX
  8
T21SSILL
 62
7
 10
-1319.850
 20
-849.011
 30
3083.572
 70
    32
  0
VERTEX
  8
T21SSILL
 62
7
 10
-1276.930
 20
-907.953
 30
3084.229
 70
    32
  0
VERTEX
  8
T21SSILL
 62
7
 10
-1263.469
 20
-912.571
 30
3084.542
 70
    32
  0
VERTEX
  8
T21SSILL
 62
7
 10
-1213.664
 20
-981.019
 30
3085.290
 70
    32
  0
VERTEX
  8
T21SSILL
 62
7
 10
-1213.618
 20
-982.976
 30
3085.286
 70
    32
  0
VERTEX
  8
T21SSILL
 62
7
 10
-1215.840
 20
-986.321
 30
3085.207
 70
    32
  0
VERTEX
  8
T21SSILL
 62
7
 10
-1256.724
 20
-1040.229
 30
3083.738
 70
    32
  0
VERTEX
  8
T21SSILL
 62
7
 10
-1264.074
 20
-1045.111
 30
3083.511
 70
    32
  0
VERTEX
  8
T21SSILL
 62
7
 10
-1166.218
 20
-1198.967
 30
3084.861
 70
    32
  0
VERTEX
  8
T21SSILL
 62
7
 10
-1179.389
 20
-1228.871
 30
3084.291
 70
    32
  0
VERTEX
  8
T21SSILL
 62
7
 10
-1170.166
 20
-1239.137
 30
3084.451
 70
    32
  0
VERTEX
  8
T21SSILL
 62
7
 10
-1160.177
 20
-1237.426
 30
3084.722
 70
    32
  0
VERTEX
  8
T21SSILL
 62
7
 10
-1151.337
 20
-1238.578
 30
3084.942
 70
    32
  0
VERTEX
  8
T21SSILL
 62
7
 10
-1144.019
 20
-1242.101
 30
3084.954
 70
    32
  0
VERTEX
  8
T21SSILL
 62
7
 10
-1137.913
 20
-1243.003
 30
3084.960
 70
    32
  0
VERTEX
  8
T21SSILL
 62
7
 10
-1085.867
 20
-1324.910
 30
3084.891
 70
    32
  0
VERTEX
  8
T21SSILL
 62
7
 10
-1021.588
 20
-1422.656
 30
3084.811
 70
    32
  0
VERTEX
  8
T21SSILL
 62
7
 10
-855.488
 20
-1694.791
 30
3084.574
 70
    32
  0
VERTEX
  8
T21SSILL
 62
7
 10
-852.126
 20
-1703.748
 30
3084.563
 70
    32
  0
VERTEX
  8
T21SSILL
 62
7
 10
-848.252
 20
-1709.440
 30
3084.559
 70
    32
  0
VERTEX
  8
T21SSILL
 62
7
 10
-859.496
 20
-1717.082
 30
3084.533
 70
    32
  0
VERTEX
  8
T21SSILL
 62
7
 10
-864.631
 20
-1709.580
 30
3084.539
 70
    32
  0
VERTEX
  8
T21SSILL
 62
7
 10
-885.453
 20
-1723.268
 30
3084.492
 70
    32
  0
VERTEX
  8
T21SSILL
 62
7
 10
-879.220
 20
-1731.486
 30
3084.486
 70
    32
  0
VERTEX
  8
T21SSILL
 62
7
 10
-894.253
 20
-1742.886
 30
3084.450
 70
    32
  0
VERTEX
  8
T21SSILL
 62
7
 10
-896.963
 20
-1743.835
 30
3084.445
 70
    32
  0
VERTEX
  8
T21SSILL
 62
7
 10
-908.513
 20
-1743.632
 30
3084.432
 70
    32
  0
VERTEX
  8
T21SSILL
 62
7
 10
-915.793
 20
-1740.744
 30
3084.428
 70
    32
  0
VERTEX
  8
T21SSILL
 62
7
 10
-921.760
 20
-1736.086
 30
3084.428
 70
    32
  0
VERTEX
  8
T21SSILL
 62
7
 10
-926.576
 20
-1729.006
 30
3084.434
 70
    32
  0
VERTEX
  8
T21SSILL
 62
7
 10
-992.821
 20
-1566.806
 30
3084.614
 70
    32
  0
VERTEX
  8
T21SSILL
 62
7
 10
-1003.660
 20
-1571.043
 30
3084.595
 70
    32
  0
VERTEX
  8
T21SSILL
 62
7
 10
-986.877
 20
-1610.097
 30
3084.552
 70
    32
  0
VERTEX
  8
T21SSILL
 62
7
 10
-1011.135
 20
-1663.899
 30
3084.437
 70
    32
  0
VERTEX
  8
T21SSILL
 62
7
 10
-1087.590
 20
-1557.683
 30
3084.145
 70
    32
  0
VERTEX
  8
T21SSILL
 62
7
 10
-1095.079
 20
-1561.814
 30
3083.920
 70
    32
  0
VERTEX
  8
T21SSILL
 62
7
 10
-1080.592
 20
-1580.480
 30
3084.151
 70
    32
  0
VERTEX
  8
T21SSILL
 62
7
 10
-1089.984
 20
-1578.308
 30
3083.925
 70
    32
  0
VERTEX
  8
T21SSILL
 62
7
 10
-1093.469
 20
-1579.402
 30
3083.826
 70
    32
  0
VERTEX
  8
T21SSILL
 62
7
 10
-1106.053
 20
-1590.384
 30
3083.417
 70
    32
  0
VERTEX
  8
T21SSILL
 62
7
 10
-1116.107
 20
-1606.306
 30
3083.036
 70
    32
  0
VERTEX
  8
T21SSILL
 62
7
 10
-1119.737
 20
-1619.903
 30
3082.838
 70
    32
  0
VERTEX
  8
T21SSILL
 62
7
 10
-1120.175
 20
-1627.205
 30
3082.770
 70
    32
  0
VERTEX
  8
T21SSILL
 62
7
 10
-1117.489
 20
-1641.543
 30
3082.730
 70
    32
  0
VERTEX
  8
T21SSILL
 62
7
 10
-1111.378
 20
-1656.604
 30
3082.772
 70
    32
  0
VERTEX
  8
T21SSILL
 62
7
 10
-1109.569
 20
-1655.342
 30
3082.829
 70
    32
  0
VERTEX
  8
T21SSILL
 62
7
 10
-1022.058
 20
-1778.179
 30
3084.149
 70
    32
  0
VERTEX
  8
T21SSILL
 62
7
 10
-1024.161
 20
-1780.659
 30
3084.076
 70
    32
  0
VERTEX
  8
T21SSILL
 62
7
 10
-992.667
 20
-1804.242
 30
3084.234
 70
    32
  0
VERTEX
  8
T21SSILL
 62
7
 10
-1024.072
 20
-1827.173
 30
3083.722
 70
    32
  0
VERTEX
  8
T21SSILL
 62
7
 10
-1020.001
 20
-1833.269
 30
3083.780
 70
    32
  0
VERTEX
  8
T21SSILL
 62
7
 10
-1003.317
 20
-1820.838
 30
3084.194
 70
    32
  0
VERTEX
  8
T21SSILL
 62
7
 10
-1005.612
 20
-1846.699
 30
3084.049
 70
    32
  0
VERTEX
  8
T21SSILL
 62
7
 10
-1000.497
 20
-1847.025
 30
3084.156
 70
    32
  0
VERTEX
  8
T21SSILL
 62
7
 10
-954.383
 20
-1990.412
 30
3083.981
 70
    32
  0
VERTEX
  8
T21SSILL
 62
7
 10
-945.569
 20
-1986.715
 30
3083.997
 70
    32
  0
VERTEX
  8
T21SSILL
 62
7
 10
-949.469
 20
-1976.174
 30
3084.010
 70
    32
  0
VERTEX
  8
T21SSILL
 62
7
 10
-912.116
 20
-1990.998
 30
3084.031
 70
    32
  0
VERTEX
  8
T21SSILL
 62
7
 10
-907.623
 20
-2003.634
 30
3084.016
 70
    32
  0
VERTEX
  8
T21SSILL
 62
7
 10
-910.757
 20
-2004.462
 30
3084.011
 70
    32
  0
VERTEX
  8
T21SSILL
 62
7
 10
-908.227
 20
-2012.612
 30
3084.001
 70
    32
  0
VERTEX
  8
T21SSILL
 62
7
 10
-905.497
 20
-2011.980
 30
3084.005
 70
    32
  0
VERTEX
  8
T21SSILL
 62
7
 10
-902.651
 20
-2020.111
 30
3083.995
 70
    32
  0
VERTEX
  8
T21SSILL
 62
7
 10
-901.582
 20
-2018.748
 30
3083.999
 70
    32
  0
VERTEX
  8
T21SSILL
 62
7
 10
-889.823
 20
-2054.973
 30
3083.955
 70
    32
  0
VERTEX
  8
T21SSILL
 62
7
 10
-891.144
 20
-2065.048
 30
3083.931
 70
    32
  0
VERTEX
  8
T21SSILL
 62
7
 10
-885.856
 20
-2071.438
 30
3083.906
 70
    32
  0
VERTEX
  8
T21SSILL
 62
7
 10
-883.699
 20
-2075.887
 30
3083.892
 70
    32
  0
VERTEX
  8
T21SSILL
 62
7
 10
-882.971
 20
-2083.413
 30
3083.871
 70
    32
  0
VERTEX
  8
T21SSILL
 62
7
 10
-866.245
 20
-2111.888
 30
3083.772
 70
    32
  0
VERTEX
  8
T21SSILL
 62
7
 10
-871.141
 20
-2119.584
 30
3083.760
 70
    32
  0
VERTEX
  8
T21SSILL
 62
7
 10
-831.637
 20
-2180.575
 30
3083.829
 70
    32
  0
VERTEX
  8
T21SSILL
 62
7
 10
-821.917
 20
-2183.643
 30
3083.837
 70
    32
  0
VERTEX
  8
T21SSILL
 62
7
 10
-814.254
 20
-2188.970
 30
3083.847
 70
    32
  0
VERTEX
  8
T21SSILL
 62
7
 10
-806.259
 20
-2191.967
 30
3083.854
 70
    32
  0
VERTEX
  8
T21SSILL
 62
7
 10
-789.269
 20
-2195.962
 30
3083.868
 70
    32
  0
VERTEX
  8
T21SSILL
 62
7
 10
-777.591
 20
-2194.901
 30
3083.874
 70
    32
  0
VERTEX
  8
T21SSILL
 62
7
 10
-732.567
 20
-2161.886
 30
3083.868
 70
    32
  0
VERTEX
  8
T21SSILL
 62
7
 10
-719.524
 20
-2175.982
 30
3083.889
 70
    32
  0
VERTEX
  8
T21SSILL
 62
7
 10
-705.577
 20
-2187.757
 30
3083.909
 70
    32
  0
VERTEX
  8
T21SSILL
 62
7
 10
-702.957
 20
-2188.766
 30
3083.911
 70
    32
  0
VERTEX
  8
T21SSILL
 62
7
 10
-682.727
 20
-2186.300
 30
3083.921
 70
    32
  0
VERTEX
  8
T21SSILL
 62
7
 10
-679.722
 20
-2188.120
 30
3083.924
 70
    32
  0
VERTEX
  8
T21SSILL
 62
7
 10
-675.791
 20
-2193.093
 30
3083.931
 70
    32
  0
VERTEX
  8
T21SSILL
 62
7
 10
-667.280
 20
-2210.681
 30
3083.953
 70
    32
  0
VERTEX
  8
T21SSILL
 62
7
 10
-655.922
 20
-2229.877
 30
3083.979
 70
    32
  0
VERTEX
  8
T21SSILL
 62
7
 10
-629.389
 20
-2262.348
 30
3084.026
 70
    32
  0
VERTEX
  8
T21SSILL
 62
7
 10
-624.841
 20
-2266.531
 30
3084.032
 70
    32
  0
VERTEX
  8
T21SSILL
 62
7
 10
-622.495
 20
-2264.671
 30
3084.032
 70
    32
  0
VERTEX
  8
T21SSILL
 62
7
 10
-611.521
 20
-2261.424
 30
3084.035
 70
    32
  0
VERTEX
  8
T21SSILL
 62
7
 10
-603.191
 20
-2252.573
 30
3084.031
 70
    32
  0
VERTEX
  8
T21SSILL
 62
7
 10
-605.855
 20
-2233.698
 30
3084.012
 70
    32
  0
VERTEX
  8
T21SSILL
 62
7
 10
-599.189
 20
-2221.587
 30
3084.004
 70
    32
  0
VERTEX
  8
T21SSILL
 62
7
 10
-600.025
 20
-2217.818
 30
3084.000
 70
    32
  0
VERTEX
  8
T21SSILL
 62
7
 10
-617.126
 20
-2193.573
 30
3083.966
 70
    32
  0
VERTEX
  8
T21SSILL
 62
7
 10
-641.268
 20
-2169.311
 30
3083.928
 70
    32
  0
VERTEX
  8
T21SSILL
 62
7
 10
-646.559
 20
-2166.341
 30
3083.922
 70
    32
  0
VERTEX
  8
T21SSILL
 62
7
 10
-650.017
 20
-2162.443
 30
3083.917
 70
    32
  0
VERTEX
  8
T21SSILL
 62
7
 10
-651.944
 20
-2158.829
 30
3083.912
 70
    32
  0
VERTEX
  8
T21SSILL
 62
7
 10
-652.874
 20
-2150.519
 30
3083.903
 70
    32
  0
VERTEX
  8
T21SSILL
 62
7
 10
-674.642
 20
-2127.231
 30
3083.868
 70
    32
  0
VERTEX
  8
T21SSILL
 62
7
 10
-675.385
 20
-2121.526
 30
3083.862
 70
    32
  0
VERTEX
  8
T21SSILL
 62
7
 10
-506.846
 20
-1999.508
 30
3084.136
 70
    32
  0
VERTEX
  8
T21SSILL
 62
7
 10
-494.625
 20
-1997.197
 30
3084.167
 70
    32
  0
VERTEX
  8
T21SSILL
 62
7
 10
-487.480
 20
-1997.796
 30
3084.184
 70
    32
  0
VERTEX
  8
T21SSILL
 62
7
 10
-483.419
 20
-1999.707
 30
3084.193
 70
    32
  0
VERTEX
  8
T21SSILL
 62
7
 10
-475.587
 20
-2007.260
 30
3084.205
 70
    32
  0
VERTEX
  8
T21SSILL
 62
7
 10
-317.493
 20
-2228.711
 30
3084.401
 70
    32
  0
VERTEX
  8
T21SSILL
 62
7
 10
-323.752
 20
-2232.831
 30
3084.382
 70
    32
  0
VERTEX
  8
T21SSILL
 62
7
 10
-319.474
 20
-2239.742
 30
3084.387
 70
    32
  0
VERTEX
  8
T21SSILL
 62
7
 10
-312.686
 20
-2235.006
 30
3084.407
 70
    32
  0
VERTEX
  8
T21SSILL
 62
7
 10
-303.110
 20
-2248.724
 30
3084.419
 70
    32
  0
VERTEX
  8
T21SSILL
 62
7
 10
-326.031
 20
-2264.509
 30
3084.350
 70
    32
  0
VERTEX
  8
T21SSILL
 62
7
 10
-321.137
 20
-2271.509
 30
3084.356
 70
    32
  0
VERTEX
  8
T21SSILL
 62
7
 10
-298.373
 20
-2255.072
 30
3084.425
 70
    32
  0
VERTEX
  8
T21SSILL
 62
7
 10
-281.989
 20
-2277.766
 30
3084.445
 70
    32
  0
VERTEX
  8
T21SSILL
 62
7
 10
-298.245
 20
-2288.797
 30
3084.396
 70
    32
  0
VERTEX
  8
T21SSILL
 62
7
 10
-293.353
 20
-2296.237
 30
3084.402
 70
    32
  0
VERTEX
  8
T21SSILL
 62
7
 10
-277.078
 20
-2284.643
 30
3084.451
 70
    32
  0
VERTEX
  8
T21SSILL
 62
7
 10
48.989
 20
-2739.609
 30
3084.760
 70
    32
  0
VERTEX
  8
T21SSILL
 62
7
 10
57.170
 20
-2748.219
 30
3084.788
 70
    32
  0
VERTEX
  8
T21SSILL
 62
7
 10
65.322
 20
-2754.435
 30
3084.806
 70
    32
  0
VERTEX
  8
T21SSILL
 62
7
 10
73.268
 20
-2758.169
 30
3084.813
 70
    32
  0
VERTEX
  8
T21SSILL
 62
7
 10
83.488
 20
-2760.975
 30
3084.814
 70
    32
  0
VERTEX
  8
T21SSILL
 62
7
 10
550.570
 20
-2822.939
 30
3084.559
 70
    32
  0
VERTEX
  8
T21SSILL
 62
7
 10
537.990
 20
-2831.274
 30
3084.610
 70
    32
  0
VERTEX
  8
T21SSILL
 62
7
 10
528.510
 20
-2842.732
 30
3084.670
 70
    32
  0
VERTEX
  8
T21SSILL
 62
7
 10
521.550
 20
-2859.222
 30
3084.749
 70
    32
  0
VERTEX
  8
T21SSILL
 62
7
 10
519.327
 20
-2875.356
 30
3084.822
 70
    32
  0
VERTEX
  8
T21SSILL
 62
7
 10
512.655
 20
-2877.857
 30
3084.840
 70
    32
  0
VERTEX
  8
T21SSILL
 62
7
 10
516.267
 20
-2886.989
 30
3084.876
 70
    32
  0
VERTEX
  8
T21SSILL
 62
7
 10
517.486
 20
-2886.116
 30
3084.871
 70
    32
  0
VERTEX
  8
T21SSILL
 62
7
 10
514.970
 20
-2905.173
 30
3084.956
 70
    32
  0
VERTEX
  8
T21SSILL
 62
7
 10
522.757
 20
-2907.407
 30
3084.957
 70
    32
  0
VERTEX
  8
T21SSILL
 62
7
 10
525.683
 20
-2888.165
 30
3084.870
 70
    32
  0
VERTEX
  8
T21SSILL
 62
7
 10
531.735
 20
-2882.527
 30
3084.839
 70
    32
  0
VERTEX
  8
T21SSILL
 62
7
 10
539.977
 20
-2880.095
 30
3084.819
 70
    32
  0
VERTEX
  8
T21SSILL
 62
7
 10
536.353
 20
-2869.886
 30
3084.779
 70
    32
  0
VERTEX
  8
T21SSILL
 62
7
 10
531.393
 20
-2872.354
 30
3084.795
 70
    32
  0
VERTEX
  8
T21SSILL
 62
7
 10
528.467
 20
-2870.543
 30
3084.791
 70
    32
  0
VERTEX
  8
T21SSILL
 62
7
 10
530.060
 20
-2858.225
 30
3084.735
 70
    32
  0
VERTEX
  8
T21SSILL
 62
7
 10
533.892
 20
-2848.426
 30
3084.689
 70
    32
  0
VERTEX
  8
T21SSILL
 62
7
 10
538.630
 20
-2841.559
 30
3084.653
 70
    32
  0
VERTEX
  8
T21SSILL
 62
7
 10
547.909
 20
-2833.609
 30
3084.609
 70
    32
  0
VERTEX
  8
T21SSILL
 62
7
 10
556.927
 20
-2828.776
 30
3084.577
 70
    32
  0
VERTEX
  8
T21SSILL
 62
7
 10
568.133
 20
-2825.274
 30
3084.550
 70
    32
  0
VERTEX
  8
T21SSILL
 62
7
 10
930.358
 20
-2873.334
 30
3084.708
 70
    32
  0
VERTEX
  8
T21SSILL
 62
7
 10
934.098
 20
-2878.251
 30
3084.722
 70
    32
  0
VERTEX
  8
T21SSILL
 62
7
 10
931.353
 20
-2887.597
 30
3084.747
 70
    32
  0
VERTEX
  8
T21SSILL
 62
7
 10
924.063
 20
-2903.021
 30
3084.788
 70
    32
  0
VERTEX
  8
T21SSILL
 62
7
 10
922.774
 20
-2919.246
 30
3084.832
 70
    32
  0
VERTEX
  8
T21SSILL
 62
7
 10
940.292
 20
-3014.888
 30
3085.094
 70
    32
  0
VERTEX
  8
T21SSILL
 62
7
 10
940.790
 20
-3026.034
 30
3085.125
 70
    32
  0
VERTEX
  8
T21SSILL
 62
7
 10
946.890
 20
-3031.973
 30
3085.142
 70
    32
  0
VERTEX
  8
T21SSILL
 62
7
 10
1041.848
 20
-3162.051
 30
3085.508
 70
    32
  0
VERTEX
  8
T21SSILL
 62
7
 10
1256.341
 20
-3461.047
 30
3087.186
 70
    32
  0
VERTEX
  8
T21SSILL
 62
7
 10
1263.112
 20
-3454.852
 30
3087.110
 70
    32
  0
VERTEX
  8
T21SSILL
 62
7
 10
1248.410
 20
-3434.688
 30
3087.065
 70
    32
  0
VERTEX
  8
T21SSILL
 62
7
 10
1259.687
 20
-3421.152
 30
3086.853
 70
    32
  0
VERTEX
  8
T21SSILL
 62
7
 10
1317.385
 20
-3419.530
 30
3086.342
 70
    32
  0
VERTEX
  8
T21SSILL
 62
7
 10
1326.571
 20
-3436.145
 30
3086.404
 70
    32
  0
VERTEX
  8
T21SSILL
 62
7
 10
1328.628
 20
-3437.032
 30
3086.394
 70
    32
  0
VERTEX
  8
T21SSILL
 62
7
 10
1335.925
 20
-3436.482
 30
3086.326
 70
    32
  0
VERTEX
  8
T21SSILL
 62
7
 10
1347.815
 20
-3429.439
 30
3086.287
 70
    32
  0
VERTEX
  8
T21SSILL
 62
7
 10
1359.928
 20
-3414.969
 30
3086.276
 70
    32
  0
VERTEX
  8
T21SSILL
 62
7
 10
1361.243
 20
-3410.974
 30
3086.261
 70
    32
  0
VERTEX
  8
T21SSILL
 62
7
 10
1367.092
 20
-3410.071
 30
3086.269
 70
    32
  0
VERTEX
  8
T21SSILL
 62
7
 10
1373.910
 20
-3402.172
 30
3086.247
 70
    32
  0
VERTEX
  8
T21SSILL
 62
7
 10
1381.239
 20
-3400.623
 30
3086.254
 70
    32
  0
VERTEX
  8
T21SSILL
 62
7
 10
1381.438
 20
-3383.346
 30
3086.177
 70
    32
  0
VERTEX
  8
T21SSILL
 62
7
 10
1376.789
 20
-3374.590
 30
3086.129
 70
    32
  0
VERTEX
  8
T21SSILL
 62
7
 10
1360.125
 20
-3386.090
 30
3086.147
 70
    32
  0
VERTEX
  8
T21SSILL
 62
7
 10
1350.346
 20
-3386.063
 30
3086.128
 70
    32
  0
VERTEX
  8
T21SSILL
 62
7
 10
1345.027
 20
-3387.989
 30
3086.126
 70
    32
  0
VERTEX
  8
T21SSILL
 62
7
 10
1344.380
 20
-3390.522
 30
3086.136
 70
    32
  0
VERTEX
  8
T21SSILL
 62
7
 10
1331.552
 20
-3389.139
 30
3086.127
 70
    32
  0
VERTEX
  8
T21SSILL
 62
7
 10
1328.297
 20
-3387.501
 30
3086.125
 70
    32
  0
VERTEX
  8
T21SSILL
 62
7
 10
1308.966
 20
-3361.583
 30
3086.074
 70
    32
  0
VERTEX
  8
T21SSILL
 62
7
 10
1303.494
 20
-3333.258
 30
3085.990
 70
    32
  0
VERTEX
  8
T21SSILL
 62
7
 10
1313.229
 20
-3333.968
 30
3085.981
 70
    32
  0
VERTEX
  8
T21SSILL
 62
7
 10
1324.327
 20
-3327.177
 30
3085.952
 70
    32
  0
VERTEX
  8
T21SSILL
 62
7
 10
1333.387
 20
-3329.788
 30
3085.952
 70
    32
  0
VERTEX
  8
T21SSILL
 62
7
 10
1340.499
 20
-3324.819
 30
3085.931
 70
    32
  0
VERTEX
  8
T21SSILL
 62
7
 10
1344.246
 20
-3312.111
 30
3085.890
 70
    32
  0
VERTEX
  8
T21SSILL
 62
7
 10
1342.569
 20
-3294.791
 30
3085.841
 70
    32
  0
VERTEX
  8
T21SSILL
 62
7
 10
1334.490
 20
-3288.320
 30
3085.829
 70
    32
  0
VERTEX
  8
T21SSILL
 62
7
 10
1331.880
 20
-3276.561
 30
3085.797
 70
    32
  0
VERTEX
  8
T21SSILL
 62
7
 10
1325.580
 20
-3269.433
 30
3085.779
 70
    32
  0
VERTEX
  8
T21SSILL
 62
7
 10
1318.189
 20
-3253.857
 30
3085.764
 70
    32
  0
VERTEX
  8
T21SSILL
 62
7
 10
1311.569
 20
-3254.630
 30
3085.760
 70
    32
  0
VERTEX
  8
T21SSILL
 62
7
 10
1303.505
 20
-3257.723
 30
3086.130
 70
    32
  0
VERTEX
  8
T21SSILL
 62
7
 10
1301.199
 20
-3258.607
 30
3086.208
 70
    32
  0
VERTEX
  8
T21SSILL
 62
7
 10
1295.462
 20
-3253.194
 30
3087.250
 70
    32
  0
VERTEX
  8
T21SSILL
 62
7
 10
1289.725
 20
-3244.798
 30
3088.624
 70
    32
  0
VERTEX
  8
T21SSILL
 62
7
 10
1289.531
 20
-3244.535
 30
3088.668
 70
    32
  0
VERTEX
  8
T21SSILL
 62
7
 10
1281.340
 20
-3233.419
 30
3090.533
 70
    32
  0
VERTEX
  8
T21SSILL
 62
7
 10
1273.728
 20
-3220.052
 30
3092.604
 70
    32
  0
VERTEX
  8
T21SSILL
 62
7
 10
1266.836
 20
-3210.454
 30
3094.200
 70
    32
  0
VERTEX
  8
T21SSILL
 62
7
 10
1266.667
 20
-3210.219
 30
3094.200
 70
    32
  0
VERTEX
  8
T21SSILL
 62
7
 10
1261.718
 20
-3213.982
 30
3094.200
 70
    32
  0
VERTEX
  8
T21SSILL
 62
7
 10
1257.510
 20
-3217.180
 30
3094.167
 70
    32
  0
VERTEX
  8
T21SSILL
 62
7
 10
1268.212
 20
-3231.983
 30
3091.699
 70
    32
  0
VERTEX
  8
T21SSILL
 62
7
 10
1268.538
 20
-3233.015
 30
3091.560
 70
    32
  0
VERTEX
  8
T21SSILL
 62
7
 10
1269.646
 20
-3236.512
 30
3091.085
 70
    32
  0
VERTEX
  8
T21SSILL
 62
7
 10
1285.201
 20
-3255.735
 30
3087.754
 70
    32
  0
VERTEX
  8
T21SSILL
 62
7
 10
1288.622
 20
-3258.828
 30
3087.148
 70
    32
  0
VERTEX
  8
T21SSILL
 62
7
 10
1293.173
 20
-3264.844
 30
3086.130
 70
    32
  0
VERTEX
  8
T21SSILL
 62
7
 10
1294.138
 20
-3266.119
 30
3085.808
 70
    32
  0
VERTEX
  8
T21SSILL
 62
7
 10
1291.630
 20
-3270.882
 30
3085.815
 70
    32
  0
VERTEX
  8
T21SSILL
 62
7
 10
1291.851
 20
-3277.878
 30
3085.835
 70
    32
  0
VERTEX
  8
T21SSILL
 62
7
 10
1293.435
 20
-3282.579
 30
3085.848
 70
    32
  0
VERTEX
  8
T21SSILL
 62
7
 10
1302.065
 20
-3296.348
 30
3085.881
 70
    32
  0
VERTEX
  8
T21SSILL
 62
7
 10
1308.442
 20
-3296.469
 30
3085.875
 70
    32
  0
VERTEX
  8
T21SSILL
 62
7
 10
1309.498
 20
-3301.337
 30
3085.889
 70
    32
  0
VERTEX
  8
T21SSILL
 62
7
 10
1309.331
 20
-3307.206
 30
3085.906
 70
    32
  0
VERTEX
  8
T21SSILL
 62
7
 10
1304.191
 20
-3312.798
 30
3085.927
 70
    32
  0
VERTEX
  8
T21SSILL
 62
7
 10
1294.912
 20
-3326.395
 30
3085.992
 70
    32
  0
VERTEX
  8
T21SSILL
 62
7
 10
1287.885
 20
-3332.819
 30
3086.037
 70
    32
  0
VERTEX
  8
T21SSILL
 62
7
 10
1288.789
 20
-3345.064
 30
3086.077
 70
    32
  0
VERTEX
  8
T21SSILL
 62
7
 10
1296.247
 20
-3365.109
 30
3086.125
 70
    32
  0
VERTEX
  8
T21SSILL
 62
7
 10
1299.290
 20
-3382.518
 30
3086.178
 70
    32
  0
VERTEX
  8
T21SSILL
 62
7
 10
1311.159
 20
-3401.623
 30
3086.209
 70
    32
  0
VERTEX
  8
T21SSILL
 62
7
 10
1310.818
 20
-3407.402
 30
3086.265
 70
    32
  0
VERTEX
  8
T21SSILL
 62
7
 10
1309.578
 20
-3409.716
 30
3086.306
 70
    32
  0
VERTEX
  8
T21SSILL
 62
7
 10
1240.651
 20
-3410.959
 30
3086.898
 70
    32
  0
VERTEX
  8
T21SSILL
 62
7
 10
1228.755
 20
-3406.837
 30
3086.942
 70
    32
  0
VERTEX
  8
T21SSILL
 62
7
 10
1176.404
 20
-3334.294
 30
3086.402
 70
    32
  0
VERTEX
  8
T21SSILL
 62
7
 10
1175.585
 20
-3328.710
 30
3086.365
 70
    32
  0
VERTEX
  8
T21SSILL
 62
7
 10
1170.565
 20
-3326.732
 30
3086.373
 70
    32
  0
VERTEX
  8
T21SSILL
 62
7
 10
1092.583
 20
-3218.442
 30
3085.719
 70
    32
  0
VERTEX
  8
T21SSILL
 62
7
 10
1095.557
 20
-3216.274
 30
3085.722
 70
    32
  0
VERTEX
  8
T21SSILL
 62
7
 10
1090.681
 20
-3211.371
 30
3085.685
 70
    32
  0
VERTEX
  8
T21SSILL
 62
7
 10
1086.840
 20
-3210.268
 30
3085.667
 70
    32
  0
VERTEX
  8
T21SSILL
 62
7
 10
957.133
 20
-3030.820
 30
3085.140
 70
    32
  0
VERTEX
  8
T21SSILL
 62
7
 10
949.532
 20
-3015.213
 30
3085.096
 70
    32
  0
VERTEX
  8
T21SSILL
 62
7
 10
943.572
 20
-2985.083
 30
3085.014
 70
    32
  0
VERTEX
  8
T21SSILL
 62
7
 10
953.568
 20
-2983.130
 30
3085.010
 70
    32
  0
VERTEX
  8
T21SSILL
 62
7
 10
951.996
 20
-2974.272
 30
3084.985
 70
    32
  0
VERTEX
  8
T21SSILL
 62
7
 10
953.955
 20
-2974.280
 30
3084.986
 70
    32
  0
VERTEX
  8
T21SSILL
 62
7
 10
951.779
 20
-2965.638
 30
3084.962
 70
    32
  0
VERTEX
  8
T21SSILL
 62
7
 10
946.517
 20
-2957.688
 30
3084.939
 70
    32
  0
VERTEX
  8
T21SSILL
 62
7
 10
937.761
 20
-2958.644
 30
3084.941
 70
    32
  0
VERTEX
  8
T21SSILL
 62
7
 10
929.200
 20
-2916.703
 30
3084.826
 70
    32
  0
VERTEX
  8
T21SSILL
 62
7
 10
931.665
 20
-2904.845
 30
3084.794
 70
    32
  0
VERTEX
  8
T21SSILL
 62
7
 10
937.544
 20
-2892.603
 30
3084.761
 70
    32
  0
VERTEX
  8
T21SSILL
 62
7
 10
948.440
 20
-2882.517
 30
3084.735
 70
    32
  0
VERTEX
  8
T21SSILL
 62
7
 10
962.338
 20
-2877.226
 30
3084.723
 70
    32
  0
VERTEX
  8
T21SSILL
 62
7
 10
1031.694
 20
-2887.650
 30
3084.760
 70
    32
  0
VERTEX
  8
T21SSILL
 62
7
 10
1051.246
 20
-2914.058
 30
3084.835
 70
    32
  0
VERTEX
  8
T21SSILL
 62
7
 10
1057.281
 20
-2909.166
 30
3084.822
 70
    32
  0
VERTEX
  8
T21SSILL
 62
7
 10
1056.552
 20
-2907.395
 30
3084.817
 70
    32
  0
VERTEX
  8
T21SSILL
 62
7
 10
1065.270
 20
-2901.691
 30
3084.803
 70
    32
  0
VERTEX
  8
T21SSILL
 62
7
 10
1061.417
 20
-2896.313
 30
3084.788
 70
    32
  0
VERTEX
  8
T21SSILL
 62
7
 10
1052.833
 20
-2903.114
 30
3084.805
 70
    32
  0
VERTEX
  8
T21SSILL
 62
7
 10
1041.767
 20
-2888.967
 30
3084.765
 70
    32
  0
VERTEX
  8
T21SSILL
 62
7
 10
1256.398
 20
-2917.026
 30
3084.807
 70
    32
  0
VERTEX
  8
T21SSILL
 62
7
 10
1251.536
 20
-2950.522
 30
3084.909
 70
    32
  0
VERTEX
  8
T21SSILL
 62
7
 10
1258.960
 20
-2950.400
 30
3084.903
 70
    32
  0
VERTEX
  8
T21SSILL
 62
7
 10
1263.308
 20
-2917.930
 30
3084.804
 70
    32
  0
VERTEX
  8
T21SSILL
 62
7
 10
1506.588
 20
-2949.734
 30
3084.687
 70
    32
  0
VERTEX
  8
T21SSILL
 62
7
 10
1505.675
 20
-2967.201
 30
3084.739
 70
    32
  0
VERTEX
  8
T21SSILL
 62
7
 10
1511.498
 20
-2966.879
 30
3084.733
 70
    32
  0
VERTEX
  8
T21SSILL
 62
7
 10
1513.628
 20
-2950.439
 30
3084.683
 70
    32
  0
VERTEX
  8
T21SSILL
 62
7
 10
1527.898
 20
-2952.988
 30
3084.678
 70
    32
  0
VERTEX
  8
T21SSILL
 62
7
 10
1538.125
 20
-2948.467
 30
3084.656
 70
    32
  0
VERTEX
  8
T21SSILL
 62
7
 10
1537.485
 20
-2960.780
 30
3084.692
 70
    32
  0
VERTEX
  8
T21SSILL
 62
7
 10
1540.670
 20
-2969.617
 30
3084.716
 70
    32
  0
VERTEX
  8
T21SSILL
 62
7
 10
1572.186
 20
-3013.065
 30
3084.898
 70
    32
  0
VERTEX
  8
T21SSILL
 62
7
 10
1578.533
 20
-3008.540
 30
3084.890
 70
    32
  0
VERTEX
  8
T21SSILL
 62
7
 10
1546.352
 20
-2965.756
 30
3084.699
 70
    32
  0
VERTEX
  8
T21SSILL
 62
7
 10
1544.815
 20
-2962.346
 30
3084.691
 70
    32
  0
VERTEX
  8
T21SSILL
 62
7
 10
1543.284
 20
-2952.254
 30
3084.662
 70
    32
  0
VERTEX
  8
T21SSILL
 62
7
 10
1544.891
 20
-2947.047
 30
3084.646
 70
    32
  0
VERTEX
  8
T21SSILL
 62
7
 10
1548.172
 20
-2942.171
 30
3084.629
 70
    32
  0
VERTEX
  8
T21SSILL
 62
7
 10
1552.515
 20
-2937.898
 30
3084.612
 70
    32
  0
VERTEX
  8
T21SSILL
 62
7
 10
1613.975
 20
-2893.507
 30
3084.453
 70
    32
  0
VERTEX
  8
T21SSILL
 62
7
 10
1719.572
 20
-2817.238
 30
3087.012
 70
    32
  0
VERTEX
  8
T21SSILL
 62
7
 10
1719.941
 20
-2825.761
 30
3086.838
 70
    32
  0
VERTEX
  8
T21SSILL
 62
7
 10
1722.700
 20
-2835.662
 30
3086.656
 70
    32
  0
VERTEX
  8
T21SSILL
 62
7
 10
1783.777
 20
-2919.844
 30
3085.455
 70
    32
  0
VERTEX
  8
T21SSILL
 62
7
 10
1789.279
 20
-2914.930
 30
3085.608
 70
    32
  0
VERTEX
  8
T21SSILL
 62
7
 10
1729.143
 20
-2830.484
 30
3086.823
 70
    32
  0
VERTEX
  8
T21SSILL
 62
7
 10
1726.724
 20
-2819.699
 30
3087.026
 70
    32
  0
VERTEX
  8
T21SSILL
 62
7
 10
1733.529
 20
-2808.274
 30
3087.327
 70
    32
  0
VERTEX
  8
T21SSILL
 62
7
 10
1778.848
 20
-2775.801
 30
3088.243
 70
    32
  0
VERTEX
  8
T21SSILL
 62
7
 10
1794.562
 20
-2773.937
 30
3088.263
 70
    32
  0
VERTEX
  8
T21SSILL
 62
7
 10
1799.711
 20
-2770.797
 30
3088.267
 70
    32
  0
VERTEX
  8
T21SSILL
 62
7
 10
1802.818
 20
-2773.220
 30
3088.274
 70
    32
  0
VERTEX
  8
T21SSILL
 62
7
 10
1814.479
 20
-2770.615
 30
3088.287
 70
    32
  0
VERTEX
  8
T21SSILL
 62
7
 10
1814.877
 20
-2767.181
 30
3088.284
 70
    32
  0
VERTEX
  8
T21SSILL
 62
7
 10
2049.793
 20
-2716.725
 30
3088.556
 70
    32
  0
VERTEX
  8
T21SSILL
 62
7
 10
2065.373
 20
-2718.204
 30
3088.580
 70
    32
  0
VERTEX
  8
T21SSILL
 62
7
 10
2078.858
 20
-2720.939
 30
3088.602
 70
    32
  0
VERTEX
  8
T21SSILL
 62
7
 10
2087.103
 20
-2726.464
 30
3088.621
 70
    32
  0
VERTEX
  8
T21SSILL
 62
7
 10
2277.952
 20
-2917.363
 30
3089.114
 70
    32
  0
VERTEX
  8
T21SSILL
 62
7
 10
2281.414
 20
-2927.167
 30
3089.130
 70
    32
  0
VERTEX
  8
T21SSILL
 62
7
 10
2122.886
 20
-3040.777
 30
3086.761
 70
    32
  0
VERTEX
  8
T21SSILL
 62
7
 10
1990.344
 20
-2851.271
 30
3088.630
 70
    32
  0
VERTEX
  8
T21SSILL
 62
7
 10
1983.988
 20
-2856.272
 30
3088.615
 70
    32
  0
VERTEX
  8
T21SSILL
 62
7
 10
2117.235
 20
-3045.946
 30
3086.746
 70
    32
  0
VERTEX
  8
T21SSILL
 62
7
 10
2047.777
 20
-3095.860
 30
3086.546
 70
    32
  0
VERTEX
  8
T21SSILL
 62
7
 10
2038.361
 20
-3080.854
 30
3086.483
 70
    32
  0
VERTEX
  8
T21SSILL
 62
7
 10
2031.468
 20
-3085.706
 30
3086.463
 70
    32
  0
VERTEX
  8
T21SSILL
 62
7
 10
2042.114
 20
-3100.062
 30
3086.530
 70
    32
  0
VERTEX
  8
T21SSILL
 62
7
 10
1955.831
 20
-3161.613
 30
3086.321
 70
    32
  0
VERTEX
  8
T21SSILL
 62
7
 10
1953.899
 20
-3167.021
 30
3086.342
 70
    32
  0
VERTEX
  8
T21SSILL
 62
7
 10
1877.434
 20
-3221.371
 30
3086.434
 70
    32
  0
VERTEX
  8
T21SSILL
 62
7
 10
1817.490
 20
-3135.914
 30
3085.933
 70
    32
  0
VERTEX
  8
T21SSILL
 62
7
 10
1863.851
 20
-3103.135
 30
3085.878
 70
    32
  0
VERTEX
  8
T21SSILL
 62
7
 10
1859.744
 20
-3098.086
 30
3085.847
 70
    32
  0
VERTEX
  8
T21SSILL
 62
7
 10
1813.705
 20
-3130.651
 30
3085.902
 70
    32
  0
VERTEX
  8
T21SSILL
 62
7
 10
1809.699
 20
-3125.078
 30
3085.869
 70
    32
  0
VERTEX
  8
T21SSILL
 62
7
 10
1803.066
 20
-3129.116
 30
3085.874
 70
    32
  0
VERTEX
  8
T21SSILL
 62
7
 10
1807.373
 20
-3135.130
 30
3085.909
 70
    32
  0
VERTEX
  8
T21SSILL
 62
7
 10
1798.644
 20
-3141.304
 30
3085.919
 70
    32
  0
VERTEX
  8
T21SSILL
 62
7
 10
1801.966
 20
-3146.890
 30
3085.951
 70
    32
  0
VERTEX
  8
T21SSILL
 62
7
 10
1811.146
 20
-3140.399
 30
3085.940
 70
    32
  0
VERTEX
  8
T21SSILL
 62
7
 10
1872.409
 20
-3224.514
 30
3086.438
 70
    32
  0
VERTEX
  8
T21SSILL
 62
7
 10
1809.346
 20
-3270.043
 30
3086.517
 70
    32
  0
VERTEX
  8
T21SSILL
 62
7
 10
1802.529
 20
-3260.605
 30
3086.461
 70
    32
  0
VERTEX
  8
T21SSILL
 62
7
 10
1798.828
 20
-3262.699
 30
3086.463
 70
    32
  0
VERTEX
  8
T21SSILL
 62
7
 10
1793.317
 20
-3256.169
 30
3086.423
 70
    32
  0
VERTEX
  8
T21SSILL
 62
7
 10
1795.043
 20
-3243.604
 30
3086.370
 70
    32
  0
VERTEX
  8
T21SSILL
 62
7
 10
1763.529
 20
-3212.342
 30
3086.168
 70
    32
  0
VERTEX
  8
T21SSILL
 62
7
 10
1694.839
 20
-3139.501
 30
3085.706
 70
    32
  0
VERTEX
  8
T21SSILL
 62
7
 10
1690.116
 20
-3144.574
 30
3085.719
 70
    32
  0
VERTEX
  8
T21SSILL
 62
7
 10
1758.053
 20
-3218.208
 30
3086.183
 70
    32
  0
VERTEX
  8
T21SSILL
 62
7
 10
1776.004
 20
-3235.983
 30
3086.298
 70
    32
  0
VERTEX
  8
T21SSILL
 62
7
 10
1773.319
 20
-3241.583
 30
3086.318
 70
    32
  0
VERTEX
  8
T21SSILL
 62
7
 10
1784.192
 20
-3246.723
 30
3086.363
 70
    32
  0
VERTEX
  8
T21SSILL
 62
7
 10
1785.301
 20
-3259.826
 30
3086.424
 70
    32
  0
VERTEX
  8
T21SSILL
 62
7
 10
1790.390
 20
-3262.047
 30
3086.444
 70
    32
  0
VERTEX
  8
T21SSILL
 62
7
 10
1792.653
 20
-3267.332
 30
3086.472
 70
    32
  0
VERTEX
  8
T21SSILL
 62
7
 10
1791.505
 20
-3268.470
 30
3086.474
 70
    32
  0
VERTEX
  8
T21SSILL
 62
7
 10
1798.939
 20
-3277.382
 30
3086.529
 70
    32
  0
VERTEX
  8
T21SSILL
 62
7
 10
1730.059
 20
-3326.227
 30
3086.611
 70
    32
  0
VERTEX
  8
T21SSILL
 62
7
 10
1733.985
 20
-3333.102
 30
3086.650
 70
    32
  0
VERTEX
  8
T21SSILL
 62
7
 10
1788.315
 20
-3294.216
 30
3086.583
 70
    32
  0
VERTEX
  8
T21SSILL
 62
7
 10
1795.304
 20
-3304.358
 30
3086.643
 70
    32
  0
VERTEX
  8
T21SSILL
 62
7
 10
1810.620
 20
-3320.163
 30
3086.744
 70
    32
  0
VERTEX
  8
T21SSILL
 62
7
 10
1814.025
 20
-3325.629
 30
3086.775
 70
    32
  0
VERTEX
  8
T21SSILL
 62
7
 10
1816.674
 20
-3343.049
 30
3086.858
 70
    32
  0
VERTEX
  8
T21SSILL
 62
7
 10
1818.069
 20
-3345.692
 30
3086.873
 70
    32
  0
VERTEX
  8
T21SSILL
 62
7
 10
1824.649
 20
-3348.886
 30
3086.900
 70
    32
  0
VERTEX
  8
T21SSILL
 62
7
 10
1830.415
 20
-3357.176
 30
3086.948
 70
    32
  0
VERTEX
  8
T21SSILL
 62
7
 10
1833.051
 20
-3357.539
 30
3086.955
 70
    32
  0
VERTEX
  8
T21SSILL
 62
7
 10
1835.168
 20
-3355.966
 30
3086.952
 70
    32
  0
VERTEX
  8
T21SSILL
 62
7
 10
1834.790
 20
-3342.073
 30
3086.889
 70
    32
  0
VERTEX
  8
T21SSILL
 62
7
 10
1836.834
 20
-3337.071
 30
3086.871
 70
    32
  0
VERTEX
  8
T21SSILL
 62
7
 10
1840.095
 20
-3335.151
 30
3086.869
 70
    32
  0
VERTEX
  8
T21SSILL
 62
7
 10
1847.132
 20
-3334.478
 30
3086.880
 70
    32
  0
VERTEX
  8
T21SSILL
 62
7
 10
1856.671
 20
-3344.543
 30
3086.944
 70
    32
  0
VERTEX
  8
T21SSILL
 62
7
 10
1858.431
 20
-3344.023
 30
3086.945
 70
    32
  0
VERTEX
  8
T21SSILL
 62
7
 10
1860.902
 20
-3342.012
 30
3086.941
 70
    32
  0
VERTEX
  8
T21SSILL
 62
7
 10
1861.173
 20
-3340.343
 30
3086.934
 70
    32
  0
VERTEX
  8
T21SSILL
 62
7
 10
1859.616
 20
-3334.533
 30
3086.905
 70
    32
  0
VERTEX
  8
T21SSILL
 62
7
 10
1847.288
 20
-3318.829
 30
3086.810
 70
    32
  0
VERTEX
  8
T21SSILL
 62
7
 10
1846.599
 20
-3315.573
 30
3086.794
 70
    32
  0
VERTEX
  8
T21SSILL
 62
7
 10
1849.714
 20
-3307.059
 30
3086.762
 70
    32
  0
VERTEX
  8
T21SSILL
 62
7
 10
1846.426
 20
-3294.999
 30
3086.702
 70
    32
  0
VERTEX
  8
T21SSILL
 62
7
 10
1841.191
 20
-3285.920
 30
3086.651
 70
    32
  0
VERTEX
  8
T21SSILL
 62
7
 10
1837.253
 20
-3281.771
 30
3086.625
 70
    32
  0
VERTEX
  8
T21SSILL
 62
7
 10
1831.905
 20
-3278.143
 30
3086.598
 70
    32
  0
VERTEX
  8
T21SSILL
 62
7
 10
1829.616
 20
-3278.924
 30
3086.597
 70
    32
  0
VERTEX
  8
T21SSILL
 62
7
 10
1822.622
 20
-3269.925
 30
3086.543
 70
    32
  0
VERTEX
  8
T21SSILL
 62
7
 10
1875.985
 20
-3230.860
 30
3086.473
 70
    32
  0
VERTEX
  8
T21SSILL
 62
7
 10
1958.278
 20
-3370.838
 30
3087.263
 70
    32
  0
VERTEX
  8
T21SSILL
 62
7
 10
2009.958
 20
-3374.846
 30
3087.383
 70
    32
  0
VERTEX
  8
T21SSILL
 62
7
 10
1994.439
 20
-3385.064
 30
3087.398
 70
    32
  0
VERTEX
  8
T21SSILL
 62
7
 10
1990.389
 20
-3386.365
 30
3087.396
 70
    32
  0
VERTEX
  8
T21SSILL
 62
7
 10
1981.518
 20
-3384.392
 30
3087.369
 70
    32
  0
VERTEX
  8
T21SSILL
 62
7
 10
1974.045
 20
-3384.183
 30
3087.353
 70
    32
  0
VERTEX
  8
T21SSILL
 62
7
 10
1964.265
 20
-3388.976
 30
3087.356
 70
    32
  0
VERTEX
  8
T21SSILL
 62
7
 10
1963.903
 20
-3391.260
 30
3087.365
 70
    32
  0
VERTEX
  8
T21SSILL
 62
7
 10
1972.028
 20
-3402.989
 30
3087.434
 70
    32
  0
VERTEX
  8
T21SSILL
 62
7
 10
1884.455
 20
-3464.236
 30
3087.534
 70
    32
  0
VERTEX
  8
T21SSILL
 62
7
 10
1890.934
 20
-3469.929
 30
3087.573
 70
    32
  0
VERTEX
  8
T21SSILL
 62
7
 10
1981.508
 20
-3406.460
 30
3087.468
 70
    32
  0
VERTEX
  8
T21SSILL
 62
7
 10
1988.260
 20
-3410.622
 30
3087.500
 70
    32
  0
VERTEX
  8
T21SSILL
 62
7
 10
1995.899
 20
-3412.853
 30
3087.525
 70
    32
  0
VERTEX
  8
T21SSILL
 62
7
 10
1998.727
 20
-3409.525
 30
3087.516
 70
    32
  0
VERTEX
  8
T21SSILL
 62
7
 10
1998.132
 20
-3404.863
 30
3087.494
 70
    32
  0
VERTEX
  8
T21SSILL
 62
7
 10
1998.758
 20
-3402.579
 30
3087.485
 70
    32
  0
VERTEX
  8
T21SSILL
 62
7
 10
2000.079
 20
-3402.058
 30
3087.485
 70
    32
  0
VERTEX
  8
T21SSILL
 62
7
 10
2003.505
 20
-3402.688
 30
3087.495
 70
    32
  0
VERTEX
  8
T21SSILL
 62
7
 10
2008.923
 20
-3410.273
 30
3087.539
 70
    32
  0
VERTEX
  8
T21SSILL
 62
7
 10
2016.590
 20
-3426.044
 30
3087.625
 70
    32
  0
VERTEX
  8
T21SSILL
 62
7
 10
2018.495
 20
-3432.823
 30
3087.659
 70
    32
  0
VERTEX
  8
T21SSILL
 62
7
 10
2043.657
 20
-3468.892
 30
3087.870
 70
    32
  0
VERTEX
  8
T21SSILL
 62
7
 10
2045.396
 20
-3473.208
 30
3087.893
 70
    32
  0
VERTEX
  8
T21SSILL
 62
7
 10
2045.655
 20
-3474.352
 30
3087.899
 70
    32
  0
VERTEX
  8
T21SSILL
 62
7
 10
1915.032
 20
-3568.556
 30
3088.059
 70
    32
  0
VERTEX
  8
T21SSILL
 62
7
 10
1920.283
 20
-3574.118
 30
3088.083
 70
    32
  0
VERTEX
  8
T21SSILL
 62
7
 10
2109.468
 20
-3438.322
 30
3087.864
 70
    32
  0
VERTEX
  8
T21SSILL
 62
7
 10
2131.949
 20
-3464.269
 30
3088.024
 70
    32
  0
VERTEX
  8
T21SSILL
 62
7
 10
2150.181
 20
-3496.880
 30
3088.206
 70
    32
  0
VERTEX
  8
T21SSILL
 62
7
 10
2156.263
 20
-3493.214
 30
3088.202
 70
    32
  0
VERTEX
  8
T21SSILL
 62
7
 10
2139.878
 20
-3460.611
 30
3088.024
 70
    32
  0
VERTEX
  8
T21SSILL
 62
7
 10
2136.184
 20
-3420.943
 30
3087.839
 70
    32
  0
VERTEX
  8
T21SSILL
 62
7
 10
2136.541
 20
-3419.626
 30
3087.834
 70
    32
  0
VERTEX
  8
T21SSILL
 62
7
 10
2146.326
 20
-3413.691
 30
3087.826
 70
    32
  0
VERTEX
  8
T21SSILL
 62
7
 10
2147.551
 20
-3415.103
 30
3087.835
 70
    32
  0
VERTEX
  8
T21SSILL
 62
7
 10
2146.941
 20
-3453.873
 30
3088.007
 70
    32
  0
VERTEX
  8
T21SSILL
 62
7
 10
2154.940
 20
-3454.172
 30
3088.025
 70
    32
  0
VERTEX
  8
T21SSILL
 62
7
 10
2154.945
 20
-3453.141
 30
3088.020
 70
    32
  0
VERTEX
  8
T21SSILL
 62
7
 10
2177.645
 20
-3469.218
 30
3088.137
 70
    32
  0
VERTEX
  8
T21SSILL
 62
7
 10
2214.230
 20
-3547.012
 30
3088.557
 70
    32
  0
VERTEX
  8
T21SSILL
 62
7
 10
2226.277
 20
-3546.449
 30
3088.579
 70
    32
  0
VERTEX
  8
T21SSILL
 62
7
 10
2231.482
 20
-3542.516
 30
3088.571
 70
    32
  0
VERTEX
  8
T21SSILL
 62
7
 10
2245.328
 20
-3552.687
 30
3088.644
 70
    32
  0
VERTEX
  8
T21SSILL
 62
7
 10
2259.855
 20
-3568.225
 30
3088.743
 70
    32
  0
VERTEX
  8
T21SSILL
 62
7
 10
2257.458
 20
-3573.490
 30
3088.761
 70
    32
  0
VERTEX
  8
T21SSILL
 62
7
 10
2186.810
 20
-3624.349
 30
3088.849
 70
    32
  0
VERTEX
  8
T21SSILL
 62
7
 10
2176.095
 20
-3621.928
 30
3088.817
 70
    32
  0
VERTEX
  8
T21SSILL
 62
7
 10
2170.436
 20
-3629.112
 30
3088.838
 70
    32
  0
VERTEX
  8
T21SSILL
 62
7
 10
2169.086
 20
-3636.316
 30
3088.862
 70
    32
  0
VERTEX
  8
T21SSILL
 62
7
 10
2160.443
 20
-3642.344
 30
3088.850
 70
    32
  0
VERTEX
  8
T21SSILL
 62
7
 10
2166.656
 20
-3649.053
 30
3088.879
 70
    32
  0
VERTEX
  8
T21SSILL
 62
7
 10
2170.341
 20
-3650.740
 30
3088.892
 70
    32
  0
VERTEX
  8
T21SSILL
 62
7
 10
2175.709
 20
-3649.621
 30
3088.904
 70
    32
  0
VERTEX
  8
T21SSILL
 62
7
 10
2176.858
 20
-3648.395
 30
3088.905
 70
    32
  0
VERTEX
  8
T21SSILL
 62
7
 10
2178.305
 20
-3639.258
 30
3088.892
 70
    32
  0
VERTEX
  8
T21SSILL
 62
7
 10
2283.435
 20
-3564.197
 30
3088.771
 70
    32
  0
VERTEX
  8
T21SSILL
 62
7
 10
2294.514
 20
-3584.027
 30
3088.882
 70
    32
  0
VERTEX
  8
T21SSILL
 62
7
 10
2300.114
 20
-3590.118
 30
3088.920
 70
    32
  0
VERTEX
  8
T21SSILL
 62
7
 10
2311.644
 20
-3607.138
 30
3089.019
 70
    32
  0
VERTEX
  8
T21SSILL
 62
7
 10
2319.095
 20
-3612.358
 30
3089.057
 70
    32
  0
VERTEX
  8
T21SSILL
 62
7
 10
2341.853
 20
-3615.271
 30
3089.115
 70
    32
  0
VERTEX
  8
T21SSILL
 62
7
 10
2348.431
 20
-3618.993
 30
3089.145
 70
    32
  0
VERTEX
  8
T21SSILL
 62
7
 10
2356.746
 20
-3627.382
 30
3089.199
 70
    32
  0
VERTEX
  8
T21SSILL
 62
7
 10
2380.149
 20
-3663.619
 30
3089.407
 70
    32
  0
VERTEX
  8
T21SSILL
 62
7
 10
2385.268
 20
-3659.334
 30
3089.398
 70
    32
  0
VERTEX
  8
T21SSILL
 62
7
 10
2361.432
 20
-3621.511
 30
3089.182
 70
    32
  0
VERTEX
  8
T21SSILL
 62
7
 10
2350.047
 20
-3611.263
 30
3089.114
 70
    32
  0
VERTEX
  8
T21SSILL
 62
7
 10
2333.511
 20
-3572.945
 30
3088.909
 70
    32
  0
VERTEX
  8
T21SSILL
 62
7
 10
2326.876
 20
-3562.277
 30
3088.849
 70
    32
  0
VERTEX
  8
T21SSILL
 62
7
 10
2322.062
 20
-3557.333
 30
3088.817
 70
    32
  0
VERTEX
  8
T21SSILL
 62
7
 10
2298.951
 20
-3574.639
 30
3088.849
 70
    32
  0
VERTEX
  8
T21SSILL
 62
7
 10
2294.316
 20
-3568.992
 30
3088.814
 70
    32
  0
VERTEX
  8
T21SSILL
 62
7
 10
2324.663
 20
-3545.739
 30
3088.770
 70
    32
  0
VERTEX
  8
T21SSILL
 62
7
 10
2334.722
 20
-3557.476
 30
3088.843
 70
    32
  0
VERTEX
  8
T21SSILL
 62
7
 10
2339.225
 20
-3553.100
 30
3088.832
 70
    32
  0
VERTEX
  8
T21SSILL
 62
7
 10
2327.531
 20
-3533.267
 30
3088.720
 70
    32
  0
VERTEX
  8
T21SSILL
 62
7
 10
2343.589
 20
-3520.325
 30
3088.694
 70
    32
  0
VERTEX
  8
T21SSILL
 62
7
 10
2352.531
 20
-3526.255
 30
3088.738
 70
    32
  0
VERTEX
  8
T21SSILL
 62
7
 10
2358.922
 20
-3532.350
 30
3088.778
 70
    32
  0
VERTEX
  8
T21SSILL
 62
7
 10
2361.019
 20
-3535.436
 30
3088.796
 70
    32
  0
VERTEX
  8
T21SSILL
 62
7
 10
2365.086
 20
-3550.312
 30
3088.871
 70
    32
  0
VERTEX
  8
T21SSILL
 62
7
 10
2368.250
 20
-3550.502
 30
3088.878
 70
    32
  0
VERTEX
  8
T21SSILL
 62
7
 10
2374.914
 20
-3554.664
 30
3088.909
 70
    32
  0
VERTEX
  8
T21SSILL
 62
7
 10
2397.010
 20
-3588.170
 30
3089.103
 70
    32
  0
VERTEX
  8
T21SSILL
 62
7
 10
2405.697
 20
-3592.077
 30
3089.138
 70
    32
  0
VERTEX
  8
T21SSILL
 62
7
 10
2413.953
 20
-3593.960
 30
3089.163
 70
    32
  0
VERTEX
  8
T21SSILL
 62
7
 10
2420.645
 20
-3591.615
 30
3089.165
 70
    32
  0
VERTEX
  8
T21SSILL
 62
7
 10
2435.021
 20
-3581.480
 30
3089.148
 70
    32
  0
VERTEX
  8
T21SSILL
 62
7
 10
2444.542
 20
-3595.501
 30
3089.230
 70
    32
  0
VERTEX
  8
T21SSILL
 62
7
 10
2456.537
 20
-3586.850
 30
3089.215
 70
    32
  0
VERTEX
  8
T21SSILL
 62
7
 10
2456.153
 20
-3594.321
 30
3089.248
 70
    32
  0
VERTEX
  8
T21SSILL
 62
7
 10
2453.311
 20
-3600.727
 30
3089.271
 70
    32
  0
VERTEX
  8
T21SSILL
 62
7
 10
2453.745
 20
-3602.135
 30
3089.278
 70
    32
  0
VERTEX
  8
T21SSILL
 62
7
 10
2458.035
 20
-3606.199
 30
3089.305
 70
    32
  0
VERTEX
  8
T21SSILL
 62
7
 10
2460.609
 20
-3620.717
 30
3089.375
 70
    32
  0
VERTEX
  8
T21SSILL
 62
7
 10
2477.023
 20
-3646.813
 30
3089.524
 70
    32
  0
VERTEX
  8
T21SSILL
 62
7
 10
2506.836
 20
-3624.964
 30
3089.485
 70
    32
  0
VERTEX
  8
T21SSILL
 62
7
 10
2514.969
 20
-3634.759
 30
3089.545
 70
    32
  0
VERTEX
  8
T21SSILL
 62
7
 10
2515.476
 20
-3639.509
 30
3089.567
 70
    32
  0
VERTEX
  8
T21SSILL
 62
7
 10
2404.434
 20
-3719.467
 30
3089.644
 70
    32
  0
VERTEX
  8
T21SSILL
 62
7
 10
2408.538
 20
-3725.816
 30
3089.666
 70
    32
  0
VERTEX
  8
T21SSILL
 62
7
 10
2499.117
 20
-3660.889
 30
3089.631
 70
    32
  0
VERTEX
  8
T21SSILL
 62
7
 10
2500.305
 20
-3670.566
 30
3089.676
 70
    32
  0
VERTEX
  8
T21SSILL
 62
7
 10
2534.496
 20
-3718.448
 30
3089.958
 70
    32
  0
VERTEX
  8
T21SSILL
 62
7
 10
2540.037
 20
-3714.927
 30
3089.953
 70
    32
  0
VERTEX
  8
T21SSILL
 62
7
 10
2506.910
 20
-3668.045
 30
3089.678
 70
    32
  0
VERTEX
  8
T21SSILL
 62
7
 10
2507.214
 20
-3658.991
 30
3089.638
 70
    32
  0
VERTEX
  8
T21SSILL
 62
7
 10
2512.166
 20
-3652.506
 30
3089.619
 70
    32
  0
VERTEX
  8
T21SSILL
 62
7
 10
2520.900
 20
-3645.599
 30
3089.605
 70
    32
  0
VERTEX
  8
T21SSILL
 62
7
 10
2522.481
 20
-3645.958
 30
3089.610
 70
    32
  0
VERTEX
  8
T21SSILL
 62
7
 10
2524.673
 20
-3647.374
 30
3089.621
 70
    32
  0
VERTEX
  8
T21SSILL
 62
7
 10
2530.614
 20
-3655.928
 30
3089.671
 70
    32
  0
VERTEX
  8
T21SSILL
 62
7
 10
2529.284
 20
-3658.560
 30
3089.680
 70
    32
  0
VERTEX
  8
T21SSILL
 62
7
 10
2522.402
 20
-3664.069
 30
3089.691
 70
    32
  0
VERTEX
  8
T21SSILL
 62
7
 10
2523.439
 20
-3668.206
 30
3089.711
 70
    32
  0
VERTEX
  8
T21SSILL
 62
7
 10
2534.828
 20
-3677.312
 30
3089.775
 70
    32
  0
VERTEX
  8
T21SSILL
 62
7
 10
2539.143
 20
-3675.748
 30
3089.776
 70
    32
  0
VERTEX
  8
T21SSILL
 62
7
 10
2548.765
 20
-3666.910
 30
3089.756
 70
    32
  0
VERTEX
  8
T21SSILL
 62
7
 10
2550.621
 20
-3664.633
 30
3089.749
 70
    32
  0
VERTEX
  8
T21SSILL
 62
7
 10
2550.278
 20
-3662.785
 30
3089.740
 70
    32
  0
VERTEX
  8
T21SSILL
 62
7
 10
2539.235
 20
-3654.736
 30
3089.682
 70
    32
  0
VERTEX
  8
T21SSILL
 62
7
 10
2533.809
 20
-3649.173
 30
3089.647
 70
    32
  0
VERTEX
  8
T21SSILL
 62
7
 10
2531.185
 20
-3646.084
 30
3089.628
 70
    32
  0
VERTEX
  8
T21SSILL
 62
7
 10
2530.242
 20
-3640.629
 30
3089.601
 70
    32
  0
VERTEX
  8
T21SSILL
 62
7
 10
2532.013
 20
-3637.735
 30
3089.592
 70
    32
  0
VERTEX
  8
T21SSILL
 62
7
 10
2579.637
 20
-3604.183
 30
3089.541
 70
    32
  0
VERTEX
  8
T21SSILL
 62
7
 10
2646.356
 20
-3706.903
 30
3090.128
 70
    32
  0
VERTEX
  8
T21SSILL
 62
7
 10
2625.782
 20
-3747.168
 30
3090.267
 70
    32
  0
VERTEX
  8
T21SSILL
 62
7
 10
2621.827
 20
-3746.711
 30
3090.257
 70
    32
  0
VERTEX
  8
T21SSILL
 62
7
 10
2621.745
 20
-3745.480
 30
3090.252
 70
    32
  0
VERTEX
  8
T21SSILL
 62
7
 10
2624.454
 20
-3729.139
 30
3090.184
 70
    32
  0
VERTEX
  8
T21SSILL
 62
7
 10
2629.840
 20
-3723.975
 30
3090.172
 70
    32
  0
VERTEX
  8
T21SSILL
 62
7
 10
2629.713
 20
-3712.809
 30
3090.121
 70
    32
  0
VERTEX
  8
T21SSILL
 62
7
 10
2604.191
 20
-3718.675
 30
3090.097
 70
    32
  0
VERTEX
  8
T21SSILL
 62
7
 10
2608.803
 20
-3749.467
 30
3090.244
 70
    32
  0
VERTEX
  8
T21SSILL
 62
7
 10
2622.862
 20
-3751.287
 30
3090.280
 70
    32
  0
VERTEX
  8
T21SSILL
 62
7
 10
2243.389
 20
-4479.711
 30
3090.583
 70
    32
  0
VERTEX
  8
T21SSILL
 62
7
 10
2207.051
 20
-4491.163
 30
3090.506
 70
    32
  0
VERTEX
  8
T21SSILL
 62
7
 10
2210.172
 20
-4499.818
 30
3090.530
 70
    32
  0
VERTEX
  8
T21SSILL
 62
7
 10
2226.167
 20
-4494.434
 30
3090.563
 70
    32
  0
VERTEX
  8
T21SSILL
 62
7
 10
2232.437
 20
-4501.512
 30
3090.592
 70
    32
  0
VERTEX
  8
T21SSILL
 62
7
 10
2221.014
 20
-4519.074
 30
3090.594
 70
    32
  0
VERTEX
  8
T21SSILL
 62
7
 10
2210.743
 20
-4538.962
 30
3090.589
 70
    32
  0
VERTEX
  8
T21SSILL
 62
7
 10
2124.404
 20
-4593.477
 30
3090.469
 70
    32
  0
VERTEX
  8
T21SSILL
 62
7
 10
2116.464
 20
-4594.086
 30
3090.448
 70
    32
  0
VERTEX
  8
T21SSILL
 62
7
 10
2116.795
 20
-4615.304
 30
3090.489
 70
    32
  0
VERTEX
  8
T21SSILL
 62
7
 10
2123.508
 20
-4614.565
 30
3090.504
 70
    32
  0
VERTEX
  8
T21SSILL
 62
7
 10
2123.785
 20
-4627.070
 30
3090.529
 70
    32
  0
VERTEX
  8
T21SSILL
 62
7
 10
2163.753
 20
-4626.587
 30
3090.541
 70
    32
  0
VERTEX
  8
T21SSILL
 62
7
 10
2105.163
 20
-4739.511
 30
3090.530
 70
    32
  0
VERTEX
  8
T21SSILL
 62
7
 10
2105.737
 20
-4743.314
 30
3090.530
 70
    32
  0
VERTEX
  8
T21SSILL
 62
7
 10
2085.206
 20
-4782.025
 30
3090.530
 70
    32
  0
VERTEX
  8
T21SSILL
 62
7
 10
2091.986
 20
-4786.529
 30
3090.530
 70
    32
  0
VERTEX
  8
T21SSILL
 62
7
 10
2175.942
 20
-4625.243
 30
3090.545
 70
    32
  0
VERTEX
  8
T21SSILL
 62
7
 10
2187.267
 20
-4631.174
 30
3090.547
 70
    32
  0
VERTEX
  8
T21SSILL
 62
7
 10
2190.668
 20
-4624.338
 30
3090.550
 70
    32
  0
VERTEX
  8
T21SSILL
 62
7
 10
2180.143
 20
-4618.171
 30
3090.549
 70
    32
  0
VERTEX
  8
T21SSILL
 62
7
 10
2626.335
 20
-3761.413
 30
3090.314
 70
    32
  0
VERTEX
  8
T21SSILL
 62
7
 10
2631.949
 20
-3764.339
 30
3090.335
 70
    32
  0
VERTEX
  8
T21SSILL
 62
7
 10
2637.242
 20
-3760.143
 30
3090.341
 70
    32
  0
VERTEX
  8
T21SSILL
 62
7
 10
2628.820
 20
-3755.973
 30
3090.311
 70
    32
  0
VERTEX
  8
T21SSILL
 62
7
 10
2653.291
 20
-3709.396
 30
3090.153
 70
    32
  0
VERTEX
  8
T21SSILL
 62
7
 10
2808.701
 20
-3736.718
 30
3090.688
 70
    32
  0
VERTEX
  8
T21SSILL
 62
7
 10
2869.606
 20
-3822.093
 30
3091.067
 70
    32
  0
VERTEX
  8
T21SSILL
 62
7
 10
2880.982
 20
-3814.230
 30
3091.069
 70
    32
  0
VERTEX
  8
T21SSILL
 62
7
 10
2877.053
 20
-3807.970
 30
3091.061
 70
    32
  0
VERTEX
  8
T21SSILL
 62
7
 10
2872.225
 20
-3811.578
 30
3091.063
 70
    32
  0
VERTEX
  8
T21SSILL
 62
7
 10
2813.663
 20
-3727.948
 30
3090.694
 70
    32
  0
VERTEX
  8
T21SSILL
 62
7
 10
2693.912
 20
-3708.871
 30
3090.231
 70
    32
  0
VERTEX
  8
T21SSILL
 62
7
 10
3086.836
 20
-3427.673
 30
3090.853
 70
    32
  0
VERTEX
  8
T21SSILL
 62
7
 10
3082.741
 20
-3420.936
 30
3090.840
 70
    32
  0
VERTEX
  8
T21SSILL
 62
7
 10
3057.067
 20
-3438.355
 30
3090.824
 70
    32
  0
VERTEX
  8
T21SSILL
 62
7
 10
3051.126
 20
-3429.889
 30
3090.805
 70
    32
  0
VERTEX
  8
T21SSILL
 62
7
 10
3043.898
 20
-3434.165
 30
3090.800
 70
    32
  0
VERTEX
  8
T21SSILL
 62
7
 10
3050.537
 20
-3443.866
 30
3090.821
 70
    32
  0
VERTEX
  8
T21SSILL
 62
7
 10
3011.820
 20
-3471.126
 30
3090.798
 70
    32
  0
VERTEX
  8
T21SSILL
 62
7
 10
2999.890
 20
-3454.613
 30
3090.762
 70
    32
  0
VERTEX
  8
T21SSILL
 62
7
 10
2993.324
 20
-3458.560
 30
3090.757
 70
    32
  0
VERTEX
  8
T21SSILL
 62
7
 10
3005.467
 20
-3476.374
 30
3090.795
 70
    32
  0
VERTEX
  8
T21SSILL
 62
7
 10
2684.691
 20
-3706.544
 30
3090.202
 70
    32
  0
VERTEX
  8
T21SSILL
 62
7
 10
2652.270
 20
-3701.654
 30
3090.116
 70
    32
  0
VERTEX
  8
T21SSILL
 62
7
 10
2612.532
 20
-3641.166
 30
3089.767
 70
    32
  0
VERTEX
  8
T21SSILL
 62
7
 10
2644.634
 20
-3618.624
 30
3089.828
 70
    32
  0
VERTEX
  8
T21SSILL
 62
7
 10
2650.228
 20
-3626.210
 30
3089.864
 70
    32
  0
VERTEX
  8
T21SSILL
 62
7
 10
2662.660
 20
-3618.000
 30
3089.901
 70
    32
  0
VERTEX
  8
T21SSILL
 62
7
 10
2651.205
 20
-3603.970
 30
3089.831
 70
    32
  0
VERTEX
  8
T21SSILL
 62
7
 10
2647.869
 20
-3602.725
 30
3089.815
 70
    32
  0
VERTEX
  8
T21SSILL
 62
7
 10
2641.253
 20
-3607.795
 30
3089.797
 70
    32
  0
VERTEX
  8
T21SSILL
 62
7
 10
2637.798
 20
-3613.759
 30
3089.793
 70
    32
  0
VERTEX
  8
T21SSILL
 62
7
 10
2608.521
 20
-3633.676
 30
3089.725
 70
    32
  0
VERTEX
  8
T21SSILL
 62
7
 10
2472.540
 20
-3426.642
 30
3088.814
 70
    32
  0
VERTEX
  8
T21SSILL
 62
7
 10
2401.069
 20
-3184.900
 30
3088.127
 70
    32
  0
VERTEX
  8
T21SSILL
 62
7
 10
2362.487
 20
-3062.322
 30
3087.769
 70
    32
  0
VERTEX
  8
T21SSILL
 62
7
 10
2330.415
 20
-2960.427
 30
3089.238
 70
    32
  0
VERTEX
  8
T21SSILL
 62
7
 10
2174.503
 20
-2803.530
 30
3088.834
 70
    32
  0
VERTEX
  8
T21SSILL
 62
7
 10
2163.983
 20
-2784.236
 30
3088.797
 70
    32
  0
VERTEX
  8
T21SSILL
 62
7
 10
2164.513
 20
-2770.168
 30
3088.781
 70
    32
  0
VERTEX
  8
T21SSILL
 62
7
 10
2165.105
 20
-2768.315
 30
3088.780
 70
    32
  0
VERTEX
  8
T21SSILL
 62
7
 10
2169.055
 20
-2767.915
 30
3088.785
 70
    32
  0
VERTEX
  8
T21SSILL
 62
7
 10
2168.974
 20
-2754.205
 30
3088.769
 70
    32
  0
VERTEX
  8
T21SSILL
 62
7
 10
2152.891
 20
-2754.227
 30
3088.746
 70
    32
  0
VERTEX
  8
T21SSILL
 62
7
 10
2152.427
 20
-2766.537
 30
3088.760
 70
    32
  0
VERTEX
  8
T21SSILL
 62
7
 10
2157.733
 20
-2769.196
 30
3088.770
 70
    32
  0
VERTEX
  8
T21SSILL
 62
7
 10
2157.329
 20
-2779.221
 30
3088.781
 70
    32
  0
VERTEX
  8
T21SSILL
 62
7
 10
2154.371
 20
-2781.630
 30
3088.780
 70
    32
  0
VERTEX
  8
T21SSILL
 62
7
 10
2151.988
 20
-2780.868
 30
3088.776
 70
    32
  0
VERTEX
  8
T21SSILL
 62
7
 10
2110.243
 20
-2738.141
 30
3088.667
 70
    32
  0
VERTEX
  8
T21SSILL
 62
7
 10
2118.838
 20
-2729.598
 30
3088.669
 70
    32
  0
VERTEX
  8
T21SSILL
 62
7
 10
2113.221
 20
-2723.075
 30
3088.653
 70
    32
  0
VERTEX
  8
T21SSILL
 62
7
 10
2103.933
 20
-2732.506
 30
3088.651
 70
    32
  0
VERTEX
  8
T21SSILL
 62
7
 10
2018.940
 20
-2646.454
 30
3088.431
 70
    32
  0
VERTEX
  8
T21SSILL
 62
7
 10
2000.121
 20
-2624.098
 30
3088.378
 70
    32
  0
VERTEX
  8
T21SSILL
 62
7
 10
1985.607
 20
-2616.015
 30
3088.348
 70
    32
  0
VERTEX
  8
T21SSILL
 62
7
 10
1983.968
 20
-2611.377
 30
3088.340
 70
    32
  0
VERTEX
  8
T21SSILL
 62
7
 10
1978.466
 20
-2607.050
 30
3088.327
 70
    32
  0
VERTEX
  8
T21SSILL
 62
7
 10
1958.225
 20
-2619.164
 30
3088.313
 70
    32
  0
VERTEX
  8
T21SSILL
 62
7
 10
1931.120
 20
-2637.778
 30
3088.296
 70
    32
  0
VERTEX
  8
T21SSILL
 62
7
 10
1920.967
 20
-2648.274
 30
3088.294
 70
    32
  0
VERTEX
  8
T21SSILL
 62
7
 10
1897.783
 20
-2664.116
 30
3088.280
 70
    32
  0
VERTEX
  8
T21SSILL
 62
7
 10
1879.954
 20
-2679.364
 30
3088.273
 70
    32
  0
VERTEX
  8
T21SSILL
 62
7
 10
1870.609
 20
-2691.344
 30
3088.274
 70
    32
  0
VERTEX
  8
T21SSILL
 62
7
 10
1855.831
 20
-2704.622
 30
3088.268
 70
    32
  0
VERTEX
  8
T21SSILL
 62
7
 10
1829.373
 20
-2725.777
 30
3088.256
 70
    32
  0
VERTEX
  8
T21SSILL
 62
7
 10
1795.565
 20
-2749.571
 30
3088.236
 70
    32
  0
VERTEX
  8
T21SSILL
 62
7
 10
1784.781
 20
-2758.844
 30
3088.232
 70
    32
  0
VERTEX
  8
T21SSILL
 62
7
 10
1783.582
 20
-2761.408
 30
3088.233
 70
    32
  0
VERTEX
  8
T21SSILL
 62
7
 10
1776.698
 20
-2766.239
 30
3088.229
 70
    32
  0
VERTEX
  8
T21SSILL
 62
7
 10
1775.938
 20
-2768.709
 30
3088.231
 70
    32
  0
VERTEX
  8
T21SSILL
 62
7
 10
1603.092
 20
-2892.518
 30
3084.435
 70
    32
  0
VERTEX
  8
T21SSILL
 62
7
 10
1540.288
 20
-2938.509
 30
3084.625
 70
    32
  0
VERTEX
  8
T21SSILL
 62
7
 10
1523.231
 20
-2945.135
 30
3084.659
 70
    32
  0
VERTEX
  8
T21SSILL
 62
7
 10
1047.674
 20
-2882.087
 30
3084.747
 70
    32
  0
VERTEX
  8
T21SSILL
 62
7
 10
1034.879
 20
-2875.933
 30
3084.734
 70
    32
  0
VERTEX
  8
T21SSILL
 62
7
 10
1030.825
 20
-2873.304
 30
3084.731
 70
    32
  0
VERTEX
  8
T21SSILL
 62
7
 10
1020.334
 20
-2859.116
 30
3084.727
 70
    32
  0
VERTEX
  8
T21SSILL
 62
7
 10
1025.772
 20
-2853.376
 30
3084.735
 70
    32
  0
VERTEX
  8
T21SSILL
 62
7
 10
1025.514
 20
-2852.258
 30
3084.735
 70
    32
  0
VERTEX
  8
T21SSILL
 62
7
 10
1022.579
 20
-2850.888
 30
3084.733
 70
    32
  0
VERTEX
  8
T21SSILL
 62
7
 10
1016.549
 20
-2850.651
 30
3084.728
 70
    32
  0
VERTEX
  8
T21SSILL
 62
7
 10
1013.116
 20
-2845.405
 30
3084.727
 70
    32
  0
VERTEX
  8
T21SSILL
 62
7
 10
1011.989
 20
-2846.104
 30
3084.725
 70
    32
  0
VERTEX
  8
T21SSILL
 62
7
 10
985.860
 20
-2810.239
 30
3084.717
 70
    32
  0
VERTEX
  8
T21SSILL
 62
7
 10
987.768
 20
-2803.663
 30
3084.722
 70
    32
  0
VERTEX
  8
T21SSILL
 62
7
 10
985.374
 20
-2800.170
 30
3084.721
 70
    32
  0
VERTEX
  8
T21SSILL
 62
7
 10
981.718
 20
-2796.278
 30
3084.719
 70
    32
  0
VERTEX
  8
T21SSILL
 62
7
 10
974.094
 20
-2793.059
 30
3084.713
 70
    32
  0
VERTEX
  8
T21SSILL
 62
7
 10
964.508
 20
-2780.284
 30
3084.710
 70
    32
  0
VERTEX
  8
T21SSILL
 62
7
 10
966.327
 20
-2768.889
 30
3084.717
 70
    32
  0
VERTEX
  8
T21SSILL
 62
7
 10
965.330
 20
-2745.837
 30
3084.723
 70
    32
  0
VERTEX
  8
T21SSILL
 62
7
 10
972.335
 20
-2739.408
 30
3084.728
 70
    32
  0
VERTEX
  8
T21SSILL
 62
7
 10
971.202
 20
-2735.554
 30
3084.727
 70
    32
  0
VERTEX
  8
T21SSILL
 62
7
 10
969.334
 20
-2734.613
 30
3084.726
 70
    32
  0
VERTEX
  8
T21SSILL
 62
7
 10
965.941
 20
-2735.633
 30
3084.724
 70
    32
  0
VERTEX
  8
T21SSILL
 62
7
 10
965.888
 20
-2734.043
 30
3084.725
 70
    32
  0
VERTEX
  8
T21SSILL
 62
7
 10
974.287
 20
-2713.050
 30
3084.820
 70
    32
  0
VERTEX
  8
T21SSILL
 62
7
 10
968.756
 20
-2702.906
 30
3084.846
 70
    32
  0
VERTEX
  8
T21SSILL
 62
7
 10
967.822
 20
-2695.544
 30
3084.881
 70
    32
  0
VERTEX
  8
T21SSILL
 62
7
 10
963.749
 20
-2693.796
 30
3084.870
 70
    32
  0
VERTEX
  8
T21SSILL
 62
7
 10
955.643
 20
-2698.084
 30
3084.809
 70
    32
  0
VERTEX
  8
T21SSILL
 62
7
 10
948.682
 20
-2706.544
 30
3084.730
 70
    32
  0
VERTEX
  8
T21SSILL
 62
7
 10
942.782
 20
-2718.909
 30
3084.713
 70
    32
  0
VERTEX
  8
T21SSILL
 62
7
 10
942.603
 20
-2722.294
 30
3084.713
 70
    32
  0
VERTEX
  8
T21SSILL
 62
7
 10
944.693
 20
-2728.392
 30
3084.713
 70
    32
  0
VERTEX
  8
T21SSILL
 62
7
 10
953.451
 20
-2735.466
 30
3084.718
 70
    32
  0
VERTEX
  8
T21SSILL
 62
7
 10
955.827
 20
-2740.600
 30
3084.719
 70
    32
  0
VERTEX
  8
T21SSILL
 62
7
 10
956.173
 20
-2753.049
 30
3084.714
 70
    32
  0
VERTEX
  8
T21SSILL
 62
7
 10
953.429
 20
-2756.642
 30
3084.710
 70
    32
  0
VERTEX
  8
T21SSILL
 62
7
 10
948.415
 20
-2756.762
 30
3084.705
 70
    32
  0
VERTEX
  8
T21SSILL
 62
7
 10
771.949
 20
-2511.513
 30
3084.762
 70
    32
  0
VERTEX
  8
T21SSILL
 62
7
 10
770.321
 20
-2506.060
 30
3084.763
 70
    32
  0
VERTEX
  8
T21SSILL
 62
7
 10
770.936
 20
-2498.891
 30
3084.763
 70
    32
  0
VERTEX
  8
T21SSILL
 62
7
 10
773.336
 20
-2491.637
 30
3084.759
 70
    32
  0
VERTEX
  8
T21SSILL
 62
7
 10
777.725
 20
-2484.586
 30
3084.754
 70
    32
  0
VERTEX
  8
T21SSILL
 62
7
 10
779.973
 20
-2482.501
 30
3084.751
 70
    32
  0
VERTEX
  8
T21SSILL
 62
7
 10
781.605
 20
-2484.809
 30
3084.749
 70
    32
  0
VERTEX
  8
T21SSILL
 62
7
 10
791.215
 20
-2478.060
 30
3084.738
 70
    32
  0
VERTEX
  8
T21SSILL
 62
7
 10
789.759
 20
-2475.964
 30
3084.739
 70
    32
  0
VERTEX
  8
T21SSILL
 62
7
 10
843.381
 20
-2437.547
 30
3084.918
 70
    32
  0
VERTEX
  8
T21SSILL
 62
7
 10
838.938
 20
-2431.495
 30
3084.908
 70
    32
  0
VERTEX
  8
T21SSILL
 62
7
 10
790.977
 20
-2465.216
 30
3084.738
 70
    32
  0
VERTEX
  8
T21SSILL
 62
7
 10
778.176
 20
-2434.019
 30
3084.752
 70
    32
  0
VERTEX
  8
T21SSILL
 62
7
 10
771.698
 20
-2436.489
 30
3084.760
 70
    32
  0
VERTEX
  8
T21SSILL
 62
7
 10
782.158
 20
-2465.024
 30
3084.748
 70
    32
  0
VERTEX
  8
T21SSILL
 62
7
 10
772.754
 20
-2472.195
 30
3084.760
 70
    32
  0
VERTEX
  8
T21SSILL
 62
7
 10
775.765
 20
-2476.549
 30
3084.756
 70
    32
  0
VERTEX
  8
T21SSILL
 62
7
 10
768.250
 20
-2484.538
 30
3084.765
 70
    32
  0
VERTEX
  8
T21SSILL
 62
7
 10
764.079
 20
-2493.712
 30
3084.771
 70
    32
  0
VERTEX
  8
T21SSILL
 62
7
 10
759.310
 20
-2493.872
 30
3084.776
 70
    32
  0
VERTEX
  8
T21SSILL
 62
7
 10
689.366
 20
-2395.638
 30
3084.859
 70
    32
  0
VERTEX
  8
T21SSILL
 62
7
 10
687.527
 20
-2386.104
 30
3084.861
 70
    32
  0
VERTEX
  8
T21SSILL
 62
7
 10
687.860
 20
-2382.176
 30
3084.860
 70
    32
  0
VERTEX
  8
T21SSILL
 62
7
 10
690.064
 20
-2374.953
 30
3084.857
 70
    32
  0
VERTEX
  8
T21SSILL
 62
7
 10
693.953
 20
-2369.021
 30
3084.853
 70
    32
  0
VERTEX
  8
T21SSILL
 62
7
 10
725.648
 20
-2345.553
 30
3084.814
 70
    32
  0
VERTEX
  8
T21SSILL
 62
7
 10
729.588
 20
-2346.963
 30
3084.809
 70
    32
  0
VERTEX
  8
T21SSILL
 62
7
 10
742.143
 20
-2363.578
 30
3084.794
 70
    32
  0
VERTEX
  8
T21SSILL
 62
7
 10
756.474
 20
-2352.985
 30
3084.777
 70
    32
  0
VERTEX
  8
T21SSILL
 62
7
 10
741.906
 20
-2334.014
 30
3084.794
 70
    32
  0
VERTEX
  8
T21SSILL
 62
7
 10
771.833
 20
-2312.466
 30
3084.796
 70
    32
  0
VERTEX
  8
T21SSILL
 62
7
 10
767.485
 20
-2306.154
 30
3084.787
 70
    32
  0
VERTEX
  8
T21SSILL
 62
7
 10
699.911
 20
-2354.768
 30
3084.845
 70
    32
  0
VERTEX
  8
T21SSILL
 62
7
 10
690.846
 20
-2362.564
 30
3084.856
 70
    32
  0
VERTEX
  8
T21SSILL
 62
7
 10
684.960
 20
-2369.495
 30
3084.864
 70
    32
  0
VERTEX
  8
T21SSILL
 62
7
 10
680.252
 20
-2383.069
 30
3084.870
 70
    32
  0
VERTEX
  8
T21SSILL
 62
7
 10
605.623
 20
-2279.509
 30
3084.957
 70
    32
  0
VERTEX
  8
T21SSILL
 62
7
 10
604.188
 20
-2272.507
 30
3084.959
 70
    32
  0
VERTEX
  8
T21SSILL
 62
7
 10
605.293
 20
-2263.902
 30
3084.957
 70
    32
  0
VERTEX
  8
T21SSILL
 62
7
 10
610.702
 20
-2252.214
 30
3084.951
 70
    32
  0
VERTEX
  8
T21SSILL
 62
7
 10
700.847
 20
-2187.628
 30
3084.840
 70
    32
  0
VERTEX
  8
T21SSILL
 62
7
 10
696.734
 20
-2181.787
 30
3084.845
 70
    32
  0
VERTEX
  8
T21SSILL
 62
7
 10
605.803
 20
-2247.042
 30
3084.956
 70
    32
  0
VERTEX
  8
T21SSILL
 62
7
 10
601.136
 20
-2253.858
 30
3084.962
 70
    32
  0
VERTEX
  8
T21SSILL
 62
7
 10
587.830
 20
-2242.555
 30
3084.978
 70
    32
  0
VERTEX
  8
T21SSILL
 62
7
 10
572.342
 20
-2218.817
 30
3084.996
 70
    32
  0
VERTEX
  8
T21SSILL
 62
7
 10
563.776
 20
-2209.436
 30
3085.006
 70
    32
  0
VERTEX
  8
T21SSILL
 62
7
 10
556.984
 20
-2199.652
 30
3085.014
 70
    32
  0
VERTEX
  8
T21SSILL
 62
7
 10
544.279
 20
-2193.128
 30
3085.029
 70
    32
  0
VERTEX
  8
T21SSILL
 62
7
 10
522.054
 20
-2162.713
 30
3085.056
 70
    32
  0
VERTEX
  8
T21SSILL
 62
7
 10
519.941
 20
-2155.219
 30
3085.058
 70
    32
  0
VERTEX
  8
T21SSILL
 62
7
 10
520.069
 20
-2151.005
 30
3085.058
 70
    32
  0
VERTEX
  8
T21SSILL
 62
7
 10
521.779
 20
-2142.183
 30
3085.056
 70
    32
  0
VERTEX
  8
T21SSILL
 62
7
 10
523.415
 20
-2139.166
 30
3085.053
 70
    32
  0
VERTEX
  8
T21SSILL
 62
7
 10
531.750
 20
-2130.048
 30
3085.043
 70
    32
  0
VERTEX
  8
T21SSILL
 62
7
 10
548.449
 20
-2118.518
 30
3085.023
 70
    32
  0
VERTEX
  8
T21SSILL
 62
7
 10
632.922
 20
-2128.427
 30
3084.921
 70
    32
  0
VERTEX
  8
T21SSILL
 62
7
 10
632.134
 20
-2137.021
 30
3084.922
 70
    32
  0
VERTEX
  8
T21SSILL
 62
7
 10
641.129
 20
-2138.065
 30
3084.911
 70
    32
  0
VERTEX
  8
T21SSILL
 62
7
 10
642.353
 20
-2121.509
 30
3084.909
 70
    32
  0
VERTEX
  8
T21SSILL
 62
7
 10
557.505
 20
-2111.921
 30
3085.012
 70
    32
  0
VERTEX
  8
T21SSILL
 62
7
 10
574.715
 20
-2099.591
 30
3084.991
 70
    32
  0
VERTEX
  8
T21SSILL
 62
7
 10
576.512
 20
-2101.342
 30
3084.988
 70
    32
  0
VERTEX
  8
T21SSILL
 62
7
 10
580.934
 20
-2102.515
 30
3084.983
 70
    32
  0
VERTEX
  8
T21SSILL
 62
7
 10
587.186
 20
-2100.640
 30
3084.976
 70
    32
  0
VERTEX
  8
T21SSILL
 62
7
 10
592.070
 20
-2102.458
 30
3084.970
 70
    32
  0
VERTEX
  8
T21SSILL
 62
7
 10
602.192
 20
-2095.532
 30
3084.957
 70
    32
  0
VERTEX
  8
T21SSILL
 62
7
 10
580.912
 20
-2065.526
 30
3084.982
 70
    32
  0
VERTEX
  8
T21SSILL
 62
7
 10
564.750
 20
-2050.843
 30
3085.002
 70
    32
  0
VERTEX
  8
T21SSILL
 62
7
 10
555.266
 20
-2038.213
 30
3085.013
 70
    32
  0
VERTEX
  8
T21SSILL
 62
7
 10
540.953
 20
-2010.812
 30
3085.029
 70
    32
  0
VERTEX
  8
T21SSILL
 62
7
 10
547.017
 20
-2006.250
 30
3085.022
 70
    32
  0
VERTEX
  8
T21SSILL
 62
7
 10
545.856
 20
-2004.478
 30
3085.023
 70
    32
  0
VERTEX
  8
T21SSILL
 62
7
 10
600.710
 20
-1964.747
 30
3084.956
 70
    32
  0
VERTEX
  8
T21SSILL
 62
7
 10
595.855
 20
-1958.782
 30
3084.962
 70
    32
  0
VERTEX
  8
T21SSILL
 62
7
 10
543.127
 20
-1996.883
 30
3085.026
 70
    32
  0
VERTEX
  8
T21SSILL
 62
7
 10
532.001
 20
-1997.257
 30
3085.040
 70
    32
  0
VERTEX
  8
T21SSILL
 62
7
 10
500.863
 20
-2015.443
 30
3085.078
 70
    32
  0
VERTEX
  8
T21SSILL
 62
7
 10
501.156
 20
-2027.061
 30
3085.078
 70
    32
  0
VERTEX
  8
T21SSILL
 62
7
 10
467.381
 20
-2051.259
 30
3085.119
 70
    32
  0
VERTEX
  8
T21SSILL
 62
7
 10
462.499
 20
-2058.229
 30
3085.125
 70
    32
  0
VERTEX
  8
T21SSILL
 62
7
 10
456.899
 20
-2072.225
 30
3085.132
 70
    32
  0
VERTEX
  8
T21SSILL
 62
7
 10
441.393
 20
-2050.127
 30
3085.151
 70
    32
  0
VERTEX
  8
T21SSILL
 62
7
 10
441.409
 20
-2046.969
 30
3085.150
 70
    32
  0
VERTEX
  8
T21SSILL
 62
7
 10
435.818
 20
-2037.952
 30
3085.157
 70
    32
  0
VERTEX
  8
T21SSILL
 62
7
 10
430.985
 20
-2021.664
 30
3085.163
 70
    32
  0
VERTEX
  8
T21SSILL
 62
7
 10
428.235
 20
-2020.704
 30
3085.166
 70
    32
  0
VERTEX
  8
T21SSILL
 62
7
 10
420.771
 20
-2021.494
 30
3085.175
 70
    32
  0
VERTEX
  8
T21SSILL
 62
7
 10
299.709
 20
-1853.426
 30
3085.448
 70
    32
  0
VERTEX
  8
T21SSILL
 62
7
 10
298.747
 20
-1847.387
 30
3085.451
 70
    32
  0
VERTEX
  8
T21SSILL
 62
7
 10
301.088
 20
-1835.509
 30
3085.449
 70
    32
  0
VERTEX
  8
T21SSILL
 62
7
 10
305.988
 20
-1826.898
 30
3085.440
 70
    32
  0
VERTEX
  8
T21SSILL
 62
7
 10
310.454
 20
-1822.831
 30
3085.432
 70
    32
  0
VERTEX
  8
T21SSILL
 62
7
 10
420.099
 20
-1744.276
 30
3085.222
 70
    32
  0
VERTEX
  8
T21SSILL
 62
7
 10
436.455
 20
-1758.169
 30
3085.185
 70
    32
  0
VERTEX
  8
T21SSILL
 62
7
 10
442.331
 20
-1765.462
 30
3085.172
 70
    32
  0
VERTEX
  8
T21SSILL
 62
7
 10
442.890
 20
-1776.239
 30
3085.168
 70
    32
  0
VERTEX
  8
T21SSILL
 62
7
 10
449.395
 20
-1786.228
 30
3085.153
 70
    32
  0
VERTEX
  8
T21SSILL
 62
7
 10
454.322
 20
-1796.589
 30
3085.141
 70
    32
  0
VERTEX
  8
T21SSILL
 62
7
 10
456.224
 20
-1792.730
 30
3085.138
 70
    32
  0
VERTEX
  8
T21SSILL
 62
7
 10
458.714
 20
-1791.055
 30
3085.133
 70
    32
  0
VERTEX
  8
T21SSILL
 62
7
 10
469.951
 20
-1796.895
 30
3085.110
 70
    32
  0
VERTEX
  8
T21SSILL
 62
7
 10
478.365
 20
-1807.578
 30
3085.100
 70
    32
  0
VERTEX
  8
T21SSILL
 62
7
 10
480.364
 20
-1814.610
 30
3085.098
 70
    32
  0
VERTEX
  8
T21SSILL
 62
7
 10
485.222
 20
-1819.269
 30
3085.092
 70
    32
  0
VERTEX
  8
T21SSILL
 62
7
 10
488.038
 20
-1816.384
 30
3085.089
 70
    32
  0
VERTEX
  8
T21SSILL
 62
7
 10
497.981
 20
-1828.142
 30
3085.077
 70
    32
  0
VERTEX
  8
T21SSILL
 62
7
 10
507.707
 20
-1845.808
 30
3085.066
 70
    32
  0
VERTEX
  8
T21SSILL
 62
7
 10
513.210
 20
-1850.004
 30
3085.059
 70
    32
  0
VERTEX
  8
T21SSILL
 62
7
 10
518.526
 20
-1845.761
 30
3085.053
 70
    32
  0
VERTEX
  8
T21SSILL
 62
7
 10
515.608
 20
-1841.992
 30
3085.056
 70
    32
  0
VERTEX
  8
T21SSILL
 62
7
 10
513.433
 20
-1834.109
 30
3085.059
 70
    32
  0
VERTEX
  8
T21SSILL
 62
7
 10
513.622
 20
-1829.525
 30
3085.058
 70
    32
  0
VERTEX
  8
T21SSILL
 62
7
 10
494.028
 20
-1810.356
 30
3085.082
 70
    32
  0
VERTEX
  8
T21SSILL
 62
7
 10
492.727
 20
-1804.451
 30
3085.083
 70
    32
  0
VERTEX
  8
T21SSILL
 62
7
 10
485.831
 20
-1801.035
 30
3085.091
 70
    32
  0
VERTEX
  8
T21SSILL
 62
7
 10
479.440
 20
-1792.266
 30
3085.099
 70
    32
  0
VERTEX
  8
T21SSILL
 62
7
 10
470.143
 20
-1788.075
 30
3085.110
 70
    32
  0
VERTEX
  8
T21SSILL
 62
7
 10
466.457
 20
-1784.748
 30
3085.118
 70
    32
  0
VERTEX
  8
T21SSILL
 62
7
 10
463.696
 20
-1775.440
 30
3085.126
 70
    32
  0
VERTEX
  8
T21SSILL
 62
7
 10
454.849
 20
-1770.818
 30
3085.145
 70
    32
  0
VERTEX
  8
T21SSILL
 62
7
 10
450.830
 20
-1756.877
 30
3085.156
 70
    32
  0
VERTEX
  8
T21SSILL
 62
7
 10
444.540
 20
-1754.004
 30
3085.170
 70
    32
  0
VERTEX
  8
T21SSILL
 62
7
 10
433.954
 20
-1737.714
 30
3085.195
 70
    32
  0
VERTEX
  8
T21SSILL
 62
7
 10
449.462
 20
-1732.247
 30
3085.164
 70
    32
  0
VERTEX
  8
T21SSILL
 62
7
 10
460.606
 20
-1744.772
 30
3085.138
 70
    32
  0
VERTEX
  8
T21SSILL
 62
7
 10
474.265
 20
-1743.994
 30
3085.110
 70
    32
  0
VERTEX
  8
T21SSILL
 62
7
 10
479.002
 20
-1736.368
 30
3085.102
 70
    32
  0
VERTEX
  8
T21SSILL
 62
7
 10
470.400
 20
-1730.268
 30
3085.121
 70
    32
  0
VERTEX
  8
T21SSILL
 62
7
 10
462.296
 20
-1714.262
 30
3085.141
 70
    32
  0
VERTEX
  8
T21SSILL
 62
7
 10
511.251
 20
-1678.134
 30
3085.058
 70
    32
  0
VERTEX
  8
T21SSILL
 62
7
 10
506.657
 20
-1672.299
 30
3085.063
 70
    32
  0
VERTEX
  8
T21SSILL
 62
7
 10
462.548
 20
-1704.314
 30
3085.143
 70
    32
  0
VERTEX
  8
T21SSILL
 62
7
 10
444.003
 20
-1700.998
 30
3085.181
 70
    32
  0
VERTEX
  8
T21SSILL
 62
7
 10
430.767
 20
-1688.885
 30
3085.211
 70
    32
  0
VERTEX
  8
T21SSILL
 62
7
 10
428.126
 20
-1684.592
 30
3085.218
 70
    32
  0
VERTEX
  8
T21SSILL
 62
7
 10
413.452
 20
-1678.501
 30
3085.249
 70
    32
  0
VERTEX
  8
T21SSILL
 62
7
 10
409.365
 20
-1681.430
 30
3085.257
 70
    32
  0
VERTEX
  8
T21SSILL
 62
7
 10
403.553
 20
-1697.856
 30
3085.265
 70
    32
  0
VERTEX
  8
T21SSILL
 62
7
 10
394.415
 20
-1696.915
 30
3085.285
 70
    32
  0
VERTEX
  8
T21SSILL
 62
7
 10
409.613
 20
-1718.582
 30
3085.249
 70
    32
  0
VERTEX
  8
T21SSILL
 62
7
 10
420.488
 20
-1715.132
 30
3085.227
 70
    32
  0
VERTEX
  8
T21SSILL
 62
7
 10
426.309
 20
-1719.317
 30
3085.214
 70
    32
  0
VERTEX
  8
T21SSILL
 62
7
 10
425.873
 20
-1730.373
 30
3085.213
 70
    32
  0
VERTEX
  8
T21SSILL
 62
7
 10
353.180
 20
-1783.104
 30
3085.352
 70
    32
  0
VERTEX
  8
T21SSILL
 62
7
 10
393.635
 20
-1534.872
 30
3085.502
 70
    32
  0
VERTEX
  8
T21SSILL
 62
7
 10
385.331
 20
-1532.774
 30
3085.511
 70
    32
  0
VERTEX
  8
T21SSILL
 62
7
 10
345.111
 20
-1784.110
 30
3085.368
 70
    32
  0
VERTEX
  8
T21SSILL
 62
7
 10
337.946
 20
-1793.801
 30
3085.381
 70
    32
  0
VERTEX
  8
T21SSILL
 62
7
 10
301.467
 20
-1820.588
 30
3085.451
 70
    32
  0
VERTEX
  8
T21SSILL
 62
7
 10
293.945
 20
-1831.294
 30
3085.464
 70
    32
  0
VERTEX
  8
T21SSILL
 62
7
 10
291.611
 20
-1841.214
 30
3085.467
 70
    32
  0
VERTEX
  8
T21SSILL
 62
7
 10
250.791
 20
-1784.122
 30
3085.563
 70
    32
  0
VERTEX
  8
T21SSILL
 62
7
 10
252.016
 20
-1777.385
 30
3085.562
 70
    32
  0
VERTEX
  8
T21SSILL
 62
7
 10
242.972
 20
-1760.881
 30
3085.584
 70
    32
  0
VERTEX
  8
T21SSILL
 62
7
 10
240.480
 20
-1753.760
 30
3085.590
 70
    32
  0
VERTEX
  8
T21SSILL
 62
7
 10
236.388
 20
-1751.304
 30
3085.599
 70
    32
  0
VERTEX
  8
T21SSILL
 62
7
 10
232.727
 20
-1744.821
 30
3085.618
 70
    32
  0
VERTEX
  8
T21SSILL
 62
7
 10
232.974
 20
-1729.464
 30
3085.635
 70
    32
  0
VERTEX
  8
T21SSILL
 62
7
 10
232.158
 20
-1726.542
 30
3086.010
 70
    32
  0
VERTEX
  8
T21SSILL
 62
7
 10
222.476
 20
-1704.921
 30
3086.010
 70
    32
  0
VERTEX
  8
T21SSILL
 62
7
 10
218.682
 20
-1699.057
 30
3086.010
 70
    32
  0
VERTEX
  8
T21SSILL
 62
7
 10
219.192
 20
-1687.529
 30
3086.010
 70
    32
  0
VERTEX
  8
T21SSILL
 62
7
 10
216.685
 20
-1685.214
 30
3086.010
 70
    32
  0
VERTEX
  8
T21SSILL
 62
7
 10
208.749
 20
-1688.318
 30
3086.010
 70
    32
  0
VERTEX
  8
T21SSILL
 62
7
 10
205.966
 20
-1698.854
 30
3086.010
 70
    32
  0
VERTEX
  8
T21SSILL
 62
7
 10
202.906
 20
-1706.437
 30
3086.010
 70
    32
  0
VERTEX
  8
T21SSILL
 62
7
 10
198.471
 20
-1710.442
 30
3086.010
 70
    32
  0
VERTEX
  8
T21SSILL
 62
7
 10
195.079
 20
-1718.291
 30
3086.010
 70
    32
  0
VERTEX
  8
T21SSILL
 62
7
 10
185.702
 20
-1723.018
 30
3086.010
 70
    32
  0
VERTEX
  8
T21SSILL
 62
7
 10
186.678
 20
-1728.423
 30
3086.010
 70
    32
  0
VERTEX
  8
T21SSILL
 62
7
 10
182.056
 20
-1733.241
 30
3086.010
 70
    32
  0
VERTEX
  8
T21SSILL
 62
7
 10
172.351
 20
-1739.816
 30
3086.010
 70
    32
  0
VERTEX
  8
T21SSILL
 62
7
 10
163.445
 20
-1742.050
 30
3086.010
 70
    32
  0
VERTEX
  8
T21SSILL
 62
7
 10
162.630
 20
-1740.970
 30
3085.800
 70
    32
  0
VERTEX
  8
T21SSILL
 62
7
 10
153.712
 20
-1730.070
 30
3085.896
 70
    32
  0
VERTEX
  8
T21SSILL
 62
7
 10
153.813
 20
-1717.556
 30
3085.917
 70
    32
  0
VERTEX
  8
T21SSILL
 62
7
 10
151.223
 20
-1703.305
 30
3085.948
 70
    32
  0
VERTEX
  8
T21SSILL
 62
7
 10
144.238
 20
-1707.770
 30
3085.964
 70
    32
  0
VERTEX
  8
T21SSILL
 62
7
 10
131.986
 20
-1698.202
 30
3086.019
 70
    32
  0
VERTEX
  8
T21SSILL
 62
7
 10
120.605
 20
-1682.974
 30
3086.109
 70
    32
  0
VERTEX
  8
T21SSILL
 62
7
 10
113.371
 20
-1681.294
 30
3086.141
 70
    32
  0
VERTEX
  8
T21SSILL
 62
7
 10
107.723
 20
-1672.994
 30
3086.188
 70
    32
  0
VERTEX
  8
T21SSILL
 62
7
 10
100.034
 20
-1677.540
 30
3086.204
 70
    32
  0
VERTEX
  8
T21SSILL
 62
7
 10
106.401
 20
-1686.076
 30
3086.154
 70
    32
  0
VERTEX
  8
T21SSILL
 62
7
 10
101.596
 20
-1700.510
 30
3086.129
 70
    32
  0
VERTEX
  8
T21SSILL
 62
7
 10
128.345
 20
-1710.800
 30
3086.010
 70
    32
  0
VERTEX
  8
T21SSILL
 62
7
 10
138.747
 20
-1727.073
 30
3085.949
 70
    32
  0
VERTEX
  8
T21SSILL
 62
7
 10
139.329
 20
-1728.611
 30
3085.945
 70
    32
  0
VERTEX
  8
T21SSILL
 62
7
 10
137.710
 20
-1735.036
 30
3085.939
 70
    32
  0
VERTEX
  8
T21SSILL
 62
7
 10
156.840
 20
-1756.368
 30
3085.843
 70
    32
  0
VERTEX
  8
T21SSILL
 62
7
 10
159.545
 20
-1763.332
 30
3085.823
 70
    32
  0
VERTEX
  8
T21SSILL
 62
7
 10
155.535
 20
-1792.884
 30
3085.805
 70
    32
  0
SEQEND
  8
T21SSILL
  0
ENDSEC
  0
EOF
