999
********************************
999
*   DXF File - Entities Only   *
999
*        3D Data Format        *
999
*     Output from ENVISAGE     *
999
*     20-Dec-2007 09:19:39     *
999
********************************
  0
SECTION 
  2
HEADER
  9
$ACADVER
  1
AC1009
  9
$EXTMIN
 10
-290000.000
 20
-250000.000
 30
-4000.000
  9
$EXTMAX
 10
5000000.000
 20
600000.000
 30
6000.000
  0
ENDSEC
  0
SECTION
  2
ENTITIES
  0
POLYLINE
  8
T23SSILL
 62
17
 66
     1
 70
     9
  0
VERTEX
  8
T23SSILL
 62
17
 10
-510.490
 20
-2271.747
 30
2932.587
 70
    32
  0
VERTEX
  8
T23SSILL
 62
17
 10
-510.452
 20
-2271.803
 30
2932.586
 70
    32
  0
VERTEX
  8
T23SSILL
 62
17
 10
-510.490
 20
-2271.747
 30
2932.587
 70
    32
  0
SEQEND
  8
T23SSILL
  0
POLYLINE
  8
T23SSILL
 62
17
 66
     1
 70
     9
  0
VERTEX
  8
T23SSILL
 62
17
 10
-508.486
 20
-1942.532
 30
2934.405
 70
    32
  0
VERTEX
  8
T23SSILL
 62
17
 10
-508.439
 20
-1942.072
 30
2934.403
 70
    32
  0
VERTEX
  8
T23SSILL
 62
17
 10
-508.486
 20
-1942.532
 30
2934.405
 70
    32
  0
SEQEND
  8
T23SSILL
  0
POLYLINE
  8
T23SSILL
 62
17
 66
     1
 70
     9
  0
VERTEX
  8
T23SSILL
 62
17
 10
-786.031
 20
-1096.338
 30
2935.259
 70
    32
  0
VERTEX
  8
T23SSILL
 62
17
 10
-785.019
 20
-1095.566
 30
2935.266
 70
    32
  0
VERTEX
  8
T23SSILL
 62
17
 10
-786.031
 20
-1096.338
 30
2935.259
 70
    32
  0
SEQEND
  8
T23SSILL
  0
POLYLINE
  8
T23SSILL
 62
17
 66
     1
 70
     9
  0
VERTEX
  8
T23SSILL
 62
17
 10
-827.103
 20
-1680.382
 30
2934.550
 70
    32
  0
VERTEX
  8
T23SSILL
 62
17
 10
-850.101
 20
-1696.936
 30
2934.330
 70
    32
  0
VERTEX
  8
T23SSILL
 62
17
 10
-844.879
 20
-1709.978
 30
2934.330
 70
    32
  0
VERTEX
  8
T23SSILL
 62
17
 10
-802.798
 20
-1728.494
 30
2934.588
 70
    32
  0
VERTEX
  8
T23SSILL
 62
17
 10
-798.425
 20
-1723.576
 30
2934.635
 70
    32
  0
VERTEX
  8
T23SSILL
 62
17
 10
-805.740
 20
-1707.665
 30
2934.627
 70
    32
  0
VERTEX
  8
T23SSILL
 62
17
 10
-827.103
 20
-1680.382
 30
2934.550
 70
    32
  0
SEQEND
  8
T23SSILL
  0
POLYLINE
  8
T23SSILL
 62
17
 66
     1
 70
     9
  0
VERTEX
  8
T23SSILL
 62
17
 10
-830.409
 20
-1725.697
 30
2934.391
 70
    32
  0
VERTEX
  8
T23SSILL
 62
17
 10
-836.633
 20
-1730.764
 30
2934.330
 70
    32
  0
VERTEX
  8
T23SSILL
 62
17
 10
-830.263
 20
-1746.273
 30
2934.332
 70
    32
  0
VERTEX
  8
T23SSILL
 62
17
 10
-784.817
 20
-1754.289
 30
2934.645
 70
    32
  0
VERTEX
  8
T23SSILL
 62
17
 10
-790.516
 20
-1742.102
 30
2934.639
 70
    32
  0
VERTEX
  8
T23SSILL
 62
17
 10
-830.409
 20
-1725.697
 30
2934.391
 70
    32
  0
SEQEND
  8
T23SSILL
  0
POLYLINE
  8
T23SSILL
 62
17
 66
     1
 70
     9
  0
VERTEX
  8
T23SSILL
 62
17
 10
-793.522
 20
-1761.485
 30
2934.559
 70
    32
  0
VERTEX
  8
T23SSILL
 62
17
 10
-819.288
 20
-1756.585
 30
2934.382
 70
    32
  0
VERTEX
  8
T23SSILL
 62
17
 10
-824.211
 20
-1761.794
 30
2934.331
 70
    32
  0
VERTEX
  8
T23SSILL
 62
17
 10
-818.241
 20
-1775.853
 30
2934.333
 70
    32
  0
VERTEX
  8
T23SSILL
 62
17
 10
-771.934
 20
-1782.808
 30
2934.656
 70
    32
  0
VERTEX
  8
T23SSILL
 62
17
 10
-778.977
 20
-1767.571
 30
2934.649
 70
    32
  0
VERTEX
  8
T23SSILL
 62
17
 10
-793.522
 20
-1761.485
 30
2934.559
 70
    32
  0
SEQEND
  8
T23SSILL
  0
POLYLINE
  8
T23SSILL
 62
17
 66
     1
 70
     9
  0
VERTEX
  8
T23SSILL
 62
17
 10
-755.116
 20
-1844.607
 30
2934.598
 70
    32
  0
VERTEX
  8
T23SSILL
 62
17
 10
-775.889
 20
-1824.106
 30
2934.505
 70
    32
  0
VERTEX
  8
T23SSILL
 62
17
 10
-794.430
 20
-1820.161
 30
2934.379
 70
    32
  0
VERTEX
  8
T23SSILL
 62
17
 10
-796.266
 20
-1828.570
 30
2934.340
 70
    32
  0
VERTEX
  8
T23SSILL
 62
17
 10
-783.964
 20
-1854.790
 30
2934.354
 70
    32
  0
VERTEX
  8
T23SSILL
 62
17
 10
-754.148
 20
-1850.434
 30
2934.588
 70
    32
  0
VERTEX
  8
T23SSILL
 62
17
 10
-755.116
 20
-1844.607
 30
2934.598
 70
    32
  0
SEQEND
  8
T23SSILL
  0
POLYLINE
  8
T23SSILL
 62
17
 66
     1
 70
     9
  0
VERTEX
  8
T23SSILL
 62
17
 10
-751.756
 20
-1858.819
 30
2934.581
 70
    32
  0
VERTEX
  8
T23SSILL
 62
17
 10
-777.855
 20
-1861.999
 30
2934.378
 70
    32
  0
VERTEX
  8
T23SSILL
 62
17
 10
-737.646
 20
-1881.984
 30
2934.617
 70
    32
  0
VERTEX
  8
T23SSILL
 62
17
 10
-732.972
 20
-1881.527
 30
2934.653
 70
    32
  0
VERTEX
  8
T23SSILL
 62
17
 10
-736.883
 20
-1870.001
 30
2934.658
 70
    32
  0
VERTEX
  8
T23SSILL
 62
17
 10
-751.756
 20
-1858.819
 30
2934.581
 70
    32
  0
SEQEND
  8
T23SSILL
  0
POLYLINE
  8
T23SSILL
 62
17
 66
     1
 70
     9
  0
VERTEX
  8
T23SSILL
 62
17
 10
-725.909
 20
-1897.839
 30
2934.658
 70
    32
  0
VERTEX
  8
T23SSILL
 62
17
 10
-763.251
 20
-1879.253
 30
2934.436
 70
    32
  0
VERTEX
  8
T23SSILL
 62
17
 10
-769.474
 20
-1881.924
 30
2934.382
 70
    32
  0
VERTEX
  8
T23SSILL
 62
17
 10
-755.941
 20
-1905.944
 30
2934.411
 70
    32
  0
VERTEX
  8
T23SSILL
 62
17
 10
-729.547
 20
-1910.060
 30
2934.594
 70
    32
  0
VERTEX
  8
T23SSILL
 62
17
 10
-725.063
 20
-1902.449
 30
2934.650
 70
    32
  0
VERTEX
  8
T23SSILL
 62
17
 10
-725.909
 20
-1897.839
 30
2934.658
 70
    32
  0
SEQEND
  8
T23SSILL
  0
POLYLINE
  8
T23SSILL
 62
17
 66
     1
 70
     9
  0
VERTEX
  8
T23SSILL
 62
17
 10
-715.933
 20
-1927.599
 30
2934.644
 70
    32
  0
VERTEX
  8
T23SSILL
 62
17
 10
-726.865
 20
-1920.194
 30
2934.584
 70
    32
  0
VERTEX
  8
T23SSILL
 62
17
 10
-746.376
 20
-1916.410
 30
2934.451
 70
    32
  0
VERTEX
  8
T23SSILL
 62
17
 10
-749.285
 20
-1920.048
 30
2934.419
 70
    32
  0
VERTEX
  8
T23SSILL
 62
17
 10
-739.141
 20
-1937.604
 30
2934.442
 70
    32
  0
VERTEX
  8
T23SSILL
 62
17
 10
-712.042
 20
-1941.644
 30
2934.631
 70
    32
  0
VERTEX
  8
T23SSILL
 62
17
 10
-711.439
 20
-1939.028
 30
2934.643
 70
    32
  0
VERTEX
  8
T23SSILL
 62
17
 10
-715.933
 20
-1927.599
 30
2934.644
 70
    32
  0
SEQEND
  8
T23SSILL
  0
POLYLINE
  8
T23SSILL
 62
17
 66
     1
 70
     9
  0
VERTEX
  8
T23SSILL
 62
17
 10
-478.736
 20
-2477.723
 30
2933.624
 70
    32
  0
VERTEX
  8
T23SSILL
 62
17
 10
-487.287
 20
-2484.815
 30
2933.624
 70
    32
  0
VERTEX
  8
T23SSILL
 62
17
 10
-477.524
 20
-2492.114
 30
2933.657
 70
    32
  0
VERTEX
  8
T23SSILL
 62
17
 10
-471.863
 20
-2488.015
 30
2933.659
 70
    32
  0
VERTEX
  8
T23SSILL
 62
17
 10
-478.736
 20
-2477.723
 30
2933.624
 70
    32
  0
SEQEND
  8
T23SSILL
  0
POLYLINE
  8
T23SSILL
 62
17
 66
     1
 70
     9
  0
VERTEX
  8
T23SSILL
 62
17
 10
-752.530
 20
-2021.349
 30
2934.095
 70
    32
  0
VERTEX
  8
T23SSILL
 62
17
 10
-770.043
 20
-2021.665
 30
2933.964
 70
    32
  0
VERTEX
  8
T23SSILL
 62
17
 10
-770.713
 20
-2027.485
 30
2933.942
 70
    32
  0
VERTEX
  8
T23SSILL
 62
17
 10
-751.872
 20
-2026.749
 30
2934.084
 70
    32
  0
VERTEX
  8
T23SSILL
 62
17
 10
-752.530
 20
-2021.349
 30
2934.095
 70
    32
  0
SEQEND
  8
T23SSILL
  0
POLYLINE
  8
T23SSILL
 62
17
 66
     1
 70
     9
  0
VERTEX
  8
T23SSILL
 62
17
 10
2491.118
 20
-3649.875
 30
2935.533
 70
    32
  0
VERTEX
  8
T23SSILL
 62
17
 10
2506.016
 20
-3639.448
 30
2935.548
 70
    32
  0
VERTEX
  8
T23SSILL
 62
17
 10
2498.972
 20
-3630.044
 30
2935.523
 70
    32
  0
VERTEX
  8
T23SSILL
 62
17
 10
2477.725
 20
-3642.555
 30
2935.499
 70
    32
  0
VERTEX
  8
T23SSILL
 62
17
 10
2465.376
 20
-3625.690
 30
2935.455
 70
    32
  0
VERTEX
  8
T23SSILL
 62
17
 10
2448.767
 20
-3637.840
 30
2935.439
 70
    32
  0
VERTEX
  8
T23SSILL
 62
17
 10
2462.588
 20
-3655.151
 30
2935.487
 70
    32
  0
VERTEX
  8
T23SSILL
 62
17
 10
2456.674
 20
-3659.498
 30
2935.481
 70
    32
  0
VERTEX
  8
T23SSILL
 62
17
 10
2466.490
 20
-3673.773
 30
2935.517
 70
    32
  0
VERTEX
  8
T23SSILL
 62
17
 10
2493.983
 20
-3654.219
 30
2935.544
 70
    32
  0
VERTEX
  8
T23SSILL
 62
17
 10
2491.118
 20
-3649.875
 30
2935.533
 70
    32
  0
SEQEND
  8
T23SSILL
  0
POLYLINE
  8
T23SSILL
 62
17
 66
     1
 70
     9
  0
VERTEX
  8
T23SSILL
 62
17
 10
1915.408
 20
-2517.501
 30
2935.040
 70
    32
  0
VERTEX
  8
T23SSILL
 62
17
 10
1929.116
 20
-2506.534
 30
2935.176
 70
    32
  0
VERTEX
  8
T23SSILL
 62
17
 10
1916.833
 20
-2491.677
 30
2935.343
 70
    32
  0
VERTEX
  8
T23SSILL
 62
17
 10
1903.476
 20
-2502.337
 30
2935.211
 70
    32
  0
VERTEX
  8
T23SSILL
 62
17
 10
1915.408
 20
-2517.501
 30
2935.040
 70
    32
  0
SEQEND
  8
T23SSILL
  0
POLYLINE
  8
T23SSILL
 62
17
 66
     1
 70
     9
  0
VERTEX
  8
T23SSILL
 62
17
 10
646.094
 20
-2355.588
 30
2934.680
 70
    32
  0
VERTEX
  8
T23SSILL
 62
17
 10
653.842
 20
-2366.085
 30
2934.669
 70
    32
  0
VERTEX
  8
T23SSILL
 62
17
 10
658.645
 20
-2362.499
 30
2934.687
 70
    32
  0
VERTEX
  8
T23SSILL
 62
17
 10
651.358
 20
-2352.313
 30
2934.698
 70
    32
  0
VERTEX
  8
T23SSILL
 62
17
 10
646.094
 20
-2355.588
 30
2934.680
 70
    32
  0
SEQEND
  8
T23SSILL
  0
POLYLINE
  8
T23SSILL
 62
17
 66
     1
 70
     9
  0
VERTEX
  8
T23SSILL
 62
17
 10
578.336
 20
-2262.820
 30
2934.776
 70
    32
  0
VERTEX
  8
T23SSILL
 62
17
 10
586.219
 20
-2272.769
 30
2934.767
 70
    32
  0
VERTEX
  8
T23SSILL
 62
17
 10
590.355
 20
-2269.473
 30
2934.783
 70
    32
  0
VERTEX
  8
T23SSILL
 62
17
 10
583.542
 20
-2259.035
 30
2934.795
 70
    32
  0
VERTEX
  8
T23SSILL
 62
17
 10
578.336
 20
-2262.820
 30
2934.776
 70
    32
  0
SEQEND
  8
T23SSILL
  0
POLYLINE
  8
T23SSILL
 62
17
 66
     1
 70
     9
  0
VERTEX
  8
T23SSILL
 62
17
 10
-733.251
 20
-1304.724
 30
2934.625
 70
    32
  0
VERTEX
  8
T23SSILL
 62
17
 10
-741.003
 20
-1317.124
 30
2934.610
 70
    32
  0
VERTEX
  8
T23SSILL
 62
17
 10
-752.741
 20
-1299.529
 30
2934.617
 70
    32
  0
VERTEX
  8
T23SSILL
 62
17
 10
-740.112
 20
-1290.460
 30
2934.633
 70
    32
  0
VERTEX
  8
T23SSILL
 62
17
 10
-732.198
 20
-1299.715
 30
2934.630
 70
    32
  0
VERTEX
  8
T23SSILL
 62
17
 10
-735.002
 20
-1302.179
 30
2934.626
 70
    32
  0
VERTEX
  8
T23SSILL
 62
17
 10
-733.251
 20
-1304.724
 30
2934.625
 70
    32
  0
SEQEND
  8
T23SSILL
  0
POLYLINE
  8
T23SSILL
 62
17
 66
     1
 70
     9
  0
VERTEX
  8
T23SSILL
 62
17
 10
-602.535
 20
-2320.631
 30
2933.011
 70
    32
  0
VERTEX
  8
T23SSILL
 62
17
 10
-604.498
 20
-2318.646
 30
2933.019
 70
    32
  0
VERTEX
  8
T23SSILL
 62
17
 10
-597.445
 20
-2310.409
 30
2932.982
 70
    32
  0
VERTEX
  8
T23SSILL
 62
17
 10
-591.552
 20
-2317.978
 30
2932.961
 70
    32
  0
VERTEX
  8
T23SSILL
 62
17
 10
-580.231
 20
-2304.365
 30
2932.902
 70
    32
  0
VERTEX
  8
T23SSILL
 62
17
 10
-678.240
 20
-2289.209
 30
2933.286
 70
    32
  0
VERTEX
  8
T23SSILL
 62
17
 10
-678.607
 20
-2290.092
 30
2933.285
 70
    32
  0
VERTEX
  8
T23SSILL
 62
17
 10
-624.803
 20
-2363.550
 30
2933.140
 70
    32
  0
VERTEX
  8
T23SSILL
 62
17
 10
-621.445
 20
-2362.371
 30
2933.124
 70
    32
  0
VERTEX
  8
T23SSILL
 62
17
 10
-602.535
 20
-2320.631
 30
2933.011
 70
    32
  0
SEQEND
  8
T23SSILL
  0
POLYLINE
  8
T23SSILL
 62
17
 66
     1
 70
     9
  0
VERTEX
  8
T23SSILL
 62
17
 10
-652.535
 20
-2256.219
 30
2933.374
 70
    32
  0
VERTEX
  8
T23SSILL
 62
17
 10
-664.183
 20
-2251.983
 30
2933.365
 70
    32
  0
VERTEX
  8
T23SSILL
 62
17
 10
-703.513
 20
-2249.108
 30
2933.397
 70
    32
  0
VERTEX
  8
T23SSILL
 62
17
 10
-708.489
 20
-2250.410
 30
2933.400
 70
    32
  0
VERTEX
  8
T23SSILL
 62
17
 10
-692.346
 20
-2273.009
 30
2933.336
 70
    32
  0
VERTEX
  8
T23SSILL
 62
17
 10
-676.604
 20
-2274.301
 30
2933.314
 70
    32
  0
VERTEX
  8
T23SSILL
 62
17
 10
-677.582
 20
-2280.480
 30
2933.303
 70
    32
  0
VERTEX
  8
T23SSILL
 62
17
 10
-625.402
 20
-2287.958
 30
2933.090
 70
    32
  0
VERTEX
  8
T23SSILL
 62
17
 10
-647.949
 20
-2257.198
 30
2933.345
 70
    32
  0
VERTEX
  8
T23SSILL
 62
17
 10
-652.535
 20
-2256.219
 30
2933.374
 70
    32
  0
SEQEND
  8
T23SSILL
  0
POLYLINE
  8
T23SSILL
 62
17
 66
     1
 70
     9
  0
VERTEX
  8
T23SSILL
 62
17
 10
-661.197
 20
-2241.487
 30
2933.396
 70
    32
  0
VERTEX
  8
T23SSILL
 62
17
 10
-663.161
 20
-2235.359
 30
2933.403
 70
    32
  0
VERTEX
  8
T23SSILL
 62
17
 10
-676.753
 20
-2217.221
 30
2933.426
 70
    32
  0
VERTEX
  8
T23SSILL
 62
17
 10
-687.004
 20
-2212.690
 30
2933.448
 70
    32
  0
VERTEX
  8
T23SSILL
 62
17
 10
-734.254
 20
-2208.298
 30
2933.678
 70
    32
  0
VERTEX
  8
T23SSILL
 62
17
 10
-737.145
 20
-2212.247
 30
2933.645
 70
    32
  0
VERTEX
  8
T23SSILL
 62
17
 10
-720.192
 20
-2234.944
 30
2933.445
 70
    32
  0
VERTEX
  8
T23SSILL
 62
17
 10
-704.473
 20
-2239.865
 30
2933.416
 70
    32
  0
VERTEX
  8
T23SSILL
 62
17
 10
-661.245
 20
-2243.008
 30
2933.393
 70
    32
  0
VERTEX
  8
T23SSILL
 62
17
 10
-661.197
 20
-2241.487
 30
2933.396
 70
    32
  0
SEQEND
  8
T23SSILL
  0
POLYLINE
  8
T23SSILL
 62
17
 66
     1
 70
     9
  0
VERTEX
  8
T23SSILL
 62
17
 10
-623.902
 20
-2116.385
 30
2933.766
 70
    32
  0
VERTEX
  8
T23SSILL
 62
17
 10
-622.309
 20
-2114.369
 30
2933.775
 70
    32
  0
VERTEX
  8
T23SSILL
 62
17
 10
-621.138
 20
-2108.921
 30
2933.790
 70
    32
  0
VERTEX
  8
T23SSILL
 62
17
 10
-623.898
 20
-2097.736
 30
2933.805
 70
    32
  0
VERTEX
  8
T23SSILL
 62
17
 10
-620.185
 20
-2093.884
 30
2933.824
 70
    32
  0
VERTEX
  8
T23SSILL
 62
17
 10
-619.551
 20
-2090.192
 30
2933.833
 70
    32
  0
VERTEX
  8
T23SSILL
 62
17
 10
-620.576
 20
-2084.117
 30
2933.843
 70
    32
  0
VERTEX
  8
T23SSILL
 62
17
 10
-627.685
 20
-2071.605
 30
2933.849
 70
    32
  0
VERTEX
  8
T23SSILL
 62
17
 10
-623.790
 20
-2063.905
 30
2933.877
 70
    32
  0
VERTEX
  8
T23SSILL
 62
17
 10
-640.081
 20
-2041.723
 30
2933.877
 70
    32
  0
VERTEX
  8
T23SSILL
 62
17
 10
-655.457
 20
-2036.360
 30
2933.844
 70
    32
  0
VERTEX
  8
T23SSILL
 62
17
 10
-710.992
 20
-2035.798
 30
2934.361
 70
    32
  0
VERTEX
  8
T23SSILL
 62
17
 10
-721.780
 20
-2037.151
 30
2934.277
 70
    32
  0
VERTEX
  8
T23SSILL
 62
17
 10
-745.279
 20
-2067.713
 30
2934.012
 70
    32
  0
VERTEX
  8
T23SSILL
 62
17
 10
-751.774
 20
-2073.747
 30
2933.946
 70
    32
  0
VERTEX
  8
T23SSILL
 62
17
 10
-749.390
 20
-2086.717
 30
2933.925
 70
    32
  0
VERTEX
  8
T23SSILL
 62
17
 10
-752.355
 20
-2089.121
 30
2933.896
 70
    32
  0
VERTEX
  8
T23SSILL
 62
17
 10
-746.878
 20
-2108.954
 30
2933.878
 70
    32
  0
VERTEX
  8
T23SSILL
 62
17
 10
-755.366
 20
-2111.951
 30
2933.807
 70
    32
  0
VERTEX
  8
T23SSILL
 62
17
 10
-761.157
 20
-2090.106
 30
2933.828
 70
    32
  0
VERTEX
  8
T23SSILL
 62
17
 10
-792.496
 20
-2134.720
 30
2933.489
 70
    32
  0
VERTEX
  8
T23SSILL
 62
17
 10
-791.734
 20
-2138.250
 30
2933.485
 70
    32
  0
VERTEX
  8
T23SSILL
 62
17
 10
-748.063
 20
-2197.639
 30
2933.608
 70
    32
  0
VERTEX
  8
T23SSILL
 62
17
 10
-686.199
 20
-2203.225
 30
2933.465
 70
    32
  0
VERTEX
  8
T23SSILL
 62
17
 10
-702.351
 20
-2180.963
 30
2933.529
 70
    32
  0
VERTEX
  8
T23SSILL
 62
17
 10
-695.184
 20
-2174.739
 30
2933.532
 70
    32
  0
VERTEX
  8
T23SSILL
 62
17
 10
-612.676
 20
-2289.988
 30
2933.035
 70
    32
  0
VERTEX
  8
T23SSILL
 62
17
 10
-579.941
 20
-2294.925
 30
2932.894
 70
    32
  0
VERTEX
  8
T23SSILL
 62
17
 10
-572.464
 20
-2291.955
 30
2932.859
 70
    32
  0
VERTEX
  8
T23SSILL
 62
17
 10
-566.040
 20
-2292.663
 30
2932.831
 70
    32
  0
VERTEX
  8
T23SSILL
 62
17
 10
-561.038
 20
-2291.876
 30
2932.808
 70
    32
  0
VERTEX
  8
T23SSILL
 62
17
 10
-529.963
 20
-2261.998
 30
2932.738
 70
    32
  0
VERTEX
  8
T23SSILL
 62
17
 10
-532.979
 20
-2260.822
 30
2932.760
 70
    32
  0
VERTEX
  8
T23SSILL
 62
17
 10
-536.832
 20
-2253.297
 30
2932.822
 70
    32
  0
VERTEX
  8
T23SSILL
 62
17
 10
-539.947
 20
-2250.062
 30
2932.856
 70
    32
  0
VERTEX
  8
T23SSILL
 62
17
 10
-552.611
 20
-2243.065
 30
2932.958
 70
    32
  0
VERTEX
  8
T23SSILL
 62
17
 10
-561.017
 20
-2243.542
 30
2932.997
 70
    32
  0
VERTEX
  8
T23SSILL
 62
17
 10
-564.001
 20
-2242.120
 30
2933.020
 70
    32
  0
VERTEX
  8
T23SSILL
 62
17
 10
-571.259
 20
-2233.375
 30
2933.105
 70
    32
  0
VERTEX
  8
T23SSILL
 62
17
 10
-566.115
 20
-2224.956
 30
2933.128
 70
    32
  0
VERTEX
  8
T23SSILL
 62
17
 10
-566.981
 20
-2222.049
 30
2933.149
 70
    32
  0
VERTEX
  8
T23SSILL
 62
17
 10
-571.442
 20
-2216.925
 30
2933.201
 70
    32
  0
VERTEX
  8
T23SSILL
 62
17
 10
-563.146
 20
-2211.424
 30
2933.192
 70
    32
  0
VERTEX
  8
T23SSILL
 62
17
 10
-562.870
 20
-2208.962
 30
2933.204
 70
    32
  0
VERTEX
  8
T23SSILL
 62
17
 10
-567.686
 20
-2204.628
 30
2933.253
 70
    32
  0
VERTEX
  8
T23SSILL
 62
17
 10
-573.749
 20
-2203.279
 30
2933.290
 70
    32
  0
VERTEX
  8
T23SSILL
 62
17
 10
-576.041
 20
-2204.147
 30
2933.297
 70
    32
  0
VERTEX
  8
T23SSILL
 62
17
 10
-580.516
 20
-2201.838
 30
2933.332
 70
    32
  0
VERTEX
  8
T23SSILL
 62
17
 10
-584.628
 20
-2197.419
 30
2933.377
 70
    32
  0
VERTEX
  8
T23SSILL
 62
17
 10
-586.281
 20
-2193.628
 30
2933.407
 70
    32
  0
VERTEX
  8
T23SSILL
 62
17
 10
-588.315
 20
-2177.960
 30
2933.507
 70
    32
  0
VERTEX
  8
T23SSILL
 62
17
 10
-589.888
 20
-2175.754
 30
2933.528
 70
    32
  0
VERTEX
  8
T23SSILL
 62
17
 10
-611.882
 20
-2158.492
 30
2933.712
 70
    32
  0
VERTEX
  8
T23SSILL
 62
17
 10
-611.775
 20
-2154.622
 30
2933.720
 70
    32
  0
VERTEX
  8
T23SSILL
 62
17
 10
-618.948
 20
-2146.494
 30
2933.717
 70
    32
  0
VERTEX
  8
T23SSILL
 62
17
 10
-620.427
 20
-2143.056
 30
2933.720
 70
    32
  0
VERTEX
  8
T23SSILL
 62
17
 10
-623.439
 20
-2129.582
 30
2933.740
 70
    32
  0
VERTEX
  8
T23SSILL
 62
17
 10
-620.339
 20
-2125.199
 30
2933.758
 70
    32
  0
VERTEX
  8
T23SSILL
 62
17
 10
-620.507
 20
-2123.703
 30
2933.760
 70
    32
  0
VERTEX
  8
T23SSILL
 62
17
 10
-624.434
 20
-2117.262
 30
2933.763
 70
    32
  0
VERTEX
  8
T23SSILL
 62
17
 10
-623.902
 20
-2116.385
 30
2933.766
 70
    32
  0
SEQEND
  8
T23SSILL
  0
POLYLINE
  8
T23SSILL
 62
17
 66
     1
 70
     9
  0
VERTEX
  8
T23SSILL
 62
17
 10
-777.141
 20
-2095.458
 30
2933.694
 70
    32
  0
VERTEX
  8
T23SSILL
 62
17
 10
-781.289
 20
-2086.535
 30
2933.689
 70
    32
  0
VERTEX
  8
T23SSILL
 62
17
 10
-781.366
 20
-2077.660
 30
2933.715
 70
    32
  0
VERTEX
  8
T23SSILL
 62
17
 10
-783.943
 20
-2073.321
 30
2933.709
 70
    32
  0
VERTEX
  8
T23SSILL
 62
17
 10
-802.763
 20
-2094.808
 30
2933.533
 70
    32
  0
VERTEX
  8
T23SSILL
 62
17
 10
-795.836
 20
-2121.751
 30
2933.504
 70
    32
  0
VERTEX
  8
T23SSILL
 62
17
 10
-792.014
 20
-2116.375
 30
2933.522
 70
    32
  0
VERTEX
  8
T23SSILL
 62
17
 10
-777.141
 20
-2095.458
 30
2933.694
 70
    32
  0
SEQEND
  8
T23SSILL
  0
POLYLINE
  8
T23SSILL
 62
17
 66
     1
 70
     9
  0
VERTEX
  8
T23SSILL
 62
17
 10
-805.123
 20
-2082.354
 30
2933.549
 70
    32
  0
VERTEX
  8
T23SSILL
 62
17
 10
-773.093
 20
-2047.056
 30
2933.867
 70
    32
  0
VERTEX
  8
T23SSILL
 62
17
 10
-782.549
 20
-2013.617
 30
2933.895
 70
    32
  0
VERTEX
  8
T23SSILL
 62
17
 10
-811.805
 20
-2055.141
 30
2933.580
 70
    32
  0
VERTEX
  8
T23SSILL
 62
17
 10
-805.123
 20
-2082.354
 30
2933.549
 70
    32
  0
SEQEND
  8
T23SSILL
  0
POLYLINE
  8
T23SSILL
 62
17
 66
     1
 70
     9
  0
VERTEX
  8
T23SSILL
 62
17
 10
-426.918
 20
-2075.043
 30
2934.368
 70
    32
  0
VERTEX
  8
T23SSILL
 62
17
 10
-475.405
 20
-2006.118
 30
2934.398
 70
    32
  0
VERTEX
  8
T23SSILL
 62
17
 10
-480.360
 20
-2001.879
 30
2934.378
 70
    32
  0
VERTEX
  8
T23SSILL
 62
17
 10
-488.477
 20
-1998.156
 30
2934.319
 70
    32
  0
VERTEX
  8
T23SSILL
 62
17
 10
-499.094
 20
-1998.332
 30
2934.200
 70
    32
  0
VERTEX
  8
T23SSILL
 62
17
 10
-505.198
 20
-2000.812
 30
2934.116
 70
    32
  0
VERTEX
  8
T23SSILL
 62
17
 10
-579.220
 20
-2052.973
 30
2934.027
 70
    32
  0
VERTEX
  8
T23SSILL
 62
17
 10
-592.706
 20
-2051.876
 30
2933.991
 70
    32
  0
VERTEX
  8
T23SSILL
 62
17
 10
-586.426
 20
-2057.782
 30
2933.996
 70
    32
  0
VERTEX
  8
T23SSILL
 62
17
 10
-515.024
 20
-2176.425
 30
2933.156
 70
    32
  0
VERTEX
  8
T23SSILL
 62
17
 10
-480.252
 20
-2149.122
 30
2933.168
 70
    32
  0
VERTEX
  8
T23SSILL
 62
17
 10
-476.390
 20
-2133.895
 30
2933.336
 70
    32
  0
VERTEX
  8
T23SSILL
 62
17
 10
-463.016
 20
-2116.993
 30
2933.623
 70
    32
  0
VERTEX
  8
T23SSILL
 62
17
 10
-447.711
 20
-2125.905
 30
2933.719
 70
    32
  0
VERTEX
  8
T23SSILL
 62
17
 10
-435.410
 20
-2116.629
 30
2933.932
 70
    32
  0
VERTEX
  8
T23SSILL
 62
17
 10
-438.699
 20
-2112.022
 30
2933.933
 70
    32
  0
VERTEX
  8
T23SSILL
 62
17
 10
-429.142
 20
-2105.003
 30
2934.097
 70
    32
  0
VERTEX
  8
T23SSILL
 62
17
 10
-425.240
 20
-2109.732
 30
2934.101
 70
    32
  0
VERTEX
  8
T23SSILL
 62
17
 10
-409.771
 20
-2108.225
 30
2934.285
 70
    32
  0
VERTEX
  8
T23SSILL
 62
17
 10
-402.696
 20
-2109.999
 30
2934.349
 70
    32
  0
VERTEX
  8
T23SSILL
 62
17
 10
-426.918
 20
-2075.043
 30
2934.368
 70
    32
  0
SEQEND
  8
T23SSILL
  0
POLYLINE
  8
T23SSILL
 62
17
 66
     1
 70
     9
  0
VERTEX
  8
T23SSILL
 62
17
 10
-408.064
 20
-2130.044
 30
2934.124
 70
    32
  0
VERTEX
  8
T23SSILL
 62
17
 10
-405.320
 20
-2127.149
 30
2934.178
 70
    32
  0
VERTEX
  8
T23SSILL
 62
17
 10
-409.346
 20
-2120.165
 30
2934.191
 70
    32
  0
VERTEX
  8
T23SSILL
 62
17
 10
-405.646
 20
-2117.269
 30
2934.256
 70
    32
  0
VERTEX
  8
T23SSILL
 62
17
 10
-400.546
 20
-2117.584
 30
2934.310
 70
    32
  0
VERTEX
  8
T23SSILL
 62
17
 10
-392.741
 20
-2123.534
 30
2934.347
 70
    32
  0
VERTEX
  8
T23SSILL
 62
17
 10
-290.713
 20
-2264.666
 30
2934.440
 70
    32
  0
VERTEX
  8
T23SSILL
 62
17
 10
-302.844
 20
-2263.111
 30
2934.365
 70
    32
  0
VERTEX
  8
T23SSILL
 62
17
 10
-314.729
 20
-2264.899
 30
2934.275
 70
    32
  0
VERTEX
  8
T23SSILL
 62
17
 10
-373.367
 20
-2307.121
 30
2933.696
 70
    32
  0
VERTEX
  8
T23SSILL
 62
17
 10
-383.881
 20
-2311.605
 30
2933.604
 70
    32
  0
VERTEX
  8
T23SSILL
 62
17
 10
-396.311
 20
-2313.204
 30
2933.456
 70
    32
  0
VERTEX
  8
T23SSILL
 62
17
 10
-410.999
 20
-2310.784
 30
2933.211
 70
    32
  0
VERTEX
  8
T23SSILL
 62
17
 10
-425.983
 20
-2304.097
 30
2932.977
 70
    32
  0
VERTEX
  8
T23SSILL
 62
17
 10
-432.606
 20
-2297.995
 30
2932.865
 70
    32
  0
VERTEX
  8
T23SSILL
 62
17
 10
-463.786
 20
-2261.623
 30
2932.424
 70
    32
  0
VERTEX
  8
T23SSILL
 62
17
 10
-511.294
 20
-2182.627
 30
2933.102
 70
    32
  0
VERTEX
  8
T23SSILL
 62
17
 10
-492.791
 20
-2168.549
 30
2933.092
 70
    32
  0
VERTEX
  8
T23SSILL
 62
17
 10
-484.739
 20
-2182.837
 30
2932.970
 70
    32
  0
VERTEX
  8
T23SSILL
 62
17
 10
-474.492
 20
-2181.309
 30
2932.967
 70
    32
  0
VERTEX
  8
T23SSILL
 62
17
 10
-466.472
 20
-2184.564
 30
2933.029
 70
    32
  0
VERTEX
  8
T23SSILL
 62
17
 10
-465.438
 20
-2189.932
 30
2932.996
 70
    32
  0
VERTEX
  8
T23SSILL
 62
17
 10
-466.093
 20
-2199.936
 30
2932.906
 70
    32
  0
VERTEX
  8
T23SSILL
 62
17
 10
-468.591
 20
-2204.155
 30
2932.844
 70
    32
  0
VERTEX
  8
T23SSILL
 62
17
 10
-476.112
 20
-2211.197
 30
2932.765
 70
    32
  0
VERTEX
  8
T23SSILL
 62
17
 10
-475.667
 20
-2216.320
 30
2932.734
 70
    32
  0
VERTEX
  8
T23SSILL
 62
17
 10
-468.872
 20
-2221.562
 30
2932.698
 70
    32
  0
VERTEX
  8
T23SSILL
 62
17
 10
-469.674
 20
-2230.707
 30
2932.622
 70
    32
  0
VERTEX
  8
T23SSILL
 62
17
 10
-468.248
 20
-2236.664
 30
2932.580
 70
    32
  0
VERTEX
  8
T23SSILL
 62
17
 10
-469.199
 20
-2243.039
 30
2932.548
 70
    32
  0
VERTEX
  8
T23SSILL
 62
17
 10
-462.062
 20
-2246.883
 30
2932.565
 70
    32
  0
VERTEX
  8
T23SSILL
 62
17
 10
-458.602
 20
-2251.588
 30
2932.564
 70
    32
  0
VERTEX
  8
T23SSILL
 62
17
 10
-456.662
 20
-2255.926
 30
2932.550
 70
    32
  0
VERTEX
  8
T23SSILL
 62
17
 10
-451.042
 20
-2262.909
 30
2932.564
 70
    32
  0
VERTEX
  8
T23SSILL
 62
17
 10
-444.387
 20
-2277.492
 30
2932.668
 70
    32
  0
VERTEX
  8
T23SSILL
 62
17
 10
-438.773
 20
-2277.144
 30
2932.762
 70
    32
  0
VERTEX
  8
T23SSILL
 62
17
 10
-456.485
 20
-2230.085
 30
2932.765
 70
    32
  0
VERTEX
  8
T23SSILL
 62
17
 10
-459.779
 20
-2217.829
 30
2932.829
 70
    32
  0
VERTEX
  8
T23SSILL
 62
17
 10
-461.088
 20
-2204.566
 30
2932.924
 70
    32
  0
VERTEX
  8
T23SSILL
 62
17
 10
-457.904
 20
-2201.058
 30
2932.988
 70
    32
  0
VERTEX
  8
T23SSILL
 62
17
 10
-455.256
 20
-2200.247
 30
2933.024
 70
    32
  0
VERTEX
  8
T23SSILL
 62
17
 10
-455.066
 20
-2192.254
 30
2933.092
 70
    32
  0
VERTEX
  8
T23SSILL
 62
17
 10
-441.510
 20
-2190.111
 30
2933.259
 70
    32
  0
VERTEX
  8
T23SSILL
 62
17
 10
-440.730
 20
-2183.638
 30
2933.321
 70
    32
  0
VERTEX
  8
T23SSILL
 62
17
 10
-458.705
 20
-2178.527
 30
2933.164
 70
    32
  0
VERTEX
  8
T23SSILL
 62
17
 10
-464.307
 20
-2160.903
 30
2933.247
 70
    32
  0
VERTEX
  8
T23SSILL
 62
17
 10
-462.156
 20
-2152.983
 30
2933.336
 70
    32
  0
VERTEX
  8
T23SSILL
 62
17
 10
-456.378
 20
-2141.578
 30
2933.494
 70
    32
  0
VERTEX
  8
T23SSILL
 62
17
 10
-445.571
 20
-2134.362
 30
2933.673
 70
    32
  0
VERTEX
  8
T23SSILL
 62
17
 10
-438.732
 20
-2132.984
 30
2933.760
 70
    32
  0
VERTEX
  8
T23SSILL
 62
17
 10
-433.657
 20
-2133.422
 30
2933.813
 70
    32
  0
VERTEX
  8
T23SSILL
 62
17
 10
-422.253
 20
-2137.925
 30
2933.902
 70
    32
  0
VERTEX
  8
T23SSILL
 62
17
 10
-416.978
 20
-2142.800
 30
2933.920
 70
    32
  0
VERTEX
  8
T23SSILL
 62
17
 10
-413.733
 20
-2155.301
 30
2933.854
 70
    32
  0
VERTEX
  8
T23SSILL
 62
17
 10
-407.950
 20
-2150.908
 30
2933.954
 70
    32
  0
VERTEX
  8
T23SSILL
 62
17
 10
-412.836
 20
-2141.522
 30
2933.977
 70
    32
  0
VERTEX
  8
T23SSILL
 62
17
 10
-404.554
 20
-2135.141
 30
2934.121
 70
    32
  0
VERTEX
  8
T23SSILL
 62
17
 10
-408.064
 20
-2130.044
 30
2934.124
 70
    32
  0
SEQEND
  8
T23SSILL
  0
POLYLINE
  8
T23SSILL
 62
17
 66
     1
 70
     9
  0
VERTEX
  8
T23SSILL
 62
17
 10
-492.847
 20
-2249.770
 30
2932.626
 70
    32
  0
VERTEX
  8
T23SSILL
 62
17
 10
-502.532
 20
-2249.431
 30
2932.676
 70
    32
  0
VERTEX
  8
T23SSILL
 62
17
 10
-511.284
 20
-2251.127
 30
2932.709
 70
    32
  0
VERTEX
  8
T23SSILL
 62
17
 10
-519.104
 20
-2254.220
 30
2932.729
 70
    32
  0
VERTEX
  8
T23SSILL
 62
17
 10
-535.907
 20
-2240.155
 30
2932.893
 70
    32
  0
VERTEX
  8
T23SSILL
 62
17
 10
-536.276
 20
-2239.089
 30
2932.901
 70
    32
  0
VERTEX
  8
T23SSILL
 62
17
 10
-529.793
 20
-2226.542
 30
2932.941
 70
    32
  0
VERTEX
  8
T23SSILL
 62
17
 10
-541.295
 20
-2204.230
 30
2933.125
 70
    32
  0
VERTEX
  8
T23SSILL
 62
17
 10
-519.133
 20
-2188.272
 30
2933.108
 70
    32
  0
VERTEX
  8
T23SSILL
 62
17
 10
-481.591
 20
-2252.462
 30
2932.555
 70
    32
  0
VERTEX
  8
T23SSILL
 62
17
 10
-488.433
 20
-2250.332
 30
2932.601
 70
    32
  0
VERTEX
  8
T23SSILL
 62
17
 10
-492.847
 20
-2249.770
 30
2932.626
 70
    32
  0
SEQEND
  8
T23SSILL
  0
POLYLINE
  8
T23SSILL
 62
17
 66
     1
 70
     9
  0
VERTEX
  8
T23SSILL
 62
17
 10
-535.150
 20
-1977.127
 30
2934.313
 70
    32
  0
VERTEX
  8
T23SSILL
 62
17
 10
-548.257
 20
-1976.213
 30
2934.277
 70
    32
  0
VERTEX
  8
T23SSILL
 62
17
 10
-603.350
 20
-1992.766
 30
2934.085
 70
    32
  0
VERTEX
  8
T23SSILL
 62
17
 10
-603.743
 20
-1991.859
 30
2934.085
 70
    32
  0
VERTEX
  8
T23SSILL
 62
17
 10
-614.478
 20
-1999.980
 30
2934.038
 70
    32
  0
VERTEX
  8
T23SSILL
 62
17
 10
-619.821
 20
-2006.308
 30
2934.009
 70
    32
  0
VERTEX
  8
T23SSILL
 62
17
 10
-621.437
 20
-2009.300
 30
2933.998
 70
    32
  0
VERTEX
  8
T23SSILL
 62
17
 10
-620.504
 20
-2012.610
 30
2933.994
 70
    32
  0
VERTEX
  8
T23SSILL
 62
17
 10
-622.832
 20
-2014.695
 30
2933.983
 70
    32
  0
VERTEX
  8
T23SSILL
 62
17
 10
-630.703
 20
-2014.527
 30
2933.961
 70
    32
  0
VERTEX
  8
T23SSILL
 62
17
 10
-636.617
 20
-2004.869
 30
2933.964
 70
    32
  0
VERTEX
  8
T23SSILL
 62
17
 10
-640.515
 20
-2005.558
 30
2933.951
 70
    32
  0
VERTEX
  8
T23SSILL
 62
17
 10
-646.426
 20
-2001.319
 30
2933.943
 70
    32
  0
VERTEX
  8
T23SSILL
 62
17
 10
-649.005
 20
-1991.243
 30
2933.957
 70
    32
  0
VERTEX
  8
T23SSILL
 62
17
 10
-652.383
 20
-2003.381
 30
2933.922
 70
    32
  0
VERTEX
  8
T23SSILL
 62
17
 10
-650.588
 20
-2013.556
 30
2933.906
 70
    32
  0
VERTEX
  8
T23SSILL
 62
17
 10
-633.732
 20
-2038.017
 30
2933.902
 70
    32
  0
VERTEX
  8
T23SSILL
 62
17
 10
-581.871
 20
-2046.452
 30
2934.033
 70
    32
  0
VERTEX
  8
T23SSILL
 62
17
 10
-577.067
 20
-2042.821
 30
2934.055
 70
    32
  0
VERTEX
  8
T23SSILL
 62
17
 10
-579.955
 20
-2037.507
 30
2934.058
 70
    32
  0
VERTEX
  8
T23SSILL
 62
17
 10
-570.232
 20
-2030.608
 30
2934.100
 70
    32
  0
VERTEX
  8
T23SSILL
 62
17
 10
-566.969
 20
-2035.976
 30
2934.098
 70
    32
  0
VERTEX
  8
T23SSILL
 62
17
 10
-509.467
 20
-1995.052
 30
2934.170
 70
    32
  0
VERTEX
  8
T23SSILL
 62
17
 10
-502.456
 20
-1991.861
 30
2934.216
 70
    32
  0
VERTEX
  8
T23SSILL
 62
17
 10
-494.439
 20
-1990.656
 30
2934.314
 70
    32
  0
VERTEX
  8
T23SSILL
 62
17
 10
-491.620
 20
-1987.712
 30
2934.370
 70
    32
  0
VERTEX
  8
T23SSILL
 62
17
 10
-491.175
 20
-1986.206
 30
2934.387
 70
    32
  0
VERTEX
  8
T23SSILL
 62
17
 10
-502.565
 20
-1968.445
 30
2934.407
 70
    32
  0
VERTEX
  8
T23SSILL
 62
17
 10
-525.822
 20
-1968.865
 30
2934.357
 70
    32
  0
VERTEX
  8
T23SSILL
 62
17
 10
-535.150
 20
-1977.127
 30
2934.313
 70
    32
  0
SEQEND
  8
T23SSILL
  0
POLYLINE
  8
T23SSILL
 62
17
 66
     1
 70
     9
  0
VERTEX
  8
T23SSILL
 62
17
 10
-553.962
 20
-2167.268
 30
2933.400
 70
    32
  0
VERTEX
  8
T23SSILL
 62
17
 10
-555.607
 20
-2162.095
 30
2933.438
 70
    32
  0
VERTEX
  8
T23SSILL
 62
17
 10
-560.686
 20
-2154.325
 30
2933.507
 70
    32
  0
VERTEX
  8
T23SSILL
 62
17
 10
-564.442
 20
-2142.803
 30
2933.592
 70
    32
  0
VERTEX
  8
T23SSILL
 62
17
 10
-573.621
 20
-2125.227
 30
2933.738
 70
    32
  0
VERTEX
  8
T23SSILL
 62
17
 10
-579.680
 20
-2117.899
 30
2933.810
 70
    32
  0
VERTEX
  8
T23SSILL
 62
17
 10
-583.314
 20
-2107.995
 30
2933.884
 70
    32
  0
VERTEX
  8
T23SSILL
 62
17
 10
-585.178
 20
-2106.476
 30
2933.898
 70
    32
  0
VERTEX
  8
T23SSILL
 62
17
 10
-587.899
 20
-2107.973
 30
2933.887
 70
    32
  0
VERTEX
  8
T23SSILL
 62
17
 10
-599.072
 20
-2123.719
 30
2933.822
 70
    32
  0
VERTEX
  8
T23SSILL
 62
17
 10
-601.965
 20
-2124.799
 30
2933.811
 70
    32
  0
VERTEX
  8
T23SSILL
 62
17
 10
-608.630
 20
-2123.233
 30
2933.795
 70
    32
  0
VERTEX
  8
T23SSILL
 62
17
 10
-610.282
 20
-2119.443
 30
2933.799
 70
    32
  0
VERTEX
  8
T23SSILL
 62
17
 10
-611.041
 20
-2094.808
 30
2933.848
 70
    32
  0
VERTEX
  8
T23SSILL
 62
17
 10
-614.007
 20
-2065.347
 30
2933.902
 70
    32
  0
VERTEX
  8
T23SSILL
 62
17
 10
-626.373
 20
-2046.816
 30
2933.905
 70
    32
  0
VERTEX
  8
T23SSILL
 62
17
 10
-620.439
 20
-2048.064
 30
2933.919
 70
    32
  0
VERTEX
  8
T23SSILL
 62
17
 10
-619.506
 20
-2049.780
 30
2933.919
 70
    32
  0
VERTEX
  8
T23SSILL
 62
17
 10
-612.126
 20
-2049.850
 30
2933.940
 70
    32
  0
VERTEX
  8
T23SSILL
 62
17
 10
-606.240
 20
-2051.662
 30
2933.953
 70
    32
  0
VERTEX
  8
T23SSILL
 62
17
 10
-594.908
 20
-2061.635
 30
2933.964
 70
    32
  0
VERTEX
  8
T23SSILL
 62
17
 10
-575.033
 20
-2092.692
 30
2933.931
 70
    32
  0
VERTEX
  8
T23SSILL
 62
17
 10
-522.762
 20
-2182.067
 30
2933.162
 70
    32
  0
VERTEX
  8
T23SSILL
 62
17
 10
-543.972
 20
-2197.533
 30
2933.177
 70
    32
  0
VERTEX
  8
T23SSILL
 62
17
 10
-554.812
 20
-2184.309
 30
2933.306
 70
    32
  0
VERTEX
  8
T23SSILL
 62
17
 10
-555.794
 20
-2180.607
 30
2933.332
 70
    32
  0
VERTEX
  8
T23SSILL
 62
17
 10
-554.155
 20
-2173.030
 30
2933.368
 70
    32
  0
VERTEX
  8
T23SSILL
 62
17
 10
-553.962
 20
-2167.268
 30
2933.400
 70
    32
  0
SEQEND
  8
T23SSILL
  0
POLYLINE
  8
T23SSILL
 62
17
 66
     1
 70
     9
  0
VERTEX
  8
T23SSILL
 62
17
 10
-702.263
 20
-2014.526
 30
2934.420
 70
    32
  0
VERTEX
  8
T23SSILL
 62
17
 10
-697.959
 20
-2021.108
 30
2934.147
 70
    32
  0
VERTEX
  8
T23SSILL
 62
17
 10
-694.255
 20
-2024.268
 30
2933.936
 70
    32
  0
VERTEX
  8
T23SSILL
 62
17
 10
-689.914
 20
-2026.790
 30
2933.816
 70
    32
  0
VERTEX
  8
T23SSILL
 62
17
 10
-681.135
 20
-2028.794
 30
2933.801
 70
    32
  0
VERTEX
  8
T23SSILL
 62
17
 10
-663.262
 20
-2028.658
 30
2933.838
 70
    32
  0
VERTEX
  8
T23SSILL
 62
17
 10
-661.669
 20
-2017.655
 30
2933.865
 70
    32
  0
VERTEX
  8
T23SSILL
 62
17
 10
-699.737
 20
-1985.455
 30
2934.567
 70
    32
  0
VERTEX
  8
T23SSILL
 62
17
 10
-699.156
 20
-1984.292
 30
2934.549
 70
    32
  0
VERTEX
  8
T23SSILL
 62
17
 10
-702.524
 20
-1981.860
 30
2934.583
 70
    32
  0
VERTEX
  8
T23SSILL
 62
17
 10
-715.510
 20
-1979.866
 30
2934.492
 70
    32
  0
VERTEX
  8
T23SSILL
 62
17
 10
-718.943
 20
-1983.231
 30
2934.457
 70
    32
  0
VERTEX
  8
T23SSILL
 62
17
 10
-701.587
 20
-2014.160
 30
2934.390
 70
    32
  0
VERTEX
  8
T23SSILL
 62
17
 10
-702.263
 20
-2014.526
 30
2934.420
 70
    32
  0
SEQEND
  8
T23SSILL
  0
POLYLINE
  8
T23SSILL
 62
17
 66
     1
 70
     9
  0
VERTEX
  8
T23SSILL
 62
17
 10
-703.759
 20
-1965.777
 30
2934.621
 70
    32
  0
VERTEX
  8
T23SSILL
 62
17
 10
-706.346
 20
-1958.622
 30
2934.623
 70
    32
  0
VERTEX
  8
T23SSILL
 62
17
 10
-712.687
 20
-1951.691
 30
2934.596
 70
    32
  0
VERTEX
  8
T23SSILL
 62
17
 10
-725.460
 20
-1948.345
 30
2934.512
 70
    32
  0
VERTEX
  8
T23SSILL
 62
17
 10
-731.384
 20
-1949.928
 30
2934.463
 70
    32
  0
VERTEX
  8
T23SSILL
 62
17
 10
-733.898
 20
-1954.258
 30
2934.432
 70
    32
  0
VERTEX
  8
T23SSILL
 62
17
 10
-726.881
 20
-1968.861
 30
2934.440
 70
    32
  0
VERTEX
  8
T23SSILL
 62
17
 10
-706.002
 20
-1971.978
 30
2934.586
 70
    32
  0
VERTEX
  8
T23SSILL
 62
17
 10
-703.759
 20
-1965.777
 30
2934.621
 70
    32
  0
SEQEND
  8
T23SSILL
  0
POLYLINE
  8
T23SSILL
 62
17
 66
     1
 70
     9
  0
VERTEX
  8
T23SSILL
 62
17
 10
-773.106
 20
-1798.572
 30
2934.601
 70
    32
  0
VERTEX
  8
T23SSILL
 62
17
 10
-779.255
 20
-1794.005
 30
2934.569
 70
    32
  0
VERTEX
  8
T23SSILL
 62
17
 10
-780.445
 20
-1791.169
 30
2934.568
 70
    32
  0
VERTEX
  8
T23SSILL
 62
17
 10
-809.590
 20
-1786.112
 30
2934.367
 70
    32
  0
VERTEX
  8
T23SSILL
 62
17
 10
-811.865
 20
-1790.921
 30
2934.336
 70
    32
  0
VERTEX
  8
T23SSILL
 62
17
 10
-804.396
 20
-1810.639
 30
2934.333
 70
    32
  0
VERTEX
  8
T23SSILL
 62
17
 10
-772.493
 20
-1816.196
 30
2934.553
 70
    32
  0
VERTEX
  8
T23SSILL
 62
17
 10
-750.374
 20
-1837.351
 30
2934.655
 70
    32
  0
VERTEX
  8
T23SSILL
 62
17
 10
-747.945
 20
-1838.438
 30
2934.670
 70
    32
  0
VERTEX
  8
T23SSILL
 62
17
 10
-755.000
 20
-1818.826
 30
2934.675
 70
    32
  0
VERTEX
  8
T23SSILL
 62
17
 10
-764.829
 20
-1797.455
 30
2934.666
 70
    32
  0
VERTEX
  8
T23SSILL
 62
17
 10
-765.551
 20
-1798.634
 30
2934.657
 70
    32
  0
VERTEX
  8
T23SSILL
 62
17
 10
-770.200
 20
-1799.726
 30
2934.619
 70
    32
  0
VERTEX
  8
T23SSILL
 62
17
 10
-773.106
 20
-1798.572
 30
2934.601
 70
    32
  0
SEQEND
  8
T23SSILL
  0
POLYLINE
  8
T23SSILL
 62
17
 66
     1
 70
     9
  0
VERTEX
  8
T23SSILL
 62
17
 10
-464.567
 20
-1796.208
 30
2934.370
 70
    32
  0
VERTEX
  8
T23SSILL
 62
17
 10
-489.789
 20
-1813.995
 30
2934.339
 70
    32
  0
VERTEX
  8
T23SSILL
 62
17
 10
-488.734
 20
-1814.780
 30
2934.339
 70
    32
  0
VERTEX
  8
T23SSILL
 62
17
 10
-485.007
 20
-1814.631
 30
2934.341
 70
    32
  0
VERTEX
  8
T23SSILL
 62
17
 10
-477.012
 20
-1819.286
 30
2934.342
 70
    32
  0
VERTEX
  8
T23SSILL
 62
17
 10
-465.880
 20
-1820.678
 30
2934.348
 70
    32
  0
VERTEX
  8
T23SSILL
 62
17
 10
-460.532
 20
-1825.506
 30
2934.347
 70
    32
  0
VERTEX
  8
T23SSILL
 62
17
 10
-456.610
 20
-1824.057
 30
2934.351
 70
    32
  0
VERTEX
  8
T23SSILL
 62
17
 10
-456.659
 20
-1824.940
 30
2934.350
 70
    32
  0
VERTEX
  8
T23SSILL
 62
17
 10
-448.886
 20
-1826.236
 30
2934.354
 70
    32
  0
VERTEX
  8
T23SSILL
 62
17
 10
-399.286
 20
-1822.682
 30
2934.389
 70
    32
  0
VERTEX
  8
T23SSILL
 62
17
 10
-397.351
 20
-1818.096
 30
2934.394
 70
    32
  0
VERTEX
  8
T23SSILL
 62
17
 10
-440.002
 20
-1790.655
 30
2934.391
 70
    32
  0
VERTEX
  8
T23SSILL
 62
17
 10
-458.586
 20
-1793.066
 30
2934.377
 70
    32
  0
VERTEX
  8
T23SSILL
 62
17
 10
-464.567
 20
-1796.208
 30
2934.370
 70
    32
  0
SEQEND
  8
T23SSILL
  0
POLYLINE
  8
T23SSILL
 62
17
 66
     1
 70
     9
  0
VERTEX
  8
T23SSILL
 62
17
 10
-537.682
 20
-1744.139
 30
2934.369
 70
    32
  0
VERTEX
  8
T23SSILL
 62
17
 10
-547.594
 20
-1729.604
 30
2934.375
 70
    32
  0
VERTEX
  8
T23SSILL
 62
17
 10
-570.605
 20
-1704.998
 30
2934.382
 70
    32
  0
VERTEX
  8
T23SSILL
 62
17
 10
-558.036
 20
-1683.538
 30
2934.408
 70
    32
  0
VERTEX
  8
T23SSILL
 62
17
 10
-555.737
 20
-1672.651
 30
2934.419
 70
    32
  0
VERTEX
  8
T23SSILL
 62
17
 10
-562.852
 20
-1661.351
 30
2934.425
 70
    32
  0
VERTEX
  8
T23SSILL
 62
17
 10
-576.392
 20
-1649.980
 30
2934.426
 70
    32
  0
VERTEX
  8
T23SSILL
 62
17
 10
-583.085
 20
-1651.259
 30
2934.420
 70
    32
  0
VERTEX
  8
T23SSILL
 62
17
 10
-592.305
 20
-1648.909
 30
2934.417
 70
    32
  0
VERTEX
  8
T23SSILL
 62
17
 10
-626.155
 20
-1671.923
 30
2934.375
 70
    32
  0
VERTEX
  8
T23SSILL
 62
17
 10
-621.225
 20
-1676.604
 30
2934.374
 70
    32
  0
VERTEX
  8
T23SSILL
 62
17
 10
-619.799
 20
-1684.474
 30
2934.368
 70
    32
  0
VERTEX
  8
T23SSILL
 62
17
 10
-626.733
 20
-1693.672
 30
2934.356
 70
    32
  0
VERTEX
  8
T23SSILL
 62
17
 10
-636.317
 20
-1700.811
 30
2934.343
 70
    32
  0
VERTEX
  8
T23SSILL
 62
17
 10
-641.389
 20
-1707.066
 30
2934.335
 70
    32
  0
VERTEX
  8
T23SSILL
 62
17
 10
-634.176
 20
-1717.238
 30
2934.330
 70
    32
  0
VERTEX
  8
T23SSILL
 62
17
 10
-624.880
 20
-1724.001
 30
2934.330
 70
    32
  0
VERTEX
  8
T23SSILL
 62
17
 10
-621.593
 20
-1727.971
 30
2934.329
 70
    32
  0
VERTEX
  8
T23SSILL
 62
17
 10
-620.734
 20
-1730.055
 30
2934.328
 70
    32
  0
VERTEX
  8
T23SSILL
 62
17
 10
-622.693
 20
-1735.720
 30
2934.322
 70
    32
  0
VERTEX
  8
T23SSILL
 62
17
 10
-621.782
 20
-1742.658
 30
2934.316
 70
    32
  0
VERTEX
  8
T23SSILL
 62
17
 10
-609.885
 20
-1755.231
 30
2934.313
 70
    32
  0
VERTEX
  8
T23SSILL
 62
17
 10
-597.473
 20
-1765.866
 30
2934.312
 70
    32
  0
VERTEX
  8
T23SSILL
 62
17
 10
-593.623
 20
-1768.610
 30
2934.312
 70
    32
  0
VERTEX
  8
T23SSILL
 62
17
 10
-590.681
 20
-1767.923
 30
2934.314
 70
    32
  0
VERTEX
  8
T23SSILL
 62
17
 10
-577.677
 20
-1786.134
 30
2934.307
 70
    32
  0
VERTEX
  8
T23SSILL
 62
17
 10
-575.615
 20
-1792.410
 30
2934.302
 70
    32
  0
VERTEX
  8
T23SSILL
 62
17
 10
-575.760
 20
-1796.333
 30
2934.299
 70
    32
  0
VERTEX
  8
T23SSILL
 62
17
 10
-577.426
 20
-1798.933
 30
2934.296
 70
    32
  0
VERTEX
  8
T23SSILL
 62
17
 10
-587.549
 20
-1805.582
 30
2934.283
 70
    32
  0
VERTEX
  8
T23SSILL
 62
17
 10
-593.165
 20
-1803.697
 30
2934.281
 70
    32
  0
VERTEX
  8
T23SSILL
 62
17
 10
-606.559
 20
-1789.997
 30
2934.285
 70
    32
  0
VERTEX
  8
T23SSILL
 62
17
 10
-620.372
 20
-1770.094
 30
2934.293
 70
    32
  0
VERTEX
  8
T23SSILL
 62
17
 10
-633.035
 20
-1745.066
 30
2934.307
 70
    32
  0
VERTEX
  8
T23SSILL
 62
17
 10
-636.274
 20
-1741.169
 30
2934.310
 70
    32
  0
VERTEX
  8
T23SSILL
 62
17
 10
-644.955
 20
-1737.397
 30
2934.355
 70
    32
  0
VERTEX
  8
T23SSILL
 62
17
 10
-649.196
 20
-1738.209
 30
2934.382
 70
    32
  0
VERTEX
  8
T23SSILL
 62
17
 10
-652.897
 20
-1741.103
 30
2934.410
 70
    32
  0
VERTEX
  8
T23SSILL
 62
17
 10
-654.808
 20
-1745.248
 30
2934.430
 70
    32
  0
VERTEX
  8
T23SSILL
 62
17
 10
-571.366
 20
-1860.889
 30
2934.277
 70
    32
  0
VERTEX
  8
T23SSILL
 62
17
 10
-565.601
 20
-1865.545
 30
2934.283
 70
    32
  0
VERTEX
  8
T23SSILL
 62
17
 10
-561.655
 20
-1862.380
 30
2934.272
 70
    32
  0
VERTEX
  8
T23SSILL
 62
17
 10
-551.682
 20
-1850.092
 30
2934.268
 70
    32
  0
VERTEX
  8
T23SSILL
 62
17
 10
-497.709
 20
-1811.523
 30
2934.336
 70
    32
  0
VERTEX
  8
T23SSILL
 62
17
 10
-499.576
 20
-1804.585
 30
2934.341
 70
    32
  0
VERTEX
  8
T23SSILL
 62
17
 10
-502.840
 20
-1798.260
 30
2934.344
 70
    32
  0
VERTEX
  8
T23SSILL
 62
17
 10
-513.042
 20
-1794.440
 30
2934.341
 70
    32
  0
VERTEX
  8
T23SSILL
 62
17
 10
-519.689
 20
-1789.417
 30
2934.341
 70
    32
  0
VERTEX
  8
T23SSILL
 62
17
 10
-526.853
 20
-1779.000
 30
2934.345
 70
    32
  0
VERTEX
  8
T23SSILL
 62
17
 10
-534.020
 20
-1763.483
 30
2934.354
 70
    32
  0
VERTEX
  8
T23SSILL
 62
17
 10
-536.381
 20
-1748.160
 30
2934.366
 70
    32
  0
VERTEX
  8
T23SSILL
 62
17
 10
-537.682
 20
-1744.139
 30
2934.369
 70
    32
  0
SEQEND
  8
T23SSILL
  0
POLYLINE
  8
T23SSILL
 62
17
 66
     1
 70
     9
  0
VERTEX
  8
T23SSILL
 62
17
 10
-534.188
 20
-1927.587
 30
2934.379
 70
    32
  0
VERTEX
  8
T23SSILL
 62
17
 10
-545.175
 20
-1923.228
 30
2934.350
 70
    32
  0
VERTEX
  8
T23SSILL
 62
17
 10
-555.792
 20
-1923.086
 30
2934.320
 70
    32
  0
VERTEX
  8
T23SSILL
 62
17
 10
-560.670
 20
-1924.854
 30
2934.305
 70
    32
  0
VERTEX
  8
T23SSILL
 62
17
 10
-631.139
 20
-1973.581
 30
2934.045
 70
    32
  0
VERTEX
  8
T23SSILL
 62
17
 10
-632.830
 20
-1975.028
 30
2934.037
 70
    32
  0
VERTEX
  8
T23SSILL
 62
17
 10
-631.652
 20
-1978.068
 30
2934.034
 70
    32
  0
VERTEX
  8
T23SSILL
 62
17
 10
-623.190
 20
-1983.581
 30
2934.047
 70
    32
  0
VERTEX
  8
T23SSILL
 62
17
 10
-617.232
 20
-1984.068
 30
2934.063
 70
    32
  0
VERTEX
  8
T23SSILL
 62
17
 10
-546.750
 20
-1963.391
 30
2934.309
 70
    32
  0
VERTEX
  8
T23SSILL
 62
17
 10
-531.746
 20
-1960.711
 30
2934.357
 70
    32
  0
VERTEX
  8
T23SSILL
 62
17
 10
-516.770
 20
-1948.592
 30
2934.419
 70
    32
  0
VERTEX
  8
T23SSILL
 62
17
 10
-529.553
 20
-1930.871
 30
2934.391
 70
    32
  0
VERTEX
  8
T23SSILL
 62
17
 10
-534.188
 20
-1927.587
 30
2934.379
 70
    32
  0
SEQEND
  8
T23SSILL
  0
POLYLINE
  8
T23SSILL
 62
17
 66
     1
 70
     9
  0
VERTEX
  8
T23SSILL
 62
17
 10
-330.187
 20
-2148.873
 30
2934.405
 70
    32
  0
VERTEX
  8
T23SSILL
 62
17
 10
-329.297
 20
-2145.819
 30
2934.406
 70
    32
  0
VERTEX
  8
T23SSILL
 62
17
 10
-296.855
 20
-2207.985
 30
2934.403
 70
    32
  0
VERTEX
  8
T23SSILL
 62
17
 10
-301.041
 20
-2236.378
 30
2934.422
 70
    32
  0
VERTEX
  8
T23SSILL
 62
17
 10
-384.553
 20
-2119.604
 30
2934.403
 70
    32
  0
VERTEX
  8
T23SSILL
 62
17
 10
-377.377
 20
-2114.152
 30
2934.406
 70
    32
  0
VERTEX
  8
T23SSILL
 62
17
 10
-409.935
 20
-2068.071
 30
2934.414
 70
    32
  0
VERTEX
  8
T23SSILL
 62
17
 10
-403.807
 20
-2065.469
 30
2934.417
 70
    32
  0
VERTEX
  8
T23SSILL
 62
17
 10
-398.390
 20
-2061.323
 30
2934.419
 70
    32
  0
VERTEX
  8
T23SSILL
 62
17
 10
-389.733
 20
-2064.899
 30
2934.420
 70
    32
  0
VERTEX
  8
T23SSILL
 62
17
 10
-376.714
 20
-2064.501
 30
2934.423
 70
    32
  0
VERTEX
  8
T23SSILL
 62
17
 10
-388.057
 20
-2083.336
 30
2934.414
 70
    32
  0
VERTEX
  8
T23SSILL
 62
17
 10
-383.763
 20
-2091.842
 30
2934.412
 70
    32
  0
VERTEX
  8
T23SSILL
 62
17
 10
-369.928
 20
-2103.654
 30
2934.411
 70
    32
  0
VERTEX
  8
T23SSILL
 62
17
 10
-366.644
 20
-2101.887
 30
2934.413
 70
    32
  0
VERTEX
  8
T23SSILL
 62
17
 10
-366.673
 20
-2092.447
 30
2934.416
 70
    32
  0
VERTEX
  8
T23SSILL
 62
17
 10
-360.005
 20
-2088.423
 30
2934.419
 70
    32
  0
VERTEX
  8
T23SSILL
 62
17
 10
-342.806
 20
-2119.931
 30
2934.412
 70
    32
  0
VERTEX
  8
T23SSILL
 62
17
 10
-351.385
 20
-2119.337
 30
2934.410
 70
    32
  0
VERTEX
  8
T23SSILL
 62
17
 10
-356.655
 20
-2121.792
 30
2934.408
 70
    32
  0
VERTEX
  8
T23SSILL
 62
17
 10
-353.316
 20
-2132.529
 30
2934.405
 70
    32
  0
VERTEX
  8
T23SSILL
 62
17
 10
-352.845
 20
-2142.312
 30
2934.402
 70
    32
  0
VERTEX
  8
T23SSILL
 62
17
 10
-349.140
 20
-2148.661
 30
2934.401
 70
    32
  0
VERTEX
  8
T23SSILL
 62
17
 10
-340.212
 20
-2155.350
 30
2934.401
 70
    32
  0
VERTEX
  8
T23SSILL
 62
17
 10
-331.461
 20
-2150.148
 30
2934.404
 70
    32
  0
VERTEX
  8
T23SSILL
 62
17
 10
-330.187
 20
-2148.873
 30
2934.405
 70
    32
  0
SEQEND
  8
T23SSILL
  0
POLYLINE
  8
T23SSILL
 62
17
 66
     1
 70
     9
  0
VERTEX
  8
T23SSILL
 62
17
 10
-740.898
 20
-2040.655
 30
2934.124
 70
    32
  0
VERTEX
  8
T23SSILL
 62
17
 10
-744.124
 20
-2044.305
 30
2934.090
 70
    32
  0
VERTEX
  8
T23SSILL
 62
17
 10
-761.320
 20
-2044.608
 30
2933.961
 70
    32
  0
VERTEX
  8
T23SSILL
 62
17
 10
-756.847
 20
-2060.951
 30
2933.946
 70
    32
  0
VERTEX
  8
T23SSILL
 62
17
 10
-753.656
 20
-2061.897
 30
2933.967
 70
    32
  0
VERTEX
  8
T23SSILL
 62
17
 10
-735.394
 20
-2037.744
 30
2934.174
 70
    32
  0
VERTEX
  8
T23SSILL
 62
17
 10
-739.543
 20
-2036.078
 30
2934.148
 70
    32
  0
VERTEX
  8
T23SSILL
 62
17
 10
-740.898
 20
-2040.655
 30
2934.124
 70
    32
  0
SEQEND
  8
T23SSILL
  0
POLYLINE
  8
T23SSILL
 62
17
 66
     1
 70
     9
  0
VERTEX
  8
T23SSILL
 62
17
 10
-657.686
 20
-1988.108
 30
2933.939
 70
    32
  0
VERTEX
  8
T23SSILL
 62
17
 10
-653.399
 20
-1980.040
 30
2933.968
 70
    32
  0
VERTEX
  8
T23SSILL
 62
17
 10
-654.897
 20
-1974.450
 30
2933.975
 70
    32
  0
VERTEX
  8
T23SSILL
 62
17
 10
-663.752
 20
-1966.755
 30
2933.966
 70
    32
  0
VERTEX
  8
T23SSILL
 62
17
 10
-668.116
 20
-1967.542
 30
2933.952
 70
    32
  0
VERTEX
  8
T23SSILL
 62
17
 10
-658.739
 20
-1991.468
 30
2933.929
 70
    32
  0
VERTEX
  8
T23SSILL
 62
17
 10
-657.686
 20
-1988.108
 30
2933.939
 70
    32
  0
SEQEND
  8
T23SSILL
  0
POLYLINE
  8
T23SSILL
 62
17
 66
     1
 70
     9
  0
VERTEX
  8
T23SSILL
 62
17
 10
-682.908
 20
-1952.543
 30
2934.046
 70
    32
  0
VERTEX
  8
T23SSILL
 62
17
 10
-688.659
 20
-1922.903
 30
2934.605
 70
    32
  0
VERTEX
  8
T23SSILL
 62
17
 10
-698.422
 20
-1914.326
 30
2934.813
 70
    32
  0
VERTEX
  8
T23SSILL
 62
17
 10
-702.786
 20
-1913.519
 30
2934.783
 70
    32
  0
VERTEX
  8
T23SSILL
 62
17
 10
-710.580
 20
-1920.951
 30
2934.703
 70
    32
  0
VERTEX
  8
T23SSILL
 62
17
 10
-686.742
 20
-1984.861
 30
2933.933
 70
    32
  0
VERTEX
  8
T23SSILL
 62
17
 10
-664.201
 20
-2002.553
 30
2933.890
 70
    32
  0
VERTEX
  8
T23SSILL
 62
17
 10
-681.541
 20
-1956.226
 30
2933.944
 70
    32
  0
VERTEX
  8
T23SSILL
 62
17
 10
-682.908
 20
-1952.543
 30
2934.046
 70
    32
  0
SEQEND
  8
T23SSILL
  0
POLYLINE
  8
T23SSILL
 62
17
 66
     1
 70
     9
  0
VERTEX
  8
T23SSILL
 62
17
 10
-473.203
 20
-1785.178
 30
2934.374
 70
    32
  0
VERTEX
  8
T23SSILL
 62
17
 10
-486.098
 20
-1788.470
 30
2934.363
 70
    32
  0
VERTEX
  8
T23SSILL
 62
17
 10
-490.828
 20
-1792.689
 30
2934.357
 70
    32
  0
VERTEX
  8
T23SSILL
 62
17
 10
-498.379
 20
-1796.027
 30
2934.349
 70
    32
  0
VERTEX
  8
T23SSILL
 62
17
 10
-490.283
 20
-1806.248
 30
2934.345
 70
    32
  0
VERTEX
  8
T23SSILL
 62
17
 10
-464.203
 20
-1787.994
 30
2934.378
 70
    32
  0
VERTEX
  8
T23SSILL
 62
17
 10
-469.500
 20
-1786.108
 30
2934.376
 70
    32
  0
VERTEX
  8
T23SSILL
 62
17
 10
-473.203
 20
-1785.178
 30
2934.374
 70
    32
  0
SEQEND
  8
T23SSILL
  0
POLYLINE
  8
T23SSILL
 62
17
 66
     1
 70
     9
  0
VERTEX
  8
T23SSILL
 62
17
 10
-482.450
 20
-1777.214
 30
2934.375
 70
    32
  0
VERTEX
  8
T23SSILL
 62
17
 10
-473.478
 20
-1773.140
 30
2934.385
 70
    32
  0
VERTEX
  8
T23SSILL
 62
17
 10
-472.818
 20
-1769.510
 30
2934.388
 70
    32
  0
VERTEX
  8
T23SSILL
 62
17
 10
-496.045
 20
-1753.658
 30
2934.387
 70
    32
  0
VERTEX
  8
T23SSILL
 62
17
 10
-483.040
 20
-1774.738
 30
2934.377
 70
    32
  0
VERTEX
  8
T23SSILL
 62
17
 10
-482.450
 20
-1777.214
 30
2934.375
 70
    32
  0
SEQEND
  8
T23SSILL
  0
POLYLINE
  8
T23SSILL
 62
17
 66
     1
 70
     9
  0
VERTEX
  8
T23SSILL
 62
17
 10
-559.598
 20
-1911.172
 30
2934.314
 70
    32
  0
VERTEX
  8
T23SSILL
 62
17
 10
-552.171
 20
-1905.259
 30
2934.337
 70
    32
  0
VERTEX
  8
T23SSILL
 62
17
 10
-543.242
 20
-1913.542
 30
2934.359
 70
    32
  0
VERTEX
  8
T23SSILL
 62
17
 10
-556.335
 20
-1913.671
 30
2934.322
 70
    32
  0
VERTEX
  8
T23SSILL
 62
17
 10
-559.598
 20
-1911.172
 30
2934.314
 70
    32
  0
SEQEND
  8
T23SSILL
  0
POLYLINE
  8
T23SSILL
 62
17
 66
     1
 70
     9
  0
VERTEX
  8
T23SSILL
 62
17
 10
2194.641
 20
-4573.087
 30
2935.939
 70
    32
  0
VERTEX
  8
T23SSILL
 62
17
 10
2216.999
 20
-4536.393
 30
2935.927
 70
    32
  0
VERTEX
  8
T23SSILL
 62
17
 10
2212.135
 20
-4533.271
 30
2935.914
 70
    32
  0
VERTEX
  8
T23SSILL
 62
17
 10
2124.753
 20
-4594.994
 30
2935.915
 70
    32
  0
VERTEX
  8
T23SSILL
 62
17
 10
2125.181
 20
-4603.520
 30
2935.917
 70
    32
  0
VERTEX
  8
T23SSILL
 62
17
 10
2177.329
 20
-4603.756
 30
2935.952
 70
    32
  0
VERTEX
  8
T23SSILL
 62
17
 10
2190.929
 20
-4580.859
 30
2935.944
 70
    32
  0
VERTEX
  8
T23SSILL
 62
17
 10
2177.754
 20
-4572.711
 30
2935.909
 70
    32
  0
VERTEX
  8
T23SSILL
 62
17
 10
2182.438
 20
-4565.546
 30
2935.907
 70
    32
  0
VERTEX
  8
T23SSILL
 62
17
 10
2194.641
 20
-4573.087
 30
2935.939
 70
    32
  0
SEQEND
  8
T23SSILL
  0
POLYLINE
  8
T23SSILL
 62
17
 66
     1
 70
     9
  0
VERTEX
  8
T23SSILL
 62
17
 10
2388.220
 20
-3679.276
 30
2935.379
 70
    32
  0
VERTEX
  8
T23SSILL
 62
17
 10
2385.838
 20
-3661.284
 30
2935.352
 70
    32
  0
VERTEX
  8
T23SSILL
 62
17
 10
2385.913
 20
-3653.533
 30
2935.342
 70
    32
  0
VERTEX
  8
T23SSILL
 62
17
 10
2387.355
 20
-3640.951
 30
2935.329
 70
    32
  0
VERTEX
  8
T23SSILL
 62
17
 10
2389.451
 20
-3633.573
 30
2935.323
 70
    32
  0
VERTEX
  8
T23SSILL
 62
17
 10
2382.149
 20
-3623.461
 30
2935.297
 70
    32
  0
VERTEX
  8
T23SSILL
 62
17
 10
2378.248
 20
-3626.154
 30
2935.293
 70
    32
  0
VERTEX
  8
T23SSILL
 62
17
 10
2376.787
 20
-3623.937
 30
2935.287
 70
    32
  0
VERTEX
  8
T23SSILL
 62
17
 10
2371.752
 20
-3623.802
 30
2935.278
 70
    32
  0
VERTEX
  8
T23SSILL
 62
17
 10
2368.024
 20
-3626.543
 30
2935.274
 70
    32
  0
VERTEX
  8
T23SSILL
 62
17
 10
2374.196
 20
-3635.355
 30
2935.297
 70
    32
  0
VERTEX
  8
T23SSILL
 62
17
 10
2369.626
 20
-3639.052
 30
2935.293
 70
    32
  0
VERTEX
  8
T23SSILL
 62
17
 10
2373.149
 20
-3645.029
 30
2935.307
 70
    32
  0
VERTEX
  8
T23SSILL
 62
17
 10
2354.607
 20
-3659.115
 30
2935.291
 70
    32
  0
VERTEX
  8
T23SSILL
 62
17
 10
2350.469
 20
-3653.227
 30
2935.276
 70
    32
  0
VERTEX
  8
T23SSILL
 62
17
 10
2355.302
 20
-3649.969
 30
2935.280
 70
    32
  0
VERTEX
  8
T23SSILL
 62
17
 10
2349.329
 20
-3641.700
 30
2935.259
 70
    32
  0
VERTEX
  8
T23SSILL
 62
17
 10
2162.872
 20
-3774.443
 30
2935.080
 70
    32
  0
VERTEX
  8
T23SSILL
 62
17
 10
2157.364
 20
-3770.162
 30
2935.064
 70
    32
  0
VERTEX
  8
T23SSILL
 62
17
 10
2173.676
 20
-3759.221
 30
2935.081
 70
    32
  0
VERTEX
  8
T23SSILL
 62
17
 10
2143.877
 20
-3716.214
 30
2934.971
 70
    32
  0
VERTEX
  8
T23SSILL
 62
17
 10
2083.627
 20
-3670.450
 30
2934.801
 70
    32
  0
VERTEX
  8
T23SSILL
 62
17
 10
2072.330
 20
-3663.647
 30
2934.771
 70
    32
  0
VERTEX
  8
T23SSILL
 62
17
 10
2063.611
 20
-3654.403
 30
2934.743
 70
    32
  0
VERTEX
  8
T23SSILL
 62
17
 10
2058.294
 20
-3648.538
 30
2934.726
 70
    32
  0
VERTEX
  8
T23SSILL
 62
17
 10
2050.931
 20
-3635.607
 30
2934.696
 70
    32
  0
VERTEX
  8
T23SSILL
 62
17
 10
2048.656
 20
-3615.679
 30
2934.666
 70
    32
  0
VERTEX
  8
T23SSILL
 62
17
 10
2045.469
 20
-3608.161
 30
2934.651
 70
    32
  0
VERTEX
  8
T23SSILL
 62
17
 10
2024.100
 20
-3622.842
 30
2934.630
 70
    32
  0
VERTEX
  8
T23SSILL
 62
17
 10
2019.475
 20
-3618.306
 30
2934.615
 70
    32
  0
VERTEX
  8
T23SSILL
 62
17
 10
2038.460
 20
-3604.218
 30
2934.633
 70
    32
  0
VERTEX
  8
T23SSILL
 62
17
 10
2029.116
 20
-3586.688
 30
2934.593
 70
    32
  0
VERTEX
  8
T23SSILL
 62
17
 10
2026.401
 20
-3575.828
 30
2934.575
 70
    32
  0
VERTEX
  8
T23SSILL
 62
17
 10
2020.875
 20
-3564.236
 30
2934.550
 70
    32
  0
VERTEX
  8
T23SSILL
 62
17
 10
1980.324
 20
-3494.350
 30
2934.386
 70
    32
  0
VERTEX
  8
T23SSILL
 62
17
 10
1970.939
 20
-3490.208
 30
2934.363
 70
    32
  0
VERTEX
  8
T23SSILL
 62
17
 10
1946.108
 20
-3489.353
 30
2934.335
 70
    32
  0
VERTEX
  8
T23SSILL
 62
17
 10
1943.875
 20
-3483.342
 30
2934.328
 70
    32
  0
VERTEX
  8
T23SSILL
 62
17
 10
1935.672
 20
-3475.424
 30
2934.322
 70
    32
  0
VERTEX
  8
T23SSILL
 62
17
 10
1922.245
 20
-3451.865
 30
2934.297
 70
    32
  0
VERTEX
  8
T23SSILL
 62
17
 10
1912.858
 20
-3447.899
 30
2934.299
 70
    32
  0
VERTEX
  8
T23SSILL
 62
17
 10
1906.330
 20
-3439.733
 30
2934.291
 70
    32
  0
VERTEX
  8
T23SSILL
 62
17
 10
1902.201
 20
-3429.476
 30
2934.279
 70
    32
  0
VERTEX
  8
T23SSILL
 62
17
 10
1901.653
 20
-3408.161
 30
2934.249
 70
    32
  0
VERTEX
  8
T23SSILL
 62
17
 10
1897.431
 20
-3402.197
 30
2934.243
 70
    32
  0
VERTEX
  8
T23SSILL
 62
17
 10
1894.712
 20
-3395.728
 30
2934.235
 70
    32
  0
VERTEX
  8
T23SSILL
 62
17
 10
1845.563
 20
-3333.873
 30
2934.181
 70
    32
  0
VERTEX
  8
T23SSILL
 62
17
 10
1738.090
 20
-3205.146
 30
2934.072
 70
    32
  0
VERTEX
  8
T23SSILL
 62
17
 10
1729.922
 20
-3204.262
 30
2934.076
 70
    32
  0
VERTEX
  8
T23SSILL
 62
17
 10
1722.497
 20
-3194.727
 30
2934.068
 70
    32
  0
VERTEX
  8
T23SSILL
 62
17
 10
1722.790
 20
-3187.072
 30
2934.056
 70
    32
  0
VERTEX
  8
T23SSILL
 62
17
 10
1683.537
 20
-3140.160
 30
2934.017
 70
    32
  0
VERTEX
  8
T23SSILL
 62
17
 10
1661.065
 20
-3130.043
 30
2934.018
 70
    32
  0
VERTEX
  8
T23SSILL
 62
17
 10
1651.845
 20
-3122.682
 30
2934.014
 70
    32
  0
VERTEX
  8
T23SSILL
 62
17
 10
1645.444
 20
-3115.188
 30
2934.008
 70
    32
  0
VERTEX
  8
T23SSILL
 62
17
 10
1644.881
 20
-3111.746
 30
2934.004
 70
    32
  0
VERTEX
  8
T23SSILL
 62
17
 10
1650.505
 20
-3100.915
 30
2933.983
 70
    32
  0
VERTEX
  8
T23SSILL
 62
17
 10
1635.877
 20
-3090.301
 30
2933.979
 70
    32
  0
VERTEX
  8
T23SSILL
 62
17
 10
1631.206
 20
-3084.859
 30
2933.974
 70
    32
  0
VERTEX
  8
T23SSILL
 62
17
 10
1633.325
 20
-3078.729
 30
2933.964
 70
    32
  0
VERTEX
  8
T23SSILL
 62
17
 10
1580.247
 20
-3014.700
 30
2933.909
 70
    32
  0
VERTEX
  8
T23SSILL
 62
17
 10
1555.641
 20
-2990.475
 30
2933.892
 70
    32
  0
VERTEX
  8
T23SSILL
 62
17
 10
1527.689
 20
-2956.297
 30
2933.863
 70
    32
  0
VERTEX
  8
T23SSILL
 62
17
 10
1461.861
 20
-3004.725
 30
2934.000
 70
    32
  0
VERTEX
  8
T23SSILL
 62
17
 10
1455.911
 20
-2998.680
 30
2933.991
 70
    32
  0
VERTEX
  8
T23SSILL
 62
17
 10
1516.244
 20
-2953.560
 30
2933.868
 70
    32
  0
VERTEX
  8
T23SSILL
 62
17
 10
1086.088
 20
-2943.707
 30
2934.090
 70
    32
  0
VERTEX
  8
T23SSILL
 62
17
 10
1199.438
 20
-3087.395
 30
2934.311
 70
    32
  0
VERTEX
  8
T23SSILL
 62
17
 10
1203.548
 20
-3074.058
 30
2934.283
 70
    32
  0
VERTEX
  8
T23SSILL
 62
17
 10
1206.810
 20
-3068.462
 30
2934.270
 70
    32
  0
VERTEX
  8
T23SSILL
 62
17
 10
1211.785
 20
-3063.221
 30
2934.256
 70
    32
  0
VERTEX
  8
T23SSILL
 62
17
 10
1247.011
 20
-3038.528
 30
2934.188
 70
    32
  0
VERTEX
  8
T23SSILL
 62
17
 10
1250.795
 20
-3044.061
 30
2934.196
 70
    32
  0
VERTEX
  8
T23SSILL
 62
17
 10
1214.316
 20
-3070.598
 30
2934.270
 70
    32
  0
VERTEX
  8
T23SSILL
 62
17
 10
1209.781
 20
-3077.720
 30
2934.286
 70
    32
  0
VERTEX
  8
T23SSILL
 62
17
 10
1207.233
 20
-3086.427
 30
2934.305
 70
    32
  0
VERTEX
  8
T23SSILL
 62
17
 10
1209.042
 20
-3099.677
 30
2934.330
 70
    32
  0
VERTEX
  8
T23SSILL
 62
17
 10
1289.701
 20
-3200.331
 30
2934.466
 70
    32
  0
VERTEX
  8
T23SSILL
 62
17
 10
1298.553
 20
-3193.347
 30
2934.447
 70
    32
  0
VERTEX
  8
T23SSILL
 62
17
 10
1302.777
 20
-3198.876
 30
2934.452
 70
    32
  0
VERTEX
  8
T23SSILL
 62
17
 10
1293.344
 20
-3205.971
 30
2934.470
 70
    32
  0
VERTEX
  8
T23SSILL
 62
17
 10
1357.197
 20
-3284.770
 30
2934.524
 70
    32
  0
VERTEX
  8
T23SSILL
 62
17
 10
1373.557
 20
-3293.998
 30
2934.529
 70
    32
  0
VERTEX
  8
T23SSILL
 62
17
 10
1417.069
 20
-3301.769
 30
2934.509
 70
    32
  0
VERTEX
  8
T23SSILL
 62
17
 10
1453.798
 20
-3349.415
 30
2934.548
 70
    32
  0
VERTEX
  8
T23SSILL
 62
17
 10
1456.118
 20
-3402.509
 30
2934.646
 70
    32
  0
VERTEX
  8
T23SSILL
 62
17
 10
1459.635
 20
-3413.788
 30
2934.666
 70
    32
  0
VERTEX
  8
T23SSILL
 62
17
 10
1854.805
 20
-3907.287
 30
2935.037
 70
    32
  0
VERTEX
  8
T23SSILL
 62
17
 10
2035.448
 20
-4128.595
 30
2935.350
 70
    32
  0
VERTEX
  8
T23SSILL
 62
17
 10
2260.806
 20
-4410.693
 30
2935.828
 70
    32
  0
VERTEX
  8
T23SSILL
 62
17
 10
2269.475
 20
-4426.180
 30
2935.865
 70
    32
  0
VERTEX
  8
T23SSILL
 62
17
 10
2273.375
 20
-4439.423
 30
2935.891
 70
    32
  0
VERTEX
  8
T23SSILL
 62
17
 10
2299.950
 20
-4392.491
 30
2935.885
 70
    32
  0
VERTEX
  8
T23SSILL
 62
17
 10
2291.726
 20
-4357.918
 30
2935.832
 70
    32
  0
VERTEX
  8
T23SSILL
 62
17
 10
2300.670
 20
-4355.112
 30
2935.847
 70
    32
  0
VERTEX
  8
T23SSILL
 62
17
 10
2307.490
 20
-4380.200
 30
2935.888
 70
    32
  0
VERTEX
  8
T23SSILL
 62
17
 10
2522.512
 20
-4009.823
 30
2936.147
 70
    32
  0
VERTEX
  8
T23SSILL
 62
17
 10
2522.296
 20
-4005.340
 30
2936.135
 70
    32
  0
VERTEX
  8
T23SSILL
 62
17
 10
2528.282
 20
-3996.317
 30
2936.126
 70
    32
  0
VERTEX
  8
T23SSILL
 62
17
 10
2537.602
 20
-3986.385
 30
2936.122
 70
    32
  0
VERTEX
  8
T23SSILL
 62
17
 10
2539.417
 20
-3982.851
 30
2936.117
 70
    32
  0
VERTEX
  8
T23SSILL
 62
17
 10
2542.475
 20
-3980.625
 30
2936.119
 70
    32
  0
VERTEX
  8
T23SSILL
 62
17
 10
2544.857
 20
-3981.483
 30
2936.126
 70
    32
  0
VERTEX
  8
T23SSILL
 62
17
 10
2550.539
 20
-3987.500
 30
2936.154
 70
    32
  0
VERTEX
  8
T23SSILL
 62
17
 10
2550.817
 20
-3989.080
 30
2936.159
 70
    32
  0
VERTEX
  8
T23SSILL
 62
17
 10
2554.064
 20
-3988.435
 30
2936.164
 70
    32
  0
VERTEX
  8
T23SSILL
 62
17
 10
2674.427
 20
-3903.386
 30
2936.221
 70
    32
  0
VERTEX
  8
T23SSILL
 62
17
 10
2718.372
 20
-3869.885
 30
2936.235
 70
    32
  0
VERTEX
  8
T23SSILL
 62
17
 10
2709.766
 20
-3857.999
 30
2936.203
 70
    32
  0
VERTEX
  8
T23SSILL
 62
17
 10
2707.970
 20
-3861.593
 30
2936.204
 70
    32
  0
VERTEX
  8
T23SSILL
 62
17
 10
2650.855
 20
-3847.216
 30
2936.080
 70
    32
  0
VERTEX
  8
T23SSILL
 62
17
 10
2632.046
 20
-3879.626
 30
2936.086
 70
    32
  0
VERTEX
  8
T23SSILL
 62
17
 10
2631.390
 20
-3883.759
 30
2936.090
 70
    32
  0
VERTEX
  8
T23SSILL
 62
17
 10
2624.473
 20
-3879.465
 30
2936.072
 70
    32
  0
VERTEX
  8
T23SSILL
 62
17
 10
2643.481
 20
-3844.591
 30
2936.063
 70
    32
  0
VERTEX
  8
T23SSILL
 62
17
 10
2626.903
 20
-3818.976
 30
2936.000
 70
    32
  0
VERTEX
  8
T23SSILL
 62
17
 10
2572.811
 20
-3856.684
 30
2935.947
 70
    32
  0
VERTEX
  8
T23SSILL
 62
17
 10
2568.549
 20
-3851.006
 30
2935.932
 70
    32
  0
VERTEX
  8
T23SSILL
 62
17
 10
2622.288
 20
-3813.382
 30
2935.984
 70
    32
  0
VERTEX
  8
T23SSILL
 62
17
 10
2590.045
 20
-3768.063
 30
2935.867
 70
    32
  0
VERTEX
  8
T23SSILL
 62
17
 10
2581.415
 20
-3767.892
 30
2935.850
 70
    32
  0
VERTEX
  8
T23SSILL
 62
17
 10
2575.475
 20
-3753.477
 30
2935.821
 70
    32
  0
VERTEX
  8
T23SSILL
 62
17
 10
2564.707
 20
-3737.431
 30
2935.781
 70
    32
  0
VERTEX
  8
T23SSILL
 62
17
 10
2517.971
 20
-3770.365
 30
2935.735
 70
    32
  0
VERTEX
  8
T23SSILL
 62
17
 10
2526.541
 20
-3786.038
 30
2935.771
 70
    32
  0
VERTEX
  8
T23SSILL
 62
17
 10
2518.300
 20
-3791.244
 30
2935.762
 70
    32
  0
VERTEX
  8
T23SSILL
 62
17
 10
2521.418
 20
-3796.735
 30
2935.775
 70
    32
  0
VERTEX
  8
T23SSILL
 62
17
 10
2528.578
 20
-3803.234
 30
2935.797
 70
    32
  0
VERTEX
  8
T23SSILL
 62
17
 10
2528.748
 20
-3813.101
 30
2935.809
 70
    32
  0
VERTEX
  8
T23SSILL
 62
17
 10
2527.137
 20
-3824.888
 30
2935.821
 70
    32
  0
VERTEX
  8
T23SSILL
 62
17
 10
2520.275
 20
-3824.030
 30
2935.808
 70
    32
  0
VERTEX
  8
T23SSILL
 62
17
 10
2519.645
 20
-3807.024
 30
2935.785
 70
    32
  0
VERTEX
  8
T23SSILL
 62
17
 10
2517.816
 20
-3804.892
 30
2935.779
 70
    32
  0
VERTEX
  8
T23SSILL
 62
17
 10
2511.051
 20
-3803.066
 30
2935.764
 70
    32
  0
VERTEX
  8
T23SSILL
 62
17
 10
2511.118
 20
-3796.108
 30
2935.755
 70
    32
  0
VERTEX
  8
T23SSILL
 62
17
 10
2506.941
 20
-3790.783
 30
2935.741
 70
    32
  0
VERTEX
  8
T23SSILL
 62
17
 10
2497.279
 20
-3797.208
 30
2935.731
 70
    32
  0
VERTEX
  8
T23SSILL
 62
17
 10
2493.717
 20
-3792.065
 30
2935.718
 70
    32
  0
VERTEX
  8
T23SSILL
 62
17
 10
2487.670
 20
-3797.997
 30
2935.714
 70
    32
  0
VERTEX
  8
T23SSILL
 62
17
 10
2484.494
 20
-3798.495
 30
2935.709
 70
    32
  0
VERTEX
  8
T23SSILL
 62
17
 10
2482.571
 20
-3796.979
 30
2935.703
 70
    32
  0
VERTEX
  8
T23SSILL
 62
17
 10
2479.826
 20
-3798.450
 30
2935.700
 70
    32
  0
VERTEX
  8
T23SSILL
 62
17
 10
2077.839
 20
-4086.479
 30
2935.339
 70
    32
  0
VERTEX
  8
T23SSILL
 62
17
 10
2072.624
 20
-4079.946
 30
2935.311
 70
    32
  0
VERTEX
  8
T23SSILL
 62
17
 10
2475.302
 20
-3792.593
 30
2935.684
 70
    32
  0
VERTEX
  8
T23SSILL
 62
17
 10
2476.601
 20
-3785.735
 30
2935.678
 70
    32
  0
VERTEX
  8
T23SSILL
 62
17
 10
2468.098
 20
-3772.353
 30
2935.645
 70
    32
  0
VERTEX
  8
T23SSILL
 62
17
 10
2464.020
 20
-3775.044
 30
2935.641
 70
    32
  0
VERTEX
  8
T23SSILL
 62
17
 10
2460.141
 20
-3775.359
 30
2935.634
 70
    32
  0
VERTEX
  8
T23SSILL
 62
17
 10
2456.783
 20
-3772.467
 30
2935.624
 70
    32
  0
VERTEX
  8
T23SSILL
 62
17
 10
2444.436
 20
-3759.794
 30
2935.585
 70
    32
  0
VERTEX
  8
T23SSILL
 62
17
 10
2429.750
 20
-3738.954
 30
2935.531
 70
    32
  0
VERTEX
  8
T23SSILL
 62
17
 10
2426.374
 20
-3732.844
 30
2935.517
 70
    32
  0
VERTEX
  8
T23SSILL
 62
17
 10
2430.445
 20
-3729.946
 30
2935.521
 70
    32
  0
VERTEX
  8
T23SSILL
 62
17
 10
2420.887
 20
-3717.112
 30
2935.487
 70
    32
  0
VERTEX
  8
T23SSILL
 62
17
 10
2426.136
 20
-3713.157
 30
2935.492
 70
    32
  0
VERTEX
  8
T23SSILL
 62
17
 10
2421.459
 20
-3706.523
 30
2935.475
 70
    32
  0
VERTEX
  8
T23SSILL
 62
17
 10
2416.285
 20
-3710.286
 30
2935.470
 70
    32
  0
VERTEX
  8
T23SSILL
 62
17
 10
2407.004
 20
-3695.311
 30
2935.434
 70
    32
  0
VERTEX
  8
T23SSILL
 62
17
 10
2402.794
 20
-3684.260
 30
2935.412
 70
    32
  0
VERTEX
  8
T23SSILL
 62
17
 10
2396.248
 20
-3687.104
 30
2935.404
 70
    32
  0
VERTEX
  8
T23SSILL
 62
17
 10
2388.748
 20
-3688.441
 30
2935.391
 70
    32
  0
VERTEX
  8
T23SSILL
 62
17
 10
2387.269
 20
-3686.577
 30
2935.386
 70
    32
  0
VERTEX
  8
T23SSILL
 62
17
 10
2387.930
 20
-3681.915
 30
2935.382
 70
    32
  0
VERTEX
  8
T23SSILL
 62
17
 10
2388.220
 20
-3679.276
 30
2935.379
 70
    32
  0
SEQEND
  8
T23SSILL
  0
POLYLINE
  8
T23SSILL
 62
17
 66
     1
 70
     9
  0
VERTEX
  8
T23SSILL
 62
17
 10
2538.507
 20
-3652.440
 30
2935.624
 70
    32
  0
VERTEX
  8
T23SSILL
 62
17
 10
2535.796
 20
-3647.750
 30
2935.613
 70
    32
  0
VERTEX
  8
T23SSILL
 62
17
 10
2545.017
 20
-3641.496
 30
2935.623
 70
    32
  0
VERTEX
  8
T23SSILL
 62
17
 10
2541.369
 20
-3636.088
 30
2935.609
 70
    32
  0
VERTEX
  8
T23SSILL
 62
17
 10
2546.337
 20
-3632.436
 30
2935.614
 70
    32
  0
VERTEX
  8
T23SSILL
 62
17
 10
2542.950
 20
-3627.383
 30
2935.601
 70
    32
  0
VERTEX
  8
T23SSILL
 62
17
 10
2601.248
 20
-3586.233
 30
2935.657
 70
    32
  0
VERTEX
  8
T23SSILL
 62
17
 10
2646.533
 20
-3655.869
 30
2935.830
 70
    32
  0
VERTEX
  8
T23SSILL
 62
17
 10
2647.764
 20
-3664.699
 30
2935.843
 70
    32
  0
VERTEX
  8
T23SSILL
 62
17
 10
2646.018
 20
-3669.464
 30
2935.846
 70
    32
  0
VERTEX
  8
T23SSILL
 62
17
 10
2595.482
 20
-3706.369
 30
2935.799
 70
    32
  0
VERTEX
  8
T23SSILL
 62
17
 10
2585.589
 20
-3690.948
 30
2935.761
 70
    32
  0
VERTEX
  8
T23SSILL
 62
17
 10
2572.685
 20
-3700.402
 30
2935.749
 70
    32
  0
VERTEX
  8
T23SSILL
 62
17
 10
2572.982
 20
-3682.899
 30
2935.727
 70
    32
  0
VERTEX
  8
T23SSILL
 62
17
 10
2562.065
 20
-3654.784
 30
2935.671
 70
    32
  0
VERTEX
  8
T23SSILL
 62
17
 10
2551.347
 20
-3642.702
 30
2935.636
 70
    32
  0
VERTEX
  8
T23SSILL
 62
17
 10
2538.507
 20
-3652.440
 30
2935.624
 70
    32
  0
SEQEND
  8
T23SSILL
  0
POLYLINE
  8
T23SSILL
 62
17
 66
     1
 70
     9
  0
VERTEX
  8
T23SSILL
 62
17
 10
2496.917
 20
-3577.771
 30
2935.453
 70
    32
  0
VERTEX
  8
T23SSILL
 62
17
 10
2485.690
 20
-3567.800
 30
2935.419
 70
    32
  0
VERTEX
  8
T23SSILL
 62
17
 10
2475.595
 20
-3569.873
 30
2935.403
 70
    32
  0
VERTEX
  8
T23SSILL
 62
17
 10
2473.934
 20
-3570.688
 30
2935.401
 70
    32
  0
VERTEX
  8
T23SSILL
 62
17
 10
2472.917
 20
-3573.157
 30
2935.402
 70
    32
  0
VERTEX
  8
T23SSILL
 62
17
 10
2468.755
 20
-3567.738
 30
2935.387
 70
    32
  0
VERTEX
  8
T23SSILL
 62
17
 10
2478.861
 20
-3560.606
 30
2935.397
 70
    32
  0
VERTEX
  8
T23SSILL
 62
17
 10
2473.225
 20
-3551.993
 30
2935.376
 70
    32
  0
VERTEX
  8
T23SSILL
 62
17
 10
2545.337
 20
-3500.258
 30
2935.445
 70
    32
  0
VERTEX
  8
T23SSILL
 62
17
 10
2597.163
 20
-3579.952
 30
2935.642
 70
    32
  0
VERTEX
  8
T23SSILL
 62
17
 10
2538.337
 20
-3621.614
 30
2935.585
 70
    32
  0
VERTEX
  8
T23SSILL
 62
17
 10
2528.252
 20
-3607.864
 30
2935.549
 70
    32
  0
VERTEX
  8
T23SSILL
 62
17
 10
2524.402
 20
-3610.780
 30
2935.545
 70
    32
  0
VERTEX
  8
T23SSILL
 62
17
 10
2510.639
 20
-3589.997
 30
2935.494
 70
    32
  0
VERTEX
  8
T23SSILL
 62
17
 10
2501.993
 20
-3582.103
 30
2935.468
 70
    32
  0
VERTEX
  8
T23SSILL
 62
17
 10
2496.917
 20
-3577.771
 30
2935.453
 70
    32
  0
SEQEND
  8
T23SSILL
  0
POLYLINE
  8
T23SSILL
 62
17
 66
     1
 70
     9
  0
VERTEX
  8
T23SSILL
 62
17
 10
2443.188
 20
-3593.867
 30
2935.373
 70
    32
  0
VERTEX
  8
T23SSILL
 62
17
 10
2438.245
 20
-3597.311
 30
2935.368
 70
    32
  0
VERTEX
  8
T23SSILL
 62
17
 10
2428.605
 20
-3583.037
 30
2935.332
 70
    32
  0
VERTEX
  8
T23SSILL
 62
17
 10
2419.913
 20
-3589.295
 30
2935.324
 70
    32
  0
VERTEX
  8
T23SSILL
 62
17
 10
2422.550
 20
-3593.826
 30
2935.334
 70
    32
  0
VERTEX
  8
T23SSILL
 62
17
 10
2417.276
 20
-3597.814
 30
2935.330
 70
    32
  0
VERTEX
  8
T23SSILL
 62
17
 10
2423.774
 20
-3609.151
 30
2935.356
 70
    32
  0
VERTEX
  8
T23SSILL
 62
17
 10
2427.811
 20
-3606.289
 30
2935.360
 70
    32
  0
VERTEX
  8
T23SSILL
 62
17
 10
2444.277
 20
-3631.424
 30
2935.422
 70
    32
  0
VERTEX
  8
T23SSILL
 62
17
 10
2460.095
 20
-3620.155
 30
2935.438
 70
    32
  0
VERTEX
  8
T23SSILL
 62
17
 10
2449.712
 20
-3612.338
 30
2935.408
 70
    32
  0
VERTEX
  8
T23SSILL
 62
17
 10
2445.045
 20
-3605.043
 30
2935.391
 70
    32
  0
VERTEX
  8
T23SSILL
 62
17
 10
2443.193
 20
-3599.505
 30
2935.380
 70
    32
  0
VERTEX
  8
T23SSILL
 62
17
 10
2443.188
 20
-3593.867
 30
2935.373
 70
    32
  0
SEQEND
  8
T23SSILL
  0
POLYLINE
  8
T23SSILL
 62
17
 66
     1
 70
     9
  0
VERTEX
  8
T23SSILL
 62
17
 10
2511.140
 20
-3683.715
 30
2935.613
 70
    32
  0
VERTEX
  8
T23SSILL
 62
17
 10
2518.100
 20
-3701.927
 30
2935.649
 70
    32
  0
VERTEX
  8
T23SSILL
 62
17
 10
2532.801
 20
-3712.021
 30
2935.689
 70
    32
  0
VERTEX
  8
T23SSILL
 62
17
 10
2544.503
 20
-3722.527
 30
2935.724
 70
    32
  0
VERTEX
  8
T23SSILL
 62
17
 10
2549.751
 20
-3717.205
 30
2935.727
 70
    32
  0
VERTEX
  8
T23SSILL
 62
17
 10
2554.793
 20
-3724.123
 30
2935.745
 70
    32
  0
VERTEX
  8
T23SSILL
 62
17
 10
2557.543
 20
-3731.284
 30
2935.760
 70
    32
  0
VERTEX
  8
T23SSILL
 62
17
 10
2557.167
 20
-3733.835
 30
2935.762
 70
    32
  0
VERTEX
  8
T23SSILL
 62
17
 10
2518.413
 20
-3761.033
 30
2935.724
 70
    32
  0
VERTEX
  8
T23SSILL
 62
17
 10
2509.917
 20
-3746.946
 30
2935.691
 70
    32
  0
VERTEX
  8
T23SSILL
 62
17
 10
2514.086
 20
-3743.903
 30
2935.695
 70
    32
  0
VERTEX
  8
T23SSILL
 62
17
 10
2479.498
 20
-3695.038
 30
2935.569
 70
    32
  0
VERTEX
  8
T23SSILL
 62
17
 10
2470.750
 20
-3679.539
 30
2935.533
 70
    32
  0
VERTEX
  8
T23SSILL
 62
17
 10
2493.808
 20
-3663.289
 30
2935.555
 70
    32
  0
VERTEX
  8
T23SSILL
 62
17
 10
2504.327
 20
-3677.748
 30
2935.593
 70
    32
  0
VERTEX
  8
T23SSILL
 62
17
 10
2508.199
 20
-3675.319
 30
2935.597
 70
    32
  0
VERTEX
  8
T23SSILL
 62
17
 10
2509.505
 20
-3679.735
 30
2935.605
 70
    32
  0
VERTEX
  8
T23SSILL
 62
17
 10
2511.140
 20
-3683.715
 30
2935.613
 70
    32
  0
SEQEND
  8
T23SSILL
  0
POLYLINE
  8
T23SSILL
 62
17
 66
     1
 70
     9
  0
VERTEX
  8
T23SSILL
 62
17
 10
2770.366
 20
-3757.198
 30
2936.188
 70
    32
  0
VERTEX
  8
T23SSILL
 62
17
 10
2758.180
 20
-3760.428
 30
2936.170
 70
    32
  0
VERTEX
  8
T23SSILL
 62
17
 10
2761.908
 20
-3766.630
 30
2936.185
 70
    32
  0
VERTEX
  8
T23SSILL
 62
17
 10
2756.321
 20
-3770.540
 30
2936.179
 70
    32
  0
VERTEX
  8
T23SSILL
 62
17
 10
2749.248
 20
-3773.291
 30
2936.169
 70
    32
  0
VERTEX
  8
T23SSILL
 62
17
 10
2745.165
 20
-3767.350
 30
2936.154
 70
    32
  0
VERTEX
  8
T23SSILL
 62
17
 10
2741.739
 20
-3766.348
 30
2936.147
 70
    32
  0
VERTEX
  8
T23SSILL
 62
17
 10
2735.722
 20
-3769.197
 30
2936.139
 70
    32
  0
VERTEX
  8
T23SSILL
 62
17
 10
2731.341
 20
-3773.198
 30
2936.136
 70
    32
  0
VERTEX
  8
T23SSILL
 62
17
 10
2793.510
 20
-3869.549
 30
2936.383
 70
    32
  0
VERTEX
  8
T23SSILL
 62
17
 10
2863.311
 20
-3819.572
 30
2936.441
 70
    32
  0
VERTEX
  8
T23SSILL
 62
17
 10
2830.132
 20
-3779.881
 30
2936.330
 70
    32
  0
VERTEX
  8
T23SSILL
 62
17
 10
2775.816
 20
-3758.307
 30
2936.200
 70
    32
  0
VERTEX
  8
T23SSILL
 62
17
 10
2770.366
 20
-3757.198
 30
2936.188
 70
    32
  0
SEQEND
  8
T23SSILL
  0
POLYLINE
  8
T23SSILL
 62
17
 66
     1
 70
     9
  0
VERTEX
  8
T23SSILL
 62
17
 10
2600.239
 20
-3770.539
 30
2935.889
 70
    32
  0
VERTEX
  8
T23SSILL
 62
17
 10
2627.261
 20
-3809.202
 30
2935.988
 70
    32
  0
VERTEX
  8
T23SSILL
 62
17
 10
2673.637
 20
-3777.057
 30
2936.034
 70
    32
  0
VERTEX
  8
T23SSILL
 62
17
 10
2680.763
 20
-3787.167
 30
2936.060
 70
    32
  0
VERTEX
  8
T23SSILL
 62
17
 10
2671.775
 20
-3787.521
 30
2936.043
 70
    32
  0
VERTEX
  8
T23SSILL
 62
17
 10
2632.849
 20
-3814.365
 30
2936.005
 70
    32
  0
VERTEX
  8
T23SSILL
 62
17
 10
2649.961
 20
-3839.368
 30
2936.068
 70
    32
  0
VERTEX
  8
T23SSILL
 62
17
 10
2696.704
 20
-3851.532
 30
2936.171
 70
    32
  0
VERTEX
  8
T23SSILL
 62
17
 10
2697.613
 20
-3848.634
 30
2936.169
 70
    32
  0
VERTEX
  8
T23SSILL
 62
17
 10
2681.956
 20
-3828.048
 30
2936.114
 70
    32
  0
VERTEX
  8
T23SSILL
 62
17
 10
2682.536
 20
-3822.681
 30
2936.108
 70
    32
  0
VERTEX
  8
T23SSILL
 62
17
 10
2687.769
 20
-3818.856
 30
2936.113
 70
    32
  0
VERTEX
  8
T23SSILL
 62
17
 10
2693.331
 20
-3817.588
 30
2936.121
 70
    32
  0
VERTEX
  8
T23SSILL
 62
17
 10
2724.388
 20
-3858.051
 30
2936.230
 70
    32
  0
VERTEX
  8
T23SSILL
 62
17
 10
2731.417
 20
-3859.793
 30
2936.246
 70
    32
  0
VERTEX
  8
T23SSILL
 62
17
 10
2760.866
 20
-3838.407
 30
2936.273
 70
    32
  0
VERTEX
  8
T23SSILL
 62
17
 10
2762.309
 20
-3834.898
 30
2936.272
 70
    32
  0
VERTEX
  8
T23SSILL
 62
17
 10
2725.332
 20
-3777.095
 30
2936.130
 70
    32
  0
VERTEX
  8
T23SSILL
 62
17
 10
2711.244
 20
-3786.667
 30
2936.116
 70
    32
  0
VERTEX
  8
T23SSILL
 62
17
 10
2720.279
 20
-3799.701
 30
2936.149
 70
    32
  0
VERTEX
  8
T23SSILL
 62
17
 10
2706.098
 20
-3808.902
 30
2936.134
 70
    32
  0
VERTEX
  8
T23SSILL
 62
17
 10
2703.068
 20
-3803.412
 30
2936.122
 70
    32
  0
VERTEX
  8
T23SSILL
 62
17
 10
2701.591
 20
-3792.123
 30
2936.105
 70
    32
  0
VERTEX
  8
T23SSILL
 62
17
 10
2699.154
 20
-3789.017
 30
2936.096
 70
    32
  0
VERTEX
  8
T23SSILL
 62
17
 10
2702.019
 20
-3784.200
 30
2936.095
 70
    32
  0
VERTEX
  8
T23SSILL
 62
17
 10
2701.905
 20
-3777.681
 30
2936.087
 70
    32
  0
VERTEX
  8
T23SSILL
 62
17
 10
2691.814
 20
-3755.387
 30
2936.040
 70
    32
  0
VERTEX
  8
T23SSILL
 62
17
 10
2699.165
 20
-3751.141
 30
2936.048
 70
    32
  0
VERTEX
  8
T23SSILL
 62
17
 10
2708.303
 20
-3771.840
 30
2936.091
 70
    32
  0
VERTEX
  8
T23SSILL
 62
17
 10
2711.969
 20
-3775.399
 30
2936.103
 70
    32
  0
VERTEX
  8
T23SSILL
 62
17
 10
2715.398
 20
-3776.048
 30
2936.110
 70
    32
  0
VERTEX
  8
T23SSILL
 62
17
 10
2721.504
 20
-3771.190
 30
2936.115
 70
    32
  0
VERTEX
  8
T23SSILL
 62
17
 10
2656.080
 20
-3670.266
 30
2935.866
 70
    32
  0
VERTEX
  8
T23SSILL
 62
17
 10
2640.283
 20
-3681.072
 30
2935.850
 70
    32
  0
VERTEX
  8
T23SSILL
 62
17
 10
2600.268
 20
-3712.405
 30
2935.815
 70
    32
  0
VERTEX
  8
T23SSILL
 62
17
 10
2610.962
 20
-3727.041
 30
2935.854
 70
    32
  0
VERTEX
  8
T23SSILL
 62
17
 10
2625.825
 20
-3720.225
 30
2935.873
 70
    32
  0
VERTEX
  8
T23SSILL
 62
17
 10
2636.236
 20
-3727.636
 30
2935.901
 70
    32
  0
VERTEX
  8
T23SSILL
 62
17
 10
2636.191
 20
-3732.304
 30
2935.907
 70
    32
  0
VERTEX
  8
T23SSILL
 62
17
 10
2630.965
 20
-3744.497
 30
2935.913
 70
    32
  0
VERTEX
  8
T23SSILL
 62
17
 10
2615.745
 20
-3751.838
 30
2935.894
 70
    32
  0
VERTEX
  8
T23SSILL
 62
17
 10
2613.700
 20
-3753.756
 30
2935.893
 70
    32
  0
VERTEX
  8
T23SSILL
 62
17
 10
2609.028
 20
-3763.400
 30
2935.896
 70
    32
  0
VERTEX
  8
T23SSILL
 62
17
 10
2603.145
 20
-3770.567
 30
2935.894
 70
    32
  0
VERTEX
  8
T23SSILL
 62
17
 10
2600.239
 20
-3770.539
 30
2935.889
 70
    32
  0
SEQEND
  8
T23SSILL
  0
POLYLINE
  8
T23SSILL
 62
17
 66
     1
 70
     9
  0
VERTEX
  8
T23SSILL
 62
17
 10
2333.106
 20
-3455.079
 30
2934.993
 70
    32
  0
VERTEX
  8
T23SSILL
 62
17
 10
2320.790
 20
-3462.201
 30
2934.979
 70
    32
  0
VERTEX
  8
T23SSILL
 62
17
 10
2317.663
 20
-3465.236
 30
2934.977
 70
    32
  0
VERTEX
  8
T23SSILL
 62
17
 10
2317.276
 20
-3469.202
 30
2934.981
 70
    32
  0
VERTEX
  8
T23SSILL
 62
17
 10
2325.045
 20
-3490.312
 30
2935.022
 70
    32
  0
VERTEX
  8
T23SSILL
 62
17
 10
2324.208
 20
-3493.492
 30
2935.025
 70
    32
  0
VERTEX
  8
T23SSILL
 62
17
 10
2298.657
 20
-3511.356
 30
2935.000
 70
    32
  0
VERTEX
  8
T23SSILL
 62
17
 10
2284.958
 20
-3474.834
 30
2934.928
 70
    32
  0
VERTEX
  8
T23SSILL
 62
17
 10
2330.741
 20
-3442.964
 30
2934.973
 70
    32
  0
VERTEX
  8
T23SSILL
 62
17
 10
2336.751
 20
-3451.245
 30
2934.994
 70
    32
  0
VERTEX
  8
T23SSILL
 62
17
 10
2334.400
 20
-3453.125
 30
2934.992
 70
    32
  0
VERTEX
  8
T23SSILL
 62
17
 10
2333.106
 20
-3455.079
 30
2934.993
 70
    32
  0
SEQEND
  8
T23SSILL
  0
POLYLINE
  8
T23SSILL
 62
17
 66
     1
 70
     9
  0
VERTEX
  8
T23SSILL
 62
17
 10
2121.572
 20
-3488.924
 30
2934.642
 70
    32
  0
VERTEX
  8
T23SSILL
 62
17
 10
2124.532
 20
-3510.885
 30
2934.675
 70
    32
  0
VERTEX
  8
T23SSILL
 62
17
 10
2132.291
 20
-3528.488
 30
2934.712
 70
    32
  0
VERTEX
  8
T23SSILL
 62
17
 10
2142.857
 20
-3528.853
 30
2934.732
 70
    32
  0
VERTEX
  8
T23SSILL
 62
17
 10
2153.318
 20
-3521.819
 30
2934.742
 70
    32
  0
VERTEX
  8
T23SSILL
 62
17
 10
2129.439
 20
-3467.683
 30
2934.629
 70
    32
  0
VERTEX
  8
T23SSILL
 62
17
 10
2127.696
 20
-3465.729
 30
2934.624
 70
    32
  0
VERTEX
  8
T23SSILL
 62
17
 10
2108.490
 20
-3457.000
 30
2934.577
 70
    32
  0
VERTEX
  8
T23SSILL
 62
17
 10
2114.231
 20
-3473.703
 30
2934.609
 70
    32
  0
VERTEX
  8
T23SSILL
 62
17
 10
2115.879
 20
-3476.361
 30
2934.615
 70
    32
  0
VERTEX
  8
T23SSILL
 62
17
 10
2119.402
 20
-3476.395
 30
2934.622
 70
    32
  0
VERTEX
  8
T23SSILL
 62
17
 10
2119.915
 20
-3477.986
 30
2934.625
 70
    32
  0
VERTEX
  8
T23SSILL
 62
17
 10
2121.572
 20
-3488.924
 30
2934.642
 70
    32
  0
SEQEND
  8
T23SSILL
  0
POLYLINE
  8
T23SSILL
 62
17
 66
     1
 70
     9
  0
VERTEX
  8
T23SSILL
 62
17
 10
2273.362
 20
-3444.230
 30
2934.868
 70
    32
  0
VERTEX
  8
T23SSILL
 62
17
 10
2281.967
 20
-3468.449
 30
2934.914
 70
    32
  0
VERTEX
  8
T23SSILL
 62
17
 10
2325.575
 20
-3438.544
 30
2934.958
 70
    32
  0
VERTEX
  8
T23SSILL
 62
17
 10
2314.971
 20
-3425.705
 30
2934.922
 70
    32
  0
VERTEX
  8
T23SSILL
 62
17
 10
2309.725
 20
-3428.949
 30
2934.916
 70
    32
  0
VERTEX
  8
T23SSILL
 62
17
 10
2303.701
 20
-3424.348
 30
2934.899
 70
    32
  0
VERTEX
  8
T23SSILL
 62
17
 10
2254.803
 20
-3456.115
 30
2934.848
 70
    32
  0
VERTEX
  8
T23SSILL
 62
17
 10
2194.480
 20
-3500.634
 30
2934.792
 70
    32
  0
VERTEX
  8
T23SSILL
 62
17
 10
2194.052
 20
-3508.469
 30
2934.801
 70
    32
  0
VERTEX
  8
T23SSILL
 62
17
 10
2202.738
 20
-3539.558
 30
2934.857
 70
    32
  0
VERTEX
  8
T23SSILL
 62
17
 10
2205.327
 20
-3545.132
 30
2934.869
 70
    32
  0
VERTEX
  8
T23SSILL
 62
17
 10
2224.572
 20
-3568.218
 30
2934.934
 70
    32
  0
VERTEX
  8
T23SSILL
 62
17
 10
2224.915
 20
-3578.351
 30
2934.947
 70
    32
  0
VERTEX
  8
T23SSILL
 62
17
 10
2217.751
 20
-3581.365
 30
2934.938
 70
    32
  0
VERTEX
  8
T23SSILL
 62
17
 10
2215.288
 20
-3571.916
 30
2934.921
 70
    32
  0
VERTEX
  8
T23SSILL
 62
17
 10
2207.995
 20
-3560.836
 30
2934.894
 70
    32
  0
VERTEX
  8
T23SSILL
 62
17
 10
2203.121
 20
-3563.960
 30
2934.888
 70
    32
  0
VERTEX
  8
T23SSILL
 62
17
 10
2196.592
 20
-3555.882
 30
2934.866
 70
    32
  0
VERTEX
  8
T23SSILL
 62
17
 10
2191.411
 20
-3554.247
 30
2934.854
 70
    32
  0
VERTEX
  8
T23SSILL
 62
17
 10
2189.115
 20
-3554.841
 30
2934.851
 70
    32
  0
VERTEX
  8
T23SSILL
 62
17
 10
2190.872
 20
-3546.138
 30
2934.843
 70
    32
  0
VERTEX
  8
T23SSILL
 62
17
 10
2195.590
 20
-3540.986
 30
2934.845
 70
    32
  0
VERTEX
  8
T23SSILL
 62
17
 10
2186.496
 20
-3506.547
 30
2934.785
 70
    32
  0
VERTEX
  8
T23SSILL
 62
17
 10
2160.955
 20
-3524.535
 30
2934.760
 70
    32
  0
VERTEX
  8
T23SSILL
 62
17
 10
2161.595
 20
-3531.323
 30
2934.770
 70
    32
  0
VERTEX
  8
T23SSILL
 62
17
 10
2153.810
 20
-3534.860
 30
2934.760
 70
    32
  0
VERTEX
  8
T23SSILL
 62
17
 10
2153.154
 20
-3529.745
 30
2934.752
 70
    32
  0
VERTEX
  8
T23SSILL
 62
17
 10
2057.092
 20
-3599.377
 30
2934.661
 70
    32
  0
VERTEX
  8
T23SSILL
 62
17
 10
2055.338
 20
-3607.816
 30
2934.669
 70
    32
  0
VERTEX
  8
T23SSILL
 62
17
 10
2057.864
 20
-3629.068
 30
2934.700
 70
    32
  0
VERTEX
  8
T23SSILL
 62
17
 10
2059.395
 20
-3634.720
 30
2934.710
 70
    32
  0
VERTEX
  8
T23SSILL
 62
17
 10
2067.890
 20
-3649.071
 30
2934.744
 70
    32
  0
VERTEX
  8
T23SSILL
 62
17
 10
2072.593
 20
-3654.577
 30
2934.760
 70
    32
  0
VERTEX
  8
T23SSILL
 62
17
 10
2106.892
 20
-3678.512
 30
2934.854
 70
    32
  0
VERTEX
  8
T23SSILL
 62
17
 10
2149.463
 20
-3712.392
 30
2934.976
 70
    32
  0
VERTEX
  8
T23SSILL
 62
17
 10
2153.652
 20
-3716.396
 30
2934.989
 70
    32
  0
VERTEX
  8
T23SSILL
 62
17
 10
2166.348
 20
-3733.518
 30
2935.034
 70
    32
  0
VERTEX
  8
T23SSILL
 62
17
 10
2179.270
 20
-3754.518
 30
2935.085
 70
    32
  0
VERTEX
  8
T23SSILL
 62
17
 10
2349.570
 20
-3631.508
 30
2935.246
 70
    32
  0
VERTEX
  8
T23SSILL
 62
17
 10
2323.027
 20
-3594.741
 30
2935.150
 70
    32
  0
VERTEX
  8
T23SSILL
 62
17
 10
2317.971
 20
-3578.876
 30
2935.121
 70
    32
  0
VERTEX
  8
T23SSILL
 62
17
 10
2286.056
 20
-3497.355
 30
2934.958
 70
    32
  0
VERTEX
  8
T23SSILL
 62
17
 10
2267.860
 20
-3505.788
 30
2934.935
 70
    32
  0
VERTEX
  8
T23SSILL
 62
17
 10
2263.133
 20
-3494.760
 30
2934.913
 70
    32
  0
VERTEX
  8
T23SSILL
 62
17
 10
2269.981
 20
-3491.826
 30
2934.922
 70
    32
  0
VERTEX
  8
T23SSILL
 62
17
 10
2271.342
 20
-3496.410
 30
2934.930
 70
    32
  0
VERTEX
  8
T23SSILL
 62
17
 10
2284.212
 20
-3491.218
 30
2934.947
 70
    32
  0
VERTEX
  8
T23SSILL
 62
17
 10
2267.169
 20
-3448.289
 30
2934.861
 70
    32
  0
VERTEX
  8
T23SSILL
 62
17
 10
2273.362
 20
-3444.230
 30
2934.868
 70
    32
  0
SEQEND
  8
T23SSILL
  0
POLYLINE
  8
T23SSILL
 62
17
 66
     1
 70
     9
  0
VERTEX
  8
T23SSILL
 62
17
 10
2385.279
 20
-3454.919
 30
2935.089
 70
    32
  0
VERTEX
  8
T23SSILL
 62
17
 10
2389.268
 20
-3460.048
 30
2935.103
 70
    32
  0
VERTEX
  8
T23SSILL
 62
17
 10
2368.872
 20
-3474.298
 30
2935.083
 70
    32
  0
VERTEX
  8
T23SSILL
 62
17
 10
2390.260
 20
-3503.483
 30
2935.160
 70
    32
  0
VERTEX
  8
T23SSILL
 62
17
 10
2424.855
 20
-3478.183
 30
2935.193
 70
    32
  0
VERTEX
  8
T23SSILL
 62
17
 10
2399.547
 20
-3444.468
 30
2935.103
 70
    32
  0
VERTEX
  8
T23SSILL
 62
17
 10
2397.789
 20
-3445.753
 30
2935.101
 70
    32
  0
VERTEX
  8
T23SSILL
 62
17
 10
2389.991
 20
-3428.056
 30
2935.064
 70
    32
  0
VERTEX
  8
T23SSILL
 62
17
 10
2388.180
 20
-3419.840
 30
2935.050
 70
    32
  0
VERTEX
  8
T23SSILL
 62
17
 10
2384.105
 20
-3410.005
 30
2935.030
 70
    32
  0
VERTEX
  8
T23SSILL
 62
17
 10
2377.587
 20
-3398.635
 30
2935.004
 70
    32
  0
VERTEX
  8
T23SSILL
 62
17
 10
2372.590
 20
-3397.238
 30
2934.993
 70
    32
  0
VERTEX
  8
T23SSILL
 62
17
 10
2358.026
 20
-3405.379
 30
2934.976
 70
    32
  0
VERTEX
  8
T23SSILL
 62
17
 10
2357.248
 20
-3404.399
 30
2934.973
 70
    32
  0
VERTEX
  8
T23SSILL
 62
17
 10
2371.756
 20
-3394.083
 30
2934.987
 70
    32
  0
VERTEX
  8
T23SSILL
 62
17
 10
2362.542
 20
-3380.955
 30
2934.954
 70
    32
  0
VERTEX
  8
T23SSILL
 62
17
 10
2381.415
 20
-3367.174
 30
2934.971
 70
    32
  0
VERTEX
  8
T23SSILL
 62
17
 10
2392.026
 20
-3381.424
 30
2935.009
 70
    32
  0
VERTEX
  8
T23SSILL
 62
17
 10
2386.060
 20
-3385.823
 30
2935.003
 70
    32
  0
VERTEX
  8
T23SSILL
 62
17
 10
2394.205
 20
-3400.123
 30
2935.037
 70
    32
  0
VERTEX
  8
T23SSILL
 62
17
 10
2401.341
 20
-3417.048
 30
2935.071
 70
    32
  0
VERTEX
  8
T23SSILL
 62
17
 10
2412.603
 20
-3417.573
 30
2935.093
 70
    32
  0
VERTEX
  8
T23SSILL
 62
17
 10
2424.839
 20
-3406.227
 30
2935.101
 70
    32
  0
VERTEX
  8
T23SSILL
 62
17
 10
2427.273
 20
-3402.478
 30
2935.101
 70
    32
  0
VERTEX
  8
T23SSILL
 62
17
 10
2423.173
 20
-3388.504
 30
2935.076
 70
    32
  0
VERTEX
  8
T23SSILL
 62
17
 10
2422.264
 20
-3378.894
 30
2935.062
 70
    32
  0
VERTEX
  8
T23SSILL
 62
17
 10
2414.881
 20
-3366.542
 30
2935.033
 70
    32
  0
VERTEX
  8
T23SSILL
 62
17
 10
2397.632
 20
-3377.548
 30
2935.015
 70
    32
  0
VERTEX
  8
T23SSILL
 62
17
 10
2386.929
 20
-3363.561
 30
2934.977
 70
    32
  0
VERTEX
  8
T23SSILL
 62
17
 10
2434.694
 20
-3330.855
 30
2935.024
 70
    32
  0
VERTEX
  8
T23SSILL
 62
17
 10
2486.547
 20
-3409.304
 30
2935.220
 70
    32
  0
VERTEX
  8
T23SSILL
 62
17
 10
2446.396
 20
-3436.883
 30
2935.180
 70
    32
  0
VERTEX
  8
T23SSILL
 62
17
 10
2414.702
 20
-3425.588
 30
2935.107
 70
    32
  0
VERTEX
  8
T23SSILL
 62
17
 10
2411.636
 20
-3432.958
 30
2935.111
 70
    32
  0
VERTEX
  8
T23SSILL
 62
17
 10
2475.820
 20
-3454.273
 30
2935.257
 70
    32
  0
VERTEX
  8
T23SSILL
 62
17
 10
2478.786
 20
-3448.048
 30
2935.255
 70
    32
  0
VERTEX
  8
T23SSILL
 62
17
 10
2454.994
 20
-3439.892
 30
2935.200
 70
    32
  0
VERTEX
  8
T23SSILL
 62
17
 10
2489.940
 20
-3415.074
 30
2935.234
 70
    32
  0
VERTEX
  8
T23SSILL
 62
17
 10
2541.193
 20
-3493.886
 30
2935.429
 70
    32
  0
VERTEX
  8
T23SSILL
 62
17
 10
2468.772
 20
-3546.164
 30
2935.360
 70
    32
  0
VERTEX
  8
T23SSILL
 62
17
 10
2464.773
 20
-3540.664
 30
2935.346
 70
    32
  0
VERTEX
  8
T23SSILL
 62
17
 10
2459.626
 20
-3544.667
 30
2935.341
 70
    32
  0
VERTEX
  8
T23SSILL
 62
17
 10
2455.711
 20
-3539.520
 30
2935.328
 70
    32
  0
VERTEX
  8
T23SSILL
 62
17
 10
2451.011
 20
-3542.910
 30
2935.323
 70
    32
  0
VERTEX
  8
T23SSILL
 62
17
 10
2444.581
 20
-3533.688
 30
2935.299
 70
    32
  0
VERTEX
  8
T23SSILL
 62
17
 10
2425.107
 20
-3547.857
 30
2935.281
 70
    32
  0
VERTEX
  8
T23SSILL
 62
17
 10
2428.458
 20
-3552.471
 30
2935.293
 70
    32
  0
VERTEX
  8
T23SSILL
 62
17
 10
2369.995
 20
-3595.863
 30
2935.239
 70
    32
  0
VERTEX
  8
T23SSILL
 62
17
 10
2375.817
 20
-3604.110
 30
2935.261
 70
    32
  0
VERTEX
  8
T23SSILL
 62
17
 10
2371.549
 20
-3608.297
 30
2935.258
 70
    32
  0
VERTEX
  8
T23SSILL
 62
17
 10
2375.461
 20
-3613.708
 30
2935.272
 70
    32
  0
VERTEX
  8
T23SSILL
 62
17
 10
2371.997
 20
-3616.669
 30
2935.269
 70
    32
  0
VERTEX
  8
T23SSILL
 62
17
 10
2369.253
 20
-3618.235
 30
2935.266
 70
    32
  0
VERTEX
  8
T23SSILL
 62
17
 10
2359.837
 20
-3603.472
 30
2935.230
 70
    32
  0
VERTEX
  8
T23SSILL
 62
17
 10
2361.942
 20
-3601.696
 30
2935.232
 70
    32
  0
VERTEX
  8
T23SSILL
 62
17
 10
2349.568
 20
-3585.050
 30
2935.188
 70
    32
  0
VERTEX
  8
T23SSILL
 62
17
 10
2335.390
 20
-3584.626
 30
2935.161
 70
    32
  0
VERTEX
  8
T23SSILL
 62
17
 10
2327.773
 20
-3587.634
 30
2935.150
 70
    32
  0
VERTEX
  8
T23SSILL
 62
17
 10
2301.308
 20
-3518.539
 30
2935.014
 70
    32
  0
VERTEX
  8
T23SSILL
 62
17
 10
2353.283
 20
-3482.447
 30
2935.065
 70
    32
  0
VERTEX
  8
T23SSILL
 62
17
 10
2350.004
 20
-3448.336
 30
2935.015
 70
    32
  0
VERTEX
  8
T23SSILL
 62
17
 10
2348.612
 20
-3443.073
 30
2935.006
 70
    32
  0
VERTEX
  8
T23SSILL
 62
17
 10
2340.622
 20
-3444.590
 30
2934.993
 70
    32
  0
VERTEX
  8
T23SSILL
 62
17
 10
2317.000
 20
-3414.617
 30
2934.911
 70
    32
  0
VERTEX
  8
T23SSILL
 62
17
 10
2338.435
 20
-3398.933
 30
2934.931
 70
    32
  0
VERTEX
  8
T23SSILL
 62
17
 10
2347.189
 20
-3411.551
 30
2934.964
 70
    32
  0
VERTEX
  8
T23SSILL
 62
17
 10
2351.452
 20
-3409.240
 30
2934.969
 70
    32
  0
VERTEX
  8
T23SSILL
 62
17
 10
2350.419
 20
-3413.451
 30
2934.972
 70
    32
  0
VERTEX
  8
T23SSILL
 62
17
 10
2353.092
 20
-3438.914
 30
2935.009
 70
    32
  0
VERTEX
  8
T23SSILL
 62
17
 10
2355.508
 20
-3444.222
 30
2935.021
 70
    32
  0
VERTEX
  8
T23SSILL
 62
17
 10
2360.841
 20
-3448.413
 30
2935.036
 70
    32
  0
VERTEX
  8
T23SSILL
 62
17
 10
2373.728
 20
-3454.702
 30
2935.068
 70
    32
  0
VERTEX
  8
T23SSILL
 62
17
 10
2379.438
 20
-3456.343
 30
2935.080
 70
    32
  0
VERTEX
  8
T23SSILL
 62
17
 10
2385.176
 20
-3454.988
 30
2935.089
 70
    32
  0
VERTEX
  8
T23SSILL
 62
17
 10
2385.279
 20
-3454.919
 30
2935.089
 70
    32
  0
SEQEND
  8
T23SSILL
  0
POLYLINE
  8
T23SSILL
 62
17
 66
     1
 70
     9
  0
VERTEX
  8
T23SSILL
 62
17
 10
1927.467
 20
-3440.112
 30
2934.276
 70
    32
  0
VERTEX
  8
T23SSILL
 62
17
 10
1923.841
 20
-3441.575
 30
2934.281
 70
    32
  0
VERTEX
  8
T23SSILL
 62
17
 10
1941.182
 20
-3470.280
 30
2934.310
 70
    32
  0
VERTEX
  8
T23SSILL
 62
17
 10
1944.582
 20
-3473.924
 30
2934.313
 70
    32
  0
VERTEX
  8
T23SSILL
 62
17
 10
1953.693
 20
-3479.120
 30
2934.317
 70
    32
  0
VERTEX
  8
T23SSILL
 62
17
 10
1969.519
 20
-3482.091
 30
2934.350
 70
    32
  0
VERTEX
  8
T23SSILL
 62
17
 10
1974.153
 20
-3476.498
 30
2934.352
 70
    32
  0
VERTEX
  8
T23SSILL
 62
17
 10
1976.513
 20
-3478.370
 30
2934.358
 70
    32
  0
VERTEX
  8
T23SSILL
 62
17
 10
1976.025
 20
-3474.226
 30
2934.352
 70
    32
  0
VERTEX
  8
T23SSILL
 62
17
 10
1941.726
 20
-3441.130
 30
2934.267
 70
    32
  0
VERTEX
  8
T23SSILL
 62
17
 10
1937.582
 20
-3441.619
 30
2934.271
 70
    32
  0
VERTEX
  8
T23SSILL
 62
17
 10
1931.255
 20
-3439.972
 30
2934.273
 70
    32
  0
VERTEX
  8
T23SSILL
 62
17
 10
1927.467
 20
-3440.112
 30
2934.276
 70
    32
  0
SEQEND
  8
T23SSILL
  0
POLYLINE
  8
T23SSILL
 62
17
 66
     1
 70
     9
  0
VERTEX
  8
T23SSILL
 62
17
 10
2241.598
 20
-3309.917
 30
2934.639
 70
    32
  0
VERTEX
  8
T23SSILL
 62
17
 10
2239.149
 20
-3314.634
 30
2934.640
 70
    32
  0
VERTEX
  8
T23SSILL
 62
17
 10
2238.984
 20
-3319.650
 30
2934.646
 70
    32
  0
VERTEX
  8
T23SSILL
 62
17
 10
2246.838
 20
-3335.706
 30
2934.681
 70
    32
  0
VERTEX
  8
T23SSILL
 62
17
 10
2242.626
 20
-3340.572
 30
2934.679
 70
    32
  0
VERTEX
  8
T23SSILL
 62
17
 10
2241.266
 20
-3343.104
 30
2934.680
 70
    32
  0
VERTEX
  8
T23SSILL
 62
17
 10
2241.486
 20
-3346.013
 30
2934.684
 70
    32
  0
VERTEX
  8
T23SSILL
 62
17
 10
2238.068
 20
-3350.715
 30
2934.684
 70
    32
  0
VERTEX
  8
T23SSILL
 62
17
 10
2239.752
 20
-3355.760
 30
2934.693
 70
    32
  0
VERTEX
  8
T23SSILL
 62
17
 10
2243.907
 20
-3360.401
 30
2934.707
 70
    32
  0
VERTEX
  8
T23SSILL
 62
17
 10
2246.728
 20
-3365.903
 30
2934.719
 70
    32
  0
VERTEX
  8
T23SSILL
 62
17
 10
2248.951
 20
-3375.974
 30
2934.736
 70
    32
  0
VERTEX
  8
T23SSILL
 62
17
 10
2262.296
 20
-3389.914
 30
2934.778
 70
    32
  0
VERTEX
  8
T23SSILL
 62
17
 10
2270.036
 20
-3350.148
 30
2934.742
 70
    32
  0
VERTEX
  8
T23SSILL
 62
17
 10
2247.196
 20
-3306.569
 30
2934.645
 70
    32
  0
VERTEX
  8
T23SSILL
 62
17
 10
2244.003
 20
-3308.105
 30
2934.641
 70
    32
  0
VERTEX
  8
T23SSILL
 62
17
 10
2241.598
 20
-3309.917
 30
2934.639
 70
    32
  0
SEQEND
  8
T23SSILL
  0
POLYLINE
  8
T23SSILL
 62
17
 66
     1
 70
     9
  0
VERTEX
  8
T23SSILL
 62
17
 10
2260.865
 20
-3444.351
 30
2934.845
 70
    32
  0
VERTEX
  8
T23SSILL
 62
17
 10
2286.098
 20
-3428.137
 30
2934.871
 70
    32
  0
VERTEX
  8
T23SSILL
 62
17
 10
2337.122
 20
-3390.620
 30
2934.918
 70
    32
  0
VERTEX
  8
T23SSILL
 62
17
 10
2323.773
 20
-3382.667
 30
2934.884
 70
    32
  0
VERTEX
  8
T23SSILL
 62
17
 10
2283.104
 20
-3324.728
 30
2934.735
 70
    32
  0
VERTEX
  8
T23SSILL
 62
17
 10
2262.677
 20
-3428.219
 30
2934.828
 70
    32
  0
VERTEX
  8
T23SSILL
 62
17
 10
2260.865
 20
-3444.351
 30
2934.845
 70
    32
  0
SEQEND
  8
T23SSILL
  0
POLYLINE
  8
T23SSILL
 62
17
 66
     1
 70
     9
  0
VERTEX
  8
T23SSILL
 62
17
 10
2479.315
 20
-3378.162
 30
2935.167
 70
    32
  0
VERTEX
  8
T23SSILL
 62
17
 10
2484.102
 20
-3381.646
 30
2935.181
 70
    32
  0
VERTEX
  8
T23SSILL
 62
17
 10
2498.076
 20
-3385.845
 30
2935.218
 70
    32
  0
VERTEX
  8
T23SSILL
 62
17
 10
2511.019
 20
-3378.827
 30
2935.263
 70
    32
  0
VERTEX
  8
T23SSILL
 62
17
 10
2516.576
 20
-3378.652
 30
2935.282
 70
    32
  0
VERTEX
  8
T23SSILL
 62
17
 10
2525.120
 20
-3381.198
 30
2935.311
 70
    32
  0
VERTEX
  8
T23SSILL
 62
17
 10
2664.169
 20
-3281.511
 30
2935.790
 70
    32
  0
VERTEX
  8
T23SSILL
 62
17
 10
2609.408
 20
-3204.720
 30
2935.608
 70
    32
  0
VERTEX
  8
T23SSILL
 62
17
 10
2439.654
 20
-3325.275
 30
2935.027
 70
    32
  0
VERTEX
  8
T23SSILL
 62
17
 10
2473.505
 20
-3375.710
 30
2935.153
 70
    32
  0
VERTEX
  8
T23SSILL
 62
17
 10
2476.693
 20
-3376.044
 30
2935.160
 70
    32
  0
VERTEX
  8
T23SSILL
 62
17
 10
2479.315
 20
-3378.162
 30
2935.167
 70
    32
  0
SEQEND
  8
T23SSILL
  0
POLYLINE
  8
T23SSILL
 62
17
 66
     1
 70
     9
  0
VERTEX
  8
T23SSILL
 62
17
 10
2284.914
 20
-3315.775
 30
2934.727
 70
    32
  0
VERTEX
  8
T23SSILL
 62
17
 10
2288.953
 20
-3295.667
 30
2934.709
 70
    32
  0
VERTEX
  8
T23SSILL
 62
17
 10
2291.775
 20
-3298.976
 30
2934.718
 70
    32
  0
VERTEX
  8
T23SSILL
 62
17
 10
2301.133
 20
-3291.548
 30
2934.726
 70
    32
  0
VERTEX
  8
T23SSILL
 62
17
 10
2294.328
 20
-3281.758
 30
2934.701
 70
    32
  0
VERTEX
  8
T23SSILL
 62
17
 10
2291.321
 20
-3283.875
 30
2934.698
 70
    32
  0
VERTEX
  8
T23SSILL
 62
17
 10
2317.865
 20
-3152.974
 30
2934.616
 70
    32
  0
VERTEX
  8
T23SSILL
 62
17
 10
2430.557
 20
-3324.197
 30
2935.008
 70
    32
  0
VERTEX
  8
T23SSILL
 62
17
 10
2342.730
 20
-3386.656
 30
2934.924
 70
    32
  0
VERTEX
  8
T23SSILL
 62
17
 10
2328.943
 20
-3378.521
 30
2934.888
 70
    32
  0
VERTEX
  8
T23SSILL
 62
17
 10
2300.788
 20
-3337.061
 30
2934.783
 70
    32
  0
VERTEX
  8
T23SSILL
 62
17
 10
2284.914
 20
-3315.775
 30
2934.727
 70
    32
  0
SEQEND
  8
T23SSILL
  0
POLYLINE
  8
T23SSILL
 62
17
 66
     1
 70
     9
  0
VERTEX
  8
T23SSILL
 62
17
 10
1959.299
 20
-2622.285
 30
2933.836
 70
    32
  0
VERTEX
  8
T23SSILL
 62
17
 10
1964.041
 20
-2628.873
 30
2933.762
 70
    32
  0
VERTEX
  8
T23SSILL
 62
17
 10
1988.645
 20
-2637.790
 30
2933.671
 70
    32
  0
VERTEX
  8
T23SSILL
 62
17
 10
1991.772
 20
-2640.568
 30
2933.648
 70
    32
  0
VERTEX
  8
T23SSILL
 62
17
 10
2003.058
 20
-2656.677
 30
2933.656
 70
    32
  0
VERTEX
  8
T23SSILL
 62
17
 10
1993.758
 20
-2591.382
 30
2934.217
 70
    32
  0
VERTEX
  8
T23SSILL
 62
17
 10
1962.687
 20
-2613.797
 30
2933.937
 70
    32
  0
VERTEX
  8
T23SSILL
 62
17
 10
1960.865
 20
-2617.819
 30
2933.889
 70
    32
  0
VERTEX
  8
T23SSILL
 62
17
 10
1959.299
 20
-2622.285
 30
2933.836
 70
    32
  0
SEQEND
  8
T23SSILL
  0
POLYLINE
  8
T23SSILL
 62
17
 66
     1
 70
     9
  0
VERTEX
  8
T23SSILL
 62
17
 10
1808.585
 20
-2759.174
 30
2933.364
 70
    32
  0
VERTEX
  8
T23SSILL
 62
17
 10
1842.839
 20
-2737.133
 30
2933.306
 70
    32
  0
VERTEX
  8
T23SSILL
 62
17
 10
1860.641
 20
-2723.078
 30
2933.272
 70
    32
  0
VERTEX
  8
T23SSILL
 62
17
 10
1868.545
 20
-2721.325
 30
2933.264
 70
    32
  0
VERTEX
  8
T23SSILL
 62
17
 10
1883.441
 20
-2714.570
 30
2933.243
 70
    32
  0
VERTEX
  8
T23SSILL
 62
17
 10
1922.838
 20
-2684.855
 30
2933.294
 70
    32
  0
VERTEX
  8
T23SSILL
 62
17
 10
1924.926
 20
-2682.457
 30
2933.301
 70
    32
  0
VERTEX
  8
T23SSILL
 62
17
 10
1924.900
 20
-2679.816
 30
2933.301
 70
    32
  0
VERTEX
  8
T23SSILL
 62
17
 10
1918.569
 20
-2671.958
 30
2933.299
 70
    32
  0
VERTEX
  8
T23SSILL
 62
17
 10
1919.169
 20
-2670.368
 30
2933.305
 70
    32
  0
VERTEX
  8
T23SSILL
 62
17
 10
1933.234
 20
-2659.837
 30
2933.382
 70
    32
  0
VERTEX
  8
T23SSILL
 62
17
 10
1938.449
 20
-2661.896
 30
2933.397
 70
    32
  0
VERTEX
  8
T23SSILL
 62
17
 10
1958.697
 20
-2687.922
 30
2933.416
 70
    32
  0
VERTEX
  8
T23SSILL
 62
17
 10
1969.404
 20
-2658.851
 30
2933.522
 70
    32
  0
VERTEX
  8
T23SSILL
 62
17
 10
1959.318
 20
-2645.310
 30
2933.566
 70
    32
  0
VERTEX
  8
T23SSILL
 62
17
 10
1959.466
 20
-2642.579
 30
2933.598
 70
    32
  0
VERTEX
  8
T23SSILL
 62
17
 10
1961.028
 20
-2640.363
 30
2933.625
 70
    32
  0
VERTEX
  8
T23SSILL
 62
17
 10
1966.112
 20
-2638.198
 30
2933.653
 70
    32
  0
VERTEX
  8
T23SSILL
 62
17
 10
1978.750
 20
-2643.087
 30
2933.603
 70
    32
  0
VERTEX
  8
T23SSILL
 62
17
 10
1985.834
 20
-2647.152
 30
2933.611
 70
    32
  0
VERTEX
  8
T23SSILL
 62
17
 10
1989.397
 20
-2651.341
 30
2933.615
 70
    32
  0
VERTEX
  8
T23SSILL
 62
17
 10
2042.085
 20
-2733.461
 30
2933.698
 70
    32
  0
VERTEX
  8
T23SSILL
 62
17
 10
2036.310
 20
-2736.953
 30
2933.678
 70
    32
  0
VERTEX
  8
T23SSILL
 62
17
 10
2041.931
 20
-2744.290
 30
2933.697
 70
    32
  0
VERTEX
  8
T23SSILL
 62
17
 10
2047.265
 20
-2740.803
 30
2933.715
 70
    32
  0
VERTEX
  8
T23SSILL
 62
17
 10
2110.526
 20
-2837.522
 30
2933.926
 70
    32
  0
VERTEX
  8
T23SSILL
 62
17
 10
1810.003
 20
-2764.302
 30
2933.370
 70
    32
  0
VERTEX
  8
T23SSILL
 62
17
 10
1808.585
 20
-2759.174
 30
2933.364
 70
    32
  0
SEQEND
  8
T23SSILL
  0
POLYLINE
  8
T23SSILL
 62
17
 66
     1
 70
     9
  0
VERTEX
  8
T23SSILL
 62
17
 10
1960.411
 20
-3449.149
 30
2934.291
 70
    32
  0
VERTEX
  8
T23SSILL
 62
17
 10
1953.614
 20
-3441.420
 30
2934.269
 70
    32
  0
VERTEX
  8
T23SSILL
 62
17
 10
1956.390
 20
-3436.690
 30
2934.268
 70
    32
  0
VERTEX
  8
T23SSILL
 62
17
 10
1957.416
 20
-3421.638
 30
2934.251
 70
    32
  0
VERTEX
  8
T23SSILL
 62
17
 10
1956.665
 20
-3417.227
 30
2934.244
 70
    32
  0
VERTEX
  8
T23SSILL
 62
17
 10
1958.386
 20
-3403.150
 30
2934.230
 70
    32
  0
VERTEX
  8
T23SSILL
 62
17
 10
1953.060
 20
-3389.094
 30
2934.202
 70
    32
  0
VERTEX
  8
T23SSILL
 62
17
 10
1951.130
 20
-3388.283
 30
2934.197
 70
    32
  0
VERTEX
  8
T23SSILL
 62
17
 10
1944.869
 20
-3389.015
 30
2934.188
 70
    32
  0
VERTEX
  8
T23SSILL
 62
17
 10
1932.677
 20
-3383.613
 30
2934.189
 70
    32
  0
VERTEX
  8
T23SSILL
 62
17
 10
1930.026
 20
-3384.557
 30
2934.193
 70
    32
  0
VERTEX
  8
T23SSILL
 62
17
 10
1928.508
 20
-3386.656
 30
2934.197
 70
    32
  0
VERTEX
  8
T23SSILL
 62
17
 10
1929.387
 20
-3396.089
 30
2934.210
 70
    32
  0
VERTEX
  8
T23SSILL
 62
17
 10
1925.840
 20
-3398.522
 30
2934.216
 70
    32
  0
VERTEX
  8
T23SSILL
 62
17
 10
1902.071
 20
-3392.407
 30
2934.225
 70
    32
  0
VERTEX
  8
T23SSILL
 62
17
 10
1742.997
 20
-3201.381
 30
2934.062
 70
    32
  0
VERTEX
  8
T23SSILL
 62
17
 10
1744.284
 20
-3192.068
 30
2934.048
 70
    32
  0
VERTEX
  8
T23SSILL
 62
17
 10
1726.551
 20
-3171.458
 30
2934.031
 70
    32
  0
VERTEX
  8
T23SSILL
 62
17
 10
1719.902
 20
-3157.181
 30
2934.015
 70
    32
  0
VERTEX
  8
T23SSILL
 62
17
 10
1711.796
 20
-3163.308
 30
2934.030
 70
    32
  0
VERTEX
  8
T23SSILL
 62
17
 10
1690.790
 20
-3137.982
 30
2934.008
 70
    32
  0
VERTEX
  8
T23SSILL
 62
17
 10
1688.253
 20
-3125.441
 30
2933.991
 70
    32
  0
VERTEX
  8
T23SSILL
 62
17
 10
1685.350
 20
-3119.497
 30
2933.985
 70
    32
  0
VERTEX
  8
T23SSILL
 62
17
 10
1675.069
 20
-3118.195
 30
2933.991
 70
    32
  0
VERTEX
  8
T23SSILL
 62
17
 10
1662.111
 20
-3101.973
 30
2933.976
 70
    32
  0
VERTEX
  8
T23SSILL
 62
17
 10
1651.219
 20
-3077.330
 30
2933.948
 70
    32
  0
VERTEX
  8
T23SSILL
 62
17
 10
1646.235
 20
-3075.052
 30
2933.949
 70
    32
  0
VERTEX
  8
T23SSILL
 62
17
 10
1638.757
 20
-3074.674
 30
2933.954
 70
    32
  0
VERTEX
  8
T23SSILL
 62
17
 10
1584.910
 20
-3009.137
 30
2933.897
 70
    32
  0
VERTEX
  8
T23SSILL
 62
17
 10
1554.154
 20
-2977.763
 30
2933.874
 70
    32
  0
VERTEX
  8
T23SSILL
 62
17
 10
1537.552
 20
-2958.227
 30
2933.858
 70
    32
  0
VERTEX
  8
T23SSILL
 62
17
 10
1536.110
 20
-2950.895
 30
2933.848
 70
    32
  0
VERTEX
  8
T23SSILL
 62
17
 10
1778.712
 20
-2775.144
 30
2933.409
 70
    32
  0
VERTEX
  8
T23SSILL
 62
17
 10
1804.710
 20
-2770.736
 30
2933.384
 70
    32
  0
VERTEX
  8
T23SSILL
 62
17
 10
2102.943
 20
-2843.539
 30
2933.900
 70
    32
  0
VERTEX
  8
T23SSILL
 62
17
 10
2113.874
 20
-2848.372
 30
2933.937
 70
    32
  0
VERTEX
  8
T23SSILL
 62
17
 10
2121.469
 20
-2854.253
 30
2933.962
 70
    32
  0
VERTEX
  8
T23SSILL
 62
17
 10
2151.889
 20
-2900.761
 30
2934.063
 70
    32
  0
VERTEX
  8
T23SSILL
 62
17
 10
2147.730
 20
-2908.497
 30
2934.049
 70
    32
  0
VERTEX
  8
T23SSILL
 62
17
 10
2154.093
 20
-2924.178
 30
2934.070
 70
    32
  0
VERTEX
  8
T23SSILL
 62
17
 10
2163.237
 20
-2930.745
 30
2934.101
 70
    32
  0
VERTEX
  8
T23SSILL
 62
17
 10
2170.057
 20
-2928.120
 30
2934.124
 70
    32
  0
VERTEX
  8
T23SSILL
 62
17
 10
2312.802
 20
-3145.127
 30
2934.599
 70
    32
  0
VERTEX
  8
T23SSILL
 62
17
 10
2283.267
 20
-3285.375
 30
2934.685
 70
    32
  0
VERTEX
  8
T23SSILL
 62
17
 10
2273.102
 20
-3339.718
 30
2934.735
 70
    32
  0
VERTEX
  8
T23SSILL
 62
17
 10
2228.936
 20
-3257.161
 30
2934.548
 70
    32
  0
VERTEX
  8
T23SSILL
 62
17
 10
2154.215
 20
-3151.308
 30
2934.275
 70
    32
  0
VERTEX
  8
T23SSILL
 62
17
 10
2148.325
 20
-3155.803
 30
2934.270
 70
    32
  0
VERTEX
  8
T23SSILL
 62
17
 10
2221.523
 20
-3258.280
 30
2934.536
 70
    32
  0
VERTEX
  8
T23SSILL
 62
17
 10
2228.008
 20
-3271.762
 30
2934.565
 70
    32
  0
VERTEX
  8
T23SSILL
 62
17
 10
2231.058
 20
-3285.279
 30
2934.588
 70
    32
  0
VERTEX
  8
T23SSILL
 62
17
 10
2229.938
 20
-3300.934
 30
2934.606
 70
    32
  0
VERTEX
  8
T23SSILL
 62
17
 10
2230.695
 20
-3314.769
 30
2934.624
 70
    32
  0
VERTEX
  8
T23SSILL
 62
17
 10
2229.506
 20
-3323.379
 30
2934.633
 70
    32
  0
VERTEX
  8
T23SSILL
 62
17
 10
2223.786
 20
-3334.737
 30
2934.637
 70
    32
  0
VERTEX
  8
T23SSILL
 62
17
 10
2226.308
 20
-3348.246
 30
2934.659
 70
    32
  0
VERTEX
  8
T23SSILL
 62
17
 10
2228.658
 20
-3350.043
 30
2934.665
 70
    32
  0
VERTEX
  8
T23SSILL
 62
17
 10
2243.634
 20
-3389.716
 30
2934.743
 70
    32
  0
VERTEX
  8
T23SSILL
 62
17
 10
2253.800
 20
-3392.777
 30
2934.766
 70
    32
  0
VERTEX
  8
T23SSILL
 62
17
 10
2259.968
 20
-3398.154
 30
2934.784
 70
    32
  0
VERTEX
  8
T23SSILL
 62
17
 10
2250.095
 20
-3451.137
 30
2934.833
 70
    32
  0
VERTEX
  8
T23SSILL
 62
17
 10
2233.856
 20
-3463.577
 30
2934.819
 70
    32
  0
VERTEX
  8
T23SSILL
 62
17
 10
2159.744
 20
-3430.539
 30
2934.639
 70
    32
  0
VERTEX
  8
T23SSILL
 62
17
 10
2156.330
 20
-3437.465
 30
2934.641
 70
    32
  0
VERTEX
  8
T23SSILL
 62
17
 10
2163.355
 20
-3439.734
 30
2934.657
 70
    32
  0
VERTEX
  8
T23SSILL
 62
17
 10
2226.323
 20
-3468.437
 30
2934.811
 70
    32
  0
VERTEX
  8
T23SSILL
 62
17
 10
2157.845
 20
-3518.251
 30
2934.746
 70
    32
  0
VERTEX
  8
T23SSILL
 62
17
 10
2140.501
 20
-3471.489
 30
2934.655
 70
    32
  0
VERTEX
  8
T23SSILL
 62
17
 10
2161.600
 20
-3466.583
 30
2934.688
 70
    32
  0
VERTEX
  8
T23SSILL
 62
17
 10
2163.335
 20
-3473.454
 30
2934.700
 70
    32
  0
VERTEX
  8
T23SSILL
 62
17
 10
2171.688
 20
-3470.908
 30
2934.712
 70
    32
  0
VERTEX
  8
T23SSILL
 62
17
 10
2167.071
 20
-3456.330
 30
2934.685
 70
    32
  0
VERTEX
  8
T23SSILL
 62
17
 10
2137.221
 20
-3464.499
 30
2934.640
 70
    32
  0
VERTEX
  8
T23SSILL
 62
17
 10
2134.282
 20
-3458.657
 30
2934.627
 70
    32
  0
VERTEX
  8
T23SSILL
 62
17
 10
2128.941
 20
-3455.347
 30
2934.613
 70
    32
  0
VERTEX
  8
T23SSILL
 62
17
 10
2079.909
 20
-3433.913
 30
2934.495
 70
    32
  0
VERTEX
  8
T23SSILL
 62
17
 10
2051.954
 20
-3413.281
 30
2934.416
 70
    32
  0
VERTEX
  8
T23SSILL
 62
17
 10
1964.024
 20
-3285.151
 30
2934.091
 70
    32
  0
VERTEX
  8
T23SSILL
 62
17
 10
1958.598
 20
-3288.765
 30
2934.085
 70
    32
  0
VERTEX
  8
T23SSILL
 62
17
 10
2046.174
 20
-3416.978
 30
2934.410
 70
    32
  0
VERTEX
  8
T23SSILL
 62
17
 10
2071.491
 20
-3439.117
 30
2934.486
 70
    32
  0
VERTEX
  8
T23SSILL
 62
17
 10
2099.722
 20
-3452.776
 30
2934.555
 70
    32
  0
VERTEX
  8
T23SSILL
 62
17
 10
2111.547
 20
-3487.242
 30
2934.621
 70
    32
  0
VERTEX
  8
T23SSILL
 62
17
 10
2109.963
 20
-3496.211
 30
2934.629
 70
    32
  0
VERTEX
  8
T23SSILL
 62
17
 10
2115.261
 20
-3522.423
 30
2934.672
 70
    32
  0
VERTEX
  8
T23SSILL
 62
17
 10
2122.070
 20
-3528.830
 30
2934.693
 70
    32
  0
VERTEX
  8
T23SSILL
 62
17
 10
2125.116
 20
-3541.807
 30
2934.715
 70
    32
  0
VERTEX
  8
T23SSILL
 62
17
 10
2109.060
 20
-3553.544
 30
2934.700
 70
    32
  0
VERTEX
  8
T23SSILL
 62
17
 10
2102.888
 20
-3554.278
 30
2934.690
 70
    32
  0
VERTEX
  8
T23SSILL
 62
17
 10
2099.818
 20
-3552.927
 30
2934.682
 70
    32
  0
VERTEX
  8
T23SSILL
 62
17
 10
2048.719
 20
-3489.810
 30
2934.507
 70
    32
  0
VERTEX
  8
T23SSILL
 62
17
 10
2043.110
 20
-3486.937
 30
2934.493
 70
    32
  0
VERTEX
  8
T23SSILL
 62
17
 10
2037.522
 20
-3490.935
 30
2934.488
 70
    32
  0
VERTEX
  8
T23SSILL
 62
17
 10
2044.869
 20
-3496.379
 30
2934.508
 70
    32
  0
VERTEX
  8
T23SSILL
 62
17
 10
2097.621
 20
-3561.538
 30
2934.689
 70
    32
  0
VERTEX
  8
T23SSILL
 62
17
 10
2044.496
 20
-3599.432
 30
2934.638
 70
    32
  0
VERTEX
  8
T23SSILL
 62
17
 10
2037.474
 20
-3587.649
 30
2934.610
 70
    32
  0
VERTEX
  8
T23SSILL
 62
17
 10
2027.075
 20
-3560.685
 30
2934.557
 70
    32
  0
VERTEX
  8
T23SSILL
 62
17
 10
1985.567
 20
-3489.556
 30
2934.389
 70
    32
  0
VERTEX
  8
T23SSILL
 62
17
 10
1981.366
 20
-3468.376
 30
2934.355
 70
    32
  0
VERTEX
  8
T23SSILL
 62
17
 10
1972.884
 20
-3461.864
 30
2934.331
 70
    32
  0
VERTEX
  8
T23SSILL
 62
17
 10
1965.563
 20
-3453.778
 30
2934.307
 70
    32
  0
VERTEX
  8
T23SSILL
 62
17
 10
1960.411
 20
-3449.149
 30
2934.291
 70
    32
  0
SEQEND
  8
T23SSILL
  0
POLYLINE
  8
T23SSILL
 62
17
 66
     1
 70
     9
  0
VERTEX
  8
T23SSILL
 62
17
 10
1411.237
 20
-3309.660
 30
2934.527
 70
    32
  0
VERTEX
  8
T23SSILL
 62
17
 10
1371.343
 20
-3302.561
 30
2934.540
 70
    32
  0
VERTEX
  8
T23SSILL
 62
17
 10
1445.543
 20
-3396.067
 30
2934.652
 70
    32
  0
VERTEX
  8
T23SSILL
 62
17
 10
1443.878
 20
-3351.229
 30
2934.560
 70
    32
  0
VERTEX
  8
T23SSILL
 62
17
 10
1411.237
 20
-3309.660
 30
2934.527
 70
    32
  0
SEQEND
  8
T23SSILL
  0
POLYLINE
  8
T23SSILL
 62
17
 66
     1
 70
     9
  0
VERTEX
  8
T23SSILL
 62
17
 10
585.976
 20
-2946.847
 30
2934.409
 70
    32
  0
VERTEX
  8
T23SSILL
 62
17
 10
583.573
 20
-2944.138
 30
2934.407
 70
    32
  0
VERTEX
  8
T23SSILL
 62
17
 10
586.448
 20
-2940.501
 30
2934.398
 70
    32
  0
VERTEX
  8
T23SSILL
 62
17
 10
591.463
 20
-2935.894
 30
2934.388
 70
    32
  0
VERTEX
  8
T23SSILL
 62
17
 10
598.622
 20
-2932.642
 30
2934.392
 70
    32
  0
VERTEX
  8
T23SSILL
 62
17
 10
663.038
 20
-2933.959
 30
2934.349
 70
    32
  0
VERTEX
  8
T23SSILL
 62
17
 10
664.199
 20
-2939.408
 30
2934.349
 70
    32
  0
VERTEX
  8
T23SSILL
 62
17
 10
678.765
 20
-2954.994
 30
2934.372
 70
    32
  0
VERTEX
  8
T23SSILL
 62
17
 10
691.336
 20
-2976.093
 30
2934.402
 70
    32
  0
VERTEX
  8
T23SSILL
 62
17
 10
702.235
 20
-2999.357
 30
2934.423
 70
    32
  0
VERTEX
  8
T23SSILL
 62
17
 10
712.253
 20
-3024.513
 30
2934.449
 70
    32
  0
VERTEX
  8
T23SSILL
 62
17
 10
734.272
 20
-3056.240
 30
2934.478
 70
    32
  0
VERTEX
  8
T23SSILL
 62
17
 10
734.488
 20
-3060.730
 30
2934.483
 70
    32
  0
VERTEX
  8
T23SSILL
 62
17
 10
740.248
 20
-3072.623
 30
2934.495
 70
    32
  0
VERTEX
  8
T23SSILL
 62
17
 10
752.937
 20
-3081.108
 30
2934.500
 70
    32
  0
VERTEX
  8
T23SSILL
 62
17
 10
756.265
 20
-3084.884
 30
2934.503
 70
    32
  0
VERTEX
  8
T23SSILL
 62
17
 10
760.064
 20
-3092.179
 30
2934.510
 70
    32
  0
VERTEX
  8
T23SSILL
 62
17
 10
760.064
 20
-3100.159
 30
2934.520
 70
    32
  0
VERTEX
  8
T23SSILL
 62
17
 10
758.563
 20
-3105.740
 30
2934.527
 70
    32
  0
VERTEX
  8
T23SSILL
 62
17
 10
753.098
 20
-3113.240
 30
2934.537
 70
    32
  0
VERTEX
  8
T23SSILL
 62
17
 10
748.269
 20
-3107.064
 30
2934.532
 70
    32
  0
VERTEX
  8
T23SSILL
 62
17
 10
744.593
 20
-3091.805
 30
2934.515
 70
    32
  0
VERTEX
  8
T23SSILL
 62
17
 10
732.340
 20
-3092.741
 30
2934.521
 70
    32
  0
VERTEX
  8
T23SSILL
 62
17
 10
733.339
 20
-3104.060
 30
2934.533
 70
    32
  0
VERTEX
  8
T23SSILL
 62
17
 10
730.789
 20
-3108.557
 30
2934.540
 70
    32
  0
VERTEX
  8
T23SSILL
 62
17
 10
728.792
 20
-3109.861
 30
2934.542
 70
    32
  0
VERTEX
  8
T23SSILL
 62
17
 10
732.897
 20
-3115.814
 30
2934.547
 70
    32
  0
VERTEX
  8
T23SSILL
 62
17
 10
732.154
 20
-3119.485
 30
2934.552
 70
    32
  0
VERTEX
  8
T23SSILL
 62
17
 10
733.615
 20
-3127.347
 30
2934.560
 70
    32
  0
VERTEX
  8
T23SSILL
 62
17
 10
722.285
 20
-3135.005
 30
2934.579
 70
    32
  0
VERTEX
  8
T23SSILL
 62
17
 10
716.016
 20
-3135.360
 30
2934.585
 70
    32
  0
VERTEX
  8
T23SSILL
 62
17
 10
706.660
 20
-3129.206
 30
2934.584
 70
    32
  0
VERTEX
  8
T23SSILL
 62
17
 10
698.997
 20
-3121.205
 30
2934.579
 70
    32
  0
VERTEX
  8
T23SSILL
 62
17
 10
688.030
 20
-3102.206
 30
2934.559
 70
    32
  0
VERTEX
  8
T23SSILL
 62
17
 10
679.720
 20
-3092.925
 30
2934.552
 70
    32
  0
VERTEX
  8
T23SSILL
 62
17
 10
649.965
 20
-3049.040
 30
2934.510
 70
    32
  0
VERTEX
  8
T23SSILL
 62
17
 10
643.840
 20
-3041.748
 30
2934.505
 70
    32
  0
VERTEX
  8
T23SSILL
 62
17
 10
632.786
 20
-3032.791
 30
2934.501
 70
    32
  0
VERTEX
  8
T23SSILL
 62
17
 10
633.034
 20
-3022.959
 30
2934.485
 70
    32
  0
VERTEX
  8
T23SSILL
 62
17
 10
630.887
 20
-3019.278
 30
2934.481
 70
    32
  0
VERTEX
  8
T23SSILL
 62
17
 10
626.135
 20
-3015.814
 30
2934.480
 70
    32
  0
VERTEX
  8
T23SSILL
 62
17
 10
609.420
 20
-2986.243
 30
2934.449
 70
    32
  0
VERTEX
  8
T23SSILL
 62
17
 10
597.748
 20
-2977.203
 30
2934.446
 70
    32
  0
VERTEX
  8
T23SSILL
 62
17
 10
591.791
 20
-2971.001
 30
2934.441
 70
    32
  0
VERTEX
  8
T23SSILL
 62
17
 10
588.257
 20
-2959.846
 30
2934.427
 70
    32
  0
VERTEX
  8
T23SSILL
 62
17
 10
587.167
 20
-2950.149
 30
2934.413
 70
    32
  0
VERTEX
  8
T23SSILL
 62
17
 10
585.976
 20
-2946.847
 30
2934.409
 70
    32
  0
SEQEND
  8
T23SSILL
  0
POLYLINE
  8
T23SSILL
 62
17
 66
     1
 70
     9
  0
VERTEX
  8
T23SSILL
 62
17
 10
577.562
 20
-2831.159
 30
2934.729
 70
    32
  0
VERTEX
  8
T23SSILL
 62
17
 10
575.218
 20
-2829.849
 30
2934.733
 70
    32
  0
VERTEX
  8
T23SSILL
 62
17
 10
571.833
 20
-2831.231
 30
2934.729
 70
    32
  0
VERTEX
  8
T23SSILL
 62
17
 10
564.282
 20
-2839.048
 30
2934.705
 70
    32
  0
VERTEX
  8
T23SSILL
 62
17
 10
564.294
 20
-2842.821
 30
2934.693
 70
    32
  0
VERTEX
  8
T23SSILL
 62
17
 10
570.337
 20
-2848.068
 30
2934.677
 70
    32
  0
VERTEX
  8
T23SSILL
 62
17
 10
574.482
 20
-2853.886
 30
2934.658
 70
    32
  0
VERTEX
  8
T23SSILL
 62
17
 10
582.401
 20
-2859.691
 30
2934.640
 70
    32
  0
VERTEX
  8
T23SSILL
 62
17
 10
593.026
 20
-2862.077
 30
2934.631
 70
    32
  0
VERTEX
  8
T23SSILL
 62
17
 10
584.364
 20
-2840.715
 30
2934.699
 70
    32
  0
VERTEX
  8
T23SSILL
 62
17
 10
579.804
 20
-2834.215
 30
2934.720
 70
    32
  0
VERTEX
  8
T23SSILL
 62
17
 10
577.562
 20
-2831.159
 30
2934.729
 70
    32
  0
SEQEND
  8
T23SSILL
  0
POLYLINE
  8
T23SSILL
 62
17
 66
     1
 70
     9
  0
VERTEX
  8
T23SSILL
 62
17
 10
558.714
 20
-2826.761
 30
2934.744
 70
    32
  0
VERTEX
  8
T23SSILL
 62
17
 10
555.649
 20
-2833.904
 30
2934.721
 70
    32
  0
VERTEX
  8
T23SSILL
 62
17
 10
548.745
 20
-2826.094
 30
2934.746
 70
    32
  0
VERTEX
  8
T23SSILL
 62
17
 10
542.354
 20
-2824.943
 30
2934.750
 70
    32
  0
VERTEX
  8
T23SSILL
 62
17
 10
518.869
 20
-2792.114
 30
2934.793
 70
    32
  0
VERTEX
  8
T23SSILL
 62
17
 10
525.193
 20
-2785.555
 30
2934.803
 70
    32
  0
VERTEX
  8
T23SSILL
 62
17
 10
518.543
 20
-2774.154
 30
2934.811
 70
    32
  0
VERTEX
  8
T23SSILL
 62
17
 10
519.186
 20
-2772.101
 30
2934.814
 70
    32
  0
VERTEX
  8
T23SSILL
 62
17
 10
511.357
 20
-2760.777
 30
2934.821
 70
    32
  0
VERTEX
  8
T23SSILL
 62
17
 10
515.756
 20
-2755.944
 30
2934.829
 70
    32
  0
VERTEX
  8
T23SSILL
 62
17
 10
546.525
 20
-2753.721
 30
2934.843
 70
    32
  0
VERTEX
  8
T23SSILL
 62
17
 10
549.873
 20
-2755.036
 30
2934.845
 70
    32
  0
VERTEX
  8
T23SSILL
 62
17
 10
554.392
 20
-2754.115
 30
2934.844
 70
    32
  0
VERTEX
  8
T23SSILL
 62
17
 10
558.854
 20
-2758.466
 30
2934.849
 70
    32
  0
VERTEX
  8
T23SSILL
 62
17
 10
564.028
 20
-2756.373
 30
2934.847
 70
    32
  0
VERTEX
  8
T23SSILL
 62
17
 10
566.468
 20
-2756.942
 30
2934.847
 70
    32
  0
VERTEX
  8
T23SSILL
 62
17
 10
569.382
 20
-2760.148
 30
2934.851
 70
    32
  0
VERTEX
  8
T23SSILL
 62
17
 10
575.643
 20
-2771.457
 30
2934.847
 70
    32
  0
VERTEX
  8
T23SSILL
 62
17
 10
575.210
 20
-2777.686
 30
2934.840
 70
    32
  0
VERTEX
  8
T23SSILL
 62
17
 10
562.296
 20
-2797.752
 30
2934.812
 70
    32
  0
VERTEX
  8
T23SSILL
 62
17
 10
559.516
 20
-2805.121
 30
2934.802
 70
    32
  0
VERTEX
  8
T23SSILL
 62
17
 10
559.013
 20
-2822.526
 30
2934.757
 70
    32
  0
VERTEX
  8
T23SSILL
 62
17
 10
558.714
 20
-2826.761
 30
2934.744
 70
    32
  0
SEQEND
  8
T23SSILL
  0
POLYLINE
  8
T23SSILL
 62
17
 66
     1
 70
     9
  0
VERTEX
  8
T23SSILL
 62
17
 10
504.711
 20
-2798.375
 30
2934.778
 70
    32
  0
VERTEX
  8
T23SSILL
 62
17
 10
510.314
 20
-2803.079
 30
2934.776
 70
    32
  0
VERTEX
  8
T23SSILL
 62
17
 10
513.799
 20
-2797.373
 30
2934.784
 70
    32
  0
VERTEX
  8
T23SSILL
 62
17
 10
524.478
 20
-2812.098
 30
2934.775
 70
    32
  0
VERTEX
  8
T23SSILL
 62
17
 10
517.627
 20
-2816.016
 30
2934.767
 70
    32
  0
VERTEX
  8
T23SSILL
 62
17
 10
509.201
 20
-2816.052
 30
2934.762
 70
    32
  0
VERTEX
  8
T23SSILL
 62
17
 10
504.003
 20
-2813.492
 30
2934.762
 70
    32
  0
VERTEX
  8
T23SSILL
 62
17
 10
501.378
 20
-2808.060
 30
2934.766
 70
    32
  0
VERTEX
  8
T23SSILL
 62
17
 10
501.032
 20
-2802.987
 30
2934.771
 70
    32
  0
VERTEX
  8
T23SSILL
 62
17
 10
503.684
 20
-2798.053
 30
2934.778
 70
    32
  0
VERTEX
  8
T23SSILL
 62
17
 10
504.711
 20
-2798.375
 30
2934.778
 70
    32
  0
SEQEND
  8
T23SSILL
  0
POLYLINE
  8
T23SSILL
 62
17
 66
     1
 70
     9
  0
VERTEX
  8
T23SSILL
 62
17
 10
521.939
 20
-2146.956
 30
2934.949
 70
    32
  0
VERTEX
  8
T23SSILL
 62
17
 10
525.358
 20
-2137.094
 30
2934.980
 70
    32
  0
VERTEX
  8
T23SSILL
 62
17
 10
531.636
 20
-2130.369
 30
2935.008
 70
    32
  0
VERTEX
  8
T23SSILL
 62
17
 10
590.293
 20
-2089.098
 30
2935.219
 70
    32
  0
VERTEX
  8
T23SSILL
 62
17
 10
667.480
 20
-2155.251
 30
2935.206
 70
    32
  0
VERTEX
  8
T23SSILL
 62
17
 10
684.759
 20
-2172.202
 30
2935.198
 70
    32
  0
VERTEX
  8
T23SSILL
 62
17
 10
695.326
 20
-2188.093
 30
2935.180
 70
    32
  0
VERTEX
  8
T23SSILL
 62
17
 10
707.964
 20
-2197.717
 30
2935.180
 70
    32
  0
VERTEX
  8
T23SSILL
 62
17
 10
714.083
 20
-2206.242
 30
2935.171
 70
    32
  0
VERTEX
  8
T23SSILL
 62
17
 10
720.524
 20
-2212.295
 30
2935.169
 70
    32
  0
VERTEX
  8
T23SSILL
 62
17
 10
735.300
 20
-2232.064
 30
2935.149
 70
    32
  0
VERTEX
  8
T23SSILL
 62
17
 10
747.389
 20
-2251.232
 30
2935.126
 70
    32
  0
VERTEX
  8
T23SSILL
 62
17
 10
749.741
 20
-2258.765
 30
2935.112
 70
    32
  0
VERTEX
  8
T23SSILL
 62
17
 10
756.103
 20
-2269.773
 30
2935.097
 70
    32
  0
VERTEX
  8
T23SSILL
 62
17
 10
757.589
 20
-2275.747
 30
2935.086
 70
    32
  0
VERTEX
  8
T23SSILL
 62
17
 10
764.850
 20
-2290.957
 30
2935.063
 70
    32
  0
VERTEX
  8
T23SSILL
 62
17
 10
764.917
 20
-2296.245
 30
2935.050
 70
    32
  0
VERTEX
  8
T23SSILL
 62
17
 10
757.390
 20
-2311.607
 30
2934.998
 70
    32
  0
VERTEX
  8
T23SSILL
 62
17
 10
693.657
 20
-2357.119
 30
2934.767
 70
    32
  0
VERTEX
  8
T23SSILL
 62
17
 10
686.407
 20
-2365.038
 30
2934.734
 70
    32
  0
VERTEX
  8
T23SSILL
 62
17
 10
682.220
 20
-2364.368
 30
2934.728
 70
    32
  0
VERTEX
  8
T23SSILL
 62
17
 10
679.993
 20
-2359.743
 30
2934.735
 70
    32
  0
VERTEX
  8
T23SSILL
 62
17
 10
674.884
 20
-2362.787
 30
2934.717
 70
    32
  0
VERTEX
  8
T23SSILL
 62
17
 10
671.321
 20
-2361.192
 30
2934.715
 70
    32
  0
VERTEX
  8
T23SSILL
 62
17
 10
648.535
 20
-2335.355
 30
2934.734
 70
    32
  0
VERTEX
  8
T23SSILL
 62
17
 10
602.074
 20
-2267.791
 30
2934.809
 70
    32
  0
VERTEX
  8
T23SSILL
 62
17
 10
605.339
 20
-2238.803
 30
2934.885
 70
    32
  0
VERTEX
  8
T23SSILL
 62
17
 10
595.585
 20
-2238.416
 30
2934.868
 70
    32
  0
VERTEX
  8
T23SSILL
 62
17
 10
580.132
 20
-2229.180
 30
2934.861
 70
    32
  0
VERTEX
  8
T23SSILL
 62
17
 10
579.901
 20
-2219.346
 30
2934.884
 70
    32
  0
VERTEX
  8
T23SSILL
 62
17
 10
572.482
 20
-2211.155
 30
2934.890
 70
    32
  0
VERTEX
  8
T23SSILL
 62
17
 10
560.564
 20
-2212.467
 30
2934.864
 70
    32
  0
VERTEX
  8
T23SSILL
 62
17
 10
525.821
 20
-2164.052
 30
2934.915
 70
    32
  0
VERTEX
  8
T23SSILL
 62
17
 10
521.632
 20
-2156.092
 30
2934.926
 70
    32
  0
VERTEX
  8
T23SSILL
 62
17
 10
521.189
 20
-2151.761
 30
2934.936
 70
    32
  0
VERTEX
  8
T23SSILL
 62
17
 10
521.939
 20
-2146.956
 30
2934.949
 70
    32
  0
SEQEND
  8
T23SSILL
  0
POLYLINE
  8
T23SSILL
 62
17
 66
     1
 70
     9
  0
VERTEX
  8
T23SSILL
 62
17
 10
-779.210
 20
-1303.771
 30
2934.597
 70
    32
  0
VERTEX
  8
T23SSILL
 62
17
 10
-775.661
 20
-1302.080
 30
2934.601
 70
    32
  0
VERTEX
  8
T23SSILL
 62
17
 10
-775.912
 20
-1291.435
 30
2934.610
 70
    32
  0
VERTEX
  8
T23SSILL
 62
17
 10
-799.539
 20
-1275.767
 30
2934.608
 70
    32
  0
VERTEX
  8
T23SSILL
 62
17
 10
-805.374
 20
-1280.209
 30
2934.601
 70
    32
  0
VERTEX
  8
T23SSILL
 62
17
 10
-809.745
 20
-1274.796
 30
2934.602
 70
    32
  0
VERTEX
  8
T23SSILL
 62
17
 10
-805.451
 20
-1270.866
 30
2934.609
 70
    32
  0
VERTEX
  8
T23SSILL
 62
17
 10
-812.602
 20
-1269.543
 30
2934.605
 70
    32
  0
VERTEX
  8
T23SSILL
 62
17
 10
-823.176
 20
-1256.036
 30
2934.610
 70
    32
  0
VERTEX
  8
T23SSILL
 62
17
 10
-813.174
 20
-1245.195
 30
2934.626
 70
    32
  0
VERTEX
  8
T23SSILL
 62
17
 10
-816.266
 20
-1231.043
 30
2934.636
 70
    32
  0
VERTEX
  8
T23SSILL
 62
17
 10
-825.444
 20
-1217.541
 30
2934.642
 70
    32
  0
VERTEX
  8
T23SSILL
 62
17
 10
-836.031
 20
-1206.507
 30
2934.645
 70
    32
  0
VERTEX
  8
T23SSILL
 62
17
 10
-834.088
 20
-1190.176
 30
2934.686
 70
    32
  0
VERTEX
  8
T23SSILL
 62
17
 10
-855.971
 20
-1164.741
 30
2934.714
 70
    32
  0
VERTEX
  8
T23SSILL
 62
17
 10
-859.035
 20
-1154.211
 30
2934.763
 70
    32
  0
VERTEX
  8
T23SSILL
 62
17
 10
-865.168
 20
-1146.540
 30
2934.789
 70
    32
  0
VERTEX
  8
T23SSILL
 62
17
 10
-965.061
 20
-1217.914
 30
2934.545
 70
    32
  0
VERTEX
  8
T23SSILL
 62
17
 10
-965.828
 20
-1225.831
 30
2934.539
 70
    32
  0
VERTEX
  8
T23SSILL
 62
17
 10
-967.305
 20
-1228.667
 30
2934.535
 70
    32
  0
VERTEX
  8
T23SSILL
 62
17
 10
-966.678
 20
-1231.449
 30
2934.534
 70
    32
  0
VERTEX
  8
T23SSILL
 62
17
 10
-960.500
 20
-1240.588
 30
2934.539
 70
    32
  0
VERTEX
  8
T23SSILL
 62
17
 10
-953.177
 20
-1245.941
 30
2934.546
 70
    32
  0
VERTEX
  8
T23SSILL
 62
17
 10
-946.832
 20
-1248.003
 30
2934.553
 70
    32
  0
VERTEX
  8
T23SSILL
 62
17
 10
-942.235
 20
-1262.942
 30
2934.554
 70
    32
  0
VERTEX
  8
T23SSILL
 62
17
 10
-934.771
 20
-1274.731
 30
2934.560
 70
    32
  0
VERTEX
  8
T23SSILL
 62
17
 10
-945.124
 20
-1274.782
 30
2934.547
 70
    32
  0
VERTEX
  8
T23SSILL
 62
17
 10
-951.325
 20
-1262.339
 30
2934.543
 70
    32
  0
VERTEX
  8
T23SSILL
 62
17
 10
-952.980
 20
-1261.335
 30
2934.541
 70
    32
  0
VERTEX
  8
T23SSILL
 62
17
 10
-965.305
 20
-1262.100
 30
2934.526
 70
    32
  0
VERTEX
  8
T23SSILL
 62
17
 10
-981.202
 20
-1237.582
 30
2934.517
 70
    32
  0
VERTEX
  8
T23SSILL
 62
17
 10
-987.298
 20
-1234.169
 30
2934.514
 70
    32
  0
VERTEX
  8
T23SSILL
 62
17
 10
-991.447
 20
-1236.701
 30
2934.508
 70
    32
  0
VERTEX
  8
T23SSILL
 62
17
 10
-996.018
 20
-1242.201
 30
2934.500
 70
    32
  0
VERTEX
  8
T23SSILL
 62
17
 10
-999.308
 20
-1250.033
 30
2934.492
 70
    32
  0
VERTEX
  8
T23SSILL
 62
17
 10
-999.325
 20
-1260.754
 30
2934.485
 70
    32
  0
VERTEX
  8
T23SSILL
 62
17
 10
-997.497
 20
-1265.281
 30
2934.485
 70
    32
  0
VERTEX
  8
T23SSILL
 62
17
 10
-994.888
 20
-1266.271
 30
2934.488
 70
    32
  0
VERTEX
  8
T23SSILL
 62
17
 10
-990.807
 20
-1264.108
 30
2934.494
 70
    32
  0
VERTEX
  8
T23SSILL
 62
17
 10
-986.584
 20
-1264.228
 30
2934.499
 70
    32
  0
VERTEX
  8
T23SSILL
 62
17
 10
-983.234
 20
-1265.744
 30
2934.503
 70
    32
  0
VERTEX
  8
T23SSILL
 62
17
 10
-981.548
 20
-1267.915
 30
2934.504
 70
    32
  0
VERTEX
  8
T23SSILL
 62
17
 10
-986.397
 20
-1276.283
 30
2934.496
 70
    32
  0
VERTEX
  8
T23SSILL
 62
17
 10
-986.351
 20
-1282.891
 30
2934.494
 70
    32
  0
VERTEX
  8
T23SSILL
 62
17
 10
-896.066
 20
-1409.194
 30
2934.564
 70
    32
  0
VERTEX
  8
T23SSILL
 62
17
 10
-892.391
 20
-1395.849
 30
2934.573
 70
    32
  0
VERTEX
  8
T23SSILL
 62
17
 10
-888.656
 20
-1390.067
 30
2934.579
 70
    32
  0
VERTEX
  8
T23SSILL
 62
17
 10
-878.749
 20
-1381.112
 30
2934.594
 70
    32
  0
VERTEX
  8
T23SSILL
 62
17
 10
-776.451
 20
-1308.406
 30
2934.595
 70
    32
  0
VERTEX
  8
T23SSILL
 62
17
 10
-779.210
 20
-1303.771
 30
2934.597
 70
    32
  0
SEQEND
  8
T23SSILL
  0
POLYLINE
  8
T23SSILL
 62
17
 66
     1
 70
     9
  0
VERTEX
  8
T23SSILL
 62
17
 10
-1007.084
 20
-1253.988
 30
2934.483
 70
    32
  0
VERTEX
  8
T23SSILL
 62
17
 10
-1002.064
 20
-1238.862
 30
2934.497
 70
    32
  0
VERTEX
  8
T23SSILL
 62
17
 10
-991.921
 20
-1227.602
 30
2934.514
 70
    32
  0
VERTEX
  8
T23SSILL
 62
17
 10
-994.658
 20
-1222.844
 30
2934.515
 70
    32
  0
VERTEX
  8
T23SSILL
 62
17
 10
-990.590
 20
-1219.726
 30
2934.520
 70
    32
  0
VERTEX
  8
T23SSILL
 62
17
 10
-991.559
 20
-1213.645
 30
2934.523
 70
    32
  0
VERTEX
  8
T23SSILL
 62
17
 10
-1001.942
 20
-1194.653
 30
2934.527
 70
    32
  0
VERTEX
  8
T23SSILL
 62
17
 10
-1000.711
 20
-1190.057
 30
2934.531
 70
    32
  0
VERTEX
  8
T23SSILL
 62
17
 10
-1003.817
 20
-1181.804
 30
2934.533
 70
    32
  0
VERTEX
  8
T23SSILL
 62
17
 10
-1006.873
 20
-1165.056
 30
2934.542
 70
    32
  0
VERTEX
  8
T23SSILL
 62
17
 10
-1002.765
 20
-1161.374
 30
2934.548
 70
    32
  0
VERTEX
  8
T23SSILL
 62
17
 10
-993.294
 20
-1188.384
 30
2934.539
 70
    32
  0
VERTEX
  8
T23SSILL
 62
17
 10
-992.040
 20
-1188.806
 30
2934.539
 70
    32
  0
VERTEX
  8
T23SSILL
 62
17
 10
-983.914
 20
-1185.360
 30
2934.549
 70
    32
  0
VERTEX
  8
T23SSILL
 62
17
 10
-985.350
 20
-1182.493
 30
2934.550
 70
    32
  0
VERTEX
  8
T23SSILL
 62
17
 10
-980.551
 20
-1179.192
 30
2934.556
 70
    32
  0
VERTEX
  8
T23SSILL
 62
17
 10
-975.305
 20
-1188.223
 30
2934.555
 70
    32
  0
VERTEX
  8
T23SSILL
 62
17
 10
-975.617
 20
-1202.253
 30
2934.545
 70
    32
  0
VERTEX
  8
T23SSILL
 62
17
 10
-968.498
 20
-1212.137
 30
2934.545
 70
    32
  0
VERTEX
  8
T23SSILL
 62
17
 10
-810.121
 20
-1097.010
 30
2935.195
 70
    32
  0
VERTEX
  8
T23SSILL
 62
17
 10
-818.590
 20
-1078.309
 30
2935.274
 70
    32
  0
VERTEX
  8
T23SSILL
 62
17
 10
-842.615
 20
-1046.956
 30
2935.382
 70
    32
  0
VERTEX
  8
T23SSILL
 62
17
 10
-858.715
 20
-1032.110
 30
2935.421
 70
    32
  0
VERTEX
  8
T23SSILL
 62
17
 10
-874.078
 20
-1022.540
 30
2935.434
 70
    32
  0
VERTEX
  8
T23SSILL
 62
17
 10
-895.981
 20
-987.265
 30
2935.569
 70
    32
  0
VERTEX
  8
T23SSILL
 62
17
 10
-904.978
 20
-967.641
 30
2935.652
 70
    32
  0
VERTEX
  8
T23SSILL
 62
17
 10
-916.669
 20
-954.689
 30
2935.692
 70
    32
  0
VERTEX
  8
T23SSILL
 62
17
 10
-926.627
 20
-955.004
 30
2935.665
 70
    32
  0
VERTEX
  8
T23SSILL
 62
17
 10
-1099.979
 20
-1079.037
 30
2934.514
 70
    32
  0
VERTEX
  8
T23SSILL
 62
17
 10
-1106.418
 20
-1087.428
 30
2934.502
 70
    32
  0
VERTEX
  8
T23SSILL
 62
17
 10
-1110.239
 20
-1095.732
 30
2934.494
 70
    32
  0
VERTEX
  8
T23SSILL
 62
17
 10
-1110.210
 20
-1109.635
 30
2934.484
 70
    32
  0
VERTEX
  8
T23SSILL
 62
17
 10
-1007.084
 20
-1253.988
 30
2934.483
 70
    32
  0
SEQEND
  8
T23SSILL
  0
POLYLINE
  8
T23SSILL
 62
17
 66
     1
 70
     9
  0
VERTEX
  8
T23SSILL
 62
17
 10
-933.277
 20
-918.236
 30
2935.846
 70
    32
  0
VERTEX
  8
T23SSILL
 62
17
 10
-941.290
 20
-912.501
 30
2935.857
 70
    32
  0
VERTEX
  8
T23SSILL
 62
17
 10
-936.778
 20
-906.292
 30
2935.902
 70
    32
  0
VERTEX
  8
T23SSILL
 62
17
 10
-938.346
 20
-904.479
 30
2935.907
 70
    32
  0
VERTEX
  8
T23SSILL
 62
17
 10
-945.078
 20
-902.789
 30
2935.900
 70
    32
  0
VERTEX
  8
T23SSILL
 62
17
 10
-950.833
 20
-895.823
 30
2935.923
 70
    32
  0
VERTEX
  8
T23SSILL
 62
17
 10
-947.293
 20
-890.068
 30
2935.962
 70
    32
  0
VERTEX
  8
T23SSILL
 62
17
 10
-948.198
 20
-886.728
 30
2935.978
 70
    32
  0
VERTEX
  8
T23SSILL
 62
17
 10
-1034.665
 20
-821.419
 30
2936.111
 70
    32
  0
VERTEX
  8
T23SSILL
 62
17
 10
-1049.437
 20
-817.226
 30
2936.097
 70
    32
  0
VERTEX
  8
T23SSILL
 62
17
 10
-1060.581
 20
-818.463
 30
2936.062
 70
    32
  0
VERTEX
  8
T23SSILL
 62
17
 10
-1083.668
 20
-835.196
 30
2935.913
 70
    32
  0
VERTEX
  8
T23SSILL
 62
17
 10
-1082.262
 20
-844.404
 30
2935.867
 70
    32
  0
VERTEX
  8
T23SSILL
 62
17
 10
-1095.382
 20
-852.892
 30
2935.788
 70
    32
  0
VERTEX
  8
T23SSILL
 62
17
 10
-1099.487
 20
-846.611
 30
2935.812
 70
    32
  0
VERTEX
  8
T23SSILL
 62
17
 10
-1212.814
 20
-928.508
 30
2934.566
 70
    32
  0
VERTEX
  8
T23SSILL
 62
17
 10
-1218.981
 20
-935.427
 30
2934.500
 70
    32
  0
VERTEX
  8
T23SSILL
 62
17
 10
-1221.784
 20
-943.031
 30
2934.492
 70
    32
  0
VERTEX
  8
T23SSILL
 62
17
 10
-1221.260
 20
-955.629
 30
2934.485
 70
    32
  0
VERTEX
  8
T23SSILL
 62
17
 10
-1117.934
 20
-1098.560
 30
2934.485
 70
    32
  0
VERTEX
  8
T23SSILL
 62
17
 10
-1113.173
 20
-1084.147
 30
2934.499
 70
    32
  0
VERTEX
  8
T23SSILL
 62
17
 10
-1108.228
 20
-1077.320
 30
2934.508
 70
    32
  0
VERTEX
  8
T23SSILL
 62
17
 10
-1103.970
 20
-1073.856
 30
2934.514
 70
    32
  0
VERTEX
  8
T23SSILL
 62
17
 10
-930.668
 20
-949.751
 30
2935.683
 70
    32
  0
VERTEX
  8
T23SSILL
 62
17
 10
-928.374
 20
-942.497
 30
2935.728
 70
    32
  0
VERTEX
  8
T23SSILL
 62
17
 10
-929.867
 20
-925.530
 30
2935.815
 70
    32
  0
VERTEX
  8
T23SSILL
 62
17
 10
-910.539
 20
-914.702
 30
2935.923
 70
    32
  0
VERTEX
  8
T23SSILL
 62
17
 10
-915.089
 20
-911.512
 30
2935.928
 70
    32
  0
VERTEX
  8
T23SSILL
 62
17
 10
-921.524
 20
-913.367
 30
2935.902
 70
    32
  0
VERTEX
  8
T23SSILL
 62
17
 10
-926.509
 20
-919.044
 30
2935.859
 70
    32
  0
VERTEX
  8
T23SSILL
 62
17
 10
-930.059
 20
-919.022
 30
2935.850
 70
    32
  0
VERTEX
  8
T23SSILL
 62
17
 10
-933.277
 20
-918.236
 30
2935.846
 70
    32
  0
SEQEND
  8
T23SSILL
  0
POLYLINE
  8
T23SSILL
 62
17
 66
     1
 70
     9
  0
VERTEX
  8
T23SSILL
 62
17
 10
-772.124
 20
-1760.088
 30
2934.722
 70
    32
  0
VERTEX
  8
T23SSILL
 62
17
 10
-765.568
 20
-1774.874
 30
2934.727
 70
    32
  0
VERTEX
  8
T23SSILL
 62
17
 10
-757.147
 20
-1770.650
 30
2934.802
 70
    32
  0
VERTEX
  8
T23SSILL
 62
17
 10
-747.148
 20
-1793.101
 30
2934.809
 70
    32
  0
VERTEX
  8
T23SSILL
 62
17
 10
-755.576
 20
-1797.413
 30
2934.734
 70
    32
  0
VERTEX
  8
T23SSILL
 62
17
 10
-747.726
 20
-1815.121
 30
2934.740
 70
    32
  0
VERTEX
  8
T23SSILL
 62
17
 10
-719.444
 20
-1893.813
 30
2934.717
 70
    32
  0
VERTEX
  8
T23SSILL
 62
17
 10
-699.751
 20
-1902.459
 30
2934.838
 70
    32
  0
VERTEX
  8
T23SSILL
 62
17
 10
-697.447
 20
-1901.453
 30
2934.858
 70
    32
  0
VERTEX
  8
T23SSILL
 62
17
 10
-697.301
 20
-1899.123
 30
2934.866
 70
    32
  0
VERTEX
  8
T23SSILL
 62
17
 10
-693.331
 20
-1895.199
 30
2934.907
 70
    32
  0
VERTEX
  8
T23SSILL
 62
17
 10
-715.387
 20
-1761.017
 30
2934.957
 70
    32
  0
VERTEX
  8
T23SSILL
 62
17
 10
-714.899
 20
-1755.378
 30
2934.961
 70
    32
  0
VERTEX
  8
T23SSILL
 62
17
 10
-717.652
 20
-1740.741
 30
2934.960
 70
    32
  0
VERTEX
  8
T23SSILL
 62
17
 10
-773.995
 20
-1669.099
 30
2934.856
 70
    32
  0
VERTEX
  8
T23SSILL
 62
17
 10
-784.617
 20
-1661.302
 30
2934.834
 70
    32
  0
VERTEX
  8
T23SSILL
 62
17
 10
-792.810
 20
-1660.300
 30
2934.815
 70
    32
  0
VERTEX
  8
T23SSILL
 62
17
 10
-799.606
 20
-1661.015
 30
2934.799
 70
    32
  0
VERTEX
  8
T23SSILL
 62
17
 10
-811.232
 20
-1669.344
 30
2934.700
 70
    32
  0
VERTEX
  8
T23SSILL
 62
17
 10
-772.124
 20
-1760.088
 30
2934.722
 70
    32
  0
SEQEND
  8
T23SSILL
  0
POLYLINE
  8
T23SSILL
 62
17
 66
     1
 70
     9
  0
VERTEX
  8
T23SSILL
 62
17
 10
-722.437
 20
-1717.190
 30
2934.922
 70
    32
  0
VERTEX
  8
T23SSILL
 62
17
 10
-732.043
 20
-1658.425
 30
2934.743
 70
    32
  0
VERTEX
  8
T23SSILL
 62
17
 10
-736.177
 20
-1650.555
 30
2934.732
 70
    32
  0
VERTEX
  8
T23SSILL
 62
17
 10
-737.243
 20
-1643.250
 30
2934.709
 70
    32
  0
VERTEX
  8
T23SSILL
 62
17
 10
-762.827
 20
-1607.816
 30
2934.691
 70
    32
  0
VERTEX
  8
T23SSILL
 62
17
 10
-766.558
 20
-1636.324
 30
2934.816
 70
    32
  0
VERTEX
  8
T23SSILL
 62
17
 10
-755.749
 20
-1645.170
 30
2934.801
 70
    32
  0
VERTEX
  8
T23SSILL
 62
17
 10
-755.255
 20
-1648.689
 30
2934.812
 70
    32
  0
VERTEX
  8
T23SSILL
 62
17
 10
-755.820
 20
-1651.758
 30
2934.826
 70
    32
  0
VERTEX
  8
T23SSILL
 62
17
 10
-764.691
 20
-1660.976
 30
2934.881
 70
    32
  0
VERTEX
  8
T23SSILL
 62
17
 10
-770.763
 20
-1662.586
 30
2934.866
 70
    32
  0
VERTEX
  8
T23SSILL
 62
17
 10
-725.390
 20
-1719.438
 30
2934.944
 70
    32
  0
VERTEX
  8
T23SSILL
 62
17
 10
-722.982
 20
-1718.422
 30
2934.929
 70
    32
  0
VERTEX
  8
T23SSILL
 62
17
 10
-722.437
 20
-1717.190
 30
2934.922
 70
    32
  0
SEQEND
  8
T23SSILL
  0
POLYLINE
  8
T23SSILL
 62
17
 66
     1
 70
     9
  0
VERTEX
  8
T23SSILL
 62
17
 10
-787.638
 20
-1636.373
 30
2934.837
 70
    32
  0
VERTEX
  8
T23SSILL
 62
17
 10
-784.243
 20
-1640.680
 30
2934.843
 70
    32
  0
VERTEX
  8
T23SSILL
 62
17
 10
-781.087
 20
-1642.151
 30
2934.850
 70
    32
  0
VERTEX
  8
T23SSILL
 62
17
 10
-777.182
 20
-1641.283
 30
2934.860
 70
    32
  0
VERTEX
  8
T23SSILL
 62
17
 10
-772.344
 20
-1637.415
 30
2934.847
 70
    32
  0
VERTEX
  8
T23SSILL
 62
17
 10
-767.774
 20
-1606.079
 30
2934.707
 70
    32
  0
VERTEX
  8
T23SSILL
 62
17
 10
-810.848
 20
-1591.159
 30
2934.800
 70
    32
  0
VERTEX
  8
T23SSILL
 62
17
 10
-825.049
 20
-1571.786
 30
2934.775
 70
    32
  0
VERTEX
  8
T23SSILL
 62
17
 10
-832.486
 20
-1577.016
 30
2934.755
 70
    32
  0
VERTEX
  8
T23SSILL
 62
17
 10
-838.241
 20
-1567.260
 30
2934.745
 70
    32
  0
VERTEX
  8
T23SSILL
 62
17
 10
-831.403
 20
-1562.872
 30
2934.763
 70
    32
  0
VERTEX
  8
T23SSILL
 62
17
 10
-861.425
 20
-1520.527
 30
2934.709
 70
    32
  0
VERTEX
  8
T23SSILL
 62
17
 10
-875.265
 20
-1465.107
 30
2934.662
 70
    32
  0
VERTEX
  8
T23SSILL
 62
17
 10
-881.239
 20
-1502.341
 30
2934.670
 70
    32
  0
VERTEX
  8
T23SSILL
 62
17
 10
-821.494
 20
-1667.516
 30
2934.629
 70
    32
  0
VERTEX
  8
T23SSILL
 62
17
 10
-815.666
 20
-1662.751
 30
2934.687
 70
    32
  0
VERTEX
  8
T23SSILL
 62
17
 10
-819.188
 20
-1658.103
 30
2934.674
 70
    32
  0
VERTEX
  8
T23SSILL
 62
17
 10
-797.899
 20
-1631.436
 30
2934.815
 70
    32
  0
VERTEX
  8
T23SSILL
 62
17
 10
-789.751
 20
-1632.684
 30
2934.833
 70
    32
  0
VERTEX
  8
T23SSILL
 62
17
 10
-787.638
 20
-1636.373
 30
2934.837
 70
    32
  0
SEQEND
  8
T23SSILL
  0
POLYLINE
  8
T23SSILL
 62
17
 66
     1
 70
     9
  0
VERTEX
  8
T23SSILL
 62
17
 10
-788.682
 20
-1590.040
 30
2934.741
 70
    32
  0
VERTEX
  8
T23SSILL
 62
17
 10
-771.066
 20
-1595.699
 30
2934.682
 70
    32
  0
VERTEX
  8
T23SSILL
 62
17
 10
-815.912
 20
-1533.231
 30
2934.650
 70
    32
  0
VERTEX
  8
T23SSILL
 62
17
 10
-821.696
 20
-1531.213
 30
2934.669
 70
    32
  0
VERTEX
  8
T23SSILL
 62
17
 10
-827.000
 20
-1526.935
 30
2934.677
 70
    32
  0
VERTEX
  8
T23SSILL
 62
17
 10
-838.481
 20
-1514.157
 30
2934.680
 70
    32
  0
VERTEX
  8
T23SSILL
 62
17
 10
-845.638
 20
-1502.365
 30
2934.668
 70
    32
  0
VERTEX
  8
T23SSILL
 62
17
 10
-846.883
 20
-1497.757
 30
2934.656
 70
    32
  0
VERTEX
  8
T23SSILL
 62
17
 10
-843.608
 20
-1494.108
 30
2934.628
 70
    32
  0
VERTEX
  8
T23SSILL
 62
17
 10
-865.779
 20
-1462.540
 30
2934.609
 70
    32
  0
VERTEX
  8
T23SSILL
 62
17
 10
-854.845
 20
-1516.853
 30
2934.726
 70
    32
  0
VERTEX
  8
T23SSILL
 62
17
 10
-809.862
 20
-1580.297
 30
2934.801
 70
    32
  0
VERTEX
  8
T23SSILL
 62
17
 10
-807.390
 20
-1578.595
 30
2934.783
 70
    32
  0
VERTEX
  8
T23SSILL
 62
17
 10
-789.157
 20
-1587.794
 30
2934.735
 70
    32
  0
VERTEX
  8
T23SSILL
 62
17
 10
-788.682
 20
-1590.040
 30
2934.741
 70
    32
  0
SEQEND
  8
T23SSILL
  0
POLYLINE
  8
T23SSILL
 62
17
 66
     1
 70
     9
  0
VERTEX
  8
T23SSILL
 62
17
 10
-801.550
 20
-1501.312
 30
2934.651
 70
    32
  0
VERTEX
  8
T23SSILL
 62
17
 10
-797.457
 20
-1520.346
 30
2934.650
 70
    32
  0
VERTEX
  8
T23SSILL
 62
17
 10
-802.106
 20
-1525.578
 30
2934.643
 70
    32
  0
VERTEX
  8
T23SSILL
 62
17
 10
-803.127
 20
-1534.527
 30
2934.638
 70
    32
  0
VERTEX
  8
T23SSILL
 62
17
 10
-803.868
 20
-1535.786
 30
2934.637
 70
    32
  0
VERTEX
  8
T23SSILL
 62
17
 10
-805.363
 20
-1535.637
 30
2934.635
 70
    32
  0
VERTEX
  8
T23SSILL
 62
17
 10
-788.398
 20
-1559.527
 30
2934.649
 70
    32
  0
VERTEX
  8
T23SSILL
 62
17
 10
-788.754
 20
-1553.560
 30
2934.650
 70
    32
  0
VERTEX
  8
T23SSILL
 62
17
 10
-787.573
 20
-1548.892
 30
2934.653
 70
    32
  0
VERTEX
  8
T23SSILL
 62
17
 10
-782.588
 20
-1541.501
 30
2934.661
 70
    32
  0
VERTEX
  8
T23SSILL
 62
17
 10
-778.252
 20
-1536.592
 30
2934.668
 70
    32
  0
VERTEX
  8
T23SSILL
 62
17
 10
-758.634
 20
-1522.136
 30
2934.596
 70
    32
  0
VERTEX
  8
T23SSILL
 62
17
 10
-755.158
 20
-1510.214
 30
2934.551
 70
    32
  0
VERTEX
  8
T23SSILL
 62
17
 10
-740.284
 20
-1499.450
 30
2934.452
 70
    32
  0
VERTEX
  8
T23SSILL
 62
17
 10
-745.902
 20
-1495.174
 30
2934.465
 70
    32
  0
VERTEX
  8
T23SSILL
 62
17
 10
-752.675
 20
-1487.194
 30
2934.489
 70
    32
  0
VERTEX
  8
T23SSILL
 62
17
 10
-760.025
 20
-1483.359
 30
2934.525
 70
    32
  0
VERTEX
  8
T23SSILL
 62
17
 10
-758.573
 20
-1468.651
 30
2934.486
 70
    32
  0
VERTEX
  8
T23SSILL
 62
17
 10
-751.133
 20
-1463.428
 30
2934.476
 70
    32
  0
VERTEX
  8
T23SSILL
 62
17
 10
-732.062
 20
-1468.734
 30
2934.484
 70
    32
  0
VERTEX
  8
T23SSILL
 62
17
 10
-727.341
 20
-1458.312
 30
2934.496
 70
    32
  0
VERTEX
  8
T23SSILL
 62
17
 10
-721.760
 20
-1453.189
 30
2934.504
 70
    32
  0
VERTEX
  8
T23SSILL
 62
17
 10
-719.938
 20
-1442.001
 30
2934.515
 70
    32
  0
VERTEX
  8
T23SSILL
 62
17
 10
-722.853
 20
-1441.945
 30
2934.513
 70
    32
  0
VERTEX
  8
T23SSILL
 62
17
 10
-722.465
 20
-1433.816
 30
2934.520
 70
    32
  0
VERTEX
  8
T23SSILL
 62
17
 10
-730.027
 20
-1423.102
 30
2934.525
 70
    32
  0
VERTEX
  8
T23SSILL
 62
17
 10
-728.240
 20
-1397.668
 30
2934.548
 70
    32
  0
VERTEX
  8
T23SSILL
 62
17
 10
-716.429
 20
-1383.227
 30
2934.568
 70
    32
  0
VERTEX
  8
T23SSILL
 62
17
 10
-724.215
 20
-1347.455
 30
2934.594
 70
    32
  0
VERTEX
  8
T23SSILL
 62
17
 10
-732.524
 20
-1338.175
 30
2934.597
 70
    32
  0
VERTEX
  8
T23SSILL
 62
17
 10
-769.115
 20
-1311.287
 30
2934.597
 70
    32
  0
VERTEX
  8
T23SSILL
 62
17
 10
-881.306
 20
-1392.189
 30
2934.588
 70
    32
  0
VERTEX
  8
T23SSILL
 62
17
 10
-885.723
 20
-1398.225
 30
2934.580
 70
    32
  0
VERTEX
  8
T23SSILL
 62
17
 10
-888.872
 20
-1407.352
 30
2934.574
 70
    32
  0
VERTEX
  8
T23SSILL
 62
17
 10
-888.766
 20
-1416.383
 30
2934.571
 70
    32
  0
VERTEX
  8
T23SSILL
 62
17
 10
-885.733
 20
-1424.686
 30
2934.572
 70
    32
  0
VERTEX
  8
T23SSILL
 62
17
 10
-842.189
 20
-1483.956
 30
2934.607
 70
    32
  0
VERTEX
  8
T23SSILL
 62
17
 10
-838.658
 20
-1482.706
 30
2934.611
 70
    32
  0
VERTEX
  8
T23SSILL
 62
17
 10
-825.744
 20
-1492.139
 30
2934.624
 70
    32
  0
VERTEX
  8
T23SSILL
 62
17
 10
-804.691
 20
-1499.081
 30
2934.648
 70
    32
  0
VERTEX
  8
T23SSILL
 62
17
 10
-801.550
 20
-1501.312
 30
2934.651
 70
    32
  0
SEQEND
  8
T23SSILL
  0
POLYLINE
  8
T23SSILL
 62
17
 66
     1
 70
     9
  0
VERTEX
  8
T23SSILL
 62
17
 10
-777.460
 20
-1547.400
 30
2934.666
 70
    32
  0
VERTEX
  8
T23SSILL
 62
17
 10
-781.390
 20
-1558.349
 30
2934.658
 70
    32
  0
VERTEX
  8
T23SSILL
 62
17
 10
-780.816
 20
-1567.594
 30
2934.655
 70
    32
  0
VERTEX
  8
T23SSILL
 62
17
 10
-777.834
 20
-1574.111
 30
2934.657
 70
    32
  0
VERTEX
  8
T23SSILL
 62
17
 10
-686.331
 20
-1701.067
 30
2934.529
 70
    32
  0
VERTEX
  8
T23SSILL
 62
17
 10
-679.797
 20
-1691.440
 30
2934.470
 70
    32
  0
VERTEX
  8
T23SSILL
 62
17
 10
-686.897
 20
-1682.828
 30
2934.495
 70
    32
  0
VERTEX
  8
T23SSILL
 62
17
 10
-691.575
 20
-1679.297
 30
2934.516
 70
    32
  0
VERTEX
  8
T23SSILL
 62
17
 10
-703.619
 20
-1674.086
 30
2934.577
 70
    32
  0
VERTEX
  8
T23SSILL
 62
17
 10
-704.633
 20
-1671.677
 30
2934.578
 70
    32
  0
VERTEX
  8
T23SSILL
 62
17
 10
-696.604
 20
-1659.836
 30
2934.506
 70
    32
  0
VERTEX
  8
T23SSILL
 62
17
 10
-689.119
 20
-1652.654
 30
2934.446
 70
    32
  0
VERTEX
  8
T23SSILL
 62
17
 10
-684.029
 20
-1650.868
 30
2934.412
 70
    32
  0
VERTEX
  8
T23SSILL
 62
17
 10
-682.815
 20
-1653.567
 30
2934.410
 70
    32
  0
VERTEX
  8
T23SSILL
 62
17
 10
-668.597
 20
-1665.209
 30
2934.353
 70
    32
  0
VERTEX
  8
T23SSILL
 62
17
 10
-641.369
 20
-1660.729
 30
2934.375
 70
    32
  0
VERTEX
  8
T23SSILL
 62
17
 10
-636.873
 20
-1661.815
 30
2934.377
 70
    32
  0
VERTEX
  8
T23SSILL
 62
17
 10
-629.380
 20
-1665.931
 30
2934.378
 70
    32
  0
VERTEX
  8
T23SSILL
 62
17
 10
-602.660
 20
-1646.158
 30
2934.412
 70
    32
  0
VERTEX
  8
T23SSILL
 62
17
 10
-611.206
 20
-1644.163
 30
2934.409
 70
    32
  0
VERTEX
  8
T23SSILL
 62
17
 10
-618.561
 20
-1636.583
 30
2934.410
 70
    32
  0
VERTEX
  8
T23SSILL
 62
17
 10
-629.478
 20
-1634.880
 30
2934.405
 70
    32
  0
VERTEX
  8
T23SSILL
 62
17
 10
-636.432
 20
-1631.309
 30
2934.404
 70
    32
  0
VERTEX
  8
T23SSILL
 62
17
 10
-644.663
 20
-1630.864
 30
2934.399
 70
    32
  0
VERTEX
  8
T23SSILL
 62
17
 10
-652.463
 20
-1624.662
 30
2934.399
 70
    32
  0
VERTEX
  8
T23SSILL
 62
17
 10
-668.149
 20
-1618.205
 30
2934.395
 70
    32
  0
VERTEX
  8
T23SSILL
 62
17
 10
-667.186
 20
-1613.687
 30
2934.399
 70
    32
  0
VERTEX
  8
T23SSILL
 62
17
 10
-661.838
 20
-1602.620
 30
2934.412
 70
    32
  0
VERTEX
  8
T23SSILL
 62
17
 10
-661.160
 20
-1595.085
 30
2934.419
 70
    32
  0
VERTEX
  8
T23SSILL
 62
17
 10
-678.837
 20
-1584.167
 30
2934.417
 70
    32
  0
VERTEX
  8
T23SSILL
 62
17
 10
-687.783
 20
-1572.990
 30
2934.421
 70
    32
  0
VERTEX
  8
T23SSILL
 62
17
 10
-690.536
 20
-1567.488
 30
2934.424
 70
    32
  0
VERTEX
  8
T23SSILL
 62
17
 10
-691.479
 20
-1560.858
 30
2934.430
 70
    32
  0
VERTEX
  8
T23SSILL
 62
17
 10
-687.500
 20
-1547.176
 30
2934.444
 70
    32
  0
VERTEX
  8
T23SSILL
 62
17
 10
-673.637
 20
-1538.056
 30
2934.461
 70
    32
  0
VERTEX
  8
T23SSILL
 62
17
 10
-659.450
 20
-1519.604
 30
2934.486
 70
    32
  0
VERTEX
  8
T23SSILL
 62
17
 10
-644.419
 20
-1519.645
 30
2934.495
 70
    32
  0
VERTEX
  8
T23SSILL
 62
17
 10
-639.760
 20
-1525.009
 30
2934.494
 70
    32
  0
VERTEX
  8
T23SSILL
 62
17
 10
-635.559
 20
-1532.509
 30
2934.490
 70
    32
  0
VERTEX
  8
T23SSILL
 62
17
 10
-628.212
 20
-1550.487
 30
2934.479
 70
    32
  0
VERTEX
  8
T23SSILL
 62
17
 10
-616.843
 20
-1557.658
 30
2934.480
 70
    32
  0
VERTEX
  8
T23SSILL
 62
17
 10
-620.675
 20
-1535.759
 30
2934.497
 70
    32
  0
VERTEX
  8
T23SSILL
 62
17
 10
-622.689
 20
-1535.324
 30
2934.496
 70
    32
  0
VERTEX
  8
T23SSILL
 62
17
 10
-624.736
 20
-1518.196
 30
2934.509
 70
    32
  0
VERTEX
  8
T23SSILL
 62
17
 10
-631.674
 20
-1511.080
 30
2934.511
 70
    32
  0
VERTEX
  8
T23SSILL
 62
17
 10
-637.548
 20
-1498.195
 30
2934.519
 70
    32
  0
VERTEX
  8
T23SSILL
 62
17
 10
-649.492
 20
-1488.634
 30
2934.519
 70
    32
  0
VERTEX
  8
T23SSILL
 62
17
 10
-666.711
 20
-1486.350
 30
2934.510
 70
    32
  0
VERTEX
  8
T23SSILL
 62
17
 10
-670.186
 20
-1487.994
 30
2934.506
 70
    32
  0
VERTEX
  8
T23SSILL
 62
17
 10
-700.080
 20
-1511.800
 30
2934.467
 70
    32
  0
VERTEX
  8
T23SSILL
 62
17
 10
-714.589
 20
-1515.472
 30
2934.454
 70
    32
  0
VERTEX
  8
T23SSILL
 62
17
 10
-740.890
 20
-1532.516
 30
2934.511
 70
    32
  0
VERTEX
  8
T23SSILL
 62
17
 10
-756.656
 20
-1530.308
 30
2934.601
 70
    32
  0
VERTEX
  8
T23SSILL
 62
17
 10
-774.429
 20
-1543.709
 30
2934.671
 70
    32
  0
VERTEX
  8
T23SSILL
 62
17
 10
-777.460
 20
-1547.400
 30
2934.666
 70
    32
  0
SEQEND
  8
T23SSILL
  0
POLYLINE
  8
T23SSILL
 62
17
 66
     1
 70
     9
  0
VERTEX
  8
T23SSILL
 62
17
 10
-615.407
 20
-1953.198
 30
2934.133
 70
    32
  0
VERTEX
  8
T23SSILL
 62
17
 10
-615.433
 20
-1950.771
 30
2934.138
 70
    32
  0
VERTEX
  8
T23SSILL
 62
17
 10
-614.121
 20
-1949.299
 30
2934.145
 70
    32
  0
VERTEX
  8
T23SSILL
 62
17
 10
-612.394
 20
-1947.361
 30
2934.151
 70
    32
  0
VERTEX
  8
T23SSILL
 62
17
 10
-613.920
 20
-1936.157
 30
2934.151
 70
    32
  0
VERTEX
  8
T23SSILL
 62
17
 10
-604.098
 20
-1914.086
 30
2934.187
 70
    32
  0
VERTEX
  8
T23SSILL
 62
17
 10
-608.097
 20
-1907.614
 30
2934.179
 70
    32
  0
VERTEX
  8
T23SSILL
 62
17
 10
-611.387
 20
-1898.863
 30
2934.173
 70
    32
  0
VERTEX
  8
T23SSILL
 62
17
 10
-610.533
 20
-1889.472
 30
2934.179
 70
    32
  0
VERTEX
  8
T23SSILL
 62
17
 10
-579.186
 20
-1862.388
 30
2934.278
 70
    32
  0
VERTEX
  8
T23SSILL
 62
17
 10
-593.526
 20
-1841.850
 30
2934.246
 70
    32
  0
VERTEX
  8
T23SSILL
 62
17
 10
-593.613
 20
-1841.726
 30
2934.249
 70
    32
  0
VERTEX
  8
T23SSILL
 62
17
 10
-594.768
 20
-1841.545
 30
2934.268
 70
    32
  0
VERTEX
  8
T23SSILL
 62
17
 10
-644.052
 20
-1833.830
 30
2934.408
 70
    32
  0
VERTEX
  8
T23SSILL
 62
17
 10
-664.911
 20
-1807.366
 30
2934.294
 70
    32
  0
VERTEX
  8
T23SSILL
 62
17
 10
-699.497
 20
-1763.486
 30
2934.785
 70
    32
  0
VERTEX
  8
T23SSILL
 62
17
 10
-706.045
 20
-1761.160
 30
2934.897
 70
    32
  0
VERTEX
  8
T23SSILL
 62
17
 10
-686.566
 20
-1877.400
 30
2934.904
 70
    32
  0
VERTEX
  8
T23SSILL
 62
17
 10
-685.571
 20
-1883.420
 30
2934.945
 70
    32
  0
VERTEX
  8
T23SSILL
 62
17
 10
-675.443
 20
-1941.578
 30
2933.976
 70
    32
  0
VERTEX
  8
T23SSILL
 62
17
 10
-674.410
 20
-1947.513
 30
2933.976
 70
    32
  0
VERTEX
  8
T23SSILL
 62
17
 10
-673.714
 20
-1951.509
 30
2933.970
 70
    32
  0
VERTEX
  8
T23SSILL
 62
17
 10
-668.461
 20
-1964.796
 30
2933.957
 70
    32
  0
VERTEX
  8
T23SSILL
 62
17
 10
-665.837
 20
-1965.064
 30
2933.964
 70
    32
  0
VERTEX
  8
T23SSILL
 62
17
 10
-656.352
 20
-1957.459
 30
2934.007
 70
    32
  0
VERTEX
  8
T23SSILL
 62
17
 10
-640.506
 20
-1970.692
 30
2934.025
 70
    32
  0
VERTEX
  8
T23SSILL
 62
17
 10
-637.197
 20
-1969.121
 30
2934.037
 70
    32
  0
VERTEX
  8
T23SSILL
 62
17
 10
-615.407
 20
-1953.198
 30
2934.133
 70
    32
  0
SEQEND
  8
T23SSILL
  0
POLYLINE
  8
T23SSILL
 62
17
 66
     1
 70
     9
  0
VERTEX
  8
T23SSILL
 62
17
 10
-716.525
 20
-1670.996
 30
2934.622
 70
    32
  0
VERTEX
  8
T23SSILL
 62
17
 10
-692.562
 20
-1703.486
 30
2934.551
 70
    32
  0
VERTEX
  8
T23SSILL
 62
17
 10
-691.212
 20
-1705.667
 30
2934.545
 70
    32
  0
VERTEX
  8
T23SSILL
 62
17
 10
-696.556
 20
-1709.127
 30
2934.520
 70
    32
  0
VERTEX
  8
T23SSILL
 62
17
 10
-689.514
 20
-1720.157
 30
2934.493
 70
    32
  0
VERTEX
  8
T23SSILL
 62
17
 10
-683.391
 20
-1715.940
 30
2934.524
 70
    32
  0
VERTEX
  8
T23SSILL
 62
17
 10
-657.575
 20
-1753.365
 30
2934.438
 70
    32
  0
VERTEX
  8
T23SSILL
 62
17
 10
-603.220
 20
-1828.771
 30
2934.270
 70
    32
  0
VERTEX
  8
T23SSILL
 62
17
 10
-617.029
 20
-1826.704
 30
2934.247
 70
    32
  0
VERTEX
  8
T23SSILL
 62
17
 10
-639.172
 20
-1823.389
 30
2934.311
 70
    32
  0
VERTEX
  8
T23SSILL
 62
17
 10
-652.455
 20
-1806.978
 30
2934.241
 70
    32
  0
VERTEX
  8
T23SSILL
 62
17
 10
-669.984
 20
-1785.322
 30
2934.285
 70
    32
  0
VERTEX
  8
T23SSILL
 62
17
 10
-708.601
 20
-1737.507
 30
2934.831
 70
    32
  0
VERTEX
  8
T23SSILL
 62
17
 10
-711.382
 20
-1715.344
 30
2934.729
 70
    32
  0
VERTEX
  8
T23SSILL
 62
17
 10
-721.519
 20
-1674.328
 30
2934.657
 70
    32
  0
VERTEX
  8
T23SSILL
 62
17
 10
-719.734
 20
-1673.137
 30
2934.606
 70
    32
  0
VERTEX
  8
T23SSILL
 62
17
 10
-716.525
 20
-1670.996
 30
2934.622
 70
    32
  0
SEQEND
  8
T23SSILL
  0
LINE
  8
T23SSILL
 62
17
 10
234.002
 20
-1885.580
 30
2936.733
 11
235.399
 21
-1883.647
 31
2936.756
  0
TEXT
  8
T23SSILL
 62
17
 10
1124.210
 20
-1683.081
 30
2939.386
 40
8.202
  1
2300
 50
103.319
 41
 1.0 
  0
POLYLINE
  8
T23SSILL
 62
17
 66
     1
 70
     9
  0
VERTEX
  8
T23SSILL
 62
17
 10
369.535
 20
-2382.300
 30
2934.539
 70
    32
  0
VERTEX
  8
T23SSILL
 62
17
 10
609.139
 20
-2713.158
 30
2934.794
 70
    32
  0
VERTEX
  8
T23SSILL
 62
17
 10
611.067
 20
-2713.593
 30
2934.794
 70
    32
  0
VERTEX
  8
T23SSILL
 62
17
 10
616.902
 20
-2723.338
 30
2934.807
 70
    32
  0
VERTEX
  8
T23SSILL
 62
17
 10
622.191
 20
-2727.608
 30
2934.812
 70
    32
  0
VERTEX
  8
T23SSILL
 62
17
 10
624.281
 20
-2726.999
 30
2934.811
 70
    32
  0
VERTEX
  8
T23SSILL
 62
17
 10
627.084
 20
-2721.393
 30
2934.804
 70
    32
  0
VERTEX
  8
T23SSILL
 62
17
 10
626.390
 20
-2719.481
 30
2934.802
 70
    32
  0
VERTEX
  8
T23SSILL
 62
17
 10
630.337
 20
-2702.648
 30
2934.781
 70
    32
  0
VERTEX
  8
T23SSILL
 62
17
 10
640.977
 20
-2703.465
 30
2934.782
 70
    32
  0
VERTEX
  8
T23SSILL
 62
17
 10
635.751
 20
-2750.153
 30
2934.840
 70
    32
  0
VERTEX
  8
T23SSILL
 62
17
 10
713.612
 20
-2857.546
 30
2934.576
 70
    32
  0
VERTEX
  8
T23SSILL
 62
17
 10
724.094
 20
-2867.495
 30
2934.541
 70
    32
  0
VERTEX
  8
T23SSILL
 62
17
 10
746.557
 20
-2877.603
 30
2934.497
 70
    32
  0
VERTEX
  8
T23SSILL
 62
17
 10
815.894
 20
-2879.279
 30
2934.433
 70
    32
  0
VERTEX
  8
T23SSILL
 62
17
 10
820.990
 20
-2869.845
 30
2934.426
 70
    32
  0
VERTEX
  8
T23SSILL
 62
17
 10
822.310
 20
-2855.757
 30
2934.421
 70
    32
  0
VERTEX
  8
T23SSILL
 62
17
 10
834.995
 20
-2845.956
 30
2934.404
 70
    32
  0
VERTEX
  8
T23SSILL
 62
17
 10
840.219
 20
-2827.112
 30
2934.394
 70
    32
  0
VERTEX
  8
T23SSILL
 62
17
 10
838.187
 20
-2816.472
 30
2934.394
 70
    32
  0
VERTEX
  8
T23SSILL
 62
17
 10
835.798
 20
-2813.199
 30
2934.396
 70
    32
  0
VERTEX
  8
T23SSILL
 62
17
 10
824.345
 20
-2802.994
 30
2934.407
 70
    32
  0
VERTEX
  8
T23SSILL
 62
17
 10
808.544
 20
-2795.224
 30
2934.424
 70
    32
  0
VERTEX
  8
T23SSILL
 62
17
 10
808.408
 20
-2787.791
 30
2934.423
 70
    32
  0
VERTEX
  8
T23SSILL
 62
17
 10
789.644
 20
-2771.644
 30
2934.441
 70
    32
  0
VERTEX
  8
T23SSILL
 62
17
 10
795.476
 20
-2763.753
 30
2934.433
 70
    32
  0
VERTEX
  8
T23SSILL
 62
17
 10
825.075
 20
-2783.927
 30
2934.402
 70
    32
  0
VERTEX
  8
T23SSILL
 62
17
 10
846.378
 20
-2790.485
 30
2934.378
 70
    32
  0
VERTEX
  8
T23SSILL
 62
17
 10
855.642
 20
-2800.146
 30
2934.369
 70
    32
  0
VERTEX
  8
T23SSILL
 62
17
 10
856.094
 20
-2809.443
 30
2934.371
 70
    32
  0
VERTEX
  8
T23SSILL
 62
17
 10
857.866
 20
-2814.519
 30
2934.370
 70
    32
  0
VERTEX
  8
T23SSILL
 62
17
 10
861.301
 20
-2816.550
 30
2934.366
 70
    32
  0
VERTEX
  8
T23SSILL
 62
17
 10
857.223
 20
-2823.544
 30
2934.373
 70
    32
  0
VERTEX
  8
T23SSILL
 62
17
 10
855.044
 20
-2836.072
 30
2934.378
 70
    32
  0
VERTEX
  8
T23SSILL
 62
17
 10
858.161
 20
-2841.893
 30
2934.376
 70
    32
  0
VERTEX
  8
T23SSILL
 62
17
 10
863.730
 20
-2848.168
 30
2934.370
 70
    32
  0
VERTEX
  8
T23SSILL
 62
17
 10
858.557
 20
-2872.736
 30
2934.382
 70
    32
  0
VERTEX
  8
T23SSILL
 62
17
 10
870.204
 20
-2873.039
 30
2934.368
 70
    32
  0
VERTEX
  8
T23SSILL
 62
17
 10
874.912
 20
-2881.523
 30
2934.364
 70
    32
  0
VERTEX
  8
T23SSILL
 62
17
 10
1033.786
 20
-2885.334
 30
2934.081
 70
    32
  0
VERTEX
  8
T23SSILL
 62
17
 10
812.490
 20
-2576.988
 30
2934.433
 70
    32
  0
VERTEX
  8
T23SSILL
 62
17
 10
801.635
 20
-2573.201
 30
2934.460
 70
    32
  0
VERTEX
  8
T23SSILL
 62
17
 10
797.525
 20
-2575.810
 30
2934.471
 70
    32
  0
VERTEX
  8
T23SSILL
 62
17
 10
786.251
 20
-2575.036
 30
2934.499
 70
    32
  0
VERTEX
  8
T23SSILL
 62
17
 10
784.500
 20
-2575.939
 30
2934.504
 70
    32
  0
VERTEX
  8
T23SSILL
 62
17
 10
783.613
 20
-2576.955
 30
2934.506
 70
    32
  0
VERTEX
  8
T23SSILL
 62
17
 10
784.638
 20
-2584.064
 30
2934.505
 70
    32
  0
VERTEX
  8
T23SSILL
 62
17
 10
781.873
 20
-2600.987
 30
2934.516
 70
    32
  0
VERTEX
  8
T23SSILL
 62
17
 10
774.895
 20
-2619.374
 30
2934.537
 70
    32
  0
VERTEX
  8
T23SSILL
 62
17
 10
766.151
 20
-2605.417
 30
2934.556
 70
    32
  0
VERTEX
  8
T23SSILL
 62
17
 10
762.179
 20
-2603.581
 30
2934.566
 70
    32
  0
VERTEX
  8
T23SSILL
 62
17
 10
755.966
 20
-2590.456
 30
2934.579
 70
    32
  0
VERTEX
  8
T23SSILL
 62
17
 10
789.781
 20
-2562.862
 30
2934.488
 70
    32
  0
VERTEX
  8
T23SSILL
 62
17
 10
800.241
 20
-2559.921
 30
2934.461
 70
    32
  0
VERTEX
  8
T23SSILL
 62
17
 10
773.567
 20
-2522.755
 30
2934.520
 70
    32
  0
VERTEX
  8
T23SSILL
 62
17
 10
769.949
 20
-2521.069
 30
2934.529
 70
    32
  0
VERTEX
  8
T23SSILL
 62
17
 10
763.619
 20
-2522.383
 30
2934.546
 70
    32
  0
VERTEX
  8
T23SSILL
 62
17
 10
744.985
 20
-2537.621
 30
2934.578
 70
    32
  0
VERTEX
  8
T23SSILL
 62
17
 10
740.242
 20
-2530.595
 30
2934.570
 70
    32
  0
VERTEX
  8
T23SSILL
 62
17
 10
754.912
 20
-2518.298
 30
2934.555
 70
    32
  0
VERTEX
  8
T23SSILL
 62
17
 10
752.872
 20
-2511.748
 30
2934.546
 70
    32
  0
VERTEX
  8
T23SSILL
 62
17
 10
756.737
 20
-2499.305
 30
2934.543
 70
    32
  0
VERTEX
  8
T23SSILL
 62
17
 10
734.078
 20
-2467.732
 30
2934.576
 70
    32
  0
VERTEX
  8
T23SSILL
 62
17
 10
726.258
 20
-2468.948
 30
2934.558
 70
    32
  0
VERTEX
  8
T23SSILL
 62
17
 10
714.902
 20
-2467.347
 30
2934.542
 70
    32
  0
VERTEX
  8
T23SSILL
 62
17
 10
710.895
 20
-2471.099
 30
2934.536
 70
    32
  0
VERTEX
  8
T23SSILL
 62
17
 10
675.928
 20
-2424.385
 30
2934.570
 70
    32
  0
VERTEX
  8
T23SSILL
 62
17
 10
682.933
 20
-2419.325
 30
2934.596
 70
    32
  0
VERTEX
  8
T23SSILL
 62
17
 10
700.072
 20
-2434.939
 30
2934.591
 70
    32
  0
VERTEX
  8
T23SSILL
 62
17
 10
707.283
 20
-2444.737
 30
2934.581
 70
    32
  0
VERTEX
  8
T23SSILL
 62
17
 10
713.514
 20
-2450.952
 30
2934.577
 70
    32
  0
VERTEX
  8
T23SSILL
 62
17
 10
716.610
 20
-2453.240
 30
2934.578
 70
    32
  0
VERTEX
  8
T23SSILL
 62
17
 10
719.614
 20
-2453.819
 30
2934.582
 70
    32
  0
VERTEX
  8
T23SSILL
 62
17
 10
722.864
 20
-2452.107
 30
2934.592
 70
    32
  0
VERTEX
  8
T23SSILL
 62
17
 10
686.781
 20
-2401.831
 30
2934.646
 70
    32
  0
VERTEX
  8
T23SSILL
 62
17
 10
660.053
 20
-2387.443
 30
2934.629
 70
    32
  0
VERTEX
  8
T23SSILL
 62
17
 10
649.900
 20
-2394.482
 30
2934.593
 70
    32
  0
VERTEX
  8
T23SSILL
 62
17
 10
663.246
 20
-2411.236
 30
2934.578
 70
    32
  0
VERTEX
  8
T23SSILL
 62
17
 10
654.898
 20
-2417.441
 30
2934.547
 70
    32
  0
VERTEX
  8
T23SSILL
 62
17
 10
638.663
 20
-2403.579
 30
2934.550
 70
    32
  0
VERTEX
  8
T23SSILL
 62
17
 10
634.767
 20
-2393.898
 30
2934.566
 70
    32
  0
VERTEX
  8
T23SSILL
 62
17
 10
635.847
 20
-2381.720
 30
2934.597
 70
    32
  0
VERTEX
  8
T23SSILL
 62
17
 10
639.267
 20
-2373.303
 30
2934.624
 70
    32
  0
VERTEX
  8
T23SSILL
 62
17
 10
624.269
 20
-2351.369
 30
2934.649
 70
    32
  0
VERTEX
  8
T23SSILL
 62
17
 10
599.488
 20
-2333.631
 30
2934.645
 70
    32
  0
VERTEX
  8
T23SSILL
 62
17
 10
588.721
 20
-2303.323
 30
2934.697
 70
    32
  0
VERTEX
  8
T23SSILL
 62
17
 10
578.213
 20
-2286.497
 30
2934.718
 70
    32
  0
VERTEX
  8
T23SSILL
 62
17
 10
569.911
 20
-2264.302
 30
2934.756
 70
    32
  0
VERTEX
  8
T23SSILL
 62
17
 10
574.431
 20
-2253.703
 30
2934.790
 70
    32
  0
VERTEX
  8
T23SSILL
 62
17
 10
562.104
 20
-2232.493
 30
2934.818
 70
    32
  0
VERTEX
  8
T23SSILL
 62
17
 10
555.227
 20
-2223.995
 30
2934.826
 70
    32
  0
VERTEX
  8
T23SSILL
 62
17
 10
554.623
 20
-2217.687
 30
2934.840
 70
    32
  0
VERTEX
  8
T23SSILL
 62
17
 10
461.351
 20
-2087.725
 30
2934.977
 70
    32
  0
VERTEX
  8
T23SSILL
 62
17
 10
449.919
 20
-2073.934
 30
2934.989
 70
    32
  0
VERTEX
  8
T23SSILL
 62
17
 10
384.786
 20
-1983.722
 30
2935.084
 70
    32
  0
VERTEX
  8
T23SSILL
 62
17
 10
390.851
 20
-1979.030
 30
2935.106
 70
    32
  0
VERTEX
  8
T23SSILL
 62
17
 10
515.798
 20
-2150.084
 30
2934.930
 70
    32
  0
VERTEX
  8
T23SSILL
 62
17
 10
514.282
 20
-2147.847
 30
2934.932
 70
    32
  0
VERTEX
  8
T23SSILL
 62
17
 10
516.121
 20
-2138.533
 30
2934.958
 70
    32
  0
VERTEX
  8
T23SSILL
 62
17
 10
525.084
 20
-2126.626
 30
2935.004
 70
    32
  0
VERTEX
  8
T23SSILL
 62
17
 10
640.232
 20
-2044.306
 30
2935.423
 70
    32
  0
VERTEX
  8
T23SSILL
 62
17
 10
646.605
 20
-1996.240
 30
2935.552
 70
    32
  0
VERTEX
  8
T23SSILL
 62
17
 10
625.203
 20
-1965.556
 30
2935.585
 70
    32
  0
VERTEX
  8
T23SSILL
 62
17
 10
612.230
 20
-1964.309
 30
2935.564
 70
    32
  0
VERTEX
  8
T23SSILL
 62
17
 10
609.360
 20
-1961.737
 30
2935.564
 70
    32
  0
VERTEX
  8
T23SSILL
 62
17
 10
601.087
 20
-1946.082
 30
2935.586
 70
    32
  0
VERTEX
  8
T23SSILL
 62
17
 10
602.069
 20
-1942.878
 30
2935.596
 70
    32
  0
VERTEX
  8
T23SSILL
 62
17
 10
606.690
 20
-1940.211
 30
2935.611
 70
    32
  0
VERTEX
  8
T23SSILL
 62
17
 10
585.000
 20
-1911.009
 30
2935.641
 70
    32
  0
VERTEX
  8
T23SSILL
 62
17
 10
591.938
 20
-1906.593
 30
2935.665
 70
    32
  0
VERTEX
  8
T23SSILL
 62
17
 10
616.449
 20
-1941.039
 30
2935.628
 70
    32
  0
VERTEX
  8
T23SSILL
 62
17
 10
644.035
 20
-1946.384
 30
2935.667
 70
    32
  0
VERTEX
  8
T23SSILL
 62
17
 10
651.148
 20
-1955.479
 30
2935.659
 70
    32
  0
VERTEX
  8
T23SSILL
 62
17
 10
638.904
 20
-1972.804
 30
2935.594
 70
    32
  0
VERTEX
  8
T23SSILL
 62
17
 10
654.235
 20
-1994.593
 30
2935.570
 70
    32
  0
VERTEX
  8
T23SSILL
 62
17
 10
647.318
 20
-2038.628
 30
2935.450
 70
    32
  0
VERTEX
  8
T23SSILL
 62
17
 10
652.122
 20
-2044.218
 30
2935.446
 70
    32
  0
VERTEX
  8
T23SSILL
 62
17
 10
595.826
 20
-2084.727
 30
2935.241
 70
    32
  0
VERTEX
  8
T23SSILL
 62
17
 10
642.284
 20
-2124.261
 30
2935.233
 70
    32
  0
VERTEX
  8
T23SSILL
 62
17
 10
654.687
 20
-2112.487
 30
2935.285
 70
    32
  0
VERTEX
  8
T23SSILL
 62
17
 10
655.836
 20
-2109.934
 30
2935.294
 70
    32
  0
VERTEX
  8
T23SSILL
 62
17
 10
653.347
 20
-2097.167
 30
2935.320
 70
    32
  0
VERTEX
  8
T23SSILL
 62
17
 10
665.205
 20
-2093.932
 30
2935.350
 70
    32
  0
VERTEX
  8
T23SSILL
 62
17
 10
676.655
 20
-2089.010
 30
2935.384
 70
    32
  0
VERTEX
  8
T23SSILL
 62
17
 10
680.190
 20
-2088.401
 30
2935.392
 70
    32
  0
VERTEX
  8
T23SSILL
 62
17
 10
683.270
 20
-2089.367
 30
2935.396
 70
    32
  0
VERTEX
  8
T23SSILL
 62
17
 10
706.519
 20
-2105.837
 30
2935.400
 70
    32
  0
VERTEX
  8
T23SSILL
 62
17
 10
719.042
 20
-2099.421
 30
2935.440
 70
    32
  0
VERTEX
  8
T23SSILL
 62
17
 10
735.430
 20
-2094.700
 30
2935.482
 70
    32
  0
VERTEX
  8
T23SSILL
 62
17
 10
747.524
 20
-2114.309
 30
2935.458
 70
    32
  0
VERTEX
  8
T23SSILL
 62
17
 10
768.784
 20
-2128.195
 30
2935.464
 70
    32
  0
VERTEX
  8
T23SSILL
 62
17
 10
770.216
 20
-2132.655
 30
2935.456
 70
    32
  0
VERTEX
  8
T23SSILL
 62
17
 10
770.417
 20
-2138.840
 30
2935.442
 70
    32
  0
VERTEX
  8
T23SSILL
 62
17
 10
762.069
 20
-2143.600
 30
2935.414
 70
    32
  0
VERTEX
  8
T23SSILL
 62
17
 10
758.398
 20
-2143.311
 30
2935.408
 70
    32
  0
VERTEX
  8
T23SSILL
 62
17
 10
754.694
 20
-2140.379
 30
2935.408
 70
    32
  0
VERTEX
  8
T23SSILL
 62
17
 10
745.328
 20
-2139.916
 30
2935.391
 70
    32
  0
VERTEX
  8
T23SSILL
 62
17
 10
731.132
 20
-2131.158
 30
2935.386
 70
    32
  0
VERTEX
  8
T23SSILL
 62
17
 10
720.942
 20
-2129.771
 30
2935.370
 70
    32
  0
VERTEX
  8
T23SSILL
 62
17
 10
716.156
 20
-2145.803
 30
2935.322
 70
    32
  0
VERTEX
  8
T23SSILL
 62
17
 10
733.515
 20
-2160.691
 30
2935.319
 70
    32
  0
VERTEX
  8
T23SSILL
 62
17
 10
750.517
 20
-2182.194
 30
2935.299
 70
    32
  0
VERTEX
  8
T23SSILL
 62
17
 10
752.488
 20
-2180.565
 30
2935.307
 70
    32
  0
VERTEX
  8
T23SSILL
 62
17
 10
766.809
 20
-2203.354
 30
2935.279
 70
    32
  0
VERTEX
  8
T23SSILL
 62
17
 10
775.082
 20
-2209.331
 30
2935.280
 70
    32
  0
VERTEX
  8
T23SSILL
 62
17
 10
770.083
 20
-2218.296
 30
2935.249
 70
    32
  0
VERTEX
  8
T23SSILL
 62
17
 10
754.765
 20
-2223.973
 30
2935.206
 70
    32
  0
VERTEX
  8
T23SSILL
 62
17
 10
752.880
 20
-2226.870
 30
2935.195
 70
    32
  0
VERTEX
  8
T23SSILL
 62
17
 10
753.618
 20
-2229.417
 30
2935.190
 70
    32
  0
VERTEX
  8
T23SSILL
 62
17
 10
781.269
 20
-2271.975
 30
2935.140
 70
    32
  0
VERTEX
  8
T23SSILL
 62
17
 10
783.932
 20
-2277.600
 30
2935.131
 70
    32
  0
VERTEX
  8
T23SSILL
 62
17
 10
785.865
 20
-2286.901
 30
2935.113
 70
    32
  0
VERTEX
  8
T23SSILL
 62
17
 10
788.129
 20
-2288.829
 30
2935.112
 70
    32
  0
VERTEX
  8
T23SSILL
 62
17
 10
823.371
 20
-2263.711
 30
2935.240
 70
    32
  0
VERTEX
  8
T23SSILL
 62
17
 10
826.792
 20
-2269.048
 30
2935.234
 70
    32
  0
VERTEX
  8
T23SSILL
 62
17
 10
785.651
 20
-2299.191
 30
2935.082
 70
    32
  0
VERTEX
  8
T23SSILL
 62
17
 10
787.283
 20
-2308.390
 30
2935.063
 70
    32
  0
VERTEX
  8
T23SSILL
 62
17
 10
761.429
 20
-2317.285
 30
2934.992
 70
    32
  0
VERTEX
  8
T23SSILL
 62
17
 10
693.958
 20
-2366.899
 30
2934.744
 70
    32
  0
VERTEX
  8
T23SSILL
 62
17
 10
691.740
 20
-2371.388
 30
2934.729
 70
    32
  0
VERTEX
  8
T23SSILL
 62
17
 10
700.072
 20
-2387.553
 30
2934.705
 70
    32
  0
VERTEX
  8
T23SSILL
 62
17
 10
691.781
 20
-2395.323
 30
2934.671
 70
    32
  0
VERTEX
  8
T23SSILL
 62
17
 10
708.667
 20
-2417.642
 30
2934.649
 70
    32
  0
VERTEX
  8
T23SSILL
 62
17
 10
712.462
 20
-2408.269
 30
2934.679
 70
    32
  0
VERTEX
  8
T23SSILL
 62
17
 10
722.023
 20
-2397.571
 30
2934.723
 70
    32
  0
VERTEX
  8
T23SSILL
 62
17
 10
753.546
 20
-2375.524
 30
2934.836
 70
    32
  0
VERTEX
  8
T23SSILL
 62
17
 10
751.336
 20
-2362.542
 30
2934.864
 70
    32
  0
VERTEX
  8
T23SSILL
 62
17
 10
763.182
 20
-2354.089
 30
2934.907
 70
    32
  0
VERTEX
  8
T23SSILL
 62
17
 10
773.072
 20
-2361.156
 30
2934.908
 70
    32
  0
VERTEX
  8
T23SSILL
 62
17
 10
828.678
 20
-2321.123
 30
2935.111
 70
    32
  0
VERTEX
  8
T23SSILL
 62
17
 10
832.754
 20
-2326.994
 30
2935.105
 70
    32
  0
VERTEX
  8
T23SSILL
 62
17
 10
769.305
 20
-2372.733
 30
2934.873
 70
    32
  0
VERTEX
  8
T23SSILL
 62
17
 10
769.657
 20
-2376.801
 30
2934.864
 70
    32
  0
VERTEX
  8
T23SSILL
 62
17
 10
768.459
 20
-2378.279
 30
2934.858
 70
    32
  0
VERTEX
  8
T23SSILL
 62
17
 10
763.173
 20
-2381.237
 30
2934.841
 70
    32
  0
VERTEX
  8
T23SSILL
 62
17
 10
760.545
 20
-2381.147
 30
2934.836
 70
    32
  0
VERTEX
  8
T23SSILL
 62
17
 10
757.645
 20
-2384.603
 30
2934.822
 70
    32
  0
VERTEX
  8
T23SSILL
 62
17
 10
754.018
 20
-2386.395
 30
2934.811
 70
    32
  0
VERTEX
  8
T23SSILL
 62
17
 10
752.378
 20
-2384.987
 30
2934.811
 70
    32
  0
VERTEX
  8
T23SSILL
 62
17
 10
723.107
 20
-2406.636
 30
2934.703
 70
    32
  0
VERTEX
  8
T23SSILL
 62
17
 10
718.533
 20
-2415.719
 30
2934.672
 70
    32
  0
VERTEX
  8
T23SSILL
 62
17
 10
718.030
 20
-2422.001
 30
2934.656
 70
    32
  0
VERTEX
  8
T23SSILL
 62
17
 10
721.785
 20
-2428.900
 30
2934.647
 70
    32
  0
VERTEX
  8
T23SSILL
 62
17
 10
723.324
 20
-2434.944
 30
2934.635
 70
    32
  0
VERTEX
  8
T23SSILL
 62
17
 10
722.539
 20
-2438.185
 30
2934.626
 70
    32
  0
VERTEX
  8
T23SSILL
 62
17
 10
729.771
 20
-2448.263
 30
2934.615
 70
    32
  0
VERTEX
  8
T23SSILL
 62
17
 10
735.307
 20
-2444.295
 30
2934.635
 70
    32
  0
VERTEX
  8
T23SSILL
 62
17
 10
732.972
 20
-2439.529
 30
2934.642
 70
    32
  0
VERTEX
  8
T23SSILL
 62
17
 10
734.560
 20
-2434.079
 30
2934.658
 70
    32
  0
VERTEX
  8
T23SSILL
 62
17
 10
740.857
 20
-2431.567
 30
2934.676
 70
    32
  0
VERTEX
  8
T23SSILL
 62
17
 10
748.989
 20
-2434.761
 30
2934.684
 70
    32
  0
VERTEX
  8
T23SSILL
 62
17
 10
779.679
 20
-2412.354
 30
2934.797
 70
    32
  0
VERTEX
  8
T23SSILL
 62
17
 10
775.491
 20
-2407.348
 30
2934.801
 70
    32
  0
VERTEX
  8
T23SSILL
 62
17
 10
786.454
 20
-2398.906
 30
2934.842
 70
    32
  0
VERTEX
  8
T23SSILL
 62
17
 10
790.632
 20
-2404.476
 30
2934.837
 70
    32
  0
VERTEX
  8
T23SSILL
 62
17
 10
855.277
 20
-2358.129
 30
2935.072
 70
    32
  0
VERTEX
  8
T23SSILL
 62
17
 10
859.565
 20
-2363.769
 30
2935.067
 70
    32
  0
VERTEX
  8
T23SSILL
 62
17
 10
796.750
 20
-2408.665
 30
2934.838
 70
    32
  0
VERTEX
  8
T23SSILL
 62
17
 10
804.191
 20
-2417.174
 30
2934.832
 70
    32
  0
VERTEX
  8
T23SSILL
 62
17
 10
804.468
 20
-2423.746
 30
2934.816
 70
    32
  0
VERTEX
  8
T23SSILL
 62
17
 10
812.147
 20
-2434.296
 30
2934.806
 70
    32
  0
VERTEX
  8
T23SSILL
 62
17
 10
810.460
 20
-2436.151
 30
2934.798
 70
    32
  0
VERTEX
  8
T23SSILL
 62
17
 10
814.016
 20
-2444.092
 30
2934.785
 70
    32
  0
VERTEX
  8
T23SSILL
 62
17
 10
831.030
 20
-2469.367
 30
2934.756
 70
    32
  0
VERTEX
  8
T23SSILL
 62
17
 10
823.783
 20
-2474.836
 30
2934.729
 70
    32
  0
VERTEX
  8
T23SSILL
 62
17
 10
808.613
 20
-2450.365
 30
2934.760
 70
    32
  0
VERTEX
  8
T23SSILL
 62
17
 10
778.302
 20
-2421.979
 30
2934.771
 70
    32
  0
VERTEX
  8
T23SSILL
 62
17
 10
741.381
 20
-2449.295
 30
2934.634
 70
    32
  0
VERTEX
  8
T23SSILL
 62
17
 10
751.630
 20
-2451.192
 30
2934.649
 70
    32
  0
VERTEX
  8
T23SSILL
 62
17
 10
759.463
 20
-2458.620
 30
2934.646
 70
    32
  0
VERTEX
  8
T23SSILL
 62
17
 10
761.233
 20
-2463.375
 30
2934.638
 70
    32
  0
VERTEX
  8
T23SSILL
 62
17
 10
763.691
 20
-2479.700
 30
2934.603
 70
    32
  0
VERTEX
  8
T23SSILL
 62
17
 10
768.471
 20
-2486.796
 30
2934.595
 70
    32
  0
VERTEX
  8
T23SSILL
 62
17
 10
768.003
 20
-2495.427
 30
2934.573
 70
    32
  0
VERTEX
  8
T23SSILL
 62
17
 10
765.965
 20
-2498.701
 30
2934.562
 70
    32
  0
VERTEX
  8
T23SSILL
 62
17
 10
796.892
 20
-2541.799
 30
2934.475
 70
    32
  0
VERTEX
  8
T23SSILL
 62
17
 10
802.394
 20
-2544.884
 30
2934.466
 70
    32
  0
VERTEX
  8
T23SSILL
 62
17
 10
803.791
 20
-2548.584
 30
2934.462
 70
    32
  0
VERTEX
  8
T23SSILL
 62
17
 10
805.512
 20
-2549.815
 30
2934.459
 70
    32
  0
VERTEX
  8
T23SSILL
 62
17
 10
811.397
 20
-2548.517
 30
2934.453
 70
    32
  0
VERTEX
  8
T23SSILL
 62
17
 10
829.327
 20
-2537.754
 30
2934.443
 70
    32
  0
VERTEX
  8
T23SSILL
 62
17
 10
834.572
 20
-2527.958
 30
2934.446
 70
    32
  0
VERTEX
  8
T23SSILL
 62
17
 10
837.808
 20
-2524.366
 30
2934.445
 70
    32
  0
VERTEX
  8
T23SSILL
 62
17
 10
844.963
 20
-2520.096
 30
2934.441
 70
    32
  0
VERTEX
  8
T23SSILL
 62
17
 10
848.684
 20
-2519.016
 30
2934.439
 70
    32
  0
VERTEX
  8
T23SSILL
 62
17
 10
853.508
 20
-2520.530
 30
2934.432
 70
    32
  0
VERTEX
  8
T23SSILL
 62
17
 10
857.351
 20
-2525.682
 30
2934.423
 70
    32
  0
VERTEX
  8
T23SSILL
 62
17
 10
859.295
 20
-2534.289
 30
2934.414
 70
    32
  0
VERTEX
  8
T23SSILL
 62
17
 10
856.977
 20
-2542.837
 30
2934.409
 70
    32
  0
VERTEX
  8
T23SSILL
 62
17
 10
853.027
 20
-2547.089
 30
2934.410
 70
    32
  0
VERTEX
  8
T23SSILL
 62
17
 10
848.531
 20
-2549.763
 30
2934.412
 70
    32
  0
VERTEX
  8
T23SSILL
 62
17
 10
840.733
 20
-2543.650
 30
2934.426
 70
    32
  0
VERTEX
  8
T23SSILL
 62
17
 10
838.118
 20
-2544.436
 30
2934.428
 70
    32
  0
VERTEX
  8
T23SSILL
 62
17
 10
822.602
 20
-2555.455
 30
2934.435
 70
    32
  0
VERTEX
  8
T23SSILL
 62
17
 10
822.583
 20
-2558.466
 30
2934.433
 70
    32
  0
VERTEX
  8
T23SSILL
 62
17
 10
828.116
 20
-2568.425
 30
2934.418
 70
    32
  0
VERTEX
  8
T23SSILL
 62
17
 10
831.090
 20
-2568.251
 30
2934.415
 70
    32
  0
VERTEX
  8
T23SSILL
 62
17
 10
832.882
 20
-2569.429
 30
2934.412
 70
    32
  0
VERTEX
  8
T23SSILL
 62
17
 10
835.602
 20
-2574.998
 30
2934.405
 70
    32
  0
VERTEX
  8
T23SSILL
 62
17
 10
843.452
 20
-2582.624
 30
2934.390
 70
    32
  0
VERTEX
  8
T23SSILL
 62
17
 10
843.636
 20
-2586.479
 30
2934.386
 70
    32
  0
VERTEX
  8
T23SSILL
 62
17
 10
845.757
 20
-2590.400
 30
2934.381
 70
    32
  0
VERTEX
  8
T23SSILL
 62
17
 10
855.218
 20
-2597.233
 30
2934.365
 70
    32
  0
VERTEX
  8
T23SSILL
 62
17
 10
854.825
 20
-2603.084
 30
2934.360
 70
    32
  0
VERTEX
  8
T23SSILL
 62
17
 10
845.103
 20
-2608.982
 30
2934.365
 70
    32
  0
VERTEX
  8
T23SSILL
 62
17
 10
1006.091
 20
-2833.325
 30
2934.067
 70
    32
  0
VERTEX
  8
T23SSILL
 62
17
 10
1018.837
 20
-2824.908
 30
2934.056
 70
    32
  0
VERTEX
  8
T23SSILL
 62
17
 10
1024.594
 20
-2831.254
 30
2934.056
 70
    32
  0
VERTEX
  8
T23SSILL
 62
17
 10
1011.268
 20
-2840.540
 30
2934.068
 70
    32
  0
VERTEX
  8
T23SSILL
 62
17
 10
1065.528
 20
-2916.154
 30
2934.081
 70
    32
  0
VERTEX
  8
T23SSILL
 62
17
 10
1076.180
 20
-2924.505
 30
2934.080
 70
    32
  0
VERTEX
  8
T23SSILL
 62
17
 10
1081.328
 20
-2928.323
 30
2934.079
 70
    32
  0
VERTEX
  8
T23SSILL
 62
17
 10
1089.982
 20
-2932.224
 30
2934.077
 70
    32
  0
VERTEX
  8
T23SSILL
 62
17
 10
1108.321
 20
-2936.602
 30
2934.069
 70
    32
  0
VERTEX
  8
T23SSILL
 62
17
 10
1188.909
 20
-2938.845
 30
2934.027
 70
    32
  0
VERTEX
  8
T23SSILL
 62
17
 10
1095.927
 20
-2811.856
 30
2934.004
 70
    32
  0
VERTEX
  8
T23SSILL
 62
17
 10
1102.833
 20
-2808.125
 30
2933.993
 70
    32
  0
VERTEX
  8
T23SSILL
 62
17
 10
1193.031
 20
-2930.717
 30
2934.020
 70
    32
  0
VERTEX
  8
T23SSILL
 62
17
 10
1209.562
 20
-2939.420
 30
2934.016
 70
    32
  0
VERTEX
  8
T23SSILL
 62
17
 10
1512.413
 20
-2947.356
 30
2933.858
 70
    32
  0
VERTEX
  8
T23SSILL
 62
17
 10
1533.355
 20
-2942.494
 30
2933.838
 70
    32
  0
VERTEX
  8
T23SSILL
 62
17
 10
1808.049
 20
-2745.182
 30
2933.344
 70
    32
  0
VERTEX
  8
T23SSILL
 62
17
 10
1810.545
 20
-2739.611
 30
2933.333
 70
    32
  0
VERTEX
  8
T23SSILL
 62
17
 10
1844.440
 20
-2714.088
 30
2933.271
 70
    32
  0
VERTEX
  8
T23SSILL
 62
17
 10
1836.492
 20
-2702.990
 30
2933.261
 70
    32
  0
VERTEX
  8
T23SSILL
 62
17
 10
1841.644
 20
-2698.976
 30
2933.252
 70
    32
  0
VERTEX
  8
T23SSILL
 62
17
 10
1849.420
 20
-2710.428
 30
2933.262
 70
    32
  0
VERTEX
  8
T23SSILL
 62
17
 10
1857.717
 20
-2704.006
 30
2933.246
 70
    32
  0
VERTEX
  8
T23SSILL
 62
17
 10
1866.464
 20
-2689.920
 30
2933.219
 70
    32
  0
VERTEX
  8
T23SSILL
 62
17
 10
1933.874
 20
-2636.239
 30
2933.659
 70
    32
  0
VERTEX
  8
T23SSILL
 62
17
 10
1939.574
 20
-2634.156
 30
2933.686
 70
    32
  0
VERTEX
  8
T23SSILL
 62
17
 10
1947.964
 20
-2628.172
 30
2933.761
 70
    32
  0
VERTEX
  8
T23SSILL
 62
17
 10
1953.079
 20
-2620.462
 30
2933.854
 70
    32
  0
VERTEX
  8
T23SSILL
 62
17
 10
1957.286
 20
-2610.119
 30
2933.978
 70
    32
  0
VERTEX
  8
T23SSILL
 62
17
 10
1991.100
 20
-2585.302
 30
2934.287
 70
    32
  0
VERTEX
  8
T23SSILL
 62
17
 10
1933.935
 20
-2512.911
 30
2935.104
 70
    32
  0
VERTEX
  8
T23SSILL
 62
17
 10
1914.109
 20
-2528.254
 30
2934.913
 70
    32
  0
VERTEX
  8
T23SSILL
 62
17
 10
1891.820
 20
-2500.665
 30
2935.224
 70
    32
  0
VERTEX
  8
T23SSILL
 62
17
 10
1911.290
 20
-2484.973
 30
2935.419
 70
    32
  0
VERTEX
  8
T23SSILL
 62
17
 10
1843.885
 20
-2399.113
 30
2936.388
 70
    32
  0
VERTEX
  8
T23SSILL
 62
17
 10
1849.272
 20
-2394.667
 30
2936.443
 70
    32
  0
VERTEX
  8
T23SSILL
 62
17
 10
1997.222
 20
-2581.366
 30
2934.336
 70
    32
  0
VERTEX
  8
T23SSILL
 62
17
 10
2096.934
 20
-2510.102
 30
2935.226
 70
    32
  0
VERTEX
  8
T23SSILL
 62
17
 10
2097.596
 20
-2505.958
 30
2935.275
 70
    32
  0
VERTEX
  8
T23SSILL
 62
17
 10
2115.162
 20
-2493.454
 30
2935.431
 70
    32
  0
VERTEX
  8
T23SSILL
 62
17
 10
2122.920
 20
-2503.234
 30
2935.321
 70
    32
  0
VERTEX
  8
T23SSILL
 62
17
 10
2105.267
 20
-2515.826
 30
2935.164
 70
    32
  0
VERTEX
  8
T23SSILL
 62
17
 10
2101.475
 20
-2515.161
 30
2935.169
 70
    32
  0
VERTEX
  8
T23SSILL
 62
17
 10
2000.543
 20
-2587.671
 30
2934.264
 70
    32
  0
VERTEX
  8
T23SSILL
 62
17
 10
2010.095
 20
-2669.615
 30
2933.644
 70
    32
  0
VERTEX
  8
T23SSILL
 62
17
 10
2048.998
 20
-2729.429
 30
2933.722
 70
    32
  0
VERTEX
  8
T23SSILL
 62
17
 10
2052.668
 20
-2726.839
 30
2933.734
 70
    32
  0
VERTEX
  8
T23SSILL
 62
17
 10
2056.878
 20
-2733.926
 30
2933.748
 70
    32
  0
VERTEX
  8
T23SSILL
 62
17
 10
2053.292
 20
-2736.164
 30
2933.736
 70
    32
  0
VERTEX
  8
T23SSILL
 62
17
 10
2117.508
 20
-2835.244
 30
2933.950
 70
    32
  0
VERTEX
  8
T23SSILL
 62
17
 10
2119.796
 20
-2835.220
 30
2933.957
 70
    32
  0
VERTEX
  8
T23SSILL
 62
17
 10
2120.311
 20
-2833.895
 30
2933.959
 70
    32
  0
VERTEX
  8
T23SSILL
 62
17
 10
2123.674
 20
-2818.455
 30
2933.972
 70
    32
  0
VERTEX
  8
T23SSILL
 62
17
 10
2122.860
 20
-2816.263
 30
2933.969
 70
    32
  0
VERTEX
  8
T23SSILL
 62
17
 10
2120.030
 20
-2814.972
 30
2933.959
 70
    32
  0
VERTEX
  8
T23SSILL
 62
17
 10
2122.715
 20
-2802.092
 30
2933.969
 70
    32
  0
VERTEX
  8
T23SSILL
 62
17
 10
2123.324
 20
-2801.382
 30
2933.971
 70
    32
  0
VERTEX
  8
T23SSILL
 62
17
 10
2139.026
 20
-2804.566
 30
2934.025
 70
    32
  0
VERTEX
  8
T23SSILL
 62
17
 10
2136.097
 20
-2819.473
 30
2934.014
 70
    32
  0
VERTEX
  8
T23SSILL
 62
17
 10
2131.607
 20
-2819.431
 30
2933.999
 70
    32
  0
VERTEX
  8
T23SSILL
 62
17
 10
2130.825
 20
-2820.407
 30
2933.996
 70
    32
  0
VERTEX
  8
T23SSILL
 62
17
 10
2125.666
 20
-2841.058
 30
2933.977
 70
    32
  0
VERTEX
  8
T23SSILL
 62
17
 10
2126.346
 20
-2847.301
 30
2933.979
 70
    32
  0
VERTEX
  8
T23SSILL
 62
17
 10
2152.367
 20
-2887.000
 30
2934.066
 70
    32
  0
VERTEX
  8
T23SSILL
 62
17
 10
2161.285
 20
-2881.012
 30
2934.097
 70
    32
  0
VERTEX
  8
T23SSILL
 62
17
 10
2164.245
 20
-2886.439
 30
2934.106
 70
    32
  0
VERTEX
  8
T23SSILL
 62
17
 10
2155.592
 20
-2892.425
 30
2934.077
 70
    32
  0
VERTEX
  8
T23SSILL
 62
17
 10
2161.434
 20
-2901.416
 30
2934.096
 70
    32
  0
VERTEX
  8
T23SSILL
 62
17
 10
2166.881
 20
-2905.532
 30
2934.114
 70
    32
  0
VERTEX
  8
T23SSILL
 62
17
 10
2171.986
 20
-2917.144
 30
2934.131
 70
    32
  0
VERTEX
  8
T23SSILL
 62
17
 10
2205.197
 20
-2967.662
 30
2934.242
 70
    32
  0
VERTEX
  8
T23SSILL
 62
17
 10
2208.791
 20
-2962.963
 30
2934.254
 70
    32
  0
VERTEX
  8
T23SSILL
 62
17
 10
2225.723
 20
-2978.366
 30
2934.311
 70
    32
  0
VERTEX
  8
T23SSILL
 62
17
 10
2217.498
 20
-2986.516
 30
2934.283
 70
    32
  0
VERTEX
  8
T23SSILL
 62
17
 10
2324.301
 20
-3150.001
 30
2934.638
 70
    32
  0
VERTEX
  8
T23SSILL
 62
17
 10
2339.299
 20
-3139.577
 30
2934.690
 70
    32
  0
VERTEX
  8
T23SSILL
 62
17
 10
2336.150
 20
-3134.379
 30
2934.679
 70
    32
  0
VERTEX
  8
T23SSILL
 62
17
 10
2363.201
 20
-3120.565
 30
2934.772
 70
    32
  0
VERTEX
  8
T23SSILL
 62
17
 10
2369.217
 20
-3128.967
 30
2934.793
 70
    32
  0
VERTEX
  8
T23SSILL
 62
17
 10
2347.565
 20
-3151.352
 30
2934.718
 70
    32
  0
VERTEX
  8
T23SSILL
 62
17
 10
2344.111
 20
-3145.310
 30
2934.706
 70
    32
  0
VERTEX
  8
T23SSILL
 62
17
 10
2328.207
 20
-3155.769
 30
2934.651
 70
    32
  0
VERTEX
  8
T23SSILL
 62
17
 10
2436.245
 20
-3319.309
 30
2935.013
 70
    32
  0
VERTEX
  8
T23SSILL
 62
17
 10
2612.952
 20
-3192.894
 30
2935.620
 70
    32
  0
VERTEX
  8
T23SSILL
 62
17
 10
2617.116
 20
-3198.918
 30
2935.634
 70
    32
  0
VERTEX
  8
T23SSILL
 62
17
 10
2614.421
 20
-3200.757
 30
2935.625
 70
    32
  0
VERTEX
  8
T23SSILL
 62
17
 10
2668.592
 20
-3277.595
 30
2935.806
 70
    32
  0
VERTEX
  8
T23SSILL
 62
17
 10
3562.276
 20
-2635.252
 30
2939.239
 70
    32
  0
VERTEX
  8
T23SSILL
 62
17
 10
3539.304
 20
-2600.055
 30
2939.491
 70
    32
  0
VERTEX
  8
T23SSILL
 62
17
 10
3523.575
 20
-2587.859
 30
2939.566
 70
    32
  0
VERTEX
  8
T23SSILL
 62
17
 10
3502.788
 20
-2576.152
 30
2939.586
 70
    32
  0
VERTEX
  8
T23SSILL
 62
17
 10
3506.881
 20
-2569.142
 30
2939.620
 70
    32
  0
VERTEX
  8
T23SSILL
 62
17
 10
3521.445
 20
-2577.205
 30
2939.644
 70
    32
  0
VERTEX
  8
T23SSILL
 62
17
 10
3522.770
 20
-2572.593
 30
2939.673
 70
    32
  0
VERTEX
  8
T23SSILL
 62
17
 10
3516.896
 20
-2551.852
 30
2939.695
 70
    32
  0
VERTEX
  8
T23SSILL
 62
17
 10
3516.996
 20
-2149.002
 30
2940.566
 70
    32
  0
VERTEX
  8
T23SSILL
 62
17
 10
3524.644
 20
-2149.002
 30
2940.595
 70
    32
  0
VERTEX
  8
T23SSILL
 62
17
 10
3524.185
 20
-2554.025
 30
2939.719
 70
    32
  0
VERTEX
  8
T23SSILL
 62
17
 10
3529.999
 20
-2578.407
 30
2939.654
 70
    32
  0
VERTEX
  8
T23SSILL
 62
17
 10
3538.436
 20
-2591.314
 30
2939.561
 70
    32
  0
VERTEX
  8
T23SSILL
 62
17
 10
3546.895
 20
-2598.648
 30
2939.517
 70
    32
  0
VERTEX
  8
T23SSILL
 62
17
 10
3554.655
 20
-2608.568
 30
2939.449
 70
    32
  0
VERTEX
  8
T23SSILL
 62
17
 10
3568.829
 20
-2631.282
 30
2939.284
 70
    32
  0
VERTEX
  8
T23SSILL
 62
17
 10
3684.387
 20
-2547.886
 30
2940.198
 70
    32
  0
VERTEX
  8
T23SSILL
 62
17
 10
3770.329
 20
-2483.859
 30
2940.590
 70
    32
  0
VERTEX
  8
T23SSILL
 62
17
 10
3826.122
 20
-2517.235
 30
2940.676
 70
    32
  0
VERTEX
  8
T23SSILL
 62
17
 10
3939.371
 20
-2581.446
 30
2940.846
 70
    32
  0
VERTEX
  8
T23SSILL
 62
17
 10
3970.113
 20
-2556.977
 30
2940.980
 70
    32
  0
VERTEX
  8
T23SSILL
 62
17
 10
3958.360
 20
-2542.489
 30
2940.999
 70
    32
  0
VERTEX
  8
T23SSILL
 62
17
 10
3988.655
 20
-2519.604
 30
2941.018
 70
    32
  0
VERTEX
  8
T23SSILL
 62
17
 10
3997.958
 20
-2529.591
 30
2941.010
 70
    32
  0
VERTEX
  8
T23SSILL
 62
17
 10
3987.888
 20
-2537.484
 30
2941.012
 70
    32
  0
VERTEX
  8
T23SSILL
 62
17
 10
3998.060
 20
-2550.557
 30
2941.003
 70
    32
  0
VERTEX
  8
T23SSILL
 62
17
 10
3983.664
 20
-2561.077
 30
2940.991
 70
    32
  0
VERTEX
  8
T23SSILL
 62
17
 10
3977.314
 20
-2563.345
 30
2940.972
 70
    32
  0
VERTEX
  8
T23SSILL
 62
17
 10
3948.077
 20
-2585.705
 30
2940.847
 70
    32
  0
VERTEX
  8
T23SSILL
 62
17
 10
4116.477
 20
-2683.695
 30
2940.822
 70
    32
  0
VERTEX
  8
T23SSILL
 62
17
 10
4113.058
 20
-2690.000
 30
2940.795
 70
    32
  0
VERTEX
  8
T23SSILL
 62
17
 10
3943.916
 20
-2591.592
 30
2940.820
 70
    32
  0
VERTEX
  8
T23SSILL
 62
17
 10
3942.322
 20
-2593.965
 30
2940.810
 70
    32
  0
VERTEX
  8
T23SSILL
 62
17
 10
3927.028
 20
-2584.398
 30
2940.814
 70
    32
  0
VERTEX
  8
T23SSILL
 62
17
 10
3920.024
 20
-2597.234
 30
2940.760
 70
    32
  0
VERTEX
  8
T23SSILL
 62
17
 10
3912.111
 20
-2592.802
 30
2940.760
 70
    32
  0
VERTEX
  8
T23SSILL
 62
17
 10
3919.379
 20
-2580.142
 30
2940.815
 70
    32
  0
VERTEX
  8
T23SSILL
 62
17
 10
3841.310
 20
-2536.174
 30
2940.678
 70
    32
  0
VERTEX
  8
T23SSILL
 62
17
 10
3839.827
 20
-2532.205
 30
2940.682
 70
    32
  0
VERTEX
  8
T23SSILL
 62
17
 10
3821.538
 20
-2522.673
 30
2940.651
 70
    32
  0
VERTEX
  8
T23SSILL
 62
17
 10
3772.217
 20
-2493.054
 30
2940.575
 70
    32
  0
VERTEX
  8
T23SSILL
 62
17
 10
3575.024
 20
-2635.560
 30
2939.278
 70
    32
  0
VERTEX
  8
T23SSILL
 62
17
 10
3605.859
 20
-2676.598
 30
2939.485
 70
    32
  0
VERTEX
  8
T23SSILL
 62
17
 10
3607.010
 20
-2719.456
 30
2939.553
 70
    32
  0
VERTEX
  8
T23SSILL
 62
17
 10
3601.832
 20
-2744.730
 30
2939.564
 70
    32
  0
VERTEX
  8
T23SSILL
 62
17
 10
3594.624
 20
-2768.352
 30
2939.563
 70
    32
  0
VERTEX
  8
T23SSILL
 62
17
 10
3586.862
 20
-2765.229
 30
2939.521
 70
    32
  0
VERTEX
  8
T23SSILL
 62
17
 10
3598.559
 20
-2720.972
 30
2939.514
 70
    32
  0
VERTEX
  8
T23SSILL
 62
17
 10
3599.620
 20
-2686.865
 30
2939.470
 70
    32
  0
VERTEX
  8
T23SSILL
 62
17
 10
3597.303
 20
-2678.281
 30
2939.447
 70
    32
  0
VERTEX
  8
T23SSILL
 62
17
 10
3593.739
 20
-2671.379
 30
2939.419
 70
    32
  0
VERTEX
  8
T23SSILL
 62
17
 10
3568.848
 20
-2639.302
 30
2939.252
 70
    32
  0
VERTEX
  8
T23SSILL
 62
17
 10
3488.552
 20
-2697.113
 30
2938.654
 70
    32
  0
VERTEX
  8
T23SSILL
 62
17
 10
3562.971
 20
-2800.914
 30
2939.457
 70
    32
  0
VERTEX
  8
T23SSILL
 62
17
 10
3561.726
 20
-3091.188
 30
2939.012
 70
    32
  0
VERTEX
  8
T23SSILL
 62
17
 10
3554.130
 20
-3091.188
 30
2938.996
 70
    32
  0
VERTEX
  8
T23SSILL
 62
17
 10
3554.475
 20
-2802.355
 30
2939.405
 70
    32
  0
VERTEX
  8
T23SSILL
 62
17
 10
3483.391
 20
-2701.681
 30
2938.621
 70
    32
  0
VERTEX
  8
T23SSILL
 62
17
 10
2495.598
 20
-3410.307
 30
2935.238
 70
    32
  0
VERTEX
  8
T23SSILL
 62
17
 10
2546.531
 20
-3489.107
 30
2935.433
 70
    32
  0
VERTEX
  8
T23SSILL
 62
17
 10
2565.247
 20
-3475.812
 30
2935.451
 70
    32
  0
VERTEX
  8
T23SSILL
 62
17
 10
2562.983
 20
-3472.756
 30
2935.443
 70
    32
  0
VERTEX
  8
T23SSILL
 62
17
 10
2581.426
 20
-3459.009
 30
2935.499
 70
    32
  0
VERTEX
  8
T23SSILL
 62
17
 10
2590.543
 20
-3472.018
 30
2935.529
 70
    32
  0
VERTEX
  8
T23SSILL
 62
17
 10
2571.181
 20
-3486.117
 30
2935.475
 70
    32
  0
VERTEX
  8
T23SSILL
 62
17
 10
2569.308
 20
-3482.516
 30
2935.467
 70
    32
  0
VERTEX
  8
T23SSILL
 62
17
 10
2550.848
 20
-3495.553
 30
2935.449
 70
    32
  0
VERTEX
  8
T23SSILL
 62
17
 10
2727.213
 20
-3766.848
 30
2936.120
 70
    32
  0
VERTEX
  8
T23SSILL
 62
17
 10
2739.073
 20
-3759.628
 30
2936.133
 70
    32
  0
VERTEX
  8
T23SSILL
 62
17
 10
2742.389
 20
-3753.759
 30
2936.132
 70
    32
  0
VERTEX
  8
T23SSILL
 62
17
 10
2749.307
 20
-3748.804
 30
2936.139
 70
    32
  0
VERTEX
  8
T23SSILL
 62
17
 10
2750.789
 20
-3750.404
 30
2936.143
 70
    32
  0
VERTEX
  8
T23SSILL
 62
17
 10
2752.200
 20
-3750.241
 30
2936.146
 70
    32
  0
VERTEX
  8
T23SSILL
 62
17
 10
2845.945
 20
-3683.318
 30
2936.389
 70
    32
  0
VERTEX
  8
T23SSILL
 62
17
 10
2847.081
 20
-3684.298
 30
2936.393
 70
    32
  0
VERTEX
  8
T23SSILL
 62
17
 10
2895.519
 20
-3620.903
 30
2936.561
 70
    32
  0
VERTEX
  8
T23SSILL
 62
17
 10
2890.198
 20
-3606.230
 30
2936.544
 70
    32
  0
VERTEX
  8
T23SSILL
 62
17
 10
2906.192
 20
-3600.923
 30
2936.599
 70
    32
  0
VERTEX
  8
T23SSILL
 62
17
 10
2907.897
 20
-3597.680
 30
2936.605
 70
    32
  0
VERTEX
  8
T23SSILL
 62
17
 10
2912.506
 20
-3594.641
 30
2936.621
 70
    32
  0
VERTEX
  8
T23SSILL
 62
17
 10
2915.587
 20
-3594.847
 30
2936.631
 70
    32
  0
VERTEX
  8
T23SSILL
 62
17
 10
3009.001
 20
-3470.755
 30
2936.956
 70
    32
  0
VERTEX
  8
T23SSILL
 62
17
 10
2987.837
 20
-3454.961
 30
2936.885
 70
    32
  0
VERTEX
  8
T23SSILL
 62
17
 10
2993.547
 20
-3447.353
 30
2936.905
 70
    32
  0
VERTEX
  8
T23SSILL
 62
17
 10
3013.906
 20
-3464.460
 30
2936.973
 70
    32
  0
VERTEX
  8
T23SSILL
 62
17
 10
3025.420
 20
-3448.716
 30
2937.013
 70
    32
  0
VERTEX
  8
T23SSILL
 62
17
 10
3025.827
 20
-3461.316
 30
2937.014
 70
    32
  0
VERTEX
  8
T23SSILL
 62
17
 10
2851.686
 20
-3690.948
 30
2936.408
 70
    32
  0
VERTEX
  8
T23SSILL
 62
17
 10
2859.611
 20
-3700.361
 30
2936.435
 70
    32
  0
VERTEX
  8
T23SSILL
 62
17
 10
2852.595
 20
-3706.283
 30
2936.410
 70
    32
  0
VERTEX
  8
T23SSILL
 62
17
 10
2843.469
 20
-3693.512
 30
2936.380
 70
    32
  0
VERTEX
  8
T23SSILL
 62
17
 10
2774.018
 20
-3743.845
 30
2936.178
 70
    32
  0
VERTEX
  8
T23SSILL
 62
17
 10
2774.679
 20
-3748.343
 30
2936.185
 70
    32
  0
VERTEX
  8
T23SSILL
 62
17
 10
2807.151
 20
-3760.722
 30
2936.261
 70
    32
  0
VERTEX
  8
T23SSILL
 62
17
 10
2836.134
 20
-3769.456
 30
2936.351
 70
    32
  0
VERTEX
  8
T23SSILL
 62
17
 10
2848.245
 20
-3764.904
 30
2936.393
 70
    32
  0
VERTEX
  8
T23SSILL
 62
17
 10
2866.397
 20
-3764.198
 30
2936.454
 70
    32
  0
VERTEX
  8
T23SSILL
 62
17
 10
2869.293
 20
-3765.283
 30
2936.464
 70
    32
  0
VERTEX
  8
T23SSILL
 62
17
 10
2871.208
 20
-3767.679
 30
2936.471
 70
    32
  0
VERTEX
  8
T23SSILL
 62
17
 10
2871.469
 20
-3777.195
 30
2936.471
 70
    32
  0
VERTEX
  8
T23SSILL
 62
17
 10
2866.287
 20
-3784.808
 30
2936.453
 70
    32
  0
VERTEX
  8
T23SSILL
 62
17
 10
2884.589
 20
-3814.315
 30
2936.517
 70
    32
  0
VERTEX
  8
T23SSILL
 62
17
 10
2797.068
 20
-3875.133
 30
2936.376
 70
    32
  0
VERTEX
  8
T23SSILL
 62
17
 10
3225.929
 20
-4532.005
 30
2938.144
 70
    32
  0
VERTEX
  8
T23SSILL
 62
17
 10
3326.689
 20
-4912.828
 30
2938.716
 70
    32
  0
VERTEX
  8
T23SSILL
 62
17
 10
3400.234
 20
-5182.704
 30
2939.141
 70
    32
  0
VERTEX
  8
T23SSILL
 62
17
 10
3402.685
 20
-5185.097
 30
2939.151
 70
    32
  0
VERTEX
  8
T23SSILL
 62
17
 10
3407.384
 20
-5186.012
 30
2939.167
 70
    32
  0
VERTEX
  8
T23SSILL
 62
17
 10
3461.027
 20
-5188.175
 30
2939.349
 70
    32
  0
VERTEX
  8
T23SSILL
 62
17
 10
3461.848
 20
-5186.211
 30
2939.350
 70
    32
  0
VERTEX
  8
T23SSILL
 62
17
 10
3479.672
 20
-5183.542
 30
2939.409
 70
    32
  0
VERTEX
  8
T23SSILL
 62
17
 10
3491.019
 20
-5189.204
 30
2939.423
 70
    32
  0
VERTEX
  8
T23SSILL
 62
17
 10
3496.620
 20
-5186.955
 30
2939.426
 70
    32
  0
VERTEX
  8
T23SSILL
 62
17
 10
3496.042
 20
-5210.422
 30
2939.386
 70
    32
  0
VERTEX
  8
T23SSILL
 62
17
 10
3470.709
 20
-5211.057
 30
2939.333
 70
    32
  0
VERTEX
  8
T23SSILL
 62
17
 10
3465.955
 20
-5205.385
 30
2939.340
 70
    32
  0
VERTEX
  8
T23SSILL
 62
17
 10
3437.811
 20
-5215.932
 30
2939.252
 70
    32
  0
VERTEX
  8
T23SSILL
 62
17
 10
3435.797
 20
-5210.529
 30
2939.264
 70
    32
  0
VERTEX
  8
T23SSILL
 62
17
 10
3461.979
 20
-5199.249
 30
2939.350
 70
    32
  0
VERTEX
  8
T23SSILL
 62
17
 10
3459.482
 20
-5195.359
 30
2939.349
 70
    32
  0
VERTEX
  8
T23SSILL
 62
17
 10
3406.546
 20
-5193.263
 30
2939.169
 70
    32
  0
VERTEX
  8
T23SSILL
 62
17
 10
3395.682
 20
-5195.355
 30
2939.134
 70
    32
  0
VERTEX
  8
T23SSILL
 62
17
 10
3272.078
 20
-4736.040
 30
2938.416
 70
    32
  0
VERTEX
  8
T23SSILL
 62
17
 10
3255.907
 20
-4746.825
 30
2938.369
 70
    32
  0
VERTEX
  8
T23SSILL
 62
17
 10
3259.389
 20
-4752.686
 30
2938.384
 70
    32
  0
VERTEX
  8
T23SSILL
 62
17
 10
3236.872
 20
-4761.857
 30
2938.315
 70
    32
  0
VERTEX
  8
T23SSILL
 62
17
 10
3231.166
 20
-4753.115
 30
2938.290
 70
    32
  0
VERTEX
  8
T23SSILL
 62
17
 10
3247.712
 20
-4735.115
 30
2938.334
 70
    32
  0
VERTEX
  8
T23SSILL
 62
17
 10
3251.634
 20
-4740.972
 30
2938.351
 70
    32
  0
VERTEX
  8
T23SSILL
 62
17
 10
3269.984
 20
-4728.057
 30
2938.404
 70
    32
  0
VERTEX
  8
T23SSILL
 62
17
 10
3218.563
 20
-4534.269
 30
2938.117
 70
    32
  0
VERTEX
  8
T23SSILL
 62
17
 10
2992.184
 20
-4187.372
 30
2937.114
 70
    32
  0
VERTEX
  8
T23SSILL
 62
17
 10
2989.975
 20
-4186.249
 30
2937.106
 70
    32
  0
VERTEX
  8
T23SSILL
 62
17
 10
2988.750
 20
-4186.875
 30
2937.102
 70
    32
  0
VERTEX
  8
T23SSILL
 62
17
 10
2973.814
 20
-4198.177
 30
2937.067
 70
    32
  0
VERTEX
  8
T23SSILL
 62
17
 10
2975.293
 20
-4206.166
 30
2937.079
 70
    32
  0
VERTEX
  8
T23SSILL
 62
17
 10
2974.699
 20
-4208.634
 30
2937.080
 70
    32
  0
VERTEX
  8
T23SSILL
 62
17
 10
2956.812
 20
-4214.422
 30
2937.049
 70
    32
  0
VERTEX
  8
T23SSILL
 62
17
 10
2950.262
 20
-4209.644
 30
2937.031
 70
    32
  0
VERTEX
  8
T23SSILL
 62
17
 10
2945.110
 20
-4203.887
 30
2937.014
 70
    32
  0
VERTEX
  8
T23SSILL
 62
17
 10
2944.378
 20
-4190.879
 30
2936.999
 70
    32
  0
VERTEX
  8
T23SSILL
 62
17
 10
2948.064
 20
-4190.054
 30
2937.005
 70
    32
  0
VERTEX
  8
T23SSILL
 62
17
 10
2954.616
 20
-4195.008
 30
2937.024
 70
    32
  0
VERTEX
  8
T23SSILL
 62
17
 10
2957.332
 20
-4193.928
 30
2937.029
 70
    32
  0
VERTEX
  8
T23SSILL
 62
17
 10
2966.051
 20
-4185.584
 30
2937.038
 70
    32
  0
VERTEX
  8
T23SSILL
 62
17
 10
2969.347
 20
-4190.303
 30
2937.050
 70
    32
  0
VERTEX
  8
T23SSILL
 62
17
 10
2971.544
 20
-4190.195
 30
2937.054
 70
    32
  0
VERTEX
  8
T23SSILL
 62
17
 10
2981.674
 20
-4182.278
 30
2937.075
 70
    32
  0
VERTEX
  8
T23SSILL
 62
17
 10
2983.223
 20
-4178.571
 30
2937.078
 70
    32
  0
VERTEX
  8
T23SSILL
 62
17
 10
2983.096
 20
-4174.176
 30
2937.075
 70
    32
  0
VERTEX
  8
T23SSILL
 62
17
 10
2852.021
 20
-3972.397
 30
2936.578
 70
    32
  0
VERTEX
  8
T23SSILL
 62
17
 10
2836.111
 20
-3982.916
 30
2936.557
 70
    32
  0
VERTEX
  8
T23SSILL
 62
17
 10
2831.919
 20
-3976.358
 30
2936.541
 70
    32
  0
VERTEX
  8
T23SSILL
 62
17
 10
2848.265
 20
-3965.395
 30
2936.563
 70
    32
  0
VERTEX
  8
T23SSILL
 62
17
 10
2824.754
 20
-3930.771
 30
2936.478
 70
    32
  0
VERTEX
  8
T23SSILL
 62
17
 10
2802.695
 20
-3946.578
 30
2936.450
 70
    32
  0
VERTEX
  8
T23SSILL
 62
17
 10
2798.544
 20
-3940.954
 30
2936.435
 70
    32
  0
VERTEX
  8
T23SSILL
 62
17
 10
2821.043
 20
-3924.969
 30
2936.465
 70
    32
  0
VERTEX
  8
T23SSILL
 62
17
 10
2791.556
 20
-3880.365
 30
2936.368
 70
    32
  0
VERTEX
  8
T23SSILL
 62
17
 10
2774.697
 20
-3893.239
 30
2936.350
 70
    32
  0
VERTEX
  8
T23SSILL
 62
17
 10
2775.044
 20
-3903.860
 30
2936.348
 70
    32
  0
VERTEX
  8
T23SSILL
 62
17
 10
2757.027
 20
-3916.313
 30
2936.324
 70
    32
  0
VERTEX
  8
T23SSILL
 62
17
 10
2753.844
 20
-3910.511
 30
2936.325
 70
    32
  0
VERTEX
  8
T23SSILL
 62
17
 10
2686.610
 20
-3957.143
 30
2936.258
 70
    32
  0
VERTEX
  8
T23SSILL
 62
17
 10
2731.440
 20
-4019.029
 30
2936.379
 70
    32
  0
VERTEX
  8
T23SSILL
 62
17
 10
2725.502
 20
-4023.567
 30
2936.372
 70
    32
  0
VERTEX
  8
T23SSILL
 62
17
 10
2716.605
 20
-4012.127
 30
2936.342
 70
    32
  0
VERTEX
  8
T23SSILL
 62
17
 10
2705.504
 20
-4019.525
 30
2936.327
 70
    32
  0
VERTEX
  8
T23SSILL
 62
17
 10
2701.055
 20
-4013.673
 30
2936.311
 70
    32
  0
VERTEX
  8
T23SSILL
 62
17
 10
2712.501
 20
-4005.481
 30
2936.326
 70
    32
  0
VERTEX
  8
T23SSILL
 62
17
 10
2681.153
 20
-3961.530
 30
2936.252
 70
    32
  0
VERTEX
  8
T23SSILL
 62
17
 10
2674.570
 20
-3966.062
 30
2936.245
 70
    32
  0
VERTEX
  8
T23SSILL
 62
17
 10
2670.069
 20
-3960.702
 30
2936.253
 70
    32
  0
VERTEX
  8
T23SSILL
 62
17
 10
2753.297
 20
-3902.149
 30
2936.337
 70
    32
  0
VERTEX
  8
T23SSILL
 62
17
 10
2770.800
 20
-3886.331
 30
2936.359
 70
    32
  0
VERTEX
  8
T23SSILL
 62
17
 10
2789.593
 20
-3873.828
 30
2936.377
 70
    32
  0
VERTEX
  8
T23SSILL
 62
17
 10
2773.757
 20
-3853.593
 30
2936.319
 70
    32
  0
VERTEX
  8
T23SSILL
 62
17
 10
2765.071
 20
-3859.147
 30
2936.313
 70
    32
  0
VERTEX
  8
T23SSILL
 62
17
 10
2761.421
 20
-3854.003
 30
2936.294
 70
    32
  0
VERTEX
  8
T23SSILL
 62
17
 10
2770.201
 20
-3847.745
 30
2936.303
 70
    32
  0
VERTEX
  8
T23SSILL
 62
17
 10
2767.334
 20
-3843.666
 30
2936.292
 70
    32
  0
VERTEX
  8
T23SSILL
 62
17
 10
2764.597
 20
-3844.344
 30
2936.288
 70
    32
  0
VERTEX
  8
T23SSILL
 62
17
 10
2686.047
 20
-3903.447
 30
2936.247
 70
    32
  0
VERTEX
  8
T23SSILL
 62
17
 10
2527.675
 20
-4016.899
 30
2936.170
 70
    32
  0
VERTEX
  8
T23SSILL
 62
17
 10
2178.506
 20
-4617.375
 30
2935.973
 70
    32
  0
VERTEX
  8
T23SSILL
 62
17
 10
2195.744
 20
-4627.509
 30
2936.018
 70
    32
  0
VERTEX
  8
T23SSILL
 62
17
 10
2191.669
 20
-4633.965
 30
2936.020
 70
    32
  0
VERTEX
  8
T23SSILL
 62
17
 10
2174.785
 20
-4624.092
 30
2935.976
 70
    32
  0
VERTEX
  8
T23SSILL
 62
17
 10
2087.149
 20
-4775.071
 30
2936.058
 70
    32
  0
VERTEX
  8
T23SSILL
 62
17
 10
2079.902
 20
-4771.003
 30
2936.040
 70
    32
  0
VERTEX
  8
T23SSILL
 62
17
 10
2165.988
 20
-4623.731
 30
2935.960
 70
    32
  0
VERTEX
  8
T23SSILL
 62
17
 10
2124.312
 20
-4624.281
 30
2935.920
 70
    32
  0
VERTEX
  8
T23SSILL
 62
17
 10
2124.730
 20
-4614.284
 30
2935.919
 70
    32
  0
VERTEX
  8
T23SSILL
 62
17
 10
2116.771
 20
-4607.025
 30
2935.917
 70
    32
  0
VERTEX
  8
T23SSILL
 62
17
 10
2116.900
 20
-4591.987
 30
2935.915
 70
    32
  0
VERTEX
  8
T23SSILL
 62
17
 10
2214.156
 20
-4523.317
 30
2935.904
 70
    32
  0
VERTEX
  8
T23SSILL
 62
17
 10
2221.581
 20
-4527.647
 30
2935.923
 70
    32
  0
VERTEX
  8
T23SSILL
 62
17
 10
2261.495
 20
-4458.084
 30
2935.896
 70
    32
  0
VERTEX
  8
T23SSILL
 62
17
 10
2264.180
 20
-4443.726
 30
2935.881
 70
    32
  0
VERTEX
  8
T23SSILL
 62
17
 10
2261.208
 20
-4426.078
 30
2935.850
 70
    32
  0
VERTEX
  8
T23SSILL
 62
17
 10
2257.626
 20
-4418.811
 30
2935.834
 70
    32
  0
VERTEX
  8
T23SSILL
 62
17
 10
2073.894
 20
-4188.967
 30
2935.597
 70
    32
  0
VERTEX
  8
T23SSILL
 62
17
 10
2060.390
 20
-4180.722
 30
2935.557
 70
    32
  0
VERTEX
  8
T23SSILL
 62
17
 10
2051.083
 20
-4178.633
 30
2935.544
 70
    32
  0
VERTEX
  8
T23SSILL
 62
17
 10
2038.507
 20
-4181.147
 30
2935.548
 70
    32
  0
VERTEX
  8
T23SSILL
 62
17
 10
1703.074
 20
-4422.657
 30
2935.717
 70
    32
  0
VERTEX
  8
T23SSILL
 62
17
 10
1710.910
 20
-4433.706
 30
2935.727
 70
    32
  0
VERTEX
  8
T23SSILL
 62
17
 10
1705.311
 20
-4437.078
 30
2935.733
 70
    32
  0
VERTEX
  8
T23SSILL
 62
17
 10
1693.574
 20
-4420.602
 30
2935.718
 70
    32
  0
VERTEX
  8
T23SSILL
 62
17
 10
2030.545
 20
-4178.065
 30
2935.532
 70
    32
  0
VERTEX
  8
T23SSILL
 62
17
 10
2045.943
 20
-4171.825
 30
2935.515
 70
    32
  0
VERTEX
  8
T23SSILL
 62
17
 10
2053.227
 20
-4171.473
 30
2935.518
 70
    32
  0
VERTEX
  8
T23SSILL
 62
17
 10
2062.151
 20
-4174.275
 30
2935.533
 70
    32
  0
VERTEX
  8
T23SSILL
 62
17
 10
1848.653
 20
-3911.614
 30
2935.061
 70
    32
  0
VERTEX
  8
T23SSILL
 62
17
 10
1648.317
 20
-3660.034
 30
2934.869
 70
    32
  0
VERTEX
  8
T23SSILL
 62
17
 10
1483.864
 20
-3456.242
 30
2934.718
 70
    32
  0
VERTEX
  8
T23SSILL
 62
17
 10
1474.606
 20
-3451.232
 30
2934.726
 70
    32
  0
VERTEX
  8
T23SSILL
 62
17
 10
1462.613
 20
-3449.753
 30
2934.720
 70
    32
  0
VERTEX
  8
T23SSILL
 62
17
 10
1449.946
 20
-3455.661
 30
2934.701
 70
    32
  0
VERTEX
  8
T23SSILL
 62
17
 10
1371.307
 20
-3511.743
 30
2934.781
 70
    32
  0
VERTEX
  8
T23SSILL
 62
17
 10
1369.407
 20
-3517.961
 30
2934.789
 70
    32
  0
VERTEX
  8
T23SSILL
 62
17
 10
1364.994
 20
-3519.005
 30
2934.792
 70
    32
  0
VERTEX
  8
T23SSILL
 62
17
 10
1363.365
 20
-3518.032
 30
2934.791
 70
    32
  0
VERTEX
  8
T23SSILL
 62
17
 10
1333.746
 20
-3539.329
 30
2934.826
 70
    32
  0
VERTEX
  8
T23SSILL
 62
17
 10
1331.904
 20
-3552.152
 30
2934.842
 70
    32
  0
VERTEX
  8
T23SSILL
 62
17
 10
1334.180
 20
-3560.500
 30
2934.851
 70
    32
  0
VERTEX
  8
T23SSILL
 62
17
 10
1323.601
 20
-3563.483
 30
2934.858
 70
    32
  0
VERTEX
  8
T23SSILL
 62
17
 10
1316.940
 20
-3567.241
 30
2934.864
 70
    32
  0
VERTEX
  8
T23SSILL
 62
17
 10
1313.710
 20
-3564.610
 30
2934.862
 70
    32
  0
VERTEX
  8
T23SSILL
 62
17
 10
1310.373
 20
-3563.723
 30
2934.863
 70
    32
  0
VERTEX
  8
T23SSILL
 62
17
 10
1300.386
 20
-3567.916
 30
2934.871
 70
    32
  0
VERTEX
  8
T23SSILL
 62
17
 10
1295.036
 20
-3566.572
 30
2934.871
 70
    32
  0
VERTEX
  8
T23SSILL
 62
17
 10
1284.991
 20
-3574.030
 30
2934.883
 70
    32
  0
VERTEX
  8
T23SSILL
 62
17
 10
1280.254
 20
-3567.757
 30
2934.878
 70
    32
  0
VERTEX
  8
T23SSILL
 62
17
 10
1353.583
 20
-3515.529
 30
2934.792
 70
    32
  0
VERTEX
  8
T23SSILL
 62
17
 10
1354.306
 20
-3509.656
 30
2934.785
 70
    32
  0
VERTEX
  8
T23SSILL
 62
17
 10
1352.612
 20
-3499.313
 30
2934.773
 70
    32
  0
VERTEX
  8
T23SSILL
 62
17
 10
1342.655
 20
-3484.973
 30
2934.760
 70
    32
  0
VERTEX
  8
T23SSILL
 62
17
 10
1350.564
 20
-3478.931
 30
2934.751
 70
    32
  0
VERTEX
  8
T23SSILL
 62
17
 10
1354.098
 20
-3474.125
 30
2934.744
 70
    32
  0
VERTEX
  8
T23SSILL
 62
17
 10
1350.210
 20
-3470.777
 30
2934.741
 70
    32
  0
VERTEX
  8
T23SSILL
 62
17
 10
1352.397
 20
-3467.111
 30
2934.736
 70
    32
  0
VERTEX
  8
T23SSILL
 62
17
 10
1351.983
 20
-3464.102
 30
2934.733
 70
    32
  0
VERTEX
  8
T23SSILL
 62
17
 10
1347.392
 20
-3452.868
 30
2934.722
 70
    32
  0
VERTEX
  8
T23SSILL
 62
17
 10
1350.181
 20
-3447.523
 30
2934.714
 70
    32
  0
VERTEX
  8
T23SSILL
 62
17
 10
1362.521
 20
-3436.545
 30
2934.697
 70
    32
  0
VERTEX
  8
T23SSILL
 62
17
 10
1365.806
 20
-3435.476
 30
2934.695
 70
    32
  0
VERTEX
  8
T23SSILL
 62
17
 10
1370.745
 20
-3436.137
 30
2934.694
 70
    32
  0
VERTEX
  8
T23SSILL
 62
17
 10
1376.998
 20
-3432.136
 30
2934.687
 70
    32
  0
VERTEX
  8
T23SSILL
 62
17
 10
1382.598
 20
-3419.878
 30
2934.671
 70
    32
  0
VERTEX
  8
T23SSILL
 62
17
 10
1383.372
 20
-3409.864
 30
2934.659
 70
    32
  0
VERTEX
  8
T23SSILL
 62
17
 10
1389.038
 20
-3405.093
 30
2934.652
 70
    32
  0
VERTEX
  8
T23SSILL
 62
17
 10
1390.529
 20
-3402.402
 30
2934.648
 70
    32
  0
VERTEX
  8
T23SSILL
 62
17
 10
1392.756
 20
-3401.255
 30
2934.646
 70
    32
  0
VERTEX
  8
T23SSILL
 62
17
 10
1400.354
 20
-3401.769
 30
2934.644
 70
    32
  0
VERTEX
  8
T23SSILL
 62
17
 10
1411.918
 20
-3420.534
 30
2934.662
 70
    32
  0
VERTEX
  8
T23SSILL
 62
17
 10
1415.280
 20
-3422.178
 30
2934.662
 70
    32
  0
VERTEX
  8
T23SSILL
 62
17
 10
1421.963
 20
-3422.947
 30
2934.661
 70
    32
  0
VERTEX
  8
T23SSILL
 62
17
 10
1425.403
 20
-3425.418
 30
2934.663
 70
    32
  0
VERTEX
  8
T23SSILL
 62
17
 10
1425.797
 20
-3436.091
 30
2934.675
 70
    32
  0
VERTEX
  8
T23SSILL
 62
17
 10
1418.983
 20
-3448.500
 30
2934.692
 70
    32
  0
VERTEX
  8
T23SSILL
 62
17
 10
1419.525
 20
-3450.081
 30
2934.693
 70
    32
  0
VERTEX
  8
T23SSILL
 62
17
 10
1415.679
 20
-3455.347
 30
2934.701
 70
    32
  0
VERTEX
  8
T23SSILL
 62
17
 10
1414.816
 20
-3459.442
 30
2934.706
 70
    32
  0
VERTEX
  8
T23SSILL
 62
17
 10
1410.793
 20
-3464.622
 30
2934.713
 70
    32
  0
VERTEX
  8
T23SSILL
 62
17
 10
1409.901
 20
-3469.404
 30
2934.719
 70
    32
  0
VERTEX
  8
T23SSILL
 62
17
 10
1415.666
 20
-3471.872
 30
2934.720
 70
    32
  0
VERTEX
  8
T23SSILL
 62
17
 10
1449.905
 20
-3447.047
 30
2934.697
 70
    32
  0
VERTEX
  8
T23SSILL
 62
17
 10
1460.480
 20
-3443.623
 30
2934.713
 70
    32
  0
VERTEX
  8
T23SSILL
 62
17
 10
1474.075
 20
-3442.992
 30
2934.707
 70
    32
  0
VERTEX
  8
T23SSILL
 62
17
 10
1367.297
 20
-3309.309
 30
2934.549
 70
    32
  0
VERTEX
  8
T23SSILL
 62
17
 10
1353.817
 20
-3302.980
 30
2934.546
 70
    32
  0
VERTEX
  8
T23SSILL
 62
17
 10
1344.216
 20
-3302.889
 30
2934.550
 70
    32
  0
VERTEX
  8
T23SSILL
 62
17
 10
1338.980
 20
-3304.451
 30
2934.553
 70
    32
  0
VERTEX
  8
T23SSILL
 62
17
 10
1311.053
 20
-3323.900
 30
2934.585
 70
    32
  0
VERTEX
  8
T23SSILL
 62
17
 10
1308.960
 20
-3328.270
 30
2934.591
 70
    32
  0
VERTEX
  8
T23SSILL
 62
17
 10
1308.729
 20
-3337.979
 30
2934.602
 70
    32
  0
VERTEX
  8
T23SSILL
 62
17
 10
1301.767
 20
-3341.634
 30
2934.609
 70
    32
  0
VERTEX
  8
T23SSILL
 62
17
 10
1299.193
 20
-3337.394
 30
2934.605
 70
    32
  0
VERTEX
  8
T23SSILL
 62
17
 10
1294.592
 20
-3335.144
 30
2934.604
 70
    32
  0
VERTEX
  8
T23SSILL
 62
17
 10
1240.093
 20
-3373.784
 30
2934.668
 70
    32
  0
VERTEX
  8
T23SSILL
 62
17
 10
1250.846
 20
-3410.349
 30
2934.706
 70
    32
  0
VERTEX
  8
T23SSILL
 62
17
 10
1253.171
 20
-3426.307
 30
2934.724
 70
    32
  0
VERTEX
  8
T23SSILL
 62
17
 10
1252.291
 20
-3432.411
 30
2934.731
 70
    32
  0
VERTEX
  8
T23SSILL
 62
17
 10
1249.138
 20
-3434.376
 30
2934.735
 70
    32
  0
VERTEX
  8
T23SSILL
 62
17
 10
1243.903
 20
-3434.053
 30
2934.736
 70
    32
  0
VERTEX
  8
T23SSILL
 62
17
 10
1238.006
 20
-3422.707
 30
2934.725
 70
    32
  0
VERTEX
  8
T23SSILL
 62
17
 10
1237.138
 20
-3414.170
 30
2934.715
 70
    32
  0
VERTEX
  8
T23SSILL
 62
17
 10
1231.100
 20
-3406.701
 30
2934.709
 70
    32
  0
VERTEX
  8
T23SSILL
 62
17
 10
1224.360
 20
-3403.537
 30
2934.708
 70
    32
  0
VERTEX
  8
T23SSILL
 62
17
 10
1217.283
 20
-3408.057
 30
2934.715
 70
    32
  0
VERTEX
  8
T23SSILL
 62
17
 10
1208.827
 20
-3396.117
 30
2934.705
 70
    32
  0
VERTEX
  8
T23SSILL
 62
17
 10
1205.520
 20
-3398.832
 30
2934.709
 70
    32
  0
VERTEX
  8
T23SSILL
 62
17
 10
1201.466
 20
-3392.429
 30
2934.703
 70
    32
  0
VERTEX
  8
T23SSILL
 62
17
 10
1209.095
 20
-3386.601
 30
2934.693
 70
    32
  0
VERTEX
  8
T23SSILL
 62
17
 10
1204.468
 20
-3381.269
 30
2934.689
 70
    32
  0
VERTEX
  8
T23SSILL
 62
17
 10
1207.344
 20
-3365.882
 30
2934.670
 70
    32
  0
VERTEX
  8
T23SSILL
 62
17
 10
1217.595
 20
-3359.713
 30
2934.659
 70
    32
  0
VERTEX
  8
T23SSILL
 62
17
 10
1220.497
 20
-3359.159
 30
2934.658
 70
    32
  0
VERTEX
  8
T23SSILL
 62
17
 10
1234.412
 20
-3368.813
 30
2934.664
 70
    32
  0
VERTEX
  8
T23SSILL
 62
17
 10
1287.281
 20
-3331.086
 30
2934.602
 70
    32
  0
VERTEX
  8
T23SSILL
 62
17
 10
1289.202
 20
-3325.185
 30
2934.595
 70
    32
  0
VERTEX
  8
T23SSILL
 62
17
 10
1302.599
 20
-3316.170
 30
2934.579
 70
    32
  0
VERTEX
  8
T23SSILL
 62
17
 10
1307.311
 20
-3317.115
 30
2934.579
 70
    32
  0
VERTEX
  8
T23SSILL
 62
17
 10
1332.257
 20
-3299.278
 30
2934.550
 70
    32
  0
VERTEX
  8
T23SSILL
 62
17
 10
1338.206
 20
-3296.618
 30
2934.544
 70
    32
  0
VERTEX
  8
T23SSILL
 62
17
 10
1349.476
 20
-3294.105
 30
2934.538
 70
    32
  0
VERTEX
  8
T23SSILL
 62
17
 10
1356.817
 20
-3295.590
 30
2934.537
 70
    32
  0
VERTEX
  8
T23SSILL
 62
17
 10
1296.412
 20
-3220.143
 30
2934.481
 70
    32
  0
VERTEX
  8
T23SSILL
 62
17
 10
1285.495
 20
-3214.849
 30
2934.479
 70
    32
  0
VERTEX
  8
T23SSILL
 62
17
 10
1277.577
 20
-3213.915
 30
2934.480
 70
    32
  0
VERTEX
  8
T23SSILL
 62
17
 10
1265.924
 20
-3216.942
 30
2934.485
 70
    32
  0
VERTEX
  8
T23SSILL
 62
17
 10
1162.660
 20
-3291.282
 30
2934.600
 70
    32
  0
VERTEX
  8
T23SSILL
 62
17
 10
1166.760
 20
-3296.923
 30
2934.605
 70
    32
  0
VERTEX
  8
T23SSILL
 62
17
 10
1159.489
 20
-3303.237
 30
2934.615
 70
    32
  0
VERTEX
  8
T23SSILL
 62
17
 10
1150.559
 20
-3291.548
 30
2934.604
 70
    32
  0
VERTEX
  8
T23SSILL
 62
17
 10
1267.125
 20
-3209.374
 30
2934.478
 70
    32
  0
VERTEX
  8
T23SSILL
 62
17
 10
1277.416
 20
-3207.609
 30
2934.475
 70
    32
  0
VERTEX
  8
T23SSILL
 62
17
 10
1287.058
 20
-3208.334
 30
2934.473
 70
    32
  0
VERTEX
  8
T23SSILL
 62
17
 10
1076.649
 20
-2943.985
 30
2934.096
 70
    32
  0
VERTEX
  8
T23SSILL
 62
17
 10
937.693
 20
-2940.617
 30
2934.180
 70
    32
  0
VERTEX
  8
T23SSILL
 62
17
 10
937.759
 20
-2948.123
 30
2934.195
 70
    32
  0
VERTEX
  8
T23SSILL
 62
17
 10
927.640
 20
-2940.373
 30
2934.186
 70
    32
  0
VERTEX
  8
T23SSILL
 62
17
 10
675.253
 20
-2934.255
 30
2934.341
 70
    32
  0
VERTEX
  8
T23SSILL
 62
17
 10
683.444
 20
-2948.205
 30
2934.355
 70
    32
  0
VERTEX
  8
T23SSILL
 62
17
 10
694.352
 20
-2944.638
 30
2934.341
 70
    32
  0
VERTEX
  8
T23SSILL
 62
17
 10
698.464
 20
-2953.357
 30
2934.356
 70
    32
  0
VERTEX
  8
T23SSILL
 62
17
 10
702.468
 20
-2953.956
 30
2934.355
 70
    32
  0
VERTEX
  8
T23SSILL
 62
17
 10
704.139
 20
-2961.657
 30
2934.369
 70
    32
  0
VERTEX
  8
T23SSILL
 62
17
 10
713.028
 20
-2980.693
 30
2934.402
 70
    32
  0
VERTEX
  8
T23SSILL
 62
17
 10
716.521
 20
-2991.215
 30
2934.410
 70
    32
  0
VERTEX
  8
T23SSILL
 62
17
 10
723.560
 20
-3004.347
 30
2934.422
 70
    32
  0
VERTEX
  8
T23SSILL
 62
17
 10
728.875
 20
-3009.709
 30
2934.426
 70
    32
  0
VERTEX
  8
T23SSILL
 62
17
 10
744.144
 20
-3019.104
 30
2934.432
 70
    32
  0
VERTEX
  8
T23SSILL
 62
17
 10
752.198
 20
-3027.472
 30
2934.438
 70
    32
  0
VERTEX
  8
T23SSILL
 62
17
 10
757.354
 20
-3038.718
 30
2934.450
 70
    32
  0
VERTEX
  8
T23SSILL
 62
17
 10
756.959
 20
-3045.892
 30
2934.458
 70
    32
  0
VERTEX
  8
T23SSILL
 62
17
 10
752.377
 20
-3057.595
 30
2934.473
 70
    32
  0
VERTEX
  8
T23SSILL
 62
17
 10
761.063
 20
-3069.691
 30
2934.484
 70
    32
  0
VERTEX
  8
T23SSILL
 62
17
 10
765.329
 20
-3073.970
 30
2934.488
 70
    32
  0
VERTEX
  8
T23SSILL
 62
17
 10
771.975
 20
-3076.430
 30
2934.488
 70
    32
  0
VERTEX
  8
T23SSILL
 62
17
 10
779.021
 20
-3084.348
 30
2934.495
 70
    32
  0
VERTEX
  8
T23SSILL
 62
17
 10
785.633
 20
-3088.940
 30
2934.498
 70
    32
  0
VERTEX
  8
T23SSILL
 62
17
 10
789.698
 20
-3090.490
 30
2934.498
 70
    32
  0
VERTEX
  8
T23SSILL
 62
17
 10
798.416
 20
-3088.264
 30
2934.492
 70
    32
  0
VERTEX
  8
T23SSILL
 62
17
 10
800.650
 20
-3089.882
 30
2934.494
 70
    32
  0
VERTEX
  8
T23SSILL
 62
17
 10
802.907
 20
-3096.028
 30
2934.500
 70
    32
  0
VERTEX
  8
T23SSILL
 62
17
 10
797.458
 20
-3103.405
 30
2934.510
 70
    32
  0
VERTEX
  8
T23SSILL
 62
17
 10
796.104
 20
-3111.644
 30
2934.520
 70
    32
  0
VERTEX
  8
T23SSILL
 62
17
 10
782.326
 20
-3117.403
 30
2934.532
 70
    32
  0
VERTEX
  8
T23SSILL
 62
17
 10
778.036
 20
-3120.348
 30
2934.537
 70
    32
  0
VERTEX
  8
T23SSILL
 62
17
 10
765.964
 20
-3119.926
 30
2934.540
 70
    32
  0
VERTEX
  8
T23SSILL
 62
17
 10
756.696
 20
-3127.671
 30
2934.553
 70
    32
  0
VERTEX
  8
T23SSILL
 62
17
 10
756.769
 20
-3129.943
 30
2934.555
 70
    32
  0
VERTEX
  8
T23SSILL
 62
17
 10
782.877
 20
-3133.940
 30
2934.551
 70
    32
  0
VERTEX
  8
T23SSILL
 62
17
 10
788.158
 20
-3133.453
 30
2934.548
 70
    32
  0
VERTEX
  8
T23SSILL
 62
17
 10
795.024
 20
-3130.979
 30
2934.543
 70
    32
  0
VERTEX
  8
T23SSILL
 62
17
 10
790.970
 20
-3122.770
 30
2934.535
 70
    32
  0
VERTEX
  8
T23SSILL
 62
17
 10
794.816
 20
-3119.389
 30
2934.530
 70
    32
  0
VERTEX
  8
T23SSILL
 62
17
 10
801.311
 20
-3118.750
 30
2934.527
 70
    32
  0
VERTEX
  8
T23SSILL
 62
17
 10
808.912
 20
-3119.705
 30
2934.525
 70
    32
  0
VERTEX
  8
T23SSILL
 62
17
 10
812.508
 20
-3121.946
 30
2934.526
 70
    32
  0
VERTEX
  8
T23SSILL
 62
17
 10
817.889
 20
-3134.794
 30
2934.539
 70
    32
  0
VERTEX
  8
T23SSILL
 62
17
 10
839.270
 20
-3144.065
 30
2934.543
 70
    32
  0
VERTEX
  8
T23SSILL
 62
17
 10
867.211
 20
-3154.088
 30
2934.544
 70
    32
  0
VERTEX
  8
T23SSILL
 62
17
 10
859.097
 20
-3164.941
 30
2934.560
 70
    32
  0
VERTEX
  8
T23SSILL
 62
17
 10
852.638
 20
-3167.659
 30
2934.565
 70
    32
  0
VERTEX
  8
T23SSILL
 62
17
 10
832.945
 20
-3157.985
 30
2934.561
 70
    32
  0
VERTEX
  8
T23SSILL
 62
17
 10
827.755
 20
-3158.736
 30
2934.564
 70
    32
  0
VERTEX
  8
T23SSILL
 62
17
 10
814.602
 20
-3149.497
 30
2934.558
 70
    32
  0
VERTEX
  8
T23SSILL
 62
17
 10
807.720
 20
-3150.210
 30
2934.561
 70
    32
  0
VERTEX
  8
T23SSILL
 62
17
 10
795.845
 20
-3144.096
 30
2934.558
 70
    32
  0
VERTEX
  8
T23SSILL
 62
17
 10
777.132
 20
-3141.655
 30
2934.562
 70
    32
  0
VERTEX
  8
T23SSILL
 62
17
 10
774.174
 20
-3139.813
 30
2934.560
 70
    32
  0
VERTEX
  8
T23SSILL
 62
17
 10
758.387
 20
-3137.575
 30
2934.563
 70
    32
  0
VERTEX
  8
T23SSILL
 62
17
 10
750.569
 20
-3141.995
 30
2934.571
 70
    32
  0
VERTEX
  8
T23SSILL
 62
17
 10
746.946
 20
-3142.767
 30
2934.573
 70
    32
  0
VERTEX
  8
T23SSILL
 62
17
 10
739.592
 20
-3141.846
 30
2934.575
 70
    32
  0
VERTEX
  8
T23SSILL
 62
17
 10
731.172
 20
-3147.945
 30
2934.591
 70
    32
  0
VERTEX
  8
T23SSILL
 62
17
 10
732.807
 20
-3155.453
 30
2934.602
 70
    32
  0
VERTEX
  8
T23SSILL
 62
17
 10
750.349
 20
-3178.851
 30
2934.622
 70
    32
  0
VERTEX
  8
T23SSILL
 62
17
 10
743.230
 20
-3184.622
 30
2934.638
 70
    32
  0
VERTEX
  8
T23SSILL
 62
17
 10
742.704
 20
-3190.899
 30
2934.648
 70
    32
  0
VERTEX
  8
T23SSILL
 62
17
 10
836.443
 20
-3322.460
 30
2934.769
 70
    32
  0
VERTEX
  8
T23SSILL
 62
17
 10
849.173
 20
-3323.598
 30
2934.759
 70
    32
  0
VERTEX
  8
T23SSILL
 62
17
 10
852.985
 20
-3322.349
 30
2934.753
 70
    32
  0
VERTEX
  8
T23SSILL
 62
17
 10
859.866
 20
-3331.501
 30
2934.761
 70
    32
  0
VERTEX
  8
T23SSILL
 62
17
 10
848.663
 20
-3339.616
 30
2934.785
 70
    32
  0
VERTEX
  8
T23SSILL
 62
17
 10
949.596
 20
-3479.869
 30
2934.912
 70
    32
  0
VERTEX
  8
T23SSILL
 62
17
 10
956.522
 20
-3474.135
 30
2934.897
 70
    32
  0
VERTEX
  8
T23SSILL
 62
17
 10
962.457
 20
-3481.905
 30
2934.903
 70
    32
  0
VERTEX
  8
T23SSILL
 62
17
 10
954.614
 20
-3487.453
 30
2934.918
 70
    32
  0
VERTEX
  8
T23SSILL
 62
17
 10
970.671
 20
-3509.503
 30
2934.938
 70
    32
  0
VERTEX
  8
T23SSILL
 62
17
 10
964.960
 20
-3513.650
 30
2934.943
 70
    32
  0
VERTEX
  8
T23SSILL
 62
17
 10
948.870
 20
-3491.397
 30
2934.923
 70
    32
  0
VERTEX
  8
T23SSILL
 62
17
 10
942.851
 20
-3495.996
 30
2934.928
 70
    32
  0
VERTEX
  8
T23SSILL
 62
17
 10
937.319
 20
-3488.029
 30
2934.921
 70
    32
  0
VERTEX
  8
T23SSILL
 62
17
 10
943.256
 20
-3484.048
 30
2934.917
 70
    32
  0
VERTEX
  8
T23SSILL
 62
17
 10
841.253
 20
-3342.395
 30
2934.792
 70
    32
  0
VERTEX
  8
T23SSILL
 62
17
 10
835.736
 20
-3346.055
 30
2934.797
 70
    32
  0
VERTEX
  8
T23SSILL
 62
17
 10
830.525
 20
-3338.508
 30
2934.790
 70
    32
  0
VERTEX
  8
T23SSILL
 62
17
 10
835.548
 20
-3334.782
 30
2934.786
 70
    32
  0
VERTEX
  8
T23SSILL
 62
17
 10
624.951
 20
-3037.335
 30
2934.515
 70
    32
  0
VERTEX
  8
T23SSILL
 62
17
 10
620.457
 20
-3037.110
 30
2934.519
 70
    32
  0
VERTEX
  8
T23SSILL
 62
17
 10
611.482
 20
-3034.212
 30
2934.523
 70
    32
  0
VERTEX
  8
T23SSILL
 62
17
 10
606.085
 20
-3029.468
 30
2934.519
 70
    32
  0
VERTEX
  8
T23SSILL
 62
17
 10
567.089
 20
-2970.586
 30
2934.463
 70
    32
  0
VERTEX
  8
T23SSILL
 62
17
 10
563.377
 20
-2961.229
 30
2934.452
 70
    32
  0
VERTEX
  8
T23SSILL
 62
17
 10
566.429
 20
-2949.698
 30
2934.431
 70
    32
  0
VERTEX
  8
T23SSILL
 62
17
 10
568.995
 20
-2945.077
 30
2934.422
 70
    32
  0
VERTEX
  8
T23SSILL
 62
17
 10
572.511
 20
-2942.280
 30
2934.414
 70
    32
  0
VERTEX
  8
T23SSILL
 62
17
 10
577.270
 20
-2940.529
 30
2934.407
 70
    32
  0
VERTEX
  8
T23SSILL
 62
17
 10
580.404
 20
-2936.362
 30
2934.397
 70
    32
  0
VERTEX
  8
T23SSILL
 62
17
 10
587.291
 20
-2932.123
 30
2934.401
 70
    32
  0
VERTEX
  8
T23SSILL
 62
17
 10
192.444
 20
-2922.942
 30
2934.474
 70
    32
  0
VERTEX
  8
T23SSILL
 62
17
 10
186.720
 20
-2921.838
 30
2934.469
 70
    32
  0
VERTEX
  8
T23SSILL
 62
17
 10
180.661
 20
-2918.527
 30
2934.462
 70
    32
  0
VERTEX
  8
T23SSILL
 62
17
 10
169.281
 20
-2907.676
 30
2934.457
 70
    32
  0
VERTEX
  8
T23SSILL
 62
17
 10
90.951
 20
-2797.776
 30
2934.541
 70
    32
  0
VERTEX
  8
T23SSILL
 62
17
 10
86.159
 20
-2801.442
 30
2934.526
 70
    32
  0
VERTEX
  8
T23SSILL
 62
17
 10
81.618
 20
-2795.673
 30
2934.529
 70
    32
  0
VERTEX
  8
T23SSILL
 62
17
 10
86.767
 20
-2791.481
 30
2934.545
 70
    32
  0
VERTEX
  8
T23SSILL
 62
17
 10
68.547
 20
-2763.445
 30
2934.564
 70
    32
  0
VERTEX
  8
T23SSILL
 62
17
 10
62.897
 20
-2767.551
 30
2934.555
 70
    32
  0
VERTEX
  8
T23SSILL
 62
17
 10
58.191
 20
-2761.705
 30
2934.559
 70
    32
  0
VERTEX
  8
T23SSILL
 62
17
 10
64.088
 20
-2758.057
 30
2934.567
 70
    32
  0
VERTEX
  8
T23SSILL
 62
17
 10
-35.073
 20
-2619.813
 30
2934.654
 70
    32
  0
VERTEX
  8
T23SSILL
 62
17
 10
-40.723
 20
-2624.008
 30
2934.647
 70
    32
  0
VERTEX
  8
T23SSILL
 62
17
 10
-47.455
 20
-2615.530
 30
2934.652
 70
    32
  0
VERTEX
  8
T23SSILL
 62
17
 10
-41.190
 20
-2611.514
 30
2934.658
 70
    32
  0
VERTEX
  8
T23SSILL
 62
17
 10
-51.188
 20
-2598.385
 30
2934.644
 70
    32
  0
VERTEX
  8
T23SSILL
 62
17
 10
-70.406
 20
-2613.490
 30
2934.626
 70
    32
  0
VERTEX
  8
T23SSILL
 62
17
 10
-77.308
 20
-2604.211
 30
2934.631
 70
    32
  0
VERTEX
  8
T23SSILL
 62
17
 10
-56.654
 20
-2590.062
 30
2934.639
 70
    32
  0
VERTEX
  8
T23SSILL
 62
17
 10
-66.180
 20
-2577.348
 30
2934.632
 70
    32
  0
VERTEX
  8
T23SSILL
 62
17
 10
-78.363
 20
-2586.349
 30
2934.638
 70
    32
  0
VERTEX
  8
T23SSILL
 62
17
 10
-83.783
 20
-2579.461
 30
2934.634
 70
    32
  0
VERTEX
  8
T23SSILL
 62
17
 10
-70.807
 20
-2570.200
 30
2934.627
 70
    32
  0
VERTEX
  8
T23SSILL
 62
17
 10
-280.847
 20
-2279.845
 30
2934.449
 70
    32
  0
VERTEX
  8
T23SSILL
 62
17
 10
-284.873
 20
-2275.602
 30
2934.442
 70
    32
  0
VERTEX
  8
T23SSILL
 62
17
 10
-289.346
 20
-2272.853
 30
2934.421
 70
    32
  0
VERTEX
  8
T23SSILL
 62
17
 10
-297.252
 20
-2270.703
 30
2934.375
 70
    32
  0
VERTEX
  8
T23SSILL
 62
17
 10
-308.425
 20
-2271.000
 30
2934.295
 70
    32
  0
VERTEX
  8
T23SSILL
 62
17
 10
-342.636
 20
-2294.636
 30
2933.961
 70
    32
  0
VERTEX
  8
T23SSILL
 62
17
 10
-344.805
 20
-2303.578
 30
2933.910
 70
    32
  0
VERTEX
  8
T23SSILL
 62
17
 10
-344.165
 20
-2306.765
 30
2933.902
 70
    32
  0
VERTEX
  8
T23SSILL
 62
17
 10
-295.939
 20
-2374.053
 30
2933.974
 70
    32
  0
VERTEX
  8
T23SSILL
 62
17
 10
-301.144
 20
-2378.483
 30
2933.919
 70
    32
  0
VERTEX
  8
T23SSILL
 62
17
 10
-355.139
 20
-2303.599
 30
2933.838
 70
    32
  0
VERTEX
  8
T23SSILL
 62
17
 10
-428.479
 20
-2356.176
 30
2933.451
 70
    32
  0
VERTEX
  8
T23SSILL
 62
17
 10
-436.517
 20
-2362.997
 30
2933.451
 70
    32
  0
VERTEX
  8
T23SSILL
 62
17
 10
-438.556
 20
-2366.066
 30
2933.454
 70
    32
  0
VERTEX
  8
T23SSILL
 62
17
 10
-440.172
 20
-2372.744
 30
2933.466
 70
    32
  0
VERTEX
  8
T23SSILL
 62
17
 10
-440.281
 20
-2377.054
 30
2933.475
 70
    32
  0
VERTEX
  8
T23SSILL
 62
17
 10
-437.332
 20
-2385.513
 30
2933.499
 70
    32
  0
VERTEX
  8
T23SSILL
 62
17
 10
-287.348
 20
-2599.570
 30
2934.160
 70
    32
  0
VERTEX
  8
T23SSILL
 62
17
 10
-293.165
 20
-2605.849
 30
2934.131
 70
    32
  0
VERTEX
  8
T23SSILL
 62
17
 10
-295.796
 20
-2603.017
 30
2934.132
 70
    32
  0
VERTEX
  8
T23SSILL
 62
17
 10
-374.229
 20
-2658.178
 30
2933.815
 70
    32
  0
VERTEX
  8
T23SSILL
 62
17
 10
-378.941
 20
-2652.638
 30
2933.818
 70
    32
  0
VERTEX
  8
T23SSILL
 62
17
 10
-308.643
 20
-2602.880
 30
2934.103
 70
    32
  0
VERTEX
  8
T23SSILL
 62
17
 10
-305.343
 20
-2588.878
 30
2934.145
 70
    32
  0
VERTEX
  8
T23SSILL
 62
17
 10
-318.139
 20
-2567.338
 30
2934.112
 70
    32
  0
VERTEX
  8
T23SSILL
 62
17
 10
-444.205
 20
-2387.942
 30
2933.491
 70
    32
  0
VERTEX
  8
T23SSILL
 62
17
 10
-446.541
 20
-2379.926
 30
2933.470
 70
    32
  0
VERTEX
  8
T23SSILL
 62
17
 10
-446.395
 20
-2368.227
 30
2933.437
 70
    32
  0
VERTEX
  8
T23SSILL
 62
17
 10
-465.347
 20
-2381.410
 30
2933.415
 70
    32
  0
VERTEX
  8
T23SSILL
 62
17
 10
-464.901
 20
-2387.490
 30
2933.453
 70
    32
  0
VERTEX
  8
T23SSILL
 62
17
 10
-452.186
 20
-2408.124
 30
2933.521
 70
    32
  0
VERTEX
  8
T23SSILL
 62
17
 10
-452.547
 20
-2417.294
 30
2933.540
 70
    32
  0
VERTEX
  8
T23SSILL
 62
17
 10
-453.377
 20
-2421.462
 30
2933.548
 70
    32
  0
VERTEX
  8
T23SSILL
 62
17
 10
-468.324
 20
-2433.462
 30
2933.546
 70
    32
  0
VERTEX
  8
T23SSILL
 62
17
 10
-464.684
 20
-2448.464
 30
2933.586
 70
    32
  0
VERTEX
  8
T23SSILL
 62
17
 10
-453.934
 20
-2464.564
 30
2933.640
 70
    32
  0
VERTEX
  8
T23SSILL
 62
17
 10
-455.939
 20
-2472.067
 30
2933.653
 70
    32
  0
VERTEX
  8
T23SSILL
 62
17
 10
-451.496
 20
-2478.880
 30
2933.676
 70
    32
  0
VERTEX
  8
T23SSILL
 62
17
 10
-448.911
 20
-2494.373
 30
2933.714
 70
    32
  0
VERTEX
  8
T23SSILL
 62
17
 10
-445.863
 20
-2504.349
 30
2933.742
 70
    32
  0
VERTEX
  8
T23SSILL
 62
17
 10
-432.799
 20
-2533.465
 30
2933.829
 70
    32
  0
VERTEX
  8
T23SSILL
 62
17
 10
-438.528
 20
-2543.669
 30
2933.841
 70
    32
  0
VERTEX
  8
T23SSILL
 62
17
 10
-446.885
 20
-2549.142
 30
2933.837
 70
    32
  0
VERTEX
  8
T23SSILL
 62
17
 10
-465.784
 20
-2519.883
 30
2933.739
 70
    32
  0
VERTEX
  8
T23SSILL
 62
17
 10
-475.230
 20
-2510.990
 30
2933.703
 70
    32
  0
VERTEX
  8
T23SSILL
 62
17
 10
-493.144
 20
-2488.619
 30
2933.621
 70
    32
  0
VERTEX
  8
T23SSILL
 62
17
 10
-504.103
 20
-2488.284
 30
2933.601
 70
    32
  0
VERTEX
  8
T23SSILL
 62
17
 10
-527.804
 20
-2464.250
 30
2933.505
 70
    32
  0
VERTEX
  8
T23SSILL
 62
17
 10
-539.462
 20
-2447.906
 30
2933.448
 70
    32
  0
VERTEX
  8
T23SSILL
 62
17
 10
-538.956
 20
-2435.132
 30
2933.355
 70
    32
  0
VERTEX
  8
T23SSILL
 62
17
 10
-557.747
 20
-2448.194
 30
2933.334
 70
    32
  0
VERTEX
  8
T23SSILL
 62
17
 10
-562.453
 20
-2441.889
 30
2933.235
 70
    32
  0
VERTEX
  8
T23SSILL
 62
17
 10
-527.544
 20
-2417.202
 30
2933.272
 70
    32
  0
VERTEX
  8
T23SSILL
 62
17
 10
-543.589
 20
-2369.454
 30
2932.785
 70
    32
  0
VERTEX
  8
T23SSILL
 62
17
 10
-544.306
 20
-2361.855
 30
2932.783
 70
    32
  0
VERTEX
  8
T23SSILL
 62
17
 10
-543.281
 20
-2354.793
 30
2932.774
 70
    32
  0
VERTEX
  8
T23SSILL
 62
17
 10
-538.453
 20
-2348.102
 30
2932.748
 70
    32
  0
VERTEX
  8
T23SSILL
 62
17
 10
-534.748
 20
-2339.466
 30
2932.725
 70
    32
  0
VERTEX
  8
T23SSILL
 62
17
 10
-522.928
 20
-2333.015
 30
2932.669
 70
    32
  0
VERTEX
  8
T23SSILL
 62
17
 10
-519.698
 20
-2320.188
 30
2932.645
 70
    32
  0
VERTEX
  8
T23SSILL
 62
17
 10
-520.450
 20
-2312.003
 30
2932.643
 70
    32
  0
VERTEX
  8
T23SSILL
 62
17
 10
-522.794
 20
-2305.746
 30
2932.649
 70
    32
  0
VERTEX
  8
T23SSILL
 62
17
 10
-524.591
 20
-2295.445
 30
2932.650
 70
    32
  0
VERTEX
  8
T23SSILL
 62
17
 10
-517.204
 20
-2296.010
 30
2932.617
 70
    32
  0
VERTEX
  8
T23SSILL
 62
17
 10
-511.955
 20
-2301.841
 30
2932.598
 70
    32
  0
VERTEX
  8
T23SSILL
 62
17
 10
-504.900
 20
-2298.269
 30
2932.565
 70
    32
  0
VERTEX
  8
T23SSILL
 62
17
 10
-508.312
 20
-2294.558
 30
2932.577
 70
    32
  0
VERTEX
  8
T23SSILL
 62
17
 10
-506.803
 20
-2291.662
 30
2932.568
 70
    32
  0
VERTEX
  8
T23SSILL
 62
17
 10
-505.775
 20
-2279.528
 30
2932.555
 70
    32
  0
VERTEX
  8
T23SSILL
 62
17
 10
-511.016
 20
-2272.025
 30
2932.588
 70
    32
  0
VERTEX
  8
T23SSILL
 62
17
 10
-492.948
 20
-2264.901
 30
2932.540
 70
    32
  0
VERTEX
  8
T23SSILL
 62
17
 10
-488.859
 20
-2274.158
 30
2932.477
 70
    32
  0
VERTEX
  8
T23SSILL
 62
17
 10
-476.760
 20
-2282.222
 30
2932.429
 70
    32
  0
VERTEX
  8
T23SSILL
 62
17
 10
-452.484
 20
-2318.584
 30
2932.908
 70
    32
  0
VERTEX
  8
T23SSILL
 62
17
 10
-468.011
 20
-2327.568
 30
2932.873
 70
    32
  0
VERTEX
  8
T23SSILL
 62
17
 10
-469.872
 20
-2330.462
 30
2932.886
 70
    32
  0
VERTEX
  8
T23SSILL
 62
17
 10
-468.359
 20
-2339.090
 30
2932.982
 70
    32
  0
VERTEX
  8
T23SSILL
 62
17
 10
-459.314
 20
-2349.852
 30
2933.157
 70
    32
  0
VERTEX
  8
T23SSILL
 62
17
 10
-451.920
 20
-2363.481
 30
2933.348
 70
    32
  0
VERTEX
  8
T23SSILL
 62
17
 10
-399.974
 20
-2326.211
 30
2933.396
 70
    32
  0
VERTEX
  8
T23SSILL
 62
17
 10
-400.199
 20
-2322.497
 30
2933.386
 70
    32
  0
VERTEX
  8
T23SSILL
 62
17
 10
-404.269
 20
-2322.451
 30
2933.326
 70
    32
  0
VERTEX
  8
T23SSILL
 62
17
 10
-421.140
 20
-2318.197
 30
2933.152
 70
    32
  0
VERTEX
  8
T23SSILL
 62
17
 10
-428.449
 20
-2313.937
 30
2933.053
 70
    32
  0
VERTEX
  8
T23SSILL
 62
17
 10
-439.783
 20
-2303.967
 30
2932.867
 70
    32
  0
VERTEX
  8
T23SSILL
 62
17
 10
-468.467
 20
-2271.993
 30
2932.385
 70
    32
  0
VERTEX
  8
T23SSILL
 62
17
 10
-478.500
 20
-2264.449
 30
2932.471
 70
    32
  0
VERTEX
  8
T23SSILL
 62
17
 10
-492.748
 20
-2259.189
 30
2932.571
 70
    32
  0
VERTEX
  8
T23SSILL
 62
17
 10
-500.815
 20
-2258.729
 30
2932.614
 70
    32
  0
VERTEX
  8
T23SSILL
 62
17
 10
-511.675
 20
-2260.134
 30
2932.659
 70
    32
  0
VERTEX
  8
T23SSILL
 62
17
 10
-526.059
 20
-2272.147
 30
2932.661
 70
    32
  0
VERTEX
  8
T23SSILL
 62
17
 10
-529.585
 20
-2282.789
 30
2932.663
 70
    32
  0
VERTEX
  8
T23SSILL
 62
17
 10
-535.765
 20
-2280.855
 30
2932.689
 70
    32
  0
VERTEX
  8
T23SSILL
 62
17
 10
-599.022
 20
-2336.248
 30
2933.007
 70
    32
  0
VERTEX
  8
T23SSILL
 62
17
 10
-618.936
 20
-2378.871
 30
2933.125
 70
    32
  0
VERTEX
  8
T23SSILL
 62
17
 10
-611.919
 20
-2387.793
 30
2933.100
 70
    32
  0
VERTEX
  8
T23SSILL
 62
17
 10
-631.196
 20
-2430.734
 30
2933.215
 70
    32
  0
VERTEX
  8
T23SSILL
 62
17
 10
-640.588
 20
-2426.693
 30
2933.254
 70
    32
  0
VERTEX
  8
T23SSILL
 62
17
 10
-647.103
 20
-2440.640
 30
2933.292
 70
    32
  0
VERTEX
  8
T23SSILL
 62
17
 10
-655.469
 20
-2437.048
 30
2933.327
 70
    32
  0
VERTEX
  8
T23SSILL
 62
17
 10
-631.805
 20
-2384.909
 30
2933.186
 70
    32
  0
VERTEX
  8
T23SSILL
 62
17
 10
-635.707
 20
-2377.947
 30
2933.198
 70
    32
  0
VERTEX
  8
T23SSILL
 62
17
 10
-631.911
 20
-2369.781
 30
2933.176
 70
    32
  0
VERTEX
  8
T23SSILL
 62
17
 10
-679.557
 20
-2304.436
 30
2933.286
 70
    32
  0
VERTEX
  8
T23SSILL
 62
17
 10
-681.616
 20
-2304.535
 30
2933.286
 70
    32
  0
VERTEX
  8
T23SSILL
 62
17
 10
-694.963
 20
-2285.490
 30
2933.315
 70
    32
  0
VERTEX
  8
T23SSILL
 62
17
 10
-699.917
 20
-2284.438
 30
2933.323
 70
    32
  0
VERTEX
  8
T23SSILL
 62
17
 10
-698.865
 20
-2278.528
 30
2933.333
 70
    32
  0
VERTEX
  8
T23SSILL
 62
17
 10
-797.369
 20
-2147.006
 30
2933.457
 70
    32
  0
VERTEX
  8
T23SSILL
 62
17
 10
-811.499
 20
-2132.522
 30
2933.448
 70
    32
  0
VERTEX
  8
T23SSILL
 62
17
 10
-822.680
 20
-2130.738
 30
2933.501
 70
    32
  0
VERTEX
  8
T23SSILL
 62
17
 10
-830.137
 20
-2124.979
 30
2933.562
 70
    32
  0
VERTEX
  8
T23SSILL
 62
17
 10
-828.643
 20
-2119.731
 30
2933.520
 70
    32
  0
VERTEX
  8
T23SSILL
 62
17
 10
-829.266
 20
-2100.166
 30
2933.502
 70
    32
  0
VERTEX
  8
T23SSILL
 62
17
 10
-819.292
 20
-2088.196
 30
2933.506
 70
    32
  0
VERTEX
  8
T23SSILL
 62
17
 10
-814.341
 20
-2084.467
 30
2933.524
 70
    32
  0
VERTEX
  8
T23SSILL
 62
17
 10
-825.302
 20
-2039.732
 30
2933.574
 70
    32
  0
VERTEX
  8
T23SSILL
 62
17
 10
-816.915
 20
-2032.194
 30
2933.607
 70
    32
  0
VERTEX
  8
T23SSILL
 62
17
 10
-807.842
 20
-2035.279
 30
2933.644
 70
    32
  0
VERTEX
  8
T23SSILL
 62
17
 10
-778.194
 20
-1992.112
 30
2933.991
 70
    32
  0
VERTEX
  8
T23SSILL
 62
17
 10
-770.728
 20
-2018.908
 30
2933.968
 70
    32
  0
VERTEX
  8
T23SSILL
 62
17
 10
-743.879
 20
-2021.396
 30
2934.159
 70
    32
  0
VERTEX
  8
T23SSILL
 62
17
 10
-739.438
 20
-2026.616
 30
2934.177
 70
    32
  0
VERTEX
  8
T23SSILL
 62
17
 10
-733.872
 20
-2027.791
 30
2934.215
 70
    32
  0
VERTEX
  8
T23SSILL
 62
17
 10
-702.292
 20
-2026.697
 30
2934.308
 70
    32
  0
VERTEX
  8
T23SSILL
 62
17
 10
-726.682
 20
-1987.112
 30
2934.388
 70
    32
  0
VERTEX
  8
T23SSILL
 62
17
 10
-735.728
 20
-1990.093
 30
2934.312
 70
    32
  0
VERTEX
  8
T23SSILL
 62
17
 10
-741.074
 20
-1987.229
 30
2934.281
 70
    32
  0
VERTEX
  8
T23SSILL
 62
17
 10
-741.433
 20
-1978.346
 30
2934.305
 70
    32
  0
VERTEX
  8
T23SSILL
 62
17
 10
-737.213
 20
-1968.423
 30
2934.365
 70
    32
  0
VERTEX
  8
T23SSILL
 62
17
 10
-800.982
 20
-1849.195
 30
2934.245
 70
    32
  0
VERTEX
  8
T23SSILL
 62
17
 10
-855.125
 20
-1718.946
 30
2934.228
 70
    32
  0
VERTEX
  8
T23SSILL
 62
17
 10
-860.647
 20
-1718.387
 30
2934.189
 70
    32
  0
VERTEX
  8
T23SSILL
 62
17
 10
-867.671
 20
-1715.762
 30
2934.144
 70
    32
  0
VERTEX
  8
T23SSILL
 62
17
 10
-870.327
 20
-1711.495
 30
2934.137
 70
    32
  0
VERTEX
  8
T23SSILL
 62
17
 10
-972.255
 20
-1785.071
 30
2933.921
 70
    32
  0
VERTEX
  8
T23SSILL
 62
17
 10
-977.325
 20
-1778.728
 30
2933.960
 70
    32
  0
VERTEX
  8
T23SSILL
 62
17
 10
-828.365
 20
-1671.390
 30
2934.567
 70
    32
  0
VERTEX
  8
T23SSILL
 62
17
 10
-889.795
 20
-1501.589
 30
2934.613
 70
    32
  0
VERTEX
  8
T23SSILL
 62
17
 10
-881.385
 20
-1452.969
 30
2934.644
 70
    32
  0
VERTEX
  8
T23SSILL
 62
17
 10
-885.976
 20
-1448.629
 30
2934.648
 70
    32
  0
VERTEX
  8
T23SSILL
 62
17
 10
-892.784
 20
-1446.481
 30
2934.665
 70
    32
  0
VERTEX
  8
T23SSILL
 62
17
 10
-900.590
 20
-1433.296
 30
2934.652
 70
    32
  0
VERTEX
  8
T23SSILL
 62
17
 10
-893.600
 20
-1427.419
 30
2934.602
 70
    32
  0
VERTEX
  8
T23SSILL
 62
17
 10
-896.124
 20
-1420.479
 30
2934.588
 70
    32
  0
VERTEX
  8
T23SSILL
 62
17
 10
-993.368
 20
-1285.147
 30
2934.484
 70
    32
  0
VERTEX
  8
T23SSILL
 62
17
 10
-999.022
 20
-1281.752
 30
2934.458
 70
    32
  0
VERTEX
  8
T23SSILL
 62
17
 10
-1003.745
 20
-1273.326
 30
2934.462
 70
    32
  0
VERTEX
  8
T23SSILL
 62
17
 10
-1003.569
 20
-1270.313
 30
2934.467
 70
    32
  0
VERTEX
  8
T23SSILL
 62
17
 10
-1237.391
 20
-945.410
 30
2934.472
 70
    32
  0
VERTEX
  8
T23SSILL
 62
17
 10
-1426.888
 20
-686.521
 30
2935.100
 70
    32
  0
VERTEX
  8
T23SSILL
 62
17
 10
-1458.550
 20
-641.128
 30
2935.235
 70
    32
  0
VERTEX
  8
T23SSILL
 62
17
 10
-1465.682
 20
-635.385
 30
2935.303
 70
    32
  0
VERTEX
  8
T23SSILL
 62
17
 10
-1472.014
 20
-633.698
 30
2935.378
 70
    32
  0
VERTEX
  8
T23SSILL
 62
17
 10
-1482.943
 20
-622.991
 30
2935.474
 70
    32
  0
VERTEX
  8
T23SSILL
 62
17
 10
-1486.494
 20
-614.850
 30
2935.485
 70
    32
  0
VERTEX
  8
T23SSILL
 62
17
 10
-1483.042
 20
-606.745
 30
2935.404
 70
    32
  0
VERTEX
  8
T23SSILL
 62
17
 10
-1625.136
 20
-410.465
 30
2936.374
 70
    32
  0
VERTEX
  8
T23SSILL
 62
17
 10
-1630.229
 20
-395.673
 30
2936.385
 70
    32
  0
VERTEX
  8
T23SSILL
 62
17
 10
-1643.693
 20
-299.901
 30
2937.066
 70
    32
  0
VERTEX
  8
T23SSILL
 62
17
 10
-1654.742
 20
-265.556
 30
2937.246
 70
    32
  0
VERTEX
  8
T23SSILL
 62
17
 10
-1649.381
 20
-260.945
 30
2937.354
 70
    32
  0
VERTEX
  8
T23SSILL
 62
17
 10
-1649.093
 20
-256.450
 30
2937.398
 70
    32
  0
VERTEX
  8
T23SSILL
 62
17
 10
-1658.396
 20
-191.470
 30
2937.880
 70
    32
  0
VERTEX
  8
T23SSILL
 62
17
 10
-1660.031
 20
-188.214
 30
2937.890
 70
    32
  0
VERTEX
  8
T23SSILL
 62
17
 10
-1871.665
 20
108.250
 30
2938.037
 70
    32
  0
VERTEX
  8
T23SSILL
 62
17
 10
-1886.320
 20
117.007
 30
2938.065
 70
    32
  0
VERTEX
  8
T23SSILL
 62
17
 10
-1895.907
 20
126.005
 30
2938.094
 70
    32
  0
VERTEX
  8
T23SSILL
 62
17
 10
-1897.456
 20
130.328
 30
2938.106
 70
    32
  0
VERTEX
  8
T23SSILL
 62
17
 10
-1893.907
 20
138.410
 30
2938.129
 70
    32
  0
VERTEX
  8
T23SSILL
 62
17
 10
-2081.771
 20
398.491
 30
2939.133
 70
    32
  0
VERTEX
  8
T23SSILL
 62
17
 10
-2094.484
 20
397.204
 30
2939.081
 70
    32
  0
VERTEX
  8
T23SSILL
 62
17
 10
-2098.248
 20
395.193
 30
2939.061
 70
    32
  0
VERTEX
  8
T23SSILL
 62
17
 10
-2103.883
 20
403.279
 30
2939.061
 70
    32
  0
VERTEX
  8
T23SSILL
 62
17
 10
-2102.360
 20
406.698
 30
2939.076
 70
    32
  0
VERTEX
  8
T23SSILL
 62
17
 10
-2094.204
 20
414.461
 30
2939.129
 70
    32
  0
VERTEX
  8
T23SSILL
 62
17
 10
-2093.429
 20
416.672
 30
2939.138
 70
    32
  0
VERTEX
  8
T23SSILL
 62
17
 10
-2100.048
 20
422.831
 30
2939.129
 70
    32
  0
VERTEX
  8
T23SSILL
 62
17
 10
-2107.899
 20
417.915
 30
2939.085
 70
    32
  0
VERTEX
  8
T23SSILL
 62
17
 10
-2117.997
 20
426.864
 30
2939.070
 70
    32
  0
VERTEX
  8
T23SSILL
 62
17
 10
-2109.196
 20
435.977
 30
2939.129
 70
    32
  0
VERTEX
  8
T23SSILL
 62
17
 10
-2155.018
 20
501.053
 30
2939.128
 70
    32
  0
VERTEX
  8
T23SSILL
 62
17
 10
-2146.747
 20
506.550
 30
2939.171
 70
    32
  0
VERTEX
  8
T23SSILL
 62
17
 10
-2086.666
 20
421.878
 30
2939.171
 70
    32
  0
VERTEX
  8
T23SSILL
 62
17
 10
-2082.435
 20
420.735
 30
2939.172
 70
    32
  0
VERTEX
  8
T23SSILL
 62
17
 10
-2075.276
 20
413.992
 30
2939.173
 70
    32
  0
VERTEX
  8
T23SSILL
 62
17
 10
-2069.540
 20
405.324
 30
2939.173
 70
    32
  0
VERTEX
  8
T23SSILL
 62
17
 10
-2069.019
 20
397.948
 30
2939.171
 70
    32
  0
VERTEX
  8
T23SSILL
 62
17
 10
-1934.240
 20
213.446
 30
2939.000
 70
    32
  0
VERTEX
  8
T23SSILL
 62
17
 10
-1931.797
 20
213.238
 30
2939.000
 70
    32
  0
VERTEX
  8
T23SSILL
 62
17
 10
-1929.973
 20
223.683
 30
2939.000
 70
    32
  0
VERTEX
  8
T23SSILL
 62
17
 10
-1924.778
 20
240.829
 30
2939.000
 70
    32
  0
VERTEX
  8
T23SSILL
 62
17
 10
-1922.779
 20
245.065
 30
2939.000
 70
    32
  0
VERTEX
  8
T23SSILL
 62
17
 10
-1912.393
 20
280.926
 30
2939.350
 70
    32
  0
VERTEX
  8
T23SSILL
 62
17
 10
-1911.713
 20
288.040
 30
2939.350
 70
    32
  0
VERTEX
  8
T23SSILL
 62
17
 10
-1911.502
 20
289.995
 30
2939.000
 70
    32
  0
VERTEX
  8
T23SSILL
 62
17
 10
-1905.599
 20
316.547
 30
2939.000
 70
    32
  0
VERTEX
  8
T23SSILL
 62
17
 10
-1896.680
 20
335.954
 30
2939.000
 70
    32
  0
VERTEX
  8
T23SSILL
 62
17
 10
-1878.243
 20
361.694
 30
2939.000
 70
    32
  0
VERTEX
  8
T23SSILL
 62
17
 10
-1866.967
 20
372.657
 30
2939.000
 70
    32
  0
VERTEX
  8
T23SSILL
 62
17
 10
-1858.591
 20
380.718
 30
2939.000
 70
    32
  0
VERTEX
  8
T23SSILL
 62
17
 10
-1838.528
 20
391.419
 30
2939.000
 70
    32
  0
VERTEX
  8
T23SSILL
 62
17
 10
-1821.558
 20
401.598
 30
2939.000
 70
    32
  0
VERTEX
  8
T23SSILL
 62
17
 10
-1821.077
 20
402.002
 30
2938.371
 70
    32
  0
VERTEX
  8
T23SSILL
 62
17
 10
-1813.383
 20
408.128
 30
2938.371
 70
    32
  0
VERTEX
  8
T23SSILL
 62
17
 10
-1804.221
 20
414.032
 30
2938.371
 70
    32
  0
VERTEX
  8
T23SSILL
 62
17
 10
-1799.560
 20
417.373
 30
2938.371
 70
    32
  0
VERTEX
  8
T23SSILL
 62
17
 10
-1798.837
 20
419.914
 30
2938.415
 70
    32
  0
VERTEX
  8
T23SSILL
 62
17
 10
-1794.287
 20
426.523
 30
2938.415
 70
    32
  0
VERTEX
  8
T23SSILL
 62
17
 10
-1794.187
 20
432.104
 30
2938.415
 70
    32
  0
VERTEX
  8
T23SSILL
 62
17
 10
-1793.558
 20
435.145
 30
2938.415
 70
    32
  0
VERTEX
  8
T23SSILL
 62
17
 10
-1789.813
 20
437.480
 30
2938.415
 70
    32
  0
VERTEX
  8
T23SSILL
 62
17
 10
-1780.925
 20
436.719
 30
2938.415
 70
    32
  0
VERTEX
  8
T23SSILL
 62
17
 10
-1775.034
 20
437.827
 30
2938.415
 70
    32
  0
VERTEX
  8
T23SSILL
 62
17
 10
-1769.615
 20
440.536
 30
2938.415
 70
    32
  0
VERTEX
  8
T23SSILL
 62
17
 10
-1715.041
 20
481.125
 30
2939.000
 70
    32
  0
VERTEX
  8
T23SSILL
 62
17
 10
-1695.443
 20
495.327
 30
2939.215
 70
    32
  0
VERTEX
  8
T23SSILL
 62
17
 10
-1689.971
 20
488.181
 30
2939.215
 70
    32
  0
VERTEX
  8
T23SSILL
 62
17
 10
-1716.782
 20
469.335
 30
2938.815
 70
    32
  0
VERTEX
  8
T23SSILL
 62
17
 10
-1765.131
 20
433.183
 30
2938.415
 70
    32
  0
VERTEX
  8
T23SSILL
 62
17
 10
-1782.973
 20
419.536
 30
2938.415
 70
    32
  0
VERTEX
  8
T23SSILL
 62
17
 10
-1791.339
 20
412.799
 30
2938.371
 70
    32
  0
VERTEX
  8
T23SSILL
 62
17
 10
-1799.756
 20
406.253
 30
2938.371
 70
    32
  0
VERTEX
  8
T23SSILL
 62
17
 10
-1808.877
 20
399.914
 30
2938.371
 70
    32
  0
VERTEX
  8
T23SSILL
 62
17
 10
-1815.200
 20
395.349
 30
2938.371
 70
    32
  0
VERTEX
  8
T23SSILL
 62
17
 10
-1815.659
 20
395.004
 30
2939.000
 70
    32
  0
VERTEX
  8
T23SSILL
 62
17
 10
-1851.352
 20
373.688
 30
2939.000
 70
    32
  0
VERTEX
  8
T23SSILL
 62
17
 10
-1866.580
 20
360.268
 30
2939.000
 70
    32
  0
VERTEX
  8
T23SSILL
 62
17
 10
-1893.012
 20
322.958
 30
2939.000
 70
    32
  0
VERTEX
  8
T23SSILL
 62
17
 10
-1901.797
 20
290.207
 30
2939.000
 70
    32
  0
VERTEX
  8
T23SSILL
 62
17
 10
-1901.928
 20
289.749
 30
2939.350
 70
    32
  0
VERTEX
  8
T23SSILL
 62
17
 10
-1903.829
 20
279.648
 30
2939.350
 70
    32
  0
VERTEX
  8
T23SSILL
 62
17
 10
-1910.154
 20
253.375
 30
2939.000
 70
    32
  0
VERTEX
  8
T23SSILL
 62
17
 10
-1914.779
 20
240.323
 30
2939.000
 70
    32
  0
VERTEX
  8
T23SSILL
 62
17
 10
-1918.175
 20
233.612
 30
2939.000
 70
    32
  0
VERTEX
  8
T23SSILL
 62
17
 10
-1920.489
 20
225.743
 30
2939.000
 70
    32
  0
VERTEX
  8
T23SSILL
 62
17
 10
-1922.524
 20
213.991
 30
2939.000
 70
    32
  0
VERTEX
  8
T23SSILL
 62
17
 10
-1919.323
 20
209.896
 30
2939.000
 70
    32
  0
VERTEX
  8
T23SSILL
 62
17
 10
-1918.732
 20
192.058
 30
2939.000
 70
    32
  0
VERTEX
  8
T23SSILL
 62
17
 10
-1825.645
 20
63.910
 30
2937.920
 70
    32
  0
VERTEX
  8
T23SSILL
 62
17
 10
-1676.866
 20
-144.213
 30
2938.000
 70
    32
  0
VERTEX
  8
T23SSILL
 62
17
 10
-1674.946
 20
-144.158
 30
2938.000
 70
    32
  0
VERTEX
  8
T23SSILL
 62
17
 10
-1674.880
 20
-137.676
 30
2938.000
 70
    32
  0
VERTEX
  8
T23SSILL
 62
17
 10
-1671.182
 20
-125.091
 30
2938.000
 70
    32
  0
VERTEX
  8
T23SSILL
 62
17
 10
-1667.176
 20
-114.104
 30
2938.618
 70
    32
  0
VERTEX
  8
T23SSILL
 62
17
 10
-1664.349
 20
-108.079
 30
2938.618
 70
    32
  0
VERTEX
  8
T23SSILL
 62
17
 10
-1662.059
 20
-101.940
 30
2938.618
 70
    32
  0
VERTEX
  8
T23SSILL
 62
17
 10
-1659.533
 20
-98.172
 30
2938.618
 70
    32
  0
VERTEX
  8
T23SSILL
 62
17
 10
-1652.285
 20
-89.934
 30
2938.645
 70
    32
  0
VERTEX
  8
T23SSILL
 62
17
 10
-1645.650
 20
-81.434
 30
2938.645
 70
    32
  0
VERTEX
  8
T23SSILL
 62
17
 10
-1639.619
 20
-74.039
 30
2938.645
 70
    32
  0
VERTEX
  8
T23SSILL
 62
17
 10
-1629.940
 20
-65.264
 30
2938.645
 70
    32
  0
VERTEX
  8
T23SSILL
 62
17
 10
-1623.460
 20
-58.547
 30
2938.645
 70
    32
  0
VERTEX
  8
T23SSILL
 62
17
 10
-1617.820
 20
-53.220
 30
2938.645
 70
    32
  0
VERTEX
  8
T23SSILL
 62
17
 10
-1608.627
 20
-45.989
 30
2938.645
 70
    32
  0
VERTEX
  8
T23SSILL
 62
17
 10
-1601.251
 20
-40.807
 30
2938.645
 70
    32
  0
VERTEX
  8
T23SSILL
 62
17
 10
-1600.248
 20
-40.548
 30
2939.000
 70
    32
  0
VERTEX
  8
T23SSILL
 62
17
 10
-1593.142
 20
-36.618
 30
2939.000
 70
    32
  0
VERTEX
  8
T23SSILL
 62
17
 10
-1579.232
 20
-28.949
 30
2939.000
 70
    32
  0
VERTEX
  8
T23SSILL
 62
17
 10
-1566.940
 20
-21.270
 30
2939.000
 70
    32
  0
VERTEX
  8
T23SSILL
 62
17
 10
-1555.825
 20
-12.819
 30
2939.000
 70
    32
  0
VERTEX
  8
T23SSILL
 62
17
 10
-1547.781
 20
0.355
 30
2939.000
 70
    32
  0
VERTEX
  8
T23SSILL
 62
17
 10
-1550.230
 20
8.796
 30
2939.000
 70
    32
  0
VERTEX
  8
T23SSILL
 62
17
 10
-1550.416
 20
9.899
 30
2939.037
 70
    32
  0
VERTEX
  8
T23SSILL
 62
17
 10
-1550.972
 20
19.390
 30
2939.037
 70
    32
  0
VERTEX
  8
T23SSILL
 62
17
 10
-1546.938
 20
21.248
 30
2939.037
 70
    32
  0
VERTEX
  8
T23SSILL
 62
17
 10
-1540.111
 20
23.757
 30
2939.037
 70
    32
  0
VERTEX
  8
T23SSILL
 62
17
 10
-1539.569
 20
18.050
 30
2939.037
 70
    32
  0
VERTEX
  8
T23SSILL
 62
17
 10
-1527.467
 20
7.732
 30
2939.037
 70
    32
  0
VERTEX
  8
T23SSILL
 62
17
 10
-1518.982
 20
11.679
 30
2939.037
 70
    32
  0
VERTEX
  8
T23SSILL
 62
17
 10
-1512.925
 20
4.080
 30
2939.037
 70
    32
  0
VERTEX
  8
T23SSILL
 62
17
 10
-1519.823
 20
-1.905
 30
2939.037
 70
    32
  0
VERTEX
  8
T23SSILL
 62
17
 10
-1514.888
 20
-12.248
 30
2939.037
 70
    32
  0
VERTEX
  8
T23SSILL
 62
17
 10
-1498.849
 20
-18.493
 30
2939.037
 70
    32
  0
VERTEX
  8
T23SSILL
 62
17
 10
-1504.727
 20
-29.655
 30
2939.037
 70
    32
  0
VERTEX
  8
T23SSILL
 62
17
 10
-1520.130
 20
-21.192
 30
2939.037
 70
    32
  0
VERTEX
  8
T23SSILL
 62
17
 10
-1531.567
 20
-17.368
 30
2939.037
 70
    32
  0
VERTEX
  8
T23SSILL
 62
17
 10
-1532.367
 20
-17.218
 30
2939.000
 70
    32
  0
VERTEX
  8
T23SSILL
 62
17
 10
-1547.229
 20
-19.814
 30
2939.000
 70
    32
  0
VERTEX
  8
T23SSILL
 62
17
 10
-1556.185
 20
-25.167
 30
2939.000
 70
    32
  0
VERTEX
  8
T23SSILL
 62
17
 10
-1565.462
 20
-30.560
 30
2939.000
 70
    32
  0
VERTEX
  8
T23SSILL
 62
17
 10
-1576.701
 20
-38.069
 30
2939.000
 70
    32
  0
VERTEX
  8
T23SSILL
 62
17
 10
-1586.530
 20
-43.734
 30
2939.000
 70
    32
  0
VERTEX
  8
T23SSILL
 62
17
 10
-1593.601
 20
-48.384
 30
2939.000
 70
    32
  0
VERTEX
  8
T23SSILL
 62
17
 10
-1594.278
 20
-48.799
 30
2938.645
 70
    32
  0
VERTEX
  8
T23SSILL
 62
17
 10
-1599.444
 20
-51.503
 30
2938.645
 70
    32
  0
VERTEX
  8
T23SSILL
 62
17
 10
-1607.784
 20
-58.498
 30
2938.645
 70
    32
  0
VERTEX
  8
T23SSILL
 62
17
 10
-1616.022
 20
-65.058
 30
2938.645
 70
    32
  0
VERTEX
  8
T23SSILL
 62
17
 10
-1625.044
 20
-72.025
 30
2938.645
 70
    32
  0
VERTEX
  8
T23SSILL
 62
17
 10
-1631.119
 20
-78.748
 30
2938.645
 70
    32
  0
VERTEX
  8
T23SSILL
 62
17
 10
-1644.430
 20
-94.558
 30
2938.645
 70
    32
  0
VERTEX
  8
T23SSILL
 62
17
 10
-1651.085
 20
-103.452
 30
2938.618
 70
    32
  0
VERTEX
  8
T23SSILL
 62
17
 10
-1653.427
 20
-106.385
 30
2938.618
 70
    32
  0
VERTEX
  8
T23SSILL
 62
17
 10
-1656.926
 20
-113.159
 30
2938.618
 70
    32
  0
VERTEX
  8
T23SSILL
 62
17
 10
-1658.340
 20
-116.348
 30
2938.618
 70
    32
  0
VERTEX
  8
T23SSILL
 62
17
 10
-1662.346
 20
-127.454
 30
2938.000
 70
    32
  0
VERTEX
  8
T23SSILL
 62
17
 10
-1665.763
 20
-140.449
 30
2938.000
 70
    32
  0
VERTEX
  8
T23SSILL
 62
17
 10
-1666.472
 20
-151.731
 30
2938.000
 70
    32
  0
VERTEX
  8
T23SSILL
 62
17
 10
-1664.707
 20
-161.719
 30
2938.000
 70
    32
  0
VERTEX
  8
T23SSILL
 62
17
 10
-1653.683
 20
-177.652
 30
2937.972
 70
    32
  0
VERTEX
  8
T23SSILL
 62
17
 10
-1647.567
 20
-188.078
 30
2937.966
 70
    32
  0
VERTEX
  8
T23SSILL
 62
17
 10
-1645.982
 20
-193.410
 30
2937.949
 70
    32
  0
VERTEX
  8
T23SSILL
 62
17
 10
-1620.358
 20
-390.912
 30
2936.464
 70
    32
  0
VERTEX
  8
T23SSILL
 62
17
 10
-1616.454
 20
-402.778
 30
2936.385
 70
    32
  0
VERTEX
  8
T23SSILL
 62
17
 10
-1229.124
 20
-944.972
 30
2934.485
 70
    32
  0
VERTEX
  8
T23SSILL
 62
17
 10
-1227.630
 20
-938.268
 30
2934.490
 70
    32
  0
VERTEX
  8
T23SSILL
 62
17
 10
-1224.236
 20
-930.900
 30
2934.500
 70
    32
  0
VERTEX
  8
T23SSILL
 62
17
 10
-1216.456
 20
-922.123
 30
2934.587
 70
    32
  0
VERTEX
  8
T23SSILL
 62
17
 10
-1102.369
 20
-840.239
 30
2935.839
 70
    32
  0
VERTEX
  8
T23SSILL
 62
17
 10
-1102.629
 20
-837.526
 30
2935.853
 70
    32
  0
VERTEX
  8
T23SSILL
 62
17
 10
-1099.234
 20
-833.585
 30
2935.883
 70
    32
  0
VERTEX
  8
T23SSILL
 62
17
 10
-1093.195
 20
-829.753
 30
2935.919
 70
    32
  0
VERTEX
  8
T23SSILL
 62
17
 10
-1087.959
 20
-829.579
 30
2935.933
 70
    32
  0
VERTEX
  8
T23SSILL
 62
17
 10
-947.388
 20
-728.966
 30
2936.830
 70
    32
  0
VERTEX
  8
T23SSILL
 62
17
 10
-942.046
 20
-733.957
 30
2936.816
 70
    32
  0
VERTEX
  8
T23SSILL
 62
17
 10
-1009.473
 20
-782.674
 30
2936.384
 70
    32
  0
VERTEX
  8
T23SSILL
 62
17
 10
-1005.218
 20
-789.173
 30
2936.359
 70
    32
  0
VERTEX
  8
T23SSILL
 62
17
 10
-1028.673
 20
-805.838
 30
2936.210
 70
    32
  0
VERTEX
  8
T23SSILL
 62
17
 10
-1033.223
 20
-799.221
 30
2936.235
 70
    32
  0
VERTEX
  8
T23SSILL
 62
17
 10
-1043.234
 20
-807.712
 30
2936.164
 70
    32
  0
VERTEX
  8
T23SSILL
 62
17
 10
-1041.539
 20
-809.866
 30
2936.156
 70
    32
  0
VERTEX
  8
T23SSILL
 62
17
 10
-1033.639
 20
-812.788
 30
2936.160
 70
    32
  0
VERTEX
  8
T23SSILL
 62
17
 10
-965.317
 20
-864.014
 30
2936.057
 70
    32
  0
VERTEX
  8
T23SSILL
 62
17
 10
-948.938
 20
-857.463
 30
2936.134
 70
    32
  0
VERTEX
  8
T23SSILL
 62
17
 10
-945.633
 20
-859.153
 30
2936.133
 70
    32
  0
VERTEX
  8
T23SSILL
 62
17
 10
-939.579
 20
-864.843
 30
2936.118
 70
    32
  0
VERTEX
  8
T23SSILL
 62
17
 10
-935.028
 20
-873.173
 30
2936.084
 70
    32
  0
VERTEX
  8
T23SSILL
 62
17
 10
-934.800
 20
-878.800
 30
2936.055
 70
    32
  0
VERTEX
  8
T23SSILL
 62
17
 10
-938.217
 20
-884.577
 30
2936.015
 70
    32
  0
VERTEX
  8
T23SSILL
 62
17
 10
-902.267
 20
-911.155
 30
2935.963
 70
    32
  0
VERTEX
  8
T23SSILL
 62
17
 10
-897.109
 20
-909.000
 30
2935.987
 70
    32
  0
VERTEX
  8
T23SSILL
 62
17
 10
-883.255
 20
-915.753
 30
2935.986
 70
    32
  0
VERTEX
  8
T23SSILL
 62
17
 10
-872.953
 20
-908.244
 30
2936.052
 70
    32
  0
VERTEX
  8
T23SSILL
 62
17
 10
-869.036
 20
-913.151
 30
2936.036
 70
    32
  0
VERTEX
  8
T23SSILL
 62
17
 10
-885.231
 20
-924.715
 30
2935.933
 70
    32
  0
VERTEX
  8
T23SSILL
 62
17
 10
-887.847
 20
-936.796
 30
2935.861
 70
    32
  0
VERTEX
  8
T23SSILL
 62
17
 10
-870.941
 20
-959.978
 30
2935.779
 70
    32
  0
VERTEX
  8
T23SSILL
 62
17
 10
-878.211
 20
-976.973
 30
2935.669
 70
    32
  0
VERTEX
  8
T23SSILL
 62
17
 10
-847.496
 20
-1010.579
 30
2935.566
 70
    32
  0
VERTEX
  8
T23SSILL
 62
17
 10
-822.274
 20
-1024.829
 30
2935.553
 70
    32
  0
VERTEX
  8
T23SSILL
 62
17
 10
-808.543
 20
-1034.985
 30
2935.533
 70
    32
  0
VERTEX
  8
T23SSILL
 62
17
 10
-800.086
 20
-1025.635
 30
2935.604
 70
    32
  0
VERTEX
  8
T23SSILL
 62
17
 10
-787.446
 20
-1024.547
 30
2935.642
 70
    32
  0
VERTEX
  8
T23SSILL
 62
17
 10
-784.918
 20
-1035.232
 30
2935.591
 70
    32
  0
VERTEX
  8
T23SSILL
 62
17
 10
-777.708
 20
-1049.765
 30
2935.531
 70
    32
  0
VERTEX
  8
T23SSILL
 62
17
 10
-777.455
 20
-1067.264
 30
2935.437
 70
    32
  0
VERTEX
  8
T23SSILL
 62
17
 10
-772.419
 20
-1070.226
 30
2935.434
 70
    32
  0
VERTEX
  8
T23SSILL
 62
17
 10
-764.051
 20
-1064.673
 30
2935.485
 70
    32
  0
VERTEX
  8
T23SSILL
 62
17
 10
-760.036
 20
-1070.756
 30
2935.463
 70
    32
  0
VERTEX
  8
T23SSILL
 62
17
 10
-782.420
 20
-1087.921
 30
2935.313
 70
    32
  0
VERTEX
  8
T23SSILL
 62
17
 10
-785.968
 20
-1101.607
 30
2935.231
 70
    32
  0
VERTEX
  8
T23SSILL
 62
17
 10
-796.249
 20
-1103.321
 30
2935.196
 70
    32
  0
VERTEX
  8
T23SSILL
 62
17
 10
-803.255
 20
-1114.780
 30
2935.116
 70
    32
  0
VERTEX
  8
T23SSILL
 62
17
 10
-818.918
 20
-1113.342
 30
2935.084
 70
    32
  0
VERTEX
  8
T23SSILL
 62
17
 10
-844.958
 20
-1132.320
 30
2934.916
 70
    32
  0
VERTEX
  8
T23SSILL
 62
17
 10
-840.594
 20
-1139.601
 30
2934.888
 70
    32
  0
VERTEX
  8
T23SSILL
 62
17
 10
-831.411
 20
-1149.994
 30
2934.855
 70
    32
  0
VERTEX
  8
T23SSILL
 62
17
 10
-816.358
 20
-1156.778
 30
2934.857
 70
    32
  0
VERTEX
  8
T23SSILL
 62
17
 10
-807.927
 20
-1155.799
 30
2934.883
 70
    32
  0
VERTEX
  8
T23SSILL
 62
17
 10
-798.868
 20
-1162.743
 30
2934.869
 70
    32
  0
VERTEX
  8
T23SSILL
 62
17
 10
-781.923
 20
-1203.891
 30
2934.752
 70
    32
  0
VERTEX
  8
T23SSILL
 62
17
 10
-777.394
 20
-1222.625
 30
2934.715
 70
    32
  0
VERTEX
  8
T23SSILL
 62
17
 10
-765.307
 20
-1235.840
 30
2934.706
 70
    32
  0
VERTEX
  8
T23SSILL
 62
17
 10
-757.057
 20
-1242.697
 30
2934.705
 70
    32
  0
VERTEX
  8
T23SSILL
 62
17
 10
-753.967
 20
-1241.429
 30
2934.714
 70
    32
  0
VERTEX
  8
T23SSILL
 62
17
 10
-751.677
 20
-1237.283
 30
2934.728
 70
    32
  0
VERTEX
  8
T23SSILL
 62
17
 10
-751.418
 20
-1234.856
 30
2934.735
 70
    32
  0
VERTEX
  8
T23SSILL
 62
17
 10
-753.277
 20
-1231.530
 30
2934.739
 70
    32
  0
VERTEX
  8
T23SSILL
 62
17
 10
-752.628
 20
-1223.908
 30
2934.759
 70
    32
  0
VERTEX
  8
T23SSILL
 62
17
 10
-740.216
 20
-1225.760
 30
2934.778
 70
    32
  0
VERTEX
  8
T23SSILL
 62
17
 10
-739.428
 20
-1237.964
 30
2934.750
 70
    32
  0
VERTEX
  8
T23SSILL
 62
17
 10
-734.272
 20
-1247.485
 30
2934.737
 70
    32
  0
VERTEX
  8
T23SSILL
 62
17
 10
-743.125
 20
-1258.285
 30
2934.694
 70
    32
  0
VERTEX
  8
T23SSILL
 62
17
 10
-742.710
 20
-1264.961
 30
2934.678
 70
    32
  0
VERTEX
  8
T23SSILL
 62
17
 10
-733.488
 20
-1267.937
 30
2934.689
 70
    32
  0
VERTEX
  8
T23SSILL
 62
17
 10
-724.849
 20
-1261.032
 30
2934.722
 70
    32
  0
VERTEX
  8
T23SSILL
 62
17
 10
-719.880
 20
-1267.790
 30
2934.715
 70
    32
  0
VERTEX
  8
T23SSILL
 62
17
 10
-705.683
 20
-1257.598
 30
2934.767
 70
    32
  0
VERTEX
  8
T23SSILL
 62
17
 10
-701.597
 20
-1262.606
 30
2934.762
 70
    32
  0
VERTEX
  8
T23SSILL
 62
17
 10
-716.275
 20
-1273.343
 30
2934.708
 70
    32
  0
VERTEX
  8
T23SSILL
 62
17
 10
-708.129
 20
-1284.877
 30
2934.696
 70
    32
  0
VERTEX
  8
T23SSILL
 62
17
 10
-699.238
 20
-1292.043
 30
2934.696
 70
    32
  0
VERTEX
  8
T23SSILL
 62
17
 10
-681.864
 20
-1317.152
 30
2934.668
 70
    32
  0
VERTEX
  8
T23SSILL
 62
17
 10
-691.994
 20
-1325.939
 30
2934.633
 70
    32
  0
VERTEX
  8
T23SSILL
 62
17
 10
-702.689
 20
-1315.837
 30
2934.635
 70
    32
  0
VERTEX
  8
T23SSILL
 62
17
 10
-713.421
 20
-1308.330
 30
2934.635
 70
    32
  0
VERTEX
  8
T23SSILL
 62
17
 10
-718.726
 20
-1305.445
 30
2934.634
 70
    32
  0
VERTEX
  8
T23SSILL
 62
17
 10
-721.075
 20
-1307.167
 30
2934.631
 70
    32
  0
VERTEX
  8
T23SSILL
 62
17
 10
-712.684
 20
-1317.034
 30
2934.628
 70
    32
  0
VERTEX
  8
T23SSILL
 62
17
 10
-703.142
 20
-1333.712
 30
2934.619
 70
    32
  0
VERTEX
  8
T23SSILL
 62
17
 10
-687.252
 20
-1335.637
 30
2934.628
 70
    32
  0
VERTEX
  8
T23SSILL
 62
17
 10
-684.111
 20
-1341.295
 30
2934.625
 70
    32
  0
VERTEX
  8
T23SSILL
 62
17
 10
-684.613
 20
-1357.385
 30
2934.611
 70
    32
  0
VERTEX
  8
T23SSILL
 62
17
 10
-678.176
 20
-1367.524
 30
2934.606
 70
    32
  0
VERTEX
  8
T23SSILL
 62
17
 10
-673.022
 20
-1371.904
 30
2934.606
 70
    32
  0
VERTEX
  8
T23SSILL
 62
17
 10
-664.491
 20
-1367.645
 30
2934.615
 70
    32
  0
VERTEX
  8
T23SSILL
 62
17
 10
-653.549
 20
-1386.359
 30
2934.605
 70
    32
  0
VERTEX
  8
T23SSILL
 62
17
 10
-644.308
 20
-1394.035
 30
2934.605
 70
    32
  0
VERTEX
  8
T23SSILL
 62
17
 10
-639.262
 20
-1401.061
 30
2934.602
 70
    32
  0
VERTEX
  8
T23SSILL
 62
17
 10
-657.577
 20
-1414.298
 30
2934.579
 70
    32
  0
VERTEX
  8
T23SSILL
 62
17
 10
-659.776
 20
-1419.666
 30
2934.573
 70
    32
  0
VERTEX
  8
T23SSILL
 62
17
 10
-654.884
 20
-1427.869
 30
2934.569
 70
    32
  0
VERTEX
  8
T23SSILL
 62
17
 10
-664.050
 20
-1442.419
 30
2934.550
 70
    32
  0
VERTEX
  8
T23SSILL
 62
17
 10
-660.517
 20
-1451.449
 30
2934.544
 70
    32
  0
VERTEX
  8
T23SSILL
 62
17
 10
-656.231
 20
-1448.181
 30
2934.550
 70
    32
  0
VERTEX
  8
T23SSILL
 62
17
 10
-650.335
 20
-1456.443
 30
2934.547
 70
    32
  0
VERTEX
  8
T23SSILL
 62
17
 10
-646.963
 20
-1456.051
 30
2934.549
 70
    32
  0
VERTEX
  8
T23SSILL
 62
17
 10
-634.256
 20
-1449.455
 30
2934.563
 70
    32
  0
VERTEX
  8
T23SSILL
 62
17
 10
-624.433
 20
-1458.443
 30
2934.561
 70
    32
  0
VERTEX
  8
T23SSILL
 62
17
 10
-630.681
 20
-1469.916
 30
2934.547
 70
    32
  0
VERTEX
  8
T23SSILL
 62
17
 10
-627.477
 20
-1473.174
 30
2934.547
 70
    32
  0
VERTEX
  8
T23SSILL
 62
17
 10
-628.608
 20
-1476.201
 30
2934.543
 70
    32
  0
VERTEX
  8
T23SSILL
 62
17
 10
-620.098
 20
-1489.199
 30
2934.538
 70
    32
  0
VERTEX
  8
T23SSILL
 62
17
 10
-607.355
 20
-1481.721
 30
2934.552
 70
    32
  0
VERTEX
  8
T23SSILL
 62
17
 10
-602.014
 20
-1485.438
 30
2934.552
 70
    32
  0
VERTEX
  8
T23SSILL
 62
17
 10
-599.367
 20
-1497.541
 30
2934.544
 70
    32
  0
VERTEX
  8
T23SSILL
 62
17
 10
-586.984
 20
-1519.441
 30
2934.532
 70
    32
  0
VERTEX
  8
T23SSILL
 62
17
 10
-581.237
 20
-1536.052
 30
2934.522
 70
    32
  0
VERTEX
  8
T23SSILL
 62
17
 10
-587.354
 20
-1539.616
 30
2934.515
 70
    32
  0
VERTEX
  8
T23SSILL
 62
17
 10
-589.035
 20
-1541.844
 30
2934.512
 70
    32
  0
VERTEX
  8
T23SSILL
 62
17
 10
-588.880
 20
-1544.093
 30
2934.510
 70
    32
  0
VERTEX
  8
T23SSILL
 62
17
 10
-594.088
 20
-1549.603
 30
2934.502
 70
    32
  0
VERTEX
  8
T23SSILL
 62
17
 10
-593.578
 20
-1559.533
 30
2934.493
 70
    32
  0
VERTEX
  8
T23SSILL
 62
17
 10
-590.455
 20
-1560.492
 30
2934.495
 70
    32
  0
VERTEX
  8
T23SSILL
 62
17
 10
-588.501
 20
-1563.646
 30
2934.493
 70
    32
  0
VERTEX
  8
T23SSILL
 62
17
 10
-581.775
 20
-1588.688
 30
2934.476
 70
    32
  0
VERTEX
  8
T23SSILL
 62
17
 10
-580.565
 20
-1599.637
 30
2934.467
 70
    32
  0
VERTEX
  8
T23SSILL
 62
17
 10
-577.192
 20
-1599.245
 30
2934.469
 70
    32
  0
VERTEX
  8
T23SSILL
 62
17
 10
-571.991
 20
-1617.088
 30
2934.457
 70
    32
  0
VERTEX
  8
T23SSILL
 62
17
 10
-567.895
 20
-1621.019
 30
2934.456
 70
    32
  0
VERTEX
  8
T23SSILL
 62
17
 10
-563.464
 20
-1621.078
 30
2934.459
 70
    32
  0
VERTEX
  8
T23SSILL
 62
17
 10
-421.578
 20
-1519.969
 30
2934.672
 70
    32
  0
VERTEX
  8
T23SSILL
 62
17
 10
-416.631
 20
-1524.921
 30
2934.669
 70
    32
  0
VERTEX
  8
T23SSILL
 62
17
 10
-556.618
 20
-1622.437
 30
2934.462
 70
    32
  0
VERTEX
  8
T23SSILL
 62
17
 10
-559.212
 20
-1633.839
 30
2934.451
 70
    32
  0
VERTEX
  8
T23SSILL
 62
17
 10
-558.205
 20
-1637.737
 30
2934.448
 70
    32
  0
VERTEX
  8
T23SSILL
 62
17
 10
-553.985
 20
-1643.742
 30
2934.446
 70
    32
  0
VERTEX
  8
T23SSILL
 62
17
 10
-543.563
 20
-1647.096
 30
2934.449
 70
    32
  0
VERTEX
  8
T23SSILL
 62
17
 10
-537.406
 20
-1652.022
 30
2934.449
 70
    32
  0
VERTEX
  8
T23SSILL
 62
17
 10
-534.658
 20
-1655.821
 30
2934.447
 70
    32
  0
VERTEX
  8
T23SSILL
 62
17
 10
-532.301
 20
-1663.494
 30
2934.442
 70
    32
  0
VERTEX
  8
T23SSILL
 62
17
 10
-523.255
 20
-1660.008
 30
2934.451
 70
    32
  0
VERTEX
  8
T23SSILL
 62
17
 10
-517.060
 20
-1696.048
 30
2934.424
 70
    32
  0
VERTEX
  8
T23SSILL
 62
17
 10
-516.078
 20
-1697.838
 30
2934.423
 70
    32
  0
VERTEX
  8
T23SSILL
 62
17
 10
-514.043
 20
-1696.905
 30
2934.425
 70
    32
  0
VERTEX
  8
T23SSILL
 62
17
 10
-510.510
 20
-1701.881
 30
2934.423
 70
    32
  0
VERTEX
  8
T23SSILL
 62
17
 10
-513.672
 20
-1703.991
 30
2934.419
 70
    32
  0
VERTEX
  8
T23SSILL
 62
17
 10
-508.199
 20
-1716.811
 30
2934.411
 70
    32
  0
VERTEX
  8
T23SSILL
 62
17
 10
-501.107
 20
-1728.871
 30
2934.405
 70
    32
  0
VERTEX
  8
T23SSILL
 62
17
 10
-506.695
 20
-1732.920
 30
2934.398
 70
    32
  0
VERTEX
  8
T23SSILL
 62
17
 10
-508.706
 20
-1733.092
 30
2934.397
 70
    32
  0
VERTEX
  8
T23SSILL
 62
17
 10
-433.876
 20
-1782.953
 30
2934.401
 70
    32
  0
VERTEX
  8
T23SSILL
 62
17
 10
-309.012
 20
-1772.142
 30
2934.491
 70
    32
  0
VERTEX
  8
T23SSILL
 62
17
 10
-308.907
 20
-1779.724
 30
2934.484
 70
    32
  0
VERTEX
  8
T23SSILL
 62
17
 10
-422.202
 20
-1789.617
 30
2934.403
 70
    32
  0
VERTEX
  8
T23SSILL
 62
17
 10
-380.506
 20
-1818.652
 30
2934.405
 70
    32
  0
VERTEX
  8
T23SSILL
 62
17
 10
-359.932
 20
-1824.797
 30
2934.412
 70
    32
  0
VERTEX
  8
T23SSILL
 62
17
 10
-352.231
 20
-1829.967
 30
2934.413
 70
    32
  0
VERTEX
  8
T23SSILL
 62
17
 10
-372.750
 20
-1836.327
 30
2934.394
 70
    32
  0
VERTEX
  8
T23SSILL
 62
17
 10
-373.217
 20
-1834.831
 30
2934.395
 70
    32
  0
VERTEX
  8
T23SSILL
 62
17
 10
-380.868
 20
-1832.285
 30
2934.393
 70
    32
  0
VERTEX
  8
T23SSILL
 62
17
 10
-448.930
 20
-1835.406
 30
2934.346
 70
    32
  0
VERTEX
  8
T23SSILL
 62
17
 10
-452.729
 20
-1838.473
 30
2934.341
 70
    32
  0
VERTEX
  8
T23SSILL
 62
17
 10
-444.925
 20
-1854.308
 30
2934.332
 70
    32
  0
VERTEX
  8
T23SSILL
 62
17
 10
-446.002
 20
-1858.428
 30
2934.328
 70
    32
  0
VERTEX
  8
T23SSILL
 62
17
 10
-457.620
 20
-1866.819
 30
2934.313
 70
    32
  0
VERTEX
  8
T23SSILL
 62
17
 10
-469.262
 20
-1877.244
 30
2934.297
 70
    32
  0
VERTEX
  8
T23SSILL
 62
17
 10
-469.209
 20
-1884.330
 30
2934.291
 70
    32
  0
VERTEX
  8
T23SSILL
 62
17
 10
-472.588
 20
-1893.600
 30
2934.280
 70
    32
  0
VERTEX
  8
T23SSILL
 62
17
 10
-492.964
 20
-1893.487
 30
2934.281
 70
    32
  0
VERTEX
  8
T23SSILL
 62
17
 10
-501.400
 20
-1889.445
 30
2934.279
 70
    32
  0
VERTEX
  8
T23SSILL
 62
17
 10
-505.399
 20
-1884.887
 30
2934.273
 70
    32
  0
VERTEX
  8
T23SSILL
 62
17
 10
-516.416
 20
-1867.263
 30
2934.275
 70
    32
  0
VERTEX
  8
T23SSILL
 62
17
 10
-504.606
 20
-1849.285
 30
2934.299
 70
    32
  0
VERTEX
  8
T23SSILL
 62
17
 10
-507.942
 20
-1846.197
 30
2934.299
 70
    32
  0
VERTEX
  8
T23SSILL
 62
17
 10
-516.378
 20
-1844.387
 30
2934.295
 70
    32
  0
VERTEX
  8
T23SSILL
 62
17
 10
-518.245
 20
-1834.899
 30
2934.302
 70
    32
  0
VERTEX
  8
T23SSILL
 62
17
 10
-550.231
 20
-1859.114
 30
2934.261
 70
    32
  0
VERTEX
  8
T23SSILL
 62
17
 10
-554.098
 20
-1875.298
 30
2934.294
 70
    32
  0
VERTEX
  8
T23SSILL
 62
17
 10
-553.651
 20
-1885.841
 30
2934.317
 70
    32
  0
VERTEX
  8
T23SSILL
 62
17
 10
-511.255
 20
-1944.911
 30
2934.412
 70
    32
  0
VERTEX
  8
T23SSILL
 62
17
 10
-508.486
 20
-1942.532
 30
2934.405
 70
    32
  0
VERTEX
  8
T23SSILL
 62
17
 10
-504.894
 20
-1901.361
 30
2934.309
 70
    32
  0
VERTEX
  8
T23SSILL
 62
17
 10
-491.927
 20
-1901.361
 30
2934.298
 70
    32
  0
VERTEX
  8
T23SSILL
 62
17
 10
-494.176
 20
-1917.986
 30
2934.337
 70
    32
  0
VERTEX
  8
T23SSILL
 62
17
 10
-480.520
 20
-1920.748
 30
2934.452
 70
    32
  0
VERTEX
  8
T23SSILL
 62
17
 10
-472.099
 20
-1926.064
 30
2934.826
 70
    32
  0
VERTEX
  8
T23SSILL
 62
17
 10
-506.250
 20
-1952.412
 30
2934.425
 70
    32
  0
VERTEX
  8
T23SSILL
 62
17
 10
-453.427
 20
-2025.674
 30
2934.419
 70
    32
  0
VERTEX
  8
T23SSILL
 62
17
 10
-420.385
 20
-2006.068
 30
2934.433
 70
    32
  0
VERTEX
  8
T23SSILL
 62
17
 10
-400.228
 20
-2010.791
 30
2934.436
 70
    32
  0
VERTEX
  8
T23SSILL
 62
17
 10
-421.061
 20
-1971.084
 30
2934.391
 70
    32
  0
VERTEX
  8
T23SSILL
 62
17
 10
-414.733
 20
-1968.005
 30
2934.378
 70
    32
  0
VERTEX
  8
T23SSILL
 62
17
 10
-392.750
 20
-2009.733
 30
2934.438
 70
    32
  0
VERTEX
  8
T23SSILL
 62
17
 10
-387.724
 20
-2009.780
 30
2934.440
 70
    32
  0
VERTEX
  8
T23SSILL
 62
17
 10
-383.381
 20
-2015.809
 30
2934.439
 70
    32
  0
VERTEX
  8
T23SSILL
 62
17
 10
-381.248
 20
-2015.661
 30
2934.439
 70
    32
  0
VERTEX
  8
T23SSILL
 62
17
 10
-380.143
 20
-2018.431
 30
2934.438
 70
    32
  0
VERTEX
  8
T23SSILL
 62
17
 10
-367.485
 20
-2031.984
 30
2934.437
 70
    32
  0
VERTEX
  8
T23SSILL
 62
17
 10
-376.505
 20
-2039.173
 30
2934.432
 70
    32
  0
VERTEX
  8
T23SSILL
 62
17
 10
-367.314
 20
-2057.824
 30
2934.428
 70
    32
  0
VERTEX
  8
T23SSILL
 62
17
 10
-364.657
 20
-2051.672
 30
2934.431
 70
    32
  0
VERTEX
  8
T23SSILL
 62
17
 10
-353.107
 20
-2053.530
 30
2934.433
 70
    32
  0
VERTEX
  8
T23SSILL
 62
17
 10
-351.340
 20
-2058.408
 30
2934.431
 70
    32
  0
VERTEX
  8
T23SSILL
 62
17
 10
-339.274
 20
-2063.748
 30
2934.432
 70
    32
  0
VERTEX
  8
T23SSILL
 62
17
 10
-338.507
 20
-2078.115
 30
2934.428
 70
    32
  0
VERTEX
  8
T23SSILL
 62
17
 10
-344.218
 20
-2082.777
 30
2934.425
 70
    32
  0
VERTEX
  8
T23SSILL
 62
17
 10
-348.436
 20
-2094.172
 30
2934.420
 70
    32
  0
VERTEX
  8
T23SSILL
 62
17
 10
-303.298
 20
-2179.900
 30
2934.401
 70
    32
  0
VERTEX
  8
T23SSILL
 62
17
 10
-294.646
 20
-2177.445
 30
2934.404
 70
    32
  0
VERTEX
  8
T23SSILL
 62
17
 10
-303.750
 20
-2160.139
 30
2934.408
 70
    32
  0
VERTEX
  8
T23SSILL
 62
17
 10
-298.115
 20
-2152.339
 30
2934.412
 70
    32
  0
VERTEX
  8
T23SSILL
 62
17
 10
-292.525
 20
-2151.479
 30
2934.413
 70
    32
  0
VERTEX
  8
T23SSILL
 62
17
 10
-290.807
 20
-2155.009
 30
2934.412
 70
    32
  0
VERTEX
  8
T23SSILL
 62
17
 10
-280.929
 20
-2147.035
 30
2934.417
 70
    32
  0
VERTEX
  8
T23SSILL
 62
17
 10
-278.071
 20
-2177.119
 30
2934.408
 70
    32
  0
VERTEX
  8
T23SSILL
 62
17
 10
-272.428
 20
-2184.619
 30
2934.407
 70
    32
  0
VERTEX
  8
T23SSILL
 62
17
 10
-281.865
 20
-2190.704
 30
2934.402
 70
    32
  0
VERTEX
  8
T23SSILL
 62
17
 10
-288.023
 20
-2206.192
 30
2934.402
 70
    32
  0
VERTEX
  8
T23SSILL
 62
17
 10
-294.929
 20
-2245.556
 30
2934.428
 70
    32
  0
VERTEX
  8
T23SSILL
 62
17
 10
-233.160
 20
-2331.540
 30
2934.481
 70
    32
  0
VERTEX
  8
T23SSILL
 62
17
 10
-228.887
 20
-2321.269
 30
2934.474
 70
    32
  0
VERTEX
  8
T23SSILL
 62
17
 10
-223.404
 20
-2315.226
 30
2934.469
 70
    32
  0
VERTEX
  8
T23SSILL
 62
17
 10
-109.172
 20
-2233.364
 30
2934.428
 70
    32
  0
VERTEX
  8
T23SSILL
 62
17
 10
-107.451
 20
-2223.257
 30
2934.432
 70
    32
  0
VERTEX
  8
T23SSILL
 62
17
 10
-138.021
 20
-2143.233
 30
2934.452
 70
    32
  0
VERTEX
  8
T23SSILL
 62
17
 10
-130.088
 20
-2140.017
 30
2934.455
 70
    32
  0
VERTEX
  8
T23SSILL
 62
17
 10
-98.839
 20
-2224.971
 30
2934.434
 70
    32
  0
VERTEX
  8
T23SSILL
 62
17
 10
-95.311
 20
-2223.053
 30
2934.435
 70
    32
  0
VERTEX
  8
T23SSILL
 62
17
 10
-90.150
 20
-2228.972
 30
2934.434
 70
    32
  0
VERTEX
  8
T23SSILL
 62
17
 10
-107.361
 20
-2240.762
 30
2934.426
 70
    32
  0
VERTEX
  8
T23SSILL
 62
17
 10
-103.883
 20
-2248.960
 30
2934.424
 70
    32
  0
VERTEX
  8
T23SSILL
 62
17
 10
-96.961
 20
-2254.536
 30
2934.424
 70
    32
  0
VERTEX
  8
T23SSILL
 62
17
 10
-20.200
 20
-2361.859
 30
2934.489
 70
    32
  0
VERTEX
  8
T23SSILL
 62
17
 10
-26.079
 20
-2365.459
 30
2934.491
 70
    32
  0
VERTEX
  8
T23SSILL
 62
17
 10
-101.910
 20
-2259.174
 30
2934.426
 70
    32
  0
VERTEX
  8
T23SSILL
 62
17
 10
-112.613
 20
-2253.228
 30
2934.423
 70
    32
  0
VERTEX
  8
T23SSILL
 62
17
 10
-122.018
 20
-2251.862
 30
2934.423
 70
    32
  0
VERTEX
  8
T23SSILL
 62
17
 10
-219.651
 20
-2321.226
 30
2934.473
 70
    32
  0
VERTEX
  8
T23SSILL
 62
17
 10
-225.676
 20
-2330.081
 30
2934.479
 70
    32
  0
VERTEX
  8
T23SSILL
 62
17
 10
-226.840
 20
-2334.210
 30
2934.482
 70
    32
  0
VERTEX
  8
T23SSILL
 62
17
 10
-226.427
 20
-2339.666
 30
2934.485
 70
    32
  0
VERTEX
  8
T23SSILL
 62
17
 10
63.654
 20
-2747.639
 30
2934.578
 70
    32
  0
VERTEX
  8
T23SSILL
 62
17
 10
178.461
 20
-2906.779
 30
2934.477
 70
    32
  0
VERTEX
  8
T23SSILL
 62
17
 10
186.082
 20
-2913.366
 30
2934.475
 70
    32
  0
VERTEX
  8
T23SSILL
 62
17
 10
192.947
 20
-2915.185
 30
2934.477
 70
    32
  0
VERTEX
  8
T23SSILL
 62
17
 10
605.559
 20
-2925.048
 30
2934.417
 70
    32
  0
VERTEX
  8
T23SSILL
 62
17
 10
591.192
 20
-2903.182
 30
2934.496
 70
    32
  0
VERTEX
  8
T23SSILL
 62
17
 10
582.679
 20
-2904.808
 30
2934.492
 70
    32
  0
VERTEX
  8
T23SSILL
 62
17
 10
570.381
 20
-2888.709
 30
2934.548
 70
    32
  0
VERTEX
  8
T23SSILL
 62
17
 10
576.130
 20
-2883.320
 30
2934.565
 70
    32
  0
VERTEX
  8
T23SSILL
 62
17
 10
570.020
 20
-2874.895
 30
2934.593
 70
    32
  0
VERTEX
  8
T23SSILL
 62
17
 10
567.969
 20
-2875.475
 30
2934.591
 70
    32
  0
VERTEX
  8
T23SSILL
 62
17
 10
556.240
 20
-2868.043
 30
2934.615
 70
    32
  0
VERTEX
  8
T23SSILL
 62
17
 10
550.100
 20
-2862.092
 30
2934.634
 70
    32
  0
VERTEX
  8
T23SSILL
 62
17
 10
544.050
 20
-2863.191
 30
2934.630
 70
    32
  0
VERTEX
  8
T23SSILL
 62
17
 10
544.166
 20
-2858.430
 30
2934.645
 70
    32
  0
VERTEX
  8
T23SSILL
 62
17
 10
524.308
 20
-2855.032
 30
2934.656
 70
    32
  0
VERTEX
  8
T23SSILL
 62
17
 10
523.922
 20
-2856.553
 30
2934.652
 70
    32
  0
VERTEX
  8
T23SSILL
 62
17
 10
522.025
 20
-2857.123
 30
2934.650
 70
    32
  0
VERTEX
  8
T23SSILL
 62
17
 10
516.351
 20
-2857.266
 30
2934.650
 70
    32
  0
VERTEX
  8
T23SSILL
 62
17
 10
510.697
 20
-2856.280
 30
2934.653
 70
    32
  0
VERTEX
  8
T23SSILL
 62
17
 10
505.118
 20
-2852.789
 30
2934.664
 70
    32
  0
VERTEX
  8
T23SSILL
 62
17
 10
500.632
 20
-2843.785
 30
2934.692
 70
    32
  0
VERTEX
  8
T23SSILL
 62
17
 10
502.630
 20
-2841.468
 30
2934.699
 70
    32
  0
VERTEX
  8
T23SSILL
 62
17
 10
497.358
 20
-2830.288
 30
2934.734
 70
    32
  0
VERTEX
  8
T23SSILL
 62
17
 10
498.041
 20
-2829.874
 30
2934.736
 70
    32
  0
VERTEX
  8
T23SSILL
 62
17
 10
492.929
 20
-2816.012
 30
2934.753
 70
    32
  0
VERTEX
  8
T23SSILL
 62
17
 10
492.523
 20
-2808.983
 30
2934.760
 70
    32
  0
VERTEX
  8
T23SSILL
 62
17
 10
494.929
 20
-2783.215
 30
2934.788
 70
    32
  0
VERTEX
  8
T23SSILL
 62
17
 10
482.677
 20
-2772.070
 30
2934.793
 70
    32
  0
VERTEX
  8
T23SSILL
 62
17
 10
476.148
 20
-2760.412
 30
2934.801
 70
    32
  0
VERTEX
  8
T23SSILL
 62
17
 10
463.817
 20
-2729.083
 30
2934.811
 70
    32
  0
VERTEX
  8
T23SSILL
 62
17
 10
463.979
 20
-2719.615
 30
2934.800
 70
    32
  0
VERTEX
  8
T23SSILL
 62
17
 10
462.224
 20
-2713.291
 30
2934.792
 70
    32
  0
VERTEX
  8
T23SSILL
 62
17
 10
464.271
 20
-2710.603
 30
2934.788
 70
    32
  0
VERTEX
  8
T23SSILL
 62
17
 10
470.901
 20
-2707.945
 30
2934.785
 70
    32
  0
VERTEX
  8
T23SSILL
 62
17
 10
474.894
 20
-2708.653
 30
2934.786
 70
    32
  0
VERTEX
  8
T23SSILL
 62
17
 10
485.815
 20
-2724.715
 30
2934.806
 70
    32
  0
VERTEX
  8
T23SSILL
 62
17
 10
485.990
 20
-2720.464
 30
2934.801
 70
    32
  0
VERTEX
  8
T23SSILL
 62
17
 10
487.478
 20
-2718.207
 30
2934.798
 70
    32
  0
VERTEX
  8
T23SSILL
 62
17
 10
492.287
 20
-2716.506
 30
2934.796
 70
    32
  0
VERTEX
  8
T23SSILL
 62
17
 10
499.283
 20
-2716.347
 30
2934.796
 70
    32
  0
VERTEX
  8
T23SSILL
 62
17
 10
502.380
 20
-2720.081
 30
2934.801
 70
    32
  0
VERTEX
  8
T23SSILL
 62
17
 10
509.124
 20
-2743.142
 30
2934.829
 70
    32
  0
VERTEX
  8
T23SSILL
 62
17
 10
529.367
 20
-2742.127
 30
2934.828
 70
    32
  0
VERTEX
  8
T23SSILL
 62
17
 10
527.563
 20
-2734.729
 30
2934.819
 70
    32
  0
VERTEX
  8
T23SSILL
 62
17
 10
531.755
 20
-2724.715
 30
2934.807
 70
    32
  0
VERTEX
  8
T23SSILL
 62
17
 10
551.602
 20
-2739.801
 30
2934.826
 70
    32
  0
VERTEX
  8
T23SSILL
 62
17
 10
557.633
 20
-2742.721
 30
2934.830
 70
    32
  0
VERTEX
  8
T23SSILL
 62
17
 10
559.099
 20
-2741.592
 30
2934.828
 70
    32
  0
VERTEX
  8
T23SSILL
 62
17
 10
553.364
 20
-2727.209
 30
2934.810
 70
    32
  0
VERTEX
  8
T23SSILL
 62
17
 10
527.219
 20
-2688.052
 30
2934.761
 70
    32
  0
VERTEX
  8
T23SSILL
 62
17
 10
529.163
 20
-2685.665
 30
2934.759
 70
    32
  0
VERTEX
  8
T23SSILL
 62
17
 10
537.174
 20
-2683.502
 30
2934.756
 70
    32
  0
VERTEX
  8
T23SSILL
 62
17
 10
565.700
 20
-2722.717
 30
2934.805
 70
    32
  0
VERTEX
  8
T23SSILL
 62
17
 10
576.204
 20
-2729.424
 30
2934.813
 70
    32
  0
VERTEX
  8
T23SSILL
 62
17
 10
585.410
 20
-2732.568
 30
2934.818
 70
    32
  0
VERTEX
  8
T23SSILL
 62
17
 10
595.622
 20
-2724.594
 30
2934.808
 70
    32
  0
VERTEX
  8
T23SSILL
 62
17
 10
602.471
 20
-2717.705
 30
2934.799
 70
    32
  0
VERTEX
  8
T23SSILL
 62
17
 10
559.550
 20
-2657.649
 30
2934.724
 70
    32
  0
VERTEX
  8
T23SSILL
 62
17
 10
553.778
 20
-2658.259
 30
2934.725
 70
    32
  0
VERTEX
  8
T23SSILL
 62
17
 10
549.779
 20
-2655.665
 30
2934.722
 70
    32
  0
VERTEX
  8
T23SSILL
 62
17
 10
544.722
 20
-2654.442
 30
2934.720
 70
    32
  0
VERTEX
  8
T23SSILL
 62
17
 10
540.807
 20
-2648.780
 30
2934.713
 70
    32
  0
VERTEX
  8
T23SSILL
 62
17
 10
546.430
 20
-2639.291
 30
2934.701
 70
    32
  0
VERTEX
  8
T23SSILL
 62
17
 10
357.550
 20
-2381.091
 30
2934.526
 70
    32
  0
VERTEX
  8
T23SSILL
 62
17
 10
354.729
 20
-2383.081
 30
2934.571
 70
    32
  0
VERTEX
  8
T23SSILL
 62
17
 10
351.898
 20
-2384.948
 30
2934.572
 70
    32
  0
VERTEX
  8
T23SSILL
 62
17
 10
351.286
 20
-2385.351
 30
2934.572
 70
    32
  0
VERTEX
  8
T23SSILL
 62
17
 10
348.987
 20
-2382.428
 30
2934.580
 70
    32
  0
VERTEX
  8
T23SSILL
 62
17
 10
348.194
 20
-2381.012
 30
2934.583
 70
    32
  0
VERTEX
  8
T23SSILL
 62
17
 10
347.209
 20
-2379.253
 30
2934.579
 70
    32
  0
VERTEX
  8
T23SSILL
 62
17
 10
345.956
 20
-2377.015
 30
2934.574
 70
    32
  0
VERTEX
  8
T23SSILL
 62
17
 10
343.109
 20
-2372.978
 30
2934.564
 70
    32
  0
VERTEX
  8
T23SSILL
 62
17
 10
348.725
 20
-2369.028
 30
2934.518
 70
    32
  0
VERTEX
  8
T23SSILL
 62
17
 10
323.937
 20
-2335.143
 30
2934.495
 70
    32
  0
VERTEX
  8
T23SSILL
 62
17
 10
326.237
 20
-2333.797
 30
2934.496
 70
    32
  0
VERTEX
  8
T23SSILL
 62
17
 10
326.112
 20
-2333.620
 30
2934.495
 70
    32
  0
VERTEX
  8
T23SSILL
 62
17
 10
325.058
 20
-2324.057
 30
2934.682
 70
    32
  0
VERTEX
  8
T23SSILL
 62
17
 10
318.224
 20
-2283.365
 30
2935.529
 70
    32
  0
VERTEX
  8
T23SSILL
 62
17
 10
315.030
 20
-2271.017
 30
2935.792
 70
    32
  0
VERTEX
  8
T23SSILL
 62
17
 10
314.583
 20
-2269.287
 30
2935.833
 70
    32
  0
VERTEX
  8
T23SSILL
 62
17
 10
313.633
 20
-2264.712
 30
2935.939
 70
    32
  0
VERTEX
  8
T23SSILL
 62
17
 10
312.965
 20
-2261.492
 30
2936.015
 70
    32
  0
VERTEX
  8
T23SSILL
 62
17
 10
309.750
 20
-2243.851
 30
2936.424
 70
    32
  0
VERTEX
  8
T23SSILL
 62
17
 10
308.544
 20
-2233.812
 30
2936.655
 70
    32
  0
VERTEX
  8
T23SSILL
 62
17
 10
308.473
 20
-2233.464
 30
2936.663
 70
    32
  0
VERTEX
  8
T23SSILL
 62
17
 10
307.560
 20
-2228.945
 30
2936.769
 70
    32
  0
VERTEX
  8
T23SSILL
 62
17
 10
294.972
 20
-2166.693
 30
2937.345
 70
    32
  0
VERTEX
  8
T23SSILL
 62
17
 10
291.660
 20
-2150.314
 30
2937.492
 70
    32
  0
VERTEX
  8
T23SSILL
 62
17
 10
286.671
 20
-2125.639
 30
2937.714
 70
    32
  0
VERTEX
  8
T23SSILL
 62
17
 10
286.664
 20
-2125.607
 30
2937.714
 70
    32
  0
VERTEX
  8
T23SSILL
 62
17
 10
282.538
 20
-2119.588
 30
2937.810
 70
    32
  0
VERTEX
  8
T23SSILL
 62
17
 10
280.101
 20
-2116.032
 30
2937.750
 70
    32
  0
VERTEX
  8
T23SSILL
 62
17
 10
278.335
 20
-2113.455
 30
2937.706
 70
    32
  0
VERTEX
  8
T23SSILL
 62
17
 10
277.650
 20
-2112.455
 30
2937.689
 70
    32
  0
VERTEX
  8
T23SSILL
 62
17
 10
277.687
 20
-2105.629
 30
2937.613
 70
    32
  0
VERTEX
  8
T23SSILL
 62
17
 10
277.691
 20
-2105.039
 30
2937.606
 70
    32
  0
VERTEX
  8
T23SSILL
 62
17
 10
270.684
 20
-2095.737
 30
2937.444
 70
    32
  0
VERTEX
  8
T23SSILL
 62
17
 10
267.505
 20
-2091.517
 30
2937.370
 70
    32
  0
VERTEX
  8
T23SSILL
 62
17
 10
255.332
 20
-2075.358
 30
2937.088
 70
    32
  0
VERTEX
  8
T23SSILL
 62
17
 10
228.288
 20
-2039.456
 30
2936.463
 70
    32
  0
VERTEX
  8
T23SSILL
 62
17
 10
221.328
 20
-2030.352
 30
2936.303
 70
    32
  0
VERTEX
  8
T23SSILL
 62
17
 10
196.943
 20
-1998.455
 30
2935.745
 70
    32
  0
VERTEX
  8
T23SSILL
 62
17
 10
196.943
 20
-1998.455
 30
2936.000
 70
    32
  0
VERTEX
  8
T23SSILL
 62
17
 10
186.151
 20
-1981.536
 30
2935.100
 70
    32
  0
VERTEX
  8
T23SSILL
 62
17
 10
185.365
 20
-1980.305
 30
2935.245
 70
    32
  0
VERTEX
  8
T23SSILL
 62
17
 10
184.263
 20
-1978.577
 30
2935.410
 70
    32
  0
VERTEX
  8
T23SSILL
 62
17
 10
184.268
 20
-1978.038
 30
2935.460
 70
    32
  0
VERTEX
  8
T23SSILL
 62
17
 10
184.317
 20
-1972.496
 30
2935.432
 70
    32
  0
VERTEX
  8
T23SSILL
 62
17
 10
183.327
 20
-1968.209
 30
2935.409
 70
    32
  0
VERTEX
  8
T23SSILL
 62
17
 10
181.301
 20
-1959.432
 30
2935.158
 70
    32
  0
VERTEX
  8
T23SSILL
 62
17
 10
183.596
 20
-1955.724
 30
2935.087
 70
    32
  0
VERTEX
  8
T23SSILL
 62
17
 10
183.462
 20
-1946.980
 30
2934.858
 70
    32
  0
VERTEX
  8
T23SSILL
 62
17
 10
183.918
 20
-1945.700
 30
2934.829
 70
    32
  0
VERTEX
  8
T23SSILL
 62
17
 10
179.032
 20
-1938.744
 30
2934.593
 70
    32
  0
VERTEX
  8
T23SSILL
 62
17
 10
174.223
 20
-1931.574
 30
2934.353
 70
    32
  0
VERTEX
  8
T23SSILL
 62
17
 10
172.724
 20
-1929.339
 30
2934.409
 70
    32
  0
VERTEX
  8
T23SSILL
 62
17
 10
165.103
 20
-1920.876
 30
2934.537
 70
    32
  0
VERTEX
  8
T23SSILL
 62
17
 10
173.432
 20
-1912.465
 30
2935.346
 70
    32
  0
VERTEX
  8
T23SSILL
 62
17
 10
181.659
 20
-1921.157
 30
2935.231
 70
    32
  0
VERTEX
  8
T23SSILL
 62
17
 10
187.211
 20
-1928.893
 30
2935.053
 70
    32
  0
VERTEX
  8
T23SSILL
 62
17
 10
191.763
 20
-1929.110
 30
2935.237
 70
    32
  0
VERTEX
  8
T23SSILL
 62
17
 10
193.472
 20
-1926.323
 30
2935.460
 70
    32
  0
VERTEX
  8
T23SSILL
 62
17
 10
197.499
 20
-1922.607
 30
2935.832
 70
    32
  0
VERTEX
  8
T23SSILL
 62
17
 10
199.000
 20
-1921.222
 30
2936.200
 70
    32
  0
VERTEX
  8
T23SSILL
 62
17
 10
204.251
 20
-1916.377
 30
2936.155
 70
    32
  0
VERTEX
  8
T23SSILL
 62
17
 10
234.002
 20
-1885.580
 30
2935.887
 70
    32
  0
VERTEX
  8
T23SSILL
 62
17
 10
235.399
 20
-1883.647
 30
2935.872
 70
    32
  0
VERTEX
  8
T23SSILL
 62
17
 10
236.704
 20
-1876.371
 30
2935.834
 70
    32
  0
VERTEX
  8
T23SSILL
 62
17
 10
237.178
 20
-1875.794
 30
2935.830
 70
    32
  0
VERTEX
  8
T23SSILL
 62
17
 10
237.725
 20
-1875.128
 30
2935.824
 70
    32
  0
VERTEX
  8
T23SSILL
 62
17
 10
240.356
 20
-1872.684
 30
2935.802
 70
    32
  0
VERTEX
  8
T23SSILL
 62
17
 10
243.158
 20
-1870.081
 30
2935.778
 70
    32
  0
VERTEX
  8
T23SSILL
 62
17
 10
244.023
 20
-1869.332
 30
2935.771
 70
    32
  0
VERTEX
  8
T23SSILL
 62
17
 10
247.241
 20
-1869.144
 30
2935.755
 70
    32
  0
VERTEX
  8
T23SSILL
 62
17
 10
248.604
 20
-1869.065
 30
2935.749
 70
    32
  0
VERTEX
  8
T23SSILL
 62
17
 10
250.983
 20
-1868.926
 30
2935.737
 70
    32
  0
VERTEX
  8
T23SSILL
 62
17
 10
254.504
 20
-1865.590
 30
2935.707
 70
    32
  0
VERTEX
  8
T23SSILL
 62
17
 10
254.920
 20
-1865.196
 30
2935.703
 70
    32
  0
VERTEX
  8
T23SSILL
 62
17
 10
259.127
 20
-1861.211
 30
2935.667
 70
    32
  0
VERTEX
  8
T23SSILL
 62
17
 10
259.227
 20
-1861.138
 30
2935.666
 70
    32
  0
VERTEX
  8
T23SSILL
 62
17
 10
339.122
 20
-1785.666
 30
2934.975
 70
    32
  0
VERTEX
  8
T23SSILL
 62
17
 10
339.161
 20
-1785.629
 30
2936.000
 70
    32
  0
VERTEX
  8
T23SSILL
 62
17
 10
341.386
 20
-1787.984
 30
2934.975
 70
    32
  0
VERTEX
  8
T23SSILL
 62
17
 10
343.968
 20
-1790.717
 30
2934.975
 70
    32
  0
VERTEX
  8
T23SSILL
 62
17
 10
279.713
 20
-1852.450
 30
2935.536
 70
    32
  0
VERTEX
  8
T23SSILL
 62
17
 10
264.842
 20
-1866.736
 30
2935.665
 70
    32
  0
VERTEX
  8
T23SSILL
 62
17
 10
240.439
 20
-1892.073
 30
2935.886
 70
    32
  0
VERTEX
  8
T23SSILL
 62
17
 10
211.259
 20
-1923.337
 30
2936.154
 70
    32
  0
VERTEX
  8
T23SSILL
 62
17
 10
205.097
 20
-1927.569
 30
2936.200
 70
    32
  0
VERTEX
  8
T23SSILL
 62
17
 10
203.604
 20
-1928.595
 30
2935.878
 70
    32
  0
VERTEX
  8
T23SSILL
 62
17
 10
202.978
 20
-1929.317
 30
2935.706
 70
    32
  0
VERTEX
  8
T23SSILL
 62
17
 10
195.742
 20
-1937.652
 30
2934.948
 70
    32
  0
VERTEX
  8
T23SSILL
 62
17
 10
194.927
 20
-1939.798
 30
2934.798
 70
    32
  0
VERTEX
  8
T23SSILL
 62
17
 10
193.383
 20
-1943.865
 30
2934.887
 70
    32
  0
VERTEX
  8
T23SSILL
 62
17
 10
193.647
 20
-1962.426
 30
2935.374
 70
    32
  0
VERTEX
  8
T23SSILL
 62
17
 10
193.751
 20
-1962.836
 30
2935.386
 70
    32
  0
VERTEX
  8
T23SSILL
 62
17
 10
196.575
 20
-1974.016
 30
2935.444
 70
    32
  0
VERTEX
  8
T23SSILL
 62
17
 10
198.412
 20
-1977.056
 30
2935.460
 70
    32
  0
VERTEX
  8
T23SSILL
 62
17
 10
199.242
 20
-1978.430
 30
2935.328
 70
    32
  0
VERTEX
  8
T23SSILL
 62
17
 10
200.420
 20
-1980.380
 30
2935.100
 70
    32
  0
VERTEX
  8
T23SSILL
 62
17
 10
206.472
 20
-1990.398
 30
2936.000
 70
    32
  0
VERTEX
  8
T23SSILL
 62
17
 10
206.472
 20
-1990.398
 30
2935.730
 70
    32
  0
VERTEX
  8
T23SSILL
 62
17
 10
207.105
 20
-1994.944
 30
2935.786
 70
    32
  0
VERTEX
  8
T23SSILL
 62
17
 10
216.633
 20
-2007.519
 30
2936.006
 70
    32
  0
VERTEX
  8
T23SSILL
 62
17
 10
232.301
 20
-2028.197
 30
2936.367
 70
    32
  0
VERTEX
  8
T23SSILL
 62
17
 10
236.545
 20
-2033.798
 30
2936.465
 70
    32
  0
VERTEX
  8
T23SSILL
 62
17
 10
265.737
 20
-2072.550
 30
2937.142
 70
    32
  0
VERTEX
  8
T23SSILL
 62
17
 10
272.705
 20
-2081.800
 30
2937.303
 70
    32
  0
VERTEX
  8
T23SSILL
 62
17
 10
277.181
 20
-2078.711
 30
2937.305
 70
    32
  0
VERTEX
  8
T23SSILL
 62
17
 10
274.760
 20
-2066.737
 30
2937.150
 70
    32
  0
VERTEX
  8
T23SSILL
 62
17
 10
266.051
 20
-2023.665
 30
2937.690
 70
    32
  0
VERTEX
  8
T23SSILL
 62
17
 10
263.450
 20
-2010.801
 30
2937.716
 70
    32
  0
VERTEX
  8
T23SSILL
 62
17
 10
260.260
 20
-1995.029
 30
2937.749
 70
    32
  0
VERTEX
  8
T23SSILL
 62
17
 10
260.359
 20
-1995.045
 30
2937.749
 70
    32
  0
VERTEX
  8
T23SSILL
 62
17
 10
254.338
 20
-1991.819
 30
2937.758
 70
    32
  0
VERTEX
  8
T23SSILL
 62
17
 10
252.391
 20
-1990.776
 30
2937.761
 70
    32
  0
VERTEX
  8
T23SSILL
 62
17
 10
251.112
 20
-1985.098
 30
2937.773
 70
    32
  0
VERTEX
  8
T23SSILL
 62
17
 10
250.924
 20
-1984.263
 30
2937.775
 70
    32
  0
VERTEX
  8
T23SSILL
 62
17
 10
254.748
 20
-1970.912
 30
2937.800
 70
    32
  0
VERTEX
  8
T23SSILL
 62
17
 10
254.852
 20
-1970.548
 30
2937.000
 70
    32
  0
VERTEX
  8
T23SSILL
 62
17
 10
258.487
 20
-1970.144
 30
2937.800
 70
    32
  0
VERTEX
  8
T23SSILL
 62
17
 10
265.334
 20
-1969.381
 30
2937.799
 70
    32
  0
VERTEX
  8
T23SSILL
 62
17
 10
269.570
 20
-1982.381
 30
2937.771
 70
    32
  0
VERTEX
  8
T23SSILL
 62
17
 10
273.618
 20
-1992.490
 30
2937.749
 70
    32
  0
VERTEX
  8
T23SSILL
 62
17
 10
276.658
 20
-2015.125
 30
2937.702
 70
    32
  0
VERTEX
  8
T23SSILL
 62
17
 10
274.778
 20
-2016.368
 30
2937.701
 70
    32
  0
VERTEX
  8
T23SSILL
 62
17
 10
274.781
 20
-2016.384
 30
2937.701
 70
    32
  0
VERTEX
  8
T23SSILL
 62
17
 10
278.205
 20
-2033.316
 30
2937.665
 70
    32
  0
VERTEX
  8
T23SSILL
 62
17
 10
281.078
 20
-2047.525
 30
2937.635
 70
    32
  0
VERTEX
  8
T23SSILL
 62
17
 10
287.791
 20
-2080.725
 30
2937.563
 70
    32
  0
VERTEX
  8
T23SSILL
 62
17
 10
288.870
 20
-2086.063
 30
2937.484
 70
    32
  0
VERTEX
  8
T23SSILL
 62
17
 10
288.997
 20
-2086.688
 30
2937.492
 70
    32
  0
VERTEX
  8
T23SSILL
 62
17
 10
290.834
 20
-2095.774
 30
2937.610
 70
    32
  0
VERTEX
  8
T23SSILL
 62
17
 10
291.383
 20
-2098.489
 30
2937.645
 70
    32
  0
VERTEX
  8
T23SSILL
 62
17
 10
293.963
 20
-2111.246
 30
2937.810
 70
    32
  0
VERTEX
  8
T23SSILL
 62
17
 10
294.304
 20
-2112.935
 30
2937.811
 70
    32
  0
VERTEX
  8
T23SSILL
 62
17
 10
307.123
 20
-2176.328
 30
2937.241
 70
    32
  0
VERTEX
  8
T23SSILL
 62
17
 10
309.462
 20
-2187.899
 30
2937.134
 70
    32
  0
VERTEX
  8
T23SSILL
 62
17
 10
317.422
 20
-2227.265
 30
2936.770
 70
    32
  0
VERTEX
  8
T23SSILL
 62
17
 10
318.356
 20
-2231.883
 30
2936.662
 70
    32
  0
VERTEX
  8
T23SSILL
 62
17
 10
318.345
 20
-2231.830
 30
2936.664
 70
    32
  0
VERTEX
  8
T23SSILL
 62
17
 10
321.616
 20
-2243.069
 30
2936.398
 70
    32
  0
VERTEX
  8
T23SSILL
 62
17
 10
324.909
 20
-2259.433
 30
2936.017
 70
    32
  0
VERTEX
  8
T23SSILL
 62
17
 10
326.913
 20
-2267.766
 30
2935.821
 70
    32
  0
VERTEX
  8
T23SSILL
 62
17
 10
332.388
 20
-2280.935
 30
2935.504
 70
    32
  0
VERTEX
  8
T23SSILL
 62
17
 10
332.745
 20
-2282.819
 30
2935.460
 70
    32
  0
VERTEX
  8
T23SSILL
 62
17
 10
340.058
 20
-2321.357
 30
2934.653
 70
    32
  0
VERTEX
  8
T23SSILL
 62
17
 10
340.071
 20
-2321.425
 30
2934.652
 70
    32
  0
VERTEX
  8
T23SSILL
 62
17
 10
341.271
 20
-2326.417
 30
2934.546
 70
    32
  0
VERTEX
  8
T23SSILL
 62
17
 10
343.827
 20
-2337.048
 30
2934.557
 70
    32
  0
VERTEX
  8
T23SSILL
 62
17
 10
344.243
 20
-2342.858
 30
2934.560
 70
    32
  0
VERTEX
  8
T23SSILL
 62
17
 10
348.202
 20
-2348.463
 30
2934.575
 70
    32
  0
VERTEX
  8
T23SSILL
 62
17
 10
356.378
 20
-2360.038
 30
2934.606
 70
    32
  0
VERTEX
  8
T23SSILL
 62
17
 10
357.824
 20
-2362.084
 30
2934.601
 70
    32
  0
VERTEX
  8
T23SSILL
 62
17
 10
362.127
 20
-2362.802
 30
2934.594
 70
    32
  0
VERTEX
  8
T23SSILL
 62
17
 10
370.108
 20
-2374.453
 30
2934.564
 70
    32
  0
SEQEND
  8
T23SSILL
  0
POLYLINE
  8
T23SSILL
 62
1
 66
     1
 70
     8
  0
VERTEX
  8
T23SSILL
 62
1
 10
-1780.273
 20
435.872
 30
2941.391
 70
    32
  0
VERTEX
  8
T23SSILL
 62
1
 10
-1780.284
 20
436.133
 30
2941.391
 70
    32
  0
VERTEX
  8
T23SSILL
 62
1
 10
-1780.319
 20
436.393
 30
2941.391
 70
    32
  0
VERTEX
  8
T23SSILL
 62
1
 10
-1780.375
 20
436.648
 30
2941.391
 70
    32
  0
VERTEX
  8
T23SSILL
 62
1
 10
-1780.454
 20
436.898
 30
2941.391
 70
    32
  0
VERTEX
  8
T23SSILL
 62
1
 10
-1780.554
 20
437.139
 30
2941.391
 70
    32
  0
VERTEX
  8
T23SSILL
 62
1
 10
-1780.675
 20
437.372
 30
2941.391
 70
    32
  0
VERTEX
  8
T23SSILL
 62
1
 10
-1780.816
 20
437.592
 30
2941.391
 70
    32
  0
VERTEX
  8
T23SSILL
 62
1
 10
-1780.975
 20
437.800
 30
2941.391
 70
    32
  0
VERTEX
  8
T23SSILL
 62
1
 10
-1781.152
 20
437.993
 30
2941.391
 70
    32
  0
VERTEX
  8
T23SSILL
 62
1
 10
-1781.345
 20
438.170
 30
2941.391
 70
    32
  0
VERTEX
  8
T23SSILL
 62
1
 10
-1781.552
 20
438.329
 30
2941.391
 70
    32
  0
VERTEX
  8
T23SSILL
 62
1
 10
-1781.773
 20
438.470
 30
2941.391
 70
    32
  0
VERTEX
  8
T23SSILL
 62
1
 10
-1782.005
 20
438.590
 30
2941.391
 70
    32
  0
VERTEX
  8
T23SSILL
 62
1
 10
-1782.247
 20
438.691
 30
2941.391
 70
    32
  0
VERTEX
  8
T23SSILL
 62
1
 10
-1782.497
 20
438.769
 30
2941.391
 70
    32
  0
VERTEX
  8
T23SSILL
 62
1
 10
-1782.752
 20
438.826
 30
2941.391
 70
    32
  0
VERTEX
  8
T23SSILL
 62
1
 10
-1783.012
 20
438.860
 30
2941.391
 70
    32
  0
VERTEX
  8
T23SSILL
 62
1
 10
-1783.273
 20
438.872
 30
2941.391
 70
    32
  0
VERTEX
  8
T23SSILL
 62
1
 10
-1783.534
 20
438.860
 30
2941.391
 70
    32
  0
VERTEX
  8
T23SSILL
 62
1
 10
-1783.794
 20
438.826
 30
2941.391
 70
    32
  0
VERTEX
  8
T23SSILL
 62
1
 10
-1784.049
 20
438.769
 30
2941.391
 70
    32
  0
VERTEX
  8
T23SSILL
 62
1
 10
-1784.299
 20
438.691
 30
2941.391
 70
    32
  0
VERTEX
  8
T23SSILL
 62
1
 10
-1784.541
 20
438.590
 30
2941.391
 70
    32
  0
VERTEX
  8
T23SSILL
 62
1
 10
-1784.773
 20
438.470
 30
2941.391
 70
    32
  0
VERTEX
  8
T23SSILL
 62
1
 10
-1784.994
 20
438.329
 30
2941.391
 70
    32
  0
VERTEX
  8
T23SSILL
 62
1
 10
-1785.201
 20
438.170
 30
2941.391
 70
    32
  0
VERTEX
  8
T23SSILL
 62
1
 10
-1785.394
 20
437.993
 30
2941.391
 70
    32
  0
VERTEX
  8
T23SSILL
 62
1
 10
-1785.571
 20
437.800
 30
2941.391
 70
    32
  0
VERTEX
  8
T23SSILL
 62
1
 10
-1785.730
 20
437.592
 30
2941.391
 70
    32
  0
VERTEX
  8
T23SSILL
 62
1
 10
-1785.871
 20
437.372
 30
2941.391
 70
    32
  0
VERTEX
  8
T23SSILL
 62
1
 10
-1785.992
 20
437.139
 30
2941.391
 70
    32
  0
VERTEX
  8
T23SSILL
 62
1
 10
-1786.092
 20
436.898
 30
2941.391
 70
    32
  0
VERTEX
  8
T23SSILL
 62
1
 10
-1786.171
 20
436.648
 30
2941.391
 70
    32
  0
VERTEX
  8
T23SSILL
 62
1
 10
-1786.227
 20
436.393
 30
2941.391
 70
    32
  0
VERTEX
  8
T23SSILL
 62
1
 10
-1786.262
 20
436.133
 30
2941.391
 70
    32
  0
VERTEX
  8
T23SSILL
 62
1
 10
-1786.273
 20
435.872
 30
2941.391
 70
    32
  0
VERTEX
  8
T23SSILL
 62
1
 10
-1786.262
 20
435.610
 30
2941.391
 70
    32
  0
VERTEX
  8
T23SSILL
 62
1
 10
-1786.227
 20
435.351
 30
2941.391
 70
    32
  0
VERTEX
  8
T23SSILL
 62
1
 10
-1786.171
 20
435.095
 30
2941.391
 70
    32
  0
VERTEX
  8
T23SSILL
 62
1
 10
-1786.092
 20
434.846
 30
2941.391
 70
    32
  0
VERTEX
  8
T23SSILL
 62
1
 10
-1785.992
 20
434.604
 30
2941.391
 70
    32
  0
VERTEX
  8
T23SSILL
 62
1
 10
-1785.871
 20
434.372
 30
2941.391
 70
    32
  0
VERTEX
  8
T23SSILL
 62
1
 10
-1785.730
 20
434.151
 30
2941.391
 70
    32
  0
VERTEX
  8
T23SSILL
 62
1
 10
-1785.571
 20
433.943
 30
2941.391
 70
    32
  0
VERTEX
  8
T23SSILL
 62
1
 10
-1785.394
 20
433.750
 30
2941.391
 70
    32
  0
VERTEX
  8
T23SSILL
 62
1
 10
-1785.201
 20
433.573
 30
2941.391
 70
    32
  0
VERTEX
  8
T23SSILL
 62
1
 10
-1784.994
 20
433.414
 30
2941.391
 70
    32
  0
VERTEX
  8
T23SSILL
 62
1
 10
-1784.773
 20
433.273
 30
2941.391
 70
    32
  0
VERTEX
  8
T23SSILL
 62
1
 10
-1784.541
 20
433.153
 30
2941.391
 70
    32
  0
VERTEX
  8
T23SSILL
 62
1
 10
-1784.299
 20
433.052
 30
2941.391
 70
    32
  0
VERTEX
  8
T23SSILL
 62
1
 10
-1784.049
 20
432.974
 30
2941.391
 70
    32
  0
VERTEX
  8
T23SSILL
 62
1
 10
-1783.794
 20
432.917
 30
2941.391
 70
    32
  0
VERTEX
  8
T23SSILL
 62
1
 10
-1783.534
 20
432.883
 30
2941.391
 70
    32
  0
VERTEX
  8
T23SSILL
 62
1
 10
-1783.273
 20
432.872
 30
2941.391
 70
    32
  0
VERTEX
  8
T23SSILL
 62
1
 10
-1783.012
 20
432.883
 30
2941.391
 70
    32
  0
VERTEX
  8
T23SSILL
 62
1
 10
-1782.752
 20
432.917
 30
2941.391
 70
    32
  0
VERTEX
  8
T23SSILL
 62
1
 10
-1782.497
 20
432.974
 30
2941.391
 70
    32
  0
VERTEX
  8
T23SSILL
 62
1
 10
-1782.247
 20
433.052
 30
2941.391
 70
    32
  0
VERTEX
  8
T23SSILL
 62
1
 10
-1782.005
 20
433.153
 30
2941.391
 70
    32
  0
VERTEX
  8
T23SSILL
 62
1
 10
-1781.773
 20
433.273
 30
2941.391
 70
    32
  0
VERTEX
  8
T23SSILL
 62
1
 10
-1781.552
 20
433.414
 30
2941.391
 70
    32
  0
VERTEX
  8
T23SSILL
 62
1
 10
-1781.345
 20
433.573
 30
2941.391
 70
    32
  0
VERTEX
  8
T23SSILL
 62
1
 10
-1781.152
 20
433.750
 30
2941.391
 70
    32
  0
VERTEX
  8
T23SSILL
 62
1
 10
-1780.975
 20
433.943
 30
2941.391
 70
    32
  0
VERTEX
  8
T23SSILL
 62
1
 10
-1780.816
 20
434.151
 30
2941.391
 70
    32
  0
VERTEX
  8
T23SSILL
 62
1
 10
-1780.675
 20
434.372
 30
2941.391
 70
    32
  0
VERTEX
  8
T23SSILL
 62
1
 10
-1780.554
 20
434.604
 30
2941.391
 70
    32
  0
VERTEX
  8
T23SSILL
 62
1
 10
-1780.454
 20
434.846
 30
2941.391
 70
    32
  0
VERTEX
  8
T23SSILL
 62
1
 10
-1780.375
 20
435.095
 30
2941.391
 70
    32
  0
VERTEX
  8
T23SSILL
 62
1
 10
-1780.319
 20
435.351
 30
2941.391
 70
    32
  0
VERTEX
  8
T23SSILL
 62
1
 10
-1780.284
 20
435.610
 30
2941.391
 70
    32
  0
VERTEX
  8
T23SSILL
 62
1
 10
-1780.273
 20
435.872
 30
2941.391
 70
    32
  0
SEQEND
  8
T23SSILL
  0
POLYLINE
  8
T23SSILL
 62
17
 66
     1
 70
     9
  0
VERTEX
  8
T23SSILL
 62
17
 10
615.368
 20
-2869.569
 30
2934.601
 70
    32
  0
VERTEX
  8
T23SSILL
 62
17
 10
618.191
 20
-2862.834
 30
2934.622
 70
    32
  0
VERTEX
  8
T23SSILL
 62
17
 10
611.516
 20
-2849.398
 30
2934.668
 70
    32
  0
VERTEX
  8
T23SSILL
 62
17
 10
604.569
 20
-2839.508
 30
2934.702
 70
    32
  0
VERTEX
  8
T23SSILL
 62
17
 10
609.670
 20
-2831.687
 30
2934.727
 70
    32
  0
VERTEX
  8
T23SSILL
 62
17
 10
607.006
 20
-2821.725
 30
2934.758
 70
    32
  0
VERTEX
  8
T23SSILL
 62
17
 10
608.165
 20
-2818.608
 30
2934.768
 70
    32
  0
VERTEX
  8
T23SSILL
 62
17
 10
599.528
 20
-2793.667
 30
2934.837
 70
    32
  0
VERTEX
  8
T23SSILL
 62
17
 10
593.425
 20
-2785.018
 30
2934.843
 70
    32
  0
VERTEX
  8
T23SSILL
 62
17
 10
589.205
 20
-2769.135
 30
2934.857
 70
    32
  0
VERTEX
  8
T23SSILL
 62
17
 10
596.434
 20
-2759.454
 30
2934.851
 70
    32
  0
VERTEX
  8
T23SSILL
 62
17
 10
590.561
 20
-2749.515
 30
2934.839
 70
    32
  0
VERTEX
  8
T23SSILL
 62
17
 10
591.671
 20
-2743.877
 30
2934.832
 70
    32
  0
VERTEX
  8
T23SSILL
 62
17
 10
595.925
 20
-2740.157
 30
2934.827
 70
    32
  0
VERTEX
  8
T23SSILL
 62
17
 10
606.011
 20
-2738.954
 30
2934.826
 70
    32
  0
VERTEX
  8
T23SSILL
 62
17
 10
618.554
 20
-2740.209
 30
2934.827
 70
    32
  0
VERTEX
  8
T23SSILL
 62
17
 10
658.005
 20
-2795.411
 30
2934.717
 70
    32
  0
VERTEX
  8
T23SSILL
 62
17
 10
658.005
 20
-2795.411
 30
2934.000
 70
    32
  0
VERTEX
  8
T23SSILL
 62
17
 10
658.005
 20
-2795.411
 30
2934.000
 70
    32
  0
VERTEX
  8
T23SSILL
 62
17
 10
658.005
 20
-2795.411
 30
2934.000
 70
    32
  0
VERTEX
  8
T23SSILL
 62
17
 10
651.443
 20
-2804.363
 30
2934.000
 70
    32
  0
VERTEX
  8
T23SSILL
 62
17
 10
650.595
 20
-2804.531
 30
2934.000
 70
    32
  0
VERTEX
  8
T23SSILL
 62
17
 10
651.443
 20
-2804.363
 30
2934.000
 70
    32
  0
VERTEX
  8
T23SSILL
 62
17
 10
650.595
 20
-2804.531
 30
2934.000
 70
    32
  0
VERTEX
  8
T23SSILL
 62
17
 10
648.457
 20
-2803.783
 30
2934.000
 70
    32
  0
VERTEX
  8
T23SSILL
 62
17
 10
646.129
 20
-2802.309
 30
2934.000
 70
    32
  0
VERTEX
  8
T23SSILL
 62
17
 10
642.177
 20
-2801.120
 30
2934.000
 70
    32
  0
VERTEX
  8
T23SSILL
 62
17
 10
639.765
 20
-2800.135
 30
2934.000
 70
    32
  0
VERTEX
  8
T23SSILL
 62
17
 10
636.771
 20
-2799.239
 30
2934.000
 70
    32
  0
VERTEX
  8
T23SSILL
 62
17
 10
620.939
 20
-2782.259
 30
2934.000
 70
    32
  0
VERTEX
  8
T23SSILL
 62
17
 10
610.401
 20
-2792.906
 30
2934.000
 70
    32
  0
VERTEX
  8
T23SSILL
 62
17
 10
611.644
 20
-2794.823
 30
2934.000
 70
    32
  0
VERTEX
  8
T23SSILL
 62
17
 10
612.858
 20
-2796.545
 30
2934.000
 70
    32
  0
VERTEX
  8
T23SSILL
 62
17
 10
615.344
 20
-2800.377
 30
2934.000
 70
    32
  0
VERTEX
  8
T23SSILL
 62
17
 10
618.291
 20
-2802.274
 30
2934.000
 70
    32
  0
VERTEX
  8
T23SSILL
 62
17
 10
647.536
 20
-2815.278
 30
2934.000
 70
    32
  0
VERTEX
  8
T23SSILL
 62
17
 10
649.063
 20
-2815.920
 30
2934.000
 70
    32
  0
VERTEX
  8
T23SSILL
 62
17
 10
651.289
 20
-2817.251
 30
2934.000
 70
    32
  0
VERTEX
  8
T23SSILL
 62
17
 10
654.313
 20
-2818.342
 30
2934.000
 70
    32
  0
VERTEX
  8
T23SSILL
 62
17
 10
655.637
 20
-2818.697
 30
2934.000
 70
    32
  0
VERTEX
  8
T23SSILL
 62
17
 10
657.914
 20
-2820.099
 30
2934.000
 70
    32
  0
VERTEX
  8
T23SSILL
 62
17
 10
659.968
 20
-2821.337
 30
2934.000
 70
    32
  0
VERTEX
  8
T23SSILL
 62
17
 10
663.248
 20
-2823.858
 30
2934.000
 70
    32
  0
VERTEX
  8
T23SSILL
 62
17
 10
664.934
 20
-2825.032
 30
2934.000
 70
    32
  0
VERTEX
  8
T23SSILL
 62
17
 10
666.612
 20
-2825.890
 30
2934.000
 70
    32
  0
VERTEX
  8
T23SSILL
 62
17
 10
670.282
 20
-2826.526
 30
2934.000
 70
    32
  0
VERTEX
  8
T23SSILL
 62
17
 10
674.183
 20
-2827.643
 30
2934.000
 70
    32
  0
VERTEX
  8
T23SSILL
 62
17
 10
678.659
 20
-2828.355
 30
2934.000
 70
    32
  0
VERTEX
  8
T23SSILL
 62
17
 10
681.232
 20
-2828.045
 30
2934.000
 70
    32
  0
VERTEX
  8
T23SSILL
 62
17
 10
681.320
 20
-2828.034
 30
2934.000
 70
    32
  0
VERTEX
  8
T23SSILL
 62
17
 10
681.320
 20
-2828.034
 30
2934.652
 70
    32
  0
VERTEX
  8
T23SSILL
 62
17
 10
705.547
 20
-2861.934
 30
2934.584
 70
    32
  0
VERTEX
  8
T23SSILL
 62
17
 10
719.599
 20
-2877.136
 30
2934.520
 70
    32
  0
VERTEX
  8
T23SSILL
 62
17
 10
732.803
 20
-2884.119
 30
2934.481
 70
    32
  0
VERTEX
  8
T23SSILL
 62
17
 10
740.042
 20
-2885.905
 30
2934.468
 70
    32
  0
VERTEX
  8
T23SSILL
 62
17
 10
747.223
 20
-2887.180
 30
2934.457
 70
    32
  0
VERTEX
  8
T23SSILL
 62
17
 10
764.834
 20
-2886.584
 30
2934.445
 70
    32
  0
VERTEX
  8
T23SSILL
 62
17
 10
787.516
 20
-2887.546
 30
2934.423
 70
    32
  0
VERTEX
  8
T23SSILL
 62
17
 10
789.640
 20
-2894.680
 30
2934.392
 70
    32
  0
VERTEX
  8
T23SSILL
 62
17
 10
816.758
 20
-2895.356
 30
2934.367
 70
    32
  0
VERTEX
  8
T23SSILL
 62
17
 10
812.731
 20
-2908.076
 30
2934.332
 70
    32
  0
VERTEX
  8
T23SSILL
 62
17
 10
806.817
 20
-2914.699
 30
2934.317
 70
    32
  0
VERTEX
  8
T23SSILL
 62
17
 10
810.901
 20
-2920.336
 30
2934.299
 70
    32
  0
VERTEX
  8
T23SSILL
 62
17
 10
817.303
 20
-2917.108
 30
2934.304
 70
    32
  0
VERTEX
  8
T23SSILL
 62
17
 10
827.092
 20
-2914.396
 30
2934.306
 70
    32
  0
VERTEX
  8
T23SSILL
 62
17
 10
827.947
 20
-2907.536
 30
2934.324
 70
    32
  0
VERTEX
  8
T23SSILL
 62
17
 10
845.931
 20
-2903.219
 30
2934.326
 70
    32
  0
VERTEX
  8
T23SSILL
 62
17
 10
848.876
 20
-2889.664
 30
2934.364
 70
    32
  0
VERTEX
  8
T23SSILL
 62
17
 10
882.049
 20
-2889.705
 30
2934.341
 70
    32
  0
VERTEX
  8
T23SSILL
 62
17
 10
886.404
 20
-2896.132
 30
2934.321
 70
    32
  0
VERTEX
  8
T23SSILL
 62
17
 10
903.079
 20
-2901.128
 30
2934.298
 70
    32
  0
VERTEX
  8
T23SSILL
 62
17
 10
921.038
 20
-2904.035
 30
2934.279
 70
    32
  0
VERTEX
  8
T23SSILL
 62
17
 10
926.404
 20
-2907.141
 30
2934.267
 70
    32
  0
VERTEX
  8
T23SSILL
 62
17
 10
932.495
 20
-2906.424
 30
2934.266
 70
    32
  0
VERTEX
  8
T23SSILL
 62
17
 10
938.530
 20
-2903.863
 30
2934.265
 70
    32
  0
VERTEX
  8
T23SSILL
 62
17
 10
940.026
 20
-2901.612
 30
2934.259
 70
    32
  0
VERTEX
  8
T23SSILL
 62
17
 10
948.396
 20
-2903.863
 30
2934.244
 70
    32
  0
VERTEX
  8
T23SSILL
 62
17
 10
956.946
 20
-2900.546
 30
2934.222
 70
    32
  0
VERTEX
  8
T23SSILL
 62
17
 10
965.125
 20
-2899.065
 30
2934.203
 70
    32
  0
VERTEX
  8
T23SSILL
 62
17
 10
974.968
 20
-2892.653
 30
2934.174
 70
    32
  0
VERTEX
  8
T23SSILL
 62
17
 10
1033.576
 20
-2894.214
 30
2934.087
 70
    32
  0
VERTEX
  8
T23SSILL
 62
17
 10
1047.185
 20
-2904.004
 30
2934.084
 70
    32
  0
VERTEX
  8
T23SSILL
 62
17
 10
1070.272
 20
-2936.173
 30
2934.089
 70
    32
  0
VERTEX
  8
T23SSILL
 62
17
 10
613.534
 20
-2925.239
 30
2934.410
 70
    32
  0
VERTEX
  8
T23SSILL
 62
17
 10
595.853
 20
-2898.402
 30
2934.510
 70
    32
  0
VERTEX
  8
T23SSILL
 62
17
 10
595.555
 20
-2892.644
 30
2934.529
 70
    32
  0
VERTEX
  8
T23SSILL
 62
17
 10
587.060
 20
-2878.185
 30
2934.579
 70
    32
  0
VERTEX
  8
T23SSILL
 62
17
 10
580.935
 20
-2878.873
 30
2934.578
 70
    32
  0
VERTEX
  8
T23SSILL
 62
17
 10
587.800
 20
-2868.437
 30
2934.611
 70
    32
  0
VERTEX
  8
T23SSILL
 62
17
 10
595.359
 20
-2865.397
 30
2934.619
 70
    32
  0
VERTEX
  8
T23SSILL
 62
17
 10
602.575
 20
-2885.315
 30
2934.552
 70
    32
  0
VERTEX
  8
T23SSILL
 62
17
 10
610.360
 20
-2883.435
 30
2934.556
 70
    32
  0
VERTEX
  8
T23SSILL
 62
17
 10
615.689
 20
-2879.666
 30
2934.566
 70
    32
  0
VERTEX
  8
T23SSILL
 62
17
 10
614.935
 20
-2874.352
 30
2934.585
 70
    32
  0
SEQEND
  8
T23SSILL
  0
ENDSEC
  0
EOF
