999
********************************
999
*   DXF File - Entities Only   *
999
*        3D Data Format        *
999
*     Output from ENVISAGE     *
999
*     20-Dec-2007 09:20:13     *
999
********************************
  0
SECTION 
  2
HEADER
  9
$ACADVER
  1
AC1009
  9
$EXTMIN
 10
-290000.000
 20
-250000.000
 30
-4000.000
  9
$EXTMAX
 10
5000000.000
 20
600000.000
 30
6000.000
  0
ENDSEC
  0
SECTION
  2
ENTITIES
  0
POLYLINE
  8
T24SSILL
 62
8
 66
     1
 70
     9
  0
VERTEX
  8
T24SSILL
 62
8
 10
2092.896
 20
-4663.461
 30
2787.483
 70
    32
  0
VERTEX
  8
T24SSILL
 62
8
 10
2158.843
 20
-4704.357
 30
2787.447
 70
    32
  0
VERTEX
  8
T24SSILL
 62
8
 10
2169.317
 20
-4627.645
 30
2787.435
 70
    32
  0
VERTEX
  8
T24SSILL
 62
8
 10
2123.137
 20
-4627.591
 30
2787.463
 70
    32
  0
VERTEX
  8
T24SSILL
 62
8
 10
2123.665
 20
-4613.875
 30
2787.461
 70
    32
  0
VERTEX
  8
T24SSILL
 62
8
 10
2088.546
 20
-4613.120
 30
2787.482
 70
    32
  0
VERTEX
  8
T24SSILL
 62
8
 10
2088.456
 20
-4621.399
 30
2787.482
 70
    32
  0
VERTEX
  8
T24SSILL
 62
8
 10
2079.387
 20
-4621.258
 30
2787.488
 70
    32
  0
VERTEX
  8
T24SSILL
 62
8
 10
2079.166
 20
-4654.614
 30
2787.490
 70
    32
  0
SEQEND
  8
T24SSILL
  0
POLYLINE
  8
T24SSILL
 62
8
 66
     1
 70
     9
  0
VERTEX
  8
T24SSILL
 62
8
 10
2180.819
 20
-4547.297
 30
2787.423
 70
    32
  0
VERTEX
  8
T24SSILL
 62
8
 10
2172.364
 20
-4547.196
 30
2787.428
 70
    32
  0
VERTEX
  8
T24SSILL
 62
8
 10
2124.004
 20
-4597.592
 30
2787.460
 70
    32
  0
VERTEX
  8
T24SSILL
 62
8
 10
2123.911
 20
-4604.548
 30
2787.460
 70
    32
  0
VERTEX
  8
T24SSILL
 62
8
 10
2172.478
 20
-4604.492
 30
2787.432
 70
    32
  0
SEQEND
  8
T24SSILL
  0
POLYLINE
  8
T24SSILL
 62
8
 66
     1
 70
     9
  0
VERTEX
  8
T24SSILL
 62
8
 10
1417.568
 20
-3846.760
 30
2787.054
 70
    32
  0
VERTEX
  8
T24SSILL
 62
8
 10
1414.936
 20
-3852.920
 30
2787.076
 70
    32
  0
VERTEX
  8
T24SSILL
 62
8
 10
1363.370
 20
-3853.496
 30
2787.252
 70
    32
  0
VERTEX
  8
T24SSILL
 62
8
 10
1346.382
 20
-3829.650
 30
2787.259
 70
    32
  0
VERTEX
  8
T24SSILL
 62
8
 10
1405.834
 20
-3830.177
 30
2787.058
 70
    32
  0
SEQEND
  8
T24SSILL
  0
POLYLINE
  8
T24SSILL
 62
8
 66
     1
 70
     9
  0
VERTEX
  8
T24SSILL
 62
8
 10
1338.851
 20
-3510.338
 30
2787.117
 70
    32
  0
VERTEX
  8
T24SSILL
 62
8
 10
1347.267
 20
-3523.597
 30
2787.081
 70
    32
  0
VERTEX
  8
T24SSILL
 62
8
 10
1363.877
 20
-3515.192
 30
2786.960
 70
    32
  0
VERTEX
  8
T24SSILL
 62
8
 10
1354.935
 20
-3500.874
 30
2786.997
 70
    32
  0
SEQEND
  8
T24SSILL
  0
POLYLINE
  8
T24SSILL
 62
8
 66
     1
 70
     9
  0
VERTEX
  8
T24SSILL
 62
8
 10
1942.191
 20
-3447.351
 30
2786.719
 70
    32
  0
VERTEX
  8
T24SSILL
 62
8
 10
1954.324
 20
-3461.689
 30
2786.725
 70
    32
  0
VERTEX
  8
T24SSILL
 62
8
 10
1958.194
 20
-3458.788
 30
2786.724
 70
    32
  0
VERTEX
  8
T24SSILL
 62
8
 10
1964.085
 20
-3464.769
 30
2786.726
 70
    32
  0
VERTEX
  8
T24SSILL
 62
8
 10
1963.469
 20
-3465.473
 30
2786.727
 70
    32
  0
VERTEX
  8
T24SSILL
 62
8
 10
1966.523
 20
-3470.551
 30
2786.729
 70
    32
  0
VERTEX
  8
T24SSILL
 62
8
 10
1952.730
 20
-3479.916
 30
2786.734
 70
    32
  0
VERTEX
  8
T24SSILL
 62
8
 10
1934.925
 20
-3455.515
 30
2786.724
 70
    32
  0
VERTEX
  8
T24SSILL
 62
8
 10
1940.044
 20
-3451.868
 30
2786.722
 70
    32
  0
VERTEX
  8
T24SSILL
 62
8
 10
1936.360
 20
-3446.487
 30
2786.719
 70
    32
  0
VERTEX
  8
T24SSILL
 62
8
 10
1931.222
 20
-3449.334
 30
2786.721
 70
    32
  0
VERTEX
  8
T24SSILL
 62
8
 10
1919.894
 20
-3433.765
 30
2786.714
 70
    32
  0
VERTEX
  8
T24SSILL
 62
8
 10
1920.883
 20
-3433.112
 30
2786.714
 70
    32
  0
VERTEX
  8
T24SSILL
 62
8
 10
1923.023
 20
-3435.298
 30
2786.715
 70
    32
  0
VERTEX
  8
T24SSILL
 62
8
 10
1927.861
 20
-3431.254
 30
2786.713
 70
    32
  0
VERTEX
  8
T24SSILL
 62
8
 10
1935.861
 20
-3440.490
 30
2786.717
 70
    32
  0
VERTEX
  8
T24SSILL
 62
8
 10
1940.435
 20
-3436.709
 30
2786.715
 70
    32
  0
VERTEX
  8
T24SSILL
 62
8
 10
1946.765
 20
-3443.307
 30
2786.717
 70
    32
  0
SEQEND
  8
T24SSILL
  0
POLYLINE
  8
T24SSILL
 62
8
 66
     1
 70
     9
  0
VERTEX
  8
T24SSILL
 62
8
 10
2230.154
 20
-3639.934
 30
2786.792
 70
    32
  0
VERTEX
  8
T24SSILL
 62
8
 10
2208.088
 20
-3610.907
 30
2786.780
 70
    32
  0
VERTEX
  8
T24SSILL
 62
8
 10
2195.774
 20
-3619.522
 30
2786.785
 70
    32
  0
VERTEX
  8
T24SSILL
 62
8
 10
2222.762
 20
-3655.938
 30
2786.800
 70
    32
  0
VERTEX
  8
T24SSILL
 62
8
 10
2235.077
 20
-3648.114
 30
2786.796
 70
    32
  0
SEQEND
  8
T24SSILL
  0
POLYLINE
  8
T24SSILL
 62
8
 66
     1
 70
     9
  0
VERTEX
  8
T24SSILL
 62
8
 10
2881.452
 20
-4004.366
 30
2786.251
 70
    32
  0
VERTEX
  8
T24SSILL
 62
8
 10
2859.983
 20
-4019.431
 30
2786.277
 70
    32
  0
VERTEX
  8
T24SSILL
 62
8
 10
2849.322
 20
-4004.734
 30
2786.265
 70
    32
  0
VERTEX
  8
T24SSILL
 62
8
 10
2868.176
 20
-3991.347
 30
2786.242
 70
    32
  0
SEQEND
  8
T24SSILL
  0
POLYLINE
  8
T24SSILL
 62
8
 66
     1
 70
     9
  0
VERTEX
  8
T24SSILL
 62
8
 10
-120.615
 20
-2395.308
 30
2788.909
 70
    32
  0
VERTEX
  8
T24SSILL
 62
8
 10
-130.188
 20
-2382.234
 30
2788.872
 70
    32
  0
VERTEX
  8
T24SSILL
 62
8
 10
-136.788
 20
-2387.327
 30
2788.904
 70
    32
  0
VERTEX
  8
T24SSILL
 62
8
 10
-139.489
 20
-2383.070
 30
2788.892
 70
    32
  0
VERTEX
  8
T24SSILL
 62
8
 10
-143.579
 20
-2381.847
 30
2788.894
 70
    32
  0
VERTEX
  8
T24SSILL
 62
8
 10
-148.036
 20
-2385.209
 30
2788.915
 70
    32
  0
VERTEX
  8
T24SSILL
 62
8
 10
-144.249
 20
-2402.521
 30
2788.979
 70
    32
  0
VERTEX
  8
T24SSILL
 62
8
 10
-145.527
 20
-2407.813
 30
2789.002
 70
    32
  0
VERTEX
  8
T24SSILL
 62
8
 10
-143.408
 20
-2410.866
 30
2789.011
 70
    32
  0
VERTEX
  8
T24SSILL
 62
8
 10
-134.145
 20
-2407.724
 30
2788.982
 70
    32
  0
SEQEND
  8
T24SSILL
  0
POLYLINE
  8
T24SSILL
 62
8
 66
     1
 70
     9
  0
VERTEX
  8
T24SSILL
 62
8
 10
-266.248
 20
-2578.827
 30
2789.296
 70
    32
  0
VERTEX
  8
T24SSILL
 62
8
 10
-275.493
 20
-2568.821
 30
2789.285
 70
    32
  0
VERTEX
  8
T24SSILL
 62
8
 10
-287.700
 20
-2567.017
 30
2789.280
 70
    32
  0
VERTEX
  8
T24SSILL
 62
8
 10
-293.611
 20
-2576.529
 30
2789.287
 70
    32
  0
VERTEX
  8
T24SSILL
 62
8
 10
-284.222
 20
-2592.055
 30
2789.304
 70
    32
  0
SEQEND
  8
T24SSILL
  0
POLYLINE
  8
T24SSILL
 62
8
 66
     1
 70
     9
  0
VERTEX
  8
T24SSILL
 62
8
 10
2163.702
 20
-4546.199
 30
2787.433
 70
    32
  0
VERTEX
  8
T24SSILL
 62
8
 10
2078.071
 20
-4541.498
 30
2787.483
 70
    32
  0
VERTEX
  8
T24SSILL
 62
8
 10
2056.816
 20
-4567.809
 30
2787.497
 70
    32
  0
VERTEX
  8
T24SSILL
 62
8
 10
2056.804
 20
-4605.090
 30
2787.500
 70
    32
  0
VERTEX
  8
T24SSILL
 62
8
 10
2117.220
 20
-4605.794
 30
2787.464
 70
    32
  0
VERTEX
  8
T24SSILL
 62
8
 10
2116.243
 20
-4589.426
 30
2787.464
 70
    32
  0
VERTEX
  8
T24SSILL
 62
8
 10
2114.364
 20
-4584.370
 30
2787.465
 70
    32
  0
VERTEX
  8
T24SSILL
 62
8
 10
2115.125
 20
-4582.127
 30
2787.464
 70
    32
  0
VERTEX
  8
T24SSILL
 62
8
 10
2143.618
 20
-4551.521
 30
2787.445
 70
    32
  0
VERTEX
  8
T24SSILL
 62
8
 10
2145.552
 20
-4550.235
 30
2787.444
 70
    32
  0
VERTEX
  8
T24SSILL
 62
8
 10
2153.045
 20
-4554.329
 30
2787.440
 70
    32
  0
VERTEX
  8
T24SSILL
 62
8
 10
2157.227
 20
-4553.716
 30
2787.437
 70
    32
  0
SEQEND
  8
T24SSILL
  0
POLYLINE
  8
T24SSILL
 62
8
 66
     1
 70
     9
  0
VERTEX
  8
T24SSILL
 62
8
 10
1340.816
 20
-3527.188
 30
2787.129
 70
    32
  0
VERTEX
  8
T24SSILL
 62
8
 10
1335.824
 20
-3518.087
 30
2787.148
 70
    32
  0
VERTEX
  8
T24SSILL
 62
8
 10
1330.243
 20
-3501.135
 30
2787.159
 70
    32
  0
VERTEX
  8
T24SSILL
 62
8
 10
1314.629
 20
-3478.767
 30
2787.228
 70
    32
  0
VERTEX
  8
T24SSILL
 62
8
 10
1317.303
 20
-3471.016
 30
2787.199
 70
    32
  0
VERTEX
  8
T24SSILL
 62
8
 10
1315.447
 20
-3472.068
 30
2787.212
 70
    32
  0
VERTEX
  8
T24SSILL
 62
8
 10
1311.676
 20
-3466.498
 30
2787.229
 70
    32
  0
VERTEX
  8
T24SSILL
 62
8
 10
1285.056
 20
-3487.299
 30
2787.434
 70
    32
  0
VERTEX
  8
T24SSILL
 62
8
 10
1281.945
 20
-3493.813
 30
2787.464
 70
    32
  0
VERTEX
  8
T24SSILL
 62
8
 10
1280.595
 20
-3501.304
 30
2787.484
 70
    32
  0
VERTEX
  8
T24SSILL
 62
8
 10
1281.432
 20
-3513.300
 30
2787.497
 70
    32
  0
VERTEX
  8
T24SSILL
 62
8
 10
1316.817
 20
-3554.701
 30
2787.327
 70
    32
  0
VERTEX
  8
T24SSILL
 62
8
 10
1353.226
 20
-3557.657
 30
2787.093
 70
    32
  0
VERTEX
  8
T24SSILL
 62
8
 10
1353.258
 20
-3548.839
 30
2787.080
 70
    32
  0
VERTEX
  8
T24SSILL
 62
8
 10
1343.620
 20
-3532.225
 30
2787.118
 70
    32
  0
SEQEND
  8
T24SSILL
  0
POLYLINE
  8
T24SSILL
 62
8
 66
     1
 70
     9
  0
VERTEX
  8
T24SSILL
 62
8
 10
1180.480
 20
-3246.612
 30
2787.393
 70
    32
  0
VERTEX
  8
T24SSILL
 62
8
 10
1178.275
 20
-3246.780
 30
2787.411
 70
    32
  0
VERTEX
  8
T24SSILL
 62
8
 10
1176.647
 20
-3257.621
 30
2787.550
 70
    32
  0
VERTEX
  8
T24SSILL
 62
8
 10
1201.764
 20
-3261.770
 30
2787.411
 70
    32
  0
VERTEX
  8
T24SSILL
 62
8
 10
1204.228
 20
-3263.102
 30
2787.408
 70
    32
  0
VERTEX
  8
T24SSILL
 62
8
 10
1207.643
 20
-3269.817
 30
2787.461
 70
    32
  0
VERTEX
  8
T24SSILL
 62
8
 10
1212.821
 20
-3276.361
 30
2787.499
 70
    32
  0
VERTEX
  8
T24SSILL
 62
8
 10
1221.537
 20
-3280.274
 30
2787.479
 70
    32
  0
VERTEX
  8
T24SSILL
 62
8
 10
1228.236
 20
-3280.916
 30
2787.437
 70
    32
  0
VERTEX
  8
T24SSILL
 62
8
 10
1214.804
 20
-3264.729
 30
2787.348
 70
    32
  0
VERTEX
  8
T24SSILL
 62
8
 10
1210.116
 20
-3268.679
 30
2787.429
 70
    32
  0
VERTEX
  8
T24SSILL
 62
8
 10
1201.686
 20
-3259.036
 30
2787.379
 70
    32
  0
VERTEX
  8
T24SSILL
 62
8
 10
1206.461
 20
-3255.438
 30
2787.301
 70
    32
  0
VERTEX
  8
T24SSILL
 62
8
 10
1197.070
 20
-3243.587
 30
2787.233
 70
    32
  0
VERTEX
  8
T24SSILL
 62
8
 10
1184.012
 20
-3245.391
 30
2787.352
 70
    32
  0
SEQEND
  8
T24SSILL
  0
POLYLINE
  8
T24SSILL
 62
8
 66
     1
 70
     9
  0
VERTEX
  8
T24SSILL
 62
8
 10
1152.976
 20
-3268.027
 30
2787.849
 70
    32
  0
VERTEX
  8
T24SSILL
 62
8
 10
1147.282
 20
-3257.688
 30
2787.771
 70
    32
  0
VERTEX
  8
T24SSILL
 62
8
 10
1138.770
 20
-3246.458
 30
2787.703
 70
    32
  0
VERTEX
  8
T24SSILL
 62
8
 10
1128.219
 20
-3237.953
 30
2787.683
 70
    32
  0
VERTEX
  8
T24SSILL
 62
8
 10
1085.160
 20
-3268.658
 30
2788.365
 70
    32
  0
VERTEX
  8
T24SSILL
 62
8
 10
1157.800
 20
-3274.835
 30
2787.893
 70
    32
  0
SEQEND
  8
T24SSILL
  0
POLYLINE
  8
T24SSILL
 62
8
 66
     1
 70
     9
  0
VERTEX
  8
T24SSILL
 62
8
 10
1168.538
 20
-3208.913
 30
2787.041
 70
    32
  0
VERTEX
  8
T24SSILL
 62
8
 10
1155.452
 20
-3218.477
 30
2787.251
 70
    32
  0
VERTEX
  8
T24SSILL
 62
8
 10
1167.257
 20
-3221.607
 30
2787.199
 70
    32
  0
VERTEX
  8
T24SSILL
 62
8
 10
1172.816
 20
-3220.570
 30
2787.145
 70
    32
  0
VERTEX
  8
T24SSILL
 62
8
 10
1175.647
 20
-3218.287
 30
2787.097
 70
    32
  0
SEQEND
  8
T24SSILL
  0
POLYLINE
  8
T24SSILL
 62
8
 66
     1
 70
     9
  0
VERTEX
  8
T24SSILL
 62
8
 10
1177.323
 20
-3194.308
 30
2787.063
 70
    32
  0
VERTEX
  8
T24SSILL
 62
8
 10
1165.005
 20
-3186.855
 30
2787.283
 70
    32
  0
VERTEX
  8
T24SSILL
 62
8
 10
1162.363
 20
-3185.698
 30
2787.324
 70
    32
  0
VERTEX
  8
T24SSILL
 62
8
 10
1159.451
 20
-3186.217
 30
2787.344
 70
    32
  0
VERTEX
  8
T24SSILL
 62
8
 10
1170.070
 20
-3200.277
 30
2787.046
 70
    32
  0
SEQEND
  8
T24SSILL
  0
POLYLINE
  8
T24SSILL
 62
8
 66
     1
 70
     9
  0
VERTEX
  8
T24SSILL
 62
8
 10
1337.873
 20
-3488.641
 30
2787.090
 70
    32
  0
VERTEX
  8
T24SSILL
 62
8
 10
1330.539
 20
-3492.494
 30
2787.144
 70
    32
  0
VERTEX
  8
T24SSILL
 62
8
 10
1329.739
 20
-3494.167
 30
2787.152
 70
    32
  0
VERTEX
  8
T24SSILL
 62
8
 10
1330.080
 20
-3497.519
 30
2787.155
 70
    32
  0
VERTEX
  8
T24SSILL
 62
8
 10
1336.127
 20
-3507.682
 30
2787.130
 70
    32
  0
VERTEX
  8
T24SSILL
 62
8
 10
1352.119
 20
-3499.188
 30
2787.013
 70
    32
  0
VERTEX
  8
T24SSILL
 62
8
 10
1345.207
 20
-3484.612
 30
2787.036
 70
    32
  0
SEQEND
  8
T24SSILL
  0
POLYLINE
  8
T24SSILL
 62
8
 66
     1
 70
     9
  0
VERTEX
  8
T24SSILL
 62
8
 10
1397.713
 20
-3676.356
 30
2787.068
 70
    32
  0
VERTEX
  8
T24SSILL
 62
8
 10
1396.329
 20
-3680.560
 30
2787.075
 70
    32
  0
VERTEX
  8
T24SSILL
 62
8
 10
1377.386
 20
-3689.408
 30
2787.116
 70
    32
  0
VERTEX
  8
T24SSILL
 62
8
 10
1373.805
 20
-3686.064
 30
2787.117
 70
    32
  0
VERTEX
  8
T24SSILL
 62
8
 10
1378.710
 20
-3647.124
 30
2787.061
 70
    32
  0
VERTEX
  8
T24SSILL
 62
8
 10
1397.512
 20
-3674.243
 30
2787.065
 70
    32
  0
SEQEND
  8
T24SSILL
  0
POLYLINE
  8
T24SSILL
 62
8
 66
     1
 70
     9
  0
VERTEX
  8
T24SSILL
 62
8
 10
2651.100
 20
-3778.995
 30
2786.258
 70
    32
  0
VERTEX
  8
T24SSILL
 62
8
 10
2658.953
 20
-3786.917
 30
2786.244
 70
    32
  0
VERTEX
  8
T24SSILL
 62
8
 10
2667.633
 20
-3780.582
 30
2786.233
 70
    32
  0
VERTEX
  8
T24SSILL
 62
8
 10
2664.556
 20
-3776.272
 30
2786.239
 70
    32
  0
VERTEX
  8
T24SSILL
 62
8
 10
2669.746
 20
-3772.580
 30
2786.233
 70
    32
  0
VERTEX
  8
T24SSILL
 62
8
 10
2662.801
 20
-3762.993
 30
2786.246
 70
    32
  0
VERTEX
  8
T24SSILL
 62
8
 10
2658.931
 20
-3765.542
 30
2786.251
 70
    32
  0
VERTEX
  8
T24SSILL
 62
8
 10
2646.975
 20
-3749.357
 30
2786.274
 70
    32
  0
VERTEX
  8
T24SSILL
 62
8
 10
2613.990
 20
-3772.829
 30
2786.315
 70
    32
  0
VERTEX
  8
T24SSILL
 62
8
 10
2626.121
 20
-3790.949
 30
2786.291
 70
    32
  0
VERTEX
  8
T24SSILL
 62
8
 10
2616.528
 20
-3796.390
 30
2786.303
 70
    32
  0
VERTEX
  8
T24SSILL
 62
8
 10
2623.567
 20
-3805.986
 30
2786.290
 70
    32
  0
SEQEND
  8
T24SSILL
  0
POLYLINE
  8
T24SSILL
 62
8
 66
     1
 70
     9
  0
VERTEX
  8
T24SSILL
 62
8
 10
2522.214
 20
-3604.025
 30
2786.433
 70
    32
  0
VERTEX
  8
T24SSILL
 62
8
 10
2546.946
 20
-3559.022
 30
2786.376
 70
    32
  0
VERTEX
  8
T24SSILL
 62
8
 10
2556.618
 20
-3563.862
 30
2786.362
 70
    32
  0
VERTEX
  8
T24SSILL
 62
8
 10
2564.091
 20
-3573.801
 30
2786.354
 70
    32
  0
VERTEX
  8
T24SSILL
 62
8
 10
2570.246
 20
-3577.320
 30
2786.346
 70
    32
  0
VERTEX
  8
T24SSILL
 62
8
 10
2580.625
 20
-3570.727
 30
2786.327
 70
    32
  0
VERTEX
  8
T24SSILL
 62
8
 10
2579.658
 20
-3569.144
 30
2786.328
 70
    32
  0
VERTEX
  8
T24SSILL
 62
8
 10
2593.292
 20
-3558.858
 30
2786.302
 70
    32
  0
VERTEX
  8
T24SSILL
 62
8
 10
2604.897
 20
-3573.548
 30
2786.289
 70
    32
  0
VERTEX
  8
T24SSILL
 62
8
 10
2659.344
 20
-3534.692
 30
2786.187
 70
    32
  0
VERTEX
  8
T24SSILL
 62
8
 10
2662.599
 20
-3528.536
 30
2786.179
 70
    32
  0
VERTEX
  8
T24SSILL
 62
8
 10
2608.006
 20
-3456.321
 30
2786.238
 70
    32
  0
VERTEX
  8
T24SSILL
 62
8
 10
2541.068
 20
-3503.529
 30
2786.363
 70
    32
  0
VERTEX
  8
T24SSILL
 62
8
 10
2547.663
 20
-3509.159
 30
2786.355
 70
    32
  0
VERTEX
  8
T24SSILL
 62
8
 10
2541.330
 20
-3513.906
 30
2786.367
 70
    32
  0
VERTEX
  8
T24SSILL
 62
8
 10
2548.100
 20
-3519.712
 30
2786.358
 70
    32
  0
VERTEX
  8
T24SSILL
 62
8
 10
2487.583
 20
-3563.316
 30
2786.472
 70
    32
  0
VERTEX
  8
T24SSILL
 62
8
 10
2488.828
 20
-3565.828
 30
2786.471
 70
    32
  0
VERTEX
  8
T24SSILL
 62
8
 10
2492.508
 20
-3563.229
 30
2786.464
 70
    32
  0
SEQEND
  8
T24SSILL
  0
POLYLINE
  8
T24SSILL
 62
8
 66
     1
 70
     9
  0
VERTEX
  8
T24SSILL
 62
8
 10
2493.514
 20
-3750.196
 30
2786.499
 70
    32
  0
VERTEX
  8
T24SSILL
 62
8
 10
2507.582
 20
-3760.841
 30
2786.475
 70
    32
  0
VERTEX
  8
T24SSILL
 62
8
 10
2511.012
 20
-3758.995
 30
2786.470
 70
    32
  0
VERTEX
  8
T24SSILL
 62
8
 10
2508.376
 20
-3753.102
 30
2786.476
 70
    32
  0
VERTEX
  8
T24SSILL
 62
8
 10
2538.106
 20
-3733.587
 30
2786.439
 70
    32
  0
VERTEX
  8
T24SSILL
 62
8
 10
2536.172
 20
-3727.518
 30
2786.444
 70
    32
  0
VERTEX
  8
T24SSILL
 62
8
 10
2513.479
 20
-3744.837
 30
2786.471
 70
    32
  0
VERTEX
  8
T24SSILL
 62
8
 10
2509.082
 20
-3743.517
 30
2786.478
 70
    32
  0
VERTEX
  8
T24SSILL
 62
8
 10
2514.095
 20
-3740.440
 30
2786.472
 70
    32
  0
VERTEX
  8
T24SSILL
 62
8
 10
2510.931
 20
-3735.338
 30
2786.478
 70
    32
  0
VERTEX
  8
T24SSILL
 62
8
 10
2505.565
 20
-3738.679
 30
2786.485
 70
    32
  0
VERTEX
  8
T24SSILL
 62
8
 10
2498.270
 20
-3722.847
 30
2786.501
 70
    32
  0
VERTEX
  8
T24SSILL
 62
8
 10
2495.016
 20
-3724.429
 30
2786.505
 70
    32
  0
VERTEX
  8
T24SSILL
 62
8
 10
2491.763
 20
-3720.031
 30
2786.511
 70
    32
  0
VERTEX
  8
T24SSILL
 62
8
 10
2495.282
 20
-3717.746
 30
2786.507
 70
    32
  0
VERTEX
  8
T24SSILL
 62
8
 10
2494.491
 20
-3713.436
 30
2786.510
 70
    32
  0
VERTEX
  8
T24SSILL
 62
8
 10
2473.297
 20
-3714.310
 30
2786.540
 70
    32
  0
VERTEX
  8
T24SSILL
 62
8
 10
2486.659
 20
-3731.990
 30
2786.515
 70
    32
  0
VERTEX
  8
T24SSILL
 62
8
 10
2492.987
 20
-3746.502
 30
2786.501
 70
    32
  0
SEQEND
  8
T24SSILL
  0
POLYLINE
  8
T24SSILL
 62
8
 66
     1
 70
     9
  0
VERTEX
  8
T24SSILL
 62
8
 10
2468.451
 20
-3747.903
 30
2786.537
 70
    32
  0
VERTEX
  8
T24SSILL
 62
8
 10
2463.437
 20
-3751.156
 30
2786.543
 70
    32
  0
VERTEX
  8
T24SSILL
 62
8
 10
2442.778
 20
-3723.360
 30
2786.582
 70
    32
  0
VERTEX
  8
T24SSILL
 62
8
 10
2452.373
 20
-3716.159
 30
2786.571
 70
    32
  0
VERTEX
  8
T24SSILL
 62
8
 10
2452.191
 20
-3713.865
 30
2786.572
 70
    32
  0
VERTEX
  8
T24SSILL
 62
8
 10
2431.348
 20
-3714.827
 30
2786.602
 70
    32
  0
VERTEX
  8
T24SSILL
 62
8
 10
2431.434
 20
-3719.664
 30
2786.600
 70
    32
  0
VERTEX
  8
T24SSILL
 62
8
 10
2427.804
 20
-3719.615
 30
2786.605
 70
    32
  0
VERTEX
  8
T24SSILL
 62
8
 10
2453.854
 20
-3742.359
 30
2786.560
 70
    32
  0
VERTEX
  8
T24SSILL
 62
8
 10
2461.502
 20
-3754.761
 30
2786.545
 70
    32
  0
VERTEX
  8
T24SSILL
 62
8
 10
2466.075
 20
-3752.387
 30
2786.539
 70
    32
  0
VERTEX
  8
T24SSILL
 62
8
 10
2472.668
 20
-3762.415
 30
2786.526
 70
    32
  0
VERTEX
  8
T24SSILL
 62
8
 10
2477.316
 20
-3759.294
 30
2786.520
 70
    32
  0
SEQEND
  8
T24SSILL
  0
POLYLINE
  8
T24SSILL
 62
8
 66
     1
 70
     9
  0
VERTEX
  8
T24SSILL
 62
8
 10
2526.482
 20
-3789.515
 30
2786.438
 70
    32
  0
VERTEX
  8
T24SSILL
 62
8
 10
2512.185
 20
-3772.727
 30
2786.464
 70
    32
  0
VERTEX
  8
T24SSILL
 62
8
 10
2499.046
 20
-3781.857
 30
2786.481
 70
    32
  0
VERTEX
  8
T24SSILL
 62
8
 10
2505.199
 20
-3792.500
 30
2786.468
 70
    32
  0
VERTEX
  8
T24SSILL
 62
8
 10
2500.626
 20
-3795.401
 30
2786.474
 70
    32
  0
VERTEX
  8
T24SSILL
 62
8
 10
2507.043
 20
-3805.516
 30
2786.461
 70
    32
  0
VERTEX
  8
T24SSILL
 62
8
 10
2501.941
 20
-3808.944
 30
2786.468
 70
    32
  0
VERTEX
  8
T24SSILL
 62
8
 10
2545.747
 20
-3867.926
 30
2786.384
 70
    32
  0
VERTEX
  8
T24SSILL
 62
8
 10
2559.976
 20
-3857.688
 30
2786.366
 70
    32
  0
VERTEX
  8
T24SSILL
 62
8
 10
2550.037
 20
-3843.694
 30
2786.386
 70
    32
  0
VERTEX
  8
T24SSILL
 62
8
 10
2549.333
 20
-3844.486
 30
2786.386
 70
    32
  0
VERTEX
  8
T24SSILL
 62
8
 10
2541.072
 20
-3823.553
 30
2786.405
 70
    32
  0
VERTEX
  8
T24SSILL
 62
8
 10
2534.392
 20
-3811.064
 30
2786.419
 70
    32
  0
SEQEND
  8
T24SSILL
  0
POLYLINE
  8
T24SSILL
 62
8
 66
     1
 70
     9
  0
VERTEX
  8
T24SSILL
 62
8
 10
2400.890
 20
-3455.723
 30
2786.554
 70
    32
  0
VERTEX
  8
T24SSILL
 62
8
 10
2411.456
 20
-3443.165
 30
2786.531
 70
    32
  0
VERTEX
  8
T24SSILL
 62
8
 10
2420.869
 20
-3434.198
 30
2786.513
 70
    32
  0
VERTEX
  8
T24SSILL
 62
8
 10
2436.929
 20
-3425.422
 30
2786.484
 70
    32
  0
VERTEX
  8
T24SSILL
 62
8
 10
2439.594
 20
-3429.081
 30
2786.482
 70
    32
  0
VERTEX
  8
T24SSILL
 62
8
 10
2434.412
 20
-3432.442
 30
2786.491
 70
    32
  0
VERTEX
  8
T24SSILL
 62
8
 10
2442.334
 20
-3443.632
 30
2786.485
 70
    32
  0
VERTEX
  8
T24SSILL
 62
8
 10
2422.445
 20
-3458.470
 30
2786.522
 70
    32
  0
VERTEX
  8
T24SSILL
 62
8
 10
2419.456
 20
-3454.160
 30
2786.525
 70
    32
  0
VERTEX
  8
T24SSILL
 62
8
 10
2413.915
 20
-3457.941
 30
2786.535
 70
    32
  0
VERTEX
  8
T24SSILL
 62
8
 10
2416.904
 20
-3462.778
 30
2786.533
 70
    32
  0
VERTEX
  8
T24SSILL
 62
8
 10
2409.427
 20
-3468.405
 30
2786.547
 70
    32
  0
SEQEND
  8
T24SSILL
  0
POLYLINE
  8
T24SSILL
 62
8
 66
     1
 70
     9
  0
VERTEX
  8
T24SSILL
 62
8
 10
-686.920
 20
-1237.179
 30
2789.110
 70
    32
  0
VERTEX
  8
T24SSILL
 62
8
 10
-683.503
 20
-1242.317
 30
2789.104
 70
    32
  0
VERTEX
  8
T24SSILL
 62
8
 10
-686.920
 20
-1237.179
 30
2789.110
 70
    32
  0
VERTEX
  8
T24SSILL
 62
8
 10
-676.068
 20
-1229.937
 30
2789.114
 70
    32
  0
VERTEX
  8
T24SSILL
 62
8
 10
-675.705
 20
-1228.925
 30
2789.115
 70
    32
  0
VERTEX
  8
T24SSILL
 62
8
 10
-670.097
 20
-1225.715
 30
2789.116
 70
    32
  0
VERTEX
  8
T24SSILL
 62
8
 10
-663.339
 20
-1219.857
 30
2789.120
 70
    32
  0
VERTEX
  8
T24SSILL
 62
8
 10
-656.746
 20
-1218.649
 30
2789.119
 70
    32
  0
VERTEX
  8
T24SSILL
 62
8
 10
-652.688
 20
-1220.420
 30
2789.115
 70
    32
  0
VERTEX
  8
T24SSILL
 62
8
 10
-628.514
 20
-1203.326
 30
2789.124
 70
    32
  0
VERTEX
  8
T24SSILL
 62
8
 10
-624.435
 20
-1209.400
 30
2789.117
 70
    32
  0
VERTEX
  8
T24SSILL
 62
8
 10
-648.720
 20
-1226.032
 30
2789.108
 70
    32
  0
VERTEX
  8
T24SSILL
 62
8
 10
-645.455
 20
-1230.954
 30
2789.102
 70
    32
  0
VERTEX
  8
T24SSILL
 62
8
 10
-658.360
 20
-1239.108
 30
2789.099
 70
    32
  0
VERTEX
  8
T24SSILL
 62
8
 10
-659.239
 20
-1240.917
 30
2789.097
 70
    32
  0
VERTEX
  8
T24SSILL
 62
8
 10
-661.298
 20
-1240.753
 30
2789.098
 70
    32
  0
VERTEX
  8
T24SSILL
 62
8
 10
-673.794
 20
-1251.316
 30
2789.092
 70
    32
  0
VERTEX
  8
T24SSILL
 62
8
 10
-676.657
 20
-1250.319
 30
2789.094
 70
    32
  0
VERTEX
  8
T24SSILL
 62
8
 10
-678.870
 20
-1248.106
 30
2789.097
 70
    32
  0
VERTEX
  8
T24SSILL
 62
8
 10
-869.950
 20
-1384.622
 30
2789.045
 70
    32
  0
VERTEX
  8
T24SSILL
 62
8
 10
-875.441
 20
-1391.203
 30
2789.031
 70
    32
  0
VERTEX
  8
T24SSILL
 62
8
 10
-878.101
 20
-1401.178
 30
2789.009
 70
    32
  0
VERTEX
  8
T24SSILL
 62
8
 10
-878.249
 20
-1406.463
 30
2788.995
 70
    32
  0
VERTEX
  8
T24SSILL
 62
8
 10
-876.358
 20
-1413.868
 30
2788.974
 70
    32
  0
VERTEX
  8
T24SSILL
 62
8
 10
-874.480
 20
-1417.288
 30
2788.964
 70
    32
  0
VERTEX
  8
T24SSILL
 62
8
 10
-775.102
 20
-1555.846
 30
2788.566
 70
    32
  0
VERTEX
  8
T24SSILL
 62
8
 10
-774.868
 20
-1551.903
 30
2788.578
 70
    32
  0
VERTEX
  8
T24SSILL
 62
8
 10
-771.737
 20
-1543.969
 30
2788.601
 70
    32
  0
VERTEX
  8
T24SSILL
 62
8
 10
-765.887
 20
-1535.300
 30
2788.627
 70
    32
  0
VERTEX
  8
T24SSILL
 62
8
 10
-761.177
 20
-1531.430
 30
2788.639
 70
    32
  0
VERTEX
  8
T24SSILL
 62
8
 10
-589.464
 20
-1409.040
 30
2788.904
 70
    32
  0
VERTEX
  8
T24SSILL
 62
8
 10
-592.749
 20
-1404.241
 30
2788.910
 70
    32
  0
VERTEX
  8
T24SSILL
 62
8
 10
-575.049
 20
-1397.984
 30
2788.910
 70
    32
  0
VERTEX
  8
T24SSILL
 62
8
 10
-550.578
 20
-1381.005
 30
2788.919
 70
    32
  0
VERTEX
  8
T24SSILL
 62
8
 10
-535.639
 20
-1369.470
 30
2788.925
 70
    32
  0
VERTEX
  8
T24SSILL
 62
8
 10
-531.889
 20
-1367.142
 30
2788.926
 70
    32
  0
VERTEX
  8
T24SSILL
 62
8
 10
-529.085
 20
-1367.750
 30
2788.925
 70
    32
  0
VERTEX
  8
T24SSILL
 62
8
 10
-528.714
 20
-1371.480
 30
2788.921
 70
    32
  0
VERTEX
  8
T24SSILL
 62
8
 10
-540.054
 20
-1382.305
 30
2788.914
 70
    32
  0
VERTEX
  8
T24SSILL
 62
8
 10
-572.469
 20
-1404.686
 30
2788.903
 70
    32
  0
VERTEX
  8
T24SSILL
 62
8
 10
-570.545
 20
-1407.102
 30
2788.900
 70
    32
  0
VERTEX
  8
T24SSILL
 62
8
 10
-569.499
 20
-1411.328
 30
2788.895
 70
    32
  0
VERTEX
  8
T24SSILL
 62
8
 10
-583.029
 20
-1421.650
 30
2788.889
 70
    32
  0
VERTEX
  8
T24SSILL
 62
8
 10
-587.933
 20
-1416.699
 30
2788.896
 70
    32
  0
VERTEX
  8
T24SSILL
 62
8
 10
-621.248
 20
-1441.012
 30
2788.883
 70
    32
  0
VERTEX
  8
T24SSILL
 62
8
 10
-560.387
 20
-1446.650
 30
2788.856
 70
    32
  0
VERTEX
  8
T24SSILL
 62
8
 10
-507.388
 20
-1408.203
 30
2788.877
 70
    32
  0
VERTEX
  8
T24SSILL
 62
8
 10
-502.758
 20
-1414.750
 30
2788.868
 70
    32
  0
VERTEX
  8
T24SSILL
 62
8
 10
-545.762
 20
-1445.050
 30
2788.853
 70
    32
  0
VERTEX
  8
T24SSILL
 62
8
 10
-557.916
 20
-1454.723
 30
2788.847
 70
    32
  0
VERTEX
  8
T24SSILL
 62
8
 10
-630.005
 20
-1447.096
 30
2788.880
 70
    32
  0
VERTEX
  8
T24SSILL
 62
8
 10
-760.924
 20
-1540.641
 30
2788.612
 70
    32
  0
VERTEX
  8
T24SSILL
 62
8
 10
-764.892
 20
-1545.713
 30
2788.597
 70
    32
  0
VERTEX
  8
T24SSILL
 62
8
 10
-767.149
 20
-1550.762
 30
2788.582
 70
    32
  0
VERTEX
  8
T24SSILL
 62
8
 10
-767.981
 20
-1559.660
 30
2788.556
 70
    32
  0
VERTEX
  8
T24SSILL
 62
8
 10
-766.273
 20
-1566.654
 30
2788.536
 70
    32
  0
VERTEX
  8
T24SSILL
 62
8
 10
-763.490
 20
-1571.810
 30
2788.521
 70
    32
  0
VERTEX
  8
T24SSILL
 62
8
 10
-664.748
 20
-1710.385
 30
2788.609
 70
    32
  0
VERTEX
  8
T24SSILL
 62
8
 10
-663.766
 20
-1704.295
 30
2788.608
 70
    32
  0
VERTEX
  8
T24SSILL
 62
8
 10
-658.541
 20
-1693.370
 30
2788.609
 70
    32
  0
VERTEX
  8
T24SSILL
 62
8
 10
-650.214
 20
-1684.999
 30
2788.612
 70
    32
  0
VERTEX
  8
T24SSILL
 62
8
 10
-448.224
 20
-1539.798
 30
2788.721
 70
    32
  0
VERTEX
  8
T24SSILL
 62
8
 10
-442.951
 20
-1546.645
 30
2788.712
 70
    32
  0
VERTEX
  8
T24SSILL
 62
8
 10
-649.449
 20
-1694.171
 30
2788.615
 70
    32
  0
VERTEX
  8
T24SSILL
 62
8
 10
-654.554
 20
-1701.450
 30
2788.614
 70
    32
  0
VERTEX
  8
T24SSILL
 62
8
 10
-657.005
 20
-1708.363
 30
2788.614
 70
    32
  0
VERTEX
  8
T24SSILL
 62
8
 10
-657.273
 20
-1717.294
 30
2788.618
 70
    32
  0
VERTEX
  8
T24SSILL
 62
8
 10
-654.764
 20
-1724.047
 30
2788.624
 70
    32
  0
VERTEX
  8
T24SSILL
 62
8
 10
-608.261
 20
-1789.049
 30
2788.696
 70
    32
  0
VERTEX
  8
T24SSILL
 62
8
 10
-607.956
 20
-1785.056
 30
2788.695
 70
    32
  0
VERTEX
  8
T24SSILL
 62
8
 10
-604.927
 20
-1775.144
 30
2788.692
 70
    32
  0
VERTEX
  8
T24SSILL
 62
8
 10
-596.656
 20
-1765.626
 30
2788.695
 70
    32
  0
VERTEX
  8
T24SSILL
 62
8
 10
-449.959
 20
-1660.817
 30
2788.601
 70
    32
  0
VERTEX
  8
T24SSILL
 62
8
 10
-445.737
 20
-1666.789
 30
2788.601
 70
    32
  0
VERTEX
  8
T24SSILL
 62
8
 10
-589.810
 20
-1769.203
 30
2788.697
 70
    32
  0
VERTEX
  8
T24SSILL
 62
8
 10
-594.706
 20
-1773.421
 30
2788.700
 70
    32
  0
VERTEX
  8
T24SSILL
 62
8
 10
-598.014
 20
-1777.594
 30
2788.699
 70
    32
  0
VERTEX
  8
T24SSILL
 62
8
 10
-600.756
 20
-1785.469
 30
2788.701
 70
    32
  0
VERTEX
  8
T24SSILL
 62
8
 10
-601.290
 20
-1790.056
 30
2788.703
 70
    32
  0
VERTEX
  8
T24SSILL
 62
8
 10
-599.592
 20
-1801.157
 30
2788.707
 70
    32
  0
VERTEX
  8
T24SSILL
 62
8
 10
-525.329
 20
-1904.808
 30
2788.668
 70
    32
  0
VERTEX
  8
T24SSILL
 62
8
 10
-523.710
 20
-1896.109
 30
2788.641
 70
    32
  0
VERTEX
  8
T24SSILL
 62
8
 10
-520.168
 20
-1887.992
 30
2788.609
 70
    32
  0
VERTEX
  8
T24SSILL
 62
8
 10
-509.298
 20
-1876.961
 30
2788.544
 70
    32
  0
VERTEX
  8
T24SSILL
 62
8
 10
-393.881
 20
-1794.918
 30
2788.632
 70
    32
  0
VERTEX
  8
T24SSILL
 62
8
 10
-389.646
 20
-1800.449
 30
2788.632
 70
    32
  0
VERTEX
  8
T24SSILL
 62
8
 10
-509.494
 20
-1885.841
 30
2788.565
 70
    32
  0
VERTEX
  8
T24SSILL
 62
8
 10
-513.386
 20
-1890.104
 30
2788.590
 70
    32
  0
VERTEX
  8
T24SSILL
 62
8
 10
-517.040
 20
-1895.926
 30
2788.617
 70
    32
  0
VERTEX
  8
T24SSILL
 62
8
 10
-518.010
 20
-1901.576
 30
2788.633
 70
    32
  0
VERTEX
  8
T24SSILL
 62
8
 10
-516.306
 20
-1913.753
 30
2788.656
 70
    32
  0
VERTEX
  8
T24SSILL
 62
8
 10
-514.294
 20
-1919.345
 30
2788.662
 70
    32
  0
VERTEX
  8
T24SSILL
 62
8
 10
-416.352
 20
-2056.819
 30
2788.673
 70
    32
  0
VERTEX
  8
T24SSILL
 62
8
 10
-414.567
 20
-2048.439
 30
2788.656
 70
    32
  0
VERTEX
  8
T24SSILL
 62
8
 10
-408.771
 20
-2037.308
 30
2788.626
 70
    32
  0
VERTEX
  8
T24SSILL
 62
8
 10
-405.613
 20
-2033.743
 30
2788.614
 70
    32
  0
VERTEX
  8
T24SSILL
 62
8
 10
-399.454
 20
-2028.623
 30
2788.635
 70
    32
  0
VERTEX
  8
T24SSILL
 62
8
 10
-325.207
 20
-1976.068
 30
2788.679
 70
    32
  0
VERTEX
  8
T24SSILL
 62
8
 10
-328.015
 20
-1973.577
 30
2788.680
 70
    32
  0
VERTEX
  8
T24SSILL
 62
8
 10
-327.507
 20
-1960.530
 30
2788.672
 70
    32
  0
VERTEX
  8
T24SSILL
 62
8
 10
-339.945
 20
-1946.485
 30
2788.675
 70
    32
  0
VERTEX
  8
T24SSILL
 62
8
 10
-338.614
 20
-1945.290
 30
2788.673
 70
    32
  0
VERTEX
  8
T24SSILL
 62
8
 10
-349.756
 20
-1917.466
 30
2788.666
 70
    32
  0
VERTEX
  8
T24SSILL
 62
8
 10
-339.418
 20
-1901.011
 30
2788.648
 70
    32
  0
VERTEX
  8
T24SSILL
 62
8
 10
-327.817
 20
-1896.434
 30
2788.636
 70
    32
  0
VERTEX
  8
T24SSILL
 62
8
 10
-307.818
 20
-1914.074
 30
2788.630
 70
    32
  0
VERTEX
  8
T24SSILL
 62
8
 10
-302.799
 20
-1911.083
 30
2788.624
 70
    32
  0
VERTEX
  8
T24SSILL
 62
8
 10
-299.315
 20
-1920.544
 30
2788.626
 70
    32
  0
VERTEX
  8
T24SSILL
 62
8
 10
-294.054
 20
-1927.881
 30
2788.626
 70
    32
  0
VERTEX
  8
T24SSILL
 62
8
 10
-297.203
 20
-1948.812
 30
2788.641
 70
    32
  0
VERTEX
  8
T24SSILL
 62
8
 10
-296.867
 20
-1950.286
 30
2788.641
 70
    32
  0
VERTEX
  8
T24SSILL
 62
8
 10
-270.953
 20
-1981.717
 30
2788.638
 70
    32
  0
VERTEX
  8
T24SSILL
 62
8
 10
-256.546
 20
-1994.570
 30
2788.634
 70
    32
  0
VERTEX
  8
T24SSILL
 62
8
 10
-242.587
 20
-2003.693
 30
2788.627
 70
    32
  0
VERTEX
  8
T24SSILL
 62
8
 10
-235.096
 20
-2016.339
 30
2788.628
 70
    32
  0
VERTEX
  8
T24SSILL
 62
8
 10
-230.484
 20
-2020.925
 30
2788.627
 70
    32
  0
VERTEX
  8
T24SSILL
 62
8
 10
-234.226
 20
-2028.583
 30
2788.635
 70
    32
  0
VERTEX
  8
T24SSILL
 62
8
 10
-253.836
 20
-2016.194
 30
2788.644
 70
    32
  0
VERTEX
  8
T24SSILL
 62
8
 10
-258.374
 20
-2016.220
 30
2788.648
 70
    32
  0
VERTEX
  8
T24SSILL
 62
8
 10
-264.097
 20
-2013.002
 30
2788.650
 70
    32
  0
VERTEX
  8
T24SSILL
 62
8
 10
-273.126
 20
-2013.447
 30
2788.658
 70
    32
  0
VERTEX
  8
T24SSILL
 62
8
 10
-280.038
 20
-2007.622
 30
2788.660
 70
    32
  0
VERTEX
  8
T24SSILL
 62
8
 10
-286.608
 20
-2006.976
 30
2788.665
 70
    32
  0
VERTEX
  8
T24SSILL
 62
8
 10
-298.883
 20
-1994.624
 30
2788.668
 70
    32
  0
VERTEX
  8
T24SSILL
 62
8
 10
-307.502
 20
-1991.514
 30
2788.674
 70
    32
  0
VERTEX
  8
T24SSILL
 62
8
 10
-314.788
 20
-1996.530
 30
2788.683
 70
    32
  0
VERTEX
  8
T24SSILL
 62
8
 10
-319.781
 20
-1994.419
 30
2788.686
 70
    32
  0
VERTEX
  8
T24SSILL
 62
8
 10
-324.728
 20
-1997.681
 30
2788.691
 70
    32
  0
VERTEX
  8
T24SSILL
 62
8
 10
-329.523
 20
-1995.228
 30
2788.694
 70
    32
  0
VERTEX
  8
T24SSILL
 62
8
 10
-337.364
 20
-1993.618
 30
2788.700
 70
    32
  0
VERTEX
  8
T24SSILL
 62
8
 10
-395.436
 20
-2034.236
 30
2788.641
 70
    32
  0
VERTEX
  8
T24SSILL
 62
8
 10
-402.089
 20
-2040.212
 30
2788.619
 70
    32
  0
VERTEX
  8
T24SSILL
 62
8
 10
-404.014
 20
-2042.434
 30
2788.626
 70
    32
  0
VERTEX
  8
T24SSILL
 62
8
 10
-408.349
 20
-2050.801
 30
2788.648
 70
    32
  0
VERTEX
  8
T24SSILL
 62
8
 10
-409.927
 20
-2057.244
 30
2788.663
 70
    32
  0
VERTEX
  8
T24SSILL
 62
8
 10
-408.664
 20
-2064.462
 30
2788.673
 70
    32
  0
VERTEX
  8
T24SSILL
 62
8
 10
-406.342
 20
-2070.876
 30
2788.680
 70
    32
  0
VERTEX
  8
T24SSILL
 62
8
 10
-277.407
 20
-2251.651
 30
2788.762
 70
    32
  0
VERTEX
  8
T24SSILL
 62
8
 10
-273.689
 20
-2239.135
 30
2788.766
 70
    32
  0
VERTEX
  8
T24SSILL
 62
8
 10
-268.279
 20
-2231.755
 30
2788.779
 70
    32
  0
VERTEX
  8
T24SSILL
 62
8
 10
-265.469
 20
-2228.949
 30
2788.776
 70
    32
  0
VERTEX
  8
T24SSILL
 62
8
 10
-213.519
 20
-2191.096
 30
2788.711
 70
    32
  0
VERTEX
  8
T24SSILL
 62
8
 10
-211.805
 20
-2182.127
 30
2788.705
 70
    32
  0
VERTEX
  8
T24SSILL
 62
8
 10
-212.285
 20
-2175.134
 30
2788.701
 70
    32
  0
VERTEX
  8
T24SSILL
 62
8
 10
-214.800
 20
-2168.105
 30
2788.699
 70
    32
  0
VERTEX
  8
T24SSILL
 62
8
 10
-219.826
 20
-2158.072
 30
2788.697
 70
    32
  0
VERTEX
  8
T24SSILL
 62
8
 10
-224.409
 20
-2152.407
 30
2788.698
 70
    32
  0
VERTEX
  8
T24SSILL
 62
8
 10
-227.971
 20
-2148.611
 30
2788.699
 70
    32
  0
VERTEX
  8
T24SSILL
 62
8
 10
-229.904
 20
-2147.767
 30
2788.700
 70
    32
  0
VERTEX
  8
T24SSILL
 62
8
 10
-248.487
 20
-2150.592
 30
2788.717
 70
    32
  0
VERTEX
  8
T24SSILL
 62
8
 10
-257.441
 20
-2126.728
 30
2788.710
 70
    32
  0
VERTEX
  8
T24SSILL
 62
8
 10
-252.084
 20
-2124.891
 30
2788.705
 70
    32
  0
VERTEX
  8
T24SSILL
 62
8
 10
-254.565
 20
-2115.827
 30
2788.702
 70
    32
  0
VERTEX
  8
T24SSILL
 62
8
 10
-261.266
 20
-2102.449
 30
2788.699
 70
    32
  0
VERTEX
  8
T24SSILL
 62
8
 10
-264.510
 20
-2093.995
 30
2788.697
 70
    32
  0
VERTEX
  8
T24SSILL
 62
8
 10
-264.906
 20
-2085.040
 30
2788.692
 70
    32
  0
VERTEX
  8
T24SSILL
 62
8
 10
-262.946
 20
-2075.802
 30
2788.686
 70
    32
  0
VERTEX
  8
T24SSILL
 62
8
 10
-260.265
 20
-2069.586
 30
2788.680
 70
    32
  0
VERTEX
  8
T24SSILL
 62
8
 10
-259.605
 20
-2060.464
 30
2788.674
 70
    32
  0
VERTEX
  8
T24SSILL
 62
8
 10
-257.499
 20
-2056.428
 30
2788.670
 70
    32
  0
VERTEX
  8
T24SSILL
 62
8
 10
-254.860
 20
-2053.522
 30
2788.666
 70
    32
  0
VERTEX
  8
T24SSILL
 62
8
 10
-250.853
 20
-2051.727
 30
2788.662
 70
    32
  0
VERTEX
  8
T24SSILL
 62
8
 10
-240.111
 20
-2056.933
 30
2788.656
 70
    32
  0
VERTEX
  8
T24SSILL
 62
8
 10
-231.923
 20
-2062.764
 30
2788.653
 70
    32
  0
VERTEX
  8
T24SSILL
 62
8
 10
-224.138
 20
-2070.555
 30
2788.651
 70
    32
  0
VERTEX
  8
T24SSILL
 62
8
 10
-219.484
 20
-2076.490
 30
2788.650
 70
    32
  0
VERTEX
  8
T24SSILL
 62
8
 10
-212.641
 20
-2081.406
 30
2788.647
 70
    32
  0
VERTEX
  8
T24SSILL
 62
8
 10
-208.594
 20
-2086.259
 30
2788.647
 70
    32
  0
VERTEX
  8
T24SSILL
 62
8
 10
-207.861
 20
-2091.708
 30
2788.649
 70
    32
  0
VERTEX
  8
T24SSILL
 62
8
 10
-208.873
 20
-2112.185
 30
2788.662
 70
    32
  0
VERTEX
  8
T24SSILL
 62
8
 10
-206.137
 20
-2133.686
 30
2788.672
 70
    32
  0
VERTEX
  8
T24SSILL
 62
8
 10
-205.172
 20
-2136.757
 30
2788.673
 70
    32
  0
VERTEX
  8
T24SSILL
 62
8
 10
-202.997
 20
-2138.289
 30
2788.672
 70
    32
  0
VERTEX
  8
T24SSILL
 62
8
 10
-199.808
 20
-2138.306
 30
2788.669
 70
    32
  0
VERTEX
  8
T24SSILL
 62
8
 10
-202.988
 20
-2150.995
 30
2788.679
 70
    32
  0
VERTEX
  8
T24SSILL
 62
8
 10
-205.340
 20
-2155.300
 30
2788.684
 70
    32
  0
VERTEX
  8
T24SSILL
 62
8
 10
-202.844
 20
-2166.155
 30
2788.688
 70
    32
  0
VERTEX
  8
T24SSILL
 62
8
 10
-198.142
 20
-2177.144
 30
2788.690
 70
    32
  0
VERTEX
  8
T24SSILL
 62
8
 10
-194.857
 20
-2177.626
 30
2788.688
 70
    32
  0
VERTEX
  8
T24SSILL
 62
8
 10
-158.239
 20
-2152.539
 30
2788.643
 70
    32
  0
VERTEX
  8
T24SSILL
 62
8
 10
-153.760
 20
-2157.504
 30
2788.643
 70
    32
  0
VERTEX
  8
T24SSILL
 62
8
 10
-190.203
 20
-2183.562
 30
2788.688
 70
    32
  0
VERTEX
  8
T24SSILL
 62
8
 10
-191.632
 20
-2194.568
 30
2788.695
 70
    32
  0
VERTEX
  8
T24SSILL
 62
8
 10
-190.975
 20
-2210.024
 30
2788.703
 70
    32
  0
VERTEX
  8
T24SSILL
 62
8
 10
-194.279
 20
-2213.368
 30
2788.708
 70
    32
  0
VERTEX
  8
T24SSILL
 62
8
 10
-193.083
 20
-2219.359
 30
2788.710
 70
    32
  0
VERTEX
  8
T24SSILL
 62
8
 10
-191.430
 20
-2222.189
 30
2788.711
 70
    32
  0
VERTEX
  8
T24SSILL
 62
8
 10
-188.623
 20
-2224.999
 30
2788.710
 70
    32
  0
VERTEX
  8
T24SSILL
 62
8
 10
-183.388
 20
-2227.798
 30
2788.707
 70
    32
  0
VERTEX
  8
T24SSILL
 62
8
 10
-172.516
 20
-2255.375
 30
2788.714
 70
    32
  0
VERTEX
  8
T24SSILL
 62
8
 10
-172.229
 20
-2261.754
 30
2788.718
 70
    32
  0
VERTEX
  8
T24SSILL
 62
8
 10
-169.744
 20
-2269.861
 30
2788.720
 70
    32
  0
VERTEX
  8
T24SSILL
 62
8
 10
-171.511
 20
-2279.713
 30
2788.727
 70
    32
  0
VERTEX
  8
T24SSILL
 62
8
 10
-168.579
 20
-2291.551
 30
2788.732
 70
    32
  0
VERTEX
  8
T24SSILL
 62
8
 10
-164.489
 20
-2302.413
 30
2788.735
 70
    32
  0
VERTEX
  8
T24SSILL
 62
8
 10
-158.790
 20
-2310.414
 30
2788.735
 70
    32
  0
VERTEX
  8
T24SSILL
 62
8
 10
-153.839
 20
-2315.836
 30
2788.734
 70
    32
  0
VERTEX
  8
T24SSILL
 62
8
 10
-144.463
 20
-2333.913
 30
2788.723
 70
    32
  0
VERTEX
  8
T24SSILL
 62
8
 10
-136.308
 20
-2341.460
 30
2788.718
 70
    32
  0
VERTEX
  8
T24SSILL
 62
8
 10
-133.006
 20
-2352.736
 30
2788.758
 70
    32
  0
VERTEX
  8
T24SSILL
 62
8
 10
-122.872
 20
-2356.859
 30
2788.757
 70
    32
  0
VERTEX
  8
T24SSILL
 62
8
 10
-116.114
 20
-2364.056
 30
2788.775
 70
    32
  0
VERTEX
  8
T24SSILL
 62
8
 10
-125.054
 20
-2371.222
 30
2788.819
 70
    32
  0
VERTEX
  8
T24SSILL
 62
8
 10
-123.869
 20
-2374.466
 30
2788.830
 70
    32
  0
VERTEX
  8
T24SSILL
 62
8
 10
-106.398
 20
-2387.629
 30
2788.853
 70
    32
  0
VERTEX
  8
T24SSILL
 62
8
 10
-98.955
 20
-2404.862
 30
2788.911
 70
    32
  0
VERTEX
  8
T24SSILL
 62
8
 10
-101.196
 20
-2411.424
 30
2788.941
 70
    32
  0
VERTEX
  8
T24SSILL
 62
8
 10
-95.157
 20
-2429.582
 30
2789.004
 70
    32
  0
VERTEX
  8
T24SSILL
 62
8
 10
-93.035
 20
-2431.997
 30
2789.010
 70
    32
  0
VERTEX
  8
T24SSILL
 62
8
 10
-92.566
 20
-2436.243
 30
2789.027
 70
    32
  0
VERTEX
  8
T24SSILL
 62
8
 10
-101.575
 20
-2456.801
 30
2789.126
 70
    32
  0
VERTEX
  8
T24SSILL
 62
8
 10
-101.832
 20
-2458.983
 30
2789.135
 70
    32
  0
VERTEX
  8
T24SSILL
 62
8
 10
-100.219
 20
-2465.123
 30
2789.157
 70
    32
  0
VERTEX
  8
T24SSILL
 62
8
 10
-104.766
 20
-2471.723
 30
2789.192
 70
    32
  0
VERTEX
  8
T24SSILL
 62
8
 10
-103.326
 20
-2477.765
 30
2789.214
 70
    32
  0
VERTEX
  8
T24SSILL
 62
8
 10
-97.943
 20
-2480.466
 30
2789.215
 70
    32
  0
VERTEX
  8
T24SSILL
 62
8
 10
-88.186
 20
-2481.450
 30
2789.203
 70
    32
  0
VERTEX
  8
T24SSILL
 62
8
 10
-82.166
 20
-2479.492
 30
2789.184
 70
    32
  0
VERTEX
  8
T24SSILL
 62
8
 10
-73.851
 20
-2474.751
 30
2789.151
 70
    32
  0
VERTEX
  8
T24SSILL
 62
8
 10
-70.707
 20
-2478.716
 30
2789.162
 70
    32
  0
VERTEX
  8
T24SSILL
 62
8
 10
-68.790
 20
-2482.749
 30
2789.175
 70
    32
  0
VERTEX
  8
T24SSILL
 62
8
 10
-76.658
 20
-2496.199
 30
2789.194
 70
    32
  0
VERTEX
  8
T24SSILL
 62
8
 10
-79.602
 20
-2505.873
 30
2789.201
 70
    32
  0
VERTEX
  8
T24SSILL
 62
8
 10
-80.112
 20
-2509.599
 30
2789.204
 70
    32
  0
VERTEX
  8
T24SSILL
 62
8
 10
-76.753
 20
-2514.694
 30
2789.201
 70
    32
  0
VERTEX
  8
T24SSILL
 62
8
 10
-73.304
 20
-2516.551
 30
2789.198
 70
    32
  0
VERTEX
  8
T24SSILL
 62
8
 10
-59.726
 20
-2518.828
 30
2789.181
 70
    32
  0
VERTEX
  8
T24SSILL
 62
8
 10
-53.513
 20
-2522.147
 30
2789.175
 70
    32
  0
VERTEX
  8
T24SSILL
 62
8
 10
-45.522
 20
-2523.340
 30
2789.165
 70
    32
  0
VERTEX
  8
T24SSILL
 62
8
 10
-38.934
 20
-2520.479
 30
2789.155
 70
    32
  0
VERTEX
  8
T24SSILL
 62
8
 10
-37.248
 20
-2516.931
 30
2789.152
 70
    32
  0
VERTEX
  8
T24SSILL
 62
8
 10
-34.892
 20
-2516.649
 30
2789.148
 70
    32
  0
VERTEX
  8
T24SSILL
 62
8
 10
-30.052
 20
-2524.793
 30
2789.146
 70
    32
  0
VERTEX
  8
T24SSILL
 62
8
 10
-23.283
 20
-2529.758
 30
2789.139
 70
    32
  0
VERTEX
  8
T24SSILL
 62
8
 10
-21.753
 20
-2532.881
 30
2789.138
 70
    32
  0
VERTEX
  8
T24SSILL
 62
8
 10
-21.987
 20
-2540.238
 30
2789.141
 70
    32
  0
VERTEX
  8
T24SSILL
 62
8
 10
-20.260
 20
-2543.019
 30
2789.139
 70
    32
  0
VERTEX
  8
T24SSILL
 62
8
 10
-20.073
 20
-2544.908
 30
2789.139
 70
    32
  0
VERTEX
  8
T24SSILL
 62
8
 10
-39.709
 20
-2561.880
 30
2789.156
 70
    32
  0
VERTEX
  8
T24SSILL
 62
8
 10
-41.374
 20
-2565.944
 30
2789.156
 70
    32
  0
VERTEX
  8
T24SSILL
 62
8
 10
-41.331
 20
-2571.954
 30
2789.154
 70
    32
  0
VERTEX
  8
T24SSILL
 62
8
 10
-38.530
 20
-2580.700
 30
2789.147
 70
    32
  0
VERTEX
  8
T24SSILL
 62
8
 10
-34.692
 20
-2588.128
 30
2789.139
 70
    32
  0
VERTEX
  8
T24SSILL
 62
8
 10
110.760
 20
-2791.063
 30
2788.887
 70
    32
  0
VERTEX
  8
T24SSILL
 62
8
 10
111.523
 20
-2785.793
 30
2788.888
 70
    32
  0
VERTEX
  8
T24SSILL
 62
8
 10
115.071
 20
-2777.839
 30
2788.888
 70
    32
  0
VERTEX
  8
T24SSILL
 62
8
 10
122.991
 20
-2768.804
 30
2788.882
 70
    32
  0
VERTEX
  8
T24SSILL
 62
8
 10
210.604
 20
-2707.118
 30
2788.809
 70
    32
  0
VERTEX
  8
T24SSILL
 62
8
 10
223.758
 20
-2696.221
 30
2788.798
 70
    32
  0
VERTEX
  8
T24SSILL
 62
8
 10
229.148
 20
-2688.007
 30
2788.796
 70
    32
  0
VERTEX
  8
T24SSILL
 62
8
 10
229.714
 20
-2682.761
 30
2788.797
 70
    32
  0
VERTEX
  8
T24SSILL
 62
8
 10
229.040
 20
-2675.472
 30
2788.801
 70
    32
  0
VERTEX
  8
T24SSILL
 62
8
 10
226.107
 20
-2668.613
 30
2788.807
 70
    32
  0
VERTEX
  8
T24SSILL
 62
8
 10
161.638
 20
-2550.154
 30
2788.910
 70
    32
  0
VERTEX
  8
T24SSILL
 62
8
 10
152.640
 20
-2553.811
 30
2788.923
 70
    32
  0
VERTEX
  8
T24SSILL
 62
8
 10
147.068
 20
-2554.518
 30
2788.930
 70
    32
  0
VERTEX
  8
T24SSILL
 62
8
 10
137.143
 20
-2557.460
 30
2788.943
 70
    32
  0
VERTEX
  8
T24SSILL
 62
8
 10
133.034
 20
-2555.084
 30
2788.948
 70
    32
  0
VERTEX
  8
T24SSILL
 62
8
 10
127.786
 20
-2550.176
 30
2788.953
 70
    32
  0
VERTEX
  8
T24SSILL
 62
8
 10
126.044
 20
-2550.265
 30
2788.956
 70
    32
  0
VERTEX
  8
T24SSILL
 62
8
 10
124.297
 20
-2551.311
 30
2788.958
 70
    32
  0
VERTEX
  8
T24SSILL
 62
8
 10
118.673
 20
-2562.222
 30
2788.966
 70
    32
  0
VERTEX
  8
T24SSILL
 62
8
 10
112.599
 20
-2560.401
 30
2788.973
 70
    32
  0
VERTEX
  8
T24SSILL
 62
8
 10
106.240
 20
-2556.861
 30
2788.981
 70
    32
  0
VERTEX
  8
T24SSILL
 62
8
 10
97.375
 20
-2554.019
 30
2788.993
 70
    32
  0
VERTEX
  8
T24SSILL
 62
8
 10
93.779
 20
-2551.940
 30
2788.997
 70
    32
  0
VERTEX
  8
T24SSILL
 62
8
 10
90.493
 20
-2547.116
 30
2789.000
 70
    32
  0
VERTEX
  8
T24SSILL
 62
8
 10
87.860
 20
-2539.106
 30
2789.000
 70
    32
  0
VERTEX
  8
T24SSILL
 62
8
 10
99.519
 20
-2518.389
 30
2788.977
 70
    32
  0
VERTEX
  8
T24SSILL
 62
8
 10
106.337
 20
-2504.148
 30
2788.961
 70
    32
  0
VERTEX
  8
T24SSILL
 62
8
 10
112.626
 20
-2497.459
 30
2788.923
 70
    32
  0
VERTEX
  8
T24SSILL
 62
8
 10
127.930
 20
-2488.216
 30
2788.860
 70
    32
  0
VERTEX
  8
T24SSILL
 62
8
 10
100.346
 20
-2437.865
 30
2788.703
 70
    32
  0
VERTEX
  8
T24SSILL
 62
8
 10
95.779
 20
-2433.990
 30
2788.695
 70
    32
  0
VERTEX
  8
T24SSILL
 62
8
 10
90.104
 20
-2426.186
 30
2788.673
 70
    32
  0
VERTEX
  8
T24SSILL
 62
8
 10
83.275
 20
-2418.400
 30
2788.653
 70
    32
  0
VERTEX
  8
T24SSILL
 62
8
 10
77.436
 20
-2413.881
 30
2788.645
 70
    32
  0
VERTEX
  8
T24SSILL
 62
8
 10
75.222
 20
-2410.362
 30
2788.634
 70
    32
  0
VERTEX
  8
T24SSILL
 62
8
 10
73.046
 20
-2404.170
 30
2788.613
 70
    32
  0
VERTEX
  8
T24SSILL
 62
8
 10
73.573
 20
-2396.936
 30
2788.583
 70
    32
  0
VERTEX
  8
T24SSILL
 62
8
 10
67.756
 20
-2392.933
 30
2788.576
 70
    32
  0
VERTEX
  8
T24SSILL
 62
8
 10
56.303
 20
-2387.773
 30
2788.575
 70
    32
  0
VERTEX
  8
T24SSILL
 62
8
 10
50.152
 20
-2386.637
 30
2788.581
 70
    32
  0
VERTEX
  8
T24SSILL
 62
8
 10
39.161
 20
-2386.998
 30
2788.601
 70
    32
  0
VERTEX
  8
T24SSILL
 62
8
 10
34.129
 20
-2387.561
 30
2788.612
 70
    32
  0
VERTEX
  8
T24SSILL
 62
8
 10
22.136
 20
-2392.185
 30
2788.652
 70
    32
  0
VERTEX
  8
T24SSILL
 62
8
 10
2.465
 20
-2401.553
 30
2788.723
 70
    32
  0
VERTEX
  8
T24SSILL
 62
8
 10
2.327
 20
-2404.398
 30
2788.735
 70
    32
  0
VERTEX
  8
T24SSILL
 62
8
 10
-2.201
 20
-2412.150
 30
2788.774
 70
    32
  0
VERTEX
  8
T24SSILL
 62
8
 10
8.498
 20
-2425.647
 30
2788.811
 70
    32
  0
VERTEX
  8
T24SSILL
 62
8
 10
9.113
 20
-2430.114
 30
2788.828
 70
    32
  0
VERTEX
  8
T24SSILL
 62
8
 10
15.129
 20
-2443.415
 30
2788.871
 70
    32
  0
VERTEX
  8
T24SSILL
 62
8
 10
16.563
 20
-2450.732
 30
2788.898
 70
    32
  0
VERTEX
  8
T24SSILL
 62
8
 10
20.867
 20
-2463.043
 30
2788.941
 70
    32
  0
VERTEX
  8
T24SSILL
 62
8
 10
14.448
 20
-2466.322
 30
2788.965
 70
    32
  0
VERTEX
  8
T24SSILL
 62
8
 10
3.452
 20
-2448.359
 30
2788.911
 70
    32
  0
VERTEX
  8
T24SSILL
 62
8
 10
4.757
 20
-2442.626
 30
2788.886
 70
    32
  0
VERTEX
  8
T24SSILL
 62
8
 10
0.166
 20
-2438.556
 30
2788.877
 70
    32
  0
VERTEX
  8
T24SSILL
 62
8
 10
-4.294
 20
-2432.916
 30
2788.862
 70
    32
  0
VERTEX
  8
T24SSILL
 62
8
 10
-7.997
 20
-2418.302
 30
2788.809
 70
    32
  0
VERTEX
  8
T24SSILL
 62
8
 10
-8.587
 20
-2409.052
 30
2788.773
 70
    32
  0
VERTEX
  8
T24SSILL
 62
8
 10
-9.569
 20
-2406.943
 30
2788.766
 70
    32
  0
VERTEX
  8
T24SSILL
 62
8
 10
-10.037
 20
-2398.237
 30
2788.731
 70
    32
  0
VERTEX
  8
T24SSILL
 62
8
 10
-11.324
 20
-2392.530
 30
2788.710
 70
    32
  0
VERTEX
  8
T24SSILL
 62
8
 10
-11.550
 20
-2383.992
 30
2788.676
 70
    32
  0
VERTEX
  8
T24SSILL
 62
8
 10
-8.923
 20
-2373.998
 30
2788.631
 70
    32
  0
VERTEX
  8
T24SSILL
 62
8
 10
-8.575
 20
-2368.260
 30
2788.607
 70
    32
  0
VERTEX
  8
T24SSILL
 62
8
 10
-2.467
 20
-2363.385
 30
2788.584
 70
    32
  0
VERTEX
  8
T24SSILL
 62
8
 10
-1.296
 20
-2364.519
 30
2788.581
 70
    32
  0
VERTEX
  8
T24SSILL
 62
8
 10
-0.486
 20
-2369.282
 30
2788.597
 70
    32
  0
VERTEX
  8
T24SSILL
 62
8
 10
3.377
 20
-2376.587
 30
2788.620
 70
    32
  0
VERTEX
  8
T24SSILL
 62
8
 10
1.372
 20
-2389.773
 30
2788.677
 70
    32
  0
VERTEX
  8
T24SSILL
 62
8
 10
2.994
 20
-2394.001
 30
2788.692
 70
    32
  0
VERTEX
  8
T24SSILL
 62
8
 10
22.030
 20
-2383.992
 30
2788.618
 70
    32
  0
VERTEX
  8
T24SSILL
 62
8
 10
40.989
 20
-2379.649
 30
2788.568
 70
    32
  0
VERTEX
  8
T24SSILL
 62
8
 10
49.256
 20
-2379.495
 30
2788.554
 70
    32
  0
VERTEX
  8
T24SSILL
 62
8
 10
57.245
 20
-2381.007
 30
2788.546
 70
    32
  0
VERTEX
  8
T24SSILL
 62
8
 10
72.029
 20
-2387.043
 30
2788.545
 70
    32
  0
VERTEX
  8
T24SSILL
 62
8
 10
63.397
 20
-2372.184
 30
2788.525
 70
    32
  0
VERTEX
  8
T24SSILL
 62
8
 10
70.237
 20
-2368.098
 30
2788.525
 70
    32
  0
VERTEX
  8
T24SSILL
 62
8
 10
77.372
 20
-2381.181
 30
2788.512
 70
    32
  0
VERTEX
  8
T24SSILL
 62
8
 10
78.870
 20
-2377.978
 30
2788.506
 70
    32
  0
VERTEX
  8
T24SSILL
 62
8
 10
82.542
 20
-2374.710
 30
2788.508
 70
    32
  0
VERTEX
  8
T24SSILL
 62
8
 10
97.704
 20
-2369.268
 30
2788.504
 70
    32
  0
VERTEX
  8
T24SSILL
 62
8
 10
105.831
 20
-2367.617
 30
2788.500
 70
    32
  0
VERTEX
  8
T24SSILL
 62
8
 10
107.790
 20
-2368.338
 30
2788.497
 70
    32
  0
VERTEX
  8
T24SSILL
 62
8
 10
113.991
 20
-2374.208
 30
2788.486
 70
    32
  0
VERTEX
  8
T24SSILL
 62
8
 10
142.951
 20
-2390.177
 30
2788.445
 70
    32
  0
VERTEX
  8
T24SSILL
 62
8
 10
148.818
 20
-2394.254
 30
2788.443
 70
    32
  0
VERTEX
  8
T24SSILL
 62
8
 10
153.169
 20
-2401.978
 30
2788.467
 70
    32
  0
VERTEX
  8
T24SSILL
 62
8
 10
154.902
 20
-2408.463
 30
2788.490
 70
    32
  0
VERTEX
  8
T24SSILL
 62
8
 10
147.030
 20
-2456.132
 30
2788.697
 70
    32
  0
VERTEX
  8
T24SSILL
 62
8
 10
149.523
 20
-2462.645
 30
2788.719
 70
    32
  0
VERTEX
  8
T24SSILL
 62
8
 10
160.037
 20
-2469.272
 30
2788.728
 70
    32
  0
VERTEX
  8
T24SSILL
 62
8
 10
163.618
 20
-2469.241
 30
2788.721
 70
    32
  0
VERTEX
  8
T24SSILL
 62
8
 10
174.646
 20
-2466.526
 30
2788.691
 70
    32
  0
VERTEX
  8
T24SSILL
 62
8
 10
184.227
 20
-2468.365
 30
2788.683
 70
    32
  0
VERTEX
  8
T24SSILL
 62
8
 10
191.327
 20
-2471.100
 30
2788.681
 70
    32
  0
VERTEX
  8
T24SSILL
 62
8
 10
193.548
 20
-2473.343
 30
2788.687
 70
    32
  0
VERTEX
  8
T24SSILL
 62
8
 10
197.001
 20
-2488.863
 30
2788.744
 70
    32
  0
VERTEX
  8
T24SSILL
 62
8
 10
197.423
 20
-2497.377
 30
2788.778
 70
    32
  0
VERTEX
  8
T24SSILL
 62
8
 10
198.789
 20
-2503.786
 30
2788.801
 70
    32
  0
VERTEX
  8
T24SSILL
 62
8
 10
200.514
 20
-2506.885
 30
2788.811
 70
    32
  0
VERTEX
  8
T24SSILL
 62
8
 10
202.782
 20
-2509.522
 30
2788.818
 70
    32
  0
VERTEX
  8
T24SSILL
 62
8
 10
226.316
 20
-2526.738
 30
2788.818
 70
    32
  0
VERTEX
  8
T24SSILL
 62
8
 10
231.856
 20
-2532.090
 30
2788.813
 70
    32
  0
VERTEX
  8
T24SSILL
 62
8
 10
232.239
 20
-2533.956
 30
2788.813
 70
    32
  0
VERTEX
  8
T24SSILL
 62
8
 10
228.537
 20
-2543.282
 30
2788.821
 70
    32
  0
VERTEX
  8
T24SSILL
 62
8
 10
220.591
 20
-2547.780
 30
2788.833
 70
    32
  0
VERTEX
  8
T24SSILL
 62
8
 10
216.977
 20
-2554.188
 30
2788.841
 70
    32
  0
VERTEX
  8
T24SSILL
 62
8
 10
211.381
 20
-2559.678
 30
2788.850
 70
    32
  0
VERTEX
  8
T24SSILL
 62
8
 10
209.245
 20
-2560.134
 30
2788.853
 70
    32
  0
VERTEX
  8
T24SSILL
 62
8
 10
203.362
 20
-2559.245
 30
2788.860
 70
    32
  0
VERTEX
  8
T24SSILL
 62
8
 10
201.125
 20
-2560.190
 30
2788.863
 70
    32
  0
VERTEX
  8
T24SSILL
 62
8
 10
197.716
 20
-2555.341
 30
2788.866
 70
    32
  0
VERTEX
  8
T24SSILL
 62
8
 10
196.975
 20
-2551.486
 30
2788.865
 70
    32
  0
VERTEX
  8
T24SSILL
 62
8
 10
194.450
 20
-2546.371
 30
2788.866
 70
    32
  0
VERTEX
  8
T24SSILL
 62
8
 10
192.250
 20
-2544.961
 30
2788.869
 70
    32
  0
VERTEX
  8
T24SSILL
 62
8
 10
185.414
 20
-2543.430
 30
2788.877
 70
    32
  0
VERTEX
  8
T24SSILL
 62
8
 10
173.680
 20
-2545.235
 30
2788.893
 70
    32
  0
VERTEX
  8
T24SSILL
 62
8
 10
167.815
 20
-2547.039
 30
2788.901
 70
    32
  0
VERTEX
  8
T24SSILL
 62
8
 10
232.160
 20
-2664.940
 30
2788.802
 70
    32
  0
VERTEX
  8
T24SSILL
 62
8
 10
236.355
 20
-2674.356
 30
2788.793
 70
    32
  0
VERTEX
  8
T24SSILL
 62
8
 10
236.804
 20
-2677.768
 30
2788.791
 70
    32
  0
VERTEX
  8
T24SSILL
 62
8
 10
252.165
 20
-2667.005
 30
2788.778
 70
    32
  0
VERTEX
  8
T24SSILL
 62
8
 10
253.084
 20
-2664.704
 30
2788.778
 70
    32
  0
VERTEX
  8
T24SSILL
 62
8
 10
252.400
 20
-2659.328
 30
2788.781
 70
    32
  0
VERTEX
  8
T24SSILL
 62
8
 10
244.955
 20
-2652.373
 30
2788.793
 70
    32
  0
VERTEX
  8
T24SSILL
 62
8
 10
242.730
 20
-2646.107
 30
2788.798
 70
    32
  0
VERTEX
  8
T24SSILL
 62
8
 10
239.658
 20
-2642.412
 30
2788.803
 70
    32
  0
VERTEX
  8
T24SSILL
 62
8
 10
239.153
 20
-2640.521
 30
2788.804
 70
    32
  0
VERTEX
  8
T24SSILL
 62
8
 10
238.949
 20
-2637.159
 30
2788.806
 70
    32
  0
VERTEX
  8
T24SSILL
 62
8
 10
241.543
 20
-2633.542
 30
2788.805
 70
    32
  0
VERTEX
  8
T24SSILL
 62
8
 10
246.506
 20
-2617.452
 30
2788.803
 70
    32
  0
VERTEX
  8
T24SSILL
 62
8
 10
271.916
 20
-2593.813
 30
2788.773
 70
    32
  0
VERTEX
  8
T24SSILL
 62
8
 10
275.528
 20
-2592.703
 30
2788.769
 70
    32
  0
VERTEX
  8
T24SSILL
 62
8
 10
278.635
 20
-2594.362
 30
2788.765
 70
    32
  0
VERTEX
  8
T24SSILL
 62
8
 10
281.880
 20
-2602.498
 30
2788.760
 70
    32
  0
VERTEX
  8
T24SSILL
 62
8
 10
276.482
 20
-2626.926
 30
2788.765
 70
    32
  0
VERTEX
  8
T24SSILL
 62
8
 10
280.399
 20
-2652.309
 30
2788.752
 70
    32
  0
VERTEX
  8
T24SSILL
 62
8
 10
280.204
 20
-2671.293
 30
2788.744
 70
    32
  0
VERTEX
  8
T24SSILL
 62
8
 10
286.294
 20
-2679.566
 30
2788.734
 70
    32
  0
VERTEX
  8
T24SSILL
 62
8
 10
290.009
 20
-2682.308
 30
2788.729
 70
    32
  0
VERTEX
  8
T24SSILL
 62
8
 10
284.148
 20
-2691.574
 30
2788.731
 70
    32
  0
VERTEX
  8
T24SSILL
 62
8
 10
281.160
 20
-2705.197
 30
2788.729
 70
    32
  0
VERTEX
  8
T24SSILL
 62
8
 10
280.168
 20
-2707.228
 30
2788.729
 70
    32
  0
VERTEX
  8
T24SSILL
 62
8
 10
278.549
 20
-2707.342
 30
2788.731
 70
    32
  0
VERTEX
  8
T24SSILL
 62
8
 10
276.369
 20
-2706.767
 30
2788.734
 70
    32
  0
VERTEX
  8
T24SSILL
 62
8
 10
261.461
 20
-2691.066
 30
2788.757
 70
    32
  0
VERTEX
  8
T24SSILL
 62
8
 10
257.375
 20
-2689.206
 30
2788.763
 70
    32
  0
VERTEX
  8
T24SSILL
 62
8
 10
253.351
 20
-2684.549
 30
2788.769
 70
    32
  0
VERTEX
  8
T24SSILL
 62
8
 10
244.041
 20
-2682.318
 30
2788.781
 70
    32
  0
VERTEX
  8
T24SSILL
 62
8
 10
240.067
 20
-2682.396
 30
2788.786
 70
    32
  0
VERTEX
  8
T24SSILL
 62
8
 10
236.696
 20
-2684.513
 30
2788.789
 70
    32
  0
VERTEX
  8
T24SSILL
 62
8
 10
235.982
 20
-2689.857
 30
2788.787
 70
    32
  0
VERTEX
  8
T24SSILL
 62
8
 10
233.398
 20
-2696.221
 30
2788.787
 70
    32
  0
VERTEX
  8
T24SSILL
 62
8
 10
230.088
 20
-2700.840
 30
2788.789
 70
    32
  0
VERTEX
  8
T24SSILL
 62
8
 10
226.343
 20
-2704.157
 30
2788.792
 70
    32
  0
VERTEX
  8
T24SSILL
 62
8
 10
122.697
 20
-2778.319
 30
2788.879
 70
    32
  0
VERTEX
  8
T24SSILL
 62
8
 10
117.627
 20
-2786.535
 30
2788.881
 70
    32
  0
VERTEX
  8
T24SSILL
 62
8
 10
117.324
 20
-2792.985
 30
2788.879
 70
    32
  0
VERTEX
  8
T24SSILL
 62
8
 10
118.713
 20
-2799.590
 30
2788.874
 70
    32
  0
VERTEX
  8
T24SSILL
 62
8
 10
120.603
 20
-2804.064
 30
2788.870
 70
    32
  0
VERTEX
  8
T24SSILL
 62
8
 10
200.974
 20
-2913.808
 30
2788.806
 70
    32
  0
VERTEX
  8
T24SSILL
 62
8
 10
399.372
 20
-3193.366
 30
2788.643
 70
    32
  0
VERTEX
  8
T24SSILL
 62
8
 10
406.744
 20
-3202.829
 30
2788.637
 70
    32
  0
VERTEX
  8
T24SSILL
 62
8
 10
413.604
 20
-3207.881
 30
2788.633
 70
    32
  0
VERTEX
  8
T24SSILL
 62
8
 10
419.154
 20
-3209.313
 30
2788.631
 70
    32
  0
VERTEX
  8
T24SSILL
 62
8
 10
891.215
 20
-3252.772
 30
2788.551
 70
    32
  0
VERTEX
  8
T24SSILL
 62
8
 10
798.695
 20
-3161.776
 30
2788.694
 70
    32
  0
VERTEX
  8
T24SSILL
 62
8
 10
746.850
 20
-3124.429
 30
2788.722
 70
    32
  0
VERTEX
  8
T24SSILL
 62
8
 10
745.243
 20
-3117.840
 30
2788.728
 70
    32
  0
VERTEX
  8
T24SSILL
 62
8
 10
743.923
 20
-3116.865
 30
2788.729
 70
    32
  0
VERTEX
  8
T24SSILL
 62
8
 10
737.961
 20
-3107.583
 30
2788.737
 70
    32
  0
VERTEX
  8
T24SSILL
 62
8
 10
728.544
 20
-3102.610
 30
2788.741
 70
    32
  0
VERTEX
  8
T24SSILL
 62
8
 10
724.466
 20
-3084.606
 30
2788.758
 70
    32
  0
VERTEX
  8
T24SSILL
 62
8
 10
724.306
 20
-3080.372
 30
2788.762
 70
    32
  0
VERTEX
  8
T24SSILL
 62
8
 10
725.471
 20
-3075.174
 30
2788.767
 70
    32
  0
VERTEX
  8
T24SSILL
 62
8
 10
719.619
 20
-3060.073
 30
2788.780
 70
    32
  0
VERTEX
  8
T24SSILL
 62
8
 10
716.368
 20
-3056.886
 30
2788.780
 70
    32
  0
VERTEX
  8
T24SSILL
 62
8
 10
715.937
 20
-3054.239
 30
2788.780
 70
    32
  0
VERTEX
  8
T24SSILL
 62
8
 10
717.812
 20
-3047.897
 30
2788.778
 70
    32
  0
VERTEX
  8
T24SSILL
 62
8
 10
715.384
 20
-3036.865
 30
2788.776
 70
    32
  0
VERTEX
  8
T24SSILL
 62
8
 10
717.171
 20
-3030.434
 30
2788.755
 70
    32
  0
VERTEX
  8
T24SSILL
 62
8
 10
712.554
 20
-3015.161
 30
2788.685
 70
    32
  0
VERTEX
  8
T24SSILL
 62
8
 10
720.255
 20
-3007.430
 30
2788.634
 70
    32
  0
VERTEX
  8
T24SSILL
 62
8
 10
746.733
 20
-3024.988
 30
2788.680
 70
    32
  0
VERTEX
  8
T24SSILL
 62
8
 10
748.994
 20
-3033.638
 30
2788.721
 70
    32
  0
VERTEX
  8
T24SSILL
 62
8
 10
759.463
 20
-3040.291
 30
2788.738
 70
    32
  0
VERTEX
  8
T24SSILL
 62
8
 10
759.883
 20
-3045.848
 30
2788.765
 70
    32
  0
VERTEX
  8
T24SSILL
 62
8
 10
761.288
 20
-3047.440
 30
2788.771
 70
    32
  0
VERTEX
  8
T24SSILL
 62
8
 10
775.451
 20
-3056.840
 30
2788.774
 70
    32
  0
VERTEX
  8
T24SSILL
 62
8
 10
774.093
 20
-3066.447
 30
2788.776
 70
    32
  0
VERTEX
  8
T24SSILL
 62
8
 10
778.380
 20
-3075.546
 30
2788.776
 70
    32
  0
VERTEX
  8
T24SSILL
 62
8
 10
775.002
 20
-3082.765
 30
2788.768
 70
    32
  0
VERTEX
  8
T24SSILL
 62
8
 10
781.215
 20
-3095.751
 30
2788.757
 70
    32
  0
VERTEX
  8
T24SSILL
 62
8
 10
775.903
 20
-3101.551
 30
2788.750
 70
    32
  0
VERTEX
  8
T24SSILL
 62
8
 10
779.219
 20
-3110.823
 30
2788.741
 70
    32
  0
VERTEX
  8
T24SSILL
 62
8
 10
778.049
 20
-3117.344
 30
2788.735
 70
    32
  0
VERTEX
  8
T24SSILL
 62
8
 10
781.713
 20
-3128.028
 30
2788.725
 70
    32
  0
VERTEX
  8
T24SSILL
 62
8
 10
777.974
 20
-3137.537
 30
2788.715
 70
    32
  0
VERTEX
  8
T24SSILL
 62
8
 10
804.620
 20
-3157.301
 30
2788.700
 70
    32
  0
VERTEX
  8
T24SSILL
 62
8
 10
902.412
 20
-3253.430
 30
2788.550
 70
    32
  0
VERTEX
  8
T24SSILL
 62
8
 10
1061.176
 20
-3268.128
 30
2788.527
 70
    32
  0
VERTEX
  8
T24SSILL
 62
8
 10
1066.733
 20
-3267.707
 30
2788.528
 70
    32
  0
VERTEX
  8
T24SSILL
 62
8
 10
1076.533
 20
-3264.746
 30
2788.422
 70
    32
  0
VERTEX
  8
T24SSILL
 62
8
 10
1068.650
 20
-3141.980
 30
2788.760
 70
    32
  0
VERTEX
  8
T24SSILL
 62
8
 10
1063.079
 20
-3063.902
 30
2788.375
 70
    32
  0
VERTEX
  8
T24SSILL
 62
8
 10
1007.987
 20
-2986.273
 30
2788.070
 70
    32
  0
VERTEX
  8
T24SSILL
 62
8
 10
1002.108
 20
-2978.579
 30
2788.041
 70
    32
  0
VERTEX
  8
T24SSILL
 62
8
 10
997.094
 20
-2975.210
 30
2788.032
 70
    32
  0
VERTEX
  8
T24SSILL
 62
8
 10
991.632
 20
-2973.514
 30
2788.032
 70
    32
  0
VERTEX
  8
T24SSILL
 62
8
 10
986.859
 20
-2976.671
 30
2788.056
 70
    32
  0
VERTEX
  8
T24SSILL
 62
8
 10
987.081
 20
-2988.047
 30
2788.113
 70
    32
  0
VERTEX
  8
T24SSILL
 62
8
 10
991.116
 20
-2993.794
 30
2788.135
 70
    32
  0
VERTEX
  8
T24SSILL
 62
8
 10
991.550
 20
-2995.736
 30
2788.144
 70
    32
  0
VERTEX
  8
T24SSILL
 62
8
 10
984.906
 20
-3003.912
 30
2788.196
 70
    32
  0
VERTEX
  8
T24SSILL
 62
8
 10
978.943
 20
-2994.896
 30
2788.160
 70
    32
  0
VERTEX
  8
T24SSILL
 62
8
 10
961.103
 20
-3002.149
 30
2788.225
 70
    32
  0
VERTEX
  8
T24SSILL
 62
8
 10
955.286
 20
-3001.334
 30
2788.230
 70
    32
  0
VERTEX
  8
T24SSILL
 62
8
 10
945.525
 20
-2993.978
 30
2788.208
 70
    32
  0
VERTEX
  8
T24SSILL
 62
8
 10
940.311
 20
-2997.045
 30
2788.232
 70
    32
  0
VERTEX
  8
T24SSILL
 62
8
 10
935.391
 20
-2992.177
 30
2788.215
 70
    32
  0
VERTEX
  8
T24SSILL
 62
8
 10
945.471
 20
-2984.807
 30
2788.162
 70
    32
  0
VERTEX
  8
T24SSILL
 62
8
 10
944.075
 20
-2980.833
 30
2788.144
 70
    32
  0
VERTEX
  8
T24SSILL
 62
8
 10
936.452
 20
-2967.401
 30
2788.089
 70
    32
  0
VERTEX
  8
T24SSILL
 62
8
 10
934.189
 20
-2959.545
 30
2788.053
 70
    32
  0
VERTEX
  8
T24SSILL
 62
8
 10
930.255
 20
-2950.271
 30
2788.012
 70
    32
  0
VERTEX
  8
T24SSILL
 62
8
 10
929.394
 20
-2944.536
 30
2787.985
 70
    32
  0
VERTEX
  8
T24SSILL
 62
8
 10
930.737
 20
-2938.985
 30
2787.954
 70
    32
  0
VERTEX
  8
T24SSILL
 62
8
 10
934.209
 20
-2930.268
 30
2787.905
 70
    32
  0
VERTEX
  8
T24SSILL
 62
8
 10
938.984
 20
-2926.758
 30
2787.884
 70
    32
  0
VERTEX
  8
T24SSILL
 62
8
 10
951.681
 20
-2927.070
 30
2787.869
 70
    32
  0
VERTEX
  8
T24SSILL
 62
8
 10
953.878
 20
-2929.194
 30
2787.868
 70
    32
  0
VERTEX
  8
T24SSILL
 62
8
 10
962.376
 20
-2944.217
 30
2787.931
 70
    32
  0
VERTEX
  8
T24SSILL
 62
8
 10
965.974
 20
-2948.992
 30
2787.949
 70
    32
  0
VERTEX
  8
T24SSILL
 62
8
 10
976.350
 20
-2957.055
 30
2787.973
 70
    32
  0
VERTEX
  8
T24SSILL
 62
8
 10
988.412
 20
-2962.215
 30
2787.980
 70
    32
  0
VERTEX
  8
T24SSILL
 62
8
 10
989.825
 20
-2961.426
 30
2787.974
 70
    32
  0
VERTEX
  8
T24SSILL
 62
8
 10
941.489
 20
-2893.170
 30
2787.895
 70
    32
  0
VERTEX
  8
T24SSILL
 62
8
 10
937.618
 20
-2890.862
 30
2787.901
 70
    32
  0
VERTEX
  8
T24SSILL
 62
8
 10
936.557
 20
-2891.564
 30
2787.902
 70
    32
  0
VERTEX
  8
T24SSILL
 62
8
 10
933.647
 20
-2891.553
 30
2787.905
 70
    32
  0
VERTEX
  8
T24SSILL
 62
8
 10
923.968
 20
-2885.697
 30
2787.919
 70
    32
  0
VERTEX
  8
T24SSILL
 62
8
 10
920.100
 20
-2882.508
 30
2787.924
 70
    32
  0
VERTEX
  8
T24SSILL
 62
8
 10
918.085
 20
-2878.885
 30
2787.928
 70
    32
  0
VERTEX
  8
T24SSILL
 62
8
 10
918.273
 20
-2875.800
 30
2787.929
 70
    32
  0
VERTEX
  8
T24SSILL
 62
8
 10
925.259
 20
-2870.623
 30
2787.924
 70
    32
  0
VERTEX
  8
T24SSILL
 62
8
 10
440.114
 20
-2186.350
 30
2788.171
 70
    32
  0
VERTEX
  8
T24SSILL
 62
8
 10
450.823
 20
-2179.210
 30
2788.158
 70
    32
  0
VERTEX
  8
T24SSILL
 62
8
 10
621.296
 20
-2422.890
 30
2788.057
 70
    32
  0
VERTEX
  8
T24SSILL
 62
8
 10
626.465
 20
-2407.869
 30
2788.072
 70
    32
  0
VERTEX
  8
T24SSILL
 62
8
 10
632.542
 20
-2399.928
 30
2788.077
 70
    32
  0
VERTEX
  8
T24SSILL
 62
8
 10
765.465
 20
-2305.210
 30
2787.971
 70
    32
  0
VERTEX
  8
T24SSILL
 62
8
 10
770.552
 20
-2296.259
 30
2787.962
 70
    32
  0
VERTEX
  8
T24SSILL
 62
8
 10
774.658
 20
-2285.298
 30
2787.952
 70
    32
  0
VERTEX
  8
T24SSILL
 62
8
 10
778.774
 20
-2273.337
 30
2787.942
 70
    32
  0
VERTEX
  8
T24SSILL
 62
8
 10
778.823
 20
-2268.337
 30
2787.939
 70
    32
  0
VERTEX
  8
T24SSILL
 62
8
 10
803.725
 20
-2278.579
 30
2787.924
 70
    32
  0
VERTEX
  8
T24SSILL
 62
8
 10
823.869
 20
-2263.773
 30
2787.899
 70
    32
  0
VERTEX
  8
T24SSILL
 62
8
 10
824.907
 20
-2259.783
 30
2787.896
 70
    32
  0
VERTEX
  8
T24SSILL
 62
8
 10
819.985
 20
-2251.735
 30
2787.896
 70
    32
  0
VERTEX
  8
T24SSILL
 62
8
 10
816.092
 20
-2240.697
 30
2787.892
 70
    32
  0
VERTEX
  8
T24SSILL
 62
8
 10
814.169
 20
-2232.678
 30
2787.889
 70
    32
  0
VERTEX
  8
T24SSILL
 62
8
 10
807.257
 20
-2223.611
 30
2787.890
 70
    32
  0
VERTEX
  8
T24SSILL
 62
8
 10
809.315
 20
-2217.630
 30
2787.885
 70
    32
  0
VERTEX
  8
T24SSILL
 62
8
 10
813.305
 20
-2218.669
 30
2787.882
 70
    32
  0
VERTEX
  8
T24SSILL
 62
8
 10
820.343
 20
-2214.737
 30
2787.874
 70
    32
  0
VERTEX
  8
T24SSILL
 62
8
 10
825.343
 20
-2214.785
 30
2787.870
 70
    32
  0
VERTEX
  8
T24SSILL
 62
8
 10
838.362
 20
-2212.911
 30
2787.858
 70
    32
  0
VERTEX
  8
T24SSILL
 62
8
 10
848.313
 20
-2218.008
 30
2787.853
 70
    32
  0
VERTEX
  8
T24SSILL
 62
8
 10
850.274
 20
-2222.027
 30
2787.854
 70
    32
  0
VERTEX
  8
T24SSILL
 62
8
 10
863.312
 20
-2218.153
 30
2787.841
 70
    32
  0
VERTEX
  8
T24SSILL
 62
8
 10
876.186
 20
-2231.278
 30
2787.838
 70
    32
  0
VERTEX
  8
T24SSILL
 62
8
 10
874.060
 20
-2244.258
 30
2787.847
 70
    32
  0
VERTEX
  8
T24SSILL
 62
8
 10
870.944
 20
-2256.229
 30
2787.856
 70
    32
  0
VERTEX
  8
T24SSILL
 62
8
 10
866.867
 20
-2264.190
 30
2787.864
 70
    32
  0
VERTEX
  8
T24SSILL
 62
8
 10
859.867
 20
-2264.122
 30
2787.870
 70
    32
  0
VERTEX
  8
T24SSILL
 62
8
 10
855.838
 20
-2267.083
 30
2787.875
 70
    32
  0
VERTEX
  8
T24SSILL
 62
8
 10
847.887
 20
-2262.006
 30
2787.879
 70
    32
  0
VERTEX
  8
T24SSILL
 62
8
 10
843.897
 20
-2260.967
 30
2787.881
 70
    32
  0
VERTEX
  8
T24SSILL
 62
8
 10
842.887
 20
-2261.957
 30
2787.883
 70
    32
  0
VERTEX
  8
T24SSILL
 62
8
 10
843.829
 20
-2267.967
 30
2787.885
 70
    32
  0
VERTEX
  8
T24SSILL
 62
8
 10
834.742
 20
-2276.879
 30
2787.898
 70
    32
  0
VERTEX
  8
T24SSILL
 62
8
 10
829.820
 20
-2268.831
 30
2787.897
 70
    32
  0
VERTEX
  8
T24SSILL
 62
8
 10
743.214
 20
-2330.996
 30
2788.004
 70
    32
  0
VERTEX
  8
T24SSILL
 62
8
 10
754.204
 20
-2332.102
 30
2787.996
 70
    32
  0
VERTEX
  8
T24SSILL
 62
8
 10
767.107
 20
-2342.228
 30
2787.991
 70
    32
  0
VERTEX
  8
T24SSILL
 62
8
 10
834.194
 20
-2436.881
 30
2787.885
 70
    32
  0
VERTEX
  8
T24SSILL
 62
8
 10
827.146
 20
-2441.813
 30
2787.884
 70
    32
  0
VERTEX
  8
T24SSILL
 62
8
 10
758.088
 20
-2344.140
 30
2788.000
 70
    32
  0
VERTEX
  8
T24SSILL
 62
8
 10
751.127
 20
-2340.073
 30
2788.003
 70
    32
  0
VERTEX
  8
T24SSILL
 62
8
 10
743.156
 20
-2336.995
 30
2788.008
 70
    32
  0
VERTEX
  8
T24SSILL
 62
8
 10
730.138
 20
-2338.870
 30
2788.020
 70
    32
  0
VERTEX
  8
T24SSILL
 62
8
 10
713.003
 20
-2352.704
 30
2788.042
 70
    32
  0
VERTEX
  8
T24SSILL
 62
8
 10
729.857
 20
-2367.868
 30
2788.036
 70
    32
  0
VERTEX
  8
T24SSILL
 62
8
 10
726.760
 20
-2377.839
 30
2788.036
 70
    32
  0
VERTEX
  8
T24SSILL
 62
8
 10
739.401
 20
-2414.963
 30
2787.981
 70
    32
  0
VERTEX
  8
T24SSILL
 62
8
 10
751.372
 20
-2418.079
 30
2787.969
 70
    32
  0
VERTEX
  8
T24SSILL
 62
8
 10
766.352
 20
-2420.224
 30
2787.955
 70
    32
  0
VERTEX
  8
T24SSILL
 62
8
 10
783.235
 20
-2432.388
 30
2787.928
 70
    32
  0
VERTEX
  8
T24SSILL
 62
8
 10
791.157
 20
-2440.465
 30
2787.912
 70
    32
  0
VERTEX
  8
T24SSILL
 62
8
 10
794.012
 20
-2455.493
 30
2787.891
 70
    32
  0
VERTEX
  8
T24SSILL
 62
8
 10
797.876
 20
-2469.531
 30
2787.871
 70
    32
  0
VERTEX
  8
T24SSILL
 62
8
 10
811.827
 20
-2474.667
 30
2787.854
 70
    32
  0
VERTEX
  8
T24SSILL
 62
8
 10
819.875
 20
-2469.744
 30
2787.855
 70
    32
  0
VERTEX
  8
T24SSILL
 62
8
 10
823.913
 20
-2465.783
 30
2787.857
 70
    32
  0
VERTEX
  8
T24SSILL
 62
8
 10
827.855
 20
-2471.822
 30
2787.846
 70
    32
  0
VERTEX
  8
T24SSILL
 62
8
 10
831.865
 20
-2470.860
 30
2787.844
 70
    32
  0
VERTEX
  8
T24SSILL
 62
8
 10
838.758
 20
-2481.928
 30
2787.826
 70
    32
  0
VERTEX
  8
T24SSILL
 62
8
 10
839.709
 20
-2486.937
 30
2787.819
 70
    32
  0
VERTEX
  8
T24SSILL
 62
8
 10
864.379
 20
-2521.177
 30
2787.758
 70
    32
  0
VERTEX
  8
T24SSILL
 62
8
 10
897.136
 20
-2546.496
 30
2787.777
 70
    32
  0
VERTEX
  8
T24SSILL
 62
8
 10
903.000
 20
-2560.553
 30
2787.824
 70
    32
  0
VERTEX
  8
T24SSILL
 62
8
 10
896.990
 20
-2561.495
 30
2787.838
 70
    32
  0
VERTEX
  8
T24SSILL
 62
8
 10
882.885
 20
-2572.359
 30
2787.906
 70
    32
  0
VERTEX
  8
T24SSILL
 62
8
 10
876.769
 20
-2584.300
 30
2787.965
 70
    32
  0
VERTEX
  8
T24SSILL
 62
8
 10
872.740
 20
-2587.261
 30
2787.984
 70
    32
  0
VERTEX
  8
T24SSILL
 62
8
 10
892.584
 20
-2603.454
 30
2787.994
 70
    32
  0
VERTEX
  8
T24SSILL
 62
8
 10
905.332
 20
-2629.579
 30
2787.986
 70
    32
  0
VERTEX
  8
T24SSILL
 62
8
 10
903.254
 20
-2637.559
 30
2787.988
 70
    32
  0
VERTEX
  8
T24SSILL
 62
8
 10
909.167
 20
-2646.617
 30
2787.980
 70
    32
  0
VERTEX
  8
T24SSILL
 62
8
 10
921.099
 20
-2653.733
 30
2787.965
 70
    32
  0
VERTEX
  8
T24SSILL
 62
8
 10
931.079
 20
-2655.829
 30
2787.952
 70
    32
  0
VERTEX
  8
T24SSILL
 62
8
 10
958.281
 20
-2635.092
 30
2787.920
 70
    32
  0
VERTEX
  8
T24SSILL
 62
8
 10
963.213
 20
-2642.140
 30
2787.914
 70
    32
  0
VERTEX
  8
T24SSILL
 62
8
 10
939.050
 20
-2658.907
 30
2787.942
 70
    32
  0
VERTEX
  8
T24SSILL
 62
8
 10
944.001
 20
-2663.955
 30
2787.936
 70
    32
  0
VERTEX
  8
T24SSILL
 62
8
 10
947.826
 20
-2681.993
 30
2787.930
 70
    32
  0
VERTEX
  8
T24SSILL
 62
8
 10
939.778
 20
-2686.915
 30
2787.939
 70
    32
  0
VERTEX
  8
T24SSILL
 62
8
 10
928.750
 20
-2689.808
 30
2787.953
 70
    32
  0
VERTEX
  8
T24SSILL
 62
8
 10
912.867
 20
-2677.654
 30
2787.973
 70
    32
  0
VERTEX
  8
T24SSILL
 62
8
 10
896.761
 20
-2688.499
 30
2787.992
 70
    32
  0
VERTEX
  8
T24SSILL
 62
8
 10
904.654
 20
-2699.576
 30
2787.982
 70
    32
  0
VERTEX
  8
T24SSILL
 62
8
 10
897.597
 20
-2705.508
 30
2787.990
 70
    32
  0
VERTEX
  8
T24SSILL
 62
8
 10
889.713
 20
-2693.431
 30
2788.001
 70
    32
  0
VERTEX
  8
T24SSILL
 62
8
 10
858.502
 20
-2715.130
 30
2788.038
 70
    32
  0
VERTEX
  8
T24SSILL
 62
8
 10
851.444
 20
-2721.062
 30
2788.046
 70
    32
  0
VERTEX
  8
T24SSILL
 62
8
 10
847.299
 20
-2736.022
 30
2788.050
 70
    32
  0
VERTEX
  8
T24SSILL
 62
8
 10
850.497
 20
-2750.519
 30
2788.045
 70
    32
  0
VERTEX
  8
T24SSILL
 62
8
 10
951.799
 20
-2895.324
 30
2787.883
 70
    32
  0
VERTEX
  8
T24SSILL
 62
8
 10
952.795
 20
-2888.097
 30
2787.885
 70
    32
  0
VERTEX
  8
T24SSILL
 62
8
 10
957.588
 20
-2879.737
 30
2787.883
 70
    32
  0
VERTEX
  8
T24SSILL
 62
8
 10
960.599
 20
-2876.397
 30
2787.881
 70
    32
  0
VERTEX
  8
T24SSILL
 62
8
 10
965.376
 20
-2872.182
 30
2787.877
 70
    32
  0
VERTEX
  8
T24SSILL
 62
8
 10
1034.844
 20
-2821.946
 30
2787.811
 70
    32
  0
VERTEX
  8
T24SSILL
 62
8
 10
1028.555
 20
-2813.780
 30
2787.820
 70
    32
  0
VERTEX
  8
T24SSILL
 62
8
 10
1022.613
 20
-2807.723
 30
2787.827
 70
    32
  0
VERTEX
  8
T24SSILL
 62
8
 10
1008.672
 20
-2801.587
 30
2787.845
 70
    32
  0
VERTEX
  8
T24SSILL
 62
8
 10
980.886
 20
-2779.317
 30
2787.881
 70
    32
  0
VERTEX
  8
T24SSILL
 62
8
 10
973.983
 20
-2769.250
 30
2787.891
 70
    32
  0
VERTEX
  8
T24SSILL
 62
8
 10
962.080
 20
-2759.134
 30
2787.906
 70
    32
  0
VERTEX
  8
T24SSILL
 62
8
 10
959.052
 20
-2762.105
 30
2787.910
 70
    32
  0
VERTEX
  8
T24SSILL
 62
8
 10
957.052
 20
-2762.086
 30
2787.912
 70
    32
  0
VERTEX
  8
T24SSILL
 62
8
 10
945.217
 20
-2744.970
 30
2787.928
 70
    32
  0
VERTEX
  8
T24SSILL
 62
8
 10
937.343
 20
-2731.894
 30
2787.939
 70
    32
  0
VERTEX
  8
T24SSILL
 62
8
 10
943.430
 20
-2722.952
 30
2787.932
 70
    32
  0
VERTEX
  8
T24SSILL
 62
8
 10
964.167
 20
-2750.154
 30
2787.904
 70
    32
  0
VERTEX
  8
T24SSILL
 62
8
 10
970.119
 20
-2755.212
 30
2787.896
 70
    32
  0
VERTEX
  8
T24SSILL
 62
8
 10
971.148
 20
-2752.222
 30
2787.895
 70
    32
  0
VERTEX
  8
T24SSILL
 62
8
 10
970.187
 20
-2748.212
 30
2787.897
 70
    32
  0
VERTEX
  8
T24SSILL
 62
8
 10
967.225
 20
-2744.183
 30
2787.901
 70
    32
  0
VERTEX
  8
T24SSILL
 62
8
 10
967.254
 20
-2741.184
 30
2787.901
 70
    32
  0
VERTEX
  8
T24SSILL
 62
8
 10
973.274
 20
-2739.242
 30
2787.894
 70
    32
  0
VERTEX
  8
T24SSILL
 62
8
 10
973.293
 20
-2737.242
 30
2787.894
 70
    32
  0
VERTEX
  8
T24SSILL
 62
8
 10
967.400
 20
-2726.184
 30
2787.902
 70
    32
  0
VERTEX
  8
T24SSILL
 62
8
 10
965.526
 20
-2713.166
 30
2787.905
 70
    32
  0
VERTEX
  8
T24SSILL
 62
8
 10
961.681
 20
-2697.128
 30
2787.911
 70
    32
  0
VERTEX
  8
T24SSILL
 62
8
 10
954.739
 20
-2691.060
 30
2787.920
 70
    32
  0
VERTEX
  8
T24SSILL
 62
8
 10
960.807
 20
-2684.118
 30
2787.913
 70
    32
  0
VERTEX
  8
T24SSILL
 62
8
 10
962.797
 20
-2685.138
 30
2787.911
 70
    32
  0
VERTEX
  8
T24SSILL
 62
8
 10
966.700
 20
-2695.176
 30
2787.905
 70
    32
  0
VERTEX
  8
T24SSILL
 62
8
 10
974.564
 20
-2709.253
 30
2787.894
 70
    32
  0
VERTEX
  8
T24SSILL
 62
8
 10
999.340
 20
-2732.494
 30
2787.862
 70
    32
  0
VERTEX
  8
T24SSILL
 62
8
 10
1008.243
 20
-2742.580
 30
2787.850
 70
    32
  0
VERTEX
  8
T24SSILL
 62
8
 10
1032.913
 20
-2776.821
 30
2787.817
 70
    32
  0
VERTEX
  8
T24SSILL
 62
8
 10
1074.301
 20
-2840.224
 30
2787.761
 70
    32
  0
VERTEX
  8
T24SSILL
 62
8
 10
1083.194
 20
-2851.311
 30
2787.749
 70
    32
  0
VERTEX
  8
T24SSILL
 62
8
 10
1097.077
 20
-2863.446
 30
2787.731
 70
    32
  0
VERTEX
  8
T24SSILL
 62
8
 10
1132.650
 20
-2907.792
 30
2787.671
 70
    32
  0
VERTEX
  8
T24SSILL
 62
8
 10
1143.475
 20
-2925.898
 30
2787.651
 70
    32
  0
VERTEX
  8
T24SSILL
 62
8
 10
1148.349
 20
-2938.946
 30
2787.640
 70
    32
  0
VERTEX
  8
T24SSILL
 62
8
 10
1184.737
 20
-3002.301
 30
2787.871
 70
    32
  0
VERTEX
  8
T24SSILL
 62
8
 10
1185.838
 20
-3014.092
 30
2787.929
 70
    32
  0
VERTEX
  8
T24SSILL
 62
8
 10
1196.794
 20
-3032.210
 30
2788.003
 70
    32
  0
VERTEX
  8
T24SSILL
 62
8
 10
1199.763
 20
-3040.246
 30
2788.039
 70
    32
  0
VERTEX
  8
T24SSILL
 62
8
 10
1209.932
 20
-3056.333
 30
2788.104
 70
    32
  0
VERTEX
  8
T24SSILL
 62
8
 10
1210.890
 20
-3059.599
 30
2788.119
 70
    32
  0
VERTEX
  8
T24SSILL
 62
8
 10
1205.762
 20
-3063.372
 30
2788.146
 70
    32
  0
VERTEX
  8
T24SSILL
 62
8
 10
1209.499
 20
-3078.025
 30
2788.214
 70
    32
  0
VERTEX
  8
T24SSILL
 62
8
 10
1211.777
 20
-3082.089
 30
2788.231
 70
    32
  0
VERTEX
  8
T24SSILL
 62
8
 10
1219.151
 20
-3091.111
 30
2788.133
 70
    32
  0
VERTEX
  8
T24SSILL
 62
8
 10
1233.589
 20
-3121.500
 30
2787.568
 70
    32
  0
VERTEX
  8
T24SSILL
 62
8
 10
1250.628
 20
-3140.082
 30
2787.145
 70
    32
  0
VERTEX
  8
T24SSILL
 62
8
 10
1252.921
 20
-3139.826
 30
2787.127
 70
    32
  0
VERTEX
  8
T24SSILL
 62
8
 10
1269.366
 20
-3128.423
 30
2787.135
 70
    32
  0
VERTEX
  8
T24SSILL
 62
8
 10
1267.911
 20
-3116.336
 30
2787.320
 70
    32
  0
VERTEX
  8
T24SSILL
 62
8
 10
1261.657
 20
-3114.549
 30
2787.404
 70
    32
  0
VERTEX
  8
T24SSILL
 62
8
 10
1250.869
 20
-3098.813
 30
2787.727
 70
    32
  0
VERTEX
  8
T24SSILL
 62
8
 10
1255.642
 20
-3095.656
 30
2787.727
 70
    32
  0
VERTEX
  8
T24SSILL
 62
8
 10
1206.769
 20
-3029.425
 30
2787.973
 70
    32
  0
VERTEX
  8
T24SSILL
 62
8
 10
1212.781
 20
-3025.215
 30
2787.942
 70
    32
  0
VERTEX
  8
T24SSILL
 62
8
 10
1242.962
 20
-3066.861
 30
2788.104
 70
    32
  0
VERTEX
  8
T24SSILL
 62
8
 10
1247.296
 20
-3063.526
 30
2788.081
 70
    32
  0
VERTEX
  8
T24SSILL
 62
8
 10
1254.930
 20
-3073.784
 30
2788.044
 70
    32
  0
VERTEX
  8
T24SSILL
 62
8
 10
1250.155
 20
-3077.293
 30
2788.039
 70
    32
  0
VERTEX
  8
T24SSILL
 62
8
 10
1272.349
 20
-3108.504
 30
2787.389
 70
    32
  0
VERTEX
  8
T24SSILL
 62
8
 10
1274.139
 20
-3125.266
 30
2787.135
 70
    32
  0
VERTEX
  8
T24SSILL
 62
8
 10
1500.073
 20
-2964.090
 30
2787.224
 70
    32
  0
VERTEX
  8
T24SSILL
 62
8
 10
1496.946
 20
-2959.457
 30
2787.229
 70
    32
  0
VERTEX
  8
T24SSILL
 62
8
 10
1502.009
 20
-2955.445
 30
2787.223
 70
    32
  0
VERTEX
  8
T24SSILL
 62
8
 10
1505.407
 20
-2960.603
 30
2787.218
 70
    32
  0
VERTEX
  8
T24SSILL
 62
8
 10
1686.448
 20
-2829.704
 30
2787.004
 70
    32
  0
VERTEX
  8
T24SSILL
 62
8
 10
1751.868
 20
-2783.522
 30
2786.926
 70
    32
  0
VERTEX
  8
T24SSILL
 62
8
 10
1760.775
 20
-2775.371
 30
2786.916
 70
    32
  0
VERTEX
  8
T24SSILL
 62
8
 10
1809.657
 20
-2739.769
 30
2786.858
 70
    32
  0
VERTEX
  8
T24SSILL
 62
8
 10
1811.852
 20
-2739.313
 30
2786.855
 70
    32
  0
VERTEX
  8
T24SSILL
 62
8
 10
1816.911
 20
-2733.915
 30
2786.849
 70
    32
  0
VERTEX
  8
T24SSILL
 62
8
 10
1843.276
 20
-2715.752
 30
2786.818
 70
    32
  0
VERTEX
  8
T24SSILL
 62
8
 10
1834.539
 20
-2703.812
 30
2786.827
 70
    32
  0
VERTEX
  8
T24SSILL
 62
8
 10
1841.355
 20
-2698.225
 30
2786.829
 70
    32
  0
VERTEX
  8
T24SSILL
 62
8
 10
1850.594
 20
-2710.656
 30
2786.808
 70
    32
  0
VERTEX
  8
T24SSILL
 62
8
 10
1858.197
 20
-2705.488
 30
2786.808
 70
    32
  0
VERTEX
  8
T24SSILL
 62
8
 10
1858.878
 20
-2702.406
 30
2786.811
 70
    32
  0
VERTEX
  8
T24SSILL
 62
8
 10
1869.821
 20
-2696.174
 30
2786.811
 70
    32
  0
VERTEX
  8
T24SSILL
 62
8
 10
1885.646
 20
-2672.062
 30
2786.830
 70
    32
  0
VERTEX
  8
T24SSILL
 62
8
 10
1904.200
 20
-2660.676
 30
2786.830
 70
    32
  0
VERTEX
  8
T24SSILL
 62
8
 10
1910.693
 20
-2659.047
 30
2786.828
 70
    32
  0
VERTEX
  8
T24SSILL
 62
8
 10
1930.850
 20
-2650.551
 30
2786.830
 70
    32
  0
VERTEX
  8
T24SSILL
 62
8
 10
1958.414
 20
-2633.123
 30
2786.848
 70
    32
  0
VERTEX
  8
T24SSILL
 62
8
 10
1959.969
 20
-2629.420
 30
2786.846
 70
    32
  0
VERTEX
  8
T24SSILL
 62
8
 10
1978.291
 20
-2634.562
 30
2786.879
 70
    32
  0
VERTEX
  8
T24SSILL
 62
8
 10
1818.508
 20
-2427.655
 30
2787.175
 70
    32
  0
VERTEX
  8
T24SSILL
 62
8
 10
1823.693
 20
-2423.594
 30
2787.169
 70
    32
  0
VERTEX
  8
T24SSILL
 62
8
 10
1886.000
 20
-2506.000
 30
2787.036
 70
    32
  0
VERTEX
  8
T24SSILL
 62
8
 10
1899.000
 20
-2496.000
 30
2787.039
 70
    32
  0
VERTEX
  8
T24SSILL
 62
8
 10
1904.000
 20
-2503.000
 30
2787.027
 70
    32
  0
VERTEX
  8
T24SSILL
 62
8
 10
1892.000
 20
-2512.000
 30
2787.024
 70
    32
  0
VERTEX
  8
T24SSILL
 62
8
 10
1947.413
 20
-2582.570
 30
2786.896
 70
    32
  0
VERTEX
  8
T24SSILL
 62
8
 10
2450.381
 20
-3240.115
 30
2786.377
 70
    32
  0
VERTEX
  8
T24SSILL
 62
8
 10
2460.496
 20
-3232.379
 30
2786.377
 70
    32
  0
VERTEX
  8
T24SSILL
 62
8
 10
2464.716
 20
-3238.096
 30
2786.373
 70
    32
  0
VERTEX
  8
T24SSILL
 62
8
 10
2454.864
 20
-3245.833
 30
2786.373
 70
    32
  0
VERTEX
  8
T24SSILL
 62
8
 10
2478.073
 20
-3276.179
 30
2786.353
 70
    32
  0
VERTEX
  8
T24SSILL
 62
8
 10
2484.669
 20
-3276.885
 30
2786.351
 70
    32
  0
VERTEX
  8
T24SSILL
 62
8
 10
2489.154
 20
-3275.742
 30
2786.350
 70
    32
  0
VERTEX
  8
T24SSILL
 62
8
 10
2490.211
 20
-3269.587
 30
2786.352
 70
    32
  0
VERTEX
  8
T24SSILL
 62
8
 10
2489.333
 20
-3262.991
 30
2786.355
 70
    32
  0
VERTEX
  8
T24SSILL
 62
8
 10
2490.039
 20
-3257.099
 30
2786.357
 70
    32
  0
VERTEX
  8
T24SSILL
 62
8
 10
2491.534
 20
-3255.516
 30
2786.357
 70
    32
  0
VERTEX
  8
T24SSILL
 62
8
 10
2494.612
 20
-3254.989
 30
2786.357
 70
    32
  0
VERTEX
  8
T24SSILL
 62
8
 10
2499.888
 20
-3257.277
 30
2786.354
 70
    32
  0
VERTEX
  8
T24SSILL
 62
8
 10
2505.515
 20
-3262.028
 30
2786.350
 70
    32
  0
VERTEX
  8
T24SSILL
 62
8
 10
2505.514
 20
-3266.601
 30
2786.348
 70
    32
  0
VERTEX
  8
T24SSILL
 62
8
 10
2503.226
 20
-3273.108
 30
2786.346
 70
    32
  0
VERTEX
  8
T24SSILL
 62
8
 10
2500.498
 20
-3278.472
 30
2786.345
 70
    32
  0
VERTEX
  8
T24SSILL
 62
8
 10
2494.076
 20
-3286.561
 30
2786.344
 70
    32
  0
VERTEX
  8
T24SSILL
 62
8
 10
2493.196
 20
-3291.309
 30
2786.342
 70
    32
  0
VERTEX
  8
T24SSILL
 62
8
 10
2493.986
 20
-3296.938
 30
2786.339
 70
    32
  0
VERTEX
  8
T24SSILL
 62
8
 10
2754.557
 20
-3644.470
 30
2786.086
 70
    32
  0
VERTEX
  8
T24SSILL
 62
8
 10
2758.866
 20
-3645.878
 30
2786.084
 70
    32
  0
VERTEX
  8
T24SSILL
 62
8
 10
2763.175
 20
-3644.824
 30
2786.082
 70
    32
  0
VERTEX
  8
T24SSILL
 62
8
 10
3004.449
 20
-3471.903
 30
2786.114
 70
    32
  0
VERTEX
  8
T24SSILL
 62
8
 10
2990.295
 20
-3451.673
 30
2786.127
 70
    32
  0
VERTEX
  8
T24SSILL
 62
8
 10
2997.156
 20
-3447.541
 30
2786.128
 70
    32
  0
VERTEX
  8
T24SSILL
 62
8
 10
3010.694
 20
-3467.508
 30
2786.115
 70
    32
  0
VERTEX
  8
T24SSILL
 62
8
 10
3048.780
 20
-3439.816
 30
2786.122
 70
    32
  0
VERTEX
  8
T24SSILL
 62
8
 10
3045.615
 20
-3438.496
 30
2786.123
 70
    32
  0
VERTEX
  8
T24SSILL
 62
8
 10
3047.375
 20
-3431.109
 30
2786.127
 70
    32
  0
VERTEX
  8
T24SSILL
 62
8
 10
3053.883
 20
-3432.606
 30
2786.125
 70
    32
  0
VERTEX
  8
T24SSILL
 62
8
 10
3053.266
 20
-3436.299
 30
2786.123
 70
    32
  0
VERTEX
  8
T24SSILL
 62
8
 10
3105.250
 20
-3399.025
 30
2786.132
 70
    32
  0
VERTEX
  8
T24SSILL
 62
8
 10
3108.767
 20
-3404.391
 30
2786.130
 70
    32
  0
VERTEX
  8
T24SSILL
 62
8
 10
2766.076
 20
-3650.541
 30
2786.079
 70
    32
  0
VERTEX
  8
T24SSILL
 62
8
 10
2763.699
 20
-3657.839
 30
2786.076
 70
    32
  0
VERTEX
  8
T24SSILL
 62
8
 10
2844.577
 20
-3770.692
 30
2786.010
 70
    32
  0
VERTEX
  8
T24SSILL
 62
8
 10
2847.127
 20
-3773.946
 30
2786.013
 70
    32
  0
VERTEX
  8
T24SSILL
 62
8
 10
2864.887
 20
-3789.165
 30
2786.026
 70
    32
  0
VERTEX
  8
T24SSILL
 62
8
 10
2874.997
 20
-3801.919
 30
2786.037
 70
    32
  0
VERTEX
  8
T24SSILL
 62
8
 10
2881.238
 20
-3812.826
 30
2786.047
 70
    32
  0
VERTEX
  8
T24SSILL
 62
8
 10
2870.156
 20
-3820.474
 30
2786.054
 70
    32
  0
VERTEX
  8
T24SSILL
 62
8
 10
2886.596
 20
-3837.627
 30
2786.068
 70
    32
  0
VERTEX
  8
T24SSILL
 62
8
 10
2898.379
 20
-3843.523
 30
2786.073
 70
    32
  0
VERTEX
  8
T24SSILL
 62
8
 10
2899.258
 20
-3845.985
 30
2786.075
 70
    32
  0
VERTEX
  8
T24SSILL
 62
8
 10
2901.544
 20
-3847.657
 30
2786.077
 70
    32
  0
VERTEX
  8
T24SSILL
 62
8
 10
2936.728
 20
-3822.250
 30
2786.054
 70
    32
  0
VERTEX
  8
T24SSILL
 62
8
 10
2935.058
 20
-3819.612
 30
2786.051
 70
    32
  0
VERTEX
  8
T24SSILL
 62
8
 10
2940.071
 20
-3816.271
 30
2786.048
 70
    32
  0
VERTEX
  8
T24SSILL
 62
8
 10
2941.478
 20
-3818.910
 30
2786.050
 70
    32
  0
VERTEX
  8
T24SSILL
 62
8
 10
2944.468
 20
-3817.152
 30
2786.049
 70
    32
  0
VERTEX
  8
T24SSILL
 62
8
 10
2955.721
 20
-3833.512
 30
2786.063
 70
    32
  0
VERTEX
  8
T24SSILL
 62
8
 10
2949.564
 20
-3837.644
 30
2786.067
 70
    32
  0
VERTEX
  8
T24SSILL
 62
8
 10
2942.179
 20
-3827.880
 30
2786.058
 70
    32
  0
VERTEX
  8
T24SSILL
 62
8
 10
2905.148
 20
-3854.517
 30
2786.083
 70
    32
  0
VERTEX
  8
T24SSILL
 62
8
 10
3054.684
 20
-4063.245
 30
2786.263
 70
    32
  0
VERTEX
  8
T24SSILL
 62
8
 10
3048.791
 20
-4067.377
 30
2786.267
 70
    32
  0
VERTEX
  8
T24SSILL
 62
8
 10
3025.319
 20
-4033.953
 30
2786.238
 70
    32
  0
VERTEX
  8
T24SSILL
 62
8
 10
2963.571
 20
-4077.292
 30
2786.296
 70
    32
  0
VERTEX
  8
T24SSILL
 62
8
 10
2983.520
 20
-4094.153
 30
2786.306
 70
    32
  0
VERTEX
  8
T24SSILL
 62
8
 10
2985.729
 20
-4093.392
 30
2786.304
 70
    32
  0
VERTEX
  8
T24SSILL
 62
8
 10
2988.001
 20
-4097.939
 30
2786.308
 70
    32
  0
VERTEX
  8
T24SSILL
 62
8
 10
3019.930
 20
-4124.269
 30
2786.323
 70
    32
  0
VERTEX
  8
T24SSILL
 62
8
 10
3037.776
 20
-4148.897
 30
2786.343
 70
    32
  0
VERTEX
  8
T24SSILL
 62
8
 10
3029.684
 20
-4155.139
 30
2786.353
 70
    32
  0
VERTEX
  8
T24SSILL
 62
8
 10
3032.585
 20
-4158.834
 30
2786.356
 70
    32
  0
VERTEX
  8
T24SSILL
 62
8
 10
3025.988
 20
-4163.757
 30
2786.364
 70
    32
  0
VERTEX
  8
T24SSILL
 62
8
 10
3023.702
 20
-4160.150
 30
2786.361
 70
    32
  0
VERTEX
  8
T24SSILL
 62
8
 10
3003.120
 20
-4175.623
 30
2786.388
 70
    32
  0
VERTEX
  8
T24SSILL
 62
8
 10
2991.951
 20
-4175.796
 30
2786.393
 70
    32
  0
VERTEX
  8
T24SSILL
 62
8
 10
3027.751
 20
-4146.872
 30
2786.345
 70
    32
  0
VERTEX
  8
T24SSILL
 62
8
 10
3017.378
 20
-4131.743
 30
2786.332
 70
    32
  0
VERTEX
  8
T24SSILL
 62
8
 10
2983.354
 20
-4103.158
 30
2786.316
 70
    32
  0
VERTEX
  8
T24SSILL
 62
8
 10
2989.679
 20
-4118.984
 30
2786.331
 70
    32
  0
VERTEX
  8
T24SSILL
 62
8
 10
2983.874
 20
-4121.357
 30
2786.336
 70
    32
  0
VERTEX
  8
T24SSILL
 62
8
 10
2977.419
 20
-4104.271
 30
2786.320
 70
    32
  0
VERTEX
  8
T24SSILL
 62
8
 10
2970.243
 20
-4124.080
 30
2786.345
 70
    32
  0
VERTEX
  8
T24SSILL
 62
8
 10
2972.001
 20
-4125.223
 30
2786.345
 70
    32
  0
VERTEX
  8
T24SSILL
 62
8
 10
2965.844
 20
-4129.267
 30
2786.352
 70
    32
  0
VERTEX
  8
T24SSILL
 62
8
 10
2962.504
 20
-4123.814
 30
2786.348
 70
    32
  0
VERTEX
  8
T24SSILL
 62
8
 10
2964.615
 20
-4121.792
 30
2786.345
 70
    32
  0
VERTEX
  8
T24SSILL
 62
8
 10
2970.002
 20
-4101.680
 30
2786.320
 70
    32
  0
VERTEX
  8
T24SSILL
 62
8
 10
2969.106
 20
-4099.455
 30
2786.318
 70
    32
  0
VERTEX
  8
T24SSILL
 62
8
 10
2970.759
 20
-4098.905
 30
2786.317
 70
    32
  0
VERTEX
  8
T24SSILL
 62
8
 10
2972.097
 20
-4094.004
 30
2786.311
 70
    32
  0
VERTEX
  8
T24SSILL
 62
8
 10
2957.766
 20
-4081.864
 30
2786.303
 70
    32
  0
VERTEX
  8
T24SSILL
 62
8
 10
2826.706
 20
-4175.401
 30
2786.465
 70
    32
  0
VERTEX
  8
T24SSILL
 62
8
 10
2814.130
 20
-4175.485
 30
2786.471
 70
    32
  0
VERTEX
  8
T24SSILL
 62
8
 10
2820.111
 20
-4171.178
 30
2786.463
 70
    32
  0
VERTEX
  8
T24SSILL
 62
8
 10
2739.675
 20
-4052.169
 30
2786.367
 70
    32
  0
VERTEX
  8
T24SSILL
 62
8
 10
2736.598
 20
-4048.387
 30
2786.364
 70
    32
  0
VERTEX
  8
T24SSILL
 62
8
 10
2731.145
 20
-4048.474
 30
2786.367
 70
    32
  0
VERTEX
  8
T24SSILL
 62
8
 10
2724.725
 20
-4050.319
 30
2786.373
 70
    32
  0
VERTEX
  8
T24SSILL
 62
8
 10
2720.944
 20
-4049.262
 30
2786.374
 70
    32
  0
VERTEX
  8
T24SSILL
 62
8
 10
2714.614
 20
-4043.193
 30
2786.371
 70
    32
  0
VERTEX
  8
T24SSILL
 62
8
 10
2711.008
 20
-4042.048
 30
2786.371
 70
    32
  0
VERTEX
  8
T24SSILL
 62
8
 10
2707.579
 20
-4039.409
 30
2786.371
 70
    32
  0
VERTEX
  8
T24SSILL
 62
8
 10
2693.707
 20
-4020.345
 30
2786.358
 70
    32
  0
VERTEX
  8
T24SSILL
 62
8
 10
2634.316
 20
-4062.959
 30
2786.436
 70
    32
  0
VERTEX
  8
T24SSILL
 62
8
 10
2630.712
 20
-4057.066
 30
2786.432
 70
    32
  0
VERTEX
  8
T24SSILL
 62
8
 10
2689.656
 20
-4014.847
 30
2786.354
 70
    32
  0
VERTEX
  8
T24SSILL
 62
8
 10
2679.623
 20
-4001.235
 30
2786.345
 70
    32
  0
VERTEX
  8
T24SSILL
 62
8
 10
2677.601
 20
-4001.322
 30
2786.346
 70
    32
  0
VERTEX
  8
T24SSILL
 62
8
 10
2672.326
 20
-3995.428
 30
2786.343
 70
    32
  0
VERTEX
  8
T24SSILL
 62
8
 10
2663.623
 20
-3979.860
 30
2786.331
 70
    32
  0
VERTEX
  8
T24SSILL
 62
8
 10
2661.075
 20
-3972.121
 30
2786.324
 70
    32
  0
VERTEX
  8
T24SSILL
 62
8
 10
2656.329
 20
-3962.797
 30
2786.316
 70
    32
  0
VERTEX
  8
T24SSILL
 62
8
 10
2647.626
 20
-3950.043
 30
2786.307
 70
    32
  0
VERTEX
  8
T24SSILL
 62
8
 10
2661.935
 20
-3939.238
 30
2786.288
 70
    32
  0
VERTEX
  8
T24SSILL
 62
8
 10
2658.974
 20
-3935.184
 30
2786.285
 70
    32
  0
VERTEX
  8
T24SSILL
 62
8
 10
2643.845
 20
-3945.293
 30
2786.304
 70
    32
  0
VERTEX
  8
T24SSILL
 62
8
 10
2624.684
 20
-3916.404
 30
2786.284
 70
    32
  0
VERTEX
  8
T24SSILL
 62
8
 10
2619.316
 20
-3920.311
 30
2786.291
 70
    32
  0
VERTEX
  8
T24SSILL
 62
8
 10
2600.150
 20
-3898.144
 30
2786.294
 70
    32
  0
VERTEX
  8
T24SSILL
 62
8
 10
2593.558
 20
-3885.567
 30
2786.308
 70
    32
  0
VERTEX
  8
T24SSILL
 62
8
 10
2587.843
 20
-3879.497
 30
2786.318
 70
    32
  0
VERTEX
  8
T24SSILL
 62
8
 10
2582.480
 20
-3871.757
 30
2786.329
 70
    32
  0
VERTEX
  8
T24SSILL
 62
8
 10
2579.226
 20
-3873.867
 30
2786.333
 70
    32
  0
VERTEX
  8
T24SSILL
 62
8
 10
2572.281
 20
-3864.543
 30
2786.346
 70
    32
  0
VERTEX
  8
T24SSILL
 62
8
 10
2567.091
 20
-3867.707
 30
2786.353
 70
    32
  0
VERTEX
  8
T24SSILL
 62
8
 10
2564.463
 20
-3864.006
 30
2786.358
 70
    32
  0
VERTEX
  8
T24SSILL
 62
8
 10
2468.578
 20
-3932.495
 30
2786.476
 70
    32
  0
VERTEX
  8
T24SSILL
 62
8
 10
2464.446
 20
-3926.426
 30
2786.484
 70
    32
  0
VERTEX
  8
T24SSILL
 62
8
 10
2537.629
 20
-3873.768
 30
2786.394
 70
    32
  0
VERTEX
  8
T24SSILL
 62
8
 10
2502.109
 20
-3822.866
 30
2786.463
 70
    32
  0
VERTEX
  8
T24SSILL
 62
8
 10
2491.998
 20
-3829.169
 30
2786.476
 70
    32
  0
VERTEX
  8
T24SSILL
 62
8
 10
2476.263
 20
-3803.661
 30
2786.507
 70
    32
  0
VERTEX
  8
T24SSILL
 62
8
 10
2471.426
 20
-3806.474
 30
2786.513
 70
    32
  0
VERTEX
  8
T24SSILL
 62
8
 10
2448.746
 20
-3771.115
 30
2786.558
 70
    32
  0
VERTEX
  8
T24SSILL
 62
8
 10
2458.949
 20
-3764.434
 30
2786.545
 70
    32
  0
VERTEX
  8
T24SSILL
 62
8
 10
2456.048
 20
-3759.069
 30
2786.551
 70
    32
  0
VERTEX
  8
T24SSILL
 62
8
 10
2457.101
 20
-3758.370
 30
2786.550
 70
    32
  0
VERTEX
  8
T24SSILL
 62
8
 10
2448.137
 20
-3745.523
 30
2786.567
 70
    32
  0
VERTEX
  8
T24SSILL
 62
8
 10
2415.165
 20
-3718.516
 30
2786.624
 70
    32
  0
VERTEX
  8
T24SSILL
 62
8
 10
2291.582
 20
-3805.195
 30
2786.778
 70
    32
  0
VERTEX
  8
T24SSILL
 62
8
 10
2241.006
 20
-4174.806
 30
2786.765
 70
    32
  0
VERTEX
  8
T24SSILL
 62
8
 10
2180.684
 20
-4607.388
 30
2787.427
 70
    32
  0
VERTEX
  8
T24SSILL
 62
8
 10
2198.814
 20
-4610.236
 30
2787.413
 70
    32
  0
VERTEX
  8
T24SSILL
 62
8
 10
2198.233
 20
-4616.544
 30
2787.414
 70
    32
  0
VERTEX
  8
T24SSILL
 62
8
 10
2179.773
 20
-4613.967
 30
2787.428
 70
    32
  0
VERTEX
  8
T24SSILL
 62
8
 10
2158.983
 20
-4774.964
 30
2787.452
 70
    32
  0
VERTEX
  8
T24SSILL
 62
8
 10
2156.075
 20
-4781.828
 30
2787.454
 70
    32
  0
VERTEX
  8
T24SSILL
 62
8
 10
2155.737
 20
-4787.095
 30
2787.455
 70
    32
  0
VERTEX
  8
T24SSILL
 62
8
 10
2148.429
 20
-4786.978
 30
2787.459
 70
    32
  0
VERTEX
  8
T24SSILL
 62
8
 10
2149.421
 20
-4781.137
 30
2787.458
 70
    32
  0
VERTEX
  8
T24SSILL
 62
8
 10
2149.149
 20
-4773.011
 30
2787.458
 70
    32
  0
VERTEX
  8
T24SSILL
 62
8
 10
2157.880
 20
-4712.492
 30
2787.448
 70
    32
  0
VERTEX
  8
T24SSILL
 62
8
 10
2064.672
 20
-4654.158
 30
2787.499
 70
    32
  0
VERTEX
  8
T24SSILL
 62
8
 10
2069.198
 20
-4648.191
 30
2787.496
 70
    32
  0
VERTEX
  8
T24SSILL
 62
8
 10
2073.119
 20
-4650.718
 30
2787.494
 70
    32
  0
VERTEX
  8
T24SSILL
 62
8
 10
2073.237
 20
-4620.952
 30
2787.491
 70
    32
  0
VERTEX
  8
T24SSILL
 62
8
 10
2041.350
 20
-4620.668
 30
2787.510
 70
    32
  0
VERTEX
  8
T24SSILL
 62
8
 10
2041.293
 20
-4605.064
 30
2787.509
 70
    32
  0
VERTEX
  8
T24SSILL
 62
8
 10
2050.895
 20
-4605.152
 30
2787.503
 70
    32
  0
VERTEX
  8
T24SSILL
 62
8
 10
2051.610
 20
-4570.648
 30
2787.500
 70
    32
  0
VERTEX
  8
T24SSILL
 62
8
 10
2047.523
 20
-4567.037
 30
2787.503
 70
    32
  0
VERTEX
  8
T24SSILL
 62
8
 10
2074.676
 20
-4533.965
 30
2787.467
 70
    32
  0
VERTEX
  8
T24SSILL
 62
8
 10
2170.354
 20
-4538.694
 30
2787.412
 70
    32
  0
VERTEX
  8
T24SSILL
 62
8
 10
2171.112
 20
-4537.861
 30
2787.409
 70
    32
  0
VERTEX
  8
T24SSILL
 62
8
 10
2182.211
 20
-4537.956
 30
2787.402
 70
    32
  0
VERTEX
  8
T24SSILL
 62
8
 10
2185.090
 20
-4519.191
 30
2787.354
 70
    32
  0
VERTEX
  8
T24SSILL
 62
8
 10
2167.098
 20
-4516.627
 30
2787.359
 70
    32
  0
VERTEX
  8
T24SSILL
 62
8
 10
2168.466
 20
-4509.047
 30
2787.339
 70
    32
  0
VERTEX
  8
T24SSILL
 62
8
 10
2186.095
 20
-4511.764
 30
2787.335
 70
    32
  0
VERTEX
  8
T24SSILL
 62
8
 10
2195.876
 20
-4443.116
 30
2787.159
 70
    32
  0
VERTEX
  8
T24SSILL
 62
8
 10
2195.352
 20
-4434.798
 30
2787.139
 70
    32
  0
VERTEX
  8
T24SSILL
 62
8
 10
2192.337
 20
-4426.848
 30
2787.121
 70
    32
  0
VERTEX
  8
T24SSILL
 62
8
 10
2186.388
 20
-4417.917
 30
2787.102
 70
    32
  0
VERTEX
  8
T24SSILL
 62
8
 10
2050.592
 20
-4258.226
 30
2787.112
 70
    32
  0
VERTEX
  8
T24SSILL
 62
8
 10
2046.175
 20
-4255.137
 30
2787.121
 70
    32
  0
VERTEX
  8
T24SSILL
 62
8
 10
2041.935
 20
-4253.490
 30
2787.130
 70
    32
  0
VERTEX
  8
T24SSILL
 62
8
 10
2035.442
 20
-4252.331
 30
2787.142
 70
    32
  0
VERTEX
  8
T24SSILL
 62
8
 10
2025.725
 20
-4253.667
 30
2787.160
 70
    32
  0
VERTEX
  8
T24SSILL
 62
8
 10
2020.677
 20
-4255.877
 30
2787.168
 70
    32
  0
VERTEX
  8
T24SSILL
 62
8
 10
1747.220
 20
-4452.683
 30
2787.574
 70
    32
  0
VERTEX
  8
T24SSILL
 62
8
 10
1746.616
 20
-4460.616
 30
2787.571
 70
    32
  0
VERTEX
  8
T24SSILL
 62
8
 10
1748.744
 20
-4467.013
 30
2787.564
 70
    32
  0
VERTEX
  8
T24SSILL
 62
8
 10
1743.186
 20
-4468.758
 30
2787.573
 70
    32
  0
VERTEX
  8
T24SSILL
 62
8
 10
1736.171
 20
-4462.498
 30
2787.589
 70
    32
  0
VERTEX
  8
T24SSILL
 62
8
 10
1679.071
 20
-4502.636
 30
2787.675
 70
    32
  0
VERTEX
  8
T24SSILL
 62
8
 10
1674.711
 20
-4497.527
 30
2787.685
 70
    32
  0
VERTEX
  8
T24SSILL
 62
8
 10
1711.671
 20
-4470.503
 30
2787.630
 70
    32
  0
VERTEX
  8
T24SSILL
 62
8
 10
1715.833
 20
-4465.739
 30
2787.625
 70
    32
  0
VERTEX
  8
T24SSILL
 62
8
 10
1714.821
 20
-4460.972
 30
2787.629
 70
    32
  0
VERTEX
  8
T24SSILL
 62
8
 10
1708.450
 20
-4450.966
 30
2787.640
 70
    32
  0
VERTEX
  8
T24SSILL
 62
8
 10
1712.475
 20
-4448.450
 30
2787.634
 70
    32
  0
VERTEX
  8
T24SSILL
 62
8
 10
1717.441
 20
-4454.725
 30
2787.628
 70
    32
  0
VERTEX
  8
T24SSILL
 62
8
 10
1718.516
 20
-4454.756
 30
2787.626
 70
    32
  0
VERTEX
  8
T24SSILL
 62
8
 10
1724.914
 20
-4450.041
 30
2787.616
 70
    32
  0
VERTEX
  8
T24SSILL
 62
8
 10
1727.970
 20
-4453.456
 30
2787.609
 70
    32
  0
VERTEX
  8
T24SSILL
 62
8
 10
1729.003
 20
-4451.887
 30
2787.608
 70
    32
  0
VERTEX
  8
T24SSILL
 62
8
 10
1714.638
 20
-4431.740
 30
2787.629
 70
    32
  0
VERTEX
  8
T24SSILL
 62
8
 10
1717.906
 20
-4428.259
 30
2787.624
 70
    32
  0
VERTEX
  8
T24SSILL
 62
8
 10
1724.539
 20
-4426.544
 30
2787.615
 70
    32
  0
VERTEX
  8
T24SSILL
 62
8
 10
1732.953
 20
-4442.335
 30
2787.605
 70
    32
  0
VERTEX
  8
T24SSILL
 62
8
 10
1736.673
 20
-4440.843
 30
2787.599
 70
    32
  0
VERTEX
  8
T24SSILL
 62
8
 10
1739.462
 20
-4433.234
 30
2787.597
 70
    32
  0
VERTEX
  8
T24SSILL
 62
8
 10
1743.728
 20
-4432.469
 30
2787.590
 70
    32
  0
VERTEX
  8
T24SSILL
 62
8
 10
1745.904
 20
-4439.217
 30
2787.583
 70
    32
  0
VERTEX
  8
T24SSILL
 62
8
 10
1750.313
 20
-4442.090
 30
2787.573
 70
    32
  0
VERTEX
  8
T24SSILL
 62
8
 10
2020.704
 20
-4248.291
 30
2787.171
 70
    32
  0
VERTEX
  8
T24SSILL
 62
8
 10
2031.817
 20
-4245.426
 30
2787.152
 70
    32
  0
VERTEX
  8
T24SSILL
 62
8
 10
2036.426
 20
-4245.863
 30
2787.144
 70
    32
  0
VERTEX
  8
T24SSILL
 62
8
 10
2041.644
 20
-4247.957
 30
2787.133
 70
    32
  0
VERTEX
  8
T24SSILL
 62
8
 10
1951.505
 20
-4141.785
 30
2787.282
 70
    32
  0
VERTEX
  8
T24SSILL
 62
8
 10
1801.026
 20
-3960.472
 30
2787.127
 70
    32
  0
VERTEX
  8
T24SSILL
 62
8
 10
1783.168
 20
-3956.261
 30
2787.157
 70
    32
  0
VERTEX
  8
T24SSILL
 62
8
 10
1777.624
 20
-3960.055
 30
2787.190
 70
    32
  0
VERTEX
  8
T24SSILL
 62
8
 10
1786.916
 20
-3977.688
 30
2787.256
 70
    32
  0
VERTEX
  8
T24SSILL
 62
8
 10
1786.720
 20
-3984.048
 30
2787.290
 70
    32
  0
VERTEX
  8
T24SSILL
 62
8
 10
1785.246
 20
-3986.302
 30
2787.306
 70
    32
  0
VERTEX
  8
T24SSILL
 62
8
 10
1789.212
 20
-3992.447
 30
2787.326
 70
    32
  0
VERTEX
  8
T24SSILL
 62
8
 10
1791.636
 20
-3999.696
 30
2787.357
 70
    32
  0
VERTEX
  8
T24SSILL
 62
8
 10
1796.380
 20
-4003.058
 30
2787.362
 70
    32
  0
VERTEX
  8
T24SSILL
 62
8
 10
1807.497
 20
-4008.665
 30
2787.360
 70
    32
  0
VERTEX
  8
T24SSILL
 62
8
 10
1809.361
 20
-4013.137
 30
2787.378
 70
    32
  0
VERTEX
  8
T24SSILL
 62
8
 10
1812.863
 20
-4017.204
 30
2787.389
 70
    32
  0
VERTEX
  8
T24SSILL
 62
8
 10
1808.053
 20
-4021.790
 30
2787.414
 70
    32
  0
VERTEX
  8
T24SSILL
 62
8
 10
1806.324
 20
-4020.244
 30
2787.415
 70
    32
  0
VERTEX
  8
T24SSILL
 62
8
 10
1806.138
 20
-4017.594
 30
2787.410
 70
    32
  0
VERTEX
  8
T24SSILL
 62
8
 10
1798.416
 20
-4012.679
 30
2787.406
 70
    32
  0
VERTEX
  8
T24SSILL
 62
8
 10
1784.737
 20
-4002.071
 30
2787.389
 70
    32
  0
VERTEX
  8
T24SSILL
 62
8
 10
1774.372
 20
-3988.957
 30
2787.350
 70
    32
  0
VERTEX
  8
T24SSILL
 62
8
 10
1763.419
 20
-3978.064
 30
2787.324
 70
    32
  0
VERTEX
  8
T24SSILL
 62
8
 10
1760.546
 20
-3977.923
 30
2787.331
 70
    32
  0
VERTEX
  8
T24SSILL
 62
8
 10
1719.462
 20
-4011.935
 30
2787.490
 70
    32
  0
VERTEX
  8
T24SSILL
 62
8
 10
1713.681
 20
-4006.219
 30
2787.493
 70
    32
  0
VERTEX
  8
T24SSILL
 62
8
 10
1755.874
 20
-3970.538
 30
2787.306
 70
    32
  0
VERTEX
  8
T24SSILL
 62
8
 10
1754.196
 20
-3961.581
 30
2787.264
 70
    32
  0
VERTEX
  8
T24SSILL
 62
8
 10
1752.671
 20
-3956.974
 30
2787.244
 70
    32
  0
VERTEX
  8
T24SSILL
 62
8
 10
1750.490
 20
-3953.438
 30
2787.236
 70
    32
  0
VERTEX
  8
T24SSILL
 62
8
 10
1755.148
 20
-3947.089
 30
2787.204
 70
    32
  0
VERTEX
  8
T24SSILL
 62
8
 10
1759.311
 20
-3946.874
 30
2787.192
 70
    32
  0
VERTEX
  8
T24SSILL
 62
8
 10
1769.137
 20
-3950.875
 30
2787.178
 70
    32
  0
VERTEX
  8
T24SSILL
 62
8
 10
1771.626
 20
-3955.350
 30
2787.185
 70
    32
  0
VERTEX
  8
T24SSILL
 62
8
 10
1787.588
 20
-3944.280
 30
2787.108
 70
    32
  0
VERTEX
  8
T24SSILL
 62
8
 10
1748.183
 20
-3896.801
 30
2787.069
 70
    32
  0
VERTEX
  8
T24SSILL
 62
8
 10
1741.131
 20
-3891.840
 30
2787.073
 70
    32
  0
VERTEX
  8
T24SSILL
 62
8
 10
1728.428
 20
-3888.323
 30
2787.096
 70
    32
  0
VERTEX
  8
T24SSILL
 62
8
 10
1722.717
 20
-3888.306
 30
2787.111
 70
    32
  0
VERTEX
  8
T24SSILL
 62
8
 10
1717.147
 20
-3889.963
 30
2787.131
 70
    32
  0
VERTEX
  8
T24SSILL
 62
8
 10
1708.050
 20
-3894.514
 30
2787.169
 70
    32
  0
VERTEX
  8
T24SSILL
 62
8
 10
1605.462
 20
-3969.716
 30
2787.506
 70
    32
  0
VERTEX
  8
T24SSILL
 62
8
 10
1606.837
 20
-3971.935
 30
2787.510
 70
    32
  0
VERTEX
  8
T24SSILL
 62
8
 10
1612.672
 20
-3972.203
 30
2787.523
 70
    32
  0
VERTEX
  8
T24SSILL
 62
8
 10
1620.805
 20
-3970.372
 30
2787.541
 70
    32
  0
VERTEX
  8
T24SSILL
 62
8
 10
1635.551
 20
-3963.439
 30
2787.548
 70
    32
  0
VERTEX
  8
T24SSILL
 62
8
 10
1638.898
 20
-3963.782
 30
2787.545
 70
    32
  0
VERTEX
  8
T24SSILL
 62
8
 10
1640.370
 20
-3973.837
 30
2787.548
 70
    32
  0
VERTEX
  8
T24SSILL
 62
8
 10
1622.678
 20
-3980.105
 30
2787.548
 70
    32
  0
VERTEX
  8
T24SSILL
 62
8
 10
1615.780
 20
-3987.029
 30
2787.534
 70
    32
  0
VERTEX
  8
T24SSILL
 62
8
 10
1638.121
 20
-4018.478
 30
2787.565
 70
    32
  0
VERTEX
  8
T24SSILL
 62
8
 10
1629.321
 20
-4025.842
 30
2787.575
 70
    32
  0
VERTEX
  8
T24SSILL
 62
8
 10
1625.907
 20
-4026.311
 30
2787.568
 70
    32
  0
VERTEX
  8
T24SSILL
 62
8
 10
1624.690
 20
-4027.192
 30
2787.566
 70
    32
  0
VERTEX
  8
T24SSILL
 62
8
 10
1621.235
 20
-4026.062
 30
2787.558
 70
    32
  0
VERTEX
  8
T24SSILL
 62
8
 10
1613.098
 20
-4016.833
 30
2787.537
 70
    32
  0
VERTEX
  8
T24SSILL
 62
8
 10
1610.681
 20
-4008.335
 30
2787.529
 70
    32
  0
VERTEX
  8
T24SSILL
 62
8
 10
1610.661
 20
-4004.948
 30
2787.528
 70
    32
  0
VERTEX
  8
T24SSILL
 62
8
 10
1609.272
 20
-4000.679
 30
2787.524
 70
    32
  0
VERTEX
  8
T24SSILL
 62
8
 10
1606.581
 20
-3996.678
 30
2787.517
 70
    32
  0
VERTEX
  8
T24SSILL
 62
8
 10
1603.245
 20
-3999.010
 30
2787.510
 70
    32
  0
VERTEX
  8
T24SSILL
 62
8
 10
1597.772
 20
-3998.781
 30
2787.497
 70
    32
  0
VERTEX
  8
T24SSILL
 62
8
 10
1595.279
 20
-3997.518
 30
2787.491
 70
    32
  0
VERTEX
  8
T24SSILL
 62
8
 10
1583.733
 20
-3985.547
 30
2787.462
 70
    32
  0
VERTEX
  8
T24SSILL
 62
8
 10
1580.121
 20
-3987.827
 30
2787.455
 70
    32
  0
VERTEX
  8
T24SSILL
 62
8
 10
1577.956
 20
-3990.890
 30
2787.451
 70
    32
  0
VERTEX
  8
T24SSILL
 62
8
 10
1574.489
 20
-4001.357
 30
2787.446
 70
    32
  0
VERTEX
  8
T24SSILL
 62
8
 10
1568.399
 20
-4030.381
 30
2787.441
 70
    32
  0
VERTEX
  8
T24SSILL
 62
8
 10
1558.700
 20
-4030.554
 30
2787.419
 70
    32
  0
VERTEX
  8
T24SSILL
 62
8
 10
1565.956
 20
-3998.337
 30
2787.426
 70
    32
  0
VERTEX
  8
T24SSILL
 62
8
 10
1509.104
 20
-4038.977
 30
2787.311
 70
    32
  0
VERTEX
  8
T24SSILL
 62
8
 10
1511.003
 20
-4050.847
 30
2787.318
 70
    32
  0
VERTEX
  8
T24SSILL
 62
8
 10
1509.498
 20
-4054.176
 30
2787.316
 70
    32
  0
VERTEX
  8
T24SSILL
 62
8
 10
1508.648
 20
-4059.020
 30
2787.315
 70
    32
  0
VERTEX
  8
T24SSILL
 62
8
 10
1518.614
 20
-4074.419
 30
2787.342
 70
    32
  0
VERTEX
  8
T24SSILL
 62
8
 10
1517.457
 20
-4075.738
 30
2787.340
 70
    32
  0
VERTEX
  8
T24SSILL
 62
8
 10
1517.374
 20
-4079.674
 30
2787.341
 70
    32
  0
VERTEX
  8
T24SSILL
 62
8
 10
1518.775
 20
-4084.031
 30
2787.345
 70
    32
  0
VERTEX
  8
T24SSILL
 62
8
 10
1516.927
 20
-4086.158
 30
2787.342
 70
    32
  0
VERTEX
  8
T24SSILL
 62
8
 10
1517.067
 20
-4090.420
 30
2787.343
 70
    32
  0
VERTEX
  8
T24SSILL
 62
8
 10
1516.577
 20
-4093.342
 30
2787.343
 70
    32
  0
VERTEX
  8
T24SSILL
 62
8
 10
1515.571
 20
-4094.461
 30
2787.341
 70
    32
  0
VERTEX
  8
T24SSILL
 62
8
 10
1513.992
 20
-4095.303
 30
2787.338
 70
    32
  0
VERTEX
  8
T24SSILL
 62
8
 10
1511.514
 20
-4093.502
 30
2787.332
 70
    32
  0
VERTEX
  8
T24SSILL
 62
8
 10
1511.762
 20
-4086.868
 30
2787.330
 70
    32
  0
VERTEX
  8
T24SSILL
 62
8
 10
1510.267
 20
-4081.186
 30
2787.325
 70
    32
  0
VERTEX
  8
T24SSILL
 62
8
 10
1505.320
 20
-4069.200
 30
2787.311
 70
    32
  0
VERTEX
  8
T24SSILL
 62
8
 10
1501.485
 20
-4064.018
 30
2787.301
 70
    32
  0
VERTEX
  8
T24SSILL
 62
8
 10
1491.303
 20
-4058.728
 30
2787.276
 70
    32
  0
VERTEX
  8
T24SSILL
 62
8
 10
1484.914
 20
-4094.661
 30
2787.352
 70
    32
  0
VERTEX
  8
T24SSILL
 62
8
 10
1494.339
 20
-4098.985
 30
2787.330
 70
    32
  0
VERTEX
  8
T24SSILL
 62
8
 10
1493.868
 20
-4112.430
 30
2787.360
 70
    32
  0
VERTEX
  8
T24SSILL
 62
8
 10
1480.910
 20
-4116.798
 30
2787.413
 70
    32
  0
VERTEX
  8
T24SSILL
 62
8
 10
1479.243
 20
-4124.787
 30
2787.435
 70
    32
  0
VERTEX
  8
T24SSILL
 62
8
 10
1485.700
 20
-4144.504
 30
2787.455
 70
    32
  0
VERTEX
  8
T24SSILL
 62
8
 10
1558.713
 20
-4254.529
 30
2787.484
 70
    32
  0
VERTEX
  8
T24SSILL
 62
8
 10
1552.733
 20
-4259.099
 30
2787.472
 70
    32
  0
VERTEX
  8
T24SSILL
 62
8
 10
1470.056
 20
-4134.524
 30
2787.487
 70
    32
  0
VERTEX
  8
T24SSILL
 62
8
 10
1473.961
 20
-4112.312
 30
2787.427
 70
    32
  0
VERTEX
  8
T24SSILL
 62
8
 10
1468.953
 20
-4111.573
 30
2787.442
 70
    32
  0
VERTEX
  8
T24SSILL
 62
8
 10
1468.419
 20
-4103.797
 30
2787.428
 70
    32
  0
VERTEX
  8
T24SSILL
 62
8
 10
1475.526
 20
-4102.285
 30
2787.400
 70
    32
  0
VERTEX
  8
T24SSILL
 62
8
 10
1483.782
 20
-4055.926
 30
2787.274
 70
    32
  0
VERTEX
  8
T24SSILL
 62
8
 10
1419.496
 20
-4100.888
 30
2787.587
 70
    32
  0
VERTEX
  8
T24SSILL
 62
8
 10
1424.466
 20
-4111.087
 30
2787.592
 70
    32
  0
VERTEX
  8
T24SSILL
 62
8
 10
1425.174
 20
-4114.290
 30
2787.596
 70
    32
  0
VERTEX
  8
T24SSILL
 62
8
 10
1437.086
 20
-4130.225
 30
2787.590
 70
    32
  0
VERTEX
  8
T24SSILL
 62
8
 10
1441.112
 20
-4139.394
 30
2787.596
 70
    32
  0
VERTEX
  8
T24SSILL
 62
8
 10
1434.383
 20
-4147.544
 30
2787.636
 70
    32
  0
VERTEX
  8
T24SSILL
 62
8
 10
1429.965
 20
-4151.095
 30
2787.658
 70
    32
  0
VERTEX
  8
T24SSILL
 62
8
 10
1424.261
 20
-4154.376
 30
2787.685
 70
    32
  0
VERTEX
  8
T24SSILL
 62
8
 10
1419.148
 20
-4154.812
 30
2787.703
 70
    32
  0
VERTEX
  8
T24SSILL
 62
8
 10
1400.925
 20
-4133.857
 30
2787.720
 70
    32
  0
VERTEX
  8
T24SSILL
 62
8
 10
1389.813
 20
-4129.587
 30
2787.749
 70
    32
  0
VERTEX
  8
T24SSILL
 62
8
 10
1383.471
 20
-4116.544
 30
2787.742
 70
    32
  0
VERTEX
  8
T24SSILL
 62
8
 10
1375.942
 20
-4098.758
 30
2787.730
 70
    32
  0
VERTEX
  8
T24SSILL
 62
8
 10
1376.431
 20
-4098.423
 30
2787.728
 70
    32
  0
VERTEX
  8
T24SSILL
 62
8
 10
1366.922
 20
-4086.350
 30
2787.734
 70
    32
  0
VERTEX
  8
T24SSILL
 62
8
 10
1365.334
 20
-4081.930
 30
2787.730
 70
    32
  0
VERTEX
  8
T24SSILL
 62
8
 10
1359.325
 20
-4071.963
 30
2787.729
 70
    32
  0
VERTEX
  8
T24SSILL
 62
8
 10
1352.464
 20
-4064.878
 30
2787.738
 70
    32
  0
VERTEX
  8
T24SSILL
 62
8
 10
1347.294
 20
-4057.115
 30
2787.739
 70
    32
  0
VERTEX
  8
T24SSILL
 62
8
 10
1313.035
 20
-4015.531
 30
2787.766
 70
    32
  0
VERTEX
  8
T24SSILL
 62
8
 10
1311.097
 20
-4008.572
 30
2787.758
 70
    32
  0
VERTEX
  8
T24SSILL
 62
8
 10
1299.957
 20
-3993.066
 30
2787.763
 70
    32
  0
VERTEX
  8
T24SSILL
 62
8
 10
1301.220
 20
-3990.574
 30
2787.753
 70
    32
  0
VERTEX
  8
T24SSILL
 62
8
 10
1300.991
 20
-3988.910
 30
2787.751
 70
    32
  0
VERTEX
  8
T24SSILL
 62
8
 10
1303.141
 20
-3986.385
 30
2787.738
 70
    32
  0
VERTEX
  8
T24SSILL
 62
8
 10
1302.702
 20
-3984.483
 30
2787.735
 70
    32
  0
VERTEX
  8
T24SSILL
 62
8
 10
1283.044
 20
-3960.871
 30
2787.752
 70
    32
  0
VERTEX
  8
T24SSILL
 62
8
 10
1278.456
 20
-3954.099
 30
2787.753
 70
    32
  0
VERTEX
  8
T24SSILL
 62
8
 10
1248.756
 20
-3922.323
 30
2787.786
 70
    32
  0
VERTEX
  8
T24SSILL
 62
8
 10
1253.406
 20
-3912.675
 30
2787.750
 70
    32
  0
VERTEX
  8
T24SSILL
 62
8
 10
1253.700
 20
-3908.978
 30
2787.741
 70
    32
  0
VERTEX
  8
T24SSILL
 62
8
 10
1260.476
 20
-3903.765
 30
2787.707
 70
    32
  0
VERTEX
  8
T24SSILL
 62
8
 10
1265.226
 20
-3901.328
 30
2787.686
 70
    32
  0
VERTEX
  8
T24SSILL
 62
8
 10
1268.111
 20
-3901.556
 30
2787.676
 70
    32
  0
VERTEX
  8
T24SSILL
 62
8
 10
1278.686
 20
-3912.947
 30
2787.665
 70
    32
  0
VERTEX
  8
T24SSILL
 62
8
 10
1286.807
 20
-3918.163
 30
2787.648
 70
    32
  0
VERTEX
  8
T24SSILL
 62
8
 10
1290.871
 20
-3922.422
 30
2787.644
 70
    32
  0
VERTEX
  8
T24SSILL
 62
8
 10
1300.284
 20
-3938.343
 30
2787.646
 70
    32
  0
VERTEX
  8
T24SSILL
 62
8
 10
1305.425
 20
-3944.594
 30
2787.642
 70
    32
  0
VERTEX
  8
T24SSILL
 62
8
 10
1312.027
 20
-3951.090
 30
2787.633
 70
    32
  0
VERTEX
  8
T24SSILL
 62
8
 10
1316.773
 20
-3953.827
 30
2787.623
 70
    32
  0
VERTEX
  8
T24SSILL
 62
8
 10
1345.238
 20
-3999.330
 30
2787.623
 70
    32
  0
VERTEX
  8
T24SSILL
 62
8
 10
1386.289
 20
-4053.985
 30
2787.600
 70
    32
  0
VERTEX
  8
T24SSILL
 62
8
 10
1390.210
 20
-4054.606
 30
2787.588
 70
    32
  0
VERTEX
  8
T24SSILL
 62
8
 10
1394.727
 20
-4058.266
 30
2787.580
 70
    32
  0
VERTEX
  8
T24SSILL
 62
8
 10
1407.738
 20
-4076.994
 30
2787.576
 70
    32
  0
VERTEX
  8
T24SSILL
 62
8
 10
1413.188
 20
-4079.010
 30
2787.562
 70
    32
  0
VERTEX
  8
T24SSILL
 62
8
 10
1419.756
 20
-4080.069
 30
2787.542
 70
    32
  0
VERTEX
  8
T24SSILL
 62
8
 10
1422.254
 20
-4082.669
 30
2787.539
 70
    32
  0
VERTEX
  8
T24SSILL
 62
8
 10
1428.697
 20
-4086.065
 30
2787.524
 70
    32
  0
VERTEX
  8
T24SSILL
 62
8
 10
1480.763
 20
-4050.187
 30
2787.272
 70
    32
  0
VERTEX
  8
T24SSILL
 62
8
 10
1481.112
 20
-4041.041
 30
2787.251
 70
    32
  0
VERTEX
  8
T24SSILL
 62
8
 10
1477.194
 20
-4028.110
 30
2787.237
 70
    32
  0
VERTEX
  8
T24SSILL
 62
8
 10
1469.944
 20
-4025.985
 30
2787.257
 70
    32
  0
VERTEX
  8
T24SSILL
 62
8
 10
1465.237
 20
-4022.886
 30
2787.266
 70
    32
  0
VERTEX
  8
T24SSILL
 62
8
 10
1461.918
 20
-4019.506
 30
2787.271
 70
    32
  0
VERTEX
  8
T24SSILL
 62
8
 10
1455.758
 20
-4009.738
 30
2787.271
 70
    32
  0
VERTEX
  8
T24SSILL
 62
8
 10
1448.027
 20
-3999.562
 30
2787.275
 70
    32
  0
VERTEX
  8
T24SSILL
 62
8
 10
1428.081
 20
-3978.399
 30
2787.298
 70
    32
  0
VERTEX
  8
T24SSILL
 62
8
 10
1423.406
 20
-3969.051
 30
2787.294
 70
    32
  0
VERTEX
  8
T24SSILL
 62
8
 10
1416.871
 20
-3961.743
 30
2787.300
 70
    32
  0
VERTEX
  8
T24SSILL
 62
8
 10
1405.219
 20
-3943.810
 30
2787.302
 70
    32
  0
VERTEX
  8
T24SSILL
 62
8
 10
1395.103
 20
-3933.159
 30
2787.313
 70
    32
  0
VERTEX
  8
T24SSILL
 62
8
 10
1380.541
 20
-3914.824
 30
2787.324
 70
    32
  0
VERTEX
  8
T24SSILL
 62
8
 10
1374.361
 20
-3904.256
 30
2787.322
 70
    32
  0
VERTEX
  8
T24SSILL
 62
8
 10
1355.318
 20
-3882.522
 30
2787.341
 70
    32
  0
VERTEX
  8
T24SSILL
 62
8
 10
1352.440
 20
-3878.458
 30
2787.342
 70
    32
  0
VERTEX
  8
T24SSILL
 62
8
 10
1349.724
 20
-3869.733
 30
2787.332
 70
    32
  0
VERTEX
  8
T24SSILL
 62
8
 10
1340.687
 20
-3855.901
 30
2787.334
 70
    32
  0
VERTEX
  8
T24SSILL
 62
8
 10
1326.766
 20
-3841.580
 30
2787.350
 70
    32
  0
VERTEX
  8
T24SSILL
 62
8
 10
1327.045
 20
-3838.420
 30
2787.343
 70
    32
  0
VERTEX
  8
T24SSILL
 62
8
 10
1323.398
 20
-3833.302
 30
2787.344
 70
    32
  0
VERTEX
  8
T24SSILL
 62
8
 10
1324.568
 20
-3829.484
 30
2787.332
 70
    32
  0
VERTEX
  8
T24SSILL
 62
8
 10
1328.441
 20
-3822.618
 30
2787.304
 70
    32
  0
VERTEX
  8
T24SSILL
 62
8
 10
1329.376
 20
-3818.387
 30
2787.292
 70
    32
  0
VERTEX
  8
T24SSILL
 62
8
 10
1328.970
 20
-3807.649
 30
2787.271
 70
    32
  0
VERTEX
  8
T24SSILL
 62
8
 10
1334.528
 20
-3805.904
 30
2787.248
 70
    32
  0
VERTEX
  8
T24SSILL
 62
8
 10
1335.857
 20
-3812.322
 30
2787.257
 70
    32
  0
VERTEX
  8
T24SSILL
 62
8
 10
1340.179
 20
-3819.756
 30
2787.259
 70
    32
  0
VERTEX
  8
T24SSILL
 62
8
 10
1393.330
 20
-3819.675
 30
2787.078
 70
    32
  0
VERTEX
  8
T24SSILL
 62
8
 10
1397.370
 20
-3816.622
 30
2787.058
 70
    32
  0
VERTEX
  8
T24SSILL
 62
8
 10
1367.862
 20
-3774.563
 30
2787.150
 70
    32
  0
VERTEX
  8
T24SSILL
 62
8
 10
1358.330
 20
-3766.864
 30
2787.170
 70
    32
  0
VERTEX
  8
T24SSILL
 62
8
 10
1355.090
 20
-3755.624
 30
2787.194
 70
    32
  0
VERTEX
  8
T24SSILL
 62
8
 10
1356.575
 20
-3737.224
 30
2787.234
 70
    32
  0
VERTEX
  8
T24SSILL
 62
8
 10
1370.404
 20
-3650.942
 30
2787.102
 70
    32
  0
VERTEX
  8
T24SSILL
 62
8
 10
1369.965
 20
-3641.904
 30
2787.098
 70
    32
  0
VERTEX
  8
T24SSILL
 62
8
 10
1366.550
 20
-3628.439
 30
2787.108
 70
    32
  0
VERTEX
  8
T24SSILL
 62
8
 10
1356.126
 20
-3613.706
 30
2787.157
 70
    32
  0
VERTEX
  8
T24SSILL
 62
8
 10
1187.734
 20
-3413.579
 30
2787.959
 70
    32
  0
VERTEX
  8
T24SSILL
 62
8
 10
1037.749
 20
-3521.921
 30
2787.808
 70
    32
  0
VERTEX
  8
T24SSILL
 62
8
 10
1040.526
 20
-3534.277
 30
2787.774
 70
    32
  0
VERTEX
  8
T24SSILL
 62
8
 10
1048.610
 20
-3542.067
 30
2787.755
 70
    32
  0
VERTEX
  8
T24SSILL
 62
8
 10
1053.957
 20
-3550.553
 30
2787.735
 70
    32
  0
VERTEX
  8
T24SSILL
 62
8
 10
1056.048
 20
-3557.615
 30
2787.721
 70
    32
  0
VERTEX
  8
T24SSILL
 62
8
 10
1055.133
 20
-3566.430
 30
2787.703
 70
    32
  0
VERTEX
  8
T24SSILL
 62
8
 10
1052.381
 20
-3571.358
 30
2787.706
 70
    32
  0
VERTEX
  8
T24SSILL
 62
8
 10
1045.037
 20
-3578.121
 30
2787.745
 70
    32
  0
VERTEX
  8
T24SSILL
 62
8
 10
1038.235
 20
-3581.182
 30
2787.775
 70
    32
  0
VERTEX
  8
T24SSILL
 62
8
 10
1030.315
 20
-3576.744
 30
2787.792
 70
    32
  0
VERTEX
  8
T24SSILL
 62
8
 10
1021.635
 20
-3563.308
 30
2787.793
 70
    32
  0
VERTEX
  8
T24SSILL
 62
8
 10
1022.276
 20
-3556.784
 30
2787.777
 70
    32
  0
VERTEX
  8
T24SSILL
 62
8
 10
1025.230
 20
-3545.067
 30
2787.759
 70
    32
  0
VERTEX
  8
T24SSILL
 62
8
 10
1024.884
 20
-3543.126
 30
2787.763
 70
    32
  0
VERTEX
  8
T24SSILL
 62
8
 10
1019.447
 20
-3534.904
 30
2787.782
 70
    32
  0
VERTEX
  8
T24SSILL
 62
8
 10
1002.554
 20
-3547.019
 30
2787.823
 70
    32
  0
VERTEX
  8
T24SSILL
 62
8
 10
998.196
 20
-3541.523
 30
2787.826
 70
    32
  0
VERTEX
  8
T24SSILL
 62
8
 10
1027.969
 20
-3519.768
 30
2787.813
 70
    32
  0
VERTEX
  8
T24SSILL
 62
8
 10
1023.251
 20
-3507.934
 30
2787.846
 70
    32
  0
VERTEX
  8
T24SSILL
 62
8
 10
1006.555
 20
-3492.088
 30
2787.889
 70
    32
  0
VERTEX
  8
T24SSILL
 62
8
 10
1005.050
 20
-3493.758
 30
2787.884
 70
    32
  0
VERTEX
  8
T24SSILL
 62
8
 10
994.716
 20
-3498.129
 30
2787.871
 70
    32
  0
VERTEX
  8
T24SSILL
 62
8
 10
990.569
 20
-3498.819
 30
2787.868
 70
    32
  0
VERTEX
  8
T24SSILL
 62
8
 10
985.199
 20
-3496.330
 30
2787.875
 70
    32
  0
VERTEX
  8
T24SSILL
 62
8
 10
980.984
 20
-3491.376
 30
2787.888
 70
    32
  0
VERTEX
  8
T24SSILL
 62
8
 10
972.882
 20
-3488.612
 30
2787.895
 70
    32
  0
VERTEX
  8
T24SSILL
 62
8
 10
963.362
 20
-3487.607
 30
2787.901
 70
    32
  0
VERTEX
  8
T24SSILL
 62
8
 10
945.387
 20
-3483.572
 30
2787.917
 70
    32
  0
VERTEX
  8
T24SSILL
 62
8
 10
930.771
 20
-3477.521
 30
2787.936
 70
    32
  0
VERTEX
  8
T24SSILL
 62
8
 10
927.517
 20
-3475.305
 30
2787.941
 70
    32
  0
VERTEX
  8
T24SSILL
 62
8
 10
901.712
 20
-3466.391
 30
2787.993
 70
    32
  0
VERTEX
  8
T24SSILL
 62
8
 10
905.189
 20
-3455.998
 30
2787.990
 70
    32
  0
VERTEX
  8
T24SSILL
 62
8
 10
907.047
 20
-3454.418
 30
2787.992
 70
    32
  0
VERTEX
  8
T24SSILL
 62
8
 10
907.498
 20
-3451.597
 30
2787.997
 70
    32
  0
VERTEX
  8
T24SSILL
 62
8
 10
913.274
 20
-3439.890
 30
2788.027
 70
    32
  0
VERTEX
  8
T24SSILL
 62
8
 10
916.198
 20
-3436.198
 30
2788.037
 70
    32
  0
VERTEX
  8
T24SSILL
 62
8
 10
918.848
 20
-3434.796
 30
2788.042
 70
    32
  0
VERTEX
  8
T24SSILL
 62
8
 10
922.816
 20
-3434.899
 30
2788.042
 70
    32
  0
VERTEX
  8
T24SSILL
 62
8
 10
936.032
 20
-3437.947
 30
2788.035
 70
    32
  0
VERTEX
  8
T24SSILL
 62
8
 10
951.076
 20
-3447.614
 30
2788.009
 70
    32
  0
VERTEX
  8
T24SSILL
 62
8
 10
956.536
 20
-3449.574
 30
2788.004
 70
    32
  0
VERTEX
  8
T24SSILL
 62
8
 10
972.028
 20
-3457.304
 30
2787.984
 70
    32
  0
VERTEX
  8
T24SSILL
 62
8
 10
977.489
 20
-3458.823
 30
2787.980
 70
    32
  0
VERTEX
  8
T24SSILL
 62
8
 10
982.963
 20
-3457.256
 30
2787.985
 70
    32
  0
VERTEX
  8
T24SSILL
 62
8
 10
985.243
 20
-3460.704
 30
2787.976
 70
    32
  0
VERTEX
  8
T24SSILL
 62
8
 10
998.205
 20
-3460.928
 30
2787.976
 70
    32
  0
VERTEX
  8
T24SSILL
 62
8
 10
999.965
 20
-3461.905
 30
2787.974
 70
    32
  0
VERTEX
  8
T24SSILL
 62
8
 10
1000.089
 20
-3475.926
 30
2787.934
 70
    32
  0
VERTEX
  8
T24SSILL
 62
8
 10
1031.900
 20
-3505.938
 30
2787.853
 70
    32
  0
VERTEX
  8
T24SSILL
 62
8
 10
1043.560
 20
-3500.602
 30
2787.869
 70
    32
  0
VERTEX
  8
T24SSILL
 62
8
 10
1048.412
 20
-3500.179
 30
2787.871
 70
    32
  0
VERTEX
  8
T24SSILL
 62
8
 10
1053.170
 20
-3501.167
 30
2787.869
 70
    32
  0
VERTEX
  8
T24SSILL
 62
8
 10
1113.649
 20
-3457.564
 30
2787.999
 70
    32
  0
VERTEX
  8
T24SSILL
 62
8
 10
1110.117
 20
-3458.785
 30
2787.995
 70
    32
  0
VERTEX
  8
T24SSILL
 62
8
 10
1099.008
 20
-3458.215
 30
2787.996
 70
    32
  0
VERTEX
  8
T24SSILL
 62
8
 10
1085.707
 20
-3454.374
 30
2788.005
 70
    32
  0
VERTEX
  8
T24SSILL
 62
8
 10
1078.845
 20
-3450.027
 30
2788.016
 70
    32
  0
VERTEX
  8
T24SSILL
 62
8
 10
1075.496
 20
-3449.398
 30
2788.018
 70
    32
  0
VERTEX
  8
T24SSILL
 62
8
 10
1062.396
 20
-3438.679
 30
2788.047
 70
    32
  0
VERTEX
  8
T24SSILL
 62
8
 10
1058.382
 20
-3427.465
 30
2788.078
 70
    32
  0
VERTEX
  8
T24SSILL
 62
8
 10
1055.134
 20
-3423.220
 30
2788.090
 70
    32
  0
VERTEX
  8
T24SSILL
 62
8
 10
1050.724
 20
-3423.468
 30
2788.089
 70
    32
  0
VERTEX
  8
T24SSILL
 62
8
 10
1044.209
 20
-3420.710
 30
2788.096
 70
    32
  0
VERTEX
  8
T24SSILL
 62
8
 10
1040.616
 20
-3414.613
 30
2788.113
 70
    32
  0
VERTEX
  8
T24SSILL
 62
8
 10
1029.033
 20
-3399.138
 30
2788.155
 70
    32
  0
VERTEX
  8
T24SSILL
 62
8
 10
1017.532
 20
-3385.515
 30
2788.192
 70
    32
  0
VERTEX
  8
T24SSILL
 62
8
 10
1013.166
 20
-3373.858
 30
2788.225
 70
    32
  0
VERTEX
  8
T24SSILL
 62
8
 10
1016.284
 20
-3365.140
 30
2788.250
 70
    32
  0
VERTEX
  8
T24SSILL
 62
8
 10
1019.732
 20
-3362.860
 30
2788.257
 70
    32
  0
VERTEX
  8
T24SSILL
 62
8
 10
1026.260
 20
-3362.090
 30
2788.260
 70
    32
  0
VERTEX
  8
T24SSILL
 62
8
 10
1027.845
 20
-3362.713
 30
2788.258
 70
    32
  0
VERTEX
  8
T24SSILL
 62
8
 10
1033.816
 20
-3369.614
 30
2788.239
 70
    32
  0
VERTEX
  8
T24SSILL
 62
8
 10
1036.543
 20
-3371.476
 30
2788.234
 70
    32
  0
VERTEX
  8
T24SSILL
 62
8
 10
1046.113
 20
-3382.799
 30
2788.203
 70
    32
  0
VERTEX
  8
T24SSILL
 62
8
 10
1050.318
 20
-3390.310
 30
2788.183
 70
    32
  0
VERTEX
  8
T24SSILL
 62
8
 10
1049.933
 20
-3399.039
 30
2788.158
 70
    32
  0
VERTEX
  8
T24SSILL
 62
8
 10
1055.540
 20
-3409.024
 30
2788.130
 70
    32
  0
VERTEX
  8
T24SSILL
 62
8
 10
1055.443
 20
-3411.405
 30
2788.123
 70
    32
  0
VERTEX
  8
T24SSILL
 62
8
 10
1068.254
 20
-3428.471
 30
2788.076
 70
    32
  0
VERTEX
  8
T24SSILL
 62
8
 10
1069.216
 20
-3430.768
 30
2788.070
 70
    32
  0
VERTEX
  8
T24SSILL
 62
8
 10
1074.047
 20
-3435.989
 30
2788.056
 70
    32
  0
VERTEX
  8
T24SSILL
 62
8
 10
1082.311
 20
-3442.809
 30
2788.037
 70
    32
  0
VERTEX
  8
T24SSILL
 62
8
 10
1093.489
 20
-3448.318
 30
2788.023
 70
    32
  0
VERTEX
  8
T24SSILL
 62
8
 10
1100.184
 20
-3450.371
 30
2788.018
 70
    32
  0
VERTEX
  8
T24SSILL
 62
8
 10
1112.093
 20
-3449.181
 30
2788.023
 70
    32
  0
VERTEX
  8
T24SSILL
 62
8
 10
1137.521
 20
-3440.721
 30
2788.049
 70
    32
  0
VERTEX
  8
T24SSILL
 62
8
 10
1182.616
 20
-3407.907
 30
2787.983
 70
    32
  0
VERTEX
  8
T24SSILL
 62
8
 10
1073.837
 20
-3278.228
 30
2788.501
 70
    32
  0
VERTEX
  8
T24SSILL
 62
8
 10
1070.495
 20
-3275.922
 30
2788.509
 70
    32
  0
VERTEX
  8
T24SSILL
 62
8
 10
1066.971
 20
-3274.939
 30
2788.512
 70
    32
  0
VERTEX
  8
T24SSILL
 62
8
 10
962.069
 20
-3265.115
 30
2788.528
 70
    32
  0
VERTEX
  8
T24SSILL
 62
8
 10
945.560
 20
-3270.169
 30
2788.511
 70
    32
  0
VERTEX
  8
T24SSILL
 62
8
 10
914.435
 20
-3292.981
 30
2788.443
 70
    32
  0
VERTEX
  8
T24SSILL
 62
8
 10
917.223
 20
-3302.074
 30
2788.418
 70
    32
  0
VERTEX
  8
T24SSILL
 62
8
 10
923.271
 20
-3312.150
 30
2788.390
 70
    32
  0
VERTEX
  8
T24SSILL
 62
8
 10
949.890
 20
-3339.232
 30
2788.316
 70
    32
  0
VERTEX
  8
T24SSILL
 62
8
 10
946.874
 20
-3343.983
 30
2788.302
 70
    32
  0
VERTEX
  8
T24SSILL
 62
8
 10
935.510
 20
-3340.943
 30
2788.310
 70
    32
  0
VERTEX
  8
T24SSILL
 62
8
 10
924.698
 20
-3331.644
 30
2788.335
 70
    32
  0
VERTEX
  8
T24SSILL
 62
8
 10
922.859
 20
-3328.021
 30
2788.345
 70
    32
  0
VERTEX
  8
T24SSILL
 62
8
 10
920.486
 20
-3325.808
 30
2788.351
 70
    32
  0
VERTEX
  8
T24SSILL
 62
8
 10
896.771
 20
-3324.221
 30
2788.353
 70
    32
  0
VERTEX
  8
T24SSILL
 62
8
 10
893.953
 20
-3323.240
 30
2788.355
 70
    32
  0
VERTEX
  8
T24SSILL
 62
8
 10
886.663
 20
-3315.277
 30
2788.377
 70
    32
  0
VERTEX
  8
T24SSILL
 62
8
 10
879.782
 20
-3313.569
 30
2788.381
 70
    32
  0
VERTEX
  8
T24SSILL
 62
8
 10
877.944
 20
-3312.246
 30
2788.384
 70
    32
  0
VERTEX
  8
T24SSILL
 62
8
 10
877.683
 20
-3311.187
 30
2788.387
 70
    32
  0
VERTEX
  8
T24SSILL
 62
8
 10
877.516
 20
-3308.717
 30
2788.394
 70
    32
  0
VERTEX
  8
T24SSILL
 62
8
 10
878.582
 20
-3306.693
 30
2788.400
 70
    32
  0
VERTEX
  8
T24SSILL
 62
8
 10
884.148
 20
-3303.892
 30
2788.409
 70
    32
  0
VERTEX
  8
T24SSILL
 62
8
 10
888.050
 20
-3297.998
 30
2788.426
 70
    32
  0
VERTEX
  8
T24SSILL
 62
8
 10
891.813
 20
-3281.786
 30
2788.472
 70
    32
  0
VERTEX
  8
T24SSILL
 62
8
 10
892.615
 20
-3279.673
 30
2788.478
 70
    32
  0
VERTEX
  8
T24SSILL
 62
8
 10
894.296
 20
-3278.092
 30
2788.483
 70
    32
  0
VERTEX
  8
T24SSILL
 62
8
 10
900.133
 20
-3273.704
 30
2788.496
 70
    32
  0
VERTEX
  8
T24SSILL
 62
8
 10
903.132
 20
-3273.451
 30
2788.497
 70
    32
  0
VERTEX
  8
T24SSILL
 62
8
 10
912.265
 20
-3283.802
 30
2788.469
 70
    32
  0
VERTEX
  8
T24SSILL
 62
8
 10
941.088
 20
-3263.274
 30
2788.530
 70
    32
  0
VERTEX
  8
T24SSILL
 62
8
 10
813.969
 20
-3252.309
 30
2788.547
 70
    32
  0
VERTEX
  8
T24SSILL
 62
8
 10
887.575
 20
-3354.698
 30
2788.265
 70
    32
  0
VERTEX
  8
T24SSILL
 62
8
 10
897.104
 20
-3353.234
 30
2788.270
 70
    32
  0
VERTEX
  8
T24SSILL
 62
8
 10
899.657
 20
-3354.390
 30
2788.267
 70
    32
  0
VERTEX
  8
T24SSILL
 62
8
 10
906.939
 20
-3364.558
 30
2788.239
 70
    32
  0
VERTEX
  8
T24SSILL
 62
8
 10
914.768
 20
-3369.878
 30
2788.225
 70
    32
  0
VERTEX
  8
T24SSILL
 62
8
 10
919.918
 20
-3383.919
 30
2788.186
 70
    32
  0
VERTEX
  8
T24SSILL
 62
8
 10
924.667
 20
-3387.552
 30
2788.176
 70
    32
  0
VERTEX
  8
T24SSILL
 62
8
 10
925.364
 20
-3389.759
 30
2788.170
 70
    32
  0
VERTEX
  8
T24SSILL
 62
8
 10
901.935
 20
-3406.074
 30
2788.121
 70
    32
  0
VERTEX
  8
T24SSILL
 62
8
 10
896.922
 20
-3402.528
 30
2788.131
 70
    32
  0
VERTEX
  8
T24SSILL
 62
8
 10
882.970
 20
-3383.782
 30
2788.182
 70
    32
  0
VERTEX
  8
T24SSILL
 62
8
 10
880.967
 20
-3377.072
 30
2788.201
 70
    32
  0
VERTEX
  8
T24SSILL
 62
8
 10
880.289
 20
-3369.662
 30
2788.222
 70
    32
  0
VERTEX
  8
T24SSILL
 62
8
 10
880.479
 20
-3365.959
 30
2788.232
 70
    32
  0
VERTEX
  8
T24SSILL
 62
8
 10
882.177
 20
-3359.793
 30
2788.250
 70
    32
  0
VERTEX
  8
T24SSILL
 62
8
 10
804.977
 20
-3251.482
 30
2788.548
 70
    32
  0
VERTEX
  8
T24SSILL
 62
8
 10
417.009
 20
-3216.977
 30
2788.628
 70
    32
  0
VERTEX
  8
T24SSILL
 62
8
 10
409.079
 20
-3215.360
 30
2788.630
 70
    32
  0
VERTEX
  8
T24SSILL
 62
8
 10
399.947
 20
-3204.656
 30
2788.637
 70
    32
  0
VERTEX
  8
T24SSILL
 62
8
 10
238.258
 20
-2979.807
 30
2788.786
 70
    32
  0
VERTEX
  8
T24SSILL
 62
8
 10
229.950
 20
-2984.890
 30
2788.785
 70
    32
  0
VERTEX
  8
T24SSILL
 62
8
 10
224.071
 20
-2977.109
 30
2788.791
 70
    32
  0
VERTEX
  8
T24SSILL
 62
8
 10
231.851
 20
-2971.582
 30
2788.792
 70
    32
  0
VERTEX
  8
T24SSILL
 62
8
 10
224.836
 20
-2961.062
 30
2788.799
 70
    32
  0
VERTEX
  8
T24SSILL
 62
8
 10
219.467
 20
-2958.308
 30
2788.801
 70
    32
  0
VERTEX
  8
T24SSILL
 62
8
 10
216.820
 20
-2958.475
 30
2788.802
 70
    32
  0
VERTEX
  8
T24SSILL
 62
8
 10
209.036
 20
-2964.972
 30
2788.800
 70
    32
  0
VERTEX
  8
T24SSILL
 62
8
 10
203.893
 20
-2972.713
 30
2788.797
 70
    32
  0
VERTEX
  8
T24SSILL
 62
8
 10
197.134
 20
-2964.399
 30
2788.803
 70
    32
  0
VERTEX
  8
T24SSILL
 62
8
 10
216.235
 20
-2949.919
 30
2788.806
 70
    32
  0
VERTEX
  8
T24SSILL
 62
8
 10
207.552
 20
-2937.277
 30
2788.808
 70
    32
  0
VERTEX
  8
T24SSILL
 62
8
 10
195.085
 20
-2946.225
 30
2788.806
 70
    32
  0
VERTEX
  8
T24SSILL
 62
8
 10
190.346
 20
-2939.858
 30
2788.804
 70
    32
  0
VERTEX
  8
T24SSILL
 62
8
 10
202.023
 20
-2930.025
 30
2788.807
 70
    32
  0
VERTEX
  8
T24SSILL
 62
8
 10
165.527
 20
-2878.788
 30
2788.801
 70
    32
  0
VERTEX
  8
T24SSILL
 62
8
 10
160.760
 20
-2875.575
 30
2788.800
 70
    32
  0
VERTEX
  8
T24SSILL
 62
8
 10
158.214
 20
-2874.605
 30
2788.799
 70
    32
  0
VERTEX
  8
T24SSILL
 62
8
 10
149.746
 20
-2875.739
 30
2788.797
 70
    32
  0
VERTEX
  8
T24SSILL
 62
8
 10
-1.251
 20
-2985.571
 30
2788.804
 70
    32
  0
VERTEX
  8
T24SSILL
 62
8
 10
-100.219
 20
-2969.784
 30
2789.114
 70
    32
  0
VERTEX
  8
T24SSILL
 62
8
 10
-288.051
 20
-2709.124
 30
2789.975
 70
    32
  0
VERTEX
  8
T24SSILL
 62
8
 10
-379.248
 20
-2582.568
 30
2789.247
 70
    32
  0
VERTEX
  8
T24SSILL
 62
8
 10
-367.560
 20
-2426.451
 30
2789.125
 70
    32
  0
VERTEX
  8
T24SSILL
 62
8
 10
-463.552
 20
-2495.673
 30
2789.159
 70
    32
  0
VERTEX
  8
T24SSILL
 62
8
 10
-468.719
 20
-2489.122
 30
2789.154
 70
    32
  0
VERTEX
  8
T24SSILL
 62
8
 10
-234.990
 20
-2322.413
 30
2788.809
 70
    32
  0
VERTEX
  8
T24SSILL
 62
8
 10
-398.047
 20
-2094.221
 30
2788.706
 70
    32
  0
VERTEX
  8
T24SSILL
 62
8
 10
-451.277
 20
-2084.825
 30
2788.820
 70
    32
  0
VERTEX
  8
T24SSILL
 62
8
 10
-458.461
 20
-2084.371
 30
2788.845
 70
    32
  0
VERTEX
  8
T24SSILL
 62
8
 10
-463.914
 20
-2085.741
 30
2788.868
 70
    32
  0
VERTEX
  8
T24SSILL
 62
8
 10
-468.710
 20
-2088.268
 30
2788.892
 70
    32
  0
VERTEX
  8
T24SSILL
 62
8
 10
-550.057
 20
-2145.894
 30
2788.930
 70
    32
  0
VERTEX
  8
T24SSILL
 62
8
 10
-554.802
 20
-2139.798
 30
2788.926
 70
    32
  0
VERTEX
  8
T24SSILL
 62
8
 10
-479.713
 20
-2086.200
 30
2788.900
 70
    32
  0
VERTEX
  8
T24SSILL
 62
8
 10
-467.164
 20
-2078.562
 30
2788.863
 70
    32
  0
VERTEX
  8
T24SSILL
 62
8
 10
-462.400
 20
-2077.434
 30
2788.843
 70
    32
  0
VERTEX
  8
T24SSILL
 62
8
 10
-452.216
 20
-2076.652
 30
2788.804
 70
    32
  0
VERTEX
  8
T24SSILL
 62
8
 10
-404.648
 20
-2085.014
 30
2788.701
 70
    32
  0
VERTEX
  8
T24SSILL
 62
8
 10
-495.729
 20
-1956.188
 30
2788.680
 70
    32
  0
VERTEX
  8
T24SSILL
 62
8
 10
-538.982
 20
-1898.167
 30
2788.702
 70
    32
  0
VERTEX
  8
T24SSILL
 62
8
 10
-791.749
 20
-1545.277
 30
2788.593
 70
    32
  0
VERTEX
  8
T24SSILL
 62
8
 10
-992.508
 20
-1267.312
 30
2789.301
 70
    32
  0
VERTEX
  8
T24SSILL
 62
8
 10
-996.407
 20
-1257.982
 30
2789.319
 70
    32
  0
VERTEX
  8
T24SSILL
 62
8
 10
-997.523
 20
-1249.382
 30
2789.336
 70
    32
  0
VERTEX
  8
T24SSILL
 62
8
 10
-994.582
 20
-1236.294
 30
2789.362
 70
    32
  0
VERTEX
  8
T24SSILL
 62
8
 10
-990.460
 20
-1228.846
 30
2789.377
 70
    32
  0
VERTEX
  8
T24SSILL
 62
8
 10
-985.065
 20
-1223.197
 30
2789.390
 70
    32
  0
VERTEX
  8
T24SSILL
 62
8
 10
-751.104
 20
-1056.360
 30
2789.314
 70
    32
  0
VERTEX
  8
T24SSILL
 62
8
 10
-746.025
 20
-1063.237
 30
2789.306
 70
    32
  0
VERTEX
  8
T24SSILL
 62
8
 10
-979.902
 20
-1229.583
 30
2789.380
 70
    32
  0
VERTEX
  8
T24SSILL
 62
8
 10
-983.528
 20
-1233.766
 30
2789.370
 70
    32
  0
VERTEX
  8
T24SSILL
 62
8
 10
-987.282
 20
-1241.277
 30
2789.355
 70
    32
  0
VERTEX
  8
T24SSILL
 62
8
 10
-988.355
 20
-1244.949
 30
2789.347
 70
    32
  0
VERTEX
  8
T24SSILL
 62
8
 10
-988.228
 20
-1254.896
 30
2789.328
 70
    32
  0
VERTEX
  8
T24SSILL
 62
8
 10
-983.078
 20
-1266.148
 30
2789.306
 70
    32
  0
VERTEX
  8
T24SSILL
 62
8
 10
-885.328
 20
-1402.404
 30
2789.006
 70
    32
  0
VERTEX
  8
T24SSILL
 62
8
 10
-884.884
 20
-1397.233
 30
2789.018
 70
    32
  0
VERTEX
  8
T24SSILL
 62
8
 10
-881.140
 20
-1387.570
 30
2789.039
 70
    32
  0
VERTEX
  8
T24SSILL
 62
8
 10
-872.175
 20
-1376.591
 30
2789.063
 70
    32
  0
VERTEX
  8
T24SSILL
 62
8
 10
-683.503
 20
-1242.317
 30
2789.104
 70
    32
  0
SEQEND
  8
T24SSILL
  0
POLYLINE
  8
T24SSILL
 62
8
 66
     1
 70
     9
  0
VERTEX
  8
T24SSILL
 62
8
 10
960.161
 20
-2899.500
 30
2787.871
 70
    32
  0
VERTEX
  8
T24SSILL
 62
8
 10
960.409
 20
-2903.822
 30
2787.869
 70
    32
  0
VERTEX
  8
T24SSILL
 62
8
 10
962.328
 20
-2909.561
 30
2787.865
 70
    32
  0
VERTEX
  8
T24SSILL
 62
8
 10
998.468
 20
-2961.194
 30
2787.959
 70
    32
  0
VERTEX
  8
T24SSILL
 62
8
 10
1002.037
 20
-2949.919
 30
2787.896
 70
    32
  0
VERTEX
  8
T24SSILL
 62
8
 10
1007.886
 20
-2942.093
 30
2787.848
 70
    32
  0
VERTEX
  8
T24SSILL
 62
8
 10
1012.310
 20
-2938.317
 30
2787.822
 70
    32
  0
VERTEX
  8
T24SSILL
 62
8
 10
1011.888
 20
-2933.201
 30
2787.798
 70
    32
  0
VERTEX
  8
T24SSILL
 62
8
 10
1012.250
 20
-2930.645
 30
2787.799
 70
    32
  0
VERTEX
  8
T24SSILL
 62
8
 10
1013.759
 20
-2928.005
 30
2787.798
 70
    32
  0
VERTEX
  8
T24SSILL
 62
8
 10
1016.765
 20
-2925.900
 30
2787.796
 70
    32
  0
VERTEX
  8
T24SSILL
 62
8
 10
1020.649
 20
-2924.768
 30
2787.792
 70
    32
  0
VERTEX
  8
T24SSILL
 62
8
 10
1022.850
 20
-2925.746
 30
2787.789
 70
    32
  0
VERTEX
  8
T24SSILL
 62
8
 10
1025.218
 20
-2929.106
 30
2787.785
 70
    32
  0
VERTEX
  8
T24SSILL
 62
8
 10
1082.286
 20
-2889.221
 30
2787.736
 70
    32
  0
VERTEX
  8
T24SSILL
 62
8
 10
1080.855
 20
-2886.290
 30
2787.739
 70
    32
  0
VERTEX
  8
T24SSILL
 62
8
 10
1076.894
 20
-2882.251
 30
2787.746
 70
    32
  0
VERTEX
  8
T24SSILL
 62
8
 10
1073.991
 20
-2872.223
 30
2787.753
 70
    32
  0
VERTEX
  8
T24SSILL
 62
8
 10
1039.921
 20
-2828.543
 30
2787.804
 70
    32
  0
VERTEX
  8
T24SSILL
 62
8
 10
968.433
 20
-2880.130
 30
2787.870
 70
    32
  0
VERTEX
  8
T24SSILL
 62
8
 10
962.942
 20
-2886.635
 30
2787.874
 70
    32
  0
VERTEX
  8
T24SSILL
 62
8
 10
960.188
 20
-2892.181
 30
2787.875
 70
    32
  0
VERTEX
  8
T24SSILL
 62
8
 10
959.999
 20
-2895.531
 30
2787.873
 70
    32
  0
SEQEND
  8
T24SSILL
  0
POLYLINE
  8
T24SSILL
 62
8
 66
     1
 70
     9
  0
VERTEX
  8
T24SSILL
 62
8
 10
1088.502
 20
-3056.942
 30
2788.299
 70
    32
  0
VERTEX
  8
T24SSILL
 62
8
 10
1092.453
 20
-3061.454
 30
2788.316
 70
    32
  0
VERTEX
  8
T24SSILL
 62
8
 10
1095.334
 20
-3069.224
 30
2788.351
 70
    32
  0
VERTEX
  8
T24SSILL
 62
8
 10
1096.276
 20
-3076.812
 30
2788.387
 70
    32
  0
VERTEX
  8
T24SSILL
 62
8
 10
1095.282
 20
-3083.422
 30
2788.422
 70
    32
  0
VERTEX
  8
T24SSILL
 62
8
 10
1100.468
 20
-3087.938
 30
2788.437
 70
    32
  0
VERTEX
  8
T24SSILL
 62
8
 10
1104.767
 20
-3093.862
 30
2788.460
 70
    32
  0
VERTEX
  8
T24SSILL
 62
8
 10
1109.485
 20
-3105.785
 30
2788.513
 70
    32
  0
VERTEX
  8
T24SSILL
 62
8
 10
1107.604
 20
-3113.626
 30
2788.555
 70
    32
  0
VERTEX
  8
T24SSILL
 62
8
 10
1147.691
 20
-3170.917
 30
2787.671
 70
    32
  0
VERTEX
  8
T24SSILL
 62
8
 10
1156.958
 20
-3169.012
 30
2787.611
 70
    32
  0
VERTEX
  8
T24SSILL
 62
8
 10
1169.529
 20
-3155.654
 30
2787.683
 70
    32
  0
VERTEX
  8
T24SSILL
 62
8
 10
1170.507
 20
-3153.453
 30
2787.705
 70
    32
  0
VERTEX
  8
T24SSILL
 62
8
 10
1170.968
 20
-3148.164
 30
2787.775
 70
    32
  0
VERTEX
  8
T24SSILL
 62
8
 10
1173.198
 20
-3141.206
 30
2787.853
 70
    32
  0
VERTEX
  8
T24SSILL
 62
8
 10
1173.222
 20
-3134.945
 30
2787.942
 70
    32
  0
VERTEX
  8
T24SSILL
 62
8
 10
1169.663
 20
-3119.676
 30
2788.191
 70
    32
  0
VERTEX
  8
T24SSILL
 62
8
 10
1165.116
 20
-3109.165
 30
2788.382
 70
    32
  0
VERTEX
  8
T24SSILL
 62
8
 10
1170.591
 20
-3107.157
 30
2788.360
 70
    32
  0
VERTEX
  8
T24SSILL
 62
8
 10
1175.057
 20
-3115.463
 30
2788.200
 70
    32
  0
VERTEX
  8
T24SSILL
 62
8
 10
1179.685
 20
-3127.826
 30
2787.982
 70
    32
  0
VERTEX
  8
T24SSILL
 62
8
 10
1182.502
 20
-3129.336
 30
2787.934
 70
    32
  0
VERTEX
  8
T24SSILL
 62
8
 10
1186.736
 20
-3128.998
 30
2787.899
 70
    32
  0
VERTEX
  8
T24SSILL
 62
8
 10
1187.878
 20
-3130.061
 30
2787.874
 70
    32
  0
VERTEX
  8
T24SSILL
 62
8
 10
1188.400
 20
-3132.091
 30
2787.840
 70
    32
  0
VERTEX
  8
T24SSILL
 62
8
 10
1186.970
 20
-3137.112
 30
2787.782
 70
    32
  0
VERTEX
  8
T24SSILL
 62
8
 10
1186.957
 20
-3140.640
 30
2787.733
 70
    32
  0
VERTEX
  8
T24SSILL
 62
8
 10
1191.589
 20
-3151.944
 30
2787.529
 70
    32
  0
VERTEX
  8
T24SSILL
 62
8
 10
1196.440
 20
-3175.507
 30
2787.150
 70
    32
  0
VERTEX
  8
T24SSILL
 62
8
 10
1199.689
 20
-3179.223
 30
2787.067
 70
    32
  0
VERTEX
  8
T24SSILL
 62
8
 10
1216.309
 20
-3167.909
 30
2787.072
 70
    32
  0
VERTEX
  8
T24SSILL
 62
8
 10
1210.713
 20
-3131.204
 30
2787.644
 70
    32
  0
VERTEX
  8
T24SSILL
 62
8
 10
1200.252
 20
-3098.625
 30
2788.203
 70
    32
  0
VERTEX
  8
T24SSILL
 62
8
 10
1201.442
 20
-3086.725
 30
2788.271
 70
    32
  0
VERTEX
  8
T24SSILL
 62
8
 10
1199.535
 20
-3077.988
 30
2788.229
 70
    32
  0
VERTEX
  8
T24SSILL
 62
8
 10
1196.020
 20
-3074.712
 30
2788.219
 70
    32
  0
VERTEX
  8
T24SSILL
 62
8
 10
1189.452
 20
-3062.254
 30
2788.166
 70
    32
  0
VERTEX
  8
T24SSILL
 62
8
 10
1178.487
 20
-3046.516
 30
2788.104
 70
    32
  0
VERTEX
  8
T24SSILL
 62
8
 10
1175.688
 20
-3040.333
 30
2788.077
 70
    32
  0
VERTEX
  8
T24SSILL
 62
8
 10
1175.527
 20
-3036.364
 30
2788.057
 70
    32
  0
VERTEX
  8
T24SSILL
 62
8
 10
1144.247
 20
-2981.751
 30
2787.831
 70
    32
  0
VERTEX
  8
T24SSILL
 62
8
 10
1149.990
 20
-2975.963
 30
2787.793
 70
    32
  0
VERTEX
  8
T24SSILL
 62
8
 10
1145.126
 20
-2961.916
 30
2787.730
 70
    32
  0
VERTEX
  8
T24SSILL
 62
8
 10
1138.252
 20
-2948.848
 30
2787.675
 70
    32
  0
VERTEX
  8
T24SSILL
 62
8
 10
1124.379
 20
-2935.714
 30
2787.669
 70
    32
  0
VERTEX
  8
T24SSILL
 62
8
 10
1116.476
 20
-2925.637
 30
2787.682
 70
    32
  0
VERTEX
  8
T24SSILL
 62
8
 10
1112.544
 20
-2918.598
 30
2787.689
 70
    32
  0
VERTEX
  8
T24SSILL
 62
8
 10
1099.661
 20
-2906.473
 30
2787.709
 70
    32
  0
VERTEX
  8
T24SSILL
 62
8
 10
1094.661
 20
-2906.425
 30
2787.715
 70
    32
  0
VERTEX
  8
T24SSILL
 62
8
 10
1085.731
 20
-2894.274
 30
2787.730
 70
    32
  0
VERTEX
  8
T24SSILL
 62
8
 10
1011.923
 20
-2947.399
 30
2787.868
 70
    32
  0
VERTEX
  8
T24SSILL
 62
8
 10
1008.287
 20
-2953.029
 30
2787.902
 70
    32
  0
VERTEX
  8
T24SSILL
 62
8
 10
1008.176
 20
-2959.113
 30
2787.933
 70
    32
  0
VERTEX
  8
T24SSILL
 62
8
 10
1009.666
 20
-2961.588
 30
2787.943
 70
    32
  0
VERTEX
  8
T24SSILL
 62
8
 10
1007.590
 20
-2974.543
 30
2788.012
 70
    32
  0
VERTEX
  8
T24SSILL
 62
8
 10
1065.935
 20
-3054.565
 30
2788.323
 70
    32
  0
VERTEX
  8
T24SSILL
 62
8
 10
1071.473
 20
-3059.436
 30
2788.339
 70
    32
  0
VERTEX
  8
T24SSILL
 62
8
 10
1075.083
 20
-3060.948
 30
2788.341
 70
    32
  0
VERTEX
  8
T24SSILL
 62
8
 10
1084.795
 20
-3057.633
 30
2788.309
 70
    32
  0
SEQEND
  8
T24SSILL
  0
POLYLINE
  8
T24SSILL
 62
8
 66
     1
 70
     9
  0
VERTEX
  8
T24SSILL
 62
8
 10
904.896
 20
-2674.577
 30
2787.983
 70
    32
  0
VERTEX
  8
T24SSILL
 62
8
 10
908.944
 20
-2669.616
 30
2787.979
 70
    32
  0
VERTEX
  8
T24SSILL
 62
8
 10
905.080
 20
-2655.578
 30
2787.985
 70
    32
  0
VERTEX
  8
T24SSILL
 62
8
 10
899.148
 20
-2648.520
 30
2787.992
 70
    32
  0
VERTEX
  8
T24SSILL
 62
8
 10
888.313
 20
-2631.414
 30
2788.007
 70
    32
  0
VERTEX
  8
T24SSILL
 62
8
 10
877.333
 20
-2629.308
 30
2788.021
 70
    32
  0
VERTEX
  8
T24SSILL
 62
8
 10
875.362
 20
-2626.289
 30
2788.024
 70
    32
  0
VERTEX
  8
T24SSILL
 62
8
 10
872.411
 20
-2621.260
 30
2788.027
 70
    32
  0
VERTEX
  8
T24SSILL
 62
8
 10
875.517
 20
-2610.289
 30
2788.019
 70
    32
  0
VERTEX
  8
T24SSILL
 62
8
 10
867.527
 20
-2609.212
 30
2788.029
 70
    32
  0
VERTEX
  8
T24SSILL
 62
8
 10
866.634
 20
-2598.203
 30
2788.025
 70
    32
  0
VERTEX
  8
T24SSILL
 62
8
 10
858.731
 20
-2588.126
 30
2788.012
 70
    32
  0
VERTEX
  8
T24SSILL
 62
8
 10
855.750
 20
-2586.097
 30
2788.009
 70
    32
  0
VERTEX
  8
T24SSILL
 62
8
 10
841.032
 20
-2556.953
 30
2787.916
 70
    32
  0
VERTEX
  8
T24SSILL
 62
8
 10
823.091
 20
-2550.779
 30
2787.921
 70
    32
  0
VERTEX
  8
T24SSILL
 62
8
 10
811.188
 20
-2540.664
 30
2787.901
 70
    32
  0
VERTEX
  8
T24SSILL
 62
8
 10
803.295
 20
-2529.587
 30
2787.869
 70
    32
  0
VERTEX
  8
T24SSILL
 62
8
 10
797.334
 20
-2525.529
 30
2787.863
 70
    32
  0
VERTEX
  8
T24SSILL
 62
8
 10
746.997
 20
-2560.043
 30
2788.089
 70
    32
  0
VERTEX
  8
T24SSILL
 62
8
 10
741.920
 20
-2567.994
 30
2788.130
 70
    32
  0
VERTEX
  8
T24SSILL
 62
8
 10
738.843
 20
-2575.965
 30
2788.168
 70
    32
  0
VERTEX
  8
T24SSILL
 62
8
 10
738.756
 20
-2584.965
 30
2788.184
 70
    32
  0
VERTEX
  8
T24SSILL
 62
8
 10
745.792
 20
-2600.850
 30
2788.181
 70
    32
  0
VERTEX
  8
T24SSILL
 62
8
 10
841.996
 20
-2738.368
 30
2788.056
 70
    32
  0
VERTEX
  8
T24SSILL
 62
8
 10
845.434
 20
-2722.004
 30
2788.053
 70
    32
  0
VERTEX
  8
T24SSILL
 62
8
 10
852.541
 20
-2711.072
 30
2788.045
 70
    32
  0
VERTEX
  8
T24SSILL
 62
8
 10
867.637
 20
-2701.217
 30
2788.027
 70
    32
  0
SEQEND
  8
T24SSILL
  0
POLYLINE
  8
T24SSILL
 62
8
 66
     1
 70
     9
  0
VERTEX
  8
T24SSILL
 62
8
 10
756.752
 20
-2482.134
 30
2787.885
 70
    32
  0
VERTEX
  8
T24SSILL
 62
8
 10
749.820
 20
-2475.066
 30
2787.899
 70
    32
  0
VERTEX
  8
T24SSILL
 62
8
 10
747.956
 20
-2461.048
 30
2787.918
 70
    32
  0
VERTEX
  8
T24SSILL
 62
8
 10
739.082
 20
-2447.961
 30
2787.940
 70
    32
  0
VERTEX
  8
T24SSILL
 62
8
 10
734.227
 20
-2432.914
 30
2787.963
 70
    32
  0
VERTEX
  8
T24SSILL
 62
8
 10
730.382
 20
-2416.876
 30
2787.985
 70
    32
  0
VERTEX
  8
T24SSILL
 62
8
 10
705.684
 20
-2385.635
 30
2788.042
 70
    32
  0
VERTEX
  8
T24SSILL
 62
8
 10
702.955
 20
-2357.607
 30
2788.053
 70
    32
  0
VERTEX
  8
T24SSILL
 62
8
 10
637.484
 20
-2405.976
 30
2788.066
 70
    32
  0
VERTEX
  8
T24SSILL
 62
8
 10
631.416
 20
-2412.917
 30
2788.062
 70
    32
  0
VERTEX
  8
T24SSILL
 62
8
 10
628.339
 20
-2420.888
 30
2788.054
 70
    32
  0
VERTEX
  8
T24SSILL
 62
8
 10
628.252
 20
-2429.888
 30
2788.043
 70
    32
  0
VERTEX
  8
T24SSILL
 62
8
 10
629.589
 20
-2434.745
 30
2788.036
 70
    32
  0
VERTEX
  8
T24SSILL
 62
8
 10
730.725
 20
-2579.313
 30
2788.192
 70
    32
  0
VERTEX
  8
T24SSILL
 62
8
 10
732.911
 20
-2568.907
 30
2788.149
 70
    32
  0
VERTEX
  8
T24SSILL
 62
8
 10
740.017
 20
-2557.975
 30
2788.093
 70
    32
  0
VERTEX
  8
T24SSILL
 62
8
 10
790.373
 20
-2521.461
 30
2787.859
 70
    32
  0
VERTEX
  8
T24SSILL
 62
8
 10
783.538
 20
-2504.394
 30
2787.838
 70
    32
  0
VERTEX
  8
T24SSILL
 62
8
 10
779.557
 20
-2502.356
 30
2787.843
 70
    32
  0
VERTEX
  8
T24SSILL
 62
8
 10
771.616
 20
-2496.278
 30
2787.857
 70
    32
  0
VERTEX
  8
T24SSILL
 62
8
 10
766.684
 20
-2489.230
 30
2787.869
 70
    32
  0
VERTEX
  8
T24SSILL
 62
8
 10
761.723
 20
-2485.182
 30
2787.878
 70
    32
  0
SEQEND
  8
T24SSILL
  0
POLYLINE
  8
T24SSILL
 62
8
 66
     1
 70
     9
  0
VERTEX
  8
T24SSILL
 62
8
 10
-336.701
 20
-2628.969
 30
2789.320
 70
    32
  0
VERTEX
  8
T24SSILL
 62
8
 10
-293.770
 20
-2598.138
 30
2789.307
 70
    32
  0
VERTEX
  8
T24SSILL
 62
8
 10
-308.426
 20
-2586.191
 30
2789.292
 70
    32
  0
VERTEX
  8
T24SSILL
 62
8
 10
-315.999
 20
-2575.188
 30
2789.280
 70
    32
  0
VERTEX
  8
T24SSILL
 62
8
 10
-309.783
 20
-2563.569
 30
2789.271
 70
    32
  0
VERTEX
  8
T24SSILL
 62
8
 10
-326.031
 20
-2527.036
 30
2789.233
 70
    32
  0
VERTEX
  8
T24SSILL
 62
8
 10
-316.841
 20
-2523.943
 30
2789.232
 70
    32
  0
VERTEX
  8
T24SSILL
 62
8
 10
-312.598
 20
-2524.112
 30
2789.234
 70
    32
  0
VERTEX
  8
T24SSILL
 62
8
 10
-308.782
 20
-2526.044
 30
2789.236
 70
    32
  0
VERTEX
  8
T24SSILL
 62
8
 10
-293.618
 20
-2544.224
 30
2789.257
 70
    32
  0
VERTEX
  8
T24SSILL
 62
8
 10
-281.484
 20
-2555.398
 30
2789.271
 70
    32
  0
VERTEX
  8
T24SSILL
 62
8
 10
-271.965
 20
-2560.033
 30
2789.277
 70
    32
  0
VERTEX
  8
T24SSILL
 62
8
 10
-258.129
 20
-2554.830
 30
2789.276
 70
    32
  0
VERTEX
  8
T24SSILL
 62
8
 10
-244.284
 20
-2552.693
 30
2789.278
 70
    32
  0
VERTEX
  8
T24SSILL
 62
8
 10
-239.239
 20
-2549.579
 30
2789.276
 70
    32
  0
VERTEX
  8
T24SSILL
 62
8
 10
-235.587
 20
-2550.137
 30
2789.277
 70
    32
  0
VERTEX
  8
T24SSILL
 62
8
 10
-231.168
 20
-2554.109
 30
2789.282
 70
    32
  0
VERTEX
  8
T24SSILL
 62
8
 10
-191.802
 20
-2525.930
 30
2789.266
 70
    32
  0
VERTEX
  8
T24SSILL
 62
8
 10
-198.145
 20
-2519.201
 30
2789.258
 70
    32
  0
VERTEX
  8
T24SSILL
 62
8
 10
-199.840
 20
-2514.704
 30
2789.254
 70
    32
  0
VERTEX
  8
T24SSILL
 62
8
 10
-202.506
 20
-2494.110
 30
2789.234
 70
    32
  0
VERTEX
  8
T24SSILL
 62
8
 10
-188.526
 20
-2465.507
 30
2789.211
 70
    32
  0
VERTEX
  8
T24SSILL
 62
8
 10
-176.880
 20
-2447.341
 30
2789.178
 70
    32
  0
VERTEX
  8
T24SSILL
 62
8
 10
-177.546
 20
-2419.179
 30
2789.085
 70
    32
  0
VERTEX
  8
T24SSILL
 62
8
 10
-176.028
 20
-2414.894
 30
2789.070
 70
    32
  0
VERTEX
  8
T24SSILL
 62
8
 10
-171.856
 20
-2409.813
 30
2789.051
 70
    32
  0
VERTEX
  8
T24SSILL
 62
8
 10
-226.368
 20
-2334.525
 30
2788.838
 70
    32
  0
VERTEX
  8
T24SSILL
 62
8
 10
-236.243
 20
-2332.561
 30
2788.838
 70
    32
  0
VERTEX
  8
T24SSILL
 62
8
 10
-332.430
 20
-2401.488
 30
2789.114
 70
    32
  0
VERTEX
  8
T24SSILL
 62
8
 10
-332.717
 20
-2409.728
 30
2789.121
 70
    32
  0
VERTEX
  8
T24SSILL
 62
8
 10
-320.638
 20
-2426.764
 30
2789.141
 70
    32
  0
VERTEX
  8
T24SSILL
 62
8
 10
-304.900
 20
-2433.442
 30
2789.151
 70
    32
  0
VERTEX
  8
T24SSILL
 62
8
 10
-301.414
 20
-2447.246
 30
2789.165
 70
    32
  0
VERTEX
  8
T24SSILL
 62
8
 10
-294.542
 20
-2461.041
 30
2789.180
 70
    32
  0
VERTEX
  8
T24SSILL
 62
8
 10
-284.331
 20
-2474.118
 30
2789.194
 70
    32
  0
VERTEX
  8
T24SSILL
 62
8
 10
-276.372
 20
-2481.371
 30
2789.203
 70
    32
  0
VERTEX
  8
T24SSILL
 62
8
 10
-278.617
 20
-2483.910
 30
2789.205
 70
    32
  0
VERTEX
  8
T24SSILL
 62
8
 10
-273.522
 20
-2499.831
 30
2789.221
 70
    32
  0
VERTEX
  8
T24SSILL
 62
8
 10
-268.637
 20
-2508.686
 30
2789.230
 70
    32
  0
VERTEX
  8
T24SSILL
 62
8
 10
-268.311
 20
-2512.073
 30
2789.234
 70
    32
  0
VERTEX
  8
T24SSILL
 62
8
 10
-269.348
 20
-2513.392
 30
2789.235
 70
    32
  0
VERTEX
  8
T24SSILL
 62
8
 10
-273.690
 20
-2513.395
 30
2789.234
 70
    32
  0
VERTEX
  8
T24SSILL
 62
8
 10
-278.160
 20
-2509.668
 30
2789.229
 70
    32
  0
VERTEX
  8
T24SSILL
 62
8
 10
-282.367
 20
-2512.124
 30
2789.230
 70
    32
  0
VERTEX
  8
T24SSILL
 62
8
 10
-286.922
 20
-2510.678
 30
2789.228
 70
    32
  0
VERTEX
  8
T24SSILL
 62
8
 10
-291.980
 20
-2507.022
 30
2789.223
 70
    32
  0
VERTEX
  8
T24SSILL
 62
8
 10
-297.727
 20
-2498.628
 30
2789.214
 70
    32
  0
VERTEX
  8
T24SSILL
 62
8
 10
-297.476
 20
-2492.742
 30
2789.208
 70
    32
  0
VERTEX
  8
T24SSILL
 62
8
 10
-299.425
 20
-2490.108
 30
2789.205
 70
    32
  0
VERTEX
  8
T24SSILL
 62
8
 10
-301.271
 20
-2477.025
 30
2789.193
 70
    32
  0
VERTEX
  8
T24SSILL
 62
8
 10
-306.517
 20
-2466.818
 30
2789.182
 70
    32
  0
VERTEX
  8
T24SSILL
 62
8
 10
-310.768
 20
-2468.244
 30
2789.182
 70
    32
  0
VERTEX
  8
T24SSILL
 62
8
 10
-314.504
 20
-2464.987
 30
2789.178
 70
    32
  0
VERTEX
  8
T24SSILL
 62
8
 10
-322.614
 20
-2453.490
 30
2789.165
 70
    32
  0
VERTEX
  8
T24SSILL
 62
8
 10
-319.093
 20
-2441.317
 30
2789.155
 70
    32
  0
VERTEX
  8
T24SSILL
 62
8
 10
-342.473
 20
-2408.427
 30
2789.117
 70
    32
  0
VERTEX
  8
T24SSILL
 62
8
 10
-359.163
 20
-2420.067
 30
2789.122
 70
    32
  0
VERTEX
  8
T24SSILL
 62
8
 10
-371.711
 20
-2581.306
 30
2789.251
 70
    32
  0
SEQEND
  8
T24SSILL
  0
POLYLINE
  8
T24SSILL
 62
8
 66
     1
 70
     9
  0
VERTEX
  8
T24SSILL
 62
8
 10
-217.782
 20
-2202.330
 30
2788.721
 70
    32
  0
VERTEX
  8
T24SSILL
 62
8
 10
-257.429
 20
-2230.216
 30
2788.770
 70
    32
  0
VERTEX
  8
T24SSILL
 62
8
 10
-261.990
 20
-2234.706
 30
2788.776
 70
    32
  0
VERTEX
  8
T24SSILL
 62
8
 10
-267.009
 20
-2242.358
 30
2788.783
 70
    32
  0
VERTEX
  8
T24SSILL
 62
8
 10
-268.598
 20
-2251.033
 30
2788.768
 70
    32
  0
VERTEX
  8
T24SSILL
 62
8
 10
-268.069
 20
-2257.782
 30
2788.761
 70
    32
  0
VERTEX
  8
T24SSILL
 62
8
 10
-266.006
 20
-2267.015
 30
2788.769
 70
    32
  0
VERTEX
  8
T24SSILL
 62
8
 10
-176.705
 20
-2390.984
 30
2788.988
 70
    32
  0
VERTEX
  8
T24SSILL
 62
8
 10
-171.741
 20
-2387.173
 30
2788.964
 70
    32
  0
VERTEX
  8
T24SSILL
 62
8
 10
-168.776
 20
-2391.356
 30
2788.975
 70
    32
  0
VERTEX
  8
T24SSILL
 62
8
 10
-169.553
 20
-2381.494
 30
2788.937
 70
    32
  0
VERTEX
  8
T24SSILL
 62
8
 10
-176.996
 20
-2364.261
 30
2788.880
 70
    32
  0
VERTEX
  8
T24SSILL
 62
8
 10
-183.105
 20
-2354.835
 30
2788.852
 70
    32
  0
VERTEX
  8
T24SSILL
 62
8
 10
-181.576
 20
-2334.018
 30
2788.765
 70
    32
  0
VERTEX
  8
T24SSILL
 62
8
 10
-188.579
 20
-2322.110
 30
2788.766
 70
    32
  0
VERTEX
  8
T24SSILL
 62
8
 10
-209.535
 20
-2294.825
 30
2788.767
 70
    32
  0
VERTEX
  8
T24SSILL
 62
8
 10
-222.015
 20
-2260.151
 30
2788.758
 70
    32
  0
VERTEX
  8
T24SSILL
 62
8
 10
-220.233
 20
-2257.069
 30
2788.754
 70
    32
  0
VERTEX
  8
T24SSILL
 62
8
 10
-223.121
 20
-2250.922
 30
2788.753
 70
    32
  0
VERTEX
  8
T24SSILL
 62
8
 10
-219.495
 20
-2246.942
 30
2788.748
 70
    32
  0
VERTEX
  8
T24SSILL
 62
8
 10
-206.903
 20
-2216.394
 30
2788.720
 70
    32
  0
VERTEX
  8
T24SSILL
 62
8
 10
-214.585
 20
-2202.815
 30
2788.719
 70
    32
  0
SEQEND
  8
T24SSILL
  0
POLYLINE
  8
T24SSILL
 62
8
 66
     1
 70
     9
  0
VERTEX
  8
T24SSILL
 62
8
 10
-275.991
 20
-2594.255
 30
2789.308
 70
    32
  0
VERTEX
  8
T24SSILL
 62
8
 10
-244.089
 20
-2615.488
 30
2789.537
 70
    32
  0
VERTEX
  8
T24SSILL
 62
8
 10
-235.145
 20
-2626.965
 30
2789.672
 70
    32
  0
VERTEX
  8
T24SSILL
 62
8
 10
-243.491
 20
-2637.764
 30
2789.704
 70
    32
  0
VERTEX
  8
T24SSILL
 62
8
 10
-236.084
 20
-2647.392
 30
2789.817
 70
    32
  0
VERTEX
  8
T24SSILL
 62
8
 10
-223.931
 20
-2659.719
 30
2789.977
 70
    32
  0
VERTEX
  8
T24SSILL
 62
8
 10
-241.304
 20
-2670.644
 30
2789.959
 70
    32
  0
VERTEX
  8
T24SSILL
 62
8
 10
-245.001
 20
-2674.035
 30
2789.963
 70
    32
  0
VERTEX
  8
T24SSILL
 62
8
 10
-244.149
 20
-2680.147
 30
2790.012
 70
    32
  0
VERTEX
  8
T24SSILL
 62
8
 10
-259.069
 20
-2690.937
 30
2790.007
 70
    32
  0
VERTEX
  8
T24SSILL
 62
8
 10
-266.242
 20
-2697.891
 30
2790.017
 70
    32
  0
VERTEX
  8
T24SSILL
 62
8
 10
-272.388
 20
-2710.100
 30
2789.991
 70
    32
  0
VERTEX
  8
T24SSILL
 62
8
 10
-273.457
 20
-2717.796
 30
2789.965
 70
    32
  0
VERTEX
  8
T24SSILL
 62
8
 10
-321.951
 20
-2650.511
 30
2789.351
 70
    32
  0
VERTEX
  8
T24SSILL
 62
8
 10
-325.084
 20
-2630.013
 30
2789.329
 70
    32
  0
VERTEX
  8
T24SSILL
 62
8
 10
-291.478
 20
-2605.631
 30
2789.315
 70
    32
  0
VERTEX
  8
T24SSILL
 62
8
 10
-287.609
 20
-2611.661
 30
2789.321
 70
    32
  0
VERTEX
  8
T24SSILL
 62
8
 10
-296.057
 20
-2618.608
 30
2789.326
 70
    32
  0
VERTEX
  8
T24SSILL
 62
8
 10
-281.085
 20
-2640.834
 30
2789.513
 70
    32
  0
VERTEX
  8
T24SSILL
 62
8
 10
-274.224
 20
-2632.603
 30
2789.491
 70
    32
  0
VERTEX
  8
T24SSILL
 62
8
 10
-279.088
 20
-2624.263
 30
2789.402
 70
    32
  0
VERTEX
  8
T24SSILL
 62
8
 10
-279.186
 20
-2605.154
 30
2789.317
 70
    32
  0
VERTEX
  8
T24SSILL
 62
8
 10
-280.644
 20
-2597.641
 30
2789.310
 70
    32
  0
SEQEND
  8
T24SSILL
  0
POLYLINE
  8
T24SSILL
 62
8
 66
     1
 70
     9
  0
VERTEX
  8
T24SSILL
 62
8
 10
-156.244
 20
-2853.151
 30
2789.525
 70
    32
  0
VERTEX
  8
T24SSILL
 62
8
 10
-147.242
 20
-2844.961
 30
2789.517
 70
    32
  0
VERTEX
  8
T24SSILL
 62
8
 10
-27.965
 20
-2759.963
 30
2789.034
 70
    32
  0
VERTEX
  8
T24SSILL
 62
8
 10
-29.192
 20
-2755.370
 30
2789.038
 70
    32
  0
VERTEX
  8
T24SSILL
 62
8
 10
-27.401
 20
-2750.375
 30
2789.027
 70
    32
  0
VERTEX
  8
T24SSILL
 62
8
 10
-11.426
 20
-2739.419
 30
2788.991
 70
    32
  0
VERTEX
  8
T24SSILL
 62
8
 10
-6.105
 20
-2739.936
 30
2788.988
 70
    32
  0
VERTEX
  8
T24SSILL
 62
8
 10
-3.492
 20
-2742.133
 30
2788.985
 70
    32
  0
VERTEX
  8
T24SSILL
 62
8
 10
43.799
 20
-2708.622
 30
2788.996
 70
    32
  0
VERTEX
  8
T24SSILL
 62
8
 10
-8.352
 20
-2637.075
 30
2789.085
 70
    32
  0
VERTEX
  8
T24SSILL
 62
8
 10
-61.926
 20
-2675.999
 30
2789.182
 70
    32
  0
VERTEX
  8
T24SSILL
 62
8
 10
-58.398
 20
-2681.511
 30
2789.166
 70
    32
  0
VERTEX
  8
T24SSILL
 62
8
 10
-56.490
 20
-2687.457
 30
2789.158
 70
    32
  0
VERTEX
  8
T24SSILL
 62
8
 10
-49.749
 20
-2693.182
 30
2789.124
 70
    32
  0
VERTEX
  8
T24SSILL
 62
8
 10
-48.467
 20
-2696.574
 30
2789.119
 70
    32
  0
VERTEX
  8
T24SSILL
 62
8
 10
-59.644
 20
-2704.685
 30
2789.181
 70
    32
  0
VERTEX
  8
T24SSILL
 62
8
 10
-61.709
 20
-2700.750
 30
2789.190
 70
    32
  0
VERTEX
  8
T24SSILL
 62
8
 10
-66.056
 20
-2697.048
 30
2789.212
 70
    32
  0
VERTEX
  8
T24SSILL
 62
8
 10
-66.062
 20
-2693.344
 30
2789.211
 70
    32
  0
VERTEX
  8
T24SSILL
 62
8
 10
-76.527
 20
-2686.791
 30
2789.264
 70
    32
  0
VERTEX
  8
T24SSILL
 62
8
 10
-136.843
 20
-2729.948
 30
2789.599
 70
    32
  0
VERTEX
  8
T24SSILL
 62
8
 10
-133.467
 20
-2741.175
 30
2789.585
 70
    32
  0
VERTEX
  8
T24SSILL
 62
8
 10
-134.040
 20
-2743.037
 30
2789.589
 70
    32
  0
VERTEX
  8
T24SSILL
 62
8
 10
-108.843
 20
-2741.890
 30
2789.455
 70
    32
  0
VERTEX
  8
T24SSILL
 62
8
 10
-100.265
 20
-2743.332
 30
2789.410
 70
    32
  0
VERTEX
  8
T24SSILL
 62
8
 10
-78.490
 20
-2730.246
 30
2789.290
 70
    32
  0
VERTEX
  8
T24SSILL
 62
8
 10
-69.751
 20
-2743.340
 30
2789.249
 70
    32
  0
VERTEX
  8
T24SSILL
 62
8
 10
-79.696
 20
-2755.088
 30
2789.306
 70
    32
  0
VERTEX
  8
T24SSILL
 62
8
 10
-91.938
 20
-2760.299
 30
2789.373
 70
    32
  0
VERTEX
  8
T24SSILL
 62
8
 10
-98.166
 20
-2759.850
 30
2789.405
 70
    32
  0
VERTEX
  8
T24SSILL
 62
8
 10
-97.759
 20
-2766.573
 30
2789.406
 70
    32
  0
VERTEX
  8
T24SSILL
 62
8
 10
-100.671
 20
-2774.849
 30
2789.424
 70
    32
  0
VERTEX
  8
T24SSILL
 62
8
 10
-107.013
 20
-2777.442
 30
2789.459
 70
    32
  0
VERTEX
  8
T24SSILL
 62
8
 10
-117.845
 20
-2775.473
 30
2789.515
 70
    32
  0
VERTEX
  8
T24SSILL
 62
8
 10
-124.539
 20
-2779.781
 30
2789.552
 70
    32
  0
VERTEX
  8
T24SSILL
 62
8
 10
-126.981
 20
-2777.683
 30
2789.565
 70
    32
  0
VERTEX
  8
T24SSILL
 62
8
 10
-138.103
 20
-2789.253
 30
2789.614
 70
    32
  0
VERTEX
  8
T24SSILL
 62
8
 10
-141.426
 20
-2786.783
 30
2789.629
 70
    32
  0
VERTEX
  8
T24SSILL
 62
8
 10
-141.675
 20
-2782.710
 30
2789.638
 70
    32
  0
VERTEX
  8
T24SSILL
 62
8
 10
-130.165
 20
-2772.050
 30
2789.579
 70
    32
  0
VERTEX
  8
T24SSILL
 62
8
 10
-120.036
 20
-2757.850
 30
2789.520
 70
    32
  0
VERTEX
  8
T24SSILL
 62
8
 10
-127.047
 20
-2752.197
 30
2789.555
 70
    32
  0
VERTEX
  8
T24SSILL
 62
8
 10
-135.086
 20
-2750.930
 30
2789.598
 70
    32
  0
VERTEX
  8
T24SSILL
 62
8
 10
-141.907
 20
-2746.529
 30
2789.632
 70
    32
  0
VERTEX
  8
T24SSILL
 62
8
 10
-146.015
 20
-2748.814
 30
2789.655
 70
    32
  0
VERTEX
  8
T24SSILL
 62
8
 10
-151.937
 20
-2745.938
 30
2789.685
 70
    32
  0
VERTEX
  8
T24SSILL
 62
8
 10
-166.582
 20
-2751.039
 30
2789.764
 70
    32
  0
VERTEX
  8
T24SSILL
 62
8
 10
-173.304
 20
-2756.107
 30
2789.784
 70
    32
  0
VERTEX
  8
T24SSILL
 62
8
 10
-178.325
 20
-2749.777
 30
2789.812
 70
    32
  0
VERTEX
  8
T24SSILL
 62
8
 10
-90.218
 20
-2687.555
 30
2789.336
 70
    32
  0
VERTEX
  8
T24SSILL
 62
8
 10
-93.233
 20
-2682.339
 30
2789.350
 70
    32
  0
VERTEX
  8
T24SSILL
 62
8
 10
-83.363
 20
-2670.959
 30
2789.294
 70
    32
  0
VERTEX
  8
T24SSILL
 62
8
 10
-88.301
 20
-2658.007
 30
2789.315
 70
    32
  0
VERTEX
  8
T24SSILL
 62
8
 10
-84.158
 20
-2653.687
 30
2789.292
 70
    32
  0
VERTEX
  8
T24SSILL
 62
8
 10
-79.375
 20
-2653.711
 30
2789.266
 70
    32
  0
VERTEX
  8
T24SSILL
 62
8
 10
-75.953
 20
-2656.010
 30
2789.249
 70
    32
  0
VERTEX
  8
T24SSILL
 62
8
 10
-69.522
 20
-2664.799
 30
2789.218
 70
    32
  0
VERTEX
  8
T24SSILL
 62
8
 10
-64.811
 20
-2669.214
 30
2789.195
 70
    32
  0
VERTEX
  8
T24SSILL
 62
8
 10
-12.051
 20
-2631.144
 30
2789.092
 70
    32
  0
VERTEX
  8
T24SSILL
 62
8
 10
-31.219
 20
-2604.482
 30
2789.125
 70
    32
  0
VERTEX
  8
T24SSILL
 62
8
 10
-34.166
 20
-2605.153
 30
2789.126
 70
    32
  0
VERTEX
  8
T24SSILL
 62
8
 10
-39.346
 20
-2610.793
 30
2789.123
 70
    32
  0
VERTEX
  8
T24SSILL
 62
8
 10
-42.393
 20
-2611.955
 30
2789.123
 70
    32
  0
VERTEX
  8
T24SSILL
 62
8
 10
-47.298
 20
-2616.566
 30
2789.121
 70
    32
  0
VERTEX
  8
T24SSILL
 62
8
 10
-66.660
 20
-2627.849
 30
2789.189
 70
    32
  0
VERTEX
  8
T24SSILL
 62
8
 10
-60.765
 20
-2635.826
 30
2789.161
 70
    32
  0
VERTEX
  8
T24SSILL
 62
8
 10
-58.521
 20
-2643.245
 30
2789.152
 70
    32
  0
VERTEX
  8
T24SSILL
 62
8
 10
-68.981
 20
-2650.036
 30
2789.210
 70
    32
  0
VERTEX
  8
T24SSILL
 62
8
 10
-70.857
 20
-2647.671
 30
2789.219
 70
    32
  0
VERTEX
  8
T24SSILL
 62
8
 10
-76.172
 20
-2631.578
 30
2789.241
 70
    32
  0
VERTEX
  8
T24SSILL
 62
8
 10
-87.685
 20
-2618.935
 30
2789.297
 70
    32
  0
VERTEX
  8
T24SSILL
 62
8
 10
-94.516
 20
-2616.448
 30
2789.333
 70
    32
  0
VERTEX
  8
T24SSILL
 62
8
 10
-97.633
 20
-2621.681
 30
2789.351
 70
    32
  0
VERTEX
  8
T24SSILL
 62
8
 10
-99.424
 20
-2621.696
 30
2789.361
 70
    32
  0
VERTEX
  8
T24SSILL
 62
8
 10
-103.357
 20
-2618.463
 30
2789.380
 70
    32
  0
VERTEX
  8
T24SSILL
 62
8
 10
-108.919
 20
-2617.257
 30
2789.409
 70
    32
  0
VERTEX
  8
T24SSILL
 62
8
 10
-118.824
 20
-2606.733
 30
2789.458
 70
    32
  0
VERTEX
  8
T24SSILL
 62
8
 10
-124.940
 20
-2603.562
 30
2789.489
 70
    32
  0
VERTEX
  8
T24SSILL
 62
8
 10
-191.805
 20
-2651.568
 30
2789.861
 70
    32
  0
VERTEX
  8
T24SSILL
 62
8
 10
-188.545
 20
-2656.833
 30
2789.846
 70
    32
  0
VERTEX
  8
T24SSILL
 62
8
 10
-185.264
 20
-2667.594
 30
2789.832
 70
    32
  0
VERTEX
  8
T24SSILL
 62
8
 10
-177.924
 20
-2675.996
 30
2789.797
 70
    32
  0
VERTEX
  8
T24SSILL
 62
8
 10
-168.303
 20
-2684.483
 30
2789.749
 70
    32
  0
VERTEX
  8
T24SSILL
 62
8
 10
-184.746
 20
-2705.494
 30
2789.844
 70
    32
  0
VERTEX
  8
T24SSILL
 62
8
 10
-191.190
 20
-2703.916
 30
2789.877
 70
    32
  0
VERTEX
  8
T24SSILL
 62
8
 10
-195.524
 20
-2697.663
 30
2789.898
 70
    32
  0
VERTEX
  8
T24SSILL
 62
8
 10
-198.708
 20
-2701.670
 30
2789.916
 70
    32
  0
VERTEX
  8
T24SSILL
 62
8
 10
-207.091
 20
-2705.184
 30
2789.962
 70
    32
  0
VERTEX
  8
T24SSILL
 62
8
 10
-215.381
 20
-2695.501
 30
2790.002
 70
    32
  0
VERTEX
  8
T24SSILL
 62
8
 10
-220.824
 20
-2685.319
 30
2790.027
 70
    32
  0
VERTEX
  8
T24SSILL
 62
8
 10
-223.788
 20
-2684.519
 30
2790.043
 70
    32
  0
VERTEX
  8
T24SSILL
 62
8
 10
-231.356
 20
-2687.178
 30
2790.084
 70
    32
  0
VERTEX
  8
T24SSILL
 62
8
 10
-237.043
 20
-2691.245
 30
2790.097
 70
    32
  0
VERTEX
  8
T24SSILL
 62
8
 10
-240.283
 20
-2686.814
 30
2790.083
 70
    32
  0
VERTEX
  8
T24SSILL
 62
8
 10
-257.663
 20
-2699.014
 30
2790.046
 70
    32
  0
VERTEX
  8
T24SSILL
 62
8
 10
-264.559
 20
-2709.281
 30
2790.004
 70
    32
  0
VERTEX
  8
T24SSILL
 62
8
 10
-266.193
 20
-2721.905
 30
2789.961
 70
    32
  0
VERTEX
  8
T24SSILL
 62
8
 10
-264.905
 20
-2729.001
 30
2789.940
 70
    32
  0
VERTEX
  8
T24SSILL
 62
8
 10
-262.521
 20
-2732.937
 30
2789.931
 70
    32
  0
VERTEX
  8
T24SSILL
 62
8
 10
-161.951
 20
-2872.138
 30
2789.499
 70
    32
  0
VERTEX
  8
T24SSILL
 62
8
 10
-160.650
 20
-2862.382
 30
2789.517
 70
    32
  0
VERTEX
  8
T24SSILL
 62
8
 10
-158.615
 20
-2857.756
 30
2789.521
 70
    32
  0
SEQEND
  8
T24SSILL
  0
POLYLINE
  8
T24SSILL
 62
8
 66
     1
 70
     9
  0
VERTEX
  8
T24SSILL
 62
8
 10
-66.478
 20
-2904.635
 30
2789.162
 70
    32
  0
VERTEX
  8
T24SSILL
 62
8
 10
99.522
 20
-2787.032
 30
2788.898
 70
    32
  0
VERTEX
  8
T24SSILL
 62
8
 10
50.346
 20
-2718.713
 30
2788.983
 70
    32
  0
VERTEX
  8
T24SSILL
 62
8
 10
40.609
 20
-2718.565
 30
2788.988
 70
    32
  0
VERTEX
  8
T24SSILL
 62
8
 10
-4.152
 20
-2751.254
 30
2788.977
 70
    32
  0
VERTEX
  8
T24SSILL
 62
8
 10
-3.732
 20
-2755.426
 30
2788.973
 70
    32
  0
VERTEX
  8
T24SSILL
 62
8
 10
-7.483
 20
-2760.019
 30
2788.970
 70
    32
  0
VERTEX
  8
T24SSILL
 62
8
 10
-12.395
 20
-2761.245
 30
2788.971
 70
    32
  0
VERTEX
  8
T24SSILL
 62
8
 10
-16.484
 20
-2759.703
 30
2788.974
 70
    32
  0
VERTEX
  8
T24SSILL
 62
8
 10
-146.354
 20
-2853.698
 30
2789.496
 70
    32
  0
VERTEX
  8
T24SSILL
 62
8
 10
-149.339
 20
-2857.043
 30
2789.497
 70
    32
  0
VERTEX
  8
T24SSILL
 62
8
 10
-154.931
 20
-2871.217
 30
2789.481
 70
    32
  0
VERTEX
  8
T24SSILL
 62
8
 10
-155.355
 20
-2882.302
 30
2789.458
 70
    32
  0
VERTEX
  8
T24SSILL
 62
8
 10
-95.742
 20
-2962.595
 30
2789.117
 70
    32
  0
VERTEX
  8
T24SSILL
 62
8
 10
-4.622
 20
-2978.047
 30
2788.830
 70
    32
  0
VERTEX
  8
T24SSILL
 62
8
 10
155.106
 20
-2863.625
 30
2788.803
 70
    32
  0
VERTEX
  8
T24SSILL
 62
8
 10
103.908
 20
-2792.720
 30
2788.891
 70
    32
  0
VERTEX
  8
T24SSILL
 62
8
 10
-62.957
 20
-2911.742
 30
2789.137
 70
    32
  0
SEQEND
  8
T24SSILL
  0
POLYLINE
  8
T24SSILL
 62
8
 66
     1
 70
     9
  0
VERTEX
  8
T24SSILL
 62
8
 10
-187.980
 20
-2531.566
 30
2789.272
 70
    32
  0
VERTEX
  8
T24SSILL
 62
8
 10
-183.181
 20
-2538.042
 30
2789.314
 70
    32
  0
VERTEX
  8
T24SSILL
 62
8
 10
-172.193
 20
-2547.959
 30
2789.450
 70
    32
  0
VERTEX
  8
T24SSILL
 62
8
 10
-165.083
 20
-2558.101
 30
2789.565
 70
    32
  0
VERTEX
  8
T24SSILL
 62
8
 10
-149.081
 20
-2575.623
 30
2789.557
 70
    32
  0
VERTEX
  8
T24SSILL
 62
8
 10
-130.997
 20
-2598.552
 30
2789.519
 70
    32
  0
VERTEX
  8
T24SSILL
 62
8
 10
-159.679
 20
-2619.157
 30
2789.679
 70
    32
  0
VERTEX
  8
T24SSILL
 62
8
 10
-199.843
 20
-2587.481
 30
2789.583
 70
    32
  0
VERTEX
  8
T24SSILL
 62
8
 10
-207.346
 20
-2577.386
 30
2789.466
 70
    32
  0
VERTEX
  8
T24SSILL
 62
8
 10
-210.086
 20
-2571.142
 30
2789.404
 70
    32
  0
VERTEX
  8
T24SSILL
 62
8
 10
-214.551
 20
-2566.458
 30
2789.345
 70
    32
  0
VERTEX
  8
T24SSILL
 62
8
 10
-221.464
 20
-2555.974
 30
2789.286
 70
    32
  0
SEQEND
  8
T24SSILL
  0
POLYLINE
  8
T24SSILL
 62
8
 66
     1
 70
     9
  0
VERTEX
  8
T24SSILL
 62
8
 10
-123.064
 20
-2476.266
 30
2789.237
 70
    32
  0
VERTEX
  8
T24SSILL
 62
8
 10
-156.091
 20
-2430.351
 30
2789.108
 70
    32
  0
VERTEX
  8
T24SSILL
 62
8
 10
-159.859
 20
-2438.132
 30
2789.136
 70
    32
  0
VERTEX
  8
T24SSILL
 62
8
 10
-160.048
 20
-2441.540
 30
2789.148
 70
    32
  0
VERTEX
  8
T24SSILL
 62
8
 10
-159.976
 20
-2461.090
 30
2789.212
 70
    32
  0
VERTEX
  8
T24SSILL
 62
8
 10
-157.221
 20
-2478.765
 30
2789.231
 70
    32
  0
VERTEX
  8
T24SSILL
 62
8
 10
-163.447
 20
-2482.658
 30
2789.233
 70
    32
  0
VERTEX
  8
T24SSILL
 62
8
 10
-166.309
 20
-2486.028
 30
2789.235
 70
    32
  0
VERTEX
  8
T24SSILL
 62
8
 10
-171.902
 20
-2500.521
 30
2789.247
 70
    32
  0
VERTEX
  8
T24SSILL
 62
8
 10
-172.138
 20
-2503.537
 30
2789.250
 70
    32
  0
VERTEX
  8
T24SSILL
 62
8
 10
-169.595
 20
-2509.805
 30
2789.257
 70
    32
  0
SEQEND
  8
T24SSILL
  0
POLYLINE
  8
T24SSILL
 62
8
 66
     1
 70
     9
  0
VERTEX
  8
T24SSILL
 62
8
 10
-121.685
 20
-2489.764
 30
2789.277
 70
    32
  0
VERTEX
  8
T24SSILL
 62
8
 10
-126.754
 20
-2488.021
 30
2789.267
 70
    32
  0
VERTEX
  8
T24SSILL
 62
8
 10
-166.475
 20
-2518.553
 30
2789.266
 70
    32
  0
VERTEX
  8
T24SSILL
 62
8
 10
-158.283
 20
-2523.427
 30
2789.348
 70
    32
  0
VERTEX
  8
T24SSILL
 62
8
 10
-144.717
 20
-2537.576
 30
2789.461
 70
    32
  0
VERTEX
  8
T24SSILL
 62
8
 10
-136.916
 20
-2551.818
 30
2789.463
 70
    32
  0
VERTEX
  8
T24SSILL
 62
8
 10
-131.481
 20
-2553.955
 30
2789.448
 70
    32
  0
VERTEX
  8
T24SSILL
 62
8
 10
-116.308
 20
-2541.621
 30
2789.366
 70
    32
  0
VERTEX
  8
T24SSILL
 62
8
 10
-108.788
 20
-2529.248
 30
2789.313
 70
    32
  0
VERTEX
  8
T24SSILL
 62
8
 10
-94.187
 20
-2532.756
 30
2789.267
 70
    32
  0
VERTEX
  8
T24SSILL
 62
8
 10
-91.290
 20
-2532.330
 30
2789.256
 70
    32
  0
VERTEX
  8
T24SSILL
 62
8
 10
-87.790
 20
-2525.785
 30
2789.229
 70
    32
  0
VERTEX
  8
T24SSILL
 62
8
 10
-98.236
 20
-2511.254
 30
2789.237
 70
    32
  0
VERTEX
  8
T24SSILL
 62
8
 10
-102.025
 20
-2511.229
 30
2789.250
 70
    32
  0
VERTEX
  8
T24SSILL
 62
8
 10
-107.903
 20
-2514.363
 30
2789.278
 70
    32
  0
VERTEX
  8
T24SSILL
 62
8
 10
-109.860
 20
-2513.323
 30
2789.283
 70
    32
  0
VERTEX
  8
T24SSILL
 62
8
 10
-121.405
 20
-2521.359
 30
2789.342
 70
    32
  0
VERTEX
  8
T24SSILL
 62
8
 10
-123.713
 20
-2521.715
 30
2789.351
 70
    32
  0
VERTEX
  8
T24SSILL
 62
8
 10
-124.803
 20
-2514.277
 30
2789.340
 70
    32
  0
VERTEX
  8
T24SSILL
 62
8
 10
-120.768
 20
-2507.061
 30
2789.310
 70
    32
  0
VERTEX
  8
T24SSILL
 62
8
 10
-117.024
 20
-2494.424
 30
2789.270
 70
    32
  0
SEQEND
  8
T24SSILL
  0
POLYLINE
  8
T24SSILL
 62
8
 66
     1
 70
     9
  0
VERTEX
  8
T24SSILL
 62
8
 10
1552.348
 20
-3651.781
 30
2786.861
 70
    32
  0
VERTEX
  8
T24SSILL
 62
8
 10
1558.662
 20
-3645.269
 30
2786.855
 70
    32
  0
VERTEX
  8
T24SSILL
 62
8
 10
1553.948
 20
-3640.714
 30
2786.851
 70
    32
  0
VERTEX
  8
T24SSILL
 62
8
 10
1553.688
 20
-3639.128
 30
2786.850
 70
    32
  0
VERTEX
  8
T24SSILL
 62
8
 10
1555.879
 20
-3633.654
 30
2786.845
 70
    32
  0
VERTEX
  8
T24SSILL
 62
8
 10
1554.896
 20
-3625.850
 30
2786.838
 70
    32
  0
VERTEX
  8
T24SSILL
 62
8
 10
1555.808
 20
-3618.857
 30
2786.832
 70
    32
  0
VERTEX
  8
T24SSILL
 62
8
 10
1549.068
 20
-3610.060
 30
2786.825
 70
    32
  0
VERTEX
  8
T24SSILL
 62
8
 10
1553.814
 20
-3601.112
 30
2786.816
 70
    32
  0
VERTEX
  8
T24SSILL
 62
8
 10
1526.309
 20
-3570.374
 30
2786.800
 70
    32
  0
VERTEX
  8
T24SSILL
 62
8
 10
1523.964
 20
-3569.536
 30
2786.800
 70
    32
  0
VERTEX
  8
T24SSILL
 62
8
 10
1518.855
 20
-3578.445
 30
2786.804
 70
    32
  0
VERTEX
  8
T24SSILL
 62
8
 10
1515.134
 20
-3596.796
 30
2786.816
 70
    32
  0
VERTEX
  8
T24SSILL
 62
8
 10
1510.909
 20
-3599.161
 30
2786.819
 70
    32
  0
VERTEX
  8
T24SSILL
 62
8
 10
1505.774
 20
-3597.883
 30
2786.818
 70
    32
  0
VERTEX
  8
T24SSILL
 62
8
 10
1498.435
 20
-3589.236
 30
2786.811
 70
    32
  0
VERTEX
  8
T24SSILL
 62
8
 10
1496.539
 20
-3577.324
 30
2786.801
 70
    32
  0
VERTEX
  8
T24SSILL
 62
8
 10
1503.215
 20
-3489.165
 30
2786.714
 70
    32
  0
VERTEX
  8
T24SSILL
 62
8
 10
1444.901
 20
-3420.169
 30
2786.765
 70
    32
  0
VERTEX
  8
T24SSILL
 62
8
 10
1449.712
 20
-3413.837
 30
2786.777
 70
    32
  0
VERTEX
  8
T24SSILL
 62
8
 10
1444.832
 20
-3406.833
 30
2786.777
 70
    32
  0
VERTEX
  8
T24SSILL
 62
8
 10
1437.937
 20
-3411.930
 30
2786.764
 70
    32
  0
VERTEX
  8
T24SSILL
 62
8
 10
1285.999
 20
-3232.717
 30
2786.916
 70
    32
  0
VERTEX
  8
T24SSILL
 62
8
 10
1281.803
 20
-3222.649
 30
2786.932
 70
    32
  0
VERTEX
  8
T24SSILL
 62
8
 10
1282.019
 20
-3211.979
 30
2786.947
 70
    32
  0
VERTEX
  8
T24SSILL
 62
8
 10
1285.665
 20
-3203.792
 30
2786.958
 70
    32
  0
VERTEX
  8
T24SSILL
 62
8
 10
1291.153
 20
-3198.168
 30
2786.964
 70
    32
  0
VERTEX
  8
T24SSILL
 62
8
 10
1410.330
 20
-3113.118
 30
2787.052
 70
    32
  0
VERTEX
  8
T24SSILL
 62
8
 10
1405.895
 20
-3107.607
 30
2787.062
 70
    32
  0
VERTEX
  8
T24SSILL
 62
8
 10
1246.622
 20
-3221.460
 30
2786.944
 70
    32
  0
VERTEX
  8
T24SSILL
 62
8
 10
1241.366
 20
-3212.005
 30
2786.959
 70
    32
  0
VERTEX
  8
T24SSILL
 62
8
 10
1236.064
 20
-3215.072
 30
2786.956
 70
    32
  0
VERTEX
  8
T24SSILL
 62
8
 10
1236.222
 20
-3220.187
 30
2786.948
 70
    32
  0
VERTEX
  8
T24SSILL
 62
8
 10
1238.238
 20
-3223.369
 30
2786.943
 70
    32
  0
VERTEX
  8
T24SSILL
 62
8
 10
1238.748
 20
-3228.486
 30
2786.936
 70
    32
  0
VERTEX
  8
T24SSILL
 62
8
 10
1232.194
 20
-3236.310
 30
2786.926
 70
    32
  0
VERTEX
  8
T24SSILL
 62
8
 10
1224.412
 20
-3242.013
 30
2787.010
 70
    32
  0
VERTEX
  8
T24SSILL
 62
8
 10
1218.147
 20
-3243.224
 30
2787.071
 70
    32
  0
VERTEX
  8
T24SSILL
 62
8
 10
1203.692
 20
-3241.231
 30
2787.156
 70
    32
  0
VERTEX
  8
T24SSILL
 62
8
 10
1232.519
 20
-3219.821
 30
2786.950
 70
    32
  0
VERTEX
  8
T24SSILL
 62
8
 10
1213.215
 20
-3193.911
 30
2786.993
 70
    32
  0
VERTEX
  8
T24SSILL
 62
8
 10
1205.919
 20
-3187.535
 30
2787.004
 70
    32
  0
VERTEX
  8
T24SSILL
 62
8
 10
1203.906
 20
-3183.559
 30
2787.011
 70
    32
  0
VERTEX
  8
T24SSILL
 62
8
 10
1219.997
 20
-3172.243
 30
2787.022
 70
    32
  0
VERTEX
  8
T24SSILL
 62
8
 10
1231.979
 20
-3175.286
 30
2787.014
 70
    32
  0
VERTEX
  8
T24SSILL
 62
8
 10
1235.154
 20
-3175.121
 30
2787.014
 70
    32
  0
VERTEX
  8
T24SSILL
 62
8
 10
1238.424
 20
-3173.105
 30
2787.016
 70
    32
  0
VERTEX
  8
T24SSILL
 62
8
 10
1242.675
 20
-3168.183
 30
2787.022
 70
    32
  0
VERTEX
  8
T24SSILL
 62
8
 10
1243.302
 20
-3165.628
 30
2787.025
 70
    32
  0
VERTEX
  8
T24SSILL
 62
8
 10
1241.822
 20
-3160.331
 30
2787.033
 70
    32
  0
VERTEX
  8
T24SSILL
 62
8
 10
1242.368
 20
-3155.836
 30
2787.039
 70
    32
  0
VERTEX
  8
T24SSILL
 62
8
 10
1510.910
 20
-2965.212
 30
2787.212
 70
    32
  0
VERTEX
  8
T24SSILL
 62
8
 10
1690.794
 20
-2835.035
 30
2786.999
 70
    32
  0
VERTEX
  8
T24SSILL
 62
8
 10
1861.262
 20
-2716.014
 30
2786.799
 70
    32
  0
VERTEX
  8
T24SSILL
 62
8
 10
1867.940
 20
-2715.702
 30
2786.798
 70
    32
  0
VERTEX
  8
T24SSILL
 62
8
 10
1883.689
 20
-2705.480
 30
2786.814
 70
    32
  0
VERTEX
  8
T24SSILL
 62
8
 10
1892.399
 20
-2706.472
 30
2786.814
 70
    32
  0
VERTEX
  8
T24SSILL
 62
8
 10
1926.074
 20
-2683.110
 30
2786.850
 70
    32
  0
VERTEX
  8
T24SSILL
 62
8
 10
1922.427
 20
-2677.247
 30
2786.850
 70
    32
  0
VERTEX
  8
T24SSILL
 62
8
 10
1922.661
 20
-2673.114
 30
2786.846
 70
    32
  0
VERTEX
  8
T24SSILL
 62
8
 10
1947.646
 20
-2651.485
 30
2786.855
 70
    32
  0
VERTEX
  8
T24SSILL
 62
8
 10
1953.956
 20
-2661.021
 30
2786.876
 70
    32
  0
VERTEX
  8
T24SSILL
 62
8
 10
1961.046
 20
-2656.838
 30
2786.881
 70
    32
  0
VERTEX
  8
T24SSILL
 62
8
 10
1954.641
 20
-2646.248
 30
2786.859
 70
    32
  0
VERTEX
  8
T24SSILL
 62
8
 10
1965.753
 20
-2639.048
 30
2786.866
 70
    32
  0
VERTEX
  8
T24SSILL
 62
8
 10
1986.542
 20
-2645.139
 30
2786.903
 70
    32
  0
VERTEX
  8
T24SSILL
 62
8
 10
2474.114
 20
-3282.686
 30
2786.357
 70
    32
  0
VERTEX
  8
T24SSILL
 62
8
 10
2467.693
 20
-3287.257
 30
2786.369
 70
    32
  0
VERTEX
  8
T24SSILL
 62
8
 10
2476.660
 20
-3298.341
 30
2786.361
 70
    32
  0
VERTEX
  8
T24SSILL
 62
8
 10
2483.081
 20
-3294.824
 30
2786.349
 70
    32
  0
VERTEX
  8
T24SSILL
 62
8
 10
2535.653
 20
-3362.467
 30
2786.304
 70
    32
  0
VERTEX
  8
T24SSILL
 62
8
 10
2537.850
 20
-3368.271
 30
2786.303
 70
    32
  0
VERTEX
  8
T24SSILL
 62
8
 10
2536.354
 20
-3373.460
 30
2786.308
 70
    32
  0
VERTEX
  8
T24SSILL
 62
8
 10
2457.392
 20
-3432.426
 30
2786.457
 70
    32
  0
VERTEX
  8
T24SSILL
 62
8
 10
2453.234
 20
-3426.467
 30
2786.460
 70
    32
  0
VERTEX
  8
T24SSILL
 62
8
 10
2448.536
 20
-3429.675
 30
2786.469
 70
    32
  0
VERTEX
  8
T24SSILL
 62
8
 10
2443.475
 20
-3422.299
 30
2786.473
 70
    32
  0
VERTEX
  8
T24SSILL
 62
8
 10
2455.173
 20
-3410.726
 30
2786.449
 70
    32
  0
VERTEX
  8
T24SSILL
 62
8
 10
2456.317
 20
-3407.297
 30
2786.446
 70
    32
  0
VERTEX
  8
T24SSILL
 62
8
 10
2454.384
 20
-3401.316
 30
2786.446
 70
    32
  0
VERTEX
  8
T24SSILL
 62
8
 10
2444.888
 20
-3392.607
 30
2786.456
 70
    32
  0
VERTEX
  8
T24SSILL
 62
8
 10
2438.645
 20
-3390.055
 30
2786.464
 70
    32
  0
VERTEX
  8
T24SSILL
 62
8
 10
2425.104
 20
-3380.202
 30
2786.479
 70
    32
  0
VERTEX
  8
T24SSILL
 62
8
 10
2418.333
 20
-3377.122
 30
2786.488
 70
    32
  0
VERTEX
  8
T24SSILL
 62
8
 10
2411.915
 20
-3370.525
 30
2786.494
 70
    32
  0
VERTEX
  8
T24SSILL
 62
8
 10
2399.777
 20
-3379.140
 30
2786.517
 70
    32
  0
VERTEX
  8
T24SSILL
 62
8
 10
2402.749
 20
-3382.843
 30
2786.514
 70
    32
  0
VERTEX
  8
T24SSILL
 62
8
 10
2396.492
 20
-3386.585
 30
2786.526
 70
    32
  0
VERTEX
  8
T24SSILL
 62
8
 10
2394.323
 20
-3383.184
 30
2786.527
 70
    32
  0
VERTEX
  8
T24SSILL
 62
8
 10
2388.694
 20
-3385.733
 30
2786.537
 70
    32
  0
VERTEX
  8
T24SSILL
 62
8
 10
2398.186
 20
-3408.600
 30
2786.534
 70
    32
  0
VERTEX
  8
T24SSILL
 62
8
 10
2409.964
 20
-3431.732
 30
2786.528
 70
    32
  0
VERTEX
  8
T24SSILL
 62
8
 10
2409.436
 20
-3435.866
 30
2786.531
 70
    32
  0
VERTEX
  8
T24SSILL
 62
8
 10
2406.797
 20
-3437.888
 30
2786.536
 70
    32
  0
VERTEX
  8
T24SSILL
 62
8
 10
2402.927
 20
-3438.502
 30
2786.542
 70
    32
  0
VERTEX
  8
T24SSILL
 62
8
 10
2396.245
 20
-3433.224
 30
2786.549
 70
    32
  0
VERTEX
  8
T24SSILL
 62
8
 10
2391.323
 20
-3422.494
 30
2786.551
 70
    32
  0
VERTEX
  8
T24SSILL
 62
8
 10
2385.436
 20
-3403.672
 30
2786.551
 70
    32
  0
VERTEX
  8
T24SSILL
 62
8
 10
2379.810
 20
-3393.909
 30
2786.554
 70
    32
  0
VERTEX
  8
T24SSILL
 62
8
 10
2360.459
 20
-3407.535
 30
2786.590
 70
    32
  0
VERTEX
  8
T24SSILL
 62
8
 10
2358.701
 20
-3404.457
 30
2786.592
 70
    32
  0
VERTEX
  8
T24SSILL
 62
8
 10
2353.423
 20
-3407.533
 30
2786.601
 70
    32
  0
VERTEX
  8
T24SSILL
 62
8
 10
2356.324
 20
-3413.250
 30
2786.600
 70
    32
  0
VERTEX
  8
T24SSILL
 62
8
 10
2357.995
 20
-3412.723
 30
2786.597
 70
    32
  0
VERTEX
  8
T24SSILL
 62
8
 10
2358.481
 20
-3413.710
 30
2786.597
 70
    32
  0
VERTEX
  8
T24SSILL
 62
8
 10
2354.740
 20
-3416.504
 30
2786.604
 70
    32
  0
VERTEX
  8
T24SSILL
 62
8
 10
2364.850
 20
-3430.665
 30
2786.595
 70
    32
  0
VERTEX
  8
T24SSILL
 62
8
 10
2360.276
 20
-3433.918
 30
2786.604
 70
    32
  0
VERTEX
  8
T24SSILL
 62
8
 10
2381.374
 20
-3463.736
 30
2786.587
 70
    32
  0
VERTEX
  8
T24SSILL
 62
8
 10
2394.702
 20
-3460.341
 30
2786.565
 70
    32
  0
VERTEX
  8
T24SSILL
 62
8
 10
2403.446
 20
-3472.800
 30
2786.558
 70
    32
  0
VERTEX
  8
T24SSILL
 62
8
 10
2396.321
 20
-3478.690
 30
2786.572
 70
    32
  0
VERTEX
  8
T24SSILL
 62
8
 10
2400.804
 20
-3484.848
 30
2786.568
 70
    32
  0
VERTEX
  8
T24SSILL
 62
8
 10
2408.809
 20
-3479.309
 30
2786.553
 70
    32
  0
VERTEX
  8
T24SSILL
 62
8
 10
2414.625
 20
-3493.747
 30
2786.552
 70
    32
  0
VERTEX
  8
T24SSILL
 62
8
 10
2356.763
 20
-3535.405
 30
2786.660
 70
    32
  0
VERTEX
  8
T24SSILL
 62
8
 10
2366.489
 20
-3549.828
 30
2786.653
 70
    32
  0
VERTEX
  8
T24SSILL
 62
8
 10
2361.740
 20
-3552.993
 30
2786.661
 70
    32
  0
VERTEX
  8
T24SSILL
 62
8
 10
2382.926
 20
-3583.251
 30
2786.644
 70
    32
  0
VERTEX
  8
T24SSILL
 62
8
 10
2421.892
 20
-3554.768
 30
2786.571
 70
    32
  0
VERTEX
  8
T24SSILL
 62
8
 10
2418.816
 20
-3549.403
 30
2786.573
 70
    32
  0
VERTEX
  8
T24SSILL
 62
8
 10
2429.195
 20
-3542.194
 30
2786.554
 70
    32
  0
VERTEX
  8
T24SSILL
 62
8
 10
2433.151
 20
-3547.472
 30
2786.551
 70
    32
  0
VERTEX
  8
T24SSILL
 62
8
 10
2435.757
 20
-3545.505
 30
2786.546
 70
    32
  0
VERTEX
  8
T24SSILL
 62
8
 10
2436.717
 20
-3547.846
 30
2786.546
 70
    32
  0
VERTEX
  8
T24SSILL
 62
8
 10
2405.619
 20
-3570.154
 30
2786.604
 70
    32
  0
VERTEX
  8
T24SSILL
 62
8
 10
2409.663
 20
-3575.519
 30
2786.600
 70
    32
  0
VERTEX
  8
T24SSILL
 62
8
 10
2405.265
 20
-3578.156
 30
2786.608
 70
    32
  0
VERTEX
  8
T24SSILL
 62
8
 10
2411.384
 20
-3587.922
 30
2786.603
 70
    32
  0
VERTEX
  8
T24SSILL
 62
8
 10
2253.531
 20
-3700.445
 30
2786.841
 70
    32
  0
VERTEX
  8
T24SSILL
 62
8
 10
2226.542
 20
-3663.062
 30
2786.805
 70
    32
  0
VERTEX
  8
T24SSILL
 62
8
 10
2255.481
 20
-3642.931
 30
2786.792
 70
    32
  0
VERTEX
  8
T24SSILL
 62
8
 10
2251.349
 20
-3637.301
 30
2786.790
 70
    32
  0
VERTEX
  8
T24SSILL
 62
8
 10
2241.674
 20
-3643.455
 30
2786.793
 70
    32
  0
VERTEX
  8
T24SSILL
 62
8
 10
2198.773
 20
-3584.961
 30
2786.769
 70
    32
  0
VERTEX
  8
T24SSILL
 62
8
 10
2192.791
 20
-3590.940
 30
2786.772
 70
    32
  0
VERTEX
  8
T24SSILL
 62
8
 10
2202.637
 20
-3604.926
 30
2786.778
 70
    32
  0
VERTEX
  8
T24SSILL
 62
8
 10
2191.290
 20
-3612.925
 30
2786.782
 70
    32
  0
VERTEX
  8
T24SSILL
 62
8
 10
2155.687
 20
-3562.349
 30
2786.761
 70
    32
  0
VERTEX
  8
T24SSILL
 62
8
 10
2153.574
 20
-3563.580
 30
2786.761
 70
    32
  0
VERTEX
  8
T24SSILL
 62
8
 10
2151.730
 20
-3560.941
 30
2786.760
 70
    32
  0
VERTEX
  8
T24SSILL
 62
8
 10
2156.216
 20
-3557.160
 30
2786.758
 70
    32
  0
VERTEX
  8
T24SSILL
 62
8
 10
2153.227
 20
-3552.586
 30
2786.756
 70
    32
  0
VERTEX
  8
T24SSILL
 62
8
 10
2162.639
 20
-3545.114
 30
2786.752
 70
    32
  0
VERTEX
  8
T24SSILL
 62
8
 10
2156.133
 20
-3535.526
 30
2786.748
 70
    32
  0
VERTEX
  8
T24SSILL
 62
8
 10
2160.444
 20
-3531.834
 30
2786.746
 70
    32
  0
VERTEX
  8
T24SSILL
 62
8
 10
2153.675
 20
-3522.158
 30
2786.742
 70
    32
  0
VERTEX
  8
T24SSILL
 62
8
 10
2139.161
 20
-3533.147
 30
2786.748
 70
    32
  0
VERTEX
  8
T24SSILL
 62
8
 10
2142.326
 20
-3538.073
 30
2786.750
 70
    32
  0
VERTEX
  8
T24SSILL
 62
8
 10
2133.354
 20
-3544.754
 30
2786.754
 70
    32
  0
VERTEX
  8
T24SSILL
 62
8
 10
2149.601
 20
-3567.928
 30
2786.764
 70
    32
  0
VERTEX
  8
T24SSILL
 62
8
 10
2145.571
 20
-3570.613
 30
2786.765
 70
    32
  0
VERTEX
  8
T24SSILL
 62
8
 10
2150.230
 20
-3577.122
 30
2786.768
 70
    32
  0
VERTEX
  8
T24SSILL
 62
8
 10
2154.716
 20
-3573.781
 30
2786.766
 70
    32
  0
VERTEX
  8
T24SSILL
 62
8
 10
2177.573
 20
-3606.766
 30
2786.780
 70
    32
  0
VERTEX
  8
T24SSILL
 62
8
 10
2149.248
 20
-3600.081
 30
2786.778
 70
    32
  0
VERTEX
  8
T24SSILL
 62
8
 10
2130.347
 20
-3572.887
 30
2786.767
 70
    32
  0
VERTEX
  8
T24SSILL
 62
8
 10
2125.213
 20
-3577.071
 30
2786.769
 70
    32
  0
VERTEX
  8
T24SSILL
 62
8
 10
2131.313
 20
-3586.402
 30
2786.773
 70
    32
  0
VERTEX
  8
T24SSILL
 62
8
 10
2126.783
 20
-3589.789
 30
2786.775
 70
    32
  0
VERTEX
  8
T24SSILL
 62
8
 10
2125.966
 20
-3588.385
 30
2786.774
 70
    32
  0
VERTEX
  8
T24SSILL
 62
8
 10
2116.774
 20
-3601.334
 30
2786.781
 70
    32
  0
VERTEX
  8
T24SSILL
 62
8
 10
2124.118
 20
-3613.882
 30
2786.786
 70
    32
  0
VERTEX
  8
T24SSILL
 62
8
 10
2141.406
 20
-3601.427
 30
2786.780
 70
    32
  0
VERTEX
  8
T24SSILL
 62
8
 10
2143.468
 20
-3606.049
 30
2786.782
 70
    32
  0
VERTEX
  8
T24SSILL
 62
8
 10
2145.870
 20
-3607.949
 30
2786.782
 70
    32
  0
VERTEX
  8
T24SSILL
 62
8
 10
2153.805
 20
-3610.515
 30
2786.783
 70
    32
  0
VERTEX
  8
T24SSILL
 62
8
 10
2183.903
 20
-3614.418
 30
2786.783
 70
    32
  0
VERTEX
  8
T24SSILL
 62
8
 10
2247.549
 20
-3705.104
 30
2786.847
 70
    32
  0
VERTEX
  8
T24SSILL
 62
8
 10
2185.626
 20
-3748.620
 30
2786.902
 70
    32
  0
VERTEX
  8
T24SSILL
 62
8
 10
2182.636
 20
-3749.499
 30
2786.902
 70
    32
  0
VERTEX
  8
T24SSILL
 62
8
 10
2177.184
 20
-3747.562
 30
2786.894
 70
    32
  0
VERTEX
  8
T24SSILL
 62
8
 10
2172.964
 20
-3742.636
 30
2786.882
 70
    32
  0
VERTEX
  8
T24SSILL
 62
8
 10
2163.385
 20
-3715.255
 30
2786.858
 70
    32
  0
VERTEX
  8
T24SSILL
 62
8
 10
2158.535
 20
-3694.247
 30
2786.840
 70
    32
  0
VERTEX
  8
T24SSILL
 62
8
 10
2151.900
 20
-3675.178
 30
2786.823
 70
    32
  0
VERTEX
  8
T24SSILL
 62
8
 10
2151.854
 20
-3669.654
 30
2786.819
 70
    32
  0
VERTEX
  8
T24SSILL
 62
8
 10
2153.419
 20
-3666.763
 30
2786.816
 70
    32
  0
VERTEX
  8
T24SSILL
 62
8
 10
2161.732
 20
-3661.696
 30
2786.811
 70
    32
  0
VERTEX
  8
T24SSILL
 62
8
 10
2157.980
 20
-3655.165
 30
2786.805
 70
    32
  0
VERTEX
  8
T24SSILL
 62
8
 10
2154.060
 20
-3659.093
 30
2786.809
 70
    32
  0
VERTEX
  8
T24SSILL
 62
8
 10
2142.362
 20
-3666.142
 30
2786.816
 70
    32
  0
VERTEX
  8
T24SSILL
 62
8
 10
2138.532
 20
-3660.336
 30
2786.812
 70
    32
  0
VERTEX
  8
T24SSILL
 62
8
 10
2135.540
 20
-3654.146
 30
2786.806
 70
    32
  0
VERTEX
  8
T24SSILL
 62
8
 10
2140.301
 20
-3651.797
 30
2786.804
 70
    32
  0
VERTEX
  8
T24SSILL
 62
8
 10
2136.291
 20
-3642.090
 30
2786.799
 70
    32
  0
VERTEX
  8
T24SSILL
 62
8
 10
2138.399
 20
-3640.552
 30
2786.798
 70
    32
  0
VERTEX
  8
T24SSILL
 62
8
 10
2135.933
 20
-3634.290
 30
2786.795
 70
    32
  0
VERTEX
  8
T24SSILL
 62
8
 10
2133.677
 20
-3635.403
 30
2786.796
 70
    32
  0
VERTEX
  8
T24SSILL
 62
8
 10
2131.153
 20
-3630.666
 30
2786.794
 70
    32
  0
VERTEX
  8
T24SSILL
 62
8
 10
2126.244
 20
-3632.589
 30
2786.795
 70
    32
  0
VERTEX
  8
T24SSILL
 62
8
 10
2116.088
 20
-3610.615
 30
2786.785
 70
    32
  0
VERTEX
  8
T24SSILL
 62
8
 10
2114.759
 20
-3611.333
 30
2786.786
 70
    32
  0
VERTEX
  8
T24SSILL
 62
8
 10
2092.729
 20
-3580.198
 30
2786.772
 70
    32
  0
VERTEX
  8
T24SSILL
 62
8
 10
2084.942
 20
-3559.237
 30
2786.763
 70
    32
  0
VERTEX
  8
T24SSILL
 62
8
 10
2082.263
 20
-3543.639
 30
2786.756
 70
    32
  0
VERTEX
  8
T24SSILL
 62
8
 10
2061.323
 20
-3504.861
 30
2786.739
 70
    32
  0
VERTEX
  8
T24SSILL
 62
8
 10
2050.604
 20
-3473.599
 30
2786.725
 70
    32
  0
VERTEX
  8
T24SSILL
 62
8
 10
2041.280
 20
-3478.449
 30
2786.728
 70
    32
  0
VERTEX
  8
T24SSILL
 62
8
 10
2038.805
 20
-3478.610
 30
2786.728
 70
    32
  0
VERTEX
  8
T24SSILL
 62
8
 10
2024.495
 20
-3469.249
 30
2786.725
 70
    32
  0
VERTEX
  8
T24SSILL
 62
8
 10
2016.720
 20
-3460.060
 30
2786.721
 70
    32
  0
VERTEX
  8
T24SSILL
 62
8
 10
2015.010
 20
-3450.216
 30
2786.717
 70
    32
  0
VERTEX
  8
T24SSILL
 62
8
 10
2010.213
 20
-3451.118
 30
2786.717
 70
    32
  0
VERTEX
  8
T24SSILL
 62
8
 10
1999.359
 20
-3431.096
 30
2786.709
 70
    32
  0
VERTEX
  8
T24SSILL
 62
8
 10
1993.993
 20
-3433.997
 30
2786.710
 70
    32
  0
VERTEX
  8
T24SSILL
 62
8
 10
1991.181
 20
-3428.632
 30
2786.708
 70
    32
  0
VERTEX
  8
T24SSILL
 62
8
 10
1985.464
 20
-3431.269
 30
2786.709
 70
    32
  0
VERTEX
  8
T24SSILL
 62
8
 10
1983.091
 20
-3425.816
 30
2786.707
 70
    32
  0
VERTEX
  8
T24SSILL
 62
8
 10
1977.989
 20
-3429.156
 30
2786.709
 70
    32
  0
VERTEX
  8
T24SSILL
 62
8
 10
1980.626
 20
-3434.257
 30
2786.711
 70
    32
  0
VERTEX
  8
T24SSILL
 62
8
 10
1978.603
 20
-3435.048
 30
2786.712
 70
    32
  0
VERTEX
  8
T24SSILL
 62
8
 10
1969.284
 20
-3424.405
 30
2786.707
 70
    32
  0
VERTEX
  8
T24SSILL
 62
8
 10
1965.238
 20
-3427.746
 30
2786.709
 70
    32
  0
VERTEX
  8
T24SSILL
 62
8
 10
1959.787
 20
-3421.676
 30
2786.706
 70
    32
  0
VERTEX
  8
T24SSILL
 62
8
 10
1964.273
 20
-3417.720
 30
2786.704
 70
    32
  0
VERTEX
  8
T24SSILL
 62
8
 10
1951.877
 20
-3403.030
 30
2786.698
 70
    32
  0
VERTEX
  8
T24SSILL
 62
8
 10
1956.275
 20
-3400.129
 30
2786.697
 70
    32
  0
VERTEX
  8
T24SSILL
 62
8
 10
1945.022
 20
-3386.319
 30
2786.691
 70
    32
  0
VERTEX
  8
T24SSILL
 62
8
 10
1940.184
 20
-3390.011
 30
2786.693
 70
    32
  0
VERTEX
  8
T24SSILL
 62
8
 10
1936.579
 20
-3385.613
 30
2786.691
 70
    32
  0
VERTEX
  8
T24SSILL
 62
8
 10
1918.019
 20
-3400.471
 30
2786.699
 70
    32
  0
VERTEX
  8
T24SSILL
 62
8
 10
1925.668
 20
-3409.795
 30
2786.703
 70
    32
  0
VERTEX
  8
T24SSILL
 62
8
 10
1911.858
 20
-3420.696
 30
2786.709
 70
    32
  0
VERTEX
  8
T24SSILL
 62
8
 10
1897.000
 20
-3402.576
 30
2786.701
 70
    32
  0
VERTEX
  8
T24SSILL
 62
8
 10
1883.102
 20
-3413.829
 30
2786.707
 70
    32
  0
VERTEX
  8
T24SSILL
 62
8
 10
1905.433
 20
-3441.889
 30
2786.719
 70
    32
  0
VERTEX
  8
T24SSILL
 62
8
 10
1912.118
 20
-3436.438
 30
2786.716
 70
    32
  0
VERTEX
  8
T24SSILL
 62
8
 10
1947.131
 20
-3484.611
 30
2786.736
 70
    32
  0
VERTEX
  8
T24SSILL
 62
8
 10
1936.220
 20
-3494.138
 30
2786.741
 70
    32
  0
VERTEX
  8
T24SSILL
 62
8
 10
1938.657
 20
-3498.888
 30
2786.743
 70
    32
  0
VERTEX
  8
T24SSILL
 62
8
 10
1974.899
 20
-3472.775
 30
2786.729
 70
    32
  0
VERTEX
  8
T24SSILL
 62
8
 10
1984.392
 20
-3489.451
 30
2786.736
 70
    32
  0
VERTEX
  8
T24SSILL
 62
8
 10
1959.056
 20
-3507.769
 30
2786.746
 70
    32
  0
VERTEX
  8
T24SSILL
 62
8
 10
1964.426
 20
-3520.232
 30
2786.752
 70
    32
  0
VERTEX
  8
T24SSILL
 62
8
 10
1974.727
 20
-3528.985
 30
2786.755
 70
    32
  0
VERTEX
  8
T24SSILL
 62
8
 10
1987.056
 20
-3546.646
 30
2786.763
 70
    32
  0
VERTEX
  8
T24SSILL
 62
8
 10
1991.716
 20
-3553.944
 30
2786.766
 70
    32
  0
VERTEX
  8
T24SSILL
 62
8
 10
1992.533
 20
-3562.484
 30
2786.770
 70
    32
  0
VERTEX
  8
T24SSILL
 62
8
 10
1996.113
 20
-3568.414
 30
2786.772
 70
    32
  0
VERTEX
  8
T24SSILL
 62
8
 10
2003.173
 20
-3575.650
 30
2786.775
 70
    32
  0
VERTEX
  8
T24SSILL
 62
8
 10
2012.719
 20
-3580.849
 30
2786.777
 70
    32
  0
VERTEX
  8
T24SSILL
 62
8
 10
2024.018
 20
-3585.183
 30
2786.779
 70
    32
  0
VERTEX
  8
T24SSILL
 62
8
 10
2033.396
 20
-3586.570
 30
2786.779
 70
    32
  0
VERTEX
  8
T24SSILL
 62
8
 10
2043.640
 20
-3575.439
 30
2786.773
 70
    32
  0
VERTEX
  8
T24SSILL
 62
8
 10
2048.042
 20
-3573.313
 30
2786.772
 70
    32
  0
VERTEX
  8
T24SSILL
 62
8
 10
2051.470
 20
-3578.503
 30
2786.774
 70
    32
  0
VERTEX
  8
T24SSILL
 62
8
 10
2066.950
 20
-3568.833
 30
2786.769
 70
    32
  0
VERTEX
  8
T24SSILL
 62
8
 10
2070.115
 20
-3573.671
 30
2786.771
 70
    32
  0
VERTEX
  8
T24SSILL
 62
8
 10
2073.985
 20
-3571.121
 30
2786.769
 70
    32
  0
VERTEX
  8
T24SSILL
 62
8
 10
2076.376
 20
-3574.814
 30
2786.771
 70
    32
  0
VERTEX
  8
T24SSILL
 62
8
 10
2077.223
 20
-3579.654
 30
2786.773
 70
    32
  0
VERTEX
  8
T24SSILL
 62
8
 10
2079.284
 20
-3579.304
 30
2786.773
 70
    32
  0
VERTEX
  8
T24SSILL
 62
8
 10
2089.196
 20
-3594.610
 30
2786.779
 70
    32
  0
VERTEX
  8
T24SSILL
 62
8
 10
2087.497
 20
-3595.992
 30
2786.780
 70
    32
  0
VERTEX
  8
T24SSILL
 62
8
 10
2091.463
 20
-3602.137
 30
2786.783
 70
    32
  0
VERTEX
  8
T24SSILL
 62
8
 10
2095.766
 20
-3599.048
 30
2786.781
 70
    32
  0
VERTEX
  8
T24SSILL
 62
8
 10
2105.379
 20
-3615.120
 30
2786.788
 70
    32
  0
VERTEX
  8
T24SSILL
 62
8
 10
2103.688
 20
-3615.798
 30
2786.788
 70
    32
  0
VERTEX
  8
T24SSILL
 62
8
 10
2113.470
 20
-3637.645
 30
2786.798
 70
    32
  0
VERTEX
  8
T24SSILL
 62
8
 10
2119.970
 20
-3634.968
 30
2786.796
 70
    32
  0
VERTEX
  8
T24SSILL
 62
8
 10
2133.369
 20
-3663.008
 30
2786.814
 70
    32
  0
VERTEX
  8
T24SSILL
 62
8
 10
2148.890
 20
-3688.972
 30
2786.836
 70
    32
  0
VERTEX
  8
T24SSILL
 62
8
 10
2159.996
 20
-3732.133
 30
2786.873
 70
    32
  0
VERTEX
  8
T24SSILL
 62
8
 10
2169.774
 20
-3750.056
 30
2786.894
 70
    32
  0
VERTEX
  8
T24SSILL
 62
8
 10
2172.696
 20
-3757.938
 30
2786.914
 70
    32
  0
VERTEX
  8
T24SSILL
 62
8
 10
2153.521
 20
-3771.828
 30
2786.932
 70
    32
  0
VERTEX
  8
T24SSILL
 62
8
 10
2157.213
 20
-3776.842
 30
2786.946
 70
    32
  0
VERTEX
  8
T24SSILL
 62
8
 10
2182.633
 20
-3759.700
 30
2786.925
 70
    32
  0
VERTEX
  8
T24SSILL
 62
8
 10
2263.510
 20
-3874.751
 30
2786.798
 70
    32
  0
VERTEX
  8
T24SSILL
 62
8
 10
2269.316
 20
-3870.707
 30
2786.791
 70
    32
  0
VERTEX
  8
T24SSILL
 62
8
 10
2187.999
 20
-3755.040
 30
2786.918
 70
    32
  0
VERTEX
  8
T24SSILL
 62
8
 10
2302.610
 20
-3673.723
 30
2786.805
 70
    32
  0
VERTEX
  8
T24SSILL
 62
8
 10
2236.762
 20
-4155.744
 30
2786.751
 70
    32
  0
VERTEX
  8
T24SSILL
 62
8
 10
2215.458
 20
-4304.147
 30
2786.878
 70
    32
  0
VERTEX
  8
T24SSILL
 62
8
 10
2194.695
 20
-4278.931
 30
2786.866
 70
    32
  0
VERTEX
  8
T24SSILL
 62
8
 10
2189.848
 20
-4283.848
 30
2786.871
 70
    32
  0
VERTEX
  8
T24SSILL
 62
8
 10
2207.626
 20
-4305.319
 30
2786.882
 70
    32
  0
VERTEX
  8
T24SSILL
 62
8
 10
2213.907
 20
-4315.946
 30
2786.888
 70
    32
  0
VERTEX
  8
T24SSILL
 62
8
 10
2198.202
 20
-4423.347
 30
2787.109
 70
    32
  0
VERTEX
  8
T24SSILL
 62
8
 10
2195.140
 20
-4417.509
 30
2787.096
 70
    32
  0
VERTEX
  8
T24SSILL
 62
8
 10
1955.213
 20
-4136.206
 30
2787.275
 70
    32
  0
VERTEX
  8
T24SSILL
 62
8
 10
1770.800
 20
-3913.584
 30
2787.073
 70
    32
  0
VERTEX
  8
T24SSILL
 62
8
 10
1766.794
 20
-3895.538
 30
2787.058
 70
    32
  0
VERTEX
  8
T24SSILL
 62
8
 10
1806.545
 20
-3806.406
 30
2786.974
 70
    32
  0
VERTEX
  8
T24SSILL
 62
8
 10
1814.185
 20
-3805.534
 30
2786.973
 70
    32
  0
VERTEX
  8
T24SSILL
 62
8
 10
1825.546
 20
-3807.719
 30
2786.974
 70
    32
  0
VERTEX
  8
T24SSILL
 62
8
 10
1829.574
 20
-3804.578
 30
2786.970
 70
    32
  0
VERTEX
  8
T24SSILL
 62
8
 10
1838.854
 20
-3803.303
 30
2786.968
 70
    32
  0
VERTEX
  8
T24SSILL
 62
8
 10
1846.417
 20
-3805.117
 30
2786.969
 70
    32
  0
VERTEX
  8
T24SSILL
 62
8
 10
1847.799
 20
-3801.538
 30
2786.966
 70
    32
  0
VERTEX
  8
T24SSILL
 62
8
 10
1847.631
 20
-3797.725
 30
2786.963
 70
    32
  0
VERTEX
  8
T24SSILL
 62
8
 10
1844.998
 20
-3794.787
 30
2786.960
 70
    32
  0
VERTEX
  8
T24SSILL
 62
8
 10
1833.345
 20
-3791.126
 30
2786.958
 70
    32
  0
VERTEX
  8
T24SSILL
 62
8
 10
1829.615
 20
-3787.357
 30
2786.955
 70
    32
  0
VERTEX
  8
T24SSILL
 62
8
 10
1827.344
 20
-3758.502
 30
2786.930
 70
    32
  0
VERTEX
  8
T24SSILL
 62
8
 10
1829.912
 20
-3752.529
 30
2786.924
 70
    32
  0
VERTEX
  8
T24SSILL
 62
8
 10
1838.521
 20
-3752.862
 30
2786.923
 70
    32
  0
VERTEX
  8
T24SSILL
 62
8
 10
1843.129
 20
-3737.065
 30
2786.909
 70
    32
  0
VERTEX
  8
T24SSILL
 62
8
 10
1839.621
 20
-3731.660
 30
2786.904
 70
    32
  0
VERTEX
  8
T24SSILL
 62
8
 10
1850.137
 20
-3706.934
 30
2786.881
 70
    32
  0
VERTEX
  8
T24SSILL
 62
8
 10
1842.891
 20
-3704.184
 30
2786.880
 70
    32
  0
VERTEX
  8
T24SSILL
 62
8
 10
1814.827
 20
-3769.320
 30
2786.940
 70
    32
  0
VERTEX
  8
T24SSILL
 62
8
 10
1802.161
 20
-3763.480
 30
2786.936
 70
    32
  0
VERTEX
  8
T24SSILL
 62
8
 10
1796.788
 20
-3767.875
 30
2786.941
 70
    32
  0
VERTEX
  8
T24SSILL
 62
8
 10
1796.169
 20
-3769.209
 30
2786.942
 70
    32
  0
VERTEX
  8
T24SSILL
 62
8
 10
1804.357
 20
-3778.163
 30
2786.949
 70
    32
  0
VERTEX
  8
T24SSILL
 62
8
 10
1806.466
 20
-3788.309
 30
2786.958
 70
    32
  0
VERTEX
  8
T24SSILL
 62
8
 10
1759.894
 20
-3893.364
 30
2787.056
 70
    32
  0
VERTEX
  8
T24SSILL
 62
8
 10
1756.083
 20
-3895.818
 30
2787.059
 70
    32
  0
VERTEX
  8
T24SSILL
 62
8
 10
1600.464
 20
-3707.956
 30
2786.907
 70
    32
  0
SEQEND
  8
T24SSILL
  0
POLYLINE
  8
T24SSILL
 62
8
 66
     1
 70
     9
  0
VERTEX
  8
T24SSILL
 62
8
 10
2428.891
 20
-3693.984
 30
2786.612
 70
    32
  0
VERTEX
  8
T24SSILL
 62
8
 10
2434.784
 20
-3689.676
 30
2786.605
 70
    32
  0
VERTEX
  8
T24SSILL
 62
8
 10
2437.509
 20
-3693.194
 30
2786.600
 70
    32
  0
VERTEX
  8
T24SSILL
 62
8
 10
2450.616
 20
-3683.612
 30
2786.578
 70
    32
  0
VERTEX
  8
T24SSILL
 62
8
 10
2438.220
 20
-3667.339
 30
2786.592
 70
    32
  0
VERTEX
  8
T24SSILL
 62
8
 10
2410.425
 20
-3687.559
 30
2786.641
 70
    32
  0
VERTEX
  8
T24SSILL
 62
8
 10
2400.930
 20
-3673.573
 30
2786.654
 70
    32
  0
VERTEX
  8
T24SSILL
 62
8
 10
2405.504
 20
-3670.233
 30
2786.645
 70
    32
  0
VERTEX
  8
T24SSILL
 62
8
 10
2402.691
 20
-3665.043
 30
2786.647
 70
    32
  0
VERTEX
  8
T24SSILL
 62
8
 10
2406.826
 20
-3661.439
 30
2786.639
 70
    32
  0
VERTEX
  8
T24SSILL
 62
8
 10
2400.057
 20
-3651.763
 30
2786.646
 70
    32
  0
VERTEX
  8
T24SSILL
 62
8
 10
2404.807
 20
-3648.335
 30
2786.637
 70
    32
  0
VERTEX
  8
T24SSILL
 62
8
 10
2393.554
 20
-3633.118
 30
2786.649
 70
    32
  0
VERTEX
  8
T24SSILL
 62
8
 10
2447.564
 20
-3594.972
 30
2786.548
 70
    32
  0
VERTEX
  8
T24SSILL
 62
8
 10
2446.682
 20
-3591.974
 30
2786.549
 70
    32
  0
VERTEX
  8
T24SSILL
 62
8
 10
2450.781
 20
-3589.016
 30
2786.541
 70
    32
  0
VERTEX
  8
T24SSILL
 62
8
 10
2447.475
 20
-3585.467
 30
2786.545
 70
    32
  0
VERTEX
  8
T24SSILL
 62
8
 10
2417.129
 20
-3607.005
 30
2786.602
 70
    32
  0
VERTEX
  8
T24SSILL
 62
8
 10
2409.963
 20
-3597.028
 30
2786.609
 70
    32
  0
VERTEX
  8
T24SSILL
 62
8
 10
2309.911
 20
-3668.273
 30
2786.795
 70
    32
  0
VERTEX
  8
T24SSILL
 62
8
 10
2292.728
 20
-3796.049
 30
2786.779
 70
    32
  0
VERTEX
  8
T24SSILL
 62
8
 10
2431.704
 20
-3697.326
 30
2786.607
 70
    32
  0
SEQEND
  8
T24SSILL
  0
POLYLINE
  8
T24SSILL
 62
8
 66
     1
 70
     9
  0
VERTEX
  8
T24SSILL
 62
8
 10
1424.434
 20
-3713.714
 30
2787.009
 70
    32
  0
VERTEX
  8
T24SSILL
 62
8
 10
1432.997
 20
-3722.795
 30
2786.978
 70
    32
  0
VERTEX
  8
T24SSILL
 62
8
 10
1439.816
 20
-3721.144
 30
2786.956
 70
    32
  0
VERTEX
  8
T24SSILL
 62
8
 10
1442.713
 20
-3724.046
 30
2786.946
 70
    32
  0
VERTEX
  8
T24SSILL
 62
8
 10
1448.417
 20
-3720.764
 30
2786.936
 70
    32
  0
VERTEX
  8
T24SSILL
 62
8
 10
1451.296
 20
-3715.106
 30
2786.932
 70
    32
  0
VERTEX
  8
T24SSILL
 62
8
 10
1443.416
 20
-3704.504
 30
2786.947
 70
    32
  0
VERTEX
  8
T24SSILL
 62
8
 10
1438.166
 20
-3700.052
 30
2786.966
 70
    32
  0
VERTEX
  8
T24SSILL
 62
8
 10
1425.838
 20
-3682.391
 30
2787.010
 70
    32
  0
VERTEX
  8
T24SSILL
 62
8
 10
1423.822
 20
-3680.706
 30
2787.017
 70
    32
  0
VERTEX
  8
T24SSILL
 62
8
 10
1421.386
 20
-3680.505
 30
2787.026
 70
    32
  0
VERTEX
  8
T24SSILL
 62
8
 10
1420.980
 20
-3676.904
 30
2787.028
 70
    32
  0
VERTEX
  8
T24SSILL
 62
8
 10
1424.682
 20
-3673.987
 30
2787.016
 70
    32
  0
VERTEX
  8
T24SSILL
 62
8
 10
1426.180
 20
-3667.359
 30
2787.012
 70
    32
  0
VERTEX
  8
T24SSILL
 62
8
 10
1453.670
 20
-3646.721
 30
2786.925
 70
    32
  0
VERTEX
  8
T24SSILL
 62
8
 10
1468.937
 20
-3650.064
 30
2786.873
 70
    32
  0
VERTEX
  8
T24SSILL
 62
8
 10
1476.799
 20
-3659.241
 30
2786.891
 70
    32
  0
VERTEX
  8
T24SSILL
 62
8
 10
1481.585
 20
-3668.752
 30
2786.912
 70
    32
  0
VERTEX
  8
T24SSILL
 62
8
 10
1480.823
 20
-3678.133
 30
2786.925
 70
    32
  0
VERTEX
  8
T24SSILL
 62
8
 10
1476.990
 20
-3682.050
 30
2786.924
 70
    32
  0
VERTEX
  8
T24SSILL
 62
8
 10
1477.061
 20
-3685.162
 30
2786.929
 70
    32
  0
VERTEX
  8
T24SSILL
 62
8
 10
1492.723
 20
-3727.073
 30
2787.015
 70
    32
  0
VERTEX
  8
T24SSILL
 62
8
 10
1500.305
 20
-3741.997
 30
2787.048
 70
    32
  0
VERTEX
  8
T24SSILL
 62
8
 10
1501.620
 20
-3750.915
 30
2787.064
 70
    32
  0
VERTEX
  8
T24SSILL
 62
8
 10
1509.601
 20
-3763.554
 30
2787.095
 70
    32
  0
VERTEX
  8
T24SSILL
 62
8
 10
1514.438
 20
-3768.241
 30
2787.109
 70
    32
  0
VERTEX
  8
T24SSILL
 62
8
 10
1522.182
 20
-3771.369
 30
2787.126
 70
    32
  0
VERTEX
  8
T24SSILL
 62
8
 10
1532.444
 20
-3766.212
 30
2787.134
 70
    32
  0
VERTEX
  8
T24SSILL
 62
8
 10
1532.593
 20
-3764.051
 30
2787.131
 70
    32
  0
VERTEX
  8
T24SSILL
 62
8
 10
1536.326
 20
-3760.059
 30
2787.132
 70
    32
  0
VERTEX
  8
T24SSILL
 62
8
 10
1540.350
 20
-3752.994
 30
2787.128
 70
    32
  0
VERTEX
  8
T24SSILL
 62
8
 10
1540.956
 20
-3716.518
 30
2787.073
 70
    32
  0
VERTEX
  8
T24SSILL
 62
8
 10
1540.012
 20
-3708.353
 30
2787.050
 70
    32
  0
VERTEX
  8
T24SSILL
 62
8
 10
1543.393
 20
-3695.311
 30
2787.002
 70
    32
  0
VERTEX
  8
T24SSILL
 62
8
 10
1543.471
 20
-3664.081
 30
2786.906
 70
    32
  0
VERTEX
  8
T24SSILL
 62
8
 10
1544.069
 20
-3661.947
 30
2786.898
 70
    32
  0
VERTEX
  8
T24SSILL
 62
8
 10
1548.266
 20
-3658.347
 30
2786.875
 70
    32
  0
VERTEX
  8
T24SSILL
 62
8
 10
1593.462
 20
-3710.377
 30
2786.913
 70
    32
  0
VERTEX
  8
T24SSILL
 62
8
 10
1585.093
 20
-3717.052
 30
2786.956
 70
    32
  0
VERTEX
  8
T24SSILL
 62
8
 10
1589.325
 20
-3722.536
 30
2786.962
 70
    32
  0
VERTEX
  8
T24SSILL
 62
8
 10
1598.497
 20
-3716.443
 30
2786.918
 70
    32
  0
VERTEX
  8
T24SSILL
 62
8
 10
1635.331
 20
-3760.825
 30
2786.955
 70
    32
  0
VERTEX
  8
T24SSILL
 62
8
 10
1616.674
 20
-3773.544
 30
2787.044
 70
    32
  0
VERTEX
  8
T24SSILL
 62
8
 10
1620.608
 20
-3778.801
 30
2787.050
 70
    32
  0
VERTEX
  8
T24SSILL
 62
8
 10
1639.374
 20
-3765.697
 30
2786.959
 70
    32
  0
VERTEX
  8
T24SSILL
 62
8
 10
1667.857
 20
-3800.016
 30
2786.988
 70
    32
  0
VERTEX
  8
T24SSILL
 62
8
 10
1667.595
 20
-3809.806
 30
2787.019
 70
    32
  0
VERTEX
  8
T24SSILL
 62
8
 10
1674.160
 20
-3818.626
 30
2787.028
 70
    32
  0
VERTEX
  8
T24SSILL
 62
8
 10
1683.480
 20
-3818.840
 30
2787.004
 70
    32
  0
VERTEX
  8
T24SSILL
 62
8
 10
1734.881
 20
-3880.773
 30
2787.055
 70
    32
  0
VERTEX
  8
T24SSILL
 62
8
 10
1720.743
 20
-3881.084
 30
2787.094
 70
    32
  0
VERTEX
  8
T24SSILL
 62
8
 10
1713.443
 20
-3883.782
 30
2787.122
 70
    32
  0
VERTEX
  8
T24SSILL
 62
8
 10
1598.814
 20
-3964.832
 30
2787.490
 70
    32
  0
VERTEX
  8
T24SSILL
 62
8
 10
1593.916
 20
-3962.294
 30
2787.478
 70
    32
  0
VERTEX
  8
T24SSILL
 62
8
 10
1574.029
 20
-3944.155
 30
2787.428
 70
    32
  0
VERTEX
  8
T24SSILL
 62
8
 10
1567.183
 20
-3950.805
 30
2787.415
 70
    32
  0
VERTEX
  8
T24SSILL
 62
8
 10
1582.290
 20
-3965.319
 30
2787.453
 70
    32
  0
VERTEX
  8
T24SSILL
 62
8
 10
1580.689
 20
-3967.947
 30
2787.450
 70
    32
  0
VERTEX
  8
T24SSILL
 62
8
 10
1578.271
 20
-3969.172
 30
2787.445
 70
    32
  0
VERTEX
  8
T24SSILL
 62
8
 10
1514.624
 20
-3964.273
 30
2787.301
 70
    32
  0
VERTEX
  8
T24SSILL
 62
8
 10
1454.077
 20
-3879.377
 30
2787.141
 70
    32
  0
VERTEX
  8
T24SSILL
 62
8
 10
1456.086
 20
-3852.050
 30
2787.138
 70
    32
  0
VERTEX
  8
T24SSILL
 62
8
 10
1448.213
 20
-3849.914
 30
2787.120
 70
    32
  0
VERTEX
  8
T24SSILL
 62
8
 10
1446.079
 20
-3868.163
 30
2787.120
 70
    32
  0
VERTEX
  8
T24SSILL
 62
8
 10
1368.563
 20
-3760.195
 30
2787.179
 70
    32
  0
VERTEX
  8
T24SSILL
 62
8
 10
1365.312
 20
-3753.417
 30
2787.193
 70
    32
  0
VERTEX
  8
T24SSILL
 62
8
 10
1364.857
 20
-3744.916
 30
2787.201
 70
    32
  0
VERTEX
  8
T24SSILL
 62
8
 10
1368.517
 20
-3717.029
 30
2787.164
 70
    32
  0
VERTEX
  8
T24SSILL
 62
8
 10
1377.356
 20
-3702.167
 30
2787.132
 70
    32
  0
VERTEX
  8
T24SSILL
 62
8
 10
1382.004
 20
-3697.693
 30
2787.119
 70
    32
  0
VERTEX
  8
T24SSILL
 62
8
 10
1398.865
 20
-3692.521
 30
2787.086
 70
    32
  0
VERTEX
  8
T24SSILL
 62
8
 10
1401.337
 20
-3692.984
 30
2787.083
 70
    32
  0
VERTEX
  8
T24SSILL
 62
8
 10
1411.046
 20
-3702.620
 30
2787.056
 70
    32
  0
SEQEND
  8
T24SSILL
  0
POLYLINE
  8
T24SSILL
 62
8
 66
     1
 70
     9
  0
VERTEX
  8
T24SSILL
 62
8
 10
1486.242
 20
-3959.611
 30
2787.236
 70
    32
  0
VERTEX
  8
T24SSILL
 62
8
 10
1488.426
 20
-3962.522
 30
2787.242
 70
    32
  0
VERTEX
  8
T24SSILL
 62
8
 10
1502.858
 20
-3963.036
 30
2787.275
 70
    32
  0
VERTEX
  8
T24SSILL
 62
8
 10
1510.638
 20
-3973.562
 30
2787.295
 70
    32
  0
VERTEX
  8
T24SSILL
 62
8
 10
1556.594
 20
-3977.592
 30
2787.399
 70
    32
  0
VERTEX
  8
T24SSILL
 62
8
 10
1559.511
 20
-3981.295
 30
2787.407
 70
    32
  0
VERTEX
  8
T24SSILL
 62
8
 10
1562.166
 20
-3989.582
 30
2787.415
 70
    32
  0
VERTEX
  8
T24SSILL
 62
8
 10
1510.719
 20
-4026.713
 30
2787.311
 70
    32
  0
VERTEX
  8
T24SSILL
 62
8
 10
1501.681
 20
-4027.153
 30
2787.291
 70
    32
  0
VERTEX
  8
T24SSILL
 62
8
 10
1495.519
 20
-4022.559
 30
2787.275
 70
    32
  0
VERTEX
  8
T24SSILL
 62
8
 10
1486.054
 20
-4006.912
 30
2787.250
 70
    32
  0
VERTEX
  8
T24SSILL
 62
8
 10
1479.063
 20
-4007.962
 30
2787.234
 70
    32
  0
VERTEX
  8
T24SSILL
 62
8
 10
1442.337
 20
-3960.116
 30
2787.211
 70
    32
  0
SEQEND
  8
T24SSILL
  0
POLYLINE
  8
T24SSILL
 62
8
 66
     1
 70
     9
  0
VERTEX
  8
T24SSILL
 62
8
 10
1435.625
 20
-3950.870
 30
2787.214
 70
    32
  0
VERTEX
  8
T24SSILL
 62
8
 10
1430.322
 20
-3942.144
 30
2787.213
 70
    32
  0
VERTEX
  8
T24SSILL
 62
8
 10
1418.171
 20
-3927.242
 30
2787.223
 70
    32
  0
VERTEX
  8
T24SSILL
 62
8
 10
1475.970
 20
-3926.414
 30
2787.204
 70
    32
  0
VERTEX
  8
T24SSILL
 62
8
 10
1492.770
 20
-3949.348
 30
2787.248
 70
    32
  0
VERTEX
  8
T24SSILL
 62
8
 10
1452.041
 20
-3950.433
 30
2787.157
 70
    32
  0
SEQEND
  8
T24SSILL
  0
POLYLINE
  8
T24SSILL
 62
8
 66
     1
 70
     9
  0
VERTEX
  8
T24SSILL
 62
8
 10
1441.574
 20
-3894.214
 30
2787.118
 70
    32
  0
VERTEX
  8
T24SSILL
 62
8
 10
1454.456
 20
-3897.082
 30
2787.147
 70
    32
  0
VERTEX
  8
T24SSILL
 62
8
 10
1463.436
 20
-3909.851
 30
2787.171
 70
    32
  0
VERTEX
  8
T24SSILL
 62
8
 10
1454.417
 20
-3916.265
 30
2787.153
 70
    32
  0
VERTEX
  8
T24SSILL
 62
8
 10
1409.612
 20
-3916.715
 30
2787.229
 70
    32
  0
VERTEX
  8
T24SSILL
 62
8
 10
1396.299
 20
-3895.921
 30
2787.230
 70
    32
  0
VERTEX
  8
T24SSILL
 62
8
 10
1433.797
 20
-3894.507
 30
2787.100
 70
    32
  0
SEQEND
  8
T24SSILL
  0
POLYLINE
  8
T24SSILL
 62
8
 66
     1
 70
     9
  0
VERTEX
  8
T24SSILL
 62
8
 10
1072.720
 20
-3079.987
 30
2788.441
 70
    32
  0
VERTEX
  8
T24SSILL
 62
8
 10
1084.041
 20
-3261.246
 30
2788.302
 70
    32
  0
VERTEX
  8
T24SSILL
 62
8
 10
1123.919
 20
-3232.381
 30
2787.692
 70
    32
  0
VERTEX
  8
T24SSILL
 62
8
 10
1111.543
 20
-3216.815
 30
2787.938
 70
    32
  0
VERTEX
  8
T24SSILL
 62
8
 10
1110.506
 20
-3210.991
 30
2787.969
 70
    32
  0
VERTEX
  8
T24SSILL
 62
8
 10
1116.561
 20
-3195.141
 30
2787.902
 70
    32
  0
VERTEX
  8
T24SSILL
 62
8
 10
1117.840
 20
-3183.152
 30
2787.908
 70
    32
  0
VERTEX
  8
T24SSILL
 62
8
 10
1120.249
 20
-3175.754
 30
2787.884
 70
    32
  0
VERTEX
  8
T24SSILL
 62
8
 10
1126.258
 20
-3172.249
 30
2787.852
 70
    32
  0
VERTEX
  8
T24SSILL
 62
8
 10
1137.648
 20
-3168.323
 30
2787.801
 70
    32
  0
VERTEX
  8
T24SSILL
 62
8
 10
1109.139
 20
-3127.741
 30
2788.624
 70
    32
  0
VERTEX
  8
T24SSILL
 62
8
 10
1099.481
 20
-3116.330
 30
2788.582
 70
    32
  0
VERTEX
  8
T24SSILL
 62
8
 10
1077.993
 20
-3084.769
 30
2788.457
 70
    32
  0
SEQEND
  8
T24SSILL
  0
POLYLINE
  8
T24SSILL
 62
8
 66
     1
 70
     9
  0
VERTEX
  8
T24SSILL
 62
8
 10
1413.346
 20
-3638.884
 30
2786.997
 70
    32
  0
VERTEX
  8
T24SSILL
 62
8
 10
1411.002
 20
-3642.596
 30
2787.005
 70
    32
  0
VERTEX
  8
T24SSILL
 62
8
 10
1410.066
 20
-3656.551
 30
2787.024
 70
    32
  0
VERTEX
  8
T24SSILL
 62
8
 10
1398.330
 20
-3661.375
 30
2787.048
 70
    32
  0
VERTEX
  8
T24SSILL
 62
8
 10
1367.538
 20
-3616.459
 30
2787.088
 70
    32
  0
VERTEX
  8
T24SSILL
 62
8
 10
1368.912
 20
-3614.130
 30
2787.075
 70
    32
  0
VERTEX
  8
T24SSILL
 62
8
 10
1397.206
 20
-3618.803
 30
2786.991
 70
    32
  0
VERTEX
  8
T24SSILL
 62
8
 10
1410.758
 20
-3608.378
 30
2786.954
 70
    32
  0
VERTEX
  8
T24SSILL
 62
8
 10
1410.751
 20
-3623.214
 30
2786.981
 70
    32
  0
SEQEND
  8
T24SSILL
  0
POLYLINE
  8
T24SSILL
 62
8
 66
     1
 70
     9
  0
VERTEX
  8
T24SSILL
 62
8
 10
1357.577
 20
-3573.282
 30
2787.088
 70
    32
  0
VERTEX
  8
T24SSILL
 62
8
 10
1355.817
 20
-3572.305
 30
2787.098
 70
    32
  0
VERTEX
  8
T24SSILL
 62
8
 10
1352.753
 20
-3566.121
 30
2787.109
 70
    32
  0
VERTEX
  8
T24SSILL
 62
8
 10
1324.104
 20
-3563.370
 30
2787.292
 70
    32
  0
VERTEX
  8
T24SSILL
 62
8
 10
1360.102
 20
-3605.919
 30
2787.121
 70
    32
  0
VERTEX
  8
T24SSILL
 62
8
 10
1394.564
 20
-3610.544
 30
2786.980
 70
    32
  0
VERTEX
  8
T24SSILL
 62
8
 10
1407.033
 20
-3601.067
 30
2786.946
 70
    32
  0
VERTEX
  8
T24SSILL
 62
8
 10
1403.794
 20
-3594.794
 30
2786.939
 70
    32
  0
VERTEX
  8
T24SSILL
 62
8
 10
1410.247
 20
-3590.320
 30
2786.922
 70
    32
  0
VERTEX
  8
T24SSILL
 62
8
 10
1413.578
 20
-3595.712
 30
2786.928
 70
    32
  0
VERTEX
  8
T24SSILL
 62
8
 10
1442.846
 20
-3574.391
 30
2786.851
 70
    32
  0
VERTEX
  8
T24SSILL
 62
8
 10
1374.967
 20
-3568.496
 30
2786.978
 70
    32
  0
VERTEX
  8
T24SSILL
 62
8
 10
1371.777
 20
-3572.717
 30
2786.995
 70
    32
  0
VERTEX
  8
T24SSILL
 62
8
 10
1362.253
 20
-3572.594
 30
2787.057
 70
    32
  0
SEQEND
  8
T24SSILL
  0
POLYLINE
  8
T24SSILL
 62
8
 66
     1
 70
     9
  0
VERTEX
  8
T24SSILL
 62
8
 10
1302.086
 20
-3432.020
 30
2787.240
 70
    32
  0
VERTEX
  8
T24SSILL
 62
8
 10
1272.558
 20
-3423.474
 30
2787.420
 70
    32
  0
VERTEX
  8
T24SSILL
 62
8
 10
1268.625
 20
-3418.837
 30
2787.439
 70
    32
  0
VERTEX
  8
T24SSILL
 62
8
 10
1262.208
 20
-3403.837
 30
2787.458
 70
    32
  0
VERTEX
  8
T24SSILL
 62
8
 10
1261.856
 20
-3394.074
 30
2787.446
 70
    32
  0
VERTEX
  8
T24SSILL
 62
8
 10
1265.068
 20
-3386.233
 30
2787.413
 70
    32
  0
VERTEX
  8
T24SSILL
 62
8
 10
1292.554
 20
-3367.486
 30
2787.205
 70
    32
  0
VERTEX
  8
T24SSILL
 62
8
 10
1284.478
 20
-3357.667
 30
2787.243
 70
    32
  0
VERTEX
  8
T24SSILL
 62
8
 10
1286.778
 20
-3355.648
 30
2787.225
 70
    32
  0
VERTEX
  8
T24SSILL
 62
8
 10
1276.466
 20
-3354.199
 30
2787.291
 70
    32
  0
VERTEX
  8
T24SSILL
 62
8
 10
1266.492
 20
-3356.719
 30
2787.360
 70
    32
  0
VERTEX
  8
T24SSILL
 62
8
 10
1194.431
 20
-3408.392
 30
2787.909
 70
    32
  0
VERTEX
  8
T24SSILL
 62
8
 10
1264.931
 20
-3492.516
 30
2787.573
 70
    32
  0
VERTEX
  8
T24SSILL
 62
8
 10
1340.122
 20
-3436.048
 30
2786.997
 70
    32
  0
VERTEX
  8
T24SSILL
 62
8
 10
1345.063
 20
-3441.583
 30
2786.973
 70
    32
  0
VERTEX
  8
T24SSILL
 62
8
 10
1316.097
 20
-3463.252
 30
2787.195
 70
    32
  0
VERTEX
  8
T24SSILL
 62
8
 10
1319.081
 20
-3467.143
 30
2787.181
 70
    32
  0
VERTEX
  8
T24SSILL
 62
8
 10
1323.151
 20
-3463.543
 30
2787.149
 70
    32
  0
VERTEX
  8
T24SSILL
 62
8
 10
1333.744
 20
-3460.495
 30
2787.075
 70
    32
  0
VERTEX
  8
T24SSILL
 62
8
 10
1349.743
 20
-3450.414
 30
2786.955
 70
    32
  0
VERTEX
  8
T24SSILL
 62
8
 10
1366.596
 20
-3471.375
 30
2786.888
 70
    32
  0
VERTEX
  8
T24SSILL
 62
8
 10
1381.048
 20
-3497.972
 30
2786.880
 70
    32
  0
VERTEX
  8
T24SSILL
 62
8
 10
1374.043
 20
-3533.760
 30
2786.941
 70
    32
  0
VERTEX
  8
T24SSILL
 62
8
 10
1369.294
 20
-3528.705
 30
2786.948
 70
    32
  0
VERTEX
  8
T24SSILL
 62
8
 10
1361.251
 20
-3533.701
 30
2787.005
 70
    32
  0
VERTEX
  8
T24SSILL
 62
8
 10
1357.720
 20
-3534.570
 30
2787.029
 70
    32
  0
VERTEX
  8
T24SSILL
 62
8
 10
1362.707
 20
-3545.259
 30
2787.013
 70
    32
  0
VERTEX
  8
T24SSILL
 62
8
 10
1368.850
 20
-3553.483
 30
2786.985
 70
    32
  0
VERTEX
  8
T24SSILL
 62
8
 10
1373.185
 20
-3551.412
 30
2786.963
 70
    32
  0
VERTEX
  8
T24SSILL
 62
8
 10
1375.366
 20
-3555.888
 30
2786.963
 70
    32
  0
VERTEX
  8
T24SSILL
 62
8
 10
1389.104
 20
-3561.053
 30
2786.932
 70
    32
  0
VERTEX
  8
T24SSILL
 62
8
 10
1472.760
 20
-3569.035
 30
2786.802
 70
    32
  0
VERTEX
  8
T24SSILL
 62
8
 10
1406.322
 20
-3491.053
 30
2786.804
 70
    32
  0
VERTEX
  8
T24SSILL
 62
8
 10
1402.023
 20
-3493.124
 30
2786.818
 70
    32
  0
VERTEX
  8
T24SSILL
 62
8
 10
1396.399
 20
-3493.089
 30
2786.833
 70
    32
  0
VERTEX
  8
T24SSILL
 62
8
 10
1388.171
 20
-3483.776
 30
2786.844
 70
    32
  0
VERTEX
  8
T24SSILL
 62
8
 10
1369.502
 20
-3455.464
 30
2786.862
 70
    32
  0
VERTEX
  8
T24SSILL
 62
8
 10
1358.656
 20
-3445.260
 30
2786.889
 70
    32
  0
VERTEX
  8
T24SSILL
 62
8
 10
1349.588
 20
-3428.481
 30
2786.924
 70
    32
  0
VERTEX
  8
T24SSILL
 62
8
 10
1341.611
 20
-3417.083
 30
2786.959
 70
    32
  0
VERTEX
  8
T24SSILL
 62
8
 10
1330.737
 20
-3411.253
 30
2787.021
 70
    32
  0
VERTEX
  8
T24SSILL
 62
8
 10
1322.371
 20
-3414.000
 30
2787.080
 70
    32
  0
VERTEX
  8
T24SSILL
 62
8
 10
1320.150
 20
-3415.374
 30
2787.097
 70
    32
  0
VERTEX
  8
T24SSILL
 62
8
 10
1309.545
 20
-3436.354
 30
2787.197
 70
    32
  0
SEQEND
  8
T24SSILL
  0
POLYLINE
  8
T24SSILL
 62
8
 66
     1
 70
     9
  0
VERTEX
  8
T24SSILL
 62
8
 10
1314.222
 20
-3350.635
 30
2787.038
 70
    32
  0
VERTEX
  8
T24SSILL
 62
8
 10
1318.695
 20
-3357.000
 30
2787.019
 70
    32
  0
VERTEX
  8
T24SSILL
 62
8
 10
1317.047
 20
-3358.405
 30
2787.031
 70
    32
  0
VERTEX
  8
T24SSILL
 62
8
 10
1322.907
 20
-3362.375
 30
2786.999
 70
    32
  0
VERTEX
  8
T24SSILL
 62
8
 10
1340.007
 20
-3381.804
 30
2786.916
 70
    32
  0
VERTEX
  8
T24SSILL
 62
8
 10
1354.715
 20
-3396.119
 30
2786.842
 70
    32
  0
VERTEX
  8
T24SSILL
 62
8
 10
1373.368
 20
-3421.044
 30
2786.812
 70
    32
  0
VERTEX
  8
T24SSILL
 62
8
 10
1380.267
 20
-3438.922
 30
2786.814
 70
    32
  0
VERTEX
  8
T24SSILL
 62
8
 10
1382.141
 20
-3451.403
 30
2786.823
 70
    32
  0
VERTEX
  8
T24SSILL
 62
8
 10
1384.994
 20
-3454.774
 30
2786.819
 70
    32
  0
VERTEX
  8
T24SSILL
 62
8
 10
1389.996
 20
-3455.967
 30
2786.807
 70
    32
  0
VERTEX
  8
T24SSILL
 62
8
 10
1395.106
 20
-3460.086
 30
2786.798
 70
    32
  0
VERTEX
  8
T24SSILL
 62
8
 10
1407.438
 20
-3474.636
 30
2786.782
 70
    32
  0
VERTEX
  8
T24SSILL
 62
8
 10
1411.203
 20
-3480.009
 30
2786.778
 70
    32
  0
VERTEX
  8
T24SSILL
 62
8
 10
1411.928
 20
-3484.013
 30
2786.781
 70
    32
  0
VERTEX
  8
T24SSILL
 62
8
 10
1411.027
 20
-3485.537
 30
2786.785
 70
    32
  0
VERTEX
  8
T24SSILL
 62
8
 10
1447.952
 20
-3529.172
 30
2786.762
 70
    32
  0
VERTEX
  8
T24SSILL
 62
8
 10
1439.776
 20
-3474.645
 30
2786.710
 70
    32
  0
VERTEX
  8
T24SSILL
 62
8
 10
1423.998
 20
-3449.189
 30
2786.714
 70
    32
  0
VERTEX
  8
T24SSILL
 62
8
 10
1418.340
 20
-3452.872
 30
2786.727
 70
    32
  0
VERTEX
  8
T24SSILL
 62
8
 10
1412.205
 20
-3442.797
 30
2786.732
 70
    32
  0
VERTEX
  8
T24SSILL
 62
8
 10
1407.017
 20
-3438.809
 30
2786.741
 70
    32
  0
VERTEX
  8
T24SSILL
 62
8
 10
1405.789
 20
-3437.041
 30
2786.743
 70
    32
  0
VERTEX
  8
T24SSILL
 62
8
 10
1405.110
 20
-3429.719
 30
2786.736
 70
    32
  0
VERTEX
  8
T24SSILL
 62
8
 10
1403.019
 20
-3423.009
 30
2786.734
 70
    32
  0
VERTEX
  8
T24SSILL
 62
8
 10
1397.594
 20
-3411.525
 30
2786.735
 70
    32
  0
VERTEX
  8
T24SSILL
 62
8
 10
1394.170
 20
-3407.545
 30
2786.740
 70
    32
  0
VERTEX
  8
T24SSILL
 62
8
 10
1386.339
 20
-3402.842
 30
2786.755
 70
    32
  0
VERTEX
  8
T24SSILL
 62
8
 10
1388.385
 20
-3398.087
 30
2786.744
 70
    32
  0
VERTEX
  8
T24SSILL
 62
8
 10
1395.272
 20
-3395.644
 30
2786.729
 70
    32
  0
VERTEX
  8
T24SSILL
 62
8
 10
1404.594
 20
-3402.557
 30
2786.734
 70
    32
  0
VERTEX
  8
T24SSILL
 62
8
 10
1419.708
 20
-3416.987
 30
2786.738
 70
    32
  0
VERTEX
  8
T24SSILL
 62
8
 10
1423.404
 20
-3419.028
 30
2786.741
 70
    32
  0
VERTEX
  8
T24SSILL
 62
8
 10
1426.756
 20
-3418.865
 30
2786.745
 70
    32
  0
VERTEX
  8
T24SSILL
 62
8
 10
1431.712
 20
-3416.609
 30
2786.753
 70
    32
  0
VERTEX
  8
T24SSILL
 62
8
 10
1331.875
 20
-3298.407
 30
2786.840
 70
    32
  0
VERTEX
  8
T24SSILL
 62
8
 10
1246.454
 20
-3290.772
 30
2787.389
 70
    32
  0
VERTEX
  8
T24SSILL
 62
8
 10
1304.078
 20
-3359.193
 30
2787.117
 70
    32
  0
SEQEND
  8
T24SSILL
  0
POLYLINE
  8
T24SSILL
 62
8
 66
     1
 70
     9
  0
VERTEX
  8
T24SSILL
 62
8
 10
1286.118
 20
-3347.850
 30
2787.218
 70
    32
  0
VERTEX
  8
T24SSILL
 62
8
 10
1245.708
 20
-3301.792
 30
2787.413
 70
    32
  0
VERTEX
  8
T24SSILL
 62
8
 10
1241.624
 20
-3309.008
 30
2787.451
 70
    32
  0
VERTEX
  8
T24SSILL
 62
8
 10
1237.149
 20
-3326.804
 30
2787.507
 70
    32
  0
VERTEX
  8
T24SSILL
 62
8
 10
1230.167
 20
-3331.099
 30
2787.559
 70
    32
  0
VERTEX
  8
T24SSILL
 62
8
 10
1190.100
 20
-3339.681
 30
2787.834
 70
    32
  0
VERTEX
  8
T24SSILL
 62
8
 10
1177.865
 20
-3333.551
 30
2787.905
 70
    32
  0
VERTEX
  8
T24SSILL
 62
8
 10
1171.623
 20
-3328.502
 30
2787.938
 70
    32
  0
VERTEX
  8
T24SSILL
 62
8
 10
1159.506
 20
-3314.259
 30
2787.996
 70
    32
  0
VERTEX
  8
T24SSILL
 62
8
 10
1159.359
 20
-3282.513
 30
2787.948
 70
    32
  0
VERTEX
  8
T24SSILL
 62
8
 10
1082.752
 20
-3276.056
 30
2788.441
 70
    32
  0
VERTEX
  8
T24SSILL
 62
8
 10
1137.713
 20
-3341.339
 30
2788.179
 70
    32
  0
VERTEX
  8
T24SSILL
 62
8
 10
1147.934
 20
-3343.493
 30
2788.115
 70
    32
  0
VERTEX
  8
T24SSILL
 62
8
 10
1152.674
 20
-3349.419
 30
2788.093
 70
    32
  0
VERTEX
  8
T24SSILL
 62
8
 10
1150.794
 20
-3357.084
 30
2788.117
 70
    32
  0
VERTEX
  8
T24SSILL
 62
8
 10
1183.102
 20
-3395.828
 30
2787.964
 70
    32
  0
VERTEX
  8
T24SSILL
 62
8
 10
1189.641
 20
-3392.149
 30
2787.916
 70
    32
  0
VERTEX
  8
T24SSILL
 62
8
 10
1196.673
 20
-3398.259
 30
2787.879
 70
    32
  0
VERTEX
  8
T24SSILL
 62
8
 10
1249.640
 20
-3359.037
 30
2787.473
 70
    32
  0
VERTEX
  8
T24SSILL
 62
8
 10
1246.308
 20
-3354.087
 30
2787.488
 70
    32
  0
VERTEX
  8
T24SSILL
 62
8
 10
1257.623
 20
-3346.457
 30
2787.402
 70
    32
  0
VERTEX
  8
T24SSILL
 62
8
 10
1260.955
 20
-3351.584
 30
2787.388
 70
    32
  0
VERTEX
  8
T24SSILL
 62
8
 10
1271.730
 20
-3347.303
 30
2787.311
 70
    32
  0
VERTEX
  8
T24SSILL
 62
8
 10
1280.903
 20
-3346.631
 30
2787.250
 70
    32
  0
SEQEND
  8
T24SSILL
  0
POLYLINE
  8
T24SSILL
 62
8
 66
     1
 70
     9
  0
VERTEX
  8
T24SSILL
 62
8
 10
1147.212
 20
-3181.321
 30
2787.528
 70
    32
  0
VERTEX
  8
T24SSILL
 62
8
 10
1132.873
 20
-3195.642
 30
2787.625
 70
    32
  0
VERTEX
  8
T24SSILL
 62
8
 10
1129.229
 20
-3203.300
 30
2787.669
 70
    32
  0
VERTEX
  8
T24SSILL
 62
8
 10
1130.983
 20
-3206.129
 30
2787.633
 70
    32
  0
VERTEX
  8
T24SSILL
 62
8
 10
1134.580
 20
-3210.904
 30
2787.561
 70
    32
  0
VERTEX
  8
T24SSILL
 62
8
 10
1147.523
 20
-3216.419
 30
2787.329
 70
    32
  0
VERTEX
  8
T24SSILL
 62
8
 10
1164.146
 20
-3204.488
 30
2787.074
 70
    32
  0
VERTEX
  8
T24SSILL
 62
8
 10
1160.393
 20
-3199.353
 30
2787.149
 70
    32
  0
SEQEND
  8
T24SSILL
  0
POLYLINE
  8
T24SSILL
 62
8
 66
     1
 70
     9
  0
VERTEX
  8
T24SSILL
 62
8
 10
1189.227
 20
-3194.528
 30
2786.999
 70
    32
  0
VERTEX
  8
T24SSILL
 62
8
 10
1193.786
 20
-3201.688
 30
2786.987
 70
    32
  0
VERTEX
  8
T24SSILL
 62
8
 10
1191.746
 20
-3204.855
 30
2786.983
 70
    32
  0
VERTEX
  8
T24SSILL
 62
8
 10
1181.040
 20
-3214.339
 30
2787.011
 70
    32
  0
VERTEX
  8
T24SSILL
 62
8
 10
1174.373
 20
-3205.055
 30
2786.988
 70
    32
  0
SEQEND
  8
T24SSILL
  0
POLYLINE
  8
T24SSILL
 62
8
 66
     1
 70
     9
  0
VERTEX
  8
T24SSILL
 62
8
 10
1274.746
 20
-3223.240
 30
2786.933
 70
    32
  0
VERTEX
  8
T24SSILL
 62
8
 10
1275.503
 20
-3209.310
 30
2786.953
 70
    32
  0
VERTEX
  8
T24SSILL
 62
8
 10
1248.621
 20
-3229.492
 30
2786.931
 70
    32
  0
VERTEX
  8
T24SSILL
 62
8
 10
1252.875
 20
-3247.497
 30
2786.904
 70
    32
  0
VERTEX
  8
T24SSILL
 62
8
 10
1252.942
 20
-3253.406
 30
2786.930
 70
    32
  0
VERTEX
  8
T24SSILL
 62
8
 10
1250.642
 20
-3255.249
 30
2786.968
 70
    32
  0
VERTEX
  8
T24SSILL
 62
8
 10
1243.315
 20
-3257.427
 30
2787.049
 70
    32
  0
VERTEX
  8
T24SSILL
 62
8
 10
1238.115
 20
-3256.437
 30
2787.076
 70
    32
  0
VERTEX
  8
T24SSILL
 62
8
 10
1231.607
 20
-3251.916
 30
2787.072
 70
    32
  0
VERTEX
  8
T24SSILL
 62
8
 10
1228.852
 20
-3257.638
 30
2787.160
 70
    32
  0
VERTEX
  8
T24SSILL
 62
8
 10
1227.576
 20
-3268.744
 30
2787.299
 70
    32
  0
VERTEX
  8
T24SSILL
 62
8
 10
1235.215
 20
-3277.767
 30
2787.348
 70
    32
  0
VERTEX
  8
T24SSILL
 62
8
 10
1247.101
 20
-3282.661
 30
2787.316
 70
    32
  0
VERTEX
  8
T24SSILL
 62
8
 10
1324.061
 20
-3289.207
 30
2786.823
 70
    32
  0
VERTEX
  8
T24SSILL
 62
8
 10
1281.654
 20
-3239.227
 30
2786.908
 70
    32
  0
VERTEX
  8
T24SSILL
 62
8
 10
1278.584
 20
-3234.718
 30
2786.915
 70
    32
  0
VERTEX
  8
T24SSILL
 62
8
 10
1275.616
 20
-3226.594
 30
2786.928
 70
    32
  0
SEQEND
  8
T24SSILL
  0
POLYLINE
  8
T24SSILL
 62
8
 66
     1
 70
     9
  0
VERTEX
  8
T24SSILL
 62
8
 10
1434.284
 20
-3433.884
 30
2786.740
 70
    32
  0
VERTEX
  8
T24SSILL
 62
8
 10
1447.333
 20
-3458.094
 30
2786.734
 70
    32
  0
VERTEX
  8
T24SSILL
 62
8
 10
1445.285
 20
-3463.466
 30
2786.726
 70
    32
  0
VERTEX
  8
T24SSILL
 62
8
 10
1454.057
 20
-3523.728
 30
2786.744
 70
    32
  0
VERTEX
  8
T24SSILL
 62
8
 10
1460.157
 20
-3543.239
 30
2786.772
 70
    32
  0
VERTEX
  8
T24SSILL
 62
8
 10
1490.714
 20
-3578.713
 30
2786.801
 70
    32
  0
VERTEX
  8
T24SSILL
 62
8
 10
1496.849
 20
-3493.727
 30
2786.717
 70
    32
  0
VERTEX
  8
T24SSILL
 62
8
 10
1440.237
 20
-3426.702
 30
2786.754
 70
    32
  0
SEQEND
  8
T24SSILL
  0
POLYLINE
  8
T24SSILL
 62
8
 66
     1
 70
     9
  0
VERTEX
  8
T24SSILL
 62
8
 10
1430.393
 20
-3862.837
 30
2787.083
 70
    32
  0
VERTEX
  8
T24SSILL
 62
8
 10
1441.506
 20
-3878.792
 30
2787.113
 70
    32
  0
VERTEX
  8
T24SSILL
 62
8
 10
1441.098
 20
-3884.914
 30
2787.114
 70
    32
  0
VERTEX
  8
T24SSILL
 62
8
 10
1389.125
 20
-3884.476
 30
2787.230
 70
    32
  0
VERTEX
  8
T24SSILL
 62
8
 10
1373.152
 20
-3863.886
 30
2787.241
 70
    32
  0
VERTEX
  8
T24SSILL
 62
8
 10
1423.507
 20
-3862.963
 30
2787.068
 70
    32
  0
SEQEND
  8
T24SSILL
  0
POLYLINE
  8
T24SSILL
 62
8
 66
     1
 70
     9
  0
VERTEX
  8
T24SSILL
 62
8
 10
1422.103
 20
-3603.680
 30
2786.931
 70
    32
  0
VERTEX
  8
T24SSILL
 62
8
 10
1423.360
 20
-3597.688
 30
2786.918
 70
    32
  0
VERTEX
  8
T24SSILL
 62
8
 10
1453.778
 20
-3575.049
 30
2786.837
 70
    32
  0
VERTEX
  8
T24SSILL
 62
8
 10
1479.694
 20
-3577.791
 30
2786.808
 70
    32
  0
VERTEX
  8
T24SSILL
 62
8
 10
1511.456
 20
-3615.245
 30
2786.842
 70
    32
  0
VERTEX
  8
T24SSILL
 62
8
 10
1516.290
 20
-3628.570
 30
2786.870
 70
    32
  0
VERTEX
  8
T24SSILL
 62
8
 10
1514.152
 20
-3631.183
 30
2786.884
 70
    32
  0
VERTEX
  8
T24SSILL
 62
8
 10
1500.674
 20
-3629.824
 30
2786.886
 70
    32
  0
VERTEX
  8
T24SSILL
 62
8
 10
1495.174
 20
-3618.360
 30
2786.860
 70
    32
  0
VERTEX
  8
T24SSILL
 62
8
 10
1495.482
 20
-3612.163
 30
2786.852
 70
    32
  0
VERTEX
  8
T24SSILL
 62
8
 10
1493.732
 20
-3609.817
 30
2786.846
 70
    32
  0
VERTEX
  8
T24SSILL
 62
8
 10
1489.504
 20
-3608.258
 30
2786.837
 70
    32
  0
VERTEX
  8
T24SSILL
 62
8
 10
1484.178
 20
-3611.041
 30
2786.832
 70
    32
  0
VERTEX
  8
T24SSILL
 62
8
 10
1474.240
 20
-3611.426
 30
2786.864
 70
    32
  0
VERTEX
  8
T24SSILL
 62
8
 10
1458.961
 20
-3622.267
 30
2786.905
 70
    32
  0
VERTEX
  8
T24SSILL
 62
8
 10
1457.432
 20
-3632.557
 30
2786.915
 70
    32
  0
VERTEX
  8
T24SSILL
 62
8
 10
1438.987
 20
-3641.782
 30
2786.960
 70
    32
  0
VERTEX
  8
T24SSILL
 62
8
 10
1434.534
 20
-3637.934
 30
2786.962
 70
    32
  0
VERTEX
  8
T24SSILL
 62
8
 10
1430.357
 20
-3628.964
 30
2786.958
 70
    32
  0
VERTEX
  8
T24SSILL
 62
8
 10
1427.756
 20
-3626.914
 30
2786.959
 70
    32
  0
VERTEX
  8
T24SSILL
 62
8
 10
1423.304
 20
-3613.343
 30
2786.947
 70
    32
  0
SEQEND
  8
T24SSILL
  0
POLYLINE
  8
T24SSILL
 62
8
 66
     1
 70
     9
  0
VERTEX
  8
T24SSILL
 62
8
 10
2749.479
 20
-3892.995
 30
2786.190
 70
    32
  0
VERTEX
  8
T24SSILL
 62
8
 10
2764.161
 20
-3907.861
 30
2786.198
 70
    32
  0
VERTEX
  8
T24SSILL
 62
8
 10
2785.351
 20
-3925.807
 30
2786.206
 70
    32
  0
VERTEX
  8
T24SSILL
 62
8
 10
2798.017
 20
-3917.456
 30
2786.191
 70
    32
  0
VERTEX
  8
T24SSILL
 62
8
 10
2808.567
 20
-3929.859
 30
2786.200
 70
    32
  0
VERTEX
  8
T24SSILL
 62
8
 10
2729.136
 20
-3987.250
 30
2786.302
 70
    32
  0
VERTEX
  8
T24SSILL
 62
8
 10
2719.029
 20
-3972.224
 30
2786.292
 70
    32
  0
VERTEX
  8
T24SSILL
 62
8
 10
2687.560
 20
-3919.889
 30
2786.253
 70
    32
  0
VERTEX
  8
T24SSILL
 62
8
 10
2686.402
 20
-3920.764
 30
2786.254
 70
    32
  0
VERTEX
  8
T24SSILL
 62
8
 10
2681.317
 20
-3913.028
 30
2786.249
 70
    32
  0
VERTEX
  8
T24SSILL
 62
8
 10
2686.067
 20
-3909.688
 30
2786.243
 70
    32
  0
VERTEX
  8
T24SSILL
 62
8
 10
2673.233
 20
-3889.721
 30
2786.228
 70
    32
  0
VERTEX
  8
T24SSILL
 62
8
 10
2677.983
 20
-3886.556
 30
2786.222
 70
    32
  0
VERTEX
  8
T24SSILL
 62
8
 10
2673.712
 20
-3880.720
 30
2786.218
 70
    32
  0
VERTEX
  8
T24SSILL
 62
8
 10
2685.989
 20
-3871.784
 30
2786.202
 70
    32
  0
VERTEX
  8
T24SSILL
 62
8
 10
2669.989
 20
-3853.488
 30
2786.206
 70
    32
  0
VERTEX
  8
T24SSILL
 62
8
 10
2644.305
 20
-3827.354
 30
2786.253
 70
    32
  0
VERTEX
  8
T24SSILL
 62
8
 10
2654.871
 20
-3819.802
 30
2786.239
 70
    32
  0
VERTEX
  8
T24SSILL
 62
8
 10
2653.553
 20
-3817.867
 30
2786.242
 70
    32
  0
VERTEX
  8
T24SSILL
 62
8
 10
2672.025
 20
-3800.107
 30
2786.221
 70
    32
  0
VERTEX
  8
T24SSILL
 62
8
 10
2663.709
 20
-3791.717
 30
2786.236
 70
    32
  0
VERTEX
  8
T24SSILL
 62
8
 10
2666.850
 20
-3789.446
 30
2786.232
 70
    32
  0
VERTEX
  8
T24SSILL
 62
8
 10
2677.301
 20
-3803.626
 30
2786.212
 70
    32
  0
VERTEX
  8
T24SSILL
 62
8
 10
2663.052
 20
-3813.120
 30
2786.230
 70
    32
  0
VERTEX
  8
T24SSILL
 62
8
 10
2664.721
 20
-3817.870
 30
2786.226
 70
    32
  0
VERTEX
  8
T24SSILL
 62
8
 10
2666.304
 20
-3820.068
 30
2786.223
 70
    32
  0
VERTEX
  8
T24SSILL
 62
8
 10
2679.054
 20
-3827.107
 30
2786.202
 70
    32
  0
VERTEX
  8
T24SSILL
 62
8
 10
2694.531
 20
-3830.014
 30
2786.178
 70
    32
  0
VERTEX
  8
T24SSILL
 62
8
 10
2689.868
 20
-3837.487
 30
2786.182
 70
    32
  0
VERTEX
  8
T24SSILL
 62
8
 10
2689.514
 20
-3845.138
 30
2786.180
 70
    32
  0
VERTEX
  8
T24SSILL
 62
8
 10
2703.668
 20
-3864.841
 30
2786.185
 70
    32
  0
VERTEX
  8
T24SSILL
 62
8
 10
2729.793
 20
-3842.335
 30
2786.146
 70
    32
  0
VERTEX
  8
T24SSILL
 62
8
 10
2732.694
 20
-3845.853
 30
2786.148
 70
    32
  0
VERTEX
  8
T24SSILL
 62
8
 10
2728.120
 20
-3849.282
 30
2786.154
 70
    32
  0
VERTEX
  8
T24SSILL
 62
8
 10
2735.153
 20
-3859.573
 30
2786.162
 70
    32
  0
VERTEX
  8
T24SSILL
 62
8
 10
2698.297
 20
-3886.826
 30
2786.211
 70
    32
  0
VERTEX
  8
T24SSILL
 62
8
 10
2687.836
 20
-3872.224
 30
2786.201
 70
    32
  0
VERTEX
  8
T24SSILL
 62
8
 10
2678.512
 20
-3878.202
 30
2786.213
 70
    32
  0
VERTEX
  8
T24SSILL
 62
8
 10
2694.775
 20
-3903.358
 30
2786.231
 70
    32
  0
VERTEX
  8
T24SSILL
 62
8
 10
2705.066
 20
-3896.765
 30
2786.218
 70
    32
  0
VERTEX
  8
T24SSILL
 62
8
 10
2701.902
 20
-3891.927
 30
2786.215
 70
    32
  0
VERTEX
  8
T24SSILL
 62
8
 10
2739.109
 20
-3864.587
 30
2786.165
 70
    32
  0
VERTEX
  8
T24SSILL
 62
8
 10
2745.614
 20
-3873.559
 30
2786.171
 70
    32
  0
VERTEX
  8
T24SSILL
 62
8
 10
2751.243
 20
-3870.130
 30
2786.164
 70
    32
  0
VERTEX
  8
T24SSILL
 62
8
 10
2753.529
 20
-3874.001
 30
2786.167
 70
    32
  0
VERTEX
  8
T24SSILL
 62
8
 10
2746.932
 20
-3879.187
 30
2786.176
 70
    32
  0
VERTEX
  8
T24SSILL
 62
8
 10
2743.677
 20
-3884.111
 30
2786.183
 70
    32
  0
SEQEND
  8
T24SSILL
  0
POLYLINE
  8
T24SSILL
 62
8
 66
     1
 70
     9
  0
VERTEX
  8
T24SSILL
 62
8
 10
2793.100
 20
-3885.004
 30
2786.157
 70
    32
  0
VERTEX
  8
T24SSILL
 62
8
 10
2788.705
 20
-3879.902
 30
2786.154
 70
    32
  0
VERTEX
  8
T24SSILL
 62
8
 10
2783.515
 20
-3884.034
 30
2786.161
 70
    32
  0
VERTEX
  8
T24SSILL
 62
8
 10
2778.943
 20
-3878.844
 30
2786.158
 70
    32
  0
VERTEX
  8
T24SSILL
 62
8
 10
2783.957
 20
-3874.888
 30
2786.151
 70
    32
  0
VERTEX
  8
T24SSILL
 62
8
 10
2772.704
 20
-3862.661
 30
2786.144
 70
    32
  0
VERTEX
  8
T24SSILL
 62
8
 10
2765.140
 20
-3865.385
 30
2786.151
 70
    32
  0
VERTEX
  8
T24SSILL
 62
8
 10
2754.766
 20
-3851.839
 30
2786.143
 70
    32
  0
VERTEX
  8
T24SSILL
 62
8
 10
2759.252
 20
-3848.762
 30
2786.137
 70
    32
  0
VERTEX
  8
T24SSILL
 62
8
 10
2755.472
 20
-3842.957
 30
2786.133
 70
    32
  0
VERTEX
  8
T24SSILL
 62
8
 10
2753.361
 20
-3843.924
 30
2786.135
 70
    32
  0
VERTEX
  8
T24SSILL
 62
8
 10
2747.207
 20
-3834.952
 30
2786.129
 70
    32
  0
VERTEX
  8
T24SSILL
 62
8
 10
2742.106
 20
-3838.644
 30
2786.135
 70
    32
  0
VERTEX
  8
T24SSILL
 62
8
 10
2739.556
 20
-3835.126
 30
2786.133
 70
    32
  0
VERTEX
  8
T24SSILL
 62
8
 10
2736.305
 20
-3824.572
 30
2786.123
 70
    32
  0
VERTEX
  8
T24SSILL
 62
8
 10
2728.307
 20
-3808.828
 30
2786.135
 70
    32
  0
VERTEX
  8
T24SSILL
 62
8
 10
2714.506
 20
-3785.080
 30
2786.163
 70
    32
  0
VERTEX
  8
T24SSILL
 62
8
 10
2710.726
 20
-3779.538
 30
2786.171
 70
    32
  0
VERTEX
  8
T24SSILL
 62
8
 10
2706.416
 20
-3782.615
 30
2786.176
 70
    32
  0
VERTEX
  8
T24SSILL
 62
8
 10
2696.130
 20
-3768.806
 30
2786.195
 70
    32
  0
VERTEX
  8
T24SSILL
 62
8
 10
2787.344
 20
-3703.928
 30
2786.049
 70
    32
  0
VERTEX
  8
T24SSILL
 62
8
 10
2840.267
 20
-3776.495
 30
2786.016
 70
    32
  0
VERTEX
  8
T24SSILL
 62
8
 10
2855.297
 20
-3807.543
 30
2786.044
 70
    32
  0
VERTEX
  8
T24SSILL
 62
8
 10
2857.756
 20
-3817.481
 30
2786.054
 70
    32
  0
VERTEX
  8
T24SSILL
 62
8
 10
2878.417
 20
-3840.967
 30
2786.072
 70
    32
  0
VERTEX
  8
T24SSILL
 62
8
 10
2892.925
 20
-3850.117
 30
2786.079
 70
    32
  0
VERTEX
  8
T24SSILL
 62
8
 10
2900.133
 20
-3863.046
 30
2786.090
 70
    32
  0
VERTEX
  8
T24SSILL
 62
8
 10
2818.154
 20
-3923.002
 30
2786.188
 70
    32
  0
VERTEX
  8
T24SSILL
 62
8
 10
2812.702
 20
-3922.473
 30
2786.190
 70
    32
  0
VERTEX
  8
T24SSILL
 62
8
 10
2808.746
 20
-3918.250
 30
2786.187
 70
    32
  0
VERTEX
  8
T24SSILL
 62
8
 10
2803.910
 20
-3911.478
 30
2786.182
 70
    32
  0
VERTEX
  8
T24SSILL
 62
8
 10
2804.351
 20
-3909.367
 30
2786.179
 70
    32
  0
VERTEX
  8
T24SSILL
 62
8
 10
2798.286
 20
-3896.878
 30
2786.168
 70
    32
  0
SEQEND
  8
T24SSILL
  0
POLYLINE
  8
T24SSILL
 62
8
 66
     1
 70
     9
  0
VERTEX
  8
T24SSILL
 62
8
 10
2839.079
 20
-3944.202
 30
2786.203
 70
    32
  0
VERTEX
  8
T24SSILL
 62
8
 10
2848.838
 20
-3952.823
 30
2786.208
 70
    32
  0
VERTEX
  8
T24SSILL
 62
8
 10
2857.719
 20
-3957.662
 30
2786.209
 70
    32
  0
VERTEX
  8
T24SSILL
 62
8
 10
2869.942
 20
-3962.414
 30
2786.209
 70
    32
  0
VERTEX
  8
T24SSILL
 62
8
 10
2884.365
 20
-3962.682
 30
2786.203
 70
    32
  0
VERTEX
  8
T24SSILL
 62
8
 10
2892.366
 20
-3968.312
 30
2786.206
 70
    32
  0
VERTEX
  8
T24SSILL
 62
8
 10
2894.740
 20
-3970.951
 30
2786.208
 70
    32
  0
VERTEX
  8
T24SSILL
 62
8
 10
2888.583
 20
-3975.698
 30
2786.216
 70
    32
  0
VERTEX
  8
T24SSILL
 62
8
 10
2907.835
 20
-4002.350
 30
2786.237
 70
    32
  0
VERTEX
  8
T24SSILL
 62
8
 10
2902.206
 20
-4006.130
 30
2786.244
 70
    32
  0
VERTEX
  8
T24SSILL
 62
8
 10
2898.162
 20
-4000.853
 30
2786.240
 70
    32
  0
VERTEX
  8
T24SSILL
 62
8
 10
2891.125
 20
-4005.863
 30
2786.248
 70
    32
  0
VERTEX
  8
T24SSILL
 62
8
 10
2902.291
 20
-4015.804
 30
2786.254
 70
    32
  0
VERTEX
  8
T24SSILL
 62
8
 10
2914.338
 20
-4019.589
 30
2786.253
 70
    32
  0
VERTEX
  8
T24SSILL
 62
8
 10
2923.395
 20
-4024.340
 30
2786.255
 70
    32
  0
VERTEX
  8
T24SSILL
 62
8
 10
2939.838
 20
-4033.930
 30
2786.258
 70
    32
  0
VERTEX
  8
T24SSILL
 62
8
 10
2946.432
 20
-4039.296
 30
2786.261
 70
    32
  0
VERTEX
  8
T24SSILL
 62
8
 10
2955.312
 20
-4050.292
 30
2786.269
 70
    32
  0
VERTEX
  8
T24SSILL
 62
8
 10
2954.432
 20
-4052.930
 30
2786.273
 70
    32
  0
VERTEX
  8
T24SSILL
 62
8
 10
2948.098
 20
-4059.084
 30
2786.282
 70
    32
  0
VERTEX
  8
T24SSILL
 62
8
 10
2947.393
 20
-4063.745
 30
2786.288
 70
    32
  0
VERTEX
  8
T24SSILL
 62
8
 10
2957.152
 20
-4073.333
 30
2786.294
 70
    32
  0
VERTEX
  8
T24SSILL
 62
8
 10
3020.923
 20
-4027.620
 30
2786.233
 70
    32
  0
VERTEX
  8
T24SSILL
 62
8
 10
2964.660
 20
-3950.831
 30
2786.166
 70
    32
  0
VERTEX
  8
T24SSILL
 62
8
 10
2943.901
 20
-3965.775
 30
2786.181
 70
    32
  0
VERTEX
  8
T24SSILL
 62
8
 10
2939.770
 20
-3960.322
 30
2786.176
 70
    32
  0
VERTEX
  8
T24SSILL
 62
8
 10
2961.056
 20
-3945.817
 30
2786.162
 70
    32
  0
VERTEX
  8
T24SSILL
 62
8
 10
2906.551
 20
-3869.644
 30
2786.096
 70
    32
  0
VERTEX
  8
T24SSILL
 62
8
 10
2822.462
 20
-3928.280
 30
2786.192
 70
    32
  0
VERTEX
  8
T24SSILL
 62
8
 10
2824.835
 20
-3935.492
 30
2786.199
 70
    32
  0
VERTEX
  8
T24SSILL
 62
8
 10
2830.285
 20
-3942.177
 30
2786.204
 70
    32
  0
VERTEX
  8
T24SSILL
 62
8
 10
2833.363
 20
-3942.090
 30
2786.203
 70
    32
  0
VERTEX
  8
T24SSILL
 62
8
 10
2835.826
 20
-3940.419
 30
2786.200
 70
    32
  0
SEQEND
  8
T24SSILL
  0
POLYLINE
  8
T24SSILL
 62
8
 66
     1
 70
     9
  0
VERTEX
  8
T24SSILL
 62
8
 10
2909.407
 20
-4043.420
 30
2786.282
 70
    32
  0
VERTEX
  8
T24SSILL
 62
8
 10
2927.077
 20
-4068.840
 30
2786.302
 70
    32
  0
VERTEX
  8
T24SSILL
 62
8
 10
2931.474
 20
-4070.688
 30
2786.303
 70
    32
  0
VERTEX
  8
T24SSILL
 62
8
 10
2940.269
 20
-4065.326
 30
2786.293
 70
    32
  0
VERTEX
  8
T24SSILL
 62
8
 10
2950.995
 20
-4077.465
 30
2786.301
 70
    32
  0
VERTEX
  8
T24SSILL
 62
8
 10
2933.667
 20
-4089.772
 30
2786.323
 70
    32
  0
VERTEX
  8
T24SSILL
 62
8
 10
2922.590
 20
-4076.226
 30
2786.313
 70
    32
  0
VERTEX
  8
T24SSILL
 62
8
 10
2915.378
 20
-4080.797
 30
2786.321
 70
    32
  0
VERTEX
  8
T24SSILL
 62
8
 10
2927.510
 20
-4094.695
 30
2786.331
 70
    32
  0
VERTEX
  8
T24SSILL
 62
8
 10
2847.995
 20
-4151.134
 30
2786.429
 70
    32
  0
VERTEX
  8
T24SSILL
 62
8
 10
2843.863
 20
-4145.768
 30
2786.424
 70
    32
  0
VERTEX
  8
T24SSILL
 62
8
 10
2839.025
 20
-4149.109
 30
2786.430
 70
    32
  0
VERTEX
  8
T24SSILL
 62
8
 10
2842.717
 20
-4154.650
 30
2786.435
 70
    32
  0
VERTEX
  8
T24SSILL
 62
8
 10
2829.347
 20
-4163.969
 30
2786.451
 70
    32
  0
VERTEX
  8
T24SSILL
 62
8
 10
2828.116
 20
-4163.001
 30
2786.451
 70
    32
  0
VERTEX
  8
T24SSILL
 62
8
 10
2822.400
 20
-4163.527
 30
2786.454
 70
    32
  0
VERTEX
  8
T24SSILL
 62
8
 10
2801.566
 20
-4131.422
 30
2786.427
 70
    32
  0
VERTEX
  8
T24SSILL
 62
8
 10
2848.184
 20
-4098.192
 30
2786.370
 70
    32
  0
VERTEX
  8
T24SSILL
 62
8
 10
2840.448
 20
-4088.604
 30
2786.362
 70
    32
  0
VERTEX
  8
T24SSILL
 62
8
 10
2830.159
 20
-4086.755
 30
2786.365
 70
    32
  0
VERTEX
  8
T24SSILL
 62
8
 10
2811.160
 20
-4098.095
 30
2786.386
 70
    32
  0
VERTEX
  8
T24SSILL
 62
8
 10
2789.622
 20
-4068.540
 30
2786.363
 70
    32
  0
VERTEX
  8
T24SSILL
 62
8
 10
2778.545
 20
-4056.225
 30
2786.354
 70
    32
  0
VERTEX
  8
T24SSILL
 62
8
 10
2764.741
 20
-4044.173
 30
2786.346
 70
    32
  0
VERTEX
  8
T24SSILL
 62
8
 10
2759.375
 20
-4049.185
 30
2786.354
 70
    32
  0
VERTEX
  8
T24SSILL
 62
8
 10
2777.398
 20
-4067.218
 30
2786.366
 70
    32
  0
VERTEX
  8
T24SSILL
 62
8
 10
2783.817
 20
-4071.968
 30
2786.369
 70
    32
  0
VERTEX
  8
T24SSILL
 62
8
 10
2809.575
 20
-4106.537
 30
2786.396
 70
    32
  0
VERTEX
  8
T24SSILL
 62
8
 10
2803.242
 20
-4111.987
 30
2786.405
 70
    32
  0
VERTEX
  8
T24SSILL
 62
8
 10
2806.143
 20
-4116.034
 30
2786.408
 70
    32
  0
VERTEX
  8
T24SSILL
 62
8
 10
2811.772
 20
-4112.429
 30
2786.402
 70
    32
  0
VERTEX
  8
T24SSILL
 62
8
 10
2811.684
 20
-4115.595
 30
2786.405
 70
    32
  0
VERTEX
  8
T24SSILL
 62
8
 10
2797.698
 20
-4125.265
 30
2786.422
 70
    32
  0
VERTEX
  8
T24SSILL
 62
8
 10
2775.633
 20
-4093.248
 30
2786.396
 70
    32
  0
VERTEX
  8
T24SSILL
 62
8
 10
2780.559
 20
-4088.765
 30
2786.389
 70
    32
  0
VERTEX
  8
T24SSILL
 62
8
 10
2781.176
 20
-4084.456
 30
2786.384
 70
    32
  0
VERTEX
  8
T24SSILL
 62
8
 10
2777.660
 20
-4074.165
 30
2786.374
 70
    32
  0
VERTEX
  8
T24SSILL
 62
8
 10
2762.891
 20
-4055.166
 30
2786.359
 70
    32
  0
VERTEX
  8
T24SSILL
 62
8
 10
2760.693
 20
-4054.198
 30
2786.359
 70
    32
  0
VERTEX
  8
T24SSILL
 62
8
 10
2751.194
 20
-4057.361
 30
2786.367
 70
    32
  0
VERTEX
  8
T24SSILL
 62
8
 10
2745.393
 20
-4047.158
 30
2786.358
 70
    32
  0
VERTEX
  8
T24SSILL
 62
8
 10
2745.657
 20
-4044.784
 30
2786.356
 70
    32
  0
VERTEX
  8
T24SSILL
 62
8
 10
2751.463
 20
-4038.805
 30
2786.346
 70
    32
  0
VERTEX
  8
T24SSILL
 62
8
 10
2754.454
 20
-4033.705
 30
2786.339
 70
    32
  0
VERTEX
  8
T24SSILL
 62
8
 10
2755.599
 20
-4028.781
 30
2786.333
 70
    32
  0
VERTEX
  8
T24SSILL
 62
8
 10
2754.809
 20
-4022.800
 30
2786.327
 70
    32
  0
VERTEX
  8
T24SSILL
 62
8
 10
2752.349
 20
-4013.654
 30
2786.318
 70
    32
  0
VERTEX
  8
T24SSILL
 62
8
 10
2749.009
 20
-4007.849
 30
2786.314
 70
    32
  0
VERTEX
  8
T24SSILL
 62
8
 10
2746.371
 20
-4004.946
 30
2786.312
 70
    32
  0
VERTEX
  8
T24SSILL
 62
8
 10
2743.205
 20
-4007.056
 30
2786.316
 70
    32
  0
VERTEX
  8
T24SSILL
 62
8
 10
2733.007
 20
-3992.718
 30
2786.306
 70
    32
  0
VERTEX
  8
T24SSILL
 62
8
 10
2814.194
 20
-3934.082
 30
2786.202
 70
    32
  0
VERTEX
  8
T24SSILL
 62
8
 10
2825.799
 20
-3946.836
 30
2786.211
 70
    32
  0
VERTEX
  8
T24SSILL
 62
8
 10
2823.776
 20
-3949.562
 30
2786.215
 70
    32
  0
VERTEX
  8
T24SSILL
 62
8
 10
2812.077
 20
-3958.353
 30
2786.230
 70
    32
  0
VERTEX
  8
T24SSILL
 62
8
 10
2822.623
 20
-3986.058
 30
2786.256
 70
    32
  0
VERTEX
  8
T24SSILL
 62
8
 10
2837.655
 20
-4008.839
 30
2786.275
 70
    32
  0
VERTEX
  8
T24SSILL
 62
8
 10
2839.413
 20
-4010.511
 30
2786.276
 70
    32
  0
VERTEX
  8
T24SSILL
 62
8
 10
2845.071
 20
-4007.684
 30
2786.271
 70
    32
  0
VERTEX
  8
T24SSILL
 62
8
 10
2855.669
 20
-4022.452
 30
2786.282
 70
    32
  0
VERTEX
  8
T24SSILL
 62
8
 10
2813.723
 20
-4051.837
 30
2786.333
 70
    32
  0
VERTEX
  8
T24SSILL
 62
8
 10
2817.415
 20
-4057.994
 30
2786.339
 70
    32
  0
VERTEX
  8
T24SSILL
 62
8
 10
2859.587
 20
-4027.911
 30
2786.287
 70
    32
  0
VERTEX
  8
T24SSILL
 62
8
 10
2868.690
 20
-4040.595
 30
2786.297
 70
    32
  0
VERTEX
  8
T24SSILL
 62
8
 10
2872.913
 20
-4037.254
 30
2786.291
 70
    32
  0
VERTEX
  8
T24SSILL
 62
8
 10
2863.902
 20
-4024.833
 30
2786.281
 70
    32
  0
VERTEX
  8
T24SSILL
 62
8
 10
2885.936
 20
-4009.116
 30
2786.254
 70
    32
  0
VERTEX
  8
T24SSILL
 62
8
 10
2896.222
 20
-4018.617
 30
2786.260
 70
    32
  0
VERTEX
  8
T24SSILL
 62
8
 10
2892.879
 20
-4026.003
 30
2786.270
 70
    32
  0
VERTEX
  8
T24SSILL
 62
8
 10
2903.693
 20
-4035.855
 30
2786.276
 70
    32
  0
SEQEND
  8
T24SSILL
  0
POLYLINE
  8
T24SSILL
 62
8
 66
     1
 70
     9
  0
VERTEX
  8
T24SSILL
 62
8
 10
2571.294
 20
-3606.430
 30
2786.355
 70
    32
  0
VERTEX
  8
T24SSILL
 62
8
 10
2573.931
 20
-3610.652
 30
2786.353
 70
    32
  0
VERTEX
  8
T24SSILL
 62
8
 10
2568.038
 20
-3615.135
 30
2786.364
 70
    32
  0
VERTEX
  8
T24SSILL
 62
8
 10
2565.664
 20
-3610.562
 30
2786.366
 70
    32
  0
VERTEX
  8
T24SSILL
 62
8
 10
2553.526
 20
-3619.265
 30
2786.389
 70
    32
  0
VERTEX
  8
T24SSILL
 62
8
 10
2565.483
 20
-3632.108
 30
2786.375
 70
    32
  0
VERTEX
  8
T24SSILL
 62
8
 10
2603.555
 20
-3657.269
 30
2786.324
 70
    32
  0
VERTEX
  8
T24SSILL
 62
8
 10
2612.523
 20
-3667.913
 30
2786.314
 70
    32
  0
VERTEX
  8
T24SSILL
 62
8
 10
2614.368
 20
-3675.652
 30
2786.314
 70
    32
  0
VERTEX
  8
T24SSILL
 62
8
 10
2615.335
 20
-3675.213
 30
2786.312
 70
    32
  0
VERTEX
  8
T24SSILL
 62
8
 10
2618.763
 20
-3680.402
 30
2786.309
 70
    32
  0
VERTEX
  8
T24SSILL
 62
8
 10
2624.217
 20
-3677.502
 30
2786.299
 70
    32
  0
VERTEX
  8
T24SSILL
 62
8
 10
2627.469
 20
-3682.603
 30
2786.296
 70
    32
  0
VERTEX
  8
T24SSILL
 62
8
 10
2622.983
 20
-3685.944
 30
2786.304
 70
    32
  0
VERTEX
  8
T24SSILL
 62
8
 10
2628.697
 20
-3694.828
 30
2786.299
 70
    32
  0
VERTEX
  8
T24SSILL
 62
8
 10
2633.535
 20
-3691.575
 30
2786.290
 70
    32
  0
VERTEX
  8
T24SSILL
 62
8
 10
2640.128
 20
-3701.251
 30
2786.283
 70
    32
  0
VERTEX
  8
T24SSILL
 62
8
 10
2635.202
 20
-3704.767
 30
2786.292
 70
    32
  0
VERTEX
  8
T24SSILL
 62
8
 10
2637.224
 20
-3707.670
 30
2786.290
 70
    32
  0
VERTEX
  8
T24SSILL
 62
8
 10
2647.516
 20
-3700.285
 30
2786.271
 70
    32
  0
VERTEX
  8
T24SSILL
 62
8
 10
2657.099
 20
-3709.961
 30
2786.259
 70
    32
  0
VERTEX
  8
T24SSILL
 62
8
 10
2665.187
 20
-3718.758
 30
2786.250
 70
    32
  0
VERTEX
  8
T24SSILL
 62
8
 10
2671.077
 20
-3727.378
 30
2786.244
 70
    32
  0
VERTEX
  8
T24SSILL
 62
8
 10
2678.902
 20
-3734.855
 30
2786.232
 70
    32
  0
VERTEX
  8
T24SSILL
 62
8
 10
2684.791
 20
-3747.784
 30
2786.219
 70
    32
  0
VERTEX
  8
T24SSILL
 62
8
 10
2682.240
 20
-3749.191
 30
2786.222
 70
    32
  0
VERTEX
  8
T24SSILL
 62
8
 10
2688.745
 20
-3759.130
 30
2786.209
 70
    32
  0
VERTEX
  8
T24SSILL
 62
8
 10
2690.328
 20
-3758.427
 30
2786.207
 70
    32
  0
VERTEX
  8
T24SSILL
 62
8
 10
2693.142
 20
-3762.297
 30
2786.202
 70
    32
  0
VERTEX
  8
T24SSILL
 62
8
 10
2778.111
 20
-3701.375
 30
2786.063
 70
    32
  0
VERTEX
  8
T24SSILL
 62
8
 10
2781.366
 20
-3694.780
 30
2786.055
 70
    32
  0
VERTEX
  8
T24SSILL
 62
8
 10
2668.313
 20
-3536.893
 30
2786.173
 70
    32
  0
VERTEX
  8
T24SSILL
 62
8
 10
2613.338
 20
-3576.013
 30
2786.276
 70
    32
  0
VERTEX
  8
T24SSILL
 62
8
 10
2620.811
 20
-3586.744
 30
2786.269
 70
    32
  0
VERTEX
  8
T24SSILL
 62
8
 10
2615.797
 20
-3590.260
 30
2786.278
 70
    32
  0
VERTEX
  8
T24SSILL
 62
8
 10
2611.402
 20
-3583.751
 30
2786.283
 70
    32
  0
VERTEX
  8
T24SSILL
 62
8
 10
2607.092
 20
-3586.916
 30
2786.291
 70
    32
  0
VERTEX
  8
T24SSILL
 62
8
 10
2617.377
 20
-3601.165
 30
2786.280
 70
    32
  0
VERTEX
  8
T24SSILL
 62
8
 10
2612.715
 20
-3604.418
 30
2786.289
 70
    32
  0
VERTEX
  8
T24SSILL
 62
8
 10
2615.968
 20
-3609.608
 30
2786.285
 70
    32
  0
VERTEX
  8
T24SSILL
 62
8
 10
2611.394
 20
-3613.212
 30
2786.294
 70
    32
  0
VERTEX
  8
T24SSILL
 62
8
 10
2593.723
 20
-3590.254
 30
2786.313
 70
    32
  0
SEQEND
  8
T24SSILL
  0
POLYLINE
  8
T24SSILL
 62
8
 66
     1
 70
     9
  0
VERTEX
  8
T24SSILL
 62
8
 10
2441.477
 20
-3541.191
 30
2786.535
 70
    32
  0
VERTEX
  8
T24SSILL
 62
8
 10
2442.533
 20
-3543.674
 30
2786.535
 70
    32
  0
VERTEX
  8
T24SSILL
 62
8
 10
2464.200
 20
-3528.132
 30
2786.494
 70
    32
  0
VERTEX
  8
T24SSILL
 62
8
 10
2474.615
 20
-3543.029
 30
2786.485
 70
    32
  0
VERTEX
  8
T24SSILL
 62
8
 10
2486.536
 20
-3534.294
 30
2786.462
 70
    32
  0
VERTEX
  8
T24SSILL
 62
8
 10
2482.931
 20
-3529.105
 30
2786.466
 70
    32
  0
VERTEX
  8
T24SSILL
 62
8
 10
2487.593
 20
-3525.500
 30
2786.457
 70
    32
  0
VERTEX
  8
T24SSILL
 62
8
 10
2484.517
 20
-3520.926
 30
2786.460
 70
    32
  0
VERTEX
  8
T24SSILL
 62
8
 10
2489.090
 20
-3517.498
 30
2786.451
 70
    32
  0
VERTEX
  8
T24SSILL
 62
8
 10
2486.629
 20
-3512.572
 30
2786.453
 70
    32
  0
VERTEX
  8
T24SSILL
 62
8
 10
2484.431
 20
-3512.484
 30
2786.456
 70
    32
  0
VERTEX
  8
T24SSILL
 62
8
 10
2473.178
 20
-3498.410
 30
2786.466
 70
    32
  0
VERTEX
  8
T24SSILL
 62
8
 10
2476.960
 20
-3495.597
 30
2786.459
 70
    32
  0
VERTEX
  8
T24SSILL
 62
8
 10
2473.796
 20
-3490.319
 30
2786.461
 70
    32
  0
VERTEX
  8
T24SSILL
 62
8
 10
2469.134
 20
-3492.781
 30
2786.469
 70
    32
  0
VERTEX
  8
T24SSILL
 62
8
 10
2466.585
 20
-3488.119
 30
2786.471
 70
    32
  0
VERTEX
  8
T24SSILL
 62
8
 10
2466.411
 20
-3478.797
 30
2786.466
 70
    32
  0
VERTEX
  8
T24SSILL
 62
8
 10
2457.886
 20
-3459.359
 30
2786.469
 70
    32
  0
VERTEX
  8
T24SSILL
 62
8
 10
2459.118
 20
-3456.106
 30
2786.466
 70
    32
  0
VERTEX
  8
T24SSILL
 62
8
 10
2452.173
 20
-3446.782
 30
2786.472
 70
    32
  0
VERTEX
  8
T24SSILL
 62
8
 10
2415.846
 20
-3473.155
 30
2786.540
 70
    32
  0
VERTEX
  8
T24SSILL
 62
8
 10
2414.789
 20
-3476.585
 30
2786.543
 70
    32
  0
VERTEX
  8
T24SSILL
 62
8
 10
2415.580
 20
-3480.278
 30
2786.544
 70
    32
  0
VERTEX
  8
T24SSILL
 62
8
 10
2419.740
 20
-3490.064
 30
2786.542
 70
    32
  0
VERTEX
  8
T24SSILL
 62
8
 10
2435.280
 20
-3478.877
 30
2786.513
 70
    32
  0
VERTEX
  8
T24SSILL
 62
8
 10
2438.444
 20
-3484.330
 30
2786.511
 70
    32
  0
VERTEX
  8
T24SSILL
 62
8
 10
2443.634
 20
-3480.726
 30
2786.502
 70
    32
  0
VERTEX
  8
T24SSILL
 62
8
 10
2467.985
 20
-3514.150
 30
2786.482
 70
    32
  0
VERTEX
  8
T24SSILL
 62
8
 10
2457.958
 20
-3521.535
 30
2786.500
 70
    32
  0
VERTEX
  8
T24SSILL
 62
8
 10
2461.122
 20
-3526.373
 30
2786.498
 70
    32
  0
SEQEND
  8
T24SSILL
  0
POLYLINE
  8
T24SSILL
 62
8
 66
     1
 70
     9
  0
VERTEX
  8
T24SSILL
 62
8
 10
2495.614
 20
-3456.115
 30
2786.411
 70
    32
  0
VERTEX
  8
T24SSILL
 62
8
 10
2498.075
 20
-3459.509
 30
2786.409
 70
    32
  0
VERTEX
  8
T24SSILL
 62
8
 10
2499.923
 20
-3459.019
 30
2786.406
 70
    32
  0
VERTEX
  8
T24SSILL
 62
8
 10
2501.367
 20
-3463.749
 30
2786.406
 70
    32
  0
VERTEX
  8
T24SSILL
 62
8
 10
2515.571
 20
-3479.865
 30
2786.393
 70
    32
  0
VERTEX
  8
T24SSILL
 62
8
 10
2518.119
 20
-3490.243
 30
2786.394
 70
    32
  0
VERTEX
  8
T24SSILL
 62
8
 10
2492.347
 20
-3508.441
 30
2786.442
 70
    32
  0
VERTEX
  8
T24SSILL
 62
8
 10
2494.984
 20
-3513.894
 30
2786.441
 70
    32
  0
VERTEX
  8
T24SSILL
 62
8
 10
2505.099
 20
-3506.421
 30
2786.422
 70
    32
  0
VERTEX
  8
T24SSILL
 62
8
 10
2511.428
 20
-3516.536
 30
2786.416
 70
    32
  0
VERTEX
  8
T24SSILL
 62
8
 10
2531.747
 20
-3502.559
 30
2786.378
 70
    32
  0
VERTEX
  8
T24SSILL
 62
8
 10
2528.055
 20
-3496.578
 30
2786.381
 70
    32
  0
VERTEX
  8
T24SSILL
 62
8
 10
2533.772
 20
-3492.446
 30
2786.371
 70
    32
  0
VERTEX
  8
T24SSILL
 62
8
 10
2537.552
 20
-3497.811
 30
2786.367
 70
    32
  0
VERTEX
  8
T24SSILL
 62
8
 10
2603.434
 20
-3450.515
 30
2786.243
 70
    32
  0
VERTEX
  8
T24SSILL
 62
8
 10
2547.521
 20
-3377.860
 30
2786.293
 70
    32
  0
VERTEX
  8
T24SSILL
 62
8
 10
2545.587
 20
-3376.628
 30
2786.296
 70
    32
  0
VERTEX
  8
T24SSILL
 62
8
 10
2544.004
 20
-3376.803
 30
2786.298
 70
    32
  0
VERTEX
  8
T24SSILL
 62
8
 10
2461.409
 20
-3438.694
 30
2786.454
 70
    32
  0
VERTEX
  8
T24SSILL
 62
8
 10
2470.200
 20
-3450.656
 30
2786.447
 70
    32
  0
VERTEX
  8
T24SSILL
 62
8
 10
2485.505
 20
-3440.283
 30
2786.418
 70
    32
  0
VERTEX
  8
T24SSILL
 62
8
 10
2489.902
 20
-3442.483
 30
2786.413
 70
    32
  0
VERTEX
  8
T24SSILL
 62
8
 10
2493.593
 20
-3450.223
 30
2786.411
 70
    32
  0
SEQEND
  8
T24SSILL
  0
POLYLINE
  8
T24SSILL
 62
8
 66
     1
 70
     9
  0
VERTEX
  8
T24SSILL
 62
8
 10
2454.923
 20
-3690.033
 30
2786.574
 70
    32
  0
VERTEX
  8
T24SSILL
 62
8
 10
2428.359
 20
-3708.142
 30
2786.608
 70
    32
  0
VERTEX
  8
T24SSILL
 62
8
 10
2463.626
 20
-3707.714
 30
2786.557
 70
    32
  0
VERTEX
  8
T24SSILL
 62
8
 10
2491.508
 20
-3686.789
 30
2786.514
 70
    32
  0
VERTEX
  8
T24SSILL
 62
8
 10
2484.124
 20
-3676.322
 30
2786.522
 70
    32
  0
VERTEX
  8
T24SSILL
 62
8
 10
2458.527
 20
-3695.574
 30
2786.568
 70
    32
  0
VERTEX
  8
T24SSILL
 62
8
 10
2456.396
 20
-3692.298
 30
2786.572
 70
    32
  0
SEQEND
  8
T24SSILL
  0
POLYLINE
  8
T24SSILL
 62
8
 66
     1
 70
     9
  0
VERTEX
  8
T24SSILL
 62
8
 10
2633.963
 20
-3737.306
 30
2786.297
 70
    32
  0
VERTEX
  8
T24SSILL
 62
8
 10
2642.052
 20
-3743.024
 30
2786.283
 70
    32
  0
VERTEX
  8
T24SSILL
 62
8
 10
2612.497
 20
-3764.210
 30
2786.320
 70
    32
  0
VERTEX
  8
T24SSILL
 62
8
 10
2613.120
 20
-3735.629
 30
2786.328
 70
    32
  0
VERTEX
  8
T24SSILL
 62
8
 10
2606.439
 20
-3728.152
 30
2786.340
 70
    32
  0
VERTEX
  8
T24SSILL
 62
8
 10
2622.766
 20
-3717.289
 30
2786.317
 70
    32
  0
VERTEX
  8
T24SSILL
 62
8
 10
2622.094
 20
-3722.440
 30
2786.319
 70
    32
  0
VERTEX
  8
T24SSILL
 62
8
 10
2627.545
 20
-3727.542
 30
2786.310
 70
    32
  0
VERTEX
  8
T24SSILL
 62
8
 10
2631.237
 20
-3733.787
 30
2786.302
 70
    32
  0
SEQEND
  8
T24SSILL
  0
TEXT
  8
T24SSILL
 62
8
 10
-405.132
 20
-3962.128
 30
2787.458
 40
0.200
  1
2450
 41
 1.0 
  0
ENDSEC
  0
EOF
