999
********************************
999
*   DXF File - Entities Only   *
999
*        3D Data Format        *
999
*     Output from ENVISAGE     *
999
*     20-Dec-2007 09:20:38     *
999
********************************
  0
SECTION 
  2
HEADER
  9
$ACADVER
  1
AC1009
  9
$EXTMIN
 10
-290000.000
 20
-250000.000
 30
-4000.000
  9
$EXTMAX
 10
5000000.000
 20
600000.000
 30
6000.000
  0
ENDSEC
  0
SECTION
  2
ENTITIES
  0
POLYLINE
  8
T26SSILL
 62
2
 66
     1
 70
     9
  0
VERTEX
  8
T26SSILL
 62
2
 10
324.459
 20
-2576.190
 30
2635.543
 70
    32
  0
VERTEX
  8
T26SSILL
 62
2
 10
347.667
 20
-2607.928
 30
2635.544
 70
    32
  0
VERTEX
  8
T26SSILL
 62
2
 10
379.227
 20
-2585.071
 30
2635.501
 70
    32
  0
SEQEND
  8
T26SSILL
  0
POLYLINE
  8
T26SSILL
 62
2
 66
     1
 70
     9
  0
VERTEX
  8
T26SSILL
 62
2
 10
2877.723
 20
-4011.582
 30
2633.461
 70
    32
  0
VERTEX
  8
T26SSILL
 62
2
 10
2873.587
 20
-4005.103
 30
2633.450
 70
    32
  0
VERTEX
  8
T26SSILL
 62
2
 10
2867.030
 20
-4009.276
 30
2633.454
 70
    32
  0
VERTEX
  8
T26SSILL
 62
2
 10
2871.529
 20
-4016.318
 30
2633.466
 70
    32
  0
VERTEX
  8
T26SSILL
 62
2
 10
2851.594
 20
-4031.559
 30
2633.484
 70
    32
  0
VERTEX
  8
T26SSILL
 62
2
 10
2838.564
 20
-4013.206
 30
2633.453
 70
    32
  0
VERTEX
  8
T26SSILL
 62
2
 10
2868.596
 20
-3991.549
 30
2633.428
 70
    32
  0
VERTEX
  8
T26SSILL
 62
2
 10
2881.185
 20
-4008.935
 30
2633.457
 70
    32
  0
SEQEND
  8
T26SSILL
  0
POLYLINE
  8
T26SSILL
 62
2
 66
     1
 70
     9
  0
VERTEX
  8
T26SSILL
 62
2
 10
2793.536
 20
-3846.536
 30
2633.192
 70
    32
  0
VERTEX
  8
T26SSILL
 62
2
 10
2783.235
 20
-3831.696
 30
2633.167
 70
    32
  0
VERTEX
  8
T26SSILL
 62
2
 10
2771.907
 20
-3839.883
 30
2633.177
 70
    32
  0
VERTEX
  8
T26SSILL
 62
2
 10
2781.681
 20
-3854.900
 30
2633.202
 70
    32
  0
SEQEND
  8
T26SSILL
  0
POLYLINE
  8
T26SSILL
 62
2
 66
     1
 70
     9
  0
VERTEX
  8
T26SSILL
 62
2
 10
2649.793
 20
-3667.596
 30
2632.848
 70
    32
  0
VERTEX
  8
T26SSILL
 62
2
 10
2649.797
 20
-3667.600
 30
2632.848
 70
    32
  0
SEQEND
  8
T26SSILL
  0
POLYLINE
  8
T26SSILL
 62
2
 66
     1
 70
     9
  0
VERTEX
  8
T26SSILL
 62
2
 10
2710.511
 20
-3727.988
 30
2632.823
 70
    32
  0
VERTEX
  8
T26SSILL
 62
2
 10
2716.586
 20
-3736.770
 30
2632.822
 70
    32
  0
VERTEX
  8
T26SSILL
 62
2
 10
2714.319
 20
-3738.331
 30
2632.826
 70
    32
  0
VERTEX
  8
T26SSILL
 62
2
 10
2706.120
 20
-3731.158
 30
2632.831
 70
    32
  0
SEQEND
  8
T26SSILL
  0
POLYLINE
  8
T26SSILL
 62
2
 66
     1
 70
     9
  0
VERTEX
  8
T26SSILL
 62
2
 10
2746.953
 20
-3701.841
 30
2632.757
 70
    32
  0
VERTEX
  8
T26SSILL
 62
2
 10
2732.376
 20
-3712.317
 30
2632.784
 70
    32
  0
VERTEX
  8
T26SSILL
 62
2
 10
2742.060
 20
-3725.928
 30
2632.783
 70
    32
  0
VERTEX
  8
T26SSILL
 62
2
 10
2756.549
 20
-3715.539
 30
2632.757
 70
    32
  0
SEQEND
  8
T26SSILL
  0
POLYLINE
  8
T26SSILL
 62
2
 66
     1
 70
     9
  0
VERTEX
  8
T26SSILL
 62
2
 10
2722.804
 20
-3718.745
 30
2632.800
 70
    32
  0
VERTEX
  8
T26SSILL
 62
2
 10
2716.218
 20
-3723.763
 30
2632.812
 70
    32
  0
VERTEX
  8
T26SSILL
 62
2
 10
2726.162
 20
-3737.413
 30
2632.811
 70
    32
  0
VERTEX
  8
T26SSILL
 62
2
 10
2732.680
 20
-3732.747
 30
2632.800
 70
    32
  0
SEQEND
  8
T26SSILL
  0
POLYLINE
  8
T26SSILL
 62
2
 66
     1
 70
     9
  0
VERTEX
  8
T26SSILL
 62
2
 10
2726.459
 20
-3760.839
 30
2632.886
 70
    32
  0
VERTEX
  8
T26SSILL
 62
2
 10
2719.595
 20
-3751.126
 30
2632.847
 70
    32
  0
VERTEX
  8
T26SSILL
 62
2
 10
2710.548
 20
-3758.134
 30
2632.865
 70
    32
  0
VERTEX
  8
T26SSILL
 62
2
 10
2716.020
 20
-3776.496
 30
2632.934
 70
    32
  0
VERTEX
  8
T26SSILL
 62
2
 10
2736.304
 20
-3761.794
 30
2632.897
 70
    32
  0
VERTEX
  8
T26SSILL
 62
2
 10
2732.255
 20
-3757.053
 30
2632.877
 70
    32
  0
SEQEND
  8
T26SSILL
  0
POLYLINE
  8
T26SSILL
 62
2
 66
     1
 70
     9
  0
VERTEX
  8
T26SSILL
 62
2
 10
2995.881
 20
-4152.229
 30
2633.662
 70
    32
  0
VERTEX
  8
T26SSILL
 62
2
 10
2975.508
 20
-4166.293
 30
2633.647
 70
    32
  0
VERTEX
  8
T26SSILL
 62
2
 10
2982.552
 20
-4176.502
 30
2633.656
 70
    32
  0
VERTEX
  8
T26SSILL
 62
2
 10
2997.743
 20
-4165.937
 30
2633.667
 70
    32
  0
VERTEX
  8
T26SSILL
 62
2
 10
2994.618
 20
-4160.798
 30
2633.663
 70
    32
  0
VERTEX
  8
T26SSILL
 62
2
 10
2999.247
 20
-4157.523
 30
2633.666
 70
    32
  0
SEQEND
  8
T26SSILL
  0
POLYLINE
  8
T26SSILL
 62
2
 66
     1
 70
     9
  0
VERTEX
  8
T26SSILL
 62
2
 10
2965.146
 20
-4173.448
 30
2633.640
 70
    32
  0
VERTEX
  8
T26SSILL
 62
2
 10
2969.210
 20
-4191.196
 30
2633.647
 70
    32
  0
VERTEX
  8
T26SSILL
 62
2
 10
2980.275
 20
-4183.361
 30
2633.655
 70
    32
  0
VERTEX
  8
T26SSILL
 62
2
 10
2970.492
 20
-4169.757
 30
2633.644
 70
    32
  0
SEQEND
  8
T26SSILL
  0
POLYLINE
  8
T26SSILL
 62
2
 66
     1
 70
     9
  0
VERTEX
  8
T26SSILL
 62
2
 10
3090.167
 20
-4208.274
 30
2633.769
 70
    32
  0
VERTEX
  8
T26SSILL
 62
2
 10
3072.253
 20
-4220.864
 30
2633.774
 70
    32
  0
VERTEX
  8
T26SSILL
 62
2
 10
3083.433
 20
-4235.703
 30
2633.816
 70
    32
  0
VERTEX
  8
T26SSILL
 62
2
 10
3100.819
 20
-4223.026
 30
2633.810
 70
    32
  0
SEQEND
  8
T26SSILL
  0
POLYLINE
  8
T26SSILL
 62
2
 66
     1
 70
     9
  0
VERTEX
  8
T26SSILL
 62
2
 10
53.453
 20
-2810.120
 30
2635.745
 70
    32
  0
VERTEX
  8
T26SSILL
 62
2
 10
48.207
 20
-2810.725
 30
2635.771
 70
    32
  0
VERTEX
  8
T26SSILL
 62
2
 10
43.095
 20
-2825.686
 30
2635.786
 70
    32
  0
VERTEX
  8
T26SSILL
 62
2
 10
25.081
 20
-2838.606
 30
2635.868
 70
    32
  0
VERTEX
  8
T26SSILL
 62
2
 10
21.058
 20
-2834.362
 30
2635.891
 70
    32
  0
VERTEX
  8
T26SSILL
 62
2
 10
20.286
 20
-2820.918
 30
2635.904
 70
    32
  0
VERTEX
  8
T26SSILL
 62
2
 10
24.256
 20
-2812.390
 30
2635.890
 70
    32
  0
VERTEX
  8
T26SSILL
 62
2
 10
19.649
 20
-2798.942
 30
2635.922
 70
    32
  0
VERTEX
  8
T26SSILL
 62
2
 10
4.638
 20
-2805.864
 30
2635.993
 70
    32
  0
VERTEX
  8
T26SSILL
 62
2
 10
21.929
 20
-2793.747
 30
2635.914
 70
    32
  0
SEQEND
  8
T26SSILL
  0
POLYLINE
  8
T26SSILL
 62
2
 66
     1
 70
     9
  0
VERTEX
  8
T26SSILL
 62
2
 10
1533.933
 20
-3976.967
 30
2634.510
 70
    32
  0
VERTEX
  8
T26SSILL
 62
2
 10
1530.220
 20
-3980.536
 30
2634.521
 70
    32
  0
VERTEX
  8
T26SSILL
 62
2
 10
1527.813
 20
-3986.201
 30
2634.530
 70
    32
  0
VERTEX
  8
T26SSILL
 62
2
 10
1526.322
 20
-3997.615
 30
2634.540
 70
    32
  0
VERTEX
  8
T26SSILL
 62
2
 10
1529.656
 20
-4006.392
 30
2634.538
 70
    32
  0
VERTEX
  8
T26SSILL
 62
2
 10
1536.692
 20
-4008.890
 30
2634.524
 70
    32
  0
VERTEX
  8
T26SSILL
 62
2
 10
1560.373
 20
-3992.548
 30
2634.461
 70
    32
  0
VERTEX
  8
T26SSILL
 62
2
 10
1537.089
 20
-3976.522
 30
2634.503
 70
    32
  0
SEQEND
  8
T26SSILL
  0
POLYLINE
  8
T26SSILL
 62
2
 66
     1
 70
     9
  0
VERTEX
  8
T26SSILL
 62
2
 10
2673.480
 20
-3704.040
 30
2632.849
 70
    32
  0
VERTEX
  8
T26SSILL
 62
2
 10
2667.580
 20
-3694.819
 30
2632.848
 70
    32
  0
VERTEX
  8
T26SSILL
 62
2
 10
2661.924
 20
-3674.199
 30
2632.839
 70
    32
  0
VERTEX
  8
T26SSILL
 62
2
 10
2654.553
 20
-3679.191
 30
2632.852
 70
    32
  0
VERTEX
  8
T26SSILL
 62
2
 10
2651.598
 20
-3675.109
 30
2632.852
 70
    32
  0
VERTEX
  8
T26SSILL
 62
2
 10
2580.520
 20
-3725.688
 30
2632.979
 70
    32
  0
VERTEX
  8
T26SSILL
 62
2
 10
2563.979
 20
-3854.026
 30
2633.102
 70
    32
  0
VERTEX
  8
T26SSILL
 62
2
 10
2625.272
 20
-3810.269
 30
2632.993
 70
    32
  0
VERTEX
  8
T26SSILL
 62
2
 10
2615.018
 20
-3762.558
 30
2632.967
 70
    32
  0
VERTEX
  8
T26SSILL
 62
2
 10
2681.667
 20
-3714.929
 30
2632.847
 70
    32
  0
VERTEX
  8
T26SSILL
 62
2
 10
2676.649
 20
-3707.904
 30
2632.848
 70
    32
  0
SEQEND
  8
T26SSILL
  0
POLYLINE
  8
T26SSILL
 62
2
 66
     1
 70
     9
  0
VERTEX
  8
T26SSILL
 62
2
 10
2771.039
 20
-4063.386
 30
2633.448
 70
    32
  0
VERTEX
  8
T26SSILL
 62
2
 10
2789.653
 20
-4047.719
 30
2633.461
 70
    32
  0
VERTEX
  8
T26SSILL
 62
2
 10
2792.559
 20
-4052.198
 30
2633.464
 70
    32
  0
VERTEX
  8
T26SSILL
 62
2
 10
2769.464
 20
-4068.485
 30
2633.447
 70
    32
  0
VERTEX
  8
T26SSILL
 62
2
 10
2769.987
 20
-4065.321
 30
2633.447
 70
    32
  0
SEQEND
  8
T26SSILL
  0
POLYLINE
  8
T26SSILL
 62
2
 66
     1
 70
     9
  0
VERTEX
  8
T26SSILL
 62
2
 10
2779.400
 20
-3929.697
 30
2633.313
 70
    32
  0
VERTEX
  8
T26SSILL
 62
2
 10
2790.318
 20
-3943.982
 30
2633.337
 70
    32
  0
VERTEX
  8
T26SSILL
 62
2
 10
2809.575
 20
-3930.891
 30
2633.323
 70
    32
  0
VERTEX
  8
T26SSILL
 62
2
 10
2802.417
 20
-3921.143
 30
2633.306
 70
    32
  0
VERTEX
  8
T26SSILL
 62
2
 10
2807.489
 20
-3917.808
 30
2633.303
 70
    32
  0
VERTEX
  8
T26SSILL
 62
2
 10
2803.358
 20
-3912.315
 30
2633.293
 70
    32
  0
SEQEND
  8
T26SSILL
  0
POLYLINE
  8
T26SSILL
 62
2
 66
     1
 70
     9
  0
VERTEX
  8
T26SSILL
 62
2
 10
2706.131
 20
-3739.771
 30
2632.838
 70
    32
  0
VERTEX
  8
T26SSILL
 62
2
 10
2686.948
 20
-3721.162
 30
2632.846
 70
    32
  0
VERTEX
  8
T26SSILL
 62
2
 10
2623.197
 20
-3766.503
 30
2632.960
 70
    32
  0
VERTEX
  8
T26SSILL
 62
2
 10
2631.418
 20
-3804.989
 30
2632.981
 70
    32
  0
VERTEX
  8
T26SSILL
 62
2
 10
2710.132
 20
-3748.860
 30
2632.840
 70
    32
  0
VERTEX
  8
T26SSILL
 62
2
 10
2706.487
 20
-3743.726
 30
2632.840
 70
    32
  0
VERTEX
  8
T26SSILL
 62
2
 10
2708.770
 20
-3741.438
 30
2632.836
 70
    32
  0
SEQEND
  8
T26SSILL
  0
POLYLINE
  8
T26SSILL
 62
2
 66
     1
 70
     9
  0
VERTEX
  8
T26SSILL
 62
2
 10
2697.257
 20
-3670.877
 30
2632.793
 70
    32
  0
VERTEX
  8
T26SSILL
 62
2
 10
2700.435
 20
-3682.035
 30
2632.798
 70
    32
  0
VERTEX
  8
T26SSILL
 62
2
 10
2700.183
 20
-3691.527
 30
2632.806
 70
    32
  0
VERTEX
  8
T26SSILL
 62
2
 10
2695.623
 20
-3700.234
 30
2632.819
 70
    32
  0
VERTEX
  8
T26SSILL
 62
2
 10
2691.672
 20
-3702.875
 30
2632.826
 70
    32
  0
VERTEX
  8
T26SSILL
 62
2
 10
2675.841
 20
-3694.194
 30
2632.838
 70
    32
  0
VERTEX
  8
T26SSILL
 62
2
 10
2671.525
 20
-3686.201
 30
2632.837
 70
    32
  0
VERTEX
  8
T26SSILL
 62
2
 10
2669.757
 20
-3677.854
 30
2632.832
 70
    32
  0
VERTEX
  8
T26SSILL
 62
2
 10
2669.487
 20
-3673.460
 30
2632.829
 70
    32
  0
VERTEX
  8
T26SSILL
 62
2
 10
2675.789
 20
-3657.453
 30
2632.809
 70
    32
  0
VERTEX
  8
T26SSILL
 62
2
 10
2679.053
 20
-3661.935
 30
2632.808
 70
    32
  0
VERTEX
  8
T26SSILL
 62
2
 10
2683.971
 20
-3658.501
 30
2632.799
 70
    32
  0
VERTEX
  8
T26SSILL
 62
2
 10
2691.014
 20
-3667.984
 30
2632.798
 70
    32
  0
VERTEX
  8
T26SSILL
 62
2
 10
2696.326
 20
-3664.272
 30
2632.789
 70
    32
  0
SEQEND
  8
T26SSILL
  0
POLYLINE
  8
T26SSILL
 62
2
 66
     1
 70
     9
  0
VERTEX
  8
T26SSILL
 62
2
 10
2757.809
 20
-3667.638
 30
2632.717
 70
    32
  0
VERTEX
  8
T26SSILL
 62
2
 10
2746.569
 20
-3675.826
 30
2632.737
 70
    32
  0
VERTEX
  8
T26SSILL
 62
2
 10
2759.862
 20
-3693.300
 30
2632.735
 70
    32
  0
VERTEX
  8
T26SSILL
 62
2
 10
2752.134
 20
-3698.407
 30
2632.748
 70
    32
  0
VERTEX
  8
T26SSILL
 62
2
 10
2762.082
 20
-3712.105
 30
2632.747
 70
    32
  0
VERTEX
  8
T26SSILL
 62
2
 10
2780.083
 20
-3698.987
 30
2632.715
 70
    32
  0
SEQEND
  8
T26SSILL
  0
POLYLINE
  8
T26SSILL
 62
2
 66
     1
 70
     9
  0
VERTEX
  8
T26SSILL
 62
2
 10
2771.955
 20
-3735.735
 30
2632.832
 70
    32
  0
VERTEX
  8
T26SSILL
 62
2
 10
2775.121
 20
-3737.577
 30
2632.840
 70
    32
  0
VERTEX
  8
T26SSILL
 62
2
 10
2779.523
 20
-3743.987
 30
2632.866
 70
    32
  0
VERTEX
  8
T26SSILL
 62
2
 10
2781.994
 20
-3752.334
 30
2632.898
 70
    32
  0
VERTEX
  8
T26SSILL
 62
2
 10
2781.734
 20
-3755.322
 30
2632.908
 70
    32
  0
VERTEX
  8
T26SSILL
 62
2
 10
2777.522
 20
-3760.337
 30
2632.922
 70
    32
  0
VERTEX
  8
T26SSILL
 62
2
 10
2778.595
 20
-3775.101
 30
2632.975
 70
    32
  0
VERTEX
  8
T26SSILL
 62
2
 10
2792.594
 20
-3795.298
 30
2633.057
 70
    32
  0
VERTEX
  8
T26SSILL
 62
2
 10
2788.643
 20
-3798.203
 30
2633.064
 70
    32
  0
VERTEX
  8
T26SSILL
 62
2
 10
2799.119
 20
-3812.868
 30
2633.123
 70
    32
  0
VERTEX
  8
T26SSILL
 62
2
 10
2840.040
 20
-3783.639
 30
2633.051
 70
    32
  0
VERTEX
  8
T26SSILL
 62
2
 10
2783.694
 20
-3704.872
 30
2632.732
 70
    32
  0
VERTEX
  8
T26SSILL
 62
2
 10
2761.039
 20
-3721.159
 30
2632.772
 70
    32
  0
SEQEND
  8
T26SSILL
  0
POLYLINE
  8
T26SSILL
 62
2
 66
     1
 70
     9
  0
VERTEX
  8
T26SSILL
 62
2
 10
2989.376
 20
-4060.862
 30
2633.562
 70
    32
  0
VERTEX
  8
T26SSILL
 62
2
 10
2991.495
 20
-4064.338
 30
2633.568
 70
    32
  0
VERTEX
  8
T26SSILL
 62
2
 10
2986.803
 20
-4067.740
 30
2633.572
 70
    32
  0
VERTEX
  8
T26SSILL
 62
2
 10
2994.648
 20
-4078.667
 30
2633.590
 70
    32
  0
VERTEX
  8
T26SSILL
 62
2
 10
3001.848
 20
-4073.385
 30
2633.584
 70
    32
  0
VERTEX
  8
T26SSILL
 62
2
 10
3016.192
 20
-4088.308
 30
2633.610
 70
    32
  0
VERTEX
  8
T26SSILL
 62
2
 10
3045.872
 20
-4066.827
 30
2633.585
 70
    32
  0
VERTEX
  8
T26SSILL
 62
2
 10
3023.686
 20
-4036.005
 30
2633.534
 70
    32
  0
SEQEND
  8
T26SSILL
  0
POLYLINE
  8
T26SSILL
 62
2
 66
     1
 70
     9
  0
VERTEX
  8
T26SSILL
 62
2
 10
3020.329
 20
-4093.137
 30
2633.618
 70
    32
  0
VERTEX
  8
T26SSILL
 62
2
 10
3037.874
 20
-4114.813
 30
2633.655
 70
    32
  0
VERTEX
  8
T26SSILL
 62
2
 10
3041.182
 20
-4112.447
 30
2633.653
 70
    32
  0
VERTEX
  8
T26SSILL
 62
2
 10
3044.262
 20
-4117.208
 30
2633.660
 70
    32
  0
VERTEX
  8
T26SSILL
 62
2
 10
3049.621
 20
-4113.491
 30
2633.656
 70
    32
  0
VERTEX
  8
T26SSILL
 62
2
 10
3059.745
 20
-4127.102
 30
2633.679
 70
    32
  0
VERTEX
  8
T26SSILL
 62
2
 10
3079.151
 20
-4112.928
 30
2633.663
 70
    32
  0
VERTEX
  8
T26SSILL
 62
2
 10
3050.098
 20
-4072.183
 30
2633.594
 70
    32
  0
SEQEND
  8
T26SSILL
  0
POLYLINE
  8
T26SSILL
 62
2
 66
     1
 70
     9
  0
VERTEX
  8
T26SSILL
 62
2
 10
57.402
 20
-2581.393
 30
2635.880
 70
    32
  0
VERTEX
  8
T26SSILL
 62
2
 10
62.577
 20
-2577.445
 30
2635.857
 70
    32
  0
VERTEX
  8
T26SSILL
 62
2
 10
57.379
 20
-2569.254
 30
2635.888
 70
    32
  0
VERTEX
  8
T26SSILL
 62
2
 10
53.734
 20
-2566.701
 30
2635.908
 70
    32
  0
VERTEX
  8
T26SSILL
 62
2
 10
45.842
 20
-2568.611
 30
2635.947
 70
    32
  0
VERTEX
  8
T26SSILL
 62
2
 10
43.438
 20
-2570.832
 30
2635.957
 70
    32
  0
VERTEX
  8
T26SSILL
 62
2
 10
56.320
 20
-2579.786
 30
2635.887
 70
    32
  0
SEQEND
  8
T26SSILL
  0
POLYLINE
  8
T26SSILL
 62
2
 66
     1
 70
     9
  0
VERTEX
  8
T26SSILL
 62
2
 10
2168.310
 20
-4604.355
 30
2633.523
 70
    32
  0
VERTEX
  8
T26SSILL
 62
2
 10
2176.845
 20
-4597.890
 30
2633.519
 70
    32
  0
VERTEX
  8
T26SSILL
 62
2
 10
2195.288
 20
-4540.294
 30
2633.424
 70
    32
  0
VERTEX
  8
T26SSILL
 62
2
 10
2124.409
 20
-4552.954
 30
2633.369
 70
    32
  0
VERTEX
  8
T26SSILL
 62
2
 10
2124.278
 20
-4604.207
 30
2633.472
 70
    32
  0
SEQEND
  8
T26SSILL
  0
POLYLINE
  8
T26SSILL
 62
2
 66
     1
 70
     9
  0
VERTEX
  8
T26SSILL
 62
2
 10
1905.836
 20
-3975.431
 30
2634.077
 70
    32
  0
VERTEX
  8
T26SSILL
 62
2
 10
1907.385
 20
-3970.827
 30
2634.075
 70
    32
  0
VERTEX
  8
T26SSILL
 62
2
 10
1893.526
 20
-3958.931
 30
2634.096
 70
    32
  0
VERTEX
  8
T26SSILL
 62
2
 10
1888.743
 20
-3964.470
 30
2634.103
 70
    32
  0
VERTEX
  8
T26SSILL
 62
2
 10
1903.409
 20
-3977.628
 30
2634.080
 70
    32
  0
SEQEND
  8
T26SSILL
  0
POLYLINE
  8
T26SSILL
 62
2
 66
     1
 70
     9
  0
VERTEX
  8
T26SSILL
 62
2
 10
2235.892
 20
-3716.731
 30
2633.512
 70
    32
  0
VERTEX
  8
T26SSILL
 62
2
 10
2240.669
 20
-3696.676
 30
2633.488
 70
    32
  0
VERTEX
  8
T26SSILL
 62
2
 10
2238.519
 20
-3690.632
 30
2633.486
 70
    32
  0
VERTEX
  8
T26SSILL
 62
2
 10
2229.494
 20
-3693.418
 30
2633.504
 70
    32
  0
VERTEX
  8
T26SSILL
 62
2
 10
2216.061
 20
-3681.218
 30
2633.516
 70
    32
  0
VERTEX
  8
T26SSILL
 62
2
 10
2210.044
 20
-3687.320
 30
2633.531
 70
    32
  0
VERTEX
  8
T26SSILL
 62
2
 10
2207.706
 20
-3691.990
 30
2633.539
 70
    32
  0
VERTEX
  8
T26SSILL
 62
2
 10
2211.934
 20
-3706.274
 30
2633.544
 70
    32
  0
VERTEX
  8
T26SSILL
 62
2
 10
2208.988
 20
-3712.002
 30
2633.553
 70
    32
  0
VERTEX
  8
T26SSILL
 62
2
 10
2202.009
 20
-3718.461
 30
2633.570
 70
    32
  0
VERTEX
  8
T26SSILL
 62
2
 10
2190.718
 20
-3723.722
 30
2633.594
 70
    32
  0
VERTEX
  8
T26SSILL
 62
2
 10
2176.221
 20
-3710.125
 30
2633.606
 70
    32
  0
VERTEX
  8
T26SSILL
 62
2
 10
2168.622
 20
-3715.886
 30
2633.624
 70
    32
  0
VERTEX
  8
T26SSILL
 62
2
 10
2190.671
 20
-3754.544
 30
2633.619
 70
    32
  0
VERTEX
  8
T26SSILL
 62
2
 10
2215.336
 20
-3790.637
 30
2633.608
 70
    32
  0
VERTEX
  8
T26SSILL
 62
2
 10
2243.389
 20
-3771.385
 30
2633.545
 70
    32
  0
VERTEX
  8
T26SSILL
 62
2
 10
2233.708
 20
-3718.327
 30
2633.517
 70
    32
  0
SEQEND
  8
T26SSILL
  0
POLYLINE
  8
T26SSILL
 62
2
 66
     1
 70
     9
  0
VERTEX
  8
T26SSILL
 62
2
 10
1347.201
 20
-3299.176
 30
2634.883
 70
    32
  0
VERTEX
  8
T26SSILL
 62
2
 10
1343.415
 20
-3297.508
 30
2634.872
 70
    32
  0
VERTEX
  8
T26SSILL
 62
2
 10
1338.039
 20
-3289.154
 30
2634.839
 70
    32
  0
VERTEX
  8
T26SSILL
 62
2
 10
1335.985
 20
-3261.085
 30
2634.752
 70
    32
  0
VERTEX
  8
T26SSILL
 62
2
 10
1331.664
 20
-3252.818
 30
2634.721
 70
    32
  0
VERTEX
  8
T26SSILL
 62
2
 10
1312.279
 20
-3228.375
 30
2634.618
 70
    32
  0
VERTEX
  8
T26SSILL
 62
2
 10
1310.607
 20
-3227.761
 30
2634.614
 70
    32
  0
VERTEX
  8
T26SSILL
 62
2
 10
1306.033
 20
-3230.317
 30
2634.614
 70
    32
  0
VERTEX
  8
T26SSILL
 62
2
 10
1301.904
 20
-3236.834
 30
2634.627
 70
    32
  0
VERTEX
  8
T26SSILL
 62
2
 10
1300.677
 20
-3241.235
 30
2634.639
 70
    32
  0
VERTEX
  8
T26SSILL
 62
2
 10
1302.630
 20
-3257.424
 30
2634.690
 70
    32
  0
VERTEX
  8
T26SSILL
 62
2
 10
1299.291
 20
-3261.652
 30
2634.698
 70
    32
  0
VERTEX
  8
T26SSILL
 62
2
 10
1293.472
 20
-3251.186
 30
2634.657
 70
    32
  0
VERTEX
  8
T26SSILL
 62
2
 10
1294.686
 20
-3234.025
 30
2634.608
 70
    32
  0
VERTEX
  8
T26SSILL
 62
2
 10
1291.416
 20
-3220.565
 30
2634.563
 70
    32
  0
VERTEX
  8
T26SSILL
 62
2
 10
1256.633
 20
-3244.899
 30
2634.582
 70
    32
  0
VERTEX
  8
T26SSILL
 62
2
 10
1265.859
 20
-3268.111
 30
2634.666
 70
    32
  0
VERTEX
  8
T26SSILL
 62
2
 10
1272.379
 20
-3275.848
 30
2634.699
 70
    32
  0
VERTEX
  8
T26SSILL
 62
2
 10
1303.461
 20
-3294.030
 30
2634.801
 70
    32
  0
VERTEX
  8
T26SSILL
 62
2
 10
1339.192
 20
-3342.520
 30
2635.000
 70
    32
  0
VERTEX
  8
T26SSILL
 62
2
 10
1343.567
 20
-3338.038
 30
2634.994
 70
    32
  0
VERTEX
  8
T26SSILL
 62
2
 10
1367.433
 20
-3321.730
 30
2634.982
 70
    32
  0
VERTEX
  8
T26SSILL
 62
2
 10
1354.246
 20
-3304.536
 30
2634.910
 70
    32
  0
SEQEND
  8
T26SSILL
  0
POLYLINE
  8
T26SSILL
 62
2
 66
     1
 70
     9
  0
VERTEX
  8
T26SSILL
 62
2
 10
2883.177
 20
-3913.573
 30
2633.315
 70
    32
  0
VERTEX
  8
T26SSILL
 62
2
 10
2876.327
 20
-3917.712
 30
2633.320
 70
    32
  0
VERTEX
  8
T26SSILL
 62
2
 10
2863.824
 20
-3899.007
 30
2633.288
 70
    32
  0
VERTEX
  8
T26SSILL
 62
2
 10
2847.668
 20
-3911.859
 30
2633.304
 70
    32
  0
VERTEX
  8
T26SSILL
 62
2
 10
2854.800
 20
-3922.573
 30
2633.321
 70
    32
  0
VERTEX
  8
T26SSILL
 62
2
 10
2837.326
 20
-3935.074
 30
2633.336
 70
    32
  0
VERTEX
  8
T26SSILL
 62
2
 10
2839.615
 20
-3938.939
 30
2633.342
 70
    32
  0
VERTEX
  8
T26SSILL
 62
2
 10
2861.305
 20
-3923.444
 30
2633.324
 70
    32
  0
VERTEX
  8
T26SSILL
 62
2
 10
2873.627
 20
-3937.754
 30
2633.349
 70
    32
  0
VERTEX
  8
T26SSILL
 62
2
 10
2878.474
 20
-3948.559
 30
2633.366
 70
    32
  0
VERTEX
  8
T26SSILL
 62
2
 10
2905.064
 20
-3987.373
 30
2633.431
 70
    32
  0
VERTEX
  8
T26SSILL
 62
2
 10
2958.891
 20
-3947.581
 30
2633.385
 70
    32
  0
VERTEX
  8
T26SSILL
 62
2
 10
2904.305
 20
-3870.306
 30
2633.256
 70
    32
  0
VERTEX
  8
T26SSILL
 62
2
 10
2869.883
 20
-3894.693
 30
2633.283
 70
    32
  0
SEQEND
  8
T26SSILL
  0
POLYLINE
  8
T26SSILL
 62
2
 66
     1
 70
     9
  0
VERTEX
  8
T26SSILL
 62
2
 10
2708.197
 20
-3775.803
 30
2632.925
 70
    32
  0
VERTEX
  8
T26SSILL
 62
2
 10
2704.665
 20
-3762.624
 30
2632.876
 70
    32
  0
VERTEX
  8
T26SSILL
 62
2
 10
2697.817
 20
-3767.426
 30
2632.888
 70
    32
  0
VERTEX
  8
T26SSILL
 62
2
 10
2700.529
 20
-3771.173
 30
2632.904
 70
    32
  0
VERTEX
  8
T26SSILL
 62
2
 10
2689.551
 20
-3778.753
 30
2632.922
 70
    32
  0
VERTEX
  8
T26SSILL
 62
2
 10
2686.875
 20
-3775.099
 30
2632.907
 70
    32
  0
VERTEX
  8
T26SSILL
 62
2
 10
2667.553
 20
-3788.648
 30
2632.941
 70
    32
  0
VERTEX
  8
T26SSILL
 62
2
 10
2670.351
 20
-3792.813
 30
2632.957
 70
    32
  0
VERTEX
  8
T26SSILL
 62
2
 10
2660.312
 20
-3799.628
 30
2632.974
 70
    32
  0
VERTEX
  8
T26SSILL
 62
2
 10
2657.666
 20
-3795.582
 30
2632.958
 70
    32
  0
VERTEX
  8
T26SSILL
 62
2
 10
2614.393
 20
-3825.927
 30
2633.032
 70
    32
  0
VERTEX
  8
T26SSILL
 62
2
 10
2661.091
 20
-3849.248
 30
2633.149
 70
    32
  0
VERTEX
  8
T26SSILL
 62
2
 10
2710.352
 20
-3813.417
 30
2633.060
 70
    32
  0
VERTEX
  8
T26SSILL
 62
2
 10
2701.881
 20
-3786.182
 30
2632.957
 70
    32
  0
VERTEX
  8
T26SSILL
 62
2
 10
2709.872
 20
-3780.195
 30
2632.942
 70
    32
  0
SEQEND
  8
T26SSILL
  0
POLYLINE
  8
T26SSILL
 62
2
 66
     1
 70
     9
  0
VERTEX
  8
T26SSILL
 62
2
 10
2746.587
 20
-3976.054
 30
2633.375
 70
    32
  0
VERTEX
  8
T26SSILL
 62
2
 10
2743.154
 20
-3971.840
 30
2633.367
 70
    32
  0
VERTEX
  8
T26SSILL
 62
2
 10
2728.489
 20
-3981.965
 30
2633.379
 70
    32
  0
VERTEX
  8
T26SSILL
 62
2
 10
2724.792
 20
-3977.312
 30
2633.371
 70
    32
  0
VERTEX
  8
T26SSILL
 62
2
 10
2716.490
 20
-3983.230
 30
2633.378
 70
    32
  0
VERTEX
  8
T26SSILL
 62
2
 10
2679.493
 20
-3947.749
 30
2633.315
 70
    32
  0
VERTEX
  8
T26SSILL
 62
2
 10
2661.314
 20
-3933.393
 30
2633.289
 70
    32
  0
VERTEX
  8
T26SSILL
 62
2
 10
2657.782
 20
-3928.352
 30
2633.281
 70
    32
  0
VERTEX
  8
T26SSILL
 62
2
 10
2662.941
 20
-3924.742
 30
2633.277
 70
    32
  0
VERTEX
  8
T26SSILL
 62
2
 10
2659.508
 20
-3920.176
 30
2633.269
 70
    32
  0
VERTEX
  8
T26SSILL
 62
2
 10
2698.584
 20
-3892.355
 30
2633.237
 70
    32
  0
VERTEX
  8
T26SSILL
 62
2
 10
2712.012
 20
-3876.870
 30
2633.217
 70
    32
  0
VERTEX
  8
T26SSILL
 62
2
 10
2718.439
 20
-3885.739
 30
2633.232
 70
    32
  0
VERTEX
  8
T26SSILL
 62
2
 10
2728.449
 20
-3878.081
 30
2633.223
 70
    32
  0
VERTEX
  8
T26SSILL
 62
2
 10
2735.404
 20
-3887.564
 30
2633.239
 70
    32
  0
VERTEX
  8
T26SSILL
 62
2
 10
2734.010
 20
-3897.761
 30
2633.254
 70
    32
  0
VERTEX
  8
T26SSILL
 62
2
 10
2737.275
 20
-3908.567
 30
2633.271
 70
    32
  0
VERTEX
  8
T26SSILL
 62
2
 10
2750.945
 20
-3946.782
 30
2633.332
 70
    32
  0
VERTEX
  8
T26SSILL
 62
2
 10
2754.549
 20
-3947.041
 30
2633.333
 70
    32
  0
VERTEX
  8
T26SSILL
 62
2
 10
2757.535
 20
-3945.368
 30
2633.331
 70
    32
  0
VERTEX
  8
T26SSILL
 62
2
 10
2759.717
 20
-3952.407
 30
2633.342
 70
    32
  0
VERTEX
  8
T26SSILL
 62
2
 10
2753.770
 20
-3956.446
 30
2633.347
 70
    32
  0
VERTEX
  8
T26SSILL
 62
2
 10
2761.075
 20
-3965.490
 30
2633.362
 70
    32
  0
SEQEND
  8
T26SSILL
  0
POLYLINE
  8
T26SSILL
 62
2
 66
     1
 70
     9
  0
VERTEX
  8
T26SSILL
 62
2
 10
2798.587
 20
-4094.377
 30
2633.478
 70
    32
  0
VERTEX
  8
T26SSILL
 62
2
 10
2820.453
 20
-4079.497
 30
2633.494
 70
    32
  0
VERTEX
  8
T26SSILL
 62
2
 10
2828.881
 20
-4071.664
 30
2633.500
 70
    32
  0
VERTEX
  8
T26SSILL
 62
2
 10
2799.922
 20
-4091.277
 30
2633.479
 70
    32
  0
VERTEX
  8
T26SSILL
 62
2
 10
2796.891
 20
-4086.993
 30
2633.475
 70
    32
  0
VERTEX
  8
T26SSILL
 62
2
 10
2787.161
 20
-4093.951
 30
2633.468
 70
    32
  0
VERTEX
  8
T26SSILL
 62
2
 10
2790.242
 20
-4098.430
 30
2633.472
 70
    32
  0
VERTEX
  8
T26SSILL
 62
2
 10
2794.021
 20
-4097.546
 30
2633.475
 70
    32
  0
SEQEND
  8
T26SSILL
  0
POLYLINE
  8
T26SSILL
 62
2
 66
     1
 70
     9
  0
VERTEX
  8
T26SSILL
 62
2
 10
2821.394
 20
-3916.022
 30
2633.303
 70
    32
  0
VERTEX
  8
T26SSILL
 62
2
 10
2813.977
 20
-3905.478
 30
2633.286
 70
    32
  0
VERTEX
  8
T26SSILL
 62
2
 10
2830.507
 20
-3893.687
 30
2633.272
 70
    32
  0
VERTEX
  8
T26SSILL
 62
2
 10
2830.610
 20
-3905.464
 30
2633.290
 70
    32
  0
VERTEX
  8
T26SSILL
 62
2
 10
2828.507
 20
-3911.004
 30
2633.298
 70
    32
  0
SEQEND
  8
T26SSILL
  0
POLYLINE
  8
T26SSILL
 62
2
 66
     1
 70
     9
  0
VERTEX
  8
T26SSILL
 62
2
 10
2669.281
 20
-3577.222
 30
2632.752
 70
    32
  0
VERTEX
  8
T26SSILL
 62
2
 10
2711.096
 20
-3632.189
 30
2632.745
 70
    32
  0
VERTEX
  8
T26SSILL
 62
2
 10
2705.213
 20
-3636.327
 30
2632.756
 70
    32
  0
VERTEX
  8
T26SSILL
 62
2
 10
2708.822
 20
-3641.156
 30
2632.755
 70
    32
  0
VERTEX
  8
T26SSILL
 62
2
 10
2703.992
 20
-3644.590
 30
2632.764
 70
    32
  0
VERTEX
  8
T26SSILL
 62
2
 10
2706.986
 20
-3649.244
 30
2632.764
 70
    32
  0
VERTEX
  8
T26SSILL
 62
2
 10
2701.629
 20
-3652.766
 30
2632.773
 70
    32
  0
VERTEX
  8
T26SSILL
 62
2
 10
2705.503
 20
-3657.859
 30
2632.773
 70
    32
  0
VERTEX
  8
T26SSILL
 62
2
 10
2709.097
 20
-3650.560
 30
2632.762
 70
    32
  0
VERTEX
  8
T26SSILL
 62
2
 10
2735.393
 20
-3664.678
 30
2632.742
 70
    32
  0
VERTEX
  8
T26SSILL
 62
2
 10
2742.344
 20
-3670.558
 30
2632.738
 70
    32
  0
VERTEX
  8
T26SSILL
 62
2
 10
2753.936
 20
-3663.161
 30
2632.718
 70
    32
  0
VERTEX
  8
T26SSILL
 62
2
 10
2741.258
 20
-3645.159
 30
2632.719
 70
    32
  0
VERTEX
  8
T26SSILL
 62
2
 10
2736.867
 20
-3648.241
 30
2632.727
 70
    32
  0
VERTEX
  8
T26SSILL
 62
2
 10
2730.177
 20
-3639.196
 30
2632.728
 70
    32
  0
VERTEX
  8
T26SSILL
 62
2
 10
2724.556
 20
-3642.543
 30
2632.737
 70
    32
  0
VERTEX
  8
T26SSILL
 62
2
 10
2710.733
 20
-3622.873
 30
2632.738
 70
    32
  0
VERTEX
  8
T26SSILL
 62
2
 10
2714.889
 20
-3619.616
 30
2632.731
 70
    32
  0
VERTEX
  8
T26SSILL
 62
2
 10
2703.416
 20
-3605.041
 30
2632.733
 70
    32
  0
VERTEX
  8
T26SSILL
 62
2
 10
2707.405
 20
-3602.122
 30
2632.726
 70
    32
  0
VERTEX
  8
T26SSILL
 62
2
 10
2676.910
 20
-3563.062
 30
2632.731
 70
    32
  0
VERTEX
  8
T26SSILL
 62
2
 10
2666.009
 20
-3560.527
 30
2632.743
 70
    32
  0
VERTEX
  8
T26SSILL
 62
2
 10
2631.050
 20
-3589.057
 30
2632.808
 70
    32
  0
VERTEX
  8
T26SSILL
 62
2
 10
2654.037
 20
-3616.966
 30
2632.803
 70
    32
  0
VERTEX
  8
T26SSILL
 62
2
 10
2655.561
 20
-3641.046
 30
2632.820
 70
    32
  0
VERTEX
  8
T26SSILL
 62
2
 10
2663.668
 20
-3657.911
 30
2632.824
 70
    32
  0
VERTEX
  8
T26SSILL
 62
2
 10
2676.576
 20
-3648.315
 30
2632.800
 70
    32
  0
VERTEX
  8
T26SSILL
 62
2
 10
2670.148
 20
-3639.182
 30
2632.801
 70
    32
  0
VERTEX
  8
T26SSILL
 62
2
 10
2674.802
 20
-3635.661
 30
2632.792
 70
    32
  0
VERTEX
  8
T26SSILL
 62
2
 10
2672.160
 20
-3631.270
 30
2632.792
 70
    32
  0
VERTEX
  8
T26SSILL
 62
2
 10
2675.002
 20
-3629.169
 30
2632.787
 70
    32
  0
VERTEX
  8
T26SSILL
 62
2
 10
2671.543
 20
-3629.337
 30
2632.791
 70
    32
  0
VERTEX
  8
T26SSILL
 62
2
 10
2666.167
 20
-3617.655
 30
2632.788
 70
    32
  0
VERTEX
  8
T26SSILL
 62
2
 10
2661.062
 20
-3611.333
 30
2632.789
 70
    32
  0
VERTEX
  8
T26SSILL
 62
2
 10
2663.871
 20
-3608.781
 30
2632.784
 70
    32
  0
VERTEX
  8
T26SSILL
 62
2
 10
2664.917
 20
-3601.748
 30
2632.777
 70
    32
  0
VERTEX
  8
T26SSILL
 62
2
 10
2662.884
 20
-3592.171
 30
2632.772
 70
    32
  0
VERTEX
  8
T26SSILL
 62
2
 10
2658.132
 20
-3587.519
 30
2632.774
 70
    32
  0
VERTEX
  8
T26SSILL
 62
2
 10
2660.410
 20
-3581.891
 30
2632.767
 70
    32
  0
VERTEX
  8
T26SSILL
 62
2
 10
2658.996
 20
-3575.565
 30
2632.763
 70
    32
  0
SEQEND
  8
T26SSILL
  0
POLYLINE
  8
T26SSILL
 62
2
 66
     1
 70
     9
  0
VERTEX
  8
T26SSILL
 62
2
 10
2941.146
 20
-4025.648
 30
2633.497
 70
    32
  0
VERTEX
  8
T26SSILL
 62
2
 10
2965.862
 20
-4041.262
 30
2633.527
 70
    32
  0
VERTEX
  8
T26SSILL
 62
2
 10
2968.154
 20
-4046.620
 30
2633.536
 70
    32
  0
VERTEX
  8
T26SSILL
 62
2
 10
2970.701
 20
-4045.123
 30
2633.534
 70
    32
  0
VERTEX
  8
T26SSILL
 62
2
 10
2980.473
 20
-4058.822
 30
2633.557
 70
    32
  0
VERTEX
  8
T26SSILL
 62
2
 10
3016.125
 20
-4033.378
 30
2633.528
 70
    32
  0
VERTEX
  8
T26SSILL
 62
2
 10
3017.436
 20
-4027.312
 30
2633.519
 70
    32
  0
VERTEX
  8
T26SSILL
 62
2
 10
2964.084
 20
-3953.024
 30
2633.394
 70
    32
  0
VERTEX
  8
T26SSILL
 62
2
 10
2908.851
 20
-3993.169
 30
2633.441
 70
    32
  0
VERTEX
  8
T26SSILL
 62
2
 10
2919.063
 20
-4007.131
 30
2633.464
 70
    32
  0
VERTEX
  8
T26SSILL
 62
2
 10
2922.927
 20
-4004.753
 30
2633.462
 70
    32
  0
SEQEND
  8
T26SSILL
  0
POLYLINE
  8
T26SSILL
 62
2
 66
     1
 70
     9
  0
VERTEX
  8
T26SSILL
 62
2
 10
3974.910
 20
-2526.766
 30
2632.754
 70
    32
  0
VERTEX
  8
T26SSILL
 62
2
 10
3962.938
 20
-2540.129
 30
2632.764
 70
    32
  0
VERTEX
  8
T26SSILL
 62
2
 10
3967.284
 20
-2548.707
 30
2632.758
 70
    32
  0
VERTEX
  8
T26SSILL
 62
2
 10
3939.060
 20
-2571.437
 30
2632.782
 70
    32
  0
VERTEX
  8
T26SSILL
 62
2
 10
3928.072
 20
-2497.159
 30
2632.809
 70
    32
  0
VERTEX
  8
T26SSILL
 62
2
 10
3953.412
 20
-2493.300
 30
2632.784
 70
    32
  0
VERTEX
  8
T26SSILL
 62
2
 10
3975.332
 20
-2521.023
 30
2632.755
 70
    32
  0
SEQEND
  8
T26SSILL
  0
POLYLINE
  8
T26SSILL
 62
2
 66
     1
 70
     9
  0
VERTEX
  8
T26SSILL
 62
2
 10
423.775
 20
-2714.104
 30
2635.499
 70
    32
  0
VERTEX
  8
T26SSILL
 62
2
 10
428.752
 20
-2711.070
 30
2635.495
 70
    32
  0
VERTEX
  8
T26SSILL
 62
2
 10
443.051
 20
-2731.237
 30
2635.469
 70
    32
  0
VERTEX
  8
T26SSILL
 62
2
 10
437.896
 20
-2734.622
 30
2635.472
 70
    32
  0
VERTEX
  8
T26SSILL
 62
2
 10
538.988
 20
-2871.693
 30
2635.224
 70
    32
  0
VERTEX
  8
T26SSILL
 62
2
 10
550.987
 20
-2791.142
 30
2635.322
 70
    32
  0
VERTEX
  8
T26SSILL
 62
2
 10
465.854
 20
-2672.058
 30
2635.478
 70
    32
  0
VERTEX
  8
T26SSILL
 62
2
 10
461.022
 20
-2667.757
 30
2635.485
 70
    32
  0
VERTEX
  8
T26SSILL
 62
2
 10
453.879
 20
-2664.622
 30
2635.490
 70
    32
  0
VERTEX
  8
T26SSILL
 62
2
 10
443.395
 20
-2664.513
 30
2635.499
 70
    32
  0
VERTEX
  8
T26SSILL
 62
2
 10
439.835
 20
-2665.619
 30
2635.502
 70
    32
  0
VERTEX
  8
T26SSILL
 62
2
 10
406.139
 20
-2689.731
 30
2635.531
 70
    32
  0
VERTEX
  8
T26SSILL
 62
2
 10
415.625
 20
-2702.080
 30
2635.514
 70
    32
  0
VERTEX
  8
T26SSILL
 62
2
 10
423.546
 20
-2707.594
 30
2635.502
 70
    32
  0
VERTEX
  8
T26SSILL
 62
2
 10
420.506
 20
-2710.286
 30
2635.504
 70
    32
  0
SEQEND
  8
T26SSILL
  0
POLYLINE
  8
T26SSILL
 62
2
 66
     1
 70
     9
  0
VERTEX
  8
T26SSILL
 62
2
 10
117.266
 20
-2922.457
 30
2635.417
 70
    32
  0
VERTEX
  8
T26SSILL
 62
2
 10
128.153
 20
-2917.852
 30
2635.419
 70
    32
  0
VERTEX
  8
T26SSILL
 62
2
 10
129.943
 20
-2920.502
 30
2635.416
 70
    32
  0
VERTEX
  8
T26SSILL
 62
2
 10
119.984
 20
-2927.450
 30
2635.413
 70
    32
  0
VERTEX
  8
T26SSILL
 62
2
 10
125.297
 20
-2935.088
 30
2635.407
 70
    32
  0
VERTEX
  8
T26SSILL
 62
2
 10
121.458
 20
-2937.855
 30
2635.405
 70
    32
  0
VERTEX
  8
T26SSILL
 62
2
 10
122.851
 20
-2939.778
 30
2635.404
 70
    32
  0
VERTEX
  8
T26SSILL
 62
2
 10
108.177
 20
-2950.660
 30
2635.398
 70
    32
  0
VERTEX
  8
T26SSILL
 62
2
 10
115.509
 20
-2960.991
 30
2635.389
 70
    32
  0
VERTEX
  8
T26SSILL
 62
2
 10
96.098
 20
-2975.276
 30
2635.419
 70
    32
  0
VERTEX
  8
T26SSILL
 62
2
 10
117.365
 20
-3004.840
 30
2635.357
 70
    32
  0
VERTEX
  8
T26SSILL
 62
2
 10
105.797
 20
-3013.310
 30
2635.353
 70
    32
  0
VERTEX
  8
T26SSILL
 62
2
 10
95.096
 20
-3010.842
 30
2635.400
 70
    32
  0
VERTEX
  8
T26SSILL
 62
2
 10
92.219
 20
-3009.472
 30
2635.415
 70
    32
  0
VERTEX
  8
T26SSILL
 62
2
 10
54.945
 20
-2956.845
 30
2635.638
 70
    32
  0
VERTEX
  8
T26SSILL
 62
2
 10
52.668
 20
-2948.459
 30
2635.655
 70
    32
  0
VERTEX
  8
T26SSILL
 62
2
 10
54.579
 20
-2943.210
 30
2635.649
 70
    32
  0
VERTEX
  8
T26SSILL
 62
2
 10
95.926
 20
-2912.876
 30
2635.462
 70
    32
  0
VERTEX
  8
T26SSILL
 62
2
 10
103.080
 20
-2916.088
 30
2635.424
 70
    32
  0
SEQEND
  8
T26SSILL
  0
POLYLINE
  8
T26SSILL
 62
2
 66
     1
 70
     9
  0
VERTEX
  8
T26SSILL
 62
2
 10
455.674
 20
-2658.035
 30
2635.484
 70
    32
  0
VERTEX
  8
T26SSILL
 62
2
 10
409.755
 20
-2593.751
 30
2635.481
 70
    32
  0
VERTEX
  8
T26SSILL
 62
2
 10
405.919
 20
-2590.793
 30
2635.482
 70
    32
  0
VERTEX
  8
T26SSILL
 62
2
 10
395.294
 20
-2587.393
 30
2635.489
 70
    32
  0
VERTEX
  8
T26SSILL
 62
2
 10
391.142
 20
-2587.405
 30
2635.493
 70
    32
  0
VERTEX
  8
T26SSILL
 62
2
 10
382.610
 20
-2590.666
 30
2635.502
 70
    32
  0
VERTEX
  8
T26SSILL
 62
2
 10
351.086
 20
-2613.277
 30
2635.544
 70
    32
  0
VERTEX
  8
T26SSILL
 62
2
 10
402.050
 20
-2684.660
 30
2635.538
 70
    32
  0
VERTEX
  8
T26SSILL
 62
2
 10
437.895
 20
-2660.050
 30
2635.500
 70
    32
  0
VERTEX
  8
T26SSILL
 62
2
 10
448.305
 20
-2657.696
 30
2635.490
 70
    32
  0
SEQEND
  8
T26SSILL
  0
POLYLINE
  8
T26SSILL
 62
2
 66
     1
 70
     9
  0
VERTEX
  8
T26SSILL
 62
2
 10
836.805
 20
-3287.747
 30
2634.720
 70
    32
  0
VERTEX
  8
T26SSILL
 62
2
 10
767.915
 20
-3190.894
 30
2634.650
 70
    32
  0
VERTEX
  8
T26SSILL
 62
2
 10
771.215
 20
-3189.766
 30
2634.646
 70
    32
  0
VERTEX
  8
T26SSILL
 62
2
 10
844.877
 20
-3225.298
 30
2634.633
 70
    32
  0
VERTEX
  8
T26SSILL
 62
2
 10
872.767
 20
-3259.902
 30
2634.655
 70
    32
  0
VERTEX
  8
T26SSILL
 62
2
 10
861.951
 20
-3267.921
 30
2634.674
 70
    32
  0
VERTEX
  8
T26SSILL
 62
2
 10
861.422
 20
-3266.778
 30
2634.673
 70
    32
  0
VERTEX
  8
T26SSILL
 62
2
 10
858.081
 20
-3268.981
 30
2634.678
 70
    32
  0
VERTEX
  8
T26SSILL
 62
2
 10
841.422
 20
-3243.128
 30
2634.658
 70
    32
  0
VERTEX
  8
T26SSILL
 62
2
 10
835.178
 20
-3246.830
 30
2634.668
 70
    32
  0
VERTEX
  8
T26SSILL
 62
2
 10
843.111
 20
-3259.229
 30
2634.678
 70
    32
  0
VERTEX
  8
T26SSILL
 62
2
 10
840.128
 20
-3267.416
 30
2634.691
 70
    32
  0
VERTEX
  8
T26SSILL
 62
2
 10
846.477
 20
-3280.521
 30
2634.703
 70
    32
  0
SEQEND
  8
T26SSILL
  0
POLYLINE
  8
T26SSILL
 62
2
 66
     1
 70
     9
  0
VERTEX
  8
T26SSILL
 62
2
 10
1576.903
 20
-3854.608
 30
2635.381
 70
    32
  0
VERTEX
  8
T26SSILL
 62
2
 10
1563.815
 20
-3850.964
 30
2635.370
 70
    32
  0
VERTEX
  8
T26SSILL
 62
2
 10
1545.267
 20
-3852.375
 30
2635.311
 70
    32
  0
VERTEX
  8
T26SSILL
 62
2
 10
1397.223
 20
-3867.873
 30
2634.704
 70
    32
  0
VERTEX
  8
T26SSILL
 62
2
 10
1395.858
 20
-3870.932
 30
2634.706
 70
    32
  0
VERTEX
  8
T26SSILL
 62
2
 10
1477.864
 20
-3927.355
 30
2634.590
 70
    32
  0
VERTEX
  8
T26SSILL
 62
2
 10
1485.030
 20
-3928.236
 30
2634.580
 70
    32
  0
VERTEX
  8
T26SSILL
 62
2
 10
1497.203
 20
-3918.953
 30
2634.688
 70
    32
  0
VERTEX
  8
T26SSILL
 62
2
 10
1504.678
 20
-3922.654
 30
2634.700
 70
    32
  0
VERTEX
  8
T26SSILL
 62
2
 10
1512.290
 20
-3923.103
 30
2634.734
 70
    32
  0
VERTEX
  8
T26SSILL
 62
2
 10
1517.306
 20
-3933.594
 30
2634.689
 70
    32
  0
VERTEX
  8
T26SSILL
 62
2
 10
1519.494
 20
-3947.227
 30
2634.608
 70
    32
  0
VERTEX
  8
T26SSILL
 62
2
 10
1523.817
 20
-3959.309
 30
2634.528
 70
    32
  0
VERTEX
  8
T26SSILL
 62
2
 10
1693.624
 20
-4076.535
 30
2634.233
 70
    32
  0
VERTEX
  8
T26SSILL
 62
2
 10
1694.601
 20
-4006.665
 30
2634.317
 70
    32
  0
VERTEX
  8
T26SSILL
 62
2
 10
1590.702
 20
-3862.522
 30
2635.366
 70
    32
  0
VERTEX
  8
T26SSILL
 62
2
 10
1582.871
 20
-3857.882
 30
2635.375
 70
    32
  0
SEQEND
  8
T26SSILL
  0
POLYLINE
  8
T26SSILL
 62
2
 66
     1
 70
     9
  0
VERTEX
  8
T26SSILL
 62
2
 10
2827.906
 20
-3851.328
 30
2633.208
 70
    32
  0
VERTEX
  8
T26SSILL
 62
2
 10
2844.031
 20
-3884.442
 30
2633.262
 70
    32
  0
VERTEX
  8
T26SSILL
 62
2
 10
2837.357
 20
-3889.284
 30
2633.267
 70
    32
  0
VERTEX
  8
T26SSILL
 62
2
 10
2837.487
 20
-3897.612
 30
2633.280
 70
    32
  0
VERTEX
  8
T26SSILL
 62
2
 10
2842.021
 20
-3893.673
 30
2633.275
 70
    32
  0
VERTEX
  8
T26SSILL
 62
2
 10
2848.360
 20
-3903.069
 30
2633.291
 70
    32
  0
VERTEX
  8
T26SSILL
 62
2
 10
2896.392
 20
-3868.118
 30
2633.250
 70
    32
  0
VERTEX
  8
T26SSILL
 62
2
 10
2896.125
 20
-3864.867
 30
2633.245
 70
    32
  0
VERTEX
  8
T26SSILL
 62
2
 10
2889.168
 20
-3853.450
 30
2633.227
 70
    32
  0
VERTEX
  8
T26SSILL
 62
2
 10
2860.828
 20
-3821.757
 30
2633.172
 70
    32
  0
VERTEX
  8
T26SSILL
 62
2
 10
2856.425
 20
-3814.292
 30
2633.160
 70
    32
  0
VERTEX
  8
T26SSILL
 62
2
 10
2854.831
 20
-3804.538
 30
2633.135
 70
    32
  0
VERTEX
  8
T26SSILL
 62
2
 10
2852.452
 20
-3799.883
 30
2633.117
 70
    32
  0
VERTEX
  8
T26SSILL
 62
2
 10
2843.826
 20
-3789.171
 30
2633.073
 70
    32
  0
VERTEX
  8
T26SSILL
 62
2
 10
2802.641
 20
-3817.961
 30
2633.144
 70
    32
  0
VERTEX
  8
T26SSILL
 62
2
 10
2813.645
 20
-3832.098
 30
2633.176
 70
    32
  0
VERTEX
  8
T26SSILL
 62
2
 10
2816.280
 20
-3831.040
 30
2633.175
 70
    32
  0
VERTEX
  8
T26SSILL
 62
2
 10
2818.215
 20
-3832.092
 30
2633.177
 70
    32
  0
SEQEND
  8
T26SSILL
  0
POLYLINE
  8
T26SSILL
 62
2
 66
     1
 70
     9
  0
VERTEX
  8
T26SSILL
 62
2
 10
2712.296
 20
-3821.412
 30
2633.089
 70
    32
  0
VERTEX
  8
T26SSILL
 62
2
 10
2661.804
 20
-3857.772
 30
2633.176
 70
    32
  0
VERTEX
  8
T26SSILL
 62
2
 10
2608.686
 20
-3830.416
 30
2633.044
 70
    32
  0
VERTEX
  8
T26SSILL
 62
2
 10
2586.223
 20
-3846.018
 30
2633.082
 70
    32
  0
VERTEX
  8
T26SSILL
 62
2
 10
2590.607
 20
-3852.235
 30
2633.108
 70
    32
  0
VERTEX
  8
T26SSILL
 62
2
 10
2584.858
 20
-3856.062
 30
2633.117
 70
    32
  0
VERTEX
  8
T26SSILL
 62
2
 10
2610.321
 20
-3874.007
 30
2633.188
 70
    32
  0
VERTEX
  8
T26SSILL
 62
2
 10
2619.653
 20
-3886.828
 30
2633.209
 70
    32
  0
VERTEX
  8
T26SSILL
 62
2
 10
2627.301
 20
-3887.521
 30
2633.212
 70
    32
  0
VERTEX
  8
T26SSILL
 62
2
 10
2644.554
 20
-3909.472
 30
2633.249
 70
    32
  0
VERTEX
  8
T26SSILL
 62
2
 10
2649.295
 20
-3905.863
 30
2633.245
 70
    32
  0
VERTEX
  8
T26SSILL
 62
2
 10
2655.547
 20
-3915.084
 30
2633.260
 70
    32
  0
VERTEX
  8
T26SSILL
 62
2
 10
2693.130
 20
-3888.407
 30
2633.230
 70
    32
  0
VERTEX
  8
T26SSILL
 62
2
 10
2706.119
 20
-3872.835
 30
2633.210
 70
    32
  0
VERTEX
  8
T26SSILL
 62
2
 10
2718.588
 20
-3863.591
 30
2633.199
 70
    32
  0
VERTEX
  8
T26SSILL
 62
2
 10
2715.067
 20
-3859.289
 30
2633.192
 70
    32
  0
VERTEX
  8
T26SSILL
 62
2
 10
2730.414
 20
-3848.492
 30
2633.179
 70
    32
  0
VERTEX
  8
T26SSILL
 62
2
 10
2727.876
 20
-3840.992
 30
2633.168
 70
    32
  0
VERTEX
  8
T26SSILL
 62
2
 10
2722.520
 20
-3844.954
 30
2633.172
 70
    32
  0
VERTEX
  8
T26SSILL
 62
2
 10
2717.322
 20
-3835.205
 30
2633.141
 70
    32
  0
SEQEND
  8
T26SSILL
  0
POLYLINE
  8
T26SSILL
 62
2
 66
     1
 70
     9
  0
VERTEX
  8
T26SSILL
 62
2
 10
2777.058
 20
-3811.840
 30
2633.103
 70
    32
  0
VERTEX
  8
T26SSILL
 62
2
 10
2780.757
 20
-3817.900
 30
2633.127
 70
    32
  0
VERTEX
  8
T26SSILL
 62
2
 10
2775.549
 20
-3821.667
 30
2633.137
 70
    32
  0
VERTEX
  8
T26SSILL
 62
2
 10
2779.375
 20
-3826.944
 30
2633.158
 70
    32
  0
VERTEX
  8
T26SSILL
 62
2
 10
2768.122
 20
-3834.966
 30
2633.169
 70
    32
  0
VERTEX
  8
T26SSILL
 62
2
 10
2756.326
 20
-3819.424
 30
2633.115
 70
    32
  0
VERTEX
  8
T26SSILL
 62
2
 10
2767.213
 20
-3810.622
 30
2633.092
 70
    32
  0
VERTEX
  8
T26SSILL
 62
2
 10
2772.396
 20
-3808.682
 30
2633.089
 70
    32
  0
VERTEX
  8
T26SSILL
 62
2
 10
2774.506
 20
-3809.471
 30
2633.093
 70
    32
  0
SEQEND
  8
T26SSILL
  0
POLYLINE
  8
T26SSILL
 62
2
 66
     1
 70
     9
  0
VERTEX
  8
T26SSILL
 62
2
 10
3083.553
 20
-4119.250
 30
2633.673
 70
    32
  0
VERTEX
  8
T26SSILL
 62
2
 10
3064.059
 20
-4133.073
 30
2633.689
 70
    32
  0
VERTEX
  8
T26SSILL
 62
2
 10
3067.493
 20
-4137.990
 30
2633.697
 70
    32
  0
VERTEX
  8
T26SSILL
 62
2
 10
3047.735
 20
-4152.077
 30
2633.708
 70
    32
  0
VERTEX
  8
T26SSILL
 62
2
 10
3044.477
 20
-4147.247
 30
2633.704
 70
    32
  0
VERTEX
  8
T26SSILL
 62
2
 10
3038.857
 20
-4150.945
 30
2633.700
 70
    32
  0
VERTEX
  8
T26SSILL
 62
2
 10
3048.717
 20
-4164.292
 30
2633.711
 70
    32
  0
VERTEX
  8
T26SSILL
 62
2
 10
3078.661
 20
-4143.602
 30
2633.709
 70
    32
  0
VERTEX
  8
T26SSILL
 62
2
 10
3083.591
 20
-4149.836
 30
2633.719
 70
    32
  0
VERTEX
  8
T26SSILL
 62
2
 10
3085.901
 20
-4170.311
 30
2633.745
 70
    32
  0
VERTEX
  8
T26SSILL
 62
2
 10
3105.972
 20
-4196.038
 30
2633.767
 70
    32
  0
VERTEX
  8
T26SSILL
 62
2
 10
3105.798
 20
-4197.884
 30
2633.768
 70
    32
  0
VERTEX
  8
T26SSILL
 62
2
 10
3096.314
 20
-4204.047
 30
2633.767
 70
    32
  0
VERTEX
  8
T26SSILL
 62
2
 10
3106.703
 20
-4218.800
 30
2633.808
 70
    32
  0
VERTEX
  8
T26SSILL
 62
2
 10
3137.085
 20
-4196.790
 30
2633.799
 70
    32
  0
VERTEX
  8
T26SSILL
 62
2
 10
3137.783
 20
-4192.835
 30
2633.795
 70
    32
  0
VERTEX
  8
T26SSILL
 62
2
 10
3133.910
 20
-4187.917
 30
2633.789
 70
    32
  0
SEQEND
  8
T26SSILL
  0
POLYLINE
  8
T26SSILL
 62
2
 66
     1
 70
     9
  0
VERTEX
  8
T26SSILL
 62
2
 10
2969.612
 20
-4074.239
 30
2633.577
 70
    32
  0
VERTEX
  8
T26SSILL
 62
2
 10
2960.281
 20
-4080.999
 30
2633.585
 70
    32
  0
VERTEX
  8
T26SSILL
 62
2
 10
2964.075
 20
-4086.044
 30
2633.594
 70
    32
  0
VERTEX
  8
T26SSILL
 62
2
 10
2953.768
 20
-4093.844
 30
2633.603
 70
    32
  0
VERTEX
  8
T26SSILL
 62
2
 10
2957.135
 20
-4098.211
 30
2633.610
 70
    32
  0
VERTEX
  8
T26SSILL
 62
2
 10
2954.735
 20
-4100.247
 30
2633.613
 70
    32
  0
VERTEX
  8
T26SSILL
 62
2
 10
2954.993
 20
-4105.778
 30
2633.617
 70
    32
  0
VERTEX
  8
T26SSILL
 62
2
 10
2980.070
 20
-4088.617
 30
2633.602
 70
    32
  0
SEQEND
  8
T26SSILL
  0
POLYLINE
  8
T26SSILL
 62
2
 66
     1
 70
     9
  0
VERTEX
  8
T26SSILL
 62
2
 10
3034.367
 20
-4145.062
 30
2633.694
 70
    32
  0
VERTEX
  8
T26SSILL
 62
2
 10
3049.820
 20
-4133.944
 30
2633.687
 70
    32
  0
VERTEX
  8
T26SSILL
 62
2
 10
3039.642
 20
-4120.412
 30
2633.664
 70
    32
  0
VERTEX
  8
T26SSILL
 62
2
 10
3025.122
 20
-4131.539
 30
2633.677
 70
    32
  0
VERTEX
  8
T26SSILL
 62
2
 10
3030.265
 20
-4139.062
 30
2633.690
 70
    32
  0
SEQEND
  8
T26SSILL
  0
POLYLINE
  8
T26SSILL
 62
2
 66
     1
 70
     9
  0
VERTEX
  8
T26SSILL
 62
2
 10
2092.859
 20
-2773.674
 30
2633.163
 70
    32
  0
VERTEX
  8
T26SSILL
 62
2
 10
1906.507
 20
-2528.011
 30
2633.844
 70
    32
  0
VERTEX
  8
T26SSILL
 62
2
 10
1899.888
 20
-2534.179
 30
2633.821
 70
    32
  0
VERTEX
  8
T26SSILL
 62
2
 10
1975.558
 20
-2633.648
 30
2633.408
 70
    32
  0
VERTEX
  8
T26SSILL
 62
2
 10
1964.225
 20
-2630.384
 30
2633.423
 70
    32
  0
VERTEX
  8
T26SSILL
 62
2
 10
1951.131
 20
-2637.161
 30
2633.399
 70
    32
  0
VERTEX
  8
T26SSILL
 62
2
 10
1914.785
 20
-2637.538
 30
2633.404
 70
    32
  0
VERTEX
  8
T26SSILL
 62
2
 10
1899.999
 20
-2641.027
 30
2633.393
 70
    32
  0
VERTEX
  8
T26SSILL
 62
2
 10
1885.495
 20
-2649.373
 30
2633.362
 70
    32
  0
VERTEX
  8
T26SSILL
 62
2
 10
1874.931
 20
-2659.806
 30
2633.322
 70
    32
  0
VERTEX
  8
T26SSILL
 62
2
 10
1869.424
 20
-2668.372
 30
2633.305
 70
    32
  0
VERTEX
  8
T26SSILL
 62
2
 10
1862.006
 20
-2686.880
 30
2633.350
 70
    32
  0
VERTEX
  8
T26SSILL
 62
2
 10
1852.920
 20
-2698.834
 30
2633.386
 70
    32
  0
VERTEX
  8
T26SSILL
 62
2
 10
1853.816
 20
-2702.823
 30
2633.391
 70
    32
  0
VERTEX
  8
T26SSILL
 62
2
 10
1845.850
 20
-2707.688
 30
2633.413
 70
    32
  0
VERTEX
  8
T26SSILL
 62
2
 10
1836.778
 20
-2697.310
 30
2633.414
 70
    32
  0
VERTEX
  8
T26SSILL
 62
2
 10
1830.844
 20
-2701.400
 30
2633.432
 70
    32
  0
VERTEX
  8
T26SSILL
 62
2
 10
1836.845
 20
-2710.520
 30
2633.435
 70
    32
  0
VERTEX
  8
T26SSILL
 62
2
 10
1837.252
 20
-2714.486
 30
2633.440
 70
    32
  0
VERTEX
  8
T26SSILL
 62
2
 10
1812.063
 20
-2736.292
 30
2633.521
 70
    32
  0
VERTEX
  8
T26SSILL
 62
2
 10
1202.862
 20
-3175.270
 30
2634.302
 70
    32
  0
VERTEX
  8
T26SSILL
 62
2
 10
1199.900
 20
-3175.272
 30
2634.307
 70
    32
  0
VERTEX
  8
T26SSILL
 62
2
 10
1176.108
 20
-3143.474
 30
2634.402
 70
    32
  0
VERTEX
  8
T26SSILL
 62
2
 10
1180.206
 20
-3135.993
 30
2634.407
 70
    32
  0
VERTEX
  8
T26SSILL
 62
2
 10
1197.744
 20
-3123.534
 30
2634.397
 70
    32
  0
VERTEX
  8
T26SSILL
 62
2
 10
1200.659
 20
-3119.178
 30
2634.399
 70
    32
  0
VERTEX
  8
T26SSILL
 62
2
 10
1198.177
 20
-3105.325
 30
2634.426
 70
    32
  0
VERTEX
  8
T26SSILL
 62
2
 10
1190.239
 20
-3089.592
 30
2634.466
 70
    32
  0
VERTEX
  8
T26SSILL
 62
2
 10
1179.789
 20
-3082.308
 30
2634.496
 70
    32
  0
VERTEX
  8
T26SSILL
 62
2
 10
1168.279
 20
-3085.137
 30
2634.512
 70
    32
  0
VERTEX
  8
T26SSILL
 62
2
 10
1153.224
 20
-3091.474
 30
2634.528
 70
    32
  0
VERTEX
  8
T26SSILL
 62
2
 10
1143.663
 20
-3092.639
 30
2634.543
 70
    32
  0
VERTEX
  8
T26SSILL
 62
2
 10
1137.614
 20
-3089.662
 30
2634.559
 70
    32
  0
VERTEX
  8
T26SSILL
 62
2
 10
1122.288
 20
-3067.666
 30
2634.622
 70
    32
  0
VERTEX
  8
T26SSILL
 62
2
 10
1120.499
 20
-3062.738
 30
2634.633
 70
    32
  0
VERTEX
  8
T26SSILL
 62
2
 10
1120.919
 20
-3050.135
 30
2634.653
 70
    32
  0
VERTEX
  8
T26SSILL
 62
2
 10
1126.705
 20
-3039.588
 30
2634.661
 70
    32
  0
VERTEX
  8
T26SSILL
 62
2
 10
1183.884
 20
-2999.046
 30
2634.627
 70
    32
  0
VERTEX
  8
T26SSILL
 62
2
 10
1218.957
 20
-3004.312
 30
2634.557
 70
    32
  0
VERTEX
  8
T26SSILL
 62
2
 10
1270.194
 20
-2967.299
 30
2634.528
 70
    32
  0
VERTEX
  8
T26SSILL
 62
2
 10
1265.904
 20
-2961.811
 30
2634.544
 70
    32
  0
VERTEX
  8
T26SSILL
 62
2
 10
1217.534
 20
-2996.917
 30
2634.571
 70
    32
  0
VERTEX
  8
T26SSILL
 62
2
 10
1191.583
 20
-2993.446
 30
2634.623
 70
    32
  0
VERTEX
  8
T26SSILL
 62
2
 10
1269.893
 20
-2937.891
 30
2634.577
 70
    32
  0
VERTEX
  8
T26SSILL
 62
2
 10
1265.501
 20
-2931.820
 30
2634.595
 70
    32
  0
VERTEX
  8
T26SSILL
 62
2
 10
1127.444
 20
-3029.931
 30
2634.675
 70
    32
  0
VERTEX
  8
T26SSILL
 62
2
 10
1117.657
 20
-3040.262
 30
2634.676
 70
    32
  0
VERTEX
  8
T26SSILL
 62
2
 10
1112.115
 20
-3054.689
 30
2634.661
 70
    32
  0
VERTEX
  8
T26SSILL
 62
2
 10
1034.741
 20
-2945.481
 30
2634.979
 70
    32
  0
VERTEX
  8
T26SSILL
 62
2
 10
1033.403
 20
-2931.987
 30
2635.003
 70
    32
  0
VERTEX
  8
T26SSILL
 62
2
 10
1039.429
 20
-2919.396
 30
2634.994
 70
    32
  0
VERTEX
  8
T26SSILL
 62
2
 10
1190.974
 20
-2811.062
 30
2634.722
 70
    32
  0
VERTEX
  8
T26SSILL
 62
2
 10
1186.388
 20
-2805.026
 30
2634.727
 70
    32
  0
VERTEX
  8
T26SSILL
 62
2
 10
1153.381
 20
-2828.737
 30
2634.786
 70
    32
  0
VERTEX
  8
T26SSILL
 62
2
 10
1137.282
 20
-2812.802
 30
2634.805
 70
    32
  0
VERTEX
  8
T26SSILL
 62
2
 10
1132.022
 20
-2804.082
 30
2634.810
 70
    32
  0
VERTEX
  8
T26SSILL
 62
2
 10
1130.489
 20
-2794.025
 30
2634.809
 70
    32
  0
VERTEX
  8
T26SSILL
 62
2
 10
1122.723
 20
-2782.665
 30
2634.817
 70
    32
  0
VERTEX
  8
T26SSILL
 62
2
 10
1118.738
 20
-2769.597
 30
2634.813
 70
    32
  0
VERTEX
  8
T26SSILL
 62
2
 10
1127.339
 20
-2763.438
 30
2634.794
 70
    32
  0
VERTEX
  8
T26SSILL
 62
2
 10
1123.033
 20
-2757.632
 30
2634.796
 70
    32
  0
VERTEX
  8
T26SSILL
 62
2
 10
1119.121
 20
-2760.643
 30
2634.805
 70
    32
  0
VERTEX
  8
T26SSILL
 62
2
 10
1109.136
 20
-2751.916
 30
2634.814
 70
    32
  0
VERTEX
  8
T26SSILL
 62
2
 10
1100.442
 20
-2765.497
 30
2634.840
 70
    32
  0
VERTEX
  8
T26SSILL
 62
2
 10
1096.236
 20
-2777.287
 30
2634.856
 70
    32
  0
VERTEX
  8
T26SSILL
 62
2
 10
1000.690
 20
-2844.967
 30
2635.028
 70
    32
  0
VERTEX
  8
T26SSILL
 62
2
 10
992.899
 20
-2854.586
 30
2635.044
 70
    32
  0
VERTEX
  8
T26SSILL
 62
2
 10
989.611
 20
-2862.731
 30
2635.052
 70
    32
  0
VERTEX
  8
T26SSILL
 62
2
 10
911.359
 20
-2696.997
 30
2635.090
 70
    32
  0
VERTEX
  8
T26SSILL
 62
2
 10
911.291
 20
-2693.206
 30
2635.087
 70
    32
  0
VERTEX
  8
T26SSILL
 62
2
 10
913.200
 20
-2682.462
 30
2635.075
 70
    32
  0
VERTEX
  8
T26SSILL
 62
2
 10
919.527
 20
-2672.941
 30
2635.057
 70
    32
  0
VERTEX
  8
T26SSILL
 62
2
 10
1003.949
 20
-2611.865
 30
2634.837
 70
    32
  0
VERTEX
  8
T26SSILL
 62
2
 10
999.609
 20
-2605.865
 30
2634.830
 70
    32
  0
VERTEX
  8
T26SSILL
 62
2
 10
917.437
 20
-2664.943
 30
2635.054
 70
    32
  0
VERTEX
  8
T26SSILL
 62
2
 10
909.763
 20
-2672.500
 30
2635.073
 70
    32
  0
VERTEX
  8
T26SSILL
 62
2
 10
904.294
 20
-2683.031
 30
2635.090
 70
    32
  0
VERTEX
  8
T26SSILL
 62
2
 10
889.561
 20
-2652.365
 30
2635.089
 70
    32
  0
VERTEX
  8
T26SSILL
 62
2
 10
888.495
 20
-2637.462
 30
2635.078
 70
    32
  0
VERTEX
  8
T26SSILL
 62
2
 10
882.452
 20
-2626.799
 30
2635.079
 70
    32
  0
VERTEX
  8
T26SSILL
 62
2
 10
871.778
 20
-2615.070
 30
2635.087
 70
    32
  0
VERTEX
  8
T26SSILL
 62
2
 10
849.905
 20
-2567.970
 30
2635.023
 70
    32
  0
VERTEX
  8
T26SSILL
 62
2
 10
848.498
 20
-2557.490
 30
2634.999
 70
    32
  0
VERTEX
  8
T26SSILL
 62
2
 10
851.348
 20
-2548.902
 30
2634.972
 70
    32
  0
VERTEX
  8
T26SSILL
 62
2
 10
854.792
 20
-2544.372
 30
2634.954
 70
    32
  0
VERTEX
  8
T26SSILL
 62
2
 10
929.571
 20
-2489.679
 30
2634.670
 70
    32
  0
VERTEX
  8
T26SSILL
 62
2
 10
954.283
 20
-2510.421
 30
2634.675
 70
    32
  0
VERTEX
  8
T26SSILL
 62
2
 10
958.832
 20
-2506.937
 30
2634.658
 70
    32
  0
VERTEX
  8
T26SSILL
 62
2
 10
955.456
 20
-2498.686
 30
2634.643
 70
    32
  0
VERTEX
  8
T26SSILL
 62
2
 10
942.523
 20
-2480.951
 30
2634.623
 70
    32
  0
VERTEX
  8
T26SSILL
 62
2
 10
952.275
 20
-2473.828
 30
2634.586
 70
    32
  0
VERTEX
  8
T26SSILL
 62
2
 10
948.428
 20
-2467.902
 30
2634.579
 70
    32
  0
VERTEX
  8
T26SSILL
 62
2
 10
940.525
 20
-2465.532
 30
2634.589
 70
    32
  0
VERTEX
  8
T26SSILL
 62
2
 10
934.114
 20
-2457.776
 30
2634.599
 70
    32
  0
VERTEX
  8
T26SSILL
 62
2
 10
922.155
 20
-2436.027
 30
2634.617
 70
    32
  0
VERTEX
  8
T26SSILL
 62
2
 10
913.993
 20
-2386.549
 30
2634.632
 70
    32
  0
VERTEX
  8
T26SSILL
 62
2
 10
918.503
 20
-2383.753
 30
2634.626
 70
    32
  0
VERTEX
  8
T26SSILL
 62
2
 10
916.342
 20
-2366.041
 30
2634.681
 70
    32
  0
VERTEX
  8
T26SSILL
 62
2
 10
910.313
 20
-2365.903
 30
2634.682
 70
    32
  0
VERTEX
  8
T26SSILL
 62
2
 10
904.749
 20
-2331.618
 30
2634.821
 70
    32
  0
VERTEX
  8
T26SSILL
 62
2
 10
910.075
 20
-2327.997
 30
2634.834
 70
    32
  0
VERTEX
  8
T26SSILL
 62
2
 10
905.822
 20
-2322.262
 30
2634.858
 70
    32
  0
VERTEX
  8
T26SSILL
 62
2
 10
833.724
 20
-2373.320
 30
2634.743
 70
    32
  0
VERTEX
  8
T26SSILL
 62
2
 10
857.734
 20
-2215.590
 30
2635.294
 70
    32
  0
VERTEX
  8
T26SSILL
 62
2
 10
850.677
 20
-2214.314
 30
2635.300
 70
    32
  0
VERTEX
  8
T26SSILL
 62
2
 10
808.269
 20
-2491.409
 30
2634.910
 70
    32
  0
VERTEX
  8
T26SSILL
 62
2
 10
688.630
 20
-2409.706
 30
2634.939
 70
    32
  0
VERTEX
  8
T26SSILL
 62
2
 10
566.319
 20
-2237.688
 30
2635.261
 70
    32
  0
VERTEX
  8
T26SSILL
 62
2
 10
559.983
 20
-2242.168
 30
2635.244
 70
    32
  0
VERTEX
  8
T26SSILL
 62
2
 10
683.087
 20
-2414.366
 30
2634.956
 70
    32
  0
VERTEX
  8
T26SSILL
 62
2
 10
809.014
 20
-2500.404
 30
2634.931
 70
    32
  0
VERTEX
  8
T26SSILL
 62
2
 10
829.081
 20
-2542.259
 30
2634.998
 70
    32
  0
VERTEX
  8
T26SSILL
 62
2
 10
827.746
 20
-2551.261
 30
2635.024
 70
    32
  0
VERTEX
  8
T26SSILL
 62
2
 10
829.976
 20
-2559.594
 30
2635.041
 70
    32
  0
VERTEX
  8
T26SSILL
 62
2
 10
844.339
 20
-2586.804
 30
2635.082
 70
    32
  0
VERTEX
  8
T26SSILL
 62
2
 10
848.280
 20
-2604.843
 30
2635.109
 70
    32
  0
VERTEX
  8
T26SSILL
 62
2
 10
852.459
 20
-2614.473
 30
2635.098
 70
    32
  0
VERTEX
  8
T26SSILL
 62
2
 10
862.982
 20
-2628.069
 30
2635.099
 70
    32
  0
VERTEX
  8
T26SSILL
 62
2
 10
876.508
 20
-2650.303
 30
2635.099
 70
    32
  0
VERTEX
  8
T26SSILL
 62
2
 10
883.774
 20
-2656.547
 30
2635.100
 70
    32
  0
VERTEX
  8
T26SSILL
 62
2
 10
1012.527
 20
-2929.142
 30
2635.025
 70
    32
  0
VERTEX
  8
T26SSILL
 62
2
 10
1134.059
 20
-3098.335
 30
2634.537
 70
    32
  0
VERTEX
  8
T26SSILL
 62
2
 10
1112.298
 20
-3115.901
 30
2634.474
 70
    32
  0
VERTEX
  8
T26SSILL
 62
2
 10
1112.377
 20
-3120.891
 30
2634.458
 70
    32
  0
VERTEX
  8
T26SSILL
 62
2
 10
1117.779
 20
-3126.103
 30
2634.443
 70
    32
  0
VERTEX
  8
T26SSILL
 62
2
 10
1122.428
 20
-3127.045
 30
2634.442
 70
    32
  0
VERTEX
  8
T26SSILL
 62
2
 10
1141.236
 20
-3114.522
 30
2634.488
 70
    32
  0
VERTEX
  8
T26SSILL
 62
2
 10
1146.429
 20
-3116.049
 30
2634.485
 70
    32
  0
VERTEX
  8
T26SSILL
 62
2
 10
1154.253
 20
-3126.598
 30
2634.454
 70
    32
  0
VERTEX
  8
T26SSILL
 62
2
 10
1154.859
 20
-3131.855
 30
2634.437
 70
    32
  0
VERTEX
  8
T26SSILL
 62
2
 10
1158.215
 20
-3137.268
 30
2634.421
 70
    32
  0
VERTEX
  8
T26SSILL
 62
2
 10
1152.478
 20
-3141.962
 30
2634.404
 70
    32
  0
VERTEX
  8
T26SSILL
 62
2
 10
1156.943
 20
-3147.539
 30
2634.388
 70
    32
  0
VERTEX
  8
T26SSILL
 62
2
 10
1161.339
 20
-3149.766
 30
2634.383
 70
    32
  0
VERTEX
  8
T26SSILL
 62
2
 10
1168.250
 20
-3146.507
 30
2634.395
 70
    32
  0
VERTEX
  8
T26SSILL
 62
2
 10
1189.569
 20
-3175.252
 30
2634.311
 70
    32
  0
VERTEX
  8
T26SSILL
 62
2
 10
1185.961
 20
-3187.256
 30
2634.320
 70
    32
  0
VERTEX
  8
T26SSILL
 62
2
 10
1086.539
 20
-3258.875
 30
2634.488
 70
    32
  0
VERTEX
  8
T26SSILL
 62
2
 10
1079.853
 20
-3255.197
 30
2634.488
 70
    32
  0
VERTEX
  8
T26SSILL
 62
2
 10
1075.088
 20
-3262.682
 30
2634.501
 70
    32
  0
VERTEX
  8
T26SSILL
 62
2
 10
1073.592
 20
-3268.202
 30
2634.510
 70
    32
  0
VERTEX
  8
T26SSILL
 62
2
 10
984.716
 20
-3332.224
 30
2634.659
 70
    32
  0
VERTEX
  8
T26SSILL
 62
2
 10
934.332
 20
-3300.555
 30
2634.659
 70
    32
  0
VERTEX
  8
T26SSILL
 62
2
 10
925.915
 20
-3280.412
 30
2634.640
 70
    32
  0
VERTEX
  8
T26SSILL
 62
2
 10
922.239
 20
-3277.931
 30
2634.639
 70
    32
  0
VERTEX
  8
T26SSILL
 62
2
 10
904.945
 20
-3282.737
 30
2634.659
 70
    32
  0
VERTEX
  8
T26SSILL
 62
2
 10
899.273
 20
-3278.617
 30
2634.658
 70
    32
  0
VERTEX
  8
T26SSILL
 62
2
 10
886.496
 20
-3261.823
 30
2634.647
 70
    32
  0
VERTEX
  8
T26SSILL
 62
2
 10
895.025
 20
-3255.215
 30
2634.632
 70
    32
  0
VERTEX
  8
T26SSILL
 62
2
 10
889.386
 20
-3248.093
 30
2634.627
 70
    32
  0
VERTEX
  8
T26SSILL
 62
2
 10
881.033
 20
-3254.789
 30
2634.642
 70
    32
  0
VERTEX
  8
T26SSILL
 62
2
 10
851.795
 20
-3217.973
 30
2634.619
 70
    32
  0
VERTEX
  8
T26SSILL
 62
2
 10
753.665
 20
-3170.860
 30
2634.636
 70
    32
  0
VERTEX
  8
T26SSILL
 62
2
 10
718.097
 20
-3120.854
 30
2634.600
 70
    32
  0
VERTEX
  8
T26SSILL
 62
2
 10
717.380
 20
-3109.151
 30
2634.586
 70
    32
  0
VERTEX
  8
T26SSILL
 62
2
 10
719.663
 20
-3104.133
 30
2634.578
 70
    32
  0
VERTEX
  8
T26SSILL
 62
2
 10
737.073
 20
-3091.883
 30
2634.549
 70
    32
  0
VERTEX
  8
T26SSILL
 62
2
 10
740.504
 20
-3090.559
 30
2634.544
 70
    32
  0
VERTEX
  8
T26SSILL
 62
2
 10
752.384
 20
-3090.987
 30
2634.536
 70
    32
  0
VERTEX
  8
T26SSILL
 62
2
 10
775.825
 20
-3122.729
 30
2634.557
 70
    32
  0
VERTEX
  8
T26SSILL
 62
2
 10
779.443
 20
-3132.493
 30
2634.567
 70
    32
  0
VERTEX
  8
T26SSILL
 62
2
 10
782.461
 20
-3157.217
 30
2634.596
 70
    32
  0
VERTEX
  8
T26SSILL
 62
2
 10
798.503
 20
-3182.279
 30
2634.615
 70
    32
  0
VERTEX
  8
T26SSILL
 62
2
 10
805.273
 20
-3177.168
 30
2634.603
 70
    32
  0
VERTEX
  8
T26SSILL
 62
2
 10
801.745
 20
-3169.164
 30
2634.596
 70
    32
  0
VERTEX
  8
T26SSILL
 62
2
 10
804.201
 20
-3161.594
 30
2634.584
 70
    32
  0
VERTEX
  8
T26SSILL
 62
2
 10
809.124
 20
-3157.101
 30
2634.575
 70
    32
  0
VERTEX
  8
T26SSILL
 62
2
 10
799.519
 20
-3144.703
 30
2634.567
 70
    32
  0
VERTEX
  8
T26SSILL
 62
2
 10
797.662
 20
-3136.169
 30
2634.557
 70
    32
  0
VERTEX
  8
T26SSILL
 62
2
 10
791.752
 20
-3122.624
 30
2634.545
 70
    32
  0
VERTEX
  8
T26SSILL
 62
2
 10
782.862
 20
-3120.521
 30
2634.549
 70
    32
  0
VERTEX
  8
T26SSILL
 62
2
 10
758.538
 20
-3085.612
 30
2634.524
 70
    32
  0
VERTEX
  8
T26SSILL
 62
2
 10
760.641
 20
-3076.722
 30
2634.511
 70
    32
  0
VERTEX
  8
T26SSILL
 62
2
 10
755.793
 20
-3068.896
 30
2634.506
 70
    32
  0
VERTEX
  8
T26SSILL
 62
2
 10
749.286
 20
-3073.566
 30
2634.516
 70
    32
  0
VERTEX
  8
T26SSILL
 62
2
 10
726.108
 20
-3040.592
 30
2634.587
 70
    32
  0
VERTEX
  8
T26SSILL
 62
2
 10
719.600
 20
-3044.735
 30
2634.571
 70
    32
  0
VERTEX
  8
T26SSILL
 62
2
 10
732.555
 20
-3062.936
 30
2634.518
 70
    32
  0
VERTEX
  8
T26SSILL
 62
2
 10
724.563
 20
-3077.992
 30
2634.541
 70
    32
  0
VERTEX
  8
T26SSILL
 62
2
 10
731.525
 20
-3087.225
 30
2634.547
 70
    32
  0
VERTEX
  8
T26SSILL
 62
2
 10
706.376
 20
-3105.203
 30
2634.590
 70
    32
  0
VERTEX
  8
T26SSILL
 62
2
 10
545.246
 20
-2880.423
 30
2635.188
 70
    32
  0
VERTEX
  8
T26SSILL
 62
2
 10
558.510
 20
-2789.178
 30
2635.318
 70
    32
  0
VERTEX
  8
T26SSILL
 62
2
 10
419.478
 20
-2594.754
 30
2635.473
 70
    32
  0
VERTEX
  8
T26SSILL
 62
2
 10
412.642
 20
-2587.012
 30
2635.474
 70
    32
  0
VERTEX
  8
T26SSILL
 62
2
 10
400.201
 20
-2581.016
 30
2635.480
 70
    32
  0
VERTEX
  8
T26SSILL
 62
2
 10
318.766
 20
-2568.366
 30
2635.542
 70
    32
  0
VERTEX
  8
T26SSILL
 62
2
 10
-5.315
 20
-2120.564
 30
2635.911
 70
    32
  0
VERTEX
  8
T26SSILL
 62
2
 10
-12.730
 20
-2104.582
 30
2635.923
 70
    32
  0
VERTEX
  8
T26SSILL
 62
2
 10
-142.995
 20
-2044.975
 30
2636.167
 70
    32
  0
VERTEX
  8
T26SSILL
 62
2
 10
-149.104
 20
-2034.238
 30
2636.211
 70
    32
  0
VERTEX
  8
T26SSILL
 62
2
 10
-164.365
 20
-2026.753
 30
2636.244
 70
    32
  0
VERTEX
  8
T26SSILL
 62
2
 10
-178.500
 20
-2023.807
 30
2636.259
 70
    32
  0
VERTEX
  8
T26SSILL
 62
2
 10
-186.335
 20
-2024.910
 30
2636.256
 70
    32
  0
VERTEX
  8
T26SSILL
 62
2
 10
-354.055
 20
-1948.823
 30
2636.564
 70
    32
  0
VERTEX
  8
T26SSILL
 62
2
 10
-357.298
 20
-1955.538
 30
2636.542
 70
    32
  0
VERTEX
  8
T26SSILL
 62
2
 10
-265.124
 20
-1997.080
 30
2636.375
 70
    32
  0
VERTEX
  8
T26SSILL
 62
2
 10
-267.148
 20
-2001.182
 30
2636.362
 70
    32
  0
VERTEX
  8
T26SSILL
 62
2
 10
-609.872
 20
-1956.833
 30
2636.864
 70
    32
  0
VERTEX
  8
T26SSILL
 62
2
 10
-613.128
 20
-1941.969
 30
2636.849
 70
    32
  0
VERTEX
  8
T26SSILL
 62
2
 10
-618.000
 20
-1941.199
 30
2636.857
 70
    32
  0
VERTEX
  8
T26SSILL
 62
2
 10
-622.745
 20
-1942.755
 30
2636.868
 70
    32
  0
VERTEX
  8
T26SSILL
 62
2
 10
-630.745
 20
-1954.258
 30
2636.907
 70
    32
  0
VERTEX
  8
T26SSILL
 62
2
 10
-734.693
 20
-1940.893
 30
2637.117
 70
    32
  0
VERTEX
  8
T26SSILL
 62
2
 10
-735.225
 20
-1948.021
 30
2637.121
 70
    32
  0
VERTEX
  8
T26SSILL
 62
2
 10
-708.738
 20
-1951.716
 30
2637.067
 70
    32
  0
VERTEX
  8
T26SSILL
 62
2
 10
-708.077
 20
-1955.402
 30
2637.067
 70
    32
  0
VERTEX
  8
T26SSILL
 62
2
 10
-693.967
 20
-1956.883
 30
2637.039
 70
    32
  0
VERTEX
  8
T26SSILL
 62
2
 10
-692.479
 20
-1953.562
 30
2637.034
 70
    32
  0
VERTEX
  8
T26SSILL
 62
2
 10
-591.266
 20
-1966.318
 30
2636.830
 70
    32
  0
VERTEX
  8
T26SSILL
 62
2
 10
-590.725
 20
-1972.835
 30
2636.829
 70
    32
  0
VERTEX
  8
T26SSILL
 62
2
 10
-627.772
 20
-1987.406
 30
2636.905
 70
    32
  0
VERTEX
  8
T26SSILL
 62
2
 10
-743.679
 20
-1976.733
 30
2637.115
 70
    32
  0
VERTEX
  8
T26SSILL
 62
2
 10
-745.657
 20
-1974.879
 30
2637.118
 70
    32
  0
VERTEX
  8
T26SSILL
 62
2
 10
-754.641
 20
-1973.469
 30
2637.136
 70
    32
  0
VERTEX
  8
T26SSILL
 62
2
 10
-754.643
 20
-1970.612
 30
2637.151
 70
    32
  0
VERTEX
  8
T26SSILL
 62
2
 10
-761.698
 20
-1970.348
 30
2637.168
 70
    32
  0
VERTEX
  8
T26SSILL
 62
2
 10
-766.577
 20
-1974.769
 30
2637.157
 70
    32
  0
VERTEX
  8
T26SSILL
 62
2
 10
-872.109
 20
-1965.531
 30
2637.409
 70
    32
  0
VERTEX
  8
T26SSILL
 62
2
 10
-873.180
 20
-1971.536
 30
2637.393
 70
    32
  0
VERTEX
  8
T26SSILL
 62
2
 10
-766.817
 20
-1981.702
 30
2637.160
 70
    32
  0
VERTEX
  8
T26SSILL
 62
2
 10
-767.717
 20
-1987.488
 30
2637.163
 70
    32
  0
VERTEX
  8
T26SSILL
 62
2
 10
-761.295
 20
-1991.561
 30
2637.153
 70
    32
  0
VERTEX
  8
T26SSILL
 62
2
 10
-754.315
 20
-1988.700
 30
2637.139
 70
    32
  0
VERTEX
  8
T26SSILL
 62
2
 10
-754.099
 20
-1982.524
 30
2637.136
 70
    32
  0
VERTEX
  8
T26SSILL
 62
2
 10
-622.739
 20
-1994.946
 30
2636.901
 70
    32
  0
VERTEX
  8
T26SSILL
 62
2
 10
-565.682
 20
-1969.769
 30
2636.781
 70
    32
  0
VERTEX
  8
T26SSILL
 62
2
 10
-230.281
 20
-2013.292
 30
2636.310
 70
    32
  0
VERTEX
  8
T26SSILL
 62
2
 10
-16.754
 20
-2109.808
 30
2635.928
 70
    32
  0
VERTEX
  8
T26SSILL
 62
2
 10
-11.436
 20
-2123.680
 30
2635.920
 70
    32
  0
VERTEX
  8
T26SSILL
 62
2
 10
13.288
 20
-2157.907
 30
2635.883
 70
    32
  0
VERTEX
  8
T26SSILL
 62
2
 10
0.906
 20
-2157.453
 30
2635.900
 70
    32
  0
VERTEX
  8
T26SSILL
 62
2
 10
-8.688
 20
-2161.940
 30
2635.913
 70
    32
  0
VERTEX
  8
T26SSILL
 62
2
 10
-48.416
 20
-2189.928
 30
2635.965
 70
    32
  0
VERTEX
  8
T26SSILL
 62
2
 10
-232.341
 20
-2322.100
 30
2636.397
 70
    32
  0
VERTEX
  8
T26SSILL
 62
2
 10
-228.736
 20
-2328.734
 30
2636.396
 70
    32
  0
VERTEX
  8
T26SSILL
 62
2
 10
-74.634
 20
-2219.056
 30
2635.969
 70
    32
  0
VERTEX
  8
T26SSILL
 62
2
 10
-77.711
 20
-2235.136
 30
2635.987
 70
    32
  0
VERTEX
  8
T26SSILL
 62
2
 10
-81.283
 20
-2238.441
 30
2635.997
 70
    32
  0
VERTEX
  8
T26SSILL
 62
2
 10
-80.578
 20
-2244.708
 30
2636.000
 70
    32
  0
VERTEX
  8
T26SSILL
 62
2
 10
-85.575
 20
-2264.402
 30
2636.025
 70
    32
  0
VERTEX
  8
T26SSILL
 62
2
 10
-79.236
 20
-2266.600
 30
2636.014
 70
    32
  0
VERTEX
  8
T26SSILL
 62
2
 10
-72.878
 20
-2261.884
 30
2635.997
 70
    32
  0
VERTEX
  8
T26SSILL
 62
2
 10
-66.202
 20
-2247.407
 30
2635.972
 70
    32
  0
VERTEX
  8
T26SSILL
 62
2
 10
-71.004
 20
-2240.784
 30
2635.977
 70
    32
  0
VERTEX
  8
T26SSILL
 62
2
 10
-66.349
 20
-2212.803
 30
2635.946
 70
    32
  0
VERTEX
  8
T26SSILL
 62
2
 10
-3.089
 20
-2167.424
 30
2635.905
 70
    32
  0
VERTEX
  8
T26SSILL
 62
2
 10
4.860
 20
-2164.705
 30
2635.894
 70
    32
  0
VERTEX
  8
T26SSILL
 62
2
 10
13.373
 20
-2164.962
 30
2635.882
 70
    32
  0
VERTEX
  8
T26SSILL
 62
2
 10
21.528
 20
-2169.756
 30
2635.871
 70
    32
  0
VERTEX
  8
T26SSILL
 62
2
 10
69.271
 20
-2234.877
 30
2635.800
 70
    32
  0
VERTEX
  8
T26SSILL
 62
2
 10
60.881
 20
-2234.638
 30
2635.812
 70
    32
  0
VERTEX
  8
T26SSILL
 62
2
 10
51.916
 20
-2236.577
 30
2635.824
 70
    32
  0
VERTEX
  8
T26SSILL
 62
2
 10
40.685
 20
-2244.100
 30
2635.839
 70
    32
  0
VERTEX
  8
T26SSILL
 62
2
 10
-258.727
 20
-2457.961
 30
2636.602
 70
    32
  0
VERTEX
  8
T26SSILL
 62
2
 10
-254.378
 20
-2463.825
 30
2636.598
 70
    32
  0
VERTEX
  8
T26SSILL
 62
2
 10
54.328
 20
-2242.783
 30
2635.820
 70
    32
  0
VERTEX
  8
T26SSILL
 62
2
 10
62.903
 20
-2241.351
 30
2635.809
 70
    32
  0
VERTEX
  8
T26SSILL
 62
2
 10
70.794
 20
-2242.837
 30
2635.798
 70
    32
  0
VERTEX
  8
T26SSILL
 62
2
 10
78.281
 20
-2247.469
 30
2635.787
 70
    32
  0
VERTEX
  8
T26SSILL
 62
2
 10
125.291
 20
-2311.600
 30
2635.703
 70
    32
  0
VERTEX
  8
T26SSILL
 62
2
 10
120.879
 20
-2310.820
 30
2635.703
 70
    32
  0
VERTEX
  8
T26SSILL
 62
2
 10
109.488
 20
-2312.587
 30
2635.698
 70
    32
  0
VERTEX
  8
T26SSILL
 62
2
 10
101.619
 20
-2316.947
 30
2635.689
 70
    32
  0
VERTEX
  8
T26SSILL
 62
2
 10
-141.320
 20
-2490.913
 30
2636.370
 70
    32
  0
VERTEX
  8
T26SSILL
 62
2
 10
-149.471
 20
-2482.284
 30
2636.380
 70
    32
  0
VERTEX
  8
T26SSILL
 62
2
 10
-159.012
 20
-2480.051
 30
2636.399
 70
    32
  0
VERTEX
  8
T26SSILL
 62
2
 10
-168.444
 20
-2474.124
 30
2636.414
 70
    32
  0
VERTEX
  8
T26SSILL
 62
2
 10
-178.028
 20
-2463.711
 30
2636.425
 70
    32
  0
VERTEX
  8
T26SSILL
 62
2
 10
-178.490
 20
-2461.316
 30
2636.423
 70
    32
  0
VERTEX
  8
T26SSILL
 62
2
 10
-184.678
 20
-2466.999
 30
2636.443
 70
    32
  0
VERTEX
  8
T26SSILL
 62
2
 10
-171.631
 20
-2481.197
 30
2636.429
 70
    32
  0
VERTEX
  8
T26SSILL
 62
2
 10
-158.339
 20
-2489.079
 30
2636.407
 70
    32
  0
VERTEX
  8
T26SSILL
 62
2
 10
-153.032
 20
-2499.927
 30
2636.407
 70
    32
  0
VERTEX
  8
T26SSILL
 62
2
 10
-286.918
 20
-2595.730
 30
2636.813
 70
    32
  0
VERTEX
  8
T26SSILL
 62
2
 10
-282.772
 20
-2602.829
 30
2636.811
 70
    32
  0
VERTEX
  8
T26SSILL
 62
2
 10
-162.932
 20
-2515.372
 30
2636.446
 70
    32
  0
VERTEX
  8
T26SSILL
 62
2
 10
-152.493
 20
-2520.442
 30
2636.427
 70
    32
  0
VERTEX
  8
T26SSILL
 62
2
 10
-139.244
 20
-2510.399
 30
2636.386
 70
    32
  0
VERTEX
  8
T26SSILL
 62
2
 10
-136.760
 20
-2496.620
 30
2636.366
 70
    32
  0
VERTEX
  8
T26SSILL
 62
2
 10
109.643
 20
-2319.590
 30
2635.687
 70
    32
  0
VERTEX
  8
T26SSILL
 62
2
 10
115.546
 20
-2317.951
 30
2635.690
 70
    32
  0
VERTEX
  8
T26SSILL
 62
2
 10
124.410
 20
-2318.386
 30
2635.692
 70
    32
  0
VERTEX
  8
T26SSILL
 62
2
 10
128.308
 20
-2319.656
 30
2635.690
 70
    32
  0
VERTEX
  8
T26SSILL
 62
2
 10
135.345
 20
-2326.045
 30
2635.681
 70
    32
  0
VERTEX
  8
T26SSILL
 62
2
 10
180.677
 20
-2388.355
 30
2635.590
 70
    32
  0
VERTEX
  8
T26SSILL
 62
2
 10
164.154
 20
-2389.110
 30
2635.605
 70
    32
  0
VERTEX
  8
T26SSILL
 62
2
 10
154.076
 20
-2395.160
 30
2635.629
 70
    32
  0
VERTEX
  8
T26SSILL
 62
2
 10
77.533
 20
-2450.388
 30
2635.830
 70
    32
  0
VERTEX
  8
T26SSILL
 62
2
 10
71.420
 20
-2445.394
 30
2635.839
 70
    32
  0
VERTEX
  8
T26SSILL
 62
2
 10
57.392
 20
-2456.454
 30
2635.882
 70
    32
  0
VERTEX
  8
T26SSILL
 62
2
 10
47.196
 20
-2471.352
 30
2635.922
 70
    32
  0
VERTEX
  8
T26SSILL
 62
2
 10
28.966
 20
-2485.309
 30
2635.978
 70
    32
  0
VERTEX
  8
T26SSILL
 62
2
 10
14.647
 20
-2481.801
 30
2636.007
 70
    32
  0
VERTEX
  8
T26SSILL
 62
2
 10
10.452
 20
-2473.633
 30
2636.007
 70
    32
  0
VERTEX
  8
T26SSILL
 62
2
 10
17.656
 20
-2449.237
 30
2635.965
 70
    32
  0
VERTEX
  8
T26SSILL
 62
2
 10
41.331
 20
-2433.761
 30
2635.895
 70
    32
  0
VERTEX
  8
T26SSILL
 62
2
 10
28.777
 20
-2416.242
 30
2635.905
 70
    32
  0
VERTEX
  8
T26SSILL
 62
2
 10
12.347
 20
-2429.083
 30
2635.956
 70
    32
  0
VERTEX
  8
T26SSILL
 62
2
 10
10.885
 20
-2432.576
 30
2635.963
 70
    32
  0
VERTEX
  8
T26SSILL
 62
2
 10
12.852
 20
-2439.659
 30
2635.966
 70
    32
  0
VERTEX
  8
T26SSILL
 62
2
 10
7.756
 20
-2445.190
 30
2635.983
 70
    32
  0
VERTEX
  8
T26SSILL
 62
2
 10
8.470
 20
-2453.093
 30
2635.990
 70
    32
  0
VERTEX
  8
T26SSILL
 62
2
 10
3.189
 20
-2456.899
 30
2636.006
 70
    32
  0
VERTEX
  8
T26SSILL
 62
2
 10
-0.926
 20
-2463.017
 30
2636.022
 70
    32
  0
VERTEX
  8
T26SSILL
 62
2
 10
2.950
 20
-2475.035
 30
2636.026
 70
    32
  0
VERTEX
  8
T26SSILL
 62
2
 10
-4.918
 20
-2482.293
 30
2636.052
 70
    32
  0
VERTEX
  8
T26SSILL
 62
2
 10
-0.473
 20
-2486.663
 30
2636.046
 70
    32
  0
VERTEX
  8
T26SSILL
 62
2
 10
9.505
 20
-2485.943
 30
2636.023
 70
    32
  0
VERTEX
  8
T26SSILL
 62
2
 10
12.952
 20
-2489.409
 30
2636.019
 70
    32
  0
VERTEX
  8
T26SSILL
 62
2
 10
8.055
 20
-2500.378
 30
2636.041
 70
    32
  0
VERTEX
  8
T26SSILL
 62
2
 10
-192.267
 20
-2643.565
 30
2636.649
 70
    32
  0
VERTEX
  8
T26SSILL
 62
2
 10
-197.382
 20
-2642.868
 30
2636.660
 70
    32
  0
VERTEX
  8
T26SSILL
 62
2
 10
-203.741
 20
-2647.584
 30
2636.679
 70
    32
  0
VERTEX
  8
T26SSILL
 62
2
 10
-206.046
 20
-2644.475
 30
2636.681
 70
    32
  0
VERTEX
  8
T26SSILL
 62
2
 10
-211.929
 20
-2648.947
 30
2636.699
 70
    32
  0
VERTEX
  8
T26SSILL
 62
2
 10
-208.745
 20
-2655.455
 30
2636.699
 70
    32
  0
VERTEX
  8
T26SSILL
 62
2
 10
-246.593
 20
-2682.975
 30
2636.814
 70
    32
  0
VERTEX
  8
T26SSILL
 62
2
 10
-241.454
 20
-2689.020
 30
2636.809
 70
    32
  0
VERTEX
  8
T26SSILL
 62
2
 10
-206.115
 20
-2663.580
 30
2636.702
 70
    32
  0
VERTEX
  8
T26SSILL
 62
2
 10
-197.817
 20
-2671.224
 30
2636.691
 70
    32
  0
VERTEX
  8
T26SSILL
 62
2
 10
-197.181
 20
-2677.103
 30
2636.696
 70
    32
  0
VERTEX
  8
T26SSILL
 62
2
 10
-200.076
 20
-2682.207
 30
2636.708
 70
    32
  0
VERTEX
  8
T26SSILL
 62
2
 10
-195.989
 20
-2687.718
 30
2636.704
 70
    32
  0
VERTEX
  8
T26SSILL
 62
2
 10
-190.505
 20
-2678.723
 30
2636.682
 70
    32
  0
VERTEX
  8
T26SSILL
 62
2
 10
-187.141
 20
-2678.090
 30
2636.674
 70
    32
  0
VERTEX
  8
T26SSILL
 62
2
 10
-178.418
 20
-2668.884
 30
2636.644
 70
    32
  0
VERTEX
  8
T26SSILL
 62
2
 10
-181.810
 20
-2645.556
 30
2636.627
 70
    32
  0
VERTEX
  8
T26SSILL
 62
2
 10
-114.382
 20
-2597.086
 30
2636.422
 70
    32
  0
VERTEX
  8
T26SSILL
 62
2
 10
-107.903
 20
-2615.716
 30
2636.428
 70
    32
  0
VERTEX
  8
T26SSILL
 62
2
 10
-100.410
 20
-2622.424
 30
2636.418
 70
    32
  0
VERTEX
  8
T26SSILL
 62
2
 10
-86.714
 20
-2627.160
 30
2636.392
 70
    32
  0
VERTEX
  8
T26SSILL
 62
2
 10
-83.037
 20
-2630.347
 30
2636.387
 70
    32
  0
VERTEX
  8
T26SSILL
 62
2
 10
-82.083
 20
-2632.815
 30
2636.387
 70
    32
  0
VERTEX
  8
T26SSILL
 62
2
 10
-84.019
 20
-2639.507
 30
2636.399
 70
    32
  0
VERTEX
  8
T26SSILL
 62
2
 10
-73.713
 20
-2643.362
 30
2636.379
 70
    32
  0
VERTEX
  8
T26SSILL
 62
2
 10
-67.433
 20
-2643.414
 30
2636.365
 70
    32
  0
VERTEX
  8
T26SSILL
 62
2
 10
-60.983
 20
-2647.829
 30
2636.355
 70
    32
  0
VERTEX
  8
T26SSILL
 62
2
 10
-57.101
 20
-2652.178
 30
2636.351
 70
    32
  0
VERTEX
  8
T26SSILL
 62
2
 10
-61.667
 20
-2666.843
 30
2636.377
 70
    32
  0
VERTEX
  8
T26SSILL
 62
2
 10
-179.005
 20
-2751.229
 30
2636.733
 70
    32
  0
VERTEX
  8
T26SSILL
 62
2
 10
-174.900
 20
-2756.617
 30
2636.730
 70
    32
  0
VERTEX
  8
T26SSILL
 62
2
 10
46.827
 20
-2597.995
 30
2635.922
 70
    32
  0
VERTEX
  8
T26SSILL
 62
2
 10
49.522
 20
-2600.596
 30
2635.907
 70
    32
  0
VERTEX
  8
T26SSILL
 62
2
 10
59.439
 20
-2617.661
 30
2635.845
 70
    32
  0
VERTEX
  8
T26SSILL
 62
2
 10
59.519
 20
-2628.990
 30
2635.837
 70
    32
  0
VERTEX
  8
T26SSILL
 62
2
 10
61.117
 20
-2632.623
 30
2635.827
 70
    32
  0
VERTEX
  8
T26SSILL
 62
2
 10
71.316
 20
-2646.523
 30
2635.766
 70
    32
  0
VERTEX
  8
T26SSILL
 62
2
 10
81.131
 20
-2653.261
 30
2635.712
 70
    32
  0
VERTEX
  8
T26SSILL
 62
2
 10
85.798
 20
-2658.670
 30
2635.685
 70
    32
  0
VERTEX
  8
T26SSILL
 62
2
 10
89.779
 20
-2670.830
 30
2635.657
 70
    32
  0
VERTEX
  8
T26SSILL
 62
2
 10
88.235
 20
-2676.574
 30
2635.661
 70
    32
  0
VERTEX
  8
T26SSILL
 62
2
 10
83.467
 20
-2679.891
 30
2635.683
 70
    32
  0
VERTEX
  8
T26SSILL
 62
2
 10
80.532
 20
-2679.329
 30
2635.698
 70
    32
  0
VERTEX
  8
T26SSILL
 62
2
 10
68.163
 20
-2669.886
 30
2635.766
 70
    32
  0
VERTEX
  8
T26SSILL
 62
2
 10
67.569
 20
-2678.978
 30
2635.763
 70
    32
  0
VERTEX
  8
T26SSILL
 62
2
 10
74.476
 20
-2686.668
 30
2635.723
 70
    32
  0
VERTEX
  8
T26SSILL
 62
2
 10
-132.783
 20
-2834.232
 30
2636.663
 70
    32
  0
VERTEX
  8
T26SSILL
 62
2
 10
-129.123
 20
-2840.497
 30
2636.640
 70
    32
  0
VERTEX
  8
T26SSILL
 62
2
 10
9.513
 20
-2740.974
 30
2636.012
 70
    32
  0
VERTEX
  8
T26SSILL
 62
2
 10
12.832
 20
-2745.302
 30
2635.993
 70
    32
  0
VERTEX
  8
T26SSILL
 62
2
 10
10.175
 20
-2748.806
 30
2636.003
 70
    32
  0
VERTEX
  8
T26SSILL
 62
2
 10
33.425
 20
-2785.770
 30
2635.862
 70
    32
  0
VERTEX
  8
T26SSILL
 62
2
 10
41.300
 20
-2793.289
 30
2635.817
 70
    32
  0
VERTEX
  8
T26SSILL
 62
2
 10
48.596
 20
-2797.515
 30
2635.778
 70
    32
  0
VERTEX
  8
T26SSILL
 62
2
 10
73.151
 20
-2804.492
 30
2635.650
 70
    32
  0
VERTEX
  8
T26SSILL
 62
2
 10
66.847
 20
-2808.838
 30
2635.678
 70
    32
  0
VERTEX
  8
T26SSILL
 62
2
 10
15.651
 20
-2783.510
 30
2635.952
 70
    32
  0
VERTEX
  8
T26SSILL
 62
2
 10
11.993
 20
-2792.866
 30
2635.964
 70
    32
  0
VERTEX
  8
T26SSILL
 62
2
 10
7.242
 20
-2796.535
 30
2635.986
 70
    32
  0
VERTEX
  8
T26SSILL
 62
2
 10
-0.457
 20
-2785.709
 30
2636.032
 70
    32
  0
VERTEX
  8
T26SSILL
 62
2
 10
-26.345
 20
-2803.812
 30
2636.149
 70
    32
  0
VERTEX
  8
T26SSILL
 62
2
 10
-18.491
 20
-2815.289
 30
2636.102
 70
    32
  0
VERTEX
  8
T26SSILL
 62
2
 10
-13.776
 20
-2811.902
 30
2636.081
 70
    32
  0
VERTEX
  8
T26SSILL
 62
2
 10
-10.281
 20
-2816.319
 30
2636.060
 70
    32
  0
VERTEX
  8
T26SSILL
 62
2
 10
-8.120
 20
-2814.804
 30
2636.050
 70
    32
  0
VERTEX
  8
T26SSILL
 62
2
 10
-1.720
 20
-2827.272
 30
2636.010
 70
    32
  0
VERTEX
  8
T26SSILL
 62
2
 10
-15.304
 20
-2837.455
 30
2636.071
 70
    32
  0
VERTEX
  8
T26SSILL
 62
2
 10
-10.949
 20
-2845.395
 30
2636.044
 70
    32
  0
VERTEX
  8
T26SSILL
 62
2
 10
-15.129
 20
-2850.685
 30
2636.061
 70
    32
  0
VERTEX
  8
T26SSILL
 62
2
 10
-13.063
 20
-2852.438
 30
2636.050
 70
    32
  0
VERTEX
  8
T26SSILL
 62
2
 10
-13.677
 20
-2855.302
 30
2636.051
 70
    32
  0
VERTEX
  8
T26SSILL
 62
2
 10
-20.731
 20
-2861.738
 30
2636.082
 70
    32
  0
VERTEX
  8
T26SSILL
 62
2
 10
-26.711
 20
-2864.749
 30
2636.110
 70
    32
  0
VERTEX
  8
T26SSILL
 62
2
 10
-28.450
 20
-2867.572
 30
2636.117
 70
    32
  0
VERTEX
  8
T26SSILL
 62
2
 10
-24.596
 20
-2873.802
 30
2636.093
 70
    32
  0
VERTEX
  8
T26SSILL
 62
2
 10
-49.958
 20
-2892.172
 30
2636.208
 70
    32
  0
VERTEX
  8
T26SSILL
 62
2
 10
-53.888
 20
-2890.268
 30
2636.229
 70
    32
  0
VERTEX
  8
T26SSILL
 62
2
 10
-60.984
 20
-2891.479
 30
2636.264
 70
    32
  0
VERTEX
  8
T26SSILL
 62
2
 10
-63.459
 20
-2893.752
 30
2636.275
 70
    32
  0
VERTEX
  8
T26SSILL
 62
2
 10
-65.394
 20
-2903.400
 30
2636.278
 70
    32
  0
VERTEX
  8
T26SSILL
 62
2
 10
-98.438
 20
-2927.357
 30
2636.427
 70
    32
  0
VERTEX
  8
T26SSILL
 62
2
 10
-93.488
 20
-2932.556
 30
2636.399
 70
    32
  0
VERTEX
  8
T26SSILL
 62
2
 10
-85.559
 20
-2927.005
 30
2636.363
 70
    32
  0
VERTEX
  8
T26SSILL
 62
2
 10
-76.162
 20
-2926.387
 30
2636.316
 70
    32
  0
VERTEX
  8
T26SSILL
 62
2
 10
-72.484
 20
-2919.828
 30
2636.302
 70
    32
  0
VERTEX
  8
T26SSILL
 62
2
 10
-73.158
 20
-2917.590
 30
2636.307
 70
    32
  0
VERTEX
  8
T26SSILL
 62
2
 10
-65.033
 20
-2911.564
 30
2636.270
 70
    32
  0
VERTEX
  8
T26SSILL
 62
2
 10
-63.721
 20
-2912.891
 30
2636.263
 70
    32
  0
VERTEX
  8
T26SSILL
 62
2
 10
-56.224
 20
-2912.369
 30
2636.226
 70
    32
  0
VERTEX
  8
T26SSILL
 62
2
 10
-52.534
 20
-2909.961
 30
2636.209
 70
    32
  0
VERTEX
  8
T26SSILL
 62
2
 10
-48.239
 20
-2899.658
 30
2636.194
 70
    32
  0
VERTEX
  8
T26SSILL
 62
2
 10
-19.117
 20
-2878.828
 30
2636.062
 70
    32
  0
VERTEX
  8
T26SSILL
 62
2
 10
-9.599
 20
-2878.669
 30
2636.015
 70
    32
  0
VERTEX
  8
T26SSILL
 62
2
 10
0.181
 20
-2892.004
 30
2635.956
 70
    32
  0
VERTEX
  8
T26SSILL
 62
2
 10
-1.925
 20
-2900.683
 30
2635.961
 70
    32
  0
VERTEX
  8
T26SSILL
 62
2
 10
-16.851
 20
-2911.861
 30
2636.028
 70
    32
  0
VERTEX
  8
T26SSILL
 62
2
 10
-1.935
 20
-2925.329
 30
2635.944
 70
    32
  0
VERTEX
  8
T26SSILL
 62
2
 10
3.057
 20
-2935.753
 30
2635.912
 70
    32
  0
VERTEX
  8
T26SSILL
 62
2
 10
6.721
 20
-2938.183
 30
2635.892
 70
    32
  0
VERTEX
  8
T26SSILL
 62
2
 10
11.242
 20
-2938.225
 30
2635.870
 70
    32
  0
VERTEX
  8
T26SSILL
 62
2
 10
23.871
 20
-2925.574
 30
2635.815
 70
    32
  0
VERTEX
  8
T26SSILL
 62
2
 10
38.837
 20
-2945.904
 30
2635.726
 70
    32
  0
VERTEX
  8
T26SSILL
 62
2
 10
-21.472
 20
-2988.766
 30
2635.999
 70
    32
  0
VERTEX
  8
T26SSILL
 62
2
 10
-28.360
 20
-2997.049
 30
2636.028
 70
    32
  0
VERTEX
  8
T26SSILL
 62
2
 10
-29.127
 20
-3002.217
 30
2636.029
 70
    32
  0
VERTEX
  8
T26SSILL
 62
2
 10
-24.523
 20
-3009.754
 30
2636.001
 70
    32
  0
VERTEX
  8
T26SSILL
 62
2
 10
-24.805
 20
-3016.314
 30
2635.998
 70
    32
  0
VERTEX
  8
T26SSILL
 62
2
 10
2.328
 20
-3041.090
 30
2635.845
 70
    32
  0
VERTEX
  8
T26SSILL
 62
2
 10
8.249
 20
-3049.074
 30
2635.809
 70
    32
  0
VERTEX
  8
T26SSILL
 62
2
 10
15.324
 20
-3067.918
 30
2635.761
 70
    32
  0
VERTEX
  8
T26SSILL
 62
2
 10
37.053
 20
-3090.131
 30
2635.651
 70
    32
  0
VERTEX
  8
T26SSILL
 62
2
 10
39.446
 20
-3096.460
 30
2635.643
 70
    32
  0
VERTEX
  8
T26SSILL
 62
2
 10
45.425
 20
-3100.239
 30
2635.630
 70
    32
  0
VERTEX
  8
T26SSILL
 62
2
 10
49.796
 20
-3108.496
 30
2635.628
 70
    32
  0
VERTEX
  8
T26SSILL
 62
2
 10
49.215
 20
-3114.949
 30
2635.640
 70
    32
  0
VERTEX
  8
T26SSILL
 62
2
 10
50.689
 20
-3119.003
 30
2635.642
 70
    32
  0
VERTEX
  8
T26SSILL
 62
2
 10
59.335
 20
-3133.616
 30
2635.637
 70
    32
  0
VERTEX
  8
T26SSILL
 62
2
 10
63.341
 20
-3144.334
 30
2635.641
 70
    32
  0
VERTEX
  8
T26SSILL
 62
2
 10
71.988
 20
-3155.552
 30
2635.630
 70
    32
  0
VERTEX
  8
T26SSILL
 62
2
 10
-407.672
 20
-3499.986
 30
2638.100
 70
    32
  0
VERTEX
  8
T26SSILL
 62
2
 10
-427.760
 20
-3504.997
 30
2638.385
 70
    32
  0
VERTEX
  8
T26SSILL
 62
2
 10
-447.675
 20
-3501.538
 30
2638.477
 70
    32
  0
VERTEX
  8
T26SSILL
 62
2
 10
-459.494
 20
-3493.058
 30
2638.460
 70
    32
  0
VERTEX
  8
T26SSILL
 62
2
 10
-549.118
 20
-3408.359
 30
2638.257
 70
    32
  0
VERTEX
  8
T26SSILL
 62
2
 10
-554.577
 20
-3412.883
 30
2638.268
 70
    32
  0
VERTEX
  8
T26SSILL
 62
2
 10
-544.050
 20
-3422.802
 30
2638.265
 70
    32
  0
VERTEX
  8
T26SSILL
 62
2
 10
-557.048
 20
-3421.137
 30
2638.274
 70
    32
  0
VERTEX
  8
T26SSILL
 62
2
 10
-566.545
 20
-3422.396
 30
2638.277
 70
    32
  0
VERTEX
  8
T26SSILL
 62
2
 10
-895.018
 20
-3489.948
 30
2638.740
 70
    32
  0
VERTEX
  8
T26SSILL
 62
2
 10
-962.410
 20
-3505.557
 30
2638.869
 70
    32
  0
VERTEX
  8
T26SSILL
 62
2
 10
-981.677
 20
-3503.291
 30
2638.897
 70
    32
  0
VERTEX
  8
T26SSILL
 62
2
 10
-989.721
 20
-3499.674
 30
2638.905
 70
    32
  0
VERTEX
  8
T26SSILL
 62
2
 10
-998.471
 20
-3493.025
 30
2638.910
 70
    32
  0
VERTEX
  8
T26SSILL
 62
2
 10
-1007.453
 20
-3481.098
 30
2638.908
 70
    32
  0
VERTEX
  8
T26SSILL
 62
2
 10
-1697.549
 20
-2181.789
 30
2638.960
 70
    32
  0
VERTEX
  8
T26SSILL
 62
2
 10
-1843.036
 20
-1905.396
 30
2639.391
 70
    32
  0
VERTEX
  8
T26SSILL
 62
2
 10
-1834.961
 20
-1899.740
 30
2639.373
 70
    32
  0
VERTEX
  8
T26SSILL
 62
2
 10
-1839.015
 20
-1894.087
 30
2639.379
 70
    32
  0
VERTEX
  8
T26SSILL
 62
2
 10
-1846.306
 20
-1899.013
 30
2639.396
 70
    32
  0
VERTEX
  8
T26SSILL
 62
2
 10
-2080.861
 20
-1457.472
 30
2639.551
 70
    32
  0
VERTEX
  8
T26SSILL
 62
2
 10
-2072.785
 20
-1451.500
 30
2639.508
 70
    32
  0
VERTEX
  8
T26SSILL
 62
2
 10
-2077.668
 20
-1445.551
 30
2639.503
 70
    32
  0
VERTEX
  8
T26SSILL
 62
2
 10
-2084.474
 20
-1451.211
 30
2639.541
 70
    32
  0
VERTEX
  8
T26SSILL
 62
2
 10
-2086.387
 20
-1447.519
 30
2639.535
 70
    32
  0
VERTEX
  8
T26SSILL
 62
2
 10
-2092.700
 20
-1451.692
 30
2639.567
 70
    32
  0
VERTEX
  8
T26SSILL
 62
2
 10
-2091.107
 20
-1456.335
 30
2639.577
 70
    32
  0
VERTEX
  8
T26SSILL
 62
2
 10
-2101.139
 20
-1463.179
 30
2639.628
 70
    32
  0
VERTEX
  8
T26SSILL
 62
2
 10
-2096.744
 20
-1469.028
 30
2639.634
 70
    32
  0
VERTEX
  8
T26SSILL
 62
2
 10
-2087.027
 20
-1461.549
 30
2639.582
 70
    32
  0
VERTEX
  8
T26SSILL
 62
2
 10
-1852.646
 20
-1903.943
 30
2639.394
 70
    32
  0
VERTEX
  8
T26SSILL
 62
2
 10
-1861.941
 20
-1909.668
 30
2639.317
 70
    32
  0
VERTEX
  8
T26SSILL
 62
2
 10
-1858.037
 20
-1916.052
 30
2639.290
 70
    32
  0
VERTEX
  8
T26SSILL
 62
2
 10
-1849.787
 20
-1909.543
 30
2639.389
 70
    32
  0
VERTEX
  8
T26SSILL
 62
2
 10
-1615.716
 20
-2349.873
 30
2638.925
 70
    32
  0
VERTEX
  8
T26SSILL
 62
2
 10
-1632.763
 20
-2361.325
 30
2639.004
 70
    32
  0
VERTEX
  8
T26SSILL
 62
2
 10
-1629.135
 20
-2367.351
 30
2639.000
 70
    32
  0
VERTEX
  8
T26SSILL
 62
2
 10
-1612.310
 20
-2355.733
 30
2638.922
 70
    32
  0
VERTEX
  8
T26SSILL
 62
2
 10
-1379.055
 20
-2791.445
 30
2638.782
 70
    32
  0
VERTEX
  8
T26SSILL
 62
2
 10
-1396.475
 20
-2803.900
 30
2638.864
 70
    32
  0
VERTEX
  8
T26SSILL
 62
2
 10
-1392.346
 20
-2809.261
 30
2638.858
 70
    32
  0
VERTEX
  8
T26SSILL
 62
2
 10
-1375.671
 20
-2797.426
 30
2638.780
 70
    32
  0
VERTEX
  8
T26SSILL
 62
2
 10
-1147.338
 20
-3232.805
 30
2638.803
 70
    32
  0
VERTEX
  8
T26SSILL
 62
2
 10
-1161.505
 20
-3240.242
 30
2638.835
 70
    32
  0
VERTEX
  8
T26SSILL
 62
2
 10
-1158.522
 20
-3247.033
 30
2638.839
 70
    32
  0
VERTEX
  8
T26SSILL
 62
2
 10
-1143.588
 20
-3238.854
 30
2638.805
 70
    32
  0
VERTEX
  8
T26SSILL
 62
2
 10
-1011.626
 20
-3489.418
 30
2638.926
 70
    32
  0
VERTEX
  8
T26SSILL
 62
2
 10
-1007.769
 20
-3494.540
 30
2638.927
 70
    32
  0
VERTEX
  8
T26SSILL
 62
2
 10
-1002.719
 20
-3499.691
 30
2638.925
 70
    32
  0
VERTEX
  8
T26SSILL
 62
2
 10
-985.493
 20
-3509.658
 30
2638.911
 70
    32
  0
VERTEX
  8
T26SSILL
 62
2
 10
-971.027
 20
-3513.000
 30
2638.892
 70
    32
  0
VERTEX
  8
T26SSILL
 62
2
 10
-962.269
 20
-3512.711
 30
2638.878
 70
    32
  0
VERTEX
  8
T26SSILL
 62
2
 10
-565.851
 20
-3430.230
 30
2638.273
 70
    32
  0
VERTEX
  8
T26SSILL
 62
2
 10
-550.266
 20
-3429.106
 30
2638.268
 70
    32
  0
VERTEX
  8
T26SSILL
 62
2
 10
-540.793
 20
-3430.846
 30
2638.264
 70
    32
  0
VERTEX
  8
T26SSILL
 62
2
 10
-531.353
 20
-3435.231
 30
2638.271
 70
    32
  0
VERTEX
  8
T26SSILL
 62
2
 10
25.780
 20
-3963.916
 30
2637.022
 70
    32
  0
VERTEX
  8
T26SSILL
 62
2
 10
607.579
 20
-4513.003
 30
2635.748
 70
    32
  0
VERTEX
  8
T26SSILL
 62
2
 10
966.440
 20
-4851.687
 30
2636.351
 70
    32
  0
VERTEX
  8
T26SSILL
 62
2
 10
996.906
 20
-4895.706
 30
2636.208
 70
    32
  0
VERTEX
  8
T26SSILL
 62
2
 10
1023.114
 20
-4918.541
 30
2636.046
 70
    32
  0
VERTEX
  8
T26SSILL
 62
2
 10
1041.886
 20
-4937.523
 30
2635.965
 70
    32
  0
VERTEX
  8
T26SSILL
 62
2
 10
1063.199
 20
-4972.662
 30
2635.843
 70
    32
  0
VERTEX
  8
T26SSILL
 62
2
 10
1075.373
 20
-4997.374
 30
2635.795
 70
    32
  0
VERTEX
  8
T26SSILL
 62
2
 10
1090.430
 20
-5017.517
 30
2635.719
 70
    32
  0
VERTEX
  8
T26SSILL
 62
2
 10
1108.333
 20
-5046.119
 30
2635.645
 70
    32
  0
VERTEX
  8
T26SSILL
 62
2
 10
1106.521
 20
-5047.966
 30
2635.648
 70
    32
  0
VERTEX
  8
T26SSILL
 62
2
 10
1099.552
 20
-5048.221
 30
2635.693
 70
    32
  0
VERTEX
  8
T26SSILL
 62
2
 10
-229.814
 20
-6000.431
 30
2638.141
 70
    32
  0
VERTEX
  8
T26SSILL
 62
2
 10
-765.513
 20
-6386.633
 30
2638.592
 70
    32
  0
VERTEX
  8
T26SSILL
 62
2
 10
-783.481
 20
-6395.596
 30
2638.554
 70
    32
  0
VERTEX
  8
T26SSILL
 62
2
 10
-795.225
 20
-6397.142
 30
2638.536
 70
    32
  0
VERTEX
  8
T26SSILL
 62
2
 10
-814.704
 20
-6392.479
 30
2638.517
 70
    32
  0
VERTEX
  8
T26SSILL
 62
2
 10
-828.789
 20
-6382.537
 30
2638.513
 70
    32
  0
VERTEX
  8
T26SSILL
 62
2
 10
-837.302
 20
-6371.115
 30
2638.519
 70
    32
  0
VERTEX
  8
T26SSILL
 62
2
 10
-1092.656
 20
-6016.212
 30
2638.708
 70
    32
  0
VERTEX
  8
T26SSILL
 62
2
 10
-1066.980
 20
-5997.759
 30
2638.770
 70
    32
  0
VERTEX
  8
T26SSILL
 62
2
 10
-1070.902
 20
-5991.585
 30
2638.774
 70
    32
  0
VERTEX
  8
T26SSILL
 62
2
 10
-1097.280
 20
-6010.225
 30
2638.711
 70
    32
  0
VERTEX
  8
T26SSILL
 62
2
 10
-1383.975
 20
-5611.244
 30
2638.924
 70
    32
  0
VERTEX
  8
T26SSILL
 62
2
 10
-1366.523
 20
-5599.057
 30
2638.965
 70
    32
  0
VERTEX
  8
T26SSILL
 62
2
 10
-1363.705
 20
-5602.442
 30
2638.964
 70
    32
  0
VERTEX
  8
T26SSILL
 62
2
 10
-1357.592
 20
-5598.157
 30
2638.979
 70
    32
  0
VERTEX
  8
T26SSILL
 62
2
 10
-1365.838
 20
-5587.851
 30
2638.983
 70
    32
  0
VERTEX
  8
T26SSILL
 62
2
 10
-1388.945
 20
-5604.639
 30
2638.927
 70
    32
  0
VERTEX
  8
T26SSILL
 62
2
 10
-1674.522
 20
-5204.915
 30
2639.142
 70
    32
  0
VERTEX
  8
T26SSILL
 62
2
 10
-1656.851
 20
-5191.958
 30
2639.185
 70
    32
  0
VERTEX
  8
T26SSILL
 62
2
 10
-1654.848
 20
-5194.960
 30
2639.184
 70
    32
  0
VERTEX
  8
T26SSILL
 62
2
 10
-1649.889
 20
-5191.152
 30
2639.196
 70
    32
  0
VERTEX
  8
T26SSILL
 62
2
 10
-1656.660
 20
-5181.823
 30
2639.201
 70
    32
  0
VERTEX
  8
T26SSILL
 62
2
 10
-1679.595
 20
-5198.156
 30
2639.146
 70
    32
  0
VERTEX
  8
T26SSILL
 62
2
 10
-1967.611
 20
-4797.810
 30
2639.332
 70
    32
  0
VERTEX
  8
T26SSILL
 62
2
 10
-1948.692
 20
-4784.945
 30
2639.333
 70
    32
  0
VERTEX
  8
T26SSILL
 62
2
 10
-1946.698
 20
-4787.630
 30
2639.333
 70
    32
  0
VERTEX
  8
T26SSILL
 62
2
 10
-1940.586
 20
-4783.012
 30
2639.333
 70
    32
  0
VERTEX
  8
T26SSILL
 62
2
 10
-1946.657
 20
-4774.374
 30
2639.334
 70
    32
  0
VERTEX
  8
T26SSILL
 62
2
 10
-1971.679
 20
-4792.174
 30
2639.333
 70
    32
  0
VERTEX
  8
T26SSILL
 62
2
 10
-2259.384
 20
-4392.577
 30
2639.378
 70
    32
  0
VERTEX
  8
T26SSILL
 62
2
 10
-2240.955
 20
-4379.626
 30
2639.379
 70
    32
  0
VERTEX
  8
T26SSILL
 62
2
 10
-2239.408
 20
-4381.980
 30
2639.379
 70
    32
  0
VERTEX
  8
T26SSILL
 62
2
 10
-2232.706
 20
-4377.593
 30
2639.379
 70
    32
  0
VERTEX
  8
T26SSILL
 62
2
 10
-2238.257
 20
-4369.234
 30
2639.380
 70
    32
  0
VERTEX
  8
T26SSILL
 62
2
 10
-2262.701
 20
-4387.703
 30
2639.379
 70
    32
  0
VERTEX
  8
T26SSILL
 62
2
 10
-2543.378
 20
-3994.653
 30
2639.423
 70
    32
  0
VERTEX
  8
T26SSILL
 62
2
 10
-2533.862
 20
-3988.307
 30
2639.424
 70
    32
  0
VERTEX
  8
T26SSILL
 62
2
 10
-2541.846
 20
-3977.159
 30
2639.425
 70
    32
  0
VERTEX
  8
T26SSILL
 62
2
 10
-2551.242
 20
-3983.964
 30
2639.425
 70
    32
  0
VERTEX
  8
T26SSILL
 62
2
 10
-2560.580
 20
-3970.975
 30
2639.426
 70
    32
  0
VERTEX
  8
T26SSILL
 62
2
 10
-2568.665
 20
-3976.596
 30
2639.426
 70
    32
  0
VERTEX
  8
T26SSILL
 62
2
 10
-2566.202
 20
-3986.023
 30
2639.425
 70
    32
  0
VERTEX
  8
T26SSILL
 62
2
 10
-2569.917
 20
-3988.538
 30
2639.425
 70
    32
  0
VERTEX
  8
T26SSILL
 62
2
 10
-2561.532
 20
-3999.935
 30
2639.423
 70
    32
  0
VERTEX
  8
T26SSILL
 62
2
 10
-2554.013
 20
-3994.731
 30
2639.424
 70
    32
  0
VERTEX
  8
T26SSILL
 62
2
 10
-2269.665
 20
-4391.414
 30
2639.379
 70
    32
  0
VERTEX
  8
T26SSILL
 62
2
 10
-2287.685
 20
-4404.512
 30
2639.378
 70
    32
  0
VERTEX
  8
T26SSILL
 62
2
 10
-2284.190
 20
-4410.333
 30
2639.377
 70
    32
  0
VERTEX
  8
T26SSILL
 62
2
 10
-2265.444
 20
-4397.266
 30
2639.378
 70
    32
  0
VERTEX
  8
T26SSILL
 62
2
 10
-1977.961
 20
-4797.772
 30
2639.333
 70
    32
  0
VERTEX
  8
T26SSILL
 62
2
 10
-1998.808
 20
-4812.637
 30
2639.295
 70
    32
  0
VERTEX
  8
T26SSILL
 62
2
 10
-2001.077
 20
-4809.715
 30
2639.296
 70
    32
  0
VERTEX
  8
T26SSILL
 62
2
 10
-2006.721
 20
-4813.466
 30
2639.283
 70
    32
  0
VERTEX
  8
T26SSILL
 62
2
 10
-2000.506
 20
-4822.003
 30
2639.279
 70
    32
  0
VERTEX
  8
T26SSILL
 62
2
 10
-1973.930
 20
-4802.896
 30
2639.332
 70
    32
  0
VERTEX
  8
T26SSILL
 62
2
 10
-1686.433
 20
-5202.962
 30
2639.129
 70
    32
  0
VERTEX
  8
T26SSILL
 62
2
 10
-1705.595
 20
-5216.858
 30
2639.083
 70
    32
  0
VERTEX
  8
T26SSILL
 62
2
 10
-1707.784
 20
-5214.203
 30
2639.084
 70
    32
  0
VERTEX
  8
T26SSILL
 62
2
 10
-1713.895
 20
-5218.820
 30
2639.069
 70
    32
  0
VERTEX
  8
T26SSILL
 62
2
 10
-1707.218
 20
-5228.322
 30
2639.064
 70
    32
  0
VERTEX
  8
T26SSILL
 62
2
 10
-1681.411
 20
-5209.649
 30
2639.126
 70
    32
  0
VERTEX
  8
T26SSILL
 62
2
 10
-1395.092
 20
-5609.489
 30
2638.911
 70
    32
  0
VERTEX
  8
T26SSILL
 62
2
 10
-1412.671
 20
-5622.097
 30
2638.869
 70
    32
  0
VERTEX
  8
T26SSILL
 62
2
 10
-1415.381
 20
-5618.414
 30
2638.871
 70
    32
  0
VERTEX
  8
T26SSILL
 62
2
 10
-1421.353
 20
-5622.696
 30
2638.856
 70
    32
  0
VERTEX
  8
T26SSILL
 62
2
 10
-1413.907
 20
-5633.053
 30
2638.851
 70
    32
  0
VERTEX
  8
T26SSILL
 62
2
 10
-1390.212
 20
-5616.270
 30
2638.908
 70
    32
  0
VERTEX
  8
T26SSILL
 62
2
 10
-1103.389
 20
-6014.830
 30
2638.696
 70
    32
  0
VERTEX
  8
T26SSILL
 62
2
 10
-1127.728
 20
-6032.628
 30
2638.636
 70
    32
  0
VERTEX
  8
T26SSILL
 62
2
 10
-1123.431
 20
-6038.852
 30
2638.633
 70
    32
  0
VERTEX
  8
T26SSILL
 62
2
 10
-1098.326
 20
-6020.821
 30
2638.693
 70
    32
  0
VERTEX
  8
T26SSILL
 62
2
 10
-834.600
 20
-6387.250
 30
2638.498
 70
    32
  0
VERTEX
  8
T26SSILL
 62
2
 10
-827.120
 20
-6394.300
 30
2638.498
 70
    32
  0
VERTEX
  8
T26SSILL
 62
2
 10
-807.946
 20
-6403.445
 30
2638.510
 70
    32
  0
VERTEX
  8
T26SSILL
 62
2
 10
-784.157
 20
-6404.172
 30
2638.541
 70
    32
  0
VERTEX
  8
T26SSILL
 62
2
 10
-763.622
 20
-6395.285
 30
2638.581
 70
    32
  0
VERTEX
  8
T26SSILL
 62
2
 10
-727.666
 20
-6369.374
 30
2638.668
 70
    32
  0
VERTEX
  8
T26SSILL
 62
2
 10
-727.975
 20
-6385.868
 30
2638.643
 70
    32
  0
VERTEX
  8
T26SSILL
 62
2
 10
-723.169
 20
-6396.851
 30
2638.633
 70
    32
  0
VERTEX
  8
T26SSILL
 62
2
 10
-525.647
 20
-6814.559
 30
2638.273
 70
    32
  0
VERTEX
  8
T26SSILL
 62
2
 10
-533.619
 20
-6818.876
 30
2638.256
 70
    32
  0
VERTEX
  8
T26SSILL
 62
2
 10
-530.412
 20
-6825.055
 30
2638.251
 70
    32
  0
VERTEX
  8
T26SSILL
 62
2
 10
-522.554
 20
-6821.222
 30
2638.267
 70
    32
  0
VERTEX
  8
T26SSILL
 62
2
 10
-311.397
 20
-7268.178
 30
2637.881
 70
    32
  0
VERTEX
  8
T26SSILL
 62
2
 10
-321.382
 20
-7272.915
 30
2637.861
 70
    32
  0
VERTEX
  8
T26SSILL
 62
2
 10
-318.283
 20
-7280.090
 30
2637.854
 70
    32
  0
VERTEX
  8
T26SSILL
 62
2
 10
-307.756
 20
-7275.225
 30
2637.876
 70
    32
  0
VERTEX
  8
T26SSILL
 62
2
 10
-98.197
 20
-7718.933
 30
2637.492
 70
    32
  0
VERTEX
  8
T26SSILL
 62
2
 10
-108.453
 20
-7723.734
 30
2637.472
 70
    32
  0
VERTEX
  8
T26SSILL
 62
2
 10
-104.428
 20
-7730.233
 30
2637.467
 70
    32
  0
VERTEX
  8
T26SSILL
 62
2
 10
-95.168
 20
-7725.325
 30
2637.487
 70
    32
  0
VERTEX
  8
T26SSILL
 62
2
 10
25.398
 20
-7985.868
 30
2637.306
 70
    32
  0
VERTEX
  8
T26SSILL
 62
2
 10
113.585
 20
-8171.215
 30
2636.781
 70
    32
  0
VERTEX
  8
T26SSILL
 62
2
 10
89.303
 20
-8182.630
 30
2637.615
 70
    32
  0
VERTEX
  8
T26SSILL
 62
2
 10
92.799
 20
-8189.209
 30
2637.586
 70
    32
  0
VERTEX
  8
T26SSILL
 62
2
 10
117.082
 20
-8177.794
 30
2636.752
 70
    32
  0
VERTEX
  8
T26SSILL
 62
2
 10
326.130
 20
-8620.523
 30
2636.090
 70
    32
  0
VERTEX
  8
T26SSILL
 62
2
 10
302.593
 20
-8631.254
 30
2636.350
 70
    32
  0
VERTEX
  8
T26SSILL
 62
2
 10
305.602
 20
-8637.917
 30
2636.335
 70
    32
  0
VERTEX
  8
T26SSILL
 62
2
 10
329.123
 20
-8626.709
 30
2636.227
 70
    32
  0
VERTEX
  8
T26SSILL
 62
2
 10
380.474
 20
-8735.180
 30
2638.619
 70
    32
  0
VERTEX
  8
T26SSILL
 62
2
 10
443.774
 20
-8868.729
 30
2638.419
 70
    32
  0
VERTEX
  8
T26SSILL
 62
2
 10
445.508
 20
-8878.553
 30
2638.413
 70
    32
  0
VERTEX
  8
T26SSILL
 62
2
 10
444.819
 20
-9119.081
 30
2638.384
 70
    32
  0
VERTEX
  8
T26SSILL
 62
2
 10
421.590
 20
-9130.598
 30
2638.489
 70
    32
  0
VERTEX
  8
T26SSILL
 62
2
 10
424.838
 20
-9136.132
 30
2638.478
 70
    32
  0
VERTEX
  8
T26SSILL
 62
2
 10
444.683
 20
-9126.790
 30
2638.389
 70
    32
  0
VERTEX
  8
T26SSILL
 62
2
 10
446.109
 20
-9672.397
 30
2638.752
 70
    32
  0
VERTEX
  8
T26SSILL
 62
2
 10
410.862
 20
-9688.811
 30
2638.753
 70
    32
  0
VERTEX
  8
T26SSILL
 62
2
 10
413.236
 20
-9694.825
 30
2638.754
 70
    32
  0
VERTEX
  8
T26SSILL
 62
2
 10
446.857
 20
-9679.442
 30
2638.753
 70
    32
  0
VERTEX
  8
T26SSILL
 62
2
 10
445.283
 20
-9927.760
 30
2638.825
 70
    32
  0
VERTEX
  8
T26SSILL
 62
2
 10
446.975
 20
-9938.506
 30
2638.834
 70
    32
  0
VERTEX
  8
T26SSILL
 62
2
 10
559.195
 20
-10171.002
 30
2639.031
 70
    32
  0
VERTEX
  8
T26SSILL
 62
2
 10
534.872
 20
-10182.751
 30
2639.032
 70
    32
  0
VERTEX
  8
T26SSILL
 62
2
 10
538.060
 20
-10189.681
 30
2639.037
 70
    32
  0
VERTEX
  8
T26SSILL
 62
2
 10
562.057
 20
-10177.532
 30
2639.035
 70
    32
  0
VERTEX
  8
T26SSILL
 62
2
 10
773.668
 20
-10626.038
 30
2639.349
 70
    32
  0
VERTEX
  8
T26SSILL
 62
2
 10
747.423
 20
-10635.609
 30
2639.348
 70
    32
  0
VERTEX
  8
T26SSILL
 62
2
 10
750.597
 20
-10644.095
 30
2639.354
 70
    32
  0
VERTEX
  8
T26SSILL
 62
2
 10
776.081
 20
-10632.194
 30
2639.353
 70
    32
  0
VERTEX
  8
T26SSILL
 62
2
 10
984.893
 20
-11072.728
 30
2639.557
 70
    32
  0
VERTEX
  8
T26SSILL
 62
2
 10
958.774
 20
-11080.323
 30
2639.585
 70
    32
  0
VERTEX
  8
T26SSILL
 62
2
 10
963.266
 20
-11091.578
 30
2639.587
 70
    32
  0
VERTEX
  8
T26SSILL
 62
2
 10
988.111
 20
-11080.141
 30
2639.553
 70
    32
  0
VERTEX
  8
T26SSILL
 62
2
 10
1198.622
 20
-11525.400
 30
2639.436
 70
    32
  0
VERTEX
  8
T26SSILL
 62
2
 10
1173.772
 20
-11533.698
 30
2639.447
 70
    32
  0
VERTEX
  8
T26SSILL
 62
2
 10
1177.600
 20
-11543.593
 30
2639.445
 70
    32
  0
VERTEX
  8
T26SSILL
 62
2
 10
1201.879
 20
-11532.568
 30
2639.434
 70
    32
  0
VERTEX
  8
T26SSILL
 62
2
 10
1273.226
 20
-11682.040
 30
2639.407
 70
    32
  0
VERTEX
  8
T26SSILL
 62
2
 10
1280.727
 20
-11678.193
 30
2639.403
 70
    32
  0
VERTEX
  8
T26SSILL
 62
2
 10
1209.982
 20
-11528.958
 30
2639.431
 70
    32
  0
VERTEX
  8
T26SSILL
 62
2
 10
1218.795
 20
-11524.832
 30
2639.427
 70
    32
  0
VERTEX
  8
T26SSILL
 62
2
 10
1215.151
 20
-11517.728
 30
2639.428
 70
    32
  0
VERTEX
  8
T26SSILL
 62
2
 10
1206.648
 20
-11522.279
 30
2639.432
 70
    32
  0
VERTEX
  8
T26SSILL
 62
2
 10
995.808
 20
-11076.717
 30
2639.557
 70
    32
  0
VERTEX
  8
T26SSILL
 62
2
 10
1004.080
 20
-11072.443
 30
2639.561
 70
    32
  0
VERTEX
  8
T26SSILL
 62
2
 10
1000.281
 20
-11066.318
 30
2639.563
 70
    32
  0
VERTEX
  8
T26SSILL
 62
2
 10
992.320
 20
-11069.825
 30
2639.560
 70
    32
  0
VERTEX
  8
T26SSILL
 62
2
 10
783.134
 20
-10628.480
 30
2639.356
 70
    32
  0
VERTEX
  8
T26SSILL
 62
2
 10
791.431
 20
-10624.837
 30
2639.362
 70
    32
  0
VERTEX
  8
T26SSILL
 62
2
 10
788.664
 20
-10617.746
 30
2639.357
 70
    32
  0
VERTEX
  8
T26SSILL
 62
2
 10
779.381
 20
-10621.672
 30
2639.350
 70
    32
  0
VERTEX
  8
T26SSILL
 62
2
 10
568.411
 20
-10174.756
 30
2639.039
 70
    32
  0
VERTEX
  8
T26SSILL
 62
2
 10
594.297
 20
-10162.680
 30
2639.058
 70
    32
  0
VERTEX
  8
T26SSILL
 62
2
 10
590.976
 20
-10155.967
 30
2639.053
 70
    32
  0
VERTEX
  8
T26SSILL
 62
2
 10
565.286
 20
-10167.960
 30
2639.034
 70
    32
  0
VERTEX
  8
T26SSILL
 62
2
 10
456.886
 20
-9943.761
 30
2638.841
 70
    32
  0
VERTEX
  8
T26SSILL
 62
2
 10
453.173
 20
-9932.473
 30
2638.831
 70
    32
  0
VERTEX
  8
T26SSILL
 62
2
 10
454.273
 20
-9675.529
 30
2638.763
 70
    32
  0
VERTEX
  8
T26SSILL
 62
2
 10
479.674
 20
-9664.153
 30
2638.814
 70
    32
  0
VERTEX
  8
T26SSILL
 62
2
 10
477.000
 20
-9657.985
 30
2638.807
 70
    32
  0
VERTEX
  8
T26SSILL
 62
2
 10
454.142
 20
-9668.488
 30
2638.761
 70
    32
  0
VERTEX
  8
T26SSILL
 62
2
 10
451.955
 20
-9459.794
 30
2638.720
 70
    32
  0
VERTEX
  8
T26SSILL
 62
2
 10
452.902
 20
-9122.858
 30
2638.368
 70
    32
  0
VERTEX
  8
T26SSILL
 62
2
 10
476.982
 20
-9111.875
 30
2638.341
 70
    32
  0
VERTEX
  8
T26SSILL
 62
2
 10
473.969
 20
-9104.999
 30
2638.338
 70
    32
  0
VERTEX
  8
T26SSILL
 62
2
 10
451.617
 20
-9114.990
 30
2638.364
 70
    32
  0
VERTEX
  8
T26SSILL
 62
2
 10
452.971
 20
-8882.673
 30
2638.391
 70
    32
  0
VERTEX
  8
T26SSILL
 62
2
 10
450.147
 20
-8864.949
 30
2638.402
 70
    32
  0
VERTEX
  8
T26SSILL
 62
2
 10
385.722
 20
-8728.162
 30
2638.604
 70
    32
  0
VERTEX
  8
T26SSILL
 62
2
 10
336.122
 20
-8623.341
 30
2636.290
 70
    32
  0
VERTEX
  8
T26SSILL
 62
2
 10
363.212
 20
-8611.108
 30
2636.816
 70
    32
  0
VERTEX
  8
T26SSILL
 62
2
 10
359.464
 20
-8604.031
 30
2636.650
 70
    32
  0
VERTEX
  8
T26SSILL
 62
2
 10
332.393
 20
-8617.039
 30
2636.133
 70
    32
  0
VERTEX
  8
T26SSILL
 62
2
 10
124.016
 20
-8174.039
 30
2636.629
 70
    32
  0
VERTEX
  8
T26SSILL
 62
2
 10
149.312
 20
-8162.454
 30
2636.552
 70
    32
  0
VERTEX
  8
T26SSILL
 62
2
 10
145.698
 20
-8155.933
 30
2636.572
 70
    32
  0
VERTEX
  8
T26SSILL
 62
2
 10
120.306
 20
-8167.614
 30
2636.649
 70
    32
  0
VERTEX
  8
T26SSILL
 62
2
 10
-87.872
 20
-7722.254
 30
2637.501
 70
    32
  0
VERTEX
  8
T26SSILL
 62
2
 10
-78.278
 20
-7717.553
 30
2637.520
 70
    32
  0
VERTEX
  8
T26SSILL
 62
2
 10
-81.652
 20
-7711.271
 30
2637.526
 70
    32
  0
VERTEX
  8
T26SSILL
 62
2
 10
-90.993
 20
-7715.712
 30
2637.507
 70
    32
  0
VERTEX
  8
T26SSILL
 62
2
 10
-300.877
 20
-7271.481
 30
2637.890
 70
    32
  0
VERTEX
  8
T26SSILL
 62
2
 10
-291.994
 20
-7267.634
 30
2637.908
 70
    32
  0
VERTEX
  8
T26SSILL
 62
2
 10
-295.478
 20
-7261.007
 30
2637.913
 70
    32
  0
VERTEX
  8
T26SSILL
 62
2
 10
-304.464
 20
-7265.021
 30
2637.895
 70
    32
  0
VERTEX
  8
T26SSILL
 62
2
 10
-515.294
 20
-6817.760
 30
2638.282
 70
    32
  0
VERTEX
  8
T26SSILL
 62
2
 10
-506.885
 20
-6813.482
 30
2638.300
 70
    32
  0
VERTEX
  8
T26SSILL
 62
2
 10
-509.885
 20
-6806.969
 30
2638.305
 70
    32
  0
VERTEX
  8
T26SSILL
 62
2
 10
-518.611
 20
-6811.236
 30
2638.287
 70
    32
  0
VERTEX
  8
T26SSILL
 62
2
 10
-718.104
 20
-6389.194
 30
2638.651
 70
    32
  0
VERTEX
  8
T26SSILL
 62
2
 10
-721.198
 20
-6375.642
 30
2638.668
 70
    32
  0
VERTEX
  8
T26SSILL
 62
2
 10
-719.345
 20
-6367.182
 30
2638.683
 70
    32
  0
VERTEX
  8
T26SSILL
 62
2
 10
-716.133
 20
-6362.199
 30
2638.694
 70
    32
  0
VERTEX
  8
T26SSILL
 62
2
 10
-697.069
 20
-6346.861
 30
2638.743
 70
    32
  0
VERTEX
  8
T26SSILL
 62
2
 10
-223.472
 20
-6005.044
 30
2638.128
 70
    32
  0
VERTEX
  8
T26SSILL
 62
2
 10
1103.405
 20
-5055.522
 30
2635.597
 70
    32
  0
VERTEX
  8
T26SSILL
 62
2
 10
1111.535
 20
-5054.323
 30
2635.572
 70
    32
  0
VERTEX
  8
T26SSILL
 62
2
 10
1118.242
 20
-5074.306
 30
2635.557
 70
    32
  0
VERTEX
  8
T26SSILL
 62
2
 10
1168.849
 20
-5168.742
 30
2635.456
 70
    32
  0
VERTEX
  8
T26SSILL
 62
2
 10
1194.235
 20
-5212.542
 30
2635.406
 70
    32
  0
VERTEX
  8
T26SSILL
 62
2
 10
1211.836
 20
-5234.860
 30
2635.371
 70
    32
  0
VERTEX
  8
T26SSILL
 62
2
 10
1228.496
 20
-5266.851
 30
2635.338
 70
    32
  0
VERTEX
  8
T26SSILL
 62
2
 10
1492.501
 20
-5632.300
 30
2634.574
 70
    32
  0
VERTEX
  8
T26SSILL
 62
2
 10
1498.444
 20
-5628.668
 30
2634.557
 70
    32
  0
VERTEX
  8
T26SSILL
 62
2
 10
1242.051
 20
-5272.579
 30
2635.309
 70
    32
  0
VERTEX
  8
T26SSILL
 62
2
 10
1231.508
 20
-5256.445
 30
2635.334
 70
    32
  0
VERTEX
  8
T26SSILL
 62
2
 10
1217.167
 20
-5229.176
 30
2635.362
 70
    32
  0
VERTEX
  8
T26SSILL
 62
2
 10
1207.522
 20
-5217.596
 30
2635.381
 70
    32
  0
VERTEX
  8
T26SSILL
 62
2
 10
1167.697
 20
-5149.850
 30
2635.460
 70
    32
  0
VERTEX
  8
T26SSILL
 62
2
 10
1157.244
 20
-5126.173
 30
2635.481
 70
    32
  0
VERTEX
  8
T26SSILL
 62
2
 10
1145.836
 20
-5108.387
 30
2635.503
 70
    32
  0
VERTEX
  8
T26SSILL
 62
2
 10
1123.456
 20
-5067.406
 30
2635.548
 70
    32
  0
VERTEX
  8
T26SSILL
 62
2
 10
1122.287
 20
-5056.761
 30
2635.551
 70
    32
  0
VERTEX
  8
T26SSILL
 62
2
 10
1127.394
 20
-5053.623
 30
2635.542
 70
    32
  0
VERTEX
  8
T26SSILL
 62
2
 10
1620.962
 20
-5003.868
 30
2634.539
 70
    32
  0
VERTEX
  8
T26SSILL
 62
2
 10
2056.605
 20
-4962.716
 30
2634.137
 70
    32
  0
VERTEX
  8
T26SSILL
 62
2
 10
2111.079
 20
-4924.142
 30
2634.110
 70
    32
  0
VERTEX
  8
T26SSILL
 62
2
 10
2110.247
 20
-4927.501
 30
2634.115
 70
    32
  0
VERTEX
  8
T26SSILL
 62
2
 10
2119.437
 20
-4929.656
 30
2634.122
 70
    32
  0
VERTEX
  8
T26SSILL
 62
2
 10
2123.459
 20
-4915.684
 30
2634.105
 70
    32
  0
VERTEX
  8
T26SSILL
 62
2
 10
2166.349
 20
-4885.909
 30
2634.084
 70
    32
  0
VERTEX
  8
T26SSILL
 62
2
 10
2174.004
 20
-4885.445
 30
2634.080
 70
    32
  0
VERTEX
  8
T26SSILL
 62
2
 10
2174.190
 20
-4783.734
 30
2633.891
 70
    32
  0
VERTEX
  8
T26SSILL
 62
2
 10
2176.330
 20
-4737.384
 30
2633.800
 70
    32
  0
VERTEX
  8
T26SSILL
 62
2
 10
2176.093
 20
-4636.824
 30
2633.597
 70
    32
  0
VERTEX
  8
T26SSILL
 62
2
 10
2177.864
 20
-4625.438
 30
2633.576
 70
    32
  0
VERTEX
  8
T26SSILL
 62
2
 10
2181.118
 20
-4619.138
 30
2633.567
 70
    32
  0
VERTEX
  8
T26SSILL
 62
2
 10
2184.951
 20
-4616.264
 30
2633.566
 70
    32
  0
VERTEX
  8
T26SSILL
 62
2
 10
2199.003
 20
-4619.757
 30
2633.589
 70
    32
  0
VERTEX
  8
T26SSILL
 62
2
 10
2201.456
 20
-4612.853
 30
2633.577
 70
    32
  0
VERTEX
  8
T26SSILL
 62
2
 10
2188.267
 20
-4608.203
 30
2633.553
 70
    32
  0
VERTEX
  8
T26SSILL
 62
2
 10
2188.716
 20
-4602.736
 30
2633.543
 70
    32
  0
VERTEX
  8
T26SSILL
 62
2
 10
2187.056
 20
-4597.653
 30
2633.530
 70
    32
  0
VERTEX
  8
T26SSILL
 62
2
 10
2233.540
 20
-4452.292
 30
2633.290
 70
    32
  0
VERTEX
  8
T26SSILL
 62
2
 10
2237.653
 20
-4456.547
 30
2633.303
 70
    32
  0
VERTEX
  8
T26SSILL
 62
2
 10
2238.746
 20
-4465.073
 30
2633.322
 70
    32
  0
VERTEX
  8
T26SSILL
 62
2
 10
2237.239
 20
-4476.455
 30
2633.343
 70
    32
  0
VERTEX
  8
T26SSILL
 62
2
 10
2243.260
 20
-4484.732
 30
2633.366
 70
    32
  0
VERTEX
  8
T26SSILL
 62
2
 10
2245.912
 20
-4485.398
 30
2633.371
 70
    32
  0
VERTEX
  8
T26SSILL
 62
2
 10
2254.395
 20
-4481.399
 30
2633.372
 70
    32
  0
VERTEX
  8
T26SSILL
 62
2
 10
2256.435
 20
-4476.350
 30
2633.364
 70
    32
  0
VERTEX
  8
T26SSILL
 62
2
 10
2254.959
 20
-4459.728
 30
2633.329
 70
    32
  0
VERTEX
  8
T26SSILL
 62
2
 10
2253.495
 20
-4455.963
 30
2633.320
 70
    32
  0
VERTEX
  8
T26SSILL
 62
2
 10
2244.787
 20
-4450.631
 30
2633.299
 70
    32
  0
VERTEX
  8
T26SSILL
 62
2
 10
2241.476
 20
-4428.929
 30
2633.252
 70
    32
  0
VERTEX
  8
T26SSILL
 62
2
 10
2274.653
 20
-4317.766
 30
2633.066
 70
    32
  0
VERTEX
  8
T26SSILL
 62
2
 10
2376.247
 20
-3995.670
 30
2633.311
 70
    32
  0
VERTEX
  8
T26SSILL
 62
2
 10
2573.034
 20
-3855.860
 30
2633.107
 70
    32
  0
VERTEX
  8
T26SSILL
 62
2
 10
2602.944
 20
-3877.971
 30
2633.192
 70
    32
  0
VERTEX
  8
T26SSILL
 62
2
 10
2603.508
 20
-3907.853
 30
2633.237
 70
    32
  0
VERTEX
  8
T26SSILL
 62
2
 10
2611.875
 20
-3922.520
 30
2633.261
 70
    32
  0
VERTEX
  8
T26SSILL
 62
2
 10
2620.307
 20
-3917.676
 30
2633.256
 70
    32
  0
VERTEX
  8
T26SSILL
 62
2
 10
2627.703
 20
-3928.741
 30
2633.274
 70
    32
  0
VERTEX
  8
T26SSILL
 62
2
 10
2622.259
 20
-3932.790
 30
2633.279
 70
    32
  0
VERTEX
  8
T26SSILL
 62
2
 10
2631.855
 20
-3946.489
 30
2633.302
 70
    32
  0
VERTEX
  8
T26SSILL
 62
2
 10
2621.933
 20
-3953.445
 30
2633.295
 70
    32
  0
VERTEX
  8
T26SSILL
 62
2
 10
2628.449
 20
-3963.720
 30
2633.303
 70
    32
  0
VERTEX
  8
T26SSILL
 62
2
 10
2632.050
 20
-3961.694
 30
2633.305
 70
    32
  0
VERTEX
  8
T26SSILL
 62
2
 10
2646.582
 20
-3986.373
 30
2633.323
 70
    32
  0
VERTEX
  8
T26SSILL
 62
2
 10
2658.896
 20
-3994.355
 30
2633.335
 70
    32
  0
VERTEX
  8
T26SSILL
 62
2
 10
2672.763
 20
-3978.782
 30
2633.344
 70
    32
  0
VERTEX
  8
T26SSILL
 62
2
 10
2692.202
 20
-3990.975
 30
2633.364
 70
    32
  0
VERTEX
  8
T26SSILL
 62
2
 10
2699.416
 20
-3987.551
 30
2633.369
 70
    32
  0
VERTEX
  8
T26SSILL
 62
2
 10
2692.556
 20
-3993.171
 30
2633.365
 70
    32
  0
VERTEX
  8
T26SSILL
 62
2
 10
2701.713
 20
-4006.168
 30
2633.375
 70
    32
  0
VERTEX
  8
T26SSILL
 62
2
 10
2678.883
 20
-4023.246
 30
2633.359
 70
    32
  0
VERTEX
  8
T26SSILL
 62
2
 10
2676.066
 20
-4020.086
 30
2633.356
 70
    32
  0
VERTEX
  8
T26SSILL
 62
2
 10
2655.342
 20
-4034.349
 30
2633.341
 70
    32
  0
VERTEX
  8
T26SSILL
 62
2
 10
2656.140
 20
-4039.797
 30
2633.342
 70
    32
  0
VERTEX
  8
T26SSILL
 62
2
 10
2622.421
 20
-4064.448
 30
2633.318
 70
    32
  0
VERTEX
  8
T26SSILL
 62
2
 10
2612.826
 20
-4052.507
 30
2633.307
 70
    32
  0
VERTEX
  8
T26SSILL
 62
2
 10
2601.461
 20
-4030.373
 30
2633.293
 70
    32
  0
VERTEX
  8
T26SSILL
 62
2
 10
2595.754
 20
-4034.774
 30
2633.289
 70
    32
  0
VERTEX
  8
T26SSILL
 62
2
 10
2599.460
 20
-4046.986
 30
2633.294
 70
    32
  0
VERTEX
  8
T26SSILL
 62
2
 10
2599.035
 20
-4058.852
 30
2633.296
 70
    32
  0
VERTEX
  8
T26SSILL
 62
2
 10
2604.242
 20
-4076.247
 30
2633.304
 70
    32
  0
VERTEX
  8
T26SSILL
 62
2
 10
2580.259
 20
-4085.153
 30
2633.285
 70
    32
  0
VERTEX
  8
T26SSILL
 62
2
 10
2580.710
 20
-4094.205
 30
2633.288
 70
    32
  0
VERTEX
  8
T26SSILL
 62
2
 10
2544.005
 20
-4120.793
 30
2633.261
 70
    32
  0
VERTEX
  8
T26SSILL
 62
2
 10
2547.880
 20
-4127.028
 30
2633.266
 70
    32
  0
VERTEX
  8
T26SSILL
 62
2
 10
2549.548
 20
-4125.884
 30
2633.267
 70
    32
  0
VERTEX
  8
T26SSILL
 62
2
 10
2615.850
 20
-4224.502
 30
2633.345
 70
    32
  0
VERTEX
  8
T26SSILL
 62
2
 10
2621.381
 20
-4219.485
 30
2633.349
 70
    32
  0
VERTEX
  8
T26SSILL
 62
2
 10
2556.135
 20
-4121.481
 30
2633.272
 70
    32
  0
VERTEX
  8
T26SSILL
 62
2
 10
2592.401
 20
-4095.509
 30
2633.298
 70
    32
  0
VERTEX
  8
T26SSILL
 62
2
 10
2599.957
 20
-4093.918
 30
2633.304
 70
    32
  0
VERTEX
  8
T26SSILL
 62
2
 10
2603.826
 20
-4094.968
 30
2633.308
 70
    32
  0
VERTEX
  8
T26SSILL
 62
2
 10
2605.851
 20
-4097.690
 30
2633.310
 70
    32
  0
VERTEX
  8
T26SSILL
 62
2
 10
2620.713
 20
-4176.772
 30
2633.339
 70
    32
  0
VERTEX
  8
T26SSILL
 62
2
 10
2626.688
 20
-4175.446
 30
2633.344
 70
    32
  0
VERTEX
  8
T26SSILL
 62
2
 10
2611.733
 20
-4092.410
 30
2633.314
 70
    32
  0
VERTEX
  8
T26SSILL
 62
2
 10
2615.674
 20
-4081.331
 30
2633.315
 70
    32
  0
VERTEX
  8
T26SSILL
 62
2
 10
2620.939
 20
-4074.469
 30
2633.319
 70
    32
  0
VERTEX
  8
T26SSILL
 62
2
 10
2705.851
 20
-4011.963
 30
2633.380
 70
    32
  0
VERTEX
  8
T26SSILL
 62
2
 10
2719.762
 20
-4031.897
 30
2633.396
 70
    32
  0
VERTEX
  8
T26SSILL
 62
2
 10
2727.063
 20
-4026.935
 30
2633.402
 70
    32
  0
VERTEX
  8
T26SSILL
 62
2
 10
2733.296
 20
-4031.265
 30
2633.408
 70
    32
  0
VERTEX
  8
T26SSILL
 62
2
 10
2744.390
 20
-4047.950
 30
2633.421
 70
    32
  0
VERTEX
  8
T26SSILL
 62
2
 10
2757.329
 20
-4063.227
 30
2633.436
 70
    32
  0
VERTEX
  8
T26SSILL
 62
2
 10
2767.453
 20
-4077.540
 30
2633.447
 70
    32
  0
VERTEX
  8
T26SSILL
 62
2
 10
2757.619
 20
-4084.672
 30
2633.440
 70
    32
  0
VERTEX
  8
T26SSILL
 62
2
 10
2768.887
 20
-4099.687
 30
2633.453
 70
    32
  0
VERTEX
  8
T26SSILL
 62
2
 10
2773.189
 20
-4096.342
 30
2633.456
 70
    32
  0
VERTEX
  8
T26SSILL
 62
2
 10
2776.887
 20
-4101.610
 30
2633.461
 70
    32
  0
VERTEX
  8
T26SSILL
 62
2
 10
2781.980
 20
-4097.913
 30
2633.464
 70
    32
  0
VERTEX
  8
T26SSILL
 62
2
 10
2786.293
 20
-4103.093
 30
2633.469
 70
    32
  0
VERTEX
  8
T26SSILL
 62
2
 10
2776.370
 20
-4109.873
 30
2633.462
 70
    32
  0
VERTEX
  8
T26SSILL
 62
2
 10
2776.373
 20
-4112.421
 30
2633.462
 70
    32
  0
VERTEX
  8
T26SSILL
 62
2
 10
2796.270
 20
-4139.906
 30
2633.485
 70
    32
  0
VERTEX
  8
T26SSILL
 62
2
 10
2807.454
 20
-4158.349
 30
2633.499
 70
    32
  0
VERTEX
  8
T26SSILL
 62
2
 10
2814.587
 20
-4155.694
 30
2633.505
 70
    32
  0
VERTEX
  8
T26SSILL
 62
2
 10
2824.696
 20
-4170.457
 30
2633.516
 70
    32
  0
VERTEX
  8
T26SSILL
 62
2
 10
2810.206
 20
-4180.406
 30
2633.506
 70
    32
  0
VERTEX
  8
T26SSILL
 62
2
 10
2808.185
 20
-4180.233
 30
2633.504
 70
    32
  0
VERTEX
  8
T26SSILL
 62
2
 10
2781.773
 20
-4143.703
 30
2633.473
 70
    32
  0
VERTEX
  8
T26SSILL
 62
2
 10
2774.572
 20
-4148.370
 30
2633.468
 70
    32
  0
VERTEX
  8
T26SSILL
 62
2
 10
2801.600
 20
-4186.217
 30
2633.499
 70
    32
  0
VERTEX
  8
T26SSILL
 62
2
 10
2779.559
 20
-4201.537
 30
2633.483
 70
    32
  0
VERTEX
  8
T26SSILL
 62
2
 10
2801.569
 20
-4232.447
 30
2633.509
 70
    32
  0
VERTEX
  8
T26SSILL
 62
2
 10
2808.682
 20
-4227.604
 30
2633.514
 70
    32
  0
VERTEX
  8
T26SSILL
 62
2
 10
2790.985
 20
-4201.962
 30
2633.493
 70
    32
  0
VERTEX
  8
T26SSILL
 62
2
 10
2828.570
 20
-4176.252
 30
2633.521
 70
    32
  0
VERTEX
  8
T26SSILL
 62
2
 10
2830.592
 20
-4176.689
 30
2633.523
 70
    32
  0
VERTEX
  8
T26SSILL
 62
2
 10
2840.187
 20
-4188.718
 30
2633.534
 70
    32
  0
VERTEX
  8
T26SSILL
 62
2
 10
2837.030
 20
-4194.611
 30
2633.532
 70
    32
  0
VERTEX
  8
T26SSILL
 62
2
 10
2845.748
 20
-4208.399
 30
2633.543
 70
    32
  0
VERTEX
  8
T26SSILL
 62
2
 10
2855.884
 20
-4231.677
 30
2633.556
 70
    32
  0
VERTEX
  8
T26SSILL
 62
2
 10
2863.713
 20
-4237.907
 30
2633.572
 70
    32
  0
VERTEX
  8
T26SSILL
 62
2
 10
2867.757
 20
-4238.781
 30
2633.578
 70
    32
  0
VERTEX
  8
T26SSILL
 62
2
 10
2871.010
 20
-4239.041
 30
2633.582
 70
    32
  0
VERTEX
  8
T26SSILL
 62
2
 10
2877.507
 20
-4234.023
 30
2633.579
 70
    32
  0
VERTEX
  8
T26SSILL
 62
2
 10
2881.294
 20
-4239.995
 30
2633.596
 70
    32
  0
VERTEX
  8
T26SSILL
 62
2
 10
2871.722
 20
-4246.598
 30
2633.598
 70
    32
  0
VERTEX
  8
T26SSILL
 62
2
 10
2877.181
 20
-4254.326
 30
2633.620
 70
    32
  0
VERTEX
  8
T26SSILL
 62
2
 10
2874.020
 20
-4256.879
 30
2633.622
 70
    32
  0
VERTEX
  8
T26SSILL
 62
2
 10
2878.071
 20
-4263.729
 30
2633.640
 70
    32
  0
VERTEX
  8
T26SSILL
 62
2
 10
2881.671
 20
-4261.088
 30
2633.639
 70
    32
  0
VERTEX
  8
T26SSILL
 62
2
 10
2895.229
 20
-4279.704
 30
2633.692
 70
    32
  0
VERTEX
  8
T26SSILL
 62
2
 10
2900.146
 20
-4275.742
 30
2633.689
 70
    32
  0
VERTEX
  8
T26SSILL
 62
2
 10
2887.203
 20
-4256.862
 30
2633.636
 70
    32
  0
VERTEX
  8
T26SSILL
 62
2
 10
2897.653
 20
-4249.730
 30
2633.634
 70
    32
  0
VERTEX
  8
T26SSILL
 62
2
 10
2911.118
 20
-4263.952
 30
2633.678
 70
    32
  0
VERTEX
  8
T26SSILL
 62
2
 10
2918.803
 20
-4296.110
 30
2633.751
 70
    32
  0
VERTEX
  8
T26SSILL
 62
2
 10
2923.735
 20
-4304.277
 30
2633.774
 70
    32
  0
VERTEX
  8
T26SSILL
 62
2
 10
2936.057
 20
-4318.324
 30
2633.816
 70
    32
  0
VERTEX
  8
T26SSILL
 62
2
 10
2975.748
 20
-4290.239
 30
2633.804
 70
    32
  0
VERTEX
  8
T26SSILL
 62
2
 10
2976.541
 20
-4291.732
 30
2633.808
 70
    32
  0
VERTEX
  8
T26SSILL
 62
2
 10
2978.674
 20
-4310.801
 30
2633.847
 70
    32
  0
VERTEX
  8
T26SSILL
 62
2
 10
2893.144
 20
-4371.023
 30
2633.871
 70
    32
  0
VERTEX
  8
T26SSILL
 62
2
 10
2873.198
 20
-4342.379
 30
2633.793
 70
    32
  0
VERTEX
  8
T26SSILL
 62
2
 10
2866.044
 20
-4346.271
 30
2633.793
 70
    32
  0
VERTEX
  8
T26SSILL
 62
2
 10
2910.518
 20
-4411.229
 30
2633.908
 70
    32
  0
VERTEX
  8
T26SSILL
 62
2
 10
2917.916
 20
-4407.724
 30
2633.908
 70
    32
  0
VERTEX
  8
T26SSILL
 62
2
 10
2897.722
 20
-4376.993
 30
2633.877
 70
    32
  0
VERTEX
  8
T26SSILL
 62
2
 10
2973.416
 20
-4323.200
 30
2633.856
 70
    32
  0
VERTEX
  8
T26SSILL
 62
2
 10
2988.738
 20
-4346.999
 30
2633.879
 70
    32
  0
VERTEX
  8
T26SSILL
 62
2
 10
2994.973
 20
-4342.685
 30
2633.877
 70
    32
  0
VERTEX
  8
T26SSILL
 62
2
 10
2986.520
 20
-4330.127
 30
2633.865
 70
    32
  0
VERTEX
  8
T26SSILL
 62
2
 10
2985.556
 20
-4319.273
 30
2633.856
 70
    32
  0
VERTEX
  8
T26SSILL
 62
2
 10
2986.587
 20
-4313.692
 30
2633.852
 70
    32
  0
VERTEX
  8
T26SSILL
 62
2
 10
3144.297
 20
-4200.912
 30
2633.805
 70
    32
  0
VERTEX
  8
T26SSILL
 62
2
 10
3199.585
 20
-4276.956
 30
2633.847
 70
    32
  0
VERTEX
  8
T26SSILL
 62
2
 10
3182.286
 20
-4289.194
 30
2633.859
 70
    32
  0
VERTEX
  8
T26SSILL
 62
2
 10
3187.040
 20
-4295.516
 30
2633.863
 70
    32
  0
VERTEX
  8
T26SSILL
 62
2
 10
3204.426
 20
-4283.014
 30
2633.851
 70
    32
  0
VERTEX
  8
T26SSILL
 62
2
 10
3279.675
 20
-4388.945
 30
2633.910
 70
    32
  0
VERTEX
  8
T26SSILL
 62
2
 10
3286.376
 20
-4384.588
 30
2633.906
 70
    32
  0
VERTEX
  8
T26SSILL
 62
2
 10
3004.037
 20
-3995.425
 30
2633.469
 70
    32
  0
VERTEX
  8
T26SSILL
 62
2
 10
3044.168
 20
-3967.339
 30
2633.527
 70
    32
  0
VERTEX
  8
T26SSILL
 62
2
 10
3066.617
 20
-3997.897
 30
2633.580
 70
    32
  0
VERTEX
  8
T26SSILL
 62
2
 10
3073.115
 20
-3992.967
 30
2633.589
 70
    32
  0
VERTEX
  8
T26SSILL
 62
2
 10
3051.017
 20
-3962.584
 30
2633.537
 70
    32
  0
VERTEX
  8
T26SSILL
 62
2
 10
3316.031
 20
-3771.539
 30
2633.870
 70
    32
  0
VERTEX
  8
T26SSILL
 62
2
 10
3311.807
 20
-3766.887
 30
2633.891
 70
    32
  0
VERTEX
  8
T26SSILL
 62
2
 10
3309.700
 20
-3769.086
 30
2633.893
 70
    32
  0
VERTEX
  8
T26SSILL
 62
2
 10
3060.079
 20
-3441.145
 30
2633.904
 70
    32
  0
VERTEX
  8
T26SSILL
 62
2
 10
3081.656
 20
-3423.111
 30
2633.729
 70
    32
  0
VERTEX
  8
T26SSILL
 62
2
 10
3097.485
 20
-3418.447
 30
2633.628
 70
    32
  0
VERTEX
  8
T26SSILL
 62
2
 10
3095.715
 20
-3412.588
 30
2633.606
 70
    32
  0
VERTEX
  8
T26SSILL
 62
2
 10
3101.536
 20
-3408.622
 30
2633.557
 70
    32
  0
VERTEX
  8
T26SSILL
 62
2
 10
3105.758
 20
-3408.814
 30
2633.538
 70
    32
  0
VERTEX
  8
T26SSILL
 62
2
 10
3106.088
 20
-3402.392
 30
2633.502
 70
    32
  0
VERTEX
  8
T26SSILL
 62
2
 10
3109.409
 20
-3396.183
 30
2633.454
 70
    32
  0
VERTEX
  8
T26SSILL
 62
2
 10
3113.312
 20
-3372.475
 30
2633.310
 70
    32
  0
VERTEX
  8
T26SSILL
 62
2
 10
3111.716
 20
-3366.525
 30
2633.286
 70
    32
  0
VERTEX
  8
T26SSILL
 62
2
 10
3112.404
 20
-3350.166
 30
2633.224
 70
    32
  0
VERTEX
  8
T26SSILL
 62
2
 10
3113.830
 20
-3346.187
 30
2633.216
 70
    32
  0
VERTEX
  8
T26SSILL
 62
2
 10
3094.786
 20
-3229.268
 30
2632.892
 70
    32
  0
VERTEX
  8
T26SSILL
 62
2
 10
3094.629
 20
-3220.042
 30
2632.864
 70
    32
  0
VERTEX
  8
T26SSILL
 62
2
 10
3097.575
 20
-3207.248
 30
2632.829
 70
    32
  0
VERTEX
  8
T26SSILL
 62
2
 10
3105.444
 20
-3194.546
 30
2632.804
 70
    32
  0
VERTEX
  8
T26SSILL
 62
2
 10
3127.960
 20
-3175.942
 30
2632.788
 70
    32
  0
VERTEX
  8
T26SSILL
 62
2
 10
3966.961
 20
-2728.341
 30
2632.469
 70
    32
  0
VERTEX
  8
T26SSILL
 62
2
 10
3964.113
 20
-2722.356
 30
2632.452
 70
    32
  0
VERTEX
  8
T26SSILL
 62
2
 10
3962.389
 20
-2723.472
 30
2632.453
 70
    32
  0
VERTEX
  8
T26SSILL
 62
2
 10
3941.702
 20
-2589.503
 30
2632.764
 70
    32
  0
VERTEX
  8
T26SSILL
 62
2
 10
3980.429
 20
-2559.453
 30
2632.742
 70
    32
  0
VERTEX
  8
T26SSILL
 62
2
 10
3984.746
 20
-2559.394
 30
2632.737
 70
    32
  0
VERTEX
  8
T26SSILL
 62
2
 10
3996.768
 20
-2550.084
 30
2632.727
 70
    32
  0
VERTEX
  8
T26SSILL
 62
2
 10
3992.277
 20
-2539.836
 30
2632.733
 70
    32
  0
VERTEX
  8
T26SSILL
 62
2
 10
3992.144
 20
-2533.319
 30
2632.735
 70
    32
  0
VERTEX
  8
T26SSILL
 62
2
 10
3999.627
 20
-2525.308
 30
2632.729
 70
    32
  0
VERTEX
  8
T26SSILL
 62
2
 10
3994.048
 20
-2516.772
 30
2632.736
 70
    32
  0
VERTEX
  8
T26SSILL
 62
2
 10
3985.283
 20
-2520.772
 30
2632.745
 70
    32
  0
VERTEX
  8
T26SSILL
 62
2
 10
3982.803
 20
-2520.416
 30
2632.747
 70
    32
  0
VERTEX
  8
T26SSILL
 62
2
 10
3956.133
 20
-2485.187
 30
2632.782
 70
    32
  0
VERTEX
  8
T26SSILL
 62
2
 10
3926.849
 20
-2489.709
 30
2632.812
 70
    32
  0
VERTEX
  8
T26SSILL
 62
2
 10
3925.672
 20
-2481.023
 30
2632.815
 70
    32
  0
VERTEX
  8
T26SSILL
 62
2
 10
3922.785
 20
-2481.650
 30
2632.818
 70
    32
  0
VERTEX
  8
T26SSILL
 62
2
 10
3914.267
 20
-2422.977
 30
2632.839
 70
    32
  0
VERTEX
  8
T26SSILL
 62
2
 10
3929.422
 20
-2412.502
 30
2632.825
 70
    32
  0
VERTEX
  8
T26SSILL
 62
2
 10
3927.457
 20
-2409.131
 30
2632.828
 70
    32
  0
VERTEX
  8
T26SSILL
 62
2
 10
4027.364
 20
-2288.775
 30
2632.749
 70
    32
  0
VERTEX
  8
T26SSILL
 62
2
 10
4342.372
 20
-1917.209
 30
2632.497
 70
    32
  0
VERTEX
  8
T26SSILL
 62
2
 10
4403.105
 20
-1513.547
 30
2632.517
 70
    32
  0
VERTEX
  8
T26SSILL
 62
2
 10
4560.539
 20
-492.899
 30
2632.563
 70
    32
  0
VERTEX
  8
T26SSILL
 62
2
 10
4569.377
 20
-487.110
 30
2632.555
 70
    32
  0
VERTEX
  8
T26SSILL
 62
2
 10
4581.043
 20
-485.979
 30
2632.543
 70
    32
  0
VERTEX
  8
T26SSILL
 62
2
 10
4580.702
 20
-479.112
 30
2632.545
 70
    32
  0
VERTEX
  8
T26SSILL
 62
2
 10
4571.304
 20
-479.973
 30
2632.555
 70
    32
  0
VERTEX
  8
T26SSILL
 62
2
 10
4563.143
 20
-478.019
 30
2632.564
 70
    32
  0
VERTEX
  8
T26SSILL
 62
2
 10
4792.351
 20
1015.861
 30
2632.633
 70
    32
  0
VERTEX
  8
T26SSILL
 62
2
 10
4784.895
 20
1017.166
 30
2632.641
 70
    32
  0
VERTEX
  8
T26SSILL
 62
2
 10
4781.870
 20
996.717
 30
2632.640
 70
    32
  0
VERTEX
  8
T26SSILL
 62
2
 10
4770.573
 20
997.224
 30
2632.652
 70
    32
  0
VERTEX
  8
T26SSILL
 62
2
 10
4771.059
 20
989.874
 30
2632.650
 70
    32
  0
VERTEX
  8
T26SSILL
 62
2
 10
4779.268
 20
990.152
 30
2632.641
 70
    32
  0
VERTEX
  8
T26SSILL
 62
2
 10
4779.158
 20
979.155
 30
2632.639
 70
    32
  0
VERTEX
  8
T26SSILL
 62
2
 10
4704.940
 20
501.035
 30
2632.618
 70
    32
  0
VERTEX
  8
T26SSILL
 62
2
 10
4697.570
 20
499.131
 30
2632.625
 70
    32
  0
VERTEX
  8
T26SSILL
 62
2
 10
4698.131
 20
491.681
 30
2632.623
 70
    32
  0
VERTEX
  8
T26SSILL
 62
2
 10
4701.861
 20
492.316
 30
2632.619
 70
    32
  0
VERTEX
  8
T26SSILL
 62
2
 10
4704.006
 20
487.311
 30
2632.616
 70
    32
  0
VERTEX
  8
T26SSILL
 62
2
 10
4395.820
 20
-1514.926
 30
2632.524
 70
    32
  0
VERTEX
  8
T26SSILL
 62
2
 10
4336.575
 20
-1911.995
 30
2632.504
 70
    32
  0
VERTEX
  8
T26SSILL
 62
2
 10
4019.366
 20
-2286.843
 30
2632.757
 70
    32
  0
VERTEX
  8
T26SSILL
 62
2
 10
3912.783
 20
-2415.624
 30
2632.842
 70
    32
  0
VERTEX
  8
T26SSILL
 62
2
 10
3905.558
 20
-2415.693
 30
2632.849
 70
    32
  0
VERTEX
  8
T26SSILL
 62
2
 10
3906.409
 20
-2419.983
 30
2632.848
 70
    32
  0
VERTEX
  8
T26SSILL
 62
2
 10
3903.141
 20
-2422.386
 30
2632.851
 70
    32
  0
VERTEX
  8
T26SSILL
 62
2
 10
3907.447
 20
-2427.175
 30
2632.845
 70
    32
  0
VERTEX
  8
T26SSILL
 62
2
 10
3930.782
 20
-2576.830
 30
2632.790
 70
    32
  0
VERTEX
  8
T26SSILL
 62
2
 10
3915.697
 20
-2579.018
 30
2632.805
 70
    32
  0
VERTEX
  8
T26SSILL
 62
2
 10
3917.329
 20
-2588.129
 30
2632.802
 70
    32
  0
VERTEX
  8
T26SSILL
 62
2
 10
3932.126
 20
-2585.246
 30
2632.787
 70
    32
  0
VERTEX
  8
T26SSILL
 62
2
 10
3954.427
 20
-2727.798
 30
2632.452
 70
    32
  0
VERTEX
  8
T26SSILL
 62
2
 10
2688.203
 20
-3401.787
 30
2632.697
 70
    32
  0
VERTEX
  8
T26SSILL
 62
2
 10
2629.762
 20
-3446.007
 30
2632.689
 70
    32
  0
VERTEX
  8
T26SSILL
 62
2
 10
2625.381
 20
-3448.643
 30
2632.689
 70
    32
  0
VERTEX
  8
T26SSILL
 62
2
 10
2617.976
 20
-3449.638
 30
2632.686
 70
    32
  0
VERTEX
  8
T26SSILL
 62
2
 10
2607.065
 20
-3448.667
 30
2632.681
 70
    32
  0
VERTEX
  8
T26SSILL
 62
2
 10
2600.039
 20
-3446.319
 30
2632.683
 70
    32
  0
VERTEX
  8
T26SSILL
 62
2
 10
2531.672
 20
-3354.612
 30
2632.738
 70
    32
  0
VERTEX
  8
T26SSILL
 62
2
 10
2542.216
 20
-3346.774
 30
2632.741
 70
    32
  0
VERTEX
  8
T26SSILL
 62
2
 10
2537.599
 20
-3340.748
 30
2632.745
 70
    32
  0
VERTEX
  8
T26SSILL
 62
2
 10
2527.053
 20
-3348.762
 30
2632.742
 70
    32
  0
VERTEX
  8
T26SSILL
 62
2
 10
2480.460
 20
-3286.119
 30
2632.779
 70
    32
  0
VERTEX
  8
T26SSILL
 62
2
 10
2479.254
 20
-3282.850
 30
2632.781
 70
    32
  0
VERTEX
  8
T26SSILL
 62
2
 10
2483.071
 20
-3268.528
 30
2632.788
 70
    32
  0
VERTEX
  8
T26SSILL
 62
2
 10
2488.172
 20
-3269.363
 30
2632.787
 70
    32
  0
VERTEX
  8
T26SSILL
 62
2
 10
2491.557
 20
-3253.981
 30
2632.794
 70
    32
  0
VERTEX
  8
T26SSILL
 62
2
 10
2477.845
 20
-3250.961
 30
2632.797
 70
    32
  0
VERTEX
  8
T26SSILL
 62
2
 10
2474.460
 20
-3266.256
 30
2632.790
 70
    32
  0
VERTEX
  8
T26SSILL
 62
2
 10
2477.261
 20
-3268.304
 30
2632.788
 70
    32
  0
VERTEX
  8
T26SSILL
 62
2
 10
2475.189
 20
-3273.923
 30
2632.786
 70
    32
  0
VERTEX
  8
T26SSILL
 62
2
 10
2469.396
 20
-3271.673
 30
2632.787
 70
    32
  0
VERTEX
  8
T26SSILL
 62
2
 10
2460.676
 20
-3261.298
 30
2632.794
 70
    32
  0
VERTEX
  8
T26SSILL
 62
2
 10
2153.321
 20
-2853.830
 30
2633.091
 70
    32
  0
VERTEX
  8
T26SSILL
 62
2
 10
2146.483
 20
-2829.920
 30
2633.111
 70
    32
  0
VERTEX
  8
T26SSILL
 62
2
 10
2131.930
 20
-2799.444
 30
2633.138
 70
    32
  0
VERTEX
  8
T26SSILL
 62
2
 10
2119.581
 20
-2787.176
 30
2633.149
 70
    32
  0
SEQEND
  8
T26SSILL
  0
POLYLINE
  8
T26SSILL
 62
2
 66
     1
 70
     9
  0
VERTEX
  8
T26SSILL
 62
2
 10
1030.322
 20
-2921.322
 30
2635.009
 70
    32
  0
VERTEX
  8
T26SSILL
 62
2
 10
1038.944
 20
-2911.196
 30
2634.992
 70
    32
  0
VERTEX
  8
T26SSILL
 62
2
 10
1139.524
 20
-2838.465
 30
2634.811
 70
    32
  0
VERTEX
  8
T26SSILL
 62
2
 10
1137.091
 20
-2835.332
 30
2634.814
 70
    32
  0
VERTEX
  8
T26SSILL
 62
2
 10
1134.353
 20
-2819.803
 30
2634.812
 70
    32
  0
VERTEX
  8
T26SSILL
 62
2
 10
1122.217
 20
-2797.965
 30
2634.823
 70
    32
  0
VERTEX
  8
T26SSILL
 62
2
 10
1114.781
 20
-2790.750
 30
2634.832
 70
    32
  0
VERTEX
  8
T26SSILL
 62
2
 10
1102.546
 20
-2790.825
 30
2634.851
 70
    32
  0
VERTEX
  8
T26SSILL
 62
2
 10
1093.695
 20
-2787.622
 30
2634.864
 70
    32
  0
VERTEX
  8
T26SSILL
 62
2
 10
1007.492
 20
-2848.811
 30
2635.019
 70
    32
  0
VERTEX
  8
T26SSILL
 62
2
 10
998.586
 20
-2859.148
 30
2635.036
 70
    32
  0
VERTEX
  8
T26SSILL
 62
2
 10
996.567
 20
-2864.267
 30
2635.041
 70
    32
  0
VERTEX
  8
T26SSILL
 62
2
 10
996.793
 20
-2878.037
 30
2635.046
 70
    32
  0
VERTEX
  8
T26SSILL
 62
2
 10
1026.465
 20
-2933.730
 30
2635.013
 70
    32
  0
VERTEX
  8
T26SSILL
 62
2
 10
1027.557
 20
-2930.218
 30
2635.017
 70
    32
  0
SEQEND
  8
T26SSILL
  0
POLYLINE
  8
T26SSILL
 62
2
 66
     1
 70
     9
  0
VERTEX
  8
T26SSILL
 62
2
 10
1330.371
 20
-3962.462
 30
2634.784
 70
    32
  0
VERTEX
  8
T26SSILL
 62
2
 10
1333.951
 20
-3948.985
 30
2634.781
 70
    32
  0
VERTEX
  8
T26SSILL
 62
2
 10
1338.227
 20
-3945.442
 30
2634.775
 70
    32
  0
VERTEX
  8
T26SSILL
 62
2
 10
1332.430
 20
-3930.735
 30
2634.785
 70
    32
  0
VERTEX
  8
T26SSILL
 62
2
 10
1338.641
 20
-3923.720
 30
2634.777
 70
    32
  0
VERTEX
  8
T26SSILL
 62
2
 10
1346.373
 20
-3932.562
 30
2634.766
 70
    32
  0
VERTEX
  8
T26SSILL
 62
2
 10
1354.780
 20
-3935.152
 30
2634.754
 70
    32
  0
VERTEX
  8
T26SSILL
 62
2
 10
1383.640
 20
-3967.676
 30
2634.712
 70
    32
  0
VERTEX
  8
T26SSILL
 62
2
 10
1394.341
 20
-3974.470
 30
2634.697
 70
    32
  0
VERTEX
  8
T26SSILL
 62
2
 10
1402.208
 20
-3984.846
 30
2634.686
 70
    32
  0
VERTEX
  8
T26SSILL
 62
2
 10
1412.060
 20
-4000.195
 30
2634.671
 70
    32
  0
VERTEX
  8
T26SSILL
 62
2
 10
1414.147
 20
-4007.704
 30
2634.667
 70
    32
  0
VERTEX
  8
T26SSILL
 62
2
 10
1424.918
 20
-4016.543
 30
2634.652
 70
    32
  0
VERTEX
  8
T26SSILL
 62
2
 10
1425.564
 20
-4020.719
 30
2634.660
 70
    32
  0
VERTEX
  8
T26SSILL
 62
2
 10
1429.514
 20
-4024.807
 30
2634.667
 70
    32
  0
VERTEX
  8
T26SSILL
 62
2
 10
1439.552
 20
-4042.957
 30
2634.701
 70
    32
  0
VERTEX
  8
T26SSILL
 62
2
 10
1443.667
 20
-4059.540
 30
2634.732
 70
    32
  0
VERTEX
  8
T26SSILL
 62
2
 10
1447.326
 20
-4066.668
 30
2634.745
 70
    32
  0
VERTEX
  8
T26SSILL
 62
2
 10
1455.273
 20
-4068.177
 30
2634.742
 70
    32
  0
VERTEX
  8
T26SSILL
 62
2
 10
1506.271
 20
-4031.219
 30
2634.606
 70
    32
  0
VERTEX
  8
T26SSILL
 62
2
 10
1496.653
 20
-4010.806
 30
2634.614
 70
    32
  0
VERTEX
  8
T26SSILL
 62
2
 10
1493.347
 20
-3995.484
 30
2634.603
 70
    32
  0
VERTEX
  8
T26SSILL
 62
2
 10
1488.053
 20
-3985.956
 30
2634.585
 70
    32
  0
VERTEX
  8
T26SSILL
 62
2
 10
1487.408
 20
-3979.683
 30
2634.573
 70
    32
  0
VERTEX
  8
T26SSILL
 62
2
 10
1492.544
 20
-3973.884
 30
2634.566
 70
    32
  0
VERTEX
  8
T26SSILL
 62
2
 10
1484.554
 20
-3962.292
 30
2634.578
 70
    32
  0
VERTEX
  8
T26SSILL
 62
2
 10
1476.970
 20
-3955.299
 30
2634.588
 70
    32
  0
VERTEX
  8
T26SSILL
 62
2
 10
1479.864
 20
-3946.563
 30
2634.585
 70
    32
  0
VERTEX
  8
T26SSILL
 62
2
 10
1479.666
 20
-3937.463
 30
2634.587
 70
    32
  0
VERTEX
  8
T26SSILL
 62
2
 10
1346.883
 20
-3845.741
 30
2634.774
 70
    32
  0
VERTEX
  8
T26SSILL
 62
2
 10
1332.829
 20
-3826.704
 30
2634.795
 70
    32
  0
VERTEX
  8
T26SSILL
 62
2
 10
1321.648
 20
-3822.543
 30
2634.810
 70
    32
  0
VERTEX
  8
T26SSILL
 62
2
 10
1311.171
 20
-3825.482
 30
2634.824
 70
    32
  0
VERTEX
  8
T26SSILL
 62
2
 10
1294.592
 20
-3838.729
 30
2634.845
 70
    32
  0
VERTEX
  8
T26SSILL
 62
2
 10
1293.084
 20
-3841.891
 30
2634.846
 70
    32
  0
VERTEX
  8
T26SSILL
 62
2
 10
1284.856
 20
-3846.131
 30
2634.857
 70
    32
  0
VERTEX
  8
T26SSILL
 62
2
 10
1283.208
 20
-3844.611
 30
2634.859
 70
    32
  0
VERTEX
  8
T26SSILL
 62
2
 10
1264.022
 20
-3858.012
 30
2634.884
 70
    32
  0
VERTEX
  8
T26SSILL
 62
2
 10
1258.482
 20
-3850.838
 30
2634.892
 70
    32
  0
VERTEX
  8
T26SSILL
 62
2
 10
1270.953
 20
-3841.665
 30
2634.876
 70
    32
  0
VERTEX
  8
T26SSILL
 62
2
 10
1264.289
 20
-3830.850
 30
2634.886
 70
    32
  0
VERTEX
  8
T26SSILL
 62
2
 10
1277.137
 20
-3816.509
 30
2634.870
 70
    32
  0
VERTEX
  8
T26SSILL
 62
2
 10
1262.587
 20
-3812.948
 30
2634.890
 70
    32
  0
VERTEX
  8
T26SSILL
 62
2
 10
1265.247
 20
-3804.490
 30
2634.888
 70
    32
  0
VERTEX
  8
T26SSILL
 62
2
 10
1315.159
 20
-3810.622
 30
2634.820
 70
    32
  0
VERTEX
  8
T26SSILL
 62
2
 10
1319.273
 20
-3807.306
 30
2634.815
 70
    32
  0
VERTEX
  8
T26SSILL
 62
2
 10
1174.240
 20
-3604.326
 30
2634.855
 70
    32
  0
VERTEX
  8
T26SSILL
 62
2
 10
1170.126
 20
-3607.642
 30
2634.863
 70
    32
  0
VERTEX
  8
T26SSILL
 62
2
 10
1163.920
 20
-3599.104
 30
2634.857
 70
    32
  0
VERTEX
  8
T26SSILL
 62
2
 10
1168.241
 20
-3596.072
 30
2634.850
 70
    32
  0
VERTEX
  8
T26SSILL
 62
2
 10
1157.135
 20
-3579.894
 30
2634.838
 70
    32
  0
VERTEX
  8
T26SSILL
 62
2
 10
1148.928
 20
-3579.226
 30
2634.843
 70
    32
  0
VERTEX
  8
T26SSILL
 62
2
 10
1128.514
 20
-3593.629
 30
2634.878
 70
    32
  0
VERTEX
  8
T26SSILL
 62
2
 10
1133.886
 20
-3602.665
 30
2634.886
 70
    32
  0
VERTEX
  8
T26SSILL
 62
2
 10
1127.417
 20
-3608.128
 30
2634.898
 70
    32
  0
VERTEX
  8
T26SSILL
 62
2
 10
1126.459
 20
-3610.999
 30
2634.902
 70
    32
  0
VERTEX
  8
T26SSILL
 62
2
 10
1124.498
 20
-3639.719
 30
2634.941
 70
    32
  0
VERTEX
  8
T26SSILL
 62
2
 10
1122.472
 20
-3644.562
 30
2634.949
 70
    32
  0
VERTEX
  8
T26SSILL
 62
2
 10
1118.481
 20
-3646.702
 30
2634.955
 70
    32
  0
VERTEX
  8
T26SSILL
 62
2
 10
1107.260
 20
-3648.768
 30
2634.967
 70
    32
  0
VERTEX
  8
T26SSILL
 62
2
 10
1098.454
 20
-3643.534
 30
2634.967
 70
    32
  0
VERTEX
  8
T26SSILL
 62
2
 10
1092.118
 20
-3634.219
 30
2634.960
 70
    32
  0
VERTEX
  8
T26SSILL
 62
2
 10
1087.677
 20
-3630.053
 30
2634.959
 70
    32
  0
VERTEX
  8
T26SSILL
 62
2
 10
1083.060
 20
-3628.189
 30
2634.960
 70
    32
  0
VERTEX
  8
T26SSILL
 62
2
 10
1066.650
 20
-3596.302
 30
2634.932
 70
    32
  0
VERTEX
  8
T26SSILL
 62
2
 10
1051.364
 20
-3581.405
 30
2634.925
 70
    32
  0
VERTEX
  8
T26SSILL
 62
2
 10
1044.677
 20
-3557.897
 30
2634.900
 70
    32
  0
VERTEX
  8
T26SSILL
 62
2
 10
1044.154
 20
-3532.434
 30
2634.868
 70
    32
  0
VERTEX
  8
T26SSILL
 62
2
 10
1036.948
 20
-3520.159
 30
2634.858
 70
    32
  0
VERTEX
  8
T26SSILL
 62
2
 10
1033.793
 20
-3509.672
 30
2634.847
 70
    32
  0
VERTEX
  8
T26SSILL
 62
2
 10
1033.890
 20
-3503.362
 30
2634.838
 70
    32
  0
VERTEX
  8
T26SSILL
 62
2
 10
1041.935
 20
-3497.184
 30
2634.824
 70
    32
  0
VERTEX
  8
T26SSILL
 62
2
 10
1054.609
 20
-3524.782
 30
2634.849
 70
    32
  0
VERTEX
  8
T26SSILL
 62
2
 10
1068.619
 20
-3562.421
 30
2634.887
 70
    32
  0
VERTEX
  8
T26SSILL
 62
2
 10
1077.995
 20
-3579.632
 30
2634.901
 70
    32
  0
VERTEX
  8
T26SSILL
 62
2
 10
1094.542
 20
-3575.173
 30
2634.882
 70
    32
  0
VERTEX
  8
T26SSILL
 62
2
 10
1094.675
 20
-3557.546
 30
2634.859
 70
    32
  0
VERTEX
  8
T26SSILL
 62
2
 10
1091.036
 20
-3550.295
 30
2634.853
 70
    32
  0
VERTEX
  8
T26SSILL
 62
2
 10
1089.559
 20
-3537.341
 30
2634.837
 70
    32
  0
VERTEX
  8
T26SSILL
 62
2
 10
1092.704
 20
-3531.793
 30
2634.827
 70
    32
  0
VERTEX
  8
T26SSILL
 62
2
 10
1095.089
 20
-3534.626
 30
2634.829
 70
    32
  0
VERTEX
  8
T26SSILL
 62
2
 10
1098.100
 20
-3543.856
 30
2634.839
 70
    32
  0
VERTEX
  8
T26SSILL
 62
2
 10
1107.183
 20
-3555.305
 30
2634.846
 70
    32
  0
VERTEX
  8
T26SSILL
 62
2
 10
1114.972
 20
-3569.761
 30
2634.858
 70
    32
  0
VERTEX
  8
T26SSILL
 62
2
 10
1116.632
 20
-3577.581
 30
2634.867
 70
    32
  0
VERTEX
  8
T26SSILL
 62
2
 10
1119.024
 20
-3581.171
 30
2634.870
 70
    32
  0
VERTEX
  8
T26SSILL
 62
2
 10
1126.184
 20
-3576.510
 30
2634.858
 70
    32
  0
VERTEX
  8
T26SSILL
 62
2
 10
1131.764
 20
-3583.438
 30
2634.862
 70
    32
  0
VERTEX
  8
T26SSILL
 62
2
 10
1149.571
 20
-3570.386
 30
2634.832
 70
    32
  0
VERTEX
  8
T26SSILL
 62
2
 10
1081.105
 20
-3472.635
 30
2634.762
 70
    32
  0
VERTEX
  8
T26SSILL
 62
2
 10
1053.109
 20
-3460.961
 30
2634.769
 70
    32
  0
VERTEX
  8
T26SSILL
 62
2
 10
1047.038
 20
-3461.848
 30
2634.774
 70
    32
  0
VERTEX
  8
T26SSILL
 62
2
 10
1037.616
 20
-3455.610
 30
2634.774
 70
    32
  0
VERTEX
  8
T26SSILL
 62
2
 10
1022.126
 20
-3453.514
 30
2634.783
 70
    32
  0
VERTEX
  8
T26SSILL
 62
2
 10
1017.724
 20
-3451.143
 30
2634.784
 70
    32
  0
VERTEX
  8
T26SSILL
 62
2
 10
1010.868
 20
-3458.630
 30
2634.799
 70
    32
  0
VERTEX
  8
T26SSILL
 62
2
 10
1013.780
 20
-3466.019
 30
2634.806
 70
    32
  0
VERTEX
  8
T26SSILL
 62
2
 10
1010.884
 20
-3473.677
 30
2634.819
 70
    32
  0
VERTEX
  8
T26SSILL
 62
2
 10
996.809
 20
-3478.356
 30
2634.836
 70
    32
  0
VERTEX
  8
T26SSILL
 62
2
 10
982.367
 20
-3467.988
 30
2634.835
 70
    32
  0
VERTEX
  8
T26SSILL
 62
2
 10
978.582
 20
-3467.376
 30
2634.837
 70
    32
  0
VERTEX
  8
T26SSILL
 62
2
 10
966.763
 20
-3441.341
 30
2634.813
 70
    32
  0
VERTEX
  8
T26SSILL
 62
2
 10
966.054
 20
-3436.414
 30
2634.807
 70
    32
  0
VERTEX
  8
T26SSILL
 62
2
 10
960.240
 20
-3431.052
 30
2634.805
 70
    32
  0
VERTEX
  8
T26SSILL
 62
2
 10
954.945
 20
-3416.626
 30
2634.790
 70
    32
  0
VERTEX
  8
T26SSILL
 62
2
 10
907.757
 20
-3395.557
 30
2634.802
 70
    32
  0
VERTEX
  8
T26SSILL
 62
2
 10
884.168
 20
-3413.173
 30
2634.844
 70
    32
  0
VERTEX
  8
T26SSILL
 62
2
 10
880.195
 20
-3407.442
 30
2634.839
 70
    32
  0
VERTEX
  8
T26SSILL
 62
2
 10
902.560
 20
-3390.898
 30
2634.800
 70
    32
  0
VERTEX
  8
T26SSILL
 62
2
 10
807.384
 20
-3258.915
 30
2634.706
 70
    32
  0
VERTEX
  8
T26SSILL
 62
2
 10
800.261
 20
-3263.674
 30
2634.718
 70
    32
  0
VERTEX
  8
T26SSILL
 62
2
 10
794.709
 20
-3255.761
 30
2634.713
 70
    32
  0
VERTEX
  8
T26SSILL
 62
2
 10
801.127
 20
-3250.826
 30
2634.701
 70
    32
  0
VERTEX
  8
T26SSILL
 62
2
 10
790.464
 20
-3235.878
 30
2634.690
 70
    32
  0
VERTEX
  8
T26SSILL
 62
2
 10
772.526
 20
-3249.008
 30
2634.722
 70
    32
  0
VERTEX
  8
T26SSILL
 62
2
 10
767.678
 20
-3241.534
 30
2634.716
 70
    32
  0
VERTEX
  8
T26SSILL
 62
2
 10
785.792
 20
-3228.755
 30
2634.685
 70
    32
  0
VERTEX
  8
T26SSILL
 62
2
 10
776.275
 20
-3215.653
 30
2634.676
 70
    32
  0
VERTEX
  8
T26SSILL
 62
2
 10
764.052
 20
-3224.114
 30
2634.697
 70
    32
  0
VERTEX
  8
T26SSILL
 62
2
 10
759.734
 20
-3218.223
 30
2634.693
 70
    32
  0
VERTEX
  8
T26SSILL
 62
2
 10
772.045
 20
-3209.674
 30
2634.671
 70
    32
  0
VERTEX
  8
T26SSILL
 62
2
 10
664.706
 20
-3060.280
 30
2634.565
 70
    32
  0
VERTEX
  8
T26SSILL
 62
2
 10
661.008
 20
-3057.556
 30
2634.565
 70
    32
  0
VERTEX
  8
T26SSILL
 62
2
 10
655.288
 20
-3057.650
 30
2634.571
 70
    32
  0
VERTEX
  8
T26SSILL
 62
2
 10
605.607
 20
-3092.902
 30
2634.709
 70
    32
  0
VERTEX
  8
T26SSILL
 62
2
 10
601.113
 20
-3087.274
 30
2634.706
 70
    32
  0
VERTEX
  8
T26SSILL
 62
2
 10
603.904
 20
-3085.257
 30
2634.699
 70
    32
  0
VERTEX
  8
T26SSILL
 62
2
 10
602.076
 20
-3082.962
 30
2634.698
 70
    32
  0
VERTEX
  8
T26SSILL
 62
2
 10
608.143
 20
-3078.467
 30
2634.681
 70
    32
  0
VERTEX
  8
T26SSILL
 62
2
 10
610.023
 20
-3080.836
 30
2634.682
 70
    32
  0
VERTEX
  8
T26SSILL
 62
2
 10
655.630
 20
-3047.882
 30
2634.560
 70
    32
  0
VERTEX
  8
T26SSILL
 62
2
 10
619.674
 20
-2998.026
 30
2634.789
 70
    32
  0
VERTEX
  8
T26SSILL
 62
2
 10
611.577
 20
-2996.362
 30
2634.806
 70
    32
  0
VERTEX
  8
T26SSILL
 62
2
 10
581.944
 20
-3017.865
 30
2634.761
 70
    32
  0
VERTEX
  8
T26SSILL
 62
2
 10
580.986
 20
-3026.930
 30
2634.727
 70
    32
  0
VERTEX
  8
T26SSILL
 62
2
 10
596.497
 20
-3049.089
 30
2634.649
 70
    32
  0
VERTEX
  8
T26SSILL
 62
2
 10
590.429
 20
-3052.791
 30
2634.664
 70
    32
  0
VERTEX
  8
T26SSILL
 62
2
 10
571.744
 20
-3025.267
 30
2634.745
 70
    32
  0
VERTEX
  8
T26SSILL
 62
2
 10
552.487
 20
-3038.575
 30
2634.719
 70
    32
  0
VERTEX
  8
T26SSILL
 62
2
 10
548.785
 20
-3033.035
 30
2634.745
 70
    32
  0
VERTEX
  8
T26SSILL
 62
2
 10
560.655
 20
-3024.047
 30
2634.765
 70
    32
  0
VERTEX
  8
T26SSILL
 62
2
 10
540.386
 20
-2995.557
 30
2634.904
 70
    32
  0
VERTEX
  8
T26SSILL
 62
2
 10
546.717
 20
-2990.799
 30
2634.914
 70
    32
  0
VERTEX
  8
T26SSILL
 62
2
 10
566.811
 20
-3019.993
 30
2634.773
 70
    32
  0
VERTEX
  8
T26SSILL
 62
2
 10
612.183
 20
-2987.562
 30
2634.840
 70
    32
  0
VERTEX
  8
T26SSILL
 62
2
 10
578.255
 20
-2940.871
 30
2634.977
 70
    32
  0
VERTEX
  8
T26SSILL
 62
2
 10
568.658
 20
-2935.778
 30
2634.998
 70
    32
  0
VERTEX
  8
T26SSILL
 62
2
 10
512.999
 20
-2976.403
 30
2634.982
 70
    32
  0
VERTEX
  8
T26SSILL
 62
2
 10
507.888
 20
-2969.545
 30
2635.001
 70
    32
  0
VERTEX
  8
T26SSILL
 62
2
 10
567.592
 20
-2926.275
 30
2635.018
 70
    32
  0
VERTEX
  8
T26SSILL
 62
2
 10
511.251
 20
-2847.986
 30
2635.344
 70
    32
  0
VERTEX
  8
T26SSILL
 62
2
 10
489.391
 20
-2863.868
 30
2635.325
 70
    32
  0
VERTEX
  8
T26SSILL
 62
2
 10
496.826
 20
-2874.780
 30
2635.279
 70
    32
  0
VERTEX
  8
T26SSILL
 62
2
 10
490.239
 20
-2879.336
 30
2635.274
 70
    32
  0
VERTEX
  8
T26SSILL
 62
2
 10
482.964
 20
-2868.196
 30
2635.320
 70
    32
  0
VERTEX
  8
T26SSILL
 62
2
 10
465.973
 20
-2880.577
 30
2635.305
 70
    32
  0
VERTEX
  8
T26SSILL
 62
2
 10
479.263
 20
-2898.646
 30
2635.229
 70
    32
  0
VERTEX
  8
T26SSILL
 62
2
 10
488.007
 20
-2895.227
 30
2635.227
 70
    32
  0
VERTEX
  8
T26SSILL
 62
2
 10
500.650
 20
-2909.176
 30
2635.165
 70
    32
  0
VERTEX
  8
T26SSILL
 62
2
 10
491.042
 20
-2916.301
 30
2635.156
 70
    32
  0
VERTEX
  8
T26SSILL
 62
2
 10
494.630
 20
-2929.409
 30
2635.109
 70
    32
  0
VERTEX
  8
T26SSILL
 62
2
 10
491.565
 20
-2939.895
 30
2635.081
 70
    32
  0
VERTEX
  8
T26SSILL
 62
2
 10
489.249
 20
-2941.941
 30
2635.077
 70
    32
  0
VERTEX
  8
T26SSILL
 62
2
 10
494.385
 20
-2951.820
 30
2635.052
 70
    32
  0
VERTEX
  8
T26SSILL
 62
2
 10
489.693
 20
-2954.205
 30
2635.052
 70
    32
  0
VERTEX
  8
T26SSILL
 62
2
 10
485.478
 20
-2952.951
 30
2635.060
 70
    32
  0
VERTEX
  8
T26SSILL
 62
2
 10
477.917
 20
-2942.460
 30
2635.092
 70
    32
  0
VERTEX
  8
T26SSILL
 62
2
 10
474.221
 20
-2942.792
 30
2635.096
 70
    32
  0
VERTEX
  8
T26SSILL
 62
2
 10
468.564
 20
-2938.117
 30
2635.119
 70
    32
  0
VERTEX
  8
T26SSILL
 62
2
 10
463.277
 20
-2930.101
 30
2635.152
 70
    32
  0
VERTEX
  8
T26SSILL
 62
2
 10
467.433
 20
-2922.859
 30
2635.169
 70
    32
  0
VERTEX
  8
T26SSILL
 62
2
 10
467.186
 20
-2906.725
 30
2635.220
 70
    32
  0
VERTEX
  8
T26SSILL
 62
2
 10
458.881
 20
-2894.049
 30
2635.272
 70
    32
  0
VERTEX
  8
T26SSILL
 62
2
 10
462.674
 20
-2888.827
 30
2635.283
 70
    32
  0
VERTEX
  8
T26SSILL
 62
2
 10
459.530
 20
-2884.588
 30
2635.301
 70
    32
  0
VERTEX
  8
T26SSILL
 62
2
 10
458.275
 20
-2885.848
 30
2635.299
 70
    32
  0
VERTEX
  8
T26SSILL
 62
2
 10
454.740
 20
-2880.253
 30
2635.322
 70
    32
  0
VERTEX
  8
T26SSILL
 62
2
 10
506.982
 20
-2842.068
 30
2635.360
 70
    32
  0
VERTEX
  8
T26SSILL
 62
2
 10
482.408
 20
-2808.381
 30
2635.380
 70
    32
  0
VERTEX
  8
T26SSILL
 62
2
 10
478.488
 20
-2811.068
 30
2635.380
 70
    32
  0
VERTEX
  8
T26SSILL
 62
2
 10
470.652
 20
-2812.609
 30
2635.382
 70
    32
  0
VERTEX
  8
T26SSILL
 62
2
 10
461.210
 20
-2808.442
 30
2635.390
 70
    32
  0
VERTEX
  8
T26SSILL
 62
2
 10
454.487
 20
-2812.223
 30
2635.390
 70
    32
  0
VERTEX
  8
T26SSILL
 62
2
 10
438.066
 20
-2813.559
 30
2635.396
 70
    32
  0
VERTEX
  8
T26SSILL
 62
2
 10
417.085
 20
-2828.680
 30
2635.391
 70
    32
  0
VERTEX
  8
T26SSILL
 62
2
 10
404.726
 20
-2843.320
 30
2635.383
 70
    32
  0
VERTEX
  8
T26SSILL
 62
2
 10
407.702
 20
-2852.501
 30
2635.372
 70
    32
  0
VERTEX
  8
T26SSILL
 62
2
 10
407.886
 20
-2857.621
 30
2635.367
 70
    32
  0
VERTEX
  8
T26SSILL
 62
2
 10
405.905
 20
-2859.528
 30
2635.366
 70
    32
  0
VERTEX
  8
T26SSILL
 62
2
 10
396.741
 20
-2856.030
 30
2635.374
 70
    32
  0
VERTEX
  8
T26SSILL
 62
2
 10
386.188
 20
-2845.788
 30
2635.389
 70
    32
  0
VERTEX
  8
T26SSILL
 62
2
 10
378.814
 20
-2830.231
 30
2635.408
 70
    32
  0
VERTEX
  8
T26SSILL
 62
2
 10
372.543
 20
-2789.437
 30
2635.451
 70
    32
  0
VERTEX
  8
T26SSILL
 62
2
 10
436.228
 20
-2743.744
 30
2635.466
 70
    32
  0
VERTEX
  8
T26SSILL
 62
2
 10
432.492
 20
-2738.629
 30
2635.472
 70
    32
  0
VERTEX
  8
T26SSILL
 62
2
 10
428.711
 20
-2741.433
 30
2635.471
 70
    32
  0
VERTEX
  8
T26SSILL
 62
2
 10
424.588
 20
-2736.169
 30
2635.479
 70
    32
  0
VERTEX
  8
T26SSILL
 62
2
 10
428.632
 20
-2733.344
 30
2635.479
 70
    32
  0
VERTEX
  8
T26SSILL
 62
2
 10
414.696
 20
-2714.266
 30
2635.505
 70
    32
  0
VERTEX
  8
T26SSILL
 62
2
 10
395.285
 20
-2728.551
 30
2635.500
 70
    32
  0
VERTEX
  8
T26SSILL
 62
2
 10
386.047
 20
-2722.590
 30
2635.510
 70
    32
  0
VERTEX
  8
T26SSILL
 62
2
 10
382.613
 20
-2713.529
 30
2635.521
 70
    32
  0
VERTEX
  8
T26SSILL
 62
2
 10
375.266
 20
-2712.187
 30
2635.525
 70
    32
  0
VERTEX
  8
T26SSILL
 62
2
 10
228.911
 20
-2817.545
 30
2635.475
 70
    32
  0
VERTEX
  8
T26SSILL
 62
2
 10
228.539
 20
-2827.676
 30
2635.468
 70
    32
  0
VERTEX
  8
T26SSILL
 62
2
 10
232.387
 20
-2841.577
 30
2635.457
 70
    32
  0
VERTEX
  8
T26SSILL
 62
2
 10
229.649
 20
-2846.892
 30
2635.454
 70
    32
  0
VERTEX
  8
T26SSILL
 62
2
 10
179.477
 20
-2882.455
 30
2635.436
 70
    32
  0
VERTEX
  8
T26SSILL
 62
2
 10
163.119
 20
-2878.707
 30
2635.441
 70
    32
  0
VERTEX
  8
T26SSILL
 62
2
 10
154.066
 20
-2871.076
 30
2635.448
 70
    32
  0
VERTEX
  8
T26SSILL
 62
2
 10
133.404
 20
-2885.741
 30
2635.441
 70
    32
  0
VERTEX
  8
T26SSILL
 62
2
 10
131.340
 20
-2893.295
 30
2635.436
 70
    32
  0
VERTEX
  8
T26SSILL
 62
2
 10
133.795
 20
-2897.935
 30
2635.432
 70
    32
  0
VERTEX
  8
T26SSILL
 62
2
 10
134.008
 20
-2909.868
 30
2635.424
 70
    32
  0
VERTEX
  8
T26SSILL
 62
2
 10
140.636
 20
-2904.798
 30
2635.426
 70
    32
  0
VERTEX
  8
T26SSILL
 62
2
 10
137.283
 20
-2900.276
 30
2635.430
 70
    32
  0
VERTEX
  8
T26SSILL
 62
2
 10
142.511
 20
-2896.399
 30
2635.432
 70
    32
  0
VERTEX
  8
T26SSILL
 62
2
 10
138.914
 20
-2891.401
 30
2635.436
 70
    32
  0
VERTEX
  8
T26SSILL
 62
2
 10
143.703
 20
-2887.521
 30
2635.438
 70
    32
  0
VERTEX
  8
T26SSILL
 62
2
 10
147.564
 20
-2892.433
 30
2635.434
 70
    32
  0
VERTEX
  8
T26SSILL
 62
2
 10
152.033
 20
-2889.009
 30
2635.436
 70
    32
  0
VERTEX
  8
T26SSILL
 62
2
 10
155.860
 20
-2893.727
 30
2635.432
 70
    32
  0
VERTEX
  8
T26SSILL
 62
2
 10
160.471
 20
-2890.198
 30
2635.434
 70
    32
  0
VERTEX
  8
T26SSILL
 62
2
 10
164.102
 20
-2895.390
 30
2635.429
 70
    32
  0
VERTEX
  8
T26SSILL
 62
2
 10
159.617
 20
-2898.497
 30
2635.428
 70
    32
  0
VERTEX
  8
T26SSILL
 62
2
 10
166.423
 20
-2908.561
 30
2635.419
 70
    32
  0
VERTEX
  8
T26SSILL
 62
2
 10
161.833
 20
-2911.527
 30
2635.418
 70
    32
  0
VERTEX
  8
T26SSILL
 62
2
 10
168.781
 20
-2921.487
 30
2635.410
 70
    32
  0
VERTEX
  8
T26SSILL
 62
2
 10
163.854
 20
-2925.031
 30
2635.408
 70
    32
  0
VERTEX
  8
T26SSILL
 62
2
 10
167.799
 20
-2930.647
 30
2635.403
 70
    32
  0
VERTEX
  8
T26SSILL
 62
2
 10
152.488
 20
-2941.453
 30
2635.398
 70
    32
  0
VERTEX
  8
T26SSILL
 62
2
 10
159.912
 20
-2951.169
 30
2635.390
 70
    32
  0
VERTEX
  8
T26SSILL
 62
2
 10
140.344
 20
-2965.242
 30
2635.382
 70
    32
  0
VERTEX
  8
T26SSILL
 62
2
 10
144.360
 20
-2970.805
 30
2635.378
 70
    32
  0
VERTEX
  8
T26SSILL
 62
2
 10
125.343
 20
-2984.034
 30
2635.371
 70
    32
  0
VERTEX
  8
T26SSILL
 62
2
 10
132.579
 20
-2994.233
 30
2635.363
 70
    32
  0
VERTEX
  8
T26SSILL
 62
2
 10
166.087
 20
-2970.571
 30
2635.371
 70
    32
  0
VERTEX
  8
T26SSILL
 62
2
 10
170.018
 20
-2959.334
 30
2635.380
 70
    32
  0
VERTEX
  8
T26SSILL
 62
2
 10
175.347
 20
-2953.082
 30
2635.384
 70
    32
  0
VERTEX
  8
T26SSILL
 62
2
 10
178.413
 20
-2939.201
 30
2635.395
 70
    32
  0
VERTEX
  8
T26SSILL
 62
2
 10
176.468
 20
-2934.511
 30
2635.399
 70
    32
  0
VERTEX
  8
T26SSILL
 62
2
 10
179.755
 20
-2931.855
 30
2635.400
 70
    32
  0
VERTEX
  8
T26SSILL
 62
2
 10
193.142
 20
-2951.384
 30
2635.377
 70
    32
  0
VERTEX
  8
T26SSILL
 62
2
 10
225.391
 20
-2928.126
 30
2635.384
 70
    32
  0
VERTEX
  8
T26SSILL
 62
2
 10
243.761
 20
-2895.012
 30
2635.408
 70
    32
  0
VERTEX
  8
T26SSILL
 62
2
 10
250.712
 20
-2897.742
 30
2635.402
 70
    32
  0
VERTEX
  8
T26SSILL
 62
2
 10
229.760
 20
-2933.428
 30
2635.377
 70
    32
  0
VERTEX
  8
T26SSILL
 62
2
 10
198.977
 20
-2955.708
 30
2635.370
 70
    32
  0
VERTEX
  8
T26SSILL
 62
2
 10
198.736
 20
-2961.143
 30
2635.365
 70
    32
  0
VERTEX
  8
T26SSILL
 62
2
 10
194.342
 20
-2967.030
 30
2635.361
 70
    32
  0
VERTEX
  8
T26SSILL
 62
2
 10
186.579
 20
-2971.034
 30
2635.361
 70
    32
  0
VERTEX
  8
T26SSILL
 62
2
 10
177.565
 20
-2978.814
 30
2635.357
 70
    32
  0
VERTEX
  8
T26SSILL
 62
2
 10
172.307
 20
-2975.267
 30
2635.363
 70
    32
  0
VERTEX
  8
T26SSILL
 62
2
 10
136.741
 20
-3000.099
 30
2635.356
 70
    32
  0
VERTEX
  8
T26SSILL
 62
2
 10
139.291
 20
-3003.693
 30
2635.351
 70
    32
  0
VERTEX
  8
T26SSILL
 62
2
 10
131.663
 20
-3008.911
 30
2635.350
 70
    32
  0
VERTEX
  8
T26SSILL
 62
2
 10
137.924
 20
-3022.227
 30
2635.323
 70
    32
  0
VERTEX
  8
T26SSILL
 62
2
 10
131.864
 20
-3027.050
 30
2635.318
 70
    32
  0
VERTEX
  8
T26SSILL
 62
2
 10
126.048
 20
-3020.444
 30
2635.341
 70
    32
  0
VERTEX
  8
T26SSILL
 62
2
 10
122.388
 20
-3023.139
 30
2635.341
 70
    32
  0
VERTEX
  8
T26SSILL
 62
2
 10
118.659
 20
-3017.862
 30
2635.347
 70
    32
  0
VERTEX
  8
T26SSILL
 62
2
 10
113.867
 20
-3017.400
 30
2635.349
 70
    32
  0
VERTEX
  8
T26SSILL
 62
2
 10
103.538
 20
-3024.293
 30
2635.348
 70
    32
  0
VERTEX
  8
T26SSILL
 62
2
 10
123.802
 20
-3053.834
 30
2635.348
 70
    32
  0
VERTEX
  8
T26SSILL
 62
2
 10
139.375
 20
-3043.381
 30
2635.308
 70
    32
  0
VERTEX
  8
T26SSILL
 62
2
 10
140.997
 20
-3046.011
 30
2635.310
 70
    32
  0
VERTEX
  8
T26SSILL
 62
2
 10
165.863
 20
-3028.215
 30
2635.273
 70
    32
  0
VERTEX
  8
T26SSILL
 62
2
 10
163.948
 20
-3025.580
 30
2635.284
 70
    32
  0
VERTEX
  8
T26SSILL
 62
2
 10
168.322
 20
-3022.462
 30
2635.285
 70
    32
  0
VERTEX
  8
T26SSILL
 62
2
 10
170.256
 20
-3025.071
 30
2635.278
 70
    32
  0
VERTEX
  8
T26SSILL
 62
2
 10
225.485
 20
-2985.547
 30
2635.314
 70
    32
  0
VERTEX
  8
T26SSILL
 62
2
 10
230.533
 20
-2992.207
 30
2635.286
 70
    32
  0
VERTEX
  8
T26SSILL
 62
2
 10
171.298
 20
-3035.695
 30
2635.248
 70
    32
  0
VERTEX
  8
T26SSILL
 62
2
 10
174.349
 20
-3039.893
 30
2635.251
 70
    32
  0
VERTEX
  8
T26SSILL
 62
2
 10
134.454
 20
-3068.493
 30
2635.357
 70
    32
  0
VERTEX
  8
T26SSILL
 62
2
 10
142.133
 20
-3079.881
 30
2635.365
 70
    32
  0
VERTEX
  8
T26SSILL
 62
2
 10
147.880
 20
-3067.844
 30
2635.336
 70
    32
  0
VERTEX
  8
T26SSILL
 62
2
 10
151.044
 20
-3065.170
 30
2635.327
 70
    32
  0
VERTEX
  8
T26SSILL
 62
2
 10
191.545
 20
-3044.772
 30
2635.234
 70
    32
  0
VERTEX
  8
T26SSILL
 62
2
 10
199.185
 20
-3037.354
 30
2635.210
 70
    32
  0
VERTEX
  8
T26SSILL
 62
2
 10
204.190
 20
-3045.579
 30
2635.217
 70
    32
  0
VERTEX
  8
T26SSILL
 62
2
 10
211.681
 20
-3049.331
 30
2635.212
 70
    32
  0
VERTEX
  8
T26SSILL
 62
2
 10
209.315
 20
-3054.262
 30
2635.224
 70
    32
  0
VERTEX
  8
T26SSILL
 62
2
 10
211.881
 20
-3061.119
 30
2635.232
 70
    32
  0
VERTEX
  8
T26SSILL
 62
2
 10
216.054
 20
-3060.544
 30
2635.224
 70
    32
  0
VERTEX
  8
T26SSILL
 62
2
 10
219.463
 20
-3057.906
 30
2635.215
 70
    32
  0
VERTEX
  8
T26SSILL
 62
2
 10
222.029
 20
-3058.412
 30
2635.212
 70
    32
  0
VERTEX
  8
T26SSILL
 62
2
 10
222.887
 20
-3062.375
 30
2635.218
 70
    32
  0
VERTEX
  8
T26SSILL
 62
2
 10
227.036
 20
-3066.197
 30
2635.218
 70
    32
  0
VERTEX
  8
T26SSILL
 62
2
 10
228.189
 20
-3074.102
 30
2635.229
 70
    32
  0
VERTEX
  8
T26SSILL
 62
2
 10
230.421
 20
-3077.703
 30
2635.232
 70
    32
  0
VERTEX
  8
T26SSILL
 62
2
 10
222.576
 20
-3087.354
 30
2635.260
 70
    32
  0
VERTEX
  8
T26SSILL
 62
2
 10
215.738
 20
-3092.753
 30
2635.279
 70
    32
  0
VERTEX
  8
T26SSILL
 62
2
 10
206.337
 20
-3110.347
 30
2635.322
 70
    32
  0
VERTEX
  8
T26SSILL
 62
2
 10
211.854
 20
-3108.336
 30
2635.311
 70
    32
  0
VERTEX
  8
T26SSILL
 62
2
 10
215.153
 20
-3109.832
 30
2635.309
 70
    32
  0
VERTEX
  8
T26SSILL
 62
2
 10
222.524
 20
-3132.618
 30
2635.336
 70
    32
  0
VERTEX
  8
T26SSILL
 62
2
 10
221.160
 20
-3137.572
 30
2635.346
 70
    32
  0
VERTEX
  8
T26SSILL
 62
2
 10
221.867
 20
-3146.794
 30
2635.361
 70
    32
  0
VERTEX
  8
T26SSILL
 62
2
 10
225.945
 20
-3166.765
 30
2635.388
 70
    32
  0
VERTEX
  8
T26SSILL
 62
2
 10
232.143
 20
-3178.814
 30
2635.400
 70
    32
  0
VERTEX
  8
T26SSILL
 62
2
 10
221.007
 20
-3188.605
 30
2635.432
 70
    32
  0
VERTEX
  8
T26SSILL
 62
2
 10
340.961
 20
-3355.236
 30
2635.537
 70
    32
  0
VERTEX
  8
T26SSILL
 62
2
 10
347.814
 20
-3350.154
 30
2635.518
 70
    32
  0
VERTEX
  8
T26SSILL
 62
2
 10
353.418
 20
-3358.153
 30
2635.523
 70
    32
  0
VERTEX
  8
T26SSILL
 62
2
 10
346.669
 20
-3363.377
 30
2635.542
 70
    32
  0
VERTEX
  8
T26SSILL
 62
2
 10
349.797
 20
-3367.299
 30
2635.544
 70
    32
  0
VERTEX
  8
T26SSILL
 62
2
 10
344.375
 20
-3371.210
 30
2635.558
 70
    32
  0
VERTEX
  8
T26SSILL
 62
2
 10
214.485
 20
-3191.033
 30
2635.446
 70
    32
  0
VERTEX
  8
T26SSILL
 62
2
 10
190.588
 20
-3172.836
 30
2635.450
 70
    32
  0
VERTEX
  8
T26SSILL
 62
2
 10
193.218
 20
-3161.468
 30
2635.427
 70
    32
  0
VERTEX
  8
T26SSILL
 62
2
 10
182.415
 20
-3148.673
 30
2635.422
 70
    32
  0
VERTEX
  8
T26SSILL
 62
2
 10
176.325
 20
-3146.072
 30
2635.426
 70
    32
  0
VERTEX
  8
T26SSILL
 62
2
 10
174.456
 20
-3146.801
 30
2635.430
 70
    32
  0
VERTEX
  8
T26SSILL
 62
2
 10
164.752
 20
-3161.772
 30
2635.469
 70
    32
  0
VERTEX
  8
T26SSILL
 62
2
 10
157.862
 20
-3151.003
 30
2635.461
 70
    32
  0
VERTEX
  8
T26SSILL
 62
2
 10
169.206
 20
-3138.539
 30
2635.424
 70
    32
  0
VERTEX
  8
T26SSILL
 62
2
 10
170.269
 20
-3130.523
 30
2635.409
 70
    32
  0
VERTEX
  8
T26SSILL
 62
2
 10
160.162
 20
-3116.007
 30
2635.399
 70
    32
  0
VERTEX
  8
T26SSILL
 62
2
 10
151.027
 20
-3126.724
 30
2635.431
 70
    32
  0
VERTEX
  8
T26SSILL
 62
2
 10
137.405
 20
-3118.101
 30
2635.436
 70
    32
  0
VERTEX
  8
T26SSILL
 62
2
 10
133.599
 20
-3119.171
 30
2635.443
 70
    32
  0
VERTEX
  8
T26SSILL
 62
2
 10
-382.743
 20
-3490.376
 30
2637.859
 70
    32
  0
VERTEX
  8
T26SSILL
 62
2
 10
-394.141
 20
-3501.816
 30
2638.004
 70
    32
  0
VERTEX
  8
T26SSILL
 62
2
 10
-400.709
 20
-3516.505
 30
2638.128
 70
    32
  0
VERTEX
  8
T26SSILL
 62
2
 10
-402.364
 20
-3525.800
 30
2638.187
 70
    32
  0
VERTEX
  8
T26SSILL
 62
2
 10
-399.234
 20
-3544.516
 30
2638.255
 70
    32
  0
VERTEX
  8
T26SSILL
 62
2
 10
-393.257
 20
-3556.118
 30
2638.266
 70
    32
  0
VERTEX
  8
T26SSILL
 62
2
 10
-378.737
 20
-3571.331
 30
2638.228
 70
    32
  0
VERTEX
  8
T26SSILL
 62
2
 10
32.034
 20
-3959.463
 30
2636.984
 70
    32
  0
VERTEX
  8
T26SSILL
 62
2
 10
37.768
 20
-3957.188
 30
2636.966
 70
    32
  0
VERTEX
  8
T26SSILL
 62
2
 10
39.607
 20
-3959.572
 30
2636.963
 70
    32
  0
VERTEX
  8
T26SSILL
 62
2
 10
35.625
 20
-3964.663
 30
2636.978
 70
    32
  0
VERTEX
  8
T26SSILL
 62
2
 10
608.900
 20
-4505.229
 30
2635.696
 70
    32
  0
VERTEX
  8
T26SSILL
 62
2
 10
974.020
 20
-4849.516
 30
2636.297
 70
    32
  0
VERTEX
  8
T26SSILL
 62
2
 10
1009.800
 20
-4897.359
 30
2636.121
 70
    32
  0
VERTEX
  8
T26SSILL
 62
2
 10
1027.006
 20
-4910.859
 30
2636.056
 70
    32
  0
VERTEX
  8
T26SSILL
 62
2
 10
1052.622
 20
-4936.180
 30
2635.947
 70
    32
  0
VERTEX
  8
T26SSILL
 62
2
 10
1082.485
 20
-4992.357
 30
2635.759
 70
    32
  0
VERTEX
  8
T26SSILL
 62
2
 10
1098.099
 20
-5013.723
 30
2635.680
 70
    32
  0
VERTEX
  8
T26SSILL
 62
2
 10
1109.912
 20
-5035.228
 30
2635.607
 70
    32
  0
VERTEX
  8
T26SSILL
 62
2
 10
1121.440
 20
-5044.909
 30
2635.562
 70
    32
  0
VERTEX
  8
T26SSILL
 62
2
 10
1126.175
 20
-5045.615
 30
2635.551
 70
    32
  0
VERTEX
  8
T26SSILL
 62
2
 10
2052.810
 20
-4956.079
 30
2634.126
 70
    32
  0
VERTEX
  8
T26SSILL
 62
2
 10
2098.137
 20
-4924.332
 30
2634.104
 70
    32
  0
VERTEX
  8
T26SSILL
 62
2
 10
2075.921
 20
-4892.515
 30
2634.040
 70
    32
  0
VERTEX
  8
T26SSILL
 62
2
 10
2066.053
 20
-4868.090
 30
2633.981
 70
    32
  0
VERTEX
  8
T26SSILL
 62
2
 10
2021.582
 20
-4789.663
 30
2633.785
 70
    32
  0
VERTEX
  8
T26SSILL
 62
2
 10
1998.238
 20
-4752.932
 30
2633.691
 70
    32
  0
VERTEX
  8
T26SSILL
 62
2
 10
1911.986
 20
-4653.717
 30
2633.855
 70
    32
  0
VERTEX
  8
T26SSILL
 62
2
 10
1884.234
 20
-4598.557
 30
2634.056
 70
    32
  0
VERTEX
  8
T26SSILL
 62
2
 10
1845.771
 20
-4563.720
 30
2634.104
 70
    32
  0
VERTEX
  8
T26SSILL
 62
2
 10
1850.102
 20
-4558.813
 30
2634.100
 70
    32
  0
VERTEX
  8
T26SSILL
 62
2
 10
1889.980
 20
-4594.070
 30
2634.050
 70
    32
  0
VERTEX
  8
T26SSILL
 62
2
 10
1899.447
 20
-4609.166
 30
2633.995
 70
    32
  0
VERTEX
  8
T26SSILL
 62
2
 10
1916.038
 20
-4647.758
 30
2633.830
 70
    32
  0
VERTEX
  8
T26SSILL
 62
2
 10
1986.609
 20
-4728.533
 30
2633.632
 70
    32
  0
VERTEX
  8
T26SSILL
 62
2
 10
2005.541
 20
-4752.561
 30
2633.696
 70
    32
  0
VERTEX
  8
T26SSILL
 62
2
 10
2025.982
 20
-4783.435
 30
2633.775
 70
    32
  0
VERTEX
  8
T26SSILL
 62
2
 10
2072.271
 20
-4865.710
 30
2633.981
 70
    32
  0
VERTEX
  8
T26SSILL
 62
2
 10
2081.416
 20
-4888.912
 30
2634.036
 70
    32
  0
VERTEX
  8
T26SSILL
 62
2
 10
2103.193
 20
-4920.823
 30
2634.102
 70
    32
  0
VERTEX
  8
T26SSILL
 62
2
 10
2166.389
 20
-4876.574
 30
2634.071
 70
    32
  0
VERTEX
  8
T26SSILL
 62
2
 10
2167.110
 20
-4642.767
 30
2633.599
 70
    32
  0
VERTEX
  8
T26SSILL
 62
2
 10
2164.632
 20
-4635.934
 30
2633.582
 70
    32
  0
VERTEX
  8
T26SSILL
 62
2
 10
2165.617
 20
-4630.989
 30
2633.573
 70
    32
  0
VERTEX
  8
T26SSILL
 62
2
 10
2163.797
 20
-4626.965
 30
2633.563
 70
    32
  0
VERTEX
  8
T26SSILL
 62
2
 10
2123.736
 20
-4627.374
 30
2633.520
 70
    32
  0
VERTEX
  8
T26SSILL
 62
2
 10
2123.764
 20
-4613.108
 30
2633.491
 70
    32
  0
VERTEX
  8
T26SSILL
 62
2
 10
2116.920
 20
-4612.944
 30
2633.485
 70
    32
  0
VERTEX
  8
T26SSILL
 62
2
 10
2116.933
 20
-4547.516
 30
2633.350
 70
    32
  0
VERTEX
  8
T26SSILL
 62
2
 10
2198.264
 20
-4533.030
 30
2633.413
 70
    32
  0
VERTEX
  8
T26SSILL
 62
2
 10
2212.824
 20
-4492.926
 30
2633.348
 70
    32
  0
VERTEX
  8
T26SSILL
 62
2
 10
2216.866
 20
-4474.287
 30
2633.315
 70
    32
  0
VERTEX
  8
T26SSILL
 62
2
 10
2215.385
 20
-4457.313
 30
2633.279
 70
    32
  0
VERTEX
  8
T26SSILL
 62
2
 10
2205.641
 20
-4441.341
 30
2633.236
 70
    32
  0
VERTEX
  8
T26SSILL
 62
2
 10
2201.618
 20
-4437.173
 30
2633.223
 70
    32
  0
VERTEX
  8
T26SSILL
 62
2
 10
2105.405
 20
-4371.260
 30
2632.981
 70
    32
  0
VERTEX
  8
T26SSILL
 62
2
 10
2084.835
 20
-4365.372
 30
2632.946
 70
    32
  0
VERTEX
  8
T26SSILL
 62
2
 10
2082.456
 20
-4363.295
 30
2632.939
 70
    32
  0
VERTEX
  8
T26SSILL
 62
2
 10
1944.812
 20
-4399.834
 30
2633.862
 70
    32
  0
VERTEX
  8
T26SSILL
 62
2
 10
1942.570
 20
-4393.308
 30
2633.885
 70
    32
  0
VERTEX
  8
T26SSILL
 62
2
 10
2075.609
 20
-4356.419
 30
2632.919
 70
    32
  0
VERTEX
  8
T26SSILL
 62
2
 10
2078.986
 20
-4351.789
 30
2632.912
 70
    32
  0
VERTEX
  8
T26SSILL
 62
2
 10
1746.622
 20
-4122.073
 30
2634.215
 70
    32
  0
VERTEX
  8
T26SSILL
 62
2
 10
1739.903
 20
-4119.562
 30
2634.218
 70
    32
  0
VERTEX
  8
T26SSILL
 62
2
 10
1734.891
 20
-4118.202
 30
2634.221
 70
    32
  0
VERTEX
  8
T26SSILL
 62
2
 10
1725.139
 20
-4118.548
 30
2634.229
 70
    32
  0
VERTEX
  8
T26SSILL
 62
2
 10
1713.988
 20
-4124.152
 30
2634.242
 70
    32
  0
VERTEX
  8
T26SSILL
 62
2
 10
1616.288
 20
-4194.403
 30
2634.431
 70
    32
  0
VERTEX
  8
T26SSILL
 62
2
 10
1616.774
 20
-4213.623
 30
2634.427
 70
    32
  0
VERTEX
  8
T26SSILL
 62
2
 10
1628.201
 20
-4238.919
 30
2634.390
 70
    32
  0
VERTEX
  8
T26SSILL
 62
2
 10
1626.841
 20
-4245.128
 30
2634.393
 70
    32
  0
VERTEX
  8
T26SSILL
 62
2
 10
1629.136
 20
-4249.332
 30
2634.394
 70
    32
  0
VERTEX
  8
T26SSILL
 62
2
 10
1623.612
 20
-4254.000
 30
2634.402
 70
    32
  0
VERTEX
  8
T26SSILL
 62
2
 10
1621.194
 20
-4249.776
 30
2634.409
 70
    32
  0
VERTEX
  8
T26SSILL
 62
2
 10
1620.201
 20
-4239.732
 30
2634.414
 70
    32
  0
VERTEX
  8
T26SSILL
 62
2
 10
1602.275
 20
-4213.723
 30
2634.471
 70
    32
  0
VERTEX
  8
T26SSILL
 62
2
 10
1589.205
 20
-4213.544
 30
2634.511
 70
    32
  0
VERTEX
  8
T26SSILL
 62
2
 10
1545.362
 20
-4245.085
 30
2634.640
 70
    32
  0
VERTEX
  8
T26SSILL
 62
2
 10
1540.145
 20
-4238.655
 30
2634.657
 70
    32
  0
VERTEX
  8
T26SSILL
 62
2
 10
1583.645
 20
-4207.690
 30
2634.529
 70
    32
  0
VERTEX
  8
T26SSILL
 62
2
 10
1581.429
 20
-4200.601
 30
2634.536
 70
    32
  0
VERTEX
  8
T26SSILL
 62
2
 10
1573.200
 20
-4186.138
 30
2634.553
 70
    32
  0
VERTEX
  8
T26SSILL
 62
2
 10
1579.398
 20
-4180.003
 30
2634.535
 70
    32
  0
VERTEX
  8
T26SSILL
 62
2
 10
1587.800
 20
-4195.753
 30
2634.518
 70
    32
  0
VERTEX
  8
T26SSILL
 62
2
 10
1597.936
 20
-4189.799
 30
2634.488
 70
    32
  0
VERTEX
  8
T26SSILL
 62
2
 10
1603.120
 20
-4174.939
 30
2634.474
 70
    32
  0
VERTEX
  8
T26SSILL
 62
2
 10
1589.939
 20
-4156.356
 30
2634.497
 70
    32
  0
VERTEX
  8
T26SSILL
 62
2
 10
1589.701
 20
-4152.288
 30
2634.495
 70
    32
  0
VERTEX
  8
T26SSILL
 62
2
 10
1570.132
 20
-4150.200
 30
2634.538
 70
    32
  0
VERTEX
  8
T26SSILL
 62
2
 10
1566.472
 20
-4147.858
 30
2634.544
 70
    32
  0
VERTEX
  8
T26SSILL
 62
2
 10
1561.157
 20
-4124.536
 30
2634.542
 70
    32
  0
VERTEX
  8
T26SSILL
 62
2
 10
1557.770
 20
-4118.080
 30
2634.545
 70
    32
  0
VERTEX
  8
T26SSILL
 62
2
 10
1537.186
 20
-4090.958
 30
2634.574
 70
    32
  0
VERTEX
  8
T26SSILL
 62
2
 10
1527.695
 20
-4080.892
 30
2634.589
 70
    32
  0
VERTEX
  8
T26SSILL
 62
2
 10
1509.663
 20
-4042.020
 30
2634.605
 70
    32
  0
VERTEX
  8
T26SSILL
 62
2
 10
1506.922
 20
-4039.445
 30
2634.609
 70
    32
  0
VERTEX
  8
T26SSILL
 62
2
 10
1453.951
 20
-4077.728
 30
2634.751
 70
    32
  0
VERTEX
  8
T26SSILL
 62
2
 10
1475.432
 20
-4111.920
 30
2634.725
 70
    32
  0
VERTEX
  8
T26SSILL
 62
2
 10
1479.769
 20
-4120.729
 30
2634.720
 70
    32
  0
VERTEX
  8
T26SSILL
 62
2
 10
1479.689
 20
-4127.203
 30
2634.725
 70
    32
  0
VERTEX
  8
T26SSILL
 62
2
 10
1478.731
 20
-4130.074
 30
2634.729
 70
    32
  0
VERTEX
  8
T26SSILL
 62
2
 10
1460.025
 20
-4143.236
 30
2634.778
 70
    32
  0
VERTEX
  8
T26SSILL
 62
2
 10
1456.015
 20
-4144.302
 30
2634.788
 70
    32
  0
VERTEX
  8
T26SSILL
 62
2
 10
1453.021
 20
-4143.324
 30
2634.794
 70
    32
  0
VERTEX
  8
T26SSILL
 62
2
 10
1432.730
 20
-4108.376
 30
2634.818
 70
    32
  0
VERTEX
  8
T26SSILL
 62
2
 10
1422.503
 20
-4095.801
 30
2634.804
 70
    32
  0
VERTEX
  8
T26SSILL
 62
2
 10
1420.287
 20
-4087.516
 30
2634.789
 70
    32
  0
VERTEX
  8
T26SSILL
 62
2
 10
1395.978
 20
-4060.057
 30
2634.739
 70
    32
  0
VERTEX
  8
T26SSILL
 62
2
 10
1379.410
 20
-4036.214
 30
2634.711
 70
    32
  0
VERTEX
  8
T26SSILL
 62
2
 10
1378.888
 20
-4028.764
 30
2634.712
 70
    32
  0
VERTEX
  8
T26SSILL
 62
2
 10
1374.895
 20
-4016.986
 30
2634.719
 70
    32
  0
VERTEX
  8
T26SSILL
 62
2
 10
1349.223
 20
-3985.406
 30
2634.757
 70
    32
  0
VERTEX
  8
T26SSILL
 62
2
 10
1329.922
 20
-3973.663
 30
2634.784
 70
    32
  0
SEQEND
  8
T26SSILL
  0
POLYLINE
  8
T26SSILL
 62
2
 66
     1
 70
     9
  0
VERTEX
  8
T26SSILL
 62
2
 10
1466.407
 20
-3669.371
 30
2635.791
 70
    32
  0
VERTEX
  8
T26SSILL
 62
2
 10
1462.515
 20
-3663.718
 30
2635.782
 70
    32
  0
VERTEX
  8
T26SSILL
 62
2
 10
1457.284
 20
-3661.757
 30
2635.763
 70
    32
  0
VERTEX
  8
T26SSILL
 62
2
 10
1409.666
 20
-3594.149
 30
2635.643
 70
    32
  0
VERTEX
  8
T26SSILL
 62
2
 10
1402.894
 20
-3599.191
 30
2635.612
 70
    32
  0
VERTEX
  8
T26SSILL
 62
2
 10
1451.979
 20
-3667.026
 30
2635.738
 70
    32
  0
VERTEX
  8
T26SSILL
 62
2
 10
1447.121
 20
-3673.058
 30
2635.713
 70
    32
  0
VERTEX
  8
T26SSILL
 62
2
 10
1453.663
 20
-3681.461
 30
2635.731
 70
    32
  0
VERTEX
  8
T26SSILL
 62
2
 10
1462.503
 20
-3682.104
 30
2635.764
 70
    32
  0
VERTEX
  8
T26SSILL
 62
2
 10
1473.286
 20
-3697.537
 30
2635.791
 70
    32
  0
VERTEX
  8
T26SSILL
 62
2
 10
1471.733
 20
-3701.385
 30
2635.782
 70
    32
  0
VERTEX
  8
T26SSILL
 62
2
 10
1476.698
 20
-3708.216
 30
2635.795
 70
    32
  0
VERTEX
  8
T26SSILL
 62
2
 10
1480.113
 20
-3706.930
 30
2635.809
 70
    32
  0
VERTEX
  8
T26SSILL
 62
2
 10
1492.137
 20
-3724.071
 30
2635.839
 70
    32
  0
VERTEX
  8
T26SSILL
 62
2
 10
1483.935
 20
-3730.141
 30
2635.802
 70
    32
  0
VERTEX
  8
T26SSILL
 62
2
 10
1491.485
 20
-3740.530
 30
2635.821
 70
    32
  0
VERTEX
  8
T26SSILL
 62
2
 10
1501.788
 20
-3737.500
 30
2635.864
 70
    32
  0
VERTEX
  8
T26SSILL
 62
2
 10
1576.557
 20
-3842.463
 30
2635.461
 70
    32
  0
VERTEX
  8
T26SSILL
 62
2
 10
1575.373
 20
-3846.369
 30
2635.432
 70
    32
  0
VERTEX
  8
T26SSILL
 62
2
 10
1574.144
 20
-3847.371
 30
2635.422
 70
    32
  0
VERTEX
  8
T26SSILL
 62
2
 10
1568.673
 20
-3844.931
 30
2635.423
 70
    32
  0
VERTEX
  8
T26SSILL
 62
2
 10
1560.467
 20
-3844.263
 30
2635.406
 70
    32
  0
VERTEX
  8
T26SSILL
 62
2
 10
1391.495
 20
-3861.488
 30
2634.713
 70
    32
  0
VERTEX
  8
T26SSILL
 62
2
 10
1379.098
 20
-3859.842
 30
2634.729
 70
    32
  0
VERTEX
  8
T26SSILL
 62
2
 10
1351.864
 20
-3840.925
 30
2634.768
 70
    32
  0
VERTEX
  8
T26SSILL
 62
2
 10
1303.121
 20
-3772.068
 30
2634.840
 70
    32
  0
VERTEX
  8
T26SSILL
 62
2
 10
1298.308
 20
-3755.123
 30
2634.848
 70
    32
  0
VERTEX
  8
T26SSILL
 62
2
 10
1285.744
 20
-3748.161
 30
2634.866
 70
    32
  0
VERTEX
  8
T26SSILL
 62
2
 10
1164.669
 20
-3579.638
 30
2634.832
 70
    32
  0
VERTEX
  8
T26SSILL
 62
2
 10
1169.601
 20
-3566.375
 30
2634.811
 70
    32
  0
VERTEX
  8
T26SSILL
 62
2
 10
1204.310
 20
-3540.722
 30
2634.752
 70
    32
  0
VERTEX
  8
T26SSILL
 62
2
 10
1208.162
 20
-3545.334
 30
2634.755
 70
    32
  0
VERTEX
  8
T26SSILL
 62
2
 10
1213.906
 20
-3540.316
 30
2634.744
 70
    32
  0
VERTEX
  8
T26SSILL
 62
2
 10
1210.689
 20
-3536.007
 30
2634.741
 70
    32
  0
VERTEX
  8
T26SSILL
 62
2
 10
1213.956
 20
-3533.593
 30
2634.735
 70
    32
  0
VERTEX
  8
T26SSILL
 62
2
 10
1209.864
 20
-3527.215
 30
2634.730
 70
    32
  0
VERTEX
  8
T26SSILL
 62
2
 10
1155.425
 20
-3566.022
 30
2634.822
 70
    32
  0
VERTEX
  8
T26SSILL
 62
2
 10
996.996
 20
-3340.134
 30
2634.660
 70
    32
  0
VERTEX
  8
T26SSILL
 62
2
 10
1000.501
 20
-3330.950
 30
2634.645
 70
    32
  0
VERTEX
  8
T26SSILL
 62
2
 10
1003.566
 20
-3328.128
 30
2634.640
 70
    32
  0
VERTEX
  8
T26SSILL
 62
2
 10
1198.404
 20
-3187.904
 30
2634.311
 70
    32
  0
VERTEX
  8
T26SSILL
 62
2
 10
1213.957
 20
-3209.230
 30
2634.390
 70
    32
  0
VERTEX
  8
T26SSILL
 62
2
 10
1213.091
 20
-3213.696
 30
2634.389
 70
    32
  0
VERTEX
  8
T26SSILL
 62
2
 10
1220.490
 20
-3220.728
 30
2634.429
 70
    32
  0
VERTEX
  8
T26SSILL
 62
2
 10
1238.207
 20
-3248.517
 30
2634.534
 70
    32
  0
VERTEX
  8
T26SSILL
 62
2
 10
1240.670
 20
-3247.986
 30
2634.545
 70
    32
  0
VERTEX
  8
T26SSILL
 62
2
 10
1242.753
 20
-3249.606
 30
2634.556
 70
    32
  0
VERTEX
  8
T26SSILL
 62
2
 10
1255.130
 20
-3267.175
 30
2634.628
 70
    32
  0
VERTEX
  8
T26SSILL
 62
2
 10
1263.675
 20
-3283.864
 30
2634.681
 70
    32
  0
VERTEX
  8
T26SSILL
 62
2
 10
1280.109
 20
-3302.630
 30
2634.773
 70
    32
  0
VERTEX
  8
T26SSILL
 62
2
 10
1436.251
 20
-3519.623
 30
2635.816
 70
    32
  0
VERTEX
  8
T26SSILL
 62
2
 10
1683.091
 20
-3862.464
 30
2634.438
 70
    32
  0
VERTEX
  8
T26SSILL
 62
2
 10
1678.666
 20
-3870.139
 30
2634.442
 70
    32
  0
VERTEX
  8
T26SSILL
 62
2
 10
1683.489
 20
-3874.680
 30
2634.433
 70
    32
  0
VERTEX
  8
T26SSILL
 62
2
 10
1689.472
 20
-3871.093
 30
2634.425
 70
    32
  0
VERTEX
  8
T26SSILL
 62
2
 10
1694.204
 20
-3878.202
 30
2634.416
 70
    32
  0
VERTEX
  8
T26SSILL
 62
2
 10
1696.504
 20
-3885.555
 30
2634.410
 70
    32
  0
VERTEX
  8
T26SSILL
 62
2
 10
1695.778
 20
-3912.833
 30
2634.401
 70
    32
  0
VERTEX
  8
T26SSILL
 62
2
 10
1692.318
 20
-3914.805
 30
2634.406
 70
    32
  0
VERTEX
  8
T26SSILL
 62
2
 10
1687.206
 20
-3924.828
 30
2634.415
 70
    32
  0
VERTEX
  8
T26SSILL
 62
2
 10
1695.559
 20
-3935.721
 30
2634.394
 70
    32
  0
VERTEX
  8
T26SSILL
 62
2
 10
1694.876
 20
-3994.177
 30
2634.333
 70
    32
  0
VERTEX
  8
T26SSILL
 62
2
 10
1509.731
 20
-3734.663
 30
2635.897
 70
    32
  0
VERTEX
  8
T26SSILL
 62
2
 10
1510.942
 20
-3728.998
 30
2635.880
 70
    32
  0
VERTEX
  8
T26SSILL
 62
2
 10
1503.857
 20
-3719.250
 30
2635.889
 70
    32
  0
VERTEX
  8
T26SSILL
 62
2
 10
1498.082
 20
-3718.336
 30
2635.868
 70
    32
  0
VERTEX
  8
T26SSILL
 62
2
 10
1486.698
 20
-3701.926
 30
2635.839
 70
    32
  0
VERTEX
  8
T26SSILL
 62
2
 10
1489.544
 20
-3699.857
 30
2635.852
 70
    32
  0
VERTEX
  8
T26SSILL
 62
2
 10
1491.123
 20
-3695.447
 30
2635.862
 70
    32
  0
VERTEX
  8
T26SSILL
 62
2
 10
1486.921
 20
-3689.367
 30
2635.852
 70
    32
  0
VERTEX
  8
T26SSILL
 62
2
 10
1479.186
 20
-3692.488
 30
2635.819
 70
    32
  0
VERTEX
  8
T26SSILL
 62
2
 10
1467.944
 20
-3675.975
 30
2635.791
 70
    32
  0
VERTEX
  8
T26SSILL
 62
2
 10
1467.693
 20
-3672.786
 30
2635.793
 70
    32
  0
SEQEND
  8
T26SSILL
  0
POLYLINE
  8
T26SSILL
 62
2
 66
     1
 70
     9
  0
VERTEX
  8
T26SSILL
 62
2
 10
188.444
 20
-2399.568
 30
2635.574
 70
    32
  0
VERTEX
  8
T26SSILL
 62
2
 10
179.572
 20
-2395.227
 30
2635.579
 70
    32
  0
VERTEX
  8
T26SSILL
 62
2
 10
173.361
 20
-2394.437
 30
2635.591
 70
    32
  0
VERTEX
  8
T26SSILL
 62
2
 10
167.165
 20
-2395.090
 30
2635.603
 70
    32
  0
VERTEX
  8
T26SSILL
 62
2
 10
162.085
 20
-2397.543
 30
2635.615
 70
    32
  0
VERTEX
  8
T26SSILL
 62
2
 10
83.087
 20
-2454.482
 30
2635.822
 70
    32
  0
VERTEX
  8
T26SSILL
 62
2
 10
82.806
 20
-2461.043
 30
2635.830
 70
    32
  0
VERTEX
  8
T26SSILL
 62
2
 10
74.078
 20
-2471.128
 30
2635.860
 70
    32
  0
VERTEX
  8
T26SSILL
 62
2
 10
60.974
 20
-2477.232
 30
2635.897
 70
    32
  0
VERTEX
  8
T26SSILL
 62
2
 10
51.896
 20
-2477.394
 30
2635.917
 70
    32
  0
VERTEX
  8
T26SSILL
 62
2
 10
-105.113
 20
-2590.979
 30
2636.395
 70
    32
  0
VERTEX
  8
T26SSILL
 62
2
 10
-96.946
 20
-2603.320
 30
2636.389
 70
    32
  0
VERTEX
  8
T26SSILL
 62
2
 10
-90.570
 20
-2608.228
 30
2636.380
 70
    32
  0
VERTEX
  8
T26SSILL
 62
2
 10
-85.859
 20
-2605.720
 30
2636.367
 70
    32
  0
VERTEX
  8
T26SSILL
 62
2
 10
-76.673
 20
-2615.006
 30
2636.356
 70
    32
  0
VERTEX
  8
T26SSILL
 62
2
 10
-76.019
 20
-2624.157
 30
2636.364
 70
    32
  0
VERTEX
  8
T26SSILL
 62
2
 10
-61.037
 20
-2635.057
 30
2636.342
 70
    32
  0
VERTEX
  8
T26SSILL
 62
2
 10
-49.619
 20
-2647.944
 30
2636.330
 70
    32
  0
VERTEX
  8
T26SSILL
 62
2
 10
-40.228
 20
-2651.601
 30
2636.312
 70
    32
  0
VERTEX
  8
T26SSILL
 62
2
 10
41.667
 20
-2592.513
 30
2635.951
 70
    32
  0
VERTEX
  8
T26SSILL
 62
2
 10
42.144
 20
-2588.874
 30
2635.952
 70
    32
  0
VERTEX
  8
T26SSILL
 62
2
 10
28.164
 20
-2571.647
 30
2636.033
 70
    32
  0
VERTEX
  8
T26SSILL
 62
2
 10
27.529
 20
-2558.977
 30
2636.045
 70
    32
  0
VERTEX
  8
T26SSILL
 62
2
 10
38.420
 20
-2552.105
 30
2635.995
 70
    32
  0
VERTEX
  8
T26SSILL
 62
2
 10
44.260
 20
-2542.408
 30
2635.972
 70
    32
  0
VERTEX
  8
T26SSILL
 62
2
 10
47.369
 20
-2540.103
 30
2635.958
 70
    32
  0
VERTEX
  8
T26SSILL
 62
2
 10
45.864
 20
-2535.415
 30
2635.969
 70
    32
  0
VERTEX
  8
T26SSILL
 62
2
 10
45.284
 20
-2502.884
 30
2635.959
 70
    32
  0
VERTEX
  8
T26SSILL
 62
2
 10
68.553
 20
-2497.346
 30
2635.881
 70
    32
  0
VERTEX
  8
T26SSILL
 62
2
 10
76.125
 20
-2489.541
 30
2635.848
 70
    32
  0
VERTEX
  8
T26SSILL
 62
2
 10
78.048
 20
-2488.443
 30
2635.840
 70
    32
  0
VERTEX
  8
T26SSILL
 62
2
 10
81.507
 20
-2489.711
 30
2635.821
 70
    32
  0
VERTEX
  8
T26SSILL
 62
2
 10
71.627
 20
-2517.734
 30
2635.852
 70
    32
  0
VERTEX
  8
T26SSILL
 62
2
 10
68.507
 20
-2518.843
 30
2635.867
 70
    32
  0
VERTEX
  8
T26SSILL
 62
2
 10
66.394
 20
-2522.490
 30
2635.875
 70
    32
  0
VERTEX
  8
T26SSILL
 62
2
 10
67.944
 20
-2548.060
 30
2635.850
 70
    32
  0
VERTEX
  8
T26SSILL
 62
2
 10
65.407
 20
-2561.768
 30
2635.853
 70
    32
  0
VERTEX
  8
T26SSILL
 62
2
 10
71.778
 20
-2570.950
 30
2635.815
 70
    32
  0
VERTEX
  8
T26SSILL
 62
2
 10
212.089
 20
-2470.733
 30
2635.603
 70
    32
  0
VERTEX
  8
T26SSILL
 62
2
 10
222.128
 20
-2465.369
 30
2635.576
 70
    32
  0
VERTEX
  8
T26SSILL
 62
2
 10
229.348
 20
-2464.176
 30
2635.561
 70
    32
  0
VERTEX
  8
T26SSILL
 62
2
 10
236.306
 20
-2465.586
 30
2635.550
 70
    32
  0
VERTEX
  8
T26SSILL
 62
2
 10
192.898
 20
-2405.573
 30
2635.565
 70
    32
  0
SEQEND
  8
T26SSILL
  0
POLYLINE
  8
T26SSILL
 62
2
 66
     1
 70
     9
  0
VERTEX
  8
T26SSILL
 62
2
 10
878.229
 20
-3266.584
 30
2634.659
 70
    32
  0
VERTEX
  8
T26SSILL
 62
2
 10
866.888
 20
-3275.836
 30
2634.680
 70
    32
  0
VERTEX
  8
T26SSILL
 62
2
 10
873.758
 20
-3282.516
 30
2634.683
 70
    32
  0
VERTEX
  8
T26SSILL
 62
2
 10
885.919
 20
-3298.959
 30
2634.694
 70
    32
  0
VERTEX
  8
T26SSILL
 62
2
 10
870.803
 20
-3317.278
 30
2634.730
 70
    32
  0
VERTEX
  8
T26SSILL
 62
2
 10
864.194
 20
-3308.662
 30
2634.725
 70
    32
  0
VERTEX
  8
T26SSILL
 62
2
 10
863.659
 20
-3301.798
 30
2634.716
 70
    32
  0
VERTEX
  8
T26SSILL
 62
2
 10
855.814
 20
-3289.663
 30
2634.707
 70
    32
  0
VERTEX
  8
T26SSILL
 62
2
 10
851.763
 20
-3286.411
 30
2634.706
 70
    32
  0
VERTEX
  8
T26SSILL
 62
2
 10
841.211
 20
-3293.550
 30
2634.724
 70
    32
  0
VERTEX
  8
T26SSILL
 62
2
 10
903.517
 20
-3380.778
 30
2634.786
 70
    32
  0
VERTEX
  8
T26SSILL
 62
2
 10
911.705
 20
-3384.817
 30
2634.784
 70
    32
  0
VERTEX
  8
T26SSILL
 62
2
 10
978.069
 20
-3337.012
 30
2634.671
 70
    32
  0
VERTEX
  8
T26SSILL
 62
2
 10
891.570
 20
-3285.764
 30
2634.673
 70
    32
  0
VERTEX
  8
T26SSILL
 62
2
 10
891.272
 20
-3284.170
 30
2634.671
 70
    32
  0
SEQEND
  8
T26SSILL
  0
POLYLINE
  8
T26SSILL
 62
2
 66
     1
 70
     9
  0
VERTEX
  8
T26SSILL
 62
2
 10
956.606
 20
-3406.241
 30
2634.776
 70
    32
  0
VERTEX
  8
T26SSILL
 62
2
 10
961.187
 20
-3411.164
 30
2634.778
 70
    32
  0
VERTEX
  8
T26SSILL
 62
2
 10
967.606
 20
-3406.405
 30
2634.767
 70
    32
  0
VERTEX
  8
T26SSILL
 62
2
 10
974.812
 20
-3396.982
 30
2634.749
 70
    32
  0
VERTEX
  8
T26SSILL
 62
2
 10
996.492
 20
-3428.198
 30
2634.772
 70
    32
  0
VERTEX
  8
T26SSILL
 62
2
 10
1009.434
 20
-3434.168
 30
2634.769
 70
    32
  0
VERTEX
  8
T26SSILL
 62
2
 10
1019.963
 20
-3432.265
 30
2634.758
 70
    32
  0
VERTEX
  8
T26SSILL
 62
2
 10
1023.093
 20
-3424.405
 30
2634.746
 70
    32
  0
VERTEX
  8
T26SSILL
 62
2
 10
1028.098
 20
-3427.246
 30
2634.745
 70
    32
  0
VERTEX
  8
T26SSILL
 62
2
 10
1025.186
 20
-3434.839
 30
2634.757
 70
    32
  0
VERTEX
  8
T26SSILL
 62
2
 10
1038.046
 20
-3446.106
 30
2634.762
 70
    32
  0
VERTEX
  8
T26SSILL
 62
2
 10
1072.822
 20
-3462.084
 30
2634.755
 70
    32
  0
VERTEX
  8
T26SSILL
 62
2
 10
987.304
 20
-3339.201
 30
2634.666
 70
    32
  0
VERTEX
  8
T26SSILL
 62
2
 10
915.056
 20
-3391.061
 30
2634.790
 70
    32
  0
VERTEX
  8
T26SSILL
 62
2
 10
915.762
 20
-3392.908
 30
2634.792
 70
    32
  0
VERTEX
  8
T26SSILL
 62
2
 10
940.764
 20
-3403.354
 30
2634.785
 70
    32
  0
VERTEX
  8
T26SSILL
 62
2
 10
945.339
 20
-3402.557
 30
2634.780
 70
    32
  0
SEQEND
  8
T26SSILL
  0
POLYLINE
  8
T26SSILL
 62
2
 66
     1
 70
     9
  0
VERTEX
  8
T26SSILL
 62
2
 10
142.946
 20
-2842.200
 30
2635.471
 70
    32
  0
VERTEX
  8
T26SSILL
 62
2
 10
156.538
 20
-2843.400
 30
2635.468
 70
    32
  0
VERTEX
  8
T26SSILL
 62
2
 10
163.289
 20
-2847.482
 30
2635.464
 70
    32
  0
VERTEX
  8
T26SSILL
 62
2
 10
181.147
 20
-2837.305
 30
2635.469
 70
    32
  0
VERTEX
  8
T26SSILL
 62
2
 10
174.294
 20
-2819.500
 30
2635.483
 70
    32
  0
VERTEX
  8
T26SSILL
 62
2
 10
203.045
 20
-2799.056
 30
2635.493
 70
    32
  0
VERTEX
  8
T26SSILL
 62
2
 10
209.163
 20
-2799.775
 30
2635.491
 70
    32
  0
VERTEX
  8
T26SSILL
 62
2
 10
216.782
 20
-2806.062
 30
2635.486
 70
    32
  0
VERTEX
  8
T26SSILL
 62
2
 10
228.290
 20
-2802.236
 30
2635.486
 70
    32
  0
VERTEX
  8
T26SSILL
 62
2
 10
231.903
 20
-2807.551
 30
2635.482
 70
    32
  0
VERTEX
  8
T26SSILL
 62
2
 10
371.497
 20
-2706.661
 30
2635.533
 70
    32
  0
VERTEX
  8
T26SSILL
 62
2
 10
365.180
 20
-2697.109
 30
2635.541
 70
    32
  0
VERTEX
  8
T26SSILL
 62
2
 10
361.851
 20
-2684.794
 30
2635.550
 70
    32
  0
VERTEX
  8
T26SSILL
 62
2
 10
383.291
 20
-2669.553
 30
2635.558
 70
    32
  0
VERTEX
  8
T26SSILL
 62
2
 10
378.933
 20
-2663.973
 30
2635.559
 70
    32
  0
VERTEX
  8
T26SSILL
 62
2
 10
370.074
 20
-2670.484
 30
2635.559
 70
    32
  0
VERTEX
  8
T26SSILL
 62
2
 10
362.283
 20
-2660.273
 30
2635.568
 70
    32
  0
VERTEX
  8
T26SSILL
 62
2
 10
367.158
 20
-2656.658
 30
2635.570
 70
    32
  0
VERTEX
  8
T26SSILL
 62
2
 10
363.454
 20
-2651.959
 30
2635.571
 70
    32
  0
VERTEX
  8
T26SSILL
 62
2
 10
368.230
 20
-2648.493
 30
2635.558
 70
    32
  0
VERTEX
  8
T26SSILL
 62
2
 10
361.290
 20
-2638.789
 30
2635.557
 70
    32
  0
VERTEX
  8
T26SSILL
 62
2
 10
354.916
 20
-2643.398
 30
2635.575
 70
    32
  0
VERTEX
  8
T26SSILL
 62
2
 10
350.428
 20
-2637.199
 30
2635.575
 70
    32
  0
VERTEX
  8
T26SSILL
 62
2
 10
357.146
 20
-2632.994
 30
2635.557
 70
    32
  0
VERTEX
  8
T26SSILL
 62
2
 10
353.662
 20
-2628.121
 30
2635.557
 70
    32
  0
VERTEX
  8
T26SSILL
 62
2
 10
344.933
 20
-2622.110
 30
2635.564
 70
    32
  0
VERTEX
  8
T26SSILL
 62
2
 10
337.787
 20
-2622.810
 30
2635.579
 70
    32
  0
VERTEX
  8
T26SSILL
 62
2
 10
184.866
 20
-2732.161
 30
2635.544
 70
    32
  0
VERTEX
  8
T26SSILL
 62
2
 10
188.952
 20
-2737.671
 30
2635.539
 70
    32
  0
VERTEX
  8
T26SSILL
 62
2
 10
182.541
 20
-2742.316
 30
2635.537
 70
    32
  0
VERTEX
  8
T26SSILL
 62
2
 10
178.915
 20
-2736.245
 30
2635.542
 70
    32
  0
VERTEX
  8
T26SSILL
 62
2
 10
171.920
 20
-2741.432
 30
2635.539
 70
    32
  0
VERTEX
  8
T26SSILL
 62
2
 10
179.071
 20
-2749.598
 30
2635.532
 70
    32
  0
VERTEX
  8
T26SSILL
 62
2
 10
207.483
 20
-2772.111
 30
2635.512
 70
    32
  0
VERTEX
  8
T26SSILL
 62
2
 10
208.369
 20
-2783.938
 30
2635.503
 70
    32
  0
VERTEX
  8
T26SSILL
 62
2
 10
207.104
 20
-2786.957
 30
2635.501
 70
    32
  0
VERTEX
  8
T26SSILL
 62
2
 10
189.712
 20
-2798.649
 30
2635.495
 70
    32
  0
VERTEX
  8
T26SSILL
 62
2
 10
185.619
 20
-2804.204
 30
2635.492
 70
    32
  0
VERTEX
  8
T26SSILL
 62
2
 10
176.805
 20
-2804.279
 30
2635.493
 70
    32
  0
VERTEX
  8
T26SSILL
 62
2
 10
173.330
 20
-2802.695
 30
2635.495
 70
    32
  0
VERTEX
  8
T26SSILL
 62
2
 10
155.494
 20
-2776.281
 30
2635.517
 70
    32
  0
VERTEX
  8
T26SSILL
 62
2
 10
141.882
 20
-2762.503
 30
2635.529
 70
    32
  0
VERTEX
  8
T26SSILL
 62
2
 10
97.463
 20
-2794.895
 30
2635.534
 70
    32
  0
VERTEX
  8
T26SSILL
 62
2
 10
109.095
 20
-2816.931
 30
2635.495
 70
    32
  0
VERTEX
  8
T26SSILL
 62
2
 10
91.311
 20
-2829.571
 30
2635.542
 70
    32
  0
VERTEX
  8
T26SSILL
 62
2
 10
77.612
 20
-2809.178
 30
2635.624
 70
    32
  0
VERTEX
  8
T26SSILL
 62
2
 10
68.427
 20
-2815.989
 30
2635.666
 70
    32
  0
VERTEX
  8
T26SSILL
 62
2
 10
71.431
 20
-2823.288
 30
2635.646
 70
    32
  0
VERTEX
  8
T26SSILL
 62
2
 10
71.237
 20
-2826.718
 30
2635.644
 70
    32
  0
VERTEX
  8
T26SSILL
 62
2
 10
67.886
 20
-2831.502
 30
2635.658
 70
    32
  0
VERTEX
  8
T26SSILL
 62
2
 10
61.876
 20
-2833.440
 30
2635.687
 70
    32
  0
VERTEX
  8
T26SSILL
 62
2
 10
61.014
 20
-2826.961
 30
2635.695
 70
    32
  0
VERTEX
  8
T26SSILL
 62
2
 10
56.790
 20
-2824.071
 30
2635.719
 70
    32
  0
VERTEX
  8
T26SSILL
 62
2
 10
35.210
 20
-2839.417
 30
2635.816
 70
    32
  0
VERTEX
  8
T26SSILL
 62
2
 10
38.068
 20
-2854.052
 30
2635.792
 70
    32
  0
VERTEX
  8
T26SSILL
 62
2
 10
32.827
 20
-2863.523
 30
2635.812
 70
    32
  0
VERTEX
  8
T26SSILL
 62
2
 10
32.057
 20
-2872.526
 30
2635.810
 70
    32
  0
VERTEX
  8
T26SSILL
 62
2
 10
25.206
 20
-2877.168
 30
2635.841
 70
    32
  0
VERTEX
  8
T26SSILL
 62
2
 10
22.087
 20
-2884.628
 30
2635.852
 70
    32
  0
VERTEX
  8
T26SSILL
 62
2
 10
23.556
 20
-2889.562
 30
2635.841
 70
    32
  0
VERTEX
  8
T26SSILL
 62
2
 10
30.606
 20
-2900.103
 30
2635.798
 70
    32
  0
VERTEX
  8
T26SSILL
 62
2
 10
26.260
 20
-2903.545
 30
2635.818
 70
    32
  0
VERTEX
  8
T26SSILL
 62
2
 10
16.716
 20
-2905.147
 30
2635.865
 70
    32
  0
VERTEX
  8
T26SSILL
 62
2
 10
38.808
 20
-2935.085
 30
2635.733
 70
    32
  0
VERTEX
  8
T26SSILL
 62
2
 10
52.065
 20
-2936.423
 30
2635.666
 70
    32
  0
VERTEX
  8
T26SSILL
 62
2
 10
59.308
 20
-2930.833
 30
2635.634
 70
    32
  0
VERTEX
  8
T26SSILL
 62
2
 10
60.712
 20
-2918.403
 30
2635.635
 70
    32
  0
VERTEX
  8
T26SSILL
 62
2
 10
55.005
 20
-2913.218
 30
2635.667
 70
    32
  0
VERTEX
  8
T26SSILL
 62
2
 10
45.205
 20
-2913.587
 30
2635.716
 70
    32
  0
VERTEX
  8
T26SSILL
 62
2
 10
40.986
 20
-2906.421
 30
2635.742
 70
    32
  0
VERTEX
  8
T26SSILL
 62
2
 10
44.014
 20
-2899.577
 30
2635.731
 70
    32
  0
VERTEX
  8
T26SSILL
 62
2
 10
51.435
 20
-2893.636
 30
2635.698
 70
    32
  0
VERTEX
  8
T26SSILL
 62
2
 10
53.843
 20
-2884.185
 30
2635.693
 70
    32
  0
VERTEX
  8
T26SSILL
 62
2
 10
57.851
 20
-2889.864
 30
2635.669
 70
    32
  0
VERTEX
  8
T26SSILL
 62
2
 10
75.408
 20
-2877.235
 30
2635.589
 70
    32
  0
VERTEX
  8
T26SSILL
 62
2
 10
67.294
 20
-2924.473
 30
2635.598
 70
    32
  0
VERTEX
  8
T26SSILL
 62
2
 10
93.711
 20
-2906.197
 30
2635.478
 70
    32
  0
VERTEX
  8
T26SSILL
 62
2
 10
93.813
 20
-2877.540
 30
2635.497
 70
    32
  0
VERTEX
  8
T26SSILL
 62
2
 10
102.658
 20
-2870.711
 30
2635.457
 70
    32
  0
SEQEND
  8
T26SSILL
  0
POLYLINE
  8
T26SSILL
 62
2
 66
     1
 70
     9
  0
VERTEX
  8
T26SSILL
 62
2
 10
291.759
 20
-2549.519
 30
2635.563
 70
    32
  0
VERTEX
  8
T26SSILL
 62
2
 10
281.717
 20
-2548.972
 30
2635.581
 70
    32
  0
VERTEX
  8
T26SSILL
 62
2
 10
274.347
 20
-2552.028
 30
2635.599
 70
    32
  0
VERTEX
  8
T26SSILL
 62
2
 10
132.039
 20
-2653.836
 30
2635.609
 70
    32
  0
VERTEX
  8
T26SSILL
 62
2
 10
159.643
 20
-2702.135
 30
2635.570
 70
    32
  0
VERTEX
  8
T26SSILL
 62
2
 10
163.028
 20
-2707.290
 30
2635.566
 70
    32
  0
VERTEX
  8
T26SSILL
 62
2
 10
168.655
 20
-2710.892
 30
2635.562
 70
    32
  0
VERTEX
  8
T26SSILL
 62
2
 10
161.765
 20
-2729.361
 30
2635.550
 70
    32
  0
VERTEX
  8
T26SSILL
 62
2
 10
161.620
 20
-2733.301
 30
2635.547
 70
    32
  0
VERTEX
  8
T26SSILL
 62
2
 10
169.140
 20
-2735.172
 30
2635.544
 70
    32
  0
VERTEX
  8
T26SSILL
 62
2
 10
341.609
 20
-2612.311
 30
2635.557
 70
    32
  0
VERTEX
  8
T26SSILL
 62
2
 10
300.909
 20
-2555.655
 30
2635.554
 70
    32
  0
VERTEX
  8
T26SSILL
 62
2
 10
295.461
 20
-2551.263
 30
2635.559
 70
    32
  0
SEQEND
  8
T26SSILL
  0
POLYLINE
  8
T26SSILL
 62
2
 66
     1
 70
     9
  0
VERTEX
  8
T26SSILL
 62
2
 10
96.143
 20
-2603.364
 30
2635.671
 70
    32
  0
VERTEX
  8
T26SSILL
 62
2
 10
98.304
 20
-2620.158
 30
2635.649
 70
    32
  0
VERTEX
  8
T26SSILL
 62
2
 10
91.605
 20
-2629.287
 30
2635.676
 70
    32
  0
VERTEX
  8
T26SSILL
 62
2
 10
89.100
 20
-2640.234
 30
2635.681
 70
    32
  0
VERTEX
  8
T26SSILL
 62
2
 10
90.678
 20
-2644.429
 30
2635.670
 70
    32
  0
VERTEX
  8
T26SSILL
 62
2
 10
104.754
 20
-2634.320
 30
2635.628
 70
    32
  0
VERTEX
  8
T26SSILL
 62
2
 10
113.669
 20
-2641.616
 30
2635.621
 70
    32
  0
VERTEX
  8
T26SSILL
 62
2
 10
123.157
 20
-2643.778
 30
2635.618
 70
    32
  0
VERTEX
  8
T26SSILL
 62
2
 10
129.012
 20
-2647.540
 30
2635.614
 70
    32
  0
VERTEX
  8
T26SSILL
 62
2
 10
270.616
 20
-2545.816
 30
2635.597
 70
    32
  0
VERTEX
  8
T26SSILL
 62
2
 10
282.744
 20
-2541.202
 30
2635.568
 70
    32
  0
VERTEX
  8
T26SSILL
 62
2
 10
291.339
 20
-2542.603
 30
2635.554
 70
    32
  0
VERTEX
  8
T26SSILL
 62
2
 10
246.992
 20
-2480.439
 30
2635.551
 70
    32
  0
VERTEX
  8
T26SSILL
 62
2
 10
238.497
 20
-2473.708
 30
2635.557
 70
    32
  0
VERTEX
  8
T26SSILL
 62
2
 10
225.153
 20
-2472.105
 30
2635.580
 70
    32
  0
VERTEX
  8
T26SSILL
 62
2
 10
220.431
 20
-2473.417
 30
2635.591
 70
    32
  0
VERTEX
  8
T26SSILL
 62
2
 10
113.376
 20
-2549.520
 30
2635.688
 70
    32
  0
VERTEX
  8
T26SSILL
 62
2
 10
120.779
 20
-2559.799
 30
2635.679
 70
    32
  0
VERTEX
  8
T26SSILL
 62
2
 10
114.022
 20
-2563.386
 30
2635.677
 70
    32
  0
VERTEX
  8
T26SSILL
 62
2
 10
107.318
 20
-2553.903
 30
2635.685
 70
    32
  0
VERTEX
  8
T26SSILL
 62
2
 10
79.078
 20
-2574.297
 30
2635.776
 70
    32
  0
VERTEX
  8
T26SSILL
 62
2
 10
92.609
 20
-2593.282
 30
2635.695
 70
    32
  0
SEQEND
  8
T26SSILL
  0
POLYLINE
  8
T26SSILL
 62
2
 66
     1
 70
     9
  0
VERTEX
  8
T26SSILL
 62
2
 10
19.809
 20
-3029.222
 30
2635.765
 70
    32
  0
VERTEX
  8
T26SSILL
 62
2
 10
33.477
 20
-3055.332
 30
2635.679
 70
    32
  0
VERTEX
  8
T26SSILL
 62
2
 10
50.477
 20
-3080.176
 30
2635.589
 70
    32
  0
VERTEX
  8
T26SSILL
 62
2
 10
54.295
 20
-3093.004
 30
2635.591
 70
    32
  0
VERTEX
  8
T26SSILL
 62
2
 10
59.223
 20
-3099.206
 30
2635.585
 70
    32
  0
VERTEX
  8
T26SSILL
 62
2
 10
62.048
 20
-3100.505
 30
2635.578
 70
    32
  0
VERTEX
  8
T26SSILL
 62
2
 10
81.506
 20
-3135.900
 30
2635.570
 70
    32
  0
VERTEX
  8
T26SSILL
 62
2
 10
84.988
 20
-3145.911
 30
2635.575
 70
    32
  0
VERTEX
  8
T26SSILL
 62
2
 10
129.813
 20
-3113.327
 30
2635.439
 70
    32
  0
VERTEX
  8
T26SSILL
 62
2
 10
124.667
 20
-3114.953
 30
2635.449
 70
    32
  0
VERTEX
  8
T26SSILL
 62
2
 10
122.357
 20
-3112.724
 30
2635.449
 70
    32
  0
VERTEX
  8
T26SSILL
 62
2
 10
119.381
 20
-3113.288
 30
2635.454
 70
    32
  0
VERTEX
  8
T26SSILL
 62
2
 10
115.137
 20
-3110.961
 30
2635.457
 70
    32
  0
VERTEX
  8
T26SSILL
 62
2
 10
106.344
 20
-3116.824
 30
2635.479
 70
    32
  0
VERTEX
  8
T26SSILL
 62
2
 10
97.885
 20
-3109.847
 30
2635.480
 70
    32
  0
VERTEX
  8
T26SSILL
 62
2
 10
98.902
 20
-3107.231
 30
2635.474
 70
    32
  0
VERTEX
  8
T26SSILL
 62
2
 10
112.082
 20
-3096.800
 30
2635.437
 70
    32
  0
VERTEX
  8
T26SSILL
 62
2
 10
128.345
 20
-3088.902
 30
2635.400
 70
    32
  0
VERTEX
  8
T26SSILL
 62
2
 10
135.160
 20
-3081.110
 30
2635.377
 70
    32
  0
VERTEX
  8
T26SSILL
 62
2
 10
94.862
 20
-3024.841
 30
2635.391
 70
    32
  0
VERTEX
  8
T26SSILL
 62
2
 10
70.169
 20
-3043.234
 30
2635.503
 70
    32
  0
VERTEX
  8
T26SSILL
 62
2
 10
58.974
 20
-3027.814
 30
2635.569
 70
    32
  0
VERTEX
  8
T26SSILL
 62
2
 10
43.858
 20
-3038.764
 30
2635.638
 70
    32
  0
VERTEX
  8
T26SSILL
 62
2
 10
32.983
 20
-3023.066
 30
2635.703
 70
    32
  0
VERTEX
  8
T26SSILL
 62
2
 10
42.842
 20
-3015.834
 30
2635.658
 70
    32
  0
VERTEX
  8
T26SSILL
 62
2
 10
46.484
 20
-3021.025
 30
2635.637
 70
    32
  0
VERTEX
  8
T26SSILL
 62
2
 10
61.782
 20
-3009.922
 30
2635.567
 70
    32
  0
VERTEX
  8
T26SSILL
 62
2
 10
72.678
 20
-3025.058
 30
2635.503
 70
    32
  0
VERTEX
  8
T26SSILL
 62
2
 10
87.511
 20
-3014.576
 30
2635.435
 70
    32
  0
VERTEX
  8
T26SSILL
 62
2
 10
42.605
 20
-2951.870
 30
2635.703
 70
    32
  0
VERTEX
  8
T26SSILL
 62
2
 10
26.018
 20
-2963.635
 30
2635.778
 70
    32
  0
VERTEX
  8
T26SSILL
 62
2
 10
31.469
 20
-2971.408
 30
2635.746
 70
    32
  0
VERTEX
  8
T26SSILL
 62
2
 10
25.112
 20
-2975.683
 30
2635.775
 70
    32
  0
VERTEX
  8
T26SSILL
 62
2
 10
19.570
 20
-2968.209
 30
2635.808
 70
    32
  0
VERTEX
  8
T26SSILL
 62
2
 10
-11.646
 20
-2990.349
 30
2635.949
 70
    32
  0
VERTEX
  8
T26SSILL
 62
2
 10
-5.486
 20
-2996.294
 30
2635.914
 70
    32
  0
VERTEX
  8
T26SSILL
 62
2
 10
3.942
 20
-3009.451
 30
2635.858
 70
    32
  0
VERTEX
  8
T26SSILL
 62
2
 10
9.973
 20
-3013.301
 30
2635.825
 70
    32
  0
VERTEX
  8
T26SSILL
 62
2
 10
13.573
 20
-3024.210
 30
2635.800
 70
    32
  0
VERTEX
  8
T26SSILL
 62
2
 10
16.182
 20
-3026.546
 30
2635.785
 70
    32
  0
SEQEND
  8
T26SSILL
  0
POLYLINE
  8
T26SSILL
 62
2
 66
     1
 70
     9
  0
VERTEX
  8
T26SSILL
 62
2
 10
95.406
 20
-2781.637
 30
2635.554
 70
    32
  0
VERTEX
  8
T26SSILL
 62
2
 10
96.517
 20
-2787.712
 30
2635.544
 70
    32
  0
VERTEX
  8
T26SSILL
 62
2
 10
115.346
 20
-2773.530
 30
2635.525
 70
    32
  0
VERTEX
  8
T26SSILL
 62
2
 10
105.780
 20
-2766.388
 30
2635.532
 70
    32
  0
VERTEX
  8
T26SSILL
 62
2
 10
104.915
 20
-2763.745
 30
2635.534
 70
    32
  0
VERTEX
  8
T26SSILL
 62
2
 10
121.808
 20
-2746.508
 30
2635.544
 70
    32
  0
VERTEX
  8
T26SSILL
 62
2
 10
137.595
 20
-2754.950
 30
2635.535
 70
    32
  0
VERTEX
  8
T26SSILL
 62
2
 10
143.160
 20
-2753.889
 30
2635.535
 70
    32
  0
VERTEX
  8
T26SSILL
 62
2
 10
131.554
 20
-2736.762
 30
2635.549
 70
    32
  0
VERTEX
  8
T26SSILL
 62
2
 10
133.014
 20
-2730.314
 30
2635.554
 70
    32
  0
VERTEX
  8
T26SSILL
 62
2
 10
123.822
 20
-2702.856
 30
2635.575
 70
    32
  0
VERTEX
  8
T26SSILL
 62
2
 10
132.088
 20
-2696.726
 30
2635.578
 70
    32
  0
VERTEX
  8
T26SSILL
 62
2
 10
126.639
 20
-2689.378
 30
2635.584
 70
    32
  0
VERTEX
  8
T26SSILL
 62
2
 10
123.319
 20
-2688.445
 30
2635.585
 70
    32
  0
VERTEX
  8
T26SSILL
 62
2
 10
116.799
 20
-2690.433
 30
2635.585
 70
    32
  0
VERTEX
  8
T26SSILL
 62
2
 10
107.454
 20
-2681.375
 30
2635.593
 70
    32
  0
VERTEX
  8
T26SSILL
 62
2
 10
98.115
 20
-2677.789
 30
2635.610
 70
    32
  0
VERTEX
  8
T26SSILL
 62
2
 10
92.604
 20
-2681.875
 30
2635.635
 70
    32
  0
VERTEX
  8
T26SSILL
 62
2
 10
93.879
 20
-2686.843
 30
2635.626
 70
    32
  0
VERTEX
  8
T26SSILL
 62
2
 10
103.356
 20
-2697.555
 30
2635.582
 70
    32
  0
VERTEX
  8
T26SSILL
 62
2
 10
97.022
 20
-2700.828
 30
2635.600
 70
    32
  0
VERTEX
  8
T26SSILL
 62
2
 10
92.751
 20
-2696.988
 30
2635.624
 70
    32
  0
VERTEX
  8
T26SSILL
 62
2
 10
90.349
 20
-2698.769
 30
2635.635
 70
    32
  0
VERTEX
  8
T26SSILL
 62
2
 10
78.651
 20
-2692.003
 30
2635.698
 70
    32
  0
VERTEX
  8
T26SSILL
 62
2
 10
17.461
 20
-2735.300
 30
2635.976
 70
    32
  0
VERTEX
  8
T26SSILL
 62
2
 10
20.287
 20
-2739.555
 30
2635.959
 70
    32
  0
VERTEX
  8
T26SSILL
 62
2
 10
16.441
 20
-2742.338
 30
2635.976
 70
    32
  0
VERTEX
  8
T26SSILL
 62
2
 10
24.613
 20
-2756.167
 30
2635.926
 70
    32
  0
VERTEX
  8
T26SSILL
 62
2
 10
27.158
 20
-2757.237
 30
2635.913
 70
    32
  0
VERTEX
  8
T26SSILL
 62
2
 10
30.019
 20
-2761.685
 30
2635.895
 70
    32
  0
VERTEX
  8
T26SSILL
 62
2
 10
32.778
 20
-2762.158
 30
2635.881
 70
    32
  0
VERTEX
  8
T26SSILL
 62
2
 10
46.953
 20
-2756.464
 30
2635.814
 70
    32
  0
VERTEX
  8
T26SSILL
 62
2
 10
80.169
 20
-2759.318
 30
2635.645
 70
    32
  0
VERTEX
  8
T26SSILL
 62
2
 10
86.427
 20
-2756.977
 30
2635.615
 70
    32
  0
VERTEX
  8
T26SSILL
 62
2
 10
94.029
 20
-2776.088
 30
2635.564
 70
    32
  0
SEQEND
  8
T26SSILL
  0
POLYLINE
  8
T26SSILL
 62
2
 66
     1
 70
     9
  0
VERTEX
  8
T26SSILL
 62
2
 10
848.707
 20
-2541.642
 30
2634.959
 70
    32
  0
VERTEX
  8
T26SSILL
 62
2
 10
921.511
 20
-2487.097
 30
2634.679
 70
    32
  0
VERTEX
  8
T26SSILL
 62
2
 10
916.548
 20
-2475.523
 30
2634.660
 70
    32
  0
VERTEX
  8
T26SSILL
 62
2
 10
910.810
 20
-2470.450
 30
2634.658
 70
    32
  0
VERTEX
  8
T26SSILL
 62
2
 10
901.976
 20
-2467.565
 30
2634.668
 70
    32
  0
VERTEX
  8
T26SSILL
 62
2
 10
899.968
 20
-2453.908
 30
2634.646
 70
    32
  0
VERTEX
  8
T26SSILL
 62
2
 10
911.325
 20
-2449.985
 30
2634.631
 70
    32
  0
VERTEX
  8
T26SSILL
 62
2
 10
903.184
 20
-2429.685
 30
2634.643
 70
    32
  0
VERTEX
  8
T26SSILL
 62
2
 10
912.509
 20
-2419.915
 30
2634.631
 70
    32
  0
VERTEX
  8
T26SSILL
 62
2
 10
907.600
 20
-2388.437
 30
2634.641
 70
    32
  0
VERTEX
  8
T26SSILL
 62
2
 10
901.798
 20
-2385.497
 30
2634.649
 70
    32
  0
VERTEX
  8
T26SSILL
 62
2
 10
900.522
 20
-2373.713
 30
2634.653
 70
    32
  0
VERTEX
  8
T26SSILL
 62
2
 10
904.187
 20
-2370.665
 30
2634.664
 70
    32
  0
VERTEX
  8
T26SSILL
 62
2
 10
898.626
 20
-2335.940
 30
2634.804
 70
    32
  0
VERTEX
  8
T26SSILL
 62
2
 10
837.091
 20
-2379.932
 30
2634.738
 70
    32
  0
VERTEX
  8
T26SSILL
 62
2
 10
830.700
 20
-2391.586
 30
2634.746
 70
    32
  0
VERTEX
  8
T26SSILL
 62
2
 10
814.819
 20
-2496.099
 30
2634.909
 70
    32
  0
VERTEX
  8
T26SSILL
 62
2
 10
843.174
 20
-2554.306
 30
2635.002
 70
    32
  0
SEQEND
  8
T26SSILL
  0
POLYLINE
  8
T26SSILL
 62
2
 66
     1
 70
     9
  0
VERTEX
  8
T26SSILL
 62
2
 10
2109.875
 20
-2811.230
 30
2633.131
 70
    32
  0
VERTEX
  8
T26SSILL
 62
2
 10
2233.269
 20
-2973.740
 30
2632.985
 70
    32
  0
VERTEX
  8
T26SSILL
 62
2
 10
2228.162
 20
-2975.990
 30
2632.983
 70
    32
  0
VERTEX
  8
T26SSILL
 62
2
 10
2236.304
 20
-2992.344
 30
2632.978
 70
    32
  0
VERTEX
  8
T26SSILL
 62
2
 10
2244.012
 20
-2987.888
 30
2632.972
 70
    32
  0
VERTEX
  8
T26SSILL
 62
2
 10
2463.801
 20
-3277.351
 30
2632.796
 70
    32
  0
VERTEX
  8
T26SSILL
 62
2
 10
2458.667
 20
-3280.567
 30
2632.807
 70
    32
  0
VERTEX
  8
T26SSILL
 62
2
 10
2466.935
 20
-3292.435
 30
2632.801
 70
    32
  0
VERTEX
  8
T26SSILL
 62
2
 10
2472.161
 20
-3288.692
 30
2632.790
 70
    32
  0
VERTEX
  8
T26SSILL
 62
2
 10
2483.311
 20
-3303.402
 30
2632.781
 70
    32
  0
VERTEX
  8
T26SSILL
 62
2
 10
2469.694
 20
-3374.001
 30
2632.854
 70
    32
  0
VERTEX
  8
T26SSILL
 62
2
 10
2465.181
 20
-3376.605
 30
2632.863
 70
    32
  0
VERTEX
  8
T26SSILL
 62
2
 10
2561.697
 20
-3503.945
 30
2632.793
 70
    32
  0
VERTEX
  8
T26SSILL
 62
2
 10
2590.852
 20
-3547.131
 30
2632.789
 70
    32
  0
VERTEX
  8
T26SSILL
 62
2
 10
2644.284
 20
-3618.472
 30
2632.816
 70
    32
  0
VERTEX
  8
T26SSILL
 62
2
 10
2647.123
 20
-3640.265
 30
2632.830
 70
    32
  0
VERTEX
  8
T26SSILL
 62
2
 10
2651.618
 20
-3650.719
 30
2632.833
 70
    32
  0
VERTEX
  8
T26SSILL
 62
2
 10
2652.241
 20
-3657.134
 30
2632.837
 70
    32
  0
VERTEX
  8
T26SSILL
 62
2
 10
2650.885
 20
-3666.771
 30
2632.846
 70
    32
  0
VERTEX
  8
T26SSILL
 62
2
 10
2649.793
 20
-3667.596
 30
2632.848
 70
    32
  0
VERTEX
  8
T26SSILL
 62
2
 10
2646.976
 20
-3663.556
 30
2632.849
 70
    32
  0
VERTEX
  8
T26SSILL
 62
2
 10
2641.444
 20
-3667.957
 30
2632.859
 70
    32
  0
VERTEX
  8
T26SSILL
 62
2
 10
2643.838
 20
-3671.624
 30
2632.859
 70
    32
  0
VERTEX
  8
T26SSILL
 62
2
 10
2629.332
 20
-3681.419
 30
2632.884
 70
    32
  0
VERTEX
  8
T26SSILL
 62
2
 10
2617.805
 20
-3670.272
 30
2632.889
 70
    32
  0
VERTEX
  8
T26SSILL
 62
2
 10
2616.915
 20
-3661.396
 30
2632.883
 70
    32
  0
VERTEX
  8
T26SSILL
 62
2
 10
2612.423
 20
-3653.228
 30
2632.882
 70
    32
  0
VERTEX
  8
T26SSILL
 62
2
 10
2603.015
 20
-3649.988
 30
2632.891
 70
    32
  0
VERTEX
  8
T26SSILL
 62
2
 10
2584.526
 20
-3624.259
 30
2632.876
 70
    32
  0
VERTEX
  8
T26SSILL
 62
2
 10
2578.820
 20
-3629.188
 30
2632.883
 70
    32
  0
VERTEX
  8
T26SSILL
 62
2
 10
2601.356
 20
-3659.394
 30
2632.901
 70
    32
  0
VERTEX
  8
T26SSILL
 62
2
 10
2603.040
 20
-3670.905
 30
2632.908
 70
    32
  0
VERTEX
  8
T26SSILL
 62
2
 10
2613.417
 20
-3675.375
 30
2632.899
 70
    32
  0
VERTEX
  8
T26SSILL
 62
2
 10
2622.922
 20
-3685.822
 30
2632.896
 70
    32
  0
VERTEX
  8
T26SSILL
 62
2
 10
2557.063
 20
-3733.011
 30
2633.004
 70
    32
  0
VERTEX
  8
T26SSILL
 62
2
 10
2561.641
 20
-3739.334
 30
2633.010
 70
    32
  0
VERTEX
  8
T26SSILL
 62
2
 10
2572.178
 20
-3731.147
 30
2632.994
 70
    32
  0
VERTEX
  8
T26SSILL
 62
2
 10
2555.462
 20
-3860.101
 30
2633.118
 70
    32
  0
VERTEX
  8
T26SSILL
 62
2
 10
2482.228
 20
-3913.363
 30
2633.237
 70
    32
  0
VERTEX
  8
T26SSILL
 62
2
 10
2478.977
 20
-3914.686
 30
2633.246
 70
    32
  0
VERTEX
  8
T26SSILL
 62
2
 10
2470.803
 20
-3914.168
 30
2633.256
 70
    32
  0
VERTEX
  8
T26SSILL
 62
2
 10
2469.319
 20
-3922.344
 30
2633.252
 70
    32
  0
VERTEX
  8
T26SSILL
 62
2
 10
2424.623
 20
-3954.303
 30
2633.297
 70
    32
  0
VERTEX
  8
T26SSILL
 62
2
 10
2421.813
 20
-3956.152
 30
2633.301
 70
    32
  0
VERTEX
  8
T26SSILL
 62
2
 10
2418.117
 20
-3952.377
 30
2633.335
 70
    32
  0
VERTEX
  8
T26SSILL
 62
2
 10
2391.947
 20
-3969.723
 30
2633.372
 70
    32
  0
VERTEX
  8
T26SSILL
 62
2
 10
2395.382
 20
-3975.080
 30
2633.328
 70
    32
  0
VERTEX
  8
T26SSILL
 62
2
 10
2379.487
 20
-3985.559
 30
2633.348
 70
    32
  0
VERTEX
  8
T26SSILL
 62
2
 10
2369.731
 20
-3985.483
 30
2633.395
 70
    32
  0
VERTEX
  8
T26SSILL
 62
2
 10
2367.093
 20
-3984.695
 30
2633.411
 70
    32
  0
VERTEX
  8
T26SSILL
 62
2
 10
2361.460
 20
-3977.847
 30
2633.417
 70
    32
  0
VERTEX
  8
T26SSILL
 62
2
 10
2283.110
 20
-3873.092
 30
2633.543
 70
    32
  0
VERTEX
  8
T26SSILL
 62
2
 10
2269.902
 20
-3852.981
 30
2633.569
 70
    32
  0
VERTEX
  8
T26SSILL
 62
2
 10
2250.630
 20
-3833.054
 30
2633.585
 70
    32
  0
VERTEX
  8
T26SSILL
 62
2
 10
2221.230
 20
-3796.792
 30
2633.603
 70
    32
  0
VERTEX
  8
T26SSILL
 62
2
 10
2247.749
 20
-3777.776
 30
2633.543
 70
    32
  0
VERTEX
  8
T26SSILL
 62
2
 10
2250.404
 20
-3792.274
 30
2633.551
 70
    32
  0
VERTEX
  8
T26SSILL
 62
2
 10
2258.754
 20
-3792.703
 30
2633.538
 70
    32
  0
VERTEX
  8
T26SSILL
 62
2
 10
2266.129
 20
-3787.069
 30
2633.521
 70
    32
  0
VERTEX
  8
T26SSILL
 62
2
 10
2267.083
 20
-3776.785
 30
2633.510
 70
    32
  0
VERTEX
  8
T26SSILL
 62
2
 10
2264.610
 20
-3766.593
 30
2633.506
 70
    32
  0
VERTEX
  8
T26SSILL
 62
2
 10
2266.539
 20
-3763.251
 30
2633.500
 70
    32
  0
VERTEX
  8
T26SSILL
 62
2
 10
2261.523
 20
-3757.368
 30
2633.504
 70
    32
  0
VERTEX
  8
T26SSILL
 62
2
 10
2253.004
 20
-3763.092
 30
2633.522
 70
    32
  0
VERTEX
  8
T26SSILL
 62
2
 10
2249.574
 20
-3760.987
 30
2633.526
 70
    32
  0
VERTEX
  8
T26SSILL
 62
2
 10
2241.710
 20
-3726.544
 30
2633.511
 70
    32
  0
VERTEX
  8
T26SSILL
 62
2
 10
2248.026
 20
-3717.132
 30
2633.493
 70
    32
  0
VERTEX
  8
T26SSILL
 62
2
 10
2248.199
 20
-3714.759
 30
2633.490
 70
    32
  0
VERTEX
  8
T26SSILL
 62
2
 10
2245.386
 20
-3714.762
 30
2633.495
 70
    32
  0
VERTEX
  8
T26SSILL
 62
2
 10
2249.213
 20
-3681.623
 30
2633.461
 70
    32
  0
VERTEX
  8
T26SSILL
 62
2
 10
2257.551
 20
-3672.121
 30
2633.439
 70
    32
  0
VERTEX
  8
T26SSILL
 62
2
 10
2253.224
 20
-3655.867
 30
2633.433
 70
    32
  0
VERTEX
  8
T26SSILL
 62
2
 10
2247.408
 20
-3643.833
 30
2633.433
 70
    32
  0
VERTEX
  8
T26SSILL
 62
2
 10
2235.535
 20
-3637.344
 30
2633.447
 70
    32
  0
VERTEX
  8
T26SSILL
 62
2
 10
2220.328
 20
-3635.517
 30
2633.471
 70
    32
  0
VERTEX
  8
T26SSILL
 62
2
 10
2202.215
 20
-3628.948
 30
2633.496
 70
    32
  0
VERTEX
  8
T26SSILL
 62
2
 10
2194.217
 20
-3628.255
 30
2633.508
 70
    32
  0
VERTEX
  8
T26SSILL
 62
2
 10
2178.402
 20
-3633.108
 30
2633.539
 70
    32
  0
VERTEX
  8
T26SSILL
 62
2
 10
2151.885
 20
-3653.794
 30
2633.600
 70
    32
  0
VERTEX
  8
T26SSILL
 62
2
 10
2142.925
 20
-3657.321
 30
2633.618
 70
    32
  0
VERTEX
  8
T26SSILL
 62
2
 10
2138.360
 20
-3661.545
 30
2633.629
 70
    32
  0
VERTEX
  8
T26SSILL
 62
2
 10
2134.750
 20
-3655.167
 30
2633.630
 70
    32
  0
VERTEX
  8
T26SSILL
 62
2
 10
2136.513
 20
-3654.361
 30
2633.626
 70
    32
  0
VERTEX
  8
T26SSILL
 62
2
 10
2133.929
 20
-3649.240
 30
2633.626
 70
    32
  0
VERTEX
  8
T26SSILL
 62
2
 10
2138.987
 20
-3646.483
 30
2633.615
 70
    32
  0
VERTEX
  8
T26SSILL
 62
2
 10
2136.808
 20
-3642.619
 30
2633.616
 70
    32
  0
VERTEX
  8
T26SSILL
 62
2
 10
2184.174
 20
-3609.283
 30
2633.509
 70
    32
  0
VERTEX
  8
T26SSILL
 62
2
 10
2179.859
 20
-3602.345
 30
2633.511
 70
    32
  0
VERTEX
  8
T26SSILL
 62
2
 10
2128.307
 20
-3638.096
 30
2633.626
 70
    32
  0
VERTEX
  8
T26SSILL
 62
2
 10
2125.495
 20
-3632.523
 30
2633.626
 70
    32
  0
VERTEX
  8
T26SSILL
 62
2
 10
2123.093
 20
-3633.681
 30
2633.631
 70
    32
  0
VERTEX
  8
T26SSILL
 62
2
 10
2120.395
 20
-3628.175
 30
2633.631
 70
    32
  0
VERTEX
  8
T26SSILL
 62
2
 10
2123.529
 20
-3622.766
 30
2633.622
 70
    32
  0
VERTEX
  8
T26SSILL
 62
2
 10
2124.568
 20
-3616.686
 30
2633.615
 70
    32
  0
VERTEX
  8
T26SSILL
 62
2
 10
2135.199
 20
-3611.800
 30
2633.593
 70
    32
  0
VERTEX
  8
T26SSILL
 62
2
 10
2149.954
 20
-3601.351
 30
2633.560
 70
    32
  0
VERTEX
  8
T26SSILL
 62
2
 10
2117.585
 20
-3580.699
 30
2633.599
 70
    32
  0
VERTEX
  8
T26SSILL
 62
2
 10
2091.834
 20
-3555.809
 30
2633.626
 70
    32
  0
VERTEX
  8
T26SSILL
 62
2
 10
2075.564
 20
-3551.227
 30
2633.650
 70
    32
  0
VERTEX
  8
T26SSILL
 62
2
 10
2060.168
 20
-3549.423
 30
2633.675
 70
    32
  0
VERTEX
  8
T26SSILL
 62
2
 10
2039.577
 20
-3529.810
 30
2633.697
 70
    32
  0
VERTEX
  8
T26SSILL
 62
2
 10
2036.562
 20
-3528.676
 30
2633.701
 70
    32
  0
VERTEX
  8
T26SSILL
 62
2
 10
2035.015
 20
-3529.687
 30
2633.704
 70
    32
  0
VERTEX
  8
T26SSILL
 62
2
 10
2035.682
 20
-3531.420
 30
2633.704
 70
    32
  0
VERTEX
  8
T26SSILL
 62
2
 10
2042.085
 20
-3540.076
 30
2633.700
 70
    32
  0
VERTEX
  8
T26SSILL
 62
2
 10
2040.826
 20
-3547.566
 30
2633.707
 70
    32
  0
VERTEX
  8
T26SSILL
 62
2
 10
2042.719
 20
-3551.849
 30
2633.707
 70
    32
  0
VERTEX
  8
T26SSILL
 62
2
 10
1980.298
 20
-3498.742
 30
2633.776
 70
    32
  0
VERTEX
  8
T26SSILL
 62
2
 10
1974.984
 20
-3503.731
 30
2633.789
 70
    32
  0
VERTEX
  8
T26SSILL
 62
2
 10
2019.735
 20
-3542.471
 30
2633.739
 70
    32
  0
VERTEX
  8
T26SSILL
 62
2
 10
2017.098
 20
-3546.900
 30
2633.747
 70
    32
  0
VERTEX
  8
T26SSILL
 62
2
 10
2020.192
 20
-3552.147
 30
2633.745
 70
    32
  0
VERTEX
  8
T26SSILL
 62
2
 10
2045.112
 20
-3575.659
 30
2633.719
 70
    32
  0
VERTEX
  8
T26SSILL
 62
2
 10
2052.224
 20
-3595.952
 30
2633.721
 70
    32
  0
VERTEX
  8
T26SSILL
 62
2
 10
2055.850
 20
-3616.878
 30
2633.730
 70
    32
  0
VERTEX
  8
T26SSILL
 62
2
 10
2069.812
 20
-3640.377
 30
2633.726
 70
    32
  0
VERTEX
  8
T26SSILL
 62
2
 10
2079.747
 20
-3638.493
 30
2633.707
 70
    32
  0
VERTEX
  8
T26SSILL
 62
2
 10
2109.826
 20
-3624.435
 30
2633.646
 70
    32
  0
VERTEX
  8
T26SSILL
 62
2
 10
2119.338
 20
-3642.952
 30
2633.645
 70
    32
  0
VERTEX
  8
T26SSILL
 62
2
 10
2111.242
 20
-3647.335
 30
2633.662
 70
    32
  0
VERTEX
  8
T26SSILL
 62
2
 10
2102.680
 20
-3631.737
 30
2633.664
 70
    32
  0
VERTEX
  8
T26SSILL
 62
2
 10
2087.099
 20
-3640.984
 30
2633.697
 70
    32
  0
VERTEX
  8
T26SSILL
 62
2
 10
2097.955
 20
-3661.439
 30
2633.696
 70
    32
  0
VERTEX
  8
T26SSILL
 62
2
 10
2062.468
 20
-3686.449
 30
2633.776
 70
    32
  0
VERTEX
  8
T26SSILL
 62
2
 10
2066.672
 20
-3692.017
 30
2633.774
 70
    32
  0
VERTEX
  8
T26SSILL
 62
2
 10
2101.023
 20
-3667.220
 30
2633.696
 70
    32
  0
VERTEX
  8
T26SSILL
 62
2
 10
2106.644
 20
-3677.810
 30
2633.695
 70
    32
  0
VERTEX
  8
T26SSILL
 62
2
 10
2122.742
 20
-3668.285
 30
2633.661
 70
    32
  0
VERTEX
  8
T26SSILL
 62
2
 10
2117.271
 20
-3658.319
 30
2633.661
 70
    32
  0
VERTEX
  8
T26SSILL
 62
2
 10
2125.074
 20
-3654.066
 30
2633.645
 70
    32
  0
VERTEX
  8
T26SSILL
 62
2
 10
2131.423
 20
-3666.651
 30
2633.645
 70
    32
  0
VERTEX
  8
T26SSILL
 62
2
 10
2096.034
 20
-3691.128
 30
2633.724
 70
    32
  0
VERTEX
  8
T26SSILL
 62
2
 10
2098.940
 20
-3698.034
 30
2633.725
 70
    32
  0
VERTEX
  8
T26SSILL
 62
2
 10
2116.449
 20
-3711.519
 30
2633.707
 70
    32
  0
VERTEX
  8
T26SSILL
 62
2
 10
2124.854
 20
-3725.373
 30
2633.705
 70
    32
  0
VERTEX
  8
T26SSILL
 62
2
 10
2150.472
 20
-3711.872
 30
2633.651
 70
    32
  0
VERTEX
  8
T26SSILL
 62
2
 10
2154.245
 20
-3712.018
 30
2633.645
 70
    32
  0
VERTEX
  8
T26SSILL
 62
2
 10
2164.300
 20
-3719.685
 30
2633.634
 70
    32
  0
VERTEX
  8
T26SSILL
 62
2
 10
2175.815
 20
-3744.730
 30
2633.636
 70
    32
  0
VERTEX
  8
T26SSILL
 62
2
 10
2204.431
 20
-3787.233
 30
2633.623
 70
    32
  0
VERTEX
  8
T26SSILL
 62
2
 10
2223.886
 20
-3812.873
 30
2633.612
 70
    32
  0
VERTEX
  8
T26SSILL
 62
2
 10
2267.102
 20
-3863.180
 30
2633.570
 70
    32
  0
VERTEX
  8
T26SSILL
 62
2
 10
2364.031
 20
-3996.212
 30
2633.366
 70
    32
  0
VERTEX
  8
T26SSILL
 62
2
 10
2342.165
 20
-4011.356
 30
2633.391
 70
    32
  0
VERTEX
  8
T26SSILL
 62
2
 10
2346.479
 20
-4017.064
 30
2633.341
 70
    32
  0
VERTEX
  8
T26SSILL
 62
2
 10
2366.675
 20
-4002.010
 30
2633.324
 70
    32
  0
VERTEX
  8
T26SSILL
 62
2
 10
2255.795
 20
-4351.292
 30
2633.111
 70
    32
  0
VERTEX
  8
T26SSILL
 62
2
 10
2251.293
 20
-4353.495
 30
2633.111
 70
    32
  0
VERTEX
  8
T26SSILL
 62
2
 10
2240.634
 20
-4347.222
 30
2633.086
 70
    32
  0
VERTEX
  8
T26SSILL
 62
2
 10
2227.737
 20
-4350.493
 30
2633.078
 70
    32
  0
VERTEX
  8
T26SSILL
 62
2
 10
2226.722
 20
-4365.390
 30
2633.107
 70
    32
  0
VERTEX
  8
T26SSILL
 62
2
 10
2231.616
 20
-4374.916
 30
2633.132
 70
    32
  0
VERTEX
  8
T26SSILL
 62
2
 10
2240.807
 20
-4377.160
 30
2633.146
 70
    32
  0
VERTEX
  8
T26SSILL
 62
2
 10
2246.842
 20
-4374.342
 30
2633.148
 70
    32
  0
VERTEX
  8
T26SSILL
 62
2
 10
2250.913
 20
-4375.691
 30
2633.155
 70
    32
  0
VERTEX
  8
T26SSILL
 62
2
 10
2223.064
 20
-4458.522
 30
2633.291
 70
    32
  0
VERTEX
  8
T26SSILL
 62
2
 10
2219.657
 20
-4448.357
 30
2633.266
 70
    32
  0
VERTEX
  8
T26SSILL
 62
2
 10
2209.130
 20
-4433.012
 30
2633.223
 70
    32
  0
VERTEX
  8
T26SSILL
 62
2
 10
2082.938
 20
-4345.113
 30
2632.904
 70
    32
  0
VERTEX
  8
T26SSILL
 62
2
 10
2033.489
 20
-4311.784
 30
2633.291
 70
    32
  0
VERTEX
  8
T26SSILL
 62
2
 10
2031.376
 20
-4306.034
 30
2633.331
 70
    32
  0
VERTEX
  8
T26SSILL
 62
2
 10
2016.602
 20
-4293.936
 30
2633.463
 70
    32
  0
VERTEX
  8
T26SSILL
 62
2
 10
2012.433
 20
-4285.657
 30
2633.526
 70
    32
  0
VERTEX
  8
T26SSILL
 62
2
 10
2010.296
 20
-4270.898
 30
2633.612
 70
    32
  0
VERTEX
  8
T26SSILL
 62
2
 10
2012.317
 20
-4261.709
 30
2633.651
 70
    32
  0
VERTEX
  8
T26SSILL
 62
2
 10
2016.743
 20
-4251.641
 30
2633.682
 70
    32
  0
VERTEX
  8
T26SSILL
 62
2
 10
2127.276
 20
-4123.685
 30
2633.763
 70
    32
  0
VERTEX
  8
T26SSILL
 62
2
 10
2121.289
 20
-4117.871
 30
2633.770
 70
    32
  0
VERTEX
  8
T26SSILL
 62
2
 10
2011.409
 20
-4245.948
 30
2633.737
 70
    32
  0
VERTEX
  8
T26SSILL
 62
2
 10
2005.062
 20
-4256.216
 30
2633.713
 70
    32
  0
VERTEX
  8
T26SSILL
 62
2
 10
2002.213
 20
-4266.660
 30
2633.673
 70
    32
  0
VERTEX
  8
T26SSILL
 62
2
 10
2002.772
 20
-4279.847
 30
2633.602
 70
    32
  0
VERTEX
  8
T26SSILL
 62
2
 10
2005.750
 20
-4292.471
 30
2633.522
 70
    32
  0
VERTEX
  8
T26SSILL
 62
2
 10
1710.487
 20
-4087.767
 30
2634.228
 70
    32
  0
VERTEX
  8
T26SSILL
 62
2
 10
1704.920
 20
-4081.156
 30
2634.233
 70
    32
  0
VERTEX
  8
T26SSILL
 62
2
 10
1701.277
 20
-4067.167
 30
2634.248
 70
    32
  0
VERTEX
  8
T26SSILL
 62
2
 10
1702.698
 20
-4027.530
 30
2634.296
 70
    32
  0
VERTEX
  8
T26SSILL
 62
2
 10
1704.673
 20
-4020.223
 30
2634.306
 70
    32
  0
VERTEX
  8
T26SSILL
 62
2
 10
1713.219
 20
-4007.595
 30
2634.325
 70
    32
  0
VERTEX
  8
T26SSILL
 62
2
 10
1770.543
 20
-3966.474
 30
2634.276
 70
    32
  0
VERTEX
  8
T26SSILL
 62
2
 10
1774.557
 20
-3972.147
 30
2634.269
 70
    32
  0
VERTEX
  8
T26SSILL
 62
2
 10
1780.172
 20
-3967.304
 30
2634.262
 70
    32
  0
VERTEX
  8
T26SSILL
 62
2
 10
1782.733
 20
-3967.835
 30
2634.258
 70
    32
  0
VERTEX
  8
T26SSILL
 62
2
 10
1807.100
 20
-4017.219
 30
2634.218
 70
    32
  0
VERTEX
  8
T26SSILL
 62
2
 10
1812.954
 20
-4012.855
 30
2634.210
 70
    32
  0
VERTEX
  8
T26SSILL
 62
2
 10
1815.694
 20
-3997.923
 30
2634.207
 70
    32
  0
VERTEX
  8
T26SSILL
 62
2
 10
1813.947
 20
-3978.314
 30
2634.211
 70
    32
  0
VERTEX
  8
T26SSILL
 62
2
 10
1811.285
 20
-3969.266
 30
2634.216
 70
    32
  0
VERTEX
  8
T26SSILL
 62
2
 10
1799.463
 20
-3945.671
 30
2634.236
 70
    32
  0
VERTEX
  8
T26SSILL
 62
2
 10
1812.808
 20
-3935.754
 30
2634.220
 70
    32
  0
VERTEX
  8
T26SSILL
 62
2
 10
1820.688
 20
-3946.446
 30
2634.204
 70
    32
  0
VERTEX
  8
T26SSILL
 62
2
 10
1826.891
 20
-3942.264
 30
2634.196
 70
    32
  0
VERTEX
  8
T26SSILL
 62
2
 10
1818.979
 20
-3931.377
 30
2634.212
 70
    32
  0
VERTEX
  8
T26SSILL
 62
2
 10
1831.450
 20
-3922.204
 30
2634.197
 70
    32
  0
VERTEX
  8
T26SSILL
 62
2
 10
1926.324
 20
-4007.552
 30
2634.044
 70
    32
  0
VERTEX
  8
T26SSILL
 62
2
 10
1930.924
 20
-4002.360
 30
2634.038
 70
    32
  0
VERTEX
  8
T26SSILL
 62
2
 10
1914.282
 20
-3986.944
 30
2634.064
 70
    32
  0
VERTEX
  8
T26SSILL
 62
2
 10
1914.825
 20
-3963.605
 30
2634.065
 70
    32
  0
VERTEX
  8
T26SSILL
 62
2
 10
1908.057
 20
-3953.844
 30
2634.076
 70
    32
  0
VERTEX
  8
T26SSILL
 62
2
 10
1902.412
 20
-3950.117
 30
2634.084
 70
    32
  0
VERTEX
  8
T26SSILL
 62
2
 10
1897.949
 20
-3954.449
 30
2634.090
 70
    32
  0
VERTEX
  8
T26SSILL
 62
2
 10
1894.638
 20
-3951.091
 30
2634.095
 70
    32
  0
VERTEX
  8
T26SSILL
 62
2
 10
1894.683
 20
-3930.507
 30
2634.100
 70
    32
  0
VERTEX
  8
T26SSILL
 62
2
 10
1892.368
 20
-3930.014
 30
2634.103
 70
    32
  0
VERTEX
  8
T26SSILL
 62
2
 10
1891.567
 20
-3927.117
 30
2634.106
 70
    32
  0
VERTEX
  8
T26SSILL
 62
2
 10
1888.088
 20
-3926.818
 30
2634.111
 70
    32
  0
VERTEX
  8
T26SSILL
 62
2
 10
1888.362
 20
-3939.015
 30
2634.106
 70
    32
  0
VERTEX
  8
T26SSILL
 62
2
 10
1884.084
 20
-3952.130
 30
2634.111
 70
    32
  0
VERTEX
  8
T26SSILL
 62
2
 10
1881.800
 20
-3954.224
 30
2634.114
 70
    32
  0
VERTEX
  8
T26SSILL
 62
2
 10
1877.027
 20
-3954.540
 30
2634.121
 70
    32
  0
VERTEX
  8
T26SSILL
 62
2
 10
1872.566
 20
-3950.497
 30
2634.128
 70
    32
  0
VERTEX
  8
T26SSILL
 62
2
 10
1878.029
 20
-3934.673
 30
2634.123
 70
    32
  0
VERTEX
  8
T26SSILL
 62
2
 10
1877.708
 20
-3926.751
 30
2634.126
 70
    32
  0
VERTEX
  8
T26SSILL
 62
2
 10
1875.253
 20
-3919.184
 30
2634.133
 70
    32
  0
VERTEX
  8
T26SSILL
 62
2
 10
1871.229
 20
-3923.522
 30
2634.137
 70
    32
  0
VERTEX
  8
T26SSILL
 62
2
 10
1866.341
 20
-3918.592
 30
2634.146
 70
    32
  0
VERTEX
  8
T26SSILL
 62
2
 10
1845.165
 20
-3926.263
 30
2634.175
 70
    32
  0
VERTEX
  8
T26SSILL
 62
2
 10
1837.213
 20
-3918.015
 30
2634.190
 70
    32
  0
VERTEX
  8
T26SSILL
 62
2
 10
1847.420
 20
-3910.814
 30
2634.177
 70
    32
  0
VERTEX
  8
T26SSILL
 62
2
 10
1843.367
 20
-3905.387
 30
2634.185
 70
    32
  0
VERTEX
  8
T26SSILL
 62
2
 10
1811.264
 20
-3928.394
 30
2634.224
 70
    32
  0
VERTEX
  8
T26SSILL
 62
2
 10
1804.409
 20
-3926.743
 30
2634.235
 70
    32
  0
VERTEX
  8
T26SSILL
 62
2
 10
1796.557
 20
-3931.798
 30
2634.245
 70
    32
  0
VERTEX
  8
T26SSILL
 62
2
 10
1797.156
 20
-3938.757
 30
2634.242
 70
    32
  0
VERTEX
  8
T26SSILL
 62
2
 10
1783.191
 20
-3949.016
 30
2634.259
 70
    32
  0
VERTEX
  8
T26SSILL
 62
2
 10
1778.503
 20
-3922.519
 30
2634.275
 70
    32
  0
VERTEX
  8
T26SSILL
 62
2
 10
1791.938
 20
-3913.624
 30
2634.258
 70
    32
  0
VERTEX
  8
T26SSILL
 62
2
 10
1785.778
 20
-3903.204
 30
2634.271
 70
    32
  0
VERTEX
  8
T26SSILL
 62
2
 10
1773.856
 20
-3912.086
 30
2634.286
 70
    32
  0
VERTEX
  8
T26SSILL
 62
2
 10
1766.891
 20
-3914.322
 30
2634.295
 70
    32
  0
VERTEX
  8
T26SSILL
 62
2
 10
1760.006
 20
-3927.590
 30
2634.301
 70
    32
  0
VERTEX
  8
T26SSILL
 62
2
 10
1757.874
 20
-3943.059
 30
2634.299
 70
    32
  0
VERTEX
  8
T26SSILL
 62
2
 10
1763.069
 20
-3957.987
 30
2634.287
 70
    32
  0
VERTEX
  8
T26SSILL
 62
2
 10
1759.930
 20
-3965.488
 30
2634.291
 70
    32
  0
VERTEX
  8
T26SSILL
 62
2
 10
1702.833
 20
-4007.967
 30
2634.320
 70
    32
  0
VERTEX
  8
T26SSILL
 62
2
 10
1703.678
 20
-3925.796
 30
2634.385
 70
    32
  0
VERTEX
  8
T26SSILL
 62
2
 10
1710.118
 20
-3928.074
 30
2634.375
 70
    32
  0
VERTEX
  8
T26SSILL
 62
2
 10
1714.864
 20
-3931.910
 30
2634.366
 70
    32
  0
VERTEX
  8
T26SSILL
 62
2
 10
1719.669
 20
-3930.593
 30
2634.360
 70
    32
  0
VERTEX
  8
T26SSILL
 62
2
 10
1742.791
 20
-3946.845
 30
2634.320
 70
    32
  0
VERTEX
  8
T26SSILL
 62
2
 10
1751.728
 20
-3949.266
 30
2634.305
 70
    32
  0
VERTEX
  8
T26SSILL
 62
2
 10
1754.182
 20
-3940.523
 30
2634.305
 70
    32
  0
VERTEX
  8
T26SSILL
 62
2
 10
1747.482
 20
-3939.085
 30
2634.315
 70
    32
  0
VERTEX
  8
T26SSILL
 62
2
 10
1720.455
 20
-3919.256
 30
2634.362
 70
    32
  0
VERTEX
  8
T26SSILL
 62
2
 10
1723.937
 20
-3909.983
 30
2634.361
 70
    32
  0
VERTEX
  8
T26SSILL
 62
2
 10
1733.838
 20
-3911.486
 30
2634.345
 70
    32
  0
VERTEX
  8
T26SSILL
 62
2
 10
1740.766
 20
-3904.711
 30
2634.337
 70
    32
  0
VERTEX
  8
T26SSILL
 62
2
 10
1746.335
 20
-3902.947
 30
2634.330
 70
    32
  0
VERTEX
  8
T26SSILL
 62
2
 10
1748.606
 20
-3898.142
 30
2634.328
 70
    32
  0
VERTEX
  8
T26SSILL
 62
2
 10
1748.491
 20
-3892.897
 30
2634.330
 70
    32
  0
VERTEX
  8
T26SSILL
 62
2
 10
1746.015
 20
-3890.239
 30
2634.335
 70
    32
  0
VERTEX
  8
T26SSILL
 62
2
 10
1736.846
 20
-3886.899
 30
2634.350
 70
    32
  0
VERTEX
  8
T26SSILL
 62
2
 10
1729.026
 20
-3888.559
 30
2634.361
 70
    32
  0
VERTEX
  8
T26SSILL
 62
2
 10
1717.994
 20
-3886.247
 30
2634.378
 70
    32
  0
VERTEX
  8
T26SSILL
 62
2
 10
1710.103
 20
-3891.548
 30
2634.388
 70
    32
  0
VERTEX
  8
T26SSILL
 62
2
 10
1708.726
 20
-3890.700
 30
2634.390
 70
    32
  0
VERTEX
  8
T26SSILL
 62
2
 10
1707.705
 20
-3886.005
 30
2634.393
 70
    32
  0
VERTEX
  8
T26SSILL
 62
2
 10
1708.968
 20
-3878.018
 30
2634.394
 70
    32
  0
VERTEX
  8
T26SSILL
 62
2
 10
1707.431
 20
-3871.415
 30
2634.399
 70
    32
  0
VERTEX
  8
T26SSILL
 62
2
 10
1691.799
 20
-3853.199
 30
2634.428
 70
    32
  0
VERTEX
  8
T26SSILL
 62
2
 10
1685.029
 20
-3848.224
 30
2634.440
 70
    32
  0
VERTEX
  8
T26SSILL
 62
2
 10
1680.864
 20
-3847.880
 30
2634.446
 70
    32
  0
VERTEX
  8
T26SSILL
 62
2
 10
1670.017
 20
-3832.058
 30
2634.468
 70
    32
  0
VERTEX
  8
T26SSILL
 62
2
 10
1671.992
 20
-3823.554
 30
2634.468
 70
    32
  0
VERTEX
  8
T26SSILL
 62
2
 10
1670.660
 20
-3822.021
 30
2634.471
 70
    32
  0
VERTEX
  8
T26SSILL
 62
2
 10
1673.694
 20
-3819.164
 30
2634.467
 70
    32
  0
VERTEX
  8
T26SSILL
 62
2
 10
1675.286
 20
-3813.874
 30
2634.467
 70
    32
  0
VERTEX
  8
T26SSILL
 62
2
 10
1671.426
 20
-3790.908
 30
2634.480
 70
    32
  0
VERTEX
  8
T26SSILL
 62
2
 10
1669.195
 20
-3788.288
 30
2634.485
 70
    32
  0
VERTEX
  8
T26SSILL
 62
2
 10
1666.246
 20
-3787.822
 30
2634.489
 70
    32
  0
VERTEX
  8
T26SSILL
 62
2
 10
1660.897
 20
-3791.384
 30
2634.496
 70
    32
  0
VERTEX
  8
T26SSILL
 62
2
 10
1659.409
 20
-3794.423
 30
2634.497
 70
    32
  0
VERTEX
  8
T26SSILL
 62
2
 10
1660.254
 20
-3802.617
 30
2634.493
 70
    32
  0
VERTEX
  8
T26SSILL
 62
2
 10
1664.392
 20
-3805.916
 30
2634.486
 70
    32
  0
VERTEX
  8
T26SSILL
 62
2
 10
1665.663
 20
-3813.800
 30
2634.481
 70
    32
  0
VERTEX
  8
T26SSILL
 62
2
 10
1659.693
 20
-3817.705
 30
2634.488
 70
    32
  0
VERTEX
  8
T26SSILL
 62
2
 10
1627.279
 20
-3773.408
 30
2634.553
 70
    32
  0
VERTEX
  8
T26SSILL
 62
2
 10
1626.389
 20
-3765.900
 30
2634.556
 70
    32
  0
VERTEX
  8
T26SSILL
 62
2
 10
1621.013
 20
-3751.321
 30
2634.570
 70
    32
  0
VERTEX
  8
T26SSILL
 62
2
 10
1612.801
 20
-3743.914
 30
2634.618
 70
    32
  0
VERTEX
  8
T26SSILL
 62
2
 10
1614.662
 20
-3728.969
 30
2634.636
 70
    32
  0
VERTEX
  8
T26SSILL
 62
2
 10
1604.133
 20
-3707.153
 30
2634.718
 70
    32
  0
VERTEX
  8
T26SSILL
 62
2
 10
1609.838
 20
-3702.136
 30
2634.702
 70
    32
  0
VERTEX
  8
T26SSILL
 62
2
 10
1605.397
 20
-3696.773
 30
2634.731
 70
    32
  0
VERTEX
  8
T26SSILL
 62
2
 10
1599.867
 20
-3700.684
 30
2634.748
 70
    32
  0
VERTEX
  8
T26SSILL
 62
2
 10
1588.421
 20
-3696.607
 30
2634.804
 70
    32
  0
VERTEX
  8
T26SSILL
 62
2
 10
1575.571
 20
-3694.637
 30
2634.863
 70
    32
  0
VERTEX
  8
T26SSILL
 62
2
 10
1567.818
 20
-3690.703
 30
2634.937
 70
    32
  0
VERTEX
  8
T26SSILL
 62
2
 10
1559.247
 20
-3676.815
 30
2634.980
 70
    32
  0
VERTEX
  8
T26SSILL
 62
2
 10
1559.237
 20
-3664.534
 30
2634.985
 70
    32
  0
VERTEX
  8
T26SSILL
 62
2
 10
1564.091
 20
-3654.156
 30
2634.981
 70
    32
  0
VERTEX
  8
T26SSILL
 62
2
 10
1569.411
 20
-3663.121
 30
2634.943
 70
    32
  0
VERTEX
  8
T26SSILL
 62
2
 10
1571.730
 20
-3671.548
 30
2634.919
 70
    32
  0
VERTEX
  8
T26SSILL
 62
2
 10
1578.131
 20
-3675.269
 30
2634.885
 70
    32
  0
VERTEX
  8
T26SSILL
 62
2
 10
1592.136
 20
-3664.764
 30
2634.842
 70
    32
  0
VERTEX
  8
T26SSILL
 62
2
 10
1591.480
 20
-3652.191
 30
2634.867
 70
    32
  0
VERTEX
  8
T26SSILL
 62
2
 10
1583.269
 20
-3642.391
 30
2634.919
 70
    32
  0
VERTEX
  8
T26SSILL
 62
2
 10
1582.998
 20
-3639.326
 30
2634.925
 70
    32
  0
VERTEX
  8
T26SSILL
 62
2
 10
1640.082
 20
-3598.922
 30
2634.748
 70
    32
  0
VERTEX
  8
T26SSILL
 62
2
 10
1635.059
 20
-3593.657
 30
2634.779
 70
    32
  0
VERTEX
  8
T26SSILL
 62
2
 10
1562.412
 20
-3645.263
 30
2635.004
 70
    32
  0
VERTEX
  8
T26SSILL
 62
2
 10
1554.072
 20
-3656.979
 30
2635.020
 70
    32
  0
VERTEX
  8
T26SSILL
 62
2
 10
1551.081
 20
-3667.526
 30
2635.041
 70
    32
  0
VERTEX
  8
T26SSILL
 62
2
 10
1361.627
 20
-3402.947
 30
2635.247
 70
    32
  0
VERTEX
  8
T26SSILL
 62
2
 10
1365.874
 20
-3399.033
 30
2635.244
 70
    32
  0
VERTEX
  8
T26SSILL
 62
2
 10
1365.608
 20
-3397.625
 30
2635.238
 70
    32
  0
VERTEX
  8
T26SSILL
 62
2
 10
1363.406
 20
-3395.692
 30
2635.225
 70
    32
  0
VERTEX
  8
T26SSILL
 62
2
 10
1351.316
 20
-3363.057
 30
2635.080
 70
    32
  0
VERTEX
  8
T26SSILL
 62
2
 10
1343.427
 20
-3349.080
 30
2635.026
 70
    32
  0
VERTEX
  8
T26SSILL
 62
2
 10
1368.148
 20
-3330.767
 30
2635.010
 70
    32
  0
VERTEX
  8
T26SSILL
 62
2
 10
1379.753
 20
-3335.393
 30
2635.049
 70
    32
  0
VERTEX
  8
T26SSILL
 62
2
 10
1384.461
 20
-3334.335
 30
2635.058
 70
    32
  0
VERTEX
  8
T26SSILL
 62
2
 10
1389.737
 20
-3330.634
 30
2635.058
 70
    32
  0
VERTEX
  8
T26SSILL
 62
2
 10
1394.664
 20
-3329.925
 30
2635.069
 70
    32
  0
VERTEX
  8
T26SSILL
 62
2
 10
1394.133
 20
-3326.933
 30
2635.057
 70
    32
  0
VERTEX
  8
T26SSILL
 62
2
 10
1388.496
 20
-3322.627
 30
2635.026
 70
    32
  0
VERTEX
  8
T26SSILL
 62
2
 10
1388.331
 20
-3317.058
 30
2635.005
 70
    32
  0
VERTEX
  8
T26SSILL
 62
2
 10
1428.818
 20
-3289.559
 30
2635.014
 70
    32
  0
VERTEX
  8
T26SSILL
 62
2
 10
1423.491
 20
-3283.426
 30
2634.977
 70
    32
  0
VERTEX
  8
T26SSILL
 62
2
 10
1387.006
 20
-3308.357
 30
2634.972
 70
    32
  0
VERTEX
  8
T26SSILL
 62
2
 10
1372.611
 20
-3279.526
 30
2634.863
 70
    32
  0
VERTEX
  8
T26SSILL
 62
2
 10
1369.871
 20
-3267.913
 30
2634.825
 70
    32
  0
VERTEX
  8
T26SSILL
 62
2
 10
1367.052
 20
-3264.484
 30
2634.810
 70
    32
  0
VERTEX
  8
T26SSILL
 62
2
 10
1362.121
 20
-3262.025
 30
2634.795
 70
    32
  0
VERTEX
  8
T26SSILL
 62
2
 10
1348.567
 20
-3259.576
 30
2634.767
 70
    32
  0
VERTEX
  8
T26SSILL
 62
2
 10
1345.749
 20
-3257.291
 30
2634.756
 70
    32
  0
VERTEX
  8
T26SSILL
 62
2
 10
1337.551
 20
-3243.836
 30
2634.703
 70
    32
  0
VERTEX
  8
T26SSILL
 62
2
 10
1331.900
 20
-3225.978
 30
2634.641
 70
    32
  0
VERTEX
  8
T26SSILL
 62
2
 10
1328.113
 20
-3222.638
 30
2634.625
 70
    32
  0
VERTEX
  8
T26SSILL
 62
2
 10
1325.987
 20
-3209.529
 30
2634.583
 70
    32
  0
VERTEX
  8
T26SSILL
 62
2
 10
1321.403
 20
-3202.230
 30
2634.554
 70
    32
  0
VERTEX
  8
T26SSILL
 62
2
 10
1312.686
 20
-3197.223
 30
2634.526
 70
    32
  0
VERTEX
  8
T26SSILL
 62
2
 10
1288.184
 20
-3160.467
 30
2634.378
 70
    32
  0
VERTEX
  8
T26SSILL
 62
2
 10
1283.421
 20
-3150.088
 30
2634.340
 70
    32
  0
VERTEX
  8
T26SSILL
 62
2
 10
1273.654
 20
-3150.626
 30
2634.326
 70
    32
  0
VERTEX
  8
T26SSILL
 62
2
 10
1282.031
 20
-3166.369
 30
2634.386
 70
    32
  0
VERTEX
  8
T26SSILL
 62
2
 10
1276.585
 20
-3175.966
 30
2634.407
 70
    32
  0
VERTEX
  8
T26SSILL
 62
2
 10
1276.154
 20
-3184.150
 30
2634.430
 70
    32
  0
VERTEX
  8
T26SSILL
 62
2
 10
1280.296
 20
-3190.658
 30
2634.456
 70
    32
  0
VERTEX
  8
T26SSILL
 62
2
 10
1287.007
 20
-3212.298
 30
2634.531
 70
    32
  0
VERTEX
  8
T26SSILL
 62
2
 10
1288.592
 20
-3213.704
 30
2634.538
 70
    32
  0
VERTEX
  8
T26SSILL
 62
2
 10
1252.624
 20
-3239.477
 30
2634.560
 70
    32
  0
VERTEX
  8
T26SSILL
 62
2
 10
1240.823
 20
-3225.722
 30
2634.501
 70
    32
  0
VERTEX
  8
T26SSILL
 62
2
 10
1242.483
 20
-3214.985
 30
2634.471
 70
    32
  0
VERTEX
  8
T26SSILL
 62
2
 10
1231.641
 20
-3197.573
 30
2634.402
 70
    32
  0
VERTEX
  8
T26SSILL
 62
2
 10
1230.144
 20
-3196.783
 30
2634.398
 70
    32
  0
VERTEX
  8
T26SSILL
 62
2
 10
1225.132
 20
-3199.692
 30
2634.399
 70
    32
  0
VERTEX
  8
T26SSILL
 62
2
 10
1215.558
 20
-3197.569
 30
2634.378
 70
    32
  0
VERTEX
  8
T26SSILL
 62
2
 10
1205.146
 20
-3183.233
 30
2634.319
 70
    32
  0
VERTEX
  8
T26SSILL
 62
2
 10
1883.106
 20
-2696.285
 30
2633.321
 70
    32
  0
VERTEX
  8
T26SSILL
 62
2
 10
1893.949
 20
-2705.445
 30
2633.311
 70
    32
  0
VERTEX
  8
T26SSILL
 62
2
 10
1897.844
 20
-2703.011
 30
2633.299
 70
    32
  0
VERTEX
  8
T26SSILL
 62
2
 10
1922.405
 20
-2682.697
 30
2633.258
 70
    32
  0
VERTEX
  8
T26SSILL
 62
2
 10
1917.207
 20
-2672.263
 30
2633.267
 70
    32
  0
VERTEX
  8
T26SSILL
 62
2
 10
1958.749
 20
-2643.019
 30
2633.374
 70
    32
  0
VERTEX
  8
T26SSILL
 62
2
 10
1986.291
 20
-2645.536
 30
2633.358
 70
    32
  0
VERTEX
  8
T26SSILL
 62
2
 10
2101.509
 20
-2800.682
 30
2633.141
 70
    32
  0
VERTEX
  8
T26SSILL
 62
2
 10
2093.161
 20
-2809.154
 30
2633.135
 70
    32
  0
VERTEX
  8
T26SSILL
 62
2
 10
2097.954
 20
-2815.270
 30
2633.129
 70
    32
  0
SEQEND
  8
T26SSILL
  0
POLYLINE
  8
T26SSILL
 62
2
 66
     1
 70
     9
  0
VERTEX
  8
T26SSILL
 62
2
 10
1557.130
 20
-4003.496
 30
2634.475
 70
    32
  0
VERTEX
  8
T26SSILL
 62
2
 10
1539.432
 20
-4016.250
 30
2634.523
 70
    32
  0
VERTEX
  8
T26SSILL
 62
2
 10
1537.801
 20
-4019.393
 30
2634.528
 70
    32
  0
VERTEX
  8
T26SSILL
 62
2
 10
1544.867
 20
-4030.460
 30
2634.519
 70
    32
  0
VERTEX
  8
T26SSILL
 62
2
 10
1543.494
 20
-4035.155
 30
2634.525
 70
    32
  0
VERTEX
  8
T26SSILL
 62
2
 10
1548.589
 20
-4041.565
 30
2634.518
 70
    32
  0
VERTEX
  8
T26SSILL
 62
2
 10
1561.462
 20
-4052.544
 30
2634.496
 70
    32
  0
VERTEX
  8
T26SSILL
 62
2
 10
1570.531
 20
-4066.069
 30
2634.484
 70
    32
  0
VERTEX
  8
T26SSILL
 62
2
 10
1578.289
 20
-4074.349
 30
2634.472
 70
    32
  0
VERTEX
  8
T26SSILL
 62
2
 10
1592.621
 20
-4097.208
 30
2634.455
 70
    32
  0
VERTEX
  8
T26SSILL
 62
2
 10
1599.196
 20
-4103.412
 30
2634.444
 70
    32
  0
VERTEX
  8
T26SSILL
 62
2
 10
1597.157
 20
-4110.331
 30
2634.453
 70
    32
  0
VERTEX
  8
T26SSILL
 62
2
 10
1602.340
 20
-4121.353
 30
2634.448
 70
    32
  0
VERTEX
  8
T26SSILL
 62
2
 10
1605.943
 20
-4142.766
 30
2634.453
 70
    32
  0
VERTEX
  8
T26SSILL
 62
2
 10
1601.272
 20
-4148.010
 30
2634.467
 70
    32
  0
VERTEX
  8
T26SSILL
 62
2
 10
1606.036
 20
-4155.313
 30
2634.461
 70
    32
  0
VERTEX
  8
T26SSILL
 62
2
 10
1603.481
 20
-4156.735
 30
2634.467
 70
    32
  0
VERTEX
  8
T26SSILL
 62
2
 10
1622.424
 20
-4179.504
 30
2634.415
 70
    32
  0
VERTEX
  8
T26SSILL
 62
2
 10
1709.812
 20
-4116.313
 30
2634.240
 70
    32
  0
VERTEX
  8
T26SSILL
 62
2
 10
1727.994
 20
-4108.861
 30
2634.220
 70
    32
  0
VERTEX
  8
T26SSILL
 62
2
 10
1578.387
 20
-4005.662
 30
2634.429
 70
    32
  0
VERTEX
  8
T26SSILL
 62
2
 10
1560.848
 20
-4004.273
 30
2634.467
 70
    32
  0
SEQEND
  8
T26SSILL
  0
POLYLINE
  8
T26SSILL
 62
2
 66
     1
 70
     9
  0
VERTEX
  8
T26SSILL
 62
2
 10
1926.591
 20
-2650.216
 30
2633.351
 70
    32
  0
VERTEX
  8
T26SSILL
 62
2
 10
1923.684
 20
-2644.374
 30
2633.375
 70
    32
  0
VERTEX
  8
T26SSILL
 62
2
 10
1919.275
 20
-2644.221
 30
2633.376
 70
    32
  0
VERTEX
  8
T26SSILL
 62
2
 10
1900.133
 20
-2649.940
 30
2633.357
 70
    32
  0
VERTEX
  8
T26SSILL
 62
2
 10
1880.412
 20
-2665.092
 30
2633.300
 70
    32
  0
VERTEX
  8
T26SSILL
 62
2
 10
1875.630
 20
-2672.345
 30
2633.302
 70
    32
  0
VERTEX
  8
T26SSILL
 62
2
 10
1871.006
 20
-2686.270
 30
2633.332
 70
    32
  0
VERTEX
  8
T26SSILL
 62
2
 10
1890.629
 20
-2670.370
 30
2633.277
 70
    32
  0
VERTEX
  8
T26SSILL
 62
2
 10
1920.356
 20
-2653.532
 30
2633.339
 70
    32
  0
SEQEND
  8
T26SSILL
  0
POLYLINE
  8
T26SSILL
 62
2
 66
     1
 70
     9
  0
VERTEX
  8
T26SSILL
 62
2
 10
2621.152
 20
-3574.312
 30
2632.808
 70
    32
  0
VERTEX
  8
T26SSILL
 62
2
 10
2568.067
 20
-3500.387
 30
2632.779
 70
    32
  0
VERTEX
  8
T26SSILL
 62
2
 10
2476.339
 20
-3379.691
 30
2632.846
 70
    32
  0
VERTEX
  8
T26SSILL
 62
2
 10
2488.625
 20
-3310.402
 30
2632.777
 70
    32
  0
VERTEX
  8
T26SSILL
 62
2
 10
2633.572
 20
-3501.722
 30
2632.727
 70
    32
  0
VERTEX
  8
T26SSILL
 62
2
 10
2670.571
 20
-3554.018
 30
2632.732
 70
    32
  0
VERTEX
  8
T26SSILL
 62
2
 10
2662.223
 20
-3554.907
 30
2632.743
 70
    32
  0
VERTEX
  8
T26SSILL
 62
2
 10
2644.310
 20
-3568.200
 30
2632.775
 70
    32
  0
VERTEX
  8
T26SSILL
 62
2
 10
2631.456
 20
-3550.726
 30
2632.777
 70
    32
  0
VERTEX
  8
T26SSILL
 62
2
 10
2626.539
 20
-3554.423
 30
2632.786
 70
    32
  0
VERTEX
  8
T26SSILL
 62
2
 10
2619.848
 20
-3544.764
 30
2632.779
 70
    32
  0
VERTEX
  8
T26SSILL
 62
2
 10
2610.804
 20
-3551.806
 30
2632.789
 70
    32
  0
VERTEX
  8
T26SSILL
 62
2
 10
2624.802
 20
-3571.476
 30
2632.802
 70
    32
  0
SEQEND
  8
T26SSILL
  0
POLYLINE
  8
T26SSILL
 62
2
 66
     1
 70
     9
  0
VERTEX
  8
T26SSILL
 62
2
 10
3088.021
 20
-3404.634
 30
2633.601
 70
    32
  0
VERTEX
  8
T26SSILL
 62
2
 10
3090.097
 20
-3407.850
 30
2633.608
 70
    32
  0
VERTEX
  8
T26SSILL
 62
2
 10
2992.078
 20
-3490.078
 30
2633.691
 70
    32
  0
VERTEX
  8
T26SSILL
 62
2
 10
2985.811
 20
-3468.465
 30
2633.719
 70
    32
  0
VERTEX
  8
T26SSILL
 62
2
 10
3002.843
 20
-3453.152
 30
2633.770
 70
    32
  0
VERTEX
  8
T26SSILL
 62
2
 10
2996.835
 20
-3448.375
 30
2633.727
 70
    32
  0
VERTEX
  8
T26SSILL
 62
2
 10
2977.107
 20
-3465.927
 30
2633.701
 70
    32
  0
VERTEX
  8
T26SSILL
 62
2
 10
2985.316
 20
-3494.657
 30
2633.664
 70
    32
  0
VERTEX
  8
T26SSILL
 62
2
 10
2806.865
 20
-3641.274
 30
2632.889
 70
    32
  0
VERTEX
  8
T26SSILL
 62
2
 10
2795.679
 20
-3641.247
 30
2632.860
 70
    32
  0
VERTEX
  8
T26SSILL
 62
2
 10
2796.635
 20
-3649.679
 30
2632.845
 70
    32
  0
VERTEX
  8
T26SSILL
 62
2
 10
2769.767
 20
-3671.755
 30
2632.729
 70
    32
  0
VERTEX
  8
T26SSILL
 62
2
 10
2750.663
 20
-3645.851
 30
2632.732
 70
    32
  0
VERTEX
  8
T26SSILL
 62
2
 10
2755.492
 20
-3641.714
 30
2632.753
 70
    32
  0
VERTEX
  8
T26SSILL
 62
2
 10
2730.050
 20
-3607.732
 30
2632.756
 70
    32
  0
VERTEX
  8
T26SSILL
 62
2
 10
2724.857
 20
-3611.803
 30
2632.734
 70
    32
  0
VERTEX
  8
T26SSILL
 62
2
 10
2667.378
 20
-3537.786
 30
2632.735
 70
    32
  0
VERTEX
  8
T26SSILL
 62
2
 10
2623.652
 20
-3476.719
 30
2632.705
 70
    32
  0
VERTEX
  8
T26SSILL
 62
2
 10
2622.842
 20
-3468.171
 30
2632.699
 70
    32
  0
VERTEX
  8
T26SSILL
 62
2
 10
2629.288
 20
-3455.367
 30
2632.695
 70
    32
  0
VERTEX
  8
T26SSILL
 62
2
 10
2692.554
 20
-3408.075
 30
2632.697
 70
    32
  0
VERTEX
  8
T26SSILL
 62
2
 10
3088.275
 20
-3197.137
 30
2632.779
 70
    32
  0
VERTEX
  8
T26SSILL
 62
2
 10
3090.017
 20
-3202.104
 30
2632.798
 70
    32
  0
VERTEX
  8
T26SSILL
 62
2
 10
3085.776
 20
-3226.609
 30
2632.868
 70
    32
  0
VERTEX
  8
T26SSILL
 62
2
 10
3104.544
 20
-3337.644
 30
2633.180
 70
    32
  0
VERTEX
  8
T26SSILL
 62
2
 10
3101.546
 20
-3393.769
 30
2633.479
 70
    32
  0
VERTEX
  8
T26SSILL
 62
2
 10
3094.050
 20
-3402.597
 30
2633.561
 70
    32
  0
VERTEX
  8
T26SSILL
 62
2
 10
3089.773
 20
-3404.340
 30
2633.591
 70
    32
  0
SEQEND
  8
T26SSILL
  0
POLYLINE
  8
T26SSILL
 62
2
 66
     1
 70
     9
  0
VERTEX
  8
T26SSILL
 62
2
 10
2894.954
 20
-3841.929
 30
2633.212
 70
    32
  0
VERTEX
  8
T26SSILL
 62
2
 10
2907.599
 20
-3832.773
 30
2633.230
 70
    32
  0
VERTEX
  8
T26SSILL
 62
2
 10
2903.197
 20
-3826.978
 30
2633.220
 70
    32
  0
VERTEX
  8
T26SSILL
 62
2
 10
2891.255
 20
-3835.518
 30
2633.203
 70
    32
  0
VERTEX
  8
T26SSILL
 62
2
 10
2883.068
 20
-3824.630
 30
2633.184
 70
    32
  0
VERTEX
  8
T26SSILL
 62
2
 10
2877.951
 20
-3808.816
 30
2633.168
 70
    32
  0
VERTEX
  8
T26SSILL
 62
2
 10
2855.064
 20
-3779.929
 30
2633.077
 70
    32
  0
VERTEX
  8
T26SSILL
 62
2
 10
2850.756
 20
-3778.791
 30
2633.056
 70
    32
  0
VERTEX
  8
T26SSILL
 62
2
 10
2801.193
 20
-3712.408
 30
2632.797
 70
    32
  0
VERTEX
  8
T26SSILL
 62
2
 10
2796.357
 20
-3710.305
 30
2632.774
 70
    32
  0
VERTEX
  8
T26SSILL
 62
2
 10
2773.993
 20
-3677.989
 30
2632.727
 70
    32
  0
VERTEX
  8
T26SSILL
 62
2
 10
2807.938
 20
-3649.954
 30
2632.874
 70
    32
  0
VERTEX
  8
T26SSILL
 62
2
 10
2810.647
 20
-3653.981
 30
2632.873
 70
    32
  0
VERTEX
  8
T26SSILL
 62
2
 10
2811.179
 20
-3660.577
 30
2632.861
 70
    32
  0
VERTEX
  8
T26SSILL
 62
2
 10
2820.683
 20
-3660.269
 30
2632.887
 70
    32
  0
VERTEX
  8
T26SSILL
 62
2
 10
2819.207
 20
-3640.647
 30
2632.923
 70
    32
  0
VERTEX
  8
T26SSILL
 62
2
 10
3054.445
 20
-3445.723
 30
2633.918
 70
    32
  0
VERTEX
  8
T26SSILL
 62
2
 10
3302.411
 20
-3773.578
 30
2633.898
 70
    32
  0
VERTEX
  8
T26SSILL
 62
2
 10
3045.912
 20
-3956.351
 30
2633.525
 70
    32
  0
VERTEX
  8
T26SSILL
 62
2
 10
3043.623
 20
-3953.277
 30
2633.520
 70
    32
  0
VERTEX
  8
T26SSILL
 62
2
 10
3036.335
 20
-3958.384
 30
2633.510
 70
    32
  0
VERTEX
  8
T26SSILL
 62
2
 10
3038.536
 20
-3961.809
 30
2633.515
 70
    32
  0
VERTEX
  8
T26SSILL
 62
2
 10
2998.933
 20
-3989.806
 30
2633.458
 70
    32
  0
VERTEX
  8
T26SSILL
 62
2
 10
2985.629
 20
-3970.886
 30
2633.427
 70
    32
  0
SEQEND
  8
T26SSILL
  0
POLYLINE
  8
T26SSILL
 62
2
 66
     1
 70
     9
  0
VERTEX
  8
T26SSILL
 62
2
 10
2976.395
 20
-4202.308
 30
2633.655
 70
    32
  0
VERTEX
  8
T26SSILL
 62
2
 10
2970.332
 20
-4202.967
 30
2633.650
 70
    32
  0
VERTEX
  8
T26SSILL
 62
2
 10
2972.582
 20
-4217.295
 30
2633.655
 70
    32
  0
VERTEX
  8
T26SSILL
 62
2
 10
2981.018
 20
-4215.879
 30
2633.662
 70
    32
  0
VERTEX
  8
T26SSILL
 62
2
 10
2983.923
 20
-4220.094
 30
2633.672
 70
    32
  0
VERTEX
  8
T26SSILL
 62
2
 10
2985.370
 20
-4252.699
 30
2633.739
 70
    32
  0
VERTEX
  8
T26SSILL
 62
2
 10
2990.233
 20
-4276.511
 30
2633.793
 70
    32
  0
VERTEX
  8
T26SSILL
 62
2
 10
2990.237
 20
-4280.114
 30
2633.800
 70
    32
  0
VERTEX
  8
T26SSILL
 62
2
 10
2982.686
 20
-4285.572
 30
2633.803
 70
    32
  0
VERTEX
  8
T26SSILL
 62
2
 10
2985.523
 20
-4305.695
 30
2633.845
 70
    32
  0
VERTEX
  8
T26SSILL
 62
2
 10
3077.240
 20
-4240.301
 30
2633.818
 70
    32
  0
VERTEX
  8
T26SSILL
 62
2
 10
3066.984
 20
-4224.825
 30
2633.776
 70
    32
  0
VERTEX
  8
T26SSILL
 62
2
 10
3057.149
 20
-4231.517
 30
2633.778
 70
    32
  0
VERTEX
  8
T26SSILL
 62
2
 10
3043.779
 20
-4223.008
 30
2633.746
 70
    32
  0
VERTEX
  8
T26SSILL
 62
2
 10
3039.908
 20
-4219.761
 30
2633.735
 70
    32
  0
VERTEX
  8
T26SSILL
 62
2
 10
3033.831
 20
-4209.134
 30
2633.707
 70
    32
  0
VERTEX
  8
T26SSILL
 62
2
 10
3020.107
 20
-4198.428
 30
2633.693
 70
    32
  0
VERTEX
  8
T26SSILL
 62
2
 10
3014.120
 20
-4189.735
 30
2633.686
 70
    32
  0
VERTEX
  8
T26SSILL
 62
2
 10
3004.724
 20
-4196.426
 30
2633.679
 70
    32
  0
VERTEX
  8
T26SSILL
 62
2
 10
3002.082
 20
-4192.298
 30
2633.676
 70
    32
  0
VERTEX
  8
T26SSILL
 62
2
 10
2996.813
 20
-4195.820
 30
2633.672
 70
    32
  0
VERTEX
  8
T26SSILL
 62
2
 10
2993.556
 20
-4191.254
 30
2633.668
 70
    32
  0
VERTEX
  8
T26SSILL
 62
2
 10
2982.139
 20
-4198.475
 30
2633.660
 70
    32
  0
VERTEX
  8
T26SSILL
 62
2
 10
2978.793
 20
-4193.470
 30
2633.656
 70
    32
  0
VERTEX
  8
T26SSILL
 62
2
 10
2975.740
 20
-4195.630
 30
2633.654
 70
    32
  0
SEQEND
  8
T26SSILL
  0
POLYLINE
  8
T26SSILL
 62
2
 66
     1
 70
     9
  0
VERTEX
  8
T26SSILL
 62
2
 10
2867.592
 20
-4117.920
 30
2633.543
 70
    32
  0
VERTEX
  8
T26SSILL
 62
2
 10
2873.037
 20
-4114.345
 30
2633.547
 70
    32
  0
VERTEX
  8
T26SSILL
 62
2
 10
2882.310
 20
-4127.229
 30
2633.558
 70
    32
  0
VERTEX
  8
T26SSILL
 62
2
 10
2937.006
 20
-4089.812
 30
2633.593
 70
    32
  0
VERTEX
  8
T26SSILL
 62
2
 10
2926.178
 20
-4075.500
 30
2633.568
 70
    32
  0
VERTEX
  8
T26SSILL
 62
2
 10
2902.909
 20
-4092.403
 30
2633.569
 70
    32
  0
VERTEX
  8
T26SSILL
 62
2
 10
2888.030
 20
-4071.591
 30
2633.552
 70
    32
  0
VERTEX
  8
T26SSILL
 62
2
 10
2878.809
 20
-4077.491
 30
2633.545
 70
    32
  0
VERTEX
  8
T26SSILL
 62
2
 10
2877.756
 20
-4078.987
 30
2633.544
 70
    32
  0
VERTEX
  8
T26SSILL
 62
2
 10
2878.905
 20
-4084.434
 30
2633.546
 70
    32
  0
VERTEX
  8
T26SSILL
 62
2
 10
2884.643
 20
-4104.818
 30
2633.555
 70
    32
  0
VERTEX
  8
T26SSILL
 62
2
 10
2867.696
 20
-4117.846
 30
2633.543
 70
    32
  0
SEQEND
  8
T26SSILL
  0
POLYLINE
  8
T26SSILL
 62
2
 66
     1
 70
     9
  0
VERTEX
  8
T26SSILL
 62
2
 10
2949.600
 20
-4110.802
 30
2633.613
 70
    32
  0
VERTEX
  8
T26SSILL
 62
2
 10
2910.524
 20
-4138.359
 30
2633.585
 70
    32
  0
VERTEX
  8
T26SSILL
 62
2
 10
2909.828
 20
-4144.425
 30
2633.585
 70
    32
  0
VERTEX
  8
T26SSILL
 62
2
 10
2914.150
 20
-4156.899
 30
2633.592
 70
    32
  0
VERTEX
  8
T26SSILL
 62
2
 10
2914.155
 20
-4161.382
 30
2633.593
 70
    32
  0
VERTEX
  8
T26SSILL
 62
2
 10
2887.197
 20
-4180.311
 30
2633.573
 70
    32
  0
VERTEX
  8
T26SSILL
 62
2
 10
2882.959
 20
-4164.496
 30
2633.566
 70
    32
  0
VERTEX
  8
T26SSILL
 62
2
 10
2882.601
 20
-4159.926
 30
2633.565
 70
    32
  0
VERTEX
  8
T26SSILL
 62
2
 10
2892.699
 20
-4152.356
 30
2633.572
 70
    32
  0
VERTEX
  8
T26SSILL
 62
2
 10
2885.833
 20
-4143.312
 30
2633.564
 70
    32
  0
VERTEX
  8
T26SSILL
 62
2
 10
2894.972
 20
-4136.758
 30
2633.571
 70
    32
  0
VERTEX
  8
T26SSILL
 62
2
 10
2891.051
 20
-4130.965
 30
2633.566
 70
    32
  0
VERTEX
  8
T26SSILL
 62
2
 10
2941.232
 20
-4095.168
 30
2633.602
 70
    32
  0
VERTEX
  8
T26SSILL
 62
2
 10
2948.715
 20
-4105.354
 30
2633.611
 70
    32
  0
SEQEND
  8
T26SSILL
  0
POLYLINE
  8
T26SSILL
 62
2
 66
     1
 70
     9
  0
VERTEX
  8
T26SSILL
 62
2
 10
2925.527
 20
-4260.419
 30
2633.687
 70
    32
  0
VERTEX
  8
T26SSILL
 62
2
 10
2930.909
 20
-4277.023
 30
2633.727
 70
    32
  0
VERTEX
  8
T26SSILL
 62
2
 10
2938.036
 20
-4284.221
 30
2633.749
 70
    32
  0
VERTEX
  8
T26SSILL
 62
2
 10
2943.046
 20
-4284.303
 30
2633.755
 70
    32
  0
VERTEX
  8
T26SSILL
 62
2
 10
2948.053
 20
-4282.012
 30
2633.756
 70
    32
  0
VERTEX
  8
T26SSILL
 62
2
 10
2957.271
 20
-4273.387
 30
2633.749
 70
    32
  0
VERTEX
  8
T26SSILL
 62
2
 10
2958.673
 20
-4270.397
 30
2633.745
 70
    32
  0
VERTEX
  8
T26SSILL
 62
2
 10
2958.397
 20
-4259.939
 30
2633.723
 70
    32
  0
VERTEX
  8
T26SSILL
 62
2
 10
2952.037
 20
-4233.668
 30
2633.663
 70
    32
  0
VERTEX
  8
T26SSILL
 62
2
 10
2966.701
 20
-4222.839
 30
2633.658
 70
    32
  0
VERTEX
  8
T26SSILL
 62
2
 10
2963.865
 20
-4203.595
 30
2633.645
 70
    32
  0
VERTEX
  8
T26SSILL
 62
2
 10
2903.273
 20
-4245.681
 30
2633.632
 70
    32
  0
VERTEX
  8
T26SSILL
 62
2
 10
2917.529
 20
-4260.253
 30
2633.678
 70
    32
  0
SEQEND
  8
T26SSILL
  0
POLYLINE
  8
T26SSILL
 62
2
 66
     1
 70
     9
  0
VERTEX
  8
T26SSILL
 62
2
 10
2927.552
 20
-4191.863
 30
2633.611
 70
    32
  0
VERTEX
  8
T26SSILL
 62
2
 10
2921.565
 20
-4183.521
 30
2633.604
 70
    32
  0
VERTEX
  8
T26SSILL
 62
2
 10
2915.834
 20
-4168.323
 30
2633.596
 70
    32
  0
VERTEX
  8
T26SSILL
 62
2
 10
2889.051
 20
-4187.252
 30
2633.576
 70
    32
  0
VERTEX
  8
T26SSILL
 62
2
 10
2890.909
 20
-4197.181
 30
2633.580
 70
    32
  0
VERTEX
  8
T26SSILL
 62
2
 10
2898.308
 20
-4210.619
 30
2633.589
 70
    32
  0
VERTEX
  8
T26SSILL
 62
2
 10
2899.194
 20
-4216.594
 30
2633.591
 70
    32
  0
VERTEX
  8
T26SSILL
 62
2
 10
2886.376
 20
-4227.333
 30
2633.582
 70
    32
  0
VERTEX
  8
T26SSILL
 62
2
 10
2898.520
 20
-4240.413
 30
2633.616
 70
    32
  0
VERTEX
  8
T26SSILL
 62
2
 10
2962.624
 20
-4195.687
 30
2633.642
 70
    32
  0
VERTEX
  8
T26SSILL
 62
2
 10
2959.527
 20
-4178.289
 30
2633.636
 70
    32
  0
VERTEX
  8
T26SSILL
 62
2
 10
2932.832
 20
-4197.217
 30
2633.616
 70
    32
  0
SEQEND
  8
T26SSILL
  0
POLYLINE
  8
T26SSILL
 62
2
 66
     1
 70
     9
  0
VERTEX
  8
T26SSILL
 62
2
 10
2866.115
 20
-4047.097
 30
2633.511
 70
    32
  0
VERTEX
  8
T26SSILL
 62
2
 10
2879.854
 20
-4069.756
 30
2633.544
 70
    32
  0
VERTEX
  8
T26SSILL
 62
2
 10
2887.669
 20
-4064.297
 30
2633.542
 70
    32
  0
VERTEX
  8
T26SSILL
 62
2
 10
2876.649
 20
-4036.362
 30
2633.497
 70
    32
  0
VERTEX
  8
T26SSILL
 62
2
 10
2893.334
 20
-4025.180
 30
2633.485
 70
    32
  0
VERTEX
  8
T26SSILL
 62
2
 10
2892.277
 20
-4023.775
 30
2633.482
 70
    32
  0
VERTEX
  8
T26SSILL
 62
2
 10
2888.237
 20
-4026.153
 30
2633.485
 70
    32
  0
VERTEX
  8
T26SSILL
 62
2
 10
2882.075
 20
-4017.635
 30
2633.471
 70
    32
  0
VERTEX
  8
T26SSILL
 62
2
 10
2855.029
 20
-4037.267
 30
2633.493
 70
    32
  0
VERTEX
  8
T26SSILL
 62
2
 10
2862.511
 20
-4046.575
 30
2633.509
 70
    32
  0
SEQEND
  8
T26SSILL
  0
POLYLINE
  8
T26SSILL
 62
2
 66
     1
 70
     9
  0
VERTEX
  8
T26SSILL
 62
2
 10
-443.325
 20
-3509.917
 30
2638.540
 70
    32
  0
VERTEX
  8
T26SSILL
 62
2
 10
-407.178
 20
-3543.819
 30
2638.314
 70
    32
  0
VERTEX
  8
T26SSILL
 62
2
 10
-409.039
 20
-3534.822
 30
2638.283
 70
    32
  0
VERTEX
  8
T26SSILL
 62
2
 10
-409.182
 20
-3523.017
 30
2638.226
 70
    32
  0
VERTEX
  8
T26SSILL
 62
2
 10
-406.820
 20
-3513.012
 30
2638.158
 70
    32
  0
VERTEX
  8
T26SSILL
 62
2
 10
-403.385
 20
-3505.310
 30
2638.093
 70
    32
  0
VERTEX
  8
T26SSILL
 62
2
 10
-423.140
 20
-3511.716
 30
2638.279
 70
    32
  0
VERTEX
  8
T26SSILL
 62
2
 10
-435.045
 20
-3511.238
 30
2638.501
 70
    32
  0
SEQEND
  8
T26SSILL
  0
TEXT
  8
T26SSILL
 62
2
 10
1565.103
 20
-1784.647
 30
2643.877
 40
0.200
  1
2600
 50
-54.039
 41
 1.0 
  0
ENDSEC
  0
EOF
