999
********************************
999
*   DXF File - Entities Only   *
999
*        3D Data Format        *
999
*     Output from ENVISAGE     *
999
*     20-Dec-2007 09:21:53     *
999
********************************
  0
SECTION 
  2
HEADER
  9
$ACADVER
  1
AC1009
  9
$EXTMIN
 10
-290000.000
 20
-250000.000
 30
-4000.000
  9
$EXTMAX
 10
5000000.000
 20
600000.000
 30
6000.000
  0
ENDSEC
  0
SECTION
  2
ENTITIES
  0
POLYLINE
  8
T27SSILL
 62
3
 66
     1
 70
     9
  0
VERTEX
  8
T27SSILL
 62
3
 10
3007.727
 20
-3843.869
 30
2483.646
 70
    32
  0
VERTEX
  8
T27SSILL
 62
3
 10
2999.100
 20
-3831.966
 30
2483.640
 70
    32
  0
SEQEND
  8
T27SSILL
  0
POLYLINE
  8
T27SSILL
 62
3
 66
     1
 70
     9
  0
VERTEX
  8
T27SSILL
 62
3
 10
3929.703
 20
-2505.816
 30
2483.790
 70
    32
  0
VERTEX
  8
T27SSILL
 62
3
 10
3937.758
 20
-2562.331
 30
2483.822
 70
    32
  0
VERTEX
  8
T27SSILL
 62
3
 10
3980.074
 20
-2528.730
 30
2483.818
 70
    32
  0
VERTEX
  8
T27SSILL
 62
3
 10
3958.152
 20
-2497.821
 30
2483.795
 70
    32
  0
SEQEND
  8
T27SSILL
  0
POLYLINE
  8
T27SSILL
 62
3
 66
     1
 70
     9
  0
VERTEX
  8
T27SSILL
 62
3
 10
3036.602
 20
-4048.132
 30
2483.697
 70
    32
  0
VERTEX
  8
T27SSILL
 62
3
 10
3050.794
 20
-4037.546
 30
2483.691
 70
    32
  0
VERTEX
  8
T27SSILL
 62
3
 10
3029.231
 20
-4037.476
 30
2483.697
 70
    32
  0
SEQEND
  8
T27SSILL
  0
POLYLINE
  8
T27SSILL
 62
3
 66
     1
 70
     9
  0
VERTEX
  8
T27SSILL
 62
3
 10
3100.464
 20
-4254.897
 30
2483.746
 70
    32
  0
VERTEX
  8
T27SSILL
 62
3
 10
3138.933
 20
-4228.192
 30
2483.796
 70
    32
  0
VERTEX
  8
T27SSILL
 62
3
 10
3132.184
 20
-4217.273
 30
2483.788
 70
    32
  0
VERTEX
  8
T27SSILL
 62
3
 10
3112.984
 20
-4231.420
 30
2483.762
 70
    32
  0
VERTEX
  8
T27SSILL
 62
3
 10
3109.604
 20
-4226.445
 30
2483.758
 70
    32
  0
VERTEX
  8
T27SSILL
 62
3
 10
3090.059
 20
-4239.971
 30
2483.732
 70
    32
  0
SEQEND
  8
T27SSILL
  0
POLYLINE
  8
T27SSILL
 62
3
 66
     1
 70
     9
  0
VERTEX
  8
T27SSILL
 62
3
 10
236.425
 20
-2959.461
 30
2483.553
 70
    32
  0
VERTEX
  8
T27SSILL
 62
3
 10
240.076
 20
-2963.771
 30
2483.553
 70
    32
  0
VERTEX
  8
T27SSILL
 62
3
 10
223.826
 20
-2975.224
 30
2483.570
 70
    32
  0
VERTEX
  8
T27SSILL
 62
3
 10
230.370
 20
-2983.882
 30
2483.571
 70
    32
  0
VERTEX
  8
T27SSILL
 62
3
 10
225.650
 20
-2986.733
 30
2483.575
 70
    32
  0
VERTEX
  8
T27SSILL
 62
3
 10
218.062
 20
-2976.762
 30
2483.574
 70
    32
  0
VERTEX
  8
T27SSILL
 62
3
 10
175.825
 20
-3006.843
 30
2483.619
 70
    32
  0
VERTEX
  8
T27SSILL
 62
3
 10
174.290
 20
-3004.345
 30
2483.618
 70
    32
  0
VERTEX
  8
T27SSILL
 62
3
 10
219.069
 20
-2971.792
 30
2483.571
 70
    32
  0
SEQEND
  8
T27SSILL
  0
POLYLINE
  8
T27SSILL
 62
3
 66
     1
 70
     9
  0
VERTEX
  8
T27SSILL
 62
3
 10
862.148
 20
-3040.635
 30
2483.135
 70
    32
  0
VERTEX
  8
T27SSILL
 62
3
 10
852.026
 20
-3048.710
 30
2483.148
 70
    32
  0
VERTEX
  8
T27SSILL
 62
3
 10
859.191
 20
-3047.973
 30
2483.139
 70
    32
  0
VERTEX
  8
T27SSILL
 62
3
 10
870.822
 20
-3050.238
 30
2483.113
 70
    32
  0
SEQEND
  8
T27SSILL
  0
POLYLINE
  8
T27SSILL
 62
3
 66
     1
 70
     9
  0
VERTEX
  8
T27SSILL
 62
3
 10
2282.644
 20
-3023.711
 30
2483.114
 70
    32
  0
VERTEX
  8
T27SSILL
 62
3
 10
2258.669
 20
-2986.533
 30
2483.093
 70
    32
  0
VERTEX
  8
T27SSILL
 62
3
 10
1967.341
 20
-2778.214
 30
2482.857
 70
    32
  0
VERTEX
  8
T27SSILL
 62
3
 10
1956.739
 20
-2768.668
 30
2482.849
 70
    32
  0
VERTEX
  8
T27SSILL
 62
3
 10
1931.335
 20
-2750.811
 30
2482.828
 70
    32
  0
VERTEX
  8
T27SSILL
 62
3
 10
1936.639
 20
-2743.561
 30
2482.831
 70
    32
  0
VERTEX
  8
T27SSILL
 62
3
 10
1931.583
 20
-2693.376
 30
2482.811
 70
    32
  0
VERTEX
  8
T27SSILL
 62
3
 10
1918.595
 20
-2675.338
 30
2482.813
 70
    32
  0
VERTEX
  8
T27SSILL
 62
3
 10
1913.481
 20
-2679.148
 30
2482.808
 70
    32
  0
VERTEX
  8
T27SSILL
 62
3
 10
1906.935
 20
-2669.778
 30
2482.809
 70
    32
  0
VERTEX
  8
T27SSILL
 62
3
 10
1863.585
 20
-2701.550
 30
2482.773
 70
    32
  0
VERTEX
  8
T27SSILL
 62
3
 10
1781.344
 20
-2642.122
 30
2482.880
 70
    32
  0
VERTEX
  8
T27SSILL
 62
3
 10
1771.279
 20
-2636.968
 30
2482.897
 70
    32
  0
VERTEX
  8
T27SSILL
 62
3
 10
1611.311
 20
-2519.070
 30
2482.889
 70
    32
  0
VERTEX
  8
T27SSILL
 62
3
 10
1603.927
 20
-2515.708
 30
2482.893
 70
    32
  0
VERTEX
  8
T27SSILL
 62
3
 10
1587.876
 20
-2514.824
 30
2482.903
 70
    32
  0
VERTEX
  8
T27SSILL
 62
3
 10
1578.163
 20
-2517.766
 30
2482.909
 70
    32
  0
VERTEX
  8
T27SSILL
 62
3
 10
1572.435
 20
-2521.678
 30
2482.913
 70
    32
  0
VERTEX
  8
T27SSILL
 62
3
 10
863.629
 20
-3029.361
 30
2483.144
 70
    32
  0
VERTEX
  8
T27SSILL
 62
3
 10
664.423
 20
-2800.140
 30
2483.075
 70
    32
  0
VERTEX
  8
T27SSILL
 62
3
 10
518.759
 20
-2634.175
 30
2483.213
 70
    32
  0
VERTEX
  8
T27SSILL
 62
3
 10
511.863
 20
-2628.051
 30
2483.217
 70
    32
  0
VERTEX
  8
T27SSILL
 62
3
 10
503.455
 20
-2624.704
 30
2483.222
 70
    32
  0
VERTEX
  8
T27SSILL
 62
3
 10
110.358
 20
-2560.011
 30
2483.427
 70
    32
  0
VERTEX
  8
T27SSILL
 62
3
 10
95.897
 20
-2558.547
 30
2483.430
 70
    32
  0
VERTEX
  8
T27SSILL
 62
3
 10
85.284
 20
-2560.222
 30
2483.434
 70
    32
  0
VERTEX
  8
T27SSILL
 62
3
 10
1.171
 20
-2620.683
 30
2483.496
 70
    32
  0
VERTEX
  8
T27SSILL
 62
3
 10
5.559
 20
-2626.490
 30
2483.498
 70
    32
  0
VERTEX
  8
T27SSILL
 62
3
 10
82.881
 20
-2570.809
 30
2483.441
 70
    32
  0
VERTEX
  8
T27SSILL
 62
3
 10
83.439
 20
-2573.070
 30
2483.442
 70
    32
  0
VERTEX
  8
T27SSILL
 62
3
 10
77.548
 20
-2602.093
 30
2483.463
 70
    32
  0
VERTEX
  8
T27SSILL
 62
3
 10
106.902
 20
-2643.556
 30
2483.481
 70
    32
  0
VERTEX
  8
T27SSILL
 62
3
 10
118.847
 20
-2647.809
 30
2483.481
 70
    32
  0
VERTEX
  8
T27SSILL
 62
3
 10
119.302
 20
-2652.067
 30
2483.483
 70
    32
  0
VERTEX
  8
T27SSILL
 62
3
 10
4.102
 20
-2735.605
 30
2483.569
 70
    32
  0
VERTEX
  8
T27SSILL
 62
3
 10
8.473
 20
-2741.565
 30
2483.571
 70
    32
  0
VERTEX
  8
T27SSILL
 62
3
 10
218.605
 20
-2590.147
 30
2483.417
 70
    32
  0
VERTEX
  8
T27SSILL
 62
3
 10
230.284
 20
-2586.836
 30
2483.411
 70
    32
  0
VERTEX
  8
T27SSILL
 62
3
 10
345.797
 20
-2606.124
 30
2483.337
 70
    32
  0
VERTEX
  8
T27SSILL
 62
3
 10
257.814
 20
-2669.527
 30
2483.415
 70
    32
  0
VERTEX
  8
T27SSILL
 62
3
 10
201.388
 20
-2659.501
 30
2483.455
 70
    32
  0
VERTEX
  8
T27SSILL
 62
3
 10
138.350
 20
-2705.495
 30
2483.511
 70
    32
  0
VERTEX
  8
T27SSILL
 62
3
 10
143.347
 20
-2711.351
 30
2483.508
 70
    32
  0
VERTEX
  8
T27SSILL
 62
3
 10
203.318
 20
-2667.883
 30
2483.455
 70
    32
  0
VERTEX
  8
T27SSILL
 62
3
 10
248.936
 20
-2675.795
 30
2483.423
 70
    32
  0
VERTEX
  8
T27SSILL
 62
3
 10
225.036
 20
-2692.652
 30
2483.444
 70
    32
  0
VERTEX
  8
T27SSILL
 62
3
 10
204.845
 20
-2690.785
 30
2483.458
 70
    32
  0
VERTEX
  8
T27SSILL
 62
3
 10
197.485
 20
-2696.410
 30
2483.465
 70
    32
  0
VERTEX
  8
T27SSILL
 62
3
 10
200.622
 20
-2710.706
 30
2483.465
 70
    32
  0
VERTEX
  8
T27SSILL
 62
3
 10
114.865
 20
-2771.663
 30
2483.541
 70
    32
  0
VERTEX
  8
T27SSILL
 62
3
 10
110.081
 20
-2772.875
 30
2483.545
 70
    32
  0
VERTEX
  8
T27SSILL
 62
3
 10
101.472
 20
-2772.393
 30
2483.551
 70
    32
  0
VERTEX
  8
T27SSILL
 62
3
 10
94.248
 20
-2769.684
 30
2483.556
 70
    32
  0
VERTEX
  8
T27SSILL
 62
3
 10
88.721
 20
-2765.851
 30
2483.560
 70
    32
  0
VERTEX
  8
T27SSILL
 62
3
 10
57.567
 20
-2723.115
 30
2483.546
 70
    32
  0
VERTEX
  8
T27SSILL
 62
3
 10
51.559
 20
-2727.890
 30
2483.551
 70
    32
  0
VERTEX
  8
T27SSILL
 62
3
 10
80.806
 20
-2768.086
 30
2483.566
 70
    32
  0
VERTEX
  8
T27SSILL
 62
3
 10
90.260
 20
-2776.009
 30
2483.560
 70
    32
  0
VERTEX
  8
T27SSILL
 62
3
 10
103.611
 20
-2780.046
 30
2483.551
 70
    32
  0
VERTEX
  8
T27SSILL
 62
3
 10
-53.494
 20
-2893.436
 30
2483.686
 70
    32
  0
VERTEX
  8
T27SSILL
 62
3
 10
-60.539
 20
-2899.599
 30
2483.692
 70
    32
  0
VERTEX
  8
T27SSILL
 62
3
 10
-66.111
 20
-2910.452
 30
2483.700
 70
    32
  0
VERTEX
  8
T27SSILL
 62
3
 10
-67.025
 20
-2920.644
 30
2483.702
 70
    32
  0
VERTEX
  8
T27SSILL
 62
3
 10
-64.806
 20
-2929.247
 30
2483.705
 70
    32
  0
VERTEX
  8
T27SSILL
 62
3
 10
79.502
 20
-3226.751
 30
2483.746
 70
    32
  0
VERTEX
  8
T27SSILL
 62
3
 10
429.626
 20
-3713.142
 30
2483.248
 70
    32
  0
VERTEX
  8
T27SSILL
 62
3
 10
440.484
 20
-3721.414
 30
2483.241
 70
    32
  0
VERTEX
  8
T27SSILL
 62
3
 10
454.281
 20
-3728.139
 30
2483.233
 70
    32
  0
VERTEX
  8
T27SSILL
 62
3
 10
472.761
 20
-3730.690
 30
2483.224
 70
    32
  0
VERTEX
  8
T27SSILL
 62
3
 10
482.396
 20
-3729.342
 30
2483.220
 70
    32
  0
VERTEX
  8
T27SSILL
 62
3
 10
492.657
 20
-3725.806
 30
2483.217
 70
    32
  0
VERTEX
  8
T27SSILL
 62
3
 10
742.281
 20
-3547.826
 30
2482.949
 70
    32
  0
VERTEX
  8
T27SSILL
 62
3
 10
745.037
 20
-3546.896
 30
2482.947
 70
    32
  0
VERTEX
  8
T27SSILL
 62
3
 10
1053.455
 20
-3325.253
 30
2482.980
 70
    32
  0
VERTEX
  8
T27SSILL
 62
3
 10
1062.313
 20
-3319.775
 30
2482.963
 70
    32
  0
VERTEX
  8
T27SSILL
 62
3
 10
1073.657
 20
-3317.025
 30
2482.947
 70
    32
  0
VERTEX
  8
T27SSILL
 62
3
 10
1087.487
 20
-3317.006
 30
2482.932
 70
    32
  0
VERTEX
  8
T27SSILL
 62
3
 10
1096.679
 20
-3319.150
 30
2482.925
 70
    32
  0
VERTEX
  8
T27SSILL
 62
3
 10
1104.788
 20
-3323.398
 30
2482.922
 70
    32
  0
VERTEX
  8
T27SSILL
 62
3
 10
1113.244
 20
-3329.788
 30
2482.922
 70
    32
  0
VERTEX
  8
T27SSILL
 62
3
 10
1262.190
 20
-3500.705
 30
2482.955
 70
    32
  0
VERTEX
  8
T27SSILL
 62
3
 10
1252.783
 20
-3500.726
 30
2482.908
 70
    32
  0
VERTEX
  8
T27SSILL
 62
3
 10
1238.784
 20
-3505.779
 30
2482.818
 70
    32
  0
VERTEX
  8
T27SSILL
 62
3
 10
1100.851
 20
-3604.636
 30
2482.467
 70
    32
  0
VERTEX
  8
T27SSILL
 62
3
 10
1105.007
 20
-3611.239
 30
2482.450
 70
    32
  0
VERTEX
  8
T27SSILL
 62
3
 10
1243.756
 20
-3511.238
 30
2482.821
 70
    32
  0
VERTEX
  8
T27SSILL
 62
3
 10
1256.879
 20
-3507.992
 30
2482.899
 70
    32
  0
VERTEX
  8
T27SSILL
 62
3
 10
1264.867
 20
-3509.553
 30
2482.932
 70
    32
  0
VERTEX
  8
T27SSILL
 62
3
 10
1269.969
 20
-3513.152
 30
2482.943
 70
    32
  0
VERTEX
  8
T27SSILL
 62
3
 10
1361.329
 20
-3616.177
 30
2482.984
 70
    32
  0
VERTEX
  8
T27SSILL
 62
3
 10
1350.940
 20
-3615.695
 30
2482.935
 70
    32
  0
VERTEX
  8
T27SSILL
 62
3
 10
1336.534
 20
-3619.856
 30
2482.846
 70
    32
  0
VERTEX
  8
T27SSILL
 62
3
 10
1286.279
 20
-3655.759
 30
2482.452
 70
    32
  0
VERTEX
  8
T27SSILL
 62
3
 10
1275.584
 20
-3656.678
 30
2482.395
 70
    32
  0
VERTEX
  8
T27SSILL
 62
3
 10
1272.910
 20
-3654.660
 30
2482.390
 70
    32
  0
VERTEX
  8
T27SSILL
 62
3
 10
1266.661
 20
-3645.306
 30
2482.397
 70
    32
  0
VERTEX
  8
T27SSILL
 62
3
 10
1255.724
 20
-3651.421
 30
2482.318
 70
    32
  0
VERTEX
  8
T27SSILL
 62
3
 10
1261.497
 20
-3658.997
 30
2482.316
 70
    32
  0
VERTEX
  8
T27SSILL
 62
3
 10
1261.421
 20
-3673.542
 30
2482.257
 70
    32
  0
VERTEX
  8
T27SSILL
 62
3
 10
1228.435
 20
-3697.875
 30
2482.202
 70
    32
  0
VERTEX
  8
T27SSILL
 62
3
 10
1237.318
 20
-3709.965
 30
2482.171
 70
    32
  0
VERTEX
  8
T27SSILL
 62
3
 10
1241.834
 20
-3706.217
 30
2482.178
 70
    32
  0
VERTEX
  8
T27SSILL
 62
3
 10
1238.666
 20
-3700.733
 30
2482.191
 70
    32
  0
VERTEX
  8
T27SSILL
 62
3
 10
1269.753
 20
-3678.020
 30
2482.281
 70
    32
  0
VERTEX
  8
T27SSILL
 62
3
 10
1268.626
 20
-3689.360
 30
2482.230
 70
    32
  0
VERTEX
  8
T27SSILL
 62
3
 10
1287.914
 20
-3791.850
 30
2481.962
 70
    32
  0
VERTEX
  8
T27SSILL
 62
3
 10
1292.188
 20
-3832.357
 30
2481.904
 70
    32
  0
VERTEX
  8
T27SSILL
 62
3
 10
1290.814
 20
-3846.071
 30
2481.924
 70
    32
  0
VERTEX
  8
T27SSILL
 62
3
 10
1288.534
 20
-3851.646
 30
2481.935
 70
    32
  0
VERTEX
  8
T27SSILL
 62
3
 10
1286.456
 20
-3853.348
 30
2481.941
 70
    32
  0
VERTEX
  8
T27SSILL
 62
3
 10
1293.979
 20
-3873.319
 30
2481.952
 70
    32
  0
VERTEX
  8
T27SSILL
 62
3
 10
1295.372
 20
-3897.871
 30
2481.980
 70
    32
  0
VERTEX
  8
T27SSILL
 62
3
 10
1304.230
 20
-3914.443
 30
2481.985
 70
    32
  0
VERTEX
  8
T27SSILL
 62
3
 10
1304.025
 20
-3927.398
 30
2482.001
 70
    32
  0
VERTEX
  8
T27SSILL
 62
3
 10
1306.310
 20
-3930.639
 30
2482.001
 70
    32
  0
VERTEX
  8
T27SSILL
 62
3
 10
1307.561
 20
-3942.049
 30
2482.013
 70
    32
  0
VERTEX
  8
T27SSILL
 62
3
 10
1312.986
 20
-3955.434
 30
2482.041
 70
    32
  0
VERTEX
  8
T27SSILL
 62
3
 10
1325.240
 20
-3976.427
 30
2482.099
 70
    32
  0
VERTEX
  8
T27SSILL
 62
3
 10
1334.894
 20
-3974.948
 30
2482.123
 70
    32
  0
VERTEX
  8
T27SSILL
 62
3
 10
1388.365
 20
-4048.379
 30
2482.356
 70
    32
  0
VERTEX
  8
T27SSILL
 62
3
 10
1415.199
 20
-4077.295
 30
2482.464
 70
    32
  0
VERTEX
  8
T27SSILL
 62
3
 10
1410.579
 20
-4084.477
 30
2482.460
 70
    32
  0
VERTEX
  8
T27SSILL
 62
3
 10
1410.472
 20
-4091.086
 30
2482.468
 70
    32
  0
VERTEX
  8
T27SSILL
 62
3
 10
1419.442
 20
-4094.877
 30
2482.497
 70
    32
  0
VERTEX
  8
T27SSILL
 62
3
 10
1422.699
 20
-4095.061
 30
2482.506
 70
    32
  0
VERTEX
  8
T27SSILL
 62
3
 10
1426.420
 20
-4088.470
 30
2482.507
 70
    32
  0
VERTEX
  8
T27SSILL
 62
3
 10
1478.089
 20
-4142.275
 30
2482.663
 70
    32
  0
VERTEX
  8
T27SSILL
 62
3
 10
1474.845
 20
-4144.648
 30
2482.660
 70
    32
  0
VERTEX
  8
T27SSILL
 62
3
 10
1467.859
 20
-4154.317
 30
2482.657
 70
    32
  0
VERTEX
  8
T27SSILL
 62
3
 10
1465.791
 20
-4164.660
 30
2482.660
 70
    32
  0
VERTEX
  8
T27SSILL
 62
3
 10
1470.493
 20
-4178.641
 30
2482.674
 70
    32
  0
VERTEX
  8
T27SSILL
 62
3
 10
1472.923
 20
-4182.944
 30
2482.680
 70
    32
  0
VERTEX
  8
T27SSILL
 62
3
 10
1480.608
 20
-4191.459
 30
2482.694
 70
    32
  0
VERTEX
  8
T27SSILL
 62
3
 10
1505.511
 20
-4211.060
 30
2482.737
 70
    32
  0
VERTEX
  8
T27SSILL
 62
3
 10
1512.330
 20
-4219.019
 30
2482.750
 70
    32
  0
VERTEX
  8
T27SSILL
 62
3
 10
1529.567
 20
-4226.492
 30
2482.775
 70
    32
  0
VERTEX
  8
T27SSILL
 62
3
 10
1532.635
 20
-4227.112
 30
2482.780
 70
    32
  0
VERTEX
  8
T27SSILL
 62
3
 10
1534.964
 20
-4225.858
 30
2482.782
 70
    32
  0
VERTEX
  8
T27SSILL
 62
3
 10
1538.257
 20
-4221.811
 30
2482.784
 70
    32
  0
VERTEX
  8
T27SSILL
 62
3
 10
1539.154
 20
-4218.310
 30
2482.783
 70
    32
  0
VERTEX
  8
T27SSILL
 62
3
 10
1538.566
 20
-4214.326
 30
2482.780
 70
    32
  0
VERTEX
  8
T27SSILL
 62
3
 10
1530.726
 20
-4205.102
 30
2482.765
 70
    32
  0
VERTEX
  8
T27SSILL
 62
3
 10
1521.041
 20
-4198.645
 30
2482.749
 70
    32
  0
VERTEX
  8
T27SSILL
 62
3
 10
1520.386
 20
-4190.955
 30
2482.743
 70
    32
  0
VERTEX
  8
T27SSILL
 62
3
 10
1525.975
 20
-4189.797
 30
2482.750
 70
    32
  0
VERTEX
  8
T27SSILL
 62
3
 10
1563.154
 20
-4214.697
 30
2482.810
 70
    32
  0
VERTEX
  8
T27SSILL
 62
3
 10
1558.982
 20
-4227.623
 30
2482.813
 70
    32
  0
VERTEX
  8
T27SSILL
 62
3
 10
1554.528
 20
-4235.162
 30
2482.811
 70
    32
  0
VERTEX
  8
T27SSILL
 62
3
 10
1556.326
 20
-4239.976
 30
2482.817
 70
    32
  0
VERTEX
  8
T27SSILL
 62
3
 10
1557.689
 20
-4241.604
 30
2482.819
 70
    32
  0
VERTEX
  8
T27SSILL
 62
3
 10
1568.866
 20
-4245.283
 30
2482.835
 70
    32
  0
VERTEX
  8
T27SSILL
 62
3
 10
1575.708
 20
-4249.452
 30
2482.846
 70
    32
  0
VERTEX
  8
T27SSILL
 62
3
 10
1578.167
 20
-4252.787
 30
2482.851
 70
    32
  0
VERTEX
  8
T27SSILL
 62
3
 10
1574.071
 20
-4257.163
 30
2482.849
 70
    32
  0
VERTEX
  8
T27SSILL
 62
3
 10
1554.384
 20
-4260.991
 30
2482.826
 70
    32
  0
VERTEX
  8
T27SSILL
 62
3
 10
1555.242
 20
-4267.806
 30
2482.831
 70
    32
  0
VERTEX
  8
T27SSILL
 62
3
 10
1616.691
 20
-4255.949
 30
2482.901
 70
    32
  0
VERTEX
  8
T27SSILL
 62
3
 10
1625.713
 20
-4257.978
 30
2482.913
 70
    32
  0
VERTEX
  8
T27SSILL
 62
3
 10
1643.142
 20
-4270.923
 30
2482.921
 70
    32
  0
VERTEX
  8
T27SSILL
 62
3
 10
1647.194
 20
-4277.038
 30
2482.922
 70
    32
  0
VERTEX
  8
T27SSILL
 62
3
 10
1646.357
 20
-4281.510
 30
2482.919
 70
    32
  0
VERTEX
  8
T27SSILL
 62
3
 10
1644.590
 20
-4281.634
 30
2482.918
 70
    32
  0
VERTEX
  8
T27SSILL
 62
3
 10
1662.640
 20
-4294.421
 30
2482.926
 70
    32
  0
VERTEX
  8
T27SSILL
 62
3
 10
1666.402
 20
-4298.411
 30
2482.927
 70
    32
  0
VERTEX
  8
T27SSILL
 62
3
 10
1667.848
 20
-4300.217
 30
2482.927
 70
    32
  0
VERTEX
  8
T27SSILL
 62
3
 10
1666.140
 20
-4304.311
 30
2482.924
 70
    32
  0
VERTEX
  8
T27SSILL
 62
3
 10
1667.412
 20
-4306.023
 30
2482.925
 70
    32
  0
VERTEX
  8
T27SSILL
 62
3
 10
1681.325
 20
-4315.602
 30
2482.931
 70
    32
  0
VERTEX
  8
T27SSILL
 62
3
 10
1685.369
 20
-4321.981
 30
2482.931
 70
    32
  0
VERTEX
  8
T27SSILL
 62
3
 10
1692.499
 20
-4325.365
 30
2482.935
 70
    32
  0
VERTEX
  8
T27SSILL
 62
3
 10
1695.572
 20
-4328.806
 30
2482.936
 70
    32
  0
VERTEX
  8
T27SSILL
 62
3
 10
1699.748
 20
-4336.688
 30
2482.936
 70
    32
  0
VERTEX
  8
T27SSILL
 62
3
 10
1703.103
 20
-4348.513
 30
2482.933
 70
    32
  0
VERTEX
  8
T27SSILL
 62
3
 10
1709.964
 20
-4355.063
 30
2482.936
 70
    32
  0
VERTEX
  8
T27SSILL
 62
3
 10
1708.808
 20
-4358.380
 30
2482.934
 70
    32
  0
VERTEX
  8
T27SSILL
 62
3
 10
1710.720
 20
-4362.315
 30
2482.933
 70
    32
  0
VERTEX
  8
T27SSILL
 62
3
 10
1727.576
 20
-4385.735
 30
2482.936
 70
    32
  0
VERTEX
  8
T27SSILL
 62
3
 10
1746.295
 20
-4378.792
 30
2482.952
 70
    32
  0
VERTEX
  8
T27SSILL
 62
3
 10
1748.567
 20
-4385.472
 30
2482.951
 70
    32
  0
VERTEX
  8
T27SSILL
 62
3
 10
1675.842
 20
-4437.627
 30
2482.879
 70
    32
  0
VERTEX
  8
T27SSILL
 62
3
 10
1680.290
 20
-4443.914
 30
2482.880
 70
    32
  0
VERTEX
  8
T27SSILL
 62
3
 10
1724.130
 20
-4413.090
 30
2482.923
 70
    32
  0
VERTEX
  8
T27SSILL
 62
3
 10
1735.207
 20
-4425.988
 30
2482.926
 70
    32
  0
VERTEX
  8
T27SSILL
 62
3
 10
1745.990
 20
-4452.051
 30
2482.923
 70
    32
  0
VERTEX
  8
T27SSILL
 62
3
 10
1750.063
 20
-4450.215
 30
2482.927
 70
    32
  0
VERTEX
  8
T27SSILL
 62
3
 10
1752.042
 20
-4456.108
 30
2482.926
 70
    32
  0
VERTEX
  8
T27SSILL
 62
3
 10
1756.131
 20
-4472.575
 30
2482.923
 70
    32
  0
VERTEX
  8
T27SSILL
 62
3
 10
1750.247
 20
-4495.412
 30
2482.909
 70
    32
  0
VERTEX
  8
T27SSILL
 62
3
 10
1751.191
 20
-4500.072
 30
2482.908
 70
    32
  0
VERTEX
  8
T27SSILL
 62
3
 10
1759.040
 20
-4513.369
 30
2482.909
 70
    32
  0
VERTEX
  8
T27SSILL
 62
3
 10
1769.978
 20
-4526.888
 30
2482.911
 70
    32
  0
VERTEX
  8
T27SSILL
 62
3
 10
1773.371
 20
-4530.105
 30
2482.912
 70
    32
  0
VERTEX
  8
T27SSILL
 62
3
 10
1779.943
 20
-4533.632
 30
2482.916
 70
    32
  0
VERTEX
  8
T27SSILL
 62
3
 10
1796.206
 20
-4549.813
 30
2482.921
 70
    32
  0
VERTEX
  8
T27SSILL
 62
3
 10
1800.530
 20
-4556.632
 30
2482.921
 70
    32
  0
VERTEX
  8
T27SSILL
 62
3
 10
1814.463
 20
-4570.023
 30
2482.926
 70
    32
  0
VERTEX
  8
T27SSILL
 62
3
 10
1817.608
 20
-4567.865
 30
2482.929
 70
    32
  0
VERTEX
  8
T27SSILL
 62
3
 10
1921.676
 20
-4632.874
 30
2482.969
 70
    32
  0
VERTEX
  8
T27SSILL
 62
3
 10
1925.766
 20
-4626.439
 30
2482.967
 70
    32
  0
VERTEX
  8
T27SSILL
 62
3
 10
1921.526
 20
-4624.663
 30
2482.970
 70
    32
  0
VERTEX
  8
T27SSILL
 62
3
 10
1928.766
 20
-4618.835
 30
2482.967
 70
    32
  0
VERTEX
  8
T27SSILL
 62
3
 10
1924.993
 20
-4613.596
 30
2482.970
 70
    32
  0
VERTEX
  8
T27SSILL
 62
3
 10
1916.091
 20
-4620.416
 30
2482.974
 70
    32
  0
VERTEX
  8
T27SSILL
 62
3
 10
1807.079
 20
-4551.871
 30
2482.928
 70
    32
  0
VERTEX
  8
T27SSILL
 62
3
 10
1810.937
 20
-4550.321
 30
2482.931
 70
    32
  0
VERTEX
  8
T27SSILL
 62
3
 10
1816.254
 20
-4545.753
 30
2482.937
 70
    32
  0
VERTEX
  8
T27SSILL
 62
3
 10
1817.722
 20
-4543.441
 30
2482.939
 70
    32
  0
VERTEX
  8
T27SSILL
 62
3
 10
1817.106
 20
-4536.925
 30
2482.941
 70
    32
  0
VERTEX
  8
T27SSILL
 62
3
 10
1812.271
 20
-4531.435
 30
2482.940
 70
    32
  0
VERTEX
  8
T27SSILL
 62
3
 10
1804.316
 20
-4529.955
 30
2482.934
 70
    32
  0
VERTEX
  8
T27SSILL
 62
3
 10
1801.644
 20
-4527.962
 30
2482.933
 70
    32
  0
VERTEX
  8
T27SSILL
 62
3
 10
1788.512
 20
-4515.178
 30
2482.929
 70
    32
  0
VERTEX
  8
T27SSILL
 62
3
 10
1785.268
 20
-4509.931
 30
2482.929
 70
    32
  0
VERTEX
  8
T27SSILL
 62
3
 10
1770.743
 20
-4478.738
 30
2482.931
 70
    32
  0
VERTEX
  8
T27SSILL
 62
3
 10
1766.354
 20
-4473.595
 30
2482.929
 70
    32
  0
VERTEX
  8
T27SSILL
 62
3
 10
1765.862
 20
-4469.810
 30
2482.931
 70
    32
  0
VERTEX
  8
T27SSILL
 62
3
 10
1745.242
 20
-4414.557
 30
2482.938
 70
    32
  0
VERTEX
  8
T27SSILL
 62
3
 10
1747.261
 20
-4399.893
 30
2482.945
 70
    32
  0
VERTEX
  8
T27SSILL
 62
3
 10
1748.935
 20
-4396.944
 30
2482.947
 70
    32
  0
VERTEX
  8
T27SSILL
 62
3
 10
1752.498
 20
-4392.729
 30
2482.951
 70
    32
  0
VERTEX
  8
T27SSILL
 62
3
 10
1770.495
 20
-4380.387
 30
2482.969
 70
    32
  0
VERTEX
  8
T27SSILL
 62
3
 10
1776.498
 20
-4383.120
 30
2482.972
 70
    32
  0
VERTEX
  8
T27SSILL
 62
3
 10
1787.532
 20
-4391.645
 30
2482.977
 70
    32
  0
VERTEX
  8
T27SSILL
 62
3
 10
1789.988
 20
-4401.063
 30
2482.975
 70
    32
  0
VERTEX
  8
T27SSILL
 62
3
 10
1789.874
 20
-4404.939
 30
2482.973
 70
    32
  0
VERTEX
  8
T27SSILL
 62
3
 10
1793.444
 20
-4409.453
 30
2482.974
 70
    32
  0
VERTEX
  8
T27SSILL
 62
3
 10
1807.272
 20
-4415.943
 30
2482.981
 70
    32
  0
VERTEX
  8
T27SSILL
 62
3
 10
1815.280
 20
-4410.448
 30
2482.989
 70
    32
  0
VERTEX
  8
T27SSILL
 62
3
 10
1809.026
 20
-4398.273
 30
2482.989
 70
    32
  0
VERTEX
  8
T27SSILL
 62
3
 10
1805.194
 20
-4396.662
 30
2482.987
 70
    32
  0
VERTEX
  8
T27SSILL
 62
3
 10
1802.101
 20
-4387.930
 30
2482.989
 70
    32
  0
VERTEX
  8
T27SSILL
 62
3
 10
1806.110
 20
-4374.558
 30
2482.997
 70
    32
  0
VERTEX
  8
T27SSILL
 62
3
 10
1965.542
 20
-4385.690
 30
2482.983
 70
    32
  0
VERTEX
  8
T27SSILL
 62
3
 10
1970.208
 20
-4391.911
 30
2482.979
 70
    32
  0
VERTEX
  8
T27SSILL
 62
3
 10
1983.603
 20
-4398.124
 30
2482.970
 70
    32
  0
VERTEX
  8
T27SSILL
 62
3
 10
1992.689
 20
-4409.942
 30
2482.963
 70
    32
  0
VERTEX
  8
T27SSILL
 62
3
 10
2000.856
 20
-4414.062
 30
2482.958
 70
    32
  0
VERTEX
  8
T27SSILL
 62
3
 10
2008.056
 20
-4415.067
 30
2482.954
 70
    32
  0
VERTEX
  8
T27SSILL
 62
3
 10
2005.514
 20
-4420.547
 30
2482.954
 70
    32
  0
VERTEX
  8
T27SSILL
 62
3
 10
2007.138
 20
-4422.270
 30
2482.953
 70
    32
  0
VERTEX
  8
T27SSILL
 62
3
 10
2013.742
 20
-4425.550
 30
2482.951
 70
    32
  0
VERTEX
  8
T27SSILL
 62
3
 10
2013.004
 20
-4420.679
 30
2482.950
 70
    32
  0
VERTEX
  8
T27SSILL
 62
3
 10
2014.447
 20
-4419.576
 30
2482.950
 70
    32
  0
VERTEX
  8
T27SSILL
 62
3
 10
2019.277
 20
-4423.244
 30
2482.953
 70
    32
  0
VERTEX
  8
T27SSILL
 62
3
 10
2038.573
 20
-4441.623
 30
2482.964
 70
    32
  0
VERTEX
  8
T27SSILL
 62
3
 10
2041.641
 20
-4451.235
 30
2482.967
 70
    32
  0
VERTEX
  8
T27SSILL
 62
3
 10
2050.849
 20
-4452.917
 30
2482.972
 70
    32
  0
VERTEX
  8
T27SSILL
 62
3
 10
2057.404
 20
-4451.876
 30
2482.975
 70
    32
  0
VERTEX
  8
T27SSILL
 62
3
 10
2060.342
 20
-4441.911
 30
2482.975
 70
    32
  0
VERTEX
  8
T27SSILL
 62
3
 10
2060.190
 20
-4438.115
 30
2482.975
 70
    32
  0
VERTEX
  8
T27SSILL
 62
3
 10
2049.153
 20
-4411.693
 30
2482.966
 70
    32
  0
VERTEX
  8
T27SSILL
 62
3
 10
2043.029
 20
-4401.108
 30
2482.962
 70
    32
  0
VERTEX
  8
T27SSILL
 62
3
 10
2039.344
 20
-4397.473
 30
2482.960
 70
    32
  0
VERTEX
  8
T27SSILL
 62
3
 10
2039.363
 20
-4393.859
 30
2482.959
 70
    32
  0
VERTEX
  8
T27SSILL
 62
3
 10
2041.366
 20
-4391.714
 30
2482.960
 70
    32
  0
VERTEX
  8
T27SSILL
 62
3
 10
2311.283
 20
-4411.477
 30
2483.119
 70
    32
  0
VERTEX
  8
T27SSILL
 62
3
 10
2269.776
 20
-4470.649
 30
2483.099
 70
    32
  0
VERTEX
  8
T27SSILL
 62
3
 10
2259.747
 20
-4472.911
 30
2483.093
 70
    32
  0
VERTEX
  8
T27SSILL
 62
3
 10
2236.429
 20
-4456.354
 30
2483.078
 70
    32
  0
VERTEX
  8
T27SSILL
 62
3
 10
2231.156
 20
-4464.751
 30
2483.076
 70
    32
  0
VERTEX
  8
T27SSILL
 62
3
 10
2260.210
 20
-4484.122
 30
2483.094
 70
    32
  0
VERTEX
  8
T27SSILL
 62
3
 10
2212.164
 20
-4554.995
 30
2483.070
 70
    32
  0
VERTEX
  8
T27SSILL
 62
3
 10
2183.059
 20
-4534.577
 30
2483.052
 70
    32
  0
VERTEX
  8
T27SSILL
 62
3
 10
2118.473
 20
-4583.671
 30
2483.021
 70
    32
  0
VERTEX
  8
T27SSILL
 62
3
 10
2118.093
 20
-4614.534
 30
2483.024
 70
    32
  0
VERTEX
  8
T27SSILL
 62
3
 10
2124.532
 20
-4614.713
 30
2483.027
 70
    32
  0
VERTEX
  8
T27SSILL
 62
3
 10
2124.777
 20
-4626.436
 30
2483.029
 70
    32
  0
VERTEX
  8
T27SSILL
 62
3
 10
2163.747
 20
-4626.442
 30
2483.048
 70
    32
  0
VERTEX
  8
T27SSILL
 62
3
 10
2072.418
 20
-4758.948
 30
2483.018
 70
    32
  0
VERTEX
  8
T27SSILL
 62
3
 10
2079.962
 20
-4762.727
 30
2483.022
 70
    32
  0
VERTEX
  8
T27SSILL
 62
3
 10
2178.835
 20
-4620.686
 30
2483.055
 70
    32
  0
VERTEX
  8
T27SSILL
 62
3
 10
2186.759
 20
-4626.487
 30
2483.060
 70
    32
  0
VERTEX
  8
T27SSILL
 62
3
 10
2191.964
 20
-4620.069
 30
2483.062
 70
    32
  0
VERTEX
  8
T27SSILL
 62
3
 10
2183.321
 20
-4613.308
 30
2483.056
 70
    32
  0
VERTEX
  8
T27SSILL
 62
3
 10
2237.686
 20
-4530.452
 30
2483.083
 70
    32
  0
VERTEX
  8
T27SSILL
 62
3
 10
2317.959
 20
-4412.290
 30
2483.126
 70
    32
  0
VERTEX
  8
T27SSILL
 62
3
 10
2337.301
 20
-4399.194
 30
2483.142
 70
    32
  0
VERTEX
  8
T27SSILL
 62
3
 10
2345.400
 20
-4411.600
 30
2483.155
 70
    32
  0
VERTEX
  8
T27SSILL
 62
3
 10
2351.973
 20
-4406.944
 30
2483.160
 70
    32
  0
VERTEX
  8
T27SSILL
 62
3
 10
2343.063
 20
-4395.132
 30
2483.146
 70
    32
  0
VERTEX
  8
T27SSILL
 62
3
 10
2357.130
 20
-4384.525
 30
2483.157
 70
    32
  0
VERTEX
  8
T27SSILL
 62
3
 10
2371.639
 20
-4382.836
 30
2483.171
 70
    32
  0
VERTEX
  8
T27SSILL
 62
3
 10
2373.168
 20
-4384.821
 30
2483.174
 70
    32
  0
VERTEX
  8
T27SSILL
 62
3
 10
2370.541
 20
-4387.212
 30
2483.172
 70
    32
  0
VERTEX
  8
T27SSILL
 62
3
 10
2379.774
 20
-4400.004
 30
2483.186
 70
    32
  0
VERTEX
  8
T27SSILL
 62
3
 10
2390.410
 20
-4392.118
 30
2483.194
 70
    32
  0
VERTEX
  8
T27SSILL
 62
3
 10
2381.272
 20
-4379.064
 30
2483.180
 70
    32
  0
VERTEX
  8
T27SSILL
 62
3
 10
2378.049
 20
-4380.733
 30
2483.177
 70
    32
  0
VERTEX
  8
T27SSILL
 62
3
 10
2372.287
 20
-4372.804
 30
2483.168
 70
    32
  0
VERTEX
  8
T27SSILL
 62
3
 10
2385.989
 20
-4362.627
 30
2483.179
 70
    32
  0
VERTEX
  8
T27SSILL
 62
3
 10
2389.888
 20
-4367.944
 30
2483.185
 70
    32
  0
VERTEX
  8
T27SSILL
 62
3
 10
2398.627
 20
-4361.589
 30
2483.192
 70
    32
  0
VERTEX
  8
T27SSILL
 62
3
 10
2394.891
 20
-4356.718
 30
2483.186
 70
    32
  0
VERTEX
  8
T27SSILL
 62
3
 10
2444.169
 20
-4321.050
 30
2483.224
 70
    32
  0
VERTEX
  8
T27SSILL
 62
3
 10
2583.443
 20
-4226.380
 30
2483.333
 70
    32
  0
VERTEX
  8
T27SSILL
 62
3
 10
2640.808
 20
-4235.124
 30
2483.395
 70
    32
  0
VERTEX
  8
T27SSILL
 62
3
 10
2654.208
 20
-4242.607
 30
2483.412
 70
    32
  0
VERTEX
  8
T27SSILL
 62
3
 10
2687.588
 20
-4282.058
 30
2483.461
 70
    32
  0
VERTEX
  8
T27SSILL
 62
3
 10
2694.315
 20
-4278.005
 30
2483.466
 70
    32
  0
VERTEX
  8
T27SSILL
 62
3
 10
2660.311
 20
-4237.945
 30
2483.416
 70
    32
  0
VERTEX
  8
T27SSILL
 62
3
 10
2718.733
 20
-4246.675
 30
2483.479
 70
    32
  0
VERTEX
  8
T27SSILL
 62
3
 10
2711.017
 20
-4251.415
 30
2483.473
 70
    32
  0
VERTEX
  8
T27SSILL
 62
3
 10
2716.140
 20
-4256.927
 30
2483.480
 70
    32
  0
VERTEX
  8
T27SSILL
 62
3
 10
2725.306
 20
-4250.815
 30
2483.487
 70
    32
  0
VERTEX
  8
T27SSILL
 62
3
 10
2790.769
 20
-4318.373
 30
2483.579
 70
    32
  0
VERTEX
  8
T27SSILL
 62
3
 10
2740.005
 20
-4355.339
 30
2483.541
 70
    32
  0
VERTEX
  8
T27SSILL
 62
3
 10
2751.726
 20
-4355.887
 30
2483.553
 70
    32
  0
VERTEX
  8
T27SSILL
 62
3
 10
2791.422
 20
-4327.700
 30
2483.584
 70
    32
  0
VERTEX
  8
T27SSILL
 62
3
 10
2801.846
 20
-4330.026
 30
2483.595
 70
    32
  0
VERTEX
  8
T27SSILL
 62
3
 10
3007.322
 20
-4540.328
 30
2483.782
 70
    32
  0
VERTEX
  8
T27SSILL
 62
3
 10
3012.985
 20
-4535.761
 30
2483.780
 70
    32
  0
VERTEX
  8
T27SSILL
 62
3
 10
2983.065
 20
-4504.719
 30
2483.784
 70
    32
  0
VERTEX
  8
T27SSILL
 62
3
 10
3044.303
 20
-4460.654
 30
2483.759
 70
    32
  0
VERTEX
  8
T27SSILL
 62
3
 10
3051.887
 20
-4467.951
 30
2483.758
 70
    32
  0
VERTEX
  8
T27SSILL
 62
3
 10
3054.098
 20
-4468.626
 30
2483.757
 70
    32
  0
VERTEX
  8
T27SSILL
 62
3
 10
3068.935
 20
-4497.932
 30
2483.757
 70
    32
  0
VERTEX
  8
T27SSILL
 62
3
 10
3074.064
 20
-4492.931
 30
2483.755
 70
    32
  0
VERTEX
  8
T27SSILL
 62
3
 10
3059.836
 20
-4463.000
 30
2483.755
 70
    32
  0
VERTEX
  8
T27SSILL
 62
3
 10
3073.342
 20
-4452.162
 30
2483.749
 70
    32
  0
VERTEX
  8
T27SSILL
 62
3
 10
3078.412
 20
-4436.153
 30
2483.745
 70
    32
  0
VERTEX
  8
T27SSILL
 62
3
 10
3320.153
 20
-4263.285
 30
2483.828
 70
    32
  0
VERTEX
  8
T27SSILL
 62
3
 10
3316.282
 20
-4256.995
 30
2483.829
 70
    32
  0
VERTEX
  8
T27SSILL
 62
3
 10
3314.104
 20
-4258.786
 30
2483.829
 70
    32
  0
VERTEX
  8
T27SSILL
 62
3
 10
3172.112
 20
-4060.229
 30
2483.828
 70
    32
  0
VERTEX
  8
T27SSILL
 62
3
 10
3300.971
 20
-3975.185
 30
2483.862
 70
    32
  0
VERTEX
  8
T27SSILL
 62
3
 10
3395.105
 20
-3914.651
 30
2483.856
 70
    32
  0
VERTEX
  8
T27SSILL
 62
3
 10
3408.608
 20
-3936.401
 30
2483.852
 70
    32
  0
VERTEX
  8
T27SSILL
 62
3
 10
3415.244
 20
-3932.084
 30
2483.852
 70
    32
  0
VERTEX
  8
T27SSILL
 62
3
 10
3400.690
 20
-3910.789
 30
2483.856
 70
    32
  0
VERTEX
  8
T27SSILL
 62
3
 10
3403.219
 20
-3908.905
 30
2483.856
 70
    32
  0
VERTEX
  8
T27SSILL
 62
3
 10
3398.912
 20
-3902.974
 30
2483.857
 70
    32
  0
VERTEX
  8
T27SSILL
 62
3
 10
3396.902
 20
-3904.146
 30
2483.857
 70
    32
  0
VERTEX
  8
T27SSILL
 62
3
 10
3382.885
 20
-3883.372
 30
2483.861
 70
    32
  0
VERTEX
  8
T27SSILL
 62
3
 10
3376.783
 20
-3888.121
 30
2483.862
 70
    32
  0
VERTEX
  8
T27SSILL
 62
3
 10
3390.878
 20
-3908.102
 30
2483.858
 70
    32
  0
VERTEX
  8
T27SSILL
 62
3
 10
3167.988
 20
-4054.823
 30
2483.826
 70
    32
  0
VERTEX
  8
T27SSILL
 62
3
 10
3004.296
 20
-3827.492
 30
2483.647
 70
    32
  0
VERTEX
  8
T27SSILL
 62
3
 10
3164.904
 20
-3712.607
 30
2483.832
 70
    32
  0
VERTEX
  8
T27SSILL
 62
3
 10
3252.697
 20
-3606.094
 30
2483.886
 70
    32
  0
VERTEX
  8
T27SSILL
 62
3
 10
3962.828
 20
-2731.811
 30
2483.850
 70
    32
  0
VERTEX
  8
T27SSILL
 62
3
 10
3941.807
 20
-2595.364
 30
2483.840
 70
    32
  0
VERTEX
  8
T27SSILL
 62
3
 10
3996.990
 20
-2550.708
 30
2483.835
 70
    32
  0
VERTEX
  8
T27SSILL
 62
3
 10
4000.632
 20
-2545.276
 30
2483.833
 70
    32
  0
VERTEX
  8
T27SSILL
 62
3
 10
3962.175
 20
-2489.818
 30
2483.792
 70
    32
  0
VERTEX
  8
T27SSILL
 62
3
 10
3928.996
 20
-2499.752
 30
2483.787
 70
    32
  0
VERTEX
  8
T27SSILL
 62
3
 10
3927.081
 20
-2489.111
 30
2483.781
 70
    32
  0
VERTEX
  8
T27SSILL
 62
3
 10
3924.916
 20
-2485.161
 30
2483.778
 70
    32
  0
VERTEX
  8
T27SSILL
 62
3
 10
3910.094
 20
-2378.281
 30
2483.718
 70
    32
  0
VERTEX
  8
T27SSILL
 62
3
 10
3902.210
 20
-2379.362
 30
2483.716
 70
    32
  0
VERTEX
  8
T27SSILL
 62
3
 10
3929.117
 20
-2567.462
 30
2483.822
 70
    32
  0
VERTEX
  8
T27SSILL
 62
3
 10
3916.035
 20
-2569.185
 30
2483.819
 70
    32
  0
VERTEX
  8
T27SSILL
 62
3
 10
3917.554
 20
-2577.454
 30
2483.823
 70
    32
  0
VERTEX
  8
T27SSILL
 62
3
 10
3930.220
 20
-2575.898
 30
2483.827
 70
    32
  0
VERTEX
  8
T27SSILL
 62
3
 10
3953.069
 20
-2730.411
 30
2483.850
 70
    32
  0
VERTEX
  8
T27SSILL
 62
3
 10
3240.671
 20
-3609.073
 30
2483.878
 70
    32
  0
VERTEX
  8
T27SSILL
 62
3
 10
3160.759
 20
-3705.616
 30
2483.829
 70
    32
  0
VERTEX
  8
T27SSILL
 62
3
 10
3005.320
 20
-3818.407
 30
2483.650
 70
    32
  0
VERTEX
  8
T27SSILL
 62
3
 10
2999.961
 20
-3819.447
 30
2483.644
 70
    32
  0
VERTEX
  8
T27SSILL
 62
3
 10
2994.927
 20
-3811.852
 30
2483.641
 70
    32
  0
VERTEX
  8
T27SSILL
 62
3
 10
2987.613
 20
-3818.115
 30
2483.632
 70
    32
  0
VERTEX
  8
T27SSILL
 62
3
 10
2993.639
 20
-3827.459
 30
2483.636
 70
    32
  0
VERTEX
  8
T27SSILL
 62
3
 10
2935.359
 20
-3868.841
 30
2483.613
 70
    32
  0
VERTEX
  8
T27SSILL
 62
3
 10
2905.065
 20
-3855.948
 30
2483.599
 70
    32
  0
VERTEX
  8
T27SSILL
 62
3
 10
2900.423
 20
-3851.342
 30
2483.595
 70
    32
  0
VERTEX
  8
T27SSILL
 62
3
 10
2890.189
 20
-3836.858
 30
2483.586
 70
    32
  0
VERTEX
  8
T27SSILL
 62
3
 10
2936.089
 20
-3804.977
 30
2483.598
 70
    32
  0
VERTEX
  8
T27SSILL
 62
3
 10
2944.616
 20
-3816.930
 30
2483.605
 70
    32
  0
VERTEX
  8
T27SSILL
 62
3
 10
2949.492
 20
-3812.725
 30
2483.606
 70
    32
  0
VERTEX
  8
T27SSILL
 62
3
 10
2940.522
 20
-3793.997
 30
2483.596
 70
    32
  0
VERTEX
  8
T27SSILL
 62
3
 10
2938.995
 20
-3778.604
 30
2483.593
 70
    32
  0
VERTEX
  8
T27SSILL
 62
3
 10
2927.709
 20
-3777.698
 30
2483.586
 70
    32
  0
VERTEX
  8
T27SSILL
 62
3
 10
2914.883
 20
-3760.431
 30
2483.574
 70
    32
  0
VERTEX
  8
T27SSILL
 62
3
 10
2910.260
 20
-3763.752
 30
2483.573
 70
    32
  0
VERTEX
  8
T27SSILL
 62
3
 10
2917.276
 20
-3774.667
 30
2483.580
 70
    32
  0
VERTEX
  8
T27SSILL
 62
3
 10
2917.742
 20
-3789.722
 30
2483.585
 70
    32
  0
VERTEX
  8
T27SSILL
 62
3
 10
2924.548
 20
-3791.568
 30
2483.588
 70
    32
  0
VERTEX
  8
T27SSILL
 62
3
 10
2928.195
 20
-3794.250
 30
2483.591
 70
    32
  0
VERTEX
  8
T27SSILL
 62
3
 10
2929.861
 20
-3800.305
 30
2483.593
 70
    32
  0
VERTEX
  8
T27SSILL
 62
3
 10
2886.861
 20
-3831.707
 30
2483.583
 70
    32
  0
VERTEX
  8
T27SSILL
 62
3
 10
2883.431
 20
-3825.499
 30
2483.579
 70
    32
  0
VERTEX
  8
T27SSILL
 62
3
 10
2881.517
 20
-3814.075
 30
2483.575
 70
    32
  0
VERTEX
  8
T27SSILL
 62
3
 10
2850.312
 20
-3772.657
 30
2483.548
 70
    32
  0
VERTEX
  8
T27SSILL
 62
3
 10
2793.139
 20
-3692.624
 30
2483.498
 70
    32
  0
VERTEX
  8
T27SSILL
 62
3
 10
2781.366
 20
-3677.623
 30
2483.488
 70
    32
  0
VERTEX
  8
T27SSILL
 62
3
 10
2779.686
 20
-3676.849
 30
2483.487
 70
    32
  0
VERTEX
  8
T27SSILL
 62
3
 10
2727.705
 20
-3603.878
 30
2483.441
 70
    32
  0
VERTEX
  8
T27SSILL
 62
3
 10
2580.185
 20
-3407.480
 30
2483.323
 70
    32
  0
VERTEX
  8
T27SSILL
 62
3
 10
2378.203
 20
-3144.646
 30
2483.183
 70
    32
  0
VERTEX
  8
T27SSILL
 62
3
 10
2296.857
 20
-3041.698
 30
2483.126
 70
    32
  0
SEQEND
  8
T27SSILL
  0
POLYLINE
  8
T27SSILL
 62
3
 66
     1
 70
     9
  0
VERTEX
  8
T27SSILL
 62
3
 10
2137.508
 20
-3732.437
 30
2483.192
 70
    32
  0
VERTEX
  8
T27SSILL
 62
3
 10
2127.156
 20
-3718.124
 30
2483.189
 70
    32
  0
VERTEX
  8
T27SSILL
 62
3
 10
2120.532
 20
-3722.156
 30
2483.184
 70
    32
  0
VERTEX
  8
T27SSILL
 62
3
 10
2153.430
 20
-3768.097
 30
2483.192
 70
    32
  0
VERTEX
  8
T27SSILL
 62
3
 10
2175.496
 20
-3796.402
 30
2483.198
 70
    32
  0
VERTEX
  8
T27SSILL
 62
3
 10
2243.254
 20
-3750.494
 30
2483.247
 70
    32
  0
VERTEX
  8
T27SSILL
 62
3
 10
2247.856
 20
-3756.363
 30
2483.249
 70
    32
  0
VERTEX
  8
T27SSILL
 62
3
 10
2222.983
 20
-3773.783
 30
2483.230
 70
    32
  0
VERTEX
  8
T27SSILL
 62
3
 10
2220.392
 20
-3769.347
 30
2483.230
 70
    32
  0
VERTEX
  8
T27SSILL
 62
3
 10
2205.737
 20
-3779.397
 30
2483.219
 70
    32
  0
VERTEX
  8
T27SSILL
 62
3
 10
2212.313
 20
-3789.782
 30
2483.221
 70
    32
  0
VERTEX
  8
T27SSILL
 62
3
 10
2256.295
 20
-3757.959
 30
2483.253
 70
    32
  0
VERTEX
  8
T27SSILL
 62
3
 10
2259.141
 20
-3763.278
 30
2483.253
 70
    32
  0
VERTEX
  8
T27SSILL
 62
3
 10
2263.531
 20
-3759.800
 30
2483.257
 70
    32
  0
VERTEX
  8
T27SSILL
 62
3
 10
2266.946
 20
-3765.539
 30
2483.257
 70
    32
  0
VERTEX
  8
T27SSILL
 62
3
 10
2219.768
 20
-3800.265
 30
2483.222
 70
    32
  0
VERTEX
  8
T27SSILL
 62
3
 10
2230.221
 20
-3810.519
 30
2483.226
 70
    32
  0
VERTEX
  8
T27SSILL
 62
3
 10
2232.271
 20
-3808.516
 30
2483.228
 70
    32
  0
VERTEX
  8
T27SSILL
 62
3
 10
2237.218
 20
-3807.428
 30
2483.231
 70
    32
  0
VERTEX
  8
T27SSILL
 62
3
 10
2248.913
 20
-3809.415
 30
2483.237
 70
    32
  0
VERTEX
  8
T27SSILL
 62
3
 10
2258.894
 20
-3807.240
 30
2483.243
 70
    32
  0
VERTEX
  8
T27SSILL
 62
3
 10
2276.653
 20
-3810.530
 30
2483.252
 70
    32
  0
VERTEX
  8
T27SSILL
 62
3
 10
2278.069
 20
-3810.018
 30
2483.253
 70
    32
  0
VERTEX
  8
T27SSILL
 62
3
 10
2285.321
 20
-3800.058
 30
2483.260
 70
    32
  0
VERTEX
  8
T27SSILL
 62
3
 10
2287.010
 20
-3798.756
 30
2483.261
 70
    32
  0
VERTEX
  8
T27SSILL
 62
3
 10
2289.115
 20
-3799.574
 30
2483.262
 70
    32
  0
VERTEX
  8
T27SSILL
 62
3
 10
2296.180
 20
-3805.735
 30
2483.265
 70
    32
  0
VERTEX
  8
T27SSILL
 62
3
 10
2299.745
 20
-3817.407
 30
2483.264
 70
    32
  0
VERTEX
  8
T27SSILL
 62
3
 10
2296.767
 20
-3831.028
 30
2483.259
 70
    32
  0
VERTEX
  8
T27SSILL
 62
3
 10
2289.656
 20
-3843.985
 30
2483.252
 70
    32
  0
VERTEX
  8
T27SSILL
 62
3
 10
2289.604
 20
-3856.055
 30
2483.249
 70
    32
  0
VERTEX
  8
T27SSILL
 62
3
 10
2291.896
 20
-3863.483
 30
2483.249
 70
    32
  0
VERTEX
  8
T27SSILL
 62
3
 10
2304.395
 20
-3880.990
 30
2483.252
 70
    32
  0
VERTEX
  8
T27SSILL
 62
3
 10
2304.284
 20
-3884.062
 30
2483.251
 70
    32
  0
VERTEX
  8
T27SSILL
 62
3
 10
2306.911
 20
-3889.006
 30
2483.251
 70
    32
  0
VERTEX
  8
T27SSILL
 62
3
 10
2311.654
 20
-3894.134
 30
2483.253
 70
    32
  0
VERTEX
  8
T27SSILL
 62
3
 10
2323.013
 20
-3897.345
 30
2483.258
 70
    32
  0
VERTEX
  8
T27SSILL
 62
3
 10
2334.656
 20
-3894.563
 30
2483.266
 70
    32
  0
VERTEX
  8
T27SSILL
 62
3
 10
2346.575
 20
-3888.522
 30
2483.274
 70
    32
  0
VERTEX
  8
T27SSILL
 62
3
 10
2349.564
 20
-3890.735
 30
2483.275
 70
    32
  0
VERTEX
  8
T27SSILL
 62
3
 10
2378.879
 20
-3869.076
 30
2483.297
 70
    32
  0
VERTEX
  8
T27SSILL
 62
3
 10
2380.637
 20
-3869.449
 30
2483.298
 70
    32
  0
VERTEX
  8
T27SSILL
 62
3
 10
2390.995
 20
-3895.472
 30
2483.298
 70
    32
  0
VERTEX
  8
T27SSILL
 62
3
 10
2388.173
 20
-3903.281
 30
2483.294
 70
    32
  0
VERTEX
  8
T27SSILL
 62
3
 10
2393.553
 20
-3910.392
 30
2483.295
 70
    32
  0
VERTEX
  8
T27SSILL
 62
3
 10
2397.985
 20
-3892.999
 30
2483.302
 70
    32
  0
VERTEX
  8
T27SSILL
 62
3
 10
2386.160
 20
-3864.315
 30
2483.302
 70
    32
  0
VERTEX
  8
T27SSILL
 62
3
 10
2729.009
 20
-3618.729
 30
2483.446
 70
    32
  0
VERTEX
  8
T27SSILL
 62
3
 10
2773.833
 20
-3680.519
 30
2483.485
 70
    32
  0
VERTEX
  8
T27SSILL
 62
3
 10
2774.388
 20
-3683.064
 30
2483.486
 70
    32
  0
VERTEX
  8
T27SSILL
 62
3
 10
2821.908
 20
-3749.610
 30
2483.528
 70
    32
  0
VERTEX
  8
T27SSILL
 62
3
 10
2854.648
 20
-3793.913
 30
2483.557
 70
    32
  0
VERTEX
  8
T27SSILL
 62
3
 10
2855.215
 20
-3809.935
 30
2483.562
 70
    32
  0
VERTEX
  8
T27SSILL
 62
3
 10
2836.249
 20
-3860.304
 30
2483.559
 70
    32
  0
VERTEX
  8
T27SSILL
 62
3
 10
2827.357
 20
-3873.722
 30
2483.551
 70
    32
  0
VERTEX
  8
T27SSILL
 62
3
 10
2782.514
 20
-3905.677
 30
2483.518
 70
    32
  0
VERTEX
  8
T27SSILL
 62
3
 10
2762.827
 20
-3961.428
 30
2483.494
 70
    32
  0
VERTEX
  8
T27SSILL
 62
3
 10
2760.738
 20
-3963.305
 30
2483.492
 70
    32
  0
VERTEX
  8
T27SSILL
 62
3
 10
2761.735
 20
-3965.406
 30
2483.492
 70
    32
  0
VERTEX
  8
T27SSILL
 62
3
 10
2702.477
 20
-4131.075
 30
2483.420
 70
    32
  0
VERTEX
  8
T27SSILL
 62
3
 10
2695.944
 20
-4136.535
 30
2483.415
 70
    32
  0
VERTEX
  8
T27SSILL
 62
3
 10
2682.032
 20
-4117.080
 30
2483.411
 70
    32
  0
VERTEX
  8
T27SSILL
 62
3
 10
2680.021
 20
-4118.164
 30
2483.410
 70
    32
  0
VERTEX
  8
T27SSILL
 62
3
 10
2678.313
 20
-4121.997
 30
2483.408
 70
    32
  0
VERTEX
  8
T27SSILL
 62
3
 10
2678.802
 20
-4125.440
 30
2483.407
 70
    32
  0
VERTEX
  8
T27SSILL
 62
3
 10
2684.049
 20
-4136.166
 30
2483.408
 70
    32
  0
VERTEX
  8
T27SSILL
 62
3
 10
2685.536
 20
-4141.959
 30
2483.407
 70
    32
  0
VERTEX
  8
T27SSILL
 62
3
 10
2685.380
 20
-4143.458
 30
2483.407
 70
    32
  0
VERTEX
  8
T27SSILL
 62
3
 10
2678.489
 20
-4148.482
 30
2483.402
 70
    32
  0
VERTEX
  8
T27SSILL
 62
3
 10
2673.147
 20
-4137.545
 30
2483.401
 70
    32
  0
VERTEX
  8
T27SSILL
 62
3
 10
2642.830
 20
-4094.790
 30
2483.394
 70
    32
  0
VERTEX
  8
T27SSILL
 62
3
 10
2636.878
 20
-4099.135
 30
2483.390
 70
    32
  0
VERTEX
  8
T27SSILL
 62
3
 10
2649.529
 20
-4116.811
 30
2483.393
 70
    32
  0
VERTEX
  8
T27SSILL
 62
3
 10
2652.612
 20
-4123.375
 30
2483.393
 70
    32
  0
VERTEX
  8
T27SSILL
 62
3
 10
2655.087
 20
-4137.258
 30
2483.391
 70
    32
  0
VERTEX
  8
T27SSILL
 62
3
 10
2654.431
 20
-4154.001
 30
2483.387
 70
    32
  0
VERTEX
  8
T27SSILL
 62
3
 10
2658.688
 20
-4162.751
 30
2483.387
 70
    32
  0
VERTEX
  8
T27SSILL
 62
3
 10
2450.064
 20
-4306.500
 30
2483.231
 70
    32
  0
VERTEX
  8
T27SSILL
 62
3
 10
2316.498
 20
-4405.018
 30
2483.124
 70
    32
  0
VERTEX
  8
T27SSILL
 62
3
 10
2043.967
 20
-4384.208
 30
2482.961
 70
    32
  0
VERTEX
  8
T27SSILL
 62
3
 10
2037.412
 20
-4382.251
 30
2482.957
 70
    32
  0
VERTEX
  8
T27SSILL
 62
3
 10
2027.981
 20
-4376.155
 30
2482.954
 70
    32
  0
VERTEX
  8
T27SSILL
 62
3
 10
1974.735
 20
-4313.045
 30
2482.996
 70
    32
  0
VERTEX
  8
T27SSILL
 62
3
 10
1972.035
 20
-4305.913
 30
2483.003
 70
    32
  0
VERTEX
  8
T27SSILL
 62
3
 10
1971.427
 20
-4299.635
 30
2483.011
 70
    32
  0
VERTEX
  8
T27SSILL
 62
3
 10
1973.692
 20
-4288.592
 30
2483.027
 70
    32
  0
VERTEX
  8
T27SSILL
 62
3
 10
1977.135
 20
-4282.434
 30
2483.037
 70
    32
  0
VERTEX
  8
T27SSILL
 62
3
 10
1981.413
 20
-4277.887
 30
2483.046
 70
    32
  0
VERTEX
  8
T27SSILL
 62
3
 10
2016.547
 20
-4255.469
 30
2483.101
 70
    32
  0
VERTEX
  8
T27SSILL
 62
3
 10
2023.011
 20
-4263.506
 30
2483.095
 70
    32
  0
VERTEX
  8
T27SSILL
 62
3
 10
2026.522
 20
-4264.050
 30
2483.097
 70
    32
  0
VERTEX
  8
T27SSILL
 62
3
 10
2028.763
 20
-4265.791
 30
2483.097
 70
    32
  0
VERTEX
  8
T27SSILL
 62
3
 10
2031.071
 20
-4271.238
 30
2483.091
 70
    32
  0
VERTEX
  8
T27SSILL
 62
3
 10
2041.280
 20
-4262.898
 30
2483.109
 70
    32
  0
VERTEX
  8
T27SSILL
 62
3
 10
2045.083
 20
-4256.485
 30
2483.114
 70
    32
  0
VERTEX
  8
T27SSILL
 62
3
 10
2044.855
 20
-4252.247
 30
2483.117
 70
    32
  0
VERTEX
  8
T27SSILL
 62
3
 10
2041.480
 20
-4244.124
 30
2483.120
 70
    32
  0
VERTEX
  8
T27SSILL
 62
3
 10
2041.726
 20
-4238.753
 30
2483.124
 70
    32
  0
VERTEX
  8
T27SSILL
 62
3
 10
2044.239
 20
-4236.931
 30
2483.126
 70
    32
  0
VERTEX
  8
T27SSILL
 62
3
 10
2039.186
 20
-4229.511
 30
2483.128
 70
    32
  0
VERTEX
  8
T27SSILL
 62
3
 10
2034.052
 20
-4232.884
 30
2483.125
 70
    32
  0
VERTEX
  8
T27SSILL
 62
3
 10
2025.243
 20
-4232.625
 30
2483.121
 70
    32
  0
VERTEX
  8
T27SSILL
 62
3
 10
2019.068
 20
-4235.705
 30
2483.117
 70
    32
  0
VERTEX
  8
T27SSILL
 62
3
 10
2010.311
 20
-4242.677
 30
2483.110
 70
    32
  0
VERTEX
  8
T27SSILL
 62
3
 10
2010.938
 20
-4248.338
 30
2483.106
 70
    32
  0
VERTEX
  8
T27SSILL
 62
3
 10
1975.493
 20
-4272.334
 30
2483.049
 70
    32
  0
VERTEX
  8
T27SSILL
 62
3
 10
1971.049
 20
-4276.524
 30
2483.041
 70
    32
  0
VERTEX
  8
T27SSILL
 62
3
 10
1965.751
 20
-4285.802
 30
2483.025
 70
    32
  0
VERTEX
  8
T27SSILL
 62
3
 10
1963.030
 20
-4300.357
 30
2483.004
 70
    32
  0
VERTEX
  8
T27SSILL
 62
3
 10
1882.737
 20
-4206.563
 30
2483.066
 70
    32
  0
VERTEX
  8
T27SSILL
 62
3
 10
1880.069
 20
-4198.373
 30
2483.075
 70
    32
  0
VERTEX
  8
T27SSILL
 62
3
 10
1881.202
 20
-4186.856
 30
2483.090
 70
    32
  0
VERTEX
  8
T27SSILL
 62
3
 10
1884.521
 20
-4178.931
 30
2483.103
 70
    32
  0
VERTEX
  8
T27SSILL
 62
3
 10
1886.892
 20
-4176.267
 30
2483.105
 70
    32
  0
VERTEX
  8
T27SSILL
 62
3
 10
1891.247
 20
-4172.075
 30
2483.109
 70
    32
  0
VERTEX
  8
T27SSILL
 62
3
 10
1938.253
 20
-4138.721
 30
2483.129
 70
    32
  0
VERTEX
  8
T27SSILL
 62
3
 10
1932.781
 20
-4132.917
 30
2483.126
 70
    32
  0
VERTEX
  8
T27SSILL
 62
3
 10
1884.677
 20
-4167.650
 30
2483.110
 70
    32
  0
VERTEX
  8
T27SSILL
 62
3
 10
1876.730
 20
-4177.026
 30
2483.100
 70
    32
  0
VERTEX
  8
T27SSILL
 62
3
 10
1872.908
 20
-4187.053
 30
2483.084
 70
    32
  0
VERTEX
  8
T27SSILL
 62
3
 10
1872.346
 20
-4194.178
 30
2483.075
 70
    32
  0
VERTEX
  8
T27SSILL
 62
3
 10
1780.830
 20
-4089.296
 30
2483.079
 70
    32
  0
VERTEX
  8
T27SSILL
 62
3
 10
1778.162
 20
-4084.104
 30
2483.077
 70
    32
  0
VERTEX
  8
T27SSILL
 62
3
 10
1777.024
 20
-4077.810
 30
2483.074
 70
    32
  0
VERTEX
  8
T27SSILL
 62
3
 10
1778.090
 20
-4068.584
 30
2483.069
 70
    32
  0
VERTEX
  8
T27SSILL
 62
3
 10
1783.414
 20
-4058.425
 30
2483.066
 70
    32
  0
VERTEX
  8
T27SSILL
 62
3
 10
1787.324
 20
-4054.397
 30
2483.066
 70
    32
  0
VERTEX
  8
T27SSILL
 62
3
 10
1868.021
 20
-3996.731
 30
2483.074
 70
    32
  0
VERTEX
  8
T27SSILL
 62
3
 10
1864.391
 20
-3991.246
 30
2483.072
 70
    32
  0
VERTEX
  8
T27SSILL
 62
3
 10
1779.919
 20
-4051.357
 30
2483.063
 70
    32
  0
VERTEX
  8
T27SSILL
 62
3
 10
1771.986
 20
-4063.291
 30
2483.067
 70
    32
  0
VERTEX
  8
T27SSILL
 62
3
 10
1770.115
 20
-4069.936
 30
2483.071
 70
    32
  0
VERTEX
  8
T27SSILL
 62
3
 10
1769.822
 20
-4076.893
 30
2483.075
 70
    32
  0
VERTEX
  8
T27SSILL
 62
3
 10
1663.759
 20
-3954.038
 30
2483.034
 70
    32
  0
VERTEX
  8
T27SSILL
 62
3
 10
1661.054
 20
-3947.081
 30
2483.031
 70
    32
  0
VERTEX
  8
T27SSILL
 62
3
 10
1661.827
 20
-3932.820
 30
2483.023
 70
    32
  0
VERTEX
  8
T27SSILL
 62
3
 10
1665.475
 20
-3925.698
 30
2483.019
 70
    32
  0
VERTEX
  8
T27SSILL
 62
3
 10
1671.660
 20
-3919.268
 30
2483.014
 70
    32
  0
VERTEX
  8
T27SSILL
 62
3
 10
1843.417
 20
-3796.306
 30
2483.018
 70
    32
  0
VERTEX
  8
T27SSILL
 62
3
 10
1839.052
 20
-3790.671
 30
2483.015
 70
    32
  0
VERTEX
  8
T27SSILL
 62
3
 10
1665.631
 20
-3914.417
 30
2483.013
 70
    32
  0
VERTEX
  8
T27SSILL
 62
3
 10
1662.366
 20
-3917.495
 30
2483.015
 70
    32
  0
VERTEX
  8
T27SSILL
 62
3
 10
1654.445
 20
-3931.986
 30
2483.024
 70
    32
  0
VERTEX
  8
T27SSILL
 62
3
 10
1653.009
 20
-3941.818
 30
2483.030
 70
    32
  0
VERTEX
  8
T27SSILL
 62
3
 10
1574.466
 20
-3851.514
 30
2483.000
 70
    32
  0
VERTEX
  8
T27SSILL
 62
3
 10
1461.737
 20
-3721.497
 30
2482.994
 70
    32
  0
VERTEX
  8
T27SSILL
 62
3
 10
1458.009
 20
-3710.366
 30
2482.998
 70
    32
  0
VERTEX
  8
T27SSILL
 62
3
 10
1457.540
 20
-3705.327
 30
2482.997
 70
    32
  0
VERTEX
  8
T27SSILL
 62
3
 10
1459.271
 20
-3697.443
 30
2482.991
 70
    32
  0
VERTEX
  8
T27SSILL
 62
3
 10
1506.676
 20
-3593.655
 30
2482.881
 70
    32
  0
VERTEX
  8
T27SSILL
 62
3
 10
1526.020
 20
-3546.916
 30
2482.869
 70
    32
  0
VERTEX
  8
T27SSILL
 62
3
 10
1528.783
 20
-3536.127
 30
2482.867
 70
    32
  0
VERTEX
  8
T27SSILL
 62
3
 10
1528.836
 20
-3527.442
 30
2482.865
 70
    32
  0
VERTEX
  8
T27SSILL
 62
3
 10
1525.583
 20
-3518.053
 30
2482.911
 70
    32
  0
VERTEX
  8
T27SSILL
 62
3
 10
1523.254
 20
-3513.820
 30
2482.938
 70
    32
  0
VERTEX
  8
T27SSILL
 62
3
 10
1500.750
 20
-3486.196
 30
2483.162
 70
    32
  0
VERTEX
  8
T27SSILL
 62
3
 10
1490.950
 20
-3462.839
 30
2483.288
 70
    32
  0
VERTEX
  8
T27SSILL
 62
3
 10
1481.036
 20
-3451.286
 30
2483.385
 70
    32
  0
VERTEX
  8
T27SSILL
 62
3
 10
1474.198
 20
-3439.602
 30
2483.461
 70
    32
  0
VERTEX
  8
T27SSILL
 62
3
 10
1463.604
 20
-3431.107
 30
2483.494
 70
    32
  0
VERTEX
  8
T27SSILL
 62
3
 10
1460.921
 20
-3422.275
 30
2483.479
 70
    32
  0
VERTEX
  8
T27SSILL
 62
3
 10
1460.684
 20
-3415.875
 30
2483.470
 70
    32
  0
VERTEX
  8
T27SSILL
 62
3
 10
1458.437
 20
-3416.463
 30
2483.469
 70
    32
  0
VERTEX
  8
T27SSILL
 62
3
 10
1434.733
 20
-3353.211
 30
2483.361
 70
    32
  0
VERTEX
  8
T27SSILL
 62
3
 10
1429.694
 20
-3352.334
 30
2483.356
 70
    32
  0
VERTEX
  8
T27SSILL
 62
3
 10
1425.652
 20
-3353.369
 30
2483.354
 70
    32
  0
VERTEX
  8
T27SSILL
 62
3
 10
1417.223
 20
-3357.655
 30
2483.354
 70
    32
  0
VERTEX
  8
T27SSILL
 62
3
 10
1409.989
 20
-3363.123
 30
2483.356
 70
    32
  0
VERTEX
  8
T27SSILL
 62
3
 10
1407.488
 20
-3363.124
 30
2483.354
 70
    32
  0
VERTEX
  8
T27SSILL
 62
3
 10
1402.873
 20
-3360.472
 30
2483.347
 70
    32
  0
VERTEX
  8
T27SSILL
 62
3
 10
1374.496
 20
-3325.257
 30
2483.482
 70
    32
  0
VERTEX
  8
T27SSILL
 62
3
 10
1061.693
 20
-2897.229
 30
2483.154
 70
    32
  0
VERTEX
  8
T27SSILL
 62
3
 10
1577.490
 20
-2527.293
 30
2482.910
 70
    32
  0
VERTEX
  8
T27SSILL
 62
3
 10
1585.683
 20
-2523.327
 30
2482.905
 70
    32
  0
VERTEX
  8
T27SSILL
 62
3
 10
1597.452
 20
-2521.750
 30
2482.897
 70
    32
  0
VERTEX
  8
T27SSILL
 62
3
 10
1610.168
 20
-2527.287
 30
2482.890
 70
    32
  0
VERTEX
  8
T27SSILL
 62
3
 10
1774.443
 20
-2648.790
 30
2482.884
 70
    32
  0
VERTEX
  8
T27SSILL
 62
3
 10
1860.617
 20
-2710.863
 30
2482.773
 70
    32
  0
VERTEX
  8
T27SSILL
 62
3
 10
1852.305
 20
-2717.474
 30
2482.779
 70
    32
  0
VERTEX
  8
T27SSILL
 62
3
 10
1856.736
 20
-2722.750
 30
2482.775
 70
    32
  0
VERTEX
  8
T27SSILL
 62
3
 10
1866.256
 20
-2715.214
 30
2482.777
 70
    32
  0
VERTEX
  8
T27SSILL
 62
3
 10
1955.627
 20
-2778.293
 30
2482.849
 70
    32
  0
VERTEX
  8
T27SSILL
 62
3
 10
2251.731
 20
-2991.528
 30
2483.088
 70
    32
  0
VERTEX
  8
T27SSILL
 62
3
 10
2274.219
 20
-3025.127
 30
2483.108
 70
    32
  0
VERTEX
  8
T27SSILL
 62
3
 10
2723.030
 20
-3610.790
 30
2483.441
 70
    32
  0
VERTEX
  8
T27SSILL
 62
3
 10
2722.097
 20
-3613.966
 30
2483.442
 70
    32
  0
VERTEX
  8
T27SSILL
 62
3
 10
2719.221
 20
-3616.460
 30
2483.441
 70
    32
  0
VERTEX
  8
T27SSILL
 62
3
 10
2614.994
 20
-3689.978
 30
2483.415
 70
    32
  0
VERTEX
  8
T27SSILL
 62
3
 10
2393.821
 20
-3849.514
 30
2483.310
 70
    32
  0
VERTEX
  8
T27SSILL
 62
3
 10
2374.007
 20
-3841.090
 30
2483.301
 70
    32
  0
VERTEX
  8
T27SSILL
 62
3
 10
2371.696
 20
-3848.683
 30
2483.298
 70
    32
  0
VERTEX
  8
T27SSILL
 62
3
 10
2386.449
 20
-3854.538
 30
2483.305
 70
    32
  0
VERTEX
  8
T27SSILL
 62
3
 10
2376.224
 20
-3862.525
 30
2483.297
 70
    32
  0
VERTEX
  8
T27SSILL
 62
3
 10
2370.569
 20
-3861.077
 30
2483.294
 70
    32
  0
VERTEX
  8
T27SSILL
 62
3
 10
2347.195
 20
-3841.019
 30
2483.285
 70
    32
  0
VERTEX
  8
T27SSILL
 62
3
 10
2344.711
 20
-3837.313
 30
2483.285
 70
    32
  0
VERTEX
  8
T27SSILL
 62
3
 10
2345.083
 20
-3835.643
 30
2483.285
 70
    32
  0
VERTEX
  8
T27SSILL
 62
3
 10
2348.546
 20
-3833.393
 30
2483.288
 70
    32
  0
VERTEX
  8
T27SSILL
 62
3
 10
2357.642
 20
-3831.560
 30
2483.294
 70
    32
  0
VERTEX
  8
T27SSILL
 62
3
 10
2360.066
 20
-3827.624
 30
2483.296
 70
    32
  0
VERTEX
  8
T27SSILL
 62
3
 10
2360.239
 20
-3820.401
 30
2483.298
 70
    32
  0
VERTEX
  8
T27SSILL
 62
3
 10
2352.674
 20
-3811.767
 30
2483.295
 70
    32
  0
VERTEX
  8
T27SSILL
 62
3
 10
2340.227
 20
-3798.670
 30
2483.291
 70
    32
  0
VERTEX
  8
T27SSILL
 62
3
 10
2331.498
 20
-3791.609
 30
2483.288
 70
    32
  0
VERTEX
  8
T27SSILL
 62
3
 10
2325.439
 20
-3789.864
 30
2483.285
 70
    32
  0
VERTEX
  8
T27SSILL
 62
3
 10
2315.816
 20
-3784.025
 30
2483.281
 70
    32
  0
VERTEX
  8
T27SSILL
 62
3
 10
2313.045
 20
-3779.852
 30
2483.280
 70
    32
  0
VERTEX
  8
T27SSILL
 62
3
 10
2309.310
 20
-3767.650
 30
2483.281
 70
    32
  0
VERTEX
  8
T27SSILL
 62
3
 10
2301.376
 20
-3760.509
 30
2483.278
 70
    32
  0
VERTEX
  8
T27SSILL
 62
3
 10
2295.597
 20
-3757.358
 30
2483.276
 70
    32
  0
VERTEX
  8
T27SSILL
 62
3
 10
2291.605
 20
-3752.114
 30
2483.275
 70
    32
  0
VERTEX
  8
T27SSILL
 62
3
 10
2278.315
 20
-3758.479
 30
2483.266
 70
    32
  0
VERTEX
  8
T27SSILL
 62
3
 10
2273.810
 20
-3751.907
 30
2483.264
 70
    32
  0
VERTEX
  8
T27SSILL
 62
3
 10
2283.572
 20
-3745.853
 30
2483.271
 70
    32
  0
VERTEX
  8
T27SSILL
 62
3
 10
2269.182
 20
-3725.598
 30
2483.266
 70
    32
  0
VERTEX
  8
T27SSILL
 62
3
 10
2260.115
 20
-3732.541
 30
2483.261
 70
    32
  0
VERTEX
  8
T27SSILL
 62
3
 10
2257.953
 20
-3729.079
 30
2483.261
 70
    32
  0
VERTEX
  8
T27SSILL
 62
3
 10
2243.173
 20
-3681.683
 30
2483.240
 70
    32
  0
VERTEX
  8
T27SSILL
 62
3
 10
2236.969
 20
-3684.870
 30
2483.239
 70
    32
  0
VERTEX
  8
T27SSILL
 62
3
 10
2249.933
 20
-3729.250
 30
2483.256
 70
    32
  0
VERTEX
  8
T27SSILL
 62
3
 10
2238.559
 20
-3722.422
 30
2483.251
 70
    32
  0
VERTEX
  8
T27SSILL
 62
3
 10
2216.021
 20
-3713.349
 30
2483.237
 70
    32
  0
VERTEX
  8
T27SSILL
 62
3
 10
2206.031
 20
-3701.163
 30
2483.229
 70
    32
  0
VERTEX
  8
T27SSILL
 62
3
 10
2191.044
 20
-3679.138
 30
2483.216
 70
    32
  0
VERTEX
  8
T27SSILL
 62
3
 10
2187.578
 20
-3677.342
 30
2483.213
 70
    32
  0
VERTEX
  8
T27SSILL
 62
3
 10
2149.065
 20
-3624.741
 30
2483.180
 70
    32
  0
VERTEX
  8
T27SSILL
 62
3
 10
2143.028
 20
-3629.782
 30
2483.179
 70
    32
  0
VERTEX
  8
T27SSILL
 62
3
 10
2179.554
 20
-3678.373
 30
2483.210
 70
    32
  0
VERTEX
  8
T27SSILL
 62
3
 10
2141.395
 20
-3729.894
 30
2483.194
 70
    32
  0
SEQEND
  8
T27SSILL
  0
POLYLINE
  8
T27SSILL
 62
3
 66
     1
 70
     9
  0
VERTEX
  8
T27SSILL
 62
3
 10
2140.575
 20
-3737.823
 30
2483.192
 70
    32
  0
VERTEX
  8
T27SSILL
 62
3
 10
2154.259
 20
-3757.435
 30
2483.195
 70
    32
  0
VERTEX
  8
T27SSILL
 62
3
 10
2190.271
 20
-3730.495
 30
2483.222
 70
    32
  0
VERTEX
  8
T27SSILL
 62
3
 10
2209.173
 20
-3718.820
 30
2483.235
 70
    32
  0
VERTEX
  8
T27SSILL
 62
3
 10
2183.509
 20
-3681.648
 30
2483.213
 70
    32
  0
VERTEX
  8
T27SSILL
 62
3
 10
2145.167
 20
-3735.018
 30
2483.195
 70
    32
  0
SEQEND
  8
T27SSILL
  0
POLYLINE
  8
T27SSILL
 62
3
 66
     1
 70
     9
  0
VERTEX
  8
T27SSILL
 62
3
 10
1099.796
 20
-3314.698
 30
2482.916
 70
    32
  0
VERTEX
  8
T27SSILL
 62
3
 10
887.814
 20
-3069.689
 30
2483.068
 70
    32
  0
VERTEX
  8
T27SSILL
 62
3
 10
880.603
 20
-3064.196
 30
2483.086
 70
    32
  0
VERTEX
  8
T27SSILL
 62
3
 10
873.021
 20
-3060.421
 30
2483.104
 70
    32
  0
VERTEX
  8
T27SSILL
 62
3
 10
865.188
 20
-3057.563
 30
2483.123
 70
    32
  0
VERTEX
  8
T27SSILL
 62
3
 10
857.577
 20
-3056.839
 30
2483.140
 70
    32
  0
VERTEX
  8
T27SSILL
 62
3
 10
848.542
 20
-3056.886
 30
2483.150
 70
    32
  0
VERTEX
  8
T27SSILL
 62
3
 10
837.004
 20
-3060.618
 30
2483.162
 70
    32
  0
VERTEX
  8
T27SSILL
 62
3
 10
814.500
 20
-3075.847
 30
2483.166
 70
    32
  0
VERTEX
  8
T27SSILL
 62
3
 10
808.906
 20
-3083.612
 30
2483.161
 70
    32
  0
VERTEX
  8
T27SSILL
 62
3
 10
808.456
 20
-3090.868
 30
2483.161
 70
    32
  0
VERTEX
  8
T27SSILL
 62
3
 10
812.365
 20
-3101.671
 30
2483.164
 70
    32
  0
VERTEX
  8
T27SSILL
 62
3
 10
815.475
 20
-3105.254
 30
2483.167
 70
    32
  0
VERTEX
  8
T27SSILL
 62
3
 10
838.052
 20
-3121.612
 30
2483.153
 70
    32
  0
VERTEX
  8
T27SSILL
 62
3
 10
837.250
 20
-3125.915
 30
2483.153
 70
    32
  0
VERTEX
  8
T27SSILL
 62
3
 10
828.324
 20
-3129.707
 30
2483.162
 70
    32
  0
VERTEX
  8
T27SSILL
 62
3
 10
824.023
 20
-3126.227
 30
2483.167
 70
    32
  0
VERTEX
  8
T27SSILL
 62
3
 10
817.376
 20
-3118.033
 30
2483.169
 70
    32
  0
VERTEX
  8
T27SSILL
 62
3
 10
808.965
 20
-3118.934
 30
2483.161
 70
    32
  0
VERTEX
  8
T27SSILL
 62
3
 10
802.387
 20
-3108.005
 30
2483.155
 70
    32
  0
VERTEX
  8
T27SSILL
 62
3
 10
804.212
 20
-3104.209
 30
2483.156
 70
    32
  0
VERTEX
  8
T27SSILL
 62
3
 10
801.197
 20
-3097.518
 30
2483.153
 70
    32
  0
VERTEX
  8
T27SSILL
 62
3
 10
798.414
 20
-3094.581
 30
2483.148
 70
    32
  0
VERTEX
  8
T27SSILL
 62
3
 10
794.165
 20
-3094.779
 30
2483.141
 70
    32
  0
VERTEX
  8
T27SSILL
 62
3
 10
790.591
 20
-3093.343
 30
2483.134
 70
    32
  0
VERTEX
  8
T27SSILL
 62
3
 10
700.329
 20
-3158.663
 30
2483.217
 70
    32
  0
VERTEX
  8
T27SSILL
 62
3
 10
720.440
 20
-3186.121
 30
2483.206
 70
    32
  0
VERTEX
  8
T27SSILL
 62
3
 10
732.076
 20
-3178.346
 30
2483.193
 70
    32
  0
VERTEX
  8
T27SSILL
 62
3
 10
727.083
 20
-3171.120
 30
2483.196
 70
    32
  0
VERTEX
  8
T27SSILL
 62
3
 10
734.963
 20
-3167.463
 30
2483.187
 70
    32
  0
VERTEX
  8
T27SSILL
 62
3
 10
743.592
 20
-3180.219
 30
2483.183
 70
    32
  0
VERTEX
  8
T27SSILL
 62
3
 10
725.554
 20
-3193.084
 30
2483.203
 70
    32
  0
VERTEX
  8
T27SSILL
 62
3
 10
750.692
 20
-3228.746
 30
2483.190
 70
    32
  0
VERTEX
  8
T27SSILL
 62
3
 10
764.092
 20
-3218.044
 30
2483.174
 70
    32
  0
VERTEX
  8
T27SSILL
 62
3
 10
768.006
 20
-3223.491
 30
2483.172
 70
    32
  0
VERTEX
  8
T27SSILL
 62
3
 10
754.006
 20
-3232.966
 30
2483.188
 70
    32
  0
VERTEX
  8
T27SSILL
 62
3
 10
890.571
 20
-3422.194
 30
2482.961
 70
    32
  0
VERTEX
  8
T27SSILL
 62
3
 10
901.448
 20
-3426.949
 30
2482.953
 70
    32
  0
VERTEX
  8
T27SSILL
 62
3
 10
983.614
 20
-3367.749
 30
2483.063
 70
    32
  0
VERTEX
  8
T27SSILL
 62
3
 10
938.389
 20
-3305.680
 30
2483.057
 70
    32
  0
VERTEX
  8
T27SSILL
 62
3
 10
934.510
 20
-3308.313
 30
2483.063
 70
    32
  0
VERTEX
  8
T27SSILL
 62
3
 10
928.245
 20
-3293.910
 30
2483.050
 70
    32
  0
VERTEX
  8
T27SSILL
 62
3
 10
901.206
 20
-3252.524
 30
2483.016
 70
    32
  0
VERTEX
  8
T27SSILL
 62
3
 10
896.482
 20
-3247.715
 30
2483.013
 70
    32
  0
VERTEX
  8
T27SSILL
 62
3
 10
887.380
 20
-3241.652
 30
2483.012
 70
    32
  0
VERTEX
  8
T27SSILL
 62
3
 10
893.034
 20
-3235.580
 30
2483.001
 70
    32
  0
VERTEX
  8
T27SSILL
 62
3
 10
897.615
 20
-3233.404
 30
2482.995
 70
    32
  0
VERTEX
  8
T27SSILL
 62
3
 10
908.024
 20
-3239.553
 30
2482.995
 70
    32
  0
VERTEX
  8
T27SSILL
 62
3
 10
914.426
 20
-3245.621
 30
2482.998
 70
    32
  0
VERTEX
  8
T27SSILL
 62
3
 10
924.449
 20
-3238.668
 30
2482.982
 70
    32
  0
VERTEX
  8
T27SSILL
 62
3
 10
922.245
 20
-3234.335
 30
2482.978
 70
    32
  0
VERTEX
  8
T27SSILL
 62
3
 10
928.704
 20
-3230.553
 30
2482.969
 70
    32
  0
VERTEX
  8
T27SSILL
 62
3
 10
937.497
 20
-3247.002
 30
2482.983
 70
    32
  0
VERTEX
  8
T27SSILL
 62
3
 10
940.421
 20
-3254.933
 30
2482.991
 70
    32
  0
VERTEX
  8
T27SSILL
 62
3
 10
943.637
 20
-3270.745
 30
2483.009
 70
    32
  0
VERTEX
  8
T27SSILL
 62
3
 10
943.187
 20
-3277.976
 30
2483.019
 70
    32
  0
VERTEX
  8
T27SSILL
 62
3
 10
941.303
 20
-3281.276
 30
2483.024
 70
    32
  0
VERTEX
  8
T27SSILL
 62
3
 10
936.703
 20
-3285.271
 30
2483.033
 70
    32
  0
VERTEX
  8
T27SSILL
 62
3
 10
945.758
 20
-3297.230
 30
2483.041
 70
    32
  0
VERTEX
  8
T27SSILL
 62
3
 10
943.462
 20
-3300.295
 30
2483.047
 70
    32
  0
VERTEX
  8
T27SSILL
 62
3
 10
985.963
 20
-3358.014
 30
2483.081
 70
    32
  0
VERTEX
  8
T27SSILL
 62
3
 10
994.978
 20
-3359.561
 30
2483.078
 70
    32
  0
VERTEX
  8
T27SSILL
 62
3
 10
1056.790
 20
-3315.959
 30
2482.964
 70
    32
  0
VERTEX
  8
T27SSILL
 62
3
 10
1067.743
 20
-3311.687
 30
2482.946
 70
    32
  0
VERTEX
  8
T27SSILL
 62
3
 10
1084.281
 20
-3310.363
 30
2482.927
 70
    32
  0
SEQEND
  8
T27SSILL
  0
POLYLINE
  8
T27SSILL
 62
3
 66
     1
 70
     9
  0
VERTEX
  8
T27SSILL
 62
3
 10
553.822
 20
-3532.267
 30
2483.188
 70
    32
  0
VERTEX
  8
T27SSILL
 62
3
 10
618.012
 20
-3619.399
 30
2482.986
 70
    32
  0
VERTEX
  8
T27SSILL
 62
3
 10
624.787
 20
-3620.549
 30
2482.976
 70
    32
  0
VERTEX
  8
T27SSILL
 62
3
 10
629.844
 20
-3620.248
 30
2482.971
 70
    32
  0
VERTEX
  8
T27SSILL
 62
3
 10
646.210
 20
-3607.239
 30
2482.971
 70
    32
  0
VERTEX
  8
T27SSILL
 62
3
 10
770.329
 20
-3520.403
 30
2482.957
 70
    32
  0
VERTEX
  8
T27SSILL
 62
3
 10
766.554
 20
-3515.652
 30
2482.969
 70
    32
  0
VERTEX
  8
T27SSILL
 62
3
 10
776.606
 20
-3509.136
 30
2482.967
 70
    32
  0
VERTEX
  8
T27SSILL
 62
3
 10
779.647
 20
-3513.711
 30
2482.957
 70
    32
  0
VERTEX
  8
T27SSILL
 62
3
 10
793.535
 20
-3503.169
 30
2482.956
 70
    32
  0
VERTEX
  8
T27SSILL
 62
3
 10
783.736
 20
-3489.333
 30
2482.989
 70
    32
  0
VERTEX
  8
T27SSILL
 62
3
 10
789.771
 20
-3485.026
 30
2482.988
 70
    32
  0
VERTEX
  8
T27SSILL
 62
3
 10
797.048
 20
-3494.883
 30
2482.965
 70
    32
  0
VERTEX
  8
T27SSILL
 62
3
 10
805.618
 20
-3495.239
 30
2482.954
 70
    32
  0
VERTEX
  8
T27SSILL
 62
3
 10
813.768
 20
-3489.212
 30
2482.954
 70
    32
  0
VERTEX
  8
T27SSILL
 62
3
 10
805.369
 20
-3476.722
 30
2482.982
 70
    32
  0
VERTEX
  8
T27SSILL
 62
3
 10
812.373
 20
-3471.922
 30
2482.981
 70
    32
  0
VERTEX
  8
T27SSILL
 62
3
 10
821.427
 20
-3483.960
 30
2482.953
 70
    32
  0
VERTEX
  8
T27SSILL
 62
3
 10
894.072
 20
-3431.723
 30
2482.945
 70
    32
  0
VERTEX
  8
T27SSILL
 62
3
 10
884.705
 20
-3427.635
 30
2482.959
 70
    32
  0
VERTEX
  8
T27SSILL
 62
3
 10
694.608
 20
-3162.930
 30
2483.224
 70
    32
  0
VERTEX
  8
T27SSILL
 62
3
 10
613.075
 20
-3221.953
 30
2483.318
 70
    32
  0
VERTEX
  8
T27SSILL
 62
3
 10
596.066
 20
-3231.714
 30
2483.336
 70
    32
  0
VERTEX
  8
T27SSILL
 62
3
 10
591.829
 20
-3282.866
 30
2483.351
 70
    32
  0
VERTEX
  8
T27SSILL
 62
3
 10
585.095
 20
-3282.079
 30
2483.357
 70
    32
  0
VERTEX
  8
T27SSILL
 62
3
 10
588.758
 20
-3233.752
 30
2483.344
 70
    32
  0
VERTEX
  8
T27SSILL
 62
3
 10
578.605
 20
-3236.398
 30
2483.354
 70
    32
  0
VERTEX
  8
T27SSILL
 62
3
 10
570.902
 20
-3236.103
 30
2483.361
 70
    32
  0
VERTEX
  8
T27SSILL
 62
3
 10
559.009
 20
-3233.395
 30
2483.372
 70
    32
  0
VERTEX
  8
T27SSILL
 62
3
 10
549.482
 20
-3228.050
 30
2483.379
 70
    32
  0
VERTEX
  8
T27SSILL
 62
3
 10
507.685
 20
-3258.049
 30
2483.427
 70
    32
  0
VERTEX
  8
T27SSILL
 62
3
 10
432.344
 20
-3309.133
 30
2483.460
 70
    32
  0
VERTEX
  8
T27SSILL
 62
3
 10
438.028
 20
-3319.827
 30
2483.448
 70
    32
  0
VERTEX
  8
T27SSILL
 62
3
 10
436.083
 20
-3329.713
 30
2483.444
 70
    32
  0
VERTEX
  8
T27SSILL
 62
3
 10
417.898
 20
-3342.703
 30
2483.449
 70
    32
  0
VERTEX
  8
T27SSILL
 62
3
 10
440.051
 20
-3373.549
 30
2483.413
 70
    32
  0
VERTEX
  8
T27SSILL
 62
3
 10
445.583
 20
-3371.293
 30
2483.409
 70
    32
  0
VERTEX
  8
T27SSILL
 62
3
 10
447.311
 20
-3369.356
 30
2483.409
 70
    32
  0
VERTEX
  8
T27SSILL
 62
3
 10
442.989
 20
-3363.777
 30
2483.416
 70
    32
  0
VERTEX
  8
T27SSILL
 62
3
 10
450.201
 20
-3361.650
 30
2483.411
 70
    32
  0
VERTEX
  8
T27SSILL
 62
3
 10
456.726
 20
-3372.127
 30
2483.401
 70
    32
  0
VERTEX
  8
T27SSILL
 62
3
 10
467.716
 20
-3364.405
 30
2483.396
 70
    32
  0
VERTEX
  8
T27SSILL
 62
3
 10
475.729
 20
-3375.052
 30
2483.386
 70
    32
  0
VERTEX
  8
T27SSILL
 62
3
 10
464.446
 20
-3383.682
 30
2483.392
 70
    32
  0
VERTEX
  8
T27SSILL
 62
3
 10
463.545
 20
-3385.526
 30
2483.392
 70
    32
  0
VERTEX
  8
T27SSILL
 62
3
 10
464.404
 20
-3397.239
 30
2483.388
 70
    32
  0
VERTEX
  8
T27SSILL
 62
3
 10
467.037
 20
-3401.118
 30
2483.385
 70
    32
  0
VERTEX
  8
T27SSILL
 62
3
 10
462.231
 20
-3404.713
 30
2483.388
 70
    32
  0
VERTEX
  8
T27SSILL
 62
3
 10
491.149
 20
-3444.493
 30
2483.331
 70
    32
  0
VERTEX
  8
T27SSILL
 62
3
 10
496.326
 20
-3440.941
 30
2483.330
 70
    32
  0
VERTEX
  8
T27SSILL
 62
3
 10
499.266
 20
-3444.688
 30
2483.324
 70
    32
  0
VERTEX
  8
T27SSILL
 62
3
 10
494.673
 20
-3449.307
 30
2483.324
 70
    32
  0
SEQEND
  8
T27SSILL
  0
POLYLINE
  8
T27SSILL
 62
3
 66
     1
 70
     9
  0
VERTEX
  8
T27SSILL
 62
3
 10
468.866
 20
-3459.840
 30
2483.338
 70
    32
  0
VERTEX
  8
T27SSILL
 62
3
 10
447.594
 20
-3428.969
 30
2483.384
 70
    32
  0
VERTEX
  8
T27SSILL
 62
3
 10
453.007
 20
-3425.005
 30
2483.382
 70
    32
  0
VERTEX
  8
T27SSILL
 62
3
 10
445.665
 20
-3415.627
 30
2483.397
 70
    32
  0
VERTEX
  8
T27SSILL
 62
3
 10
450.843
 20
-3412.075
 30
2483.394
 70
    32
  0
VERTEX
  8
T27SSILL
 62
3
 10
447.291
 20
-3406.898
 30
2483.398
 70
    32
  0
VERTEX
  8
T27SSILL
 62
3
 10
452.661
 20
-3403.305
 30
2483.395
 70
    32
  0
VERTEX
  8
T27SSILL
 62
3
 10
449.932
 20
-3399.164
 30
2483.398
 70
    32
  0
VERTEX
  8
T27SSILL
 62
3
 10
442.426
 20
-3398.369
 30
2483.404
 70
    32
  0
VERTEX
  8
T27SSILL
 62
3
 10
435.866
 20
-3386.004
 30
2483.412
 70
    32
  0
VERTEX
  8
T27SSILL
 62
3
 10
433.617
 20
-3387.003
 30
2483.414
 70
    32
  0
VERTEX
  8
T27SSILL
 62
3
 10
430.474
 20
-3374.401
 30
2483.420
 70
    32
  0
VERTEX
  8
T27SSILL
 62
3
 10
421.127
 20
-3380.930
 30
2483.425
 70
    32
  0
VERTEX
  8
T27SSILL
 62
3
 10
428.466
 20
-3390.872
 30
2483.416
 70
    32
  0
VERTEX
  8
T27SSILL
 62
3
 10
422.958
 20
-3394.575
 30
2483.419
 70
    32
  0
VERTEX
  8
T27SSILL
 62
3
 10
420.243
 20
-3390.309
 30
2483.423
 70
    32
  0
VERTEX
  8
T27SSILL
 62
3
 10
415.369
 20
-3393.959
 30
2483.425
 70
    32
  0
VERTEX
  8
T27SSILL
 62
3
 10
410.869
 20
-3387.731
 30
2483.430
 70
    32
  0
VERTEX
  8
T27SSILL
 62
3
 10
405.993
 20
-3391.945
 30
2483.433
 70
    32
  0
VERTEX
  8
T27SSILL
 62
3
 10
402.193
 20
-3386.740
 30
2483.437
 70
    32
  0
VERTEX
  8
T27SSILL
 62
3
 10
391.561
 20
-3394.628
 30
2483.442
 70
    32
  0
VERTEX
  8
T27SSILL
 62
3
 10
377.287
 20
-3372.844
 30
2483.462
 70
    32
  0
VERTEX
  8
T27SSILL
 62
3
 10
398.340
 20
-3358.926
 30
2483.454
 70
    32
  0
VERTEX
  8
T27SSILL
 62
3
 10
402.028
 20
-3364.559
 30
2483.448
 70
    32
  0
VERTEX
  8
T27SSILL
 62
3
 10
412.728
 20
-3357.180
 30
2483.444
 70
    32
  0
VERTEX
  8
T27SSILL
 62
3
 10
414.607
 20
-3359.969
 30
2483.441
 70
    32
  0
VERTEX
  8
T27SSILL
 62
3
 10
418.970
 20
-3356.952
 30
2483.439
 70
    32
  0
VERTEX
  8
T27SSILL
 62
3
 10
411.134
 20
-3346.953
 30
2483.452
 70
    32
  0
VERTEX
  8
T27SSILL
 62
3
 10
372.430
 20
-3375.240
 30
2483.464
 70
    32
  0
VERTEX
  8
T27SSILL
 62
3
 10
364.426
 20
-3374.953
 30
2483.471
 70
    32
  0
VERTEX
  8
T27SSILL
 62
3
 10
360.892
 20
-3372.917
 30
2483.475
 70
    32
  0
VERTEX
  8
T27SSILL
 62
3
 10
357.960
 20
-3367.811
 30
2483.480
 70
    32
  0
VERTEX
  8
T27SSILL
 62
3
 10
355.088
 20
-3365.473
 30
2483.484
 70
    32
  0
VERTEX
  8
T27SSILL
 62
3
 10
304.085
 20
-3401.396
 30
2483.505
 70
    32
  0
VERTEX
  8
T27SSILL
 62
3
 10
323.564
 20
-3428.170
 30
2483.483
 70
    32
  0
VERTEX
  8
T27SSILL
 62
3
 10
332.596
 20
-3421.103
 30
2483.478
 70
    32
  0
VERTEX
  8
T27SSILL
 62
3
 10
336.573
 20
-3426.957
 30
2483.474
 70
    32
  0
VERTEX
  8
T27SSILL
 62
3
 10
327.102
 20
-3433.471
 30
2483.479
 70
    32
  0
VERTEX
  8
T27SSILL
 62
3
 10
342.686
 20
-3454.777
 30
2483.455
 70
    32
  0
VERTEX
  8
T27SSILL
 62
3
 10
347.242
 20
-3452.550
 30
2483.453
 70
    32
  0
VERTEX
  8
T27SSILL
 62
3
 10
349.778
 20
-3455.901
 30
2483.448
 70
    32
  0
VERTEX
  8
T27SSILL
 62
3
 10
342.447
 20
-3460.714
 30
2483.451
 70
    32
  0
VERTEX
  8
T27SSILL
 62
3
 10
336.705
 20
-3455.475
 30
2483.460
 70
    32
  0
VERTEX
  8
T27SSILL
 62
3
 10
334.288
 20
-3457.396
 30
2483.461
 70
    32
  0
VERTEX
  8
T27SSILL
 62
3
 10
302.070
 20
-3411.336
 30
2483.503
 70
    32
  0
VERTEX
  8
T27SSILL
 62
3
 10
296.138
 20
-3409.403
 30
2483.508
 70
    32
  0
VERTEX
  8
T27SSILL
 62
3
 10
291.481
 20
-3409.499
 30
2483.512
 70
    32
  0
VERTEX
  8
T27SSILL
 62
3
 10
259.735
 20
-3432.931
 30
2483.528
 70
    32
  0
VERTEX
  8
T27SSILL
 62
3
 10
254.659
 20
-3439.445
 30
2483.530
 70
    32
  0
VERTEX
  8
T27SSILL
 62
3
 10
252.246
 20
-3449.026
 30
2483.529
 70
    32
  0
VERTEX
  8
T27SSILL
 62
3
 10
254.953
 20
-3459.946
 30
2483.524
 70
    32
  0
VERTEX
  8
T27SSILL
 62
3
 10
432.903
 20
-3704.789
 30
2483.250
 70
    32
  0
VERTEX
  8
T27SSILL
 62
3
 10
441.017
 20
-3714.004
 30
2483.243
 70
    32
  0
VERTEX
  8
T27SSILL
 62
3
 10
453.011
 20
-3720.020
 30
2483.236
 70
    32
  0
VERTEX
  8
T27SSILL
 62
3
 10
469.147
 20
-3723.308
 30
2483.228
 70
    32
  0
VERTEX
  8
T27SSILL
 62
3
 10
478.504
 20
-3722.745
 30
2483.224
 70
    32
  0
VERTEX
  8
T27SSILL
 62
3
 10
485.549
 20
-3720.976
 30
2483.222
 70
    32
  0
VERTEX
  8
T27SSILL
 62
3
 10
500.704
 20
-3711.971
 30
2483.193
 70
    32
  0
VERTEX
  8
T27SSILL
 62
3
 10
616.080
 20
-3629.160
 30
2482.973
 70
    32
  0
VERTEX
  8
T27SSILL
 62
3
 10
488.476
 20
-3453.605
 30
2483.326
 70
    32
  0
VERTEX
  8
T27SSILL
 62
3
 10
478.273
 20
-3460.476
 30
2483.329
 70
    32
  0
VERTEX
  8
T27SSILL
 62
3
 10
474.457
 20
-3455.959
 30
2483.336
 70
    32
  0
SEQEND
  8
T27SSILL
  0
POLYLINE
  8
T27SSILL
 62
3
 66
     1
 70
     9
  0
VERTEX
  8
T27SSILL
 62
3
 10
1462.230
 20
-3467.479
 30
2483.470
 70
    32
  0
VERTEX
  8
T27SSILL
 62
3
 10
1473.975
 20
-3474.463
 30
2483.373
 70
    32
  0
VERTEX
  8
T27SSILL
 62
3
 10
1473.984
 20
-3481.278
 30
2483.355
 70
    32
  0
VERTEX
  8
T27SSILL
 62
3
 10
1489.496
 20
-3483.699
 30
2483.244
 70
    32
  0
VERTEX
  8
T27SSILL
 62
3
 10
1517.524
 20
-3519.876
 30
2482.961
 70
    32
  0
VERTEX
  8
T27SSILL
 62
3
 10
1521.601
 20
-3531.660
 30
2482.903
 70
    32
  0
VERTEX
  8
T27SSILL
 62
3
 10
1519.897
 20
-3543.743
 30
2482.883
 70
    32
  0
VERTEX
  8
T27SSILL
 62
3
 10
1499.131
 20
-3592.374
 30
2482.890
 70
    32
  0
VERTEX
  8
T27SSILL
 62
3
 10
1454.626
 20
-3690.517
 30
2482.995
 70
    32
  0
VERTEX
  8
T27SSILL
 62
3
 10
1451.260
 20
-3700.028
 30
2483.003
 70
    32
  0
VERTEX
  8
T27SSILL
 62
3
 10
1450.472
 20
-3708.822
 30
2483.006
 70
    32
  0
VERTEX
  8
T27SSILL
 62
3
 10
1079.795
 20
-3280.397
 30
2482.910
 70
    32
  0
VERTEX
  8
T27SSILL
 62
3
 10
1079.311
 20
-3273.137
 30
2482.924
 70
    32
  0
VERTEX
  8
T27SSILL
 62
3
 10
1089.912
 20
-3262.776
 30
2482.975
 70
    32
  0
VERTEX
  8
T27SSILL
 62
3
 10
1084.552
 20
-3257.512
 30
2482.970
 70
    32
  0
VERTEX
  8
T27SSILL
 62
3
 10
1071.527
 20
-3270.469
 30
2482.907
 70
    32
  0
VERTEX
  8
T27SSILL
 62
3
 10
869.044
 20
-3035.598
 30
2483.132
 70
    32
  0
VERTEX
  8
T27SSILL
 62
3
 10
1055.393
 20
-2901.754
 30
2483.154
 70
    32
  0
VERTEX
  8
T27SSILL
 62
3
 10
1246.669
 20
-3169.286
 30
2483.589
 70
    32
  0
VERTEX
  8
T27SSILL
 62
3
 10
1313.011
 20
-3258.313
 30
2483.574
 70
    32
  0
VERTEX
  8
T27SSILL
 62
3
 10
1463.469
 20
-3450.661
 30
2483.505
 70
    32
  0
VERTEX
  8
T27SSILL
 62
3
 10
1465.743
 20
-3458.577
 30
2483.469
 70
    32
  0
VERTEX
  8
T27SSILL
 62
3
 10
1463.212
 20
-3460.763
 30
2483.481
 70
    32
  0
VERTEX
  8
T27SSILL
 62
3
 10
1452.930
 20
-3456.675
 30
2483.520
 70
    32
  0
VERTEX
  8
T27SSILL
 62
3
 10
1448.449
 20
-3460.229
 30
2483.497
 70
    32
  0
VERTEX
  8
T27SSILL
 62
3
 10
1457.572
 20
-3465.029
 30
2483.508
 70
    32
  0
SEQEND
  8
T27SSILL
  0
POLYLINE
  8
T27SSILL
 62
3
 66
     1
 70
     9
  0
VERTEX
  8
T27SSILL
 62
3
 10
1284.177
 20
-3670.245
 30
2482.384
 70
    32
  0
VERTEX
  8
T27SSILL
 62
3
 10
1281.648
 20
-3672.286
 30
2482.363
 70
    32
  0
VERTEX
  8
T27SSILL
 62
3
 10
1278.925
 20
-3677.937
 30
2482.327
 70
    32
  0
VERTEX
  8
T27SSILL
 62
3
 10
1280.521
 20
-3683.627
 30
2482.312
 70
    32
  0
VERTEX
  8
T27SSILL
 62
3
 10
1289.037
 20
-3699.836
 30
2482.289
 70
    32
  0
VERTEX
  8
T27SSILL
 62
3
 10
1297.760
 20
-3708.998
 30
2482.296
 70
    32
  0
VERTEX
  8
T27SSILL
 62
3
 10
1298.428
 20
-3719.245
 30
2482.258
 70
    32
  0
VERTEX
  8
T27SSILL
 62
3
 10
1306.747
 20
-3727.160
 30
2482.268
 70
    32
  0
VERTEX
  8
T27SSILL
 62
3
 10
1306.485
 20
-3736.058
 30
2482.231
 70
    32
  0
VERTEX
  8
T27SSILL
 62
3
 10
1308.524
 20
-3756.661
 30
2482.158
 70
    32
  0
VERTEX
  8
T27SSILL
 62
3
 10
1311.562
 20
-3773.238
 30
2482.107
 70
    32
  0
VERTEX
  8
T27SSILL
 62
3
 10
1308.629
 20
-3777.031
 30
2482.077
 70
    32
  0
VERTEX
  8
T27SSILL
 62
3
 10
1314.686
 20
-3795.901
 30
2482.031
 70
    32
  0
VERTEX
  8
T27SSILL
 62
3
 10
1316.032
 20
-3825.036
 30
2481.919
 70
    32
  0
VERTEX
  8
T27SSILL
 62
3
 10
1318.009
 20
-3832.765
 30
2481.915
 70
    32
  0
VERTEX
  8
T27SSILL
 62
3
 10
1315.698
 20
-3836.399
 30
2481.906
 70
    32
  0
VERTEX
  8
T27SSILL
 62
3
 10
1320.656
 20
-3856.648
 30
2481.939
 70
    32
  0
VERTEX
  8
T27SSILL
 62
3
 10
1317.896
 20
-3878.520
 30
2481.958
 70
    32
  0
VERTEX
  8
T27SSILL
 62
3
 10
1323.017
 20
-3899.214
 30
2481.998
 70
    32
  0
VERTEX
  8
T27SSILL
 62
3
 10
1325.437
 20
-3918.859
 30
2482.028
 70
    32
  0
VERTEX
  8
T27SSILL
 62
3
 10
1337.572
 20
-3928.915
 30
2482.073
 70
    32
  0
VERTEX
  8
T27SSILL
 62
3
 10
1339.629
 20
-3933.913
 30
2482.085
 70
    32
  0
VERTEX
  8
T27SSILL
 62
3
 10
1336.642
 20
-3936.558
 30
2482.080
 70
    32
  0
VERTEX
  8
T27SSILL
 62
3
 10
1348.362
 20
-3957.711
 30
2482.138
 70
    32
  0
VERTEX
  8
T27SSILL
 62
3
 10
1344.802
 20
-3967.177
 30
2482.140
 70
    32
  0
VERTEX
  8
T27SSILL
 62
3
 10
1347.248
 20
-3965.613
 30
2482.144
 70
    32
  0
VERTEX
  8
T27SSILL
 62
3
 10
1350.699
 20
-3971.181
 30
2482.160
 70
    32
  0
VERTEX
  8
T27SSILL
 62
3
 10
1346.172
 20
-3975.191
 30
2482.153
 70
    32
  0
VERTEX
  8
T27SSILL
 62
3
 10
1393.695
 20
-4041.042
 30
2482.361
 70
    32
  0
VERTEX
  8
T27SSILL
 62
3
 10
1403.948
 20
-4040.197
 30
2482.388
 70
    32
  0
VERTEX
  8
T27SSILL
 62
3
 10
1409.546
 20
-4044.682
 30
2482.408
 70
    32
  0
VERTEX
  8
T27SSILL
 62
3
 10
1415.068
 20
-4042.817
 30
2482.421
 70
    32
  0
VERTEX
  8
T27SSILL
 62
3
 10
1419.894
 20
-4052.570
 30
2482.446
 70
    32
  0
VERTEX
  8
T27SSILL
 62
3
 10
1413.090
 20
-4059.070
 30
2482.435
 70
    32
  0
VERTEX
  8
T27SSILL
 62
3
 10
1413.398
 20
-4063.576
 30
2482.442
 70
    32
  0
VERTEX
  8
T27SSILL
 62
3
 10
1477.159
 20
-4128.934
 30
2482.654
 70
    32
  0
VERTEX
  8
T27SSILL
 62
3
 10
1502.162
 20
-4100.222
 30
2482.695
 70
    32
  0
VERTEX
  8
T27SSILL
 62
3
 10
1507.033
 20
-4105.480
 30
2482.697
 70
    32
  0
VERTEX
  8
T27SSILL
 62
3
 10
1510.329
 20
-4107.340
 30
2482.700
 70
    32
  0
VERTEX
  8
T27SSILL
 62
3
 10
1512.075
 20
-4110.918
 30
2482.699
 70
    32
  0
VERTEX
  8
T27SSILL
 62
3
 10
1511.645
 20
-4113.550
 30
2482.696
 70
    32
  0
VERTEX
  8
T27SSILL
 62
3
 10
1505.278
 20
-4126.147
 30
2482.687
 70
    32
  0
VERTEX
  8
T27SSILL
 62
3
 10
1506.892
 20
-4131.220
 30
2482.692
 70
    32
  0
VERTEX
  8
T27SSILL
 62
3
 10
1510.312
 20
-4134.848
 30
2482.699
 70
    32
  0
VERTEX
  8
T27SSILL
 62
3
 10
1515.615
 20
-4149.375
 30
2482.714
 70
    32
  0
VERTEX
  8
T27SSILL
 62
3
 10
1528.598
 20
-4166.598
 30
2482.740
 70
    32
  0
VERTEX
  8
T27SSILL
 62
3
 10
1530.657
 20
-4177.503
 30
2482.748
 70
    32
  0
VERTEX
  8
T27SSILL
 62
3
 10
1530.375
 20
-4184.107
 30
2482.752
 70
    32
  0
VERTEX
  8
T27SSILL
 62
3
 10
1567.048
 20
-4208.199
 30
2482.811
 70
    32
  0
VERTEX
  8
T27SSILL
 62
3
 10
1568.136
 20
-4207.173
 30
2482.812
 70
    32
  0
VERTEX
  8
T27SSILL
 62
3
 10
1572.167
 20
-4163.120
 30
2482.792
 70
    32
  0
VERTEX
  8
T27SSILL
 62
3
 10
1564.962
 20
-4156.295
 30
2482.779
 70
    32
  0
VERTEX
  8
T27SSILL
 62
3
 10
1570.771
 20
-4150.647
 30
2482.783
 70
    32
  0
VERTEX
  8
T27SSILL
 62
3
 10
1466.052
 20
-3985.158
 30
2482.615
 70
    32
  0
VERTEX
  8
T27SSILL
 62
3
 10
1443.324
 20
-3975.496
 30
2482.512
 70
    32
  0
VERTEX
  8
T27SSILL
 62
3
 10
1437.713
 20
-3971.451
 30
2482.486
 70
    32
  0
VERTEX
  8
T27SSILL
 62
3
 10
1431.857
 20
-3975.687
 30
2482.462
 70
    32
  0
VERTEX
  8
T27SSILL
 62
3
 10
1428.082
 20
-3969.139
 30
2482.444
 70
    32
  0
VERTEX
  8
T27SSILL
 62
3
 10
1556.443
 20
-3876.728
 30
2482.963
 70
    32
  0
VERTEX
  8
T27SSILL
 62
3
 10
1563.436
 20
-3872.790
 30
2482.976
 70
    32
  0
VERTEX
  8
T27SSILL
 62
3
 10
1570.094
 20
-3871.223
 30
2482.986
 70
    32
  0
VERTEX
  8
T27SSILL
 62
3
 10
1581.199
 20
-3871.374
 30
2483.001
 70
    32
  0
VERTEX
  8
T27SSILL
 62
3
 10
1373.690
 20
-3630.560
 30
2482.988
 70
    32
  0
VERTEX
  8
T27SSILL
 62
3
 10
1367.622
 20
-3627.031
 30
2482.972
 70
    32
  0
VERTEX
  8
T27SSILL
 62
3
 10
1359.666
 20
-3624.769
 30
2482.942
 70
    32
  0
VERTEX
  8
T27SSILL
 62
3
 10
1349.807
 20
-3624.214
 30
2482.895
 70
    32
  0
VERTEX
  8
T27SSILL
 62
3
 10
1342.692
 20
-3626.297
 30
2482.851
 70
    32
  0
VERTEX
  8
T27SSILL
 62
3
 10
1286.807
 20
-3667.765
 30
2482.407
 70
    32
  0
SEQEND
  8
T27SSILL
  0
POLYLINE
  8
T27SSILL
 62
3
 66
     1
 70
     9
  0
VERTEX
  8
T27SSILL
 62
3
 10
1528.293
 20
-4063.168
 30
2482.763
 70
    32
  0
VERTEX
  8
T27SSILL
 62
3
 10
1543.636
 20
-4024.209
 30
2482.818
 70
    32
  0
VERTEX
  8
T27SSILL
 62
3
 10
1541.213
 20
-4019.641
 30
2482.818
 70
    32
  0
VERTEX
  8
T27SSILL
 62
3
 10
1537.438
 20
-4016.091
 30
2482.816
 70
    32
  0
VERTEX
  8
T27SSILL
 62
3
 10
1535.809
 20
-4011.546
 30
2482.818
 70
    32
  0
VERTEX
  8
T27SSILL
 62
3
 10
1535.566
 20
-3998.843
 30
2482.828
 70
    32
  0
VERTEX
  8
T27SSILL
 62
3
 10
1533.221
 20
-3988.635
 30
2482.834
 70
    32
  0
VERTEX
  8
T27SSILL
 62
3
 10
1533.960
 20
-3984.513
 30
2482.839
 70
    32
  0
VERTEX
  8
T27SSILL
 62
3
 10
1544.397
 20
-3971.418
 30
2482.864
 70
    32
  0
VERTEX
  8
T27SSILL
 62
3
 10
1551.351
 20
-3968.802
 30
2482.876
 70
    32
  0
VERTEX
  8
T27SSILL
 62
3
 10
1559.375
 20
-3968.774
 30
2482.887
 70
    32
  0
VERTEX
  8
T27SSILL
 62
3
 10
1602.232
 20
-4010.417
 30
2482.910
 70
    32
  0
VERTEX
  8
T27SSILL
 62
3
 10
1603.437
 20
-4023.413
 30
2482.901
 70
    32
  0
VERTEX
  8
T27SSILL
 62
3
 10
1605.478
 20
-4028.939
 30
2482.899
 70
    32
  0
VERTEX
  8
T27SSILL
 62
3
 10
1604.918
 20
-4041.972
 30
2482.887
 70
    32
  0
VERTEX
  8
T27SSILL
 62
3
 10
1613.817
 20
-4066.127
 30
2482.878
 70
    32
  0
VERTEX
  8
T27SSILL
 62
3
 10
1616.125
 20
-4083.564
 30
2482.866
 70
    32
  0
VERTEX
  8
T27SSILL
 62
3
 10
1617.677
 20
-4087.754
 30
2482.865
 70
    32
  0
VERTEX
  8
T27SSILL
 62
3
 10
1623.035
 20
-4091.438
 30
2482.869
 70
    32
  0
VERTEX
  8
T27SSILL
 62
3
 10
1625.807
 20
-4096.105
 30
2482.869
 70
    32
  0
VERTEX
  8
T27SSILL
 62
3
 10
1634.122
 20
-4134.085
 30
2482.852
 70
    32
  0
VERTEX
  8
T27SSILL
 62
3
 10
1639.260
 20
-4142.260
 30
2482.863
 70
    32
  0
VERTEX
  8
T27SSILL
 62
3
 10
1643.620
 20
-4143.887
 30
2482.870
 70
    32
  0
VERTEX
  8
T27SSILL
 62
3
 10
1648.330
 20
-4148.611
 30
2482.878
 70
    32
  0
VERTEX
  8
T27SSILL
 62
3
 10
1650.403
 20
-4156.078
 30
2482.885
 70
    32
  0
VERTEX
  8
T27SSILL
 62
3
 10
1648.594
 20
-4163.607
 30
2482.887
 70
    32
  0
VERTEX
  8
T27SSILL
 62
3
 10
1645.034
 20
-4167.734
 30
2482.885
 70
    32
  0
VERTEX
  8
T27SSILL
 62
3
 10
1631.864
 20
-4171.843
 30
2482.871
 70
    32
  0
VERTEX
  8
T27SSILL
 62
3
 10
1621.148
 20
-4179.462
 30
2482.862
 70
    32
  0
VERTEX
  8
T27SSILL
 62
3
 10
1614.018
 20
-4179.076
 30
2482.853
 70
    32
  0
VERTEX
  8
T27SSILL
 62
3
 10
1591.248
 20
-4194.805
 30
2482.834
 70
    32
  0
VERTEX
  8
T27SSILL
 62
3
 10
1586.108
 20
-4195.712
 30
2482.828
 70
    32
  0
VERTEX
  8
T27SSILL
 62
3
 10
1583.936
 20
-4197.587
 30
2482.826
 70
    32
  0
VERTEX
  8
T27SSILL
 62
3
 10
1582.294
 20
-4199.479
 30
2482.825
 70
    32
  0
VERTEX
  8
T27SSILL
 62
3
 10
1579.860
 20
-4207.254
 30
2482.827
 70
    32
  0
VERTEX
  8
T27SSILL
 62
3
 10
1579.241
 20
-4213.319
 30
2482.830
 70
    32
  0
VERTEX
  8
T27SSILL
 62
3
 10
1580.329
 20
-4218.289
 30
2482.834
 70
    32
  0
VERTEX
  8
T27SSILL
 62
3
 10
1621.669
 20
-4245.604
 30
2482.901
 70
    32
  0
VERTEX
  8
T27SSILL
 62
3
 10
1649.334
 20
-4225.852
 30
2482.924
 70
    32
  0
VERTEX
  8
T27SSILL
 62
3
 10
1653.134
 20
-4232.814
 30
2482.933
 70
    32
  0
VERTEX
  8
T27SSILL
 62
3
 10
1628.307
 20
-4250.737
 30
2482.912
 70
    32
  0
VERTEX
  8
T27SSILL
 62
3
 10
1633.670
 20
-4254.245
 30
2482.921
 70
    32
  0
VERTEX
  8
T27SSILL
 62
3
 10
1638.533
 20
-4250.773
 30
2482.925
 70
    32
  0
VERTEX
  8
T27SSILL
 62
3
 10
1657.156
 20
-4259.080
 30
2482.936
 70
    32
  0
VERTEX
  8
T27SSILL
 62
3
 10
1666.722
 20
-4248.606
 30
2482.947
 70
    32
  0
VERTEX
  8
T27SSILL
 62
3
 10
1670.619
 20
-4251.013
 30
2482.949
 70
    32
  0
VERTEX
  8
T27SSILL
 62
3
 10
1669.409
 20
-4256.179
 30
2482.946
 70
    32
  0
VERTEX
  8
T27SSILL
 62
3
 10
1662.366
 20
-4264.788
 30
2482.937
 70
    32
  0
VERTEX
  8
T27SSILL
 62
3
 10
1664.468
 20
-4265.291
 30
2482.939
 70
    32
  0
VERTEX
  8
T27SSILL
 62
3
 10
1668.846
 20
-4272.297
 30
2482.939
 70
    32
  0
VERTEX
  8
T27SSILL
 62
3
 10
1673.694
 20
-4275.349
 30
2482.941
 70
    32
  0
VERTEX
  8
T27SSILL
 62
3
 10
1683.946
 20
-4280.501
 30
2482.946
 70
    32
  0
VERTEX
  8
T27SSILL
 62
3
 10
1699.670
 20
-4279.465
 30
2482.958
 70
    32
  0
VERTEX
  8
T27SSILL
 62
3
 10
1705.774
 20
-4281.761
 30
2482.962
 70
    32
  0
VERTEX
  8
T27SSILL
 62
3
 10
1714.457
 20
-4280.341
 30
2482.968
 70
    32
  0
VERTEX
  8
T27SSILL
 62
3
 10
1718.511
 20
-4286.368
 30
2482.969
 70
    32
  0
VERTEX
  8
T27SSILL
 62
3
 10
1723.333
 20
-4284.306
 30
2482.973
 70
    32
  0
VERTEX
  8
T27SSILL
 62
3
 10
1731.015
 20
-4283.915
 30
2482.979
 70
    32
  0
VERTEX
  8
T27SSILL
 62
3
 10
1738.642
 20
-4291.369
 30
2482.981
 70
    32
  0
VERTEX
  8
T27SSILL
 62
3
 10
1739.350
 20
-4297.297
 30
2482.979
 70
    32
  0
VERTEX
  8
T27SSILL
 62
3
 10
1742.542
 20
-4299.683
 30
2482.981
 70
    32
  0
VERTEX
  8
T27SSILL
 62
3
 10
1746.088
 20
-4304.990
 30
2482.981
 70
    32
  0
VERTEX
  8
T27SSILL
 62
3
 10
1746.033
 20
-4318.830
 30
2482.976
 70
    32
  0
VERTEX
  8
T27SSILL
 62
3
 10
1748.007
 20
-4329.645
 30
2482.973
 70
    32
  0
VERTEX
  8
T27SSILL
 62
3
 10
1750.362
 20
-4333.506
 30
2482.973
 70
    32
  0
VERTEX
  8
T27SSILL
 62
3
 10
1759.145
 20
-4337.644
 30
2482.978
 70
    32
  0
VERTEX
  8
T27SSILL
 62
3
 10
1761.752
 20
-4332.959
 30
2482.981
 70
    32
  0
VERTEX
  8
T27SSILL
 62
3
 10
1762.161
 20
-4331.032
 30
2482.982
 70
    32
  0
VERTEX
  8
T27SSILL
 62
3
 10
1751.638
 20
-4308.151
 30
2482.984
 70
    32
  0
VERTEX
  8
T27SSILL
 62
3
 10
1753.726
 20
-4303.099
 30
2482.987
 70
    32
  0
VERTEX
  8
T27SSILL
 62
3
 10
1755.607
 20
-4302.096
 30
2482.989
 70
    32
  0
VERTEX
  8
T27SSILL
 62
3
 10
1757.704
 20
-4302.775
 30
2482.990
 70
    32
  0
VERTEX
  8
T27SSILL
 62
3
 10
1776.657
 20
-4341.774
 30
2482.989
 70
    32
  0
VERTEX
  8
T27SSILL
 62
3
 10
1782.184
 20
-4345.728
 30
2482.991
 70
    32
  0
VERTEX
  8
T27SSILL
 62
3
 10
1790.487
 20
-4357.170
 30
2482.992
 70
    32
  0
VERTEX
  8
T27SSILL
 62
3
 10
1802.563
 20
-4366.254
 30
2482.997
 70
    32
  0
VERTEX
  8
T27SSILL
 62
3
 10
1957.132
 20
-4377.859
 30
2482.989
 70
    32
  0
VERTEX
  8
T27SSILL
 62
3
 10
1958.327
 20
-4373.222
 30
2482.989
 70
    32
  0
VERTEX
  8
T27SSILL
 62
3
 10
1964.289
 20
-4365.374
 30
2482.987
 70
    32
  0
VERTEX
  8
T27SSILL
 62
3
 10
1975.028
 20
-4368.953
 30
2482.980
 70
    32
  0
VERTEX
  8
T27SSILL
 62
3
 10
1992.339
 20
-4355.973
 30
2482.972
 70
    32
  0
VERTEX
  8
T27SSILL
 62
3
 10
1995.106
 20
-4348.824
 30
2482.972
 70
    32
  0
VERTEX
  8
T27SSILL
 62
3
 10
1990.569
 20
-4344.194
 30
2482.975
 70
    32
  0
VERTEX
  8
T27SSILL
 62
3
 10
1970.145
 20
-4343.152
 30
2482.987
 70
    32
  0
VERTEX
  8
T27SSILL
 62
3
 10
1950.350
 20
-4350.680
 30
2482.997
 70
    32
  0
VERTEX
  8
T27SSILL
 62
3
 10
1949.708
 20
-4354.541
 30
2482.997
 70
    32
  0
VERTEX
  8
T27SSILL
 62
3
 10
1940.683
 20
-4358.595
 30
2483.001
 70
    32
  0
VERTEX
  8
T27SSILL
 62
3
 10
1940.170
 20
-4361.049
 30
2483.001
 70
    32
  0
VERTEX
  8
T27SSILL
 62
3
 10
1937.525
 20
-4364.057
 30
2483.002
 70
    32
  0
VERTEX
  8
T27SSILL
 62
3
 10
1937.457
 20
-4369.345
 30
2483.001
 70
    32
  0
VERTEX
  8
T27SSILL
 62
3
 10
1935.377
 20
-4371.135
 30
2483.002
 70
    32
  0
VERTEX
  8
T27SSILL
 62
3
 10
1930.278
 20
-4370.632
 30
2483.005
 70
    32
  0
VERTEX
  8
T27SSILL
 62
3
 10
1925.228
 20
-4365.458
 30
2483.009
 70
    32
  0
VERTEX
  8
T27SSILL
 62
3
 10
1917.976
 20
-4363.217
 30
2483.014
 70
    32
  0
VERTEX
  8
T27SSILL
 62
3
 10
1909.690
 20
-4366.923
 30
2483.018
 70
    32
  0
VERTEX
  8
T27SSILL
 62
3
 10
1906.372
 20
-4359.084
 30
2483.021
 70
    32
  0
VERTEX
  8
T27SSILL
 62
3
 10
1909.582
 20
-4354.858
 30
2483.020
 70
    32
  0
VERTEX
  8
T27SSILL
 62
3
 10
1913.007
 20
-4355.312
 30
2483.018
 70
    32
  0
VERTEX
  8
T27SSILL
 62
3
 10
1923.760
 20
-4343.461
 30
2483.013
 70
    32
  0
VERTEX
  8
T27SSILL
 62
3
 10
1929.776
 20
-4339.759
 30
2483.011
 70
    32
  0
VERTEX
  8
T27SSILL
 62
3
 10
1932.761
 20
-4340.199
 30
2483.009
 70
    32
  0
VERTEX
  8
T27SSILL
 62
3
 10
1937.707
 20
-4336.907
 30
2483.006
 70
    32
  0
VERTEX
  8
T27SSILL
 62
3
 10
1942.220
 20
-4336.334
 30
2483.004
 70
    32
  0
VERTEX
  8
T27SSILL
 62
3
 10
1946.959
 20
-4337.091
 30
2483.001
 70
    32
  0
VERTEX
  8
T27SSILL
 62
3
 10
1948.892
 20
-4340.322
 30
2483.000
 70
    32
  0
VERTEX
  8
T27SSILL
 62
3
 10
1952.374
 20
-4341.835
 30
2482.997
 70
    32
  0
VERTEX
  8
T27SSILL
 62
3
 10
1979.320
 20
-4330.990
 30
2482.984
 70
    32
  0
VERTEX
  8
T27SSILL
 62
3
 10
1784.954
 20
-4104.935
 30
2483.080
 70
    32
  0
VERTEX
  8
T27SSILL
 62
3
 10
1594.853
 20
-3886.764
 30
2483.007
 70
    32
  0
VERTEX
  8
T27SSILL
 62
3
 10
1590.290
 20
-3883.015
 30
2483.004
 70
    32
  0
VERTEX
  8
T27SSILL
 62
3
 10
1579.937
 20
-3878.302
 30
2482.994
 70
    32
  0
VERTEX
  8
T27SSILL
 62
3
 10
1569.941
 20
-3879.418
 30
2482.979
 70
    32
  0
VERTEX
  8
T27SSILL
 62
3
 10
1564.505
 20
-3881.374
 30
2482.970
 70
    32
  0
VERTEX
  8
T27SSILL
 62
3
 10
1465.164
 20
-3952.422
 30
2482.599
 70
    32
  0
VERTEX
  8
T27SSILL
 62
3
 10
1466.633
 20
-3965.425
 30
2482.610
 70
    32
  0
VERTEX
  8
T27SSILL
 62
3
 10
1483.802
 20
-3993.175
 30
2482.695
 70
    32
  0
VERTEX
  8
T27SSILL
 62
3
 10
1496.656
 20
-3984.825
 30
2482.748
 70
    32
  0
VERTEX
  8
T27SSILL
 62
3
 10
1500.749
 20
-3989.530
 30
2482.768
 70
    32
  0
VERTEX
  8
T27SSILL
 62
3
 10
1509.491
 20
-3983.087
 30
2482.804
 70
    32
  0
VERTEX
  8
T27SSILL
 62
3
 10
1511.862
 20
-3983.421
 30
2482.809
 70
    32
  0
VERTEX
  8
T27SSILL
 62
3
 10
1517.398
 20
-3993.018
 30
2482.808
 70
    32
  0
VERTEX
  8
T27SSILL
 62
3
 10
1505.988
 20
-4000.264
 30
2482.786
 70
    32
  0
VERTEX
  8
T27SSILL
 62
3
 10
1507.915
 20
-4003.672
 30
2482.786
 70
    32
  0
VERTEX
  8
T27SSILL
 62
3
 10
1500.375
 20
-4020.201
 30
2482.761
 70
    32
  0
SEQEND
  8
T27SSILL
  0
POLYLINE
  8
T27SSILL
 62
3
 66
     1
 70
     9
  0
VERTEX
  8
T27SSILL
 62
3
 10
1744.319
 20
-4356.075
 30
2482.960
 70
    32
  0
VERTEX
  8
T27SSILL
 62
3
 10
1748.571
 20
-4373.393
 30
2482.956
 70
    32
  0
VERTEX
  8
T27SSILL
 62
3
 10
1751.685
 20
-4372.427
 30
2482.959
 70
    32
  0
VERTEX
  8
T27SSILL
 62
3
 10
1765.298
 20
-4374.238
 30
2482.968
 70
    32
  0
VERTEX
  8
T27SSILL
 62
3
 10
1772.433
 20
-4368.453
 30
2482.975
 70
    32
  0
VERTEX
  8
T27SSILL
 62
3
 10
1781.877
 20
-4365.116
 30
2482.983
 70
    32
  0
VERTEX
  8
T27SSILL
 62
3
 10
1750.212
 20
-4344.610
 30
2482.969
 70
    32
  0
VERTEX
  8
T27SSILL
 62
3
 10
1745.797
 20
-4347.831
 30
2482.964
 70
    32
  0
SEQEND
  8
T27SSILL
  0
POLYLINE
  8
T27SSILL
 62
3
 66
     1
 70
     9
  0
VERTEX
  8
T27SSILL
 62
3
 10
1500.102
 20
-4185.156
 30
2482.715
 70
    32
  0
VERTEX
  8
T27SSILL
 62
3
 10
1504.424
 20
-4191.102
 30
2482.724
 70
    32
  0
VERTEX
  8
T27SSILL
 62
3
 10
1506.354
 20
-4191.423
 30
2482.726
 70
    32
  0
VERTEX
  8
T27SSILL
 62
3
 10
1508.250
 20
-4189.892
 30
2482.728
 70
    32
  0
VERTEX
  8
T27SSILL
 62
3
 10
1511.365
 20
-4176.935
 30
2482.724
 70
    32
  0
VERTEX
  8
T27SSILL
 62
3
 10
1504.479
 20
-4171.266
 30
2482.712
 70
    32
  0
VERTEX
  8
T27SSILL
 62
3
 10
1495.703
 20
-4181.852
 30
2482.708
 70
    32
  0
SEQEND
  8
T27SSILL
  0
POLYLINE
  8
T27SSILL
 62
3
 66
     1
 70
     9
  0
VERTEX
  8
T27SSILL
 62
3
 10
1580.451
 20
-4127.303
 30
2482.781
 70
    32
  0
VERTEX
  8
T27SSILL
 62
3
 10
1576.673
 20
-4141.828
 30
2482.785
 70
    32
  0
VERTEX
  8
T27SSILL
 62
3
 10
1580.560
 20
-4147.585
 30
2482.793
 70
    32
  0
VERTEX
  8
T27SSILL
 62
3
 10
1582.982
 20
-4149.155
 30
2482.797
 70
    32
  0
VERTEX
  8
T27SSILL
 62
3
 10
1592.538
 20
-4139.033
 30
2482.803
 70
    32
  0
VERTEX
  8
T27SSILL
 62
3
 10
1588.346
 20
-4128.682
 30
2482.792
 70
    32
  0
VERTEX
  8
T27SSILL
 62
3
 10
1583.201
 20
-4120.771
 30
2482.789
 70
    32
  0
SEQEND
  8
T27SSILL
  0
POLYLINE
  8
T27SSILL
 62
3
 66
     1
 70
     9
  0
VERTEX
  8
T27SSILL
 62
3
 10
1598.976
 20
-4153.946
 30
2482.820
 70
    32
  0
VERTEX
  8
T27SSILL
 62
3
 10
1596.774
 20
-4147.886
 30
2482.814
 70
    32
  0
VERTEX
  8
T27SSILL
 62
3
 10
1580.748
 20
-4171.131
 30
2482.807
 70
    32
  0
VERTEX
  8
T27SSILL
 62
3
 10
1578.921
 20
-4188.270
 30
2482.815
 70
    32
  0
VERTEX
  8
T27SSILL
 62
3
 10
1605.667
 20
-4172.218
 30
2482.839
 70
    32
  0
VERTEX
  8
T27SSILL
 62
3
 10
1600.390
 20
-4156.809
 30
2482.823
 70
    32
  0
SEQEND
  8
T27SSILL
  0
POLYLINE
  8
T27SSILL
 62
3
 66
     1
 70
     9
  0
VERTEX
  8
T27SSILL
 62
3
 10
1557.155
 20
-4104.046
 30
2482.767
 70
    32
  0
VERTEX
  8
T27SSILL
 62
3
 10
1557.559
 20
-4111.288
 30
2482.762
 70
    32
  0
VERTEX
  8
T27SSILL
 62
3
 10
1565.341
 20
-4122.450
 30
2482.763
 70
    32
  0
VERTEX
  8
T27SSILL
 62
3
 10
1568.927
 20
-4123.437
 30
2482.767
 70
    32
  0
VERTEX
  8
T27SSILL
 62
3
 10
1573.000
 20
-4119.854
 30
2482.775
 70
    32
  0
VERTEX
  8
T27SSILL
 62
3
 10
1579.162
 20
-4108.221
 30
2482.794
 70
    32
  0
VERTEX
  8
T27SSILL
 62
3
 10
1573.792
 20
-4083.993
 30
2482.807
 70
    32
  0
VERTEX
  8
T27SSILL
 62
3
 10
1569.489
 20
-4071.434
 30
2482.812
 70
    32
  0
VERTEX
  8
T27SSILL
 62
3
 10
1557.764
 20
-4098.333
 30
2482.773
 70
    32
  0
VERTEX
  8
T27SSILL
 62
3
 10
1558.025
 20
-4101.427
 30
2482.771
 70
    32
  0
SEQEND
  8
T27SSILL
  0
POLYLINE
  8
T27SSILL
 62
3
 66
     1
 70
     9
  0
VERTEX
  8
T27SSILL
 62
3
 10
1558.105
 20
-4035.832
 30
2482.827
 70
    32
  0
VERTEX
  8
T27SSILL
 62
3
 10
1554.287
 20
-4027.784
 30
2482.829
 70
    32
  0
VERTEX
  8
T27SSILL
 62
3
 10
1538.634
 20
-4065.324
 30
2482.775
 70
    32
  0
VERTEX
  8
T27SSILL
 62
3
 10
1536.685
 20
-4077.610
 30
2482.762
 70
    32
  0
VERTEX
  8
T27SSILL
 62
3
 10
1544.965
 20
-4089.845
 30
2482.763
 70
    32
  0
VERTEX
  8
T27SSILL
 62
3
 10
1555.572
 20
-4082.927
 30
2482.783
 70
    32
  0
VERTEX
  8
T27SSILL
 62
3
 10
1565.997
 20
-4061.280
 30
2482.816
 70
    32
  0
VERTEX
  8
T27SSILL
 62
3
 10
1559.740
 20
-4040.200
 30
2482.826
 70
    32
  0
SEQEND
  8
T27SSILL
  0
POLYLINE
  8
T27SSILL
 62
3
 66
     1
 70
     9
  0
VERTEX
  8
T27SSILL
 62
3
 10
2227.924
 20
-3727.761
 30
2483.244
 70
    32
  0
VERTEX
  8
T27SSILL
 62
3
 10
2244.484
 20
-3735.619
 30
2483.252
 70
    32
  0
VERTEX
  8
T27SSILL
 62
3
 10
2236.834
 20
-3740.224
 30
2483.246
 70
    32
  0
VERTEX
  8
T27SSILL
 62
3
 10
2238.923
 20
-3744.100
 30
2483.246
 70
    32
  0
VERTEX
  8
T27SSILL
 62
3
 10
2177.374
 20
-3786.380
 30
2483.202
 70
    32
  0
VERTEX
  8
T27SSILL
 62
3
 10
2159.262
 20
-3763.622
 30
2483.197
 70
    32
  0
VERTEX
  8
T27SSILL
 62
3
 10
2169.816
 20
-3754.486
 30
2483.205
 70
    32
  0
VERTEX
  8
T27SSILL
 62
3
 10
2216.783
 20
-3723.578
 30
2483.239
 70
    32
  0
SEQEND
  8
T27SSILL
  0
POLYLINE
  8
T27SSILL
 62
3
 66
     1
 70
     9
  0
VERTEX
  8
T27SSILL
 62
3
 10
2713.625
 20
-4239.186
 30
2483.471
 70
    32
  0
VERTEX
  8
T27SSILL
 62
3
 10
2725.794
 20
-4241.208
 30
2483.484
 70
    32
  0
VERTEX
  8
T27SSILL
 62
3
 10
2743.477
 20
-4259.467
 30
2483.509
 70
    32
  0
VERTEX
  8
T27SSILL
 62
3
 10
2783.433
 20
-4230.925
 30
2483.539
 70
    32
  0
VERTEX
  8
T27SSILL
 62
3
 10
2784.428
 20
-4219.726
 30
2483.536
 70
    32
  0
VERTEX
  8
T27SSILL
 62
3
 10
2753.992
 20
-4176.448
 30
2483.488
 70
    32
  0
VERTEX
  8
T27SSILL
 62
3
 10
2746.985
 20
-4172.843
 30
2483.480
 70
    32
  0
VERTEX
  8
T27SSILL
 62
3
 10
2737.355
 20
-4170.594
 30
2483.469
 70
    32
  0
VERTEX
  8
T27SSILL
 62
3
 10
2724.483
 20
-4169.621
 30
2483.456
 70
    32
  0
VERTEX
  8
T27SSILL
 62
3
 10
2717.349
 20
-4182.752
 30
2483.453
 70
    32
  0
VERTEX
  8
T27SSILL
 62
3
 10
2711.371
 20
-4190.142
 30
2483.450
 70
    32
  0
VERTEX
  8
T27SSILL
 62
3
 10
2696.629
 20
-4181.091
 30
2483.431
 70
    32
  0
VERTEX
  8
T27SSILL
 62
3
 10
2696.870
 20
-4166.204
 30
2483.426
 70
    32
  0
VERTEX
  8
T27SSILL
 62
3
 10
2695.532
 20
-4164.900
 30
2483.424
 70
    32
  0
VERTEX
  8
T27SSILL
 62
3
 10
2680.790
 20
-4162.456
 30
2483.408
 70
    32
  0
VERTEX
  8
T27SSILL
 62
3
 10
2682.140
 20
-4177.762
 30
2483.415
 70
    32
  0
VERTEX
  8
T27SSILL
 62
3
 10
2679.084
 20
-4179.741
 30
2483.413
 70
    32
  0
VERTEX
  8
T27SSILL
 62
3
 10
2676.890
 20
-4180.299
 30
2483.411
 70
    32
  0
VERTEX
  8
T27SSILL
 62
3
 10
2673.082
 20
-4178.764
 30
2483.407
 70
    32
  0
VERTEX
  8
T27SSILL
 62
3
 10
2671.756
 20
-4171.824
 30
2483.403
 70
    32
  0
VERTEX
  8
T27SSILL
 62
3
 10
2663.699
 20
-4168.673
 30
2483.393
 70
    32
  0
VERTEX
  8
T27SSILL
 62
3
 10
2591.463
 20
-4220.195
 30
2483.339
 70
    32
  0
VERTEX
  8
T27SSILL
 62
3
 10
2667.274
 20
-4231.775
 30
2483.421
 70
    32
  0
VERTEX
  8
T27SSILL
 62
3
 10
2677.283
 20
-4229.439
 30
2483.430
 70
    32
  0
VERTEX
  8
T27SSILL
 62
3
 10
2683.725
 20
-4223.804
 30
2483.435
 70
    32
  0
VERTEX
  8
T27SSILL
 62
3
 10
2687.846
 20
-4228.946
 30
2483.441
 70
    32
  0
VERTEX
  8
T27SSILL
 62
3
 10
2681.658
 20
-4233.872
 30
2483.436
 70
    32
  0
VERTEX
  8
T27SSILL
 62
3
 10
2703.278
 20
-4237.466
 30
2483.460
 70
    32
  0
VERTEX
  8
T27SSILL
 62
3
 10
2685.173
 20
-4213.480
 30
2483.432
 70
    32
  0
VERTEX
  8
T27SSILL
 62
3
 10
2690.054
 20
-4209.716
 30
2483.436
 70
    32
  0
VERTEX
  8
T27SSILL
 62
3
 10
2686.468
 20
-4205.008
 30
2483.430
 70
    32
  0
VERTEX
  8
T27SSILL
 62
3
 10
2691.175
 20
-4201.334
 30
2483.434
 70
    32
  0
VERTEX
  8
T27SSILL
 62
3
 10
2687.139
 20
-4195.927
 30
2483.427
 70
    32
  0
VERTEX
  8
T27SSILL
 62
3
 10
2697.781
 20
-4188.210
 30
2483.435
 70
    32
  0
VERTEX
  8
T27SSILL
 62
3
 10
2705.142
 20
-4198.592
 30
2483.447
 70
    32
  0
VERTEX
  8
T27SSILL
 62
3
 10
2700.176
 20
-4202.622
 30
2483.443
 70
    32
  0
VERTEX
  8
T27SSILL
 62
3
 10
2707.002
 20
-4212.483
 30
2483.454
 70
    32
  0
VERTEX
  8
T27SSILL
 62
3
 10
2702.470
 20
-4216.067
 30
2483.451
 70
    32
  0
VERTEX
  8
T27SSILL
 62
3
 10
2709.469
 20
-4225.750
 30
2483.461
 70
    32
  0
VERTEX
  8
T27SSILL
 62
3
 10
2704.943
 20
-4229.774
 30
2483.458
 70
    32
  0
SEQEND
  8
T27SSILL
  0
POLYLINE
  8
T27SSILL
 62
3
 66
     1
 70
     9
  0
VERTEX
  8
T27SSILL
 62
3
 10
2820.983
 20
-4259.487
 30
2483.588
 70
    32
  0
VERTEX
  8
T27SSILL
 62
3
 10
2806.337
 20
-4250.963
 30
2483.570
 70
    32
  0
VERTEX
  8
T27SSILL
 62
3
 10
2793.158
 20
-4240.218
 30
2483.552
 70
    32
  0
VERTEX
  8
T27SSILL
 62
3
 10
2786.680
 20
-4236.606
 30
2483.544
 70
    32
  0
VERTEX
  8
T27SSILL
 62
3
 10
2748.216
 20
-4264.776
 30
2483.516
 70
    32
  0
VERTEX
  8
T27SSILL
 62
3
 10
2797.604
 20
-4315.727
 30
2483.585
 70
    32
  0
VERTEX
  8
T27SSILL
 62
3
 10
2846.355
 20
-4279.668
 30
2483.621
 70
    32
  0
VERTEX
  8
T27SSILL
 62
3
 10
2838.985
 20
-4268.670
 30
2483.610
 70
    32
  0
VERTEX
  8
T27SSILL
 62
3
 10
2830.920
 20
-4264.902
 30
2483.600
 70
    32
  0
SEQEND
  8
T27SSILL
  0
POLYLINE
  8
T27SSILL
 62
3
 66
     1
 70
     9
  0
VERTEX
  8
T27SSILL
 62
3
 10
2878.566
 20
-4350.225
 30
2483.681
 70
    32
  0
VERTEX
  8
T27SSILL
 62
3
 10
2869.601
 20
-4331.938
 30
2483.665
 70
    32
  0
VERTEX
  8
T27SSILL
 62
3
 10
2861.185
 20
-4308.534
 30
2483.647
 70
    32
  0
VERTEX
  8
T27SSILL
 62
3
 10
2852.826
 20
-4295.964
 30
2483.634
 70
    32
  0
VERTEX
  8
T27SSILL
 62
3
 10
2851.662
 20
-4287.964
 30
2483.630
 70
    32
  0
VERTEX
  8
T27SSILL
 62
3
 10
2849.428
 20
-4285.528
 30
2483.627
 70
    32
  0
VERTEX
  8
T27SSILL
 62
3
 10
2802.945
 20
-4319.971
 30
2483.592
 70
    32
  0
VERTEX
  8
T27SSILL
 62
3
 10
2852.427
 20
-4371.449
 30
2483.662
 70
    32
  0
VERTEX
  8
T27SSILL
 62
3
 10
2879.307
 20
-4352.946
 30
2483.683
 70
    32
  0
SEQEND
  8
T27SSILL
  0
POLYLINE
  8
T27SSILL
 62
3
 66
     1
 70
     9
  0
VERTEX
  8
T27SSILL
 62
3
 10
2891.573
 20
-4374.448
 30
2483.703
 70
    32
  0
VERTEX
  8
T27SSILL
 62
3
 10
2882.034
 20
-4359.339
 30
2483.688
 70
    32
  0
VERTEX
  8
T27SSILL
 62
3
 10
2857.695
 20
-4376.751
 30
2483.670
 70
    32
  0
VERTEX
  8
T27SSILL
 62
3
 10
2870.817
 20
-4389.875
 30
2483.688
 70
    32
  0
SEQEND
  8
T27SSILL
  0
POLYLINE
  8
T27SSILL
 62
3
 66
     1
 70
     9
  0
VERTEX
  8
T27SSILL
 62
3
 10
2901.400
 20
-4398.008
 30
2483.722
 70
    32
  0
VERTEX
  8
T27SSILL
 62
3
 10
2902.252
 20
-4389.278
 30
2483.720
 70
    32
  0
VERTEX
  8
T27SSILL
 62
3
 10
2901.224
 20
-4384.888
 30
2483.717
 70
    32
  0
VERTEX
  8
T27SSILL
 62
3
 10
2896.050
 20
-4379.937
 30
2483.710
 70
    32
  0
VERTEX
  8
T27SSILL
 62
3
 10
2875.468
 20
-4395.185
 30
2483.695
 70
    32
  0
VERTEX
  8
T27SSILL
 62
3
 10
2887.796
 20
-4408.143
 30
2483.712
 70
    32
  0
SEQEND
  8
T27SSILL
  0
POLYLINE
  8
T27SSILL
 62
3
 66
     1
 70
     9
  0
VERTEX
  8
T27SSILL
 62
3
 10
2950.268
 20
-4443.065
 30
2483.784
 70
    32
  0
VERTEX
  8
T27SSILL
 62
3
 10
2946.436
 20
-4439.681
 30
2483.784
 70
    32
  0
VERTEX
  8
T27SSILL
 62
3
 10
2925.220
 20
-4412.716
 30
2483.752
 70
    32
  0
VERTEX
  8
T27SSILL
 62
3
 10
2915.309
 20
-4397.470
 30
2483.736
 70
    32
  0
VERTEX
  8
T27SSILL
 62
3
 10
2893.319
 20
-4412.825
 30
2483.720
 70
    32
  0
VERTEX
  8
T27SSILL
 62
3
 10
2942.701
 20
-4463.335
 30
2483.789
 70
    32
  0
VERTEX
  8
T27SSILL
 62
3
 10
2955.699
 20
-4454.002
 30
2483.784
 70
    32
  0
VERTEX
  8
T27SSILL
 62
3
 10
2956.812
 20
-4451.609
 30
2483.783
 70
    32
  0
VERTEX
  8
T27SSILL
 62
3
 10
2956.258
 20
-4449.678
 30
2483.783
 70
    32
  0
SEQEND
  8
T27SSILL
  0
POLYLINE
  8
T27SSILL
 62
3
 66
     1
 70
     9
  0
VERTEX
  8
T27SSILL
 62
3
 10
2907.587
 20
-4376.869
 30
2483.721
 70
    32
  0
VERTEX
  8
T27SSILL
 62
3
 10
2913.346
 20
-4388.905
 30
2483.731
 70
    32
  0
VERTEX
  8
T27SSILL
 62
3
 10
2934.024
 20
-4374.003
 30
2483.746
 70
    32
  0
VERTEX
  8
T27SSILL
 62
3
 10
2924.241
 20
-4359.809
 30
2483.731
 70
    32
  0
VERTEX
  8
T27SSILL
 62
3
 10
2905.437
 20
-4372.532
 30
2483.717
 70
    32
  0
SEQEND
  8
T27SSILL
  0
POLYLINE
  8
T27SSILL
 62
3
 66
     1
 70
     9
  0
VERTEX
  8
T27SSILL
 62
3
 10
2899.042
 20
-4346.847
 30
2483.700
 70
    32
  0
VERTEX
  8
T27SSILL
 62
3
 10
2899.263
 20
-4358.291
 30
2483.705
 70
    32
  0
VERTEX
  8
T27SSILL
 62
3
 10
2902.511
 20
-4366.690
 30
2483.711
 70
    32
  0
VERTEX
  8
T27SSILL
 62
3
 10
2919.642
 20
-4354.036
 30
2483.724
 70
    32
  0
VERTEX
  8
T27SSILL
 62
3
 10
2909.598
 20
-4339.575
 30
2483.708
 70
    32
  0
SEQEND
  8
T27SSILL
  0
POLYLINE
  8
T27SSILL
 62
3
 66
     1
 70
     9
  0
VERTEX
  8
T27SSILL
 62
3
 10
2930.729
 20
-4408.884
 30
2483.756
 70
    32
  0
VERTEX
  8
T27SSILL
 62
3
 10
2934.113
 20
-4404.721
 30
2483.758
 70
    32
  0
VERTEX
  8
T27SSILL
 62
3
 10
2924.306
 20
-4390.324
 30
2483.743
 70
    32
  0
VERTEX
  8
T27SSILL
 62
3
 10
2930.813
 20
-4385.408
 30
2483.747
 70
    32
  0
VERTEX
  8
T27SSILL
 62
3
 10
2936.979
 20
-4384.950
 30
2483.753
 70
    32
  0
VERTEX
  8
T27SSILL
 62
3
 10
2945.740
 20
-4388.483
 30
2483.764
 70
    32
  0
VERTEX
  8
T27SSILL
 62
3
 10
2952.436
 20
-4395.513
 30
2483.773
 70
    32
  0
VERTEX
  8
T27SSILL
 62
3
 10
2955.286
 20
-4400.298
 30
2483.776
 70
    32
  0
VERTEX
  8
T27SSILL
 62
3
 10
2955.258
 20
-4402.762
 30
2483.776
 70
    32
  0
VERTEX
  8
T27SSILL
 62
3
 10
2960.100
 20
-4410.299
 30
2483.776
 70
    32
  0
VERTEX
  8
T27SSILL
 62
3
 10
2973.101
 20
-4420.217
 30
2483.774
 70
    32
  0
VERTEX
  8
T27SSILL
 62
3
 10
3105.453
 20
-4323.728
 30
2483.752
 70
    32
  0
VERTEX
  8
T27SSILL
 62
3
 10
3098.879
 20
-4319.473
 30
2483.743
 70
    32
  0
VERTEX
  8
T27SSILL
 62
3
 10
3063.829
 20
-4305.958
 30
2483.729
 70
    32
  0
VERTEX
  8
T27SSILL
 62
3
 10
3054.128
 20
-4296.805
 30
2483.730
 70
    32
  0
VERTEX
  8
T27SSILL
 62
3
 10
3068.187
 20
-4286.645
 30
2483.725
 70
    32
  0
VERTEX
  8
T27SSILL
 62
3
 10
3072.658
 20
-4288.193
 30
2483.724
 70
    32
  0
VERTEX
  8
T27SSILL
 62
3
 10
3075.003
 20
-4290.860
 30
2483.723
 70
    32
  0
VERTEX
  8
T27SSILL
 62
3
 10
3079.060
 20
-4290.114
 30
2483.722
 70
    32
  0
VERTEX
  8
T27SSILL
 62
3
 10
3081.496
 20
-4292.606
 30
2483.722
 70
    32
  0
VERTEX
  8
T27SSILL
 62
3
 10
3088.188
 20
-4292.331
 30
2483.729
 70
    32
  0
VERTEX
  8
T27SSILL
 62
3
 10
3095.301
 20
-4301.478
 30
2483.738
 70
    32
  0
VERTEX
  8
T27SSILL
 62
3
 10
3098.933
 20
-4299.407
 30
2483.743
 70
    32
  0
VERTEX
  8
T27SSILL
 62
3
 10
3102.160
 20
-4301.996
 30
2483.747
 70
    32
  0
VERTEX
  8
T27SSILL
 62
3
 10
3106.833
 20
-4301.258
 30
2483.754
 70
    32
  0
VERTEX
  8
T27SSILL
 62
3
 10
3113.406
 20
-4311.366
 30
2483.762
 70
    32
  0
VERTEX
  8
T27SSILL
 62
3
 10
3118.996
 20
-4307.470
 30
2483.770
 70
    32
  0
VERTEX
  8
T27SSILL
 62
3
 10
3110.852
 20
-4296.111
 30
2483.759
 70
    32
  0
VERTEX
  8
T27SSILL
 62
3
 10
3110.916
 20
-4290.567
 30
2483.759
 70
    32
  0
VERTEX
  8
T27SSILL
 62
3
 10
3109.883
 20
-4288.531
 30
2483.758
 70
    32
  0
VERTEX
  8
T27SSILL
 62
3
 10
3095.709
 20
-4273.494
 30
2483.739
 70
    32
  0
VERTEX
  8
T27SSILL
 62
3
 10
3096.005
 20
-4270.681
 30
2483.740
 70
    32
  0
VERTEX
  8
T27SSILL
 62
3
 10
3097.923
 20
-4264.630
 30
2483.742
 70
    32
  0
VERTEX
  8
T27SSILL
 62
3
 10
3132.973
 20
-4239.684
 30
2483.788
 70
    32
  0
VERTEX
  8
T27SSILL
 62
3
 10
3142.501
 20
-4253.083
 30
2483.801
 70
    32
  0
VERTEX
  8
T27SSILL
 62
3
 10
3158.017
 20
-4258.541
 30
2483.815
 70
    32
  0
VERTEX
  8
T27SSILL
 62
3
 10
3163.305
 20
-4265.642
 30
2483.818
 70
    32
  0
VERTEX
  8
T27SSILL
 62
3
 10
3167.868
 20
-4266.839
 30
2483.821
 70
    32
  0
VERTEX
  8
T27SSILL
 62
3
 10
3177.236
 20
-4278.828
 30
2483.826
 70
    32
  0
VERTEX
  8
T27SSILL
 62
3
 10
3172.265
 20
-4282.467
 30
2483.823
 70
    32
  0
VERTEX
  8
T27SSILL
 62
3
 10
3179.372
 20
-4292.142
 30
2483.827
 70
    32
  0
VERTEX
  8
T27SSILL
 62
3
 10
3173.869
 20
-4296.128
 30
2483.824
 70
    32
  0
VERTEX
  8
T27SSILL
 62
3
 10
3161.050
 20
-4293.429
 30
2483.816
 70
    32
  0
VERTEX
  8
T27SSILL
 62
3
 10
3158.363
 20
-4297.535
 30
2483.815
 70
    32
  0
VERTEX
  8
T27SSILL
 62
3
 10
3158.163
 20
-4307.302
 30
2483.814
 70
    32
  0
VERTEX
  8
T27SSILL
 62
3
 10
3102.960
 20
-4347.420
 30
2483.748
 70
    32
  0
VERTEX
  8
T27SSILL
 62
3
 10
3096.371
 20
-4338.719
 30
2483.740
 70
    32
  0
VERTEX
  8
T27SSILL
 62
3
 10
3089.821
 20
-4341.989
 30
2483.731
 70
    32
  0
VERTEX
  8
T27SSILL
 62
3
 10
3097.193
 20
-4351.491
 30
2483.741
 70
    32
  0
VERTEX
  8
T27SSILL
 62
3
 10
3079.009
 20
-4363.868
 30
2483.733
 70
    32
  0
VERTEX
  8
T27SSILL
 62
3
 10
3052.753
 20
-4366.296
 30
2483.742
 70
    32
  0
VERTEX
  8
T27SSILL
 62
3
 10
3039.585
 20
-4378.731
 30
2483.747
 70
    32
  0
VERTEX
  8
T27SSILL
 62
3
 10
3039.146
 20
-4386.295
 30
2483.749
 70
    32
  0
VERTEX
  8
T27SSILL
 62
3
 10
3036.144
 20
-4394.886
 30
2483.751
 70
    32
  0
VERTEX
  8
T27SSILL
 62
3
 10
3031.524
 20
-4398.618
 30
2483.753
 70
    32
  0
VERTEX
  8
T27SSILL
 62
3
 10
3023.364
 20
-4388.755
 30
2483.754
 70
    32
  0
VERTEX
  8
T27SSILL
 62
3
 10
3012.098
 20
-4400.546
 30
2483.759
 70
    32
  0
VERTEX
  8
T27SSILL
 62
3
 10
3009.870
 20
-4398.898
 30
2483.759
 70
    32
  0
VERTEX
  8
T27SSILL
 62
3
 10
3007.405
 20
-4398.958
 30
2483.760
 70
    32
  0
VERTEX
  8
T27SSILL
 62
3
 10
2995.036
 20
-4406.181
 30
2483.765
 70
    32
  0
VERTEX
  8
T27SSILL
 62
3
 10
2996.002
 20
-4410.973
 30
2483.765
 70
    32
  0
VERTEX
  8
T27SSILL
 62
3
 10
2994.663
 20
-4412.630
 30
2483.766
 70
    32
  0
VERTEX
  8
T27SSILL
 62
3
 10
2984.469
 20
-4418.939
 30
2483.770
 70
    32
  0
VERTEX
  8
T27SSILL
 62
3
 10
2984.946
 20
-4423.433
 30
2483.771
 70
    32
  0
VERTEX
  8
T27SSILL
 62
3
 10
2978.626
 20
-4437.354
 30
2483.775
 70
    32
  0
VERTEX
  8
T27SSILL
 62
3
 10
2975.098
 20
-4437.930
 30
2483.776
 70
    32
  0
VERTEX
  8
T27SSILL
 62
3
 10
2966.935
 20
-4436.077
 30
2483.778
 70
    32
  0
VERTEX
  8
T27SSILL
 62
3
 10
2962.034
 20
-4433.644
 30
2483.779
 70
    32
  0
VERTEX
  8
T27SSILL
 62
3
 10
2942.914
 20
-4420.047
 30
2483.773
 70
    32
  0
VERTEX
  8
T27SSILL
 62
3
 10
2946.938
 20
-4414.549
 30
2483.775
 70
    32
  0
VERTEX
  8
T27SSILL
 62
3
 10
2941.876
 20
-4410.794
 30
2483.768
 70
    32
  0
VERTEX
  8
T27SSILL
 62
3
 10
2938.328
 20
-4416.359
 30
2483.767
 70
    32
  0
VERTEX
  8
T27SSILL
 62
3
 10
2933.412
 20
-4411.629
 30
2483.760
 70
    32
  0
SEQEND
  8
T27SSILL
  0
POLYLINE
  8
T27SSILL
 62
3
 66
     1
 70
     9
  0
VERTEX
  8
T27SSILL
 62
3
 10
3144.691
 20
-4192.467
 30
2483.804
 70
    32
  0
VERTEX
  8
T27SSILL
 62
3
 10
3151.795
 20
-4202.318
 30
2483.813
 70
    32
  0
VERTEX
  8
T27SSILL
 62
3
 10
3148.240
 20
-4205.357
 30
2483.809
 70
    32
  0
VERTEX
  8
T27SSILL
 62
3
 10
3163.688
 20
-4209.055
 30
2483.820
 70
    32
  0
VERTEX
  8
T27SSILL
 62
3
 10
3232.995
 20
-4159.328
 30
2483.851
 70
    32
  0
VERTEX
  8
T27SSILL
 62
3
 10
3208.054
 20
-4123.750
 30
2483.848
 70
    32
  0
VERTEX
  8
T27SSILL
 62
3
 10
3131.521
 20
-4178.869
 30
2483.787
 70
    32
  0
VERTEX
  8
T27SSILL
 62
3
 10
3141.401
 20
-4194.522
 30
2483.800
 70
    32
  0
SEQEND
  8
T27SSILL
  0
POLYLINE
  8
T27SSILL
 62
3
 66
     1
 70
     9
  0
VERTEX
  8
T27SSILL
 62
3
 10
3100.483
 20
-4133.169
 30
2483.746
 70
    32
  0
VERTEX
  8
T27SSILL
 62
3
 10
3095.682
 20
-4129.681
 30
2483.740
 70
    32
  0
VERTEX
  8
T27SSILL
 62
3
 10
3093.462
 20
-4131.416
 30
2483.737
 70
    32
  0
VERTEX
  8
T27SSILL
 62
3
 10
3093.540
 20
-4139.954
 30
2483.737
 70
    32
  0
VERTEX
  8
T27SSILL
 62
3
 10
3091.472
 20
-4143.803
 30
2483.734
 70
    32
  0
VERTEX
  8
T27SSILL
 62
3
 10
3075.319
 20
-4147.931
 30
2483.713
 70
    32
  0
VERTEX
  8
T27SSILL
 62
3
 10
3074.597
 20
-4157.164
 30
2483.712
 70
    32
  0
VERTEX
  8
T27SSILL
 62
3
 10
3072.962
 20
-4161.546
 30
2483.710
 70
    32
  0
VERTEX
  8
T27SSILL
 62
3
 10
3071.012
 20
-4162.756
 30
2483.707
 70
    32
  0
VERTEX
  8
T27SSILL
 62
3
 10
3067.495
 20
-4162.452
 30
2483.706
 70
    32
  0
VERTEX
  8
T27SSILL
 62
3
 10
3059.717
 20
-4157.698
 30
2483.707
 70
    32
  0
VERTEX
  8
T27SSILL
 62
3
 10
3056.441
 20
-4159.333
 30
2483.708
 70
    32
  0
VERTEX
  8
T27SSILL
 62
3
 10
3056.012
 20
-4173.762
 30
2483.711
 70
    32
  0
VERTEX
  8
T27SSILL
 62
3
 10
3060.333
 20
-4180.764
 30
2483.710
 70
    32
  0
VERTEX
  8
T27SSILL
 62
3
 10
3067.058
 20
-4185.242
 30
2483.709
 70
    32
  0
VERTEX
  8
T27SSILL
 62
3
 10
3068.944
 20
-4189.664
 30
2483.709
 70
    32
  0
VERTEX
  8
T27SSILL
 62
3
 10
3080.304
 20
-4189.090
 30
2483.719
 70
    32
  0
VERTEX
  8
T27SSILL
 62
3
 10
3086.347
 20
-4191.711
 30
2483.727
 70
    32
  0
VERTEX
  8
T27SSILL
 62
3
 10
3089.222
 20
-4194.297
 30
2483.731
 70
    32
  0
VERTEX
  8
T27SSILL
 62
3
 10
3089.499
 20
-4200.901
 30
2483.731
 70
    32
  0
VERTEX
  8
T27SSILL
 62
3
 10
3054.444
 20
-4226.199
 30
2483.719
 70
    32
  0
VERTEX
  8
T27SSILL
 62
3
 10
3038.244
 20
-4203.659
 30
2483.721
 70
    32
  0
VERTEX
  8
T27SSILL
 62
3
 10
3010.367
 20
-4193.923
 30
2483.727
 70
    32
  0
VERTEX
  8
T27SSILL
 62
3
 10
2952.422
 20
-4235.242
 30
2483.712
 70
    32
  0
VERTEX
  8
T27SSILL
 62
3
 10
2941.812
 20
-4220.696
 30
2483.696
 70
    32
  0
VERTEX
  8
T27SSILL
 62
3
 10
3050.737
 20
-4142.545
 30
2483.707
 70
    32
  0
VERTEX
  8
T27SSILL
 62
3
 10
3054.023
 20
-4147.599
 30
2483.707
 70
    32
  0
VERTEX
  8
T27SSILL
 62
3
 10
3058.814
 20
-4144.310
 30
2483.705
 70
    32
  0
VERTEX
  8
T27SSILL
 62
3
 10
3061.403
 20
-4148.740
 30
2483.705
 70
    32
  0
VERTEX
  8
T27SSILL
 62
3
 10
3067.256
 20
-4144.934
 30
2483.703
 70
    32
  0
VERTEX
  8
T27SSILL
 62
3
 10
3063.875
 20
-4140.407
 30
2483.703
 70
    32
  0
VERTEX
  8
T27SSILL
 62
3
 10
3068.926
 20
-4137.384
 30
2483.705
 70
    32
  0
VERTEX
  8
T27SSILL
 62
3
 10
3064.761
 20
-4132.232
 30
2483.702
 70
    32
  0
VERTEX
  8
T27SSILL
 62
3
 10
3165.254
 20
-4064.468
 30
2483.824
 70
    32
  0
VERTEX
  8
T27SSILL
 62
3
 10
3203.892
 20
-4118.334
 30
2483.846
 70
    32
  0
VERTEX
  8
T27SSILL
 62
3
 10
3126.419
 20
-4174.039
 30
2483.780
 70
    32
  0
VERTEX
  8
T27SSILL
 62
3
 10
3118.528
 20
-4163.740
 30
2483.770
 70
    32
  0
VERTEX
  8
T27SSILL
 62
3
 10
3115.520
 20
-4157.368
 30
2483.766
 70
    32
  0
VERTEX
  8
T27SSILL
 62
3
 10
3113.501
 20
-4149.248
 30
2483.763
 70
    32
  0
VERTEX
  8
T27SSILL
 62
3
 10
3110.223
 20
-4143.402
 30
2483.759
 70
    32
  0
VERTEX
  8
T27SSILL
 62
3
 10
3103.946
 20
-4138.225
 30
2483.751
 70
    32
  0
SEQEND
  8
T27SSILL
  0
POLYLINE
  8
T27SSILL
 62
3
 66
     1
 70
     9
  0
VERTEX
  8
T27SSILL
 62
3
 10
3051.110
 20
-4063.778
 30
2483.695
 70
    32
  0
VERTEX
  8
T27SSILL
 62
3
 10
3056.860
 20
-4084.263
 30
2483.696
 70
    32
  0
VERTEX
  8
T27SSILL
 62
3
 10
3062.850
 20
-4091.548
 30
2483.697
 70
    32
  0
VERTEX
  8
T27SSILL
 62
3
 10
3065.161
 20
-4097.207
 30
2483.700
 70
    32
  0
VERTEX
  8
T27SSILL
 62
3
 10
3064.778
 20
-4099.931
 30
2483.700
 70
    32
  0
VERTEX
  8
T27SSILL
 62
3
 10
3042.129
 20
-4117.891
 30
2483.706
 70
    32
  0
VERTEX
  8
T27SSILL
 62
3
 10
3034.449
 20
-4112.258
 30
2483.707
 70
    32
  0
VERTEX
  8
T27SSILL
 62
3
 10
3020.888
 20
-4097.493
 30
2483.709
 70
    32
  0
VERTEX
  8
T27SSILL
 62
3
 10
3016.187
 20
-4085.293
 30
2483.709
 70
    32
  0
VERTEX
  8
T27SSILL
 62
3
 10
3011.324
 20
-4079.517
 30
2483.709
 70
    32
  0
VERTEX
  8
T27SSILL
 62
3
 10
3010.127
 20
-4076.423
 30
2483.709
 70
    32
  0
VERTEX
  8
T27SSILL
 62
3
 10
2955.201
 20
-4115.400
 30
2483.670
 70
    32
  0
VERTEX
  8
T27SSILL
 62
3
 10
2958.129
 20
-4136.469
 30
2483.681
 70
    32
  0
VERTEX
  8
T27SSILL
 62
3
 10
2959.915
 20
-4141.858
 30
2483.685
 70
    32
  0
VERTEX
  8
T27SSILL
 62
3
 10
2954.204
 20
-4156.403
 30
2483.684
 70
    32
  0
VERTEX
  8
T27SSILL
 62
3
 10
2946.932
 20
-4168.905
 30
2483.682
 70
    32
  0
VERTEX
  8
T27SSILL
 62
3
 10
2949.484
 20
-4184.337
 30
2483.690
 70
    32
  0
VERTEX
  8
T27SSILL
 62
3
 10
2933.141
 20
-4197.352
 30
2483.679
 70
    32
  0
VERTEX
  8
T27SSILL
 62
3
 10
2942.847
 20
-4210.576
 30
2483.693
 70
    32
  0
VERTEX
  8
T27SSILL
 62
3
 10
2995.018
 20
-4173.856
 30
2483.729
 70
    32
  0
VERTEX
  8
T27SSILL
 62
3
 10
2993.644
 20
-4163.191
 30
2483.727
 70
    32
  0
VERTEX
  8
T27SSILL
 62
3
 10
2969.804
 20
-4131.409
 30
2483.691
 70
    32
  0
VERTEX
  8
T27SSILL
 62
3
 10
2976.188
 20
-4127.346
 30
2483.696
 70
    32
  0
VERTEX
  8
T27SSILL
 62
3
 10
2999.234
 20
-4159.294
 30
2483.725
 70
    32
  0
VERTEX
  8
T27SSILL
 62
3
 10
3001.235
 20
-4168.998
 30
2483.726
 70
    32
  0
VERTEX
  8
T27SSILL
 62
3
 10
3047.279
 20
-4137.049
 30
2483.708
 70
    32
  0
VERTEX
  8
T27SSILL
 62
3
 10
3043.984
 20
-4132.698
 30
2483.708
 70
    32
  0
VERTEX
  8
T27SSILL
 62
3
 10
3063.241
 20
-4118.925
 30
2483.700
 70
    32
  0
VERTEX
  8
T27SSILL
 62
3
 10
3065.661
 20
-4122.737
 30
2483.701
 70
    32
  0
VERTEX
  8
T27SSILL
 62
3
 10
3160.914
 20
-4059.225
 30
2483.822
 70
    32
  0
VERTEX
  8
T27SSILL
 62
3
 10
3117.776
 20
-3998.707
 30
2483.770
 70
    32
  0
VERTEX
  8
T27SSILL
 62
3
 10
3100.472
 20
-4011.095
 30
2483.747
 70
    32
  0
VERTEX
  8
T27SSILL
 62
3
 10
3100.310
 20
-4048.323
 30
2483.747
 70
    32
  0
VERTEX
  8
T27SSILL
 62
3
 10
3093.001
 20
-4048.679
 30
2483.737
 70
    32
  0
VERTEX
  8
T27SSILL
 62
3
 10
3092.834
 20
-4017.080
 30
2483.737
 70
    32
  0
VERTEX
  8
T27SSILL
 62
3
 10
3043.850
 20
-4052.165
 30
2483.695
 70
    32
  0
VERTEX
  8
T27SSILL
 62
3
 10
3045.139
 20
-4054.820
 30
2483.695
 70
    32
  0
VERTEX
  8
T27SSILL
 62
3
 10
3047.848
 20
-4056.524
 30
2483.695
 70
    32
  0
VERTEX
  8
T27SSILL
 62
3
 10
3049.218
 20
-4059.884
 30
2483.695
 70
    32
  0
SEQEND
  8
T27SSILL
  0
POLYLINE
  8
T27SSILL
 62
3
 66
     1
 70
     9
  0
VERTEX
  8
T27SSILL
 62
3
 10
2895.309
 20
-3864.093
 30
2483.592
 70
    32
  0
VERTEX
  8
T27SSILL
 62
3
 10
2897.354
 20
-3858.957
 30
2483.594
 70
    32
  0
VERTEX
  8
T27SSILL
 62
3
 10
2885.147
 20
-3841.858
 30
2483.585
 70
    32
  0
VERTEX
  8
T27SSILL
 62
3
 10
2789.013
 20
-3910.875
 30
2483.520
 70
    32
  0
VERTEX
  8
T27SSILL
 62
3
 10
2773.034
 20
-3954.157
 30
2483.501
 70
    32
  0
VERTEX
  8
T27SSILL
 62
3
 10
2891.169
 20
-3870.578
 30
2483.588
 70
    32
  0
VERTEX
  8
T27SSILL
 62
3
 10
2893.944
 20
-3867.370
 30
2483.590
 70
    32
  0
SEQEND
  8
T27SSILL
  0
POLYLINE
  8
T27SSILL
 62
3
 66
     1
 70
     9
  0
VERTEX
  8
T27SSILL
 62
3
 10
2870.363
 20
-3842.761
 30
2483.579
 70
    32
  0
VERTEX
  8
T27SSILL
 62
3
 10
2871.927
 20
-3828.031
 30
2483.575
 70
    32
  0
VERTEX
  8
T27SSILL
 62
3
 10
2866.911
 20
-3821.757
 30
2483.571
 70
    32
  0
VERTEX
  8
T27SSILL
 62
3
 10
2862.295
 20
-3812.483
 30
2483.566
 70
    32
  0
VERTEX
  8
T27SSILL
 62
3
 10
2842.614
 20
-3862.068
 30
2483.562
 70
    32
  0
VERTEX
  8
T27SSILL
 62
3
 10
2864.172
 20
-3847.423
 30
2483.577
 70
    32
  0
SEQEND
  8
T27SSILL
  0
POLYLINE
  8
T27SSILL
 62
3
 66
     1
 70
     9
  0
VERTEX
  8
T27SSILL
 62
3
 10
2904.609
 20
-3867.932
 30
2483.596
 70
    32
  0
VERTEX
  8
T27SSILL
 62
3
 10
2894.185
 20
-3878.817
 30
2483.588
 70
    32
  0
VERTEX
  8
T27SSILL
 62
3
 10
2881.447
 20
-3887.795
 30
2483.578
 70
    32
  0
VERTEX
  8
T27SSILL
 62
3
 10
2914.619
 20
-3885.413
 30
2483.598
 70
    32
  0
VERTEX
  8
T27SSILL
 62
3
 10
2929.432
 20
-3873.501
 30
2483.609
 70
    32
  0
VERTEX
  8
T27SSILL
 62
3
 10
2910.660
 20
-3866.001
 30
2483.600
 70
    32
  0
VERTEX
  8
T27SSILL
 62
3
 10
2907.324
 20
-3866.839
 30
2483.598
 70
    32
  0
SEQEND
  8
T27SSILL
  0
POLYLINE
  8
T27SSILL
 62
3
 66
     1
 70
     9
  0
VERTEX
  8
T27SSILL
 62
3
 10
2890.168
 20
-3934.005
 30
2483.572
 70
    32
  0
VERTEX
  8
T27SSILL
 62
3
 10
2963.625
 20
-3881.586
 30
2483.627
 70
    32
  0
VERTEX
  8
T27SSILL
 62
3
 10
2952.224
 20
-3865.445
 30
2483.623
 70
    32
  0
VERTEX
  8
T27SSILL
 62
3
 10
2916.209
 20
-3892.350
 30
2483.597
 70
    32
  0
VERTEX
  8
T27SSILL
 62
3
 10
2870.631
 20
-3895.690
 30
2483.570
 70
    32
  0
VERTEX
  8
T27SSILL
 62
3
 10
2835.200
 20
-3920.121
 30
2483.544
 70
    32
  0
VERTEX
  8
T27SSILL
 62
3
 10
2769.337
 20
-3967.418
 30
2483.496
 70
    32
  0
VERTEX
  8
T27SSILL
 62
3
 10
2743.439
 20
-4039.545
 30
2483.464
 70
    32
  0
VERTEX
  8
T27SSILL
 62
3
 10
2856.311
 20
-3957.622
 30
2483.548
 70
    32
  0
SEQEND
  8
T27SSILL
  0
POLYLINE
  8
T27SSILL
 62
3
 66
     1
 70
     9
  0
VERTEX
  8
T27SSILL
 62
3
 10
3007.727
 20
-3843.869
 30
2483.646
 70
    32
  0
VERTEX
  8
T27SSILL
 62
3
 10
3040.308
 20
-3888.824
 30
2483.671
 70
    32
  0
VERTEX
  8
T27SSILL
 62
3
 10
2986.593
 20
-3928.715
 30
2483.631
 70
    32
  0
VERTEX
  8
T27SSILL
 62
3
 10
2979.519
 20
-3919.605
 30
2483.627
 70
    32
  0
VERTEX
  8
T27SSILL
 62
3
 10
2970.973
 20
-3925.800
 30
2483.620
 70
    32
  0
VERTEX
  8
T27SSILL
 62
3
 10
2967.119
 20
-3920.920
 30
2483.619
 70
    32
  0
VERTEX
  8
T27SSILL
 62
3
 10
2952.461
 20
-3931.074
 30
2483.609
 70
    32
  0
VERTEX
  8
T27SSILL
 62
3
 10
2942.221
 20
-3916.506
 30
2483.606
 70
    32
  0
VERTEX
  8
T27SSILL
 62
3
 10
2937.349
 20
-3920.889
 30
2483.602
 70
    32
  0
VERTEX
  8
T27SSILL
 62
3
 10
2933.840
 20
-3915.477
 30
2483.602
 70
    32
  0
VERTEX
  8
T27SSILL
 62
3
 10
2924.256
 20
-3923.095
 30
2483.594
 70
    32
  0
VERTEX
  8
T27SSILL
 62
3
 10
2937.727
 20
-3942.022
 30
2483.598
 70
    32
  0
VERTEX
  8
T27SSILL
 62
3
 10
2932.840
 20
-3945.260
 30
2483.594
 70
    32
  0
VERTEX
  8
T27SSILL
 62
3
 10
2936.168
 20
-3950.322
 30
2483.595
 70
    32
  0
VERTEX
  8
T27SSILL
 62
3
 10
2931.193
 20
-3953.649
 30
2483.591
 70
    32
  0
VERTEX
  8
T27SSILL
 62
3
 10
2937.837
 20
-3963.049
 30
2483.595
 70
    32
  0
VERTEX
  8
T27SSILL
 62
3
 10
2926.837
 20
-3970.323
 30
2483.586
 70
    32
  0
VERTEX
  8
T27SSILL
 62
3
 10
2920.375
 20
-3961.108
 30
2483.583
 70
    32
  0
VERTEX
  8
T27SSILL
 62
3
 10
2925.697
 20
-3957.424
 30
2483.587
 70
    32
  0
VERTEX
  8
T27SSILL
 62
3
 10
2919.223
 20
-3947.825
 30
2483.586
 70
    32
  0
VERTEX
  8
T27SSILL
 62
3
 10
2923.402
 20
-3944.244
 30
2483.589
 70
    32
  0
VERTEX
  8
T27SSILL
 62
3
 10
2916.845
 20
-3934.998
 30
2483.587
 70
    32
  0
VERTEX
  8
T27SSILL
 62
3
 10
2902.023
 20
-3945.947
 30
2483.576
 70
    32
  0
VERTEX
  8
T27SSILL
 62
3
 10
2922.130
 20
-3973.503
 30
2483.582
 70
    32
  0
VERTEX
  8
T27SSILL
 62
3
 10
2715.092
 20
-4122.815
 30
2483.429
 70
    32
  0
VERTEX
  8
T27SSILL
 62
3
 10
2740.673
 20
-4048.745
 30
2483.461
 70
    32
  0
VERTEX
  8
T27SSILL
 62
3
 10
2967.000
 20
-3886.661
 30
2483.627
 70
    32
  0
VERTEX
  8
T27SSILL
 62
3
 10
2982.268
 20
-3908.118
 30
2483.631
 70
    32
  0
VERTEX
  8
T27SSILL
 62
3
 10
2988.289
 20
-3904.071
 30
2483.635
 70
    32
  0
VERTEX
  8
T27SSILL
 62
3
 10
2957.845
 20
-3861.333
 30
2483.625
 70
    32
  0
VERTEX
  8
T27SSILL
 62
3
 10
2999.100
 20
-3831.966
 30
2483.640
 70
    32
  0
SEQEND
  8
T27SSILL
  0
POLYLINE
  8
T27SSILL
 62
3
 66
     1
 70
     9
  0
VERTEX
  8
T27SSILL
 62
3
 10
2900.305
 20
-4051.660
 30
2483.590
 70
    32
  0
VERTEX
  8
T27SSILL
 62
3
 10
2917.044
 20
-4039.188
 30
2483.602
 70
    32
  0
VERTEX
  8
T27SSILL
 62
3
 10
2921.912
 20
-4034.541
 30
2483.605
 70
    32
  0
VERTEX
  8
T27SSILL
 62
3
 10
2924.487
 20
-4029.662
 30
2483.606
 70
    32
  0
VERTEX
  8
T27SSILL
 62
3
 10
2919.787
 20
-4010.612
 30
2483.594
 70
    32
  0
VERTEX
  8
T27SSILL
 62
3
 10
2922.449
 20
-4003.091
 30
2483.594
 70
    32
  0
VERTEX
  8
T27SSILL
 62
3
 10
2937.194
 20
-3992.936
 30
2483.605
 70
    32
  0
VERTEX
  8
T27SSILL
 62
3
 10
2940.463
 20
-3993.684
 30
2483.609
 70
    32
  0
VERTEX
  8
T27SSILL
 62
3
 10
2945.827
 20
-3999.511
 30
2483.616
 70
    32
  0
VERTEX
  8
T27SSILL
 62
3
 10
2954.371
 20
-4012.341
 30
2483.630
 70
    32
  0
VERTEX
  8
T27SSILL
 62
3
 10
2973.124
 20
-3999.048
 30
2483.644
 70
    32
  0
VERTEX
  8
T27SSILL
 62
3
 10
2963.473
 20
-3982.535
 30
2483.628
 70
    32
  0
VERTEX
  8
T27SSILL
 62
3
 10
2962.794
 20
-3977.964
 30
2483.626
 70
    32
  0
VERTEX
  8
T27SSILL
 62
3
 10
3000.782
 20
-3947.937
 30
2483.653
 70
    32
  0
VERTEX
  8
T27SSILL
 62
3
 10
3016.908
 20
-3967.797
 30
2483.677
 70
    32
  0
VERTEX
  8
T27SSILL
 62
3
 10
3069.330
 20
-3930.613
 30
2483.707
 70
    32
  0
VERTEX
  8
T27SSILL
 62
3
 10
3043.736
 20
-3894.766
 30
2483.673
 70
    32
  0
VERTEX
  8
T27SSILL
 62
3
 10
2985.044
 20
-3937.144
 30
2483.633
 70
    32
  0
VERTEX
  8
T27SSILL
 62
3
 10
2992.137
 20
-3946.911
 30
2483.644
 70
    32
  0
VERTEX
  8
T27SSILL
 62
3
 10
2952.527
 20
-3974.318
 30
2483.614
 70
    32
  0
VERTEX
  8
T27SSILL
 62
3
 10
2946.140
 20
-3964.541
 30
2483.604
 70
    32
  0
VERTEX
  8
T27SSILL
 62
3
 10
2925.765
 20
-3978.844
 30
2483.588
 70
    32
  0
VERTEX
  8
T27SSILL
 62
3
 10
2929.698
 20
-3984.274
 30
2483.594
 70
    32
  0
VERTEX
  8
T27SSILL
 62
3
 10
2934.734
 20
-3980.551
 30
2483.598
 70
    32
  0
VERTEX
  8
T27SSILL
 62
3
 10
2937.624
 20
-3985.796
 30
2483.603
 70
    32
  0
VERTEX
  8
T27SSILL
 62
3
 10
2898.026
 20
-4013.996
 30
2483.573
 70
    32
  0
VERTEX
  8
T27SSILL
 62
3
 10
2891.911
 20
-4004.832
 30
2483.564
 70
    32
  0
VERTEX
  8
T27SSILL
 62
3
 10
2802.515
 20
-4068.946
 30
2483.497
 70
    32
  0
VERTEX
  8
T27SSILL
 62
3
 10
2862.984
 20
-4078.948
 30
2483.562
 70
    32
  0
VERTEX
  8
T27SSILL
 62
3
 10
2881.028
 20
-4065.313
 30
2483.575
 70
    32
  0
VERTEX
  8
T27SSILL
 62
3
 10
2890.861
 20
-4024.575
 30
2483.570
 70
    32
  0
VERTEX
  8
T27SSILL
 62
3
 10
2896.321
 20
-4018.159
 30
2483.573
 70
    32
  0
VERTEX
  8
T27SSILL
 62
3
 10
2902.499
 20
-4019.043
 30
2483.580
 70
    32
  0
VERTEX
  8
T27SSILL
 62
3
 10
2904.722
 20
-4020.597
 30
2483.583
 70
    32
  0
VERTEX
  8
T27SSILL
 62
3
 10
2905.770
 20
-4026.396
 30
2483.586
 70
    32
  0
VERTEX
  8
T27SSILL
 62
3
 10
2897.792
 20
-4048.260
 30
2483.586
 70
    32
  0
SEQEND
  8
T27SSILL
  0
POLYLINE
  8
T27SSILL
 62
3
 66
     1
 70
     9
  0
VERTEX
  8
T27SSILL
 62
3
 10
2975.624
 20
-4338.130
 30
2483.760
 70
    32
  0
VERTEX
  8
T27SSILL
 62
3
 10
2956.546
 20
-4351.730
 30
2483.761
 70
    32
  0
VERTEX
  8
T27SSILL
 62
3
 10
2959.755
 20
-4355.903
 30
2483.766
 70
    32
  0
VERTEX
  8
T27SSILL
 62
3
 10
2978.298
 20
-4342.913
 30
2483.760
 70
    32
  0
SEQEND
  8
T27SSILL
  0
POLYLINE
  8
T27SSILL
 62
3
 66
     1
 70
     9
  0
VERTEX
  8
T27SSILL
 62
3
 10
3027.423
 20
-4326.313
 30
2483.743
 70
    32
  0
VERTEX
  8
T27SSILL
 62
3
 10
3024.724
 20
-4331.387
 30
2483.744
 70
    32
  0
VERTEX
  8
T27SSILL
 62
3
 10
3019.585
 20
-4334.408
 30
2483.746
 70
    32
  0
VERTEX
  8
T27SSILL
 62
3
 10
3018.502
 20
-4336.772
 30
2483.747
 70
    32
  0
VERTEX
  8
T27SSILL
 62
3
 10
3016.210
 20
-4344.755
 30
2483.749
 70
    32
  0
VERTEX
  8
T27SSILL
 62
3
 10
3017.629
 20
-4351.548
 30
2483.750
 70
    32
  0
VERTEX
  8
T27SSILL
 62
3
 10
3015.478
 20
-4354.956
 30
2483.751
 70
    32
  0
VERTEX
  8
T27SSILL
 62
3
 10
3011.703
 20
-4354.121
 30
2483.752
 70
    32
  0
VERTEX
  8
T27SSILL
 62
3
 10
3006.799
 20
-4344.207
 30
2483.752
 70
    32
  0
VERTEX
  8
T27SSILL
 62
3
 10
3006.170
 20
-4337.687
 30
2483.751
 70
    32
  0
VERTEX
  8
T27SSILL
 62
3
 10
3007.566
 20
-4331.014
 30
2483.749
 70
    32
  0
VERTEX
  8
T27SSILL
 62
3
 10
3009.711
 20
-4328.222
 30
2483.748
 70
    32
  0
VERTEX
  8
T27SSILL
 62
3
 10
3024.790
 20
-4318.009
 30
2483.742
 70
    32
  0
VERTEX
  8
T27SSILL
 62
3
 10
3027.466
 20
-4322.529
 30
2483.742
 70
    32
  0
SEQEND
  8
T27SSILL
  0
POLYLINE
  8
T27SSILL
 62
3
 66
     1
 70
     9
  0
VERTEX
  8
T27SSILL
 62
3
 10
3031.892
 20
-4281.829
 30
2483.735
 70
    32
  0
VERTEX
  8
T27SSILL
 62
3
 10
3039.866
 20
-4292.658
 30
2483.734
 70
    32
  0
VERTEX
  8
T27SSILL
 62
3
 10
3019.896
 20
-4307.216
 30
2483.742
 70
    32
  0
VERTEX
  8
T27SSILL
 62
3
 10
3012.014
 20
-4296.124
 30
2483.743
 70
    32
  0
VERTEX
  8
T27SSILL
 62
3
 10
2988.317
 20
-4313.367
 30
2483.752
 70
    32
  0
VERTEX
  8
T27SSILL
 62
3
 10
2999.238
 20
-4328.103
 30
2483.751
 70
    32
  0
VERTEX
  8
T27SSILL
 62
3
 10
3084.644
 20
-4266.350
 30
2483.725
 70
    32
  0
VERTEX
  8
T27SSILL
 62
3
 10
3074.484
 20
-4251.638
 30
2483.717
 70
    32
  0
VERTEX
  8
T27SSILL
 62
3
 10
3036.866
 20
-4277.926
 30
2483.733
 70
    32
  0
SEQEND
  8
T27SSILL
  0
POLYLINE
  8
T27SSILL
 62
3
 66
     1
 70
     9
  0
VERTEX
  8
T27SSILL
 62
3
 10
2878.485
 20
-4281.922
 30
2483.655
 70
    32
  0
VERTEX
  8
T27SSILL
 62
3
 10
2870.951
 20
-4271.187
 30
2483.643
 70
    32
  0
VERTEX
  8
T27SSILL
 62
3
 10
2857.104
 20
-4281.414
 30
2483.633
 70
    32
  0
VERTEX
  8
T27SSILL
 62
3
 10
2860.293
 20
-4287.347
 30
2483.638
 70
    32
  0
VERTEX
  8
T27SSILL
 62
3
 10
2861.374
 20
-4292.816
 30
2483.642
 70
    32
  0
VERTEX
  8
T27SSILL
 62
3
 10
2878.394
 20
-4320.647
 30
2483.669
 70
    32
  0
VERTEX
  8
T27SSILL
 62
3
 10
2899.248
 20
-4305.747
 30
2483.685
 70
    32
  0
VERTEX
  8
T27SSILL
 62
3
 10
2884.895
 20
-4283.228
 30
2483.662
 70
    32
  0
VERTEX
  8
T27SSILL
 62
3
 10
2886.140
 20
-4282.098
 30
2483.663
 70
    32
  0
VERTEX
  8
T27SSILL
 62
3
 10
2883.722
 20
-4278.110
 30
2483.659
 70
    32
  0
SEQEND
  8
T27SSILL
  0
POLYLINE
  8
T27SSILL
 62
3
 66
     1
 70
     9
  0
VERTEX
  8
T27SSILL
 62
3
 10
2885.297
 20
-4332.696
 30
2483.681
 70
    32
  0
VERTEX
  8
T27SSILL
 62
3
 10
2891.955
 20
-4343.157
 30
2483.692
 70
    32
  0
VERTEX
  8
T27SSILL
 62
3
 10
2905.795
 20
-4333.546
 30
2483.702
 70
    32
  0
VERTEX
  8
T27SSILL
 62
3
 10
2900.259
 20
-4317.377
 30
2483.690
 70
    32
  0
VERTEX
  8
T27SSILL
 62
3
 10
2899.867
 20
-4313.148
 30
2483.688
 70
    32
  0
VERTEX
  8
T27SSILL
 62
3
 10
2886.129
 20
-4321.528
 30
2483.678
 70
    32
  0
VERTEX
  8
T27SSILL
 62
3
 10
2884.834
 20
-4327.058
 30
2483.678
 70
    32
  0
SEQEND
  8
T27SSILL
  0
POLYLINE
  8
T27SSILL
 62
3
 66
     1
 70
     9
  0
VERTEX
  8
T27SSILL
 62
3
 10
3199.238
 20
-4294.306
 30
2483.839
 70
    32
  0
VERTEX
  8
T27SSILL
 62
3
 10
3221.061
 20
-4325.448
 30
2483.835
 70
    32
  0
VERTEX
  8
T27SSILL
 62
3
 10
3307.230
 20
-4263.505
 30
2483.830
 70
    32
  0
VERTEX
  8
T27SSILL
 62
3
 10
3282.117
 20
-4227.572
 30
2483.837
 70
    32
  0
VERTEX
  8
T27SSILL
 62
3
 10
3212.941
 20
-4277.982
 30
2483.841
 70
    32
  0
VERTEX
  8
T27SSILL
 62
3
 10
3215.252
 20
-4281.483
 30
2483.840
 70
    32
  0
VERTEX
  8
T27SSILL
 62
3
 10
3202.647
 20
-4291.575
 30
2483.841
 70
    32
  0
SEQEND
  8
T27SSILL
  0
POLYLINE
  8
T27SSILL
 62
3
 66
     1
 70
     9
  0
VERTEX
  8
T27SSILL
 62
3
 10
3164.962
 20
-4228.432
 30
2483.820
 70
    32
  0
VERTEX
  8
T27SSILL
 62
3
 10
3172.209
 20
-4233.532
 30
2483.824
 70
    32
  0
VERTEX
  8
T27SSILL
 62
3
 10
3174.707
 20
-4238.313
 30
2483.826
 70
    32
  0
VERTEX
  8
T27SSILL
 62
3
 10
3175.797
 20
-4243.078
 30
2483.826
 70
    32
  0
VERTEX
  8
T27SSILL
 62
3
 10
3171.340
 20
-4255.613
 30
2483.823
 70
    32
  0
VERTEX
  8
T27SSILL
 62
3
 10
3176.522
 20
-4264.297
 30
2483.826
 70
    32
  0
VERTEX
  8
T27SSILL
 62
3
 10
3194.803
 20
-4251.129
 30
2483.837
 70
    32
  0
VERTEX
  8
T27SSILL
 62
3
 10
3208.566
 20
-4271.353
 30
2483.842
 70
    32
  0
VERTEX
  8
T27SSILL
 62
3
 10
3278.310
 20
-4221.896
 30
2483.838
 70
    32
  0
VERTEX
  8
T27SSILL
 62
3
 10
3236.983
 20
-4164.567
 30
2483.850
 70
    32
  0
VERTEX
  8
T27SSILL
 62
3
 10
3160.118
 20
-4221.072
 30
2483.817
 70
    32
  0
VERTEX
  8
T27SSILL
 62
3
 10
3162.021
 20
-4223.998
 30
2483.819
 70
    32
  0
SEQEND
  8
T27SSILL
  0
POLYLINE
  8
T27SSILL
 62
3
 66
     1
 70
     9
  0
VERTEX
  8
T27SSILL
 62
3
 10
3086.284
 20
-4234.554
 30
2483.727
 70
    32
  0
VERTEX
  8
T27SSILL
 62
3
 10
3119.656
 20
-4210.608
 30
2483.771
 70
    32
  0
VERTEX
  8
T27SSILL
 62
3
 10
3109.797
 20
-4194.847
 30
2483.758
 70
    32
  0
VERTEX
  8
T27SSILL
 62
3
 10
2934.710
 20
-4321.731
 30
2483.727
 70
    32
  0
VERTEX
  8
T27SSILL
 62
3
 10
2937.994
 20
-4327.050
 30
2483.733
 70
    32
  0
VERTEX
  8
T27SSILL
 62
3
 10
2947.847
 20
-4319.681
 30
2483.740
 70
    32
  0
VERTEX
  8
T27SSILL
 62
3
 10
2950.784
 20
-4324.556
 30
2483.745
 70
    32
  0
VERTEX
  8
T27SSILL
 62
3
 10
2956.640
 20
-4320.398
 30
2483.749
 70
    32
  0
VERTEX
  8
T27SSILL
 62
3
 10
2959.053
 20
-4324.914
 30
2483.753
 70
    32
  0
VERTEX
  8
T27SSILL
 62
3
 10
2978.749
 20
-4311.146
 30
2483.755
 70
    32
  0
VERTEX
  8
T27SSILL
 62
3
 10
2975.888
 20
-4307.416
 30
2483.755
 70
    32
  0
VERTEX
  8
T27SSILL
 62
3
 10
2981.394
 20
-4303.079
 30
2483.753
 70
    32
  0
VERTEX
  8
T27SSILL
 62
3
 10
2984.247
 20
-4307.600
 30
2483.753
 70
    32
  0
VERTEX
  8
T27SSILL
 62
3
 10
3023.732
 20
-4279.712
 30
2483.737
 70
    32
  0
VERTEX
  8
T27SSILL
 62
3
 10
3020.771
 20
-4275.693
 30
2483.737
 70
    32
  0
VERTEX
  8
T27SSILL
 62
3
 10
3030.458
 20
-4268.699
 30
2483.733
 70
    32
  0
VERTEX
  8
T27SSILL
 62
3
 10
3033.302
 20
-4272.795
 30
2483.733
 70
    32
  0
VERTEX
  8
T27SSILL
 62
3
 10
3075.253
 20
-4243.112
 30
2483.716
 70
    32
  0
VERTEX
  8
T27SSILL
 62
3
 10
3072.455
 20
-4237.918
 30
2483.716
 70
    32
  0
VERTEX
  8
T27SSILL
 62
3
 10
3077.159
 20
-4235.064
 30
2483.715
 70
    32
  0
VERTEX
  8
T27SSILL
 62
3
 10
3074.131
 20
-4230.093
 30
2483.714
 70
    32
  0
VERTEX
  8
T27SSILL
 62
3
 10
3079.909
 20
-4225.753
 30
2483.719
 70
    32
  0
SEQEND
  8
T27SSILL
  0
POLYLINE
  8
T27SSILL
 62
3
 66
     1
 70
     9
  0
VERTEX
  8
T27SSILL
 62
3
 10
2887.285
 20
-4134.833
 30
2483.608
 70
    32
  0
VERTEX
  8
T27SSILL
 62
3
 10
2842.429
 20
-4166.248
 30
2483.574
 70
    32
  0
VERTEX
  8
T27SSILL
 62
3
 10
2846.556
 20
-4171.740
 30
2483.581
 70
    32
  0
VERTEX
  8
T27SSILL
 62
3
 10
2835.385
 20
-4179.204
 30
2483.572
 70
    32
  0
VERTEX
  8
T27SSILL
 62
3
 10
2831.782
 20
-4173.440
 30
2483.566
 70
    32
  0
VERTEX
  8
T27SSILL
 62
3
 10
2827.555
 20
-4199.128
 30
2483.572
 70
    32
  0
VERTEX
  8
T27SSILL
 62
3
 10
2893.142
 20
-4152.164
 30
2483.621
 70
    32
  0
VERTEX
  8
T27SSILL
 62
3
 10
2889.814
 20
-4147.101
 30
2483.615
 70
    32
  0
VERTEX
  8
T27SSILL
 62
3
 10
2893.543
 20
-4144.516
 30
2483.618
 70
    32
  0
VERTEX
  8
T27SSILL
 62
3
 10
2890.368
 20
-4139.603
 30
2483.613
 70
    32
  0
VERTEX
  8
T27SSILL
 62
3
 10
2895.202
 20
-4136.126
 30
2483.617
 70
    32
  0
VERTEX
  8
T27SSILL
 62
3
 10
2892.156
 20
-4131.338
 30
2483.612
 70
    32
  0
SEQEND
  8
T27SSILL
  0
POLYLINE
  8
T27SSILL
 62
3
 66
     1
 70
     9
  0
VERTEX
  8
T27SSILL
 62
3
 10
2810.855
 20
-4231.245
 30
2483.567
 70
    32
  0
VERTEX
  8
T27SSILL
 62
3
 10
2813.870
 20
-4237.001
 30
2483.572
 70
    32
  0
VERTEX
  8
T27SSILL
 62
3
 10
2824.366
 20
-4250.411
 30
2483.588
 70
    32
  0
VERTEX
  8
T27SSILL
 62
3
 10
2842.292
 20
-4260.561
 30
2483.610
 70
    32
  0
VERTEX
  8
T27SSILL
 62
3
 10
2851.623
 20
-4275.806
 30
2483.625
 70
    32
  0
VERTEX
  8
T27SSILL
 62
3
 10
2866.965
 20
-4265.684
 30
2483.637
 70
    32
  0
VERTEX
  8
T27SSILL
 62
3
 10
2864.456
 20
-4261.959
 30
2483.633
 70
    32
  0
VERTEX
  8
T27SSILL
 62
3
 10
2869.519
 20
-4257.880
 30
2483.637
 70
    32
  0
VERTEX
  8
T27SSILL
 62
3
 10
2866.147
 20
-4252.561
 30
2483.631
 70
    32
  0
VERTEX
  8
T27SSILL
 62
3
 10
2870.856
 20
-4248.742
 30
2483.635
 70
    32
  0
VERTEX
  8
T27SSILL
 62
3
 10
2866.693
 20
-4243.326
 30
2483.628
 70
    32
  0
VERTEX
  8
T27SSILL
 62
3
 10
2868.110
 20
-4242.550
 30
2483.629
 70
    32
  0
VERTEX
  8
T27SSILL
 62
3
 10
2847.674
 20
-4205.615
 30
2483.595
 70
    32
  0
VERTEX
  8
T27SSILL
 62
3
 10
2850.457
 20
-4200.806
 30
2483.596
 70
    32
  0
VERTEX
  8
T27SSILL
 62
3
 10
2854.588
 20
-4201.293
 30
2483.600
 70
    32
  0
VERTEX
  8
T27SSILL
 62
3
 10
2858.254
 20
-4203.976
 30
2483.605
 70
    32
  0
VERTEX
  8
T27SSILL
 62
3
 10
2865.802
 20
-4205.822
 30
2483.613
 70
    32
  0
VERTEX
  8
T27SSILL
 62
3
 10
2869.414
 20
-4205.512
 30
2483.617
 70
    32
  0
VERTEX
  8
T27SSILL
 62
3
 10
2876.161
 20
-4200.484
 30
2483.622
 70
    32
  0
VERTEX
  8
T27SSILL
 62
3
 10
2890.300
 20
-4180.051
 30
2483.628
 70
    32
  0
VERTEX
  8
T27SSILL
 62
3
 10
2892.112
 20
-4175.583
 30
2483.628
 70
    32
  0
VERTEX
  8
T27SSILL
 62
3
 10
2887.763
 20
-4163.388
 30
2483.619
 70
    32
  0
VERTEX
  8
T27SSILL
 62
3
 10
2826.620
 20
-4207.222
 30
2483.574
 70
    32
  0
VERTEX
  8
T27SSILL
 62
3
 10
2843.504
 20
-4231.619
 30
2483.600
 70
    32
  0
VERTEX
  8
T27SSILL
 62
3
 10
2837.562
 20
-4235.512
 30
2483.596
 70
    32
  0
VERTEX
  8
T27SSILL
 62
3
 10
2820.941
 20
-4211.294
 30
2483.570
 70
    32
  0
VERTEX
  8
T27SSILL
 62
3
 10
2805.677
 20
-4222.297
 30
2483.558
 70
    32
  0
VERTEX
  8
T27SSILL
 62
3
 10
2808.953
 20
-4228.319
 30
2483.564
 70
    32
  0
SEQEND
  8
T27SSILL
  0
POLYLINE
  8
T27SSILL
 62
3
 66
     1
 70
     9
  0
VERTEX
  8
T27SSILL
 62
3
 10
2966.283
 20
-4455.093
 30
2483.781
 70
    32
  0
VERTEX
  8
T27SSILL
 62
3
 10
2971.536
 20
-4465.944
 30
2483.781
 70
    32
  0
VERTEX
  8
T27SSILL
 62
3
 10
2983.245
 20
-4459.005
 30
2483.777
 70
    32
  0
VERTEX
  8
T27SSILL
 62
3
 10
2994.239
 20
-4464.407
 30
2483.774
 70
    32
  0
VERTEX
  8
T27SSILL
 62
3
 10
2997.969
 20
-4460.129
 30
2483.772
 70
    32
  0
VERTEX
  8
T27SSILL
 62
3
 10
2992.821
 20
-4457.204
 30
2483.773
 70
    32
  0
VERTEX
  8
T27SSILL
 62
3
 10
2979.457
 20
-4445.757
 30
2483.776
 70
    32
  0
VERTEX
  8
T27SSILL
 62
3
 10
3000.736
 20
-4429.971
 30
2483.767
 70
    32
  0
VERTEX
  8
T27SSILL
 62
3
 10
3021.431
 20
-4436.387
 30
2483.762
 70
    32
  0
VERTEX
  8
T27SSILL
 62
3
 10
3023.992
 20
-4430.276
 30
2483.760
 70
    32
  0
VERTEX
  8
T27SSILL
 62
3
 10
3032.969
 20
-4429.803
 30
2483.757
 70
    32
  0
VERTEX
  8
T27SSILL
 62
3
 10
3028.026
 20
-4409.260
 30
2483.756
 70
    32
  0
VERTEX
  8
T27SSILL
 62
3
 10
3055.267
 20
-4391.457
 30
2483.745
 70
    32
  0
VERTEX
  8
T27SSILL
 62
3
 10
3063.441
 20
-4403.325
 30
2483.744
 70
    32
  0
VERTEX
  8
T27SSILL
 62
3
 10
3078.381
 20
-4374.589
 30
2483.735
 70
    32
  0
VERTEX
  8
T27SSILL
 62
3
 10
3171.632
 20
-4307.285
 30
2483.822
 70
    32
  0
VERTEX
  8
T27SSILL
 62
3
 10
3179.266
 20
-4311.763
 30
2483.827
 70
    32
  0
VERTEX
  8
T27SSILL
 62
3
 10
3184.837
 20
-4319.967
 30
2483.830
 70
    32
  0
VERTEX
  8
T27SSILL
 62
3
 10
3191.124
 20
-4315.919
 30
2483.834
 70
    32
  0
VERTEX
  8
T27SSILL
 62
3
 10
3183.406
 20
-4305.190
 30
2483.829
 70
    32
  0
VERTEX
  8
T27SSILL
 62
3
 10
3194.402
 20
-4297.644
 30
2483.836
 70
    32
  0
VERTEX
  8
T27SSILL
 62
3
 10
3216.230
 20
-4329.411
 30
2483.835
 70
    32
  0
VERTEX
  8
T27SSILL
 62
3
 10
3074.815
 20
-4430.564
 30
2483.745
 70
    32
  0
VERTEX
  8
T27SSILL
 62
3
 10
3065.705
 20
-4427.692
 30
2483.747
 70
    32
  0
VERTEX
  8
T27SSILL
 62
3
 10
3052.122
 20
-4419.683
 30
2483.750
 70
    32
  0
VERTEX
  8
T27SSILL
 62
3
 10
3051.036
 20
-4417.495
 30
2483.750
 70
    32
  0
VERTEX
  8
T27SSILL
 62
3
 10
3045.435
 20
-4420.213
 30
2483.752
 70
    32
  0
VERTEX
  8
T27SSILL
 62
3
 10
3048.650
 20
-4436.640
 30
2483.754
 70
    32
  0
VERTEX
  8
T27SSILL
 62
3
 10
3041.048
 20
-4454.356
 30
2483.759
 70
    32
  0
VERTEX
  8
T27SSILL
 62
3
 10
2978.860
 20
-4499.843
 30
2483.784
 70
    32
  0
VERTEX
  8
T27SSILL
 62
3
 10
2946.990
 20
-4467.946
 30
2483.789
 70
    32
  0
SEQEND
  8
T27SSILL
  0
POLYLINE
  8
T27SSILL
 62
3
 66
     1
 70
     9
  0
VERTEX
  8
T27SSILL
 62
3
 10
2755.435
 20
-4167.972
 30
2483.486
 70
    32
  0
VERTEX
  8
T27SSILL
 62
3
 10
2759.971
 20
-4171.256
 30
2483.492
 70
    32
  0
VERTEX
  8
T27SSILL
 62
3
 10
2790.523
 20
-4215.402
 30
2483.540
 70
    32
  0
VERTEX
  8
T27SSILL
 62
3
 10
2793.110
 20
-4224.174
 30
2483.546
 70
    32
  0
VERTEX
  8
T27SSILL
 62
3
 10
2820.406
 20
-4204.423
 30
2483.566
 70
    32
  0
VERTEX
  8
T27SSILL
 62
3
 10
2825.303
 20
-4169.830
 30
2483.558
 70
    32
  0
VERTEX
  8
T27SSILL
 62
3
 10
2883.488
 20
-4128.957
 30
2483.602
 70
    32
  0
VERTEX
  8
T27SSILL
 62
3
 10
2880.690
 20
-4124.063
 30
2483.597
 70
    32
  0
VERTEX
  8
T27SSILL
 62
3
 10
2885.580
 20
-4121.001
 30
2483.601
 70
    32
  0
VERTEX
  8
T27SSILL
 62
3
 10
2881.361
 20
-4115.246
 30
2483.595
 70
    32
  0
VERTEX
  8
T27SSILL
 62
3
 10
2886.244
 20
-4111.656
 30
2483.598
 70
    32
  0
VERTEX
  8
T27SSILL
 62
3
 10
2882.742
 20
-4106.772
 30
2483.593
 70
    32
  0
VERTEX
  8
T27SSILL
 62
3
 10
2890.071
 20
-4101.739
 30
2483.598
 70
    32
  0
VERTEX
  8
T27SSILL
 62
3
 10
2888.964
 20
-4098.055
 30
2483.596
 70
    32
  0
VERTEX
  8
T27SSILL
 62
3
 10
2880.462
 20
-4088.220
 30
2483.584
 70
    32
  0
VERTEX
  8
T27SSILL
 62
3
 10
2880.180
 20
-4080.561
 30
2483.580
 70
    32
  0
VERTEX
  8
T27SSILL
 62
3
 10
2878.537
 20
-4076.356
 30
2483.577
 70
    32
  0
VERTEX
  8
T27SSILL
 62
3
 10
2751.538
 20
-4166.440
 30
2483.482
 70
    32
  0
SEQEND
  8
T27SSILL
  0
POLYLINE
  8
T27SSILL
 62
3
 66
     1
 70
     9
  0
VERTEX
  8
T27SSILL
 62
3
 10
2719.667
 20
-4128.830
 30
2483.435
 70
    32
  0
VERTEX
  8
T27SSILL
 62
3
 10
2700.821
 20
-4141.771
 30
2483.421
 70
    32
  0
VERTEX
  8
T27SSILL
 62
3
 10
2701.453
 20
-4149.337
 30
2483.424
 70
    32
  0
VERTEX
  8
T27SSILL
 62
3
 10
2703.564
 20
-4155.561
 30
2483.429
 70
    32
  0
VERTEX
  8
T27SSILL
 62
3
 10
2706.160
 20
-4158.608
 30
2483.433
 70
    32
  0
VERTEX
  8
T27SSILL
 62
3
 10
2711.562
 20
-4160.736
 30
2483.439
 70
    32
  0
VERTEX
  8
T27SSILL
 62
3
 10
2741.830
 20
-4164.988
 30
2483.471
 70
    32
  0
VERTEX
  8
T27SSILL
 62
3
 10
2854.431
 20
-4084.702
 30
2483.556
 70
    32
  0
VERTEX
  8
T27SSILL
 62
3
 10
2794.842
 20
-4074.600
 30
2483.491
 70
    32
  0
VERTEX
  8
T27SSILL
 62
3
 10
2730.990
 20
-4119.602
 30
2483.443
 70
    32
  0
SEQEND
  8
T27SSILL
  0
POLYLINE
  8
T27SSILL
 62
3
 66
     1
 70
     9
  0
VERTEX
  8
T27SSILL
 62
3
 10
2891.825
 20
-4069.128
 30
2483.588
 70
    32
  0
VERTEX
  8
T27SSILL
 62
3
 10
2893.138
 20
-4074.923
 30
2483.591
 70
    32
  0
VERTEX
  8
T27SSILL
 62
3
 10
2901.424
 20
-4088.284
 30
2483.605
 70
    32
  0
VERTEX
  8
T27SSILL
 62
3
 10
2902.458
 20
-4093.026
 30
2483.608
 70
    32
  0
VERTEX
  8
T27SSILL
 62
3
 10
2913.397
 20
-4107.144
 30
2483.624
 70
    32
  0
VERTEX
  8
T27SSILL
 62
3
 10
2922.119
 20
-4100.859
 30
2483.631
 70
    32
  0
VERTEX
  8
T27SSILL
 62
3
 10
2918.350
 20
-4095.802
 30
2483.625
 70
    32
  0
VERTEX
  8
T27SSILL
 62
3
 10
2933.261
 20
-4084.940
 30
2483.636
 70
    32
  0
VERTEX
  8
T27SSILL
 62
3
 10
2925.645
 20
-4075.445
 30
2483.625
 70
    32
  0
VERTEX
  8
T27SSILL
 62
3
 10
2931.315
 20
-4071.492
 30
2483.629
 70
    32
  0
VERTEX
  8
T27SSILL
 62
3
 10
2934.558
 20
-4076.731
 30
2483.634
 70
    32
  0
VERTEX
  8
T27SSILL
 62
3
 10
2940.227
 20
-4072.690
 30
2483.638
 70
    32
  0
VERTEX
  8
T27SSILL
 62
3
 10
2936.633
 20
-4067.543
 30
2483.633
 70
    32
  0
VERTEX
  8
T27SSILL
 62
3
 10
2961.583
 20
-4050.114
 30
2483.652
 70
    32
  0
VERTEX
  8
T27SSILL
 62
3
 10
2972.584
 20
-4064.221
 30
2483.668
 70
    32
  0
VERTEX
  8
T27SSILL
 62
3
 10
3003.834
 20
-4041.850
 30
2483.692
 70
    32
  0
VERTEX
  8
T27SSILL
 62
3
 10
2991.434
 20
-4025.602
 30
2483.673
 70
    32
  0
VERTEX
  8
T27SSILL
 62
3
 10
2979.757
 20
-4007.690
 30
2483.654
 70
    32
  0
VERTEX
  8
T27SSILL
 62
3
 10
2976.963
 20
-4005.721
 30
2483.651
 70
    32
  0
VERTEX
  8
T27SSILL
 62
3
 10
2975.022
 20
-4006.139
 30
2483.649
 70
    32
  0
VERTEX
  8
T27SSILL
 62
3
 10
2959.772
 20
-4015.910
 30
2483.637
 70
    32
  0
VERTEX
  8
T27SSILL
 62
3
 10
2966.691
 20
-4037.273
 30
2483.652
 70
    32
  0
VERTEX
  8
T27SSILL
 62
3
 10
2967.675
 20
-4044.746
 30
2483.656
 70
    32
  0
VERTEX
  8
T27SSILL
 62
3
 10
2966.466
 20
-4046.524
 30
2483.655
 70
    32
  0
VERTEX
  8
T27SSILL
 62
3
 10
2956.481
 20
-4050.536
 30
2483.647
 70
    32
  0
VERTEX
  8
T27SSILL
 62
3
 10
2952.848
 20
-4055.342
 30
2483.645
 70
    32
  0
VERTEX
  8
T27SSILL
 62
3
 10
2947.310
 20
-4056.123
 30
2483.639
 70
    32
  0
VERTEX
  8
T27SSILL
 62
3
 10
2937.945
 20
-4054.050
 30
2483.629
 70
    32
  0
VERTEX
  8
T27SSILL
 62
3
 10
2922.237
 20
-4045.370
 30
2483.610
 70
    32
  0
VERTEX
  8
T27SSILL
 62
3
 10
2892.848
 20
-4066.647
 30
2483.588
 70
    32
  0
SEQEND
  8
T27SSILL
  0
POLYLINE
  8
T27SSILL
 62
3
 66
     1
 70
     9
  0
VERTEX
  8
T27SSILL
 62
3
 10
2949.455
 20
-4096.872
 30
2483.657
 70
    32
  0
VERTEX
  8
T27SSILL
 62
3
 10
2960.000
 20
-4088.712
 30
2483.665
 70
    32
  0
VERTEX
  8
T27SSILL
 62
3
 10
2956.684
 20
-4084.530
 30
2483.660
 70
    32
  0
VERTEX
  8
T27SSILL
 62
3
 10
3008.053
 20
-4047.626
 30
2483.698
 70
    32
  0
VERTEX
  8
T27SSILL
 62
3
 10
3018.462
 20
-4061.663
 30
2483.704
 70
    32
  0
VERTEX
  8
T27SSILL
 62
3
 10
2956.888
 20
-4105.842
 30
2483.668
 70
    32
  0
SEQEND
  8
T27SSILL
  0
POLYLINE
  8
T27SSILL
 62
3
 66
     1
 70
     9
  0
VERTEX
  8
T27SSILL
 62
3
 10
3002.711
 20
-3988.344
 30
2483.670
 70
    32
  0
VERTEX
  8
T27SSILL
 62
3
 10
3012.104
 20
-4003.659
 30
2483.686
 70
    32
  0
VERTEX
  8
T27SSILL
 62
3
 10
3012.522
 20
-4005.600
 30
2483.687
 70
    32
  0
VERTEX
  8
T27SSILL
 62
3
 10
3011.081
 20
-4008.400
 30
2483.686
 70
    32
  0
VERTEX
  8
T27SSILL
 62
3
 10
3013.243
 20
-4011.769
 30
2483.690
 70
    32
  0
VERTEX
  8
T27SSILL
 62
3
 10
3011.378
 20
-4013.244
 30
2483.688
 70
    32
  0
VERTEX
  8
T27SSILL
 62
3
 10
3023.847
 20
-4031.165
 30
2483.698
 70
    32
  0
VERTEX
  8
T27SSILL
 62
3
 10
3061.616
 20
-4030.189
 30
2483.696
 70
    32
  0
VERTEX
  8
T27SSILL
 62
3
 10
3113.532
 20
-3992.674
 30
2483.765
 70
    32
  0
VERTEX
  8
T27SSILL
 62
3
 10
3071.839
 20
-3936.661
 30
2483.710
 70
    32
  0
VERTEX
  8
T27SSILL
 62
3
 10
3026.623
 20
-3970.216
 30
2483.688
 70
    32
  0
SEQEND
  8
T27SSILL
  0
POLYLINE
  8
T27SSILL
 62
3
 66
     1
 70
     9
  0
VERTEX
  8
T27SSILL
 62
3
 10
512.422
 20
-2638.536
 30
2483.218
 70
    32
  0
VERTEX
  8
T27SSILL
 62
3
 10
505.798
 20
-2633.322
 30
2483.222
 70
    32
  0
VERTEX
  8
T27SSILL
 62
3
 10
497.233
 20
-2631.904
 30
2483.228
 70
    32
  0
VERTEX
  8
T27SSILL
 62
3
 10
492.410
 20
-2632.357
 30
2483.232
 70
    32
  0
VERTEX
  8
T27SSILL
 62
3
 10
484.547
 20
-2635.791
 30
2483.238
 70
    32
  0
VERTEX
  8
T27SSILL
 62
3
 10
453.067
 20
-2657.997
 30
2483.266
 70
    32
  0
VERTEX
  8
T27SSILL
 62
3
 10
446.548
 20
-2698.563
 30
2483.279
 70
    32
  0
VERTEX
  8
T27SSILL
 62
3
 10
466.769
 20
-2726.904
 30
2483.270
 70
    32
  0
VERTEX
  8
T27SSILL
 62
3
 10
460.495
 20
-2732.084
 30
2483.277
 70
    32
  0
VERTEX
  8
T27SSILL
 62
3
 10
438.713
 20
-2701.749
 30
2483.285
 70
    32
  0
VERTEX
  8
T27SSILL
 62
3
 10
445.138
 20
-2664.751
 30
2483.273
 70
    32
  0
VERTEX
  8
T27SSILL
 62
3
 10
377.567
 20
-2712.153
 30
2483.333
 70
    32
  0
VERTEX
  8
T27SSILL
 62
3
 10
428.650
 20
-2783.221
 30
2483.329
 70
    32
  0
VERTEX
  8
T27SSILL
 62
3
 10
546.098
 20
-2698.763
 30
2483.206
 70
    32
  0
VERTEX
  8
T27SSILL
 62
3
 10
554.468
 20
-2696.392
 30
2483.199
 70
    32
  0
VERTEX
  8
T27SSILL
 62
3
 10
563.189
 20
-2696.447
 30
2483.189
 70
    32
  0
VERTEX
  8
T27SSILL
 62
3
 10
515.622
 20
-2641.853
 30
2483.216
 70
    32
  0
SEQEND
  8
T27SSILL
  0
POLYLINE
  8
T27SSILL
 62
3
 66
     1
 70
     9
  0
VERTEX
  8
T27SSILL
 62
3
 10
100.156
 20
-2849.842
 30
2483.567
 70
    32
  0
VERTEX
  8
T27SSILL
 62
3
 10
96.578
 20
-2844.348
 30
2483.568
 70
    32
  0
VERTEX
  8
T27SSILL
 62
3
 10
85.837
 20
-2851.533
 30
2483.578
 70
    32
  0
VERTEX
  8
T27SSILL
 62
3
 10
90.159
 20
-2857.113
 30
2483.575
 70
    32
  0
VERTEX
  8
T27SSILL
 62
3
 10
85.796
 20
-2860.130
 30
2483.580
 70
    32
  0
VERTEX
  8
T27SSILL
 62
3
 10
77.834
 20
-2860.036
 30
2483.585
 70
    32
  0
VERTEX
  8
T27SSILL
 62
3
 10
68.582
 20
-2858.037
 30
2483.592
 70
    32
  0
VERTEX
  8
T27SSILL
 62
3
 10
54.990
 20
-2838.528
 30
2483.598
 70
    32
  0
VERTEX
  8
T27SSILL
 62
3
 10
53.154
 20
-2830.973
 30
2483.598
 70
    32
  0
VERTEX
  8
T27SSILL
 62
3
 10
54.326
 20
-2826.210
 30
2483.597
 70
    32
  0
VERTEX
  8
T27SSILL
 62
3
 10
216.309
 20
-2708.041
 30
2483.453
 70
    32
  0
VERTEX
  8
T27SSILL
 62
3
 10
223.097
 20
-2704.673
 30
2483.447
 70
    32
  0
VERTEX
  8
T27SSILL
 62
3
 10
231.641
 20
-2708.475
 30
2483.442
 70
    32
  0
VERTEX
  8
T27SSILL
 62
3
 10
236.193
 20
-2706.546
 30
2483.438
 70
    32
  0
VERTEX
  8
T27SSILL
 62
3
 10
238.036
 20
-2703.053
 30
2483.436
 70
    32
  0
VERTEX
  8
T27SSILL
 62
3
 10
235.265
 20
-2694.888
 30
2483.436
 70
    32
  0
VERTEX
  8
T27SSILL
 62
3
 10
344.620
 20
-2616.977
 30
2483.340
 70
    32
  0
VERTEX
  8
T27SSILL
 62
3
 10
355.330
 20
-2610.604
 30
2483.331
 70
    32
  0
VERTEX
  8
T27SSILL
 62
3
 10
363.766
 20
-2609.308
 30
2483.324
 70
    32
  0
VERTEX
  8
T27SSILL
 62
3
 10
414.039
 20
-2617.689
 30
2483.288
 70
    32
  0
VERTEX
  8
T27SSILL
 62
3
 10
363.706
 20
-2653.260
 30
2483.332
 70
    32
  0
VERTEX
  8
T27SSILL
 62
3
 10
368.665
 20
-2659.217
 30
2483.330
 70
    32
  0
VERTEX
  8
T27SSILL
 62
3
 10
423.567
 20
-2619.468
 30
2483.281
 70
    32
  0
VERTEX
  8
T27SSILL
 62
3
 10
481.108
 20
-2629.622
 30
2483.240
 70
    32
  0
VERTEX
  8
T27SSILL
 62
3
 10
373.411
 20
-2706.216
 30
2483.335
 70
    32
  0
VERTEX
  8
T27SSILL
 62
3
 10
337.664
 20
-2656.426
 30
2483.352
 70
    32
  0
VERTEX
  8
T27SSILL
 62
3
 10
331.658
 20
-2660.636
 30
2483.358
 70
    32
  0
VERTEX
  8
T27SSILL
 62
3
 10
367.557
 20
-2710.193
 30
2483.340
 70
    32
  0
VERTEX
  8
T27SSILL
 62
3
 10
262.206
 20
-2785.486
 30
2483.433
 70
    32
  0
VERTEX
  8
T27SSILL
 62
3
 10
247.557
 20
-2782.368
 30
2483.444
 70
    32
  0
VERTEX
  8
T27SSILL
 62
3
 10
217.403
 20
-2803.407
 30
2483.470
 70
    32
  0
VERTEX
  8
T27SSILL
 62
3
 10
222.703
 20
-2813.619
 30
2483.470
 70
    32
  0
VERTEX
  8
T27SSILL
 62
3
 10
99.527
 20
-2901.503
 30
2483.598
 70
    32
  0
VERTEX
  8
T27SSILL
 62
3
 10
79.860
 20
-2873.075
 30
2483.592
 70
    32
  0
VERTEX
  8
T27SSILL
 62
3
 10
93.972
 20
-2862.759
 30
2483.577
 70
    32
  0
VERTEX
  8
T27SSILL
 62
3
 10
95.645
 20
-2865.148
 30
2483.577
 70
    32
  0
VERTEX
  8
T27SSILL
 62
3
 10
105.973
 20
-2857.727
 30
2483.566
 70
    32
  0
VERTEX
  8
T27SSILL
 62
3
 10
104.231
 20
-2855.393
 30
2483.566
 70
    32
  0
VERTEX
  8
T27SSILL
 62
3
 10
246.557
 20
-2754.512
 30
2483.439
 70
    32
  0
VERTEX
  8
T27SSILL
 62
3
 10
242.022
 20
-2748.343
 30
2483.441
 70
    32
  0
VERTEX
  8
T27SSILL
 62
3
 10
232.667
 20
-2754.988
 30
2483.450
 70
    32
  0
VERTEX
  8
T27SSILL
 62
3
 10
228.784
 20
-2749.961
 30
2483.452
 70
    32
  0
VERTEX
  8
T27SSILL
 62
3
 10
218.511
 20
-2757.452
 30
2483.461
 70
    32
  0
VERTEX
  8
T27SSILL
 62
3
 10
221.870
 20
-2762.670
 30
2483.459
 70
    32
  0
VERTEX
  8
T27SSILL
 62
3
 10
184.686
 20
-2789.184
 30
2483.492
 70
    32
  0
SEQEND
  8
T27SSILL
  0
POLYLINE
  8
T27SSILL
 62
3
 66
     1
 70
     9
  0
VERTEX
  8
T27SSILL
 62
3
 10
91.632
 20
-2574.446
 30
2483.441
 70
    32
  0
VERTEX
  8
T27SSILL
 62
3
 10
85.309
 20
-2600.657
 30
2483.460
 70
    32
  0
VERTEX
  8
T27SSILL
 62
3
 10
110.671
 20
-2636.390
 30
2483.476
 70
    32
  0
VERTEX
  8
T27SSILL
 62
3
 10
115.043
 20
-2639.338
 30
2483.476
 70
    32
  0
VERTEX
  8
T27SSILL
 62
3
 10
129.261
 20
-2639.079
 30
2483.472
 70
    32
  0
VERTEX
  8
T27SSILL
 62
3
 10
139.903
 20
-2637.156
 30
2483.468
 70
    32
  0
VERTEX
  8
T27SSILL
 62
3
 10
211.980
 20
-2584.932
 30
2483.415
 70
    32
  0
VERTEX
  8
T27SSILL
 62
3
 10
97.004
 20
-2565.893
 30
2483.434
 70
    32
  0
VERTEX
  8
T27SSILL
 62
3
 10
92.464
 20
-2572.657
 30
2483.440
 70
    32
  0
SEQEND
  8
T27SSILL
  0
POLYLINE
  8
T27SSILL
 62
3
 66
     1
 70
     9
  0
VERTEX
  8
T27SSILL
 62
3
 10
-54.464
 20
-2904.123
 30
2483.693
 70
    32
  0
VERTEX
  8
T27SSILL
 62
3
 10
-60.231
 20
-2915.581
 30
2483.701
 70
    32
  0
VERTEX
  8
T27SSILL
 62
3
 10
-58.961
 20
-2923.700
 30
2483.704
 70
    32
  0
VERTEX
  8
T27SSILL
 62
3
 10
-2.591
 20
-3040.261
 30
2483.747
 70
    32
  0
VERTEX
  8
T27SSILL
 62
3
 10
124.608
 20
-2947.940
 30
2483.613
 70
    32
  0
VERTEX
  8
T27SSILL
 62
3
 10
42.344
 20
-2833.819
 30
2483.607
 70
    32
  0
VERTEX
  8
T27SSILL
 62
3
 10
-52.486
 20
-2901.650
 30
2483.691
 70
    32
  0
SEQEND
  8
T27SSILL
  0
POLYLINE
  8
T27SSILL
 62
3
 66
     1
 70
     9
  0
VERTEX
  8
T27SSILL
 62
3
 10
5.673
 20
-3058.596
 30
2483.753
 70
    32
  0
VERTEX
  8
T27SSILL
 62
3
 10
17.963
 20
-3084.549
 30
2483.763
 70
    32
  0
VERTEX
  8
T27SSILL
 62
3
 10
20.393
 20
-3078.674
 30
2483.757
 70
    32
  0
VERTEX
  8
T27SSILL
 62
3
 10
25.747
 20
-3071.375
 30
2483.750
 70
    32
  0
VERTEX
  8
T27SSILL
 62
3
 10
145.608
 20
-2986.126
 30
2483.625
 70
    32
  0
VERTEX
  8
T27SSILL
 62
3
 10
144.022
 20
-2982.428
 30
2483.623
 70
    32
  0
VERTEX
  8
T27SSILL
 62
3
 10
143.783
 20
-2975.181
 30
2483.619
 70
    32
  0
VERTEX
  8
T27SSILL
 62
3
 10
129.790
 20
-2955.878
 30
2483.615
 70
    32
  0
VERTEX
  8
T27SSILL
 62
3
 10
126.186
 20
-2963.251
 30
2483.622
 70
    32
  0
VERTEX
  8
T27SSILL
 62
3
 10
116.289
 20
-2969.089
 30
2483.631
 70
    32
  0
VERTEX
  8
T27SSILL
 62
3
 10
105.331
 20
-2971.039
 30
2483.639
 70
    32
  0
VERTEX
  8
T27SSILL
 62
3
 10
12.250
 20
-3038.944
 30
2483.737
 70
    32
  0
VERTEX
  8
T27SSILL
 62
3
 10
8.289
 20
-3045.586
 30
2483.744
 70
    32
  0
VERTEX
  8
T27SSILL
 62
3
 10
6.671
 20
-3052.056
 30
2483.749
 70
    32
  0
SEQEND
  8
T27SSILL
  0
POLYLINE
  8
T27SSILL
 62
3
 66
     1
 70
     9
  0
VERTEX
  8
T27SSILL
 62
3
 10
649.681
 20
-2797.741
 30
2483.082
 70
    32
  0
VERTEX
  8
T27SSILL
 62
3
 10
644.645
 20
-2795.659
 30
2483.086
 70
    32
  0
VERTEX
  8
T27SSILL
 62
3
 10
634.823
 20
-2795.353
 30
2483.095
 70
    32
  0
VERTEX
  8
T27SSILL
 62
3
 10
626.557
 20
-2799.556
 30
2483.105
 70
    32
  0
VERTEX
  8
T27SSILL
 62
3
 10
591.582
 20
-2824.879
 30
2483.150
 70
    32
  0
VERTEX
  8
T27SSILL
 62
3
 10
587.211
 20
-2852.695
 30
2483.167
 70
    32
  0
VERTEX
  8
T27SSILL
 62
3
 10
581.442
 20
-2860.323
 30
2483.176
 70
    32
  0
VERTEX
  8
T27SSILL
 62
3
 10
583.147
 20
-2868.188
 30
2483.178
 70
    32
  0
VERTEX
  8
T27SSILL
 62
3
 10
586.034
 20
-2877.025
 30
2483.180
 70
    32
  0
VERTEX
  8
T27SSILL
 62
3
 10
593.935
 20
-2871.217
 30
2483.170
 70
    32
  0
VERTEX
  8
T27SSILL
 62
3
 10
596.175
 20
-2875.673
 30
2483.170
 70
    32
  0
VERTEX
  8
T27SSILL
 62
3
 10
604.402
 20
-2883.543
 30
2483.166
 70
    32
  0
VERTEX
  8
T27SSILL
 62
3
 10
614.031
 20
-2896.245
 30
2483.160
 70
    32
  0
VERTEX
  8
T27SSILL
 62
3
 10
680.982
 20
-2847.903
 30
2483.076
 70
    32
  0
VERTEX
  8
T27SSILL
 62
3
 10
688.427
 20
-2846.560
 30
2483.065
 70
    32
  0
VERTEX
  8
T27SSILL
 62
3
 10
695.320
 20
-2846.860
 30
2483.055
 70
    32
  0
VERTEX
  8
T27SSILL
 62
3
 10
657.302
 20
-2803.063
 30
2483.077
 70
    32
  0
SEQEND
  8
T27SSILL
  0
POLYLINE
  8
T27SSILL
 62
3
 66
     1
 70
     9
  0
VERTEX
  8
T27SSILL
 62
3
 10
619.833
 20
-2921.695
 30
2483.146
 70
    32
  0
VERTEX
  8
T27SSILL
 62
3
 10
626.640
 20
-2931.146
 30
2483.134
 70
    32
  0
VERTEX
  8
T27SSILL
 62
3
 10
641.644
 20
-2920.682
 30
2483.115
 70
    32
  0
VERTEX
  8
T27SSILL
 62
3
 10
693.238
 20
-2930.119
 30
2483.083
 70
    32
  0
VERTEX
  8
T27SSILL
 62
3
 10
727.824
 20
-2905.217
 30
2483.015
 70
    32
  0
VERTEX
  8
T27SSILL
 62
3
 10
743.063
 20
-2901.995
 30
2483.013
 70
    32
  0
VERTEX
  8
T27SSILL
 62
3
 10
705.821
 20
-2858.689
 30
2483.038
 70
    32
  0
VERTEX
  8
T27SSILL
 62
3
 10
696.521
 20
-2854.544
 30
2483.052
 70
    32
  0
VERTEX
  8
T27SSILL
 62
3
 10
689.225
 20
-2853.780
 30
2483.063
 70
    32
  0
VERTEX
  8
T27SSILL
 62
3
 10
681.271
 20
-2856.146
 30
2483.073
 70
    32
  0
VERTEX
  8
T27SSILL
 62
3
 10
615.666
 20
-2903.087
 30
2483.156
 70
    32
  0
VERTEX
  8
T27SSILL
 62
3
 10
624.908
 20
-2917.755
 30
2483.139
 70
    32
  0
SEQEND
  8
T27SSILL
  0
POLYLINE
  8
T27SSILL
 62
3
 66
     1
 70
     9
  0
VERTEX
  8
T27SSILL
 62
3
 10
749.874
 20
-2910.512
 30
2483.047
 70
    32
  0
VERTEX
  8
T27SSILL
 62
3
 10
742.423
 20
-2909.300
 30
2483.038
 70
    32
  0
VERTEX
  8
T27SSILL
 62
3
 10
732.781
 20
-2909.990
 30
2483.035
 70
    32
  0
VERTEX
  8
T27SSILL
 62
3
 10
728.325
 20
-2912.229
 30
2483.040
 70
    32
  0
VERTEX
  8
T27SSILL
 62
3
 10
664.850
 20
-2959.882
 30
2483.172
 70
    32
  0
VERTEX
  8
T27SSILL
 62
3
 10
665.735
 20
-2965.862
 30
2483.194
 70
    32
  0
VERTEX
  8
T27SSILL
 62
3
 10
669.548
 20
-2973.606
 30
2483.194
 70
    32
  0
VERTEX
  8
T27SSILL
 62
3
 10
669.762
 20
-2980.286
 30
2483.196
 70
    32
  0
VERTEX
  8
T27SSILL
 62
3
 10
628.119
 20
-3010.732
 30
2483.244
 70
    32
  0
VERTEX
  8
T27SSILL
 62
3
 10
620.677
 20
-3009.396
 30
2483.250
 70
    32
  0
VERTEX
  8
T27SSILL
 62
3
 10
614.511
 20
-3004.974
 30
2483.255
 70
    32
  0
VERTEX
  8
T27SSILL
 62
3
 10
609.937
 20
-3003.592
 30
2483.259
 70
    32
  0
VERTEX
  8
T27SSILL
 62
3
 10
607.153
 20
-3005.077
 30
2483.262
 70
    32
  0
VERTEX
  8
T27SSILL
 62
3
 10
602.270
 20
-3004.546
 30
2483.266
 70
    32
  0
VERTEX
  8
T27SSILL
 62
3
 10
593.944
 20
-3011.308
 30
2483.276
 70
    32
  0
VERTEX
  8
T27SSILL
 62
3
 10
611.250
 20
-3035.266
 30
2483.266
 70
    32
  0
VERTEX
  8
T27SSILL
 62
3
 10
680.227
 20
-2986.444
 30
2483.188
 70
    32
  0
VERTEX
  8
T27SSILL
 62
3
 10
730.268
 20
-2995.834
 30
2483.143
 70
    32
  0
VERTEX
  8
T27SSILL
 62
3
 10
778.499
 20
-2961.182
 30
2483.115
 70
    32
  0
VERTEX
  8
T27SSILL
 62
3
 10
788.631
 20
-2959.718
 30
2483.134
 70
    32
  0
SEQEND
  8
T27SSILL
  0
POLYLINE
  8
T27SSILL
 62
3
 66
     1
 70
     9
  0
VERTEX
  8
T27SSILL
 62
3
 10
651.852
 20
-3071.583
 30
2483.238
 70
    32
  0
VERTEX
  8
T27SSILL
 62
3
 10
646.051
 20
-3064.633
 30
2483.242
 70
    32
  0
VERTEX
  8
T27SSILL
 62
3
 10
637.278
 20
-3071.551
 30
2483.252
 70
    32
  0
VERTEX
  8
T27SSILL
 62
3
 10
655.967
 20
-3097.101
 30
2483.242
 70
    32
  0
VERTEX
  8
T27SSILL
 62
3
 10
691.499
 20
-3071.145
 30
2483.201
 70
    32
  0
VERTEX
  8
T27SSILL
 62
3
 10
698.856
 20
-3075.122
 30
2483.195
 70
    32
  0
VERTEX
  8
T27SSILL
 62
3
 10
659.805
 20
-3102.729
 30
2483.240
 70
    32
  0
VERTEX
  8
T27SSILL
 62
3
 10
695.543
 20
-3152.345
 30
2483.220
 70
    32
  0
VERTEX
  8
T27SSILL
 62
3
 10
731.305
 20
-3126.654
 30
2483.179
 70
    32
  0
VERTEX
  8
T27SSILL
 62
3
 10
713.711
 20
-3102.364
 30
2483.189
 70
    32
  0
VERTEX
  8
T27SSILL
 62
3
 10
719.689
 20
-3097.990
 30
2483.182
 70
    32
  0
VERTEX
  8
T27SSILL
 62
3
 10
737.150
 20
-3122.395
 30
2483.172
 70
    32
  0
VERTEX
  8
T27SSILL
 62
3
 10
793.923
 20
-3080.560
 30
2483.140
 70
    32
  0
VERTEX
  8
T27SSILL
 62
3
 10
796.077
 20
-3077.411
 30
2483.144
 70
    32
  0
VERTEX
  8
T27SSILL
 62
3
 10
794.360
 20
-3072.618
 30
2483.141
 70
    32
  0
VERTEX
  8
T27SSILL
 62
3
 10
797.112
 20
-3070.694
 30
2483.146
 70
    32
  0
VERTEX
  8
T27SSILL
 62
3
 10
802.609
 20
-3074.882
 30
2483.155
 70
    32
  0
VERTEX
  8
T27SSILL
 62
3
 10
857.732
 20
-3034.363
 30
2483.144
 70
    32
  0
VERTEX
  8
T27SSILL
 62
3
 10
801.247
 20
-2969.828
 30
2483.154
 70
    32
  0
VERTEX
  8
T27SSILL
 62
3
 10
791.487
 20
-2966.896
 30
2483.139
 70
    32
  0
VERTEX
  8
T27SSILL
 62
3
 10
782.431
 20
-2968.125
 30
2483.122
 70
    32
  0
VERTEX
  8
T27SSILL
 62
3
 10
770.943
 20
-2973.792
 30
2483.101
 70
    32
  0
VERTEX
  8
T27SSILL
 62
3
 10
692.928
 20
-3031.505
 30
2483.188
 70
    32
  0
VERTEX
  8
T27SSILL
 62
3
 10
696.085
 20
-3048.546
 30
2483.190
 70
    32
  0
VERTEX
  8
T27SSILL
 62
3
 10
695.668
 20
-3053.562
 30
2483.192
 70
    32
  0
VERTEX
  8
T27SSILL
 62
3
 10
659.326
 20
-3079.524
 30
2483.234
 70
    32
  0
VERTEX
  8
T27SSILL
 62
3
 10
656.372
 20
-3078.132
 30
2483.236
 70
    32
  0
VERTEX
  8
T27SSILL
 62
3
 10
653.957
 20
-3074.411
 30
2483.237
 70
    32
  0
SEQEND
  8
T27SSILL
  0
POLYLINE
  8
T27SSILL
 62
3
 66
     1
 70
     9
  0
VERTEX
  8
T27SSILL
 62
3
 10
509.285
 20
-2794.554
 30
2483.262
 70
    32
  0
VERTEX
  8
T27SSILL
 62
3
 10
513.748
 20
-2791.318
 30
2483.256
 70
    32
  0
VERTEX
  8
T27SSILL
 62
3
 10
521.007
 20
-2801.548
 30
2483.246
 70
    32
  0
VERTEX
  8
T27SSILL
 62
3
 10
516.189
 20
-2805.027
 30
2483.253
 70
    32
  0
VERTEX
  8
T27SSILL
 62
3
 10
517.807
 20
-2807.346
 30
2483.251
 70
    32
  0
VERTEX
  8
T27SSILL
 62
3
 10
538.091
 20
-2792.461
 30
2483.223
 70
    32
  0
VERTEX
  8
T27SSILL
 62
3
 10
556.087
 20
-2813.541
 30
2483.199
 70
    32
  0
VERTEX
  8
T27SSILL
 62
3
 10
566.313
 20
-2830.091
 30
2483.185
 70
    32
  0
VERTEX
  8
T27SSILL
 62
3
 10
569.626
 20
-2832.416
 30
2483.180
 70
    32
  0
VERTEX
  8
T27SSILL
 62
3
 10
625.150
 20
-2791.548
 30
2483.105
 70
    32
  0
VERTEX
  8
T27SSILL
 62
3
 10
633.702
 20
-2788.130
 30
2483.093
 70
    32
  0
VERTEX
  8
T27SSILL
 62
3
 10
643.113
 20
-2787.636
 30
2483.083
 70
    32
  0
VERTEX
  8
T27SSILL
 62
3
 10
574.224
 20
-2709.762
 30
2483.174
 70
    32
  0
VERTEX
  8
T27SSILL
 62
3
 10
564.956
 20
-2704.057
 30
2483.187
 70
    32
  0
VERTEX
  8
T27SSILL
 62
3
 10
560.025
 20
-2703.807
 30
2483.193
 70
    32
  0
VERTEX
  8
T27SSILL
 62
3
 10
554.596
 20
-2704.066
 30
2483.201
 70
    32
  0
VERTEX
  8
T27SSILL
 62
3
 10
545.642
 20
-2708.254
 30
2483.212
 70
    32
  0
VERTEX
  8
T27SSILL
 62
3
 10
497.494
 20
-2742.808
 30
2483.262
 70
    32
  0
VERTEX
  8
T27SSILL
 62
3
 10
491.896
 20
-2748.948
 30
2483.269
 70
    32
  0
VERTEX
  8
T27SSILL
 62
3
 10
488.686
 20
-2757.811
 30
2483.276
 70
    32
  0
VERTEX
  8
T27SSILL
 62
3
 10
488.748
 20
-2764.410
 30
2483.280
 70
    32
  0
VERTEX
  8
T27SSILL
 62
3
 10
494.269
 20
-2774.333
 30
2483.282
 70
    32
  0
VERTEX
  8
T27SSILL
 62
3
 10
503.298
 20
-2785.975
 30
2483.270
 70
    32
  0
SEQEND
  8
T27SSILL
  0
POLYLINE
  8
T27SSILL
 62
3
 66
     1
 70
     9
  0
VERTEX
  8
T27SSILL
 62
3
 10
134.523
 20
-3082.046
 30
2483.688
 70
    32
  0
VERTEX
  8
T27SSILL
 62
3
 10
140.660
 20
-3097.564
 30
2483.693
 70
    32
  0
VERTEX
  8
T27SSILL
 62
3
 10
149.860
 20
-3098.364
 30
2483.687
 70
    32
  0
VERTEX
  8
T27SSILL
 62
3
 10
159.383
 20
-3093.049
 30
2483.678
 70
    32
  0
VERTEX
  8
T27SSILL
 62
3
 10
159.843
 20
-3091.218
 30
2483.677
 70
    32
  0
VERTEX
  8
T27SSILL
 62
3
 10
157.419
 20
-3082.214
 30
2483.673
 70
    32
  0
VERTEX
  8
T27SSILL
 62
3
 10
176.551
 20
-3079.063
 30
2483.659
 70
    32
  0
VERTEX
  8
T27SSILL
 62
3
 10
203.851
 20
-3058.828
 30
2483.630
 70
    32
  0
VERTEX
  8
T27SSILL
 62
3
 10
185.253
 20
-3032.029
 30
2483.627
 70
    32
  0
VERTEX
  8
T27SSILL
 62
3
 10
179.344
 20
-3035.937
 30
2483.633
 70
    32
  0
VERTEX
  8
T27SSILL
 62
3
 10
176.507
 20
-3031.093
 30
2483.632
 70
    32
  0
VERTEX
  8
T27SSILL
 62
3
 10
166.813
 20
-3038.461
 30
2483.642
 70
    32
  0
VERTEX
  8
T27SSILL
 62
3
 10
162.080
 20
-3032.081
 30
2483.642
 70
    32
  0
VERTEX
  8
T27SSILL
 62
3
 10
167.243
 20
-3028.653
 30
2483.637
 70
    32
  0
VERTEX
  8
T27SSILL
 62
3
 10
160.401
 20
-3018.203
 30
2483.635
 70
    32
  0
VERTEX
  8
T27SSILL
 62
3
 10
169.748
 20
-3011.674
 30
2483.625
 70
    32
  0
VERTEX
  8
T27SSILL
 62
3
 10
168.118
 20
-3008.913
 30
2483.625
 70
    32
  0
VERTEX
  8
T27SSILL
 62
3
 10
153.883
 20
-3018.651
 30
2483.639
 70
    32
  0
VERTEX
  8
T27SSILL
 62
3
 10
143.316
 20
-2996.850
 30
2483.633
 70
    32
  0
VERTEX
  8
T27SSILL
 62
3
 10
32.608
 20
-3075.612
 30
2483.748
 70
    32
  0
VERTEX
  8
T27SSILL
 62
3
 10
28.545
 20
-3079.856
 30
2483.753
 70
    32
  0
VERTEX
  8
T27SSILL
 62
3
 10
24.901
 20
-3090.866
 30
2483.763
 70
    32
  0
VERTEX
  8
T27SSILL
 62
3
 10
26.341
 20
-3101.892
 30
2483.769
 70
    32
  0
VERTEX
  8
T27SSILL
 62
3
 10
60.081
 20
-3172.548
 30
2483.756
 70
    32
  0
VERTEX
  8
T27SSILL
 62
3
 10
64.753
 20
-3162.974
 30
2483.758
 70
    32
  0
VERTEX
  8
T27SSILL
 62
3
 10
69.052
 20
-3158.317
 30
2483.759
 70
    32
  0
VERTEX
  8
T27SSILL
 62
3
 10
107.976
 20
-3130.306
 30
2483.732
 70
    32
  0
VERTEX
  8
T27SSILL
 62
3
 10
78.650
 20
-3093.555
 30
2483.730
 70
    32
  0
VERTEX
  8
T27SSILL
 62
3
 10
91.765
 20
-3084.820
 30
2483.717
 70
    32
  0
VERTEX
  8
T27SSILL
 62
3
 10
104.016
 20
-3074.856
 30
2483.703
 70
    32
  0
VERTEX
  8
T27SSILL
 62
3
 10
119.169
 20
-3075.206
 30
2483.694
 70
    32
  0
VERTEX
  8
T27SSILL
 62
3
 10
127.952
 20
-3077.466
 30
2483.690
 70
    32
  0
VERTEX
  8
T27SSILL
 62
3
 10
131.665
 20
-3079.585
 30
2483.688
 70
    32
  0
SEQEND
  8
T27SSILL
  0
POLYLINE
  8
T27SSILL
 62
3
 66
     1
 70
     9
  0
VERTEX
  8
T27SSILL
 62
3
 10
83.968
 20
-3221.737
 30
2483.747
 70
    32
  0
VERTEX
  8
T27SSILL
 62
3
 10
110.390
 20
-3257.528
 30
2483.738
 70
    32
  0
VERTEX
  8
T27SSILL
 62
3
 10
110.945
 20
-3252.130
 30
2483.740
 70
    32
  0
VERTEX
  8
T27SSILL
 62
3
 10
115.837
 20
-3242.832
 30
2483.743
 70
    32
  0
VERTEX
  8
T27SSILL
 62
3
 10
119.833
 20
-3238.077
 30
2483.744
 70
    32
  0
VERTEX
  8
T27SSILL
 62
3
 10
149.438
 20
-3216.347
 30
2483.747
 70
    32
  0
VERTEX
  8
T27SSILL
 62
3
 10
131.019
 20
-3189.632
 30
2483.751
 70
    32
  0
VERTEX
  8
T27SSILL
 62
3
 10
118.599
 20
-3178.544
 30
2483.753
 70
    32
  0
VERTEX
  8
T27SSILL
 62
3
 10
104.761
 20
-3162.837
 30
2483.753
 70
    32
  0
VERTEX
  8
T27SSILL
 62
3
 10
114.360
 20
-3150.812
 30
2483.740
 70
    32
  0
VERTEX
  8
T27SSILL
 62
3
 10
118.758
 20
-3149.682
 30
2483.737
 70
    32
  0
VERTEX
  8
T27SSILL
 62
3
 10
125.211
 20
-3156.949
 30
2483.737
 70
    32
  0
VERTEX
  8
T27SSILL
 62
3
 10
161.224
 20
-3134.633
 30
2483.701
 70
    32
  0
VERTEX
  8
T27SSILL
 62
3
 10
168.538
 20
-3134.903
 30
2483.696
 70
    32
  0
VERTEX
  8
T27SSILL
 62
3
 10
166.629
 20
-3125.202
 30
2483.692
 70
    32
  0
VERTEX
  8
T27SSILL
 62
3
 10
128.389
 20
-3153.859
 30
2483.733
 70
    32
  0
VERTEX
  8
T27SSILL
 62
3
 10
113.141
 20
-3135.103
 30
2483.732
 70
    32
  0
VERTEX
  8
T27SSILL
 62
3
 10
73.346
 20
-3164.144
 30
2483.758
 70
    32
  0
VERTEX
  8
T27SSILL
 62
3
 10
69.488
 20
-3168.789
 30
2483.757
 70
    32
  0
VERTEX
  8
T27SSILL
 62
3
 10
67.762
 20
-3174.556
 30
2483.756
 70
    32
  0
VERTEX
  8
T27SSILL
 62
3
 10
68.133
 20
-3186.303
 30
2483.754
 70
    32
  0
SEQEND
  8
T27SSILL
  0
POLYLINE
  8
T27SSILL
 62
3
 66
     1
 70
     9
  0
VERTEX
  8
T27SSILL
 62
3
 10
159.081
 20
-3225.360
 30
2483.731
 70
    32
  0
VERTEX
  8
T27SSILL
 62
3
 10
155.513
 20
-3220.871
 30
2483.737
 70
    32
  0
VERTEX
  8
T27SSILL
 62
3
 10
125.912
 20
-3241.472
 30
2483.742
 70
    32
  0
VERTEX
  8
T27SSILL
 62
3
 10
120.187
 20
-3248.163
 30
2483.740
 70
    32
  0
VERTEX
  8
T27SSILL
 62
3
 10
116.760
 20
-3260.579
 30
2483.736
 70
    32
  0
VERTEX
  8
T27SSILL
 62
3
 10
119.157
 20
-3269.266
 30
2483.733
 70
    32
  0
VERTEX
  8
T27SSILL
 62
3
 10
122.132
 20
-3274.001
 30
2483.729
 70
    32
  0
VERTEX
  8
T27SSILL
 62
3
 10
158.127
 20
-3323.819
 30
2483.711
 70
    32
  0
VERTEX
  8
T27SSILL
 62
3
 10
159.637
 20
-3316.646
 30
2483.715
 70
    32
  0
VERTEX
  8
T27SSILL
 62
3
 10
162.798
 20
-3310.415
 30
2483.717
 70
    32
  0
VERTEX
  8
T27SSILL
 62
3
 10
170.093
 20
-3303.715
 30
2483.694
 70
    32
  0
VERTEX
  8
T27SSILL
 62
3
 10
209.746
 20
-3275.913
 30
2483.658
 70
    32
  0
VERTEX
  8
T27SSILL
 62
3
 10
205.477
 20
-3270.967
 30
2483.665
 70
    32
  0
VERTEX
  8
T27SSILL
 62
3
 10
211.924
 20
-3266.744
 30
2483.662
 70
    32
  0
VERTEX
  8
T27SSILL
 62
3
 10
201.172
 20
-3255.345
 30
2483.678
 70
    32
  0
VERTEX
  8
T27SSILL
 62
3
 10
197.015
 20
-3258.762
 30
2483.679
 70
    32
  0
VERTEX
  8
T27SSILL
 62
3
 10
191.542
 20
-3251.168
 30
2483.689
 70
    32
  0
VERTEX
  8
T27SSILL
 62
3
 10
181.396
 20
-3248.753
 30
2483.698
 70
    32
  0
VERTEX
  8
T27SSILL
 62
3
 10
171.655
 20
-3231.254
 30
2483.717
 70
    32
  0
VERTEX
  8
T27SSILL
 62
3
 10
161.639
 20
-3223.574
 30
2483.730
 70
    32
  0
SEQEND
  8
T27SSILL
  0
POLYLINE
  8
T27SSILL
 62
3
 66
     1
 70
     9
  0
VERTEX
  8
T27SSILL
 62
3
 10
204.413
 20
-3373.684
 30
2483.598
 70
    32
  0
VERTEX
  8
T27SSILL
 62
3
 10
212.528
 20
-3364.754
 30
2483.598
 70
    32
  0
VERTEX
  8
T27SSILL
 62
3
 10
245.127
 20
-3341.545
 30
2483.587
 70
    32
  0
VERTEX
  8
T27SSILL
 62
3
 10
245.278
 20
-3337.482
 30
2483.590
 70
    32
  0
VERTEX
  8
T27SSILL
 62
3
 10
256.921
 20
-3327.888
 30
2483.587
 70
    32
  0
VERTEX
  8
T27SSILL
 62
3
 10
268.613
 20
-3320.623
 30
2483.582
 70
    32
  0
VERTEX
  8
T27SSILL
 62
3
 10
274.247
 20
-3320.764
 30
2483.578
 70
    32
  0
VERTEX
  8
T27SSILL
 62
3
 10
311.004
 20
-3294.138
 30
2483.566
 70
    32
  0
VERTEX
  8
T27SSILL
 62
3
 10
307.262
 20
-3287.872
 30
2483.573
 70
    32
  0
VERTEX
  8
T27SSILL
 62
3
 10
307.469
 20
-3278.917
 30
2483.579
 70
    32
  0
VERTEX
  8
T27SSILL
 62
3
 10
309.445
 20
-3272.614
 30
2483.581
 70
    32
  0
VERTEX
  8
T27SSILL
 62
3
 10
342.002
 20
-3249.777
 30
2483.570
 70
    32
  0
VERTEX
  8
T27SSILL
 62
3
 10
334.926
 20
-3239.174
 30
2483.583
 70
    32
  0
VERTEX
  8
T27SSILL
 62
3
 10
319.104
 20
-3250.174
 30
2483.588
 70
    32
  0
VERTEX
  8
T27SSILL
 62
3
 10
315.483
 20
-3245.051
 30
2483.595
 70
    32
  0
VERTEX
  8
T27SSILL
 62
3
 10
330.753
 20
-3234.491
 30
2483.587
 70
    32
  0
VERTEX
  8
T27SSILL
 62
3
 10
313.221
 20
-3210.451
 30
2483.597
 70
    32
  0
VERTEX
  8
T27SSILL
 62
3
 10
233.441
 20
-3267.445
 30
2483.645
 70
    32
  0
VERTEX
  8
T27SSILL
 62
3
 10
241.156
 20
-3285.089
 30
2483.627
 70
    32
  0
VERTEX
  8
T27SSILL
 62
3
 10
219.041
 20
-3295.119
 30
2483.638
 70
    32
  0
VERTEX
  8
T27SSILL
 62
3
 10
214.005
 20
-3288.642
 30
2483.646
 70
    32
  0
VERTEX
  8
T27SSILL
 62
3
 10
203.657
 20
-3289.092
 30
2483.654
 70
    32
  0
VERTEX
  8
T27SSILL
 62
3
 10
169.580
 20
-3313.701
 30
2483.696
 70
    32
  0
VERTEX
  8
T27SSILL
 62
3
 10
167.018
 20
-3317.992
 30
2483.704
 70
    32
  0
VERTEX
  8
T27SSILL
 62
3
 10
165.049
 20
-3326.431
 30
2483.711
 70
    32
  0
VERTEX
  8
T27SSILL
 62
3
 10
167.462
 20
-3338.824
 30
2483.704
 70
    32
  0
VERTEX
  8
T27SSILL
 62
3
 10
201.007
 20
-3383.716
 30
2483.605
 70
    32
  0
SEQEND
  8
T27SSILL
  0
POLYLINE
  8
T27SSILL
 62
3
 66
     1
 70
     9
  0
VERTEX
  8
T27SSILL
 62
3
 10
251.502
 20
-3431.362
 30
2483.535
 70
    32
  0
VERTEX
  8
T27SSILL
 62
3
 10
255.234
 20
-3427.268
 30
2483.533
 70
    32
  0
VERTEX
  8
T27SSILL
 62
3
 10
310.464
 20
-3387.873
 30
2483.505
 70
    32
  0
VERTEX
  8
T27SSILL
 62
3
 10
313.957
 20
-3380.927
 30
2483.507
 70
    32
  0
VERTEX
  8
T27SSILL
 62
3
 10
324.949
 20
-3337.482
 30
2483.526
 70
    32
  0
VERTEX
  8
T27SSILL
 62
3
 10
329.779
 20
-3330.374
 30
2483.527
 70
    32
  0
VERTEX
  8
T27SSILL
 62
3
 10
346.600
 20
-3317.228
 30
2483.523
 70
    32
  0
VERTEX
  8
T27SSILL
 62
3
 10
338.349
 20
-3307.045
 30
2483.536
 70
    32
  0
VERTEX
  8
T27SSILL
 62
3
 10
334.720
 20
-3309.655
 30
2483.537
 70
    32
  0
VERTEX
  8
T27SSILL
 62
3
 10
331.714
 20
-3306.298
 30
2483.542
 70
    32
  0
VERTEX
  8
T27SSILL
 62
3
 10
328.728
 20
-3304.953
 30
2483.545
 70
    32
  0
VERTEX
  8
T27SSILL
 62
3
 10
322.434
 20
-3304.547
 30
2483.550
 70
    32
  0
VERTEX
  8
T27SSILL
 62
3
 10
316.876
 20
-3306.486
 30
2483.553
 70
    32
  0
VERTEX
  8
T27SSILL
 62
3
 10
311.410
 20
-3305.422
 30
2483.558
 70
    32
  0
VERTEX
  8
T27SSILL
 62
3
 10
309.389
 20
-3303.873
 30
2483.561
 70
    32
  0
VERTEX
  8
T27SSILL
 62
3
 10
277.934
 20
-3326.961
 30
2483.571
 70
    32
  0
VERTEX
  8
T27SSILL
 62
3
 10
278.421
 20
-3334.237
 30
2483.565
 70
    32
  0
VERTEX
  8
T27SSILL
 62
3
 10
271.214
 20
-3339.064
 30
2483.568
 70
    32
  0
VERTEX
  8
T27SSILL
 62
3
 10
262.706
 20
-3337.150
 30
2483.576
 70
    32
  0
VERTEX
  8
T27SSILL
 62
3
 10
214.076
 20
-3372.088
 30
2483.592
 70
    32
  0
VERTEX
  8
T27SSILL
 62
3
 10
208.082
 20
-3381.134
 30
2483.590
 70
    32
  0
VERTEX
  8
T27SSILL
 62
3
 10
207.372
 20
-3387.897
 30
2483.587
 70
    32
  0
VERTEX
  8
T27SSILL
 62
3
 10
209.267
 20
-3394.391
 30
2483.581
 70
    32
  0
VERTEX
  8
T27SSILL
 62
3
 10
245.379
 20
-3446.484
 30
2483.535
 70
    32
  0
VERTEX
  8
T27SSILL
 62
3
 10
249.175
 20
-3435.240
 30
2483.535
 70
    32
  0
SEQEND
  8
T27SSILL
  0
POLYLINE
  8
T27SSILL
 62
3
 66
     1
 70
     9
  0
VERTEX
  8
T27SSILL
 62
3
 10
347.305
 20
-3351.714
 30
2483.499
 70
    32
  0
VERTEX
  8
T27SSILL
 62
3
 10
342.953
 20
-3342.648
 30
2483.509
 70
    32
  0
VERTEX
  8
T27SSILL
 62
3
 10
337.715
 20
-3347.730
 30
2483.510
 70
    32
  0
VERTEX
  8
T27SSILL
 62
3
 10
331.304
 20
-3340.656
 30
2483.519
 70
    32
  0
VERTEX
  8
T27SSILL
 62
3
 10
322.616
 20
-3378.777
 30
2483.501
 70
    32
  0
VERTEX
  8
T27SSILL
 62
3
 10
351.378
 20
-3357.829
 30
2483.492
 70
    32
  0
VERTEX
  8
T27SSILL
 62
3
 10
349.060
 20
-3354.488
 30
2483.496
 70
    32
  0
SEQEND
  8
T27SSILL
  0
POLYLINE
  8
T27SSILL
 62
3
 66
     1
 70
     9
  0
VERTEX
  8
T27SSILL
 62
3
 10
641.368
 20
-3059.506
 30
2483.245
 70
    32
  0
VERTEX
  8
T27SSILL
 62
3
 10
640.576
 20
-3054.841
 30
2483.244
 70
    32
  0
VERTEX
  8
T27SSILL
 62
3
 10
634.288
 20
-3041.565
 30
2483.246
 70
    32
  0
VERTEX
  8
T27SSILL
 62
3
 10
660.929
 20
-3023.327
 30
2483.216
 70
    32
  0
VERTEX
  8
T27SSILL
 62
3
 10
668.540
 20
-3025.796
 30
2483.210
 70
    32
  0
VERTEX
  8
T27SSILL
 62
3
 10
671.980
 20
-3025.603
 30
2483.206
 70
    32
  0
VERTEX
  8
T27SSILL
 62
3
 10
684.035
 20
-3020.724
 30
2483.194
 70
    32
  0
VERTEX
  8
T27SSILL
 62
3
 10
685.875
 20
-3023.781
 30
2483.193
 70
    32
  0
VERTEX
  8
T27SSILL
 62
3
 10
689.241
 20
-3025.514
 30
2483.190
 70
    32
  0
VERTEX
  8
T27SSILL
 62
3
 10
723.012
 20
-3001.551
 30
2483.152
 70
    32
  0
VERTEX
  8
T27SSILL
 62
3
 10
681.464
 20
-2993.633
 30
2483.188
 70
    32
  0
VERTEX
  8
T27SSILL
 62
3
 10
629.777
 20
-3030.470
 30
2483.248
 70
    32
  0
VERTEX
  8
T27SSILL
 62
3
 10
633.375
 20
-3034.212
 30
2483.245
 70
    32
  0
VERTEX
  8
T27SSILL
 62
3
 10
618.460
 20
-3045.181
 30
2483.262
 70
    32
  0
VERTEX
  8
T27SSILL
 62
3
 10
633.232
 20
-3066.219
 30
2483.254
 70
    32
  0
SEQEND
  8
T27SSILL
  0
POLYLINE
  8
T27SSILL
 62
3
 66
     1
 70
     9
  0
VERTEX
  8
T27SSILL
 62
3
 10
581.011
 20
-3081.529
 30
2483.308
 70
    32
  0
VERTEX
  8
T27SSILL
 62
3
 10
590.590
 20
-3075.541
 30
2483.297
 70
    32
  0
VERTEX
  8
T27SSILL
 62
3
 10
595.629
 20
-3076.519
 30
2483.293
 70
    32
  0
VERTEX
  8
T27SSILL
 62
3
 10
602.441
 20
-3080.613
 30
2483.288
 70
    32
  0
VERTEX
  8
T27SSILL
 62
3
 10
608.640
 20
-3076.629
 30
2483.281
 70
    32
  0
VERTEX
  8
T27SSILL
 62
3
 10
609.133
 20
-3073.175
 30
2483.279
 70
    32
  0
VERTEX
  8
T27SSILL
 62
3
 10
616.571
 20
-3063.111
 30
2483.269
 70
    32
  0
VERTEX
  8
T27SSILL
 62
3
 10
620.580
 20
-3061.028
 30
2483.265
 70
    32
  0
VERTEX
  8
T27SSILL
 62
3
 10
608.921
 20
-3045.317
 30
2483.271
 70
    32
  0
VERTEX
  8
T27SSILL
 62
3
 10
581.290
 20
-3065.229
 30
2483.303
 70
    32
  0
VERTEX
  8
T27SSILL
 62
3
 10
578.855
 20
-3081.190
 30
2483.310
 70
    32
  0
SEQEND
  8
T27SSILL
  0
POLYLINE
  8
T27SSILL
 62
3
 66
     1
 70
     9
  0
VERTEX
  8
T27SSILL
 62
3
 10
583.682
 20
-3022.650
 30
2483.289
 70
    32
  0
VERTEX
  8
T27SSILL
 62
3
 10
580.298
 20
-3036.069
 30
2483.296
 70
    32
  0
VERTEX
  8
T27SSILL
 62
3
 10
580.187
 20
-3047.336
 30
2483.299
 70
    32
  0
VERTEX
  8
T27SSILL
 62
3
 10
581.912
 20
-3056.428
 30
2483.300
 70
    32
  0
VERTEX
  8
T27SSILL
 62
3
 10
587.367
 20
-3052.390
 30
2483.294
 70
    32
  0
VERTEX
  8
T27SSILL
 62
3
 10
583.560
 20
-3047.201
 30
2483.296
 70
    32
  0
VERTEX
  8
T27SSILL
 62
3
 10
601.612
 20
-3035.021
 30
2483.275
 70
    32
  0
VERTEX
  8
T27SSILL
 62
3
 10
587.200
 20
-3015.067
 30
2483.283
 70
    32
  0
VERTEX
  8
T27SSILL
 62
3
 10
585.198
 20
-3019.597
 30
2483.286
 70
    32
  0
SEQEND
  8
T27SSILL
  0
POLYLINE
  8
T27SSILL
 62
3
 66
     1
 70
     9
  0
VERTEX
  8
T27SSILL
 62
3
 10
574.240
 20
-2983.380
 30
2483.202
 70
    32
  0
VERTEX
  8
T27SSILL
 62
3
 10
579.850
 20
-2990.379
 30
2483.230
 70
    32
  0
VERTEX
  8
T27SSILL
 62
3
 10
590.570
 20
-2982.354
 30
2483.208
 70
    32
  0
VERTEX
  8
T27SSILL
 62
3
 10
596.737
 20
-2982.353
 30
2483.212
 70
    32
  0
VERTEX
  8
T27SSILL
 62
3
 10
599.282
 20
-2976.304
 30
2483.192
 70
    32
  0
VERTEX
  8
T27SSILL
 62
3
 10
618.740
 20
-2961.857
 30
2483.152
 70
    32
  0
VERTEX
  8
T27SSILL
 62
3
 10
614.326
 20
-2955.565
 30
2483.146
 70
    32
  0
VERTEX
  8
T27SSILL
 62
3
 10
583.999
 20
-2976.609
 30
2483.184
 70
    32
  0
SEQEND
  8
T27SSILL
  0
POLYLINE
  8
T27SSILL
 62
3
 66
     1
 70
     9
  0
VERTEX
  8
T27SSILL
 62
3
 10
307.985
 20
-3201.879
 30
2483.599
 70
    32
  0
VERTEX
  8
T27SSILL
 62
3
 10
264.138
 20
-3142.751
 30
2483.602
 70
    32
  0
VERTEX
  8
T27SSILL
 62
3
 10
229.177
 20
-3167.950
 30
2483.654
 70
    32
  0
VERTEX
  8
T27SSILL
 62
3
 10
230.050
 20
-3175.144
 30
2483.665
 70
    32
  0
VERTEX
  8
T27SSILL
 62
3
 10
212.955
 20
-3187.944
 30
2483.685
 70
    32
  0
VERTEX
  8
T27SSILL
 62
3
 10
217.654
 20
-3196.266
 30
2483.683
 70
    32
  0
VERTEX
  8
T27SSILL
 62
3
 10
231.948
 20
-3184.904
 30
2483.666
 70
    32
  0
VERTEX
  8
T27SSILL
 62
3
 10
237.639
 20
-3184.549
 30
2483.660
 70
    32
  0
VERTEX
  8
T27SSILL
 62
3
 10
245.565
 20
-3187.715
 30
2483.654
 70
    32
  0
VERTEX
  8
T27SSILL
 62
3
 10
232.057
 20
-3198.791
 30
2483.670
 70
    32
  0
VERTEX
  8
T27SSILL
 62
3
 10
225.515
 20
-3220.331
 30
2483.682
 70
    32
  0
VERTEX
  8
T27SSILL
 62
3
 10
222.476
 20
-3222.747
 30
2483.683
 70
    32
  0
VERTEX
  8
T27SSILL
 62
3
 10
215.093
 20
-3222.531
 30
2483.689
 70
    32
  0
VERTEX
  8
T27SSILL
 62
3
 10
206.358
 20
-3218.205
 30
2483.699
 70
    32
  0
VERTEX
  8
T27SSILL
 62
3
 10
211.391
 20
-3203.273
 30
2483.690
 70
    32
  0
VERTEX
  8
T27SSILL
 62
3
 10
207.519
 20
-3199.252
 30
2483.693
 70
    32
  0
VERTEX
  8
T27SSILL
 62
3
 10
203.634
 20
-3190.395
 30
2483.694
 70
    32
  0
VERTEX
  8
T27SSILL
 62
3
 10
184.281
 20
-3204.279
 30
2483.716
 70
    32
  0
VERTEX
  8
T27SSILL
 62
3
 10
201.655
 20
-3228.592
 30
2483.695
 70
    32
  0
VERTEX
  8
T27SSILL
 62
3
 10
231.038
 20
-3260.453
 30
2483.651
 70
    32
  0
VERTEX
  8
T27SSILL
 62
3
 10
307.893
 20
-3204.882
 30
2483.600
 70
    32
  0
SEQEND
  8
T27SSILL
  0
POLYLINE
  8
T27SSILL
 62
3
 66
     1
 70
     9
  0
VERTEX
  8
T27SSILL
 62
3
 10
254.006
 20
-3131.422
 30
2483.615
 70
    32
  0
VERTEX
  8
T27SSILL
 62
3
 10
252.455
 20
-3125.218
 30
2483.613
 70
    32
  0
VERTEX
  8
T27SSILL
 62
3
 10
240.191
 20
-3108.372
 30
2483.627
 70
    32
  0
VERTEX
  8
T27SSILL
 62
3
 10
235.085
 20
-3111.304
 30
2483.634
 70
    32
  0
VERTEX
  8
T27SSILL
 62
3
 10
227.747
 20
-3100.797
 30
2483.639
 70
    32
  0
VERTEX
  8
T27SSILL
 62
3
 10
232.014
 20
-3097.518
 30
2483.634
 70
    32
  0
VERTEX
  8
T27SSILL
 62
3
 10
223.111
 20
-3085.325
 30
2483.633
 70
    32
  0
VERTEX
  8
T27SSILL
 62
3
 10
209.186
 20
-3097.295
 30
2483.649
 70
    32
  0
VERTEX
  8
T27SSILL
 62
3
 10
218.796
 20
-3108.250
 30
2483.649
 70
    32
  0
VERTEX
  8
T27SSILL
 62
3
 10
241.472
 20
-3139.470
 30
2483.631
 70
    32
  0
VERTEX
  8
T27SSILL
 62
3
 10
216.221
 20
-3152.218
 30
2483.660
 70
    32
  0
VERTEX
  8
T27SSILL
 62
3
 10
222.590
 20
-3164.058
 30
2483.656
 70
    32
  0
VERTEX
  8
T27SSILL
 62
3
 10
248.726
 20
-3145.761
 30
2483.623
 70
    32
  0
VERTEX
  8
T27SSILL
 62
3
 10
253.275
 20
-3136.173
 30
2483.618
 70
    32
  0
SEQEND
  8
T27SSILL
  0
POLYLINE
  8
T27SSILL
 62
3
 66
     1
 70
     9
  0
VERTEX
  8
T27SSILL
 62
3
 10
163.686
 20
-3175.722
 30
2483.723
 70
    32
  0
VERTEX
  8
T27SSILL
 62
3
 10
178.117
 20
-3195.578
 30
2483.720
 70
    32
  0
VERTEX
  8
T27SSILL
 62
3
 10
197.475
 20
-3177.260
 30
2483.689
 70
    32
  0
VERTEX
  8
T27SSILL
 62
3
 10
180.146
 20
-3169.846
 30
2483.709
 70
    32
  0
SEQEND
  8
T27SSILL
  0
POLYLINE
  8
T27SSILL
 62
3
 66
     1
 70
     9
  0
VERTEX
  8
T27SSILL
 62
3
 10
312.115
 20
-3021.224
 30
2483.530
 70
    32
  0
VERTEX
  8
T27SSILL
 62
3
 10
307.972
 20
-3024.517
 30
2483.535
 70
    32
  0
VERTEX
  8
T27SSILL
 62
3
 10
293.233
 20
-3006.258
 30
2483.543
 70
    32
  0
VERTEX
  8
T27SSILL
 62
3
 10
234.260
 20
-3048.741
 30
2483.605
 70
    32
  0
VERTEX
  8
T27SSILL
 62
3
 10
275.400
 20
-3056.832
 30
2483.579
 70
    32
  0
VERTEX
  8
T27SSILL
 62
3
 10
314.393
 20
-3028.767
 30
2483.527
 70
    32
  0
SEQEND
  8
T27SSILL
  0
POLYLINE
  8
T27SSILL
 62
3
 66
     1
 70
     9
  0
VERTEX
  8
T27SSILL
 62
3
 10
292.402
 20
-2981.113
 30
2483.529
 70
    32
  0
VERTEX
  8
T27SSILL
 62
3
 10
303.401
 20
-2974.962
 30
2483.519
 70
    32
  0
VERTEX
  8
T27SSILL
 62
3
 10
307.160
 20
-2975.580
 30
2483.517
 70
    32
  0
VERTEX
  8
T27SSILL
 62
3
 10
314.581
 20
-2981.513
 30
2483.515
 70
    32
  0
VERTEX
  8
T27SSILL
 62
3
 10
324.826
 20
-2974.271
 30
2483.505
 70
    32
  0
VERTEX
  8
T27SSILL
 62
3
 10
322.427
 20
-2970.543
 30
2483.504
 70
    32
  0
VERTEX
  8
T27SSILL
 62
3
 10
327.655
 20
-2968.190
 30
2483.499
 70
    32
  0
VERTEX
  8
T27SSILL
 62
3
 10
320.440
 20
-2958.262
 30
2483.498
 70
    32
  0
VERTEX
  8
T27SSILL
 62
3
 10
314.972
 20
-2962.158
 30
2483.504
 70
    32
  0
VERTEX
  8
T27SSILL
 62
3
 10
301.766
 20
-2942.567
 30
2483.501
 70
    32
  0
VERTEX
  8
T27SSILL
 62
3
 10
286.646
 20
-2953.459
 30
2483.517
 70
    32
  0
VERTEX
  8
T27SSILL
 62
3
 10
294.220
 20
-2963.553
 30
2483.518
 70
    32
  0
VERTEX
  8
T27SSILL
 62
3
 10
238.864
 20
-3003.499
 30
2483.576
 70
    32
  0
VERTEX
  8
T27SSILL
 62
3
 10
233.938
 20
-2997.160
 30
2483.576
 70
    32
  0
VERTEX
  8
T27SSILL
 62
3
 10
208.560
 20
-3015.418
 30
2483.603
 70
    32
  0
VERTEX
  8
T27SSILL
 62
3
 10
212.321
 20
-3019.866
 30
2483.603
 70
    32
  0
VERTEX
  8
T27SSILL
 62
3
 10
202.779
 20
-3027.000
 30
2483.613
 70
    32
  0
VERTEX
  8
T27SSILL
 62
3
 10
205.702
 20
-3030.536
 30
2483.613
 70
    32
  0
VERTEX
  8
T27SSILL
 62
3
 10
200.923
 20
-3034.448
 30
2483.618
 70
    32
  0
VERTEX
  8
T27SSILL
 62
3
 10
194.049
 20
-3025.375
 30
2483.618
 70
    32
  0
VERTEX
  8
T27SSILL
 62
3
 10
191.192
 20
-3027.308
 30
2483.620
 70
    32
  0
VERTEX
  8
T27SSILL
 62
3
 10
208.282
 20
-3051.361
 30
2483.623
 70
    32
  0
VERTEX
  8
T27SSILL
 62
3
 10
217.003
 20
-3051.415
 30
2483.618
 70
    32
  0
VERTEX
  8
T27SSILL
 62
3
 10
252.102
 20
-3026.107
 30
2483.581
 70
    32
  0
VERTEX
  8
T27SSILL
 62
3
 10
251.781
 20
-2996.499
 30
2483.564
 70
    32
  0
VERTEX
  8
T27SSILL
 62
3
 10
267.409
 20
-2986.105
 30
2483.548
 70
    32
  0
VERTEX
  8
T27SSILL
 62
3
 10
271.264
 20
-2991.380
 30
2483.549
 70
    32
  0
VERTEX
  8
T27SSILL
 62
3
 10
278.998
 20
-3007.206
 30
2483.553
 70
    32
  0
VERTEX
  8
T27SSILL
 62
3
 10
288.098
 20
-3000.649
 30
2483.543
 70
    32
  0
VERTEX
  8
T27SSILL
 62
3
 10
284.094
 20
-2994.478
 30
2483.542
 70
    32
  0
VERTEX
  8
T27SSILL
 62
3
 10
283.952
 20
-2991.323
 30
2483.540
 70
    32
  0
SEQEND
  8
T27SSILL
  0
POLYLINE
  8
T27SSILL
 62
3
 66
     1
 70
     9
  0
VERTEX
  8
T27SSILL
 62
3
 10
327.249
 20
-3010.208
 30
2483.509
 70
    32
  0
VERTEX
  8
T27SSILL
 62
3
 10
333.308
 20
-3015.421
 30
2483.501
 70
    32
  0
VERTEX
  8
T27SSILL
 62
3
 10
360.151
 20
-2995.886
 30
2483.464
 70
    32
  0
VERTEX
  8
T27SSILL
 62
3
 10
361.307
 20
-2987.417
 30
2483.463
 70
    32
  0
VERTEX
  8
T27SSILL
 62
3
 10
366.072
 20
-2983.630
 30
2483.456
 70
    32
  0
VERTEX
  8
T27SSILL
 62
3
 10
357.500
 20
-2980.076
 30
2483.468
 70
    32
  0
VERTEX
  8
T27SSILL
 62
3
 10
351.191
 20
-2975.400
 30
2483.477
 70
    32
  0
VERTEX
  8
T27SSILL
 62
3
 10
343.703
 20
-2977.746
 30
2483.487
 70
    32
  0
VERTEX
  8
T27SSILL
 62
3
 10
339.267
 20
-2973.158
 30
2483.493
 70
    32
  0
VERTEX
  8
T27SSILL
 62
3
 10
320.033
 20
-2987.096
 30
2483.515
 70
    32
  0
VERTEX
  8
T27SSILL
 62
3
 10
331.445
 20
-3007.548
 30
2483.503
 70
    32
  0
SEQEND
  8
T27SSILL
  0
POLYLINE
  8
T27SSILL
 62
3
 66
     1
 70
     9
  0
VERTEX
  8
T27SSILL
 62
3
 10
573.402
 20
-2948.501
 30
2483.206
 70
    32
  0
VERTEX
  8
T27SSILL
 62
3
 10
572.705
 20
-2945.151
 30
2483.208
 70
    32
  0
VERTEX
  8
T27SSILL
 62
3
 10
567.564
 20
-2938.558
 30
2483.216
 70
    32
  0
VERTEX
  8
T27SSILL
 62
3
 10
550.818
 20
-2950.768
 30
2483.237
 70
    32
  0
VERTEX
  8
T27SSILL
 62
3
 10
561.095
 20
-2964.886
 30
2483.219
 70
    32
  0
VERTEX
  8
T27SSILL
 62
3
 10
575.620
 20
-2954.139
 30
2483.201
 70
    32
  0
VERTEX
  8
T27SSILL
 62
3
 10
573.781
 20
-2951.082
 30
2483.205
 70
    32
  0
SEQEND
  8
T27SSILL
  0
POLYLINE
  8
T27SSILL
 62
3
 66
     1
 70
     9
  0
VERTEX
  8
T27SSILL
 62
3
 10
527.917
 20
-2887.545
 30
2483.240
 70
    32
  0
VERTEX
  8
T27SSILL
 62
3
 10
524.224
 20
-2879.212
 30
2483.242
 70
    32
  0
VERTEX
  8
T27SSILL
 62
3
 10
528.698
 20
-2875.768
 30
2483.236
 70
    32
  0
VERTEX
  8
T27SSILL
 62
3
 10
526.021
 20
-2872.825
 30
2483.239
 70
    32
  0
VERTEX
  8
T27SSILL
 62
3
 10
504.304
 20
-2887.609
 30
2483.269
 70
    32
  0
VERTEX
  8
T27SSILL
 62
3
 10
512.578
 20
-2898.160
 30
2483.259
 70
    32
  0
SEQEND
  8
T27SSILL
  0
POLYLINE
  8
T27SSILL
 62
3
 66
     1
 70
     9
  0
VERTEX
  8
T27SSILL
 62
3
 10
574.540
 20
-2847.103
 30
2483.177
 70
    32
  0
VERTEX
  8
T27SSILL
 62
3
 10
577.736
 20
-2851.549
 30
2483.176
 70
    32
  0
VERTEX
  8
T27SSILL
 62
3
 10
581.189
 20
-2848.805
 30
2483.171
 70
    32
  0
VERTEX
  8
T27SSILL
 62
3
 10
584.071
 20
-2830.174
 30
2483.161
 70
    32
  0
VERTEX
  8
T27SSILL
 62
3
 10
574.710
 20
-2836.826
 30
2483.173
 70
    32
  0
VERTEX
  8
T27SSILL
 62
3
 10
569.766
 20
-2844.926
 30
2483.180
 70
    32
  0
VERTEX
  8
T27SSILL
 62
3
 10
564.778
 20
-2849.567
 30
2483.187
 70
    32
  0
VERTEX
  8
T27SSILL
 62
3
 10
567.040
 20
-2853.404
 30
2483.187
 70
    32
  0
SEQEND
  8
T27SSILL
  0
POLYLINE
  8
T27SSILL
 62
3
 66
     1
 70
     9
  0
VERTEX
  8
T27SSILL
 62
3
 10
477.678
 20
-2868.431
 30
2483.305
 70
    32
  0
VERTEX
  8
T27SSILL
 62
3
 10
481.542
 20
-2892.856
 30
2483.300
 70
    32
  0
VERTEX
  8
T27SSILL
 62
3
 10
482.872
 20
-2894.954
 30
2483.298
 70
    32
  0
VERTEX
  8
T27SSILL
 62
3
 10
494.500
 20
-2886.049
 30
2483.282
 70
    32
  0
VERTEX
  8
T27SSILL
 62
3
 10
479.696
 20
-2866.151
 30
2483.302
 70
    32
  0
SEQEND
  8
T27SSILL
  0
POLYLINE
  8
T27SSILL
 62
3
 66
     1
 70
     9
  0
VERTEX
  8
T27SSILL
 62
3
 10
484.447
 20
-2769.632
 30
2483.286
 70
    32
  0
VERTEX
  8
T27SSILL
 62
3
 10
481.814
 20
-2761.357
 30
2483.283
 70
    32
  0
VERTEX
  8
T27SSILL
 62
3
 10
482.720
 20
-2753.425
 30
2483.278
 70
    32
  0
VERTEX
  8
T27SSILL
 62
3
 10
432.863
 20
-2788.662
 30
2483.330
 70
    32
  0
VERTEX
  8
T27SSILL
 62
3
 10
500.642
 20
-2882.293
 30
2483.274
 70
    32
  0
VERTEX
  8
T27SSILL
 62
3
 10
517.088
 20
-2870.235
 30
2483.251
 70
    32
  0
VERTEX
  8
T27SSILL
 62
3
 10
520.397
 20
-2860.505
 30
2483.247
 70
    32
  0
VERTEX
  8
T27SSILL
 62
3
 10
502.029
 20
-2817.409
 30
2483.272
 70
    32
  0
VERTEX
  8
T27SSILL
 62
3
 10
511.427
 20
-2810.488
 30
2483.259
 70
    32
  0
VERTEX
  8
T27SSILL
 62
3
 10
510.101
 20
-2808.851
 30
2483.261
 70
    32
  0
VERTEX
  8
T27SSILL
 62
3
 10
501.097
 20
-2815.670
 30
2483.273
 70
    32
  0
VERTEX
  8
T27SSILL
 62
3
 10
486.347
 20
-2796.406
 30
2483.293
 70
    32
  0
VERTEX
  8
T27SSILL
 62
3
 10
496.290
 20
-2789.066
 30
2483.280
 70
    32
  0
VERTEX
  8
T27SSILL
 62
3
 10
486.414
 20
-2774.942
 30
2483.288
 70
    32
  0
SEQEND
  8
T27SSILL
  0
POLYLINE
  8
T27SSILL
 62
3
 66
     1
 70
     9
  0
VERTEX
  8
T27SSILL
 62
3
 10
320.665
 20
-2894.752
 30
2483.462
 70
    32
  0
VERTEX
  8
T27SSILL
 62
3
 10
301.756
 20
-2905.839
 30
2483.480
 70
    32
  0
VERTEX
  8
T27SSILL
 62
3
 10
294.638
 20
-2900.003
 30
2483.482
 70
    32
  0
VERTEX
  8
T27SSILL
 62
3
 10
289.043
 20
-2891.829
 30
2483.480
 70
    32
  0
VERTEX
  8
T27SSILL
 62
3
 10
234.959
 20
-2930.539
 30
2483.537
 70
    32
  0
VERTEX
  8
T27SSILL
 62
3
 10
245.130
 20
-2951.415
 30
2483.543
 70
    32
  0
VERTEX
  8
T27SSILL
 62
3
 10
253.220
 20
-2941.603
 30
2483.532
 70
    32
  0
VERTEX
  8
T27SSILL
 62
3
 10
246.687
 20
-2933.386
 30
2483.531
 70
    32
  0
VERTEX
  8
T27SSILL
 62
3
 10
260.745
 20
-2927.395
 30
2483.519
 70
    32
  0
VERTEX
  8
T27SSILL
 62
3
 10
259.926
 20
-2915.876
 30
2483.513
 70
    32
  0
VERTEX
  8
T27SSILL
 62
3
 10
279.118
 20
-2911.100
 30
2483.498
 70
    32
  0
VERTEX
  8
T27SSILL
 62
3
 10
289.229
 20
-2929.206
 30
2483.502
 70
    32
  0
VERTEX
  8
T27SSILL
 62
3
 10
297.612
 20
-2936.066
 30
2483.500
 70
    32
  0
VERTEX
  8
T27SSILL
 62
3
 10
301.670
 20
-2933.516
 30
2483.496
 70
    32
  0
VERTEX
  8
T27SSILL
 62
3
 10
298.392
 20
-2928.684
 30
2483.496
 70
    32
  0
VERTEX
  8
T27SSILL
 62
3
 10
309.078
 20
-2921.429
 30
2483.485
 70
    32
  0
VERTEX
  8
T27SSILL
 62
3
 10
311.669
 20
-2925.680
 30
2483.485
 70
    32
  0
VERTEX
  8
T27SSILL
 62
3
 10
341.685
 20
-2904.751
 30
2483.454
 70
    32
  0
VERTEX
  8
T27SSILL
 62
3
 10
337.993
 20
-2900.248
 30
2483.454
 70
    32
  0
VERTEX
  8
T27SSILL
 62
3
 10
343.377
 20
-2896.531
 30
2483.448
 70
    32
  0
VERTEX
  8
T27SSILL
 62
3
 10
345.952
 20
-2901.471
 30
2483.450
 70
    32
  0
VERTEX
  8
T27SSILL
 62
3
 10
378.856
 20
-2877.795
 30
2483.415
 70
    32
  0
VERTEX
  8
T27SSILL
 62
3
 10
386.897
 20
-2821.707
 30
2483.378
 70
    32
  0
VERTEX
  8
T27SSILL
 62
3
 10
350.099
 20
-2848.140
 30
2483.416
 70
    32
  0
VERTEX
  8
T27SSILL
 62
3
 10
332.253
 20
-2863.115
 30
2483.436
 70
    32
  0
VERTEX
  8
T27SSILL
 62
3
 10
331.611
 20
-2865.993
 30
2483.439
 70
    32
  0
VERTEX
  8
T27SSILL
 62
3
 10
338.733
 20
-2883.883
 30
2483.444
 70
    32
  0
VERTEX
  8
T27SSILL
 62
3
 10
329.316
 20
-2890.467
 30
2483.454
 70
    32
  0
SEQEND
  8
T27SSILL
  0
POLYLINE
  8
T27SSILL
 62
3
 66
     1
 70
     9
  0
VERTEX
  8
T27SSILL
 62
3
 10
125.059
 20
-2935.749
 30
2483.605
 70
    32
  0
VERTEX
  8
T27SSILL
 62
3
 10
150.612
 20
-2972.006
 30
2483.613
 70
    32
  0
VERTEX
  8
T27SSILL
 62
3
 10
160.389
 20
-2960.065
 30
2483.599
 70
    32
  0
VERTEX
  8
T27SSILL
 62
3
 10
168.827
 20
-2966.993
 30
2483.599
 70
    32
  0
VERTEX
  8
T27SSILL
 62
3
 10
175.853
 20
-2962.648
 30
2483.592
 70
    32
  0
VERTEX
  8
T27SSILL
 62
3
 10
177.946
 20
-2963.012
 30
2483.591
 70
    32
  0
VERTEX
  8
T27SSILL
 62
3
 10
199.802
 20
-2947.554
 30
2483.568
 70
    32
  0
VERTEX
  8
T27SSILL
 62
3
 10
196.546
 20
-2935.944
 30
2483.563
 70
    32
  0
VERTEX
  8
T27SSILL
 62
3
 10
196.611
 20
-2932.624
 30
2483.561
 70
    32
  0
VERTEX
  8
T27SSILL
 62
3
 10
211.037
 20
-2919.016
 30
2483.543
 70
    32
  0
VERTEX
  8
T27SSILL
 62
3
 10
206.192
 20
-2913.063
 30
2483.543
 70
    32
  0
VERTEX
  8
T27SSILL
 62
3
 10
199.317
 20
-2917.740
 30
2483.550
 70
    32
  0
VERTEX
  8
T27SSILL
 62
3
 10
188.497
 20
-2901.436
 30
2483.546
 70
    32
  0
VERTEX
  8
T27SSILL
 62
3
 10
198.757
 20
-2894.069
 30
2483.535
 70
    32
  0
VERTEX
  8
T27SSILL
 62
3
 10
195.274
 20
-2888.837
 30
2483.534
 70
    32
  0
VERTEX
  8
T27SSILL
 62
3
 10
210.157
 20
-2878.358
 30
2483.518
 70
    32
  0
VERTEX
  8
T27SSILL
 62
3
 10
213.736
 20
-2883.852
 30
2483.519
 70
    32
  0
VERTEX
  8
T27SSILL
 62
3
 10
316.091
 20
-2810.603
 30
2483.413
 70
    32
  0
VERTEX
  8
T27SSILL
 62
3
 10
331.594
 20
-2813.944
 30
2483.405
 70
    32
  0
VERTEX
  8
T27SSILL
 62
3
 10
325.008
 20
-2805.093
 30
2483.404
 70
    32
  0
VERTEX
  8
T27SSILL
 62
3
 10
332.298
 20
-2800.087
 30
2483.396
 70
    32
  0
VERTEX
  8
T27SSILL
 62
3
 10
342.816
 20
-2815.729
 30
2483.400
 70
    32
  0
VERTEX
  8
T27SSILL
 62
3
 10
375.752
 20
-2821.438
 30
2483.384
 70
    32
  0
VERTEX
  8
T27SSILL
 62
3
 10
423.320
 20
-2787.007
 30
2483.334
 70
    32
  0
VERTEX
  8
T27SSILL
 62
3
 10
371.701
 20
-2715.689
 30
2483.338
 70
    32
  0
VERTEX
  8
T27SSILL
 62
3
 10
271.847
 20
-2786.273
 30
2483.426
 70
    32
  0
VERTEX
  8
T27SSILL
 62
3
 10
285.117
 20
-2807.503
 30
2483.429
 70
    32
  0
VERTEX
  8
T27SSILL
 62
3
 10
240.439
 20
-2838.624
 30
2483.475
 70
    32
  0
VERTEX
  8
T27SSILL
 62
3
 10
226.875
 20
-2818.867
 30
2483.470
 70
    32
  0
VERTEX
  8
T27SSILL
 62
3
 10
103.906
 20
-2906.586
 30
2483.599
 70
    32
  0
SEQEND
  8
T27SSILL
  0
POLYLINE
  8
T27SSILL
 62
3
 66
     1
 70
     9
  0
VERTEX
  8
T27SSILL
 62
3
 10
225.920
 20
-2890.958
 30
2483.517
 70
    32
  0
VERTEX
  8
T27SSILL
 62
3
 10
216.035
 20
-2897.802
 30
2483.527
 70
    32
  0
VERTEX
  8
T27SSILL
 62
3
 10
219.875
 20
-2903.200
 30
2483.528
 70
    32
  0
VERTEX
  8
T27SSILL
 62
3
 10
230.754
 20
-2895.905
 30
2483.517
 70
    32
  0
VERTEX
  8
T27SSILL
 62
3
 10
244.442
 20
-2915.676
 30
2483.522
 70
    32
  0
VERTEX
  8
T27SSILL
 62
3
 10
284.913
 20
-2886.209
 30
2483.479
 70
    32
  0
VERTEX
  8
T27SSILL
 62
3
 10
278.293
 20
-2875.470
 30
2483.476
 70
    32
  0
VERTEX
  8
T27SSILL
 62
3
 10
278.794
 20
-2873.833
 30
2483.475
 70
    32
  0
VERTEX
  8
T27SSILL
 62
3
 10
305.734
 20
-2849.600
 30
2483.443
 70
    32
  0
VERTEX
  8
T27SSILL
 62
3
 10
317.041
 20
-2846.247
 30
2483.435
 70
    32
  0
VERTEX
  8
T27SSILL
 62
3
 10
334.721
 20
-2836.024
 30
2483.418
 70
    32
  0
VERTEX
  8
T27SSILL
 62
3
 10
344.704
 20
-2837.667
 30
2483.413
 70
    32
  0
VERTEX
  8
T27SSILL
 62
3
 10
348.414
 20
-2840.916
 30
2483.413
 70
    32
  0
VERTEX
  8
T27SSILL
 62
3
 10
367.055
 20
-2827.225
 30
2483.393
 70
    32
  0
VERTEX
  8
T27SSILL
 62
3
 10
317.926
 20
-2818.723
 30
2483.417
 70
    32
  0
VERTEX
  8
T27SSILL
 62
3
 10
314.087
 20
-2821.549
 30
2483.421
 70
    32
  0
VERTEX
  8
T27SSILL
 62
3
 10
324.704
 20
-2836.324
 30
2483.424
 70
    32
  0
VERTEX
  8
T27SSILL
 62
3
 10
309.737
 20
-2846.982
 30
2483.439
 70
    32
  0
VERTEX
  8
T27SSILL
 62
3
 10
302.769
 20
-2837.082
 30
2483.437
 70
    32
  0
VERTEX
  8
T27SSILL
 62
3
 10
297.303
 20
-2840.413
 30
2483.443
 70
    32
  0
VERTEX
  8
T27SSILL
 62
3
 10
294.454
 20
-2835.952
 30
2483.441
 70
    32
  0
VERTEX
  8
T27SSILL
 62
3
 10
274.351
 20
-2849.530
 30
2483.462
 70
    32
  0
VERTEX
  8
T27SSILL
 62
3
 10
277.904
 20
-2854.143
 30
2483.463
 70
    32
  0
VERTEX
  8
T27SSILL
 62
3
 10
271.665
 20
-2858.201
 30
2483.469
 70
    32
  0
VERTEX
  8
T27SSILL
 62
3
 10
268.137
 20
-2853.906
 30
2483.468
 70
    32
  0
VERTEX
  8
T27SSILL
 62
3
 10
223.013
 20
-2886.733
 30
2483.516
 70
    32
  0
SEQEND
  8
T27SSILL
  0
POLYLINE
  8
T27SSILL
 62
3
 66
     1
 70
     9
  0
VERTEX
  8
T27SSILL
 62
3
 10
560.156
 20
-2924.394
 30
2483.227
 70
    32
  0
VERTEX
  8
T27SSILL
 62
3
 10
555.269
 20
-2914.207
 30
2483.227
 70
    32
  0
VERTEX
  8
T27SSILL
 62
3
 10
552.799
 20
-2903.318
 30
2483.224
 70
    32
  0
VERTEX
  8
T27SSILL
 62
3
 10
553.916
 20
-2900.635
 30
2483.222
 70
    32
  0
VERTEX
  8
T27SSILL
 62
3
 10
547.241
 20
-2902.497
 30
2483.229
 70
    32
  0
VERTEX
  8
T27SSILL
 62
3
 10
533.977
 20
-2892.757
 30
2483.237
 70
    32
  0
VERTEX
  8
T27SSILL
 62
3
 10
516.598
 20
-2903.642
 30
2483.258
 70
    32
  0
VERTEX
  8
T27SSILL
 62
3
 10
546.599
 20
-2945.238
 30
2483.245
 70
    32
  0
VERTEX
  8
T27SSILL
 62
3
 10
564.358
 20
-2931.916
 30
2483.223
 70
    32
  0
VERTEX
  8
T27SSILL
 62
3
 10
562.242
 20
-2927.554
 30
2483.227
 70
    32
  0
SEQEND
  8
T27SSILL
  0
POLYLINE
  8
T27SSILL
 62
3
 66
     1
 70
     9
  0
VERTEX
  8
T27SSILL
 62
3
 10
339.331
 20
-2944.035
 30
2483.478
 70
    32
  0
VERTEX
  8
T27SSILL
 62
3
 10
362.747
 20
-2931.956
 30
2483.456
 70
    32
  0
VERTEX
  8
T27SSILL
 62
3
 10
374.533
 20
-2938.702
 30
2483.445
 70
    32
  0
VERTEX
  8
T27SSILL
 62
3
 10
408.970
 20
-2913.694
 30
2483.398
 70
    32
  0
VERTEX
  8
T27SSILL
 62
3
 10
461.183
 20
-2909.490
 30
2483.327
 70
    32
  0
VERTEX
  8
T27SSILL
 62
3
 10
458.619
 20
-2905.555
 30
2483.331
 70
    32
  0
VERTEX
  8
T27SSILL
 62
3
 10
457.265
 20
-2898.181
 30
2483.333
 70
    32
  0
VERTEX
  8
T27SSILL
 62
3
 10
451.407
 20
-2885.708
 30
2483.341
 70
    32
  0
VERTEX
  8
T27SSILL
 62
3
 10
446.738
 20
-2876.573
 30
2483.347
 70
    32
  0
VERTEX
  8
T27SSILL
 62
3
 10
443.963
 20
-2873.933
 30
2483.351
 70
    32
  0
VERTEX
  8
T27SSILL
 62
3
 10
441.932
 20
-2862.589
 30
2483.353
 70
    32
  0
VERTEX
  8
T27SSILL
 62
3
 10
444.232
 20
-2858.394
 30
2483.350
 70
    32
  0
VERTEX
  8
T27SSILL
 62
3
 10
458.852
 20
-2848.575
 30
2483.331
 70
    32
  0
VERTEX
  8
T27SSILL
 62
3
 10
453.051
 20
-2840.002
 30
2483.338
 70
    32
  0
VERTEX
  8
T27SSILL
 62
3
 10
458.230
 20
-2835.885
 30
2483.331
 70
    32
  0
VERTEX
  8
T27SSILL
 62
3
 10
427.724
 20
-2792.972
 30
2483.335
 70
    32
  0
VERTEX
  8
T27SSILL
 62
3
 10
395.596
 20
-2815.356
 30
2483.369
 70
    32
  0
VERTEX
  8
T27SSILL
 62
3
 10
384.888
 20
-2882.691
 30
2483.414
 70
    32
  0
VERTEX
  8
T27SSILL
 62
3
 10
355.933
 20
-2903.679
 30
2483.444
 70
    32
  0
VERTEX
  8
T27SSILL
 62
3
 10
359.885
 20
-2908.651
 30
2483.445
 70
    32
  0
VERTEX
  8
T27SSILL
 62
3
 10
339.162
 20
-2922.983
 30
2483.466
 70
    32
  0
VERTEX
  8
T27SSILL
 62
3
 10
343.019
 20
-2927.693
 30
2483.466
 70
    32
  0
VERTEX
  8
T27SSILL
 62
3
 10
338.199
 20
-2931.411
 30
2483.472
 70
    32
  0
VERTEX
  8
T27SSILL
 62
3
 10
341.627
 20
-2936.575
 30
2483.472
 70
    32
  0
VERTEX
  8
T27SSILL
 62
3
 10
336.559
 20
-2940.265
 30
2483.478
 70
    32
  0
SEQEND
  8
T27SSILL
  0
POLYLINE
  8
T27SSILL
 62
3
 66
     1
 70
     9
  0
VERTEX
  8
T27SSILL
 62
3
 10
2181.488
 20
-4575.244
 30
2483.053
 70
    32
  0
VERTEX
  8
T27SSILL
 62
3
 10
2185.906
 20
-4569.365
 30
2483.055
 70
    32
  0
VERTEX
  8
T27SSILL
 62
3
 10
2197.032
 20
-4577.240
 30
2483.062
 70
    32
  0
VERTEX
  8
T27SSILL
 62
3
 10
2208.184
 20
-4560.691
 30
2483.068
 70
    32
  0
VERTEX
  8
T27SSILL
 62
3
 10
2183.351
 20
-4543.214
 30
2483.052
 70
    32
  0
VERTEX
  8
T27SSILL
 62
3
 10
2124.784
 20
-4587.465
 30
2483.024
 70
    32
  0
VERTEX
  8
T27SSILL
 62
3
 10
2124.588
 20
-4605.807
 30
2483.026
 70
    32
  0
VERTEX
  8
T27SSILL
 62
3
 10
2177.401
 20
-4605.805
 30
2483.053
 70
    32
  0
VERTEX
  8
T27SSILL
 62
3
 10
2192.705
 20
-4583.293
 30
2483.060
 70
    32
  0
SEQEND
  8
T27SSILL
  0
POLYLINE
  8
T27SSILL
 62
3
 66
     1
 70
     9
  0
VERTEX
  8
T27SSILL
 62
3
 10
1930.239
 20
-2740.882
 30
2482.826
 70
    32
  0
VERTEX
  8
T27SSILL
 62
3
 10
1925.551
 20
-2695.445
 30
2482.807
 70
    32
  0
VERTEX
  8
T27SSILL
 62
3
 10
1918.400
 20
-2686.616
 30
2482.807
 70
    32
  0
VERTEX
  8
T27SSILL
 62
3
 10
1881.129
 20
-2714.380
 30
2482.787
 70
    32
  0
VERTEX
  8
T27SSILL
 62
3
 10
1925.969
 20
-2747.052
 30
2482.824
 70
    32
  0
VERTEX
  8
T27SSILL
 62
3
 10
1927.796
 20
-2744.411
 30
2482.825
 70
    32
  0
SEQEND
  8
T27SSILL
  0
POLYLINE
  8
T27SSILL
 62
3
 66
     1
 70
     9
  0
VERTEX
  8
T27SSILL
 62
3
 10
480.635
 20
-2940.906
 30
2483.310
 70
    32
  0
VERTEX
  8
T27SSILL
 62
3
 10
473.117
 20
-2939.671
 30
2483.316
 70
    32
  0
VERTEX
  8
T27SSILL
 62
3
 10
467.070
 20
-2934.899
 30
2483.320
 70
    32
  0
VERTEX
  8
T27SSILL
 62
3
 10
466.391
 20
-2931.494
 30
2483.320
 70
    32
  0
VERTEX
  8
T27SSILL
 62
3
 10
468.284
 20
-2929.764
 30
2483.318
 70
    32
  0
VERTEX
  8
T27SSILL
 62
3
 10
465.518
 20
-2924.300
 30
2483.321
 70
    32
  0
VERTEX
  8
T27SSILL
 62
3
 10
465.800
 20
-2922.385
 30
2483.321
 70
    32
  0
VERTEX
  8
T27SSILL
 62
3
 10
469.766
 20
-2914.049
 30
2483.316
 70
    32
  0
VERTEX
  8
T27SSILL
 62
3
 10
473.968
 20
-2914.090
 30
2483.310
 70
    32
  0
VERTEX
  8
T27SSILL
 62
3
 10
473.893
 20
-2915.839
 30
2483.310
 70
    32
  0
VERTEX
  8
T27SSILL
 62
3
 10
476.620
 20
-2916.151
 30
2483.306
 70
    32
  0
VERTEX
  8
T27SSILL
 62
3
 10
480.820
 20
-2921.151
 30
2483.301
 70
    32
  0
VERTEX
  8
T27SSILL
 62
3
 10
506.654
 20
-2902.757
 30
2483.267
 70
    32
  0
VERTEX
  8
T27SSILL
 62
3
 10
498.670
 20
-2891.862
 30
2483.276
 70
    32
  0
VERTEX
  8
T27SSILL
 62
3
 10
465.998
 20
-2916.255
 30
2483.321
 70
    32
  0
VERTEX
  8
T27SSILL
 62
3
 10
411.633
 20
-2921.156
 30
2483.395
 70
    32
  0
VERTEX
  8
T27SSILL
 62
3
 10
387.262
 20
-2938.838
 30
2483.428
 70
    32
  0
VERTEX
  8
T27SSILL
 62
3
 10
389.975
 20
-2943.669
 30
2483.424
 70
    32
  0
VERTEX
  8
T27SSILL
 62
3
 10
380.890
 20
-2950.102
 30
2483.436
 70
    32
  0
VERTEX
  8
T27SSILL
 62
3
 10
388.042
 20
-2967.180
 30
2483.427
 70
    32
  0
VERTEX
  8
T27SSILL
 62
3
 10
381.107
 20
-2972.372
 30
2483.436
 70
    32
  0
VERTEX
  8
T27SSILL
 62
3
 10
384.434
 20
-2978.880
 30
2483.431
 70
    32
  0
VERTEX
  8
T27SSILL
 62
3
 10
383.817
 20
-2986.587
 30
2483.432
 70
    32
  0
VERTEX
  8
T27SSILL
 62
3
 10
276.352
 20
-3064.977
 30
2483.578
 70
    32
  0
VERTEX
  8
T27SSILL
 62
3
 10
223.726
 20
-3055.762
 30
2483.616
 70
    32
  0
VERTEX
  8
T27SSILL
 62
3
 10
220.824
 20
-3058.633
 30
2483.619
 70
    32
  0
VERTEX
  8
T27SSILL
 62
3
 10
236.033
 20
-3072.236
 30
2483.617
 70
    32
  0
VERTEX
  8
T27SSILL
 62
3
 10
228.771
 20
-3081.389
 30
2483.627
 70
    32
  0
VERTEX
  8
T27SSILL
 62
3
 10
234.810
 20
-3088.985
 30
2483.628
 70
    32
  0
VERTEX
  8
T27SSILL
 62
3
 10
240.945
 20
-3091.883
 30
2483.625
 70
    32
  0
VERTEX
  8
T27SSILL
 62
3
 10
247.830
 20
-3101.962
 30
2483.617
 70
    32
  0
VERTEX
  8
T27SSILL
 62
3
 10
248.430
 20
-3108.246
 30
2483.616
 70
    32
  0
VERTEX
  8
T27SSILL
 62
3
 10
264.905
 20
-3131.098
 30
2483.604
 70
    32
  0
VERTEX
  8
T27SSILL
 62
3
 10
268.690
 20
-3127.638
 30
2483.599
 70
    32
  0
VERTEX
  8
T27SSILL
 62
3
 10
274.728
 20
-3126.444
 30
2483.591
 70
    32
  0
VERTEX
  8
T27SSILL
 62
3
 10
329.907
 20
-3086.466
 30
2483.521
 70
    32
  0
VERTEX
  8
T27SSILL
 62
3
 10
334.519
 20
-3092.276
 30
2483.513
 70
    32
  0
VERTEX
  8
T27SSILL
 62
3
 10
270.504
 20
-3138.141
 30
2483.594
 70
    32
  0
VERTEX
  8
T27SSILL
 62
3
 10
315.251
 20
-3199.822
 30
2483.592
 70
    32
  0
VERTEX
  8
T27SSILL
 62
3
 10
356.266
 20
-3170.051
 30
2483.545
 70
    32
  0
VERTEX
  8
T27SSILL
 62
3
 10
361.451
 20
-3175.718
 30
2483.541
 70
    32
  0
VERTEX
  8
T27SSILL
 62
3
 10
319.696
 20
-3205.980
 30
2483.589
 70
    32
  0
VERTEX
  8
T27SSILL
 62
3
 10
337.047
 20
-3230.501
 30
2483.580
 70
    32
  0
VERTEX
  8
T27SSILL
 62
3
 10
384.079
 20
-3195.820
 30
2483.526
 70
    32
  0
VERTEX
  8
T27SSILL
 62
3
 10
388.769
 20
-3202.572
 30
2483.523
 70
    32
  0
VERTEX
  8
T27SSILL
 62
3
 10
346.600
 20
-3233.162
 30
2483.572
 70
    32
  0
VERTEX
  8
T27SSILL
 62
3
 10
344.330
 20
-3236.544
 30
2483.575
 70
    32
  0
VERTEX
  8
T27SSILL
 62
3
 10
344.259
 20
-3241.559
 30
2483.574
 70
    32
  0
VERTEX
  8
T27SSILL
 62
3
 10
347.376
 20
-3245.054
 30
2483.569
 70
    32
  0
VERTEX
  8
T27SSILL
 62
3
 10
369.080
 20
-3229.830
 30
2483.550
 70
    32
  0
VERTEX
  8
T27SSILL
 62
3
 10
385.604
 20
-3232.471
 30
2483.535
 70
    32
  0
VERTEX
  8
T27SSILL
 62
3
 10
398.077
 20
-3239.798
 30
2483.525
 70
    32
  0
VERTEX
  8
T27SSILL
 62
3
 10
402.342
 20
-3245.873
 30
2483.523
 70
    32
  0
VERTEX
  8
T27SSILL
 62
3
 10
398.235
 20
-3264.238
 30
2483.516
 70
    32
  0
VERTEX
  8
T27SSILL
 62
3
 10
373.023
 20
-3282.138
 30
2483.525
 70
    32
  0
VERTEX
  8
T27SSILL
 62
3
 10
380.927
 20
-3292.082
 30
2483.512
 70
    32
  0
VERTEX
  8
T27SSILL
 62
3
 10
387.650
 20
-3287.640
 30
2483.509
 70
    32
  0
VERTEX
  8
T27SSILL
 62
3
 10
392.963
 20
-3293.897
 30
2483.501
 70
    32
  0
VERTEX
  8
T27SSILL
 62
3
 10
386.170
 20
-3298.395
 30
2483.504
 70
    32
  0
VERTEX
  8
T27SSILL
 62
3
 10
391.534
 20
-3305.851
 30
2483.494
 70
    32
  0
VERTEX
  8
T27SSILL
 62
3
 10
415.597
 20
-3289.766
 30
2483.486
 70
    32
  0
VERTEX
  8
T27SSILL
 62
3
 10
428.797
 20
-3302.261
 30
2483.467
 70
    32
  0
VERTEX
  8
T27SSILL
 62
3
 10
543.264
 20
-3224.372
 30
2483.384
 70
    32
  0
VERTEX
  8
T27SSILL
 62
3
 10
534.576
 20
-3215.972
 30
2483.390
 70
    32
  0
VERTEX
  8
T27SSILL
 62
3
 10
532.164
 20
-3211.316
 30
2483.391
 70
    32
  0
VERTEX
  8
T27SSILL
 62
3
 10
475.756
 20
-3177.433
 30
2483.434
 70
    32
  0
VERTEX
  8
T27SSILL
 62
3
 10
482.292
 20
-3173.970
 30
2483.427
 70
    32
  0
VERTEX
  8
T27SSILL
 62
3
 10
539.462
 20
-3207.658
 30
2483.383
 70
    32
  0
VERTEX
  8
T27SSILL
 62
3
 10
548.248
 20
-3218.183
 30
2483.377
 70
    32
  0
VERTEX
  8
T27SSILL
 62
3
 10
553.536
 20
-3220.924
 30
2483.373
 70
    32
  0
VERTEX
  8
T27SSILL
 62
3
 10
562.464
 20
-3225.043
 30
2483.366
 70
    32
  0
VERTEX
  8
T27SSILL
 62
3
 10
570.567
 20
-3226.736
 30
2483.359
 70
    32
  0
VERTEX
  8
T27SSILL
 62
3
 10
582.684
 20
-3227.156
 30
2483.348
 70
    32
  0
VERTEX
  8
T27SSILL
 62
3
 10
599.272
 20
-3221.600
 30
2483.330
 70
    32
  0
VERTEX
  8
T27SSILL
 62
3
 10
689.494
 20
-3155.966
 30
2483.227
 70
    32
  0
VERTEX
  8
T27SSILL
 62
3
 10
682.523
 20
-3146.193
 30
2483.231
 70
    32
  0
VERTEX
  8
T27SSILL
 62
3
 10
652.498
 20
-3167.368
 30
2483.265
 70
    32
  0
VERTEX
  8
T27SSILL
 62
3
 10
627.762
 20
-3141.017
 30
2483.281
 70
    32
  0
VERTEX
  8
T27SSILL
 62
3
 10
640.831
 20
-3130.884
 30
2483.266
 70
    32
  0
VERTEX
  8
T27SSILL
 62
3
 10
624.555
 20
-3125.326
 30
2483.279
 70
    32
  0
VERTEX
  8
T27SSILL
 62
3
 10
628.113
 20
-3117.753
 30
2483.274
 70
    32
  0
VERTEX
  8
T27SSILL
 62
3
 10
647.886
 20
-3125.414
 30
2483.257
 70
    32
  0
VERTEX
  8
T27SSILL
 62
3
 10
660.382
 20
-3115.726
 30
2483.243
 70
    32
  0
VERTEX
  8
T27SSILL
 62
3
 10
642.376
 20
-3091.096
 30
2483.253
 70
    32
  0
VERTEX
  8
T27SSILL
 62
3
 10
635.647
 20
-3097.286
 30
2483.261
 70
    32
  0
VERTEX
  8
T27SSILL
 62
3
 10
629.815
 20
-3100.486
 30
2483.267
 70
    32
  0
VERTEX
  8
T27SSILL
 62
3
 10
627.203
 20
-3100.427
 30
2483.270
 70
    32
  0
VERTEX
  8
T27SSILL
 62
3
 10
620.067
 20
-3094.752
 30
2483.275
 70
    32
  0
VERTEX
  8
T27SSILL
 62
3
 10
614.764
 20
-3101.915
 30
2483.282
 70
    32
  0
VERTEX
  8
T27SSILL
 62
3
 10
612.193
 20
-3108.336
 30
2483.286
 70
    32
  0
VERTEX
  8
T27SSILL
 62
3
 10
601.712
 20
-3116.503
 30
2483.298
 70
    32
  0
VERTEX
  8
T27SSILL
 62
3
 10
595.574
 20
-3119.620
 30
2483.305
 70
    32
  0
VERTEX
  8
T27SSILL
 62
3
 10
570.701
 20
-3088.151
 30
2483.320
 70
    32
  0
VERTEX
  8
T27SSILL
 62
3
 10
562.685
 20
-3072.884
 30
2483.323
 70
    32
  0
VERTEX
  8
T27SSILL
 62
3
 10
560.160
 20
-3065.418
 30
2483.323
 70
    32
  0
VERTEX
  8
T27SSILL
 62
3
 10
568.412
 20
-3042.082
 30
2483.309
 70
    32
  0
VERTEX
  8
T27SSILL
 62
3
 10
562.088
 20
-3033.724
 30
2483.312
 70
    32
  0
VERTEX
  8
T27SSILL
 62
3
 10
556.915
 20
-3037.283
 30
2483.318
 70
    32
  0
VERTEX
  8
T27SSILL
 62
3
 10
552.299
 20
-3032.098
 30
2483.321
 70
    32
  0
VERTEX
  8
T27SSILL
 62
3
 10
562.238
 20
-3022.772
 30
2483.309
 70
    32
  0
VERTEX
  8
T27SSILL
 62
3
 10
561.457
 20
-3013.560
 30
2483.302
 70
    32
  0
VERTEX
  8
T27SSILL
 62
3
 10
558.368
 20
-3004.372
 30
2483.267
 70
    32
  0
VERTEX
  8
T27SSILL
 62
3
 10
572.708
 20
-2994.484
 30
2483.241
 70
    32
  0
VERTEX
  8
T27SSILL
 62
3
 10
568.236
 20
-2988.126
 30
2483.216
 70
    32
  0
VERTEX
  8
T27SSILL
 62
3
 10
558.582
 20
-2994.296
 30
2483.232
 70
    32
  0
VERTEX
  8
T27SSILL
 62
3
 10
552.359
 20
-2985.385
 30
2483.227
 70
    32
  0
VERTEX
  8
T27SSILL
 62
3
 10
561.323
 20
-2978.419
 30
2483.216
 70
    32
  0
VERTEX
  8
T27SSILL
 62
3
 10
544.933
 20
-2954.712
 30
2483.245
 70
    32
  0
VERTEX
  8
T27SSILL
 62
3
 10
510.546
 20
-2979.442
 30
2483.288
 70
    32
  0
VERTEX
  8
T27SSILL
 62
3
 10
507.133
 20
-2973.096
 30
2483.295
 70
    32
  0
VERTEX
  8
T27SSILL
 62
3
 10
540.634
 20
-2948.554
 30
2483.253
 70
    32
  0
VERTEX
  8
T27SSILL
 62
3
 10
511.433
 20
-2907.524
 30
2483.265
 70
    32
  0
VERTEX
  8
T27SSILL
 62
3
 10
483.310
 20
-2926.835
 30
2483.301
 70
    32
  0
VERTEX
  8
T27SSILL
 62
3
 10
486.074
 20
-2937.259
 30
2483.303
 70
    32
  0
VERTEX
  8
T27SSILL
 62
3
 10
483.048
 20
-2940.115
 30
2483.307
 70
    32
  0
SEQEND
  8
T27SSILL
  0
POLYLINE
  8
T27SSILL
 62
3
 66
     1
 70
     9
  0
VERTEX
  8
T27SSILL
 62
3
 10
632.403
 20
-2951.859
 30
2483.125
 70
    32
  0
VERTEX
  8
T27SSILL
 62
3
 10
653.933
 20
-2938.057
 30
2483.093
 70
    32
  0
VERTEX
  8
T27SSILL
 62
3
 10
659.057
 20
-2951.063
 30
2483.137
 70
    32
  0
VERTEX
  8
T27SSILL
 62
3
 10
661.369
 20
-2953.594
 30
2483.148
 70
    32
  0
VERTEX
  8
T27SSILL
 62
3
 10
685.204
 20
-2936.279
 30
2483.100
 70
    32
  0
VERTEX
  8
T27SSILL
 62
3
 10
642.978
 20
-2928.251
 30
2483.111
 70
    32
  0
VERTEX
  8
T27SSILL
 62
3
 10
631.121
 20
-2937.380
 30
2483.126
 70
    32
  0
VERTEX
  8
T27SSILL
 62
3
 10
633.882
 20
-2941.499
 30
2483.121
 70
    32
  0
VERTEX
  8
T27SSILL
 62
3
 10
627.988
 20
-2945.567
 30
2483.128
 70
    32
  0
SEQEND
  8
T27SSILL
  0
TEXT
  8
T27SSILL
 62
3
 10
189.940
 20
-5055.333
 30
2483.855
 40
0.200
  1
2750
 41
 1.0 
  0
ENDSEC
  0
EOF
