999
********************************
999
*   DXF File - Entities Only   *
999
*        3D Data Format        *
999
*     Output from ENVISAGE     *
999
*     20-Dec-2007 15:24:59     *
999
********************************
  0
SECTION 
  2
HEADER
  9
$ACADVER
  1
AC1009
  9
$EXTMIN
 10
-290000.000
 20
-250000.000
 30
-4000.000
  9
$EXTMAX
 10
5000000.000
 20
600000.000
 30
6000.000
  0
ENDSEC
  0
SECTION
  2
ENTITIES
  0
POLYLINE
  8
T29SSILL
 62
6
 66
     1
 70
     9
  0
VERTEX
  8
T29SSILL
 62
6
 10
1674.979
 20
-4290.654
 30
2334.541
 70
    32
  0
VERTEX
  8
T29SSILL
 62
6
 10
1680.661
 20
-4286.538
 30
2334.542
 70
    32
  0
VERTEX
  8
T29SSILL
 62
6
 10
1665.975
 20
-4273.218
 30
2334.588
 70
    32
  0
VERTEX
  8
T29SSILL
 62
6
 10
1661.188
 20
-4326.580
 30
2334.485
 70
    32
  0
VERTEX
  8
T29SSILL
 62
6
 10
1702.321
 20
-4373.091
 30
2334.338
 70
    32
  0
VERTEX
  8
T29SSILL
 62
6
 10
1706.235
 20
-4320.444
 30
2334.441
 70
    32
  0
VERTEX
  8
T29SSILL
 62
6
 10
1685.135
 20
-4292.745
 30
2334.524
 70
    32
  0
VERTEX
  8
T29SSILL
 62
6
 10
1679.449
 20
-4296.508
 30
2334.523
 70
    32
  0
SEQEND
  8
T29SSILL
  0
POLYLINE
  8
T29SSILL
 62
6
 66
     1
 70
     9
  0
VERTEX
  8
T29SSILL
 62
6
 10
2058.125
 20
-4755.133
 30
2333.149
 70
    32
  0
VERTEX
  8
T29SSILL
 62
6
 10
2057.907
 20
-4747.849
 30
2333.143
 70
    32
  0
SEQEND
  8
T29SSILL
  0
POLYLINE
  8
T29SSILL
 62
6
 66
     1
 70
     9
  0
VERTEX
  8
T29SSILL
 62
6
 10
2123.869
 20
-4574.281
 30
2333.020
 70
    32
  0
VERTEX
  8
T29SSILL
 62
6
 10
2124.317
 20
-4606.966
 30
2333.019
 70
    32
  0
VERTEX
  8
T29SSILL
 62
6
 10
2179.555
 20
-4606.182
 30
2332.929
 70
    32
  0
VERTEX
  8
T29SSILL
 62
6
 10
2224.473
 20
-4548.325
 30
2332.856
 70
    32
  0
VERTEX
  8
T29SSILL
 62
6
 10
2167.287
 20
-4548.338
 30
2332.949
 70
    32
  0
SEQEND
  8
T29SSILL
  0
POLYLINE
  8
T29SSILL
 62
6
 66
     1
 70
     9
  0
VERTEX
  8
T29SSILL
 62
6
 10
538.540
 20
-3347.900
 30
2337.084
 70
    32
  0
VERTEX
  8
T29SSILL
 62
6
 10
527.238
 20
-3355.426
 30
2337.113
 70
    32
  0
VERTEX
  8
T29SSILL
 62
6
 10
531.116
 20
-3360.464
 30
2337.110
 70
    32
  0
VERTEX
  8
T29SSILL
 62
6
 10
541.291
 20
-3352.854
 30
2337.083
 70
    32
  0
SEQEND
  8
T29SSILL
  0
POLYLINE
  8
T29SSILL
 62
6
 66
     1
 70
     9
  0
VERTEX
  8
T29SSILL
 62
6
 10
589.171
 20
-3441.340
 30
2336.711
 70
    32
  0
VERTEX
  8
T29SSILL
 62
6
 10
562.851
 20
-3460.325
 30
2336.765
 70
    32
  0
VERTEX
  8
T29SSILL
 62
6
 10
556.912
 20
-3452.300
 30
2336.783
 70
    32
  0
VERTEX
  8
T29SSILL
 62
6
 10
581.334
 20
-3434.421
 30
2336.733
 70
    32
  0
VERTEX
  8
T29SSILL
 62
6
 10
583.276
 20
-3437.257
 30
2336.727
 70
    32
  0
VERTEX
  8
T29SSILL
 62
6
 10
585.070
 20
-3435.571
 30
2336.723
 70
    32
  0
SEQEND
  8
T29SSILL
  0
POLYLINE
  8
T29SSILL
 62
6
 66
     1
 70
     9
  0
VERTEX
  8
T29SSILL
 62
6
 10
493.927
 20
-3211.446
 30
2337.033
 70
    32
  0
VERTEX
  8
T29SSILL
 62
6
 10
498.946
 20
-3208.009
 30
2337.019
 70
    32
  0
VERTEX
  8
T29SSILL
 62
6
 10
496.907
 20
-3205.345
 30
2337.021
 70
    32
  0
VERTEX
  8
T29SSILL
 62
6
 10
520.145
 20
-3188.256
 30
2336.957
 70
    32
  0
VERTEX
  8
T29SSILL
 62
6
 10
517.635
 20
-3185.060
 30
2336.959
 70
    32
  0
VERTEX
  8
T29SSILL
 62
6
 10
532.156
 20
-3174.902
 30
2336.920
 70
    32
  0
VERTEX
  8
T29SSILL
 62
6
 10
528.977
 20
-3171.259
 30
2336.923
 70
    32
  0
VERTEX
  8
T29SSILL
 62
6
 10
486.887
 20
-3201.665
 30
2337.037
 70
    32
  0
SEQEND
  8
T29SSILL
  0
POLYLINE
  8
T29SSILL
 62
6
 66
     1
 70
     9
  0
VERTEX
  8
T29SSILL
 62
6
 10
872.545
 20
-3169.394
 30
2336.163
 70
    32
  0
VERTEX
  8
T29SSILL
 62
6
 10
892.004
 20
-3155.214
 30
2336.138
 70
    32
  0
VERTEX
  8
T29SSILL
 62
6
 10
849.645
 20
-3148.748
 30
2336.203
 70
    32
  0
VERTEX
  8
T29SSILL
 62
6
 10
856.158
 20
-3157.323
 30
2336.191
 70
    32
  0
SEQEND
  8
T29SSILL
  0
POLYLINE
  8
T29SSILL
 62
6
 66
     1
 70
     9
  0
VERTEX
  8
T29SSILL
 62
6
 10
805.036
 20
-3101.082
 30
2336.284
 70
    32
  0
VERTEX
  8
T29SSILL
 62
6
 10
813.160
 20
-3095.625
 30
2336.273
 70
    32
  0
VERTEX
  8
T29SSILL
 62
6
 10
824.042
 20
-3111.360
 30
2336.252
 70
    32
  0
VERTEX
  8
T29SSILL
 62
6
 10
844.259
 20
-3097.195
 30
2336.226
 70
    32
  0
VERTEX
  8
T29SSILL
 62
6
 10
802.328
 20
-3089.794
 30
2336.291
 70
    32
  0
VERTEX
  8
T29SSILL
 62
6
 10
798.936
 20
-3092.330
 30
2336.295
 70
    32
  0
SEQEND
  8
T29SSILL
  0
POLYLINE
  8
T29SSILL
 62
6
 66
     1
 70
     9
  0
VERTEX
  8
T29SSILL
 62
6
 10
3929.517
 20
-2505.918
 30
2331.795
 70
    32
  0
VERTEX
  8
T29SSILL
 62
6
 10
3937.350
 20
-2559.842
 30
2331.726
 70
    32
  0
VERTEX
  8
T29SSILL
 62
6
 10
3979.009
 20
-2527.528
 30
2331.694
 70
    32
  0
VERTEX
  8
T29SSILL
 62
6
 10
3958.670
 20
-2501.729
 30
2331.754
 70
    32
  0
SEQEND
  8
T29SSILL
  0
POLYLINE
  8
T29SSILL
 62
6
 66
     1
 70
     9
  0
VERTEX
  8
T29SSILL
 62
6
 10
2953.397
 20
-3982.201
 30
2332.601
 70
    32
  0
VERTEX
  8
T29SSILL
 62
6
 10
2943.987
 20
-3988.907
 30
2332.604
 70
    32
  0
VERTEX
  8
T29SSILL
 62
6
 10
2952.814
 20
-4003.685
 30
2332.612
 70
    32
  0
VERTEX
  8
T29SSILL
 62
6
 10
2955.645
 20
-4012.308
 30
2332.616
 70
    32
  0
VERTEX
  8
T29SSILL
 62
6
 10
2940.522
 20
-4024.746
 30
2332.622
 70
    32
  0
VERTEX
  8
T29SSILL
 62
6
 10
2848.369
 20
-4090.466
 30
2332.648
 70
    32
  0
VERTEX
  8
T29SSILL
 62
6
 10
2847.143
 20
-4036.265
 30
2332.621
 70
    32
  0
VERTEX
  8
T29SSILL
 62
6
 10
2894.620
 20
-4005.009
 30
2332.608
 70
    32
  0
VERTEX
  8
T29SSILL
 62
6
 10
2933.401
 20
-3976.334
 30
2332.597
 70
    32
  0
VERTEX
  8
T29SSILL
 62
6
 10
2936.313
 20
-3980.379
 30
2332.599
 70
    32
  0
VERTEX
  8
T29SSILL
 62
6
 10
2943.525
 20
-3975.349
 30
2332.597
 70
    32
  0
VERTEX
  8
T29SSILL
 62
6
 10
2940.701
 20
-3971.304
 30
2332.595
 70
    32
  0
VERTEX
  8
T29SSILL
 62
6
 10
2963.654
 20
-3954.539
 30
2332.588
 70
    32
  0
VERTEX
  8
T29SSILL
 62
6
 10
2967.447
 20
-3958.847
 30
2332.590
 70
    32
  0
VERTEX
  8
T29SSILL
 62
6
 10
2974.481
 20
-3953.289
 30
2332.588
 70
    32
  0
VERTEX
  8
T29SSILL
 62
6
 10
2971.128
 20
-3948.628
 30
2332.585
 70
    32
  0
VERTEX
  8
T29SSILL
 62
6
 10
2999.272
 20
-3929.214
 30
2332.576
 70
    32
  0
VERTEX
  8
T29SSILL
 62
6
 10
3036.114
 20
-3954.776
 30
2332.589
 70
    32
  0
VERTEX
  8
T29SSILL
 62
6
 10
3028.727
 20
-3960.159
 30
2332.593
 70
    32
  0
VERTEX
  8
T29SSILL
 62
6
 10
3025.551
 20
-3956.026
 30
2332.591
 70
    32
  0
VERTEX
  8
T29SSILL
 62
6
 10
3019.572
 20
-3960.878
 30
2332.594
 70
    32
  0
VERTEX
  8
T29SSILL
 62
6
 10
3022.395
 20
-3964.659
 30
2332.596
 70
    32
  0
VERTEX
  8
T29SSILL
 62
6
 10
3014.040
 20
-3970.571
 30
2332.599
 70
    32
  0
VERTEX
  8
T29SSILL
 62
6
 10
3007.610
 20
-3968.292
 30
2332.598
 70
    32
  0
VERTEX
  8
T29SSILL
 62
6
 10
2993.005
 20
-3974.831
 30
2332.600
 70
    32
  0
VERTEX
  8
T29SSILL
 62
6
 10
2985.872
 20
-3974.402
 30
2332.599
 70
    32
  0
VERTEX
  8
T29SSILL
 62
6
 10
2972.833
 20
-3968.611
 30
2332.595
 70
    32
  0
VERTEX
  8
T29SSILL
 62
6
 10
2961.048
 20
-3976.730
 30
2332.599
 70
    32
  0
SEQEND
  8
T29SSILL
  0
POLYLINE
  8
T29SSILL
 62
6
 66
     1
 70
     9
  0
VERTEX
  8
T29SSILL
 62
6
 10
2977.174
 20
-4090.545
 30
2332.658
 70
    32
  0
VERTEX
  8
T29SSILL
 62
6
 10
2958.653
 20
-4103.856
 30
2332.663
 70
    32
  0
VERTEX
  8
T29SSILL
 62
6
 10
2946.457
 20
-4120.356
 30
2332.671
 70
    32
  0
VERTEX
  8
T29SSILL
 62
6
 10
2947.581
 20
-4126.166
 30
2332.674
 70
    32
  0
VERTEX
  8
T29SSILL
 62
6
 10
2945.806
 20
-4130.736
 30
2332.676
 70
    32
  0
VERTEX
  8
T29SSILL
 62
6
 10
2947.808
 20
-4137.341
 30
2332.679
 70
    32
  0
VERTEX
  8
T29SSILL
 62
6
 10
2948.269
 20
-4183.621
 30
2332.703
 70
    32
  0
VERTEX
  8
T29SSILL
 62
6
 10
2955.104
 20
-4179.573
 30
2332.701
 70
    32
  0
VERTEX
  8
T29SSILL
 62
6
 10
2958.208
 20
-4184.358
 30
2332.704
 70
    32
  0
VERTEX
  8
T29SSILL
 62
6
 10
2947.893
 20
-4190.834
 30
2332.706
 70
    32
  0
VERTEX
  8
T29SSILL
 62
6
 10
2944.830
 20
-4185.809
 30
2332.704
 70
    32
  0
VERTEX
  8
T29SSILL
 62
6
 10
2935.129
 20
-4192.727
 30
2332.706
 70
    32
  0
VERTEX
  8
T29SSILL
 62
6
 10
2945.548
 20
-4207.807
 30
2332.715
 70
    32
  0
VERTEX
  8
T29SSILL
 62
6
 10
2865.120
 20
-4264.462
 30
2332.738
 70
    32
  0
VERTEX
  8
T29SSILL
 62
6
 10
2855.986
 20
-4233.110
 30
2332.721
 70
    32
  0
VERTEX
  8
T29SSILL
 62
6
 10
2857.074
 20
-4223.700
 30
2332.717
 70
    32
  0
VERTEX
  8
T29SSILL
 62
6
 10
2856.125
 20
-4217.890
 30
2332.714
 70
    32
  0
VERTEX
  8
T29SSILL
 62
6
 10
2850.427
 20
-4211.888
 30
2332.710
 70
    32
  0
VERTEX
  8
T29SSILL
 62
6
 10
2848.853
 20
-4105.732
 30
2332.656
 70
    32
  0
VERTEX
  8
T29SSILL
 62
6
 10
2905.913
 20
-4115.733
 30
2332.665
 70
    32
  0
VERTEX
  8
T29SSILL
 62
6
 10
2914.979
 20
-4114.356
 30
2332.665
 70
    32
  0
VERTEX
  8
T29SSILL
 62
6
 10
2951.670
 20
-4087.292
 30
2332.654
 70
    32
  0
VERTEX
  8
T29SSILL
 62
6
 10
2954.471
 20
-4091.525
 30
2332.657
 70
    32
  0
VERTEX
  8
T29SSILL
 62
6
 10
2961.083
 20
-4087.676
 30
2332.655
 70
    32
  0
VERTEX
  8
T29SSILL
 62
6
 10
2957.493
 20
-4082.473
 30
2332.652
 70
    32
  0
VERTEX
  8
T29SSILL
 62
6
 10
2979.891
 20
-4067.327
 30
2332.646
 70
    32
  0
SEQEND
  8
T29SSILL
  0
POLYLINE
  8
T29SSILL
 62
6
 66
     1
 70
     9
  0
VERTEX
  8
T29SSILL
 62
6
 10
2954.910
 20
-4453.977
 30
2332.693
 70
    32
  0
VERTEX
  8
T29SSILL
 62
6
 10
2933.534
 20
-4428.943
 30
2332.718
 70
    32
  0
VERTEX
  8
T29SSILL
 62
6
 10
2929.880
 20
-4420.493
 30
2332.725
 70
    32
  0
VERTEX
  8
T29SSILL
 62
6
 10
2965.263
 20
-4395.016
 30
2332.734
 70
    32
  0
VERTEX
  8
T29SSILL
 62
6
 10
2960.815
 20
-4387.850
 30
2332.741
 70
    32
  0
VERTEX
  8
T29SSILL
 62
6
 10
2956.530
 20
-4391.844
 30
2332.739
 70
    32
  0
VERTEX
  8
T29SSILL
 62
6
 10
2953.165
 20
-4391.276
 30
2332.740
 70
    32
  0
VERTEX
  8
T29SSILL
 62
6
 10
2952.508
 20
-4368.867
 30
2332.757
 70
    32
  0
VERTEX
  8
T29SSILL
 62
6
 10
2946.783
 20
-4372.465
 30
2332.756
 70
    32
  0
VERTEX
  8
T29SSILL
 62
6
 10
2947.923
 20
-4394.648
 30
2332.739
 70
    32
  0
VERTEX
  8
T29SSILL
 62
6
 10
2946.715
 20
-4397.389
 30
2332.737
 70
    32
  0
VERTEX
  8
T29SSILL
 62
6
 10
2918.201
 20
-4418.806
 30
2332.729
 70
    32
  0
VERTEX
  8
T29SSILL
 62
6
 10
2912.773
 20
-4420.818
 30
2332.729
 70
    32
  0
VERTEX
  8
T29SSILL
 62
6
 10
2901.690
 20
-4385.342
 30
2332.759
 70
    32
  0
VERTEX
  8
T29SSILL
 62
6
 10
2904.569
 20
-4373.698
 30
2332.766
 70
    32
  0
VERTEX
  8
T29SSILL
 62
6
 10
2957.200
 20
-4335.624
 30
2332.780
 70
    32
  0
VERTEX
  8
T29SSILL
 62
6
 10
2966.703
 20
-4348.957
 30
2332.768
 70
    32
  0
VERTEX
  8
T29SSILL
 62
6
 10
2963.499
 20
-4380.273
 30
2332.745
 70
    32
  0
VERTEX
  8
T29SSILL
 62
6
 10
2964.448
 20
-4382.282
 30
2332.744
 70
    32
  0
VERTEX
  8
T29SSILL
 62
6
 10
2968.287
 20
-4379.656
 30
2332.745
 70
    32
  0
VERTEX
  8
T29SSILL
 62
6
 10
2969.144
 20
-4380.132
 30
2332.744
 70
    32
  0
VERTEX
  8
T29SSILL
 62
6
 10
2975.130
 20
-4400.384
 30
2332.727
 70
    32
  0
VERTEX
  8
T29SSILL
 62
6
 10
2993.636
 20
-4425.574
 30
2332.704
 70
    32
  0
VERTEX
  8
T29SSILL
 62
6
 10
2974.542
 20
-4438.847
 30
2332.699
 70
    32
  0
VERTEX
  8
T29SSILL
 62
6
 10
2978.635
 20
-4445.297
 30
2332.693
 70
    32
  0
VERTEX
  8
T29SSILL
 62
6
 10
2999.391
 20
-4430.568
 30
2332.699
 70
    32
  0
VERTEX
  8
T29SSILL
 62
6
 10
3010.249
 20
-4441.001
 30
2332.688
 70
    32
  0
VERTEX
  8
T29SSILL
 62
6
 10
3009.422
 20
-4443.056
 30
2332.687
 70
    32
  0
VERTEX
  8
T29SSILL
 62
6
 10
2999.774
 20
-4450.399
 30
2332.684
 70
    32
  0
VERTEX
  8
T29SSILL
 62
6
 10
2996.365
 20
-4454.432
 30
2332.683
 70
    32
  0
VERTEX
  8
T29SSILL
 62
6
 10
3008.492
 20
-4471.227
 30
2332.686
 70
    32
  0
VERTEX
  8
T29SSILL
 62
6
 10
3008.869
 20
-4476.285
 30
2332.687
 70
    32
  0
VERTEX
  8
T29SSILL
 62
6
 10
3006.665
 20
-4481.301
 30
2332.689
 70
    32
  0
VERTEX
  8
T29SSILL
 62
6
 10
2993.060
 20
-4491.564
 30
2332.694
 70
    32
  0
VERTEX
  8
T29SSILL
 62
6
 10
2984.161
 20
-4486.170
 30
2332.694
 70
    32
  0
VERTEX
  8
T29SSILL
 62
6
 10
2971.908
 20
-4471.055
 30
2332.692
 70
    32
  0
VERTEX
  8
T29SSILL
 62
6
 10
2957.159
 20
-4458.818
 30
2332.690
 70
    32
  0
VERTEX
  8
T29SSILL
 62
6
 10
2956.675
 20
-4457.023
 30
2332.691
 70
    32
  0
SEQEND
  8
T29SSILL
  0
POLYLINE
  8
T29SSILL
 62
6
 66
     1
 70
     9
  0
VERTEX
  8
T29SSILL
 62
6
 10
2971.858
 20
-4505.642
 30
2332.702
 70
    32
  0
VERTEX
  8
T29SSILL
 62
6
 10
2975.423
 20
-4496.399
 30
2332.698
 70
    32
  0
VERTEX
  8
T29SSILL
 62
6
 10
2967.070
 20
-4483.720
 30
2332.696
 70
    32
  0
VERTEX
  8
T29SSILL
 62
6
 10
2959.867
 20
-4473.657
 30
2332.694
 70
    32
  0
VERTEX
  8
T29SSILL
 62
6
 10
2949.638
 20
-4462.899
 30
2332.693
 70
    32
  0
VERTEX
  8
T29SSILL
 62
6
 10
2921.856
 20
-4425.237
 30
2332.724
 70
    32
  0
VERTEX
  8
T29SSILL
 62
6
 10
2917.987
 20
-4427.352
 30
2332.723
 70
    32
  0
VERTEX
  8
T29SSILL
 62
6
 10
2916.302
 20
-4428.930
 30
2332.723
 70
    32
  0
VERTEX
  8
T29SSILL
 62
6
 10
2915.993
 20
-4431.587
 30
2332.721
 70
    32
  0
VERTEX
  8
T29SSILL
 62
6
 10
2929.602
 20
-4478.837
 30
2332.701
 70
    32
  0
VERTEX
  8
T29SSILL
 62
6
 10
2954.377
 20
-4513.347
 30
2332.707
 70
    32
  0
VERTEX
  8
T29SSILL
 62
6
 10
2956.996
 20
-4514.532
 30
2332.707
 70
    32
  0
VERTEX
  8
T29SSILL
 62
6
 10
2961.173
 20
-4513.801
 30
2332.706
 70
    32
  0
SEQEND
  8
T29SSILL
  0
POLYLINE
  8
T29SSILL
 62
6
 66
     1
 70
     9
  0
VERTEX
  8
T29SSILL
 62
6
 10
2955.903
 20
-4312.032
 30
2332.768
 70
    32
  0
VERTEX
  8
T29SSILL
 62
6
 10
2962.319
 20
-4321.791
 30
2332.774
 70
    32
  0
VERTEX
  8
T29SSILL
 62
6
 10
2898.955
 20
-4368.289
 30
2332.772
 70
    32
  0
VERTEX
  8
T29SSILL
 62
6
 10
2897.026
 20
-4367.801
 30
2332.773
 70
    32
  0
VERTEX
  8
T29SSILL
 62
6
 10
2895.952
 20
-4365.453
 30
2332.775
 70
    32
  0
VERTEX
  8
T29SSILL
 62
6
 10
2882.658
 20
-4320.219
 30
2332.767
 70
    32
  0
VERTEX
  8
T29SSILL
 62
6
 10
2884.866
 20
-4315.519
 30
2332.765
 70
    32
  0
VERTEX
  8
T29SSILL
 62
6
 10
2953.857
 20
-4266.629
 30
2332.745
 70
    32
  0
VERTEX
  8
T29SSILL
 62
6
 10
2956.041
 20
-4268.076
 30
2332.746
 70
    32
  0
VERTEX
  8
T29SSILL
 62
6
 10
2959.539
 20
-4278.730
 30
2332.752
 70
    32
  0
VERTEX
  8
T29SSILL
 62
6
 10
2959.584
 20
-4293.460
 30
2332.759
 70
    32
  0
VERTEX
  8
T29SSILL
 62
6
 10
2962.317
 20
-4300.023
 30
2332.763
 70
    32
  0
VERTEX
  8
T29SSILL
 62
6
 10
2957.248
 20
-4303.638
 30
2332.764
 70
    32
  0
VERTEX
  8
T29SSILL
 62
6
 10
2960.538
 20
-4308.405
 30
2332.767
 70
    32
  0
SEQEND
  8
T29SSILL
  0
POLYLINE
  8
T29SSILL
 62
6
 66
     1
 70
     9
  0
VERTEX
  8
T29SSILL
 62
6
 10
3066.351
 20
-4154.014
 30
2332.696
 70
    32
  0
VERTEX
  8
T29SSILL
 62
6
 10
3066.432
 20
-4156.214
 30
2332.697
 70
    32
  0
VERTEX
  8
T29SSILL
 62
6
 10
3079.497
 20
-4169.840
 30
2332.705
 70
    32
  0
VERTEX
  8
T29SSILL
 62
6
 10
3081.406
 20
-4174.807
 30
2332.708
 70
    32
  0
VERTEX
  8
T29SSILL
 62
6
 10
3026.190
 20
-4214.384
 30
2332.724
 70
    32
  0
VERTEX
  8
T29SSILL
 62
6
 10
3021.609
 20
-4213.903
 30
2332.723
 70
    32
  0
VERTEX
  8
T29SSILL
 62
6
 10
3009.120
 20
-4193.326
 30
2332.712
 70
    32
  0
VERTEX
  8
T29SSILL
 62
6
 10
2965.912
 20
-4222.216
 30
2332.724
 70
    32
  0
VERTEX
  8
T29SSILL
 62
6
 10
2956.816
 20
-4232.215
 30
2332.728
 70
    32
  0
VERTEX
  8
T29SSILL
 62
6
 10
2949.855
 20
-4235.623
 30
2332.729
 70
    32
  0
VERTEX
  8
T29SSILL
 62
6
 10
2950.002
 20
-4244.070
 30
2332.734
 70
    32
  0
VERTEX
  8
T29SSILL
 62
6
 10
2954.073
 20
-4255.209
 30
2332.740
 70
    32
  0
VERTEX
  8
T29SSILL
 62
6
 10
2952.533
 20
-4258.708
 30
2332.741
 70
    32
  0
VERTEX
  8
T29SSILL
 62
6
 10
2880.034
 20
-4310.319
 30
2332.762
 70
    32
  0
VERTEX
  8
T29SSILL
 62
6
 10
2867.556
 20
-4272.740
 30
2332.742
 70
    32
  0
VERTEX
  8
T29SSILL
 62
6
 10
2939.962
 20
-4220.897
 30
2332.721
 70
    32
  0
VERTEX
  8
T29SSILL
 62
6
 10
2946.093
 20
-4229.276
 30
2332.726
 70
    32
  0
VERTEX
  8
T29SSILL
 62
6
 10
2985.335
 20
-4202.045
 30
2332.715
 70
    32
  0
VERTEX
  8
T29SSILL
 62
6
 10
2978.682
 20
-4192.169
 30
2332.709
 70
    32
  0
VERTEX
  8
T29SSILL
 62
6
 10
3009.195
 20
-4170.891
 30
2332.701
 70
    32
  0
VERTEX
  8
T29SSILL
 62
6
 10
3022.677
 20
-4190.908
 30
2332.712
 70
    32
  0
VERTEX
  8
T29SSILL
 62
6
 10
3037.847
 20
-4179.785
 30
2332.707
 70
    32
  0
VERTEX
  8
T29SSILL
 62
6
 10
3023.835
 20
-4160.206
 30
2332.696
 70
    32
  0
VERTEX
  8
T29SSILL
 62
6
 10
3033.892
 20
-4152.322
 30
2332.693
 70
    32
  0
VERTEX
  8
T29SSILL
 62
6
 10
3060.753
 20
-4135.023
 30
2332.686
 70
    32
  0
VERTEX
  8
T29SSILL
 62
6
 10
3070.151
 20
-4149.100
 30
2332.694
 70
    32
  0
VERTEX
  8
T29SSILL
 62
6
 10
3068.382
 20
-4151.909
 30
2332.695
 70
    32
  0
SEQEND
  8
T29SSILL
  0
POLYLINE
  8
T29SSILL
 62
6
 66
     1
 70
     9
  0
VERTEX
  8
T29SSILL
 62
6
 10
2961.900
 20
-3903.476
 30
2332.562
 70
    32
  0
VERTEX
  8
T29SSILL
 62
6
 10
2992.308
 20
-3923.942
 30
2332.573
 70
    32
  0
VERTEX
  8
T29SSILL
 62
6
 10
2905.067
 20
-3986.240
 30
2332.600
 70
    32
  0
VERTEX
  8
T29SSILL
 62
6
 10
2915.363
 20
-3971.247
 30
2332.593
 70
    32
  0
SEQEND
  8
T29SSILL
  0
POLYLINE
  8
T29SSILL
 62
6
 66
     1
 70
     9
  0
VERTEX
  8
T29SSILL
 62
6
 10
2996.693
 20
-4024.657
 30
2332.626
 70
    32
  0
VERTEX
  8
T29SSILL
 62
6
 10
2982.113
 20
-4034.253
 30
2332.629
 70
    32
  0
VERTEX
  8
T29SSILL
 62
6
 10
2981.773
 20
-4030.821
 30
2332.628
 70
    32
  0
VERTEX
  8
T29SSILL
 62
6
 10
2974.407
 20
-4017.209
 30
2332.620
 70
    32
  0
VERTEX
  8
T29SSILL
 62
6
 10
2969.914
 20
-4015.807
 30
2332.619
 70
    32
  0
VERTEX
  8
T29SSILL
 62
6
 10
2963.665
 20
-4017.138
 30
2332.619
 70
    32
  0
VERTEX
  8
T29SSILL
 62
6
 10
2918.632
 20
-4048.206
 30
2332.632
 70
    32
  0
VERTEX
  8
T29SSILL
 62
6
 10
2923.535
 20
-4055.349
 30
2332.636
 70
    32
  0
VERTEX
  8
T29SSILL
 62
6
 10
2916.393
 20
-4059.812
 30
2332.638
 70
    32
  0
VERTEX
  8
T29SSILL
 62
6
 10
2912.635
 20
-4052.497
 30
2332.634
 70
    32
  0
VERTEX
  8
T29SSILL
 62
6
 10
2855.399
 20
-4093.129
 30
2332.650
 70
    32
  0
VERTEX
  8
T29SSILL
 62
6
 10
2856.967
 20
-4097.621
 30
2332.653
 70
    32
  0
VERTEX
  8
T29SSILL
 62
6
 10
2860.300
 20
-4100.888
 30
2332.655
 70
    32
  0
VERTEX
  8
T29SSILL
 62
6
 10
2907.784
 20
-4108.613
 30
2332.662
 70
    32
  0
VERTEX
  8
T29SSILL
 62
6
 10
2911.304
 20
-4108.273
 30
2332.662
 70
    32
  0
VERTEX
  8
T29SSILL
 62
6
 10
2981.768
 20
-4058.535
 30
2332.642
 70
    32
  0
VERTEX
  8
T29SSILL
 62
6
 10
2978.264
 20
-4053.860
 30
2332.639
 70
    32
  0
VERTEX
  8
T29SSILL
 62
6
 10
3012.657
 20
-4029.956
 30
2332.629
 70
    32
  0
VERTEX
  8
T29SSILL
 62
6
 10
3014.509
 20
-4033.389
 30
2332.631
 70
    32
  0
VERTEX
  8
T29SSILL
 62
6
 10
3060.472
 20
-4001.159
 30
2332.616
 70
    32
  0
VERTEX
  8
T29SSILL
 62
6
 10
3044.155
 20
-3977.184
 30
2332.603
 70
    32
  0
VERTEX
  8
T29SSILL
 62
6
 10
3049.707
 20
-3973.867
 30
2332.600
 70
    32
  0
VERTEX
  8
T29SSILL
 62
6
 10
3040.968
 20
-3961.636
 30
2332.593
 70
    32
  0
VERTEX
  8
T29SSILL
 62
6
 10
3018.629
 20
-3976.991
 30
2332.603
 70
    32
  0
VERTEX
  8
T29SSILL
 62
6
 10
3012.084
 20
-4013.892
 30
2332.621
 70
    32
  0
SEQEND
  8
T29SSILL
  0
POLYLINE
  8
T29SSILL
 62
6
 66
     1
 70
     9
  0
VERTEX
  8
T29SSILL
 62
6
 10
2888.843
 20
-4369.359
 30
2332.774
 70
    32
  0
VERTEX
  8
T29SSILL
 62
6
 10
2861.382
 20
-4277.031
 30
2332.744
 70
    32
  0
VERTEX
  8
T29SSILL
 62
6
 10
2796.640
 20
-4323.941
 30
2332.763
 70
    32
  0
VERTEX
  8
T29SSILL
 62
6
 10
2811.805
 20
-4344.331
 30
2332.775
 70
    32
  0
VERTEX
  8
T29SSILL
 62
6
 10
2822.935
 20
-4337.875
 30
2332.772
 70
    32
  0
VERTEX
  8
T29SSILL
 62
6
 10
2854.487
 20
-4392.176
 30
2332.767
 70
    32
  0
VERTEX
  8
T29SSILL
 62
6
 10
2842.679
 20
-4397.767
 30
2332.766
 70
    32
  0
VERTEX
  8
T29SSILL
 62
6
 10
2844.985
 20
-4405.139
 30
2332.760
 70
    32
  0
VERTEX
  8
T29SSILL
 62
6
 10
2884.161
 20
-4376.814
 30
2332.770
 70
    32
  0
VERTEX
  8
T29SSILL
 62
6
 10
2888.137
 20
-4371.436
 30
2332.773
 70
    32
  0
SEQEND
  8
T29SSILL
  0
POLYLINE
  8
T29SSILL
 62
6
 66
     1
 70
     9
  0
VERTEX
  8
T29SSILL
 62
6
 10
1777.533
 20
-4385.744
 30
2334.218
 70
    32
  0
VERTEX
  8
T29SSILL
 62
6
 10
1782.155
 20
-4381.376
 30
2334.204
 70
    32
  0
VERTEX
  8
T29SSILL
 62
6
 10
1780.779
 20
-4376.456
 30
2334.205
 70
    32
  0
VERTEX
  8
T29SSILL
 62
6
 10
1781.090
 20
-4372.752
 30
2334.198
 70
    32
  0
VERTEX
  8
T29SSILL
 62
6
 10
1785.501
 20
-4365.214
 30
2334.163
 70
    32
  0
VERTEX
  8
T29SSILL
 62
6
 10
1791.353
 20
-4359.217
 30
2334.122
 70
    32
  0
VERTEX
  8
T29SSILL
 62
6
 10
1785.657
 20
-4347.325
 30
2334.137
 70
    32
  0
VERTEX
  8
T29SSILL
 62
6
 10
1776.299
 20
-4337.736
 30
2334.175
 70
    32
  0
VERTEX
  8
T29SSILL
 62
6
 10
1765.602
 20
-4342.524
 30
2334.241
 70
    32
  0
VERTEX
  8
T29SSILL
 62
6
 10
1760.741
 20
-4349.186
 30
2334.278
 70
    32
  0
VERTEX
  8
T29SSILL
 62
6
 10
1758.550
 20
-4350.267
 30
2334.292
 70
    32
  0
VERTEX
  8
T29SSILL
 62
6
 10
1757.638
 20
-4355.476
 30
2334.304
 70
    32
  0
VERTEX
  8
T29SSILL
 62
6
 10
1754.246
 20
-4359.478
 30
2334.301
 70
    32
  0
VERTEX
  8
T29SSILL
 62
6
 10
1746.616
 20
-4362.734
 30
2334.304
 70
    32
  0
VERTEX
  8
T29SSILL
 62
6
 10
1740.275
 20
-4363.069
 30
2334.311
 70
    32
  0
VERTEX
  8
T29SSILL
 62
6
 10
1736.400
 20
-4387.254
 30
2334.267
 70
    32
  0
VERTEX
  8
T29SSILL
 62
6
 10
1738.577
 20
-4392.870
 30
2334.252
 70
    32
  0
VERTEX
  8
T29SSILL
 62
6
 10
1739.087
 20
-4399.208
 30
2334.239
 70
    32
  0
VERTEX
  8
T29SSILL
 62
6
 10
1736.313
 20
-4403.292
 30
2334.234
 70
    32
  0
VERTEX
  8
T29SSILL
 62
6
 10
1733.736
 20
-4401.382
 30
2334.241
 70
    32
  0
VERTEX
  8
T29SSILL
 62
6
 10
1729.196
 20
-4405.133
 30
2334.239
 70
    32
  0
VERTEX
  8
T29SSILL
 62
6
 10
1708.573
 20
-4380.776
 30
2334.315
 70
    32
  0
VERTEX
  8
T29SSILL
 62
6
 10
1713.703
 20
-4318.512
 30
2334.436
 70
    32
  0
VERTEX
  8
T29SSILL
 62
6
 10
1693.947
 20
-4292.824
 30
2334.513
 70
    32
  0
VERTEX
  8
T29SSILL
 62
6
 10
1690.574
 20
-4282.552
 30
2334.538
 70
    32
  0
VERTEX
  8
T29SSILL
 62
6
 10
1681.499
 20
-4274.633
 30
2334.566
 70
    32
  0
VERTEX
  8
T29SSILL
 62
6
 10
1677.237
 20
-4263.666
 30
2334.593
 70
    32
  0
VERTEX
  8
T29SSILL
 62
6
 10
1666.582
 20
-4256.294
 30
2334.622
 70
    32
  0
VERTEX
  8
T29SSILL
 62
6
 10
1724.540
 20
-4214.418
 30
2334.289
 70
    32
  0
VERTEX
  8
T29SSILL
 62
6
 10
1733.136
 20
-4218.905
 30
2334.247
 70
    32
  0
VERTEX
  8
T29SSILL
 62
6
 10
1740.976
 20
-4226.661
 30
2334.214
 70
    32
  0
VERTEX
  8
T29SSILL
 62
6
 10
1743.229
 20
-4231.218
 30
2334.208
 70
    32
  0
VERTEX
  8
T29SSILL
 62
6
 10
1744.909
 20
-4239.747
 30
2334.211
 70
    32
  0
VERTEX
  8
T29SSILL
 62
6
 10
1747.424
 20
-4244.125
 30
2334.203
 70
    32
  0
VERTEX
  8
T29SSILL
 62
6
 10
1747.246
 20
-4259.987
 30
2334.227
 70
    32
  0
VERTEX
  8
T29SSILL
 62
6
 10
1775.826
 20
-4294.830
 30
2334.117
 70
    32
  0
VERTEX
  8
T29SSILL
 62
6
 10
1780.985
 20
-4291.160
 30
2334.083
 70
    32
  0
VERTEX
  8
T29SSILL
 62
6
 10
1774.662
 20
-4285.150
 30
2334.110
 70
    32
  0
VERTEX
  8
T29SSILL
 62
6
 10
1763.865
 20
-4264.827
 30
2334.141
 70
    32
  0
VERTEX
  8
T29SSILL
 62
6
 10
1759.752
 20
-4259.409
 30
2334.156
 70
    32
  0
VERTEX
  8
T29SSILL
 62
6
 10
1758.311
 20
-4256.605
 30
2334.160
 70
    32
  0
VERTEX
  8
T29SSILL
 62
6
 10
1756.201
 20
-4241.032
 30
2334.150
 70
    32
  0
VERTEX
  8
T29SSILL
 62
6
 10
1754.005
 20
-4233.655
 30
2334.152
 70
    32
  0
VERTEX
  8
T29SSILL
 62
6
 10
1748.432
 20
-4223.671
 30
2334.169
 70
    32
  0
VERTEX
  8
T29SSILL
 62
6
 10
1743.622
 20
-4218.966
 30
2334.189
 70
    32
  0
VERTEX
  8
T29SSILL
 62
6
 10
1736.000
 20
-4206.890
 30
2334.214
 70
    32
  0
VERTEX
  8
T29SSILL
 62
6
 10
1753.658
 20
-4194.096
 30
2334.098
 70
    32
  0
VERTEX
  8
T29SSILL
 62
6
 10
1747.773
 20
-4187.816
 30
2334.122
 70
    32
  0
VERTEX
  8
T29SSILL
 62
6
 10
1661.753
 20
-4249.915
 30
2334.641
 70
    32
  0
VERTEX
  8
T29SSILL
 62
6
 10
1657.677
 20
-4239.826
 30
2334.667
 70
    32
  0
VERTEX
  8
T29SSILL
 62
6
 10
1649.703
 20
-4227.843
 30
2334.701
 70
    32
  0
VERTEX
  8
T29SSILL
 62
6
 10
1641.392
 20
-4217.273
 30
2334.733
 70
    32
  0
VERTEX
  8
T29SSILL
 62
6
 10
1633.202
 20
-4209.697
 30
2334.759
 70
    32
  0
VERTEX
  8
T29SSILL
 62
6
 10
1629.702
 20
-4195.902
 30
2334.790
 70
    32
  0
VERTEX
  8
T29SSILL
 62
6
 10
1625.936
 20
-4189.951
 30
2334.803
 70
    32
  0
VERTEX
  8
T29SSILL
 62
6
 10
1612.719
 20
-4173.972
 30
2334.854
 70
    32
  0
VERTEX
  8
T29SSILL
 62
6
 10
1614.755
 20
-4166.813
 30
2334.832
 70
    32
  0
VERTEX
  8
T29SSILL
 62
6
 10
1618.577
 20
-4161.836
 30
2334.804
 70
    32
  0
VERTEX
  8
T29SSILL
 62
6
 10
1699.454
 20
-4105.099
 30
2334.273
 70
    32
  0
VERTEX
  8
T29SSILL
 62
6
 10
1694.443
 20
-4100.213
 30
2334.294
 70
    32
  0
VERTEX
  8
T29SSILL
 62
6
 10
1613.426
 20
-4158.192
 30
2334.827
 70
    32
  0
VERTEX
  8
T29SSILL
 62
6
 10
1608.558
 20
-4164.237
 30
2334.863
 70
    32
  0
VERTEX
  8
T29SSILL
 62
6
 10
1606.934
 20
-4168.749
 30
2334.875
 70
    32
  0
VERTEX
  8
T29SSILL
 62
6
 10
1598.187
 20
-4158.624
 30
2334.907
 70
    32
  0
VERTEX
  8
T29SSILL
 62
6
 10
1592.895
 20
-4158.154
 30
2334.915
 70
    32
  0
VERTEX
  8
T29SSILL
 62
6
 10
1584.483
 20
-4146.351
 30
2334.949
 70
    32
  0
VERTEX
  8
T29SSILL
 62
6
 10
1558.728
 20
-4103.988
 30
2335.055
 70
    32
  0
VERTEX
  8
T29SSILL
 62
6
 10
1556.634
 20
-4105.949
 30
2335.067
 70
    32
  0
VERTEX
  8
T29SSILL
 62
6
 10
1552.424
 20
-4099.652
 30
2335.084
 70
    32
  0
VERTEX
  8
T29SSILL
 62
6
 10
1541.866
 20
-4077.123
 30
2335.111
 70
    32
  0
VERTEX
  8
T29SSILL
 62
6
 10
1532.217
 20
-4065.069
 30
2335.147
 70
    32
  0
VERTEX
  8
T29SSILL
 62
6
 10
1528.172
 20
-4057.801
 30
2335.160
 70
    32
  0
VERTEX
  8
T29SSILL
 62
6
 10
1527.964
 20
-4054.895
 30
2335.157
 70
    32
  0
VERTEX
  8
T29SSILL
 62
6
 10
1525.200
 20
-4051.930
 30
2335.168
 70
    32
  0
VERTEX
  8
T29SSILL
 62
6
 10
1525.935
 20
-4046.723
 30
2335.156
 70
    32
  0
VERTEX
  8
T29SSILL
 62
6
 10
1563.973
 20
-4020.222
 30
2334.907
 70
    32
  0
VERTEX
  8
T29SSILL
 62
6
 10
1569.691
 20
-4027.385
 30
2334.886
 70
    32
  0
VERTEX
  8
T29SSILL
 62
6
 10
1573.244
 20
-4029.989
 30
2334.869
 70
    32
  0
VERTEX
  8
T29SSILL
 62
6
 10
1577.281
 20
-4028.535
 30
2334.845
 70
    32
  0
VERTEX
  8
T29SSILL
 62
6
 10
1581.556
 20
-4032.629
 30
2334.827
 70
    32
  0
VERTEX
  8
T29SSILL
 62
6
 10
1587.918
 20
-4034.233
 30
2334.794
 70
    32
  0
VERTEX
  8
T29SSILL
 62
6
 10
1593.638
 20
-4033.553
 30
2334.761
 70
    32
  0
VERTEX
  8
T29SSILL
 62
6
 10
1598.882
 20
-4029.707
 30
2334.726
 70
    32
  0
VERTEX
  8
T29SSILL
 62
6
 10
1599.466
 20
-4026.704
 30
2334.719
 70
    32
  0
VERTEX
  8
T29SSILL
 62
6
 10
1584.536
 20
-4015.150
 30
2334.786
 70
    32
  0
VERTEX
  8
T29SSILL
 62
6
 10
1578.790
 20
-4005.520
 30
2334.804
 70
    32
  0
VERTEX
  8
T29SSILL
 62
6
 10
1573.393
 20
-4003.465
 30
2334.831
 70
    32
  0
VERTEX
  8
T29SSILL
 62
6
 10
1564.421
 20
-4004.886
 30
2334.883
 70
    32
  0
VERTEX
  8
T29SSILL
 62
6
 10
1550.458
 20
-4009.181
 30
2334.967
 70
    32
  0
VERTEX
  8
T29SSILL
 62
6
 10
1549.268
 20
-4013.159
 30
2334.979
 70
    32
  0
VERTEX
  8
T29SSILL
 62
6
 10
1545.845
 20
-4014.342
 30
2335.000
 70
    32
  0
VERTEX
  8
T29SSILL
 62
6
 10
1540.610
 20
-4019.070
 30
2335.036
 70
    32
  0
VERTEX
  8
T29SSILL
 62
6
 10
1538.207
 20
-4024.912
 30
2335.057
 70
    32
  0
VERTEX
  8
T29SSILL
 62
6
 10
1539.035
 20
-4028.075
 30
2335.057
 70
    32
  0
VERTEX
  8
T29SSILL
 62
6
 10
1520.754
 20
-4040.260
 30
2335.176
 70
    32
  0
VERTEX
  8
T29SSILL
 62
6
 10
1517.966
 20
-4035.180
 30
2335.184
 70
    32
  0
VERTEX
  8
T29SSILL
 62
6
 10
1502.265
 20
-4017.642
 30
2335.247
 70
    32
  0
VERTEX
  8
T29SSILL
 62
6
 10
1489.519
 20
-4012.407
 30
2335.310
 70
    32
  0
VERTEX
  8
T29SSILL
 62
6
 10
1475.531
 20
-3998.375
 30
2335.368
 70
    32
  0
VERTEX
  8
T29SSILL
 62
6
 10
1480.062
 20
-3993.831
 30
2335.337
 70
    32
  0
VERTEX
  8
T29SSILL
 62
6
 10
1537.317
 20
-3968.088
 30
2335.016
 70
    32
  0
VERTEX
  8
T29SSILL
 62
6
 10
1540.367
 20
-3972.989
 30
2335.000
 70
    32
  0
VERTEX
  8
T29SSILL
 62
6
 10
1546.323
 20
-3969.751
 30
2334.969
 70
    32
  0
VERTEX
  8
T29SSILL
 62
6
 10
1544.061
 20
-3964.401
 30
2334.980
 70
    32
  0
VERTEX
  8
T29SSILL
 62
6
 10
1583.417
 20
-3945.640
 30
2334.763
 70
    32
  0
VERTEX
  8
T29SSILL
 62
6
 10
1601.707
 20
-3942.179
 30
2334.667
 70
    32
  0
VERTEX
  8
T29SSILL
 62
6
 10
1619.820
 20
-3946.737
 30
2334.580
 70
    32
  0
VERTEX
  8
T29SSILL
 62
6
 10
1625.491
 20
-3949.583
 30
2334.551
 70
    32
  0
VERTEX
  8
T29SSILL
 62
6
 10
2064.880
 20
-4338.610
 30
2333.121
 70
    32
  0
VERTEX
  8
T29SSILL
 62
6
 10
2059.385
 20
-4343.693
 30
2333.124
 70
    32
  0
VERTEX
  8
T29SSILL
 62
6
 10
2064.547
 20
-4348.395
 30
2333.115
 70
    32
  0
VERTEX
  8
T29SSILL
 62
6
 10
2070.580
 20
-4344.099
 30
2333.112
 70
    32
  0
VERTEX
  8
T29SSILL
 62
6
 10
2227.450
 20
-4482.648
 30
2332.878
 70
    32
  0
VERTEX
  8
T29SSILL
 62
6
 10
2231.118
 20
-4487.630
 30
2332.872
 70
    32
  0
VERTEX
  8
T29SSILL
 62
6
 10
2236.534
 20
-4499.377
 30
2332.858
 70
    32
  0
VERTEX
  8
T29SSILL
 62
6
 10
2239.105
 20
-4516.795
 30
2332.844
 70
    32
  0
VERTEX
  8
T29SSILL
 62
6
 10
2237.292
 20
-4528.182
 30
2332.837
 70
    32
  0
VERTEX
  8
T29SSILL
 62
6
 10
2229.248
 20
-4541.840
 30
2332.848
 70
    32
  0
VERTEX
  8
T29SSILL
 62
6
 10
2164.753
 20
-4542.286
 30
2332.953
 70
    32
  0
VERTEX
  8
T29SSILL
 62
6
 10
2117.301
 20
-4570.036
 30
2333.030
 70
    32
  0
VERTEX
  8
T29SSILL
 62
6
 10
2117.449
 20
-4615.413
 30
2333.030
 70
    32
  0
VERTEX
  8
T29SSILL
 62
6
 10
2124.761
 20
-4615.332
 30
2333.018
 70
    32
  0
VERTEX
  8
T29SSILL
 62
6
 10
2124.886
 20
-4626.609
 30
2333.018
 70
    32
  0
VERTEX
  8
T29SSILL
 62
6
 10
2163.388
 20
-4626.361
 30
2332.956
 70
    32
  0
VERTEX
  8
T29SSILL
 62
6
 10
2096.051
 20
-4712.661
 30
2333.065
 70
    32
  0
VERTEX
  8
T29SSILL
 62
6
 10
2090.197
 20
-4725.150
 30
2333.075
 70
    32
  0
VERTEX
  8
T29SSILL
 62
6
 10
2072.815
 20
-4747.017
 30
2333.104
 70
    32
  0
VERTEX
  8
T29SSILL
 62
6
 10
2023.590
 20
-4749.762
 30
2333.238
 70
    32
  0
VERTEX
  8
T29SSILL
 62
6
 10
1983.329
 20
-4702.448
 30
2333.313
 70
    32
  0
VERTEX
  8
T29SSILL
 62
6
 10
1970.526
 20
-4627.957
 30
2333.481
 70
    32
  0
VERTEX
  8
T29SSILL
 62
6
 10
1922.219
 20
-4546.103
 30
2333.658
 70
    32
  0
VERTEX
  8
T29SSILL
 62
6
 10
1915.915
 20
-4549.594
 30
2333.698
 70
    32
  0
VERTEX
  8
T29SSILL
 62
6
 10
1945.721
 20
-4599.946
 30
2333.570
 70
    32
  0
VERTEX
  8
T29SSILL
 62
6
 10
1941.435
 20
-4602.725
 30
2333.569
 70
    32
  0
VERTEX
  8
T29SSILL
 62
6
 10
1945.473
 20
-4609.377
 30
2333.551
 70
    32
  0
VERTEX
  8
T29SSILL
 62
6
 10
1950.029
 20
-4607.036
 30
2333.550
 70
    32
  0
VERTEX
  8
T29SSILL
 62
6
 10
1962.429
 20
-4628.839
 30
2333.490
 70
    32
  0
VERTEX
  8
T29SSILL
 62
6
 10
1975.289
 20
-4692.404
 30
2333.344
 70
    32
  0
VERTEX
  8
T29SSILL
 62
6
 10
1912.177
 20
-4618.379
 30
2333.574
 70
    32
  0
VERTEX
  8
T29SSILL
 62
6
 10
1912.815
 20
-4612.292
 30
2333.586
 70
    32
  0
VERTEX
  8
T29SSILL
 62
6
 10
1911.548
 20
-4601.291
 30
2333.610
 70
    32
  0
VERTEX
  8
T29SSILL
 62
6
 10
1896.760
 20
-4554.666
 30
2333.724
 70
    32
  0
VERTEX
  8
T29SSILL
 62
6
 10
1894.070
 20
-4542.360
 30
2333.752
 70
    32
  0
VERTEX
  8
T29SSILL
 62
6
 10
1894.295
 20
-4538.833
 30
2333.759
 70
    32
  0
VERTEX
  8
T29SSILL
 62
6
 10
1899.568
 20
-4529.611
 30
2333.761
 70
    32
  0
VERTEX
  8
T29SSILL
 62
6
 10
1903.568
 20
-4516.790
 30
2333.720
 70
    32
  0
VERTEX
  8
T29SSILL
 62
6
 10
1904.863
 20
-4514.309
 30
2333.710
 70
    32
  0
VERTEX
  8
T29SSILL
 62
6
 10
1908.015
 20
-4512.512
 30
2333.689
 70
    32
  0
VERTEX
  8
T29SSILL
 62
6
 10
1914.019
 20
-4513.591
 30
2333.658
 70
    32
  0
VERTEX
  8
T29SSILL
 62
6
 10
1924.662
 20
-4527.925
 30
2333.619
 70
    32
  0
VERTEX
  8
T29SSILL
 62
6
 10
1930.279
 20
-4525.924
 30
2333.585
 70
    32
  0
VERTEX
  8
T29SSILL
 62
6
 10
1936.652
 20
-4520.479
 30
2333.541
 70
    32
  0
VERTEX
  8
T29SSILL
 62
6
 10
1937.754
 20
-4516.590
 30
2333.530
 70
    32
  0
VERTEX
  8
T29SSILL
 62
6
 10
1921.499
 20
-4504.698
 30
2333.603
 70
    32
  0
VERTEX
  8
T29SSILL
 62
6
 10
1920.578
 20
-4501.095
 30
2333.603
 70
    32
  0
VERTEX
  8
T29SSILL
 62
6
 10
1931.331
 20
-4493.399
 30
2333.533
 70
    32
  0
VERTEX
  8
T29SSILL
 62
6
 10
1941.126
 20
-4494.701
 30
2333.480
 70
    32
  0
VERTEX
  8
T29SSILL
 62
6
 10
1939.096
 20
-4486.440
 30
2333.480
 70
    32
  0
VERTEX
  8
T29SSILL
 62
6
 10
1938.747
 20
-4478.690
 30
2333.471
 70
    32
  0
VERTEX
  8
T29SSILL
 62
6
 10
1933.561
 20
-4471.875
 30
2333.490
 70
    32
  0
VERTEX
  8
T29SSILL
 62
6
 10
1928.415
 20
-4476.689
 30
2333.525
 70
    32
  0
VERTEX
  8
T29SSILL
 62
6
 10
1926.096
 20
-4490.108
 30
2333.557
 70
    32
  0
VERTEX
  8
T29SSILL
 62
6
 10
1910.269
 20
-4501.120
 30
2333.661
 70
    32
  0
VERTEX
  8
T29SSILL
 62
6
 10
1892.307
 20
-4478.321
 30
2333.728
 70
    32
  0
VERTEX
  8
T29SSILL
 62
6
 10
1886.871
 20
-4480.760
 30
2333.762
 70
    32
  0
VERTEX
  8
T29SSILL
 62
6
 10
1883.998
 20
-4483.963
 30
2333.783
 70
    32
  0
VERTEX
  8
T29SSILL
 62
6
 10
1881.453
 20
-4492.891
 30
2333.809
 70
    32
  0
VERTEX
  8
T29SSILL
 62
6
 10
1879.763
 20
-4523.485
 30
2333.809
 70
    32
  0
VERTEX
  8
T29SSILL
 62
6
 10
1849.255
 20
-4545.585
 30
2333.802
 70
    32
  0
VERTEX
  8
T29SSILL
 62
6
 10
1763.208
 20
-4445.202
 30
2334.115
 70
    32
  0
VERTEX
  8
T29SSILL
 62
6
 10
1765.200
 20
-4442.008
 30
2334.119
 70
    32
  0
VERTEX
  8
T29SSILL
 62
6
 10
1770.716
 20
-4438.863
 30
2334.118
 70
    32
  0
VERTEX
  8
T29SSILL
 62
6
 10
1770.951
 20
-4436.217
 30
2334.123
 70
    32
  0
VERTEX
  8
T29SSILL
 62
6
 10
1774.186
 20
-4433.891
 30
2334.124
 70
    32
  0
VERTEX
  8
T29SSILL
 62
6
 10
1767.039
 20
-4419.555
 30
2334.162
 70
    32
  0
VERTEX
  8
T29SSILL
 62
6
 10
1769.910
 20
-4397.635
 30
2334.203
 70
    32
  0
SEQEND
  8
T29SSILL
  0
POLYLINE
  8
T29SSILL
 62
6
 66
     1
 70
     9
  0
VERTEX
  8
T29SSILL
 62
6
 10
1742.059
 20
-4413.009
 30
2334.207
 70
    32
  0
VERTEX
  8
T29SSILL
 62
6
 10
1741.610
 20
-4420.240
 30
2334.193
 70
    32
  0
VERTEX
  8
T29SSILL
 62
6
 10
1746.692
 20
-4425.647
 30
2334.175
 70
    32
  0
VERTEX
  8
T29SSILL
 62
6
 10
1755.027
 20
-4414.453
 30
2334.188
 70
    32
  0
VERTEX
  8
T29SSILL
 62
6
 10
1754.383
 20
-4411.904
 30
2334.194
 70
    32
  0
VERTEX
  8
T29SSILL
 62
6
 10
1750.633
 20
-4407.452
 30
2334.208
 70
    32
  0
VERTEX
  8
T29SSILL
 62
6
 10
1746.028
 20
-4405.388
 30
2334.218
 70
    32
  0
SEQEND
  8
T29SSILL
  0
POLYLINE
  8
T29SSILL
 62
6
 66
     1
 70
     9
  0
VERTEX
  8
T29SSILL
 62
6
 10
1861.948
 20
-4553.992
 30
2333.769
 70
    32
  0
VERTEX
  8
T29SSILL
 62
6
 10
1866.951
 20
-4552.175
 30
2333.766
 70
    32
  0
VERTEX
  8
T29SSILL
 62
6
 10
1874.162
 20
-4542.932
 30
2333.776
 70
    32
  0
VERTEX
  8
T29SSILL
 62
6
 10
1860.880
 20
-4545.016
 30
2333.788
 70
    32
  0
VERTEX
  8
T29SSILL
 62
6
 10
1858.934
 20
-4552.351
 30
2333.776
 70
    32
  0
VERTEX
  8
T29SSILL
 62
6
 10
1861.149
 20
-4553.472
 30
2333.771
 70
    32
  0
SEQEND
  8
T29SSILL
  0
POLYLINE
  8
T29SSILL
 62
6
 66
     1
 70
     9
  0
VERTEX
  8
T29SSILL
 62
6
 10
1897.501
 20
-4597.922
 30
2333.634
 70
    32
  0
VERTEX
  8
T29SSILL
 62
6
 10
1890.603
 20
-4579.670
 30
2333.680
 70
    32
  0
VERTEX
  8
T29SSILL
 62
6
 10
1887.625
 20
-4565.252
 30
2333.713
 70
    32
  0
VERTEX
  8
T29SSILL
 62
6
 10
1886.492
 20
-4550.373
 30
2333.745
 70
    32
  0
VERTEX
  8
T29SSILL
 62
6
 10
1882.295
 20
-4545.309
 30
2333.761
 70
    32
  0
VERTEX
  8
T29SSILL
 62
6
 10
1875.332
 20
-4553.140
 30
2333.754
 70
    32
  0
VERTEX
  8
T29SSILL
 62
6
 10
1873.354
 20
-4573.516
 30
2333.714
 70
    32
  0
VERTEX
  8
T29SSILL
 62
6
 10
1896.926
 20
-4601.717
 30
2333.627
 70
    32
  0
SEQEND
  8
T29SSILL
  0
POLYLINE
  8
T29SSILL
 62
6
 66
     1
 70
     9
  0
VERTEX
  8
T29SSILL
 62
6
 10
2264.658
 20
-4484.793
 30
2332.845
 70
    32
  0
VERTEX
  8
T29SSILL
 62
6
 10
2255.515
 20
-4486.744
 30
2332.851
 70
    32
  0
VERTEX
  8
T29SSILL
 62
6
 10
2244.675
 20
-4486.511
 30
2332.861
 70
    32
  0
VERTEX
  8
T29SSILL
 62
6
 10
2240.351
 20
-4485.942
 30
2332.865
 70
    32
  0
VERTEX
  8
T29SSILL
 62
6
 10
2236.892
 20
-4483.865
 30
2332.869
 70
    32
  0
VERTEX
  8
T29SSILL
 62
6
 10
2244.834
 20
-4500.960
 30
2332.850
 70
    32
  0
VERTEX
  8
T29SSILL
 62
6
 10
2246.330
 20
-4508.786
 30
2332.843
 70
    32
  0
VERTEX
  8
T29SSILL
 62
6
 10
2246.355
 20
-4519.095
 30
2332.836
 70
    32
  0
VERTEX
  8
T29SSILL
 62
6
 10
2275.465
 20
-4482.031
 30
2332.838
 70
    32
  0
VERTEX
  8
T29SSILL
 62
6
 10
2267.210
 20
-4484.501
 30
2332.843
 70
    32
  0
SEQEND
  8
T29SSILL
  0
POLYLINE
  8
T29SSILL
 62
6
 66
     1
 70
     9
  0
VERTEX
  8
T29SSILL
 62
6
 10
1103.419
 20
-3486.878
 30
2336.025
 70
    32
  0
VERTEX
  8
T29SSILL
 62
6
 10
1098.263
 20
-3493.079
 30
2336.041
 70
    32
  0
VERTEX
  8
T29SSILL
 62
6
 10
1092.820
 20
-3487.939
 30
2336.066
 70
    32
  0
VERTEX
  8
T29SSILL
 62
6
 10
1091.759
 20
-3479.369
 30
2336.076
 70
    32
  0
VERTEX
  8
T29SSILL
 62
6
 10
1084.530
 20
-3470.216
 30
2336.101
 70
    32
  0
VERTEX
  8
T29SSILL
 62
6
 10
1080.961
 20
-3460.479
 30
2336.079
 70
    32
  0
VERTEX
  8
T29SSILL
 62
6
 10
1074.084
 20
-3452.153
 30
2336.075
 70
    32
  0
VERTEX
  8
T29SSILL
 62
6
 10
1076.459
 20
-3426.912
 30
2335.972
 70
    32
  0
VERTEX
  8
T29SSILL
 62
6
 10
1069.829
 20
-3412.861
 30
2335.946
 70
    32
  0
VERTEX
  8
T29SSILL
 62
6
 10
1065.392
 20
-3415.900
 30
2335.974
 70
    32
  0
VERTEX
  8
T29SSILL
 62
6
 10
1062.406
 20
-3411.053
 30
2335.967
 70
    32
  0
VERTEX
  8
T29SSILL
 62
6
 10
1049.622
 20
-3420.347
 30
2336.051
 70
    32
  0
VERTEX
  8
T29SSILL
 62
6
 10
1045.813
 20
-3431.024
 30
2336.105
 70
    32
  0
VERTEX
  8
T29SSILL
 62
6
 10
1047.306
 20
-3437.205
 30
2336.122
 70
    32
  0
VERTEX
  8
T29SSILL
 62
6
 10
1125.833
 20
-3539.880
 30
2335.906
 70
    32
  0
VERTEX
  8
T29SSILL
 62
6
 10
1128.805
 20
-3537.817
 30
2335.896
 70
    32
  0
VERTEX
  8
T29SSILL
 62
6
 10
1111.293
 20
-3514.297
 30
2335.975
 70
    32
  0
VERTEX
  8
T29SSILL
 62
6
 10
1114.312
 20
-3512.328
 30
2335.965
 70
    32
  0
VERTEX
  8
T29SSILL
 62
6
 10
1113.709
 20
-3509.633
 30
2335.969
 70
    32
  0
VERTEX
  8
T29SSILL
 62
6
 10
1114.956
 20
-3503.203
 30
2335.968
 70
    32
  0
VERTEX
  8
T29SSILL
 62
6
 10
1113.656
 20
-3497.718
 30
2335.977
 70
    32
  0
VERTEX
  8
T29SSILL
 62
6
 10
1125.780
 20
-3487.904
 30
2335.937
 70
    32
  0
VERTEX
  8
T29SSILL
 62
6
 10
1132.868
 20
-3489.986
 30
2335.907
 70
    32
  0
VERTEX
  8
T29SSILL
 62
6
 10
1142.479
 20
-3503.724
 30
2335.860
 70
    32
  0
VERTEX
  8
T29SSILL
 62
6
 10
1145.945
 20
-3506.086
 30
2335.845
 70
    32
  0
VERTEX
  8
T29SSILL
 62
6
 10
1147.694
 20
-3509.372
 30
2335.836
 70
    32
  0
VERTEX
  8
T29SSILL
 62
6
 10
1145.627
 20
-3515.663
 30
2335.840
 70
    32
  0
VERTEX
  8
T29SSILL
 62
6
 10
1150.683
 20
-3522.624
 30
2335.819
 70
    32
  0
VERTEX
  8
T29SSILL
 62
6
 10
1198.548
 20
-3489.387
 30
2335.651
 70
    32
  0
VERTEX
  8
T29SSILL
 62
6
 10
1209.057
 20
-3485.869
 30
2335.616
 70
    32
  0
VERTEX
  8
T29SSILL
 62
6
 10
1222.565
 20
-3484.385
 30
2335.574
 70
    32
  0
VERTEX
  8
T29SSILL
 62
6
 10
1236.422
 20
-3486.256
 30
2335.534
 70
    32
  0
VERTEX
  8
T29SSILL
 62
6
 10
1240.658
 20
-3487.939
 30
2335.522
 70
    32
  0
VERTEX
  8
T29SSILL
 62
6
 10
1192.182
 20
-3426.085
 30
2335.610
 70
    32
  0
VERTEX
  8
T29SSILL
 62
6
 10
1180.268
 20
-3422.981
 30
2335.629
 70
    32
  0
VERTEX
  8
T29SSILL
 62
6
 10
1172.940
 20
-3424.207
 30
2335.639
 70
    32
  0
VERTEX
  8
T29SSILL
 62
6
 10
1168.522
 20
-3427.556
 30
2335.645
 70
    32
  0
VERTEX
  8
T29SSILL
 62
6
 10
1164.202
 20
-3422.696
 30
2335.653
 70
    32
  0
VERTEX
  8
T29SSILL
 62
6
 10
1173.301
 20
-3417.587
 30
2335.641
 70
    32
  0
VERTEX
  8
T29SSILL
 62
6
 10
1184.161
 20
-3416.365
 30
2335.625
 70
    32
  0
VERTEX
  8
T29SSILL
 62
6
 10
1138.417
 20
-3355.741
 30
2335.710
 70
    32
  0
VERTEX
  8
T29SSILL
 62
6
 10
1081.487
 20
-3396.651
 30
2335.841
 70
    32
  0
VERTEX
  8
T29SSILL
 62
6
 10
1081.870
 20
-3407.821
 30
2335.881
 70
    32
  0
VERTEX
  8
T29SSILL
 62
6
 10
1084.486
 20
-3417.569
 30
2335.907
 70
    32
  0
VERTEX
  8
T29SSILL
 62
6
 10
1085.628
 20
-3430.784
 30
2335.951
 70
    32
  0
VERTEX
  8
T29SSILL
 62
6
 10
1092.015
 20
-3448.849
 30
2335.994
 70
    32
  0
VERTEX
  8
T29SSILL
 62
6
 10
1092.878
 20
-3461.187
 30
2336.036
 70
    32
  0
VERTEX
  8
T29SSILL
 62
6
 10
1096.012
 20
-3465.451
 30
2336.040
 70
    32
  0
VERTEX
  8
T29SSILL
 62
6
 10
1098.261
 20
-3471.958
 30
2336.055
 70
    32
  0
SEQEND
  8
T29SSILL
  0
POLYLINE
  8
T29SSILL
 62
6
 66
     1
 70
     9
  0
VERTEX
  8
T29SSILL
 62
6
 10
1030.989
 20
-3331.648
 30
2335.879
 70
    32
  0
VERTEX
  8
T29SSILL
 62
6
 10
1066.301
 20
-3382.901
 30
2335.848
 70
    32
  0
VERTEX
  8
T29SSILL
 62
6
 10
1075.031
 20
-3392.766
 30
2335.851
 70
    32
  0
VERTEX
  8
T29SSILL
 62
6
 10
1134.842
 20
-3349.428
 30
2335.718
 70
    32
  0
VERTEX
  8
T29SSILL
 62
6
 10
1013.729
 20
-3194.413
 30
2335.943
 70
    32
  0
VERTEX
  8
T29SSILL
 62
6
 10
1004.283
 20
-3187.953
 30
2335.959
 70
    32
  0
VERTEX
  8
T29SSILL
 62
6
 10
1000.404
 20
-3186.656
 30
2335.966
 70
    32
  0
VERTEX
  8
T29SSILL
 62
6
 10
995.605
 20
-3186.202
 30
2335.973
 70
    32
  0
VERTEX
  8
T29SSILL
 62
6
 10
987.606
 20
-3187.940
 30
2335.985
 70
    32
  0
VERTEX
  8
T29SSILL
 62
6
 10
955.096
 20
-3210.523
 30
2336.027
 70
    32
  0
VERTEX
  8
T29SSILL
 62
6
 10
949.988
 20
-3240.199
 30
2336.026
 70
    32
  0
VERTEX
  8
T29SSILL
 62
6
 10
956.039
 20
-3241.078
 30
2336.017
 70
    32
  0
VERTEX
  8
T29SSILL
 62
6
 10
953.646
 20
-3253.187
 30
2336.017
 70
    32
  0
VERTEX
  8
T29SSILL
 62
6
 10
947.569
 20
-3252.114
 30
2336.027
 70
    32
  0
VERTEX
  8
T29SSILL
 62
6
 10
945.715
 20
-3260.328
 30
2336.027
 70
    32
  0
VERTEX
  8
T29SSILL
 62
6
 10
939.947
 20
-3268.445
 30
2336.034
 70
    32
  0
VERTEX
  8
T29SSILL
 62
6
 10
944.338
 20
-3273.452
 30
2336.026
 70
    32
  0
VERTEX
  8
T29SSILL
 62
6
 10
932.240
 20
-3281.843
 30
2336.041
 70
    32
  0
VERTEX
  8
T29SSILL
 62
6
 10
934.608
 20
-3285.457
 30
2336.037
 70
    32
  0
VERTEX
  8
T29SSILL
 62
6
 10
940.060
 20
-3281.404
 30
2336.030
 70
    32
  0
VERTEX
  8
T29SSILL
 62
6
 10
956.062
 20
-3299.936
 30
2336.000
 70
    32
  0
VERTEX
  8
T29SSILL
 62
6
 10
965.976
 20
-3318.470
 30
2335.994
 70
    32
  0
VERTEX
  8
T29SSILL
 62
6
 10
962.550
 20
-3322.205
 30
2336.021
 70
    32
  0
VERTEX
  8
T29SSILL
 62
6
 10
1027.300
 20
-3410.344
 30
2336.099
 70
    32
  0
VERTEX
  8
T29SSILL
 62
6
 10
1035.154
 20
-3412.826
 30
2336.078
 70
    32
  0
VERTEX
  8
T29SSILL
 62
6
 10
1047.073
 20
-3411.428
 30
2336.027
 70
    32
  0
VERTEX
  8
T29SSILL
 62
6
 10
1068.307
 20
-3398.624
 30
2335.899
 70
    32
  0
VERTEX
  8
T29SSILL
 62
6
 10
1026.151
 20
-3340.403
 30
2335.884
 70
    32
  0
VERTEX
  8
T29SSILL
 62
6
 10
1024.724
 20
-3341.067
 30
2335.886
 70
    32
  0
VERTEX
  8
T29SSILL
 62
6
 10
1010.608
 20
-3318.892
 30
2335.913
 70
    32
  0
VERTEX
  8
T29SSILL
 62
6
 10
1019.103
 20
-3313.823
 30
2335.902
 70
    32
  0
VERTEX
  8
T29SSILL
 62
6
 10
1025.844
 20
-3324.914
 30
2335.888
 70
    32
  0
VERTEX
  8
T29SSILL
 62
6
 10
1029.736
 20
-3329.193
 30
2335.881
 70
    32
  0
SEQEND
  8
T29SSILL
  0
POLYLINE
  8
T29SSILL
 62
6
 66
     1
 70
     9
  0
VERTEX
  8
T29SSILL
 62
6
 10
902.177
 20
-3410.669
 30
2336.431
 70
    32
  0
VERTEX
  8
T29SSILL
 62
6
 10
902.258
 20
-3403.454
 30
2336.423
 70
    32
  0
VERTEX
  8
T29SSILL
 62
6
 10
908.367
 20
-3395.211
 30
2336.403
 70
    32
  0
VERTEX
  8
T29SSILL
 62
6
 10
911.491
 20
-3392.751
 30
2336.394
 70
    32
  0
VERTEX
  8
T29SSILL
 62
6
 10
843.446
 20
-3383.572
 30
2336.519
 70
    32
  0
VERTEX
  8
T29SSILL
 62
6
 10
780.210
 20
-3428.692
 30
2336.607
 70
    32
  0
VERTEX
  8
T29SSILL
 62
6
 10
777.325
 20
-3434.621
 30
2336.565
 70
    32
  0
VERTEX
  8
T29SSILL
 62
6
 10
777.091
 20
-3443.330
 30
2336.502
 70
    32
  0
VERTEX
  8
T29SSILL
 62
6
 10
842.051
 20
-3532.728
 30
2336.369
 70
    32
  0
VERTEX
  8
T29SSILL
 62
6
 10
835.473
 20
-3536.697
 30
2336.374
 70
    32
  0
VERTEX
  8
T29SSILL
 62
6
 10
766.252
 20
-3438.892
 30
2336.539
 70
    32
  0
VERTEX
  8
T29SSILL
 62
6
 10
743.968
 20
-3453.939
 30
2336.508
 70
    32
  0
VERTEX
  8
T29SSILL
 62
6
 10
663.853
 20
-3512.327
 30
2336.588
 70
    32
  0
VERTEX
  8
T29SSILL
 62
6
 10
710.751
 20
-3578.939
 30
2336.526
 70
    32
  0
VERTEX
  8
T29SSILL
 62
6
 10
704.557
 20
-3582.220
 30
2336.536
 70
    32
  0
VERTEX
  8
T29SSILL
 62
6
 10
701.369
 20
-3577.565
 30
2336.540
 70
    32
  0
VERTEX
  8
T29SSILL
 62
6
 10
687.947
 20
-3587.611
 30
2336.563
 70
    32
  0
VERTEX
  8
T29SSILL
 62
6
 10
692.232
 20
-3607.755
 30
2336.560
 70
    32
  0
VERTEX
  8
T29SSILL
 62
6
 10
686.413
 20
-3611.740
 30
2336.569
 70
    32
  0
VERTEX
  8
T29SSILL
 62
6
 10
688.980
 20
-3613.616
 30
2336.566
 70
    32
  0
VERTEX
  8
T29SSILL
 62
6
 10
691.230
 20
-3619.554
 30
2336.563
 70
    32
  0
VERTEX
  8
T29SSILL
 62
6
 10
690.096
 20
-3628.665
 30
2336.566
 70
    32
  0
VERTEX
  8
T29SSILL
 62
6
 10
686.737
 20
-3635.773
 30
2336.573
 70
    32
  0
VERTEX
  8
T29SSILL
 62
6
 10
682.561
 20
-3640.129
 30
2336.580
 70
    32
  0
VERTEX
  8
T29SSILL
 62
6
 10
683.095
 20
-3645.747
 30
2336.579
 70
    32
  0
VERTEX
  8
T29SSILL
 62
6
 10
681.511
 20
-3648.114
 30
2336.579
 70
    32
  0
VERTEX
  8
T29SSILL
 62
6
 10
674.968
 20
-3652.915
 30
2336.579
 70
    32
  0
VERTEX
  8
T29SSILL
 62
6
 10
670.316
 20
-3654.391
 30
2336.580
 70
    32
  0
VERTEX
  8
T29SSILL
 62
6
 10
671.200
 20
-3682.207
 30
2336.573
 70
    32
  0
VERTEX
  8
T29SSILL
 62
6
 10
727.318
 20
-3642.194
 30
2336.510
 70
    32
  0
VERTEX
  8
T29SSILL
 62
6
 10
732.154
 20
-3647.861
 30
2336.504
 70
    32
  0
VERTEX
  8
T29SSILL
 62
6
 10
710.942
 20
-3663.006
 30
2336.539
 70
    32
  0
VERTEX
  8
T29SSILL
 62
6
 10
714.429
 20
-3668.098
 30
2336.535
 70
    32
  0
VERTEX
  8
T29SSILL
 62
6
 10
708.104
 20
-3672.749
 30
2336.545
 70
    32
  0
VERTEX
  8
T29SSILL
 62
6
 10
705.081
 20
-3667.554
 30
2336.549
 70
    32
  0
VERTEX
  8
T29SSILL
 62
6
 10
544.093
 20
-3782.285
 30
2336.670
 70
    32
  0
VERTEX
  8
T29SSILL
 62
6
 10
540.185
 20
-3786.564
 30
2336.677
 70
    32
  0
VERTEX
  8
T29SSILL
 62
6
 10
537.633
 20
-3791.731
 30
2336.681
 70
    32
  0
VERTEX
  8
T29SSILL
 62
6
 10
536.446
 20
-3802.481
 30
2336.679
 70
    32
  0
VERTEX
  8
T29SSILL
 62
6
 10
538.724
 20
-3810.644
 30
2336.670
 70
    32
  0
VERTEX
  8
T29SSILL
 62
6
 10
580.248
 20
-3873.778
 30
2336.549
 70
    32
  0
VERTEX
  8
T29SSILL
 62
6
 10
589.581
 20
-3884.910
 30
2336.543
 70
    32
  0
VERTEX
  8
T29SSILL
 62
6
 10
603.121
 20
-3892.200
 30
2336.538
 70
    32
  0
VERTEX
  8
T29SSILL
 62
6
 10
613.791
 20
-3894.830
 30
2336.535
 70
    32
  0
VERTEX
  8
T29SSILL
 62
6
 10
625.160
 20
-3894.738
 30
2336.532
 70
    32
  0
VERTEX
  8
T29SSILL
 62
6
 10
637.953
 20
-3891.106
 30
2336.529
 70
    32
  0
VERTEX
  8
T29SSILL
 62
6
 10
639.703
 20
-3888.856
 30
2336.529
 70
    32
  0
VERTEX
  8
T29SSILL
 62
6
 10
781.071
 20
-3787.777
 30
2336.450
 70
    32
  0
VERTEX
  8
T29SSILL
 62
6
 10
740.799
 20
-3730.700
 30
2336.504
 70
    32
  0
VERTEX
  8
T29SSILL
 62
6
 10
734.856
 20
-3719.928
 30
2336.511
 70
    32
  0
VERTEX
  8
T29SSILL
 62
6
 10
730.138
 20
-3727.861
 30
2336.520
 70
    32
  0
VERTEX
  8
T29SSILL
 62
6
 10
736.959
 20
-3749.368
 30
2336.513
 70
    32
  0
VERTEX
  8
T29SSILL
 62
6
 10
728.199
 20
-3754.832
 30
2336.527
 70
    32
  0
VERTEX
  8
T29SSILL
 62
6
 10
727.556
 20
-3756.234
 30
2336.529
 70
    32
  0
VERTEX
  8
T29SSILL
 62
6
 10
732.056
 20
-3766.081
 30
2336.523
 70
    32
  0
VERTEX
  8
T29SSILL
 62
6
 10
730.744
 20
-3768.689
 30
2336.526
 70
    32
  0
VERTEX
  8
T29SSILL
 62
6
 10
725.430
 20
-3772.008
 30
2336.535
 70
    32
  0
VERTEX
  8
T29SSILL
 62
6
 10
722.531
 20
-3770.895
 30
2336.537
 70
    32
  0
VERTEX
  8
T29SSILL
 62
6
 10
712.333
 20
-3751.166
 30
2336.545
 70
    32
  0
VERTEX
  8
T29SSILL
 62
6
 10
700.369
 20
-3711.383
 30
2336.558
 70
    32
  0
VERTEX
  8
T29SSILL
 62
6
 10
698.974
 20
-3699.516
 30
2336.561
 70
    32
  0
VERTEX
  8
T29SSILL
 62
6
 10
703.296
 20
-3695.061
 30
2336.557
 70
    32
  0
VERTEX
  8
T29SSILL
 62
6
 10
705.386
 20
-3694.057
 30
2336.553
 70
    32
  0
VERTEX
  8
T29SSILL
 62
6
 10
710.726
 20
-3696.705
 30
2336.545
 70
    32
  0
VERTEX
  8
T29SSILL
 62
6
 10
718.910
 20
-3698.046
 30
2336.533
 70
    32
  0
VERTEX
  8
T29SSILL
 62
6
 10
717.063
 20
-3695.036
 30
2336.535
 70
    32
  0
VERTEX
  8
T29SSILL
 62
6
 10
728.915
 20
-3686.599
 30
2336.515
 70
    32
  0
VERTEX
  8
T29SSILL
 62
6
 10
731.953
 20
-3691.036
 30
2336.511
 70
    32
  0
VERTEX
  8
T29SSILL
 62
6
 10
725.843
 20
-3695.221
 30
2336.521
 70
    32
  0
VERTEX
  8
T29SSILL
 62
6
 10
783.907
 20
-3778.864
 30
2336.444
 70
    32
  0
VERTEX
  8
T29SSILL
 62
6
 10
790.085
 20
-3779.490
 30
2336.434
 70
    32
  0
VERTEX
  8
T29SSILL
 62
6
 10
791.055
 20
-3780.727
 30
2336.433
 70
    32
  0
VERTEX
  8
T29SSILL
 62
6
 10
1115.937
 20
-3547.371
 30
2335.922
 70
    32
  0
VERTEX
  8
T29SSILL
 62
6
 10
1116.301
 20
-3538.809
 30
2335.933
 70
    32
  0
VERTEX
  8
T29SSILL
 62
6
 10
1079.107
 20
-3491.270
 30
2336.109
 70
    32
  0
VERTEX
  8
T29SSILL
 62
6
 10
1022.648
 20
-3531.366
 30
2336.183
 70
    32
  0
VERTEX
  8
T29SSILL
 62
6
 10
1018.772
 20
-3525.447
 30
2336.189
 70
    32
  0
VERTEX
  8
T29SSILL
 62
6
 10
1069.311
 20
-3489.051
 30
2336.139
 70
    32
  0
VERTEX
  8
T29SSILL
 62
6
 10
1071.614
 20
-3482.875
 30
2336.143
 70
    32
  0
VERTEX
  8
T29SSILL
 62
6
 10
1071.354
 20
-3478.813
 30
2336.150
 70
    32
  0
VERTEX
  8
T29SSILL
 62
6
 10
1033.895
 20
-3431.451
 30
2336.152
 70
    32
  0
VERTEX
  8
T29SSILL
 62
6
 10
991.396
 20
-3461.677
 30
2336.274
 70
    32
  0
VERTEX
  8
T29SSILL
 62
6
 10
989.978
 20
-3466.178
 30
2336.247
 70
    32
  0
VERTEX
  8
T29SSILL
 62
6
 10
990.328
 20
-3469.268
 30
2336.245
 70
    32
  0
VERTEX
  8
T29SSILL
 62
6
 10
997.631
 20
-3488.345
 30
2336.229
 70
    32
  0
VERTEX
  8
T29SSILL
 62
6
 10
1000.362
 20
-3492.409
 30
2336.224
 70
    32
  0
VERTEX
  8
T29SSILL
 62
6
 10
995.238
 20
-3496.375
 30
2336.228
 70
    32
  0
VERTEX
  8
T29SSILL
 62
6
 10
991.890
 20
-3490.809
 30
2336.234
 70
    32
  0
VERTEX
  8
T29SSILL
 62
6
 10
991.452
 20
-3487.807
 30
2336.236
 70
    32
  0
VERTEX
  8
T29SSILL
 62
6
 10
982.112
 20
-3474.025
 30
2336.252
 70
    32
  0
VERTEX
  8
T29SSILL
 62
6
 10
982.038
 20
-3462.460
 30
2336.272
 70
    32
  0
VERTEX
  8
T29SSILL
 62
6
 10
977.363
 20
-3459.453
 30
2336.296
 70
    32
  0
VERTEX
  8
T29SSILL
 62
6
 10
975.331
 20
-3460.510
 30
2336.289
 70
    32
  0
VERTEX
  8
T29SSILL
 62
6
 10
972.335
 20
-3456.622
 30
2336.319
 70
    32
  0
VERTEX
  8
T29SSILL
 62
6
 10
954.683
 20
-3448.153
 30
2336.365
 70
    32
  0
VERTEX
  8
T29SSILL
 62
6
 10
945.524
 20
-3455.245
 30
2336.341
 70
    32
  0
VERTEX
  8
T29SSILL
 62
6
 10
942.042
 20
-3450.471
 30
2336.377
 70
    32
  0
VERTEX
  8
T29SSILL
 62
6
 10
935.836
 20
-3454.827
 30
2336.348
 70
    32
  0
VERTEX
  8
T29SSILL
 62
6
 10
928.223
 20
-3444.334
 30
2336.414
 70
    32
  0
VERTEX
  8
T29SSILL
 62
6
 10
934.088
 20
-3440.104
 30
2336.398
 70
    32
  0
VERTEX
  8
T29SSILL
 62
6
 10
930.260
 20
-3435.139
 30
2336.400
 70
    32
  0
VERTEX
  8
T29SSILL
 62
6
 10
935.425
 20
-3431.602
 30
2336.387
 70
    32
  0
VERTEX
  8
T29SSILL
 62
6
 10
941.425
 20
-3440.208
 30
2336.384
 70
    32
  0
VERTEX
  8
T29SSILL
 62
6
 10
948.801
 20
-3431.631
 30
2336.360
 70
    32
  0
VERTEX
  8
T29SSILL
 62
6
 10
946.462
 20
-3424.471
 30
2336.358
 70
    32
  0
VERTEX
  8
T29SSILL
 62
6
 10
927.330
 20
-3433.512
 30
2336.405
 70
    32
  0
VERTEX
  8
T29SSILL
 62
6
 10
921.609
 20
-3433.584
 30
2336.416
 70
    32
  0
VERTEX
  8
T29SSILL
 62
6
 10
908.826
 20
-3422.250
 30
2336.430
 70
    32
  0
VERTEX
  8
T29SSILL
 62
6
 10
906.394
 20
-3421.351
 30
2336.433
 70
    32
  0
VERTEX
  8
T29SSILL
 62
6
 10
902.542
 20
-3414.479
 30
2336.434
 70
    32
  0
SEQEND
  8
T29SSILL
  0
POLYLINE
  8
T29SSILL
 62
6
 66
     1
 70
     9
  0
VERTEX
  8
T29SSILL
 62
6
 10
182.883
 20
-3217.054
 30
2337.582
 70
    32
  0
VERTEX
  8
T29SSILL
 62
6
 10
207.368
 20
-3284.483
 30
2337.652
 70
    32
  0
VERTEX
  8
T29SSILL
 62
6
 10
213.192
 20
-3275.045
 30
2337.640
 70
    32
  0
VERTEX
  8
T29SSILL
 62
6
 10
217.809
 20
-3270.709
 30
2337.627
 70
    32
  0
VERTEX
  8
T29SSILL
 62
6
 10
252.516
 20
-3245.873
 30
2337.535
 70
    32
  0
VERTEX
  8
T29SSILL
 62
6
 10
244.064
 20
-3234.779
 30
2337.540
 70
    32
  0
VERTEX
  8
T29SSILL
 62
6
 10
240.205
 20
-3217.441
 30
2337.531
 70
    32
  0
VERTEX
  8
T29SSILL
 62
6
 10
241.046
 20
-3214.300
 30
2337.526
 70
    32
  0
VERTEX
  8
T29SSILL
 62
6
 10
245.884
 20
-3208.102
 30
2337.510
 70
    32
  0
VERTEX
  8
T29SSILL
 62
6
 10
251.130
 20
-3197.351
 30
2337.490
 70
    32
  0
VERTEX
  8
T29SSILL
 62
6
 10
249.242
 20
-3187.104
 30
2337.483
 70
    32
  0
VERTEX
  8
T29SSILL
 62
6
 10
254.511
 20
-3178.260
 30
2337.464
 70
    32
  0
VERTEX
  8
T29SSILL
 62
6
 10
254.177
 20
-3174.963
 30
2337.462
 70
    32
  0
VERTEX
  8
T29SSILL
 62
6
 10
257.976
 20
-3167.874
 30
2337.447
 70
    32
  0
VERTEX
  8
T29SSILL
 62
6
 10
252.509
 20
-3160.826
 30
2337.451
 70
    32
  0
VERTEX
  8
T29SSILL
 62
6
 10
248.300
 20
-3158.580
 30
2337.457
 70
    32
  0
VERTEX
  8
T29SSILL
 62
6
 10
244.628
 20
-3160.239
 30
2337.465
 70
    32
  0
VERTEX
  8
T29SSILL
 62
6
 10
247.712
 20
-3164.431
 30
2337.464
 70
    32
  0
VERTEX
  8
T29SSILL
 62
6
 10
242.020
 20
-3168.757
 30
2337.479
 70
    32
  0
VERTEX
  8
T29SSILL
 62
6
 10
239.085
 20
-3164.783
 30
2337.481
 70
    32
  0
VERTEX
  8
T29SSILL
 62
6
 10
236.604
 20
-3165.841
 30
2337.486
 70
    32
  0
VERTEX
  8
T29SSILL
 62
6
 10
235.018
 20
-3164.149
 30
2337.488
 70
    32
  0
VERTEX
  8
T29SSILL
 62
6
 10
191.084
 20
-3196.265
 30
2337.567
 70
    32
  0
VERTEX
  8
T29SSILL
 62
6
 10
184.298
 20
-3203.049
 30
2337.570
 70
    32
  0
VERTEX
  8
T29SSILL
 62
6
 10
182.583
 20
-3214.588
 30
2337.580
 70
    32
  0
SEQEND
  8
T29SSILL
  0
POLYLINE
  8
T29SSILL
 62
6
 66
     1
 70
     9
  0
VERTEX
  8
T29SSILL
 62
6
 10
289.492
 20
-3004.503
 30
2337.224
 70
    32
  0
VERTEX
  8
T29SSILL
 62
6
 10
333.283
 20
-3067.046
 30
2337.202
 70
    32
  0
VERTEX
  8
T29SSILL
 62
6
 10
334.719
 20
-3076.321
 30
2337.208
 70
    32
  0
VERTEX
  8
T29SSILL
 62
6
 10
330.932
 20
-3086.393
 30
2337.226
 70
    32
  0
VERTEX
  8
T29SSILL
 62
6
 10
323.701
 20
-3092.841
 30
2337.246
 70
    32
  0
VERTEX
  8
T29SSILL
 62
6
 10
254.983
 20
-3141.502
 30
2337.427
 70
    32
  0
VERTEX
  8
T29SSILL
 62
6
 10
246.852
 20
-3128.692
 30
2337.430
 70
    32
  0
VERTEX
  8
T29SSILL
 62
6
 10
242.332
 20
-3127.085
 30
2337.437
 70
    32
  0
VERTEX
  8
T29SSILL
 62
6
 10
238.182
 20
-3119.777
 30
2337.438
 70
    32
  0
VERTEX
  8
T29SSILL
 62
6
 10
228.859
 20
-3113.339
 30
2337.449
 70
    32
  0
VERTEX
  8
T29SSILL
 62
6
 10
224.396
 20
-3108.382
 30
2337.453
 70
    32
  0
VERTEX
  8
T29SSILL
 62
6
 10
219.701
 20
-3098.561
 30
2337.452
 70
    32
  0
VERTEX
  8
T29SSILL
 62
6
 10
219.412
 20
-3095.019
 30
2337.450
 70
    32
  0
VERTEX
  8
T29SSILL
 62
6
 10
217.590
 20
-3095.947
 30
2337.454
 70
    32
  0
VERTEX
  8
T29SSILL
 62
6
 10
215.008
 20
-3094.830
 30
2337.458
 70
    32
  0
VERTEX
  8
T29SSILL
 62
6
 10
211.735
 20
-3097.071
 30
2337.466
 70
    32
  0
VERTEX
  8
T29SSILL
 62
6
 10
207.362
 20
-3097.395
 30
2337.475
 70
    32
  0
VERTEX
  8
T29SSILL
 62
6
 10
204.389
 20
-3102.102
 30
2337.486
 70
    32
  0
VERTEX
  8
T29SSILL
 62
6
 10
200.396
 20
-3105.477
 30
2337.489
 70
    32
  0
VERTEX
  8
T29SSILL
 62
6
 10
200.206
 20
-3109.881
 30
2337.493
 70
    32
  0
VERTEX
  8
T29SSILL
 62
6
 10
211.190
 20
-3122.020
 30
2337.492
 70
    32
  0
VERTEX
  8
T29SSILL
 62
6
 10
227.674
 20
-3128.148
 30
2337.466
 70
    32
  0
VERTEX
  8
T29SSILL
 62
6
 10
238.494
 20
-3142.856
 30
2337.460
 70
    32
  0
VERTEX
  8
T29SSILL
 62
6
 10
239.848
 20
-3149.515
 30
2337.464
 70
    32
  0
VERTEX
  8
T29SSILL
 62
6
 10
229.437
 20
-3159.744
 30
2337.494
 70
    32
  0
VERTEX
  8
T29SSILL
 62
6
 10
183.367
 20
-3193.108
 30
2337.561
 70
    32
  0
VERTEX
  8
T29SSILL
 62
6
 10
177.098
 20
-3202.209
 30
2337.567
 70
    32
  0
VERTEX
  8
T29SSILL
 62
6
 10
146.718
 20
-3120.866
 30
2337.482
 70
    32
  0
VERTEX
  8
T29SSILL
 62
6
 10
147.454
 20
-3113.203
 30
2337.475
 70
    32
  0
VERTEX
  8
T29SSILL
 62
6
 10
149.780
 20
-3107.550
 30
2337.471
 70
    32
  0
VERTEX
  8
T29SSILL
 62
6
 10
152.830
 20
-3103.111
 30
2337.468
 70
    32
  0
VERTEX
  8
T29SSILL
 62
6
 10
175.918
 20
-3085.804
 30
2337.462
 70
    32
  0
VERTEX
  8
T29SSILL
 62
6
 10
186.070
 20
-3095.948
 30
2337.475
 70
    32
  0
VERTEX
  8
T29SSILL
 62
6
 10
196.507
 20
-3099.486
 30
2337.482
 70
    32
  0
VERTEX
  8
T29SSILL
 62
6
 10
208.018
 20
-3091.175
 30
2337.468
 70
    32
  0
VERTEX
  8
T29SSILL
 62
6
 10
202.014
 20
-3082.251
 30
2337.469
 70
    32
  0
VERTEX
  8
T29SSILL
 62
6
 10
199.955
 20
-3075.968
 30
2337.462
 70
    32
  0
VERTEX
  8
T29SSILL
 62
6
 10
199.918
 20
-3069.049
 30
2337.456
 70
    32
  0
VERTEX
  8
T29SSILL
 62
6
 10
228.852
 20
-3047.952
 30
2337.385
 70
    32
  0
VERTEX
  8
T29SSILL
 62
6
 10
233.308
 20
-3054.304
 30
2337.382
 70
    32
  0
VERTEX
  8
T29SSILL
 62
6
 10
239.391
 20
-3049.924
 30
2337.366
 70
    32
  0
VERTEX
  8
T29SSILL
 62
6
 10
235.230
 20
-3043.692
 30
2337.368
 70
    32
  0
VERTEX
  8
T29SSILL
 62
6
 10
276.235
 20
-3014.009
 30
2337.260
 70
    32
  0
VERTEX
  8
T29SSILL
 62
6
 10
280.841
 20
-3020.578
 30
2337.257
 70
    32
  0
VERTEX
  8
T29SSILL
 62
6
 10
286.774
 20
-3015.981
 30
2337.241
 70
    32
  0
VERTEX
  8
T29SSILL
 62
6
 10
282.272
 20
-3009.875
 30
2337.244
 70
    32
  0
SEQEND
  8
T29SSILL
  0
POLYLINE
  8
T29SSILL
 62
6
 66
     1
 70
     9
  0
VERTEX
  8
T29SSILL
 62
6
 10
461.983
 20
-3108.628
 30
2336.991
 70
    32
  0
VERTEX
  8
T29SSILL
 62
6
 10
463.903
 20
-3121.418
 30
2337.000
 70
    32
  0
VERTEX
  8
T29SSILL
 62
6
 10
493.706
 20
-3099.406
 30
2336.919
 70
    32
  0
VERTEX
  8
T29SSILL
 62
6
 10
493.593
 20
-3094.248
 30
2336.914
 70
    32
  0
VERTEX
  8
T29SSILL
 62
6
 10
492.547
 20
-3092.720
 30
2336.914
 70
    32
  0
VERTEX
  8
T29SSILL
 62
6
 10
479.840
 20
-3081.655
 30
2336.928
 70
    32
  0
VERTEX
  8
T29SSILL
 62
6
 10
472.803
 20
-3084.016
 30
2336.944
 70
    32
  0
VERTEX
  8
T29SSILL
 62
6
 10
462.519
 20
-3061.354
 30
2336.941
 70
    32
  0
VERTEX
  8
T29SSILL
 62
6
 10
477.764
 20
-3052.410
 30
2336.880
 70
    32
  0
VERTEX
  8
T29SSILL
 62
6
 10
459.757
 20
-2990.695
 30
2336.834
 70
    32
  0
VERTEX
  8
T29SSILL
 62
6
 10
448.889
 20
-2970.143
 30
2336.856
 70
    32
  0
VERTEX
  8
T29SSILL
 62
6
 10
411.465
 20
-2981.026
 30
2336.910
 70
    32
  0
VERTEX
  8
T29SSILL
 62
6
 10
401.415
 20
-2977.117
 30
2336.926
 70
    32
  0
VERTEX
  8
T29SSILL
 62
6
 10
397.302
 20
-2968.927
 30
2336.934
 70
    32
  0
VERTEX
  8
T29SSILL
 62
6
 10
389.433
 20
-2959.464
 30
2336.949
 70
    32
  0
VERTEX
  8
T29SSILL
 62
6
 10
399.904
 20
-2951.973
 30
2336.935
 70
    32
  0
VERTEX
  8
T29SSILL
 62
6
 10
404.187
 20
-2958.229
 30
2336.927
 70
    32
  0
VERTEX
  8
T29SSILL
 62
6
 10
413.836
 20
-2955.468
 30
2336.913
 70
    32
  0
VERTEX
  8
T29SSILL
 62
6
 10
427.452
 20
-2941.336
 30
2336.897
 70
    32
  0
VERTEX
  8
T29SSILL
 62
6
 10
430.892
 20
-2944.643
 30
2336.891
 70
    32
  0
VERTEX
  8
T29SSILL
 62
6
 10
455.791
 20
-2927.485
 30
2336.858
 70
    32
  0
VERTEX
  8
T29SSILL
 62
6
 10
463.330
 20
-2924.139
 30
2336.848
 70
    32
  0
VERTEX
  8
T29SSILL
 62
6
 10
457.717
 20
-2915.161
 30
2336.859
 70
    32
  0
VERTEX
  8
T29SSILL
 62
6
 10
466.954
 20
-2908.835
 30
2336.846
 70
    32
  0
VERTEX
  8
T29SSILL
 62
6
 10
472.828
 20
-2917.101
 30
2336.835
 70
    32
  0
VERTEX
  8
T29SSILL
 62
6
 10
511.218
 20
-2889.529
 30
2336.785
 70
    32
  0
VERTEX
  8
T29SSILL
 62
6
 10
518.735
 20
-2841.214
 30
2336.788
 70
    32
  0
VERTEX
  8
T29SSILL
 62
6
 10
468.661
 20
-2877.001
 30
2336.853
 70
    32
  0
VERTEX
  8
T29SSILL
 62
6
 10
473.512
 20
-2883.616
 30
2336.844
 70
    32
  0
VERTEX
  8
T29SSILL
 62
6
 10
466.575
 20
-2888.153
 30
2336.853
 70
    32
  0
VERTEX
  8
T29SSILL
 62
6
 10
462.409
 20
-2881.602
 30
2336.861
 70
    32
  0
VERTEX
  8
T29SSILL
 62
6
 10
445.347
 20
-2893.821
 30
2336.883
 70
    32
  0
VERTEX
  8
T29SSILL
 62
6
 10
450.860
 20
-2900.624
 30
2336.873
 70
    32
  0
VERTEX
  8
T29SSILL
 62
6
 10
451.565
 20
-2912.108
 30
2336.869
 70
    32
  0
VERTEX
  8
T29SSILL
 62
6
 10
453.409
 20
-2916.829
 30
2336.865
 70
    32
  0
VERTEX
  8
T29SSILL
 62
6
 10
439.802
 20
-2923.796
 30
2336.883
 70
    32
  0
VERTEX
  8
T29SSILL
 62
6
 10
434.608
 20
-2921.049
 30
2336.892
 70
    32
  0
VERTEX
  8
T29SSILL
 62
6
 10
428.249
 20
-2915.039
 30
2336.903
 70
    32
  0
VERTEX
  8
T29SSILL
 62
6
 10
418.873
 20
-2920.071
 30
2336.916
 70
    32
  0
VERTEX
  8
T29SSILL
 62
6
 10
423.599
 20
-2940.234
 30
2336.903
 70
    32
  0
VERTEX
  8
T29SSILL
 62
6
 10
406.674
 20
-2951.718
 30
2336.925
 70
    32
  0
VERTEX
  8
T29SSILL
 62
6
 10
404.553
 20
-2954.238
 30
2336.928
 70
    32
  0
VERTEX
  8
T29SSILL
 62
6
 10
391.478
 20
-2941.074
 30
2336.951
 70
    32
  0
VERTEX
  8
T29SSILL
 62
6
 10
389.858
 20
-2940.581
 30
2336.954
 70
    32
  0
VERTEX
  8
T29SSILL
 62
6
 10
384.434
 20
-2944.830
 30
2336.961
 70
    32
  0
VERTEX
  8
T29SSILL
 62
6
 10
381.211
 20
-2939.344
 30
2336.967
 70
    32
  0
VERTEX
  8
T29SSILL
 62
6
 10
319.767
 20
-2983.023
 30
2337.143
 70
    32
  0
VERTEX
  8
T29SSILL
 62
6
 10
324.196
 20
-2989.179
 30
2337.141
 70
    32
  0
VERTEX
  8
T29SSILL
 62
6
 10
317.485
 20
-2994.202
 30
2337.159
 70
    32
  0
VERTEX
  8
T29SSILL
 62
6
 10
313.320
 20
-2987.652
 30
2337.161
 70
    32
  0
VERTEX
  8
T29SSILL
 62
6
 10
295.315
 20
-3000.836
 30
2337.210
 70
    32
  0
VERTEX
  8
T29SSILL
 62
6
 10
395.061
 20
-3138.536
 30
2337.153
 70
    32
  0
VERTEX
  8
T29SSILL
 62
6
 10
427.628
 20
-3114.631
 30
2337.065
 70
    32
  0
VERTEX
  8
T29SSILL
 62
6
 10
439.459
 20
-3110.376
 30
2337.037
 70
    32
  0
VERTEX
  8
T29SSILL
 62
6
 10
440.566
 20
-3101.070
 30
2337.025
 70
    32
  0
VERTEX
  8
T29SSILL
 62
6
 10
450.991
 20
-3093.824
 30
2336.997
 70
    32
  0
SEQEND
  8
T29SSILL
  0
POLYLINE
  8
T29SSILL
 62
6
 66
     1
 70
     9
  0
VERTEX
  8
T29SSILL
 62
6
 10
610.570
 20
-2903.233
 30
2336.632
 70
    32
  0
VERTEX
  8
T29SSILL
 62
6
 10
604.192
 20
-2907.494
 30
2336.640
 70
    32
  0
VERTEX
  8
T29SSILL
 62
6
 10
601.046
 20
-2902.276
 30
2336.647
 70
    32
  0
VERTEX
  8
T29SSILL
 62
6
 10
546.726
 20
-2940.756
 30
2336.717
 70
    32
  0
VERTEX
  8
T29SSILL
 62
6
 10
542.699
 20
-2935.500
 30
2336.725
 70
    32
  0
VERTEX
  8
T29SSILL
 62
6
 10
568.900
 20
-2916.810
 30
2336.691
 70
    32
  0
VERTEX
  8
T29SSILL
 62
6
 10
565.930
 20
-2912.005
 30
2336.697
 70
    32
  0
VERTEX
  8
T29SSILL
 62
6
 10
571.726
 20
-2908.143
 30
2336.689
 70
    32
  0
VERTEX
  8
T29SSILL
 62
6
 10
574.937
 20
-2912.675
 30
2336.683
 70
    32
  0
VERTEX
  8
T29SSILL
 62
6
 10
605.743
 20
-2890.724
 30
2336.643
 70
    32
  0
VERTEX
  8
T29SSILL
 62
6
 10
617.192
 20
-2887.159
 30
2336.626
 70
    32
  0
VERTEX
  8
T29SSILL
 62
6
 10
625.418
 20
-2887.936
 30
2336.614
 70
    32
  0
VERTEX
  8
T29SSILL
 62
6
 10
595.433
 20
-2848.207
 30
2336.670
 70
    32
  0
VERTEX
  8
T29SSILL
 62
6
 10
590.541
 20
-2851.985
 30
2336.676
 70
    32
  0
VERTEX
  8
T29SSILL
 62
6
 10
586.338
 20
-2846.315
 30
2336.684
 70
    32
  0
VERTEX
  8
T29SSILL
 62
6
 10
591.429
 20
-2842.828
 30
2336.678
 70
    32
  0
VERTEX
  8
T29SSILL
 62
6
 10
576.004
 20
-2823.580
 30
2336.714
 70
    32
  0
VERTEX
  8
T29SSILL
 62
6
 10
565.486
 20
-2817.427
 30
2336.737
 70
    32
  0
VERTEX
  8
T29SSILL
 62
6
 10
556.066
 20
-2816.933
 30
2336.752
 70
    32
  0
VERTEX
  8
T29SSILL
 62
6
 10
548.810
 20
-2819.444
 30
2336.761
 70
    32
  0
VERTEX
  8
T29SSILL
 62
6
 10
539.044
 20
-2826.559
 30
2336.769
 70
    32
  0
VERTEX
  8
T29SSILL
 62
6
 10
543.251
 20
-2832.546
 30
2336.756
 70
    32
  0
VERTEX
  8
T29SSILL
 62
6
 10
536.981
 20
-2837.588
 30
2336.761
 70
    32
  0
VERTEX
  8
T29SSILL
 62
6
 10
532.597
 20
-2831.187
 30
2336.774
 70
    32
  0
VERTEX
  8
T29SSILL
 62
6
 10
527.196
 20
-2835.314
 30
2336.778
 70
    32
  0
VERTEX
  8
T29SSILL
 62
6
 10
516.647
 20
-2895.428
 30
2336.775
 70
    32
  0
VERTEX
  8
T29SSILL
 62
6
 10
493.152
 20
-2911.517
 30
2336.806
 70
    32
  0
VERTEX
  8
T29SSILL
 62
6
 10
496.788
 20
-2916.827
 30
2336.799
 70
    32
  0
VERTEX
  8
T29SSILL
 62
6
 10
475.740
 20
-2931.027
 30
2336.827
 70
    32
  0
VERTEX
  8
T29SSILL
 62
6
 10
479.568
 20
-2935.992
 30
2336.820
 70
    32
  0
VERTEX
  8
T29SSILL
 62
6
 10
485.988
 20
-2931.168
 30
2336.812
 70
    32
  0
VERTEX
  8
T29SSILL
 62
6
 10
495.547
 20
-2942.787
 30
2336.794
 70
    32
  0
VERTEX
  8
T29SSILL
 62
6
 10
498.921
 20
-2954.580
 30
2336.785
 70
    32
  0
VERTEX
  8
T29SSILL
 62
6
 10
494.435
 20
-2959.575
 30
2336.791
 70
    32
  0
VERTEX
  8
T29SSILL
 62
6
 10
480.082
 20
-2967.481
 30
2336.810
 70
    32
  0
VERTEX
  8
T29SSILL
 62
6
 10
473.822
 20
-2961.617
 30
2336.821
 70
    32
  0
VERTEX
  8
T29SSILL
 62
6
 10
470.241
 20
-2960.757
 30
2336.827
 70
    32
  0
VERTEX
  8
T29SSILL
 62
6
 10
468.312
 20
-2960.903
 30
2336.830
 70
    32
  0
VERTEX
  8
T29SSILL
 62
6
 10
462.527
 20
-2965.719
 30
2336.837
 70
    32
  0
VERTEX
  8
T29SSILL
 62
6
 10
472.976
 20
-2980.040
 30
2336.817
 70
    32
  0
VERTEX
  8
T29SSILL
 62
6
 10
482.060
 20
-2983.008
 30
2336.803
 70
    32
  0
VERTEX
  8
T29SSILL
 62
6
 10
510.700
 20
-3030.604
 30
2336.746
 70
    32
  0
VERTEX
  8
T29SSILL
 62
6
 10
507.959
 20
-3032.374
 30
2336.750
 70
    32
  0
VERTEX
  8
T29SSILL
 62
6
 10
519.853
 20
-3052.865
 30
2336.726
 70
    32
  0
VERTEX
  8
T29SSILL
 62
6
 10
517.905
 20
-3055.481
 30
2336.737
 70
    32
  0
VERTEX
  8
T29SSILL
 62
6
 10
525.753
 20
-3067.096
 30
2336.750
 70
    32
  0
VERTEX
  8
T29SSILL
 62
6
 10
530.450
 20
-3073.175
 30
2336.755
 70
    32
  0
VERTEX
  8
T29SSILL
 62
6
 10
540.189
 20
-3065.865
 30
2336.692
 70
    32
  0
VERTEX
  8
T29SSILL
 62
6
 10
593.586
 20
-3045.540
 30
2336.617
 70
    32
  0
VERTEX
  8
T29SSILL
 62
6
 10
665.056
 20
-2994.033
 30
2336.524
 70
    32
  0
VERTEX
  8
T29SSILL
 62
6
 10
658.416
 20
-2985.117
 30
2336.537
 70
    32
  0
VERTEX
  8
T29SSILL
 62
6
 10
666.490
 20
-2979.588
 30
2336.526
 70
    32
  0
VERTEX
  8
T29SSILL
 62
6
 10
660.970
 20
-2974.179
 30
2336.536
 70
    32
  0
VERTEX
  8
T29SSILL
 62
6
 10
648.786
 20
-2967.778
 30
2336.556
 70
    32
  0
VERTEX
  8
T29SSILL
 62
6
 10
639.426
 20
-2974.081
 30
2336.569
 70
    32
  0
VERTEX
  8
T29SSILL
 62
6
 10
643.395
 20
-2978.628
 30
2336.561
 70
    32
  0
VERTEX
  8
T29SSILL
 62
6
 10
636.002
 20
-2983.905
 30
2336.571
 70
    32
  0
VERTEX
  8
T29SSILL
 62
6
 10
632.738
 20
-2978.981
 30
2336.577
 70
    32
  0
VERTEX
  8
T29SSILL
 62
6
 10
573.897
 20
-3021.626
 30
2336.654
 70
    32
  0
VERTEX
  8
T29SSILL
 62
6
 10
570.184
 20
-3016.048
 30
2336.661
 70
    32
  0
VERTEX
  8
T29SSILL
 62
6
 10
668.628
 20
-2945.107
 30
2336.533
 70
    32
  0
VERTEX
  8
T29SSILL
 62
6
 10
651.077
 20
-2921.973
 30
2336.566
 70
    32
  0
VERTEX
  8
T29SSILL
 62
6
 10
645.522
 20
-2925.564
 30
2336.573
 70
    32
  0
VERTEX
  8
T29SSILL
 62
6
 10
637.985
 20
-2915.338
 30
2336.587
 70
    32
  0
VERTEX
  8
T29SSILL
 62
6
 10
643.318
 20
-2911.580
 30
2336.580
 70
    32
  0
VERTEX
  8
T29SSILL
 62
6
 10
632.402
 20
-2897.044
 30
2336.601
 70
    32
  0
VERTEX
  8
T29SSILL
 62
6
 10
625.351
 20
-2894.393
 30
2336.612
 70
    32
  0
VERTEX
  8
T29SSILL
 62
6
 10
618.527
 20
-2894.258
 30
2336.622
 70
    32
  0
VERTEX
  8
T29SSILL
 62
6
 10
611.888
 20
-2895.172
 30
2336.632
 70
    32
  0
VERTEX
  8
T29SSILL
 62
6
 10
606.838
 20
-2898.096
 30
2336.639
 70
    32
  0
SEQEND
  8
T29SSILL
  0
POLYLINE
  8
T29SSILL
 62
6
 66
     1
 70
     9
  0
VERTEX
  8
T29SSILL
 62
6
 10
378.361
 20
-2928.473
 30
2336.974
 70
    32
  0
VERTEX
  8
T29SSILL
 62
6
 10
378.735
 20
-2915.289
 30
2336.977
 70
    32
  0
VERTEX
  8
T29SSILL
 62
6
 10
382.816
 20
-2911.105
 30
2336.972
 70
    32
  0
VERTEX
  8
T29SSILL
 62
6
 10
396.403
 20
-2902.549
 30
2336.954
 70
    32
  0
VERTEX
  8
T29SSILL
 62
6
 10
398.019
 20
-2902.724
 30
2336.952
 70
    32
  0
VERTEX
  8
T29SSILL
 62
6
 10
400.065
 20
-2906.024
 30
2336.948
 70
    32
  0
VERTEX
  8
T29SSILL
 62
6
 10
402.723
 20
-2905.380
 30
2336.944
 70
    32
  0
VERTEX
  8
T29SSILL
 62
6
 10
405.184
 20
-2902.733
 30
2336.941
 70
    32
  0
VERTEX
  8
T29SSILL
 62
6
 10
404.106
 20
-2898.663
 30
2336.944
 70
    32
  0
VERTEX
  8
T29SSILL
 62
6
 10
412.598
 20
-2895.305
 30
2336.932
 70
    32
  0
VERTEX
  8
T29SSILL
 62
6
 10
419.783
 20
-2877.242
 30
2336.926
 70
    32
  0
VERTEX
  8
T29SSILL
 62
6
 10
428.103
 20
-2875.818
 30
2336.914
 70
    32
  0
VERTEX
  8
T29SSILL
 62
6
 10
431.308
 20
-2883.775
 30
2336.907
 70
    32
  0
VERTEX
  8
T29SSILL
 62
6
 10
432.643
 20
-2890.874
 30
2336.903
 70
    32
  0
VERTEX
  8
T29SSILL
 62
6
 10
434.969
 20
-2893.021
 30
2336.899
 70
    32
  0
VERTEX
  8
T29SSILL
 62
6
 10
544.952
 20
-2813.966
 30
2336.773
 70
    32
  0
VERTEX
  8
T29SSILL
 62
6
 10
555.443
 20
-2810.094
 30
2336.755
 70
    32
  0
VERTEX
  8
T29SSILL
 62
6
 10
565.422
 20
-2810.312
 30
2336.744
 70
    32
  0
VERTEX
  8
T29SSILL
 62
6
 10
534.840
 20
-2769.709
 30
2336.725
 70
    32
  0
VERTEX
  8
T29SSILL
 62
6
 10
529.098
 20
-2773.962
 30
2336.738
 70
    32
  0
VERTEX
  8
T29SSILL
 62
6
 10
525.254
 20
-2767.726
 30
2336.734
 70
    32
  0
VERTEX
  8
T29SSILL
 62
6
 10
528.746
 20
-2765.335
 30
2336.726
 70
    32
  0
VERTEX
  8
T29SSILL
 62
6
 10
488.258
 20
-2748.184
 30
2336.752
 70
    32
  0
VERTEX
  8
T29SSILL
 62
6
 10
378.398
 20
-2827.262
 30
2336.995
 70
    32
  0
VERTEX
  8
T29SSILL
 62
6
 10
391.874
 20
-2847.097
 30
2336.978
 70
    32
  0
VERTEX
  8
T29SSILL
 62
6
 10
336.417
 20
-2886.570
 30
2337.049
 70
    32
  0
VERTEX
  8
T29SSILL
 62
6
 10
328.815
 20
-2875.000
 30
2337.064
 70
    32
  0
VERTEX
  8
T29SSILL
 62
6
 10
328.808
 20
-2868.594
 30
2337.066
 70
    32
  0
VERTEX
  8
T29SSILL
 62
6
 10
325.173
 20
-2865.313
 30
2337.072
 70
    32
  0
VERTEX
  8
T29SSILL
 62
6
 10
315.816
 20
-2871.934
 30
2337.084
 70
    32
  0
VERTEX
  8
T29SSILL
 62
6
 10
320.273
 20
-2878.285
 30
2337.076
 70
    32
  0
VERTEX
  8
T29SSILL
 62
6
 10
313.921
 20
-2882.742
 30
2337.084
 70
    32
  0
VERTEX
  8
T29SSILL
 62
6
 10
309.687
 20
-2876.559
 30
2337.092
 70
    32
  0
VERTEX
  8
T29SSILL
 62
6
 10
246.896
 20
-2922.016
 30
2337.225
 70
    32
  0
VERTEX
  8
T29SSILL
 62
6
 10
246.241
 20
-2932.294
 30
2337.236
 70
    32
  0
VERTEX
  8
T29SSILL
 62
6
 10
283.606
 20
-2983.424
 30
2337.215
 70
    32
  0
VERTEX
  8
T29SSILL
 62
6
 10
288.386
 20
-2986.348
 30
2337.208
 70
    32
  0
VERTEX
  8
T29SSILL
 62
6
 10
298.512
 20
-2988.496
 30
2337.191
 70
    32
  0
VERTEX
  8
T29SSILL
 62
6
 10
301.782
 20
-2987.967
 30
2337.184
 70
    32
  0
VERTEX
  8
T29SSILL
 62
6
 10
325.556
 20
-2970.725
 30
2337.119
 70
    32
  0
VERTEX
  8
T29SSILL
 62
6
 10
334.912
 20
-2914.954
 30
2337.043
 70
    32
  0
VERTEX
  8
T29SSILL
 62
6
 10
349.938
 20
-2904.130
 30
2337.024
 70
    32
  0
VERTEX
  8
T29SSILL
 62
6
 10
346.459
 20
-2899.674
 30
2337.030
 70
    32
  0
VERTEX
  8
T29SSILL
 62
6
 10
358.292
 20
-2891.677
 30
2337.015
 70
    32
  0
VERTEX
  8
T29SSILL
 62
6
 10
361.377
 20
-2895.869
 30
2337.009
 70
    32
  0
VERTEX
  8
T29SSILL
 62
6
 10
386.555
 20
-2877.558
 30
2336.976
 70
    32
  0
VERTEX
  8
T29SSILL
 62
6
 10
398.774
 20
-2894.621
 30
2336.953
 70
    32
  0
VERTEX
  8
T29SSILL
 62
6
 10
376.929
 20
-2909.687
 30
2336.982
 70
    32
  0
VERTEX
  8
T29SSILL
 62
6
 10
373.615
 20
-2904.691
 30
2336.988
 70
    32
  0
VERTEX
  8
T29SSILL
 62
6
 10
368.573
 20
-2908.250
 30
2336.995
 70
    32
  0
VERTEX
  8
T29SSILL
 62
6
 10
364.918
 20
-2903.381
 30
2337.002
 70
    32
  0
VERTEX
  8
T29SSILL
 62
6
 10
340.631
 20
-2920.653
 30
2337.033
 70
    32
  0
VERTEX
  8
T29SSILL
 62
6
 10
332.807
 20
-2965.866
 30
2337.100
 70
    32
  0
VERTEX
  8
T29SSILL
 62
6
 10
378.735
 20
-2932.919
 30
2336.972
 70
    32
  0
SEQEND
  8
T29SSILL
  0
POLYLINE
  8
T29SSILL
 62
6
 66
     1
 70
     9
  0
VERTEX
  8
T29SSILL
 62
6
 10
855.414
 20
-3001.298
 30
2336.236
 70
    32
  0
VERTEX
  8
T29SSILL
 62
6
 10
862.483
 20
-3001.479
 30
2336.225
 70
    32
  0
VERTEX
  8
T29SSILL
 62
6
 10
827.767
 20
-2956.869
 30
2336.290
 70
    32
  0
VERTEX
  8
T29SSILL
 62
6
 10
818.333
 20
-2949.333
 30
2336.306
 70
    32
  0
VERTEX
  8
T29SSILL
 62
6
 10
812.236
 20
-2948.700
 30
2336.316
 70
    32
  0
VERTEX
  8
T29SSILL
 62
6
 10
806.427
 20
-2949.579
 30
2336.324
 70
    32
  0
VERTEX
  8
T29SSILL
 62
6
 10
799.788
 20
-2952.523
 30
2336.333
 70
    32
  0
VERTEX
  8
T29SSILL
 62
6
 10
731.024
 20
-3001.428
 30
2336.423
 70
    32
  0
VERTEX
  8
T29SSILL
 62
6
 10
742.790
 20
-3017.519
 30
2336.401
 70
    32
  0
VERTEX
  8
T29SSILL
 62
6
 10
735.260
 20
-3023.530
 30
2336.410
 70
    32
  0
VERTEX
  8
T29SSILL
 62
6
 10
742.440
 20
-3032.610
 30
2336.397
 70
    32
  0
VERTEX
  8
T29SSILL
 62
6
 10
761.808
 20
-3018.920
 30
2336.372
 70
    32
  0
VERTEX
  8
T29SSILL
 62
6
 10
811.682
 20
-3027.934
 30
2336.294
 70
    32
  0
VERTEX
  8
T29SSILL
 62
6
 10
846.833
 20
-3003.435
 30
2336.248
 70
    32
  0
VERTEX
  8
T29SSILL
 62
6
 10
852.707
 20
-3001.870
 30
2336.240
 70
    32
  0
SEQEND
  8
T29SSILL
  0
POLYLINE
  8
T29SSILL
 62
6
 66
     1
 70
     9
  0
VERTEX
  8
T29SSILL
 62
6
 10
713.832
 20
-2967.897
 30
2336.458
 70
    32
  0
VERTEX
  8
T29SSILL
 62
6
 10
703.381
 20
-2974.948
 30
2336.472
 70
    32
  0
VERTEX
  8
T29SSILL
 62
6
 10
707.729
 20
-2980.518
 30
2336.464
 70
    32
  0
VERTEX
  8
T29SSILL
 62
6
 10
705.547
 20
-2982.012
 30
2336.467
 70
    32
  0
VERTEX
  8
T29SSILL
 62
6
 10
708.378
 20
-2985.522
 30
2336.462
 70
    32
  0
VERTEX
  8
T29SSILL
 62
6
 10
719.163
 20
-2977.710
 30
2336.448
 70
    32
  0
VERTEX
  8
T29SSILL
 62
6
 10
726.528
 20
-2989.869
 30
2336.433
 70
    32
  0
VERTEX
  8
T29SSILL
 62
6
 10
731.316
 20
-2993.429
 30
2336.425
 70
    32
  0
VERTEX
  8
T29SSILL
 62
6
 10
760.935
 20
-2972.397
 30
2336.386
 70
    32
  0
VERTEX
  8
T29SSILL
 62
6
 10
731.784
 20
-2966.577
 30
2336.432
 70
    32
  0
VERTEX
  8
T29SSILL
 62
6
 10
723.378
 20
-2965.940
 30
2336.445
 70
    32
  0
SEQEND
  8
T29SSILL
  0
POLYLINE
  8
T29SSILL
 62
6
 66
     1
 70
     9
  0
VERTEX
  8
T29SSILL
 62
6
 10
809.129
 20
-3154.890
 30
2336.262
 70
    32
  0
VERTEX
  8
T29SSILL
 62
6
 10
790.285
 20
-3167.386
 30
2336.287
 70
    32
  0
VERTEX
  8
T29SSILL
 62
6
 10
796.841
 20
-3177.428
 30
2336.275
 70
    32
  0
VERTEX
  8
T29SSILL
 62
6
 10
786.558
 20
-3184.256
 30
2336.288
 70
    32
  0
VERTEX
  8
T29SSILL
 62
6
 10
789.941
 20
-3188.535
 30
2336.282
 70
    32
  0
VERTEX
  8
T29SSILL
 62
6
 10
781.652
 20
-3192.927
 30
2336.293
 70
    32
  0
VERTEX
  8
T29SSILL
 62
6
 10
779.452
 20
-3196.815
 30
2336.295
 70
    32
  0
VERTEX
  8
T29SSILL
 62
6
 10
772.645
 20
-3241.331
 30
2336.449
 70
    32
  0
VERTEX
  8
T29SSILL
 62
6
 10
664.014
 20
-3318.927
 30
2336.807
 70
    32
  0
VERTEX
  8
T29SSILL
 62
6
 10
645.268
 20
-3307.936
 30
2336.833
 70
    32
  0
VERTEX
  8
T29SSILL
 62
6
 10
624.963
 20
-3322.910
 30
2336.888
 70
    32
  0
VERTEX
  8
T29SSILL
 62
6
 10
635.990
 20
-3338.545
 30
2336.882
 70
    32
  0
VERTEX
  8
T29SSILL
 62
6
 10
605.888
 20
-3360.120
 30
2336.964
 70
    32
  0
VERTEX
  8
T29SSILL
 62
6
 10
600.796
 20
-3353.777
 30
2336.967
 70
    32
  0
VERTEX
  8
T29SSILL
 62
6
 10
591.264
 20
-3350.154
 30
2336.983
 70
    32
  0
VERTEX
  8
T29SSILL
 62
6
 10
591.903
 20
-3348.434
 30
2336.980
 70
    32
  0
VERTEX
  8
T29SSILL
 62
6
 10
584.665
 20
-3338.645
 30
2336.984
 70
    32
  0
VERTEX
  8
T29SSILL
 62
6
 10
604.798
 20
-3323.576
 30
2336.929
 70
    32
  0
VERTEX
  8
T29SSILL
 62
6
 10
601.859
 20
-3319.285
 30
2336.930
 70
    32
  0
VERTEX
  8
T29SSILL
 62
6
 10
606.981
 20
-3316.311
 30
2336.917
 70
    32
  0
VERTEX
  8
T29SSILL
 62
6
 10
595.107
 20
-3299.440
 30
2336.923
 70
    32
  0
VERTEX
  8
T29SSILL
 62
6
 10
611.862
 20
-3282.090
 30
2336.872
 70
    32
  0
VERTEX
  8
T29SSILL
 62
6
 10
625.435
 20
-3286.151
 30
2336.850
 70
    32
  0
VERTEX
  8
T29SSILL
 62
6
 10
641.214
 20
-3272.995
 30
2336.805
 70
    32
  0
VERTEX
  8
T29SSILL
 62
6
 10
638.177
 20
-3252.957
 30
2336.791
 70
    32
  0
VERTEX
  8
T29SSILL
 62
6
 10
699.104
 20
-3208.990
 30
2336.611
 70
    32
  0
VERTEX
  8
T29SSILL
 62
6
 10
703.760
 20
-3215.632
 30
2336.618
 70
    32
  0
VERTEX
  8
T29SSILL
 62
6
 10
710.333
 20
-3211.345
 30
2336.577
 70
    32
  0
VERTEX
  8
T29SSILL
 62
6
 10
704.701
 20
-3204.837
 30
2336.574
 70
    32
  0
VERTEX
  8
T29SSILL
 62
6
 10
724.750
 20
-3190.894
 30
2336.446
 70
    32
  0
VERTEX
  8
T29SSILL
 62
6
 10
729.570
 20
-3196.996
 30
2336.450
 70
    32
  0
VERTEX
  8
T29SSILL
 62
6
 10
735.481
 20
-3192.521
 30
2336.411
 70
    32
  0
VERTEX
  8
T29SSILL
 62
6
 10
731.419
 20
-3186.434
 30
2336.404
 70
    32
  0
VERTEX
  8
T29SSILL
 62
6
 10
751.662
 20
-3172.188
 30
2336.344
 70
    32
  0
VERTEX
  8
T29SSILL
 62
6
 10
755.645
 20
-3177.965
 30
2336.336
 70
    32
  0
VERTEX
  8
T29SSILL
 62
6
 10
761.759
 20
-3174.099
 30
2336.328
 70
    32
  0
VERTEX
  8
T29SSILL
 62
6
 10
757.253
 20
-3167.675
 30
2336.337
 70
    32
  0
VERTEX
  8
T29SSILL
 62
6
 10
774.874
 20
-3155.180
 30
2336.314
 70
    32
  0
VERTEX
  8
T29SSILL
 62
6
 10
787.355
 20
-3165.760
 30
2336.292
 70
    32
  0
VERTEX
  8
T29SSILL
 62
6
 10
809.978
 20
-3154.327
 30
2336.261
 70
    32
  0
SEQEND
  8
T29SSILL
  0
POLYLINE
  8
T29SSILL
 62
6
 66
     1
 70
     9
  0
VERTEX
  8
T29SSILL
 62
6
 10
560.739
 20
-3695.344
 30
2336.668
 70
    32
  0
VERTEX
  8
T29SSILL
 62
6
 10
556.696
 20
-3696.617
 30
2336.677
 70
    32
  0
VERTEX
  8
T29SSILL
 62
6
 10
553.623
 20
-3693.378
 30
2336.686
 70
    32
  0
VERTEX
  8
T29SSILL
 62
6
 10
545.940
 20
-3689.024
 30
2336.706
 70
    32
  0
VERTEX
  8
T29SSILL
 62
6
 10
509.545
 20
-3715.763
 30
2336.781
 70
    32
  0
VERTEX
  8
T29SSILL
 62
6
 10
497.697
 20
-3726.548
 30
2336.804
 70
    32
  0
VERTEX
  8
T29SSILL
 62
6
 10
494.349
 20
-3734.610
 30
2336.809
 70
    32
  0
VERTEX
  8
T29SSILL
 62
6
 10
496.070
 20
-3747.108
 30
2336.799
 70
    32
  0
VERTEX
  8
T29SSILL
 62
6
 10
529.609
 20
-3797.333
 30
2336.698
 70
    32
  0
VERTEX
  8
T29SSILL
 62
6
 10
531.033
 20
-3788.023
 30
2336.698
 70
    32
  0
VERTEX
  8
T29SSILL
 62
6
 10
537.310
 20
-3779.558
 30
2336.687
 70
    32
  0
VERTEX
  8
T29SSILL
 62
6
 10
660.156
 20
-3690.732
 30
2336.574
 70
    32
  0
VERTEX
  8
T29SSILL
 62
6
 10
664.193
 20
-3683.052
 30
2336.575
 70
    32
  0
VERTEX
  8
T29SSILL
 62
6
 10
663.036
 20
-3652.965
 30
2336.582
 70
    32
  0
VERTEX
  8
T29SSILL
 62
6
 10
651.901
 20
-3644.350
 30
2336.588
 70
    32
  0
VERTEX
  8
T29SSILL
 62
6
 10
649.340
 20
-3639.051
 30
2336.590
 70
    32
  0
VERTEX
  8
T29SSILL
 62
6
 10
651.304
 20
-3635.676
 30
2336.590
 70
    32
  0
VERTEX
  8
T29SSILL
 62
6
 10
660.158
 20
-3628.010
 30
2336.590
 70
    32
  0
VERTEX
  8
T29SSILL
 62
6
 10
648.489
 20
-3615.807
 30
2336.596
 70
    32
  0
VERTEX
  8
T29SSILL
 62
6
 10
632.222
 20
-3627.160
 30
2336.597
 70
    32
  0
VERTEX
  8
T29SSILL
 62
6
 10
634.862
 20
-3631.015
 30
2336.595
 70
    32
  0
VERTEX
  8
T29SSILL
 62
6
 10
636.581
 20
-3639.454
 30
2336.593
 70
    32
  0
VERTEX
  8
T29SSILL
 62
6
 10
635.811
 20
-3648.316
 30
2336.591
 70
    32
  0
VERTEX
  8
T29SSILL
 62
6
 10
621.072
 20
-3658.623
 30
2336.592
 70
    32
  0
VERTEX
  8
T29SSILL
 62
6
 10
608.158
 20
-3644.601
 30
2336.599
 70
    32
  0
VERTEX
  8
T29SSILL
 62
6
 10
559.170
 20
-3679.322
 30
2336.679
 70
    32
  0
VERTEX
  8
T29SSILL
 62
6
 10
564.494
 20
-3690.529
 30
2336.661
 70
    32
  0
VERTEX
  8
T29SSILL
 62
6
 10
564.686
 20
-3692.214
 30
2336.660
 70
    32
  0
VERTEX
  8
T29SSILL
 62
6
 10
563.212
 20
-3693.650
 30
2336.663
 70
    32
  0
SEQEND
  8
T29SSILL
  0
POLYLINE
  8
T29SSILL
 62
6
 66
     1
 70
     9
  0
VERTEX
  8
T29SSILL
 62
6
 10
818.070
 20
-3319.210
 30
2336.503
 70
    32
  0
VERTEX
  8
T29SSILL
 62
6
 10
806.650
 20
-3317.201
 30
2336.524
 70
    32
  0
VERTEX
  8
T29SSILL
 62
6
 10
647.994
 20
-3430.656
 30
2336.651
 70
    32
  0
VERTEX
  8
T29SSILL
 62
6
 10
654.415
 20
-3449.551
 30
2336.603
 70
    32
  0
VERTEX
  8
T29SSILL
 62
6
 10
630.488
 20
-3466.257
 30
2336.633
 70
    32
  0
VERTEX
  8
T29SSILL
 62
6
 10
639.178
 20
-3478.791
 30
2336.622
 70
    32
  0
VERTEX
  8
T29SSILL
 62
6
 10
648.944
 20
-3471.676
 30
2336.605
 70
    32
  0
VERTEX
  8
T29SSILL
 62
6
 10
652.221
 20
-3477.553
 30
2336.601
 70
    32
  0
VERTEX
  8
T29SSILL
 62
6
 10
643.155
 20
-3483.974
 30
2336.616
 70
    32
  0
VERTEX
  8
T29SSILL
 62
6
 10
657.014
 20
-3503.120
 30
2336.598
 70
    32
  0
VERTEX
  8
T29SSILL
 62
6
 10
660.109
 20
-3504.206
 30
2336.593
 70
    32
  0
VERTEX
  8
T29SSILL
 62
6
 10
666.296
 20
-3502.319
 30
2336.583
 70
    32
  0
VERTEX
  8
T29SSILL
 62
6
 10
749.349
 20
-3443.014
 30
2336.516
 70
    32
  0
VERTEX
  8
T29SSILL
 62
6
 10
747.646
 20
-3441.055
 30
2336.531
 70
    32
  0
VERTEX
  8
T29SSILL
 62
6
 10
739.761
 20
-3440.151
 30
2336.542
 70
    32
  0
VERTEX
  8
T29SSILL
 62
6
 10
721.876
 20
-3415.749
 30
2336.727
 70
    32
  0
VERTEX
  8
T29SSILL
 62
6
 10
728.319
 20
-3410.803
 30
2336.760
 70
    32
  0
VERTEX
  8
T29SSILL
 62
6
 10
743.760
 20
-3433.352
 30
2336.589
 70
    32
  0
VERTEX
  8
T29SSILL
 62
6
 10
760.044
 20
-3435.130
 30
2336.569
 70
    32
  0
VERTEX
  8
T29SSILL
 62
6
 10
849.990
 20
-3370.971
 30
2336.493
 70
    32
  0
VERTEX
  8
T29SSILL
 62
6
 10
845.777
 20
-3360.606
 30
2336.491
 70
    32
  0
VERTEX
  8
T29SSILL
 62
6
 10
835.161
 20
-3358.367
 30
2336.510
 70
    32
  0
VERTEX
  8
T29SSILL
 62
6
 10
836.181
 20
-3351.898
 30
2336.501
 70
    32
  0
VERTEX
  8
T29SSILL
 62
6
 10
843.319
 20
-3351.712
 30
2336.487
 70
    32
  0
VERTEX
  8
T29SSILL
 62
6
 10
847.989
 20
-3347.766
 30
2336.473
 70
    32
  0
VERTEX
  8
T29SSILL
 62
6
 10
839.699
 20
-3339.873
 30
2336.482
 70
    32
  0
VERTEX
  8
T29SSILL
 62
6
 10
837.024
 20
-3335.187
 30
2336.482
 70
    32
  0
VERTEX
  8
T29SSILL
 62
6
 10
835.947
 20
-3331.116
 30
2336.480
 70
    32
  0
VERTEX
  8
T29SSILL
 62
6
 10
838.195
 20
-3323.166
 30
2336.468
 70
    32
  0
VERTEX
  8
T29SSILL
 62
6
 10
833.863
 20
-3320.897
 30
2336.474
 70
    32
  0
VERTEX
  8
T29SSILL
 62
6
 10
830.766
 20
-3323.552
 30
2336.483
 70
    32
  0
VERTEX
  8
T29SSILL
 62
6
 10
828.496
 20
-3323.824
 30
2336.487
 70
    32
  0
VERTEX
  8
T29SSILL
 62
6
 10
825.048
 20
-3321.911
 30
2336.492
 70
    32
  0
SEQEND
  8
T29SSILL
  0
POLYLINE
  8
T29SSILL
 62
6
 66
     1
 70
     9
  0
VERTEX
  8
T29SSILL
 62
6
 10
576.494
 20
-3552.490
 30
2336.693
 70
    32
  0
VERTEX
  8
T29SSILL
 62
6
 10
582.237
 20
-3550.266
 30
2336.680
 70
    32
  0
VERTEX
  8
T29SSILL
 62
6
 10
600.797
 20
-3538.518
 30
2336.641
 70
    32
  0
VERTEX
  8
T29SSILL
 62
6
 10
609.653
 20
-3542.712
 30
2336.624
 70
    32
  0
VERTEX
  8
T29SSILL
 62
6
 10
654.222
 20
-3510.588
 30
2336.603
 70
    32
  0
VERTEX
  8
T29SSILL
 62
6
 10
640.566
 20
-3492.052
 30
2336.622
 70
    32
  0
VERTEX
  8
T29SSILL
 62
6
 10
625.750
 20
-3502.091
 30
2336.630
 70
    32
  0
VERTEX
  8
T29SSILL
 62
6
 10
637.662
 20
-3518.081
 30
2336.623
 70
    32
  0
VERTEX
  8
T29SSILL
 62
6
 10
626.399
 20
-3524.726
 30
2336.624
 70
    32
  0
VERTEX
  8
T29SSILL
 62
6
 10
612.487
 20
-3505.190
 30
2336.633
 70
    32
  0
VERTEX
  8
T29SSILL
 62
6
 10
598.847
 20
-3515.385
 30
2336.656
 70
    32
  0
VERTEX
  8
T29SSILL
 62
6
 10
602.873
 20
-3520.642
 30
2336.644
 70
    32
  0
VERTEX
  8
T29SSILL
 62
6
 10
572.327
 20
-3541.880
 30
2336.707
 70
    32
  0
VERTEX
  8
T29SSILL
 62
6
 10
569.047
 20
-3537.715
 30
2336.717
 70
    32
  0
VERTEX
  8
T29SSILL
 62
6
 10
509.184
 20
-3580.739
 30
2336.841
 70
    32
  0
VERTEX
  8
T29SSILL
 62
6
 10
502.230
 20
-3619.266
 30
2336.840
 70
    32
  0
VERTEX
  8
T29SSILL
 62
6
 10
550.444
 20
-3585.287
 30
2336.740
 70
    32
  0
VERTEX
  8
T29SSILL
 62
6
 10
548.098
 20
-3579.521
 30
2336.748
 70
    32
  0
VERTEX
  8
T29SSILL
 62
6
 10
565.464
 20
-3560.256
 30
2336.716
 70
    32
  0
VERTEX
  8
T29SSILL
 62
6
 10
573.048
 20
-3554.635
 30
2336.700
 70
    32
  0
SEQEND
  8
T29SSILL
  0
POLYLINE
  8
T29SSILL
 62
6
 66
     1
 70
     9
  0
VERTEX
  8
T29SSILL
 62
6
 10
652.723
 20
-3604.359
 30
2336.597
 70
    32
  0
VERTEX
  8
T29SSILL
 62
6
 10
649.643
 20
-3600.485
 30
2336.599
 70
    32
  0
VERTEX
  8
T29SSILL
 62
6
 10
648.614
 20
-3594.458
 30
2336.601
 70
    32
  0
VERTEX
  8
T29SSILL
 62
6
 10
652.297
 20
-3581.892
 30
2336.603
 70
    32
  0
VERTEX
  8
T29SSILL
 62
6
 10
650.489
 20
-3572.231
 30
2336.606
 70
    32
  0
VERTEX
  8
T29SSILL
 62
6
 10
648.456
 20
-3571.914
 30
2336.607
 70
    32
  0
VERTEX
  8
T29SSILL
 62
6
 10
639.324
 20
-3574.962
 30
2336.608
 70
    32
  0
VERTEX
  8
T29SSILL
 62
6
 10
635.429
 20
-3574.424
 30
2336.609
 70
    32
  0
VERTEX
  8
T29SSILL
 62
6
 10
617.972
 20
-3566.718
 30
2336.616
 70
    32
  0
VERTEX
  8
T29SSILL
 62
6
 10
613.167
 20
-3569.688
 30
2336.616
 70
    32
  0
VERTEX
  8
T29SSILL
 62
6
 10
606.344
 20
-3571.583
 30
2336.618
 70
    32
  0
VERTEX
  8
T29SSILL
 62
6
 10
588.588
 20
-3565.470
 30
2336.658
 70
    32
  0
VERTEX
  8
T29SSILL
 62
6
 10
574.692
 20
-3576.696
 30
2336.686
 70
    32
  0
VERTEX
  8
T29SSILL
 62
6
 10
578.283
 20
-3582.251
 30
2336.675
 70
    32
  0
VERTEX
  8
T29SSILL
 62
6
 10
576.576
 20
-3584.595
 30
2336.678
 70
    32
  0
VERTEX
  8
T29SSILL
 62
6
 10
602.925
 20
-3603.414
 30
2336.611
 70
    32
  0
VERTEX
  8
T29SSILL
 62
6
 10
603.815
 20
-3606.117
 30
2336.610
 70
    32
  0
VERTEX
  8
T29SSILL
 62
6
 10
606.818
 20
-3607.694
 30
2336.609
 70
    32
  0
VERTEX
  8
T29SSILL
 62
6
 10
629.218
 20
-3594.064
 30
2336.606
 70
    32
  0
VERTEX
  8
T29SSILL
 62
6
 10
642.244
 20
-3609.184
 30
2336.599
 70
    32
  0
VERTEX
  8
T29SSILL
 62
6
 10
644.522
 20
-3607.518
 30
2336.599
 70
    32
  0
VERTEX
  8
T29SSILL
 62
6
 10
645.499
 20
-3609.413
 30
2336.598
 70
    32
  0
SEQEND
  8
T29SSILL
  0
POLYLINE
  8
T29SSILL
 62
6
 66
     1
 70
     9
  0
VERTEX
  8
T29SSILL
 62
6
 10
643.085
 20
-3527.404
 30
2336.619
 70
    32
  0
VERTEX
  8
T29SSILL
 62
6
 10
646.096
 20
-3531.645
 30
2336.617
 70
    32
  0
VERTEX
  8
T29SSILL
 62
6
 10
640.063
 20
-3536.098
 30
2336.618
 70
    32
  0
VERTEX
  8
T29SSILL
 62
6
 10
636.856
 20
-3531.883
 30
2336.620
 70
    32
  0
VERTEX
  8
T29SSILL
 62
6
 10
629.123
 20
-3537.285
 30
2336.620
 70
    32
  0
VERTEX
  8
T29SSILL
 62
6
 10
628.778
 20
-3546.924
 30
2336.618
 70
    32
  0
VERTEX
  8
T29SSILL
 62
6
 10
634.949
 20
-3551.566
 30
2336.615
 70
    32
  0
VERTEX
  8
T29SSILL
 62
6
 10
641.655
 20
-3554.026
 30
2336.613
 70
    32
  0
VERTEX
  8
T29SSILL
 62
6
 10
648.241
 20
-3552.721
 30
2336.612
 70
    32
  0
VERTEX
  8
T29SSILL
 62
6
 10
656.730
 20
-3549.046
 30
2336.606
 70
    32
  0
VERTEX
  8
T29SSILL
 62
6
 10
662.043
 20
-3553.528
 30
2336.598
 70
    32
  0
VERTEX
  8
T29SSILL
 62
6
 10
653.901
 20
-3541.794
 30
2336.609
 70
    32
  0
VERTEX
  8
T29SSILL
 62
6
 10
668.617
 20
-3531.610
 30
2336.584
 70
    32
  0
VERTEX
  8
T29SSILL
 62
6
 10
659.249
 20
-3519.646
 30
2336.597
 70
    32
  0
VERTEX
  8
T29SSILL
 62
6
 10
656.875
 20
-3519.456
 30
2336.601
 70
    32
  0
VERTEX
  8
T29SSILL
 62
6
 10
645.882
 20
-3525.792
 30
2336.619
 70
    32
  0
SEQEND
  8
T29SSILL
  0
POLYLINE
  8
T29SSILL
 62
6
 66
     1
 70
     9
  0
VERTEX
  8
T29SSILL
 62
6
 10
651.137
 20
-3351.145
 30
2336.865
 70
    32
  0
VERTEX
  8
T29SSILL
 62
6
 10
640.312
 20
-3343.919
 30
2336.879
 70
    32
  0
VERTEX
  8
T29SSILL
 62
6
 10
608.533
 20
-3366.322
 30
2336.965
 70
    32
  0
VERTEX
  8
T29SSILL
 62
6
 10
617.596
 20
-3383.302
 30
2336.964
 70
    32
  0
VERTEX
  8
T29SSILL
 62
6
 10
586.763
 20
-3405.058
 30
2336.861
 70
    32
  0
VERTEX
  8
T29SSILL
 62
6
 10
590.001
 20
-3409.786
 30
2336.825
 70
    32
  0
VERTEX
  8
T29SSILL
 62
6
 10
604.663
 20
-3399.211
 30
2336.899
 70
    32
  0
VERTEX
  8
T29SSILL
 62
6
 10
608.702
 20
-3405.420
 30
2336.852
 70
    32
  0
VERTEX
  8
T29SSILL
 62
6
 10
678.698
 20
-3355.113
 30
2336.815
 70
    32
  0
VERTEX
  8
T29SSILL
 62
6
 10
682.894
 20
-3361.659
 30
2336.813
 70
    32
  0
VERTEX
  8
T29SSILL
 62
6
 10
613.004
 20
-3411.236
 30
2336.808
 70
    32
  0
VERTEX
  8
T29SSILL
 62
6
 10
618.878
 20
-3419.501
 30
2336.745
 70
    32
  0
VERTEX
  8
T29SSILL
 62
6
 10
635.332
 20
-3407.485
 30
2336.825
 70
    32
  0
VERTEX
  8
T29SSILL
 62
6
 10
639.564
 20
-3417.410
 30
2336.751
 70
    32
  0
VERTEX
  8
T29SSILL
 62
6
 10
644.844
 20
-3425.120
 30
2336.693
 70
    32
  0
VERTEX
  8
T29SSILL
 62
6
 10
803.542
 20
-3311.102
 30
2336.524
 70
    32
  0
VERTEX
  8
T29SSILL
 62
6
 10
805.620
 20
-3307.114
 30
2336.516
 70
    32
  0
VERTEX
  8
T29SSILL
 62
6
 10
804.136
 20
-3301.827
 30
2336.513
 70
    32
  0
VERTEX
  8
T29SSILL
 62
6
 10
804.302
 20
-3295.516
 30
2336.506
 70
    32
  0
VERTEX
  8
T29SSILL
 62
6
 10
829.181
 20
-3274.739
 30
2336.356
 70
    32
  0
VERTEX
  8
T29SSILL
 62
6
 10
844.917
 20
-3259.475
 30
2336.240
 70
    32
  0
VERTEX
  8
T29SSILL
 62
6
 10
844.045
 20
-3258.239
 30
2336.238
 70
    32
  0
VERTEX
  8
T29SSILL
 62
6
 10
831.009
 20
-3268.358
 30
2336.326
 70
    32
  0
VERTEX
  8
T29SSILL
 62
6
 10
827.625
 20
-3263.730
 30
2336.322
 70
    32
  0
VERTEX
  8
T29SSILL
 62
6
 10
816.692
 20
-3271.324
 30
2336.391
 70
    32
  0
VERTEX
  8
T29SSILL
 62
6
 10
806.522
 20
-3255.850
 30
2336.373
 70
    32
  0
VERTEX
  8
T29SSILL
 62
6
 10
811.196
 20
-3252.222
 30
2336.342
 70
    32
  0
VERTEX
  8
T29SSILL
 62
6
 10
808.100
 20
-3247.327
 30
2336.336
 70
    32
  0
VERTEX
  8
T29SSILL
 62
6
 10
805.195
 20
-3249.386
 30
2336.354
 70
    32
  0
VERTEX
  8
T29SSILL
 62
6
 10
800.831
 20
-3244.575
 30
2336.353
 70
    32
  0
VERTEX
  8
T29SSILL
 62
6
 10
796.013
 20
-3232.702
 30
2336.328
 70
    32
  0
VERTEX
  8
T29SSILL
 62
6
 10
772.009
 20
-3249.139
 30
2336.481
 70
    32
  0
VERTEX
  8
T29SSILL
 62
6
 10
777.476
 20
-3256.187
 30
2336.486
 70
    32
  0
VERTEX
  8
T29SSILL
 62
6
 10
771.053
 20
-3260.693
 30
2336.527
 70
    32
  0
VERTEX
  8
T29SSILL
 62
6
 10
766.343
 20
-3253.660
 30
2336.519
 70
    32
  0
VERTEX
  8
T29SSILL
 62
6
 10
668.450
 20
-3323.689
 30
2336.803
 70
    32
  0
VERTEX
  8
T29SSILL
 62
6
 10
673.026
 20
-3333.804
 30
2336.804
 70
    32
  0
VERTEX
  8
T29SSILL
 62
6
 10
673.535
 20
-3341.256
 30
2336.811
 70
    32
  0
VERTEX
  8
T29SSILL
 62
6
 10
672.475
 20
-3344.546
 30
2336.817
 70
    32
  0
VERTEX
  8
T29SSILL
 62
6
 10
658.123
 20
-3354.481
 30
2336.855
 70
    32
  0
VERTEX
  8
T29SSILL
 62
6
 10
654.335
 20
-3352.695
 30
2336.861
 70
    32
  0
SEQEND
  8
T29SSILL
  0
POLYLINE
  8
T29SSILL
 62
6
 66
     1
 70
     9
  0
VERTEX
  8
T29SSILL
 62
6
 10
684.497
 20
-3011.813
 30
2336.490
 70
    32
  0
VERTEX
  8
T29SSILL
 62
6
 10
688.080
 20
-3016.732
 30
2336.483
 70
    32
  0
VERTEX
  8
T29SSILL
 62
6
 10
692.827
 20
-3013.054
 30
2336.477
 70
    32
  0
VERTEX
  8
T29SSILL
 62
6
 10
689.562
 20
-3008.131
 30
2336.484
 70
    32
  0
VERTEX
  8
T29SSILL
 62
6
 10
703.753
 20
-2997.024
 30
2336.465
 70
    32
  0
VERTEX
  8
T29SSILL
 62
6
 10
696.987
 20
-2987.767
 30
2336.478
 70
    32
  0
VERTEX
  8
T29SSILL
 62
6
 10
698.419
 20
-2986.893
 30
2336.476
 70
    32
  0
VERTEX
  8
T29SSILL
 62
6
 10
713.530
 20
-3006.463
 30
2336.448
 70
    32
  0
VERTEX
  8
T29SSILL
 62
6
 10
578.414
 20
-3103.584
 30
2336.684
 70
    32
  0
VERTEX
  8
T29SSILL
 62
6
 10
540.779
 20
-3085.762
 30
2336.762
 70
    32
  0
VERTEX
  8
T29SSILL
 62
6
 10
534.913
 20
-3078.133
 30
2336.756
 70
    32
  0
VERTEX
  8
T29SSILL
 62
6
 10
543.875
 20
-3071.248
 30
2336.696
 70
    32
  0
VERTEX
  8
T29SSILL
 62
6
 10
597.115
 20
-3052.099
 30
2336.610
 70
    32
  0
VERTEX
  8
T29SSILL
 62
6
 10
669.332
 20
-2999.653
 30
2336.516
 70
    32
  0
VERTEX
  8
T29SSILL
 62
6
 10
679.942
 20
-3015.146
 30
2336.496
 70
    32
  0
SEQEND
  8
T29SSILL
  0
POLYLINE
  8
T29SSILL
 62
6
 66
     1
 70
     9
  0
VERTEX
  8
T29SSILL
 62
6
 10
602.800
 20
-3220.019
 30
2336.827
 70
    32
  0
VERTEX
  8
T29SSILL
 62
6
 10
615.180
 20
-3210.793
 30
2336.793
 70
    32
  0
VERTEX
  8
T29SSILL
 62
6
 10
620.100
 20
-3217.040
 30
2336.790
 70
    32
  0
VERTEX
  8
T29SSILL
 62
6
 10
607.324
 20
-3226.002
 30
2336.824
 70
    32
  0
VERTEX
  8
T29SSILL
 62
6
 10
615.609
 20
-3237.565
 30
2336.819
 70
    32
  0
VERTEX
  8
T29SSILL
 62
6
 10
624.873
 20
-3231.188
 30
2336.795
 70
    32
  0
VERTEX
  8
T29SSILL
 62
6
 10
634.108
 20
-3248.264
 30
2336.794
 70
    32
  0
VERTEX
  8
T29SSILL
 62
6
 10
695.518
 20
-3203.753
 30
2336.606
 70
    32
  0
VERTEX
  8
T29SSILL
 62
6
 10
691.917
 20
-3199.274
 30
2336.603
 70
    32
  0
VERTEX
  8
T29SSILL
 62
6
 10
698.949
 20
-3194.565
 30
2336.558
 70
    32
  0
VERTEX
  8
T29SSILL
 62
6
 10
701.693
 20
-3198.883
 30
2336.564
 70
    32
  0
VERTEX
  8
T29SSILL
 62
6
 10
720.942
 20
-3185.488
 30
2336.441
 70
    32
  0
VERTEX
  8
T29SSILL
 62
6
 10
717.731
 20
-3180.955
 30
2336.436
 70
    32
  0
VERTEX
  8
T29SSILL
 62
6
 10
724.545
 20
-3176.396
 30
2336.393
 70
    32
  0
VERTEX
  8
T29SSILL
 62
6
 10
727.488
 20
-3181.005
 30
2336.399
 70
    32
  0
VERTEX
  8
T29SSILL
 62
6
 10
744.865
 20
-3168.465
 30
2336.355
 70
    32
  0
VERTEX
  8
T29SSILL
 62
6
 10
739.646
 20
-3159.751
 30
2336.366
 70
    32
  0
VERTEX
  8
T29SSILL
 62
6
 10
736.789
 20
-3150.274
 30
2336.373
 70
    32
  0
VERTEX
  8
T29SSILL
 62
6
 10
738.891
 20
-3148.194
 30
2336.370
 70
    32
  0
VERTEX
  8
T29SSILL
 62
6
 10
732.695
 20
-3139.615
 30
2336.382
 70
    32
  0
VERTEX
  8
T29SSILL
 62
6
 10
721.961
 20
-3147.500
 30
2336.396
 70
    32
  0
VERTEX
  8
T29SSILL
 62
6
 10
725.298
 20
-3152.374
 30
2336.389
 70
    32
  0
VERTEX
  8
T29SSILL
 62
6
 10
716.156
 20
-3158.527
 30
2336.401
 70
    32
  0
VERTEX
  8
T29SSILL
 62
6
 10
712.627
 20
-3153.999
 30
2336.408
 70
    32
  0
VERTEX
  8
T29SSILL
 62
6
 10
710.786
 20
-3155.366
 30
2336.410
 70
    32
  0
VERTEX
  8
T29SSILL
 62
6
 10
706.012
 20
-3149.019
 30
2336.419
 70
    32
  0
VERTEX
  8
T29SSILL
 62
6
 10
736.317
 20
-3128.053
 30
2336.379
 70
    32
  0
VERTEX
  8
T29SSILL
 62
6
 10
732.145
 20
-3122.896
 30
2336.387
 70
    32
  0
VERTEX
  8
T29SSILL
 62
6
 10
769.448
 20
-3096.390
 30
2336.339
 70
    32
  0
VERTEX
  8
T29SSILL
 62
6
 10
766.785
 20
-3091.885
 30
2336.344
 70
    32
  0
VERTEX
  8
T29SSILL
 62
6
 10
747.696
 20
-3105.194
 30
2336.369
 70
    32
  0
VERTEX
  8
T29SSILL
 62
6
 10
733.428
 20
-3092.656
 30
2336.394
 70
    32
  0
VERTEX
  8
T29SSILL
 62
6
 10
658.051
 20
-3146.388
 30
2336.537
 70
    32
  0
VERTEX
  8
T29SSILL
 62
6
 10
662.956
 20
-3153.394
 30
2336.544
 70
    32
  0
VERTEX
  8
T29SSILL
 62
6
 10
656.827
 20
-3158.019
 30
2336.585
 70
    32
  0
VERTEX
  8
T29SSILL
 62
6
 10
652.018
 20
-3150.841
 30
2336.576
 70
    32
  0
VERTEX
  8
T29SSILL
 62
6
 10
598.625
 20
-3189.114
 30
2336.803
 70
    32
  0
VERTEX
  8
T29SSILL
 62
6
 10
606.597
 20
-3206.840
 30
2336.806
 70
    32
  0
VERTEX
  8
T29SSILL
 62
6
 10
597.750
 20
-3213.113
 30
2336.830
 70
    32
  0
SEQEND
  8
T29SSILL
  0
POLYLINE
  8
T29SSILL
 62
6
 66
     1
 70
     9
  0
VERTEX
  8
T29SSILL
 62
6
 10
689.885
 20
-3039.965
 30
2336.474
 70
    32
  0
VERTEX
  8
T29SSILL
 62
6
 10
684.506
 20
-3034.138
 30
2336.484
 70
    32
  0
VERTEX
  8
T29SSILL
 62
6
 10
698.598
 20
-3024.915
 30
2336.465
 70
    32
  0
VERTEX
  8
T29SSILL
 62
6
 10
709.844
 20
-3040.401
 30
2336.444
 70
    32
  0
VERTEX
  8
T29SSILL
 62
6
 10
706.847
 20
-3043.201
 30
2336.448
 70
    32
  0
VERTEX
  8
T29SSILL
 62
6
 10
713.962
 20
-3052.967
 30
2336.434
 70
    32
  0
VERTEX
  8
T29SSILL
 62
6
 10
651.361
 20
-3098.079
 30
2336.516
 70
    32
  0
VERTEX
  8
T29SSILL
 62
6
 10
648.495
 20
-3093.738
 30
2336.521
 70
    32
  0
VERTEX
  8
T29SSILL
 62
6
 10
642.634
 20
-3098.286
 30
2336.529
 70
    32
  0
VERTEX
  8
T29SSILL
 62
6
 10
645.968
 20
-3102.841
 30
2336.523
 70
    32
  0
VERTEX
  8
T29SSILL
 62
6
 10
627.427
 20
-3116.203
 30
2336.547
 70
    32
  0
VERTEX
  8
T29SSILL
 62
6
 10
630.558
 20
-3121.779
 30
2336.551
 70
    32
  0
VERTEX
  8
T29SSILL
 62
6
 10
644.344
 20
-3111.860
 30
2336.522
 70
    32
  0
VERTEX
  8
T29SSILL
 62
6
 10
651.332
 20
-3121.286
 30
2336.509
 70
    32
  0
VERTEX
  8
T29SSILL
 62
6
 10
665.830
 20
-3111.251
 30
2336.490
 70
    32
  0
VERTEX
  8
T29SSILL
 62
6
 10
659.324
 20
-3101.281
 30
2336.503
 70
    32
  0
VERTEX
  8
T29SSILL
 62
6
 10
722.456
 20
-3055.698
 30
2336.421
 70
    32
  0
VERTEX
  8
T29SSILL
 62
6
 10
728.016
 20
-3064.285
 30
2336.410
 70
    32
  0
VERTEX
  8
T29SSILL
 62
6
 10
718.733
 20
-3070.856
 30
2336.422
 70
    32
  0
VERTEX
  8
T29SSILL
 62
6
 10
722.381
 20
-3077.120
 30
2336.415
 70
    32
  0
VERTEX
  8
T29SSILL
 62
6
 10
731.031
 20
-3086.475
 30
2336.399
 70
    32
  0
VERTEX
  8
T29SSILL
 62
6
 10
717.647
 20
-3095.640
 30
2336.417
 70
    32
  0
VERTEX
  8
T29SSILL
 62
6
 10
713.716
 20
-3090.212
 30
2336.424
 70
    32
  0
VERTEX
  8
T29SSILL
 62
6
 10
707.269
 20
-3094.840
 30
2336.433
 70
    32
  0
VERTEX
  8
T29SSILL
 62
6
 10
711.660
 20
-3099.848
 30
2336.425
 70
    32
  0
VERTEX
  8
T29SSILL
 62
6
 10
680.007
 20
-3122.591
 30
2336.466
 70
    32
  0
VERTEX
  8
T29SSILL
 62
6
 10
676.340
 20
-3116.768
 30
2336.473
 70
    32
  0
VERTEX
  8
T29SSILL
 62
6
 10
669.958
 20
-3120.711
 30
2336.481
 70
    32
  0
VERTEX
  8
T29SSILL
 62
6
 10
674.215
 20
-3126.772
 30
2336.473
 70
    32
  0
VERTEX
  8
T29SSILL
 62
6
 10
594.721
 20
-3183.880
 30
2336.806
 70
    32
  0
VERTEX
  8
T29SSILL
 62
6
 10
582.522
 20
-3168.407
 30
2336.814
 70
    32
  0
VERTEX
  8
T29SSILL
 62
6
 10
504.276
 20
-3225.467
 30
2337.027
 70
    32
  0
VERTEX
  8
T29SSILL
 62
6
 10
498.172
 20
-3216.553
 30
2337.030
 70
    32
  0
VERTEX
  8
T29SSILL
 62
6
 10
526.023
 20
-3196.840
 30
2336.955
 70
    32
  0
VERTEX
  8
T29SSILL
 62
6
 10
528.467
 20
-3200.722
 30
2336.954
 70
    32
  0
VERTEX
  8
T29SSILL
 62
6
 10
578.228
 20
-3165.257
 30
2336.819
 70
    32
  0
VERTEX
  8
T29SSILL
 62
6
 10
575.576
 20
-3160.448
 30
2336.820
 70
    32
  0
VERTEX
  8
T29SSILL
 62
6
 10
590.552
 20
-3149.552
 30
2336.779
 70
    32
  0
VERTEX
  8
T29SSILL
 62
6
 10
584.710
 20
-3106.538
 30
2336.670
 70
    32
  0
VERTEX
  8
T29SSILL
 62
6
 10
620.941
 20
-3080.338
 30
2336.567
 70
    32
  0
VERTEX
  8
T29SSILL
 62
6
 10
625.574
 20
-3087.103
 30
2336.558
 70
    32
  0
VERTEX
  8
T29SSILL
 62
6
 10
632.499
 20
-3081.613
 30
2336.549
 70
    32
  0
VERTEX
  8
T29SSILL
 62
6
 10
627.457
 20
-3075.342
 30
2336.558
 70
    32
  0
VERTEX
  8
T29SSILL
 62
6
 10
647.292
 20
-3061.866
 30
2336.532
 70
    32
  0
VERTEX
  8
T29SSILL
 62
6
 10
651.790
 20
-3067.655
 30
2336.524
 70
    32
  0
VERTEX
  8
T29SSILL
 62
6
 10
657.042
 20
-3063.310
 30
2336.517
 70
    32
  0
VERTEX
  8
T29SSILL
 62
6
 10
652.839
 20
-3057.640
 30
2336.525
 70
    32
  0
VERTEX
  8
T29SSILL
 62
6
 10
679.067
 20
-3039.145
 30
2336.491
 70
    32
  0
VERTEX
  8
T29SSILL
 62
6
 10
683.465
 20
-3044.788
 30
2336.482
 70
    32
  0
SEQEND
  8
T29SSILL
  0
POLYLINE
  8
T29SSILL
 62
6
 66
     1
 70
     9
  0
VERTEX
  8
T29SSILL
 62
6
 10
620.402
 20
-3484.918
 30
2336.636
 70
    32
  0
VERTEX
  8
T29SSILL
 62
6
 10
629.775
 20
-3478.184
 30
2336.635
 70
    32
  0
VERTEX
  8
T29SSILL
 62
6
 10
624.669
 20
-3470.242
 30
2336.638
 70
    32
  0
VERTEX
  8
T29SSILL
 62
6
 10
551.239
 20
-3523.412
 30
2336.765
 70
    32
  0
VERTEX
  8
T29SSILL
 62
6
 10
548.902
 20
-3502.680
 30
2336.780
 70
    32
  0
VERTEX
  8
T29SSILL
 62
6
 10
420.586
 20
-3596.000
 30
2337.045
 70
    32
  0
VERTEX
  8
T29SSILL
 62
6
 10
413.715
 20
-3603.910
 30
2337.058
 70
    32
  0
VERTEX
  8
T29SSILL
 62
6
 10
411.401
 20
-3610.517
 30
2337.060
 70
    32
  0
VERTEX
  8
T29SSILL
 62
6
 10
411.255
 20
-3618.417
 30
2337.057
 70
    32
  0
VERTEX
  8
T29SSILL
 62
6
 10
414.076
 20
-3625.033
 30
2337.048
 70
    32
  0
VERTEX
  8
T29SSILL
 62
6
 10
446.132
 20
-3671.999
 30
2336.951
 70
    32
  0
VERTEX
  8
T29SSILL
 62
6
 10
449.589
 20
-3660.977
 30
2336.947
 70
    32
  0
VERTEX
  8
T29SSILL
 62
6
 10
455.468
 20
-3653.959
 30
2336.937
 70
    32
  0
VERTEX
  8
T29SSILL
 62
6
 10
490.508
 20
-3628.361
 30
2336.864
 70
    32
  0
VERTEX
  8
T29SSILL
 62
6
 10
481.671
 20
-3611.868
 30
2336.892
 70
    32
  0
VERTEX
  8
T29SSILL
 62
6
 10
469.046
 20
-3593.587
 30
2336.930
 70
    32
  0
VERTEX
  8
T29SSILL
 62
6
 10
495.143
 20
-3574.434
 30
2336.877
 70
    32
  0
VERTEX
  8
T29SSILL
 62
6
 10
501.103
 20
-3585.632
 30
2336.858
 70
    32
  0
VERTEX
  8
T29SSILL
 62
6
 10
502.302
 20
-3577.866
 30
2336.858
 70
    32
  0
VERTEX
  8
T29SSILL
 62
6
 10
558.934
 20
-3536.520
 30
2336.741
 70
    32
  0
VERTEX
  8
T29SSILL
 62
6
 10
557.313
 20
-3533.998
 30
2336.746
 70
    32
  0
VERTEX
  8
T29SSILL
 62
6
 10
563.492
 20
-3529.446
 30
2336.734
 70
    32
  0
VERTEX
  8
T29SSILL
 62
6
 10
565.185
 20
-3531.919
 30
2336.729
 70
    32
  0
VERTEX
  8
T29SSILL
 62
6
 10
565.663
 20
-3531.057
 30
2336.728
 70
    32
  0
VERTEX
  8
T29SSILL
 62
6
 10
559.069
 20
-3521.896
 30
2336.747
 70
    32
  0
VERTEX
  8
T29SSILL
 62
6
 10
588.486
 20
-3500.256
 30
2336.687
 70
    32
  0
VERTEX
  8
T29SSILL
 62
6
 10
594.655
 20
-3510.669
 30
2336.668
 70
    32
  0
VERTEX
  8
T29SSILL
 62
6
 10
599.402
 20
-3506.991
 30
2336.658
 70
    32
  0
VERTEX
  8
T29SSILL
 62
6
 10
592.827
 20
-3497.390
 30
2336.678
 70
    32
  0
VERTEX
  8
T29SSILL
 62
6
 10
617.451
 20
-3479.673
 30
2336.638
 70
    32
  0
SEQEND
  8
T29SSILL
  0
POLYLINE
  8
T29SSILL
 62
6
 66
     1
 70
     9
  0
VERTEX
  8
T29SSILL
 62
6
 10
522.931
 20
-3655.736
 30
2336.775
 70
    32
  0
VERTEX
  8
T29SSILL
 62
6
 10
513.256
 20
-3650.501
 30
2336.800
 70
    32
  0
VERTEX
  8
T29SSILL
 62
6
 10
506.680
 20
-3656.501
 30
2336.814
 70
    32
  0
VERTEX
  8
T29SSILL
 62
6
 10
500.356
 20
-3653.352
 30
2336.830
 70
    32
  0
VERTEX
  8
T29SSILL
 62
6
 10
495.595
 20
-3649.988
 30
2336.843
 70
    32
  0
VERTEX
  8
T29SSILL
 62
6
 10
488.723
 20
-3638.468
 30
2336.864
 70
    32
  0
VERTEX
  8
T29SSILL
 62
6
 10
462.309
 20
-3657.395
 30
2336.919
 70
    32
  0
VERTEX
  8
T29SSILL
 62
6
 10
457.141
 20
-3662.644
 30
2336.929
 70
    32
  0
VERTEX
  8
T29SSILL
 62
6
 10
452.929
 20
-3671.939
 30
2336.935
 70
    32
  0
VERTEX
  8
T29SSILL
 62
6
 10
452.622
 20
-3680.697
 30
2336.932
 70
    32
  0
VERTEX
  8
T29SSILL
 62
6
 10
454.263
 20
-3684.809
 30
2336.926
 70
    32
  0
VERTEX
  8
T29SSILL
 62
6
 10
487.793
 20
-3734.398
 30
2336.825
 70
    32
  0
VERTEX
  8
T29SSILL
 62
6
 10
490.179
 20
-3725.712
 30
2336.823
 70
    32
  0
VERTEX
  8
T29SSILL
 62
6
 10
496.303
 20
-3716.711
 30
2336.812
 70
    32
  0
VERTEX
  8
T29SSILL
 62
6
 10
540.636
 20
-3684.505
 30
2336.721
 70
    32
  0
VERTEX
  8
T29SSILL
 62
6
 10
536.692
 20
-3680.825
 30
2336.732
 70
    32
  0
VERTEX
  8
T29SSILL
 62
6
 10
527.597
 20
-3659.273
 30
2336.763
 70
    32
  0
SEQEND
  8
T29SSILL
  0
POLYLINE
  8
T29SSILL
 62
6
 66
     1
 70
     9
  0
VERTEX
  8
T29SSILL
 62
6
 10
531.856
 20
-3651.761
 30
2336.756
 70
    32
  0
VERTEX
  8
T29SSILL
 62
6
 10
542.877
 20
-3660.990
 30
2336.725
 70
    32
  0
VERTEX
  8
T29SSILL
 62
6
 10
548.331
 20
-3663.025
 30
2336.712
 70
    32
  0
VERTEX
  8
T29SSILL
 62
6
 10
555.520
 20
-3673.834
 30
2336.690
 70
    32
  0
VERTEX
  8
T29SSILL
 62
6
 10
602.817
 20
-3639.923
 30
2336.602
 70
    32
  0
VERTEX
  8
T29SSILL
 62
6
 10
588.657
 20
-3622.053
 30
2336.633
 70
    32
  0
VERTEX
  8
T29SSILL
 62
6
 10
562.763
 20
-3604.525
 30
2336.703
 70
    32
  0
VERTEX
  8
T29SSILL
 62
6
 10
555.319
 20
-3595.839
 30
2336.724
 70
    32
  0
VERTEX
  8
T29SSILL
 62
6
 10
553.721
 20
-3591.164
 30
2336.730
 70
    32
  0
VERTEX
  8
T29SSILL
 62
6
 10
511.525
 20
-3621.448
 30
2336.817
 70
    32
  0
VERTEX
  8
T29SSILL
 62
6
 10
512.273
 20
-3624.569
 30
2336.814
 70
    32
  0
VERTEX
  8
T29SSILL
 62
6
 10
518.747
 20
-3629.966
 30
2336.796
 70
    32
  0
VERTEX
  8
T29SSILL
 62
6
 10
521.713
 20
-3634.453
 30
2336.787
 70
    32
  0
VERTEX
  8
T29SSILL
 62
6
 10
528.274
 20
-3648.872
 30
2336.765
 70
    32
  0
SEQEND
  8
T29SSILL
  0
POLYLINE
  8
T29SSILL
 62
6
 66
     1
 70
     9
  0
VERTEX
  8
T29SSILL
 62
6
 10
419.149
 20
-3352.834
 30
2337.270
 70
    32
  0
VERTEX
  8
T29SSILL
 62
6
 10
429.528
 20
-3345.834
 30
2337.292
 70
    32
  0
VERTEX
  8
T29SSILL
 62
6
 10
425.849
 20
-3341.087
 30
2337.295
 70
    32
  0
VERTEX
  8
T29SSILL
 62
6
 10
450.236
 20
-3323.960
 30
2337.231
 70
    32
  0
VERTEX
  8
T29SSILL
 62
6
 10
453.247
 20
-3328.201
 30
2337.229
 70
    32
  0
VERTEX
  8
T29SSILL
 62
6
 10
493.169
 20
-3299.902
 30
2337.124
 70
    32
  0
VERTEX
  8
T29SSILL
 62
6
 10
490.357
 20
-3295.951
 30
2337.125
 70
    32
  0
VERTEX
  8
T29SSILL
 62
6
 10
495.613
 20
-3291.924
 30
2337.111
 70
    32
  0
VERTEX
  8
T29SSILL
 62
6
 10
493.613
 20
-3288.379
 30
2337.111
 70
    32
  0
VERTEX
  8
T29SSILL
 62
6
 10
475.802
 20
-3277.817
 30
2337.135
 70
    32
  0
VERTEX
  8
T29SSILL
 62
6
 10
462.403
 20
-3287.740
 30
2337.171
 70
    32
  0
VERTEX
  8
T29SSILL
 62
6
 10
473.107
 20
-3299.002
 30
2337.162
 70
    32
  0
VERTEX
  8
T29SSILL
 62
6
 10
471.853
 20
-3304.348
 30
2337.169
 70
    32
  0
VERTEX
  8
T29SSILL
 62
6
 10
427.394
 20
-3335.541
 30
2337.286
 70
    32
  0
VERTEX
  8
T29SSILL
 62
6
 10
413.546
 20
-3323.120
 30
2337.301
 70
    32
  0
VERTEX
  8
T29SSILL
 62
6
 10
398.187
 20
-3334.707
 30
2337.342
 70
    32
  0
VERTEX
  8
T29SSILL
 62
6
 10
402.261
 20
-3351.577
 30
2337.281
 70
    32
  0
VERTEX
  8
T29SSILL
 62
6
 10
405.820
 20
-3356.619
 30
2337.243
 70
    32
  0
VERTEX
  8
T29SSILL
 62
6
 10
416.528
 20
-3348.539
 30
2337.303
 70
    32
  0
SEQEND
  8
T29SSILL
  0
POLYLINE
  8
T29SSILL
 62
6
 66
     1
 70
     9
  0
VERTEX
  8
T29SSILL
 62
6
 10
395.221
 20
-3328.190
 30
2337.341
 70
    32
  0
VERTEX
  8
T29SSILL
 62
6
 10
376.150
 20
-3318.597
 30
2337.368
 70
    32
  0
VERTEX
  8
T29SSILL
 62
6
 10
317.313
 20
-3361.560
 30
2337.393
 70
    32
  0
VERTEX
  8
T29SSILL
 62
6
 10
321.327
 20
-3371.633
 30
2337.379
 70
    32
  0
VERTEX
  8
T29SSILL
 62
6
 10
326.246
 20
-3377.881
 30
2337.364
 70
    32
  0
VERTEX
  8
T29SSILL
 62
6
 10
303.901
 20
-3393.931
 30
2337.410
 70
    32
  0
VERTEX
  8
T29SSILL
 62
6
 10
310.386
 20
-3351.131
 30
2337.414
 70
    32
  0
VERTEX
  8
T29SSILL
 62
6
 10
370.195
 20
-3307.717
 30
2337.369
 70
    32
  0
VERTEX
  8
T29SSILL
 62
6
 10
374.103
 20
-3313.268
 30
2337.367
 70
    32
  0
VERTEX
  8
T29SSILL
 62
6
 10
389.888
 20
-3302.459
 30
2337.326
 70
    32
  0
VERTEX
  8
T29SSILL
 62
6
 10
385.807
 20
-3296.812
 30
2337.328
 70
    32
  0
VERTEX
  8
T29SSILL
 62
6
 10
394.440
 20
-3291.007
 30
2337.306
 70
    32
  0
VERTEX
  8
T29SSILL
 62
6
 10
399.704
 20
-3297.446
 30
2337.302
 70
    32
  0
VERTEX
  8
T29SSILL
 62
6
 10
405.696
 20
-3293.557
 30
2337.286
 70
    32
  0
VERTEX
  8
T29SSILL
 62
6
 10
400.592
 20
-3286.260
 30
2337.289
 70
    32
  0
VERTEX
  8
T29SSILL
 62
6
 10
410.239
 20
-3279.440
 30
2337.264
 70
    32
  0
VERTEX
  8
T29SSILL
 62
6
 10
413.898
 20
-3284.627
 30
2337.262
 70
    32
  0
VERTEX
  8
T29SSILL
 62
6
 10
446.817
 20
-3259.520
 30
2337.173
 70
    32
  0
VERTEX
  8
T29SSILL
 62
6
 10
451.032
 20
-3264.114
 30
2337.170
 70
    32
  0
VERTEX
  8
T29SSILL
 62
6
 10
462.302
 20
-3256.075
 30
2337.140
 70
    32
  0
VERTEX
  8
T29SSILL
 62
6
 10
463.154
 20
-3259.659
 30
2337.142
 70
    32
  0
VERTEX
  8
T29SSILL
 62
6
 10
469.973
 20
-3267.277
 30
2337.136
 70
    32
  0
VERTEX
  8
T29SSILL
 62
6
 10
472.161
 20
-3272.189
 30
2337.137
 70
    32
  0
VERTEX
  8
T29SSILL
 62
6
 10
458.548
 20
-3282.580
 30
2337.173
 70
    32
  0
VERTEX
  8
T29SSILL
 62
6
 10
444.677
 20
-3268.776
 30
2337.187
 70
    32
  0
VERTEX
  8
T29SSILL
 62
6
 10
413.909
 20
-3291.352
 30
2337.268
 70
    32
  0
VERTEX
  8
T29SSILL
 62
6
 10
415.771
 20
-3303.433
 30
2337.277
 70
    32
  0
VERTEX
  8
T29SSILL
 62
6
 10
415.508
 20
-3307.886
 30
2337.282
 70
    32
  0
VERTEX
  8
T29SSILL
 62
6
 10
412.911
 20
-3315.328
 30
2337.294
 70
    32
  0
SEQEND
  8
T29SSILL
  0
POLYLINE
  8
T29SSILL
 62
6
 66
     1
 70
     9
  0
VERTEX
  8
T29SSILL
 62
6
 10
334.461
 20
-3505.496
 30
2337.289
 70
    32
  0
VERTEX
  8
T29SSILL
 62
6
 10
362.635
 20
-3547.106
 30
2337.204
 70
    32
  0
VERTEX
  8
T29SSILL
 62
6
 10
368.768
 20
-3532.970
 30
2337.196
 70
    32
  0
VERTEX
  8
T29SSILL
 62
6
 10
401.902
 20
-3507.395
 30
2337.128
 70
    32
  0
VERTEX
  8
T29SSILL
 62
6
 10
407.753
 20
-3498.153
 30
2337.118
 70
    32
  0
VERTEX
  8
T29SSILL
 62
6
 10
408.601
 20
-3491.589
 30
2337.119
 70
    32
  0
VERTEX
  8
T29SSILL
 62
6
 10
402.672
 20
-3490.733
 30
2337.133
 70
    32
  0
VERTEX
  8
T29SSILL
 62
6
 10
404.433
 20
-3478.950
 30
2337.134
 70
    32
  0
VERTEX
  8
T29SSILL
 62
6
 10
410.147
 20
-3480.272
 30
2337.120
 70
    32
  0
VERTEX
  8
T29SSILL
 62
6
 10
414.907
 20
-3452.117
 30
2337.121
 70
    32
  0
VERTEX
  8
T29SSILL
 62
6
 10
426.932
 20
-3443.775
 30
2337.096
 70
    32
  0
VERTEX
  8
T29SSILL
 62
6
 10
423.146
 20
-3438.247
 30
2337.107
 70
    32
  0
VERTEX
  8
T29SSILL
 62
6
 10
437.962
 20
-3428.208
 30
2337.076
 70
    32
  0
VERTEX
  8
T29SSILL
 62
6
 10
434.464
 20
-3424.193
 30
2337.087
 70
    32
  0
VERTEX
  8
T29SSILL
 62
6
 10
424.744
 20
-3431.063
 30
2337.107
 70
    32
  0
VERTEX
  8
T29SSILL
 62
6
 10
418.036
 20
-3424.544
 30
2337.125
 70
    32
  0
VERTEX
  8
T29SSILL
 62
6
 10
412.331
 20
-3416.056
 30
2337.143
 70
    32
  0
VERTEX
  8
T29SSILL
 62
6
 10
404.074
 20
-3422.566
 30
2337.160
 70
    32
  0
VERTEX
  8
T29SSILL
 62
6
 10
404.439
 20
-3426.376
 30
2337.157
 70
    32
  0
VERTEX
  8
T29SSILL
 62
6
 10
408.368
 20
-3435.546
 30
2337.144
 70
    32
  0
VERTEX
  8
T29SSILL
 62
6
 10
411.486
 20
-3438.539
 30
2337.135
 70
    32
  0
VERTEX
  8
T29SSILL
 62
6
 10
413.669
 20
-3439.074
 30
2337.130
 70
    32
  0
VERTEX
  8
T29SSILL
 62
6
 10
385.703
 20
-3459.400
 30
2337.187
 70
    32
  0
VERTEX
  8
T29SSILL
 62
6
 10
372.884
 20
-3445.206
 30
2337.224
 70
    32
  0
VERTEX
  8
T29SSILL
 62
6
 10
335.980
 20
-3472.295
 30
2337.300
 70
    32
  0
VERTEX
  8
T29SSILL
 62
6
 10
331.521
 20
-3477.485
 30
2337.308
 70
    32
  0
VERTEX
  8
T29SSILL
 62
6
 10
328.338
 20
-3485.007
 30
2337.313
 70
    32
  0
VERTEX
  8
T29SSILL
 62
6
 10
328.437
 20
-3494.983
 30
2337.308
 70
    32
  0
SEQEND
  8
T29SSILL
  0
POLYLINE
  8
T29SSILL
 62
6
 66
     1
 70
     9
  0
VERTEX
  8
T29SSILL
 62
6
 10
404.806
 20
-3609.156
 30
2337.077
 70
    32
  0
VERTEX
  8
T29SSILL
 62
6
 10
373.992
 20
-3563.691
 30
2337.170
 70
    32
  0
VERTEX
  8
T29SSILL
 62
6
 10
370.083
 20
-3556.110
 30
2337.182
 70
    32
  0
VERTEX
  8
T29SSILL
 62
6
 10
370.256
 20
-3546.376
 30
2337.186
 70
    32
  0
VERTEX
  8
T29SSILL
 62
6
 10
373.534
 20
-3538.681
 30
2337.182
 70
    32
  0
VERTEX
  8
T29SSILL
 62
6
 10
380.149
 20
-3531.801
 30
2337.169
 70
    32
  0
VERTEX
  8
T29SSILL
 62
6
 10
463.908
 20
-3471.558
 30
2336.996
 70
    32
  0
VERTEX
  8
T29SSILL
 62
6
 10
468.208
 20
-3479.085
 30
2336.982
 70
    32
  0
VERTEX
  8
T29SSILL
 62
6
 10
473.717
 20
-3485.570
 30
2336.966
 70
    32
  0
VERTEX
  8
T29SSILL
 62
6
 10
486.132
 20
-3477.175
 30
2336.940
 70
    32
  0
VERTEX
  8
T29SSILL
 62
6
 10
481.358
 20
-3470.827
 30
2336.955
 70
    32
  0
VERTEX
  8
T29SSILL
 62
6
 10
479.863
 20
-3466.616
 30
2336.960
 70
    32
  0
VERTEX
  8
T29SSILL
 62
6
 10
487.068
 20
-3462.002
 30
2336.945
 70
    32
  0
VERTEX
  8
T29SSILL
 62
6
 10
484.900
 20
-3458.679
 30
2336.951
 70
    32
  0
VERTEX
  8
T29SSILL
 62
6
 10
495.905
 20
-3449.006
 30
2336.930
 70
    32
  0
VERTEX
  8
T29SSILL
 62
6
 10
499.403
 20
-3453.021
 30
2336.919
 70
    32
  0
VERTEX
  8
T29SSILL
 62
6
 10
504.755
 20
-3448.822
 30
2336.909
 70
    32
  0
VERTEX
  8
T29SSILL
 62
6
 10
501.054
 20
-3444.198
 30
2336.919
 70
    32
  0
VERTEX
  8
T29SSILL
 62
6
 10
508.955
 20
-3438.573
 30
2336.903
 70
    32
  0
VERTEX
  8
T29SSILL
 62
6
 10
527.708
 20
-3448.170
 30
2336.854
 70
    32
  0
VERTEX
  8
T29SSILL
 62
6
 10
534.388
 20
-3442.633
 30
2336.841
 70
    32
  0
VERTEX
  8
T29SSILL
 62
6
 10
537.684
 20
-3448.070
 30
2336.830
 70
    32
  0
VERTEX
  8
T29SSILL
 62
6
 10
528.622
 20
-3454.809
 30
2336.849
 70
    32
  0
VERTEX
  8
T29SSILL
 62
6
 10
531.986
 20
-3459.878
 30
2336.839
 70
    32
  0
VERTEX
  8
T29SSILL
 62
6
 10
459.314
 20
-3513.063
 30
2336.989
 70
    32
  0
VERTEX
  8
T29SSILL
 62
6
 10
450.956
 20
-3564.518
 30
2336.986
 70
    32
  0
VERTEX
  8
T29SSILL
 62
6
 10
414.557
 20
-3590.940
 30
2337.061
 70
    32
  0
VERTEX
  8
T29SSILL
 62
6
 10
407.801
 20
-3600.267
 30
2337.073
 70
    32
  0
VERTEX
  8
T29SSILL
 62
6
 10
405.403
 20
-3605.970
 30
2337.077
 70
    32
  0
SEQEND
  8
T29SSILL
  0
POLYLINE
  8
T29SSILL
 62
6
 66
     1
 70
     9
  0
VERTEX
  8
T29SSILL
 62
6
 10
381.761
 20
-3396.068
 30
2337.224
 70
    32
  0
VERTEX
  8
T29SSILL
 62
6
 10
377.592
 20
-3391.229
 30
2337.236
 70
    32
  0
VERTEX
  8
T29SSILL
 62
6
 10
394.609
 20
-3379.255
 30
2337.201
 70
    32
  0
VERTEX
  8
T29SSILL
 62
6
 10
401.651
 20
-3389.071
 30
2337.180
 70
    32
  0
VERTEX
  8
T29SSILL
 62
6
 10
419.070
 20
-3375.968
 30
2337.144
 70
    32
  0
VERTEX
  8
T29SSILL
 62
6
 10
420.591
 20
-3378.345
 30
2337.140
 70
    32
  0
VERTEX
  8
T29SSILL
 62
6
 10
397.131
 20
-3395.265
 30
2337.188
 70
    32
  0
VERTEX
  8
T29SSILL
 62
6
 10
408.040
 20
-3411.195
 30
2337.155
 70
    32
  0
VERTEX
  8
T29SSILL
 62
6
 10
398.852
 20
-3417.593
 30
2337.174
 70
    32
  0
VERTEX
  8
T29SSILL
 62
6
 10
388.312
 20
-3413.592
 30
2337.201
 70
    32
  0
VERTEX
  8
T29SSILL
 62
6
 10
377.271
 20
-3412.605
 30
2337.228
 70
    32
  0
VERTEX
  8
T29SSILL
 62
6
 10
364.800
 20
-3424.351
 30
2337.252
 70
    32
  0
VERTEX
  8
T29SSILL
 62
6
 10
367.449
 20
-3434.785
 30
2337.241
 70
    32
  0
VERTEX
  8
T29SSILL
 62
6
 10
372.883
 20
-3431.383
 30
2337.230
 70
    32
  0
VERTEX
  8
T29SSILL
 62
6
 10
375.602
 20
-3435.717
 30
2337.222
 70
    32
  0
VERTEX
  8
T29SSILL
 62
6
 10
351.209
 20
-3452.249
 30
2337.272
 70
    32
  0
VERTEX
  8
T29SSILL
 62
6
 10
358.420
 20
-3404.892
 30
2337.276
 70
    32
  0
VERTEX
  8
T29SSILL
 62
6
 10
360.552
 20
-3403.325
 30
2337.272
 70
    32
  0
VERTEX
  8
T29SSILL
 62
6
 10
363.257
 20
-3406.495
 30
2337.264
 70
    32
  0
VERTEX
  8
T29SSILL
 62
6
 10
370.114
 20
-3401.372
 30
2337.250
 70
    32
  0
VERTEX
  8
T29SSILL
 62
6
 10
371.999
 20
-3403.500
 30
2337.244
 70
    32
  0
SEQEND
  8
T29SSILL
  0
POLYLINE
  8
T29SSILL
 62
6
 66
     1
 70
     9
  0
VERTEX
  8
T29SSILL
 62
6
 10
439.196
 20
-3450.763
 30
2337.064
 70
    32
  0
VERTEX
  8
T29SSILL
 62
6
 10
435.610
 20
-3445.526
 30
2337.075
 70
    32
  0
VERTEX
  8
T29SSILL
 62
6
 10
421.093
 20
-3456.001
 30
2337.105
 70
    32
  0
VERTEX
  8
T29SSILL
 62
6
 10
415.329
 20
-3491.896
 30
2337.103
 70
    32
  0
VERTEX
  8
T29SSILL
 62
6
 10
419.336
 20
-3495.563
 30
2337.091
 70
    32
  0
VERTEX
  8
T29SSILL
 62
6
 10
426.766
 20
-3489.406
 30
2337.076
 70
    32
  0
VERTEX
  8
T29SSILL
 62
6
 10
423.341
 20
-3485.341
 30
2337.086
 70
    32
  0
VERTEX
  8
T29SSILL
 62
6
 10
428.356
 20
-3481.586
 30
2337.076
 70
    32
  0
VERTEX
  8
T29SSILL
 62
6
 10
431.935
 20
-3486.188
 30
2337.066
 70
    32
  0
VERTEX
  8
T29SSILL
 62
6
 10
461.906
 20
-3463.954
 30
2337.004
 70
    32
  0
VERTEX
  8
T29SSILL
 62
6
 10
460.766
 20
-3456.828
 30
2337.010
 70
    32
  0
VERTEX
  8
T29SSILL
 62
6
 10
451.378
 20
-3449.211
 30
2337.035
 70
    32
  0
VERTEX
  8
T29SSILL
 62
6
 10
461.836
 20
-3440.602
 30
2337.014
 70
    32
  0
VERTEX
  8
T29SSILL
 62
6
 10
458.311
 20
-3436.391
 30
2337.024
 70
    32
  0
SEQEND
  8
T29SSILL
  0
POLYLINE
  8
T29SSILL
 62
6
 66
     1
 70
     9
  0
VERTEX
  8
T29SSILL
 62
6
 10
385.655
 20
-3251.185
 30
2337.283
 70
    32
  0
VERTEX
  8
T29SSILL
 62
6
 10
394.278
 20
-3260.345
 30
2337.276
 70
    32
  0
VERTEX
  8
T29SSILL
 62
6
 10
400.709
 20
-3262.246
 30
2337.265
 70
    32
  0
VERTEX
  8
T29SSILL
 62
6
 10
404.752
 20
-3260.973
 30
2337.256
 70
    32
  0
VERTEX
  8
T29SSILL
 62
6
 10
428.212
 20
-3244.053
 30
2337.194
 70
    32
  0
VERTEX
  8
T29SSILL
 62
6
 10
431.155
 20
-3248.662
 30
2337.193
 70
    32
  0
VERTEX
  8
T29SSILL
 62
6
 10
392.270
 20
-3275.824
 30
2337.295
 70
    32
  0
VERTEX
  8
T29SSILL
 62
6
 10
383.937
 20
-3264.435
 30
2337.300
 70
    32
  0
SEQEND
  8
T29SSILL
  0
POLYLINE
  8
T29SSILL
 62
6
 66
     1
 70
     9
  0
VERTEX
  8
T29SSILL
 62
6
 10
333.442
 20
-3195.691
 30
2337.329
 70
    32
  0
VERTEX
  8
T29SSILL
 62
6
 10
338.970
 20
-3191.905
 30
2337.315
 70
    32
  0
VERTEX
  8
T29SSILL
 62
6
 10
391.325
 20
-3180.201
 30
2337.202
 70
    32
  0
VERTEX
  8
T29SSILL
 62
6
 10
388.075
 20
-3174.519
 30
2337.203
 70
    32
  0
VERTEX
  8
T29SSILL
 62
6
 10
350.750
 20
-3183.518
 30
2337.284
 70
    32
  0
VERTEX
  8
T29SSILL
 62
6
 10
383.489
 20
-3159.709
 30
2337.197
 70
    32
  0
VERTEX
  8
T29SSILL
 62
6
 10
407.260
 20
-3193.329
 30
2337.184
 70
    32
  0
VERTEX
  8
T29SSILL
 62
6
 10
402.004
 20
-3197.356
 30
2337.198
 70
    32
  0
VERTEX
  8
T29SSILL
 62
6
 10
406.739
 20
-3202.555
 30
2337.194
 70
    32
  0
VERTEX
  8
T29SSILL
 62
6
 10
422.722
 20
-3190.007
 30
2337.151
 70
    32
  0
VERTEX
  8
T29SSILL
 62
6
 10
423.691
 20
-3191.266
 30
2337.150
 70
    32
  0
VERTEX
  8
T29SSILL
 62
6
 10
372.603
 20
-3228.068
 30
2337.285
 70
    32
  0
VERTEX
  8
T29SSILL
 62
6
 10
372.547
 20
-3231.419
 30
2337.289
 70
    32
  0
VERTEX
  8
T29SSILL
 62
6
 10
378.425
 20
-3242.032
 30
2337.288
 70
    32
  0
VERTEX
  8
T29SSILL
 62
6
 10
379.587
 20
-3247.006
 30
2337.291
 70
    32
  0
VERTEX
  8
T29SSILL
 62
6
 10
347.981
 20
-3269.504
 30
2337.374
 70
    32
  0
VERTEX
  8
T29SSILL
 62
6
 10
312.190
 20
-3256.403
 30
2337.430
 70
    32
  0
VERTEX
  8
T29SSILL
 62
6
 10
305.555
 20
-3249.834
 30
2337.437
 70
    32
  0
VERTEX
  8
T29SSILL
 62
6
 10
301.917
 20
-3250.295
 30
2337.444
 70
    32
  0
VERTEX
  8
T29SSILL
 62
6
 10
295.204
 20
-3241.429
 30
2337.448
 70
    32
  0
VERTEX
  8
T29SSILL
 62
6
 10
291.141
 20
-3231.283
 30
2337.446
 70
    32
  0
VERTEX
  8
T29SSILL
 62
6
 10
291.703
 20
-3229.295
 30
2337.443
 70
    32
  0
VERTEX
  8
T29SSILL
 62
6
 10
301.147
 20
-3219.837
 30
2337.415
 70
    32
  0
VERTEX
  8
T29SSILL
 62
6
 10
318.948
 20
-3206.044
 30
2337.367
 70
    32
  0
VERTEX
  8
T29SSILL
 62
6
 10
317.258
 20
-3213.718
 30
2337.378
 70
    32
  0
VERTEX
  8
T29SSILL
 62
6
 10
317.208
 20
-3221.446
 30
2337.386
 70
    32
  0
VERTEX
  8
T29SSILL
 62
6
 10
319.225
 20
-3228.292
 30
2337.389
 70
    32
  0
VERTEX
  8
T29SSILL
 62
6
 10
322.854
 20
-3234.996
 30
2337.388
 70
    32
  0
VERTEX
  8
T29SSILL
 62
6
 10
344.797
 20
-3265.167
 30
2337.376
 70
    32
  0
VERTEX
  8
T29SSILL
 62
6
 10
350.268
 20
-3261.576
 30
2337.362
 70
    32
  0
VERTEX
  8
T29SSILL
 62
6
 10
328.279
 20
-3230.747
 30
2337.374
 70
    32
  0
VERTEX
  8
T29SSILL
 62
6
 10
324.043
 20
-3220.505
 30
2337.372
 70
    32
  0
VERTEX
  8
T29SSILL
 62
6
 10
323.524
 20
-3216.159
 30
2337.368
 70
    32
  0
VERTEX
  8
T29SSILL
 62
6
 10
325.355
 20
-3208.067
 30
2337.357
 70
    32
  0
VERTEX
  8
T29SSILL
 62
6
 10
327.903
 20
-3200.553
 30
2337.345
 70
    32
  0
VERTEX
  8
T29SSILL
 62
6
 10
330.487
 20
-3197.928
 30
2337.337
 70
    32
  0
SEQEND
  8
T29SSILL
  0
POLYLINE
  8
T29SSILL
 62
6
 66
     1
 70
     9
  0
VERTEX
  8
T29SSILL
 62
6
 10
348.532
 20
-3307.913
 30
2337.411
 70
    32
  0
VERTEX
  8
T29SSILL
 62
6
 10
344.583
 20
-3304.954
 30
2337.416
 70
    32
  0
VERTEX
  8
T29SSILL
 62
6
 10
323.007
 20
-3319.944
 30
2337.472
 70
    32
  0
VERTEX
  8
T29SSILL
 62
6
 10
309.355
 20
-3311.555
 30
2337.490
 70
    32
  0
VERTEX
  8
T29SSILL
 62
6
 10
300.468
 20
-3312.619
 30
2337.509
 70
    32
  0
VERTEX
  8
T29SSILL
 62
6
 10
249.241
 20
-3350.156
 30
2337.560
 70
    32
  0
VERTEX
  8
T29SSILL
 62
6
 10
245.408
 20
-3358.444
 30
2337.565
 70
    32
  0
VERTEX
  8
T29SSILL
 62
6
 10
245.113
 20
-3368.156
 30
2337.562
 70
    32
  0
VERTEX
  8
T29SSILL
 62
6
 10
246.413
 20
-3372.395
 30
2337.555
 70
    32
  0
VERTEX
  8
T29SSILL
 62
6
 10
280.676
 20
-3423.833
 30
2337.453
 70
    32
  0
VERTEX
  8
T29SSILL
 62
6
 10
281.856
 20
-3416.507
 30
2337.453
 70
    32
  0
VERTEX
  8
T29SSILL
 62
6
 10
285.943
 20
-3408.900
 30
2337.447
 70
    32
  0
VERTEX
  8
T29SSILL
 62
6
 10
292.194
 20
-3402.269
 30
2337.435
 70
    32
  0
VERTEX
  8
T29SSILL
 62
6
 10
296.003
 20
-3399.874
 30
2337.427
 70
    32
  0
VERTEX
  8
T29SSILL
 62
6
 10
303.431
 20
-3350.338
 30
2337.431
 70
    32
  0
VERTEX
  8
T29SSILL
 62
6
 10
301.887
 20
-3348.083
 30
2337.435
 70
    32
  0
VERTEX
  8
T29SSILL
 62
6
 10
325.864
 20
-3331.450
 30
2337.440
 70
    32
  0
VERTEX
  8
T29SSILL
 62
6
 10
323.128
 20
-3326.363
 30
2337.478
 70
    32
  0
SEQEND
  8
T29SSILL
  0
POLYLINE
  8
T29SSILL
 62
6
 66
     1
 70
     9
  0
VERTEX
  8
T29SSILL
 62
6
 10
212.897
 20
-3292.557
 30
2337.658
 70
    32
  0
VERTEX
  8
T29SSILL
 62
6
 10
215.084
 20
-3303.241
 30
2337.663
 70
    32
  0
VERTEX
  8
T29SSILL
 62
6
 10
235.359
 20
-3356.564
 30
2337.583
 70
    32
  0
VERTEX
  8
T29SSILL
 62
6
 10
238.347
 20
-3360.929
 30
2337.575
 70
    32
  0
VERTEX
  8
T29SSILL
 62
6
 10
240.691
 20
-3352.806
 30
2337.579
 70
    32
  0
VERTEX
  8
T29SSILL
 62
6
 10
246.007
 20
-3343.716
 30
2337.570
 70
    32
  0
VERTEX
  8
T29SSILL
 62
6
 10
293.463
 20
-3309.723
 30
2337.519
 70
    32
  0
VERTEX
  8
T29SSILL
 62
6
 10
284.357
 20
-3301.107
 30
2337.528
 70
    32
  0
VERTEX
  8
T29SSILL
 62
6
 10
280.299
 20
-3295.338
 30
2337.530
 70
    32
  0
VERTEX
  8
T29SSILL
 62
6
 10
296.275
 20
-3284.184
 30
2337.488
 70
    32
  0
VERTEX
  8
T29SSILL
 62
6
 10
306.287
 20
-3281.174
 30
2337.466
 70
    32
  0
VERTEX
  8
T29SSILL
 62
6
 10
311.910
 20
-3282.987
 30
2337.457
 70
    32
  0
VERTEX
  8
T29SSILL
 62
6
 10
317.878
 20
-3279.220
 30
2337.442
 70
    32
  0
VERTEX
  8
T29SSILL
 62
6
 10
327.398
 20
-3279.860
 30
2337.424
 70
    32
  0
VERTEX
  8
T29SSILL
 62
6
 10
331.517
 20
-3276.825
 30
2337.413
 70
    32
  0
VERTEX
  8
T29SSILL
 62
6
 10
334.437
 20
-3271.727
 30
2337.402
 70
    32
  0
VERTEX
  8
T29SSILL
 62
6
 10
313.039
 20
-3263.728
 30
2337.436
 70
    32
  0
VERTEX
  8
T29SSILL
 62
6
 10
305.493
 20
-3268.468
 30
2337.455
 70
    32
  0
VERTEX
  8
T29SSILL
 62
6
 10
305.168
 20
-3269.866
 30
2337.457
 70
    32
  0
VERTEX
  8
T29SSILL
 62
6
 10
307.405
 20
-3270.792
 30
2337.454
 70
    32
  0
VERTEX
  8
T29SSILL
 62
6
 10
289.693
 20
-3285.806
 30
2337.503
 70
    32
  0
VERTEX
  8
T29SSILL
 62
6
 10
285.641
 20
-3286.444
 30
2337.511
 70
    32
  0
VERTEX
  8
T29SSILL
 62
6
 10
280.263
 20
-3290.447
 30
2337.526
 70
    32
  0
VERTEX
  8
T29SSILL
 62
6
 10
276.127
 20
-3290.181
 30
2337.533
 70
    32
  0
VERTEX
  8
T29SSILL
 62
6
 10
273.457
 20
-3287.842
 30
2337.536
 70
    32
  0
VERTEX
  8
T29SSILL
 62
6
 10
270.525
 20
-3282.157
 30
2337.536
 70
    32
  0
VERTEX
  8
T29SSILL
 62
6
 10
268.185
 20
-3272.967
 30
2337.532
 70
    32
  0
VERTEX
  8
T29SSILL
 62
6
 10
268.831
 20
-3269.854
 30
2337.527
 70
    32
  0
VERTEX
  8
T29SSILL
 62
6
 10
272.336
 20
-3262.645
 30
2337.513
 70
    32
  0
VERTEX
  8
T29SSILL
 62
6
 10
284.678
 20
-3252.270
 30
2337.479
 70
    32
  0
VERTEX
  8
T29SSILL
 62
6
 10
287.610
 20
-3248.126
 30
2337.469
 70
    32
  0
VERTEX
  8
T29SSILL
 62
6
 10
276.839
 20
-3243.320
 30
2337.486
 70
    32
  0
VERTEX
  8
T29SSILL
 62
6
 10
275.204
 20
-3243.585
 30
2337.489
 70
    32
  0
VERTEX
  8
T29SSILL
 62
6
 10
260.804
 20
-3257.507
 30
2337.531
 70
    32
  0
VERTEX
  8
T29SSILL
 62
6
 10
256.963
 20
-3257.359
 30
2337.538
 70
    32
  0
VERTEX
  8
T29SSILL
 62
6
 10
253.213
 20
-3254.692
 30
2337.542
 70
    32
  0
VERTEX
  8
T29SSILL
 62
6
 10
219.325
 20
-3278.539
 30
2337.631
 70
    32
  0
VERTEX
  8
T29SSILL
 62
6
 10
213.520
 20
-3289.566
 30
2337.654
 70
    32
  0
SEQEND
  8
T29SSILL
  0
POLYLINE
  8
T29SSILL
 62
6
 66
     1
 70
     9
  0
VERTEX
  8
T29SSILL
 62
6
 10
351.858
 20
-3390.473
 30
2337.298
 70
    32
  0
VERTEX
  8
T29SSILL
 62
6
 10
340.510
 20
-3376.554
 30
2337.331
 70
    32
  0
VERTEX
  8
T29SSILL
 62
6
 10
293.595
 20
-3410.712
 30
2337.428
 70
    32
  0
VERTEX
  8
T29SSILL
 62
6
 10
289.143
 20
-3416.538
 30
2337.436
 70
    32
  0
VERTEX
  8
T29SSILL
 62
6
 10
287.093
 20
-3422.750
 30
2337.438
 70
    32
  0
VERTEX
  8
T29SSILL
 62
6
 10
286.427
 20
-3432.075
 30
2337.435
 70
    32
  0
VERTEX
  8
T29SSILL
 62
6
 10
321.131
 20
-3485.562
 30
2337.330
 70
    32
  0
VERTEX
  8
T29SSILL
 62
6
 10
327.306
 20
-3470.862
 30
2337.321
 70
    32
  0
VERTEX
  8
T29SSILL
 62
6
 10
340.945
 20
-3458.637
 30
2337.294
 70
    32
  0
VERTEX
  8
T29SSILL
 62
6
 10
342.533
 20
-3454.558
 30
2337.292
 70
    32
  0
VERTEX
  8
T29SSILL
 62
6
 10
351.706
 20
-3401.797
 30
2337.293
 70
    32
  0
VERTEX
  8
T29SSILL
 62
6
 10
390.751
 20
-3373.777
 30
2337.213
 70
    32
  0
VERTEX
  8
T29SSILL
 62
6
 10
387.816
 20
-3369.803
 30
2337.221
 70
    32
  0
VERTEX
  8
T29SSILL
 62
6
 10
392.471
 20
-3366.615
 30
2337.212
 70
    32
  0
VERTEX
  8
T29SSILL
 62
6
 10
388.827
 20
-3362.824
 30
2337.222
 70
    32
  0
SEQEND
  8
T29SSILL
  0
POLYLINE
  8
T29SSILL
 62
6
 66
     1
 70
     9
  0
VERTEX
  8
T29SSILL
 62
6
 10
341.160
 20
-3180.558
 30
2337.299
 70
    32
  0
VERTEX
  8
T29SSILL
 62
6
 10
370.531
 20
-3159.821
 30
2337.222
 70
    32
  0
VERTEX
  8
T29SSILL
 62
6
 10
366.703
 20
-3154.856
 30
2337.224
 70
    32
  0
VERTEX
  8
T29SSILL
 62
6
 10
377.664
 20
-3147.457
 30
2337.196
 70
    32
  0
VERTEX
  8
T29SSILL
 62
6
 10
380.806
 20
-3152.358
 30
2337.195
 70
    32
  0
VERTEX
  8
T29SSILL
 62
6
 10
382.838
 20
-3150.645
 30
2337.189
 70
    32
  0
VERTEX
  8
T29SSILL
 62
6
 10
386.213
 20
-3142.778
 30
2337.175
 70
    32
  0
VERTEX
  8
T29SSILL
 62
6
 10
385.142
 20
-3137.314
 30
2337.171
 70
    32
  0
VERTEX
  8
T29SSILL
 62
6
 10
340.605
 20
-3075.709
 30
2337.196
 70
    32
  0
VERTEX
  8
T29SSILL
 62
6
 10
337.232
 20
-3087.635
 30
2337.215
 70
    32
  0
VERTEX
  8
T29SSILL
 62
6
 10
331.422
 20
-3094.286
 30
2337.232
 70
    32
  0
VERTEX
  8
T29SSILL
 62
6
 10
335.575
 20
-3099.882
 30
2337.230
 70
    32
  0
VERTEX
  8
T29SSILL
 62
6
 10
329.461
 20
-3103.749
 30
2337.246
 70
    32
  0
VERTEX
  8
T29SSILL
 62
6
 10
325.652
 20
-3098.343
 30
2337.248
 70
    32
  0
VERTEX
  8
T29SSILL
 62
6
 10
289.257
 20
-3125.083
 30
2337.344
 70
    32
  0
VERTEX
  8
T29SSILL
 62
6
 10
293.093
 20
-3130.684
 30
2337.343
 70
    32
  0
VERTEX
  8
T29SSILL
 62
6
 10
286.619
 20
-3135.117
 30
2337.359
 70
    32
  0
VERTEX
  8
T29SSILL
 62
6
 10
283.002
 20
-3129.367
 30
2337.361
 70
    32
  0
VERTEX
  8
T29SSILL
 62
6
 10
266.038
 20
-3141.731
 30
2337.406
 70
    32
  0
VERTEX
  8
T29SSILL
 62
6
 10
265.779
 20
-3144.473
 30
2337.409
 70
    32
  0
VERTEX
  8
T29SSILL
 62
6
 10
270.351
 20
-3154.270
 30
2337.410
 70
    32
  0
VERTEX
  8
T29SSILL
 62
6
 10
268.430
 20
-3157.082
 30
2337.416
 70
    32
  0
VERTEX
  8
T29SSILL
 62
6
 10
268.106
 20
-3160.509
 30
2337.420
 70
    32
  0
VERTEX
  8
T29SSILL
 62
6
 10
271.018
 20
-3164.606
 30
2337.419
 70
    32
  0
VERTEX
  8
T29SSILL
 62
6
 10
274.868
 20
-3167.419
 30
2337.414
 70
    32
  0
VERTEX
  8
T29SSILL
 62
6
 10
286.080
 20
-3186.132
 30
2337.411
 70
    32
  0
VERTEX
  8
T29SSILL
 62
6
 10
285.758
 20
-3195.649
 30
2337.421
 70
    32
  0
VERTEX
  8
T29SSILL
 62
6
 10
293.729
 20
-3209.316
 30
2337.419
 70
    32
  0
VERTEX
  8
T29SSILL
 62
6
 10
296.897
 20
-3212.382
 30
2337.416
 70
    32
  0
VERTEX
  8
T29SSILL
 62
6
 10
335.773
 20
-3184.585
 30
2337.314
 70
    32
  0
VERTEX
  8
T29SSILL
 62
6
 10
332.608
 20
-3179.807
 30
2337.315
 70
    32
  0
VERTEX
  8
T29SSILL
 62
6
 10
337.351
 20
-3176.361
 30
2337.302
 70
    32
  0
SEQEND
  8
T29SSILL
  0
POLYLINE
  8
T29SSILL
 62
6
 66
     1
 70
     9
  0
VERTEX
  8
T29SSILL
 62
6
 10
451.991
 20
-3337.289
 30
2337.240
 70
    32
  0
VERTEX
  8
T29SSILL
 62
6
 10
458.256
 20
-3347.530
 30
2337.238
 70
    32
  0
VERTEX
  8
T29SSILL
 62
6
 10
424.081
 20
-3371.895
 30
2337.134
 70
    32
  0
VERTEX
  8
T29SSILL
 62
6
 10
426.196
 20
-3374.827
 30
2337.128
 70
    32
  0
VERTEX
  8
T29SSILL
 62
6
 10
511.616
 20
-3312.485
 30
2337.101
 70
    32
  0
VERTEX
  8
T29SSILL
 62
6
 10
503.889
 20
-3302.605
 30
2337.106
 70
    32
  0
SEQEND
  8
T29SSILL
  0
POLYLINE
  8
T29SSILL
 62
6
 66
     1
 70
     9
  0
VERTEX
  8
T29SSILL
 62
6
 10
507.390
 20
-3420.840
 30
2336.914
 70
    32
  0
VERTEX
  8
T29SSILL
 62
6
 10
508.629
 20
-3426.082
 30
2336.909
 70
    32
  0
VERTEX
  8
T29SSILL
 62
6
 10
505.878
 20
-3432.987
 30
2336.913
 70
    32
  0
VERTEX
  8
T29SSILL
 62
6
 10
493.390
 20
-3441.432
 30
2336.939
 70
    32
  0
VERTEX
  8
T29SSILL
 62
6
 10
488.219
 20
-3438.562
 30
2336.952
 70
    32
  0
VERTEX
  8
T29SSILL
 62
6
 10
486.939
 20
-3445.743
 30
2336.952
 70
    32
  0
VERTEX
  8
T29SSILL
 62
6
 10
468.601
 20
-3447.829
 30
2336.995
 70
    32
  0
VERTEX
  8
T29SSILL
 62
6
 10
461.836
 20
-3440.602
 30
2337.014
 70
    32
  0
VERTEX
  8
T29SSILL
 62
6
 10
486.054
 20
-3423.697
 30
2336.964
 70
    32
  0
VERTEX
  8
T29SSILL
 62
6
 10
482.517
 20
-3418.533
 30
2336.975
 70
    32
  0
VERTEX
  8
T29SSILL
 62
6
 10
498.225
 20
-3407.456
 30
2336.942
 70
    32
  0
VERTEX
  8
T29SSILL
 62
6
 10
494.550
 20
-3403.027
 30
2336.953
 70
    32
  0
VERTEX
  8
T29SSILL
 62
6
 10
548.889
 20
-3364.106
 30
2337.080
 70
    32
  0
VERTEX
  8
T29SSILL
 62
6
 10
555.039
 20
-3372.930
 30
2337.077
 70
    32
  0
VERTEX
  8
T29SSILL
 62
6
 10
503.610
 20
-3409.858
 30
2336.928
 70
    32
  0
VERTEX
  8
T29SSILL
 62
6
 10
506.588
 20
-3417.328
 30
2336.918
 70
    32
  0
SEQEND
  8
T29SSILL
  0
POLYLINE
  8
T29SSILL
 62
6
 66
     1
 70
     9
  0
VERTEX
  8
T29SSILL
 62
6
 10
544.914
 20
-3496.543
 30
2336.792
 70
    32
  0
VERTEX
  8
T29SSILL
 62
6
 10
539.770
 20
-3486.068
 30
2336.809
 70
    32
  0
VERTEX
  8
T29SSILL
 62
6
 10
535.932
 20
-3482.179
 30
2336.820
 70
    32
  0
VERTEX
  8
T29SSILL
 62
6
 10
535.169
 20
-3479.817
 30
2336.823
 70
    32
  0
VERTEX
  8
T29SSILL
 62
6
 10
550.846
 20
-3468.226
 30
2336.790
 70
    32
  0
VERTEX
  8
T29SSILL
 62
6
 10
548.106
 20
-3464.226
 30
2336.799
 70
    32
  0
VERTEX
  8
T29SSILL
 62
6
 10
538.772
 20
-3470.724
 30
2336.818
 70
    32
  0
VERTEX
  8
T29SSILL
 62
6
 10
536.010
 20
-3466.846
 30
2336.826
 70
    32
  0
VERTEX
  8
T29SSILL
 62
6
 10
530.895
 20
-3470.455
 30
2336.837
 70
    32
  0
VERTEX
  8
T29SSILL
 62
6
 10
534.684
 20
-3474.272
 30
2336.826
 70
    32
  0
VERTEX
  8
T29SSILL
 62
6
 10
523.524
 20
-3481.380
 30
2336.850
 70
    32
  0
VERTEX
  8
T29SSILL
 62
6
 10
520.543
 20
-3477.651
 30
2336.858
 70
    32
  0
VERTEX
  8
T29SSILL
 62
6
 10
504.281
 20
-3489.322
 30
2336.892
 70
    32
  0
VERTEX
  8
T29SSILL
 62
6
 10
507.975
 20
-3495.340
 30
2336.881
 70
    32
  0
VERTEX
  8
T29SSILL
 62
6
 10
502.519
 20
-3499.076
 30
2336.892
 70
    32
  0
VERTEX
  8
T29SSILL
 62
6
 10
498.316
 20
-3493.406
 30
2336.904
 70
    32
  0
VERTEX
  8
T29SSILL
 62
6
 10
466.518
 20
-3516.250
 30
2336.970
 70
    32
  0
VERTEX
  8
T29SSILL
 62
6
 10
459.604
 20
-3557.955
 30
2336.968
 70
    32
  0
VERTEX
  8
T29SSILL
 62
6
 10
534.638
 20
-3504.007
 30
2336.813
 70
    32
  0
VERTEX
  8
T29SSILL
 62
6
 10
530.481
 20
-3498.092
 30
2336.826
 70
    32
  0
VERTEX
  8
T29SSILL
 62
6
 10
536.228
 20
-3494.157
 30
2336.814
 70
    32
  0
VERTEX
  8
T29SSILL
 62
6
 10
540.331
 20
-3499.681
 30
2336.802
 70
    32
  0
SEQEND
  8
T29SSILL
  0
POLYLINE
  8
T29SSILL
 62
6
 66
     1
 70
     9
  0
VERTEX
  8
T29SSILL
 62
6
 10
491.182
 20
-3397.640
 30
2336.963
 70
    32
  0
VERTEX
  8
T29SSILL
 62
6
 10
460.284
 20
-3420.081
 30
2337.027
 70
    32
  0
VERTEX
  8
T29SSILL
 62
6
 10
452.380
 20
-3409.787
 30
2337.050
 70
    32
  0
VERTEX
  8
T29SSILL
 62
6
 10
499.277
 20
-3376.070
 30
2337.087
 70
    32
  0
VERTEX
  8
T29SSILL
 62
6
 10
502.568
 20
-3381.188
 30
2337.049
 70
    32
  0
VERTEX
  8
T29SSILL
 62
6
 10
487.576
 20
-3391.255
 30
2336.974
 70
    32
  0
SEQEND
  8
T29SSILL
  0
POLYLINE
  8
T29SSILL
 62
6
 66
     1
 70
     9
  0
VERTEX
  8
T29SSILL
 62
6
 10
576.707
 20
-3357.451
 30
2337.019
 70
    32
  0
VERTEX
  8
T29SSILL
 62
6
 10
569.922
 20
-3348.635
 30
2337.023
 70
    32
  0
VERTEX
  8
T29SSILL
 62
6
 10
554.436
 20
-3359.880
 30
2337.065
 70
    32
  0
VERTEX
  8
T29SSILL
 62
6
 10
560.831
 20
-3368.750
 30
2337.061
 70
    32
  0
VERTEX
  8
T29SSILL
 62
6
 10
566.136
 20
-3364.975
 30
2337.047
 70
    32
  0
SEQEND
  8
T29SSILL
  0
POLYLINE
  8
T29SSILL
 62
6
 66
     1
 70
     9
  0
VERTEX
  8
T29SSILL
 62
6
 10
499.715
 20
-3283.559
 30
2337.095
 70
    32
  0
VERTEX
  8
T29SSILL
 62
6
 10
545.210
 20
-3251.228
 30
2336.972
 70
    32
  0
VERTEX
  8
T29SSILL
 62
6
 10
554.945
 20
-3233.770
 30
2336.935
 70
    32
  0
VERTEX
  8
T29SSILL
 62
6
 10
566.920
 20
-3235.186
 30
2336.913
 70
    32
  0
VERTEX
  8
T29SSILL
 62
6
 10
572.621
 20
-3231.496
 30
2336.898
 70
    32
  0
VERTEX
  8
T29SSILL
 62
6
 10
577.376
 20
-3238.284
 30
2336.896
 70
    32
  0
VERTEX
  8
T29SSILL
 62
6
 10
530.939
 20
-3271.580
 30
2337.021
 70
    32
  0
VERTEX
  8
T29SSILL
 62
6
 10
528.647
 20
-3268.234
 30
2337.022
 70
    32
  0
VERTEX
  8
T29SSILL
 62
6
 10
502.236
 20
-3287.709
 30
2337.094
 70
    32
  0
SEQEND
  8
T29SSILL
  0
POLYLINE
  8
T29SSILL
 62
6
 66
     1
 70
     9
  0
VERTEX
  8
T29SSILL
 62
6
 10
544.645
 20
-3101.706
 30
2336.806
 70
    32
  0
VERTEX
  8
T29SSILL
 62
6
 10
514.762
 20
-3123.132
 30
2336.902
 70
    32
  0
VERTEX
  8
T29SSILL
 62
6
 10
503.658
 20
-3107.229
 30
2336.907
 70
    32
  0
VERTEX
  8
T29SSILL
 62
6
 10
498.543
 20
-3110.839
 30
2336.921
 70
    32
  0
VERTEX
  8
T29SSILL
 62
6
 10
495.650
 20
-3106.302
 30
2336.922
 70
    32
  0
VERTEX
  8
T29SSILL
 62
6
 10
469.794
 20
-3125.183
 30
2336.992
 70
    32
  0
VERTEX
  8
T29SSILL
 62
6
 10
468.087
 20
-3127.528
 30
2336.998
 70
    32
  0
VERTEX
  8
T29SSILL
 62
6
 10
466.863
 20
-3131.358
 30
2337.004
 70
    32
  0
VERTEX
  8
T29SSILL
 62
6
 10
472.151
 20
-3139.704
 30
2337.003
 70
    32
  0
VERTEX
  8
T29SSILL
 62
6
 10
457.906
 20
-3150.420
 30
2337.042
 70
    32
  0
VERTEX
  8
T29SSILL
 62
6
 10
464.940
 20
-3159.600
 30
2337.037
 70
    32
  0
VERTEX
  8
T29SSILL
 62
6
 10
429.341
 20
-3185.474
 30
2337.134
 70
    32
  0
VERTEX
  8
T29SSILL
 62
6
 10
430.606
 20
-3186.865
 30
2337.133
 70
    32
  0
VERTEX
  8
T29SSILL
 62
6
 10
432.792
 20
-3185.418
 30
2337.127
 70
    32
  0
VERTEX
  8
T29SSILL
 62
6
 10
478.145
 20
-3151.733
 30
2337.003
 70
    32
  0
VERTEX
  8
T29SSILL
 62
6
 10
490.390
 20
-3166.962
 30
2336.994
 70
    32
  0
VERTEX
  8
T29SSILL
 62
6
 10
507.153
 20
-3154.306
 30
2336.948
 70
    32
  0
VERTEX
  8
T29SSILL
 62
6
 10
505.042
 20
-3132.032
 30
2336.930
 70
    32
  0
VERTEX
  8
T29SSILL
 62
6
 10
552.770
 20
-3098.279
 30
2336.762
 70
    32
  0
VERTEX
  8
T29SSILL
 62
6
 10
559.464
 20
-3117.416
 30
2336.807
 70
    32
  0
VERTEX
  8
T29SSILL
 62
6
 10
573.839
 20
-3107.358
 30
2336.715
 70
    32
  0
VERTEX
  8
T29SSILL
 62
6
 10
544.542
 20
-3093.442
 30
2336.776
 70
    32
  0
VERTEX
  8
T29SSILL
 62
6
 10
540.515
 20
-3095.987
 30
2336.801
 70
    32
  0
SEQEND
  8
T29SSILL
  0
POLYLINE
  8
T29SSILL
 62
6
 66
     1
 70
     9
  0
VERTEX
  8
T29SSILL
 62
6
 10
566.236
 20
-3159.671
 30
2336.837
 70
    32
  0
VERTEX
  8
T29SSILL
 62
6
 10
581.815
 20
-3148.468
 30
2336.795
 70
    32
  0
VERTEX
  8
T29SSILL
 62
6
 10
578.172
 20
-3111.657
 30
2336.714
 70
    32
  0
VERTEX
  8
T29SSILL
 62
6
 10
561.159
 20
-3123.948
 30
2336.811
 70
    32
  0
VERTEX
  8
T29SSILL
 62
6
 10
567.393
 20
-3143.506
 30
2336.818
 70
    32
  0
VERTEX
  8
T29SSILL
 62
6
 10
537.932
 20
-3164.790
 30
2336.898
 70
    32
  0
VERTEX
  8
T29SSILL
 62
6
 10
540.120
 20
-3167.912
 30
2336.897
 70
    32
  0
VERTEX
  8
T29SSILL
 62
6
 10
554.060
 20
-3156.962
 30
2336.859
 70
    32
  0
VERTEX
  8
T29SSILL
 62
6
 10
558.507
 20
-3162.233
 30
2336.855
 70
    32
  0
VERTEX
  8
T29SSILL
 62
6
 10
565.019
 20
-3157.563
 30
2336.838
 70
    32
  0
SEQEND
  8
T29SSILL
  0
POLYLINE
  8
T29SSILL
 62
6
 66
     1
 70
     9
  0
VERTEX
  8
T29SSILL
 62
6
 10
544.036
 20
-3280.395
 30
2337.004
 70
    32
  0
VERTEX
  8
T29SSILL
 62
6
 10
540.194
 20
-3274.766
 30
2337.006
 70
    32
  0
VERTEX
  8
T29SSILL
 62
6
 10
571.909
 20
-3250.448
 30
2336.919
 70
    32
  0
VERTEX
  8
T29SSILL
 62
6
 10
580.514
 20
-3262.526
 30
2336.914
 70
    32
  0
VERTEX
  8
T29SSILL
 62
6
 10
565.419
 20
-3273.718
 30
2336.955
 70
    32
  0
VERTEX
  8
T29SSILL
 62
6
 10
560.897
 20
-3273.823
 30
2336.964
 70
    32
  0
VERTEX
  8
T29SSILL
 62
6
 10
545.608
 20
-3279.271
 30
2337.000
 70
    32
  0
SEQEND
  8
T29SSILL
  0
POLYLINE
  8
T29SSILL
 62
6
 66
     1
 70
     9
  0
VERTEX
  8
T29SSILL
 62
6
 10
891.504
 20
-3274.159
 30
2336.115
 70
    32
  0
VERTEX
  8
T29SSILL
 62
6
 10
894.673
 20
-3279.486
 30
2336.123
 70
    32
  0
VERTEX
  8
T29SSILL
 62
6
 10
899.012
 20
-3276.271
 30
2336.095
 70
    32
  0
VERTEX
  8
T29SSILL
 62
6
 10
902.370
 20
-3281.009
 30
2336.099
 70
    32
  0
VERTEX
  8
T29SSILL
 62
6
 10
913.473
 20
-3273.005
 30
2336.072
 70
    32
  0
VERTEX
  8
T29SSILL
 62
6
 10
916.818
 20
-3277.563
 30
2336.066
 70
    32
  0
VERTEX
  8
T29SSILL
 62
6
 10
918.866
 20
-3276.043
 30
2336.063
 70
    32
  0
VERTEX
  8
T29SSILL
 62
6
 10
908.276
 20
-3262.139
 30
2336.083
 70
    32
  0
VERTEX
  8
T29SSILL
 62
6
 10
904.867
 20
-3261.375
 30
2336.088
 70
    32
  0
VERTEX
  8
T29SSILL
 62
6
 10
890.555
 20
-3266.688
 30
2336.108
 70
    32
  0
VERTEX
  8
T29SSILL
 62
6
 10
876.884
 20
-3266.540
 30
2336.143
 70
    32
  0
VERTEX
  8
T29SSILL
 62
6
 10
863.309
 20
-3276.050
 30
2336.230
 70
    32
  0
VERTEX
  8
T29SSILL
 62
6
 10
869.780
 20
-3295.019
 30
2336.276
 70
    32
  0
VERTEX
  8
T29SSILL
 62
6
 10
870.123
 20
-3298.951
 30
2336.289
 70
    32
  0
VERTEX
  8
T29SSILL
 62
6
 10
863.845
 20
-3305.387
 30
2336.337
 70
    32
  0
VERTEX
  8
T29SSILL
 62
6
 10
866.455
 20
-3310.759
 30
2336.347
 70
    32
  0
VERTEX
  8
T29SSILL
 62
6
 10
875.884
 20
-3304.088
 30
2336.286
 70
    32
  0
VERTEX
  8
T29SSILL
 62
6
 10
870.036
 20
-3296.118
 30
2336.279
 70
    32
  0
VERTEX
  8
T29SSILL
 62
6
 10
884.757
 20
-3286.151
 30
2336.186
 70
    32
  0
VERTEX
  8
T29SSILL
 62
6
 10
882.105
 20
-3281.343
 30
2336.178
 70
    32
  0
SEQEND
  8
T29SSILL
  0
POLYLINE
  8
T29SSILL
 62
6
 66
     1
 70
     9
  0
VERTEX
  8
T29SSILL
 62
6
 10
935.693
 20
-3317.624
 30
2336.107
 70
    32
  0
VERTEX
  8
T29SSILL
 62
6
 10
852.493
 20
-3377.591
 30
2336.495
 70
    32
  0
VERTEX
  8
T29SSILL
 62
6
 10
889.946
 20
-3382.822
 30
2336.426
 70
    32
  0
VERTEX
  8
T29SSILL
 62
6
 10
890.085
 20
-3374.287
 30
2336.417
 70
    32
  0
VERTEX
  8
T29SSILL
 62
6
 10
891.346
 20
-3369.576
 30
2336.410
 70
    32
  0
VERTEX
  8
T29SSILL
 62
6
 10
898.088
 20
-3365.066
 30
2336.392
 70
    32
  0
VERTEX
  8
T29SSILL
 62
6
 10
902.789
 20
-3359.603
 30
2336.377
 70
    32
  0
VERTEX
  8
T29SSILL
 62
6
 10
915.749
 20
-3353.720
 30
2336.317
 70
    32
  0
VERTEX
  8
T29SSILL
 62
6
 10
917.747
 20
-3351.177
 30
2336.300
 70
    32
  0
VERTEX
  8
T29SSILL
 62
6
 10
926.796
 20
-3361.114
 30
2336.302
 70
    32
  0
VERTEX
  8
T29SSILL
 62
6
 10
957.108
 20
-3338.754
 30
2336.103
 70
    32
  0
VERTEX
  8
T29SSILL
 62
6
 10
965.329
 20
-3337.184
 30
2336.066
 70
    32
  0
VERTEX
  8
T29SSILL
 62
6
 10
956.429
 20
-3325.435
 30
2336.057
 70
    32
  0
VERTEX
  8
T29SSILL
 62
6
 10
951.927
 20
-3329.159
 30
2336.088
 70
    32
  0
SEQEND
  8
T29SSILL
  0
POLYLINE
  8
T29SSILL
 62
6
 66
     1
 70
     9
  0
VERTEX
  8
T29SSILL
 62
6
 10
915.902
 20
-3305.106
 30
2336.137
 70
    32
  0
VERTEX
  8
T29SSILL
 62
6
 10
911.144
 20
-3302.060
 30
2336.143
 70
    32
  0
VERTEX
  8
T29SSILL
 62
6
 10
901.068
 20
-3309.814
 30
2336.211
 70
    32
  0
VERTEX
  8
T29SSILL
 62
6
 10
894.229
 20
-3300.607
 30
2336.203
 70
    32
  0
VERTEX
  8
T29SSILL
 62
6
 10
866.536
 20
-3321.175
 30
2336.385
 70
    32
  0
VERTEX
  8
T29SSILL
 62
6
 10
868.408
 20
-3339.980
 30
2336.425
 70
    32
  0
VERTEX
  8
T29SSILL
 62
6
 10
873.472
 20
-3353.928
 30
2336.429
 70
    32
  0
VERTEX
  8
T29SSILL
 62
6
 10
928.852
 20
-3314.188
 30
2336.121
 70
    32
  0
VERTEX
  8
T29SSILL
 62
6
 10
927.404
 20
-3311.761
 30
2336.117
 70
    32
  0
VERTEX
  8
T29SSILL
 62
6
 10
921.099
 20
-3308.171
 30
2336.128
 70
    32
  0
SEQEND
  8
T29SSILL
  0
POLYLINE
  8
T29SSILL
 62
6
 66
     1
 70
     9
  0
VERTEX
  8
T29SSILL
 62
6
 10
999.014
 20
-3179.166
 30
2335.970
 70
    32
  0
VERTEX
  8
T29SSILL
 62
6
 10
1001.998
 20
-3179.154
 30
2335.965
 70
    32
  0
VERTEX
  8
T29SSILL
 62
6
 10
966.516
 20
-3133.893
 30
2336.031
 70
    32
  0
VERTEX
  8
T29SSILL
 62
6
 10
958.230
 20
-3128.347
 30
2336.045
 70
    32
  0
VERTEX
  8
T29SSILL
 62
6
 10
950.938
 20
-3125.968
 30
2336.057
 70
    32
  0
VERTEX
  8
T29SSILL
 62
6
 10
941.277
 20
-3127.776
 30
2336.071
 70
    32
  0
VERTEX
  8
T29SSILL
 62
6
 10
874.030
 20
-3176.712
 30
2336.159
 70
    32
  0
VERTEX
  8
T29SSILL
 62
6
 10
877.842
 20
-3182.435
 30
2336.151
 70
    32
  0
VERTEX
  8
T29SSILL
 62
6
 10
877.970
 20
-3184.805
 30
2336.150
 70
    32
  0
VERTEX
  8
T29SSILL
 62
6
 10
873.740
 20
-3188.770
 30
2336.156
 70
    32
  0
VERTEX
  8
T29SSILL
 62
6
 10
879.219
 20
-3196.772
 30
2336.145
 70
    32
  0
VERTEX
  8
T29SSILL
 62
6
 10
871.532
 20
-3201.929
 30
2336.155
 70
    32
  0
VERTEX
  8
T29SSILL
 62
6
 10
878.167
 20
-3210.527
 30
2336.143
 70
    32
  0
VERTEX
  8
T29SSILL
 62
6
 10
894.553
 20
-3198.879
 30
2336.121
 70
    32
  0
VERTEX
  8
T29SSILL
 62
6
 10
898.818
 20
-3197.775
 30
2336.115
 70
    32
  0
VERTEX
  8
T29SSILL
 62
6
 10
908.016
 20
-3198.100
 30
2336.101
 70
    32
  0
VERTEX
  8
T29SSILL
 62
6
 10
950.537
 20
-3205.739
 30
2336.035
 70
    32
  0
VERTEX
  8
T29SSILL
 62
6
 10
985.471
 20
-3181.389
 30
2335.990
 70
    32
  0
VERTEX
  8
T29SSILL
 62
6
 10
996.544
 20
-3179.148
 30
2335.974
 70
    32
  0
SEQEND
  8
T29SSILL
  0
POLYLINE
  8
T29SSILL
 62
6
 66
     1
 70
     9
  0
VERTEX
  8
T29SSILL
 62
6
 10
944.300
 20
-3121.111
 30
2336.068
 70
    32
  0
VERTEX
  8
T29SSILL
 62
6
 10
950.664
 20
-3119.638
 30
2336.059
 70
    32
  0
VERTEX
  8
T29SSILL
 62
6
 10
955.244
 20
-3120.242
 30
2336.052
 70
    32
  0
VERTEX
  8
T29SSILL
 62
6
 10
920.153
 20
-3074.927
 30
2336.118
 70
    32
  0
VERTEX
  8
T29SSILL
 62
6
 10
912.894
 20
-3069.320
 30
2336.130
 70
    32
  0
VERTEX
  8
T29SSILL
 62
6
 10
907.072
 20
-3067.216
 30
2336.140
 70
    32
  0
VERTEX
  8
T29SSILL
 62
6
 10
902.400
 20
-3067.103
 30
2336.147
 70
    32
  0
VERTEX
  8
T29SSILL
 62
6
 10
893.823
 20
-3069.557
 30
2336.159
 70
    32
  0
VERTEX
  8
T29SSILL
 62
6
 10
826.445
 20
-3117.834
 30
2336.247
 70
    32
  0
VERTEX
  8
T29SSILL
 62
6
 10
835.070
 20
-3129.024
 30
2336.231
 70
    32
  0
VERTEX
  8
T29SSILL
 62
6
 10
836.158
 20
-3132.018
 30
2336.228
 70
    32
  0
VERTEX
  8
T29SSILL
 62
6
 10
833.380
 20
-3136.699
 30
2336.231
 70
    32
  0
VERTEX
  8
T29SSILL
 62
6
 10
834.123
 20
-3137.472
 30
2336.230
 70
    32
  0
VERTEX
  8
T29SSILL
 62
6
 10
838.974
 20
-3134.258
 30
2336.223
 70
    32
  0
VERTEX
  8
T29SSILL
 62
6
 10
845.560
 20
-3142.783
 30
2336.211
 70
    32
  0
VERTEX
  8
T29SSILL
 62
6
 10
847.665
 20
-3141.021
 30
2336.208
 70
    32
  0
VERTEX
  8
T29SSILL
 62
6
 10
899.856
 20
-3149.516
 30
2336.127
 70
    32
  0
VERTEX
  8
T29SSILL
 62
6
 10
935.172
 20
-3124.477
 30
2336.081
 70
    32
  0
VERTEX
  8
T29SSILL
 62
6
 10
941.371
 20
-3121.515
 30
2336.073
 70
    32
  0
SEQEND
  8
T29SSILL
  0
POLYLINE
  8
T29SSILL
 62
6
 66
     1
 70
     9
  0
VERTEX
  8
T29SSILL
 62
6
 10
894.268
 20
-3062.094
 30
2336.160
 70
    32
  0
VERTEX
  8
T29SSILL
 62
6
 10
901.927
 20
-3060.482
 30
2336.149
 70
    32
  0
VERTEX
  8
T29SSILL
 62
6
 10
909.413
 20
-3060.805
 30
2336.138
 70
    32
  0
VERTEX
  8
T29SSILL
 62
6
 10
873.269
 20
-3015.357
 30
2336.205
 70
    32
  0
VERTEX
  8
T29SSILL
 62
6
 10
868.491
 20
-3010.721
 30
2336.214
 70
    32
  0
VERTEX
  8
T29SSILL
 62
6
 10
862.302
 20
-3008.548
 30
2336.224
 70
    32
  0
VERTEX
  8
T29SSILL
 62
6
 10
851.010
 20
-3008.909
 30
2336.240
 70
    32
  0
VERTEX
  8
T29SSILL
 62
6
 10
847.070
 20
-3010.645
 30
2336.246
 70
    32
  0
VERTEX
  8
T29SSILL
 62
6
 10
778.631
 20
-3060.183
 30
2336.335
 70
    32
  0
VERTEX
  8
T29SSILL
 62
6
 10
790.267
 20
-3075.614
 30
2336.313
 70
    32
  0
VERTEX
  8
T29SSILL
 62
6
 10
782.048
 20
-3081.243
 30
2336.324
 70
    32
  0
VERTEX
  8
T29SSILL
 62
6
 10
788.497
 20
-3090.504
 30
2336.312
 70
    32
  0
VERTEX
  8
T29SSILL
 62
6
 10
800.112
 20
-3082.657
 30
2336.296
 70
    32
  0
VERTEX
  8
T29SSILL
 62
6
 10
852.252
 20
-3091.080
 30
2336.215
 70
    32
  0
VERTEX
  8
T29SSILL
 62
6
 10
892.078
 20
-3062.952
 30
2336.163
 70
    32
  0
SEQEND
  8
T29SSILL
  0
POLYLINE
  8
T29SSILL
 62
6
 66
     1
 70
     9
  0
VERTEX
  8
T29SSILL
 62
6
 10
682.244
 20
-3575.382
 30
2336.570
 70
    32
  0
VERTEX
  8
T29SSILL
 62
6
 10
686.994
 20
-3579.822
 30
2336.563
 70
    32
  0
VERTEX
  8
T29SSILL
 62
6
 10
691.986
 20
-3576.190
 30
2336.555
 70
    32
  0
VERTEX
  8
T29SSILL
 62
6
 10
693.130
 20
-3573.804
 30
2336.553
 70
    32
  0
VERTEX
  8
T29SSILL
 62
6
 10
693.640
 20
-3565.654
 30
2336.550
 70
    32
  0
VERTEX
  8
T29SSILL
 62
6
 10
690.514
 20
-3562.025
 30
2336.555
 70
    32
  0
VERTEX
  8
T29SSILL
 62
6
 10
679.025
 20
-3570.213
 30
2336.574
 70
    32
  0
SEQEND
  8
T29SSILL
  0
POLYLINE
  8
T29SSILL
 62
6
 66
     1
 70
     9
  0
VERTEX
  8
T29SSILL
 62
6
 10
753.386
 20
-3045.630
 30
2336.377
 70
    32
  0
VERTEX
  8
T29SSILL
 62
6
 10
759.148
 20
-3050.766
 30
2336.367
 70
    32
  0
VERTEX
  8
T29SSILL
 62
6
 10
763.675
 20
-3053.009
 30
2336.359
 70
    32
  0
VERTEX
  8
T29SSILL
 62
6
 10
771.292
 20
-3053.990
 30
2336.348
 70
    32
  0
VERTEX
  8
T29SSILL
 62
6
 10
773.173
 20
-3055.800
 30
2336.344
 70
    32
  0
VERTEX
  8
T29SSILL
 62
6
 10
805.170
 20
-3033.248
 30
2336.303
 70
    32
  0
VERTEX
  8
T29SSILL
 62
6
 10
764.173
 20
-3026.275
 30
2336.366
 70
    32
  0
VERTEX
  8
T29SSILL
 62
6
 10
747.329
 20
-3038.345
 30
2336.388
 70
    32
  0
VERTEX
  8
T29SSILL
 62
6
 10
750.945
 20
-3042.066
 30
2336.382
 70
    32
  0
SEQEND
  8
T29SSILL
  0
POLYLINE
  8
T29SSILL
 62
6
 66
     1
 70
     9
  0
VERTEX
  8
T29SSILL
 62
6
 10
814.927
 20
-3186.519
 30
2336.245
 70
    32
  0
VERTEX
  8
T29SSILL
 62
6
 10
816.473
 20
-3185.033
 30
2336.243
 70
    32
  0
VERTEX
  8
T29SSILL
 62
6
 10
813.707
 20
-3180.837
 30
2336.248
 70
    32
  0
VERTEX
  8
T29SSILL
 62
6
 10
785.955
 20
-3198.666
 30
2336.285
 70
    32
  0
VERTEX
  8
T29SSILL
 62
6
 10
781.102
 20
-3235.112
 30
2336.394
 70
    32
  0
VERTEX
  8
T29SSILL
 62
6
 10
797.724
 20
-3222.875
 30
2336.285
 70
    32
  0
VERTEX
  8
T29SSILL
 62
6
 10
800.006
 20
-3218.054
 30
2336.258
 70
    32
  0
SEQEND
  8
T29SSILL
  0
POLYLINE
  8
T29SSILL
 62
6
 66
     1
 70
     9
  0
VERTEX
  8
T29SSILL
 62
6
 10
862.613
 20
-3249.601
 30
2336.155
 70
    32
  0
VERTEX
  8
T29SSILL
 62
6
 10
862.040
 20
-3244.864
 30
2336.157
 70
    32
  0
VERTEX
  8
T29SSILL
 62
6
 10
854.755
 20
-3250.279
 30
2336.168
 70
    32
  0
VERTEX
  8
T29SSILL
 62
6
 10
858.468
 20
-3255.535
 30
2336.173
 70
    32
  0
VERTEX
  8
T29SSILL
 62
6
 10
851.284
 20
-3261.083
 30
2336.221
 70
    32
  0
VERTEX
  8
T29SSILL
 62
6
 10
860.105
 20
-3270.124
 30
2336.221
 70
    32
  0
VERTEX
  8
T29SSILL
 62
6
 10
869.798
 20
-3263.058
 30
2336.158
 70
    32
  0
VERTEX
  8
T29SSILL
 62
6
 10
863.709
 20
-3251.201
 30
2336.153
 70
    32
  0
SEQEND
  8
T29SSILL
  0
POLYLINE
  8
T29SSILL
 62
6
 66
     1
 70
     9
  0
VERTEX
  8
T29SSILL
 62
6
 10
855.826
 20
-3209.265
 30
2336.177
 70
    32
  0
VERTEX
  8
T29SSILL
 62
6
 10
865.100
 20
-3205.799
 30
2336.164
 70
    32
  0
VERTEX
  8
T29SSILL
 62
6
 10
872.816
 20
-3214.726
 30
2336.150
 70
    32
  0
VERTEX
  8
T29SSILL
 62
6
 10
843.870
 20
-3234.869
 30
2336.188
 70
    32
  0
VERTEX
  8
T29SSILL
 62
6
 10
841.172
 20
-3230.275
 30
2336.193
 70
    32
  0
VERTEX
  8
T29SSILL
 62
6
 10
829.924
 20
-3238.222
 30
2336.218
 70
    32
  0
VERTEX
  8
T29SSILL
 62
6
 10
826.878
 20
-3234.015
 30
2336.214
 70
    32
  0
VERTEX
  8
T29SSILL
 62
6
 10
845.116
 20
-3221.087
 30
2336.190
 70
    32
  0
VERTEX
  8
T29SSILL
 62
6
 10
845.570
 20
-3216.288
 30
2336.190
 70
    32
  0
VERTEX
  8
T29SSILL
 62
6
 10
851.213
 20
-3211.890
 30
2336.183
 70
    32
  0
SEQEND
  8
T29SSILL
  0
POLYLINE
  8
T29SSILL
 62
6
 66
     1
 70
     9
  0
VERTEX
  8
T29SSILL
 62
6
 10
981.739
 20
-3420.620
 30
2336.284
 70
    32
  0
VERTEX
  8
T29SSILL
 62
6
 10
979.490
 20
-3428.491
 30
2336.296
 70
    32
  0
VERTEX
  8
T29SSILL
 62
6
 10
965.518
 20
-3440.461
 30
2336.336
 70
    32
  0
VERTEX
  8
T29SSILL
 62
6
 10
968.845
 20
-3446.113
 30
2336.335
 70
    32
  0
VERTEX
  8
T29SSILL
 62
6
 10
976.930
 20
-3452.832
 30
2336.326
 70
    32
  0
VERTEX
  8
T29SSILL
 62
6
 10
978.342
 20
-3453.275
 30
2336.324
 70
    32
  0
VERTEX
  8
T29SSILL
 62
6
 10
983.202
 20
-3449.220
 30
2336.310
 70
    32
  0
VERTEX
  8
T29SSILL
 62
6
 10
987.255
 20
-3455.493
 30
2336.309
 70
    32
  0
VERTEX
  8
T29SSILL
 62
6
 10
1023.834
 20
-3429.320
 30
2336.183
 70
    32
  0
VERTEX
  8
T29SSILL
 62
6
 10
1026.286
 20
-3421.124
 30
2336.143
 70
    32
  0
VERTEX
  8
T29SSILL
 62
6
 10
1006.410
 20
-3393.333
 30
2336.116
 70
    32
  0
VERTEX
  8
T29SSILL
 62
6
 10
992.481
 20
-3402.978
 30
2336.205
 70
    32
  0
VERTEX
  8
T29SSILL
 62
6
 10
993.893
 20
-3405.112
 30
2336.208
 70
    32
  0
VERTEX
  8
T29SSILL
 62
6
 10
983.495
 20
-3412.419
 30
2336.272
 70
    32
  0
SEQEND
  8
T29SSILL
  0
POLYLINE
  8
T29SSILL
 62
6
 66
     1
 70
     9
  0
VERTEX
  8
T29SSILL
 62
6
 10
991.207
 20
-3373.101
 30
2336.100
 70
    32
  0
VERTEX
  8
T29SSILL
 62
6
 10
986.099
 20
-3373.287
 30
2336.120
 70
    32
  0
VERTEX
  8
T29SSILL
 62
6
 10
972.255
 20
-3382.874
 30
2336.208
 70
    32
  0
VERTEX
  8
T29SSILL
 62
6
 10
980.314
 20
-3397.763
 30
2336.233
 70
    32
  0
VERTEX
  8
T29SSILL
 62
6
 10
969.620
 20
-3391.196
 30
2336.249
 70
    32
  0
VERTEX
  8
T29SSILL
 62
6
 10
958.901
 20
-3408.153
 30
2336.316
 70
    32
  0
VERTEX
  8
T29SSILL
 62
6
 10
956.699
 20
-3417.888
 30
2336.331
 70
    32
  0
VERTEX
  8
T29SSILL
 62
6
 10
963.347
 20
-3409.809
 30
2336.309
 70
    32
  0
VERTEX
  8
T29SSILL
 62
6
 10
976.885
 20
-3401.180
 30
2336.258
 70
    32
  0
VERTEX
  8
T29SSILL
 62
6
 10
979.934
 20
-3404.541
 30
2336.259
 70
    32
  0
VERTEX
  8
T29SSILL
 62
6
 10
1003.191
 20
-3387.012
 30
2336.105
 70
    32
  0
VERTEX
  8
T29SSILL
 62
6
 10
993.034
 20
-3374.521
 30
2336.098
 70
    32
  0
SEQEND
  8
T29SSILL
  0
POLYLINE
  8
T29SSILL
 62
6
 66
     1
 70
     9
  0
VERTEX
  8
T29SSILL
 62
6
 10
934.214
 20
-3381.464
 30
2336.338
 70
    32
  0
VERTEX
  8
T29SSILL
 62
6
 10
929.520
 20
-3383.503
 30
2336.349
 70
    32
  0
VERTEX
  8
T29SSILL
 62
6
 10
945.114
 20
-3386.928
 30
2336.322
 70
    32
  0
VERTEX
  8
T29SSILL
 62
6
 10
938.530
 20
-3374.662
 30
2336.307
 70
    32
  0
VERTEX
  8
T29SSILL
 62
6
 10
956.910
 20
-3362.182
 30
2336.191
 70
    32
  0
VERTEX
  8
T29SSILL
 62
6
 10
967.938
 20
-3377.817
 30
2336.206
 70
    32
  0
VERTEX
  8
T29SSILL
 62
6
 10
985.701
 20
-3364.905
 30
2336.090
 70
    32
  0
VERTEX
  8
T29SSILL
 62
6
 10
970.252
 20
-3343.750
 30
2336.071
 70
    32
  0
VERTEX
  8
T29SSILL
 62
6
 10
961.668
 20
-3345.568
 30
2336.111
 70
    32
  0
VERTEX
  8
T29SSILL
 62
6
 10
935.417
 20
-3364.186
 30
2336.280
 70
    32
  0
VERTEX
  8
T29SSILL
 62
6
 10
936.231
 20
-3378.744
 30
2336.331
 70
    32
  0
SEQEND
  8
T29SSILL
  0
POLYLINE
  8
T29SSILL
 62
6
 66
     1
 70
     9
  0
VERTEX
  8
T29SSILL
 62
6
 10
917.475
 20
-3244.834
 30
2336.074
 70
    32
  0
VERTEX
  8
T29SSILL
 62
6
 10
920.058
 20
-3250.011
 30
2336.069
 70
    32
  0
VERTEX
  8
T29SSILL
 62
6
 10
917.123
 20
-3255.867
 30
2336.071
 70
    32
  0
VERTEX
  8
T29SSILL
 62
6
 10
918.362
 20
-3261.109
 30
2336.068
 70
    32
  0
VERTEX
  8
T29SSILL
 62
6
 10
917.619
 20
-3262.365
 30
2336.069
 70
    32
  0
VERTEX
  8
T29SSILL
 62
6
 10
924.420
 20
-3270.424
 30
2336.056
 70
    32
  0
VERTEX
  8
T29SSILL
 62
6
 10
936.804
 20
-3261.515
 30
2336.040
 70
    32
  0
VERTEX
  8
T29SSILL
 62
6
 10
941.091
 20
-3256.229
 30
2336.035
 70
    32
  0
VERTEX
  8
T29SSILL
 62
6
 10
947.095
 20
-3216.003
 30
2336.038
 70
    32
  0
VERTEX
  8
T29SSILL
 62
6
 10
915.110
 20
-3239.509
 30
2336.079
 70
    32
  0
VERTEX
  8
T29SSILL
 62
6
 10
915.704
 20
-3242.093
 30
2336.077
 70
    32
  0
SEQEND
  8
T29SSILL
  0
POLYLINE
  8
T29SSILL
 62
6
 66
     1
 70
     9
  0
VERTEX
  8
T29SSILL
 62
6
 10
903.933
 20
-3203.996
 30
2336.106
 70
    32
  0
VERTEX
  8
T29SSILL
 62
6
 10
900.464
 20
-3204.234
 30
2336.111
 70
    32
  0
VERTEX
  8
T29SSILL
 62
6
 10
890.889
 20
-3211.005
 30
2336.124
 70
    32
  0
VERTEX
  8
T29SSILL
 62
6
 10
892.832
 20
-3213.842
 30
2336.120
 70
    32
  0
VERTEX
  8
T29SSILL
 62
6
 10
885.489
 20
-3219.190
 30
2336.129
 70
    32
  0
VERTEX
  8
T29SSILL
 62
6
 10
889.451
 20
-3225.132
 30
2336.122
 70
    32
  0
VERTEX
  8
T29SSILL
 62
6
 10
890.906
 20
-3224.136
 30
2336.120
 70
    32
  0
VERTEX
  8
T29SSILL
 62
6
 10
896.341
 20
-3228.641
 30
2336.110
 70
    32
  0
VERTEX
  8
T29SSILL
 62
6
 10
904.985
 20
-3231.590
 30
2336.097
 70
    32
  0
VERTEX
  8
T29SSILL
 62
6
 10
908.384
 20
-3235.460
 30
2336.090
 70
    32
  0
VERTEX
  8
T29SSILL
 62
6
 10
942.387
 20
-3211.000
 30
2336.046
 70
    32
  0
VERTEX
  8
T29SSILL
 62
6
 10
905.894
 20
-3204.362
 30
2336.103
 70
    32
  0
SEQEND
  8
T29SSILL
  0
POLYLINE
  8
T29SSILL
 62
6
 66
     1
 70
     9
  0
VERTEX
  8
T29SSILL
 62
6
 10
377.758
 20
-2711.021
 30
2336.836
 70
    32
  0
VERTEX
  8
T29SSILL
 62
6
 10
305.675
 20
-2762.414
 30
2336.994
 70
    32
  0
VERTEX
  8
T29SSILL
 62
6
 10
309.955
 20
-2768.351
 30
2336.997
 70
    32
  0
VERTEX
  8
T29SSILL
 62
6
 10
303.473
 20
-2772.149
 30
2337.010
 70
    32
  0
VERTEX
  8
T29SSILL
 62
6
 10
299.829
 20
-2766.203
 30
2337.006
 70
    32
  0
VERTEX
  8
T29SSILL
 62
6
 10
257.059
 20
-2797.522
 30
2337.102
 70
    32
  0
VERTEX
  8
T29SSILL
 62
6
 10
261.159
 20
-2802.728
 30
2337.104
 70
    32
  0
VERTEX
  8
T29SSILL
 62
6
 10
254.612
 20
-2807.211
 30
2337.118
 70
    32
  0
VERTEX
  8
T29SSILL
 62
6
 10
250.999
 20
-2801.779
 30
2337.115
 70
    32
  0
VERTEX
  8
T29SSILL
 62
6
 10
204.175
 20
-2835.446
 30
2337.218
 70
    32
  0
VERTEX
  8
T29SSILL
 62
6
 10
199.245
 20
-2840.105
 30
2337.231
 70
    32
  0
VERTEX
  8
T29SSILL
 62
6
 10
195.429
 20
-2845.923
 30
2337.243
 70
    32
  0
VERTEX
  8
T29SSILL
 62
6
 10
194.609
 20
-2852.682
 30
2337.254
 70
    32
  0
VERTEX
  8
T29SSILL
 62
6
 10
195.159
 20
-2859.571
 30
2337.262
 70
    32
  0
VERTEX
  8
T29SSILL
 62
6
 10
197.343
 20
-2864.166
 30
2337.265
 70
    32
  0
VERTEX
  8
T29SSILL
 62
6
 10
237.425
 20
-2919.419
 30
2337.241
 70
    32
  0
VERTEX
  8
T29SSILL
 62
6
 10
333.764
 20
-2850.241
 30
2337.065
 70
    32
  0
VERTEX
  8
T29SSILL
 62
6
 10
337.927
 20
-2840.873
 30
2337.063
 70
    32
  0
VERTEX
  8
T29SSILL
 62
6
 10
342.835
 20
-2838.366
 30
2337.053
 70
    32
  0
VERTEX
  8
T29SSILL
 62
6
 10
349.636
 20
-2838.624
 30
2337.045
 70
    32
  0
VERTEX
  8
T29SSILL
 62
6
 10
480.939
 20
-2745.610
 30
2336.758
 70
    32
  0
VERTEX
  8
T29SSILL
 62
6
 10
401.673
 20
-2713.022
 30
2336.809
 70
    32
  0
VERTEX
  8
T29SSILL
 62
6
 10
390.260
 20
-2709.619
 30
2336.819
 70
    32
  0
SEQEND
  8
T29SSILL
  0
POLYLINE
  8
T29SSILL
 62
6
 66
     1
 70
     9
  0
VERTEX
  8
T29SSILL
 62
6
 10
772.234
 20
-2889.973
 30
2336.392
 70
    32
  0
VERTEX
  8
T29SSILL
 62
6
 10
763.690
 20
-2889.199
 30
2336.405
 70
    32
  0
VERTEX
  8
T29SSILL
 62
6
 10
755.213
 20
-2891.798
 30
2336.417
 70
    32
  0
VERTEX
  8
T29SSILL
 62
6
 10
700.797
 20
-2930.451
 30
2336.488
 70
    32
  0
VERTEX
  8
T29SSILL
 62
6
 10
710.822
 20
-2948.055
 30
2336.468
 70
    32
  0
VERTEX
  8
T29SSILL
 62
6
 10
703.234
 20
-2953.357
 30
2336.478
 70
    32
  0
VERTEX
  8
T29SSILL
 62
6
 10
708.917
 20
-2961.968
 30
2336.467
 70
    32
  0
VERTEX
  8
T29SSILL
 62
6
 10
715.659
 20
-2959.487
 30
2336.458
 70
    32
  0
VERTEX
  8
T29SSILL
 62
6
 10
722.469
 20
-2959.086
 30
2336.448
 70
    32
  0
VERTEX
  8
T29SSILL
 62
6
 10
768.833
 20
-2966.455
 30
2336.376
 70
    32
  0
VERTEX
  8
T29SSILL
 62
6
 10
798.552
 20
-2945.569
 30
2336.337
 70
    32
  0
VERTEX
  8
T29SSILL
 62
6
 10
808.419
 20
-2942.658
 30
2336.323
 70
    32
  0
VERTEX
  8
T29SSILL
 62
6
 10
816.557
 20
-2942.215
 30
2336.311
 70
    32
  0
VERTEX
  8
T29SSILL
 62
6
 10
782.082
 20
-2897.333
 30
2336.375
 70
    32
  0
VERTEX
  8
T29SSILL
 62
6
 10
775.340
 20
-2892.013
 30
2336.387
 70
    32
  0
SEQEND
  8
T29SSILL
  0
POLYLINE
  8
T29SSILL
 62
6
 66
     1
 70
     9
  0
VERTEX
  8
T29SSILL
 62
6
 10
662.697
 20
-2926.304
 30
2336.547
 70
    32
  0
VERTEX
  8
T29SSILL
 62
6
 10
676.332
 20
-2923.591
 30
2336.527
 70
    32
  0
VERTEX
  8
T29SSILL
 62
6
 10
685.014
 20
-2933.460
 30
2336.511
 70
    32
  0
VERTEX
  8
T29SSILL
 62
6
 10
701.762
 20
-2921.563
 30
2336.490
 70
    32
  0
VERTEX
  8
T29SSILL
 62
6
 10
653.643
 20
-2914.019
 30
2336.564
 70
    32
  0
SEQEND
  8
T29SSILL
  0
POLYLINE
  8
T29SSILL
 62
6
 66
     1
 70
     9
  0
VERTEX
  8
T29SSILL
 62
6
 10
1215.136
 20
-3638.419
 30
2335.580
 70
    32
  0
VERTEX
  8
T29SSILL
 62
6
 10
1199.516
 20
-3634.516
 30
2335.621
 70
    32
  0
VERTEX
  8
T29SSILL
 62
6
 10
1189.026
 20
-3622.056
 30
2335.661
 70
    32
  0
VERTEX
  8
T29SSILL
 62
6
 10
1188.770
 20
-3614.993
 30
2335.670
 70
    32
  0
VERTEX
  8
T29SSILL
 62
6
 10
1180.310
 20
-3603.065
 30
2335.704
 70
    32
  0
VERTEX
  8
T29SSILL
 62
6
 10
1175.635
 20
-3600.764
 30
2335.718
 70
    32
  0
VERTEX
  8
T29SSILL
 62
6
 10
1171.133
 20
-3600.141
 30
2335.729
 70
    32
  0
VERTEX
  8
T29SSILL
 62
6
 10
1130.152
 20
-3545.535
 30
2335.891
 70
    32
  0
VERTEX
  8
T29SSILL
 62
6
 10
1135.118
 20
-3542.186
 30
2335.879
 70
    32
  0
VERTEX
  8
T29SSILL
 62
6
 10
1139.207
 20
-3546.920
 30
2335.866
 70
    32
  0
VERTEX
  8
T29SSILL
 62
6
 10
1158.504
 20
-3533.653
 30
2335.805
 70
    32
  0
VERTEX
  8
T29SSILL
 62
6
 10
1154.714
 20
-3528.175
 30
2335.811
 70
    32
  0
VERTEX
  8
T29SSILL
 62
6
 10
1198.891
 20
-3497.333
 30
2335.655
 70
    32
  0
VERTEX
  8
T29SSILL
 62
6
 10
1209.667
 20
-3492.314
 30
2335.619
 70
    32
  0
VERTEX
  8
T29SSILL
 62
6
 10
1218.849
 20
-3491.178
 30
2335.590
 70
    32
  0
VERTEX
  8
T29SSILL
 62
6
 10
1230.148
 20
-3492.075
 30
2335.557
 70
    32
  0
VERTEX
  8
T29SSILL
 62
6
 10
1244.883
 20
-3497.125
 30
2335.516
 70
    32
  0
VERTEX
  8
T29SSILL
 62
6
 10
1248.852
 20
-3499.954
 30
2335.506
 70
    32
  0
VERTEX
  8
T29SSILL
 62
6
 10
1258.287
 20
-3509.059
 30
2335.487
 70
    32
  0
VERTEX
  8
T29SSILL
 62
6
 10
1532.036
 20
-3856.595
 30
2334.637
 70
    32
  0
VERTEX
  8
T29SSILL
 62
6
 10
1553.862
 20
-3886.225
 30
2334.658
 70
    32
  0
VERTEX
  8
T29SSILL
 62
6
 10
1611.878
 20
-3937.661
 30
2334.603
 70
    32
  0
VERTEX
  8
T29SSILL
 62
6
 10
1602.431
 20
-3935.915
 30
2334.639
 70
    32
  0
VERTEX
  8
T29SSILL
 62
6
 10
1589.134
 20
-3936.678
 30
2334.702
 70
    32
  0
VERTEX
  8
T29SSILL
 62
6
 10
1580.796
 20
-3939.589
 30
2334.751
 70
    32
  0
VERTEX
  8
T29SSILL
 62
6
 10
1496.831
 20
-3980.253
 30
2335.230
 70
    32
  0
VERTEX
  8
T29SSILL
 62
6
 10
1476.828
 20
-3988.140
 30
2335.347
 70
    32
  0
VERTEX
  8
T29SSILL
 62
6
 10
1469.481
 20
-3993.155
 30
2335.395
 70
    32
  0
VERTEX
  8
T29SSILL
 62
6
 10
1418.235
 20
-3924.374
 30
2335.462
 70
    32
  0
VERTEX
  8
T29SSILL
 62
6
 10
1422.634
 20
-3923.797
 30
2335.451
 70
    32
  0
VERTEX
  8
T29SSILL
 62
6
 10
1427.171
 20
-3919.694
 30
2335.433
 70
    32
  0
VERTEX
  8
T29SSILL
 62
6
 10
1431.225
 20
-3919.825
 30
2335.424
 70
    32
  0
VERTEX
  8
T29SSILL
 62
6
 10
1434.360
 20
-3908.424
 30
2335.397
 70
    32
  0
VERTEX
  8
T29SSILL
 62
6
 10
1430.877
 20
-3896.215
 30
2335.384
 70
    32
  0
VERTEX
  8
T29SSILL
 62
6
 10
1436.490
 20
-3877.825
 30
2335.322
 70
    32
  0
VERTEX
  8
T29SSILL
 62
6
 10
1437.215
 20
-3873.598
 30
2335.302
 70
    32
  0
VERTEX
  8
T29SSILL
 62
6
 10
1436.339
 20
-3868.389
 30
2335.295
 70
    32
  0
VERTEX
  8
T29SSILL
 62
6
 10
1441.379
 20
-3861.509
 30
2335.225
 70
    32
  0
VERTEX
  8
T29SSILL
 62
6
 10
1440.146
 20
-3859.389
 30
2335.230
 70
    32
  0
VERTEX
  8
T29SSILL
 62
6
 10
1436.178
 20
-3855.588
 30
2335.258
 70
    32
  0
VERTEX
  8
T29SSILL
 62
6
 10
1428.053
 20
-3858.580
 30
2335.326
 70
    32
  0
VERTEX
  8
T29SSILL
 62
6
 10
1419.837
 20
-3863.601
 30
2335.354
 70
    32
  0
VERTEX
  8
T29SSILL
 62
6
 10
1412.508
 20
-3864.740
 30
2335.373
 70
    32
  0
VERTEX
  8
T29SSILL
 62
6
 10
1407.657
 20
-3861.821
 30
2335.379
 70
    32
  0
VERTEX
  8
T29SSILL
 62
6
 10
1407.403
 20
-3853.081
 30
2335.365
 70
    32
  0
VERTEX
  8
T29SSILL
 62
6
 10
1405.460
 20
-3853.432
 30
2335.370
 70
    32
  0
VERTEX
  8
T29SSILL
 62
6
 10
1401.582
 20
-3848.307
 30
2335.370
 70
    32
  0
VERTEX
  8
T29SSILL
 62
6
 10
1393.817
 20
-3846.091
 30
2335.384
 70
    32
  0
VERTEX
  8
T29SSILL
 62
6
 10
1386.312
 20
-3847.141
 30
2335.404
 70
    32
  0
VERTEX
  8
T29SSILL
 62
6
 10
1383.219
 20
-3849.785
 30
2335.415
 70
    32
  0
VERTEX
  8
T29SSILL
 62
6
 10
1381.183
 20
-3854.020
 30
2335.427
 70
    32
  0
VERTEX
  8
T29SSILL
 62
6
 10
1383.633
 20
-3872.120
 30
2335.453
 70
    32
  0
VERTEX
  8
T29SSILL
 62
6
 10
1383.011
 20
-3875.209
 30
2335.459
 70
    32
  0
VERTEX
  8
T29SSILL
 62
6
 10
1381.000
 20
-3876.000
 30
2335.465
 70
    32
  0
VERTEX
  8
T29SSILL
 62
6
 10
1358.957
 20
-3849.332
 30
2335.471
 70
    32
  0
VERTEX
  8
T29SSILL
 62
6
 10
1282.091
 20
-3748.230
 30
2335.476
 70
    32
  0
VERTEX
  8
T29SSILL
 62
6
 10
1280.259
 20
-3730.043
 30
2335.449
 70
    32
  0
VERTEX
  8
T29SSILL
 62
6
 10
1285.212
 20
-3722.810
 30
2335.425
 70
    32
  0
VERTEX
  8
T29SSILL
 62
6
 10
1276.476
 20
-3719.886
 30
2335.440
 70
    32
  0
VERTEX
  8
T29SSILL
 62
6
 10
1268.275
 20
-3712.549
 30
2335.447
 70
    32
  0
VERTEX
  8
T29SSILL
 62
6
 10
1261.310
 20
-3705.655
 30
2335.451
 70
    32
  0
VERTEX
  8
T29SSILL
 62
6
 10
1263.431
 20
-3703.451
 30
2335.443
 70
    32
  0
VERTEX
  8
T29SSILL
 62
6
 10
1259.113
 20
-3697.796
 30
2335.443
 70
    32
  0
VERTEX
  8
T29SSILL
 62
6
 10
1254.517
 20
-3702.557
 30
2335.462
 70
    32
  0
VERTEX
  8
T29SSILL
 62
6
 10
1249.572
 20
-3703.698
 30
2335.475
 70
    32
  0
VERTEX
  8
T29SSILL
 62
6
 10
1237.056
 20
-3687.881
 30
2335.477
 70
    32
  0
VERTEX
  8
T29SSILL
 62
6
 10
1236.890
 20
-3678.965
 30
2335.481
 70
    32
  0
VERTEX
  8
T29SSILL
 62
6
 10
1239.453
 20
-3676.585
 30
2335.477
 70
    32
  0
VERTEX
  8
T29SSILL
 62
6
 10
1230.555
 20
-3662.008
 30
2335.515
 70
    32
  0
VERTEX
  8
T29SSILL
 62
6
 10
1216.191
 20
-3642.216
 30
2335.573
 70
    32
  0
SEQEND
  8
T29SSILL
  0
POLYLINE
  8
T29SSILL
 62
6
 66
     1
 70
     9
  0
VERTEX
  8
T29SSILL
 62
6
 10
1879.678
 20
-2707.778
 30
2334.794
 70
    32
  0
VERTEX
  8
T29SSILL
 62
6
 10
1879.079
 20
-2709.368
 30
2334.793
 70
    32
  0
VERTEX
  8
T29SSILL
 62
6
 10
1880.597
 20
-2711.550
 30
2334.788
 70
    32
  0
VERTEX
  8
T29SSILL
 62
6
 10
1888.571
 20
-2717.095
 30
2334.770
 70
    32
  0
VERTEX
  8
T29SSILL
 62
6
 10
1898.170
 20
-2701.602
 30
2334.771
 70
    32
  0
VERTEX
  8
T29SSILL
 62
6
 10
1904.461
 20
-2706.022
 30
2334.757
 70
    32
  0
VERTEX
  8
T29SSILL
 62
6
 10
1894.680
 20
-2720.900
 30
2334.756
 70
    32
  0
VERTEX
  8
T29SSILL
 62
6
 10
1935.848
 20
-2746.587
 30
2334.682
 70
    32
  0
VERTEX
  8
T29SSILL
 62
6
 10
1949.085
 20
-2725.779
 30
2334.668
 70
    32
  0
VERTEX
  8
T29SSILL
 62
6
 10
1917.888
 20
-2686.531
 30
2334.756
 70
    32
  0
VERTEX
  8
T29SSILL
 62
6
 10
1904.360
 20
-2696.436
 30
2334.767
 70
    32
  0
VERTEX
  8
T29SSILL
 62
6
 10
1893.558
 20
-2697.957
 30
2334.782
 70
    32
  0
SEQEND
  8
T29SSILL
  0
POLYLINE
  8
T29SSILL
 62
6
 66
     1
 70
     9
  0
VERTEX
  8
T29SSILL
 62
6
 10
2377.154
 20
-3928.060
 30
2333.286
 70
    32
  0
VERTEX
  8
T29SSILL
 62
6
 10
2387.866
 20
-3934.607
 30
2333.260
 70
    32
  0
VERTEX
  8
T29SSILL
 62
6
 10
2394.087
 20
-3942.282
 30
2333.238
 70
    32
  0
VERTEX
  8
T29SSILL
 62
6
 10
2407.070
 20
-3953.675
 30
2333.201
 70
    32
  0
VERTEX
  8
T29SSILL
 62
6
 10
2416.821
 20
-3958.195
 30
2333.180
 70
    32
  0
VERTEX
  8
T29SSILL
 62
6
 10
2417.783
 20
-3959.869
 30
2333.175
 70
    32
  0
VERTEX
  8
T29SSILL
 62
6
 10
2420.982
 20
-3976.949
 30
2333.142
 70
    32
  0
VERTEX
  8
T29SSILL
 62
6
 10
2413.340
 20
-3999.270
 30
2333.114
 70
    32
  0
VERTEX
  8
T29SSILL
 62
6
 10
2369.727
 20
-3939.033
 30
2333.278
 70
    32
  0
VERTEX
  8
T29SSILL
 62
6
 10
2369.748
 20
-3932.874
 30
2333.288
 70
    32
  0
SEQEND
  8
T29SSILL
  0
POLYLINE
  8
T29SSILL
 62
6
 66
     1
 70
     9
  0
VERTEX
  8
T29SSILL
 62
6
 10
2326.241
 20
-3869.114
 30
2333.565
 70
    32
  0
VERTEX
  8
T29SSILL
 62
6
 10
2327.495
 20
-3864.129
 30
2333.578
 70
    32
  0
VERTEX
  8
T29SSILL
 62
6
 10
2324.270
 20
-3859.273
 30
2333.577
 70
    32
  0
VERTEX
  8
T29SSILL
 62
6
 10
2312.830
 20
-3851.824
 30
2333.583
 70
    32
  0
VERTEX
  8
T29SSILL
 62
6
 10
2308.257
 20
-3853.628
 30
2333.591
 70
    32
  0
VERTEX
  8
T29SSILL
 62
6
 10
2321.243
 20
-3873.049
 30
2333.559
 70
    32
  0
VERTEX
  8
T29SSILL
 62
6
 10
2323.854
 20
-3872.483
 30
2333.556
 70
    32
  0
SEQEND
  8
T29SSILL
  0
POLYLINE
  8
T29SSILL
 62
6
 66
     1
 70
     9
  0
VERTEX
  8
T29SSILL
 62
6
 10
2990.379
 20
-4407.601
 30
2332.718
 70
    32
  0
VERTEX
  8
T29SSILL
 62
6
 10
2989.446
 20
-4404.838
 30
2332.720
 70
    32
  0
VERTEX
  8
T29SSILL
 62
6
 10
3056.586
 20
-4356.892
 30
2332.737
 70
    32
  0
VERTEX
  8
T29SSILL
 62
6
 10
3056.895
 20
-4354.236
 30
2332.739
 70
    32
  0
VERTEX
  8
T29SSILL
 62
6
 10
3053.915
 20
-4349.257
 30
2332.744
 70
    32
  0
VERTEX
  8
T29SSILL
 62
6
 10
3050.526
 20
-4346.791
 30
2332.746
 70
    32
  0
VERTEX
  8
T29SSILL
 62
6
 10
3048.110
 20
-4342.171
 30
2332.750
 70
    32
  0
VERTEX
  8
T29SSILL
 62
6
 10
3032.309
 20
-4327.464
 30
2332.766
 70
    32
  0
VERTEX
  8
T29SSILL
 62
6
 10
3022.843
 20
-4315.334
 30
2332.775
 70
    32
  0
VERTEX
  8
T29SSILL
 62
6
 10
3020.655
 20
-4313.535
 30
2332.774
 70
    32
  0
VERTEX
  8
T29SSILL
 62
6
 10
3016.516
 20
-4313.389
 30
2332.774
 70
    32
  0
VERTEX
  8
T29SSILL
 62
6
 10
3009.786
 20
-4316.929
 30
2332.775
 70
    32
  0
VERTEX
  8
T29SSILL
 62
6
 10
3003.718
 20
-4308.664
 30
2332.770
 70
    32
  0
VERTEX
  8
T29SSILL
 62
6
 10
3009.364
 20
-4304.641
 30
2332.769
 70
    32
  0
VERTEX
  8
T29SSILL
 62
6
 10
3005.330
 20
-4299.434
 30
2332.766
 70
    32
  0
VERTEX
  8
T29SSILL
 62
6
 10
3041.774
 20
-4273.460
 30
2332.755
 70
    32
  0
VERTEX
  8
T29SSILL
 62
6
 10
3036.210
 20
-4268.374
 30
2332.752
 70
    32
  0
VERTEX
  8
T29SSILL
 62
6
 10
2991.721
 20
-4300.297
 30
2332.765
 70
    32
  0
VERTEX
  8
T29SSILL
 62
6
 10
2989.032
 20
-4296.071
 30
2332.763
 70
    32
  0
VERTEX
  8
T29SSILL
 62
6
 10
2979.487
 20
-4303.090
 30
2332.766
 70
    32
  0
VERTEX
  8
T29SSILL
 62
6
 10
2971.633
 20
-4292.524
 30
2332.760
 70
    32
  0
VERTEX
  8
T29SSILL
 62
6
 10
2978.616
 20
-4288.601
 30
2332.758
 70
    32
  0
VERTEX
  8
T29SSILL
 62
6
 10
3033.779
 20
-4248.636
 30
2332.742
 70
    32
  0
VERTEX
  8
T29SSILL
 62
6
 10
3033.135
 20
-4245.674
 30
2332.740
 70
    32
  0
VERTEX
  8
T29SSILL
 62
6
 10
3021.911
 20
-4231.131
 30
2332.732
 70
    32
  0
VERTEX
  8
T29SSILL
 62
6
 10
3021.542
 20
-4226.706
 30
2332.730
 70
    32
  0
VERTEX
  8
T29SSILL
 62
6
 10
3085.713
 20
-4180.792
 30
2332.711
 70
    32
  0
VERTEX
  8
T29SSILL
 62
6
 10
3092.009
 20
-4184.246
 30
2332.713
 70
    32
  0
VERTEX
  8
T29SSILL
 62
6
 10
3100.417
 20
-4191.252
 30
2332.718
 70
    32
  0
VERTEX
  8
T29SSILL
 62
6
 10
3108.840
 20
-4195.484
 30
2332.720
 70
    32
  0
VERTEX
  8
T29SSILL
 62
6
 10
3124.637
 20
-4183.297
 30
2332.715
 70
    32
  0
VERTEX
  8
T29SSILL
 62
6
 10
3128.295
 20
-4188.024
 30
2332.718
 70
    32
  0
VERTEX
  8
T29SSILL
 62
6
 10
3122.772
 20
-4192.227
 30
2332.720
 70
    32
  0
VERTEX
  8
T29SSILL
 62
6
 10
3129.378
 20
-4201.605
 30
2332.725
 70
    32
  0
VERTEX
  8
T29SSILL
 62
6
 10
3111.170
 20
-4213.733
 30
2332.730
 70
    32
  0
VERTEX
  8
T29SSILL
 62
6
 10
3115.027
 20
-4218.948
 30
2332.733
 70
    32
  0
VERTEX
  8
T29SSILL
 62
6
 10
3133.330
 20
-4207.216
 30
2332.728
 70
    32
  0
VERTEX
  8
T29SSILL
 62
6
 10
3137.478
 20
-4213.105
 30
2332.731
 70
    32
  0
VERTEX
  8
T29SSILL
 62
6
 10
3141.951
 20
-4224.929
 30
2332.738
 70
    32
  0
VERTEX
  8
T29SSILL
 62
6
 10
3142.258
 20
-4244.494
 30
2332.748
 70
    32
  0
VERTEX
  8
T29SSILL
 62
6
 10
3129.316
 20
-4253.240
 30
2332.751
 70
    32
  0
VERTEX
  8
T29SSILL
 62
6
 10
3129.369
 20
-4259.690
 30
2332.754
 70
    32
  0
VERTEX
  8
T29SSILL
 62
6
 10
3133.168
 20
-4266.021
 30
2332.758
 70
    32
  0
VERTEX
  8
T29SSILL
 62
6
 10
3150.695
 20
-4286.671
 30
2332.763
 70
    32
  0
VERTEX
  8
T29SSILL
 62
6
 10
3153.802
 20
-4287.948
 30
2332.761
 70
    32
  0
VERTEX
  8
T29SSILL
 62
6
 10
3158.635
 20
-4287.087
 30
2332.761
 70
    32
  0
VERTEX
  8
T29SSILL
 62
6
 10
3168.904
 20
-4278.787
 30
2332.764
 70
    32
  0
VERTEX
  8
T29SSILL
 62
6
 10
3171.953
 20
-4283.399
 30
2332.760
 70
    32
  0
VERTEX
  8
T29SSILL
 62
6
 10
3176.183
 20
-4295.178
 30
2332.750
 70
    32
  0
VERTEX
  8
T29SSILL
 62
6
 10
3110.297
 20
-4342.159
 30
2332.733
 70
    32
  0
VERTEX
  8
T29SSILL
 62
6
 10
3107.461
 20
-4343.142
 30
2332.733
 70
    32
  0
VERTEX
  8
T29SSILL
 62
6
 10
3104.408
 20
-4342.254
 30
2332.735
 70
    32
  0
VERTEX
  8
T29SSILL
 62
6
 10
3074.372
 20
-4317.616
 30
2332.761
 70
    32
  0
VERTEX
  8
T29SSILL
 62
6
 10
3063.020
 20
-4318.895
 30
2332.763
 70
    32
  0
VERTEX
  8
T29SSILL
 62
6
 10
3094.883
 20
-4343.560
 30
2332.736
 70
    32
  0
VERTEX
  8
T29SSILL
 62
6
 10
3100.233
 20
-4349.362
 30
2332.731
 70
    32
  0
VERTEX
  8
T29SSILL
 62
6
 10
3065.964
 20
-4373.866
 30
2332.722
 70
    32
  0
VERTEX
  8
T29SSILL
 62
6
 10
3059.382
 20
-4364.866
 30
2332.731
 70
    32
  0
VERTEX
  8
T29SSILL
 62
6
 10
3029.748
 20
-4386.200
 30
2332.723
 70
    32
  0
VERTEX
  8
T29SSILL
 62
6
 10
3035.987
 20
-4395.010
 30
2332.715
 70
    32
  0
VERTEX
  8
T29SSILL
 62
6
 10
2998.942
 20
-4421.519
 30
2332.705
 70
    32
  0
VERTEX
  8
T29SSILL
 62
6
 10
2992.178
 20
-4411.474
 30
2332.715
 70
    32
  0
SEQEND
  8
T29SSILL
  0
POLYLINE
  8
T29SSILL
 62
6
 66
     1
 70
     9
  0
VERTEX
  8
T29SSILL
 62
6
 10
3176.734
 20
-4302.668
 30
2332.744
 70
    32
  0
VERTEX
  8
T29SSILL
 62
6
 10
3180.050
 20
-4307.204
 30
2332.740
 70
    32
  0
VERTEX
  8
T29SSILL
 62
6
 10
3174.321
 20
-4310.485
 30
2332.739
 70
    32
  0
VERTEX
  8
T29SSILL
 62
6
 10
3178.093
 20
-4316.622
 30
2332.734
 70
    32
  0
VERTEX
  8
T29SSILL
 62
6
 10
3163.802
 20
-4326.504
 30
2332.730
 70
    32
  0
VERTEX
  8
T29SSILL
 62
6
 10
3157.408
 20
-4316.844
 30
2332.739
 70
    32
  0
VERTEX
  8
T29SSILL
 62
6
 10
3110.688
 20
-4350.503
 30
2332.727
 70
    32
  0
VERTEX
  8
T29SSILL
 62
6
 10
3116.561
 20
-4359.244
 30
2332.719
 70
    32
  0
VERTEX
  8
T29SSILL
 62
6
 10
3121.866
 20
-4363.269
 30
2332.715
 70
    32
  0
VERTEX
  8
T29SSILL
 62
6
 10
3189.608
 20
-4314.805
 30
2332.732
 70
    32
  0
VERTEX
  8
T29SSILL
 62
6
 10
3190.226
 20
-4313.532
 30
2332.733
 70
    32
  0
VERTEX
  8
T29SSILL
 62
6
 10
3179.753
 20
-4300.709
 30
2332.745
 70
    32
  0
SEQEND
  8
T29SSILL
  0
POLYLINE
  8
T29SSILL
 62
6
 66
     1
 70
     9
  0
VERTEX
  8
T29SSILL
 62
6
 10
3248.676
 20
-4257.391
 30
2332.758
 70
    32
  0
VERTEX
  8
T29SSILL
 62
6
 10
3244.240
 20
-4254.790
 30
2332.760
 70
    32
  0
VERTEX
  8
T29SSILL
 62
6
 10
3229.305
 20
-4265.751
 30
2332.757
 70
    32
  0
VERTEX
  8
T29SSILL
 62
6
 10
3244.842
 20
-4288.931
 30
2332.736
 70
    32
  0
VERTEX
  8
T29SSILL
 62
6
 10
3248.889
 20
-4297.645
 30
2332.728
 70
    32
  0
VERTEX
  8
T29SSILL
 62
6
 10
3252.451
 20
-4310.624
 30
2332.718
 70
    32
  0
VERTEX
  8
T29SSILL
 62
6
 10
3257.547
 20
-4311.391
 30
2332.716
 70
    32
  0
VERTEX
  8
T29SSILL
 62
6
 10
3259.868
 20
-4316.182
 30
2332.711
 70
    32
  0
VERTEX
  8
T29SSILL
 62
6
 10
3257.584
 20
-4324.655
 30
2332.706
 70
    32
  0
VERTEX
  8
T29SSILL
 62
6
 10
3257.312
 20
-4336.536
 30
2332.697
 70
    32
  0
VERTEX
  8
T29SSILL
 62
6
 10
3256.065
 20
-4340.153
 30
2332.695
 70
    32
  0
VERTEX
  8
T29SSILL
 62
6
 10
3241.633
 20
-4350.450
 30
2332.691
 70
    32
  0
VERTEX
  8
T29SSILL
 62
6
 10
3252.601
 20
-4366.018
 30
2332.677
 70
    32
  0
VERTEX
  8
T29SSILL
 62
6
 10
3299.884
 20
-4332.718
 30
2332.688
 70
    32
  0
VERTEX
  8
T29SSILL
 62
6
 10
3298.859
 20
-4328.422
 30
2332.692
 70
    32
  0
VERTEX
  8
T29SSILL
 62
6
 10
3286.264
 20
-4311.097
 30
2332.708
 70
    32
  0
SEQEND
  8
T29SSILL
  0
POLYLINE
  8
T29SSILL
 62
6
 66
     1
 70
     9
  0
VERTEX
  8
T29SSILL
 62
6
 10
3173.828
 20
-4407.994
 30
2332.667
 70
    32
  0
VERTEX
  8
T29SSILL
 62
6
 10
3169.770
 20
-4402.371
 30
2332.673
 70
    32
  0
VERTEX
  8
T29SSILL
 62
6
 10
3058.266
 20
-4483.533
 30
2332.681
 70
    32
  0
VERTEX
  8
T29SSILL
 62
6
 10
3062.245
 20
-4488.573
 30
2332.682
 70
    32
  0
VERTEX
  8
T29SSILL
 62
6
 10
3076.387
 20
-4478.474
 30
2332.677
 70
    32
  0
VERTEX
  8
T29SSILL
 62
6
 10
3083.434
 20
-4487.687
 30
2332.678
 70
    32
  0
VERTEX
  8
T29SSILL
 62
6
 10
3113.693
 20
-4465.713
 30
2332.667
 70
    32
  0
VERTEX
  8
T29SSILL
 62
6
 10
3107.542
 20
-4456.100
 30
2332.665
 70
    32
  0
VERTEX
  8
T29SSILL
 62
6
 10
3112.395
 20
-4452.780
 30
2332.663
 70
    32
  0
VERTEX
  8
T29SSILL
 62
6
 10
3119.175
 20
-4462.070
 30
2332.665
 70
    32
  0
VERTEX
  8
T29SSILL
 62
6
 10
3190.458
 20
-4410.546
 30
2332.661
 70
    32
  0
VERTEX
  8
T29SSILL
 62
6
 10
3187.463
 20
-4406.322
 30
2332.665
 70
    32
  0
VERTEX
  8
T29SSILL
 62
6
 10
3182.534
 20
-4409.374
 30
2332.664
 70
    32
  0
VERTEX
  8
T29SSILL
 62
6
 10
3179.116
 20
-4404.377
 30
2332.669
 70
    32
  0
SEQEND
  8
T29SSILL
  0
POLYLINE
  8
T29SSILL
 62
6
 66
     1
 70
     9
  0
VERTEX
  8
T29SSILL
 62
6
 10
3094.057
 20
-4515.186
 30
2332.684
 70
    32
  0
VERTEX
  8
T29SSILL
 62
6
 10
3096.943
 20
-4516.295
 30
2332.684
 70
    32
  0
VERTEX
  8
T29SSILL
 62
6
 10
3102.537
 20
-4528.203
 30
2332.688
 70
    32
  0
VERTEX
  8
T29SSILL
 62
6
 10
3106.954
 20
-4531.242
 30
2332.695
 70
    32
  0
VERTEX
  8
T29SSILL
 62
6
 10
3110.476
 20
-4530.640
 30
2332.695
 70
    32
  0
VERTEX
  8
T29SSILL
 62
6
 10
3113.491
 20
-4526.344
 30
2332.690
 70
    32
  0
VERTEX
  8
T29SSILL
 62
6
 10
3111.400
 20
-4520.333
 30
2332.683
 70
    32
  0
VERTEX
  8
T29SSILL
 62
6
 10
3116.843
 20
-4517.567
 30
2332.681
 70
    32
  0
VERTEX
  8
T29SSILL
 62
6
 10
3118.544
 20
-4511.194
 30
2332.679
 70
    32
  0
VERTEX
  8
T29SSILL
 62
6
 10
3118.206
 20
-4495.158
 30
2332.675
 70
    32
  0
VERTEX
  8
T29SSILL
 62
6
 10
3120.886
 20
-4491.305
 30
2332.673
 70
    32
  0
VERTEX
  8
T29SSILL
 62
6
 10
3128.331
 20
-4486.957
 30
2332.670
 70
    32
  0
VERTEX
  8
T29SSILL
 62
6
 10
3133.428
 20
-4481.663
 30
2332.668
 70
    32
  0
VERTEX
  8
T29SSILL
 62
6
 10
3136.820
 20
-4482.426
 30
2332.668
 70
    32
  0
VERTEX
  8
T29SSILL
 62
6
 10
3142.396
 20
-4486.692
 30
2332.668
 70
    32
  0
VERTEX
  8
T29SSILL
 62
6
 10
3149.222
 20
-4487.657
 30
2332.667
 70
    32
  0
VERTEX
  8
T29SSILL
 62
6
 10
3147.974
 20
-4505.415
 30
2332.673
 70
    32
  0
VERTEX
  8
T29SSILL
 62
6
 10
3150.516
 20
-4510.375
 30
2332.679
 70
    32
  0
VERTEX
  8
T29SSILL
 62
6
 10
3149.608
 20
-4515.886
 30
2332.687
 70
    32
  0
VERTEX
  8
T29SSILL
 62
6
 10
3156.265
 20
-4533.233
 30
2332.718
 70
    32
  0
VERTEX
  8
T29SSILL
 62
6
 10
3155.369
 20
-4535.654
 30
2332.721
 70
    32
  0
VERTEX
  8
T29SSILL
 62
6
 10
3150.242
 20
-4538.417
 30
2332.724
 70
    32
  0
VERTEX
  8
T29SSILL
 62
6
 10
3144.259
 20
-4524.542
 30
2332.699
 70
    32
  0
VERTEX
  8
T29SSILL
 62
6
 10
3139.769
 20
-4523.573
 30
2332.696
 70
    32
  0
VERTEX
  8
T29SSILL
 62
6
 10
3134.528
 20
-4526.945
 30
2332.699
 70
    32
  0
VERTEX
  8
T29SSILL
 62
6
 10
3131.039
 20
-4532.415
 30
2332.706
 70
    32
  0
VERTEX
  8
T29SSILL
 62
6
 10
3129.747
 20
-4538.296
 30
2332.715
 70
    32
  0
VERTEX
  8
T29SSILL
 62
6
 10
3126.502
 20
-4543.811
 30
2332.723
 70
    32
  0
VERTEX
  8
T29SSILL
 62
6
 10
3124.783
 20
-4544.562
 30
2332.723
 70
    32
  0
VERTEX
  8
T29SSILL
 62
6
 10
3123.727
 20
-4543.795
 30
2332.722
 70
    32
  0
VERTEX
  8
T29SSILL
 62
6
 10
3118.602
 20
-4536.457
 30
2332.708
 70
    32
  0
VERTEX
  8
T29SSILL
 62
6
 10
3107.116
 20
-4542.825
 30
2332.714
 70
    32
  0
VERTEX
  8
T29SSILL
 62
6
 10
3101.669
 20
-4547.295
 30
2332.719
 70
    32
  0
VERTEX
  8
T29SSILL
 62
6
 10
3099.873
 20
-4555.860
 30
2332.732
 70
    32
  0
VERTEX
  8
T29SSILL
 62
6
 10
3098.021
 20
-4580.197
 30
2332.770
 70
    32
  0
VERTEX
  8
T29SSILL
 62
6
 10
3103.543
 20
-4588.114
 30
2332.785
 70
    32
  0
VERTEX
  8
T29SSILL
 62
6
 10
3116.689
 20
-4588.371
 30
2332.790
 70
    32
  0
VERTEX
  8
T29SSILL
 62
6
 10
3142.149
 20
-4570.105
 30
2332.771
 70
    32
  0
VERTEX
  8
T29SSILL
 62
6
 10
3139.318
 20
-4565.344
 30
2332.762
 70
    32
  0
VERTEX
  8
T29SSILL
 62
6
 10
3138.373
 20
-4559.611
 30
2332.753
 70
    32
  0
VERTEX
  8
T29SSILL
 62
6
 10
3144.495
 20
-4554.573
 30
2332.747
 70
    32
  0
VERTEX
  8
T29SSILL
 62
6
 10
3149.339
 20
-4562.742
 30
2332.762
 70
    32
  0
VERTEX
  8
T29SSILL
 62
6
 10
3151.146
 20
-4563.207
 30
2332.764
 70
    32
  0
VERTEX
  8
T29SSILL
 62
6
 10
3305.503
 20
-4452.838
 30
2332.648
 70
    32
  0
VERTEX
  8
T29SSILL
 62
6
 10
3306.018
 20
-4451.104
 30
2332.645
 70
    32
  0
VERTEX
  8
T29SSILL
 62
6
 10
3245.469
 20
-4379.456
 30
2332.669
 70
    32
  0
VERTEX
  8
T29SSILL
 62
6
 10
3123.089
 20
-4467.792
 30
2332.666
 70
    32
  0
VERTEX
  8
T29SSILL
 62
6
 10
3126.423
 20
-4471.890
 30
2332.666
 70
    32
  0
VERTEX
  8
T29SSILL
 62
6
 10
3121.159
 20
-4475.384
 30
2332.668
 70
    32
  0
VERTEX
  8
T29SSILL
 62
6
 10
3124.353
 20
-4479.897
 30
2332.669
 70
    32
  0
VERTEX
  8
T29SSILL
 62
6
 10
3108.689
 20
-4491.037
 30
2332.675
 70
    32
  0
VERTEX
  8
T29SSILL
 62
6
 10
3102.599
 20
-4482.445
 30
2332.673
 70
    32
  0
VERTEX
  8
T29SSILL
 62
6
 10
3093.050
 20
-4489.933
 30
2332.677
 70
    32
  0
VERTEX
  8
T29SSILL
 62
6
 10
3099.110
 20
-4498.015
 30
2332.678
 70
    32
  0
VERTEX
  8
T29SSILL
 62
6
 10
3086.153
 20
-4507.516
 30
2332.683
 70
    32
  0
VERTEX
  8
T29SSILL
 62
6
 10
3087.231
 20
-4510.180
 30
2332.684
 70
    32
  0
VERTEX
  8
T29SSILL
 62
6
 10
3091.508
 20
-4513.634
 30
2332.684
 70
    32
  0
SEQEND
  8
T29SSILL
  0
POLYLINE
  8
T29SSILL
 62
6
 66
     1
 70
     9
  0
VERTEX
  8
T29SSILL
 62
6
 10
3052.646
 20
-4565.307
 30
2332.728
 70
    32
  0
VERTEX
  8
T29SSILL
 62
6
 10
3055.756
 20
-4566.901
 30
2332.732
 70
    32
  0
VERTEX
  8
T29SSILL
 62
6
 10
3058.531
 20
-4564.896
 30
2332.730
 70
    32
  0
VERTEX
  8
T29SSILL
 62
6
 10
3063.402
 20
-4565.179
 30
2332.732
 70
    32
  0
VERTEX
  8
T29SSILL
 62
6
 10
3083.632
 20
-4551.234
 30
2332.718
 70
    32
  0
VERTEX
  8
T29SSILL
 62
6
 10
3083.606
 20
-4547.000
 30
2332.711
 70
    32
  0
VERTEX
  8
T29SSILL
 62
6
 10
3077.838
 20
-4520.539
 30
2332.688
 70
    32
  0
VERTEX
  8
T29SSILL
 62
6
 10
3077.152
 20
-4510.189
 30
2332.686
 70
    32
  0
VERTEX
  8
T29SSILL
 62
6
 10
3075.252
 20
-4507.743
 30
2332.685
 70
    32
  0
VERTEX
  8
T29SSILL
 62
6
 10
3065.001
 20
-4515.605
 30
2332.689
 70
    32
  0
VERTEX
  8
T29SSILL
 62
6
 10
3068.137
 20
-4520.158
 30
2332.690
 70
    32
  0
VERTEX
  8
T29SSILL
 62
6
 10
3059.576
 20
-4526.014
 30
2332.693
 70
    32
  0
VERTEX
  8
T29SSILL
 62
6
 10
3053.902
 20
-4517.563
 30
2332.692
 70
    32
  0
VERTEX
  8
T29SSILL
 62
6
 10
3044.883
 20
-4524.583
 30
2332.695
 70
    32
  0
VERTEX
  8
T29SSILL
 62
6
 10
3046.990
 20
-4527.819
 30
2332.696
 70
    32
  0
VERTEX
  8
T29SSILL
 62
6
 10
3042.572
 20
-4530.841
 30
2332.697
 70
    32
  0
VERTEX
  8
T29SSILL
 62
6
 10
3040.080
 20
-4527.975
 30
2332.697
 70
    32
  0
VERTEX
  8
T29SSILL
 62
6
 10
3000.816
 20
-4556.214
 30
2332.711
 70
    32
  0
VERTEX
  8
T29SSILL
 62
6
 10
2986.271
 20
-4557.020
 30
2332.714
 70
    32
  0
VERTEX
  8
T29SSILL
 62
6
 10
3016.568
 20
-4599.447
 30
2332.768
 70
    32
  0
VERTEX
  8
T29SSILL
 62
6
 10
3042.021
 20
-4580.548
 30
2332.748
 70
    32
  0
VERTEX
  8
T29SSILL
 62
6
 10
3043.969
 20
-4574.538
 30
2332.739
 70
    32
  0
VERTEX
  8
T29SSILL
 62
6
 10
3043.623
 20
-4569.990
 30
2332.732
 70
    32
  0
VERTEX
  8
T29SSILL
 62
6
 10
3034.294
 20
-4555.109
 30
2332.706
 70
    32
  0
VERTEX
  8
T29SSILL
 62
6
 10
3039.674
 20
-4551.862
 30
2332.704
 70
    32
  0
VERTEX
  8
T29SSILL
 62
6
 10
3041.635
 20
-4555.190
 30
2332.707
 70
    32
  0
VERTEX
  8
T29SSILL
 62
6
 10
3042.661
 20
-4554.595
 30
2332.707
 70
    32
  0
VERTEX
  8
T29SSILL
 62
6
 10
3049.475
 20
-4562.692
 30
2332.723
 70
    32
  0
SEQEND
  8
T29SSILL
  0
POLYLINE
  8
T29SSILL
 62
6
 66
     1
 70
     9
  0
VERTEX
  8
T29SSILL
 62
6
 10
3114.696
 20
-4366.154
 30
2332.714
 70
    32
  0
VERTEX
  8
T29SSILL
 62
6
 10
3113.233
 20
-4361.839
 30
2332.718
 70
    32
  0
VERTEX
  8
T29SSILL
 62
6
 10
3107.239
 20
-4353.075
 30
2332.726
 70
    32
  0
VERTEX
  8
T29SSILL
 62
6
 10
3069.981
 20
-4380.049
 30
2332.716
 70
    32
  0
VERTEX
  8
T29SSILL
 62
6
 10
3073.437
 20
-4384.170
 30
2332.712
 70
    32
  0
VERTEX
  8
T29SSILL
 62
6
 10
3067.761
 20
-4387.840
 30
2332.711
 70
    32
  0
VERTEX
  8
T29SSILL
 62
6
 10
3074.518
 20
-4397.252
 30
2332.702
 70
    32
  0
VERTEX
  8
T29SSILL
 62
6
 10
3114.166
 20
-4368.643
 30
2332.713
 70
    32
  0
SEQEND
  8
T29SSILL
  0
POLYLINE
  8
T29SSILL
 62
6
 66
     1
 70
     9
  0
VERTEX
  8
T29SSILL
 62
6
 10
3066.678
 20
-4578.672
 30
2332.755
 70
    32
  0
VERTEX
  8
T29SSILL
 62
6
 10
3081.839
 20
-4594.774
 30
2332.787
 70
    32
  0
VERTEX
  8
T29SSILL
 62
6
 10
3087.515
 20
-4595.145
 30
2332.790
 70
    32
  0
VERTEX
  8
T29SSILL
 62
6
 10
3091.498
 20
-4592.420
 30
2332.787
 70
    32
  0
VERTEX
  8
T29SSILL
 62
6
 10
3087.556
 20
-4563.966
 30
2332.740
 70
    32
  0
VERTEX
  8
T29SSILL
 62
6
 10
3084.439
 20
-4559.719
 30
2332.732
 70
    32
  0
VERTEX
  8
T29SSILL
 62
6
 10
3064.365
 20
-4574.513
 30
2332.747
 70
    32
  0
VERTEX
  8
T29SSILL
 62
6
 10
3065.120
 20
-4576.549
 30
2332.751
 70
    32
  0
SEQEND
  8
T29SSILL
  0
POLYLINE
  8
T29SSILL
 62
6
 66
     1
 70
     9
  0
VERTEX
  8
T29SSILL
 62
6
 10
3079.119
 20
-4613.645
 30
2332.816
 70
    32
  0
VERTEX
  8
T29SSILL
 62
6
 10
3080.469
 20
-4608.469
 30
2332.808
 70
    32
  0
VERTEX
  8
T29SSILL
 62
6
 10
3077.809
 20
-4601.783
 30
2332.796
 70
    32
  0
VERTEX
  8
T29SSILL
 62
6
 10
3061.658
 20
-4582.213
 30
2332.759
 70
    32
  0
VERTEX
  8
T29SSILL
 62
6
 10
3056.006
 20
-4581.720
 30
2332.756
 70
    32
  0
VERTEX
  8
T29SSILL
 62
6
 10
3052.967
 20
-4584.117
 30
2332.758
 70
    32
  0
VERTEX
  8
T29SSILL
 62
6
 10
3050.440
 20
-4584.464
 30
2332.758
 70
    32
  0
VERTEX
  8
T29SSILL
 62
6
 10
3020.753
 20
-4605.409
 30
2332.780
 70
    32
  0
VERTEX
  8
T29SSILL
 62
6
 10
3044.411
 20
-4638.131
 30
2332.841
 70
    32
  0
VERTEX
  8
T29SSILL
 62
6
 10
3048.684
 20
-4637.228
 30
2332.842
 70
    32
  0
VERTEX
  8
T29SSILL
 62
6
 10
3077.712
 20
-4616.096
 30
2332.819
 70
    32
  0
SEQEND
  8
T29SSILL
  0
POLYLINE
  8
T29SSILL
 62
6
 66
     1
 70
     9
  0
VERTEX
  8
T29SSILL
 62
6
 10
3049.748
 20
-4512.112
 30
2332.691
 70
    32
  0
VERTEX
  8
T29SSILL
 62
6
 10
3046.451
 20
-4507.137
 30
2332.690
 70
    32
  0
VERTEX
  8
T29SSILL
 62
6
 10
3050.622
 20
-4503.753
 30
2332.688
 70
    32
  0
VERTEX
  8
T29SSILL
 62
6
 10
3047.310
 20
-4499.533
 30
2332.687
 70
    32
  0
VERTEX
  8
T29SSILL
 62
6
 10
3052.162
 20
-4496.214
 30
2332.686
 70
    32
  0
VERTEX
  8
T29SSILL
 62
6
 10
3047.909
 20
-4490.618
 30
2332.685
 70
    32
  0
VERTEX
  8
T29SSILL
 62
6
 10
3030.744
 20
-4502.359
 30
2332.691
 70
    32
  0
VERTEX
  8
T29SSILL
 62
6
 10
3024.036
 20
-4499.081
 30
2332.691
 70
    32
  0
VERTEX
  8
T29SSILL
 62
6
 10
3017.447
 20
-4487.428
 30
2332.689
 70
    32
  0
VERTEX
  8
T29SSILL
 62
6
 10
3014.330
 20
-4485.201
 30
2332.689
 70
    32
  0
VERTEX
  8
T29SSILL
 62
6
 10
2997.001
 20
-4497.480
 30
2332.695
 70
    32
  0
VERTEX
  8
T29SSILL
 62
6
 10
2997.732
 20
-4501.658
 30
2332.696
 70
    32
  0
VERTEX
  8
T29SSILL
 62
6
 10
3003.071
 20
-4508.531
 30
2332.697
 70
    32
  0
VERTEX
  8
T29SSILL
 62
6
 10
3007.689
 20
-4520.256
 30
2332.700
 70
    32
  0
VERTEX
  8
T29SSILL
 62
6
 10
2997.676
 20
-4519.450
 30
2332.701
 70
    32
  0
VERTEX
  8
T29SSILL
 62
6
 10
2994.810
 20
-4517.903
 30
2332.701
 70
    32
  0
VERTEX
  8
T29SSILL
 62
6
 10
2983.754
 20
-4507.179
 30
2332.700
 70
    32
  0
VERTEX
  8
T29SSILL
 62
6
 10
2961.572
 20
-4522.777
 30
2332.708
 70
    32
  0
VERTEX
  8
T29SSILL
 62
6
 10
2978.649
 20
-4546.499
 30
2332.712
 70
    32
  0
VERTEX
  8
T29SSILL
 62
6
 10
2984.466
 20
-4548.474
 30
2332.712
 70
    32
  0
VERTEX
  8
T29SSILL
 62
6
 10
2996.445
 20
-4548.891
 30
2332.710
 70
    32
  0
VERTEX
  8
T29SSILL
 62
6
 10
3003.288
 20
-4545.794
 30
2332.708
 70
    32
  0
SEQEND
  8
T29SSILL
  0
POLYLINE
  8
T29SSILL
 62
6
 66
     1
 70
     9
  0
VERTEX
  8
T29SSILL
 62
6
 10
3026.735
 20
-4433.552
 30
2332.689
 70
    32
  0
VERTEX
  8
T29SSILL
 62
6
 10
3028.698
 20
-4434.867
 30
2332.687
 70
    32
  0
VERTEX
  8
T29SSILL
 62
6
 10
3032.859
 20
-4449.031
 30
2332.676
 70
    32
  0
VERTEX
  8
T29SSILL
 62
6
 10
3035.416
 20
-4453.236
 30
2332.676
 70
    32
  0
VERTEX
  8
T29SSILL
 62
6
 10
3038.926
 20
-4455.725
 30
2332.676
 70
    32
  0
VERTEX
  8
T29SSILL
 62
6
 10
3046.747
 20
-4454.415
 30
2332.674
 70
    32
  0
VERTEX
  8
T29SSILL
 62
6
 10
3047.948
 20
-4451.042
 30
2332.673
 70
    32
  0
VERTEX
  8
T29SSILL
 62
6
 10
3050.545
 20
-4448.309
 30
2332.672
 70
    32
  0
VERTEX
  8
T29SSILL
 62
6
 10
3045.306
 20
-4425.420
 30
2332.690
 70
    32
  0
VERTEX
  8
T29SSILL
 62
6
 10
3045.126
 20
-4418.048
 30
2332.695
 70
    32
  0
VERTEX
  8
T29SSILL
 62
6
 10
3039.978
 20
-4421.516
 30
2332.694
 70
    32
  0
VERTEX
  8
T29SSILL
 62
6
 10
3030.718
 20
-4408.289
 30
2332.706
 70
    32
  0
VERTEX
  8
T29SSILL
 62
6
 10
3005.094
 20
-4427.092
 30
2332.700
 70
    32
  0
VERTEX
  8
T29SSILL
 62
6
 10
3015.712
 20
-4435.776
 30
2332.690
 70
    32
  0
SEQEND
  8
T29SSILL
  0
POLYLINE
  8
T29SSILL
 62
6
 66
     1
 70
     9
  0
VERTEX
  8
T29SSILL
 62
6
 10
3058.331
 20
-4394.717
 30
2332.709
 70
    32
  0
VERTEX
  8
T29SSILL
 62
6
 10
3065.053
 20
-4403.620
 30
2332.700
 70
    32
  0
VERTEX
  8
T29SSILL
 62
6
 10
3050.385
 20
-4414.504
 30
2332.696
 70
    32
  0
VERTEX
  8
T29SSILL
 62
6
 10
3043.382
 20
-4405.619
 30
2332.705
 70
    32
  0
SEQEND
  8
T29SSILL
  0
POLYLINE
  8
T29SSILL
 62
6
 66
     1
 70
     9
  0
VERTEX
  8
T29SSILL
 62
6
 10
3306.538
 20
-4339.648
 30
2332.681
 70
    32
  0
VERTEX
  8
T29SSILL
 62
6
 10
3302.243
 20
-4338.653
 30
2332.683
 70
    32
  0
VERTEX
  8
T29SSILL
 62
6
 10
3252.558
 20
-4374.659
 30
2332.670
 70
    32
  0
VERTEX
  8
T29SSILL
 62
6
 10
3312.643
 20
-4447.423
 30
2332.642
 70
    32
  0
VERTEX
  8
T29SSILL
 62
6
 10
3360.338
 20
-4413.947
 30
2332.612
 70
    32
  0
VERTEX
  8
T29SSILL
 62
6
 10
3309.122
 20
-4342.027
 30
2332.679
 70
    32
  0
SEQEND
  8
T29SSILL
  0
POLYLINE
  8
T29SSILL
 62
6
 66
     1
 70
     9
  0
VERTEX
  8
T29SSILL
 62
6
 10
3235.920
 20
-4377.535
 30
2332.673
 70
    32
  0
VERTEX
  8
T29SSILL
 62
6
 10
3232.974
 20
-4373.384
 30
2332.677
 70
    32
  0
VERTEX
  8
T29SSILL
 62
6
 10
3238.013
 20
-4369.405
 30
2332.678
 70
    32
  0
VERTEX
  8
T29SSILL
 62
6
 10
3229.831
 20
-4358.842
 30
2332.688
 70
    32
  0
VERTEX
  8
T29SSILL
 62
6
 10
3198.920
 20
-4381.262
 30
2332.680
 70
    32
  0
VERTEX
  8
T29SSILL
 62
6
 10
3209.815
 20
-4396.879
 30
2332.666
 70
    32
  0
SEQEND
  8
T29SSILL
  0
POLYLINE
  8
T29SSILL
 62
6
 66
     1
 70
     9
  0
VERTEX
  8
T29SSILL
 62
6
 10
3198.771
 20
-4256.550
 30
2332.758
 70
    32
  0
VERTEX
  8
T29SSILL
 62
6
 10
3192.949
 20
-4239.801
 30
2332.749
 70
    32
  0
VERTEX
  8
T29SSILL
 62
6
 10
3181.177
 20
-4226.165
 30
2332.741
 70
    32
  0
VERTEX
  8
T29SSILL
 62
6
 10
3176.303
 20
-4215.465
 30
2332.735
 70
    32
  0
VERTEX
  8
T29SSILL
 62
6
 10
3170.430
 20
-4208.745
 30
2332.731
 70
    32
  0
VERTEX
  8
T29SSILL
 62
6
 10
3165.239
 20
-4208.150
 30
2332.731
 70
    32
  0
VERTEX
  8
T29SSILL
 62
6
 10
3150.879
 20
-4218.397
 30
2332.735
 70
    32
  0
VERTEX
  8
T29SSILL
 62
6
 10
3148.180
 20
-4218.648
 30
2332.735
 70
    32
  0
VERTEX
  8
T29SSILL
 62
6
 10
3139.137
 20
-4203.252
 30
2332.726
 70
    32
  0
VERTEX
  8
T29SSILL
 62
6
 10
3184.099
 20
-4171.221
 30
2332.713
 70
    32
  0
VERTEX
  8
T29SSILL
 62
6
 10
3213.302
 20
-4213.759
 30
2332.737
 70
    32
  0
VERTEX
  8
T29SSILL
 62
6
 10
3239.126
 20
-4248.402
 30
2332.757
 70
    32
  0
VERTEX
  8
T29SSILL
 62
6
 10
3239.244
 20
-4250.128
 30
2332.757
 70
    32
  0
VERTEX
  8
T29SSILL
 62
6
 10
3216.677
 20
-4266.096
 30
2332.760
 70
    32
  0
VERTEX
  8
T29SSILL
 62
6
 10
3212.580
 20
-4261.350
 30
2332.761
 70
    32
  0
VERTEX
  8
T29SSILL
 62
6
 10
3202.421
 20
-4268.724
 30
2332.762
 70
    32
  0
VERTEX
  8
T29SSILL
 62
6
 10
3206.373
 20
-4273.570
 30
2332.758
 70
    32
  0
VERTEX
  8
T29SSILL
 62
6
 10
3191.148
 20
-4284.728
 30
2332.753
 70
    32
  0
VERTEX
  8
T29SSILL
 62
6
 10
3187.577
 20
-4279.197
 30
2332.759
 70
    32
  0
VERTEX
  8
T29SSILL
 62
6
 10
3180.164
 20
-4284.672
 30
2332.757
 70
    32
  0
VERTEX
  8
T29SSILL
 62
6
 10
3177.393
 20
-4280.316
 30
2332.761
 70
    32
  0
VERTEX
  8
T29SSILL
 62
6
 10
3175.442
 20
-4273.890
 30
2332.765
 70
    32
  0
VERTEX
  8
T29SSILL
 62
6
 10
3195.843
 20
-4260.041
 30
2332.759
 70
    32
  0
SEQEND
  8
T29SSILL
  0
POLYLINE
  8
T29SSILL
 62
6
 66
     1
 70
     9
  0
VERTEX
  8
T29SSILL
 62
6
 10
3021.778
 20
-4138.522
 30
2332.685
 70
    32
  0
VERTEX
  8
T29SSILL
 62
6
 10
3017.388
 20
-4141.357
 30
2332.686
 70
    32
  0
VERTEX
  8
T29SSILL
 62
6
 10
3020.365
 20
-4145.590
 30
2332.689
 70
    32
  0
VERTEX
  8
T29SSILL
 62
6
 10
3015.778
 20
-4149.182
 30
2332.690
 70
    32
  0
VERTEX
  8
T29SSILL
 62
6
 10
3019.454
 20
-4154.825
 30
2332.693
 70
    32
  0
VERTEX
  8
T29SSILL
 62
6
 10
3005.605
 20
-4165.512
 30
2332.698
 70
    32
  0
VERTEX
  8
T29SSILL
 62
6
 10
2998.510
 20
-4156.163
 30
2332.692
 70
    32
  0
VERTEX
  8
T29SSILL
 62
6
 10
2973.561
 20
-4173.021
 30
2332.699
 70
    32
  0
VERTEX
  8
T29SSILL
 62
6
 10
2974.634
 20
-4166.201
 30
2332.696
 70
    32
  0
VERTEX
  8
T29SSILL
 62
6
 10
3005.497
 20
-4145.276
 30
2332.687
 70
    32
  0
VERTEX
  8
T29SSILL
 62
6
 10
3003.895
 20
-4071.894
 30
2332.650
 70
    32
  0
VERTEX
  8
T29SSILL
 62
6
 10
2985.376
 20
-4084.765
 30
2332.655
 70
    32
  0
VERTEX
  8
T29SSILL
 62
6
 10
2987.826
 20
-4062.338
 30
2332.644
 70
    32
  0
VERTEX
  8
T29SSILL
 62
6
 10
3032.484
 20
-4029.721
 30
2332.631
 70
    32
  0
VERTEX
  8
T29SSILL
 62
6
 10
3041.377
 20
-4045.009
 30
2332.639
 70
    32
  0
VERTEX
  8
T29SSILL
 62
6
 10
3010.771
 20
-4067.782
 30
2332.649
 70
    32
  0
VERTEX
  8
T29SSILL
 62
6
 10
3018.357
 20
-4088.131
 30
2332.659
 70
    32
  0
VERTEX
  8
T29SSILL
 62
6
 10
3028.457
 20
-4093.620
 30
2332.663
 70
    32
  0
VERTEX
  8
T29SSILL
 62
6
 10
3031.696
 20
-4098.645
 30
2332.666
 70
    32
  0
VERTEX
  8
T29SSILL
 62
6
 10
3037.538
 20
-4114.150
 30
2332.674
 70
    32
  0
VERTEX
  8
T29SSILL
 62
6
 10
3040.079
 20
-4117.502
 30
2332.676
 70
    32
  0
VERTEX
  8
T29SSILL
 62
6
 10
3043.332
 20
-4118.040
 30
2332.676
 70
    32
  0
VERTEX
  8
T29SSILL
 62
6
 10
3051.345
 20
-4112.156
 30
2332.674
 70
    32
  0
VERTEX
  8
T29SSILL
 62
6
 10
3057.753
 20
-4120.640
 30
2332.679
 70
    32
  0
VERTEX
  8
T29SSILL
 62
6
 10
3053.080
 20
-4123.528
 30
2332.680
 70
    32
  0
VERTEX
  8
T29SSILL
 62
6
 10
3056.671
 20
-4128.907
 30
2332.683
 70
    32
  0
VERTEX
  8
T29SSILL
 62
6
 10
3040.090
 20
-4140.553
 30
2332.688
 70
    32
  0
VERTEX
  8
T29SSILL
 62
6
 10
3029.322
 20
-4124.416
 30
2332.679
 70
    32
  0
VERTEX
  8
T29SSILL
 62
6
 10
3026.981
 20
-4126.347
 30
2332.679
 70
    32
  0
VERTEX
  8
T29SSILL
 62
6
 10
3027.642
 20
-4119.089
 30
2332.676
 70
    32
  0
VERTEX
  8
T29SSILL
 62
6
 10
3030.044
 20
-4117.369
 30
2332.675
 70
    32
  0
VERTEX
  8
T29SSILL
 62
6
 10
3026.182
 20
-4111.534
 30
2332.672
 70
    32
  0
VERTEX
  8
T29SSILL
 62
6
 10
3019.582
 20
-4117.253
 30
2332.674
 70
    32
  0
VERTEX
  8
T29SSILL
 62
6
 10
3020.408
 20
-4118.552
 30
2332.675
 70
    32
  0
VERTEX
  8
T29SSILL
 62
6
 10
3020.364
 20
-4131.805
 30
2332.682
 70
    32
  0
VERTEX
  8
T29SSILL
 62
6
 10
3019.010
 20
-4132.923
 30
2332.682
 70
    32
  0
SEQEND
  8
T29SSILL
  0
POLYLINE
  8
T29SSILL
 62
6
 66
     1
 70
     9
  0
VERTEX
  8
T29SSILL
 62
6
 10
3045.551
 20
-4020.178
 30
2332.627
 70
    32
  0
VERTEX
  8
T29SSILL
 62
6
 10
3058.045
 20
-4011.476
 30
2332.623
 70
    32
  0
VERTEX
  8
T29SSILL
 62
6
 10
3068.412
 20
-4026.942
 30
2332.632
 70
    32
  0
VERTEX
  8
T29SSILL
 62
6
 10
3047.810
 20
-4041.775
 30
2332.638
 70
    32
  0
VERTEX
  8
T29SSILL
 62
6
 10
3037.557
 20
-4026.016
 30
2332.629
 70
    32
  0
SEQEND
  8
T29SSILL
  0
POLYLINE
  8
T29SSILL
 62
6
 66
     1
 70
     9
  0
VERTEX
  8
T29SSILL
 62
6
 10
3137.579
 20
-4137.871
 30
2332.693
 70
    32
  0
VERTEX
  8
T29SSILL
 62
6
 10
3121.800
 20
-4121.558
 30
2332.684
 70
    32
  0
VERTEX
  8
T29SSILL
 62
6
 10
3118.126
 20
-4115.299
 30
2332.680
 70
    32
  0
VERTEX
  8
T29SSILL
 62
6
 10
3114.509
 20
-4118.190
 30
2332.682
 70
    32
  0
VERTEX
  8
T29SSILL
 62
6
 10
3104.216
 20
-4103.979
 30
2332.674
 70
    32
  0
VERTEX
  8
T29SSILL
 62
6
 10
3126.749
 20
-4088.845
 30
2332.666
 70
    32
  0
VERTEX
  8
T29SSILL
 62
6
 10
3180.002
 20
-4166.475
 30
2332.711
 70
    32
  0
VERTEX
  8
T29SSILL
 62
6
 10
3150.799
 20
-4187.195
 30
2332.719
 70
    32
  0
VERTEX
  8
T29SSILL
 62
6
 10
3140.010
 20
-4172.355
 30
2332.711
 70
    32
  0
VERTEX
  8
T29SSILL
 62
6
 10
3152.201
 20
-4163.910
 30
2332.707
 70
    32
  0
VERTEX
  8
T29SSILL
 62
6
 10
3154.294
 20
-4159.821
 30
2332.705
 70
    32
  0
SEQEND
  8
T29SSILL
  0
POLYLINE
  8
T29SSILL
 62
6
 66
     1
 70
     9
  0
VERTEX
  8
T29SSILL
 62
6
 10
3084.401
 20
-4070.931
 30
2332.655
 70
    32
  0
VERTEX
  8
T29SSILL
 62
6
 10
3082.961
 20
-4047.727
 30
2332.644
 70
    32
  0
VERTEX
  8
T29SSILL
 62
6
 10
3089.638
 20
-4057.224
 30
2332.649
 70
    32
  0
VERTEX
  8
T29SSILL
 62
6
 10
3099.777
 20
-4050.923
 30
2332.645
 70
    32
  0
VERTEX
  8
T29SSILL
 62
6
 10
3121.577
 20
-4082.933
 30
2332.663
 70
    32
  0
VERTEX
  8
T29SSILL
 62
6
 10
3099.904
 20
-4098.025
 30
2332.670
 70
    32
  0
VERTEX
  8
T29SSILL
 62
6
 10
3089.725
 20
-4083.971
 30
2332.662
 70
    32
  0
VERTEX
  8
T29SSILL
 62
6
 10
3085.883
 20
-4075.248
 30
2332.658
 70
    32
  0
SEQEND
  8
T29SSILL
  0
POLYLINE
  8
T29SSILL
 62
6
 66
     1
 70
     9
  0
VERTEX
  8
T29SSILL
 62
6
 10
3039.586
 20
-3946.540
 30
2332.584
 70
    32
  0
VERTEX
  8
T29SSILL
 62
6
 10
3026.750
 20
-3933.168
 30
2332.577
 70
    32
  0
VERTEX
  8
T29SSILL
 62
6
 10
3023.301
 20
-3925.481
 30
2332.572
 70
    32
  0
VERTEX
  8
T29SSILL
 62
6
 10
3015.760
 20
-3914.701
 30
2332.566
 70
    32
  0
VERTEX
  8
T29SSILL
 62
6
 10
3004.016
 20
-3923.220
 30
2332.572
 70
    32
  0
VERTEX
  8
T29SSILL
 62
6
 10
3037.587
 20
-3946.666
 30
2332.584
 70
    32
  0
SEQEND
  8
T29SSILL
  0
POLYLINE
  8
T29SSILL
 62
6
 66
     1
 70
     9
  0
VERTEX
  8
T29SSILL
 62
6
 10
3195.666
 20
-4308.429
 30
2332.735
 70
    32
  0
VERTEX
  8
T29SSILL
 62
6
 10
3186.504
 20
-4297.367
 30
2332.745
 70
    32
  0
VERTEX
  8
T29SSILL
 62
6
 10
3190.385
 20
-4294.181
 30
2332.747
 70
    32
  0
VERTEX
  8
T29SSILL
 62
6
 10
3193.228
 20
-4297.871
 30
2332.743
 70
    32
  0
VERTEX
  8
T29SSILL
 62
6
 10
3208.384
 20
-4287.078
 30
2332.747
 70
    32
  0
VERTEX
  8
T29SSILL
 62
6
 10
3215.915
 20
-4296.067
 30
2332.738
 70
    32
  0
VERTEX
  8
T29SSILL
 62
6
 10
3198.387
 20
-4308.056
 30
2332.734
 70
    32
  0
SEQEND
  8
T29SSILL
  0
TEXT
  8
T29SSILL
 62
6
 10
1463.204
 20
-1624.868
 30
2343.942
 40
0.200
  1
2900
 41
 1.0 
  0
POLYLINE
  8
T29SSILL
 62
6
 66
     1
 70
     9
  0
VERTEX
  8
T29SSILL
 62
6
 10
3021.301
 20
-3901.758
 30
2332.572
 70
    32
  0
VERTEX
  8
T29SSILL
 62
6
 10
3039.970
 20
-3887.945
 30
2332.558
 70
    32
  0
VERTEX
  8
T29SSILL
 62
6
 10
3044.646
 20
-3893.749
 30
2332.562
 70
    32
  0
VERTEX
  8
T29SSILL
 62
6
 10
3025.587
 20
-3907.573
 30
2332.562
 70
    32
  0
VERTEX
  8
T29SSILL
 62
6
 10
3028.915
 20
-3912.087
 30
2332.565
 70
    32
  0
VERTEX
  8
T29SSILL
 62
6
 10
3028.915
 20
-3912.087
 30
2332.565
 70
    32
  0
VERTEX
  8
T29SSILL
 62
6
 10
3033.962
 20
-3927.177
 30
2332.572
 70
    32
  0
VERTEX
  8
T29SSILL
 62
6
 10
3043.846
 20
-3943.657
 30
2332.582
 70
    32
  0
VERTEX
  8
T29SSILL
 62
6
 10
3053.607
 20
-3937.052
 30
2332.581
 70
    32
  0
VERTEX
  8
T29SSILL
 62
6
 10
3058.986
 20
-3942.590
 30
2332.585
 70
    32
  0
VERTEX
  8
T29SSILL
 62
6
 10
3044.124
 20
-3953.531
 30
2332.588
 70
    32
  0
VERTEX
  8
T29SSILL
 62
6
 10
3095.921
 20
-4025.997
 30
2332.629
 70
    32
  0
VERTEX
  8
T29SSILL
 62
6
 10
3159.365
 20
-4122.302
 30
2332.685
 70
    32
  0
VERTEX
  8
T29SSILL
 62
6
 10
3169.717
 20
-4114.601
 30
2332.683
 70
    32
  0
VERTEX
  8
T29SSILL
 62
6
 10
3174.677
 20
-4121.410
 30
2332.687
 70
    32
  0
VERTEX
  8
T29SSILL
 62
6
 10
3164.163
 20
-4128.580
 30
2332.688
 70
    32
  0
VERTEX
  8
T29SSILL
 62
6
 10
3245.561
 20
-4241.580
 30
2332.754
 70
    32
  0
VERTEX
  8
T29SSILL
 62
6
 10
3247.244
 20
-4241.673
 30
2332.754
 70
    32
  0
VERTEX
  8
T29SSILL
 62
6
 10
3493.155
 20
-4069.541
 30
2332.734
 70
    32
  0
VERTEX
  8
T29SSILL
 62
6
 10
3475.645
 20
-4043.328
 30
2332.664
 70
    32
  0
VERTEX
  8
T29SSILL
 62
6
 10
3481.647
 20
-4038.848
 30
2332.678
 70
    32
  0
VERTEX
  8
T29SSILL
 62
6
 10
3498.464
 20
-4065.774
 30
2332.746
 70
    32
  0
VERTEX
  8
T29SSILL
 62
6
 10
3502.200
 20
-4062.645
 30
2332.755
 70
    32
  0
VERTEX
  8
T29SSILL
 62
6
 10
3505.464
 20
-4069.719
 30
2332.770
 70
    32
  0
VERTEX
  8
T29SSILL
 62
6
 10
3502.503
 20
-4071.695
 30
2332.762
 70
    32
  0
VERTEX
  8
T29SSILL
 62
6
 10
3517.765
 20
-4094.335
 30
2332.823
 70
    32
  0
VERTEX
  8
T29SSILL
 62
6
 10
3511.224
 20
-4098.031
 30
2332.807
 70
    32
  0
VERTEX
  8
T29SSILL
 62
6
 10
3496.846
 20
-4075.730
 30
2332.749
 70
    32
  0
VERTEX
  8
T29SSILL
 62
6
 10
3383.948
 20
-4156.887
 30
2332.608
 70
    32
  0
VERTEX
  8
T29SSILL
 62
6
 10
3256.141
 20
-4246.544
 30
2332.755
 70
    32
  0
VERTEX
  8
T29SSILL
 62
6
 10
3254.242
 20
-4250.607
 30
2332.756
 70
    32
  0
VERTEX
  8
T29SSILL
 62
6
 10
3254.635
 20
-4252.890
 30
2332.756
 70
    32
  0
VERTEX
  8
T29SSILL
 62
6
 10
3273.304
 20
-4279.562
 30
2332.732
 70
    32
  0
VERTEX
  8
T29SSILL
 62
6
 10
3334.619
 20
-4363.604
 30
2332.653
 70
    32
  0
VERTEX
  8
T29SSILL
 62
6
 10
3355.349
 20
-4348.680
 30
2332.629
 70
    32
  0
VERTEX
  8
T29SSILL
 62
6
 10
3359.621
 20
-4353.838
 30
2332.624
 70
    32
  0
VERTEX
  8
T29SSILL
 62
6
 10
3338.556
 20
-4369.204
 30
2332.648
 70
    32
  0
VERTEX
  8
T29SSILL
 62
6
 10
3490.564
 20
-4580.237
 30
2333.089
 70
    32
  0
VERTEX
  8
T29SSILL
 62
6
 10
3500.455
 20
-5148.318
 30
2333.840
 70
    32
  0
VERTEX
  8
T29SSILL
 62
6
 10
3972.094
 20
-5857.413
 30
2335.007
 70
    32
  0
VERTEX
  8
T29SSILL
 62
6
 10
3975.666
 20
-5854.570
 30
2335.006
 70
    32
  0
VERTEX
  8
T29SSILL
 62
6
 10
3980.597
 20
-5861.726
 30
2335.016
 70
    32
  0
VERTEX
  8
T29SSILL
 62
6
 10
3976.557
 20
-5863.932
 30
2335.016
 70
    32
  0
VERTEX
  8
T29SSILL
 62
6
 10
4196.591
 20
-6194.797
 30
2335.458
 70
    32
  0
VERTEX
  8
T29SSILL
 62
6
 10
4202.459
 20
-6190.485
 30
2335.457
 70
    32
  0
VERTEX
  8
T29SSILL
 62
6
 10
4207.637
 20
-6197.241
 30
2335.466
 70
    32
  0
VERTEX
  8
T29SSILL
 62
6
 10
4201.488
 20
-6201.759
 30
2335.468
 70
    32
  0
VERTEX
  8
T29SSILL
 62
6
 10
5768.511
 20
-8554.786
 30
2333.987
 70
    32
  0
VERTEX
  8
T29SSILL
 62
6
 10
5894.092
 20
-8645.074
 30
2333.913
 70
    32
  0
VERTEX
  8
T29SSILL
 62
6
 10
5895.276
 20
-8647.807
 30
2333.913
 70
    32
  0
VERTEX
  8
T29SSILL
 62
6
 10
5894.304
 20
-8650.740
 30
2333.916
 70
    32
  0
VERTEX
  8
T29SSILL
 62
6
 10
5893.238
 20
-8652.095
 30
2333.918
 70
    32
  0
VERTEX
  8
T29SSILL
 62
6
 10
5886.982
 20
-8654.292
 30
2333.926
 70
    32
  0
VERTEX
  8
T29SSILL
 62
6
 10
5904.082
 20
-8683.483
 30
2333.927
 70
    32
  0
VERTEX
  8
T29SSILL
 62
6
 10
5899.125
 20
-8686.237
 30
2333.935
 70
    32
  0
VERTEX
  8
T29SSILL
 62
6
 10
5882.347
 20
-8658.781
 30
2333.934
 70
    32
  0
VERTEX
  8
T29SSILL
 62
6
 10
5874.949
 20
-8660.631
 30
2333.943
 70
    32
  0
VERTEX
  8
T29SSILL
 62
6
 10
5867.375
 20
-8657.007
 30
2333.949
 70
    32
  0
VERTEX
  8
T29SSILL
 62
6
 10
5863.106
 20
-8650.337
 30
2333.949
 70
    32
  0
VERTEX
  8
T29SSILL
 62
6
 10
5862.243
 20
-8639.005
 30
2333.942
 70
    32
  0
VERTEX
  8
T29SSILL
 62
6
 10
5852.179
 20
-8630.775
 30
2333.948
 70
    32
  0
VERTEX
  8
T29SSILL
 62
6
 10
5855.394
 20
-8626.588
 30
2333.941
 70
    32
  0
VERTEX
  8
T29SSILL
 62
6
 10
5762.456
 20
-8559.578
 30
2333.996
 70
    32
  0
VERTEX
  8
T29SSILL
 62
6
 10
4651.307
 20
-6887.655
 30
2335.455
 70
    32
  0
VERTEX
  8
T29SSILL
 62
6
 10
4642.742
 20
-6893.634
 30
2335.400
 70
    32
  0
VERTEX
  8
T29SSILL
 62
6
 10
4638.480
 20
-6886.760
 30
2335.408
 70
    32
  0
VERTEX
  8
T29SSILL
 62
6
 10
4646.930
 20
-6881.077
 30
2335.462
 70
    32
  0
VERTEX
  8
T29SSILL
 62
6
 10
4418.820
 20
-6543.319
 30
2335.794
 70
    32
  0
VERTEX
  8
T29SSILL
 62
6
 10
4410.485
 20
-6548.542
 30
2335.742
 70
    32
  0
VERTEX
  8
T29SSILL
 62
6
 10
4406.110
 20
-6542.619
 30
2335.747
 70
    32
  0
VERTEX
  8
T29SSILL
 62
6
 10
4414.814
 20
-6536.682
 30
2335.802
 70
    32
  0
VERTEX
  8
T29SSILL
 62
6
 10
4194.639
 20
-6205.921
 30
2335.468
 70
    32
  0
VERTEX
  8
T29SSILL
 62
6
 10
4188.287
 20
-6210.809
 30
2335.468
 70
    32
  0
VERTEX
  8
T29SSILL
 62
6
 10
4183.179
 20
-6203.221
 30
2335.458
 70
    32
  0
VERTEX
  8
T29SSILL
 62
6
 10
4189.652
 20
-6199.133
 30
2335.458
 70
    32
  0
VERTEX
  8
T29SSILL
 62
6
 10
3970.972
 20
-5868.036
 30
2335.017
 70
    32
  0
VERTEX
  8
T29SSILL
 62
6
 10
3963.109
 20
-5873.487
 30
2335.016
 70
    32
  0
VERTEX
  8
T29SSILL
 62
6
 10
3957.966
 20
-5866.487
 30
2335.006
 70
    32
  0
VERTEX
  8
T29SSILL
 62
6
 10
3965.739
 20
-5861.211
 30
2335.007
 70
    32
  0
VERTEX
  8
T29SSILL
 62
6
 10
3501.166
 20
-5161.014
 30
2333.860
 70
    32
  0
VERTEX
  8
T29SSILL
 62
6
 10
3501.795
 20
-5204.329
 30
2333.930
 70
    32
  0
VERTEX
  8
T29SSILL
 62
6
 10
3493.331
 20
-5204.115
 30
2333.926
 70
    32
  0
VERTEX
  8
T29SSILL
 62
6
 10
3481.835
 20
-4583.019
 30
2333.065
 70
    32
  0
VERTEX
  8
T29SSILL
 62
6
 10
3423.508
 20
-4502.567
 30
2332.837
 70
    32
  0
VERTEX
  8
T29SSILL
 62
6
 10
3408.508
 20
-4514.210
 30
2332.802
 70
    32
  0
VERTEX
  8
T29SSILL
 62
6
 10
3403.447
 20
-4508.210
 30
2332.782
 70
    32
  0
VERTEX
  8
T29SSILL
 62
6
 10
3419.892
 20
-4497.280
 30
2332.823
 70
    32
  0
VERTEX
  8
T29SSILL
 62
6
 10
3365.787
 20
-4421.914
 30
2332.622
 70
    32
  0
VERTEX
  8
T29SSILL
 62
6
 10
3360.405
 20
-4421.662
 30
2332.620
 70
    32
  0
VERTEX
  8
T29SSILL
 62
6
 10
3126.935
 20
-4590.294
 30
2332.797
 70
    32
  0
VERTEX
  8
T29SSILL
 62
6
 10
3149.229
 20
-4620.865
 30
2332.855
 70
    32
  0
VERTEX
  8
T29SSILL
 62
6
 10
3154.459
 20
-4616.544
 30
2332.850
 70
    32
  0
VERTEX
  8
T29SSILL
 62
6
 10
3158.316
 20
-4621.560
 30
2332.860
 70
    32
  0
VERTEX
  8
T29SSILL
 62
6
 10
3123.909
 20
-4646.797
 30
2332.887
 70
    32
  0
VERTEX
  8
T29SSILL
 62
6
 10
3119.443
 20
-4639.645
 30
2332.874
 70
    32
  0
VERTEX
  8
T29SSILL
 62
6
 10
3141.819
 20
-4624.021
 30
2332.857
 70
    32
  0
VERTEX
  8
T29SSILL
 62
6
 10
3121.205
 20
-4595.595
 30
2332.804
 70
    32
  0
VERTEX
  8
T29SSILL
 62
6
 10
3113.329
 20
-4610.657
 30
2332.825
 70
    32
  0
VERTEX
  8
T29SSILL
 62
6
 10
3099.061
 20
-4618.397
 30
2332.831
 70
    32
  0
VERTEX
  8
T29SSILL
 62
6
 10
3091.316
 20
-4617.954
 30
2332.828
 70
    32
  0
VERTEX
  8
T29SSILL
 62
6
 10
3087.313
 20
-4619.097
 30
2332.828
 70
    32
  0
VERTEX
  8
T29SSILL
 62
6
 10
3043.320
 20
-4650.678
 30
2332.861
 70
    32
  0
VERTEX
  8
T29SSILL
 62
6
 10
3020.694
 20
-4618.845
 30
2332.801
 70
    32
  0
VERTEX
  8
T29SSILL
 62
6
 10
3015.964
 20
-4616.127
 30
2332.795
 70
    32
  0
VERTEX
  8
T29SSILL
 62
6
 10
3009.214
 20
-4615.428
 30
2332.791
 70
    32
  0
VERTEX
  8
T29SSILL
 62
6
 10
2985.999
 20
-4632.158
 30
2332.809
 70
    32
  0
VERTEX
  8
T29SSILL
 62
6
 10
2981.365
 20
-4625.228
 30
2332.796
 70
    32
  0
VERTEX
  8
T29SSILL
 62
6
 10
3009.981
 20
-4604.272
 30
2332.774
 70
    32
  0
VERTEX
  8
T29SSILL
 62
6
 10
2932.741
 20
-4497.103
 30
2332.706
 70
    32
  0
VERTEX
  8
T29SSILL
 62
6
 10
2921.375
 20
-4491.056
 30
2332.706
 70
    32
  0
VERTEX
  8
T29SSILL
 62
6
 10
2916.626
 20
-4492.816
 30
2332.707
 70
    32
  0
VERTEX
  8
T29SSILL
 62
6
 10
2889.774
 20
-4511.184
 30
2332.717
 70
    32
  0
VERTEX
  8
T29SSILL
 62
6
 10
2884.937
 20
-4503.893
 30
2332.715
 70
    32
  0
VERTEX
  8
T29SSILL
 62
6
 10
2921.076
 20
-4478.184
 30
2332.702
 70
    32
  0
VERTEX
  8
T29SSILL
 62
6
 10
2892.294
 20
-4383.264
 30
2332.763
 70
    32
  0
VERTEX
  8
T29SSILL
 62
6
 10
2890.773
 20
-4382.284
 30
2332.764
 70
    32
  0
VERTEX
  8
T29SSILL
 62
6
 10
2847.770
 20
-4413.245
 30
2332.753
 70
    32
  0
VERTEX
  8
T29SSILL
 62
6
 10
2852.515
 20
-4429.473
 30
2332.740
 70
    32
  0
VERTEX
  8
T29SSILL
 62
6
 10
2854.896
 20
-4453.940
 30
2332.721
 70
    32
  0
VERTEX
  8
T29SSILL
 62
6
 10
2853.646
 20
-4459.567
 30
2332.717
 70
    32
  0
VERTEX
  8
T29SSILL
 62
6
 10
2847.651
 20
-4463.154
 30
2332.716
 70
    32
  0
VERTEX
  8
T29SSILL
 62
6
 10
2827.893
 20
-4451.826
 30
2332.730
 70
    32
  0
VERTEX
  8
T29SSILL
 62
6
 10
2823.337
 20
-4446.004
 30
2332.735
 70
    32
  0
VERTEX
  8
T29SSILL
 62
6
 10
2811.974
 20
-4423.883
 30
2332.755
 70
    32
  0
VERTEX
  8
T29SSILL
 62
6
 10
2789.858
 20
-4433.487
 30
2332.754
 70
    32
  0
VERTEX
  8
T29SSILL
 62
6
 10
2787.946
 20
-4426.442
 30
2332.760
 70
    32
  0
VERTEX
  8
T29SSILL
 62
6
 10
2811.114
 20
-4417.985
 30
2332.759
 70
    32
  0
VERTEX
  8
T29SSILL
 62
6
 10
2809.196
 20
-4412.524
 30
2332.764
 70
    32
  0
VERTEX
  8
T29SSILL
 62
6
 10
2817.919
 20
-4408.858
 30
2332.764
 70
    32
  0
VERTEX
  8
T29SSILL
 62
6
 10
2813.545
 20
-4401.277
 30
2332.771
 70
    32
  0
VERTEX
  8
T29SSILL
 62
6
 10
2808.608
 20
-4404.252
 30
2332.770
 70
    32
  0
VERTEX
  8
T29SSILL
 62
6
 10
2802.572
 20
-4393.938
 30
2332.779
 70
    32
  0
VERTEX
  8
T29SSILL
 62
6
 10
2796.667
 20
-4396.822
 30
2332.779
 70
    32
  0
VERTEX
  8
T29SSILL
 62
6
 10
2787.749
 20
-4380.163
 30
2332.791
 70
    32
  0
VERTEX
  8
T29SSILL
 62
6
 10
2798.149
 20
-4374.655
 30
2332.789
 70
    32
  0
VERTEX
  8
T29SSILL
 62
6
 10
2792.465
 20
-4364.430
 30
2332.783
 70
    32
  0
VERTEX
  8
T29SSILL
 62
6
 10
2798.194
 20
-4361.194
 30
2332.782
 70
    32
  0
VERTEX
  8
T29SSILL
 62
6
 10
2794.432
 20
-4354.847
 30
2332.779
 70
    32
  0
VERTEX
  8
T29SSILL
 62
6
 10
2799.900
 20
-4350.994
 30
2332.777
 70
    32
  0
VERTEX
  8
T29SSILL
 62
6
 10
2786.064
 20
-4331.416
 30
2332.766
 70
    32
  0
VERTEX
  8
T29SSILL
 62
6
 10
2766.134
 20
-4345.250
 30
2332.772
 70
    32
  0
VERTEX
  8
T29SSILL
 62
6
 10
2769.987
 20
-4350.630
 30
2332.775
 70
    32
  0
VERTEX
  8
T29SSILL
 62
6
 10
2763.640
 20
-4354.392
 30
2332.776
 70
    32
  0
VERTEX
  8
T29SSILL
 62
6
 10
2760.664
 20
-4349.807
 30
2332.774
 70
    32
  0
VERTEX
  8
T29SSILL
 62
6
 10
2758.018
 20
-4351.734
 30
2332.774
 70
    32
  0
VERTEX
  8
T29SSILL
 62
6
 10
2753.196
 20
-4346.791
 30
2332.772
 70
    32
  0
VERTEX
  8
T29SSILL
 62
6
 10
2782.210
 20
-4326.212
 30
2332.763
 70
    32
  0
VERTEX
  8
T29SSILL
 62
6
 10
2778.447
 20
-4320.392
 30
2332.760
 70
    32
  0
VERTEX
  8
T29SSILL
 62
6
 10
2788.854
 20
-4312.773
 30
2332.757
 70
    32
  0
VERTEX
  8
T29SSILL
 62
6
 10
2792.268
 20
-4318.063
 30
2332.760
 70
    32
  0
VERTEX
  8
T29SSILL
 62
6
 10
2859.473
 20
-4269.282
 30
2332.740
 70
    32
  0
VERTEX
  8
T29SSILL
 62
6
 10
2843.020
 20
-4216.790
 30
2332.712
 70
    32
  0
VERTEX
  8
T29SSILL
 62
6
 10
2839.646
 20
-4041.607
 30
2332.623
 70
    32
  0
VERTEX
  8
T29SSILL
 62
6
 10
2484.918
 20
-4298.215
 30
2332.766
 70
    32
  0
VERTEX
  8
T29SSILL
 62
6
 10
2353.160
 20
-4392.092
 30
2332.835
 70
    32
  0
VERTEX
  8
T29SSILL
 62
6
 10
2180.678
 20
-4620.091
 30
2332.928
 70
    32
  0
VERTEX
  8
T29SSILL
 62
6
 10
2195.339
 20
-4631.208
 30
2332.907
 70
    32
  0
VERTEX
  8
T29SSILL
 62
6
 10
2191.516
 20
-4636.097
 30
2332.914
 70
    32
  0
VERTEX
  8
T29SSILL
 62
6
 10
2176.769
 20
-4625.245
 30
2332.935
 70
    32
  0
VERTEX
  8
T29SSILL
 62
6
 10
2104.149
 20
-4719.886
 30
2333.053
 70
    32
  0
VERTEX
  8
T29SSILL
 62
6
 10
2096.132
 20
-4727.992
 30
2333.065
 70
    32
  0
VERTEX
  8
T29SSILL
 62
6
 10
2087.367
 20
-4739.803
 30
2333.080
 70
    32
  0
VERTEX
  8
T29SSILL
 62
6
 10
2082.399
 20
-4752.377
 30
2333.088
 70
    32
  0
VERTEX
  8
T29SSILL
 62
6
 10
2082.211
 20
-4757.267
 30
2333.089
 70
    32
  0
VERTEX
  8
T29SSILL
 62
6
 10
2083.453
 20
-4765.675
 30
2333.089
 70
    32
  0
VERTEX
  8
T29SSILL
 62
6
 10
2087.774
 20
-4773.401
 30
2333.085
 70
    32
  0
VERTEX
  8
T29SSILL
 62
6
 10
2268.826
 20
-5026.966
 30
2333.116
 70
    32
  0
VERTEX
  8
T29SSILL
 62
6
 10
2290.737
 20
-5011.015
 30
2333.022
 70
    32
  0
VERTEX
  8
T29SSILL
 62
6
 10
2295.417
 20
-5017.729
 30
2333.016
 70
    32
  0
VERTEX
  8
T29SSILL
 62
6
 10
2289.492
 20
-5021.846
 30
2332.977
 70
    32
  0
VERTEX
  8
T29SSILL
 62
6
 10
2295.033
 20
-5024.919
 30
2332.988
 70
    32
  0
VERTEX
  8
T29SSILL
 62
6
 10
2292.226
 20
-5031.136
 30
2333.014
 70
    32
  0
VERTEX
  8
T29SSILL
 62
6
 10
2283.392
 20
-5026.629
 30
2333.036
 70
    32
  0
VERTEX
  8
T29SSILL
 62
6
 10
2273.353
 20
-5033.464
 30
2333.128
 70
    32
  0
VERTEX
  8
T29SSILL
 62
6
 10
2400.319
 20
-5209.967
 30
2333.433
 70
    32
  0
VERTEX
  8
T29SSILL
 62
6
 10
2393.994
 20
-5213.829
 30
2333.489
 70
    32
  0
VERTEX
  8
T29SSILL
 62
6
 10
2315.114
 20
-5105.054
 30
2333.304
 70
    32
  0
VERTEX
  8
T29SSILL
 62
6
 10
2313.161
 20
-5117.470
 30
2333.384
 70
    32
  0
VERTEX
  8
T29SSILL
 62
6
 10
2307.130
 20
-5126.743
 30
2333.468
 70
    32
  0
VERTEX
  8
T29SSILL
 62
6
 10
2248.663
 20
-5169.629
 30
2334.022
 70
    32
  0
VERTEX
  8
T29SSILL
 62
6
 10
2244.177
 20
-5163.642
 30
2334.012
 70
    32
  0
VERTEX
  8
T29SSILL
 62
6
 10
2295.766
 20
-5126.417
 30
2333.527
 70
    32
  0
VERTEX
  8
T29SSILL
 62
6
 10
2303.801
 20
-5118.741
 30
2333.441
 70
    32
  0
VERTEX
  8
T29SSILL
 62
6
 10
2308.544
 20
-5109.631
 30
2333.365
 70
    32
  0
VERTEX
  8
T29SSILL
 62
6
 10
2307.952
 20
-5093.951
 30
2333.280
 70
    32
  0
VERTEX
  8
T29SSILL
 62
6
 10
2259.948
 20
-5027.246
 30
2333.165
 70
    32
  0
VERTEX
  8
T29SSILL
 62
6
 10
2257.319
 20
-5041.441
 30
2333.259
 70
    32
  0
VERTEX
  8
T29SSILL
 62
6
 10
2251.042
 20
-5049.916
 30
2333.340
 70
    32
  0
VERTEX
  8
T29SSILL
 62
6
 10
2201.919
 20
-5085.598
 30
2333.803
 70
    32
  0
VERTEX
  8
T29SSILL
 62
6
 10
2197.720
 20
-5079.406
 30
2333.791
 70
    32
  0
VERTEX
  8
T29SSILL
 62
6
 10
2210.195
 20
-5070.834
 30
2333.676
 70
    32
  0
VERTEX
  8
T29SSILL
 62
6
 10
2205.668
 20
-5065.092
 30
2333.668
 70
    32
  0
VERTEX
  8
T29SSILL
 62
6
 10
2211.757
 20
-5060.750
 30
2333.611
 70
    32
  0
VERTEX
  8
T29SSILL
 62
6
 10
2216.212
 20
-5066.542
 30
2333.619
 70
    32
  0
VERTEX
  8
T29SSILL
 62
6
 10
2245.174
 20
-5045.779
 30
2333.348
 70
    32
  0
VERTEX
  8
T29SSILL
 62
6
 10
2250.324
 20
-5039.513
 30
2333.285
 70
    32
  0
VERTEX
  8
T29SSILL
 62
6
 10
2251.781
 20
-5033.070
 30
2333.241
 70
    32
  0
VERTEX
  8
T29SSILL
 62
6
 10
2246.703
 20
-5026.101
 30
2333.230
 70
    32
  0
VERTEX
  8
T29SSILL
 62
6
 10
2251.048
 20
-5014.464
 30
2333.141
 70
    32
  0
VERTEX
  8
T29SSILL
 62
6
 10
2149.481
 20
-4872.806
 30
2333.009
 70
    32
  0
VERTEX
  8
T29SSILL
 62
6
 10
2148.053
 20
-4881.714
 30
2333.021
 70
    32
  0
VERTEX
  8
T29SSILL
 62
6
 10
2142.563
 20
-4891.898
 30
2333.045
 70
    32
  0
VERTEX
  8
T29SSILL
 62
6
 10
2112.587
 20
-4914.573
 30
2333.326
 70
    32
  0
VERTEX
  8
T29SSILL
 62
6
 10
2115.507
 20
-4921.244
 30
2333.348
 70
    32
  0
VERTEX
  8
T29SSILL
 62
6
 10
2122.486
 20
-4930.424
 30
2333.361
 70
    32
  0
VERTEX
  8
T29SSILL
 62
6
 10
2124.558
 20
-4937.268
 30
2333.389
 70
    32
  0
VERTEX
  8
T29SSILL
 62
6
 10
2114.889
 20
-4941.138
 30
2333.462
 70
    32
  0
VERTEX
  8
T29SSILL
 62
6
 10
2113.024
 20
-4946.251
 30
2333.501
 70
    32
  0
VERTEX
  8
T29SSILL
 62
6
 10
2107.153
 20
-4945.899
 30
2333.530
 70
    32
  0
VERTEX
  8
T29SSILL
 62
6
 10
2107.199
 20
-4938.084
 30
2333.486
 70
    32
  0
VERTEX
  8
T29SSILL
 62
6
 10
2095.984
 20
-4930.844
 30
2333.506
 70
    32
  0
VERTEX
  8
T29SSILL
 62
6
 10
2092.824
 20
-4930.504
 30
2333.521
 70
    32
  0
VERTEX
  8
T29SSILL
 62
6
 10
2077.864
 20
-4938.472
 30
2333.646
 70
    32
  0
VERTEX
  8
T29SSILL
 62
6
 10
2072.630
 20
-4933.558
 30
2333.646
 70
    32
  0
VERTEX
  8
T29SSILL
 62
6
 10
2084.953
 20
-4924.014
 30
2333.527
 70
    32
  0
VERTEX
  8
T29SSILL
 62
6
 10
2086.407
 20
-4921.355
 30
2333.504
 70
    32
  0
VERTEX
  8
T29SSILL
 62
6
 10
2061.512
 20
-4892.206
 30
2333.475
 70
    32
  0
VERTEX
  8
T29SSILL
 62
6
 10
2031.836
 20
-4853.930
 30
2333.420
 70
    32
  0
VERTEX
  8
T29SSILL
 62
6
 10
2031.870
 20
-4849.583
 30
2333.396
 70
    32
  0
VERTEX
  8
T29SSILL
 62
6
 10
2021.100
 20
-4834.784
 30
2333.371
 70
    32
  0
VERTEX
  8
T29SSILL
 62
6
 10
2023.387
 20
-4827.534
 30
2333.318
 70
    32
  0
VERTEX
  8
T29SSILL
 62
6
 10
2028.813
 20
-4819.989
 30
2333.289
 70
    32
  0
VERTEX
  8
T29SSILL
 62
6
 10
2038.657
 20
-4814.698
 30
2333.257
 70
    32
  0
VERTEX
  8
T29SSILL
 62
6
 10
2050.126
 20
-4810.625
 30
2333.222
 70
    32
  0
VERTEX
  8
T29SSILL
 62
6
 10
2058.680
 20
-4820.952
 30
2333.208
 70
    32
  0
VERTEX
  8
T29SSILL
 62
6
 10
2066.759
 20
-4822.431
 30
2333.188
 70
    32
  0
VERTEX
  8
T29SSILL
 62
6
 10
2088.435
 20
-4861.766
 30
2333.165
 70
    32
  0
VERTEX
  8
T29SSILL
 62
6
 10
2122.335
 20
-4899.298
 30
2333.188
 70
    32
  0
VERTEX
  8
T29SSILL
 62
6
 10
2134.238
 20
-4890.378
 30
2333.075
 70
    32
  0
VERTEX
  8
T29SSILL
 62
6
 10
2136.920
 20
-4887.168
 30
2333.056
 70
    32
  0
VERTEX
  8
T29SSILL
 62
6
 10
2140.893
 20
-4881.525
 30
2333.040
 70
    32
  0
VERTEX
  8
T29SSILL
 62
6
 10
2142.760
 20
-4873.384
 30
2333.028
 70
    32
  0
VERTEX
  8
T29SSILL
 62
6
 10
2139.754
 20
-4858.561
 30
2333.022
 70
    32
  0
VERTEX
  8
T29SSILL
 62
6
 10
2077.710
 20
-4771.716
 30
2333.111
 70
    32
  0
VERTEX
  8
T29SSILL
 62
6
 10
2074.578
 20
-4761.414
 30
2333.110
 70
    32
  0
VERTEX
  8
T29SSILL
 62
6
 10
2074.919
 20
-4756.740
 30
2333.104
 70
    32
  0
VERTEX
  8
T29SSILL
 62
6
 10
2076.683
 20
-4754.200
 30
2333.097
 70
    32
  0
VERTEX
  8
T29SSILL
 62
6
 10
2020.586
 20
-4757.021
 30
2333.253
 70
    32
  0
VERTEX
  8
T29SSILL
 62
6
 10
1873.562
 20
-4584.440
 30
2333.692
 70
    32
  0
VERTEX
  8
T29SSILL
 62
6
 10
1869.793
 20
-4594.262
 30
2333.677
 70
    32
  0
VERTEX
  8
T29SSILL
 62
6
 10
1855.392
 20
-4606.756
 30
2333.669
 70
    32
  0
VERTEX
  8
T29SSILL
 62
6
 10
1840.249
 20
-4583.925
 30
2333.735
 70
    32
  0
VERTEX
  8
T29SSILL
 62
6
 10
1839.300
 20
-4577.768
 30
2333.748
 70
    32
  0
VERTEX
  8
T29SSILL
 62
6
 10
1835.670
 20
-4568.115
 30
2333.773
 70
    32
  0
VERTEX
  8
T29SSILL
 62
6
 10
1835.720
 20
-4564.678
 30
2333.780
 70
    32
  0
VERTEX
  8
T29SSILL
 62
6
 10
1841.891
 20
-4548.926
 30
2333.804
 70
    32
  0
VERTEX
  8
T29SSILL
 62
6
 10
1827.156
 20
-4531.113
 30
2333.859
 70
    32
  0
VERTEX
  8
T29SSILL
 62
6
 10
1822.257
 20
-4534.339
 30
2333.859
 70
    32
  0
VERTEX
  8
T29SSILL
 62
6
 10
1816.551
 20
-4528.322
 30
2333.878
 70
    32
  0
VERTEX
  8
T29SSILL
 62
6
 10
1821.358
 20
-4524.745
 30
2333.879
 70
    32
  0
VERTEX
  8
T29SSILL
 62
6
 10
1777.518
 20
-4472.448
 30
2334.041
 70
    32
  0
VERTEX
  8
T29SSILL
 62
6
 10
1770.975
 20
-4470.405
 30
2334.053
 70
    32
  0
VERTEX
  8
T29SSILL
 62
6
 10
1767.524
 20
-4477.052
 30
2334.044
 70
    32
  0
VERTEX
  8
T29SSILL
 62
6
 10
1762.102
 20
-4472.794
 30
2334.060
 70
    32
  0
VERTEX
  8
T29SSILL
 62
6
 10
1763.876
 20
-4465.813
 30
2334.072
 70
    32
  0
VERTEX
  8
T29SSILL
 62
6
 10
1759.498
 20
-4452.380
 30
2334.105
 70
    32
  0
VERTEX
  8
T29SSILL
 62
6
 10
1654.597
 20
-4328.150
 30
2334.490
 70
    32
  0
VERTEX
  8
T29SSILL
 62
6
 10
1659.356
 20
-4264.215
 30
2334.615
 70
    32
  0
VERTEX
  8
T29SSILL
 62
6
 10
1656.856
 20
-4261.247
 30
2334.624
 70
    32
  0
VERTEX
  8
T29SSILL
 62
6
 10
1649.907
 20
-4246.344
 30
2334.663
 70
    32
  0
VERTEX
  8
T29SSILL
 62
6
 10
1643.406
 20
-4240.160
 30
2334.684
 70
    32
  0
VERTEX
  8
T29SSILL
 62
6
 10
1639.550
 20
-4242.053
 30
2334.685
 70
    32
  0
VERTEX
  8
T29SSILL
 62
6
 10
1634.995
 20
-4236.464
 30
2334.702
 70
    32
  0
VERTEX
  8
T29SSILL
 62
6
 10
1638.756
 20
-4233.955
 30
2334.702
 70
    32
  0
VERTEX
  8
T29SSILL
 62
6
 10
1637.411
 20
-4231.855
 30
2334.708
 70
    32
  0
VERTEX
  8
T29SSILL
 62
6
 10
1633.122
 20
-4234.458
 30
2334.708
 70
    32
  0
VERTEX
  8
T29SSILL
 62
6
 10
1626.318
 20
-4224.664
 30
2334.737
 70
    32
  0
VERTEX
  8
T29SSILL
 62
6
 10
1629.980
 20
-4221.099
 30
2334.740
 70
    32
  0
VERTEX
  8
T29SSILL
 62
6
 10
1616.677
 20
-4205.297
 30
2334.788
 70
    32
  0
VERTEX
  8
T29SSILL
 62
6
 10
1602.417
 20
-4198.669
 30
2334.820
 70
    32
  0
VERTEX
  8
T29SSILL
 62
6
 10
1601.030
 20
-4184.675
 30
2334.850
 70
    32
  0
VERTEX
  8
T29SSILL
 62
6
 10
1578.593
 20
-4171.617
 30
2334.905
 70
    32
  0
VERTEX
  8
T29SSILL
 62
6
 10
1572.300
 20
-4176.268
 30
2334.903
 70
    32
  0
VERTEX
  8
T29SSILL
 62
6
 10
1555.535
 20
-4158.125
 30
2334.961
 70
    32
  0
VERTEX
  8
T29SSILL
 62
6
 10
1557.040
 20
-4150.795
 30
2334.975
 70
    32
  0
VERTEX
  8
T29SSILL
 62
6
 10
1556.214
 20
-4139.790
 30
2334.998
 70
    32
  0
VERTEX
  8
T29SSILL
 62
6
 10
1545.866
 20
-4120.254
 30
2335.051
 70
    32
  0
VERTEX
  8
T29SSILL
 62
6
 10
1532.974
 20
-4125.771
 30
2335.056
 70
    32
  0
VERTEX
  8
T29SSILL
 62
6
 10
1526.190
 20
-4125.846
 30
2335.064
 70
    32
  0
VERTEX
  8
T29SSILL
 62
6
 10
1515.010
 20
-4118.832
 30
2335.093
 70
    32
  0
VERTEX
  8
T29SSILL
 62
6
 10
1513.846
 20
-4109.064
 30
2335.114
 70
    32
  0
VERTEX
  8
T29SSILL
 62
6
 10
1518.313
 20
-4106.636
 30
2335.113
 70
    32
  0
VERTEX
  8
T29SSILL
 62
6
 10
1520.628
 20
-4108.901
 30
2335.106
 70
    32
  0
VERTEX
  8
T29SSILL
 62
6
 10
1530.972
 20
-4104.029
 30
2335.103
 70
    32
  0
VERTEX
  8
T29SSILL
 62
6
 10
1525.303
 20
-4093.342
 30
2335.132
 70
    32
  0
VERTEX
  8
T29SSILL
 62
6
 10
1524.179
 20
-4087.274
 30
2335.146
 70
    32
  0
VERTEX
  8
T29SSILL
 62
6
 10
1517.274
 20
-4076.336
 30
2335.177
 70
    32
  0
VERTEX
  8
T29SSILL
 62
6
 10
1511.324
 20
-4080.103
 30
2335.176
 70
    32
  0
VERTEX
  8
T29SSILL
 62
6
 10
1509.265
 20
-4077.218
 30
2335.185
 70
    32
  0
VERTEX
  8
T29SSILL
 62
6
 10
1501.362
 20
-4079.684
 30
2335.190
 70
    32
  0
VERTEX
  8
T29SSILL
 62
6
 10
1481.735
 20
-4057.695
 30
2335.259
 70
    32
  0
VERTEX
  8
T29SSILL
 62
6
 10
1466.973
 20
-4037.415
 30
2335.319
 70
    32
  0
VERTEX
  8
T29SSILL
 62
6
 10
1475.048
 20
-4026.577
 30
2335.331
 70
    32
  0
VERTEX
  8
T29SSILL
 62
6
 10
1476.836
 20
-4020.918
 30
2335.340
 70
    32
  0
VERTEX
  8
T29SSILL
 62
6
 10
1471.051
 20
-4007.676
 30
2335.375
 70
    32
  0
VERTEX
  8
T29SSILL
 62
6
 10
1426.695
 20
-3948.512
 30
2335.484
 70
    32
  0
VERTEX
  8
T29SSILL
 62
6
 10
1421.809
 20
-3952.883
 30
2335.502
 70
    32
  0
VERTEX
  8
T29SSILL
 62
6
 10
1417.065
 20
-3946.151
 30
2335.502
 70
    32
  0
VERTEX
  8
T29SSILL
 62
6
 10
1422.927
 20
-3942.386
 30
2335.482
 70
    32
  0
VERTEX
  8
T29SSILL
 62
6
 10
1400.576
 20
-3913.114
 30
2335.484
 70
    32
  0
VERTEX
  8
T29SSILL
 62
6
 10
1387.315
 20
-3923.077
 30
2335.531
 70
    32
  0
VERTEX
  8
T29SSILL
 62
6
 10
1382.571
 20
-3918.423
 30
2335.534
 70
    32
  0
VERTEX
  8
T29SSILL
 62
6
 10
1396.955
 20
-3909.397
 30
2335.486
 70
    32
  0
VERTEX
  8
T29SSILL
 62
6
 10
1390.376
 20
-3899.040
 30
2335.483
 70
    32
  0
VERTEX
  8
T29SSILL
 62
6
 10
1382.710
 20
-3891.018
 30
2335.487
 70
    32
  0
VERTEX
  8
T29SSILL
 62
6
 10
1279.167
 20
-3756.524
 30
2335.497
 70
    32
  0
VERTEX
  8
T29SSILL
 62
6
 10
1276.603
 20
-3760.317
 30
2335.509
 70
    32
  0
VERTEX
  8
T29SSILL
 62
6
 10
1289.279
 20
-3789.199
 30
2335.530
 70
    32
  0
VERTEX
  8
T29SSILL
 62
6
 10
1295.357
 20
-3799.535
 30
2335.533
 70
    32
  0
VERTEX
  8
T29SSILL
 62
6
 10
1295.267
 20
-3800.948
 30
2335.536
 70
    32
  0
VERTEX
  8
T29SSILL
 62
6
 10
1284.844
 20
-3805.966
 30
2335.569
 70
    32
  0
VERTEX
  8
T29SSILL
 62
6
 10
1283.432
 20
-3805.788
 30
2335.572
 70
    32
  0
VERTEX
  8
T29SSILL
 62
6
 10
1281.671
 20
-3801.990
 30
2335.569
 70
    32
  0
VERTEX
  8
T29SSILL
 62
6
 10
1278.584
 20
-3799.956
 30
2335.573
 70
    32
  0
VERTEX
  8
T29SSILL
 62
6
 10
1268.895
 20
-3782.906
 30
2335.566
 70
    32
  0
VERTEX
  8
T29SSILL
 62
6
 10
1266.440
 20
-3769.044
 30
2335.548
 70
    32
  0
VERTEX
  8
T29SSILL
 62
6
 10
1254.371
 20
-3748.725
 30
2335.541
 70
    32
  0
VERTEX
  8
T29SSILL
 62
6
 10
1250.054
 20
-3742.276
 30
2335.540
 70
    32
  0
VERTEX
  8
T29SSILL
 62
6
 10
1233.914
 20
-3730.515
 30
2335.557
 70
    32
  0
VERTEX
  8
T29SSILL
 62
6
 10
1241.523
 20
-3716.135
 30
2335.515
 70
    32
  0
VERTEX
  8
T29SSILL
 62
6
 10
1234.825
 20
-3707.299
 30
2335.516
 70
    32
  0
VERTEX
  8
T29SSILL
 62
6
 10
1240.038
 20
-3703.686
 30
2335.497
 70
    32
  0
VERTEX
  8
T29SSILL
 62
6
 10
1231.401
 20
-3692.376
 30
2335.498
 70
    32
  0
VERTEX
  8
T29SSILL
 62
6
 10
1227.601
 20
-3695.638
 30
2335.512
 70
    32
  0
VERTEX
  8
T29SSILL
 62
6
 10
1209.169
 20
-3681.226
 30
2335.544
 70
    32
  0
VERTEX
  8
T29SSILL
 62
6
 10
1205.907
 20
-3677.338
 30
2335.556
 70
    32
  0
VERTEX
  8
T29SSILL
 62
6
 10
1181.169
 20
-3694.433
 30
2335.618
 70
    32
  0
VERTEX
  8
T29SSILL
 62
6
 10
1175.792
 20
-3687.452
 30
2335.619
 70
    32
  0
VERTEX
  8
T29SSILL
 62
6
 10
1180.387
 20
-3683.927
 30
2335.609
 70
    32
  0
VERTEX
  8
T29SSILL
 62
6
 10
1181.190
 20
-3685.179
 30
2335.605
 70
    32
  0
VERTEX
  8
T29SSILL
 62
6
 10
1201.766
 20
-3671.153
 30
2335.573
 70
    32
  0
VERTEX
  8
T29SSILL
 62
6
 10
1194.546
 20
-3656.049
 30
2335.608
 70
    32
  0
VERTEX
  8
T29SSILL
 62
6
 10
1194.285
 20
-3652.606
 30
2335.613
 70
    32
  0
VERTEX
  8
T29SSILL
 62
6
 10
1196.057
 20
-3647.841
 30
2335.614
 70
    32
  0
VERTEX
  8
T29SSILL
 62
6
 10
1191.297
 20
-3641.921
 30
2335.632
 70
    32
  0
VERTEX
  8
T29SSILL
 62
6
 10
1188.651
 20
-3640.328
 30
2335.640
 70
    32
  0
VERTEX
  8
T29SSILL
 62
6
 10
1163.877
 20
-3614.168
 30
2335.730
 70
    32
  0
VERTEX
  8
T29SSILL
 62
6
 10
1132.864
 20
-3636.640
 30
2335.777
 70
    32
  0
VERTEX
  8
T29SSILL
 62
6
 10
1128.723
 20
-3630.809
 30
2335.794
 70
    32
  0
VERTEX
  8
T29SSILL
 62
6
 10
1165.302
 20
-3603.930
 30
2335.739
 70
    32
  0
VERTEX
  8
T29SSILL
 62
6
 10
1124.761
 20
-3550.649
 30
2335.897
 70
    32
  0
VERTEX
  8
T29SSILL
 62
6
 10
646.231
 20
-3892.306
 30
2336.527
 70
    32
  0
VERTEX
  8
T29SSILL
 62
6
 10
643.787
 20
-3896.193
 30
2336.526
 70
    32
  0
VERTEX
  8
T29SSILL
 62
6
 10
628.077
 20
-3901.181
 30
2336.529
 70
    32
  0
VERTEX
  8
T29SSILL
 62
6
 10
608.168
 20
-3900.818
 30
2336.535
 70
    32
  0
VERTEX
  8
T29SSILL
 62
6
 10
602.844
 20
-3899.441
 30
2336.536
 70
    32
  0
VERTEX
  8
T29SSILL
 62
6
 10
591.967
 20
-3893.855
 30
2336.541
 70
    32
  0
VERTEX
  8
T29SSILL
 62
6
 10
584.041
 20
-3887.742
 30
2336.544
 70
    32
  0
VERTEX
  8
T29SSILL
 62
6
 10
577.566
 20
-3880.316
 30
2336.548
 70
    32
  0
VERTEX
  8
T29SSILL
 62
6
 10
229.233
 20
-3359.477
 30
2337.583
 70
    32
  0
VERTEX
  8
T29SSILL
 62
6
 10
136.509
 20
-3112.043
 30
2337.470
 70
    32
  0
VERTEX
  8
T29SSILL
 62
6
 10
141.865
 20
-3108.162
 30
2337.468
 70
    32
  0
VERTEX
  8
T29SSILL
 62
6
 10
145.553
 20
-3099.973
 30
2337.462
 70
    32
  0
VERTEX
  8
T29SSILL
 62
6
 10
151.628
 20
-3094.958
 30
2337.460
 70
    32
  0
VERTEX
  8
T29SSILL
 62
6
 10
194.601
 20
-3064.249
 30
2337.450
 70
    32
  0
VERTEX
  8
T29SSILL
 62
6
 10
195.565
 20
-3061.131
 30
2337.447
 70
    32
  0
VERTEX
  8
T29SSILL
 62
6
 10
189.151
 20
-3052.701
 30
2337.437
 70
    32
  0
VERTEX
  8
T29SSILL
 62
6
 10
194.556
 20
-3048.893
 30
2337.436
 70
    32
  0
VERTEX
  8
T29SSILL
 62
6
 10
210.014
 20
-3053.053
 30
2337.426
 70
    32
  0
VERTEX
  8
T29SSILL
 62
6
 10
285.711
 20
-2999.293
 30
2337.227
 70
    32
  0
VERTEX
  8
T29SSILL
 62
6
 10
264.078
 20
-2968.482
 30
2337.238
 70
    32
  0
VERTEX
  8
T29SSILL
 62
6
 10
259.204
 20
-2971.820
 30
2337.251
 70
    32
  0
VERTEX
  8
T29SSILL
 62
6
 10
254.717
 20
-2964.955
 30
2337.252
 70
    32
  0
VERTEX
  8
T29SSILL
 62
6
 10
259.327
 20
-2962.013
 30
2337.241
 70
    32
  0
VERTEX
  8
T29SSILL
 62
6
 10
245.564
 20
-2942.695
 30
2337.248
 70
    32
  0
VERTEX
  8
T29SSILL
 62
6
 10
221.782
 20
-2939.641
 30
2337.291
 70
    32
  0
VERTEX
  8
T29SSILL
 62
6
 10
212.789
 20
-2946.013
 30
2337.315
 70
    32
  0
VERTEX
  8
T29SSILL
 62
6
 10
217.740
 20
-2952.773
 30
2337.312
 70
    32
  0
VERTEX
  8
T29SSILL
 62
6
 10
211.656
 20
-2957.153
 30
2337.328
 70
    32
  0
VERTEX
  8
T29SSILL
 62
6
 10
207.028
 20
-2950.706
 30
2337.330
 70
    32
  0
VERTEX
  8
T29SSILL
 62
6
 10
197.657
 20
-2957.682
 30
2337.355
 70
    32
  0
VERTEX
  8
T29SSILL
 62
6
 10
193.562
 20
-2951.949
 30
2337.349
 70
    32
  0
VERTEX
  8
T29SSILL
 62
6
 10
220.565
 20
-2932.247
 30
2337.286
 70
    32
  0
VERTEX
  8
T29SSILL
 62
6
 10
240.250
 20
-2936.183
 30
2337.252
 70
    32
  0
VERTEX
  8
T29SSILL
 62
6
 10
231.977
 20
-2923.791
 30
2337.256
 70
    32
  0
VERTEX
  8
T29SSILL
 62
6
 10
225.986
 20
-2927.680
 30
2337.271
 70
    32
  0
VERTEX
  8
T29SSILL
 62
6
 10
221.698
 20
-2921.107
 30
2337.273
 70
    32
  0
VERTEX
  8
T29SSILL
 62
6
 10
227.226
 20
-2917.321
 30
2337.258
 70
    32
  0
VERTEX
  8
T29SSILL
 62
6
 10
194.827
 20
-2872.193
 30
2337.276
 70
    32
  0
VERTEX
  8
T29SSILL
 62
6
 10
189.484
 20
-2861.427
 30
2337.271
 70
    32
  0
VERTEX
  8
T29SSILL
 62
6
 10
187.796
 20
-2853.501
 30
2337.263
 70
    32
  0
VERTEX
  8
T29SSILL
 62
6
 10
189.314
 20
-2845.730
 30
2337.250
 70
    32
  0
VERTEX
  8
T29SSILL
 62
6
 10
193.017
 20
-2836.783
 30
2337.234
 70
    32
  0
VERTEX
  8
T29SSILL
 62
6
 10
196.990
 20
-2831.819
 30
2337.222
 70
    32
  0
VERTEX
  8
T29SSILL
 62
6
 10
368.295
 20
-2709.061
 30
2336.845
 70
    32
  0
VERTEX
  8
T29SSILL
 62
6
 10
375.040
 20
-2704.869
 30
2336.831
 70
    32
  0
VERTEX
  8
T29SSILL
 62
6
 10
384.693
 20
-2702.426
 30
2336.815
 70
    32
  0
VERTEX
  8
T29SSILL
 62
6
 10
392.479
 20
-2703.184
 30
2336.807
 70
    32
  0
VERTEX
  8
T29SSILL
 62
6
 10
410.993
 20
-2709.312
 30
2336.793
 70
    32
  0
VERTEX
  8
T29SSILL
 62
6
 10
538.574
 20
-2761.276
 30
2336.709
 70
    32
  0
VERTEX
  8
T29SSILL
 62
6
 10
625.941
 20
-2877.490
 30
2336.616
 70
    32
  0
VERTEX
  8
T29SSILL
 62
6
 10
629.750
 20
-2874.104
 30
2336.611
 70
    32
  0
VERTEX
  8
T29SSILL
 62
6
 10
633.964
 20
-2879.990
 30
2336.603
 70
    32
  0
VERTEX
  8
T29SSILL
 62
6
 10
630.018
 20
-2882.912
 30
2336.608
 70
    32
  0
VERTEX
  8
T29SSILL
 62
6
 10
647.705
 20
-2906.439
 30
2336.575
 70
    32
  0
VERTEX
  8
T29SSILL
 62
6
 10
709.863
 20
-2916.229
 30
2336.479
 70
    32
  0
VERTEX
  8
T29SSILL
 62
6
 10
748.054
 20
-2888.366
 30
2336.429
 70
    32
  0
VERTEX
  8
T29SSILL
 62
6
 10
756.240
 20
-2883.936
 30
2336.418
 70
    32
  0
VERTEX
  8
T29SSILL
 62
6
 10
772.668
 20
-2883.585
 30
2336.394
 70
    32
  0
VERTEX
  8
T29SSILL
 62
6
 10
783.132
 20
-2889.348
 30
2336.376
 70
    32
  0
VERTEX
  8
T29SSILL
 62
6
 10
1073.134
 20
-3259.941
 30
2335.836
 70
    32
  0
VERTEX
  8
T29SSILL
 62
6
 10
1080.625
 20
-3252.781
 30
2335.826
 70
    32
  0
VERTEX
  8
T29SSILL
 62
6
 10
1084.644
 20
-3257.401
 30
2335.819
 70
    32
  0
VERTEX
  8
T29SSILL
 62
6
 10
1077.203
 20
-3264.634
 30
2335.828
 70
    32
  0
VERTEX
  8
T29SSILL
 62
6
 10
1163.263
 20
-3375.484
 30
2335.667
 70
    32
  0
VERTEX
  8
T29SSILL
 62
6
 10
1176.240
 20
-3365.101
 30
2335.651
 70
    32
  0
VERTEX
  8
T29SSILL
 62
6
 10
1180.520
 20
-3371.038
 30
2335.643
 70
    32
  0
VERTEX
  8
T29SSILL
 62
6
 10
1172.113
 20
-3377.330
 30
2335.654
 70
    32
  0
VERTEX
  8
T29SSILL
 62
6
 10
1170.534
 20
-3384.074
 30
2335.654
 70
    32
  0
VERTEX
  8
T29SSILL
 62
6
 10
1558.737
 20
-3880.884
 30
2334.615
 70
    32
  0
VERTEX
  8
T29SSILL
 62
6
 10
1777.370
 20
-4074.969
 30
2333.865
 70
    32
  0
VERTEX
  8
T29SSILL
 62
6
 10
1776.849
 20
-4067.662
 30
2333.878
 70
    32
  0
VERTEX
  8
T29SSILL
 62
6
 10
1779.384
 20
-4057.853
 30
2333.891
 70
    32
  0
VERTEX
  8
T29SSILL
 62
6
 10
1786.136
 20
-4046.853
 30
2333.901
 70
    32
  0
VERTEX
  8
T29SSILL
 62
6
 10
1880.103
 20
-3978.323
 30
2333.959
 70
    32
  0
VERTEX
  8
T29SSILL
 62
6
 10
1877.685
 20
-3974.737
 30
2333.977
 70
    32
  0
VERTEX
  8
T29SSILL
 62
6
 10
1882.917
 20
-3969.833
 30
2333.986
 70
    32
  0
VERTEX
  8
T29SSILL
 62
6
 10
1886.314
 20
-3974.201
 30
2333.963
 70
    32
  0
VERTEX
  8
T29SSILL
 62
6
 10
1951.593
 20
-3926.785
 30
2334.027
 70
    32
  0
VERTEX
  8
T29SSILL
 62
6
 10
1956.212
 20
-3932.472
 30
2333.996
 70
    32
  0
VERTEX
  8
T29SSILL
 62
6
 10
1793.925
 20
-4050.027
 30
2333.885
 70
    32
  0
VERTEX
  8
T29SSILL
 62
6
 10
1788.784
 20
-4055.283
 30
2333.883
 70
    32
  0
VERTEX
  8
T29SSILL
 62
6
 10
1784.479
 20
-4064.406
 30
2333.873
 70
    32
  0
VERTEX
  8
T29SSILL
 62
6
 10
1784.962
 20
-4076.296
 30
2333.852
 70
    32
  0
VERTEX
  8
T29SSILL
 62
6
 10
1787.955
 20
-4084.017
 30
2333.835
 70
    32
  0
VERTEX
  8
T29SSILL
 62
6
 10
1898.208
 20
-4182.106
 30
2333.514
 70
    32
  0
VERTEX
  8
T29SSILL
 62
6
 10
1898.797
 20
-4171.614
 30
2333.531
 70
    32
  0
VERTEX
  8
T29SSILL
 62
6
 10
1894.637
 20
-4161.879
 30
2333.554
 70
    32
  0
VERTEX
  8
T29SSILL
 62
6
 10
1892.939
 20
-4159.695
 30
2333.560
 70
    32
  0
VERTEX
  8
T29SSILL
 62
6
 10
1885.144
 20
-4155.992
 30
2333.577
 70
    32
  0
VERTEX
  8
T29SSILL
 62
6
 10
1889.053
 20
-4150.927
 30
2333.580
 70
    32
  0
VERTEX
  8
T29SSILL
 62
6
 10
1894.505
 20
-4149.898
 30
2333.575
 70
    32
  0
VERTEX
  8
T29SSILL
 62
6
 10
1896.244
 20
-4147.764
 30
2333.576
 70
    32
  0
VERTEX
  8
T29SSILL
 62
6
 10
1900.490
 20
-4133.266
 30
2333.595
 70
    32
  0
VERTEX
  8
T29SSILL
 62
6
 10
1902.158
 20
-4132.719
 30
2333.593
 70
    32
  0
VERTEX
  8
T29SSILL
 62
6
 10
1905.184
 20
-4135.506
 30
2333.584
 70
    32
  0
VERTEX
  8
T29SSILL
 62
6
 10
1905.245
 20
-4140.968
 30
2333.575
 70
    32
  0
VERTEX
  8
T29SSILL
 62
6
 10
1906.952
 20
-4143.945
 30
2333.568
 70
    32
  0
VERTEX
  8
T29SSILL
 62
6
 10
1916.331
 20
-4147.542
 30
2333.548
 70
    32
  0
VERTEX
  8
T29SSILL
 62
6
 10
1951.297
 20
-4122.133
 30
2333.543
 70
    32
  0
VERTEX
  8
T29SSILL
 62
6
 10
1947.145
 20
-4113.191
 30
2333.564
 70
    32
  0
VERTEX
  8
T29SSILL
 62
6
 10
1939.889
 20
-4102.433
 30
2333.593
 70
    32
  0
VERTEX
  8
T29SSILL
 62
6
 10
1942.604
 20
-4100.905
 30
2333.592
 70
    32
  0
VERTEX
  8
T29SSILL
 62
6
 10
1942.237
 20
-4099.588
 30
2333.595
 70
    32
  0
VERTEX
  8
T29SSILL
 62
6
 10
1930.019
 20
-4086.241
 30
2333.634
 70
    32
  0
VERTEX
  8
T29SSILL
 62
6
 10
1933.698
 20
-4076.332
 30
2333.646
 70
    32
  0
VERTEX
  8
T29SSILL
 62
6
 10
1942.358
 20
-4070.597
 30
2333.644
 70
    32
  0
VERTEX
  8
T29SSILL
 62
6
 10
1956.616
 20
-4077.048
 30
2333.613
 70
    32
  0
VERTEX
  8
T29SSILL
 62
6
 10
1959.499
 20
-4074.814
 30
2333.613
 70
    32
  0
VERTEX
  8
T29SSILL
 62
6
 10
1963.161
 20
-4079.355
 30
2333.600
 70
    32
  0
VERTEX
  8
T29SSILL
 62
6
 10
1957.111
 20
-4082.065
 30
2333.604
 70
    32
  0
VERTEX
  8
T29SSILL
 62
6
 10
1954.848
 20
-4100.594
 30
2333.575
 70
    32
  0
VERTEX
  8
T29SSILL
 62
6
 10
1957.587
 20
-4109.199
 30
2333.557
 70
    32
  0
VERTEX
  8
T29SSILL
 62
6
 10
1964.580
 20
-4112.118
 30
2333.542
 70
    32
  0
VERTEX
  8
T29SSILL
 62
6
 10
2012.316
 20
-4078.197
 30
2333.534
 70
    32
  0
VERTEX
  8
T29SSILL
 62
6
 10
2018.353
 20
-4066.324
 30
2333.546
 70
    32
  0
VERTEX
  8
T29SSILL
 62
6
 10
2017.447
 20
-4064.043
 30
2333.551
 70
    32
  0
VERTEX
  8
T29SSILL
 62
6
 10
2005.152
 20
-4059.772
 30
2333.576
 70
    32
  0
VERTEX
  8
T29SSILL
 62
6
 10
1999.375
 20
-4055.254
 30
2333.591
 70
    32
  0
VERTEX
  8
T29SSILL
 62
6
 10
1996.487
 20
-4049.030
 30
2333.606
 70
    32
  0
VERTEX
  8
T29SSILL
 62
6
 10
1987.400
 20
-4040.054
 30
2333.634
 70
    32
  0
VERTEX
  8
T29SSILL
 62
6
 10
1976.615
 20
-4036.825
 30
2333.654
 70
    32
  0
VERTEX
  8
T29SSILL
 62
6
 10
1975.257
 20
-4033.491
 30
2333.662
 70
    32
  0
VERTEX
  8
T29SSILL
 62
6
 10
1988.633
 20
-4024.004
 30
2333.660
 70
    32
  0
VERTEX
  8
T29SSILL
 62
6
 10
2004.600
 20
-4033.609
 30
2333.621
 70
    32
  0
VERTEX
  8
T29SSILL
 62
6
 10
2008.928
 20
-4034.618
 30
2333.613
 70
    32
  0
VERTEX
  8
T29SSILL
 62
6
 10
2014.496
 20
-4044.161
 30
2333.589
 70
    32
  0
VERTEX
  8
T29SSILL
 62
6
 10
2022.954
 20
-4044.068
 30
2333.578
 70
    32
  0
VERTEX
  8
T29SSILL
 62
6
 10
2019.462
 20
-4030.978
 30
2333.605
 70
    32
  0
VERTEX
  8
T29SSILL
 62
6
 10
2021.109
 20
-4028.493
 30
2333.607
 70
    32
  0
VERTEX
  8
T29SSILL
 62
6
 10
2020.814
 20
-4025.764
 30
2333.612
 70
    32
  0
VERTEX
  8
T29SSILL
 62
6
 10
2014.952
 20
-4005.563
 30
2333.655
 70
    32
  0
VERTEX
  8
T29SSILL
 62
6
 10
2018.367
 20
-4003.587
 30
2333.653
 70
    32
  0
VERTEX
  8
T29SSILL
 62
6
 10
2023.488
 20
-4004.499
 30
2333.645
 70
    32
  0
VERTEX
  8
T29SSILL
 62
6
 10
2029.533
 20
-4025.404
 30
2333.601
 70
    32
  0
VERTEX
  8
T29SSILL
 62
6
 10
2030.821
 20
-4038.342
 30
2333.577
 70
    32
  0
VERTEX
  8
T29SSILL
 62
6
 10
2033.233
 20
-4041.312
 30
2333.568
 70
    32
  0
VERTEX
  8
T29SSILL
 62
6
 10
2045.756
 20
-4050.249
 30
2333.536
 70
    32
  0
VERTEX
  8
T29SSILL
 62
6
 10
2050.690
 20
-4050.283
 30
2333.529
 70
    32
  0
VERTEX
  8
T29SSILL
 62
6
 10
2055.067
 20
-4055.610
 30
2333.514
 70
    32
  0
VERTEX
  8
T29SSILL
 62
6
 10
2052.981
 20
-4066.295
 30
2333.498
 70
    32
  0
VERTEX
  8
T29SSILL
 62
6
 10
2040.726
 20
-4081.585
 30
2333.489
 70
    32
  0
VERTEX
  8
T29SSILL
 62
6
 10
2040.214
 20
-4091.107
 30
2333.473
 70
    32
  0
VERTEX
  8
T29SSILL
 62
6
 10
2041.291
 20
-4100.876
 30
2333.455
 70
    32
  0
VERTEX
  8
T29SSILL
 62
6
 10
2037.879
 20
-4103.116
 30
2333.456
 70
    32
  0
VERTEX
  8
T29SSILL
 62
6
 10
2027.024
 20
-4093.543
 30
2333.488
 70
    32
  0
VERTEX
  8
T29SSILL
 62
6
 10
2013.460
 20
-4086.027
 30
2333.519
 70
    32
  0
VERTEX
  8
T29SSILL
 62
6
 10
1972.015
 20
-4115.208
 30
2333.527
 70
    32
  0
VERTEX
  8
T29SSILL
 62
6
 10
1968.614
 20
-4126.436
 30
2333.512
 70
    32
  0
VERTEX
  8
T29SSILL
 62
6
 10
1981.618
 20
-4139.069
 30
2333.473
 70
    32
  0
VERTEX
  8
T29SSILL
 62
6
 10
1991.290
 20
-4137.201
 30
2333.462
 70
    32
  0
VERTEX
  8
T29SSILL
 62
6
 10
1996.340
 20
-4139.700
 30
2333.451
 70
    32
  0
VERTEX
  8
T29SSILL
 62
6
 10
2000.476
 20
-4147.232
 30
2333.432
 70
    32
  0
VERTEX
  8
T29SSILL
 62
6
 10
2000.808
 20
-4153.397
 30
2333.421
 70
    32
  0
VERTEX
  8
T29SSILL
 62
6
 10
1999.682
 20
-4155.083
 30
2333.420
 70
    32
  0
VERTEX
  8
T29SSILL
 62
6
 10
1995.034
 20
-4157.161
 30
2333.423
 70
    32
  0
VERTEX
  8
T29SSILL
 62
6
 10
1983.606
 20
-4151.560
 30
2333.448
 70
    32
  0
VERTEX
  8
T29SSILL
 62
6
 10
1973.271
 20
-4141.188
 30
2333.480
 70
    32
  0
VERTEX
  8
T29SSILL
 62
6
 10
1962.721
 20
-4135.400
 30
2333.505
 70
    32
  0
VERTEX
  8
T29SSILL
 62
6
 10
1959.002
 20
-4141.697
 30
2333.499
 70
    32
  0
VERTEX
  8
T29SSILL
 62
6
 10
1963.048
 20
-4149.054
 30
2333.481
 70
    32
  0
VERTEX
  8
T29SSILL
 62
6
 10
1969.825
 20
-4156.381
 30
2333.459
 70
    32
  0
VERTEX
  8
T29SSILL
 62
6
 10
1963.242
 20
-4158.657
 30
2333.464
 70
    32
  0
VERTEX
  8
T29SSILL
 62
6
 10
1959.944
 20
-4155.257
 30
2333.475
 70
    32
  0
VERTEX
  8
T29SSILL
 62
6
 10
1949.989
 20
-4139.418
 30
2333.516
 70
    32
  0
VERTEX
  8
T29SSILL
 62
6
 10
1945.356
 20
-4134.799
 30
2333.530
 70
    32
  0
VERTEX
  8
T29SSILL
 62
6
 10
1911.077
 20
-4158.526
 30
2333.537
 70
    32
  0
VERTEX
  8
T29SSILL
 62
6
 10
1909.427
 20
-4160.659
 30
2333.536
 70
    32
  0
VERTEX
  8
T29SSILL
 62
6
 10
1905.672
 20
-4171.803
 30
2333.522
 70
    32
  0
VERTEX
  8
T29SSILL
 62
6
 10
1905.608
 20
-4181.937
 30
2333.504
 70
    32
  0
VERTEX
  8
T29SSILL
 62
6
 10
1907.162
 20
-4187.030
 30
2333.494
 70
    32
  0
VERTEX
  8
T29SSILL
 62
6
 10
1909.233
 20
-4191.061
 30
2333.484
 70
    32
  0
VERTEX
  8
T29SSILL
 62
6
 10
2083.726
 20
-4345.628
 30
2333.100
 70
    32
  0
VERTEX
  8
T29SSILL
 62
6
 10
2078.039
 20
-4319.713
 30
2333.123
 70
    32
  0
VERTEX
  8
T29SSILL
 62
6
 10
2084.152
 20
-4318.130
 30
2333.119
 70
    32
  0
VERTEX
  8
T29SSILL
 62
6
 10
2092.807
 20
-4354.163
 30
2333.086
 70
    32
  0
VERTEX
  8
T29SSILL
 62
6
 10
2226.995
 20
-4473.313
 30
2332.885
 70
    32
  0
VERTEX
  8
T29SSILL
 62
6
 10
2238.335
 20
-4478.915
 30
2332.872
 70
    32
  0
VERTEX
  8
T29SSILL
 62
6
 10
2258.969
 20
-4480.274
 30
2332.853
 70
    32
  0
VERTEX
  8
T29SSILL
 62
6
 10
2276.090
 20
-4474.799
 30
2332.842
 70
    32
  0
VERTEX
  8
T29SSILL
 62
6
 10
2280.116
 20
-4472.287
 30
2332.841
 70
    32
  0
VERTEX
  8
T29SSILL
 62
6
 10
2288.834
 20
-4463.820
 30
2332.839
 70
    32
  0
VERTEX
  8
T29SSILL
 62
6
 10
2285.594
 20
-4449.670
 30
2332.852
 70
    32
  0
VERTEX
  8
T29SSILL
 62
6
 10
2265.662
 20
-4433.708
 30
2332.881
 70
    32
  0
VERTEX
  8
T29SSILL
 62
6
 10
2270.722
 20
-4427.365
 30
2332.881
 70
    32
  0
VERTEX
  8
T29SSILL
 62
6
 10
2279.781
 20
-4433.873
 30
2332.868
 70
    32
  0
VERTEX
  8
T29SSILL
 62
6
 10
2286.352
 20
-4430.453
 30
2332.865
 70
    32
  0
VERTEX
  8
T29SSILL
 62
6
 10
2293.157
 20
-4432.316
 30
2332.858
 70
    32
  0
VERTEX
  8
T29SSILL
 62
6
 10
2300.978
 20
-4430.380
 30
2332.853
 70
    32
  0
VERTEX
  8
T29SSILL
 62
6
 10
2304.165
 20
-4431.754
 30
2332.849
 70
    32
  0
VERTEX
  8
T29SSILL
 62
6
 10
2305.143
 20
-4440.555
 30
2332.842
 70
    32
  0
VERTEX
  8
T29SSILL
 62
6
 10
2308.991
 20
-4437.869
 30
2332.840
 70
    32
  0
VERTEX
  8
T29SSILL
 62
6
 10
2347.816
 20
-4386.952
 30
2332.844
 70
    32
  0
VERTEX
  8
T29SSILL
 62
6
 10
2490.935
 20
-4285.015
 30
2332.774
 70
    32
  0
VERTEX
  8
T29SSILL
 62
6
 10
2565.843
 20
-4227.213
 30
2332.736
 70
    32
  0
VERTEX
  8
T29SSILL
 62
6
 10
2360.845
 20
-3939.045
 30
2333.290
 70
    32
  0
VERTEX
  8
T29SSILL
 62
6
 10
2357.492
 20
-3940.752
 30
2333.292
 70
    32
  0
VERTEX
  8
T29SSILL
 62
6
 10
2342.376
 20
-3935.598
 30
2333.321
 70
    32
  0
VERTEX
  8
T29SSILL
 62
6
 10
2339.044
 20
-3909.688
 30
2333.385
 70
    32
  0
VERTEX
  8
T29SSILL
 62
6
 10
2307.497
 20
-3865.184
 30
2333.605
 70
    32
  0
VERTEX
  8
T29SSILL
 62
6
 10
2302.912
 20
-3868.572
 30
2333.609
 70
    32
  0
VERTEX
  8
T29SSILL
 62
6
 10
2298.102
 20
-3861.858
 30
2333.614
 70
    32
  0
VERTEX
  8
T29SSILL
 62
6
 10
2303.222
 20
-3858.620
 30
2333.603
 70
    32
  0
VERTEX
  8
T29SSILL
 62
6
 10
2287.577
 20
-3836.953
 30
2333.598
 70
    32
  0
VERTEX
  8
T29SSILL
 62
6
 10
2282.996
 20
-3840.428
 30
2333.608
 70
    32
  0
VERTEX
  8
T29SSILL
 62
6
 10
2278.551
 20
-3833.960
 30
2333.607
 70
    32
  0
VERTEX
  8
T29SSILL
 62
6
 10
2283.407
 20
-3830.736
 30
2333.597
 70
    32
  0
VERTEX
  8
T29SSILL
 62
6
 10
2259.490
 20
-3798.037
 30
2333.595
 70
    32
  0
VERTEX
  8
T29SSILL
 62
6
 10
2265.098
 20
-3793.985
 30
2333.603
 70
    32
  0
VERTEX
  8
T29SSILL
 62
6
 10
2268.305
 20
-3798.490
 30
2333.582
 70
    32
  0
VERTEX
  8
T29SSILL
 62
6
 10
2273.162
 20
-3795.266
 30
2333.588
 70
    32
  0
VERTEX
  8
T29SSILL
 62
6
 10
2278.230
 20
-3801.879
 30
2333.570
 70
    32
  0
VERTEX
  8
T29SSILL
 62
6
 10
2272.739
 20
-3804.695
 30
2333.580
 70
    32
  0
VERTEX
  8
T29SSILL
 62
6
 10
2301.880
 20
-3845.407
 30
2333.590
 70
    32
  0
VERTEX
  8
T29SSILL
 62
6
 10
2308.519
 20
-3846.317
 30
2333.582
 70
    32
  0
VERTEX
  8
T29SSILL
 62
6
 10
2314.719
 20
-3841.796
 30
2333.569
 70
    32
  0
VERTEX
  8
T29SSILL
 62
6
 10
2318.283
 20
-3846.997
 30
2333.570
 70
    32
  0
VERTEX
  8
T29SSILL
 62
6
 10
2337.254
 20
-3858.645
 30
2333.559
 70
    32
  0
VERTEX
  8
T29SSILL
 62
6
 10
2338.780
 20
-3859.275
 30
2333.558
 70
    32
  0
VERTEX
  8
T29SSILL
 62
6
 10
2342.132
 20
-3855.859
 30
2333.550
 70
    32
  0
VERTEX
  8
T29SSILL
 62
6
 10
2347.516
 20
-3859.907
 30
2333.548
 70
    32
  0
VERTEX
  8
T29SSILL
 62
6
 10
2339.323
 20
-3870.504
 30
2333.535
 70
    32
  0
VERTEX
  8
T29SSILL
 62
6
 10
2326.215
 20
-3879.492
 30
2333.525
 70
    32
  0
VERTEX
  8
T29SSILL
 62
6
 10
2335.144
 20
-3891.371
 30
2333.463
 70
    32
  0
VERTEX
  8
T29SSILL
 62
6
 10
2339.707
 20
-3887.545
 30
2333.469
 70
    32
  0
VERTEX
  8
T29SSILL
 62
6
 10
2344.450
 20
-3894.702
 30
2333.433
 70
    32
  0
VERTEX
  8
T29SSILL
 62
6
 10
2339.686
 20
-3898.010
 30
2333.429
 70
    32
  0
VERTEX
  8
T29SSILL
 62
6
 10
2355.063
 20
-3919.602
 30
2333.331
 70
    32
  0
VERTEX
  8
T29SSILL
 62
6
 10
2360.096
 20
-3925.012
 30
2333.315
 70
    32
  0
VERTEX
  8
T29SSILL
 62
6
 10
2362.656
 20
-3922.557
 30
2333.316
 70
    32
  0
VERTEX
  8
T29SSILL
 62
6
 10
2366.937
 20
-3912.706
 30
2333.326
 70
    32
  0
VERTEX
  8
T29SSILL
 62
6
 10
2362.786
 20
-3909.976
 30
2333.340
 70
    32
  0
VERTEX
  8
T29SSILL
 62
6
 10
2360.329
 20
-3907.768
 30
2333.353
 70
    32
  0
VERTEX
  8
T29SSILL
 62
6
 10
2356.299
 20
-3902.916
 30
2333.379
 70
    32
  0
VERTEX
  8
T29SSILL
 62
6
 10
2358.604
 20
-3897.468
 30
2333.396
 70
    32
  0
VERTEX
  8
T29SSILL
 62
6
 10
2365.108
 20
-3899.426
 30
2333.377
 70
    32
  0
VERTEX
  8
T29SSILL
 62
6
 10
2372.767
 20
-3898.132
 30
2333.368
 70
    32
  0
VERTEX
  8
T29SSILL
 62
6
 10
2379.539
 20
-3899.034
 30
2333.352
 70
    32
  0
VERTEX
  8
T29SSILL
 62
6
 10
2387.625
 20
-3901.525
 30
2333.328
 70
    32
  0
VERTEX
  8
T29SSILL
 62
6
 10
2394.281
 20
-3910.521
 30
2333.292
 70
    32
  0
VERTEX
  8
T29SSILL
 62
6
 10
2401.738
 20
-3916.969
 30
2333.271
 70
    32
  0
VERTEX
  8
T29SSILL
 62
6
 10
2407.453
 20
-3918.220
 30
2333.261
 70
    32
  0
VERTEX
  8
T29SSILL
 62
6
 10
2409.031
 20
-3919.808
 30
2333.256
 70
    32
  0
VERTEX
  8
T29SSILL
 62
6
 10
2419.619
 20
-3937.088
 30
2333.212
 70
    32
  0
VERTEX
  8
T29SSILL
 62
6
 10
2419.784
 20
-3940.344
 30
2333.206
 70
    32
  0
VERTEX
  8
T29SSILL
 62
6
 10
2429.512
 20
-3951.902
 30
2333.173
 70
    32
  0
VERTEX
  8
T29SSILL
 62
6
 10
2426.763
 20
-3958.140
 30
2333.166
 70
    32
  0
VERTEX
  8
T29SSILL
 62
6
 10
2428.323
 20
-3965.360
 30
2333.151
 70
    32
  0
VERTEX
  8
T29SSILL
 62
6
 10
2438.434
 20
-3967.241
 30
2333.134
 70
    32
  0
VERTEX
  8
T29SSILL
 62
6
 10
2442.298
 20
-3969.541
 30
2333.125
 70
    32
  0
VERTEX
  8
T29SSILL
 62
6
 10
2441.915
 20
-3978.778
 30
2333.110
 70
    32
  0
VERTEX
  8
T29SSILL
 62
6
 10
2440.152
 20
-3979.652
 30
2333.111
 70
    32
  0
VERTEX
  8
T29SSILL
 62
6
 10
2427.397
 20
-3979.170
 30
2333.129
 70
    32
  0
VERTEX
  8
T29SSILL
 62
6
 10
2426.238
 20
-3983.653
 30
2333.123
 70
    32
  0
VERTEX
  8
T29SSILL
 62
6
 10
2431.335
 20
-3985.517
 30
2333.113
 70
    32
  0
VERTEX
  8
T29SSILL
 62
6
 10
2429.289
 20
-3992.197
 30
2333.104
 70
    32
  0
VERTEX
  8
T29SSILL
 62
6
 10
2423.664
 20
-3990.507
 30
2333.115
 70
    32
  0
VERTEX
  8
T29SSILL
 62
6
 10
2417.892
 20
-4006.236
 30
2333.096
 70
    32
  0
VERTEX
  8
T29SSILL
 62
6
 10
2571.574
 20
-4223.449
 30
2332.732
 70
    32
  0
VERTEX
  8
T29SSILL
 62
6
 10
2828.121
 20
-4041.569
 30
2332.622
 70
    32
  0
VERTEX
  8
T29SSILL
 62
6
 10
2884.755
 20
-4002.648
 30
2332.606
 70
    32
  0
VERTEX
  8
T29SSILL
 62
6
 10
2954.734
 20
-3898.602
 30
2332.577
 70
    32
  0
VERTEX
  8
T29SSILL
 62
6
 10
2926.051
 20
-3878.269
 30
2332.643
 70
    32
  0
VERTEX
  8
T29SSILL
 62
6
 10
2904.559
 20
-3864.799
 30
2332.691
 70
    32
  0
VERTEX
  8
T29SSILL
 62
6
 10
2883.070
 20
-3838.666
 30
2332.754
 70
    32
  0
VERTEX
  8
T29SSILL
 62
6
 10
2865.872
 20
-3830.353
 30
2332.789
 70
    32
  0
VERTEX
  8
T29SSILL
 62
6
 10
2862.377
 20
-3827.180
 30
2332.798
 70
    32
  0
VERTEX
  8
T29SSILL
 62
6
 10
2857.988
 20
-3818.247
 30
2332.813
 70
    32
  0
VERTEX
  8
T29SSILL
 62
6
 10
2852.328
 20
-3797.592
 30
2332.847
 70
    32
  0
VERTEX
  8
T29SSILL
 62
6
 10
2817.508
 20
-3748.538
 30
2332.947
 70
    32
  0
VERTEX
  8
T29SSILL
 62
6
 10
2813.850
 20
-3740.185
 30
2332.960
 70
    32
  0
VERTEX
  8
T29SSILL
 62
6
 10
2730.686
 20
-3620.658
 30
2333.202
 70
    32
  0
VERTEX
  8
T29SSILL
 62
6
 10
2728.598
 20
-3621.111
 30
2333.204
 70
    32
  0
VERTEX
  8
T29SSILL
 62
6
 10
2693.477
 20
-3645.848
 30
2333.230
 70
    32
  0
VERTEX
  8
T29SSILL
 62
6
 10
2688.241
 20
-3639.419
 30
2333.245
 70
    32
  0
VERTEX
  8
T29SSILL
 62
6
 10
2724.929
 20
-3614.341
 30
2333.216
 70
    32
  0
VERTEX
  8
T29SSILL
 62
6
 10
2725.966
 20
-3610.334
 30
2333.219
 70
    32
  0
VERTEX
  8
T29SSILL
 62
6
 10
2634.010
 20
-3489.087
 30
2333.475
 70
    32
  0
VERTEX
  8
T29SSILL
 62
6
 10
2192.073
 20
-2915.563
 30
2334.249
 70
    32
  0
VERTEX
  8
T29SSILL
 62
6
 10
1947.642
 20
-2764.053
 30
2334.659
 70
    32
  0
VERTEX
  8
T29SSILL
 62
6
 10
1941.731
 20
-2762.356
 30
2334.668
 70
    32
  0
VERTEX
  8
T29SSILL
 62
6
 10
1886.743
 20
-2727.229
 30
2334.762
 70
    32
  0
VERTEX
  8
T29SSILL
 62
6
 10
1882.419
 20
-2734.222
 30
2334.766
 70
    32
  0
VERTEX
  8
T29SSILL
 62
6
 10
1869.152
 20
-2727.151
 30
2334.790
 70
    32
  0
VERTEX
  8
T29SSILL
 62
6
 10
1867.200
 20
-2725.500
 30
2334.794
 70
    32
  0
VERTEX
  8
T29SSILL
 62
6
 10
1866.913
 20
-2723.304
 30
2334.797
 70
    32
  0
VERTEX
  8
T29SSILL
 62
6
 10
1870.454
 20
-2717.198
 30
2334.798
 70
    32
  0
VERTEX
  8
T29SSILL
 62
6
 10
1733.925
 20
-2631.040
 30
2335.074
 70
    32
  0
VERTEX
  8
T29SSILL
 62
6
 10
1737.284
 20
-2624.321
 30
2335.060
 70
    32
  0
VERTEX
  8
T29SSILL
 62
6
 10
1776.238
 20
-2648.536
 30
2335.018
 70
    32
  0
VERTEX
  8
T29SSILL
 62
6
 10
1781.357
 20
-2650.241
 30
2335.008
 70
    32
  0
VERTEX
  8
T29SSILL
 62
6
 10
1862.546
 20
-2701.275
 30
2334.827
 70
    32
  0
VERTEX
  8
T29SSILL
 62
6
 10
1905.225
 20
-2670.042
 30
2334.793
 70
    32
  0
VERTEX
  8
T29SSILL
 62
6
 10
1909.230
 20
-2674.573
 30
2334.782
 70
    32
  0
VERTEX
  8
T29SSILL
 62
6
 10
1914.807
 20
-2669.589
 30
2334.779
 70
    32
  0
VERTEX
  8
T29SSILL
 62
6
 10
1957.691
 20
-2724.545
 30
2334.655
 70
    32
  0
VERTEX
  8
T29SSILL
 62
6
 10
1941.343
 20
-2750.575
 30
2334.672
 70
    32
  0
VERTEX
  8
T29SSILL
 62
6
 10
2198.889
 20
-2911.357
 30
2334.240
 70
    32
  0
VERTEX
  8
T29SSILL
 62
6
 10
2736.099
 20
-3612.570
 30
2333.202
 70
    32
  0
VERTEX
  8
T29SSILL
 62
6
 10
2740.588
 20
-3616.310
 30
2333.191
 70
    32
  0
VERTEX
  8
T29SSILL
 62
6
 10
2823.113
 20
-3735.340
 30
2332.952
 70
    32
  0
VERTEX
  8
T29SSILL
 62
6
 10
2829.446
 20
-3740.838
 30
2332.937
 70
    32
  0
VERTEX
  8
T29SSILL
 62
6
 10
2870.558
 20
-3799.964
 30
2332.818
 70
    32
  0
VERTEX
  8
T29SSILL
 62
6
 10
2880.808
 20
-3808.262
 30
2332.796
 70
    32
  0
VERTEX
  8
T29SSILL
 62
6
 10
2882.921
 20
-3819.240
 30
2332.778
 70
    32
  0
VERTEX
  8
T29SSILL
 62
6
 10
2889.161
 20
-3828.259
 30
2332.758
 70
    32
  0
VERTEX
  8
T29SSILL
 62
6
 10
2892.581
 20
-3831.699
 30
2332.748
 70
    32
  0
VERTEX
  8
T29SSILL
 62
6
 10
2908.094
 20
-3821.540
 30
2332.753
 70
    32
  0
VERTEX
  8
T29SSILL
 62
6
 10
2913.757
 20
-3829.532
 30
2332.742
 70
    32
  0
VERTEX
  8
T29SSILL
 62
6
 10
2898.937
 20
-3839.482
 30
2332.730
 70
    32
  0
VERTEX
  8
T29SSILL
 62
6
 10
2900.027
 20
-3843.826
 30
2332.723
 70
    32
  0
VERTEX
  8
T29SSILL
 62
6
 10
2903.181
 20
-3849.037
 30
2332.712
 70
    32
  0
VERTEX
  8
T29SSILL
 62
6
 10
2916.229
 20
-3862.476
 30
2332.677
 70
    32
  0
VERTEX
  8
T29SSILL
 62
6
 10
2959.505
 20
-3893.622
 30
2332.577
 70
    32
  0
VERTEX
  8
T29SSILL
 62
6
 10
3015.139
 20
-3813.021
 30
2332.613
 70
    32
  0
VERTEX
  8
T29SSILL
 62
6
 10
3351.997
 20
-3425.290
 30
2332.471
 70
    32
  0
VERTEX
  8
T29SSILL
 62
6
 10
3952.777
 20
-2728.400
 30
2331.833
 70
    32
  0
VERTEX
  8
T29SSILL
 62
6
 10
3905.476
 20
-2403.013
 30
2331.941
 70
    32
  0
VERTEX
  8
T29SSILL
 62
6
 10
3912.387
 20
-2401.984
 30
2331.932
 70
    32
  0
VERTEX
  8
T29SSILL
 62
6
 10
3924.593
 20
-2482.083
 30
2331.828
 70
    32
  0
VERTEX
  8
T29SSILL
 62
6
 10
3926.414
 20
-2483.413
 30
2331.824
 70
    32
  0
VERTEX
  8
T29SSILL
 62
6
 10
3928.256
 20
-2499.278
 30
2331.804
 70
    32
  0
VERTEX
  8
T29SSILL
 62
6
 10
3962.570
 20
-2494.245
 30
2331.755
 70
    32
  0
VERTEX
  8
T29SSILL
 62
6
 10
3984.547
 20
-2523.232
 30
2331.690
 70
    32
  0
VERTEX
  8
T29SSILL
 62
6
 10
3989.716
 20
-2532.608
 30
2331.672
 70
    32
  0
VERTEX
  8
T29SSILL
 62
6
 10
3990.074
 20
-2536.733
 30
2331.667
 70
    32
  0
VERTEX
  8
T29SSILL
 62
6
 10
3988.735
 20
-2542.342
 30
2331.664
 70
    32
  0
VERTEX
  8
T29SSILL
 62
6
 10
3996.790
 20
-2551.238
 30
2331.676
 70
    32
  0
VERTEX
  8
T29SSILL
 62
6
 10
3942.566
 20
-2594.323
 30
2331.722
 70
    32
  0
VERTEX
  8
T29SSILL
 62
6
 10
3962.908
 20
-2728.395
 30
2331.827
 70
    32
  0
VERTEX
  8
T29SSILL
 62
6
 10
3545.699
 20
-3211.893
 30
2332.424
 70
    32
  0
VERTEX
  8
T29SSILL
 62
6
 10
2966.467
 20
-3896.426
 30
2332.570
 70
    32
  0
VERTEX
  8
T29SSILL
 62
6
 10
2998.111
 20
-3918.915
 30
2332.570
 70
    32
  0
VERTEX
  8
T29SSILL
 62
6
 10
3011.445
 20
-3909.050
 30
2332.563
 70
    32
  0
VERTEX
  8
T29SSILL
 62
6
 10
3003.978
 20
-3899.272
 30
2332.574
 70
    32
  0
VERTEX
  8
T29SSILL
 62
6
 10
3008.816
 20
-3896.094
 30
2332.581
 70
    32
  0
VERTEX
  8
T29SSILL
 62
6
 10
3005.199
 20
-3891.434
 30
2332.588
 70
    32
  0
VERTEX
  8
T29SSILL
 62
6
 10
3010.827
 20
-3887.551
 30
2332.583
 70
    32
  0
SEQEND
  8
T29SSILL
  0
POLYLINE
  8
T29SSILL
 62
6
 66
     1
 70
     9
  0
VERTEX
  8
T29SSILL
 62
6
 10
578.934
 20
-3426.938
 30
2337.000
 70
    32
  0
VERTEX
  8
T29SSILL
 62
6
 10
574.561
 20
-3420.786
 30
2337.000
 70
    32
  0
VERTEX
  8
T29SSILL
 62
6
 10
584.454
 20
-3414.012
 30
2337.000
 70
    32
  0
VERTEX
  8
T29SSILL
 62
6
 10
580.898
 20
-3409.288
 30
2337.000
 70
    32
  0
VERTEX
  8
T29SSILL
 62
6
 10
544.273
 20
-3435.224
 30
2337.000
 70
    32
  0
VERTEX
  8
T29SSILL
 62
6
 10
552.140
 20
-3445.853
 30
2337.000
 70
    32
  0
SEQEND
  8
T29SSILL
  0
ENDSEC
  0
EOF
