999
********************************
999
*   DXF File - Entities Only   *
999
*        3D Data Format        *
999
*     Output from ENVISAGE     *
999
*     20-Dec-2007 09:06:38     *
999
********************************
  0
SECTION 
  2
HEADER
  9
$ACADVER
  1
AC1009
  9
$EXTMIN
 10
-290000.000
 20
-250000.000
 30
-4000.000
  9
$EXTMAX
 10
5000000.000
 20
600000.000
 30
6000.000
  0
ENDSEC
  0
SECTION
  2
ENTITIES
  0
POLYLINE
  8
T03SSILL
 62
4
 66
     1
 70
     9
  0
VERTEX
  8
T03SSILL
 62
4
 10
2222.627
 20
-4771.989
 30
4932.570
 70
    32
  0
VERTEX
  8
T03SSILL
 62
4
 10
2217.432
 20
-4773.180
 30
4932.570
 70
    32
  0
VERTEX
  8
T03SSILL
 62
4
 10
2214.541
 20
-4771.928
 30
4932.570
 70
    32
  0
VERTEX
  8
T03SSILL
 62
4
 10
2214.385
 20
-4769.289
 30
4932.570
 70
    32
  0
VERTEX
  8
T03SSILL
 62
4
 10
2219.740
 20
-4758.518
 30
4932.570
 70
    32
  0
VERTEX
  8
T03SSILL
 62
4
 10
2221.765
 20
-4758.094
 30
4932.570
 70
    32
  0
VERTEX
  8
T03SSILL
 62
4
 10
2222.965
 20
-4762.234
 30
4932.570
 70
    32
  0
SEQEND
  8
T03SSILL
  0
POLYLINE
  8
T03SSILL
 62
4
 66
     1
 70
     9
  0
VERTEX
  8
T03SSILL
 62
4
 10
2309.953
 20
-5034.604
 30
4932.570
 70
    32
  0
VERTEX
  8
T03SSILL
 62
4
 10
2310.410
 20
-5032.234
 30
4932.570
 70
    32
  0
VERTEX
  8
T03SSILL
 62
4
 10
2314.643
 20
-5030.420
 30
4932.570
 70
    32
  0
VERTEX
  8
T03SSILL
 62
4
 10
2320.495
 20
-5035.475
 30
4932.570
 70
    32
  0
VERTEX
  8
T03SSILL
 62
4
 10
2322.730
 20
-5042.085
 30
4932.570
 70
    32
  0
VERTEX
  8
T03SSILL
 62
4
 10
2320.678
 20
-5046.113
 30
4932.570
 70
    32
  0
VERTEX
  8
T03SSILL
 62
4
 10
2317.238
 20
-5047.669
 30
4932.570
 70
    32
  0
VERTEX
  8
T03SSILL
 62
4
 10
2314.970
 20
-5045.366
 30
4932.570
 70
    32
  0
SEQEND
  8
T03SSILL
  0
POLYLINE
  8
T03SSILL
 62
4
 66
     1
 70
     9
  0
VERTEX
  8
T03SSILL
 62
4
 10
2289.153
 20
-5041.831
 30
4932.570
 70
    32
  0
VERTEX
  8
T03SSILL
 62
4
 10
2286.879
 20
-5040.319
 30
4932.570
 70
    32
  0
VERTEX
  8
T03SSILL
 62
4
 10
2287.481
 20
-5030.478
 30
4932.570
 70
    32
  0
VERTEX
  8
T03SSILL
 62
4
 10
2289.880
 20
-5026.980
 30
4932.570
 70
    32
  0
VERTEX
  8
T03SSILL
 62
4
 10
2292.517
 20
-5027.088
 30
4932.570
 70
    32
  0
VERTEX
  8
T03SSILL
 62
4
 10
2294.857
 20
-5031.413
 30
4932.570
 70
    32
  0
VERTEX
  8
T03SSILL
 62
4
 10
2293.317
 20
-5037.467
 30
4932.570
 70
    32
  0
SEQEND
  8
T03SSILL
  0
POLYLINE
  8
T03SSILL
 62
4
 66
     1
 70
     9
  0
VERTEX
  8
T03SSILL
 62
4
 10
-1341.783
 20
1299.899
 30
4932.570
 70
    32
  0
VERTEX
  8
T03SSILL
 62
4
 10
-1338.186
 20
1300.731
 30
4932.570
 70
    32
  0
VERTEX
  8
T03SSILL
 62
4
 10
-1334.621
 20
1296.637
 30
4932.570
 70
    32
  0
VERTEX
  8
T03SSILL
 62
4
 10
-1301.110
 20
1250.128
 30
4932.570
 70
    32
  0
VERTEX
  8
T03SSILL
 62
4
 10
-1300.980
 20
1246.435
 30
4932.570
 70
    32
  0
VERTEX
  8
T03SSILL
 62
4
 10
-1304.142
 20
1245.960
 30
4932.570
 70
    32
  0
VERTEX
  8
T03SSILL
 62
4
 10
-1354.783
 20
1282.599
 30
4932.570
 70
    32
  0
VERTEX
  8
T03SSILL
 62
4
 10
-1355.001
 20
1286.379
 30
4932.570
 70
    32
  0
SEQEND
  8
T03SSILL
  0
POLYLINE
  8
T03SSILL
 62
4
 66
     1
 70
     9
  0
VERTEX
  8
T03SSILL
 62
4
 10
-1290.395
 20
1259.485
 30
4932.570
 70
    32
  0
VERTEX
  8
T03SSILL
 62
4
 10
-1288.688
 20
1256.250
 30
4932.570
 70
    32
  0
VERTEX
  8
T03SSILL
 62
4
 10
-1290.329
 20
1253.592
 30
4932.570
 70
    32
  0
VERTEX
  8
T03SSILL
 62
4
 10
-1294.692
 20
1250.464
 30
4932.570
 70
    32
  0
VERTEX
  8
T03SSILL
 62
4
 10
-1297.181
 20
1252.724
 30
4932.570
 70
    32
  0
VERTEX
  8
T03SSILL
 62
4
 10
-1329.369
 20
1298.983
 30
4932.570
 70
    32
  0
VERTEX
  8
T03SSILL
 62
4
 10
-1328.606
 20
1301.543
 30
4932.570
 70
    32
  0
VERTEX
  8
T03SSILL
 62
4
 10
-1325.353
 20
1301.667
 30
4932.570
 70
    32
  0
SEQEND
  8
T03SSILL
  0
POLYLINE
  8
T03SSILL
 62
4
 66
     1
 70
     9
  0
VERTEX
  8
T03SSILL
 62
4
 10
-1299.404
 20
1348.670
 30
4932.570
 70
    32
  0
VERTEX
  8
T03SSILL
 62
4
 10
-1268.655
 20
1273.981
 30
4932.570
 70
    32
  0
VERTEX
  8
T03SSILL
 62
4
 10
-1261.791
 20
1273.794
 30
4932.570
 70
    32
  0
VERTEX
  8
T03SSILL
 62
4
 10
-1197.283
 20
1325.893
 30
4932.570
 70
    32
  0
SEQEND
  8
T03SSILL
  0
POLYLINE
  8
T03SSILL
 62
4
 66
     1
 70
     9
  0
VERTEX
  8
T03SSILL
 62
4
 10
-1288.238
 20
1239.805
 30
4932.570
 70
    32
  0
VERTEX
  8
T03SSILL
 62
4
 10
-1288.980
 20
1243.140
 30
4932.570
 70
    32
  0
VERTEX
  8
T03SSILL
 62
4
 10
-1284.183
 20
1246.800
 30
4932.570
 70
    32
  0
VERTEX
  8
T03SSILL
 62
4
 10
-1280.913
 20
1245.430
 30
4932.570
 70
    32
  0
VERTEX
  8
T03SSILL
 62
4
 10
-1273.520
 20
1229.503
 30
4932.570
 70
    32
  0
VERTEX
  8
T03SSILL
 62
4
 10
-1264.928
 20
1216.405
 30
4932.570
 70
    32
  0
VERTEX
  8
T03SSILL
 62
4
 10
-1266.907
 20
1212.512
 30
4932.570
 70
    32
  0
VERTEX
  8
T03SSILL
 62
4
 10
-1270.320
 20
1210.890
 30
4932.570
 70
    32
  0
VERTEX
  8
T03SSILL
 62
4
 10
-1273.082
 20
1214.026
 30
4932.570
 70
    32
  0
SEQEND
  8
T03SSILL
  0
POLYLINE
  8
T03SSILL
 62
4
 66
     1
 70
     9
  0
VERTEX
  8
T03SSILL
 62
4
 10
-1258.938
 20
1168.795
 30
4932.570
 70
    32
  0
VERTEX
  8
T03SSILL
 62
4
 10
-1260.198
 20
1171.331
 30
4932.570
 70
    32
  0
VERTEX
  8
T03SSILL
 62
4
 10
-1256.956
 20
1172.423
 30
4932.570
 70
    32
  0
VERTEX
  8
T03SSILL
 62
4
 10
-1247.655
 20
1174.551
 30
4932.570
 70
    32
  0
VERTEX
  8
T03SSILL
 62
4
 10
-1243.675
 20
1172.661
 30
4932.570
 70
    32
  0
VERTEX
  8
T03SSILL
 62
4
 10
-1229.760
 20
1147.747
 30
4932.570
 70
    32
  0
VERTEX
  8
T03SSILL
 62
4
 10
-1230.683
 20
1143.778
 30
4932.570
 70
    32
  0
VERTEX
  8
T03SSILL
 62
4
 10
-1239.521
 20
1139.632
 30
4932.570
 70
    32
  0
VERTEX
  8
T03SSILL
 62
4
 10
-1245.542
 20
1143.171
 30
4932.570
 70
    32
  0
VERTEX
  8
T03SSILL
 62
4
 10
-1247.783
 20
1146.841
 30
4932.570
 70
    32
  0
SEQEND
  8
T03SSILL
  0
POLYLINE
  8
T03SSILL
 62
4
 66
     1
 70
     9
  0
VERTEX
  8
T03SSILL
 62
4
 10
-1216.527
 20
1120.891
 30
4932.570
 70
    32
  0
VERTEX
  8
T03SSILL
 62
4
 10
-1220.454
 20
1118.119
 30
4932.570
 70
    32
  0
VERTEX
  8
T03SSILL
 62
4
 10
-1221.532
 20
1112.302
 30
4932.570
 70
    32
  0
VERTEX
  8
T03SSILL
 62
4
 10
-1227.324
 20
1111.093
 30
4932.570
 70
    32
  0
VERTEX
  8
T03SSILL
 62
4
 10
-1229.626
 20
1112.386
 30
4932.570
 70
    32
  0
VERTEX
  8
T03SSILL
 62
4
 10
-1239.616
 20
1132.418
 30
4932.570
 70
    32
  0
VERTEX
  8
T03SSILL
 62
4
 10
-1238.242
 20
1135.424
 30
4932.570
 70
    32
  0
VERTEX
  8
T03SSILL
 62
4
 10
-1228.270
 20
1140.375
 30
4932.570
 70
    32
  0
VERTEX
  8
T03SSILL
 62
4
 10
-1224.997
 20
1138.828
 30
4932.570
 70
    32
  0
SEQEND
  8
T03SSILL
  0
POLYLINE
  8
T03SSILL
 62
4
 66
     1
 70
     9
  0
VERTEX
  8
T03SSILL
 62
4
 10
-1064.557
 20
944.382
 30
4932.570
 70
    32
  0
VERTEX
  8
T03SSILL
 62
4
 10
-1051.595
 20
949.454
 30
4932.570
 70
    32
  0
VERTEX
  8
T03SSILL
 62
4
 10
-1047.522
 20
947.125
 30
4932.570
 70
    32
  0
VERTEX
  8
T03SSILL
 62
4
 10
-983.839
 20
838.148
 30
4932.570
 70
    32
  0
VERTEX
  8
T03SSILL
 62
4
 10
-986.833
 20
830.637
 30
4932.570
 70
    32
  0
VERTEX
  8
T03SSILL
 62
4
 10
-992.755
 20
825.293
 30
4932.570
 70
    32
  0
VERTEX
  8
T03SSILL
 62
4
 10
-999.402
 20
821.875
 30
4932.570
 70
    32
  0
SEQEND
  8
T03SSILL
  0
POLYLINE
  8
T03SSILL
 62
4
 66
     1
 70
     9
  0
VERTEX
  8
T03SSILL
 62
4
 10
-937.025
 20
547.683
 30
4932.570
 70
    32
  0
VERTEX
  8
T03SSILL
 62
4
 10
-936.015
 20
551.741
 30
4932.570
 70
    32
  0
VERTEX
  8
T03SSILL
 62
4
 10
-917.111
 20
560.311
 30
4932.570
 70
    32
  0
VERTEX
  8
T03SSILL
 62
4
 10
-912.628
 20
560.625
 30
4932.570
 70
    32
  0
VERTEX
  8
T03SSILL
 62
4
 10
-907.553
 20
555.140
 30
4932.570
 70
    32
  0
VERTEX
  8
T03SSILL
 62
4
 10
-898.588
 20
540.199
 30
4932.570
 70
    32
  0
VERTEX
  8
T03SSILL
 62
4
 10
-897.562
 20
535.020
 30
4932.570
 70
    32
  0
VERTEX
  8
T03SSILL
 62
4
 10
-898.829
 20
530.344
 30
4932.570
 70
    32
  0
VERTEX
  8
T03SSILL
 62
4
 10
-919.304
 20
520.701
 30
4932.570
 70
    32
  0
VERTEX
  8
T03SSILL
 62
4
 10
-924.678
 20
521.432
 30
4932.570
 70
    32
  0
SEQEND
  8
T03SSILL
  0
POLYLINE
  8
T03SSILL
 62
4
 66
     1
 70
     9
  0
VERTEX
  8
T03SSILL
 62
4
 10
-555.115
 20
612.941
 30
4932.570
 70
    32
  0
VERTEX
  8
T03SSILL
 62
4
 10
-568.504
 20
611.579
 30
4932.570
 70
    32
  0
VERTEX
  8
T03SSILL
 62
4
 10
-576.897
 20
609.168
 30
4932.570
 70
    32
  0
VERTEX
  8
T03SSILL
 62
4
 10
-572.915
 20
600.045
 30
4932.570
 70
    32
  0
VERTEX
  8
T03SSILL
 62
4
 10
-566.208
 20
601.517
 30
4932.570
 70
    32
  0
VERTEX
  8
T03SSILL
 62
4
 10
-562.274
 20
605.409
 30
4932.570
 70
    32
  0
SEQEND
  8
T03SSILL
  0
POLYLINE
  8
T03SSILL
 62
4
 66
     1
 70
     9
  0
VERTEX
  8
T03SSILL
 62
4
 10
-901.661
 20
475.071
 30
4932.570
 70
    32
  0
VERTEX
  8
T03SSILL
 62
4
 10
-899.478
 20
479.432
 30
4932.570
 70
    32
  0
VERTEX
  8
T03SSILL
 62
4
 10
-876.419
 20
491.274
 30
4932.570
 70
    32
  0
VERTEX
  8
T03SSILL
 62
4
 10
-870.917
 20
488.985
 30
4932.570
 70
    32
  0
VERTEX
  8
T03SSILL
 62
4
 10
-860.992
 20
467.013
 30
4932.570
 70
    32
  0
VERTEX
  8
T03SSILL
 62
4
 10
-862.376
 20
463.078
 30
4932.570
 70
    32
  0
VERTEX
  8
T03SSILL
 62
4
 10
-885.690
 20
451.768
 30
4932.570
 70
    32
  0
VERTEX
  8
T03SSILL
 62
4
 10
-889.983
 20
452.719
 30
4932.570
 70
    32
  0
VERTEX
  8
T03SSILL
 62
4
 10
-891.786
 20
455.387
 30
4932.570
 70
    32
  0
SEQEND
  8
T03SSILL
  0
POLYLINE
  8
T03SSILL
 62
4
 66
     1
 70
     9
  0
VERTEX
  8
T03SSILL
 62
4
 10
-875.752
 20
430.588
 30
4932.570
 70
    32
  0
VERTEX
  8
T03SSILL
 62
4
 10
-877.705
 20
429.477
 30
4932.570
 70
    32
  0
VERTEX
  8
T03SSILL
 62
4
 10
-879.799
 20
430.479
 30
4932.570
 70
    32
  0
VERTEX
  8
T03SSILL
 62
4
 10
-886.269
 20
443.336
 30
4932.570
 70
    32
  0
VERTEX
  8
T03SSILL
 62
4
 10
-884.440
 20
447.615
 30
4932.570
 70
    32
  0
VERTEX
  8
T03SSILL
 62
4
 10
-856.339
 20
461.220
 30
4932.570
 70
    32
  0
VERTEX
  8
T03SSILL
 62
4
 10
-825.916
 20
461.069
 30
4932.570
 70
    32
  0
VERTEX
  8
T03SSILL
 62
4
 10
-825.353
 20
457.894
 30
4932.570
 70
    32
  0
SEQEND
  8
T03SSILL
  0
POLYLINE
  8
T03SSILL
 62
4
 66
     1
 70
     9
  0
VERTEX
  8
T03SSILL
 62
4
 10
-873.677
 20
417.803
 30
4932.570
 70
    32
  0
VERTEX
  8
T03SSILL
 62
4
 10
-868.356
 20
425.805
 30
4932.570
 70
    32
  0
VERTEX
  8
T03SSILL
 62
4
 10
-861.327
 20
430.789
 30
4932.570
 70
    32
  0
VERTEX
  8
T03SSILL
 62
4
 10
-834.982
 20
444.599
 30
4932.570
 70
    32
  0
VERTEX
  8
T03SSILL
 62
4
 10
-833.779
 20
442.908
 30
4932.570
 70
    32
  0
VERTEX
  8
T03SSILL
 62
4
 10
-855.429
 20
415.215
 30
4932.570
 70
    32
  0
VERTEX
  8
T03SSILL
 62
4
 10
-866.868
 20
409.424
 30
4932.570
 70
    32
  0
VERTEX
  8
T03SSILL
 62
4
 10
-868.977
 20
409.547
 30
4932.570
 70
    32
  0
SEQEND
  8
T03SSILL
  0
POLYLINE
  8
T03SSILL
 62
4
 66
     1
 70
     9
  0
VERTEX
  8
T03SSILL
 62
4
 10
-865.171
 20
400.427
 30
4932.570
 70
    32
  0
VERTEX
  8
T03SSILL
 62
4
 10
-864.638
 20
406.046
 30
4932.570
 70
    32
  0
VERTEX
  8
T03SSILL
 62
4
 10
-854.618
 20
411.068
 30
4932.570
 70
    32
  0
VERTEX
  8
T03SSILL
 62
4
 10
-853.317
 20
409.992
 30
4932.570
 70
    32
  0
VERTEX
  8
T03SSILL
 62
4
 10
-828.228
 20
358.486
 30
4932.570
 70
    32
  0
VERTEX
  8
T03SSILL
 62
4
 10
-829.224
 20
356.744
 30
4932.570
 70
    32
  0
VERTEX
  8
T03SSILL
 62
4
 10
-838.366
 20
351.619
 30
4932.570
 70
    32
  0
VERTEX
  8
T03SSILL
 62
4
 10
-842.124
 20
353.000
 30
4932.570
 70
    32
  0
VERTEX
  8
T03SSILL
 62
4
 10
-844.670
 20
358.582
 30
4932.570
 70
    32
  0
SEQEND
  8
T03SSILL
  0
POLYLINE
  8
T03SSILL
 62
4
 66
     1
 70
     9
  0
VERTEX
  8
T03SSILL
 62
4
 10
-793.321
 20
278.504
 30
4932.570
 70
    32
  0
VERTEX
  8
T03SSILL
 62
4
 10
-794.089
 20
274.559
 30
4932.570
 70
    32
  0
VERTEX
  8
T03SSILL
 62
4
 10
-800.909
 20
271.594
 30
4932.570
 70
    32
  0
VERTEX
  8
T03SSILL
 62
4
 10
-803.182
 20
272.423
 30
4932.570
 70
    32
  0
VERTEX
  8
T03SSILL
 62
4
 10
-819.663
 20
307.430
 30
4932.570
 70
    32
  0
VERTEX
  8
T03SSILL
 62
4
 10
-818.313
 20
309.255
 30
4932.570
 70
    32
  0
VERTEX
  8
T03SSILL
 62
4
 10
-813.442
 20
311.372
 30
4932.570
 70
    32
  0
VERTEX
  8
T03SSILL
 62
4
 10
-810.835
 20
309.483
 30
4932.570
 70
    32
  0
SEQEND
  8
T03SSILL
  0
POLYLINE
  8
T03SSILL
 62
4
 66
     1
 70
     9
  0
VERTEX
  8
T03SSILL
 62
4
 10
-401.924
 20
267.636
 30
4932.570
 70
    32
  0
VERTEX
  8
T03SSILL
 62
4
 10
-389.530
 20
256.703
 30
4932.570
 70
    32
  0
VERTEX
  8
T03SSILL
 62
4
 10
-385.839
 20
251.278
 30
4932.570
 70
    32
  0
VERTEX
  8
T03SSILL
 62
4
 10
-385.860
 20
244.684
 30
4932.570
 70
    32
  0
VERTEX
  8
T03SSILL
 62
4
 10
-414.558
 20
253.424
 30
4932.570
 70
    32
  0
VERTEX
  8
T03SSILL
 62
4
 10
-418.274
 20
257.355
 30
4932.570
 70
    32
  0
VERTEX
  8
T03SSILL
 62
4
 10
-416.117
 20
260.221
 30
4932.570
 70
    32
  0
SEQEND
  8
T03SSILL
  0
POLYLINE
  8
T03SSILL
 62
4
 66
     1
 70
     9
  0
VERTEX
  8
T03SSILL
 62
4
 10
-377.836
 20
1.322
 30
4932.570
 70
    32
  0
VERTEX
  8
T03SSILL
 62
4
 10
-396.106
 20
23.872
 30
4932.570
 70
    32
  0
VERTEX
  8
T03SSILL
 62
4
 10
-410.367
 20
38.880
 30
4932.570
 70
    32
  0
VERTEX
  8
T03SSILL
 62
4
 10
-430.615
 20
64.101
 30
4932.570
 70
    32
  0
VERTEX
  8
T03SSILL
 62
4
 10
-441.246
 20
75.269
 30
4932.570
 70
    32
  0
VERTEX
  8
T03SSILL
 62
4
 10
-447.821
 20
71.156
 30
4932.570
 70
    32
  0
VERTEX
  8
T03SSILL
 62
4
 10
-446.059
 20
66.027
 30
4932.570
 70
    32
  0
VERTEX
  8
T03SSILL
 62
4
 10
-452.042
 20
60.498
 30
4932.570
 70
    32
  0
VERTEX
  8
T03SSILL
 62
4
 10
-461.014
 20
55.019
 30
4932.570
 70
    32
  0
VERTEX
  8
T03SSILL
 62
4
 10
-443.607
 20
22.898
 30
4932.570
 70
    32
  0
VERTEX
  8
T03SSILL
 62
4
 10
-437.595
 20
8.905
 30
4932.570
 70
    32
  0
VERTEX
  8
T03SSILL
 62
4
 10
-423.052
 20
-15.693
 30
4932.570
 70
    32
  0
VERTEX
  8
T03SSILL
 62
4
 10
-417.490
 20
-19.655
 30
4932.570
 70
    32
  0
SEQEND
  8
T03SSILL
  0
POLYLINE
  8
T03SSILL
 62
4
 66
     1
 70
     9
  0
VERTEX
  8
T03SSILL
 62
4
 10
-195.669
 20
-120.559
 30
4932.570
 70
    32
  0
VERTEX
  8
T03SSILL
 62
4
 10
-176.341
 20
-130.865
 30
4932.570
 70
    32
  0
VERTEX
  8
T03SSILL
 62
4
 10
-185.465
 20
-113.381
 30
4932.570
 70
    32
  0
VERTEX
  8
T03SSILL
 62
4
 10
-189.608
 20
-112.908
 30
4932.570
 70
    32
  0
SEQEND
  8
T03SSILL
  0
POLYLINE
  8
T03SSILL
 62
4
 66
     1
 70
     9
  0
VERTEX
  8
T03SSILL
 62
4
 10
-311.187
 20
-184.858
 30
4932.570
 70
    32
  0
VERTEX
  8
T03SSILL
 62
4
 10
-302.277
 20
-199.529
 30
4932.570
 70
    32
  0
VERTEX
  8
T03SSILL
 62
4
 10
-303.194
 20
-210.016
 30
4932.570
 70
    32
  0
SEQEND
  8
T03SSILL
  0
POLYLINE
  8
T03SSILL
 62
4
 66
     1
 70
     9
  0
VERTEX
  8
T03SSILL
 62
4
 10
-285.372
 20
-325.624
 30
4932.570
 70
    32
  0
VERTEX
  8
T03SSILL
 62
4
 10
-305.179
 20
-332.226
 30
4932.570
 70
    32
  0
VERTEX
  8
T03SSILL
 62
4
 10
-309.481
 20
-319.871
 30
4932.570
 70
    32
  0
VERTEX
  8
T03SSILL
 62
4
 10
-316.498
 20
-321.725
 30
4932.570
 70
    32
  0
VERTEX
  8
T03SSILL
 62
4
 10
-330.674
 20
-288.374
 30
4932.570
 70
    32
  0
VERTEX
  8
T03SSILL
 62
4
 10
-306.062
 20
-279.068
 30
4932.570
 70
    32
  0
VERTEX
  8
T03SSILL
 62
4
 10
-296.626
 20
-300.158
 30
4932.570
 70
    32
  0
SEQEND
  8
T03SSILL
  0
POLYLINE
  8
T03SSILL
 62
4
 66
     1
 70
     9
  0
VERTEX
  8
T03SSILL
 62
4
 10
-271.739
 20
-589.704
 30
4932.570
 70
    32
  0
VERTEX
  8
T03SSILL
 62
4
 10
-275.632
 20
-594.861
 30
4932.570
 70
    32
  0
VERTEX
  8
T03SSILL
 62
4
 10
-298.258
 20
-601.236
 30
4932.570
 70
    32
  0
VERTEX
  8
T03SSILL
 62
4
 10
-296.327
 20
-607.460
 30
4932.570
 70
    32
  0
VERTEX
  8
T03SSILL
 62
4
 10
-270.092
 20
-601.037
 30
4932.570
 70
    32
  0
VERTEX
  8
T03SSILL
 62
4
 10
-266.840
 20
-607.244
 30
4932.570
 70
    32
  0
VERTEX
  8
T03SSILL
 62
4
 10
-266.695
 20
-611.556
 30
4932.570
 70
    32
  0
VERTEX
  8
T03SSILL
 62
4
 10
-271.238
 20
-614.169
 30
4932.570
 70
    32
  0
VERTEX
  8
T03SSILL
 62
4
 10
-345.155
 20
-636.014
 30
4932.570
 70
    32
  0
VERTEX
  8
T03SSILL
 62
4
 10
-349.288
 20
-636.333
 30
4932.570
 70
    32
  0
VERTEX
  8
T03SSILL
 62
4
 10
-352.942
 20
-632.948
 30
4932.570
 70
    32
  0
VERTEX
  8
T03SSILL
 62
4
 10
-406.704
 20
-528.733
 30
4932.570
 70
    32
  0
VERTEX
  8
T03SSILL
 62
4
 10
-415.381
 20
-491.877
 30
4932.570
 70
    32
  0
VERTEX
  8
T03SSILL
 62
4
 10
-410.647
 20
-430.811
 30
4932.570
 70
    32
  0
VERTEX
  8
T03SSILL
 62
4
 10
-431.252
 20
-377.299
 30
4932.570
 70
    32
  0
VERTEX
  8
T03SSILL
 62
4
 10
-429.270
 20
-374.104
 30
4932.570
 70
    32
  0
VERTEX
  8
T03SSILL
 62
4
 10
-381.428
 20
-370.739
 30
4932.570
 70
    32
  0
VERTEX
  8
T03SSILL
 62
4
 10
-373.280
 20
-374.416
 30
4932.570
 70
    32
  0
VERTEX
  8
T03SSILL
 62
4
 10
-363.066
 20
-381.234
 30
4932.570
 70
    32
  0
VERTEX
  8
T03SSILL
 62
4
 10
-304.427
 20
-527.902
 30
4932.570
 70
    32
  0
VERTEX
  8
T03SSILL
 62
4
 10
-292.953
 20
-523.524
 30
4932.570
 70
    32
  0
VERTEX
  8
T03SSILL
 62
4
 10
-290.852
 20
-529.306
 30
4932.570
 70
    32
  0
VERTEX
  8
T03SSILL
 62
4
 10
-289.621
 20
-529.202
 30
4932.570
 70
    32
  0
SEQEND
  8
T03SSILL
  0
POLYLINE
  8
T03SSILL
 62
4
 66
     1
 70
     9
  0
VERTEX
  8
T03SSILL
 62
4
 10
-174.889
 20
-452.061
 30
4932.570
 70
    32
  0
VERTEX
  8
T03SSILL
 62
4
 10
-180.557
 20
-456.097
 30
4932.570
 70
    32
  0
VERTEX
  8
T03SSILL
 62
4
 10
-183.484
 20
-461.066
 30
4932.570
 70
    32
  0
VERTEX
  8
T03SSILL
 62
4
 10
-182.619
 20
-466.512
 30
4932.570
 70
    32
  0
VERTEX
  8
T03SSILL
 62
4
 10
-178.509
 20
-471.123
 30
4932.570
 70
    32
  0
VERTEX
  8
T03SSILL
 62
4
 10
-174.107
 20
-471.152
 30
4932.570
 70
    32
  0
VERTEX
  8
T03SSILL
 62
4
 10
-172.140
 20
-466.813
 30
4932.570
 70
    32
  0
VERTEX
  8
T03SSILL
 62
4
 10
-172.946
 20
-459.165
 30
4932.570
 70
    32
  0
SEQEND
  8
T03SSILL
  0
POLYLINE
  8
T03SSILL
 62
4
 66
     1
 70
     9
  0
VERTEX
  8
T03SSILL
 62
4
 10
-166.489
 20
-613.833
 30
4932.570
 70
    32
  0
VERTEX
  8
T03SSILL
 62
4
 10
-222.964
 20
-629.988
 30
4932.570
 70
    32
  0
VERTEX
  8
T03SSILL
 62
4
 10
-234.491
 20
-590.617
 30
4932.570
 70
    32
  0
VERTEX
  8
T03SSILL
 62
4
 10
-189.846
 20
-578.492
 30
4932.570
 70
    32
  0
VERTEX
  8
T03SSILL
 62
4
 10
-179.881
 20
-599.662
 30
4932.570
 70
    32
  0
VERTEX
  8
T03SSILL
 62
4
 10
-174.803
 20
-597.570
 30
4932.570
 70
    32
  0
SEQEND
  8
T03SSILL
  0
POLYLINE
  8
T03SSILL
 62
4
 66
     1
 70
     9
  0
VERTEX
  8
T03SSILL
 62
4
 10
-284.253
 20
-648.233
 30
4932.570
 70
    32
  0
VERTEX
  8
T03SSILL
 62
4
 10
-273.905
 20
-645.278
 30
4932.570
 70
    32
  0
VERTEX
  8
T03SSILL
 62
4
 10
-273.770
 20
-642.195
 30
4932.570
 70
    32
  0
VERTEX
  8
T03SSILL
 62
4
 10
-278.378
 20
-626.676
 30
4932.570
 70
    32
  0
VERTEX
  8
T03SSILL
 62
4
 10
-281.045
 20
-624.686
 30
4932.570
 70
    32
  0
VERTEX
  8
T03SSILL
 62
4
 10
-294.815
 20
-628.479
 30
4932.570
 70
    32
  0
SEQEND
  8
T03SSILL
  0
POLYLINE
  8
T03SSILL
 62
4
 66
     1
 70
     9
  0
VERTEX
  8
T03SSILL
 62
4
 10
-259.883
 20
-620.708
 30
4932.570
 70
    32
  0
VERTEX
  8
T03SSILL
 62
4
 10
-262.982
 20
-619.341
 30
4932.570
 70
    32
  0
VERTEX
  8
T03SSILL
 62
4
 10
-271.227
 20
-621.563
 30
4932.570
 70
    32
  0
VERTEX
  8
T03SSILL
 62
4
 10
-272.062
 20
-625.007
 30
4932.570
 70
    32
  0
VERTEX
  8
T03SSILL
 62
4
 10
-267.180
 20
-641.316
 30
4932.570
 70
    32
  0
VERTEX
  8
T03SSILL
 62
4
 10
-265.227
 20
-642.522
 30
4932.570
 70
    32
  0
VERTEX
  8
T03SSILL
 62
4
 10
-255.846
 20
-639.668
 30
4932.570
 70
    32
  0
VERTEX
  8
T03SSILL
 62
4
 10
-254.568
 20
-636.482
 30
4932.570
 70
    32
  0
SEQEND
  8
T03SSILL
  0
POLYLINE
  8
T03SSILL
 62
4
 66
     1
 70
     9
  0
VERTEX
  8
T03SSILL
 62
4
 10
-9.700
 20
-561.661
 30
4932.570
 70
    32
  0
VERTEX
  8
T03SSILL
 62
4
 10
-2.598
 20
-559.542
 30
4932.570
 70
    32
  0
VERTEX
  8
T03SSILL
 62
4
 10
7.401
 20
-576.662
 30
4932.570
 70
    32
  0
VERTEX
  8
T03SSILL
 62
4
 10
10.419
 20
-585.161
 30
4932.570
 70
    32
  0
VERTEX
  8
T03SSILL
 62
4
 10
21.941
 20
-604.286
 30
4932.570
 70
    32
  0
VERTEX
  8
T03SSILL
 62
4
 10
-3.987
 20
-620.564
 30
4932.570
 70
    32
  0
VERTEX
  8
T03SSILL
 62
4
 10
-8.750
 20
-619.835
 30
4932.570
 70
    32
  0
VERTEX
  8
T03SSILL
 62
4
 10
-9.791
 20
-614.391
 30
4932.570
 70
    32
  0
VERTEX
  8
T03SSILL
 62
4
 10
-4.758
 20
-582.458
 30
4932.570
 70
    32
  0
SEQEND
  8
T03SSILL
  0
POLYLINE
  8
T03SSILL
 62
4
 66
     1
 70
     9
  0
VERTEX
  8
T03SSILL
 62
4
 10
101.932
 20
-741.339
 30
4932.570
 70
    32
  0
VERTEX
  8
T03SSILL
 62
4
 10
104.539
 20
-738.839
 30
4932.570
 70
    32
  0
VERTEX
  8
T03SSILL
 62
4
 10
105.350
 20
-733.635
 30
4932.570
 70
    32
  0
VERTEX
  8
T03SSILL
 62
4
 10
98.670
 20
-721.136
 30
4932.570
 70
    32
  0
VERTEX
  8
T03SSILL
 62
4
 10
93.339
 20
-724.023
 30
4932.570
 70
    32
  0
SEQEND
  8
T03SSILL
  0
POLYLINE
  8
T03SSILL
 62
4
 66
     1
 70
     9
  0
VERTEX
  8
T03SSILL
 62
4
 10
181.102
 20
-803.403
 30
4932.570
 70
    32
  0
VERTEX
  8
T03SSILL
 62
4
 10
185.334
 20
-810.565
 30
4932.570
 70
    32
  0
VERTEX
  8
T03SSILL
 62
4
 10
179.999
 20
-813.188
 30
4932.570
 70
    32
  0
VERTEX
  8
T03SSILL
 62
4
 10
182.972
 20
-818.255
 30
4932.570
 70
    32
  0
VERTEX
  8
T03SSILL
 62
4
 10
154.911
 20
-833.064
 30
4932.570
 70
    32
  0
VERTEX
  8
T03SSILL
 62
4
 10
150.577
 20
-824.847
 30
4932.570
 70
    32
  0
VERTEX
  8
T03SSILL
 62
4
 10
168.551
 20
-819.503
 30
4932.570
 70
    32
  0
SEQEND
  8
T03SSILL
  0
POLYLINE
  8
T03SSILL
 62
4
 66
     1
 70
     9
  0
VERTEX
  8
T03SSILL
 62
4
 10
797.314
 20
-462.932
 30
4932.570
 70
    32
  0
VERTEX
  8
T03SSILL
 62
4
 10
799.441
 20
-465.212
 30
4932.570
 70
    32
  0
VERTEX
  8
T03SSILL
 62
4
 10
796.650
 20
-471.130
 30
4932.570
 70
    32
  0
VERTEX
  8
T03SSILL
 62
4
 10
791.114
 20
-474.330
 30
4932.570
 70
    32
  0
VERTEX
  8
T03SSILL
 62
4
 10
786.706
 20
-473.999
 30
4932.570
 70
    32
  0
VERTEX
  8
T03SSILL
 62
4
 10
782.718
 20
-469.349
 30
4932.570
 70
    32
  0
SEQEND
  8
T03SSILL
  0
POLYLINE
  8
T03SSILL
 62
4
 66
     1
 70
     9
  0
VERTEX
  8
T03SSILL
 62
4
 10
722.741
 20
-422.500
 30
4932.570
 70
    32
  0
VERTEX
  8
T03SSILL
 62
4
 10
735.860
 20
-438.121
 30
4932.570
 70
    32
  0
VERTEX
  8
T03SSILL
 62
4
 10
692.072
 20
-457.635
 30
4932.570
 70
    32
  0
VERTEX
  8
T03SSILL
 62
4
 10
678.282
 20
-431.179
 30
4932.570
 70
    32
  0
SEQEND
  8
T03SSILL
  0
POLYLINE
  8
T03SSILL
 62
4
 66
     1
 70
     9
  0
VERTEX
  8
T03SSILL
 62
4
 10
1138.859
 20
-1156.611
 30
4932.570
 70
    32
  0
VERTEX
  8
T03SSILL
 62
4
 10
1143.090
 20
-1156.855
 30
4932.570
 70
    32
  0
VERTEX
  8
T03SSILL
 62
4
 10
1149.187
 20
-1160.349
 30
4932.570
 70
    32
  0
VERTEX
  8
T03SSILL
 62
4
 10
1164.337
 20
-1176.665
 30
4932.570
 70
    32
  0
VERTEX
  8
T03SSILL
 62
4
 10
1177.894
 20
-1191.755
 30
4932.570
 70
    32
  0
VERTEX
  8
T03SSILL
 62
4
 10
1175.450
 20
-1196.526
 30
4932.570
 70
    32
  0
VERTEX
  8
T03SSILL
 62
4
 10
1102.334
 20
-1183.668
 30
4932.570
 70
    32
  0
VERTEX
  8
T03SSILL
 62
4
 10
1102.146
 20
-1181.378
 30
4932.570
 70
    32
  0
SEQEND
  8
T03SSILL
  0
POLYLINE
  8
T03SSILL
 62
4
 66
     1
 70
     9
  0
VERTEX
  8
T03SSILL
 62
4
 10
1150.674
 20
-1140.074
 30
4932.570
 70
    32
  0
VERTEX
  8
T03SSILL
 62
4
 10
1150.731
 20
-1133.905
 30
4932.570
 70
    32
  0
VERTEX
  8
T03SSILL
 62
4
 10
1131.292
 20
-1123.162
 30
4932.570
 70
    32
  0
VERTEX
  8
T03SSILL
 62
4
 10
1123.103
 20
-1124.437
 30
4932.570
 70
    32
  0
VERTEX
  8
T03SSILL
 62
4
 10
1118.800
 20
-1127.630
 30
4932.570
 70
    32
  0
VERTEX
  8
T03SSILL
 62
4
 10
1116.019
 20
-1135.487
 30
4932.570
 70
    32
  0
VERTEX
  8
T03SSILL
 62
4
 10
1118.295
 20
-1150.192
 30
4932.570
 70
    32
  0
VERTEX
  8
T03SSILL
 62
4
 10
1121.677
 20
-1157.048
 30
4932.570
 70
    32
  0
VERTEX
  8
T03SSILL
 62
4
 10
1124.769
 20
-1158.531
 30
4932.570
 70
    32
  0
SEQEND
  8
T03SSILL
  0
POLYLINE
  8
T03SSILL
 62
4
 66
     1
 70
     9
  0
VERTEX
  8
T03SSILL
 62
4
 10
1014.781
 20
-959.479
 30
4932.570
 70
    32
  0
VERTEX
  8
T03SSILL
 62
4
 10
1017.407
 20
-955.942
 30
4932.570
 70
    32
  0
VERTEX
  8
T03SSILL
 62
4
 10
1024.442
 20
-952.911
 30
4932.570
 70
    32
  0
VERTEX
  8
T03SSILL
 62
4
 10
1027.445
 20
-954.306
 30
4932.570
 70
    32
  0
VERTEX
  8
T03SSILL
 62
4
 10
1030.919
 20
-961.955
 30
4932.570
 70
    32
  0
VERTEX
  8
T03SSILL
 62
4
 10
1027.858
 20
-966.729
 30
4932.570
 70
    32
  0
VERTEX
  8
T03SSILL
 62
4
 10
1022.065
 20
-971.340
 30
4932.570
 70
    32
  0
VERTEX
  8
T03SSILL
 62
4
 10
1018.723
 20
-972.678
 30
4932.570
 70
    32
  0
VERTEX
  8
T03SSILL
 62
4
 10
1017.473
 20
-969.424
 30
4932.570
 70
    32
  0
SEQEND
  8
T03SSILL
  0
POLYLINE
  8
T03SSILL
 62
4
 66
     1
 70
     9
  0
VERTEX
  8
T03SSILL
 62
4
 10
362.040
 20
-846.909
 30
4932.570
 70
    32
  0
VERTEX
  8
T03SSILL
 62
4
 10
358.768
 20
-844.546
 30
4932.570
 70
    32
  0
VERTEX
  8
T03SSILL
 62
4
 10
359.190
 20
-840.843
 30
4932.570
 70
    32
  0
VERTEX
  8
T03SSILL
 62
4
 10
384.958
 20
-830.494
 30
4932.570
 70
    32
  0
VERTEX
  8
T03SSILL
 62
4
 10
392.444
 20
-829.576
 30
4932.570
 70
    32
  0
VERTEX
  8
T03SSILL
 62
4
 10
415.129
 20
-855.107
 30
4932.570
 70
    32
  0
VERTEX
  8
T03SSILL
 62
4
 10
416.519
 20
-886.736
 30
4932.570
 70
    32
  0
SEQEND
  8
T03SSILL
  0
POLYLINE
  8
T03SSILL
 62
4
 66
     1
 70
     9
  0
VERTEX
  8
T03SSILL
 62
4
 10
447.600
 20
-917.248
 30
4932.570
 70
    32
  0
VERTEX
  8
T03SSILL
 62
4
 10
428.131
 20
-954.091
 30
4932.570
 70
    32
  0
VERTEX
  8
T03SSILL
 62
4
 10
422.896
 20
-929.090
 30
4932.570
 70
    32
  0
VERTEX
  8
T03SSILL
 62
4
 10
422.844
 20
-900.539
 30
4932.570
 70
    32
  0
VERTEX
  8
T03SSILL
 62
4
 10
423.810
 20
-899.830
 30
4932.570
 70
    32
  0
SEQEND
  8
T03SSILL
  0
POLYLINE
  8
T03SSILL
 62
4
 66
     1
 70
     9
  0
VERTEX
  8
T03SSILL
 62
4
 10
48.027
 20
-875.248
 30
4932.570
 70
    32
  0
VERTEX
  8
T03SSILL
 62
4
 10
55.560
 20
-901.647
 30
4932.570
 70
    32
  0
VERTEX
  8
T03SSILL
 62
4
 10
61.984
 20
-899.853
 30
4932.570
 70
    32
  0
VERTEX
  8
T03SSILL
 62
4
 10
68.882
 20
-922.730
 30
4932.570
 70
    32
  0
VERTEX
  8
T03SSILL
 62
4
 10
74.954
 20
-921.114
 30
4932.570
 70
    32
  0
VERTEX
  8
T03SSILL
 62
4
 10
79.686
 20
-933.604
 30
4932.570
 70
    32
  0
VERTEX
  8
T03SSILL
 62
4
 10
83.052
 20
-937.112
 30
4932.570
 70
    32
  0
VERTEX
  8
T03SSILL
 62
4
 10
173.175
 20
-914.020
 30
4932.570
 70
    32
  0
VERTEX
  8
T03SSILL
 62
4
 10
176.415
 20
-909.951
 30
4932.570
 70
    32
  0
VERTEX
  8
T03SSILL
 62
4
 10
158.004
 20
-875.586
 30
4932.570
 70
    32
  0
SEQEND
  8
T03SSILL
  0
POLYLINE
  8
T03SSILL
 62
4
 66
     1
 70
     9
  0
VERTEX
  8
T03SSILL
 62
4
 10
207.183
 20
-912.707
 30
4932.570
 70
    32
  0
VERTEX
  8
T03SSILL
 62
4
 10
87.223
 20
-942.908
 30
4932.570
 70
    32
  0
VERTEX
  8
T03SSILL
 62
4
 10
83.729
 20
-949.270
 30
4932.570
 70
    32
  0
VERTEX
  8
T03SSILL
 62
4
 10
89.455
 20
-966.689
 30
4932.570
 70
    32
  0
VERTEX
  8
T03SSILL
 62
4
 10
83.208
 20
-968.659
 30
4932.570
 70
    32
  0
VERTEX
  8
T03SSILL
 62
4
 10
120.902
 20
-1089.287
 30
4932.570
 70
    32
  0
VERTEX
  8
T03SSILL
 62
4
 10
126.799
 20
-1087.760
 30
4932.570
 70
    32
  0
VERTEX
  8
T03SSILL
 62
4
 10
128.149
 20
-1093.569
 30
4932.570
 70
    32
  0
VERTEX
  8
T03SSILL
 62
4
 10
134.852
 20
-1094.594
 30
4932.570
 70
    32
  0
VERTEX
  8
T03SSILL
 62
4
 10
212.391
 20
-1075.265
 30
4932.570
 70
    32
  0
VERTEX
  8
T03SSILL
 62
4
 10
218.372
 20
-1072.944
 30
4932.570
 70
    32
  0
VERTEX
  8
T03SSILL
 62
4
 10
223.543
 20
-1067.191
 30
4932.570
 70
    32
  0
VERTEX
  8
T03SSILL
 62
4
 10
200.559
 20
-963.233
 30
4932.570
 70
    32
  0
VERTEX
  8
T03SSILL
 62
4
 10
211.385
 20
-960.712
 30
4932.570
 70
    32
  0
VERTEX
  8
T03SSILL
 62
4
 10
210.036
 20
-955.079
 30
4932.570
 70
    32
  0
VERTEX
  8
T03SSILL
 62
4
 10
215.843
 20
-953.288
 30
4932.570
 70
    32
  0
SEQEND
  8
T03SSILL
  0
POLYLINE
  8
T03SSILL
 62
4
 66
     1
 70
     9
  0
VERTEX
  8
T03SSILL
 62
4
 10
350.204
 20
-1073.439
 30
4932.570
 70
    32
  0
VERTEX
  8
T03SSILL
 62
4
 10
354.732
 20
-1062.578
 30
4932.570
 70
    32
  0
VERTEX
  8
T03SSILL
 62
4
 10
363.850
 20
-1053.104
 30
4932.570
 70
    32
  0
VERTEX
  8
T03SSILL
 62
4
 10
377.905
 20
-1044.046
 30
4932.570
 70
    32
  0
VERTEX
  8
T03SSILL
 62
4
 10
432.379
 20
-1029.149
 30
4932.570
 70
    32
  0
VERTEX
  8
T03SSILL
 62
4
 10
441.826
 20
-1032.980
 30
4932.570
 70
    32
  0
VERTEX
  8
T03SSILL
 62
4
 10
448.104
 20
-1054.979
 30
4932.570
 70
    32
  0
VERTEX
  8
T03SSILL
 62
4
 10
442.911
 20
-1056.327
 30
4932.570
 70
    32
  0
VERTEX
  8
T03SSILL
 62
4
 10
446.960
 20
-1073.226
 30
4932.570
 70
    32
  0
VERTEX
  8
T03SSILL
 62
4
 10
443.025
 20
-1079.326
 30
4932.570
 70
    32
  0
VERTEX
  8
T03SSILL
 62
4
 10
436.000
 20
-1084.472
 30
4932.570
 70
    32
  0
VERTEX
  8
T03SSILL
 62
4
 10
381.078
 20
-1115.585
 30
4932.570
 70
    32
  0
VERTEX
  8
T03SSILL
 62
4
 10
376.148
 20
-1116.491
 30
4932.570
 70
    32
  0
VERTEX
  8
T03SSILL
 62
4
 10
372.958
 20
-1113.070
 30
4932.570
 70
    32
  0
SEQEND
  8
T03SSILL
  0
POLYLINE
  8
T03SSILL
 62
4
 66
     1
 70
     9
  0
VERTEX
  8
T03SSILL
 62
4
 10
410.202
 20
-1320.852
 30
4932.570
 70
    32
  0
VERTEX
  8
T03SSILL
 62
4
 10
394.121
 20
-1294.407
 30
4932.570
 70
    32
  0
VERTEX
  8
T03SSILL
 62
4
 10
420.480
 20
-1278.679
 30
4932.570
 70
    32
  0
VERTEX
  8
T03SSILL
 62
4
 10
381.572
 20
-1215.777
 30
4932.570
 70
    32
  0
VERTEX
  8
T03SSILL
 62
4
 10
406.804
 20
-1203.844
 30
4932.570
 70
    32
  0
VERTEX
  8
T03SSILL
 62
4
 10
411.733
 20
-1202.586
 30
4932.570
 70
    32
  0
VERTEX
  8
T03SSILL
 62
4
 10
416.592
 20
-1205.205
 30
4932.570
 70
    32
  0
VERTEX
  8
T03SSILL
 62
4
 10
438.560
 20
-1245.985
 30
4932.570
 70
    32
  0
VERTEX
  8
T03SSILL
 62
4
 10
467.394
 20
-1285.498
 30
4932.570
 70
    32
  0
SEQEND
  8
T03SSILL
  0
POLYLINE
  8
T03SSILL
 62
4
 66
     1
 70
     9
  0
VERTEX
  8
T03SSILL
 62
4
 10
619.710
 20
-1419.043
 30
4932.570
 70
    32
  0
VERTEX
  8
T03SSILL
 62
4
 10
582.492
 20
-1395.081
 30
4932.570
 70
    32
  0
VERTEX
  8
T03SSILL
 62
4
 10
577.020
 20
-1393.258
 30
4932.570
 70
    32
  0
VERTEX
  8
T03SSILL
 62
4
 10
556.019
 20
-1405.346
 30
4932.570
 70
    32
  0
VERTEX
  8
T03SSILL
 62
4
 10
553.600
 20
-1415.315
 30
4932.570
 70
    32
  0
VERTEX
  8
T03SSILL
 62
4
 10
586.126
 20
-1434.894
 30
4932.570
 70
    32
  0
VERTEX
  8
T03SSILL
 62
4
 10
592.304
 20
-1436.978
 30
4932.570
 70
    32
  0
VERTEX
  8
T03SSILL
 62
4
 10
626.236
 20
-1438.045
 30
4932.570
 70
    32
  0
VERTEX
  8
T03SSILL
 62
4
 10
627.456
 20
-1435.131
 30
4932.570
 70
    32
  0
SEQEND
  8
T03SSILL
  0
POLYLINE
  8
T03SSILL
 62
4
 66
     1
 70
     9
  0
VERTEX
  8
T03SSILL
 62
4
 10
494.618
 20
-1659.438
 30
4932.570
 70
    32
  0
VERTEX
  8
T03SSILL
 62
4
 10
492.668
 20
-1657.068
 30
4932.570
 70
    32
  0
VERTEX
  8
T03SSILL
 62
4
 10
495.361
 20
-1613.611
 30
4932.570
 70
    32
  0
VERTEX
  8
T03SSILL
 62
4
 10
480.077
 20
-1569.978
 30
4932.570
 70
    32
  0
VERTEX
  8
T03SSILL
 62
4
 10
482.932
 20
-1559.214
 30
4932.570
 70
    32
  0
VERTEX
  8
T03SSILL
 62
4
 10
501.229
 20
-1552.690
 30
4932.570
 70
    32
  0
VERTEX
  8
T03SSILL
 62
4
 10
518.771
 20
-1553.838
 30
4932.570
 70
    32
  0
VERTEX
  8
T03SSILL
 62
4
 10
529.889
 20
-1556.779
 30
4932.570
 70
    32
  0
VERTEX
  8
T03SSILL
 62
4
 10
535.521
 20
-1555.253
 30
4932.570
 70
    32
  0
VERTEX
  8
T03SSILL
 62
4
 10
537.399
 20
-1560.795
 30
4932.570
 70
    32
  0
VERTEX
  8
T03SSILL
 62
4
 10
543.033
 20
-1559.622
 30
4932.570
 70
    32
  0
VERTEX
  8
T03SSILL
 62
4
 10
546.525
 20
-1570.796
 30
4932.570
 70
    32
  0
VERTEX
  8
T03SSILL
 62
4
 10
552.510
 20
-1569.269
 30
4932.570
 70
    32
  0
VERTEX
  8
T03SSILL
 62
4
 10
555.650
 20
-1580.709
 30
4932.570
 70
    32
  0
VERTEX
  8
T03SSILL
 62
4
 10
561.283
 20
-1579.271
 30
4932.570
 70
    32
  0
VERTEX
  8
T03SSILL
 62
4
 10
563.104
 20
-1591.158
 30
4932.570
 70
    32
  0
VERTEX
  8
T03SSILL
 62
4
 10
562.512
 20
-1596.096
 30
4932.570
 70
    32
  0
VERTEX
  8
T03SSILL
 62
4
 10
559.093
 20
-1599.814
 30
4932.570
 70
    32
  0
SEQEND
  8
T03SSILL
  0
POLYLINE
  8
T03SSILL
 62
4
 66
     1
 70
     9
  0
VERTEX
  8
T03SSILL
 62
4
 10
767.099
 20
-1732.908
 30
4932.570
 70
    32
  0
VERTEX
  8
T03SSILL
 62
4
 10
741.186
 20
-1678.137
 30
4932.570
 70
    32
  0
VERTEX
  8
T03SSILL
 62
4
 10
746.022
 20
-1675.998
 30
4932.570
 70
    32
  0
VERTEX
  8
T03SSILL
 62
4
 10
735.693
 20
-1654.459
 30
4932.570
 70
    32
  0
VERTEX
  8
T03SSILL
 62
4
 10
748.091
 20
-1648.934
 30
4932.570
 70
    32
  0
VERTEX
  8
T03SSILL
 62
4
 10
751.589
 20
-1643.454
 30
4932.570
 70
    32
  0
VERTEX
  8
T03SSILL
 62
4
 10
773.161
 20
-1639.822
 30
4932.570
 70
    32
  0
VERTEX
  8
T03SSILL
 62
4
 10
777.220
 20
-1640.948
 30
4932.570
 70
    32
  0
VERTEX
  8
T03SSILL
 62
4
 10
779.276
 20
-1646.930
 30
4932.570
 70
    32
  0
VERTEX
  8
T03SSILL
 62
4
 10
773.650
 20
-1649.601
 30
4932.570
 70
    32
  0
VERTEX
  8
T03SSILL
 62
4
 10
781.130
 20
-1665.514
 30
4932.570
 70
    32
  0
VERTEX
  8
T03SSILL
 62
4
 10
776.295
 20
-1667.829
 30
4932.570
 70
    32
  0
VERTEX
  8
T03SSILL
 62
4
 10
778.704
 20
-1673.898
 30
4932.570
 70
    32
  0
VERTEX
  8
T03SSILL
 62
4
 10
773.606
 20
-1676.390
 30
4932.570
 70
    32
  0
VERTEX
  8
T03SSILL
 62
4
 10
775.924
 20
-1681.842
 30
4932.570
 70
    32
  0
VERTEX
  8
T03SSILL
 62
4
 10
765.110
 20
-1686.919
 30
4932.570
 70
    32
  0
VERTEX
  8
T03SSILL
 62
4
 10
783.186
 20
-1724.986
 30
4932.570
 70
    32
  0
SEQEND
  8
T03SSILL
  0
POLYLINE
  8
T03SSILL
 62
4
 66
     1
 70
     9
  0
VERTEX
  8
T03SSILL
 62
4
 10
750.322
 20
-1600.985
 30
4932.570
 70
    32
  0
VERTEX
  8
T03SSILL
 62
4
 10
755.860
 20
-1598.226
 30
4932.570
 70
    32
  0
VERTEX
  8
T03SSILL
 62
4
 10
758.195
 20
-1589.226
 30
4932.570
 70
    32
  0
VERTEX
  8
T03SSILL
 62
4
 10
786.046
 20
-1572.346
 30
4932.570
 70
    32
  0
VERTEX
  8
T03SSILL
 62
4
 10
790.368
 20
-1573.118
 30
4932.570
 70
    32
  0
VERTEX
  8
T03SSILL
 62
4
 10
800.967
 20
-1578.176
 30
4932.570
 70
    32
  0
VERTEX
  8
T03SSILL
 62
4
 10
805.454
 20
-1630.234
 30
4932.570
 70
    32
  0
VERTEX
  8
T03SSILL
 62
4
 10
804.671
 20
-1632.353
 30
4932.570
 70
    32
  0
VERTEX
  8
T03SSILL
 62
4
 10
802.207
 20
-1632.982
 30
4932.570
 70
    32
  0
VERTEX
  8
T03SSILL
 62
4
 10
792.414
 20
-1630.563
 30
4932.570
 70
    32
  0
VERTEX
  8
T03SSILL
 62
4
 10
747.946
 20
-1637.303
 30
4932.570
 70
    32
  0
VERTEX
  8
T03SSILL
 62
4
 10
738.757
 20
-1632.502
 30
4932.570
 70
    32
  0
VERTEX
  8
T03SSILL
 62
4
 10
736.265
 20
-1627.403
 30
4932.570
 70
    32
  0
VERTEX
  8
T03SSILL
 62
4
 10
747.342
 20
-1622.149
 30
4932.570
 70
    32
  0
VERTEX
  8
T03SSILL
 62
4
 10
744.494
 20
-1616.435
 30
4932.570
 70
    32
  0
VERTEX
  8
T03SSILL
 62
4
 10
755.217
 20
-1610.831
 30
4932.570
 70
    32
  0
SEQEND
  8
T03SSILL
  0
POLYLINE
  8
T03SSILL
 62
4
 66
     1
 70
     9
  0
VERTEX
  8
T03SSILL
 62
4
 10
452.374
 20
-920.397
 30
4932.570
 70
    32
  0
VERTEX
  8
T03SSILL
 62
4
 10
429.759
 20
-962.631
 30
4932.570
 70
    32
  0
VERTEX
  8
T03SSILL
 62
4
 10
439.379
 20
-1001.357
 30
4932.570
 70
    32
  0
VERTEX
  8
T03SSILL
 62
4
 10
445.892
 20
-999.650
 30
4932.570
 70
    32
  0
VERTEX
  8
T03SSILL
 62
4
 10
447.063
 20
-1004.844
 30
4932.570
 70
    32
  0
VERTEX
  8
T03SSILL
 62
4
 10
475.576
 20
-997.124
 30
4932.570
 70
    32
  0
VERTEX
  8
T03SSILL
 62
4
 10
477.545
 20
-1003.283
 30
4932.570
 70
    32
  0
VERTEX
  8
T03SSILL
 62
4
 10
482.736
 20
-1001.495
 30
4932.570
 70
    32
  0
VERTEX
  8
T03SSILL
 62
4
 10
484.439
 20
-1007.391
 30
4932.570
 70
    32
  0
VERTEX
  8
T03SSILL
 62
4
 10
489.549
 20
-1007.278
 30
4932.570
 70
    32
  0
VERTEX
  8
T03SSILL
 62
4
 10
532.935
 20
-995.520
 30
4932.570
 70
    32
  0
VERTEX
  8
T03SSILL
 62
4
 10
528.256
 20
-975.892
 30
4932.570
 70
    32
  0
VERTEX
  8
T03SSILL
 62
4
 10
524.535
 20
-971.856
 30
4932.570
 70
    32
  0
SEQEND
  8
T03SSILL
  0
POLYLINE
  8
T03SSILL
 62
4
 66
     1
 70
     9
  0
VERTEX
  8
T03SSILL
 62
4
 10
927.758
 20
-2136.557
 30
4932.570
 70
    32
  0
VERTEX
  8
T03SSILL
 62
4
 10
928.894
 20
-2132.592
 30
4932.570
 70
    32
  0
VERTEX
  8
T03SSILL
 62
4
 10
923.423
 20
-2127.674
 30
4932.570
 70
    32
  0
VERTEX
  8
T03SSILL
 62
4
 10
917.876
 20
-2127.686
 30
4932.570
 70
    32
  0
VERTEX
  8
T03SSILL
 62
4
 10
914.982
 20
-2132.800
 30
4932.570
 70
    32
  0
VERTEX
  8
T03SSILL
 62
4
 10
915.523
 20
-2138.258
 30
4932.570
 70
    32
  0
VERTEX
  8
T03SSILL
 62
4
 10
918.347
 20
-2141.157
 30
4932.570
 70
    32
  0
VERTEX
  8
T03SSILL
 62
4
 10
922.043
 20
-2139.916
 30
4932.570
 70
    32
  0
SEQEND
  8
T03SSILL
  0
POLYLINE
  8
T03SSILL
 62
4
 66
     1
 70
     9
  0
VERTEX
  8
T03SSILL
 62
4
 10
1309.764
 20
-2456.329
 30
4932.570
 70
    32
  0
VERTEX
  8
T03SSILL
 62
4
 10
1314.432
 20
-2456.395
 30
4932.570
 70
    32
  0
VERTEX
  8
T03SSILL
 62
4
 10
1315.273
 20
-2462.186
 30
4932.570
 70
    32
  0
VERTEX
  8
T03SSILL
 62
4
 10
1310.591
 20
-2476.471
 30
4932.570
 70
    32
  0
VERTEX
  8
T03SSILL
 62
4
 10
1309.413
 20
-2489.970
 30
4932.570
 70
    32
  0
VERTEX
  8
T03SSILL
 62
4
 10
1313.250
 20
-2507.048
 30
4932.570
 70
    32
  0
VERTEX
  8
T03SSILL
 62
4
 10
1303.871
 20
-2512.552
 30
4932.570
 70
    32
  0
VERTEX
  8
T03SSILL
 62
4
 10
1289.015
 20
-2468.792
 30
4932.570
 70
    32
  0
VERTEX
  8
T03SSILL
 62
4
 10
1294.865
 20
-2466.717
 30
4932.570
 70
    32
  0
VERTEX
  8
T03SSILL
 62
4
 10
1292.878
 20
-2460.865
 30
4932.570
 70
    32
  0
SEQEND
  8
T03SSILL
  0
POLYLINE
  8
T03SSILL
 62
4
 66
     1
 70
     9
  0
VERTEX
  8
T03SSILL
 62
4
 10
1316.019
 20
-2441.566
 30
4932.570
 70
    32
  0
VERTEX
  8
T03SSILL
 62
4
 10
1314.946
 20
-2433.403
 30
4932.570
 70
    32
  0
VERTEX
  8
T03SSILL
 62
4
 10
1317.007
 20
-2423.758
 30
4932.570
 70
    32
  0
VERTEX
  8
T03SSILL
 62
4
 10
1325.493
 20
-2432.626
 30
4932.570
 70
    32
  0
VERTEX
  8
T03SSILL
 62
4
 10
1324.534
 20
-2436.787
 30
4932.570
 70
    32
  0
SEQEND
  8
T03SSILL
  0
POLYLINE
  8
T03SSILL
 62
4
 66
     1
 70
     9
  0
VERTEX
  8
T03SSILL
 62
4
 10
1333.847
 20
-2581.487
 30
4932.570
 70
    32
  0
VERTEX
  8
T03SSILL
 62
4
 10
1347.307
 20
-2569.812
 30
4932.570
 70
    32
  0
VERTEX
  8
T03SSILL
 62
4
 10
1339.814
 20
-2561.977
 30
4932.570
 70
    32
  0
VERTEX
  8
T03SSILL
 62
4
 10
1330.215
 20
-2569.335
 30
4932.570
 70
    32
  0
VERTEX
  8
T03SSILL
 62
4
 10
1321.164
 20
-2558.895
 30
4932.570
 70
    32
  0
VERTEX
  8
T03SSILL
 62
4
 10
1323.681
 20
-2568.520
 30
4932.570
 70
    32
  0
SEQEND
  8
T03SSILL
  0
POLYLINE
  8
T03SSILL
 62
4
 66
     1
 70
     9
  0
VERTEX
  8
T03SSILL
 62
4
 10
788.679
 20
-2844.240
 30
4932.570
 70
    32
  0
VERTEX
  8
T03SSILL
 62
4
 10
783.511
 20
-2831.945
 30
4932.570
 70
    32
  0
VERTEX
  8
T03SSILL
 62
4
 10
774.641
 20
-2818.436
 30
4932.570
 70
    32
  0
VERTEX
  8
T03SSILL
 62
4
 10
769.159
 20
-2813.447
 30
4932.570
 70
    32
  0
VERTEX
  8
T03SSILL
 62
4
 10
758.675
 20
-2811.477
 30
4932.570
 70
    32
  0
VERTEX
  8
T03SSILL
 62
4
 10
749.784
 20
-2811.082
 30
4932.570
 70
    32
  0
VERTEX
  8
T03SSILL
 62
4
 10
742.242
 20
-2816.489
 30
4932.570
 70
    32
  0
VERTEX
  8
T03SSILL
 62
4
 10
739.454
 20
-2821.960
 30
4932.570
 70
    32
  0
VERTEX
  8
T03SSILL
 62
4
 10
740.993
 20
-2830.402
 30
4932.570
 70
    32
  0
VERTEX
  8
T03SSILL
 62
4
 10
746.058
 20
-2839.793
 30
4932.570
 70
    32
  0
SEQEND
  8
T03SSILL
  0
POLYLINE
  8
T03SSILL
 62
4
 66
     1
 70
     9
  0
VERTEX
  8
T03SSILL
 62
4
 10
3085.019
 20
-3712.362
 30
4932.570
 70
    32
  0
VERTEX
  8
T03SSILL
 62
4
 10
3111.680
 20
-3731.891
 30
4932.570
 70
    32
  0
VERTEX
  8
T03SSILL
 62
4
 10
3095.663
 20
-3752.457
 30
4932.570
 70
    32
  0
VERTEX
  8
T03SSILL
 62
4
 10
3069.528
 20
-3732.823
 30
4932.570
 70
    32
  0
SEQEND
  8
T03SSILL
  0
POLYLINE
  8
T03SSILL
 62
4
 66
     1
 70
     9
  0
VERTEX
  8
T03SSILL
 62
4
 10
-496.708
 20
-114.722
 30
4932.570
 70
    32
  0
VERTEX
  8
T03SSILL
 62
4
 10
-490.584
 20
-125.623
 30
4932.570
 70
    32
  0
VERTEX
  8
T03SSILL
 62
4
 10
-495.023
 20
-129.379
 30
4932.570
 70
    32
  0
VERTEX
  8
T03SSILL
 62
4
 10
-490.825
 20
-133.989
 30
4932.570
 70
    32
  0
VERTEX
  8
T03SSILL
 62
4
 10
-501.295
 20
-140.994
 30
4932.570
 70
    32
  0
VERTEX
  8
T03SSILL
 62
4
 10
-510.548
 20
-116.780
 30
4932.570
 70
    32
  0
VERTEX
  8
T03SSILL
 62
4
 10
-513.994
 20
-96.497
 30
4932.570
 70
    32
  0
VERTEX
  8
T03SSILL
 62
4
 10
-509.795
 20
-92.522
 30
4932.570
 70
    32
  0
VERTEX
  8
T03SSILL
 62
4
 10
-505.478
 20
-91.978
 30
4932.570
 70
    32
  0
VERTEX
  8
T03SSILL
 62
4
 10
-491.717
 20
-110.672
 30
4932.570
 70
    32
  0
SEQEND
  8
T03SSILL
  0
POLYLINE
  8
T03SSILL
 62
4
 66
     1
 70
     9
  0
VERTEX
  8
T03SSILL
 62
4
 10
1022.746
 20
-1662.912
 30
4932.570
 70
    32
  0
VERTEX
  8
T03SSILL
 62
4
 10
979.369
 20
-1622.943
 30
4932.570
 70
    32
  0
VERTEX
  8
T03SSILL
 62
4
 10
976.902
 20
-1622.955
 30
4932.570
 70
    32
  0
VERTEX
  8
T03SSILL
 62
4
 10
988.599
 20
-1671.716
 30
4932.570
 70
    32
  0
VERTEX
  8
T03SSILL
 62
4
 10
995.684
 20
-1678.907
 30
4932.570
 70
    32
  0
VERTEX
  8
T03SSILL
 62
4
 10
1022.150
 20
-1685.033
 30
4932.570
 70
    32
  0
VERTEX
  8
T03SSILL
 62
4
 10
1032.353
 20
-1686.095
 30
4932.570
 70
    32
  0
VERTEX
  8
T03SSILL
 62
4
 10
1036.614
 20
-1683.785
 30
4932.570
 70
    32
  0
VERTEX
  8
T03SSILL
 62
4
 10
1039.416
 20
-1679.075
 30
4932.570
 70
    32
  0
SEQEND
  8
T03SSILL
  0
POLYLINE
  8
T03SSILL
 62
4
 66
     1
 70
     9
  0
VERTEX
  8
T03SSILL
 62
4
 10
-3678.236
 20
1299.042
 30
4932.570
 70
    32
  0
VERTEX
  8
T03SSILL
 62
4
 10
-3709.391
 20
1107.161
 30
4932.570
 70
    32
  0
VERTEX
  8
T03SSILL
 62
4
 10
-3617.969
 20
1176.001
 30
4932.570
 70
    32
  0
VERTEX
  8
T03SSILL
 62
4
 10
-3619.956
 20
1180.825
 30
4932.570
 70
    32
  0
VERTEX
  8
T03SSILL
 62
4
 10
-3615.483
 20
1182.720
 30
4932.570
 70
    32
  0
VERTEX
  8
T03SSILL
 62
4
 10
-3586.527
 20
1210.583
 30
4932.570
 70
    32
  0
VERTEX
  8
T03SSILL
 62
4
 10
-3586.523
 20
1218.774
 30
4932.570
 70
    32
  0
VERTEX
  8
T03SSILL
 62
4
 10
-3580.260
 20
1226.501
 30
4932.570
 70
    32
  0
VERTEX
  8
T03SSILL
 62
4
 10
-3580.028
 20
1229.674
 30
4932.570
 70
    32
  0
VERTEX
  8
T03SSILL
 62
4
 10
-3577.423
 20
1233.312
 30
4932.570
 70
    32
  0
VERTEX
  8
T03SSILL
 62
4
 10
-3577.294
 20
1237.893
 30
4932.570
 70
    32
  0
VERTEX
  8
T03SSILL
 62
4
 10
-3585.669
 20
1273.125
 30
4932.570
 70
    32
  0
VERTEX
  8
T03SSILL
 62
4
 10
-3592.240
 20
1321.499
 30
4932.570
 70
    32
  0
VERTEX
  8
T03SSILL
 62
4
 10
-3597.838
 20
1326.286
 30
4932.570
 70
    32
  0
SEQEND
  8
T03SSILL
  0
POLYLINE
  8
T03SSILL
 62
4
 66
     1
 70
     9
  0
VERTEX
  8
T03SSILL
 62
4
 10
-3569.928
 20
1206.525
 30
4932.570
 70
    32
  0
VERTEX
  8
T03SSILL
 62
4
 10
-3565.129
 20
1202.347
 30
4932.570
 70
    32
  0
VERTEX
  8
T03SSILL
 62
4
 10
-3560.031
 20
1194.736
 30
4932.570
 70
    32
  0
VERTEX
  8
T03SSILL
 62
4
 10
-3555.640
 20
1187.383
 30
4932.570
 70
    32
  0
VERTEX
  8
T03SSILL
 62
4
 10
-3555.961
 20
1184.297
 30
4932.570
 70
    32
  0
VERTEX
  8
T03SSILL
 62
4
 10
-3561.779
 20
1184.854
 30
4932.570
 70
    32
  0
VERTEX
  8
T03SSILL
 62
4
 10
-3580.774
 20
1199.192
 30
4932.570
 70
    32
  0
VERTEX
  8
T03SSILL
 62
4
 10
-3581.517
 20
1202.972
 30
4932.570
 70
    32
  0
SEQEND
  8
T03SSILL
  0
POLYLINE
  8
T03SSILL
 62
4
 66
     1
 70
     9
  0
VERTEX
  8
T03SSILL
 62
4
 10
-780.825
 20
698.545
 30
4932.570
 70
    32
  0
VERTEX
  8
T03SSILL
 62
4
 10
-942.720
 20
780.026
 30
4932.570
 70
    32
  0
VERTEX
  8
T03SSILL
 62
4
 10
-1080.762
 20
1016.420
 30
4932.570
 70
    32
  0
VERTEX
  8
T03SSILL
 62
4
 10
-1165.642
 20
1132.987
 30
4932.570
 70
    32
  0
VERTEX
  8
T03SSILL
 62
4
 10
-1179.768
 20
1168.806
 30
4932.570
 70
    32
  0
VERTEX
  8
T03SSILL
 62
4
 10
-1185.594
 20
1178.417
 30
4932.570
 70
    32
  0
VERTEX
  8
T03SSILL
 62
4
 10
-1190.868
 20
1178.006
 30
4932.570
 70
    32
  0
VERTEX
  8
T03SSILL
 62
4
 10
-1220.170
 20
1217.876
 30
4932.570
 70
    32
  0
VERTEX
  8
T03SSILL
 62
4
 10
-1230.115
 20
1218.380
 30
4932.570
 70
    32
  0
VERTEX
  8
T03SSILL
 62
4
 10
-1262.104
 20
1262.443
 30
4932.570
 70
    32
  0
VERTEX
  8
T03SSILL
 62
4
 10
-1262.766
 20
1266.570
 30
4932.570
 70
    32
  0
VERTEX
  8
T03SSILL
 62
4
 10
-1194.139
 20
1320.122
 30
4932.570
 70
    32
  0
VERTEX
  8
T03SSILL
 62
4
 10
-1188.035
 20
1317.024
 30
4932.570
 70
    32
  0
VERTEX
  8
T03SSILL
 62
4
 10
-1140.698
 20
1245.777
 30
4932.570
 70
    32
  0
SEQEND
  8
T03SSILL
  0
POLYLINE
  8
T03SSILL
 62
4
 66
     1
 70
     9
  0
VERTEX
  8
T03SSILL
 62
4
 10
-1217.206
 20
1181.228
 30
4932.570
 70
    32
  0
VERTEX
  8
T03SSILL
 62
4
 10
-1239.570
 20
1206.486
 30
4932.570
 70
    32
  0
VERTEX
  8
T03SSILL
 62
4
 10
-1254.474
 20
1225.495
 30
4932.570
 70
    32
  0
VERTEX
  8
T03SSILL
 62
4
 10
-1265.847
 20
1243.312
 30
4932.570
 70
    32
  0
VERTEX
  8
T03SSILL
 62
4
 10
-1271.012
 20
1256.713
 30
4932.570
 70
    32
  0
VERTEX
  8
T03SSILL
 62
4
 10
-1266.284
 20
1258.701
 30
4932.570
 70
    32
  0
VERTEX
  8
T03SSILL
 62
4
 10
-1178.014
 20
1137.950
 30
4932.570
 70
    32
  0
VERTEX
  8
T03SSILL
 62
4
 10
-1176.473
 20
1133.921
 30
4932.570
 70
    32
  0
VERTEX
  8
T03SSILL
 62
4
 10
-1181.606
 20
1128.849
 30
4932.570
 70
    32
  0
SEQEND
  8
T03SSILL
  0
POLYLINE
  8
T03SSILL
 62
4
 66
     1
 70
     9
  0
VERTEX
  8
T03SSILL
 62
4
 10
-1269.692
 20
1202.013
 30
4932.570
 70
    32
  0
VERTEX
  8
T03SSILL
 62
4
 10
-1268.955
 20
1206.859
 30
4932.570
 70
    32
  0
VERTEX
  8
T03SSILL
 62
4
 10
-1263.072
 20
1207.805
 30
4932.570
 70
    32
  0
VERTEX
  8
T03SSILL
 62
4
 10
-1249.499
 20
1182.096
 30
4932.570
 70
    32
  0
VERTEX
  8
T03SSILL
 62
4
 10
-1250.085
 20
1179.450
 30
4932.570
 70
    32
  0
VERTEX
  8
T03SSILL
 62
4
 10
-1260.608
 20
1176.517
 30
4932.570
 70
    32
  0
VERTEX
  8
T03SSILL
 62
4
 10
-1263.711
 20
1178.681
 30
4932.570
 70
    32
  0
SEQEND
  8
T03SSILL
  0
POLYLINE
  8
T03SSILL
 62
4
 66
     1
 70
     9
  0
VERTEX
  8
T03SSILL
 62
4
 10
-1173.360
 20
1123.136
 30
4932.570
 70
    32
  0
VERTEX
  8
T03SSILL
 62
4
 10
-1165.163
 20
1121.645
 30
4932.570
 70
    32
  0
VERTEX
  8
T03SSILL
 62
4
 10
-1151.585
 20
1103.237
 30
4932.570
 70
    32
  0
VERTEX
  8
T03SSILL
 62
4
 10
-1149.127
 20
1088.134
 30
4932.570
 70
    32
  0
VERTEX
  8
T03SSILL
 62
4
 10
-1133.958
 20
1069.041
 30
4932.570
 70
    32
  0
VERTEX
  8
T03SSILL
 62
4
 10
-1135.480
 20
1063.570
 30
4932.570
 70
    32
  0
VERTEX
  8
T03SSILL
 62
4
 10
-1138.353
 20
1060.898
 30
4932.570
 70
    32
  0
VERTEX
  8
T03SSILL
 62
4
 10
-1135.395
 20
1056.005
 30
4932.570
 70
    32
  0
VERTEX
  8
T03SSILL
 62
4
 10
-1126.524
 20
1057.249
 30
4932.570
 70
    32
  0
VERTEX
  8
T03SSILL
 62
4
 10
-1104.800
 20
1026.265
 30
4932.570
 70
    32
  0
VERTEX
  8
T03SSILL
 62
4
 10
-1098.980
 20
1017.182
 30
4932.570
 70
    32
  0
VERTEX
  8
T03SSILL
 62
4
 10
-1095.907
 20
1009.916
 30
4932.570
 70
    32
  0
VERTEX
  8
T03SSILL
 62
4
 10
-1085.981
 20
1003.342
 30
4932.570
 70
    32
  0
VERTEX
  8
T03SSILL
 62
4
 10
-1088.327
 20
977.366
 30
4932.570
 70
    32
  0
VERTEX
  8
T03SSILL
 62
4
 10
-1092.796
 20
975.820
 30
4932.570
 70
    32
  0
VERTEX
  8
T03SSILL
 62
4
 10
-1098.617
 20
977.162
 30
4932.570
 70
    32
  0
VERTEX
  8
T03SSILL
 62
4
 10
-1105.451
 20
990.368
 30
4932.570
 70
    32
  0
SEQEND
  8
T03SSILL
  0
POLYLINE
  8
T03SSILL
 62
4
 66
     1
 70
     9
  0
VERTEX
  8
T03SSILL
 62
4
 10
-1054.698
 20
959.447
 30
4932.570
 70
    32
  0
VERTEX
  8
T03SSILL
 62
4
 10
-1055.953
 20
953.716
 30
4932.570
 70
    32
  0
VERTEX
  8
T03SSILL
 62
4
 10
-1066.547
 20
949.286
 30
4932.570
 70
    32
  0
VERTEX
  8
T03SSILL
 62
4
 10
-1073.308
 20
955.983
 30
4932.570
 70
    32
  0
VERTEX
  8
T03SSILL
 62
4
 10
-1082.832
 20
973.733
 30
4932.570
 70
    32
  0
VERTEX
  8
T03SSILL
 62
4
 10
-1080.666
 20
1000.059
 30
4932.570
 70
    32
  0
VERTEX
  8
T03SSILL
 62
4
 10
-1079.004
 20
1000.958
 30
4932.570
 70
    32
  0
VERTEX
  8
T03SSILL
 62
4
 10
-1076.491
 20
996.500
 30
4932.570
 70
    32
  0
SEQEND
  8
T03SSILL
  0
POLYLINE
  8
T03SSILL
 62
4
 66
     1
 70
     9
  0
VERTEX
  8
T03SSILL
 62
4
 10
-995.823
 20
816.549
 30
4932.570
 70
    32
  0
VERTEX
  8
T03SSILL
 62
4
 10
-985.935
 20
821.147
 30
4932.570
 70
    32
  0
VERTEX
  8
T03SSILL
 62
4
 10
-978.208
 20
822.378
 30
4932.570
 70
    32
  0
VERTEX
  8
T03SSILL
 62
4
 10
-974.323
 20
821.102
 30
4932.570
 70
    32
  0
VERTEX
  8
T03SSILL
 62
4
 10
-956.380
 20
790.076
 30
4932.570
 70
    32
  0
VERTEX
  8
T03SSILL
 62
4
 10
-959.259
 20
787.932
 30
4932.570
 70
    32
  0
VERTEX
  8
T03SSILL
 62
4
 10
-971.811
 20
793.333
 30
4932.570
 70
    32
  0
VERTEX
  8
T03SSILL
 62
4
 10
-987.743
 20
794.209
 30
4932.570
 70
    32
  0
VERTEX
  8
T03SSILL
 62
4
 10
-991.409
 20
799.534
 30
4932.570
 70
    32
  0
SEQEND
  8
T03SSILL
  0
POLYLINE
  8
T03SSILL
 62
4
 66
     1
 70
     9
  0
VERTEX
  8
T03SSILL
 62
4
 10
-873.458
 20
404.433
 30
4932.570
 70
    32
  0
VERTEX
  8
T03SSILL
 62
4
 10
-877.134
 20
410.825
 30
4932.570
 70
    32
  0
VERTEX
  8
T03SSILL
 62
4
 10
-880.405
 20
409.736
 30
4932.570
 70
    32
  0
VERTEX
  8
T03SSILL
 62
4
 10
-1028.878
 20
189.362
 30
4932.570
 70
    32
  0
VERTEX
  8
T03SSILL
 62
4
 10
-1101.610
 20
135.605
 30
4932.570
 70
    32
  0
VERTEX
  8
T03SSILL
 62
4
 10
-1102.859
 20
129.207
 30
4932.570
 70
    32
  0
VERTEX
  8
T03SSILL
 62
4
 10
-966.462
 20
-72.398
 30
4932.570
 70
    32
  0
VERTEX
  8
T03SSILL
 62
4
 10
-960.070
 20
-73.998
 30
4932.570
 70
    32
  0
VERTEX
  8
T03SSILL
 62
4
 10
-717.058
 20
130.919
 30
4932.570
 70
    32
  0
VERTEX
  8
T03SSILL
 62
4
 10
-711.057
 20
132.226
 30
4932.570
 70
    32
  0
VERTEX
  8
T03SSILL
 62
4
 10
-717.855
 20
151.860
 30
4932.570
 70
    32
  0
VERTEX
  8
T03SSILL
 62
4
 10
-726.658
 20
172.583
 30
4932.570
 70
    32
  0
VERTEX
  8
T03SSILL
 62
4
 10
-730.267
 20
177.655
 30
4932.570
 70
    32
  0
VERTEX
  8
T03SSILL
 62
4
 10
-735.163
 20
179.406
 30
4932.570
 70
    32
  0
VERTEX
  8
T03SSILL
 62
4
 10
-759.933
 20
170.407
 30
4932.570
 70
    32
  0
VERTEX
  8
T03SSILL
 62
4
 10
-762.255
 20
173.611
 30
4932.570
 70
    32
  0
VERTEX
  8
T03SSILL
 62
4
 10
-818.553
 20
289.473
 30
4932.570
 70
    32
  0
SEQEND
  8
T03SSILL
  0
POLYLINE
  8
T03SSILL
 62
4
 66
     1
 70
     9
  0
VERTEX
  8
T03SSILL
 62
4
 10
-814.160
 20
315.781
 30
4932.570
 70
    32
  0
VERTEX
  8
T03SSILL
 62
4
 10
-820.110
 20
312.274
 30
4932.570
 70
    32
  0
VERTEX
  8
T03SSILL
 62
4
 10
-822.216
 20
312.573
 30
4932.570
 70
    32
  0
VERTEX
  8
T03SSILL
 62
4
 10
-837.525
 20
343.955
 30
4932.570
 70
    32
  0
VERTEX
  8
T03SSILL
 62
4
 10
-837.115
 20
347.466
 30
4932.570
 70
    32
  0
VERTEX
  8
T03SSILL
 62
4
 10
-827.991
 20
351.536
 30
4932.570
 70
    32
  0
VERTEX
  8
T03SSILL
 62
4
 10
-824.851
 20
349.989
 30
4932.570
 70
    32
  0
VERTEX
  8
T03SSILL
 62
4
 10
-823.432
 20
345.393
 30
4932.570
 70
    32
  0
SEQEND
  8
T03SSILL
  0
POLYLINE
  8
T03SSILL
 62
4
 66
     1
 70
     9
  0
VERTEX
  8
T03SSILL
 62
4
 10
-771.558
 20
243.849
 30
4932.570
 70
    32
  0
VERTEX
  8
T03SSILL
 62
4
 10
-771.349
 20
240.504
 30
4932.570
 70
    32
  0
VERTEX
  8
T03SSILL
 62
4
 10
-781.907
 20
234.875
 30
4932.570
 70
    32
  0
VERTEX
  8
T03SSILL
 62
4
 10
-784.367
 20
235.004
 30
4932.570
 70
    32
  0
VERTEX
  8
T03SSILL
 62
4
 10
-799.698
 20
265.067
 30
4932.570
 70
    32
  0
VERTEX
  8
T03SSILL
 62
4
 10
-798.419
 20
267.948
 30
4932.570
 70
    32
  0
VERTEX
  8
T03SSILL
 62
4
 10
-791.240
 20
271.347
 30
4932.570
 70
    32
  0
VERTEX
  8
T03SSILL
 62
4
 10
-788.096
 20
270.063
 30
4932.570
 70
    32
  0
SEQEND
  8
T03SSILL
  0
POLYLINE
  8
T03SSILL
 62
4
 66
     1
 70
     9
  0
VERTEX
  8
T03SSILL
 62
4
 10
-780.228
 20
224.735
 30
4932.570
 70
    32
  0
VERTEX
  8
T03SSILL
 62
4
 10
-780.403
 20
230.102
 30
4932.570
 70
    32
  0
VERTEX
  8
T03SSILL
 62
4
 10
-768.077
 20
236.317
 30
4932.570
 70
    32
  0
VERTEX
  8
T03SSILL
 62
4
 10
-765.026
 20
234.684
 30
4932.570
 70
    32
  0
VERTEX
  8
T03SSILL
 62
4
 10
-734.953
 20
186.790
 30
4932.570
 70
    32
  0
VERTEX
  8
T03SSILL
 62
4
 10
-735.777
 20
184.781
 30
4932.570
 70
    32
  0
VERTEX
  8
T03SSILL
 62
4
 10
-754.626
 20
177.618
 30
4932.570
 70
    32
  0
VERTEX
  8
T03SSILL
 62
4
 10
-757.343
 20
178.190
 30
4932.570
 70
    32
  0
SEQEND
  8
T03SSILL
  0
POLYLINE
  8
T03SSILL
 62
4
 66
     1
 70
     9
  0
VERTEX
  8
T03SSILL
 62
4
 10
-370.127
 20
4.888
 30
4932.570
 70
    32
  0
VERTEX
  8
T03SSILL
 62
4
 10
-473.334
 20
123.636
 30
4932.570
 70
    32
  0
VERTEX
  8
T03SSILL
 62
4
 10
-484.125
 20
141.137
 30
4932.570
 70
    32
  0
VERTEX
  8
T03SSILL
 62
4
 10
-506.275
 20
189.604
 30
4932.570
 70
    32
  0
VERTEX
  8
T03SSILL
 62
4
 10
-515.414
 20
205.935
 30
4932.570
 70
    32
  0
VERTEX
  8
T03SSILL
 62
4
 10
-514.973
 20
211.292
 30
4932.570
 70
    32
  0
VERTEX
  8
T03SSILL
 62
4
 10
-502.429
 20
214.778
 30
4932.570
 70
    32
  0
VERTEX
  8
T03SSILL
 62
4
 10
-491.460
 20
224.006
 30
4932.570
 70
    32
  0
VERTEX
  8
T03SSILL
 62
4
 10
-441.729
 20
248.157
 30
4932.570
 70
    32
  0
VERTEX
  8
T03SSILL
 62
4
 10
-436.508
 20
244.817
 30
4932.570
 70
    32
  0
VERTEX
  8
T03SSILL
 62
4
 10
-428.942
 20
250.408
 30
4932.570
 70
    32
  0
VERTEX
  8
T03SSILL
 62
4
 10
-377.114
 20
231.173
 30
4932.570
 70
    32
  0
VERTEX
  8
T03SSILL
 62
4
 10
-371.464
 20
221.846
 30
4932.570
 70
    32
  0
VERTEX
  8
T03SSILL
 62
4
 10
-365.454
 20
218.405
 30
4932.570
 70
    32
  0
VERTEX
  8
T03SSILL
 62
4
 10
-284.063
 20
67.218
 30
4932.570
 70
    32
  0
VERTEX
  8
T03SSILL
 62
4
 10
-284.513
 20
55.970
 30
4932.570
 70
    32
  0
VERTEX
  8
T03SSILL
 62
4
 10
-290.604
 20
49.212
 30
4932.570
 70
    32
  0
VERTEX
  8
T03SSILL
 62
4
 10
-299.248
 20
42.320
 30
4932.570
 70
    32
  0
SEQEND
  8
T03SSILL
  0
POLYLINE
  8
T03SSILL
 62
4
 66
     1
 70
     9
  0
VERTEX
  8
T03SSILL
 62
4
 10
-524.435
 20
208.107
 30
4932.570
 70
    32
  0
VERTEX
  8
T03SSILL
 62
4
 10
-519.624
 20
201.257
 30
4932.570
 70
    32
  0
VERTEX
  8
T03SSILL
 62
4
 10
-511.768
 20
181.781
 30
4932.570
 70
    32
  0
VERTEX
  8
T03SSILL
 62
4
 10
-491.740
 20
143.286
 30
4932.570
 70
    32
  0
VERTEX
  8
T03SSILL
 62
4
 10
-485.751
 20
127.886
 30
4932.570
 70
    32
  0
VERTEX
  8
T03SSILL
 62
4
 10
-519.637
 20
125.984
 30
4932.570
 70
    32
  0
VERTEX
  8
T03SSILL
 62
4
 10
-582.705
 20
103.636
 30
4932.570
 70
    32
  0
VERTEX
  8
T03SSILL
 62
4
 10
-590.655
 20
106.757
 30
4932.570
 70
    32
  0
VERTEX
  8
T03SSILL
 62
4
 10
-612.817
 20
159.797
 30
4932.570
 70
    32
  0
VERTEX
  8
T03SSILL
 62
4
 10
-609.976
 20
166.785
 30
4932.570
 70
    32
  0
VERTEX
  8
T03SSILL
 62
4
 10
-563.792
 20
189.148
 30
4932.570
 70
    32
  0
SEQEND
  8
T03SSILL
  0
POLYLINE
  8
T03SSILL
 62
4
 66
     1
 70
     9
  0
VERTEX
  8
T03SSILL
 62
4
 10
-614.667
 20
74.530
 30
4932.570
 70
    32
  0
VERTEX
  8
T03SSILL
 62
4
 10
-599.771
 20
92.574
 30
4932.570
 70
    32
  0
VERTEX
  8
T03SSILL
 62
4
 10
-596.744
 20
100.175
 30
4932.570
 70
    32
  0
VERTEX
  8
T03SSILL
 62
4
 10
-597.188
 20
105.194
 30
4932.570
 70
    32
  0
VERTEX
  8
T03SSILL
 62
4
 10
-617.283
 20
155.650
 30
4932.570
 70
    32
  0
VERTEX
  8
T03SSILL
 62
4
 10
-624.511
 20
159.902
 30
4932.570
 70
    32
  0
VERTEX
  8
T03SSILL
 62
4
 10
-660.746
 20
143.618
 30
4932.570
 70
    32
  0
VERTEX
  8
T03SSILL
 62
4
 10
-663.119
 20
138.381
 30
4932.570
 70
    32
  0
VERTEX
  8
T03SSILL
 62
4
 10
-648.454
 20
89.246
 30
4932.570
 70
    32
  0
VERTEX
  8
T03SSILL
 62
4
 10
-642.273
 20
90.815
 30
4932.570
 70
    32
  0
VERTEX
  8
T03SSILL
 62
4
 10
-637.104
 20
73.670
 30
4932.570
 70
    32
  0
VERTEX
  8
T03SSILL
 62
4
 10
-631.803
 20
75.165
 30
4932.570
 70
    32
  0
VERTEX
  8
T03SSILL
 62
4
 10
-630.039
 20
70.212
 30
4932.570
 70
    32
  0
SEQEND
  8
T03SSILL
  0
POLYLINE
  8
T03SSILL
 62
4
 66
     1
 70
     9
  0
VERTEX
  8
T03SSILL
 62
4
 10
-577.962
 20
97.930
 30
4932.570
 70
    32
  0
VERTEX
  8
T03SSILL
 62
4
 10
-585.117
 20
96.025
 30
4932.570
 70
    32
  0
VERTEX
  8
T03SSILL
 62
4
 10
-590.134
 20
90.393
 30
4932.570
 70
    32
  0
VERTEX
  8
T03SSILL
 62
4
 10
-595.309
 20
80.542
 30
4932.570
 70
    32
  0
VERTEX
  8
T03SSILL
 62
4
 10
-588.723
 20
58.713
 30
4932.570
 70
    32
  0
VERTEX
  8
T03SSILL
 62
4
 10
-584.808
 20
56.186
 30
4932.570
 70
    32
  0
VERTEX
  8
T03SSILL
 62
4
 10
-562.370
 20
62.410
 30
4932.570
 70
    32
  0
SEQEND
  8
T03SSILL
  0
POLYLINE
  8
T03SSILL
 62
4
 66
     1
 70
     9
  0
VERTEX
  8
T03SSILL
 62
4
 10
-555.907
 20
65.029
 30
4932.570
 70
    32
  0
VERTEX
  8
T03SSILL
 62
4
 10
-537.296
 20
73.779
 30
4932.570
 70
    32
  0
VERTEX
  8
T03SSILL
 62
4
 10
-535.433
 20
80.079
 30
4932.570
 70
    32
  0
VERTEX
  8
T03SSILL
 62
4
 10
-547.503
 20
99.976
 30
4932.570
 70
    32
  0
VERTEX
  8
T03SSILL
 62
4
 10
-555.243
 20
105.205
 30
4932.570
 70
    32
  0
VERTEX
  8
T03SSILL
 62
4
 10
-559.200
 20
105.182
 30
4932.570
 70
    32
  0
VERTEX
  8
T03SSILL
 62
4
 10
-572.213
 20
99.945
 30
4932.570
 70
    32
  0
VERTEX
  8
T03SSILL
 62
4
 10
-570.368
 20
94.551
 30
4932.570
 70
    32
  0
VERTEX
  8
T03SSILL
 62
4
 10
-563.085
 20
88.275
 30
4932.570
 70
    32
  0
VERTEX
  8
T03SSILL
 62
4
 10
-562.725
 20
78.156
 30
4932.570
 70
    32
  0
SEQEND
  8
T03SSILL
  0
POLYLINE
  8
T03SSILL
 62
4
 66
     1
 70
     9
  0
VERTEX
  8
T03SSILL
 62
4
 10
-473.620
 20
69.121
 30
4932.570
 70
    32
  0
VERTEX
  8
T03SSILL
 62
4
 10
-454.785
 20
80.769
 30
4932.570
 70
    32
  0
VERTEX
  8
T03SSILL
 62
4
 10
-452.114
 20
77.471
 30
4932.570
 70
    32
  0
VERTEX
  8
T03SSILL
 62
4
 10
-448.149
 20
77.933
 30
4932.570
 70
    32
  0
VERTEX
  8
T03SSILL
 62
4
 10
-443.966
 20
80.941
 30
4932.570
 70
    32
  0
VERTEX
  8
T03SSILL
 62
4
 10
-458.975
 20
98.601
 30
4932.570
 70
    32
  0
VERTEX
  8
T03SSILL
 62
4
 10
-482.352
 20
120.707
 30
4932.570
 70
    32
  0
VERTEX
  8
T03SSILL
 62
4
 10
-505.388
 20
120.912
 30
4932.570
 70
    32
  0
VERTEX
  8
T03SSILL
 62
4
 10
-517.365
 20
119.791
 30
4932.570
 70
    32
  0
VERTEX
  8
T03SSILL
 62
4
 10
-540.718
 20
111.472
 30
4932.570
 70
    32
  0
VERTEX
  8
T03SSILL
 62
4
 10
-544.323
 20
106.167
 30
4932.570
 70
    32
  0
VERTEX
  8
T03SSILL
 62
4
 10
-521.706
 20
70.004
 30
4932.570
 70
    32
  0
VERTEX
  8
T03SSILL
 62
4
 10
-505.530
 20
59.096
 30
4932.570
 70
    32
  0
SEQEND
  8
T03SSILL
  0
POLYLINE
  8
T03SSILL
 62
4
 66
     1
 70
     9
  0
VERTEX
  8
T03SSILL
 62
4
 10
-400.365
 20
-47.637
 30
4932.570
 70
    32
  0
VERTEX
  8
T03SSILL
 62
4
 10
-397.094
 20
-25.268
 30
4932.570
 70
    32
  0
VERTEX
  8
T03SSILL
 62
4
 10
-399.346
 20
-23.208
 30
4932.570
 70
    32
  0
VERTEX
  8
T03SSILL
 62
4
 10
-425.155
 20
-36.499
 30
4932.570
 70
    32
  0
VERTEX
  8
T03SSILL
 62
4
 10
-427.251
 20
-40.949
 30
4932.570
 70
    32
  0
SEQEND
  8
T03SSILL
  0
POLYLINE
  8
T03SSILL
 62
4
 66
     1
 70
     9
  0
VERTEX
  8
T03SSILL
 62
4
 10
916.262
 20
491.597
 30
4932.570
 70
    32
  0
VERTEX
  8
T03SSILL
 62
4
 10
922.538
 20
489.502
 30
4932.570
 70
    32
  0
VERTEX
  8
T03SSILL
 62
4
 10
928.014
 20
493.372
 30
4932.570
 70
    32
  0
VERTEX
  8
T03SSILL
 62
4
 10
934.050
 20
500.592
 30
4932.570
 70
    32
  0
VERTEX
  8
T03SSILL
 62
4
 10
940.525
 20
502.544
 30
4932.570
 70
    32
  0
VERTEX
  8
T03SSILL
 62
4
 10
947.407
 20
506.437
 30
4932.570
 70
    32
  0
VERTEX
  8
T03SSILL
 62
4
 10
953.869
 20
514.456
 30
4932.570
 70
    32
  0
VERTEX
  8
T03SSILL
 62
4
 10
966.476
 20
523.102
 30
4932.570
 70
    32
  0
VERTEX
  8
T03SSILL
 62
4
 10
972.568
 20
532.345
 30
4932.570
 70
    32
  0
VERTEX
  8
T03SSILL
 62
4
 10
974.551
 20
540.115
 30
4932.570
 70
    32
  0
VERTEX
  8
T03SSILL
 62
4
 10
913.238
 20
601.272
 30
4932.570
 70
    32
  0
VERTEX
  8
T03SSILL
 62
4
 10
908.828
 20
602.079
 30
4932.570
 70
    32
  0
VERTEX
  8
T03SSILL
 62
4
 10
898.462
 20
590.831
 30
4932.570
 70
    32
  0
VERTEX
  8
T03SSILL
 62
4
 10
888.408
 20
571.236
 30
4932.570
 70
    32
  0
VERTEX
  8
T03SSILL
 62
4
 10
865.721
 20
523.037
 30
4932.570
 70
    32
  0
VERTEX
  8
T03SSILL
 62
4
 10
865.214
 20
516.435
 30
4932.570
 70
    32
  0
VERTEX
  8
T03SSILL
 62
4
 10
867.493
 20
511.461
 30
4932.570
 70
    32
  0
SEQEND
  8
T03SSILL
  0
POLYLINE
  8
T03SSILL
 62
4
 66
     1
 70
     9
  0
VERTEX
  8
T03SSILL
 62
4
 10
914.547
 20
478.205
 30
4932.570
 70
    32
  0
VERTEX
  8
T03SSILL
 62
4
 10
922.140
 20
476.219
 30
4932.570
 70
    32
  0
VERTEX
  8
T03SSILL
 62
4
 10
925.274
 20
472.754
 30
4932.570
 70
    32
  0
VERTEX
  8
T03SSILL
 62
4
 10
924.555
 20
468.346
 30
4932.570
 70
    32
  0
VERTEX
  8
T03SSILL
 62
4
 10
913.409
 20
461.746
 30
4932.570
 70
    32
  0
VERTEX
  8
T03SSILL
 62
4
 10
903.625
 20
457.893
 30
4932.570
 70
    32
  0
VERTEX
  8
T03SSILL
 62
4
 10
898.518
 20
452.974
 30
4932.570
 70
    32
  0
VERTEX
  8
T03SSILL
 62
4
 10
892.799
 20
442.506
 30
4932.570
 70
    32
  0
VERTEX
  8
T03SSILL
 62
4
 10
889.291
 20
431.195
 30
4932.570
 70
    32
  0
VERTEX
  8
T03SSILL
 62
4
 10
884.298
 20
397.791
 30
4932.570
 70
    32
  0
VERTEX
  8
T03SSILL
 62
4
 10
885.665
 20
384.098
 30
4932.570
 70
    32
  0
VERTEX
  8
T03SSILL
 62
4
 10
891.015
 20
368.800
 30
4932.570
 70
    32
  0
VERTEX
  8
T03SSILL
 62
4
 10
890.964
 20
361.150
 30
4932.570
 70
    32
  0
VERTEX
  8
T03SSILL
 62
4
 10
884.463
 20
339.327
 30
4932.570
 70
    32
  0
VERTEX
  8
T03SSILL
 62
4
 10
884.871
 20
330.542
 30
4932.570
 70
    32
  0
VERTEX
  8
T03SSILL
 62
4
 10
879.367
 20
317.616
 30
4932.570
 70
    32
  0
VERTEX
  8
T03SSILL
 62
4
 10
874.962
 20
312.796
 30
4932.570
 70
    32
  0
VERTEX
  8
T03SSILL
 62
4
 10
866.341
 20
313.095
 30
4932.570
 70
    32
  0
VERTEX
  8
T03SSILL
 62
4
 10
855.392
 20
315.993
 30
4932.570
 70
    32
  0
VERTEX
  8
T03SSILL
 62
4
 10
835.414
 20
360.242
 30
4932.570
 70
    32
  0
VERTEX
  8
T03SSILL
 62
4
 10
858.820
 20
504.197
 30
4932.570
 70
    32
  0
VERTEX
  8
T03SSILL
 62
4
 10
863.523
 20
506.912
 30
4932.570
 70
    32
  0
VERTEX
  8
T03SSILL
 62
4
 10
867.239
 20
505.478
 30
4932.570
 70
    32
  0
SEQEND
  8
T03SSILL
  0
POLYLINE
  8
T03SSILL
 62
4
 66
     1
 70
     9
  0
VERTEX
  8
T03SSILL
 62
4
 10
1070.440
 20
450.598
 30
4932.570
 70
    32
  0
VERTEX
  8
T03SSILL
 62
4
 10
1088.773
 20
447.821
 30
4932.570
 70
    32
  0
VERTEX
  8
T03SSILL
 62
4
 10
1101.260
 20
447.673
 30
4932.570
 70
    32
  0
VERTEX
  8
T03SSILL
 62
4
 10
1105.602
 20
450.997
 30
4932.570
 70
    32
  0
VERTEX
  8
T03SSILL
 62
4
 10
1103.670
 20
472.330
 30
4932.570
 70
    32
  0
VERTEX
  8
T03SSILL
 62
4
 10
1108.209
 20
501.242
 30
4932.570
 70
    32
  0
VERTEX
  8
T03SSILL
 62
4
 10
1114.832
 20
520.956
 30
4932.570
 70
    32
  0
VERTEX
  8
T03SSILL
 62
4
 10
1112.308
 20
530.147
 30
4932.570
 70
    32
  0
VERTEX
  8
T03SSILL
 62
4
 10
1095.259
 20
556.596
 30
4932.570
 70
    32
  0
VERTEX
  8
T03SSILL
 62
4
 10
1035.623
 20
558.170
 30
4932.570
 70
    32
  0
VERTEX
  8
T03SSILL
 62
4
 10
1028.367
 20
555.678
 30
4932.570
 70
    32
  0
VERTEX
  8
T03SSILL
 62
4
 10
1022.900
 20
551.280
 30
4932.570
 70
    32
  0
VERTEX
  8
T03SSILL
 62
4
 10
1019.133
 20
545.064
 30
4932.570
 70
    32
  0
VERTEX
  8
T03SSILL
 62
4
 10
1014.216
 20
523.180
 30
4932.570
 70
    32
  0
VERTEX
  8
T03SSILL
 62
4
 10
1010.535
 20
517.053
 30
4932.570
 70
    32
  0
VERTEX
  8
T03SSILL
 62
4
 10
1009.992
 20
512.648
 30
4932.570
 70
    32
  0
VERTEX
  8
T03SSILL
 62
4
 10
1015.018
 20
506.400
 30
4932.570
 70
    32
  0
SEQEND
  8
T03SSILL
  0
POLYLINE
  8
T03SSILL
 62
4
 66
     1
 70
     9
  0
VERTEX
  8
T03SSILL
 62
4
 10
900.038
 20
338.527
 30
4932.570
 70
    32
  0
VERTEX
  8
T03SSILL
 62
4
 10
896.693
 20
344.187
 30
4932.570
 70
    32
  0
VERTEX
  8
T03SSILL
 62
4
 10
900.576
 20
359.373
 30
4932.570
 70
    32
  0
VERTEX
  8
T03SSILL
 62
4
 10
903.898
 20
365.933
 30
4932.570
 70
    32
  0
VERTEX
  8
T03SSILL
 62
4
 10
910.150
 20
370.695
 30
4932.570
 70
    32
  0
VERTEX
  8
T03SSILL
 62
4
 10
913.398
 20
376.375
 30
4932.570
 70
    32
  0
VERTEX
  8
T03SSILL
 62
4
 10
915.040
 20
383.524
 30
4932.570
 70
    32
  0
VERTEX
  8
T03SSILL
 62
4
 10
908.993
 20
398.459
 30
4932.570
 70
    32
  0
VERTEX
  8
T03SSILL
 62
4
 10
907.416
 20
408.896
 30
4932.570
 70
    32
  0
VERTEX
  8
T03SSILL
 62
4
 10
907.141
 20
414.958
 30
4932.570
 70
    32
  0
VERTEX
  8
T03SSILL
 62
4
 10
908.945
 20
422.900
 30
4932.570
 70
    32
  0
VERTEX
  8
T03SSILL
 62
4
 10
912.473
 20
427.617
 30
4932.570
 70
    32
  0
VERTEX
  8
T03SSILL
 62
4
 10
917.885
 20
429.992
 30
4932.570
 70
    32
  0
VERTEX
  8
T03SSILL
 62
4
 10
923.076
 20
429.725
 30
4932.570
 70
    32
  0
VERTEX
  8
T03SSILL
 62
4
 10
927.759
 20
428.307
 30
4932.570
 70
    32
  0
VERTEX
  8
T03SSILL
 62
4
 10
931.617
 20
423.622
 30
4932.570
 70
    32
  0
VERTEX
  8
T03SSILL
 62
4
 10
936.499
 20
409.987
 30
4932.570
 70
    32
  0
VERTEX
  8
T03SSILL
 62
4
 10
935.268
 20
388.514
 30
4932.570
 70
    32
  0
VERTEX
  8
T03SSILL
 62
4
 10
936.684
 20
382.559
 30
4932.570
 70
    32
  0
VERTEX
  8
T03SSILL
 62
4
 10
936.426
 20
376.840
 30
4932.570
 70
    32
  0
VERTEX
  8
T03SSILL
 62
4
 10
933.607
 20
371.782
 30
4932.570
 70
    32
  0
VERTEX
  8
T03SSILL
 62
4
 10
915.498
 20
350.122
 30
4932.570
 70
    32
  0
VERTEX
  8
T03SSILL
 62
4
 10
908.736
 20
344.296
 30
4932.570
 70
    32
  0
SEQEND
  8
T03SSILL
  0
POLYLINE
  8
T03SSILL
 62
4
 66
     1
 70
     9
  0
VERTEX
  8
T03SSILL
 62
4
 10
866.972
 20
129.353
 30
4932.570
 70
    32
  0
VERTEX
  8
T03SSILL
 62
4
 10
867.294
 20
152.657
 30
4932.570
 70
    32
  0
VERTEX
  8
T03SSILL
 62
4
 10
871.629
 20
167.146
 30
4932.570
 70
    32
  0
VERTEX
  8
T03SSILL
 62
4
 10
901.420
 20
221.792
 30
4932.570
 70
    32
  0
VERTEX
  8
T03SSILL
 62
4
 10
904.001
 20
230.626
 30
4932.570
 70
    32
  0
VERTEX
  8
T03SSILL
 62
4
 10
902.430
 20
235.260
 30
4932.570
 70
    32
  0
VERTEX
  8
T03SSILL
 62
4
 10
895.511
 20
239.016
 30
4932.570
 70
    32
  0
VERTEX
  8
T03SSILL
 62
4
 10
892.602
 20
244.859
 30
4932.570
 70
    32
  0
VERTEX
  8
T03SSILL
 62
4
 10
894.226
 20
253.062
 30
4932.570
 70
    32
  0
VERTEX
  8
T03SSILL
 62
4
 10
899.713
 20
267.043
 30
4932.570
 70
    32
  0
VERTEX
  8
T03SSILL
 62
4
 10
902.872
 20
283.536
 30
4932.570
 70
    32
  0
VERTEX
  8
T03SSILL
 62
4
 10
899.489
 20
307.570
 30
4932.570
 70
    32
  0
VERTEX
  8
T03SSILL
 62
4
 10
901.085
 20
317.531
 30
4932.570
 70
    32
  0
VERTEX
  8
T03SSILL
 62
4
 10
905.257
 20
325.864
 30
4932.570
 70
    32
  0
VERTEX
  8
T03SSILL
 62
4
 10
931.285
 20
357.853
 30
4932.570
 70
    32
  0
VERTEX
  8
T03SSILL
 62
4
 10
946.194
 20
370.933
 30
4932.570
 70
    32
  0
VERTEX
  8
T03SSILL
 62
4
 10
954.814
 20
386.812
 30
4932.570
 70
    32
  0
VERTEX
  8
T03SSILL
 62
4
 10
962.886
 20
398.549
 30
4932.570
 70
    32
  0
VERTEX
  8
T03SSILL
 62
4
 10
973.004
 20
408.913
 30
4932.570
 70
    32
  0
VERTEX
  8
T03SSILL
 62
4
 10
975.900
 20
419.951
 30
4932.570
 70
    32
  0
VERTEX
  8
T03SSILL
 62
4
 10
971.924
 20
431.931
 30
4932.570
 70
    32
  0
VERTEX
  8
T03SSILL
 62
4
 10
967.418
 20
438.627
 30
4932.570
 70
    32
  0
VERTEX
  8
T03SSILL
 62
4
 10
966.664
 20
447.143
 30
4932.570
 70
    32
  0
VERTEX
  8
T03SSILL
 62
4
 10
971.704
 20
461.468
 30
4932.570
 70
    32
  0
VERTEX
  8
T03SSILL
 62
4
 10
975.810
 20
479.207
 30
4932.570
 70
    32
  0
VERTEX
  8
T03SSILL
 62
4
 10
992.912
 20
497.950
 30
4932.570
 70
    32
  0
VERTEX
  8
T03SSILL
 62
4
 10
1001.242
 20
504.680
 30
4932.570
 70
    32
  0
VERTEX
  8
T03SSILL
 62
4
 10
1006.947
 20
505.301
 30
4932.570
 70
    32
  0
VERTEX
  8
T03SSILL
 62
4
 10
1063.213
 20
446.348
 30
4932.570
 70
    32
  0
VERTEX
  8
T03SSILL
 62
4
 10
1068.011
 20
443.261
 30
4932.570
 70
    32
  0
VERTEX
  8
T03SSILL
 62
4
 10
1079.498
 20
439.756
 30
4932.570
 70
    32
  0
VERTEX
  8
T03SSILL
 62
4
 10
1087.931
 20
434.795
 30
4932.570
 70
    32
  0
VERTEX
  8
T03SSILL
 62
4
 10
1093.556
 20
424.160
 30
4932.570
 70
    32
  0
VERTEX
  8
T03SSILL
 62
4
 10
1095.167
 20
417.065
 30
4932.570
 70
    32
  0
VERTEX
  8
T03SSILL
 62
4
 10
1120.203
 20
380.724
 30
4932.570
 70
    32
  0
VERTEX
  8
T03SSILL
 62
4
 10
1144.928
 20
358.006
 30
4932.570
 70
    32
  0
VERTEX
  8
T03SSILL
 62
4
 10
1161.441
 20
348.253
 30
4932.570
 70
    32
  0
VERTEX
  8
T03SSILL
 62
4
 10
1165.517
 20
340.934
 30
4932.570
 70
    32
  0
VERTEX
  8
T03SSILL
 62
4
 10
1168.433
 20
313.111
 30
4932.570
 70
    32
  0
VERTEX
  8
T03SSILL
 62
4
 10
1167.433
 20
304.391
 30
4932.570
 70
    32
  0
VERTEX
  8
T03SSILL
 62
4
 10
1087.345
 20
266.331
 30
4932.570
 70
    32
  0
VERTEX
  8
T03SSILL
 62
4
 10
1057.090
 20
261.616
 30
4932.570
 70
    32
  0
VERTEX
  8
T03SSILL
 62
4
 10
1036.444
 20
260.663
 30
4932.570
 70
    32
  0
VERTEX
  8
T03SSILL
 62
4
 10
1029.097
 20
258.345
 30
4932.570
 70
    32
  0
VERTEX
  8
T03SSILL
 62
4
 10
1025.902
 20
254.776
 30
4932.570
 70
    32
  0
VERTEX
  8
T03SSILL
 62
4
 10
1013.890
 20
231.280
 30
4932.570
 70
    32
  0
VERTEX
  8
T03SSILL
 62
4
 10
933.182
 20
193.474
 30
4932.570
 70
    32
  0
SEQEND
  8
T03SSILL
  0
POLYLINE
  8
T03SSILL
 62
4
 66
     1
 70
     9
  0
VERTEX
  8
T03SSILL
 62
4
 10
848.119
 20
260.748
 30
4932.570
 70
    32
  0
VERTEX
  8
T03SSILL
 62
4
 10
850.646
 20
256.745
 30
4932.570
 70
    32
  0
VERTEX
  8
T03SSILL
 62
4
 10
857.448
 20
254.746
 30
4932.570
 70
    32
  0
VERTEX
  8
T03SSILL
 62
4
 10
875.698
 20
257.067
 30
4932.570
 70
    32
  0
VERTEX
  8
T03SSILL
 62
4
 10
880.656
 20
260.313
 30
4932.570
 70
    32
  0
VERTEX
  8
T03SSILL
 62
4
 10
882.427
 20
270.277
 30
4932.570
 70
    32
  0
VERTEX
  8
T03SSILL
 62
4
 10
881.356
 20
298.130
 30
4932.570
 70
    32
  0
VERTEX
  8
T03SSILL
 62
4
 10
874.799
 20
306.639
 30
4932.570
 70
    32
  0
VERTEX
  8
T03SSILL
 62
4
 10
863.829
 20
305.405
 30
4932.570
 70
    32
  0
VERTEX
  8
T03SSILL
 62
4
 10
858.576
 20
304.088
 30
4932.570
 70
    32
  0
VERTEX
  8
T03SSILL
 62
4
 10
856.339
 20
301.062
 30
4932.570
 70
    32
  0
VERTEX
  8
T03SSILL
 62
4
 10
854.959
 20
294.094
 30
4932.570
 70
    32
  0
SEQEND
  8
T03SSILL
  0
POLYLINE
  8
T03SSILL
 62
4
 66
     1
 70
     9
  0
VERTEX
  8
T03SSILL
 62
4
 10
845.017
 20
165.480
 30
4932.570
 70
    32
  0
VERTEX
  8
T03SSILL
 62
4
 10
848.134
 20
168.433
 30
4932.570
 70
    32
  0
VERTEX
  8
T03SSILL
 62
4
 10
851.004
 20
175.689
 30
4932.570
 70
    32
  0
VERTEX
  8
T03SSILL
 62
4
 10
853.036
 20
185.833
 30
4932.570
 70
    32
  0
VERTEX
  8
T03SSILL
 62
4
 10
859.089
 20
202.813
 30
4932.570
 70
    32
  0
VERTEX
  8
T03SSILL
 62
4
 10
868.866
 20
217.831
 30
4932.570
 70
    32
  0
VERTEX
  8
T03SSILL
 62
4
 10
883.806
 20
234.340
 30
4932.570
 70
    32
  0
VERTEX
  8
T03SSILL
 62
4
 10
883.791
 20
240.670
 30
4932.570
 70
    32
  0
VERTEX
  8
T03SSILL
 62
4
 10
880.664
 20
243.696
 30
4932.570
 70
    32
  0
VERTEX
  8
T03SSILL
 62
4
 10
868.484
 20
246.574
 30
4932.570
 70
    32
  0
VERTEX
  8
T03SSILL
 62
4
 10
852.968
 20
249.134
 30
4932.570
 70
    32
  0
VERTEX
  8
T03SSILL
 62
4
 10
849.102
 20
248.983
 30
4932.570
 70
    32
  0
VERTEX
  8
T03SSILL
 62
4
 10
844.840
 20
246.188
 30
4932.570
 70
    32
  0
VERTEX
  8
T03SSILL
 62
4
 10
830.145
 20
177.018
 30
4932.570
 70
    32
  0
VERTEX
  8
T03SSILL
 62
4
 10
830.315
 20
172.010
 30
4932.570
 70
    32
  0
VERTEX
  8
T03SSILL
 62
4
 10
831.781
 20
168.429
 30
4932.570
 70
    32
  0
SEQEND
  8
T03SSILL
  0
POLYLINE
  8
T03SSILL
 62
4
 66
     1
 70
     9
  0
VERTEX
  8
T03SSILL
 62
4
 10
858.642
 20
101.082
 30
4932.570
 70
    32
  0
VERTEX
  8
T03SSILL
 62
4
 10
858.076
 20
103.447
 30
4932.570
 70
    32
  0
VERTEX
  8
T03SSILL
 62
4
 10
849.431
 20
110.603
 30
4932.570
 70
    32
  0
VERTEX
  8
T03SSILL
 62
4
 10
842.743
 20
100.207
 30
4932.570
 70
    32
  0
VERTEX
  8
T03SSILL
 62
4
 10
837.509
 20
81.570
 30
4932.570
 70
    32
  0
VERTEX
  8
T03SSILL
 62
4
 10
834.607
 20
54.707
 30
4932.570
 70
    32
  0
VERTEX
  8
T03SSILL
 62
4
 10
835.139
 20
49.089
 30
4932.570
 70
    32
  0
VERTEX
  8
T03SSILL
 62
4
 10
837.094
 20
47.802
 30
4932.570
 70
    32
  0
VERTEX
  8
T03SSILL
 62
4
 10
853.519
 20
48.774
 30
4932.570
 70
    32
  0
VERTEX
  8
T03SSILL
 62
4
 10
857.772
 20
52.184
 30
4932.570
 70
    32
  0
SEQEND
  8
T03SSILL
  0
POLYLINE
  8
T03SSILL
 62
4
 66
     1
 70
     9
  0
VERTEX
  8
T03SSILL
 62
4
 10
856.755
 20
1.438
 30
4932.570
 70
    32
  0
VERTEX
  8
T03SSILL
 62
4
 10
848.815
 20
-2.296
 30
4932.570
 70
    32
  0
VERTEX
  8
T03SSILL
 62
4
 10
837.951
 20
-4.584
 30
4932.570
 70
    32
  0
VERTEX
  8
T03SSILL
 62
4
 10
827.488
 20
-4.579
 30
4932.570
 70
    32
  0
VERTEX
  8
T03SSILL
 62
4
 10
821.176
 20
-0.287
 30
4932.570
 70
    32
  0
VERTEX
  8
T03SSILL
 62
4
 10
820.141
 20
3.829
 30
4932.570
 70
    32
  0
VERTEX
  8
T03SSILL
 62
4
 10
824.303
 20
12.777
 30
4932.570
 70
    32
  0
VERTEX
  8
T03SSILL
 62
4
 10
834.503
 20
28.857
 30
4932.570
 70
    32
  0
VERTEX
  8
T03SSILL
 62
4
 10
839.391
 20
41.773
 30
4932.570
 70
    32
  0
VERTEX
  8
T03SSILL
 62
4
 10
854.061
 20
42.540
 30
4932.570
 70
    32
  0
VERTEX
  8
T03SSILL
 62
4
 10
857.356
 20
39.957
 30
4932.570
 70
    32
  0
SEQEND
  8
T03SSILL
  0
POLYLINE
  8
T03SSILL
 62
4
 66
     1
 70
     9
  0
VERTEX
  8
T03SSILL
 62
4
 10
855.418
 20
-61.974
 30
4932.570
 70
    32
  0
VERTEX
  8
T03SSILL
 62
4
 10
833.545
 20
-57.760
 30
4932.570
 70
    32
  0
VERTEX
  8
T03SSILL
 62
4
 10
828.201
 20
-48.176
 30
4932.570
 70
    32
  0
VERTEX
  8
T03SSILL
 62
4
 10
814.011
 20
-46.034
 30
4932.570
 70
    32
  0
VERTEX
  8
T03SSILL
 62
4
 10
808.497
 20
-47.531
 30
4932.570
 70
    32
  0
VERTEX
  8
T03SSILL
 62
4
 10
804.426
 20
-51.290
 30
4932.570
 70
    32
  0
VERTEX
  8
T03SSILL
 62
4
 10
801.682
 20
-50.192
 30
4932.570
 70
    32
  0
VERTEX
  8
T03SSILL
 62
4
 10
807.352
 20
-36.648
 30
4932.570
 70
    32
  0
VERTEX
  8
T03SSILL
 62
4
 10
807.709
 20
-31.631
 30
4932.570
 70
    32
  0
VERTEX
  8
T03SSILL
 62
4
 10
806.582
 20
-27.253
 30
4932.570
 70
    32
  0
VERTEX
  8
T03SSILL
 62
4
 10
814.647
 20
-9.625
 30
4932.570
 70
    32
  0
VERTEX
  8
T03SSILL
 62
4
 10
818.557
 20
-6.836
 30
4932.570
 70
    32
  0
VERTEX
  8
T03SSILL
 62
4
 10
827.500
 20
-10.646
 30
4932.570
 70
    32
  0
VERTEX
  8
T03SSILL
 62
4
 10
835.338
 20
-11.485
 30
4932.570
 70
    32
  0
VERTEX
  8
T03SSILL
 62
4
 10
853.016
 20
-6.448
 30
4932.570
 70
    32
  0
VERTEX
  8
T03SSILL
 62
4
 10
856.482
 20
-8.765
 30
4932.570
 70
    32
  0
SEQEND
  8
T03SSILL
  0
POLYLINE
  8
T03SSILL
 62
4
 66
     1
 70
     9
  0
VERTEX
  8
T03SSILL
 62
4
 10
855.222
 20
-71.473
 30
4932.570
 70
    32
  0
VERTEX
  8
T03SSILL
 62
4
 10
845.052
 20
-67.858
 30
4932.570
 70
    32
  0
VERTEX
  8
T03SSILL
 62
4
 10
833.330
 20
-66.116
 30
4932.570
 70
    32
  0
VERTEX
  8
T03SSILL
 62
4
 10
821.360
 20
-76.071
 30
4932.570
 70
    32
  0
VERTEX
  8
T03SSILL
 62
4
 10
816.131
 20
-78.882
 30
4932.570
 70
    32
  0
VERTEX
  8
T03SSILL
 62
4
 10
808.815
 20
-77.770
 30
4932.570
 70
    32
  0
VERTEX
  8
T03SSILL
 62
4
 10
801.707
 20
-73.227
 30
4932.570
 70
    32
  0
VERTEX
  8
T03SSILL
 62
4
 10
801.442
 20
-56.966
 30
4932.570
 70
    32
  0
VERTEX
  8
T03SSILL
 62
4
 10
798.701
 20
-56.044
 30
4932.570
 70
    32
  0
VERTEX
  8
T03SSILL
 62
4
 10
790.927
 20
-69.886
 30
4932.570
 70
    32
  0
VERTEX
  8
T03SSILL
 62
4
 10
793.026
 20
-74.600
 30
4932.570
 70
    32
  0
VERTEX
  8
T03SSILL
 62
4
 10
785.069
 20
-77.280
 30
4932.570
 70
    32
  0
VERTEX
  8
T03SSILL
 62
4
 10
780.624
 20
-95.815
 30
4932.570
 70
    32
  0
VERTEX
  8
T03SSILL
 62
4
 10
780.400
 20
-114.370
 30
4932.570
 70
    32
  0
VERTEX
  8
T03SSILL
 62
4
 10
777.269
 20
-127.170
 30
4932.570
 70
    32
  0
VERTEX
  8
T03SSILL
 62
4
 10
770.215
 20
-142.056
 30
4932.570
 70
    32
  0
VERTEX
  8
T03SSILL
 62
4
 10
751.988
 20
-199.502
 30
4932.570
 70
    32
  0
VERTEX
  8
T03SSILL
 62
4
 10
752.864
 20
-236.941
 30
4932.570
 70
    32
  0
VERTEX
  8
T03SSILL
 62
4
 10
757.922
 20
-245.211
 30
4932.570
 70
    32
  0
VERTEX
  8
T03SSILL
 62
4
 10
762.461
 20
-248.565
 30
4932.570
 70
    32
  0
VERTEX
  8
T03SSILL
 62
4
 10
841.120
 20
-193.032
 30
4932.570
 70
    32
  0
VERTEX
  8
T03SSILL
 62
4
 10
846.651
 20
-181.776
 30
4932.570
 70
    32
  0
VERTEX
  8
T03SSILL
 62
4
 10
852.764
 20
-163.125
 30
4932.570
 70
    32
  0
VERTEX
  8
T03SSILL
 62
4
 10
854.004
 20
-120.640
 30
4932.570
 70
    32
  0
SEQEND
  8
T03SSILL
  0
POLYLINE
  8
T03SSILL
 62
4
 66
     1
 70
     9
  0
VERTEX
  8
T03SSILL
 62
4
 10
921.845
 20
-134.740
 30
4932.570
 70
    32
  0
VERTEX
  8
T03SSILL
 62
4
 10
919.219
 20
-119.309
 30
4932.570
 70
    32
  0
VERTEX
  8
T03SSILL
 62
4
 10
914.941
 20
-105.048
 30
4932.570
 70
    32
  0
VERTEX
  8
T03SSILL
 62
4
 10
903.544
 20
-90.904
 30
4932.570
 70
    32
  0
VERTEX
  8
T03SSILL
 62
4
 10
904.066
 20
-85.181
 30
4932.570
 70
    32
  0
VERTEX
  8
T03SSILL
 62
4
 10
896.983
 20
-71.405
 30
4932.570
 70
    32
  0
VERTEX
  8
T03SSILL
 62
4
 10
882.924
 20
-50.446
 30
4932.570
 70
    32
  0
VERTEX
  8
T03SSILL
 62
4
 10
877.205
 20
-50.188
 30
4932.570
 70
    32
  0
VERTEX
  8
T03SSILL
 62
4
 10
873.971
 20
-40.570
 30
4932.570
 70
    32
  0
VERTEX
  8
T03SSILL
 62
4
 10
870.323
 20
-21.815
 30
4932.570
 70
    32
  0
VERTEX
  8
T03SSILL
 62
4
 10
866.181
 20
-15.816
 30
4932.570
 70
    32
  0
VERTEX
  8
T03SSILL
 62
4
 10
863.985
 20
-15.940
 30
4932.570
 70
    32
  0
VERTEX
  8
T03SSILL
 62
4
 10
862.237
 20
-86.480
 30
4932.570
 70
    32
  0
VERTEX
  8
T03SSILL
 62
4
 10
865.551
 20
-122.473
 30
4932.570
 70
    32
  0
VERTEX
  8
T03SSILL
 62
4
 10
870.303
 20
-122.747
 30
4932.570
 70
    32
  0
VERTEX
  8
T03SSILL
 62
4
 10
869.972
 20
-129.346
 30
4932.570
 70
    32
  0
VERTEX
  8
T03SSILL
 62
4
 10
865.583
 20
-129.770
 30
4932.570
 70
    32
  0
VERTEX
  8
T03SSILL
 62
4
 10
861.301
 20
-158.238
 30
4932.570
 70
    32
  0
VERTEX
  8
T03SSILL
 62
4
 10
860.144
 20
-178.918
 30
4932.570
 70
    32
  0
SEQEND
  8
T03SSILL
  0
POLYLINE
  8
T03SSILL
 62
4
 66
     1
 70
     9
  0
VERTEX
  8
T03SSILL
 62
4
 10
811.629
 20
-222.968
 30
4932.570
 70
    32
  0
VERTEX
  8
T03SSILL
 62
4
 10
812.563
 20
-226.294
 30
4932.570
 70
    32
  0
VERTEX
  8
T03SSILL
 62
4
 10
804.016
 20
-241.292
 30
4932.570
 70
    32
  0
VERTEX
  8
T03SSILL
 62
4
 10
802.454
 20
-247.911
 30
4932.570
 70
    32
  0
VERTEX
  8
T03SSILL
 62
4
 10
802.068
 20
-272.711
 30
4932.570
 70
    32
  0
VERTEX
  8
T03SSILL
 62
4
 10
798.768
 20
-291.316
 30
4932.570
 70
    32
  0
VERTEX
  8
T03SSILL
 62
4
 10
796.978
 20
-289.411
 30
4932.570
 70
    32
  0
VERTEX
  8
T03SSILL
 62
4
 10
789.752
 20
-293.749
 30
4932.570
 70
    32
  0
VERTEX
  8
T03SSILL
 62
4
 10
778.427
 20
-267.910
 30
4932.570
 70
    32
  0
VERTEX
  8
T03SSILL
 62
4
 10
779.588
 20
-252.857
 30
4932.570
 70
    32
  0
VERTEX
  8
T03SSILL
 62
4
 10
789.554
 20
-243.990
 30
4932.570
 70
    32
  0
VERTEX
  8
T03SSILL
 62
4
 10
793.261
 20
-239.533
 30
4932.570
 70
    32
  0
VERTEX
  8
T03SSILL
 62
4
 10
795.457
 20
-234.047
 30
4932.570
 70
    32
  0
SEQEND
  8
T03SSILL
  0
POLYLINE
  8
T03SSILL
 62
4
 66
     1
 70
     9
  0
VERTEX
  8
T03SSILL
 62
4
 10
757.413
 20
-58.126
 30
4932.570
 70
    32
  0
VERTEX
  8
T03SSILL
 62
4
 10
776.518
 20
-59.747
 30
4932.570
 70
    32
  0
VERTEX
  8
T03SSILL
 62
4
 10
782.264
 20
-61.676
 30
4932.570
 70
    32
  0
VERTEX
  8
T03SSILL
 62
4
 10
786.663
 20
-56.504
 30
4932.570
 70
    32
  0
VERTEX
  8
T03SSILL
 62
4
 10
789.106
 20
-55.321
 30
4932.570
 70
    32
  0
VERTEX
  8
T03SSILL
 62
4
 10
793.510
 20
-39.688
 30
4932.570
 70
    32
  0
VERTEX
  8
T03SSILL
 62
4
 10
808.913
 20
-3.125
 30
4932.570
 70
    32
  0
VERTEX
  8
T03SSILL
 62
4
 10
800.563
 20
2.102
 30
4932.570
 70
    32
  0
VERTEX
  8
T03SSILL
 62
4
 10
793.225
 20
-0.744
 30
4932.570
 70
    32
  0
VERTEX
  8
T03SSILL
 62
4
 10
760.604
 20
-38.204
 30
4932.570
 70
    32
  0
VERTEX
  8
T03SSILL
 62
4
 10
757.167
 20
-43.095
 30
4932.570
 70
    32
  0
VERTEX
  8
T03SSILL
 62
4
 10
756.554
 20
-48.644
 30
4932.570
 70
    32
  0
SEQEND
  8
T03SSILL
  0
POLYLINE
  8
T03SSILL
 62
4
 66
     1
 70
     9
  0
VERTEX
  8
T03SSILL
 62
4
 10
755.073
 20
-108.630
 30
4932.570
 70
    32
  0
VERTEX
  8
T03SSILL
 62
4
 10
757.447
 20
-108.591
 30
4932.570
 70
    32
  0
VERTEX
  8
T03SSILL
 62
4
 10
761.176
 20
-94.727
 30
4932.570
 70
    32
  0
VERTEX
  8
T03SSILL
 62
4
 10
770.596
 20
-84.726
 30
4932.570
 70
    32
  0
VERTEX
  8
T03SSILL
 62
4
 10
778.999
 20
-71.664
 30
4932.570
 70
    32
  0
VERTEX
  8
T03SSILL
 62
4
 10
779.198
 20
-67.704
 30
4932.570
 70
    32
  0
VERTEX
  8
T03SSILL
 62
4
 10
767.196
 20
-64.999
 30
4932.570
 70
    32
  0
VERTEX
  8
T03SSILL
 62
4
 10
758.771
 20
-65.928
 30
4932.570
 70
    32
  0
VERTEX
  8
T03SSILL
 62
4
 10
737.860
 20
-77.524
 30
4932.570
 70
    32
  0
VERTEX
  8
T03SSILL
 62
4
 10
731.264
 20
-88.182
 30
4932.570
 70
    32
  0
VERTEX
  8
T03SSILL
 62
4
 10
727.545
 20
-97.299
 30
4932.570
 70
    32
  0
VERTEX
  8
T03SSILL
 62
4
 10
731.470
 20
-100.751
 30
4932.570
 70
    32
  0
SEQEND
  8
T03SSILL
  0
POLYLINE
  8
T03SSILL
 62
4
 66
     1
 70
     9
  0
VERTEX
  8
T03SSILL
 62
4
 10
741.867
 20
-155.883
 30
4932.570
 70
    32
  0
VERTEX
  8
T03SSILL
 62
4
 10
752.826
 20
-127.130
 30
4932.570
 70
    32
  0
VERTEX
  8
T03SSILL
 62
4
 10
755.219
 20
-117.507
 30
4932.570
 70
    32
  0
VERTEX
  8
T03SSILL
 62
4
 10
752.168
 20
-113.777
 30
4932.570
 70
    32
  0
VERTEX
  8
T03SSILL
 62
4
 10
725.938
 20
-106.557
 30
4932.570
 70
    32
  0
VERTEX
  8
T03SSILL
 62
4
 10
722.281
 20
-108.727
 30
4932.570
 70
    32
  0
VERTEX
  8
T03SSILL
 62
4
 10
711.297
 20
-141.349
 30
4932.570
 70
    32
  0
VERTEX
  8
T03SSILL
 62
4
 10
712.673
 20
-144.843
 30
4932.570
 70
    32
  0
VERTEX
  8
T03SSILL
 62
4
 10
717.193
 20
-147.055
 30
4932.570
 70
    32
  0
SEQEND
  8
T03SSILL
  0
POLYLINE
  8
T03SSILL
 62
4
 66
     1
 70
     9
  0
VERTEX
  8
T03SSILL
 62
4
 10
709.788
 20
-194.213
 30
4932.570
 70
    32
  0
VERTEX
  8
T03SSILL
 62
4
 10
704.102
 20
-190.613
 30
4932.570
 70
    32
  0
VERTEX
  8
T03SSILL
 62
4
 10
702.593
 20
-157.492
 30
4932.570
 70
    32
  0
VERTEX
  8
T03SSILL
 62
4
 10
703.788
 20
-155.275
 30
4932.570
 70
    32
  0
VERTEX
  8
T03SSILL
 62
4
 10
711.991
 20
-151.536
 30
4932.570
 70
    32
  0
VERTEX
  8
T03SSILL
 62
4
 10
714.805
 20
-151.578
 30
4932.570
 70
    32
  0
VERTEX
  8
T03SSILL
 62
4
 10
738.103
 20
-162.275
 30
4932.570
 70
    32
  0
VERTEX
  8
T03SSILL
 62
4
 10
736.026
 20
-175.057
 30
4932.570
 70
    32
  0
VERTEX
  8
T03SSILL
 62
4
 10
731.430
 20
-189.727
 30
4932.570
 70
    32
  0
VERTEX
  8
T03SSILL
 62
4
 10
728.285
 20
-190.921
 30
4932.570
 70
    32
  0
SEQEND
  8
T03SSILL
  0
POLYLINE
  8
T03SSILL
 62
4
 66
     1
 70
     9
  0
VERTEX
  8
T03SSILL
 62
4
 10
729.857
 20
-195.643
 30
4932.570
 70
    32
  0
VERTEX
  8
T03SSILL
 62
4
 10
729.436
 20
-223.697
 30
4932.570
 70
    32
  0
VERTEX
  8
T03SSILL
 62
4
 10
727.519
 20
-235.509
 30
4932.570
 70
    32
  0
VERTEX
  8
T03SSILL
 62
4
 10
723.058
 20
-242.264
 30
4932.570
 70
    32
  0
VERTEX
  8
T03SSILL
 62
4
 10
717.499
 20
-246.399
 30
4932.570
 70
    32
  0
VERTEX
  8
T03SSILL
 62
4
 10
711.820
 20
-248.602
 30
4932.570
 70
    32
  0
VERTEX
  8
T03SSILL
 62
4
 10
709.165
 20
-231.413
 30
4932.570
 70
    32
  0
VERTEX
  8
T03SSILL
 62
4
 10
708.621
 20
-208.915
 30
4932.570
 70
    32
  0
VERTEX
  8
T03SSILL
 62
4
 10
712.113
 20
-202.000
 30
4932.570
 70
    32
  0
VERTEX
  8
T03SSILL
 62
4
 10
716.959
 20
-197.261
 30
4932.570
 70
    32
  0
SEQEND
  8
T03SSILL
  0
POLYLINE
  8
T03SSILL
 62
4
 66
     1
 70
     9
  0
VERTEX
  8
T03SSILL
 62
4
 10
753.844
 20
-253.894
 30
4932.570
 70
    32
  0
VERTEX
  8
T03SSILL
 62
4
 10
750.347
 20
-244.367
 30
4932.570
 70
    32
  0
VERTEX
  8
T03SSILL
 62
4
 10
747.019
 20
-239.762
 30
4932.570
 70
    32
  0
VERTEX
  8
T03SSILL
 62
4
 10
741.205
 20
-239.066
 30
4932.570
 70
    32
  0
VERTEX
  8
T03SSILL
 62
4
 10
733.502
 20
-241.126
 30
4932.570
 70
    32
  0
VERTEX
  8
T03SSILL
 62
4
 10
724.375
 20
-247.518
 30
4932.570
 70
    32
  0
VERTEX
  8
T03SSILL
 62
4
 10
720.732
 20
-250.567
 30
4932.570
 70
    32
  0
VERTEX
  8
T03SSILL
 62
4
 10
714.109
 20
-264.918
 30
4932.570
 70
    32
  0
VERTEX
  8
T03SSILL
 62
4
 10
713.891
 20
-273.098
 30
4932.570
 70
    32
  0
VERTEX
  8
T03SSILL
 62
4
 10
716.481
 20
-280.968
 30
4932.570
 70
    32
  0
SEQEND
  8
T03SSILL
  0
POLYLINE
  8
T03SSILL
 62
4
 66
     1
 70
     9
  0
VERTEX
  8
T03SSILL
 62
4
 10
-313.245
 20
-169.129
 30
4932.570
 70
    32
  0
VERTEX
  8
T03SSILL
 62
4
 10
-291.314
 20
-156.777
 30
4932.570
 70
    32
  0
VERTEX
  8
T03SSILL
 62
4
 10
-282.355
 20
-148.648
 30
4932.570
 70
    32
  0
VERTEX
  8
T03SSILL
 62
4
 10
-283.719
 20
-145.409
 30
4932.570
 70
    32
  0
VERTEX
  8
T03SSILL
 62
4
 10
-294.336
 20
-141.324
 30
4932.570
 70
    32
  0
VERTEX
  8
T03SSILL
 62
4
 10
-306.282
 20
-149.934
 30
4932.570
 70
    32
  0
VERTEX
  8
T03SSILL
 62
4
 10
-309.769
 20
-145.843
 30
4932.570
 70
    32
  0
VERTEX
  8
T03SSILL
 62
4
 10
-325.853
 20
-147.729
 30
4932.570
 70
    32
  0
SEQEND
  8
T03SSILL
  0
POLYLINE
  8
T03SSILL
 62
4
 66
     1
 70
     9
  0
VERTEX
  8
T03SSILL
 62
4
 10
-208.654
 20
-123.812
 30
4932.570
 70
    32
  0
VERTEX
  8
T03SSILL
 62
4
 10
-193.249
 20
-130.386
 30
4932.570
 70
    32
  0
VERTEX
  8
T03SSILL
 62
4
 10
-165.444
 20
-149.382
 30
4932.570
 70
    32
  0
VERTEX
  8
T03SSILL
 62
4
 10
-115.562
 20
-239.828
 30
4932.570
 70
    32
  0
VERTEX
  8
T03SSILL
 62
4
 10
-112.915
 20
-246.923
 30
4932.570
 70
    32
  0
VERTEX
  8
T03SSILL
 62
4
 10
-115.660
 20
-252.330
 30
4932.570
 70
    32
  0
VERTEX
  8
T03SSILL
 62
4
 10
-129.736
 20
-259.559
 30
4932.570
 70
    32
  0
VERTEX
  8
T03SSILL
 62
4
 10
-134.466
 20
-254.780
 30
4932.570
 70
    32
  0
VERTEX
  8
T03SSILL
 62
4
 10
-140.235
 20
-257.850
 30
4932.570
 70
    32
  0
VERTEX
  8
T03SSILL
 62
4
 10
-140.946
 20
-263.933
 30
4932.570
 70
    32
  0
VERTEX
  8
T03SSILL
 62
4
 10
-200.013
 20
-290.423
 30
4932.570
 70
    32
  0
VERTEX
  8
T03SSILL
 62
4
 10
-258.552
 20
-151.324
 30
4932.570
 70
    32
  0
SEQEND
  8
T03SSILL
  0
POLYLINE
  8
T03SSILL
 62
4
 66
     1
 70
     9
  0
VERTEX
  8
T03SSILL
 62
4
 10
-265.991
 20
-154.592
 30
4932.570
 70
    32
  0
VERTEX
  8
T03SSILL
 62
4
 10
-238.996
 20
-218.582
 30
4932.570
 70
    32
  0
VERTEX
  8
T03SSILL
 62
4
 10
-262.986
 20
-228.320
 30
4932.570
 70
    32
  0
VERTEX
  8
T03SSILL
 62
4
 10
-288.179
 20
-167.475
 30
4932.570
 70
    32
  0
SEQEND
  8
T03SSILL
  0
POLYLINE
  8
T03SSILL
 62
4
 66
     1
 70
     9
  0
VERTEX
  8
T03SSILL
 62
4
 10
-236.193
 20
-224.178
 30
4932.570
 70
    32
  0
VERTEX
  8
T03SSILL
 62
4
 10
-206.493
 20
-292.974
 30
4932.570
 70
    32
  0
VERTEX
  8
T03SSILL
 62
4
 10
-228.792
 20
-297.495
 30
4932.570
 70
    32
  0
VERTEX
  8
T03SSILL
 62
4
 10
-235.691
 20
-295.034
 30
4932.570
 70
    32
  0
VERTEX
  8
T03SSILL
 62
4
 10
-261.055
 20
-234.544
 30
4932.570
 70
    32
  0
SEQEND
  8
T03SSILL
  0
POLYLINE
  8
T03SSILL
 62
4
 66
     1
 70
     9
  0
VERTEX
  8
T03SSILL
 62
4
 10
-309.472
 20
-174.800
 30
4932.570
 70
    32
  0
VERTEX
  8
T03SSILL
 62
4
 10
-294.317
 20
-169.229
 30
4932.570
 70
    32
  0
VERTEX
  8
T03SSILL
 62
4
 10
-286.341
 20
-193.155
 30
4932.570
 70
    32
  0
VERTEX
  8
T03SSILL
 62
4
 10
-274.225
 20
-223.892
 30
4932.570
 70
    32
  0
VERTEX
  8
T03SSILL
 62
4
 10
-268.291
 20
-246.436
 30
4932.570
 70
    32
  0
VERTEX
  8
T03SSILL
 62
4
 10
-248.269
 20
-282.525
 30
4932.570
 70
    32
  0
VERTEX
  8
T03SSILL
 62
4
 10
-242.973
 20
-296.892
 30
4932.570
 70
    32
  0
VERTEX
  8
T03SSILL
 62
4
 10
-241.437
 20
-306.466
 30
4932.570
 70
    32
  0
VERTEX
  8
T03SSILL
 62
4
 10
-255.331
 20
-307.531
 30
4932.570
 70
    32
  0
VERTEX
  8
T03SSILL
 62
4
 10
-265.618
 20
-275.362
 30
4932.570
 70
    32
  0
VERTEX
  8
T03SSILL
 62
4
 10
-271.396
 20
-277.727
 30
4932.570
 70
    32
  0
VERTEX
  8
T03SSILL
 62
4
 10
-291.420
 20
-221.655
 30
4932.570
 70
    32
  0
VERTEX
  8
T03SSILL
 62
4
 10
-295.715
 20
-223.033
 30
4932.570
 70
    32
  0
VERTEX
  8
T03SSILL
 62
4
 10
-295.981
 20
-196.364
 30
4932.570
 70
    32
  0
SEQEND
  8
T03SSILL
  0
POLYLINE
  8
T03SSILL
 62
4
 66
     1
 70
     9
  0
VERTEX
  8
T03SSILL
 62
4
 10
-444.465
 20
-363.390
 30
4932.570
 70
    32
  0
VERTEX
  8
T03SSILL
 62
4
 10
-440.536
 20
-367.651
 30
4932.570
 70
    32
  0
VERTEX
  8
T03SSILL
 62
4
 10
-432.954
 20
-368.519
 30
4932.570
 70
    32
  0
VERTEX
  8
T03SSILL
 62
4
 10
-386.442
 20
-364.380
 30
4932.570
 70
    32
  0
VERTEX
  8
T03SSILL
 62
4
 10
-383.929
 20
-361.353
 30
4932.570
 70
    32
  0
VERTEX
  8
T03SSILL
 62
4
 10
-383.897
 20
-357.128
 30
4932.570
 70
    32
  0
VERTEX
  8
T03SSILL
 62
4
 10
-386.678
 20
-353.203
 30
4932.570
 70
    32
  0
VERTEX
  8
T03SSILL
 62
4
 10
-390.958
 20
-342.521
 30
4932.570
 70
    32
  0
VERTEX
  8
T03SSILL
 62
4
 10
-397.001
 20
-344.802
 30
4932.570
 70
    32
  0
VERTEX
  8
T03SSILL
 62
4
 10
-401.379
 20
-333.328
 30
4932.570
 70
    32
  0
VERTEX
  8
T03SSILL
 62
4
 10
-408.041
 20
-335.441
 30
4932.570
 70
    32
  0
VERTEX
  8
T03SSILL
 62
4
 10
-409.434
 20
-330.002
 30
4932.570
 70
    32
  0
VERTEX
  8
T03SSILL
 62
4
 10
-415.130
 20
-331.926
 30
4932.570
 70
    32
  0
VERTEX
  8
T03SSILL
 62
4
 10
-428.327
 20
-299.355
 30
4932.570
 70
    32
  0
VERTEX
  8
T03SSILL
 62
4
 10
-433.942
 20
-300.750
 30
4932.570
 70
    32
  0
VERTEX
  8
T03SSILL
 62
4
 10
-442.326
 20
-279.295
 30
4932.570
 70
    32
  0
VERTEX
  8
T03SSILL
 62
4
 10
-451.080
 20
-283.021
 30
4932.570
 70
    32
  0
VERTEX
  8
T03SSILL
 62
4
 10
-451.713
 20
-288.311
 30
4932.570
 70
    32
  0
SEQEND
  8
T03SSILL
  0
POLYLINE
  8
T03SSILL
 62
4
 66
     1
 70
     9
  0
VERTEX
  8
T03SSILL
 62
4
 10
-99.612
 20
-234.511
 30
4932.570
 70
    32
  0
VERTEX
  8
T03SSILL
 62
4
 10
-105.241
 20
-234.850
 30
4932.570
 70
    32
  0
VERTEX
  8
T03SSILL
 62
4
 10
-107.899
 20
-240.167
 30
4932.570
 70
    32
  0
VERTEX
  8
T03SSILL
 62
4
 10
-100.467
 20
-249.663
 30
4932.570
 70
    32
  0
VERTEX
  8
T03SSILL
 62
4
 10
-97.133
 20
-248.826
 30
4932.570
 70
    32
  0
SEQEND
  8
T03SSILL
  0
POLYLINE
  8
T03SSILL
 62
4
 66
     1
 70
     9
  0
VERTEX
  8
T03SSILL
 62
4
 10
-202.431
 20
-300.578
 30
4932.570
 70
    32
  0
VERTEX
  8
T03SSILL
 62
4
 10
-227.030
 20
-310.852
 30
4932.570
 70
    32
  0
VERTEX
  8
T03SSILL
 62
4
 10
-223.841
 20
-318.996
 30
4932.570
 70
    32
  0
VERTEX
  8
T03SSILL
 62
4
 10
-228.474
 20
-321.435
 30
4932.570
 70
    32
  0
VERTEX
  8
T03SSILL
 62
4
 10
-231.393
 20
-313.727
 30
4932.570
 70
    32
  0
VERTEX
  8
T03SSILL
 62
4
 10
-249.954
 20
-321.368
 30
4932.570
 70
    32
  0
VERTEX
  8
T03SSILL
 62
4
 10
-243.013
 20
-340.202
 30
4932.570
 70
    32
  0
VERTEX
  8
T03SSILL
 62
4
 10
-194.607
 20
-319.664
 30
4932.570
 70
    32
  0
SEQEND
  8
T03SSILL
  0
POLYLINE
  8
T03SSILL
 62
4
 66
     1
 70
     9
  0
VERTEX
  8
T03SSILL
 62
4
 10
-196.047
 20
-297.412
 30
4932.570
 70
    32
  0
VERTEX
  8
T03SSILL
 62
4
 10
-127.959
 20
-267.458
 30
4932.570
 70
    32
  0
VERTEX
  8
T03SSILL
 62
4
 10
-122.148
 20
-274.159
 30
4932.570
 70
    32
  0
VERTEX
  8
T03SSILL
 62
4
 10
-117.073
 20
-271.891
 30
4932.570
 70
    32
  0
VERTEX
  8
T03SSILL
 62
4
 10
-117.981
 20
-263.188
 30
4932.570
 70
    32
  0
VERTEX
  8
T03SSILL
 62
4
 10
-110.543
 20
-259.832
 30
4932.570
 70
    32
  0
VERTEX
  8
T03SSILL
 62
4
 10
-106.915
 20
-261.192
 30
4932.570
 70
    32
  0
VERTEX
  8
T03SSILL
 62
4
 10
-103.442
 20
-264.227
 30
4932.570
 70
    32
  0
VERTEX
  8
T03SSILL
 62
4
 10
32.256
 20
-512.775
 30
4932.570
 70
    32
  0
VERTEX
  8
T03SSILL
 62
4
 10
14.698
 20
-536.248
 30
4932.570
 70
    32
  0
VERTEX
  8
T03SSILL
 62
4
 10
-28.987
 20
-554.347
 30
4932.570
 70
    32
  0
VERTEX
  8
T03SSILL
 62
4
 10
-44.891
 20
-516.794
 30
4932.570
 70
    32
  0
VERTEX
  8
T03SSILL
 62
4
 10
-49.881
 20
-518.885
 30
4932.570
 70
    32
  0
VERTEX
  8
T03SSILL
 62
4
 10
-71.442
 20
-459.752
 30
4932.570
 70
    32
  0
VERTEX
  8
T03SSILL
 62
4
 10
-147.642
 20
-415.783
 30
4932.570
 70
    32
  0
SEQEND
  8
T03SSILL
  0
POLYLINE
  8
T03SSILL
 62
4
 66
     1
 70
     9
  0
VERTEX
  8
T03SSILL
 62
4
 10
-246.320
 20
-349.665
 30
4932.570
 70
    32
  0
VERTEX
  8
T03SSILL
 62
4
 10
-192.144
 20
-326.146
 30
4932.570
 70
    32
  0
VERTEX
  8
T03SSILL
 62
4
 10
-165.748
 20
-391.376
 30
4932.570
 70
    32
  0
VERTEX
  8
T03SSILL
 62
4
 10
-211.704
 20
-410.913
 30
4932.570
 70
    32
  0
VERTEX
  8
T03SSILL
 62
4
 10
-209.238
 20
-417.570
 30
4932.570
 70
    32
  0
VERTEX
  8
T03SSILL
 62
4
 10
-162.493
 20
-397.847
 30
4932.570
 70
    32
  0
VERTEX
  8
T03SSILL
 62
4
 10
-154.322
 20
-416.576
 30
4932.570
 70
    32
  0
VERTEX
  8
T03SSILL
 62
4
 10
-157.325
 20
-422.426
 30
4932.570
 70
    32
  0
VERTEX
  8
T03SSILL
 62
4
 10
-192.595
 20
-457.754
 30
4932.570
 70
    32
  0
VERTEX
  8
T03SSILL
 62
4
 10
-191.372
 20
-463.635
 30
4932.570
 70
    32
  0
VERTEX
  8
T03SSILL
 62
4
 10
-187.670
 20
-470.628
 30
4932.570
 70
    32
  0
VERTEX
  8
T03SSILL
 62
4
 10
-185.964
 20
-486.451
 30
4932.570
 70
    32
  0
VERTEX
  8
T03SSILL
 62
4
 10
-183.275
 20
-490.024
 30
4932.570
 70
    32
  0
VERTEX
  8
T03SSILL
 62
4
 10
-167.692
 20
-476.965
 30
4932.570
 70
    32
  0
VERTEX
  8
T03SSILL
 62
4
 10
-166.631
 20
-470.701
 30
4932.570
 70
    32
  0
VERTEX
  8
T03SSILL
 62
4
 10
-163.163
 20
-466.693
 30
4932.570
 70
    32
  0
VERTEX
  8
T03SSILL
 62
4
 10
-167.393
 20
-453.105
 30
4932.570
 70
    32
  0
VERTEX
  8
T03SSILL
 62
4
 10
-168.017
 20
-445.895
 30
4932.570
 70
    32
  0
VERTEX
  8
T03SSILL
 62
4
 10
-162.042
 20
-438.422
 30
4932.570
 70
    32
  0
VERTEX
  8
T03SSILL
 62
4
 10
-147.431
 20
-425.023
 30
4932.570
 70
    32
  0
VERTEX
  8
T03SSILL
 62
4
 10
-80.656
 20
-461.900
 30
4932.570
 70
    32
  0
VERTEX
  8
T03SSILL
 62
4
 10
-93.294
 20
-464.796
 30
4932.570
 70
    32
  0
VERTEX
  8
T03SSILL
 62
4
 10
-103.348
 20
-469.948
 30
4932.570
 70
    32
  0
VERTEX
  8
T03SSILL
 62
4
 10
-110.812
 20
-477.969
 30
4932.570
 70
    32
  0
VERTEX
  8
T03SSILL
 62
4
 10
-145.059
 20
-497.527
 30
4932.570
 70
    32
  0
VERTEX
  8
T03SSILL
 62
4
 10
-153.120
 20
-493.761
 30
4932.570
 70
    32
  0
VERTEX
  8
T03SSILL
 62
4
 10
-161.445
 20
-496.600
 30
4932.570
 70
    32
  0
VERTEX
  8
T03SSILL
 62
4
 10
-169.457
 20
-503.133
 30
4932.570
 70
    32
  0
VERTEX
  8
T03SSILL
 62
4
 10
-174.285
 20
-510.767
 30
4932.570
 70
    32
  0
VERTEX
  8
T03SSILL
 62
4
 10
-171.396
 20
-522.789
 30
4932.570
 70
    32
  0
VERTEX
  8
T03SSILL
 62
4
 10
-164.625
 20
-535.463
 30
4932.570
 70
    32
  0
VERTEX
  8
T03SSILL
 62
4
 10
-160.432
 20
-546.323
 30
4932.570
 70
    32
  0
VERTEX
  8
T03SSILL
 62
4
 10
-153.466
 20
-553.800
 30
4932.570
 70
    32
  0
VERTEX
  8
T03SSILL
 62
4
 10
-145.733
 20
-552.817
 30
4932.570
 70
    32
  0
VERTEX
  8
T03SSILL
 62
4
 10
-138.912
 20
-575.878
 30
4932.570
 70
    32
  0
VERTEX
  8
T03SSILL
 62
4
 10
-123.051
 20
-590.368
 30
4932.570
 70
    32
  0
VERTEX
  8
T03SSILL
 62
4
 10
-121.246
 20
-593.689
 30
4932.570
 70
    32
  0
VERTEX
  8
T03SSILL
 62
4
 10
-139.638
 20
-600.712
 30
4932.570
 70
    32
  0
VERTEX
  8
T03SSILL
 62
4
 10
-144.711
 20
-589.952
 30
4932.570
 70
    32
  0
VERTEX
  8
T03SSILL
 62
4
 10
-150.133
 20
-592.665
 30
4932.570
 70
    32
  0
VERTEX
  8
T03SSILL
 62
4
 10
-173.486
 20
-544.383
 30
4932.570
 70
    32
  0
VERTEX
  8
T03SSILL
 62
4
 10
-200.423
 20
-557.594
 30
4932.570
 70
    32
  0
VERTEX
  8
T03SSILL
 62
4
 10
-193.271
 20
-572.463
 30
4932.570
 70
    32
  0
VERTEX
  8
T03SSILL
 62
4
 10
-236.075
 20
-584.036
 30
4932.570
 70
    32
  0
VERTEX
  8
T03SSILL
 62
4
 10
-256.445
 20
-515.116
 30
4932.570
 70
    32
  0
VERTEX
  8
T03SSILL
 62
4
 10
-269.248
 20
-518.808
 30
4932.570
 70
    32
  0
VERTEX
  8
T03SSILL
 62
4
 10
-286.104
 20
-475.898
 30
4932.570
 70
    32
  0
VERTEX
  8
T03SSILL
 62
4
 10
-280.144
 20
-473.970
 30
4932.570
 70
    32
  0
VERTEX
  8
T03SSILL
 62
4
 10
-291.698
 20
-445.779
 30
4932.570
 70
    32
  0
VERTEX
  8
T03SSILL
 62
4
 10
-286.354
 20
-443.859
 30
4932.570
 70
    32
  0
VERTEX
  8
T03SSILL
 62
4
 10
-282.357
 20
-453.137
 30
4932.570
 70
    32
  0
VERTEX
  8
T03SSILL
 62
4
 10
-271.490
 20
-449.471
 30
4932.570
 70
    32
  0
VERTEX
  8
T03SSILL
 62
4
 10
-273.592
 20
-443.689
 30
4932.570
 70
    32
  0
VERTEX
  8
T03SSILL
 62
4
 10
-267.900
 20
-441.413
 30
4932.570
 70
    32
  0
VERTEX
  8
T03SSILL
 62
4
 10
-276.562
 20
-418.905
 30
4932.570
 70
    32
  0
VERTEX
  8
T03SSILL
 62
4
 10
-270.955
 20
-416.894
 30
4932.570
 70
    32
  0
VERTEX
  8
T03SSILL
 62
4
 10
-281.272
 20
-389.038
 30
4932.570
 70
    32
  0
VERTEX
  8
T03SSILL
 62
4
 10
-276.454
 20
-387.301
 30
4932.570
 70
    32
  0
VERTEX
  8
T03SSILL
 62
4
 10
-293.167
 20
-341.837
 30
4932.570
 70
    32
  0
VERTEX
  8
T03SSILL
 62
4
 10
-287.384
 20
-339.824
 30
4932.570
 70
    32
  0
VERTEX
  8
T03SSILL
 62
4
 10
-287.939
 20
-337.806
 30
4932.570
 70
    32
  0
VERTEX
  8
T03SSILL
 62
4
 10
-277.077
 20
-333.789
 30
4932.570
 70
    32
  0
VERTEX
  8
T03SSILL
 62
4
 10
-202.415
 20
-540.191
 30
4932.570
 70
    32
  0
VERTEX
  8
T03SSILL
 62
4
 10
-185.852
 20
-534.601
 30
4932.570
 70
    32
  0
VERTEX
  8
T03SSILL
 62
4
 10
-243.236
 20
-376.385
 30
4932.570
 70
    32
  0
VERTEX
  8
T03SSILL
 62
4
 10
-237.362
 20
-374.634
 30
4932.570
 70
    32
  0
SEQEND
  8
T03SSILL
  0
POLYLINE
  8
T03SSILL
 62
4
 66
     1
 70
     9
  0
VERTEX
  8
T03SSILL
 62
4
 10
-45.263
 20
-561.693
 30
4932.570
 70
    32
  0
VERTEX
  8
T03SSILL
 62
4
 10
-105.058
 20
-586.344
 30
4932.570
 70
    32
  0
VERTEX
  8
T03SSILL
 62
4
 10
-106.063
 20
-583.628
 30
4932.570
 70
    32
  0
VERTEX
  8
T03SSILL
 62
4
 10
-131.391
 20
-572.169
 30
4932.570
 70
    32
  0
VERTEX
  8
T03SSILL
 62
4
 10
-138.191
 20
-550.692
 30
4932.570
 70
    32
  0
VERTEX
  8
T03SSILL
 62
4
 10
-134.080
 20
-548.701
 30
4932.570
 70
    32
  0
VERTEX
  8
T03SSILL
 62
4
 10
-131.906
 20
-540.046
 30
4932.570
 70
    32
  0
VERTEX
  8
T03SSILL
 62
4
 10
-132.110
 20
-531.334
 30
4932.570
 70
    32
  0
VERTEX
  8
T03SSILL
 62
4
 10
-134.270
 20
-527.753
 30
4932.570
 70
    32
  0
VERTEX
  8
T03SSILL
 62
4
 10
-141.457
 20
-503.641
 30
4932.570
 70
    32
  0
VERTEX
  8
T03SSILL
 62
4
 10
-139.900
 20
-501.595
 30
4932.570
 70
    32
  0
VERTEX
  8
T03SSILL
 62
4
 10
-86.856
 20
-472.281
 30
4932.570
 70
    32
  0
VERTEX
  8
T03SSILL
 62
4
 10
-73.761
 20
-470.699
 30
4932.570
 70
    32
  0
VERTEX
  8
T03SSILL
 62
4
 10
-55.570
 20
-521.337
 30
4932.570
 70
    32
  0
VERTEX
  8
T03SSILL
 62
4
 10
-60.994
 20
-523.874
 30
4932.570
 70
    32
  0
SEQEND
  8
T03SSILL
  0
POLYLINE
  8
T03SSILL
 62
4
 66
     1
 70
     9
  0
VERTEX
  8
T03SSILL
 62
4
 10
-300.869
 20
-629.968
 30
4932.570
 70
    32
  0
VERTEX
  8
T03SSILL
 62
4
 10
-281.547
 20
-666.418
 30
4932.570
 70
    32
  0
VERTEX
  8
T03SSILL
 62
4
 10
-271.845
 20
-694.282
 30
4932.570
 70
    32
  0
VERTEX
  8
T03SSILL
 62
4
 10
-265.542
 20
-704.938
 30
4932.570
 70
    32
  0
VERTEX
  8
T03SSILL
 62
4
 10
-270.962
 20
-707.739
 30
4932.570
 70
    32
  0
VERTEX
  8
T03SSILL
 62
4
 10
-256.182
 20
-733.599
 30
4932.570
 70
    32
  0
VERTEX
  8
T03SSILL
 62
4
 10
-261.153
 20
-737.098
 30
4932.570
 70
    32
  0
VERTEX
  8
T03SSILL
 62
4
 10
-254.561
 20
-749.598
 30
4932.570
 70
    32
  0
VERTEX
  8
T03SSILL
 62
4
 10
-281.869
 20
-761.405
 30
4932.570
 70
    32
  0
VERTEX
  8
T03SSILL
 62
4
 10
-286.572
 20
-758.563
 30
4932.570
 70
    32
  0
VERTEX
  8
T03SSILL
 62
4
 10
-290.868
 20
-753.250
 30
4932.570
 70
    32
  0
VERTEX
  8
T03SSILL
 62
4
 10
-346.970
 20
-645.193
 30
4932.570
 70
    32
  0
VERTEX
  8
T03SSILL
 62
4
 10
-345.414
 20
-643.060
 30
4932.570
 70
    32
  0
SEQEND
  8
T03SSILL
  0
POLYLINE
  8
T03SSILL
 62
4
 66
     1
 70
     9
  0
VERTEX
  8
T03SSILL
 62
4
 10
-280.918
 20
-654.086
 30
4932.570
 70
    32
  0
VERTEX
  8
T03SSILL
 62
4
 10
-273.557
 20
-651.612
 30
4932.570
 70
    32
  0
VERTEX
  8
T03SSILL
 62
4
 10
-270.809
 20
-653.071
 30
4932.570
 70
    32
  0
VERTEX
  8
T03SSILL
 62
4
 10
-269.144
 20
-659.123
 30
4932.570
 70
    32
  0
VERTEX
  8
T03SSILL
 62
4
 10
-263.007
 20
-657.193
 30
4932.570
 70
    32
  0
VERTEX
  8
T03SSILL
 62
4
 10
-264.672
 20
-651.141
 30
4932.570
 70
    32
  0
VERTEX
  8
T03SSILL
 62
4
 10
-263.116
 20
-649.008
 30
4932.570
 70
    32
  0
VERTEX
  8
T03SSILL
 62
4
 10
-253.378
 20
-646.502
 30
4932.570
 70
    32
  0
VERTEX
  8
T03SSILL
 62
4
 10
-247.024
 20
-654.340
 30
4932.570
 70
    32
  0
VERTEX
  8
T03SSILL
 62
4
 10
-228.958
 20
-735.350
 30
4932.570
 70
    32
  0
VERTEX
  8
T03SSILL
 62
4
 10
-242.308
 20
-744.242
 30
4932.570
 70
    32
  0
VERTEX
  8
T03SSILL
 62
4
 10
-251.816
 20
-717.696
 30
4932.570
 70
    32
  0
VERTEX
  8
T03SSILL
 62
4
 10
-265.987
 20
-691.300
 30
4932.570
 70
    32
  0
VERTEX
  8
T03SSILL
 62
4
 10
-267.117
 20
-685.769
 30
4932.570
 70
    32
  0
VERTEX
  8
T03SSILL
 62
4
 10
-276.123
 20
-663.882
 30
4932.570
 70
    32
  0
SEQEND
  8
T03SSILL
  0
POLYLINE
  8
T03SSILL
 62
4
 66
     1
 70
     9
  0
VERTEX
  8
T03SSILL
 62
4
 10
-163.856
 20
-619.872
 30
4932.570
 70
    32
  0
VERTEX
  8
T03SSILL
 62
4
 10
-134.902
 20
-678.906
 30
4932.570
 70
    32
  0
VERTEX
  8
T03SSILL
 62
4
 10
-129.076
 20
-686.751
 30
4932.570
 70
    32
  0
VERTEX
  8
T03SSILL
 62
4
 10
-126.321
 20
-695.341
 30
4932.570
 70
    32
  0
VERTEX
  8
T03SSILL
 62
4
 10
-126.483
 20
-703.002
 30
4932.570
 70
    32
  0
VERTEX
  8
T03SSILL
 62
4
 10
-128.833
 20
-711.660
 30
4932.570
 70
    32
  0
VERTEX
  8
T03SSILL
 62
4
 10
-131.330
 20
-715.830
 30
4932.570
 70
    32
  0
VERTEX
  8
T03SSILL
 62
4
 10
-133.968
 20
-762.432
 30
4932.570
 70
    32
  0
VERTEX
  8
T03SSILL
 62
4
 10
-164.026
 20
-825.596
 30
4932.570
 70
    32
  0
VERTEX
  8
T03SSILL
 62
4
 10
-168.962
 20
-825.133
 30
4932.570
 70
    32
  0
VERTEX
  8
T03SSILL
 62
4
 10
-174.193
 20
-809.094
 30
4932.570
 70
    32
  0
VERTEX
  8
T03SSILL
 62
4
 10
-178.965
 20
-781.164
 30
4932.570
 70
    32
  0
VERTEX
  8
T03SSILL
 62
4
 10
-221.030
 20
-636.389
 30
4932.570
 70
    32
  0
SEQEND
  8
T03SSILL
  0
POLYLINE
  8
T03SSILL
 62
4
 66
     1
 70
     9
  0
VERTEX
  8
T03SSILL
 62
4
 10
-280.121
 20
-773.706
 30
4932.570
 70
    32
  0
VERTEX
  8
T03SSILL
 62
4
 10
-278.631
 20
-766.556
 30
4932.570
 70
    32
  0
VERTEX
  8
T03SSILL
 62
4
 10
-228.903
 20
-746.088
 30
4932.570
 70
    32
  0
VERTEX
  8
T03SSILL
 62
4
 10
-223.964
 20
-746.815
 30
4932.570
 70
    32
  0
VERTEX
  8
T03SSILL
 62
4
 10
-186.494
 20
-830.648
 30
4932.570
 70
    32
  0
VERTEX
  8
T03SSILL
 62
4
 10
-173.633
 20
-837.959
 30
4932.570
 70
    32
  0
VERTEX
  8
T03SSILL
 62
4
 10
-173.947
 20
-840.780
 30
4932.570
 70
    32
  0
VERTEX
  8
T03SSILL
 62
4
 10
-180.518
 20
-843.157
 30
4932.570
 70
    32
  0
VERTEX
  8
T03SSILL
 62
4
 10
-207.104
 20
-849.672
 30
4932.570
 70
    32
  0
VERTEX
  8
T03SSILL
 62
4
 10
-216.732
 20
-847.159
 30
4932.570
 70
    32
  0
VERTEX
  8
T03SSILL
 62
4
 10
-236.855
 20
-836.599
 30
4932.570
 70
    32
  0
VERTEX
  8
T03SSILL
 62
4
 10
-248.570
 20
-829.448
 30
4932.570
 70
    32
  0
VERTEX
  8
T03SSILL
 62
4
 10
-253.380
 20
-825.199
 30
4932.570
 70
    32
  0
SEQEND
  8
T03SSILL
  0
POLYLINE
  8
T03SSILL
 62
4
 66
     1
 70
     9
  0
VERTEX
  8
T03SSILL
 62
4
 10
-135.941
 20
-607.353
 30
4932.570
 70
    32
  0
VERTEX
  8
T03SSILL
 62
4
 10
-107.745
 20
-596.150
 30
4932.570
 70
    32
  0
VERTEX
  8
T03SSILL
 62
4
 10
-110.515
 20
-612.913
 30
4932.570
 70
    32
  0
VERTEX
  8
T03SSILL
 62
4
 10
-99.212
 20
-615.579
 30
4932.570
 70
    32
  0
VERTEX
  8
T03SSILL
 62
4
 10
-99.548
 20
-603.524
 30
4932.570
 70
    32
  0
VERTEX
  8
T03SSILL
 62
4
 10
-97.709
 20
-596.193
 30
4932.570
 70
    32
  0
VERTEX
  8
T03SSILL
 62
4
 10
-94.006
 20
-589.982
 30
4932.570
 70
    32
  0
VERTEX
  8
T03SSILL
 62
4
 10
-42.707
 20
-568.525
 30
4932.570
 70
    32
  0
VERTEX
  8
T03SSILL
 62
4
 10
-13.742
 20
-575.447
 30
4932.570
 70
    32
  0
VERTEX
  8
T03SSILL
 62
4
 10
-10.050
 20
-581.648
 30
4932.570
 70
    32
  0
VERTEX
  8
T03SSILL
 62
4
 10
-12.752
 20
-596.912
 30
4932.570
 70
    32
  0
VERTEX
  8
T03SSILL
 62
4
 10
-24.210
 20
-609.125
 30
4932.570
 70
    32
  0
VERTEX
  8
T03SSILL
 62
4
 10
-21.341
 20
-613.048
 30
4932.570
 70
    32
  0
VERTEX
  8
T03SSILL
 62
4
 10
-14.027
 20
-606.965
 30
4932.570
 70
    32
  0
VERTEX
  8
T03SSILL
 62
4
 10
-19.509
 20
-638.287
 30
4932.570
 70
    32
  0
VERTEX
  8
T03SSILL
 62
4
 10
-39.186
 20
-667.862
 30
4932.570
 70
    32
  0
VERTEX
  8
T03SSILL
 62
4
 10
-60.345
 20
-678.707
 30
4932.570
 70
    32
  0
VERTEX
  8
T03SSILL
 62
4
 10
-79.342
 20
-686.618
 30
4932.570
 70
    32
  0
VERTEX
  8
T03SSILL
 62
4
 10
-93.574
 20
-688.744
 30
4932.570
 70
    32
  0
VERTEX
  8
T03SSILL
 62
4
 10
-97.903
 20
-687.569
 30
4932.570
 70
    32
  0
VERTEX
  8
T03SSILL
 62
4
 10
-117.914
 20
-645.669
 30
4932.570
 70
    32
  0
SEQEND
  8
T03SSILL
  0
POLYLINE
  8
T03SSILL
 62
4
 66
     1
 70
     9
  0
VERTEX
  8
T03SSILL
 62
4
 10
12.895
 20
-559.512
 30
4932.570
 70
    32
  0
VERTEX
  8
T03SSILL
 62
4
 10
18.028
 20
-548.352
 30
4932.570
 70
    32
  0
VERTEX
  8
T03SSILL
 62
4
 10
24.339
 20
-539.641
 30
4932.570
 70
    32
  0
VERTEX
  8
T03SSILL
 62
4
 10
39.306
 20
-533.192
 30
4932.570
 70
    32
  0
VERTEX
  8
T03SSILL
 62
4
 10
43.561
 20
-535.425
 30
4932.570
 70
    32
  0
VERTEX
  8
T03SSILL
 62
4
 10
51.378
 20
-547.380
 30
4932.570
 70
    32
  0
VERTEX
  8
T03SSILL
 62
4
 10
52.613
 20
-554.230
 30
4932.570
 70
    32
  0
VERTEX
  8
T03SSILL
 62
4
 10
52.587
 20
-565.498
 30
4932.570
 70
    32
  0
VERTEX
  8
T03SSILL
 62
4
 10
55.813
 20
-576.371
 30
4932.570
 70
    32
  0
VERTEX
  8
T03SSILL
 62
4
 10
66.746
 20
-604.218
 30
4932.570
 70
    32
  0
VERTEX
  8
T03SSILL
 62
4
 10
74.599
 20
-612.213
 30
4932.570
 70
    32
  0
VERTEX
  8
T03SSILL
 62
4
 10
81.058
 20
-621.282
 30
4932.570
 70
    32
  0
VERTEX
  8
T03SSILL
 62
4
 10
81.819
 20
-625.585
 30
4932.570
 70
    32
  0
VERTEX
  8
T03SSILL
 62
4
 10
69.048
 20
-651.547
 30
4932.570
 70
    32
  0
VERTEX
  8
T03SSILL
 62
4
 10
64.543
 20
-656.977
 30
4932.570
 70
    32
  0
VERTEX
  8
T03SSILL
 62
4
 10
32.045
 20
-596.229
 30
4932.570
 70
    32
  0
SEQEND
  8
T03SSILL
  0
POLYLINE
  8
T03SSILL
 62
4
 66
     1
 70
     9
  0
VERTEX
  8
T03SSILL
 62
4
 10
67.788
 20
-662.743
 30
4932.570
 70
    32
  0
VERTEX
  8
T03SSILL
 62
4
 10
72.029
 20
-657.317
 30
4932.570
 70
    32
  0
VERTEX
  8
T03SSILL
 62
4
 10
80.937
 20
-638.713
 30
4932.570
 70
    32
  0
VERTEX
  8
T03SSILL
 62
4
 10
87.576
 20
-628.237
 30
4932.570
 70
    32
  0
VERTEX
  8
T03SSILL
 62
4
 10
92.780
 20
-635.651
 30
4932.570
 70
    32
  0
VERTEX
  8
T03SSILL
 62
4
 10
104.106
 20
-659.884
 30
4932.570
 70
    32
  0
VERTEX
  8
T03SSILL
 62
4
 10
110.828
 20
-668.949
 30
4932.570
 70
    32
  0
VERTEX
  8
T03SSILL
 62
4
 10
123.045
 20
-680.759
 30
4932.570
 70
    32
  0
VERTEX
  8
T03SSILL
 62
4
 10
128.016
 20
-690.464
 30
4932.570
 70
    32
  0
VERTEX
  8
T03SSILL
 62
4
 10
126.749
 20
-694.530
 30
4932.570
 70
    32
  0
VERTEX
  8
T03SSILL
 62
4
 10
114.764
 20
-700.147
 30
4932.570
 70
    32
  0
VERTEX
  8
T03SSILL
 62
4
 10
101.080
 20
-703.762
 30
4932.570
 70
    32
  0
VERTEX
  8
T03SSILL
 62
4
 10
88.576
 20
-703.488
 30
4932.570
 70
    32
  0
VERTEX
  8
T03SSILL
 62
4
 10
80.177
 20
-687.491
 30
4932.570
 70
    32
  0
VERTEX
  8
T03SSILL
 62
4
 10
88.297
 20
-682.453
 30
4932.570
 70
    32
  0
VERTEX
  8
T03SSILL
 62
4
 10
82.002
 20
-672.502
 30
4932.570
 70
    32
  0
VERTEX
  8
T03SSILL
 62
4
 10
74.931
 20
-676.909
 30
4932.570
 70
    32
  0
SEQEND
  8
T03SSILL
  0
POLYLINE
  8
T03SSILL
 62
4
 66
     1
 70
     9
  0
VERTEX
  8
T03SSILL
 62
4
 10
170.175
 20
-670.097
 30
4932.570
 70
    32
  0
VERTEX
  8
T03SSILL
 62
4
 10
144.189
 20
-688.664
 30
4932.570
 70
    32
  0
VERTEX
  8
T03SSILL
 62
4
 10
137.425
 20
-689.723
 30
4932.570
 70
    32
  0
VERTEX
  8
T03SSILL
 62
4
 10
134.570
 20
-686.856
 30
4932.570
 70
    32
  0
VERTEX
  8
T03SSILL
 62
4
 10
122.106
 20
-663.078
 30
4932.570
 70
    32
  0
VERTEX
  8
T03SSILL
 62
4
 10
123.939
 20
-661.909
 30
4932.570
 70
    32
  0
SEQEND
  8
T03SSILL
  0
POLYLINE
  8
T03SSILL
 62
4
 66
     1
 70
     9
  0
VERTEX
  8
T03SSILL
 62
4
 10
-1.823
 20
-710.500
 30
4932.570
 70
    32
  0
VERTEX
  8
T03SSILL
 62
4
 10
-18.157
 20
-706.843
 30
4932.570
 70
    32
  0
VERTEX
  8
T03SSILL
 62
4
 10
-23.004
 20
-699.866
 30
4932.570
 70
    32
  0
VERTEX
  8
T03SSILL
 62
4
 10
-30.961
 20
-697.243
 30
4932.570
 70
    32
  0
VERTEX
  8
T03SSILL
 62
4
 10
-33.886
 20
-689.095
 30
4932.570
 70
    32
  0
VERTEX
  8
T03SSILL
 62
4
 10
-26.438
 20
-686.531
 30
4932.570
 70
    32
  0
VERTEX
  8
T03SSILL
 62
4
 10
-21.738
 20
-689.109
 30
4932.570
 70
    32
  0
VERTEX
  8
T03SSILL
 62
4
 10
-13.885
 20
-690.501
 30
4932.570
 70
    32
  0
VERTEX
  8
T03SSILL
 62
4
 10
-3.083
 20
-695.199
 30
4932.570
 70
    32
  0
VERTEX
  8
T03SSILL
 62
4
 10
7.497
 20
-689.865
 30
4932.570
 70
    32
  0
VERTEX
  8
T03SSILL
 62
4
 10
13.967
 20
-693.124
 30
4932.570
 70
    32
  0
VERTEX
  8
T03SSILL
 62
4
 10
31.506
 20
-727.838
 30
4932.570
 70
    32
  0
VERTEX
  8
T03SSILL
 62
4
 10
30.268
 20
-734.105
 30
4932.570
 70
    32
  0
VERTEX
  8
T03SSILL
 62
4
 10
24.890
 20
-740.074
 30
4932.570
 70
    32
  0
VERTEX
  8
T03SSILL
 62
4
 10
19.963
 20
-740.228
 30
4932.570
 70
    32
  0
VERTEX
  8
T03SSILL
 62
4
 10
16.046
 20
-736.935
 30
4932.570
 70
    32
  0
VERTEX
  8
T03SSILL
 62
4
 10
7.837
 20
-722.079
 30
4932.570
 70
    32
  0
VERTEX
  8
T03SSILL
 62
4
 10
3.363
 20
-716.593
 30
4932.570
 70
    32
  0
SEQEND
  8
T03SSILL
  0
POLYLINE
  8
T03SSILL
 62
4
 66
     1
 70
     9
  0
VERTEX
  8
T03SSILL
 62
4
 10
171.928
 20
-676.148
 30
4932.570
 70
    32
  0
VERTEX
  8
T03SSILL
 62
4
 10
181.547
 20
-684.559
 30
4932.570
 70
    32
  0
VERTEX
  8
T03SSILL
 62
4
 10
183.019
 20
-689.381
 30
4932.570
 70
    32
  0
VERTEX
  8
T03SSILL
 62
4
 10
191.882
 20
-700.530
 30
4932.570
 70
    32
  0
VERTEX
  8
T03SSILL
 62
4
 10
212.057
 20
-734.857
 30
4932.570
 70
    32
  0
VERTEX
  8
T03SSILL
 62
4
 10
208.121
 20
-736.758
 30
4932.570
 70
    32
  0
VERTEX
  8
T03SSILL
 62
4
 10
187.671
 20
-721.449
 30
4932.570
 70
    32
  0
VERTEX
  8
T03SSILL
 62
4
 10
159.625
 20
-704.216
 30
4932.570
 70
    32
  0
VERTEX
  8
T03SSILL
 62
4
 10
152.566
 20
-702.990
 30
4932.570
 70
    32
  0
VERTEX
  8
T03SSILL
 62
4
 10
145.724
 20
-698.151
 30
4932.570
 70
    32
  0
VERTEX
  8
T03SSILL
 62
4
 10
149.165
 20
-692.119
 30
4932.570
 70
    32
  0
SEQEND
  8
T03SSILL
  0
POLYLINE
  8
T03SSILL
 62
4
 66
     1
 70
     9
  0
VERTEX
  8
T03SSILL
 62
4
 10
144.691
 20
-706.527
 30
4932.570
 70
    32
  0
VERTEX
  8
T03SSILL
 62
4
 10
224.872
 20
-765.233
 30
4932.570
 70
    32
  0
VERTEX
  8
T03SSILL
 62
4
 10
225.609
 20
-767.688
 30
4932.570
 70
    32
  0
VERTEX
  8
T03SSILL
 62
4
 10
223.959
 20
-769.382
 30
4932.570
 70
    32
  0
VERTEX
  8
T03SSILL
 62
4
 10
189.407
 20
-785.863
 30
4932.570
 70
    32
  0
VERTEX
  8
T03SSILL
 62
4
 10
185.420
 20
-783.891
 30
4932.570
 70
    32
  0
VERTEX
  8
T03SSILL
 62
4
 10
175.142
 20
-765.630
 30
4932.570
 70
    32
  0
SEQEND
  8
T03SSILL
  0
POLYLINE
  8
T03SSILL
 62
4
 66
     1
 70
     9
  0
VERTEX
  8
T03SSILL
 62
4
 10
147.677
 20
-818.636
 30
4932.570
 70
    32
  0
VERTEX
  8
T03SSILL
 62
4
 10
138.728
 20
-800.973
 30
4932.570
 70
    32
  0
VERTEX
  8
T03SSILL
 62
4
 10
134.004
 20
-803.236
 30
4932.570
 70
    32
  0
VERTEX
  8
T03SSILL
 62
4
 10
107.353
 20
-751.830
 30
4932.570
 70
    32
  0
VERTEX
  8
T03SSILL
 62
4
 10
121.829
 20
-741.602
 30
4932.570
 70
    32
  0
VERTEX
  8
T03SSILL
 62
4
 10
114.304
 20
-731.755
 30
4932.570
 70
    32
  0
VERTEX
  8
T03SSILL
 62
4
 10
107.067
 20
-717.063
 30
4932.570
 70
    32
  0
VERTEX
  8
T03SSILL
 62
4
 10
108.182
 20
-714.847
 30
4932.570
 70
    32
  0
VERTEX
  8
T03SSILL
 62
4
 10
117.270
 20
-709.885
 30
4932.570
 70
    32
  0
VERTEX
  8
T03SSILL
 62
4
 10
122.159
 20
-713.429
 30
4932.570
 70
    32
  0
VERTEX
  8
T03SSILL
 62
4
 10
124.851
 20
-717.267
 30
4932.570
 70
    32
  0
VERTEX
  8
T03SSILL
 62
4
 10
129.315
 20
-728.563
 30
4932.570
 70
    32
  0
VERTEX
  8
T03SSILL
 62
4
 10
131.099
 20
-736.990
 30
4932.570
 70
    32
  0
VERTEX
  8
T03SSILL
 62
4
 10
135.068
 20
-744.155
 30
4932.570
 70
    32
  0
VERTEX
  8
T03SSILL
 62
4
 10
141.815
 20
-748.467
 30
4932.570
 70
    32
  0
VERTEX
  8
T03SSILL
 62
4
 10
148.456
 20
-744.770
 30
4932.570
 70
    32
  0
VERTEX
  8
T03SSILL
 62
4
 10
156.286
 20
-744.401
 30
4932.570
 70
    32
  0
VERTEX
  8
T03SSILL
 62
4
 10
167.397
 20
-765.733
 30
4932.570
 70
    32
  0
VERTEX
  8
T03SSILL
 62
4
 10
169.937
 20
-771.421
 30
4932.570
 70
    32
  0
VERTEX
  8
T03SSILL
 62
4
 10
166.095
 20
-773.761
 30
4932.570
 70
    32
  0
VERTEX
  8
T03SSILL
 62
4
 10
177.329
 20
-797.731
 30
4932.570
 70
    32
  0
VERTEX
  8
T03SSILL
 62
4
 10
164.443
 20
-815.068
 30
4932.570
 70
    32
  0
SEQEND
  8
T03SSILL
  0
POLYLINE
  8
T03SSILL
 62
4
 66
     1
 70
     9
  0
VERTEX
  8
T03SSILL
 62
4
 10
762.577
 20
-316.469
 30
4932.570
 70
    32
  0
VERTEX
  8
T03SSILL
 62
4
 10
762.115
 20
-312.154
 30
4932.570
 70
    32
  0
VERTEX
  8
T03SSILL
 62
4
 10
764.918
 20
-308.703
 30
4932.570
 70
    32
  0
VERTEX
  8
T03SSILL
 62
4
 10
774.502
 20
-304.426
 30
4932.570
 70
    32
  0
VERTEX
  8
T03SSILL
 62
4
 10
782.335
 20
-302.537
 30
4932.570
 70
    32
  0
VERTEX
  8
T03SSILL
 62
4
 10
786.757
 20
-305.599
 30
4932.570
 70
    32
  0
VERTEX
  8
T03SSILL
 62
4
 10
796.270
 20
-322.648
 30
4932.570
 70
    32
  0
VERTEX
  8
T03SSILL
 62
4
 10
795.688
 20
-329.789
 30
4932.570
 70
    32
  0
VERTEX
  8
T03SSILL
 62
4
 10
788.750
 20
-334.493
 30
4932.570
 70
    32
  0
VERTEX
  8
T03SSILL
 62
4
 10
781.007
 20
-336.823
 30
4932.570
 70
    32
  0
VERTEX
  8
T03SSILL
 62
4
 10
776.948
 20
-335.785
 30
4932.570
 70
    32
  0
VERTEX
  8
T03SSILL
 62
4
 10
771.807
 20
-329.730
 30
4932.570
 70
    32
  0
SEQEND
  8
T03SSILL
  0
POLYLINE
  8
T03SSILL
 62
4
 66
     1
 70
     9
  0
VERTEX
  8
T03SSILL
 62
4
 10
810.164
 20
-352.541
 30
4932.570
 70
    32
  0
VERTEX
  8
T03SSILL
 62
4
 10
805.065
 20
-354.857
 30
4932.570
 70
    32
  0
VERTEX
  8
T03SSILL
 62
4
 10
803.770
 20
-360.415
 30
4932.570
 70
    32
  0
VERTEX
  8
T03SSILL
 62
4
 10
793.570
 20
-364.871
 30
4932.570
 70
    32
  0
VERTEX
  8
T03SSILL
 62
4
 10
788.729
 20
-365.953
 30
4932.570
 70
    32
  0
VERTEX
  8
T03SSILL
 62
4
 10
785.090
 20
-360.771
 30
4932.570
 70
    32
  0
VERTEX
  8
T03SSILL
 62
4
 10
784.340
 20
-351.522
 30
4932.570
 70
    32
  0
VERTEX
  8
T03SSILL
 62
4
 10
787.651
 20
-344.016
 30
4932.570
 70
    32
  0
VERTEX
  8
T03SSILL
 62
4
 10
801.075
 20
-332.141
 30
4932.570
 70
    32
  0
VERTEX
  8
T03SSILL
 62
4
 10
805.305
 20
-332.209
 30
4932.570
 70
    32
  0
SEQEND
  8
T03SSILL
  0
POLYLINE
  8
T03SSILL
 62
4
 66
     1
 70
     9
  0
VERTEX
  8
T03SSILL
 62
4
 10
820.862
 20
-395.403
 30
4932.570
 70
    32
  0
VERTEX
  8
T03SSILL
 62
4
 10
818.616
 20
-386.690
 30
4932.570
 70
    32
  0
VERTEX
  8
T03SSILL
 62
4
 10
814.606
 20
-377.721
 30
4932.570
 70
    32
  0
VERTEX
  8
T03SSILL
 62
4
 10
813.874
 20
-372.173
 30
4932.570
 70
    32
  0
VERTEX
  8
T03SSILL
 62
4
 10
810.505
 20
-368.136
 30
4932.570
 70
    32
  0
VERTEX
  8
T03SSILL
 62
4
 10
806.975
 20
-366.920
 30
4932.570
 70
    32
  0
VERTEX
  8
T03SSILL
 62
4
 10
792.464
 20
-372.808
 30
4932.570
 70
    32
  0
VERTEX
  8
T03SSILL
 62
4
 10
809.261
 20
-401.629
 30
4932.570
 70
    32
  0
SEQEND
  8
T03SSILL
  0
POLYLINE
  8
T03SSILL
 62
4
 66
     1
 70
     9
  0
VERTEX
  8
T03SSILL
 62
4
 10
828.617
 20
-448.942
 30
4932.570
 70
    32
  0
VERTEX
  8
T03SSILL
 62
4
 10
821.255
 20
-457.174
 30
4932.570
 70
    32
  0
VERTEX
  8
T03SSILL
 62
4
 10
814.575
 20
-460.732
 30
4932.570
 70
    32
  0
VERTEX
  8
T03SSILL
 62
4
 10
807.702
 20
-460.854
 30
4932.570
 70
    32
  0
VERTEX
  8
T03SSILL
 62
4
 10
799.577
 20
-457.193
 30
4932.570
 70
    32
  0
VERTEX
  8
T03SSILL
 62
4
 10
796.038
 20
-454.302
 30
4932.570
 70
    32
  0
VERTEX
  8
T03SSILL
 62
4
 10
796.180
 20
-447.252
 30
4932.570
 70
    32
  0
VERTEX
  8
T03SSILL
 62
4
 10
800.346
 20
-434.454
 30
4932.570
 70
    32
  0
VERTEX
  8
T03SSILL
 62
4
 10
796.588
 20
-422.840
 30
4932.570
 70
    32
  0
VERTEX
  8
T03SSILL
 62
4
 10
808.694
 20
-411.765
 30
4932.570
 70
    32
  0
VERTEX
  8
T03SSILL
 62
4
 10
809.465
 20
-407.355
 30
4932.570
 70
    32
  0
VERTEX
  8
T03SSILL
 62
4
 10
821.880
 20
-405.179
 30
4932.570
 70
    32
  0
SEQEND
  8
T03SSILL
  0
POLYLINE
  8
T03SSILL
 62
4
 66
     1
 70
     9
  0
VERTEX
  8
T03SSILL
 62
4
 10
748.643
 20
-439.291
 30
4932.570
 70
    32
  0
VERTEX
  8
T03SSILL
 62
4
 10
758.044
 20
-451.582
 30
4932.570
 70
    32
  0
VERTEX
  8
T03SSILL
 62
4
 10
758.861
 20
-456.336
 30
4932.570
 70
    32
  0
VERTEX
  8
T03SSILL
 62
4
 10
750.551
 20
-468.714
 30
4932.570
 70
    32
  0
VERTEX
  8
T03SSILL
 62
4
 10
744.178
 20
-480.906
 30
4932.570
 70
    32
  0
VERTEX
  8
T03SSILL
 62
4
 10
735.851
 20
-489.936
 30
4932.570
 70
    32
  0
VERTEX
  8
T03SSILL
 62
4
 10
728.061
 20
-482.836
 30
4932.570
 70
    32
  0
VERTEX
  8
T03SSILL
 62
4
 10
714.760
 20
-483.871
 30
4932.570
 70
    32
  0
VERTEX
  8
T03SSILL
 62
4
 10
706.980
 20
-478.799
 30
4932.570
 70
    32
  0
VERTEX
  8
T03SSILL
 62
4
 10
699.022
 20
-473.286
 30
4932.570
 70
    32
  0
VERTEX
  8
T03SSILL
 62
4
 10
694.742
 20
-463.086
 30
4932.570
 70
    32
  0
SEQEND
  8
T03SSILL
  0
POLYLINE
  8
T03SSILL
 62
4
 66
     1
 70
     9
  0
VERTEX
  8
T03SSILL
 62
4
 10
678.157
 20
-423.689
 30
4932.570
 70
    32
  0
VERTEX
  8
T03SSILL
 62
4
 10
704.139
 20
-420.829
 30
4932.570
 70
    32
  0
VERTEX
  8
T03SSILL
 62
4
 10
695.221
 20
-399.460
 30
4932.570
 70
    32
  0
VERTEX
  8
T03SSILL
 62
4
 10
684.816
 20
-398.101
 30
4932.570
 70
    32
  0
VERTEX
  8
T03SSILL
 62
4
 10
680.856
 20
-399.266
 30
4932.570
 70
    32
  0
VERTEX
  8
T03SSILL
 62
4
 10
679.025
 20
-403.153
 30
4932.570
 70
    32
  0
SEQEND
  8
T03SSILL
  0
POLYLINE
  8
T03SSILL
 62
4
 66
     1
 70
     9
  0
VERTEX
  8
T03SSILL
 62
4
 10
695.281
 20
-393.643
 30
4932.570
 70
    32
  0
VERTEX
  8
T03SSILL
 62
4
 10
701.621
 20
-374.930
 30
4932.570
 70
    32
  0
VERTEX
  8
T03SSILL
 62
4
 10
700.363
 20
-370.002
 30
4932.570
 70
    32
  0
VERTEX
  8
T03SSILL
 62
4
 10
685.992
 20
-368.575
 30
4932.570
 70
    32
  0
VERTEX
  8
T03SSILL
 62
4
 10
681.424
 20
-371.329
 30
4932.570
 70
    32
  0
VERTEX
  8
T03SSILL
 62
4
 10
678.634
 20
-377.423
 30
4932.570
 70
    32
  0
VERTEX
  8
T03SSILL
 62
4
 10
678.850
 20
-385.617
 30
4932.570
 70
    32
  0
VERTEX
  8
T03SSILL
 62
4
 10
681.701
 20
-391.772
 30
4932.570
 70
    32
  0
SEQEND
  8
T03SSILL
  0
POLYLINE
  8
T03SSILL
 62
4
 66
     1
 70
     9
  0
VERTEX
  8
T03SSILL
 62
4
 10
703.146
 20
-362.498
 30
4932.570
 70
    32
  0
VERTEX
  8
T03SSILL
 62
4
 10
703.094
 20
-351.923
 30
4932.570
 70
    32
  0
VERTEX
  8
T03SSILL
 62
4
 10
698.755
 20
-347.803
 30
4932.570
 70
    32
  0
VERTEX
  8
T03SSILL
 62
4
 10
696.698
 20
-341.557
 30
4932.570
 70
    32
  0
VERTEX
  8
T03SSILL
 62
4
 10
699.239
 20
-320.748
 30
4932.570
 70
    32
  0
VERTEX
  8
T03SSILL
 62
4
 10
695.692
 20
-316.271
 30
4932.570
 70
    32
  0
VERTEX
  8
T03SSILL
 62
4
 10
690.930
 20
-315.589
 30
4932.570
 70
    32
  0
VERTEX
  8
T03SSILL
 62
4
 10
675.557
 20
-325.447
 30
4932.570
 70
    32
  0
VERTEX
  8
T03SSILL
 62
4
 10
676.818
 20
-330.816
 30
4932.570
 70
    32
  0
VERTEX
  8
T03SSILL
 62
4
 10
680.367
 20
-335.733
 30
4932.570
 70
    32
  0
VERTEX
  8
T03SSILL
 62
4
 10
680.539
 20
-352.828
 30
4932.570
 70
    32
  0
VERTEX
  8
T03SSILL
 62
4
 10
683.394
 20
-359.952
 30
4932.570
 70
    32
  0
VERTEX
  8
T03SSILL
 62
4
 10
687.111
 20
-363.106
 30
4932.570
 70
    32
  0
SEQEND
  8
T03SSILL
  0
POLYLINE
  8
T03SSILL
 62
4
 66
     1
 70
     9
  0
VERTEX
  8
T03SSILL
 62
4
 10
1151.164
 20
-1114.517
 30
4932.570
 70
    32
  0
VERTEX
  8
T03SSILL
 62
4
 10
1145.149
 20
-1109.788
 30
4932.570
 70
    32
  0
VERTEX
  8
T03SSILL
 62
4
 10
1140.086
 20
-1101.794
 30
4932.570
 70
    32
  0
VERTEX
  8
T03SSILL
 62
4
 10
1134.441
 20
-1100.676
 30
4932.570
 70
    32
  0
VERTEX
  8
T03SSILL
 62
4
 10
1133.132
 20
-1103.238
 30
4932.570
 70
    32
  0
VERTEX
  8
T03SSILL
 62
4
 10
1139.117
 20
-1119.599
 30
4932.570
 70
    32
  0
VERTEX
  8
T03SSILL
 62
4
 10
1145.126
 20
-1123.094
 30
4932.570
 70
    32
  0
SEQEND
  8
T03SSILL
  0
POLYLINE
  8
T03SSILL
 62
4
 66
     1
 70
     9
  0
VERTEX
  8
T03SSILL
 62
4
 10
1100.196
 20
-1053.964
 30
4932.570
 70
    32
  0
VERTEX
  8
T03SSILL
 62
4
 10
1106.002
 20
-1051.909
 30
4932.570
 70
    32
  0
VERTEX
  8
T03SSILL
 62
4
 10
1110.239
 20
-1053.474
 30
4932.570
 70
    32
  0
VERTEX
  8
T03SSILL
 62
4
 10
1112.638
 20
-1057.516
 30
4932.570
 70
    32
  0
VERTEX
  8
T03SSILL
 62
4
 10
1118.465
 20
-1059.602
 30
4932.570
 70
    32
  0
VERTEX
  8
T03SSILL
 62
4
 10
1128.497
 20
-1056.909
 30
4932.570
 70
    32
  0
VERTEX
  8
T03SSILL
 62
4
 10
1134.911
 20
-1053.000
 30
4932.570
 70
    32
  0
VERTEX
  8
T03SSILL
 62
4
 10
1140.811
 20
-1052.266
 30
4932.570
 70
    32
  0
VERTEX
  8
T03SSILL
 62
4
 10
1143.998
 20
-1055.158
 30
4932.570
 70
    32
  0
VERTEX
  8
T03SSILL
 62
4
 10
1145.791
 20
-1061.318
 30
4932.570
 70
    32
  0
VERTEX
  8
T03SSILL
 62
4
 10
1145.905
 20
-1066.605
 30
4932.570
 70
    32
  0
VERTEX
  8
T03SSILL
 62
4
 10
1133.934
 20
-1087.108
 30
4932.570
 70
    32
  0
VERTEX
  8
T03SSILL
 62
4
 10
1128.235
 20
-1093.128
 30
4932.570
 70
    32
  0
VERTEX
  8
T03SSILL
 62
4
 10
1126.197
 20
-1090.847
 30
4932.570
 70
    32
  0
SEQEND
  8
T03SSILL
  0
POLYLINE
  8
T03SSILL
 62
4
 66
     1
 70
     9
  0
VERTEX
  8
T03SSILL
 62
4
 10
1045.318
 20
-1004.799
 30
4932.570
 70
    32
  0
VERTEX
  8
T03SSILL
 62
4
 10
1046.177
 20
-1000.213
 30
4932.570
 70
    32
  0
VERTEX
  8
T03SSILL
 62
4
 10
1048.627
 20
-996.676
 30
4932.570
 70
    32
  0
VERTEX
  8
T03SSILL
 62
4
 10
1052.403
 20
-994.014
 30
4932.570
 70
    32
  0
VERTEX
  8
T03SSILL
 62
4
 10
1057.783
 20
-994.956
 30
4932.570
 70
    32
  0
VERTEX
  8
T03SSILL
 62
4
 10
1079.615
 20
-1008.331
 30
4932.570
 70
    32
  0
VERTEX
  8
T03SSILL
 62
4
 10
1077.961
 20
-1012.481
 30
4932.570
 70
    32
  0
VERTEX
  8
T03SSILL
 62
4
 10
1067.513
 20
-1020.375
 30
4932.570
 70
    32
  0
VERTEX
  8
T03SSILL
 62
4
 10
1062.216
 20
-1018.287
 30
4932.570
 70
    32
  0
SEQEND
  8
T03SSILL
  0
POLYLINE
  8
T03SSILL
 62
4
 66
     1
 70
     9
  0
VERTEX
  8
T03SSILL
 62
4
 10
1018.428
 20
-948.622
 30
4932.570
 70
    32
  0
VERTEX
  8
T03SSILL
 62
4
 10
1021.024
 20
-939.004
 30
4932.570
 70
    32
  0
VERTEX
  8
T03SSILL
 62
4
 10
1012.067
 20
-927.417
 30
4932.570
 70
    32
  0
VERTEX
  8
T03SSILL
 62
4
 10
1006.788
 20
-929.205
 30
4932.570
 70
    32
  0
VERTEX
  8
T03SSILL
 62
4
 10
1003.007
 20
-930.810
 30
4932.570
 70
    32
  0
VERTEX
  8
T03SSILL
 62
4
 10
1002.683
 20
-936.628
 30
4932.570
 70
    32
  0
VERTEX
  8
T03SSILL
 62
4
 10
1011.655
 20
-951.123
 30
4932.570
 70
    32
  0
SEQEND
  8
T03SSILL
  0
POLYLINE
  8
T03SSILL
 62
4
 66
     1
 70
     9
  0
VERTEX
  8
T03SSILL
 62
4
 10
1007.457
 20
-921.800
 30
4932.570
 70
    32
  0
VERTEX
  8
T03SSILL
 62
4
 10
1008.316
 20
-917.389
 30
4932.570
 70
    32
  0
VERTEX
  8
T03SSILL
 62
4
 10
1002.821
 20
-910.984
 30
4932.570
 70
    32
  0
VERTEX
  8
T03SSILL
 62
4
 10
1002.433
 20
-903.760
 30
4932.570
 70
    32
  0
VERTEX
  8
T03SSILL
 62
4
 10
995.057
 20
-891.107
 30
4932.570
 70
    32
  0
VERTEX
  8
T03SSILL
 62
4
 10
990.216
 20
-892.364
 30
4932.570
 70
    32
  0
VERTEX
  8
T03SSILL
 62
4
 10
986.357
 20
-895.996
 30
4932.570
 70
    32
  0
VERTEX
  8
T03SSILL
 62
4
 10
984.533
 20
-901.381
 30
4932.570
 70
    32
  0
VERTEX
  8
T03SSILL
 62
4
 10
986.602
 20
-909.918
 30
4932.570
 70
    32
  0
VERTEX
  8
T03SSILL
 62
4
 10
991.845
 20
-918.792
 30
4932.570
 70
    32
  0
VERTEX
  8
T03SSILL
 62
4
 10
996.629
 20
-923.968
 30
4932.570
 70
    32
  0
VERTEX
  8
T03SSILL
 62
4
 10
1000.866
 20
-925.445
 30
4932.570
 70
    32
  0
SEQEND
  8
T03SSILL
  0
POLYLINE
  8
T03SSILL
 62
4
 66
     1
 70
     9
  0
VERTEX
  8
T03SSILL
 62
4
 10
992.116
 20
-884.512
 30
4932.570
 70
    32
  0
VERTEX
  8
T03SSILL
 62
4
 10
981.456
 20
-867.205
 30
4932.570
 70
    32
  0
VERTEX
  8
T03SSILL
 62
4
 10
981.524
 20
-863.151
 30
4932.570
 70
    32
  0
VERTEX
  8
T03SSILL
 62
4
 10
978.423
 20
-859.729
 30
4932.570
 70
    32
  0
VERTEX
  8
T03SSILL
 62
4
 10
969.807
 20
-863.825
 30
4932.570
 70
    32
  0
VERTEX
  8
T03SSILL
 62
4
 10
968.589
 20
-866.828
 30
4932.570
 70
    32
  0
VERTEX
  8
T03SSILL
 62
4
 10
976.320
 20
-880.008
 30
4932.570
 70
    32
  0
VERTEX
  8
T03SSILL
 62
4
 10
976.880
 20
-886.261
 30
4932.570
 70
    32
  0
VERTEX
  8
T03SSILL
 62
4
 10
981.918
 20
-889.321
 30
4932.570
 70
    32
  0
SEQEND
  8
T03SSILL
  0
POLYLINE
  8
T03SSILL
 62
4
 66
     1
 70
     9
  0
VERTEX
  8
T03SSILL
 62
4
 10
985.511
 20
-849.560
 30
4932.570
 70
    32
  0
VERTEX
  8
T03SSILL
 62
4
 10
975.742
 20
-834.364
 30
4932.570
 70
    32
  0
VERTEX
  8
T03SSILL
 62
4
 10
968.673
 20
-830.345
 30
4932.570
 70
    32
  0
VERTEX
  8
T03SSILL
 62
4
 10
962.763
 20
-829.140
 30
4932.570
 70
    32
  0
VERTEX
  8
T03SSILL
 62
4
 10
956.896
 20
-836.660
 30
4932.570
 70
    32
  0
VERTEX
  8
T03SSILL
 62
4
 10
956.137
 20
-843.713
 30
4932.570
 70
    32
  0
VERTEX
  8
T03SSILL
 62
4
 10
962.206
 20
-859.192
 30
4932.570
 70
    32
  0
VERTEX
  8
T03SSILL
 62
4
 10
966.269
 20
-861.111
 30
4932.570
 70
    32
  0
VERTEX
  8
T03SSILL
 62
4
 10
970.837
 20
-858.181
 30
4932.570
 70
    32
  0
SEQEND
  8
T03SSILL
  0
POLYLINE
  8
T03SSILL
 62
4
 66
     1
 70
     9
  0
VERTEX
  8
T03SSILL
 62
4
 10
258.485
 20
-898.090
 30
4932.570
 70
    32
  0
VERTEX
  8
T03SSILL
 62
4
 10
343.896
 20
-848.761
 30
4932.570
 70
    32
  0
VERTEX
  8
T03SSILL
 62
4
 10
354.648
 20
-848.972
 30
4932.570
 70
    32
  0
VERTEX
  8
T03SSILL
 62
4
 10
416.555
 20
-894.138
 30
4932.570
 70
    32
  0
VERTEX
  8
T03SSILL
 62
4
 10
417.034
 20
-919.690
 30
4932.570
 70
    32
  0
VERTEX
  8
T03SSILL
 62
4
 10
394.858
 20
-925.792
 30
4932.570
 70
    32
  0
VERTEX
  8
T03SSILL
 62
4
 10
400.612
 20
-949.116
 30
4932.570
 70
    32
  0
VERTEX
  8
T03SSILL
 62
4
 10
418.920
 20
-944.707
 30
4932.570
 70
    32
  0
VERTEX
  8
T03SSILL
 62
4
 10
421.528
 20
-955.269
 30
4932.570
 70
    32
  0
VERTEX
  8
T03SSILL
 62
4
 10
401.446
 20
-957.307
 30
4932.570
 70
    32
  0
VERTEX
  8
T03SSILL
 62
4
 10
402.362
 20
-964.264
 30
4932.570
 70
    32
  0
VERTEX
  8
T03SSILL
 62
4
 10
418.389
 20
-962.070
 30
4932.570
 70
    32
  0
VERTEX
  8
T03SSILL
 62
4
 10
424.237
 20
-986.363
 30
4932.570
 70
    32
  0
VERTEX
  8
T03SSILL
 62
4
 10
429.693
 20
-984.926
 30
4932.570
 70
    32
  0
VERTEX
  8
T03SSILL
 62
4
 10
434.983
 20
-1003.317
 30
4932.570
 70
    32
  0
VERTEX
  8
T03SSILL
 62
4
 10
432.715
 20
-1008.087
 30
4932.570
 70
    32
  0
VERTEX
  8
T03SSILL
 62
4
 10
426.045
 20
-1013.583
 30
4932.570
 70
    32
  0
VERTEX
  8
T03SSILL
 62
4
 10
334.604
 20
-1037.210
 30
4932.570
 70
    32
  0
VERTEX
  8
T03SSILL
 62
4
 10
331.426
 20
-1036.080
 30
4932.570
 70
    32
  0
VERTEX
  8
T03SSILL
 62
4
 10
298.794
 20
-977.024
 30
4932.570
 70
    32
  0
VERTEX
  8
T03SSILL
 62
4
 10
271.499
 20
-910.098
 30
4932.570
 70
    32
  0
SEQEND
  8
T03SSILL
  0
POLYLINE
  8
T03SSILL
 62
4
 66
     1
 70
     9
  0
VERTEX
  8
T03SSILL
 62
4
 10
322.253
 20
-1034.451
 30
4932.570
 70
    32
  0
VERTEX
  8
T03SSILL
 62
4
 10
323.870
 20
-1040.612
 30
4932.570
 70
    32
  0
VERTEX
  8
T03SSILL
 62
4
 10
323.365
 20
-1045.373
 30
4932.570
 70
    32
  0
VERTEX
  8
T03SSILL
 62
4
 10
321.875
 20
-1047.143
 30
4932.570
 70
    32
  0
VERTEX
  8
T03SSILL
 62
4
 10
296.441
 20
-1053.877
 30
4932.570
 70
    32
  0
VERTEX
  8
T03SSILL
 62
4
 10
292.726
 20
-1050.899
 30
4932.570
 70
    32
  0
VERTEX
  8
T03SSILL
 62
4
 10
292.095
 20
-1048.171
 30
4932.570
 70
    32
  0
VERTEX
  8
T03SSILL
 62
4
 10
286.111
 20
-1049.698
 30
4932.570
 70
    32
  0
VERTEX
  8
T03SSILL
 62
4
 10
284.935
 20
-1043.712
 30
4932.570
 70
    32
  0
VERTEX
  8
T03SSILL
 62
4
 10
273.404
 20
-1046.148
 30
4932.570
 70
    32
  0
VERTEX
  8
T03SSILL
 62
4
 10
269.878
 20
-1028.189
 30
4932.570
 70
    32
  0
VERTEX
  8
T03SSILL
 62
4
 10
263.543
 20
-1030.071
 30
4932.570
 70
    32
  0
VERTEX
  8
T03SSILL
 62
4
 10
259.664
 20
-1011.849
 30
4932.570
 70
    32
  0
VERTEX
  8
T03SSILL
 62
4
 10
265.826
 20
-1010.496
 30
4932.570
 70
    32
  0
VERTEX
  8
T03SSILL
 62
4
 10
261.949
 20
-992.715
 30
4932.570
 70
    32
  0
VERTEX
  8
T03SSILL
 62
4
 10
255.875
 20
-994.155
 30
4932.570
 70
    32
  0
VERTEX
  8
T03SSILL
 62
4
 10
245.421
 20
-947.062
 30
4932.570
 70
    32
  0
VERTEX
  8
T03SSILL
 62
4
 10
256.865
 20
-944.626
 30
4932.570
 70
    32
  0
VERTEX
  8
T03SSILL
 62
4
 10
260.008
 20
-938.706
 30
4932.570
 70
    32
  0
VERTEX
  8
T03SSILL
 62
4
 10
265.375
 20
-937.006
 30
4932.570
 70
    32
  0
VERTEX
  8
T03SSILL
 62
4
 10
269.710
 20
-940.597
 30
4932.570
 70
    32
  0
VERTEX
  8
T03SSILL
 62
4
 10
288.017
 20
-971.702
 30
4932.570
 70
    32
  0
SEQEND
  8
T03SSILL
  0
POLYLINE
  8
T03SSILL
 62
4
 66
     1
 70
     9
  0
VERTEX
  8
T03SSILL
 62
4
 10
-76.439
 20
-1170.804
 30
4932.570
 70
    32
  0
VERTEX
  8
T03SSILL
 62
4
 10
364.899
 20
-1729.958
 30
4932.570
 70
    32
  0
VERTEX
  8
T03SSILL
 62
4
 10
386.342
 20
-1753.645
 30
4932.570
 70
    32
  0
VERTEX
  8
T03SSILL
 62
4
 10
394.442
 20
-1752.283
 30
4932.570
 70
    32
  0
VERTEX
  8
T03SSILL
 62
4
 10
482.513
 20
-1670.689
 30
4932.570
 70
    32
  0
VERTEX
  8
T03SSILL
 62
4
 10
486.275
 20
-1665.207
 30
4932.570
 70
    32
  0
VERTEX
  8
T03SSILL
 62
4
 10
488.404
 20
-1614.527
 30
4932.570
 70
    32
  0
VERTEX
  8
T03SSILL
 62
4
 10
473.833
 20
-1572.389
 30
4932.570
 70
    32
  0
VERTEX
  8
T03SSILL
 62
4
 10
471.703
 20
-1569.403
 30
4932.570
 70
    32
  0
VERTEX
  8
T03SSILL
 62
4
 10
470.704
 20
-1563.328
 30
4932.570
 70
    32
  0
VERTEX
  8
T03SSILL
 62
4
 10
465.244
 20
-1564.059
 30
4932.570
 70
    32
  0
VERTEX
  8
T03SSILL
 62
4
 10
464.338
 20
-1559.041
 30
4932.570
 70
    32
  0
VERTEX
  8
T03SSILL
 62
4
 10
469.443
 20
-1557.782
 30
4932.570
 70
    32
  0
VERTEX
  8
T03SSILL
 62
4
 10
459.605
 20
-1510.598
 30
4932.570
 70
    32
  0
VERTEX
  8
T03SSILL
 62
4
 10
454.585
 20
-1511.327
 30
4932.570
 70
    32
  0
VERTEX
  8
T03SSILL
 62
4
 10
451.062
 20
-1493.809
 30
4932.570
 70
    32
  0
VERTEX
  8
T03SSILL
 62
4
 10
462.244
 20
-1491.815
 30
4932.570
 70
    32
  0
VERTEX
  8
T03SSILL
 62
4
 10
474.347
 20
-1551.589
 30
4932.570
 70
    32
  0
VERTEX
  8
T03SSILL
 62
4
 10
478.679
 20
-1554.388
 30
4932.570
 70
    32
  0
VERTEX
  8
T03SSILL
 62
4
 10
487.566
 20
-1551.789
 30
4932.570
 70
    32
  0
VERTEX
  8
T03SSILL
 62
4
 10
505.674
 20
-1542.711
 30
4932.570
 70
    32
  0
VERTEX
  8
T03SSILL
 62
4
 10
521.048
 20
-1533.118
 30
4932.570
 70
    32
  0
VERTEX
  8
T03SSILL
 62
4
 10
540.501
 20
-1528.704
 30
4932.570
 70
    32
  0
VERTEX
  8
T03SSILL
 62
4
 10
535.040
 20
-1511.283
 30
4932.570
 70
    32
  0
VERTEX
  8
T03SSILL
 62
4
 10
540.936
 20
-1509.756
 30
4932.570
 70
    32
  0
VERTEX
  8
T03SSILL
 62
4
 10
544.342
 20
-1521.371
 30
4932.570
 70
    32
  0
VERTEX
  8
T03SSILL
 62
4
 10
550.150
 20
-1519.668
 30
4932.570
 70
    32
  0
VERTEX
  8
T03SSILL
 62
4
 10
556.411
 20
-1520.606
 30
4932.570
 70
    32
  0
VERTEX
  8
T03SSILL
 62
4
 10
561.954
 20
-1518.728
 30
4932.570
 70
    32
  0
VERTEX
  8
T03SSILL
 62
4
 10
634.258
 20
-1456.511
 30
4932.570
 70
    32
  0
VERTEX
  8
T03SSILL
 62
4
 10
636.086
 20
-1451.919
 30
4932.570
 70
    32
  0
VERTEX
  8
T03SSILL
 62
4
 10
634.656
 20
-1447.696
 30
4932.570
 70
    32
  0
VERTEX
  8
T03SSILL
 62
4
 10
632.618
 20
-1445.592
 30
4932.570
 70
    32
  0
VERTEX
  8
T03SSILL
 62
4
 10
588.634
 20
-1443.253
 30
4932.570
 70
    32
  0
VERTEX
  8
T03SSILL
 62
4
 10
545.065
 20
-1417.737
 30
4932.570
 70
    32
  0
VERTEX
  8
T03SSILL
 62
4
 10
534.225
 20
-1417.614
 30
4932.570
 70
    32
  0
VERTEX
  8
T03SSILL
 62
4
 10
525.809
 20
-1426.380
 30
4932.570
 70
    32
  0
VERTEX
  8
T03SSILL
 62
4
 10
520.360
 20
-1429.314
 30
4932.570
 70
    32
  0
VERTEX
  8
T03SSILL
 62
4
 10
533.150
 20
-1449.784
 30
4932.570
 70
    32
  0
VERTEX
  8
T03SSILL
 62
4
 10
528.493
 20
-1452.538
 30
4932.570
 70
    32
  0
VERTEX
  8
T03SSILL
 62
4
 10
531.690
 20
-1457.457
 30
4932.570
 70
    32
  0
VERTEX
  8
T03SSILL
 62
4
 10
526.682
 20
-1460.566
 30
4932.570
 70
    32
  0
VERTEX
  8
T03SSILL
 62
4
 10
535.925
 20
-1476.382
 30
4932.570
 70
    32
  0
VERTEX
  8
T03SSILL
 62
4
 10
525.382
 20
-1482.867
 30
4932.570
 70
    32
  0
VERTEX
  8
T03SSILL
 62
4
 10
528.493
 20
-1488.227
 30
4932.570
 70
    32
  0
VERTEX
  8
T03SSILL
 62
4
 10
523.573
 20
-1491.160
 30
4932.570
 70
    32
  0
VERTEX
  8
T03SSILL
 62
4
 10
532.727
 20
-1506.888
 30
4932.570
 70
    32
  0
VERTEX
  8
T03SSILL
 62
4
 10
527.808
 20
-1510.085
 30
4932.570
 70
    32
  0
VERTEX
  8
T03SSILL
 62
4
 10
530.121
 20
-1514.479
 30
4932.570
 70
    32
  0
VERTEX
  8
T03SSILL
 62
4
 10
525.023
 20
-1517.236
 30
4932.570
 70
    32
  0
VERTEX
  8
T03SSILL
 62
4
 10
500.591
 20
-1476.909
 30
4932.570
 70
    32
  0
VERTEX
  8
T03SSILL
 62
4
 10
495.141
 20
-1479.668
 30
4932.570
 70
    32
  0
VERTEX
  8
T03SSILL
 62
4
 10
488.835
 20
-1469.653
 30
4932.570
 70
    32
  0
VERTEX
  8
T03SSILL
 62
4
 10
458.087
 20
-1488.839
 30
4932.570
 70
    32
  0
VERTEX
  8
T03SSILL
 62
4
 10
454.888
 20
-1483.303
 30
4932.570
 70
    32
  0
VERTEX
  8
T03SSILL
 62
4
 10
449.616
 20
-1486.502
 30
4932.570
 70
    32
  0
VERTEX
  8
T03SSILL
 62
4
 10
436.740
 20
-1466.562
 30
4932.570
 70
    32
  0
VERTEX
  8
T03SSILL
 62
4
 10
446.931
 20
-1460.255
 30
4932.570
 70
    32
  0
VERTEX
  8
T03SSILL
 62
4
 10
386.614
 20
-1362.474
 30
4932.570
 70
    32
  0
VERTEX
  8
T03SSILL
 62
4
 10
392.062
 20
-1359.362
 30
4932.570
 70
    32
  0
VERTEX
  8
T03SSILL
 62
4
 10
385.582
 20
-1349.701
 30
4932.570
 70
    32
  0
VERTEX
  8
T03SSILL
 62
4
 10
391.030
 20
-1346.502
 30
4932.570
 70
    32
  0
VERTEX
  8
T03SSILL
 62
4
 10
388.183
 20
-1341.140
 30
4932.570
 70
    32
  0
VERTEX
  8
T03SSILL
 62
4
 10
393.104
 20
-1338.384
 30
4932.570
 70
    32
  0
VERTEX
  8
T03SSILL
 62
4
 10
354.819
 20
-1276.448
 30
4932.570
 70
    32
  0
VERTEX
  8
T03SSILL
 62
4
 10
349.547
 20
-1279.558
 30
4932.570
 70
    32
  0
VERTEX
  8
T03SSILL
 62
4
 10
321.474
 20
-1233.609
 30
4932.570
 70
    32
  0
VERTEX
  8
T03SSILL
 62
4
 10
332.019
 20
-1227.741
 30
4932.570
 70
    32
  0
VERTEX
  8
T03SSILL
 62
4
 10
328.995
 20
-1222.028
 30
4932.570
 70
    32
  0
VERTEX
  8
T03SSILL
 62
4
 10
349.291
 20
-1209.944
 30
4932.570
 70
    32
  0
VERTEX
  8
T03SSILL
 62
4
 10
329.752
 20
-1178.933
 30
4932.570
 70
    32
  0
VERTEX
  8
T03SSILL
 62
4
 10
330.821
 20
-1163.595
 30
4932.570
 70
    32
  0
VERTEX
  8
T03SSILL
 62
4
 10
328.774
 20
-1159.375
 30
4932.570
 70
    32
  0
VERTEX
  8
T03SSILL
 62
4
 10
261.980
 20
-1106.303
 30
4932.570
 70
    32
  0
VERTEX
  8
T03SSILL
 62
4
 10
260.004
 20
-1098.646
 30
4932.570
 70
    32
  0
VERTEX
  8
T03SSILL
 62
4
 10
254.369
 20
-1099.732
 30
4932.570
 70
    32
  0
VERTEX
  8
T03SSILL
 62
4
 10
253.196
 20
-1094.098
 30
4932.570
 70
    32
  0
VERTEX
  8
T03SSILL
 62
4
 10
230.043
 20
-1098.794
 30
4932.570
 70
    32
  0
VERTEX
  8
T03SSILL
 62
4
 10
227.339
 20
-1086.471
 30
4932.570
 70
    32
  0
VERTEX
  8
T03SSILL
 62
4
 10
215.347
 20
-1085.032
 30
4932.570
 70
    32
  0
VERTEX
  8
T03SSILL
 62
4
 10
141.767
 20
-1103.107
 30
4932.570
 70
    32
  0
VERTEX
  8
T03SSILL
 62
4
 10
133.428
 20
-1109.581
 30
4932.570
 70
    32
  0
VERTEX
  8
T03SSILL
 62
4
 10
133.523
 20
-1111.079
 30
4932.570
 70
    32
  0
VERTEX
  8
T03SSILL
 62
4
 10
127.891
 20
-1112.693
 30
4932.570
 70
    32
  0
VERTEX
  8
T03SSILL
 62
4
 10
131.032
 20
-1124.133
 30
4932.570
 70
    32
  0
VERTEX
  8
T03SSILL
 62
4
 10
130.966
 20
-1128.628
 30
4932.570
 70
    32
  0
VERTEX
  8
T03SSILL
 62
4
 10
221.431
 20
-1264.329
 30
4932.570
 70
    32
  0
VERTEX
  8
T03SSILL
 62
4
 10
214.128
 20
-1266.479
 30
4932.570
 70
    32
  0
VERTEX
  8
T03SSILL
 62
4
 10
126.321
 20
-1133.673
 30
4932.570
 70
    32
  0
VERTEX
  8
T03SSILL
 62
4
 10
123.116
 20
-1127.168
 30
4932.570
 70
    32
  0
VERTEX
  8
T03SSILL
 62
4
 10
85.720
 20
-1138.368
 30
4932.570
 70
    32
  0
VERTEX
  8
T03SSILL
 62
4
 10
108.824
 20
-1213.069
 30
4932.570
 70
    32
  0
VERTEX
  8
T03SSILL
 62
4
 10
61.839
 20
-1227.753
 30
4932.570
 70
    32
  0
VERTEX
  8
T03SSILL
 62
4
 10
36.767
 20
-1146.981
 30
4932.570
 70
    32
  0
VERTEX
  8
T03SSILL
 62
4
 10
31.400
 20
-1148.770
 30
4932.570
 70
    32
  0
VERTEX
  8
T03SSILL
 62
4
 10
28.451
 20
-1140.413
 30
4932.570
 70
    32
  0
VERTEX
  8
T03SSILL
 62
4
 10
22.189
 20
-1139.386
 30
4932.570
 70
    32
  0
VERTEX
  8
T03SSILL
 62
4
 10
16.470
 20
-1141.177
 30
4932.570
 70
    32
  0
SEQEND
  8
T03SSILL
  0
POLYLINE
  8
T03SSILL
 62
4
 66
     1
 70
     9
  0
VERTEX
  8
T03SSILL
 62
4
 10
297.045
 20
-1069.119
 30
4932.570
 70
    32
  0
VERTEX
  8
T03SSILL
 62
4
 10
301.775
 20
-1063.280
 30
4932.570
 70
    32
  0
VERTEX
  8
T03SSILL
 62
4
 10
328.437
 20
-1055.394
 30
4932.570
 70
    32
  0
VERTEX
  8
T03SSILL
 62
4
 10
332.671
 20
-1056.166
 30
4932.570
 70
    32
  0
VERTEX
  8
T03SSILL
 62
4
 10
336.395
 20
-1060.818
 30
4932.570
 70
    32
  0
VERTEX
  8
T03SSILL
 62
4
 10
390.541
 20
-1158.189
 30
4932.570
 70
    32
  0
VERTEX
  8
T03SSILL
 62
4
 10
390.911
 20
-1161.712
 30
4932.570
 70
    32
  0
VERTEX
  8
T03SSILL
 62
4
 10
387.928
 20
-1164.370
 30
4932.570
 70
    32
  0
VERTEX
  8
T03SSILL
 62
4
 10
362.189
 20
-1180.800
 30
4932.570
 70
    32
  0
VERTEX
  8
T03SSILL
 62
4
 10
359.195
 20
-1181.079
 30
4932.570
 70
    32
  0
VERTEX
  8
T03SSILL
 62
4
 10
344.813
 20
-1159.560
 30
4932.570
 70
    32
  0
VERTEX
  8
T03SSILL
 62
4
 10
335.634
 20
-1156.786
 30
4932.570
 70
    32
  0
VERTEX
  8
T03SSILL
 62
4
 10
284.318
 20
-1115.093
 30
4932.570
 70
    32
  0
VERTEX
  8
T03SSILL
 62
4
 10
281.778
 20
-1100.390
 30
4932.570
 70
    32
  0
VERTEX
  8
T03SSILL
 62
4
 10
302.552
 20
-1095.617
 30
4932.570
 70
    32
  0
SEQEND
  8
T03SSILL
  0
POLYLINE
  8
T03SSILL
 62
4
 66
     1
 70
     9
  0
VERTEX
  8
T03SSILL
 62
4
 10
511.734
 20
-1074.228
 30
4932.570
 70
    32
  0
VERTEX
  8
T03SSILL
 62
4
 10
489.607
 20
-1090.376
 30
4932.570
 70
    32
  0
VERTEX
  8
T03SSILL
 62
4
 10
500.975
 20
-1108.384
 30
4932.570
 70
    32
  0
VERTEX
  8
T03SSILL
 62
4
 10
520.864
 20
-1102.999
 30
4932.570
 70
    32
  0
VERTEX
  8
T03SSILL
 62
4
 10
523.194
 20
-1110.830
 30
4932.570
 70
    32
  0
VERTEX
  8
T03SSILL
 62
4
 10
519.859
 20
-1113.578
 30
4932.570
 70
    32
  0
VERTEX
  8
T03SSILL
 62
4
 10
494.698
 20
-1157.763
 30
4932.570
 70
    32
  0
VERTEX
  8
T03SSILL
 62
4
 10
487.838
 20
-1160.529
 30
4932.570
 70
    32
  0
VERTEX
  8
T03SSILL
 62
4
 10
465.998
 20
-1163.368
 30
4932.570
 70
    32
  0
VERTEX
  8
T03SSILL
 62
4
 10
462.897
 20
-1159.859
 30
4932.570
 70
    32
  0
VERTEX
  8
T03SSILL
 62
4
 10
457.269
 20
-1162.354
 30
4932.570
 70
    32
  0
VERTEX
  8
T03SSILL
 62
4
 10
457.641
 20
-1166.229
 30
4932.570
 70
    32
  0
VERTEX
  8
T03SSILL
 62
4
 10
420.220
 20
-1190.207
 30
4932.570
 70
    32
  0
VERTEX
  8
T03SSILL
 62
4
 10
416.607
 20
-1190.313
 30
4932.570
 70
    32
  0
VERTEX
  8
T03SSILL
 62
4
 10
414.301
 20
-1187.240
 30
4932.570
 70
    32
  0
VERTEX
  8
T03SSILL
 62
4
 10
381.139
 20
-1128.010
 30
4932.570
 70
    32
  0
VERTEX
  8
T03SSILL
 62
4
 10
386.120
 20
-1119.438
 30
4932.570
 70
    32
  0
VERTEX
  8
T03SSILL
 62
4
 10
445.085
 20
-1086.189
 30
4932.570
 70
    32
  0
VERTEX
  8
T03SSILL
 62
4
 10
450.374
 20
-1086.516
 30
4932.570
 70
    32
  0
VERTEX
  8
T03SSILL
 62
4
 10
454.421
 20
-1102.974
 30
4932.570
 70
    32
  0
VERTEX
  8
T03SSILL
 62
4
 10
460.848
 20
-1101.797
 30
4932.570
 70
    32
  0
VERTEX
  8
T03SSILL
 62
4
 10
462.108
 20
-1107.166
 30
4932.570
 70
    32
  0
VERTEX
  8
T03SSILL
 62
4
 10
479.359
 20
-1102.939
 30
4932.570
 70
    32
  0
VERTEX
  8
T03SSILL
 62
4
 10
468.581
 20
-1061.664
 30
4932.570
 70
    32
  0
VERTEX
  8
T03SSILL
 62
4
 10
474.213
 20
-1060.226
 30
4932.570
 70
    32
  0
VERTEX
  8
T03SSILL
 62
4
 10
472.685
 20
-1054.065
 30
4932.570
 70
    32
  0
VERTEX
  8
T03SSILL
 62
4
 10
477.789
 20
-1052.718
 30
4932.570
 70
    32
  0
VERTEX
  8
T03SSILL
 62
4
 10
476.528
 20
-1047.084
 30
4932.570
 70
    32
  0
VERTEX
  8
T03SSILL
 62
4
 10
481.982
 20
-1045.207
 30
4932.570
 70
    32
  0
VERTEX
  8
T03SSILL
 62
4
 10
481.247
 20
-1039.042
 30
4932.570
 70
    32
  0
VERTEX
  8
T03SSILL
 62
4
 10
491.895
 20
-1036.170
 30
4932.570
 70
    32
  0
VERTEX
  8
T03SSILL
 62
4
 10
486.685
 20
-1016.104
 30
4932.570
 70
    32
  0
VERTEX
  8
T03SSILL
 62
4
 10
489.406
 20
-1013.975
 30
4932.570
 70
    32
  0
VERTEX
  8
T03SSILL
 62
4
 10
491.821
 20
-1021.101
 30
4932.570
 70
    32
  0
SEQEND
  8
T03SSILL
  0
POLYLINE
  8
T03SSILL
 62
4
 66
     1
 70
     9
  0
VERTEX
  8
T03SSILL
 62
4
 10
369.669
 20
-1196.537
 30
4932.570
 70
    32
  0
VERTEX
  8
T03SSILL
 62
4
 10
364.751
 20
-1199.998
 30
4932.570
 70
    32
  0
VERTEX
  8
T03SSILL
 62
4
 10
361.731
 20
-1195.078
 30
4932.570
 70
    32
  0
VERTEX
  8
T03SSILL
 62
4
 10
365.120
 20
-1185.456
 30
4932.570
 70
    32
  0
VERTEX
  8
T03SSILL
 62
4
 10
392.706
 20
-1168.400
 30
4932.570
 70
    32
  0
VERTEX
  8
T03SSILL
 62
4
 10
396.855
 20
-1169.878
 30
4932.570
 70
    32
  0
VERTEX
  8
T03SSILL
 62
4
 10
409.922
 20
-1192.813
 30
4932.570
 70
    32
  0
VERTEX
  8
T03SSILL
 62
4
 10
407.215
 20
-1197.849
 30
4932.570
 70
    32
  0
VERTEX
  8
T03SSILL
 62
4
 10
378.992
 20
-1210.766
 30
4932.570
 70
    32
  0
SEQEND
  8
T03SSILL
  0
POLYLINE
  8
T03SSILL
 62
4
 66
     1
 70
     9
  0
VERTEX
  8
T03SSILL
 62
4
 10
530.947
 20
-1003.284
 30
4932.570
 70
    32
  0
VERTEX
  8
T03SSILL
 62
4
 10
936.921
 20
-1235.419
 30
4932.570
 70
    32
  0
VERTEX
  8
T03SSILL
 62
4
 10
954.643
 20
-1272.959
 30
4932.570
 70
    32
  0
VERTEX
  8
T03SSILL
 62
4
 10
955.015
 20
-1276.923
 30
4932.570
 70
    32
  0
VERTEX
  8
T03SSILL
 62
4
 10
952.828
 20
-1280.282
 30
4932.570
 70
    32
  0
VERTEX
  8
T03SSILL
 62
4
 10
906.114
 20
-1313.911
 30
4932.570
 70
    32
  0
VERTEX
  8
T03SSILL
 62
4
 10
850.021
 20
-1340.007
 30
4932.570
 70
    32
  0
VERTEX
  8
T03SSILL
 62
4
 10
840.414
 20
-1339.614
 30
4932.570
 70
    32
  0
VERTEX
  8
T03SSILL
 62
4
 10
834.871
 20
-1341.315
 30
4932.570
 70
    32
  0
VERTEX
  8
T03SSILL
 62
4
 10
790.744
 20
-1310.074
 30
4932.570
 70
    32
  0
VERTEX
  8
T03SSILL
 62
4
 10
784.167
 20
-1298.651
 30
4932.570
 70
    32
  0
VERTEX
  8
T03SSILL
 62
4
 10
780.049
 20
-1285.717
 30
4932.570
 70
    32
  0
VERTEX
  8
T03SSILL
 62
4
 10
785.897
 20
-1274.321
 30
4932.570
 70
    32
  0
VERTEX
  8
T03SSILL
 62
4
 10
782.249
 20
-1267.113
 30
4932.570
 70
    32
  0
VERTEX
  8
T03SSILL
 62
4
 10
779.325
 20
-1263.955
 30
4932.570
 70
    32
  0
VERTEX
  8
T03SSILL
 62
4
 10
758.905
 20
-1268.814
 30
4932.570
 70
    32
  0
VERTEX
  8
T03SSILL
 62
4
 10
743.464
 20
-1246.948
 30
4932.570
 70
    32
  0
VERTEX
  8
T03SSILL
 62
4
 10
743.536
 20
-1243.775
 30
4932.570
 70
    32
  0
VERTEX
  8
T03SSILL
 62
4
 10
737.984
 20
-1243.626
 30
4932.570
 70
    32
  0
VERTEX
  8
T03SSILL
 62
4
 10
730.534
 20
-1251.682
 30
4932.570
 70
    32
  0
VERTEX
  8
T03SSILL
 62
4
 10
743.926
 20
-1269.064
 30
4932.570
 70
    32
  0
VERTEX
  8
T03SSILL
 62
4
 10
741.151
 20
-1278.154
 30
4932.570
 70
    32
  0
VERTEX
  8
T03SSILL
 62
4
 10
747.925
 20
-1293.807
 30
4932.570
 70
    32
  0
VERTEX
  8
T03SSILL
 62
4
 10
745.537
 20
-1309.856
 30
4932.570
 70
    32
  0
VERTEX
  8
T03SSILL
 62
4
 10
758.643
 20
-1340.634
 30
4932.570
 70
    32
  0
VERTEX
  8
T03SSILL
 62
4
 10
753.367
 20
-1343.039
 30
4932.570
 70
    32
  0
VERTEX
  8
T03SSILL
 62
4
 10
760.058
 20
-1359.661
 30
4932.570
 70
    32
  0
VERTEX
  8
T03SSILL
 62
4
 10
754.783
 20
-1362.155
 30
4932.570
 70
    32
  0
VERTEX
  8
T03SSILL
 62
4
 10
759.419
 20
-1372.883
 30
4932.570
 70
    32
  0
VERTEX
  8
T03SSILL
 62
4
 10
748.870
 20
-1378.222
 30
4932.570
 70
    32
  0
VERTEX
  8
T03SSILL
 62
4
 10
743.893
 20
-1387.411
 30
4932.570
 70
    32
  0
VERTEX
  8
T03SSILL
 62
4
 10
678.398
 20
-1418.929
 30
4932.570
 70
    32
  0
VERTEX
  8
T03SSILL
 62
4
 10
675.904
 20
-1413.566
 30
4932.570
 70
    32
  0
VERTEX
  8
T03SSILL
 62
4
 10
659.551
 20
-1421.225
 30
4932.570
 70
    32
  0
VERTEX
  8
T03SSILL
 62
4
 10
660.270
 20
-1423.954
 30
4932.570
 70
    32
  0
VERTEX
  8
T03SSILL
 62
4
 10
658.089
 20
-1428.547
 30
4932.570
 70
    32
  0
VERTEX
  8
T03SSILL
 62
4
 10
641.736
 20
-1436.118
 30
4932.570
 70
    32
  0
VERTEX
  8
T03SSILL
 62
4
 10
638.733
 20
-1434.723
 30
4932.570
 70
    32
  0
VERTEX
  8
T03SSILL
 62
4
 10
610.907
 20
-1385.248
 30
4932.570
 70
    32
  0
VERTEX
  8
T03SSILL
 62
4
 10
612.725
 20
-1378.541
 30
4932.570
 70
    32
  0
VERTEX
  8
T03SSILL
 62
4
 10
616.739
 20
-1370.591
 30
4932.570
 70
    32
  0
VERTEX
  8
T03SSILL
 62
4
 10
630.086
 20
-1361.008
 30
4932.570
 70
    32
  0
VERTEX
  8
T03SSILL
 62
4
 10
627.243
 20
-1356.263
 30
4932.570
 70
    32
  0
VERTEX
  8
T03SSILL
 62
4
 10
631.281
 20
-1353.071
 30
4932.570
 70
    32
  0
VERTEX
  8
T03SSILL
 62
4
 10
603.855
 20
-1313.375
 30
4932.570
 70
    32
  0
VERTEX
  8
T03SSILL
 62
4
 10
619.312
 20
-1302.813
 30
4932.570
 70
    32
  0
VERTEX
  8
T03SSILL
 62
4
 10
598.371
 20
-1273.395
 30
4932.570
 70
    32
  0
VERTEX
  8
T03SSILL
 62
4
 10
583.179
 20
-1284.133
 30
4932.570
 70
    32
  0
VERTEX
  8
T03SSILL
 62
4
 10
586.374
 20
-1288.788
 30
4932.570
 70
    32
  0
VERTEX
  8
T03SSILL
 62
4
 10
561.963
 20
-1306.356
 30
4932.570
 70
    32
  0
VERTEX
  8
T03SSILL
 62
4
 10
555.042
 20
-1296.785
 30
4932.570
 70
    32
  0
VERTEX
  8
T03SSILL
 62
4
 10
550.036
 20
-1300.158
 30
4932.570
 70
    32
  0
VERTEX
  8
T03SSILL
 62
4
 10
556.868
 20
-1309.642
 30
4932.570
 70
    32
  0
VERTEX
  8
T03SSILL
 62
4
 10
552.214
 20
-1313.013
 30
4932.570
 70
    32
  0
VERTEX
  8
T03SSILL
 62
4
 10
558.960
 20
-1322.850
 30
4932.570
 70
    32
  0
VERTEX
  8
T03SSILL
 62
4
 10
554.131
 20
-1326.486
 30
4932.570
 70
    32
  0
VERTEX
  8
T03SSILL
 62
4
 10
564.427
 20
-1341.416
 30
4932.570
 70
    32
  0
VERTEX
  8
T03SSILL
 62
4
 10
574.263
 20
-1334.494
 30
4932.570
 70
    32
  0
VERTEX
  8
T03SSILL
 62
4
 10
587.930
 20
-1354.166
 30
4932.570
 70
    32
  0
VERTEX
  8
T03SSILL
 62
4
 10
577.027
 20
-1359.066
 30
4932.570
 70
    32
  0
VERTEX
  8
T03SSILL
 62
4
 10
574.677
 20
-1364.982
 30
4932.570
 70
    32
  0
VERTEX
  8
T03SSILL
 62
4
 10
548.163
 20
-1384.940
 30
4932.570
 70
    32
  0
VERTEX
  8
T03SSILL
 62
4
 10
542.191
 20
-1388.935
 30
4932.570
 70
    32
  0
VERTEX
  8
T03SSILL
 62
4
 10
535.232
 20
-1389.586
 30
4932.570
 70
    32
  0
VERTEX
  8
T03SSILL
 62
4
 10
493.330
 20
-1309.162
 30
4932.570
 70
    32
  0
VERTEX
  8
T03SSILL
 62
4
 10
489.207
 20
-1295.083
 30
4932.570
 70
    32
  0
VERTEX
  8
T03SSILL
 62
4
 10
488.985
 20
-1285.743
 30
4932.570
 70
    32
  0
VERTEX
  8
T03SSILL
 62
4
 10
513.673
 20
-1270.729
 30
4932.570
 70
    32
  0
VERTEX
  8
T03SSILL
 62
4
 10
507.453
 20
-1260.362
 30
4932.570
 70
    32
  0
VERTEX
  8
T03SSILL
 62
4
 10
472.841
 20
-1282.122
 30
4932.570
 70
    32
  0
VERTEX
  8
T03SSILL
 62
4
 10
445.245
 20
-1243.661
 30
4932.570
 70
    32
  0
VERTEX
  8
T03SSILL
 62
4
 10
421.239
 20
-1200.336
 30
4932.570
 70
    32
  0
VERTEX
  8
T03SSILL
 62
4
 10
423.852
 20
-1194.154
 30
4932.570
 70
    32
  0
VERTEX
  8
T03SSILL
 62
4
 10
460.926
 20
-1171.148
 30
4932.570
 70
    32
  0
VERTEX
  8
T03SSILL
 62
4
 10
463.317
 20
-1173.604
 30
4932.570
 70
    32
  0
VERTEX
  8
T03SSILL
 62
4
 10
468.589
 20
-1170.582
 30
4932.570
 70
    32
  0
VERTEX
  8
T03SSILL
 62
4
 10
468.756
 20
-1168.554
 30
4932.570
 70
    32
  0
VERTEX
  8
T03SSILL
 62
4
 10
493.156
 20
-1166.759
 30
4932.570
 70
    32
  0
VERTEX
  8
T03SSILL
 62
4
 10
507.202
 20
-1191.540
 30
4932.570
 70
    32
  0
VERTEX
  8
T03SSILL
 62
4
 10
502.634
 20
-1194.382
 30
4932.570
 70
    32
  0
VERTEX
  8
T03SSILL
 62
4
 10
511.081
 20
-1209.850
 30
4932.570
 70
    32
  0
VERTEX
  8
T03SSILL
 62
4
 10
505.896
 20
-1212.696
 30
4932.570
 70
    32
  0
VERTEX
  8
T03SSILL
 62
4
 10
511.500
 20
-1223.331
 30
4932.570
 70
    32
  0
VERTEX
  8
T03SSILL
 62
4
 10
506.493
 20
-1226.440
 30
4932.570
 70
    32
  0
VERTEX
  8
T03SSILL
 62
4
 10
508.986
 20
-1231.715
 30
4932.570
 70
    32
  0
VERTEX
  8
T03SSILL
 62
4
 10
503.363
 20
-1235.003
 30
4932.570
 70
    32
  0
VERTEX
  8
T03SSILL
 62
4
 10
514.923
 20
-1256.095
 30
4932.570
 70
    32
  0
VERTEX
  8
T03SSILL
 62
4
 10
510.881
 20
-1258.582
 30
4932.570
 70
    32
  0
VERTEX
  8
T03SSILL
 62
4
 10
524.489
 20
-1283.894
 30
4932.570
 70
    32
  0
VERTEX
  8
T03SSILL
 62
4
 10
529.854
 20
-1281.929
 30
4932.570
 70
    32
  0
VERTEX
  8
T03SSILL
 62
4
 10
532.701
 20
-1287.290
 30
4932.570
 70
    32
  0
VERTEX
  8
T03SSILL
 62
4
 10
544.042
 20
-1281.947
 30
4932.570
 70
    32
  0
VERTEX
  8
T03SSILL
 62
4
 10
550.260
 20
-1291.874
 30
4932.570
 70
    32
  0
VERTEX
  8
T03SSILL
 62
4
 10
555.356
 20
-1288.941
 30
4932.570
 70
    32
  0
VERTEX
  8
T03SSILL
 62
4
 10
543.797
 20
-1267.937
 30
4932.570
 70
    32
  0
VERTEX
  8
T03SSILL
 62
4
 10
548.541
 20
-1265.094
 30
4932.570
 70
    32
  0
VERTEX
  8
T03SSILL
 62
4
 10
542.759
 20
-1254.107
 30
4932.570
 70
    32
  0
VERTEX
  8
T03SSILL
 62
4
 10
547.856
 20
-1251.262
 30
4932.570
 70
    32
  0
VERTEX
  8
T03SSILL
 62
4
 10
545.274
 20
-1245.899
 30
4932.570
 70
    32
  0
VERTEX
  8
T03SSILL
 62
4
 10
554.764
 20
-1240.389
 30
4932.570
 70
    32
  0
VERTEX
  8
T03SSILL
 62
4
 10
552.272
 20
-1235.466
 30
4932.570
 70
    32
  0
VERTEX
  8
T03SSILL
 62
4
 10
557.281
 20
-1232.534
 30
4932.570
 70
    32
  0
VERTEX
  8
T03SSILL
 62
4
 10
534.163
 20
-1190.790
 30
4932.570
 70
    32
  0
VERTEX
  8
T03SSILL
 62
4
 10
538.908
 20
-1187.947
 30
4932.570
 70
    32
  0
VERTEX
  8
T03SSILL
 62
4
 10
526.282
 20
-1165.186
 30
4932.570
 70
    32
  0
VERTEX
  8
T03SSILL
 62
4
 10
528.292
 20
-1161.651
 30
4932.570
 70
    32
  0
VERTEX
  8
T03SSILL
 62
4
 10
533.053
 20
-1162.332
 30
4932.570
 70
    32
  0
VERTEX
  8
T03SSILL
 62
4
 10
536.825
 20
-1158.789
 30
4932.570
 70
    32
  0
VERTEX
  8
T03SSILL
 62
4
 10
525.006
 20
-1085.090
 30
4932.570
 70
    32
  0
VERTEX
  8
T03SSILL
 62
4
 10
496.271
 20
-1012.267
 30
4932.570
 70
    32
  0
SEQEND
  8
T03SSILL
  0
POLYLINE
  8
T03SSILL
 62
4
 66
     1
 70
     9
  0
VERTEX
  8
T03SSILL
 62
4
 10
483.814
 20
-1416.453
 30
4932.570
 70
    32
  0
VERTEX
  8
T03SSILL
 62
4
 10
499.701
 20
-1421.574
 30
4932.570
 70
    32
  0
VERTEX
  8
T03SSILL
 62
4
 10
511.128
 20
-1415.701
 30
4932.570
 70
    32
  0
VERTEX
  8
T03SSILL
 62
4
 10
523.494
 20
-1403.656
 30
4932.570
 70
    32
  0
VERTEX
  8
T03SSILL
 62
4
 10
527.570
 20
-1390.505
 30
4932.570
 70
    32
  0
VERTEX
  8
T03SSILL
 62
4
 10
489.224
 20
-1316.232
 30
4932.570
 70
    32
  0
VERTEX
  8
T03SSILL
 62
4
 10
472.734
 20
-1296.222
 30
4932.570
 70
    32
  0
VERTEX
  8
T03SSILL
 62
4
 10
468.077
 20
-1298.889
 30
4932.570
 70
    32
  0
VERTEX
  8
T03SSILL
 62
4
 10
480.072
 20
-1318.833
 30
4932.570
 70
    32
  0
VERTEX
  8
T03SSILL
 62
4
 10
449.761
 20
-1337.224
 30
4932.570
 70
    32
  0
VERTEX
  8
T03SSILL
 62
4
 10
485.293
 20
-1394.680
 30
4932.570
 70
    32
  0
VERTEX
  8
T03SSILL
 62
4
 10
474.837
 20
-1400.900
 30
4932.570
 70
    32
  0
SEQEND
  8
T03SSILL
  0
POLYLINE
  8
T03SSILL
 62
4
 66
     1
 70
     9
  0
VERTEX
  8
T03SSILL
 62
4
 10
614.531
 20
-1405.409
 30
4932.570
 70
    32
  0
VERTEX
  8
T03SSILL
 62
4
 10
604.836
 20
-1387.128
 30
4932.570
 70
    32
  0
VERTEX
  8
T03SSILL
 62
4
 10
601.038
 20
-1385.384
 30
4932.570
 70
    32
  0
VERTEX
  8
T03SSILL
 62
4
 10
594.520
 20
-1386.033
 30
4932.570
 70
    32
  0
VERTEX
  8
T03SSILL
 62
4
 10
587.663
 20
-1389.240
 30
4932.570
 70
    32
  0
SEQEND
  8
T03SSILL
  0
POLYLINE
  8
T03SSILL
 62
4
 66
     1
 70
     9
  0
VERTEX
  8
T03SSILL
 62
4
 10
754.663
 20
-1302.145
 30
4932.570
 70
    32
  0
VERTEX
  8
T03SSILL
 62
4
 10
757.316
 20
-1321.871
 30
4932.570
 70
    32
  0
VERTEX
  8
T03SSILL
 62
4
 10
778.778
 20
-1367.324
 30
4932.570
 70
    32
  0
VERTEX
  8
T03SSILL
 62
4
 10
786.976
 20
-1367.988
 30
4932.570
 70
    32
  0
VERTEX
  8
T03SSILL
 62
4
 10
818.460
 20
-1355.143
 30
4932.570
 70
    32
  0
VERTEX
  8
T03SSILL
 62
4
 10
828.632
 20
-1344.871
 30
4932.570
 70
    32
  0
VERTEX
  8
T03SSILL
 62
4
 10
782.115
 20
-1311.526
 30
4932.570
 70
    32
  0
VERTEX
  8
T03SSILL
 62
4
 10
774.711
 20
-1293.322
 30
4932.570
 70
    32
  0
VERTEX
  8
T03SSILL
 62
4
 10
763.495
 20
-1288.178
 30
4932.570
 70
    32
  0
SEQEND
  8
T03SSILL
  0
POLYLINE
  8
T03SSILL
 62
4
 66
     1
 70
     9
  0
VERTEX
  8
T03SSILL
 62
4
 10
560.796
 20
-1534.155
 30
4932.570
 70
    32
  0
VERTEX
  8
T03SSILL
 62
4
 10
565.151
 20
-1523.912
 30
4932.570
 70
    32
  0
VERTEX
  8
T03SSILL
 62
4
 10
638.248
 20
-1461.338
 30
4932.570
 70
    32
  0
VERTEX
  8
T03SSILL
 62
4
 10
640.892
 20
-1461.501
 30
4932.570
 70
    32
  0
VERTEX
  8
T03SSILL
 62
4
 10
645.208
 20
-1478.839
 30
4932.570
 70
    32
  0
VERTEX
  8
T03SSILL
 62
4
 10
611.536
 20
-1566.246
 30
4932.570
 70
    32
  0
VERTEX
  8
T03SSILL
 62
4
 10
610.418
 20
-1571.891
 30
4932.570
 70
    32
  0
VERTEX
  8
T03SSILL
 62
4
 10
618.277
 20
-1610.890
 30
4932.570
 70
    32
  0
VERTEX
  8
T03SSILL
 62
4
 10
617.055
 20
-1613.275
 30
4932.570
 70
    32
  0
VERTEX
  8
T03SSILL
 62
4
 10
604.542
 20
-1613.249
 30
4932.570
 70
    32
  0
VERTEX
  8
T03SSILL
 62
4
 10
576.679
 20
-1591.973
 30
4932.570
 70
    32
  0
VERTEX
  8
T03SSILL
 62
4
 10
571.283
 20
-1569.969
 30
4932.570
 70
    32
  0
SEQEND
  8
T03SSILL
  0
POLYLINE
  8
T03SSILL
 62
4
 66
     1
 70
     9
  0
VERTEX
  8
T03SSILL
 62
4
 10
664.787
 20
-1499.980
 30
4932.570
 70
    32
  0
VERTEX
  8
T03SSILL
 62
4
 10
655.804
 20
-1483.193
 30
4932.570
 70
    32
  0
VERTEX
  8
T03SSILL
 62
4
 10
652.622
 20
-1481.358
 30
4932.570
 70
    32
  0
VERTEX
  8
T03SSILL
 62
4
 10
650.510
 20
-1481.985
 30
4932.570
 70
    32
  0
VERTEX
  8
T03SSILL
 62
4
 10
618.058
 20
-1566.390
 30
4932.570
 70
    32
  0
VERTEX
  8
T03SSILL
 62
4
 10
616.497
 20
-1571.596
 30
4932.570
 70
    32
  0
VERTEX
  8
T03SSILL
 62
4
 10
616.873
 20
-1576.265
 30
4932.570
 70
    32
  0
VERTEX
  8
T03SSILL
 62
4
 10
624.536
 20
-1611.299
 30
4932.570
 70
    32
  0
VERTEX
  8
T03SSILL
 62
4
 10
629.042
 20
-1613.745
 30
4932.570
 70
    32
  0
VERTEX
  8
T03SSILL
 62
4
 10
687.722
 20
-1612.045
 30
4932.570
 70
    32
  0
VERTEX
  8
T03SSILL
 62
4
 10
692.196
 20
-1607.793
 30
4932.570
 70
    32
  0
VERTEX
  8
T03SSILL
 62
4
 10
700.133
 20
-1591.275
 30
4932.570
 70
    32
  0
VERTEX
  8
T03SSILL
 62
4
 10
702.033
 20
-1583.335
 30
4932.570
 70
    32
  0
SEQEND
  8
T03SSILL
  0
POLYLINE
  8
T03SSILL
 62
4
 66
     1
 70
     9
  0
VERTEX
  8
T03SSILL
 62
4
 10
787.042
 20
-1559.916
 30
4932.570
 70
    32
  0
VERTEX
  8
T03SSILL
 62
4
 10
784.866
 20
-1565.302
 30
4932.570
 70
    32
  0
VERTEX
  8
T03SSILL
 62
4
 10
754.647
 20
-1584.485
 30
4932.570
 70
    32
  0
VERTEX
  8
T03SSILL
 62
4
 10
749.442
 20
-1583.277
 30
4932.570
 70
    32
  0
VERTEX
  8
T03SSILL
 62
4
 10
719.620
 20
-1522.268
 30
4932.570
 70
    32
  0
VERTEX
  8
T03SSILL
 62
4
 10
713.463
 20
-1524.678
 30
4932.570
 70
    32
  0
VERTEX
  8
T03SSILL
 62
4
 10
695.299
 20
-1486.699
 30
4932.570
 70
    32
  0
VERTEX
  8
T03SSILL
 62
4
 10
690.198
 20
-1488.751
 30
4932.570
 70
    32
  0
VERTEX
  8
T03SSILL
 62
4
 10
687.618
 20
-1483.829
 30
4932.570
 70
    32
  0
VERTEX
  8
T03SSILL
 62
4
 10
682.518
 20
-1485.881
 30
4932.570
 70
    32
  0
VERTEX
  8
T03SSILL
 62
4
 10
680.203
 20
-1481.134
 30
4932.570
 70
    32
  0
VERTEX
  8
T03SSILL
 62
4
 10
673.081
 20
-1484.342
 30
4932.570
 70
    32
  0
VERTEX
  8
T03SSILL
 62
4
 10
662.400
 20
-1480.693
 30
4932.570
 70
    32
  0
VERTEX
  8
T03SSILL
 62
4
 10
644.517
 20
-1446.150
 30
4932.570
 70
    32
  0
VERTEX
  8
T03SSILL
 62
4
 10
646.076
 20
-1440.502
 30
4932.570
 70
    32
  0
VERTEX
  8
T03SSILL
 62
4
 10
663.312
 20
-1433.368
 30
4932.570
 70
    32
  0
VERTEX
  8
T03SSILL
 62
4
 10
689.883
 20
-1442.665
 30
4932.570
 70
    32
  0
VERTEX
  8
T03SSILL
 62
4
 10
713.386
 20
-1455.503
 30
4932.570
 70
    32
  0
VERTEX
  8
T03SSILL
 62
4
 10
741.814
 20
-1466.114
 30
4932.570
 70
    32
  0
VERTEX
  8
T03SSILL
 62
4
 10
775.334
 20
-1472.998
 30
4932.570
 70
    32
  0
VERTEX
  8
T03SSILL
 62
4
 10
781.231
 20
-1489.536
 30
4932.570
 70
    32
  0
VERTEX
  8
T03SSILL
 62
4
 10
776.042
 20
-1491.588
 30
4932.570
 70
    32
  0
VERTEX
  8
T03SSILL
 62
4
 10
779.888
 20
-1503.025
 30
4932.570
 70
    32
  0
VERTEX
  8
T03SSILL
 62
4
 10
774.258
 20
-1505.079
 30
4932.570
 70
    32
  0
VERTEX
  8
T03SSILL
 62
4
 10
778.368
 20
-1516.515
 30
4932.570
 70
    32
  0
VERTEX
  8
T03SSILL
 62
4
 10
772.917
 20
-1518.921
 30
4932.570
 70
    32
  0
SEQEND
  8
T03SSILL
  0
POLYLINE
  8
T03SSILL
 62
4
 66
     1
 70
     9
  0
VERTEX
  8
T03SSILL
 62
4
 10
866.686
 20
-1484.884
 30
4932.570
 70
    32
  0
VERTEX
  8
T03SSILL
 62
4
 10
860.794
 20
-1487.293
 30
4932.570
 70
    32
  0
VERTEX
  8
T03SSILL
 62
4
 10
853.249
 20
-1494.027
 30
4932.570
 70
    32
  0
VERTEX
  8
T03SSILL
 62
4
 10
819.150
 20
-1512.701
 30
4932.570
 70
    32
  0
VERTEX
  8
T03SSILL
 62
4
 10
811.343
 20
-1519.965
 30
4932.570
 70
    32
  0
VERTEX
  8
T03SSILL
 62
4
 10
810.541
 20
-1518.207
 30
4932.570
 70
    32
  0
VERTEX
  8
T03SSILL
 62
4
 10
805.264
 20
-1520.260
 30
4932.570
 70
    32
  0
VERTEX
  8
T03SSILL
 62
4
 10
796.951
 20
-1496.508
 30
4932.570
 70
    32
  0
VERTEX
  8
T03SSILL
 62
4
 10
802.583
 20
-1494.806
 30
4932.570
 70
    32
  0
VERTEX
  8
T03SSILL
 62
4
 10
798.649
 20
-1483.369
 30
4932.570
 70
    32
  0
VERTEX
  8
T03SSILL
 62
4
 10
792.930
 20
-1485.248
 30
4932.570
 70
    32
  0
VERTEX
  8
T03SSILL
 62
4
 10
790.611
 20
-1479.620
 30
4932.570
 70
    32
  0
VERTEX
  8
T03SSILL
 62
4
 10
785.246
 20
-1481.585
 30
4932.570
 70
    32
  0
VERTEX
  8
T03SSILL
 62
4
 10
780.960
 20
-1470.150
 30
4932.570
 70
    32
  0
VERTEX
  8
T03SSILL
 62
4
 10
777.688
 20
-1467.963
 30
4932.570
 70
    32
  0
VERTEX
  8
T03SSILL
 62
4
 10
759.079
 20
-1464.883
 30
4932.570
 70
    32
  0
VERTEX
  8
T03SSILL
 62
4
 10
744.342
 20
-1460.638
 30
4932.570
 70
    32
  0
VERTEX
  8
T03SSILL
 62
4
 10
728.808
 20
-1455.603
 30
4932.570
 70
    32
  0
VERTEX
  8
T03SSILL
 62
4
 10
708.938
 20
-1446.977
 30
4932.570
 70
    32
  0
VERTEX
  8
T03SSILL
 62
4
 10
697.184
 20
-1440.074
 30
4932.570
 70
    32
  0
VERTEX
  8
T03SSILL
 62
4
 10
688.547
 20
-1421.963
 30
4932.570
 70
    32
  0
VERTEX
  8
T03SSILL
 62
4
 10
690.032
 20
-1419.401
 30
4932.570
 70
    32
  0
VERTEX
  8
T03SSILL
 62
4
 10
751.222
 20
-1390.459
 30
4932.570
 70
    32
  0
VERTEX
  8
T03SSILL
 62
4
 10
755.979
 20
-1390.171
 30
4932.570
 70
    32
  0
VERTEX
  8
T03SSILL
 62
4
 10
760.308
 20
-1392.353
 30
4932.570
 70
    32
  0
VERTEX
  8
T03SSILL
 62
4
 10
772.869
 20
-1419.961
 30
4932.570
 70
    32
  0
VERTEX
  8
T03SSILL
 62
4
 10
789.399
 20
-1412.477
 30
4932.570
 70
    32
  0
VERTEX
  8
T03SSILL
 62
4
 10
784.411
 20
-1401.663
 30
4932.570
 70
    32
  0
VERTEX
  8
T03SSILL
 62
4
 10
790.040
 20
-1399.609
 30
4932.570
 70
    32
  0
VERTEX
  8
T03SSILL
 62
4
 10
782.890
 20
-1379.200
 30
4932.570
 70
    32
  0
VERTEX
  8
T03SSILL
 62
4
 10
786.834
 20
-1374.774
 30
4932.570
 70
    32
  0
VERTEX
  8
T03SSILL
 62
4
 10
818.317
 20
-1361.841
 30
4932.570
 70
    32
  0
VERTEX
  8
T03SSILL
 62
4
 10
824.143
 20
-1363.839
 30
4932.570
 70
    32
  0
VERTEX
  8
T03SSILL
 62
4
 10
827.087
 20
-1371.051
 30
4932.570
 70
    32
  0
VERTEX
  8
T03SSILL
 62
4
 10
832.628
 20
-1368.908
 30
4932.570
 70
    32
  0
VERTEX
  8
T03SSILL
 62
4
 10
844.133
 20
-1396.874
 30
4932.570
 70
    32
  0
VERTEX
  8
T03SSILL
 62
4
 10
837.977
 20
-1399.372
 30
4932.570
 70
    32
  0
VERTEX
  8
T03SSILL
 62
4
 10
858.404
 20
-1449.412
 30
4932.570
 70
    32
  0
VERTEX
  8
T03SSILL
 62
4
 10
853.215
 20
-1451.553
 30
4932.570
 70
    32
  0
SEQEND
  8
T03SSILL
  0
POLYLINE
  8
T03SSILL
 62
4
 66
     1
 70
     9
  0
VERTEX
  8
T03SSILL
 62
4
 10
654.061
 20
-1683.678
 30
4932.570
 70
    32
  0
VERTEX
  8
T03SSILL
 62
4
 10
684.769
 20
-1692.162
 30
4932.570
 70
    32
  0
VERTEX
  8
T03SSILL
 62
4
 10
687.316
 20
-1690.299
 30
4932.570
 70
    32
  0
VERTEX
  8
T03SSILL
 62
4
 10
684.648
 20
-1685.465
 30
4932.570
 70
    32
  0
VERTEX
  8
T03SSILL
 62
4
 10
694.759
 20
-1680.745
 30
4932.570
 70
    32
  0
VERTEX
  8
T03SSILL
 62
4
 10
699.744
 20
-1691.031
 30
4932.570
 70
    32
  0
VERTEX
  8
T03SSILL
 62
4
 10
710.733
 20
-1685.601
 30
4932.570
 70
    32
  0
VERTEX
  8
T03SSILL
 62
4
 10
705.922
 20
-1675.050
 30
4932.570
 70
    32
  0
VERTEX
  8
T03SSILL
 62
4
 10
711.198
 20
-1672.821
 30
4932.570
 70
    32
  0
VERTEX
  8
T03SSILL
 62
4
 10
703.627
 20
-1656.380
 30
4932.570
 70
    32
  0
VERTEX
  8
T03SSILL
 62
4
 10
708.639
 20
-1654.152
 30
4932.570
 70
    32
  0
VERTEX
  8
T03SSILL
 62
4
 10
692.167
 20
-1619.778
 30
4932.570
 70
    32
  0
VERTEX
  8
T03SSILL
 62
4
 10
687.051
 20
-1618.834
 30
4932.570
 70
    32
  0
VERTEX
  8
T03SSILL
 62
4
 10
630.571
 20
-1619.994
 30
4932.570
 70
    32
  0
VERTEX
  8
T03SSILL
 62
4
 10
627.505
 20
-1623.622
 30
4932.570
 70
    32
  0
VERTEX
  8
T03SSILL
 62
4
 10
634.457
 20
-1657.426
 30
4932.570
 70
    32
  0
SEQEND
  8
T03SSILL
  0
POLYLINE
  8
T03SSILL
 62
4
 66
     1
 70
     9
  0
VERTEX
  8
T03SSILL
 62
4
 10
874.090
 20
-1520.889
 30
4932.570
 70
    32
  0
VERTEX
  8
T03SSILL
 62
4
 10
880.420
 20
-1518.038
 30
4932.570
 70
    32
  0
VERTEX
  8
T03SSILL
 62
4
 10
882.563
 20
-1523.755
 30
4932.570
 70
    32
  0
VERTEX
  8
T03SSILL
 62
4
 10
889.292
 20
-1530.155
 30
4932.570
 70
    32
  0
VERTEX
  8
T03SSILL
 62
4
 10
901.013
 20
-1548.074
 30
4932.570
 70
    32
  0
VERTEX
  8
T03SSILL
 62
4
 10
967.059
 20
-1610.402
 30
4932.570
 70
    32
  0
VERTEX
  8
T03SSILL
 62
4
 10
981.986
 20
-1671.044
 30
4932.570
 70
    32
  0
VERTEX
  8
T03SSILL
 62
4
 10
980.235
 20
-1673.344
 30
4932.570
 70
    32
  0
VERTEX
  8
T03SSILL
 62
4
 10
977.421
 20
-1674.503
 30
4932.570
 70
    32
  0
VERTEX
  8
T03SSILL
 62
4
 10
893.783
 20
-1654.472
 30
4932.570
 70
    32
  0
VERTEX
  8
T03SSILL
 62
4
 10
890.587
 20
-1649.729
 30
4932.570
 70
    32
  0
VERTEX
  8
T03SSILL
 62
4
 10
904.759
 20
-1610.710
 30
4932.570
 70
    32
  0
VERTEX
  8
T03SSILL
 62
4
 10
898.756
 20
-1608.536
 30
4932.570
 70
    32
  0
VERTEX
  8
T03SSILL
 62
4
 10
883.624
 20
-1649.411
 30
4932.570
 70
    32
  0
VERTEX
  8
T03SSILL
 62
4
 10
880.905
 20
-1651.892
 30
4932.570
 70
    32
  0
VERTEX
  8
T03SSILL
 62
4
 10
815.526
 20
-1635.560
 30
4932.570
 70
    32
  0
VERTEX
  8
T03SSILL
 62
4
 10
813.117
 20
-1629.403
 30
4932.570
 70
    32
  0
VERTEX
  8
T03SSILL
 62
4
 10
805.859
 20
-1551.540
 30
4932.570
 70
    32
  0
VERTEX
  8
T03SSILL
 62
4
 10
807.235
 20
-1544.748
 30
4932.570
 70
    32
  0
VERTEX
  8
T03SSILL
 62
4
 10
822.083
 20
-1517.885
 30
4932.570
 70
    32
  0
VERTEX
  8
T03SSILL
 62
4
 10
857.942
 20
-1498.586
 30
4932.570
 70
    32
  0
VERTEX
  8
T03SSILL
 62
4
 10
865.707
 20
-1500.839
 30
4932.570
 70
    32
  0
SEQEND
  8
T03SSILL
  0
POLYLINE
  8
T03SSILL
 62
4
 66
     1
 70
     9
  0
VERTEX
  8
T03SSILL
 62
4
 10
1235.247
 20
-1787.311
 30
4932.570
 70
    32
  0
VERTEX
  8
T03SSILL
 62
4
 10
1100.046
 20
-1572.723
 30
4932.570
 70
    32
  0
VERTEX
  8
T03SSILL
 62
4
 10
1097.068
 20
-1571.797
 30
4932.570
 70
    32
  0
VERTEX
  8
T03SSILL
 62
4
 10
1094.846
 20
-1573.170
 30
4932.570
 70
    32
  0
VERTEX
  8
T03SSILL
 62
4
 10
1095.066
 20
-1626.866
 30
4932.570
 70
    32
  0
VERTEX
  8
T03SSILL
 62
4
 10
1090.926
 20
-1632.699
 30
4932.570
 70
    32
  0
VERTEX
  8
T03SSILL
 62
4
 10
1095.890
 20
-1636.121
 30
4932.570
 70
    32
  0
VERTEX
  8
T03SSILL
 62
4
 10
1092.647
 20
-1640.912
 30
4932.570
 70
    32
  0
VERTEX
  8
T03SSILL
 62
4
 10
1098.048
 20
-1644.517
 30
4932.570
 70
    32
  0
VERTEX
  8
T03SSILL
 62
4
 10
1094.543
 20
-1649.127
 30
4932.570
 70
    32
  0
VERTEX
  8
T03SSILL
 62
4
 10
1099.506
 20
-1652.637
 30
4932.570
 70
    32
  0
VERTEX
  8
T03SSILL
 62
4
 10
1096.167
 20
-1657.867
 30
4932.570
 70
    32
  0
VERTEX
  8
T03SSILL
 62
4
 10
1106.275
 20
-1664.449
 30
4932.570
 70
    32
  0
VERTEX
  8
T03SSILL
 62
4
 10
1096.626
 20
-1679.263
 30
4932.570
 70
    32
  0
VERTEX
  8
T03SSILL
 62
4
 10
1101.505
 20
-1682.507
 30
4932.570
 70
    32
  0
VERTEX
  8
T03SSILL
 62
4
 10
1102.952
 20
-1696.965
 30
4932.570
 70
    32
  0
VERTEX
  8
T03SSILL
 62
4
 10
1105.928
 20
-1703.701
 30
4932.570
 70
    32
  0
VERTEX
  8
T03SSILL
 62
4
 10
1169.783
 20
-1746.330
 30
4932.570
 70
    32
  0
VERTEX
  8
T03SSILL
 62
4
 10
1175.973
 20
-1755.756
 30
4932.570
 70
    32
  0
VERTEX
  8
T03SSILL
 62
4
 10
1180.333
 20
-1758.377
 30
4932.570
 70
    32
  0
SEQEND
  8
T03SSILL
  0
POLYLINE
  8
T03SSILL
 62
4
 66
     1
 70
     9
  0
VERTEX
  8
T03SSILL
 62
4
 10
445.243
 20
-2447.162
 30
4932.570
 70
    32
  0
VERTEX
  8
T03SSILL
 62
4
 10
442.847
 20
-2439.067
 30
4932.570
 70
    32
  0
VERTEX
  8
T03SSILL
 62
4
 10
443.452
 20
-2434.223
 30
4932.570
 70
    32
  0
VERTEX
  8
T03SSILL
 62
4
 10
441.142
 20
-2424.983
 30
4932.570
 70
    32
  0
VERTEX
  8
T03SSILL
 62
4
 10
417.364
 20
-2384.622
 30
4932.570
 70
    32
  0
VERTEX
  8
T03SSILL
 62
4
 10
416.284
 20
-2374.674
 30
4932.570
 70
    32
  0
VERTEX
  8
T03SSILL
 62
4
 10
417.588
 20
-2367.011
 30
4932.570
 70
    32
  0
VERTEX
  8
T03SSILL
 62
4
 10
415.813
 20
-2361.292
 30
4932.570
 70
    32
  0
VERTEX
  8
T03SSILL
 62
4
 10
363.664
 20
-2389.852
 30
4932.570
 70
    32
  0
VERTEX
  8
T03SSILL
 62
4
 10
351.108
 20
-2443.416
 30
4932.570
 70
    32
  0
VERTEX
  8
T03SSILL
 62
4
 10
360.310
 20
-2501.773
 30
4932.570
 70
    32
  0
SEQEND
  8
T03SSILL
  0
POLYLINE
  8
T03SSILL
 62
4
 66
     1
 70
     9
  0
VERTEX
  8
T03SSILL
 62
4
 10
435.777
 20
-2350.768
 30
4932.570
 70
    32
  0
VERTEX
  8
T03SSILL
 62
4
 10
440.012
 20
-2354.544
 30
4932.570
 70
    32
  0
VERTEX
  8
T03SSILL
 62
4
 10
451.385
 20
-2360.946
 30
4932.570
 70
    32
  0
VERTEX
  8
T03SSILL
 62
4
 10
454.796
 20
-2389.291
 30
4932.570
 70
    32
  0
VERTEX
  8
T03SSILL
 62
4
 10
473.511
 20
-2410.028
 30
4932.570
 70
    32
  0
VERTEX
  8
T03SSILL
 62
4
 10
477.480
 20
-2413.013
 30
4932.570
 70
    32
  0
VERTEX
  8
T03SSILL
 62
4
 10
496.730
 20
-2398.616
 30
4932.570
 70
    32
  0
VERTEX
  8
T03SSILL
 62
4
 10
532.015
 20
-2388.233
 30
4932.570
 70
    32
  0
VERTEX
  8
T03SSILL
 62
4
 10
589.776
 20
-2349.535
 30
4932.570
 70
    32
  0
VERTEX
  8
T03SSILL
 62
4
 10
591.528
 20
-2345.304
 30
4932.570
 70
    32
  0
VERTEX
  8
T03SSILL
 62
4
 10
554.639
 20
-2270.545
 30
4932.570
 70
    32
  0
VERTEX
  8
T03SSILL
 62
4
 10
547.330
 20
-2270.386
 30
4932.570
 70
    32
  0
SEQEND
  8
T03SSILL
  0
POLYLINE
  8
T03SSILL
 62
4
 66
     1
 70
     9
  0
VERTEX
  8
T03SSILL
 62
4
 10
840.669
 20
-2056.894
 30
4932.570
 70
    32
  0
VERTEX
  8
T03SSILL
 62
4
 10
560.868
 20
-2260.581
 30
4932.570
 70
    32
  0
VERTEX
  8
T03SSILL
 62
4
 10
559.378
 20
-2263.666
 30
4932.570
 70
    32
  0
VERTEX
  8
T03SSILL
 62
4
 10
559.739
 20
-2267.540
 30
4932.570
 70
    32
  0
VERTEX
  8
T03SSILL
 62
4
 10
595.214
 20
-2340.189
 30
4932.570
 70
    32
  0
VERTEX
  8
T03SSILL
 62
4
 10
598.653
 20
-2342.470
 30
4932.570
 70
    32
  0
VERTEX
  8
T03SSILL
 62
4
 10
601.733
 20
-2341.407
 30
4932.570
 70
    32
  0
VERTEX
  8
T03SSILL
 62
4
 10
876.451
 20
-2148.209
 30
4932.570
 70
    32
  0
VERTEX
  8
T03SSILL
 62
4
 10
878.645
 20
-2144.946
 30
4932.570
 70
    32
  0
VERTEX
  8
T03SSILL
 62
4
 10
878.016
 20
-2139.489
 30
4932.570
 70
    32
  0
VERTEX
  8
T03SSILL
 62
4
 10
858.548
 20
-2097.092
 30
4932.570
 70
    32
  0
SEQEND
  8
T03SSILL
  0
POLYLINE
  8
T03SSILL
 62
4
 66
     1
 70
     9
  0
VERTEX
  8
T03SSILL
 62
4
 10
888.627
 20
-2043.928
 30
4932.570
 70
    32
  0
VERTEX
  8
T03SSILL
 62
4
 10
877.976
 20
-2045.186
 30
4932.570
 70
    32
  0
VERTEX
  8
T03SSILL
 62
4
 10
874.708
 20
-2040.702
 30
4932.570
 70
    32
  0
VERTEX
  8
T03SSILL
 62
4
 10
875.043
 20
-2033.129
 30
4932.570
 70
    32
  0
VERTEX
  8
T03SSILL
 62
4
 10
908.360
 20
-2009.455
 30
4932.570
 70
    32
  0
VERTEX
  8
T03SSILL
 62
4
 10
911.883
 20
-2009.623
 30
4932.570
 70
    32
  0
VERTEX
  8
T03SSILL
 62
4
 10
914.618
 20
-2012.170
 30
4932.570
 70
    32
  0
VERTEX
  8
T03SSILL
 62
4
 10
953.455
 20
-2091.680
 30
4932.570
 70
    32
  0
VERTEX
  8
T03SSILL
 62
4
 10
952.053
 20
-2094.853
 30
4932.570
 70
    32
  0
VERTEX
  8
T03SSILL
 62
4
 10
946.858
 20
-2094.865
 30
4932.570
 70
    32
  0
VERTEX
  8
T03SSILL
 62
4
 10
939.984
 20
-2092.151
 30
4932.570
 70
    32
  0
VERTEX
  8
T03SSILL
 62
4
 10
933.292
 20
-2092.343
 30
4932.570
 70
    32
  0
VERTEX
  8
T03SSILL
 62
4
 10
927.050
 20
-2096.495
 30
4932.570
 70
    32
  0
VERTEX
  8
T03SSILL
 62
4
 10
922.577
 20
-2104.078
 30
4932.570
 70
    32
  0
VERTEX
  8
T03SSILL
 62
4
 10
921.283
 20
-2115.880
 30
4932.570
 70
    32
  0
VERTEX
  8
T03SSILL
 62
4
 10
916.454
 20
-2121.790
 30
4932.570
 70
    32
  0
VERTEX
  8
T03SSILL
 62
4
 10
912.758
 20
-2122.943
 30
4932.570
 70
    32
  0
VERTEX
  8
T03SSILL
 62
4
 10
912.914
 20
-2113.874
 30
4932.570
 70
    32
  0
VERTEX
  8
T03SSILL
 62
4
 10
910.859
 20
-2100.935
 30
4932.570
 70
    32
  0
VERTEX
  8
T03SSILL
 62
4
 10
904.874
 20
-2101.917
 30
4932.570
 70
    32
  0
VERTEX
  8
T03SSILL
 62
4
 10
902.015
 20
-2084.049
 30
4932.570
 70
    32
  0
VERTEX
  8
T03SSILL
 62
4
 10
895.942
 20
-2085.032
 30
4932.570
 70
    32
  0
SEQEND
  8
T03SSILL
  0
POLYLINE
  8
T03SSILL
 62
4
 66
     1
 70
     9
  0
VERTEX
  8
T03SSILL
 62
4
 10
876.287
 20
-2076.712
 30
4932.570
 70
    32
  0
VERTEX
  8
T03SSILL
 62
4
 10
875.480
 20
-2070.286
 30
4932.570
 70
    32
  0
VERTEX
  8
T03SSILL
 62
4
 10
868.966
 20
-2071.005
 30
4932.570
 70
    32
  0
VERTEX
  8
T03SSILL
 62
4
 10
865.039
 20
-2048.121
 30
4932.570
 70
    32
  0
VERTEX
  8
T03SSILL
 62
4
 10
869.616
 20
-2047.318
 30
4932.570
 70
    32
  0
VERTEX
  8
T03SSILL
 62
4
 10
871.190
 20
-2042.560
 30
4932.570
 70
    32
  0
VERTEX
  8
T03SSILL
 62
4
 10
869.241
 20
-2037.281
 30
4932.570
 70
    32
  0
VERTEX
  8
T03SSILL
 62
4
 10
852.629
 20
-2050.351
 30
4932.570
 70
    32
  0
VERTEX
  8
T03SSILL
 62
4
 10
845.767
 20
-2053.096
 30
4932.570
 70
    32
  0
VERTEX
  8
T03SSILL
 62
4
 10
860.279
 20
-2084.321
 30
4932.570
 70
    32
  0
SEQEND
  8
T03SSILL
  0
POLYLINE
  8
T03SSILL
 62
4
 66
     1
 70
     9
  0
VERTEX
  8
T03SSILL
 62
4
 10
882.764
 20
-2136.572
 30
4932.570
 70
    32
  0
VERTEX
  8
T03SSILL
 62
4
 10
887.783
 20
-2136.649
 30
4932.570
 70
    32
  0
VERTEX
  8
T03SSILL
 62
4
 10
891.917
 20
-2134.702
 30
4932.570
 70
    32
  0
VERTEX
  8
T03SSILL
 62
4
 10
888.078
 20
-2111.729
 30
4932.570
 70
    32
  0
VERTEX
  8
T03SSILL
 62
4
 10
894.063
 20
-2110.571
 30
4932.570
 70
    32
  0
VERTEX
  8
T03SSILL
 62
4
 10
888.798
 20
-2079.941
 30
4932.570
 70
    32
  0
VERTEX
  8
T03SSILL
 62
4
 10
863.465
 20
-2091.182
 30
4932.570
 70
    32
  0
VERTEX
  8
T03SSILL
 62
4
 10
869.928
 20
-2106.576
 30
4932.570
 70
    32
  0
SEQEND
  8
T03SSILL
  0
POLYLINE
  8
T03SSILL
 62
4
 66
     1
 70
     9
  0
VERTEX
  8
T03SSILL
 62
4
 10
628.014
 20
-2801.670
 30
4932.570
 70
    32
  0
VERTEX
  8
T03SSILL
 62
4
 10
684.745
 20
-2794.427
 30
4932.570
 70
    32
  0
VERTEX
  8
T03SSILL
 62
4
 10
690.766
 20
-2801.438
 30
4932.570
 70
    32
  0
VERTEX
  8
T03SSILL
 62
4
 10
697.802
 20
-2817.684
 30
4932.570
 70
    32
  0
VERTEX
  8
T03SSILL
 62
4
 10
732.897
 20
-2813.368
 30
4932.570
 70
    32
  0
VERTEX
  8
T03SSILL
 62
4
 10
734.016
 20
-2825.684
 30
4932.570
 70
    32
  0
VERTEX
  8
T03SSILL
 62
4
 10
726.706
 20
-2824.666
 30
4932.570
 70
    32
  0
VERTEX
  8
T03SSILL
 62
4
 10
725.362
 20
-2837.346
 30
4932.570
 70
    32
  0
VERTEX
  8
T03SSILL
 62
4
 10
719.374
 20
-2836.673
 30
4932.570
 70
    32
  0
VERTEX
  8
T03SSILL
 62
4
 10
718.431
 20
-2841.694
 30
4932.570
 70
    32
  0
VERTEX
  8
T03SSILL
 62
4
 10
640.663
 20
-2831.178
 30
4932.570
 70
    32
  0
SEQEND
  8
T03SSILL
  0
POLYLINE
  8
T03SSILL
 62
4
 66
     1
 70
     9
  0
VERTEX
  8
T03SSILL
 62
4
 10
850.313
 20
-2866.545
 30
4932.570
 70
    32
  0
VERTEX
  8
T03SSILL
 62
4
 10
826.533
 20
-2863.322
 30
4932.570
 70
    32
  0
VERTEX
  8
T03SSILL
 62
4
 10
816.594
 20
-2864.517
 30
4932.570
 70
    32
  0
VERTEX
  8
T03SSILL
 62
4
 10
806.579
 20
-2868.088
 30
4932.570
 70
    32
  0
VERTEX
  8
T03SSILL
 62
4
 10
752.325
 20
-2860.708
 30
4932.570
 70
    32
  0
VERTEX
  8
T03SSILL
 62
4
 10
744.429
 20
-2865.501
 30
4932.570
 70
    32
  0
VERTEX
  8
T03SSILL
 62
4
 10
739.328
 20
-2866.319
 30
4932.570
 70
    32
  0
VERTEX
  8
T03SSILL
 62
4
 10
734.601
 20
-2871.360
 30
4932.570
 70
    32
  0
VERTEX
  8
T03SSILL
 62
4
 10
729.912
 20
-2883.706
 30
4932.570
 70
    32
  0
VERTEX
  8
T03SSILL
 62
4
 10
724.815
 20
-2885.228
 30
4932.570
 70
    32
  0
VERTEX
  8
T03SSILL
 62
4
 10
718.893
 20
-2880.330
 30
4932.570
 70
    32
  0
VERTEX
  8
T03SSILL
 62
4
 10
707.460
 20
-2847.559
 30
4932.570
 70
    32
  0
VERTEX
  8
T03SSILL
 62
4
 10
669.318
 20
-2841.153
 30
4932.570
 70
    32
  0
VERTEX
  8
T03SSILL
 62
4
 10
662.692
 20
-2853.597
 30
4932.570
 70
    32
  0
VERTEX
  8
T03SSILL
 62
4
 10
683.126
 20
-2890.898
 30
4932.570
 70
    32
  0
VERTEX
  8
T03SSILL
 62
4
 10
711.225
 20
-2895.419
 30
4932.570
 70
    32
  0
VERTEX
  8
T03SSILL
 62
4
 10
746.959
 20
-2895.676
 30
4932.570
 70
    32
  0
VERTEX
  8
T03SSILL
 62
4
 10
754.346
 20
-2894.495
 30
4932.570
 70
    32
  0
VERTEX
  8
T03SSILL
 62
4
 10
757.589
 20
-2891.750
 30
4932.570
 70
    32
  0
VERTEX
  8
T03SSILL
 62
4
 10
761.158
 20
-2884.074
 30
4932.570
 70
    32
  0
VERTEX
  8
T03SSILL
 62
4
 10
784.148
 20
-2887.742
 30
4932.570
 70
    32
  0
VERTEX
  8
T03SSILL
 62
4
 10
795.051
 20
-2903.000
 30
4932.570
 70
    32
  0
VERTEX
  8
T03SSILL
 62
4
 10
804.298
 20
-2904.097
 30
4932.570
 70
    32
  0
VERTEX
  8
T03SSILL
 62
4
 10
821.613
 20
-2899.432
 30
4932.570
 70
    32
  0
VERTEX
  8
T03SSILL
 62
4
 10
835.520
 20
-2899.713
 30
4932.570
 70
    32
  0
SEQEND
  8
T03SSILL
  0
POLYLINE
  8
T03SSILL
 62
4
 66
     1
 70
     9
  0
VERTEX
  8
T03SSILL
 62
4
 10
864.767
 20
-3060.011
 30
4932.570
 70
    32
  0
VERTEX
  8
T03SSILL
 62
4
 10
860.916
 20
-3047.005
 30
4932.570
 70
    32
  0
VERTEX
  8
T03SSILL
 62
4
 10
853.720
 20
-3033.927
 30
4932.570
 70
    32
  0
VERTEX
  8
T03SSILL
 62
4
 10
838.561
 20
-3029.780
 30
4932.570
 70
    32
  0
VERTEX
  8
T03SSILL
 62
4
 10
832.999
 20
-3026.376
 30
4932.570
 70
    32
  0
VERTEX
  8
T03SSILL
 62
4
 10
831.036
 20
-3038.444
 30
4932.570
 70
    32
  0
VERTEX
  8
T03SSILL
 62
4
 10
822.224
 20
-3053.539
 30
4932.570
 70
    32
  0
SEQEND
  8
T03SSILL
  0
POLYLINE
  8
T03SSILL
 62
4
 66
     1
 70
     9
  0
VERTEX
  8
T03SSILL
 62
4
 10
1482.963
 20
-2783.224
 30
4932.570
 70
    32
  0
VERTEX
  8
T03SSILL
 62
4
 10
1497.354
 20
-2774.789
 30
4932.570
 70
    32
  0
VERTEX
  8
T03SSILL
 62
4
 10
1516.903
 20
-2759.463
 30
4932.570
 70
    32
  0
VERTEX
  8
T03SSILL
 62
4
 10
1488.611
 20
-2751.774
 30
4932.570
 70
    32
  0
VERTEX
  8
T03SSILL
 62
4
 10
1483.709
 20
-2756.992
 30
4932.570
 70
    32
  0
SEQEND
  8
T03SSILL
  0
POLYLINE
  8
T03SSILL
 62
4
 66
     1
 70
     9
  0
VERTEX
  8
T03SSILL
 62
4
 10
1834.014
 20
-2708.117
 30
4932.570
 70
    32
  0
VERTEX
  8
T03SSILL
 62
4
 10
1838.288
 20
-2700.526
 30
4932.570
 70
    32
  0
VERTEX
  8
T03SSILL
 62
4
 10
1842.146
 20
-2697.690
 30
4932.570
 70
    32
  0
VERTEX
  8
T03SSILL
 62
4
 10
1836.769
 20
-2695.957
 30
4932.570
 70
    32
  0
VERTEX
  8
T03SSILL
 62
4
 10
1826.749
 20
-2698.649
 30
4932.570
 70
    32
  0
SEQEND
  8
T03SSILL
  0
POLYLINE
  8
T03SSILL
 62
4
 66
     1
 70
     9
  0
VERTEX
  8
T03SSILL
 62
4
 10
-1405.022
 20
1402.760
 30
4932.570
 70
    32
  0
VERTEX
  8
T03SSILL
 62
4
 10
-1387.790
 20
1370.282
 30
4932.570
 70
    32
  0
VERTEX
  8
T03SSILL
 62
4
 10
-1371.875
 20
1355.243
 30
4932.570
 70
    32
  0
VERTEX
  8
T03SSILL
 62
4
 10
-1363.018
 20
1357.718
 30
4932.570
 70
    32
  0
VERTEX
  8
T03SSILL
 62
4
 10
-1348.960
 20
1359.195
 30
4932.570
 70
    32
  0
VERTEX
  8
T03SSILL
 62
4
 10
-1336.351
 20
1356.522
 30
4932.570
 70
    32
  0
VERTEX
  8
T03SSILL
 62
4
 10
-1322.682
 20
1345.681
 30
4932.570
 70
    32
  0
VERTEX
  8
T03SSILL
 62
4
 10
-1306.100
 20
1318.334
 30
4932.570
 70
    32
  0
VERTEX
  8
T03SSILL
 62
4
 10
-1290.803
 20
1287.894
 30
4932.570
 70
    32
  0
VERTEX
  8
T03SSILL
 62
4
 10
-1277.449
 20
1265.965
 30
4932.570
 70
    32
  0
VERTEX
  8
T03SSILL
 62
4
 10
-1273.175
 20
1269.180
 30
4932.570
 70
    32
  0
VERTEX
  8
T03SSILL
 62
4
 10
-1306.745
 20
1352.194
 30
4932.570
 70
    32
  0
VERTEX
  8
T03SSILL
 62
4
 10
-1320.421
 20
1363.651
 30
4932.570
 70
    32
  0
VERTEX
  8
T03SSILL
 62
4
 10
-1326.717
 20
1360.325
 30
4932.570
 70
    32
  0
VERTEX
  8
T03SSILL
 62
4
 10
-1331.176
 20
1365.729
 30
4932.570
 70
    32
  0
VERTEX
  8
T03SSILL
 62
4
 10
-1327.595
 20
1367.969
 30
4932.570
 70
    32
  0
VERTEX
  8
T03SSILL
 62
4
 10
-1327.801
 20
1370.605
 30
4932.570
 70
    32
  0
VERTEX
  8
T03SSILL
 62
4
 10
-1361.699
 20
1401.044
 30
4932.570
 70
    32
  0
VERTEX
  8
T03SSILL
 62
4
 10
-1405.146
 20
1437.364
 30
4932.570
 70
    32
  0
VERTEX
  8
T03SSILL
 62
4
 10
-1409.370
 20
1434.894
 30
4932.570
 70
    32
  0
SEQEND
  8
T03SSILL
  0
POLYLINE
  8
T03SSILL
 62
4
 66
     1
 70
     9
  0
VERTEX
  8
T03SSILL
 62
4
 10
-753.996
 20
495.557
 30
4932.570
 70
    32
  0
VERTEX
  8
T03SSILL
 62
4
 10
-589.159
 20
582.476
 30
4932.570
 70
    32
  0
VERTEX
  8
T03SSILL
 62
4
 10
-579.301
 20
589.800
 30
4932.570
 70
    32
  0
VERTEX
  8
T03SSILL
 62
4
 10
-578.920
 20
594.995
 30
4932.570
 70
    32
  0
VERTEX
  8
T03SSILL
 62
4
 10
-597.093
 20
599.628
 30
4932.570
 70
    32
  0
VERTEX
  8
T03SSILL
 62
4
 10
-973.601
 20
788.211
 30
4932.570
 70
    32
  0
VERTEX
  8
T03SSILL
 62
4
 10
-982.659
 20
788.021
 30
4932.570
 70
    32
  0
VERTEX
  8
T03SSILL
 62
4
 10
-986.251
 20
786.749
 30
4932.570
 70
    32
  0
VERTEX
  8
T03SSILL
 62
4
 10
-901.231
 20
626.552
 30
4932.570
 70
    32
  0
VERTEX
  8
T03SSILL
 62
4
 10
-898.309
 20
624.826
 30
4932.570
 70
    32
  0
VERTEX
  8
T03SSILL
 62
4
 10
-889.314
 20
614.987
 30
4932.570
 70
    32
  0
VERTEX
  8
T03SSILL
 62
4
 10
-878.600
 20
600.945
 30
4932.570
 70
    32
  0
VERTEX
  8
T03SSILL
 62
4
 10
-852.813
 20
560.771
 30
4932.570
 70
    32
  0
VERTEX
  8
T03SSILL
 62
4
 10
-841.333
 20
541.195
 30
4932.570
 70
    32
  0
VERTEX
  8
T03SSILL
 62
4
 10
-834.832
 20
526.314
 30
4932.570
 70
    32
  0
VERTEX
  8
T03SSILL
 62
4
 10
-829.378
 20
518.547
 30
4932.570
 70
    32
  0
VERTEX
  8
T03SSILL
 62
4
 10
-821.726
 20
495.146
 30
4932.570
 70
    32
  0
VERTEX
  8
T03SSILL
 62
4
 10
-821.927
 20
468.301
 30
4932.570
 70
    32
  0
VERTEX
  8
T03SSILL
 62
4
 10
-815.423
 20
462.830
 30
4932.570
 70
    32
  0
VERTEX
  8
T03SSILL
 62
4
 10
-804.959
 20
468.109
 30
4932.570
 70
    32
  0
SEQEND
  8
T03SSILL
  0
POLYLINE
  8
T03SSILL
 62
4
 66
     1
 70
     9
  0
VERTEX
  8
T03SSILL
 62
4
 10
-910.833
 20
494.934
 30
4932.570
 70
    32
  0
VERTEX
  8
T03SSILL
 62
4
 10
-918.750
 20
510.591
 30
4932.570
 70
    32
  0
VERTEX
  8
T03SSILL
 62
4
 10
-916.260
 20
515.985
 30
4932.570
 70
    32
  0
VERTEX
  8
T03SSILL
 62
4
 10
-895.691
 20
525.101
 30
4932.570
 70
    32
  0
VERTEX
  8
T03SSILL
 62
4
 10
-890.235
 20
524.899
 30
4932.570
 70
    32
  0
VERTEX
  8
T03SSILL
 62
4
 10
-878.207
 20
503.571
 30
4932.570
 70
    32
  0
VERTEX
  8
T03SSILL
 62
4
 10
-877.025
 20
500.153
 30
4932.570
 70
    32
  0
VERTEX
  8
T03SSILL
 62
4
 10
-879.438
 20
495.728
 30
4932.570
 70
    32
  0
VERTEX
  8
T03SSILL
 62
4
 10
-902.137
 20
483.521
 30
4932.570
 70
    32
  0
VERTEX
  8
T03SSILL
 62
4
 10
-904.768
 20
483.916
 30
4932.570
 70
    32
  0
VERTEX
  8
T03SSILL
 62
4
 10
-906.480
 20
486.759
 30
4932.570
 70
    32
  0
SEQEND
  8
T03SSILL
  0
POLYLINE
  8
T03SSILL
 62
4
 66
     1
 70
     9
  0
VERTEX
  8
T03SSILL
 62
4
 10
-742.468
 20
495.159
 30
4932.570
 70
    32
  0
VERTEX
  8
T03SSILL
 62
4
 10
-825.203
 20
451.032
 30
4932.570
 70
    32
  0
VERTEX
  8
T03SSILL
 62
4
 10
-826.770
 20
446.661
 30
4932.570
 70
    32
  0
VERTEX
  8
T03SSILL
 62
4
 10
-803.776
 20
422.627
 30
4932.570
 70
    32
  0
VERTEX
  8
T03SSILL
 62
4
 10
-787.113
 20
398.697
 30
4932.570
 70
    32
  0
VERTEX
  8
T03SSILL
 62
4
 10
-753.089
 20
329.105
 30
4932.570
 70
    32
  0
VERTEX
  8
T03SSILL
 62
4
 10
-693.179
 20
218.987
 30
4932.570
 70
    32
  0
VERTEX
  8
T03SSILL
 62
4
 10
-670.326
 20
165.144
 30
4932.570
 70
    32
  0
VERTEX
  8
T03SSILL
 62
4
 10
-665.289
 20
150.728
 30
4932.570
 70
    32
  0
VERTEX
  8
T03SSILL
 62
4
 10
-659.737
 20
151.427
 30
4932.570
 70
    32
  0
VERTEX
  8
T03SSILL
 62
4
 10
-582.023
 20
187.427
 30
4932.570
 70
    32
  0
VERTEX
  8
T03SSILL
 62
4
 10
-571.375
 20
193.231
 30
4932.570
 70
    32
  0
VERTEX
  8
T03SSILL
 62
4
 10
-571.236
 20
196.306
 30
4932.570
 70
    32
  0
VERTEX
  8
T03SSILL
 62
4
 10
-565.449
 20
200.607
 30
4932.570
 70
    32
  0
VERTEX
  8
T03SSILL
 62
4
 10
-503.401
 20
230.447
 30
4932.570
 70
    32
  0
VERTEX
  8
T03SSILL
 62
4
 10
-482.674
 20
239.513
 30
4932.570
 70
    32
  0
VERTEX
  8
T03SSILL
 62
4
 10
-460.766
 20
245.570
 30
4932.570
 70
    32
  0
VERTEX
  8
T03SSILL
 62
4
 10
-421.755
 20
264.887
 30
4932.570
 70
    32
  0
VERTEX
  8
T03SSILL
 62
4
 10
-415.768
 20
270.679
 30
4932.570
 70
    32
  0
VERTEX
  8
T03SSILL
 62
4
 10
-411.074
 20
277.988
 30
4932.570
 70
    32
  0
VERTEX
  8
T03SSILL
 62
4
 10
-409.998
 20
289.930
 30
4932.570
 70
    32
  0
VERTEX
  8
T03SSILL
 62
4
 10
-421.507
 20
322.480
 30
4932.570
 70
    32
  0
VERTEX
  8
T03SSILL
 62
4
 10
-514.901
 20
495.258
 30
4932.570
 70
    32
  0
VERTEX
  8
T03SSILL
 62
4
 10
-566.508
 20
586.426
 30
4932.570
 70
    32
  0
VERTEX
  8
T03SSILL
 62
4
 10
-572.242
 20
587.857
 30
4932.570
 70
    32
  0
VERTEX
  8
T03SSILL
 62
4
 10
-590.221
 20
575.251
 30
4932.570
 70
    32
  0
SEQEND
  8
T03SSILL
  0
POLYLINE
  8
T03SSILL
 62
4
 66
     1
 70
     9
  0
VERTEX
  8
T03SSILL
 62
4
 10
-562.615
 20
-117.326
 30
4932.570
 70
    32
  0
VERTEX
  8
T03SSILL
 62
4
 10
-586.627
 20
-131.917
 30
4932.570
 70
    32
  0
VERTEX
  8
T03SSILL
 62
4
 10
-602.273
 20
-153.516
 30
4932.570
 70
    32
  0
VERTEX
  8
T03SSILL
 62
4
 10
-632.457
 20
-379.357
 30
4932.570
 70
    32
  0
VERTEX
  8
T03SSILL
 62
4
 10
-631.534
 20
-382.602
 30
4932.570
 70
    32
  0
VERTEX
  8
T03SSILL
 62
4
 10
-628.616
 20
-383.620
 30
4932.570
 70
    32
  0
VERTEX
  8
T03SSILL
 62
4
 10
-458.536
 20
-371.060
 30
4932.570
 70
    32
  0
VERTEX
  8
T03SSILL
 62
4
 10
-451.752
 20
-364.896
 30
4932.570
 70
    32
  0
VERTEX
  8
T03SSILL
 62
4
 10
-464.022
 20
-223.245
 30
4932.570
 70
    32
  0
VERTEX
  8
T03SSILL
 62
4
 10
-506.683
 20
-159.464
 30
4932.570
 70
    32
  0
VERTEX
  8
T03SSILL
 62
4
 10
-519.799
 20
-117.858
 30
4932.570
 70
    32
  0
VERTEX
  8
T03SSILL
 62
4
 10
-522.845
 20
-99.956
 30
4932.570
 70
    32
  0
VERTEX
  8
T03SSILL
 62
4
 10
-525.078
 20
-96.754
 30
4932.570
 70
    32
  0
VERTEX
  8
T03SSILL
 62
4
 10
-529.400
 20
-97.562
 30
4932.570
 70
    32
  0
SEQEND
  8
T03SSILL
  0
POLYLINE
  8
T03SSILL
 62
4
 66
     1
 70
     9
  0
VERTEX
  8
T03SSILL
 62
4
 10
-385.524
 20
-18.420
 30
4932.570
 70
    32
  0
VERTEX
  8
T03SSILL
 62
4
 10
-387.982
 20
-27.265
 30
4932.570
 70
    32
  0
VERTEX
  8
T03SSILL
 62
4
 10
-387.476
 20
-39.233
 30
4932.570
 70
    32
  0
VERTEX
  8
T03SSILL
 62
4
 10
-360.876
 20
-89.796
 30
4932.570
 70
    32
  0
VERTEX
  8
T03SSILL
 62
4
 10
-331.602
 20
-139.091
 30
4932.570
 70
    32
  0
VERTEX
  8
T03SSILL
 62
4
 10
-323.891
 20
-143.038
 30
4932.570
 70
    32
  0
VERTEX
  8
T03SSILL
 62
4
 10
-316.948
 20
-142.153
 30
4932.570
 70
    32
  0
VERTEX
  8
T03SSILL
 62
4
 10
-312.706
 20
-136.815
 30
4932.570
 70
    32
  0
VERTEX
  8
T03SSILL
 62
4
 10
-308.325
 20
-135.260
 30
4932.570
 70
    32
  0
VERTEX
  8
T03SSILL
 62
4
 10
-304.060
 20
-131.682
 30
4932.570
 70
    32
  0
VERTEX
  8
T03SSILL
 62
4
 10
-308.072
 20
-121.172
 30
4932.570
 70
    32
  0
VERTEX
  8
T03SSILL
 62
4
 10
-368.649
 20
-40.728
 30
4932.570
 70
    32
  0
SEQEND
  8
T03SSILL
  0
POLYLINE
  8
T03SSILL
 62
4
 66
     1
 70
     9
  0
VERTEX
  8
T03SSILL
 62
4
 10
-202.215
 20
-82.922
 30
4932.570
 70
    32
  0
VERTEX
  8
T03SSILL
 62
4
 10
-269.127
 20
39.799
 30
4932.570
 70
    32
  0
VERTEX
  8
T03SSILL
 62
4
 10
-273.325
 20
41.188
 30
4932.570
 70
    32
  0
VERTEX
  8
T03SSILL
 62
4
 10
-379.395
 20
-13.609
 30
4932.570
 70
    32
  0
VERTEX
  8
T03SSILL
 62
4
 10
-299.619
 20
-121.412
 30
4932.570
 70
    32
  0
VERTEX
  8
T03SSILL
 62
4
 10
-289.747
 20
-128.939
 30
4932.570
 70
    32
  0
VERTEX
  8
T03SSILL
 62
4
 10
-273.676
 20
-132.687
 30
4932.570
 70
    32
  0
VERTEX
  8
T03SSILL
 62
4
 10
-253.724
 20
-130.397
 30
4932.570
 70
    32
  0
VERTEX
  8
T03SSILL
 62
4
 10
-230.407
 20
-123.045
 30
4932.570
 70
    32
  0
VERTEX
  8
T03SSILL
 62
4
 10
-190.898
 20
-102.009
 30
4932.570
 70
    32
  0
SEQEND
  8
T03SSILL
  0
POLYLINE
  8
T03SSILL
 62
4
 66
     1
 70
     9
  0
VERTEX
  8
T03SSILL
 62
4
 10
-197.624
 20
-933.701
 30
4932.570
 70
    32
  0
VERTEX
  8
T03SSILL
 62
4
 10
-246.858
 20
-839.021
 30
4932.570
 70
    32
  0
VERTEX
  8
T03SSILL
 62
4
 10
-218.318
 20
-853.694
 30
4932.570
 70
    32
  0
VERTEX
  8
T03SSILL
 62
4
 10
-142.702
 20
-866.950
 30
4932.570
 70
    32
  0
VERTEX
  8
T03SSILL
 62
4
 10
-141.107
 20
-861.119
 30
4932.570
 70
    32
  0
VERTEX
  8
T03SSILL
 62
4
 10
-196.410
 20
-852.875
 30
4932.570
 70
    32
  0
VERTEX
  8
T03SSILL
 62
4
 10
-161.234
 20
-843.604
 30
4932.570
 70
    32
  0
VERTEX
  8
T03SSILL
 62
4
 10
-157.860
 20
-839.158
 30
4932.570
 70
    32
  0
VERTEX
  8
T03SSILL
 62
4
 10
-158.880
 20
-828.608
 30
4932.570
 70
    32
  0
VERTEX
  8
T03SSILL
 62
4
 10
-125.204
 20
-759.499
 30
4932.570
 70
    32
  0
VERTEX
  8
T03SSILL
 62
4
 10
-119.164
 20
-756.954
 30
4932.570
 70
    32
  0
VERTEX
  8
T03SSILL
 62
4
 10
-103.155
 20
-769.241
 30
4932.570
 70
    32
  0
VERTEX
  8
T03SSILL
 62
4
 10
-70.582
 20
-822.417
 30
4932.570
 70
    32
  0
VERTEX
  8
T03SSILL
 62
4
 10
-75.916
 20
-825.129
 30
4932.570
 70
    32
  0
VERTEX
  8
T03SSILL
 62
4
 10
-66.475
 20
-840.056
 30
4932.570
 70
    32
  0
VERTEX
  8
T03SSILL
 62
4
 10
-30.847
 20
-818.368
 30
4932.570
 70
    32
  0
VERTEX
  8
T03SSILL
 62
4
 10
-18.363
 20
-856.934
 30
4932.570
 70
    32
  0
VERTEX
  8
T03SSILL
 62
4
 10
-24.324
 20
-858.774
 30
4932.570
 70
    32
  0
VERTEX
  8
T03SSILL
 62
4
 10
-11.813
 20
-899.365
 30
4932.570
 70
    32
  0
VERTEX
  8
T03SSILL
 62
4
 10
-5.853
 20
-897.437
 30
4932.570
 70
    32
  0
VERTEX
  8
T03SSILL
 62
4
 10
-2.803
 20
-908.312
 30
4932.570
 70
    32
  0
VERTEX
  8
T03SSILL
 62
4
 10
2.634
 20
-906.743
 30
4932.570
 70
    32
  0
VERTEX
  8
T03SSILL
 62
4
 10
4.381
 20
-912.354
 30
4932.570
 70
    32
  0
VERTEX
  8
T03SSILL
 62
4
 10
15.871
 20
-909.208
 30
4932.570
 70
    32
  0
VERTEX
  8
T03SSILL
 62
4
 10
25.276
 20
-943.390
 30
4932.570
 70
    32
  0
VERTEX
  8
T03SSILL
 62
4
 10
7.943
 20
-948.850
 30
4932.570
 70
    32
  0
VERTEX
  8
T03SSILL
 62
4
 10
9.732
 20
-954.305
 30
4932.570
 70
    32
  0
VERTEX
  8
T03SSILL
 62
4
 10
-19.836
 20
-962.470
 30
4932.570
 70
    32
  0
VERTEX
  8
T03SSILL
 62
4
 10
-17.689
 20
-969.069
 30
4932.570
 70
    32
  0
VERTEX
  8
T03SSILL
 62
4
 10
-23.762
 20
-970.420
 30
4932.570
 70
    32
  0
VERTEX
  8
T03SSILL
 62
4
 10
25.400
 20
-1129.325
 30
4932.570
 70
    32
  0
VERTEX
  8
T03SSILL
 62
4
 10
19.871
 20
-1133.758
 30
4932.570
 70
    32
  0
VERTEX
  8
T03SSILL
 62
4
 10
-79.377
 20
-1164.914
 30
4932.570
 70
    32
  0
VERTEX
  8
T03SSILL
 62
4
 10
-175.217
 20
-975.574
 30
4932.570
 70
    32
  0
SEQEND
  8
T03SSILL
  0
POLYLINE
  8
T03SSILL
 62
4
 66
     1
 70
     9
  0
VERTEX
  8
T03SSILL
 62
4
 10
2138.658
 20
-4751.488
 30
4932.570
 70
    32
  0
VERTEX
  8
T03SSILL
 62
4
 10
2223.657
 20
-4752.042
 30
4932.570
 70
    32
  0
VERTEX
  8
T03SSILL
 62
4
 10
2223.358
 20
-4756.699
 30
4932.570
 70
    32
  0
VERTEX
  8
T03SSILL
 62
4
 10
2227.352
 20
-4763.322
 30
4932.570
 70
    32
  0
VERTEX
  8
T03SSILL
 62
4
 10
2232.643
 20
-4761.077
 30
4932.570
 70
    32
  0
VERTEX
  8
T03SSILL
 62
4
 10
2237.640
 20
-4751.269
 30
4932.570
 70
    32
  0
VERTEX
  8
T03SSILL
 62
4
 10
2244.491
 20
-4751.936
 30
4932.570
 70
    32
  0
VERTEX
  8
T03SSILL
 62
4
 10
2239.557
 20
-4765.085
 30
4932.570
 70
    32
  0
VERTEX
  8
T03SSILL
 62
4
 10
2235.207
 20
-4782.369
 30
4932.570
 70
    32
  0
VERTEX
  8
T03SSILL
 62
4
 10
2238.298
 20
-4792.062
 30
4932.570
 70
    32
  0
VERTEX
  8
T03SSILL
 62
4
 10
2246.116
 20
-4792.824
 30
4932.570
 70
    32
  0
VERTEX
  8
T03SSILL
 62
4
 10
2252.911
 20
-4789.359
 30
4932.570
 70
    32
  0
VERTEX
  8
T03SSILL
 62
4
 10
2256.224
 20
-4792.988
 30
4932.570
 70
    32
  0
VERTEX
  8
T03SSILL
 62
4
 10
2262.738
 20
-4791.807
 30
4932.570
 70
    32
  0
VERTEX
  8
T03SSILL
 62
4
 10
2265.967
 20
-4794.908
 30
4932.570
 70
    32
  0
VERTEX
  8
T03SSILL
 62
4
 10
2262.688
 20
-4798.399
 30
4932.570
 70
    32
  0
VERTEX
  8
T03SSILL
 62
4
 10
2250.295
 20
-4798.218
 30
4932.570
 70
    32
  0
VERTEX
  8
T03SSILL
 62
4
 10
2239.012
 20
-4802.352
 30
4932.570
 70
    32
  0
VERTEX
  8
T03SSILL
 62
4
 10
2229.647
 20
-4796.919
 30
4932.570
 70
    32
  0
VERTEX
  8
T03SSILL
 62
4
 10
2228.214
 20
-4788.821
 30
4932.570
 70
    32
  0
VERTEX
  8
T03SSILL
 62
4
 10
2225.578
 20
-4788.625
 30
4932.570
 70
    32
  0
VERTEX
  8
T03SSILL
 62
4
 10
2205.454
 20
-4822.756
 30
4932.570
 70
    32
  0
VERTEX
  8
T03SSILL
 62
4
 10
2186.018
 20
-4858.825
 30
4932.570
 70
    32
  0
VERTEX
  8
T03SSILL
 62
4
 10
2180.570
 20
-4881.815
 30
4932.570
 70
    32
  0
VERTEX
  8
T03SSILL
 62
4
 10
2185.344
 20
-4971.250
 30
4932.570
 70
    32
  0
VERTEX
  8
T03SSILL
 62
4
 10
2185.982
 20
-5003.164
 30
4932.570
 70
    32
  0
VERTEX
  8
T03SSILL
 62
4
 10
2199.938
 20
-5005.819
 30
4932.570
 70
    32
  0
VERTEX
  8
T03SSILL
 62
4
 10
2205.940
 20
-5002.612
 30
4932.570
 70
    32
  0
VERTEX
  8
T03SSILL
 62
4
 10
2210.214
 20
-4995.436
 30
4932.570
 70
    32
  0
VERTEX
  8
T03SSILL
 62
4
 10
2212.122
 20
-4987.275
 30
4932.570
 70
    32
  0
VERTEX
  8
T03SSILL
 62
4
 10
2215.235
 20
-4982.464
 30
4932.570
 70
    32
  0
VERTEX
  8
T03SSILL
 62
4
 10
2225.490
 20
-4986.409
 30
4932.570
 70
    32
  0
VERTEX
  8
T03SSILL
 62
4
 10
2215.681
 20
-5004.795
 30
4932.570
 70
    32
  0
VERTEX
  8
T03SSILL
 62
4
 10
2240.012
 20
-5007.265
 30
4932.570
 70
    32
  0
VERTEX
  8
T03SSILL
 62
4
 10
2252.063
 20
-5006.213
 30
4932.570
 70
    32
  0
VERTEX
  8
T03SSILL
 62
4
 10
2259.397
 20
-5001.170
 30
4932.570
 70
    32
  0
VERTEX
  8
T03SSILL
 62
4
 10
2268.434
 20
-4991.744
 30
4932.570
 70
    32
  0
VERTEX
  8
T03SSILL
 62
4
 10
2272.229
 20
-4989.839
 30
4932.570
 70
    32
  0
VERTEX
  8
T03SSILL
 62
4
 10
2279.532
 20
-4988.928
 30
4932.570
 70
    32
  0
VERTEX
  8
T03SSILL
 62
4
 10
2282.295
 20
-4983.850
 30
4932.570
 70
    32
  0
VERTEX
  8
T03SSILL
 62
4
 10
2274.471
 20
-4948.981
 30
4932.570
 70
    32
  0
VERTEX
  8
T03SSILL
 62
4
 10
2275.732
 20
-4945.035
 30
4932.570
 70
    32
  0
VERTEX
  8
T03SSILL
 62
4
 10
2292.075
 20
-4945.949
 30
4932.570
 70
    32
  0
VERTEX
  8
T03SSILL
 62
4
 10
2290.881
 20
-4952.797
 30
4932.570
 70
    32
  0
VERTEX
  8
T03SSILL
 62
4
 10
2297.595
 20
-4971.571
 30
4932.570
 70
    32
  0
VERTEX
  8
T03SSILL
 62
4
 10
2309.087
 20
-4986.338
 30
4932.570
 70
    32
  0
VERTEX
  8
T03SSILL
 62
4
 10
2311.943
 20
-4992.337
 30
4932.570
 70
    32
  0
VERTEX
  8
T03SSILL
 62
4
 10
2312.838
 20
-5001.838
 30
4932.570
 70
    32
  0
VERTEX
  8
T03SSILL
 62
4
 10
2310.100
 20
-5003.487
 30
4932.570
 70
    32
  0
VERTEX
  8
T03SSILL
 62
4
 10
2302.740
 20
-5000.355
 30
4932.570
 70
    32
  0
VERTEX
  8
T03SSILL
 62
4
 10
2297.537
 20
-5002.601
 30
4932.570
 70
    32
  0
VERTEX
  8
T03SSILL
 62
4
 10
2295.366
 20
-5010.672
 30
4932.570
 70
    32
  0
VERTEX
  8
T03SSILL
 62
4
 10
2302.540
 20
-5015.209
 30
4932.570
 70
    32
  0
VERTEX
  8
T03SSILL
 62
4
 10
2325.390
 20
-5015.909
 30
4932.570
 70
    32
  0
VERTEX
  8
T03SSILL
 62
4
 10
2328.881
 20
-5019.188
 30
4932.570
 70
    32
  0
VERTEX
  8
T03SSILL
 62
4
 10
2333.060
 20
-5047.789
 30
4932.570
 70
    32
  0
VERTEX
  8
T03SSILL
 62
4
 10
2332.211
 20
-5055.430
 30
4932.570
 70
    32
  0
VERTEX
  8
T03SSILL
 62
4
 10
2328.501
 20
-5057.775
 30
4932.570
 70
    32
  0
VERTEX
  8
T03SSILL
 62
4
 10
2325.920
 20
-5061.975
 30
4932.570
 70
    32
  0
VERTEX
  8
T03SSILL
 62
4
 10
2326.829
 20
-5069.630
 30
4932.570
 70
    32
  0
VERTEX
  8
T03SSILL
 62
4
 10
2336.019
 20
-5086.577
 30
4932.570
 70
    32
  0
VERTEX
  8
T03SSILL
 62
4
 10
2340.119
 20
-5102.343
 30
4932.570
 70
    32
  0
VERTEX
  8
T03SSILL
 62
4
 10
2332.605
 20
-5107.912
 30
4932.570
 70
    32
  0
VERTEX
  8
T03SSILL
 62
4
 10
2325.909
 20
-5109.971
 30
4932.570
 70
    32
  0
VERTEX
  8
T03SSILL
 62
4
 10
2296.687
 20
-5056.831
 30
4932.570
 70
    32
  0
VERTEX
  8
T03SSILL
 62
4
 10
2292.149
 20
-5052.490
 30
4932.570
 70
    32
  0
VERTEX
  8
T03SSILL
 62
4
 10
2287.824
 20
-5054.831
 30
4932.570
 70
    32
  0
VERTEX
  8
T03SSILL
 62
4
 10
2287.910
 20
-5078.390
 30
4932.570
 70
    32
  0
VERTEX
  8
T03SSILL
 62
4
 10
2276.116
 20
-5080.234
 30
4932.570
 70
    32
  0
VERTEX
  8
T03SSILL
 62
4
 10
2271.765
 20
-5074.400
 30
4932.570
 70
    32
  0
VERTEX
  8
T03SSILL
 62
4
 10
2273.022
 20
-5070.981
 30
4932.570
 70
    32
  0
VERTEX
  8
T03SSILL
 62
4
 10
2271.603
 20
-5049.346
 30
4932.570
 70
    32
  0
VERTEX
  8
T03SSILL
 62
4
 10
2266.611
 20
-5046.935
 30
4932.570
 70
    32
  0
VERTEX
  8
T03SSILL
 62
4
 10
2265.670
 20
-5043.499
 30
4932.570
 70
    32
  0
VERTEX
  8
T03SSILL
 62
4
 10
2269.540
 20
-5031.486
 30
4932.570
 70
    32
  0
VERTEX
  8
T03SSILL
 62
4
 10
2273.443
 20
-5026.856
 30
4932.570
 70
    32
  0
VERTEX
  8
T03SSILL
 62
4
 10
2271.672
 20
-5016.998
 30
4932.570
 70
    32
  0
VERTEX
  8
T03SSILL
 62
4
 10
2189.437
 20
-5011.277
 30
4932.570
 70
    32
  0
VERTEX
  8
T03SSILL
 62
4
 10
2184.677
 20
-5012.999
 30
4932.570
 70
    32
  0
VERTEX
  8
T03SSILL
 62
4
 10
2182.258
 20
-5018.959
 30
4932.570
 70
    32
  0
VERTEX
  8
T03SSILL
 62
4
 10
2184.554
 20
-5075.762
 30
4932.570
 70
    32
  0
VERTEX
  8
T03SSILL
 62
4
 10
2184.872
 20
-5184.854
 30
4932.570
 70
    32
  0
VERTEX
  8
T03SSILL
 62
4
 10
2186.014
 20
-5219.849
 30
4932.570
 70
    32
  0
VERTEX
  8
T03SSILL
 62
4
 10
2188.640
 20
-5232.878
 30
4932.570
 70
    32
  0
VERTEX
  8
T03SSILL
 62
4
 10
2193.988
 20
-5234.765
 30
4932.570
 70
    32
  0
VERTEX
  8
T03SSILL
 62
4
 10
2285.057
 20
-5234.838
 30
4932.570
 70
    32
  0
VERTEX
  8
T03SSILL
 62
4
 10
2317.526
 20
-5230.512
 30
4932.570
 70
    32
  0
VERTEX
  8
T03SSILL
 62
4
 10
2330.997
 20
-5227.713
 30
4932.570
 70
    32
  0
VERTEX
  8
T03SSILL
 62
4
 10
2352.208
 20
-5212.578
 30
4932.570
 70
    32
  0
VERTEX
  8
T03SSILL
 62
4
 10
2363.486
 20
-5209.059
 30
4932.570
 70
    32
  0
VERTEX
  8
T03SSILL
 62
4
 10
2367.836
 20
-5215.070
 30
4932.570
 70
    32
  0
VERTEX
  8
T03SSILL
 62
4
 10
2340.385
 20
-5229.982
 30
4932.570
 70
    32
  0
VERTEX
  8
T03SSILL
 62
4
 10
2343.245
 20
-5235.454
 30
4932.570
 70
    32
  0
VERTEX
  8
T03SSILL
 62
4
 10
2348.999
 20
-5241.738
 30
4932.570
 70
    32
  0
VERTEX
  8
T03SSILL
 62
4
 10
2360.776
 20
-5276.901
 30
4932.570
 70
    32
  0
VERTEX
  8
T03SSILL
 62
4
 10
2385.753
 20
-5321.833
 30
4932.570
 70
    32
  0
VERTEX
  8
T03SSILL
 62
4
 10
2392.105
 20
-5318.805
 30
4932.570
 70
    32
  0
VERTEX
  8
T03SSILL
 62
4
 10
2395.043
 20
-5325.508
 30
4932.570
 70
    32
  0
VERTEX
  8
T03SSILL
 62
4
 10
2389.395
 20
-5328.454
 30
4932.570
 70
    32
  0
VERTEX
  8
T03SSILL
 62
4
 10
2416.255
 20
-5380.081
 30
4932.570
 70
    32
  0
VERTEX
  8
T03SSILL
 62
4
 10
2414.721
 20
-5396.859
 30
4932.570
 70
    32
  0
VERTEX
  8
T03SSILL
 62
4
 10
2452.206
 20
-5380.265
 30
4932.570
 70
    32
  0
VERTEX
  8
T03SSILL
 62
4
 10
2455.407
 20
-5387.057
 30
4932.570
 70
    32
  0
VERTEX
  8
T03SSILL
 62
4
 10
2449.675
 20
-5389.563
 30
4932.570
 70
    32
  0
VERTEX
  8
T03SSILL
 62
4
 10
2456.077
 20
-5403.149
 30
4932.570
 70
    32
  0
VERTEX
  8
T03SSILL
 62
4
 10
2449.460
 20
-5406.264
 30
4932.570
 70
    32
  0
VERTEX
  8
T03SSILL
 62
4
 10
2442.095
 20
-5392.143
 30
4932.570
 70
    32
  0
VERTEX
  8
T03SSILL
 62
4
 10
2398.865
 20
-5412.913
 30
4932.570
 70
    32
  0
VERTEX
  8
T03SSILL
 62
4
 10
2395.047
 20
-5406.292
 30
4932.570
 70
    32
  0
VERTEX
  8
T03SSILL
 62
4
 10
2407.398
 20
-5400.495
 30
4932.570
 70
    32
  0
VERTEX
  8
T03SSILL
 62
4
 10
2409.037
 20
-5381.345
 30
4932.570
 70
    32
  0
VERTEX
  8
T03SSILL
 62
4
 10
2382.505
 20
-5332.797
 30
4932.570
 70
    32
  0
VERTEX
  8
T03SSILL
 62
4
 10
2370.946
 20
-5338.599
 30
4932.570
 70
    32
  0
VERTEX
  8
T03SSILL
 62
4
 10
2367.302
 20
-5332.242
 30
4932.570
 70
    32
  0
VERTEX
  8
T03SSILL
 62
4
 10
2379.217
 20
-5325.915
 30
4932.570
 70
    32
  0
VERTEX
  8
T03SSILL
 62
4
 10
2355.537
 20
-5283.894
 30
4932.570
 70
    32
  0
VERTEX
  8
T03SSILL
 62
4
 10
2342.739
 20
-5244.152
 30
4932.570
 70
    32
  0
VERTEX
  8
T03SSILL
 62
4
 10
2337.581
 20
-5240.509
 30
4932.570
 70
    32
  0
VERTEX
  8
T03SSILL
 62
4
 10
2317.119
 20
-5237.893
 30
4932.570
 70
    32
  0
VERTEX
  8
T03SSILL
 62
4
 10
2286.937
 20
-5241.884
 30
4932.570
 70
    32
  0
VERTEX
  8
T03SSILL
 62
4
 10
2218.811
 20
-5241.897
 30
4932.570
 70
    32
  0
VERTEX
  8
T03SSILL
 62
4
 10
2215.722
 20
-5243.544
 30
4932.570
 70
    32
  0
VERTEX
  8
T03SSILL
 62
4
 10
2242.009
 20
-5324.526
 30
4932.570
 70
    32
  0
VERTEX
  8
T03SSILL
 62
4
 10
2251.705
 20
-5344.290
 30
4932.570
 70
    32
  0
VERTEX
  8
T03SSILL
 62
4
 10
2256.990
 20
-5342.836
 30
4932.570
 70
    32
  0
VERTEX
  8
T03SSILL
 62
4
 10
2259.578
 20
-5349.272
 30
4932.570
 70
    32
  0
VERTEX
  8
T03SSILL
 62
4
 10
2254.462
 20
-5351.695
 30
4932.570
 70
    32
  0
VERTEX
  8
T03SSILL
 62
4
 10
2303.530
 20
-5465.551
 30
4932.570
 70
    32
  0
VERTEX
  8
T03SSILL
 62
4
 10
2307.707
 20
-5482.899
 30
4932.570
 70
    32
  0
VERTEX
  8
T03SSILL
 62
4
 10
2300.395
 20
-5484.954
 30
4932.570
 70
    32
  0
VERTEX
  8
T03SSILL
 62
4
 10
2296.911
 20
-5469.105
 30
4932.570
 70
    32
  0
VERTEX
  8
T03SSILL
 62
4
 10
2248.286
 20
-5354.637
 30
4932.570
 70
    32
  0
VERTEX
  8
T03SSILL
 62
4
 10
2243.437
 20
-5356.534
 30
4932.570
 70
    32
  0
VERTEX
  8
T03SSILL
 62
4
 10
2240.585
 20
-5350.096
 30
4932.570
 70
    32
  0
VERTEX
  8
T03SSILL
 62
4
 10
2244.559
 20
-5347.577
 30
4932.570
 70
    32
  0
VERTEX
  8
T03SSILL
 62
4
 10
2207.982
 20
-5244.188
 30
4932.570
 70
    32
  0
VERTEX
  8
T03SSILL
 62
4
 10
2205.796
 20
-5242.677
 30
4932.570
 70
    32
  0
VERTEX
  8
T03SSILL
 62
4
 10
2184.160
 20
-5244.184
 30
4932.570
 70
    32
  0
VERTEX
  8
T03SSILL
 62
4
 10
2178.549
 20
-5242.120
 30
4932.570
 70
    32
  0
VERTEX
  8
T03SSILL
 62
4
 10
2175.278
 20
-5232.953
 30
4932.570
 70
    32
  0
VERTEX
  8
T03SSILL
 62
4
 10
2177.081
 20
-5215.474
 30
4932.570
 70
    32
  0
VERTEX
  8
T03SSILL
 62
4
 10
2177.033
 20
-5163.698
 30
4932.570
 70
    32
  0
VERTEX
  8
T03SSILL
 62
4
 10
2175.067
 20
-5121.313
 30
4932.570
 70
    32
  0
VERTEX
  8
T03SSILL
 62
4
 10
2082.669
 20
-5122.812
 30
4932.570
 70
    32
  0
VERTEX
  8
T03SSILL
 62
4
 10
2082.538
 20
-5116.834
 30
4932.570
 70
    32
  0
VERTEX
  8
T03SSILL
 62
4
 10
2167.207
 20
-5114.573
 30
4932.570
 70
    32
  0
VERTEX
  8
T03SSILL
 62
4
 10
2175.590
 20
-5110.329
 30
4932.570
 70
    32
  0
VERTEX
  8
T03SSILL
 62
4
 10
2176.447
 20
-5089.941
 30
4932.570
 70
    32
  0
VERTEX
  8
T03SSILL
 62
4
 10
2173.162
 20
-5082.621
 30
4932.570
 70
    32
  0
VERTEX
  8
T03SSILL
 62
4
 10
2176.167
 20
-5080.534
 30
4932.570
 70
    32
  0
VERTEX
  8
T03SSILL
 62
4
 10
2177.208
 20
-5000.988
 30
4932.570
 70
    32
  0
VERTEX
  8
T03SSILL
 62
4
 10
2172.576
 20
-4997.349
 30
4932.570
 70
    32
  0
VERTEX
  8
T03SSILL
 62
4
 10
2176.999
 20
-4993.778
 30
4932.570
 70
    32
  0
VERTEX
  8
T03SSILL
 62
4
 10
2175.216
 20
-4915.618
 30
4932.570
 70
    32
  0
VERTEX
  8
T03SSILL
 62
4
 10
2169.145
 20
-4916.363
 30
4932.570
 70
    32
  0
VERTEX
  8
T03SSILL
 62
4
 10
2169.085
 20
-4912.671
 30
4932.570
 70
    32
  0
VERTEX
  8
T03SSILL
 62
4
 10
2175.696
 20
-4910.259
 30
4932.570
 70
    32
  0
VERTEX
  8
T03SSILL
 62
4
 10
2176.165
 20
-4906.395
 30
4932.570
 70
    32
  0
VERTEX
  8
T03SSILL
 62
4
 10
2173.992
 20
-4891.523
 30
4932.570
 70
    32
  0
VERTEX
  8
T03SSILL
 62
4
 10
2176.288
 20
-4866.839
 30
4932.570
 70
    32
  0
VERTEX
  8
T03SSILL
 62
4
 10
2184.440
 20
-4846.595
 30
4932.570
 70
    32
  0
VERTEX
  8
T03SSILL
 62
4
 10
2215.546
 20
-4790.044
 30
4932.570
 70
    32
  0
VERTEX
  8
T03SSILL
 62
4
 10
2217.705
 20
-4783.555
 30
4932.570
 70
    32
  0
VERTEX
  8
T03SSILL
 62
4
 10
2211.792
 20
-4775.072
 30
4932.570
 70
    32
  0
VERTEX
  8
T03SSILL
 62
4
 10
2193.603
 20
-4785.658
 30
4932.570
 70
    32
  0
VERTEX
  8
T03SSILL
 62
4
 10
2191.943
 20
-4784.415
 30
4932.570
 70
    32
  0
VERTEX
  8
T03SSILL
 62
4
 10
2192.053
 20
-4781.515
 30
4932.570
 70
    32
  0
VERTEX
  8
T03SSILL
 62
4
 10
2201.176
 20
-4772.354
 30
4932.570
 70
    32
  0
VERTEX
  8
T03SSILL
 62
4
 10
2200.842
 20
-4769.978
 30
4932.570
 70
    32
  0
VERTEX
  8
T03SSILL
 62
4
 10
2181.851
 20
-4770.538
 30
4932.570
 70
    32
  0
VERTEX
  8
T03SSILL
 62
4
 10
2179.499
 20
-4767.707
 30
4932.570
 70
    32
  0
VERTEX
  8
T03SSILL
 62
4
 10
2181.441
 20
-4754.976
 30
4932.570
 70
    32
  0
VERTEX
  8
T03SSILL
 62
4
 10
2165.709
 20
-4754.593
 30
4932.570
 70
    32
  0
VERTEX
  8
T03SSILL
 62
4
 10
2150.743
 20
-4757.557
 30
4932.570
 70
    32
  0
VERTEX
  8
T03SSILL
 62
4
 10
2141.252
 20
-4757.221
 30
4932.570
 70
    32
  0
SEQEND
  8
T03SSILL
  0
POLYLINE
  8
T03SSILL
 62
4
 66
     1
 70
     9
  0
VERTEX
  8
T03SSILL
 62
4
 10
726.877
 20
-290.573
 30
4932.570
 70
    32
  0
VERTEX
  8
T03SSILL
 62
4
 10
727.134
 20
-287.212
 30
4932.570
 70
    32
  0
VERTEX
  8
T03SSILL
 62
4
 10
766.968
 20
-260.712
 30
4932.570
 70
    32
  0
VERTEX
  8
T03SSILL
 62
4
 10
777.225
 20
-285.778
 30
4932.570
 70
    32
  0
VERTEX
  8
T03SSILL
 62
4
 10
776.719
 20
-292.468
 30
4932.570
 70
    32
  0
VERTEX
  8
T03SSILL
 62
4
 10
763.063
 20
-301.483
 30
4932.570
 70
    32
  0
VERTEX
  8
T03SSILL
 62
4
 10
745.778
 20
-305.185
 30
4932.570
 70
    32
  0
VERTEX
  8
T03SSILL
 62
4
 10
731.655
 20
-300.320
 30
4932.570
 70
    32
  0
SEQEND
  8
T03SSILL
  0
POLYLINE
  8
T03SSILL
 62
4
 66
     1
 70
     9
  0
VERTEX
  8
T03SSILL
 62
4
 10
269.120
 20
-610.595
 30
4932.570
 70
    32
  0
VERTEX
  8
T03SSILL
 62
4
 10
181.377
 20
-671.797
 30
4932.570
 70
    32
  0
VERTEX
  8
T03SSILL
 62
4
 10
192.250
 20
-688.466
 30
4932.570
 70
    32
  0
VERTEX
  8
T03SSILL
 62
4
 10
203.977
 20
-703.187
 30
4932.570
 70
    32
  0
VERTEX
  8
T03SSILL
 62
4
 10
207.790
 20
-711.851
 30
4932.570
 70
    32
  0
VERTEX
  8
T03SSILL
 62
4
 10
215.697
 20
-723.981
 30
4932.570
 70
    32
  0
VERTEX
  8
T03SSILL
 62
4
 10
221.485
 20
-735.524
 30
4932.570
 70
    32
  0
VERTEX
  8
T03SSILL
 62
4
 10
222.749
 20
-744.574
 30
4932.570
 70
    32
  0
VERTEX
  8
T03SSILL
 62
4
 10
228.650
 20
-751.450
 30
4932.570
 70
    32
  0
VERTEX
  8
T03SSILL
 62
4
 10
234.896
 20
-764.395
 30
4932.570
 70
    32
  0
VERTEX
  8
T03SSILL
 62
4
 10
269.480
 20
-789.992
 30
4932.570
 70
    32
  0
VERTEX
  8
T03SSILL
 62
4
 10
349.742
 20
-837.012
 30
4932.570
 70
    32
  0
VERTEX
  8
T03SSILL
 62
4
 10
389.848
 20
-821.393
 30
4932.570
 70
    32
  0
VERTEX
  8
T03SSILL
 62
4
 10
409.765
 20
-803.759
 30
4932.570
 70
    32
  0
VERTEX
  8
T03SSILL
 62
4
 10
409.130
 20
-800.149
 30
4932.570
 70
    32
  0
VERTEX
  8
T03SSILL
 62
4
 10
391.646
 20
-775.032
 30
4932.570
 70
    32
  0
VERTEX
  8
T03SSILL
 62
4
 10
396.474
 20
-771.219
 30
4932.570
 70
    32
  0
VERTEX
  8
T03SSILL
 62
4
 10
412.716
 20
-794.668
 30
4932.570
 70
    32
  0
VERTEX
  8
T03SSILL
 62
4
 10
420.378
 20
-793.749
 30
4932.570
 70
    32
  0
VERTEX
  8
T03SSILL
 62
4
 10
434.502
 20
-780.813
 30
4932.570
 70
    32
  0
VERTEX
  8
T03SSILL
 62
4
 10
439.808
 20
-784.576
 30
4932.570
 70
    32
  0
VERTEX
  8
T03SSILL
 62
4
 10
401.645
 20
-819.132
 30
4932.570
 70
    32
  0
VERTEX
  8
T03SSILL
 62
4
 10
397.542
 20
-826.819
 30
4932.570
 70
    32
  0
VERTEX
  8
T03SSILL
 62
4
 10
420.578
 20
-852.172
 30
4932.570
 70
    32
  0
VERTEX
  8
T03SSILL
 62
4
 10
421.776
 20
-862.741
 30
4932.570
 70
    32
  0
VERTEX
  8
T03SSILL
 62
4
 10
426.108
 20
-865.627
 30
4932.570
 70
    32
  0
VERTEX
  8
T03SSILL
 62
4
 10
468.571
 20
-863.215
 30
4932.570
 70
    32
  0
VERTEX
  8
T03SSILL
 62
4
 10
469.484
 20
-869.819
 30
4932.570
 70
    32
  0
VERTEX
  8
T03SSILL
 62
4
 10
423.060
 20
-872.956
 30
4932.570
 70
    32
  0
VERTEX
  8
T03SSILL
 62
4
 10
422.802
 20
-892.080
 30
4932.570
 70
    32
  0
VERTEX
  8
T03SSILL
 62
4
 10
533.164
 20
-970.492
 30
4932.570
 70
    32
  0
VERTEX
  8
T03SSILL
 62
4
 10
539.893
 20
-994.780
 30
4932.570
 70
    32
  0
VERTEX
  8
T03SSILL
 62
4
 10
542.458
 20
-996.618
 30
4932.570
 70
    32
  0
VERTEX
  8
T03SSILL
 62
4
 10
546.244
 20
-996.071
 30
4932.570
 70
    32
  0
VERTEX
  8
T03SSILL
 62
4
 10
603.353
 20
-961.510
 30
4932.570
 70
    32
  0
VERTEX
  8
T03SSILL
 62
4
 10
625.693
 20
-935.051
 30
4932.570
 70
    32
  0
VERTEX
  8
T03SSILL
 62
4
 10
661.427
 20
-872.838
 30
4932.570
 70
    32
  0
VERTEX
  8
T03SSILL
 62
4
 10
764.478
 20
-701.726
 30
4932.570
 70
    32
  0
VERTEX
  8
T03SSILL
 62
4
 10
787.749
 20
-613.843
 30
4932.570
 70
    32
  0
VERTEX
  8
T03SSILL
 62
4
 10
745.670
 20
-515.443
 30
4932.570
 70
    32
  0
VERTEX
  8
T03SSILL
 62
4
 10
737.042
 20
-516.983
 30
4932.570
 70
    32
  0
VERTEX
  8
T03SSILL
 62
4
 10
727.076
 20
-515.358
 30
4932.570
 70
    32
  0
VERTEX
  8
T03SSILL
 62
4
 10
712.309
 20
-504.945
 30
4932.570
 70
    32
  0
VERTEX
  8
T03SSILL
 62
4
 10
699.422
 20
-500.690
 30
4932.570
 70
    32
  0
VERTEX
  8
T03SSILL
 62
4
 10
672.739
 20
-504.259
 30
4932.570
 70
    32
  0
VERTEX
  8
T03SSILL
 62
4
 10
671.491
 20
-501.357
 30
4932.570
 70
    32
  0
VERTEX
  8
T03SSILL
 62
4
 10
669.747
 20
-487.354
 30
4932.570
 70
    32
  0
VERTEX
  8
T03SSILL
 62
4
 10
671.664
 20
-482.939
 30
4932.570
 70
    32
  0
VERTEX
  8
T03SSILL
 62
4
 10
674.131
 20
-482.750
 30
4932.570
 70
    32
  0
VERTEX
  8
T03SSILL
 62
4
 10
677.631
 20
-477.886
 30
4932.570
 70
    32
  0
VERTEX
  8
T03SSILL
 62
4
 10
683.953
 20
-473.185
 30
4932.570
 70
    32
  0
VERTEX
  8
T03SSILL
 62
4
 10
690.465
 20
-471.302
 30
4932.570
 70
    32
  0
VERTEX
  8
T03SSILL
 62
4
 10
670.969
 20
-431.303
 30
4932.570
 70
    32
  0
VERTEX
  8
T03SSILL
 62
4
 10
673.865
 20
-339.731
 30
4932.570
 70
    32
  0
VERTEX
  8
T03SSILL
 62
4
 10
669.413
 20
-330.236
 30
4932.570
 70
    32
  0
VERTEX
  8
T03SSILL
 62
4
 10
663.146
 20
-328.240
 30
4932.570
 70
    32
  0
VERTEX
  8
T03SSILL
 62
4
 10
658.930
 20
-330.992
 30
4932.570
 70
    32
  0
VERTEX
  8
T03SSILL
 62
4
 10
540.642
 20
-414.322
 30
4932.570
 70
    32
  0
VERTEX
  8
T03SSILL
 62
4
 10
577.341
 20
-458.378
 30
4932.570
 70
    32
  0
VERTEX
  8
T03SSILL
 62
4
 10
571.809
 20
-462.282
 30
4932.570
 70
    32
  0
VERTEX
  8
T03SSILL
 62
4
 10
534.499
 20
-419.463
 30
4932.570
 70
    32
  0
VERTEX
  8
T03SSILL
 62
4
 10
428.240
 20
-494.009
 30
4932.570
 70
    32
  0
SEQEND
  8
T03SSILL
  0
POLYLINE
  8
T03SSILL
 62
4
 66
     1
 70
     9
  0
VERTEX
  8
T03SSILL
 62
4
 10
269.058
 20
-798.008
 30
4932.570
 70
    32
  0
VERTEX
  8
T03SSILL
 62
4
 10
234.113
 20
-771.712
 30
4932.570
 70
    32
  0
VERTEX
  8
T03SSILL
 62
4
 10
195.012
 20
-790.278
 30
4932.570
 70
    32
  0
VERTEX
  8
T03SSILL
 62
4
 10
190.492
 20
-794.651
 30
4932.570
 70
    32
  0
VERTEX
  8
T03SSILL
 62
4
 10
204.405
 20
-821.491
 30
4932.570
 70
    32
  0
VERTEX
  8
T03SSILL
 62
4
 10
209.476
 20
-818.871
 30
4932.570
 70
    32
  0
VERTEX
  8
T03SSILL
 62
4
 10
247.523
 20
-894.851
 30
4932.570
 70
    32
  0
VERTEX
  8
T03SSILL
 62
4
 10
279.713
 20
-878.246
 30
4932.570
 70
    32
  0
VERTEX
  8
T03SSILL
 62
4
 10
338.587
 20
-844.293
 30
4932.570
 70
    32
  0
VERTEX
  8
T03SSILL
 62
4
 10
338.208
 20
-838.920
 30
4932.570
 70
    32
  0
VERTEX
  8
T03SSILL
 62
4
 10
335.192
 20
-834.881
 30
4932.570
 70
    32
  0
VERTEX
  8
T03SSILL
 62
4
 10
311.937
 20
-819.046
 30
4932.570
 70
    32
  0
VERTEX
  8
T03SSILL
 62
4
 10
292.595
 20
-810.065
 30
4932.570
 70
    32
  0
SEQEND
  8
T03SSILL
  0
POLYLINE
  8
T03SSILL
 62
4
 66
     1
 70
     9
  0
VERTEX
  8
T03SSILL
 62
4
 10
1024.879
 20
-1487.981
 30
4932.570
 70
    32
  0
VERTEX
  8
T03SSILL
 62
4
 10
1002.481
 20
-1502.808
 30
4932.570
 70
    32
  0
VERTEX
  8
T03SSILL
 62
4
 10
1000.748
 20
-1508.632
 30
4932.570
 70
    32
  0
VERTEX
  8
T03SSILL
 62
4
 10
1001.848
 20
-1517.439
 30
4932.570
 70
    32
  0
VERTEX
  8
T03SSILL
 62
4
 10
1000.289
 20
-1522.910
 30
4932.570
 70
    32
  0
VERTEX
  8
T03SSILL
 62
4
 10
984.207
 20
-1531.713
 30
4932.570
 70
    32
  0
VERTEX
  8
T03SSILL
 62
4
 10
977.905
 20
-1540.380
 30
4932.570
 70
    32
  0
VERTEX
  8
T03SSILL
 62
4
 10
968.610
 20
-1549.855
 30
4932.570
 70
    32
  0
VERTEX
  8
T03SSILL
 62
4
 10
943.311
 20
-1548.041
 30
4932.570
 70
    32
  0
VERTEX
  8
T03SSILL
 62
4
 10
931.545
 20
-1538.847
 30
4932.570
 70
    32
  0
VERTEX
  8
T03SSILL
 62
4
 10
908.252
 20
-1532.969
 30
4932.570
 70
    32
  0
VERTEX
  8
T03SSILL
 62
4
 10
906.294
 20
-1529.102
 30
4932.570
 70
    32
  0
VERTEX
  8
T03SSILL
 62
4
 10
913.216
 20
-1503.160
 30
4932.570
 70
    32
  0
VERTEX
  8
T03SSILL
 62
4
 10
910.871
 20
-1492.245
 30
4932.570
 70
    32
  0
VERTEX
  8
T03SSILL
 62
4
 10
920.737
 20
-1491.579
 30
4932.570
 70
    32
  0
VERTEX
  8
T03SSILL
 62
4
 10
928.041
 20
-1489.516
 30
4932.570
 70
    32
  0
VERTEX
  8
T03SSILL
 62
4
 10
939.289
 20
-1483.028
 30
4932.570
 70
    32
  0
VERTEX
  8
T03SSILL
 62
4
 10
951.955
 20
-1478.295
 30
4932.570
 70
    32
  0
VERTEX
  8
T03SSILL
 62
4
 10
959.977
 20
-1496.673
 30
4932.570
 70
    32
  0
VERTEX
  8
T03SSILL
 62
4
 10
963.333
 20
-1498.330
 30
4932.570
 70
    32
  0
VERTEX
  8
T03SSILL
 62
4
 10
996.735
 20
-1499.135
 30
4932.570
 70
    32
  0
VERTEX
  8
T03SSILL
 62
4
 10
1025.895
 20
-1479.604
 30
4932.570
 70
    32
  0
VERTEX
  8
T03SSILL
 62
4
 10
1038.903
 20
-1469.051
 30
4932.570
 70
    32
  0
VERTEX
  8
T03SSILL
 62
4
 10
1040.982
 20
-1459.929
 30
4932.570
 70
    32
  0
VERTEX
  8
T03SSILL
 62
4
 10
959.643
 20
-1286.329
 30
4932.570
 70
    32
  0
VERTEX
  8
T03SSILL
 62
4
 10
956.644
 20
-1285.727
 30
4932.570
 70
    32
  0
VERTEX
  8
T03SSILL
 62
4
 10
912.130
 20
-1318.816
 30
4932.570
 70
    32
  0
VERTEX
  8
T03SSILL
 62
4
 10
855.867
 20
-1345.970
 30
4932.570
 70
    32
  0
VERTEX
  8
T03SSILL
 62
4
 10
847.640
 20
-1357.555
 30
4932.570
 70
    32
  0
VERTEX
  8
T03SSILL
 62
4
 10
858.172
 20
-1384.468
 30
4932.570
 70
    32
  0
VERTEX
  8
T03SSILL
 62
4
 10
852.808
 20
-1386.874
 30
4932.570
 70
    32
  0
VERTEX
  8
T03SSILL
 62
4
 10
859.060
 20
-1403.762
 30
4932.570
 70
    32
  0
VERTEX
  8
T03SSILL
 62
4
 10
854.753
 20
-1406.075
 30
4932.570
 70
    32
  0
VERTEX
  8
T03SSILL
 62
4
 10
856.276
 20
-1411.002
 30
4932.570
 70
    32
  0
VERTEX
  8
T03SSILL
 62
4
 10
851.351
 20
-1413.141
 30
4932.570
 70
    32
  0
VERTEX
  8
T03SSILL
 62
4
 10
864.381
 20
-1446.387
 30
4932.570
 70
    32
  0
VERTEX
  8
T03SSILL
 62
4
 10
875.376
 20
-1442.279
 30
4932.570
 70
    32
  0
VERTEX
  8
T03SSILL
 62
4
 10
877.609
 20
-1448.348
 30
4932.570
 70
    32
  0
VERTEX
  8
T03SSILL
 62
4
 10
883.589
 20
-1445.763
 30
4932.570
 70
    32
  0
VERTEX
  8
T03SSILL
 62
4
 10
890.278
 20
-1462.121
 30
4932.570
 70
    32
  0
VERTEX
  8
T03SSILL
 62
4
 10
895.468
 20
-1460.244
 30
4932.570
 70
    32
  0
VERTEX
  8
T03SSILL
 62
4
 10
906.177
 20
-1487.509
 30
4932.570
 70
    32
  0
VERTEX
  8
T03SSILL
 62
4
 10
901.431
 20
-1489.912
 30
4932.570
 70
    32
  0
VERTEX
  8
T03SSILL
 62
4
 10
908.827
 20
-1506.530
 30
4932.570
 70
    32
  0
VERTEX
  8
T03SSILL
 62
4
 10
902.582
 20
-1509.028
 30
4932.570
 70
    32
  0
VERTEX
  8
T03SSILL
 62
4
 10
899.501
 20
-1527.373
 30
4932.570
 70
    32
  0
VERTEX
  8
T03SSILL
 62
4
 10
904.511
 20
-1542.769
 30
4932.570
 70
    32
  0
VERTEX
  8
T03SSILL
 62
4
 10
1043.205
 20
-1673.149
 30
4932.570
 70
    32
  0
VERTEX
  8
T03SSILL
 62
4
 10
1079.625
 20
-1618.000
 30
4932.570
 70
    32
  0
VERTEX
  8
T03SSILL
 62
4
 10
1083.406
 20
-1618.235
 30
4932.570
 70
    32
  0
VERTEX
  8
T03SSILL
 62
4
 10
1088.816
 20
-1615.590
 30
4932.570
 70
    32
  0
VERTEX
  8
T03SSILL
 62
4
 10
1088.870
 20
-1566.916
 30
4932.570
 70
    32
  0
VERTEX
  8
T03SSILL
 62
4
 10
1086.384
 20
-1557.019
 30
4932.570
 70
    32
  0
VERTEX
  8
T03SSILL
 62
4
 10
1047.282
 20
-1473.582
 30
4932.570
 70
    32
  0
VERTEX
  8
T03SSILL
 62
4
 10
1044.919
 20
-1472.753
 30
4932.570
 70
    32
  0
VERTEX
  8
T03SSILL
 62
4
 10
1038.424
 20
-1477.229
 30
4932.570
 70
    32
  0
SEQEND
  8
T03SSILL
  0
POLYLINE
  8
T03SSILL
 62
4
 66
     1
 70
     9
  0
VERTEX
  8
T03SSILL
 62
4
 10
844.100
 20
-1824.906
 30
4932.570
 70
    32
  0
VERTEX
  8
T03SSILL
 62
4
 10
838.165
 20
-1812.483
 30
4932.570
 70
    32
  0
VERTEX
  8
T03SSILL
 62
4
 10
843.792
 20
-1809.900
 30
4932.570
 70
    32
  0
VERTEX
  8
T03SSILL
 62
4
 10
841.033
 20
-1804.362
 30
4932.570
 70
    32
  0
VERTEX
  8
T03SSILL
 62
4
 10
846.923
 20
-1801.513
 30
4932.570
 70
    32
  0
VERTEX
  8
T03SSILL
 62
4
 10
838.999
 20
-1784.986
 30
4932.570
 70
    32
  0
VERTEX
  8
T03SSILL
 62
4
 10
844.274
 20
-1782.580
 30
4932.570
 70
    32
  0
VERTEX
  8
T03SSILL
 62
4
 10
805.628
 20
-1701.171
 30
4932.570
 70
    32
  0
VERTEX
  8
T03SSILL
 62
4
 10
810.816
 20
-1698.854
 30
4932.570
 70
    32
  0
VERTEX
  8
T03SSILL
 62
4
 10
792.734
 20
-1659.641
 30
4932.570
 70
    32
  0
VERTEX
  8
T03SSILL
 62
4
 10
797.570
 20
-1657.502
 30
4932.570
 70
    32
  0
VERTEX
  8
T03SSILL
 62
4
 10
789.107
 20
-1639.039
 30
4932.570
 70
    32
  0
VERTEX
  8
T03SSILL
 62
4
 10
791.125
 20
-1637.354
 30
4932.570
 70
    32
  0
VERTEX
  8
T03SSILL
 62
4
 10
1021.832
 20
-1691.997
 30
4932.570
 70
    32
  0
VERTEX
  8
T03SSILL
 62
4
 10
1029.365
 20
-1691.418
 30
4932.570
 70
    32
  0
VERTEX
  8
T03SSILL
 62
4
 10
1033.819
 20
-1699.321
 30
4932.570
 70
    32
  0
VERTEX
  8
T03SSILL
 62
4
 10
1094.475
 20
-1873.842
 30
4932.570
 70
    32
  0
VERTEX
  8
T03SSILL
 62
4
 10
1099.238
 20
-1878.846
 30
4932.570
 70
    32
  0
VERTEX
  8
T03SSILL
 62
4
 10
1128.456
 20
-1896.113
 30
4932.570
 70
    32
  0
VERTEX
  8
T03SSILL
 62
4
 10
1167.685
 20
-1903.589
 30
4932.570
 70
    32
  0
VERTEX
  8
T03SSILL
 62
4
 10
1166.819
 20
-1896.974
 30
4932.570
 70
    32
  0
VERTEX
  8
T03SSILL
 62
4
 10
1132.412
 20
-1890.805
 30
4932.570
 70
    32
  0
VERTEX
  8
T03SSILL
 62
4
 10
1104.147
 20
-1874.521
 30
4932.570
 70
    32
  0
VERTEX
  8
T03SSILL
 62
4
 10
1099.720
 20
-1870.491
 30
4932.570
 70
    32
  0
VERTEX
  8
T03SSILL
 62
4
 10
1048.743
 20
-1724.463
 30
4932.570
 70
    32
  0
VERTEX
  8
T03SSILL
 62
4
 10
1053.528
 20
-1722.425
 30
4932.570
 70
    32
  0
VERTEX
  8
T03SSILL
 62
4
 10
1056.852
 20
-1718.076
 30
4932.570
 70
    32
  0
VERTEX
  8
T03SSILL
 62
4
 10
1061.298
 20
-1720.874
 30
4932.570
 70
    32
  0
VERTEX
  8
T03SSILL
 62
4
 10
1064.713
 20
-1716.350
 30
4932.570
 70
    32
  0
VERTEX
  8
T03SSILL
 62
4
 10
1069.689
 20
-1718.980
 30
4932.570
 70
    32
  0
VERTEX
  8
T03SSILL
 62
4
 10
1076.700
 20
-1709.671
 30
4932.570
 70
    32
  0
VERTEX
  8
T03SSILL
 62
4
 10
1091.869
 20
-1719.062
 30
4932.570
 70
    32
  0
VERTEX
  8
T03SSILL
 62
4
 10
1094.020
 20
-1722.264
 30
4932.570
 70
    32
  0
VERTEX
  8
T03SSILL
 62
4
 10
1156.805
 20
-1760.123
 30
4932.570
 70
    32
  0
VERTEX
  8
T03SSILL
 62
4
 10
1173.853
 20
-1761.885
 30
4932.570
 70
    32
  0
VERTEX
  8
T03SSILL
 62
4
 10
1242.647
 20
-1798.253
 30
4932.570
 70
    32
  0
VERTEX
  8
T03SSILL
 62
4
 10
1284.478
 20
-1864.656
 30
4932.570
 70
    32
  0
VERTEX
  8
T03SSILL
 62
4
 10
1281.976
 20
-1872.715
 30
4932.570
 70
    32
  0
VERTEX
  8
T03SSILL
 62
4
 10
1212.269
 20
-1917.575
 30
4932.570
 70
    32
  0
VERTEX
  8
T03SSILL
 62
4
 10
1151.873
 20
-1954.570
 30
4932.570
 70
    32
  0
VERTEX
  8
T03SSILL
 62
4
 10
958.976
 20
-2080.485
 30
4932.570
 70
    32
  0
VERTEX
  8
T03SSILL
 62
4
 10
954.218
 20
-2078.823
 30
4932.570
 70
    32
  0
VERTEX
  8
T03SSILL
 62
4
 10
874.234
 20
-1910.475
 30
4932.570
 70
    32
  0
VERTEX
  8
T03SSILL
 62
4
 10
875.195
 20
-1907.480
 30
4932.570
 70
    32
  0
VERTEX
  8
T03SSILL
 62
4
 10
892.170
 20
-1899.076
 30
4932.570
 70
    32
  0
VERTEX
  8
T03SSILL
 62
4
 10
889.339
 20
-1893.095
 30
4932.570
 70
    32
  0
VERTEX
  8
T03SSILL
 62
4
 10
870.957
 20
-1902.206
 30
4932.570
 70
    32
  0
VERTEX
  8
T03SSILL
 62
4
 10
833.444
 20
-1824.102
 30
4932.570
 70
    32
  0
VERTEX
  8
T03SSILL
 62
4
 10
837.401
 20
-1821.716
 30
4932.570
 70
    32
  0
VERTEX
  8
T03SSILL
 62
4
 10
839.790
 20
-1826.641
 30
4932.570
 70
    32
  0
SEQEND
  8
T03SSILL
  0
POLYLINE
  8
T03SSILL
 62
4
 66
     1
 70
     9
  0
VERTEX
  8
T03SSILL
 62
4
 10
759.560
 20
-1812.343
 30
4932.570
 70
    32
  0
VERTEX
  8
T03SSILL
 62
4
 10
740.076
 20
-1810.500
 30
4932.570
 70
    32
  0
VERTEX
  8
T03SSILL
 62
4
 10
734.510
 20
-1807.531
 30
4932.570
 70
    32
  0
VERTEX
  8
T03SSILL
 62
4
 10
694.234
 20
-1753.007
 30
4932.570
 70
    32
  0
VERTEX
  8
T03SSILL
 62
4
 10
657.842
 20
-1717.762
 30
4932.570
 70
    32
  0
VERTEX
  8
T03SSILL
 62
4
 10
657.189
 20
-1692.562
 30
4932.570
 70
    32
  0
VERTEX
  8
T03SSILL
 62
4
 10
659.650
 20
-1691.228
 30
4932.570
 70
    32
  0
VERTEX
  8
T03SSILL
 62
4
 10
691.772
 20
-1700.499
 30
4932.570
 70
    32
  0
VERTEX
  8
T03SSILL
 62
4
 10
715.901
 20
-1750.697
 30
4932.570
 70
    32
  0
VERTEX
  8
T03SSILL
 62
4
 10
731.726
 20
-1743.305
 30
4932.570
 70
    32
  0
VERTEX
  8
T03SSILL
 62
4
 10
726.208
 20
-1732.229
 30
4932.570
 70
    32
  0
VERTEX
  8
T03SSILL
 62
4
 10
753.903
 20
-1719.491
 30
4932.570
 70
    32
  0
VERTEX
  8
T03SSILL
 62
4
 10
766.549
 20
-1746.393
 30
4932.570
 70
    32
  0
VERTEX
  8
T03SSILL
 62
4
 10
760.747
 20
-1749.330
 30
4932.570
 70
    32
  0
VERTEX
  8
T03SSILL
 62
4
 10
786.745
 20
-1803.308
 30
4932.570
 70
    32
  0
VERTEX
  8
T03SSILL
 62
4
 10
792.813
 20
-1800.723
 30
4932.570
 70
    32
  0
VERTEX
  8
T03SSILL
 62
4
 10
795.569
 20
-1805.732
 30
4932.570
 70
    32
  0
VERTEX
  8
T03SSILL
 62
4
 10
800.935
 20
-1803.767
 30
4932.570
 70
    32
  0
VERTEX
  8
T03SSILL
 62
4
 10
806.538
 20
-1814.226
 30
4932.570
 70
    32
  0
VERTEX
  8
T03SSILL
 62
4
 10
811.199
 20
-1812.264
 30
4932.570
 70
    32
  0
VERTEX
  8
T03SSILL
 62
4
 10
819.776
 20
-1829.290
 30
4932.570
 70
    32
  0
VERTEX
  8
T03SSILL
 62
4
 10
826.671
 20
-1826.847
 30
4932.570
 70
    32
  0
VERTEX
  8
T03SSILL
 62
4
 10
848.346
 20
-1871.968
 30
4932.570
 70
    32
  0
VERTEX
  8
T03SSILL
 62
4
 10
847.564
 20
-1876.285
 30
4932.570
 70
    32
  0
VERTEX
  8
T03SSILL
 62
4
 10
808.578
 20
-1885.531
 30
4932.570
 70
    32
  0
VERTEX
  8
T03SSILL
 62
4
 10
786.276
 20
-1874.576
 30
4932.570
 70
    32
  0
VERTEX
  8
T03SSILL
 62
4
 10
767.023
 20
-1849.173
 30
4932.570
 70
    32
  0
VERTEX
  8
T03SSILL
 62
4
 10
750.662
 20
-1830.628
 30
4932.570
 70
    32
  0
VERTEX
  8
T03SSILL
 62
4
 10
741.340
 20
-1816.486
 30
4932.570
 70
    32
  0
VERTEX
  8
T03SSILL
 62
4
 10
761.882
 20
-1818.500
 30
4932.570
 70
    32
  0
SEQEND
  8
T03SSILL
  0
POLYLINE
  8
T03SSILL
 62
4
 66
     1
 70
     9
  0
VERTEX
  8
T03SSILL
 62
4
 10
1319.809
 20
-1918.899
 30
4932.570
 70
    32
  0
VERTEX
  8
T03SSILL
 62
4
 10
1296.168
 20
-1882.706
 30
4932.570
 70
    32
  0
VERTEX
  8
T03SSILL
 62
4
 10
1292.176
 20
-1879.035
 30
4932.570
 70
    32
  0
VERTEX
  8
T03SSILL
 62
4
 10
1286.658
 20
-1877.277
 30
4932.570
 70
    32
  0
VERTEX
  8
T03SSILL
 62
4
 10
1224.238
 20
-1917.674
 30
4932.570
 70
    32
  0
VERTEX
  8
T03SSILL
 62
4
 10
1197.258
 20
-1933.158
 30
4932.570
 70
    32
  0
VERTEX
  8
T03SSILL
 62
4
 10
963.742
 20
-2085.229
 30
4932.570
 70
    32
  0
VERTEX
  8
T03SSILL
 62
4
 10
962.518
 20
-2089.106
 30
4932.570
 70
    32
  0
VERTEX
  8
T03SSILL
 62
4
 10
1219.373
 20
-2323.791
 30
4932.570
 70
    32
  0
VERTEX
  8
T03SSILL
 62
4
 10
1258.023
 20
-2360.526
 30
4932.570
 70
    32
  0
VERTEX
  8
T03SSILL
 62
4
 10
1329.314
 20
-2422.939
 30
4932.570
 70
    32
  0
VERTEX
  8
T03SSILL
 62
4
 10
1331.902
 20
-2420.677
 30
4932.570
 70
    32
  0
VERTEX
  8
T03SSILL
 62
4
 10
1335.606
 20
-2420.942
 30
4932.570
 70
    32
  0
VERTEX
  8
T03SSILL
 62
4
 10
1336.886
 20
-2422.937
 30
4932.570
 70
    32
  0
VERTEX
  8
T03SSILL
 62
4
 10
1334.352
 20
-2427.487
 30
4932.570
 70
    32
  0
VERTEX
  8
T03SSILL
 62
4
 10
1337.201
 20
-2428.828
 30
4932.570
 70
    32
  0
VERTEX
  8
T03SSILL
 62
4
 10
1341.993
 20
-2426.690
 30
4932.570
 70
    32
  0
VERTEX
  8
T03SSILL
 62
4
 10
1345.474
 20
-2428.721
 30
4932.570
 70
    32
  0
VERTEX
  8
T03SSILL
 62
4
 10
1345.476
 20
-2432.507
 30
4932.570
 70
    32
  0
VERTEX
  8
T03SSILL
 62
4
 10
1341.800
 20
-2437.172
 30
4932.570
 70
    32
  0
VERTEX
  8
T03SSILL
 62
4
 10
1329.098
 20
-2443.635
 30
4932.570
 70
    32
  0
VERTEX
  8
T03SSILL
 62
4
 10
1325.927
 20
-2447.319
 30
4932.570
 70
    32
  0
VERTEX
  8
T03SSILL
 62
4
 10
1325.063
 20
-2451.742
 30
4932.570
 70
    32
  0
VERTEX
  8
T03SSILL
 62
4
 10
1329.429
 20
-2491.258
 30
4932.570
 70
    32
  0
VERTEX
  8
T03SSILL
 62
4
 10
1330.970
 20
-2496.857
 30
4932.570
 70
    32
  0
VERTEX
  8
T03SSILL
 62
4
 10
1338.942
 20
-2506.354
 30
4932.570
 70
    32
  0
VERTEX
  8
T03SSILL
 62
4
 10
1352.552
 20
-2493.618
 30
4932.570
 70
    32
  0
VERTEX
  8
T03SSILL
 62
4
 10
1368.484
 20
-2512.084
 30
4932.570
 70
    32
  0
VERTEX
  8
T03SSILL
 62
4
 10
1363.115
 20
-2515.908
 30
4932.570
 70
    32
  0
VERTEX
  8
T03SSILL
 62
4
 10
1375.433
 20
-2530.497
 30
4932.570
 70
    32
  0
VERTEX
  8
T03SSILL
 62
4
 10
1371.555
 20
-2534.022
 30
4932.570
 70
    32
  0
VERTEX
  8
T03SSILL
 62
4
 10
1378.538
 20
-2542.662
 30
4932.570
 70
    32
  0
VERTEX
  8
T03SSILL
 62
4
 10
1374.483
 20
-2546.191
 30
4932.570
 70
    32
  0
VERTEX
  8
T03SSILL
 62
4
 10
1382.111
 20
-2556.048
 30
4932.570
 70
    32
  0
VERTEX
  8
T03SSILL
 62
4
 10
1377.439
 20
-2559.504
 30
4932.570
 70
    32
  0
VERTEX
  8
T03SSILL
 62
4
 10
1381.697
 20
-2564.598
 30
4932.570
 70
    32
  0
VERTEX
  8
T03SSILL
 62
4
 10
1376.684
 20
-2568.590
 30
4932.570
 70
    32
  0
VERTEX
  8
T03SSILL
 62
4
 10
1381.196
 20
-2573.238
 30
4932.570
 70
    32
  0
VERTEX
  8
T03SSILL
 62
4
 10
1376.699
 20
-2576.690
 30
4932.570
 70
    32
  0
VERTEX
  8
T03SSILL
 62
4
 10
1380.336
 20
-2581.535
 30
4932.570
 70
    32
  0
VERTEX
  8
T03SSILL
 62
4
 10
1371.359
 20
-2589.142
 30
4932.570
 70
    32
  0
VERTEX
  8
T03SSILL
 62
4
 10
1379.416
 20
-2598.549
 30
4932.570
 70
    32
  0
VERTEX
  8
T03SSILL
 62
4
 10
1375.108
 20
-2602.524
 30
4932.570
 70
    32
  0
VERTEX
  8
T03SSILL
 62
4
 10
1379.081
 20
-2606.745
 30
4932.570
 70
    32
  0
VERTEX
  8
T03SSILL
 62
4
 10
1373.717
 20
-2610.745
 30
4932.570
 70
    32
  0
VERTEX
  8
T03SSILL
 62
4
 10
1378.053
 20
-2615.397
 30
4932.570
 70
    32
  0
VERTEX
  8
T03SSILL
 62
4
 10
1373.565
 20
-2619.201
 30
4932.570
 70
    32
  0
VERTEX
  8
T03SSILL
 62
4
 10
1374.387
 20
-2624.200
 30
4932.570
 70
    32
  0
VERTEX
  8
T03SSILL
 62
4
 10
1380.404
 20
-2632.950
 30
4932.570
 70
    32
  0
VERTEX
  8
T03SSILL
 62
4
 10
1479.176
 20
-2740.586
 30
4932.570
 70
    32
  0
VERTEX
  8
T03SSILL
 62
4
 10
1519.455
 20
-2753.635
 30
4932.570
 70
    32
  0
VERTEX
  8
T03SSILL
 62
4
 10
1809.147
 20
-2695.118
 30
4932.570
 70
    32
  0
VERTEX
  8
T03SSILL
 62
4
 10
1812.003
 20
-2693.025
 30
4932.570
 70
    32
  0
VERTEX
  8
T03SSILL
 62
4
 10
1812.452
 20
-2689.669
 30
4932.570
 70
    32
  0
VERTEX
  8
T03SSILL
 62
4
 10
1798.103
 20
-2667.381
 30
4932.570
 70
    32
  0
SEQEND
  8
T03SSILL
  0
POLYLINE
  8
T03SSILL
 62
4
 66
     1
 70
     9
  0
VERTEX
  8
T03SSILL
 62
4
 10
1219.040
 20
-2332.333
 30
4932.570
 70
    32
  0
VERTEX
  8
T03SSILL
 62
4
 10
1159.131
 20
-2278.671
 30
4932.570
 70
    32
  0
VERTEX
  8
T03SSILL
 62
4
 10
1155.431
 20
-2278.239
 30
4932.570
 70
    32
  0
VERTEX
  8
T03SSILL
 62
4
 10
1134.555
 20
-2313.331
 30
4932.570
 70
    32
  0
VERTEX
  8
T03SSILL
 62
4
 10
1133.346
 20
-2323.548
 30
4932.570
 70
    32
  0
VERTEX
  8
T03SSILL
 62
4
 10
1134.942
 20
-2328.299
 30
4932.570
 70
    32
  0
VERTEX
  8
T03SSILL
 62
4
 10
1129.399
 20
-2329.985
 30
4932.570
 70
    32
  0
VERTEX
  8
T03SSILL
 62
4
 10
1131.172
 20
-2335.528
 30
4932.570
 70
    32
  0
VERTEX
  8
T03SSILL
 62
4
 10
1108.912
 20
-2342.711
 30
4932.570
 70
    32
  0
VERTEX
  8
T03SSILL
 62
4
 10
1116.892
 20
-2366.819
 30
4932.570
 70
    32
  0
VERTEX
  8
T03SSILL
 62
4
 10
1122.435
 20
-2365.221
 30
4932.570
 70
    32
  0
VERTEX
  8
T03SSILL
 62
4
 10
1131.833
 20
-2393.376
 30
4932.570
 70
    32
  0
VERTEX
  8
T03SSILL
 62
4
 10
1136.937
 20
-2392.044
 30
4932.570
 70
    32
  0
VERTEX
  8
T03SSILL
 62
4
 10
1140.836
 20
-2402.953
 30
4932.570
 70
    32
  0
VERTEX
  8
T03SSILL
 62
4
 10
1146.732
 20
-2401.179
 30
4932.570
 70
    32
  0
VERTEX
  8
T03SSILL
 62
4
 10
1150.809
 20
-2412.880
 30
4932.570
 70
    32
  0
VERTEX
  8
T03SSILL
 62
4
 10
1190.754
 20
-2399.581
 30
4932.570
 70
    32
  0
VERTEX
  8
T03SSILL
 62
4
 10
1192.704
 20
-2405.212
 30
4932.570
 70
    32
  0
VERTEX
  8
T03SSILL
 62
4
 10
1204.496
 20
-2402.191
 30
4932.570
 70
    32
  0
VERTEX
  8
T03SSILL
 62
4
 10
1206.091
 20
-2406.942
 30
4932.570
 70
    32
  0
VERTEX
  8
T03SSILL
 62
4
 10
1211.635
 20
-2405.345
 30
4932.570
 70
    32
  0
VERTEX
  8
T03SSILL
 62
4
 10
1213.762
 20
-2411.151
 30
4932.570
 70
    32
  0
VERTEX
  8
T03SSILL
 62
4
 10
1217.017
 20
-2410.175
 30
4932.570
 70
    32
  0
VERTEX
  8
T03SSILL
 62
4
 10
1221.187
 20
-2415.101
 30
4932.570
 70
    32
  0
VERTEX
  8
T03SSILL
 62
4
 10
1238.052
 20
-2409.685
 30
4932.570
 70
    32
  0
VERTEX
  8
T03SSILL
 62
4
 10
1240.295
 20
-2415.179
 30
4932.570
 70
    32
  0
VERTEX
  8
T03SSILL
 62
4
 10
1245.801
 20
-2413.464
 30
4932.570
 70
    32
  0
VERTEX
  8
T03SSILL
 62
4
 10
1247.786
 20
-2419.228
 30
4932.570
 70
    32
  0
VERTEX
  8
T03SSILL
 62
4
 10
1253.198
 20
-2417.252
 30
4932.570
 70
    32
  0
VERTEX
  8
T03SSILL
 62
4
 10
1255.183
 20
-2423.016
 30
4932.570
 70
    32
  0
VERTEX
  8
T03SSILL
 62
4
 10
1261.221
 20
-2421.464
 30
4932.570
 70
    32
  0
VERTEX
  8
T03SSILL
 62
4
 10
1266.544
 20
-2438.067
 30
4932.570
 70
    32
  0
VERTEX
  8
T03SSILL
 62
4
 10
1272.486
 20
-2436.166
 30
4932.570
 70
    32
  0
VERTEX
  8
T03SSILL
 62
4
 10
1274.117
 20
-2441.850
 30
4932.570
 70
    32
  0
VERTEX
  8
T03SSILL
 62
4
 10
1279.533
 20
-2440.050
 30
4932.570
 70
    32
  0
VERTEX
  8
T03SSILL
 62
4
 10
1281.595
 20
-2445.372
 30
4932.570
 70
    32
  0
VERTEX
  8
T03SSILL
 62
4
 10
1293.660
 20
-2441.741
 30
4932.570
 70
    32
  0
VERTEX
  8
T03SSILL
 62
4
 10
1295.198
 20
-2447.252
 30
4932.570
 70
    32
  0
VERTEX
  8
T03SSILL
 62
4
 10
1301.053
 20
-2445.353
 30
4932.570
 70
    32
  0
VERTEX
  8
T03SSILL
 62
4
 10
1302.595
 20
-2451.039
 30
4932.570
 70
    32
  0
VERTEX
  8
T03SSILL
 62
4
 10
1306.695
 20
-2445.660
 30
4932.570
 70
    32
  0
VERTEX
  8
T03SSILL
 62
4
 10
1309.039
 20
-2436.800
 30
4932.570
 70
    32
  0
VERTEX
  8
T03SSILL
 62
4
 10
1308.617
 20
-2422.635
 30
4932.570
 70
    32
  0
VERTEX
  8
T03SSILL
 62
4
 10
1306.217
 20
-2414.240
 30
4932.570
 70
    32
  0
VERTEX
  8
T03SSILL
 62
4
 10
1244.372
 20
-2356.622
 30
4932.570
 70
    32
  0
SEQEND
  8
T03SSILL
  0
POLYLINE
  8
T03SSILL
 62
4
 66
     1
 70
     9
  0
VERTEX
  8
T03SSILL
 62
4
 10
1113.737
 20
-2812.777
 30
4932.570
 70
    32
  0
VERTEX
  8
T03SSILL
 62
4
 10
1218.329
 20
-2566.340
 30
4932.570
 70
    32
  0
VERTEX
  8
T03SSILL
 62
4
 10
1224.972
 20
-2549.367
 30
4932.570
 70
    32
  0
VERTEX
  8
T03SSILL
 62
4
 10
1239.036
 20
-2503.604
 30
4932.570
 70
    32
  0
VERTEX
  8
T03SSILL
 62
4
 10
1242.271
 20
-2491.466
 30
4932.570
 70
    32
  0
VERTEX
  8
T03SSILL
 62
4
 10
1242.283
 20
-2484.510
 30
4932.570
 70
    32
  0
VERTEX
  8
T03SSILL
 62
4
 10
1232.129
 20
-2487.039
 30
4932.570
 70
    32
  0
VERTEX
  8
T03SSILL
 62
4
 10
1228.424
 20
-2475.505
 30
4932.570
 70
    32
  0
VERTEX
  8
T03SSILL
 62
4
 10
1222.400
 20
-2477.672
 30
4932.570
 70
    32
  0
VERTEX
  8
T03SSILL
 62
4
 10
1220.767
 20
-2471.899
 30
4932.570
 70
    32
  0
VERTEX
  8
T03SSILL
 62
4
 10
1204.315
 20
-2477.035
 30
4932.570
 70
    32
  0
VERTEX
  8
T03SSILL
 62
4
 10
1202.189
 20
-2471.581
 30
4932.570
 70
    32
  0
VERTEX
  8
T03SSILL
 62
4
 10
1195.765
 20
-2473.092
 30
4932.570
 70
    32
  0
VERTEX
  8
T03SSILL
 62
4
 10
1193.903
 20
-2467.549
 30
4932.570
 70
    32
  0
VERTEX
  8
T03SSILL
 62
4
 10
1182.640
 20
-2470.745
 30
4932.570
 70
    32
  0
VERTEX
  8
T03SSILL
 62
4
 10
1178.828
 20
-2459.747
 30
4932.570
 70
    32
  0
VERTEX
  8
T03SSILL
 62
4
 10
1172.845
 20
-2461.610
 30
4932.570
 70
    32
  0
VERTEX
  8
T03SSILL
 62
4
 10
1167.875
 20
-2444.451
 30
4932.570
 70
    32
  0
VERTEX
  8
T03SSILL
 62
4
 10
1155.732
 20
-2447.913
 30
4932.570
 70
    32
  0
VERTEX
  8
T03SSILL
 62
4
 10
1146.422
 20
-2419.846
 30
4932.570
 70
    32
  0
VERTEX
  8
T03SSILL
 62
4
 10
1134.719
 20
-2423.307
 30
4932.570
 70
    32
  0
VERTEX
  8
T03SSILL
 62
4
 10
1133.123
 20
-2418.292
 30
4932.570
 70
    32
  0
VERTEX
  8
T03SSILL
 62
4
 10
1109.805
 20
-2425.213
 30
4932.570
 70
    32
  0
VERTEX
  8
T03SSILL
 62
4
 10
1097.386
 20
-2385.178
 30
4932.570
 70
    32
  0
VERTEX
  8
T03SSILL
 62
4
 10
1091.314
 20
-2386.689
 30
4932.570
 70
    32
  0
VERTEX
  8
T03SSILL
 62
4
 10
1082.266
 20
-2357.388
 30
4932.570
 70
    32
  0
VERTEX
  8
T03SSILL
 62
4
 10
1075.930
 20
-2358.900
 30
4932.570
 70
    32
  0
VERTEX
  8
T03SSILL
 62
4
 10
1070.698
 20
-2342.798
 30
4932.570
 70
    32
  0
VERTEX
  8
T03SSILL
 62
4
 10
1064.362
 20
-2344.486
 30
4932.570
 70
    32
  0
VERTEX
  8
T03SSILL
 62
4
 10
1053.455
 20
-2310.963
 30
4932.570
 70
    32
  0
VERTEX
  8
T03SSILL
 62
4
 10
1071.756
 20
-2305.022
 30
4932.570
 70
    32
  0
VERTEX
  8
T03SSILL
 62
4
 10
1070.069
 20
-2299.038
 30
4932.570
 70
    32
  0
VERTEX
  8
T03SSILL
 62
4
 10
1080.804
 20
-2295.756
 30
4932.570
 70
    32
  0
VERTEX
  8
T03SSILL
 62
4
 10
1082.666
 20
-2301.563
 30
4932.570
 70
    32
  0
VERTEX
  8
T03SSILL
 62
4
 10
1088.121
 20
-2299.789
 30
4932.570
 70
    32
  0
VERTEX
  8
T03SSILL
 62
4
 10
1093.708
 20
-2316.947
 30
4932.570
 70
    32
  0
VERTEX
  8
T03SSILL
 62
4
 10
1116.233
 20
-2309.851
 30
4932.570
 70
    32
  0
VERTEX
  8
T03SSILL
 62
4
 10
1117.830
 20
-2315.395
 30
4932.570
 70
    32
  0
VERTEX
  8
T03SSILL
 62
4
 10
1123.991
 20
-2313.884
 30
4932.570
 70
    32
  0
VERTEX
  8
T03SSILL
 62
4
 10
1128.736
 20
-2309.646
 30
4932.570
 70
    32
  0
VERTEX
  8
T03SSILL
 62
4
 10
1149.522
 20
-2273.762
 30
4932.570
 70
    32
  0
VERTEX
  8
T03SSILL
 62
4
 10
1147.837
 20
-2268.747
 30
4932.570
 70
    32
  0
VERTEX
  8
T03SSILL
 62
4
 10
964.397
 20
-2102.133
 30
4932.570
 70
    32
  0
VERTEX
  8
T03SSILL
 62
4
 10
959.988
 20
-2099.502
 30
4932.570
 70
    32
  0
VERTEX
  8
T03SSILL
 62
4
 10
956.819
 20
-2099.861
 30
4932.570
 70
    32
  0
VERTEX
  8
T03SSILL
 62
4
 10
955.155
 20
-2103.475
 30
4932.570
 70
    32
  0
VERTEX
  8
T03SSILL
 62
4
 10
956.755
 20
-2110.163
 30
4932.570
 70
    32
  0
VERTEX
  8
T03SSILL
 62
4
 10
964.712
 20
-2124.585
 30
4932.570
 70
    32
  0
VERTEX
  8
T03SSILL
 62
4
 10
965.427
 20
-2128.810
 30
4932.570
 70
    32
  0
VERTEX
  8
T03SSILL
 62
4
 10
953.930
 20
-2145.654
 30
4932.570
 70
    32
  0
VERTEX
  8
T03SSILL
 62
4
 10
953.773
 20
-2153.844
 30
4932.570
 70
    32
  0
VERTEX
  8
T03SSILL
 62
4
 10
959.432
 20
-2164.133
 30
4932.570
 70
    32
  0
VERTEX
  8
T03SSILL
 62
4
 10
954.598
 20
-2168.018
 30
4932.570
 70
    32
  0
VERTEX
  8
T03SSILL
 62
4
 10
946.116
 20
-2155.534
 30
4932.570
 70
    32
  0
VERTEX
  8
T03SSILL
 62
4
 10
939.059
 20
-2149.915
 30
4932.570
 70
    32
  0
VERTEX
  8
T03SSILL
 62
4
 10
913.252
 20
-2146.100
 30
4932.570
 70
    32
  0
VERTEX
  8
T03SSILL
 62
4
 10
897.128
 20
-2141.822
 30
4932.570
 70
    32
  0
VERTEX
  8
T03SSILL
 62
4
 10
478.492
 20
-2431.941
 30
4932.570
 70
    32
  0
VERTEX
  8
T03SSILL
 62
4
 10
476.034
 20
-2435.205
 30
4932.570
 70
    32
  0
VERTEX
  8
T03SSILL
 62
4
 10
475.952
 20
-2438.111
 30
4932.570
 70
    32
  0
VERTEX
  8
T03SSILL
 62
4
 10
489.789
 20
-2482.193
 30
4932.570
 70
    32
  0
VERTEX
  8
T03SSILL
 62
4
 10
485.973
 20
-2507.472
 30
4932.570
 70
    32
  0
VERTEX
  8
T03SSILL
 62
4
 10
492.354
 20
-2525.684
 30
4932.570
 70
    32
  0
VERTEX
  8
T03SSILL
 62
4
 10
505.882
 20
-2550.044
 30
4932.570
 70
    32
  0
VERTEX
  8
T03SSILL
 62
4
 10
513.900
 20
-2552.491
 30
4932.570
 70
    32
  0
VERTEX
  8
T03SSILL
 62
4
 10
518.505
 20
-2563.927
 30
4932.570
 70
    32
  0
VERTEX
  8
T03SSILL
 62
4
 10
529.811
 20
-2579.574
 30
4932.570
 70
    32
  0
VERTEX
  8
T03SSILL
 62
4
 10
537.575
 20
-2586.072
 30
4932.570
 70
    32
  0
VERTEX
  8
T03SSILL
 62
4
 10
545.080
 20
-2595.212
 30
4932.570
 70
    32
  0
VERTEX
  8
T03SSILL
 62
4
 10
544.921
 20
-2602.433
 30
4932.570
 70
    32
  0
VERTEX
  8
T03SSILL
 62
4
 10
547.395
 20
-2606.478
 30
4932.570
 70
    32
  0
VERTEX
  8
T03SSILL
 62
4
 10
581.497
 20
-2694.715
 30
4932.570
 70
    32
  0
VERTEX
  8
T03SSILL
 62
4
 10
597.818
 20
-2708.326
 30
4932.570
 70
    32
  0
VERTEX
  8
T03SSILL
 62
4
 10
607.386
 20
-2726.172
 30
4932.570
 70
    32
  0
VERTEX
  8
T03SSILL
 62
4
 10
611.283
 20
-2730.905
 30
4932.570
 70
    32
  0
VERTEX
  8
T03SSILL
 62
4
 10
610.711
 20
-2739.709
 30
4932.570
 70
    32
  0
VERTEX
  8
T03SSILL
 62
4
 10
623.120
 20
-2773.883
 30
4932.570
 70
    32
  0
VERTEX
  8
T03SSILL
 62
4
 10
658.500
 20
-2790.953
 30
4932.570
 70
    32
  0
VERTEX
  8
T03SSILL
 62
4
 10
690.259
 20
-2788.238
 30
4932.570
 70
    32
  0
VERTEX
  8
T03SSILL
 62
4
 10
694.424
 20
-2776.688
 30
4932.570
 70
    32
  0
VERTEX
  8
T03SSILL
 62
4
 10
698.261
 20
-2769.715
 30
4932.570
 70
    32
  0
VERTEX
  8
T03SSILL
 62
4
 10
699.639
 20
-2746.473
 30
4932.570
 70
    32
  0
VERTEX
  8
T03SSILL
 62
4
 10
709.878
 20
-2735.067
 30
4932.570
 70
    32
  0
VERTEX
  8
T03SSILL
 62
4
 10
713.581
 20
-2736.280
 30
4932.570
 70
    32
  0
VERTEX
  8
T03SSILL
 62
4
 10
731.540
 20
-2754.407
 30
4932.570
 70
    32
  0
VERTEX
  8
T03SSILL
 62
4
 10
737.677
 20
-2766.961
 30
4932.570
 70
    32
  0
VERTEX
  8
T03SSILL
 62
4
 10
742.107
 20
-2772.748
 30
4932.570
 70
    32
  0
VERTEX
  8
T03SSILL
 62
4
 10
748.252
 20
-2786.886
 30
4932.570
 70
    32
  0
VERTEX
  8
T03SSILL
 62
4
 10
752.230
 20
-2790.210
 30
4932.570
 70
    32
  0
VERTEX
  8
T03SSILL
 62
4
 10
765.438
 20
-2791.463
 30
4932.570
 70
    32
  0
VERTEX
  8
T03SSILL
 62
4
 10
774.250
 20
-2793.619
 30
4932.570
 70
    32
  0
VERTEX
  8
T03SSILL
 62
4
 10
783.464
 20
-2805.541
 30
4932.570
 70
    32
  0
VERTEX
  8
T03SSILL
 62
4
 10
788.504
 20
-2810.092
 30
4932.570
 70
    32
  0
VERTEX
  8
T03SSILL
 62
4
 10
794.463
 20
-2822.295
 30
4932.570
 70
    32
  0
VERTEX
  8
T03SSILL
 62
4
 10
796.260
 20
-2829.327
 30
4932.570
 70
    32
  0
VERTEX
  8
T03SSILL
 62
4
 10
795.610
 20
-2840.068
 30
4932.570
 70
    32
  0
VERTEX
  8
T03SSILL
 62
4
 10
797.135
 20
-2845.693
 30
4932.570
 70
    32
  0
VERTEX
  8
T03SSILL
 62
4
 10
816.954
 20
-2848.849
 30
4932.570
 70
    32
  0
VERTEX
  8
T03SSILL
 62
4
 10
821.118
 20
-2854.196
 30
4932.570
 70
    32
  0
VERTEX
  8
T03SSILL
 62
4
 10
826.414
 20
-2857.249
 30
4932.570
 70
    32
  0
VERTEX
  8
T03SSILL
 62
4
 10
1005.555
 20
-2881.243
 30
4932.570
 70
    32
  0
VERTEX
  8
T03SSILL
 62
4
 10
1067.673
 20
-2894.831
 30
4932.570
 70
    32
  0
VERTEX
  8
T03SSILL
 62
4
 10
1073.650
 20
-2893.217
 30
4932.570
 70
    32
  0
VERTEX
  8
T03SSILL
 62
4
 10
1078.197
 20
-2887.561
 30
4932.570
 70
    32
  0
VERTEX
  8
T03SSILL
 62
4
 10
1086.625
 20
-2866.131
 30
4932.570
 70
    32
  0
SEQEND
  8
T03SSILL
  0
POLYLINE
  8
T03SSILL
 62
4
 66
     1
 70
     9
  0
VERTEX
  8
T03SSILL
 62
4
 10
1876.458
 20
-2786.592
 30
4932.570
 70
    32
  0
VERTEX
  8
T03SSILL
 62
4
 10
1912.987
 20
-2850.999
 30
4932.570
 70
    32
  0
VERTEX
  8
T03SSILL
 62
4
 10
1928.516
 20
-2875.827
 30
4932.570
 70
    32
  0
VERTEX
  8
T03SSILL
 62
4
 10
1968.100
 20
-2905.989
 30
4932.570
 70
    32
  0
VERTEX
  8
T03SSILL
 62
4
 10
1903.649
 20
-2901.038
 30
4932.570
 70
    32
  0
VERTEX
  8
T03SSILL
 62
4
 10
1566.319
 20
-3043.316
 30
4932.570
 70
    32
  0
VERTEX
  8
T03SSILL
 62
4
 10
1561.093
 20
-3036.829
 30
4932.570
 70
    32
  0
VERTEX
  8
T03SSILL
 62
4
 10
1545.815
 20
-3043.948
 30
4932.570
 70
    32
  0
VERTEX
  8
T03SSILL
 62
4
 10
1542.119
 20
-3044.143
 30
4932.570
 70
    32
  0
VERTEX
  8
T03SSILL
 62
4
 10
1536.333
 20
-3031.235
 30
4932.570
 70
    32
  0
VERTEX
  8
T03SSILL
 62
4
 10
1537.899
 20
-3027.795
 30
4932.570
 70
    32
  0
VERTEX
  8
T03SSILL
 62
4
 10
1570.090
 20
-3023.582
 30
4932.570
 70
    32
  0
VERTEX
  8
T03SSILL
 62
4
 10
1568.284
 20
-3014.526
 30
4932.570
 70
    32
  0
VERTEX
  8
T03SSILL
 62
4
 10
1573.601
 20
-3004.377
 30
4932.570
 70
    32
  0
VERTEX
  8
T03SSILL
 62
4
 10
1579.757
 20
-3003.377
 30
4932.570
 70
    32
  0
VERTEX
  8
T03SSILL
 62
4
 10
1588.678
 20
-3009.581
 30
4932.570
 70
    32
  0
VERTEX
  8
T03SSILL
 62
4
 10
1595.079
 20
-3004.971
 30
4932.570
 70
    32
  0
VERTEX
  8
T03SSILL
 62
4
 10
1601.198
 20
-2996.843
 30
4932.570
 70
    32
  0
VERTEX
  8
T03SSILL
 62
4
 10
1563.036
 20
-2969.314
 30
4932.570
 70
    32
  0
VERTEX
  8
T03SSILL
 62
4
 10
1549.442
 20
-2978.625
 30
4932.570
 70
    32
  0
VERTEX
  8
T03SSILL
 62
4
 10
1558.570
 20
-2990.988
 30
4932.570
 70
    32
  0
VERTEX
  8
T03SSILL
 62
4
 10
1568.017
 20
-2996.748
 30
4932.570
 70
    32
  0
VERTEX
  8
T03SSILL
 62
4
 10
1558.359
 20
-3018.537
 30
4932.570
 70
    32
  0
VERTEX
  8
T03SSILL
 62
4
 10
1492.822
 20
-3024.856
 30
4932.570
 70
    32
  0
VERTEX
  8
T03SSILL
 62
4
 10
1471.402
 20
-3035.703
 30
4932.570
 70
    32
  0
VERTEX
  8
T03SSILL
 62
4
 10
1481.008
 20
-2796.700
 30
4932.570
 70
    32
  0
VERTEX
  8
T03SSILL
 62
4
 10
1486.080
 20
-2790.337
 30
4932.570
 70
    32
  0
VERTEX
  8
T03SSILL
 62
4
 10
1509.590
 20
-2775.167
 30
4932.570
 70
    32
  0
VERTEX
  8
T03SSILL
 62
4
 10
1527.446
 20
-2758.621
 30
4932.570
 70
    32
  0
VERTEX
  8
T03SSILL
 62
4
 10
1819.739
 20
-2699.974
 30
4932.570
 70
    32
  0
SEQEND
  8
T03SSILL
  0
POLYLINE
  8
T03SSILL
 62
4
 66
     1
 70
     9
  0
VERTEX
  8
T03SSILL
 62
4
 10
1468.047
 20
-2738.917
 30
4932.570
 70
    32
  0
VERTEX
  8
T03SSILL
 62
4
 10
1372.051
 20
-2633.412
 30
4932.570
 70
    32
  0
VERTEX
  8
T03SSILL
 62
4
 10
1363.728
 20
-2627.709
 30
4932.570
 70
    32
  0
VERTEX
  8
T03SSILL
 62
4
 10
1327.597
 20
-2585.244
 30
4932.570
 70
    32
  0
VERTEX
  8
T03SSILL
 62
4
 10
1317.797
 20
-2572.885
 30
4932.570
 70
    32
  0
VERTEX
  8
T03SSILL
 62
4
 10
1302.550
 20
-2527.462
 30
4932.570
 70
    32
  0
VERTEX
  8
T03SSILL
 62
4
 10
1297.033
 20
-2528.737
 30
4932.570
 70
    32
  0
VERTEX
  8
T03SSILL
 62
4
 10
1295.329
 20
-2523.671
 30
4932.570
 70
    32
  0
VERTEX
  8
T03SSILL
 62
4
 10
1289.649
 20
-2525.478
 30
4932.570
 70
    32
  0
VERTEX
  8
T03SSILL
 62
4
 10
1287.586
 20
-2520.156
 30
4932.570
 70
    32
  0
VERTEX
  8
T03SSILL
 62
4
 10
1281.550
 20
-2521.795
 30
4932.570
 70
    32
  0
VERTEX
  8
T03SSILL
 62
4
 10
1266.299
 20
-2476.196
 30
4932.570
 70
    32
  0
VERTEX
  8
T03SSILL
 62
4
 10
1258.793
 20
-2479.014
 30
4932.570
 70
    32
  0
VERTEX
  8
T03SSILL
 62
4
 10
1250.077
 20
-2493.923
 30
4932.570
 70
    32
  0
VERTEX
  8
T03SSILL
 62
4
 10
1245.010
 20
-2506.809
 30
4932.570
 70
    32
  0
VERTEX
  8
T03SSILL
 62
4
 10
1231.594
 20
-2550.179
 30
4932.570
 70
    32
  0
VERTEX
  8
T03SSILL
 62
4
 10
1120.531
 20
-2813.409
 30
4932.570
 70
    32
  0
VERTEX
  8
T03SSILL
 62
4
 10
1093.931
 20
-2866.269
 30
4932.570
 70
    32
  0
VERTEX
  8
T03SSILL
 62
4
 10
1082.271
 20
-2892.469
 30
4932.570
 70
    32
  0
VERTEX
  8
T03SSILL
 62
4
 10
1081.855
 20
-2897.135
 30
4932.570
 70
    32
  0
VERTEX
  8
T03SSILL
 62
4
 10
1083.456
 20
-2900.472
 30
4932.570
 70
    32
  0
VERTEX
  8
T03SSILL
 62
4
 10
1456.062
 20
-3116.841
 30
4932.570
 70
    32
  0
VERTEX
  8
T03SSILL
 62
4
 10
1477.812
 20
-2756.934
 30
4932.570
 70
    32
  0
VERTEX
  8
T03SSILL
 62
4
 10
1472.739
 20
-2745.783
 30
4932.570
 70
    32
  0
SEQEND
  8
T03SSILL
  0
POLYLINE
  8
T03SSILL
 62
4
 66
     1
 70
     9
  0
VERTEX
  8
T03SSILL
 62
4
 10
1431.822
 20
-3609.748
 30
4932.570
 70
    32
  0
VERTEX
  8
T03SSILL
 62
4
 10
1423.511
 20
-3736.845
 30
4932.570
 70
    32
  0
VERTEX
  8
T03SSILL
 62
4
 10
1388.253
 20
-3723.572
 30
4932.570
 70
    32
  0
VERTEX
  8
T03SSILL
 62
4
 10
1379.363
 20
-3712.889
 30
4932.570
 70
    32
  0
VERTEX
  8
T03SSILL
 62
4
 10
1358.232
 20
-3635.484
 30
4932.570
 70
    32
  0
VERTEX
  8
T03SSILL
 62
4
 10
1352.391
 20
-3637.567
 30
4932.570
 70
    32
  0
VERTEX
  8
T03SSILL
 62
4
 10
1372.567
 20
-3712.005
 30
4932.570
 70
    32
  0
VERTEX
  8
T03SSILL
 62
4
 10
1368.951
 20
-3715.087
 30
4932.570
 70
    32
  0
VERTEX
  8
T03SSILL
 62
4
 10
1201.724
 20
-3641.811
 30
4932.570
 70
    32
  0
VERTEX
  8
T03SSILL
 62
4
 10
1196.067
 20
-3633.773
 30
4932.570
 70
    32
  0
VERTEX
  8
T03SSILL
 62
4
 10
1190.689
 20
-3615.875
 30
4932.570
 70
    32
  0
VERTEX
  8
T03SSILL
 62
4
 10
1184.424
 20
-3618.585
 30
4932.570
 70
    32
  0
VERTEX
  8
T03SSILL
 62
4
 10
1188.901
 20
-3635.625
 30
4932.570
 70
    32
  0
VERTEX
  8
T03SSILL
 62
4
 10
1049.417
 20
-3588.038
 30
4932.570
 70
    32
  0
VERTEX
  8
T03SSILL
 62
4
 10
991.697
 20
-3556.156
 30
4932.570
 70
    32
  0
VERTEX
  8
T03SSILL
 62
4
 10
801.228
 20
-3458.705
 30
4932.570
 70
    32
  0
VERTEX
  8
T03SSILL
 62
4
 10
370.059
 20
-3231.311
 30
4932.570
 70
    32
  0
VERTEX
  8
T03SSILL
 62
4
 10
354.055
 20
-3225.997
 30
4932.570
 70
    32
  0
VERTEX
  8
T03SSILL
 62
4
 10
28.074
 20
-2727.660
 30
4932.570
 70
    32
  0
VERTEX
  8
T03SSILL
 62
4
 10
447.458
 20
-2453.233
 30
4932.570
 70
    32
  0
VERTEX
  8
T03SSILL
 62
4
 10
448.808
 20
-2465.821
 30
4932.570
 70
    32
  0
VERTEX
  8
T03SSILL
 62
4
 10
450.671
 20
-2472.157
 30
4932.570
 70
    32
  0
VERTEX
  8
T03SSILL
 62
4
 10
446.910
 20
-2482.907
 30
4932.570
 70
    32
  0
VERTEX
  8
T03SSILL
 62
4
 10
446.930
 20
-2491.536
 30
4932.570
 70
    32
  0
VERTEX
  8
T03SSILL
 62
4
 10
472.461
 20
-2489.805
 30
4932.570
 70
    32
  0
VERTEX
  8
T03SSILL
 62
4
 10
480.499
 20
-2501.233
 30
4932.570
 70
    32
  0
VERTEX
  8
T03SSILL
 62
4
 10
478.057
 20
-2511.277
 30
4932.570
 70
    32
  0
VERTEX
  8
T03SSILL
 62
4
 10
460.994
 20
-2519.593
 30
4932.570
 70
    32
  0
VERTEX
  8
T03SSILL
 62
4
 10
459.777
 20
-2526.552
 30
4932.570
 70
    32
  0
VERTEX
  8
T03SSILL
 62
4
 10
460.432
 20
-2543.456
 30
4932.570
 70
    32
  0
VERTEX
  8
T03SSILL
 62
4
 10
459.225
 20
-2554.553
 30
4932.570
 70
    32
  0
VERTEX
  8
T03SSILL
 62
4
 10
460.398
 20
-2567.054
 30
4932.570
 70
    32
  0
VERTEX
  8
T03SSILL
 62
4
 10
479.229
 20
-2600.294
 30
4932.570
 70
    32
  0
VERTEX
  8
T03SSILL
 62
4
 10
489.147
 20
-2624.574
 30
4932.570
 70
    32
  0
VERTEX
  8
T03SSILL
 62
4
 10
496.684
 20
-2647.714
 30
4932.570
 70
    32
  0
VERTEX
  8
T03SSILL
 62
4
 10
503.575
 20
-2657.648
 30
4932.570
 70
    32
  0
VERTEX
  8
T03SSILL
 62
4
 10
540.857
 20
-2635.109
 30
4932.570
 70
    32
  0
VERTEX
  8
T03SSILL
 62
4
 10
548.162
 20
-2633.508
 30
4932.570
 70
    32
  0
VERTEX
  8
T03SSILL
 62
4
 10
550.717
 20
-2634.470
 30
4932.570
 70
    32
  0
VERTEX
  8
T03SSILL
 62
4
 10
557.813
 20
-2656.819
 30
4932.570
 70
    32
  0
VERTEX
  8
T03SSILL
 62
4
 10
573.124
 20
-2691.124
 30
4932.570
 70
    32
  0
VERTEX
  8
T03SSILL
 62
4
 10
561.080
 20
-2706.694
 30
4932.570
 70
    32
  0
VERTEX
  8
T03SSILL
 62
4
 10
560.196
 20
-2723.157
 30
4932.570
 70
    32
  0
VERTEX
  8
T03SSILL
 62
4
 10
560.878
 20
-2736.179
 30
4932.570
 70
    32
  0
VERTEX
  8
T03SSILL
 62
4
 10
562.836
 20
-2740.482
 30
4932.570
 70
    32
  0
VERTEX
  8
T03SSILL
 62
4
 10
578.283
 20
-2766.367
 30
4932.570
 70
    32
  0
VERTEX
  8
T03SSILL
 62
4
 10
615.903
 20
-2791.170
 30
4932.570
 70
    32
  0
VERTEX
  8
T03SSILL
 62
4
 10
633.711
 20
-2831.477
 30
4932.570
 70
    32
  0
VERTEX
  8
T03SSILL
 62
4
 10
646.025
 20
-2847.257
 30
4932.570
 70
    32
  0
VERTEX
  8
T03SSILL
 62
4
 10
653.723
 20
-2855.139
 30
4932.570
 70
    32
  0
VERTEX
  8
T03SSILL
 62
4
 10
663.656
 20
-2870.050
 30
4932.570
 70
    32
  0
VERTEX
  8
T03SSILL
 62
4
 10
680.434
 20
-2898.128
 30
4932.570
 70
    32
  0
VERTEX
  8
T03SSILL
 62
4
 10
679.929
 20
-2902.708
 30
4932.570
 70
    32
  0
VERTEX
  8
T03SSILL
 62
4
 10
710.173
 20
-2948.056
 30
4932.570
 70
    32
  0
VERTEX
  8
T03SSILL
 62
4
 10
719.703
 20
-2970.186
 30
4932.570
 70
    32
  0
VERTEX
  8
T03SSILL
 62
4
 10
723.511
 20
-2991.906
 30
4932.570
 70
    32
  0
VERTEX
  8
T03SSILL
 62
4
 10
723.933
 20
-3005.546
 30
4932.570
 70
    32
  0
VERTEX
  8
T03SSILL
 62
4
 10
753.882
 20
-3010.410
 30
4932.570
 70
    32
  0
VERTEX
  8
T03SSILL
 62
4
 10
757.770
 20
-3013.470
 30
4932.570
 70
    32
  0
VERTEX
  8
T03SSILL
 62
4
 10
765.259
 20
-3015.104
 30
4932.570
 70
    32
  0
VERTEX
  8
T03SSILL
 62
4
 10
769.189
 20
-3026.350
 30
4932.570
 70
    32
  0
VERTEX
  8
T03SSILL
 62
4
 10
777.151
 20
-3034.230
 30
4932.570
 70
    32
  0
VERTEX
  8
T03SSILL
 62
4
 10
793.578
 20
-3028.162
 30
4932.570
 70
    32
  0
VERTEX
  8
T03SSILL
 62
4
 10
826.039
 20
-3025.092
 30
4932.570
 70
    32
  0
VERTEX
  8
T03SSILL
 62
4
 10
822.759
 20
-3037.694
 30
4932.570
 70
    32
  0
VERTEX
  8
T03SSILL
 62
4
 10
816.751
 20
-3050.487
 30
4932.570
 70
    32
  0
VERTEX
  8
T03SSILL
 62
4
 10
811.838
 20
-3053.416
 30
4932.570
 70
    32
  0
VERTEX
  8
T03SSILL
 62
4
 10
805.764
 20
-3053.271
 30
4932.570
 70
    32
  0
VERTEX
  8
T03SSILL
 62
4
 10
797.037
 20
-3050.587
 30
4932.570
 70
    32
  0
VERTEX
  8
T03SSILL
 62
4
 10
759.603
 20
-3044.969
 30
4932.570
 70
    32
  0
VERTEX
  8
T03SSILL
 62
4
 10
758.582
 20
-3051.840
 30
4932.570
 70
    32
  0
VERTEX
  8
T03SSILL
 62
4
 10
796.015
 20
-3057.281
 30
4932.570
 70
    32
  0
VERTEX
  8
T03SSILL
 62
4
 10
797.432
 20
-3058.946
 30
4932.570
 70
    32
  0
VERTEX
  8
T03SSILL
 62
4
 10
797.893
 20
-3063.081
 30
4932.570
 70
    32
  0
VERTEX
  8
T03SSILL
 62
4
 10
802.233
 20
-3068.515
 30
4932.570
 70
    32
  0
VERTEX
  8
T03SSILL
 62
4
 10
805.766
 20
-3070.874
 30
4932.570
 70
    32
  0
VERTEX
  8
T03SSILL
 62
4
 10
816.625
 20
-3060.257
 30
4932.570
 70
    32
  0
VERTEX
  8
T03SSILL
 62
4
 10
862.160
 20
-3066.625
 30
4932.570
 70
    32
  0
VERTEX
  8
T03SSILL
 62
4
 10
868.525
 20
-3072.137
 30
4932.570
 70
    32
  0
VERTEX
  8
T03SSILL
 62
4
 10
870.845
 20
-3078.286
 30
4932.570
 70
    32
  0
VERTEX
  8
T03SSILL
 62
4
 10
869.497
 20
-3090.087
 30
4932.570
 70
    32
  0
VERTEX
  8
T03SSILL
 62
4
 10
877.079
 20
-3092.601
 30
4932.570
 70
    32
  0
VERTEX
  8
T03SSILL
 62
4
 10
886.477
 20
-3088.856
 30
4932.570
 70
    32
  0
VERTEX
  8
T03SSILL
 62
4
 10
892.672
 20
-3078.175
 30
4932.570
 70
    32
  0
VERTEX
  8
T03SSILL
 62
4
 10
889.723
 20
-3069.477
 30
4932.570
 70
    32
  0
VERTEX
  8
T03SSILL
 62
4
 10
890.665
 20
-3064.455
 30
4932.570
 70
    32
  0
VERTEX
  8
T03SSILL
 62
4
 10
893.115
 20
-3061.538
 30
4932.570
 70
    32
  0
VERTEX
  8
T03SSILL
 62
4
 10
890.804
 20
-3057.150
 30
4932.570
 70
    32
  0
VERTEX
  8
T03SSILL
 62
4
 10
886.569
 20
-3055.059
 30
4932.570
 70
    32
  0
VERTEX
  8
T03SSILL
 62
4
 10
873.957
 20
-3032.680
 30
4932.570
 70
    32
  0
VERTEX
  8
T03SSILL
 62
4
 10
872.704
 20
-3011.475
 30
4932.570
 70
    32
  0
VERTEX
  8
T03SSILL
 62
4
 10
861.658
 20
-2985.392
 30
4932.570
 70
    32
  0
VERTEX
  8
T03SSILL
 62
4
 10
855.192
 20
-2977.416
 30
4932.570
 70
    32
  0
VERTEX
  8
T03SSILL
 62
4
 10
846.467
 20
-2957.834
 30
4932.570
 70
    32
  0
VERTEX
  8
T03SSILL
 62
4
 10
842.433
 20
-2943.596
 30
4932.570
 70
    32
  0
VERTEX
  8
T03SSILL
 62
4
 10
841.431
 20
-2902.411
 30
4932.570
 70
    32
  0
VERTEX
  8
T03SSILL
 62
4
 10
857.361
 20
-2867.829
 30
4932.570
 70
    32
  0
VERTEX
  8
T03SSILL
 62
4
 10
1013.427
 20
-2888.947
 30
4932.570
 70
    32
  0
VERTEX
  8
T03SSILL
 62
4
 10
1055.280
 20
-2898.151
 30
4932.570
 70
    32
  0
VERTEX
  8
T03SSILL
 62
4
 10
1076.443
 20
-2905.964
 30
4932.570
 70
    32
  0
VERTEX
  8
T03SSILL
 62
4
 10
1100.713
 20
-2918.954
 30
4932.570
 70
    32
  0
VERTEX
  8
T03SSILL
 62
4
 10
1451.780
 20
-3122.760
 30
4932.570
 70
    32
  0
VERTEX
  8
T03SSILL
 62
4
 10
1457.273
 20
-3129.861
 30
4932.570
 70
    32
  0
VERTEX
  8
T03SSILL
 62
4
 10
1454.917
 20
-3168.334
 30
4932.570
 70
    32
  0
SEQEND
  8
T03SSILL
  0
TEXT
  8
T03SSILL
 62
4
 10
1534.296
 20
-834.754
 30
4932.570
 40
8.202
  1
300
 50
102.902
 41
 1.0 
  0
POLYLINE
  8
T03SSILL
 62
4
 66
     1
 70
     8
  0
VERTEX
  8
T03SSILL
 62
4
 10
3043.412
 20
-3748.501
 30
4932.570
 70
    32
  0
VERTEX
  8
T03SSILL
 62
4
 10
3049.589
 20
-3751.835
 30
4932.570
 70
    32
  0
VERTEX
  8
T03SSILL
 62
4
 10
3063.987
 20
-3790.847
 30
4932.570
 70
    32
  0
VERTEX
  8
T03SSILL
 62
4
 10
3071.502
 20
-3823.640
 30
4932.570
 70
    32
  0
VERTEX
  8
T03SSILL
 62
4
 10
3072.571
 20
-3867.373
 30
4932.570
 70
    32
  0
VERTEX
  8
T03SSILL
 62
4
 10
3076.303
 20
-3897.376
 30
4932.570
 70
    32
  0
VERTEX
  8
T03SSILL
 62
4
 10
3075.760
 20
-3920.900
 30
4932.570
 70
    32
  0
SEQEND
  8
T03SSILL
  0
POLYLINE
  8
T03SSILL
 62
4
 66
     1
 70
     8
  0
VERTEX
  8
T03SSILL
 62
4
 10
3073.173
 20
-3719.504
 30
4932.570
 70
    32
  0
VERTEX
  8
T03SSILL
 62
4
 10
3080.436
 20
-3709.332
 30
4932.570
 70
    32
  0
VERTEX
  8
T03SSILL
 62
4
 10
3090.367
 20
-3711.583
 30
4932.570
 70
    32
  0
VERTEX
  8
T03SSILL
 62
4
 10
3114.108
 20
-3730.673
 30
4932.570
 70
    32
  0
VERTEX
  8
T03SSILL
 62
4
 10
3114.442
 20
-3735.858
 30
4932.570
 70
    32
  0
VERTEX
  8
T03SSILL
 62
4
 10
3108.419
 20
-3746.256
 30
4932.570
 70
    32
  0
VERTEX
  8
T03SSILL
 62
4
 10
3098.308
 20
-3804.595
 30
4932.570
 70
    32
  0
VERTEX
  8
T03SSILL
 62
4
 10
3101.789
 20
-3924.602
 30
4932.570
 70
    32
  0
VERTEX
  8
T03SSILL
 62
4
 10
3103.709
 20
-3947.175
 30
4932.570
 70
    32
  0
VERTEX
  8
T03SSILL
 62
4
 10
3086.296
 20
-3950.787
 30
4932.570
 70
    32
  0
VERTEX
  8
T03SSILL
 62
4
 10
3084.110
 20
-3925.294
 30
4932.570
 70
    32
  0
VERTEX
  8
T03SSILL
 62
4
 10
3080.682
 20
-3925.031
 30
4932.570
 70
    32
  0
SEQEND
  8
T03SSILL
  0
POLYLINE
  8
T03SSILL
 62
4
 66
     1
 70
     9
  0
VERTEX
  8
T03SSILL
 62
4
 10
3073.173
 20
-3719.504
 30
4932.570
 70
    32
  0
VERTEX
  8
T03SSILL
 62
4
 10
3051.949
 20
-3707.910
 30
4932.570
 70
    32
  0
VERTEX
  8
T03SSILL
 62
4
 10
3015.843
 20
-3684.706
 30
4932.570
 70
    32
  0
VERTEX
  8
T03SSILL
 62
4
 10
3005.482
 20
-3682.820
 30
4932.570
 70
    32
  0
VERTEX
  8
T03SSILL
 62
4
 10
2822.708
 20
-3541.833
 30
4932.570
 70
    32
  0
VERTEX
  8
T03SSILL
 62
4
 10
2563.512
 20
-3347.088
 30
4932.570
 70
    32
  0
VERTEX
  8
T03SSILL
 62
4
 10
2550.341
 20
-3309.682
 30
4932.570
 70
    32
  0
VERTEX
  8
T03SSILL
 62
4
 10
2529.349
 20
-3321.408
 30
4932.570
 70
    32
  0
VERTEX
  8
T03SSILL
 62
4
 10
2178.830
 20
-3056.811
 30
4932.570
 70
    32
  0
VERTEX
  8
T03SSILL
 62
4
 10
2024.769
 20
-2938.441
 30
4932.570
 70
    32
  0
VERTEX
  8
T03SSILL
 62
4
 10
2003.878
 20
-2897.621
 30
4932.570
 70
    32
  0
VERTEX
  8
T03SSILL
 62
4
 10
1981.831
 20
-2906.271
 30
4932.570
 70
    32
  0
VERTEX
  8
T03SSILL
 62
4
 10
1938.804
 20
-2874.014
 30
4932.570
 70
    32
  0
VERTEX
  8
T03SSILL
 62
4
 10
1934.552
 20
-2868.579
 30
4932.570
 70
    32
  0
VERTEX
  8
T03SSILL
 62
4
 10
1882.002
 20
-2782.763
 30
4932.570
 70
    32
  0
VERTEX
  8
T03SSILL
 62
4
 10
1852.499
 20
-2738.377
 30
4932.570
 70
    32
  0
VERTEX
  8
T03SSILL
 62
4
 10
1844.814
 20
-2720.296
 30
4932.570
 70
    32
  0
VERTEX
  8
T03SSILL
 62
4
 10
1845.641
 20
-2709.818
 30
4932.570
 70
    32
  0
VERTEX
  8
T03SSILL
 62
4
 10
1851.234
 20
-2702.044
 30
4932.570
 70
    32
  0
VERTEX
  8
T03SSILL
 62
4
 10
1855.970
 20
-2698.764
 30
4932.570
 70
    32
  0
VERTEX
  8
T03SSILL
 62
4
 10
1867.070
 20
-2700.819
 30
4932.570
 70
    32
  0
VERTEX
  8
T03SSILL
 62
4
 10
1886.552
 20
-2707.057
 30
4932.570
 70
    32
  0
VERTEX
  8
T03SSILL
 62
4
 10
1893.139
 20
-2704.207
 30
4932.570
 70
    32
  0
VERTEX
  8
T03SSILL
 62
4
 10
1907.689
 20
-2694.170
 30
4932.570
 70
    32
  0
VERTEX
  8
T03SSILL
 62
4
 10
1910.382
 20
-2694.490
 30
4932.570
 70
    32
  0
VERTEX
  8
T03SSILL
 62
4
 10
1898.124
 20
-2674.969
 30
4932.570
 70
    32
  0
VERTEX
  8
T03SSILL
 62
4
 10
1887.404
 20
-2679.625
 30
4932.570
 70
    32
  0
VERTEX
  8
T03SSILL
 62
4
 10
1828.947
 20
-2690.953
 30
4932.570
 70
    32
  0
VERTEX
  8
T03SSILL
 62
4
 10
1822.657
 20
-2689.340
 30
4932.570
 70
    32
  0
VERTEX
  8
T03SSILL
 62
4
 10
1817.462
 20
-2685.589
 30
4932.570
 70
    32
  0
VERTEX
  8
T03SSILL
 62
4
 10
1376.784
 20
-1994.455
 30
4932.570
 70
    32
  0
VERTEX
  8
T03SSILL
 62
4
 10
1299.517
 20
-1876.773
 30
4932.570
 70
    32
  0
VERTEX
  8
T03SSILL
 62
4
 10
1300.656
 20
-1871.421
 30
4932.570
 70
    32
  0
VERTEX
  8
T03SSILL
 62
4
 10
1303.717
 20
-1867.068
 30
4932.570
 70
    32
  0
VERTEX
  8
T03SSILL
 62
4
 10
1344.534
 20
-1840.417
 30
4932.570
 70
    32
  0
VERTEX
  8
T03SSILL
 62
4
 10
1351.011
 20
-1837.086
 30
4932.570
 70
    32
  0
VERTEX
  8
T03SSILL
 62
4
 10
1415.968
 20
-1814.596
 30
4932.570
 70
    32
  0
VERTEX
  8
T03SSILL
 62
4
 10
1518.885
 20
-1830.195
 30
4932.570
 70
    32
  0
VERTEX
  8
T03SSILL
 62
4
 10
1517.757
 20
-1823.488
 30
4932.570
 70
    32
  0
VERTEX
  8
T03SSILL
 62
4
 10
1414.841
 20
-1807.889
 30
4932.570
 70
    32
  0
VERTEX
  8
T03SSILL
 62
4
 10
1343.244
 20
-1832.828
 30
4932.570
 70
    32
  0
VERTEX
  8
T03SSILL
 62
4
 10
1296.458
 20
-1864.050
 30
4932.570
 70
    32
  0
VERTEX
  8
T03SSILL
 62
4
 10
1291.042
 20
-1861.413
 30
4932.570
 70
    32
  0
VERTEX
  8
T03SSILL
 62
4
 10
1285.512
 20
-1854.813
 30
4932.570
 70
    32
  0
VERTEX
  8
T03SSILL
 62
4
 10
1082.012
 20
-1532.569
 30
4932.570
 70
    32
  0
VERTEX
  8
T03SSILL
 62
4
 10
1072.871
 20
-1514.734
 30
4932.570
 70
    32
  0
VERTEX
  8
T03SSILL
 62
4
 10
967.214
 20
-1284.705
 30
4932.570
 70
    32
  0
VERTEX
  8
T03SSILL
 62
4
 10
969.291
 20
-1277.029
 30
4932.570
 70
    32
  0
VERTEX
  8
T03SSILL
 62
4
 10
1087.919
 20
-1191.230
 30
4932.570
 70
    32
  0
VERTEX
  8
T03SSILL
 62
4
 10
1093.289
 20
-1190.058
 30
4932.570
 70
    32
  0
VERTEX
  8
T03SSILL
 62
4
 10
1100.252
 20
-1190.376
 30
4932.570
 70
    32
  0
VERTEX
  8
T03SSILL
 62
4
 10
1174.249
 20
-1203.141
 30
4932.570
 70
    32
  0
VERTEX
  8
T03SSILL
 62
4
 10
1182.103
 20
-1205.481
 30
4932.570
 70
    32
  0
VERTEX
  8
T03SSILL
 62
4
 10
1189.527
 20
-1209.939
 30
4932.570
 70
    32
  0
VERTEX
  8
T03SSILL
 62
4
 10
1186.728
 20
-1214.183
 30
4932.570
 70
    32
  0
VERTEX
  8
T03SSILL
 62
4
 10
1185.267
 20
-1221.592
 30
4932.570
 70
    32
  0
VERTEX
  8
T03SSILL
 62
4
 10
1196.337
 20
-1232.729
 30
4932.570
 70
    32
  0
VERTEX
  8
T03SSILL
 62
4
 10
1198.733
 20
-1238.375
 30
4932.570
 70
    32
  0
VERTEX
  8
T03SSILL
 62
4
 10
1205.123
 20
-1246.308
 30
4932.570
 70
    32
  0
VERTEX
  8
T03SSILL
 62
4
 10
1215.183
 20
-1250.338
 30
4932.570
 70
    32
  0
VERTEX
  8
T03SSILL
 62
4
 10
1225.895
 20
-1274.622
 30
4932.570
 70
    32
  0
VERTEX
  8
T03SSILL
 62
4
 10
1226.664
 20
-1281.764
 30
4932.570
 70
    32
  0
VERTEX
  8
T03SSILL
 62
4
 10
1217.112
 20
-1295.962
 30
4932.570
 70
    32
  0
VERTEX
  8
T03SSILL
 62
4
 10
1222.822
 20
-1302.389
 30
4932.570
 70
    32
  0
VERTEX
  8
T03SSILL
 62
4
 10
1232.264
 20
-1300.864
 30
4932.570
 70
    32
  0
VERTEX
  8
T03SSILL
 62
4
 10
1237.595
 20
-1303.323
 30
4932.570
 70
    32
  0
VERTEX
  8
T03SSILL
 62
4
 10
1250.611
 20
-1320.954
 30
4932.570
 70
    32
  0
VERTEX
  8
T03SSILL
 62
4
 10
1279.305
 20
-1371.837
 30
4932.570
 70
    32
  0
VERTEX
  8
T03SSILL
 62
4
 10
1286.228
 20
-1368.160
 30
4932.570
 70
    32
  0
VERTEX
  8
T03SSILL
 62
4
 10
1258.928
 20
-1318.179
 30
4932.570
 70
    32
  0
VERTEX
  8
T03SSILL
 62
4
 10
1253.730
 20
-1301.550
 30
4932.570
 70
    32
  0
VERTEX
  8
T03SSILL
 62
4
 10
1256.401
 20
-1293.934
 30
4932.570
 70
    32
  0
VERTEX
  8
T03SSILL
 62
4
 10
1265.780
 20
-1285.190
 30
4932.570
 70
    32
  0
VERTEX
  8
T03SSILL
 62
4
 10
1262.384
 20
-1277.127
 30
4932.570
 70
    32
  0
VERTEX
  8
T03SSILL
 62
4
 10
1251.112
 20
-1277.480
 30
4932.570
 70
    32
  0
VERTEX
  8
T03SSILL
 62
4
 10
1242.624
 20
-1274.267
 30
4932.570
 70
    32
  0
VERTEX
  8
T03SSILL
 62
4
 10
1234.839
 20
-1265.519
 30
4932.570
 70
    32
  0
VERTEX
  8
T03SSILL
 62
4
 10
1227.061
 20
-1250.611
 30
4932.570
 70
    32
  0
VERTEX
  8
T03SSILL
 62
4
 10
1224.836
 20
-1240.894
 30
4932.570
 70
    32
  0
VERTEX
  8
T03SSILL
 62
4
 10
1238.017
 20
-1232.347
 30
4932.570
 70
    32
  0
VERTEX
  8
T03SSILL
 62
4
 10
1236.635
 20
-1220.281
 30
4932.570
 70
    32
  0
VERTEX
  8
T03SSILL
 62
4
 10
1230.774
 20
-1211.057
 30
4932.570
 70
    32
  0
VERTEX
  8
T03SSILL
 62
4
 10
1222.096
 20
-1202.552
 30
4932.570
 70
    32
  0
VERTEX
  8
T03SSILL
 62
4
 10
1216.242
 20
-1194.826
 30
4932.570
 70
    32
  0
VERTEX
  8
T03SSILL
 62
4
 10
1202.699
 20
-1200.445
 30
4932.570
 70
    32
  0
VERTEX
  8
T03SSILL
 62
4
 10
1200.469
 20
-1194.992
 30
4932.570
 70
    32
  0
VERTEX
  8
T03SSILL
 62
4
 10
1202.095
 20
-1167.491
 30
4932.570
 70
    32
  0
VERTEX
  8
T03SSILL
 62
4
 10
1200.619
 20
-1154.015
 30
4932.570
 70
    32
  0
VERTEX
  8
T03SSILL
 62
4
 10
1195.285
 20
-1144.525
 30
4932.570
 70
    32
  0
VERTEX
  8
T03SSILL
 62
4
 10
1184.919
 20
-1133.208
 30
4932.570
 70
    32
  0
VERTEX
  8
T03SSILL
 62
4
 10
1176.690
 20
-1126.375
 30
4932.570
 70
    32
  0
VERTEX
  8
T03SSILL
 62
4
 10
1170.340
 20
-1125.261
 30
4932.570
 70
    32
  0
VERTEX
  8
T03SSILL
 62
4
 10
1160.061
 20
-1131.744
 30
4932.570
 70
    32
  0
VERTEX
  8
T03SSILL
 62
4
 10
1158.267
 20
-1125.320
 30
4932.570
 70
    32
  0
VERTEX
  8
T03SSILL
 62
4
 10
1162.251
 20
-1111.201
 30
4932.570
 70
    32
  0
VERTEX
  8
T03SSILL
 62
4
 10
1150.389
 20
-1100.157
 30
4932.570
 70
    32
  0
VERTEX
  8
T03SSILL
 62
4
 10
1146.662
 20
-1095.064
 30
4932.570
 70
    32
  0
VERTEX
  8
T03SSILL
 62
4
 10
1146.724
 20
-1089.776
 30
4932.570
 70
    32
  0
VERTEX
  8
T03SSILL
 62
4
 10
1154.968
 20
-1081.805
 30
4932.570
 70
    32
  0
VERTEX
  8
T03SSILL
 62
4
 10
1156.851
 20
-1070.428
 30
4932.570
 70
    32
  0
VERTEX
  8
T03SSILL
 62
4
 10
1162.430
 20
-1058.063
 30
4932.570
 70
    32
  0
VERTEX
  8
T03SSILL
 62
4
 10
1157.509
 20
-1043.019
 30
4932.570
 70
    32
  0
VERTEX
  8
T03SSILL
 62
4
 10
1212.281
 20
-1017.282
 30
4932.570
 70
    32
  0
VERTEX
  8
T03SSILL
 62
4
 10
1209.258
 20
-1011.833
 30
4932.570
 70
    32
  0
VERTEX
  8
T03SSILL
 62
4
 10
1166.184
 20
-1033.195
 30
4932.570
 70
    32
  0
VERTEX
  8
T03SSILL
 62
4
 10
1149.732
 20
-1038.563
 30
4932.570
 70
    32
  0
VERTEX
  8
T03SSILL
 62
4
 10
1145.490
 20
-1036.029
 30
4932.570
 70
    32
  0
VERTEX
  8
T03SSILL
 62
4
 10
1125.347
 20
-1007.753
 30
4932.570
 70
    32
  0
VERTEX
  8
T03SSILL
 62
4
 10
1106.763
 20
-991.895
 30
4932.570
 70
    32
  0
VERTEX
  8
T03SSILL
 62
4
 10
1064.975
 20
-952.358
 30
4932.570
 70
    32
  0
VERTEX
  8
T03SSILL
 62
4
 10
1058.218
 20
-940.407
 30
4932.570
 70
    32
  0
VERTEX
  8
T03SSILL
 62
4
 10
1045.139
 20
-932.717
 30
4932.570
 70
    32
  0
VERTEX
  8
T03SSILL
 62
4
 10
1041.486
 20
-924.628
 30
4932.570
 70
    32
  0
VERTEX
  8
T03SSILL
 62
4
 10
1034.480
 20
-915.762
 30
4932.570
 70
    32
  0
VERTEX
  8
T03SSILL
 62
4
 10
1035.513
 20
-910.734
 30
4932.570
 70
    32
  0
VERTEX
  8
T03SSILL
 62
4
 10
1025.869
 20
-885.050
 30
4932.570
 70
    32
  0
VERTEX
  8
T03SSILL
 62
4
 10
1019.261
 20
-885.259
 30
4932.570
 70
    32
  0
VERTEX
  8
T03SSILL
 62
4
 10
1016.169
 20
-883.600
 30
4932.570
 70
    32
  0
VERTEX
  8
T03SSILL
 62
4
 10
1013.229
 20
-877.094
 30
4932.570
 70
    32
  0
VERTEX
  8
T03SSILL
 62
4
 10
1002.769
 20
-864.720
 30
4932.570
 70
    32
  0
VERTEX
  8
T03SSILL
 62
4
 10
1001.589
 20
-857.676
 30
4932.570
 70
    32
  0
VERTEX
  8
T03SSILL
 62
4
 10
997.239
 20
-851.177
 30
4932.570
 70
    32
  0
VERTEX
  8
T03SSILL
 62
4
 10
988.306
 20
-844.612
 30
4932.570
 70
    32
  0
VERTEX
  8
T03SSILL
 62
4
 10
981.088
 20
-828.433
 30
4932.570
 70
    32
  0
VERTEX
  8
T03SSILL
 62
4
 10
971.269
 20
-820.639
 30
4932.570
 70
    32
  0
VERTEX
  8
T03SSILL
 62
4
 10
966.655
 20
-814.317
 30
4932.570
 70
    32
  0
VERTEX
  8
T03SSILL
 62
4
 10
958.156
 20
-806.252
 30
4932.570
 70
    32
  0
VERTEX
  8
T03SSILL
 62
4
 10
957.165
 20
-801.850
 30
4932.570
 70
    32
  0
VERTEX
  8
T03SSILL
 62
4
 10
950.526
 20
-795.891
 30
4932.570
 70
    32
  0
VERTEX
  8
T03SSILL
 62
4
 10
938.416
 20
-788.284
 30
4932.570
 70
    32
  0
VERTEX
  8
T03SSILL
 62
4
 10
934.809
 20
-789.536
 30
4932.570
 70
    32
  0
VERTEX
  8
T03SSILL
 62
4
 10
927.360
 20
-797.856
 30
4932.570
 70
    32
  0
VERTEX
  8
T03SSILL
 62
4
 10
928.027
 20
-808.075
 30
4932.570
 70
    32
  0
VERTEX
  8
T03SSILL
 62
4
 10
936.020
 20
-820.725
 30
4932.570
 70
    32
  0
VERTEX
  8
T03SSILL
 62
4
 10
947.855
 20
-843.930
 30
4932.570
 70
    32
  0
VERTEX
  8
T03SSILL
 62
4
 10
977.685
 20
-906.525
 30
4932.570
 70
    32
  0
VERTEX
  8
T03SSILL
 62
4
 10
980.500
 20
-923.431
 30
4932.570
 70
    32
  0
VERTEX
  8
T03SSILL
 62
4
 10
996.916
 20
-946.526
 30
4932.570
 70
    32
  0
VERTEX
  8
T03SSILL
 62
4
 10
1003.739
 20
-954.158
 30
4932.570
 70
    32
  0
VERTEX
  8
T03SSILL
 62
4
 10
1010.508
 20
-968.753
 30
4932.570
 70
    32
  0
VERTEX
  8
T03SSILL
 62
4
 10
1017.554
 20
-985.726
 30
4932.570
 70
    32
  0
VERTEX
  8
T03SSILL
 62
4
 10
1016.818
 20
-997.273
 30
4932.570
 70
    32
  0
VERTEX
  8
T03SSILL
 62
4
 10
1019.062
 20
-1005.722
 30
4932.570
 70
    32
  0
VERTEX
  8
T03SSILL
 62
4
 10
1034.836
 20
-1005.644
 30
4932.570
 70
    32
  0
VERTEX
  8
T03SSILL
 62
4
 10
1062.349
 20
-1027.362
 30
4932.570
 70
    32
  0
VERTEX
  8
T03SSILL
 62
4
 10
1073.170
 20
-1023.872
 30
4932.570
 70
    32
  0
VERTEX
  8
T03SSILL
 62
4
 10
1087.483
 20
-1013.580
 30
4932.570
 70
    32
  0
VERTEX
  8
T03SSILL
 62
4
 10
1095.253
 20
-1016.714
 30
4932.570
 70
    32
  0
VERTEX
  8
T03SSILL
 62
4
 10
1098.809
 20
-1022.953
 30
4932.570
 70
    32
  0
VERTEX
  8
T03SSILL
 62
4
 10
1104.813
 20
-1025.302
 30
4932.570
 70
    32
  0
VERTEX
  8
T03SSILL
 62
4
 10
1109.379
 20
-1022.019
 30
4932.570
 70
    32
  0
VERTEX
  8
T03SSILL
 62
4
 10
1111.359
 20
-1012.581
 30
4932.570
 70
    32
  0
VERTEX
  8
T03SSILL
 62
4
 10
1115.321
 20
-1011.768
 30
4932.570
 70
    32
  0
VERTEX
  8
T03SSILL
 62
4
 10
1124.431
 20
-1018.596
 30
4932.570
 70
    32
  0
VERTEX
  8
T03SSILL
 62
4
 10
1130.724
 20
-1026.056
 30
4932.570
 70
    32
  0
VERTEX
  8
T03SSILL
 62
4
 10
1134.731
 20
-1034.407
 30
4932.570
 70
    32
  0
VERTEX
  8
T03SSILL
 62
4
 10
1132.979
 20
-1036.443
 30
4932.570
 70
    32
  0
VERTEX
  8
T03SSILL
 62
4
 10
1127.956
 20
-1036.468
 30
4932.570
 70
    32
  0
VERTEX
  8
T03SSILL
 62
4
 10
1119.509
 20
-1038.977
 30
4932.570
 70
    32
  0
VERTEX
  8
T03SSILL
 62
4
 10
1111.391
 20
-1036.902
 30
4932.570
 70
    32
  0
VERTEX
  8
T03SSILL
 62
4
 10
1103.813
 20
-1036.939
 30
4932.570
 70
    32
  0
VERTEX
  8
T03SSILL
 62
4
 10
1100.916
 20
-1039.157
 30
4932.570
 70
    32
  0
VERTEX
  8
T03SSILL
 62
4
 10
1099.272
 20
-1045.245
 30
4932.570
 70
    32
  0
VERTEX
  8
T03SSILL
 62
4
 10
1091.544
 20
-1050.659
 30
4932.570
 70
    32
  0
VERTEX
  8
T03SSILL
 62
4
 10
1033.394
 20
-1070.597
 30
4932.570
 70
    32
  0
VERTEX
  8
T03SSILL
 62
4
 10
1035.269
 20
-1075.522
 30
4932.570
 70
    32
  0
VERTEX
  8
T03SSILL
 62
4
 10
1093.066
 20
-1055.498
 30
4932.570
 70
    32
  0
VERTEX
  8
T03SSILL
 62
4
 10
1120.844
 20
-1095.280
 30
4932.570
 70
    32
  0
VERTEX
  8
T03SSILL
 62
4
 10
1123.429
 20
-1101.259
 30
4932.570
 70
    32
  0
VERTEX
  8
T03SSILL
 62
4
 10
1121.436
 20
-1108.230
 30
4932.570
 70
    32
  0
VERTEX
  8
T03SSILL
 62
4
 10
1111.390
 20
-1125.904
 30
4932.570
 70
    32
  0
VERTEX
  8
T03SSILL
 62
4
 10
1108.605
 20
-1132.968
 30
4932.570
 70
    32
  0
VERTEX
  8
T03SSILL
 62
4
 10
1108.298
 20
-1142.222
 30
4932.570
 70
    32
  0
VERTEX
  8
T03SSILL
 62
4
 10
1111.302
 20
-1161.770
 30
4932.570
 70
    32
  0
VERTEX
  8
T03SSILL
 62
4
 10
1109.570
 20
-1167.771
 30
4932.570
 70
    32
  0
VERTEX
  8
T03SSILL
 62
4
 10
1030.005
 20
-1223.151
 30
4932.570
 70
    32
  0
VERTEX
  8
T03SSILL
 62
4
 10
966.707
 20
-1271.313
 30
4932.570
 70
    32
  0
VERTEX
  8
T03SSILL
 62
4
 10
959.736
 20
-1269.321
 30
4932.570
 70
    32
  0
VERTEX
  8
T03SSILL
 62
4
 10
942.983
 20
-1231.600
 30
4932.570
 70
    32
  0
VERTEX
  8
T03SSILL
 62
4
 10
547.347
 20
-1005.318
 30
4932.570
 70
    32
  0
VERTEX
  8
T03SSILL
 62
4
 10
546.896
 20
-1003.117
 30
4932.570
 70
    32
  0
VERTEX
  8
T03SSILL
 62
4
 10
550.584
 20
-1000.543
 30
4932.570
 70
    32
  0
VERTEX
  8
T03SSILL
 62
4
 10
606.637
 20
-966.428
 30
4932.570
 70
    32
  0
VERTEX
  8
T03SSILL
 62
4
 10
629.769
 20
-939.613
 30
4932.570
 70
    32
  0
VERTEX
  8
T03SSILL
 62
4
 10
771.797
 20
-702.659
 30
4932.570
 70
    32
  0
VERTEX
  8
T03SSILL
 62
4
 10
794.543
 20
-615.660
 30
4932.570
 70
    32
  0
VERTEX
  8
T03SSILL
 62
4
 10
753.613
 20
-517.959
 30
4932.570
 70
    32
  0
VERTEX
  8
T03SSILL
 62
4
 10
753.211
 20
-507.739
 30
4932.570
 70
    32
  0
VERTEX
  8
T03SSILL
 62
4
 10
750.812
 20
-503.785
 30
4932.570
 70
    32
  0
VERTEX
  8
T03SSILL
 62
4
 10
742.667
 20
-496.247
 30
4932.570
 70
    32
  0
VERTEX
  8
T03SSILL
 62
4
 10
761.186
 20
-463.286
 30
4932.570
 70
    32
  0
VERTEX
  8
T03SSILL
 62
4
 10
773.136
 20
-474.066
 30
4932.570
 70
    32
  0
VERTEX
  8
T03SSILL
 62
4
 10
777.008
 20
-472.902
 30
4932.570
 70
    32
  0
VERTEX
  8
T03SSILL
 62
4
 10
780.456
 20
-475.352
 30
4932.570
 70
    32
  0
VERTEX
  8
T03SSILL
 62
4
 10
785.077
 20
-483.172
 30
4932.570
 70
    32
  0
VERTEX
  8
T03SSILL
 62
4
 10
789.407
 20
-485.530
 30
4932.570
 70
    32
  0
VERTEX
  8
T03SSILL
 62
4
 10
794.419
 20
-483.390
 30
4932.570
 70
    32
  0
VERTEX
  8
T03SSILL
 62
4
 10
797.298
 20
-477.560
 30
4932.570
 70
    32
  0
VERTEX
  8
T03SSILL
 62
4
 10
801.426
 20
-474.720
 30
4932.570
 70
    32
  0
VERTEX
  8
T03SSILL
 62
4
 10
827.096
 20
-462.168
 30
4932.570
 70
    32
  0
VERTEX
  8
T03SSILL
 62
4
 10
837.304
 20
-459.386
 30
4932.570
 70
    32
  0
VERTEX
  8
T03SSILL
 62
4
 10
826.059
 20
-394.937
 30
4932.570
 70
    32
  0
VERTEX
  8
T03SSILL
 62
4
 10
824.579
 20
-380.756
 30
4932.570
 70
    32
  0
VERTEX
  8
T03SSILL
 62
4
 10
821.263
 20
-369.493
 30
4932.570
 70
    32
  0
VERTEX
  8
T03SSILL
 62
4
 10
823.679
 20
-359.171
 30
4932.570
 70
    32
  0
VERTEX
  8
T03SSILL
 62
4
 10
818.467
 20
-356.465
 30
4932.570
 70
    32
  0
VERTEX
  8
T03SSILL
 62
4
 10
816.945
 20
-351.714
 30
4932.570
 70
    32
  0
VERTEX
  8
T03SSILL
 62
4
 10
817.046
 20
-336.469
 30
4932.570
 70
    32
  0
VERTEX
  8
T03SSILL
 62
4
 10
822.368
 20
-325.515
 30
4932.570
 70
    32
  0
VERTEX
  8
T03SSILL
 62
4
 10
837.743
 20
-303.691
 30
4932.570
 70
    32
  0
VERTEX
  8
T03SSILL
 62
4
 10
841.575
 20
-290.704
 30
4932.570
 70
    32
  0
VERTEX
  8
T03SSILL
 62
4
 10
842.179
 20
-279.265
 30
4932.570
 70
    32
  0
VERTEX
  8
T03SSILL
 62
4
 10
839.910
 20
-264.179
 30
4932.570
 70
    32
  0
VERTEX
  8
T03SSILL
 62
4
 10
834.396
 20
-244.224
 30
4932.570
 70
    32
  0
VERTEX
  8
T03SSILL
 62
4
 10
832.697
 20
-231.679
 30
4932.570
 70
    32
  0
VERTEX
  8
T03SSILL
 62
4
 10
834.691
 20
-219.250
 30
4932.570
 70
    32
  0
VERTEX
  8
T03SSILL
 62
4
 10
834.885
 20
-209.575
 30
4932.570
 70
    32
  0
VERTEX
  8
T03SSILL
 62
4
 10
844.710
 20
-213.635
 30
4932.570
 70
    32
  0
VERTEX
  8
T03SSILL
 62
4
 10
865.327
 20
-243.191
 30
4932.570
 70
    32
  0
VERTEX
  8
T03SSILL
 62
4
 10
862.326
 20
-247.811
 30
4932.570
 70
    32
  0
VERTEX
  8
T03SSILL
 62
4
 10
861.055
 20
-256.097
 30
4932.570
 70
    32
  0
VERTEX
  8
T03SSILL
 62
4
 10
865.378
 20
-267.807
 30
4932.570
 70
    32
  0
VERTEX
  8
T03SSILL
 62
4
 10
875.760
 20
-278.979
 30
4932.570
 70
    32
  0
VERTEX
  8
T03SSILL
 62
4
 10
886.661
 20
-284.340
 30
4932.570
 70
    32
  0
VERTEX
  8
T03SSILL
 62
4
 10
894.264
 20
-281.490
 30
4932.570
 70
    32
  0
VERTEX
  8
T03SSILL
 62
4
 10
898.042
 20
-270.614
 30
4932.570
 70
    32
  0
VERTEX
  8
T03SSILL
 62
4
 10
895.627
 20
-235.837
 30
4932.570
 70
    32
  0
VERTEX
  8
T03SSILL
 62
4
 10
885.443
 20
-231.344
 30
4932.570
 70
    32
  0
VERTEX
  8
T03SSILL
 62
4
 10
870.704
 20
-238.619
 30
4932.570
 70
    32
  0
VERTEX
  8
T03SSILL
 62
4
 10
853.865
 20
-214.277
 30
4932.570
 70
    32
  0
VERTEX
  8
T03SSILL
 62
4
 10
864.002
 20
-205.143
 30
4932.570
 70
    32
  0
VERTEX
  8
T03SSILL
 62
4
 10
867.282
 20
-196.034
 30
4932.570
 70
    32
  0
VERTEX
  8
T03SSILL
 62
4
 10
863.346
 20
-186.515
 30
4932.570
 70
    32
  0
VERTEX
  8
T03SSILL
 62
4
 10
940.078
 20
-131.453
 30
4932.570
 70
    32
  0
VERTEX
  8
T03SSILL
 62
4
 10
944.835
 20
-137.354
 30
4932.570
 70
    32
  0
VERTEX
  8
T03SSILL
 62
4
 10
966.053
 20
-155.294
 30
4932.570
 70
    32
  0
VERTEX
  8
T03SSILL
 62
4
 10
973.692
 20
-165.456
 30
4932.570
 70
    32
  0
VERTEX
  8
T03SSILL
 62
4
 10
979.383
 20
-180.133
 30
4932.570
 70
    32
  0
VERTEX
  8
T03SSILL
 62
4
 10
980.054
 20
-194.277
 30
4932.570
 70
    32
  0
VERTEX
  8
T03SSILL
 62
4
 10
985.058
 20
-209.933
 30
4932.570
 70
    32
  0
VERTEX
  8
T03SSILL
 62
4
 10
990.812
 20
-223.115
 30
4932.570
 70
    32
  0
VERTEX
  8
T03SSILL
 62
4
 10
996.781
 20
-244.030
 30
4932.570
 70
    32
  0
VERTEX
  8
T03SSILL
 62
4
 10
1005.174
 20
-257.257
 30
4932.570
 70
    32
  0
VERTEX
  8
T03SSILL
 62
4
 10
1011.094
 20
-280.547
 30
4932.570
 70
    32
  0
VERTEX
  8
T03SSILL
 62
4
 10
1013.986
 20
-301.512
 30
4932.570
 70
    32
  0
VERTEX
  8
T03SSILL
 62
4
 10
1032.894
 20
-301.818
 30
4932.570
 70
    32
  0
VERTEX
  8
T03SSILL
 62
4
 10
1040.598
 20
-294.395
 30
4932.570
 70
    32
  0
VERTEX
  8
T03SSILL
 62
4
 10
1037.568
 20
-281.169
 30
4932.570
 70
    32
  0
VERTEX
  8
T03SSILL
 62
4
 10
1039.498
 20
-270.147
 30
4932.570
 70
    32
  0
VERTEX
  8
T03SSILL
 62
4
 10
1033.699
 20
-254.241
 30
4932.570
 70
    32
  0
VERTEX
  8
T03SSILL
 62
4
 10
1031.954
 20
-244.334
 30
4932.570
 70
    32
  0
VERTEX
  8
T03SSILL
 62
4
 10
1035.809
 20
-238.117
 30
4932.570
 70
    32
  0
VERTEX
  8
T03SSILL
 62
4
 10
1027.001
 20
-226.392
 30
4932.570
 70
    32
  0
VERTEX
  8
T03SSILL
 62
4
 10
1020.682
 20
-210.933
 30
4932.570
 70
    32
  0
VERTEX
  8
T03SSILL
 62
4
 10
1014.149
 20
-203.918
 30
4932.570
 70
    32
  0
VERTEX
  8
T03SSILL
 62
4
 10
1009.898
 20
-196.691
 30
4932.570
 70
    32
  0
VERTEX
  8
T03SSILL
 62
4
 10
1006.959
 20
-189.002
 30
4932.570
 70
    32
  0
VERTEX
  8
T03SSILL
 62
4
 10
1008.900
 20
-184.046
 30
4932.570
 70
    32
  0
VERTEX
  8
T03SSILL
 62
4
 10
1006.265
 20
-157.274
 30
4932.570
 70
    32
  0
VERTEX
  8
T03SSILL
 62
4
 10
993.235
 20
-129.353
 30
4932.570
 70
    32
  0
VERTEX
  8
T03SSILL
 62
4
 10
985.609
 20
-109.256
 30
4932.570
 70
    32
  0
VERTEX
  8
T03SSILL
 62
4
 10
982.104
 20
-109.929
 30
4932.570
 70
    32
  0
VERTEX
  8
T03SSILL
 62
4
 10
978.595
 20
-105.063
 30
4932.570
 70
    32
  0
VERTEX
  8
T03SSILL
 62
4
 10
972.224
 20
-102.529
 30
4932.570
 70
    32
  0
VERTEX
  8
T03SSILL
 62
4
 10
968.819
 20
-98.628
 30
4932.570
 70
    32
  0
VERTEX
  8
T03SSILL
 62
4
 10
960.218
 20
-61.931
 30
4932.570
 70
    32
  0
VERTEX
  8
T03SSILL
 62
4
 10
959.960
 20
-56.923
 30
4932.570
 70
    32
  0
VERTEX
  8
T03SSILL
 62
4
 10
952.328
 20
-47.201
 30
4932.570
 70
    32
  0
VERTEX
  8
T03SSILL
 62
4
 10
941.911
 20
-39.195
 30
4932.570
 70
    32
  0
VERTEX
  8
T03SSILL
 62
4
 10
932.772
 20
-34.157
 30
4932.570
 70
    32
  0
VERTEX
  8
T03SSILL
 62
4
 10
933.159
 20
-25.535
 30
4932.570
 70
    32
  0
VERTEX
  8
T03SSILL
 62
4
 10
919.672
 20
-12.655
 30
4932.570
 70
    32
  0
VERTEX
  8
T03SSILL
 62
4
 10
918.962
 20
-6.864
 30
4932.570
 70
    32
  0
VERTEX
  8
T03SSILL
 62
4
 10
906.822
 20
9.730
 30
4932.570
 70
    32
  0
VERTEX
  8
T03SSILL
 62
4
 10
913.449
 20
13.091
 30
4932.570
 70
    32
  0
VERTEX
  8
T03SSILL
 62
4
 10
910.360
 20
19.195
 30
4932.570
 70
    32
  0
VERTEX
  8
T03SSILL
 62
4
 10
899.942
 20
16.475
 30
4932.570
 70
    32
  0
VERTEX
  8
T03SSILL
 62
4
 10
895.519
 20
18.073
 30
4932.570
 70
    32
  0
VERTEX
  8
T03SSILL
 62
4
 10
893.009
 20
21.022
 30
4932.570
 70
    32
  0
VERTEX
  8
T03SSILL
 62
4
 10
1073.970
 20
105.746
 30
4932.570
 70
    32
  0
VERTEX
  8
T03SSILL
 62
4
 10
1071.574
 20
112.477
 30
4932.570
 70
    32
  0
VERTEX
  8
T03SSILL
 62
4
 10
888.430
 20
26.837
 30
4932.570
 70
    32
  0
VERTEX
  8
T03SSILL
 62
4
 10
884.425
 20
35.212
 30
4932.570
 70
    32
  0
VERTEX
  8
T03SSILL
 62
4
 10
869.992
 20
52.208
 30
4932.570
 70
    32
  0
VERTEX
  8
T03SSILL
 62
4
 10
865.835
 20
59.086
 30
4932.570
 70
    32
  0
VERTEX
  8
T03SSILL
 62
4
 10
866.816
 20
117.393
 30
4932.570
 70
    32
  0
VERTEX
  8
T03SSILL
 62
4
 10
872.338
 20
123.814
 30
4932.570
 70
    32
  0
VERTEX
  8
T03SSILL
 62
4
 10
876.868
 20
126.349
 30
4932.570
 70
    32
  0
VERTEX
  8
T03SSILL
 62
4
 10
877.260
 20
129.257
 30
4932.570
 70
    32
  0
VERTEX
  8
T03SSILL
 62
4
 10
938.009
 20
188.629
 30
4932.570
 70
    32
  0
VERTEX
  8
T03SSILL
 62
4
 10
1007.026
 20
220.882
 30
4932.570
 70
    32
  0
VERTEX
  8
T03SSILL
 62
4
 10
1014.168
 20
203.502
 30
4932.570
 70
    32
  0
VERTEX
  8
T03SSILL
 62
4
 10
1016.851
 20
200.733
 30
4932.570
 70
    32
  0
VERTEX
  8
T03SSILL
 62
4
 10
1021.608
 20
200.195
 30
4932.570
 70
    32
  0
VERTEX
  8
T03SSILL
 62
4
 10
1024.192
 20
198.039
 30
4932.570
 70
    32
  0
VERTEX
  8
T03SSILL
 62
4
 10
1025.793
 20
191.559
 30
4932.570
 70
    32
  0
VERTEX
  8
T03SSILL
 62
4
 10
1033.581
 20
193.797
 30
4932.570
 70
    32
  0
VERTEX
  8
T03SSILL
 62
4
 10
1046.314
 20
200.160
 30
4932.570
 70
    32
  0
VERTEX
  8
T03SSILL
 62
4
 10
1052.450
 20
201.227
 30
4932.570
 70
    32
  0
VERTEX
  8
T03SSILL
 62
4
 10
1055.386
 20
199.165
 30
4932.570
 70
    32
  0
VERTEX
  8
T03SSILL
 62
4
 10
1075.438
 20
166.523
 30
4932.570
 70
    32
  0
VERTEX
  8
T03SSILL
 62
4
 10
1076.617
 20
158.893
 30
4932.570
 70
    32
  0
VERTEX
  8
T03SSILL
 62
4
 10
1085.777
 20
157.900
 30
4932.570
 70
    32
  0
VERTEX
  8
T03SSILL
 62
4
 10
1090.391
 20
160.701
 30
4932.570
 70
    32
  0
VERTEX
  8
T03SSILL
 62
4
 10
1095.155
 20
170.450
 30
4932.570
 70
    32
  0
VERTEX
  8
T03SSILL
 62
4
 10
1097.226
 20
178.221
 30
4932.570
 70
    32
  0
VERTEX
  8
T03SSILL
 62
4
 10
1093.927
 20
186.431
 30
4932.570
 70
    32
  0
VERTEX
  8
T03SSILL
 62
4
 10
1089.774
 20
187.682
 30
4932.570
 70
    32
  0
VERTEX
  8
T03SSILL
 62
4
 10
1073.518
 20
187.153
 30
4932.570
 70
    32
  0
VERTEX
  8
T03SSILL
 62
4
 10
1063.205
 20
199.469
 30
4932.570
 70
    32
  0
VERTEX
  8
T03SSILL
 62
4
 10
1053.384
 20
208.628
 30
4932.570
 70
    32
  0
VERTEX
  8
T03SSILL
 62
4
 10
1052.009
 20
212.122
 30
4932.570
 70
    32
  0
VERTEX
  8
T03SSILL
 62
4
 10
1054.458
 20
234.406
 30
4932.570
 70
    32
  0
VERTEX
  8
T03SSILL
 62
4
 10
1061.573
 20
240.149
 30
4932.570
 70
    32
  0
VERTEX
  8
T03SSILL
 62
4
 10
1062.340
 20
247.019
 30
4932.570
 70
    32
  0
VERTEX
  8
T03SSILL
 62
4
 10
1169.397
 20
297.214
 30
4932.570
 70
    32
  0
VERTEX
  8
T03SSILL
 62
4
 10
1176.421
 20
297.768
 30
4932.570
 70
    32
  0
VERTEX
  8
T03SSILL
 62
4
 10
1176.677
 20
314.389
 30
4932.570
 70
    32
  0
VERTEX
  8
T03SSILL
 62
4
 10
1180.944
 20
322.284
 30
4932.570
 70
    32
  0
VERTEX
  8
T03SSILL
 62
4
 10
1171.878
 20
365.920
 30
4932.570
 70
    32
  0
VERTEX
  8
T03SSILL
 62
4
 10
1161.546
 20
400.919
 30
4932.570
 70
    32
  0
VERTEX
  8
T03SSILL
 62
4
 10
1152.000
 20
452.459
 30
4932.570
 70
    32
  0
VERTEX
  8
T03SSILL
 62
4
 10
1144.725
 20
472.562
 30
4932.570
 70
    32
  0
VERTEX
  8
T03SSILL
 62
4
 10
1137.313
 20
506.466
 30
4932.570
 70
    32
  0
VERTEX
  8
T03SSILL
 62
4
 10
1115.496
 20
544.882
 30
4932.570
 70
    32
  0
VERTEX
  8
T03SSILL
 62
4
 10
1109.034
 20
563.679
 30
4932.570
 70
    32
  0
VERTEX
  8
T03SSILL
 62
4
 10
1106.634
 20
581.399
 30
4932.570
 70
    32
  0
VERTEX
  8
T03SSILL
 62
4
 10
1102.854
 20
586.788
 30
4932.570
 70
    32
  0
VERTEX
  8
T03SSILL
 62
4
 10
1078.112
 20
589.021
 30
4932.570
 70
    32
  0
VERTEX
  8
T03SSILL
 62
4
 10
1077.484
 20
600.529
 30
4932.570
 70
    32
  0
VERTEX
  8
T03SSILL
 62
4
 10
1078.943
 20
608.561
 30
4932.570
 70
    32
  0
VERTEX
  8
T03SSILL
 62
4
 10
1078.181
 20
622.870
 30
4932.570
 70
    32
  0
VERTEX
  8
T03SSILL
 62
4
 10
1052.260
 20
646.017
 30
4932.570
 70
    32
  0
VERTEX
  8
T03SSILL
 62
4
 10
1102.539
 20
680.897
 30
4932.570
 70
    32
  0
VERTEX
  8
T03SSILL
 62
4
 10
1165.543
 20
716.592
 30
4932.570
 70
    32
  0
VERTEX
  8
T03SSILL
 62
4
 10
1168.663
 20
714.640
 30
4932.570
 70
    32
  0
VERTEX
  8
T03SSILL
 62
4
 10
1179.298
 20
702.927
 30
4932.570
 70
    32
  0
VERTEX
  8
T03SSILL
 62
4
 10
1314.052
 20
623.870
 30
4932.570
 70
    32
  0
VERTEX
  8
T03SSILL
 62
4
 10
1318.306
 20
630.118
 30
4932.570
 70
    32
  0
VERTEX
  8
T03SSILL
 62
4
 10
1184.905
 20
707.623
 30
4932.570
 70
    32
  0
VERTEX
  8
T03SSILL
 62
4
 10
1166.844
 20
729.101
 30
4932.570
 70
    32
  0
VERTEX
  8
T03SSILL
 62
4
 10
1156.092
 20
749.952
 30
4932.570
 70
    32
  0
VERTEX
  8
T03SSILL
 62
4
 10
1149.742
 20
746.997
 30
4932.570
 70
    32
  0
VERTEX
  8
T03SSILL
 62
4
 10
1160.203
 20
727.370
 30
4932.570
 70
    32
  0
VERTEX
  8
T03SSILL
 62
4
 10
1161.454
 20
722.564
 30
4932.570
 70
    32
  0
VERTEX
  8
T03SSILL
 62
4
 10
1099.588
 20
687.071
 30
4932.570
 70
    32
  0
VERTEX
  8
T03SSILL
 62
4
 10
1043.666
 20
649.075
 30
4932.570
 70
    32
  0
VERTEX
  8
T03SSILL
 62
4
 10
1042.446
 20
644.741
 30
4932.570
 70
    32
  0
VERTEX
  8
T03SSILL
 62
4
 10
1067.019
 20
622.882
 30
4932.570
 70
    32
  0
VERTEX
  8
T03SSILL
 62
4
 10
1070.210
 20
617.769
 30
4932.570
 70
    32
  0
VERTEX
  8
T03SSILL
 62
4
 10
1071.221
 20
596.382
 30
4932.570
 70
    32
  0
VERTEX
  8
T03SSILL
 62
4
 10
1070.721
 20
589.340
 30
4932.570
 70
    32
  0
VERTEX
  8
T03SSILL
 62
4
 10
1069.273
 20
586.503
 30
4932.570
 70
    32
  0
VERTEX
  8
T03SSILL
 62
4
 10
1041.564
 20
582.006
 30
4932.570
 70
    32
  0
VERTEX
  8
T03SSILL
 62
4
 10
1014.790
 20
579.458
 30
4932.570
 70
    32
  0
VERTEX
  8
T03SSILL
 62
4
 10
1006.373
 20
572.638
 30
4932.570
 70
    32
  0
VERTEX
  8
T03SSILL
 62
4
 10
994.278
 20
559.604
 30
4932.570
 70
    32
  0
VERTEX
  8
T03SSILL
 62
4
 10
986.202
 20
553.405
 30
4932.570
 70
    32
  0
VERTEX
  8
T03SSILL
 62
4
 10
984.813
 20
546.965
 30
4932.570
 70
    32
  0
VERTEX
  8
T03SSILL
 62
4
 10
980.300
 20
543.374
 30
4932.570
 70
    32
  0
VERTEX
  8
T03SSILL
 62
4
 10
908.477
 20
618.162
 30
4932.570
 70
    32
  0
VERTEX
  8
T03SSILL
 62
4
 10
881.101
 20
641.717
 30
4932.570
 70
    32
  0
VERTEX
  8
T03SSILL
 62
4
 10
873.088
 20
637.102
 30
4932.570
 70
    32
  0
VERTEX
  8
T03SSILL
 62
4
 10
894.868
 20
617.060
 30
4932.570
 70
    32
  0
VERTEX
  8
T03SSILL
 62
4
 10
897.076
 20
605.667
 30
4932.570
 70
    32
  0
VERTEX
  8
T03SSILL
 62
4
 10
852.603
 20
513.415
 30
4932.570
 70
    32
  0
VERTEX
  8
T03SSILL
 62
4
 10
826.986
 20
359.488
 30
4932.570
 70
    32
  0
VERTEX
  8
T03SSILL
 62
4
 10
849.273
 20
308.420
 30
4932.570
 70
    32
  0
VERTEX
  8
T03SSILL
 62
4
 10
822.876
 20
180.680
 30
4932.570
 70
    32
  0
VERTEX
  8
T03SSILL
 62
4
 10
819.011
 20
175.078
 30
4932.570
 70
    32
  0
VERTEX
  8
T03SSILL
 62
4
 10
814.835
 20
172.372
 30
4932.570
 70
    32
  0
VERTEX
  8
T03SSILL
 62
4
 10
799.645
 20
176.520
 30
4932.570
 70
    32
  0
VERTEX
  8
T03SSILL
 62
4
 10
796.686
 20
169.350
 30
4932.570
 70
    32
  0
VERTEX
  8
T03SSILL
 62
4
 10
844.720
 20
156.771
 30
4932.570
 70
    32
  0
VERTEX
  8
T03SSILL
 62
4
 10
858.636
 20
149.877
 30
4932.570
 70
    32
  0
VERTEX
  8
T03SSILL
 62
4
 10
851.557
 20
125.760
 30
4932.570
 70
    32
  0
VERTEX
  8
T03SSILL
 62
4
 10
842.989
 20
122.806
 30
4932.570
 70
    32
  0
VERTEX
  8
T03SSILL
 62
4
 10
840.153
 20
118.803
 30
4932.570
 70
    32
  0
VERTEX
  8
T03SSILL
 62
4
 10
837.367
 20
106.361
 30
4932.570
 70
    32
  0
VERTEX
  8
T03SSILL
 62
4
 10
826.217
 20
83.935
 30
4932.570
 70
    32
  0
VERTEX
  8
T03SSILL
 62
4
 10
824.344
 20
69.398
 30
4932.570
 70
    32
  0
VERTEX
  8
T03SSILL
 62
4
 10
818.798
 20
59.108
 30
4932.570
 70
    32
  0
VERTEX
  8
T03SSILL
 62
4
 10
821.431
 20
48.601
 30
4932.570
 70
    32
  0
VERTEX
  8
T03SSILL
 62
4
 10
822.883
 20
29.722
 30
4932.570
 70
    32
  0
VERTEX
  8
T03SSILL
 62
4
 10
817.864
 20
14.078
 30
4932.570
 70
    32
  0
VERTEX
  8
T03SSILL
 62
4
 10
812.476
 20
4.846
 30
4932.570
 70
    32
  0
VERTEX
  8
T03SSILL
 62
4
 10
808.424
 20
5.307
 30
4932.570
 70
    32
  0
VERTEX
  8
T03SSILL
 62
4
 10
794.179
 20
10.789
 30
4932.570
 70
    32
  0
VERTEX
  8
T03SSILL
 62
4
 10
763.130
 20
-26.029
 30
4932.570
 70
    32
  0
VERTEX
  8
T03SSILL
 62
4
 10
754.721
 20
-33.288
 30
4932.570
 70
    32
  0
VERTEX
  8
T03SSILL
 62
4
 10
750.129
 20
-42.859
 30
4932.570
 70
    32
  0
VERTEX
  8
T03SSILL
 62
4
 10
747.005
 20
-61.461
 30
4932.570
 70
    32
  0
VERTEX
  8
T03SSILL
 62
4
 10
730.359
 20
-75.800
 30
4932.570
 70
    32
  0
VERTEX
  8
T03SSILL
 62
4
 10
724.963
 20
-84.593
 30
4932.570
 70
    32
  0
VERTEX
  8
T03SSILL
 62
4
 10
701.758
 20
-144.054
 30
4932.570
 70
    32
  0
VERTEX
  8
T03SSILL
 62
4
 10
695.668
 20
-153.385
 30
4932.570
 70
    32
  0
VERTEX
  8
T03SSILL
 62
4
 10
695.502
 20
-164.730
 30
4932.570
 70
    32
  0
VERTEX
  8
T03SSILL
 62
4
 10
705.665
 20
-259.341
 30
4932.570
 70
    32
  0
VERTEX
  8
T03SSILL
 62
4
 10
705.008
 20
-267.528
 30
4932.570
 70
    32
  0
VERTEX
  8
T03SSILL
 62
4
 10
702.646
 20
-273.634
 30
4932.570
 70
    32
  0
VERTEX
  8
T03SSILL
 62
4
 10
704.434
 20
-280.814
 30
4932.570
 70
    32
  0
VERTEX
  8
T03SSILL
 62
4
 10
702.406
 20
-291.221
 30
4932.570
 70
    32
  0
VERTEX
  8
T03SSILL
 62
4
 10
333.973
 20
-552.194
 30
4932.570
 70
    32
  0
VERTEX
  8
T03SSILL
 62
4
 10
269.676
 20
-599.496
 30
4932.570
 70
    32
  0
VERTEX
  8
T03SSILL
 62
4
 10
185.878
 20
-659.413
 30
4932.570
 70
    32
  0
VERTEX
  8
T03SSILL
 62
4
 10
169.014
 20
-662.278
 30
4932.570
 70
    32
  0
VERTEX
  8
T03SSILL
 62
4
 10
127.981
 20
-654.725
 30
4932.570
 70
    32
  0
VERTEX
  8
T03SSILL
 62
4
 10
113.985
 20
-648.133
 30
4932.570
 70
    32
  0
VERTEX
  8
T03SSILL
 62
4
 10
50.110
 20
-531.464
 30
4932.570
 70
    32
  0
VERTEX
  8
T03SSILL
 62
4
 10
52.437
 20
-527.736
 30
4932.570
 70
    32
  0
VERTEX
  8
T03SSILL
 62
4
 10
57.954
 20
-525.550
 30
4932.570
 70
    32
  0
VERTEX
  8
T03SSILL
 62
4
 10
61.250
 20
-528.499
 30
4932.570
 70
    32
  0
VERTEX
  8
T03SSILL
 62
4
 10
77.731
 20
-523.351
 30
4932.570
 70
    32
  0
VERTEX
  8
T03SSILL
 62
4
 10
85.748
 20
-510.568
 30
4932.570
 70
    32
  0
VERTEX
  8
T03SSILL
 62
4
 10
90.127
 20
-508.925
 30
4932.570
 70
    32
  0
VERTEX
  8
T03SSILL
 62
4
 10
86.604
 20
-502.106
 30
4932.570
 70
    32
  0
VERTEX
  8
T03SSILL
 62
4
 10
81.979
 20
-505.160
 30
4932.570
 70
    32
  0
VERTEX
  8
T03SSILL
 62
4
 10
74.815
 20
-502.615
 30
4932.570
 70
    32
  0
VERTEX
  8
T03SSILL
 62
4
 10
63.302
 20
-510.690
 30
4932.570
 70
    32
  0
VERTEX
  8
T03SSILL
 62
4
 10
58.034
 20
-518.331
 30
4932.570
 70
    32
  0
VERTEX
  8
T03SSILL
 62
4
 10
50.147
 20
-520.988
 30
4932.570
 70
    32
  0
VERTEX
  8
T03SSILL
 62
4
 10
-30.952
 20
-373.387
 30
4932.570
 70
    32
  0
VERTEX
  8
T03SSILL
 62
4
 10
-29.421
 20
-369.405
 30
4932.570
 70
    32
  0
VERTEX
  8
T03SSILL
 62
4
 10
-24.574
 20
-363.179
 30
4932.570
 70
    32
  0
VERTEX
  8
T03SSILL
 62
4
 10
-23.576
 20
-358.764
 30
4932.570
 70
    32
  0
VERTEX
  8
T03SSILL
 62
4
 10
-23.935
 20
-351.639
 30
4932.570
 70
    32
  0
VERTEX
  8
T03SSILL
 62
4
 10
-28.204
 20
-348.350
 30
4932.570
 70
    32
  0
VERTEX
  8
T03SSILL
 62
4
 10
-28.941
 20
-352.497
 30
4932.570
 70
    32
  0
VERTEX
  8
T03SSILL
 62
4
 10
-34.554
 20
-354.068
 30
4932.570
 70
    32
  0
VERTEX
  8
T03SSILL
 62
4
 10
-41.529
 20
-352.489
 30
4932.570
 70
    32
  0
VERTEX
  8
T03SSILL
 62
4
 10
-94.577
 20
-255.659
 30
4932.570
 70
    32
  0
VERTEX
  8
T03SSILL
 62
4
 10
-81.201
 20
-248.703
 30
4932.570
 70
    32
  0
VERTEX
  8
T03SSILL
 62
4
 10
-46.681
 20
-236.448
 30
4932.570
 70
    32
  0
VERTEX
  8
T03SSILL
 62
4
 10
21.286
 20
-204.030
 30
4932.570
 70
    32
  0
VERTEX
  8
T03SSILL
 62
4
 10
18.389
 20
-197.995
 30
4932.570
 70
    32
  0
VERTEX
  8
T03SSILL
 62
4
 10
-32.708
 20
-221.473
 30
4932.570
 70
    32
  0
VERTEX
  8
T03SSILL
 62
4
 10
-39.466
 20
-209.680
 30
4932.570
 70
    32
  0
VERTEX
  8
T03SSILL
 62
4
 10
-87.758
 20
-232.240
 30
4932.570
 70
    32
  0
VERTEX
  8
T03SSILL
 62
4
 10
-96.759
 20
-230.600
 30
4932.570
 70
    32
  0
VERTEX
  8
T03SSILL
 62
4
 10
-108.461
 20
-231.019
 30
4932.570
 70
    32
  0
VERTEX
  8
T03SSILL
 62
4
 10
-172.857
 20
-114.886
 30
4932.570
 70
    32
  0
VERTEX
  8
T03SSILL
 62
4
 10
-212.833
 20
-39.042
 30
4932.570
 70
    32
  0
VERTEX
  8
T03SSILL
 62
4
 10
-155.426
 20
-15.622
 30
4932.570
 70
    32
  0
VERTEX
  8
T03SSILL
 62
4
 10
-157.886
 20
-9.405
 30
4932.570
 70
    32
  0
VERTEX
  8
T03SSILL
 62
4
 10
-216.072
 20
-32.833
 30
4932.570
 70
    32
  0
VERTEX
  8
T03SSILL
 62
4
 10
-490.427
 20
472.670
 30
4932.570
 70
    32
  0
VERTEX
  8
T03SSILL
 62
4
 10
-497.039
 20
477.000
 30
4932.570
 70
    32
  0
VERTEX
  8
T03SSILL
 62
4
 10
-508.387
 20
494.891
 30
4932.570
 70
    32
  0
VERTEX
  8
T03SSILL
 62
4
 10
-541.794
 20
555.564
 30
4932.570
 70
    32
  0
VERTEX
  8
T03SSILL
 62
4
 10
-550.199
 20
583.267
 30
4932.570
 70
    32
  0
VERTEX
  8
T03SSILL
 62
4
 10
-551.895
 20
593.276
 30
4932.570
 70
    32
  0
VERTEX
  8
T03SSILL
 62
4
 10
-548.313
 20
611.085
 30
4932.570
 70
    32
  0
VERTEX
  8
T03SSILL
 62
4
 10
-495.477
 20
668.594
 30
4932.570
 70
    32
  0
VERTEX
  8
T03SSILL
 62
4
 10
-487.977
 20
674.396
 30
4932.570
 70
    32
  0
VERTEX
  8
T03SSILL
 62
4
 10
-473.669
 20
677.109
 30
4932.570
 70
    32
  0
VERTEX
  8
T03SSILL
 62
4
 10
-485.964
 20
690.957
 30
4932.570
 70
    32
  0
VERTEX
  8
T03SSILL
 62
4
 10
-492.014
 20
681.388
 30
4932.570
 70
    32
  0
VERTEX
  8
T03SSILL
 62
4
 10
-545.263
 20
623.450
 30
4932.570
 70
    32
  0
VERTEX
  8
T03SSILL
 62
4
 10
-590.961
 20
614.852
 30
4932.570
 70
    32
  0
VERTEX
  8
T03SSILL
 62
4
 10
-606.870
 20
615.291
 30
4932.570
 70
    32
  0
VERTEX
  8
T03SSILL
 62
4
 10
-620.177
 20
618.221
 30
4932.570
 70
    32
  0
VERTEX
  8
T03SSILL
 62
4
 10
-767.025
 20
691.751
 30
4932.570
 70
    32
  0
VERTEX
  8
T03SSILL
 62
4
 10
-1169.309
 20
1302.369
 30
4932.570
 70
    32
  0
VERTEX
  8
T03SSILL
 62
4
 10
-1177.432
 20
1320.662
 30
4932.570
 70
    32
  0
VERTEX
  8
T03SSILL
 62
4
 10
-1184.375
 20
1327.973
 30
4932.570
 70
    32
  0
VERTEX
  8
T03SSILL
 62
4
 10
-1175.061
 20
1336.699
 30
4932.570
 70
    32
  0
VERTEX
  8
T03SSILL
 62
4
 10
-1179.235
 20
1340.170
 30
4932.570
 70
    32
  0
VERTEX
  8
T03SSILL
 62
4
 10
-1187.945
 20
1332.507
 30
4932.570
 70
    32
  0
VERTEX
  8
T03SSILL
 62
4
 10
-1192.267
 20
1333.514
 30
4932.570
 70
    32
  0
VERTEX
  8
T03SSILL
 62
4
 10
-1216.079
 20
1393.679
 30
4932.570
 70
    32
  0
VERTEX
  8
T03SSILL
 62
4
 10
-1220.544
 20
1391.781
 30
4932.570
 70
    32
  0
VERTEX
  8
T03SSILL
 62
4
 10
-1198.787
 20
1334.496
 30
4932.570
 70
    32
  0
VERTEX
  8
T03SSILL
 62
4
 10
-1303.197
 20
1357.336
 30
4932.570
 70
    32
  0
VERTEX
  8
T03SSILL
 62
4
 10
-1343.160
 20
1390.929
 30
4932.570
 70
    32
  0
VERTEX
  8
T03SSILL
 62
4
 10
-1352.365
 20
1400.790
 30
4932.570
 70
    32
  0
VERTEX
  8
T03SSILL
 62
4
 10
-1437.763
 20
1472.814
 30
4932.570
 70
    32
  0
VERTEX
  8
T03SSILL
 62
4
 10
-1473.403
 20
1536.878
 30
4932.570
 70
    32
  0
VERTEX
  8
T03SSILL
 62
4
 10
-1471.915
 20
1544.804
 30
4932.570
 70
    32
  0
VERTEX
  8
T03SSILL
 62
4
 10
-1416.952
 20
1610.548
 30
4932.570
 70
    32
  0
VERTEX
  8
T03SSILL
 62
4
 10
-1364.857
 20
1640.277
 30
4932.570
 70
    32
  0
VERTEX
  8
T03SSILL
 62
4
 10
-1367.768
 20
1645.116
 30
4932.570
 70
    32
  0
VERTEX
  8
T03SSILL
 62
4
 10
-1420.480
 20
1615.475
 30
4932.570
 70
    32
  0
VERTEX
  8
T03SSILL
 62
4
 10
-1413.981
 20
1632.212
 30
4932.570
 70
    32
  0
VERTEX
  8
T03SSILL
 62
4
 10
-1237.382
 20
1995.963
 30
4932.570
 70
    32
  0
VERTEX
  8
T03SSILL
 62
4
 10
-1236.243
 20
2000.895
 30
4932.570
 70
    32
  0
VERTEX
  8
T03SSILL
 62
4
 10
-1284.499
 20
2088.015
 30
4932.570
 70
    32
  0
VERTEX
  8
T03SSILL
 62
4
 10
-1301.046
 20
2081.746
 30
4932.570
 70
    32
  0
VERTEX
  8
T03SSILL
 62
4
 10
-1288.355
 20
2070.665
 30
4932.570
 70
    32
  0
VERTEX
  8
T03SSILL
 62
4
 10
-1285.092
 20
2066.266
 30
4932.570
 70
    32
  0
VERTEX
  8
T03SSILL
 62
4
 10
-1246.637
 20
2004.406
 30
4932.570
 70
    32
  0
VERTEX
  8
T03SSILL
 62
4
 10
-1244.958
 20
1998.685
 30
4932.570
 70
    32
  0
VERTEX
  8
T03SSILL
 62
4
 10
-1245.746
 20
1994.633
 30
4932.570
 70
    32
  0
VERTEX
  8
T03SSILL
 62
4
 10
-1430.865
 20
1611.414
 30
4932.570
 70
    32
  0
VERTEX
  8
T03SSILL
 62
4
 10
-1434.820
 20
1604.366
 30
4932.570
 70
    32
  0
VERTEX
  8
T03SSILL
 62
4
 10
-1475.178
 20
1549.995
 30
4932.570
 70
    32
  0
VERTEX
  8
T03SSILL
 62
4
 10
-1480.285
 20
1549.550
 30
4932.570
 70
    32
  0
VERTEX
  8
T03SSILL
 62
4
 10
-1498.545
 20
1581.581
 30
4932.570
 70
    32
  0
VERTEX
  8
T03SSILL
 62
4
 10
-1523.926
 20
2351.828
 30
4932.570
 70
    32
  0
VERTEX
  8
T03SSILL
 62
4
 10
-1530.000
 20
2351.117
 30
4932.570
 70
    32
  0
VERTEX
  8
T03SSILL
 62
4
 10
-1520.185
 20
2061.351
 30
4932.570
 70
    32
  0
VERTEX
  8
T03SSILL
 62
4
 10
-1524.050
 20
2052.717
 30
4932.570
 70
    32
  0
VERTEX
  8
T03SSILL
 62
4
 10
-1801.927
 20
1956.800
 30
4932.570
 70
    32
  0
VERTEX
  8
T03SSILL
 62
4
 10
-1831.602
 20
1944.470
 30
4932.570
 70
    32
  0
VERTEX
  8
T03SSILL
 62
4
 10
-3567.986
 20
1344.030
 30
4932.570
 70
    32
  0
VERTEX
  8
T03SSILL
 62
4
 10
-3576.032
 20
1347.118
 30
4932.570
 70
    32
  0
VERTEX
  8
T03SSILL
 62
4
 10
-3580.202
 20
1350.158
 30
4932.570
 70
    32
  0
VERTEX
  8
T03SSILL
 62
4
 10
-3610.084
 20
1438.720
 30
4932.570
 70
    32
  0
VERTEX
  8
T03SSILL
 62
4
 10
-3621.615
 20
1446.705
 30
4932.570
 70
    32
  0
VERTEX
  8
T03SSILL
 62
4
 10
-3635.919
 20
1450.258
 30
4932.570
 70
    32
  0
VERTEX
  8
T03SSILL
 62
4
 10
-3646.023
 20
1447.777
 30
4932.570
 70
    32
  0
VERTEX
  8
T03SSILL
 62
4
 10
-3670.939
 20
1438.275
 30
4932.570
 70
    32
  0
VERTEX
  8
T03SSILL
 62
4
 10
-3672.397
 20
1434.473
 30
4932.570
 70
    32
  0
VERTEX
  8
T03SSILL
 62
4
 10
-3668.576
 20
1431.165
 30
4932.570
 70
    32
  0
VERTEX
  8
T03SSILL
 62
4
 10
-3636.112
 20
1443.210
 30
4932.570
 70
    32
  0
VERTEX
  8
T03SSILL
 62
4
 10
-3627.201
 20
1441.716
 30
4932.570
 70
    32
  0
VERTEX
  8
T03SSILL
 62
4
 10
-3618.427
 20
1436.345
 30
4932.570
 70
    32
  0
VERTEX
  8
T03SSILL
 62
4
 10
-3614.589
 20
1431.364
 30
4932.570
 70
    32
  0
VERTEX
  8
T03SSILL
 62
4
 10
-3604.635
 20
1405.396
 30
4932.570
 70
    32
  0
VERTEX
  8
T03SSILL
 62
4
 10
-3606.074
 20
1399.656
 30
4932.570
 70
    32
  0
VERTEX
  8
T03SSILL
 62
4
 10
-3584.101
 20
1343.865
 30
4932.570
 70
    32
  0
VERTEX
  8
T03SSILL
 62
4
 10
-3591.149
 20
1335.426
 30
4932.570
 70
    32
  0
VERTEX
  8
T03SSILL
 62
4
 10
-3706.649
 20
1295.669
 30
4932.570
 70
    32
  0
VERTEX
  8
T03SSILL
 62
4
 10
-3705.789
 20
1289.072
 30
4932.570
 70
    32
  0
VERTEX
  8
T03SSILL
 62
4
 10
-3685.519
 20
1296.414
 30
4932.570
 70
    32
  0
VERTEX
  8
T03SSILL
 62
4
 10
-3720.139
 20
1081.510
 30
4932.570
 70
    32
  0
VERTEX
  8
T03SSILL
 62
4
 10
-3713.526
 20
1080.785
 30
4932.570
 70
    32
  0
VERTEX
  8
T03SSILL
 62
4
 10
-3710.695
 20
1096.843
 30
4932.570
 70
    32
  0
VERTEX
  8
T03SSILL
 62
4
 10
-3605.804
 20
1174.980
 30
4932.570
 70
    32
  0
VERTEX
  8
T03SSILL
 62
4
 10
-3591.157
 20
1172.400
 30
4932.570
 70
    32
  0
VERTEX
  8
T03SSILL
 62
4
 10
-3587.115
 20
1173.322
 30
4932.570
 70
    32
  0
VERTEX
  8
T03SSILL
 62
4
 10
-3583.745
 20
1179.698
 30
4932.570
 70
    32
  0
VERTEX
  8
T03SSILL
 62
4
 10
-3572.051
 20
1181.578
 30
4932.570
 70
    32
  0
VERTEX
  8
T03SSILL
 62
4
 10
-3549.626
 20
1176.347
 30
4932.570
 70
    32
  0
VERTEX
  8
T03SSILL
 62
4
 10
-3548.436
 20
1171.955
 30
4932.570
 70
    32
  0
VERTEX
  8
T03SSILL
 62
4
 10
-3656.182
 20
1088.681
 30
4932.570
 70
    32
  0
VERTEX
  8
T03SSILL
 62
4
 10
-3651.811
 20
1083.265
 30
4932.570
 70
    32
  0
VERTEX
  8
T03SSILL
 62
4
 10
-3609.772
 20
1115.049
 30
4932.570
 70
    32
  0
VERTEX
  8
T03SSILL
 62
4
 10
-3607.569
 20
1114.983
 30
4932.570
 70
    32
  0
VERTEX
  8
T03SSILL
 62
4
 10
-3606.188
 20
1109.097
 30
4932.570
 70
    32
  0
VERTEX
  8
T03SSILL
 62
4
 10
-3608.323
 20
1093.926
 30
4932.570
 70
    32
  0
VERTEX
  8
T03SSILL
 62
4
 10
-3614.241
 20
1069.733
 30
4932.570
 70
    32
  0
VERTEX
  8
T03SSILL
 62
4
 10
-3610.270
 20
1060.438
 30
4932.570
 70
    32
  0
VERTEX
  8
T03SSILL
 62
4
 10
-3605.484
 20
1057.492
 30
4932.570
 70
    32
  0
VERTEX
  8
T03SSILL
 62
4
 10
-3601.784
 20
1057.354
 30
4932.570
 70
    32
  0
VERTEX
  8
T03SSILL
 62
4
 10
-3597.259
 20
1062.772
 30
4932.570
 70
    32
  0
VERTEX
  8
T03SSILL
 62
4
 10
-3604.307
 20
1071.596
 30
4932.570
 70
    32
  0
VERTEX
  8
T03SSILL
 62
4
 10
-3605.861
 20
1077.129
 30
4932.570
 70
    32
  0
VERTEX
  8
T03SSILL
 62
4
 10
-3602.117
 20
1081.395
 30
4932.570
 70
    32
  0
VERTEX
  8
T03SSILL
 62
4
 10
-3598.087
 20
1083.462
 30
4932.570
 70
    32
  0
VERTEX
  8
T03SSILL
 62
4
 10
-3413.664
 20
1006.343
 30
4932.570
 70
    32
  0
VERTEX
  8
T03SSILL
 62
4
 10
-3411.268
 20
1013.237
 30
4932.570
 70
    32
  0
VERTEX
  8
T03SSILL
 62
4
 10
-3589.424
 20
1088.923
 30
4932.570
 70
    32
  0
VERTEX
  8
T03SSILL
 62
4
 10
-3597.726
 20
1099.847
 30
4932.570
 70
    32
  0
VERTEX
  8
T03SSILL
 62
4
 10
-3595.558
 20
1111.759
 30
4932.570
 70
    32
  0
VERTEX
  8
T03SSILL
 62
4
 10
-3597.026
 20
1117.557
 30
4932.570
 70
    32
  0
VERTEX
  8
T03SSILL
 62
4
 10
-3594.916
 20
1126.474
 30
4932.570
 70
    32
  0
VERTEX
  8
T03SSILL
 62
4
 10
-3546.238
 20
1163.699
 30
4932.570
 70
    32
  0
VERTEX
  8
T03SSILL
 62
4
 10
-3540.977
 20
1165.954
 30
4932.570
 70
    32
  0
VERTEX
  8
T03SSILL
 62
4
 10
-3538.429
 20
1175.228
 30
4932.570
 70
    32
  0
VERTEX
  8
T03SSILL
 62
4
 10
-3536.146
 20
1175.868
 30
4932.570
 70
    32
  0
VERTEX
  8
T03SSILL
 62
4
 10
-3525.550
 20
1173.246
 30
4932.570
 70
    32
  0
VERTEX
  8
T03SSILL
 62
4
 10
-3522.782
 20
1178.207
 30
4932.570
 70
    32
  0
VERTEX
  8
T03SSILL
 62
4
 10
-3536.181
 20
1179.303
 30
4932.570
 70
    32
  0
VERTEX
  8
T03SSILL
 62
4
 10
-3544.590
 20
1183.444
 30
4932.570
 70
    32
  0
VERTEX
  8
T03SSILL
 62
4
 10
-3564.114
 20
1215.128
 30
4932.570
 70
    32
  0
VERTEX
  8
T03SSILL
 62
4
 10
-3559.407
 20
1219.844
 30
4932.570
 70
    32
  0
VERTEX
  8
T03SSILL
 62
4
 10
-3552.494
 20
1224.318
 30
4932.570
 70
    32
  0
VERTEX
  8
T03SSILL
 62
4
 10
-3555.340
 20
1227.020
 30
4932.570
 70
    32
  0
VERTEX
  8
T03SSILL
 62
4
 10
-3564.010
 20
1222.175
 30
4932.570
 70
    32
  0
VERTEX
  8
T03SSILL
 62
4
 10
-3567.680
 20
1227.950
 30
4932.570
 70
    32
  0
VERTEX
  8
T03SSILL
 62
4
 10
-3586.002
 20
1322.972
 30
4932.570
 70
    32
  0
VERTEX
  8
T03SSILL
 62
4
 10
-3579.847
 20
1332.635
 30
4932.570
 70
    32
  0
VERTEX
  8
T03SSILL
 62
4
 10
-2774.881
 20
1612.041
 30
4932.570
 70
    32
  0
VERTEX
  8
T03SSILL
 62
4
 10
-2740.810
 20
1622.358
 30
4932.570
 70
    32
  0
VERTEX
  8
T03SSILL
 62
4
 10
-1830.814
 20
1937.016
 30
4932.570
 70
    32
  0
VERTEX
  8
T03SSILL
 62
4
 10
-1794.878
 20
1952.229
 30
4932.570
 70
    32
  0
VERTEX
  8
T03SSILL
 62
4
 10
-1524.482
 20
2044.968
 30
4932.570
 70
    32
  0
VERTEX
  8
T03SSILL
 62
4
 10
-1520.254
 20
2043.476
 30
4932.570
 70
    32
  0
VERTEX
  8
T03SSILL
 62
4
 10
-1503.615
 20
1546.531
 30
4932.570
 70
    32
  0
VERTEX
  8
T03SSILL
 62
4
 10
-1505.107
 20
1541.951
 30
4932.570
 70
    32
  0
VERTEX
  8
T03SSILL
 62
4
 10
-1508.449
 20
1538.161
 30
4932.570
 70
    32
  0
VERTEX
  8
T03SSILL
 62
4
 10
-1641.967
 20
1401.188
 30
4932.570
 70
    32
  0
VERTEX
  8
T03SSILL
 62
4
 10
-1634.130
 20
1400.756
 30
4932.570
 70
    32
  0
VERTEX
  8
T03SSILL
 62
4
 10
-1497.885
 20
1540.198
 30
4932.570
 70
    32
  0
VERTEX
  8
T03SSILL
 62
4
 10
-1496.654
 20
1542.048
 30
4932.570
 70
    32
  0
VERTEX
  8
T03SSILL
 62
4
 10
-1497.117
 20
1562.916
 30
4932.570
 70
    32
  0
VERTEX
  8
T03SSILL
 62
4
 10
-1494.827
 20
1562.918
 30
4932.570
 70
    32
  0
VERTEX
  8
T03SSILL
 62
4
 10
-1441.810
 20
1469.376
 30
4932.570
 70
    32
  0
VERTEX
  8
T03SSILL
 62
4
 10
-1439.341
 20
1466.032
 30
4932.570
 70
    32
  0
VERTEX
  8
T03SSILL
 62
4
 10
-1417.662
 20
1448.533
 30
4932.570
 70
    32
  0
VERTEX
  8
T03SSILL
 62
4
 10
-1411.536
 20
1401.520
 30
4932.570
 70
    32
  0
VERTEX
  8
T03SSILL
 62
4
 10
-1392.512
 20
1367.766
 30
4932.570
 70
    32
  0
VERTEX
  8
T03SSILL
 62
4
 10
-1366.356
 20
1341.670
 30
4932.570
 70
    32
  0
VERTEX
  8
T03SSILL
 62
4
 10
-1344.363
 20
1310.338
 30
4932.570
 70
    32
  0
VERTEX
  8
T03SSILL
 62
4
 10
-1344.050
 20
1305.943
 30
4932.570
 70
    32
  0
VERTEX
  8
T03SSILL
 62
4
 10
-1360.218
 20
1288.696
 30
4932.570
 70
    32
  0
VERTEX
  8
T03SSILL
 62
4
 10
-1365.244
 20
1289.783
 30
4932.570
 70
    32
  0
VERTEX
  8
T03SSILL
 62
4
 10
-1367.730
 20
1284.037
 30
4932.570
 70
    32
  0
VERTEX
  8
T03SSILL
 62
4
 10
-1308.145
 20
1242.132
 30
4932.570
 70
    32
  0
VERTEX
  8
T03SSILL
 62
4
 10
-1307.648
 20
1237.036
 30
4932.570
 70
    32
  0
VERTEX
  8
T03SSILL
 62
4
 10
-1358.466
 20
1195.647
 30
4932.570
 70
    32
  0
VERTEX
  8
T03SSILL
 62
4
 10
-1355.688
 20
1191.104
 30
4932.570
 70
    32
  0
VERTEX
  8
T03SSILL
 62
4
 10
-1303.654
 20
1233.914
 30
4932.570
 70
    32
  0
VERTEX
  8
T03SSILL
 62
4
 10
-1299.354
 20
1234.842
 30
4932.570
 70
    32
  0
VERTEX
  8
T03SSILL
 62
4
 10
-1292.522
 20
1229.641
 30
4932.570
 70
    32
  0
VERTEX
  8
T03SSILL
 62
4
 10
-1279.406
 20
1213.163
 30
4932.570
 70
    32
  0
VERTEX
  8
T03SSILL
 62
4
 10
-1270.136
 20
1178.960
 30
4932.570
 70
    32
  0
VERTEX
  8
T03SSILL
 62
4
 10
-1231.655
 20
1105.150
 30
4932.570
 70
    32
  0
VERTEX
  8
T03SSILL
 62
4
 10
-1228.273
 20
1101.582
 30
4932.570
 70
    32
  0
VERTEX
  8
T03SSILL
 62
4
 10
-1211.695
 20
1105.815
 30
4932.570
 70
    32
  0
VERTEX
  8
T03SSILL
 62
4
 10
-1206.388
 20
1095.495
 30
4932.570
 70
    32
  0
VERTEX
  8
T03SSILL
 62
4
 10
-1200.178
 20
1098.643
 30
4932.570
 70
    32
  0
VERTEX
  8
T03SSILL
 62
4
 10
-1112.217
 20
935.049
 30
4932.570
 70
    32
  0
VERTEX
  8
T03SSILL
 62
4
 10
-1117.360
 20
930.857
 30
4932.570
 70
    32
  0
VERTEX
  8
T03SSILL
 62
4
 10
-1120.116
 20
925.636
 30
4932.570
 70
    32
  0
VERTEX
  8
T03SSILL
 62
4
 10
-1247.696
 20
865.702
 30
4932.570
 70
    32
  0
VERTEX
  8
T03SSILL
 62
4
 10
-1246.228
 20
860.352
 30
4932.570
 70
    32
  0
VERTEX
  8
T03SSILL
 62
4
 10
-1109.807
 20
924.080
 30
4932.570
 70
    32
  0
VERTEX
  8
T03SSILL
 62
4
 10
-1097.159
 20
917.977
 30
4932.570
 70
    32
  0
VERTEX
  8
T03SSILL
 62
4
 10
-980.695
 20
699.549
 30
4932.570
 70
    32
  0
VERTEX
  8
T03SSILL
 62
4
 10
-985.854
 20
696.764
 30
4932.570
 70
    32
  0
VERTEX
  8
T03SSILL
 62
4
 10
-938.401
 20
607.397
 30
4932.570
 70
    32
  0
VERTEX
  8
T03SSILL
 62
4
 10
-938.187
 20
603.968
 30
4932.570
 70
    32
  0
VERTEX
  8
T03SSILL
 62
4
 10
-919.637
 20
573.741
 30
4932.570
 70
    32
  0
VERTEX
  8
T03SSILL
 62
4
 10
-919.902
 20
565.997
 30
4932.570
 70
    32
  0
VERTEX
  8
T03SSILL
 62
4
 10
-937.390
 20
556.651
 30
4932.570
 70
    32
  0
VERTEX
  8
T03SSILL
 62
4
 10
-942.244
 20
558.004
 30
4932.570
 70
    32
  0
VERTEX
  8
T03SSILL
 62
4
 10
-946.920
 20
567.100
 30
4932.570
 70
    32
  0
VERTEX
  8
T03SSILL
 62
4
 10
-951.550
 20
564.233
 30
4932.570
 70
    32
  0
VERTEX
  8
T03SSILL
 62
4
 10
-883.072
 20
423.938
 30
4932.570
 70
    32
  0
VERTEX
  8
T03SSILL
 62
4
 10
-883.429
 20
418.316
 30
4932.570
 70
    32
  0
VERTEX
  8
T03SSILL
 62
4
 10
-887.973
 20
409.421
 30
4932.570
 70
    32
  0
VERTEX
  8
T03SSILL
 62
4
 10
-1031.857
 20
195.303
 30
4932.570
 70
    32
  0
VERTEX
  8
T03SSILL
 62
4
 10
-1036.415
 20
190.894
 30
4932.570
 70
    32
  0
VERTEX
  8
T03SSILL
 62
4
 10
-1080.479
 20
158.471
 30
4932.570
 70
    32
  0
VERTEX
  8
T03SSILL
 62
4
 10
-1255.821
 20
30.874
 30
4932.570
 70
    32
  0
VERTEX
  8
T03SSILL
 62
4
 10
-1252.472
 20
25.982
 30
4932.570
 70
    32
  0
VERTEX
  8
T03SSILL
 62
4
 10
-1113.888
 20
126.927
 30
4932.570
 70
    32
  0
VERTEX
  8
T03SSILL
 62
4
 10
-1106.900
 20
124.085
 30
4932.570
 70
    32
  0
VERTEX
  8
T03SSILL
 62
4
 10
-974.135
 20
-73.766
 30
4932.570
 70
    32
  0
VERTEX
  8
T03SSILL
 62
4
 10
-983.302
 20
-80.385
 30
4932.570
 70
    32
  0
VERTEX
  8
T03SSILL
 62
4
 10
-984.582
 20
-93.994
 30
4932.570
 70
    32
  0
VERTEX
  8
T03SSILL
 62
4
 10
-1006.520
 20
-112.846
 30
4932.570
 70
    32
  0
VERTEX
  8
T03SSILL
 62
4
 10
-1002.035
 20
-117.800
 30
4932.570
 70
    32
  0
VERTEX
  8
T03SSILL
 62
4
 10
-980.445
 20
-99.075
 30
4932.570
 70
    32
  0
VERTEX
  8
T03SSILL
 62
4
 10
-976.923
 20
-98.781
 30
4932.570
 70
    32
  0
VERTEX
  8
T03SSILL
 62
4
 10
-973.361
 20
-101.390
 30
4932.570
 70
    32
  0
VERTEX
  8
T03SSILL
 62
4
 10
-967.653
 20
-101.836
 30
4932.570
 70
    32
  0
VERTEX
  8
T03SSILL
 62
4
 10
-962.941
 20
-98.748
 30
4932.570
 70
    32
  0
VERTEX
  8
T03SSILL
 62
4
 10
-961.022
 20
-94.383
 30
4932.570
 70
    32
  0
VERTEX
  8
T03SSILL
 62
4
 10
-964.858
 20
-87.021
 30
4932.570
 70
    32
  0
VERTEX
  8
T03SSILL
 62
4
 10
-963.420
 20
-85.198
 30
4932.570
 70
    32
  0
VERTEX
  8
T03SSILL
 62
4
 10
-715.132
 20
125.083
 30
4932.570
 70
    32
  0
VERTEX
  8
T03SSILL
 62
4
 10
-703.551
 20
128.849
 30
4932.570
 70
    32
  0
VERTEX
  8
T03SSILL
 62
4
 10
-695.049
 20
100.569
 30
4932.570
 70
    32
  0
VERTEX
  8
T03SSILL
 62
4
 10
-689.222
 20
101.967
 30
4932.570
 70
    32
  0
VERTEX
  8
T03SSILL
 62
4
 10
-670.381
 20
39.486
 30
4932.570
 70
    32
  0
VERTEX
  8
T03SSILL
 62
4
 10
-664.552
 20
41.060
 30
4932.570
 70
    32
  0
VERTEX
  8
T03SSILL
 62
4
 10
-662.983
 20
34.879
 30
4932.570
 70
    32
  0
VERTEX
  8
T03SSILL
 62
4
 10
-645.661
 20
40.132
 30
4932.570
 70
    32
  0
VERTEX
  8
T03SSILL
 62
4
 10
-644.081
 20
34.654
 30
4932.570
 70
    32
  0
VERTEX
  8
T03SSILL
 62
4
 10
-586.828
 20
51.031
 30
4932.570
 70
    32
  0
VERTEX
  8
T03SSILL
 62
4
 10
-580.673
 20
51.017
 30
4932.570
 70
    32
  0
VERTEX
  8
T03SSILL
 62
4
 10
-530.073
 20
69.175
 30
4932.570
 70
    32
  0
VERTEX
  8
T03SSILL
 62
4
 10
-524.487
 20
61.344
 30
4932.570
 70
    32
  0
VERTEX
  8
T03SSILL
 62
4
 10
-505.125
 20
9.142
 30
4932.570
 70
    32
  0
VERTEX
  8
T03SSILL
 62
4
 10
-511.994
 20
-7.452
 30
4932.570
 70
    32
  0
VERTEX
  8
T03SSILL
 62
4
 10
-530.587
 20
-20.423
 30
4932.570
 70
    32
  0
VERTEX
  8
T03SSILL
 62
4
 10
-536.215
 20
-9.778
 30
4932.570
 70
    32
  0
VERTEX
  8
T03SSILL
 62
4
 10
-551.573
 20
-18.581
 30
4932.570
 70
    32
  0
VERTEX
  8
T03SSILL
 62
4
 10
-566.608
 20
8.136
 30
4932.570
 70
    32
  0
VERTEX
  8
T03SSILL
 62
4
 10
-561.547
 20
11.130
 30
4932.570
 70
    32
  0
VERTEX
  8
T03SSILL
 62
4
 10
-581.953
 20
48.048
 30
4932.570
 70
    32
  0
VERTEX
  8
T03SSILL
 62
4
 10
-602.988
 20
36.261
 30
4932.570
 70
    32
  0
VERTEX
  8
T03SSILL
 62
4
 10
-591.727
 20
15.322
 30
4932.570
 70
    32
  0
VERTEX
  8
T03SSILL
 62
4
 10
-596.087
 20
12.229
 30
4932.570
 70
    32
  0
VERTEX
  8
T03SSILL
 62
4
 10
-582.185
 20
-13.854
 30
4932.570
 70
    32
  0
VERTEX
  8
T03SSILL
 62
4
 10
-587.249
 20
-17.024
 30
4932.570
 70
    32
  0
VERTEX
  8
T03SSILL
 62
4
 10
-581.968
 20
-27.312
 30
4932.570
 70
    32
  0
VERTEX
  8
T03SSILL
 62
4
 10
-586.934
 20
-29.868
 30
4932.570
 70
    32
  0
VERTEX
  8
T03SSILL
 62
4
 10
-583.774
 20
-35.548
 30
4932.570
 70
    32
  0
VERTEX
  8
T03SSILL
 62
4
 10
-589.185
 20
-38.360
 30
4932.570
 70
    32
  0
VERTEX
  8
T03SSILL
 62
4
 10
-562.619
 20
-85.669
 30
4932.570
 70
    32
  0
VERTEX
  8
T03SSILL
 62
4
 10
-552.153
 20
-80.214
 30
4932.570
 70
    32
  0
VERTEX
  8
T03SSILL
 62
4
 10
-547.395
 20
-95.594
 30
4932.570
 70
    32
  0
VERTEX
  8
T03SSILL
 62
4
 10
-549.168
 20
-101.808
 30
4932.570
 70
    32
  0
VERTEX
  8
T03SSILL
 62
4
 10
-589.949
 20
-127.032
 30
4932.570
 70
    32
  0
VERTEX
  8
T03SSILL
 62
4
 10
-608.711
 20
-152.633
 30
4932.570
 70
    32
  0
VERTEX
  8
T03SSILL
 62
4
 10
-637.928
 20
-371.772
 30
4932.570
 70
    32
  0
VERTEX
  8
T03SSILL
 62
4
 10
-642.667
 20
-379.493
 30
4932.570
 70
    32
  0
VERTEX
  8
T03SSILL
 62
4
 10
-650.261
 20
-384.348
 30
4932.570
 70
    32
  0
VERTEX
  8
T03SSILL
 62
4
 10
-656.847
 20
-385.580
 30
4932.570
 70
    32
  0
VERTEX
  8
T03SSILL
 62
4
 10
-671.287
 20
-385.331
 30
4932.570
 70
    32
  0
VERTEX
  8
T03SSILL
 62
4
 10
-683.381
 20
-382.763
 30
4932.570
 70
    32
  0
VERTEX
  8
T03SSILL
 62
4
 10
-692.958
 20
-377.433
 30
4932.570
 70
    32
  0
VERTEX
  8
T03SSILL
 62
4
 10
-695.494
 20
-398.593
 30
4932.570
 70
    32
  0
VERTEX
  8
T03SSILL
 62
4
 10
-666.603
 20
-393.280
 30
4932.570
 70
    32
  0
VERTEX
  8
T03SSILL
 62
4
 10
-445.187
 20
-375.372
 30
4932.570
 70
    32
  0
VERTEX
  8
T03SSILL
 62
4
 10
-437.562
 20
-379.408
 30
4932.570
 70
    32
  0
VERTEX
  8
T03SSILL
 62
4
 10
-417.697
 20
-430.200
 30
4932.570
 70
    32
  0
VERTEX
  8
T03SSILL
 62
4
 10
-422.405
 20
-493.203
 30
4932.570
 70
    32
  0
VERTEX
  8
T03SSILL
 62
4
 10
-413.457
 20
-530.672
 30
4932.570
 70
    32
  0
VERTEX
  8
T03SSILL
 62
4
 10
-293.450
 20
-764.288
 30
4932.570
 70
    32
  0
VERTEX
  8
T03SSILL
 62
4
 10
-344.747
 20
-819.019
 30
4932.570
 70
    32
  0
VERTEX
  8
T03SSILL
 62
4
 10
-349.395
 20
-820.313
 30
4932.570
 70
    32
  0
VERTEX
  8
T03SSILL
 62
4
 10
-363.508
 20
-811.610
 30
4932.570
 70
    32
  0
VERTEX
  8
T03SSILL
 62
4
 10
-365.725
 20
-817.009
 30
4932.570
 70
    32
  0
VERTEX
  8
T03SSILL
 62
4
 10
-351.575
 20
-828.529
 30
4932.570
 70
    32
  0
VERTEX
  8
T03SSILL
 62
4
 10
-356.676
 20
-842.153
 30
4932.570
 70
    32
  0
VERTEX
  8
T03SSILL
 62
4
 10
-352.232
 20
-845.351
 30
4932.570
 70
    32
  0
VERTEX
  8
T03SSILL
 62
4
 10
-345.201
 20
-837.863
 30
4932.570
 70
    32
  0
VERTEX
  8
T03SSILL
 62
4
 10
-341.566
 20
-839.839
 30
4932.570
 70
    32
  0
VERTEX
  8
T03SSILL
 62
4
 10
-330.588
 20
-851.137
 30
4932.570
 70
    32
  0
VERTEX
  8
T03SSILL
 62
4
 10
-324.516
 20
-844.366
 30
4932.570
 70
    32
  0
VERTEX
  8
T03SSILL
 62
4
 10
-334.863
 20
-834.117
 30
4932.570
 70
    32
  0
VERTEX
  8
T03SSILL
 62
4
 10
-340.079
 20
-825.823
 30
4932.570
 70
    32
  0
VERTEX
  8
T03SSILL
 62
4
 10
-292.973
 20
-773.701
 30
4932.570
 70
    32
  0
VERTEX
  8
T03SSILL
 62
4
 10
-289.113
 20
-772.681
 30
4932.570
 70
    32
  0
VERTEX
  8
T03SSILL
 62
4
 10
-206.704
 20
-932.765
 30
4932.570
 70
    32
  0
VERTEX
  8
T03SSILL
 62
4
 10
-185.641
 20
-970.514
 30
4932.570
 70
    32
  0
VERTEX
  8
T03SSILL
 62
4
 10
-85.973
 20
-1167.414
 30
4932.570
 70
    32
  0
VERTEX
  8
T03SSILL
 62
4
 10
-356.086
 20
-1252.374
 30
4932.570
 70
    32
  0
VERTEX
  8
T03SSILL
 62
4
 10
-354.380
 20
-1258.798
 30
4932.570
 70
    32
  0
VERTEX
  8
T03SSILL
 62
4
 10
-83.040
 20
-1172.511
 30
4932.570
 70
    32
  0
VERTEX
  8
T03SSILL
 62
4
 10
376.479
 20
-1755.016
 30
4932.570
 70
    32
  0
VERTEX
  8
T03SSILL
 62
4
 10
383.909
 20
-1760.707
 30
4932.570
 70
    32
  0
VERTEX
  8
T03SSILL
 62
4
 10
196.552
 20
-1829.837
 30
4932.570
 70
    32
  0
VERTEX
  8
T03SSILL
 62
4
 10
182.763
 20
-1832.284
 30
4932.570
 70
    32
  0
VERTEX
  8
T03SSILL
 62
4
 10
166.748
 20
-1836.811
 30
4932.570
 70
    32
  0
VERTEX
  8
T03SSILL
 62
4
 10
130.411
 20
-1849.134
 30
4932.570
 70
    32
  0
VERTEX
  8
T03SSILL
 62
4
 10
117.682
 20
-1827.590
 30
4932.570
 70
    32
  0
VERTEX
  8
T03SSILL
 62
4
 10
113.378
 20
-1832.179
 30
4932.570
 70
    32
  0
VERTEX
  8
T03SSILL
 62
4
 10
123.724
 20
-1851.086
 30
4932.570
 70
    32
  0
VERTEX
  8
T03SSILL
 62
4
 10
96.805
 20
-1862.066
 30
4932.570
 70
    32
  0
VERTEX
  8
T03SSILL
 62
4
 10
100.517
 20
-1868.133
 30
4932.570
 70
    32
  0
VERTEX
  8
T03SSILL
 62
4
 10
125.679
 20
-1859.094
 30
4932.570
 70
    32
  0
VERTEX
  8
T03SSILL
 62
4
 10
129.731
 20
-1859.789
 30
4932.570
 70
    32
  0
VERTEX
  8
T03SSILL
 62
4
 10
189.507
 20
-1932.031
 30
4932.570
 70
    32
  0
VERTEX
  8
T03SSILL
 62
4
 10
193.814
 20
-1928.675
 30
4932.570
 70
    32
  0
VERTEX
  8
T03SSILL
 62
4
 10
136.597
 20
-1858.805
 30
4932.570
 70
    32
  0
VERTEX
  8
T03SSILL
 62
4
 10
138.083
 20
-1854.311
 30
4932.570
 70
    32
  0
VERTEX
  8
T03SSILL
 62
4
 10
215.235
 20
-1830.186
 30
4932.570
 70
    32
  0
VERTEX
  8
T03SSILL
 62
4
 10
389.045
 20
-1765.793
 30
4932.570
 70
    32
  0
VERTEX
  8
T03SSILL
 62
4
 10
569.576
 20
-1599.146
 30
4932.570
 70
    32
  0
VERTEX
  8
T03SSILL
 62
4
 10
574.772
 20
-1598.415
 30
4932.570
 70
    32
  0
VERTEX
  8
T03SSILL
 62
4
 10
604.667
 20
-1620.826
 30
4932.570
 70
    32
  0
VERTEX
  8
T03SSILL
 62
4
 10
618.589
 20
-1620.582
 30
4932.570
 70
    32
  0
VERTEX
  8
T03SSILL
 62
4
 10
621.693
 20
-1624.444
 30
4932.570
 70
    32
  0
VERTEX
  8
T03SSILL
 62
4
 10
628.120
 20
-1659.132
 30
4932.570
 70
    32
  0
VERTEX
  8
T03SSILL
 62
4
 10
650.560
 20
-1688.541
 30
4932.570
 70
    32
  0
VERTEX
  8
T03SSILL
 62
4
 10
651.687
 20
-1720.348
 30
4932.570
 70
    32
  0
VERTEX
  8
T03SSILL
 62
4
 10
689.583
 20
-1756.995
 30
4932.570
 70
    32
  0
VERTEX
  8
T03SSILL
 62
4
 10
743.439
 20
-1831.104
 30
4932.570
 70
    32
  0
VERTEX
  8
T03SSILL
 62
4
 10
781.003
 20
-1879.078
 30
4932.570
 70
    32
  0
VERTEX
  8
T03SSILL
 62
4
 10
807.362
 20
-1892.578
 30
4932.570
 70
    32
  0
VERTEX
  8
T03SSILL
 62
4
 10
849.428
 20
-1882.972
 30
4932.570
 70
    32
  0
VERTEX
  8
T03SSILL
 62
4
 10
852.866
 20
-1884.549
 30
4932.570
 70
    32
  0
VERTEX
  8
T03SSILL
 62
4
 10
870.818
 20
-1918.584
 30
4932.570
 70
    32
  0
VERTEX
  8
T03SSILL
 62
4
 10
908.248
 20
-1999.153
 30
4932.570
 70
    32
  0
VERTEX
  8
T03SSILL
 62
4
 10
907.726
 20
-2001.532
 30
4932.570
 70
    32
  0
VERTEX
  8
T03SSILL
 62
4
 10
852.872
 20
-2041.017
 30
4932.570
 70
    32
  0
VERTEX
  8
T03SSILL
 62
4
 10
846.530
 20
-2040.239
 30
4932.570
 70
    32
  0
VERTEX
  8
T03SSILL
 62
4
 10
840.781
 20
-2028.717
 30
4932.570
 70
    32
  0
VERTEX
  8
T03SSILL
 62
4
 10
835.591
 20
-2030.930
 30
4932.570
 70
    32
  0
VERTEX
  8
T03SSILL
 62
4
 10
832.937
 20
-2025.565
 30
4932.570
 70
    32
  0
VERTEX
  8
T03SSILL
 62
4
 10
827.748
 20
-2028.131
 30
4932.570
 70
    32
  0
VERTEX
  8
T03SSILL
 62
4
 10
825.182
 20
-2022.853
 30
4932.570
 70
    32
  0
VERTEX
  8
T03SSILL
 62
4
 10
820.168
 20
-2025.066
 30
4932.570
 70
    32
  0
VERTEX
  8
T03SSILL
 62
4
 10
833.091
 20
-2054.270
 30
4932.570
 70
    32
  0
VERTEX
  8
T03SSILL
 62
4
 10
433.738
 20
-2344.873
 30
4932.570
 70
    32
  0
VERTEX
  8
T03SSILL
 62
4
 10
429.588
 20
-2339.776
 30
4932.570
 70
    32
  0
VERTEX
  8
T03SSILL
 62
4
 10
404.103
 20
-2284.450
 30
4932.570
 70
    32
  0
VERTEX
  8
T03SSILL
 62
4
 10
397.633
 20
-2266.238
 30
4932.570
 70
    32
  0
VERTEX
  8
T03SSILL
 62
4
 10
391.996
 20
-2265.370
 30
4932.570
 70
    32
  0
VERTEX
  8
T03SSILL
 62
4
 10
387.586
 20
-2262.298
 30
4932.570
 70
    32
  0
VERTEX
  8
T03SSILL
 62
4
 10
376.076
 20
-2272.891
 30
4932.570
 70
    32
  0
VERTEX
  8
T03SSILL
 62
4
 10
382.436
 20
-2281.681
 30
4932.570
 70
    32
  0
VERTEX
  8
T03SSILL
 62
4
 10
385.728
 20
-2296.555
 30
4932.570
 70
    32
  0
VERTEX
  8
T03SSILL
 62
4
 10
388.736
 20
-2303.064
 30
4932.570
 70
    32
  0
VERTEX
  8
T03SSILL
 62
4
 10
389.306
 20
-2321.113
 30
4932.570
 70
    32
  0
VERTEX
  8
T03SSILL
 62
4
 10
390.731
 20
-2328.330
 30
4932.570
 70
    32
  0
VERTEX
  8
T03SSILL
 62
4
 10
401.938
 20
-2338.782
 30
4932.570
 70
    32
  0
VERTEX
  8
T03SSILL
 62
4
 10
412.894
 20
-2355.487
 30
4932.570
 70
    32
  0
VERTEX
  8
T03SSILL
 62
4
 10
360.390
 20
-2382.639
 30
4932.570
 70
    32
  0
VERTEX
  8
T03SSILL
 62
4
 10
357.321
 20
-2388.193
 30
4932.570
 70
    32
  0
VERTEX
  8
T03SSILL
 62
4
 10
344.238
 20
-2442.639
 30
4932.570
 70
    32
  0
VERTEX
  8
T03SSILL
 62
4
 10
353.620
 20
-2502.492
 30
4932.570
 70
    32
  0
VERTEX
  8
T03SSILL
 62
4
 10
351.785
 20
-2508.484
 30
4932.570
 70
    32
  0
VERTEX
  8
T03SSILL
 62
4
 10
36.152
 20
-2714.455
 30
4932.570
 70
    32
  0
VERTEX
  8
T03SSILL
 62
4
 10
-106.702
 20
-2806.311
 30
4932.570
 70
    32
  0
VERTEX
  8
T03SSILL
 62
4
 10
-103.116
 20
-2812.917
 30
4932.570
 70
    32
  0
VERTEX
  8
T03SSILL
 62
4
 10
22.347
 20
-2731.337
 30
4932.570
 70
    32
  0
VERTEX
  8
T03SSILL
 62
4
 10
346.223
 20
-3227.908
 30
4932.570
 70
    32
  0
VERTEX
  8
T03SSILL
 62
4
 10
362.487
 20
-3234.986
 30
4932.570
 70
    32
  0
VERTEX
  8
T03SSILL
 62
4
 10
986.487
 20
-3564.288
 30
4932.570
 70
    32
  0
VERTEX
  8
T03SSILL
 62
4
 10
1047.207
 20
-3594.603
 30
4932.570
 70
    32
  0
VERTEX
  8
T03SSILL
 62
4
 10
1328.568
 20
-3704.407
 30
4932.570
 70
    32
  0
VERTEX
  8
T03SSILL
 62
4
 10
1376.247
 20
-3725.371
 30
4932.570
 70
    32
  0
VERTEX
  8
T03SSILL
 62
4
 10
1428.471
 20
-3746.367
 30
4932.570
 70
    32
  0
VERTEX
  8
T03SSILL
 62
4
 10
1764.541
 20
-3879.097
 30
4932.570
 70
    32
  0
VERTEX
  8
T03SSILL
 62
4
 10
1767.434
 20
-3882.191
 30
4932.570
 70
    32
  0
VERTEX
  8
T03SSILL
 62
4
 10
1767.503
 20
-3884.916
 30
4932.570
 70
    32
  0
VERTEX
  8
T03SSILL
 62
4
 10
1734.207
 20
-3959.824
 30
4932.570
 70
    32
  0
VERTEX
  8
T03SSILL
 62
4
 10
1740.507
 20
-3961.952
 30
4932.570
 70
    32
  0
VERTEX
  8
T03SSILL
 62
4
 10
1772.857
 20
-3887.948
 30
4932.570
 70
    32
  0
VERTEX
  8
T03SSILL
 62
4
 10
1774.973
 20
-3884.640
 30
4932.570
 70
    32
  0
VERTEX
  8
T03SSILL
 62
4
 10
1779.109
 20
-3884.711
 30
4932.570
 70
    32
  0
VERTEX
  8
T03SSILL
 62
4
 10
1952.677
 20
-3951.318
 30
4932.570
 70
    32
  0
VERTEX
  8
T03SSILL
 62
4
 10
1960.177
 20
-3966.171
 30
4932.570
 70
    32
  0
VERTEX
  8
T03SSILL
 62
4
 10
1965.689
 20
-3964.976
 30
4932.570
 70
    32
  0
VERTEX
  8
T03SSILL
 62
4
 10
1962.817
 20
-3959.243
 30
4932.570
 70
    32
  0
VERTEX
  8
T03SSILL
 62
4
 10
1962.444
 20
-3954.942
 30
4932.570
 70
    32
  0
VERTEX
  8
T03SSILL
 62
4
 10
2152.374
 20
-4028.525
 30
4932.570
 70
    32
  0
VERTEX
  8
T03SSILL
 62
4
 10
2355.619
 20
-4054.622
 30
4932.570
 70
    32
  0
VERTEX
  8
T03SSILL
 62
4
 10
2368.574
 20
-4057.819
 30
4932.570
 70
    32
  0
VERTEX
  8
T03SSILL
 62
4
 10
2400.338
 20
-4072.357
 30
4932.570
 70
    32
  0
VERTEX
  8
T03SSILL
 62
4
 10
2661.672
 20
-4289.833
 30
4932.570
 70
    32
  0
VERTEX
  8
T03SSILL
 62
4
 10
2665.805
 20
-4293.273
 30
4932.570
 70
    32
  0
VERTEX
  8
T03SSILL
 62
4
 10
2669.791
 20
-4293.145
 30
4932.570
 70
    32
  0
VERTEX
  8
T03SSILL
 62
4
 10
2657.858
 20
-4304.087
 30
4932.570
 70
    32
  0
VERTEX
  8
T03SSILL
 62
4
 10
2388.898
 20
-4550.704
 30
4932.570
 70
    32
  0
VERTEX
  8
T03SSILL
 62
4
 10
2380.032
 20
-4551.591
 30
4932.570
 70
    32
  0
VERTEX
  8
T03SSILL
 62
4
 10
2364.387
 20
-4562.665
 30
4932.570
 70
    32
  0
VERTEX
  8
T03SSILL
 62
4
 10
2362.014
 20
-4566.971
 30
4932.570
 70
    32
  0
VERTEX
  8
T03SSILL
 62
4
 10
2360.126
 20
-4577.086
 30
4932.570
 70
    32
  0
VERTEX
  8
T03SSILL
 62
4
 10
2324.574
 20
-4609.685
 30
4932.570
 70
    32
  0
VERTEX
  8
T03SSILL
 62
4
 10
2320.355
 20
-4611.707
 30
4932.570
 70
    32
  0
VERTEX
  8
T03SSILL
 62
4
 10
2170.944
 20
-4610.828
 30
4932.570
 70
    32
  0
VERTEX
  8
T03SSILL
 62
4
 10
2156.970
 20
-4603.357
 30
4932.570
 70
    32
  0
VERTEX
  8
T03SSILL
 62
4
 10
2143.698
 20
-4603.533
 30
4932.570
 70
    32
  0
VERTEX
  8
T03SSILL
 62
4
 10
2145.105
 20
-4623.748
 30
4932.570
 70
    32
  0
VERTEX
  8
T03SSILL
 62
4
 10
2157.585
 20
-4623.923
 30
4932.570
 70
    32
  0
VERTEX
  8
T03SSILL
 62
4
 10
2168.659
 20
-4618.211
 30
4932.570
 70
    32
  0
VERTEX
  8
T03SSILL
 62
4
 10
2324.134
 20
-4619.529
 30
4932.570
 70
    32
  0
VERTEX
  8
T03SSILL
 62
4
 10
2715.152
 20
-4982.422
 30
4932.570
 70
    32
  0
VERTEX
  8
T03SSILL
 62
4
 10
2714.361
 20
-4986.553
 30
4932.570
 70
    32
  0
VERTEX
  8
T03SSILL
 62
4
 10
2723.765
 20
-4976.973
 30
4932.570
 70
    32
  0
VERTEX
  8
T03SSILL
 62
4
 10
2719.986
 20
-4977.061
 30
4932.570
 70
    32
  0
VERTEX
  8
T03SSILL
 62
4
 10
2329.496
 20
-4614.695
 30
4932.570
 70
    32
  0
VERTEX
  8
T03SSILL
 62
4
 10
2674.500
 20
-4297.947
 30
4932.570
 70
    32
  0
VERTEX
  8
T03SSILL
 62
4
 10
2677.978
 20
-4294.754
 30
4932.570
 70
    32
  0
VERTEX
  8
T03SSILL
 62
4
 10
2680.253
 20
-4292.665
 30
4932.570
 70
    32
  0
VERTEX
  8
T03SSILL
 62
4
 10
2686.389
 20
-4292.369
 30
4932.570
 70
    32
  0
VERTEX
  8
T03SSILL
 62
4
 10
3220.800
 20
-4268.910
 30
4932.570
 70
    32
  0
VERTEX
  8
T03SSILL
 62
4
 10
3223.447
 20
-4274.269
 30
4932.570
 70
    32
  0
VERTEX
  8
T03SSILL
 62
4
 10
3222.010
 20
-4256.951
 30
4932.570
 70
    32
  0
VERTEX
  8
T03SSILL
 62
4
 10
3220.702
 20
-4263.283
 30
4932.570
 70
    32
  0
VERTEX
  8
T03SSILL
 62
4
 10
3050.678
 20
-4270.528
 30
4932.570
 70
    32
  0
VERTEX
  8
T03SSILL
 62
4
 10
3047.507
 20
-4267.281
 30
4932.570
 70
    32
  0
VERTEX
  8
T03SSILL
 62
4
 10
3018.095
 20
-4140.816
 30
4932.570
 70
    32
  0
VERTEX
  8
T03SSILL
 62
4
 10
3011.855
 20
-4142.058
 30
4932.570
 70
    32
  0
VERTEX
  8
T03SSILL
 62
4
 10
3017.973
 20
-4171.148
 30
4932.570
 70
    32
  0
VERTEX
  8
T03SSILL
 62
4
 10
2946.498
 20
-4173.648
 30
4932.570
 70
    32
  0
VERTEX
  8
T03SSILL
 62
4
 10
2946.687
 20
-4180.681
 30
4932.570
 70
    32
  0
VERTEX
  8
T03SSILL
 62
4
 10
3018.424
 20
-4177.741
 30
4932.570
 70
    32
  0
VERTEX
  8
T03SSILL
 62
4
 10
3020.626
 20
-4180.024
 30
4932.570
 70
    32
  0
VERTEX
  8
T03SSILL
 62
4
 10
3042.238
 20
-4270.631
 30
4932.570
 70
    32
  0
VERTEX
  8
T03SSILL
 62
4
 10
2720.379
 20
-4284.347
 30
4932.570
 70
    32
  0
VERTEX
  8
T03SSILL
 62
4
 10
2687.630
 20
-4285.892
 30
4932.570
 70
    32
  0
VERTEX
  8
T03SSILL
 62
4
 10
2689.381
 20
-4284.285
 30
4932.570
 70
    32
  0
VERTEX
  8
T03SSILL
 62
4
 10
2699.363
 20
-4275.120
 30
4932.570
 70
    32
  0
VERTEX
  8
T03SSILL
 62
4
 10
3080.682
 20
-3925.031
 30
4932.570
 70
    32
  0
VERTEX
  8
T03SSILL
 62
4
 10
3075.760
 20
-3920.900
 30
4932.570
 70
    32
  0
VERTEX
  8
T03SSILL
 62
4
 10
2698.687
 20
-4266.650
 30
4932.570
 70
    32
  0
VERTEX
  8
T03SSILL
 62
4
 10
2677.207
 20
-4286.345
 30
4932.570
 70
    32
  0
VERTEX
  8
T03SSILL
 62
4
 10
2667.815
 20
-4286.587
 30
4932.570
 70
    32
  0
VERTEX
  8
T03SSILL
 62
4
 10
2403.493
 20
-4066.637
 30
4932.570
 70
    32
  0
VERTEX
  8
T03SSILL
 62
4
 10
2370.496
 20
-4050.957
 30
4932.570
 70
    32
  0
VERTEX
  8
T03SSILL
 62
4
 10
2155.034
 20
-4022.388
 30
4932.570
 70
    32
  0
VERTEX
  8
T03SSILL
 62
4
 10
1430.175
 20
-3739.492
 30
4932.570
 70
    32
  0
VERTEX
  8
T03SSILL
 62
4
 10
1468.211
 20
-3048.569
 30
4932.570
 70
    32
  0
VERTEX
  8
T03SSILL
 62
4
 10
1476.885
 20
-3040.780
 30
4932.570
 70
    32
  0
VERTEX
  8
T03SSILL
 62
4
 10
1486.360
 20
-3034.923
 30
4932.570
 70
    32
  0
VERTEX
  8
T03SSILL
 62
4
 10
1499.808
 20
-3031.333
 30
4932.570
 70
    32
  0
VERTEX
  8
T03SSILL
 62
4
 10
1518.104
 20
-3029.304
 30
4932.570
 70
    32
  0
VERTEX
  8
T03SSILL
 62
4
 10
1528.178
 20
-3037.262
 30
4932.570
 70
    32
  0
VERTEX
  8
T03SSILL
 62
4
 10
1532.700
 20
-3043.839
 30
4932.570
 70
    32
  0
VERTEX
  8
T03SSILL
 62
4
 10
1532.548
 20
-3048.505
 30
4932.570
 70
    32
  0
VERTEX
  8
T03SSILL
 62
4
 10
1512.718
 20
-3060.400
 30
4932.570
 70
    32
  0
VERTEX
  8
T03SSILL
 62
4
 10
1521.512
 20
-3076.109
 30
4932.570
 70
    32
  0
VERTEX
  8
T03SSILL
 62
4
 10
1571.468
 20
-3052.091
 30
4932.570
 70
    32
  0
VERTEX
  8
T03SSILL
 62
4
 10
1569.602
 20
-3048.668
 30
4932.570
 70
    32
  0
VERTEX
  8
T03SSILL
 62
4
 10
1594.727
 20
-3039.386
 30
4932.570
 70
    32
  0
VERTEX
  8
T03SSILL
 62
4
 10
1905.797
 20
-2908.068
 30
4932.570
 70
    32
  0
VERTEX
  8
T03SSILL
 62
4
 10
1967.524
 20
-2913.913
 30
4932.570
 70
    32
  0
VERTEX
  8
T03SSILL
 62
4
 10
2131.685
 20
-3038.053
 30
4932.570
 70
    32
  0
VERTEX
  8
T03SSILL
 62
4
 10
2170.996
 20
-3069.670
 30
4932.570
 70
    32
  0
VERTEX
  8
T03SSILL
 62
4
 10
2799.231
 20
-3542.728
 30
4932.570
 70
    32
  0
VERTEX
  8
T03SSILL
 62
4
 10
2996.937
 20
-3694.264
 30
4932.570
 70
    32
  0
VERTEX
  8
T03SSILL
 62
4
 10
2995.002
 20
-3697.229
 30
4932.570
 70
    32
  0
VERTEX
  8
T03SSILL
 62
4
 10
3044.398
 20
-3746.182
 30
4932.570
 70
    32
  0
VERTEX
  8
T03SSILL
 62
4
 10
3043.412
 20
-3748.501
 30
4932.570
 70
    32
  0
SEQEND
  8
T03SSILL
  0
POLYLINE
  8
T03SSILL
 62
3
 66
     1
 70
     9
  0
VERTEX
  8
T03SSILL
 62
3
 10
4419.930
 20
-5517.177
 30
4952.000
 70
    32
  0
VERTEX
  8
T03SSILL
 62
3
 10
3778.594
 20
-5253.450
 30
4952.000
 70
    32
  0
VERTEX
  8
T03SSILL
 62
3
 10
3776.739
 20
-5248.606
 30
4952.000
 70
    32
  0
VERTEX
  8
T03SSILL
 62
3
 10
3772.434
 20
-5260.593
 30
4952.000
 70
    32
  0
VERTEX
  8
T03SSILL
 62
3
 10
3776.221
 20
-5259.091
 30
4952.000
 70
    32
  0
VERTEX
  8
T03SSILL
 62
3
 10
4416.589
 20
-5524.141
 30
4952.000
 70
    32
  0
SEQEND
  8
T03SSILL
  0
TEXT
  8
T03SSILL
 62
3
 10
3963.381
 20
-5321.158
 30
0.000
 40
10.655
  1
EAST DRIFT FROM O.H.
 50
336.941
 41
 1.0 
  0
TEXT
  8
T03SSILL
 62
1
 10
3951.558
 20
-5367.160
 30
1000.000
 40
1.969
  1
EST ELEV 4952-PURPOSE OF DRIFT ???
 50
90.000
 41
 1.0 
  0
ENDSEC
  0
EOF
