999
********************************
999
*   DXF File - Entities Only   *
999
*        3D Data Format        *
999
*     Output from ENVISAGE     *
999
*     20-Dec-2007 15:25:32     *
999
********************************
  0
SECTION 
  2
HEADER
  9
$ACADVER
  1
AC1009
  9
$EXTMIN
 10
-290000.000
 20
-250000.000
 30
-4000.000
  9
$EXTMAX
 10
5000000.000
 20
600000.000
 30
6000.000
  0
ENDSEC
  0
SECTION
  2
ENTITIES
  0
POLYLINE
  8
T30SSILL
 62
4
 66
     1
 70
     9
  0
VERTEX
  8
T30SSILL
 62
4
 10
713.892
 20
-3521.161
 30
2184.941
 70
    32
  0
VERTEX
  8
T30SSILL
 62
4
 10
693.508
 20
-3535.662
 30
2184.447
 70
    32
  0
VERTEX
  8
T30SSILL
 62
4
 10
699.769
 20
-3544.879
 30
2184.639
 70
    32
  0
VERTEX
  8
T30SSILL
 62
4
 10
720.487
 20
-3530.139
 30
2185.140
 70
    32
  0
SEQEND
  8
T30SSILL
  0
POLYLINE
  8
T30SSILL
 62
4
 66
     1
 70
     9
  0
VERTEX
  8
T30SSILL
 62
4
 10
484.589
 20
-3364.310
 30
2185.109
 70
    32
  0
VERTEX
  8
T30SSILL
 62
4
 10
467.900
 20
-3376.282
 30
2185.339
 70
    32
  0
VERTEX
  8
T30SSILL
 62
4
 10
476.985
 20
-3388.675
 30
2185.045
 70
    32
  0
VERTEX
  8
T30SSILL
 62
4
 10
485.508
 20
-3377.961
 30
2184.969
 70
    32
  0
SEQEND
  8
T30SSILL
  0
POLYLINE
  8
T30SSILL
 62
4
 66
     1
 70
     9
  0
VERTEX
  8
T30SSILL
 62
4
 10
622.292
 20
-3494.132
 30
2182.455
 70
    32
  0
VERTEX
  8
T30SSILL
 62
4
 10
625.225
 20
-3492.043
 30
2182.526
 70
    32
  0
VERTEX
  8
T30SSILL
 62
4
 10
631.802
 20
-3501.441
 30
2182.726
 70
    32
  0
VERTEX
  8
T30SSILL
 62
4
 10
629.069
 20
-3503.408
 30
2182.660
 70
    32
  0
SEQEND
  8
T30SSILL
  0
POLYLINE
  8
T30SSILL
 62
4
 66
     1
 70
     9
  0
VERTEX
  8
T30SSILL
 62
4
 10
1045.560
 20
-3372.756
 30
2183.475
 70
    32
  0
VERTEX
  8
T30SSILL
 62
4
 10
1089.629
 20
-3380.478
 30
2183.766
 70
    32
  0
VERTEX
  8
T30SSILL
 62
4
 10
1062.129
 20
-3399.971
 30
2183.514
 70
    32
  0
VERTEX
  8
T30SSILL
 62
4
 10
1043.619
 20
-3374.590
 30
2183.456
 70
    32
  0
SEQEND
  8
T30SSILL
  0
POLYLINE
  8
T30SSILL
 62
4
 66
     1
 70
     9
  0
VERTEX
  8
T30SSILL
 62
4
 10
2277.623
 20
-5046.595
 30
2182.730
 70
    32
  0
VERTEX
  8
T30SSILL
 62
4
 10
2277.654
 20
-5046.597
 30
2182.730
 70
    32
  0
SEQEND
  8
T30SSILL
  0
POLYLINE
  8
T30SSILL
 62
4
 66
     1
 70
     9
  0
VERTEX
  8
T30SSILL
 62
4
 10
3134.166
 20
-4680.351
 30
2182.878
 70
    32
  0
VERTEX
  8
T30SSILL
 62
4
 10
3113.405
 20
-4695.127
 30
2182.858
 70
    32
  0
VERTEX
  8
T30SSILL
 62
4
 10
3123.233
 20
-4708.955
 30
2182.863
 70
    32
  0
VERTEX
  8
T30SSILL
 62
4
 10
3130.373
 20
-4709.024
 30
2182.868
 70
    32
  0
VERTEX
  8
T30SSILL
 62
4
 10
3140.112
 20
-4702.001
 30
2182.878
 70
    32
  0
VERTEX
  8
T30SSILL
 62
4
 10
3138.015
 20
-4684.499
 30
2182.881
 70
    32
  0
VERTEX
  8
T30SSILL
 62
4
 10
3136.791
 20
-4682.031
 30
2182.880
 70
    32
  0
SEQEND
  8
T30SSILL
  0
POLYLINE
  8
T30SSILL
 62
4
 66
     1
 70
     9
  0
VERTEX
  8
T30SSILL
 62
4
 10
3150.109
 20
-4448.251
 30
2182.866
 70
    32
  0
VERTEX
  8
T30SSILL
 62
4
 10
3159.909
 20
-4441.326
 30
2182.875
 70
    32
  0
VERTEX
  8
T30SSILL
 62
4
 10
3163.375
 20
-4446.223
 30
2182.882
 70
    32
  0
VERTEX
  8
T30SSILL
 62
4
 10
3173.175
 20
-4439.298
 30
2182.891
 70
    32
  0
VERTEX
  8
T30SSILL
 62
4
 10
3180.108
 20
-4449.093
 30
2182.906
 70
    32
  0
VERTEX
  8
T30SSILL
 62
4
 10
3165.408
 20
-4459.480
 30
2182.892
 70
    32
  0
VERTEX
  8
T30SSILL
 62
4
 10
3161.942
 20
-4454.583
 30
2182.885
 70
    32
  0
VERTEX
  8
T30SSILL
 62
4
 10
3157.041
 20
-4458.046
 30
2182.880
 70
    32
  0
SEQEND
  8
T30SSILL
  0
POLYLINE
  8
T30SSILL
 62
4
 66
     1
 70
     9
  0
VERTEX
  8
T30SSILL
 62
4
 10
1759.560
 20
-4286.909
 30
2184.415
 70
    32
  0
VERTEX
  8
T30SSILL
 62
4
 10
1754.946
 20
-4289.672
 30
2184.392
 70
    32
  0
VERTEX
  8
T30SSILL
 62
4
 10
1754.903
 20
-4291.528
 30
2184.386
 70
    32
  0
VERTEX
  8
T30SSILL
 62
4
 10
1749.725
 20
-4296.513
 30
2184.353
 70
    32
  0
VERTEX
  8
T30SSILL
 62
4
 10
1747.268
 20
-4289.948
 30
2184.370
 70
    32
  0
VERTEX
  8
T30SSILL
 62
4
 10
1745.480
 20
-4278.244
 30
2184.408
 70
    32
  0
VERTEX
  8
T30SSILL
 62
4
 10
1740.577
 20
-4280.042
 30
2184.388
 70
    32
  0
VERTEX
  8
T30SSILL
 62
4
 10
1735.681
 20
-4289.349
 30
2184.341
 70
    32
  0
VERTEX
  8
T30SSILL
 62
4
 10
1737.015
 20
-4293.291
 30
2184.330
 70
    32
  0
VERTEX
  8
T30SSILL
 62
4
 10
1737.787
 20
-4304.658
 30
2184.291
 70
    32
  0
VERTEX
  8
T30SSILL
 62
4
 10
1924.778
 20
-4520.227
 30
2183.724
 70
    32
  0
VERTEX
  8
T30SSILL
 62
4
 10
1930.292
 20
-4521.882
 30
2183.699
 70
    32
  0
VERTEX
  8
T30SSILL
 62
4
 10
1936.042
 20
-4520.897
 30
2183.674
 70
    32
  0
VERTEX
  8
T30SSILL
 62
4
 10
2006.428
 20
-4461.797
 30
2183.616
 70
    32
  0
VERTEX
  8
T30SSILL
 62
4
 10
2010.922
 20
-4460.222
 30
2183.609
 70
    32
  0
VERTEX
  8
T30SSILL
 62
4
 10
2016.910
 20
-4460.588
 30
2183.591
 70
    32
  0
VERTEX
  8
T30SSILL
 62
4
 10
2067.437
 20
-4468.629
 30
2183.434
 70
    32
  0
VERTEX
  8
T30SSILL
 62
4
 10
1499.790
 20
-3763.586
 30
2185.473
 70
    32
  0
VERTEX
  8
T30SSILL
 62
4
 10
1489.315
 20
-3760.790
 30
2185.470
 70
    32
  0
VERTEX
  8
T30SSILL
 62
4
 10
1485.009
 20
-3760.841
 30
2185.471
 70
    32
  0
VERTEX
  8
T30SSILL
 62
4
 10
1475.709
 20
-3765.127
 30
2185.392
 70
    32
  0
VERTEX
  8
T30SSILL
 62
4
 10
1350.593
 20
-3859.086
 30
2185.560
 70
    32
  0
VERTEX
  8
T30SSILL
 62
4
 10
1471.595
 20
-3998.331
 30
2185.337
 70
    32
  0
VERTEX
  8
T30SSILL
 62
4
 10
1504.572
 20
-3975.361
 30
2185.411
 70
    32
  0
VERTEX
  8
T30SSILL
 62
4
 10
1507.942
 20
-3980.175
 30
2185.396
 70
    32
  0
VERTEX
  8
T30SSILL
 62
4
 10
1483.023
 20
-3998.407
 30
2185.338
 70
    32
  0
VERTEX
  8
T30SSILL
 62
4
 10
1480.849
 20
-4003.050
 30
2185.323
 70
    32
  0
VERTEX
  8
T30SSILL
 62
4
 10
1480.867
 20
-4009.001
 30
2185.304
 70
    32
  0
VERTEX
  8
T30SSILL
 62
4
 10
1582.145
 20
-4125.550
 30
2184.552
 70
    32
  0
VERTEX
  8
T30SSILL
 62
4
 10
1593.190
 20
-4108.311
 30
2184.663
 70
    32
  0
VERTEX
  8
T30SSILL
 62
4
 10
1591.700
 20
-4108.789
 30
2184.662
 70
    32
  0
VERTEX
  8
T30SSILL
 62
4
 10
1589.811
 20
-4096.557
 30
2184.757
 70
    32
  0
VERTEX
  8
T30SSILL
 62
4
 10
1593.372
 20
-4094.085
 30
2184.770
 70
    32
  0
VERTEX
  8
T30SSILL
 62
4
 10
1600.280
 20
-4102.042
 30
2184.699
 70
    32
  0
VERTEX
  8
T30SSILL
 62
4
 10
1606.311
 20
-4103.043
 30
2184.682
 70
    32
  0
VERTEX
  8
T30SSILL
 62
4
 10
1608.111
 20
-4104.412
 30
2184.669
 70
    32
  0
VERTEX
  8
T30SSILL
 62
4
 10
1615.323
 20
-4099.554
 30
2184.695
 70
    32
  0
VERTEX
  8
T30SSILL
 62
4
 10
1621.002
 20
-4104.185
 30
2184.694
 70
    32
  0
VERTEX
  8
T30SSILL
 62
4
 10
1621.501
 20
-4106.558
 30
2184.686
 70
    32
  0
VERTEX
  8
T30SSILL
 62
4
 10
1613.040
 20
-4114.538
 30
2184.634
 70
    32
  0
VERTEX
  8
T30SSILL
 62
4
 10
1611.971
 20
-4132.231
 30
2184.568
 70
    32
  0
VERTEX
  8
T30SSILL
 62
4
 10
1612.897
 20
-4133.975
 30
2184.564
 70
    32
  0
VERTEX
  8
T30SSILL
 62
4
 10
1610.686
 20
-4158.393
 30
2184.470
 70
    32
  0
VERTEX
  8
T30SSILL
 62
4
 10
1614.814
 20
-4163.143
 30
2184.464
 70
    32
  0
VERTEX
  8
T30SSILL
 62
4
 10
1618.782
 20
-4165.100
 30
2184.468
 70
    32
  0
VERTEX
  8
T30SSILL
 62
4
 10
1625.985
 20
-4167.044
 30
2184.481
 70
    32
  0
VERTEX
  8
T30SSILL
 62
4
 10
1627.989
 20
-4165.935
 30
2184.490
 70
    32
  0
VERTEX
  8
T30SSILL
 62
4
 10
1622.849
 20
-4158.022
 30
2184.505
 70
    32
  0
VERTEX
  8
T30SSILL
 62
4
 10
1623.256
 20
-4156.599
 30
2184.511
 70
    32
  0
VERTEX
  8
T30SSILL
 62
4
 10
1625.448
 20
-4155.927
 30
2184.519
 70
    32
  0
VERTEX
  8
T30SSILL
 62
4
 10
1626.184
 20
-4153.524
 30
2184.530
 70
    32
  0
VERTEX
  8
T30SSILL
 62
4
 10
1618.282
 20
-4133.843
 30
2184.579
 70
    32
  0
VERTEX
  8
T30SSILL
 62
4
 10
1624.741
 20
-4127.060
 30
2184.621
 70
    32
  0
VERTEX
  8
T30SSILL
 62
4
 10
1632.463
 20
-4128.549
 30
2184.637
 70
    32
  0
VERTEX
  8
T30SSILL
 62
4
 10
1636.672
 20
-4130.920
 30
2184.640
 70
    32
  0
VERTEX
  8
T30SSILL
 62
4
 10
1652.810
 20
-4155.081
 30
2184.597
 70
    32
  0
VERTEX
  8
T30SSILL
 62
4
 10
1656.520
 20
-4158.700
 30
2184.594
 70
    32
  0
VERTEX
  8
T30SSILL
 62
4
 10
1658.079
 20
-4164.669
 30
2184.577
 70
    32
  0
VERTEX
  8
T30SSILL
 62
4
 10
1659.829
 20
-4185.649
 30
2184.506
 70
    32
  0
VERTEX
  8
T30SSILL
 62
4
 10
1661.565
 20
-4191.613
 30
2184.490
 70
    32
  0
VERTEX
  8
T30SSILL
 62
4
 10
1669.707
 20
-4206.695
 30
2184.458
 70
    32
  0
VERTEX
  8
T30SSILL
 62
4
 10
1672.861
 20
-4208.999
 30
2184.458
 70
    32
  0
VERTEX
  8
T30SSILL
 62
4
 10
1687.135
 20
-4198.864
 30
2184.534
 70
    32
  0
VERTEX
  8
T30SSILL
 62
4
 10
1687.620
 20
-4195.127
 30
2184.548
 70
    32
  0
VERTEX
  8
T30SSILL
 62
4
 10
1685.630
 20
-4185.989
 30
2184.576
 70
    32
  0
VERTEX
  8
T30SSILL
 62
4
 10
1686.592
 20
-4181.990
 30
2184.593
 70
    32
  0
VERTEX
  8
T30SSILL
 62
4
 10
1696.712
 20
-4176.796
 30
2184.639
 70
    32
  0
VERTEX
  8
T30SSILL
 62
4
 10
1699.196
 20
-4173.644
 30
2184.658
 70
    32
  0
VERTEX
  8
T30SSILL
 62
4
 10
1704.936
 20
-4173.592
 30
2184.674
 70
    32
  0
VERTEX
  8
T30SSILL
 62
4
 10
1714.730
 20
-4179.208
 30
2184.680
 70
    32
  0
VERTEX
  8
T30SSILL
 62
4
 10
1744.047
 20
-4158.325
 30
2184.836
 70
    32
  0
VERTEX
  8
T30SSILL
 62
4
 10
1748.263
 20
-4164.582
 30
2184.825
 70
    32
  0
VERTEX
  8
T30SSILL
 62
4
 10
1708.684
 20
-4192.300
 30
2184.616
 70
    32
  0
VERTEX
  8
T30SSILL
 62
4
 10
1713.698
 20
-4203.145
 30
2184.591
 70
    32
  0
VERTEX
  8
T30SSILL
 62
4
 10
1718.013
 20
-4209.841
 30
2184.579
 70
    32
  0
VERTEX
  8
T30SSILL
 62
4
 10
1719.886
 20
-4210.590
 30
2184.581
 70
    32
  0
VERTEX
  8
T30SSILL
 62
4
 10
1729.738
 20
-4226.955
 30
2184.549
 70
    32
  0
VERTEX
  8
T30SSILL
 62
4
 10
1747.495
 20
-4248.692
 30
2184.520
 70
    32
  0
VERTEX
  8
T30SSILL
 62
4
 10
1754.099
 20
-4255.067
 30
2184.515
 70
    32
  0
VERTEX
  8
T30SSILL
 62
4
 10
1757.210
 20
-4255.874
 30
2184.520
 70
    32
  0
VERTEX
  8
T30SSILL
 62
4
 10
1761.682
 20
-4254.528
 30
2184.538
 70
    32
  0
VERTEX
  8
T30SSILL
 62
4
 10
1762.130
 20
-4258.404
 30
2184.525
 70
    32
  0
VERTEX
  8
T30SSILL
 62
4
 10
1764.236
 20
-4261.444
 30
2184.520
 70
    32
  0
VERTEX
  8
T30SSILL
 62
4
 10
1759.343
 20
-4267.217
 30
2184.485
 70
    32
  0
VERTEX
  8
T30SSILL
 62
4
 10
1758.279
 20
-4270.688
 30
2184.470
 70
    32
  0
SEQEND
  8
T30SSILL
  0
POLYLINE
  8
T30SSILL
 62
4
 66
     1
 70
     9
  0
VERTEX
  8
T30SSILL
 62
4
 10
831.720
 20
-3145.453
 30
2182.616
 70
    32
  0
VERTEX
  8
T30SSILL
 62
4
 10
828.512
 20
-3152.685
 30
2182.572
 70
    32
  0
VERTEX
  8
T30SSILL
 62
4
 10
867.693
 20
-3169.295
 30
2182.802
 70
    32
  0
VERTEX
  8
T30SSILL
 62
4
 10
794.375
 20
-3221.904
 30
2182.305
 70
    32
  0
VERTEX
  8
T30SSILL
 62
4
 10
755.060
 20
-3176.189
 30
2182.021
 70
    32
  0
VERTEX
  8
T30SSILL
 62
4
 10
755.245
 20
-3171.606
 30
2181.996
 70
    32
  0
VERTEX
  8
T30SSILL
 62
4
 10
757.897
 20
-3165.469
 30
2182.033
 70
    32
  0
VERTEX
  8
T30SSILL
 62
4
 10
905.825
 20
-3060.736
 30
2182.237
 70
    32
  0
VERTEX
  8
T30SSILL
 62
4
 10
912.963
 20
-3056.916
 30
2182.206
 70
    32
  0
VERTEX
  8
T30SSILL
 62
4
 10
917.503
 20
-3055.830
 30
2182.195
 70
    32
  0
VERTEX
  8
T30SSILL
 62
4
 10
928.303
 20
-3057.416
 30
2182.190
 70
    32
  0
VERTEX
  8
T30SSILL
 62
4
 10
933.218
 20
-3061.181
 30
2182.206
 70
    32
  0
VERTEX
  8
T30SSILL
 62
4
 10
969.590
 20
-3106.565
 30
2182.417
 70
    32
  0
VERTEX
  8
T30SSILL
 62
4
 10
958.654
 20
-3106.524
 30
2182.430
 70
    32
  0
VERTEX
  8
T30SSILL
 62
4
 10
946.486
 20
-3112.107
 30
2182.477
 70
    32
  0
VERTEX
  8
T30SSILL
 62
4
 10
873.757
 20
-3164.945
 30
2182.858
 70
    32
  0
SEQEND
  8
T30SSILL
  0
POLYLINE
  8
T30SSILL
 62
4
 66
     1
 70
     9
  0
VERTEX
  8
T30SSILL
 62
4
 10
798.880
 20
-3095.127
 30
2182.529
 70
    32
  0
VERTEX
  8
T30SSILL
 62
4
 10
800.104
 20
-3088.822
 30
2182.526
 70
    32
  0
VERTEX
  8
T30SSILL
 62
4
 10
796.001
 20
-3079.761
 30
2182.480
 70
    32
  0
VERTEX
  8
T30SSILL
 62
4
 10
778.181
 20
-3085.296
 30
2182.410
 70
    32
  0
VERTEX
  8
T30SSILL
 62
4
 10
748.807
 20
-3079.465
 30
2182.218
 70
    32
  0
VERTEX
  8
T30SSILL
 62
4
 10
861.155
 20
-2998.229
 30
2181.939
 70
    32
  0
VERTEX
  8
T30SSILL
 62
4
 10
872.035
 20
-2996.300
 30
2181.915
 70
    32
  0
VERTEX
  8
T30SSILL
 62
4
 10
879.985
 20
-2997.890
 30
2181.914
 70
    32
  0
VERTEX
  8
T30SSILL
 62
4
 10
882.658
 20
-2999.903
 30
2181.922
 70
    32
  0
VERTEX
  8
T30SSILL
 62
4
 10
923.437
 20
-3048.975
 30
2182.149
 70
    32
  0
VERTEX
  8
T30SSILL
 62
4
 10
912.331
 20
-3049.228
 30
2182.164
 70
    32
  0
VERTEX
  8
T30SSILL
 62
4
 10
904.249
 20
-3052.639
 30
2182.193
 70
    32
  0
VERTEX
  8
T30SSILL
 62
4
 10
745.337
 20
-3165.363
 30
2181.954
 70
    32
  0
VERTEX
  8
T30SSILL
 62
4
 10
705.313
 20
-3117.970
 30
2181.797
 70
    32
  0
VERTEX
  8
T30SSILL
 62
4
 10
711.064
 20
-3113.692
 30
2181.850
 70
    32
  0
VERTEX
  8
T30SSILL
 62
4
 10
707.832
 20
-3109.186
 30
2181.840
 70
    32
  0
VERTEX
  8
T30SSILL
 62
4
 10
740.763
 20
-3085.299
 30
2182.144
 70
    32
  0
VERTEX
  8
T30SSILL
 62
4
 10
784.823
 20
-3092.750
 30
2182.436
 70
    32
  0
VERTEX
  8
T30SSILL
 62
4
 10
794.808
 20
-3092.793
 30
2182.507
 70
    32
  0
SEQEND
  8
T30SSILL
  0
POLYLINE
  8
T30SSILL
 62
4
 66
     1
 70
     9
  0
VERTEX
  8
T30SSILL
 62
4
 10
810.211
 20
-3863.454
 30
2186.028
 70
    32
  0
VERTEX
  8
T30SSILL
 62
4
 10
793.693
 20
-3841.575
 30
2186.044
 70
    32
  0
VERTEX
  8
T30SSILL
 62
4
 10
786.531
 20
-3828.390
 30
2186.057
 70
    32
  0
VERTEX
  8
T30SSILL
 62
4
 10
792.760
 20
-3824.686
 30
2186.070
 70
    32
  0
VERTEX
  8
T30SSILL
 62
4
 10
799.326
 20
-3834.611
 30
2186.062
 70
    32
  0
VERTEX
  8
T30SSILL
 62
4
 10
805.354
 20
-3830.380
 30
2186.076
 70
    32
  0
VERTEX
  8
T30SSILL
 62
4
 10
812.808
 20
-3842.457
 30
2186.065
 70
    32
  0
VERTEX
  8
T30SSILL
 62
4
 10
817.770
 20
-3859.354
 30
2186.043
 70
    32
  0
VERTEX
  8
T30SSILL
 62
4
 10
823.762
 20
-3872.766
 30
2186.028
 70
    32
  0
VERTEX
  8
T30SSILL
 62
4
 10
828.014
 20
-3878.832
 30
2186.024
 70
    32
  0
VERTEX
  8
T30SSILL
 62
4
 10
825.277
 20
-3880.822
 30
2186.017
 70
    32
  0
VERTEX
  8
T30SSILL
 62
4
 10
820.702
 20
-3881.707
 30
2186.010
 70
    32
  0
VERTEX
  8
T30SSILL
 62
4
 10
814.339
 20
-3886.589
 30
2185.995
 70
    32
  0
VERTEX
  8
T30SSILL
 62
4
 10
819.971
 20
-3911.700
 30
2185.960
 70
    32
  0
VERTEX
  8
T30SSILL
 62
4
 10
820.734
 20
-3924.263
 30
2185.941
 70
    32
  0
VERTEX
  8
T30SSILL
 62
4
 10
833.331
 20
-3950.778
 30
2185.912
 70
    32
  0
VERTEX
  8
T30SSILL
 62
4
 10
839.988
 20
-3960.528
 30
2185.904
 70
    32
  0
VERTEX
  8
T30SSILL
 62
4
 10
845.449
 20
-3963.010
 30
2185.907
 70
    32
  0
VERTEX
  8
T30SSILL
 62
4
 10
852.764
 20
-3958.096
 30
2185.923
 70
    32
  0
VERTEX
  8
T30SSILL
 62
4
 10
856.449
 20
-3952.260
 30
2185.937
 70
    32
  0
VERTEX
  8
T30SSILL
 62
4
 10
855.597
 20
-3947.075
 30
2185.945
 70
    32
  0
VERTEX
  8
T30SSILL
 62
4
 10
858.332
 20
-3938.941
 30
2185.961
 70
    32
  0
VERTEX
  8
T30SSILL
 62
4
 10
854.955
 20
-3929.991
 30
2185.972
 70
    32
  0
VERTEX
  8
T30SSILL
 62
4
 10
873.674
 20
-3916.795
 30
2186.016
 70
    32
  0
VERTEX
  8
T30SSILL
 62
4
 10
883.730
 20
-3925.844
 30
2186.013
 70
    32
  0
VERTEX
  8
T30SSILL
 62
4
 10
890.026
 20
-3924.802
 30
2186.022
 70
    32
  0
VERTEX
  8
T30SSILL
 62
4
 10
893.034
 20
-3922.648
 30
2186.029
 70
    32
  0
VERTEX
  8
T30SSILL
 62
4
 10
897.258
 20
-3918.865
 30
2186.040
 70
    32
  0
VERTEX
  8
T30SSILL
 62
4
 10
890.581
 20
-3909.237
 30
2186.048
 70
    32
  0
VERTEX
  8
T30SSILL
 62
4
 10
889.920
 20
-3904.835
 30
2186.054
 70
    32
  0
VERTEX
  8
T30SSILL
 62
4
 10
906.197
 20
-3893.070
 30
2186.093
 70
    32
  0
VERTEX
  8
T30SSILL
 62
4
 10
917.534
 20
-3894.377
 30
2186.104
 70
    32
  0
VERTEX
  8
T30SSILL
 62
4
 10
919.645
 20
-3896.116
 30
2186.104
 70
    32
  0
VERTEX
  8
T30SSILL
 62
4
 10
937.077
 20
-3899.125
 30
2186.120
 70
    32
  0
VERTEX
  8
T30SSILL
 62
4
 10
954.737
 20
-3923.955
 30
2186.100
 70
    32
  0
VERTEX
  8
T30SSILL
 62
4
 10
939.075
 20
-3931.163
 30
2186.070
 70
    32
  0
VERTEX
  8
T30SSILL
 62
4
 10
939.900
 20
-3936.182
 30
2186.062
 70
    32
  0
VERTEX
  8
T30SSILL
 62
4
 10
944.281
 20
-3946.891
 30
2186.050
 70
    32
  0
VERTEX
  8
T30SSILL
 62
4
 10
942.349
 20
-3956.426
 30
2186.032
 70
    32
  0
VERTEX
  8
T30SSILL
 62
4
 10
947.095
 20
-3958.591
 30
2186.034
 70
    32
  0
VERTEX
  8
T30SSILL
 62
4
 10
951.868
 20
-3955.570
 30
2186.045
 70
    32
  0
VERTEX
  8
T30SSILL
 62
4
 10
951.740
 20
-3942.635
 30
2186.066
 70
    32
  0
VERTEX
  8
T30SSILL
 62
4
 10
956.282
 20
-3939.130
 30
2186.077
 70
    32
  0
VERTEX
  8
T30SSILL
 62
4
 10
958.890
 20
-3929.794
 30
2186.095
 70
    32
  0
VERTEX
  8
T30SSILL
 62
4
 10
1027.761
 20
-4026.625
 30
2186.019
 70
    32
  0
VERTEX
  8
T30SSILL
 62
4
 10
1018.145
 20
-4033.280
 30
2185.997
 70
    32
  0
VERTEX
  8
T30SSILL
 62
4
 10
1023.182
 20
-4040.624
 30
2186.001
 70
    32
  0
VERTEX
  8
T30SSILL
 62
4
 10
1032.787
 20
-4033.691
 30
2186.013
 70
    32
  0
VERTEX
  8
T30SSILL
 62
4
 10
1053.499
 20
-4062.811
 30
2186.032
 70
    32
  0
VERTEX
  8
T30SSILL
 62
4
 10
853.004
 20
-4205.503
 30
2185.957
 70
    32
  0
VERTEX
  8
T30SSILL
 62
4
 10
838.935
 20
-4210.301
 30
2185.972
 70
    32
  0
VERTEX
  8
T30SSILL
 62
4
 10
826.820
 20
-4210.824
 30
2185.977
 70
    32
  0
VERTEX
  8
T30SSILL
 62
4
 10
818.532
 20
-4209.744
 30
2185.972
 70
    32
  0
VERTEX
  8
T30SSILL
 62
4
 10
806.191
 20
-4203.647
 30
2185.963
 70
    32
  0
VERTEX
  8
T30SSILL
 62
4
 10
795.178
 20
-4193.608
 30
2185.951
 70
    32
  0
VERTEX
  8
T30SSILL
 62
4
 10
788.829
 20
-4184.390
 30
2185.942
 70
    32
  0
VERTEX
  8
T30SSILL
 62
4
 10
636.693
 20
-3910.393
 30
2185.766
 70
    32
  0
VERTEX
  8
T30SSILL
 62
4
 10
639.447
 20
-3900.930
 30
2185.777
 70
    32
  0
VERTEX
  8
T30SSILL
 62
4
 10
643.303
 20
-3895.876
 30
2185.780
 70
    32
  0
VERTEX
  8
T30SSILL
 62
4
 10
689.320
 20
-3862.707
 30
2185.885
 70
    32
  0
VERTEX
  8
T30SSILL
 62
4
 10
698.051
 20
-3864.959
 30
2185.892
 70
    32
  0
VERTEX
  8
T30SSILL
 62
4
 10
705.661
 20
-3875.860
 30
2185.883
 70
    32
  0
VERTEX
  8
T30SSILL
 62
4
 10
698.400
 20
-3880.237
 30
2185.868
 70
    32
  0
VERTEX
  8
T30SSILL
 62
4
 10
694.132
 20
-3884.719
 30
2185.855
 70
    32
  0
VERTEX
  8
T30SSILL
 62
4
 10
695.040
 20
-3889.604
 30
2185.848
 70
    32
  0
VERTEX
  8
T30SSILL
 62
4
 10
697.002
 20
-3891.124
 30
2185.848
 70
    32
  0
VERTEX
  8
T30SSILL
 62
4
 10
698.685
 20
-3891.651
 30
2185.849
 70
    32
  0
VERTEX
  8
T30SSILL
 62
4
 10
711.195
 20
-3883.787
 30
2185.877
 70
    32
  0
VERTEX
  8
T30SSILL
 62
4
 10
715.814
 20
-3890.404
 30
2185.872
 70
    32
  0
VERTEX
  8
T30SSILL
 62
4
 10
722.162
 20
-3885.946
 30
2185.886
 70
    32
  0
VERTEX
  8
T30SSILL
 62
4
 10
719.431
 20
-3882.248
 30
2185.889
 70
    32
  0
VERTEX
  8
T30SSILL
 62
4
 10
738.900
 20
-3868.166
 30
2185.935
 70
    32
  0
VERTEX
  8
T30SSILL
 62
4
 10
728.200
 20
-3853.631
 30
2185.946
 70
    32
  0
VERTEX
  8
T30SSILL
 62
4
 10
717.766
 20
-3861.007
 30
2185.922
 70
    32
  0
VERTEX
  8
T30SSILL
 62
4
 10
721.526
 20
-3866.008
 30
2185.918
 70
    32
  0
VERTEX
  8
T30SSILL
 62
4
 10
712.297
 20
-3872.586
 30
2185.897
 70
    32
  0
VERTEX
  8
T30SSILL
 62
4
 10
699.554
 20
-3855.331
 30
2185.910
 70
    32
  0
VERTEX
  8
T30SSILL
 62
4
 10
712.009
 20
-3846.354
 30
2185.939
 70
    32
  0
VERTEX
  8
T30SSILL
 62
4
 10
713.496
 20
-3847.333
 30
2185.939
 70
    32
  0
VERTEX
  8
T30SSILL
 62
4
 10
719.134
 20
-3844.906
 30
2185.950
 70
    32
  0
VERTEX
  8
T30SSILL
 62
4
 10
721.317
 20
-3845.073
 30
2185.952
 70
    32
  0
VERTEX
  8
T30SSILL
 62
4
 10
720.689
 20
-3840.098
 30
2185.960
 70
    32
  0
VERTEX
  8
T30SSILL
 62
4
 10
757.139
 20
-3813.826
 30
2186.046
 70
    32
  0
VERTEX
  8
T30SSILL
 62
4
 10
770.133
 20
-3836.607
 30
2186.024
 70
    32
  0
VERTEX
  8
T30SSILL
 62
4
 10
781.514
 20
-3849.696
 30
2186.016
 70
    32
  0
VERTEX
  8
T30SSILL
 62
4
 10
798.118
 20
-3872.598
 30
2185.998
 70
    32
  0
VERTEX
  8
T30SSILL
 62
4
 10
799.894
 20
-3870.993
 30
2186.003
 70
    32
  0
SEQEND
  8
T30SSILL
  0
POLYLINE
  8
T30SSILL
 62
4
 66
     1
 70
     9
  0
VERTEX
  8
T30SSILL
 62
4
 10
706.130
 20
-3672.265
 30
2186.095
 70
    32
  0
VERTEX
  8
T30SSILL
 62
4
 10
716.494
 20
-3679.577
 30
2186.148
 70
    32
  0
VERTEX
  8
T30SSILL
 62
4
 10
731.445
 20
-3668.946
 30
2186.230
 70
    32
  0
VERTEX
  8
T30SSILL
 62
4
 10
735.309
 20
-3674.268
 30
2186.248
 70
    32
  0
VERTEX
  8
T30SSILL
 62
4
 10
726.259
 20
-3680.798
 30
2186.199
 70
    32
  0
VERTEX
  8
T30SSILL
 62
4
 10
732.807
 20
-3689.961
 30
2186.219
 70
    32
  0
VERTEX
  8
T30SSILL
 62
4
 10
701.940
 20
-3711.874
 30
2186.061
 70
    32
  0
VERTEX
  8
T30SSILL
 62
4
 10
706.233
 20
-3717.690
 30
2186.082
 70
    32
  0
VERTEX
  8
T30SSILL
 62
4
 10
741.284
 20
-3692.714
 30
2186.225
 70
    32
  0
VERTEX
  8
T30SSILL
 62
4
 10
744.564
 20
-3697.233
 30
2186.221
 70
    32
  0
VERTEX
  8
T30SSILL
 62
4
 10
744.454
 20
-3699.423
 30
2186.218
 70
    32
  0
VERTEX
  8
T30SSILL
 62
4
 10
748.899
 20
-3710.885
 30
2186.204
 70
    32
  0
VERTEX
  8
T30SSILL
 62
4
 10
753.386
 20
-3719.385
 30
2186.196
 70
    32
  0
VERTEX
  8
T30SSILL
 62
4
 10
752.021
 20
-3720.329
 30
2186.192
 70
    32
  0
VERTEX
  8
T30SSILL
 62
4
 10
755.038
 20
-3724.631
 30
2186.189
 70
    32
  0
VERTEX
  8
T30SSILL
 62
4
 10
678.969
 20
-3779.114
 30
2185.919
 70
    32
  0
VERTEX
  8
T30SSILL
 62
4
 10
676.754
 20
-3776.035
 30
2185.917
 70
    32
  0
VERTEX
  8
T30SSILL
 62
4
 10
671.625
 20
-3759.093
 30
2185.947
 70
    32
  0
VERTEX
  8
T30SSILL
 62
4
 10
667.752
 20
-3753.409
 30
2185.959
 70
    32
  0
VERTEX
  8
T30SSILL
 62
4
 10
657.196
 20
-3746.886
 30
2185.980
 70
    32
  0
VERTEX
  8
T30SSILL
 62
4
 10
650.961
 20
-3748.332
 30
2185.984
 70
    32
  0
VERTEX
  8
T30SSILL
 62
4
 10
646.833
 20
-3751.953
 30
2185.983
 70
    32
  0
VERTEX
  8
T30SSILL
 62
4
 10
647.872
 20
-3765.322
 30
2185.963
 70
    32
  0
VERTEX
  8
T30SSILL
 62
4
 10
636.778
 20
-3772.542
 30
2185.964
 70
    32
  0
VERTEX
  8
T30SSILL
 62
4
 10
638.762
 20
-3777.413
 30
2185.955
 70
    32
  0
VERTEX
  8
T30SSILL
 62
4
 10
639.759
 20
-3790.270
 30
2185.936
 70
    32
  0
VERTEX
  8
T30SSILL
 62
4
 10
643.957
 20
-3795.502
 30
2185.924
 70
    32
  0
VERTEX
  8
T30SSILL
 62
4
 10
646.019
 20
-3802.715
 30
2185.911
 70
    32
  0
VERTEX
  8
T30SSILL
 62
4
 10
605.643
 20
-3831.753
 30
2185.920
 70
    32
  0
VERTEX
  8
T30SSILL
 62
4
 10
599.249
 20
-3842.957
 30
2185.990
 70
    32
  0
VERTEX
  8
T30SSILL
 62
4
 10
565.677
 20
-3782.494
 30
2186.264
 70
    32
  0
VERTEX
  8
T30SSILL
 62
4
 10
565.116
 20
-3774.363
 30
2186.274
 70
    32
  0
VERTEX
  8
T30SSILL
 62
4
 10
566.566
 20
-3769.736
 30
2186.282
 70
    32
  0
VERTEX
  8
T30SSILL
 62
4
 10
572.369
 20
-3761.652
 30
2186.280
 70
    32
  0
VERTEX
  8
T30SSILL
 62
4
 10
603.212
 20
-3739.630
 30
2186.211
 70
    32
  0
VERTEX
  8
T30SSILL
 62
4
 10
650.426
 20
-3747.739
 30
2185.986
 70
    32
  0
VERTEX
  8
T30SSILL
 62
4
 10
652.572
 20
-3740.005
 30
2185.994
 70
    32
  0
VERTEX
  8
T30SSILL
 62
4
 10
612.299
 20
-3733.142
 30
2186.190
 70
    32
  0
VERTEX
  8
T30SSILL
 62
4
 10
702.738
 20
-3668.569
 30
2186.078
 70
    32
  0
VERTEX
  8
T30SSILL
 62
4
 10
704.002
 20
-3670.212
 30
2186.085
 70
    32
  0
SEQEND
  8
T30SSILL
  0
POLYLINE
  8
T30SSILL
 62
4
 66
     1
 70
     9
  0
VERTEX
  8
T30SSILL
 62
4
 10
706.521
 20
-3841.191
 30
2185.941
 70
    32
  0
VERTEX
  8
T30SSILL
 62
4
 10
677.075
 20
-3862.264
 30
2185.872
 70
    32
  0
VERTEX
  8
T30SSILL
 62
4
 10
680.890
 20
-3838.674
 30
2185.911
 70
    32
  0
VERTEX
  8
T30SSILL
 62
4
 10
705.129
 20
-3821.306
 30
2185.972
 70
    32
  0
VERTEX
  8
T30SSILL
 62
4
 10
694.056
 20
-3805.654
 30
2185.984
 70
    32
  0
VERTEX
  8
T30SSILL
 62
4
 10
698.565
 20
-3802.395
 30
2185.995
 70
    32
  0
VERTEX
  8
T30SSILL
 62
4
 10
695.749
 20
-3798.288
 30
2185.998
 70
    32
  0
VERTEX
  8
T30SSILL
 62
4
 10
681.231
 20
-3809.080
 30
2185.922
 70
    32
  0
VERTEX
  8
T30SSILL
 62
4
 10
675.043
 20
-3791.167
 30
2185.897
 70
    32
  0
VERTEX
  8
T30SSILL
 62
4
 10
715.924
 20
-3761.902
 30
2186.082
 70
    32
  0
VERTEX
  8
T30SSILL
 62
4
 10
724.777
 20
-3774.463
 30
2186.072
 70
    32
  0
VERTEX
  8
T30SSILL
 62
4
 10
729.105
 20
-3771.643
 30
2186.081
 70
    32
  0
VERTEX
  8
T30SSILL
 62
4
 10
720.043
 20
-3758.953
 30
2186.091
 70
    32
  0
VERTEX
  8
T30SSILL
 62
4
 10
759.012
 20
-3731.057
 30
2186.183
 70
    32
  0
VERTEX
  8
T30SSILL
 62
4
 10
761.570
 20
-3739.668
 30
2186.172
 70
    32
  0
VERTEX
  8
T30SSILL
 62
4
 10
781.774
 20
-3769.111
 30
2186.148
 70
    32
  0
VERTEX
  8
T30SSILL
 62
4
 10
778.855
 20
-3778.487
 30
2186.129
 70
    32
  0
VERTEX
  8
T30SSILL
 62
4
 10
782.617
 20
-3786.732
 30
2186.120
 70
    32
  0
VERTEX
  8
T30SSILL
 62
4
 10
718.876
 20
-3832.349
 30
2185.970
 70
    32
  0
VERTEX
  8
T30SSILL
 62
4
 10
708.312
 20
-3823.372
 30
2185.972
 70
    32
  0
VERTEX
  8
T30SSILL
 62
4
 10
705.153
 20
-3822.604
 30
2185.970
 70
    32
  0
VERTEX
  8
T30SSILL
 62
4
 10
699.986
 20
-3827.950
 30
2185.955
 70
    32
  0
VERTEX
  8
T30SSILL
 62
4
 10
701.686
 20
-3833.785
 30
2185.947
 70
    32
  0
SEQEND
  8
T30SSILL
  0
POLYLINE
  8
T30SSILL
 62
4
 66
     1
 70
     9
  0
VERTEX
  8
T30SSILL
 62
4
 10
690.076
 20
-3641.334
 30
2186.125
 70
    32
  0
VERTEX
  8
T30SSILL
 62
4
 10
726.912
 20
-3611.064
 30
2186.181
 70
    32
  0
VERTEX
  8
T30SSILL
 62
4
 10
788.129
 20
-3567.019
 30
2186.044
 70
    32
  0
VERTEX
  8
T30SSILL
 62
4
 10
774.087
 20
-3546.981
 30
2185.898
 70
    32
  0
VERTEX
  8
T30SSILL
 62
4
 10
777.627
 20
-3543.509
 30
2185.841
 70
    32
  0
VERTEX
  8
T30SSILL
 62
4
 10
777.858
 20
-3541.841
 30
2185.821
 70
    32
  0
VERTEX
  8
T30SSILL
 62
4
 10
764.051
 20
-3532.400
 30
2185.791
 70
    32
  0
VERTEX
  8
T30SSILL
 62
4
 10
786.041
 20
-3516.688
 30
2185.500
 70
    32
  0
VERTEX
  8
T30SSILL
 62
4
 10
787.485
 20
-3521.318
 30
2185.543
 70
    32
  0
VERTEX
  8
T30SSILL
 62
4
 10
794.321
 20
-3530.308
 30
2185.606
 70
    32
  0
VERTEX
  8
T30SSILL
 62
4
 10
797.873
 20
-3527.389
 30
2185.554
 70
    32
  0
VERTEX
  8
T30SSILL
 62
4
 10
802.171
 20
-3527.069
 30
2185.528
 70
    32
  0
VERTEX
  8
T30SSILL
 62
4
 10
828.230
 20
-3508.527
 30
2185.183
 70
    32
  0
VERTEX
  8
T30SSILL
 62
4
 10
832.787
 20
-3514.902
 30
2185.229
 70
    32
  0
VERTEX
  8
T30SSILL
 62
4
 10
814.042
 20
-3529.587
 30
2185.492
 70
    32
  0
VERTEX
  8
T30SSILL
 62
4
 10
818.482
 20
-3539.533
 30
2185.578
 70
    32
  0
VERTEX
  8
T30SSILL
 62
4
 10
824.497
 20
-3545.630
 30
2185.613
 70
    32
  0
VERTEX
  8
T30SSILL
 62
4
 10
827.228
 20
-3550.180
 30
2185.648
 70
    32
  0
VERTEX
  8
T30SSILL
 62
4
 10
843.796
 20
-3543.474
 30
2185.485
 70
    32
  0
VERTEX
  8
T30SSILL
 62
4
 10
849.887
 20
-3553.858
 30
2185.567
 70
    32
  0
VERTEX
  8
T30SSILL
 62
4
 10
791.436
 20
-3595.975
 30
2186.346
 70
    32
  0
VERTEX
  8
T30SSILL
 62
4
 10
780.522
 20
-3577.483
 30
2186.200
 70
    32
  0
VERTEX
  8
T30SSILL
 62
4
 10
693.813
 20
-3638.993
 30
2186.115
 70
    32
  0
VERTEX
  8
T30SSILL
 62
4
 10
702.680
 20
-3655.092
 30
2186.082
 70
    32
  0
VERTEX
  8
T30SSILL
 62
4
 10
703.367
 20
-3659.435
 30
2186.085
 70
    32
  0
VERTEX
  8
T30SSILL
 62
4
 10
690.868
 20
-3668.440
 30
2186.057
 70
    32
  0
VERTEX
  8
T30SSILL
 62
4
 10
691.189
 20
-3662.816
 30
2186.065
 70
    32
  0
VERTEX
  8
T30SSILL
 62
4
 10
685.290
 20
-3654.284
 30
2186.107
 70
    32
  0
VERTEX
  8
T30SSILL
 62
4
 10
687.655
 20
-3638.540
 30
2186.144
 70
    32
  0
SEQEND
  8
T30SSILL
  0
POLYLINE
  8
T30SSILL
 62
4
 66
     1
 70
     9
  0
VERTEX
  8
T30SSILL
 62
4
 10
759.940
 20
-3527.198
 30
2185.756
 70
    32
  0
VERTEX
  8
T30SSILL
 62
4
 10
753.836
 20
-3522.609
 30
2185.738
 70
    32
  0
VERTEX
  8
T30SSILL
 62
4
 10
739.367
 20
-3516.706
 30
2185.597
 70
    32
  0
VERTEX
  8
T30SSILL
 62
4
 10
752.455
 20
-3507.211
 30
2185.576
 70
    32
  0
VERTEX
  8
T30SSILL
 62
4
 10
748.996
 20
-3502.471
 30
2185.542
 70
    32
  0
VERTEX
  8
T30SSILL
 62
4
 10
746.931
 20
-3503.929
 30
2185.569
 70
    32
  0
VERTEX
  8
T30SSILL
 62
4
 10
744.007
 20
-3499.738
 30
2185.539
 70
    32
  0
VERTEX
  8
T30SSILL
 62
4
 10
800.316
 20
-3459.680
 30
2184.794
 70
    32
  0
VERTEX
  8
T30SSILL
 62
4
 10
802.277
 20
-3462.382
 30
2184.813
 70
    32
  0
VERTEX
  8
T30SSILL
 62
4
 10
807.156
 20
-3458.890
 30
2184.749
 70
    32
  0
VERTEX
  8
T30SSILL
 62
4
 10
811.403
 20
-3464.744
 30
2184.790
 70
    32
  0
VERTEX
  8
T30SSILL
 62
4
 10
774.871
 20
-3490.865
 30
2185.275
 70
    32
  0
VERTEX
  8
T30SSILL
 62
4
 10
782.806
 20
-3502.960
 30
2185.366
 70
    32
  0
VERTEX
  8
T30SSILL
 62
4
 10
783.953
 20
-3510.029
 30
2185.438
 70
    32
  0
SEQEND
  8
T30SSILL
  0
POLYLINE
  8
T30SSILL
 62
4
 66
     1
 70
     9
  0
VERTEX
  8
T30SSILL
 62
4
 10
770.465
 20
-3453.139
 30
2184.882
 70
    32
  0
VERTEX
  8
T30SSILL
 62
4
 10
767.625
 20
-3459.540
 30
2184.968
 70
    32
  0
VERTEX
  8
T30SSILL
 62
4
 10
738.090
 20
-3480.768
 30
2185.361
 70
    32
  0
VERTEX
  8
T30SSILL
 62
4
 10
744.520
 20
-3489.985
 30
2185.428
 70
    32
  0
VERTEX
  8
T30SSILL
 62
4
 10
754.297
 20
-3483.027
 30
2185.299
 70
    32
  0
VERTEX
  8
T30SSILL
 62
4
 10
750.868
 20
-3478.111
 30
2185.263
 70
    32
  0
VERTEX
  8
T30SSILL
 62
4
 10
760.161
 20
-3471.655
 30
2185.142
 70
    32
  0
VERTEX
  8
T30SSILL
 62
4
 10
763.563
 20
-3476.433
 30
2185.176
 70
    32
  0
VERTEX
  8
T30SSILL
 62
4
 10
795.816
 20
-3453.478
 30
2184.750
 70
    32
  0
VERTEX
  8
T30SSILL
 62
4
 10
794.371
 20
-3451.486
 30
2184.736
 70
    32
  0
VERTEX
  8
T30SSILL
 62
4
 10
799.295
 20
-3448.056
 30
2184.671
 70
    32
  0
VERTEX
  8
T30SSILL
 62
4
 10
796.243
 20
-3443.849
 30
2184.641
 70
    32
  0
VERTEX
  8
T30SSILL
 62
4
 10
805.958
 20
-3436.805
 30
2184.511
 70
    32
  0
VERTEX
  8
T30SSILL
 62
4
 10
803.388
 20
-3433.262
 30
2184.486
 70
    32
  0
VERTEX
  8
T30SSILL
 62
4
 10
790.770
 20
-3442.158
 30
2184.652
 70
    32
  0
VERTEX
  8
T30SSILL
 62
4
 10
788.104
 20
-3441.117
 30
2184.655
 70
    32
  0
VERTEX
  8
T30SSILL
 62
4
 10
784.087
 20
-3443.067
 30
2184.698
 70
    32
  0
VERTEX
  8
T30SSILL
 62
4
 10
780.488
 20
-3443.002
 30
2184.717
 70
    32
  0
VERTEX
  8
T30SSILL
 62
4
 10
777.569
 20
-3441.600
 30
2184.717
 70
    32
  0
VERTEX
  8
T30SSILL
 62
4
 10
771.571
 20
-3450.104
 30
2184.843
 70
    32
  0
SEQEND
  8
T30SSILL
  0
POLYLINE
  8
T30SSILL
 62
4
 66
     1
 70
     9
  0
VERTEX
  8
T30SSILL
 62
4
 10
758.499
 20
-3403.330
 30
2184.397
 70
    32
  0
VERTEX
  8
T30SSILL
 62
4
 10
754.890
 20
-3398.294
 30
2184.361
 70
    32
  0
VERTEX
  8
T30SSILL
 62
4
 10
743.466
 20
-3406.599
 30
2184.514
 70
    32
  0
VERTEX
  8
T30SSILL
 62
4
 10
750.753
 20
-3416.093
 30
2184.579
 70
    32
  0
VERTEX
  8
T30SSILL
 62
4
 10
776.787
 20
-3397.723
 30
2184.237
 70
    32
  0
VERTEX
  8
T30SSILL
 62
4
 10
773.123
 20
-3392.836
 30
2184.203
 70
    32
  0
SEQEND
  8
T30SSILL
  0
POLYLINE
  8
T30SSILL
 62
4
 66
     1
 70
     9
  0
VERTEX
  8
T30SSILL
 62
4
 10
750.979
 20
-3392.836
 30
2184.321
 70
    32
  0
VERTEX
  8
T30SSILL
 62
4
 10
748.063
 20
-3388.767
 30
2184.292
 70
    32
  0
VERTEX
  8
T30SSILL
 62
4
 10
772.318
 20
-3371.109
 30
2183.967
 70
    32
  0
VERTEX
  8
T30SSILL
 62
4
 10
775.321
 20
-3375.301
 30
2183.997
 70
    32
  0
VERTEX
  8
T30SSILL
 62
4
 10
783.328
 20
-3369.532
 30
2183.891
 70
    32
  0
VERTEX
  8
T30SSILL
 62
4
 10
787.042
 20
-3374.922
 30
2183.930
 70
    32
  0
VERTEX
  8
T30SSILL
 62
4
 10
779.157
 20
-3380.654
 30
2184.036
 70
    32
  0
VERTEX
  8
T30SSILL
 62
4
 10
786.445
 20
-3390.825
 30
2184.109
 70
    32
  0
VERTEX
  8
T30SSILL
 62
4
 10
802.064
 20
-3403.011
 30
2184.159
 70
    32
  0
VERTEX
  8
T30SSILL
 62
4
 10
890.500
 20
-3339.311
 30
2183.040
 70
    32
  0
VERTEX
  8
T30SSILL
 62
4
 10
869.122
 20
-3314.763
 30
2182.888
 70
    32
  0
VERTEX
  8
T30SSILL
 62
4
 10
855.234
 20
-3324.914
 30
2183.012
 70
    32
  0
VERTEX
  8
T30SSILL
 62
4
 10
856.621
 20
-3328.895
 30
2183.048
 70
    32
  0
VERTEX
  8
T30SSILL
 62
4
 10
863.528
 20
-3336.765
 30
2183.098
 70
    32
  0
VERTEX
  8
T30SSILL
 62
4
 10
868.086
 20
-3344.663
 30
2183.161
 70
    32
  0
VERTEX
  8
T30SSILL
 62
4
 10
846.690
 20
-3359.314
 30
2183.437
 70
    32
  0
VERTEX
  8
T30SSILL
 62
4
 10
832.623
 20
-3341.061
 30
2183.312
 70
    32
  0
VERTEX
  8
T30SSILL
 62
4
 10
826.792
 20
-3345.035
 30
2183.387
 70
    32
  0
VERTEX
  8
T30SSILL
 62
4
 10
823.331
 20
-3340.244
 30
2183.352
 70
    32
  0
VERTEX
  8
T30SSILL
 62
4
 10
864.832
 20
-3310.712
 30
2182.864
 70
    32
  0
VERTEX
  8
T30SSILL
 62
4
 10
845.605
 20
-3288.698
 30
2182.727
 70
    32
  0
VERTEX
  8
T30SSILL
 62
4
 10
775.020
 20
-3339.469
 30
2183.603
 70
    32
  0
VERTEX
  8
T30SSILL
 62
4
 10
776.176
 20
-3346.547
 30
2183.675
 70
    32
  0
VERTEX
  8
T30SSILL
 62
4
 10
770.489
 20
-3352.573
 30
2183.772
 70
    32
  0
VERTEX
  8
T30SSILL
 62
4
 10
773.653
 20
-3363.708
 30
2183.878
 70
    32
  0
VERTEX
  8
T30SSILL
 62
4
 10
749.229
 20
-3381.878
 30
2184.210
 70
    32
  0
VERTEX
  8
T30SSILL
 62
4
 10
747.112
 20
-3375.931
 30
2184.156
 70
    32
  0
VERTEX
  8
T30SSILL
 62
4
 10
739.171
 20
-3365.254
 30
2184.081
 70
    32
  0
VERTEX
  8
T30SSILL
 62
4
 10
720.350
 20
-3378.792
 30
2184.331
 70
    32
  0
VERTEX
  8
T30SSILL
 62
4
 10
723.974
 20
-3397.938
 30
2184.523
 70
    32
  0
VERTEX
  8
T30SSILL
 62
4
 10
722.509
 20
-3399.003
 30
2184.542
 70
    32
  0
VERTEX
  8
T30SSILL
 62
4
 10
729.598
 20
-3408.240
 30
2184.606
 70
    32
  0
SEQEND
  8
T30SSILL
  0
POLYLINE
  8
T30SSILL
 62
4
 66
     1
 70
     9
  0
VERTEX
  8
T30SSILL
 62
4
 10
746.322
 20
-3312.526
 30
2183.460
 70
    32
  0
VERTEX
  8
T30SSILL
 62
4
 10
759.259
 20
-3303.211
 30
2183.288
 70
    32
  0
VERTEX
  8
T30SSILL
 62
4
 10
751.963
 20
-3271.127
 30
2182.973
 70
    32
  0
VERTEX
  8
T30SSILL
 62
4
 10
752.320
 20
-3267.767
 30
2182.934
 70
    32
  0
VERTEX
  8
T30SSILL
 62
4
 10
755.038
 20
-3262.236
 30
2182.858
 70
    32
  0
VERTEX
  8
T30SSILL
 62
4
 10
758.682
 20
-3257.888
 30
2182.791
 70
    32
  0
VERTEX
  8
T30SSILL
 62
4
 10
794.806
 20
-3231.159
 30
2182.372
 70
    32
  0
VERTEX
  8
T30SSILL
 62
4
 10
836.054
 20
-3278.589
 30
2182.666
 70
    32
  0
VERTEX
  8
T30SSILL
 62
4
 10
835.230
 20
-3287.563
 30
2182.733
 70
    32
  0
VERTEX
  8
T30SSILL
 62
4
 10
764.121
 20
-3338.401
 30
2183.650
 70
    32
  0
VERTEX
  8
T30SSILL
 62
4
 10
757.745
 20
-3335.440
 30
2183.652
 70
    32
  0
VERTEX
  8
T30SSILL
 62
4
 10
751.431
 20
-3325.648
 30
2183.578
 70
    32
  0
VERTEX
  8
T30SSILL
 62
4
 10
749.321
 20
-3324.326
 30
2183.574
 70
    32
  0
VERTEX
  8
T30SSILL
 62
4
 10
743.602
 20
-3329.271
 30
2183.660
 70
    32
  0
VERTEX
  8
T30SSILL
 62
4
 10
740.093
 20
-3324.405
 30
2183.625
 70
    32
  0
VERTEX
  8
T30SSILL
 62
4
 10
749.831
 20
-3317.393
 30
2183.495
 70
    32
  0
SEQEND
  8
T30SSILL
  0
POLYLINE
  8
T30SSILL
 62
4
 66
     1
 70
     9
  0
VERTEX
  8
T30SSILL
 62
4
 10
784.179
 20
-3222.632
 30
2182.324
 70
    32
  0
VERTEX
  8
T30SSILL
 62
4
 10
782.514
 20
-3218.339
 30
2182.294
 70
    32
  0
VERTEX
  8
T30SSILL
 62
4
 10
754.845
 20
-3185.803
 30
2182.092
 70
    32
  0
VERTEX
  8
T30SSILL
 62
4
 10
750.168
 20
-3218.691
 30
2182.404
 70
    32
  0
VERTEX
  8
T30SSILL
 62
4
 10
715.191
 20
-3243.988
 30
2182.871
 70
    32
  0
VERTEX
  8
T30SSILL
 62
4
 10
722.213
 20
-3253.745
 30
2182.941
 70
    32
  0
VERTEX
  8
T30SSILL
 62
4
 10
718.136
 20
-3256.718
 30
2182.996
 70
    32
  0
VERTEX
  8
T30SSILL
 62
4
 10
724.950
 20
-3260.636
 30
2183.002
 70
    32
  0
VERTEX
  8
T30SSILL
 62
4
 10
732.195
 20
-3268.929
 30
2183.055
 70
    32
  0
VERTEX
  8
T30SSILL
 62
4
 10
783.990
 20
-3231.349
 30
2182.388
 70
    32
  0
VERTEX
  8
T30SSILL
 62
4
 10
784.470
 20
-3225.221
 30
2182.342
 70
    32
  0
SEQEND
  8
T30SSILL
  0
POLYLINE
  8
T30SSILL
 62
4
 66
     1
 70
     9
  0
VERTEX
  8
T30SSILL
 62
4
 10
513.213
 20
-3449.636
 30
2183.770
 70
    32
  0
VERTEX
  8
T30SSILL
 62
4
 10
509.105
 20
-3437.859
 30
2183.958
 70
    32
  0
VERTEX
  8
T30SSILL
 62
4
 10
609.166
 20
-3365.531
 30
2181.734
 70
    32
  0
VERTEX
  8
T30SSILL
 62
4
 10
621.173
 20
-3379.394
 30
2182.090
 70
    32
  0
VERTEX
  8
T30SSILL
 62
4
 10
624.727
 20
-3376.368
 30
2182.175
 70
    32
  0
VERTEX
  8
T30SSILL
 62
4
 10
632.046
 20
-3386.257
 30
2182.396
 70
    32
  0
VERTEX
  8
T30SSILL
 62
4
 10
598.270
 20
-3410.498
 30
2181.609
 70
    32
  0
VERTEX
  8
T30SSILL
 62
4
 10
594.680
 20
-3405.612
 30
2181.757
 70
    32
  0
VERTEX
  8
T30SSILL
 62
4
 10
589.861
 20
-3409.186
 30
2181.927
 70
    32
  0
VERTEX
  8
T30SSILL
 62
4
 10
593.395
 20
-3413.996
 30
2181.781
 70
    32
  0
VERTEX
  8
T30SSILL
 62
4
 10
588.520
 20
-3417.495
 30
2181.954
 70
    32
  0
VERTEX
  8
T30SSILL
 62
4
 10
586.735
 20
-3415.065
 30
2182.027
 70
    32
  0
VERTEX
  8
T30SSILL
 62
4
 10
576.871
 20
-3421.965
 30
2182.377
 70
    32
  0
VERTEX
  8
T30SSILL
 62
4
 10
578.652
 20
-3424.577
 30
2182.303
 70
    32
  0
VERTEX
  8
T30SSILL
 62
4
 10
573.942
 20
-3427.957
 30
2182.470
 70
    32
  0
VERTEX
  8
T30SSILL
 62
4
 10
570.517
 20
-3423.269
 30
2182.611
 70
    32
  0
VERTEX
  8
T30SSILL
 62
4
 10
564.451
 20
-3427.684
 30
2182.826
 70
    32
  0
VERTEX
  8
T30SSILL
 62
4
 10
567.799
 20
-3432.366
 30
2182.687
 70
    32
  0
VERTEX
  8
T30SSILL
 62
4
 10
515.098
 20
-3470.189
 30
2183.549
 70
    32
  0
VERTEX
  8
T30SSILL
 62
4
 10
511.997
 20
-3465.709
 30
2183.651
 70
    32
  0
VERTEX
  8
T30SSILL
 62
4
 10
482.775
 20
-3486.746
 30
2184.492
 70
    32
  0
VERTEX
  8
T30SSILL
 62
4
 10
485.847
 20
-3491.182
 30
2184.466
 70
    32
  0
VERTEX
  8
T30SSILL
 62
4
 10
479.679
 20
-3495.609
 30
2184.723
 70
    32
  0
VERTEX
  8
T30SSILL
 62
4
 10
471.350
 20
-3548.065
 30
2185.778
 70
    32
  0
VERTEX
  8
T30SSILL
 62
4
 10
454.954
 20
-3559.418
 30
2186.454
 70
    32
  0
VERTEX
  8
T30SSILL
 62
4
 10
449.340
 20
-3567.276
 30
2186.746
 70
    32
  0
VERTEX
  8
T30SSILL
 62
4
 10
446.717
 20
-3574.029
 30
2186.930
 70
    32
  0
VERTEX
  8
T30SSILL
 62
4
 10
417.804
 20
-3520.956
 30
2187.010
 70
    32
  0
VERTEX
  8
T30SSILL
 62
4
 10
417.212
 20
-3512.350
 30
2186.897
 70
    32
  0
VERTEX
  8
T30SSILL
 62
4
 10
420.722
 20
-3503.158
 30
2186.649
 70
    32
  0
VERTEX
  8
T30SSILL
 62
4
 10
422.971
 20
-3500.205
 30
2186.535
 70
    32
  0
VERTEX
  8
T30SSILL
 62
4
 10
471.982
 20
-3464.694
 30
2184.488
 70
    32
  0
VERTEX
  8
T30SSILL
 62
4
 10
475.230
 20
-3469.496
 30
2184.462
 70
    32
  0
VERTEX
  8
T30SSILL
 62
4
 10
467.383
 20
-3475.680
 30
2184.797
 70
    32
  0
VERTEX
  8
T30SSILL
 62
4
 10
478.283
 20
-3483.052
 30
2184.574
 70
    32
  0
VERTEX
  8
T30SSILL
 62
4
 10
514.681
 20
-3456.562
 30
2183.679
 70
    32
  0
VERTEX
  8
T30SSILL
 62
4
 10
513.794
 20
-3452.025
 30
2183.737
 70
    32
  0
SEQEND
  8
T30SSILL
  0
POLYLINE
  8
T30SSILL
 62
4
 66
     1
 70
     9
  0
VERTEX
  8
T30SSILL
 62
4
 10
401.836
 20
-3414.896
 30
2186.329
 70
    32
  0
VERTEX
  8
T30SSILL
 62
4
 10
409.797
 20
-3364.838
 30
2186.614
 70
    32
  0
VERTEX
  8
T30SSILL
 62
4
 10
510.176
 20
-3292.122
 30
2185.236
 70
    32
  0
VERTEX
  8
T30SSILL
 62
4
 10
581.913
 20
-3240.155
 30
2182.698
 70
    32
  0
VERTEX
  8
T30SSILL
 62
4
 10
578.493
 20
-3235.427
 30
2182.839
 70
    32
  0
VERTEX
  8
T30SSILL
 62
4
 10
583.824
 20
-3231.638
 30
2182.651
 70
    32
  0
VERTEX
  8
T30SSILL
 62
4
 10
587.150
 20
-3236.361
 30
2182.513
 70
    32
  0
VERTEX
  8
T30SSILL
 62
4
 10
622.707
 20
-3210.603
 30
2181.637
 70
    32
  0
VERTEX
  8
T30SSILL
 62
4
 10
619.830
 20
-3206.555
 30
2181.550
 70
    32
  0
VERTEX
  8
T30SSILL
 62
4
 10
624.698
 20
-3203.048
 30
2181.667
 70
    32
  0
VERTEX
  8
T30SSILL
 62
4
 10
617.031
 20
-3192.258
 30
2181.519
 70
    32
  0
VERTEX
  8
T30SSILL
 62
4
 10
626.835
 20
-3185.339
 30
2181.672
 70
    32
  0
VERTEX
  8
T30SSILL
 62
4
 10
637.284
 20
-3200.043
 30
2181.989
 70
    32
  0
VERTEX
  8
T30SSILL
 62
4
 10
685.779
 20
-3164.913
 30
2182.157
 70
    32
  0
VERTEX
  8
T30SSILL
 62
4
 10
679.029
 20
-3155.543
 30
2182.089
 70
    32
  0
VERTEX
  8
T30SSILL
 62
4
 10
694.507
 20
-3144.633
 30
2181.886
 70
    32
  0
VERTEX
  8
T30SSILL
 62
4
 10
701.055
 20
-3153.847
 30
2181.952
 70
    32
  0
VERTEX
  8
T30SSILL
 62
4
 10
716.354
 20
-3142.764
 30
2181.827
 70
    32
  0
VERTEX
  8
T30SSILL
 62
4
 10
695.218
 20
-3118.335
 30
2181.724
 70
    32
  0
VERTEX
  8
T30SSILL
 62
4
 10
620.103
 20
-3172.819
 30
2181.458
 70
    32
  0
VERTEX
  8
T30SSILL
 62
4
 10
499.005
 20
-3260.658
 30
2185.743
 70
    32
  0
VERTEX
  8
T30SSILL
 62
4
 10
350.129
 20
-3368.633
 30
2187.401
 70
    32
  0
VERTEX
  8
T30SSILL
 62
4
 10
345.308
 20
-3374.847
 30
2187.413
 70
    32
  0
VERTEX
  8
T30SSILL
 62
4
 10
343.276
 20
-3381.067
 30
2187.397
 70
    32
  0
VERTEX
  8
T30SSILL
 62
4
 10
344.349
 20
-3390.394
 30
2187.378
 70
    32
  0
VERTEX
  8
T30SSILL
 62
4
 10
374.898
 20
-3444.652
 30
2187.166
 70
    32
  0
VERTEX
  8
T30SSILL
 62
4
 10
375.822
 20
-3440.314
 30
2187.071
 70
    32
  0
VERTEX
  8
T30SSILL
 62
4
 10
380.048
 20
-3432.545
 30
2186.823
 70
    32
  0
VERTEX
  8
T30SSILL
 62
4
 10
386.396
 20
-3426.535
 30
2186.536
 70
    32
  0
SEQEND
  8
T30SSILL
  0
POLYLINE
  8
T30SSILL
 62
4
 66
     1
 70
     9
  0
VERTEX
  8
T30SSILL
 62
4
 10
547.129
 20
-3208.041
 30
2184.090
 70
    32
  0
VERTEX
  8
T30SSILL
 62
4
 10
523.079
 20
-3176.340
 30
2185.078
 70
    32
  0
VERTEX
  8
T30SSILL
 62
4
 10
522.372
 20
-3171.420
 30
2185.119
 70
    32
  0
VERTEX
  8
T30SSILL
 62
4
 10
523.174
 20
-3167.697
 30
2185.099
 70
    32
  0
VERTEX
  8
T30SSILL
 62
4
 10
536.673
 20
-3156.707
 30
2184.625
 70
    32
  0
VERTEX
  8
T30SSILL
 62
4
 10
532.211
 20
-3150.791
 30
2184.808
 70
    32
  0
VERTEX
  8
T30SSILL
 62
4
 10
515.653
 20
-3165.386
 30
2185.387
 70
    32
  0
VERTEX
  8
T30SSILL
 62
4
 10
514.471
 20
-3168.731
 30
2185.422
 70
    32
  0
VERTEX
  8
T30SSILL
 62
4
 10
514.583
 20
-3177.660
 30
2185.392
 70
    32
  0
VERTEX
  8
T30SSILL
 62
4
 10
544.317
 20
-3218.699
 30
2184.165
 70
    32
  0
VERTEX
  8
T30SSILL
 62
4
 10
438.557
 20
-3295.616
 30
2186.651
 70
    32
  0
VERTEX
  8
T30SSILL
 62
4
 10
430.299
 20
-3296.458
 30
2186.810
 70
    32
  0
VERTEX
  8
T30SSILL
 62
4
 10
426.327
 20
-3294.268
 30
2186.910
 70
    32
  0
VERTEX
  8
T30SSILL
 62
4
 10
400.769
 20
-3261.224
 30
2187.261
 70
    32
  0
VERTEX
  8
T30SSILL
 62
4
 10
390.170
 20
-3254.392
 30
2187.321
 70
    32
  0
VERTEX
  8
T30SSILL
 62
4
 10
381.882
 20
-3252.646
 30
2187.365
 70
    32
  0
VERTEX
  8
T30SSILL
 62
4
 10
472.883
 20
-3187.088
 30
2186.926
 70
    32
  0
VERTEX
  8
T30SSILL
 62
4
 10
581.494
 20
-3108.843
 30
2183.082
 70
    32
  0
VERTEX
  8
T30SSILL
 62
4
 10
590.375
 20
-3112.638
 30
2182.739
 70
    32
  0
VERTEX
  8
T30SSILL
 62
4
 10
625.285
 20
-3159.812
 30
2181.556
 70
    32
  0
VERTEX
  8
T30SSILL
 62
4
 10
557.094
 20
-3209.406
 30
2183.713
 70
    32
  0
VERTEX
  8
T30SSILL
 62
4
 10
550.105
 20
-3209.163
 30
2183.975
 70
    32
  0
SEQEND
  8
T30SSILL
  0
POLYLINE
  8
T30SSILL
 62
4
 66
     1
 70
     9
  0
VERTEX
  8
T30SSILL
 62
4
 10
381.830
 20
-3455.321
 30
2187.115
 70
    32
  0
VERTEX
  8
T30SSILL
 62
4
 10
380.754
 20
-3450.454
 30
2187.074
 70
    32
  0
VERTEX
  8
T30SSILL
 62
4
 10
382.026
 20
-3442.186
 30
2186.909
 70
    32
  0
VERTEX
  8
T30SSILL
 62
4
 10
387.104
 20
-3434.246
 30
2186.632
 70
    32
  0
VERTEX
  8
T30SSILL
 62
4
 10
459.155
 20
-3382.556
 30
2185.460
 70
    32
  0
VERTEX
  8
T30SSILL
 62
4
 10
465.884
 20
-3383.568
 30
2185.315
 70
    32
  0
VERTEX
  8
T30SSILL
 62
4
 10
473.625
 20
-3395.070
 30
2185.056
 70
    32
  0
VERTEX
  8
T30SSILL
 62
4
 10
472.062
 20
-3396.072
 30
2185.079
 70
    32
  0
VERTEX
  8
T30SSILL
 62
4
 10
477.397
 20
-3404.951
 30
2184.892
 70
    32
  0
VERTEX
  8
T30SSILL
 62
4
 10
483.497
 20
-3399.209
 30
2184.820
 70
    32
  0
VERTEX
  8
T30SSILL
 62
4
 10
485.640
 20
-3399.635
 30
2184.773
 70
    32
  0
VERTEX
  8
T30SSILL
 62
4
 10
491.159
 20
-3408.925
 30
2184.579
 70
    32
  0
VERTEX
  8
T30SSILL
 62
4
 10
488.708
 20
-3421.172
 30
2184.519
 70
    32
  0
VERTEX
  8
T30SSILL
 62
4
 10
501.949
 20
-3428.223
 30
2184.189
 70
    32
  0
VERTEX
  8
T30SSILL
 62
4
 10
504.899
 20
-3426.126
 30
2184.148
 70
    32
  0
VERTEX
  8
T30SSILL
 62
4
 10
505.483
 20
-3409.575
 30
2184.284
 70
    32
  0
VERTEX
  8
T30SSILL
 62
4
 10
498.783
 20
-3405.023
 30
2184.459
 70
    32
  0
VERTEX
  8
T30SSILL
 62
4
 10
497.448
 20
-3401.316
 30
2184.519
 70
    32
  0
VERTEX
  8
T30SSILL
 62
4
 10
491.151
 20
-3374.168
 30
2184.889
 70
    32
  0
VERTEX
  8
T30SSILL
 62
4
 10
491.743
 20
-3359.178
 30
2185.010
 70
    32
  0
VERTEX
  8
T30SSILL
 62
4
 10
585.073
 20
-3292.223
 30
2182.434
 70
    32
  0
VERTEX
  8
T30SSILL
 62
4
 10
600.564
 20
-3313.241
 30
2181.795
 70
    32
  0
VERTEX
  8
T30SSILL
 62
4
 10
584.520
 20
-3324.990
 30
2182.363
 70
    32
  0
VERTEX
  8
T30SSILL
 62
4
 10
586.456
 20
-3327.745
 30
2182.283
 70
    32
  0
VERTEX
  8
T30SSILL
 62
4
 10
521.998
 20
-3374.115
 30
2184.266
 70
    32
  0
VERTEX
  8
T30SSILL
 62
4
 10
526.416
 20
-3380.513
 30
2184.120
 70
    32
  0
VERTEX
  8
T30SSILL
 62
4
 10
590.811
 20
-3333.941
 30
2182.102
 70
    32
  0
VERTEX
  8
T30SSILL
 62
4
 10
608.631
 20
-3358.025
 30
2181.698
 70
    32
  0
VERTEX
  8
T30SSILL
 62
4
 10
503.752
 20
-3433.648
 30
2184.104
 70
    32
  0
VERTEX
  8
T30SSILL
 62
4
 10
486.172
 20
-3422.207
 30
2184.561
 70
    32
  0
VERTEX
  8
T30SSILL
 62
4
 10
460.986
 20
-3440.397
 30
2184.907
 70
    32
  0
VERTEX
  8
T30SSILL
 62
4
 10
466.696
 20
-3450.504
 30
2184.702
 70
    32
  0
VERTEX
  8
T30SSILL
 62
4
 10
468.303
 20
-3459.802
 30
2184.586
 70
    32
  0
VERTEX
  8
T30SSILL
 62
4
 10
418.618
 20
-3496.243
 30
2186.608
 70
    32
  0
VERTEX
  8
T30SSILL
 62
4
 10
413.489
 20
-3503.872
 30
2186.882
 70
    32
  0
VERTEX
  8
T30SSILL
 62
4
 10
411.947
 20
-3510.808
 30
2187.035
 70
    32
  0
VERTEX
  8
T30SSILL
 62
4
 10
382.532
 20
-3457.529
 30
2187.127
 70
    32
  0
SEQEND
  8
T30SSILL
  0
POLYLINE
  8
T30SSILL
 62
4
 66
     1
 70
     9
  0
VERTEX
  8
T30SSILL
 62
4
 10
465.981
 20
-3364.656
 30
2185.482
 70
    32
  0
VERTEX
  8
T30SSILL
 62
4
 10
471.200
 20
-3362.247
 30
2185.398
 70
    32
  0
VERTEX
  8
T30SSILL
 62
4
 10
475.316
 20
-3349.142
 30
2185.432
 70
    32
  0
VERTEX
  8
T30SSILL
 62
4
 10
480.116
 20
-3341.724
 30
2185.401
 70
    32
  0
VERTEX
  8
T30SSILL
 62
4
 10
483.015
 20
-3339.555
 30
2185.362
 70
    32
  0
VERTEX
  8
T30SSILL
 62
4
 10
488.550
 20
-3337.896
 30
2185.265
 70
    32
  0
VERTEX
  8
T30SSILL
 62
4
 10
499.886
 20
-3344.520
 30
2184.977
 70
    32
  0
VERTEX
  8
T30SSILL
 62
4
 10
603.602
 20
-3270.140
 30
2181.803
 70
    32
  0
VERTEX
  8
T30SSILL
 62
4
 10
586.078
 20
-3245.914
 30
2182.526
 70
    32
  0
VERTEX
  8
T30SSILL
 62
4
 10
512.677
 20
-3299.166
 30
2185.123
 70
    32
  0
VERTEX
  8
T30SSILL
 62
4
 10
415.717
 20
-3369.511
 30
2186.453
 70
    32
  0
VERTEX
  8
T30SSILL
 62
4
 10
409.268
 20
-3409.506
 30
2186.227
 70
    32
  0
VERTEX
  8
T30SSILL
 62
4
 10
467.637
 20
-3367.647
 30
2185.422
 70
    32
  0
SEQEND
  8
T30SSILL
  0
POLYLINE
  8
T30SSILL
 62
4
 66
     1
 70
     9
  0
VERTEX
  8
T30SSILL
 62
4
 10
314.548
 20
-3301.155
 30
2187.540
 70
    32
  0
VERTEX
  8
T30SSILL
 62
4
 10
372.133
 20
-3259.670
 30
2187.406
 70
    32
  0
VERTEX
  8
T30SSILL
 62
4
 10
376.600
 20
-3259.567
 30
2187.384
 70
    32
  0
VERTEX
  8
T30SSILL
 62
4
 10
390.129
 20
-3262.881
 30
2187.313
 70
    32
  0
VERTEX
  8
T30SSILL
 62
4
 10
398.371
 20
-3269.089
 30
2187.265
 70
    32
  0
VERTEX
  8
T30SSILL
 62
4
 10
425.527
 20
-3305.092
 30
2186.830
 70
    32
  0
VERTEX
  8
T30SSILL
 62
4
 10
349.343
 20
-3360.499
 30
2187.413
 70
    32
  0
VERTEX
  8
T30SSILL
 62
4
 10
340.909
 20
-3368.775
 30
2187.421
 70
    32
  0
VERTEX
  8
T30SSILL
 62
4
 10
336.846
 20
-3378.108
 30
2187.396
 70
    32
  0
VERTEX
  8
T30SSILL
 62
4
 10
307.557
 20
-3323.645
 30
2187.485
 70
    32
  0
VERTEX
  8
T30SSILL
 62
4
 10
307.019
 20
-3314.162
 30
2187.504
 70
    32
  0
VERTEX
  8
T30SSILL
 62
4
 10
311.485
 20
-3304.015
 30
2187.530
 70
    32
  0
SEQEND
  8
T30SSILL
  0
POLYLINE
  8
T30SSILL
 62
4
 66
     1
 70
     9
  0
VERTEX
  8
T30SSILL
 62
4
 10
631.292
 20
-3563.217
 30
2183.487
 70
    32
  0
VERTEX
  8
T30SSILL
 62
4
 10
641.051
 20
-3556.233
 30
2183.454
 70
    32
  0
VERTEX
  8
T30SSILL
 62
4
 10
644.543
 20
-3561.138
 30
2183.618
 70
    32
  0
VERTEX
  8
T30SSILL
 62
4
 10
649.465
 20
-3557.635
 30
2183.643
 70
    32
  0
VERTEX
  8
T30SSILL
 62
4
 10
643.683
 20
-3549.348
 30
2183.368
 70
    32
  0
VERTEX
  8
T30SSILL
 62
4
 10
646.054
 20
-3547.638
 30
2183.379
 70
    32
  0
VERTEX
  8
T30SSILL
 62
4
 10
634.837
 20
-3532.243
 30
2182.896
 70
    32
  0
VERTEX
  8
T30SSILL
 62
4
 10
614.121
 20
-3547.170
 30
2182.851
 70
    32
  0
VERTEX
  8
T30SSILL
 62
4
 10
625.481
 20
-3561.928
 30
2183.403
 70
    32
  0
VERTEX
  8
T30SSILL
 62
4
 10
610.343
 20
-3573.230
 30
2183.647
 70
    32
  0
VERTEX
  8
T30SSILL
 62
4
 10
612.894
 20
-3576.780
 30
2183.778
 70
    32
  0
VERTEX
  8
T30SSILL
 62
4
 10
617.808
 20
-3573.337
 30
2183.706
 70
    32
  0
VERTEX
  8
T30SSILL
 62
4
 10
621.055
 20
-3577.855
 30
2183.873
 70
    32
  0
VERTEX
  8
T30SSILL
 62
4
 10
634.766
 20
-3568.097
 30
2183.667
 70
    32
  0
SEQEND
  8
T30SSILL
  0
POLYLINE
  8
T30SSILL
 62
4
 66
     1
 70
     9
  0
VERTEX
  8
T30SSILL
 62
4
 10
539.562
 20
-3554.990
 30
2183.787
 70
    32
  0
VERTEX
  8
T30SSILL
 62
4
 10
536.267
 20
-3560.742
 30
2183.976
 70
    32
  0
VERTEX
  8
T30SSILL
 62
4
 10
534.843
 20
-3568.090
 30
2184.132
 70
    32
  0
VERTEX
  8
T30SSILL
 62
4
 10
530.353
 20
-3594.593
 30
2184.674
 70
    32
  0
VERTEX
  8
T30SSILL
 62
4
 10
531.952
 20
-3597.571
 30
2184.670
 70
    32
  0
VERTEX
  8
T30SSILL
 62
4
 10
549.809
 20
-3584.709
 30
2183.925
 70
    32
  0
VERTEX
  8
T30SSILL
 62
4
 10
546.352
 20
-3580.382
 30
2183.966
 70
    32
  0
VERTEX
  8
T30SSILL
 62
4
 10
542.798
 20
-3566.075
 30
2183.857
 70
    32
  0
VERTEX
  8
T30SSILL
 62
4
 10
589.623
 20
-3532.227
 30
2182.195
 70
    32
  0
VERTEX
  8
T30SSILL
 62
4
 10
600.627
 20
-3535.184
 30
2182.371
 70
    32
  0
VERTEX
  8
T30SSILL
 62
4
 10
605.779
 20
-3537.930
 30
2182.497
 70
    32
  0
VERTEX
  8
T30SSILL
 62
4
 10
609.105
 20
-3541.998
 30
2182.650
 70
    32
  0
VERTEX
  8
T30SSILL
 62
4
 10
627.479
 20
-3528.763
 30
2182.692
 70
    32
  0
VERTEX
  8
T30SSILL
 62
4
 10
622.357
 20
-3508.241
 30
2182.498
 70
    32
  0
VERTEX
  8
T30SSILL
 62
4
 10
615.066
 20
-3499.279
 30
2182.280
 70
    32
  0
VERTEX
  8
T30SSILL
 62
4
 10
591.167
 20
-3516.865
 30
2181.721
 70
    32
  0
VERTEX
  8
T30SSILL
 62
4
 10
563.334
 20
-3537.347
 30
2182.788
 70
    32
  0
VERTEX
  8
T30SSILL
 62
4
 10
566.715
 20
-3542.231
 30
2182.759
 70
    32
  0
VERTEX
  8
T30SSILL
 62
4
 10
556.884
 20
-3549.112
 30
2183.166
 70
    32
  0
VERTEX
  8
T30SSILL
 62
4
 10
553.715
 20
-3544.535
 30
2183.193
 70
    32
  0
VERTEX
  8
T30SSILL
 62
4
 10
541.340
 20
-3553.531
 30
2183.710
 70
    32
  0
SEQEND
  8
T30SSILL
  0
POLYLINE
  8
T30SSILL
 62
4
 66
     1
 70
     9
  0
VERTEX
  8
T30SSILL
 62
4
 10
537.852
 20
-3532.162
 30
2183.492
 70
    32
  0
VERTEX
  8
T30SSILL
 62
4
 10
547.666
 20
-3525.255
 30
2183.085
 70
    32
  0
VERTEX
  8
T30SSILL
 62
4
 10
551.081
 20
-3530.188
 30
2183.056
 70
    32
  0
VERTEX
  8
T30SSILL
 62
4
 10
560.895
 20
-3523.282
 30
2182.649
 70
    32
  0
VERTEX
  8
T30SSILL
 62
4
 10
563.823
 20
-3527.512
 30
2182.623
 70
    32
  0
VERTEX
  8
T30SSILL
 62
4
 10
610.847
 20
-3493.366
 30
2182.152
 70
    32
  0
VERTEX
  8
T30SSILL
 62
4
 10
596.070
 20
-3471.898
 30
2181.701
 70
    32
  0
VERTEX
  8
T30SSILL
 62
4
 10
590.988
 20
-3471.840
 30
2181.709
 70
    32
  0
VERTEX
  8
T30SSILL
 62
4
 10
527.567
 20
-3517.458
 30
2183.584
 70
    32
  0
VERTEX
  8
T30SSILL
 62
4
 10
526.132
 20
-3533.493
 30
2183.873
 70
    32
  0
VERTEX
  8
T30SSILL
 62
4
 10
525.380
 20
-3535.957
 30
2183.933
 70
    32
  0
VERTEX
  8
T30SSILL
 62
4
 10
522.432
 20
-3538.666
 30
2184.065
 70
    32
  0
VERTEX
  8
T30SSILL
 62
4
 10
519.397
 20
-3540.790
 30
2184.191
 70
    32
  0
VERTEX
  8
T30SSILL
 62
4
 10
516.536
 20
-3540.855
 30
2184.279
 70
    32
  0
VERTEX
  8
T30SSILL
 62
4
 10
509.016
 20
-3530.801
 30
2184.357
 70
    32
  0
VERTEX
  8
T30SSILL
 62
4
 10
463.151
 20
-3563.791
 30
2186.269
 70
    32
  0
VERTEX
  8
T30SSILL
 62
4
 10
457.305
 20
-3571.435
 30
2186.565
 70
    32
  0
VERTEX
  8
T30SSILL
 62
4
 10
456.017
 20
-3580.518
 30
2186.743
 70
    32
  0
VERTEX
  8
T30SSILL
 62
4
 10
457.751
 20
-3588.994
 30
2186.819
 70
    32
  0
VERTEX
  8
T30SSILL
 62
4
 10
485.854
 20
-3638.224
 30
2186.705
 70
    32
  0
VERTEX
  8
T30SSILL
 62
4
 10
489.540
 20
-3630.262
 30
2186.471
 70
    32
  0
VERTEX
  8
T30SSILL
 62
4
 10
493.492
 20
-3625.450
 30
2186.276
 70
    32
  0
VERTEX
  8
T30SSILL
 62
4
 10
516.865
 20
-3608.438
 30
2185.299
 70
    32
  0
VERTEX
  8
T30SSILL
 62
4
 10
529.800
 20
-3556.117
 30
2184.104
 70
    32
  0
VERTEX
  8
T30SSILL
 62
4
 10
534.129
 20
-3549.535
 30
2183.871
 70
    32
  0
VERTEX
  8
T30SSILL
 62
4
 10
544.398
 20
-3541.617
 30
2183.435
 70
    32
  0
SEQEND
  8
T30SSILL
  0
POLYLINE
  8
T30SSILL
 62
4
 66
     1
 70
     9
  0
VERTEX
  8
T30SSILL
 62
4
 10
583.183
 20
-3653.575
 30
2185.984
 70
    32
  0
VERTEX
  8
T30SSILL
 62
4
 10
587.366
 20
-3647.300
 30
2185.817
 70
    32
  0
VERTEX
  8
T30SSILL
 62
4
 10
587.575
 20
-3644.679
 30
2185.735
 70
    32
  0
VERTEX
  8
T30SSILL
 62
4
 10
586.120
 20
-3637.839
 30
2185.508
 70
    32
  0
VERTEX
  8
T30SSILL
 62
4
 10
584.263
 20
-3634.727
 30
2185.396
 70
    32
  0
VERTEX
  8
T30SSILL
 62
4
 10
594.567
 20
-3627.617
 30
2185.248
 70
    32
  0
VERTEX
  8
T30SSILL
 62
4
 10
602.147
 20
-3635.977
 30
2185.569
 70
    32
  0
VERTEX
  8
T30SSILL
 62
4
 10
608.358
 20
-3635.575
 30
2185.603
 70
    32
  0
VERTEX
  8
T30SSILL
 62
4
 10
641.888
 20
-3611.602
 30
2185.096
 70
    32
  0
VERTEX
  8
T30SSILL
 62
4
 10
632.240
 20
-3596.953
 30
2184.561
 70
    32
  0
VERTEX
  8
T30SSILL
 62
4
 10
624.126
 20
-3602.689
 30
2184.681
 70
    32
  0
VERTEX
  8
T30SSILL
 62
4
 10
617.259
 20
-3593.134
 30
2184.328
 70
    32
  0
VERTEX
  8
T30SSILL
 62
4
 10
607.505
 20
-3600.123
 30
2184.476
 70
    32
  0
VERTEX
  8
T30SSILL
 62
4
 10
605.945
 20
-3597.953
 30
2184.396
 70
    32
  0
VERTEX
  8
T30SSILL
 62
4
 10
588.147
 20
-3610.155
 30
2184.648
 70
    32
  0
VERTEX
  8
T30SSILL
 62
4
 10
583.122
 20
-3614.967
 30
2184.763
 70
    32
  0
VERTEX
  8
T30SSILL
 62
4
 10
581.094
 20
-3620.370
 30
2184.918
 70
    32
  0
VERTEX
  8
T30SSILL
 62
4
 10
573.974
 20
-3660.158
 30
2186.123
 70
    32
  0
SEQEND
  8
T30SSILL
  0
POLYLINE
  8
T30SSILL
 62
4
 66
     1
 70
     9
  0
VERTEX
  8
T30SSILL
 62
4
 10
658.243
 20
-3650.815
 30
2186.237
 70
    32
  0
VERTEX
  8
T30SSILL
 62
4
 10
654.764
 20
-3646.167
 30
2186.267
 70
    32
  0
VERTEX
  8
T30SSILL
 62
4
 10
674.993
 20
-3631.834
 30
2185.984
 70
    32
  0
VERTEX
  8
T30SSILL
 62
4
 10
671.169
 20
-3626.625
 30
2185.791
 70
    32
  0
VERTEX
  8
T30SSILL
 62
4
 10
675.601
 20
-3623.606
 30
2185.728
 70
    32
  0
VERTEX
  8
T30SSILL
 62
4
 10
678.625
 20
-3627.489
 30
2185.874
 70
    32
  0
VERTEX
  8
T30SSILL
 62
4
 10
688.751
 20
-3619.233
 30
2185.688
 70
    32
  0
VERTEX
  8
T30SSILL
 62
4
 10
684.614
 20
-3614.235
 30
2185.499
 70
    32
  0
VERTEX
  8
T30SSILL
 62
4
 10
711.646
 20
-3591.931
 30
2185.510
 70
    32
  0
VERTEX
  8
T30SSILL
 62
4
 10
658.415
 20
-3630.251
 30
2185.810
 70
    32
  0
VERTEX
  8
T30SSILL
 62
4
 10
645.709
 20
-3616.956
 30
2185.294
 70
    32
  0
VERTEX
  8
T30SSILL
 62
4
 10
602.523
 20
-3647.813
 30
2185.946
 70
    32
  0
VERTEX
  8
T30SSILL
 62
4
 10
607.115
 20
-3654.133
 30
2186.181
 70
    32
  0
VERTEX
  8
T30SSILL
 62
4
 10
600.299
 20
-3658.693
 30
2186.274
 70
    32
  0
VERTEX
  8
T30SSILL
 62
4
 10
597.041
 20
-3657.423
 30
2186.209
 70
    32
  0
VERTEX
  8
T30SSILL
 62
4
 10
594.463
 20
-3659.121
 30
2186.244
 70
    32
  0
VERTEX
  8
T30SSILL
 62
4
 10
592.187
 20
-3658.024
 30
2186.192
 70
    32
  0
VERTEX
  8
T30SSILL
 62
4
 10
587.210
 20
-3658.753
 30
2186.178
 70
    32
  0
VERTEX
  8
T30SSILL
 62
4
 10
533.353
 20
-3697.733
 30
2186.647
 70
    32
  0
VERTEX
  8
T30SSILL
 62
4
 10
529.115
 20
-3703.823
 30
2186.648
 70
    32
  0
VERTEX
  8
T30SSILL
 62
4
 10
527.581
 20
-3713.883
 30
2186.624
 70
    32
  0
VERTEX
  8
T30SSILL
 62
4
 10
559.134
 20
-3770.709
 30
2186.315
 70
    32
  0
VERTEX
  8
T30SSILL
 62
4
 10
565.729
 20
-3758.611
 30
2186.319
 70
    32
  0
VERTEX
  8
T30SSILL
 62
4
 10
676.707
 20
-3678.644
 30
2186.071
 70
    32
  0
VERTEX
  8
T30SSILL
 62
4
 10
679.072
 20
-3658.502
 30
2186.121
 70
    32
  0
VERTEX
  8
T30SSILL
 62
4
 10
668.971
 20
-3643.173
 30
2186.213
 70
    32
  0
SEQEND
  8
T30SSILL
  0
POLYLINE
  8
T30SSILL
 62
4
 66
     1
 70
     9
  0
VERTEX
  8
T30SSILL
 62
4
 10
587.132
 20
-3589.736
 30
2183.995
 70
    32
  0
VERTEX
  8
T30SSILL
 62
4
 10
595.673
 20
-3583.662
 30
2183.867
 70
    32
  0
VERTEX
  8
T30SSILL
 62
4
 10
598.150
 20
-3587.108
 30
2183.994
 70
    32
  0
VERTEX
  8
T30SSILL
 62
4
 10
593.236
 20
-3590.551
 30
2184.066
 70
    32
  0
VERTEX
  8
T30SSILL
 62
4
 10
596.613
 20
-3595.250
 30
2184.240
 70
    32
  0
VERTEX
  8
T30SSILL
 62
4
 10
576.728
 20
-3610.296
 30
2184.567
 70
    32
  0
VERTEX
  8
T30SSILL
 62
4
 10
574.224
 20
-3616.248
 30
2184.737
 70
    32
  0
VERTEX
  8
T30SSILL
 62
4
 10
565.559
 20
-3666.175
 30
2186.250
 70
    32
  0
VERTEX
  8
T30SSILL
 62
4
 10
531.451
 20
-3690.562
 30
2186.678
 70
    32
  0
VERTEX
  8
T30SSILL
 62
4
 10
525.386
 20
-3696.963
 30
2186.685
 70
    32
  0
VERTEX
  8
T30SSILL
 62
4
 10
521.862
 20
-3703.637
 30
2186.680
 70
    32
  0
VERTEX
  8
T30SSILL
 62
4
 10
495.159
 20
-3656.903
 30
2186.704
 70
    32
  0
VERTEX
  8
T30SSILL
 62
4
 10
492.595
 20
-3644.164
 30
2186.589
 70
    32
  0
VERTEX
  8
T30SSILL
 62
4
 10
495.601
 20
-3634.309
 30
2186.346
 70
    32
  0
VERTEX
  8
T30SSILL
 62
4
 10
499.728
 20
-3629.591
 30
2186.148
 70
    32
  0
VERTEX
  8
T30SSILL
 62
4
 10
562.738
 20
-3584.191
 30
2183.637
 70
    32
  0
VERTEX
  8
T30SSILL
 62
4
 10
570.456
 20
-3588.058
 30
2183.817
 70
    32
  0
VERTEX
  8
T30SSILL
 62
4
 10
583.837
 20
-3590.104
 30
2183.982
 70
    32
  0
SEQEND
  8
T30SSILL
  0
POLYLINE
  8
T30SSILL
 62
4
 66
     1
 70
     9
  0
VERTEX
  8
T30SSILL
 62
4
 10
668.381
 20
-3866.433
 30
2185.836
 70
    32
  0
VERTEX
  8
T30SSILL
 62
4
 10
671.310
 20
-3860.090
 30
2185.854
 70
    32
  0
VERTEX
  8
T30SSILL
 62
4
 10
674.171
 20
-3841.800
 30
2185.874
 70
    32
  0
VERTEX
  8
T30SSILL
 62
4
 10
667.132
 20
-3832.360
 30
2185.846
 70
    32
  0
VERTEX
  8
T30SSILL
 62
4
 10
682.849
 20
-3821.008
 30
2185.927
 70
    32
  0
VERTEX
  8
T30SSILL
 62
4
 10
680.786
 20
-3818.084
 30
2185.917
 70
    32
  0
VERTEX
  8
T30SSILL
 62
4
 10
675.329
 20
-3821.147
 30
2185.887
 70
    32
  0
VERTEX
  8
T30SSILL
 62
4
 10
665.674
 20
-3808.330
 30
2185.883
 70
    32
  0
VERTEX
  8
T30SSILL
 62
4
 10
658.804
 20
-3802.792
 30
2185.898
 70
    32
  0
VERTEX
  8
T30SSILL
 62
4
 10
613.330
 20
-3835.345
 30
2185.899
 70
    32
  0
VERTEX
  8
T30SSILL
 62
4
 10
609.174
 20
-3839.529
 30
2185.897
 70
    32
  0
VERTEX
  8
T30SSILL
 62
4
 10
605.884
 20
-3845.371
 30
2185.892
 70
    32
  0
VERTEX
  8
T30SSILL
 62
4
 10
605.818
 20
-3854.788
 30
2185.721
 70
    32
  0
VERTEX
  8
T30SSILL
 62
4
 10
631.766
 20
-3901.520
 30
2185.784
 70
    32
  0
VERTEX
  8
T30SSILL
 62
4
 10
634.988
 20
-3894.582
 30
2185.791
 70
    32
  0
VERTEX
  8
T30SSILL
 62
4
 10
642.116
 20
-3887.282
 30
2185.794
 70
    32
  0
VERTEX
  8
T30SSILL
 62
4
 10
665.893
 20
-3870.069
 30
2185.822
 70
    32
  0
SEQEND
  8
T30SSILL
  0
POLYLINE
  8
T30SSILL
 62
4
 66
     1
 70
     9
  0
VERTEX
  8
T30SSILL
 62
4
 10
655.572
 20
-3576.324
 30
2184.130
 70
    32
  0
VERTEX
  8
T30SSILL
 62
4
 10
650.334
 20
-3569.271
 30
2183.890
 70
    32
  0
VERTEX
  8
T30SSILL
 62
4
 10
631.890
 20
-3582.649
 30
2184.106
 70
    32
  0
VERTEX
  8
T30SSILL
 62
4
 10
635.515
 20
-3587.692
 30
2184.293
 70
    32
  0
VERTEX
  8
T30SSILL
 62
4
 10
630.635
 20
-3591.184
 30
2184.366
 70
    32
  0
VERTEX
  8
T30SSILL
 62
4
 10
632.006
 20
-3593.091
 30
2184.437
 70
    32
  0
VERTEX
  8
T30SSILL
 62
4
 10
653.215
 20
-3578.002
 30
2184.119
 70
    32
  0
SEQEND
  8
T30SSILL
  0
POLYLINE
  8
T30SSILL
 62
4
 66
     1
 70
     9
  0
VERTEX
  8
T30SSILL
 62
4
 10
719.275
 20
-3370.463
 30
2184.245
 70
    32
  0
VERTEX
  8
T30SSILL
 62
4
 10
712.539
 20
-3364.063
 30
2184.210
 70
    32
  0
VERTEX
  8
T30SSILL
 62
4
 10
710.639
 20
-3363.348
 30
2184.213
 70
    32
  0
VERTEX
  8
T30SSILL
 62
4
 10
709.194
 20
-3364.359
 30
2184.232
 70
    32
  0
VERTEX
  8
T30SSILL
 62
4
 10
693.946
 20
-3376.107
 30
2183.993
 70
    32
  0
VERTEX
  8
T30SSILL
 62
4
 10
669.905
 20
-3401.437
 30
2183.435
 70
    32
  0
VERTEX
  8
T30SSILL
 62
4
 10
662.763
 20
-3410.866
 30
2183.275
 70
    32
  0
VERTEX
  8
T30SSILL
 62
4
 10
631.733
 20
-3433.050
 30
2182.524
 70
    32
  0
VERTEX
  8
T30SSILL
 62
4
 10
620.819
 20
-3426.209
 30
2182.218
 70
    32
  0
VERTEX
  8
T30SSILL
 62
4
 10
617.054
 20
-3425.291
 30
2182.116
 70
    32
  0
VERTEX
  8
T30SSILL
 62
4
 10
615.530
 20
-3426.035
 30
2182.078
 70
    32
  0
VERTEX
  8
T30SSILL
 62
4
 10
610.818
 20
-3434.070
 30
2181.978
 70
    32
  0
VERTEX
  8
T30SSILL
 62
4
 10
611.315
 20
-3447.648
 30
2182.031
 70
    32
  0
VERTEX
  8
T30SSILL
 62
4
 10
596.216
 20
-3458.443
 30
2181.665
 70
    32
  0
VERTEX
  8
T30SSILL
 62
4
 10
581.396
 20
-3438.159
 30
2182.162
 70
    32
  0
VERTEX
  8
T30SSILL
 62
4
 10
600.884
 20
-3424.189
 30
2181.688
 70
    32
  0
VERTEX
  8
T30SSILL
 62
4
 10
604.437
 20
-3429.025
 30
2181.795
 70
    32
  0
VERTEX
  8
T30SSILL
 62
4
 10
609.314
 20
-3425.529
 30
2181.913
 70
    32
  0
VERTEX
  8
T30SSILL
 62
4
 10
602.415
 20
-3416.139
 30
2181.705
 70
    32
  0
VERTEX
  8
T30SSILL
 62
4
 10
641.043
 20
-3388.327
 30
2182.638
 70
    32
  0
VERTEX
  8
T30SSILL
 62
4
 10
651.914
 20
-3403.013
 30
2182.967
 70
    32
  0
VERTEX
  8
T30SSILL
 62
4
 10
661.672
 20
-3396.027
 30
2183.203
 70
    32
  0
VERTEX
  8
T30SSILL
 62
4
 10
665.242
 20
-3400.850
 30
2183.311
 70
    32
  0
VERTEX
  8
T30SSILL
 62
4
 10
670.122
 20
-3397.357
 30
2183.429
 70
    32
  0
VERTEX
  8
T30SSILL
 62
4
 10
655.652
 20
-3377.809
 30
2182.991
 70
    32
  0
VERTEX
  8
T30SSILL
 62
4
 10
692.411
 20
-3351.342
 30
2183.880
 70
    32
  0
VERTEX
  8
T30SSILL
 62
4
 10
703.509
 20
-3366.764
 30
2184.217
 70
    32
  0
VERTEX
  8
T30SSILL
 62
4
 10
708.613
 20
-3362.959
 30
2184.219
 70
    32
  0
VERTEX
  8
T30SSILL
 62
4
 10
697.574
 20
-3347.624
 30
2184.005
 70
    32
  0
VERTEX
  8
T30SSILL
 62
4
 10
717.106
 20
-3333.561
 30
2183.849
 70
    32
  0
VERTEX
  8
T30SSILL
 62
4
 10
720.616
 20
-3338.428
 30
2183.884
 70
    32
  0
VERTEX
  8
T30SSILL
 62
4
 10
725.485
 20
-3334.922
 30
2183.819
 70
    32
  0
VERTEX
  8
T30SSILL
 62
4
 10
728.994
 20
-3339.789
 30
2183.854
 70
    32
  0
VERTEX
  8
T30SSILL
 62
4
 10
733.864
 20
-3336.283
 30
2183.789
 70
    32
  0
VERTEX
  8
T30SSILL
 62
4
 10
732.267
 20
-3340.567
 30
2183.845
 70
    32
  0
VERTEX
  8
T30SSILL
 62
4
 10
729.485
 20
-3343.053
 30
2183.888
 70
    32
  0
VERTEX
  8
T30SSILL
 62
4
 10
734.266
 20
-3359.745
 30
2184.046
 70
    32
  0
SEQEND
  8
T30SSILL
  0
POLYLINE
  8
T30SSILL
 62
4
 66
     1
 70
     9
  0
VERTEX
  8
T30SSILL
 62
4
 10
643.349
 20
-3068.765
 30
2181.499
 70
    32
  0
VERTEX
  8
T30SSILL
 62
4
 10
638.481
 20
-3069.544
 30
2181.463
 70
    32
  0
VERTEX
  8
T30SSILL
 62
4
 10
630.799
 20
-3073.211
 30
2181.440
 70
    32
  0
VERTEX
  8
T30SSILL
 62
4
 10
587.795
 20
-3104.289
 30
2182.859
 70
    32
  0
VERTEX
  8
T30SSILL
 62
4
 10
592.749
 20
-3105.507
 30
2182.670
 70
    32
  0
VERTEX
  8
T30SSILL
 62
4
 10
597.646
 20
-3108.398
 30
2182.479
 70
    32
  0
VERTEX
  8
T30SSILL
 62
4
 10
626.315
 20
-3147.748
 30
2181.548
 70
    32
  0
VERTEX
  8
T30SSILL
 62
4
 10
634.093
 20
-3150.418
 30
2181.760
 70
    32
  0
VERTEX
  8
T30SSILL
 62
4
 10
637.480
 20
-3150.943
 30
2181.851
 70
    32
  0
VERTEX
  8
T30SSILL
 62
4
 10
690.204
 20
-3112.598
 30
2181.705
 70
    32
  0
VERTEX
  8
T30SSILL
 62
4
 10
671.362
 20
-3091.041
 30
2181.634
 70
    32
  0
VERTEX
  8
T30SSILL
 62
4
 10
665.718
 20
-3095.702
 30
2181.580
 70
    32
  0
VERTEX
  8
T30SSILL
 62
4
 10
658.122
 20
-3086.932
 30
2181.552
 70
    32
  0
VERTEX
  8
T30SSILL
 62
4
 10
663.576
 20
-3082.133
 30
2181.604
 70
    32
  0
VERTEX
  8
T30SSILL
 62
4
 10
658.767
 20
-3076.632
 30
2181.586
 70
    32
  0
VERTEX
  8
T30SSILL
 62
4
 10
646.632
 20
-3069.557
 30
2181.520
 70
    32
  0
SEQEND
  8
T30SSILL
  0
POLYLINE
  8
T30SSILL
 62
4
 66
     1
 70
     9
  0
VERTEX
  8
T30SSILL
 62
4
 10
639.606
 20
-3244.304
 30
2182.180
 70
    32
  0
VERTEX
  8
T30SSILL
 62
4
 10
608.479
 20
-3266.642
 30
2181.630
 70
    32
  0
VERTEX
  8
T30SSILL
 62
4
 10
591.241
 20
-3242.168
 30
2182.344
 70
    32
  0
VERTEX
  8
T30SSILL
 62
4
 10
626.803
 20
-3216.368
 30
2181.762
 70
    32
  0
VERTEX
  8
T30SSILL
 62
4
 10
633.535
 20
-3225.841
 30
2181.966
 70
    32
  0
VERTEX
  8
T30SSILL
 62
4
 10
629.477
 20
-3227.460
 30
2181.864
 70
    32
  0
VERTEX
  8
T30SSILL
 62
4
 10
637.277
 20
-3240.112
 30
2182.106
 70
    32
  0
SEQEND
  8
T30SSILL
  0
POLYLINE
  8
T30SSILL
 62
4
 66
     1
 70
     9
  0
VERTEX
  8
T30SSILL
 62
4
 10
557.831
 20
-3455.113
 30
2182.821
 70
    32
  0
VERTEX
  8
T30SSILL
 62
4
 10
563.879
 20
-3450.988
 30
2182.735
 70
    32
  0
VERTEX
  8
T30SSILL
 62
4
 10
560.623
 20
-3446.230
 30
2182.843
 70
    32
  0
VERTEX
  8
T30SSILL
 62
4
 10
571.905
 20
-3438.107
 30
2182.518
 70
    32
  0
VERTEX
  8
T30SSILL
 62
4
 10
589.752
 20
-3463.064
 30
2181.780
 70
    32
  0
VERTEX
  8
T30SSILL
 62
4
 10
479.587
 20
-3541.825
 30
2185.429
 70
    32
  0
VERTEX
  8
T30SSILL
 62
4
 10
487.158
 20
-3499.125
 30
2184.546
 70
    32
  0
VERTEX
  8
T30SSILL
 62
4
 10
489.953
 20
-3497.112
 30
2184.430
 70
    32
  0
VERTEX
  8
T30SSILL
 62
4
 10
492.998
 20
-3501.511
 30
2184.403
 70
    32
  0
VERTEX
  8
T30SSILL
 62
4
 10
507.309
 20
-3490.559
 30
2183.797
 70
    32
  0
VERTEX
  8
T30SSILL
 62
4
 10
504.563
 20
-3486.593
 30
2183.821
 70
    32
  0
VERTEX
  8
T30SSILL
 62
4
 10
554.679
 20
-3450.509
 30
2182.925
 70
    32
  0
SEQEND
  8
T30SSILL
  0
POLYLINE
  8
T30SSILL
 62
4
 66
     1
 70
     9
  0
VERTEX
  8
T30SSILL
 62
4
 10
749.637
 20
-3290.554
 30
2183.200
 70
    32
  0
VERTEX
  8
T30SSILL
 62
4
 10
744.462
 20
-3267.734
 30
2182.976
 70
    32
  0
VERTEX
  8
T30SSILL
 62
4
 10
732.919
 20
-3276.077
 30
2183.130
 70
    32
  0
VERTEX
  8
T30SSILL
 62
4
 10
739.011
 20
-3294.584
 30
2183.302
 70
    32
  0
VERTEX
  8
T30SSILL
 62
4
 10
730.490
 20
-3300.829
 30
2183.416
 70
    32
  0
VERTEX
  8
T30SSILL
 62
4
 10
734.014
 20
-3305.716
 30
2183.451
 70
    32
  0
VERTEX
  8
T30SSILL
 62
4
 10
738.821
 20
-3302.124
 30
2183.386
 70
    32
  0
VERTEX
  8
T30SSILL
 62
4
 10
742.331
 20
-3306.992
 30
2183.421
 70
    32
  0
VERTEX
  8
T30SSILL
 62
4
 10
748.800
 20
-3300.042
 30
2183.309
 70
    32
  0
VERTEX
  8
T30SSILL
 62
4
 10
750.067
 20
-3294.120
 30
2183.237
 70
    32
  0
SEQEND
  8
T30SSILL
  0
POLYLINE
  8
T30SSILL
 62
4
 66
     1
 70
     9
  0
VERTEX
  8
T30SSILL
 62
4
 10
656.525
 20
-3314.346
 30
2182.829
 70
    32
  0
VERTEX
  8
T30SSILL
 62
4
 10
644.306
 20
-3295.253
 30
2182.452
 70
    32
  0
VERTEX
  8
T30SSILL
 62
4
 10
667.616
 20
-3278.395
 30
2183.015
 70
    32
  0
VERTEX
  8
T30SSILL
 62
4
 10
675.132
 20
-3288.089
 30
2183.241
 70
    32
  0
VERTEX
  8
T30SSILL
 62
4
 10
668.194
 20
-3293.065
 30
2183.073
 70
    32
  0
VERTEX
  8
T30SSILL
 62
4
 10
678.341
 20
-3307.720
 30
2183.383
 70
    32
  0
VERTEX
  8
T30SSILL
 62
4
 10
661.593
 20
-3319.960
 30
2182.978
 70
    32
  0
VERTEX
  8
T30SSILL
 62
4
 10
657.770
 20
-3316.918
 30
2182.869
 70
    32
  0
SEQEND
  8
T30SSILL
  0
POLYLINE
  8
T30SSILL
 62
4
 66
     1
 70
     9
  0
VERTEX
  8
T30SSILL
 62
4
 10
678.497
 20
-3352.919
 30
2183.519
 70
    32
  0
VERTEX
  8
T30SSILL
 62
4
 10
675.095
 20
-3348.332
 30
2183.416
 70
    32
  0
VERTEX
  8
T30SSILL
 62
4
 10
690.549
 20
-3337.866
 30
2183.792
 70
    32
  0
VERTEX
  8
T30SSILL
 62
4
 10
693.589
 20
-3342.088
 30
2183.884
 70
    32
  0
VERTEX
  8
T30SSILL
 62
4
 10
708.263
 20
-3331.556
 30
2183.875
 70
    32
  0
VERTEX
  8
T30SSILL
 62
4
 10
701.452
 20
-3322.110
 30
2183.807
 70
    32
  0
VERTEX
  8
T30SSILL
 62
4
 10
693.941
 20
-3327.615
 30
2183.851
 70
    32
  0
VERTEX
  8
T30SSILL
 62
4
 10
682.720
 20
-3312.363
 30
2183.511
 70
    32
  0
VERTEX
  8
T30SSILL
 62
4
 10
654.781
 20
-3332.559
 30
2182.836
 70
    32
  0
VERTEX
  8
T30SSILL
 62
4
 10
657.520
 20
-3348.646
 30
2182.955
 70
    32
  0
VERTEX
  8
T30SSILL
 62
4
 10
649.389
 20
-3355.349
 30
2182.761
 70
    32
  0
VERTEX
  8
T30SSILL
 62
4
 10
643.462
 20
-3357.950
 30
2182.613
 70
    32
  0
VERTEX
  8
T30SSILL
 62
4
 10
637.502
 20
-3362.829
 30
2182.471
 70
    32
  0
VERTEX
  8
T30SSILL
 62
4
 10
642.486
 20
-3370.106
 30
2182.623
 70
    32
  0
VERTEX
  8
T30SSILL
 62
4
 10
652.253
 20
-3363.131
 30
2182.859
 70
    32
  0
VERTEX
  8
T30SSILL
 62
4
 10
656.675
 20
-3368.581
 30
2182.991
 70
    32
  0
SEQEND
  8
T30SSILL
  0
POLYLINE
  8
T30SSILL
 62
4
 66
     1
 70
     9
  0
VERTEX
  8
T30SSILL
 62
4
 10
680.893
 20
-3443.327
 30
2183.846
 70
    32
  0
VERTEX
  8
T30SSILL
 62
4
 10
685.763
 20
-3439.818
 30
2183.964
 70
    32
  0
VERTEX
  8
T30SSILL
 62
4
 10
678.814
 20
-3430.764
 30
2183.755
 70
    32
  0
VERTEX
  8
T30SSILL
 62
4
 10
676.166
 20
-3432.688
 30
2183.691
 70
    32
  0
VERTEX
  8
T30SSILL
 62
4
 10
663.796
 20
-3419.470
 30
2183.327
 70
    32
  0
VERTEX
  8
T30SSILL
 62
4
 10
627.548
 20
-3445.543
 30
2182.451
 70
    32
  0
VERTEX
  8
T30SSILL
 62
4
 10
629.437
 20
-3449.137
 30
2182.511
 70
    32
  0
VERTEX
  8
T30SSILL
 62
4
 10
625.975
 20
-3452.959
 30
2182.431
 70
    32
  0
VERTEX
  8
T30SSILL
 62
4
 10
619.306
 20
-3455.581
 30
2182.264
 70
    32
  0
VERTEX
  8
T30SSILL
 62
4
 10
615.961
 20
-3453.878
 30
2182.171
 70
    32
  0
VERTEX
  8
T30SSILL
 62
4
 10
600.832
 20
-3464.760
 30
2181.805
 70
    32
  0
VERTEX
  8
T30SSILL
 62
4
 10
618.011
 20
-3488.273
 30
2182.325
 70
    32
  0
VERTEX
  8
T30SSILL
 62
4
 10
621.066
 20
-3486.100
 30
2182.399
 70
    32
  0
VERTEX
  8
T30SSILL
 62
4
 10
607.257
 20
-3466.369
 30
2181.979
 70
    32
  0
VERTEX
  8
T30SSILL
 62
4
 10
621.629
 20
-3455.512
 30
2182.325
 70
    32
  0
VERTEX
  8
T30SSILL
 62
4
 10
631.956
 20
-3470.268
 30
2182.639
 70
    32
  0
VERTEX
  8
T30SSILL
 62
4
 10
627.166
 20
-3473.887
 30
2182.524
 70
    32
  0
VERTEX
  8
T30SSILL
 62
4
 10
630.846
 20
-3479.147
 30
2182.636
 70
    32
  0
VERTEX
  8
T30SSILL
 62
4
 10
655.722
 20
-3461.460
 30
2183.238
 70
    32
  0
SEQEND
  8
T30SSILL
  0
POLYLINE
  8
T30SSILL
 62
4
 66
     1
 70
     9
  0
VERTEX
  8
T30SSILL
 62
4
 10
683.441
 20
-3488.454
 30
2184.045
 70
    32
  0
VERTEX
  8
T30SSILL
 62
4
 10
698.885
 20
-3477.330
 30
2184.418
 70
    32
  0
VERTEX
  8
T30SSILL
 62
4
 10
696.481
 20
-3475.097
 30
2184.349
 70
    32
  0
VERTEX
  8
T30SSILL
 62
4
 10
690.390
 20
-3464.396
 30
2184.157
 70
    32
  0
VERTEX
  8
T30SSILL
 62
4
 10
689.155
 20
-3459.554
 30
2184.111
 70
    32
  0
VERTEX
  8
T30SSILL
 62
4
 10
691.875
 20
-3457.635
 30
2184.176
 70
    32
  0
VERTEX
  8
T30SSILL
 62
4
 10
685.208
 20
-3448.949
 30
2183.976
 70
    32
  0
VERTEX
  8
T30SSILL
 62
4
 10
659.861
 20
-3467.374
 30
2183.364
 70
    32
  0
VERTEX
  8
T30SSILL
 62
4
 10
666.312
 20
-3476.591
 30
2183.560
 70
    32
  0
VERTEX
  8
T30SSILL
 62
4
 10
670.317
 20
-3473.708
 30
2183.657
 70
    32
  0
VERTEX
  8
T30SSILL
 62
4
 10
681.573
 20
-3485.638
 30
2183.988
 70
    32
  0
SEQEND
  8
T30SSILL
  0
POLYLINE
  8
T30SSILL
 62
4
 66
     1
 70
     9
  0
VERTEX
  8
T30SSILL
 62
4
 10
705.381
 20
-3486.739
 30
2184.616
 70
    32
  0
VERTEX
  8
T30SSILL
 62
4
 10
703.048
 20
-3483.097
 30
2184.544
 70
    32
  0
VERTEX
  8
T30SSILL
 62
4
 10
697.505
 20
-3487.091
 30
2184.411
 70
    32
  0
VERTEX
  8
T30SSILL
 62
4
 10
708.322
 20
-3501.829
 30
2184.738
 70
    32
  0
VERTEX
  8
T30SSILL
 62
4
 10
716.269
 20
-3496.451
 30
2184.931
 70
    32
  0
VERTEX
  8
T30SSILL
 62
4
 10
713.712
 20
-3495.873
 30
2184.862
 70
    32
  0
VERTEX
  8
T30SSILL
 62
4
 10
708.770
 20
-3491.580
 30
2184.720
 70
    32
  0
SEQEND
  8
T30SSILL
  0
POLYLINE
  8
T30SSILL
 62
4
 66
     1
 70
     9
  0
VERTEX
  8
T30SSILL
 62
4
 10
672.841
 20
-3528.225
 30
2183.883
 70
    32
  0
VERTEX
  8
T30SSILL
 62
4
 10
678.797
 20
-3536.760
 30
2184.064
 70
    32
  0
VERTEX
  8
T30SSILL
 62
4
 10
709.368
 20
-3515.003
 30
2184.804
 70
    32
  0
VERTEX
  8
T30SSILL
 62
4
 10
699.628
 20
-3501.746
 30
2184.509
 70
    32
  0
VERTEX
  8
T30SSILL
 62
4
 10
697.446
 20
-3504.780
 30
2184.461
 70
    32
  0
VERTEX
  8
T30SSILL
 62
4
 10
698.125
 20
-3509.903
 30
2184.493
 70
    32
  0
SEQEND
  8
T30SSILL
  0
POLYLINE
  8
T30SSILL
 62
4
 66
     1
 70
     9
  0
VERTEX
  8
T30SSILL
 62
4
 10
653.273
 20
-3266.431
 30
2182.603
 70
    32
  0
VERTEX
  8
T30SSILL
 62
4
 10
656.500
 20
-3264.056
 30
2182.681
 70
    32
  0
VERTEX
  8
T30SSILL
 62
4
 10
663.120
 20
-3272.595
 30
2182.880
 70
    32
  0
VERTEX
  8
T30SSILL
 62
4
 10
630.249
 20
-3296.241
 30
2182.086
 70
    32
  0
VERTEX
  8
T30SSILL
 62
4
 10
623.928
 20
-3287.424
 30
2181.894
 70
    32
  0
VERTEX
  8
T30SSILL
 62
4
 10
620.008
 20
-3290.179
 30
2181.799
 70
    32
  0
VERTEX
  8
T30SSILL
 62
4
 10
619.536
 20
-3285.857
 30
2181.774
 70
    32
  0
VERTEX
  8
T30SSILL
 62
4
 10
611.905
 20
-3272.974
 30
2181.536
 70
    32
  0
VERTEX
  8
T30SSILL
 62
4
 10
640.790
 20
-3252.252
 30
2182.234
 70
    32
  0
VERTEX
  8
T30SSILL
 62
4
 10
651.415
 20
-3266.560
 30
2182.555
 70
    32
  0
SEQEND
  8
T30SSILL
  0
POLYLINE
  8
T30SSILL
 62
4
 66
     1
 70
     9
  0
VERTEX
  8
T30SSILL
 62
4
 10
640.301
 20
-3223.141
 30
2182.136
 70
    32
  0
VERTEX
  8
T30SSILL
 62
4
 10
647.705
 20
-3230.860
 30
2182.353
 70
    32
  0
VERTEX
  8
T30SSILL
 62
4
 10
652.613
 20
-3229.538
 30
2182.478
 70
    32
  0
VERTEX
  8
T30SSILL
 62
4
 10
655.544
 20
-3232.889
 30
2182.565
 70
    32
  0
VERTEX
  8
T30SSILL
 62
4
 10
661.068
 20
-3228.927
 30
2182.699
 70
    32
  0
VERTEX
  8
T30SSILL
 62
4
 10
653.485
 20
-3221.012
 30
2182.476
 70
    32
  0
VERTEX
  8
T30SSILL
 62
4
 10
651.180
 20
-3215.173
 30
2182.399
 70
    32
  0
SEQEND
  8
T30SSILL
  0
POLYLINE
  8
T30SSILL
 62
4
 66
     1
 70
     9
  0
VERTEX
  8
T30SSILL
 62
4
 10
705.271
 20
-3180.963
 30
2182.229
 70
    32
  0
VERTEX
  8
T30SSILL
 62
4
 10
699.375
 20
-3183.637
 30
2182.290
 70
    32
  0
VERTEX
  8
T30SSILL
 62
4
 10
696.153
 20
-3183.219
 30
2182.303
 70
    32
  0
VERTEX
  8
T30SSILL
 62
4
 10
694.452
 20
-3181.327
 30
2182.291
 70
    32
  0
VERTEX
  8
T30SSILL
 62
4
 10
706.730
 20
-3172.840
 30
2182.131
 70
    32
  0
VERTEX
  8
T30SSILL
 62
4
 10
703.074
 20
-3167.774
 30
2182.095
 70
    32
  0
VERTEX
  8
T30SSILL
 62
4
 10
708.277
 20
-3164.009
 30
2182.026
 70
    32
  0
VERTEX
  8
T30SSILL
 62
4
 10
705.112
 20
-3159.555
 30
2181.994
 70
    32
  0
VERTEX
  8
T30SSILL
 62
4
 10
714.401
 20
-3152.816
 30
2181.903
 70
    32
  0
VERTEX
  8
T30SSILL
 62
4
 10
726.691
 20
-3154.262
 30
2181.898
 70
    32
  0
VERTEX
  8
T30SSILL
 62
4
 10
741.550
 20
-3171.209
 30
2182.002
 70
    32
  0
VERTEX
  8
T30SSILL
 62
4
 10
719.636
 20
-3186.925
 30
2182.218
 70
    32
  0
VERTEX
  8
T30SSILL
 62
4
 10
708.167
 20
-3180.313
 30
2182.206
 70
    32
  0
SEQEND
  8
T30SSILL
  0
POLYLINE
  8
T30SSILL
 62
4
 66
     1
 70
     9
  0
VERTEX
  8
T30SSILL
 62
4
 10
739.360
 20
-3181.538
 30
2182.081
 70
    32
  0
VERTEX
  8
T30SSILL
 62
4
 10
743.714
 20
-3180.502
 30
2182.068
 70
    32
  0
VERTEX
  8
T30SSILL
 62
4
 10
748.575
 20
-3181.704
 30
2182.070
 70
    32
  0
VERTEX
  8
T30SSILL
 62
4
 10
743.919
 20
-3214.469
 30
2182.391
 70
    32
  0
VERTEX
  8
T30SSILL
 62
4
 10
716.807
 20
-3233.973
 30
2182.752
 70
    32
  0
VERTEX
  8
T30SSILL
 62
4
 10
714.190
 20
-3230.417
 30
2182.727
 70
    32
  0
VERTEX
  8
T30SSILL
 62
4
 10
708.410
 20
-3234.566
 30
2182.804
 70
    32
  0
VERTEX
  8
T30SSILL
 62
4
 10
704.315
 20
-3228.876
 30
2182.763
 70
    32
  0
VERTEX
  8
T30SSILL
 62
4
 10
726.519
 20
-3212.539
 30
2182.463
 70
    32
  0
VERTEX
  8
T30SSILL
 62
4
 10
726.032
 20
-3210.177
 30
2182.440
 70
    32
  0
VERTEX
  8
T30SSILL
 62
4
 10
731.474
 20
-3204.577
 30
2182.349
 70
    32
  0
VERTEX
  8
T30SSILL
 62
4
 10
728.497
 20
-3196.730
 30
2182.278
 70
    32
  0
VERTEX
  8
T30SSILL
 62
4
 10
727.469
 20
-3190.068
 30
2182.210
 70
    32
  0
VERTEX
  8
T30SSILL
 62
4
 10
735.003
 20
-3184.664
 30
2182.110
 70
    32
  0
SEQEND
  8
T30SSILL
  0
POLYLINE
  8
T30SSILL
 62
4
 66
     1
 70
     9
  0
VERTEX
  8
T30SSILL
 62
4
 10
1218.897
 20
-3668.698
 30
2185.023
 70
    32
  0
VERTEX
  8
T30SSILL
 62
4
 10
1346.348
 20
-3573.314
 30
2184.588
 70
    32
  0
VERTEX
  8
T30SSILL
 62
4
 10
1375.283
 20
-3609.136
 30
2184.754
 70
    32
  0
VERTEX
  8
T30SSILL
 62
4
 10
1363.077
 20
-3620.149
 30
2184.831
 70
    32
  0
VERTEX
  8
T30SSILL
 62
4
 10
1368.000
 20
-3625.193
 30
2184.854
 70
    32
  0
VERTEX
  8
T30SSILL
 62
4
 10
1379.503
 20
-3614.361
 30
2184.778
 70
    32
  0
VERTEX
  8
T30SSILL
 62
4
 10
1401.171
 20
-3641.187
 30
2184.903
 70
    32
  0
VERTEX
  8
T30SSILL
 62
4
 10
1387.317
 20
-3652.258
 30
2184.983
 70
    32
  0
VERTEX
  8
T30SSILL
 62
4
 10
1392.304
 20
-3658.450
 30
2185.011
 70
    32
  0
VERTEX
  8
T30SSILL
 62
4
 10
1406.257
 20
-3647.483
 30
2184.932
 70
    32
  0
VERTEX
  8
T30SSILL
 62
4
 10
1415.729
 20
-3659.210
 30
2184.987
 70
    32
  0
VERTEX
  8
T30SSILL
 62
4
 10
1411.630
 20
-3662.384
 30
2185.010
 70
    32
  0
VERTEX
  8
T30SSILL
 62
4
 10
1418.991
 20
-3671.431
 30
2185.052
 70
    32
  0
VERTEX
  8
T30SSILL
 62
4
 10
1423.001
 20
-3668.213
 30
2185.029
 70
    32
  0
VERTEX
  8
T30SSILL
 62
4
 10
1493.136
 20
-3755.275
 30
2185.434
 70
    32
  0
VERTEX
  8
T30SSILL
 62
4
 10
1480.429
 20
-3756.434
 30
2185.451
 70
    32
  0
VERTEX
  8
T30SSILL
 62
4
 10
1471.813
 20
-3760.978
 30
2185.377
 70
    32
  0
VERTEX
  8
T30SSILL
 62
4
 10
1344.911
 20
-3852.548
 30
2185.576
 70
    32
  0
VERTEX
  8
T30SSILL
 62
4
 10
1296.886
 20
-3797.282
 30
2185.592
 70
    32
  0
VERTEX
  8
T30SSILL
 62
4
 10
1324.874
 20
-3777.434
 30
2185.647
 70
    32
  0
VERTEX
  8
T30SSILL
 62
4
 10
1320.134
 20
-3771.196
 30
2185.642
 70
    32
  0
VERTEX
  8
T30SSILL
 62
4
 10
1291.956
 20
-3791.608
 30
2185.594
 70
    32
  0
VERTEX
  8
T30SSILL
 62
4
 10
1270.680
 20
-3767.124
 30
2185.601
 70
    32
  0
VERTEX
  8
T30SSILL
 62
4
 10
1264.700
 20
-3752.158
 30
2185.576
 70
    32
  0
VERTEX
  8
T30SSILL
 62
4
 10
1263.985
 20
-3744.499
 30
2185.521
 70
    32
  0
VERTEX
  8
T30SSILL
 62
4
 10
1259.753
 20
-3730.130
 30
2185.420
 70
    32
  0
VERTEX
  8
T30SSILL
 62
4
 10
1251.036
 20
-3716.312
 30
2185.331
 70
    32
  0
VERTEX
  8
T30SSILL
 62
4
 10
1247.381
 20
-3703.871
 30
2185.244
 70
    32
  0
VERTEX
  8
T30SSILL
 62
4
 10
1238.755
 20
-3712.022
 30
2185.315
 70
    32
  0
VERTEX
  8
T30SSILL
 62
4
 10
1231.074
 20
-3708.237
 30
2185.298
 70
    32
  0
VERTEX
  8
T30SSILL
 62
4
 10
1218.812
 20
-3707.436
 30
2185.308
 70
    32
  0
VERTEX
  8
T30SSILL
 62
4
 10
1208.335
 20
-3695.277
 30
2185.233
 70
    32
  0
VERTEX
  8
T30SSILL
 62
4
 10
1223.985
 20
-3683.502
 30
2185.125
 70
    32
  0
VERTEX
  8
T30SSILL
 62
4
 10
1221.880
 20
-3672.853
 30
2185.050
 70
    32
  0
SEQEND
  8
T30SSILL
  0
POLYLINE
  8
T30SSILL
 62
4
 66
     1
 70
     9
  0
VERTEX
  8
T30SSILL
 62
4
 10
819.087
 20
-3805.428
 30
2186.133
 70
    32
  0
VERTEX
  8
T30SSILL
 62
4
 10
825.790
 20
-3800.636
 30
2186.149
 70
    32
  0
VERTEX
  8
T30SSILL
 62
4
 10
822.412
 20
-3796.062
 30
2186.152
 70
    32
  0
VERTEX
  8
T30SSILL
 62
4
 10
831.697
 20
-3789.344
 30
2186.174
 70
    32
  0
VERTEX
  8
T30SSILL
 62
4
 10
827.984
 20
-3784.159
 30
2186.178
 70
    32
  0
VERTEX
  8
T30SSILL
 62
4
 10
847.503
 20
-3769.998
 30
2186.224
 70
    32
  0
VERTEX
  8
T30SSILL
 62
4
 10
851.204
 20
-3775.232
 30
2186.220
 70
    32
  0
VERTEX
  8
T30SSILL
 62
4
 10
861.295
 20
-3767.932
 30
2186.244
 70
    32
  0
VERTEX
  8
T30SSILL
 62
4
 10
864.701
 20
-3772.816
 30
2186.240
 70
    32
  0
VERTEX
  8
T30SSILL
 62
4
 10
883.633
 20
-3759.280
 30
2186.271
 70
    32
  0
VERTEX
  8
T30SSILL
 62
4
 10
887.813
 20
-3765.479
 30
2186.266
 70
    32
  0
VERTEX
  8
T30SSILL
 62
4
 10
823.304
 20
-3811.407
 30
2186.128
 70
    32
  0
VERTEX
  8
T30SSILL
 62
4
 10
840.978
 20
-3836.464
 30
2186.108
 70
    32
  0
VERTEX
  8
T30SSILL
 62
4
 10
881.212
 20
-3807.727
 30
2186.203
 70
    32
  0
VERTEX
  8
T30SSILL
 62
4
 10
885.885
 20
-3813.631
 30
2186.199
 70
    32
  0
VERTEX
  8
T30SSILL
 62
4
 10
845.464
 20
-3842.823
 30
2186.103
 70
    32
  0
VERTEX
  8
T30SSILL
 62
4
 10
862.415
 20
-3866.244
 30
2186.085
 70
    32
  0
VERTEX
  8
T30SSILL
 62
4
 10
901.143
 20
-3838.510
 30
2186.176
 70
    32
  0
VERTEX
  8
T30SSILL
 62
4
 10
906.117
 20
-3844.699
 30
2186.172
 70
    32
  0
VERTEX
  8
T30SSILL
 62
4
 10
867.110
 20
-3872.731
 30
2186.080
 70
    32
  0
VERTEX
  8
T30SSILL
 62
4
 10
880.749
 20
-3891.576
 30
2186.065
 70
    32
  0
VERTEX
  8
T30SSILL
 62
4
 10
891.150
 20
-3889.003
 30
2186.082
 70
    32
  0
VERTEX
  8
T30SSILL
 62
4
 10
894.309
 20
-3893.566
 30
2186.078
 70
    32
  0
VERTEX
  8
T30SSILL
 62
4
 10
918.044
 20
-3876.785
 30
2186.134
 70
    32
  0
VERTEX
  8
T30SSILL
 62
4
 10
911.382
 20
-3846.453
 30
2186.175
 70
    32
  0
VERTEX
  8
T30SSILL
 62
4
 10
905.365
 20
-3833.211
 30
2186.190
 70
    32
  0
VERTEX
  8
T30SSILL
 62
4
 10
901.090
 20
-3820.130
 30
2186.206
 70
    32
  0
VERTEX
  8
T30SSILL
 62
4
 10
895.414
 20
-3809.027
 30
2186.217
 70
    32
  0
VERTEX
  8
T30SSILL
 62
4
 10
891.002
 20
-3794.093
 30
2186.237
 70
    32
  0
VERTEX
  8
T30SSILL
 62
4
 10
887.255
 20
-3785.834
 30
2186.246
 70
    32
  0
VERTEX
  8
T30SSILL
 62
4
 10
886.643
 20
-3779.988
 30
2186.254
 70
    32
  0
VERTEX
  8
T30SSILL
 62
4
 10
893.951
 20
-3777.030
 30
2186.260
 70
    32
  0
VERTEX
  8
T30SSILL
 62
4
 10
895.139
 20
-3777.479
 30
2186.258
 70
    32
  0
VERTEX
  8
T30SSILL
 62
4
 10
903.022
 20
-3792.419
 30
2186.250
 70
    32
  0
VERTEX
  8
T30SSILL
 62
4
 10
912.177
 20
-3818.365
 30
2186.222
 70
    32
  0
VERTEX
  8
T30SSILL
 62
4
 10
913.879
 20
-3820.288
 30
2186.221
 70
    32
  0
VERTEX
  8
T30SSILL
 62
4
 10
919.862
 20
-3839.081
 30
2186.197
 70
    32
  0
VERTEX
  8
T30SSILL
 62
4
 10
927.880
 20
-3856.632
 30
2186.178
 70
    32
  0
VERTEX
  8
T30SSILL
 62
4
 10
939.787
 20
-3871.290
 30
2186.168
 70
    32
  0
VERTEX
  8
T30SSILL
 62
4
 10
940.958
 20
-3891.686
 30
2186.136
 70
    32
  0
VERTEX
  8
T30SSILL
 62
4
 10
1055.296
 20
-4051.949
 30
2186.027
 70
    32
  0
VERTEX
  8
T30SSILL
 62
4
 10
1061.854
 20
-4055.812
 30
2186.034
 70
    32
  0
VERTEX
  8
T30SSILL
 62
4
 10
1063.382
 20
-4055.696
 30
2186.034
 70
    32
  0
VERTEX
  8
T30SSILL
 62
4
 10
1338.790
 20
-3856.965
 30
2185.577
 70
    32
  0
VERTEX
  8
T30SSILL
 62
4
 10
1290.725
 20
-3801.652
 30
2185.592
 70
    32
  0
VERTEX
  8
T30SSILL
 62
4
 10
1272.827
 20
-3814.345
 30
2185.624
 70
    32
  0
VERTEX
  8
T30SSILL
 62
4
 10
1268.713
 20
-3808.445
 30
2185.624
 70
    32
  0
VERTEX
  8
T30SSILL
 62
4
 10
1285.844
 20
-3796.035
 30
2185.594
 70
    32
  0
VERTEX
  8
T30SSILL
 62
4
 10
1253.774
 20
-3759.129
 30
2185.604
 70
    32
  0
VERTEX
  8
T30SSILL
 62
4
 10
1240.525
 20
-3759.539
 30
2185.627
 70
    32
  0
VERTEX
  8
T30SSILL
 62
4
 10
1239.738
 20
-3763.441
 30
2185.630
 70
    32
  0
VERTEX
  8
T30SSILL
 62
4
 10
1237.509
 20
-3766.142
 30
2185.635
 70
    32
  0
VERTEX
  8
T30SSILL
 62
4
 10
1234.515
 20
-3766.391
 30
2185.640
 70
    32
  0
VERTEX
  8
T30SSILL
 62
4
 10
1232.297
 20
-3765.915
 30
2185.644
 70
    32
  0
VERTEX
  8
T30SSILL
 62
4
 10
1219.718
 20
-3756.603
 30
2185.663
 70
    32
  0
VERTEX
  8
T30SSILL
 62
4
 10
1217.630
 20
-3754.183
 30
2185.666
 70
    32
  0
VERTEX
  8
T30SSILL
 62
4
 10
1217.162
 20
-3745.811
 30
2185.663
 70
    32
  0
VERTEX
  8
T30SSILL
 62
4
 10
1211.622
 20
-3739.328
 30
2185.670
 70
    32
  0
VERTEX
  8
T30SSILL
 62
4
 10
1211.564
 20
-3736.947
 30
2185.645
 70
    32
  0
VERTEX
  8
T30SSILL
 62
4
 10
1214.533
 20
-3732.022
 30
2185.574
 70
    32
  0
VERTEX
  8
T30SSILL
 62
4
 10
1213.504
 20
-3722.341
 30
2185.473
 70
    32
  0
VERTEX
  8
T30SSILL
 62
4
 10
1214.630
 20
-3717.813
 30
2185.417
 70
    32
  0
VERTEX
  8
T30SSILL
 62
4
 10
1213.256
 20
-3715.729
 30
2185.402
 70
    32
  0
VERTEX
  8
T30SSILL
 62
4
 10
1214.982
 20
-3714.487
 30
2185.379
 70
    32
  0
VERTEX
  8
T30SSILL
 62
4
 10
1202.439
 20
-3699.617
 30
2185.282
 70
    32
  0
VERTEX
  8
T30SSILL
 62
4
 10
1183.196
 20
-3713.646
 30
2185.540
 70
    32
  0
VERTEX
  8
T30SSILL
 62
4
 10
1148.615
 20
-3683.314
 30
2185.391
 70
    32
  0
VERTEX
  8
T30SSILL
 62
4
 10
1172.505
 20
-3665.625
 30
2185.068
 70
    32
  0
VERTEX
  8
T30SSILL
 62
4
 10
1166.266
 20
-3658.595
 30
2185.023
 70
    32
  0
VERTEX
  8
T30SSILL
 62
4
 10
1135.743
 20
-3681.262
 30
2185.438
 70
    32
  0
VERTEX
  8
T30SSILL
 62
4
 10
1131.382
 20
-3675.489
 30
2185.397
 70
    32
  0
VERTEX
  8
T30SSILL
 62
4
 10
1161.701
 20
-3653.294
 30
2184.989
 70
    32
  0
VERTEX
  8
T30SSILL
 62
4
 10
1152.440
 20
-3643.114
 30
2184.927
 70
    32
  0
VERTEX
  8
T30SSILL
 62
4
 10
1120.750
 20
-3666.727
 30
2185.358
 70
    32
  0
VERTEX
  8
T30SSILL
 62
4
 10
1119.325
 20
-3666.556
 30
2185.363
 70
    32
  0
VERTEX
  8
T30SSILL
 62
4
 10
1113.842
 20
-3658.766
 30
2185.307
 70
    32
  0
VERTEX
  8
T30SSILL
 62
4
 10
1108.541
 20
-3654.102
 30
2185.284
 70
    32
  0
VERTEX
  8
T30SSILL
 62
4
 10
1104.362
 20
-3647.222
 30
2185.230
 70
    32
  0
VERTEX
  8
T30SSILL
 62
4
 10
1102.660
 20
-3646.816
 30
2185.235
 70
    32
  0
VERTEX
  8
T30SSILL
 62
4
 10
1092.639
 20
-3631.643
 30
2185.122
 70
    32
  0
VERTEX
  8
T30SSILL
 62
4
 10
1123.531
 20
-3609.037
 30
2184.712
 70
    32
  0
VERTEX
  8
T30SSILL
 62
4
 10
1116.063
 20
-3601.287
 30
2184.665
 70
    32
  0
VERTEX
  8
T30SSILL
 62
4
 10
1079.704
 20
-3627.473
 30
2185.145
 70
    32
  0
VERTEX
  8
T30SSILL
 62
4
 10
1076.541
 20
-3622.678
 30
2185.109
 70
    32
  0
VERTEX
  8
T30SSILL
 62
4
 10
1086.652
 20
-3615.421
 30
2184.975
 70
    32
  0
VERTEX
  8
T30SSILL
 62
4
 10
1079.669
 20
-3605.316
 30
2184.901
 70
    32
  0
VERTEX
  8
T30SSILL
 62
4
 10
1089.408
 20
-3598.301
 30
2184.771
 70
    32
  0
VERTEX
  8
T30SSILL
 62
4
 10
1092.820
 20
-3603.238
 30
2184.807
 70
    32
  0
VERTEX
  8
T30SSILL
 62
4
 10
1108.490
 20
-3591.952
 30
2184.606
 70
    32
  0
VERTEX
  8
T30SSILL
 62
4
 10
1103.804
 20
-3586.392
 30
2184.572
 70
    32
  0
VERTEX
  8
T30SSILL
 62
4
 10
1071.232
 20
-3609.986
 30
2184.998
 70
    32
  0
VERTEX
  8
T30SSILL
 62
4
 10
1069.776
 20
-3605.386
 30
2184.955
 70
    32
  0
VERTEX
  8
T30SSILL
 62
4
 10
1048.221
 20
-3581.556
 30
2184.807
 70
    32
  0
VERTEX
  8
T30SSILL
 62
4
 10
1045.340
 20
-3572.550
 30
2184.723
 70
    32
  0
VERTEX
  8
T30SSILL
 62
4
 10
1050.294
 20
-3569.069
 30
2184.658
 70
    32
  0
VERTEX
  8
T30SSILL
 62
4
 10
1044.925
 20
-3561.448
 30
2184.603
 70
    32
  0
VERTEX
  8
T30SSILL
 62
4
 10
1038.364
 20
-3566.158
 30
2184.690
 70
    32
  0
VERTEX
  8
T30SSILL
 62
4
 10
1034.415
 20
-3560.958
 30
2184.654
 70
    32
  0
VERTEX
  8
T30SSILL
 62
4
 10
1041.071
 20
-3555.977
 30
2184.564
 70
    32
  0
VERTEX
  8
T30SSILL
 62
4
 10
1037.364
 20
-3550.714
 30
2184.525
 70
    32
  0
VERTEX
  8
T30SSILL
 62
4
 10
1042.243
 20
-3547.220
 30
2184.461
 70
    32
  0
VERTEX
  8
T30SSILL
 62
4
 10
1038.787
 20
-3542.315
 30
2184.425
 70
    32
  0
VERTEX
  8
T30SSILL
 62
4
 10
1054.454
 20
-3531.097
 30
2184.231
 70
    32
  0
VERTEX
  8
T30SSILL
 62
4
 10
1053.620
 20
-3530.237
 30
2184.226
 70
    32
  0
VERTEX
  8
T30SSILL
 62
4
 10
1023.281
 20
-3552.555
 30
2184.621
 70
    32
  0
VERTEX
  8
T30SSILL
 62
4
 10
1021.612
 20
-3548.868
 30
2184.590
 70
    32
  0
VERTEX
  8
T30SSILL
 62
4
 10
1016.593
 20
-3546.716
 30
2184.593
 70
    32
  0
VERTEX
  8
T30SSILL
 62
4
 10
927.826
 20
-3611.512
 30
2185.785
 70
    32
  0
VERTEX
  8
T30SSILL
 62
4
 10
925.111
 20
-3625.729
 30
2185.956
 70
    32
  0
VERTEX
  8
T30SSILL
 62
4
 10
926.028
 20
-3632.453
 30
2186.025
 70
    32
  0
VERTEX
  8
T30SSILL
 62
4
 10
971.815
 20
-3695.619
 30
2186.086
 70
    32
  0
VERTEX
  8
T30SSILL
 62
4
 10
992.727
 20
-3680.768
 30
2186.042
 70
    32
  0
VERTEX
  8
T30SSILL
 62
4
 10
997.648
 20
-3687.331
 30
2186.036
 70
    32
  0
VERTEX
  8
T30SSILL
 62
4
 10
976.762
 20
-3702.445
 30
2186.080
 70
    32
  0
VERTEX
  8
T30SSILL
 62
4
 10
994.228
 20
-3726.541
 30
2186.058
 70
    32
  0
VERTEX
  8
T30SSILL
 62
4
 10
1002.889
 20
-3720.473
 30
2186.040
 70
    32
  0
VERTEX
  8
T30SSILL
 62
4
 10
1006.769
 20
-3725.398
 30
2186.035
 70
    32
  0
VERTEX
  8
T30SSILL
 62
4
 10
997.980
 20
-3731.717
 30
2186.053
 70
    32
  0
VERTEX
  8
T30SSILL
 62
4
 10
1003.312
 20
-3739.073
 30
2186.047
 70
    32
  0
VERTEX
  8
T30SSILL
 62
4
 10
996.661
 20
-3742.982
 30
2186.060
 70
    32
  0
VERTEX
  8
T30SSILL
 62
4
 10
910.282
 20
-3622.769
 30
2186.003
 70
    32
  0
VERTEX
  8
T30SSILL
 62
4
 10
787.466
 20
-3710.688
 30
2186.250
 70
    32
  0
VERTEX
  8
T30SSILL
 62
4
 10
803.628
 20
-3731.563
 30
2186.235
 70
    32
  0
VERTEX
  8
T30SSILL
 62
4
 10
798.419
 20
-3739.871
 30
2186.215
 70
    32
  0
VERTEX
  8
T30SSILL
 62
4
 10
800.026
 20
-3745.122
 30
2186.209
 70
    32
  0
VERTEX
  8
T30SSILL
 62
4
 10
798.979
 20
-3750.762
 30
2186.198
 70
    32
  0
VERTEX
  8
T30SSILL
 62
4
 10
806.186
 20
-3769.865
 30
2186.176
 70
    32
  0
VERTEX
  8
T30SSILL
 62
4
 10
844.622
 20
-3742.358
 30
2186.266
 70
    32
  0
VERTEX
  8
T30SSILL
 62
4
 10
842.398
 20
-3736.248
 30
2186.273
 70
    32
  0
VERTEX
  8
T30SSILL
 62
4
 10
850.696
 20
-3729.519
 30
2186.294
 70
    32
  0
VERTEX
  8
T30SSILL
 62
4
 10
858.075
 20
-3732.681
 30
2186.298
 70
    32
  0
VERTEX
  8
T30SSILL
 62
4
 10
865.711
 20
-3727.296
 30
2186.291
 70
    32
  0
VERTEX
  8
T30SSILL
 62
4
 10
870.077
 20
-3732.423
 30
2186.285
 70
    32
  0
VERTEX
  8
T30SSILL
 62
4
 10
867.772
 20
-3734.084
 30
2186.290
 70
    32
  0
VERTEX
  8
T30SSILL
 62
4
 10
871.093
 20
-3738.696
 30
2186.286
 70
    32
  0
VERTEX
  8
T30SSILL
 62
4
 10
851.750
 20
-3753.605
 30
2186.256
 70
    32
  0
VERTEX
  8
T30SSILL
 62
4
 10
848.157
 20
-3748.222
 30
2186.261
 70
    32
  0
VERTEX
  8
T30SSILL
 62
4
 10
808.283
 20
-3776.962
 30
2186.167
 70
    32
  0
VERTEX
  8
T30SSILL
 62
4
 10
812.785
 20
-3785.905
 30
2186.157
 70
    32
  0
VERTEX
  8
T30SSILL
 62
4
 10
809.295
 20
-3789.504
 30
2186.147
 70
    32
  0
VERTEX
  8
T30SSILL
 62
4
 10
812.119
 20
-3793.878
 30
2186.143
 70
    32
  0
VERTEX
  8
T30SSILL
 62
4
 10
811.278
 20
-3794.358
 30
2186.142
 70
    32
  0
SEQEND
  8
T30SSILL
  0
POLYLINE
  8
T30SSILL
 62
4
 66
     1
 70
     9
  0
VERTEX
  8
T30SSILL
 62
4
 10
1253.099
 20
-3457.867
 30
2184.051
 70
    32
  0
VERTEX
  8
T30SSILL
 62
4
 10
1242.124
 20
-3458.888
 30
2184.070
 70
    32
  0
VERTEX
  8
T30SSILL
 62
4
 10
1235.005
 20
-3461.826
 30
2184.095
 70
    32
  0
VERTEX
  8
T30SSILL
 62
4
 10
1193.495
 20
-3490.968
 30
2184.183
 70
    32
  0
VERTEX
  8
T30SSILL
 62
4
 10
1191.666
 20
-3489.024
 30
2184.176
 70
    32
  0
VERTEX
  8
T30SSILL
 62
4
 10
1180.582
 20
-3484.168
 30
2184.111
 70
    32
  0
VERTEX
  8
T30SSILL
 62
4
 10
1165.285
 20
-3493.410
 30
2183.975
 70
    32
  0
VERTEX
  8
T30SSILL
 62
4
 10
1164.892
 20
-3505.418
 30
2183.938
 70
    32
  0
VERTEX
  8
T30SSILL
 62
4
 10
1120.071
 20
-3498.937
 30
2183.907
 70
    32
  0
VERTEX
  8
T30SSILL
 62
4
 10
1089.689
 20
-3520.807
 30
2184.108
 70
    32
  0
VERTEX
  8
T30SSILL
 62
4
 10
1082.693
 20
-3510.876
 30
2184.045
 70
    32
  0
VERTEX
  8
T30SSILL
 62
4
 10
1060.869
 20
-3526.503
 30
2184.189
 70
    32
  0
VERTEX
  8
T30SSILL
 62
4
 10
1060.347
 20
-3525.844
 30
2184.185
 70
    32
  0
VERTEX
  8
T30SSILL
 62
4
 10
1110.371
 20
-3489.506
 30
2183.850
 70
    32
  0
VERTEX
  8
T30SSILL
 62
4
 10
1108.092
 20
-3483.759
 30
2183.811
 70
    32
  0
VERTEX
  8
T30SSILL
 62
4
 10
1109.435
 20
-3479.429
 30
2183.778
 70
    32
  0
VERTEX
  8
T30SSILL
 62
4
 10
1145.316
 20
-3453.449
 30
2183.950
 70
    32
  0
VERTEX
  8
T30SSILL
 62
4
 10
1148.300
 20
-3457.512
 30
2183.959
 70
    32
  0
VERTEX
  8
T30SSILL
 62
4
 10
1158.557
 20
-3450.011
 30
2184.054
 70
    32
  0
VERTEX
  8
T30SSILL
 62
4
 10
1155.645
 20
-3445.970
 30
2184.045
 70
    32
  0
VERTEX
  8
T30SSILL
 62
4
 10
1194.805
 20
-3417.614
 30
2183.895
 70
    32
  0
VERTEX
  8
T30SSILL
 62
4
 10
1204.217
 20
-3413.030
 30
2183.858
 70
    32
  0
VERTEX
  8
T30SSILL
 62
4
 10
1209.579
 20
-3413.090
 30
2183.852
 70
    32
  0
VERTEX
  8
T30SSILL
 62
4
 10
1219.916
 20
-3416.785
 30
2183.860
 70
    32
  0
SEQEND
  8
T30SSILL
  0
POLYLINE
  8
T30SSILL
 62
4
 66
     1
 70
     9
  0
VERTEX
  8
T30SSILL
 62
4
 10
1039.678
 20
-3369.273
 30
2183.443
 70
    32
  0
VERTEX
  8
T30SSILL
 62
4
 10
1045.700
 20
-3364.498
 30
2183.500
 70
    32
  0
VERTEX
  8
T30SSILL
 62
4
 10
1099.623
 20
-3373.820
 30
2183.765
 70
    32
  0
VERTEX
  8
T30SSILL
 62
4
 10
1104.598
 20
-3370.221
 30
2183.739
 70
    32
  0
VERTEX
  8
T30SSILL
 62
4
 10
1100.996
 20
-3365.238
 30
2183.715
 70
    32
  0
VERTEX
  8
T30SSILL
 62
4
 10
1115.508
 20
-3354.588
 30
2183.637
 70
    32
  0
VERTEX
  8
T30SSILL
 62
4
 10
1119.182
 20
-3359.670
 30
2183.661
 70
    32
  0
VERTEX
  8
T30SSILL
 62
4
 10
1139.444
 20
-3345.012
 30
2183.554
 70
    32
  0
VERTEX
  8
T30SSILL
 62
4
 10
1144.124
 20
-3343.054
 30
2183.537
 70
    32
  0
VERTEX
  8
T30SSILL
 62
4
 10
1159.345
 20
-3341.796
 30
2183.511
 70
    32
  0
VERTEX
  8
T30SSILL
 62
4
 10
1119.750
 20
-3292.777
 30
2183.283
 70
    32
  0
VERTEX
  8
T30SSILL
 62
4
 10
1114.795
 20
-3290.588
 30
2183.277
 70
    32
  0
VERTEX
  8
T30SSILL
 62
4
 10
1108.570
 20
-3289.650
 30
2183.279
 70
    32
  0
VERTEX
  8
T30SSILL
 62
4
 10
1098.215
 20
-3292.024
 30
2183.305
 70
    32
  0
VERTEX
  8
T30SSILL
 62
4
 10
1066.444
 20
-3314.677
 30
2183.472
 70
    32
  0
VERTEX
  8
T30SSILL
 62
4
 10
1071.020
 20
-3320.994
 30
2183.502
 70
    32
  0
VERTEX
  8
T30SSILL
 62
4
 10
1065.362
 20
-3325.202
 30
2183.533
 70
    32
  0
VERTEX
  8
T30SSILL
 62
4
 10
1060.449
 20
-3318.991
 30
2183.504
 70
    32
  0
VERTEX
  8
T30SSILL
 62
4
 10
1029.509
 20
-3341.257
 30
2183.453
 70
    32
  0
VERTEX
  8
T30SSILL
 62
4
 10
1039.757
 20
-3356.035
 30
2183.483
 70
    32
  0
VERTEX
  8
T30SSILL
 62
4
 10
1025.813
 20
-3366.047
 30
2183.354
 70
    32
  0
VERTEX
  8
T30SSILL
 62
4
 10
1028.533
 20
-3369.870
 30
2183.362
 70
    32
  0
SEQEND
  8
T30SSILL
  0
POLYLINE
  8
T30SSILL
 62
4
 66
     1
 70
     9
  0
VERTEX
  8
T30SSILL
 62
4
 10
1021.389
 20
-3305.019
 30
2183.473
 70
    32
  0
VERTEX
  8
T30SSILL
 62
4
 10
1007.860
 20
-3285.652
 30
2183.381
 70
    32
  0
VERTEX
  8
T30SSILL
 62
4
 10
1002.994
 20
-3289.162
 30
2183.407
 70
    32
  0
VERTEX
  8
T30SSILL
 62
4
 10
998.319
 20
-3286.160
 30
2183.391
 70
    32
  0
VERTEX
  8
T30SSILL
 62
4
 10
991.731
 20
-3273.953
 30
2183.335
 70
    32
  0
VERTEX
  8
T30SSILL
 62
4
 10
1048.864
 20
-3232.849
 30
2183.032
 70
    32
  0
VERTEX
  8
T30SSILL
 62
4
 10
1057.940
 20
-3229.159
 30
2183.000
 70
    32
  0
VERTEX
  8
T30SSILL
 62
4
 10
1062.461
 20
-3228.955
 30
2182.993
 70
    32
  0
VERTEX
  8
T30SSILL
 62
4
 10
1068.740
 20
-3230.746
 30
2182.996
 70
    32
  0
VERTEX
  8
T30SSILL
 62
4
 10
1073.346
 20
-3235.326
 30
2183.016
 70
    32
  0
VERTEX
  8
T30SSILL
 62
4
 10
1077.967
 20
-3244.967
 30
2183.065
 70
    32
  0
VERTEX
  8
T30SSILL
 62
4
 10
1078.882
 20
-3250.932
 30
2183.097
 70
    32
  0
VERTEX
  8
T30SSILL
 62
4
 10
1078.568
 20
-3252.461
 30
2183.106
 70
    32
  0
VERTEX
  8
T30SSILL
 62
4
 10
1072.930
 20
-3257.917
 30
2183.144
 70
    32
  0
VERTEX
  8
T30SSILL
 62
4
 10
1075.911
 20
-3261.315
 30
2183.160
 70
    32
  0
VERTEX
  8
T30SSILL
 62
4
 10
1081.282
 20
-3255.941
 30
2183.123
 70
    32
  0
VERTEX
  8
T30SSILL
 62
4
 10
1089.665
 20
-3259.152
 30
2183.130
 70
    32
  0
VERTEX
  8
T30SSILL
 62
4
 10
1094.640
 20
-3265.027
 30
2183.157
 70
    32
  0
VERTEX
  8
T30SSILL
 62
4
 10
1096.993
 20
-3264.602
 30
2183.152
 70
    32
  0
VERTEX
  8
T30SSILL
 62
4
 10
1111.641
 20
-3282.736
 30
2183.236
 70
    32
  0
VERTEX
  8
T30SSILL
 62
4
 10
1103.042
 20
-3283.206
 30
2183.250
 70
    32
  0
VERTEX
  8
T30SSILL
 62
4
 10
1094.342
 20
-3286.667
 30
2183.280
 70
    32
  0
VERTEX
  8
T30SSILL
 62
4
 10
1060.894
 20
-3310.956
 30
2183.458
 70
    32
  0
VERTEX
  8
T30SSILL
 62
4
 10
1021.258
 20
-3304.831
 30
2183.472
 70
    32
  0
SEQEND
  8
T30SSILL
  0
POLYLINE
  8
T30SSILL
 62
4
 66
     1
 70
     9
  0
VERTEX
  8
T30SSILL
 62
4
 10
854.602
 20
-3289.197
 30
2182.719
 70
    32
  0
VERTEX
  8
T30SSILL
 62
4
 10
861.540
 20
-3297.354
 30
2182.770
 70
    32
  0
VERTEX
  8
T30SSILL
 62
4
 10
868.764
 20
-3300.311
 30
2182.782
 70
    32
  0
VERTEX
  8
T30SSILL
 62
4
 10
877.338
 20
-3301.216
 30
2182.777
 70
    32
  0
VERTEX
  8
T30SSILL
 62
4
 10
922.099
 20
-3268.468
 30
2182.901
 70
    32
  0
VERTEX
  8
T30SSILL
 62
4
 10
918.563
 20
-3263.620
 30
2182.890
 70
    32
  0
VERTEX
  8
T30SSILL
 62
4
 10
928.320
 20
-3256.632
 30
2182.979
 70
    32
  0
VERTEX
  8
T30SSILL
 62
4
 10
924.784
 20
-3251.784
 30
2182.968
 70
    32
  0
VERTEX
  8
T30SSILL
 62
4
 10
934.541
 20
-3244.797
 30
2183.058
 70
    32
  0
VERTEX
  8
T30SSILL
 62
4
 10
931.005
 20
-3239.949
 30
2183.047
 70
    32
  0
VERTEX
  8
T30SSILL
 62
4
 10
960.274
 20
-3218.986
 30
2183.063
 70
    32
  0
VERTEX
  8
T30SSILL
 62
4
 10
967.345
 20
-3228.682
 30
2183.109
 70
    32
  0
VERTEX
  8
T30SSILL
 62
4
 10
972.223
 20
-3225.188
 30
2183.083
 70
    32
  0
VERTEX
  8
T30SSILL
 62
4
 10
975.759
 20
-3230.036
 30
2183.106
 70
    32
  0
VERTEX
  8
T30SSILL
 62
4
 10
984.596
 20
-3226.641
 30
2183.076
 70
    32
  0
VERTEX
  8
T30SSILL
 62
4
 10
992.163
 20
-3226.748
 30
2183.068
 70
    32
  0
VERTEX
  8
T30SSILL
 62
4
 10
1022.770
 20
-3232.793
 30
2183.064
 70
    32
  0
VERTEX
  8
T30SSILL
 62
4
 10
1036.251
 20
-3231.913
 30
2183.042
 70
    32
  0
VERTEX
  8
T30SSILL
 62
4
 10
1044.595
 20
-3226.143
 30
2183.000
 70
    32
  0
VERTEX
  8
T30SSILL
 62
4
 10
1055.249
 20
-3222.080
 30
2182.964
 70
    32
  0
VERTEX
  8
T30SSILL
 62
4
 10
1063.302
 20
-3222.892
 30
2182.958
 70
    32
  0
VERTEX
  8
T30SSILL
 62
4
 10
1024.954
 20
-3175.416
 30
2182.737
 70
    32
  0
VERTEX
  8
T30SSILL
 62
4
 10
1019.840
 20
-3171.826
 30
2182.723
 70
    32
  0
VERTEX
  8
T30SSILL
 62
4
 10
1008.112
 20
-3172.425
 30
2182.741
 70
    32
  0
VERTEX
  8
T30SSILL
 62
4
 10
999.958
 20
-3175.887
 30
2182.771
 70
    32
  0
VERTEX
  8
T30SSILL
 62
4
 10
855.934
 20
-3279.556
 30
2182.646
 70
    32
  0
VERTEX
  8
T30SSILL
 62
4
 10
853.824
 20
-3285.087
 30
2182.690
 70
    32
  0
SEQEND
  8
T30SSILL
  0
POLYLINE
  8
T30SSILL
 62
4
 66
     1
 70
     9
  0
VERTEX
  8
T30SSILL
 62
4
 10
1167.149
 20
-3353.216
 30
2183.566
 70
    32
  0
VERTEX
  8
T30SSILL
 62
4
 10
1156.928
 20
-3349.261
 30
2183.556
 70
    32
  0
VERTEX
  8
T30SSILL
 62
4
 10
1145.994
 20
-3351.573
 30
2183.583
 70
    32
  0
VERTEX
  8
T30SSILL
 62
4
 10
1065.381
 20
-3408.671
 30
2183.512
 70
    32
  0
VERTEX
  8
T30SSILL
 62
4
 10
1071.155
 20
-3418.531
 30
2183.524
 70
    32
  0
VERTEX
  8
T30SSILL
 62
4
 10
1070.520
 20
-3427.781
 30
2183.492
 70
    32
  0
VERTEX
  8
T30SSILL
 62
4
 10
1011.211
 20
-3470.241
 30
2183.841
 70
    32
  0
VERTEX
  8
T30SSILL
 62
4
 10
1014.466
 20
-3474.218
 30
2183.866
 70
    32
  0
VERTEX
  8
T30SSILL
 62
4
 10
1034.169
 20
-3460.003
 30
2183.735
 70
    32
  0
VERTEX
  8
T30SSILL
 62
4
 10
1037.774
 20
-3464.801
 30
2183.766
 70
    32
  0
VERTEX
  8
T30SSILL
 62
4
 10
1052.374
 20
-3454.267
 30
2183.669
 70
    32
  0
VERTEX
  8
T30SSILL
 62
4
 10
1048.769
 20
-3449.470
 30
2183.638
 70
    32
  0
VERTEX
  8
T30SSILL
 62
4
 10
1053.636
 20
-3445.958
 30
2183.606
 70
    32
  0
VERTEX
  8
T30SSILL
 62
4
 10
1057.241
 20
-3450.756
 30
2183.636
 70
    32
  0
VERTEX
  8
T30SSILL
 62
4
 10
1062.108
 20
-3447.245
 30
2183.604
 70
    32
  0
VERTEX
  8
T30SSILL
 62
4
 10
1058.503
 20
-3442.447
 30
2183.574
 70
    32
  0
VERTEX
  8
T30SSILL
 62
4
 10
1068.236
 20
-3435.425
 30
2183.509
 70
    32
  0
VERTEX
  8
T30SSILL
 62
4
 10
1071.841
 20
-3440.223
 30
2183.539
 70
    32
  0
VERTEX
  8
T30SSILL
 62
4
 10
1081.575
 20
-3433.200
 30
2183.555
 70
    32
  0
VERTEX
  8
T30SSILL
 62
4
 10
1135.136
 20
-3441.875
 30
2183.911
 70
    32
  0
VERTEX
  8
T30SSILL
 62
4
 10
1135.181
 20
-3434.678
 30
2183.932
 70
    32
  0
VERTEX
  8
T30SSILL
 62
4
 10
1132.386
 20
-3427.456
 30
2183.933
 70
    32
  0
VERTEX
  8
T30SSILL
 62
4
 10
1142.429
 20
-3420.574
 30
2183.977
 70
    32
  0
VERTEX
  8
T30SSILL
 62
4
 10
1146.255
 20
-3421.518
 30
2183.977
 70
    32
  0
VERTEX
  8
T30SSILL
 62
4
 10
1161.489
 20
-3433.818
 30
2184.028
 70
    32
  0
VERTEX
  8
T30SSILL
 62
4
 10
1194.459
 20
-3409.720
 30
2183.851
 70
    32
  0
VERTEX
  8
T30SSILL
 62
4
 10
1199.908
 20
-3407.329
 30
2183.831
 70
    32
  0
VERTEX
  8
T30SSILL
 62
4
 10
1211.235
 20
-3406.038
 30
2183.810
 70
    32
  0
VERTEX
  8
T30SSILL
 62
4
 10
1170.479
 20
-3355.581
 30
2183.575
 70
    32
  0
SEQEND
  8
T30SSILL
  0
POLYLINE
  8
T30SSILL
 62
4
 66
     1
 70
     9
  0
VERTEX
  8
T30SSILL
 62
4
 10
975.768
 20
-3502.137
 30
2184.320
 70
    32
  0
VERTEX
  8
T30SSILL
 62
4
 10
970.901
 20
-3505.648
 30
2184.385
 70
    32
  0
VERTEX
  8
T30SSILL
 62
4
 10
985.321
 20
-3524.838
 30
2184.519
 70
    32
  0
VERTEX
  8
T30SSILL
 62
4
 10
992.730
 20
-3519.493
 30
2184.421
 70
    32
  0
VERTEX
  8
T30SSILL
 62
4
 10
998.118
 20
-3531.322
 30
2184.522
 70
    32
  0
VERTEX
  8
T30SSILL
 62
4
 10
1007.278
 20
-3543.842
 30
2184.611
 70
    32
  0
VERTEX
  8
T30SSILL
 62
4
 10
920.830
 20
-3606.443
 30
2185.766
 70
    32
  0
VERTEX
  8
T30SSILL
 62
4
 10
918.889
 20
-3607.520
 30
2185.789
 70
    32
  0
VERTEX
  8
T30SSILL
 62
4
 10
915.793
 20
-3607.148
 30
2185.801
 70
    32
  0
VERTEX
  8
T30SSILL
 62
4
 10
906.598
 20
-3604.659
 30
2185.823
 70
    32
  0
VERTEX
  8
T30SSILL
 62
4
 10
880.066
 20
-3567.505
 30
2185.556
 70
    32
  0
VERTEX
  8
T30SSILL
 62
4
 10
878.238
 20
-3563.171
 30
2185.518
 70
    32
  0
VERTEX
  8
T30SSILL
 62
4
 10
878.545
 20
-3557.728
 30
2185.456
 70
    32
  0
VERTEX
  8
T30SSILL
 62
4
 10
889.006
 20
-3534.288
 30
2185.141
 70
    32
  0
VERTEX
  8
T30SSILL
 62
4
 10
946.915
 20
-3492.535
 30
2184.369
 70
    32
  0
VERTEX
  8
T30SSILL
 62
4
 10
953.656
 20
-3496.144
 30
2184.373
 70
    32
  0
VERTEX
  8
T30SSILL
 62
4
 10
968.387
 20
-3495.610
 30
2184.288
 70
    32
  0
VERTEX
  8
T30SSILL
 62
4
 10
972.513
 20
-3498.609
 30
2184.299
 70
    32
  0
SEQEND
  8
T30SSILL
  0
POLYLINE
  8
T30SSILL
 62
4
 66
     1
 70
     9
  0
VERTEX
  8
T30SSILL
 62
4
 10
845.016
 20
-3918.683
 30
2185.979
 70
    32
  0
VERTEX
  8
T30SSILL
 62
4
 10
838.509
 20
-3906.875
 30
2185.990
 70
    32
  0
VERTEX
  8
T30SSILL
 62
4
 10
837.619
 20
-3901.642
 30
2185.998
 70
    32
  0
VERTEX
  8
T30SSILL
 62
4
 10
842.078
 20
-3898.531
 30
2186.008
 70
    32
  0
VERTEX
  8
T30SSILL
 62
4
 10
831.765
 20
-3884.086
 30
2186.019
 70
    32
  0
VERTEX
  8
T30SSILL
 62
4
 10
837.235
 20
-3880.191
 30
2186.032
 70
    32
  0
VERTEX
  8
T30SSILL
 62
4
 10
830.216
 20
-3870.106
 30
2186.040
 70
    32
  0
VERTEX
  8
T30SSILL
 62
4
 10
831.405
 20
-3861.009
 30
2186.057
 70
    32
  0
VERTEX
  8
T30SSILL
 62
4
 10
820.960
 20
-3830.350
 30
2186.094
 70
    32
  0
VERTEX
  8
T30SSILL
 62
4
 10
819.303
 20
-3823.260
 30
2186.104
 70
    32
  0
VERTEX
  8
T30SSILL
 62
4
 10
820.006
 20
-3820.342
 30
2186.110
 70
    32
  0
VERTEX
  8
T30SSILL
 62
4
 10
874.294
 20
-3896.632
 30
2186.049
 70
    32
  0
VERTEX
  8
T30SSILL
 62
4
 10
870.408
 20
-3900.282
 30
2186.039
 70
    32
  0
VERTEX
  8
T30SSILL
 62
4
 10
872.446
 20
-3909.331
 30
2186.026
 70
    32
  0
VERTEX
  8
T30SSILL
 62
4
 10
852.610
 20
-3924.295
 30
2185.978
 70
    32
  0
SEQEND
  8
T30SSILL
  0
POLYLINE
  8
T30SSILL
 62
4
 66
     1
 70
     9
  0
VERTEX
  8
T30SSILL
 62
4
 10
781.234
 20
-3796.458
 30
2186.103
 70
    32
  0
VERTEX
  8
T30SSILL
 62
4
 10
788.908
 20
-3790.927
 30
2186.121
 70
    32
  0
VERTEX
  8
T30SSILL
 62
4
 10
805.561
 20
-3800.042
 30
2186.126
 70
    32
  0
VERTEX
  8
T30SSILL
 62
4
 10
812.662
 20
-3810.022
 30
2186.118
 70
    32
  0
VERTEX
  8
T30SSILL
 62
4
 10
808.290
 20
-3813.240
 30
2186.107
 70
    32
  0
VERTEX
  8
T30SSILL
 62
4
 10
800.998
 20
-3803.511
 30
2186.115
 70
    32
  0
VERTEX
  8
T30SSILL
 62
4
 10
791.083
 20
-3810.659
 30
2186.091
 70
    32
  0
SEQEND
  8
T30SSILL
  0
POLYLINE
  8
T30SSILL
 62
4
 66
     1
 70
     9
  0
VERTEX
  8
T30SSILL
 62
4
 10
780.415
 20
-3818.349
 30
2186.066
 70
    32
  0
VERTEX
  8
T30SSILL
 62
4
 10
768.525
 20
-3805.619
 30
2186.073
 70
    32
  0
VERTEX
  8
T30SSILL
 62
4
 10
772.575
 20
-3802.700
 30
2186.082
 70
    32
  0
VERTEX
  8
T30SSILL
 62
4
 10
782.287
 20
-3816.999
 30
2186.070
 70
    32
  0
SEQEND
  8
T30SSILL
  0
POLYLINE
  8
T30SSILL
 62
4
 66
     1
 70
     9
  0
VERTEX
  8
T30SSILL
 62
4
 10
815.718
 20
-3664.445
 30
2186.355
 70
    32
  0
VERTEX
  8
T30SSILL
 62
4
 10
818.534
 20
-3670.020
 30
2186.352
 70
    32
  0
VERTEX
  8
T30SSILL
 62
4
 10
816.983
 20
-3677.977
 30
2186.339
 70
    32
  0
VERTEX
  8
T30SSILL
 62
4
 10
815.130
 20
-3681.590
 30
2186.330
 70
    32
  0
VERTEX
  8
T30SSILL
 62
4
 10
789.596
 20
-3699.879
 30
2186.270
 70
    32
  0
VERTEX
  8
T30SSILL
 62
4
 10
780.916
 20
-3688.069
 30
2186.279
 70
    32
  0
VERTEX
  8
T30SSILL
 62
4
 10
771.630
 20
-3684.217
 30
2186.275
 70
    32
  0
VERTEX
  8
T30SSILL
 62
4
 10
764.208
 20
-3683.440
 30
2186.267
 70
    32
  0
VERTEX
  8
T30SSILL
 62
4
 10
769.119
 20
-3679.992
 30
2186.279
 70
    32
  0
VERTEX
  8
T30SSILL
 62
4
 10
765.717
 20
-3675.304
 30
2186.282
 70
    32
  0
VERTEX
  8
T30SSILL
 62
4
 10
788.556
 20
-3659.444
 30
2186.335
 70
    32
  0
VERTEX
  8
T30SSILL
 62
4
 10
795.158
 20
-3657.300
 30
2186.346
 70
    32
  0
VERTEX
  8
T30SSILL
 62
4
 10
802.186
 20
-3656.805
 30
2186.356
 70
    32
  0
VERTEX
  8
T30SSILL
 62
4
 10
809.860
 20
-3659.320
 30
2186.361
 70
    32
  0
VERTEX
  8
T30SSILL
 62
4
 10
814.236
 20
-3662.687
 30
2186.357
 70
    32
  0
SEQEND
  8
T30SSILL
  0
POLYLINE
  8
T30SSILL
 62
4
 66
     1
 70
     9
  0
VERTEX
  8
T30SSILL
 62
4
 10
798.915
 20
-3650.145
 30
2186.363
 70
    32
  0
VERTEX
  8
T30SSILL
 62
4
 10
792.729
 20
-3650.904
 30
2186.354
 70
    32
  0
VERTEX
  8
T30SSILL
 62
4
 10
784.827
 20
-3653.656
 30
2186.340
 70
    32
  0
VERTEX
  8
T30SSILL
 62
4
 10
776.224
 20
-3659.138
 30
2186.321
 70
    32
  0
VERTEX
  8
T30SSILL
 62
4
 10
765.676
 20
-3644.607
 30
2186.332
 70
    32
  0
VERTEX
  8
T30SSILL
 62
4
 10
768.435
 20
-3642.645
 30
2186.339
 70
    32
  0
VERTEX
  8
T30SSILL
 62
4
 10
761.034
 20
-3632.658
 30
2186.346
 70
    32
  0
VERTEX
  8
T30SSILL
 62
4
 10
760.156
 20
-3630.684
 30
2186.348
 70
    32
  0
VERTEX
  8
T30SSILL
 62
4
 10
760.731
 20
-3627.162
 30
2186.355
 70
    32
  0
VERTEX
  8
T30SSILL
 62
4
 10
779.575
 20
-3613.707
 30
2186.399
 70
    32
  0
VERTEX
  8
T30SSILL
 62
4
 10
806.403
 20
-3652.251
 30
2186.367
 70
    32
  0
VERTEX
  8
T30SSILL
 62
4
 10
801.488
 20
-3650.249
 30
2186.365
 70
    32
  0
SEQEND
  8
T30SSILL
  0
POLYLINE
  8
T30SSILL
 62
4
 66
     1
 70
     9
  0
VERTEX
  8
T30SSILL
 62
4
 10
970.437
 20
-3449.055
 30
2183.800
 70
    32
  0
VERTEX
  8
T30SSILL
 62
4
 10
982.791
 20
-3457.464
 30
2183.789
 70
    32
  0
VERTEX
  8
T30SSILL
 62
4
 10
989.037
 20
-3453.167
 30
2183.745
 70
    32
  0
VERTEX
  8
T30SSILL
 62
4
 10
975.500
 20
-3437.331
 30
2183.647
 70
    32
  0
VERTEX
  8
T30SSILL
 62
4
 10
973.405
 20
-3438.831
 30
2183.661
 70
    32
  0
VERTEX
  8
T30SSILL
 62
4
 10
969.928
 20
-3433.941
 30
2183.629
 70
    32
  0
VERTEX
  8
T30SSILL
 62
4
 10
960.169
 20
-3440.924
 30
2183.728
 70
    32
  0
VERTEX
  8
T30SSILL
 62
4
 10
963.646
 20
-3445.814
 30
2183.764
 70
    32
  0
VERTEX
  8
T30SSILL
 62
4
 10
934.370
 20
-3466.764
 30
2184.152
 70
    32
  0
VERTEX
  8
T30SSILL
 62
4
 10
927.416
 20
-3456.984
 30
2184.082
 70
    32
  0
VERTEX
  8
T30SSILL
 62
4
 10
922.136
 20
-3460.762
 30
2184.152
 70
    32
  0
VERTEX
  8
T30SSILL
 62
4
 10
918.660
 20
-3455.872
 30
2184.116
 70
    32
  0
VERTEX
  8
T30SSILL
 62
4
 10
923.939
 20
-3452.094
 30
2184.046
 70
    32
  0
VERTEX
  8
T30SSILL
 62
4
 10
920.462
 20
-3447.204
 30
2184.011
 70
    32
  0
VERTEX
  8
T30SSILL
 62
4
 10
944.859
 20
-3429.746
 30
2183.687
 70
    32
  0
VERTEX
  8
T30SSILL
 62
4
 10
947.078
 20
-3432.866
 30
2183.710
 70
    32
  0
VERTEX
  8
T30SSILL
 62
4
 10
961.778
 20
-3422.478
 30
2183.556
 70
    32
  0
VERTEX
  8
T30SSILL
 62
4
 10
944.742
 20
-3403.296
 30
2183.438
 70
    32
  0
VERTEX
  8
T30SSILL
 62
4
 10
918.684
 20
-3421.914
 30
2183.742
 70
    32
  0
VERTEX
  8
T30SSILL
 62
4
 10
917.983
 20
-3424.410
 30
2183.773
 70
    32
  0
VERTEX
  8
T30SSILL
 62
4
 10
927.304
 20
-3437.255
 30
2183.865
 70
    32
  0
VERTEX
  8
T30SSILL
 62
4
 10
913.968
 20
-3447.567
 30
2184.050
 70
    32
  0
VERTEX
  8
T30SSILL
 62
4
 10
909.524
 20
-3441.530
 30
2184.007
 70
    32
  0
VERTEX
  8
T30SSILL
 62
4
 10
896.988
 20
-3437.416
 30
2184.029
 70
    32
  0
VERTEX
  8
T30SSILL
 62
4
 10
856.355
 20
-3466.449
 30
2184.568
 70
    32
  0
VERTEX
  8
T30SSILL
 62
4
 10
859.670
 20
-3469.781
 30
2184.587
 70
    32
  0
VERTEX
  8
T30SSILL
 62
4
 10
860.733
 20
-3473.450
 30
2184.622
 70
    32
  0
VERTEX
  8
T30SSILL
 62
4
 10
861.005
 20
-3485.208
 30
2184.750
 70
    32
  0
VERTEX
  8
T30SSILL
 62
4
 10
834.188
 20
-3504.288
 30
2185.104
 70
    32
  0
VERTEX
  8
T30SSILL
 62
4
 10
838.604
 20
-3510.344
 30
2185.148
 70
    32
  0
VERTEX
  8
T30SSILL
 62
4
 10
854.739
 20
-3497.704
 30
2184.921
 70
    32
  0
VERTEX
  8
T30SSILL
 62
4
 10
858.546
 20
-3502.241
 30
2184.951
 70
    32
  0
VERTEX
  8
T30SSILL
 62
4
 10
864.895
 20
-3501.256
 30
2184.906
 70
    32
  0
VERTEX
  8
T30SSILL
 62
4
 10
884.761
 20
-3528.729
 30
2185.102
 70
    32
  0
VERTEX
  8
T30SSILL
 62
4
 10
941.908
 20
-3487.551
 30
2184.341
 70
    32
  0
VERTEX
  8
T30SSILL
 62
4
 10
936.330
 20
-3474.515
 30
2184.227
 70
    32
  0
VERTEX
  8
T30SSILL
 62
4
 10
943.833
 20
-3466.077
 30
2184.094
 70
    32
  0
VERTEX
  8
T30SSILL
 62
4
 10
947.283
 20
-3463.869
 30
2184.023
 70
    32
  0
SEQEND
  8
T30SSILL
  0
POLYLINE
  8
T30SSILL
 62
4
 66
     1
 70
     9
  0
VERTEX
  8
T30SSILL
 62
4
 10
900.551
 20
-3221.464
 30
2182.884
 70
    32
  0
VERTEX
  8
T30SSILL
 62
4
 10
904.987
 20
-3218.343
 30
2182.925
 70
    32
  0
VERTEX
  8
T30SSILL
 62
4
 10
909.525
 20
-3224.711
 30
2182.939
 70
    32
  0
VERTEX
  8
T30SSILL
 62
4
 10
906.332
 20
-3227.002
 30
2182.909
 70
    32
  0
VERTEX
  8
T30SSILL
 62
4
 10
909.458
 20
-3231.768
 30
2182.918
 70
    32
  0
VERTEX
  8
T30SSILL
 62
4
 10
905.164
 20
-3234.852
 30
2182.878
 70
    32
  0
VERTEX
  8
T30SSILL
 62
4
 10
901.894
 20
-3230.295
 30
2182.868
 70
    32
  0
VERTEX
  8
T30SSILL
 62
4
 10
895.302
 20
-3235.026
 30
2182.807
 70
    32
  0
VERTEX
  8
T30SSILL
 62
4
 10
898.574
 20
-3239.586
 30
2182.817
 70
    32
  0
VERTEX
  8
T30SSILL
 62
4
 10
887.972
 20
-3247.201
 30
2182.720
 70
    32
  0
VERTEX
  8
T30SSILL
 62
4
 10
884.028
 20
-3241.704
 30
2182.708
 70
    32
  0
VERTEX
  8
T30SSILL
 62
4
 10
872.777
 20
-3249.777
 30
2182.604
 70
    32
  0
VERTEX
  8
T30SSILL
 62
4
 10
876.772
 20
-3255.245
 30
2182.617
 70
    32
  0
VERTEX
  8
T30SSILL
 62
4
 10
843.988
 20
-3278.793
 30
2182.657
 70
    32
  0
VERTEX
  8
T30SSILL
 62
4
 10
805.176
 20
-3233.477
 30
2182.375
 70
    32
  0
VERTEX
  8
T30SSILL
 62
4
 10
806.046
 20
-3223.191
 30
2182.298
 70
    32
  0
VERTEX
  8
T30SSILL
 62
4
 10
954.132
 20
-3115.956
 30
2182.489
 70
    32
  0
VERTEX
  8
T30SSILL
 62
4
 10
961.990
 20
-3113.140
 30
2182.463
 70
    32
  0
VERTEX
  8
T30SSILL
 62
4
 10
971.361
 20
-3113.038
 30
2182.451
 70
    32
  0
VERTEX
  8
T30SSILL
 62
4
 10
977.511
 20
-3116.767
 30
2182.465
 70
    32
  0
VERTEX
  8
T30SSILL
 62
4
 10
1016.278
 20
-3164.674
 30
2182.687
 70
    32
  0
VERTEX
  8
T30SSILL
 62
4
 10
1005.831
 20
-3165.161
 30
2182.703
 70
    32
  0
VERTEX
  8
T30SSILL
 62
4
 10
997.052
 20
-3168.963
 30
2182.735
 70
    32
  0
VERTEX
  8
T30SSILL
 62
4
 10
919.213
 20
-3224.761
 30
2183.007
 70
    32
  0
VERTEX
  8
T30SSILL
 62
4
 10
911.575
 20
-3213.707
 30
2182.985
 70
    32
  0
VERTEX
  8
T30SSILL
 62
4
 10
924.372
 20
-3204.702
 30
2183.027
 70
    32
  0
VERTEX
  8
T30SSILL
 62
4
 10
920.942
 20
-3199.779
 30
2183.003
 70
    32
  0
VERTEX
  8
T30SSILL
 62
4
 10
930.755
 20
-3192.873
 30
2182.952
 70
    32
  0
VERTEX
  8
T30SSILL
 62
4
 10
920.463
 20
-3178.106
 30
2182.881
 70
    32
  0
VERTEX
  8
T30SSILL
 62
4
 10
910.649
 20
-3185.012
 30
2182.932
 70
    32
  0
VERTEX
  8
T30SSILL
 62
4
 10
908.658
 20
-3182.155
 30
2182.919
 70
    32
  0
VERTEX
  8
T30SSILL
 62
4
 10
895.575
 20
-3191.349
 30
2182.937
 70
    32
  0
VERTEX
  8
T30SSILL
 62
4
 10
888.050
 20
-3180.833
 30
2182.914
 70
    32
  0
VERTEX
  8
T30SSILL
 62
4
 10
881.219
 20
-3184.991
 30
2182.853
 70
    32
  0
VERTEX
  8
T30SSILL
 62
4
 10
891.058
 20
-3198.798
 30
2182.883
 70
    32
  0
VERTEX
  8
T30SSILL
 62
4
 10
886.559
 20
-3201.964
 30
2182.841
 70
    32
  0
VERTEX
  8
T30SSILL
 62
4
 10
890.057
 20
-3206.839
 30
2182.852
 70
    32
  0
VERTEX
  8
T30SSILL
 62
4
 10
894.540
 20
-3203.684
 30
2182.893
 70
    32
  0
VERTEX
  8
T30SSILL
 62
4
 10
898.022
 20
-3208.570
 30
2182.904
 70
    32
  0
VERTEX
  8
T30SSILL
 62
4
 10
893.555
 20
-3211.714
 30
2182.863
 70
    32
  0
SEQEND
  8
T30SSILL
  0
POLYLINE
  8
T30SSILL
 62
4
 66
     1
 70
     9
  0
VERTEX
  8
T30SSILL
 62
4
 10
849.708
 20
-3463.016
 30
2184.566
 70
    32
  0
VERTEX
  8
T30SSILL
 62
4
 10
841.754
 20
-3456.498
 30
2184.536
 70
    32
  0
VERTEX
  8
T30SSILL
 62
4
 10
835.265
 20
-3448.772
 30
2184.486
 70
    32
  0
VERTEX
  8
T30SSILL
 62
4
 10
834.326
 20
-3448.354
 30
2184.486
 70
    32
  0
VERTEX
  8
T30SSILL
 62
4
 10
830.926
 20
-3450.785
 30
2184.532
 70
    32
  0
VERTEX
  8
T30SSILL
 62
4
 10
824.763
 20
-3442.289
 30
2184.471
 70
    32
  0
VERTEX
  8
T30SSILL
 62
4
 10
828.956
 20
-3439.306
 30
2184.415
 70
    32
  0
VERTEX
  8
T30SSILL
 62
4
 10
824.555
 20
-3433.024
 30
2184.370
 70
    32
  0
VERTEX
  8
T30SSILL
 62
4
 10
820.259
 20
-3436.082
 30
2184.427
 70
    32
  0
VERTEX
  8
T30SSILL
 62
4
 10
815.673
 20
-3429.761
 30
2184.381
 70
    32
  0
VERTEX
  8
T30SSILL
 62
4
 10
810.816
 20
-3433.283
 30
2184.446
 70
    32
  0
VERTEX
  8
T30SSILL
 62
4
 10
808.292
 20
-3429.804
 30
2184.422
 70
    32
  0
VERTEX
  8
T30SSILL
 62
4
 10
811.603
 20
-3427.470
 30
2184.378
 70
    32
  0
VERTEX
  8
T30SSILL
 62
4
 10
811.257
 20
-3424.052
 30
2184.342
 70
    32
  0
VERTEX
  8
T30SSILL
 62
4
 10
808.158
 20
-3415.779
 30
2184.268
 70
    32
  0
VERTEX
  8
T30SSILL
 62
4
 10
804.115
 20
-3410.207
 30
2184.228
 70
    32
  0
VERTEX
  8
T30SSILL
 62
4
 10
895.558
 20
-3344.383
 30
2183.070
 70
    32
  0
VERTEX
  8
T30SSILL
 62
4
 10
935.663
 20
-3390.920
 30
2183.359
 70
    32
  0
VERTEX
  8
T30SSILL
 62
4
 10
935.436
 20
-3394.315
 30
2183.384
 70
    32
  0
VERTEX
  8
T30SSILL
 62
4
 10
934.088
 20
-3402.686
 30
2183.447
 70
    32
  0
VERTEX
  8
T30SSILL
 62
4
 10
913.952
 20
-3417.083
 30
2183.714
 70
    32
  0
VERTEX
  8
T30SSILL
 62
4
 10
905.519
 20
-3409.998
 30
2183.681
 70
    32
  0
VERTEX
  8
T30SSILL
 62
4
 10
903.862
 20
-3402.870
 30
2183.611
 70
    32
  0
VERTEX
  8
T30SSILL
 62
4
 10
907.761
 20
-3400.139
 30
2183.560
 70
    32
  0
VERTEX
  8
T30SSILL
 62
4
 10
899.874
 20
-3379.507
 30
2183.375
 70
    32
  0
VERTEX
  8
T30SSILL
 62
4
 10
885.447
 20
-3367.978
 30
2183.325
 70
    32
  0
VERTEX
  8
T30SSILL
 62
4
 10
881.495
 20
-3366.332
 30
2183.328
 70
    32
  0
VERTEX
  8
T30SSILL
 62
4
 10
875.807
 20
-3374.193
 30
2183.445
 70
    32
  0
VERTEX
  8
T30SSILL
 62
4
 10
870.449
 20
-3378.376
 30
2183.520
 70
    32
  0
VERTEX
  8
T30SSILL
 62
4
 10
893.393
 20
-3413.433
 30
2183.784
 70
    32
  0
VERTEX
  8
T30SSILL
 62
4
 10
888.968
 20
-3417.718
 30
2183.855
 70
    32
  0
VERTEX
  8
T30SSILL
 62
4
 10
891.376
 20
-3426.687
 30
2183.941
 70
    32
  0
VERTEX
  8
T30SSILL
 62
4
 10
889.140
 20
-3434.712
 30
2184.041
 70
    32
  0
SEQEND
  8
T30SSILL
  0
POLYLINE
  8
T30SSILL
 62
4
 66
     1
 70
     9
  0
VERTEX
  8
T30SSILL
 62
4
 10
957.096
 20
-3329.674
 30
2182.971
 70
    32
  0
VERTEX
  8
T30SSILL
 62
4
 10
960.498
 20
-3334.618
 30
2182.981
 70
    32
  0
VERTEX
  8
T30SSILL
 62
4
 10
946.152
 20
-3344.967
 30
2183.007
 70
    32
  0
VERTEX
  8
T30SSILL
 62
4
 10
929.234
 20
-3366.127
 30
2183.185
 70
    32
  0
VERTEX
  8
T30SSILL
 62
4
 10
925.263
 20
-3369.519
 30
2183.215
 70
    32
  0
VERTEX
  8
T30SSILL
 62
4
 10
900.410
 20
-3340.783
 30
2183.037
 70
    32
  0
VERTEX
  8
T30SSILL
 62
4
 10
960.111
 20
-3297.510
 30
2183.086
 70
    32
  0
VERTEX
  8
T30SSILL
 62
4
 10
969.760
 20
-3305.740
 30
2183.131
 70
    32
  0
VERTEX
  8
T30SSILL
 62
4
 10
955.159
 20
-3316.274
 30
2182.997
 70
    32
  0
VERTEX
  8
T30SSILL
 62
4
 10
961.963
 20
-3326.162
 30
2183.016
 70
    32
  0
SEQEND
  8
T30SSILL
  0
POLYLINE
  8
T30SSILL
 62
4
 66
     1
 70
     9
  0
VERTEX
  8
T30SSILL
 62
4
 10
920.703
 20
-3276.736
 30
2182.867
 70
    32
  0
VERTEX
  8
T30SSILL
 62
4
 10
877.742
 20
-3307.982
 30
2182.826
 70
    32
  0
VERTEX
  8
T30SSILL
 62
4
 10
875.158
 20
-3312.550
 30
2182.863
 70
    32
  0
VERTEX
  8
T30SSILL
 62
4
 10
887.585
 20
-3327.297
 30
2182.955
 70
    32
  0
VERTEX
  8
T30SSILL
 62
4
 10
894.327
 20
-3329.733
 30
2182.964
 70
    32
  0
VERTEX
  8
T30SSILL
 62
4
 10
898.879
 20
-3329.723
 30
2182.958
 70
    32
  0
VERTEX
  8
T30SSILL
 62
4
 10
902.351
 20
-3328.209
 30
2182.942
 70
    32
  0
VERTEX
  8
T30SSILL
 62
4
 10
948.603
 20
-3295.239
 30
2183.011
 70
    32
  0
VERTEX
  8
T30SSILL
 62
4
 10
937.530
 20
-3279.444
 30
2182.978
 70
    32
  0
VERTEX
  8
T30SSILL
 62
4
 10
932.652
 20
-3282.938
 30
2182.934
 70
    32
  0
VERTEX
  8
T30SSILL
 62
4
 10
929.117
 20
-3278.090
 30
2182.923
 70
    32
  0
VERTEX
  8
T30SSILL
 62
4
 10
924.239
 20
-3281.584
 30
2182.878
 70
    32
  0
SEQEND
  8
T30SSILL
  0
POLYLINE
  8
T30SSILL
 62
4
 66
     1
 70
     9
  0
VERTEX
  8
T30SSILL
 62
4
 10
995.066
 20
-3477.303
 30
2183.942
 70
    32
  0
VERTEX
  8
T30SSILL
 62
4
 10
996.710
 20
-3480.029
 30
2183.964
 70
    32
  0
VERTEX
  8
T30SSILL
 62
4
 10
982.414
 20
-3491.006
 30
2184.162
 70
    32
  0
VERTEX
  8
T30SSILL
 62
4
 10
985.501
 20
-3495.114
 30
2184.190
 70
    32
  0
VERTEX
  8
T30SSILL
 62
4
 10
1000.101
 20
-3484.581
 30
2183.996
 70
    32
  0
VERTEX
  8
T30SSILL
 62
4
 10
1003.707
 20
-3489.379
 30
2184.029
 70
    32
  0
VERTEX
  8
T30SSILL
 62
4
 10
1013.440
 20
-3482.356
 30
2183.927
 70
    32
  0
VERTEX
  8
T30SSILL
 62
4
 10
1009.835
 20
-3477.559
 30
2183.897
 70
    32
  0
VERTEX
  8
T30SSILL
 62
4
 10
1010.647
 20
-3476.973
 30
2183.892
 70
    32
  0
VERTEX
  8
T30SSILL
 62
4
 10
994.601
 20
-3458.606
 30
2183.778
 70
    32
  0
VERTEX
  8
T30SSILL
 62
4
 10
990.736
 20
-3461.835
 30
2183.807
 70
    32
  0
VERTEX
  8
T30SSILL
 62
4
 10
990.803
 20
-3468.095
 30
2183.864
 70
    32
  0
VERTEX
  8
T30SSILL
 62
4
 10
992.667
 20
-3473.382
 30
2183.912
 70
    32
  0
SEQEND
  8
T30SSILL
  0
POLYLINE
  8
T30SSILL
 62
4
 66
     1
 70
     9
  0
VERTEX
  8
T30SSILL
 62
4
 10
990.008
 20
-3385.907
 30
2183.249
 70
    32
  0
VERTEX
  8
T30SSILL
 62
4
 10
994.796
 20
-3388.318
 30
2183.261
 70
    32
  0
VERTEX
  8
T30SSILL
 62
4
 10
986.698
 20
-3393.868
 30
2183.312
 70
    32
  0
VERTEX
  8
T30SSILL
 62
4
 10
992.976
 20
-3402.692
 30
2183.369
 70
    32
  0
VERTEX
  8
T30SSILL
 62
4
 10
987.372
 20
-3406.703
 30
2183.406
 70
    32
  0
VERTEX
  8
T30SSILL
 62
4
 10
983.895
 20
-3401.813
 30
2183.374
 70
    32
  0
VERTEX
  8
T30SSILL
 62
4
 10
964.867
 20
-3415.429
 30
2183.500
 70
    32
  0
VERTEX
  8
T30SSILL
 62
4
 10
955.299
 20
-3404.690
 30
2183.434
 70
    32
  0
VERTEX
  8
T30SSILL
 62
4
 10
953.579
 20
-3401.257
 30
2183.411
 70
    32
  0
VERTEX
  8
T30SSILL
 62
4
 10
956.152
 20
-3394.286
 30
2183.356
 70
    32
  0
VERTEX
  8
T30SSILL
 62
4
 10
975.204
 20
-3380.622
 30
2183.230
 70
    32
  0
VERTEX
  8
T30SSILL
 62
4
 10
980.798
 20
-3384.300
 30
2183.250
 70
    32
  0
VERTEX
  8
T30SSILL
 62
4
 10
984.994
 20
-3383.333
 30
2183.237
 70
    32
  0
VERTEX
  8
T30SSILL
 62
4
 10
986.780
 20
-3383.999
 30
2183.240
 70
    32
  0
SEQEND
  8
T30SSILL
  0
POLYLINE
  8
T30SSILL
 62
4
 66
     1
 70
     9
  0
VERTEX
  8
T30SSILL
 62
4
 10
976.210
 20
-3422.067
 30
2183.534
 70
    32
  0
VERTEX
  8
T30SSILL
 62
4
 10
983.164
 20
-3431.847
 30
2183.596
 70
    32
  0
VERTEX
  8
T30SSILL
 62
4
 10
980.923
 20
-3433.451
 30
2183.611
 70
    32
  0
VERTEX
  8
T30SSILL
 62
4
 10
981.821
 20
-3434.458
 30
2183.617
 70
    32
  0
VERTEX
  8
T30SSILL
 62
4
 10
1047.730
 20
-3386.704
 30
2183.450
 70
    32
  0
VERTEX
  8
T30SSILL
 62
4
 10
1040.370
 20
-3376.156
 30
2183.428
 70
    32
  0
VERTEX
  8
T30SSILL
 62
4
 10
1011.093
 20
-3397.106
 30
2183.304
 70
    32
  0
VERTEX
  8
T30SSILL
 62
4
 10
1014.572
 20
-3401.994
 30
2183.335
 70
    32
  0
VERTEX
  8
T30SSILL
 62
4
 10
1009.692
 20
-3405.486
 30
2183.367
 70
    32
  0
VERTEX
  8
T30SSILL
 62
4
 10
1006.214
 20
-3400.597
 30
2183.336
 70
    32
  0
SEQEND
  8
T30SSILL
  0
POLYLINE
  8
T30SSILL
 62
4
 66
     1
 70
     9
  0
VERTEX
  8
T30SSILL
 62
4
 10
963.544
 20
-3339.045
 30
2182.990
 70
    32
  0
VERTEX
  8
T30SSILL
 62
4
 10
953.122
 20
-3346.504
 30
2183.009
 70
    32
  0
VERTEX
  8
T30SSILL
 62
4
 10
938.940
 20
-3367.467
 30
2183.182
 70
    32
  0
VERTEX
  8
T30SSILL
 62
4
 10
936.167
 20
-3378.825
 30
2183.269
 70
    32
  0
VERTEX
  8
T30SSILL
 62
4
 10
937.431
 20
-3383.132
 30
2183.299
 70
    32
  0
VERTEX
  8
T30SSILL
 62
4
 10
946.033
 20
-3393.226
 30
2183.362
 70
    32
  0
VERTEX
  8
T30SSILL
 62
4
 10
968.954
 20
-3377.092
 30
2183.213
 70
    32
  0
VERTEX
  8
T30SSILL
 62
4
 10
965.058
 20
-3355.004
 30
2183.055
 70
    32
  0
VERTEX
  8
T30SSILL
 62
4
 10
971.255
 20
-3350.251
 30
2183.012
 70
    32
  0
SEQEND
  8
T30SSILL
  0
POLYLINE
  8
T30SSILL
 62
4
 66
     1
 70
     9
  0
VERTEX
  8
T30SSILL
 62
4
 10
1007.312
 20
-3494.176
 30
2184.063
 70
    32
  0
VERTEX
  8
T30SSILL
 62
4
 10
1014.522
 20
-3503.771
 30
2184.130
 70
    32
  0
VERTEX
  8
T30SSILL
 62
4
 10
1026.107
 20
-3494.667
 30
2184.001
 70
    32
  0
VERTEX
  8
T30SSILL
 62
4
 10
1018.577
 20
-3486.049
 30
2183.948
 70
    32
  0
VERTEX
  8
T30SSILL
 62
4
 10
1013.348
 20
-3489.821
 30
2183.982
 70
    32
  0
SEQEND
  8
T30SSILL
  0
POLYLINE
  8
T30SSILL
 62
4
 66
     1
 70
     9
  0
VERTEX
  8
T30SSILL
 62
4
 10
990.835
 20
-3336.485
 30
2183.192
 70
    32
  0
VERTEX
  8
T30SSILL
 62
4
 10
1013.733
 20
-3320.035
 30
2183.402
 70
    32
  0
VERTEX
  8
T30SSILL
 62
4
 10
1027.065
 20
-3334.867
 30
2183.454
 70
    32
  0
VERTEX
  8
T30SSILL
 62
4
 10
1052.065
 20
-3316.795
 30
2183.502
 70
    32
  0
VERTEX
  8
T30SSILL
 62
4
 10
1014.175
 20
-3310.183
 30
2183.434
 70
    32
  0
VERTEX
  8
T30SSILL
 62
4
 10
986.464
 20
-3330.017
 30
2183.179
 70
    32
  0
SEQEND
  8
T30SSILL
  0
POLYLINE
  8
T30SSILL
 62
4
 66
     1
 70
     9
  0
VERTEX
  8
T30SSILL
 62
4
 10
979.240
 20
-3234.810
 30
2183.129
 70
    32
  0
VERTEX
  8
T30SSILL
 62
4
 10
969.484
 20
-3241.798
 30
2183.180
 70
    32
  0
VERTEX
  8
T30SSILL
 62
4
 10
976.555
 20
-3251.494
 30
2183.226
 70
    32
  0
VERTEX
  8
T30SSILL
 62
4
 10
972.313
 20
-3254.533
 30
2183.249
 70
    32
  0
VERTEX
  8
T30SSILL
 62
4
 10
984.186
 20
-3269.489
 30
2183.319
 70
    32
  0
VERTEX
  8
T30SSILL
 62
4
 10
1022.911
 20
-3241.159
 30
2183.111
 70
    32
  0
VERTEX
  8
T30SSILL
 62
4
 10
1021.635
 20
-3238.926
 30
2183.100
 70
    32
  0
VERTEX
  8
T30SSILL
 62
4
 10
992.312
 20
-3233.914
 30
2183.108
 70
    32
  0
VERTEX
  8
T30SSILL
 62
4
 10
982.255
 20
-3234.726
 30
2183.125
 70
    32
  0
SEQEND
  8
T30SSILL
  0
POLYLINE
  8
T30SSILL
 62
4
 66
     1
 70
     9
  0
VERTEX
  8
T30SSILL
 62
4
 10
951.655
 20
-3270.143
 30
2183.106
 70
    32
  0
VERTEX
  8
T30SSILL
 62
4
 10
959.228
 20
-3287.506
 30
2183.109
 70
    32
  0
VERTEX
  8
T30SSILL
 62
4
 10
954.192
 20
-3291.228
 30
2183.063
 70
    32
  0
VERTEX
  8
T30SSILL
 62
4
 10
943.474
 20
-3275.188
 30
2183.033
 70
    32
  0
VERTEX
  8
T30SSILL
 62
4
 10
952.165
 20
-3268.963
 30
2183.113
 70
    32
  0
SEQEND
  8
T30SSILL
  0
POLYLINE
  8
T30SSILL
 62
4
 66
     1
 70
     9
  0
VERTEX
  8
T30SSILL
 62
4
 10
1251.966
 20
-3611.308
 30
2184.557
 70
    32
  0
VERTEX
  8
T30SSILL
 62
4
 10
1262.184
 20
-3596.048
 30
2184.431
 70
    32
  0
VERTEX
  8
T30SSILL
 62
4
 10
1252.965
 20
-3586.380
 30
2184.372
 70
    32
  0
VERTEX
  8
T30SSILL
 62
4
 10
1238.522
 20
-3560.811
 30
2184.300
 70
    32
  0
VERTEX
  8
T30SSILL
 62
4
 10
1287.239
 20
-3527.040
 30
2184.399
 70
    32
  0
VERTEX
  8
T30SSILL
 62
4
 10
1296.594
 20
-3524.342
 30
2184.372
 70
    32
  0
VERTEX
  8
T30SSILL
 62
4
 10
1302.080
 20
-3524.422
 30
2184.366
 70
    32
  0
VERTEX
  8
T30SSILL
 62
4
 10
1307.056
 20
-3526.062
 30
2184.369
 70
    32
  0
VERTEX
  8
T30SSILL
 62
4
 10
1309.182
 20
-3527.301
 30
2184.374
 70
    32
  0
VERTEX
  8
T30SSILL
 62
4
 10
1338.143
 20
-3563.155
 30
2184.540
 70
    32
  0
VERTEX
  8
T30SSILL
 62
4
 10
1335.952
 20
-3572.524
 30
2184.596
 70
    32
  0
VERTEX
  8
T30SSILL
 62
4
 10
1245.120
 20
-3639.888
 30
2184.776
 70
    32
  0
VERTEX
  8
T30SSILL
 62
4
 10
1193.742
 20
-3630.624
 30
2184.777
 70
    32
  0
VERTEX
  8
T30SSILL
 62
4
 10
1167.147
 20
-3649.386
 30
2184.950
 70
    32
  0
VERTEX
  8
T30SSILL
 62
4
 10
1158.347
 20
-3639.091
 30
2184.886
 70
    32
  0
VERTEX
  8
T30SSILL
 62
4
 10
1170.701
 20
-3629.682
 30
2184.801
 70
    32
  0
VERTEX
  8
T30SSILL
 62
4
 10
1167.193
 20
-3625.251
 30
2184.773
 70
    32
  0
VERTEX
  8
T30SSILL
 62
4
 10
1172.783
 20
-3621.239
 30
2184.736
 70
    32
  0
VERTEX
  8
T30SSILL
 62
4
 10
1167.134
 20
-3612.157
 30
2184.677
 70
    32
  0
VERTEX
  8
T30SSILL
 62
4
 10
1212.675
 20
-3579.254
 30
2184.374
 70
    32
  0
VERTEX
  8
T30SSILL
 62
4
 10
1222.760
 20
-3582.112
 30
2184.381
 70
    32
  0
VERTEX
  8
T30SSILL
 62
4
 10
1233.857
 20
-3601.506
 30
2184.509
 70
    32
  0
SEQEND
  8
T30SSILL
  0
POLYLINE
  8
T30SSILL
 62
4
 66
     1
 70
     9
  0
VERTEX
  8
T30SSILL
 62
4
 10
1301.273
 20
-3517.509
 30
2184.328
 70
    32
  0
VERTEX
  8
T30SSILL
 62
4
 10
1292.324
 20
-3517.636
 30
2184.340
 70
    32
  0
VERTEX
  8
T30SSILL
 62
4
 10
1284.464
 20
-3519.695
 30
2184.361
 70
    32
  0
VERTEX
  8
T30SSILL
 62
4
 10
1235.104
 20
-3554.688
 30
2184.294
 70
    32
  0
VERTEX
  8
T30SSILL
 62
4
 10
1231.461
 20
-3553.394
 30
2184.271
 70
    32
  0
VERTEX
  8
T30SSILL
 62
4
 10
1223.665
 20
-3538.145
 30
2184.260
 70
    32
  0
VERTEX
  8
T30SSILL
 62
4
 10
1201.829
 20
-3503.334
 30
2184.206
 70
    32
  0
VERTEX
  8
T30SSILL
 62
4
 10
1198.747
 20
-3496.318
 30
2184.205
 70
    32
  0
VERTEX
  8
T30SSILL
 62
4
 10
1241.445
 20
-3466.866
 30
2184.116
 70
    32
  0
VERTEX
  8
T30SSILL
 62
4
 10
1251.304
 20
-3464.568
 30
2184.091
 70
    32
  0
VERTEX
  8
T30SSILL
 62
4
 10
1262.682
 20
-3469.732
 30
2184.106
 70
    32
  0
SEQEND
  8
T30SSILL
  0
POLYLINE
  8
T30SSILL
 62
4
 66
     1
 70
     9
  0
VERTEX
  8
T30SSILL
 62
4
 10
1196.162
 20
-3545.508
 30
2184.148
 70
    32
  0
VERTEX
  8
T30SSILL
 62
4
 10
1211.009
 20
-3572.849
 30
2184.329
 70
    32
  0
VERTEX
  8
T30SSILL
 62
4
 10
1191.867
 20
-3586.263
 30
2184.453
 70
    32
  0
VERTEX
  8
T30SSILL
 62
4
 10
1143.218
 20
-3578.079
 30
2184.458
 70
    32
  0
VERTEX
  8
T30SSILL
 62
4
 10
1135.246
 20
-3580.435
 30
2184.486
 70
    32
  0
VERTEX
  8
T30SSILL
 62
4
 10
1118.224
 20
-3592.870
 30
2184.600
 70
    32
  0
VERTEX
  8
T30SSILL
 62
4
 10
1110.008
 20
-3582.481
 30
2184.535
 70
    32
  0
VERTEX
  8
T30SSILL
 62
4
 10
1120.530
 20
-3574.604
 30
2184.463
 70
    32
  0
VERTEX
  8
T30SSILL
 62
4
 10
1116.428
 20
-3564.955
 30
2184.397
 70
    32
  0
VERTEX
  8
T30SSILL
 62
4
 10
1120.722
 20
-3559.593
 30
2184.352
 70
    32
  0
VERTEX
  8
T30SSILL
 62
4
 10
1135.677
 20
-3548.967
 30
2184.254
 70
    32
  0
VERTEX
  8
T30SSILL
 62
4
 10
1132.725
 20
-3544.645
 30
2184.226
 70
    32
  0
VERTEX
  8
T30SSILL
 62
4
 10
1183.005
 20
-3508.268
 30
2184.058
 70
    32
  0
VERTEX
  8
T30SSILL
 62
4
 10
1187.871
 20
-3510.964
 30
2184.085
 70
    32
  0
VERTEX
  8
T30SSILL
 62
4
 10
1188.905
 20
-3523.900
 30
2184.055
 70
    32
  0
VERTEX
  8
T30SSILL
 62
4
 10
1192.949
 20
-3534.677
 30
2184.072
 70
    32
  0
SEQEND
  8
T30SSILL
  0
POLYLINE
  8
T30SSILL
 62
4
 66
     1
 70
     9
  0
VERTEX
  8
T30SSILL
 62
4
 10
1172.736
 20
-3654.602
 30
2184.981
 70
    32
  0
VERTEX
  8
T30SSILL
 62
4
 10
1178.504
 20
-3661.428
 30
2185.024
 70
    32
  0
VERTEX
  8
T30SSILL
 62
4
 10
1196.520
 20
-3648.714
 30
2184.906
 70
    32
  0
VERTEX
  8
T30SSILL
 62
4
 10
1200.644
 20
-3654.005
 30
2184.940
 70
    32
  0
VERTEX
  8
T30SSILL
 62
4
 10
1205.241
 20
-3651.032
 30
2184.912
 70
    32
  0
VERTEX
  8
T30SSILL
 62
4
 10
1214.821
 20
-3661.960
 30
2184.979
 70
    32
  0
VERTEX
  8
T30SSILL
 62
4
 10
1237.462
 20
-3644.950
 30
2184.824
 70
    32
  0
VERTEX
  8
T30SSILL
 62
4
 10
1194.672
 20
-3638.424
 30
2184.833
 70
    32
  0
VERTEX
  8
T30SSILL
 62
4
 10
1183.009
 20
-3647.026
 30
2184.912
 70
    32
  0
VERTEX
  8
T30SSILL
 62
4
 10
1184.360
 20
-3648.865
 30
2184.924
 70
    32
  0
VERTEX
  8
T30SSILL
 62
4
 10
1178.494
 20
-3652.641
 30
2184.959
 70
    32
  0
VERTEX
  8
T30SSILL
 62
4
 10
1177.439
 20
-3651.134
 30
2184.949
 70
    32
  0
SEQEND
  8
T30SSILL
  0
POLYLINE
  8
T30SSILL
 62
4
 66
     1
 70
     9
  0
VERTEX
  8
T30SSILL
 62
4
 10
1158.566
 20
-3600.068
 30
2184.599
 70
    32
  0
VERTEX
  8
T30SSILL
 62
4
 10
1156.675
 20
-3598.493
 30
2184.590
 70
    32
  0
VERTEX
  8
T30SSILL
 62
4
 10
1155.241
 20
-3598.763
 30
2184.594
 70
    32
  0
VERTEX
  8
T30SSILL
 62
4
 10
1137.730
 20
-3608.400
 30
2184.688
 70
    32
  0
VERTEX
  8
T30SSILL
 62
4
 10
1131.432
 20
-3607.491
 30
2184.690
 70
    32
  0
VERTEX
  8
T30SSILL
 62
4
 10
1122.632
 20
-3597.197
 30
2184.626
 70
    32
  0
VERTEX
  8
T30SSILL
 62
4
 10
1138.438
 20
-3586.395
 30
2184.525
 70
    32
  0
VERTEX
  8
T30SSILL
 62
4
 10
1144.679
 20
-3584.956
 30
2184.507
 70
    32
  0
VERTEX
  8
T30SSILL
 62
4
 10
1183.544
 20
-3591.911
 30
2184.506
 70
    32
  0
VERTEX
  8
T30SSILL
 62
4
 10
1162.867
 20
-3606.968
 30
2184.644
 70
    32
  0
VERTEX
  8
T30SSILL
 62
4
 10
1160.560
 20
-3602.544
 30
2184.615
 70
    32
  0
SEQEND
  8
T30SSILL
  0
POLYLINE
  8
T30SSILL
 62
4
 66
     1
 70
     9
  0
VERTEX
  8
T30SSILL
 62
4
 10
1130.395
 20
-3525.725
 30
2184.090
 70
    32
  0
VERTEX
  8
T30SSILL
 62
4
 10
1123.250
 20
-3517.283
 30
2184.037
 70
    32
  0
VERTEX
  8
T30SSILL
 62
4
 10
1099.310
 20
-3534.465
 30
2184.196
 70
    32
  0
VERTEX
  8
T30SSILL
 62
4
 10
1093.845
 20
-3526.706
 30
2184.146
 70
    32
  0
VERTEX
  8
T30SSILL
 62
4
 10
1123.193
 20
-3505.707
 30
2183.952
 70
    32
  0
VERTEX
  8
T30SSILL
 62
4
 10
1165.225
 20
-3512.235
 30
2183.944
 70
    32
  0
VERTEX
  8
T30SSILL
 62
4
 10
1135.068
 20
-3533.446
 30
2184.141
 70
    32
  0
VERTEX
  8
T30SSILL
 62
4
 10
1132.790
 20
-3528.458
 30
2184.107
 70
    32
  0
SEQEND
  8
T30SSILL
  0
POLYLINE
  8
T30SSILL
 62
4
 66
     1
 70
     9
  0
VERTEX
  8
T30SSILL
 62
4
 10
1090.051
 20
-3449.281
 30
2183.582
 70
    32
  0
VERTEX
  8
T30SSILL
 62
4
 10
1096.402
 20
-3456.431
 30
2183.626
 70
    32
  0
VERTEX
  8
T30SSILL
 62
4
 10
1104.133
 20
-3469.773
 30
2183.714
 70
    32
  0
VERTEX
  8
T30SSILL
 62
4
 10
1107.533
 20
-3472.544
 30
2183.729
 70
    32
  0
VERTEX
  8
T30SSILL
 62
4
 10
1135.089
 20
-3452.549
 30
2183.880
 70
    32
  0
VERTEX
  8
T30SSILL
 62
4
 10
1134.569
 20
-3449.556
 30
2183.885
 70
    32
  0
VERTEX
  8
T30SSILL
 62
4
 10
1087.939
 20
-3441.670
 30
2183.576
 70
    32
  0
VERTEX
  8
T30SSILL
 62
4
 10
1092.390
 20
-3447.593
 30
2183.590
 70
    32
  0
SEQEND
  8
T30SSILL
  0
POLYLINE
  8
T30SSILL
 62
4
 66
     1
 70
     9
  0
VERTEX
  8
T30SSILL
 62
4
 10
1701.407
 20
-4202.651
 30
2184.559
 70
    32
  0
VERTEX
  8
T30SSILL
 62
4
 10
1706.121
 20
-4207.570
 30
2184.554
 70
    32
  0
VERTEX
  8
T30SSILL
 62
4
 10
1709.114
 20
-4214.387
 30
2184.538
 70
    32
  0
VERTEX
  8
T30SSILL
 62
4
 10
1707.534
 20
-4214.779
 30
2184.532
 70
    32
  0
VERTEX
  8
T30SSILL
 62
4
 10
1707.252
 20
-4217.701
 30
2184.521
 70
    32
  0
VERTEX
  8
T30SSILL
 62
4
 10
1703.689
 20
-4223.706
 30
2184.490
 70
    32
  0
VERTEX
  8
T30SSILL
 62
4
 10
1679.141
 20
-4213.073
 30
2184.461
 70
    32
  0
VERTEX
  8
T30SSILL
 62
4
 10
1698.047
 20
-4199.750
 30
2184.560
 70
    32
  0
VERTEX
  8
T30SSILL
 62
4
 10
1699.330
 20
-4200.758
 30
2184.560
 70
    32
  0
SEQEND
  8
T30SSILL
  0
POLYLINE
  8
T30SSILL
 62
4
 66
     1
 70
     9
  0
VERTEX
  8
T30SSILL
 62
4
 10
1961.270
 20
-2778.298
 30
2181.479
 70
    32
  0
VERTEX
  8
T30SSILL
 62
4
 10
1956.592
 20
-2784.520
 30
2181.488
 70
    32
  0
VERTEX
  8
T30SSILL
 62
4
 10
1881.532
 20
-2713.673
 30
2181.392
 70
    32
  0
VERTEX
  8
T30SSILL
 62
4
 10
1919.139
 20
-2684.600
 30
2181.392
 70
    32
  0
VERTEX
  8
T30SSILL
 62
4
 10
1949.739
 20
-2725.308
 30
2181.401
 70
    32
  0
SEQEND
  8
T30SSILL
  0
POLYLINE
  8
T30SSILL
 62
4
 66
     1
 70
     9
  0
VERTEX
  8
T30SSILL
 62
4
 10
3251.876
 20
-4270.500
 30
2182.934
 70
    32
  0
VERTEX
  8
T30SSILL
 62
4
 10
3247.222
 20
-4272.551
 30
2182.924
 70
    32
  0
VERTEX
  8
T30SSILL
 62
4
 10
3244.675
 20
-4261.345
 30
2182.924
 70
    32
  0
VERTEX
  8
T30SSILL
 62
4
 10
3248.726
 20
-4258.492
 30
2182.933
 70
    32
  0
VERTEX
  8
T30SSILL
 62
4
 10
3245.339
 20
-4253.727
 30
2182.929
 70
    32
  0
VERTEX
  8
T30SSILL
 62
4
 10
3285.900
 20
-4224.798
 30
2183.015
 70
    32
  0
VERTEX
  8
T30SSILL
 62
4
 10
3326.969
 20
-4281.773
 30
2183.067
 70
    32
  0
VERTEX
  8
T30SSILL
 62
4
 10
3286.760
 20
-4310.666
 30
2182.981
 70
    32
  0
VERTEX
  8
T30SSILL
 62
4
 10
3282.386
 20
-4311.085
 30
2182.973
 70
    32
  0
VERTEX
  8
T30SSILL
 62
4
 10
3254.275
 20
-4274.360
 30
2182.937
 70
    32
  0
SEQEND
  8
T30SSILL
  0
POLYLINE
  8
T30SSILL
 62
4
 66
     1
 70
     9
  0
VERTEX
  8
T30SSILL
 62
4
 10
3156.794
 20
-4404.055
 30
2182.851
 70
    32
  0
VERTEX
  8
T30SSILL
 62
4
 10
3152.394
 20
-4405.200
 30
2182.846
 70
    32
  0
VERTEX
  8
T30SSILL
 62
4
 10
3144.035
 20
-4404.234
 30
2182.834
 70
    32
  0
VERTEX
  8
T30SSILL
 62
4
 10
3128.458
 20
-4396.053
 30
2182.809
 70
    32
  0
VERTEX
  8
T30SSILL
 62
4
 10
3123.090
 20
-4394.998
 30
2182.802
 70
    32
  0
VERTEX
  8
T30SSILL
 62
4
 10
3116.841
 20
-4390.687
 30
2182.791
 70
    32
  0
VERTEX
  8
T30SSILL
 62
4
 10
3106.194
 20
-4394.297
 30
2182.779
 70
    32
  0
VERTEX
  8
T30SSILL
 62
4
 10
3095.368
 20
-4383.123
 30
2182.759
 70
    32
  0
VERTEX
  8
T30SSILL
 62
4
 10
3093.784
 20
-4382.771
 30
2182.756
 70
    32
  0
VERTEX
  8
T30SSILL
 62
4
 10
3083.198
 20
-4390.091
 30
2182.746
 70
    32
  0
VERTEX
  8
T30SSILL
 62
4
 10
3080.641
 20
-4386.436
 30
2182.741
 70
    32
  0
VERTEX
  8
T30SSILL
 62
4
 10
3085.615
 20
-4383.079
 30
2182.746
 70
    32
  0
VERTEX
  8
T30SSILL
 62
4
 10
3078.412
 20
-4372.781
 30
2182.731
 70
    32
  0
VERTEX
  8
T30SSILL
 62
4
 10
3087.993
 20
-4365.948
 30
2182.740
 70
    32
  0
VERTEX
  8
T30SSILL
 62
4
 10
3095.129
 20
-4376.064
 30
2182.755
 70
    32
  0
VERTEX
  8
T30SSILL
 62
4
 10
3100.050
 20
-4372.631
 30
2182.759
 70
    32
  0
VERTEX
  8
T30SSILL
 62
4
 10
3096.825
 20
-4368.060
 30
2182.753
 70
    32
  0
VERTEX
  8
T30SSILL
 62
4
 10
3106.664
 20
-4360.986
 30
2182.762
 70
    32
  0
VERTEX
  8
T30SSILL
 62
4
 10
3102.648
 20
-4355.496
 30
2182.754
 70
    32
  0
VERTEX
  8
T30SSILL
 62
4
 10
3237.355
 20
-4259.421
 30
2182.912
 70
    32
  0
VERTEX
  8
T30SSILL
 62
4
 10
3241.793
 20
-4277.687
 30
2182.912
 70
    32
  0
VERTEX
  8
T30SSILL
 62
4
 10
3239.953
 20
-4279.194
 30
2182.908
 70
    32
  0
VERTEX
  8
T30SSILL
 62
4
 10
3242.973
 20
-4284.018
 30
2182.912
 70
    32
  0
VERTEX
  8
T30SSILL
 62
4
 10
3253.074
 20
-4311.250
 30
2182.929
 70
    32
  0
VERTEX
  8
T30SSILL
 62
4
 10
3252.064
 20
-4319.443
 30
2182.932
 70
    32
  0
VERTEX
  8
T30SSILL
 62
4
 10
3257.938
 20
-4331.376
 30
2182.946
 70
    32
  0
VERTEX
  8
T30SSILL
 62
4
 10
3252.849
 20
-4335.033
 30
2182.942
 70
    32
  0
VERTEX
  8
T30SSILL
 62
4
 10
3247.770
 20
-4330.914
 30
2182.933
 70
    32
  0
VERTEX
  8
T30SSILL
 62
4
 10
3235.448
 20
-4313.229
 30
2182.907
 70
    32
  0
VERTEX
  8
T30SSILL
 62
4
 10
3233.949
 20
-4300.909
 30
2182.899
 70
    32
  0
VERTEX
  8
T30SSILL
 62
4
 10
3226.995
 20
-4287.975
 30
2182.882
 70
    32
  0
VERTEX
  8
T30SSILL
 62
4
 10
3223.387
 20
-4286.568
 30
2182.877
 70
    32
  0
VERTEX
  8
T30SSILL
 62
4
 10
3216.876
 20
-4288.857
 30
2182.870
 70
    32
  0
VERTEX
  8
T30SSILL
 62
4
 10
3210.541
 20
-4295.281
 30
2182.865
 70
    32
  0
VERTEX
  8
T30SSILL
 62
4
 10
3209.927
 20
-4302.585
 30
2182.868
 70
    32
  0
VERTEX
  8
T30SSILL
 62
4
 10
3218.376
 20
-4314.024
 30
2182.885
 70
    32
  0
VERTEX
  8
T30SSILL
 62
4
 10
3228.760
 20
-4315.694
 30
2182.900
 70
    32
  0
VERTEX
  8
T30SSILL
 62
4
 10
3245.373
 20
-4340.405
 30
2182.935
 70
    32
  0
VERTEX
  8
T30SSILL
 62
4
 10
3232.497
 20
-4349.657
 30
2182.922
 70
    32
  0
VERTEX
  8
T30SSILL
 62
4
 10
3224.188
 20
-4337.518
 30
2182.905
 70
    32
  0
VERTEX
  8
T30SSILL
 62
4
 10
3217.941
 20
-4341.567
 30
2182.899
 70
    32
  0
VERTEX
  8
T30SSILL
 62
4
 10
3226.728
 20
-4353.803
 30
2182.917
 70
    32
  0
SEQEND
  8
T30SSILL
  0
POLYLINE
  8
T30SSILL
 62
4
 66
     1
 70
     9
  0
VERTEX
  8
T30SSILL
 62
4
 10
3289.662
 20
-4357.834
 30
2183.003
 70
    32
  0
VERTEX
  8
T30SSILL
 62
4
 10
3291.069
 20
-4355.017
 30
2183.003
 70
    32
  0
VERTEX
  8
T30SSILL
 62
4
 10
3287.939
 20
-4319.130
 30
2182.980
 70
    32
  0
VERTEX
  8
T30SSILL
 62
4
 10
3331.295
 20
-4287.776
 30
2183.073
 70
    32
  0
VERTEX
  8
T30SSILL
 62
4
 10
3370.154
 20
-4341.685
 30
2183.122
 70
    32
  0
VERTEX
  8
T30SSILL
 62
4
 10
3325.702
 20
-4373.853
 30
2183.059
 70
    32
  0
VERTEX
  8
T30SSILL
 62
4
 10
3322.311
 20
-4371.819
 30
2183.053
 70
    32
  0
VERTEX
  8
T30SSILL
 62
4
 10
3313.248
 20
-4374.901
 30
2183.043
 70
    32
  0
VERTEX
  8
T30SSILL
 62
4
 10
3312.105
 20
-4381.941
 30
2183.045
 70
    32
  0
VERTEX
  8
T30SSILL
 62
4
 10
3310.610
 20
-4384.493
 30
2183.044
 70
    32
  0
VERTEX
  8
T30SSILL
 62
4
 10
3307.178
 20
-4384.582
 30
2183.040
 70
    32
  0
VERTEX
  8
T30SSILL
 62
4
 10
3302.777
 20
-4379.127
 30
2183.031
 70
    32
  0
VERTEX
  8
T30SSILL
 62
4
 10
3298.463
 20
-4368.832
 30
2183.020
 70
    32
  0
VERTEX
  8
T30SSILL
 62
4
 10
3292.830
 20
-4362.761
 30
2183.009
 70
    32
  0
VERTEX
  8
T30SSILL
 62
4
 10
3290.103
 20
-4362.761
 30
2183.006
 70
    32
  0
VERTEX
  8
T30SSILL
 62
4
 10
3285.967
 20
-4365.138
 30
2183.002
 70
    32
  0
VERTEX
  8
T30SSILL
 62
4
 10
3285.352
 20
-4367.778
 30
2183.002
 70
    32
  0
VERTEX
  8
T30SSILL
 62
4
 10
3282.536
 20
-4370.682
 30
2183.000
 70
    32
  0
VERTEX
  8
T30SSILL
 62
4
 10
3279.368
 20
-4371.651
 30
2182.996
 70
    32
  0
VERTEX
  8
T30SSILL
 62
4
 10
3278.049
 20
-4374.467
 30
2182.996
 70
    32
  0
VERTEX
  8
T30SSILL
 62
4
 10
3290.371
 20
-4390.040
 30
2183.021
 70
    32
  0
VERTEX
  8
T30SSILL
 62
4
 10
3292.419
 20
-4397.938
 30
2183.027
 70
    32
  0
VERTEX
  8
T30SSILL
 62
4
 10
3212.002
 20
-4456.112
 30
2182.952
 70
    32
  0
VERTEX
  8
T30SSILL
 62
4
 10
3202.810
 20
-4453.233
 30
2182.938
 70
    32
  0
VERTEX
  8
T30SSILL
 62
4
 10
3189.209
 20
-4442.930
 30
2182.915
 70
    32
  0
VERTEX
  8
T30SSILL
 62
4
 10
3185.008
 20
-4445.630
 30
2182.911
 70
    32
  0
VERTEX
  8
T30SSILL
 62
4
 10
3170.492
 20
-4425.121
 30
2182.880
 70
    32
  0
VERTEX
  8
T30SSILL
 62
4
 10
3150.945
 20
-4439.048
 30
2182.862
 70
    32
  0
VERTEX
  8
T30SSILL
 62
4
 10
3144.012
 20
-4429.253
 30
2182.848
 70
    32
  0
VERTEX
  8
T30SSILL
 62
4
 10
3134.239
 20
-4436.216
 30
2182.838
 70
    32
  0
VERTEX
  8
T30SSILL
 62
4
 10
3137.706
 20
-4441.114
 30
2182.845
 70
    32
  0
VERTEX
  8
T30SSILL
 62
4
 10
3132.819
 20
-4444.595
 30
2182.841
 70
    32
  0
VERTEX
  8
T30SSILL
 62
4
 10
3136.285
 20
-4449.492
 30
2182.848
 70
    32
  0
VERTEX
  8
T30SSILL
 62
4
 10
3121.392
 20
-4460.104
 30
2182.834
 70
    32
  0
VERTEX
  8
T30SSILL
 62
4
 10
3111.673
 20
-4446.604
 30
2182.814
 70
    32
  0
VERTEX
  8
T30SSILL
 62
4
 10
3274.357
 20
-4328.953
 30
2182.967
 70
    32
  0
VERTEX
  8
T30SSILL
 62
4
 10
3275.226
 20
-4333.197
 30
2182.970
 70
    32
  0
VERTEX
  8
T30SSILL
 62
4
 10
3269.243
 20
-4338.654
 30
2182.965
 70
    32
  0
VERTEX
  8
T30SSILL
 62
4
 10
3281.215
 20
-4362.763
 30
2182.994
 70
    32
  0
VERTEX
  8
T30SSILL
 62
4
 10
3284.999
 20
-4361.706
 30
2182.998
 70
    32
  0
VERTEX
  8
T30SSILL
 62
4
 10
3288.430
 20
-4358.626
 30
2183.001
 70
    32
  0
SEQEND
  8
T30SSILL
  0
POLYLINE
  8
T30SSILL
 62
4
 66
     1
 70
     9
  0
VERTEX
  8
T30SSILL
 62
4
 10
3213.428
 20
-4196.548
 30
2182.893
 70
    32
  0
VERTEX
  8
T30SSILL
 62
4
 10
3206.563
 20
-4188.542
 30
2182.884
 70
    32
  0
VERTEX
  8
T30SSILL
 62
4
 10
3206.668
 20
-4185.991
 30
2182.885
 70
    32
  0
VERTEX
  8
T30SSILL
 62
4
 10
3240.511
 20
-4161.828
 30
2182.957
 70
    32
  0
VERTEX
  8
T30SSILL
 62
4
 10
3281.465
 20
-4218.644
 30
2183.009
 70
    32
  0
VERTEX
  8
T30SSILL
 62
4
 10
3164.944
 20
-4302.046
 30
2182.808
 70
    32
  0
VERTEX
  8
T30SSILL
 62
4
 10
3161.439
 20
-4295.642
 30
2182.800
 70
    32
  0
VERTEX
  8
T30SSILL
 62
4
 10
3170.413
 20
-4284.641
 30
2182.806
 70
    32
  0
VERTEX
  8
T30SSILL
 62
4
 10
3171.116
 20
-4280.945
 30
2182.805
 70
    32
  0
VERTEX
  8
T30SSILL
 62
4
 10
3166.627
 20
-4272.586
 30
2182.794
 70
    32
  0
VERTEX
  8
T30SSILL
 62
4
 10
3163.986
 20
-4271.090
 30
2182.790
 70
    32
  0
VERTEX
  8
T30SSILL
 62
4
 10
3151.667
 20
-4269.245
 30
2182.773
 70
    32
  0
VERTEX
  8
T30SSILL
 62
4
 10
3149.114
 20
-4267.749
 30
2182.769
 70
    32
  0
VERTEX
  8
T30SSILL
 62
4
 10
3139.698
 20
-4266.695
 30
2182.756
 70
    32
  0
VERTEX
  8
T30SSILL
 62
4
 10
3138.642
 20
-4265.111
 30
2182.753
 70
    32
  0
VERTEX
  8
T30SSILL
 62
4
 10
3136.705
 20
-4259.304
 30
2182.748
 70
    32
  0
VERTEX
  8
T30SSILL
 62
4
 10
3130.280
 20
-4250.945
 30
2182.735
 70
    32
  0
VERTEX
  8
T30SSILL
 62
4
 10
3129.492
 20
-4241.093
 30
2182.728
 70
    32
  0
VERTEX
  8
T30SSILL
 62
4
 10
3153.598
 20
-4223.882
 30
2182.772
 70
    32
  0
VERTEX
  8
T30SSILL
 62
4
 10
3156.235
 20
-4226.125
 30
2182.776
 70
    32
  0
VERTEX
  8
T30SSILL
 62
4
 10
3155.796
 20
-4232.725
 30
2182.773
 70
    32
  0
VERTEX
  8
T30SSILL
 62
4
 10
3153.245
 20
-4237.477
 30
2182.766
 70
    32
  0
VERTEX
  8
T30SSILL
 62
4
 10
3156.856
 20
-4254.548
 30
2182.772
 70
    32
  0
VERTEX
  8
T30SSILL
 62
4
 10
3162.225
 20
-4260.531
 30
2182.782
 70
    32
  0
VERTEX
  8
T30SSILL
 62
4
 10
3166.626
 20
-4268.626
 30
2182.792
 70
    32
  0
VERTEX
  8
T30SSILL
 62
4
 10
3179.034
 20
-4270.736
 30
2182.810
 70
    32
  0
VERTEX
  8
T30SSILL
 62
4
 10
3232.617
 20
-4231.832
 30
2182.914
 70
    32
  0
VERTEX
  8
T30SSILL
 62
4
 10
3233.408
 20
-4226.024
 30
2182.918
 70
    32
  0
VERTEX
  8
T30SSILL
 62
4
 10
3227.247
 20
-4219.249
 30
2182.909
 70
    32
  0
SEQEND
  8
T30SSILL
  0
POLYLINE
  8
T30SSILL
 62
4
 66
     1
 70
     9
  0
VERTEX
  8
T30SSILL
 62
4
 10
3215.996
 20
-4516.501
 30
2182.985
 70
    32
  0
VERTEX
  8
T30SSILL
 62
4
 10
3306.392
 20
-4451.387
 30
2183.074
 70
    32
  0
VERTEX
  8
T30SSILL
 62
4
 10
3299.762
 20
-4442.316
 30
2183.061
 70
    32
  0
VERTEX
  8
T30SSILL
 62
4
 10
3309.708
 20
-4435.589
 30
2183.070
 70
    32
  0
VERTEX
  8
T30SSILL
 62
4
 10
3306.165
 20
-4430.742
 30
2183.063
 70
    32
  0
VERTEX
  8
T30SSILL
 62
4
 10
3312.160
 20
-4426.688
 30
2183.069
 70
    32
  0
VERTEX
  8
T30SSILL
 62
4
 10
3321.724
 20
-4440.346
 30
2183.089
 70
    32
  0
VERTEX
  8
T30SSILL
 62
4
 10
3400.421
 20
-4383.676
 30
2183.163
 70
    32
  0
VERTEX
  8
T30SSILL
 62
4
 10
3374.700
 20
-4347.992
 30
2183.128
 70
    32
  0
VERTEX
  8
T30SSILL
 62
4
 10
3331.233
 20
-4379.219
 30
2183.069
 70
    32
  0
VERTEX
  8
T30SSILL
 62
4
 10
3330.849
 20
-4384.225
 30
2183.071
 70
    32
  0
VERTEX
  8
T30SSILL
 62
4
 10
3335.867
 20
-4394.608
 30
2183.083
 70
    32
  0
VERTEX
  8
T30SSILL
 62
4
 10
3335.339
 20
-4396.808
 30
2183.084
 70
    32
  0
VERTEX
  8
T30SSILL
 62
4
 10
3326.716
 20
-4400.418
 30
2183.074
 70
    32
  0
VERTEX
  8
T30SSILL
 62
4
 10
3320.468
 20
-4401.211
 30
2183.066
 70
    32
  0
VERTEX
  8
T30SSILL
 62
4
 10
3317.039
 20
-4415.731
 30
2183.070
 70
    32
  0
VERTEX
  8
T30SSILL
 62
4
 10
3309.649
 20
-4425.148
 30
2183.065
 70
    32
  0
VERTEX
  8
T30SSILL
 62
4
 10
3305.161
 20
-4425.853
 30
2183.059
 70
    32
  0
VERTEX
  8
T30SSILL
 62
4
 10
3303.137
 20
-4423.829
 30
2183.055
 70
    32
  0
VERTEX
  8
T30SSILL
 62
4
 10
3297.854
 20
-4404.911
 30
2183.038
 70
    32
  0
VERTEX
  8
T30SSILL
 62
4
 10
3295.892
 20
-4404.609
 30
2183.036
 70
    32
  0
VERTEX
  8
T30SSILL
 62
4
 10
3214.057
 20
-4463.382
 30
2182.958
 70
    32
  0
VERTEX
  8
T30SSILL
 62
4
 10
3213.996
 20
-4469.692
 30
2182.962
 70
    32
  0
VERTEX
  8
T30SSILL
 62
4
 10
3217.744
 20
-4476.853
 30
2182.970
 70
    32
  0
VERTEX
  8
T30SSILL
 62
4
 10
3217.787
 20
-4484.697
 30
2182.975
 70
    32
  0
VERTEX
  8
T30SSILL
 62
4
 10
3217.156
 20
-4487.161
 30
2182.975
 70
    32
  0
VERTEX
  8
T30SSILL
 62
4
 10
3214.852
 20
-4489.175
 30
2182.973
 70
    32
  0
VERTEX
  8
T30SSILL
 62
4
 10
3213.739
 20
-4498.687
 30
2182.977
 70
    32
  0
VERTEX
  8
T30SSILL
 62
4
 10
3206.660
 20
-4503.741
 30
2182.970
 70
    32
  0
SEQEND
  8
T30SSILL
  0
POLYLINE
  8
T30SSILL
 62
4
 66
     1
 70
     9
  0
VERTEX
  8
T30SSILL
 62
4
 10
3212.120
 20
-4550.419
 30
2182.973
 70
    32
  0
VERTEX
  8
T30SSILL
 62
4
 10
3182.534
 20
-4572.254
 30
2182.944
 70
    32
  0
VERTEX
  8
T30SSILL
 62
4
 10
3178.751
 20
-4567.547
 30
2182.942
 70
    32
  0
VERTEX
  8
T30SSILL
 62
4
 10
3188.516
 20
-4560.571
 30
2182.952
 70
    32
  0
VERTEX
  8
T30SSILL
 62
4
 10
3181.307
 20
-4550.661
 30
2182.948
 70
    32
  0
VERTEX
  8
T30SSILL
 62
4
 10
3186.171
 20
-4547.147
 30
2182.953
 70
    32
  0
VERTEX
  8
T30SSILL
 62
4
 10
3189.869
 20
-4552.231
 30
2182.955
 70
    32
  0
VERTEX
  8
T30SSILL
 62
4
 10
3199.633
 20
-4545.255
 30
2182.964
 70
    32
  0
VERTEX
  8
T30SSILL
 62
4
 10
3203.163
 20
-4550.107
 30
2182.966
 70
    32
  0
VERTEX
  8
T30SSILL
 62
4
 10
3208.045
 20
-4546.619
 30
2182.971
 70
    32
  0
VERTEX
  8
T30SSILL
 62
4
 10
3200.761
 20
-4536.606
 30
2182.968
 70
    32
  0
VERTEX
  8
T30SSILL
 62
4
 10
3404.504
 20
-4389.756
 30
2183.167
 70
    32
  0
VERTEX
  8
T30SSILL
 62
4
 10
3429.325
 20
-4424.775
 30
2183.159
 70
    32
  0
VERTEX
  8
T30SSILL
 62
4
 10
3239.011
 20
-4562.066
 30
2182.992
 70
    32
  0
VERTEX
  8
T30SSILL
 62
4
 10
3231.454
 20
-4558.332
 30
2182.987
 70
    32
  0
VERTEX
  8
T30SSILL
 62
4
 10
3222.502
 20
-4551.605
 30
2182.981
 70
    32
  0
VERTEX
  8
T30SSILL
 62
4
 10
3217.746
 20
-4552.290
 30
2182.977
 70
    32
  0
SEQEND
  8
T30SSILL
  0
POLYLINE
  8
T30SSILL
 62
4
 66
     1
 70
     9
  0
VERTEX
  8
T30SSILL
 62
4
 10
2133.821
 20
-4563.090
 30
2182.943
 70
    32
  0
VERTEX
  8
T30SSILL
 62
4
 10
2121.535
 20
-4570.902
 30
2182.947
 70
    32
  0
VERTEX
  8
T30SSILL
 62
4
 10
2121.899
 20
-4604.541
 30
2182.832
 70
    32
  0
VERTEX
  8
T30SSILL
 62
4
 10
2164.003
 20
-4605.092
 30
2182.783
 70
    32
  0
VERTEX
  8
T30SSILL
 62
4
 10
2137.780
 20
-4568.598
 30
2182.914
 70
    32
  0
SEQEND
  8
T30SSILL
  0
POLYLINE
  8
T30SSILL
 62
4
 66
     1
 70
     9
  0
VERTEX
  8
T30SSILL
 62
4
 10
3042.224
 20
-4418.419
 30
2182.707
 70
    32
  0
VERTEX
  8
T30SSILL
 62
4
 10
3073.327
 20
-4396.915
 30
2182.737
 70
    32
  0
VERTEX
  8
T30SSILL
 62
4
 10
3063.757
 20
-4383.234
 30
2182.717
 70
    32
  0
VERTEX
  8
T30SSILL
 62
4
 10
2999.872
 20
-4428.797
 30
2182.677
 70
    32
  0
VERTEX
  8
T30SSILL
 62
4
 10
3014.164
 20
-4505.524
 30
2182.744
 70
    32
  0
VERTEX
  8
T30SSILL
 62
4
 10
3072.941
 20
-4464.908
 30
2182.772
 70
    32
  0
VERTEX
  8
T30SSILL
 62
4
 10
3042.137
 20
-4421.587
 30
2182.708
 70
    32
  0
SEQEND
  8
T30SSILL
  0
POLYLINE
  8
T30SSILL
 62
4
 66
     1
 70
     9
  0
VERTEX
  8
T30SSILL
 62
4
 10
3089.738
 20
-4512.597
 30
2182.820
 70
    32
  0
VERTEX
  8
T30SSILL
 62
4
 10
3096.734
 20
-4508.007
 30
2182.827
 70
    32
  0
VERTEX
  8
T30SSILL
 62
4
 10
3093.228
 20
-4503.137
 30
2182.819
 70
    32
  0
VERTEX
  8
T30SSILL
 62
4
 10
3098.129
 20
-4499.675
 30
2182.824
 70
    32
  0
VERTEX
  8
T30SSILL
 62
4
 10
3091.117
 20
-4489.936
 30
2182.810
 70
    32
  0
VERTEX
  8
T30SSILL
 62
4
 10
3079.409
 20
-4498.209
 30
2182.799
 70
    32
  0
VERTEX
  8
T30SSILL
 62
4
 10
3045.270
 20
-4492.590
 30
2182.750
 70
    32
  0
VERTEX
  8
T30SSILL
 62
4
 10
3015.557
 20
-4513.022
 30
2182.750
 70
    32
  0
VERTEX
  8
T30SSILL
 62
4
 10
3026.728
 20
-4573.172
 30
2182.802
 70
    32
  0
VERTEX
  8
T30SSILL
 62
4
 10
3034.577
 20
-4584.215
 30
2182.808
 70
    32
  0
VERTEX
  8
T30SSILL
 62
4
 10
3099.526
 20
-4537.321
 30
2182.846
 70
    32
  0
SEQEND
  8
T30SSILL
  0
POLYLINE
  8
T30SSILL
 62
4
 66
     1
 70
     9
  0
VERTEX
  8
T30SSILL
 62
4
 10
3156.623
 20
-4514.484
 30
2182.909
 70
    32
  0
VERTEX
  8
T30SSILL
 62
4
 10
3153.698
 20
-4517.288
 30
2182.907
 70
    32
  0
VERTEX
  8
T30SSILL
 62
4
 10
3153.638
 20
-4527.599
 30
2182.912
 70
    32
  0
VERTEX
  8
T30SSILL
 62
4
 10
3158.254
 20
-4537.145
 30
2182.924
 70
    32
  0
VERTEX
  8
T30SSILL
 62
4
 10
3147.518
 20
-4545.008
 30
2182.914
 70
    32
  0
VERTEX
  8
T30SSILL
 62
4
 10
3151.048
 20
-4549.861
 30
2182.921
 70
    32
  0
VERTEX
  8
T30SSILL
 62
4
 10
3175.655
 20
-4532.691
 30
2182.944
 70
    32
  0
VERTEX
  8
T30SSILL
 62
4
 10
3172.125
 20
-4527.838
 30
2182.937
 70
    32
  0
VERTEX
  8
T30SSILL
 62
4
 10
3191.894
 20
-4514.044
 30
2182.956
 70
    32
  0
VERTEX
  8
T30SSILL
 62
4
 10
3189.780
 20
-4511.416
 30
2182.952
 70
    32
  0
VERTEX
  8
T30SSILL
 62
4
 10
3186.933
 20
-4500.823
 30
2182.942
 70
    32
  0
VERTEX
  8
T30SSILL
 62
4
 10
3184.142
 20
-4495.783
 30
2182.936
 70
    32
  0
VERTEX
  8
T30SSILL
 62
4
 10
3182.041
 20
-4493.303
 30
2182.932
 70
    32
  0
VERTEX
  8
T30SSILL
 62
4
 10
3174.510
 20
-4491.762
 30
2182.921
 70
    32
  0
VERTEX
  8
T30SSILL
 62
4
 10
3157.380
 20
-4504.056
 30
2182.905
 70
    32
  0
VERTEX
  8
T30SSILL
 62
4
 10
3156.553
 20
-4511.311
 30
2182.908
 70
    32
  0
SEQEND
  8
T30SSILL
  0
POLYLINE
  8
T30SSILL
 62
4
 66
     1
 70
     9
  0
VERTEX
  8
T30SSILL
 62
4
 10
3133.075
 20
-4558.886
 30
2182.902
 70
    32
  0
VERTEX
  8
T30SSILL
 62
4
 10
3136.566
 20
-4563.766
 30
2182.909
 70
    32
  0
VERTEX
  8
T30SSILL
 62
4
 10
3141.470
 20
-4560.309
 30
2182.914
 70
    32
  0
VERTEX
  8
T30SSILL
 62
4
 10
3146.131
 20
-4566.825
 30
2182.916
 70
    32
  0
VERTEX
  8
T30SSILL
 62
4
 10
3152.586
 20
-4562.176
 30
2182.922
 70
    32
  0
VERTEX
  8
T30SSILL
 62
4
 10
3142.596
 20
-4548.442
 30
2182.909
 70
    32
  0
VERTEX
  8
T30SSILL
 62
4
 10
3115.859
 20
-4567.570
 30
2182.884
 70
    32
  0
VERTEX
  8
T30SSILL
 62
4
 10
3103.644
 20
-4546.346
 30
2182.856
 70
    32
  0
VERTEX
  8
T30SSILL
 62
4
 10
3101.137
 20
-4544.418
 30
2182.852
 70
    32
  0
VERTEX
  8
T30SSILL
 62
4
 10
3038.328
 20
-4589.493
 30
2182.811
 70
    32
  0
VERTEX
  8
T30SSILL
 62
4
 10
3064.175
 20
-4625.859
 30
2182.836
 70
    32
  0
VERTEX
  8
T30SSILL
 62
4
 10
3121.789
 20
-4584.359
 30
2182.892
 70
    32
  0
VERTEX
  8
T30SSILL
 62
4
 10
3113.460
 20
-4572.716
 30
2182.883
 70
    32
  0
SEQEND
  8
T30SSILL
  0
POLYLINE
  8
T30SSILL
 62
4
 66
     1
 70
     9
  0
VERTEX
  8
T30SSILL
 62
4
 10
3172.582
 20
-4579.466
 30
2182.934
 70
    32
  0
VERTEX
  8
T30SSILL
 62
4
 10
3161.853
 20
-4564.716
 30
2182.929
 70
    32
  0
VERTEX
  8
T30SSILL
 62
4
 10
3068.602
 20
-4632.089
 30
2182.838
 70
    32
  0
VERTEX
  8
T30SSILL
 62
4
 10
3093.276
 20
-4666.806
 30
2182.849
 70
    32
  0
VERTEX
  8
T30SSILL
 62
4
 10
3156.072
 20
-4621.674
 30
2182.911
 70
    32
  0
VERTEX
  8
T30SSILL
 62
4
 10
3153.046
 20
-4617.345
 30
2182.909
 70
    32
  0
VERTEX
  8
T30SSILL
 62
4
 10
3150.092
 20
-4607.826
 30
2182.909
 70
    32
  0
VERTEX
  8
T30SSILL
 62
4
 10
3143.002
 20
-4597.850
 30
2182.906
 70
    32
  0
VERTEX
  8
T30SSILL
 62
4
 10
3150.772
 20
-4591.896
 30
2182.914
 70
    32
  0
VERTEX
  8
T30SSILL
 62
4
 10
3162.169
 20
-4603.386
 30
2182.920
 70
    32
  0
VERTEX
  8
T30SSILL
 62
4
 10
3165.164
 20
-4602.870
 30
2182.923
 70
    32
  0
VERTEX
  8
T30SSILL
 62
4
 10
3169.377
 20
-4606.144
 30
2182.925
 70
    32
  0
VERTEX
  8
T30SSILL
 62
4
 10
3175.433
 20
-4607.759
 30
2182.930
 70
    32
  0
VERTEX
  8
T30SSILL
 62
4
 10
3185.131
 20
-4600.832
 30
2182.939
 70
    32
  0
VERTEX
  8
T30SSILL
 62
4
 10
3182.816
 20
-4596.794
 30
2182.938
 70
    32
  0
VERTEX
  8
T30SSILL
 62
4
 10
3183.954
 20
-4592.998
 30
2182.940
 70
    32
  0
VERTEX
  8
T30SSILL
 62
4
 10
3181.589
 20
-4590.172
 30
2182.939
 70
    32
  0
VERTEX
  8
T30SSILL
 62
4
 10
3181.172
 20
-4584.448
 30
2182.940
 70
    32
  0
VERTEX
  8
T30SSILL
 62
4
 10
3177.244
 20
-4576.158
 30
2182.939
 70
    32
  0
SEQEND
  8
T30SSILL
  0
POLYLINE
  8
T30SSILL
 62
4
 66
     1
 70
     9
  0
VERTEX
  8
T30SSILL
 62
4
 10
3188.865
 20
-4715.628
 30
2182.914
 70
    32
  0
VERTEX
  8
T30SSILL
 62
4
 10
3176.464
 20
-4713.830
 30
2182.904
 70
    32
  0
VERTEX
  8
T30SSILL
 62
4
 10
3166.863
 20
-4717.056
 30
2182.896
 70
    32
  0
VERTEX
  8
T30SSILL
 62
4
 10
3160.092
 20
-4715.979
 30
2182.890
 70
    32
  0
VERTEX
  8
T30SSILL
 62
4
 10
3149.913
 20
-4706.797
 30
2182.885
 70
    32
  0
VERTEX
  8
T30SSILL
 62
4
 10
3145.884
 20
-4706.232
 30
2182.881
 70
    32
  0
VERTEX
  8
T30SSILL
 62
4
 10
3129.602
 20
-4718.070
 30
2182.865
 70
    32
  0
VERTEX
  8
T30SSILL
 62
4
 10
3151.453
 20
-4749.565
 30
2182.875
 70
    32
  0
VERTEX
  8
T30SSILL
 62
4
 10
3191.400
 20
-4721.091
 30
2182.914
 70
    32
  0
VERTEX
  8
T30SSILL
 62
4
 10
3190.706
 20
-4717.921
 30
2182.915
 70
    32
  0
SEQEND
  8
T30SSILL
  0
POLYLINE
  8
T30SSILL
 62
4
 66
     1
 70
     9
  0
VERTEX
  8
T30SSILL
 62
4
 10
3238.164
 20
-4596.915
 30
2182.983
 70
    32
  0
VERTEX
  8
T30SSILL
 62
4
 10
3242.696
 20
-4608.025
 30
2182.984
 70
    32
  0
VERTEX
  8
T30SSILL
 62
4
 10
3234.644
 20
-4618.292
 30
2182.975
 70
    32
  0
VERTEX
  8
T30SSILL
 62
4
 10
3239.414
 20
-4625.916
 30
2182.977
 70
    32
  0
VERTEX
  8
T30SSILL
 62
4
 10
3236.983
 20
-4627.632
 30
2182.974
 70
    32
  0
VERTEX
  8
T30SSILL
 62
4
 10
3229.504
 20
-4626.898
 30
2182.968
 70
    32
  0
VERTEX
  8
T30SSILL
 62
4
 10
3209.486
 20
-4613.964
 30
2182.955
 70
    32
  0
VERTEX
  8
T30SSILL
 62
4
 10
3191.010
 20
-4611.337
 30
2182.941
 70
    32
  0
VERTEX
  8
T30SSILL
 62
4
 10
3184.389
 20
-4616.152
 30
2182.935
 70
    32
  0
VERTEX
  8
T30SSILL
 62
4
 10
3181.784
 20
-4612.404
 30
2182.934
 70
    32
  0
VERTEX
  8
T30SSILL
 62
4
 10
3194.691
 20
-4603.148
 30
2182.946
 70
    32
  0
VERTEX
  8
T30SSILL
 62
4
 10
3212.149
 20
-4608.341
 30
2182.959
 70
    32
  0
VERTEX
  8
T30SSILL
 62
4
 10
3225.330
 20
-4614.117
 30
2182.968
 70
    32
  0
VERTEX
  8
T30SSILL
 62
4
 10
3231.419
 20
-4610.532
 30
2182.974
 70
    32
  0
VERTEX
  8
T30SSILL
 62
4
 10
3227.602
 20
-4596.432
 30
2182.974
 70
    32
  0
VERTEX
  8
T30SSILL
 62
4
 10
3228.055
 20
-4593.441
 30
2182.975
 70
    32
  0
VERTEX
  8
T30SSILL
 62
4
 10
3232.730
 20
-4591.083
 30
2182.980
 70
    32
  0
VERTEX
  8
T30SSILL
 62
4
 10
3235.362
 20
-4593.119
 30
2182.981
 70
    32
  0
SEQEND
  8
T30SSILL
  0
POLYLINE
  8
T30SSILL
 62
4
 66
     1
 70
     9
  0
VERTEX
  8
T30SSILL
 62
4
 10
3129.233
 20
-4183.681
 30
2182.744
 70
    32
  0
VERTEX
  8
T30SSILL
 62
4
 10
3127.586
 20
-4171.494
 30
2182.746
 70
    32
  0
VERTEX
  8
T30SSILL
 62
4
 10
3129.001
 20
-4165.328
 30
2182.751
 70
    32
  0
VERTEX
  8
T30SSILL
 62
4
 10
3130.994
 20
-4163.195
 30
2182.755
 70
    32
  0
VERTEX
  8
T30SSILL
 62
4
 10
3133.799
 20
-4162.720
 30
2182.761
 70
    32
  0
VERTEX
  8
T30SSILL
 62
4
 10
3137.678
 20
-4163.901
 30
2182.767
 70
    32
  0
VERTEX
  8
T30SSILL
 62
4
 10
3145.461
 20
-4168.194
 30
2182.780
 70
    32
  0
VERTEX
  8
T30SSILL
 62
4
 10
3152.356
 20
-4164.769
 30
2182.794
 70
    32
  0
VERTEX
  8
T30SSILL
 62
4
 10
3153.970
 20
-4170.769
 30
2182.795
 70
    32
  0
VERTEX
  8
T30SSILL
 62
4
 10
3144.124
 20
-4177.629
 30
2182.774
 70
    32
  0
VERTEX
  8
T30SSILL
 62
4
 10
3150.176
 20
-4186.116
 30
2182.781
 70
    32
  0
VERTEX
  8
T30SSILL
 62
4
 10
3140.885
 20
-4192.721
 30
2182.762
 70
    32
  0
VERTEX
  8
T30SSILL
 62
4
 10
3136.641
 20
-4191.220
 30
2182.754
 70
    32
  0
VERTEX
  8
T30SSILL
 62
4
 10
3133.825
 20
-4191.500
 30
2182.749
 70
    32
  0
VERTEX
  8
T30SSILL
 62
4
 10
3115.732
 20
-4198.732
 30
2182.713
 70
    32
  0
VERTEX
  8
T30SSILL
 62
4
 10
3104.463
 20
-4198.355
 30
2182.692
 70
    32
  0
VERTEX
  8
T30SSILL
 62
4
 10
3102.589
 20
-4193.964
 30
2182.691
 70
    32
  0
VERTEX
  8
T30SSILL
 62
4
 10
3100.651
 20
-4193.711
 30
2182.687
 70
    32
  0
VERTEX
  8
T30SSILL
 62
4
 10
3077.932
 20
-4208.012
 30
2182.643
 70
    32
  0
VERTEX
  8
T30SSILL
 62
4
 10
3073.299
 20
-4213.760
 30
2182.639
 70
    32
  0
VERTEX
  8
T30SSILL
 62
4
 10
3083.686
 20
-4229.194
 30
2182.661
 70
    32
  0
VERTEX
  8
T30SSILL
 62
4
 10
3079.051
 20
-4234.590
 30
2182.658
 70
    32
  0
VERTEX
  8
T30SSILL
 62
4
 10
3078.293
 20
-4237.216
 30
2182.659
 70
    32
  0
VERTEX
  8
T30SSILL
 62
4
 10
3065.445
 20
-4246.350
 30
2182.646
 70
    32
  0
VERTEX
  8
T30SSILL
 62
4
 10
3062.350
 20
-4242.011
 30
2182.640
 70
    32
  0
VERTEX
  8
T30SSILL
 62
4
 10
3047.748
 20
-4252.537
 30
2182.626
 70
    32
  0
VERTEX
  8
T30SSILL
 62
4
 10
3050.774
 20
-4256.779
 30
2182.632
 70
    32
  0
VERTEX
  8
T30SSILL
 62
4
 10
3022.473
 20
-4276.898
 30
2182.606
 70
    32
  0
VERTEX
  8
T30SSILL
 62
4
 10
3007.057
 20
-4319.201
 30
2182.608
 70
    32
  0
VERTEX
  8
T30SSILL
 62
4
 10
2982.574
 20
-4336.780
 30
2182.598
 70
    32
  0
VERTEX
  8
T30SSILL
 62
4
 10
2968.712
 20
-4263.044
 30
2182.534
 70
    32
  0
VERTEX
  8
T30SSILL
 62
4
 10
3112.548
 20
-4160.680
 30
2182.723
 70
    32
  0
VERTEX
  8
T30SSILL
 62
4
 10
3115.288
 20
-4164.360
 30
2182.726
 70
    32
  0
VERTEX
  8
T30SSILL
 62
4
 10
3121.111
 20
-4187.297
 30
2182.727
 70
    32
  0
VERTEX
  8
T30SSILL
 62
4
 10
3122.359
 20
-4188.774
 30
2182.729
 70
    32
  0
VERTEX
  8
T30SSILL
 62
4
 10
3128.034
 20
-4186.067
 30
2182.741
 70
    32
  0
SEQEND
  8
T30SSILL
  0
POLYLINE
  8
T30SSILL
 62
4
 66
     1
 70
     9
  0
VERTEX
  8
T30SSILL
 62
4
 10
3148.957
 20
-4063.440
 30
2182.829
 70
    32
  0
VERTEX
  8
T30SSILL
 62
4
 10
3144.732
 20
-4057.738
 30
2182.824
 70
    32
  0
VERTEX
  8
T30SSILL
 62
4
 10
3139.568
 20
-4060.848
 30
2182.813
 70
    32
  0
VERTEX
  8
T30SSILL
 62
4
 10
3144.078
 20
-4066.933
 30
2182.819
 70
    32
  0
VERTEX
  8
T30SSILL
 62
4
 10
3103.774
 20
-4095.780
 30
2182.733
 70
    32
  0
VERTEX
  8
T30SSILL
 62
4
 10
3072.044
 20
-4097.666
 30
2182.674
 70
    32
  0
VERTEX
  8
T30SSILL
 62
4
 10
3152.484
 20
-4039.705
 30
2182.846
 70
    32
  0
VERTEX
  8
T30SSILL
 62
4
 10
3164.163
 20
-4055.907
 30
2182.860
 70
    32
  0
VERTEX
  8
T30SSILL
 62
4
 10
3157.654
 20
-4057.216
 30
2182.848
 70
    32
  0
SEQEND
  8
T30SSILL
  0
POLYLINE
  8
T30SSILL
 62
4
 66
     1
 70
     9
  0
VERTEX
  8
T30SSILL
 62
4
 10
3132.791
 20
-4117.766
 30
2182.777
 70
    32
  0
VERTEX
  8
T30SSILL
 62
4
 10
3135.994
 20
-4128.001
 30
2182.779
 70
    32
  0
VERTEX
  8
T30SSILL
 62
4
 10
3139.210
 20
-4132.170
 30
2182.783
 70
    32
  0
VERTEX
  8
T30SSILL
 62
4
 10
3160.341
 20
-4117.064
 30
2182.828
 70
    32
  0
VERTEX
  8
T30SSILL
 62
4
 10
3152.619
 20
-4095.294
 30
2182.823
 70
    32
  0
VERTEX
  8
T30SSILL
 62
4
 10
3162.138
 20
-4084.020
 30
2182.845
 70
    32
  0
VERTEX
  8
T30SSILL
 62
4
 10
3182.003
 20
-4101.577
 30
2182.875
 70
    32
  0
VERTEX
  8
T30SSILL
 62
4
 10
3191.954
 20
-4094.463
 30
2182.896
 70
    32
  0
VERTEX
  8
T30SSILL
 62
4
 10
3172.072
 20
-4066.880
 30
2182.871
 70
    32
  0
VERTEX
  8
T30SSILL
 62
4
 10
3164.519
 20
-4063.977
 30
2182.858
 70
    32
  0
VERTEX
  8
T30SSILL
 62
4
 10
3160.562
 20
-4063.945
 30
2182.851
 70
    32
  0
VERTEX
  8
T30SSILL
 62
4
 10
3157.846
 20
-4065.358
 30
2182.845
 70
    32
  0
VERTEX
  8
T30SSILL
 62
4
 10
3160.727
 20
-4069.244
 30
2182.849
 70
    32
  0
VERTEX
  8
T30SSILL
 62
4
 10
3156.012
 20
-4072.959
 30
2182.838
 70
    32
  0
VERTEX
  8
T30SSILL
 62
4
 10
3159.586
 20
-4077.782
 30
2182.843
 70
    32
  0
VERTEX
  8
T30SSILL
 62
4
 10
3154.871
 20
-4081.497
 30
2182.833
 70
    32
  0
VERTEX
  8
T30SSILL
 62
4
 10
3148.173
 20
-4072.459
 30
2182.824
 70
    32
  0
VERTEX
  8
T30SSILL
 62
4
 10
3145.609
 20
-4074.340
 30
2182.819
 70
    32
  0
VERTEX
  8
T30SSILL
 62
4
 10
3149.090
 20
-4079.668
 30
2182.823
 70
    32
  0
VERTEX
  8
T30SSILL
 62
4
 10
3143.601
 20
-4083.262
 30
2182.811
 70
    32
  0
VERTEX
  8
T30SSILL
 62
4
 10
3139.970
 20
-4078.480
 30
2182.807
 70
    32
  0
VERTEX
  8
T30SSILL
 62
4
 10
3105.905
 20
-4103.486
 30
2182.734
 70
    32
  0
VERTEX
  8
T30SSILL
 62
4
 10
3060.387
 20
-4106.065
 30
2182.649
 70
    32
  0
VERTEX
  8
T30SSILL
 62
4
 10
2993.679
 20
-4154.132
 30
2182.507
 70
    32
  0
VERTEX
  8
T30SSILL
 62
4
 10
3067.266
 20
-4166.626
 30
2182.637
 70
    32
  0
VERTEX
  8
T30SSILL
 62
4
 10
3066.184
 20
-4173.590
 30
2182.632
 70
    32
  0
VERTEX
  8
T30SSILL
 62
4
 10
2985.574
 20
-4159.972
 30
2182.495
 70
    32
  0
VERTEX
  8
T30SSILL
 62
4
 10
2953.658
 20
-4182.969
 30
2182.465
 70
    32
  0
VERTEX
  8
T30SSILL
 62
4
 10
2967.224
 20
-4255.127
 30
2182.527
 70
    32
  0
VERTEX
  8
T30SSILL
 62
4
 10
3111.886
 20
-4151.705
 30
2182.725
 70
    32
  0
VERTEX
  8
T30SSILL
 62
4
 10
3112.758
 20
-4144.894
 30
2182.729
 70
    32
  0
VERTEX
  8
T30SSILL
 62
4
 10
3112.007
 20
-4141.039
 30
2182.730
 70
    32
  0
VERTEX
  8
T30SSILL
 62
4
 10
3108.123
 20
-4132.569
 30
2182.726
 70
    32
  0
VERTEX
  8
T30SSILL
 62
4
 10
3110.270
 20
-4128.677
 30
2182.731
 70
    32
  0
VERTEX
  8
T30SSILL
 62
4
 10
3110.769
 20
-4119.537
 30
2182.736
 70
    32
  0
VERTEX
  8
T30SSILL
 62
4
 10
3114.147
 20
-4115.806
 30
2182.744
 70
    32
  0
VERTEX
  8
T30SSILL
 62
4
 10
3130.037
 20
-4108.315
 30
2182.776
 70
    32
  0
VERTEX
  8
T30SSILL
 62
4
 10
3131.502
 20
-4113.039
 30
2182.777
 70
    32
  0
SEQEND
  8
T30SSILL
  0
POLYLINE
  8
T30SSILL
 62
4
 66
     1
 70
     9
  0
VERTEX
  8
T30SSILL
 62
4
 10
3063.234
 20
-4263.918
 30
2182.653
 70
    32
  0
VERTEX
  8
T30SSILL
 62
4
 10
3060.756
 20
-4265.652
 30
2182.650
 70
    32
  0
VERTEX
  8
T30SSILL
 62
4
 10
3065.789
 20
-4273.551
 30
2182.661
 70
    32
  0
VERTEX
  8
T30SSILL
 62
4
 10
3058.908
 20
-4276.254
 30
2182.654
 70
    32
  0
VERTEX
  8
T30SSILL
 62
4
 10
3058.208
 20
-4274.756
 30
2182.652
 70
    32
  0
VERTEX
  8
T30SSILL
 62
4
 10
3047.913
 20
-4281.957
 30
2182.642
 70
    32
  0
VERTEX
  8
T30SSILL
 62
4
 10
3051.581
 20
-4287.231
 30
2182.650
 70
    32
  0
VERTEX
  8
T30SSILL
 62
4
 10
3114.424
 20
-4242.109
 30
2182.709
 70
    32
  0
VERTEX
  8
T30SSILL
 62
4
 10
3108.109
 20
-4236.275
 30
2182.698
 70
    32
  0
VERTEX
  8
T30SSILL
 62
4
 10
3104.338
 20
-4238.673
 30
2182.694
 70
    32
  0
VERTEX
  8
T30SSILL
 62
4
 10
3092.889
 20
-4253.350
 30
2182.686
 70
    32
  0
VERTEX
  8
T30SSILL
 62
4
 10
3073.861
 20
-4266.573
 30
2182.668
 70
    32
  0
VERTEX
  8
T30SSILL
 62
4
 10
3072.369
 20
-4267.286
 30
2182.667
 70
    32
  0
VERTEX
  8
T30SSILL
 62
4
 10
3068.549
 20
-4261.234
 30
2182.658
 70
    32
  0
SEQEND
  8
T30SSILL
  0
POLYLINE
  8
T30SSILL
 62
4
 66
     1
 70
     9
  0
VERTEX
  8
T30SSILL
 62
4
 10
3121.465
 20
-4246.824
 30
2182.721
 70
    32
  0
VERTEX
  8
T30SSILL
 62
4
 10
3122.624
 20
-4247.339
 30
2182.723
 70
    32
  0
VERTEX
  8
T30SSILL
 62
4
 10
3125.180
 20
-4273.121
 30
2182.740
 70
    32
  0
VERTEX
  8
T30SSILL
 62
4
 10
3126.677
 20
-4276.377
 30
2182.743
 70
    32
  0
VERTEX
  8
T30SSILL
 62
4
 10
3142.783
 20
-4295.293
 30
2182.775
 70
    32
  0
VERTEX
  8
T30SSILL
 62
4
 10
3144.455
 20
-4294.237
 30
2182.776
 70
    32
  0
VERTEX
  8
T30SSILL
 62
4
 10
3152.903
 20
-4295.380
 30
2182.788
 70
    32
  0
VERTEX
  8
T30SSILL
 62
4
 10
3157.656
 20
-4303.651
 30
2182.799
 70
    32
  0
VERTEX
  8
T30SSILL
 62
4
 10
3157.549
 20
-4307.339
 30
2182.801
 70
    32
  0
VERTEX
  8
T30SSILL
 62
4
 10
3079.190
 20
-4363.426
 30
2182.727
 70
    32
  0
VERTEX
  8
T30SSILL
 62
4
 10
3069.439
 20
-4349.485
 30
2182.706
 70
    32
  0
VERTEX
  8
T30SSILL
 62
4
 10
3064.579
 20
-4353.005
 30
2182.702
 70
    32
  0
VERTEX
  8
T30SSILL
 62
4
 10
3068.019
 20
-4357.923
 30
2182.709
 70
    32
  0
VERTEX
  8
T30SSILL
 62
4
 10
3063.159
 20
-4361.443
 30
2182.704
 70
    32
  0
VERTEX
  8
T30SSILL
 62
4
 10
3066.598
 20
-4366.360
 30
2182.712
 70
    32
  0
VERTEX
  8
T30SSILL
 62
4
 10
3061.739
 20
-4369.881
 30
2182.707
 70
    32
  0
VERTEX
  8
T30SSILL
 62
4
 10
3064.552
 20
-4373.903
 30
2182.713
 70
    32
  0
VERTEX
  8
T30SSILL
 62
4
 10
3042.646
 20
-4389.583
 30
2182.692
 70
    32
  0
VERTEX
  8
T30SSILL
 62
4
 10
3030.507
 20
-4340.984
 30
2182.650
 70
    32
  0
VERTEX
  8
T30SSILL
 62
4
 10
3023.468
 20
-4342.657
 30
2182.642
 70
    32
  0
VERTEX
  8
T30SSILL
 62
4
 10
3036.269
 20
-4394.147
 30
2182.686
 70
    32
  0
VERTEX
  8
T30SSILL
 62
4
 10
2998.448
 20
-4421.219
 30
2182.671
 70
    32
  0
VERTEX
  8
T30SSILL
 62
4
 10
2984.100
 20
-4344.898
 30
2182.605
 70
    32
  0
VERTEX
  8
T30SSILL
 62
4
 10
3034.884
 20
-4308.640
 30
2182.639
 70
    32
  0
VERTEX
  8
T30SSILL
 62
4
 10
3053.565
 20
-4355.411
 30
2182.689
 70
    32
  0
VERTEX
  8
T30SSILL
 62
4
 10
3059.109
 20
-4355.410
 30
2182.696
 70
    32
  0
VERTEX
  8
T30SSILL
 62
4
 10
3092.367
 20
-4331.381
 30
2182.727
 70
    32
  0
VERTEX
  8
T30SSILL
 62
4
 10
3086.645
 20
-4314.663
 30
2182.711
 70
    32
  0
VERTEX
  8
T30SSILL
 62
4
 10
3068.151
 20
-4284.888
 30
2182.670
 70
    32
  0
SEQEND
  8
T30SSILL
  0
POLYLINE
  8
T30SSILL
 62
4
 66
     1
 70
     9
  0
VERTEX
  8
T30SSILL
 62
4
 10
3016.556
 20
-4312.380
 30
2182.617
 70
    32
  0
VERTEX
  8
T30SSILL
 62
4
 10
3037.041
 20
-4297.672
 30
2182.636
 70
    32
  0
VERTEX
  8
T30SSILL
 62
4
 10
3027.454
 20
-4284.065
 30
2182.616
 70
    32
  0
SEQEND
  8
T30SSILL
  0
POLYLINE
  8
T30SSILL
 62
4
 66
     1
 70
     9
  0
VERTEX
  8
T30SSILL
 62
4
 10
3130.514
 20
-4487.715
 30
2182.861
 70
    32
  0
VERTEX
  8
T30SSILL
 62
4
 10
3128.673
 20
-4485.942
 30
2182.857
 70
    32
  0
VERTEX
  8
T30SSILL
 62
4
 10
3126.136
 20
-4487.231
 30
2182.855
 70
    32
  0
VERTEX
  8
T30SSILL
 62
4
 10
3122.630
 20
-4482.361
 30
2182.847
 70
    32
  0
VERTEX
  8
T30SSILL
 62
4
 10
3127.530
 20
-4478.899
 30
2182.852
 70
    32
  0
VERTEX
  8
T30SSILL
 62
4
 10
3120.519
 20
-4469.160
 30
2182.838
 70
    32
  0
VERTEX
  8
T30SSILL
 62
4
 10
3135.408
 20
-4458.639
 30
2182.852
 70
    32
  0
VERTEX
  8
T30SSILL
 62
4
 10
3138.875
 20
-4463.536
 30
2182.859
 70
    32
  0
VERTEX
  8
T30SSILL
 62
4
 10
3148.675
 20
-4456.611
 30
2182.868
 70
    32
  0
VERTEX
  8
T30SSILL
 62
4
 10
3155.608
 20
-4466.405
 30
2182.883
 70
    32
  0
VERTEX
  8
T30SSILL
 62
4
 10
3161.656
 20
-4462.131
 30
2182.888
 70
    32
  0
VERTEX
  8
T30SSILL
 62
4
 10
3168.051
 20
-4474.096
 30
2182.903
 70
    32
  0
VERTEX
  8
T30SSILL
 62
4
 10
3155.303
 20
-4483.893
 30
2182.891
 70
    32
  0
VERTEX
  8
T30SSILL
 62
4
 10
3137.972
 20
-4493.399
 30
2182.874
 70
    32
  0
VERTEX
  8
T30SSILL
 62
4
 10
3136.567
 20
-4492.598
 30
2182.871
 70
    32
  0
SEQEND
  8
T30SSILL
  0
POLYLINE
  8
T30SSILL
 62
4
 66
     1
 70
     9
  0
VERTEX
  8
T30SSILL
 62
4
 10
3165.304
 20
-4155.659
 30
2182.822
 70
    32
  0
VERTEX
  8
T30SSILL
 62
4
 10
3155.489
 20
-4162.565
 30
2182.801
 70
    32
  0
VERTEX
  8
T30SSILL
 62
4
 10
3154.848
 20
-4160.434
 30
2182.800
 70
    32
  0
VERTEX
  8
T30SSILL
 62
4
 10
3141.646
 20
-4144.353
 30
2182.783
 70
    32
  0
VERTEX
  8
T30SSILL
 62
4
 10
3140.151
 20
-4141.036
 30
2182.781
 70
    32
  0
VERTEX
  8
T30SSILL
 62
4
 10
3155.072
 20
-4130.417
 30
2182.813
 70
    32
  0
VERTEX
  8
T30SSILL
 62
4
 10
3157.022
 20
-4130.897
 30
2182.817
 70
    32
  0
VERTEX
  8
T30SSILL
 62
4
 10
3166.180
 20
-4147.635
 30
2182.827
 70
    32
  0
VERTEX
  8
T30SSILL
 62
4
 10
3161.772
 20
-4150.707
 30
2182.817
 70
    32
  0
SEQEND
  8
T30SSILL
  0
POLYLINE
  8
T30SSILL
 62
4
 66
     1
 70
     9
  0
VERTEX
  8
T30SSILL
 62
4
 10
3125.882
 20
-4221.203
 30
2182.722
 70
    32
  0
VERTEX
  8
T30SSILL
 62
4
 10
3124.905
 20
-4223.489
 30
2182.719
 70
    32
  0
VERTEX
  8
T30SSILL
 62
4
 10
3125.059
 20
-4234.473
 30
2182.719
 70
    32
  0
VERTEX
  8
T30SSILL
 62
4
 10
3164.477
 20
-4206.171
 30
2182.799
 70
    32
  0
VERTEX
  8
T30SSILL
 62
4
 10
3154.027
 20
-4191.517
 30
2182.786
 70
    32
  0
VERTEX
  8
T30SSILL
 62
4
 10
3142.349
 20
-4199.859
 30
2182.761
 70
    32
  0
VERTEX
  8
T30SSILL
 62
4
 10
3127.741
 20
-4218.744
 30
2182.727
 70
    32
  0
SEQEND
  8
T30SSILL
  0
POLYLINE
  8
T30SSILL
 62
4
 66
     1
 70
     9
  0
VERTEX
  8
T30SSILL
 62
4
 10
3180.025
 20
-4145.301
 30
2182.853
 70
    32
  0
VERTEX
  8
T30SSILL
 62
4
 10
3189.195
 20
-4158.160
 30
2182.865
 70
    32
  0
VERTEX
  8
T30SSILL
 62
4
 10
3221.481
 20
-4135.426
 30
2182.933
 70
    32
  0
VERTEX
  8
T30SSILL
 62
4
 10
3196.578
 20
-4100.878
 30
2182.902
 70
    32
  0
VERTEX
  8
T30SSILL
 62
4
 10
3187.283
 20
-4107.493
 30
2182.882
 70
    32
  0
VERTEX
  8
T30SSILL
 62
4
 10
3188.666
 20
-4112.141
 30
2182.882
 70
    32
  0
VERTEX
  8
T30SSILL
 62
4
 10
3199.185
 20
-4131.417
 30
2182.894
 70
    32
  0
SEQEND
  8
T30SSILL
  0
POLYLINE
  8
T30SSILL
 62
4
 66
     1
 70
     9
  0
VERTEX
  8
T30SSILL
 62
4
 10
3193.086
 20
-4163.616
 30
2182.869
 70
    32
  0
VERTEX
  8
T30SSILL
 62
4
 10
3219.649
 20
-4145.299
 30
2182.926
 70
    32
  0
VERTEX
  8
T30SSILL
 62
4
 10
3229.384
 20
-4146.391
 30
2182.943
 70
    32
  0
VERTEX
  8
T30SSILL
 62
4
 10
3235.642
 20
-4155.073
 30
2182.951
 70
    32
  0
VERTEX
  8
T30SSILL
 62
4
 10
3193.724
 20
-4185.165
 30
2182.862
 70
    32
  0
VERTEX
  8
T30SSILL
 62
4
 10
3189.817
 20
-4179.841
 30
2182.857
 70
    32
  0
VERTEX
  8
T30SSILL
 62
4
 10
3194.765
 20
-4176.305
 30
2182.867
 70
    32
  0
VERTEX
  8
T30SSILL
 62
4
 10
3191.281
 20
-4171.419
 30
2182.863
 70
    32
  0
VERTEX
  8
T30SSILL
 62
4
 10
3196.162
 20
-4167.930
 30
2182.873
 70
    32
  0
SEQEND
  8
T30SSILL
  0
POLYLINE
  8
T30SSILL
 62
4
 66
     1
 70
     9
  0
VERTEX
  8
T30SSILL
 62
4
 10
2868.381
 20
-3831.023
 30
2182.796
 70
    32
  0
VERTEX
  8
T30SSILL
 62
4
 10
2861.772
 20
-3823.731
 30
2182.832
 70
    32
  0
VERTEX
  8
T30SSILL
 62
4
 10
2858.144
 20
-3815.781
 30
2182.869
 70
    32
  0
VERTEX
  8
T30SSILL
 62
4
 10
2857.182
 20
-3803.662
 30
2182.919
 70
    32
  0
VERTEX
  8
T30SSILL
 62
4
 10
2829.709
 20
-3763.166
 30
2183.145
 70
    32
  0
VERTEX
  8
T30SSILL
 62
4
 10
2846.950
 20
-3851.283
 30
2182.802
 70
    32
  0
VERTEX
  8
T30SSILL
 62
4
 10
2891.859
 20
-3981.300
 30
2182.623
 70
    32
  0
VERTEX
  8
T30SSILL
 62
4
 10
2904.407
 20
-3992.025
 30
2182.597
 70
    32
  0
VERTEX
  8
T30SSILL
 62
4
 10
2908.332
 20
-3983.530
 30
2182.601
 70
    32
  0
VERTEX
  8
T30SSILL
 62
4
 10
2882.521
 20
-3842.430
 30
2182.768
 70
    32
  0
VERTEX
  8
T30SSILL
 62
4
 10
2878.387
 20
-3836.070
 30
2182.779
 70
    32
  0
VERTEX
  8
T30SSILL
 62
4
 10
2871.918
 20
-3832.468
 30
2182.790
 70
    32
  0
SEQEND
  8
T30SSILL
  0
POLYLINE
  8
T30SSILL
 62
4
 66
     1
 70
     9
  0
VERTEX
  8
T30SSILL
 62
4
 10
3968.688
 20
-2554.107
 30
2181.380
 70
    32
  0
VERTEX
  8
T30SSILL
 62
4
 10
3959.707
 20
-2541.397
 30
2181.380
 70
    32
  0
VERTEX
  8
T30SSILL
 62
4
 10
3974.676
 20
-2530.537
 30
2181.380
 70
    32
  0
VERTEX
  8
T30SSILL
 62
4
 10
3976.394
 20
-2527.697
 30
2181.380
 70
    32
  0
VERTEX
  8
T30SSILL
 62
4
 10
3956.682
 20
-2502.831
 30
2181.380
 70
    32
  0
VERTEX
  8
T30SSILL
 62
4
 10
3929.570
 20
-2506.895
 30
2181.381
 70
    32
  0
VERTEX
  8
T30SSILL
 62
4
 10
3940.146
 20
-2577.266
 30
2181.403
 70
    32
  0
VERTEX
  8
T30SSILL
 62
4
 10
3961.460
 20
-2559.972
 30
2181.380
 70
    32
  0
SEQEND
  8
T30SSILL
  0
POLYLINE
  8
T30SSILL
 62
4
 66
     1
 70
     9
  0
VERTEX
  8
T30SSILL
 62
4
 10
873.173
 20
-3571.123
 30
2185.633
 70
    32
  0
VERTEX
  8
T30SSILL
 62
4
 10
901.328
 20
-3610.307
 30
2185.914
 70
    32
  0
VERTEX
  8
T30SSILL
 62
4
 10
900.080
 20
-3618.088
 30
2186.006
 70
    32
  0
VERTEX
  8
T30SSILL
 62
4
 10
896.807
 20
-3623.048
 30
2186.079
 70
    32
  0
VERTEX
  8
T30SSILL
 62
4
 10
836.302
 20
-3666.793
 30
2186.319
 70
    32
  0
VERTEX
  8
T30SSILL
 62
4
 10
829.840
 20
-3668.076
 30
2186.331
 70
    32
  0
VERTEX
  8
T30SSILL
 62
4
 10
826.270
 20
-3666.735
 30
2186.337
 70
    32
  0
VERTEX
  8
T30SSILL
 62
4
 10
785.057
 20
-3609.793
 30
2186.388
 70
    32
  0
VERTEX
  8
T30SSILL
 62
4
 10
852.909
 20
-3561.346
 30
2185.634
 70
    32
  0
VERTEX
  8
T30SSILL
 62
4
 10
867.243
 20
-3565.047
 30
2185.597
 70
    32
  0
VERTEX
  8
T30SSILL
 62
4
 10
871.181
 20
-3569.163
 30
2185.622
 70
    32
  0
SEQEND
  8
T30SSILL
  0
POLYLINE
  8
T30SSILL
 62
4
 66
     1
 70
     9
  0
VERTEX
  8
T30SSILL
 62
4
 10
3093.453
 20
-4472.642
 30
2182.804
 70
    32
  0
VERTEX
  8
T30SSILL
 62
4
 10
3098.340
 20
-4469.161
 30
2182.808
 70
    32
  0
VERTEX
  8
T30SSILL
 62
4
 10
3101.846
 20
-4474.030
 30
2182.815
 70
    32
  0
VERTEX
  8
T30SSILL
 62
4
 10
3116.505
 20
-4463.585
 30
2182.829
 70
    32
  0
VERTEX
  8
T30SSILL
 62
4
 10
3106.811
 20
-4450.120
 30
2182.809
 70
    32
  0
VERTEX
  8
T30SSILL
 62
4
 10
3054.257
 20
-4486.409
 30
2182.759
 70
    32
  0
VERTEX
  8
T30SSILL
 62
4
 10
3078.294
 20
-4490.810
 30
2182.793
 70
    32
  0
VERTEX
  8
T30SSILL
 62
4
 10
3087.186
 20
-4484.475
 30
2182.802
 70
    32
  0
VERTEX
  8
T30SSILL
 62
4
 10
3082.608
 20
-4471.233
 30
2182.798
 70
    32
  0
VERTEX
  8
T30SSILL
 62
4
 10
3089.948
 20
-4467.773
 30
2182.796
 70
    32
  0
SEQEND
  8
T30SSILL
  0
TEXT
  8
T30SSILL
 62
4
 10
1899.310
 20
-1927.882
 30
2183.101
 40
0.200
  1
3050
 50
-144.274
 41
 1.0 
  0
POINT
  8
T30SSILL
 62
4
 10
2142.295
 20
-4770.148
 30
2182.728
  0
POLYLINE
  8
T30SSILL
 62
4
 66
     1
 70
     8
  0
VERTEX
  8
T30SSILL
 62
4
 10
2142.295
 20
-4770.148
 30
2182.728
 70
    32
  0
VERTEX
  8
T30SSILL
 62
4
 10
2106.964
 20
-4781.418
 30
2182.763
 70
    32
  0
VERTEX
  8
T30SSILL
 62
4
 10
2094.544
 20
-4779.505
 30
2182.819
 70
    32
  0
VERTEX
  8
T30SSILL
 62
4
 10
1937.603
 20
-4560.970
 30
2183.642
 70
    32
  0
VERTEX
  8
T30SSILL
 62
4
 10
1934.444
 20
-4556.032
 30
2183.659
 70
    32
  0
VERTEX
  8
T30SSILL
 62
4
 10
1932.697
 20
-4549.687
 30
2183.670
 70
    32
  0
VERTEX
  8
T30SSILL
 62
4
 10
1932.182
 20
-4543.874
 30
2183.676
 70
    32
  0
VERTEX
  8
T30SSILL
 62
4
 10
1933.075
 20
-4538.417
 30
2183.676
 70
    32
  0
VERTEX
  8
T30SSILL
 62
4
 10
1939.263
 20
-4527.864
 30
2183.656
 70
    32
  0
VERTEX
  8
T30SSILL
 62
4
 10
2009.143
 20
-4468.055
 30
2183.588
 70
    32
  0
VERTEX
  8
T30SSILL
 62
4
 10
2016.982
 20
-4467.457
 30
2183.569
 70
    32
  0
VERTEX
  8
T30SSILL
 62
4
 10
2073.144
 20
-4475.951
 30
2183.396
 70
    32
  0
VERTEX
  8
T30SSILL
 62
4
 10
2100.092
 20
-4513.878
 30
2183.197
 70
    32
  0
VERTEX
  8
T30SSILL
 62
4
 10
2103.862
 20
-4521.020
 30
2183.163
 70
    32
  0
VERTEX
  8
T30SSILL
 62
4
 10
2130.527
 20
-4558.421
 30
2182.967
 70
    32
  0
VERTEX
  8
T30SSILL
 62
4
 10
2116.170
 20
-4568.072
 30
2182.971
 70
    32
  0
VERTEX
  8
T30SSILL
 62
4
 10
2116.064
 20
-4614.390
 30
2182.832
 70
    32
  0
VERTEX
  8
T30SSILL
 62
4
 10
2124.870
 20
-4614.411
 30
2182.794
 70
    32
  0
VERTEX
  8
T30SSILL
 62
4
 10
2124.841
 20
-4627.355
 30
2182.786
 70
    32
  0
VERTEX
  8
T30SSILL
 62
4
 10
2178.533
 20
-4627.167
 30
2182.716
 70
    32
  0
VERTEX
  8
T30SSILL
 62
4
 10
2188.874
 20
-4641.468
 30
2182.717
 70
    32
  0
VERTEX
  8
T30SSILL
 62
4
 10
2201.093
 20
-4656.621
 30
2182.718
 70
    32
  0
VERTEX
  8
T30SSILL
 62
4
 10
2211.112
 20
-4670.782
 30
2182.719
 70
    32
  0
VERTEX
  8
T30SSILL
 62
4
 10
2219.956
 20
-4680.886
 30
2182.720
 70
    32
  0
VERTEX
  8
T30SSILL
 62
4
 10
2228.148
 20
-4696.214
 30
2182.721
 70
    32
  0
VERTEX
  8
T30SSILL
 62
4
 10
2230.111
 20
-4702.169
 30
2182.721
 70
    32
  0
VERTEX
  8
T30SSILL
 62
4
 10
2228.497
 20
-4708.070
 30
2182.722
 70
    32
  0
VERTEX
  8
T30SSILL
 62
4
 10
2210.292
 20
-4722.083
 30
2182.723
 70
    32
  0
VERTEX
  8
T30SSILL
 62
4
 10
2207.120
 20
-4724.402
 30
2182.723
 70
    32
  0
VERTEX
  8
T30SSILL
 62
4
 10
2199.949
 20
-4720.839
 30
2182.724
 70
    32
  0
VERTEX
  8
T30SSILL
 62
4
 10
2182.137
 20
-4733.548
 30
2182.725
 70
    32
  0
VERTEX
  8
T30SSILL
 62
4
 10
2180.442
 20
-4735.681
 30
2182.725
 70
    32
  0
VERTEX
  8
T30SSILL
 62
4
 10
2180.788
 20
-4743.191
 30
2182.726
 70
    32
  0
VERTEX
  8
T30SSILL
 62
4
 10
2162.506
 20
-4757.545
 30
2182.727
 70
    32
  0
VERTEX
  8
T30SSILL
 62
4
 10
2145.385
 20
-4767.138
 30
2182.728
 70
    32
  0
VERTEX
  8
T30SSILL
 62
4
 10
2142.295
 20
-4770.148
 30
2182.728
 70
    32
  0
SEQEND
  8
T30SSILL
  0
POLYLINE
  8
T30SSILL
 62
4
 66
     1
 70
     9
  0
VERTEX
  8
T30SSILL
 62
4
 10
2239.119
 20
-4711.911
 30
2182.722
 70
    32
  0
VERTEX
  8
T30SSILL
 62
4
 10
2259.834
 20
-4708.816
 30
2182.725
 70
    32
  0
VERTEX
  8
T30SSILL
 62
4
 10
2260.953
 20
-4716.254
 30
2182.725
 70
    32
  0
VERTEX
  8
T30SSILL
 62
4
 10
2265.709
 20
-4715.825
 30
2182.725
 70
    32
  0
VERTEX
  8
T30SSILL
 62
4
 10
2264.567
 20
-4708.109
 30
2182.725
 70
    32
  0
VERTEX
  8
T30SSILL
 62
4
 10
2490.305
 20
-4669.179
 30
2182.725
 70
    32
  0
VERTEX
  8
T30SSILL
 62
4
 10
2491.232
 20
-4675.732
 30
2182.725
 70
    32
  0
VERTEX
  8
T30SSILL
 62
4
 10
2501.796
 20
-4673.829
 30
2182.725
 70
    32
  0
VERTEX
  8
T30SSILL
 62
4
 10
2500.791
 20
-4667.370
 30
2182.725
 70
    32
  0
VERTEX
  8
T30SSILL
 62
4
 10
2529.731
 20
-4662.377
 30
2182.725
 70
    32
  0
VERTEX
  8
T30SSILL
 62
4
 10
2533.525
 20
-4685.453
 30
2182.725
 70
    32
  0
VERTEX
  8
T30SSILL
 62
4
 10
2543.913
 20
-4683.725
 30
2182.725
 70
    32
  0
VERTEX
  8
T30SSILL
 62
4
 10
2539.686
 20
-4660.660
 30
2182.725
 70
    32
  0
VERTEX
  8
T30SSILL
 62
4
 10
2905.096
 20
-4598.581
 30
2182.726
 70
    32
  0
VERTEX
  8
T30SSILL
 62
4
 10
2906.138
 20
-4605.483
 30
2182.726
 70
    32
  0
VERTEX
  8
T30SSILL
 62
4
 10
2914.728
 20
-4604.226
 30
2182.726
 70
    32
  0
VERTEX
  8
T30SSILL
 62
4
 10
2918.081
 20
-4628.115
 30
2182.726
 70
    32
  0
VERTEX
  8
T30SSILL
 62
4
 10
2923.127
 20
-4639.338
 30
2182.726
 70
    32
  0
VERTEX
  8
T30SSILL
 62
4
 10
2924.532
 20
-4640.315
 30
2182.726
 70
    32
  0
VERTEX
  8
T30SSILL
 62
4
 10
2927.847
 20
-4646.152
 30
2182.726
 70
    32
  0
VERTEX
  8
T30SSILL
 62
4
 10
2930.743
 20
-4648.284
 30
2182.726
 70
    32
  0
VERTEX
  8
T30SSILL
 62
4
 10
2937.605
 20
-4650.527
 30
2182.726
 70
    32
  0
VERTEX
  8
T30SSILL
 62
4
 10
2941.839
 20
-4649.935
 30
2182.726
 70
    32
  0
VERTEX
  8
T30SSILL
 62
4
 10
2947.490
 20
-4648.205
 30
2182.726
 70
    32
  0
VERTEX
  8
T30SSILL
 62
4
 10
2949.356
 20
-4645.484
 30
2182.726
 70
    32
  0
VERTEX
  8
T30SSILL
 62
4
 10
2951.948
 20
-4639.329
 30
2182.726
 70
    32
  0
VERTEX
  8
T30SSILL
 62
4
 10
2952.169
 20
-4631.751
 30
2182.726
 70
    32
  0
VERTEX
  8
T30SSILL
 62
4
 10
2947.282
 20
-4608.102
 30
2182.726
 70
    32
  0
VERTEX
  8
T30SSILL
 62
4
 10
2942.916
 20
-4601.113
 30
2182.726
 70
    32
  0
VERTEX
  8
T30SSILL
 62
4
 10
2936.427
 20
-4595.523
 30
2182.726
 70
    32
  0
VERTEX
  8
T30SSILL
 62
4
 10
2936.103
 20
-4593.357
 30
2182.726
 70
    32
  0
VERTEX
  8
T30SSILL
 62
4
 10
3020.542
 20
-4579.132
 30
2182.726
 70
    32
  0
VERTEX
  8
T30SSILL
 62
4
 10
3023.177
 20
-4580.552
 30
2182.726
 70
    32
  0
VERTEX
  8
T30SSILL
 62
4
 10
3150.184
 20
-4761.527
 30
2182.727
 70
    32
  0
VERTEX
  8
T30SSILL
 62
4
 10
3173.820
 20
-4743.914
 30
2182.727
 70
    32
  0
VERTEX
  8
T30SSILL
 62
4
 10
3229.449
 20
-4765.995
 30
2182.727
 70
    32
  0
VERTEX
  8
T30SSILL
 62
4
 10
3266.309
 20
-4739.799
 30
2182.727
 70
    32
  0
VERTEX
  8
T30SSILL
 62
4
 10
3265.452
 20
-4732.670
 30
2182.727
 70
    32
  0
VERTEX
  8
T30SSILL
 62
4
 10
3242.511
 20
-4748.850
 30
2182.727
 70
    32
  0
VERTEX
  8
T30SSILL
 62
4
 10
3239.984
 20
-4745.086
 30
2182.727
 70
    32
  0
VERTEX
  8
T30SSILL
 62
4
 10
3233.372
 20
-4749.377
 30
2182.727
 70
    32
  0
VERTEX
  8
T30SSILL
 62
4
 10
3235.959
 20
-4753.470
 30
2182.727
 70
    32
  0
VERTEX
  8
T30SSILL
 62
4
 10
3228.063
 20
-4759.039
 30
2182.727
 70
    32
  0
VERTEX
  8
T30SSILL
 62
4
 10
3179.904
 20
-4739.621
 30
2182.727
 70
    32
  0
VERTEX
  8
T30SSILL
 62
4
 10
3199.567
 20
-4726.220
 30
2182.727
 70
    32
  0
VERTEX
  8
T30SSILL
 62
4
 10
3204.643
 20
-4735.298
 30
2182.727
 70
    32
  0
VERTEX
  8
T30SSILL
 62
4
 10
3205.949
 20
-4739.614
 30
2182.727
 70
    32
  0
VERTEX
  8
T30SSILL
 62
4
 10
3216.233
 20
-4743.253
 30
2182.727
 70
    32
  0
VERTEX
  8
T30SSILL
 62
4
 10
3219.751
 20
-4743.792
 30
2182.727
 70
    32
  0
VERTEX
  8
T30SSILL
 62
4
 10
3223.890
 20
-4742.660
 30
2182.727
 70
    32
  0
VERTEX
  8
T30SSILL
 62
4
 10
3229.706
 20
-4739.775
 30
2182.727
 70
    32
  0
VERTEX
  8
T30SSILL
 62
4
 10
3238.701
 20
-4733.379
 30
2182.727
 70
    32
  0
VERTEX
  8
T30SSILL
 62
4
 10
3234.682
 20
-4723.952
 30
2182.727
 70
    32
  0
VERTEX
  8
T30SSILL
 62
4
 10
3234.337
 20
-4721.575
 30
2182.727
 70
    32
  0
VERTEX
  8
T30SSILL
 62
4
 10
3234.517
 20
-4720.432
 30
2182.727
 70
    32
  0
VERTEX
  8
T30SSILL
 62
4
 10
3239.800
 20
-4719.216
 30
2182.727
 70
    32
  0
VERTEX
  8
T30SSILL
 62
4
 10
3251.015
 20
-4734.825
 30
2182.727
 70
    32
  0
VERTEX
  8
T30SSILL
 62
4
 10
3257.141
 20
-4731.123
 30
2182.727
 70
    32
  0
VERTEX
  8
T30SSILL
 62
4
 10
3234.931
 20
-4700.108
 30
2182.728
 70
    32
  0
VERTEX
  8
T30SSILL
 62
4
 10
3249.171
 20
-4690.554
 30
2182.728
 70
    32
  0
VERTEX
  8
T30SSILL
 62
4
 10
3244.397
 20
-4683.771
 30
2182.728
 70
    32
  0
VERTEX
  8
T30SSILL
 62
4
 10
3230.638
 20
-4694.199
 30
2182.728
 70
    32
  0
VERTEX
  8
T30SSILL
 62
4
 10
3226.169
 20
-4688.202
 30
2182.728
 70
    32
  0
VERTEX
  8
T30SSILL
 62
4
 10
3222.589
 20
-4679.304
 30
2182.728
 70
    32
  0
VERTEX
  8
T30SSILL
 62
4
 10
3220.487
 20
-4676.306
 30
2182.728
 70
    32
  0
VERTEX
  8
T30SSILL
 62
4
 10
3217.766
 20
-4674.098
 30
2182.728
 70
    32
  0
VERTEX
  8
T30SSILL
 62
4
 10
3213.192
 20
-4673.380
 30
2182.728
 70
    32
  0
VERTEX
  8
T30SSILL
 62
4
 10
3209.046
 20
-4676.887
 30
2182.728
 70
    32
  0
VERTEX
  8
T30SSILL
 62
4
 10
3202.946
 20
-4686.283
 30
2182.728
 70
    32
  0
VERTEX
  8
T30SSILL
 62
4
 10
3198.532
 20
-4690.933
 30
2182.728
 70
    32
  0
VERTEX
  8
T30SSILL
 62
4
 10
3194.213
 20
-4693.295
 30
2182.728
 70
    32
  0
VERTEX
  8
T30SSILL
 62
4
 10
3192.365
 20
-4693.465
 30
2182.728
 70
    32
  0
VERTEX
  8
T30SSILL
 62
4
 10
3191.830
 20
-4695.663
 30
2182.728
 70
    32
  0
VERTEX
  8
T30SSILL
 62
4
 10
3189.625
 20
-4697.416
 30
2182.728
 70
    32
  0
VERTEX
  8
T30SSILL
 62
4
 10
3189.267
 20
-4699.527
 30
2182.728
 70
    32
  0
VERTEX
  8
T30SSILL
 62
4
 10
3187.592
 20
-4700.578
 30
2182.728
 70
    32
  0
VERTEX
  8
T30SSILL
 62
4
 10
3187.412
 20
-4701.721
 30
2182.728
 70
    32
  0
VERTEX
  8
T30SSILL
 62
4
 10
3172.190
 20
-4701.762
 30
2182.728
 70
    32
  0
VERTEX
  8
T30SSILL
 62
4
 10
3168.292
 20
-4710.461
 30
2182.728
 70
    32
  0
VERTEX
  8
T30SSILL
 62
4
 10
3163.017
 20
-4708.773
 30
2182.728
 70
    32
  0
VERTEX
  8
T30SSILL
 62
4
 10
3162.165
 20
-4699.708
 30
2182.728
 70
    32
  0
VERTEX
  8
T30SSILL
 62
4
 10
3161.202
 20
-4698.385
 30
2182.728
 70
    32
  0
VERTEX
  8
T30SSILL
 62
4
 10
3158.212
 20
-4697.269
 30
2182.728
 70
    32
  0
VERTEX
  8
T30SSILL
 62
4
 10
3154.316
 20
-4691.760
 30
2182.728
 70
    32
  0
VERTEX
  8
T30SSILL
 62
4
 10
3153.668
 20
-4687.451
 30
2182.728
 70
    32
  0
VERTEX
  8
T30SSILL
 62
4
 10
3141.994
 20
-4678.264
 30
2182.728
 70
    32
  0
VERTEX
  8
T30SSILL
 62
4
 10
3136.909
 20
-4672.353
 30
2182.728
 70
    32
  0
VERTEX
  8
T30SSILL
 62
4
 10
3131.428
 20
-4673.420
 30
2182.728
 70
    32
  0
VERTEX
  8
T30SSILL
 62
4
 10
3109.355
 20
-4689.428
 30
2182.728
 70
    32
  0
VERTEX
  8
T30SSILL
 62
4
 10
3097.546
 20
-4672.814
 30
2182.728
 70
    32
  0
VERTEX
  8
T30SSILL
 62
4
 10
3160.730
 20
-4627.503
 30
2182.728
 70
    32
  0
VERTEX
  8
T30SSILL
 62
4
 10
3165.319
 20
-4629.983
 30
2182.728
 70
    32
  0
VERTEX
  8
T30SSILL
 62
4
 10
3166.906
 20
-4629.197
 30
2182.728
 70
    32
  0
VERTEX
  8
T30SSILL
 62
4
 10
3171.908
 20
-4619.487
 30
2182.728
 70
    32
  0
VERTEX
  8
T30SSILL
 62
4
 10
3177.239
 20
-4615.664
 30
2182.728
 70
    32
  0
VERTEX
  8
T30SSILL
 62
4
 10
3205.678
 20
-4619.583
 30
2182.728
 70
    32
  0
VERTEX
  8
T30SSILL
 62
4
 10
3226.380
 20
-4637.448
 30
2182.728
 70
    32
  0
VERTEX
  8
T30SSILL
 62
4
 10
3232.373
 20
-4635.624
 30
2182.728
 70
    32
  0
VERTEX
  8
T30SSILL
 62
4
 10
3237.737
 20
-4637.142
 30
2182.728
 70
    32
  0
VERTEX
  8
T30SSILL
 62
4
 10
3263.165
 20
-4618.319
 30
2182.728
 70
    32
  0
VERTEX
  8
T30SSILL
 62
4
 10
3263.083
 20
-4616.910
 30
2182.728
 70
    32
  0
VERTEX
  8
T30SSILL
 62
4
 10
3259.317
 20
-4612.230
 30
2182.728
 70
    32
  0
VERTEX
  8
T30SSILL
 62
4
 10
3256.851
 20
-4612.572
 30
2182.728
 70
    32
  0
VERTEX
  8
T30SSILL
 62
4
 10
3255.886
 20
-4611.688
 30
2182.728
 70
    32
  0
VERTEX
  8
T30SSILL
 62
4
 10
3259.713
 20
-4601.316
 30
2182.728
 70
    32
  0
VERTEX
  8
T30SSILL
 62
4
 10
3257.444
 20
-4596.465
 30
2182.728
 70
    32
  0
VERTEX
  8
T30SSILL
 62
4
 10
3255.779
 20
-4594.610
 30
2182.728
 70
    32
  0
VERTEX
  8
T30SSILL
 62
4
 10
3252.880
 20
-4593.101
 30
2182.728
 70
    32
  0
VERTEX
  8
T30SSILL
 62
4
 10
3248.593
 20
-4586.570
 30
2182.728
 70
    32
  0
VERTEX
  8
T30SSILL
 62
4
 10
3244.591
 20
-4574.934
 30
2182.728
 70
    32
  0
VERTEX
  8
T30SSILL
 62
4
 10
3243.838
 20
-4567.903
 30
2182.728
 70
    32
  0
VERTEX
  8
T30SSILL
 62
4
 10
3405.747
 20
-4451.794
 30
2182.729
 70
    32
  0
VERTEX
  8
T30SSILL
 62
4
 10
3439.181
 20
-4426.181
 30
2182.729
 70
    32
  0
VERTEX
  8
T30SSILL
 62
4
 10
3410.311
 20
-4385.619
 30
2182.729
 70
    32
  0
VERTEX
  8
T30SSILL
 62
4
 10
3565.342
 20
-4275.508
 30
2182.729
 70
    32
  0
VERTEX
  8
T30SSILL
 62
4
 10
3606.347
 20
-4245.331
 30
2182.729
 70
    32
  0
VERTEX
  8
T30SSILL
 62
4
 10
3624.350
 20
-4273.012
 30
2182.729
 70
    32
  0
VERTEX
  8
T30SSILL
 62
4
 10
3629.873
 20
-4269.555
 30
2182.729
 70
    32
  0
VERTEX
  8
T30SSILL
 62
4
 10
3611.943
 20
-4241.212
 30
2182.729
 70
    32
  0
VERTEX
  8
T30SSILL
 62
4
 10
3613.180
 20
-4240.302
 30
2182.729
 70
    32
  0
VERTEX
  8
T30SSILL
 62
4
 10
3609.000
 20
-4234.000
 30
2182.730
 70
    32
  0
VERTEX
  8
T30SSILL
 62
4
 10
3607.886
 20
-4234.799
 30
2182.730
 70
    32
  0
VERTEX
  8
T30SSILL
 62
4
 10
3595.651
 20
-4215.459
 30
2182.730
 70
    32
  0
VERTEX
  8
T30SSILL
 62
4
 10
3589.485
 20
-4219.404
 30
2182.730
 70
    32
  0
VERTEX
  8
T30SSILL
 62
4
 10
3602.164
 20
-4238.899
 30
2182.730
 70
    32
  0
VERTEX
  8
T30SSILL
 62
4
 10
3405.996
 20
-4379.993
 30
2182.730
 70
    32
  0
VERTEX
  8
T30SSILL
 62
4
 10
3216.842
 20
-4117.529
 30
2182.731
 70
    32
  0
VERTEX
  8
T30SSILL
 62
4
 10
3221.757
 20
-4089.765
 30
2182.731
 70
    32
  0
VERTEX
  8
T30SSILL
 62
4
 10
3227.249
 20
-4086.534
 30
2182.731
 70
    32
  0
VERTEX
  8
T30SSILL
 62
4
 10
3228.798
 20
-4083.967
 30
2182.731
 70
    32
  0
VERTEX
  8
T30SSILL
 62
4
 10
3229.906
 20
-4074.380
 30
2182.731
 70
    32
  0
VERTEX
  8
T30SSILL
 62
4
 10
3228.467
 20
-4071.676
 30
2182.731
 70
    32
  0
VERTEX
  8
T30SSILL
 62
4
 10
3222.210
 20
-4069.998
 30
2182.731
 70
    32
  0
VERTEX
  8
T30SSILL
 62
4
 10
3215.266
 20
-4069.559
 30
2182.731
 70
    32
  0
VERTEX
  8
T30SSILL
 62
4
 10
3208.281
 20
-4065.871
 30
2182.731
 70
    32
  0
VERTEX
  8
T30SSILL
 62
4
 10
3204.349
 20
-4067.502
 30
2182.731
 70
    32
  0
VERTEX
  8
T30SSILL
 62
4
 10
3204.034
 20
-4070.316
 30
2182.731
 70
    32
  0
VERTEX
  8
T30SSILL
 62
4
 10
3205.031
 20
-4072.763
 30
2182.731
 70
    32
  0
VERTEX
  8
T30SSILL
 62
4
 10
3208.671
 20
-4075.878
 30
2182.731
 70
    32
  0
VERTEX
  8
T30SSILL
 62
4
 10
3211.329
 20
-4084.627
 30
2182.731
 70
    32
  0
VERTEX
  8
T30SSILL
 62
4
 10
3214.022
 20
-4086.913
 30
2182.731
 70
    32
  0
VERTEX
  8
T30SSILL
 62
4
 10
3210.069
 20
-4108.131
 30
2182.731
 70
    32
  0
VERTEX
  8
T30SSILL
 62
4
 10
3154.023
 20
-4030.364
 30
2182.731
 70
    32
  0
VERTEX
  8
T30SSILL
 62
4
 10
3145.984
 20
-4036.097
 30
2182.731
 70
    32
  0
VERTEX
  8
T30SSILL
 62
4
 10
3141.473
 20
-4031.947
 30
2182.731
 70
    32
  0
VERTEX
  8
T30SSILL
 62
4
 10
3129.093
 20
-4008.119
 30
2182.731
 70
    32
  0
VERTEX
  8
T30SSILL
 62
4
 10
3127.941
 20
-3995.035
 30
2182.731
 70
    32
  0
VERTEX
  8
T30SSILL
 62
4
 10
3126.952
 20
-3993.466
 30
2182.731
 70
    32
  0
VERTEX
  8
T30SSILL
 62
4
 10
3123.403
 20
-3991.143
 30
2182.731
 70
    32
  0
VERTEX
  8
T30SSILL
 62
4
 10
3117.200
 20
-3993.955
 30
2182.731
 70
    32
  0
VERTEX
  8
T30SSILL
 62
4
 10
3117.522
 20
-3998.083
 30
2182.731
 70
    32
  0
VERTEX
  8
T30SSILL
 62
4
 10
3121.653
 20
-4004.267
 30
2182.731
 70
    32
  0
VERTEX
  8
T30SSILL
 62
4
 10
3125.185
 20
-4011.603
 30
2182.731
 70
    32
  0
VERTEX
  8
T30SSILL
 62
4
 10
3127.030
 20
-4023.974
 30
2182.731
 70
    32
  0
VERTEX
  8
T30SSILL
 62
4
 10
3125.665
 20
-4026.982
 30
2182.731
 70
    32
  0
VERTEX
  8
T30SSILL
 62
4
 10
3126.401
 20
-4029.258
 30
2182.731
 70
    32
  0
VERTEX
  8
T30SSILL
 62
4
 10
3132.196
 20
-4034.979
 30
2182.731
 70
    32
  0
VERTEX
  8
T30SSILL
 62
4
 10
3134.032
 20
-4040.492
 30
2182.731
 70
    32
  0
VERTEX
  8
T30SSILL
 62
4
 10
3133.989
 20
-4043.658
 30
2182.731
 70
    32
  0
VERTEX
  8
T30SSILL
 62
4
 10
3129.893
 20
-4046.265
 30
2182.731
 70
    32
  0
VERTEX
  8
T30SSILL
 62
4
 10
3118.871
 20
-4037.716
 30
2182.731
 70
    32
  0
VERTEX
  8
T30SSILL
 62
4
 10
3113.783
 20
-4038.579
 30
2182.731
 70
    32
  0
VERTEX
  8
T30SSILL
 62
4
 10
3099.277
 20
-4051.092
 30
2182.731
 70
    32
  0
VERTEX
  8
T30SSILL
 62
4
 10
3099.226
 20
-4053.730
 30
2182.731
 70
    32
  0
VERTEX
  8
T30SSILL
 62
4
 10
3100.705
 20
-4058.896
 30
2182.731
 70
    32
  0
VERTEX
  8
T30SSILL
 62
4
 10
3099.328
 20
-4069.374
 30
2182.731
 70
    32
  0
VERTEX
  8
T30SSILL
 62
4
 10
3049.318
 20
-4105.042
 30
2182.731
 70
    32
  0
VERTEX
  8
T30SSILL
 62
4
 10
3065.883
 20
-4008.481
 30
2182.732
 70
    32
  0
VERTEX
  8
T30SSILL
 62
4
 10
3068.789
 20
-4002.549
 30
2182.732
 70
    32
  0
VERTEX
  8
T30SSILL
 62
4
 10
3070.953
 20
-4000.145
 30
2182.732
 70
    32
  0
VERTEX
  8
T30SSILL
 62
4
 10
3074.009
 20
-3998.607
 30
2182.732
 70
    32
  0
VERTEX
  8
T30SSILL
 62
4
 10
3114.217
 20
-3969.380
 30
2182.732
 70
    32
  0
VERTEX
  8
T30SSILL
 62
4
 10
3109.828
 20
-3963.639
 30
2182.732
 70
    32
  0
VERTEX
  8
T30SSILL
 62
4
 10
3065.349
 20
-3995.476
 30
2182.732
 70
    32
  0
VERTEX
  8
T30SSILL
 62
4
 10
3060.674
 20
-4000.641
 30
2182.732
 70
    32
  0
VERTEX
  8
T30SSILL
 62
4
 10
3057.903
 20
-4009.912
 30
2182.732
 70
    32
  0
VERTEX
  8
T30SSILL
 62
4
 10
3040.454
 20
-4111.364
 30
2182.732
 70
    32
  0
VERTEX
  8
T30SSILL
 62
4
 10
2952.050
 20
-4174.415
 30
2182.732
 70
    32
  0
VERTEX
  8
T30SSILL
 62
4
 10
2900.666
 20
-3901.081
 30
2182.733
 70
    32
  0
VERTEX
  8
T30SSILL
 62
4
 10
3027.373
 20
-3761.231
 30
2182.733
 70
    32
  0
VERTEX
  8
T30SSILL
 62
4
 10
3031.291
 20
-3761.913
 30
2182.733
 70
    32
  0
VERTEX
  8
T30SSILL
 62
4
 10
3032.516
 20
-3767.698
 30
2182.733
 70
    32
  0
VERTEX
  8
T30SSILL
 62
4
 10
3038.864
 20
-3769.015
 30
2182.733
 70
    32
  0
VERTEX
  8
T30SSILL
 62
4
 10
3046.622
 20
-3776.731
 30
2182.733
 70
    32
  0
VERTEX
  8
T30SSILL
 62
4
 10
3048.020
 20
-3776.096
 30
2182.733
 70
    32
  0
VERTEX
  8
T30SSILL
 62
4
 10
3050.950
 20
-3771.923
 30
2182.733
 70
    32
  0
VERTEX
  8
T30SSILL
 62
4
 10
3051.106
 20
-3770.514
 30
2182.733
 70
    32
  0
VERTEX
  8
T30SSILL
 62
4
 10
3048.942
 20
-3766.676
 30
2182.733
 70
    32
  0
VERTEX
  8
T30SSILL
 62
4
 10
3050.960
 20
-3760.141
 30
2182.733
 70
    32
  0
VERTEX
  8
T30SSILL
 62
4
 10
3041.759
 20
-3749.808
 30
2182.733
 70
    32
  0
VERTEX
  8
T30SSILL
 62
4
 10
3040.255
 20
-3749.126
 30
2182.733
 70
    32
  0
VERTEX
  8
T30SSILL
 62
4
 10
3039.827
 20
-3747.512
 30
2182.733
 70
    32
  0
VERTEX
  8
T30SSILL
 62
4
 10
3962.526
 20
-2728.428
 30
2182.736
 70
    32
  0
VERTEX
  8
T30SSILL
 62
4
 10
3942.217
 20
-2590.570
 30
2182.736
 70
    32
  0
VERTEX
  8
T30SSILL
 62
4
 10
3977.872
 20
-2562.680
 30
2182.736
 70
    32
  0
VERTEX
  8
T30SSILL
 62
4
 10
3981.895
 20
-2561.126
 30
2182.736
 70
    32
  0
VERTEX
  8
T30SSILL
 62
4
 10
4000.960
 20
-2547.655
 30
2182.736
 70
    32
  0
VERTEX
  8
T30SSILL
 62
4
 10
3960.086
 20
-2495.042
 30
2182.736
 70
    32
  0
VERTEX
  8
T30SSILL
 62
4
 10
3928.470
 20
-2499.544
 30
2182.736
 70
    32
  0
VERTEX
  8
T30SSILL
 62
4
 10
3925.568
 20
-2480.154
 30
2182.736
 70
    32
  0
VERTEX
  8
T30SSILL
 62
4
 10
3924.061
 20
-2479.385
 30
2182.736
 70
    32
  0
VERTEX
  8
T30SSILL
 62
4
 10
3910.189
 20
-2390.669
 30
2182.736
 70
    32
  0
VERTEX
  8
T30SSILL
 62
4
 10
3902.121
 20
-2392.282
 30
2182.736
 70
    32
  0
VERTEX
  8
T30SSILL
 62
4
 10
3935.994
 20
-2611.656
 30
2182.737
 70
    32
  0
VERTEX
  8
T30SSILL
 62
4
 10
3953.894
 20
-2727.586
 30
2182.737
 70
    32
  0
VERTEX
  8
T30SSILL
 62
4
 10
3778.981
 20
-2921.784
 30
2182.737
 70
    32
  0
VERTEX
  8
T30SSILL
 62
4
 10
3032.541
 20
-3744.920
 30
2182.739
 70
    32
  0
VERTEX
  8
T30SSILL
 62
4
 10
3025.864
 20
-3744.845
 30
2182.739
 70
    32
  0
VERTEX
  8
T30SSILL
 62
4
 10
3012.708
 20
-3728.413
 30
2182.740
 70
    32
  0
VERTEX
  8
T30SSILL
 62
4
 10
3008.714
 20
-3731.986
 30
2182.740
 70
    32
  0
VERTEX
  8
T30SSILL
 62
4
 10
3013.229
 20
-3740.450
 30
2182.740
 70
    32
  0
VERTEX
  8
T30SSILL
 62
4
 10
3011.598
 20
-3743.199
 30
2182.740
 70
    32
  0
VERTEX
  8
T30SSILL
 62
4
 10
3019.658
 20
-3759.138
 30
2182.740
 70
    32
  0
VERTEX
  8
T30SSILL
 62
4
 10
2991.947
 20
-3789.721
 30
2182.740
 70
    32
  0
VERTEX
  8
T30SSILL
 62
4
 10
2978.430
 20
-3791.670
 30
2182.740
 70
    32
  0
VERTEX
  8
T30SSILL
 62
4
 10
2971.466
 20
-3796.603
 30
2182.740
 70
    32
  0
VERTEX
  8
T30SSILL
 62
4
 10
2975.011
 20
-3808.412
 30
2182.740
 70
    32
  0
VERTEX
  8
T30SSILL
 62
4
 10
2899.393
 20
-3891.867
 30
2182.740
 70
    32
  0
VERTEX
  8
T30SSILL
 62
4
 10
2890.820
 20
-3844.951
 30
2182.740
 70
    32
  0
VERTEX
  8
T30SSILL
 62
4
 10
2894.016
 20
-3840.861
 30
2182.740
 70
    32
  0
VERTEX
  8
T30SSILL
 62
4
 10
2886.377
 20
-3829.100
 30
2182.740
 70
    32
  0
VERTEX
  8
T30SSILL
 62
4
 10
2881.507
 20
-3814.134
 30
2182.740
 70
    32
  0
VERTEX
  8
T30SSILL
 62
4
 10
2877.108
 20
-3807.690
 30
2182.740
 70
    32
  0
VERTEX
  8
T30SSILL
 62
4
 10
2865.897
 20
-3798.176
 30
2182.740
 70
    32
  0
VERTEX
  8
T30SSILL
 62
4
 10
2792.844
 20
-3696.021
 30
2182.740
 70
    32
  0
VERTEX
  8
T30SSILL
 62
4
 10
2524.977
 20
-3321.006
 30
2182.741
 70
    32
  0
VERTEX
  8
T30SSILL
 62
4
 10
1961.219
 20
-2788.888
 30
2182.743
 70
    32
  0
VERTEX
  8
T30SSILL
 62
4
 10
1967.665
 20
-2780.609
 30
2182.743
 70
    32
  0
VERTEX
  8
T30SSILL
 62
4
 10
1955.626
 20
-2721.178
 30
2182.743
 70
    32
  0
VERTEX
  8
T30SSILL
 62
4
 10
1918.703
 20
-2673.928
 30
2182.743
 70
    32
  0
VERTEX
  8
T30SSILL
 62
4
 10
1913.711
 20
-2678.185
 30
2182.743
 70
    32
  0
VERTEX
  8
T30SSILL
 62
4
 10
1907.238
 20
-2669.151
 30
2182.743
 70
    32
  0
VERTEX
  8
T30SSILL
 62
4
 10
1866.335
 20
-2699.329
 30
2182.743
 70
    32
  0
VERTEX
  8
T30SSILL
 62
4
 10
1847.643
 20
-2681.686
 30
2182.743
 70
    32
  0
VERTEX
  8
T30SSILL
 62
4
 10
1840.791
 20
-2688.276
 30
2182.743
 70
    32
  0
VERTEX
  8
T30SSILL
 62
4
 10
1870.334
 20
-2716.025
 30
2182.743
 70
    32
  0
VERTEX
  8
T30SSILL
 62
4
 10
1846.243
 20
-2742.330
 30
2182.743
 70
    32
  0
VERTEX
  8
T30SSILL
 62
4
 10
1851.448
 20
-2747.266
 30
2182.743
 70
    32
  0
VERTEX
  8
T30SSILL
 62
4
 10
1855.603
 20
-2742.902
 30
2182.743
 70
    32
  0
VERTEX
  8
T30SSILL
 62
4
 10
1861.471
 20
-2748.669
 30
2182.743
 70
    32
  0
VERTEX
  8
T30SSILL
 62
4
 10
1872.844
 20
-2738.109
 30
2182.743
 70
    32
  0
VERTEX
  8
T30SSILL
 62
4
 10
1866.244
 20
-2731.725
 30
2182.743
 70
    32
  0
VERTEX
  8
T30SSILL
 62
4
 10
1876.066
 20
-2721.409
 30
2182.743
 70
    32
  0
VERTEX
  8
T30SSILL
 62
4
 10
2519.492
 20
-3325.760
 30
2182.745
 70
    32
  0
VERTEX
  8
T30SSILL
 62
4
 10
2641.693
 20
-3497.567
 30
2182.745
 70
    32
  0
VERTEX
  8
T30SSILL
 62
4
 10
2780.686
 20
-3690.794
 30
2182.746
 70
    32
  0
VERTEX
  8
T30SSILL
 62
4
 10
2780.466
 20
-3693.874
 30
2182.746
 70
    32
  0
VERTEX
  8
T30SSILL
 62
4
 10
2818.667
 20
-3746.968
 30
2182.746
 70
    32
  0
VERTEX
  8
T30SSILL
 62
4
 10
2838.875
 20
-3852.275
 30
2182.746
 70
    32
  0
VERTEX
  8
T30SSILL
 62
4
 10
2884.795
 20
-3985.355
 30
2182.746
 70
    32
  0
VERTEX
  8
T30SSILL
 62
4
 10
2900.284
 20
-3998.941
 30
2182.746
 70
    32
  0
VERTEX
  8
T30SSILL
 62
4
 10
2892.620
 20
-4004.148
 30
2182.746
 70
    32
  0
VERTEX
  8
T30SSILL
 62
4
 10
2892.728
 20
-4005.553
 30
2182.746
 70
    32
  0
VERTEX
  8
T30SSILL
 62
4
 10
2897.259
 20
-4008.918
 30
2182.746
 70
    32
  0
VERTEX
  8
T30SSILL
 62
4
 10
2898.256
 20
-4011.015
 30
2182.746
 70
    32
  0
VERTEX
  8
T30SSILL
 62
4
 10
2904.342
 20
-4006.181
 30
2182.746
 70
    32
  0
VERTEX
  8
T30SSILL
 62
4
 10
2913.144
 20
-4006.849
 30
2182.746
 70
    32
  0
VERTEX
  8
T30SSILL
 62
4
 10
2997.085
 20
-4449.048
 30
2182.747
 70
    32
  0
VERTEX
  8
T30SSILL
 62
4
 10
3019.080
 20
-4570.676
 30
2182.747
 70
    32
  0
VERTEX
  8
T30SSILL
 62
4
 10
3016.346
 20
-4571.897
 30
2182.747
 70
    32
  0
VERTEX
  8
T30SSILL
 62
4
 10
2992.654
 20
-4575.972
 30
2182.747
 70
    32
  0
VERTEX
  8
T30SSILL
 62
4
 10
2986.622
 20
-4572.547
 30
2182.747
 70
    32
  0
VERTEX
  8
T30SSILL
 62
4
 10
2943.821
 20
-4516.052
 30
2182.747
 70
    32
  0
VERTEX
  8
T30SSILL
 62
4
 10
2948.707
 20
-4512.567
 30
2182.747
 70
    32
  0
VERTEX
  8
T30SSILL
 62
4
 10
2937.870
 20
-4498.188
 30
2182.748
 70
    32
  0
VERTEX
  8
T30SSILL
 62
4
 10
2932.983
 20
-4501.673
 30
2182.748
 70
    32
  0
VERTEX
  8
T30SSILL
 62
4
 10
2929.371
 20
-4496.880
 30
2182.748
 70
    32
  0
VERTEX
  8
T30SSILL
 62
4
 10
2924.550
 20
-4500.318
 30
2182.748
 70
    32
  0
VERTEX
  8
T30SSILL
 62
4
 10
2931.749
 20
-4509.923
 30
2182.748
 70
    32
  0
VERTEX
  8
T30SSILL
 62
4
 10
2926.863
 20
-4513.408
 30
2182.748
 70
    32
  0
VERTEX
  8
T30SSILL
 62
4
 10
2928.045
 20
-4521.175
 30
2182.748
 70
    32
  0
VERTEX
  8
T30SSILL
 62
4
 10
2933.820
 20
-4528.436
 30
2182.748
 70
    32
  0
VERTEX
  8
T30SSILL
 62
4
 10
2939.822
 20
-4542.044
 30
2182.748
 70
    32
  0
VERTEX
  8
T30SSILL
 62
4
 10
2939.897
 20
-4559.495
 30
2182.748
 70
    32
  0
VERTEX
  8
T30SSILL
 62
4
 10
2945.939
 20
-4566.317
 30
2182.748
 70
    32
  0
VERTEX
  8
T30SSILL
 62
4
 10
2949.923
 20
-4563.167
 30
2182.748
 70
    32
  0
VERTEX
  8
T30SSILL
 62
4
 10
2952.848
 20
-4560.364
 30
2182.748
 70
    32
  0
VERTEX
  8
T30SSILL
 62
4
 10
2953.568
 20
-4557.900
 30
2182.748
 70
    32
  0
VERTEX
  8
T30SSILL
 62
4
 10
2953.524
 20
-4550.232
 30
2182.748
 70
    32
  0
VERTEX
  8
T30SSILL
 62
4
 10
2952.059
 20
-4547.026
 30
2182.748
 70
    32
  0
VERTEX
  8
T30SSILL
 62
4
 10
2956.945
 20
-4543.541
 30
2182.748
 70
    32
  0
VERTEX
  8
T30SSILL
 62
4
 10
2982.554
 20
-4577.709
 30
2182.748
 70
    32
  0
VERTEX
  8
T30SSILL
 62
4
 10
2931.231
 20
-4586.536
 30
2182.748
 70
    32
  0
VERTEX
  8
T30SSILL
 62
4
 10
2926.608
 20
-4586.476
 30
2182.748
 70
    32
  0
VERTEX
  8
T30SSILL
 62
4
 10
2921.329
 20
-4584.859
 30
2182.748
 70
    32
  0
VERTEX
  8
T30SSILL
 62
4
 10
2919.323
 20
-4581.234
 30
2182.748
 70
    32
  0
VERTEX
  8
T30SSILL
 62
4
 10
2918.641
 20
-4577.263
 30
2182.748
 70
    32
  0
VERTEX
  8
T30SSILL
 62
4
 10
2916.467
 20
-4572.227
 30
2182.748
 70
    32
  0
VERTEX
  8
T30SSILL
 62
4
 10
2911.011
 20
-4570.785
 30
2182.748
 70
    32
  0
VERTEX
  8
T30SSILL
 62
4
 10
2909.882
 20
-4568.085
 30
2182.748
 70
    32
  0
VERTEX
  8
T30SSILL
 62
4
 10
2914.173
 20
-4557.495
 30
2182.748
 70
    32
  0
VERTEX
  8
T30SSILL
 62
4
 10
2913.701
 20
-4547.709
 30
2182.748
 70
    32
  0
VERTEX
  8
T30SSILL
 62
4
 10
2919.352
 20
-4530.731
 30
2182.748
 70
    32
  0
VERTEX
  8
T30SSILL
 62
4
 10
2912.555
 20
-4517.471
 30
2182.748
 70
    32
  0
VERTEX
  8
T30SSILL
 62
4
 10
2909.757
 20
-4513.577
 30
2182.748
 70
    32
  0
VERTEX
  8
T30SSILL
 62
4
 10
2908.979
 20
-4511.016
 30
2182.748
 70
    32
  0
VERTEX
  8
T30SSILL
 62
4
 10
2904.502
 20
-4507.817
 30
2182.748
 70
    32
  0
VERTEX
  8
T30SSILL
 62
4
 10
2903.372
 20
-4505.167
 30
2182.748
 70
    32
  0
VERTEX
  8
T30SSILL
 62
4
 10
2902.443
 20
-4498.199
 30
2182.748
 70
    32
  0
VERTEX
  8
T30SSILL
 62
4
 10
2902.665
 20
-4490.356
 30
2182.748
 70
    32
  0
VERTEX
  8
T30SSILL
 62
4
 10
2899.686
 20
-4487.254
 30
2182.748
 70
    32
  0
VERTEX
  8
T30SSILL
 62
4
 10
2890.628
 20
-4483.940
 30
2182.748
 70
    32
  0
VERTEX
  8
T30SSILL
 62
4
 10
2887.117
 20
-4481.363
 30
2182.748
 70
    32
  0
VERTEX
  8
T30SSILL
 62
4
 10
2885.401
 20
-4488.404
 30
2182.748
 70
    32
  0
VERTEX
  8
T30SSILL
 62
4
 10
2879.965
 20
-4498.773
 30
2182.748
 70
    32
  0
VERTEX
  8
T30SSILL
 62
4
 10
2873.716
 20
-4497.326
 30
2182.748
 70
    32
  0
VERTEX
  8
T30SSILL
 62
4
 10
2832.694
 20
-4407.352
 30
2182.748
 70
    32
  0
VERTEX
  8
T30SSILL
 62
4
 10
2826.010
 20
-4410.499
 30
2182.748
 70
    32
  0
VERTEX
  8
T30SSILL
 62
4
 10
2899.836
 20
-4567.547
 30
2182.749
 70
    32
  0
VERTEX
  8
T30SSILL
 62
4
 10
2903.155
 20
-4572.855
 30
2182.749
 70
    32
  0
VERTEX
  8
T30SSILL
 62
4
 10
2906.368
 20
-4581.070
 30
2182.749
 70
    32
  0
VERTEX
  8
T30SSILL
 62
4
 10
2908.502
 20
-4590.445
 30
2182.749
 70
    32
  0
VERTEX
  8
T30SSILL
 62
4
 10
2668.305
 20
-4631.755
 30
2182.749
 70
    32
  0
VERTEX
  8
T30SSILL
 62
4
 10
2257.499
 20
-4700.673
 30
2182.750
 70
    32
  0
VERTEX
  8
T30SSILL
 62
4
 10
2249.287
 20
-4697.178
 30
2182.750
 70
    32
  0
VERTEX
  8
T30SSILL
 62
4
 10
2232.406
 20
-4682.076
 30
2182.750
 70
    32
  0
VERTEX
  8
T30SSILL
 62
4
 10
2223.402
 20
-4670.248
 30
2182.750
 70
    32
  0
VERTEX
  8
T30SSILL
 62
4
 10
2215.476
 20
-4656.982
 30
2182.750
 70
    32
  0
VERTEX
  8
T30SSILL
 62
4
 10
2206.699
 20
-4644.346
 30
2182.750
 70
    32
  0
VERTEX
  8
T30SSILL
 62
4
 10
2186.022
 20
-4617.379
 30
2182.750
 70
    32
  0
VERTEX
  8
T30SSILL
 62
4
 10
2199.771
 20
-4607.838
 30
2182.750
 70
    32
  0
VERTEX
  8
T30SSILL
 62
4
 10
2196.503
 20
-4602.898
 30
2182.750
 70
    32
  0
VERTEX
  8
T30SSILL
 62
4
 10
2180.868
 20
-4613.681
 30
2182.750
 70
    32
  0
VERTEX
  8
T30SSILL
 62
4
 10
2117.852
 20
-4526.071
 30
2182.750
 70
    32
  0
VERTEX
  8
T30SSILL
 62
4
 10
2128.425
 20
-4484.620
 30
2182.750
 70
    32
  0
VERTEX
  8
T30SSILL
 62
4
 10
2162.341
 20
-4442.490
 30
2182.751
 70
    32
  0
VERTEX
  8
T30SSILL
 62
4
 10
2529.693
 20
-3967.714
 30
2182.752
 70
    32
  0
VERTEX
  8
T30SSILL
 62
4
 10
2523.779
 20
-3963.712
 30
2182.752
 70
    32
  0
VERTEX
  8
T30SSILL
 62
4
 10
2478.899
 20
-4021.806
 30
2182.752
 70
    32
  0
VERTEX
  8
T30SSILL
 62
4
 10
2356.385
 20
-3879.746
 30
2182.752
 70
    32
  0
VERTEX
  8
T30SSILL
 62
4
 10
2350.526
 20
-3884.279
 30
2182.752
 70
    32
  0
VERTEX
  8
T30SSILL
 62
4
 10
2473.678
 20
-4028.564
 30
2182.752
 70
    32
  0
VERTEX
  8
T30SSILL
 62
4
 10
2221.386
 20
-4355.138
 30
2182.753
 70
    32
  0
VERTEX
  8
T30SSILL
 62
4
 10
2148.555
 20
-4256.131
 30
2182.753
 70
    32
  0
VERTEX
  8
T30SSILL
 62
4
 10
2001.111
 20
-4045.952
 30
2182.754
 70
    32
  0
VERTEX
  8
T30SSILL
 62
4
 10
1994.910
 20
-4050.076
 30
2182.754
 70
    32
  0
VERTEX
  8
T30SSILL
 62
4
 10
2144.902
 20
-4263.653
 30
2182.754
 70
    32
  0
VERTEX
  8
T30SSILL
 62
4
 10
2211.567
 20
-4354.111
 30
2182.755
 70
    32
  0
VERTEX
  8
T30SSILL
 62
4
 10
2209.445
 20
-4370.595
 30
2182.755
 70
    32
  0
VERTEX
  8
T30SSILL
 62
4
 10
2122.884
 20
-4481.789
 30
2182.755
 70
    32
  0
VERTEX
  8
T30SSILL
 62
4
 10
2113.112
 20
-4519.368
 30
2182.755
 70
    32
  0
VERTEX
  8
T30SSILL
 62
4
 10
2081.679
 20
-4479.053
 30
2182.755
 70
    32
  0
VERTEX
  8
T30SSILL
 62
4
 10
2076.240
 20
-4469.794
 30
2182.755
 70
    32
  0
VERTEX
  8
T30SSILL
 62
4
 10
2008.186
 20
-4386.246
 30
2182.755
 70
    32
  0
VERTEX
  8
T30SSILL
 62
4
 10
1934.955
 20
-4294.321
 30
2182.755
 70
    32
  0
VERTEX
  8
T30SSILL
 62
4
 10
1905.536
 20
-4258.942
 30
2182.756
 70
    32
  0
VERTEX
  8
T30SSILL
 62
4
 10
1570.926
 20
-3841.688
 30
2182.756
 70
    32
  0
VERTEX
  8
T30SSILL
 62
4
 10
892.354
 20
-2997.773
 30
2182.758
 70
    32
  0
VERTEX
  8
T30SSILL
 62
4
 10
882.856
 20
-2990.556
 30
2182.758
 70
    32
  0
VERTEX
  8
T30SSILL
 62
4
 10
877.963
 20
-2988.895
 30
2182.758
 70
    32
  0
VERTEX
  8
T30SSILL
 62
4
 10
865.569
 20
-2989.404
 30
2182.758
 70
    32
  0
VERTEX
  8
T30SSILL
 62
4
 10
857.895
 20
-2991.479
 30
2182.758
 70
    32
  0
VERTEX
  8
T30SSILL
 62
4
 10
852.730
 20
-2994.397
 30
2182.758
 70
    32
  0
VERTEX
  8
T30SSILL
 62
4
 10
765.996
 20
-3057.477
 30
2182.759
 70
    32
  0
VERTEX
  8
T30SSILL
 62
4
 10
708.362
 20
-3099.393
 30
2182.759
 70
    32
  0
VERTEX
  8
T30SSILL
 62
4
 10
702.294
 20
-3101.464
 30
2182.759
 70
    32
  0
VERTEX
  8
T30SSILL
 62
4
 10
700.144
 20
-3098.466
 30
2182.759
 70
    32
  0
VERTEX
  8
T30SSILL
 62
4
 10
695.694
 20
-3101.844
 30
2182.759
 70
    32
  0
VERTEX
  8
T30SSILL
 62
4
 10
690.958
 20
-3100.890
 30
2182.759
 70
    32
  0
VERTEX
  8
T30SSILL
 62
4
 10
686.448
 20
-3097.519
 30
2182.759
 70
    32
  0
VERTEX
  8
T30SSILL
 62
4
 10
647.171
 20
-3052.304
 30
2182.759
 70
    32
  0
VERTEX
  8
T30SSILL
 62
4
 10
643.640
 20
-3041.635
 30
2182.759
 70
    32
  0
VERTEX
  8
T30SSILL
 62
4
 10
643.919
 20
-3033.401
 30
2182.759
 70
    32
  0
VERTEX
  8
T30SSILL
 62
4
 10
646.084
 20
-3024.467
 30
2182.759
 70
    32
  0
VERTEX
  8
T30SSILL
 62
4
 10
650.213
 20
-3018.573
 30
2182.759
 70
    32
  0
VERTEX
  8
T30SSILL
 62
4
 10
653.488
 20
-3015.572
 30
2182.759
 70
    32
  0
VERTEX
  8
T30SSILL
 62
4
 10
711.638
 20
-2975.583
 30
2182.759
 70
    32
  0
VERTEX
  8
T30SSILL
 62
4
 10
706.845
 20
-2968.601
 30
2182.759
 70
    32
  0
VERTEX
  8
T30SSILL
 62
4
 10
650.008
 20
-3009.058
 30
2182.759
 70
    32
  0
VERTEX
  8
T30SSILL
 62
4
 10
642.757
 20
-3017.410
 30
2182.759
 70
    32
  0
VERTEX
  8
T30SSILL
 62
4
 10
638.254
 20
-3025.960
 30
2182.759
 70
    32
  0
VERTEX
  8
T30SSILL
 62
4
 10
636.852
 20
-3032.176
 30
2182.759
 70
    32
  0
VERTEX
  8
T30SSILL
 62
4
 10
636.620
 20
-3040.152
 30
2182.759
 70
    32
  0
VERTEX
  8
T30SSILL
 62
4
 10
565.251
 20
-2957.956
 30
2182.760
 70
    32
  0
VERTEX
  8
T30SSILL
 62
4
 10
501.084
 20
-2881.368
 30
2182.760
 70
    32
  0
VERTEX
  8
T30SSILL
 62
4
 10
489.663
 20
-2872.741
 30
2182.760
 70
    32
  0
VERTEX
  8
T30SSILL
 62
4
 10
480.782
 20
-2870.642
 30
2182.760
 70
    32
  0
VERTEX
  8
T30SSILL
 62
4
 10
470.769
 20
-2872.288
 30
2182.760
 70
    32
  0
VERTEX
  8
T30SSILL
 62
4
 10
462.821
 20
-2876.538
 30
2182.760
 70
    32
  0
VERTEX
  8
T30SSILL
 62
4
 10
376.399
 20
-2938.074
 30
2182.760
 70
    32
  0
VERTEX
  8
T30SSILL
 62
4
 10
380.886
 20
-2943.515
 30
2182.760
 70
    32
  0
VERTEX
  8
T30SSILL
 62
4
 10
467.893
 20
-2881.654
 30
2182.760
 70
    32
  0
VERTEX
  8
T30SSILL
 62
4
 10
481.184
 20
-2878.513
 30
2182.760
 70
    32
  0
VERTEX
  8
T30SSILL
 62
4
 10
492.809
 20
-2882.786
 30
2182.760
 70
    32
  0
VERTEX
  8
T30SSILL
 62
4
 10
557.516
 20
-2960.792
 30
2182.760
 70
    32
  0
VERTEX
  8
T30SSILL
 62
4
 10
591.778
 20
-2999.991
 30
2182.761
 70
    32
  0
VERTEX
  8
T30SSILL
 62
4
 10
486.954
 20
-3073.951
 30
2182.761
 70
    32
  0
VERTEX
  8
T30SSILL
 62
4
 10
492.020
 20
-3079.651
 30
2182.761
 70
    32
  0
VERTEX
  8
T30SSILL
 62
4
 10
590.923
 20
-3009.770
 30
2182.761
 70
    32
  0
VERTEX
  8
T30SSILL
 62
4
 10
598.491
 20
-3010.635
 30
2182.761
 70
    32
  0
VERTEX
  8
T30SSILL
 62
4
 10
604.363
 20
-3014.389
 30
2182.761
 70
    32
  0
VERTEX
  8
T30SSILL
 62
4
 10
647.136
 20
-3063.325
 30
2182.761
 70
    32
  0
VERTEX
  8
T30SSILL
 62
4
 10
641.479
 20
-3062.074
 30
2182.761
 70
    32
  0
VERTEX
  8
T30SSILL
 62
4
 10
635.687
 20
-3062.322
 30
2182.761
 70
    32
  0
VERTEX
  8
T30SSILL
 62
4
 10
632.788
 20
-3063.425
 30
2182.761
 70
    32
  0
VERTEX
  8
T30SSILL
 62
4
 10
628.977
 20
-3065.074
 30
2182.761
 70
    32
  0
VERTEX
  8
T30SSILL
 62
4
 10
596.931
 20
-3088.327
 30
2182.761
 70
    32
  0
VERTEX
  8
T30SSILL
 62
4
 10
588.784
 20
-3087.727
 30
2182.761
 70
    32
  0
VERTEX
  8
T30SSILL
 62
4
 10
587.079
 20
-3086.562
 30
2182.761
 70
    32
  0
VERTEX
  8
T30SSILL
 62
4
 10
555.094
 20
-3043.825
 30
2182.761
 70
    32
  0
VERTEX
  8
T30SSILL
 62
4
 10
549.685
 20
-3047.610
 30
2182.761
 70
    32
  0
VERTEX
  8
T30SSILL
 62
4
 10
585.193
 20
-3096.810
 30
2182.761
 70
    32
  0
VERTEX
  8
T30SSILL
 62
4
 10
469.510
 20
-3180.414
 30
2182.762
 70
    32
  0
VERTEX
  8
T30SSILL
 62
4
 10
391.762
 20
-3236.602
 30
2182.762
 70
    32
  0
VERTEX
  8
T30SSILL
 62
4
 10
386.238
 20
-3235.789
 30
2182.762
 70
    32
  0
VERTEX
  8
T30SSILL
 62
4
 10
382.488
 20
-3233.768
 30
2182.762
 70
    32
  0
VERTEX
  8
T30SSILL
 62
4
 10
362.140
 20
-3205.486
 30
2182.762
 70
    32
  0
VERTEX
  8
T30SSILL
 62
4
 10
356.699
 20
-3209.558
 30
2182.762
 70
    32
  0
VERTEX
  8
T30SSILL
 62
4
 10
381.452
 20
-3244.053
 30
2182.762
 70
    32
  0
VERTEX
  8
T30SSILL
 62
4
 10
306.557
 20
-3298.487
 30
2182.762
 70
    32
  0
VERTEX
  8
T30SSILL
 62
4
 10
301.589
 20
-3305.634
 30
2182.762
 70
    32
  0
VERTEX
  8
T30SSILL
 62
4
 10
299.750
 20
-3313.358
 30
2182.762
 70
    32
  0
VERTEX
  8
T30SSILL
 62
4
 10
299.621
 20
-3320.289
 30
2182.762
 70
    32
  0
VERTEX
  8
T30SSILL
 62
4
 10
301.781
 20
-3328.292
 30
2182.762
 70
    32
  0
VERTEX
  8
T30SSILL
 62
4
 10
305.858
 20
-3335.788
 30
2182.762
 70
    32
  0
VERTEX
  8
T30SSILL
 62
4
 10
510.765
 20
-3702.270
 30
2182.763
 70
    32
  0
VERTEX
  8
T30SSILL
 62
4
 10
607.134
 20
-3874.317
 30
2182.763
 70
    32
  0
VERTEX
  8
T30SSILL
 62
4
 10
783.763
 20
-4190.521
 30
2182.764
 70
    32
  0
VERTEX
  8
T30SSILL
 62
4
 10
790.769
 20
-4199.601
 30
2182.764
 70
    32
  0
VERTEX
  8
T30SSILL
 62
4
 10
799.045
 20
-4207.577
 30
2182.764
 70
    32
  0
VERTEX
  8
T30SSILL
 62
4
 10
812.173
 20
-4214.951
 30
2182.764
 70
    32
  0
VERTEX
  8
T30SSILL
 62
4
 10
818.873
 20
-4217.144
 30
2182.764
 70
    32
  0
VERTEX
  8
T30SSILL
 62
4
 10
833.096
 20
-4217.941
 30
2182.764
 70
    32
  0
VERTEX
  8
T30SSILL
 62
4
 10
839.659
 20
-4217.325
 30
2182.764
 70
    32
  0
VERTEX
  8
T30SSILL
 62
4
 10
854.148
 20
-4213.740
 30
2182.764
 70
    32
  0
VERTEX
  8
T30SSILL
 62
4
 10
860.471
 20
-4210.172
 30
2182.764
 70
    32
  0
VERTEX
  8
T30SSILL
 62
4
 10
1344.464
 20
-3863.496
 30
2182.765
 70
    32
  0
VERTEX
  8
T30SSILL
 62
4
 10
1387.995
 20
-3913.591
 30
2182.765
 70
    32
  0
VERTEX
  8
T30SSILL
 62
4
 10
1377.901
 20
-3923.572
 30
2182.765
 70
    32
  0
VERTEX
  8
T30SSILL
 62
4
 10
1382.704
 20
-3928.564
 30
2182.765
 70
    32
  0
VERTEX
  8
T30SSILL
 62
4
 10
1393.116
 20
-3919.485
 30
2182.765
 70
    32
  0
VERTEX
  8
T30SSILL
 62
4
 10
1583.281
 20
-4138.327
 30
2182.766
 70
    32
  0
VERTEX
  8
T30SSILL
 62
4
 10
1579.923
 20
-4141.314
 30
2182.766
 70
    32
  0
VERTEX
  8
T30SSILL
 62
4
 10
1587.627
 20
-4150.521
 30
2182.766
 70
    32
  0
VERTEX
  8
T30SSILL
 62
4
 10
1591.153
 20
-4147.385
 30
2182.766
 70
    32
  0
VERTEX
  8
T30SSILL
 62
4
 10
1604.954
 20
-4163.268
 30
2182.766
 70
    32
  0
VERTEX
  8
T30SSILL
 62
4
 10
1598.668
 20
-4166.122
 30
2182.766
 70
    32
  0
VERTEX
  8
T30SSILL
 62
4
 10
1598.261
 20
-4167.545
 30
2182.766
 70
    32
  0
VERTEX
  8
T30SSILL
 62
4
 10
1614.756
 20
-4195.496
 30
2182.766
 70
    32
  0
VERTEX
  8
T30SSILL
 62
4
 10
1622.060
 20
-4205.211
 30
2182.766
 70
    32
  0
VERTEX
  8
T30SSILL
 62
4
 10
1627.358
 20
-4219.567
 30
2182.766
 70
    32
  0
VERTEX
  8
T30SSILL
 62
4
 10
1633.937
 20
-4228.505
 30
2182.766
 70
    32
  0
VERTEX
  8
T30SSILL
 62
4
 10
1645.099
 20
-4240.686
 30
2182.766
 70
    32
  0
VERTEX
  8
T30SSILL
 62
4
 10
1661.679
 20
-4250.439
 30
2182.766
 70
    32
  0
VERTEX
  8
T30SSILL
 62
4
 10
1668.273
 20
-4256.372
 30
2182.766
 70
    32
  0
VERTEX
  8
T30SSILL
 62
4
 10
1670.924
 20
-4263.639
 30
2182.766
 70
    32
  0
VERTEX
  8
T30SSILL
 62
4
 10
1676.761
 20
-4267.559
 30
2182.766
 70
    32
  0
VERTEX
  8
T30SSILL
 62
4
 10
1683.959
 20
-4269.326
 30
2182.766
 70
    32
  0
VERTEX
  8
T30SSILL
 62
4
 10
1686.660
 20
-4271.380
 30
2182.766
 70
    32
  0
VERTEX
  8
T30SSILL
 62
4
 10
1694.928
 20
-4280.806
 30
2182.766
 70
    32
  0
VERTEX
  8
T30SSILL
 62
4
 10
1714.353
 20
-4298.527
 30
2182.766
 70
    32
  0
VERTEX
  8
T30SSILL
 62
4
 10
1716.739
 20
-4298.557
 30
2182.766
 70
    32
  0
VERTEX
  8
T30SSILL
 62
4
 10
1722.886
 20
-4304.325
 30
2182.766
 70
    32
  0
VERTEX
  8
T30SSILL
 62
4
 10
1732.188
 20
-4309.689
 30
2182.766
 70
    32
  0
VERTEX
  8
T30SSILL
 62
4
 10
1924.815
 20
-4530.913
 30
2182.767
 70
    32
  0
VERTEX
  8
T30SSILL
 62
4
 10
1862.529
 20
-4581.756
 30
2182.767
 70
    32
  0
VERTEX
  8
T30SSILL
 62
4
 10
1866.789
 20
-4587.485
 30
2182.767
 70
    32
  0
VERTEX
  8
T30SSILL
 62
4
 10
1926.734
 20
-4538.842
 30
2182.767
 70
    32
  0
VERTEX
  8
T30SSILL
 62
4
 10
1925.663
 20
-4545.004
 30
2182.767
 70
    32
  0
VERTEX
  8
T30SSILL
 62
4
 10
1926.531
 20
-4550.642
 30
2182.767
 70
    32
  0
VERTEX
  8
T30SSILL
 62
4
 10
1929.940
 20
-4561.481
 30
2182.767
 70
    32
  0
VERTEX
  8
T30SSILL
 62
4
 10
2092.627
 20
-4788.344
 30
2182.768
 70
    32
  0
VERTEX
  8
T30SSILL
 62
4
 10
2089.773
 20
-4790.008
 30
2182.768
 70
    32
  0
VERTEX
  8
T30SSILL
 62
4
 10
2093.898
 20
-4795.918
 30
2182.768
 70
    32
  0
VERTEX
  8
T30SSILL
 62
4
 10
2096.875
 20
-4794.273
 30
2182.768
 70
    32
  0
VERTEX
  8
T30SSILL
 62
4
 10
2143.128
 20
-4858.842
 30
2182.768
 70
    32
  0
VERTEX
  8
T30SSILL
 62
4
 10
2145.591
 20
-4871.943
 30
2182.768
 70
    32
  0
VERTEX
  8
T30SSILL
 62
4
 10
2143.452
 20
-4882.857
 30
2182.768
 70
    32
  0
VERTEX
  8
T30SSILL
 62
4
 10
2136.478
 20
-4890.679
 30
2182.768
 70
    32
  0
VERTEX
  8
T30SSILL
 62
4
 10
2086.996
 20
-4926.053
 30
2182.768
 70
    32
  0
VERTEX
  8
T30SSILL
 62
4
 10
2091.472
 20
-4932.580
 30
2182.768
 70
    32
  0
VERTEX
  8
T30SSILL
 62
4
 10
2141.043
 20
-4896.765
 30
2182.768
 70
    32
  0
VERTEX
  8
T30SSILL
 62
4
 10
2144.308
 20
-4893.603
 30
2182.768
 70
    32
  0
VERTEX
  8
T30SSILL
 62
4
 10
2147.930
 20
-4888.768
 30
2182.768
 70
    32
  0
VERTEX
  8
T30SSILL
 62
4
 10
2150.674
 20
-4882.610
 30
2182.768
 70
    32
  0
VERTEX
  8
T30SSILL
 62
4
 10
2152.407
 20
-4871.795
 30
2182.768
 70
    32
  0
VERTEX
  8
T30SSILL
 62
4
 10
2239.007
 20
-4992.688
 30
2182.769
 70
    32
  0
VERTEX
  8
T30SSILL
 62
4
 10
2233.822
 20
-4996.443
 30
2182.769
 70
    32
  0
VERTEX
  8
T30SSILL
 62
4
 10
2240.700
 20
-5006.278
 30
2182.769
 70
    32
  0
VERTEX
  8
T30SSILL
 62
4
 10
2245.995
 20
-5002.443
 30
2182.769
 70
    32
  0
VERTEX
  8
T30SSILL
 62
4
 10
2256.399
 20
-5016.967
 30
2182.769
 70
    32
  0
VERTEX
  8
T30SSILL
 62
4
 10
2256.723
 20
-5025.332
 30
2182.769
 70
    32
  0
VERTEX
  8
T30SSILL
 62
4
 10
2255.294
 20
-5033.959
 30
2182.769
 70
    32
  0
VERTEX
  8
T30SSILL
 62
4
 10
2252.285
 20
-5040.380
 30
2182.769
 70
    32
  0
VERTEX
  8
T30SSILL
 62
4
 10
2247.870
 20
-5045.654
 30
2182.769
 70
    32
  0
VERTEX
  8
T30SSILL
 62
4
 10
2205.381
 20
-5074.105
 30
2182.769
 70
    32
  0
VERTEX
  8
T30SSILL
 62
4
 10
2209.925
 20
-5080.350
 30
2182.769
 70
    32
  0
VERTEX
  8
T30SSILL
 62
4
 10
2249.703
 20
-5052.703
 30
2182.769
 70
    32
  0
VERTEX
  8
T30SSILL
 62
4
 10
2252.438
 20
-5050.419
 30
2182.769
 70
    32
  0
VERTEX
  8
T30SSILL
 62
4
 10
2260.654
 20
-5039.167
 30
2182.769
 70
    32
  0
VERTEX
  8
T30SSILL
 62
4
 10
2263.042
 20
-5034.329
 30
2182.769
 70
    32
  0
VERTEX
  8
T30SSILL
 62
4
 10
2263.816
 20
-5027.321
 30
2182.769
 70
    32
  0
VERTEX
  8
T30SSILL
 62
4
 10
2274.127
 20
-5041.716
 30
2182.769
 70
    32
  0
VERTEX
  8
T30SSILL
 62
4
 10
2267.964
 20
-5045.925
 30
2182.769
 70
    32
  0
VERTEX
  8
T30SSILL
 62
4
 10
2271.457
 20
-5050.805
 30
2182.769
 70
    32
  0
VERTEX
  8
T30SSILL
 62
4
 10
2277.622
 20
-5046.595
 30
2182.769
 70
    32
  0
VERTEX
  8
T30SSILL
 62
4
 10
2568.085
 20
-5451.852
 30
2182.770
 70
    32
  0
VERTEX
  8
T30SSILL
 62
4
 10
2566.560
 20
-5460.214
 30
2182.770
 70
    32
  0
VERTEX
  8
T30SSILL
 62
4
 10
2568.942
 20
-5465.071
 30
2182.770
 70
    32
  0
VERTEX
  8
T30SSILL
 62
4
 10
2570.649
 20
-5464.781
 30
2182.770
 70
    32
  0
VERTEX
  8
T30SSILL
 62
4
 10
2571.501
 20
-5465.587
 30
2182.770
 70
    32
  0
VERTEX
  8
T30SSILL
 62
4
 10
2574.575
 20
-5464.812
 30
2182.770
 70
    32
  0
VERTEX
  8
T30SSILL
 62
4
 10
2578.796
 20
-5466.754
 30
2182.770
 70
    32
  0
VERTEX
  8
T30SSILL
 62
4
 10
2770.320
 20
-5734.585
 30
2182.771
 70
    32
  0
VERTEX
  8
T30SSILL
 62
4
 10
2771.831
 20
-5737.494
 30
2182.771
 70
    32
  0
VERTEX
  8
T30SSILL
 62
4
 10
2774.111
 20
-5751.104
 30
2182.771
 70
    32
  0
VERTEX
  8
T30SSILL
 62
4
 10
2772.801
 20
-5763.293
 30
2182.771
 70
    32
  0
VERTEX
  8
T30SSILL
 62
4
 10
2654.570
 20
-6136.384
 30
2182.771
 70
    32
  0
VERTEX
  8
T30SSILL
 62
4
 10
2664.477
 20
-6125.989
 30
2182.771
 70
    32
  0
VERTEX
  8
T30SSILL
 62
4
 10
2778.706
 20
-5768.992
 30
2182.772
 70
    32
  0
VERTEX
  8
T30SSILL
 62
4
 10
2781.775
 20
-5756.586
 30
2182.772
 70
    32
  0
VERTEX
  8
T30SSILL
 62
4
 10
2782.491
 20
-5750.504
 30
2182.772
 70
    32
  0
VERTEX
  8
T30SSILL
 62
4
 10
2781.087
 20
-5739.802
 30
2182.772
 70
    32
  0
VERTEX
  8
T30SSILL
 62
4
 10
2778.360
 20
-5732.201
 30
2182.772
 70
    32
  0
VERTEX
  8
T30SSILL
 62
4
 10
2583.535
 20
-5460.918
 30
2182.773
 70
    32
  0
VERTEX
  8
T30SSILL
 62
4
 10
2586.934
 20
-5451.957
 30
2182.773
 70
    32
  0
VERTEX
  8
T30SSILL
 62
4
 10
2590.791
 20
-5449.183
 30
2182.773
 70
    32
  0
VERTEX
  8
T30SSILL
 62
4
 10
2588.479
 20
-5446.497
 30
2182.773
 70
    32
  0
VERTEX
  8
T30SSILL
 62
4
 10
2585.980
 20
-5438.763
 30
2182.773
 70
    32
  0
VERTEX
  8
T30SSILL
 62
4
 10
2579.414
 20
-5443.020
 30
2182.773
 70
    32
  0
VERTEX
  8
T30SSILL
 62
4
 10
2570.303
 20
-5442.675
 30
2182.773
 70
    32
  0
VERTEX
  8
T30SSILL
 62
4
 10
2500.073
 20
-5345.846
 30
2182.773
 70
    32
  0
VERTEX
  8
T30SSILL
 62
4
 10
2324.667
 20
-5099.943
 30
2182.773
 70
    32
  0
VERTEX
  8
T30SSILL
 62
4
 10
2334.041
 20
-5100.976
 30
2182.773
 70
    32
  0
VERTEX
  8
T30SSILL
 62
4
 10
2342.938
 20
-5099.764
 30
2182.773
 70
    32
  0
VERTEX
  8
T30SSILL
 62
4
 10
2348.403
 20
-5097.663
 30
2182.773
 70
    32
  0
VERTEX
  8
T30SSILL
 62
4
 10
2354.400
 20
-5093.802
 30
2182.774
 70
    32
  0
VERTEX
  8
T30SSILL
 62
4
 10
2608.298
 20
-4912.928
 30
2182.774
 70
    32
  0
VERTEX
  8
T30SSILL
 62
4
 10
2611.238
 20
-4914.837
 30
2182.774
 70
    32
  0
VERTEX
  8
T30SSILL
 62
4
 10
2614.849
 20
-4914.229
 30
2182.774
 70
    32
  0
VERTEX
  8
T30SSILL
 62
4
 10
2617.318
 20
-4912.826
 30
2182.774
 70
    32
  0
VERTEX
  8
T30SSILL
 62
4
 10
2622.613
 20
-4907.907
 30
2182.774
 70
    32
  0
VERTEX
  8
T30SSILL
 62
4
 10
2626.699
 20
-4899.819
 30
2182.774
 70
    32
  0
VERTEX
  8
T30SSILL
 62
4
 10
2645.558
 20
-4886.385
 30
2182.774
 70
    32
  0
VERTEX
  8
T30SSILL
 62
4
 10
2641.082
 20
-4879.682
 30
2182.774
 70
    32
  0
VERTEX
  8
T30SSILL
 62
4
 10
2633.200
 20
-4885.326
 30
2182.774
 70
    32
  0
VERTEX
  8
T30SSILL
 62
4
 10
2628.656
 20
-4883.968
 30
2182.774
 70
    32
  0
VERTEX
  8
T30SSILL
 62
4
 10
2627.602
 20
-4882.909
 30
2182.774
 70
    32
  0
VERTEX
  8
T30SSILL
 62
4
 10
2624.280
 20
-4872.247
 30
2182.774
 70
    32
  0
VERTEX
  8
T30SSILL
 62
4
 10
2620.500
 20
-4869.508
 30
2182.774
 70
    32
  0
VERTEX
  8
T30SSILL
 62
4
 10
2613.999
 20
-4862.713
 30
2182.774
 70
    32
  0
VERTEX
  8
T30SSILL
 62
4
 10
2606.169
 20
-4859.525
 30
2182.774
 70
    32
  0
VERTEX
  8
T30SSILL
 62
4
 10
2603.080
 20
-4862.247
 30
2182.774
 70
    32
  0
VERTEX
  8
T30SSILL
 62
4
 10
2596.808
 20
-4871.215
 30
2182.774
 70
    32
  0
VERTEX
  8
T30SSILL
 62
4
 10
2594.150
 20
-4878.254
 30
2182.774
 70
    32
  0
VERTEX
  8
T30SSILL
 62
4
 10
2593.781
 20
-4885.386
 30
2182.774
 70
    32
  0
VERTEX
  8
T30SSILL
 62
4
 10
2599.176
 20
-4909.692
 30
2182.774
 70
    32
  0
VERTEX
  8
T30SSILL
 62
4
 10
2431.276
 20
-5029.931
 30
2182.775
 70
    32
  0
VERTEX
  8
T30SSILL
 62
4
 10
2413.117
 20
-5027.766
 30
2182.775
 70
    32
  0
VERTEX
  8
T30SSILL
 62
4
 10
2410.559
 20
-5026.291
 30
2182.775
 70
    32
  0
VERTEX
  8
T30SSILL
 62
4
 10
2404.727
 20
-5018.746
 30
2182.775
 70
    32
  0
VERTEX
  8
T30SSILL
 62
4
 10
2401.630
 20
-5017.732
 30
2182.775
 70
    32
  0
VERTEX
  8
T30SSILL
 62
4
 10
2397.205
 20
-5018.863
 30
2182.775
 70
    32
  0
VERTEX
  8
T30SSILL
 62
4
 10
2396.377
 20
-5024.476
 30
2182.775
 70
    32
  0
VERTEX
  8
T30SSILL
 62
4
 10
2391.927
 20
-5031.957
 30
2182.775
 70
    32
  0
VERTEX
  8
T30SSILL
 62
4
 10
2401.324
 20
-5039.467
 30
2182.775
 70
    32
  0
VERTEX
  8
T30SSILL
 62
4
 10
2399.056
 20
-5053.005
 30
2182.775
 70
    32
  0
VERTEX
  8
T30SSILL
 62
4
 10
2377.698
 20
-5068.300
 30
2182.775
 70
    32
  0
VERTEX
  8
T30SSILL
 62
4
 10
2374.362
 20
-5063.655
 30
2182.775
 70
    32
  0
VERTEX
  8
T30SSILL
 62
4
 10
2364.555
 20
-5070.048
 30
2182.775
 70
    32
  0
VERTEX
  8
T30SSILL
 62
4
 10
2368.255
 20
-5075.062
 30
2182.775
 70
    32
  0
VERTEX
  8
T30SSILL
 62
4
 10
2347.275
 20
-5090.087
 30
2182.775
 70
    32
  0
VERTEX
  8
T30SSILL
 62
4
 10
2336.613
 20
-5093.057
 30
2182.775
 70
    32
  0
VERTEX
  8
T30SSILL
 62
4
 10
2331.858
 20
-5093.134
 30
2182.775
 70
    32
  0
VERTEX
  8
T30SSILL
 62
4
 10
2327.544
 20
-5092.684
 30
2182.775
 70
    32
  0
VERTEX
  8
T30SSILL
 62
4
 10
2320.329
 20
-5090.202
 30
2182.775
 70
    32
  0
VERTEX
  8
T30SSILL
 62
4
 10
2316.372
 20
-5087.551
 30
2182.775
 70
    32
  0
VERTEX
  8
T30SSILL
 62
4
 10
2311.735
 20
-5081.937
 30
2182.775
 70
    32
  0
VERTEX
  8
T30SSILL
 62
4
 10
2276.206
 20
-5032.463
 30
2182.775
 70
    32
  0
VERTEX
  8
T30SSILL
 62
4
 10
2282.734
 20
-5027.882
 30
2182.775
 70
    32
  0
VERTEX
  8
T30SSILL
 62
4
 10
2337.000
 20
-5052.000
 30
2182.775
 70
    32
  0
VERTEX
  8
T30SSILL
 62
4
 10
2340.000
 20
-5046.000
 30
2182.775
 70
    32
  0
VERTEX
  8
T30SSILL
 62
4
 10
2295.000
 20
-5027.000
 30
2182.775
 70
    32
  0
VERTEX
  8
T30SSILL
 62
4
 10
2289.855
 20
-5022.884
 30
2182.775
 70
    32
  0
VERTEX
  8
T30SSILL
 62
4
 10
2293.490
 20
-5020.333
 30
2182.775
 70
    32
  0
VERTEX
  8
T30SSILL
 62
4
 10
2288.588
 20
-5013.548
 30
2182.775
 70
    32
  0
VERTEX
  8
T30SSILL
 62
4
 10
2271.137
 20
-5025.405
 30
2182.775
 70
    32
  0
VERTEX
  8
T30SSILL
 62
4
 10
2221.618
 20
-4956.452
 30
2182.776
 70
    32
  0
VERTEX
  8
T30SSILL
 62
4
 10
2229.243
 20
-4950.507
 30
2182.776
 70
    32
  0
VERTEX
  8
T30SSILL
 62
4
 10
2224.678
 20
-4944.333
 30
2182.776
 70
    32
  0
VERTEX
  8
T30SSILL
 62
4
 10
2223.191
 20
-4945.415
 30
2182.776
 70
    32
  0
VERTEX
  8
T30SSILL
 62
4
 10
2218.878
 20
-4939.300
 30
2182.776
 70
    32
  0
VERTEX
  8
T30SSILL
 62
4
 10
2212.534
 20
-4943.802
 30
2182.776
 70
    32
  0
VERTEX
  8
T30SSILL
 62
4
 10
2205.191
 20
-4933.578
 30
2182.776
 70
    32
  0
VERTEX
  8
T30SSILL
 62
4
 10
2209.608
 20
-4930.361
 30
2182.776
 70
    32
  0
VERTEX
  8
T30SSILL
 62
4
 10
2202.566
 20
-4920.645
 30
2182.776
 70
    32
  0
VERTEX
  8
T30SSILL
 62
4
 10
2198.191
 20
-4923.830
 30
2182.776
 70
    32
  0
VERTEX
  8
T30SSILL
 62
4
 10
2103.143
 20
-4791.479
 30
2182.776
 70
    32
  0
VERTEX
  8
T30SSILL
 62
4
 10
2145.169
 20
-4777.716
 30
2182.762
 70
    32
  0
VERTEX
  8
T30SSILL
 62
4
 10
2152.153
 20
-4775.584
 30
2182.759
 70
    32
  0
VERTEX
  8
T30SSILL
 62
4
 10
2155.530
 20
-4775.443
 30
2182.758
 70
    32
  0
VERTEX
  8
T30SSILL
 62
4
 10
2157.657
 20
-4777.848
 30
2182.757
 70
    32
  0
VERTEX
  8
T30SSILL
 62
4
 10
2163.804
 20
-4773.425
 30
2182.755
 70
    32
  0
VERTEX
  8
T30SSILL
 62
4
 10
2164.069
 20
-4768.610
 30
2182.753
 70
    32
  0
VERTEX
  8
T30SSILL
 62
4
 10
2165.902
 20
-4765.737
 30
2182.752
 70
    32
  0
VERTEX
  8
T30SSILL
 62
4
 10
2185.054
 20
-4751.491
 30
2182.744
 70
    32
  0
VERTEX
  8
T30SSILL
 62
4
 10
2213.777
 20
-4730.912
 30
2182.733
 70
    32
  0
VERTEX
  8
T30SSILL
 62
4
 10
2222.949
 20
-4723.181
 30
2182.729
 70
    32
  0
VERTEX
  8
T30SSILL
 62
4
 10
2223.356
 20
-4722.725
 30
2182.728
 70
    32
  0
VERTEX
  8
T30SSILL
 62
4
 10
2231.596
 20
-4716.481
 30
2182.725
 70
    32
  0
SEQEND
  8
T30SSILL
  0
POLYLINE
  8
T30SSILL
 62
1
 66
     1
 70
     8
  0
VERTEX
  8
T30SSILL
 62
1
 10
2162.121
 20
-4767.631
 30
2182.753
 70
    32
  0
VERTEX
  8
T30SSILL
 62
1
 10
2153.390
 20
-4773.335
 30
2182.753
 70
    32
  0
VERTEX
  8
T30SSILL
 62
1
 10
2154.734
 20
-4775.476
 30
2182.753
 70
    32
  0
SEQEND
  8
T30SSILL
  0
LINE
  8
T30SSILL
 62
1
 10
2153.390
 20
-4773.335
 30
2182.753
 11
2163.178
 21
-4773.876
 31
2182.753
  0
POLYLINE
  8
T30SSILL
 62
1
 66
     1
 70
     8
  0
VERTEX
  8
T30SSILL
 62
1
 10
2110.637
 20
-4801.915
 30
2182.766
 70
    32
  0
VERTEX
  8
T30SSILL
 62
1
 10
2116.707
 20
-4795.089
 30
2182.766
 70
    32
  0
VERTEX
  8
T30SSILL
 62
1
 10
2121.100
 20
-4799.502
 30
2182.766
 70
    32
  0
VERTEX
  8
T30SSILL
 62
1
 10
2114.164
 20
-4806.825
 30
2182.766
 70
    32
  0
SEQEND
  8
T30SSILL
  0
LINE
  8
T30SSILL
 62
1
 10
2121.100
 20
-4799.502
 30
2182.766
 11
2110.637
 21
-4801.915
 31
2182.766
  0
ENDSEC
  0
EOF
