999
********************************
999
*   DXF File - Entities Only   *
999
*        3D Data Format        *
999
*     Output from ENVISAGE     *
999
*     20-Dec-2007 15:26:12     *
999
********************************
  0
SECTION 
  2
HEADER
  9
$ACADVER
  1
AC1009
  9
$EXTMIN
 10
-290000.000
 20
-250000.000
 30
-4000.000
  9
$EXTMAX
 10
5000000.000
 20
600000.000
 30
6000.000
  0
ENDSEC
  0
SECTION
  2
ENTITIES
  0
POLYLINE
  8
T32SSILL
 62
7
 66
     1
 70
     9
  0
VERTEX
  8
T32SSILL
 62
7
 10
743.031
 20
-3617.638
 30
2038.160
 70
    32
  0
VERTEX
  8
T32SSILL
 62
7
 10
749.868
 20
-3627.484
 30
2038.162
 70
    32
  0
VERTEX
  8
T32SSILL
 62
7
 10
764.512
 20
-3616.654
 30
2038.202
 70
    32
  0
VERTEX
  8
T32SSILL
 62
7
 10
744.605
 20
-3608.553
 30
2038.174
 70
    32
  0
VERTEX
  8
T32SSILL
 62
7
 10
746.065
 20
-3615.169
 30
2038.169
 70
    32
  0
SEQEND
  8
T32SSILL
  0
POLYLINE
  8
T32SSILL
 62
7
 66
     1
 70
     9
  0
VERTEX
  8
T32SSILL
 62
7
 10
700.486
 20
-3625.346
 30
2038.072
 70
    32
  0
VERTEX
  8
T32SSILL
 62
7
 10
706.584
 20
-3633.784
 30
2038.073
 70
    32
  0
VERTEX
  8
T32SSILL
 62
7
 10
731.494
 20
-3615.782
 30
2038.141
 70
    32
  0
VERTEX
  8
T32SSILL
 62
7
 10
724.173
 20
-3607.614
 30
2038.136
 70
    32
  0
SEQEND
  8
T32SSILL
  0
POLYLINE
  8
T32SSILL
 62
7
 66
     1
 70
     9
  0
VERTEX
  8
T32SSILL
 62
7
 10
956.559
 20
-3992.523
 30
2037.107
 70
    32
  0
VERTEX
  8
T32SSILL
 62
7
 10
943.300
 20
-4001.763
 30
2037.112
 70
    32
  0
VERTEX
  8
T32SSILL
 62
7
 10
936.276
 20
-4044.548
 30
2037.054
 70
    32
  0
VERTEX
  8
T32SSILL
 62
7
 10
968.189
 20
-4022.346
 30
2037.042
 70
    32
  0
VERTEX
  8
T32SSILL
 62
7
 10
964.920
 20
-4011.017
 30
2037.065
 70
    32
  0
VERTEX
  8
T32SSILL
 62
7
 10
961.340
 20
-4003.374
 30
2037.082
 70
    32
  0
VERTEX
  8
T32SSILL
 62
7
 10
963.223
 20
-4002.010
 30
2037.082
 70
    32
  0
VERTEX
  8
T32SSILL
 62
7
 10
960.281
 20
-3997.822
 30
2037.093
 70
    32
  0
SEQEND
  8
T32SSILL
  0
POLYLINE
  8
T32SSILL
 62
7
 66
     1
 70
     9
  0
VERTEX
  8
T32SSILL
 62
7
 10
1150.595
 20
-3623.942
 30
2037.167
 70
    32
  0
VERTEX
  8
T32SSILL
 62
7
 10
1165.018
 20
-3643.954
 30
2037.125
 70
    32
  0
VERTEX
  8
T32SSILL
 62
7
 10
1174.231
 20
-3637.542
 30
2037.112
 70
    32
  0
VERTEX
  8
T32SSILL
 62
7
 10
1175.928
 20
-3639.936
 30
2037.107
 70
    32
  0
VERTEX
  8
T32SSILL
 62
7
 10
1178.156
 20
-3638.310
 30
2037.104
 70
    32
  0
VERTEX
  8
T32SSILL
 62
7
 10
1159.769
 20
-3614.148
 30
2037.156
 70
    32
  0
VERTEX
  8
T32SSILL
 62
7
 10
1146.600
 20
-3623.861
 30
2037.175
 70
    32
  0
VERTEX
  8
T32SSILL
 62
7
 10
1147.182
 20
-3626.424
 30
2037.172
 70
    32
  0
SEQEND
  8
T32SSILL
  0
POLYLINE
  8
T32SSILL
 62
7
 66
     1
 70
     9
  0
VERTEX
  8
T32SSILL
 62
7
 10
3256.173
 20
-4265.417
 30
2032.438
 70
    32
  0
VERTEX
  8
T32SSILL
 62
7
 10
3281.056
 20
-4247.814
 30
2032.525
 70
    32
  0
VERTEX
  8
T32SSILL
 62
7
 10
3272.163
 20
-4235.152
 30
2032.482
 70
    32
  0
VERTEX
  8
T32SSILL
 62
7
 10
3244.886
 20
-4254.310
 30
2032.387
 70
    32
  0
VERTEX
  8
T32SSILL
 62
7
 10
3248.112
 20
-4258.961
 30
2032.402
 70
    32
  0
VERTEX
  8
T32SSILL
 62
7
 10
3242.730
 20
-4262.981
 30
2032.384
 70
    32
  0
VERTEX
  8
T32SSILL
 62
7
 10
3239.450
 20
-4258.128
 30
2032.368
 70
    32
  0
VERTEX
  8
T32SSILL
 62
7
 10
3209.593
 20
-4279.098
 30
2032.263
 70
    32
  0
VERTEX
  8
T32SSILL
 62
7
 10
3234.585
 20
-4313.419
 30
2032.384
 70
    32
  0
VERTEX
  8
T32SSILL
 62
7
 10
3267.405
 20
-4289.914
 30
2032.499
 70
    32
  0
VERTEX
  8
T32SSILL
 62
7
 10
3267.151
 20
-4287.627
 30
2032.496
 70
    32
  0
VERTEX
  8
T32SSILL
 62
7
 10
3256.250
 20
-4267.879
 30
2032.440
 70
    32
  0
SEQEND
  8
T32SSILL
  0
POLYLINE
  8
T32SSILL
 62
7
 66
     1
 70
     9
  0
VERTEX
  8
T32SSILL
 62
7
 10
2306.249
 20
-4756.122
 30
2032.673
 70
    32
  0
VERTEX
  8
T32SSILL
 62
7
 10
2311.248
 20
-4756.171
 30
2032.672
 70
    32
  0
SEQEND
  8
T32SSILL
  0
POLYLINE
  8
T32SSILL
 62
7
 66
     1
 70
     9
  0
VERTEX
  8
T32SSILL
 62
7
 10
2306.396
 20
-4741.123
 30
2032.660
 70
    32
  0
VERTEX
  8
T32SSILL
 62
7
 10
2311.396
 20
-4741.172
 30
2032.658
 70
    32
  0
SEQEND
  8
T32SSILL
  0
POLYLINE
  8
T32SSILL
 62
7
 66
     1
 70
     9
  0
VERTEX
  8
T32SSILL
 62
7
 10
2311.248
 20
-4756.171
 30
2032.672
 70
    32
  0
VERTEX
  8
T32SSILL
 62
7
 10
2311.396
 20
-4741.172
 30
2032.658
 70
    32
  0
SEQEND
  8
T32SSILL
  0
POLYLINE
  8
T32SSILL
 62
7
 66
     1
 70
     9
  0
VERTEX
  8
T32SSILL
 62
7
 10
2306.249
 20
-4756.122
 30
2032.673
 70
    32
  0
VERTEX
  8
T32SSILL
 62
7
 10
2306.396
 20
-4741.123
 30
2032.660
 70
    32
  0
SEQEND
  8
T32SSILL
  0
POLYLINE
  8
T32SSILL
 62
7
 66
     1
 70
     9
  0
VERTEX
  8
T32SSILL
 62
7
 10
1981.576
 20
-4481.041
 30
2033.778
 70
    32
  0
VERTEX
  8
T32SSILL
 62
7
 10
2089.175
 20
-4499.036
 30
2033.335
 70
    32
  0
VERTEX
  8
T32SSILL
 62
7
 10
1967.533
 20
-4331.357
 30
2034.023
 70
    32
  0
VERTEX
  8
T32SSILL
 62
7
 10
1977.375
 20
-4436.265
 30
2033.947
 70
    32
  0
SEQEND
  8
T32SSILL
  0
POLYLINE
  8
T32SSILL
 62
7
 66
     1
 70
     9
  0
VERTEX
  8
T32SSILL
 62
7
 10
1450.038
 20
-4488.461
 30
2035.232
 70
    32
  0
VERTEX
  8
T32SSILL
 62
7
 10
1808.415
 20
-4611.611
 30
2034.304
 70
    32
  0
VERTEX
  8
T32SSILL
 62
7
 10
1821.800
 20
-4613.078
 30
2034.239
 70
    32
  0
VERTEX
  8
T32SSILL
 62
7
 10
1838.167
 20
-4609.697
 30
2034.146
 70
    32
  0
VERTEX
  8
T32SSILL
 62
7
 10
1847.312
 20
-4604.571
 30
2034.086
 70
    32
  0
VERTEX
  8
T32SSILL
 62
7
 10
2001.885
 20
-4492.687
 30
2033.653
 70
    32
  0
VERTEX
  8
T32SSILL
 62
7
 10
1951.074
 20
-4483.537
 30
2033.899
 70
    32
  0
VERTEX
  8
T32SSILL
 62
7
 10
1939.487
 20
-4486.783
 30
2033.937
 70
    32
  0
VERTEX
  8
T32SSILL
 62
7
 10
1906.355
 20
-4511.651
 30
2033.993
 70
    32
  0
VERTEX
  8
T32SSILL
 62
7
 10
1909.272
 20
-4516.838
 30
2033.963
 70
    32
  0
VERTEX
  8
T32SSILL
 62
7
 10
1899.077
 20
-4524.696
 30
2033.980
 70
    32
  0
VERTEX
  8
T32SSILL
 62
7
 10
1896.878
 20
-4525.669
 30
2033.986
 70
    32
  0
VERTEX
  8
T32SSILL
 62
7
 10
1893.435
 20
-4521.011
 30
2034.016
 70
    32
  0
VERTEX
  8
T32SSILL
 62
7
 10
1882.096
 20
-4529.223
 30
2034.036
 70
    32
  0
VERTEX
  8
T32SSILL
 62
7
 10
1877.681
 20
-4523.071
 30
2034.076
 70
    32
  0
VERTEX
  8
T32SSILL
 62
7
 10
1891.217
 20
-4513.357
 30
2034.051
 70
    32
  0
VERTEX
  8
T32SSILL
 62
7
 10
1890.244
 20
-4511.334
 30
2034.062
 70
    32
  0
VERTEX
  8
T32SSILL
 62
7
 10
1890.761
 20
-4505.963
 30
2034.078
 70
    32
  0
VERTEX
  8
T32SSILL
 62
7
 10
1885.275
 20
-4493.650
 30
2034.143
 70
    32
  0
VERTEX
  8
T32SSILL
 62
7
 10
1881.986
 20
-4479.131
 30
2034.206
 70
    32
  0
VERTEX
  8
T32SSILL
 62
7
 10
1889.013
 20
-4471.809
 30
2034.201
 70
    32
  0
VERTEX
  8
T32SSILL
 62
7
 10
1891.484
 20
-4474.796
 30
2034.180
 70
    32
  0
VERTEX
  8
T32SSILL
 62
7
 10
1896.089
 20
-4487.023
 30
2034.119
 70
    32
  0
VERTEX
  8
T32SSILL
 62
7
 10
1899.911
 20
-4503.390
 30
2034.048
 70
    32
  0
VERTEX
  8
T32SSILL
 62
7
 10
1902.644
 20
-4505.320
 30
2034.030
 70
    32
  0
VERTEX
  8
T32SSILL
 62
7
 10
1937.245
 20
-4480.466
 30
2033.967
 70
    32
  0
VERTEX
  8
T32SSILL
 62
7
 10
1926.590
 20
-4465.763
 30
2034.062
 70
    32
  0
VERTEX
  8
T32SSILL
 62
7
 10
1908.593
 20
-4432.025
 30
2034.196
 70
    32
  0
VERTEX
  8
T32SSILL
 62
7
 10
1898.147
 20
-4409.318
 30
2034.249
 70
    32
  0
VERTEX
  8
T32SSILL
 62
7
 10
1889.072
 20
-4407.093
 30
2034.283
 70
    32
  0
VERTEX
  8
T32SSILL
 62
7
 10
1827.669
 20
-4452.279
 30
2034.471
 70
    32
  0
VERTEX
  8
T32SSILL
 62
7
 10
1813.440
 20
-4455.923
 30
2034.520
 70
    32
  0
VERTEX
  8
T32SSILL
 62
7
 10
1810.749
 20
-4470.471
 30
2034.519
 70
    32
  0
VERTEX
  8
T32SSILL
 62
7
 10
1804.376
 20
-4476.688
 30
2034.537
 70
    32
  0
VERTEX
  8
T32SSILL
 62
7
 10
1795.668
 20
-4477.379
 30
2034.568
 70
    32
  0
VERTEX
  8
T32SSILL
 62
7
 10
1783.766
 20
-4475.369
 30
2034.612
 70
    32
  0
VERTEX
  8
T32SSILL
 62
7
 10
1778.703
 20
-4470.043
 30
2034.634
 70
    32
  0
VERTEX
  8
T32SSILL
 62
7
 10
1768.359
 20
-4454.639
 30
2034.682
 70
    32
  0
VERTEX
  8
T32SSILL
 62
7
 10
1751.721
 20
-4413.762
 30
2034.770
 70
    32
  0
VERTEX
  8
T32SSILL
 62
7
 10
1746.229
 20
-4409.848
 30
2034.792
 70
    32
  0
VERTEX
  8
T32SSILL
 62
7
 10
1726.079
 20
-4390.391
 30
2034.878
 70
    32
  0
VERTEX
  8
T32SSILL
 62
7
 10
1722.007
 20
-4387.697
 30
2034.894
 70
    32
  0
VERTEX
  8
T32SSILL
 62
7
 10
1717.775
 20
-4386.942
 30
2034.910
 70
    32
  0
VERTEX
  8
T32SSILL
 62
7
 10
1701.011
 20
-4362.086
 30
2034.987
 70
    32
  0
VERTEX
  8
T32SSILL
 62
7
 10
1691.878
 20
-4354.419
 30
2035.025
 70
    32
  0
VERTEX
  8
T32SSILL
 62
7
 10
1682.792
 20
-4341.997
 30
2035.066
 70
    32
  0
VERTEX
  8
T32SSILL
 62
7
 10
1662.989
 20
-4322.009
 30
2035.151
 70
    32
  0
VERTEX
  8
T32SSILL
 62
7
 10
1629.493
 20
-4275.908
 30
2035.303
 70
    32
  0
VERTEX
  8
T32SSILL
 62
7
 10
1613.058
 20
-4258.532
 30
2035.374
 70
    32
  0
VERTEX
  8
T32SSILL
 62
7
 10
1598.812
 20
-4239.817
 30
2035.438
 70
    32
  0
VERTEX
  8
T32SSILL
 62
7
 10
1578.642
 20
-4218.072
 30
2035.525
 70
    32
  0
VERTEX
  8
T32SSILL
 62
7
 10
1610.439
 20
-4189.716
 30
2035.432
 70
    32
  0
VERTEX
  8
T32SSILL
 62
7
 10
1617.405
 20
-4190.977
 30
2035.406
 70
    32
  0
VERTEX
  8
T32SSILL
 62
7
 10
1629.429
 20
-4197.035
 30
2035.358
 70
    32
  0
VERTEX
  8
T32SSILL
 62
7
 10
1641.349
 20
-4191.034
 30
2035.320
 70
    32
  0
VERTEX
  8
T32SSILL
 62
7
 10
1643.925
 20
-4193.890
 30
2035.309
 70
    32
  0
VERTEX
  8
T32SSILL
 62
7
 10
1649.111
 20
-4190.182
 30
2035.293
 70
    32
  0
VERTEX
  8
T32SSILL
 62
7
 10
1638.514
 20
-4175.063
 30
2035.341
 70
    32
  0
VERTEX
  8
T32SSILL
 62
7
 10
1628.230
 20
-4182.744
 30
2035.373
 70
    32
  0
VERTEX
  8
T32SSILL
 62
7
 10
1618.494
 20
-4169.028
 30
2035.417
 70
    32
  0
VERTEX
  8
T32SSILL
 62
7
 10
1619.052
 20
-4172.376
 30
2035.413
 70
    32
  0
VERTEX
  8
T32SSILL
 62
7
 10
1617.824
 20
-4174.404
 30
2035.416
 70
    32
  0
VERTEX
  8
T32SSILL
 62
7
 10
1608.600
 20
-4183.404
 30
2035.443
 70
    32
  0
VERTEX
  8
T32SSILL
 62
7
 10
1600.249
 20
-4189.145
 30
2035.468
 70
    32
  0
VERTEX
  8
T32SSILL
 62
7
 10
1591.294
 20
-4200.521
 30
2035.492
 70
    32
  0
VERTEX
  8
T32SSILL
 62
7
 10
1586.911
 20
-4208.982
 30
2035.502
 70
    32
  0
VERTEX
  8
T32SSILL
 62
7
 10
1572.284
 20
-4203.028
 30
2035.559
 70
    32
  0
VERTEX
  8
T32SSILL
 62
7
 10
1568.314
 20
-4199.163
 30
2035.576
 70
    32
  0
VERTEX
  8
T32SSILL
 62
7
 10
1534.376
 20
-4179.165
 30
2035.711
 70
    32
  0
VERTEX
  8
T32SSILL
 62
7
 10
1530.849
 20
-4176.356
 30
2035.726
 70
    32
  0
VERTEX
  8
T32SSILL
 62
7
 10
1526.873
 20
-4170.202
 30
2035.744
 70
    32
  0
VERTEX
  8
T32SSILL
 62
7
 10
1521.034
 20
-4157.186
 30
2035.774
 70
    32
  0
VERTEX
  8
T32SSILL
 62
7
 10
1519.879
 20
-4152.170
 30
2035.782
 70
    32
  0
VERTEX
  8
T32SSILL
 62
7
 10
1522.939
 20
-4142.568
 30
2035.777
 70
    32
  0
VERTEX
  8
T32SSILL
 62
7
 10
1530.573
 20
-4131.106
 30
2035.758
 70
    32
  0
VERTEX
  8
T32SSILL
 62
7
 10
1533.636
 20
-4122.736
 30
2035.753
 70
    32
  0
VERTEX
  8
T32SSILL
 62
7
 10
1538.121
 20
-4120.701
 30
2035.738
 70
    32
  0
VERTEX
  8
T32SSILL
 62
7
 10
1547.903
 20
-4125.346
 30
2035.700
 70
    32
  0
VERTEX
  8
T32SSILL
 62
7
 10
1563.119
 20
-4118.622
 30
2035.650
 70
    32
  0
VERTEX
  8
T32SSILL
 62
7
 10
1567.431
 20
-4117.996
 30
2035.635
 70
    32
  0
VERTEX
  8
T32SSILL
 62
7
 10
1576.863
 20
-4123.345
 30
2035.598
 70
    32
  0
VERTEX
  8
T32SSILL
 62
7
 10
1586.039
 20
-4132.833
 30
2035.559
 70
    32
  0
VERTEX
  8
T32SSILL
 62
7
 10
1601.016
 20
-4137.818
 30
2035.501
 70
    32
  0
VERTEX
  8
T32SSILL
 62
7
 10
1619.563
 20
-4124.836
 30
2035.444
 70
    32
  0
VERTEX
  8
T32SSILL
 62
7
 10
1618.656
 20
-4118.105
 30
2035.452
 70
    32
  0
VERTEX
  8
T32SSILL
 62
7
 10
1594.211
 20
-4085.121
 30
2035.563
 70
    32
  0
VERTEX
  8
T32SSILL
 62
7
 10
1608.688
 20
-4063.323
 30
2035.526
 70
    32
  0
VERTEX
  8
T32SSILL
 62
7
 10
1610.624
 20
-4063.054
 30
2035.519
 70
    32
  0
VERTEX
  8
T32SSILL
 62
7
 10
1652.083
 20
-4100.642
 30
2035.345
 70
    32
  0
VERTEX
  8
T32SSILL
 62
7
 10
1655.864
 20
-4098.433
 30
2035.333
 70
    32
  0
VERTEX
  8
T32SSILL
 62
7
 10
1651.533
 20
-4090.696
 30
2035.354
 70
    32
  0
VERTEX
  8
T32SSILL
 62
7
 10
1644.533
 20
-4070.023
 30
2035.393
 70
    32
  0
VERTEX
  8
T32SSILL
 62
7
 10
1633.765
 20
-4057.545
 30
2035.440
 70
    32
  0
VERTEX
  8
T32SSILL
 62
7
 10
1628.385
 20
-4053.067
 30
2035.463
 70
    32
  0
VERTEX
  8
T32SSILL
 62
7
 10
1627.752
 20
-4045.409
 30
2035.468
 70
    32
  0
VERTEX
  8
T32SSILL
 62
7
 10
1603.860
 20
-4027.807
 30
2035.568
 70
    32
  0
VERTEX
  8
T32SSILL
 62
7
 10
1592.174
 20
-4036.113
 30
2035.604
 70
    32
  0
VERTEX
  8
T32SSILL
 62
7
 10
1595.249
 20
-4041.132
 30
2035.590
 70
    32
  0
VERTEX
  8
T32SSILL
 62
7
 10
1602.135
 20
-4058.809
 30
2035.553
 70
    32
  0
VERTEX
  8
T32SSILL
 62
7
 10
1533.492
 20
-4107.660
 30
2035.764
 70
    32
  0
VERTEX
  8
T32SSILL
 62
7
 10
1529.582
 20
-4096.871
 30
2035.786
 70
    32
  0
VERTEX
  8
T32SSILL
 62
7
 10
1517.278
 20
-4089.204
 30
2035.835
 70
    32
  0
VERTEX
  8
T32SSILL
 62
7
 10
1497.497
 20
-4102.743
 30
2035.896
 70
    32
  0
VERTEX
  8
T32SSILL
 62
7
 10
1495.395
 20
-4107.766
 30
2035.884
 70
    32
  0
VERTEX
  8
T32SSILL
 62
7
 10
1484.316
 20
-4113.777
 30
2035.833
 70
    32
  0
VERTEX
  8
T32SSILL
 62
7
 10
1477.093
 20
-4111.768
 30
2035.811
 70
    32
  0
VERTEX
  8
T32SSILL
 62
7
 10
1472.677
 20
-4105.439
 30
2035.808
 70
    32
  0
VERTEX
  8
T32SSILL
 62
7
 10
1475.921
 20
-4099.269
 30
2035.832
 70
    32
  0
VERTEX
  8
T32SSILL
 62
7
 10
1482.340
 20
-4095.998
 30
2035.861
 70
    32
  0
VERTEX
  8
T32SSILL
 62
7
 10
1487.716
 20
-4098.803
 30
2035.874
 70
    32
  0
VERTEX
  8
T32SSILL
 62
7
 10
1494.141
 20
-4097.909
 30
2035.899
 70
    32
  0
VERTEX
  8
T32SSILL
 62
7
 10
1510.017
 20
-4086.328
 30
2035.863
 70
    32
  0
VERTEX
  8
T32SSILL
 62
7
 10
1510.914
 20
-4082.613
 30
2035.862
 70
    32
  0
VERTEX
  8
T32SSILL
 62
7
 10
1505.539
 20
-4053.963
 30
2035.902
 70
    32
  0
VERTEX
  8
T32SSILL
 62
7
 10
1488.817
 20
-4051.246
 30
2035.963
 70
    32
  0
VERTEX
  8
T32SSILL
 62
7
 10
1477.969
 20
-4036.070
 30
2035.964
 70
    32
  0
VERTEX
  8
T32SSILL
 62
7
 10
1483.445
 20
-4031.721
 30
2035.992
 70
    32
  0
VERTEX
  8
T32SSILL
 62
7
 10
1487.556
 20
-4031.391
 30
2035.982
 70
    32
  0
VERTEX
  8
T32SSILL
 62
7
 10
1491.659
 20
-4037.586
 30
2035.963
 70
    32
  0
VERTEX
  8
T32SSILL
 62
7
 10
1519.158
 20
-4030.752
 30
2035.869
 70
    32
  0
VERTEX
  8
T32SSILL
 62
7
 10
1522.938
 20
-4027.072
 30
2035.858
 70
    32
  0
VERTEX
  8
T32SSILL
 62
7
 10
1515.555
 20
-4015.071
 30
2035.893
 70
    32
  0
VERTEX
  8
T32SSILL
 62
7
 10
1512.013
 20
-4011.399
 30
2035.908
 70
    32
  0
VERTEX
  8
T32SSILL
 62
7
 10
1492.797
 20
-4024.251
 30
2035.968
 70
    32
  0
VERTEX
  8
T32SSILL
 62
7
 10
1480.042
 20
-4001.826
 30
2036.029
 70
    32
  0
VERTEX
  8
T32SSILL
 62
7
 10
1431.574
 20
-4037.130
 30
2036.088
 70
    32
  0
VERTEX
  8
T32SSILL
 62
7
 10
1431.053
 20
-4049.364
 30
2036.074
 70
    32
  0
VERTEX
  8
T32SSILL
 62
7
 10
1437.012
 20
-4057.764
 30
2036.041
 70
    32
  0
VERTEX
  8
T32SSILL
 62
7
 10
1443.215
 20
-4063.435
 30
2036.012
 70
    32
  0
VERTEX
  8
T32SSILL
 62
7
 10
1442.176
 20
-4065.642
 30
2036.012
 70
    32
  0
VERTEX
  8
T32SSILL
 62
7
 10
1430.789
 20
-4072.153
 30
2036.045
 70
    32
  0
VERTEX
  8
T32SSILL
 62
7
 10
1428.134
 20
-4070.062
 30
2036.057
 70
    32
  0
VERTEX
  8
T32SSILL
 62
7
 10
1427.579
 20
-4066.635
 30
2036.064
 70
    32
  0
VERTEX
  8
T32SSILL
 62
7
 10
1417.193
 20
-4054.662
 30
2036.117
 70
    32
  0
VERTEX
  8
T32SSILL
 62
7
 10
1413.629
 20
-4048.883
 30
2036.137
 70
    32
  0
VERTEX
  8
T32SSILL
 62
7
 10
1337.071
 20
-4104.024
 30
2036.340
 70
    32
  0
VERTEX
  8
T32SSILL
 62
7
 10
1346.524
 20
-4109.054
 30
2036.299
 70
    32
  0
VERTEX
  8
T32SSILL
 62
7
 10
1406.957
 20
-4175.892
 30
2035.993
 70
    32
  0
VERTEX
  8
T32SSILL
 62
7
 10
1402.071
 20
-4181.121
 30
2036.004
 70
    32
  0
VERTEX
  8
T32SSILL
 62
7
 10
1342.353
 20
-4115.773
 30
2036.306
 70
    32
  0
VERTEX
  8
T32SSILL
 62
7
 10
1335.991
 20
-4112.215
 30
2036.333
 70
    32
  0
VERTEX
  8
T32SSILL
 62
7
 10
1328.671
 20
-4109.984
 30
2036.362
 70
    32
  0
VERTEX
  8
T32SSILL
 62
7
 10
1215.396
 20
-4190.190
 30
2036.491
 70
    32
  0
VERTEX
  8
T32SSILL
 62
7
 10
1420.470
 20
-4477.916
 30
2035.530
 70
    32
  0
VERTEX
  8
T32SSILL
 62
7
 10
1433.970
 20
-4483.003
 30
2035.394
 70
    32
  0
VERTEX
  8
T32SSILL
 62
7
 10
1442.018
 20
-4477.046
 30
2035.328
 70
    32
  0
VERTEX
  8
T32SSILL
 62
7
 10
1445.754
 20
-4482.296
 30
2035.284
 70
    32
  0
VERTEX
  8
T32SSILL
 62
7
 10
1439.977
 20
-4486.124
 30
2035.332
 70
    32
  0
SEQEND
  8
T32SSILL
  0
POLYLINE
  8
T32SSILL
 62
7
 66
     1
 70
     9
  0
VERTEX
  8
T32SSILL
 62
7
 10
805.175
 20
-3363.733
 30
2038.134
 70
    32
  0
VERTEX
  8
T32SSILL
 62
7
 10
809.164
 20
-3369.472
 30
2038.143
 70
    32
  0
VERTEX
  8
T32SSILL
 62
7
 10
867.169
 20
-3327.836
 30
2038.111
 70
    32
  0
VERTEX
  8
T32SSILL
 62
7
 10
900.606
 20
-3333.096
 30
2038.129
 70
    32
  0
VERTEX
  8
T32SSILL
 62
7
 10
767.819
 20
-3428.350
 30
2038.024
 70
    32
  0
VERTEX
  8
T32SSILL
 62
7
 10
750.284
 20
-3403.589
 30
2038.060
 70
    32
  0
VERTEX
  8
T32SSILL
 62
7
 10
754.539
 20
-3400.560
 30
2038.069
 70
    32
  0
VERTEX
  8
T32SSILL
 62
7
 10
747.661
 20
-3390.726
 30
2038.084
 70
    32
  0
VERTEX
  8
T32SSILL
 62
7
 10
743.349
 20
-3393.796
 30
2038.075
 70
    32
  0
VERTEX
  8
T32SSILL
 62
7
 10
728.651
 20
-3373.040
 30
2038.107
 70
    32
  0
VERTEX
  8
T32SSILL
 62
7
 10
890.157
 20
-3256.191
 30
2038.030
 70
    32
  0
VERTEX
  8
T32SSILL
 62
7
 10
971.882
 20
-3199.356
 30
2037.795
 70
    32
  0
VERTEX
  8
T32SSILL
 62
7
 10
997.945
 20
-3202.816
 30
2037.727
 70
    32
  0
VERTEX
  8
T32SSILL
 62
7
 10
1005.524
 20
-3206.427
 30
2037.709
 70
    32
  0
VERTEX
  8
T32SSILL
 62
7
 10
1040.428
 20
-3241.299
 30
2037.647
 70
    32
  0
VERTEX
  8
T32SSILL
 62
7
 10
1031.839
 20
-3242.213
 30
2037.671
 70
    32
  0
VERTEX
  8
T32SSILL
 62
7
 10
1023.004
 20
-3246.131
 30
2037.699
 70
    32
  0
VERTEX
  8
T32SSILL
 62
7
 10
909.370
 20
-3326.947
 30
2038.125
 70
    32
  0
VERTEX
  8
T32SSILL
 62
7
 10
865.041
 20
-3320.440
 30
2038.101
 70
    32
  0
SEQEND
  8
T32SSILL
  0
POLYLINE
  8
T32SSILL
 62
7
 66
     1
 70
     9
  0
VERTEX
  8
T32SSILL
 62
7
 10
738.773
 20
-3317.484
 30
2038.079
 70
    32
  0
VERTEX
  8
T32SSILL
 62
7
 10
705.894
 20
-3341.019
 30
2038.103
 70
    32
  0
VERTEX
  8
T32SSILL
 62
7
 10
684.690
 20
-3311.476
 30
2038.099
 70
    32
  0
VERTEX
  8
T32SSILL
 62
7
 10
863.971
 20
-3182.370
 30
2037.974
 70
    32
  0
VERTEX
  8
T32SSILL
 62
7
 10
873.001
 20
-3182.988
 30
2037.970
 70
    32
  0
VERTEX
  8
T32SSILL
 62
7
 10
960.558
 20
-3197.657
 30
2037.824
 70
    32
  0
VERTEX
  8
T32SSILL
 62
7
 10
891.115
 20
-3246.266
 30
2038.018
 70
    32
  0
VERTEX
  8
T32SSILL
 62
7
 10
723.941
 20
-3367.053
 30
2038.110
 70
    32
  0
VERTEX
  8
T32SSILL
 62
7
 10
710.202
 20
-3346.748
 30
2038.104
 70
    32
  0
VERTEX
  8
T32SSILL
 62
7
 10
773.032
 20
-3300.905
 30
2038.058
 70
    32
  0
VERTEX
  8
T32SSILL
 62
7
 10
768.990
 20
-3295.855
 30
2038.057
 70
    32
  0
VERTEX
  8
T32SSILL
 62
7
 10
750.428
 20
-3309.141
 30
2038.071
 70
    32
  0
VERTEX
  8
T32SSILL
 62
7
 10
747.873
 20
-3304.954
 30
2038.070
 70
    32
  0
VERTEX
  8
T32SSILL
 62
7
 10
736.229
 20
-3313.160
 30
2038.078
 70
    32
  0
SEQEND
  8
T32SSILL
  0
POLYLINE
  8
T32SSILL
 62
7
 66
     1
 70
     9
  0
VERTEX
  8
T32SSILL
 62
7
 10
764.226
 20
-3167.380
 30
2038.026
 70
    32
  0
VERTEX
  8
T32SSILL
 62
7
 10
853.059
 20
-3180.486
 30
2037.980
 70
    32
  0
VERTEX
  8
T32SSILL
 62
7
 10
781.784
 20
-3232.468
 30
2038.028
 70
    32
  0
VERTEX
  8
T32SSILL
 62
7
 10
740.973
 20
-3225.407
 30
2038.049
 70
    32
  0
VERTEX
  8
T32SSILL
 62
7
 10
673.628
 20
-3273.604
 30
2038.088
 70
    32
  0
VERTEX
  8
T32SSILL
 62
7
 10
677.515
 20
-3279.200
 30
2038.090
 70
    32
  0
VERTEX
  8
T32SSILL
 62
7
 10
743.595
 20
-3233.645
 30
2038.049
 70
    32
  0
VERTEX
  8
T32SSILL
 62
7
 10
772.866
 20
-3239.163
 30
2038.035
 70
    32
  0
VERTEX
  8
T32SSILL
 62
7
 10
680.402
 20
-3305.623
 30
2038.098
 70
    32
  0
VERTEX
  8
T32SSILL
 62
7
 10
651.372
 20
-3265.578
 30
2038.090
 70
    32
  0
VERTEX
  8
T32SSILL
 62
7
 10
649.584
 20
-3256.527
 30
2038.086
 70
    32
  0
VERTEX
  8
T32SSILL
 62
7
 10
651.663
 20
-3246.345
 30
2038.082
 70
    32
  0
VERTEX
  8
T32SSILL
 62
7
 10
656.621
 20
-3240.195
 30
2038.079
 70
    32
  0
VERTEX
  8
T32SSILL
 62
7
 10
755.278
 20
-3169.312
 30
2038.031
 70
    32
  0
VERTEX
  8
T32SSILL
 62
7
 10
761.141
 20
-3167.627
 30
2038.027
 70
    32
  0
SEQEND
  8
T32SSILL
  0
POLYLINE
  8
T32SSILL
 62
7
 66
     1
 70
     9
  0
VERTEX
  8
T32SSILL
 62
7
 10
716.244
 20
-3849.860
 30
2037.751
 70
    32
  0
VERTEX
  8
T32SSILL
 62
7
 10
719.374
 20
-3840.366
 30
2037.769
 70
    32
  0
VERTEX
  8
T32SSILL
 62
7
 10
723.514
 20
-3836.186
 30
2037.774
 70
    32
  0
VERTEX
  8
T32SSILL
 62
7
 10
768.774
 20
-3803.122
 30
2037.805
 70
    32
  0
VERTEX
  8
T32SSILL
 62
7
 10
773.216
 20
-3805.267
 30
2037.797
 70
    32
  0
VERTEX
  8
T32SSILL
 62
7
 10
784.670
 20
-3816.708
 30
2037.763
 70
    32
  0
VERTEX
  8
T32SSILL
 62
7
 10
796.613
 20
-3808.105
 30
2037.769
 70
    32
  0
VERTEX
  8
T32SSILL
 62
7
 10
799.548
 20
-3812.219
 30
2037.753
 70
    32
  0
VERTEX
  8
T32SSILL
 62
7
 10
780.011
 20
-3826.157
 30
2037.747
 70
    32
  0
VERTEX
  8
T32SSILL
 62
7
 10
783.085
 20
-3830.466
 30
2037.735
 70
    32
  0
VERTEX
  8
T32SSILL
 62
7
 10
779.138
 20
-3833.279
 30
2037.732
 70
    32
  0
VERTEX
  8
T32SSILL
 62
7
 10
770.538
 20
-3856.734
 30
2037.690
 70
    32
  0
VERTEX
  8
T32SSILL
 62
7
 10
754.084
 20
-3910.311
 30
2037.590
 70
    32
  0
VERTEX
  8
T32SSILL
 62
7
 10
717.818
 20
-3859.503
 30
2037.729
 70
    32
  0
VERTEX
  8
T32SSILL
 62
7
 10
716.359
 20
-3853.208
 30
2037.744
 70
    32
  0
SEQEND
  8
T32SSILL
  0
POLYLINE
  8
T32SSILL
 62
7
 66
     1
 70
     9
  0
VERTEX
  8
T32SSILL
 62
7
 10
726.189
 20
-3794.246
 30
2037.861
 70
    32
  0
VERTEX
  8
T32SSILL
 62
7
 10
721.653
 20
-3828.341
 30
2037.792
 70
    32
  0
VERTEX
  8
T32SSILL
 62
7
 10
761.962
 20
-3799.684
 30
2037.819
 70
    32
  0
VERTEX
  8
T32SSILL
 62
7
 10
751.790
 20
-3783.633
 30
2037.861
 70
    32
  0
VERTEX
  8
T32SSILL
 62
7
 10
757.678
 20
-3779.439
 30
2037.865
 70
    32
  0
VERTEX
  8
T32SSILL
 62
7
 10
751.594
 20
-3770.896
 30
2037.889
 70
    32
  0
VERTEX
  8
T32SSILL
 62
7
 10
734.725
 20
-3782.929
 30
2037.878
 70
    32
  0
VERTEX
  8
T32SSILL
 62
7
 10
727.871
 20
-3790.865
 30
2037.867
 70
    32
  0
SEQEND
  8
T32SSILL
  0
POLYLINE
  8
T32SSILL
 62
7
 66
     1
 70
     9
  0
VERTEX
  8
T32SSILL
 62
7
 10
724.007
 20
-3750.977
 30
2037.955
 70
    32
  0
VERTEX
  8
T32SSILL
 62
7
 10
706.705
 20
-3726.886
 30
2037.967
 70
    32
  0
VERTEX
  8
T32SSILL
 62
7
 10
765.481
 20
-3683.859
 30
2038.062
 70
    32
  0
VERTEX
  8
T32SSILL
 62
7
 10
783.907
 20
-3706.123
 30
2037.999
 70
    32
  0
VERTEX
  8
T32SSILL
 62
7
 10
787.834
 20
-3703.691
 30
2038.000
 70
    32
  0
VERTEX
  8
T32SSILL
 62
7
 10
793.273
 20
-3693.177
 30
2038.015
 70
    32
  0
VERTEX
  8
T32SSILL
 62
7
 10
800.388
 20
-3668.153
 30
2038.048
 70
    32
  0
VERTEX
  8
T32SSILL
 62
7
 10
819.214
 20
-3656.539
 30
2038.000
 70
    32
  0
VERTEX
  8
T32SSILL
 62
7
 10
835.698
 20
-3669.408
 30
2037.877
 70
    32
  0
VERTEX
  8
T32SSILL
 62
7
 10
867.538
 20
-3646.554
 30
2037.681
 70
    32
  0
VERTEX
  8
T32SSILL
 62
7
 10
849.162
 20
-3622.920
 30
2037.827
 70
    32
  0
VERTEX
  8
T32SSILL
 62
7
 10
841.022
 20
-3628.814
 30
2037.877
 70
    32
  0
VERTEX
  8
T32SSILL
 62
7
 10
835.138
 20
-3620.618
 30
2037.925
 70
    32
  0
VERTEX
  8
T32SSILL
 62
7
 10
811.125
 20
-3638.013
 30
2038.072
 70
    32
  0
VERTEX
  8
T32SSILL
 62
7
 10
813.851
 20
-3641.831
 30
2038.050
 70
    32
  0
VERTEX
  8
T32SSILL
 62
7
 10
803.744
 20
-3649.053
 30
2038.079
 70
    32
  0
VERTEX
  8
T32SSILL
 62
7
 10
807.251
 20
-3653.970
 30
2038.060
 70
    32
  0
VERTEX
  8
T32SSILL
 62
7
 10
797.976
 20
-3660.585
 30
2038.070
 70
    32
  0
VERTEX
  8
T32SSILL
 62
7
 10
791.834
 20
-3651.988
 30
2038.104
 70
    32
  0
VERTEX
  8
T32SSILL
 62
7
 10
757.721
 20
-3676.701
 30
2038.084
 70
    32
  0
VERTEX
  8
T32SSILL
 62
7
 10
759.828
 20
-3679.605
 30
2038.076
 70
    32
  0
VERTEX
  8
T32SSILL
 62
7
 10
701.549
 20
-3721.885
 30
2037.963
 70
    32
  0
VERTEX
  8
T32SSILL
 62
7
 10
699.134
 20
-3719.143
 30
2037.961
 70
    32
  0
VERTEX
  8
T32SSILL
 62
7
 10
696.490
 20
-3722.209
 30
2037.953
 70
    32
  0
VERTEX
  8
T32SSILL
 62
7
 10
693.401
 20
-3729.856
 30
2037.938
 70
    32
  0
VERTEX
  8
T32SSILL
 62
7
 10
686.413
 20
-3775.878
 30
2037.872
 70
    32
  0
VERTEX
  8
T32SSILL
 62
7
 10
716.120
 20
-3756.201
 30
2037.951
 70
    32
  0
SEQEND
  8
T32SSILL
  0
POLYLINE
  8
T32SSILL
 62
7
 66
     1
 70
     9
  0
VERTEX
  8
T32SSILL
 62
7
 10
685.125
 20
-3729.010
 30
2037.924
 70
    32
  0
VERTEX
  8
T32SSILL
 62
7
 10
686.187
 20
-3724.869
 30
2037.931
 70
    32
  0
VERTEX
  8
T32SSILL
 62
7
 10
691.216
 20
-3716.129
 30
2037.950
 70
    32
  0
VERTEX
  8
T32SSILL
 62
7
 10
700.012
 20
-3709.549
 30
2037.974
 70
    32
  0
VERTEX
  8
T32SSILL
 62
7
 10
696.138
 20
-3704.209
 30
2037.973
 70
    32
  0
VERTEX
  8
T32SSILL
 62
7
 10
749.560
 20
-3665.452
 30
2038.115
 70
    32
  0
VERTEX
  8
T32SSILL
 62
7
 10
753.389
 20
-3670.730
 30
2038.100
 70
    32
  0
VERTEX
  8
T32SSILL
 62
7
 10
787.500
 20
-3645.923
 30
2038.123
 70
    32
  0
VERTEX
  8
T32SSILL
 62
7
 10
771.632
 20
-3624.131
 30
2038.183
 70
    32
  0
VERTEX
  8
T32SSILL
 62
7
 10
771.315
 20
-3619.824
 30
2038.193
 70
    32
  0
VERTEX
  8
T32SSILL
 62
7
 10
753.102
 20
-3634.509
 30
2038.160
 70
    32
  0
VERTEX
  8
T32SSILL
 62
7
 10
754.181
 20
-3638.492
 30
2038.157
 70
    32
  0
VERTEX
  8
T32SSILL
 62
7
 10
759.573
 20
-3643.636
 30
2038.152
 70
    32
  0
VERTEX
  8
T32SSILL
 62
7
 10
763.022
 20
-3649.232
 30
2038.138
 70
    32
  0
VERTEX
  8
T32SSILL
 62
7
 10
690.259
 20
-3701.682
 30
2037.965
 70
    32
  0
VERTEX
  8
T32SSILL
 62
7
 10
687.145
 20
-3699.285
 30
2037.962
 70
    32
  0
VERTEX
  8
T32SSILL
 62
7
 10
678.969
 20
-3688.739
 30
2037.959
 70
    32
  0
VERTEX
  8
T32SSILL
 62
7
 10
636.111
 20
-3719.649
 30
2037.843
 70
    32
  0
VERTEX
  8
T32SSILL
 62
7
 10
632.405
 20
-3726.856
 30
2037.828
 70
    32
  0
VERTEX
  8
T32SSILL
 62
7
 10
631.345
 20
-3731.637
 30
2037.820
 70
    32
  0
VERTEX
  8
T32SSILL
 62
7
 10
632.400
 20
-3740.987
 30
2037.811
 70
    32
  0
VERTEX
  8
T32SSILL
 62
7
 10
672.386
 20
-3797.316
 30
2037.821
 70
    32
  0
VERTEX
  8
T32SSILL
 62
7
 10
673.909
 20
-3791.474
 30
2037.831
 70
    32
  0
VERTEX
  8
T32SSILL
 62
7
 10
677.985
 20
-3784.339
 30
2037.847
 70
    32
  0
SEQEND
  8
T32SSILL
  0
POLYLINE
  8
T32SSILL
 62
7
 66
     1
 70
     9
  0
VERTEX
  8
T32SSILL
 62
7
 10
801.062
 20
-3552.248
 30
2038.254
 70
    32
  0
VERTEX
  8
T32SSILL
 62
7
 10
806.966
 20
-3560.516
 30
2038.194
 70
    32
  0
VERTEX
  8
T32SSILL
 62
7
 10
802.365
 20
-3563.388
 30
2038.209
 70
    32
  0
VERTEX
  8
T32SSILL
 62
7
 10
811.443
 20
-3580.222
 30
2038.122
 70
    32
  0
VERTEX
  8
T32SSILL
 62
7
 10
768.177
 20
-3612.099
 30
2038.212
 70
    32
  0
VERTEX
  8
T32SSILL
 62
7
 10
741.571
 20
-3600.730
 30
2038.177
 70
    32
  0
VERTEX
  8
T32SSILL
 62
7
 10
741.768
 20
-3597.465
 30
2038.181
 70
    32
  0
VERTEX
  8
T32SSILL
 62
7
 10
739.439
 20
-3594.134
 30
2038.181
 70
    32
  0
VERTEX
  8
T32SSILL
 62
7
 10
752.451
 20
-3585.142
 30
2038.215
 70
    32
  0
VERTEX
  8
T32SSILL
 62
7
 10
776.448
 20
-3602.648
 30
2038.225
 70
    32
  0
VERTEX
  8
T32SSILL
 62
7
 10
782.176
 20
-3597.887
 30
2038.230
 70
    32
  0
VERTEX
  8
T32SSILL
 62
7
 10
772.865
 20
-3584.882
 30
2038.254
 70
    32
  0
VERTEX
  8
T32SSILL
 62
7
 10
773.151
 20
-3574.654
 30
2038.266
 70
    32
  0
VERTEX
  8
T32SSILL
 62
7
 10
789.959
 20
-3560.318
 30
2038.286
 70
    32
  0
SEQEND
  8
T32SSILL
  0
POLYLINE
  8
T32SSILL
 62
7
 66
     1
 70
     9
  0
VERTEX
  8
T32SSILL
 62
7
 10
761.205
 20
-3431.877
 30
2038.042
 70
    32
  0
VERTEX
  8
T32SSILL
 62
7
 10
744.165
 20
-3407.947
 30
2038.075
 70
    32
  0
VERTEX
  8
T32SSILL
 62
7
 10
739.061
 20
-3411.581
 30
2038.123
 70
    32
  0
VERTEX
  8
T32SSILL
 62
7
 10
731.994
 20
-3401.882
 30
2038.138
 70
    32
  0
VERTEX
  8
T32SSILL
 62
7
 10
737.204
 20
-3398.172
 30
2038.089
 70
    32
  0
VERTEX
  8
T32SSILL
 62
7
 10
722.047
 20
-3376.886
 30
2038.119
 70
    32
  0
VERTEX
  8
T32SSILL
 62
7
 10
585.166
 20
-3476.150
 30
2038.028
 70
    32
  0
VERTEX
  8
T32SSILL
 62
7
 10
583.252
 20
-3484.584
 30
2038.014
 70
    32
  0
VERTEX
  8
T32SSILL
 62
7
 10
613.227
 20
-3526.563
 30
2038.022
 70
    32
  0
VERTEX
  8
T32SSILL
 62
7
 10
626.114
 20
-3528.776
 30
2038.044
 70
    32
  0
VERTEX
  8
T32SSILL
 62
7
 10
745.594
 20
-3443.075
 30
2038.189
 70
    32
  0
SEQEND
  8
T32SSILL
  0
POLYLINE
  8
T32SSILL
 62
7
 66
     1
 70
     9
  0
VERTEX
  8
T32SSILL
 62
7
 10
680.111
 20
-3796.072
 30
2037.837
 70
    32
  0
VERTEX
  8
T32SSILL
 62
7
 10
687.537
 20
-3784.219
 30
2037.865
 70
    32
  0
VERTEX
  8
T32SSILL
 62
7
 10
728.639
 20
-3756.739
 30
2037.939
 70
    32
  0
VERTEX
  8
T32SSILL
 62
7
 10
731.913
 20
-3761.598
 30
2037.925
 70
    32
  0
VERTEX
  8
T32SSILL
 62
7
 10
740.649
 20
-3755.529
 30
2037.931
 70
    32
  0
VERTEX
  8
T32SSILL
 62
7
 10
747.383
 20
-3764.983
 30
2037.905
 70
    32
  0
VERTEX
  8
T32SSILL
 62
7
 10
728.426
 20
-3778.504
 30
2037.892
 70
    32
  0
VERTEX
  8
T32SSILL
 62
7
 10
721.577
 20
-3787.720
 30
2037.879
 70
    32
  0
VERTEX
  8
T32SSILL
 62
7
 10
718.334
 20
-3799.110
 30
2037.857
 70
    32
  0
VERTEX
  8
T32SSILL
 62
7
 10
713.626
 20
-3838.031
 30
2037.779
 70
    32
  0
VERTEX
  8
T32SSILL
 62
7
 10
710.750
 20
-3843.929
 30
2037.769
 70
    32
  0
VERTEX
  8
T32SSILL
 62
7
 10
709.741
 20
-3849.104
 30
2037.759
 70
    32
  0
VERTEX
  8
T32SSILL
 62
7
 10
680.682
 20
-3807.246
 30
2037.825
 70
    32
  0
VERTEX
  8
T32SSILL
 62
7
 10
679.761
 20
-3800.161
 30
2037.832
 70
    32
  0
SEQEND
  8
T32SSILL
  0
POLYLINE
  8
T32SSILL
 62
7
 66
     1
 70
     9
  0
VERTEX
  8
T32SSILL
 62
7
 10
607.490
 20
-3438.900
 30
2038.112
 70
    32
  0
VERTEX
  8
T32SSILL
 62
7
 10
621.776
 20
-3441.093
 30
2038.136
 70
    32
  0
VERTEX
  8
T32SSILL
 62
7
 10
717.512
 20
-3370.992
 30
2038.115
 70
    32
  0
VERTEX
  8
T32SSILL
 62
7
 10
678.209
 20
-3316.865
 30
2038.103
 70
    32
  0
VERTEX
  8
T32SSILL
 62
7
 10
574.162
 20
-3391.922
 30
2038.104
 70
    32
  0
SEQEND
  8
T32SSILL
  0
POLYLINE
  8
T32SSILL
 62
7
 66
     1
 70
     9
  0
VERTEX
  8
T32SSILL
 62
7
 10
655.182
 20
-3662.488
 30
2037.944
 70
    32
  0
VERTEX
  8
T32SSILL
 62
7
 10
640.625
 20
-3706.332
 30
2037.867
 70
    32
  0
VERTEX
  8
T32SSILL
 62
7
 10
674.037
 20
-3681.894
 30
2037.957
 70
    32
  0
VERTEX
  8
T32SSILL
 62
7
 10
669.355
 20
-3676.058
 30
2037.955
 70
    32
  0
VERTEX
  8
T32SSILL
 62
7
 10
663.687
 20
-3664.786
 30
2037.958
 70
    32
  0
VERTEX
  8
T32SSILL
 62
7
 10
672.543
 20
-3658.385
 30
2037.981
 70
    32
  0
VERTEX
  8
T32SSILL
 62
7
 10
666.511
 20
-3650.039
 30
2037.980
 70
    32
  0
VERTEX
  8
T32SSILL
 62
7
 10
657.181
 20
-3658.466
 30
2037.953
 70
    32
  0
SEQEND
  8
T32SSILL
  0
POLYLINE
  8
T32SSILL
 62
7
 66
     1
 70
     9
  0
VERTEX
  8
T32SSILL
 62
7
 10
1181.540
 20
-4320.999
 30
2036.305
 70
    32
  0
VERTEX
  8
T32SSILL
 62
7
 10
1191.033
 20
-4312.691
 30
2036.303
 70
    32
  0
VERTEX
  8
T32SSILL
 62
7
 10
1192.234
 20
-4310.420
 30
2036.305
 70
    32
  0
VERTEX
  8
T32SSILL
 62
7
 10
1190.476
 20
-4308.416
 30
2036.312
 70
    32
  0
VERTEX
  8
T32SSILL
 62
7
 10
1185.009
 20
-4309.282
 30
2036.321
 70
    32
  0
VERTEX
  8
T32SSILL
 62
7
 10
1143.514
 20
-4263.852
 30
2036.486
 70
    32
  0
VERTEX
  8
T32SSILL
 62
7
 10
1146.124
 20
-4261.878
 30
2036.485
 70
    32
  0
VERTEX
  8
T32SSILL
 62
7
 10
1145.063
 20
-4255.681
 30
2036.499
 70
    32
  0
VERTEX
  8
T32SSILL
 62
7
 10
1137.639
 20
-4245.448
 30
2036.532
 70
    32
  0
VERTEX
  8
T32SSILL
 62
7
 10
1201.905
 20
-4199.290
 30
2036.499
 70
    32
  0
VERTEX
  8
T32SSILL
 62
7
 10
1209.264
 20
-4198.031
 30
2036.487
 70
    32
  0
VERTEX
  8
T32SSILL
 62
7
 10
1213.519
 20
-4200.334
 30
2036.475
 70
    32
  0
VERTEX
  8
T32SSILL
 62
7
 10
1408.383
 20
-4473.699
 30
2035.582
 70
    32
  0
VERTEX
  8
T32SSILL
 62
7
 10
1302.703
 20
-4437.741
 30
2035.852
 70
    32
  0
VERTEX
  8
T32SSILL
 62
7
 10
1297.833
 20
-4433.731
 30
2035.869
 70
    32
  0
VERTEX
  8
T32SSILL
 62
7
 10
1293.643
 20
-4426.637
 30
2035.891
 70
    32
  0
VERTEX
  8
T32SSILL
 62
7
 10
1289.473
 20
-4422.183
 30
2035.907
 70
    32
  0
VERTEX
  8
T32SSILL
 62
7
 10
1283.799
 20
-4427.945
 30
2035.905
 70
    32
  0
VERTEX
  8
T32SSILL
 62
7
 10
1277.034
 20
-4429.229
 30
2035.914
 70
    32
  0
VERTEX
  8
T32SSILL
 62
7
 10
1253.388
 20
-4420.526
 30
2035.974
 70
    32
  0
VERTEX
  8
T32SSILL
 62
7
 10
1206.039
 20
-4399.661
 30
2036.100
 70
    32
  0
VERTEX
  8
T32SSILL
 62
7
 10
1186.623
 20
-4392.566
 30
2036.148
 70
    32
  0
VERTEX
  8
T32SSILL
 62
7
 10
1224.104
 20
-4366.099
 30
2036.138
 70
    32
  0
VERTEX
  8
T32SSILL
 62
7
 10
1219.816
 20
-4360.253
 30
2036.157
 70
    32
  0
VERTEX
  8
T32SSILL
 62
7
 10
1178.010
 20
-4390.247
 30
2036.168
 70
    32
  0
VERTEX
  8
T32SSILL
 62
7
 10
1091.599
 20
-4360.732
 30
2036.380
 70
    32
  0
VERTEX
  8
T32SSILL
 62
7
 10
1079.634
 20
-4354.180
 30
2036.414
 70
    32
  0
VERTEX
  8
T32SSILL
 62
7
 10
1069.816
 20
-4345.006
 30
2036.451
 70
    32
  0
VERTEX
  8
T32SSILL
 62
7
 10
1053.170
 20
-4322.783
 30
2036.527
 70
    32
  0
VERTEX
  8
T32SSILL
 62
7
 10
1052.006
 20
-4315.682
 30
2036.544
 70
    32
  0
VERTEX
  8
T32SSILL
 62
7
 10
1053.041
 20
-4308.313
 30
2036.558
 70
    32
  0
VERTEX
  8
T32SSILL
 62
7
 10
1059.255
 20
-4299.524
 30
2036.566
 70
    32
  0
VERTEX
  8
T32SSILL
 62
7
 10
1120.142
 20
-4257.304
 30
2036.543
 70
    32
  0
VERTEX
  8
T32SSILL
 62
7
 10
1135.211
 20
-4265.006
 30
2036.500
 70
    32
  0
VERTEX
  8
T32SSILL
 62
7
 10
1168.481
 20
-4301.970
 30
2036.366
 70
    32
  0
VERTEX
  8
T32SSILL
 62
7
 10
1160.159
 20
-4308.571
 30
2036.369
 70
    32
  0
VERTEX
  8
T32SSILL
 62
7
 10
1173.297
 20
-4320.262
 30
2036.322
 70
    32
  0
VERTEX
  8
T32SSILL
 62
7
 10
1177.419
 20
-4321.771
 30
2036.311
 70
    32
  0
SEQEND
  8
T32SSILL
  0
POLYLINE
  8
T32SSILL
 62
7
 66
     1
 70
     9
  0
VERTEX
  8
T32SSILL
 62
7
 10
1492.464
 20
-3867.558
 30
2036.007
 70
    32
  0
VERTEX
  8
T32SSILL
 62
7
 10
1508.057
 20
-3881.602
 30
2035.941
 70
    32
  0
VERTEX
  8
T32SSILL
 62
7
 10
1531.318
 20
-3908.608
 30
2035.847
 70
    32
  0
VERTEX
  8
T32SSILL
 62
7
 10
1545.036
 20
-3919.060
 30
2035.788
 70
    32
  0
VERTEX
  8
T32SSILL
 62
7
 10
1565.459
 20
-3931.835
 30
2035.698
 70
    32
  0
VERTEX
  8
T32SSILL
 62
7
 10
1625.478
 20
-3888.436
 30
2035.389
 70
    32
  0
VERTEX
  8
T32SSILL
 62
7
 10
1634.164
 20
-3885.289
 30
2035.346
 70
    32
  0
VERTEX
  8
T32SSILL
 62
7
 10
1645.780
 20
-3885.639
 30
2035.291
 70
    32
  0
VERTEX
  8
T32SSILL
 62
7
 10
1568.764
 20
-3779.249
 30
2035.590
 70
    32
  0
VERTEX
  8
T32SSILL
 62
7
 10
1531.261
 20
-3742.148
 30
2035.604
 70
    32
  0
VERTEX
  8
T32SSILL
 62
7
 10
1523.679
 20
-3740.183
 30
2035.621
 70
    32
  0
VERTEX
  8
T32SSILL
 62
7
 10
1512.262
 20
-3742.823
 30
2035.659
 70
    32
  0
VERTEX
  8
T32SSILL
 62
7
 10
1407.315
 20
-3818.612
 30
2036.259
 70
    32
  0
VERTEX
  8
T32SSILL
 62
7
 10
1415.932
 20
-3839.171
 30
2036.263
 70
    32
  0
VERTEX
  8
T32SSILL
 62
7
 10
1417.796
 20
-3840.919
 30
2036.258
 70
    32
  0
VERTEX
  8
T32SSILL
 62
7
 10
1379.746
 20
-3867.384
 30
2036.486
 70
    32
  0
VERTEX
  8
T32SSILL
 62
7
 10
1369.890
 20
-3857.764
 30
2036.510
 70
    32
  0
VERTEX
  8
T32SSILL
 62
7
 10
1361.826
 20
-3852.008
 30
2036.534
 70
    32
  0
VERTEX
  8
T32SSILL
 62
7
 10
1352.448
 20
-3859.042
 30
2036.581
 70
    32
  0
VERTEX
  8
T32SSILL
 62
7
 10
1380.224
 20
-3896.454
 30
2036.460
 70
    32
  0
VERTEX
  8
T32SSILL
 62
7
 10
1385.583
 20
-3892.492
 30
2036.446
 70
    32
  0
VERTEX
  8
T32SSILL
 62
7
 10
1389.674
 20
-3898.092
 30
2036.423
 70
    32
  0
VERTEX
  8
T32SSILL
 62
7
 10
1400.523
 20
-3890.265
 30
2036.395
 70
    32
  0
VERTEX
  8
T32SSILL
 62
7
 10
1396.611
 20
-3885.017
 30
2036.416
 70
    32
  0
VERTEX
  8
T32SSILL
 62
7
 10
1400.811
 20
-3882.081
 30
2036.404
 70
    32
  0
VERTEX
  8
T32SSILL
 62
7
 10
1406.917
 20
-3890.605
 30
2036.371
 70
    32
  0
VERTEX
  8
T32SSILL
 62
7
 10
1409.084
 20
-3889.108
 30
2036.365
 70
    32
  0
VERTEX
  8
T32SSILL
 62
7
 10
1394.381
 20
-3867.978
 30
2036.421
 70
    32
  0
VERTEX
  8
T32SSILL
 62
7
 10
1398.328
 20
-3865.481
 30
2036.397
 70
    32
  0
VERTEX
  8
T32SSILL
 62
7
 10
1408.031
 20
-3854.831
 30
2036.331
 70
    32
  0
VERTEX
  8
T32SSILL
 62
7
 10
1414.086
 20
-3851.347
 30
2036.297
 70
    32
  0
VERTEX
  8
T32SSILL
 62
7
 10
1415.598
 20
-3853.187
 30
2036.294
 70
    32
  0
VERTEX
  8
T32SSILL
 62
7
 10
1418.321
 20
-3852.020
 30
2036.279
 70
    32
  0
VERTEX
  8
T32SSILL
 62
7
 10
1422.875
 20
-3848.108
 30
2036.250
 70
    32
  0
VERTEX
  8
T32SSILL
 62
7
 10
1439.394
 20
-3864.729
 30
2036.210
 70
    32
  0
VERTEX
  8
T32SSILL
 62
7
 10
1463.399
 20
-3845.685
 30
2036.062
 70
    32
  0
VERTEX
  8
T32SSILL
 62
7
 10
1472.616
 20
-3852.314
 30
2036.041
 70
    32
  0
VERTEX
  8
T32SSILL
 62
7
 10
1475.560
 20
-3856.963
 30
2036.045
 70
    32
  0
VERTEX
  8
T32SSILL
 62
7
 10
1487.303
 20
-3864.323
 30
2036.030
 70
    32
  0
SEQEND
  8
T32SSILL
  0
POLYLINE
  8
T32SSILL
 62
7
 66
     1
 70
     9
  0
VERTEX
  8
T32SSILL
 62
7
 10
1524.509
 20
-3733.754
 30
2035.602
 70
    32
  0
VERTEX
  8
T32SSILL
 62
7
 10
1518.704
 20
-3733.974
 30
2035.619
 70
    32
  0
VERTEX
  8
T32SSILL
 62
7
 10
1508.347
 20
-3737.222
 30
2035.656
 70
    32
  0
VERTEX
  8
T32SSILL
 62
7
 10
1403.921
 20
-3812.644
 30
2036.261
 70
    32
  0
VERTEX
  8
T32SSILL
 62
7
 10
1394.092
 20
-3806.637
 30
2036.202
 70
    32
  0
VERTEX
  8
T32SSILL
 62
7
 10
1387.340
 20
-3799.550
 30
2036.135
 70
    32
  0
VERTEX
  8
T32SSILL
 62
7
 10
1382.409
 20
-3800.116
 30
2036.172
 70
    32
  0
VERTEX
  8
T32SSILL
 62
7
 10
1381.078
 20
-3798.980
 30
2036.178
 70
    32
  0
VERTEX
  8
T32SSILL
 62
7
 10
1377.546
 20
-3774.857
 30
2036.126
 70
    32
  0
VERTEX
  8
T32SSILL
 62
7
 10
1375.116
 20
-3768.177
 30
2036.122
 70
    32
  0
VERTEX
  8
T32SSILL
 62
7
 10
1361.325
 20
-3762.729
 30
2036.204
 70
    32
  0
VERTEX
  8
T32SSILL
 62
7
 10
1358.303
 20
-3759.315
 30
2036.215
 70
    32
  0
VERTEX
  8
T32SSILL
 62
7
 10
1357.374
 20
-3753.064
 30
2036.201
 70
    32
  0
VERTEX
  8
T32SSILL
 62
7
 10
1453.626
 20
-3684.205
 30
2035.280
 70
    32
  0
VERTEX
  8
T32SSILL
 62
7
 10
1458.371
 20
-3682.230
 30
2035.239
 70
    32
  0
VERTEX
  8
T32SSILL
 62
7
 10
1465.328
 20
-3681.472
 30
2035.186
 70
    32
  0
VERTEX
  8
T32SSILL
 62
7
 10
1475.664
 20
-3684.655
 30
2035.270
 70
    32
  0
SEQEND
  8
T32SSILL
  0
POLYLINE
  8
T32SSILL
 62
7
 66
     1
 70
     9
  0
VERTEX
  8
T32SSILL
 62
7
 10
1419.622
 20
-3907.361
 30
2036.303
 70
    32
  0
VERTEX
  8
T32SSILL
 62
7
 10
1414.983
 20
-3899.992
 30
2036.330
 70
    32
  0
VERTEX
  8
T32SSILL
 62
7
 10
1411.840
 20
-3897.480
 30
2036.344
 70
    32
  0
VERTEX
  8
T32SSILL
 62
7
 10
1407.903
 20
-3900.326
 30
2036.355
 70
    32
  0
VERTEX
  8
T32SSILL
 62
7
 10
1415.552
 20
-3911.000
 30
2036.313
 70
    32
  0
VERTEX
  8
T32SSILL
 62
7
 10
1404.352
 20
-3918.918
 30
2036.343
 70
    32
  0
VERTEX
  8
T32SSILL
 62
7
 10
1401.416
 20
-3914.717
 30
2036.359
 70
    32
  0
VERTEX
  8
T32SSILL
 62
7
 10
1392.306
 20
-3921.220
 30
2036.383
 70
    32
  0
VERTEX
  8
T32SSILL
 62
7
 10
1387.669
 20
-3914.793
 30
2036.408
 70
    32
  0
VERTEX
  8
T32SSILL
 62
7
 10
1382.296
 20
-3918.635
 30
2036.423
 70
    32
  0
VERTEX
  8
T32SSILL
 62
7
 10
1386.926
 20
-3925.061
 30
2036.398
 70
    32
  0
VERTEX
  8
T32SSILL
 62
7
 10
1381.729
 20
-3928.771
 30
2036.411
 70
    32
  0
VERTEX
  8
T32SSILL
 62
7
 10
1377.593
 20
-3922.998
 30
2036.434
 70
    32
  0
VERTEX
  8
T32SSILL
 62
7
 10
1352.469
 20
-3943.124
 30
2036.498
 70
    32
  0
VERTEX
  8
T32SSILL
 62
7
 10
1362.616
 20
-3956.356
 30
2036.444
 70
    32
  0
VERTEX
  8
T32SSILL
 62
7
 10
1374.397
 20
-3952.389
 30
2036.406
 70
    32
  0
VERTEX
  8
T32SSILL
 62
7
 10
1377.413
 20
-3954.922
 30
2036.392
 70
    32
  0
VERTEX
  8
T32SSILL
 62
7
 10
1396.292
 20
-3980.603
 30
2036.290
 70
    32
  0
VERTEX
  8
T32SSILL
 62
7
 10
1404.342
 20
-3984.508
 30
2036.256
 70
    32
  0
VERTEX
  8
T32SSILL
 62
7
 10
1411.217
 20
-3984.544
 30
2036.231
 70
    32
  0
VERTEX
  8
T32SSILL
 62
7
 10
1412.552
 20
-3986.208
 30
2036.224
 70
    32
  0
VERTEX
  8
T32SSILL
 62
7
 10
1412.068
 20
-3992.117
 30
2036.218
 70
    32
  0
VERTEX
  8
T32SSILL
 62
7
 10
1413.237
 20
-3995.193
 30
2036.210
 70
    32
  0
VERTEX
  8
T32SSILL
 62
7
 10
1417.866
 20
-4001.240
 30
2036.185
 70
    32
  0
VERTEX
  8
T32SSILL
 62
7
 10
1420.292
 20
-3995.669
 30
2036.184
 70
    32
  0
VERTEX
  8
T32SSILL
 62
7
 10
1422.759
 20
-3984.016
 30
2036.190
 70
    32
  0
VERTEX
  8
T32SSILL
 62
7
 10
1421.393
 20
-3978.209
 30
2036.203
 70
    32
  0
VERTEX
  8
T32SSILL
 62
7
 10
1406.711
 20
-3971.446
 30
2036.265
 70
    32
  0
VERTEX
  8
T32SSILL
 62
7
 10
1405.107
 20
-3969.166
 30
2036.274
 70
    32
  0
VERTEX
  8
T32SSILL
 62
7
 10
1398.211
 20
-3954.676
 30
2036.318
 70
    32
  0
VERTEX
  8
T32SSILL
 62
7
 10
1396.072
 20
-3939.885
 30
2036.345
 70
    32
  0
VERTEX
  8
T32SSILL
 62
7
 10
1400.153
 20
-3931.834
 30
2036.341
 70
    32
  0
VERTEX
  8
T32SSILL
 62
7
 10
1409.101
 20
-3926.213
 30
2036.316
 70
    32
  0
VERTEX
  8
T32SSILL
 62
7
 10
1420.791
 20
-3910.436
 30
2036.295
 70
    32
  0
SEQEND
  8
T32SSILL
  0
POLYLINE
  8
T32SSILL
 62
7
 66
     1
 70
     9
  0
VERTEX
  8
T32SSILL
 62
7
 10
1291.524
 20
-4069.262
 30
2036.550
 70
    32
  0
VERTEX
  8
T32SSILL
 62
7
 10
1294.801
 20
-4073.547
 30
2036.533
 70
    32
  0
VERTEX
  8
T32SSILL
 62
7
 10
1338.335
 20
-4092.636
 30
2036.351
 70
    32
  0
VERTEX
  8
T32SSILL
 62
7
 10
1125.758
 20
-4244.486
 30
2036.557
 70
    32
  0
VERTEX
  8
T32SSILL
 62
7
 10
1124.340
 20
-4244.630
 30
2036.559
 70
    32
  0
VERTEX
  8
T32SSILL
 62
7
 10
1122.571
 20
-4241.548
 30
2036.568
 70
    32
  0
VERTEX
  8
T32SSILL
 62
7
 10
1120.801
 20
-4234.663
 30
2036.585
 70
    32
  0
VERTEX
  8
T32SSILL
 62
7
 10
1108.575
 20
-4243.403
 30
2036.591
 70
    32
  0
VERTEX
  8
T32SSILL
 62
7
 10
1114.806
 20
-4252.424
 30
2036.562
 70
    32
  0
VERTEX
  8
T32SSILL
 62
7
 10
1086.356
 20
-4271.457
 30
2036.579
 70
    32
  0
VERTEX
  8
T32SSILL
 62
7
 10
1096.263
 20
-4217.211
 30
2036.665
 70
    32
  0
VERTEX
  8
T32SSILL
 62
7
 10
1106.137
 20
-4210.805
 30
2036.658
 70
    32
  0
VERTEX
  8
T32SSILL
 62
7
 10
1102.487
 20
-4205.699
 30
2036.675
 70
    32
  0
VERTEX
  8
T32SSILL
 62
7
 10
1096.456
 20
-4210.336
 30
2036.678
 70
    32
  0
VERTEX
  8
T32SSILL
 62
7
 10
1090.156
 20
-4208.971
 30
2036.692
 70
    32
  0
VERTEX
  8
T32SSILL
 62
7
 10
1076.811
 20
-4278.172
 30
2036.581
 70
    32
  0
VERTEX
  8
T32SSILL
 62
7
 10
1049.790
 20
-4298.140
 30
2036.585
 70
    32
  0
VERTEX
  8
T32SSILL
 62
7
 10
1045.415
 20
-4306.158
 30
2036.576
 70
    32
  0
VERTEX
  8
T32SSILL
 62
7
 10
1044.225
 20
-4311.790
 30
2036.566
 70
    32
  0
VERTEX
  8
T32SSILL
 62
7
 10
999.044
 20
-4250.411
 30
2036.774
 70
    32
  0
VERTEX
  8
T32SSILL
 62
7
 10
997.162
 20
-4246.867
 30
2036.785
 70
    32
  0
VERTEX
  8
T32SSILL
 62
7
 10
996.357
 20
-4237.987
 30
2036.805
 70
    32
  0
VERTEX
  8
T32SSILL
 62
7
 10
1000.002
 20
-4228.644
 30
2036.819
 70
    32
  0
VERTEX
  8
T32SSILL
 62
7
 10
1004.163
 20
-4223.823
 30
2036.822
 70
    32
  0
VERTEX
  8
T32SSILL
 62
7
 10
1096.437
 20
-4157.861
 30
2036.778
 70
    32
  0
VERTEX
  8
T32SSILL
 62
7
 10
1102.083
 20
-4167.735
 30
2036.748
 70
    32
  0
VERTEX
  8
T32SSILL
 62
7
 10
1109.876
 20
-4178.030
 30
2036.714
 70
    32
  0
VERTEX
  8
T32SSILL
 62
7
 10
1120.825
 20
-4188.026
 30
2036.674
 70
    32
  0
VERTEX
  8
T32SSILL
 62
7
 10
1134.703
 20
-4197.558
 30
2036.629
 70
    32
  0
VERTEX
  8
T32SSILL
 62
7
 10
1138.526
 20
-4198.954
 30
2036.620
 70
    32
  0
VERTEX
  8
T32SSILL
 62
7
 10
1143.530
 20
-4194.399
 30
2036.619
 70
    32
  0
VERTEX
  8
T32SSILL
 62
7
 10
1118.045
 20
-4174.255
 30
2036.706
 70
    32
  0
VERTEX
  8
T32SSILL
 62
7
 10
1114.776
 20
-4170.290
 30
2036.719
 70
    32
  0
VERTEX
  8
T32SSILL
 62
7
 10
1113.067
 20
-4162.274
 30
2036.738
 70
    32
  0
VERTEX
  8
T32SSILL
 62
7
 10
1120.838
 20
-4168.129
 30
2036.712
 70
    32
  0
VERTEX
  8
T32SSILL
 62
7
 10
1136.425
 20
-4157.857
 30
2036.702
 70
    32
  0
VERTEX
  8
T32SSILL
 62
7
 10
1150.568
 20
-4163.504
 30
2036.664
 70
    32
  0
VERTEX
  8
T32SSILL
 62
7
 10
1176.206
 20
-4148.495
 30
2036.644
 70
    32
  0
VERTEX
  8
T32SSILL
 62
7
 10
1177.880
 20
-4150.914
 30
2036.637
 70
    32
  0
VERTEX
  8
T32SSILL
 62
7
 10
1162.560
 20
-4161.997
 30
2036.645
 70
    32
  0
VERTEX
  8
T32SSILL
 62
7
 10
1165.678
 20
-4166.393
 30
2036.630
 70
    32
  0
VERTEX
  8
T32SSILL
 62
7
 10
1175.860
 20
-4159.063
 30
2036.625
 70
    32
  0
VERTEX
  8
T32SSILL
 62
7
 10
1179.417
 20
-4164.230
 30
2036.608
 70
    32
  0
VERTEX
  8
T32SSILL
 62
7
 10
1176.364
 20
-4171.379
 30
2036.600
 70
    32
  0
VERTEX
  8
T32SSILL
 62
7
 10
1168.603
 20
-4179.375
 30
2036.600
 70
    32
  0
VERTEX
  8
T32SSILL
 62
7
 10
1175.880
 20
-4190.245
 30
2036.565
 70
    32
  0
VERTEX
  8
T32SSILL
 62
7
 10
1180.283
 20
-4184.847
 30
2036.567
 70
    32
  0
VERTEX
  8
T32SSILL
 62
7
 10
1187.278
 20
-4181.727
 30
2036.560
 70
    32
  0
VERTEX
  8
T32SSILL
 62
7
 10
1194.975
 20
-4174.101
 30
2036.560
 70
    32
  0
VERTEX
  8
T32SSILL
 62
7
 10
1189.755
 20
-4156.356
 30
2036.604
 70
    32
  0
VERTEX
  8
T32SSILL
 62
7
 10
1186.119
 20
-4151.237
 30
2036.620
 70
    32
  0
VERTEX
  8
T32SSILL
 62
7
 10
1181.984
 20
-4133.874
 30
2036.661
 70
    32
  0
VERTEX
  8
T32SSILL
 62
7
 10
1185.879
 20
-4132.937
 30
2036.656
 70
    32
  0
VERTEX
  8
T32SSILL
 62
7
 10
1181.868
 20
-4125.806
 30
2036.677
 70
    32
  0
VERTEX
  8
T32SSILL
 62
7
 10
1175.320
 20
-4121.359
 30
2036.698
 70
    32
  0
VERTEX
  8
T32SSILL
 62
7
 10
1171.914
 20
-4109.449
 30
2036.727
 70
    32
  0
VERTEX
  8
T32SSILL
 62
7
 10
1184.808
 20
-4099.362
 30
2036.722
 70
    32
  0
VERTEX
  8
T32SSILL
 62
7
 10
1178.802
 20
-4088.224
 30
2036.755
 70
    32
  0
VERTEX
  8
T32SSILL
 62
7
 10
1164.745
 20
-4092.731
 30
2036.773
 70
    32
  0
VERTEX
  8
T32SSILL
 62
7
 10
1157.164
 20
-4075.437
 30
2036.820
 70
    32
  0
VERTEX
  8
T32SSILL
 62
7
 10
1139.499
 20
-4049.052
 30
2036.904
 70
    32
  0
VERTEX
  8
T32SSILL
 62
7
 10
1120.930
 20
-4054.393
 30
2036.929
 70
    32
  0
VERTEX
  8
T32SSILL
 62
7
 10
1104.963
 20
-4063.525
 30
2036.942
 70
    32
  0
VERTEX
  8
T32SSILL
 62
7
 10
1086.737
 20
-4079.379
 30
2036.946
 70
    32
  0
VERTEX
  8
T32SSILL
 62
7
 10
1083.604
 20
-4083.357
 30
2036.944
 70
    32
  0
VERTEX
  8
T32SSILL
 62
7
 10
1103.471
 20
-4088.499
 30
2036.897
 70
    32
  0
VERTEX
  8
T32SSILL
 62
7
 10
1102.597
 20
-4115.096
 30
2036.848
 70
    32
  0
VERTEX
  8
T32SSILL
 62
7
 10
1090.854
 20
-4123.600
 30
2036.854
 70
    32
  0
VERTEX
  8
T32SSILL
 62
7
 10
1102.516
 20
-4144.170
 30
2036.792
 70
    32
  0
VERTEX
  8
T32SSILL
 62
7
 10
1069.340
 20
-4168.755
 30
2036.808
 70
    32
  0
VERTEX
  8
T32SSILL
 62
7
 10
1040.903
 20
-4128.974
 30
2036.938
 70
    32
  0
VERTEX
  8
T32SSILL
 62
7
 10
1049.612
 20
-4123.522
 30
2036.932
 70
    32
  0
VERTEX
  8
T32SSILL
 62
7
 10
1045.047
 20
-4117.440
 30
2036.952
 70
    32
  0
VERTEX
  8
T32SSILL
 62
7
 10
1031.824
 20
-4127.218
 30
2036.959
 70
    32
  0
VERTEX
  8
T32SSILL
 62
7
 10
1056.810
 20
-4162.932
 30
2036.843
 70
    32
  0
VERTEX
  8
T32SSILL
 62
7
 10
1055.305
 20
-4177.701
 30
2036.818
 70
    32
  0
VERTEX
  8
T32SSILL
 62
7
 10
998.704
 20
-4218.923
 30
2036.842
 70
    32
  0
VERTEX
  8
T32SSILL
 62
7
 10
991.883
 20
-4227.928
 30
2036.834
 70
    32
  0
VERTEX
  8
T32SSILL
 62
7
 10
989.461
 20
-4237.158
 30
2036.819
 70
    32
  0
VERTEX
  8
T32SSILL
 62
7
 10
942.892
 20
-4171.556
 30
2037.039
 70
    32
  0
VERTEX
  8
T32SSILL
 62
7
 10
941.534
 20
-4167.528
 30
2037.050
 70
    32
  0
VERTEX
  8
T32SSILL
 62
7
 10
941.182
 20
-4159.738
 30
2037.067
 70
    32
  0
VERTEX
  8
T32SSILL
 62
7
 10
943.245
 20
-4153.807
 30
2037.076
 70
    32
  0
VERTEX
  8
T32SSILL
 62
7
 10
948.361
 20
-4147.433
 30
2037.078
 70
    32
  0
VERTEX
  8
T32SSILL
 62
7
 10
1009.781
 20
-4104.288
 30
2037.044
 70
    32
  0
VERTEX
  8
T32SSILL
 62
7
 10
1018.375
 20
-4110.533
 30
2037.016
 70
    32
  0
VERTEX
  8
T32SSILL
 62
7
 10
1027.021
 20
-4119.132
 30
2036.983
 70
    32
  0
VERTEX
  8
T32SSILL
 62
7
 10
1044.241
 20
-4106.279
 30
2036.975
 70
    32
  0
VERTEX
  8
T32SSILL
 62
7
 10
1040.351
 20
-4091.564
 30
2037.011
 70
    32
  0
VERTEX
  8
T32SSILL
 62
7
 10
1036.617
 20
-4083.909
 30
2037.032
 70
    32
  0
VERTEX
  8
T32SSILL
 62
7
 10
1083.428
 20
-4050.882
 30
2036.957
 70
    32
  0
VERTEX
  8
T32SSILL
 62
7
 10
1089.306
 20
-4052.113
 30
2036.957
 70
    32
  0
VERTEX
  8
T32SSILL
 62
7
 10
1097.417
 20
-4057.834
 30
2036.967
 70
    32
  0
VERTEX
  8
T32SSILL
 62
7
 10
1103.257
 20
-4063.875
 30
2036.944
 70
    32
  0
VERTEX
  8
T32SSILL
 62
7
 10
1135.662
 20
-4041.253
 30
2036.905
 70
    32
  0
VERTEX
  8
T32SSILL
 62
7
 10
1129.261
 20
-4017.248
 30
2036.866
 70
    32
  0
VERTEX
  8
T32SSILL
 62
7
 10
1203.760
 20
-3963.667
 30
2036.779
 70
    32
  0
VERTEX
  8
T32SSILL
 62
7
 10
1219.404
 20
-3981.298
 30
2036.775
 70
    32
  0
VERTEX
  8
T32SSILL
 62
7
 10
1222.956
 20
-3978.670
 30
2036.771
 70
    32
  0
VERTEX
  8
T32SSILL
 62
7
 10
1254.412
 20
-4013.552
 30
2036.754
 70
    32
  0
VERTEX
  8
T32SSILL
 62
7
 10
1343.884
 20
-3950.064
 30
2036.519
 70
    32
  0
VERTEX
  8
T32SSILL
 62
7
 10
1360.135
 20
-3966.158
 30
2036.440
 70
    32
  0
VERTEX
  8
T32SSILL
 62
7
 10
1368.891
 20
-3970.146
 30
2036.403
 70
    32
  0
VERTEX
  8
T32SSILL
 62
7
 10
1369.881
 20
-3972.959
 30
2036.395
 70
    32
  0
VERTEX
  8
T32SSILL
 62
7
 10
1377.332
 20
-3979.160
 30
2036.360
 70
    32
  0
VERTEX
  8
T32SSILL
 62
7
 10
1378.689
 20
-3983.821
 30
2036.349
 70
    32
  0
VERTEX
  8
T32SSILL
 62
7
 10
1386.422
 20
-3992.400
 30
2036.310
 70
    32
  0
VERTEX
  8
T32SSILL
 62
7
 10
1397.355
 20
-3992.846
 30
2036.270
 70
    32
  0
VERTEX
  8
T32SSILL
 62
7
 10
1402.319
 20
-3996.686
 30
2036.247
 70
    32
  0
VERTEX
  8
T32SSILL
 62
7
 10
1410.002
 20
-4010.289
 30
2036.202
 70
    32
  0
VERTEX
  8
T32SSILL
 62
7
 10
1398.709
 20
-4020.422
 30
2036.229
 70
    32
  0
VERTEX
  8
T32SSILL
 62
7
 10
1396.796
 20
-4023.786
 30
2036.231
 70
    32
  0
VERTEX
  8
T32SSILL
 62
7
 10
1405.796
 20
-4036.762
 30
2036.182
 70
    32
  0
VERTEX
  8
T32SSILL
 62
7
 10
1407.613
 20
-4043.887
 30
2036.166
 70
    32
  0
VERTEX
  8
T32SSILL
 62
7
 10
1345.352
 20
-4088.163
 30
2036.331
 70
    32
  0
VERTEX
  8
T32SSILL
 62
7
 10
1301.482
 20
-4068.750
 30
2036.515
 70
    32
  0
VERTEX
  8
T32SSILL
 62
7
 10
1298.305
 20
-4064.306
 30
2036.532
 70
    32
  0
SEQEND
  8
T32SSILL
  0
POLYLINE
  8
T32SSILL
 62
7
 66
     1
 70
     9
  0
VERTEX
  8
T32SSILL
 62
7
 10
1270.877
 20
-3635.527
 30
2036.447
 70
    32
  0
VERTEX
  8
T32SSILL
 62
7
 10
1249.851
 20
-3650.581
 30
2036.648
 70
    32
  0
VERTEX
  8
T32SSILL
 62
7
 10
1257.490
 20
-3661.179
 30
2036.627
 70
    32
  0
VERTEX
  8
T32SSILL
 62
7
 10
1253.165
 20
-3664.548
 30
2036.669
 70
    32
  0
VERTEX
  8
T32SSILL
 62
7
 10
1256.120
 20
-3669.048
 30
2036.663
 70
    32
  0
VERTEX
  8
T32SSILL
 62
7
 10
1251.043
 20
-3673.036
 30
2036.712
 70
    32
  0
VERTEX
  8
T32SSILL
 62
7
 10
1254.588
 20
-3677.774
 30
2036.702
 70
    32
  0
VERTEX
  8
T32SSILL
 62
7
 10
1244.697
 20
-3685.039
 30
2036.797
 70
    32
  0
VERTEX
  8
T32SSILL
 62
7
 10
1226.761
 20
-3690.520
 30
2036.945
 70
    32
  0
VERTEX
  8
T32SSILL
 62
7
 10
1212.478
 20
-3670.784
 30
2036.985
 70
    32
  0
VERTEX
  8
T32SSILL
 62
7
 10
1349.327
 20
-3575.177
 30
2036.073
 70
    32
  0
VERTEX
  8
T32SSILL
 62
7
 10
1354.866
 20
-3573.372
 30
2036.059
 70
    32
  0
VERTEX
  8
T32SSILL
 62
7
 10
1362.886
 20
-3573.311
 30
2036.026
 70
    32
  0
VERTEX
  8
T32SSILL
 62
7
 10
1372.356
 20
-3578.440
 30
2035.963
 70
    32
  0
VERTEX
  8
T32SSILL
 62
7
 10
1412.774
 20
-3620.175
 30
2035.604
 70
    32
  0
VERTEX
  8
T32SSILL
 62
7
 10
1404.145
 20
-3621.210
 30
2035.634
 70
    32
  0
VERTEX
  8
T32SSILL
 62
7
 10
1396.852
 20
-3624.173
 30
2035.650
 70
    32
  0
VERTEX
  8
T32SSILL
 62
7
 10
1347.146
 20
-3659.452
 30
2035.971
 70
    32
  0
VERTEX
  8
T32SSILL
 62
7
 10
1296.406
 20
-3651.376
 30
2036.313
 70
    32
  0
VERTEX
  8
T32SSILL
 62
7
 10
1293.235
 20
-3651.664
 30
2036.337
 70
    32
  0
VERTEX
  8
T32SSILL
 62
7
 10
1285.576
 20
-3656.418
 30
2036.408
 70
    32
  0
SEQEND
  8
T32SSILL
  0
POLYLINE
  8
T32SSILL
 62
7
 66
     1
 70
     9
  0
VERTEX
  8
T32SSILL
 62
7
 10
1292.027
 20
-3771.363
 30
2036.735
 70
    32
  0
VERTEX
  8
T32SSILL
 62
7
 10
1289.041
 20
-3772.796
 30
2036.761
 70
    32
  0
VERTEX
  8
T32SSILL
 62
7
 10
1258.322
 20
-3731.604
 30
2036.850
 70
    32
  0
VERTEX
  8
T32SSILL
 62
7
 10
1286.988
 20
-3711.204
 30
2036.576
 70
    32
  0
VERTEX
  8
T32SSILL
 62
7
 10
1296.885
 20
-3726.288
 30
2036.553
 70
    32
  0
VERTEX
  8
T32SSILL
 62
7
 10
1326.349
 20
-3706.499
 30
2036.275
 70
    32
  0
VERTEX
  8
T32SSILL
 62
7
 10
1314.424
 20
-3691.341
 30
2036.312
 70
    32
  0
VERTEX
  8
T32SSILL
 62
7
 10
1397.439
 20
-3631.837
 30
2035.612
 70
    32
  0
VERTEX
  8
T32SSILL
 62
7
 10
1407.014
 20
-3627.710
 30
2035.592
 70
    32
  0
VERTEX
  8
T32SSILL
 62
7
 10
1414.859
 20
-3627.739
 30
2035.560
 70
    32
  0
VERTEX
  8
T32SSILL
 62
7
 10
1421.933
 20
-3630.770
 30
2035.517
 70
    32
  0
VERTEX
  8
T32SSILL
 62
7
 10
1466.511
 20
-3674.765
 30
2035.155
 70
    32
  0
VERTEX
  8
T32SSILL
 62
7
 10
1457.961
 20
-3674.741
 30
2035.217
 70
    32
  0
VERTEX
  8
T32SSILL
 62
7
 10
1450.756
 20
-3677.704
 30
2035.279
 70
    32
  0
VERTEX
  8
T32SSILL
 62
7
 10
1345.299
 20
-3753.068
 30
2036.289
 70
    32
  0
VERTEX
  8
T32SSILL
 62
7
 10
1339.848
 20
-3754.872
 30
2036.334
 70
    32
  0
VERTEX
  8
T32SSILL
 62
7
 10
1332.677
 20
-3762.241
 30
2036.410
 70
    32
  0
VERTEX
  8
T32SSILL
 62
7
 10
1329.342
 20
-3764.117
 30
2036.440
 70
    32
  0
VERTEX
  8
T32SSILL
 62
7
 10
1326.171
 20
-3764.406
 30
2036.464
 70
    32
  0
VERTEX
  8
T32SSILL
 62
7
 10
1316.618
 20
-3759.807
 30
2036.519
 70
    32
  0
VERTEX
  8
T32SSILL
 62
7
 10
1310.086
 20
-3758.535
 30
2036.562
 70
    32
  0
VERTEX
  8
T32SSILL
 62
7
 10
1305.594
 20
-3759.009
 30
2036.596
 70
    32
  0
VERTEX
  8
T32SSILL
 62
7
 10
1293.690
 20
-3769.852
 30
2036.718
 70
    32
  0
SEQEND
  8
T32SSILL
  0
POLYLINE
  8
T32SSILL
 62
7
 66
     1
 70
     9
  0
VERTEX
  8
T32SSILL
 62
7
 10
1144.378
 20
-3903.771
 30
2036.968
 70
    32
  0
VERTEX
  8
T32SSILL
 62
7
 10
1158.087
 20
-3916.686
 30
2036.926
 70
    32
  0
VERTEX
  8
T32SSILL
 62
7
 10
1163.525
 20
-3912.288
 30
2036.922
 70
    32
  0
VERTEX
  8
T32SSILL
 62
7
 10
1187.722
 20
-3940.294
 30
2036.835
 70
    32
  0
VERTEX
  8
T32SSILL
 62
7
 10
1198.706
 20
-3957.308
 30
2036.789
 70
    32
  0
VERTEX
  8
T32SSILL
 62
7
 10
1152.426
 20
-3991.325
 30
2036.834
 70
    32
  0
VERTEX
  8
T32SSILL
 62
7
 10
1090.741
 20
-3981.784
 30
2036.921
 70
    32
  0
VERTEX
  8
T32SSILL
 62
7
 10
1076.112
 20
-3992.160
 30
2036.926
 70
    32
  0
VERTEX
  8
T32SSILL
 62
7
 10
1080.582
 20
-3997.546
 30
2036.911
 70
    32
  0
VERTEX
  8
T32SSILL
 62
7
 10
1092.617
 20
-3989.010
 30
2036.906
 70
    32
  0
VERTEX
  8
T32SSILL
 62
7
 10
1143.376
 20
-3997.961
 30
2036.845
 70
    32
  0
VERTEX
  8
T32SSILL
 62
7
 10
1124.611
 20
-4010.295
 30
2036.867
 70
    32
  0
VERTEX
  8
T32SSILL
 62
7
 10
1112.493
 20
-4010.008
 30
2036.876
 70
    32
  0
VERTEX
  8
T32SSILL
 62
7
 10
1102.311
 20
-4008.023
 30
2036.884
 70
    32
  0
VERTEX
  8
T32SSILL
 62
7
 10
1097.714
 20
-4006.734
 30
2036.887
 70
    32
  0
VERTEX
  8
T32SSILL
 62
7
 10
1093.013
 20
-4002.703
 30
2036.888
 70
    32
  0
VERTEX
  8
T32SSILL
 62
7
 10
1067.427
 20
-4021.608
 30
2036.919
 70
    32
  0
VERTEX
  8
T32SSILL
 62
7
 10
1066.604
 20
-4031.291
 30
2036.924
 70
    32
  0
VERTEX
  8
T32SSILL
 62
7
 10
1079.238
 20
-4043.452
 30
2036.939
 70
    32
  0
VERTEX
  8
T32SSILL
 62
7
 10
1033.221
 20
-4075.549
 30
2037.048
 70
    32
  0
VERTEX
  8
T32SSILL
 62
7
 10
1029.605
 20
-4072.589
 30
2037.042
 70
    32
  0
VERTEX
  8
T32SSILL
 62
7
 10
1021.478
 20
-4061.131
 30
2037.016
 70
    32
  0
VERTEX
  8
T32SSILL
 62
7
 10
1021.074
 20
-4049.719
 30
2036.986
 70
    32
  0
VERTEX
  8
T32SSILL
 62
7
 10
1016.207
 20
-4043.314
 30
2036.971
 70
    32
  0
VERTEX
  8
T32SSILL
 62
7
 10
1007.572
 20
-4036.332
 30
2036.975
 70
    32
  0
VERTEX
  8
T32SSILL
 62
7
 10
1000.978
 20
-4036.351
 30
2036.980
 70
    32
  0
VERTEX
  8
T32SSILL
 62
7
 10
989.569
 20
-4041.952
 30
2036.992
 70
    32
  0
VERTEX
  8
T32SSILL
 62
7
 10
983.318
 20
-4047.036
 30
2037.000
 70
    32
  0
VERTEX
  8
T32SSILL
 62
7
 10
973.113
 20
-4042.575
 30
2037.006
 70
    32
  0
VERTEX
  8
T32SSILL
 62
7
 10
968.074
 20
-4044.633
 30
2037.011
 70
    32
  0
VERTEX
  8
T32SSILL
 62
7
 10
964.778
 20
-4044.263
 30
2037.013
 70
    32
  0
VERTEX
  8
T32SSILL
 62
7
 10
964.768
 20
-4037.987
 30
2037.022
 70
    32
  0
VERTEX
  8
T32SSILL
 62
7
 10
963.547
 20
-4034.738
 30
2037.029
 70
    32
  0
VERTEX
  8
T32SSILL
 62
7
 10
968.663
 20
-4031.108
 30
2037.027
 70
    32
  0
VERTEX
  8
T32SSILL
 62
7
 10
982.378
 20
-4042.503
 30
2036.998
 70
    32
  0
VERTEX
  8
T32SSILL
 62
7
 10
1028.500
 20
-4009.790
 30
2036.970
 70
    32
  0
VERTEX
  8
T32SSILL
 62
7
 10
1027.032
 20
-3997.183
 30
2036.994
 70
    32
  0
VERTEX
  8
T32SSILL
 62
7
 10
1024.519
 20
-3989.975
 30
2037.010
 70
    32
  0
VERTEX
  8
T32SSILL
 62
7
 10
1050.681
 20
-3971.159
 30
2037.001
 70
    32
  0
VERTEX
  8
T32SSILL
 62
7
 10
1060.053
 20
-3969.213
 30
2036.989
 70
    32
  0
VERTEX
  8
T32SSILL
 62
7
 10
1075.183
 20
-3962.598
 30
2036.977
 70
    32
  0
VERTEX
  8
T32SSILL
 62
7
 10
1075.229
 20
-3953.504
 30
2036.992
 70
    32
  0
VERTEX
  8
T32SSILL
 62
7
 10
1079.347
 20
-3958.236
 30
2036.978
 70
    32
  0
VERTEX
  8
T32SSILL
 62
7
 10
1084.929
 20
-3953.736
 30
2036.977
 70
    32
  0
VERTEX
  8
T32SSILL
 62
7
 10
1081.676
 20
-3948.867
 30
2036.990
 70
    32
  0
SEQEND
  8
T32SSILL
  0
POLYLINE
  8
T32SSILL
 62
7
 66
     1
 70
     9
  0
VERTEX
  8
T32SSILL
 62
7
 10
1009.803
 20
-3905.850
 30
2037.165
 70
    32
  0
VERTEX
  8
T32SSILL
 62
7
 10
991.715
 20
-3918.680
 30
2037.172
 70
    32
  0
VERTEX
  8
T32SSILL
 62
7
 10
994.588
 20
-3925.632
 30
2037.156
 70
    32
  0
VERTEX
  8
T32SSILL
 62
7
 10
993.718
 20
-3927.766
 30
2037.154
 70
    32
  0
VERTEX
  8
T32SSILL
 62
7
 10
986.466
 20
-3931.285
 30
2037.159
 70
    32
  0
VERTEX
  8
T32SSILL
 62
7
 10
980.605
 20
-3936.308
 30
2037.160
 70
    32
  0
VERTEX
  8
T32SSILL
 62
7
 10
955.287
 20
-3961.089
 30
2037.158
 70
    32
  0
VERTEX
  8
T32SSILL
 62
7
 10
948.488
 20
-3964.179
 30
2037.163
 70
    32
  0
VERTEX
  8
T32SSILL
 62
7
 10
946.580
 20
-3963.474
 30
2037.167
 70
    32
  0
VERTEX
  8
T32SSILL
 62
7
 10
940.823
 20
-3955.968
 30
2037.188
 70
    32
  0
VERTEX
  8
T32SSILL
 62
7
 10
850.583
 20
-4021.164
 30
2037.293
 70
    32
  0
VERTEX
  8
T32SSILL
 62
7
 10
846.845
 20
-4030.097
 30
2037.317
 70
    32
  0
VERTEX
  8
T32SSILL
 62
7
 10
846.087
 20
-4042.009
 30
2037.330
 70
    32
  0
VERTEX
  8
T32SSILL
 62
7
 10
883.360
 20
-4094.103
 30
2037.256
 70
    32
  0
VERTEX
  8
T32SSILL
 62
7
 10
885.869
 20
-4084.200
 30
2037.235
 70
    32
  0
VERTEX
  8
T32SSILL
 62
7
 10
891.368
 20
-4076.833
 30
2037.206
 70
    32
  0
VERTEX
  8
T32SSILL
 62
7
 10
928.009
 20
-4050.303
 30
2037.058
 70
    32
  0
VERTEX
  8
T32SSILL
 62
7
 10
935.268
 20
-3998.686
 30
2037.128
 70
    32
  0
VERTEX
  8
T32SSILL
 62
7
 10
982.696
 20
-3965.371
 30
2037.111
 70
    32
  0
VERTEX
  8
T32SSILL
 62
7
 10
986.939
 20
-3971.353
 30
2037.095
 70
    32
  0
VERTEX
  8
T32SSILL
 62
7
 10
980.793
 20
-3975.635
 30
2037.098
 70
    32
  0
VERTEX
  8
T32SSILL
 62
7
 10
984.505
 20
-3980.806
 30
2037.084
 70
    32
  0
VERTEX
  8
T32SSILL
 62
7
 10
979.920
 20
-3984.027
 30
2037.086
 70
    32
  0
VERTEX
  8
T32SSILL
 62
7
 10
982.665
 20
-3987.934
 30
2037.075
 70
    32
  0
VERTEX
  8
T32SSILL
 62
7
 10
1010.475
 20
-3990.945
 30
2037.030
 70
    32
  0
VERTEX
  8
T32SSILL
 62
7
 10
1032.520
 20
-3974.948
 30
2037.022
 70
    32
  0
VERTEX
  8
T32SSILL
 62
7
 10
1033.469
 20
-3967.163
 30
2037.033
 70
    32
  0
VERTEX
  8
T32SSILL
 62
7
 10
1031.369
 20
-3962.370
 30
2037.044
 70
    32
  0
VERTEX
  8
T32SSILL
 62
7
 10
1021.407
 20
-3962.070
 30
2037.059
 70
    32
  0
VERTEX
  8
T32SSILL
 62
7
 10
1009.997
 20
-3946.441
 30
2037.101
 70
    32
  0
VERTEX
  8
T32SSILL
 62
7
 10
1003.745
 20
-3945.567
 30
2037.111
 70
    32
  0
VERTEX
  8
T32SSILL
 62
7
 10
1013.201
 20
-3924.996
 30
2037.130
 70
    32
  0
VERTEX
  8
T32SSILL
 62
7
 10
1024.472
 20
-3929.891
 30
2037.105
 70
    32
  0
VERTEX
  8
T32SSILL
 62
7
 10
1031.033
 20
-3930.437
 30
2037.095
 70
    32
  0
VERTEX
  8
T32SSILL
 62
7
 10
1036.970
 20
-3927.201
 30
2037.091
 70
    32
  0
VERTEX
  8
T32SSILL
 62
7
 10
1065.655
 20
-3906.097
 30
2037.082
 70
    32
  0
VERTEX
  8
T32SSILL
 62
7
 10
1070.641
 20
-3904.727
 30
2037.077
 70
    32
  0
VERTEX
  8
T32SSILL
 62
7
 10
1074.959
 20
-3915.855
 30
2037.053
 70
    32
  0
VERTEX
  8
T32SSILL
 62
7
 10
1077.194
 20
-3926.184
 30
2037.033
 70
    32
  0
VERTEX
  8
T32SSILL
 62
7
 10
1078.345
 20
-3941.695
 30
2037.007
 70
    32
  0
VERTEX
  8
T32SSILL
 62
7
 10
1142.630
 20
-3895.046
 30
2036.986
 70
    32
  0
VERTEX
  8
T32SSILL
 62
7
 10
1133.780
 20
-3881.500
 30
2036.992
 70
    32
  0
VERTEX
  8
T32SSILL
 62
7
 10
1097.900
 20
-3842.824
 30
2037.009
 70
    32
  0
VERTEX
  8
T32SSILL
 62
7
 10
1057.511
 20
-3872.013
 30
2037.082
 70
    32
  0
VERTEX
  8
T32SSILL
 62
7
 10
1065.417
 20
-3891.101
 30
2037.102
 70
    32
  0
VERTEX
  8
T32SSILL
 62
7
 10
1023.343
 20
-3920.510
 30
2037.122
 70
    32
  0
VERTEX
  8
T32SSILL
 62
7
 10
1016.251
 20
-3912.650
 30
2037.145
 70
    32
  0
SEQEND
  8
T32SSILL
  0
POLYLINE
  8
T32SSILL
 62
7
 66
     1
 70
     9
  0
VERTEX
  8
T32SSILL
 62
7
 10
1022.015
 20
-3828.631
 30
2037.062
 70
    32
  0
VERTEX
  8
T32SSILL
 62
7
 10
1036.757
 20
-3849.264
 30
2037.074
 70
    32
  0
VERTEX
  8
T32SSILL
 62
7
 10
1026.979
 20
-3856.222
 30
2037.099
 70
    32
  0
VERTEX
  8
T32SSILL
 62
7
 10
1030.413
 20
-3861.027
 30
2037.102
 70
    32
  0
VERTEX
  8
T32SSILL
 62
7
 10
1040.842
 20
-3853.398
 30
2037.075
 70
    32
  0
VERTEX
  8
T32SSILL
 62
7
 10
1057.406
 20
-3863.313
 30
2037.068
 70
    32
  0
VERTEX
  8
T32SSILL
 62
7
 10
1092.823
 20
-3837.651
 30
2037.011
 70
    32
  0
VERTEX
  8
T32SSILL
 62
7
 10
1061.529
 20
-3803.304
 30
2037.027
 70
    32
  0
VERTEX
  8
T32SSILL
 62
7
 10
1056.192
 20
-3805.248
 30
2037.022
 70
    32
  0
VERTEX
  8
T32SSILL
 62
7
 10
1051.295
 20
-3804.606
 30
2037.019
 70
    32
  0
VERTEX
  8
T32SSILL
 62
7
 10
1034.723
 20
-3796.971
 30
2037.017
 70
    32
  0
VERTEX
  8
T32SSILL
 62
7
 10
1019.694
 20
-3807.089
 30
2037.030
 70
    32
  0
VERTEX
  8
T32SSILL
 62
7
 10
1025.156
 20
-3826.395
 30
2037.054
 70
    32
  0
SEQEND
  8
T32SSILL
  0
POLYLINE
  8
T32SSILL
 62
7
 66
     1
 70
     9
  0
VERTEX
  8
T32SSILL
 62
7
 10
1070.054
 20
-3715.408
 30
2037.124
 70
    32
  0
VERTEX
  8
T32SSILL
 62
7
 10
1063.080
 20
-3706.468
 30
2037.129
 70
    32
  0
VERTEX
  8
T32SSILL
 62
7
 10
1065.501
 20
-3705.158
 30
2037.131
 70
    32
  0
VERTEX
  8
T32SSILL
 62
7
 10
1060.050
 20
-3685.501
 30
2037.148
 70
    32
  0
VERTEX
  8
T32SSILL
 62
7
 10
1134.235
 20
-3632.393
 30
2037.193
 70
    32
  0
VERTEX
  8
T32SSILL
 62
7
 10
1135.812
 20
-3634.694
 30
2037.188
 70
    32
  0
VERTEX
  8
T32SSILL
 62
7
 10
1131.073
 20
-3638.142
 30
2037.195
 70
    32
  0
VERTEX
  8
T32SSILL
 62
7
 10
1140.863
 20
-3652.218
 30
2037.166
 70
    32
  0
VERTEX
  8
T32SSILL
 62
7
 10
1130.478
 20
-3659.737
 30
2037.181
 70
    32
  0
VERTEX
  8
T32SSILL
 62
7
 10
1154.615
 20
-3693.237
 30
2037.110
 70
    32
  0
VERTEX
  8
T32SSILL
 62
7
 10
1184.940
 20
-3671.981
 30
2037.067
 70
    32
  0
VERTEX
  8
T32SSILL
 62
7
 10
1171.747
 20
-3652.846
 30
2037.106
 70
    32
  0
VERTEX
  8
T32SSILL
 62
7
 10
1183.306
 20
-3644.856
 30
2037.089
 70
    32
  0
VERTEX
  8
T32SSILL
 62
7
 10
1200.587
 20
-3668.484
 30
2037.039
 70
    32
  0
VERTEX
  8
T32SSILL
 62
7
 10
1100.185
 20
-3740.721
 30
2037.117
 70
    32
  0
VERTEX
  8
T32SSILL
 62
7
 10
1083.257
 20
-3729.495
 30
2037.117
 70
    32
  0
VERTEX
  8
T32SSILL
 62
7
 10
1086.524
 20
-3726.907
 30
2037.122
 70
    32
  0
VERTEX
  8
T32SSILL
 62
7
 10
1075.601
 20
-3711.463
 30
2037.131
 70
    32
  0
SEQEND
  8
T32SSILL
  0
POLYLINE
  8
T32SSILL
 62
7
 66
     1
 70
     9
  0
VERTEX
  8
T32SSILL
 62
7
 10
1034.519
 20
-3612.253
 30
2037.296
 70
    32
  0
VERTEX
  8
T32SSILL
 62
7
 10
1046.839
 20
-3630.108
 30
2037.243
 70
    32
  0
VERTEX
  8
T32SSILL
 62
7
 10
1037.980
 20
-3636.466
 30
2037.248
 70
    32
  0
VERTEX
  8
T32SSILL
 62
7
 10
1043.832
 20
-3644.593
 30
2037.223
 70
    32
  0
VERTEX
  8
T32SSILL
 62
7
 10
1050.281
 20
-3639.996
 30
2037.220
 70
    32
  0
VERTEX
  8
T32SSILL
 62
7
 10
1054.470
 20
-3645.736
 30
2037.203
 70
    32
  0
VERTEX
  8
T32SSILL
 62
7
 10
1043.136
 20
-3653.896
 30
2037.208
 70
    32
  0
VERTEX
  8
T32SSILL
 62
7
 10
1049.933
 20
-3663.337
 30
2037.180
 70
    32
  0
VERTEX
  8
T32SSILL
 62
7
 10
1051.120
 20
-3662.515
 30
2037.179
 70
    32
  0
VERTEX
  8
T32SSILL
 62
7
 10
1056.321
 20
-3678.850
 30
2037.153
 70
    32
  0
VERTEX
  8
T32SSILL
 62
7
 10
1155.679
 20
-3609.019
 30
2037.168
 70
    32
  0
VERTEX
  8
T32SSILL
 62
7
 10
1114.469
 20
-3554.734
 30
2037.286
 70
    32
  0
VERTEX
  8
T32SSILL
 62
7
 10
1081.539
 20
-3578.425
 30
2037.273
 70
    32
  0
SEQEND
  8
T32SSILL
  0
POLYLINE
  8
T32SSILL
 62
7
 66
     1
 70
     9
  0
VERTEX
  8
T32SSILL
 62
7
 10
1020.118
 20
-3591.481
 30
2037.358
 70
    32
  0
VERTEX
  8
T32SSILL
 62
7
 10
1030.184
 20
-3607.075
 30
2037.313
 70
    32
  0
VERTEX
  8
T32SSILL
 62
7
 10
1067.320
 20
-3580.825
 30
2037.294
 70
    32
  0
VERTEX
  8
T32SSILL
 62
7
 10
1056.073
 20
-3565.153
 30
2037.341
 70
    32
  0
VERTEX
  8
T32SSILL
 62
7
 10
1063.189
 20
-3560.135
 30
2037.337
 70
    32
  0
VERTEX
  8
T32SSILL
 62
7
 10
1068.403
 20
-3564.094
 30
2037.321
 70
    32
  0
VERTEX
  8
T32SSILL
 62
7
 10
1077.141
 20
-3573.882
 30
2037.289
 70
    32
  0
VERTEX
  8
T32SSILL
 62
7
 10
1111.458
 20
-3549.624
 30
2037.296
 70
    32
  0
VERTEX
  8
T32SSILL
 62
7
 10
1075.644
 20
-3501.934
 30
2037.427
 70
    32
  0
VERTEX
  8
T32SSILL
 62
7
 10
1037.673
 20
-3529.398
 30
2037.481
 70
    32
  0
VERTEX
  8
T32SSILL
 62
7
 10
1040.858
 20
-3534.924
 30
2037.452
 70
    32
  0
VERTEX
  8
T32SSILL
 62
7
 10
1041.733
 20
-3538.915
 30
2037.435
 70
    32
  0
VERTEX
  8
T32SSILL
 62
7
 10
1029.174
 20
-3548.110
 30
2037.434
 70
    32
  0
VERTEX
  8
T32SSILL
 62
7
 10
1027.234
 20
-3547.285
 30
2037.442
 70
    32
  0
VERTEX
  8
T32SSILL
 62
7
 10
1022.159
 20
-3541.008
 30
2037.479
 70
    32
  0
VERTEX
  8
T32SSILL
 62
7
 10
996.844
 20
-3559.105
 30
2037.479
 70
    32
  0
VERTEX
  8
T32SSILL
 62
7
 10
996.411
 20
-3566.852
 30
2037.451
 70
    32
  0
VERTEX
  8
T32SSILL
 62
7
 10
994.636
 20
-3572.574
 30
2037.435
 70
    32
  0
VERTEX
  8
T32SSILL
 62
7
 10
1001.769
 20
-3582.628
 30
2037.405
 70
    32
  0
VERTEX
  8
T32SSILL
 62
7
 10
1016.475
 20
-3571.871
 30
2037.398
 70
    32
  0
VERTEX
  8
T32SSILL
 62
7
 10
1020.665
 20
-3577.248
 30
2037.381
 70
    32
  0
VERTEX
  8
T32SSILL
 62
7
 10
1015.286
 20
-3581.137
 30
2037.384
 70
    32
  0
VERTEX
  8
T32SSILL
 62
7
 10
1018.718
 20
-3585.928
 30
2037.370
 70
    32
  0
VERTEX
  8
T32SSILL
 62
7
 10
1013.754
 20
-3589.438
 30
2037.372
 70
    32
  0
VERTEX
  8
T32SSILL
 62
7
 10
1016.919
 20
-3593.913
 30
2037.359
 70
    32
  0
SEQEND
  8
T32SSILL
  0
POLYLINE
  8
T32SSILL
 62
7
 66
     1
 70
     9
  0
VERTEX
  8
T32SSILL
 62
7
 10
1088.588
 20
-3421.759
 30
2037.529
 70
    32
  0
VERTEX
  8
T32SSILL
 62
7
 10
1095.883
 20
-3431.778
 30
2037.508
 70
    32
  0
VERTEX
  8
T32SSILL
 62
7
 10
1071.005
 20
-3449.548
 30
2037.516
 70
    32
  0
VERTEX
  8
T32SSILL
 62
7
 10
1075.616
 20
-3455.696
 30
2037.498
 70
    32
  0
VERTEX
  8
T32SSILL
 62
7
 10
1100.349
 20
-3437.911
 30
2037.490
 70
    32
  0
VERTEX
  8
T32SSILL
 62
7
 10
1106.806
 20
-3446.779
 30
2037.463
 70
    32
  0
VERTEX
  8
T32SSILL
 62
7
 10
1121.296
 20
-3436.497
 30
2037.458
 70
    32
  0
VERTEX
  8
T32SSILL
 62
7
 10
1114.884
 20
-3427.458
 30
2037.485
 70
    32
  0
VERTEX
  8
T32SSILL
 62
7
 10
1147.418
 20
-3404.063
 30
2037.450
 70
    32
  0
VERTEX
  8
T32SSILL
 62
7
 10
1180.174
 20
-3410.481
 30
2037.395
 70
    32
  0
VERTEX
  8
T32SSILL
 62
7
 10
1073.953
 20
-3486.817
 30
2037.445
 70
    32
  0
VERTEX
  8
T32SSILL
 62
7
 10
1043.787
 20
-3446.405
 30
2037.572
 70
    32
  0
VERTEX
  8
T32SSILL
 62
7
 10
1041.166
 20
-3438.477
 30
2037.587
 70
    32
  0
VERTEX
  8
T32SSILL
 62
7
 10
1042.252
 20
-3429.093
 30
2037.596
 70
    32
  0
VERTEX
  8
T32SSILL
 62
7
 10
1044.920
 20
-3424.075
 30
2037.595
 70
    32
  0
VERTEX
  8
T32SSILL
 62
7
 10
1048.996
 20
-3420.341
 30
2037.591
 70
    32
  0
VERTEX
  8
T32SSILL
 62
7
 10
1133.666
 20
-3360.485
 30
2037.498
 70
    32
  0
VERTEX
  8
T32SSILL
 62
7
 10
1137.098
 20
-3358.470
 30
2037.494
 70
    32
  0
VERTEX
  8
T32SSILL
 62
7
 10
1142.520
 20
-3357.342
 30
2037.478
 70
    32
  0
VERTEX
  8
T32SSILL
 62
7
 10
1148.666
 20
-3357.748
 30
2037.462
 70
    32
  0
VERTEX
  8
T32SSILL
 62
7
 10
1154.440
 20
-3360.116
 30
2037.448
 70
    32
  0
VERTEX
  8
T32SSILL
 62
7
 10
1199.697
 20
-3404.667
 30
2037.367
 70
    32
  0
VERTEX
  8
T32SSILL
 62
7
 10
1146.627
 20
-3395.529
 30
2037.456
 70
    32
  0
VERTEX
  8
T32SSILL
 62
7
 10
1110.528
 20
-3421.316
 30
2037.496
 70
    32
  0
VERTEX
  8
T32SSILL
 62
7
 10
1106.823
 20
-3416.093
 30
2037.505
 70
    32
  0
VERTEX
  8
T32SSILL
 62
7
 10
1096.952
 20
-3423.267
 30
2037.516
 70
    32
  0
VERTEX
  8
T32SSILL
 62
7
 10
1093.400
 20
-3417.988
 30
2037.524
 70
    32
  0
SEQEND
  8
T32SSILL
  0
POLYLINE
  8
T32SSILL
 62
7
 66
     1
 70
     9
  0
VERTEX
  8
T32SSILL
 62
7
 10
881.975
 20
-3593.263
 30
2037.680
 70
    32
  0
VERTEX
  8
T32SSILL
 62
7
 10
903.976
 20
-3619.561
 30
2037.511
 70
    32
  0
VERTEX
  8
T32SSILL
 62
7
 10
946.734
 20
-3588.593
 30
2037.502
 70
    32
  0
VERTEX
  8
T32SSILL
 62
7
 10
947.649
 20
-3580.340
 30
2037.531
 70
    32
  0
VERTEX
  8
T32SSILL
 62
7
 10
951.671
 20
-3567.595
 30
2037.568
 70
    32
  0
VERTEX
  8
T32SSILL
 62
7
 10
951.697
 20
-3555.825
 30
2037.612
 70
    32
  0
VERTEX
  8
T32SSILL
 62
7
 10
949.383
 20
-3549.959
 30
2037.640
 70
    32
  0
VERTEX
  8
T32SSILL
 62
7
 10
971.901
 20
-3533.543
 30
2037.642
 70
    32
  0
VERTEX
  8
T32SSILL
 62
7
 10
989.906
 20
-3545.575
 30
2037.548
 70
    32
  0
VERTEX
  8
T32SSILL
 62
7
 10
994.363
 20
-3552.314
 30
2037.511
 70
    32
  0
VERTEX
  8
T32SSILL
 62
7
 10
1018.918
 20
-3534.017
 30
2037.514
 70
    32
  0
VERTEX
  8
T32SSILL
 62
7
 10
1001.767
 20
-3512.456
 30
2037.641
 70
    32
  0
VERTEX
  8
T32SSILL
 62
7
 10
1017.914
 20
-3501.324
 30
2037.606
 70
    32
  0
VERTEX
  8
T32SSILL
 62
7
 10
1025.679
 20
-3509.197
 30
2037.576
 70
    32
  0
VERTEX
  8
T32SSILL
 62
7
 10
1035.777
 20
-3522.814
 30
2037.511
 70
    32
  0
VERTEX
  8
T32SSILL
 62
7
 10
1073.006
 20
-3495.849
 30
2037.440
 70
    32
  0
VERTEX
  8
T32SSILL
 62
7
 10
1038.053
 20
-3449.817
 30
2037.587
 70
    32
  0
VERTEX
  8
T32SSILL
 62
7
 10
1024.556
 20
-3481.703
 30
2037.602
 70
    32
  0
VERTEX
  8
T32SSILL
 62
7
 10
944.026
 20
-3540.827
 30
2037.689
 70
    32
  0
VERTEX
  8
T32SSILL
 62
7
 10
949.450
 20
-3548.199
 30
2037.647
 70
    32
  0
VERTEX
  8
T32SSILL
 62
7
 10
934.897
 20
-3558.793
 30
2037.646
 70
    32
  0
VERTEX
  8
T32SSILL
 62
7
 10
931.417
 20
-3554.063
 30
2037.673
 70
    32
  0
VERTEX
  8
T32SSILL
 62
7
 10
916.852
 20
-3564.640
 30
2037.672
 70
    32
  0
VERTEX
  8
T32SSILL
 62
7
 10
915.223
 20
-3562.426
 30
2037.685
 70
    32
  0
VERTEX
  8
T32SSILL
 62
7
 10
878.869
 20
-3588.938
 30
2037.711
 70
    32
  0
SEQEND
  8
T32SSILL
  0
POLYLINE
  8
T32SSILL
 62
7
 66
     1
 70
     9
  0
VERTEX
  8
T32SSILL
 62
7
 10
1145.816
 20
-3351.364
 30
2037.464
 70
    32
  0
VERTEX
  8
T32SSILL
 62
7
 10
1138.993
 20
-3351.845
 30
2037.483
 70
    32
  0
VERTEX
  8
T32SSILL
 62
7
 10
1129.850
 20
-3355.504
 30
2037.507
 70
    32
  0
VERTEX
  8
T32SSILL
 62
7
 10
1065.413
 20
-3401.807
 30
2037.577
 70
    32
  0
VERTEX
  8
T32SSILL
 62
7
 10
1043.005
 20
-3366.681
 30
2037.634
 70
    32
  0
VERTEX
  8
T32SSILL
 62
7
 10
1038.121
 20
-3344.604
 30
2037.655
 70
    32
  0
VERTEX
  8
T32SSILL
 62
7
 10
1038.994
 20
-3336.006
 30
2037.659
 70
    32
  0
VERTEX
  8
T32SSILL
 62
7
 10
1083.197
 20
-3305.607
 30
2037.591
 70
    32
  0
VERTEX
  8
T32SSILL
 62
7
 10
1091.085
 20
-3303.868
 30
2037.568
 70
    32
  0
VERTEX
  8
T32SSILL
 62
7
 10
1094.809
 20
-3304.322
 30
2037.558
 70
    32
  0
VERTEX
  8
T32SSILL
 62
7
 10
1103.189
 20
-3308.011
 30
2037.539
 70
    32
  0
VERTEX
  8
T32SSILL
 62
7
 10
1106.126
 20
-3310.602
 30
2037.533
 70
    32
  0
SEQEND
  8
T32SSILL
  0
POLYLINE
  8
T32SSILL
 62
7
 66
     1
 70
     9
  0
VERTEX
  8
T32SSILL
 62
7
 10
1040.386
 20
-3248.396
 30
2037.654
 70
    32
  0
VERTEX
  8
T32SSILL
 62
7
 10
1046.752
 20
-3249.395
 30
2037.637
 70
    32
  0
VERTEX
  8
T32SSILL
 62
7
 10
1049.981
 20
-3251.329
 30
2037.630
 70
    32
  0
VERTEX
  8
T32SSILL
 62
7
 10
1093.533
 20
-3296.333
 30
2037.554
 70
    32
  0
VERTEX
  8
T32SSILL
 62
7
 10
1032.809
 20
-3291.532
 30
2037.696
 70
    32
  0
VERTEX
  8
T32SSILL
 62
7
 10
829.304
 20
-3436.957
 30
2038.067
 70
    32
  0
VERTEX
  8
T32SSILL
 62
7
 10
834.003
 20
-3442.625
 30
2038.065
 70
    32
  0
VERTEX
  8
T32SSILL
 62
7
 10
1033.415
 20
-3298.927
 30
2037.690
 70
    32
  0
VERTEX
  8
T32SSILL
 62
7
 10
1073.579
 20
-3301.885
 30
2037.614
 70
    32
  0
VERTEX
  8
T32SSILL
 62
7
 10
999.630
 20
-3354.689
 30
2037.708
 70
    32
  0
VERTEX
  8
T32SSILL
 62
7
 10
993.015
 20
-3364.305
 30
2037.790
 70
    32
  0
VERTEX
  8
T32SSILL
 62
7
 10
990.247
 20
-3374.435
 30
2037.848
 70
    32
  0
VERTEX
  8
T32SSILL
 62
7
 10
972.200
 20
-3349.923
 30
2037.930
 70
    32
  0
VERTEX
  8
T32SSILL
 62
7
 10
966.697
 20
-3353.635
 30
2037.991
 70
    32
  0
VERTEX
  8
T32SSILL
 62
7
 10
978.214
 20
-3369.003
 30
2037.938
 70
    32
  0
VERTEX
  8
T32SSILL
 62
7
 10
811.009
 20
-3488.834
 30
2038.114
 70
    32
  0
VERTEX
  8
T32SSILL
 62
7
 10
800.886
 20
-3474.523
 30
2038.091
 70
    32
  0
VERTEX
  8
T32SSILL
 62
7
 10
805.371
 20
-3471.320
 30
2038.078
 70
    32
  0
VERTEX
  8
T32SSILL
 62
7
 10
794.964
 20
-3456.633
 30
2038.054
 70
    32
  0
VERTEX
  8
T32SSILL
 62
7
 10
790.491
 20
-3459.828
 30
2038.066
 70
    32
  0
VERTEX
  8
T32SSILL
 62
7
 10
776.519
 20
-3440.076
 30
2038.034
 70
    32
  0
VERTEX
  8
T32SSILL
 62
7
 10
776.119
 20
-3435.253
 30
2038.024
 70
    32
  0
VERTEX
  8
T32SSILL
 62
7
 10
777.240
 20
-3431.190
 30
2038.029
 70
    32
  0
VERTEX
  8
T32SSILL
 62
7
 10
1026.551
 20
-3252.621
 30
2037.696
 70
    32
  0
VERTEX
  8
T32SSILL
 62
7
 10
1036.035
 20
-3249.002
 30
2037.666
 70
    32
  0
SEQEND
  8
T32SSILL
  0
POLYLINE
  8
T32SSILL
 62
7
 66
     1
 70
     9
  0
VERTEX
  8
T32SSILL
 62
7
 10
872.578
 20
-3684.590
 30
2037.612
 70
    32
  0
VERTEX
  8
T32SSILL
 62
7
 10
805.324
 20
-3732.567
 30
2037.903
 70
    32
  0
VERTEX
  8
T32SSILL
 62
7
 10
816.512
 20
-3748.160
 30
2037.842
 70
    32
  0
VERTEX
  8
T32SSILL
 62
7
 10
826.890
 20
-3751.014
 30
2037.809
 70
    32
  0
VERTEX
  8
T32SSILL
 62
7
 10
831.220
 20
-3750.451
 30
2037.799
 70
    32
  0
VERTEX
  8
T32SSILL
 62
7
 10
851.608
 20
-3736.073
 30
2037.708
 70
    32
  0
VERTEX
  8
T32SSILL
 62
7
 10
840.452
 20
-3720.149
 30
2037.798
 70
    32
  0
VERTEX
  8
T32SSILL
 62
7
 10
883.242
 20
-3690.569
 30
2037.535
 70
    32
  0
VERTEX
  8
T32SSILL
 62
7
 10
897.660
 20
-3703.867
 30
2037.455
 70
    32
  0
VERTEX
  8
T32SSILL
 62
7
 10
901.364
 20
-3700.944
 30
2037.445
 70
    32
  0
VERTEX
  8
T32SSILL
 62
7
 10
893.090
 20
-3690.570
 30
2037.479
 70
    32
  0
VERTEX
  8
T32SSILL
 62
7
 10
889.964
 20
-3685.613
 30
2037.493
 70
    32
  0
VERTEX
  8
T32SSILL
 62
7
 10
891.179
 20
-3684.759
 30
2037.489
 70
    32
  0
VERTEX
  8
T32SSILL
 62
7
 10
887.972
 20
-3680.262
 30
2037.512
 70
    32
  0
VERTEX
  8
T32SSILL
 62
7
 10
883.087
 20
-3683.746
 30
2037.542
 70
    32
  0
VERTEX
  8
T32SSILL
 62
7
 10
879.898
 20
-3679.275
 30
2037.568
 70
    32
  0
SEQEND
  8
T32SSILL
  0
POLYLINE
  8
T32SSILL
 62
7
 66
     1
 70
     9
  0
VERTEX
  8
T32SSILL
 62
7
 10
1020.374
 20
-3721.354
 30
2037.130
 70
    32
  0
VERTEX
  8
T32SSILL
 62
7
 10
1014.109
 20
-3717.582
 30
2037.147
 70
    32
  0
VERTEX
  8
T32SSILL
 62
7
 10
1019.070
 20
-3714.350
 30
2037.144
 70
    32
  0
VERTEX
  8
T32SSILL
 62
7
 10
1033.326
 20
-3723.824
 30
2037.103
 70
    32
  0
VERTEX
  8
T32SSILL
 62
7
 10
1037.008
 20
-3725.181
 30
2037.094
 70
    32
  0
VERTEX
  8
T32SSILL
 62
7
 10
1043.557
 20
-3720.668
 30
2037.101
 70
    32
  0
VERTEX
  8
T32SSILL
 62
7
 10
1046.958
 20
-3725.089
 30
2037.099
 70
    32
  0
VERTEX
  8
T32SSILL
 62
7
 10
1037.868
 20
-3731.525
 30
2037.087
 70
    32
  0
VERTEX
  8
T32SSILL
 62
7
 10
1040.904
 20
-3736.512
 30
2037.083
 70
    32
  0
VERTEX
  8
T32SSILL
 62
7
 10
1025.438
 20
-3747.577
 30
2037.075
 70
    32
  0
VERTEX
  8
T32SSILL
 62
7
 10
1018.958
 20
-3738.571
 30
2037.102
 70
    32
  0
VERTEX
  8
T32SSILL
 62
7
 10
1020.317
 20
-3736.624
 30
2037.103
 70
    32
  0
VERTEX
  8
T32SSILL
 62
7
 10
1021.097
 20
-3724.170
 30
2037.123
 70
    32
  0
SEQEND
  8
T32SSILL
  0
POLYLINE
  8
T32SSILL
 62
7
 66
     1
 70
     9
  0
VERTEX
  8
T32SSILL
 62
7
 10
960.666
 20
-3726.871
 30
2037.238
 70
    32
  0
VERTEX
  8
T32SSILL
 62
7
 10
966.341
 20
-3722.561
 30
2037.223
 70
    32
  0
VERTEX
  8
T32SSILL
 62
7
 10
969.822
 20
-3729.634
 30
2037.207
 70
    32
  0
VERTEX
  8
T32SSILL
 62
7
 10
976.932
 20
-3738.757
 30
2037.178
 70
    32
  0
VERTEX
  8
T32SSILL
 62
7
 10
988.096
 20
-3731.022
 30
2037.169
 70
    32
  0
VERTEX
  8
T32SSILL
 62
7
 10
988.580
 20
-3719.350
 30
2037.189
 70
    32
  0
VERTEX
  8
T32SSILL
 62
7
 10
983.595
 20
-3716.715
 30
2037.202
 70
    32
  0
VERTEX
  8
T32SSILL
 62
7
 10
977.199
 20
-3707.859
 30
2037.229
 70
    32
  0
VERTEX
  8
T32SSILL
 62
7
 10
967.484
 20
-3714.726
 30
2037.233
 70
    32
  0
VERTEX
  8
T32SSILL
 62
7
 10
964.541
 20
-3710.480
 30
2037.246
 70
    32
  0
VERTEX
  8
T32SSILL
 62
7
 10
954.204
 20
-3717.923
 30
2037.265
 70
    32
  0
VERTEX
  8
T32SSILL
 62
7
 10
960.718
 20
-3726.832
 30
2037.238
 70
    32
  0
SEQEND
  8
T32SSILL
  0
POLYLINE
  8
T32SSILL
 62
7
 66
     1
 70
     9
  0
VERTEX
  8
T32SSILL
 62
7
 10
906.382
 20
-3710.299
 30
2037.422
 70
    32
  0
VERTEX
  8
T32SSILL
 62
7
 10
904.416
 20
-3705.951
 30
2037.432
 70
    32
  0
VERTEX
  8
T32SSILL
 62
7
 10
896.762
 20
-3711.429
 30
2037.452
 70
    32
  0
VERTEX
  8
T32SSILL
 62
7
 10
906.621
 20
-3728.762
 30
2037.408
 70
    32
  0
VERTEX
  8
T32SSILL
 62
7
 10
886.319
 20
-3743.172
 30
2037.466
 70
    32
  0
VERTEX
  8
T32SSILL
 62
7
 10
889.681
 20
-3747.834
 30
2037.448
 70
    32
  0
VERTEX
  8
T32SSILL
 62
7
 10
936.581
 20
-3714.014
 30
2037.324
 70
    32
  0
VERTEX
  8
T32SSILL
 62
7
 10
933.152
 20
-3709.265
 30
2037.338
 70
    32
  0
VERTEX
  8
T32SSILL
 62
7
 10
915.602
 20
-3722.711
 30
2037.384
 70
    32
  0
VERTEX
  8
T32SSILL
 62
7
 10
911.539
 20
-3717.635
 30
2037.401
 70
    32
  0
SEQEND
  8
T32SSILL
  0
POLYLINE
  8
T32SSILL
 62
7
 66
     1
 70
     9
  0
VERTEX
  8
T32SSILL
 62
7
 10
871.637
 20
-3652.944
 30
2037.648
 70
    32
  0
VERTEX
  8
T32SSILL
 62
7
 10
821.245
 20
-3689.100
 30
2037.952
 70
    32
  0
VERTEX
  8
T32SSILL
 62
7
 10
823.137
 20
-3698.422
 30
2037.927
 70
    32
  0
VERTEX
  8
T32SSILL
 62
7
 10
817.980
 20
-3701.254
 30
2037.935
 70
    32
  0
VERTEX
  8
T32SSILL
 62
7
 10
809.107
 20
-3709.052
 30
2037.941
 70
    32
  0
VERTEX
  8
T32SSILL
 62
7
 10
792.456
 20
-3717.381
 30
2037.967
 70
    32
  0
VERTEX
  8
T32SSILL
 62
7
 10
793.374
 20
-3718.903
 30
2037.961
 70
    32
  0
VERTEX
  8
T32SSILL
 62
7
 10
775.146
 20
-3731.565
 30
2037.952
 70
    32
  0
VERTEX
  8
T32SSILL
 62
7
 10
777.780
 20
-3735.264
 30
2037.942
 70
    32
  0
VERTEX
  8
T32SSILL
 62
7
 10
797.329
 20
-3721.342
 30
2037.946
 70
    32
  0
VERTEX
  8
T32SSILL
 62
7
 10
801.116
 20
-3726.659
 30
2037.926
 70
    32
  0
VERTEX
  8
T32SSILL
 62
7
 10
890.390
 20
-3662.986
 30
2037.511
 70
    32
  0
VERTEX
  8
T32SSILL
 62
7
 10
884.192
 20
-3654.296
 30
2037.561
 70
    32
  0
VERTEX
  8
T32SSILL
 62
7
 10
876.573
 20
-3659.850
 30
2037.608
 70
    32
  0
SEQEND
  8
T32SSILL
  0
POLYLINE
  8
T32SSILL
 62
7
 66
     1
 70
     9
  0
VERTEX
  8
T32SSILL
 62
7
 10
934.648
 20
-4150.988
 30
2037.097
 70
    32
  0
VERTEX
  8
T32SSILL
 62
7
 10
943.330
 20
-4140.931
 30
2037.100
 70
    32
  0
VERTEX
  8
T32SSILL
 62
7
 10
1001.168
 20
-4099.692
 30
2037.069
 70
    32
  0
VERTEX
  8
T32SSILL
 62
7
 10
992.628
 20
-4085.818
 30
2037.096
 70
    32
  0
VERTEX
  8
T32SSILL
 62
7
 10
990.094
 20
-4084.690
 30
2037.094
 70
    32
  0
VERTEX
  8
T32SSILL
 62
7
 10
984.864
 20
-4088.617
 30
2037.107
 70
    32
  0
VERTEX
  8
T32SSILL
 62
7
 10
980.414
 20
-4086.466
 30
2037.104
 70
    32
  0
VERTEX
  8
T32SSILL
 62
7
 10
974.558
 20
-4071.338
 30
2037.067
 70
    32
  0
VERTEX
  8
T32SSILL
 62
7
 10
965.570
 20
-4056.374
 30
2037.032
 70
    32
  0
VERTEX
  8
T32SSILL
 62
7
 10
958.104
 20
-4049.972
 30
2037.022
 70
    32
  0
VERTEX
  8
T32SSILL
 62
7
 10
947.539
 20
-4045.766
 30
2037.035
 70
    32
  0
VERTEX
  8
T32SSILL
 62
7
 10
896.484
 20
-4082.520
 30
2037.194
 70
    32
  0
VERTEX
  8
T32SSILL
 62
7
 10
891.293
 20
-4092.917
 30
2037.225
 70
    32
  0
VERTEX
  8
T32SSILL
 62
7
 10
890.542
 20
-4096.592
 30
2037.232
 70
    32
  0
VERTEX
  8
T32SSILL
 62
7
 10
892.403
 20
-4105.020
 30
2037.235
 70
    32
  0
VERTEX
  8
T32SSILL
 62
7
 10
932.110
 20
-4160.696
 30
2037.081
 70
    32
  0
VERTEX
  8
T32SSILL
 62
7
 10
933.653
 20
-4153.861
 30
2037.092
 70
    32
  0
SEQEND
  8
T32SSILL
  0
POLYLINE
  8
T32SSILL
 62
7
 66
     1
 70
     9
  0
VERTEX
  8
T32SSILL
 62
7
 10
803.883
 20
-3980.521
 30
2037.410
 70
    32
  0
VERTEX
  8
T32SSILL
 62
7
 10
804.543
 20
-3982.978
 30
2037.408
 70
    32
  0
VERTEX
  8
T32SSILL
 62
7
 10
839.105
 20
-4032.013
 30
2037.343
 70
    32
  0
VERTEX
  8
T32SSILL
 62
7
 10
840.453
 20
-4025.208
 30
2037.336
 70
    32
  0
VERTEX
  8
T32SSILL
 62
7
 10
843.432
 20
-4018.870
 30
2037.317
 70
    32
  0
VERTEX
  8
T32SSILL
 62
7
 10
863.923
 20
-3956.893
 30
2037.317
 70
    32
  0
VERTEX
  8
T32SSILL
 62
7
 10
870.232
 20
-3952.385
 30
2037.311
 70
    32
  0
VERTEX
  8
T32SSILL
 62
7
 10
866.860
 20
-3947.665
 30
2037.324
 70
    32
  0
VERTEX
  8
T32SSILL
 62
7
 10
896.271
 20
-3926.904
 30
2037.300
 70
    32
  0
VERTEX
  8
T32SSILL
 62
7
 10
899.524
 20
-3931.458
 30
2037.288
 70
    32
  0
VERTEX
  8
T32SSILL
 62
7
 10
919.052
 20
-3917.506
 30
2037.281
 70
    32
  0
VERTEX
  8
T32SSILL
 62
7
 10
911.622
 20
-3907.106
 30
2037.308
 70
    32
  0
VERTEX
  8
T32SSILL
 62
7
 10
860.647
 20
-3944.485
 30
2037.341
 70
    32
  0
VERTEX
  8
T32SSILL
 62
7
 10
856.136
 20
-3941.944
 30
2037.353
 70
    32
  0
VERTEX
  8
T32SSILL
 62
7
 10
847.375
 20
-3945.016
 30
2037.366
 70
    32
  0
VERTEX
  8
T32SSILL
 62
7
 10
835.789
 20
-3941.968
 30
2037.393
 70
    32
  0
VERTEX
  8
T32SSILL
 62
7
 10
808.300
 20
-3962.007
 30
2037.421
 70
    32
  0
VERTEX
  8
T32SSILL
 62
7
 10
805.607
 20
-3965.542
 30
2037.420
 70
    32
  0
VERTEX
  8
T32SSILL
 62
7
 10
803.419
 20
-3978.034
 30
2037.413
 70
    32
  0
SEQEND
  8
T32SSILL
  0
POLYLINE
  8
T32SSILL
 62
7
 66
     1
 70
     9
  0
VERTEX
  8
T32SSILL
 62
7
 10
897.560
 20
-3949.351
 30
2037.262
 70
    32
  0
VERTEX
  8
T32SSILL
 62
7
 10
892.567
 20
-3952.684
 30
2037.266
 70
    32
  0
VERTEX
  8
T32SSILL
 62
7
 10
888.753
 20
-3947.345
 30
2037.281
 70
    32
  0
VERTEX
  8
T32SSILL
 62
7
 10
870.402
 20
-3960.530
 30
2037.299
 70
    32
  0
VERTEX
  8
T32SSILL
 62
7
 10
855.237
 20
-4008.331
 30
2037.261
 70
    32
  0
VERTEX
  8
T32SSILL
 62
7
 10
935.253
 20
-3950.711
 30
2037.204
 70
    32
  0
VERTEX
  8
T32SSILL
 62
7
 10
927.648
 20
-3933.575
 30
2037.243
 70
    32
  0
VERTEX
  8
T32SSILL
 62
7
 10
929.572
 20
-3932.231
 30
2037.242
 70
    32
  0
VERTEX
  8
T32SSILL
 62
7
 10
922.861
 20
-3922.838
 30
2037.267
 70
    32
  0
VERTEX
  8
T32SSILL
 62
7
 10
893.625
 20
-3943.844
 30
2037.277
 70
    32
  0
SEQEND
  8
T32SSILL
  0
POLYLINE
  8
T32SSILL
 62
7
 66
     1
 70
     9
  0
VERTEX
  8
T32SSILL
 62
7
 10
833.590
 20
-3817.034
 30
2037.655
 70
    32
  0
VERTEX
  8
T32SSILL
 62
7
 10
848.525
 20
-3830.305
 30
2037.590
 70
    32
  0
VERTEX
  8
T32SSILL
 62
7
 10
860.865
 20
-3821.455
 30
2037.568
 70
    32
  0
VERTEX
  8
T32SSILL
 62
7
 10
856.530
 20
-3801.043
 30
2037.616
 70
    32
  0
VERTEX
  8
T32SSILL
 62
7
 10
865.361
 20
-3796.174
 30
2037.560
 70
    32
  0
VERTEX
  8
T32SSILL
 62
7
 10
858.579
 20
-3786.768
 30
2037.615
 70
    32
  0
VERTEX
  8
T32SSILL
 62
7
 10
827.182
 20
-3809.628
 30
2037.687
 70
    32
  0
SEQEND
  8
T32SSILL
  0
POLYLINE
  8
T32SSILL
 62
7
 66
     1
 70
     9
  0
VERTEX
  8
T32SSILL
 62
7
 10
802.091
 20
-3779.497
 30
2037.814
 70
    32
  0
VERTEX
  8
T32SSILL
 62
7
 10
820.539
 20
-3766.211
 30
2037.794
 70
    32
  0
VERTEX
  8
T32SSILL
 62
7
 10
842.799
 20
-3772.084
 30
2037.725
 70
    32
  0
VERTEX
  8
T32SSILL
 62
7
 10
847.175
 20
-3770.955
 30
2037.707
 70
    32
  0
VERTEX
  8
T32SSILL
 62
7
 10
853.760
 20
-3780.085
 30
2037.654
 70
    32
  0
VERTEX
  8
T32SSILL
 62
7
 10
817.285
 20
-3806.086
 30
2037.720
 70
    32
  0
VERTEX
  8
T32SSILL
 62
7
 10
811.219
 20
-3797.585
 30
2037.753
 70
    32
  0
VERTEX
  8
T32SSILL
 62
7
 10
812.269
 20
-3796.828
 30
2037.752
 70
    32
  0
SEQEND
  8
T32SSILL
  0
POLYLINE
  8
T32SSILL
 62
7
 66
     1
 70
     9
  0
VERTEX
  8
T32SSILL
 62
7
 10
760.605
 20
-3914.588
 30
2037.576
 70
    32
  0
VERTEX
  8
T32SSILL
 62
7
 10
761.383
 20
-3907.641
 30
2037.590
 70
    32
  0
VERTEX
  8
T32SSILL
 62
7
 10
766.113
 20
-3898.140
 30
2037.606
 70
    32
  0
VERTEX
  8
T32SSILL
 62
7
 10
805.952
 20
-3869.264
 30
2037.618
 70
    32
  0
VERTEX
  8
T32SSILL
 62
7
 10
814.400
 20
-3880.055
 30
2037.574
 70
    32
  0
VERTEX
  8
T32SSILL
 62
7
 10
819.295
 20
-3884.142
 30
2037.553
 70
    32
  0
VERTEX
  8
T32SSILL
 62
7
 10
854.699
 20
-3859.325
 30
2037.514
 70
    32
  0
VERTEX
  8
T32SSILL
 62
7
 10
843.438
 20
-3842.294
 30
2037.578
 70
    32
  0
VERTEX
  8
T32SSILL
 62
7
 10
861.571
 20
-3829.970
 30
2037.555
 70
    32
  0
VERTEX
  8
T32SSILL
 62
7
 10
871.900
 20
-3844.559
 30
2037.472
 70
    32
  0
VERTEX
  8
T32SSILL
 62
7
 10
866.064
 20
-3848.643
 30
2037.507
 70
    32
  0
VERTEX
  8
T32SSILL
 62
7
 10
872.703
 20
-3858.020
 30
2037.454
 70
    32
  0
VERTEX
  8
T32SSILL
 62
7
 10
824.242
 20
-3893.867
 30
2037.521
 70
    32
  0
VERTEX
  8
T32SSILL
 62
7
 10
796.599
 20
-3970.075
 30
2037.427
 70
    32
  0
VERTEX
  8
T32SSILL
 62
7
 10
763.286
 20
-3924.127
 30
2037.553
 70
    32
  0
VERTEX
  8
T32SSILL
 62
7
 10
761.640
 20
-3919.777
 30
2037.564
 70
    32
  0
SEQEND
  8
T32SSILL
  0
POLYLINE
  8
T32SSILL
 62
7
 66
     1
 70
     9
  0
VERTEX
  8
T32SSILL
 62
7
 10
842.520
 20
-3921.154
 30
2037.417
 70
    32
  0
VERTEX
  8
T32SSILL
 62
7
 10
843.935
 20
-3913.564
 30
2037.429
 70
    32
  0
VERTEX
  8
T32SSILL
 62
7
 10
842.286
 20
-3903.651
 30
2037.454
 70
    32
  0
VERTEX
  8
T32SSILL
 62
7
 10
884.067
 20
-3874.073
 30
2037.374
 70
    32
  0
VERTEX
  8
T32SSILL
 62
7
 10
876.712
 20
-3863.683
 30
2037.422
 70
    32
  0
VERTEX
  8
T32SSILL
 62
7
 10
830.860
 20
-3897.970
 30
2037.495
 70
    32
  0
VERTEX
  8
T32SSILL
 62
7
 10
811.348
 20
-3950.504
 30
2037.437
 70
    32
  0
VERTEX
  8
T32SSILL
 62
7
 10
837.356
 20
-3932.553
 30
2037.407
 70
    32
  0
VERTEX
  8
T32SSILL
 62
7
 10
837.725
 20
-3922.457
 30
2037.427
 70
    32
  0
SEQEND
  8
T32SSILL
  0
POLYLINE
  8
T32SSILL
 62
7
 66
     1
 70
     9
  0
VERTEX
  8
T32SSILL
 62
7
 10
803.577
 20
-3838.527
 30
2037.688
 70
    32
  0
VERTEX
  8
T32SSILL
 62
7
 10
797.845
 20
-3830.494
 30
2037.719
 70
    32
  0
VERTEX
  8
T32SSILL
 62
7
 10
783.337
 20
-3840.939
 30
2037.712
 70
    32
  0
VERTEX
  8
T32SSILL
 62
7
 10
767.640
 20
-3888.334
 30
2037.625
 70
    32
  0
VERTEX
  8
T32SSILL
 62
7
 10
802.673
 20
-3863.125
 30
2037.639
 70
    32
  0
VERTEX
  8
T32SSILL
 62
7
 10
802.315
 20
-3860.369
 30
2037.646
 70
    32
  0
VERTEX
  8
T32SSILL
 62
7
 10
798.075
 20
-3854.235
 30
2037.670
 70
    32
  0
VERTEX
  8
T32SSILL
 62
7
 10
795.687
 20
-3844.178
 30
2037.695
 70
    32
  0
SEQEND
  8
T32SSILL
  0
POLYLINE
  8
T32SSILL
 62
7
 66
     1
 70
     9
  0
VERTEX
  8
T32SSILL
 62
7
 10
785.204
 20
-3759.835
 30
2037.883
 70
    32
  0
VERTEX
  8
T32SSILL
 62
7
 10
794.000
 20
-3761.294
 30
2037.872
 70
    32
  0
VERTEX
  8
T32SSILL
 62
7
 10
799.207
 20
-3763.779
 30
2037.854
 70
    32
  0
VERTEX
  8
T32SSILL
 62
7
 10
804.308
 20
-3769.762
 30
2037.828
 70
    32
  0
VERTEX
  8
T32SSILL
 62
7
 10
816.670
 20
-3760.469
 30
2037.816
 70
    32
  0
VERTEX
  8
T32SSILL
 62
7
 10
809.317
 20
-3750.028
 30
2037.856
 70
    32
  0
VERTEX
  8
T32SSILL
 62
7
 10
805.144
 20
-3753.000
 30
2037.861
 70
    32
  0
VERTEX
  8
T32SSILL
 62
7
 10
801.663
 20
-3748.113
 30
2037.880
 70
    32
  0
VERTEX
  8
T32SSILL
 62
7
 10
793.476
 20
-3753.944
 30
2037.889
 70
    32
  0
SEQEND
  8
T32SSILL
  0
POLYLINE
  8
T32SSILL
 62
7
 66
     1
 70
     9
  0
VERTEX
  8
T32SSILL
 62
7
 10
980.378
 20
-3918.272
 30
2037.189
 70
    32
  0
VERTEX
  8
T32SSILL
 62
7
 10
974.891
 20
-3915.881
 30
2037.201
 70
    32
  0
VERTEX
  8
T32SSILL
 62
7
 10
966.696
 20
-3906.312
 30
2037.228
 70
    32
  0
VERTEX
  8
T32SSILL
 62
7
 10
949.252
 20
-3918.491
 30
2037.235
 70
    32
  0
VERTEX
  8
T32SSILL
 62
7
 10
946.018
 20
-3913.965
 30
2037.247
 70
    32
  0
VERTEX
  8
T32SSILL
 62
7
 10
950.900
 20
-3910.477
 30
2037.245
 70
    32
  0
VERTEX
  8
T32SSILL
 62
7
 10
947.225
 20
-3905.333
 30
2037.258
 70
    32
  0
VERTEX
  8
T32SSILL
 62
7
 10
993.876
 20
-3871.814
 30
2037.170
 70
    32
  0
VERTEX
  8
T32SSILL
 62
7
 10
1001.356
 20
-3882.285
 30
2037.177
 70
    32
  0
VERTEX
  8
T32SSILL
 62
7
 10
992.276
 20
-3888.927
 30
2037.200
 70
    32
  0
VERTEX
  8
T32SSILL
 62
7
 10
1002.337
 20
-3902.806
 30
2037.181
 70
    32
  0
SEQEND
  8
T32SSILL
  0
POLYLINE
  8
T32SSILL
 62
7
 66
     1
 70
     9
  0
VERTEX
  8
T32SSILL
 62
7
 10
935.076
 20
-3883.571
 30
2037.270
 70
    32
  0
VERTEX
  8
T32SSILL
 62
7
 10
938.797
 20
-3882.556
 30
2037.264
 70
    32
  0
VERTEX
  8
T32SSILL
 62
7
 10
948.156
 20
-3875.593
 30
2037.239
 70
    32
  0
VERTEX
  8
T32SSILL
 62
7
 10
947.912
 20
-3859.518
 30
2037.214
 70
    32
  0
VERTEX
  8
T32SSILL
 62
7
 10
967.730
 20
-3845.462
 30
2037.164
 70
    32
  0
VERTEX
  8
T32SSILL
 62
7
 10
975.266
 20
-3852.574
 30
2037.165
 70
    32
  0
VERTEX
  8
T32SSILL
 62
7
 10
981.477
 20
-3856.292
 30
2037.162
 70
    32
  0
VERTEX
  8
T32SSILL
 62
7
 10
983.697
 20
-3855.909
 30
2037.159
 70
    32
  0
VERTEX
  8
T32SSILL
 62
7
 10
992.688
 20
-3849.509
 30
2037.136
 70
    32
  0
VERTEX
  8
T32SSILL
 62
7
 10
996.023
 20
-3854.177
 30
2037.139
 70
    32
  0
VERTEX
  8
T32SSILL
 62
7
 10
976.505
 20
-3868.143
 30
2037.188
 70
    32
  0
VERTEX
  8
T32SSILL
 62
7
 10
980.439
 20
-3873.649
 30
2037.192
 70
    32
  0
VERTEX
  8
T32SSILL
 62
7
 10
953.227
 20
-3893.091
 30
2037.261
 70
    32
  0
VERTEX
  8
T32SSILL
 62
7
 10
949.444
 20
-3887.797
 30
2037.257
 70
    32
  0
VERTEX
  8
T32SSILL
 62
7
 10
934.798
 20
-3898.260
 30
2037.288
 70
    32
  0
VERTEX
  8
T32SSILL
 62
7
 10
930.978
 20
-3892.913
 30
2037.291
 70
    32
  0
VERTEX
  8
T32SSILL
 62
7
 10
932.831
 20
-3891.554
 30
2037.286
 70
    32
  0
VERTEX
  8
T32SSILL
 62
7
 10
934.043
 20
-3885.169
 30
2037.274
 70
    32
  0
SEQEND
  8
T32SSILL
  0
POLYLINE
  8
T32SSILL
 62
7
 66
     1
 70
     9
  0
VERTEX
  8
T32SSILL
 62
7
 10
977.436
 20
-3744.918
 30
2037.172
 70
    32
  0
VERTEX
  8
T32SSILL
 62
7
 10
981.058
 20
-3749.510
 30
2037.157
 70
    32
  0
VERTEX
  8
T32SSILL
 62
7
 10
984.593
 20
-3762.363
 30
2037.136
 70
    32
  0
VERTEX
  8
T32SSILL
 62
7
 10
981.307
 20
-3764.600
 30
2037.145
 70
    32
  0
VERTEX
  8
T32SSILL
 62
7
 10
988.248
 20
-3774.184
 30
2037.116
 70
    32
  0
VERTEX
  8
T32SSILL
 62
7
 10
1010.490
 20
-3758.271
 30
2037.082
 70
    32
  0
VERTEX
  8
T32SSILL
 62
7
 10
1007.508
 20
-3754.103
 30
2037.095
 70
    32
  0
VERTEX
  8
T32SSILL
 62
7
 10
1013.459
 20
-3749.781
 30
2037.092
 70
    32
  0
VERTEX
  8
T32SSILL
 62
7
 10
996.598
 20
-3738.097
 30
2037.142
 70
    32
  0
VERTEX
  8
T32SSILL
 62
7
 10
993.348
 20
-3740.390
 30
2037.143
 70
    32
  0
VERTEX
  8
T32SSILL
 62
7
 10
987.405
 20
-3737.572
 30
2037.159
 70
    32
  0
VERTEX
  8
T32SSILL
 62
7
 10
981.273
 20
-3742.091
 30
2037.161
 70
    32
  0
SEQEND
  8
T32SSILL
  0
POLYLINE
  8
T32SSILL
 62
7
 66
     1
 70
     9
  0
VERTEX
  8
T32SSILL
 62
7
 10
955.965
 20
-3819.860
 30
2037.185
 70
    32
  0
VERTEX
  8
T32SSILL
 62
7
 10
955.140
 20
-3823.332
 30
2037.185
 70
    32
  0
VERTEX
  8
T32SSILL
 62
7
 10
966.300
 20
-3839.895
 30
2037.157
 70
    32
  0
VERTEX
  8
T32SSILL
 62
7
 10
951.580
 20
-3850.455
 30
2037.194
 70
    32
  0
VERTEX
  8
T32SSILL
 62
7
 10
935.815
 20
-3848.661
 30
2037.228
 70
    32
  0
VERTEX
  8
T32SSILL
 62
7
 10
918.728
 20
-3849.535
 30
2037.282
 70
    32
  0
VERTEX
  8
T32SSILL
 62
7
 10
939.392
 20
-3834.906
 30
2037.227
 70
    32
  0
VERTEX
  8
T32SSILL
 62
7
 10
935.896
 20
-3829.877
 30
2037.241
 70
    32
  0
VERTEX
  8
T32SSILL
 62
7
 10
953.535
 20
-3816.615
 30
2037.195
 70
    32
  0
SEQEND
  8
T32SSILL
  0
POLYLINE
  8
T32SSILL
 62
7
 66
     1
 70
     9
  0
VERTEX
  8
T32SSILL
 62
7
 10
929.715
 20
-3754.302
 30
2037.316
 70
    32
  0
VERTEX
  8
T32SSILL
 62
7
 10
930.344
 20
-3756.982
 30
2037.312
 70
    32
  0
VERTEX
  8
T32SSILL
 62
7
 10
928.928
 20
-3759.328
 30
2037.315
 70
    32
  0
VERTEX
  8
T32SSILL
 62
7
 10
926.129
 20
-3760.893
 30
2037.323
 70
    32
  0
VERTEX
  8
T32SSILL
 62
7
 10
923.890
 20
-3761.224
 30
2037.330
 70
    32
  0
VERTEX
  8
T32SSILL
 62
7
 10
917.811
 20
-3757.602
 30
2037.352
 70
    32
  0
VERTEX
  8
T32SSILL
 62
7
 10
926.534
 20
-3751.347
 30
2037.328
 70
    32
  0
VERTEX
  8
T32SSILL
 62
7
 10
923.276
 20
-3746.834
 30
2037.342
 70
    32
  0
VERTEX
  8
T32SSILL
 62
7
 10
933.028
 20
-3739.841
 30
2037.316
 70
    32
  0
VERTEX
  8
T32SSILL
 62
7
 10
936.817
 20
-3743.973
 30
2037.301
 70
    32
  0
VERTEX
  8
T32SSILL
 62
7
 10
928.497
 20
-3749.939
 30
2037.323
 70
    32
  0
VERTEX
  8
T32SSILL
 62
7
 10
928.720
 20
-3752.189
 30
2037.321
 70
    32
  0
SEQEND
  8
T32SSILL
  0
POLYLINE
  8
T32SSILL
 62
7
 66
     1
 70
     9
  0
VERTEX
  8
T32SSILL
 62
7
 10
1030.079
 20
-3790.552
 30
2037.020
 70
    32
  0
VERTEX
  8
T32SSILL
 62
7
 10
1017.203
 20
-3800.067
 30
2037.022
 70
    32
  0
VERTEX
  8
T32SSILL
 62
7
 10
1004.738
 20
-3790.880
 30
2037.051
 70
    32
  0
VERTEX
  8
T32SSILL
 62
7
 10
1002.236
 20
-3790.327
 30
2037.060
 70
    32
  0
VERTEX
  8
T32SSILL
 62
7
 10
996.702
 20
-3791.600
 30
2037.076
 70
    32
  0
VERTEX
  8
T32SSILL
 62
7
 10
990.245
 20
-3794.666
 30
2037.095
 70
    32
  0
VERTEX
  8
T32SSILL
 62
7
 10
986.768
 20
-3789.657
 30
2037.109
 70
    32
  0
VERTEX
  8
T32SSILL
 62
7
 10
994.779
 20
-3783.201
 30
2037.089
 70
    32
  0
VERTEX
  8
T32SSILL
 62
7
 10
991.998
 20
-3779.362
 30
2037.100
 70
    32
  0
VERTEX
  8
T32SSILL
 62
7
 10
1020.118
 20
-3759.124
 30
2037.064
 70
    32
  0
VERTEX
  8
T32SSILL
 62
7
 10
1025.703
 20
-3767.425
 30
2037.041
 70
    32
  0
VERTEX
  8
T32SSILL
 62
7
 10
1022.942
 20
-3772.028
 30
2037.036
 70
    32
  0
VERTEX
  8
T32SSILL
 62
7
 10
1027.286
 20
-3784.975
 30
2037.024
 70
    32
  0
SEQEND
  8
T32SSILL
  0
POLYLINE
  8
T32SSILL
 62
7
 66
     1
 70
     9
  0
VERTEX
  8
T32SSILL
 62
7
 10
891.911
 20
-3654.786
 30
2037.509
 70
    32
  0
VERTEX
  8
T32SSILL
 62
7
 10
889.040
 20
-3650.761
 30
2037.531
 70
    32
  0
VERTEX
  8
T32SSILL
 62
7
 10
908.943
 20
-3636.251
 30
2037.473
 70
    32
  0
VERTEX
  8
T32SSILL
 62
7
 10
913.098
 20
-3639.559
 30
2037.460
 70
    32
  0
VERTEX
  8
T32SSILL
 62
7
 10
909.773
 20
-3641.949
 30
2037.462
 70
    32
  0
SEQEND
  8
T32SSILL
  0
POLYLINE
  8
T32SSILL
 62
7
 66
     1
 70
     9
  0
VERTEX
  8
T32SSILL
 62
7
 10
876.134
 20
-3564.554
 30
2037.809
 70
    32
  0
VERTEX
  8
T32SSILL
 62
7
 10
884.110
 20
-3575.662
 30
2037.728
 70
    32
  0
VERTEX
  8
T32SSILL
 62
7
 10
910.679
 20
-3556.249
 30
2037.720
 70
    32
  0
VERTEX
  8
T32SSILL
 62
7
 10
905.236
 20
-3548.851
 30
2037.763
 70
    32
  0
VERTEX
  8
T32SSILL
 62
7
 10
934.505
 20
-3527.886
 30
2037.763
 70
    32
  0
VERTEX
  8
T32SSILL
 62
7
 10
939.676
 20
-3534.915
 30
2037.723
 70
    32
  0
VERTEX
  8
T32SSILL
 62
7
 10
1020.713
 20
-3476.595
 30
2037.618
 70
    32
  0
VERTEX
  8
T32SSILL
 62
7
 10
1033.594
 20
-3443.841
 30
2037.606
 70
    32
  0
VERTEX
  8
T32SSILL
 62
7
 10
1026.052
 20
-3434.286
 30
2037.648
 70
    32
  0
VERTEX
  8
T32SSILL
 62
7
 10
944.843
 20
-3493.116
 30
2037.839
 70
    32
  0
VERTEX
  8
T32SSILL
 62
7
 10
943.881
 20
-3504.027
 30
2037.828
 70
    32
  0
VERTEX
  8
T32SSILL
 62
7
 10
940.678
 20
-3519.140
 30
2037.780
 70
    32
  0
VERTEX
  8
T32SSILL
 62
7
 10
903.967
 20
-3545.302
 30
2037.780
 70
    32
  0
VERTEX
  8
T32SSILL
 62
7
 10
892.704
 20
-3531.424
 30
2037.862
 70
    32
  0
VERTEX
  8
T32SSILL
 62
7
 10
860.925
 20
-3554.458
 30
2037.925
 70
    32
  0
VERTEX
  8
T32SSILL
 62
7
 10
870.261
 20
-3568.771
 30
2037.826
 70
    32
  0
SEQEND
  8
T32SSILL
  0
POLYLINE
  8
T32SSILL
 62
7
 66
     1
 70
     9
  0
VERTEX
  8
T32SSILL
 62
7
 10
889.011
 20
-3524.687
 30
2037.897
 70
    32
  0
VERTEX
  8
T32SSILL
 62
7
 10
856.990
 20
-3547.290
 30
2037.971
 70
    32
  0
VERTEX
  8
T32SSILL
 62
7
 10
843.278
 20
-3533.697
 30
2038.091
 70
    32
  0
VERTEX
  8
T32SSILL
 62
7
 10
841.836
 20
-3535.028
 30
2038.094
 70
    32
  0
VERTEX
  8
T32SSILL
 62
7
 10
835.653
 20
-3527.108
 30
2038.154
 70
    32
  0
VERTEX
  8
T32SSILL
 62
7
 10
909.697
 20
-3473.359
 30
2037.997
 70
    32
  0
VERTEX
  8
T32SSILL
 62
7
 10
914.958
 20
-3480.954
 30
2037.942
 70
    32
  0
VERTEX
  8
T32SSILL
 62
7
 10
919.723
 20
-3477.706
 30
2037.930
 70
    32
  0
VERTEX
  8
T32SSILL
 62
7
 10
916.197
 20
-3472.531
 30
2037.970
 70
    32
  0
VERTEX
  8
T32SSILL
 62
7
 10
921.624
 20
-3468.680
 30
2037.965
 70
    32
  0
VERTEX
  8
T32SSILL
 62
7
 10
919.773
 20
-3466.111
 30
2037.987
 70
    32
  0
VERTEX
  8
T32SSILL
 62
7
 10
987.073
 20
-3418.559
 30
2037.920
 70
    32
  0
VERTEX
  8
T32SSILL
 62
7
 10
1018.411
 20
-3423.470
 30
2037.743
 70
    32
  0
VERTEX
  8
T32SSILL
 62
7
 10
1022.648
 20
-3428.489
 30
2037.696
 70
    32
  0
VERTEX
  8
T32SSILL
 62
7
 10
941.451
 20
-3485.730
 30
2037.856
 70
    32
  0
VERTEX
  8
T32SSILL
 62
7
 10
934.317
 20
-3474.144
 30
2037.888
 70
    32
  0
VERTEX
  8
T32SSILL
 62
7
 10
932.237
 20
-3472.900
 30
2037.895
 70
    32
  0
VERTEX
  8
T32SSILL
 62
7
 10
919.010
 20
-3483.702
 30
2037.927
 70
    32
  0
VERTEX
  8
T32SSILL
 62
7
 10
918.823
 20
-3487.425
 30
2037.925
 70
    32
  0
VERTEX
  8
T32SSILL
 62
7
 10
921.284
 20
-3492.425
 30
2037.913
 70
    32
  0
VERTEX
  8
T32SSILL
 62
7
 10
907.431
 20
-3505.412
 30
2037.920
 70
    32
  0
SEQEND
  8
T32SSILL
  0
POLYLINE
  8
T32SSILL
 62
7
 66
     1
 70
     9
  0
VERTEX
  8
T32SSILL
 62
7
 10
896.683
 20
-3474.299
 30
2038.054
 70
    32
  0
VERTEX
  8
T32SSILL
 62
7
 10
905.707
 20
-3467.781
 30
2038.046
 70
    32
  0
VERTEX
  8
T32SSILL
 62
7
 10
897.606
 20
-3456.454
 30
2038.105
 70
    32
  0
VERTEX
  8
T32SSILL
 62
7
 10
907.562
 20
-3449.171
 30
2038.121
 70
    32
  0
VERTEX
  8
T32SSILL
 62
7
 10
915.748
 20
-3460.527
 30
2038.036
 70
    32
  0
VERTEX
  8
T32SSILL
 62
7
 10
985.222
 20
-3411.400
 30
2037.967
 70
    32
  0
VERTEX
  8
T32SSILL
 62
7
 10
1012.128
 20
-3415.127
 30
2037.784
 70
    32
  0
VERTEX
  8
T32SSILL
 62
7
 10
982.780
 20
-3375.093
 30
2037.917
 70
    32
  0
VERTEX
  8
T32SSILL
 62
7
 10
820.399
 20
-3491.478
 30
2038.110
 70
    32
  0
VERTEX
  8
T32SSILL
 62
7
 10
832.101
 20
-3507.258
 30
2038.135
 70
    32
  0
VERTEX
  8
T32SSILL
 62
7
 10
826.958
 20
-3510.713
 30
2038.149
 70
    32
  0
VERTEX
  8
T32SSILL
 62
7
 10
833.522
 20
-3520.262
 30
2038.165
 70
    32
  0
VERTEX
  8
T32SSILL
 62
7
 10
883.968
 20
-3483.552
 30
2038.065
 70
    32
  0
SEQEND
  8
T32SSILL
  0
POLYLINE
  8
T32SSILL
 62
7
 66
     1
 70
     9
  0
VERTEX
  8
T32SSILL
 62
7
 10
816.022
 20
-3586.616
 30
2038.086
 70
    32
  0
VERTEX
  8
T32SSILL
 62
7
 10
778.579
 20
-3613.558
 30
2038.200
 70
    32
  0
VERTEX
  8
T32SSILL
 62
7
 10
778.032
 20
-3623.106
 30
2038.180
 70
    32
  0
VERTEX
  8
T32SSILL
 62
7
 10
784.235
 20
-3632.056
 30
2038.156
 70
    32
  0
VERTEX
  8
T32SSILL
 62
7
 10
789.128
 20
-3628.560
 30
2038.159
 70
    32
  0
VERTEX
  8
T32SSILL
 62
7
 10
782.160
 20
-3618.791
 30
2038.186
 70
    32
  0
VERTEX
  8
T32SSILL
 62
7
 10
787.946
 20
-3614.657
 30
2038.190
 70
    32
  0
VERTEX
  8
T32SSILL
 62
7
 10
791.434
 20
-3619.538
 30
2038.172
 70
    32
  0
VERTEX
  8
T32SSILL
 62
7
 10
795.740
 20
-3616.462
 30
2038.167
 70
    32
  0
VERTEX
  8
T32SSILL
 62
7
 10
806.768
 20
-3631.910
 30
2038.107
 70
    32
  0
VERTEX
  8
T32SSILL
 62
7
 10
830.732
 20
-3614.482
 30
2037.960
 70
    32
  0
VERTEX
  8
T32SSILL
 62
7
 10
822.522
 20
-3603.048
 30
2038.026
 70
    32
  0
VERTEX
  8
T32SSILL
 62
7
 10
827.380
 20
-3599.560
 30
2037.997
 70
    32
  0
SEQEND
  8
T32SSILL
  0
POLYLINE
  8
T32SSILL
 62
7
 66
     1
 70
     9
  0
VERTEX
  8
T32SSILL
 62
7
 10
998.260
 20
-3639.832
 30
2037.311
 70
    32
  0
VERTEX
  8
T32SSILL
 62
7
 10
964.183
 20
-3664.077
 30
2037.328
 70
    32
  0
VERTEX
  8
T32SSILL
 62
7
 10
968.463
 20
-3668.364
 30
2037.313
 70
    32
  0
VERTEX
  8
T32SSILL
 62
7
 10
975.783
 20
-3680.022
 30
2037.280
 70
    32
  0
VERTEX
  8
T32SSILL
 62
7
 10
973.845
 20
-3681.947
 30
2037.280
 70
    32
  0
VERTEX
  8
T32SSILL
 62
7
 10
976.277
 20
-3685.362
 30
2037.270
 70
    32
  0
VERTEX
  8
T32SSILL
 62
7
 10
1007.050
 20
-3663.703
 30
2037.254
 70
    32
  0
VERTEX
  8
T32SSILL
 62
7
 10
1004.047
 20
-3659.443
 30
2037.267
 70
    32
  0
VERTEX
  8
T32SSILL
 62
7
 10
1008.067
 20
-3656.531
 30
2037.265
 70
    32
  0
SEQEND
  8
T32SSILL
  0
POLYLINE
  8
T32SSILL
 62
7
 66
     1
 70
     9
  0
VERTEX
  8
T32SSILL
 62
7
 10
935.104
 20
-3653.922
 30
2037.396
 70
    32
  0
VERTEX
  8
T32SSILL
 62
7
 10
942.934
 20
-3648.425
 30
2037.392
 70
    32
  0
VERTEX
  8
T32SSILL
 62
7
 10
956.637
 20
-3656.531
 30
2037.354
 70
    32
  0
VERTEX
  8
T32SSILL
 62
7
 10
959.514
 20
-3660.801
 30
2037.342
 70
    32
  0
VERTEX
  8
T32SSILL
 62
7
 10
996.780
 20
-3634.300
 30
2037.323
 70
    32
  0
VERTEX
  8
T32SSILL
 62
7
 10
985.253
 20
-3617.985
 30
2037.372
 70
    32
  0
VERTEX
  8
T32SSILL
 62
7
 10
1006.037
 20
-3602.185
 30
2037.363
 70
    32
  0
VERTEX
  8
T32SSILL
 62
7
 10
999.240
 20
-3592.740
 30
2037.392
 70
    32
  0
VERTEX
  8
T32SSILL
 62
7
 10
938.164
 20
-3636.973
 30
2037.421
 70
    32
  0
VERTEX
  8
T32SSILL
 62
7
 10
941.705
 20
-3641.938
 30
2037.406
 70
    32
  0
VERTEX
  8
T32SSILL
 62
7
 10
930.848
 20
-3649.681
 30
2037.411
 70
    32
  0
SEQEND
  8
T32SSILL
  0
POLYLINE
  8
T32SSILL
 62
7
 66
     1
 70
     9
  0
VERTEX
  8
T32SSILL
 62
7
 10
962.185
 20
-3585.873
 30
2037.471
 70
    32
  0
VERTEX
  8
T32SSILL
 62
7
 10
908.168
 20
-3625.574
 30
2037.493
 70
    32
  0
VERTEX
  8
T32SSILL
 62
7
 10
917.620
 20
-3636.309
 30
2037.458
 70
    32
  0
VERTEX
  8
T32SSILL
 62
7
 10
935.761
 20
-3623.271
 30
2037.449
 70
    32
  0
VERTEX
  8
T32SSILL
 62
7
 10
939.196
 20
-3628.087
 30
2037.435
 70
    32
  0
VERTEX
  8
T32SSILL
 62
7
 10
970.838
 20
-3605.256
 30
2037.419
 70
    32
  0
VERTEX
  8
T32SSILL
 62
7
 10
967.416
 20
-3600.547
 30
2037.434
 70
    32
  0
VERTEX
  8
T32SSILL
 62
7
 10
972.496
 20
-3596.856
 30
2037.431
 70
    32
  0
VERTEX
  8
T32SSILL
 62
7
 10
968.512
 20
-3591.375
 30
2037.448
 70
    32
  0
VERTEX
  8
T32SSILL
 62
7
 10
970.975
 20
-3589.602
 30
2037.447
 70
    32
  0
SEQEND
  8
T32SSILL
  0
POLYLINE
  8
T32SSILL
 62
7
 66
     1
 70
     9
  0
VERTEX
  8
T32SSILL
 62
7
 10
955.142
 20
-3693.073
 30
2037.293
 70
    32
  0
VERTEX
  8
T32SSILL
 62
7
 10
958.702
 20
-3693.437
 30
2037.286
 70
    32
  0
VERTEX
  8
T32SSILL
 62
7
 10
964.299
 20
-3701.288
 30
2037.263
 70
    32
  0
VERTEX
  8
T32SSILL
 62
7
 10
949.705
 20
-3711.691
 30
2037.284
 70
    32
  0
VERTEX
  8
T32SSILL
 62
7
 10
942.737
 20
-3702.042
 30
2037.313
 70
    32
  0
VERTEX
  8
T32SSILL
 62
7
 10
933.152
 20
-3709.265
 30
2037.338
 70
    32
  0
VERTEX
  8
T32SSILL
 62
7
 10
936.987
 20
-3700.917
 30
2037.332
 70
    32
  0
VERTEX
  8
T32SSILL
 62
7
 10
941.636
 20
-3695.109
 30
2037.322
 70
    32
  0
VERTEX
  8
T32SSILL
 62
7
 10
945.173
 20
-3693.368
 30
2037.312
 70
    32
  0
VERTEX
  8
T32SSILL
 62
7
 10
952.260
 20
-3692.767
 30
2037.298
 70
    32
  0
SEQEND
  8
T32SSILL
  0
POLYLINE
  8
T32SSILL
 62
7
 66
     1
 70
     9
  0
VERTEX
  8
T32SSILL
 62
7
 10
1004.873
 20
-3681.444
 30
2037.227
 70
    32
  0
VERTEX
  8
T32SSILL
 62
7
 10
989.613
 20
-3692.430
 30
2037.234
 70
    32
  0
VERTEX
  8
T32SSILL
 62
7
 10
995.897
 20
-3701.237
 30
2037.208
 70
    32
  0
VERTEX
  8
T32SSILL
 62
7
 10
1001.397
 20
-3697.228
 30
2037.205
 70
    32
  0
VERTEX
  8
T32SSILL
 62
7
 10
1008.267
 20
-3707.584
 30
2037.175
 70
    32
  0
VERTEX
  8
T32SSILL
 62
7
 10
1014.570
 20
-3712.649
 30
2037.155
 70
    32
  0
VERTEX
  8
T32SSILL
 62
7
 10
1019.624
 20
-3709.030
 30
2037.153
 70
    32
  0
VERTEX
  8
T32SSILL
 62
7
 10
1010.213
 20
-3692.680
 30
2037.198
 70
    32
  0
VERTEX
  8
T32SSILL
 62
7
 10
1010.253
 20
-3690.833
 30
2037.201
 70
    32
  0
VERTEX
  8
T32SSILL
 62
7
 10
1035.504
 20
-3673.336
 30
2037.187
 70
    32
  0
VERTEX
  8
T32SSILL
 62
7
 10
1032.176
 20
-3669.480
 30
2037.200
 70
    32
  0
VERTEX
  8
T32SSILL
 62
7
 10
1027.308
 20
-3672.987
 30
2037.202
 70
    32
  0
VERTEX
  8
T32SSILL
 62
7
 10
1023.659
 20
-3667.919
 30
2037.217
 70
    32
  0
VERTEX
  8
T32SSILL
 62
7
 10
1014.612
 20
-3674.432
 30
2037.222
 70
    32
  0
VERTEX
  8
T32SSILL
 62
7
 10
1018.213
 20
-3679.541
 30
2037.207
 70
    32
  0
VERTEX
  8
T32SSILL
 62
7
 10
1008.404
 20
-3686.454
 30
2037.212
 70
    32
  0
SEQEND
  8
T32SSILL
  0
POLYLINE
  8
T32SSILL
 62
7
 66
     1
 70
     9
  0
VERTEX
  8
T32SSILL
 62
7
 10
1031.384
 20
-3341.291
 30
2037.667
 70
    32
  0
VERTEX
  8
T32SSILL
 62
7
 10
1031.122
 20
-3352.355
 30
2037.661
 70
    32
  0
VERTEX
  8
T32SSILL
 62
7
 10
1036.489
 20
-3371.221
 30
2037.641
 70
    32
  0
VERTEX
  8
T32SSILL
 62
7
 10
1058.897
 20
-3406.347
 30
2037.585
 70
    32
  0
VERTEX
  8
T32SSILL
 62
7
 10
1037.019
 20
-3421.875
 30
2037.609
 70
    32
  0
VERTEX
  8
T32SSILL
 62
7
 10
1021.790
 20
-3418.471
 30
2037.709
 70
    32
  0
VERTEX
  8
T32SSILL
 62
7
 10
998.721
 20
-3388.490
 30
2037.818
 70
    32
  0
VERTEX
  8
T32SSILL
 62
7
 10
996.188
 20
-3379.435
 30
2037.811
 70
    32
  0
VERTEX
  8
T32SSILL
 62
7
 10
996.865
 20
-3370.863
 30
2037.777
 70
    32
  0
VERTEX
  8
T32SSILL
 62
7
 10
1000.003
 20
-3363.712
 30
2037.726
 70
    32
  0
VERTEX
  8
T32SSILL
 62
7
 10
1004.546
 20
-3360.194
 30
2037.697
 70
    32
  0
SEQEND
  8
T32SSILL
  0
POLYLINE
  8
T32SSILL
 62
7
 66
     1
 70
     9
  0
VERTEX
  8
T32SSILL
 62
7
 10
1273.565
 20
-3687.135
 30
2036.595
 70
    32
  0
VERTEX
  8
T32SSILL
 62
7
 10
1275.409
 20
-3695.251
 30
2036.608
 70
    32
  0
VERTEX
  8
T32SSILL
 62
7
 10
1281.832
 20
-3705.426
 30
2036.594
 70
    32
  0
VERTEX
  8
T32SSILL
 62
7
 10
1254.047
 20
-3725.820
 30
2036.862
 70
    32
  0
VERTEX
  8
T32SSILL
 62
7
 10
1235.106
 20
-3700.743
 30
2036.918
 70
    32
  0
VERTEX
  8
T32SSILL
 62
7
 10
1259.049
 20
-3683.703
 30
2036.689
 70
    32
  0
VERTEX
  8
T32SSILL
 62
7
 10
1265.377
 20
-3692.845
 30
2036.673
 70
    32
  0
SEQEND
  8
T32SSILL
  0
POLYLINE
  8
T32SSILL
 62
7
 66
     1
 70
     9
  0
VERTEX
  8
T32SSILL
 62
7
 10
1192.944
 20
-3692.584
 30
2037.037
 70
    32
  0
VERTEX
  8
T32SSILL
 62
7
 10
1173.740
 20
-3706.783
 30
2037.064
 70
    32
  0
VERTEX
  8
T32SSILL
 62
7
 10
1194.524
 20
-3735.615
 30
2037.003
 70
    32
  0
VERTEX
  8
T32SSILL
 62
7
 10
1222.693
 20
-3714.320
 30
2036.963
 70
    32
  0
VERTEX
  8
T32SSILL
 62
7
 10
1220.007
 20
-3711.121
 30
2036.971
 70
    32
  0
VERTEX
  8
T32SSILL
 62
7
 10
1229.222
 20
-3704.787
 30
2036.958
 70
    32
  0
VERTEX
  8
T32SSILL
 62
7
 10
1247.685
 20
-3729.110
 30
2036.905
 70
    32
  0
VERTEX
  8
T32SSILL
 62
7
 10
1238.672
 20
-3736.097
 30
2036.917
 70
    32
  0
VERTEX
  8
T32SSILL
 62
7
 10
1226.558
 20
-3720.647
 30
2036.951
 70
    32
  0
VERTEX
  8
T32SSILL
 62
7
 10
1197.216
 20
-3741.361
 30
2036.994
 70
    32
  0
VERTEX
  8
T32SSILL
 62
7
 10
1209.105
 20
-3756.323
 30
2036.960
 70
    32
  0
VERTEX
  8
T32SSILL
 62
7
 10
1144.831
 20
-3801.767
 30
2037.053
 70
    32
  0
VERTEX
  8
T32SSILL
 62
7
 10
1135.917
 20
-3790.863
 30
2037.078
 70
    32
  0
VERTEX
  8
T32SSILL
 62
7
 10
1126.869
 20
-3789.016
 30
2037.083
 70
    32
  0
VERTEX
  8
T32SSILL
 62
7
 10
1115.831
 20
-3778.598
 30
2037.087
 70
    32
  0
VERTEX
  8
T32SSILL
 62
7
 10
1094.566
 20
-3783.890
 30
2037.068
 70
    32
  0
VERTEX
  8
T32SSILL
 62
7
 10
1084.873
 20
-3791.446
 30
2037.054
 70
    32
  0
VERTEX
  8
T32SSILL
 62
7
 10
1112.351
 20
-3819.280
 30
2037.043
 70
    32
  0
VERTEX
  8
T32SSILL
 62
7
 10
1111.361
 20
-3825.823
 30
2037.035
 70
    32
  0
VERTEX
  8
T32SSILL
 62
7
 10
1107.766
 20
-3828.696
 30
2037.030
 70
    32
  0
VERTEX
  8
T32SSILL
 62
7
 10
1105.234
 20
-3824.976
 30
2037.032
 70
    32
  0
VERTEX
  8
T32SSILL
 62
7
 10
1097.386
 20
-3830.851
 30
2037.021
 70
    32
  0
VERTEX
  8
T32SSILL
 62
7
 10
1067.921
 20
-3797.432
 30
2037.037
 70
    32
  0
VERTEX
  8
T32SSILL
 62
7
 10
1090.426
 20
-3780.944
 30
2037.069
 70
    32
  0
VERTEX
  8
T32SSILL
 62
7
 10
1084.246
 20
-3766.686
 30
2037.079
 70
    32
  0
VERTEX
  8
T32SSILL
 62
7
 10
1085.124
 20
-3763.741
 30
2037.083
 70
    32
  0
VERTEX
  8
T32SSILL
 62
7
 10
1088.042
 20
-3761.755
 30
2037.087
 70
    32
  0
VERTEX
  8
T32SSILL
 62
7
 10
1091.106
 20
-3762.338
 30
2037.088
 70
    32
  0
VERTEX
  8
T32SSILL
 62
7
 10
1095.509
 20
-3759.555
 30
2037.094
 70
    32
  0
VERTEX
  8
T32SSILL
 62
7
 10
1100.668
 20
-3753.804
 30
2037.103
 70
    32
  0
VERTEX
  8
T32SSILL
 62
7
 10
1102.773
 20
-3748.743
 30
2037.110
 70
    32
  0
VERTEX
  8
T32SSILL
 62
7
 10
1206.446
 20
-3674.781
 30
2037.023
 70
    32
  0
VERTEX
  8
T32SSILL
 62
7
 10
1213.701
 20
-3684.339
 30
2037.002
 70
    32
  0
VERTEX
  8
T32SSILL
 62
7
 10
1195.660
 20
-3697.254
 30
2037.028
 70
    32
  0
SEQEND
  8
T32SSILL
  0
POLYLINE
  8
T32SSILL
 62
7
 66
     1
 70
     9
  0
VERTEX
  8
T32SSILL
 62
7
 10
1268.840
 20
-3994.096
 30
2036.731
 70
    32
  0
VERTEX
  8
T32SSILL
 62
7
 10
1255.575
 20
-4003.737
 30
2036.757
 70
    32
  0
VERTEX
  8
T32SSILL
 62
7
 10
1227.191
 20
-3971.659
 30
2036.764
 70
    32
  0
VERTEX
  8
T32SSILL
 62
7
 10
1222.802
 20
-3957.224
 30
2036.760
 70
    32
  0
VERTEX
  8
T32SSILL
 62
7
 10
1219.317
 20
-3952.005
 30
2036.760
 70
    32
  0
VERTEX
  8
T32SSILL
 62
7
 10
1309.413
 20
-3886.911
 30
2036.661
 70
    32
  0
VERTEX
  8
T32SSILL
 62
7
 10
1317.145
 20
-3887.276
 30
2036.649
 70
    32
  0
VERTEX
  8
T32SSILL
 62
7
 10
1322.615
 20
-3882.313
 30
2036.642
 70
    32
  0
VERTEX
  8
T32SSILL
 62
7
 10
1324.039
 20
-3877.295
 30
2036.645
 70
    32
  0
VERTEX
  8
T32SSILL
 62
7
 10
1328.744
 20
-3875.824
 30
2036.637
 70
    32
  0
VERTEX
  8
T32SSILL
 62
7
 10
1346.923
 20
-3862.609
 30
2036.618
 70
    32
  0
VERTEX
  8
T32SSILL
 62
7
 10
1375.177
 20
-3900.184
 30
2036.473
 70
    32
  0
VERTEX
  8
T32SSILL
 62
7
 10
1371.149
 20
-3903.162
 30
2036.483
 70
    32
  0
VERTEX
  8
T32SSILL
 62
7
 10
1368.126
 20
-3899.138
 30
2036.500
 70
    32
  0
VERTEX
  8
T32SSILL
 62
7
 10
1363.051
 20
-3902.697
 30
2036.513
 70
    32
  0
VERTEX
  8
T32SSILL
 62
7
 10
1373.618
 20
-3917.449
 30
2036.456
 70
    32
  0
VERTEX
  8
T32SSILL
 62
7
 10
1347.670
 20
-3937.961
 30
2036.522
 70
    32
  0
SEQEND
  8
T32SSILL
  0
POLYLINE
  8
T32SSILL
 62
7
 66
     1
 70
     9
  0
VERTEX
  8
T32SSILL
 62
7
 10
1310.779
 20
-3837.524
 30
2036.706
 70
    32
  0
VERTEX
  8
T32SSILL
 62
7
 10
1300.914
 20
-3823.615
 30
2036.735
 70
    32
  0
VERTEX
  8
T32SSILL
 62
7
 10
1295.034
 20
-3828.002
 30
2036.743
 70
    32
  0
VERTEX
  8
T32SSILL
 62
7
 10
1306.914
 20
-3844.598
 30
2036.708
 70
    32
  0
VERTEX
  8
T32SSILL
 62
7
 10
1305.752
 20
-3851.054
 30
2036.706
 70
    32
  0
VERTEX
  8
T32SSILL
 62
7
 10
1294.414
 20
-3859.963
 30
2036.722
 70
    32
  0
VERTEX
  8
T32SSILL
 62
7
 10
1290.308
 20
-3874.790
 30
2036.717
 70
    32
  0
VERTEX
  8
T32SSILL
 62
7
 10
1301.155
 20
-3883.669
 30
2036.683
 70
    32
  0
VERTEX
  8
T32SSILL
 62
7
 10
1207.414
 20
-3951.565
 30
2036.780
 70
    32
  0
VERTEX
  8
T32SSILL
 62
7
 10
1156.250
 20
-3894.701
 30
2036.961
 70
    32
  0
VERTEX
  8
T32SSILL
 62
7
 10
1259.021
 20
-3823.878
 30
2036.816
 70
    32
  0
VERTEX
  8
T32SSILL
 62
7
 10
1270.583
 20
-3837.628
 30
2036.784
 70
    32
  0
VERTEX
  8
T32SSILL
 62
7
 10
1279.636
 20
-3834.299
 30
2036.768
 70
    32
  0
VERTEX
  8
T32SSILL
 62
7
 10
1283.991
 20
-3827.479
 30
2036.765
 70
    32
  0
VERTEX
  8
T32SSILL
 62
7
 10
1279.911
 20
-3815.035
 30
2036.781
 70
    32
  0
VERTEX
  8
T32SSILL
 62
7
 10
1297.681
 20
-3796.351
 30
2036.760
 70
    32
  0
VERTEX
  8
T32SSILL
 62
7
 10
1343.007
 20
-3857.615
 30
2036.629
 70
    32
  0
VERTEX
  8
T32SSILL
 62
7
 10
1328.394
 20
-3867.449
 30
2036.650
 70
    32
  0
VERTEX
  8
T32SSILL
 62
7
 10
1320.448
 20
-3870.094
 30
2036.662
 70
    32
  0
VERTEX
  8
T32SSILL
 62
7
 10
1316.662
 20
-3868.880
 30
2036.672
 70
    32
  0
VERTEX
  8
T32SSILL
 62
7
 10
1312.129
 20
-3863.863
 30
2036.684
 70
    32
  0
VERTEX
  8
T32SSILL
 62
7
 10
1315.615
 20
-3837.776
 30
2036.696
 70
    32
  0
SEQEND
  8
T32SSILL
  0
POLYLINE
  8
T32SSILL
 62
7
 66
     1
 70
     9
  0
VERTEX
  8
T32SSILL
 62
7
 10
1142.987
 20
-3831.837
 30
2037.035
 70
    32
  0
VERTEX
  8
T32SSILL
 62
7
 10
1148.965
 20
-3832.465
 30
2037.023
 70
    32
  0
VERTEX
  8
T32SSILL
 62
7
 10
1155.676
 20
-3827.899
 30
2037.013
 70
    32
  0
VERTEX
  8
T32SSILL
 62
7
 10
1150.360
 20
-3806.756
 30
2037.039
 70
    32
  0
VERTEX
  8
T32SSILL
 62
7
 10
1213.739
 20
-3762.348
 30
2036.947
 70
    32
  0
VERTEX
  8
T32SSILL
 62
7
 10
1224.825
 20
-3777.856
 30
2036.915
 70
    32
  0
VERTEX
  8
T32SSILL
 62
7
 10
1254.071
 20
-3757.315
 30
2036.872
 70
    32
  0
VERTEX
  8
T32SSILL
 62
7
 10
1244.757
 20
-3745.510
 30
2036.899
 70
    32
  0
VERTEX
  8
T32SSILL
 62
7
 10
1242.806
 20
-3741.075
 30
2036.906
 70
    32
  0
VERTEX
  8
T32SSILL
 62
7
 10
1251.726
 20
-3734.578
 30
2036.893
 70
    32
  0
VERTEX
  8
T32SSILL
 62
7
 10
1270.131
 20
-3759.176
 30
2036.840
 70
    32
  0
VERTEX
  8
T32SSILL
 62
7
 10
1261.930
 20
-3765.415
 30
2036.851
 70
    32
  0
VERTEX
  8
T32SSILL
 62
7
 10
1265.696
 20
-3770.322
 30
2036.840
 70
    32
  0
VERTEX
  8
T32SSILL
 62
7
 10
1274.205
 20
-3764.622
 30
2036.828
 70
    32
  0
VERTEX
  8
T32SSILL
 62
7
 10
1282.497
 20
-3776.819
 30
2036.803
 70
    32
  0
VERTEX
  8
T32SSILL
 62
7
 10
1272.075
 20
-3784.872
 30
2036.818
 70
    32
  0
VERTEX
  8
T32SSILL
 62
7
 10
1267.062
 20
-3780.172
 30
2036.831
 70
    32
  0
VERTEX
  8
T32SSILL
 62
7
 10
1261.222
 20
-3778.490
 30
2036.843
 70
    32
  0
VERTEX
  8
T32SSILL
 62
7
 10
1253.493
 20
-3766.033
 30
2036.867
 70
    32
  0
VERTEX
  8
T32SSILL
 62
7
 10
1238.151
 20
-3776.580
 30
2036.890
 70
    32
  0
VERTEX
  8
T32SSILL
 62
7
 10
1245.155
 20
-3784.834
 30
2036.870
 70
    32
  0
VERTEX
  8
T32SSILL
 62
7
 10
1252.500
 20
-3800.647
 30
2036.845
 70
    32
  0
VERTEX
  8
T32SSILL
 62
7
 10
1253.177
 20
-3810.111
 30
2036.837
 70
    32
  0
VERTEX
  8
T32SSILL
 62
7
 10
1255.394
 20
-3816.820
 30
2036.828
 70
    32
  0
VERTEX
  8
T32SSILL
 62
7
 10
1151.645
 20
-3890.513
 30
2036.976
 70
    32
  0
VERTEX
  8
T32SSILL
 62
7
 10
1105.195
 20
-3838.877
 30
2037.018
 70
    32
  0
VERTEX
  8
T32SSILL
 62
7
 10
1120.193
 20
-3828.138
 30
2037.039
 70
    32
  0
VERTEX
  8
T32SSILL
 62
7
 10
1130.826
 20
-3832.001
 30
2037.041
 70
    32
  0
VERTEX
  8
T32SSILL
 62
7
 10
1137.532
 20
-3831.490
 30
2037.046
 70
    32
  0
SEQEND
  8
T32SSILL
  0
POLYLINE
  8
T32SSILL
 62
7
 66
     1
 70
     9
  0
VERTEX
  8
T32SSILL
 62
7
 10
1337.353
 20
-3777.154
 30
2036.425
 70
    32
  0
VERTEX
  8
T32SSILL
 62
7
 10
1341.938
 20
-3778.456
 30
2036.396
 70
    32
  0
VERTEX
  8
T32SSILL
 62
7
 10
1346.775
 20
-3776.674
 30
2036.355
 70
    32
  0
VERTEX
  8
T32SSILL
 62
7
 10
1347.293
 20
-3774.294
 30
2036.343
 70
    32
  0
VERTEX
  8
T32SSILL
 62
7
 10
1345.779
 20
-3770.337
 30
2036.341
 70
    32
  0
VERTEX
  8
T32SSILL
 62
7
 10
1342.063
 20
-3766.301
 30
2036.355
 70
    32
  0
VERTEX
  8
T32SSILL
 62
7
 10
1335.646
 20
-3769.235
 30
2036.411
 70
    32
  0
SEQEND
  8
T32SSILL
  0
POLYLINE
  8
T32SSILL
 62
7
 66
     1
 70
     9
  0
VERTEX
  8
T32SSILL
 62
7
 10
1311.463
 20
-3789.108
 30
2036.651
 70
    32
  0
VERTEX
  8
T32SSILL
 62
7
 10
1304.273
 20
-3794.010
 30
2036.719
 70
    32
  0
VERTEX
  8
T32SSILL
 62
7
 10
1344.159
 20
-3846.854
 30
2036.602
 70
    32
  0
VERTEX
  8
T32SSILL
 62
7
 10
1350.557
 20
-3842.046
 30
2036.540
 70
    32
  0
VERTEX
  8
T32SSILL
 62
7
 10
1356.833
 20
-3832.920
 30
2036.464
 70
    32
  0
VERTEX
  8
T32SSILL
 62
7
 10
1357.074
 20
-3829.745
 30
2036.452
 70
    32
  0
VERTEX
  8
T32SSILL
 62
7
 10
1355.634
 20
-3825.878
 30
2036.450
 70
    32
  0
VERTEX
  8
T32SSILL
 62
7
 10
1347.154
 20
-3811.753
 30
2036.466
 70
    32
  0
VERTEX
  8
T32SSILL
 62
7
 10
1331.139
 20
-3803.589
 30
2036.556
 70
    32
  0
VERTEX
  8
T32SSILL
 62
7
 10
1320.046
 20
-3793.537
 30
2036.603
 70
    32
  0
SEQEND
  8
T32SSILL
  0
POLYLINE
  8
T32SSILL
 62
7
 66
     1
 70
     9
  0
VERTEX
  8
T32SSILL
 62
7
 10
1293.313
 20
-3604.038
 30
2036.182
 70
    32
  0
VERTEX
  8
T32SSILL
 62
7
 10
1249.843
 20
-3636.217
 30
2036.602
 70
    32
  0
VERTEX
  8
T32SSILL
 62
7
 10
1207.850
 20
-3665.395
 30
2037.001
 70
    32
  0
VERTEX
  8
T32SSILL
 62
7
 10
1190.247
 20
-3641.407
 30
2037.051
 70
    32
  0
VERTEX
  8
T32SSILL
 62
7
 10
1225.780
 20
-3615.520
 30
2036.709
 70
    32
  0
VERTEX
  8
T32SSILL
 62
7
 10
1239.547
 20
-3634.968
 30
2036.672
 70
    32
  0
VERTEX
  8
T32SSILL
 62
7
 10
1264.728
 20
-3616.766
 30
2036.430
 70
    32
  0
VERTEX
  8
T32SSILL
 62
7
 10
1252.724
 20
-3599.942
 30
2036.463
 70
    32
  0
VERTEX
  8
T32SSILL
 62
7
 10
1263.067
 20
-3599.112
 30
2036.385
 70
    32
  0
SEQEND
  8
T32SSILL
  0
POLYLINE
  8
T32SSILL
 62
7
 66
     1
 70
     9
  0
VERTEX
  8
T32SSILL
 62
7
 10
1220.166
 20
-3547.515
 30
2036.730
 70
    32
  0
VERTEX
  8
T32SSILL
 62
7
 10
1223.244
 20
-3552.038
 30
2036.697
 70
    32
  0
VERTEX
  8
T32SSILL
 62
7
 10
1208.001
 20
-3562.731
 30
2036.709
 70
    32
  0
VERTEX
  8
T32SSILL
 62
7
 10
1200.363
 20
-3552.133
 30
2036.790
 70
    32
  0
VERTEX
  8
T32SSILL
 62
7
 10
1175.661
 20
-3571.823
 30
2036.930
 70
    32
  0
VERTEX
  8
T32SSILL
 62
7
 10
1175.587
 20
-3576.890
 30
2036.947
 70
    32
  0
VERTEX
  8
T32SSILL
 62
7
 10
1173.183
 20
-3578.846
 30
2036.971
 70
    32
  0
VERTEX
  8
T32SSILL
 62
7
 10
1168.584
 20
-3581.655
 30
2037.014
 70
    32
  0
VERTEX
  8
T32SSILL
 62
7
 10
1164.737
 20
-3581.178
 30
2037.040
 70
    32
  0
VERTEX
  8
T32SSILL
 62
7
 10
1151.835
 20
-3590.918
 30
2037.165
 70
    32
  0
VERTEX
  8
T32SSILL
 62
7
 10
1163.873
 20
-3606.099
 30
2037.127
 70
    32
  0
VERTEX
  8
T32SSILL
 62
7
 10
1249.345
 20
-3545.697
 30
2036.619
 70
    32
  0
VERTEX
  8
T32SSILL
 62
7
 10
1242.678
 20
-3542.016
 30
2036.664
 70
    32
  0
VERTEX
  8
T32SSILL
 62
7
 10
1237.213
 20
-3546.375
 30
2036.666
 70
    32
  0
VERTEX
  8
T32SSILL
 62
7
 10
1229.740
 20
-3540.254
 30
2036.725
 70
    32
  0
VERTEX
  8
T32SSILL
 62
7
 10
1223.298
 20
-3539.728
 30
2036.754
 70
    32
  0
SEQEND
  8
T32SSILL
  0
POLYLINE
  8
T32SSILL
 62
7
 66
     1
 70
     9
  0
VERTEX
  8
T32SSILL
 62
7
 10
1201.585
 20
-3521.949
 30
2036.925
 70
    32
  0
VERTEX
  8
T32SSILL
 62
7
 10
1195.047
 20
-3512.954
 30
2036.994
 70
    32
  0
VERTEX
  8
T32SSILL
 62
7
 10
1191.574
 20
-3513.183
 30
2037.007
 70
    32
  0
VERTEX
  8
T32SSILL
 62
7
 10
1174.943
 20
-3527.168
 30
2037.010
 70
    32
  0
VERTEX
  8
T32SSILL
 62
7
 10
1179.272
 20
-3533.179
 30
2036.964
 70
    32
  0
VERTEX
  8
T32SSILL
 62
7
 10
1178.126
 20
-3540.157
 30
2036.937
 70
    32
  0
VERTEX
  8
T32SSILL
 62
7
 10
1185.697
 20
-3542.101
 30
2036.897
 70
    32
  0
VERTEX
  8
T32SSILL
 62
7
 10
1188.509
 20
-3546.005
 30
2036.867
 70
    32
  0
VERTEX
  8
T32SSILL
 62
7
 10
1189.926
 20
-3544.975
 30
2036.866
 70
    32
  0
VERTEX
  8
T32SSILL
 62
7
 10
1193.958
 20
-3547.740
 30
2036.837
 70
    32
  0
VERTEX
  8
T32SSILL
 62
7
 10
1176.575
 20
-3562.344
 30
2036.893
 70
    32
  0
VERTEX
  8
T32SSILL
 62
7
 10
1170.238
 20
-3559.932
 30
2036.931
 70
    32
  0
VERTEX
  8
T32SSILL
 62
7
 10
1163.745
 20
-3561.682
 30
2036.984
 70
    32
  0
VERTEX
  8
T32SSILL
 62
7
 10
1145.546
 20
-3539.487
 30
2037.073
 70
    32
  0
VERTEX
  8
T32SSILL
 62
7
 10
1140.198
 20
-3543.233
 30
2037.095
 70
    32
  0
VERTEX
  8
T32SSILL
 62
7
 10
1146.829
 20
-3561.133
 30
2037.105
 70
    32
  0
VERTEX
  8
T32SSILL
 62
7
 10
1155.560
 20
-3576.003
 30
2037.090
 70
    32
  0
VERTEX
  8
T32SSILL
 62
7
 10
1155.491
 20
-3579.038
 30
2037.100
 70
    32
  0
VERTEX
  8
T32SSILL
 62
7
 10
1148.065
 20
-3585.692
 30
2037.176
 70
    32
  0
VERTEX
  8
T32SSILL
 62
7
 10
1122.856
 20
-3551.939
 30
2037.249
 70
    32
  0
VERTEX
  8
T32SSILL
 62
7
 10
1244.530
 20
-3466.476
 30
2037.007
 70
    32
  0
VERTEX
  8
T32SSILL
 62
7
 10
1255.337
 20
-3465.418
 30
2036.968
 70
    32
  0
VERTEX
  8
T32SSILL
 62
7
 10
1262.961
 20
-3469.409
 30
2036.918
 70
    32
  0
VERTEX
  8
T32SSILL
 62
7
 10
1305.632
 20
-3512.198
 30
2036.545
 70
    32
  0
VERTEX
  8
T32SSILL
 62
7
 10
1299.979
 20
-3512.202
 30
2036.568
 70
    32
  0
VERTEX
  8
T32SSILL
 62
7
 10
1291.271
 20
-3515.246
 30
2036.589
 70
    32
  0
VERTEX
  8
T32SSILL
 62
7
 10
1270.129
 20
-3530.914
 30
2036.603
 70
    32
  0
VERTEX
  8
T32SSILL
 62
7
 10
1256.421
 20
-3533.197
 30
2036.648
 70
    32
  0
VERTEX
  8
T32SSILL
 62
7
 10
1234.112
 20
-3531.623
 30
2036.747
 70
    32
  0
VERTEX
  8
T32SSILL
 62
7
 10
1225.256
 20
-3529.431
 30
2036.793
 70
    32
  0
VERTEX
  8
T32SSILL
 62
7
 10
1214.671
 20
-3530.657
 30
2036.831
 70
    32
  0
VERTEX
  8
T32SSILL
 62
7
 10
1206.156
 20
-3525.672
 30
2036.889
 70
    32
  0
SEQEND
  8
T32SSILL
  0
POLYLINE
  8
T32SSILL
 62
7
 66
     1
 70
     9
  0
VERTEX
  8
T32SSILL
 62
7
 10
1185.759
 20
-3635.283
 30
2037.063
 70
    32
  0
VERTEX
  8
T32SSILL
 62
7
 10
1167.709
 20
-3610.639
 30
2037.114
 70
    32
  0
VERTEX
  8
T32SSILL
 62
7
 10
1250.512
 20
-3552.587
 30
2036.582
 70
    32
  0
VERTEX
  8
T32SSILL
 62
7
 10
1255.640
 20
-3564.358
 30
2036.507
 70
    32
  0
VERTEX
  8
T32SSILL
 62
7
 10
1277.136
 20
-3593.595
 30
2036.283
 70
    32
  0
VERTEX
  8
T32SSILL
 62
7
 10
1260.444
 20
-3590.866
 30
2036.377
 70
    32
  0
VERTEX
  8
T32SSILL
 62
7
 10
1253.425
 20
-3591.373
 30
2036.430
 70
    32
  0
VERTEX
  8
T32SSILL
 62
7
 10
1247.872
 20
-3593.142
 30
2036.476
 70
    32
  0
VERTEX
  8
T32SSILL
 62
7
 10
1243.968
 20
-3587.669
 30
2036.486
 70
    32
  0
VERTEX
  8
T32SSILL
 62
7
 10
1238.958
 20
-3590.972
 30
2036.533
 70
    32
  0
VERTEX
  8
T32SSILL
 62
7
 10
1235.463
 20
-3586.306
 30
2036.544
 70
    32
  0
VERTEX
  8
T32SSILL
 62
7
 10
1225.499
 20
-3593.620
 30
2036.640
 70
    32
  0
VERTEX
  8
T32SSILL
 62
7
 10
1221.484
 20
-3588.348
 30
2036.652
 70
    32
  0
VERTEX
  8
T32SSILL
 62
7
 10
1211.394
 20
-3595.320
 30
2036.748
 70
    32
  0
VERTEX
  8
T32SSILL
 62
7
 10
1221.587
 20
-3609.516
 30
2036.720
 70
    32
  0
SEQEND
  8
T32SSILL
  0
POLYLINE
  8
T32SSILL
 62
7
 66
     1
 70
     9
  0
VERTEX
  8
T32SSILL
 62
7
 10
1158.927
 20
-3482.143
 30
2037.285
 70
    32
  0
VERTEX
  8
T32SSILL
 62
7
 10
1161.921
 20
-3480.426
 30
2037.281
 70
    32
  0
VERTEX
  8
T32SSILL
 62
7
 10
1166.955
 20
-3479.669
 30
2037.264
 70
    32
  0
VERTEX
  8
T32SSILL
 62
7
 10
1205.046
 20
-3486.086
 30
2037.078
 70
    32
  0
VERTEX
  8
T32SSILL
 62
7
 10
1119.113
 20
-3546.909
 30
2037.260
 70
    32
  0
VERTEX
  8
T32SSILL
 62
7
 10
1077.618
 20
-3491.260
 30
2037.431
 70
    32
  0
VERTEX
  8
T32SSILL
 62
7
 10
1186.406
 20
-3414.778
 30
2037.383
 70
    32
  0
VERTEX
  8
T32SSILL
 62
7
 10
1193.789
 20
-3411.356
 30
2037.373
 70
    32
  0
VERTEX
  8
T32SSILL
 62
7
 10
1197.358
 20
-3410.955
 30
2037.368
 70
    32
  0
VERTEX
  8
T32SSILL
 62
7
 10
1201.961
 20
-3411.131
 30
2037.361
 70
    32
  0
VERTEX
  8
T32SSILL
 62
7
 10
1208.175
 20
-3413.519
 30
2037.350
 70
    32
  0
VERTEX
  8
T32SSILL
 62
7
 10
1252.957
 20
-3459.568
 30
2037.005
 70
    32
  0
VERTEX
  8
T32SSILL
 62
7
 10
1246.130
 20
-3459.730
 30
2037.032
 70
    32
  0
VERTEX
  8
T32SSILL
 62
7
 10
1239.544
 20
-3461.971
 30
2037.049
 70
    32
  0
VERTEX
  8
T32SSILL
 62
7
 10
1212.968
 20
-3480.162
 30
2037.073
 70
    32
  0
VERTEX
  8
T32SSILL
 62
7
 10
1169.579
 20
-3472.547
 30
2037.286
 70
    32
  0
VERTEX
  8
T32SSILL
 62
7
 10
1161.898
 20
-3472.864
 30
2037.316
 70
    32
  0
VERTEX
  8
T32SSILL
 62
7
 10
1151.798
 20
-3477.348
 30
2037.336
 70
    32
  0
VERTEX
  8
T32SSILL
 62
7
 10
1146.882
 20
-3470.726
 30
2037.356
 70
    32
  0
VERTEX
  8
T32SSILL
 62
7
 10
1137.843
 20
-3477.553
 30
2037.358
 70
    32
  0
VERTEX
  8
T32SSILL
 62
7
 10
1142.470
 20
-3484.021
 30
2037.339
 70
    32
  0
VERTEX
  8
T32SSILL
 62
7
 10
1123.102
 20
-3497.877
 30
2037.346
 70
    32
  0
VERTEX
  8
T32SSILL
 62
7
 10
1128.365
 20
-3503.260
 30
2037.312
 70
    32
  0
SEQEND
  8
T32SSILL
  0
POLYLINE
  8
T32SSILL
 62
7
 66
     1
 70
     9
  0
VERTEX
  8
T32SSILL
 62
7
 10
1302.743
 20
-3673.450
 30
2036.339
 70
    32
  0
VERTEX
  8
T32SSILL
 62
7
 10
1290.709
 20
-3675.180
 30
2036.432
 70
    32
  0
VERTEX
  8
T32SSILL
 62
7
 10
1285.004
 20
-3667.109
 30
2036.447
 70
    32
  0
VERTEX
  8
T32SSILL
 62
7
 10
1293.916
 20
-3660.120
 30
2036.360
 70
    32
  0
VERTEX
  8
T32SSILL
 62
7
 10
1299.813
 20
-3659.106
 30
2036.313
 70
    32
  0
VERTEX
  8
T32SSILL
 62
7
 10
1337.848
 20
-3665.340
 30
2036.058
 70
    32
  0
VERTEX
  8
T32SSILL
 62
7
 10
1310.498
 20
-3685.025
 30
2036.320
 70
    32
  0
VERTEX
  8
T32SSILL
 62
7
 10
1304.258
 20
-3675.730
 30
2036.335
 70
    32
  0
SEQEND
  8
T32SSILL
  0
POLYLINE
  8
T32SSILL
 62
7
 66
     1
 70
     9
  0
VERTEX
  8
T32SSILL
 62
7
 10
1298.110
 20
-3519.023
 30
2036.544
 70
    32
  0
VERTEX
  8
T32SSILL
 62
7
 10
1255.609
 20
-3548.158
 30
2036.582
 70
    32
  0
VERTEX
  8
T32SSILL
 62
7
 10
1261.234
 20
-3560.659
 30
2036.501
 70
    32
  0
VERTEX
  8
T32SSILL
 62
7
 10
1285.591
 20
-3594.885
 30
2036.242
 70
    32
  0
VERTEX
  8
T32SSILL
 62
7
 10
1302.653
 20
-3598.002
 30
2036.158
 70
    32
  0
VERTEX
  8
T32SSILL
 62
7
 10
1341.884
 20
-3569.707
 30
2036.129
 70
    32
  0
VERTEX
  8
T32SSILL
 62
7
 10
1351.583
 20
-3565.454
 30
2036.109
 70
    32
  0
VERTEX
  8
T32SSILL
 62
7
 10
1358.555
 20
-3565.192
 30
2036.081
 70
    32
  0
VERTEX
  8
T32SSILL
 62
7
 10
1316.501
 20
-3522.838
 30
2036.451
 70
    32
  0
VERTEX
  8
T32SSILL
 62
7
 10
1307.648
 20
-3518.297
 30
2036.508
 70
    32
  0
VERTEX
  8
T32SSILL
 62
7
 10
1301.064
 20
-3518.188
 30
2036.535
 70
    32
  0
SEQEND
  8
T32SSILL
  0
POLYLINE
  8
T32SSILL
 62
7
 66
     1
 70
     9
  0
VERTEX
  8
T32SSILL
 62
7
 10
1662.028
 20
-4219.117
 30
2035.226
 70
    32
  0
VERTEX
  8
T32SSILL
 62
7
 10
1689.280
 20
-4201.450
 30
2035.141
 70
    32
  0
VERTEX
  8
T32SSILL
 62
7
 10
1702.903
 20
-4190.944
 30
2035.100
 70
    32
  0
VERTEX
  8
T32SSILL
 62
7
 10
1707.569
 20
-4191.021
 30
2035.083
 70
    32
  0
VERTEX
  8
T32SSILL
 62
7
 10
1710.213
 20
-4192.248
 30
2035.073
 70
    32
  0
VERTEX
  8
T32SSILL
 62
7
 10
1719.132
 20
-4204.906
 30
2035.032
 70
    32
  0
VERTEX
  8
T32SSILL
 62
7
 10
1724.779
 20
-4210.527
 30
2035.008
 70
    32
  0
VERTEX
  8
T32SSILL
 62
7
 10
1740.563
 20
-4222.201
 30
2034.943
 70
    32
  0
VERTEX
  8
T32SSILL
 62
7
 10
1762.356
 20
-4244.074
 30
2034.850
 70
    32
  0
VERTEX
  8
T32SSILL
 62
7
 10
1767.302
 20
-4251.459
 30
2034.827
 70
    32
  0
VERTEX
  8
T32SSILL
 62
7
 10
1756.019
 20
-4260.198
 30
2034.862
 70
    32
  0
VERTEX
  8
T32SSILL
 62
7
 10
1752.521
 20
-4255.365
 30
2034.877
 70
    32
  0
VERTEX
  8
T32SSILL
 62
7
 10
1745.681
 20
-4259.656
 30
2034.899
 70
    32
  0
VERTEX
  8
T32SSILL
 62
7
 10
1741.160
 20
-4253.365
 30
2034.920
 70
    32
  0
VERTEX
  8
T32SSILL
 62
7
 10
1713.440
 20
-4273.221
 30
2035.005
 70
    32
  0
VERTEX
  8
T32SSILL
 62
7
 10
1704.763
 20
-4266.455
 30
2035.041
 70
    32
  0
VERTEX
  8
T32SSILL
 62
7
 10
1683.280
 20
-4245.514
 30
2035.132
 70
    32
  0
VERTEX
  8
T32SSILL
 62
7
 10
1672.309
 20
-4228.883
 30
2035.183
 70
    32
  0
SEQEND
  8
T32SSILL
  0
POLYLINE
  8
T32SSILL
 62
7
 66
     1
 70
     9
  0
VERTEX
  8
T32SSILL
 62
7
 10
1833.254
 20
-4337.148
 30
2034.532
 70
    32
  0
VERTEX
  8
T32SSILL
 62
7
 10
1827.591
 20
-4324.220
 30
2034.561
 70
    32
  0
VERTEX
  8
T32SSILL
 62
7
 10
1815.412
 20
-4310.689
 30
2034.614
 70
    32
  0
VERTEX
  8
T32SSILL
 62
7
 10
1810.457
 20
-4299.255
 30
2034.640
 70
    32
  0
VERTEX
  8
T32SSILL
 62
7
 10
1807.101
 20
-4294.421
 30
2034.655
 70
    32
  0
VERTEX
  8
T32SSILL
 62
7
 10
1801.892
 20
-4287.477
 30
2034.678
 70
    32
  0
VERTEX
  8
T32SSILL
 62
7
 10
1790.866
 20
-4277.994
 30
2034.725
 70
    32
  0
VERTEX
  8
T32SSILL
 62
7
 10
1782.566
 20
-4266.743
 30
2034.762
 70
    32
  0
VERTEX
  8
T32SSILL
 62
7
 10
1777.521
 20
-4254.341
 30
2034.789
 70
    32
  0
VERTEX
  8
T32SSILL
 62
7
 10
1771.337
 20
-4244.671
 30
2034.818
 70
    32
  0
VERTEX
  8
T32SSILL
 62
7
 10
1757.213
 20
-4227.359
 30
2034.880
 70
    32
  0
VERTEX
  8
T32SSILL
 62
7
 10
1721.227
 20
-4196.537
 30
2035.030
 70
    32
  0
VERTEX
  8
T32SSILL
 62
7
 10
1700.902
 20
-4161.632
 30
2035.128
 70
    32
  0
VERTEX
  8
T32SSILL
 62
7
 10
1692.576
 20
-4138.673
 30
2035.173
 70
    32
  0
VERTEX
  8
T32SSILL
 62
7
 10
1682.946
 20
-4123.376
 30
2035.218
 70
    32
  0
VERTEX
  8
T32SSILL
 62
7
 10
1678.184
 20
-4119.513
 30
2035.238
 70
    32
  0
VERTEX
  8
T32SSILL
 62
7
 10
1657.334
 20
-4086.281
 30
2035.336
 70
    32
  0
VERTEX
  8
T32SSILL
 62
7
 10
1650.771
 20
-4064.375
 30
2035.370
 70
    32
  0
VERTEX
  8
T32SSILL
 62
7
 10
1646.091
 20
-4057.694
 30
2035.389
 70
    32
  0
VERTEX
  8
T32SSILL
 62
7
 10
1632.403
 20
-4038.797
 30
2035.443
 70
    32
  0
VERTEX
  8
T32SSILL
 62
7
 10
1616.974
 20
-4028.178
 30
2035.510
 70
    32
  0
VERTEX
  8
T32SSILL
 62
7
 10
1599.509
 20
-4012.986
 30
2035.584
 70
    32
  0
VERTEX
  8
T32SSILL
 62
7
 10
1593.934
 20
-4000.057
 30
2035.603
 70
    32
  0
VERTEX
  8
T32SSILL
 62
7
 10
1590.906
 20
-3979.940
 30
2035.605
 70
    32
  0
VERTEX
  8
T32SSILL
 62
7
 10
1586.785
 20
-3970.470
 30
2035.619
 70
    32
  0
VERTEX
  8
T32SSILL
 62
7
 10
1568.671
 20
-3937.617
 30
2035.686
 70
    32
  0
VERTEX
  8
T32SSILL
 62
7
 10
1626.586
 20
-3895.202
 30
2035.387
 70
    32
  0
VERTEX
  8
T32SSILL
 62
7
 10
1635.005
 20
-3891.705
 30
2035.345
 70
    32
  0
VERTEX
  8
T32SSILL
 62
7
 10
1643.894
 20
-3891.988
 30
2035.303
 70
    32
  0
VERTEX
  8
T32SSILL
 62
7
 10
1652.547
 20
-3895.968
 30
2035.265
 70
    32
  0
VERTEX
  8
T32SSILL
 62
7
 10
1675.846
 20
-3928.077
 30
2035.173
 70
    32
  0
VERTEX
  8
T32SSILL
 62
7
 10
1671.647
 20
-3931.101
 30
2035.194
 70
    32
  0
VERTEX
  8
T32SSILL
 62
7
 10
1678.587
 20
-3941.077
 30
2035.167
 70
    32
  0
VERTEX
  8
T32SSILL
 62
7
 10
1682.698
 20
-3938.054
 30
2035.146
 70
    32
  0
VERTEX
  8
T32SSILL
 62
7
 10
1694.339
 20
-3952.921
 30
2035.099
 70
    32
  0
VERTEX
  8
T32SSILL
 62
7
 10
1672.637
 20
-3968.134
 30
2035.211
 70
    32
  0
VERTEX
  8
T32SSILL
 62
7
 10
1676.910
 20
-3974.523
 30
2035.195
 70
    32
  0
VERTEX
  8
T32SSILL
 62
7
 10
1698.698
 20
-3959.046
 30
2035.082
 70
    32
  0
VERTEX
  8
T32SSILL
 62
7
 10
1715.916
 20
-3983.590
 30
2035.015
 70
    32
  0
VERTEX
  8
T32SSILL
 62
7
 10
1701.677
 20
-3993.746
 30
2035.088
 70
    32
  0
VERTEX
  8
T32SSILL
 62
7
 10
1706.445
 20
-4000.162
 30
2035.069
 70
    32
  0
VERTEX
  8
T32SSILL
 62
7
 10
1720.948
 20
-3989.742
 30
2034.995
 70
    32
  0
VERTEX
  8
T32SSILL
 62
7
 10
1929.523
 20
-4277.968
 30
2034.172
 70
    32
  0
VERTEX
  8
T32SSILL
 62
7
 10
1928.100
 20
-4288.356
 30
2034.185
 70
    32
  0
VERTEX
  8
T32SSILL
 62
7
 10
1925.762
 20
-4293.825
 30
2034.199
 70
    32
  0
VERTEX
  8
T32SSILL
 62
7
 10
1924.190
 20
-4295.419
 30
2034.207
 70
    32
  0
VERTEX
  8
T32SSILL
 62
7
 10
1921.616
 20
-4292.007
 30
2034.218
 70
    32
  0
VERTEX
  8
T32SSILL
 62
7
 10
1912.170
 20
-4299.635
 30
2034.267
 70
    32
  0
VERTEX
  8
T32SSILL
 62
7
 10
1911.403
 20
-4303.246
 30
2034.272
 70
    32
  0
VERTEX
  8
T32SSILL
 62
7
 10
1893.898
 20
-4315.592
 30
2034.330
 70
    32
  0
VERTEX
  8
T32SSILL
 62
7
 10
1898.341
 20
-4322.245
 30
2034.309
 70
    32
  0
VERTEX
  8
T32SSILL
 62
7
 10
1915.138
 20
-4309.289
 30
2034.258
 70
    32
  0
VERTEX
  8
T32SSILL
 62
7
 10
1919.846
 20
-4316.029
 30
2034.237
 70
    32
  0
VERTEX
  8
T32SSILL
 62
7
 10
1933.329
 20
-4307.054
 30
2034.171
 70
    32
  0
VERTEX
  8
T32SSILL
 62
7
 10
1928.096
 20
-4300.669
 30
2034.192
 70
    32
  0
VERTEX
  8
T32SSILL
 62
7
 10
1933.526
 20
-4297.290
 30
2034.164
 70
    32
  0
VERTEX
  8
T32SSILL
 62
7
 10
1945.244
 20
-4300.376
 30
2034.110
 70
    32
  0
VERTEX
  8
T32SSILL
 62
7
 10
1959.093
 20
-4319.102
 30
2034.055
 70
    32
  0
VERTEX
  8
T32SSILL
 62
7
 10
1973.387
 20
-4479.602
 30
2033.818
 70
    32
  0
VERTEX
  8
T32SSILL
 62
7
 10
1942.398
 20
-4475.153
 30
2033.964
 70
    32
  0
VERTEX
  8
T32SSILL
 62
7
 10
1928.411
 20
-4453.558
 30
2034.096
 70
    32
  0
VERTEX
  8
T32SSILL
 62
7
 10
1934.390
 20
-4449.260
 30
2034.085
 70
    32
  0
VERTEX
  8
T32SSILL
 62
7
 10
1929.884
 20
-4442.227
 30
2034.113
 70
    32
  0
VERTEX
  8
T32SSILL
 62
7
 10
1924.173
 20
-4445.860
 30
2034.130
 70
    32
  0
VERTEX
  8
T32SSILL
 62
7
 10
1911.687
 20
-4421.538
 30
2034.192
 70
    32
  0
VERTEX
  8
T32SSILL
 62
7
 10
1904.172
 20
-4403.032
 30
2034.232
 70
    32
  0
VERTEX
  8
T32SSILL
 62
7
 10
1898.685
 20
-4398.057
 30
2034.255
 70
    32
  0
VERTEX
  8
T32SSILL
 62
7
 10
1866.971
 20
-4377.694
 30
2034.383
 70
    32
  0
VERTEX
  8
T32SSILL
 62
7
 10
1856.696
 20
-4367.034
 30
2034.427
 70
    32
  0
VERTEX
  8
T32SSILL
 62
7
 10
1847.746
 20
-4361.679
 30
2034.463
 70
    32
  0
VERTEX
  8
T32SSILL
 62
7
 10
1842.364
 20
-4356.496
 30
2034.485
 70
    32
  0
VERTEX
  8
T32SSILL
 62
7
 10
1836.261
 20
-4343.392
 30
2034.516
 70
    32
  0
SEQEND
  8
T32SSILL
  0
POLYLINE
  8
T32SSILL
 62
7
 66
     1
 70
     9
  0
VERTEX
  8
T32SSILL
 62
7
 10
1831.736
 20
-4403.300
 30
2034.491
 70
    32
  0
VERTEX
  8
T32SSILL
 62
7
 10
1828.792
 20
-4398.748
 30
2034.505
 70
    32
  0
VERTEX
  8
T32SSILL
 62
7
 10
1819.214
 20
-4410.891
 30
2034.530
 70
    32
  0
VERTEX
  8
T32SSILL
 62
7
 10
1813.970
 20
-4415.249
 30
2034.546
 70
    32
  0
VERTEX
  8
T32SSILL
 62
7
 10
1808.955
 20
-4415.645
 30
2034.564
 70
    32
  0
VERTEX
  8
T32SSILL
 62
7
 10
1807.432
 20
-4412.577
 30
2034.571
 70
    32
  0
VERTEX
  8
T32SSILL
 62
7
 10
1807.565
 20
-4407.558
 30
2034.574
 70
    32
  0
VERTEX
  8
T32SSILL
 62
7
 10
1812.222
 20
-4396.338
 30
2034.565
 70
    32
  0
VERTEX
  8
T32SSILL
 62
7
 10
1791.823
 20
-4367.775
 30
2034.658
 70
    32
  0
VERTEX
  8
T32SSILL
 62
7
 10
1812.755
 20
-4352.872
 30
2034.594
 70
    32
  0
VERTEX
  8
T32SSILL
 62
7
 10
1809.150
 20
-4347.851
 30
2034.610
 70
    32
  0
VERTEX
  8
T32SSILL
 62
7
 10
1817.681
 20
-4341.761
 30
2034.584
 70
    32
  0
VERTEX
  8
T32SSILL
 62
7
 10
1827.022
 20
-4345.702
 30
2034.548
 70
    32
  0
VERTEX
  8
T32SSILL
 62
7
 10
1832.505
 20
-4356.958
 30
2034.520
 70
    32
  0
VERTEX
  8
T32SSILL
 62
7
 10
1841.681
 20
-4366.270
 30
2034.481
 70
    32
  0
VERTEX
  8
T32SSILL
 62
7
 10
1873.042
 20
-4390.933
 30
2034.352
 70
    32
  0
VERTEX
  8
T32SSILL
 62
7
 10
1887.174
 20
-4399.631
 30
2034.295
 70
    32
  0
VERTEX
  8
T32SSILL
 62
7
 10
1846.397
 20
-4429.318
 30
2034.420
 70
    32
  0
VERTEX
  8
T32SSILL
 62
7
 10
1834.528
 20
-4410.582
 30
2034.476
 70
    32
  0
VERTEX
  8
T32SSILL
 62
7
 10
1833.174
 20
-4406.721
 30
2034.483
 70
    32
  0
SEQEND
  8
T32SSILL
  0
POLYLINE
  8
T32SSILL
 62
7
 66
     1
 70
     9
  0
VERTEX
  8
T32SSILL
 62
7
 10
1773.060
 20
-4267.468
 30
2034.796
 70
    32
  0
VERTEX
  8
T32SSILL
 62
7
 10
1762.404
 20
-4266.083
 30
2034.835
 70
    32
  0
VERTEX
  8
T32SSILL
 62
7
 10
1759.801
 20
-4266.882
 30
2034.843
 70
    32
  0
VERTEX
  8
T32SSILL
 62
7
 10
1778.752
 20
-4293.603
 30
2034.757
 70
    32
  0
VERTEX
  8
T32SSILL
 62
7
 10
1773.189
 20
-4297.753
 30
2034.774
 70
    32
  0
VERTEX
  8
T32SSILL
 62
7
 10
1797.823
 20
-4332.070
 30
2034.662
 70
    32
  0
VERTEX
  8
T32SSILL
 62
7
 10
1802.705
 20
-4328.582
 30
2034.647
 70
    32
  0
VERTEX
  8
T32SSILL
 62
7
 10
1810.111
 20
-4338.900
 30
2034.613
 70
    32
  0
VERTEX
  8
T32SSILL
 62
7
 10
1822.321
 20
-4329.954
 30
2034.576
 70
    32
  0
VERTEX
  8
T32SSILL
 62
7
 10
1807.227
 20
-4311.499
 30
2034.643
 70
    32
  0
VERTEX
  8
T32SSILL
 62
7
 10
1803.158
 20
-4302.705
 30
2034.663
 70
    32
  0
VERTEX
  8
T32SSILL
 62
7
 10
1796.091
 20
-4291.716
 30
2034.696
 70
    32
  0
VERTEX
  8
T32SSILL
 62
7
 10
1785.066
 20
-4282.408
 30
2034.742
 70
    32
  0
VERTEX
  8
T32SSILL
 62
7
 10
1775.351
 20
-4268.520
 30
2034.787
 70
    32
  0
SEQEND
  8
T32SSILL
  0
POLYLINE
  8
T32SSILL
 62
7
 66
     1
 70
     9
  0
VERTEX
  8
T32SSILL
 62
7
 10
1655.724
 20
-4145.000
 30
2035.301
 70
    32
  0
VERTEX
  8
T32SSILL
 62
7
 10
1662.732
 20
-4138.827
 30
2035.280
 70
    32
  0
VERTEX
  8
T32SSILL
 62
7
 10
1664.921
 20
-4133.716
 30
2035.276
 70
    32
  0
VERTEX
  8
T32SSILL
 62
7
 10
1664.552
 20
-4125.969
 30
2035.282
 70
    32
  0
VERTEX
  8
T32SSILL
 62
7
 10
1657.479
 20
-4112.163
 30
2035.317
 70
    32
  0
VERTEX
  8
T32SSILL
 62
7
 10
1657.292
 20
-4107.058
 30
2035.322
 70
    32
  0
VERTEX
  8
T32SSILL
 62
7
 10
1659.930
 20
-4105.731
 30
2035.313
 70
    32
  0
VERTEX
  8
T32SSILL
 62
7
 10
1664.526
 20
-4113.997
 30
2035.291
 70
    32
  0
VERTEX
  8
T32SSILL
 62
7
 10
1680.679
 20
-4133.329
 30
2035.220
 70
    32
  0
VERTEX
  8
T32SSILL
 62
7
 10
1687.837
 20
-4145.726
 30
2035.185
 70
    32
  0
VERTEX
  8
T32SSILL
 62
7
 10
1693.951
 20
-4163.672
 30
2035.151
 70
    32
  0
VERTEX
  8
T32SSILL
 62
7
 10
1703.412
 20
-4182.051
 30
2035.104
 70
    32
  0
VERTEX
  8
T32SSILL
 62
7
 10
1673.437
 20
-4202.981
 30
2035.197
 70
    32
  0
VERTEX
  8
T32SSILL
 62
7
 10
1659.396
 20
-4183.204
 30
2035.261
 70
    32
  0
VERTEX
  8
T32SSILL
 62
7
 10
1669.504
 20
-4175.963
 30
2035.230
 70
    32
  0
VERTEX
  8
T32SSILL
 62
7
 10
1665.530
 20
-4170.161
 30
2035.248
 70
    32
  0
VERTEX
  8
T32SSILL
 62
7
 10
1670.979
 20
-4166.100
 30
2035.231
 70
    32
  0
SEQEND
  8
T32SSILL
  0
POLYLINE
  8
T32SSILL
 62
7
 66
     1
 70
     9
  0
VERTEX
  8
T32SSILL
 62
7
 10
1510.991
 20
-3896.800
 30
2035.936
 70
    32
  0
VERTEX
  8
T32SSILL
 62
7
 10
1525.277
 20
-3912.526
 30
2035.878
 70
    32
  0
VERTEX
  8
T32SSILL
 62
7
 10
1533.339
 20
-3919.679
 30
2035.844
 70
    32
  0
VERTEX
  8
T32SSILL
 62
7
 10
1544.138
 20
-3928.041
 30
2035.797
 70
    32
  0
VERTEX
  8
T32SSILL
 62
7
 10
1558.099
 20
-3935.851
 30
2035.735
 70
    32
  0
VERTEX
  8
T32SSILL
 62
7
 10
1537.017
 20
-3951.499
 30
2035.844
 70
    32
  0
VERTEX
  8
T32SSILL
 62
7
 10
1524.580
 20
-3947.461
 30
2035.901
 70
    32
  0
VERTEX
  8
T32SSILL
 62
7
 10
1521.505
 20
-3948.012
 30
2035.916
 70
    32
  0
VERTEX
  8
T32SSILL
 62
7
 10
1522.142
 20
-3962.172
 30
2035.906
 70
    32
  0
VERTEX
  8
T32SSILL
 62
7
 10
1519.077
 20
-3963.956
 30
2035.916
 70
    32
  0
VERTEX
  8
T32SSILL
 62
7
 10
1496.926
 20
-3932.454
 30
2036.017
 70
    32
  0
VERTEX
  8
T32SSILL
 62
7
 10
1482.230
 20
-3923.015
 30
2036.076
 70
    32
  0
VERTEX
  8
T32SSILL
 62
7
 10
1469.804
 20
-3911.563
 30
2036.129
 70
    32
  0
VERTEX
  8
T32SSILL
 62
7
 10
1473.043
 20
-3908.630
 30
2036.119
 70
    32
  0
VERTEX
  8
T32SSILL
 62
7
 10
1473.704
 20
-3902.808
 30
2036.116
 70
    32
  0
VERTEX
  8
T32SSILL
 62
7
 10
1469.780
 20
-3896.756
 30
2036.132
 70
    32
  0
VERTEX
  8
T32SSILL
 62
7
 10
1456.711
 20
-3881.872
 30
2036.168
 70
    32
  0
VERTEX
  8
T32SSILL
 62
7
 10
1448.667
 20
-3867.214
 30
2036.173
 70
    32
  0
VERTEX
  8
T32SSILL
 62
7
 10
1464.349
 20
-3854.668
 30
2036.076
 70
    32
  0
VERTEX
  8
T32SSILL
 62
7
 10
1504.501
 20
-3888.140
 30
2035.962
 70
    32
  0
SEQEND
  8
T32SSILL
  0
POLYLINE
  8
T32SSILL
 62
7
 66
     1
 70
     9
  0
VERTEX
  8
T32SSILL
 62
7
 10
1521.400
 20
-4007.741
 30
2035.877
 70
    32
  0
VERTEX
  8
T32SSILL
 62
7
 10
1533.553
 20
-3996.771
 30
2035.841
 70
    32
  0
VERTEX
  8
T32SSILL
 62
7
 10
1541.640
 20
-3991.968
 30
2035.816
 70
    32
  0
VERTEX
  8
T32SSILL
 62
7
 10
1547.848
 20
-3995.029
 30
2035.791
 70
    32
  0
VERTEX
  8
T32SSILL
 62
7
 10
1556.178
 20
-4009.722
 30
2035.751
 70
    32
  0
VERTEX
  8
T32SSILL
 62
7
 10
1573.978
 20
-4010.907
 30
2035.687
 70
    32
  0
VERTEX
  8
T32SSILL
 62
7
 10
1588.847
 20
-4030.186
 30
2035.620
 70
    32
  0
VERTEX
  8
T32SSILL
 62
7
 10
1598.652
 20
-4023.377
 30
2035.590
 70
    32
  0
VERTEX
  8
T32SSILL
 62
7
 10
1595.300
 20
-4020.303
 30
2035.604
 70
    32
  0
VERTEX
  8
T32SSILL
 62
7
 10
1587.071
 20
-4001.657
 30
2035.636
 70
    32
  0
VERTEX
  8
T32SSILL
 62
7
 10
1584.829
 20
-3983.086
 30
2035.636
 70
    32
  0
VERTEX
  8
T32SSILL
 62
7
 10
1561.930
 20
-3942.068
 30
2035.721
 70
    32
  0
VERTEX
  8
T32SSILL
 62
7
 10
1545.399
 20
-3954.602
 30
2035.806
 70
    32
  0
VERTEX
  8
T32SSILL
 62
7
 10
1548.894
 20
-3962.845
 30
2035.795
 70
    32
  0
VERTEX
  8
T32SSILL
 62
7
 10
1556.203
 20
-3975.018
 30
2035.767
 70
    32
  0
VERTEX
  8
T32SSILL
 62
7
 10
1541.245
 20
-3986.219
 30
2035.821
 70
    32
  0
VERTEX
  8
T32SSILL
 62
7
 10
1535.584
 20
-3982.392
 30
2035.844
 70
    32
  0
VERTEX
  8
T32SSILL
 62
7
 10
1525.275
 20
-3969.099
 30
2035.890
 70
    32
  0
VERTEX
  8
T32SSILL
 62
7
 10
1522.737
 20
-3970.790
 30
2035.898
 70
    32
  0
VERTEX
  8
T32SSILL
 62
7
 10
1529.499
 20
-3991.941
 30
2035.859
 70
    32
  0
VERTEX
  8
T32SSILL
 62
7
 10
1531.639
 20
-3995.532
 30
2035.849
 70
    32
  0
VERTEX
  8
T32SSILL
 62
7
 10
1518.691
 20
-4006.324
 30
2035.888
 70
    32
  0
SEQEND
  8
T32SSILL
  0
POLYLINE
  8
T32SSILL
 62
7
 66
     1
 70
     9
  0
VERTEX
  8
T32SSILL
 62
7
 10
1449.771
 20
-4012.442
 30
2036.055
 70
    32
  0
VERTEX
  8
T32SSILL
 62
7
 10
1450.666
 20
-4014.459
 30
2036.049
 70
    32
  0
VERTEX
  8
T32SSILL
 62
7
 10
1479.367
 20
-3994.089
 30
2036.037
 70
    32
  0
VERTEX
  8
T32SSILL
 62
7
 10
1474.454
 20
-3984.625
 30
2036.053
 70
    32
  0
VERTEX
  8
T32SSILL
 62
7
 10
1460.068
 20
-3990.191
 30
2036.002
 70
    32
  0
VERTEX
  8
T32SSILL
 62
7
 10
1456.815
 20
-3990.480
 30
2036.033
 70
    32
  0
VERTEX
  8
T32SSILL
 62
7
 10
1447.615
 20
-3995.303
 30
2036.086
 70
    32
  0
VERTEX
  8
T32SSILL
 62
7
 10
1442.734
 20
-4001.323
 30
2036.096
 70
    32
  0
VERTEX
  8
T32SSILL
 62
7
 10
1442.838
 20
-4003.346
 30
2036.092
 70
    32
  0
VERTEX
  8
T32SSILL
 62
7
 10
1448.245
 20
-4008.495
 30
2036.066
 70
    32
  0
SEQEND
  8
T32SSILL
  0
POLYLINE
  8
T32SSILL
 62
7
 66
     1
 70
     9
  0
VERTEX
  8
T32SSILL
 62
7
 10
1432.534
 20
-4013.456
 30
2036.116
 70
    32
  0
VERTEX
  8
T32SSILL
 62
7
 10
1435.340
 20
-4012.202
 30
2036.108
 70
    32
  0
VERTEX
  8
T32SSILL
 62
7
 10
1437.685
 20
-4019.574
 30
2036.090
 70
    32
  0
VERTEX
  8
T32SSILL
 62
7
 10
1437.279
 20
-4024.065
 30
2036.085
 70
    32
  0
VERTEX
  8
T32SSILL
 62
7
 10
1429.583
 20
-4030.019
 30
2036.105
 70
    32
  0
VERTEX
  8
T32SSILL
 62
7
 10
1427.715
 20
-4016.044
 30
2036.130
 70
    32
  0
VERTEX
  8
T32SSILL
 62
7
 10
1429.197
 20
-4014.273
 30
2036.127
 70
    32
  0
SEQEND
  8
T32SSILL
  0
POLYLINE
  8
T32SSILL
 62
7
 66
     1
 70
     9
  0
VERTEX
  8
T32SSILL
 62
7
 10
1618.316
 20
-4158.204
 30
2035.425
 70
    32
  0
VERTEX
  8
T32SSILL
 62
7
 10
1621.584
 20
-4162.863
 30
2035.410
 70
    32
  0
VERTEX
  8
T32SSILL
 62
7
 10
1617.864
 20
-4165.716
 30
2035.422
 70
    32
  0
VERTEX
  8
T32SSILL
 62
7
 10
1610.729
 20
-4150.914
 30
2035.458
 70
    32
  0
VERTEX
  8
T32SSILL
 62
7
 10
1608.421
 20
-4142.380
 30
2035.472
 70
    32
  0
VERTEX
  8
T32SSILL
 62
7
 10
1612.905
 20
-4139.641
 30
2035.458
 70
    32
  0
VERTEX
  8
T32SSILL
 62
7
 10
1622.517
 20
-4155.121
 30
2035.412
 70
    32
  0
SEQEND
  8
T32SSILL
  0
POLYLINE
  8
T32SSILL
 62
7
 66
     1
 70
     9
  0
VERTEX
  8
T32SSILL
 62
7
 10
1628.756
 20
-4101.486
 30
2035.428
 70
    32
  0
VERTEX
  8
T32SSILL
 62
7
 10
1631.302
 20
-4098.311
 30
2035.421
 70
    32
  0
VERTEX
  8
T32SSILL
 62
7
 10
1629.880
 20
-4092.504
 30
2035.430
 70
    32
  0
VERTEX
  8
T32SSILL
 62
7
 10
1623.000
 20
-4086.269
 30
2035.459
 70
    32
  0
VERTEX
  8
T32SSILL
 62
7
 10
1616.306
 20
-4084.699
 30
2035.484
 70
    32
  0
VERTEX
  8
T32SSILL
 62
7
 10
1614.899
 20
-4085.670
 30
2035.488
 70
    32
  0
VERTEX
  8
T32SSILL
 62
7
 10
1615.875
 20
-4088.925
 30
2035.482
 70
    32
  0
VERTEX
  8
T32SSILL
 62
7
 10
1626.908
 20
-4102.106
 30
2035.434
 70
    32
  0
SEQEND
  8
T32SSILL
  0
POLYLINE
  8
T32SSILL
 62
7
 66
     1
 70
     9
  0
VERTEX
  8
T32SSILL
 62
7
 10
1921.398
 20
-2684.490
 30
2035.704
 70
    32
  0
VERTEX
  8
T32SSILL
 62
7
 10
1880.781
 20
-2713.517
 30
2035.773
 70
    32
  0
VERTEX
  8
T32SSILL
 62
7
 10
1918.869
 20
-2750.950
 30
2035.652
 70
    32
  0
VERTEX
  8
T32SSILL
 62
7
 10
1924.317
 20
-2745.307
 30
2035.645
 70
    32
  0
VERTEX
  8
T32SSILL
 62
7
 10
1926.076
 20
-2691.788
 30
2035.687
 70
    32
  0
SEQEND
  8
T32SSILL
  0
POLYLINE
  8
T32SSILL
 62
7
 66
     1
 70
     9
  0
VERTEX
  8
T32SSILL
 62
7
 10
3287.998
 20
-4766.432
 30
2034.034
 70
    32
  0
VERTEX
  8
T32SSILL
 62
7
 10
3290.970
 20
-4779.243
 30
2034.074
 70
    32
  0
VERTEX
  8
T32SSILL
 62
7
 10
3290.310
 20
-4782.138
 30
2034.086
 70
    32
  0
VERTEX
  8
T32SSILL
 62
7
 10
3287.903
 20
-4784.038
 30
2034.097
 70
    32
  0
VERTEX
  8
T32SSILL
 62
7
 10
3279.448
 20
-4784.259
 30
2034.114
 70
    32
  0
VERTEX
  8
T32SSILL
 62
7
 10
3269.080
 20
-4788.678
 30
2034.149
 70
    32
  0
VERTEX
  8
T32SSILL
 62
7
 10
3261.454
 20
-4786.535
 30
2034.156
 70
    32
  0
VERTEX
  8
T32SSILL
 62
7
 10
3257.706
 20
-4784.101
 30
2034.154
 70
    32
  0
VERTEX
  8
T32SSILL
 62
7
 10
3239.065
 20
-4759.780
 30
2034.103
 70
    32
  0
VERTEX
  8
T32SSILL
 62
7
 10
3240.554
 20
-4758.725
 30
2034.096
 70
    32
  0
VERTEX
  8
T32SSILL
 62
7
 10
3244.415
 20
-4764.148
 30
2034.108
 70
    32
  0
VERTEX
  8
T32SSILL
 62
7
 10
3252.438
 20
-4758.454
 30
2034.073
 70
    32
  0
VERTEX
  8
T32SSILL
 62
7
 10
3248.430
 20
-4753.150
 30
2034.062
 70
    32
  0
VERTEX
  8
T32SSILL
 62
7
 10
3283.123
 20
-4728.589
 30
2033.909
 70
    32
  0
VERTEX
  8
T32SSILL
 62
7
 10
3279.781
 20
-4756.973
 30
2034.016
 70
    32
  0
VERTEX
  8
T32SSILL
 62
7
 10
3284.896
 20
-4762.070
 30
2034.025
 70
    32
  0
SEQEND
  8
T32SSILL
  0
POLYLINE
  8
T32SSILL
 62
7
 66
     1
 70
     9
  0
VERTEX
  8
T32SSILL
 62
7
 10
3240.017
 20
-4641.356
 30
2033.637
 70
    32
  0
VERTEX
  8
T32SSILL
 62
7
 10
3244.903
 20
-4637.875
 30
2033.632
 70
    32
  0
VERTEX
  8
T32SSILL
 62
7
 10
3241.547
 20
-4633.163
 30
2033.599
 70
    32
  0
VERTEX
  8
T32SSILL
 62
7
 10
3273.233
 20
-4610.450
 30
2033.509
 70
    32
  0
VERTEX
  8
T32SSILL
 62
7
 10
3280.260
 20
-4620.185
 30
2033.531
 70
    32
  0
VERTEX
  8
T32SSILL
 62
7
 10
3289.990
 20
-4613.160
 30
2033.487
 70
    32
  0
VERTEX
  8
T32SSILL
 62
7
 10
3282.986
 20
-4603.459
 30
2033.466
 70
    32
  0
VERTEX
  8
T32SSILL
 62
7
 10
3298.383
 20
-4592.421
 30
2033.398
 70
    32
  0
VERTEX
  8
T32SSILL
 62
7
 10
3304.506
 20
-4601.048
 30
2033.417
 70
    32
  0
VERTEX
  8
T32SSILL
 62
7
 10
3314.358
 20
-4594.109
 30
2033.374
 70
    32
  0
VERTEX
  8
T32SSILL
 62
7
 10
3318.359
 20
-4599.691
 30
2033.386
 70
    32
  0
VERTEX
  8
T32SSILL
 62
7
 10
3323.287
 20
-4596.268
 30
2033.365
 70
    32
  0
VERTEX
  8
T32SSILL
 62
7
 10
3313.013
 20
-4581.934
 30
2033.333
 70
    32
  0
VERTEX
  8
T32SSILL
 62
7
 10
3368.307
 20
-4542.297
 30
2033.118
 70
    32
  0
VERTEX
  8
T32SSILL
 62
7
 10
3386.342
 20
-4554.548
 30
2033.191
 70
    32
  0
VERTEX
  8
T32SSILL
 62
7
 10
3393.521
 20
-4557.124
 30
2033.216
 70
    32
  0
VERTEX
  8
T32SSILL
 62
7
 10
3397.648
 20
-4563.526
 30
2033.239
 70
    32
  0
VERTEX
  8
T32SSILL
 62
7
 10
3403.337
 20
-4559.202
 30
2033.248
 70
    32
  0
VERTEX
  8
T32SSILL
 62
7
 10
3409.036
 20
-4567.223
 30
2033.278
 70
    32
  0
VERTEX
  8
T32SSILL
 62
7
 10
3330.521
 20
-4623.500
 30
2033.448
 70
    32
  0
VERTEX
  8
T32SSILL
 62
7
 10
3325.778
 20
-4622.811
 30
2033.454
 70
    32
  0
VERTEX
  8
T32SSILL
 62
7
 10
3322.847
 20
-4618.716
 30
2033.445
 70
    32
  0
VERTEX
  8
T32SSILL
 62
7
 10
3321.729
 20
-4599.859
 30
2033.380
 70
    32
  0
VERTEX
  8
T32SSILL
 62
7
 10
3316.176
 20
-4600.302
 30
2033.392
 70
    32
  0
VERTEX
  8
T32SSILL
 62
7
 10
3278.977
 20
-4626.316
 30
2033.555
 70
    32
  0
VERTEX
  8
T32SSILL
 62
7
 10
3281.594
 20
-4633.575
 30
2033.575
 70
    32
  0
VERTEX
  8
T32SSILL
 62
7
 10
3281.364
 20
-4637.093
 30
2033.588
 70
    32
  0
VERTEX
  8
T32SSILL
 62
7
 10
3273.567
 20
-4646.041
 30
2033.635
 70
    32
  0
VERTEX
  8
T32SSILL
 62
7
 10
3272.823
 20
-4654.304
 30
2033.665
 70
    32
  0
VERTEX
  8
T32SSILL
 62
7
 10
3274.197
 20
-4656.527
 30
2033.671
 70
    32
  0
VERTEX
  8
T32SSILL
 62
7
 10
3270.255
 20
-4666.678
 30
2033.714
 70
    32
  0
VERTEX
  8
T32SSILL
 62
7
 10
3264.464
 20
-4671.167
 30
2033.741
 70
    32
  0
VERTEX
  8
T32SSILL
 62
7
 10
3262.039
 20
-4657.132
 30
2033.696
 70
    32
  0
VERTEX
  8
T32SSILL
 62
7
 10
3254.523
 20
-4659.305
 30
2033.718
 70
    32
  0
VERTEX
  8
T32SSILL
 62
7
 10
3258.144
 20
-4675.647
 30
2033.769
 70
    32
  0
VERTEX
  8
T32SSILL
 62
7
 10
3206.079
 20
-4712.260
 30
2033.913
 70
    32
  0
VERTEX
  8
T32SSILL
 62
7
 10
3175.631
 20
-4671.471
 30
2033.618
 70
    32
  0
VERTEX
  8
T32SSILL
 62
7
 10
3188.484
 20
-4671.493
 30
2033.653
 70
    32
  0
VERTEX
  8
T32SSILL
 62
7
 10
3222.041
 20
-4647.146
 30
2033.618
 70
    32
  0
VERTEX
  8
T32SSILL
 62
7
 10
3228.862
 20
-4656.721
 30
2033.687
 70
    32
  0
VERTEX
  8
T32SSILL
 62
7
 10
3243.498
 20
-4646.243
 30
2033.672
 70
    32
  0
SEQEND
  8
T32SSILL
  0
POLYLINE
  8
T32SSILL
 62
7
 66
     1
 70
     9
  0
VERTEX
  8
T32SSILL
 62
7
 10
3299.493
 20
-4700.990
 30
2033.781
 70
    32
  0
VERTEX
  8
T32SSILL
 62
7
 10
3302.829
 20
-4705.399
 30
2033.790
 70
    32
  0
VERTEX
  8
T32SSILL
 62
7
 10
3235.638
 20
-4753.652
 30
2034.088
 70
    32
  0
VERTEX
  8
T32SSILL
 62
7
 10
3210.557
 20
-4718.756
 30
2033.959
 70
    32
  0
VERTEX
  8
T32SSILL
 62
7
 10
3298.504
 20
-4655.933
 30
2033.623
 70
    32
  0
VERTEX
  8
T32SSILL
 62
7
 10
3301.594
 20
-4655.364
 30
2033.615
 70
    32
  0
VERTEX
  8
T32SSILL
 62
7
 10
3304.127
 20
-4656.723
 30
2033.615
 70
    32
  0
VERTEX
  8
T32SSILL
 62
7
 10
3313.120
 20
-4667.250
 30
2033.635
 70
    32
  0
VERTEX
  8
T32SSILL
 62
7
 10
3320.620
 20
-4666.133
 30
2033.617
 70
    32
  0
VERTEX
  8
T32SSILL
 62
7
 10
3324.132
 20
-4661.081
 30
2033.593
 70
    32
  0
VERTEX
  8
T32SSILL
 62
7
 10
3329.544
 20
-4664.070
 30
2033.593
 70
    32
  0
VERTEX
  8
T32SSILL
 62
7
 10
3334.615
 20
-4660.627
 30
2033.572
 70
    32
  0
VERTEX
  8
T32SSILL
 62
7
 10
3340.137
 20
-4656.486
 30
2033.546
 70
    32
  0
VERTEX
  8
T32SSILL
 62
7
 10
3346.470
 20
-4645.403
 30
2033.495
 70
    32
  0
VERTEX
  8
T32SSILL
 62
7
 10
3340.884
 20
-4625.157
 30
2033.434
 70
    32
  0
VERTEX
  8
T32SSILL
 62
7
 10
3413.430
 20
-4573.453
 30
2033.301
 70
    32
  0
VERTEX
  8
T32SSILL
 62
7
 10
3438.338
 20
-4608.083
 30
2033.431
 70
    32
  0
VERTEX
  8
T32SSILL
 62
7
 10
3334.956
 20
-4682.327
 30
2033.648
 70
    32
  0
VERTEX
  8
T32SSILL
 62
7
 10
3329.276
 20
-4673.797
 30
2033.628
 70
    32
  0
VERTEX
  8
T32SSILL
 62
7
 10
3324.089
 20
-4677.610
 30
2033.652
 70
    32
  0
VERTEX
  8
T32SSILL
 62
7
 10
3330.034
 20
-4685.862
 30
2033.670
 70
    32
  0
VERTEX
  8
T32SSILL
 62
7
 10
3317.851
 20
-4694.611
 30
2033.724
 70
    32
  0
VERTEX
  8
T32SSILL
 62
7
 10
3314.758
 20
-4690.102
 30
2033.713
 70
    32
  0
VERTEX
  8
T32SSILL
 62
7
 10
3309.643
 20
-4693.958
 30
2033.737
 70
    32
  0
SEQEND
  8
T32SSILL
  0
POLYLINE
  8
T32SSILL
 62
7
 66
     1
 70
     9
  0
VERTEX
  8
T32SSILL
 62
7
 10
3246.985
 20
-4620.115
 30
2033.546
 70
    32
  0
VERTEX
  8
T32SSILL
 62
7
 10
3263.989
 20
-4607.897
 30
2033.518
 70
    32
  0
VERTEX
  8
T32SSILL
 62
7
 10
3257.731
 20
-4599.229
 30
2033.467
 70
    32
  0
VERTEX
  8
T32SSILL
 62
7
 10
3272.351
 20
-4588.729
 30
2033.434
 70
    32
  0
VERTEX
  8
T32SSILL
 62
7
 10
3278.607
 20
-4597.394
 30
2033.453
 70
    32
  0
VERTEX
  8
T32SSILL
 62
7
 10
3298.886
 20
-4582.824
 30
2033.363
 70
    32
  0
VERTEX
  8
T32SSILL
 62
7
 10
3295.771
 20
-4578.479
 30
2033.353
 70
    32
  0
VERTEX
  8
T32SSILL
 62
7
 10
3305.566
 20
-4571.547
 30
2033.310
 70
    32
  0
VERTEX
  8
T32SSILL
 62
7
 10
3308.631
 20
-4575.822
 30
2033.320
 70
    32
  0
VERTEX
  8
T32SSILL
 62
7
 10
3365.159
 20
-4535.206
 30
2033.097
 70
    32
  0
VERTEX
  8
T32SSILL
 62
7
 10
3366.550
 20
-4519.205
 30
2033.074
 70
    32
  0
VERTEX
  8
T32SSILL
 62
7
 10
3363.310
 20
-4512.376
 30
2033.053
 70
    32
  0
VERTEX
  8
T32SSILL
 62
7
 10
3360.435
 20
-4510.395
 30
2033.042
 70
    32
  0
VERTEX
  8
T32SSILL
 62
7
 10
3338.349
 20
-4509.703
 30
2033.031
 70
    32
  0
VERTEX
  8
T32SSILL
 62
7
 10
3333.865
 20
-4515.004
 30
2033.057
 70
    32
  0
VERTEX
  8
T32SSILL
 62
7
 10
3330.813
 20
-4524.553
 30
2033.096
 70
    32
  0
VERTEX
  8
T32SSILL
 62
7
 10
3326.320
 20
-4524.747
 30
2033.105
 70
    32
  0
VERTEX
  8
T32SSILL
 62
7
 10
3318.675
 20
-4529.560
 30
2033.137
 70
    32
  0
VERTEX
  8
T32SSILL
 62
7
 10
3312.951
 20
-4529.648
 30
2033.148
 70
    32
  0
VERTEX
  8
T32SSILL
 62
7
 10
3311.169
 20
-4531.029
 30
2033.156
 70
    32
  0
VERTEX
  8
T32SSILL
 62
7
 10
3311.471
 20
-4534.291
 30
2033.167
 70
    32
  0
VERTEX
  8
T32SSILL
 62
7
 10
3318.328
 20
-4546.369
 30
2033.197
 70
    32
  0
VERTEX
  8
T32SSILL
 62
7
 10
3290.186
 20
-4567.328
 30
2033.324
 70
    32
  0
VERTEX
  8
T32SSILL
 62
7
 10
3287.900
 20
-4567.117
 30
2033.328
 70
    32
  0
VERTEX
  8
T32SSILL
 62
7
 10
3281.685
 20
-4553.376
 30
2033.291
 70
    32
  0
VERTEX
  8
T32SSILL
 62
7
 10
3279.068
 20
-4551.839
 30
2033.279
 70
    32
  0
VERTEX
  8
T32SSILL
 62
7
 10
3271.849
 20
-4551.816
 30
2033.259
 70
    32
  0
VERTEX
  8
T32SSILL
 62
7
 10
3268.997
 20
-4548.338
 30
2033.233
 70
    32
  0
VERTEX
  8
T32SSILL
 62
7
 10
3233.573
 20
-4573.411
 30
2033.267
 70
    32
  0
VERTEX
  8
T32SSILL
 62
7
 10
3242.405
 20
-4600.134
 30
2033.430
 70
    32
  0
VERTEX
  8
T32SSILL
 62
7
 10
3217.483
 20
-4617.797
 30
2033.453
 70
    32
  0
VERTEX
  8
T32SSILL
 62
7
 10
3213.315
 20
-4608.313
 30
2033.393
 70
    32
  0
VERTEX
  8
T32SSILL
 62
7
 10
3206.682
 20
-4598.879
 30
2033.326
 70
    32
  0
VERTEX
  8
T32SSILL
 62
7
 10
3201.793
 20
-4596.163
 30
2033.298
 70
    32
  0
VERTEX
  8
T32SSILL
 62
7
 10
3148.841
 20
-4633.203
 30
2033.346
 70
    32
  0
VERTEX
  8
T32SSILL
 62
7
 10
3167.795
 20
-4660.081
 30
2033.537
 70
    32
  0
VERTEX
  8
T32SSILL
 62
7
 10
3176.793
 20
-4664.622
 30
2033.585
 70
    32
  0
VERTEX
  8
T32SSILL
 62
7
 10
3184.540
 20
-4664.653
 30
2033.607
 70
    32
  0
VERTEX
  8
T32SSILL
 62
7
 10
3222.622
 20
-4637.620
 30
2033.570
 70
    32
  0
VERTEX
  8
T32SSILL
 62
7
 10
3212.865
 20
-4623.922
 30
2033.473
 70
    32
  0
VERTEX
  8
T32SSILL
 62
7
 10
3237.299
 20
-4606.516
 30
2033.449
 70
    32
  0
SEQEND
  8
T32SSILL
  0
POLYLINE
  8
T32SSILL
 62
7
 66
     1
 70
     9
  0
VERTEX
  8
T32SSILL
 62
7
 10
3263.553
 20
-4513.128
 30
2033.036
 70
    32
  0
VERTEX
  8
T32SSILL
 62
7
 10
3264.195
 20
-4511.465
 30
2033.029
 70
    32
  0
VERTEX
  8
T32SSILL
 62
7
 10
3334.596
 20
-4461.841
 30
2032.885
 70
    32
  0
VERTEX
  8
T32SSILL
 62
7
 10
3323.890
 20
-4448.207
 30
2032.839
 70
    32
  0
VERTEX
  8
T32SSILL
 62
7
 10
3266.615
 20
-4488.329
 30
2032.928
 70
    32
  0
VERTEX
  8
T32SSILL
 62
7
 10
3276.021
 20
-4501.790
 30
2033.011
 70
    32
  0
VERTEX
  8
T32SSILL
 62
7
 10
3265.471
 20
-4509.682
 30
2033.023
 70
    32
  0
VERTEX
  8
T32SSILL
 62
7
 10
3255.182
 20
-4494.908
 30
2032.939
 70
    32
  0
VERTEX
  8
T32SSILL
 62
7
 10
3234.607
 20
-4509.630
 30
2032.969
 70
    32
  0
VERTEX
  8
T32SSILL
 62
7
 10
3242.055
 20
-4519.741
 30
2033.016
 70
    32
  0
VERTEX
  8
T32SSILL
 62
7
 10
3232.911
 20
-4526.304
 30
2033.030
 70
    32
  0
VERTEX
  8
T32SSILL
 62
7
 10
3236.282
 20
-4531.228
 30
2033.055
 70
    32
  0
VERTEX
  8
T32SSILL
 62
7
 10
3226.874
 20
-4538.057
 30
2033.067
 70
    32
  0
VERTEX
  8
T32SSILL
 62
7
 10
3216.515
 20
-4523.399
 30
2032.999
 70
    32
  0
VERTEX
  8
T32SSILL
 62
7
 10
3202.766
 20
-4533.056
 30
2033.019
 70
    32
  0
VERTEX
  8
T32SSILL
 62
7
 10
3205.846
 20
-4538.826
 30
2033.044
 70
    32
  0
VERTEX
  8
T32SSILL
 62
7
 10
3214.125
 20
-4544.324
 30
2033.075
 70
    32
  0
VERTEX
  8
T32SSILL
 62
7
 10
3205.253
 20
-4549.441
 30
2033.083
 70
    32
  0
VERTEX
  8
T32SSILL
 62
7
 10
3206.823
 20
-4551.630
 30
2033.093
 70
    32
  0
VERTEX
  8
T32SSILL
 62
7
 10
3186.512
 20
-4566.263
 30
2033.124
 70
    32
  0
VERTEX
  8
T32SSILL
 62
7
 10
3176.606
 20
-4552.671
 30
2033.061
 70
    32
  0
VERTEX
  8
T32SSILL
 62
7
 10
3133.141
 20
-4583.749
 30
2033.125
 70
    32
  0
VERTEX
  8
T32SSILL
 62
7
 10
3125.784
 20
-4586.981
 30
2033.128
 70
    32
  0
VERTEX
  8
T32SSILL
 62
7
 10
3115.045
 20
-4586.903
 30
2033.115
 70
    32
  0
VERTEX
  8
T32SSILL
 62
7
 10
3144.695
 20
-4628.033
 30
2033.308
 70
    32
  0
VERTEX
  8
T32SSILL
 62
7
 10
3198.905
 20
-4589.340
 30
2033.255
 70
    32
  0
VERTEX
  8
T32SSILL
 62
7
 10
3194.505
 20
-4577.827
 30
2033.183
 70
    32
  0
VERTEX
  8
T32SSILL
 62
7
 10
3191.724
 20
-4564.051
 30
2033.122
 70
    32
  0
VERTEX
  8
T32SSILL
 62
7
 10
3209.873
 20
-4551.741
 30
2033.097
 70
    32
  0
VERTEX
  8
T32SSILL
 62
7
 10
3230.385
 20
-4565.905
 30
2033.219
 70
    32
  0
VERTEX
  8
T32SSILL
 62
7
 10
3232.966
 20
-4561.341
 30
2033.202
 70
    32
  0
VERTEX
  8
T32SSILL
 62
7
 10
3236.171
 20
-4562.825
 30
2033.219
 70
    32
  0
VERTEX
  8
T32SSILL
 62
7
 10
3266.199
 20
-4541.428
 30
2033.190
 70
    32
  0
VERTEX
  8
T32SSILL
 62
7
 10
3264.338
 20
-4536.470
 30
2033.159
 70
    32
  0
VERTEX
  8
T32SSILL
 62
7
 10
3267.553
 20
-4533.526
 30
2033.152
 70
    32
  0
VERTEX
  8
T32SSILL
 62
7
 10
3269.576
 20
-4527.923
 30
2033.129
 70
    32
  0
VERTEX
  8
T32SSILL
 62
7
 10
3266.693
 20
-4520.748
 30
2033.084
 70
    32
  0
SEQEND
  8
T32SSILL
  0
POLYLINE
  8
T32SSILL
 62
7
 66
     1
 70
     9
  0
VERTEX
  8
T32SSILL
 62
7
 10
3256.892
 20
-4465.340
 30
2032.830
 70
    32
  0
VERTEX
  8
T32SSILL
 62
7
 10
3264.906
 20
-4459.623
 30
2032.818
 70
    32
  0
VERTEX
  8
T32SSILL
 62
7
 10
3265.180
 20
-4453.289
 30
2032.795
 70
    32
  0
VERTEX
  8
T32SSILL
 62
7
 10
3252.082
 20
-4446.308
 30
2032.753
 70
    32
  0
VERTEX
  8
T32SSILL
 62
7
 10
3248.479
 20
-4440.178
 30
2032.726
 70
    32
  0
VERTEX
  8
T32SSILL
 62
7
 10
3294.128
 20
-4407.342
 30
2032.693
 70
    32
  0
VERTEX
  8
T32SSILL
 62
7
 10
3318.243
 20
-4441.220
 30
2032.814
 70
    32
  0
VERTEX
  8
T32SSILL
 62
7
 10
3266.280
 20
-4478.519
 30
2032.891
 70
    32
  0
SEQEND
  8
T32SSILL
  0
POLYLINE
  8
T32SSILL
 62
7
 66
     1
 70
     9
  0
VERTEX
  8
T32SSILL
 62
7
 10
3248.033
 20
-4430.082
 30
2032.696
 70
    32
  0
VERTEX
  8
T32SSILL
 62
7
 10
3245.043
 20
-4430.245
 30
2032.693
 70
    32
  0
VERTEX
  8
T32SSILL
 62
7
 10
3235.608
 20
-4416.659
 30
2032.646
 70
    32
  0
VERTEX
  8
T32SSILL
 62
7
 10
3233.437
 20
-4410.582
 30
2032.627
 70
    32
  0
VERTEX
  8
T32SSILL
 62
7
 10
3230.806
 20
-4409.163
 30
2032.620
 70
    32
  0
VERTEX
  8
T32SSILL
 62
7
 10
3225.879
 20
-4412.660
 30
2032.623
 70
    32
  0
VERTEX
  8
T32SSILL
 62
7
 10
3215.977
 20
-4398.895
 30
2032.575
 70
    32
  0
VERTEX
  8
T32SSILL
 62
7
 10
3262.311
 20
-4365.339
 30
2032.543
 70
    32
  0
VERTEX
  8
T32SSILL
 62
7
 10
3288.701
 20
-4401.865
 30
2032.671
 70
    32
  0
VERTEX
  8
T32SSILL
 62
7
 10
3249.971
 20
-4429.388
 30
2032.697
 70
    32
  0
SEQEND
  8
T32SSILL
  0
POLYLINE
  8
T32SSILL
 62
7
 66
     1
 70
     9
  0
VERTEX
  8
T32SSILL
 62
7
 10
3198.390
 20
-4382.898
 30
2032.511
 70
    32
  0
VERTEX
  8
T32SSILL
 62
7
 10
3202.548
 20
-4377.465
 30
2032.502
 70
    32
  0
VERTEX
  8
T32SSILL
 62
7
 10
3208.897
 20
-4373.537
 30
2032.499
 70
    32
  0
VERTEX
  8
T32SSILL
 62
7
 10
3209.878
 20
-4370.464
 30
2032.492
 70
    32
  0
VERTEX
  8
T32SSILL
 62
7
 10
3209.624
 20
-4368.440
 30
2032.487
 70
    32
  0
VERTEX
  8
T32SSILL
 62
7
 10
3196.784
 20
-4349.563
 30
2032.421
 70
    32
  0
VERTEX
  8
T32SSILL
 62
7
 10
3226.865
 20
-4328.684
 30
2032.403
 70
    32
  0
VERTEX
  8
T32SSILL
 62
7
 10
3235.305
 20
-4329.075
 30
2032.414
 70
    32
  0
VERTEX
  8
T32SSILL
 62
7
 10
3257.413
 20
-4359.689
 30
2032.522
 70
    32
  0
VERTEX
  8
T32SSILL
 62
7
 10
3231.004
 20
-4378.686
 30
2032.540
 70
    32
  0
VERTEX
  8
T32SSILL
 62
7
 10
3224.454
 20
-4369.580
 30
2032.508
 70
    32
  0
VERTEX
  8
T32SSILL
 62
7
 10
3209.826
 20
-4380.069
 30
2032.518
 70
    32
  0
VERTEX
  8
T32SSILL
 62
7
 10
3216.392
 20
-4389.197
 30
2032.550
 70
    32
  0
VERTEX
  8
T32SSILL
 62
7
 10
3201.780
 20
-4399.708
 30
2032.560
 70
    32
  0
VERTEX
  8
T32SSILL
 62
7
 10
3195.420
 20
-4390.867
 30
2032.528
 70
    32
  0
VERTEX
  8
T32SSILL
 62
7
 10
3185.679
 20
-4397.875
 30
2032.535
 70
    32
  0
VERTEX
  8
T32SSILL
 62
7
 10
3182.446
 20
-4393.381
 30
2032.519
 70
    32
  0
VERTEX
  8
T32SSILL
 62
7
 10
3172.668
 20
-4400.338
 30
2032.526
 70
    32
  0
VERTEX
  8
T32SSILL
 62
7
 10
3182.297
 20
-4413.723
 30
2032.573
 70
    32
  0
VERTEX
  8
T32SSILL
 62
7
 10
3126.626
 20
-4455.130
 30
2032.635
 70
    32
  0
VERTEX
  8
T32SSILL
 62
7
 10
3063.063
 20
-4444.399
 30
2032.518
 70
    32
  0
VERTEX
  8
T32SSILL
 62
7
 10
3170.319
 20
-4367.909
 30
2032.437
 70
    32
  0
VERTEX
  8
T32SSILL
 62
7
 10
3174.259
 20
-4371.708
 30
2032.452
 70
    32
  0
VERTEX
  8
T32SSILL
 62
7
 10
3182.887
 20
-4388.631
 30
2032.507
 70
    32
  0
VERTEX
  8
T32SSILL
 62
7
 10
3185.431
 20
-4389.874
 30
2032.514
 70
    32
  0
VERTEX
  8
T32SSILL
 62
7
 10
3194.948
 20
-4385.608
 30
2032.514
 70
    32
  0
SEQEND
  8
T32SSILL
  0
POLYLINE
  8
T32SSILL
 62
7
 66
     1
 70
     9
  0
VERTEX
  8
T32SSILL
 62
7
 10
3253.757
 20
-4339.296
 30
2032.477
 70
    32
  0
VERTEX
  8
T32SSILL
 62
7
 10
3264.646
 20
-4354.798
 30
2032.530
 70
    32
  0
VERTEX
  8
T32SSILL
 62
7
 10
3289.150
 20
-4337.402
 30
2032.615
 70
    32
  0
VERTEX
  8
T32SSILL
 62
7
 10
3279.366
 20
-4323.608
 30
2032.568
 70
    32
  0
VERTEX
  8
T32SSILL
 62
7
 10
3297.207
 20
-4310.891
 30
2032.630
 70
    32
  0
VERTEX
  8
T32SSILL
 62
7
 10
3291.790
 20
-4303.128
 30
2032.604
 70
    32
  0
VERTEX
  8
T32SSILL
 62
7
 10
3284.260
 20
-4295.971
 30
2032.569
 70
    32
  0
VERTEX
  8
T32SSILL
 62
7
 10
3275.569
 20
-4292.766
 30
2032.533
 70
    32
  0
VERTEX
  8
T32SSILL
 62
7
 10
3239.132
 20
-4319.155
 30
2032.406
 70
    32
  0
VERTEX
  8
T32SSILL
 62
7
 10
3249.625
 20
-4333.423
 30
2032.456
 70
    32
  0
VERTEX
  8
T32SSILL
 62
7
 10
3261.838
 20
-4329.037
 30
2032.502
 70
    32
  0
VERTEX
  8
T32SSILL
 62
7
 10
3264.384
 20
-4335.061
 30
2032.516
 70
    32
  0
SEQEND
  8
T32SSILL
  0
POLYLINE
  8
T32SSILL
 62
7
 66
     1
 70
     9
  0
VERTEX
  8
T32SSILL
 62
7
 10
2124.698
 20
-4561.765
 30
2032.995
 70
    32
  0
VERTEX
  8
T32SSILL
 62
7
 10
2124.295
 20
-4605.568
 30
2032.755
 70
    32
  0
VERTEX
  8
T32SSILL
 62
7
 10
2164.753
 20
-4605.642
 30
2032.791
 70
    32
  0
VERTEX
  8
T32SSILL
 62
7
 10
2130.919
 20
-4558.293
 30
2033.032
 70
    32
  0
SEQEND
  8
T32SSILL
  0
POLYLINE
  8
T32SSILL
 62
7
 66
     1
 70
     9
  0
VERTEX
  8
T32SSILL
 62
7
 10
2435.339
 20
-5183.450
 30
2033.015
 70
    32
  0
VERTEX
  8
T32SSILL
 62
7
 10
2440.453
 20
-5198.677
 30
2033.027
 70
    32
  0
VERTEX
  8
T32SSILL
 62
7
 10
2465.394
 20
-5227.608
 30
2033.045
 70
    32
  0
VERTEX
  8
T32SSILL
 62
7
 10
2464.135
 20
-5213.373
 30
2033.032
 70
    32
  0
VERTEX
  8
T32SSILL
 62
7
 10
2439.576
 20
-5178.965
 30
2033.010
 70
    32
  0
VERTEX
  8
T32SSILL
 62
7
 10
2435.786
 20
-5181.394
 30
2033.013
 70
    32
  0
SEQEND
  8
T32SSILL
  0
POLYLINE
  8
T32SSILL
 62
7
 66
     1
 70
     9
  0
VERTEX
  8
T32SSILL
 62
7
 10
3069.527
 20
-4678.223
 30
2033.394
 70
    32
  0
VERTEX
  8
T32SSILL
 62
7
 10
3061.382
 20
-4657.054
 30
2033.264
 70
    32
  0
VERTEX
  8
T32SSILL
 62
7
 10
3058.954
 20
-4654.464
 30
2033.251
 70
    32
  0
VERTEX
  8
T32SSILL
 62
7
 10
3057.707
 20
-4649.338
 30
2033.231
 70
    32
  0
VERTEX
  8
T32SSILL
 62
7
 10
3041.290
 20
-4627.695
 30
2033.129
 70
    32
  0
VERTEX
  8
T32SSILL
 62
7
 10
3038.763
 20
-4625.809
 30
2033.118
 70
    32
  0
VERTEX
  8
T32SSILL
 62
7
 10
3032.838
 20
-4627.484
 30
2033.112
 70
    32
  0
VERTEX
  8
T32SSILL
 62
7
 10
2955.173
 20
-4584.161
 30
2032.821
 70
    32
  0
VERTEX
  8
T32SSILL
 62
7
 10
2925.827
 20
-4543.186
 30
2032.630
 70
    32
  0
VERTEX
  8
T32SSILL
 62
7
 10
2931.430
 20
-4539.424
 30
2032.628
 70
    32
  0
VERTEX
  8
T32SSILL
 62
7
 10
2926.683
 20
-4532.749
 30
2032.597
 70
    32
  0
VERTEX
  8
T32SSILL
 62
7
 10
2921.174
 20
-4536.690
 30
2032.600
 70
    32
  0
VERTEX
  8
T32SSILL
 62
7
 10
2902.263
 20
-4510.285
 30
2032.477
 70
    32
  0
VERTEX
  8
T32SSILL
 62
7
 10
2902.602
 20
-4499.104
 30
2032.441
 70
    32
  0
VERTEX
  8
T32SSILL
 62
7
 10
2979.846
 20
-4444.747
 30
2032.408
 70
    32
  0
VERTEX
  8
T32SSILL
 62
7
 10
2989.316
 20
-4441.626
 30
2032.416
 70
    32
  0
VERTEX
  8
T32SSILL
 62
7
 10
2994.069
 20
-4441.784
 30
2032.425
 70
    32
  0
VERTEX
  8
T32SSILL
 62
7
 10
3006.474
 20
-4448.747
 30
2032.466
 70
    32
  0
VERTEX
  8
T32SSILL
 62
7
 10
3138.983
 20
-4632.471
 30
2033.315
 70
    32
  0
VERTEX
  8
T32SSILL
 62
7
 10
3105.345
 20
-4656.111
 30
2033.357
 70
    32
  0
VERTEX
  8
T32SSILL
 62
7
 10
3098.467
 20
-4646.741
 30
2033.300
 70
    32
  0
VERTEX
  8
T32SSILL
 62
7
 10
3094.084
 20
-4650.236
 30
2033.303
 70
    32
  0
VERTEX
  8
T32SSILL
 62
7
 10
3100.470
 20
-4659.381
 30
2033.363
 70
    32
  0
VERTEX
  8
T32SSILL
 62
7
 10
3089.742
 20
-4666.832
 30
2033.379
 70
    32
  0
VERTEX
  8
T32SSILL
 62
7
 10
3083.262
 20
-4657.654
 30
2033.314
 70
    32
  0
VERTEX
  8
T32SSILL
 62
7
 10
3076.358
 20
-4662.822
 30
2033.327
 70
    32
  0
VERTEX
  8
T32SSILL
 62
7
 10
3083.529
 20
-4672.350
 30
2033.395
 70
    32
  0
VERTEX
  8
T32SSILL
 62
7
 10
3071.435
 20
-4680.276
 30
2033.410
 70
    32
  0
VERTEX
  8
T32SSILL
 62
7
 10
3070.561
 20
-4679.823
 30
2033.405
 70
    32
  0
SEQEND
  8
T32SSILL
  0
POLYLINE
  8
T32SSILL
 62
7
 66
     1
 70
     9
  0
VERTEX
  8
T32SSILL
 62
7
 10
3171.912
 20
-4512.861
 30
2032.906
 70
    32
  0
VERTEX
  8
T32SSILL
 62
7
 10
3174.065
 20
-4523.146
 30
2032.947
 70
    32
  0
VERTEX
  8
T32SSILL
 62
7
 10
3171.442
 20
-4525.054
 30
2032.951
 70
    32
  0
VERTEX
  8
T32SSILL
 62
7
 10
3181.748
 20
-4539.477
 30
2033.018
 70
    32
  0
VERTEX
  8
T32SSILL
 62
7
 10
3129.888
 20
-4577.712
 30
2033.098
 70
    32
  0
VERTEX
  8
T32SSILL
 62
7
 10
3120.687
 20
-4580.651
 30
2033.098
 70
    32
  0
VERTEX
  8
T32SSILL
 62
7
 10
3113.317
 20
-4579.041
 30
2033.083
 70
    32
  0
VERTEX
  8
T32SSILL
 62
7
 10
3107.027
 20
-4575.863
 30
2033.064
 70
    32
  0
VERTEX
  8
T32SSILL
 62
7
 10
3090.833
 20
-4552.724
 30
2032.958
 70
    32
  0
VERTEX
  8
T32SSILL
 62
7
 10
3168.078
 20
-4498.892
 30
2032.849
 70
    32
  0
VERTEX
  8
T32SSILL
 62
7
 10
3169.307
 20
-4499.087
 30
2032.851
 70
    32
  0
VERTEX
  8
T32SSILL
 62
7
 10
3170.899
 20
-4504.306
 30
2032.873
 70
    32
  0
SEQEND
  8
T32SSILL
  0
POLYLINE
  8
T32SSILL
 62
7
 66
     1
 70
     9
  0
VERTEX
  8
T32SSILL
 62
7
 10
3028.988
 20
-4469.069
 30
2032.569
 70
    32
  0
VERTEX
  8
T32SSILL
 62
7
 10
3086.672
 20
-4547.771
 30
2032.934
 70
    32
  0
VERTEX
  8
T32SSILL
 62
7
 10
3166.325
 20
-4491.246
 30
2032.818
 70
    32
  0
VERTEX
  8
T32SSILL
 62
7
 10
3169.069
 20
-4478.251
 30
2032.773
 70
    32
  0
VERTEX
  8
T32SSILL
 62
7
 10
3175.372
 20
-4462.842
 30
2032.723
 70
    32
  0
VERTEX
  8
T32SSILL
 62
7
 10
3185.221
 20
-4451.801
 30
2032.693
 70
    32
  0
VERTEX
  8
T32SSILL
 62
7
 10
3192.334
 20
-4447.237
 30
2032.685
 70
    32
  0
VERTEX
  8
T32SSILL
 62
7
 10
3194.515
 20
-4441.797
 30
2032.667
 70
    32
  0
VERTEX
  8
T32SSILL
 62
7
 10
3201.389
 20
-4438.575
 30
2032.663
 70
    32
  0
VERTEX
  8
T32SSILL
 62
7
 10
3205.626
 20
-4435.077
 30
2032.657
 70
    32
  0
VERTEX
  8
T32SSILL
 62
7
 10
3208.989
 20
-4430.256
 30
2032.649
 70
    32
  0
VERTEX
  8
T32SSILL
 62
7
 10
3210.092
 20
-4425.366
 30
2032.637
 70
    32
  0
VERTEX
  8
T32SSILL
 62
7
 10
3207.039
 20
-4427.568
 30
2032.639
 70
    32
  0
VERTEX
  8
T32SSILL
 62
7
 10
3196.539
 20
-4412.973
 30
2032.588
 70
    32
  0
VERTEX
  8
T32SSILL
 62
7
 10
3129.127
 20
-4462.968
 30
2032.667
 70
    32
  0
VERTEX
  8
T32SSILL
 62
7
 10
3055.282
 20
-4450.033
 30
2032.530
 70
    32
  0
SEQEND
  8
T32SSILL
  0
POLYLINE
  8
T32SSILL
 62
7
 66
     1
 70
     9
  0
VERTEX
  8
T32SSILL
 62
7
 10
3004.821
 20
-4426.508
 30
2032.389
 70
    32
  0
VERTEX
  8
T32SSILL
 62
7
 10
3202.448
 20
-4283.814
 30
2032.255
 70
    32
  0
VERTEX
  8
T32SSILL
 62
7
 10
3227.618
 20
-4317.872
 30
2032.375
 70
    32
  0
VERTEX
  8
T32SSILL
 62
7
 10
3189.064
 20
-4345.483
 30
2032.401
 70
    32
  0
VERTEX
  8
T32SSILL
 62
7
 10
3177.263
 20
-4349.386
 30
2032.397
 70
    32
  0
VERTEX
  8
T32SSILL
 62
7
 10
3167.471
 20
-4356.112
 30
2032.403
 70
    32
  0
VERTEX
  8
T32SSILL
 62
7
 10
3165.793
 20
-4357.775
 30
2032.405
 70
    32
  0
VERTEX
  8
T32SSILL
 62
7
 10
3165.511
 20
-4361.643
 30
2032.415
 70
    32
  0
VERTEX
  8
T32SSILL
 62
7
 10
3025.221
 20
-4462.815
 30
2032.541
 70
    32
  0
VERTEX
  8
T32SSILL
 62
7
 10
3007.761
 20
-4437.250
 30
2032.425
 70
    32
  0
VERTEX
  8
T32SSILL
 62
7
 10
3004.018
 20
-4429.055
 30
2032.395
 70
    32
  0
SEQEND
  8
T32SSILL
  0
POLYLINE
  8
T32SSILL
 62
7
 66
     1
 70
     9
  0
VERTEX
  8
T32SSILL
 62
7
 10
3190.778
 20
-4516.849
 30
2032.944
 70
    32
  0
VERTEX
  8
T32SSILL
 62
7
 10
3184.803
 20
-4520.924
 30
2032.952
 70
    32
  0
VERTEX
  8
T32SSILL
 62
7
 10
3182.833
 20
-4518.177
 30
2032.939
 70
    32
  0
VERTEX
  8
T32SSILL
 62
7
 10
3206.574
 20
-4501.239
 30
2032.904
 70
    32
  0
VERTEX
  8
T32SSILL
 62
7
 10
3212.471
 20
-4509.191
 30
2032.941
 70
    32
  0
VERTEX
  8
T32SSILL
 62
7
 10
3208.603
 20
-4512.205
 30
2032.948
 70
    32
  0
VERTEX
  8
T32SSILL
 62
7
 10
3212.035
 20
-4517.060
 30
2032.970
 70
    32
  0
VERTEX
  8
T32SSILL
 62
7
 10
3197.303
 20
-4527.602
 30
2032.992
 70
    32
  0
VERTEX
  8
T32SSILL
 62
7
 10
3192.647
 20
-4521.279
 30
2032.962
 70
    32
  0
SEQEND
  8
T32SSILL
  0
POLYLINE
  8
T32SSILL
 62
7
 66
     1
 70
     9
  0
VERTEX
  8
T32SSILL
 62
7
 10
3307.269
 20
-4778.438
 30
2034.041
 70
    32
  0
VERTEX
  8
T32SSILL
 62
7
 10
3307.444
 20
-4784.251
 30
2034.061
 70
    32
  0
VERTEX
  8
T32SSILL
 62
7
 10
3311.367
 20
-4792.498
 30
2034.083
 70
    32
  0
VERTEX
  8
T32SSILL
 62
7
 10
3317.243
 20
-4788.187
 30
2034.056
 70
    32
  0
VERTEX
  8
T32SSILL
 62
7
 10
3320.031
 20
-4732.944
 30
2033.855
 70
    32
  0
VERTEX
  8
T32SSILL
 62
7
 10
3319.287
 20
-4724.128
 30
2033.826
 70
    32
  0
VERTEX
  8
T32SSILL
 62
7
 10
3313.286
 20
-4713.648
 30
2033.800
 70
    32
  0
VERTEX
  8
T32SSILL
 62
7
 10
3310.058
 20
-4711.749
 30
2033.799
 70
    32
  0
VERTEX
  8
T32SSILL
 62
7
 10
3306.444
 20
-4712.046
 30
2033.807
 70
    32
  0
VERTEX
  8
T32SSILL
 62
7
 10
3290.234
 20
-4724.209
 30
2033.881
 70
    32
  0
VERTEX
  8
T32SSILL
 62
7
 10
3286.934
 20
-4755.499
 30
2033.998
 70
    32
  0
VERTEX
  8
T32SSILL
 62
7
 10
3306.064
 20
-4776.658
 30
2034.037
 70
    32
  0
SEQEND
  8
T32SSILL
  0
POLYLINE
  8
T32SSILL
 62
7
 66
     1
 70
     9
  0
VERTEX
  8
T32SSILL
 62
7
 10
3405.561
 20
-4326.072
 30
2032.858
 70
    32
  0
VERTEX
  8
T32SSILL
 62
7
 10
3338.950
 20
-4374.220
 30
2032.774
 70
    32
  0
VERTEX
  8
T32SSILL
 62
7
 10
3340.029
 20
-4388.294
 30
2032.788
 70
    32
  0
VERTEX
  8
T32SSILL
 62
7
 10
3343.041
 20
-4402.553
 30
2032.809
 70
    32
  0
VERTEX
  8
T32SSILL
 62
7
 10
3320.901
 20
-4417.489
 30
2032.792
 70
    32
  0
VERTEX
  8
T32SSILL
 62
7
 10
3315.829
 20
-4411.486
 30
2032.768
 70
    32
  0
VERTEX
  8
T32SSILL
 62
7
 10
3314.351
 20
-4407.610
 30
2032.760
 70
    32
  0
VERTEX
  8
T32SSILL
 62
7
 10
3305.688
 20
-4398.338
 30
2032.720
 70
    32
  0
VERTEX
  8
T32SSILL
 62
7
 10
3299.775
 20
-4403.147
 30
2032.700
 70
    32
  0
VERTEX
  8
T32SSILL
 62
7
 10
3324.596
 20
-4436.500
 30
2032.814
 70
    32
  0
VERTEX
  8
T32SSILL
 62
7
 10
3356.451
 20
-4414.727
 30
2032.868
 70
    32
  0
VERTEX
  8
T32SSILL
 62
7
 10
3361.884
 20
-4420.084
 30
2032.893
 70
    32
  0
VERTEX
  8
T32SSILL
 62
7
 10
3329.610
 20
-4442.661
 30
2032.838
 70
    32
  0
VERTEX
  8
T32SSILL
 62
7
 10
3340.906
 20
-4457.977
 30
2032.897
 70
    32
  0
VERTEX
  8
T32SSILL
 62
7
 10
3350.435
 20
-4450.905
 30
2032.912
 70
    32
  0
VERTEX
  8
T32SSILL
 62
7
 10
3351.915
 20
-4451.984
 30
2032.918
 70
    32
  0
VERTEX
  8
T32SSILL
 62
7
 10
3355.006
 20
-4457.050
 30
2032.936
 70
    32
  0
VERTEX
  8
T32SSILL
 62
7
 10
3356.937
 20
-4463.154
 30
2032.952
 70
    32
  0
VERTEX
  8
T32SSILL
 62
7
 10
3356.772
 20
-4468.169
 30
2032.960
 70
    32
  0
VERTEX
  8
T32SSILL
 62
7
 10
3358.319
 20
-4470.570
 30
2032.968
 70
    32
  0
VERTEX
  8
T32SSILL
 62
7
 10
3363.854
 20
-4471.360
 30
2032.985
 70
    32
  0
VERTEX
  8
T32SSILL
 62
7
 10
3371.794
 20
-4481.694
 30
2033.026
 70
    32
  0
VERTEX
  8
T32SSILL
 62
7
 10
3373.533
 20
-4488.764
 30
2033.043
 70
    32
  0
VERTEX
  8
T32SSILL
 62
7
 10
3377.345
 20
-4492.784
 30
2033.060
 70
    32
  0
VERTEX
  8
T32SSILL
 62
7
 10
3380.113
 20
-4501.718
 30
2033.083
 70
    32
  0
VERTEX
  8
T32SSILL
 62
7
 10
3380.391
 20
-4506.477
 30
2033.092
 70
    32
  0
VERTEX
  8
T32SSILL
 62
7
 10
3387.227
 20
-4519.963
 30
2033.135
 70
    32
  0
VERTEX
  8
T32SSILL
 62
7
 10
3401.122
 20
-4509.437
 30
2033.157
 70
    32
  0
VERTEX
  8
T32SSILL
 62
7
 10
3404.453
 20
-4516.091
 30
2033.178
 70
    32
  0
VERTEX
  8
T32SSILL
 62
7
 10
3390.473
 20
-4526.352
 30
2033.155
 70
    32
  0
VERTEX
  8
T32SSILL
 62
7
 10
3396.605
 20
-4534.106
 30
2033.186
 70
    32
  0
VERTEX
  8
T32SSILL
 62
7
 10
3401.151
 20
-4543.081
 30
2033.214
 70
    32
  0
VERTEX
  8
T32SSILL
 62
7
 10
3402.468
 20
-4542.119
 30
2033.216
 70
    32
  0
VERTEX
  8
T32SSILL
 62
7
 10
3405.922
 20
-4546.486
 30
2033.233
 70
    32
  0
VERTEX
  8
T32SSILL
 62
7
 10
3404.295
 20
-4547.647
 30
2033.231
 70
    32
  0
VERTEX
  8
T32SSILL
 62
7
 10
3443.671
 20
-4604.819
 30
2033.441
 70
    32
  0
VERTEX
  8
T32SSILL
 62
7
 10
3536.794
 20
-4537.498
 30
2033.594
 70
    32
  0
VERTEX
  8
T32SSILL
 62
7
 10
3526.510
 20
-4525.014
 30
2033.543
 70
    32
  0
VERTEX
  8
T32SSILL
 62
7
 10
3519.550
 20
-4508.180
 30
2033.494
 70
    32
  0
VERTEX
  8
T32SSILL
 62
7
 10
3515.879
 20
-4495.007
 30
2033.461
 70
    32
  0
VERTEX
  8
T32SSILL
 62
7
 10
3499.649
 20
-4468.522
 30
2033.370
 70
    32
  0
VERTEX
  8
T32SSILL
 62
7
 10
3491.211
 20
-4441.219
 30
2033.299
 70
    32
  0
VERTEX
  8
T32SSILL
 62
7
 10
3468.825
 20
-4394.599
 30
2033.156
 70
    32
  0
VERTEX
  8
T32SSILL
 62
7
 10
3464.054
 20
-4388.705
 30
2033.132
 70
    32
  0
VERTEX
  8
T32SSILL
 62
7
 10
3459.256
 20
-4391.214
 30
2033.123
 70
    32
  0
VERTEX
  8
T32SSILL
 62
7
 10
3455.765
 20
-4385.306
 30
2033.103
 70
    32
  0
VERTEX
  8
T32SSILL
 62
7
 10
3458.993
 20
-4383.538
 30
2033.109
 70
    32
  0
VERTEX
  8
T32SSILL
 62
7
 10
3444.170
 20
-4363.533
 30
2033.033
 70
    32
  0
VERTEX
  8
T32SSILL
 62
7
 10
3437.959
 20
-4356.382
 30
2033.003
 70
    32
  0
VERTEX
  8
T32SSILL
 62
7
 10
3429.287
 20
-4348.956
 30
2032.965
 70
    32
  0
VERTEX
  8
T32SSILL
 62
7
 10
3419.929
 20
-4337.833
 30
2032.920
 70
    32
  0
VERTEX
  8
T32SSILL
 62
7
 10
3409.415
 20
-4329.431
 30
2032.875
 70
    32
  0
SEQEND
  8
T32SSILL
  0
POLYLINE
  8
T32SSILL
 62
7
 66
     1
 70
     9
  0
VERTEX
  8
T32SSILL
 62
7
 10
3321.752
 20
-4275.621
 30
2032.675
 70
    32
  0
VERTEX
  8
T32SSILL
 62
7
 10
3326.956
 20
-4275.749
 30
2032.678
 70
    32
  0
VERTEX
  8
T32SSILL
 62
7
 10
3337.551
 20
-4267.627
 30
2032.681
 70
    32
  0
VERTEX
  8
T32SSILL
 62
7
 10
3344.594
 20
-4276.322
 30
2032.697
 70
    32
  0
VERTEX
  8
T32SSILL
 62
7
 10
3337.367
 20
-4281.594
 30
2032.693
 70
    32
  0
VERTEX
  8
T32SSILL
 62
7
 10
3347.860
 20
-4295.723
 30
2032.718
 70
    32
  0
VERTEX
  8
T32SSILL
 62
7
 10
3369.629
 20
-4280.269
 30
2032.730
 70
    32
  0
VERTEX
  8
T32SSILL
 62
7
 10
3343.871
 20
-4264.395
 30
2032.686
 70
    32
  0
VERTEX
  8
T32SSILL
 62
7
 10
3334.846
 20
-4261.127
 30
2032.673
 70
    32
  0
VERTEX
  8
T32SSILL
 62
7
 10
3331.261
 20
-4254.810
 30
2032.663
 70
    32
  0
VERTEX
  8
T32SSILL
 62
7
 10
3316.021
 20
-4266.149
 30
2032.664
 70
    32
  0
SEQEND
  8
T32SSILL
  0
POLYLINE
  8
T32SSILL
 62
7
 66
     1
 70
     9
  0
VERTEX
  8
T32SSILL
 62
7
 10
3350.822
 20
-4310.270
 30
2032.734
 70
    32
  0
VERTEX
  8
T32SSILL
 62
7
 10
3345.908
 20
-4313.712
 30
2032.731
 70
    32
  0
VERTEX
  8
T32SSILL
 62
7
 10
3352.784
 20
-4323.407
 30
2032.747
 70
    32
  0
VERTEX
  8
T32SSILL
 62
7
 10
3342.973
 20
-4330.316
 30
2032.742
 70
    32
  0
VERTEX
  8
T32SSILL
 62
7
 10
3332.354
 20
-4315.346
 30
2032.716
 70
    32
  0
VERTEX
  8
T32SSILL
 62
7
 10
3312.779
 20
-4329.231
 30
2032.703
 70
    32
  0
VERTEX
  8
T32SSILL
 62
7
 10
3320.797
 20
-4340.536
 30
2032.728
 70
    32
  0
VERTEX
  8
T32SSILL
 62
7
 10
3296.457
 20
-4358.074
 30
2032.657
 70
    32
  0
VERTEX
  8
T32SSILL
 62
7
 10
3288.309
 20
-4346.587
 30
2032.618
 70
    32
  0
VERTEX
  8
T32SSILL
 62
7
 10
3269.017
 20
-4360.270
 30
2032.550
 70
    32
  0
VERTEX
  8
T32SSILL
 62
7
 10
3295.320
 20
-4396.532
 30
2032.678
 70
    32
  0
VERTEX
  8
T32SSILL
 62
7
 10
3301.323
 20
-4391.371
 30
2032.698
 70
    32
  0
VERTEX
  8
T32SSILL
 62
7
 10
3289.125
 20
-4366.781
 30
2032.634
 70
    32
  0
VERTEX
  8
T32SSILL
 62
7
 10
3326.088
 20
-4340.921
 30
2032.731
 70
    32
  0
VERTEX
  8
T32SSILL
 62
7
 10
3331.282
 20
-4358.796
 30
2032.752
 70
    32
  0
VERTEX
  8
T32SSILL
 62
7
 10
3335.118
 20
-4366.112
 30
2032.763
 70
    32
  0
VERTEX
  8
T32SSILL
 62
7
 10
3336.261
 20
-4366.117
 30
2032.764
 70
    32
  0
VERTEX
  8
T32SSILL
 62
7
 10
3406.049
 20
-4315.610
 30
2032.842
 70
    32
  0
VERTEX
  8
T32SSILL
 62
7
 10
3390.136
 20
-4295.576
 30
2032.767
 70
    32
  0
VERTEX
  8
T32SSILL
 62
7
 10
3384.429
 20
-4293.703
 30
2032.759
 70
    32
  0
VERTEX
  8
T32SSILL
 62
7
 10
3375.324
 20
-4284.868
 30
2032.741
 70
    32
  0
VERTEX
  8
T32SSILL
 62
7
 10
3347.036
 20
-4304.932
 30
2032.725
 70
    32
  0
SEQEND
  8
T32SSILL
  0
POLYLINE
  8
T32SSILL
 62
7
 66
     1
 70
     9
  0
VERTEX
  8
T32SSILL
 62
7
 10
3314.031
 20
-4241.476
 30
2032.642
 70
    32
  0
VERTEX
  8
T32SSILL
 62
7
 10
3321.334
 20
-4253.149
 30
2032.656
 70
    32
  0
VERTEX
  8
T32SSILL
 62
7
 10
3318.916
 20
-4254.835
 30
2032.656
 70
    32
  0
VERTEX
  8
T32SSILL
 62
7
 10
3312.237
 20
-4247.754
 30
2032.646
 70
    32
  0
VERTEX
  8
T32SSILL
 62
7
 10
3303.846
 20
-4246.332
 30
2032.615
 70
    32
  0
VERTEX
  8
T32SSILL
 62
7
 10
3296.777
 20
-4238.068
 30
2032.581
 70
    32
  0
VERTEX
  8
T32SSILL
 62
7
 10
3301.283
 20
-4234.855
 30
2032.597
 70
    32
  0
SEQEND
  8
T32SSILL
  0
POLYLINE
  8
T32SSILL
 62
7
 66
     1
 70
     9
  0
VERTEX
  8
T32SSILL
 62
7
 10
3977.986
 20
-2525.615
 30
2031.455
 70
    32
  0
VERTEX
  8
T32SSILL
 62
7
 10
3962.024
 20
-2538.932
 30
2031.462
 70
    32
  0
VERTEX
  8
T32SSILL
 62
7
 10
3972.029
 20
-2552.357
 30
2031.412
 70
    32
  0
VERTEX
  8
T32SSILL
 62
7
 10
3940.034
 20
-2578.635
 30
2031.450
 70
    32
  0
VERTEX
  8
T32SSILL
 62
7
 10
3929.184
 20
-2504.243
 30
2031.607
 70
    32
  0
VERTEX
  8
T32SSILL
 62
7
 10
3957.393
 20
-2499.881
 30
2031.554
 70
    32
  0
SEQEND
  8
T32SSILL
  0
TEXT
  8
T32SSILL
 62
7
 10
741.396
 20
-5849.798
 30
2035.185
 40
0.200
  1
3200
 41
 1.0 
  0
POLYLINE
  8
T32SSILL
 62
7
 66
     1
 70
     9
  0
VERTEX
  8
T32SSILL
 62
7
 10
1342.970
 20
-3243.354
 30
2037.050
 70
    32
  0
VERTEX
  8
T32SSILL
 62
7
 10
1211.926
 20
-3370.412
 30
2037.331
 70
    32
  0
VERTEX
  8
T32SSILL
 62
7
 10
1205.978
 20
-3380.649
 30
2037.345
 70
    32
  0
VERTEX
  8
T32SSILL
 62
7
 10
1204.128
 20
-3389.379
 30
2037.350
 70
    32
  0
VERTEX
  8
T32SSILL
 62
7
 10
1207.158
 20
-3401.831
 30
2037.348
 70
    32
  0
VERTEX
  8
T32SSILL
 62
7
 10
1209.170
 20
-3404.944
 30
2037.344
 70
    32
  0
VERTEX
  8
T32SSILL
 62
7
 10
1221.850
 20
-3418.088
 30
2037.316
 70
    32
  0
VERTEX
  8
T32SSILL
 62
7
 10
1223.090
 20
-3417.244
 30
2037.311
 70
    32
  0
VERTEX
  8
T32SSILL
 62
7
 10
1229.191
 20
-3423.231
 30
2037.258
 70
    32
  0
VERTEX
  8
T32SSILL
 62
7
 10
1233.051
 20
-3419.964
 30
2037.246
 70
    32
  0
VERTEX
  8
T32SSILL
 62
7
 10
1239.503
 20
-3426.780
 30
2037.188
 70
    32
  0
VERTEX
  8
T32SSILL
 62
7
 10
1237.515
 20
-3433.896
 30
2037.179
 70
    32
  0
VERTEX
  8
T32SSILL
 62
7
 10
1472.333
 20
-3669.112
 30
2035.123
 70
    32
  0
VERTEX
  8
T32SSILL
 62
7
 10
1574.440
 20
-3773.663
 30
2035.571
 70
    32
  0
VERTEX
  8
T32SSILL
 62
7
 10
1715.005
 20
-3969.595
 30
2035.017
 70
    32
  0
VERTEX
  8
T32SSILL
 62
7
 10
1856.267
 20
-4163.519
 30
2034.463
 70
    32
  0
VERTEX
  8
T32SSILL
 62
7
 10
2180.961
 20
-4613.568
 30
2032.775
 70
    32
  0
VERTEX
  8
T32SSILL
 62
7
 10
2194.355
 20
-4603.916
 30
2032.870
 70
    32
  0
VERTEX
  8
T32SSILL
 62
7
 10
2198.150
 20
-4609.172
 30
2032.844
 70
    32
  0
VERTEX
  8
T32SSILL
 62
7
 10
2184.772
 20
-4618.849
 30
2032.748
 70
    32
  0
VERTEX
  8
T32SSILL
 62
7
 10
2245.278
 20
-4702.715
 30
2032.646
 70
    32
  0
VERTEX
  8
T32SSILL
 62
7
 10
2292.027
 20
-4710.845
 30
2032.637
 70
    32
  0
VERTEX
  8
T32SSILL
 62
7
 10
2293.255
 20
-4705.576
 30
2032.632
 70
    32
  0
VERTEX
  8
T32SSILL
 62
7
 10
2297.226
 20
-4700.640
 30
2032.626
 70
    32
  0
VERTEX
  8
T32SSILL
 62
7
 10
2303.828
 20
-4701.420
 30
2032.625
 70
    32
  0
VERTEX
  8
T32SSILL
 62
7
 10
2306.120
 20
-4699.885
 30
2032.623
 70
    32
  0
VERTEX
  8
T32SSILL
 62
7
 10
2312.985
 20
-4711.371
 30
2032.631
 70
    32
  0
VERTEX
  8
T32SSILL
 62
7
 10
2321.540
 20
-4717.272
 30
2032.633
 70
    32
  0
VERTEX
  8
T32SSILL
 62
7
 10
2403.315
 20
-4730.198
 30
2032.617
 70
    32
  0
VERTEX
  8
T32SSILL
 62
7
 10
2533.223
 20
-4755.509
 30
2032.607
 70
    32
  0
VERTEX
  8
T32SSILL
 62
7
 10
2766.894
 20
-4588.454
 30
2032.498
 70
    32
  0
VERTEX
  8
T32SSILL
 62
7
 10
2968.168
 20
-4442.169
 30
2032.408
 70
    32
  0
VERTEX
  8
T32SSILL
 62
7
 10
3198.343
 20
-4277.815
 30
2032.234
 70
    32
  0
VERTEX
  8
T32SSILL
 62
7
 10
3173.180
 20
-4242.174
 30
2032.154
 70
    32
  0
VERTEX
  8
T32SSILL
 62
7
 10
3052.840
 20
-4328.944
 30
2032.287
 70
    32
  0
VERTEX
  8
T32SSILL
 62
7
 10
3049.084
 20
-4323.475
 30
2032.287
 70
    32
  0
VERTEX
  8
T32SSILL
 62
7
 10
3169.600
 20
-4236.618
 30
2032.153
 70
    32
  0
VERTEX
  8
T32SSILL
 62
7
 10
3066.853
 20
-4091.319
 30
2032.148
 70
    32
  0
VERTEX
  8
T32SSILL
 62
7
 10
2899.689
 20
-3860.252
 30
2032.395
 70
    32
  0
VERTEX
  8
T32SSILL
 62
7
 10
2888.823
 20
-3851.936
 30
2032.438
 70
    32
  0
VERTEX
  8
T32SSILL
 62
7
 10
2868.685
 20
-3833.026
 30
2032.524
 70
    32
  0
VERTEX
  8
T32SSILL
 62
7
 10
2860.639
 20
-3823.228
 30
2032.554
 70
    32
  0
VERTEX
  8
T32SSILL
 62
7
 10
2854.248
 20
-3797.962
 30
2032.590
 70
    32
  0
VERTEX
  8
T32SSILL
 62
7
 10
2847.881
 20
-3786.501
 30
2032.615
 70
    32
  0
VERTEX
  8
T32SSILL
 62
7
 10
2847.632
 20
-3783.334
 30
2032.619
 70
    32
  0
VERTEX
  8
T32SSILL
 62
7
 10
2537.161
 20
-3351.888
 30
2033.719
 70
    32
  0
VERTEX
  8
T32SSILL
 62
7
 10
1872.604
 20
-2718.724
 30
2035.787
 70
    32
  0
VERTEX
  8
T32SSILL
 62
7
 10
1790.793
 20
-2800.015
 30
2035.844
 70
    32
  0
VERTEX
  8
T32SSILL
 62
7
 10
1792.472
 20
-2804.150
 30
2035.822
 70
    32
  0
VERTEX
  8
T32SSILL
 62
7
 10
1791.072
 20
-2808.729
 30
2035.817
 70
    32
  0
VERTEX
  8
T32SSILL
 62
7
 10
1785.446
 20
-2813.227
 30
2035.836
 70
    32
  0
VERTEX
  8
T32SSILL
 62
7
 10
1781.302
 20
-2809.009
 30
2035.873
 70
    32
  0
VERTEX
  8
T32SSILL
 62
7
 10
1637.801
 20
-2950.170
 30
2036.288
 70
    32
  0
SEQEND
  8
T32SSILL
  0
POLYLINE
  8
T32SSILL
 62
7
 66
     1
 70
     9
  0
VERTEX
  8
T32SSILL
 62
7
 10
794.708
 20
-3478.947
 30
2038.108
 70
    32
  0
VERTEX
  8
T32SSILL
 62
7
 10
791.071
 20
-3474.158
 30
2038.101
 70
    32
  0
VERTEX
  8
T32SSILL
 62
7
 10
786.841
 20
-3477.179
 30
2038.113
 70
    32
  0
VERTEX
  8
T32SSILL
 62
7
 10
776.494
 20
-3462.450
 30
2038.088
 70
    32
  0
VERTEX
  8
T32SSILL
 62
7
 10
780.611
 20
-3459.510
 30
2038.077
 70
    32
  0
VERTEX
  8
T32SSILL
 62
7
 10
765.308
 20
-3438.079
 30
2038.042
 70
    32
  0
VERTEX
  8
T32SSILL
 62
7
 10
748.109
 20
-3450.687
 30
2038.197
 70
    32
  0
VERTEX
  8
T32SSILL
 62
7
 10
738.093
 20
-3514.156
 30
2038.270
 70
    32
  0
VERTEX
  8
T32SSILL
 62
7
 10
685.015
 20
-3551.731
 30
2038.127
 70
    32
  0
VERTEX
  8
T32SSILL
 62
7
 10
680.367
 20
-3545.374
 30
2038.126
 70
    32
  0
VERTEX
  8
T32SSILL
 62
7
 10
730.688
 20
-3509.876
 30
2038.261
 70
    32
  0
VERTEX
  8
T32SSILL
 62
7
 10
739.129
 20
-3456.990
 30
2038.213
 70
    32
  0
VERTEX
  8
T32SSILL
 62
7
 10
671.095
 20
-3505.136
 30
2038.155
 70
    32
  0
VERTEX
  8
T32SSILL
 62
7
 10
660.328
 20
-3568.163
 30
2038.062
 70
    32
  0
VERTEX
  8
T32SSILL
 62
7
 10
600.698
 20
-3610.417
 30
2037.902
 70
    32
  0
VERTEX
  8
T32SSILL
 62
7
 10
596.903
 20
-3604.646
 30
2037.902
 70
    32
  0
VERTEX
  8
T32SSILL
 62
7
 10
654.394
 20
-3563.812
 30
2038.056
 70
    32
  0
VERTEX
  8
T32SSILL
 62
7
 10
662.434
 20
-3511.430
 30
2038.132
 70
    32
  0
VERTEX
  8
T32SSILL
 62
7
 10
582.828
 20
-3568.492
 30
2037.917
 70
    32
  0
VERTEX
  8
T32SSILL
 62
7
 10
575.360
 20
-3577.521
 30
2037.893
 70
    32
  0
VERTEX
  8
T32SSILL
 62
7
 10
573.466
 20
-3585.070
 30
2037.880
 70
    32
  0
VERTEX
  8
T32SSILL
 62
7
 10
566.863
 20
-3582.066
 30
2037.871
 70
    32
  0
VERTEX
  8
T32SSILL
 62
7
 10
569.724
 20
-3573.283
 30
2037.887
 70
    32
  0
VERTEX
  8
T32SSILL
 62
7
 10
575.454
 20
-3565.168
 30
2037.907
 70
    32
  0
VERTEX
  8
T32SSILL
 62
7
 10
615.345
 20
-3535.923
 30
2038.015
 70
    32
  0
VERTEX
  8
T32SSILL
 62
7
 10
610.850
 20
-3533.587
 30
2038.010
 70
    32
  0
VERTEX
  8
T32SSILL
 62
7
 10
574.118
 20
-3483.822
 30
2037.998
 70
    32
  0
VERTEX
  8
T32SSILL
 62
7
 10
555.911
 20
-3497.149
 30
2037.949
 70
    32
  0
VERTEX
  8
T32SSILL
 62
7
 10
551.683
 20
-3501.581
 30
2037.936
 70
    32
  0
VERTEX
  8
T32SSILL
 62
7
 10
548.906
 20
-3506.065
 30
2037.925
 70
    32
  0
VERTEX
  8
T32SSILL
 62
7
 10
547.239
 20
-3513.018
 30
2037.914
 70
    32
  0
VERTEX
  8
T32SSILL
 62
7
 10
541.027
 20
-3509.952
 30
2037.906
 70
    32
  0
VERTEX
  8
T32SSILL
 62
7
 10
542.138
 20
-3506.332
 30
2037.912
 70
    32
  0
VERTEX
  8
T32SSILL
 62
7
 10
546.686
 20
-3496.561
 30
2037.932
 70
    32
  0
VERTEX
  8
T32SSILL
 62
7
 10
550.924
 20
-3492.448
 30
2037.945
 70
    32
  0
VERTEX
  8
T32SSILL
 62
7
 10
608.178
 20
-3450.368
 30
2038.100
 70
    32
  0
VERTEX
  8
T32SSILL
 62
7
 10
571.744
 20
-3399.955
 30
2038.090
 70
    32
  0
VERTEX
  8
T32SSILL
 62
7
 10
565.522
 20
-3398.092
 30
2038.081
 70
    32
  0
VERTEX
  8
T32SSILL
 62
7
 10
528.933
 20
-3424.654
 30
2037.982
 70
    32
  0
VERTEX
  8
T32SSILL
 62
7
 10
523.882
 20
-3429.456
 30
2037.967
 70
    32
  0
VERTEX
  8
T32SSILL
 62
7
 10
517.938
 20
-3425.547
 30
2037.960
 70
    32
  0
VERTEX
  8
T32SSILL
 62
7
 10
521.826
 20
-3421.248
 30
2037.972
 70
    32
  0
VERTEX
  8
T32SSILL
 62
7
 10
595.817
 20
-3367.436
 30
2038.172
 70
    32
  0
VERTEX
  8
T32SSILL
 62
7
 10
562.544
 20
-3361.949
 30
2038.117
 70
    32
  0
VERTEX
  8
T32SSILL
 62
7
 10
509.209
 20
-3399.925
 30
2037.973
 70
    32
  0
VERTEX
  8
T32SSILL
 62
7
 10
504.839
 20
-3393.805
 30
2037.972
 70
    32
  0
VERTEX
  8
T32SSILL
 62
7
 10
561.486
 20
-3354.225
 30
2038.123
 70
    32
  0
VERTEX
  8
T32SSILL
 62
7
 10
603.408
 20
-3361.472
 30
2038.194
 70
    32
  0
VERTEX
  8
T32SSILL
 62
7
 10
674.384
 20
-3310.138
 30
2038.101
 70
    32
  0
VERTEX
  8
T32SSILL
 62
7
 10
644.830
 20
-3268.293
 30
2038.092
 70
    32
  0
VERTEX
  8
T32SSILL
 62
7
 10
642.507
 20
-3260.167
 30
2038.089
 70
    32
  0
VERTEX
  8
T32SSILL
 62
7
 10
642.713
 20
-3252.844
 30
2038.086
 70
    32
  0
VERTEX
  8
T32SSILL
 62
7
 10
646.336
 20
-3241.016
 30
2038.081
 70
    32
  0
VERTEX
  8
T32SSILL
 62
7
 10
651.798
 20
-3235.268
 30
2038.078
 70
    32
  0
VERTEX
  8
T32SSILL
 62
7
 10
745.785
 20
-3167.285
 30
2038.034
 70
    32
  0
VERTEX
  8
T32SSILL
 62
7
 10
700.580
 20
-3169.449
 30
2038.044
 70
    32
  0
VERTEX
  8
T32SSILL
 62
7
 10
629.080
 20
-3221.266
 30
2038.077
 70
    32
  0
VERTEX
  8
T32SSILL
 62
7
 10
624.781
 20
-3214.333
 30
2038.075
 70
    32
  0
VERTEX
  8
T32SSILL
 62
7
 10
698.350
 20
-3161.909
 30
2038.041
 70
    32
  0
VERTEX
  8
T32SSILL
 62
7
 10
762.314
 20
-3159.830
 30
2038.025
 70
    32
  0
VERTEX
  8
T32SSILL
 62
7
 10
860.619
 20
-3174.326
 30
2037.975
 70
    32
  0
VERTEX
  8
T32SSILL
 62
7
 10
1002.875
 20
-3199.645
 30
2037.710
 70
    32
  0
VERTEX
  8
T32SSILL
 62
7
 10
1010.295
 20
-3205.374
 30
2037.695
 70
    32
  0
VERTEX
  8
T32SSILL
 62
7
 10
1062.352
 20
-3257.251
 30
2037.602
 70
    32
  0
VERTEX
  8
T32SSILL
 62
7
 10
1071.362
 20
-3260.298
 30
2037.581
 70
    32
  0
VERTEX
  8
T32SSILL
 62
7
 10
1077.293
 20
-3253.488
 30
2037.562
 70
    32
  0
VERTEX
  8
T32SSILL
 62
7
 10
1083.164
 20
-3258.351
 30
2037.552
 70
    32
  0
VERTEX
  8
T32SSILL
 62
7
 10
1076.188
 20
-3265.979
 30
2037.573
 70
    32
  0
VERTEX
  8
T32SSILL
 62
7
 10
1081.766
 20
-3276.058
 30
2037.567
 70
    32
  0
VERTEX
  8
T32SSILL
 62
7
 10
1196.427
 20
-3392.805
 30
2037.366
 70
    32
  0
VERTEX
  8
T32SSILL
 62
7
 10
1197.145
 20
-3383.351
 30
2037.362
 70
    32
  0
VERTEX
  8
T32SSILL
 62
7
 10
1202.316
 20
-3371.188
 30
2037.350
 70
    32
  0
VERTEX
  8
T32SSILL
 62
7
 10
1336.935
 20
-3236.681
 30
2037.060
 70
    32
  0
VERTEX
  8
T32SSILL
 62
7
 10
1636.374
 20
-2939.346
 30
2036.328
 70
    32
  0
VERTEX
  8
T32SSILL
 62
7
 10
1866.345
 20
-2712.837
 30
2035.807
 70
    32
  0
VERTEX
  8
T32SSILL
 62
7
 10
1855.061
 20
-2702.293
 30
2035.793
 70
    32
  0
VERTEX
  8
T32SSILL
 62
7
 10
1861.995
 20
-2695.552
 30
2035.819
 70
    32
  0
VERTEX
  8
T32SSILL
 62
7
 10
1865.970
 20
-2698.930
 30
2035.818
 70
    32
  0
VERTEX
  8
T32SSILL
 62
7
 10
1907.989
 20
-2666.733
 30
2035.750
 70
    32
  0
VERTEX
  8
T32SSILL
 62
7
 10
1915.930
 20
-2677.248
 30
2035.723
 70
    32
  0
VERTEX
  8
T32SSILL
 62
7
 10
1920.324
 20
-2673.930
 30
2035.715
 70
    32
  0
VERTEX
  8
T32SSILL
 62
7
 10
1931.880
 20
-2688.786
 30
2035.676
 70
    32
  0
VERTEX
  8
T32SSILL
 62
7
 10
1930.746
 20
-2747.761
 30
2035.628
 70
    32
  0
VERTEX
  8
T32SSILL
 62
7
 10
1923.364
 20
-2754.903
 30
2035.639
 70
    32
  0
VERTEX
  8
T32SSILL
 62
7
 10
2543.757
 20
-3348.884
 30
2033.709
 70
    32
  0
VERTEX
  8
T32SSILL
 62
7
 10
2655.196
 20
-3502.205
 30
2033.316
 70
    32
  0
VERTEX
  8
T32SSILL
 62
7
 10
2854.503
 20
-3780.640
 30
2032.608
 70
    32
  0
VERTEX
  8
T32SSILL
 62
7
 10
2858.191
 20
-3781.800
 30
2032.600
 70
    32
  0
VERTEX
  8
T32SSILL
 62
7
 10
2864.799
 20
-3779.016
 30
2032.590
 70
    32
  0
VERTEX
  8
T32SSILL
 62
7
 10
2866.202
 20
-3779.902
 30
2032.586
 70
    32
  0
VERTEX
  8
T32SSILL
 62
7
 10
2869.992
 20
-3777.809
 30
2032.581
 70
    32
  0
VERTEX
  8
T32SSILL
 62
7
 10
2873.049
 20
-3782.483
 30
2032.569
 70
    32
  0
VERTEX
  8
T32SSILL
 62
7
 10
2869.256
 20
-3784.928
 30
2032.574
 70
    32
  0
VERTEX
  8
T32SSILL
 62
7
 10
2874.118
 20
-3798.668
 30
2032.549
 70
    32
  0
VERTEX
  8
T32SSILL
 62
7
 10
2884.859
 20
-3815.073
 30
2032.510
 70
    32
  0
VERTEX
  8
T32SSILL
 62
7
 10
2884.363
 20
-3827.382
 30
2032.493
 70
    32
  0
VERTEX
  8
T32SSILL
 62
7
 10
2892.319
 20
-3837.531
 30
2032.454
 70
    32
  0
VERTEX
  8
T32SSILL
 62
7
 10
2896.905
 20
-3834.650
 30
2032.448
 70
    32
  0
VERTEX
  8
T32SSILL
 62
7
 10
2900.925
 20
-3840.120
 30
2032.428
 70
    32
  0
VERTEX
  8
T32SSILL
 62
7
 10
2896.778
 20
-3843.179
 30
2032.433
 70
    32
  0
VERTEX
  8
T32SSILL
 62
7
 10
2952.618
 20
-3919.674
 30
2032.153
 70
    32
  0
VERTEX
  8
T32SSILL
 62
7
 10
3953.598
 20
-2728.171
 30
2032.286
 70
    32
  0
VERTEX
  8
T32SSILL
 62
7
 10
3906.682
 20
-2421.365
 30
2031.830
 70
    32
  0
VERTEX
  8
T32SSILL
 62
7
 10
3907.612
 20
-2418.504
 30
2031.834
 70
    32
  0
VERTEX
  8
T32SSILL
 62
7
 10
3906.340
 20
-2412.016
 30
2031.850
 70
    32
  0
VERTEX
  8
T32SSILL
 62
7
 10
3913.686
 20
-2411.226
 30
2031.836
 70
    32
  0
VERTEX
  8
T32SSILL
 62
7
 10
3914.469
 20
-2416.898
 30
2031.822
 70
    32
  0
VERTEX
  8
T32SSILL
 62
7
 10
3916.350
 20
-2419.894
 30
2031.812
 70
    32
  0
VERTEX
  8
T32SSILL
 62
7
 10
3928.193
 20
-2497.416
 30
2031.623
 70
    32
  0
VERTEX
  8
T32SSILL
 62
7
 10
3966.609
 20
-2491.345
 30
2031.552
 70
    32
  0
VERTEX
  8
T32SSILL
 62
7
 10
3968.123
 20
-2498.286
 30
2031.534
 70
    32
  0
VERTEX
  8
T32SSILL
 62
7
 10
3964.760
 20
-2498.652
 30
2031.541
 70
    32
  0
VERTEX
  8
T32SSILL
 62
7
 10
3992.935
 20
-2533.292
 30
2031.406
 70
    32
  0
VERTEX
  8
T32SSILL
 62
7
 10
3987.284
 20
-2537.911
 30
2031.409
 70
    32
  0
VERTEX
  8
T32SSILL
 62
7
 10
3996.234
 20
-2548.859
 30
2031.396
 70
    32
  0
VERTEX
  8
T32SSILL
 62
7
 10
3942.092
 20
-2592.557
 30
2031.434
 70
    32
  0
VERTEX
  8
T32SSILL
 62
7
 10
3963.101
 20
-2728.278
 30
2032.277
 70
    32
  0
VERTEX
  8
T32SSILL
 62
7
 10
3322.466
 20
-3489.311
 30
2032.024
 70
    32
  0
VERTEX
  8
T32SSILL
 62
7
 10
2956.989
 20
-3925.322
 30
2032.139
 70
    32
  0
VERTEX
  8
T32SSILL
 62
7
 10
3073.467
 20
-4087.216
 30
2032.144
 70
    32
  0
VERTEX
  8
T32SSILL
 62
7
 10
3154.194
 20
-4202.077
 30
2032.148
 70
    32
  0
VERTEX
  8
T32SSILL
 62
7
 10
3157.157
 20
-4188.636
 30
2032.146
 70
    32
  0
VERTEX
  8
T32SSILL
 62
7
 10
3163.264
 20
-4180.047
 30
2032.143
 70
    32
  0
VERTEX
  8
T32SSILL
 62
7
 10
3200.769
 20
-4151.157
 30
2032.146
 70
    32
  0
VERTEX
  8
T32SSILL
 62
7
 10
3196.034
 20
-4144.498
 30
2032.134
 70
    32
  0
VERTEX
  8
T32SSILL
 62
7
 10
3198.722
 20
-4139.447
 30
2032.133
 70
    32
  0
VERTEX
  8
T32SSILL
 62
7
 10
3211.607
 20
-4131.040
 30
2032.176
 70
    32
  0
VERTEX
  8
T32SSILL
 62
7
 10
3219.752
 20
-4134.493
 30
2032.210
 70
    32
  0
VERTEX
  8
T32SSILL
 62
7
 10
3227.576
 20
-4131.863
 30
2032.239
 70
    32
  0
VERTEX
  8
T32SSILL
 62
7
 10
3250.174
 20
-4115.166
 30
2032.318
 70
    32
  0
VERTEX
  8
T32SSILL
 62
7
 10
3254.200
 20
-4121.390
 30
2032.338
 70
    32
  0
VERTEX
  8
T32SSILL
 62
7
 10
3235.023
 20
-4136.204
 30
2032.272
 70
    32
  0
VERTEX
  8
T32SSILL
 62
7
 10
3233.649
 20
-4149.797
 30
2032.275
 70
    32
  0
VERTEX
  8
T32SSILL
 62
7
 10
3238.265
 20
-4153.106
 30
2032.295
 70
    32
  0
VERTEX
  8
T32SSILL
 62
7
 10
3245.682
 20
-4163.796
 30
2032.331
 70
    32
  0
VERTEX
  8
T32SSILL
 62
7
 10
3236.759
 20
-4181.250
 30
2032.307
 70
    32
  0
VERTEX
  8
T32SSILL
 62
7
 10
3232.610
 20
-4180.759
 30
2032.291
 70
    32
  0
VERTEX
  8
T32SSILL
 62
7
 10
3223.550
 20
-4183.223
 30
2032.256
 70
    32
  0
VERTEX
  8
T32SSILL
 62
7
 10
3220.316
 20
-4186.427
 30
2032.246
 70
    32
  0
VERTEX
  8
T32SSILL
 62
7
 10
3215.895
 20
-4185.057
 30
2032.227
 70
    32
  0
VERTEX
  8
T32SSILL
 62
7
 10
3214.965
 20
-4170.251
 30
2032.214
 70
    32
  0
VERTEX
  8
T32SSILL
 62
7
 10
3215.948
 20
-4162.041
 30
2032.213
 70
    32
  0
VERTEX
  8
T32SSILL
 62
7
 10
3209.258
 20
-4153.725
 30
2032.181
 70
    32
  0
VERTEX
  8
T32SSILL
 62
7
 10
3170.994
 20
-4181.753
 30
2032.143
 70
    32
  0
VERTEX
  8
T32SSILL
 62
7
 10
3164.187
 20
-4189.724
 30
2032.145
 70
    32
  0
VERTEX
  8
T32SSILL
 62
7
 10
3162.676
 20
-4193.322
 30
2032.145
 70
    32
  0
VERTEX
  8
T32SSILL
 62
7
 10
3160.972
 20
-4200.525
 30
2032.147
 70
    32
  0
VERTEX
  8
T32SSILL
 62
7
 10
3164.249
 20
-4214.522
 30
2032.148
 70
    32
  0
VERTEX
  8
T32SSILL
 62
7
 10
3176.392
 20
-4232.164
 30
2032.149
 70
    32
  0
VERTEX
  8
T32SSILL
 62
7
 10
3222.344
 20
-4198.093
 30
2032.261
 70
    32
  0
VERTEX
  8
T32SSILL
 62
7
 10
3219.830
 20
-4194.199
 30
2032.249
 70
    32
  0
VERTEX
  8
T32SSILL
 62
7
 10
3232.626
 20
-4184.145
 30
2032.293
 70
    32
  0
VERTEX
  8
T32SSILL
 62
7
 10
3251.668
 20
-4173.768
 30
2032.362
 70
    32
  0
VERTEX
  8
T32SSILL
 62
7
 10
3256.774
 20
-4172.472
 30
2032.381
 70
    32
  0
VERTEX
  8
T32SSILL
 62
7
 10
3274.769
 20
-4160.155
 30
2032.444
 70
    32
  0
VERTEX
  8
T32SSILL
 62
7
 10
3278.171
 20
-4166.063
 30
2032.461
 70
    32
  0
VERTEX
  8
T32SSILL
 62
7
 10
3262.286
 20
-4178.477
 30
2032.407
 70
    32
  0
VERTEX
  8
T32SSILL
 62
7
 10
3262.525
 20
-4183.930
 30
2032.411
 70
    32
  0
VERTEX
  8
T32SSILL
 62
7
 10
3267.361
 20
-4203.386
 30
2032.443
 70
    32
  0
VERTEX
  8
T32SSILL
 62
7
 10
3256.347
 20
-4208.084
 30
2032.402
 70
    32
  0
VERTEX
  8
T32SSILL
 62
7
 10
3247.778
 20
-4216.662
 30
2032.374
 70
    32
  0
VERTEX
  8
T32SSILL
 62
7
 10
3242.671
 20
-4218.222
 30
2032.355
 70
    32
  0
VERTEX
  8
T32SSILL
 62
7
 10
3229.446
 20
-4206.466
 30
2032.295
 70
    32
  0
VERTEX
  8
T32SSILL
 62
7
 10
3225.232
 20
-4204.952
 30
2032.277
 70
    32
  0
VERTEX
  8
T32SSILL
 62
7
 10
3179.447
 20
-4237.191
 30
2032.149
 70
    32
  0
VERTEX
  8
T32SSILL
 62
7
 10
3204.874
 20
-4272.481
 30
2032.240
 70
    32
  0
VERTEX
  8
T32SSILL
 62
7
 10
3233.172
 20
-4252.712
 30
2032.339
 70
    32
  0
VERTEX
  8
T32SSILL
 62
7
 10
3232.326
 20
-4251.507
 30
2032.335
 70
    32
  0
VERTEX
  8
T32SSILL
 62
7
 10
3229.641
 20
-4251.245
 30
2032.324
 70
    32
  0
VERTEX
  8
T32SSILL
 62
7
 10
3221.406
 20
-4237.917
 30
2032.283
 70
    32
  0
VERTEX
  8
T32SSILL
 62
7
 10
3212.230
 20
-4227.771
 30
2032.240
 70
    32
  0
VERTEX
  8
T32SSILL
 62
7
 10
3211.583
 20
-4224.515
 30
2032.236
 70
    32
  0
VERTEX
  8
T32SSILL
 62
7
 10
3213.642
 20
-4218.323
 30
2032.240
 70
    32
  0
VERTEX
  8
T32SSILL
 62
7
 10
3220.855
 20
-4216.317
 30
2032.267
 70
    32
  0
VERTEX
  8
T32SSILL
 62
7
 10
3225.536
 20
-4217.067
 30
2032.286
 70
    32
  0
VERTEX
  8
T32SSILL
 62
7
 10
3229.216
 20
-4224.176
 30
2032.305
 70
    32
  0
VERTEX
  8
T32SSILL
 62
7
 10
3238.494
 20
-4235.820
 30
2032.349
 70
    32
  0
VERTEX
  8
T32SSILL
 62
7
 10
3249.180
 20
-4241.529
 30
2032.395
 70
    32
  0
VERTEX
  8
T32SSILL
 62
7
 10
3262.684
 20
-4232.095
 30
2032.443
 70
    32
  0
VERTEX
  8
T32SSILL
 62
7
 10
3259.483
 20
-4227.537
 30
2032.427
 70
    32
  0
VERTEX
  8
T32SSILL
 62
7
 10
3264.348
 20
-4224.025
 30
2032.444
 70
    32
  0
VERTEX
  8
T32SSILL
 62
7
 10
3260.727
 20
-4218.869
 30
2032.426
 70
    32
  0
VERTEX
  8
T32SSILL
 62
7
 10
3265.597
 20
-4215.363
 30
2032.443
 70
    32
  0
VERTEX
  8
T32SSILL
 62
7
 10
3269.213
 20
-4220.512
 30
2032.461
 70
    32
  0
VERTEX
  8
T32SSILL
 62
7
 10
3288.674
 20
-4206.463
 30
2032.529
 70
    32
  0
VERTEX
  8
T32SSILL
 62
7
 10
3292.196
 20
-4211.478
 30
2032.546
 70
    32
  0
VERTEX
  8
T32SSILL
 62
7
 10
3302.033
 20
-4204.606
 30
2032.581
 70
    32
  0
VERTEX
  8
T32SSILL
 62
7
 10
3306.000
 20
-4210.254
 30
2032.600
 70
    32
  0
VERTEX
  8
T32SSILL
 62
7
 10
3301.224
 20
-4213.894
 30
2032.583
 70
    32
  0
VERTEX
  8
T32SSILL
 62
7
 10
3311.054
 20
-4227.889
 30
2032.629
 70
    32
  0
VERTEX
  8
T32SSILL
 62
7
 10
3308.886
 20
-4229.434
 30
2032.624
 70
    32
  0
VERTEX
  8
T32SSILL
 62
7
 10
3311.815
 20
-4231.465
 30
2032.633
 70
    32
  0
VERTEX
  8
T32SSILL
 62
7
 10
3314.722
 20
-4230.423
 30
2032.633
 70
    32
  0
VERTEX
  8
T32SSILL
 62
7
 10
3340.362
 20
-4238.542
 30
2032.660
 70
    32
  0
VERTEX
  8
T32SSILL
 62
7
 10
3346.890
 20
-4233.911
 30
2032.664
 70
    32
  0
VERTEX
  8
T32SSILL
 62
7
 10
3350.645
 20
-4239.644
 30
2032.673
 70
    32
  0
VERTEX
  8
T32SSILL
 62
7
 10
3344.645
 20
-4244.277
 30
2032.670
 70
    32
  0
VERTEX
  8
T32SSILL
 62
7
 10
3371.643
 20
-4263.043
 30
2032.718
 70
    32
  0
VERTEX
  8
T32SSILL
 62
7
 10
3392.578
 20
-4280.726
 30
2032.757
 70
    32
  0
VERTEX
  8
T32SSILL
 62
7
 10
3427.284
 20
-4325.556
 30
2032.920
 70
    32
  0
VERTEX
  8
T32SSILL
 62
7
 10
3432.191
 20
-4329.271
 30
2032.940
 70
    32
  0
VERTEX
  8
T32SSILL
 62
7
 10
3441.726
 20
-4340.131
 30
2032.986
 70
    32
  0
VERTEX
  8
T32SSILL
 62
7
 10
3456.674
 20
-4359.721
 30
2033.062
 70
    32
  0
VERTEX
  8
T32SSILL
 62
7
 10
3471.810
 20
-4376.498
 30
2033.134
 70
    32
  0
VERTEX
  8
T32SSILL
 62
7
 10
3492.319
 20
-4410.535
 30
2033.251
 70
    32
  0
VERTEX
  8
T32SSILL
 62
7
 10
3494.686
 20
-4412.040
 30
2033.260
 70
    32
  0
VERTEX
  8
T32SSILL
 62
7
 10
3508.361
 20
-4440.682
 30
2033.348
 70
    32
  0
VERTEX
  8
T32SSILL
 62
7
 10
3513.762
 20
-4460.992
 30
2033.398
 70
    32
  0
VERTEX
  8
T32SSILL
 62
7
 10
3557.843
 20
-4502.608
 30
2033.595
 70
    32
  0
VERTEX
  8
T32SSILL
 62
7
 10
3564.599
 20
-4515.565
 30
2033.636
 70
    32
  0
VERTEX
  8
T32SSILL
 62
7
 10
3566.080
 20
-4516.556
 30
2033.642
 70
    32
  0
VERTEX
  8
T32SSILL
 62
7
 10
3714.749
 20
-4409.506
 30
2033.887
 70
    32
  0
VERTEX
  8
T32SSILL
 62
7
 10
3699.010
 20
-4385.406
 30
2033.801
 70
    32
  0
VERTEX
  8
T32SSILL
 62
7
 10
3704.082
 20
-4381.875
 30
2033.809
 70
    32
  0
VERTEX
  8
T32SSILL
 62
7
 10
3719.914
 20
-4405.712
 30
2033.895
 70
    32
  0
VERTEX
  8
T32SSILL
 62
7
 10
3735.409
 20
-4394.242
 30
2033.920
 70
    32
  0
VERTEX
  8
T32SSILL
 62
7
 10
3740.141
 20
-4401.358
 30
2033.946
 70
    32
  0
VERTEX
  8
T32SSILL
 62
7
 10
3724.480
 20
-4412.209
 30
2033.919
 70
    32
  0
VERTEX
  8
T32SSILL
 62
7
 10
3743.062
 20
-4440.315
 30
2034.020
 70
    32
  0
VERTEX
  8
T32SSILL
 62
7
 10
3736.754
 20
-4444.091
 30
2034.009
 70
    32
  0
VERTEX
  8
T32SSILL
 62
7
 10
3718.876
 20
-4415.908
 30
2033.909
 70
    32
  0
VERTEX
  8
T32SSILL
 62
7
 10
3558.364
 20
-4531.668
 30
2033.646
 70
    32
  0
VERTEX
  8
T32SSILL
 62
7
 10
3575.951
 20
-4544.440
 30
2033.718
 70
    32
  0
VERTEX
  8
T32SSILL
 62
7
 10
3579.823
 20
-4544.499
 30
2033.729
 70
    32
  0
VERTEX
  8
T32SSILL
 62
7
 10
3592.933
 20
-4550.688
 30
2033.777
 70
    32
  0
VERTEX
  8
T32SSILL
 62
7
 10
3597.803
 20
-4554.636
 30
2033.798
 70
    32
  0
VERTEX
  8
T32SSILL
 62
7
 10
3598.651
 20
-4556.674
 30
2033.803
 70
    32
  0
VERTEX
  8
T32SSILL
 62
7
 10
3597.647
 20
-4559.036
 30
2033.805
 70
    32
  0
VERTEX
  8
T32SSILL
 62
7
 10
3590.413
 20
-4565.703
 30
2033.795
 70
    32
  0
VERTEX
  8
T32SSILL
 62
7
 10
3565.566
 20
-4561.359
 30
2033.717
 70
    32
  0
VERTEX
  8
T32SSILL
 62
7
 10
3558.370
 20
-4565.562
 30
2033.703
 70
    32
  0
VERTEX
  8
T32SSILL
 62
7
 10
3552.266
 20
-4556.048
 30
2033.669
 70
    32
  0
VERTEX
  8
T32SSILL
 62
7
 10
3541.638
 20
-4543.031
 30
2033.617
 70
    32
  0
VERTEX
  8
T32SSILL
 62
7
 10
3513.868
 20
-4562.675
 30
2033.570
 70
    32
  0
VERTEX
  8
T32SSILL
 62
7
 10
3545.055
 20
-4606.997
 30
2033.735
 70
    32
  0
VERTEX
  8
T32SSILL
 62
7
 10
3539.003
 20
-4611.218
 30
2033.725
 70
    32
  0
VERTEX
  8
T32SSILL
 62
7
 10
3508.078
 20
-4567.076
 30
2033.561
 70
    32
  0
VERTEX
  8
T32SSILL
 62
7
 10
3448.265
 20
-4609.468
 30
2033.462
 70
    32
  0
VERTEX
  8
T32SSILL
 62
7
 10
3474.544
 20
-4646.584
 30
2033.600
 70
    32
  0
VERTEX
  8
T32SSILL
 62
7
 10
3498.116
 20
-4629.767
 30
2033.639
 70
    32
  0
VERTEX
  8
T32SSILL
 62
7
 10
3502.277
 20
-4635.376
 30
2033.661
 70
    32
  0
VERTEX
  8
T32SSILL
 62
7
 10
3478.851
 20
-4652.725
 30
2033.623
 70
    32
  0
VERTEX
  8
T32SSILL
 62
7
 10
3552.105
 20
-4755.094
 30
2034.007
 70
    32
  0
VERTEX
  8
T32SSILL
 62
7
 10
3545.440
 20
-4759.130
 30
2033.994
 70
    32
  0
VERTEX
  8
T32SSILL
 62
7
 10
3442.560
 20
-4614.046
 30
2033.453
 70
    32
  0
VERTEX
  8
T32SSILL
 62
7
 10
3338.991
 20
-4688.467
 30
2033.662
 70
    32
  0
VERTEX
  8
T32SSILL
 62
7
 10
3356.860
 20
-4712.838
 30
2033.715
 70
    32
  0
VERTEX
  8
T32SSILL
 62
7
 10
3359.591
 20
-4733.991
 30
2033.785
 70
    32
  0
VERTEX
  8
T32SSILL
 62
7
 10
3353.609
 20
-4737.631
 30
2033.809
 70
    32
  0
VERTEX
  8
T32SSILL
 62
7
 10
3343.500
 20
-4723.651
 30
2033.778
 70
    32
  0
VERTEX
  8
T32SSILL
 62
7
 10
3336.902
 20
-4727.646
 30
2033.805
 70
    32
  0
VERTEX
  8
T32SSILL
 62
7
 10
3334.155
 20
-4724.394
 30
2033.798
 70
    32
  0
VERTEX
  8
T32SSILL
 62
7
 10
3332.064
 20
-4708.794
 30
2033.747
 70
    32
  0
VERTEX
  8
T32SSILL
 62
7
 10
3328.660
 20
-4704.212
 30
2033.737
 70
    32
  0
VERTEX
  8
T32SSILL
 62
7
 10
3322.161
 20
-4709.054
 30
2033.767
 70
    32
  0
VERTEX
  8
T32SSILL
 62
7
 10
3322.243
 20
-4715.106
 30
2033.788
 70
    32
  0
VERTEX
  8
T32SSILL
 62
7
 10
3326.199
 20
-4721.154
 30
2033.802
 70
    32
  0
VERTEX
  8
T32SSILL
 62
7
 10
3327.664
 20
-4728.923
 30
2033.827
 70
    32
  0
VERTEX
  8
T32SSILL
 62
7
 10
3335.171
 20
-4733.089
 30
2033.827
 70
    32
  0
VERTEX
  8
T32SSILL
 62
7
 10
3337.999
 20
-4732.428
 30
2033.820
 70
    32
  0
VERTEX
  8
T32SSILL
 62
7
 10
3342.895
 20
-4728.894
 30
2033.798
 70
    32
  0
VERTEX
  8
T32SSILL
 62
7
 10
3346.855
 20
-4734.677
 30
2033.811
 70
    32
  0
VERTEX
  8
T32SSILL
 62
7
 10
3339.558
 20
-4739.759
 30
2033.843
 70
    32
  0
VERTEX
  8
T32SSILL
 62
7
 10
3327.915
 20
-4741.252
 30
2033.870
 70
    32
  0
VERTEX
  8
T32SSILL
 62
7
 10
3322.725
 20
-4832.378
 30
2034.203
 70
    32
  0
VERTEX
  8
T32SSILL
 62
7
 10
3309.555
 20
-4841.239
 30
2034.259
 70
    32
  0
VERTEX
  8
T32SSILL
 62
7
 10
3305.700
 20
-4835.861
 30
2034.247
 70
    32
  0
VERTEX
  8
T32SSILL
 62
7
 10
3314.941
 20
-4829.088
 30
2034.206
 70
    32
  0
VERTEX
  8
T32SSILL
 62
7
 10
3316.288
 20
-4827.348
 30
2034.197
 70
    32
  0
VERTEX
  8
T32SSILL
 62
7
 10
3316.453
 20
-4822.333
 30
2034.179
 70
    32
  0
VERTEX
  8
T32SSILL
 62
7
 10
3308.221
 20
-4808.120
 30
2034.144
 70
    32
  0
VERTEX
  8
T32SSILL
 62
7
 10
3308.714
 20
-4804.695
 30
2034.131
 70
    32
  0
VERTEX
  8
T32SSILL
 62
7
 10
3297.838
 20
-4790.617
 30
2034.102
 70
    32
  0
VERTEX
  8
T32SSILL
 62
7
 10
3293.909
 20
-4788.532
 30
2034.102
 70
    32
  0
VERTEX
  8
T32SSILL
 62
7
 10
3290.109
 20
-4789.442
 30
2034.112
 70
    32
  0
VERTEX
  8
T32SSILL
 62
7
 10
3290.066
 20
-4792.258
 30
2034.122
 70
    32
  0
VERTEX
  8
T32SSILL
 62
7
 10
3297.020
 20
-4803.722
 30
2034.150
 70
    32
  0
VERTEX
  8
T32SSILL
 62
7
 10
3298.052
 20
-4811.045
 30
2034.174
 70
    32
  0
VERTEX
  8
T32SSILL
 62
7
 10
3297.323
 20
-4812.618
 30
2034.181
 70
    32
  0
VERTEX
  8
T32SSILL
 62
7
 10
3293.369
 20
-4812.117
 30
2034.186
 70
    32
  0
VERTEX
  8
T32SSILL
 62
7
 10
3288.667
 20
-4803.065
 30
2034.163
 70
    32
  0
VERTEX
  8
T32SSILL
 62
7
 10
3286.729
 20
-4803.123
 30
2034.167
 70
    32
  0
VERTEX
  8
T32SSILL
 62
7
 10
3283.606
 20
-4805.804
 30
2034.182
 70
    32
  0
VERTEX
  8
T32SSILL
 62
7
 10
3284.211
 20
-4817.963
 30
2034.224
 70
    32
  0
VERTEX
  8
T32SSILL
 62
7
 10
3273.653
 20
-4823.258
 30
2034.263
 70
    32
  0
VERTEX
  8
T32SSILL
 62
7
 10
3267.488
 20
-4823.427
 30
2034.275
 70
    32
  0
VERTEX
  8
T32SSILL
 62
7
 10
3264.874
 20
-4821.714
 30
2034.274
 70
    32
  0
VERTEX
  8
T32SSILL
 62
7
 10
3255.342
 20
-4794.717
 30
2034.196
 70
    32
  0
VERTEX
  8
T32SSILL
 62
7
 10
3236.973
 20
-4769.871
 30
2034.143
 70
    32
  0
VERTEX
  8
T32SSILL
 62
7
 10
3231.636
 20
-4767.676
 30
2034.145
 70
    32
  0
VERTEX
  8
T32SSILL
 62
7
 10
3227.933
 20
-4768.060
 30
2034.153
 70
    32
  0
VERTEX
  8
T32SSILL
 62
7
 10
3195.623
 20
-4790.979
 30
2034.256
 70
    32
  0
VERTEX
  8
T32SSILL
 62
7
 10
3310.235
 20
-4957.372
 30
2034.636
 70
    32
  0
VERTEX
  8
T32SSILL
 62
7
 10
3311.748
 20
-4956.339
 30
2034.639
 70
    32
  0
VERTEX
  8
T32SSILL
 62
7
 10
3325.916
 20
-4968.090
 30
2034.678
 70
    32
  0
VERTEX
  8
T32SSILL
 62
7
 10
3341.341
 20
-4972.641
 30
2034.665
 70
    32
  0
VERTEX
  8
T32SSILL
 62
7
 10
3352.344
 20
-4972.723
 30
2034.645
 70
    32
  0
VERTEX
  8
T32SSILL
 62
7
 10
3360.636
 20
-4977.341
 30
2034.645
 70
    32
  0
VERTEX
  8
T32SSILL
 62
7
 10
3363.544
 20
-4988.566
 30
2034.680
 70
    32
  0
VERTEX
  8
T32SSILL
 62
7
 10
3361.348
 20
-4999.713
 30
2034.723
 70
    32
  0
VERTEX
  8
T32SSILL
 62
7
 10
3356.992
 20
-5002.463
 30
2034.741
 70
    32
  0
VERTEX
  8
T32SSILL
 62
7
 10
3350.036
 20
-4996.809
 30
2034.734
 70
    32
  0
VERTEX
  8
T32SSILL
 62
7
 10
3340.873
 20
-5003.007
 30
2034.738
 70
    32
  0
VERTEX
  8
T32SSILL
 62
7
 10
3472.418
 20
-5194.308
 30
2035.173
 70
    32
  0
VERTEX
  8
T32SSILL
 62
7
 10
3493.446
 20
-5194.253
 30
2035.177
 70
    32
  0
VERTEX
  8
T32SSILL
 62
7
 10
3493.520
 20
-5203.052
 30
2035.197
 70
    32
  0
VERTEX
  8
T32SSILL
 62
7
 10
3487.625
 20
-5203.218
 30
2035.194
 70
    32
  0
VERTEX
  8
T32SSILL
 62
7
 10
3487.451
 20
-5201.810
 30
2035.196
 70
    32
  0
VERTEX
  8
T32SSILL
 62
7
 10
3478.126
 20
-5201.092
 30
2035.185
 70
    32
  0
VERTEX
  8
T32SSILL
 62
7
 10
3469.760
 20
-5205.741
 30
2035.154
 70
    32
  0
VERTEX
  8
T32SSILL
 62
7
 10
3189.745
 20
-4795.379
 30
2034.244
 70
    32
  0
VERTEX
  8
T32SSILL
 62
7
 10
3181.669
 20
-4799.568
 30
2034.227
 70
    32
  0
VERTEX
  8
T32SSILL
 62
7
 10
3178.701
 20
-4803.660
 30
2034.222
 70
    32
  0
VERTEX
  8
T32SSILL
 62
7
 10
3171.804
 20
-4799.856
 30
2034.202
 70
    32
  0
VERTEX
  8
T32SSILL
 62
7
 10
3175.743
 20
-4795.603
 30
2034.210
 70
    32
  0
VERTEX
  8
T32SSILL
 62
7
 10
3228.976
 20
-4757.511
 30
2034.114
 70
    32
  0
VERTEX
  8
T32SSILL
 62
7
 10
3142.598
 20
-4638.477
 30
2033.356
 70
    32
  0
VERTEX
  8
T32SSILL
 62
7
 10
3114.032
 20
-4658.373
 30
2033.389
 70
    32
  0
VERTEX
  8
T32SSILL
 62
7
 10
3112.407
 20
-4666.711
 30
2033.431
 70
    32
  0
VERTEX
  8
T32SSILL
 62
7
 10
3151.173
 20
-4721.891
 30
2033.819
 70
    32
  0
VERTEX
  8
T32SSILL
 62
7
 10
3145.460
 20
-4725.936
 30
2033.828
 70
    32
  0
VERTEX
  8
T32SSILL
 62
7
 10
3137.783
 20
-4714.539
 30
2033.749
 70
    32
  0
VERTEX
  8
T32SSILL
 62
7
 10
3125.505
 20
-4704.935
 30
2033.668
 70
    32
  0
VERTEX
  8
T32SSILL
 62
7
 10
3119.896
 20
-4697.015
 30
2033.612
 70
    32
  0
VERTEX
  8
T32SSILL
 62
7
 10
3114.755
 20
-4681.174
 30
2033.515
 70
    32
  0
VERTEX
  8
T32SSILL
 62
7
 10
3104.927
 20
-4666.586
 30
2033.413
 70
    32
  0
VERTEX
  8
T32SSILL
 62
7
 10
3093.002
 20
-4675.043
 30
2033.431
 70
    32
  0
VERTEX
  8
T32SSILL
 62
7
 10
3094.475
 20
-4682.727
 30
2033.476
 70
    32
  0
VERTEX
  8
T32SSILL
 62
7
 10
3090.121
 20
-4685.306
 30
2033.480
 70
    32
  0
VERTEX
  8
T32SSILL
 62
7
 10
3088.207
 20
-4677.703
 30
2033.435
 70
    32
  0
VERTEX
  8
T32SSILL
 62
7
 10
3074.954
 20
-4686.581
 30
2033.452
 70
    32
  0
VERTEX
  8
T32SSILL
 62
7
 10
3084.708
 20
-4712.177
 30
2033.613
 70
    32
  0
VERTEX
  8
T32SSILL
 62
7
 10
3092.383
 20
-4753.509
 30
2033.855
 70
    32
  0
VERTEX
  8
T32SSILL
 62
7
 10
3091.613
 20
-4757.989
 30
2033.878
 70
    32
  0
VERTEX
  8
T32SSILL
 62
7
 10
3089.553
 20
-4760.337
 30
2033.886
 70
    32
  0
VERTEX
  8
T32SSILL
 62
7
 10
3084.701
 20
-4760.883
 30
2033.877
 70
    32
  0
VERTEX
  8
T32SSILL
 62
7
 10
3074.074
 20
-4758.790
 30
2033.842
 70
    32
  0
VERTEX
  8
T32SSILL
 62
7
 10
3069.181
 20
-4756.164
 30
2033.816
 70
    32
  0
VERTEX
  8
T32SSILL
 62
7
 10
3061.377
 20
-4747.771
 30
2033.753
 70
    32
  0
VERTEX
  8
T32SSILL
 62
7
 10
3062.873
 20
-4741.803
 30
2033.724
 70
    32
  0
VERTEX
  8
T32SSILL
 62
7
 10
3068.004
 20
-4734.216
 30
2033.694
 70
    32
  0
VERTEX
  8
T32SSILL
 62
7
 10
3067.619
 20
-4730.423
 30
2033.673
 70
    32
  0
VERTEX
  8
T32SSILL
 62
7
 10
3064.218
 20
-4722.094
 30
2033.620
 70
    32
  0
VERTEX
  8
T32SSILL
 62
7
 10
3065.245
 20
-4706.080
 30
2033.535
 70
    32
  0
VERTEX
  8
T32SSILL
 62
7
 10
3062.231
 20
-4689.302
 30
2033.438
 70
    32
  0
VERTEX
  8
T32SSILL
 62
7
 10
3027.307
 20
-4638.324
 30
2033.137
 70
    32
  0
VERTEX
  8
T32SSILL
 62
7
 10
3026.053
 20
-4633.726
 30
2033.120
 70
    32
  0
VERTEX
  8
T32SSILL
 62
7
 10
2948.402
 20
-4589.434
 30
2032.826
 70
    32
  0
VERTEX
  8
T32SSILL
 62
7
 10
2913.394
 20
-4538.306
 30
2032.591
 70
    32
  0
VERTEX
  8
T32SSILL
 62
7
 10
2907.075
 20
-4542.591
 30
2032.593
 70
    32
  0
VERTEX
  8
T32SSILL
 62
7
 10
2902.498
 20
-4536.359
 30
2032.563
 70
    32
  0
VERTEX
  8
T32SSILL
 62
7
 10
2908.955
 20
-4531.823
 30
2032.561
 70
    32
  0
VERTEX
  8
T32SSILL
 62
7
 10
2892.178
 20
-4507.319
 30
2032.448
 70
    32
  0
VERTEX
  8
T32SSILL
 62
7
 10
2725.648
 20
-4627.039
 30
2032.527
 70
    32
  0
VERTEX
  8
T32SSILL
 62
7
 10
2729.903
 20
-4632.577
 30
2032.553
 70
    32
  0
VERTEX
  8
T32SSILL
 62
7
 10
2720.139
 20
-4638.525
 30
2032.554
 70
    32
  0
VERTEX
  8
T32SSILL
 62
7
 10
2716.501
 20
-4633.072
 30
2032.529
 70
    32
  0
VERTEX
  8
T32SSILL
 62
7
 10
2704.542
 20
-4641.498
 30
2032.534
 70
    32
  0
VERTEX
  8
T32SSILL
 62
7
 10
2715.456
 20
-4658.121
 30
2032.610
 70
    32
  0
VERTEX
  8
T32SSILL
 62
7
 10
2708.069
 20
-4663.001
 30
2032.612
 70
    32
  0
VERTEX
  8
T32SSILL
 62
7
 10
2696.983
 20
-4647.614
 30
2032.540
 70
    32
  0
VERTEX
  8
T32SSILL
 62
7
 10
2685.288
 20
-4655.774
 30
2032.545
 70
    32
  0
VERTEX
  8
T32SSILL
 62
7
 10
2692.831
 20
-4667.384
 30
2032.598
 70
    32
  0
VERTEX
  8
T32SSILL
 62
7
 10
2687.117
 20
-4671.992
 30
2032.602
 70
    32
  0
VERTEX
  8
T32SSILL
 62
7
 10
2678.955
 20
-4659.768
 30
2032.546
 70
    32
  0
VERTEX
  8
T32SSILL
 62
7
 10
2535.280
 20
-4762.555
 30
2032.602
 70
    32
  0
VERTEX
  8
T32SSILL
 62
7
 10
2403.520
 20
-4737.340
 30
2032.624
 70
    32
  0
VERTEX
  8
T32SSILL
 62
7
 10
2325.337
 20
-4726.404
 30
2032.640
 70
    32
  0
VERTEX
  8
T32SSILL
 62
7
 10
2311.669
 20
-4722.148
 30
2032.641
 70
    32
  0
VERTEX
  8
T32SSILL
 62
7
 10
2246.692
 20
-4710.554
 30
2032.652
 70
    32
  0
VERTEX
  8
T32SSILL
 62
7
 10
2225.259
 20
-4867.710
 30
2032.801
 70
    32
  0
VERTEX
  8
T32SSILL
 62
7
 10
2251.580
 20
-4901.306
 30
2032.822
 70
    32
  0
VERTEX
  8
T32SSILL
 62
7
 10
2253.124
 20
-4900.155
 30
2032.821
 70
    32
  0
VERTEX
  8
T32SSILL
 62
7
 10
2266.407
 20
-4919.265
 30
2032.834
 70
    32
  0
VERTEX
  8
T32SSILL
 62
7
 10
2264.833
 20
-4922.853
 30
2032.837
 70
    32
  0
VERTEX
  8
T32SSILL
 62
7
 10
2499.635
 20
-5250.280
 30
2033.054
 70
    32
  0
VERTEX
  8
T32SSILL
 62
7
 10
2505.312
 20
-5256.925
 30
2033.058
 70
    32
  0
VERTEX
  8
T32SSILL
 62
7
 10
2526.419
 20
-5270.371
 30
2033.063
 70
    32
  0
VERTEX
  8
T32SSILL
 62
7
 10
2527.226
 20
-5273.736
 30
2033.066
 70
    32
  0
VERTEX
  8
T32SSILL
 62
7
 10
2547.695
 20
-5272.364
 30
2033.057
 70
    32
  0
VERTEX
  8
T32SSILL
 62
7
 10
2549.414
 20
-5276.889
 30
2033.061
 70
    32
  0
VERTEX
  8
T32SSILL
 62
7
 10
2569.646
 20
-5288.032
 30
2033.064
 70
    32
  0
VERTEX
  8
T32SSILL
 62
7
 10
2577.582
 20
-5296.784
 30
2033.069
 70
    32
  0
VERTEX
  8
T32SSILL
 62
7
 10
2579.264
 20
-5305.182
 30
2033.076
 70
    32
  0
VERTEX
  8
T32SSILL
 62
7
 10
2573.665
 20
-5315.967
 30
2033.088
 70
    32
  0
VERTEX
  8
T32SSILL
 62
7
 10
2570.417
 20
-5317.577
 30
2033.091
 70
    32
  0
VERTEX
  8
T32SSILL
 62
7
 10
2566.460
 20
-5322.280
 30
2033.096
 70
    32
  0
VERTEX
  8
T32SSILL
 62
7
 10
2567.114
 20
-5325.985
 30
2033.099
 70
    32
  0
VERTEX
  8
T32SSILL
 62
7
 10
2561.508
 20
-5332.538
 30
2033.107
 70
    32
  0
VERTEX
  8
T32SSILL
 62
7
 10
2608.018
 20
-5398.791
 30
2033.151
 70
    32
  0
VERTEX
  8
T32SSILL
 62
7
 10
2609.515
 20
-5397.717
 30
2033.150
 70
    32
  0
VERTEX
  8
T32SSILL
 62
7
 10
2613.004
 20
-5402.598
 30
2033.153
 70
    32
  0
VERTEX
  8
T32SSILL
 62
7
 10
2611.500
 20
-5403.677
 30
2033.154
 70
    32
  0
VERTEX
  8
T32SSILL
 62
7
 10
2620.724
 20
-5416.621
 30
2033.162
 70
    32
  0
VERTEX
  8
T32SSILL
 62
7
 10
2625.820
 20
-5415.893
 30
2033.159
 70
    32
  0
VERTEX
  8
T32SSILL
 62
7
 10
2633.404
 20
-5416.778
 30
2033.156
 70
    32
  0
VERTEX
  8
T32SSILL
 62
7
 10
2665.277
 20
-5461.057
 30
2033.180
 70
    32
  0
VERTEX
  8
T32SSILL
 62
7
 10
2679.615
 20
-5466.343
 30
2033.178
 70
    32
  0
VERTEX
  8
T32SSILL
 62
7
 10
2685.587
 20
-5483.560
 30
2033.190
 70
    32
  0
VERTEX
  8
T32SSILL
 62
7
 10
2692.275
 20
-5494.481
 30
2033.197
 70
    32
  0
VERTEX
  8
T32SSILL
 62
7
 10
2703.949
 20
-5508.120
 30
2033.203
 70
    32
  0
VERTEX
  8
T32SSILL
 62
7
 10
2700.672
 20
-5515.106
 30
2033.212
 70
    32
  0
VERTEX
  8
T32SSILL
 62
7
 10
2699.868
 20
-5519.930
 30
2033.216
 70
    32
  0
VERTEX
  8
T32SSILL
 62
7
 10
2706.227
 20
-5530.975
 30
2033.223
 70
    32
  0
VERTEX
  8
T32SSILL
 62
7
 10
2707.409
 20
-5535.327
 30
2033.227
 70
    32
  0
VERTEX
  8
T32SSILL
 62
7
 10
2706.681
 20
-5537.272
 30
2033.229
 70
    32
  0
VERTEX
  8
T32SSILL
 62
7
 10
2746.742
 20
-5593.446
 30
2033.260
 70
    32
  0
VERTEX
  8
T32SSILL
 62
7
 10
2751.032
 20
-5591.711
 30
2033.256
 70
    32
  0
VERTEX
  8
T32SSILL
 62
7
 10
2763.664
 20
-5577.878
 30
2033.237
 70
    32
  0
VERTEX
  8
T32SSILL
 62
7
 10
2773.944
 20
-5573.222
 30
2033.227
 70
    32
  0
VERTEX
  8
T32SSILL
 62
7
 10
2787.759
 20
-5569.200
 30
2033.216
 70
    32
  0
VERTEX
  8
T32SSILL
 62
7
 10
2791.593
 20
-5572.356
 30
2033.217
 70
    32
  0
VERTEX
  8
T32SSILL
 62
7
 10
2792.735
 20
-5577.100
 30
2033.221
 70
    32
  0
VERTEX
  8
T32SSILL
 62
7
 10
2788.127
 20
-5583.556
 30
2033.229
 70
    32
  0
VERTEX
  8
T32SSILL
 62
7
 10
2776.405
 20
-5610.691
 30
2033.260
 70
    32
  0
VERTEX
  8
T32SSILL
 62
7
 10
2777.718
 20
-5616.876
 30
2033.265
 70
    32
  0
VERTEX
  8
T32SSILL
 62
7
 10
2818.611
 20
-5655.659
 30
2033.280
 70
    32
  0
VERTEX
  8
T32SSILL
 62
7
 10
2820.316
 20
-5661.883
 30
2033.285
 70
    32
  0
VERTEX
  8
T32SSILL
 62
7
 10
2829.954
 20
-5671.401
 30
2033.288
 70
    32
  0
VERTEX
  8
T32SSILL
 62
7
 10
2834.271
 20
-5684.257
 30
2033.298
 70
    32
  0
VERTEX
  8
T32SSILL
 62
7
 10
2825.642
 20
-5689.793
 30
2033.308
 70
    32
  0
VERTEX
  8
T32SSILL
 62
7
 10
2824.208
 20
-5701.633
 30
2033.319
 70
    32
  0
VERTEX
  8
T32SSILL
 62
7
 10
2863.933
 20
-5757.153
 30
2033.348
 70
    32
  0
VERTEX
  8
T32SSILL
 62
7
 10
2872.379
 20
-5767.020
 30
2033.341
 70
    32
  0
VERTEX
  8
T32SSILL
 62
7
 10
2926.886
 20
-5846.473
 30
2033.326
 70
    32
  0
VERTEX
  8
T32SSILL
 62
7
 10
2996.016
 20
-5942.546
 30
2033.299
 70
    32
  0
VERTEX
  8
T32SSILL
 62
7
 10
3005.682
 20
-5947.995
 30
2033.283
 70
    32
  0
VERTEX
  8
T32SSILL
 62
7
 10
3016.158
 20
-5948.853
 30
2033.256
 70
    32
  0
VERTEX
  8
T32SSILL
 62
7
 10
3022.790
 20
-5947.559
 30
2033.237
 70
    32
  0
VERTEX
  8
T32SSILL
 62
7
 10
3028.570
 20
-5945.148
 30
2033.217
 70
    32
  0
VERTEX
  8
T32SSILL
 62
7
 10
3050.416
 20
-5928.745
 30
2033.142
 70
    32
  0
VERTEX
  8
T32SSILL
 62
7
 10
3049.276
 20
-5921.445
 30
2033.145
 70
    32
  0
VERTEX
  8
T32SSILL
 62
7
 10
3050.272
 20
-5903.027
 30
2033.165
 70
    32
  0
VERTEX
  8
T32SSILL
 62
7
 10
3052.202
 20
-5897.585
 30
2033.177
 70
    32
  0
VERTEX
  8
T32SSILL
 62
7
 10
3057.520
 20
-5889.344
 30
2033.201
 70
    32
  0
VERTEX
  8
T32SSILL
 62
7
 10
3058.355
 20
-5885.508
 30
2033.208
 70
    32
  0
VERTEX
  8
T32SSILL
 62
7
 10
3051.677
 20
-5875.137
 30
2033.196
 70
    32
  0
VERTEX
  8
T32SSILL
 62
7
 10
3047.609
 20
-5873.707
 30
2033.184
 70
    32
  0
VERTEX
  8
T32SSILL
 62
7
 10
3044.410
 20
-5870.953
 30
2033.177
 70
    32
  0
VERTEX
  8
T32SSILL
 62
7
 10
3049.813
 20
-5864.855
 30
2033.200
 70
    32
  0
VERTEX
  8
T32SSILL
 62
7
 10
3062.547
 20
-5874.481
 30
2033.231
 70
    32
  0
VERTEX
  8
T32SSILL
 62
7
 10
3075.211
 20
-5866.611
 30
2033.279
 70
    32
  0
VERTEX
  8
T32SSILL
 62
7
 10
3091.245
 20
-5870.856
 30
2033.326
 70
    32
  0
VERTEX
  8
T32SSILL
 62
7
 10
3103.985
 20
-5881.361
 30
2033.356
 70
    32
  0
VERTEX
  8
T32SSILL
 62
7
 10
3109.115
 20
-5891.585
 30
2033.363
 70
    32
  0
VERTEX
  8
T32SSILL
 62
7
 10
3115.561
 20
-5911.515
 30
2033.365
 70
    32
  0
VERTEX
  8
T32SSILL
 62
7
 10
3114.791
 20
-5914.419
 30
2033.360
 70
    32
  0
VERTEX
  8
T32SSILL
 62
7
 10
3107.500
 20
-5921.953
 30
2033.329
 70
    32
  0
VERTEX
  8
T32SSILL
 62
7
 10
3105.714
 20
-5925.409
 30
2033.321
 70
    32
  0
VERTEX
  8
T32SSILL
 62
7
 10
3111.479
 20
-5943.429
 30
2033.322
 70
    32
  0
VERTEX
  8
T32SSILL
 62
7
 10
3109.175
 20
-5945.623
 30
2033.313
 70
    32
  0
VERTEX
  8
T32SSILL
 62
7
 10
3110.476
 20
-5955.891
 30
2033.307
 70
    32
  0
VERTEX
  8
T32SSILL
 62
7
 10
3102.322
 20
-5965.628
 30
2033.272
 70
    32
  0
VERTEX
  8
T32SSILL
 62
7
 10
3082.975
 20
-5939.622
 30
2033.235
 70
    32
  0
VERTEX
  8
T32SSILL
 62
7
 10
3081.615
 20
-5938.559
 30
2033.232
 70
    32
  0
VERTEX
  8
T32SSILL
 62
7
 10
3076.098
 20
-5938.563
 30
2033.214
 70
    32
  0
VERTEX
  8
T32SSILL
 62
7
 10
3072.125
 20
-5940.593
 30
2033.200
 70
    32
  0
VERTEX
  8
T32SSILL
 62
7
 10
3058.865
 20
-5931.146
 30
2033.166
 70
    32
  0
VERTEX
  8
T32SSILL
 62
7
 10
3025.893
 20
-5954.249
 30
2033.239
 70
    32
  0
VERTEX
  8
T32SSILL
 62
7
 10
3014.943
 20
-5955.959
 30
2033.271
 70
    32
  0
VERTEX
  8
T32SSILL
 62
7
 10
3004.310
 20
-5955.330
 30
2033.298
 70
    32
  0
VERTEX
  8
T32SSILL
 62
7
 10
3210.757
 20
-6241.726
 30
2033.337
 70
    32
  0
VERTEX
  8
T32SSILL
 62
7
 10
3205.120
 20
-6245.833
 30
2033.357
 70
    32
  0
VERTEX
  8
T32SSILL
 62
7
 10
3163.177
 20
-6187.755
 30
2033.274
 70
    32
  0
VERTEX
  8
T32SSILL
 62
7
 10
3162.525
 20
-6192.555
 30
2033.288
 70
    32
  0
VERTEX
  8
T32SSILL
 62
7
 10
3158.270
 20
-6202.195
 30
2033.320
 70
    32
  0
VERTEX
  8
T32SSILL
 62
7
 10
3151.758
 20
-6210.462
 30
2033.353
 70
    32
  0
VERTEX
  8
T32SSILL
 62
7
 10
2838.177
 20
-6436.160
 30
2033.958
 70
    32
  0
VERTEX
  8
T32SSILL
 62
7
 10
2833.729
 20
-6430.604
 30
2033.963
 70
    32
  0
VERTEX
  8
T32SSILL
 62
7
 10
2835.420
 20
-6428.765
 30
2033.961
 70
    32
  0
VERTEX
  8
T32SSILL
 62
7
 10
2820.532
 20
-6427.621
 30
2033.977
 70
    32
  0
VERTEX
  8
T32SSILL
 62
7
 10
2810.041
 20
-6424.567
 30
2033.988
 70
    32
  0
VERTEX
  8
T32SSILL
 62
7
 10
2799.251
 20
-6419.091
 30
2033.996
 70
    32
  0
VERTEX
  8
T32SSILL
 62
7
 10
2791.061
 20
-6411.084
 30
2033.993
 70
    32
  0
VERTEX
  8
T32SSILL
 62
7
 10
2783.239
 20
-6400.370
 30
2033.987
 70
    32
  0
VERTEX
  8
T32SSILL
 62
7
 10
2779.180
 20
-6390.103
 30
2033.980
 70
    32
  0
VERTEX
  8
T32SSILL
 62
7
 10
2761.417
 20
-6314.105
 30
2033.919
 70
    32
  0
VERTEX
  8
T32SSILL
 62
7
 10
2757.100
 20
-6317.280
 30
2033.924
 70
    32
  0
VERTEX
  8
T32SSILL
 62
7
 10
2753.009
 20
-6310.017
 30
2033.919
 70
    32
  0
VERTEX
  8
T32SSILL
 62
7
 10
2759.341
 20
-6303.543
 30
2033.910
 70
    32
  0
VERTEX
  8
T32SSILL
 62
7
 10
2733.188
 20
-6193.311
 30
2033.822
 70
    32
  0
VERTEX
  8
T32SSILL
 62
7
 10
2741.068
 20
-6192.062
 30
2033.816
 70
    32
  0
VERTEX
  8
T32SSILL
 62
7
 10
2765.234
 20
-6297.073
 30
2033.901
 70
    32
  0
VERTEX
  8
T32SSILL
 62
7
 10
2775.274
 20
-6293.296
 30
2033.892
 70
    32
  0
VERTEX
  8
T32SSILL
 62
7
 10
2780.330
 20
-6300.376
 30
2033.896
 70
    32
  0
VERTEX
  8
T32SSILL
 62
7
 10
2775.661
 20
-6313.531
 30
2033.911
 70
    32
  0
VERTEX
  8
T32SSILL
 62
7
 10
2770.716
 20
-6319.943
 30
2033.919
 70
    32
  0
VERTEX
  8
T32SSILL
 62
7
 10
2786.802
 20
-6389.822
 30
2033.975
 70
    32
  0
VERTEX
  8
T32SSILL
 62
7
 10
2789.819
 20
-6396.687
 30
2033.980
 70
    32
  0
VERTEX
  8
T32SSILL
 62
7
 10
2795.810
 20
-6404.270
 30
2033.984
 70
    32
  0
VERTEX
  8
T32SSILL
 62
7
 10
2805.925
 20
-6413.792
 30
2033.987
 70
    32
  0
VERTEX
  8
T32SSILL
 62
7
 10
2812.856
 20
-6417.679
 30
2033.985
 70
    32
  0
VERTEX
  8
T32SSILL
 62
7
 10
2829.220
 20
-6421.342
 30
2033.968
 70
    32
  0
VERTEX
  8
T32SSILL
 62
7
 10
2844.981
 20
-6419.282
 30
2033.951
 70
    32
  0
VERTEX
  8
T32SSILL
 62
7
 10
2859.263
 20
-6411.506
 30
2033.936
 70
    32
  0
VERTEX
  8
T32SSILL
 62
7
 10
3144.832
 20
-6207.453
 30
2033.357
 70
    32
  0
VERTEX
  8
T32SSILL
 62
7
 10
3151.338
 20
-6200.627
 30
2033.328
 70
    32
  0
VERTEX
  8
T32SSILL
 62
7
 10
3155.363
 20
-6190.831
 30
2033.295
 70
    32
  0
VERTEX
  8
T32SSILL
 62
7
 10
3155.695
 20
-6180.534
 30
2033.267
 70
    32
  0
VERTEX
  8
T32SSILL
 62
7
 10
3154.616
 20
-6176.940
 30
2033.260
 70
    32
  0
VERTEX
  8
T32SSILL
 62
7
 10
3152.104
 20
-6171.898
 30
2033.259
 70
    32
  0
VERTEX
  8
T32SSILL
 62
7
 10
2924.093
 20
-5854.117
 30
2033.346
 70
    32
  0
VERTEX
  8
T32SSILL
 62
7
 10
2880.259
 20
-5886.589
 30
2033.461
 70
    32
  0
VERTEX
  8
T32SSILL
 62
7
 10
2876.247
 20
-5880.591
 30
2033.458
 70
    32
  0
VERTEX
  8
T32SSILL
 62
7
 10
2913.687
 20
-5853.206
 30
2033.372
 70
    32
  0
VERTEX
  8
T32SSILL
 62
7
 10
2914.622
 20
-5841.236
 30
2033.350
 70
    32
  0
VERTEX
  8
T32SSILL
 62
7
 10
2867.119
 20
-5775.616
 30
2033.365
 70
    32
  0
VERTEX
  8
T32SSILL
 62
7
 10
2866.818
 20
-5777.832
 30
2033.368
 70
    32
  0
VERTEX
  8
T32SSILL
 62
7
 10
2871.402
 20
-5795.315
 30
2033.381
 70
    32
  0
VERTEX
  8
T32SSILL
 62
7
 10
2875.632
 20
-5804.790
 30
2033.388
 70
    32
  0
VERTEX
  8
T32SSILL
 62
7
 10
2876.743
 20
-5810.457
 30
2033.393
 70
    32
  0
VERTEX
  8
T32SSILL
 62
7
 10
2873.035
 20
-5812.836
 30
2033.397
 70
    32
  0
VERTEX
  8
T32SSILL
 62
7
 10
2866.493
 20
-5824.547
 30
2033.411
 70
    32
  0
VERTEX
  8
T32SSILL
 62
7
 10
2849.340
 20
-5833.626
 30
2033.428
 70
    32
  0
VERTEX
  8
T32SSILL
 62
7
 10
2848.027
 20
-5826.678
 30
2033.423
 70
    32
  0
VERTEX
  8
T32SSILL
 62
7
 10
2841.686
 20
-5814.284
 30
2033.414
 70
    32
  0
VERTEX
  8
T32SSILL
 62
7
 10
2835.319
 20
-5808.092
 30
2033.412
 70
    32
  0
VERTEX
  8
T32SSILL
 62
7
 10
2823.883
 20
-5803.217
 30
2033.414
 70
    32
  0
VERTEX
  8
T32SSILL
 62
7
 10
2817.777
 20
-5785.588
 30
2033.400
 70
    32
  0
VERTEX
  8
T32SSILL
 62
7
 10
2810.456
 20
-5773.496
 30
2033.393
 70
    32
  0
VERTEX
  8
T32SSILL
 62
7
 10
2808.527
 20
-5767.922
 30
2033.389
 70
    32
  0
VERTEX
  8
T32SSILL
 62
7
 10
2809.918
 20
-5760.428
 30
2033.381
 70
    32
  0
VERTEX
  8
T32SSILL
 62
7
 10
2802.042
 20
-5751.088
 30
2033.377
 70
    32
  0
VERTEX
  8
T32SSILL
 62
7
 10
2798.097
 20
-5748.633
 30
2033.377
 70
    32
  0
VERTEX
  8
T32SSILL
 62
7
 10
2782.757
 20
-5714.925
 30
2033.353
 70
    32
  0
VERTEX
  8
T32SSILL
 62
7
 10
2766.849
 20
-5698.563
 30
2033.347
 70
    32
  0
VERTEX
  8
T32SSILL
 62
7
 10
2765.280
 20
-5690.217
 30
2033.340
 70
    32
  0
VERTEX
  8
T32SSILL
 62
7
 10
2739.028
 20
-5658.016
 30
2033.324
 70
    32
  0
VERTEX
  8
T32SSILL
 62
7
 10
2738.068
 20
-5654.992
 30
2033.321
 70
    32
  0
VERTEX
  8
T32SSILL
 62
7
 10
2718.203
 20
-5640.603
 30
2033.318
 70
    32
  0
VERTEX
  8
T32SSILL
 62
7
 10
2708.931
 20
-5637.253
 30
2033.320
 70
    32
  0
VERTEX
  8
T32SSILL
 62
7
 10
2708.070
 20
-5633.250
 30
2033.317
 70
    32
  0
VERTEX
  8
T32SSILL
 62
7
 10
2713.153
 20
-5622.095
 30
2033.304
 70
    32
  0
VERTEX
  8
T32SSILL
 62
7
 10
2718.880
 20
-5604.954
 30
2033.285
 70
    32
  0
VERTEX
  8
T32SSILL
 62
7
 10
2730.126
 20
-5602.096
 30
2033.277
 70
    32
  0
VERTEX
  8
T32SSILL
 62
7
 10
2738.240
 20
-5594.215
 30
2033.265
 70
    32
  0
VERTEX
  8
T32SSILL
 62
7
 10
2700.947
 20
-5541.397
 30
2033.236
 70
    32
  0
VERTEX
  8
T32SSILL
 62
7
 10
2693.968
 20
-5540.336
 30
2033.238
 70
    32
  0
VERTEX
  8
T32SSILL
 62
7
 10
2683.809
 20
-5541.841
 30
2033.245
 70
    32
  0
VERTEX
  8
T32SSILL
 62
7
 10
2672.984
 20
-5539.362
 30
2033.249
 70
    32
  0
VERTEX
  8
T32SSILL
 62
7
 10
2664.551
 20
-5534.752
 30
2033.249
 70
    32
  0
VERTEX
  8
T32SSILL
 62
7
 10
2656.213
 20
-5528.411
 30
2033.247
 70
    32
  0
VERTEX
  8
T32SSILL
 62
7
 10
2653.806
 20
-5524.054
 30
2033.244
 70
    32
  0
VERTEX
  8
T32SSILL
 62
7
 10
2648.719
 20
-5506.690
 30
2033.231
 70
    32
  0
VERTEX
  8
T32SSILL
 62
7
 10
2635.281
 20
-5494.849
 30
2033.227
 70
    32
  0
VERTEX
  8
T32SSILL
 62
7
 10
2633.345
 20
-5467.440
 30
2033.203
 70
    32
  0
VERTEX
  8
T32SSILL
 62
7
 10
2621.919
 20
-5449.000
 30
2033.192
 70
    32
  0
VERTEX
  8
T32SSILL
 62
7
 10
2614.131
 20
-5433.697
 30
2033.181
 70
    32
  0
VERTEX
  8
T32SSILL
 62
7
 10
2615.095
 20
-5421.700
 30
2033.169
 70
    32
  0
VERTEX
  8
T32SSILL
 62
7
 10
2605.338
 20
-5408.097
 30
2033.160
 70
    32
  0
VERTEX
  8
T32SSILL
 62
7
 10
2599.950
 20
-5411.962
 30
2033.166
 70
    32
  0
VERTEX
  8
T32SSILL
 62
7
 10
2592.880
 20
-5402.265
 30
2033.159
 70
    32
  0
VERTEX
  8
T32SSILL
 62
7
 10
2598.344
 20
-5398.346
 30
2033.154
 70
    32
  0
VERTEX
  8
T32SSILL
 62
7
 10
2560.366
 20
-5345.396
 30
2033.119
 70
    32
  0
VERTEX
  8
T32SSILL
 62
7
 10
2554.235
 20
-5344.618
 30
2033.120
 70
    32
  0
VERTEX
  8
T32SSILL
 62
7
 10
2550.026
 20
-5340.474
 30
2033.118
 70
    32
  0
VERTEX
  8
T32SSILL
 62
7
 10
2543.529
 20
-5340.964
 30
2033.121
 70
    32
  0
VERTEX
  8
T32SSILL
 62
7
 10
2533.729
 20
-5339.697
 30
2033.123
 70
    32
  0
VERTEX
  8
T32SSILL
 62
7
 10
2527.097
 20
-5334.873
 30
2033.121
 70
    32
  0
VERTEX
  8
T32SSILL
 62
7
 10
2528.776
 20
-5332.353
 30
2033.118
 70
    32
  0
VERTEX
  8
T32SSILL
 62
7
 10
2527.800
 20
-5325.570
 30
2033.112
 70
    32
  0
VERTEX
  8
T32SSILL
 62
7
 10
2531.377
 20
-5323.835
 30
2033.109
 70
    32
  0
VERTEX
  8
T32SSILL
 62
7
 10
2528.055
 20
-5314.837
 30
2033.102
 70
    32
  0
VERTEX
  8
T32SSILL
 62
7
 10
2531.010
 20
-5304.773
 30
2033.092
 70
    32
  0
VERTEX
  8
T32SSILL
 62
7
 10
2473.355
 20
-5225.251
 30
2033.040
 70
    32
  0
VERTEX
  8
T32SSILL
 62
7
 10
2472.200
 20
-5233.895
 30
2033.048
 70
    32
  0
VERTEX
  8
T32SSILL
 62
7
 10
2467.564
 20
-5242.464
 30
2033.057
 70
    32
  0
VERTEX
  8
T32SSILL
 62
7
 10
2468.339
 20
-5248.092
 30
2033.062
 70
    32
  0
VERTEX
  8
T32SSILL
 62
7
 10
2467.150
 20
-5250.430
 30
2033.065
 70
    32
  0
VERTEX
  8
T32SSILL
 62
7
 10
2472.552
 20
-5259.700
 30
2033.071
 70
    32
  0
VERTEX
  8
T32SSILL
 62
7
 10
2475.307
 20
-5262.240
 30
2033.073
 70
    32
  0
VERTEX
  8
T32SSILL
 62
7
 10
2475.750
 20
-5264.901
 30
2033.075
 70
    32
  0
VERTEX
  8
T32SSILL
 62
7
 10
2469.079
 20
-5266.959
 30
2033.079
 70
    32
  0
VERTEX
  8
T32SSILL
 62
7
 10
2467.005
 20
-5275.669
 30
2033.087
 70
    32
  0
VERTEX
  8
T32SSILL
 62
7
 10
2457.191
 20
-5287.596
 30
2033.101
 70
    32
  0
VERTEX
  8
T32SSILL
 62
7
 10
2455.764
 20
-5301.248
 30
2033.114
 70
    32
  0
VERTEX
  8
T32SSILL
 62
7
 10
2453.771
 20
-5303.701
 30
2033.117
 70
    32
  0
VERTEX
  8
T32SSILL
 62
7
 10
2440.472
 20
-5305.443
 30
2033.123
 70
    32
  0
VERTEX
  8
T32SSILL
 62
7
 10
2438.041
 20
-5304.006
 30
2033.123
 70
    32
  0
VERTEX
  8
T32SSILL
 62
7
 10
2434.331
 20
-5294.472
 30
2033.115
 70
    32
  0
VERTEX
  8
T32SSILL
 62
7
 10
2434.115
 20
-5289.177
 30
2033.111
 70
    32
  0
VERTEX
  8
T32SSILL
 62
7
 10
2431.394
 20
-5287.474
 30
2033.110
 70
    32
  0
VERTEX
  8
T32SSILL
 62
7
 10
2423.515
 20
-5286.594
 30
2033.112
 70
    32
  0
VERTEX
  8
T32SSILL
 62
7
 10
2416.820
 20
-5281.456
 30
2033.109
 70
    32
  0
VERTEX
  8
T32SSILL
 62
7
 10
2397.596
 20
-5295.101
 30
2033.128
 70
    32
  0
VERTEX
  8
T32SSILL
 62
7
 10
2393.354
 20
-5289.636
 30
2033.125
 70
    32
  0
VERTEX
  8
T32SSILL
 62
7
 10
2413.198
 20
-5275.242
 30
2033.105
 70
    32
  0
VERTEX
  8
T32SSILL
 62
7
 10
2401.929
 20
-5269.218
 30
2033.103
 70
    32
  0
VERTEX
  8
T32SSILL
 62
7
 10
2396.823
 20
-5264.457
 30
2033.101
 70
    32
  0
VERTEX
  8
T32SSILL
 62
7
 10
2396.124
 20
-5259.629
 30
2033.097
 70
    32
  0
VERTEX
  8
T32SSILL
 62
7
 10
2397.688
 20
-5255.545
 30
2033.093
 70
    32
  0
VERTEX
  8
T32SSILL
 62
7
 10
2407.312
 20
-5242.370
 30
2033.077
 70
    32
  0
VERTEX
  8
T32SSILL
 62
7
 10
2408.516
 20
-5238.329
 30
2033.073
 70
    32
  0
VERTEX
  8
T32SSILL
 62
7
 10
2404.403
 20
-5220.270
 30
2033.058
 70
    32
  0
VERTEX
  8
T32SSILL
 62
7
 10
2406.595
 20
-5201.423
 30
2033.041
 70
    32
  0
VERTEX
  8
T32SSILL
 62
7
 10
2405.293
 20
-5195.503
 30
2033.036
 70
    32
  0
VERTEX
  8
T32SSILL
 62
7
 10
2396.373
 20
-5177.946
 30
2033.023
 70
    32
  0
VERTEX
  8
T32SSILL
 62
7
 10
2398.509
 20
-5172.137
 30
2033.017
 70
    32
  0
VERTEX
  8
T32SSILL
 62
7
 10
2385.348
 20
-5160.810
 30
2033.011
 70
    32
  0
VERTEX
  8
T32SSILL
 62
7
 10
2382.337
 20
-5156.103
 30
2033.008
 70
    32
  0
VERTEX
  8
T32SSILL
 62
7
 10
2381.752
 20
-5145.855
 30
2032.999
 70
    32
  0
VERTEX
  8
T32SSILL
 62
7
 10
2378.651
 20
-5141.655
 30
2032.996
 70
    32
  0
VERTEX
  8
T32SSILL
 62
7
 10
2375.202
 20
-5133.059
 30
2032.990
 70
    32
  0
VERTEX
  8
T32SSILL
 62
7
 10
2370.486
 20
-5099.476
 30
2032.961
 70
    32
  0
VERTEX
  8
T32SSILL
 62
7
 10
2368.581
 20
-5095.199
 30
2032.958
 70
    32
  0
VERTEX
  8
T32SSILL
 62
7
 10
2374.274
 20
-5093.795
 30
2032.955
 70
    32
  0
VERTEX
  8
T32SSILL
 62
7
 10
2378.636
 20
-5098.084
 30
2032.957
 70
    32
  0
VERTEX
  8
T32SSILL
 62
7
 10
2406.099
 20
-5141.906
 30
2032.987
 70
    32
  0
VERTEX
  8
T32SSILL
 62
7
 10
2409.687
 20
-5146.393
 30
2032.990
 70
    32
  0
VERTEX
  8
T32SSILL
 62
7
 10
2422.215
 20
-5154.642
 30
2032.993
 70
    32
  0
VERTEX
  8
T32SSILL
 62
7
 10
2362.724
 20
-5071.293
 30
2032.938
 70
    32
  0
VERTEX
  8
T32SSILL
 62
7
 10
2359.330
 20
-5083.238
 30
2032.950
 70
    32
  0
VERTEX
  8
T32SSILL
 62
7
 10
2362.159
 20
-5088.957
 30
2032.954
 70
    32
  0
VERTEX
  8
T32SSILL
 62
7
 10
2362.238
 20
-5093.643
 30
2032.959
 70
    32
  0
VERTEX
  8
T32SSILL
 62
7
 10
2356.772
 20
-5100.620
 30
2032.967
 70
    32
  0
VERTEX
  8
T32SSILL
 62
7
 10
2335.351
 20
-5106.909
 30
2032.979
 70
    32
  0
VERTEX
  8
T32SSILL
 62
7
 10
2302.193
 20
-5130.559
 30
2033.052
 70
    32
  0
VERTEX
  8
T32SSILL
 62
7
 10
2297.516
 20
-5124.692
 30
2033.062
 70
    32
  0
VERTEX
  8
T32SSILL
 62
7
 10
2322.927
 20
-5106.568
 30
2032.983
 70
    32
  0
VERTEX
  8
T32SSILL
 62
7
 10
2318.418
 20
-5101.958
 30
2032.981
 70
    32
  0
VERTEX
  8
T32SSILL
 62
7
 10
2304.235
 20
-5104.601
 30
2032.988
 70
    32
  0
VERTEX
  8
T32SSILL
 62
7
 10
2299.919
 20
-5098.691
 30
2032.984
 70
    32
  0
VERTEX
  8
T32SSILL
 62
7
 10
2308.532
 20
-5077.127
 30
2032.962
 70
    32
  0
VERTEX
  8
T32SSILL
 62
7
 10
2328.076
 20
-5072.452
 30
2032.951
 70
    32
  0
VERTEX
  8
T32SSILL
 62
7
 10
2339.280
 20
-5067.921
 30
2032.943
 70
    32
  0
VERTEX
  8
T32SSILL
 62
7
 10
2349.393
 20
-5072.952
 30
2032.944
 70
    32
  0
VERTEX
  8
T32SSILL
 62
7
 10
2352.973
 20
-5077.915
 30
2032.947
 70
    32
  0
VERTEX
  8
T32SSILL
 62
7
 10
2355.277
 20
-5067.326
 30
2032.937
 70
    32
  0
VERTEX
  8
T32SSILL
 62
7
 10
2354.422
 20
-5062.085
 30
2032.933
 70
    32
  0
VERTEX
  8
T32SSILL
 62
7
 10
2352.517
 20
-5057.808
 30
2032.930
 70
    32
  0
VERTEX
  8
T32SSILL
 62
7
 10
2265.402
 20
-4936.999
 30
2032.850
 70
    32
  0
VERTEX
  8
T32SSILL
 62
7
 10
2259.370
 20
-4934.289
 30
2032.849
 70
    32
  0
VERTEX
  8
T32SSILL
 62
7
 10
2251.967
 20
-4947.849
 30
2032.864
 70
    32
  0
VERTEX
  8
T32SSILL
 62
7
 10
2238.954
 20
-4954.575
 30
2032.938
 70
    32
  0
VERTEX
  8
T32SSILL
 62
7
 10
2228.724
 20
-4951.474
 30
2032.984
 70
    32
  0
VERTEX
  8
T32SSILL
 62
7
 10
2232.323
 20
-4933.603
 30
2032.920
 70
    32
  0
VERTEX
  8
T32SSILL
 62
7
 10
2233.968
 20
-4915.058
 30
2032.865
 70
    32
  0
VERTEX
  8
T32SSILL
 62
7
 10
2225.291
 20
-4881.278
 30
2032.826
 70
    32
  0
VERTEX
  8
T32SSILL
 62
7
 10
2217.703
 20
-4870.669
 30
2032.838
 70
    32
  0
VERTEX
  8
T32SSILL
 62
7
 10
2236.996
 20
-4732.246
 30
2032.675
 70
    32
  0
VERTEX
  8
T32SSILL
 62
7
 10
2221.466
 20
-4742.285
 30
2032.689
 70
    32
  0
VERTEX
  8
T32SSILL
 62
7
 10
2159.372
 20
-4757.630
 30
2032.856
 70
    32
  0
VERTEX
  8
T32SSILL
 62
7
 10
2161.014
 20
-4763.698
 30
2032.863
 70
    32
  0
VERTEX
  8
T32SSILL
 62
7
 10
2149.835
 20
-4766.805
 30
2032.929
 70
    32
  0
VERTEX
  8
T32SSILL
 62
7
 10
2148.248
 20
-4760.380
 30
2032.921
 70
    32
  0
VERTEX
  8
T32SSILL
 62
7
 10
2115.470
 20
-4768.480
 30
2033.110
 70
    32
  0
VERTEX
  8
T32SSILL
 62
7
 10
2117.103
 20
-4775.254
 30
2033.119
 70
    32
  0
VERTEX
  8
T32SSILL
 62
7
 10
2106.138
 20
-4780.167
 30
2033.188
 70
    32
  0
VERTEX
  8
T32SSILL
 62
7
 10
2104.490
 20
-4774.127
 30
2033.181
 70
    32
  0
VERTEX
  8
T32SSILL
 62
7
 10
2050.401
 20
-4812.525
 30
2033.557
 70
    32
  0
VERTEX
  8
T32SSILL
 62
7
 10
2046.480
 20
-4807.409
 30
2033.564
 70
    32
  0
VERTEX
  8
T32SSILL
 62
7
 10
2107.194
 20
-4764.297
 30
2033.143
 70
    32
  0
VERTEX
  8
T32SSILL
 62
7
 10
2215.925
 20
-4737.123
 30
2032.686
 70
    32
  0
VERTEX
  8
T32SSILL
 62
7
 10
2222.903
 20
-4734.383
 30
2032.682
 70
    32
  0
VERTEX
  8
T32SSILL
 62
7
 10
2236.420
 20
-4724.259
 30
2032.668
 70
    32
  0
VERTEX
  8
T32SSILL
 62
7
 10
2237.682
 20
-4722.365
 30
2032.666
 70
    32
  0
VERTEX
  8
T32SSILL
 62
7
 10
2239.216
 20
-4709.993
 30
2032.654
 70
    32
  0
VERTEX
  8
T32SSILL
 62
7
 10
2224.965
 20
-4689.203
 30
2032.640
 70
    32
  0
VERTEX
  8
T32SSILL
 62
7
 10
2179.406
 20
-4626.298
 30
2032.686
 70
    32
  0
VERTEX
  8
T32SSILL
 62
7
 10
2126.109
 20
-4626.400
 30
2032.700
 70
    32
  0
VERTEX
  8
T32SSILL
 62
7
 10
2125.974
 20
-4614.703
 30
2032.717
 70
    32
  0
VERTEX
  8
T32SSILL
 62
7
 10
2118.201
 20
-4614.668
 30
2032.750
 70
    32
  0
VERTEX
  8
T32SSILL
 62
7
 10
2118.604
 20
-4558.113
 30
2033.005
 70
    32
  0
VERTEX
  8
T32SSILL
 62
7
 10
2126.570
 20
-4552.518
 30
2033.061
 70
    32
  0
VERTEX
  8
T32SSILL
 62
7
 10
2093.446
 20
-4506.219
 30
2033.297
 70
    32
  0
VERTEX
  8
T32SSILL
 62
7
 10
2034.282
 20
-4497.302
 30
2033.500
 70
    32
  0
VERTEX
  8
T32SSILL
 62
7
 10
2031.262
 20
-4518.607
 30
2033.441
 70
    32
  0
VERTEX
  8
T32SSILL
 62
7
 10
2023.776
 20
-4517.075
 30
2033.478
 70
    32
  0
VERTEX
  8
T32SSILL
 62
7
 10
2027.413
 20
-4495.942
 30
2033.534
 70
    32
  0
VERTEX
  8
T32SSILL
 62
7
 10
2014.733
 20
-4493.830
 30
2033.595
 70
    32
  0
VERTEX
  8
T32SSILL
 62
7
 10
2009.737
 20
-4496.239
 30
2033.608
 70
    32
  0
VERTEX
  8
T32SSILL
 62
7
 10
1943.357
 20
-4544.595
 30
2033.725
 70
    32
  0
VERTEX
  8
T32SSILL
 62
7
 10
1946.589
 20
-4552.323
 30
2033.686
 70
    32
  0
VERTEX
  8
T32SSILL
 62
7
 10
1960.363
 20
-4570.604
 30
2033.566
 70
    32
  0
VERTEX
  8
T32SSILL
 62
7
 10
1965.057
 20
-4583.271
 30
2033.503
 70
    32
  0
VERTEX
  8
T32SSILL
 62
7
 10
1971.943
 20
-4591.971
 30
2033.445
 70
    32
  0
VERTEX
  8
T32SSILL
 62
7
 10
1969.500
 20
-4601.837
 30
2033.447
 70
    32
  0
VERTEX
  8
T32SSILL
 62
7
 10
1965.718
 20
-4603.694
 30
2033.472
 70
    32
  0
VERTEX
  8
T32SSILL
 62
7
 10
1961.139
 20
-4602.911
 30
2033.493
 70
    32
  0
VERTEX
  8
T32SSILL
 62
7
 10
1947.409
 20
-4604.702
 30
2033.569
 70
    32
  0
VERTEX
  8
T32SSILL
 62
7
 10
1941.586
 20
-4599.081
 30
2033.585
 70
    32
  0
VERTEX
  8
T32SSILL
 62
7
 10
1933.222
 20
-4598.923
 30
2033.628
 70
    32
  0
VERTEX
  8
T32SSILL
 62
7
 10
1917.520
 20
-4584.432
 30
2033.700
 70
    32
  0
VERTEX
  8
T32SSILL
 62
7
 10
1909.219
 20
-4568.788
 30
2033.788
 70
    32
  0
VERTEX
  8
T32SSILL
 62
7
 10
1845.130
 20
-4613.467
 30
2034.119
 70
    32
  0
VERTEX
  8
T32SSILL
 62
7
 10
1833.520
 20
-4618.247
 30
2034.191
 70
    32
  0
VERTEX
  8
T32SSILL
 62
7
 10
1815.387
 20
-4619.431
 30
2034.288
 70
    32
  0
VERTEX
  8
T32SSILL
 62
7
 10
1801.383
 20
-4616.292
 30
2034.352
 70
    32
  0
VERTEX
  8
T32SSILL
 62
7
 10
1493.554
 20
-4511.239
 30
2035.077
 70
    32
  0
VERTEX
  8
T32SSILL
 62
7
 10
1480.281
 20
-4520.512
 30
2035.053
 70
    32
  0
VERTEX
  8
T32SSILL
 62
7
 10
1476.398
 20
-4516.207
 30
2035.069
 70
    32
  0
VERTEX
  8
T32SSILL
 62
7
 10
1486.595
 20
-4509.493
 30
2035.055
 70
    32
  0
VERTEX
  8
T32SSILL
 62
7
 10
1253.893
 20
-4428.969
 30
2035.970
 70
    32
  0
VERTEX
  8
T32SSILL
 62
7
 10
1085.980
 20
-4366.705
 30
2036.381
 70
    32
  0
VERTEX
  8
T32SSILL
 62
7
 10
1072.843
 20
-4358.817
 30
2036.416
 70
    32
  0
VERTEX
  8
T32SSILL
 62
7
 10
1064.989
 20
-4351.174
 30
2036.446
 70
    32
  0
VERTEX
  8
T32SSILL
 62
7
 10
801.248
 20
-3989.827
 30
2037.404
 70
    32
  0
VERTEX
  8
T32SSILL
 62
7
 10
626.312
 20
-3744.660
 30
2037.796
 70
    32
  0
VERTEX
  8
T32SSILL
 62
7
 10
623.840
 20
-3732.412
 30
2037.805
 70
    32
  0
VERTEX
  8
T32SSILL
 62
7
 10
625.742
 20
-3723.639
 30
2037.819
 70
    32
  0
VERTEX
  8
T32SSILL
 62
7
 10
647.231
 20
-3662.601
 30
2037.929
 70
    32
  0
VERTEX
  8
T32SSILL
 62
7
 10
649.399
 20
-3658.036
 30
2037.939
 70
    32
  0
VERTEX
  8
T32SSILL
 62
7
 10
657.769
 20
-3648.252
 30
2037.965
 70
    32
  0
VERTEX
  8
T32SSILL
 62
7
 10
649.752
 20
-3637.048
 30
2037.963
 70
    32
  0
VERTEX
  8
T32SSILL
 62
7
 10
655.043
 20
-3633.251
 30
2037.978
 70
    32
  0
VERTEX
  8
T32SSILL
 62
7
 10
658.565
 20
-3639.044
 30
2037.978
 70
    32
  0
VERTEX
  8
T32SSILL
 62
7
 10
682.962
 20
-3621.586
 30
2038.043
 70
    32
  0
VERTEX
  8
T32SSILL
 62
7
 10
686.864
 20
-3626.985
 30
2038.044
 70
    32
  0
VERTEX
  8
T32SSILL
 62
7
 10
719.260
 20
-3603.410
 30
2038.132
 70
    32
  0
VERTEX
  8
T32SSILL
 62
7
 10
720.984
 20
-3600.895
 30
2038.138
 70
    32
  0
VERTEX
  8
T32SSILL
 62
7
 10
720.676
 20
-3593.670
 30
2038.146
 70
    32
  0
VERTEX
  8
T32SSILL
 62
7
 10
729.082
 20
-3588.114
 30
2038.168
 70
    32
  0
VERTEX
  8
T32SSILL
 62
7
 10
734.982
 20
-3588.841
 30
2038.178
 70
    32
  0
VERTEX
  8
T32SSILL
 62
7
 10
747.473
 20
-3579.566
 30
2038.212
 70
    32
  0
VERTEX
  8
T32SSILL
 62
7
 10
750.472
 20
-3574.449
 30
2038.224
 70
    32
  0
VERTEX
  8
T32SSILL
 62
7
 10
761.999
 20
-3567.034
 30
2038.254
 70
    32
  0
VERTEX
  8
T32SSILL
 62
7
 10
766.791
 20
-3568.643
 30
2038.261
 70
    32
  0
VERTEX
  8
T32SSILL
 62
7
 10
792.027
 20
-3550.458
 30
2038.285
 70
    32
  0
VERTEX
  8
T32SSILL
 62
7
 10
787.571
 20
-3544.165
 30
2038.274
 70
    32
  0
VERTEX
  8
T32SSILL
 62
7
 10
797.004
 20
-3537.430
 30
2038.247
 70
    32
  0
VERTEX
  8
T32SSILL
 62
7
 10
793.075
 20
-3532.081
 30
2038.239
 70
    32
  0
VERTEX
  8
T32SSILL
 62
7
 10
802.087
 20
-3525.940
 30
2038.214
 70
    32
  0
VERTEX
  8
T32SSILL
 62
7
 10
790.682
 20
-3512.590
 30
2038.194
 70
    32
  0
VERTEX
  8
T32SSILL
 62
7
 10
635.851
 20
-3623.258
 30
2037.953
 70
    32
  0
VERTEX
  8
T32SSILL
 62
7
 10
632.242
 20
-3617.899
 30
2037.953
 70
    32
  0
VERTEX
  8
T32SSILL
 62
7
 10
786.990
 20
-3505.441
 30
2038.181
 70
    32
  0
VERTEX
  8
T32SSILL
 62
7
 10
789.367
 20
-3500.700
 30
2038.167
 70
    32
  0
VERTEX
  8
T32SSILL
 62
7
 10
782.560
 20
-3487.513
 30
2038.142
 70
    32
  0
SEQEND
  8
T32SSILL
  0
ENDSEC
  0
EOF
