999
********************************
999
*   DXF File - Entities Only   *
999
*        3D Data Format        *
999
*     Output from ENVISAGE     *
999
*     20-Dec-2007 15:26:35     *
999
********************************
  0
SECTION 
  2
HEADER
  9
$ACADVER
  1
AC1009
  9
$EXTMIN
 10
-290000.000
 20
-250000.000
 30
-4000.000
  9
$EXTMAX
 10
5000000.000
 20
600000.000
 30
6000.000
  0
ENDSEC
  0
SECTION
  2
ENTITIES
  0
POLYLINE
  8
T33SSILL
 62
13
 66
     1
 70
     9
  0
VERTEX
  8
T33SSILL
 62
13
 10
943.298
 20
-4040.189
 30
1884.466
 70
    32
  0
VERTEX
  8
T33SSILL
 62
13
 10
949.465
 20
-4002.919
 30
1884.475
 70
    32
  0
VERTEX
  8
T33SSILL
 62
13
 10
953.643
 20
-4008.804
 30
1884.474
 70
    32
  0
VERTEX
  8
T33SSILL
 62
13
 10
964.015
 20
-4002.937
 30
1884.477
 70
    32
  0
VERTEX
  8
T33SSILL
 62
13
 10
953.645
 20
-4014.588
 30
1884.473
 70
    32
  0
VERTEX
  8
T33SSILL
 62
13
 10
962.645
 20
-4026.576
 30
1884.472
 70
    32
  0
SEQEND
  8
T33SSILL
  0
POLYLINE
  8
T33SSILL
 62
13
 66
     1
 70
     9
  0
VERTEX
  8
T33SSILL
 62
13
 10
1279.920
 20
-4053.906
 30
1884.527
 70
    32
  0
VERTEX
  8
T33SSILL
 62
13
 10
1290.637
 20
-4069.153
 30
1884.518
 70
    32
  0
VERTEX
  8
T33SSILL
 62
13
 10
1295.519
 20
-4065.664
 30
1884.509
 70
    32
  0
VERTEX
  8
T33SSILL
 62
13
 10
1299.316
 20
-4071.018
 30
1884.506
 70
    32
  0
VERTEX
  8
T33SSILL
 62
13
 10
1344.905
 20
-4034.735
 30
1884.417
 70
    32
  0
VERTEX
  8
T33SSILL
 62
13
 10
1318.830
 20
-3997.084
 30
1884.437
 70
    32
  0
VERTEX
  8
T33SSILL
 62
13
 10
1273.355
 20
-4028.915
 30
1884.524
 70
    32
  0
VERTEX
  8
T33SSILL
 62
13
 10
1282.148
 20
-4051.270
 30
1884.522
 70
    32
  0
SEQEND
  8
T33SSILL
  0
POLYLINE
  8
T33SSILL
 62
13
 66
     1
 70
     9
  0
VERTEX
  8
T33SSILL
 62
13
 10
1367.430
 20
-3783.718
 30
1884.587
 70
    32
  0
VERTEX
  8
T33SSILL
 62
13
 10
1332.191
 20
-3808.903
 30
1884.576
 70
    32
  0
VERTEX
  8
T33SSILL
 62
13
 10
1339.447
 20
-3765.844
 30
1884.584
 70
    32
  0
VERTEX
  8
T33SSILL
 62
13
 10
1373.225
 20
-3741.949
 30
1884.595
 70
    32
  0
SEQEND
  8
T33SSILL
  0
POLYLINE
  8
T33SSILL
 62
13
 66
     1
 70
     9
  0
VERTEX
  8
T33SSILL
 62
13
 10
3470.382
 20
-4711.520
 30
1883.698
 70
    32
  0
VERTEX
  8
T33SSILL
 62
13
 10
3459.859
 20
-4696.028
 30
1883.702
 70
    32
  0
VERTEX
  8
T33SSILL
 62
13
 10
3487.516
 20
-4676.573
 30
1883.741
 70
    32
  0
VERTEX
  8
T33SSILL
 62
13
 10
3490.889
 20
-4681.390
 30
1883.740
 70
    32
  0
VERTEX
  8
T33SSILL
 62
13
 10
3486.018
 20
-4684.893
 30
1883.733
 70
    32
  0
VERTEX
  8
T33SSILL
 62
13
 10
3493.310
 20
-4695.035
 30
1883.731
 70
    32
  0
SEQEND
  8
T33SSILL
  0
POLYLINE
  8
T33SSILL
 62
13
 66
     1
 70
     9
  0
VERTEX
  8
T33SSILL
 62
13
 10
3450.262
 20
-4615.833
 30
1883.758
 70
    32
  0
VERTEX
  8
T33SSILL
 62
13
 10
3453.750
 20
-4620.715
 30
1883.757
 70
    32
  0
VERTEX
  8
T33SSILL
 62
13
 10
3448.868
 20
-4624.204
 30
1883.750
 70
    32
  0
VERTEX
  8
T33SSILL
 62
13
 10
3452.774
 20
-4629.668
 30
1883.749
 70
    32
  0
VERTEX
  8
T33SSILL
 62
13
 10
3472.277
 20
-4615.891
 30
1883.777
 70
    32
  0
VERTEX
  8
T33SSILL
 62
13
 10
3464.865
 20
-4605.398
 30
1883.779
 70
    32
  0
SEQEND
  8
T33SSILL
  0
POLYLINE
  8
T33SSILL
 62
13
 66
     1
 70
     9
  0
VERTEX
  8
T33SSILL
 62
13
 10
1997.342
 20
-4321.445
 30
1883.437
 70
    32
  0
VERTEX
  8
T33SSILL
 62
13
 10
1992.950
 20
-4324.293
 30
1883.437
 70
    32
  0
VERTEX
  8
T33SSILL
 62
13
 10
1932.012
 20
-4367.956
 30
1883.401
 70
    32
  0
VERTEX
  8
T33SSILL
 62
13
 10
1928.281
 20
-4363.393
 30
1883.416
 70
    32
  0
VERTEX
  8
T33SSILL
 62
13
 10
1917.785
 20
-4363.015
 30
1883.428
 70
    32
  0
VERTEX
  8
T33SSILL
 62
13
 10
1914.691
 20
-4361.623
 30
1883.435
 70
    32
  0
VERTEX
  8
T33SSILL
 62
13
 10
1904.674
 20
-4352.953
 30
1883.467
 70
    32
  0
VERTEX
  8
T33SSILL
 62
13
 10
1897.176
 20
-4352.645
 30
1883.475
 70
    32
  0
VERTEX
  8
T33SSILL
 62
13
 10
1892.182
 20
-4343.327
 30
1883.500
 70
    32
  0
VERTEX
  8
T33SSILL
 62
13
 10
1878.077
 20
-4329.391
 30
1883.530
 70
    32
  0
VERTEX
  8
T33SSILL
 62
13
 10
1871.120
 20
-4330.843
 30
1883.534
 70
    32
  0
VERTEX
  8
T33SSILL
 62
13
 10
1866.200
 20
-4333.871
 30
1883.534
 70
    32
  0
VERTEX
  8
T33SSILL
 62
13
 10
1865.976
 20
-4340.751
 30
1883.526
 70
    32
  0
VERTEX
  8
T33SSILL
 62
13
 10
1855.193
 20
-4351.309
 30
1883.521
 70
    32
  0
VERTEX
  8
T33SSILL
 62
13
 10
1855.848
 20
-4357.655
 30
1883.505
 70
    32
  0
VERTEX
  8
T33SSILL
 62
13
 10
1858.696
 20
-4361.958
 30
1883.491
 70
    32
  0
VERTEX
  8
T33SSILL
 62
13
 10
1857.504
 20
-4369.020
 30
1883.477
 70
    32
  0
VERTEX
  8
T33SSILL
 62
13
 10
1865.872
 20
-4382.109
 30
1883.474
 70
    32
  0
VERTEX
  8
T33SSILL
 62
13
 10
1868.345
 20
-4382.800
 30
1883.471
 70
    32
  0
VERTEX
  8
T33SSILL
 62
13
 10
1883.108
 20
-4403.611
 30
1883.465
 70
    32
  0
VERTEX
  8
T33SSILL
 62
13
 10
1857.991
 20
-4420.781
 30
1883.509
 70
    32
  0
VERTEX
  8
T33SSILL
 62
13
 10
1809.900
 20
-4356.872
 30
1883.553
 70
    32
  0
VERTEX
  8
T33SSILL
 62
13
 10
1815.546
 20
-4342.464
 30
1883.567
 70
    32
  0
VERTEX
  8
T33SSILL
 62
13
 10
1839.610
 20
-4326.094
 30
1883.567
 70
    32
  0
VERTEX
  8
T33SSILL
 62
13
 10
1857.651
 20
-4334.804
 30
1883.540
 70
    32
  0
VERTEX
  8
T33SSILL
 62
13
 10
1861.356
 20
-4334.958
 30
1883.537
 70
    32
  0
VERTEX
  8
T33SSILL
 62
13
 10
1870.302
 20
-4326.792
 30
1883.540
 70
    32
  0
VERTEX
  8
T33SSILL
 62
13
 10
1881.672
 20
-4325.842
 30
1883.531
 70
    32
  0
VERTEX
  8
T33SSILL
 62
13
 10
1886.590
 20
-4322.550
 30
1883.531
 70
    32
  0
VERTEX
  8
T33SSILL
 62
13
 10
1892.539
 20
-4314.666
 30
1883.536
 70
    32
  0
VERTEX
  8
T33SSILL
 62
13
 10
1893.112
 20
-4307.255
 30
1883.545
 70
    32
  0
VERTEX
  8
T33SSILL
 62
13
 10
1883.947
 20
-4293.465
 30
1883.571
 70
    32
  0
VERTEX
  8
T33SSILL
 62
13
 10
1935.405
 20
-4257.266
 30
1883.558
 70
    32
  0
VERTEX
  8
T33SSILL
 62
13
 10
1945.176
 20
-4254.385
 30
1883.521
 70
    32
  0
VERTEX
  8
T33SSILL
 62
13
 10
1953.120
 20
-4255.660
 30
1883.499
 70
    32
  0
VERTEX
  8
T33SSILL
 62
13
 10
1959.137
 20
-4258.975
 30
1883.486
 70
    32
  0
VERTEX
  8
T33SSILL
 62
13
 10
2009.232
 20
-4318.904
 30
1883.430
 70
    32
  0
SEQEND
  8
T33SSILL
  0
POLYLINE
  8
T33SSILL
 62
13
 66
     1
 70
     9
  0
VERTEX
  8
T33SSILL
 62
13
 10
1955.188
 20
-4394.537
 30
1883.362
 70
    32
  0
VERTEX
  8
T33SSILL
 62
13
 10
1950.594
 20
-4393.153
 30
1883.367
 70
    32
  0
VERTEX
  8
T33SSILL
 62
13
 10
1946.125
 20
-4397.854
 30
1883.376
 70
    32
  0
VERTEX
  8
T33SSILL
 62
13
 10
1924.436
 20
-4413.328
 30
1883.415
 70
    32
  0
VERTEX
  8
T33SSILL
 62
13
 10
1919.435
 20
-4417.591
 30
1883.425
 70
    32
  0
VERTEX
  8
T33SSILL
 62
13
 10
1919.030
 20
-4423.501
 30
1883.429
 70
    32
  0
VERTEX
  8
T33SSILL
 62
13
 10
1905.247
 20
-4433.902
 30
1883.454
 70
    32
  0
VERTEX
  8
T33SSILL
 62
13
 10
1890.435
 20
-4449.070
 30
1883.484
 70
    32
  0
VERTEX
  8
T33SSILL
 62
13
 10
1878.262
 20
-4448.349
 30
1883.499
 70
    32
  0
VERTEX
  8
T33SSILL
 62
13
 10
1862.612
 20
-4426.750
 30
1883.507
 70
    32
  0
VERTEX
  8
T33SSILL
 62
13
 10
1883.332
 20
-4411.546
 30
1883.469
 70
    32
  0
VERTEX
  8
T33SSILL
 62
13
 10
1887.685
 20
-4416.899
 30
1883.467
 70
    32
  0
VERTEX
  8
T33SSILL
 62
13
 10
1895.207
 20
-4421.351
 30
1883.460
 70
    32
  0
VERTEX
  8
T33SSILL
 62
13
 10
1905.509
 20
-4418.732
 30
1883.444
 70
    32
  0
VERTEX
  8
T33SSILL
 62
13
 10
1909.221
 20
-4420.121
 30
1883.440
 70
    32
  0
VERTEX
  8
T33SSILL
 62
13
 10
1915.909
 20
-4417.788
 30
1883.430
 70
    32
  0
VERTEX
  8
T33SSILL
 62
13
 10
1932.401
 20
-4403.404
 30
1883.398
 70
    32
  0
VERTEX
  8
T33SSILL
 62
13
 10
1945.716
 20
-4388.509
 30
1883.371
 70
    32
  0
VERTEX
  8
T33SSILL
 62
13
 10
1946.100
 20
-4379.071
 30
1883.365
 70
    32
  0
VERTEX
  8
T33SSILL
 62
13
 10
1941.901
 20
-4370.013
 30
1883.385
 70
    32
  0
VERTEX
  8
T33SSILL
 62
13
 10
2000.291
 20
-4327.864
 30
1883.426
 70
    32
  0
VERTEX
  8
T33SSILL
 62
13
 10
2008.037
 20
-4325.525
 30
1883.422
 70
    32
  0
VERTEX
  8
T33SSILL
 62
13
 10
2016.775
 20
-4326.884
 30
1883.413
 70
    32
  0
VERTEX
  8
T33SSILL
 62
13
 10
2021.640
 20
-4329.412
 30
1883.406
 70
    32
  0
VERTEX
  8
T33SSILL
 62
13
 10
2076.418
 20
-4390.812
 30
1883.197
 70
    32
  0
VERTEX
  8
T33SSILL
 62
13
 10
2068.568
 20
-4390.682
 30
1883.207
 70
    32
  0
VERTEX
  8
T33SSILL
 62
13
 10
2059.417
 20
-4394.000
 30
1883.222
 70
    32
  0
VERTEX
  8
T33SSILL
 62
13
 10
1993.387
 20
-4441.309
 30
1883.340
 70
    32
  0
VERTEX
  8
T33SSILL
 62
13
 10
1988.802
 20
-4441.337
 30
1883.346
 70
    32
  0
VERTEX
  8
T33SSILL
 62
13
 10
1987.861
 20
-4431.466
 30
1883.341
 70
    32
  0
VERTEX
  8
T33SSILL
 62
13
 10
1977.360
 20
-4415.656
 30
1883.346
 70
    32
  0
VERTEX
  8
T33SSILL
 62
13
 10
1963.422
 20
-4400.043
 30
1883.354
 70
    32
  0
VERTEX
  8
T33SSILL
 62
13
 10
1958.642
 20
-4397.073
 30
1883.359
 70
    32
  0
SEQEND
  8
T33SSILL
  0
POLYLINE
  8
T33SSILL
 62
13
 66
     1
 70
     9
  0
VERTEX
  8
T33SSILL
 62
13
 10
2089.318
 20
-4404.503
 30
1883.171
 70
    32
  0
VERTEX
  8
T33SSILL
 62
13
 10
2139.522
 20
-4461.837
 30
1883.092
 70
    32
  0
VERTEX
  8
T33SSILL
 62
13
 10
2130.257
 20
-4461.528
 30
1883.088
 70
    32
  0
VERTEX
  8
T33SSILL
 62
13
 10
2121.149
 20
-4465.544
 30
1883.090
 70
    32
  0
VERTEX
  8
T33SSILL
 62
13
 10
2013.999
 20
-4543.837
 30
1883.377
 70
    32
  0
VERTEX
  8
T33SSILL
 62
13
 10
2010.470
 20
-4543.643
 30
1883.382
 70
    32
  0
VERTEX
  8
T33SSILL
 62
13
 10
2005.563
 20
-4536.207
 30
1883.384
 70
    32
  0
VERTEX
  8
T33SSILL
 62
13
 10
2008.328
 20
-4530.220
 30
1883.376
 70
    32
  0
VERTEX
  8
T33SSILL
 62
13
 10
2002.022
 20
-4520.130
 30
1883.378
 70
    32
  0
VERTEX
  8
T33SSILL
 62
13
 10
1995.351
 20
-4512.597
 30
1883.383
 70
    32
  0
VERTEX
  8
T33SSILL
 62
13
 10
1983.726
 20
-4507.776
 30
1883.395
 70
    32
  0
VERTEX
  8
T33SSILL
 62
13
 10
1963.870
 20
-4489.327
 30
1883.410
 70
    32
  0
VERTEX
  8
T33SSILL
 62
13
 10
1960.978
 20
-4485.165
 30
1883.411
 70
    32
  0
VERTEX
  8
T33SSILL
 62
13
 10
1960.908
 20
-4481.282
 30
1883.409
 70
    32
  0
VERTEX
  8
T33SSILL
 62
13
 10
1962.512
 20
-4478.025
 30
1883.405
 70
    32
  0
VERTEX
  8
T33SSILL
 62
13
 10
1967.450
 20
-4478.754
 30
1883.399
 70
    32
  0
VERTEX
  8
T33SSILL
 62
13
 10
1973.345
 20
-4482.400
 30
1883.393
 70
    32
  0
VERTEX
  8
T33SSILL
 62
13
 10
1977.950
 20
-4479.157
 30
1883.385
 70
    32
  0
VERTEX
  8
T33SSILL
 62
13
 10
1977.789
 20
-4475.803
 30
1883.383
 70
    32
  0
VERTEX
  8
T33SSILL
 62
13
 10
1976.209
 20
-4474.031
 30
1883.384
 70
    32
  0
VERTEX
  8
T33SSILL
 62
13
 10
1973.949
 20
-4466.872
 30
1883.382
 70
    32
  0
VERTEX
  8
T33SSILL
 62
13
 10
1975.102
 20
-4465.730
 30
1883.380
 70
    32
  0
VERTEX
  8
T33SSILL
 62
13
 10
1978.085
 20
-4469.186
 30
1883.378
 70
    32
  0
VERTEX
  8
T33SSILL
 62
13
 10
1984.481
 20
-4460.392
 30
1883.364
 70
    32
  0
VERTEX
  8
T33SSILL
 62
13
 10
1984.409
 20
-4456.950
 30
1883.362
 70
    32
  0
VERTEX
  8
T33SSILL
 62
13
 10
2064.548
 20
-4398.913
 30
1883.218
 70
    32
  0
VERTEX
  8
T33SSILL
 62
13
 10
2075.232
 20
-4397.552
 30
1883.203
 70
    32
  0
VERTEX
  8
T33SSILL
 62
13
 10
2086.154
 20
-4401.840
 30
1883.176
 70
    32
  0
SEQEND
  8
T33SSILL
  0
POLYLINE
  8
T33SSILL
 62
13
 66
     1
 70
     9
  0
VERTEX
  8
T33SSILL
 62
13
 10
1695.971
 20
-4689.956
 30
1883.403
 70
    32
  0
VERTEX
  8
T33SSILL
 62
13
 10
1702.701
 20
-4702.841
 30
1883.418
 70
    32
  0
VERTEX
  8
T33SSILL
 62
13
 10
1709.993
 20
-4710.319
 30
1883.426
 70
    32
  0
VERTEX
  8
T33SSILL
 62
13
 10
1717.444
 20
-4720.768
 30
1883.438
 70
    32
  0
VERTEX
  8
T33SSILL
 62
13
 10
1725.642
 20
-4741.103
 30
1883.462
 70
    32
  0
VERTEX
  8
T33SSILL
 62
13
 10
1726.129
 20
-4750.019
 30
1883.472
 70
    32
  0
VERTEX
  8
T33SSILL
 62
13
 10
1762.314
 20
-4804.727
 30
1883.535
 70
    32
  0
VERTEX
  8
T33SSILL
 62
13
 10
1754.792
 20
-4809.192
 30
1883.541
 70
    32
  0
VERTEX
  8
T33SSILL
 62
13
 10
1740.519
 20
-4785.827
 30
1883.514
 70
    32
  0
VERTEX
  8
T33SSILL
 62
13
 10
1724.091
 20
-4770.482
 30
1883.497
 70
    32
  0
VERTEX
  8
T33SSILL
 62
13
 10
1713.775
 20
-4731.605
 30
1883.451
 70
    32
  0
VERTEX
  8
T33SSILL
 62
13
 10
1709.208
 20
-4726.906
 30
1883.446
 70
    32
  0
VERTEX
  8
T33SSILL
 62
13
 10
1689.626
 20
-4699.230
 30
1883.414
 70
    32
  0
VERTEX
  8
T33SSILL
 62
13
 10
1686.775
 20
-4696.522
 30
1883.411
 70
    32
  0
VERTEX
  8
T33SSILL
 62
13
 10
1683.851
 20
-4696.252
 30
1883.411
 70
    32
  0
VERTEX
  8
T33SSILL
 62
13
 10
1679.199
 20
-4691.112
 30
1883.405
 70
    32
  0
VERTEX
  8
T33SSILL
 62
13
 10
1672.825
 20
-4687.521
 30
1883.402
 70
    32
  0
VERTEX
  8
T33SSILL
 62
13
 10
1670.492
 20
-4689.175
 30
1883.404
 70
    32
  0
VERTEX
  8
T33SSILL
 62
13
 10
1667.339
 20
-4684.791
 30
1883.399
 70
    32
  0
VERTEX
  8
T33SSILL
 62
13
 10
1661.536
 20
-4688.965
 30
1883.404
 70
    32
  0
VERTEX
  8
T33SSILL
 62
13
 10
1676.509
 20
-4718.455
 30
1883.438
 70
    32
  0
VERTEX
  8
T33SSILL
 62
13
 10
1669.954
 20
-4723.807
 30
1883.445
 70
    32
  0
VERTEX
  8
T33SSILL
 62
13
 10
1653.752
 20
-4697.874
 30
1883.415
 70
    32
  0
VERTEX
  8
T33SSILL
 62
13
 10
1648.066
 20
-4698.652
 30
1883.417
 70
    32
  0
VERTEX
  8
T33SSILL
 62
13
 10
1501.197
 20
-4804.277
 30
1883.849
 70
    32
  0
VERTEX
  8
T33SSILL
 62
13
 10
1497.742
 20
-4807.172
 30
1883.839
 70
    32
  0
VERTEX
  8
T33SSILL
 62
13
 10
1494.537
 20
-4813.158
 30
1883.823
 70
    32
  0
VERTEX
  8
T33SSILL
 62
13
 10
1493.443
 20
-4820.477
 30
1883.805
 70
    32
  0
VERTEX
  8
T33SSILL
 62
13
 10
1494.205
 20
-4827.187
 30
1883.789
 70
    32
  0
VERTEX
  8
T33SSILL
 62
13
 10
1496.038
 20
-4831.344
 30
1883.781
 70
    32
  0
VERTEX
  8
T33SSILL
 62
13
 10
1500.955
 20
-4836.574
 30
1883.772
 70
    32
  0
VERTEX
  8
T33SSILL
 62
13
 10
1565.852
 20
-4884.624
 30
1883.706
 70
    32
  0
VERTEX
  8
T33SSILL
 62
13
 10
1565.810
 20
-4874.828
 30
1883.722
 70
    32
  0
VERTEX
  8
T33SSILL
 62
13
 10
1570.715
 20
-4864.086
 30
1883.696
 70
    32
  0
VERTEX
  8
T33SSILL
 62
13
 10
1575.063
 20
-4859.076
 30
1883.677
 70
    32
  0
VERTEX
  8
T33SSILL
 62
13
 10
1664.935
 20
-4795.438
 30
1883.531
 70
    32
  0
VERTEX
  8
T33SSILL
 62
13
 10
1654.600
 20
-4742.089
 30
1883.468
 70
    32
  0
VERTEX
  8
T33SSILL
 62
13
 10
1651.975
 20
-4737.311
 30
1883.462
 70
    32
  0
VERTEX
  8
T33SSILL
 62
13
 10
1658.880
 20
-4732.843
 30
1883.457
 70
    32
  0
VERTEX
  8
T33SSILL
 62
13
 10
1661.595
 20
-4737.092
 30
1883.462
 70
    32
  0
VERTEX
  8
T33SSILL
 62
13
 10
1672.245
 20
-4798.562
 30
1883.534
 70
    32
  0
VERTEX
  8
T33SSILL
 62
13
 10
1577.767
 20
-4865.708
 30
1883.675
 70
    32
  0
VERTEX
  8
T33SSILL
 62
13
 10
1572.510
 20
-4876.272
 30
1883.702
 70
    32
  0
VERTEX
  8
T33SSILL
 62
13
 10
1573.956
 20
-4887.574
 30
1883.704
 70
    32
  0
VERTEX
  8
T33SSILL
 62
13
 10
1576.229
 20
-4892.174
 30
1883.696
 70
    32
  0
VERTEX
  8
T33SSILL
 62
13
 10
1579.923
 20
-4895.456
 30
1883.691
 70
    32
  0
VERTEX
  8
T33SSILL
 62
13
 10
1722.117
 20
-5003.357
 30
1883.609
 70
    32
  0
VERTEX
  8
T33SSILL
 62
13
 10
1733.833
 20
-5008.010
 30
1883.600
 70
    32
  0
VERTEX
  8
T33SSILL
 62
13
 10
1743.554
 20
-5009.639
 30
1883.589
 70
    32
  0
VERTEX
  8
T33SSILL
 62
13
 10
1751.019
 20
-5009.531
 30
1883.579
 70
    32
  0
VERTEX
  8
T33SSILL
 62
13
 10
1762.523
 20
-5006.576
 30
1883.562
 70
    32
  0
VERTEX
  8
T33SSILL
 62
13
 10
1769.607
 20
-5002.811
 30
1883.548
 70
    32
  0
VERTEX
  8
T33SSILL
 62
13
 10
1861.930
 20
-4936.860
 30
1883.491
 70
    32
  0
VERTEX
  8
T33SSILL
 62
13
 10
1848.966
 20
-4933.340
 30
1883.500
 70
    32
  0
VERTEX
  8
T33SSILL
 62
13
 10
1837.761
 20
-4924.158
 30
1883.509
 70
    32
  0
VERTEX
  8
T33SSILL
 62
13
 10
1785.925
 20
-4854.849
 30
1883.556
 70
    32
  0
VERTEX
  8
T33SSILL
 62
13
 10
1792.694
 20
-4850.946
 30
1883.552
 70
    32
  0
VERTEX
  8
T33SSILL
 62
13
 10
1843.181
 20
-4919.315
 30
1883.507
 70
    32
  0
VERTEX
  8
T33SSILL
 62
13
 10
1847.697
 20
-4923.991
 30
1883.503
 70
    32
  0
VERTEX
  8
T33SSILL
 62
13
 10
1853.618
 20
-4927.747
 30
1883.498
 70
    32
  0
VERTEX
  8
T33SSILL
 62
13
 10
1860.551
 20
-4929.450
 30
1883.494
 70
    32
  0
VERTEX
  8
T33SSILL
 62
13
 10
1872.086
 20
-4928.330
 30
1883.487
 70
    32
  0
VERTEX
  8
T33SSILL
 62
13
 10
1876.925
 20
-4926.428
 30
1883.484
 70
    32
  0
VERTEX
  8
T33SSILL
 62
13
 10
1999.956
 20
-4838.650
 30
1883.423
 70
    32
  0
VERTEX
  8
T33SSILL
 62
13
 10
2053.890
 20
-4791.947
 30
1883.397
 70
    32
  0
VERTEX
  8
T33SSILL
 62
13
 10
2028.302
 20
-4763.120
 30
1883.419
 70
    32
  0
VERTEX
  8
T33SSILL
 62
13
 10
2034.894
 20
-4757.637
 30
1883.416
 70
    32
  0
VERTEX
  8
T33SSILL
 62
13
 10
2057.477
 20
-4783.854
 30
1883.397
 70
    32
  0
VERTEX
  8
T33SSILL
 62
13
 10
2064.090
 20
-4782.731
 30
1883.393
 70
    32
  0
VERTEX
  8
T33SSILL
 62
13
 10
2101.753
 20
-4751.439
 30
1883.375
 70
    32
  0
VERTEX
  8
T33SSILL
 62
13
 10
1972.161
 20
-4582.907
 30
1883.458
 70
    32
  0
VERTEX
  8
T33SSILL
 62
13
 10
1931.254
 20
-4611.568
 30
1883.376
 70
    32
  0
VERTEX
  8
T33SSILL
 62
13
 10
1931.772
 20
-4614.130
 30
1883.371
 70
    32
  0
VERTEX
  8
T33SSILL
 62
13
 10
1934.241
 20
-4614.406
 30
1883.375
 70
    32
  0
VERTEX
  8
T33SSILL
 62
13
 10
1942.891
 20
-4632.626
 30
1883.345
 70
    32
  0
VERTEX
  8
T33SSILL
 62
13
 10
1937.580
 20
-4636.042
 30
1883.327
 70
    32
  0
VERTEX
  8
T33SSILL
 62
13
 10
1932.055
 20
-4628.780
 30
1883.335
 70
    32
  0
VERTEX
  8
T33SSILL
 62
13
 10
1925.201
 20
-4622.658
 30
1883.337
 70
    32
  0
VERTEX
  8
T33SSILL
 62
13
 10
1923.678
 20
-4627.416
 30
1883.322
 70
    32
  0
VERTEX
  8
T33SSILL
 62
13
 10
1917.941
 20
-4627.565
 30
1883.313
 70
    32
  0
VERTEX
  8
T33SSILL
 62
13
 10
1916.150
 20
-4633.116
 30
1883.320
 70
    32
  0
VERTEX
  8
T33SSILL
 62
13
 10
1903.173
 20
-4634.113
 30
1883.322
 70
    32
  0
VERTEX
  8
T33SSILL
 62
13
 10
1898.955
 20
-4649.007
 30
1883.340
 70
    32
  0
VERTEX
  8
T33SSILL
 62
13
 10
1891.175
 20
-4651.970
 30
1883.344
 70
    32
  0
VERTEX
  8
T33SSILL
 62
13
 10
1882.348
 20
-4652.369
 30
1883.345
 70
    32
  0
VERTEX
  8
T33SSILL
 62
13
 10
1882.026
 20
-4645.926
 30
1883.337
 70
    32
  0
VERTEX
  8
T33SSILL
 62
13
 10
1878.615
 20
-4639.556
 30
1883.330
 70
    32
  0
VERTEX
  8
T33SSILL
 62
13
 10
1881.628
 20
-4636.834
 30
1883.326
 70
    32
  0
VERTEX
  8
T33SSILL
 62
13
 10
1876.698
 20
-4615.985
 30
1883.302
 70
    32
  0
VERTEX
  8
T33SSILL
 62
13
 10
1868.783
 20
-4591.680
 30
1883.309
 70
    32
  0
VERTEX
  8
T33SSILL
 62
13
 10
1868.200
 20
-4584.441
 30
1883.326
 70
    32
  0
VERTEX
  8
T33SSILL
 62
13
 10
1865.054
 20
-4577.984
 30
1883.336
 70
    32
  0
VERTEX
  8
T33SSILL
 62
13
 10
1863.536
 20
-4563.063
 30
1883.371
 70
    32
  0
VERTEX
  8
T33SSILL
 62
13
 10
1856.067
 20
-4556.497
 30
1883.373
 70
    32
  0
VERTEX
  8
T33SSILL
 62
13
 10
1853.798
 20
-4551.192
 30
1883.382
 70
    32
  0
VERTEX
  8
T33SSILL
 62
13
 10
1780.213
 20
-4604.142
 30
1883.295
 70
    32
  0
VERTEX
  8
T33SSILL
 62
13
 10
1835.768
 20
-4612.525
 30
1883.301
 70
    32
  0
VERTEX
  8
T33SSILL
 62
13
 10
1840.418
 20
-4609.009
 30
1883.296
 70
    32
  0
VERTEX
  8
T33SSILL
 62
13
 10
1843.706
 20
-4613.357
 30
1883.301
 70
    32
  0
VERTEX
  8
T33SSILL
 62
13
 10
1846.792
 20
-4613.901
 30
1883.302
 70
    32
  0
VERTEX
  8
T33SSILL
 62
13
 10
1845.691
 20
-4622.720
 30
1883.312
 70
    32
  0
VERTEX
  8
T33SSILL
 62
13
 10
1776.912
 20
-4611.715
 30
1883.304
 70
    32
  0
VERTEX
  8
T33SSILL
 62
13
 10
1767.820
 20
-4612.201
 30
1883.305
 70
    32
  0
VERTEX
  8
T33SSILL
 62
13
 10
1691.756
 20
-4667.080
 30
1883.376
 70
    32
  0
VERTEX
  8
T33SSILL
 62
13
 10
1699.373
 20
-4679.824
 30
1883.391
 70
    32
  0
VERTEX
  8
T33SSILL
 62
13
 10
1692.992
 20
-4685.353
 30
1883.398
 70
    32
  0
VERTEX
  8
T33SSILL
 62
13
 10
1688.686
 20
-4681.626
 30
1883.393
 70
    32
  0
VERTEX
  8
T33SSILL
 62
13
 10
1683.432
 20
-4673.218
 30
1883.384
 70
    32
  0
VERTEX
  8
T33SSILL
 62
13
 10
1677.081
 20
-4677.785
 30
1883.390
 70
    32
  0
VERTEX
  8
T33SSILL
 62
13
 10
1680.281
 20
-4682.234
 30
1883.395
 70
    32
  0
VERTEX
  8
T33SSILL
 62
13
 10
1688.785
 20
-4690.050
 30
1883.404
 70
    32
  0
SEQEND
  8
T33SSILL
  0
POLYLINE
  8
T33SSILL
 62
13
 66
     1
 70
     9
  0
VERTEX
  8
T33SSILL
 62
13
 10
2109.242
 20
-4781.381
 30
1883.364
 70
    32
  0
VERTEX
  8
T33SSILL
 62
13
 10
2113.278
 20
-4751.201
 30
1883.363
 70
    32
  0
VERTEX
  8
T33SSILL
 62
13
 10
2181.221
 20
-4693.914
 30
1882.935
 70
    32
  0
VERTEX
  8
T33SSILL
 62
13
 10
2254.247
 20
-4777.232
 30
1882.913
 70
    32
  0
VERTEX
  8
T33SSILL
 62
13
 10
2256.934
 20
-4785.980
 30
1882.909
 70
    32
  0
VERTEX
  8
T33SSILL
 62
13
 10
2256.801
 20
-4792.966
 30
1882.911
 70
    32
  0
VERTEX
  8
T33SSILL
 62
13
 10
2254.997
 20
-4800.956
 30
1882.941
 70
    32
  0
VERTEX
  8
T33SSILL
 62
13
 10
2252.294
 20
-4805.777
 30
1882.965
 70
    32
  0
VERTEX
  8
T33SSILL
 62
13
 10
2221.382
 20
-4828.518
 30
1883.150
 70
    32
  0
VERTEX
  8
T33SSILL
 62
13
 10
2218.350
 20
-4823.631
 30
1883.149
 70
    32
  0
VERTEX
  8
T33SSILL
 62
13
 10
2215.729
 20
-4815.272
 30
1883.136
 70
    32
  0
VERTEX
  8
T33SSILL
 62
13
 10
2213.365
 20
-4812.192
 30
1883.137
 70
    32
  0
VERTEX
  8
T33SSILL
 62
13
 10
2202.368
 20
-4804.936
 30
1883.160
 70
    32
  0
VERTEX
  8
T33SSILL
 62
13
 10
2195.027
 20
-4803.422
 30
1883.185
 70
    32
  0
VERTEX
  8
T33SSILL
 62
13
 10
2181.644
 20
-4778.123
 30
1883.167
 70
    32
  0
VERTEX
  8
T33SSILL
 62
13
 10
2180.697
 20
-4769.960
 30
1883.149
 70
    32
  0
VERTEX
  8
T33SSILL
 62
13
 10
2170.066
 20
-4772.167
 30
1883.197
 70
    32
  0
VERTEX
  8
T33SSILL
 62
13
 10
2167.181
 20
-4774.498
 30
1883.215
 70
    32
  0
VERTEX
  8
T33SSILL
 62
13
 10
2161.129
 20
-4786.691
 30
1883.272
 70
    32
  0
VERTEX
  8
T33SSILL
 62
13
 10
2187.657
 20
-4821.283
 30
1883.264
 70
    32
  0
VERTEX
  8
T33SSILL
 62
13
 10
2189.914
 20
-4827.502
 30
1883.272
 70
    32
  0
VERTEX
  8
T33SSILL
 62
13
 10
2196.291
 20
-4836.063
 30
1883.271
 70
    32
  0
VERTEX
  8
T33SSILL
 62
13
 10
2201.298
 20
-4837.974
 30
1883.256
 70
    32
  0
VERTEX
  8
T33SSILL
 62
13
 10
2202.006
 20
-4842.376
 30
1883.265
 70
    32
  0
VERTEX
  8
T33SSILL
 62
13
 10
2160.426
 20
-4872.052
 30
1883.313
 70
    32
  0
VERTEX
  8
T33SSILL
 62
13
 10
2141.811
 20
-4853.645
 30
1883.329
 70
    32
  0
VERTEX
  8
T33SSILL
 62
13
 10
2133.117
 20
-4842.516
 30
1883.337
 70
    32
  0
VERTEX
  8
T33SSILL
 62
13
 10
2122.152
 20
-4847.701
 30
1883.343
 70
    32
  0
VERTEX
  8
T33SSILL
 62
13
 10
2115.758
 20
-4842.104
 30
1883.348
 70
    32
  0
VERTEX
  8
T33SSILL
 62
13
 10
2105.603
 20
-4848.992
 30
1883.353
 70
    32
  0
VERTEX
  8
T33SSILL
 62
13
 10
2115.043
 20
-4859.794
 30
1883.345
 70
    32
  0
VERTEX
  8
T33SSILL
 62
13
 10
2122.836
 20
-4864.913
 30
1883.339
 70
    32
  0
VERTEX
  8
T33SSILL
 62
13
 10
2141.218
 20
-4883.600
 30
1883.323
 70
    32
  0
VERTEX
  8
T33SSILL
 62
13
 10
2140.799
 20
-4886.312
 30
1883.323
 70
    32
  0
VERTEX
  8
T33SSILL
 62
13
 10
2130.017
 20
-4893.987
 30
1883.329
 70
    32
  0
VERTEX
  8
T33SSILL
 62
13
 10
2128.010
 20
-4889.005
 30
1883.331
 70
    32
  0
VERTEX
  8
T33SSILL
 62
13
 10
2101.008
 20
-4872.584
 30
1883.351
 70
    32
  0
VERTEX
  8
T33SSILL
 62
13
 10
2096.946
 20
-4863.749
 30
1883.356
 70
    32
  0
VERTEX
  8
T33SSILL
 62
13
 10
2082.435
 20
-4842.884
 30
1883.369
 70
    32
  0
VERTEX
  8
T33SSILL
 62
13
 10
2078.828
 20
-4840.495
 30
1883.372
 70
    32
  0
VERTEX
  8
T33SSILL
 62
13
 10
2074.934
 20
-4839.956
 30
1883.374
 70
    32
  0
VERTEX
  8
T33SSILL
 62
13
 10
2066.798
 20
-4843.180
 30
1883.379
 70
    32
  0
VERTEX
  8
T33SSILL
 62
13
 10
2061.402
 20
-4847.458
 30
1883.382
 70
    32
  0
VERTEX
  8
T33SSILL
 62
13
 10
2062.370
 20
-4858.339
 30
1883.379
 70
    32
  0
VERTEX
  8
T33SSILL
 62
13
 10
2061.241
 20
-4870.537
 30
1883.377
 70
    32
  0
VERTEX
  8
T33SSILL
 62
13
 10
2077.963
 20
-4878.741
 30
1883.365
 70
    32
  0
VERTEX
  8
T33SSILL
 62
13
 10
2089.761
 20
-4880.818
 30
1883.357
 70
    32
  0
VERTEX
  8
T33SSILL
 62
13
 10
2099.601
 20
-4901.276
 30
1883.347
 70
    32
  0
VERTEX
  8
T33SSILL
 62
13
 10
2102.222
 20
-4909.635
 30
1883.343
 70
    32
  0
VERTEX
  8
T33SSILL
 62
13
 10
2117.804
 20
-4912.550
 30
1883.333
 70
    32
  0
VERTEX
  8
T33SSILL
 62
13
 10
2123.425
 20
-4923.961
 30
1883.327
 70
    32
  0
VERTEX
  8
T33SSILL
 62
13
 10
2131.058
 20
-4933.789
 30
1883.320
 70
    32
  0
VERTEX
  8
T33SSILL
 62
13
 10
2144.093
 20
-4918.888
 30
1883.315
 70
    32
  0
VERTEX
  8
T33SSILL
 62
13
 10
2133.951
 20
-4903.243
 30
1883.324
 70
    32
  0
VERTEX
  8
T33SSILL
 62
13
 10
2153.712
 20
-4888.120
 30
1883.315
 70
    32
  0
VERTEX
  8
T33SSILL
 62
13
 10
2170.796
 20
-4900.104
 30
1883.301
 70
    32
  0
VERTEX
  8
T33SSILL
 62
13
 10
2177.466
 20
-4909.216
 30
1883.295
 70
    32
  0
VERTEX
  8
T33SSILL
 62
13
 10
2189.074
 20
-4930.895
 30
1883.284
 70
    32
  0
VERTEX
  8
T33SSILL
 62
13
 10
2197.731
 20
-4940.629
 30
1883.276
 70
    32
  0
VERTEX
  8
T33SSILL
 62
13
 10
2204.296
 20
-4957.362
 30
1883.269
 70
    32
  0
VERTEX
  8
T33SSILL
 62
13
 10
2155.456
 20
-4992.354
 30
1883.293
 70
    32
  0
VERTEX
  8
T33SSILL
 62
13
 10
2160.351
 20
-4997.845
 30
1883.289
 70
    32
  0
VERTEX
  8
T33SSILL
 62
13
 10
2234.248
 20
-4944.509
 30
1883.252
 70
    32
  0
VERTEX
  8
T33SSILL
 62
13
 10
2237.766
 20
-4945.432
 30
1883.250
 70
    32
  0
VERTEX
  8
T33SSILL
 62
13
 10
2243.235
 20
-4992.926
 30
1883.237
 70
    32
  0
VERTEX
  8
T33SSILL
 62
13
 10
2253.549
 20
-5007.461
 30
1883.227
 70
    32
  0
VERTEX
  8
T33SSILL
 62
13
 10
2238.156
 20
-5017.200
 30
1883.235
 70
    32
  0
VERTEX
  8
T33SSILL
 62
13
 10
2229.513
 20
-5024.511
 30
1883.239
 70
    32
  0
VERTEX
  8
T33SSILL
 62
13
 10
2240.520
 20
-5038.649
 30
1883.229
 70
    32
  0
VERTEX
  8
T33SSILL
 62
13
 10
2245.427
 20
-5039.976
 30
1883.226
 70
    32
  0
VERTEX
  8
T33SSILL
 62
13
 10
2254.766
 20
-5039.590
 30
1883.220
 70
    32
  0
VERTEX
  8
T33SSILL
 62
13
 10
2268.272
 20
-5048.180
 30
1883.210
 70
    32
  0
VERTEX
  8
T33SSILL
 62
13
 10
2271.584
 20
-5045.536
 30
1883.208
 70
    32
  0
VERTEX
  8
T33SSILL
 62
13
 10
2271.399
 20
-5040.205
 30
1883.209
 70
    32
  0
VERTEX
  8
T33SSILL
 62
13
 10
2274.181
 20
-5036.090
 30
1883.208
 70
    32
  0
VERTEX
  8
T33SSILL
 62
13
 10
2285.523
 20
-5051.732
 30
1883.198
 70
    32
  0
VERTEX
  8
T33SSILL
 62
13
 10
2292.409
 20
-5046.800
 30
1883.195
 70
    32
  0
VERTEX
  8
T33SSILL
 62
13
 10
2282.479
 20
-5032.639
 30
1883.204
 70
    32
  0
VERTEX
  8
T33SSILL
 62
13
 10
2284.400
 20
-5014.504
 30
1883.206
 70
    32
  0
VERTEX
  8
T33SSILL
 62
13
 10
2282.230
 20
-5011.391
 30
1883.208
 70
    32
  0
VERTEX
  8
T33SSILL
 62
13
 10
2272.766
 20
-5002.795
 30
1883.216
 70
    32
  0
VERTEX
  8
T33SSILL
 62
13
 10
2268.617
 20
-5001.459
 30
1883.219
 70
    32
  0
VERTEX
  8
T33SSILL
 62
13
 10
2263.446
 20
-5003.058
 30
1883.222
 70
    32
  0
VERTEX
  8
T33SSILL
 62
13
 10
2260.103
 20
-5002.225
 30
1883.224
 70
    32
  0
VERTEX
  8
T33SSILL
 62
13
 10
2249.965
 20
-4987.780
 30
1883.233
 70
    32
  0
VERTEX
  8
T33SSILL
 62
13
 10
2245.123
 20
-4943.981
 30
1883.245
 70
    32
  0
VERTEX
  8
T33SSILL
 62
13
 10
2252.225
 20
-4935.611
 30
1883.242
 70
    32
  0
VERTEX
  8
T33SSILL
 62
13
 10
2253.671
 20
-4931.164
 30
1883.242
 70
    32
  0
VERTEX
  8
T33SSILL
 62
13
 10
2307.513
 20
-4892.400
 30
1882.987
 70
    32
  0
VERTEX
  8
T33SSILL
 62
13
 10
2313.379
 20
-4887.122
 30
1882.949
 70
    32
  0
VERTEX
  8
T33SSILL
 62
13
 10
2317.963
 20
-4878.299
 30
1882.906
 70
    32
  0
VERTEX
  8
T33SSILL
 62
13
 10
2319.924
 20
-4868.881
 30
1882.899
 70
    32
  0
VERTEX
  8
T33SSILL
 62
13
 10
2418.632
 20
-5006.543
 30
1882.878
 70
    32
  0
VERTEX
  8
T33SSILL
 62
13
 10
2421.762
 20
-5013.655
 30
1882.875
 70
    32
  0
VERTEX
  8
T33SSILL
 62
13
 10
2422.515
 20
-5020.210
 30
1882.887
 70
    32
  0
VERTEX
  8
T33SSILL
 62
13
 10
2420.804
 20
-5030.865
 30
1882.923
 70
    32
  0
VERTEX
  8
T33SSILL
 62
13
 10
2416.031
 20
-5039.280
 30
1882.966
 70
    32
  0
VERTEX
  8
T33SSILL
 62
13
 10
2325.606
 20
-5104.389
 30
1883.162
 70
    32
  0
VERTEX
  8
T33SSILL
 62
13
 10
2308.000
 20
-5087.211
 30
1883.177
 70
    32
  0
VERTEX
  8
T33SSILL
 62
13
 10
2301.391
 20
-5083.412
 30
1883.182
 70
    32
  0
VERTEX
  8
T33SSILL
 62
13
 10
2291.057
 20
-5070.641
 30
1883.191
 70
    32
  0
VERTEX
  8
T33SSILL
 62
13
 10
2277.622
 20
-5069.762
 30
1883.200
 70
    32
  0
VERTEX
  8
T33SSILL
 62
13
 10
2272.713
 20
-5063.953
 30
1883.204
 70
    32
  0
VERTEX
  8
T33SSILL
 62
13
 10
2261.804
 20
-5064.286
 30
1883.211
 70
    32
  0
VERTEX
  8
T33SSILL
 62
13
 10
2259.037
 20
-5067.077
 30
1883.212
 70
    32
  0
VERTEX
  8
T33SSILL
 62
13
 10
2260.130
 20
-5070.213
 30
1883.211
 70
    32
  0
VERTEX
  8
T33SSILL
 62
13
 10
2265.001
 20
-5076.269
 30
1883.206
 70
    32
  0
VERTEX
  8
T33SSILL
 62
13
 10
2252.347
 20
-5094.827
 30
1883.211
 70
    32
  0
VERTEX
  8
T33SSILL
 62
13
 10
2252.976
 20
-5096.881
 30
1883.210
 70
    32
  0
VERTEX
  8
T33SSILL
 62
13
 10
2258.579
 20
-5100.651
 30
1883.206
 70
    32
  0
VERTEX
  8
T33SSILL
 62
13
 10
2267.370
 20
-5103.400
 30
1883.200
 70
    32
  0
VERTEX
  8
T33SSILL
 62
13
 10
2277.586
 20
-5103.465
 30
1883.193
 70
    32
  0
VERTEX
  8
T33SSILL
 62
13
 10
2290.015
 20
-5093.709
 30
1883.187
 70
    32
  0
VERTEX
  8
T33SSILL
 62
13
 10
2294.024
 20
-5091.867
 30
1883.185
 70
    32
  0
VERTEX
  8
T33SSILL
 62
13
 10
2302.991
 20
-5099.188
 30
1883.178
 70
    32
  0
VERTEX
  8
T33SSILL
 62
13
 10
2305.934
 20
-5102.609
 30
1883.175
 70
    32
  0
VERTEX
  8
T33SSILL
 62
13
 10
2308.523
 20
-5109.133
 30
1883.172
 70
    32
  0
VERTEX
  8
T33SSILL
 62
13
 10
2304.336
 20
-5114.166
 30
1883.174
 70
    32
  0
VERTEX
  8
T33SSILL
 62
13
 10
2306.197
 20
-5118.052
 30
1883.172
 70
    32
  0
VERTEX
  8
T33SSILL
 62
13
 10
2291.519
 20
-5128.470
 30
1883.179
 70
    32
  0
VERTEX
  8
T33SSILL
 62
13
 10
2296.132
 20
-5133.675
 30
1883.175
 70
    32
  0
VERTEX
  8
T33SSILL
 62
13
 10
2335.806
 20
-5105.409
 30
1883.155
 70
    32
  0
VERTEX
  8
T33SSILL
 62
13
 10
2331.375
 20
-5136.047
 30
1883.152
 70
    32
  0
VERTEX
  8
T33SSILL
 62
13
 10
2365.358
 20
-5183.982
 30
1883.121
 70
    32
  0
VERTEX
  8
T33SSILL
 62
13
 10
2365.481
 20
-5197.426
 30
1883.118
 70
    32
  0
VERTEX
  8
T33SSILL
 62
13
 10
2377.547
 20
-5215.556
 30
1883.107
 70
    32
  0
VERTEX
  8
T33SSILL
 62
13
 10
2384.866
 20
-5209.000
 30
1883.104
 70
    32
  0
VERTEX
  8
T33SSILL
 62
13
 10
2374.398
 20
-5197.231
 30
1883.113
 70
    32
  0
VERTEX
  8
T33SSILL
 62
13
 10
2373.554
 20
-5194.138
 30
1883.114
 70
    32
  0
VERTEX
  8
T33SSILL
 62
13
 10
2378.395
 20
-5188.522
 30
1883.112
 70
    32
  0
VERTEX
  8
T33SSILL
 62
13
 10
2339.049
 20
-5133.706
 30
1883.148
 70
    32
  0
VERTEX
  8
T33SSILL
 62
13
 10
2345.507
 20
-5098.529
 30
1883.151
 70
    32
  0
VERTEX
  8
T33SSILL
 62
13
 10
2384.334
 20
-5070.446
 30
1883.131
 70
    32
  0
VERTEX
  8
T33SSILL
 62
13
 10
2401.163
 20
-5094.041
 30
1883.116
 70
    32
  0
VERTEX
  8
T33SSILL
 62
13
 10
2404.018
 20
-5111.816
 30
1883.111
 70
    32
  0
VERTEX
  8
T33SSILL
 62
13
 10
2404.494
 20
-5123.802
 30
1883.108
 70
    32
  0
VERTEX
  8
T33SSILL
 62
13
 10
2424.930
 20
-5152.179
 30
1883.089
 70
    32
  0
VERTEX
  8
T33SSILL
 62
13
 10
2440.113
 20
-5168.902
 30
1883.076
 70
    32
  0
VERTEX
  8
T33SSILL
 62
13
 10
2447.338
 20
-5179.223
 30
1883.070
 70
    32
  0
VERTEX
  8
T33SSILL
 62
13
 10
2459.843
 20
-5172.148
 30
1883.063
 70
    32
  0
VERTEX
  8
T33SSILL
 62
13
 10
2442.678
 20
-5144.214
 30
1883.080
 70
    32
  0
VERTEX
  8
T33SSILL
 62
13
 10
2436.248
 20
-5138.113
 30
1883.085
 70
    32
  0
VERTEX
  8
T33SSILL
 62
13
 10
2427.987
 20
-5118.618
 30
1883.094
 70
    32
  0
VERTEX
  8
T33SSILL
 62
13
 10
2424.203
 20
-5095.846
 30
1883.091
 70
    32
  0
VERTEX
  8
T33SSILL
 62
13
 10
2425.049
 20
-5088.351
 30
1883.066
 70
    32
  0
VERTEX
  8
T33SSILL
 62
13
 10
2410.849
 20
-5051.044
 30
1883.019
 70
    32
  0
VERTEX
  8
T33SSILL
 62
13
 10
2418.721
 20
-5045.394
 30
1882.972
 70
    32
  0
VERTEX
  8
T33SSILL
 62
13
 10
2423.912
 20
-5039.958
 30
1882.936
 70
    32
  0
VERTEX
  8
T33SSILL
 62
13
 10
2426.887
 20
-5034.179
 30
1882.909
 70
    32
  0
VERTEX
  8
T33SSILL
 62
13
 10
2429.448
 20
-5021.718
 30
1882.875
 70
    32
  0
VERTEX
  8
T33SSILL
 62
13
 10
2529.597
 20
-5161.273
 30
1882.855
 70
    32
  0
VERTEX
  8
T33SSILL
 62
13
 10
2532.621
 20
-5167.792
 30
1882.862
 70
    32
  0
VERTEX
  8
T33SSILL
 62
13
 10
2534.326
 20
-5177.132
 30
1882.881
 70
    32
  0
VERTEX
  8
T33SSILL
 62
13
 10
2532.654
 20
-5185.886
 30
1882.912
 70
    32
  0
VERTEX
  8
T33SSILL
 62
13
 10
2530.600
 20
-5189.790
 30
1882.931
 70
    32
  0
VERTEX
  8
T33SSILL
 62
13
 10
2522.114
 20
-5198.182
 30
1882.988
 70
    32
  0
VERTEX
  8
T33SSILL
 62
13
 10
2491.011
 20
-5220.275
 30
1883.034
 70
    32
  0
VERTEX
  8
T33SSILL
 62
13
 10
2484.083
 20
-5212.585
 30
1883.040
 70
    32
  0
VERTEX
  8
T33SSILL
 62
13
 10
2466.830
 20
-5210.038
 30
1883.051
 70
    32
  0
VERTEX
  8
T33SSILL
 62
13
 10
2459.763
 20
-5202.767
 30
1883.057
 70
    32
  0
VERTEX
  8
T33SSILL
 62
13
 10
2454.142
 20
-5202.841
 30
1883.061
 70
    32
  0
VERTEX
  8
T33SSILL
 62
13
 10
2451.304
 20
-5208.957
 30
1883.061
 70
    32
  0
VERTEX
  8
T33SSILL
 62
13
 10
2470.775
 20
-5228.108
 30
1883.045
 70
    32
  0
VERTEX
  8
T33SSILL
 62
13
 10
2472.555
 20
-5233.384
 30
1883.043
 70
    32
  0
VERTEX
  8
T33SSILL
 62
13
 10
2440.599
 20
-5256.082
 30
1883.059
 70
    32
  0
VERTEX
  8
T33SSILL
 62
13
 10
2437.286
 20
-5254.686
 30
1883.061
 70
    32
  0
VERTEX
  8
T33SSILL
 62
13
 10
2432.119
 20
-5241.658
 30
1883.067
 70
    32
  0
VERTEX
  8
T33SSILL
 62
13
 10
2414.240
 20
-5221.997
 30
1883.082
 70
    32
  0
VERTEX
  8
T33SSILL
 62
13
 10
2405.162
 20
-5204.518
 30
1883.092
 70
    32
  0
VERTEX
  8
T33SSILL
 62
13
 10
2395.156
 20
-5204.418
 30
1883.098
 70
    32
  0
VERTEX
  8
T33SSILL
 62
13
 10
2390.400
 20
-5201.349
 30
1883.102
 70
    32
  0
VERTEX
  8
T33SSILL
 62
13
 10
2384.621
 20
-5211.799
 30
1883.103
 70
    32
  0
VERTEX
  8
T33SSILL
 62
13
 10
2385.179
 20
-5216.738
 30
1883.102
 70
    32
  0
VERTEX
  8
T33SSILL
 62
13
 10
2406.076
 20
-5240.523
 30
1883.084
 70
    32
  0
VERTEX
  8
T33SSILL
 62
13
 10
2406.594
 20
-5256.297
 30
1883.081
 70
    32
  0
VERTEX
  8
T33SSILL
 62
13
 10
2414.402
 20
-5275.470
 30
1883.072
 70
    32
  0
VERTEX
  8
T33SSILL
 62
13
 10
2402.374
 20
-5283.943
 30
1883.078
 70
    32
  0
VERTEX
  8
T33SSILL
 62
13
 10
2406.275
 20
-5289.274
 30
1883.074
 70
    32
  0
VERTEX
  8
T33SSILL
 62
13
 10
2423.060
 20
-5277.756
 30
1883.066
 70
    32
  0
VERTEX
  8
T33SSILL
 62
13
 10
2453.739
 20
-5320.578
 30
1883.038
 70
    32
  0
VERTEX
  8
T33SSILL
 62
13
 10
2445.266
 20
-5326.450
 30
1883.047
 70
    32
  0
VERTEX
  8
T33SSILL
 62
13
 10
2450.653
 20
-5332.768
 30
1883.047
 70
    32
  0
VERTEX
  8
T33SSILL
 62
13
 10
2453.947
 20
-5338.762
 30
1883.050
 70
    32
  0
VERTEX
  8
T33SSILL
 62
13
 10
2461.585
 20
-5357.404
 30
1883.061
 70
    32
  0
VERTEX
  8
T33SSILL
 62
13
 10
2469.957
 20
-5366.013
 30
1883.060
 70
    32
  0
VERTEX
  8
T33SSILL
 62
13
 10
2475.277
 20
-5373.581
 30
1883.061
 70
    32
  0
VERTEX
  8
T33SSILL
 62
13
 10
2481.229
 20
-5387.234
 30
1883.069
 70
    32
  0
VERTEX
  8
T33SSILL
 62
13
 10
2497.754
 20
-5411.161
 30
1883.074
 70
    32
  0
VERTEX
  8
T33SSILL
 62
13
 10
2512.193
 20
-5401.360
 30
1883.045
 70
    32
  0
VERTEX
  8
T33SSILL
 62
13
 10
2509.471
 20
-5391.673
 30
1883.038
 70
    32
  0
VERTEX
  8
T33SSILL
 62
13
 10
2515.475
 20
-5383.023
 30
1883.021
 70
    32
  0
VERTEX
  8
T33SSILL
 62
13
 10
2480.859
 20
-5329.002
 30
1883.019
 70
    32
  0
VERTEX
  8
T33SSILL
 62
13
 10
2465.428
 20
-5318.355
 30
1883.031
 70
    32
  0
VERTEX
  8
T33SSILL
 62
13
 10
2460.977
 20
-5317.792
 30
1883.034
 70
    32
  0
VERTEX
  8
T33SSILL
 62
13
 10
2443.303
 20
-5292.742
 30
1883.050
 70
    32
  0
VERTEX
  8
T33SSILL
 62
13
 10
2445.863
 20
-5275.806
 30
1883.052
 70
    32
  0
VERTEX
  8
T33SSILL
 62
13
 10
2450.576
 20
-5266.136
 30
1883.050
 70
    32
  0
VERTEX
  8
T33SSILL
 62
13
 10
2447.115
 20
-5260.810
 30
1883.054
 70
    32
  0
VERTEX
  8
T33SSILL
 62
13
 10
2475.437
 20
-5240.148
 30
1883.040
 70
    32
  0
VERTEX
  8
T33SSILL
 62
13
 10
2498.098
 20
-5264.107
 30
1883.021
 70
    32
  0
VERTEX
  8
T33SSILL
 62
13
 10
2510.684
 20
-5269.524
 30
1883.011
 70
    32
  0
VERTEX
  8
T33SSILL
 62
13
 10
2513.952
 20
-5268.769
 30
1883.009
 70
    32
  0
VERTEX
  8
T33SSILL
 62
13
 10
2517.727
 20
-5272.884
 30
1883.006
 70
    32
  0
VERTEX
  8
T33SSILL
 62
13
 10
2526.096
 20
-5266.869
 30
1883.002
 70
    32
  0
VERTEX
  8
T33SSILL
 62
13
 10
2523.244
 20
-5263.717
 30
1883.005
 70
    32
  0
VERTEX
  8
T33SSILL
 62
13
 10
2525.244
 20
-5252.430
 30
1883.005
 70
    32
  0
VERTEX
  8
T33SSILL
 62
13
 10
2504.418
 20
-5239.182
 30
1883.021
 70
    32
  0
VERTEX
  8
T33SSILL
 62
13
 10
2495.647
 20
-5225.405
 30
1883.030
 70
    32
  0
VERTEX
  8
T33SSILL
 62
13
 10
2532.966
 20
-5198.594
 30
1882.946
 70
    32
  0
VERTEX
  8
T33SSILL
 62
13
 10
2539.229
 20
-5190.292
 30
1882.898
 70
    32
  0
VERTEX
  8
T33SSILL
 62
13
 10
2542.163
 20
-5177.000
 30
1882.852
 70
    32
  0
VERTEX
  8
T33SSILL
 62
13
 10
2596.088
 20
-5251.653
 30
1882.843
 70
    32
  0
VERTEX
  8
T33SSILL
 62
13
 10
2591.965
 20
-5264.069
 30
1882.894
 70
    32
  0
VERTEX
  8
T33SSILL
 62
13
 10
2561.576
 20
-5286.112
 30
1882.976
 70
    32
  0
VERTEX
  8
T33SSILL
 62
13
 10
2566.519
 20
-5292.324
 30
1882.971
 70
    32
  0
VERTEX
  8
T33SSILL
 62
13
 10
2605.131
 20
-5264.146
 30
1882.842
 70
    32
  0
VERTEX
  8
T33SSILL
 62
13
 10
2650.921
 20
-5328.591
 30
1882.840
 70
    32
  0
VERTEX
  8
T33SSILL
 62
13
 10
2650.645
 20
-5340.591
 30
1882.875
 70
    32
  0
VERTEX
  8
T33SSILL
 62
13
 10
2531.257
 20
-5426.805
 30
1883.049
 70
    32
  0
VERTEX
  8
T33SSILL
 62
13
 10
2534.732
 20
-5431.843
 30
1883.050
 70
    32
  0
VERTEX
  8
T33SSILL
 62
13
 10
2579.435
 20
-5530.294
 30
1883.102
 70
    32
  0
VERTEX
  8
T33SSILL
 62
13
 10
2586.349
 20
-5526.758
 30
1883.089
 70
    32
  0
VERTEX
  8
T33SSILL
 62
13
 10
2584.023
 20
-5521.036
 30
1883.086
 70
    32
  0
VERTEX
  8
T33SSILL
 62
13
 10
2592.469
 20
-5520.199
 30
1883.074
 70
    32
  0
VERTEX
  8
T33SSILL
 62
13
 10
2603.575
 20
-5526.264
 30
1883.067
 70
    32
  0
VERTEX
  8
T33SSILL
 62
13
 10
2610.413
 20
-5534.255
 30
1883.067
 70
    32
  0
VERTEX
  8
T33SSILL
 62
13
 10
2617.271
 20
-5546.600
 30
1883.072
 70
    32
  0
VERTEX
  8
T33SSILL
 62
13
 10
2623.573
 20
-5555.202
 30
1883.073
 70
    32
  0
VERTEX
  8
T33SSILL
 62
13
 10
2632.306
 20
-5560.712
 30
1883.068
 70
    32
  0
VERTEX
  8
T33SSILL
 62
13
 10
2642.324
 20
-5566.482
 30
1883.062
 70
    32
  0
VERTEX
  8
T33SSILL
 62
13
 10
2647.857
 20
-5566.580
 30
1883.055
 70
    32
  0
VERTEX
  8
T33SSILL
 62
13
 10
2654.482
 20
-5562.054
 30
1883.042
 70
    32
  0
VERTEX
  8
T33SSILL
 62
13
 10
2656.664
 20
-5557.725
 30
1883.034
 70
    32
  0
VERTEX
  8
T33SSILL
 62
13
 10
2654.179
 20
-5543.596
 30
1883.022
 70
    32
  0
VERTEX
  8
T33SSILL
 62
13
 10
2646.443
 20
-5523.045
 30
1883.009
 70
    32
  0
VERTEX
  8
T33SSILL
 62
13
 10
2635.301
 20
-5502.914
 30
1883.001
 70
    32
  0
VERTEX
  8
T33SSILL
 62
13
 10
2629.288
 20
-5495.302
 30
1883.000
 70
    32
  0
VERTEX
  8
T33SSILL
 62
13
 10
2616.658
 20
-5483.580
 30
1883.003
 70
    32
  0
VERTEX
  8
T33SSILL
 62
13
 10
2605.207
 20
-5484.650
 30
1883.019
 70
    32
  0
VERTEX
  8
T33SSILL
 62
13
 10
2594.448
 20
-5491.022
 30
1883.040
 70
    32
  0
VERTEX
  8
T33SSILL
 62
13
 10
2593.431
 20
-5489.453
 30
1883.039
 70
    32
  0
VERTEX
  8
T33SSILL
 62
13
 10
2567.978
 20
-5484.830
 30
1883.066
 70
    32
  0
VERTEX
  8
T33SSILL
 62
13
 10
2545.451
 20
-5436.334
 30
1883.041
 70
    32
  0
VERTEX
  8
T33SSILL
 62
13
 10
2548.485
 20
-5421.986
 30
1883.022
 70
    32
  0
VERTEX
  8
T33SSILL
 62
13
 10
2660.561
 20
-5341.302
 30
1882.837
 70
    32
  0
VERTEX
  8
T33SSILL
 62
13
 10
2761.682
 20
-5482.320
 30
1882.817
 70
    32
  0
VERTEX
  8
T33SSILL
 62
13
 10
2760.591
 20
-5494.699
 30
1882.832
 70
    32
  0
VERTEX
  8
T33SSILL
 62
13
 10
2737.575
 20
-5510.534
 30
1882.879
 70
    32
  0
VERTEX
  8
T33SSILL
 62
13
 10
2727.853
 20
-5496.528
 30
1882.876
 70
    32
  0
VERTEX
  8
T33SSILL
 62
13
 10
2701.651
 20
-5510.375
 30
1882.925
 70
    32
  0
VERTEX
  8
T33SSILL
 62
13
 10
2699.794
 20
-5517.102
 30
1882.934
 70
    32
  0
VERTEX
  8
T33SSILL
 62
13
 10
2708.699
 20
-5531.488
 30
1882.939
 70
    32
  0
VERTEX
  8
T33SSILL
 62
13
 10
2657.116
 20
-5568.217
 30
1883.045
 70
    32
  0
VERTEX
  8
T33SSILL
 62
13
 10
2645.693
 20
-5567.722
 30
1883.059
 70
    32
  0
VERTEX
  8
T33SSILL
 62
13
 10
2640.167
 20
-5572.432
 30
1883.071
 70
    32
  0
VERTEX
  8
T33SSILL
 62
13
 10
2639.364
 20
-5581.343
 30
1883.082
 70
    32
  0
VERTEX
  8
T33SSILL
 62
13
 10
2628.900
 20
-5588.577
 30
1883.103
 70
    32
  0
VERTEX
  8
T33SSILL
 62
13
 10
2633.471
 20
-5595.409
 30
1883.105
 70
    32
  0
VERTEX
  8
T33SSILL
 62
13
 10
2640.289
 20
-5590.520
 30
1883.091
 70
    32
  0
VERTEX
  8
T33SSILL
 62
13
 10
2643.066
 20
-5591.768
 30
1883.089
 70
    32
  0
VERTEX
  8
T33SSILL
 62
13
 10
2644.666
 20
-5594.099
 30
1883.090
 70
    32
  0
VERTEX
  8
T33SSILL
 62
13
 10
2652.000
 20
-5608.433
 30
1883.096
 70
    32
  0
VERTEX
  8
T33SSILL
 62
13
 10
2650.908
 20
-5611.424
 30
1883.101
 70
    32
  0
VERTEX
  8
T33SSILL
 62
13
 10
2643.582
 20
-5614.276
 30
1883.113
 70
    32
  0
VERTEX
  8
T33SSILL
 62
13
 10
2644.227
 20
-5624.863
 30
1883.124
 70
    32
  0
VERTEX
  8
T33SSILL
 62
13
 10
2654.960
 20
-5646.669
 30
1883.134
 70
    32
  0
VERTEX
  8
T33SSILL
 62
13
 10
2663.895
 20
-5656.763
 30
1883.134
 70
    32
  0
VERTEX
  8
T33SSILL
 62
13
 10
2675.236
 20
-5659.835
 30
1883.123
 70
    32
  0
VERTEX
  8
T33SSILL
 62
13
 10
2682.120
 20
-5671.762
 30
1883.128
 70
    32
  0
VERTEX
  8
T33SSILL
 62
13
 10
2688.486
 20
-5669.393
 30
1883.117
 70
    32
  0
VERTEX
  8
T33SSILL
 62
13
 10
2695.888
 20
-5662.761
 30
1883.100
 70
    32
  0
VERTEX
  8
T33SSILL
 62
13
 10
2694.920
 20
-5659.200
 30
1883.098
 70
    32
  0
VERTEX
  8
T33SSILL
 62
13
 10
2697.626
 20
-5657.216
 30
1883.092
 70
    32
  0
VERTEX
  8
T33SSILL
 62
13
 10
2698.542
 20
-5654.135
 30
1883.087
 70
    32
  0
VERTEX
  8
T33SSILL
 62
13
 10
2697.090
 20
-5649.615
 30
1883.084
 70
    32
  0
VERTEX
  8
T33SSILL
 62
13
 10
2694.161
 20
-5646.069
 30
1883.084
 70
    32
  0
VERTEX
  8
T33SSILL
 62
13
 10
2683.270
 20
-5650.331
 30
1883.103
 70
    32
  0
VERTEX
  8
T33SSILL
 62
13
 10
2670.733
 20
-5627.111
 30
1883.093
 70
    32
  0
VERTEX
  8
T33SSILL
 62
13
 10
2673.696
 20
-5617.711
 30
1883.079
 70
    32
  0
VERTEX
  8
T33SSILL
 62
13
 10
2660.257
 20
-5594.604
 30
1883.070
 70
    32
  0
VERTEX
  8
T33SSILL
 62
13
 10
2658.856
 20
-5595.083
 30
1883.073
 70
    32
  0
VERTEX
  8
T33SSILL
 62
13
 10
2661.715
 20
-5582.255
 30
1883.055
 70
    32
  0
VERTEX
  8
T33SSILL
 62
13
 10
2662.157
 20
-5574.047
 30
1883.045
 70
    32
  0
VERTEX
  8
T33SSILL
 62
13
 10
2713.010
 20
-5537.964
 30
1882.941
 70
    32
  0
VERTEX
  8
T33SSILL
 62
13
 10
2725.875
 20
-5545.504
 30
1882.933
 70
    32
  0
VERTEX
  8
T33SSILL
 62
13
 10
2737.849
 20
-5542.418
 30
1882.914
 70
    32
  0
VERTEX
  8
T33SSILL
 62
13
 10
2745.345
 20
-5538.455
 30
1882.900
 70
    32
  0
VERTEX
  8
T33SSILL
 62
13
 10
2753.592
 20
-5532.079
 30
1882.883
 70
    32
  0
VERTEX
  8
T33SSILL
 62
13
 10
2742.788
 20
-5516.896
 30
1882.880
 70
    32
  0
VERTEX
  8
T33SSILL
 62
13
 10
2771.060
 20
-5496.165
 30
1882.825
 70
    32
  0
VERTEX
  8
T33SSILL
 62
13
 10
2876.100
 20
-5641.659
 30
1882.957
 70
    32
  0
VERTEX
  8
T33SSILL
 62
13
 10
2875.388
 20
-5647.109
 30
1882.961
 70
    32
  0
VERTEX
  8
T33SSILL
 62
13
 10
2853.400
 20
-5662.830
 30
1882.941
 70
    32
  0
VERTEX
  8
T33SSILL
 62
13
 10
2845.160
 20
-5660.842
 30
1882.945
 70
    32
  0
VERTEX
  8
T33SSILL
 62
13
 10
2840.621
 20
-5662.418
 30
1882.950
 70
    32
  0
VERTEX
  8
T33SSILL
 62
13
 10
2841.187
 20
-5671.561
 30
1882.959
 70
    32
  0
VERTEX
  8
T33SSILL
 62
13
 10
2827.057
 20
-5681.663
 30
1882.980
 70
    32
  0
VERTEX
  8
T33SSILL
 62
13
 10
2823.877
 20
-5677.214
 30
1882.978
 70
    32
  0
VERTEX
  8
T33SSILL
 62
13
 10
2819.038
 20
-5680.763
 30
1882.985
 70
    32
  0
VERTEX
  8
T33SSILL
 62
13
 10
2822.176
 20
-5685.153
 30
1882.988
 70
    32
  0
VERTEX
  8
T33SSILL
 62
13
 10
2749.518
 20
-5737.100
 30
1883.114
 70
    32
  0
VERTEX
  8
T33SSILL
 62
13
 10
2746.559
 20
-5733.360
 30
1883.114
 70
    32
  0
VERTEX
  8
T33SSILL
 62
13
 10
2740.506
 20
-5737.798
 30
1883.126
 70
    32
  0
VERTEX
  8
T33SSILL
 62
13
 10
2743.504
 20
-5741.399
 30
1883.127
 70
    32
  0
VERTEX
  8
T33SSILL
 62
13
 10
2606.121
 20
-5839.620
 30
1883.410
 70
    32
  0
VERTEX
  8
T33SSILL
 62
13
 10
2601.250
 20
-5839.250
 30
1883.415
 70
    32
  0
VERTEX
  8
T33SSILL
 62
13
 10
2592.833
 20
-5843.451
 30
1883.431
 70
    32
  0
VERTEX
  8
T33SSILL
 62
13
 10
2588.441
 20
-5847.766
 30
1883.441
 70
    32
  0
VERTEX
  8
T33SSILL
 62
13
 10
2585.416
 20
-5854.693
 30
1883.453
 70
    32
  0
VERTEX
  8
T33SSILL
 62
13
 10
2595.594
 20
-5867.379
 30
1883.454
 70
    32
  0
VERTEX
  8
T33SSILL
 62
13
 10
2607.700
 20
-5876.570
 30
1883.448
 70
    32
  0
VERTEX
  8
T33SSILL
 62
13
 10
2623.142
 20
-5897.332
 30
1883.452
 70
    32
  0
VERTEX
  8
T33SSILL
 62
13
 10
2626.461
 20
-5904.098
 30
1883.455
 70
    32
  0
VERTEX
  8
T33SSILL
 62
13
 10
2636.752
 20
-5917.686
 30
1883.457
 70
    32
  0
VERTEX
  8
T33SSILL
 62
13
 10
2640.664
 20
-5920.183
 30
1883.455
 70
    32
  0
VERTEX
  8
T33SSILL
 62
13
 10
2661.979
 20
-5949.999
 30
1883.460
 70
    32
  0
VERTEX
  8
T33SSILL
 62
13
 10
2699.970
 20
-6009.386
 30
1883.478
 70
    32
  0
VERTEX
  8
T33SSILL
 62
13
 10
2698.751
 20
-6012.337
 30
1883.483
 70
    32
  0
VERTEX
  8
T33SSILL
 62
13
 10
2714.921
 20
-6050.203
 30
1883.504
 70
    32
  0
VERTEX
  8
T33SSILL
 62
13
 10
2715.913
 20
-6057.084
 30
1883.510
 70
    32
  0
VERTEX
  8
T33SSILL
 62
13
 10
2732.956
 20
-6076.609
 30
1883.510
 70
    32
  0
VERTEX
  8
T33SSILL
 62
13
 10
2740.341
 20
-6076.011
 30
1883.500
 70
    32
  0
VERTEX
  8
T33SSILL
 62
13
 10
2749.544
 20
-6082.235
 30
1883.495
 70
    32
  0
VERTEX
  8
T33SSILL
 62
13
 10
2831.115
 20
-6208.286
 30
1883.565
 70
    32
  0
VERTEX
  8
T33SSILL
 62
13
 10
2832.860
 20
-6222.301
 30
1883.562
 70
    32
  0
VERTEX
  8
T33SSILL
 62
13
 10
2831.507
 20
-6226.111
 30
1883.572
 70
    32
  0
VERTEX
  8
T33SSILL
 62
13
 10
2853.220
 20
-6260.701
 30
1883.653
 70
    32
  0
VERTEX
  8
T33SSILL
 62
13
 10
2863.475
 20
-6287.015
 30
1883.691
 70
    32
  0
VERTEX
  8
T33SSILL
 62
13
 10
2869.973
 20
-6292.060
 30
1883.731
 70
    32
  0
VERTEX
  8
T33SSILL
 62
13
 10
2878.129
 20
-6306.542
 30
1883.770
 70
    32
  0
VERTEX
  8
T33SSILL
 62
13
 10
2905.892
 20
-6323.839
 30
1883.802
 70
    32
  0
VERTEX
  8
T33SSILL
 62
13
 10
2914.236
 20
-6336.733
 30
1883.828
 70
    32
  0
VERTEX
  8
T33SSILL
 62
13
 10
2818.452
 20
-6412.242
 30
1883.947
 70
    32
  0
VERTEX
  8
T33SSILL
 62
13
 10
2823.840
 20
-6418.746
 30
1883.948
 70
    32
  0
VERTEX
  8
T33SSILL
 62
13
 10
2869.567
 20
-6382.465
 30
1883.786
 70
    32
  0
VERTEX
  8
T33SSILL
 62
13
 10
2873.622
 20
-6388.360
 30
1883.788
 70
    32
  0
VERTEX
  8
T33SSILL
 62
13
 10
2879.784
 20
-6383.546
 30
1883.766
 70
    32
  0
VERTEX
  8
T33SSILL
 62
13
 10
2875.503
 20
-6377.755
 30
1883.764
 70
    32
  0
VERTEX
  8
T33SSILL
 62
13
 10
2918.779
 20
-6343.418
 30
1883.842
 70
    32
  0
VERTEX
  8
T33SSILL
 62
13
 10
2938.729
 20
-6374.006
 30
1883.903
 70
    32
  0
VERTEX
  8
T33SSILL
 62
13
 10
2940.303
 20
-6385.207
 30
1883.933
 70
    32
  0
VERTEX
  8
T33SSILL
 62
13
 10
2948.151
 20
-6402.846
 30
1883.974
 70
    32
  0
VERTEX
  8
T33SSILL
 62
13
 10
2960.723
 20
-6418.022
 30
1884.001
 70
    32
  0
VERTEX
  8
T33SSILL
 62
13
 10
2964.138
 20
-6427.484
 30
1884.023
 70
    32
  0
VERTEX
  8
T33SSILL
 62
13
 10
2963.676
 20
-6431.623
 30
1884.036
 70
    32
  0
VERTEX
  8
T33SSILL
 62
13
 10
2957.481
 20
-6447.430
 30
1884.089
 70
    32
  0
VERTEX
  8
T33SSILL
 62
13
 10
2947.158
 20
-6457.121
 30
1884.061
 70
    32
  0
VERTEX
  8
T33SSILL
 62
13
 10
2944.547
 20
-6462.933
 30
1884.034
 70
    32
  0
VERTEX
  8
T33SSILL
 62
13
 10
2944.985
 20
-6482.926
 30
1884.011
 70
    32
  0
VERTEX
  8
T33SSILL
 62
13
 10
2958.485
 20
-6494.603
 30
1884.092
 70
    32
  0
VERTEX
  8
T33SSILL
 62
13
 10
2964.310
 20
-6496.336
 30
1884.131
 70
    32
  0
VERTEX
  8
T33SSILL
 62
13
 10
3001.293
 20
-6492.975
 30
1884.166
 70
    32
  0
VERTEX
  8
T33SSILL
 62
13
 10
3013.813
 20
-6495.698
 30
1884.164
 70
    32
  0
VERTEX
  8
T33SSILL
 62
13
 10
3017.492
 20
-6494.769
 30
1884.164
 70
    32
  0
VERTEX
  8
T33SSILL
 62
13
 10
3063.262
 20
-6564.945
 30
1884.387
 70
    32
  0
VERTEX
  8
T33SSILL
 62
13
 10
3065.339
 20
-6572.123
 30
1884.404
 70
    32
  0
VERTEX
  8
T33SSILL
 62
13
 10
3065.080
 20
-6580.568
 30
1884.417
 70
    32
  0
VERTEX
  8
T33SSILL
 62
13
 10
3062.521
 20
-6587.645
 30
1884.423
 70
    32
  0
VERTEX
  8
T33SSILL
 62
13
 10
3057.193
 20
-6594.349
 30
1884.421
 70
    32
  0
VERTEX
  8
T33SSILL
 62
13
 10
2948.389
 20
-6672.713
 30
1884.166
 70
    32
  0
VERTEX
  8
T33SSILL
 62
13
 10
2952.266
 20
-6678.037
 30
1884.168
 70
    32
  0
VERTEX
  8
T33SSILL
 62
13
 10
2962.163
 20
-6670.901
 30
1884.134
 70
    32
  0
VERTEX
  8
T33SSILL
 62
13
 10
2963.535
 20
-6673.524
 30
1884.136
 70
    32
  0
VERTEX
  8
T33SSILL
 62
13
 10
2970.511
 20
-6668.335
 30
1884.112
 70
    32
  0
VERTEX
  8
T33SSILL
 62
13
 10
2968.925
 20
-6666.026
 30
1884.111
 70
    32
  0
VERTEX
  8
T33SSILL
 62
13
 10
3060.960
 20
-6599.970
 30
1884.439
 70
    32
  0
VERTEX
  8
T33SSILL
 62
13
 10
3065.412
 20
-6595.642
 30
1884.443
 70
    32
  0
VERTEX
  8
T33SSILL
 62
13
 10
3066.663
 20
-6592.884
 30
1884.441
 70
    32
  0
VERTEX
  8
T33SSILL
 62
13
 10
3071.349
 20
-6591.861
 30
1884.451
 70
    32
  0
VERTEX
  8
T33SSILL
 62
13
 10
3075.813
 20
-6586.655
 30
1884.453
 70
    32
  0
VERTEX
  8
T33SSILL
 62
13
 10
3094.244
 20
-6814.381
 30
1884.633
 70
    32
  0
VERTEX
  8
T33SSILL
 62
13
 10
3101.357
 20
-6813.111
 30
1884.685
 70
    32
  0
VERTEX
  8
T33SSILL
 62
13
 10
3083.369
 20
-6580.175
 30
1884.460
 70
    32
  0
VERTEX
  8
T33SSILL
 62
13
 10
3024.307
 20
-6490.120
 30
1884.172
 70
    32
  0
VERTEX
  8
T33SSILL
 62
13
 10
3031.637
 20
-6484.674
 30
1884.180
 70
    32
  0
VERTEX
  8
T33SSILL
 62
13
 10
3029.567
 20
-6478.251
 30
1884.165
 70
    32
  0
VERTEX
  8
T33SSILL
 62
13
 10
3024.953
 20
-6470.423
 30
1884.141
 70
    32
  0
VERTEX
  8
T33SSILL
 62
13
 10
3016.515
 20
-6459.731
 30
1884.106
 70
    32
  0
VERTEX
  8
T33SSILL
 62
13
 10
3005.749
 20
-6453.450
 30
1884.081
 70
    32
  0
VERTEX
  8
T33SSILL
 62
13
 10
2993.495
 20
-6441.843
 30
1884.049
 70
    32
  0
VERTEX
  8
T33SSILL
 62
13
 10
2991.103
 20
-6435.873
 30
1884.038
 70
    32
  0
VERTEX
  8
T33SSILL
 62
13
 10
2990.325
 20
-6421.232
 30
1884.020
 70
    32
  0
VERTEX
  8
T33SSILL
 62
13
 10
2963.972
 20
-6378.181
 30
1883.930
 70
    32
  0
VERTEX
  8
T33SSILL
 62
13
 10
2959.819
 20
-6375.014
 30
1883.919
 70
    32
  0
VERTEX
  8
T33SSILL
 62
13
 10
2955.693
 20
-6373.673
 30
1883.912
 70
    32
  0
VERTEX
  8
T33SSILL
 62
13
 10
2949.653
 20
-6368.512
 30
1883.897
 70
    32
  0
VERTEX
  8
T33SSILL
 62
13
 10
2945.684
 20
-6370.968
 30
1883.895
 70
    32
  0
VERTEX
  8
T33SSILL
 62
13
 10
2929.976
 20
-6347.756
 30
1883.848
 70
    32
  0
VERTEX
  8
T33SSILL
 62
13
 10
2928.958
 20
-6340.242
 30
1883.838
 70
    32
  0
VERTEX
  8
T33SSILL
 62
13
 10
2931.162
 20
-6334.618
 30
1883.834
 70
    32
  0
VERTEX
  8
T33SSILL
 62
13
 10
2934.652
 20
-6330.012
 30
1883.833
 70
    32
  0
VERTEX
  8
T33SSILL
 62
13
 10
3159.457
 20
-6152.292
 30
1884.027
 70
    32
  0
VERTEX
  8
T33SSILL
 62
13
 10
3213.088
 20
-6114.214
 30
1884.020
 70
    32
  0
VERTEX
  8
T33SSILL
 62
13
 10
3332.237
 20
-6280.217
 30
1884.460
 70
    32
  0
VERTEX
  8
T33SSILL
 62
13
 10
3340.006
 20
-6294.764
 30
1884.456
 70
    32
  0
VERTEX
  8
T33SSILL
 62
13
 10
3339.610
 20
-6300.484
 30
1884.457
 70
    32
  0
VERTEX
  8
T33SSILL
 62
13
 10
3338.069
 20
-6303.887
 30
1884.459
 70
    32
  0
VERTEX
  8
T33SSILL
 62
13
 10
3333.546
 20
-6308.267
 30
1884.463
 70
    32
  0
VERTEX
  8
T33SSILL
 62
13
 10
3299.849
 20
-6332.698
 30
1884.494
 70
    32
  0
VERTEX
  8
T33SSILL
 62
13
 10
3284.972
 20
-6328.975
 30
1884.505
 70
    32
  0
VERTEX
  8
T33SSILL
 62
13
 10
3281.653
 20
-6338.887
 30
1884.509
 70
    32
  0
VERTEX
  8
T33SSILL
 62
13
 10
3288.504
 20
-6341.285
 30
1884.504
 70
    32
  0
VERTEX
  8
T33SSILL
 62
13
 10
3273.927
 20
-6351.249
 30
1884.517
 70
    32
  0
VERTEX
  8
T33SSILL
 62
13
 10
3278.508
 20
-6357.689
 30
1884.515
 70
    32
  0
VERTEX
  8
T33SSILL
 62
13
 10
3298.500
 20
-6343.674
 30
1884.497
 70
    32
  0
VERTEX
  8
T33SSILL
 62
13
 10
3306.294
 20
-6346.471
 30
1884.491
 70
    32
  0
VERTEX
  8
T33SSILL
 62
13
 10
3309.328
 20
-6335.571
 30
1884.487
 70
    32
  0
VERTEX
  8
T33SSILL
 62
13
 10
3350.595
 20
-6306.171
 30
1884.450
 70
    32
  0
VERTEX
  8
T33SSILL
 62
13
 10
3438.748
 20
-6429.462
 30
1884.398
 70
    32
  0
VERTEX
  8
T33SSILL
 62
13
 10
3445.686
 20
-6425.714
 30
1884.392
 70
    32
  0
VERTEX
  8
T33SSILL
 62
13
 10
3315.342
 20
-6243.665
 30
1884.453
 70
    32
  0
VERTEX
  8
T33SSILL
 62
13
 10
3343.492
 20
-6221.836
 30
1884.443
 70
    32
  0
VERTEX
  8
T33SSILL
 62
13
 10
3350.978
 20
-6221.595
 30
1884.437
 70
    32
  0
VERTEX
  8
T33SSILL
 62
13
 10
3353.546
 20
-6225.052
 30
1884.435
 70
    32
  0
VERTEX
  8
T33SSILL
 62
13
 10
3380.397
 20
-6205.390
 30
1884.411
 70
    32
  0
VERTEX
  8
T33SSILL
 62
13
 10
3400.003
 20
-6226.198
 30
1884.398
 70
    32
  0
VERTEX
  8
T33SSILL
 62
13
 10
3406.081
 20
-6219.925
 30
1884.392
 70
    32
  0
VERTEX
  8
T33SSILL
 62
13
 10
3336.074
 20
-6147.508
 30
1884.344
 70
    32
  0
VERTEX
  8
T33SSILL
 62
13
 10
3330.665
 20
-6138.738
 30
1884.317
 70
    32
  0
VERTEX
  8
T33SSILL
 62
13
 10
3328.485
 20
-6131.419
 30
1884.299
 70
    32
  0
VERTEX
  8
T33SSILL
 62
13
 10
3325.332
 20
-6128.283
 30
1884.287
 70
    32
  0
VERTEX
  8
T33SSILL
 62
13
 10
3319.202
 20
-6132.096
 30
1884.279
 70
    32
  0
VERTEX
  8
T33SSILL
 62
13
 10
3320.494
 20
-6143.864
 30
1884.301
 70
    32
  0
VERTEX
  8
T33SSILL
 62
13
 10
3285.570
 20
-6169.296
 30
1884.260
 70
    32
  0
VERTEX
  8
T33SSILL
 62
13
 10
3278.043
 20
-6169.998
 30
1884.244
 70
    32
  0
VERTEX
  8
T33SSILL
 62
13
 10
3269.960
 20
-6169.041
 30
1884.223
 70
    32
  0
VERTEX
  8
T33SSILL
 62
13
 10
3261.694
 20
-6166.044
 30
1884.199
 70
    32
  0
VERTEX
  8
T33SSILL
 62
13
 10
3256.592
 20
-6161.722
 30
1884.180
 70
    32
  0
VERTEX
  8
T33SSILL
 62
13
 10
3111.761
 20
-5959.134
 30
1883.814
 70
    32
  0
VERTEX
  8
T33SSILL
 62
13
 10
3118.204
 20
-5953.787
 30
1883.823
 70
    32
  0
VERTEX
  8
T33SSILL
 62
13
 10
3114.224
 20
-5948.321
 30
1883.809
 70
    32
  0
VERTEX
  8
T33SSILL
 62
13
 10
3107.566
 20
-5953.267
 30
1883.799
 70
    32
  0
VERTEX
  8
T33SSILL
 62
13
 10
2901.532
 20
-5664.843
 30
1883.038
 70
    32
  0
VERTEX
  8
T33SSILL
 62
13
 10
2900.089
 20
-5661.083
 30
1883.031
 70
    32
  0
VERTEX
  8
T33SSILL
 62
13
 10
2899.182
 20
-5653.425
 30
1883.021
 70
    32
  0
VERTEX
  8
T33SSILL
 62
13
 10
2900.232
 20
-5646.194
 30
1883.016
 70
    32
  0
VERTEX
  8
T33SSILL
 62
13
 10
2906.134
 20
-5634.530
 30
1883.018
 70
    32
  0
VERTEX
  8
T33SSILL
 62
13
 10
3092.852
 20
-5498.496
 30
1883.300
 70
    32
  0
VERTEX
  8
T33SSILL
 62
13
 10
3089.135
 20
-5492.680
 30
1883.286
 70
    32
  0
VERTEX
  8
T33SSILL
 62
13
 10
2902.621
 20
-5627.798
 30
1883.003
 70
    32
  0
VERTEX
  8
T33SSILL
 62
13
 10
2897.845
 20
-5633.381
 30
1882.998
 70
    32
  0
VERTEX
  8
T33SSILL
 62
13
 10
2892.935
 20
-5643.113
 30
1882.997
 70
    32
  0
VERTEX
  8
T33SSILL
 62
13
 10
2891.643
 20
-5651.506
 30
1883.002
 70
    32
  0
VERTEX
  8
T33SSILL
 62
13
 10
2265.329
 20
-4780.271
 30
1882.917
 70
    32
  0
VERTEX
  8
T33SSILL
 62
13
 10
2649.035
 20
-4749.032
 30
1883.151
 70
    32
  0
VERTEX
  8
T33SSILL
 62
13
 10
2649.389
 20
-4763.338
 30
1883.143
 70
    32
  0
VERTEX
  8
T33SSILL
 62
13
 10
2656.278
 20
-4763.027
 30
1883.148
 70
    32
  0
VERTEX
  8
T33SSILL
 62
13
 10
2654.954
 20
-4748.450
 30
1883.155
 70
    32
  0
VERTEX
  8
T33SSILL
 62
13
 10
2658.577
 20
-4748.118
 30
1883.157
 70
    32
  0
VERTEX
  8
T33SSILL
 62
13
 10
2671.709
 20
-4752.084
 30
1883.162
 70
    32
  0
VERTEX
  8
T33SSILL
 62
13
 10
2671.605
 20
-4754.644
 30
1883.161
 70
    32
  0
VERTEX
  8
T33SSILL
 62
13
 10
2667.013
 20
-4754.704
 30
1883.158
 70
    32
  0
VERTEX
  8
T33SSILL
 62
13
 10
2667.735
 20
-4766.717
 30
1883.152
 70
    32
  0
VERTEX
  8
T33SSILL
 62
13
 10
2677.628
 20
-4766.071
 30
1883.158
 70
    32
  0
VERTEX
  8
T33SSILL
 62
13
 10
2676.160
 20
-4746.283
 30
1883.168
 70
    32
  0
VERTEX
  8
T33SSILL
 62
13
 10
2703.522
 20
-4744.026
 30
1883.185
 70
    32
  0
VERTEX
  8
T33SSILL
 62
13
 10
2704.075
 20
-4751.863
 30
1883.181
 70
    32
  0
VERTEX
  8
T33SSILL
 62
13
 10
2714.905
 20
-4750.948
 30
1883.187
 70
    32
  0
VERTEX
  8
T33SSILL
 62
13
 10
2714.265
 20
-4743.464
 30
1883.191
 70
    32
  0
VERTEX
  8
T33SSILL
 62
13
 10
3070.881
 20
-4716.087
 30
1883.408
 70
    32
  0
VERTEX
  8
T33SSILL
 62
13
 10
3081.989
 20
-4719.574
 30
1883.412
 70
    32
  0
VERTEX
  8
T33SSILL
 62
13
 10
3086.403
 20
-4722.643
 30
1883.413
 70
    32
  0
VERTEX
  8
T33SSILL
 62
13
 10
3112.946
 20
-4760.871
 30
1883.407
 70
    32
  0
VERTEX
  8
T33SSILL
 62
13
 10
3167.075
 20
-4804.737
 30
1883.413
 70
    32
  0
VERTEX
  8
T33SSILL
 62
13
 10
3172.486
 20
-4816.962
 30
1883.414
 70
    32
  0
VERTEX
  8
T33SSILL
 62
13
 10
3178.280
 20
-4838.786
 30
1883.420
 70
    32
  0
VERTEX
  8
T33SSILL
 62
13
 10
3184.621
 20
-4838.590
 30
1883.428
 70
    32
  0
VERTEX
  8
T33SSILL
 62
13
 10
3198.345
 20
-4833.703
 30
1883.447
 70
    32
  0
VERTEX
  8
T33SSILL
 62
13
 10
3199.556
 20
-4826.565
 30
1883.449
 70
    32
  0
VERTEX
  8
T33SSILL
 62
13
 10
3199.529
 20
-4818.110
 30
1883.450
 70
    32
  0
VERTEX
  8
T33SSILL
 62
13
 10
3196.413
 20
-4807.551
 30
1883.447
 70
    32
  0
VERTEX
  8
T33SSILL
 62
13
 10
3192.774
 20
-4798.843
 30
1883.443
 70
    32
  0
VERTEX
  8
T33SSILL
 62
13
 10
3188.174
 20
-4792.340
 30
1883.437
 70
    32
  0
VERTEX
  8
T33SSILL
 62
13
 10
3177.925
 20
-4782.244
 30
1883.431
 70
    32
  0
VERTEX
  8
T33SSILL
 62
13
 10
3167.891
 20
-4784.389
 30
1883.425
 70
    32
  0
VERTEX
  8
T33SSILL
 62
13
 10
3159.187
 20
-4789.261
 30
1883.417
 70
    32
  0
VERTEX
  8
T33SSILL
 62
13
 10
3118.920
 20
-4755.920
 30
1883.413
 70
    32
  0
VERTEX
  8
T33SSILL
 62
13
 10
3089.548
 20
-4714.530
 30
1883.419
 70
    32
  0
VERTEX
  8
T33SSILL
 62
13
 10
3173.637
 20
-4707.570
 30
1883.471
 70
    32
  0
VERTEX
  8
T33SSILL
 62
13
 10
3186.310
 20
-4732.455
 30
1883.464
 70
    32
  0
VERTEX
  8
T33SSILL
 62
13
 10
3192.995
 20
-4729.703
 30
1883.469
 70
    32
  0
VERTEX
  8
T33SSILL
 62
13
 10
3182.178
 20
-4706.926
 30
1883.476
 70
    32
  0
VERTEX
  8
T33SSILL
 62
13
 10
3232.895
 20
-4702.450
 30
1883.507
 70
    32
  0
VERTEX
  8
T33SSILL
 62
13
 10
3308.000
 20
-4807.273
 30
1883.588
 70
    32
  0
VERTEX
  8
T33SSILL
 62
13
 10
3381.857
 20
-4971.147
 30
1883.530
 70
    32
  0
VERTEX
  8
T33SSILL
 62
13
 10
3388.420
 20
-5003.921
 30
1883.498
 70
    32
  0
VERTEX
  8
T33SSILL
 62
13
 10
3399.095
 20
-5025.150
 30
1883.507
 70
    32
  0
VERTEX
  8
T33SSILL
 62
13
 10
3406.311
 20
-5030.037
 30
1883.528
 70
    32
  0
VERTEX
  8
T33SSILL
 62
13
 10
3408.237
 20
-5033.576
 30
1883.536
 70
    32
  0
VERTEX
  8
T33SSILL
 62
13
 10
3422.203
 20
-5048.818
 30
1883.583
 70
    32
  0
VERTEX
  8
T33SSILL
 62
13
 10
3430.877
 20
-5043.384
 30
1883.597
 70
    32
  0
VERTEX
  8
T33SSILL
 62
13
 10
3430.994
 20
-5036.853
 30
1883.591
 70
    32
  0
VERTEX
  8
T33SSILL
 62
13
 10
3423.016
 20
-5024.462
 30
1883.560
 70
    32
  0
VERTEX
  8
T33SSILL
 62
13
 10
3423.053
 20
-5016.165
 30
1883.552
 70
    32
  0
VERTEX
  8
T33SSILL
 62
13
 10
3413.572
 20
-5004.473
 30
1883.519
 70
    32
  0
VERTEX
  8
T33SSILL
 62
13
 10
3406.419
 20
-4985.553
 30
1883.517
 70
    32
  0
VERTEX
  8
T33SSILL
 62
13
 10
3396.187
 20
-4983.920
 30
1883.518
 70
    32
  0
VERTEX
  8
T33SSILL
 62
13
 10
3390.414
 20
-4972.244
 30
1883.529
 70
    32
  0
VERTEX
  8
T33SSILL
 62
13
 10
3387.689
 20
-4969.584
 30
1883.531
 70
    32
  0
VERTEX
  8
T33SSILL
 62
13
 10
3355.792
 20
-4897.510
 30
1883.601
 70
    32
  0
VERTEX
  8
T33SSILL
 62
13
 10
3476.652
 20
-4950.647
 30
1883.606
 70
    32
  0
VERTEX
  8
T33SSILL
 62
13
 10
3484.147
 20
-4952.269
 30
1883.625
 70
    32
  0
VERTEX
  8
T33SSILL
 62
13
 10
3487.944
 20
-4951.844
 30
1883.633
 70
    32
  0
VERTEX
  8
T33SSILL
 62
13
 10
3487.710
 20
-5201.006
 30
1883.772
 70
    32
  0
VERTEX
  8
T33SSILL
 62
13
 10
3483.798
 20
-5201.006
 30
1883.772
 70
    32
  0
VERTEX
  8
T33SSILL
 62
13
 10
3483.798
 20
-5211.035
 30
1883.775
 70
    32
  0
VERTEX
  8
T33SSILL
 62
13
 10
3498.661
 20
-5211.035
 30
1883.776
 70
    32
  0
VERTEX
  8
T33SSILL
 62
13
 10
3498.661
 20
-5201.483
 30
1883.773
 70
    32
  0
VERTEX
  8
T33SSILL
 62
13
 10
3495.141
 20
-5201.483
 30
1883.773
 70
    32
  0
VERTEX
  8
T33SSILL
 62
13
 10
3495.817
 20
-4949.994
 30
1883.649
 70
    32
  0
VERTEX
  8
T33SSILL
 62
13
 10
3587.612
 20
-4886.667
 30
1883.687
 70
    32
  0
VERTEX
  8
T33SSILL
 62
13
 10
3608.726
 20
-4916.120
 30
1883.698
 70
    32
  0
VERTEX
  8
T33SSILL
 62
13
 10
3614.212
 20
-4911.648
 30
1883.697
 70
    32
  0
VERTEX
  8
T33SSILL
 62
13
 10
3593.448
 20
-4882.726
 30
1883.687
 70
    32
  0
VERTEX
  8
T33SSILL
 62
13
 10
3649.785
 20
-4842.955
 30
1883.680
 70
    32
  0
VERTEX
  8
T33SSILL
 62
13
 10
3659.242
 20
-4857.191
 30
1883.685
 70
    32
  0
VERTEX
  8
T33SSILL
 62
13
 10
3666.054
 20
-4852.021
 30
1883.684
 70
    32
  0
VERTEX
  8
T33SSILL
 62
13
 10
3656.594
 20
-4838.225
 30
1883.679
 70
    32
  0
VERTEX
  8
T33SSILL
 62
13
 10
3710.638
 20
-4798.708
 30
1883.679
 70
    32
  0
VERTEX
  8
T33SSILL
 62
13
 10
3820.850
 20
-4952.955
 30
1883.727
 70
    32
  0
VERTEX
  8
T33SSILL
 62
13
 10
3821.367
 20
-4955.602
 30
1883.727
 70
    32
  0
VERTEX
  8
T33SSILL
 62
13
 10
3821.088
 20
-4958.774
 30
1883.728
 70
    32
  0
VERTEX
  8
T33SSILL
 62
13
 10
3818.331
 20
-4964.140
 30
1883.730
 70
    32
  0
VERTEX
  8
T33SSILL
 62
13
 10
3737.051
 20
-5022.224
 30
1883.740
 70
    32
  0
VERTEX
  8
T33SSILL
 62
13
 10
3728.109
 20
-5010.988
 30
1883.736
 70
    32
  0
VERTEX
  8
T33SSILL
 62
13
 10
3724.936
 20
-5010.797
 30
1883.736
 70
    32
  0
VERTEX
  8
T33SSILL
 62
13
 10
3720.818
 20
-5005.048
 30
1883.734
 70
    32
  0
VERTEX
  8
T33SSILL
 62
13
 10
3715.179
 20
-5004.494
 30
1883.733
 70
    32
  0
VERTEX
  8
T33SSILL
 62
13
 10
3711.009
 20
-5010.294
 30
1883.734
 70
    32
  0
VERTEX
  8
T33SSILL
 62
13
 10
3715.404
 20
-5013.223
 30
1883.736
 70
    32
  0
VERTEX
  8
T33SSILL
 62
13
 10
3727.856
 20
-5028.001
 30
1883.741
 70
    32
  0
VERTEX
  8
T33SSILL
 62
13
 10
3714.496
 20
-5038.609
 30
1883.743
 70
    32
  0
VERTEX
  8
T33SSILL
 62
13
 10
3718.967
 20
-5044.183
 30
1883.745
 70
    32
  0
VERTEX
  8
T33SSILL
 62
13
 10
3724.093
 20
-5041.473
 30
1883.745
 70
    32
  0
VERTEX
  8
T33SSILL
 62
13
 10
3731.377
 20
-5048.823
 30
1883.748
 70
    32
  0
VERTEX
  8
T33SSILL
 62
13
 10
3738.497
 20
-5053.528
 30
1883.750
 70
    32
  0
VERTEX
  8
T33SSILL
 62
13
 10
3743.275
 20
-5049.670
 30
1883.749
 70
    32
  0
VERTEX
  8
T33SSILL
 62
13
 10
3735.623
 20
-5045.580
 30
1883.747
 70
    32
  0
VERTEX
  8
T33SSILL
 62
13
 10
3731.434
 20
-5036.128
 30
1883.744
 70
    32
  0
VERTEX
  8
T33SSILL
 62
13
 10
3735.682
 20
-5032.445
 30
1883.743
 70
    32
  0
VERTEX
  8
T33SSILL
 62
13
 10
3742.529
 20
-5038.999
 30
1883.746
 70
    32
  0
VERTEX
  8
T33SSILL
 62
13
 10
3747.043
 20
-5035.229
 30
1883.745
 70
    32
  0
VERTEX
  8
T33SSILL
 62
13
 10
3741.613
 20
-5027.094
 30
1883.742
 70
    32
  0
VERTEX
  8
T33SSILL
 62
13
 10
3834.478
 20
-4961.127
 30
1883.730
 70
    32
  0
VERTEX
  8
T33SSILL
 62
13
 10
3716.295
 20
-4795.471
 30
1883.679
 70
    32
  0
VERTEX
  8
T33SSILL
 62
13
 10
3769.361
 20
-4757.713
 30
1883.685
 70
    32
  0
VERTEX
  8
T33SSILL
 62
13
 10
3774.326
 20
-4751.476
 30
1883.686
 70
    32
  0
VERTEX
  8
T33SSILL
 62
13
 10
3778.250
 20
-4741.443
 30
1883.688
 70
    32
  0
VERTEX
  8
T33SSILL
 62
13
 10
3778.551
 20
-4733.158
 30
1883.689
 70
    32
  0
VERTEX
  8
T33SSILL
 62
13
 10
3774.809
 20
-4722.297
 30
1883.690
 70
    32
  0
VERTEX
  8
T33SSILL
 62
13
 10
3730.391
 20
-4660.209
 30
1883.716
 70
    32
  0
VERTEX
  8
T33SSILL
 62
13
 10
3827.680
 20
-4590.647
 30
1883.845
 70
    32
  0
VERTEX
  8
T33SSILL
 62
13
 10
3845.451
 20
-4618.586
 30
1883.810
 70
    32
  0
VERTEX
  8
T33SSILL
 62
13
 10
3851.372
 20
-4615.439
 30
1883.822
 70
    32
  0
VERTEX
  8
T33SSILL
 62
13
 10
3809.440
 20
-4549.483
 30
1883.897
 70
    32
  0
VERTEX
  8
T33SSILL
 62
13
 10
3804.487
 20
-4553.075
 30
1883.894
 70
    32
  0
VERTEX
  8
T33SSILL
 62
13
 10
3824.182
 20
-4584.460
 30
1883.853
 70
    32
  0
VERTEX
  8
T33SSILL
 62
13
 10
3726.629
 20
-4653.844
 30
1883.719
 70
    32
  0
VERTEX
  8
T33SSILL
 62
13
 10
3565.277
 20
-4427.660
 30
1883.999
 70
    32
  0
VERTEX
  8
T33SSILL
 62
13
 10
3756.122
 20
-3590.164
 30
1883.998
 70
    32
  0
VERTEX
  8
T33SSILL
 62
13
 10
3894.929
 20
-3014.608
 30
1883.964
 70
    32
  0
VERTEX
  8
T33SSILL
 62
13
 10
3963.001
 20
-2724.822
 30
1883.709
 70
    32
  0
VERTEX
  8
T33SSILL
 62
13
 10
3943.094
 20
-2593.694
 30
1883.113
 70
    32
  0
VERTEX
  8
T33SSILL
 62
13
 10
3996.536
 20
-2549.499
 30
1883.095
 70
    32
  0
VERTEX
  8
T33SSILL
 62
13
 10
3987.664
 20
-2538.240
 30
1883.035
 70
    32
  0
VERTEX
  8
T33SSILL
 62
13
 10
3993.649
 20
-2533.524
 30
1883.033
 70
    32
  0
VERTEX
  8
T33SSILL
 62
13
 10
3961.717
 20
-2493.571
 30
1883.070
 70
    32
  0
VERTEX
  8
T33SSILL
 62
13
 10
3928.337
 20
-2498.406
 30
1883.088
 70
    32
  0
VERTEX
  8
T33SSILL
 62
13
 10
3918.032
 20
-2430.779
 30
1883.124
 70
    32
  0
VERTEX
  8
T33SSILL
 62
13
 10
3914.611
 20
-2418.780
 30
1883.131
 70
    32
  0
VERTEX
  8
T33SSILL
 62
13
 10
3907.593
 20
-2420.247
 30
1883.135
 70
    32
  0
VERTEX
  8
T33SSILL
 62
13
 10
3908.018
 20
-2432.221
 30
1883.129
 70
    32
  0
VERTEX
  8
T33SSILL
 62
13
 10
3930.345
 20
-2578.012
 30
1883.058
 70
    32
  0
VERTEX
  8
T33SSILL
 62
13
 10
3917.079
 20
-2579.874
 30
1883.062
 70
    32
  0
VERTEX
  8
T33SSILL
 62
13
 10
3917.930
 20
-2586.905
 30
1883.068
 70
    32
  0
VERTEX
  8
T33SSILL
 62
13
 10
3931.548
 20
-2585.036
 30
1883.063
 70
    32
  0
VERTEX
  8
T33SSILL
 62
13
 10
3953.704
 20
-2731.095
 30
1883.675
 70
    32
  0
VERTEX
  8
T33SSILL
 62
13
 10
3886.917
 20
-3014.862
 30
1883.967
 70
    32
  0
VERTEX
  8
T33SSILL
 62
13
 10
3748.803
 20
-3589.879
 30
1883.999
 70
    32
  0
VERTEX
  8
T33SSILL
 62
13
 10
3585.401
 20
-4294.586
 30
1884.113
 70
    32
  0
VERTEX
  8
T33SSILL
 62
13
 10
3410.435
 20
-4421.029
 30
1883.905
 70
    32
  0
VERTEX
  8
T33SSILL
 62
13
 10
3402.610
 20
-4421.518
 30
1883.900
 70
    32
  0
VERTEX
  8
T33SSILL
 62
13
 10
3395.618
 20
-4419.263
 30
1883.898
 70
    32
  0
VERTEX
  8
T33SSILL
 62
13
 10
3395.702
 20
-4412.094
 30
1883.906
 70
    32
  0
VERTEX
  8
T33SSILL
 62
13
 10
3403.241
 20
-4402.524
 30
1883.920
 70
    32
  0
VERTEX
  8
T33SSILL
 62
13
 10
3408.007
 20
-4394.509
 30
1883.931
 70
    32
  0
VERTEX
  8
T33SSILL
 62
13
 10
3408.981
 20
-4390.632
 30
1883.936
 70
    32
  0
VERTEX
  8
T33SSILL
 62
13
 10
3397.622
 20
-4379.869
 30
1883.940
 70
    32
  0
VERTEX
  8
T33SSILL
 62
13
 10
3388.725
 20
-4375.718
 30
1883.939
 70
    32
  0
VERTEX
  8
T33SSILL
 62
13
 10
3382.821
 20
-4375.096
 30
1883.936
 70
    32
  0
VERTEX
  8
T33SSILL
 62
13
 10
3377.796
 20
-4376.677
 30
1883.931
 70
    32
  0
VERTEX
  8
T33SSILL
 62
13
 10
3374.027
 20
-4394.225
 30
1883.911
 70
    32
  0
VERTEX
  8
T33SSILL
 62
13
 10
3309.052
 20
-4305.299
 30
1883.941
 70
    32
  0
VERTEX
  8
T33SSILL
 62
13
 10
3302.888
 20
-4310.159
 30
1883.939
 70
    32
  0
VERTEX
  8
T33SSILL
 62
13
 10
3387.642
 20
-4426.179
 30
1883.886
 70
    32
  0
VERTEX
  8
T33SSILL
 62
13
 10
3390.166
 20
-4424.551
 30
1883.889
 70
    32
  0
VERTEX
  8
T33SSILL
 62
13
 10
3393.286
 20
-4426.873
 30
1883.889
 70
    32
  0
VERTEX
  8
T33SSILL
 62
13
 10
3400.091
 20
-4428.427
 30
1883.891
 70
    32
  0
VERTEX
  8
T33SSILL
 62
13
 10
3314.658
 20
-4490.644
 30
1883.775
 70
    32
  0
VERTEX
  8
T33SSILL
 62
13
 10
3294.356
 20
-4503.206
 30
1883.750
 70
    32
  0
VERTEX
  8
T33SSILL
 62
13
 10
3282.289
 20
-4502.892
 30
1883.743
 70
    32
  0
VERTEX
  8
T33SSILL
 62
13
 10
3274.346
 20
-4497.809
 30
1883.743
 70
    32
  0
VERTEX
  8
T33SSILL
 62
13
 10
3270.480
 20
-4490.886
 30
1883.748
 70
    32
  0
VERTEX
  8
T33SSILL
 62
13
 10
3201.143
 20
-4395.896
 30
1883.804
 70
    32
  0
VERTEX
  8
T33SSILL
 62
13
 10
3195.487
 20
-4399.603
 30
1883.797
 70
    32
  0
VERTEX
  8
T33SSILL
 62
13
 10
3262.214
 20
-4491.294
 30
1883.742
 70
    32
  0
VERTEX
  8
T33SSILL
 62
13
 10
3265.719
 20
-4499.422
 30
1883.736
 70
    32
  0
VERTEX
  8
T33SSILL
 62
13
 10
3276.580
 20
-4507.931
 30
1883.734
 70
    32
  0
VERTEX
  8
T33SSILL
 62
13
 10
3284.603
 20
-4510.547
 30
1883.736
 70
    32
  0
VERTEX
  8
T33SSILL
 62
13
 10
3246.202
 20
-4538.148
 30
1883.684
 70
    32
  0
VERTEX
  8
T33SSILL
 62
13
 10
3113.385
 20
-4704.766
 30
1883.438
 70
    32
  0
VERTEX
  8
T33SSILL
 62
13
 10
2260.018
 20
-4772.569
 30
1882.918
 70
    32
  0
VERTEX
  8
T33SSILL
 62
13
 10
2182.434
 20
-4683.624
 30
1882.924
 70
    32
  0
VERTEX
  8
T33SSILL
 62
13
 10
2183.579
 20
-4500.301
 30
1883.080
 70
    32
  0
VERTEX
  8
T33SSILL
 62
13
 10
2154.057
 20
-4468.340
 30
1883.094
 70
    32
  0
VERTEX
  8
T33SSILL
 62
13
 10
1993.691
 20
-4286.857
 30
1883.443
 70
    32
  0
VERTEX
  8
T33SSILL
 62
13
 10
1830.521
 20
-4104.544
 30
1883.697
 70
    32
  0
VERTEX
  8
T33SSILL
 62
13
 10
1613.197
 20
-3864.878
 30
1884.459
 70
    32
  0
VERTEX
  8
T33SSILL
 62
13
 10
1415.830
 20
-3642.231
 30
1884.515
 70
    32
  0
VERTEX
  8
T33SSILL
 62
13
 10
1407.147
 20
-3634.269
 30
1884.511
 70
    32
  0
VERTEX
  8
T33SSILL
 62
13
 10
1392.603
 20
-3631.589
 30
1884.513
 70
    32
  0
VERTEX
  8
T33SSILL
 62
13
 10
1381.174
 20
-3634.501
 30
1884.518
 70
    32
  0
VERTEX
  8
T33SSILL
 62
13
 10
1268.936
 20
-3715.932
 30
1884.579
 70
    32
  0
VERTEX
  8
T33SSILL
 62
13
 10
1223.937
 20
-3708.567
 30
1884.571
 70
    32
  0
VERTEX
  8
T33SSILL
 62
13
 10
1168.681
 20
-3747.775
 30
1884.554
 70
    32
  0
VERTEX
  8
T33SSILL
 62
13
 10
1173.167
 20
-3753.893
 30
1884.554
 70
    32
  0
VERTEX
  8
T33SSILL
 62
13
 10
1226.308
 20
-3716.126
 30
1884.571
 70
    32
  0
VERTEX
  8
T33SSILL
 62
13
 10
1261.106
 20
-3722.111
 30
1884.576
 70
    32
  0
VERTEX
  8
T33SSILL
 62
13
 10
1175.197
 20
-3783.360
 30
1884.550
 70
    32
  0
VERTEX
  8
T33SSILL
 62
13
 10
1135.567
 20
-3727.976
 30
1884.551
 70
    32
  0
VERTEX
  8
T33SSILL
 62
13
 10
1298.884
 20
-3610.291
 30
1884.521
 70
    32
  0
VERTEX
  8
T33SSILL
 62
13
 10
1293.922
 20
-3604.219
 30
1884.518
 70
    32
  0
VERTEX
  8
T33SSILL
 62
13
 10
1239.315
 20
-3643.727
 30
1884.562
 70
    32
  0
VERTEX
  8
T33SSILL
 62
13
 10
1235.154
 20
-3641.827
 30
1884.561
 70
    32
  0
VERTEX
  8
T33SSILL
 62
13
 10
1179.582
 20
-3682.534
 30
1884.567
 70
    32
  0
VERTEX
  8
T33SSILL
 62
13
 10
1180.079
 20
-3686.616
 30
1884.566
 70
    32
  0
VERTEX
  8
T33SSILL
 62
13
 10
1130.744
 20
-3722.130
 30
1884.551
 70
    32
  0
VERTEX
  8
T33SSILL
 62
13
 10
1091.275
 20
-3666.712
 30
1884.553
 70
    32
  0
VERTEX
  8
T33SSILL
 62
13
 10
1118.759
 20
-3646.761
 30
1884.561
 70
    32
  0
VERTEX
  8
T33SSILL
 62
13
 10
1114.867
 20
-3641.188
 30
1884.561
 70
    32
  0
VERTEX
  8
T33SSILL
 62
13
 10
1086.980
 20
-3661.341
 30
1884.553
 70
    32
  0
VERTEX
  8
T33SSILL
 62
13
 10
971.228
 20
-3500.505
 30
1884.521
 70
    32
  0
VERTEX
  8
T33SSILL
 62
13
 10
961.162
 20
-3492.028
 30
1884.517
 70
    32
  0
VERTEX
  8
T33SSILL
 62
13
 10
948.889
 20
-3489.182
 30
1884.518
 70
    32
  0
VERTEX
  8
T33SSILL
 62
13
 10
936.921
 20
-3492.468
 30
1884.524
 70
    32
  0
VERTEX
  8
T33SSILL
 62
13
 10
763.841
 20
-3615.744
 30
1884.521
 70
    32
  0
VERTEX
  8
T33SSILL
 62
13
 10
720.744
 20
-3608.184
 30
1884.518
 70
    32
  0
VERTEX
  8
T33SSILL
 62
13
 10
661.739
 20
-3650.223
 30
1884.508
 70
    32
  0
VERTEX
  8
T33SSILL
 62
13
 10
665.733
 20
-3656.499
 30
1884.507
 70
    32
  0
VERTEX
  8
T33SSILL
 62
13
 10
723.362
 20
-3615.420
 30
1884.518
 70
    32
  0
VERTEX
  8
T33SSILL
 62
13
 10
756.483
 20
-3621.362
 30
1884.520
 70
    32
  0
VERTEX
  8
T33SSILL
 62
13
 10
682.855
 20
-3673.895
 30
1884.506
 70
    32
  0
VERTEX
  8
T33SSILL
 62
13
 10
687.684
 20
-3679.521
 30
1884.506
 70
    32
  0
VERTEX
  8
T33SSILL
 62
13
 10
859.464
 20
-3555.581
 30
1884.534
 70
    32
  0
VERTEX
  8
T33SSILL
 62
13
 10
867.385
 20
-3573.214
 30
1884.533
 70
    32
  0
VERTEX
  8
T33SSILL
 62
13
 10
896.715
 20
-3613.174
 30
1884.533
 70
    32
  0
VERTEX
  8
T33SSILL
 62
13
 10
723.720
 20
-3736.271
 30
1884.499
 70
    32
  0
VERTEX
  8
T33SSILL
 62
13
 10
733.612
 20
-3701.191
 30
1884.508
 70
    32
  0
VERTEX
  8
T33SSILL
 62
13
 10
785.329
 20
-3664.716
 30
1884.519
 70
    32
  0
VERTEX
  8
T33SSILL
 62
13
 10
780.585
 20
-3657.907
 30
1884.520
 70
    32
  0
VERTEX
  8
T33SSILL
 62
13
 10
727.585
 20
-3695.604
 30
1884.508
 70
    32
  0
VERTEX
  8
T33SSILL
 62
13
 10
712.603
 20
-3752.416
 30
1884.494
 70
    32
  0
VERTEX
  8
T33SSILL
 62
13
 10
711.565
 20
-3762.275
 30
1884.491
 70
    32
  0
VERTEX
  8
T33SSILL
 62
13
 10
713.334
 20
-3771.290
 30
1884.489
 70
    32
  0
VERTEX
  8
T33SSILL
 62
13
 10
1310.386
 20
-4696.414
 30
1883.964
 70
    32
  0
VERTEX
  8
T33SSILL
 62
13
 10
1340.060
 20
-4723.014
 30
1883.923
 70
    32
  0
VERTEX
  8
T33SSILL
 62
13
 10
1718.863
 20
-5010.113
 30
1883.621
 70
    32
  0
VERTEX
  8
T33SSILL
 62
13
 10
1733.982
 20
-5016.428
 30
1883.609
 70
    32
  0
VERTEX
  8
T33SSILL
 62
13
 10
1739.303
 20
-5017.125
 30
1883.603
 70
    32
  0
VERTEX
  8
T33SSILL
 62
13
 10
1758.556
 20
-5015.494
 30
1883.576
 70
    32
  0
VERTEX
  8
T33SSILL
 62
13
 10
1769.306
 20
-5012.107
 30
1883.559
 70
    32
  0
VERTEX
  8
T33SSILL
 62
13
 10
2004.200
 20
-4845.492
 30
1883.418
 70
    32
  0
VERTEX
  8
T33SSILL
 62
13
 10
2043.692
 20
-4811.769
 30
1883.400
 70
    32
  0
VERTEX
  8
T33SSILL
 62
13
 10
2053.383
 20
-4822.168
 30
1883.392
 70
    32
  0
VERTEX
  8
T33SSILL
 62
13
 10
2057.588
 20
-4818.652
 30
1883.390
 70
    32
  0
VERTEX
  8
T33SSILL
 62
13
 10
2047.959
 20
-4807.442
 30
1883.398
 70
    32
  0
VERTEX
  8
T33SSILL
 62
13
 10
2104.593
 20
-4759.200
 30
1883.371
 70
    32
  0
VERTEX
  8
T33SSILL
 62
13
 10
2100.572
 20
-4781.934
 30
1883.369
 70
    32
  0
VERTEX
  8
T33SSILL
 62
13
 10
2113.524
 20
-4800.223
 30
1883.358
 70
    32
  0
VERTEX
  8
T33SSILL
 62
13
 10
2119.518
 20
-4796.163
 30
1883.355
 70
    32
  0
SEQEND
  8
T33SSILL
  0
POLYLINE
  8
T33SSILL
 62
13
 66
     1
 70
     9
  0
VERTEX
  8
T33SSILL
 62
13
 10
843.981
 20
-3705.307
 30
1884.522
 70
    32
  0
VERTEX
  8
T33SSILL
 62
13
 10
838.796
 20
-3697.501
 30
1884.522
 70
    32
  0
VERTEX
  8
T33SSILL
 62
13
 10
845.057
 20
-3693.631
 30
1884.523
 70
    32
  0
VERTEX
  8
T33SSILL
 62
13
 10
851.612
 20
-3703.053
 30
1884.522
 70
    32
  0
VERTEX
  8
T33SSILL
 62
13
 10
863.235
 20
-3705.064
 30
1884.523
 70
    32
  0
VERTEX
  8
T33SSILL
 62
13
 10
875.332
 20
-3710.840
 30
1884.524
 70
    32
  0
VERTEX
  8
T33SSILL
 62
13
 10
885.363
 20
-3713.533
 30
1884.525
 70
    32
  0
VERTEX
  8
T33SSILL
 62
13
 10
948.425
 20
-3668.670
 30
1884.533
 70
    32
  0
VERTEX
  8
T33SSILL
 62
13
 10
924.669
 20
-3653.087
 30
1884.532
 70
    32
  0
VERTEX
  8
T33SSILL
 62
13
 10
900.168
 20
-3618.754
 30
1884.533
 70
    32
  0
VERTEX
  8
T33SSILL
 62
13
 10
724.183
 20
-3746.192
 30
1884.497
 70
    32
  0
VERTEX
  8
T33SSILL
 62
13
 10
720.027
 20
-3753.339
 30
1884.494
 70
    32
  0
VERTEX
  8
T33SSILL
 62
13
 10
718.615
 20
-3759.132
 30
1884.493
 70
    32
  0
VERTEX
  8
T33SSILL
 62
13
 10
720.400
 20
-3769.028
 30
1884.491
 70
    32
  0
VERTEX
  8
T33SSILL
 62
13
 10
752.118
 20
-3820.090
 30
1884.485
 70
    32
  0
VERTEX
  8
T33SSILL
 62
13
 10
756.581
 20
-3808.458
 30
1884.488
 70
    32
  0
VERTEX
  8
T33SSILL
 62
13
 10
763.752
 20
-3800.303
 30
1884.491
 70
    32
  0
VERTEX
  8
T33SSILL
 62
13
 10
846.361
 20
-3741.223
 30
1884.517
 70
    32
  0
VERTEX
  8
T33SSILL
 62
13
 10
838.291
 20
-3720.242
 30
1884.520
 70
    32
  0
VERTEX
  8
T33SSILL
 62
13
 10
834.887
 20
-3716.301
 30
1884.520
 70
    32
  0
VERTEX
  8
T33SSILL
 62
13
 10
834.174
 20
-3713.950
 30
1884.520
 70
    32
  0
VERTEX
  8
T33SSILL
 62
13
 10
835.170
 20
-3711.499
 30
1884.520
 70
    32
  0
SEQEND
  8
T33SSILL
  0
POLYLINE
  8
T33SSILL
 62
13
 66
     1
 70
     9
  0
VERTEX
  8
T33SSILL
 62
13
 10
1420.586
 20
-4226.000
 30
1884.349
 70
    32
  0
VERTEX
  8
T33SSILL
 62
13
 10
1271.585
 20
-4332.851
 30
1884.530
 70
    32
  0
VERTEX
  8
T33SSILL
 62
13
 10
1274.429
 20
-4336.790
 30
1884.530
 70
    32
  0
VERTEX
  8
T33SSILL
 62
13
 10
1228.624
 20
-4369.852
 30
1884.476
 70
    32
  0
VERTEX
  8
T33SSILL
 62
13
 10
1221.447
 20
-4410.762
 30
1884.450
 70
    32
  0
VERTEX
  8
T33SSILL
 62
13
 10
1239.226
 20
-4398.159
 30
1884.451
 70
    32
  0
VERTEX
  8
T33SSILL
 62
13
 10
1240.598
 20
-4393.707
 30
1884.463
 70
    32
  0
VERTEX
  8
T33SSILL
 62
13
 10
1248.246
 20
-4384.985
 30
1884.472
 70
    32
  0
VERTEX
  8
T33SSILL
 62
13
 10
1243.519
 20
-4365.480
 30
1884.491
 70
    32
  0
VERTEX
  8
T33SSILL
 62
13
 10
1333.563
 20
-4303.026
 30
1884.522
 70
    32
  0
VERTEX
  8
T33SSILL
 62
13
 10
1382.110
 20
-4266.580
 30
1884.439
 70
    32
  0
VERTEX
  8
T33SSILL
 62
13
 10
1398.703
 20
-4283.676
 30
1884.411
 70
    32
  0
VERTEX
  8
T33SSILL
 62
13
 10
1466.483
 20
-4234.152
 30
1884.235
 70
    32
  0
VERTEX
  8
T33SSILL
 62
13
 10
1457.425
 20
-4223.448
 30
1884.249
 70
    32
  0
VERTEX
  8
T33SSILL
 62
13
 10
1459.600
 20
-4218.584
 30
1884.242
 70
    32
  0
VERTEX
  8
T33SSILL
 62
13
 10
1472.426
 20
-4210.483
 30
1884.209
 70
    32
  0
VERTEX
  8
T33SSILL
 62
13
 10
1444.066
 20
-4172.117
 30
1884.337
 70
    32
  0
VERTEX
  8
T33SSILL
 62
13
 10
1438.441
 20
-4175.325
 30
1884.347
 70
    32
  0
VERTEX
  8
T33SSILL
 62
13
 10
1433.244
 20
-4176.326
 30
1884.356
 70
    32
  0
VERTEX
  8
T33SSILL
 62
13
 10
1424.480
 20
-4170.647
 30
1884.366
 70
    32
  0
VERTEX
  8
T33SSILL
 62
13
 10
1416.224
 20
-4161.525
 30
1884.374
 70
    32
  0
VERTEX
  8
T33SSILL
 62
13
 10
1394.368
 20
-4178.411
 30
1884.416
 70
    32
  0
VERTEX
  8
T33SSILL
 62
13
 10
1398.446
 20
-4182.090
 30
1884.412
 70
    32
  0
VERTEX
  8
T33SSILL
 62
13
 10
1405.602
 20
-4198.891
 30
1884.410
 70
    32
  0
VERTEX
  8
T33SSILL
 62
13
 10
1402.838
 20
-4200.957
 30
1884.415
 70
    32
  0
VERTEX
  8
T33SSILL
 62
13
 10
1407.045
 20
-4207.068
 30
1884.412
 70
    32
  0
VERTEX
  8
T33SSILL
 62
13
 10
1421.882
 20
-4196.228
 30
1884.381
 70
    32
  0
VERTEX
  8
T33SSILL
 62
13
 10
1440.829
 20
-4221.127
 30
1884.290
 70
    32
  0
VERTEX
  8
T33SSILL
 62
13
 10
1430.574
 20
-4228.504
 30
1884.314
 70
    32
  0
VERTEX
  8
T33SSILL
 62
13
 10
1426.608
 20
-4223.519
 30
1884.333
 70
    32
  0
VERTEX
  8
T33SSILL
 62
13
 10
1421.594
 20
-4227.290
 30
1884.344
 70
    32
  0
SEQEND
  8
T33SSILL
  0
POLYLINE
  8
T33SSILL
 62
13
 66
     1
 70
     9
  0
VERTEX
  8
T33SSILL
 62
13
 10
1375.279
 20
-4156.744
 30
1884.434
 70
    32
  0
VERTEX
  8
T33SSILL
 62
13
 10
1360.327
 20
-4166.185
 30
1884.462
 70
    32
  0
VERTEX
  8
T33SSILL
 62
13
 10
1355.190
 20
-4158.836
 30
1884.466
 70
    32
  0
VERTEX
  8
T33SSILL
 62
13
 10
1407.787
 20
-4122.070
 30
1884.366
 70
    32
  0
VERTEX
  8
T33SSILL
 62
13
 10
1412.232
 20
-4128.128
 30
1884.363
 70
    32
  0
VERTEX
  8
T33SSILL
 62
13
 10
1403.629
 20
-4134.617
 30
1884.379
 70
    32
  0
VERTEX
  8
T33SSILL
 62
13
 10
1400.043
 20
-4139.488
 30
1884.387
 70
    32
  0
VERTEX
  8
T33SSILL
 62
13
 10
1411.084
 20
-4157.235
 30
1884.380
 70
    32
  0
VERTEX
  8
T33SSILL
 62
13
 10
1388.694
 20
-4173.419
 30
1884.423
 70
    32
  0
SEQEND
  8
T33SSILL
  0
POLYLINE
  8
T33SSILL
 62
13
 66
     1
 70
     9
  0
VERTEX
  8
T33SSILL
 62
13
 10
1455.338
 20
-4000.688
 30
1884.230
 70
    32
  0
VERTEX
  8
T33SSILL
 62
13
 10
1466.192
 20
-3997.976
 30
1884.212
 70
    32
  0
VERTEX
  8
T33SSILL
 62
13
 10
1553.610
 20
-3936.777
 30
1884.330
 70
    32
  0
VERTEX
  8
T33SSILL
 62
13
 10
1504.597
 20
-3928.423
 30
1884.368
 70
    32
  0
VERTEX
  8
T33SSILL
 62
13
 10
1355.191
 20
-4035.830
 30
1884.402
 70
    32
  0
VERTEX
  8
T33SSILL
 62
13
 10
1365.058
 20
-4050.057
 30
1884.394
 70
    32
  0
VERTEX
  8
T33SSILL
 62
13
 10
1376.691
 20
-4050.583
 30
1884.377
 70
    32
  0
VERTEX
  8
T33SSILL
 62
13
 10
1381.901
 20
-4049.380
 30
1884.368
 70
    32
  0
VERTEX
  8
T33SSILL
 62
13
 10
1392.315
 20
-4040.700
 30
1884.348
 70
    32
  0
VERTEX
  8
T33SSILL
 62
13
 10
1396.476
 20
-4031.905
 30
1884.337
 70
    32
  0
VERTEX
  8
T33SSILL
 62
13
 10
1401.370
 20
-4027.353
 30
1884.327
 70
    32
  0
VERTEX
  8
T33SSILL
 62
13
 10
1414.157
 20
-4021.105
 30
1884.304
 70
    32
  0
VERTEX
  8
T33SSILL
 62
13
 10
1422.227
 20
-4029.894
 30
1884.296
 70
    32
  0
VERTEX
  8
T33SSILL
 62
13
 10
1442.295
 20
-4015.130
 30
1884.258
 70
    32
  0
VERTEX
  8
T33SSILL
 62
13
 10
1449.098
 20
-4005.327
 30
1884.242
 70
    32
  0
SEQEND
  8
T33SSILL
  0
POLYLINE
  8
T33SSILL
 62
13
 66
     1
 70
     9
  0
VERTEX
  8
T33SSILL
 62
13
 10
1436.020
 20
-3905.592
 30
1884.455
 70
    32
  0
VERTEX
  8
T33SSILL
 62
13
 10
1396.550
 20
-3933.661
 30
1884.382
 70
    32
  0
VERTEX
  8
T33SSILL
 62
13
 10
1382.732
 20
-3920.933
 30
1884.424
 70
    32
  0
VERTEX
  8
T33SSILL
 62
13
 10
1377.771
 20
-3919.538
 30
1884.429
 70
    32
  0
VERTEX
  8
T33SSILL
 62
13
 10
1350.874
 20
-3941.779
 30
1884.370
 70
    32
  0
VERTEX
  8
T33SSILL
 62
13
 10
1347.858
 20
-3948.257
 30
1884.367
 70
    32
  0
VERTEX
  8
T33SSILL
 62
13
 10
1338.653
 20
-3952.710
 30
1884.384
 70
    32
  0
VERTEX
  8
T33SSILL
 62
13
 10
1337.923
 20
-3961.558
 30
1884.390
 70
    32
  0
VERTEX
  8
T33SSILL
 62
13
 10
1333.375
 20
-3964.456
 30
1884.398
 70
    32
  0
VERTEX
  8
T33SSILL
 62
13
 10
1333.048
 20
-3968.634
 30
1884.401
 70
    32
  0
VERTEX
  8
T33SSILL
 62
13
 10
1330.781
 20
-3972.702
 30
1884.406
 70
    32
  0
VERTEX
  8
T33SSILL
 62
13
 10
1334.508
 20
-3978.829
 30
1884.404
 70
    32
  0
VERTEX
  8
T33SSILL
 62
13
 10
1322.098
 20
-3987.711
 30
1884.428
 70
    32
  0
VERTEX
  8
T33SSILL
 62
13
 10
1298.454
 20
-3955.170
 30
1884.447
 70
    32
  0
VERTEX
  8
T33SSILL
 62
13
 10
1360.758
 20
-3910.217
 30
1884.461
 70
    32
  0
VERTEX
  8
T33SSILL
 62
13
 10
1367.780
 20
-3913.521
 30
1884.450
 70
    32
  0
VERTEX
  8
T33SSILL
 62
13
 10
1370.222
 20
-3907.901
 30
1884.466
 70
    32
  0
VERTEX
  8
T33SSILL
 62
13
 10
1368.269
 20
-3904.797
 30
1884.475
 70
    32
  0
VERTEX
  8
T33SSILL
 62
13
 10
1379.218
 20
-3898.241
 30
1884.492
 70
    32
  0
VERTEX
  8
T33SSILL
 62
13
 10
1383.922
 20
-3897.198
 30
1884.494
 70
    32
  0
SEQEND
  8
T33SSILL
  0
POLYLINE
  8
T33SSILL
 62
13
 66
     1
 70
     9
  0
VERTEX
  8
T33SSILL
 62
13
 10
1312.775
 20
-3838.811
 30
1884.567
 70
    32
  0
VERTEX
  8
T33SSILL
 62
13
 10
1309.432
 20
-3834.124
 30
1884.568
 70
    32
  0
VERTEX
  8
T33SSILL
 62
13
 10
1374.088
 20
-3788.024
 30
1884.587
 70
    32
  0
VERTEX
  8
T33SSILL
 62
13
 10
1382.439
 20
-3734.973
 30
1884.595
 70
    32
  0
VERTEX
  8
T33SSILL
 62
13
 10
1432.564
 20
-3698.763
 30
1884.554
 70
    32
  0
VERTEX
  8
T33SSILL
 62
13
 10
1436.524
 20
-3696.406
 30
1884.551
 70
    32
  0
VERTEX
  8
T33SSILL
 62
13
 10
1444.624
 20
-3694.623
 30
1884.548
 70
    32
  0
VERTEX
  8
T33SSILL
 62
13
 10
1453.013
 20
-3695.472
 30
1884.546
 70
    32
  0
VERTEX
  8
T33SSILL
 62
13
 10
1455.398
 20
-3696.785
 30
1884.547
 70
    32
  0
VERTEX
  8
T33SSILL
 62
13
 10
1502.274
 20
-3749.372
 30
1884.575
 70
    32
  0
VERTEX
  8
T33SSILL
 62
13
 10
1493.254
 20
-3749.751
 30
1884.577
 70
    32
  0
VERTEX
  8
T33SSILL
 62
13
 10
1484.728
 20
-3753.488
 30
1884.582
 70
    32
  0
VERTEX
  8
T33SSILL
 62
13
 10
1268.626
 20
-3908.678
 30
1884.491
 70
    32
  0
VERTEX
  8
T33SSILL
 62
13
 10
1264.125
 20
-3907.165
 30
1884.497
 70
    32
  0
VERTEX
  8
T33SSILL
 62
13
 10
1244.868
 20
-3880.158
 30
1884.548
 70
    32
  0
VERTEX
  8
T33SSILL
 62
13
 10
1294.776
 20
-3844.573
 30
1884.563
 70
    32
  0
VERTEX
  8
T33SSILL
 62
13
 10
1298.064
 20
-3849.184
 30
1884.563
 70
    32
  0
SEQEND
  8
T33SSILL
  0
POLYLINE
  8
T33SSILL
 62
13
 66
     1
 70
     9
  0
VERTEX
  8
T33SSILL
 62
13
 10
1288.573
 20
-3753.600
 30
1884.576
 70
    32
  0
VERTEX
  8
T33SSILL
 62
13
 10
1292.879
 20
-3748.582
 30
1884.578
 70
    32
  0
VERTEX
  8
T33SSILL
 62
13
 10
1295.226
 20
-3743.580
 30
1884.579
 70
    32
  0
VERTEX
  8
T33SSILL
 62
13
 10
1301.519
 20
-3701.445
 30
1884.587
 70
    32
  0
VERTEX
  8
T33SSILL
 62
13
 10
1382.080
 20
-3642.150
 30
1884.524
 70
    32
  0
VERTEX
  8
T33SSILL
 62
13
 10
1387.154
 20
-3639.523
 30
1884.521
 70
    32
  0
VERTEX
  8
T33SSILL
 62
13
 10
1395.946
 20
-3638.982
 30
1884.518
 70
    32
  0
VERTEX
  8
T33SSILL
 62
13
 10
1401.281
 20
-3639.993
 30
1884.517
 70
    32
  0
VERTEX
  8
T33SSILL
 62
13
 10
1406.123
 20
-3642.568
 30
1884.518
 70
    32
  0
VERTEX
  8
T33SSILL
 62
13
 10
1447.189
 20
-3687.382
 30
1884.542
 70
    32
  0
VERTEX
  8
T33SSILL
 62
13
 10
1437.790
 20
-3688.586
 30
1884.545
 70
    32
  0
VERTEX
  8
T33SSILL
 62
13
 10
1429.473
 20
-3692.607
 30
1884.550
 70
    32
  0
VERTEX
  8
T33SSILL
 62
13
 10
1217.885
 20
-3843.065
 30
1884.549
 70
    32
  0
VERTEX
  8
T33SSILL
 62
13
 10
1200.088
 20
-3818.050
 30
1884.549
 70
    32
  0
VERTEX
  8
T33SSILL
 62
13
 10
1286.486
 20
-3755.677
 30
1884.576
 70
    32
  0
SEQEND
  8
T33SSILL
  0
POLYLINE
  8
T33SSILL
 62
13
 66
     1
 70
     9
  0
VERTEX
  8
T33SSILL
 62
13
 10
1327.264
 20
-4133.478
 30
1884.496
 70
    32
  0
VERTEX
  8
T33SSILL
 62
13
 10
1332.591
 20
-4128.793
 30
1884.485
 70
    32
  0
VERTEX
  8
T33SSILL
 62
13
 10
1327.834
 20
-4108.973
 30
1884.482
 70
    32
  0
VERTEX
  8
T33SSILL
 62
13
 10
1361.010
 20
-4084.985
 30
1884.419
 70
    32
  0
VERTEX
  8
T33SSILL
 62
13
 10
1376.105
 20
-4103.477
 30
1884.405
 70
    32
  0
VERTEX
  8
T33SSILL
 62
13
 10
1389.445
 20
-4093.919
 30
1884.380
 70
    32
  0
VERTEX
  8
T33SSILL
 62
13
 10
1403.980
 20
-4115.416
 30
1884.369
 70
    32
  0
VERTEX
  8
T33SSILL
 62
13
 10
1350.807
 20
-4152.566
 30
1884.470
 70
    32
  0
VERTEX
  8
T33SSILL
 62
13
 10
1341.694
 20
-4139.529
 30
1884.477
 70
    32
  0
VERTEX
  8
T33SSILL
 62
13
 10
1321.939
 20
-4153.466
 30
1884.514
 70
    32
  0
VERTEX
  8
T33SSILL
 62
13
 10
1318.517
 20
-4148.537
 30
1884.517
 70
    32
  0
VERTEX
  8
T33SSILL
 62
13
 10
1304.521
 20
-4158.999
 30
1884.544
 70
    32
  0
VERTEX
  8
T33SSILL
 62
13
 10
1317.374
 20
-4175.925
 30
1884.533
 70
    32
  0
VERTEX
  8
T33SSILL
 62
13
 10
1281.231
 20
-4201.177
 30
1884.565
 70
    32
  0
VERTEX
  8
T33SSILL
 62
13
 10
1276.885
 20
-4194.959
 30
1884.562
 70
    32
  0
VERTEX
  8
T33SSILL
 62
13
 10
1271.864
 20
-4198.249
 30
1884.558
 70
    32
  0
VERTEX
  8
T33SSILL
 62
13
 10
1276.312
 20
-4204.613
 30
1884.561
 70
    32
  0
VERTEX
  8
T33SSILL
 62
13
 10
1178.589
 20
-4272.890
 30
1884.471
 70
    32
  0
VERTEX
  8
T33SSILL
 62
13
 10
1168.890
 20
-4331.614
 30
1884.446
 70
    32
  0
VERTEX
  8
T33SSILL
 62
13
 10
1122.045
 20
-4365.612
 30
1884.414
 70
    32
  0
VERTEX
  8
T33SSILL
 62
13
 10
1116.404
 20
-4372.584
 30
1884.422
 70
    32
  0
VERTEX
  8
T33SSILL
 62
13
 10
1113.628
 20
-4382.496
 30
1884.429
 70
    32
  0
VERTEX
  8
T33SSILL
 62
13
 10
1068.817
 20
-4312.682
 30
1884.372
 70
    32
  0
VERTEX
  8
T33SSILL
 62
13
 10
1068.626
 20
-4301.205
 30
1884.374
 70
    32
  0
VERTEX
  8
T33SSILL
 62
13
 10
1072.603
 20
-4292.060
 30
1884.378
 70
    32
  0
VERTEX
  8
T33SSILL
 62
13
 10
1075.726
 20
-4288.845
 30
1884.381
 70
    32
  0
VERTEX
  8
T33SSILL
 62
13
 10
1212.514
 20
-4191.924
 30
1884.508
 70
    32
  0
VERTEX
  8
T33SSILL
 62
13
 10
1217.283
 20
-4199.035
 30
1884.511
 70
    32
  0
VERTEX
  8
T33SSILL
 62
13
 10
1223.564
 20
-4194.318
 30
1884.517
 70
    32
  0
VERTEX
  8
T33SSILL
 62
13
 10
1218.661
 20
-4186.869
 30
1884.513
 70
    32
  0
VERTEX
  8
T33SSILL
 62
13
 10
1283.049
 20
-4141.604
 30
1884.568
 70
    32
  0
VERTEX
  8
T33SSILL
 62
13
 10
1298.570
 20
-4157.510
 30
1884.552
 70
    32
  0
VERTEX
  8
T33SSILL
 62
13
 10
1302.035
 20
-4156.438
 30
1884.546
 70
    32
  0
VERTEX
  8
T33SSILL
 62
13
 10
1320.810
 20
-4138.862
 30
1884.508
 70
    32
  0
SEQEND
  8
T33SSILL
  0
POLYLINE
  8
T33SSILL
 62
13
 66
     1
 70
     9
  0
VERTEX
  8
T33SSILL
 62
13
 10
1121.182
 20
-4391.125
 30
1884.436
 70
    32
  0
VERTEX
  8
T33SSILL
 62
13
 10
1121.905
 20
-4380.304
 30
1884.428
 70
    32
  0
VERTEX
  8
T33SSILL
 62
13
 10
1127.429
 20
-4370.281
 30
1884.417
 70
    32
  0
VERTEX
  8
T33SSILL
 62
13
 10
1351.524
 20
-4210.061
 30
1884.499
 70
    32
  0
VERTEX
  8
T33SSILL
 62
13
 10
1372.509
 20
-4224.221
 30
1884.474
 70
    32
  0
VERTEX
  8
T33SSILL
 62
13
 10
1375.850
 20
-4222.614
 30
1884.468
 70
    32
  0
VERTEX
  8
T33SSILL
 62
13
 10
1387.966
 20
-4212.202
 30
1884.444
 70
    32
  0
VERTEX
  8
T33SSILL
 62
13
 10
1398.855
 20
-4227.053
 30
1884.418
 70
    32
  0
VERTEX
  8
T33SSILL
 62
13
 10
1393.989
 20
-4230.505
 30
1884.429
 70
    32
  0
VERTEX
  8
T33SSILL
 62
13
 10
1397.036
 20
-4234.804
 30
1884.414
 70
    32
  0
VERTEX
  8
T33SSILL
 62
13
 10
1267.640
 20
-4327.386
 30
1884.529
 70
    32
  0
VERTEX
  8
T33SSILL
 62
13
 10
1244.749
 20
-4295.677
 30
1884.525
 70
    32
  0
VERTEX
  8
T33SSILL
 62
13
 10
1214.117
 20
-4318.146
 30
1884.490
 70
    32
  0
VERTEX
  8
T33SSILL
 62
13
 10
1232.187
 20
-4344.100
 30
1884.492
 70
    32
  0
VERTEX
  8
T33SSILL
 62
13
 10
1227.244
 20
-4347.819
 30
1884.486
 70
    32
  0
VERTEX
  8
T33SSILL
 62
13
 10
1231.252
 20
-4353.421
 30
1884.486
 70
    32
  0
VERTEX
  8
T33SSILL
 62
13
 10
1221.522
 20
-4360.444
 30
1884.475
 70
    32
  0
VERTEX
  8
T33SSILL
 62
13
 10
1213.327
 20
-4417.001
 30
1884.440
 70
    32
  0
VERTEX
  8
T33SSILL
 62
13
 10
1173.586
 20
-4446.065
 30
1884.457
 70
    32
  0
VERTEX
  8
T33SSILL
 62
13
 10
1168.809
 20
-4451.975
 30
1884.439
 70
    32
  0
VERTEX
  8
T33SSILL
 62
13
 10
1164.977
 20
-4461.331
 30
1884.414
 70
    32
  0
VERTEX
  8
T33SSILL
 62
13
 10
1122.209
 20
-4394.078
 30
1884.438
 70
    32
  0
SEQEND
  8
T33SSILL
  0
POLYLINE
  8
T33SSILL
 62
13
 66
     1
 70
     9
  0
VERTEX
  8
T33SSILL
 62
13
 10
1175.283
 20
-4456.023
 30
1884.434
 70
    32
  0
VERTEX
  8
T33SSILL
 62
13
 10
1182.889
 20
-4447.548
 30
1884.460
 70
    32
  0
VERTEX
  8
T33SSILL
 62
13
 10
1243.670
 20
-4404.526
 30
1884.418
 70
    32
  0
VERTEX
  8
T33SSILL
 62
13
 10
1259.462
 20
-4422.519
 30
1884.314
 70
    32
  0
VERTEX
  8
T33SSILL
 62
13
 10
1394.552
 20
-4326.735
 30
1884.283
 70
    32
  0
VERTEX
  8
T33SSILL
 62
13
 10
1400.598
 20
-4290.984
 30
1884.409
 70
    32
  0
VERTEX
  8
T33SSILL
 62
13
 10
1470.221
 20
-4239.773
 30
1884.229
 70
    32
  0
VERTEX
  8
T33SSILL
 62
13
 10
1484.147
 20
-4253.358
 30
1884.205
 70
    32
  0
VERTEX
  8
T33SSILL
 62
13
 10
1498.388
 20
-4245.953
 30
1884.170
 70
    32
  0
VERTEX
  8
T33SSILL
 62
13
 10
1507.830
 20
-4259.586
 30
1884.156
 70
    32
  0
VERTEX
  8
T33SSILL
 62
13
 10
1507.883
 20
-4263.453
 30
1884.158
 70
    32
  0
VERTEX
  8
T33SSILL
 62
13
 10
1512.532
 20
-4270.866
 30
1884.151
 70
    32
  0
VERTEX
  8
T33SSILL
 62
13
 10
1527.340
 20
-4287.177
 30
1884.122
 70
    32
  0
VERTEX
  8
T33SSILL
 62
13
 10
1537.696
 20
-4301.097
 30
1884.043
 70
    32
  0
VERTEX
  8
T33SSILL
 62
13
 10
1445.500
 20
-4367.170
 30
1884.003
 70
    32
  0
VERTEX
  8
T33SSILL
 62
13
 10
1425.048
 20
-4353.536
 30
1884.105
 70
    32
  0
VERTEX
  8
T33SSILL
 62
13
 10
1306.556
 20
-4437.113
 30
1884.159
 70
    32
  0
VERTEX
  8
T33SSILL
 62
13
 10
1317.059
 20
-4459.539
 30
1884.146
 70
    32
  0
VERTEX
  8
T33SSILL
 62
13
 10
1283.429
 20
-4483.800
 30
1884.278
 70
    32
  0
VERTEX
  8
T33SSILL
 62
13
 10
1291.284
 20
-4435.776
 30
1884.208
 70
    32
  0
VERTEX
  8
T33SSILL
 62
13
 10
1415.377
 20
-4347.813
 30
1884.150
 70
    32
  0
VERTEX
  8
T33SSILL
 62
13
 10
1411.437
 20
-4342.604
 30
1884.180
 70
    32
  0
VERTEX
  8
T33SSILL
 62
13
 10
1285.518
 20
-4432.415
 30
1884.223
 70
    32
  0
VERTEX
  8
T33SSILL
 62
13
 10
1275.964
 20
-4488.378
 30
1884.306
 70
    32
  0
VERTEX
  8
T33SSILL
 62
13
 10
1224.955
 20
-4525.498
 30
1884.306
 70
    32
  0
VERTEX
  8
T33SSILL
 62
13
 10
1220.937
 20
-4530.649
 30
1884.291
 70
    32
  0
VERTEX
  8
T33SSILL
 62
13
 10
1216.911
 20
-4541.553
 30
1884.262
 70
    32
  0
VERTEX
  8
T33SSILL
 62
13
 10
1173.629
 20
-4474.342
 30
1884.390
 70
    32
  0
VERTEX
  8
T33SSILL
 62
13
 10
1171.954
 20
-4467.297
 30
1884.405
 70
    32
  0
VERTEX
  8
T33SSILL
 62
13
 10
1173.745
 20
-4458.424
 30
1884.428
 70
    32
  0
SEQEND
  8
T33SSILL
  0
POLYLINE
  8
T33SSILL
 62
13
 66
     1
 70
     9
  0
VERTEX
  8
T33SSILL
 62
13
 10
1372.147
 20
-3892.925
 30
1884.510
 70
    32
  0
VERTEX
  8
T33SSILL
 62
13
 10
1298.368
 20
-3945.060
 30
1884.442
 70
    32
  0
VERTEX
  8
T33SSILL
 62
13
 10
1293.963
 20
-3944.572
 30
1884.448
 70
    32
  0
VERTEX
  8
T33SSILL
 62
13
 10
1289.301
 20
-3941.646
 30
1884.454
 70
    32
  0
VERTEX
  8
T33SSILL
 62
13
 10
1270.722
 20
-3915.564
 30
1884.470
 70
    32
  0
VERTEX
  8
T33SSILL
 62
13
 10
1487.421
 20
-3758.951
 30
1884.586
 70
    32
  0
VERTEX
  8
T33SSILL
 62
13
 10
1494.245
 20
-3756.025
 30
1884.582
 70
    32
  0
VERTEX
  8
T33SSILL
 62
13
 10
1499.087
 20
-3755.318
 30
1884.580
 70
    32
  0
VERTEX
  8
T33SSILL
 62
13
 10
1506.234
 20
-3756.860
 30
1884.580
 70
    32
  0
VERTEX
  8
T33SSILL
 62
13
 10
1510.966
 20
-3759.733
 30
1884.580
 70
    32
  0
VERTEX
  8
T33SSILL
 62
13
 10
1566.183
 20
-3820.860
 30
1884.613
 70
    32
  0
VERTEX
  8
T33SSILL
 62
13
 10
1561.669
 20
-3820.671
 30
1884.614
 70
    32
  0
VERTEX
  8
T33SSILL
 62
13
 10
1552.986
 20
-3822.553
 30
1884.616
 70
    32
  0
VERTEX
  8
T33SSILL
 62
13
 10
1546.631
 20
-3826.119
 30
1884.614
 70
    32
  0
VERTEX
  8
T33SSILL
 62
13
 10
1449.914
 20
-3896.497
 30
1884.478
 70
    32
  0
VERTEX
  8
T33SSILL
 62
13
 10
1437.295
 20
-3898.531
 30
1884.475
 70
    32
  0
VERTEX
  8
T33SSILL
 62
13
 10
1384.719
 20
-3890.379
 30
1884.514
 70
    32
  0
SEQEND
  8
T33SSILL
  0
POLYLINE
  8
T33SSILL
 62
13
 66
     1
 70
     9
  0
VERTEX
  8
T33SSILL
 62
13
 10
1352.737
 20
-3989.964
 30
1884.382
 70
    32
  0
VERTEX
  8
T33SSILL
 62
13
 10
1364.374
 20
-3995.541
 30
1884.367
 70
    32
  0
VERTEX
  8
T33SSILL
 62
13
 10
1421.133
 20
-3954.356
 30
1884.314
 70
    32
  0
VERTEX
  8
T33SSILL
 62
13
 10
1413.423
 20
-3931.461
 30
1884.384
 70
    32
  0
VERTEX
  8
T33SSILL
 62
13
 10
1553.213
 20
-3830.918
 30
1884.615
 70
    32
  0
VERTEX
  8
T33SSILL
 62
13
 10
1558.852
 20
-3828.315
 30
1884.616
 70
    32
  0
VERTEX
  8
T33SSILL
 62
13
 10
1567.672
 20
-3828.410
 30
1884.618
 70
    32
  0
VERTEX
  8
T33SSILL
 62
13
 10
1573.719
 20
-3830.539
 30
1884.618
 70
    32
  0
VERTEX
  8
T33SSILL
 62
13
 10
1576.540
 20
-3832.299
 30
1884.619
 70
    32
  0
VERTEX
  8
T33SSILL
 62
13
 10
1629.552
 20
-3891.761
 30
1884.344
 70
    32
  0
VERTEX
  8
T33SSILL
 62
13
 10
1619.466
 20
-3892.923
 30
1884.352
 70
    32
  0
VERTEX
  8
T33SSILL
 62
13
 10
1609.981
 20
-3897.143
 30
1884.369
 70
    32
  0
VERTEX
  8
T33SSILL
 62
13
 10
1564.456
 20
-3930.528
 30
1884.346
 70
    32
  0
VERTEX
  8
T33SSILL
 62
13
 10
1506.028
 20
-3921.854
 30
1884.388
 70
    32
  0
VERTEX
  8
T33SSILL
 62
13
 10
1350.672
 20
-4030.371
 30
1884.406
 70
    32
  0
VERTEX
  8
T33SSILL
 62
13
 10
1323.783
 20
-3992.585
 30
1884.427
 70
    32
  0
VERTEX
  8
T33SSILL
 62
13
 10
1329.795
 20
-3988.541
 30
1884.416
 70
    32
  0
VERTEX
  8
T33SSILL
 62
13
 10
1339.454
 20
-3984.828
 30
1884.399
 70
    32
  0
VERTEX
  8
T33SSILL
 62
13
 10
1343.177
 20
-3988.115
 30
1884.395
 70
    32
  0
VERTEX
  8
T33SSILL
 62
13
 10
1347.705
 20
-3986.981
 30
1884.388
 70
    32
  0
SEQEND
  8
T33SSILL
  0
POLYLINE
  8
T33SSILL
 62
13
 66
     1
 70
     9
  0
VERTEX
  8
T33SSILL
 62
13
 10
1353.574
 20
-4507.845
 30
1884.072
 70
    32
  0
VERTEX
  8
T33SSILL
 62
13
 10
1409.024
 20
-4467.807
 30
1883.855
 70
    32
  0
VERTEX
  8
T33SSILL
 62
13
 10
1412.822
 20
-4473.067
 30
1883.847
 70
    32
  0
VERTEX
  8
T33SSILL
 62
13
 10
1456.750
 20
-4441.660
 30
1883.719
 70
    32
  0
VERTEX
  8
T33SSILL
 62
13
 10
1460.434
 20
-4446.763
 30
1883.691
 70
    32
  0
VERTEX
  8
T33SSILL
 62
13
 10
1372.263
 20
-4511.778
 30
1884.015
 70
    32
  0
VERTEX
  8
T33SSILL
 62
13
 10
1383.117
 20
-4527.140
 30
1883.994
 70
    32
  0
VERTEX
  8
T33SSILL
 62
13
 10
1332.290
 20
-4563.346
 30
1884.193
 70
    32
  0
VERTEX
  8
T33SSILL
 62
13
 10
1325.507
 20
-4566.622
 30
1884.213
 70
    32
  0
VERTEX
  8
T33SSILL
 62
13
 10
1332.092
 20
-4522.435
 30
1884.155
 70
    32
  0
SEQEND
  8
T33SSILL
  0
POLYLINE
  8
T33SSILL
 62
13
 66
     1
 70
     9
  0
VERTEX
  8
T33SSILL
 62
13
 10
1439.317
 20
-4602.796
 30
1883.881
 70
    32
  0
VERTEX
  8
T33SSILL
 62
13
 10
1433.310
 20
-4600.982
 30
1883.899
 70
    32
  0
VERTEX
  8
T33SSILL
 62
13
 10
1427.097
 20
-4594.408
 30
1883.913
 70
    32
  0
VERTEX
  8
T33SSILL
 62
13
 10
1418.490
 20
-4599.928
 30
1883.946
 70
    32
  0
VERTEX
  8
T33SSILL
 62
13
 10
1426.696
 20
-4614.867
 30
1883.933
 70
    32
  0
VERTEX
  8
T33SSILL
 62
13
 10
1390.708
 20
-4641.104
 30
1884.075
 70
    32
  0
VERTEX
  8
T33SSILL
 62
13
 10
1399.673
 20
-4594.315
 30
1884.002
 70
    32
  0
VERTEX
  8
T33SSILL
 62
13
 10
1427.648
 20
-4573.815
 30
1883.892
 70
    32
  0
VERTEX
  8
T33SSILL
 62
13
 10
1430.811
 20
-4578.156
 30
1883.886
 70
    32
  0
VERTEX
  8
T33SSILL
 62
13
 10
1450.207
 20
-4564.021
 30
1883.810
 70
    32
  0
VERTEX
  8
T33SSILL
 62
13
 10
1447.007
 20
-4559.630
 30
1883.816
 70
    32
  0
VERTEX
  8
T33SSILL
 62
13
 10
1471.206
 20
-4541.898
 30
1883.721
 70
    32
  0
VERTEX
  8
T33SSILL
 62
13
 10
1474.303
 20
-4546.148
 30
1883.715
 70
    32
  0
VERTEX
  8
T33SSILL
 62
13
 10
1517.944
 20
-4514.344
 30
1883.544
 70
    32
  0
VERTEX
  8
T33SSILL
 62
13
 10
1514.764
 20
-4509.980
 30
1883.550
 70
    32
  0
VERTEX
  8
T33SSILL
 62
13
 10
1560.122
 20
-4476.742
 30
1883.372
 70
    32
  0
VERTEX
  8
T33SSILL
 62
13
 10
1551.984
 20
-4465.002
 30
1883.387
 70
    32
  0
VERTEX
  8
T33SSILL
 62
13
 10
1452.180
 20
-4536.165
 30
1883.778
 70
    32
  0
VERTEX
  8
T33SSILL
 62
13
 10
1448.646
 20
-4531.316
 30
1883.785
 70
    32
  0
VERTEX
  8
T33SSILL
 62
13
 10
1405.005
 20
-4563.119
 30
1883.956
 70
    32
  0
VERTEX
  8
T33SSILL
 62
13
 10
1408.539
 20
-4567.968
 30
1883.949
 70
    32
  0
VERTEX
  8
T33SSILL
 62
13
 10
1400.319
 20
-4584.786
 30
1883.991
 70
    32
  0
VERTEX
  8
T33SSILL
 62
13
 10
1393.648
 20
-4589.679
 30
1884.018
 70
    32
  0
VERTEX
  8
T33SSILL
 62
13
 10
1383.771
 20
-4645.732
 30
1884.092
 70
    32
  0
VERTEX
  8
T33SSILL
 62
13
 10
1338.162
 20
-4676.555
 30
1884.031
 70
    32
  0
VERTEX
  8
T33SSILL
 62
13
 10
1329.674
 20
-4687.287
 30
1884.000
 70
    32
  0
VERTEX
  8
T33SSILL
 62
13
 10
1328.650
 20
-4690.406
 30
1883.992
 70
    32
  0
VERTEX
  8
T33SSILL
 62
13
 10
1328.819
 20
-4700.805
 30
1883.967
 70
    32
  0
VERTEX
  8
T33SSILL
 62
13
 10
1316.579
 20
-4691.878
 30
1883.979
 70
    32
  0
VERTEX
  8
T33SSILL
 62
13
 10
1275.875
 20
-4631.609
 30
1884.092
 70
    32
  0
VERTEX
  8
T33SSILL
 62
13
 10
1273.870
 20
-4621.220
 30
1884.115
 70
    32
  0
VERTEX
  8
T33SSILL
 62
13
 10
1276.430
 20
-4611.906
 30
1884.139
 70
    32
  0
VERTEX
  8
T33SSILL
 62
13
 10
1282.827
 20
-4604.621
 30
1884.161
 70
    32
  0
VERTEX
  8
T33SSILL
 62
13
 10
1333.492
 20
-4572.244
 30
1884.197
 70
    32
  0
VERTEX
  8
T33SSILL
 62
13
 10
1390.992
 20
-4531.500
 30
1883.972
 70
    32
  0
VERTEX
  8
T33SSILL
 62
13
 10
1406.382
 20
-4553.183
 30
1883.942
 70
    32
  0
VERTEX
  8
T33SSILL
 62
13
 10
1538.535
 20
-4455.765
 30
1883.451
 70
    32
  0
VERTEX
  8
T33SSILL
 62
13
 10
1519.984
 20
-4435.594
 30
1883.569
 70
    32
  0
VERTEX
  8
T33SSILL
 62
13
 10
1579.247
 20
-4392.117
 30
1883.586
 70
    32
  0
VERTEX
  8
T33SSILL
 62
13
 10
1595.825
 20
-4406.656
 30
1883.490
 70
    32
  0
VERTEX
  8
T33SSILL
 62
13
 10
1601.739
 20
-4407.679
 30
1883.472
 70
    32
  0
VERTEX
  8
T33SSILL
 62
13
 10
1606.846
 20
-4406.414
 30
1883.464
 70
    32
  0
VERTEX
  8
T33SSILL
 62
13
 10
1619.967
 20
-4396.766
 30
1883.471
 70
    32
  0
VERTEX
  8
T33SSILL
 62
13
 10
1629.137
 20
-4417.832
 30
1883.367
 70
    32
  0
VERTEX
  8
T33SSILL
 62
13
 10
1637.998
 20
-4424.922
 30
1883.318
 70
    32
  0
VERTEX
  8
T33SSILL
 62
13
 10
1644.008
 20
-4427.267
 30
1883.294
 70
    32
  0
VERTEX
  8
T33SSILL
 62
13
 10
1654.277
 20
-4450.208
 30
1883.254
 70
    32
  0
VERTEX
  8
T33SSILL
 62
13
 10
1525.617
 20
-4542.561
 30
1883.545
 70
    32
  0
VERTEX
  8
T33SSILL
 62
13
 10
1517.531
 20
-4532.736
 30
1883.562
 70
    32
  0
VERTEX
  8
T33SSILL
 62
13
 10
1509.390
 20
-4528.025
 30
1883.584
 70
    32
  0
VERTEX
  8
T33SSILL
 62
13
 10
1448.037
 20
-4573.026
 30
1883.825
 70
    32
  0
VERTEX
  8
T33SSILL
 62
13
 10
1443.670
 20
-4593.863
 30
1883.859
 70
    32
  0
VERTEX
  8
T33SSILL
 62
13
 10
1445.383
 20
-4599.760
 30
1883.859
 70
    32
  0
VERTEX
  8
T33SSILL
 62
13
 10
1442.309
 20
-4601.719
 30
1883.871
 70
    32
  0
SEQEND
  8
T33SSILL
  0
POLYLINE
  8
T33SSILL
 62
13
 66
     1
 70
     9
  0
VERTEX
  8
T33SSILL
 62
13
 10
1321.134
 20
-4466.604
 30
1884.139
 70
    32
  0
VERTEX
  8
T33SSILL
 62
13
 10
1337.470
 20
-4483.991
 30
1884.102
 70
    32
  0
VERTEX
  8
T33SSILL
 62
13
 10
1349.685
 20
-4476.827
 30
1884.056
 70
    32
  0
VERTEX
  8
T33SSILL
 62
13
 10
1453.721
 20
-4399.925
 30
1883.869
 70
    32
  0
VERTEX
  8
T33SSILL
 62
13
 10
1449.686
 20
-4374.023
 30
1883.968
 70
    32
  0
VERTEX
  8
T33SSILL
 62
13
 10
1541.786
 20
-4306.628
 30
1884.011
 70
    32
  0
VERTEX
  8
T33SSILL
 62
13
 10
1579.309
 20
-4358.255
 30
1883.719
 70
    32
  0
VERTEX
  8
T33SSILL
 62
13
 10
1587.981
 20
-4377.956
 30
1883.621
 70
    32
  0
VERTEX
  8
T33SSILL
 62
13
 10
1514.135
 20
-4430.779
 30
1883.602
 70
    32
  0
VERTEX
  8
T33SSILL
 62
13
 10
1497.225
 20
-4419.593
 30
1883.685
 70
    32
  0
VERTEX
  8
T33SSILL
 62
13
 10
1479.742
 20
-4432.505
 30
1883.688
 70
    32
  0
VERTEX
  8
T33SSILL
 62
13
 10
1476.273
 20
-4427.701
 30
1883.714
 70
    32
  0
VERTEX
  8
T33SSILL
 62
13
 10
1481.154
 20
-4424.212
 30
1883.713
 70
    32
  0
VERTEX
  8
T33SSILL
 62
13
 10
1477.127
 20
-4418.634
 30
1883.742
 70
    32
  0
VERTEX
  8
T33SSILL
 62
13
 10
1496.585
 20
-4404.584
 30
1883.738
 70
    32
  0
VERTEX
  8
T33SSILL
 62
13
 10
1491.098
 20
-4397.761
 30
1883.776
 70
    32
  0
VERTEX
  8
T33SSILL
 62
13
 10
1452.730
 20
-4425.844
 30
1883.783
 70
    32
  0
VERTEX
  8
T33SSILL
 62
13
 10
1449.547
 20
-4421.435
 30
1883.807
 70
    32
  0
VERTEX
  8
T33SSILL
 62
13
 10
1439.564
 20
-4428.109
 30
1883.811
 70
    32
  0
VERTEX
  8
T33SSILL
 62
13
 10
1443.047
 20
-4432.932
 30
1883.785
 70
    32
  0
VERTEX
  8
T33SSILL
 62
13
 10
1355.537
 20
-4496.986
 30
1884.056
 70
    32
  0
VERTEX
  8
T33SSILL
 62
13
 10
1325.034
 20
-4517.720
 30
1884.174
 70
    32
  0
VERTEX
  8
T33SSILL
 62
13
 10
1316.330
 20
-4572.750
 30
1884.225
 70
    32
  0
VERTEX
  8
T33SSILL
 62
13
 10
1275.492
 20
-4601.947
 30
1884.162
 70
    32
  0
VERTEX
  8
T33SSILL
 62
13
 10
1269.424
 20
-4610.299
 30
1884.138
 70
    32
  0
VERTEX
  8
T33SSILL
 62
13
 10
1266.874
 20
-4618.413
 30
1884.117
 70
    32
  0
VERTEX
  8
T33SSILL
 62
13
 10
1224.106
 20
-4552.678
 30
1884.241
 70
    32
  0
VERTEX
  8
T33SSILL
 62
13
 10
1223.506
 20
-4541.827
 30
1884.266
 70
    32
  0
VERTEX
  8
T33SSILL
 62
13
 10
1229.860
 20
-4530.994
 30
1884.297
 70
    32
  0
VERTEX
  8
T33SSILL
 62
13
 10
1275.829
 20
-4498.565
 30
1884.316
 70
    32
  0
SEQEND
  8
T33SSILL
  0
POLYLINE
  8
T33SSILL
 62
13
 66
     1
 70
     9
  0
VERTEX
  8
T33SSILL
 62
13
 10
1489.237
 20
-4661.120
 30
1883.773
 70
    32
  0
VERTEX
  8
T33SSILL
 62
13
 10
1492.180
 20
-4680.500
 30
1883.781
 70
    32
  0
VERTEX
  8
T33SSILL
 62
13
 10
1490.406
 20
-4685.481
 30
1883.792
 70
    32
  0
VERTEX
  8
T33SSILL
 62
13
 10
1417.592
 20
-4737.959
 30
1883.944
 70
    32
  0
VERTEX
  8
T33SSILL
 62
13
 10
1410.223
 20
-4747.190
 30
1883.917
 70
    32
  0
VERTEX
  8
T33SSILL
 62
13
 10
1407.810
 20
-4753.620
 30
1883.900
 70
    32
  0
VERTEX
  8
T33SSILL
 62
13
 10
1408.278
 20
-4766.506
 30
1883.870
 70
    32
  0
VERTEX
  8
T33SSILL
 62
13
 10
1345.197
 20
-4717.789
 30
1883.939
 70
    32
  0
VERTEX
  8
T33SSILL
 62
13
 10
1340.248
 20
-4709.662
 30
1883.954
 70
    32
  0
VERTEX
  8
T33SSILL
 62
13
 10
1337.252
 20
-4707.140
 30
1883.958
 70
    32
  0
VERTEX
  8
T33SSILL
 62
13
 10
1335.103
 20
-4694.577
 30
1883.986
 70
    32
  0
VERTEX
  8
T33SSILL
 62
13
 10
1335.501
 20
-4690.279
 30
1883.997
 70
    32
  0
VERTEX
  8
T33SSILL
 62
13
 10
1339.663
 20
-4684.267
 30
1884.014
 70
    32
  0
VERTEX
  8
T33SSILL
 62
13
 10
1347.352
 20
-4676.818
 30
1884.038
 70
    32
  0
VERTEX
  8
T33SSILL
 62
13
 10
1373.337
 20
-4661.980
 30
1884.092
 70
    32
  0
VERTEX
  8
T33SSILL
 62
13
 10
1430.878
 20
-4620.925
 30
1883.925
 70
    32
  0
VERTEX
  8
T33SSILL
 62
13
 10
1434.310
 20
-4619.933
 30
1883.913
 70
    32
  0
VERTEX
  8
T33SSILL
 62
13
 10
1436.080
 20
-4620.892
 30
1883.909
 70
    32
  0
VERTEX
  8
T33SSILL
 62
13
 10
1445.767
 20
-4633.000
 30
1883.888
 70
    32
  0
VERTEX
  8
T33SSILL
 62
13
 10
1449.456
 20
-4630.684
 30
1883.874
 70
    32
  0
VERTEX
  8
T33SSILL
 62
13
 10
1448.963
 20
-4622.399
 30
1883.868
 70
    32
  0
VERTEX
  8
T33SSILL
 62
13
 10
1445.562
 20
-4614.396
 30
1883.872
 70
    32
  0
VERTEX
  8
T33SSILL
 62
13
 10
1449.579
 20
-4608.110
 30
1883.853
 70
    32
  0
VERTEX
  8
T33SSILL
 62
13
 10
1456.065
 20
-4601.897
 30
1883.826
 70
    32
  0
VERTEX
  8
T33SSILL
 62
13
 10
1475.484
 20
-4619.147
 30
1883.779
 70
    32
  0
VERTEX
  8
T33SSILL
 62
13
 10
1515.081
 20
-4592.005
 30
1883.625
 70
    32
  0
VERTEX
  8
T33SSILL
 62
13
 10
1519.347
 20
-4597.445
 30
1883.616
 70
    32
  0
VERTEX
  8
T33SSILL
 62
13
 10
1508.746
 20
-4604.831
 30
1883.657
 70
    32
  0
VERTEX
  8
T33SSILL
 62
13
 10
1510.497
 20
-4607.184
 30
1883.654
 70
    32
  0
VERTEX
  8
T33SSILL
 62
13
 10
1507.772
 20
-4608.807
 30
1883.664
 70
    32
  0
VERTEX
  8
T33SSILL
 62
13
 10
1524.720
 20
-4632.375
 30
1883.631
 70
    32
  0
VERTEX
  8
T33SSILL
 62
13
 10
1490.629
 20
-4658.114
 30
1883.766
 70
    32
  0
SEQEND
  8
T33SSILL
  0
POLYLINE
  8
T33SSILL
 62
13
 66
     1
 70
     9
  0
VERTEX
  8
T33SSILL
 62
13
 10
995.986
 20
-3964.800
 30
1884.491
 70
    32
  0
VERTEX
  8
T33SSILL
 62
13
 10
1088.008
 20
-3899.117
 30
1884.519
 70
    32
  0
VERTEX
  8
T33SSILL
 62
13
 10
1094.789
 20
-3908.566
 30
1884.518
 70
    32
  0
VERTEX
  8
T33SSILL
 62
13
 10
1093.354
 20
-3909.589
 30
1884.518
 70
    32
  0
VERTEX
  8
T33SSILL
 62
13
 10
1106.671
 20
-3924.250
 30
1884.517
 70
    32
  0
VERTEX
  8
T33SSILL
 62
13
 10
1022.994
 20
-3983.825
 30
1884.491
 70
    32
  0
VERTEX
  8
T33SSILL
 62
13
 10
1009.493
 20
-3970.649
 30
1884.491
 70
    32
  0
VERTEX
  8
T33SSILL
 62
13
 10
1003.273
 20
-3975.065
 30
1884.490
 70
    32
  0
SEQEND
  8
T33SSILL
  0
POLYLINE
  8
T33SSILL
 62
13
 66
     1
 70
     9
  0
VERTEX
  8
T33SSILL
 62
13
 10
1044.693
 20
-4022.261
 30
1884.486
 70
    32
  0
VERTEX
  8
T33SSILL
 62
13
 10
1042.332
 20
-4019.275
 30
1884.486
 70
    32
  0
VERTEX
  8
T33SSILL
 62
13
 10
1032.410
 20
-4026.568
 30
1884.483
 70
    32
  0
VERTEX
  8
T33SSILL
 62
13
 10
1023.738
 20
-4015.356
 30
1884.484
 70
    32
  0
VERTEX
  8
T33SSILL
 62
13
 10
1032.702
 20
-4008.872
 30
1884.487
 70
    32
  0
VERTEX
  8
T33SSILL
 62
13
 10
1027.490
 20
-3989.949
 30
1884.490
 70
    32
  0
VERTEX
  8
T33SSILL
 62
13
 10
1112.657
 20
-3928.918
 30
1884.517
 70
    32
  0
VERTEX
  8
T33SSILL
 62
13
 10
1125.390
 20
-3942.451
 30
1884.516
 70
    32
  0
VERTEX
  8
T33SSILL
 62
13
 10
1130.067
 20
-3939.044
 30
1884.517
 70
    32
  0
VERTEX
  8
T33SSILL
 62
13
 10
1133.687
 20
-3944.031
 30
1884.517
 70
    32
  0
VERTEX
  8
T33SSILL
 62
13
 10
1128.829
 20
-3947.553
 30
1884.515
 70
    32
  0
VERTEX
  8
T33SSILL
 62
13
 10
1132.397
 20
-3952.467
 30
1884.515
 70
    32
  0
VERTEX
  8
T33SSILL
 62
13
 10
1115.570
 20
-3964.450
 30
1884.509
 70
    32
  0
VERTEX
  8
T33SSILL
 62
13
 10
1059.258
 20
-4010.831
 30
1884.490
 70
    32
  0
SEQEND
  8
T33SSILL
  0
POLYLINE
  8
T33SSILL
 62
13
 66
     1
 70
     9
  0
VERTEX
  8
T33SSILL
 62
13
 10
1082.470
 20
-4043.554
 30
1884.486
 70
    32
  0
VERTEX
  8
T33SSILL
 62
13
 10
1078.632
 20
-4038.051
 30
1884.487
 70
    32
  0
VERTEX
  8
T33SSILL
 62
13
 10
1082.974
 20
-4034.830
 30
1884.489
 70
    32
  0
VERTEX
  8
T33SSILL
 62
13
 10
1074.437
 20
-4029.593
 30
1884.489
 70
    32
  0
VERTEX
  8
T33SSILL
 62
13
 10
1071.915
 20
-4034.545
 30
1884.487
 70
    32
  0
VERTEX
  8
T33SSILL
 62
13
 10
1064.192
 20
-4041.922
 30
1884.484
 70
    32
  0
VERTEX
  8
T33SSILL
 62
13
 10
1064.170
 20
-4047.792
 30
1884.483
 70
    32
  0
VERTEX
  8
T33SSILL
 62
13
 10
1059.761
 20
-4051.927
 30
1884.481
 70
    32
  0
VERTEX
  8
T33SSILL
 62
13
 10
1043.319
 20
-4051.676
 30
1884.479
 70
    32
  0
VERTEX
  8
T33SSILL
 62
13
 10
1026.533
 20
-4054.273
 30
1884.476
 70
    32
  0
VERTEX
  8
T33SSILL
 62
13
 10
1013.915
 20
-4062.231
 30
1884.472
 70
    32
  0
VERTEX
  8
T33SSILL
 62
13
 10
1010.291
 20
-4070.791
 30
1884.469
 70
    32
  0
VERTEX
  8
T33SSILL
 62
13
 10
1020.716
 20
-4088.364
 30
1884.467
 70
    32
  0
VERTEX
  8
T33SSILL
 62
13
 10
995.369
 20
-4106.094
 30
1884.459
 70
    32
  0
VERTEX
  8
T33SSILL
 62
13
 10
1001.554
 20
-4064.801
 30
1884.469
 70
    32
  0
VERTEX
  8
T33SSILL
 62
13
 10
1020.517
 20
-4050.094
 30
1884.476
 70
    32
  0
VERTEX
  8
T33SSILL
 62
13
 10
1023.439
 20
-4053.990
 30
1884.475
 70
    32
  0
VERTEX
  8
T33SSILL
 62
13
 10
1028.130
 20
-4050.113
 30
1884.477
 70
    32
  0
VERTEX
  8
T33SSILL
 62
13
 10
1029.542
 20
-4043.094
 30
1884.479
 70
    32
  0
VERTEX
  8
T33SSILL
 62
13
 10
1046.719
 20
-4030.701
 30
1884.484
 70
    32
  0
VERTEX
  8
T33SSILL
 62
13
 10
1119.554
 20
-3970.918
 30
1884.508
 70
    32
  0
VERTEX
  8
T33SSILL
 62
13
 10
1136.813
 20
-3958.550
 30
1884.514
 70
    32
  0
VERTEX
  8
T33SSILL
 62
13
 10
1144.225
 20
-3968.760
 30
1884.513
 70
    32
  0
VERTEX
  8
T33SSILL
 62
13
 10
1178.213
 20
-3944.086
 30
1884.522
 70
    32
  0
VERTEX
  8
T33SSILL
 62
13
 10
1174.548
 20
-3939.037
 30
1884.524
 70
    32
  0
VERTEX
  8
T33SSILL
 62
13
 10
1194.127
 20
-3925.155
 30
1884.529
 70
    32
  0
VERTEX
  8
T33SSILL
 62
13
 10
1190.462
 20
-3920.105
 30
1884.531
 70
    32
  0
VERTEX
  8
T33SSILL
 62
13
 10
1239.963
 20
-3884.632
 30
1884.546
 70
    32
  0
VERTEX
  8
T33SSILL
 62
13
 10
1261.347
 20
-3914.624
 30
1884.482
 70
    32
  0
VERTEX
  8
T33SSILL
 62
13
 10
1196.124
 20
-3961.581
 30
1884.515
 70
    32
  0
VERTEX
  8
T33SSILL
 62
13
 10
1179.420
 20
-3944.171
 30
1884.522
 70
    32
  0
VERTEX
  8
T33SSILL
 62
13
 10
1175.944
 20
-3948.397
 30
1884.521
 70
    32
  0
VERTEX
  8
T33SSILL
 62
13
 10
1163.225
 20
-3957.728
 30
1884.517
 70
    32
  0
VERTEX
  8
T33SSILL
 62
13
 10
1170.890
 20
-3979.772
 30
1884.507
 70
    32
  0
VERTEX
  8
T33SSILL
 62
13
 10
1089.425
 20
-4038.916
 30
1884.487
 70
    32
  0
SEQEND
  8
T33SSILL
  0
POLYLINE
  8
T33SSILL
 62
13
 66
     1
 70
     9
  0
VERTEX
  8
T33SSILL
 62
13
 10
944.077
 20
-3984.965
 30
1884.478
 70
    32
  0
VERTEX
  8
T33SSILL
 62
13
 10
948.405
 20
-3991.061
 30
1884.477
 70
    32
  0
VERTEX
  8
T33SSILL
 62
13
 10
943.024
 20
-3994.923
 30
1884.476
 70
    32
  0
VERTEX
  8
T33SSILL
 62
13
 10
935.284
 20
-4046.542
 30
1884.463
 70
    32
  0
VERTEX
  8
T33SSILL
 62
13
 10
922.113
 20
-4055.458
 30
1884.459
 70
    32
  0
VERTEX
  8
T33SSILL
 62
13
 10
914.874
 20
-4066.682
 30
1884.456
 70
    32
  0
VERTEX
  8
T33SSILL
 62
13
 10
913.656
 20
-4072.436
 30
1884.454
 70
    32
  0
VERTEX
  8
T33SSILL
 62
13
 10
883.145
 20
-4023.786
 30
1884.460
 70
    32
  0
VERTEX
  8
T33SSILL
 62
13
 10
881.347
 20
-4017.029
 30
1884.461
 70
    32
  0
VERTEX
  8
T33SSILL
 62
13
 10
881.606
 20
-4009.899
 30
1884.463
 70
    32
  0
VERTEX
  8
T33SSILL
 62
13
 10
886.247
 20
-4000.362
 30
1884.466
 70
    32
  0
VERTEX
  8
T33SSILL
 62
13
 10
939.802
 20
-3961.227
 30
1884.483
 70
    32
  0
VERTEX
  8
T33SSILL
 62
13
 10
943.324
 20
-3966.753
 30
1884.482
 70
    32
  0
VERTEX
  8
T33SSILL
 62
13
 10
947.506
 20
-3978.582
 30
1884.480
 70
    32
  0
VERTEX
  8
T33SSILL
 62
13
 10
996.703
 20
-3943.176
 30
1884.496
 70
    32
  0
VERTEX
  8
T33SSILL
 62
13
 10
986.162
 20
-3927.918
 30
1884.497
 70
    32
  0
VERTEX
  8
T33SSILL
 62
13
 10
1083.943
 20
-3857.470
 30
1884.528
 70
    32
  0
VERTEX
  8
T33SSILL
 62
13
 10
1097.703
 20
-3871.462
 30
1884.527
 70
    32
  0
VERTEX
  8
T33SSILL
 62
13
 10
1103.606
 20
-3879.688
 30
1884.526
 70
    32
  0
VERTEX
  8
T33SSILL
 62
13
 10
987.403
 20
-3963.076
 30
1884.490
 70
    32
  0
VERTEX
  8
T33SSILL
 62
13
 10
983.216
 20
-3957.178
 30
1884.490
 70
    32
  0
SEQEND
  8
T33SSILL
  0
POLYLINE
  8
T33SSILL
 62
13
 66
     1
 70
     9
  0
VERTEX
  8
T33SSILL
 62
13
 10
1024.415
 20
-3621.896
 30
1884.547
 70
    32
  0
VERTEX
  8
T33SSILL
 62
13
 10
1031.373
 20
-3618.490
 30
1884.549
 70
    32
  0
VERTEX
  8
T33SSILL
 62
13
 10
1038.486
 20
-3617.867
 30
1884.550
 70
    32
  0
VERTEX
  8
T33SSILL
 62
13
 10
1044.743
 20
-3619.587
 30
1884.551
 70
    32
  0
VERTEX
  8
T33SSILL
 62
13
 10
1051.960
 20
-3623.689
 30
1884.552
 70
    32
  0
VERTEX
  8
T33SSILL
 62
13
 10
1086.708
 20
-3672.615
 30
1884.551
 70
    32
  0
VERTEX
  8
T33SSILL
 62
13
 10
1077.970
 20
-3672.156
 30
1884.549
 70
    32
  0
VERTEX
  8
T33SSILL
 62
13
 10
1066.783
 20
-3675.728
 30
1884.546
 70
    32
  0
VERTEX
  8
T33SSILL
 62
13
 10
1013.105
 20
-3714.848
 30
1884.535
 70
    32
  0
VERTEX
  8
T33SSILL
 62
13
 10
1003.074
 20
-3712.155
 30
1884.535
 70
    32
  0
VERTEX
  8
T33SSILL
 62
13
 10
971.677
 20
-3668.107
 30
1884.535
 70
    32
  0
VERTEX
  8
T33SSILL
 62
13
 10
973.372
 20
-3658.517
 30
1884.536
 70
    32
  0
VERTEX
  8
T33SSILL
 62
13
 10
1001.724
 20
-3638.176
 30
1884.540
 70
    32
  0
SEQEND
  8
T33SSILL
  0
POLYLINE
  8
T33SSILL
 62
13
 66
     1
 70
     9
  0
VERTEX
  8
T33SSILL
 62
13
 10
1076.254
 20
-3839.991
 30
1884.531
 70
    32
  0
VERTEX
  8
T33SSILL
 62
13
 10
1079.857
 20
-3851.936
 30
1884.529
 70
    32
  0
VERTEX
  8
T33SSILL
 62
13
 10
981.171
 20
-3923.088
 30
1884.498
 70
    32
  0
VERTEX
  8
T33SSILL
 62
13
 10
967.607
 20
-3908.397
 30
1884.499
 70
    32
  0
VERTEX
  8
T33SSILL
 62
13
 10
925.793
 20
-3938.502
 30
1884.486
 70
    32
  0
VERTEX
  8
T33SSILL
 62
13
 10
928.303
 20
-3947.609
 30
1884.484
 70
    32
  0
VERTEX
  8
T33SSILL
 62
13
 10
933.923
 20
-3956.977
 30
1884.483
 70
    32
  0
VERTEX
  8
T33SSILL
 62
13
 10
906.963
 20
-3975.737
 30
1884.474
 70
    32
  0
VERTEX
  8
T33SSILL
 62
13
 10
912.811
 20
-3940.342
 30
1884.483
 70
    32
  0
VERTEX
  8
T33SSILL
 62
13
 10
1027.558
 20
-3858.246
 30
1884.519
 70
    32
  0
VERTEX
  8
T33SSILL
 62
13
 10
1047.225
 20
-3837.009
 30
1884.527
 70
    32
  0
VERTEX
  8
T33SSILL
 62
13
 10
1063.390
 20
-3825.630
 30
1884.532
 70
    32
  0
VERTEX
  8
T33SSILL
 62
13
 10
1065.508
 20
-3829.070
 30
1884.531
 70
    32
  0
VERTEX
  8
T33SSILL
 62
13
 10
1071.001
 20
-3825.475
 30
1884.532
 70
    32
  0
VERTEX
  8
T33SSILL
 62
13
 10
1076.299
 20
-3832.939
 30
1884.532
 70
    32
  0
SEQEND
  8
T33SSILL
  0
POLYLINE
  8
T33SSILL
 62
13
 66
     1
 70
     9
  0
VERTEX
  8
T33SSILL
 62
13
 10
1134.855
 20
-3743.624
 30
1884.549
 70
    32
  0
VERTEX
  8
T33SSILL
 62
13
 10
1140.007
 20
-3747.658
 30
1884.549
 70
    32
  0
VERTEX
  8
T33SSILL
 62
13
 10
1172.449
 20
-3792.904
 30
1884.548
 70
    32
  0
VERTEX
  8
T33SSILL
 62
13
 10
1115.447
 20
-3782.987
 30
1884.539
 70
    32
  0
VERTEX
  8
T33SSILL
 62
13
 10
1105.088
 20
-3787.478
 30
1884.538
 70
    32
  0
VERTEX
  8
T33SSILL
 62
13
 10
1074.272
 20
-3809.348
 30
1884.534
 70
    32
  0
VERTEX
  8
T33SSILL
 62
13
 10
1071.288
 20
-3805.144
 30
1884.534
 70
    32
  0
VERTEX
  8
T33SSILL
 62
13
 10
1056.614
 20
-3815.569
 30
1884.532
 70
    32
  0
VERTEX
  8
T33SSILL
 62
13
 10
1059.593
 20
-3819.766
 30
1884.532
 70
    32
  0
VERTEX
  8
T33SSILL
 62
13
 10
1041.971
 20
-3832.272
 30
1884.527
 70
    32
  0
VERTEX
  8
T33SSILL
 62
13
 10
1021.431
 20
-3852.961
 30
1884.519
 70
    32
  0
VERTEX
  8
T33SSILL
 62
13
 10
904.975
 20
-3936.164
 30
1884.483
 70
    32
  0
VERTEX
  8
T33SSILL
 62
13
 10
898.237
 20
-3981.751
 30
1884.472
 70
    32
  0
VERTEX
  8
T33SSILL
 62
13
 10
880.499
 20
-3995.564
 30
1884.466
 70
    32
  0
VERTEX
  8
T33SSILL
 62
13
 10
876.405
 20
-4003.222
 30
1884.464
 70
    32
  0
VERTEX
  8
T33SSILL
 62
13
 10
874.732
 20
-4010.112
 30
1884.462
 70
    32
  0
VERTEX
  8
T33SSILL
 62
13
 10
841.760
 20
-3958.015
 30
1884.468
 70
    32
  0
VERTEX
  8
T33SSILL
 62
13
 10
840.069
 20
-3950.392
 30
1884.470
 70
    32
  0
VERTEX
  8
T33SSILL
 62
13
 10
840.438
 20
-3946.417
 30
1884.471
 70
    32
  0
VERTEX
  8
T33SSILL
 62
13
 10
845.961
 20
-3935.859
 30
1884.474
 70
    32
  0
VERTEX
  8
T33SSILL
 62
13
 10
1114.101
 20
-3742.802
 30
1884.545
 70
    32
  0
VERTEX
  8
T33SSILL
 62
13
 10
1121.282
 20
-3740.114
 30
1884.547
 70
    32
  0
VERTEX
  8
T33SSILL
 62
13
 10
1131.753
 20
-3741.794
 30
1884.548
 70
    32
  0
SEQEND
  8
T33SSILL
  0
POLYLINE
  8
T33SSILL
 62
13
 66
     1
 70
     9
  0
VERTEX
  8
T33SSILL
 62
13
 10
1116.968
 20
-3715.203
 30
1884.550
 70
    32
  0
VERTEX
  8
T33SSILL
 62
13
 10
1130.387
 20
-3733.583
 30
1884.549
 70
    32
  0
VERTEX
  8
T33SSILL
 62
13
 10
1120.064
 20
-3733.241
 30
1884.547
 70
    32
  0
VERTEX
  8
T33SSILL
 62
13
 10
1110.764
 20
-3736.796
 30
1884.545
 70
    32
  0
VERTEX
  8
T33SSILL
 62
13
 10
865.865
 20
-3912.201
 30
1884.482
 70
    32
  0
VERTEX
  8
T33SSILL
 62
13
 10
871.405
 20
-3879.280
 30
1884.490
 70
    32
  0
VERTEX
  8
T33SSILL
 62
13
 10
1099.964
 20
-3714.030
 30
1884.547
 70
    32
  0
VERTEX
  8
T33SSILL
 62
13
 10
1106.056
 20
-3712.526
 30
1884.548
 70
    32
  0
SEQEND
  8
T33SSILL
  0
POLYLINE
  8
T33SSILL
 62
13
 66
     1
 70
     9
  0
VERTEX
  8
T33SSILL
 62
13
 10
836.597
 20
-3936.893
 30
1884.472
 70
    32
  0
VERTEX
  8
T33SSILL
 62
13
 10
833.447
 20
-3945.045
 30
1884.470
 70
    32
  0
VERTEX
  8
T33SSILL
 62
13
 10
801.598
 20
-3895.537
 30
1884.476
 70
    32
  0
VERTEX
  8
T33SSILL
 62
13
 10
800.009
 20
-3888.618
 30
1884.477
 70
    32
  0
VERTEX
  8
T33SSILL
 62
13
 10
800.260
 20
-3882.053
 30
1884.479
 70
    32
  0
VERTEX
  8
T33SSILL
 62
13
 10
803.380
 20
-3876.159
 30
1884.480
 70
    32
  0
VERTEX
  8
T33SSILL
 62
13
 10
809.763
 20
-3869.288
 30
1884.483
 70
    32
  0
VERTEX
  8
T33SSILL
 62
13
 10
1072.710
 20
-3680.611
 30
1884.547
 70
    32
  0
VERTEX
  8
T33SSILL
 62
13
 10
1076.459
 20
-3679.255
 30
1884.548
 70
    32
  0
VERTEX
  8
T33SSILL
 62
13
 10
1082.761
 20
-3679.600
 30
1884.549
 70
    32
  0
VERTEX
  8
T33SSILL
 62
13
 10
1095.755
 20
-3685.237
 30
1884.550
 70
    32
  0
VERTEX
  8
T33SSILL
 62
13
 10
1106.846
 20
-3701.631
 30
1884.550
 70
    32
  0
VERTEX
  8
T33SSILL
 62
13
 10
863.454
 20
-3876.532
 30
1884.490
 70
    32
  0
VERTEX
  8
T33SSILL
 62
13
 10
857.564
 20
-3918.330
 30
1884.479
 70
    32
  0
VERTEX
  8
T33SSILL
 62
13
 10
841.858
 20
-3929.443
 30
1884.475
 70
    32
  0
VERTEX
  8
T33SSILL
 62
13
 10
837.980
 20
-3934.364
 30
1884.473
 70
    32
  0
SEQEND
  8
T33SSILL
  0
POLYLINE
  8
T33SSILL
 62
13
 66
     1
 70
     9
  0
VERTEX
  8
T33SSILL
 62
13
 10
1187.375
 20
-4050.521
 30
1884.500
 70
    32
  0
VERTEX
  8
T33SSILL
 62
13
 10
1192.256
 20
-4047.032
 30
1884.504
 70
    32
  0
VERTEX
  8
T33SSILL
 62
13
 10
1195.745
 20
-4051.913
 30
1884.507
 70
    32
  0
VERTEX
  8
T33SSILL
 62
13
 10
1199.044
 20
-4049.555
 30
1884.510
 70
    32
  0
VERTEX
  8
T33SSILL
 62
13
 10
1208.848
 20
-4068.898
 30
1884.516
 70
    32
  0
VERTEX
  8
T33SSILL
 62
13
 10
1144.690
 20
-4115.525
 30
1884.457
 70
    32
  0
VERTEX
  8
T33SSILL
 62
13
 10
1136.829
 20
-4106.522
 30
1884.454
 70
    32
  0
VERTEX
  8
T33SSILL
 62
13
 10
1125.418
 20
-4100.281
 30
1884.458
 70
    32
  0
VERTEX
  8
T33SSILL
 62
13
 10
1103.627
 20
-4112.535
 30
1884.454
 70
    32
  0
VERTEX
  8
T33SSILL
 62
13
 10
1097.622
 20
-4130.932
 30
1884.446
 70
    32
  0
VERTEX
  8
T33SSILL
 62
13
 10
1092.973
 20
-4138.817
 30
1884.443
 70
    32
  0
VERTEX
  8
T33SSILL
 62
13
 10
1092.688
 20
-4147.044
 30
1884.440
 70
    32
  0
VERTEX
  8
T33SSILL
 62
13
 10
1088.334
 20
-4153.524
 30
1884.437
 70
    32
  0
VERTEX
  8
T33SSILL
 62
13
 10
1083.855
 20
-4158.469
 30
1884.435
 70
    32
  0
VERTEX
  8
T33SSILL
 62
13
 10
1050.077
 20
-4182.891
 30
1884.427
 70
    32
  0
VERTEX
  8
T33SSILL
 62
13
 10
1058.495
 20
-4128.073
 30
1884.451
 70
    32
  0
VERTEX
  8
T33SSILL
 62
13
 10
1066.110
 20
-4123.564
 30
1884.452
 70
    32
  0
VERTEX
  8
T33SSILL
 62
13
 10
1073.331
 20
-4133.697
 30
1884.447
 70
    32
  0
VERTEX
  8
T33SSILL
 62
13
 10
1097.839
 20
-4114.947
 30
1884.453
 70
    32
  0
VERTEX
  8
T33SSILL
 62
13
 10
1090.420
 20
-4105.181
 30
1884.458
 70
    32
  0
VERTEX
  8
T33SSILL
 62
13
 10
1180.351
 20
-4040.694
 30
1884.494
 70
    32
  0
SEQEND
  8
T33SSILL
  0
POLYLINE
  8
T33SSILL
 62
13
 66
     1
 70
     9
  0
VERTEX
  8
T33SSILL
 62
13
 10
1150.704
 20
-4129.212
 30
1884.461
 70
    32
  0
VERTEX
  8
T33SSILL
 62
13
 10
1149.892
 20
-4127.625
 30
1884.460
 70
    32
  0
VERTEX
  8
T33SSILL
 62
13
 10
1151.026
 20
-4125.728
 30
1884.461
 70
    32
  0
VERTEX
  8
T33SSILL
 62
13
 10
1149.237
 20
-4121.265
 30
1884.460
 70
    32
  0
VERTEX
  8
T33SSILL
 62
13
 10
1213.796
 20
-4075.651
 30
1884.520
 70
    32
  0
VERTEX
  8
T33SSILL
 62
13
 10
1228.670
 20
-4089.532
 30
1884.531
 70
    32
  0
VERTEX
  8
T33SSILL
 62
13
 10
1225.767
 20
-4091.634
 30
1884.528
 70
    32
  0
VERTEX
  8
T33SSILL
 62
13
 10
1240.727
 20
-4112.919
 30
1884.539
 70
    32
  0
VERTEX
  8
T33SSILL
 62
13
 10
1116.253
 20
-4202.468
 30
1884.424
 70
    32
  0
VERTEX
  8
T33SSILL
 62
13
 10
1107.201
 20
-4258.066
 30
1884.411
 70
    32
  0
VERTEX
  8
T33SSILL
 62
13
 10
1069.259
 20
-4285.906
 30
1884.380
 70
    32
  0
VERTEX
  8
T33SSILL
 62
13
 10
1064.222
 20
-4294.611
 30
1884.377
 70
    32
  0
VERTEX
  8
T33SSILL
 62
13
 10
1062.184
 20
-4301.601
 30
1884.374
 70
    32
  0
VERTEX
  8
T33SSILL
 62
13
 10
1018.593
 20
-4233.207
 30
1884.407
 70
    32
  0
VERTEX
  8
T33SSILL
 62
13
 10
1017.810
 20
-4230.299
 30
1884.409
 70
    32
  0
VERTEX
  8
T33SSILL
 62
13
 10
1017.757
 20
-4222.964
 30
1884.412
 70
    32
  0
VERTEX
  8
T33SSILL
 62
13
 10
1020.912
 20
-4215.717
 30
1884.415
 70
    32
  0
VERTEX
  8
T33SSILL
 62
13
 10
1024.868
 20
-4210.497
 30
1884.417
 70
    32
  0
VERTEX
  8
T33SSILL
 62
13
 10
1090.441
 20
-4164.482
 30
1884.432
 70
    32
  0
VERTEX
  8
T33SSILL
 62
13
 10
1095.283
 20
-4162.313
 30
1884.433
 70
    32
  0
VERTEX
  8
T33SSILL
 62
13
 10
1107.750
 20
-4162.161
 30
1884.432
 70
    32
  0
VERTEX
  8
T33SSILL
 62
13
 10
1119.276
 20
-4169.621
 30
1884.430
 70
    32
  0
VERTEX
  8
T33SSILL
 62
13
 10
1123.046
 20
-4169.739
 30
1884.433
 70
    32
  0
VERTEX
  8
T33SSILL
 62
13
 10
1161.101
 20
-4142.359
 30
1884.468
 70
    32
  0
VERTEX
  8
T33SSILL
 62
13
 10
1151.384
 20
-4131.977
 30
1884.461
 70
    32
  0
SEQEND
  8
T33SSILL
  0
POLYLINE
  8
T33SSILL
 62
13
 66
     1
 70
     9
  0
VERTEX
  8
T33SSILL
 62
13
 10
1012.961
 20
-4214.910
 30
1884.416
 70
    32
  0
VERTEX
  8
T33SSILL
 62
13
 10
1011.096
 20
-4221.233
 30
1884.413
 70
    32
  0
VERTEX
  8
T33SSILL
 62
13
 10
967.547
 20
-4153.352
 30
1884.445
 70
    32
  0
VERTEX
  8
T33SSILL
 62
13
 10
966.264
 20
-4145.056
 30
1884.446
 70
    32
  0
VERTEX
  8
T33SSILL
 62
13
 10
969.956
 20
-4134.171
 30
1884.449
 70
    32
  0
VERTEX
  8
T33SSILL
 62
13
 10
974.855
 20
-4129.359
 30
1884.451
 70
    32
  0
VERTEX
  8
T33SSILL
 62
13
 10
1026.327
 20
-4093.016
 30
1884.467
 70
    32
  0
VERTEX
  8
T33SSILL
 62
13
 10
1029.833
 20
-4094.732
 30
1884.467
 70
    32
  0
VERTEX
  8
T33SSILL
 62
13
 10
1034.084
 20
-4094.613
 30
1884.467
 70
    32
  0
VERTEX
  8
T33SSILL
 62
13
 10
1060.506
 20
-4089.948
 30
1884.467
 70
    32
  0
VERTEX
  8
T33SSILL
 62
13
 10
1043.086
 20
-4103.613
 30
1884.463
 70
    32
  0
VERTEX
  8
T33SSILL
 62
13
 10
1046.607
 20
-4108.134
 30
1884.460
 70
    32
  0
VERTEX
  8
T33SSILL
 62
13
 10
1041.058
 20
-4112.344
 30
1884.459
 70
    32
  0
VERTEX
  8
T33SSILL
 62
13
 10
1051.042
 20
-4125.424
 30
1884.452
 70
    32
  0
VERTEX
  8
T33SSILL
 62
13
 10
1040.817
 20
-4189.636
 30
1884.425
 70
    32
  0
VERTEX
  8
T33SSILL
 62
13
 10
1019.778
 20
-4204.604
 30
1884.420
 70
    32
  0
VERTEX
  8
T33SSILL
 62
13
 10
1014.340
 20
-4212.295
 30
1884.417
 70
    32
  0
SEQEND
  8
T33SSILL
  0
POLYLINE
  8
T33SSILL
 62
13
 66
     1
 70
     9
  0
VERTEX
  8
T33SSILL
 62
13
 10
995.003
 20
-4061.257
 30
1884.469
 70
    32
  0
VERTEX
  8
T33SSILL
 62
13
 10
986.968
 20
-4112.223
 30
1884.457
 70
    32
  0
VERTEX
  8
T33SSILL
 62
13
 10
969.869
 20
-4124.368
 30
1884.451
 70
    32
  0
VERTEX
  8
T33SSILL
 62
13
 10
964.623
 20
-4130.512
 30
1884.449
 70
    32
  0
VERTEX
  8
T33SSILL
 62
13
 10
960.306
 20
-4140.978
 30
1884.446
 70
    32
  0
VERTEX
  8
T33SSILL
 62
13
 10
922.570
 20
-4083.024
 30
1884.453
 70
    32
  0
VERTEX
  8
T33SSILL
 62
13
 10
921.041
 20
-4074.687
 30
1884.455
 70
    32
  0
VERTEX
  8
T33SSILL
 62
13
 10
923.846
 20
-4066.498
 30
1884.457
 70
    32
  0
VERTEX
  8
T33SSILL
 62
13
 10
928.538
 20
-4059.884
 30
1884.459
 70
    32
  0
VERTEX
  8
T33SSILL
 62
13
 10
969.511
 20
-4031.281
 30
1884.472
 70
    32
  0
VERTEX
  8
T33SSILL
 62
13
 10
983.719
 20
-4044.300
 30
1884.471
 70
    32
  0
VERTEX
  8
T33SSILL
 62
13
 10
990.125
 20
-4039.666
 30
1884.473
 70
    32
  0
VERTEX
  8
T33SSILL
 62
13
 10
1001.738
 20
-4055.971
 30
1884.471
 70
    32
  0
SEQEND
  8
T33SSILL
  0
POLYLINE
  8
T33SSILL
 62
13
 66
     1
 70
     9
  0
VERTEX
  8
T33SSILL
 62
13
 10
942.592
 20
-3496.880
 30
1884.526
 70
    32
  0
VERTEX
  8
T33SSILL
 62
13
 10
946.751
 20
-3495.764
 30
1884.524
 70
    32
  0
VERTEX
  8
T33SSILL
 62
13
 10
955.497
 20
-3496.663
 30
1884.522
 70
    32
  0
VERTEX
  8
T33SSILL
 62
13
 10
964.254
 20
-3502.024
 30
1884.524
 70
    32
  0
VERTEX
  8
T33SSILL
 62
13
 10
999.458
 20
-3550.818
 30
1884.552
 70
    32
  0
VERTEX
  8
T33SSILL
 62
13
 10
996.001
 20
-3549.823
 30
1884.552
 70
    32
  0
VERTEX
  8
T33SSILL
 62
13
 10
988.834
 20
-3550.376
 30
1884.552
 70
    32
  0
VERTEX
  8
T33SSILL
 62
13
 10
977.307
 20
-3554.659
 30
1884.549
 70
    32
  0
VERTEX
  8
T33SSILL
 62
13
 10
901.639
 20
-3609.451
 30
1884.533
 70
    32
  0
VERTEX
  8
T33SSILL
 62
13
 10
872.416
 20
-3568.626
 30
1884.534
 70
    32
  0
VERTEX
  8
T33SSILL
 62
13
 10
869.209
 20
-3558.050
 30
1884.534
 70
    32
  0
VERTEX
  8
T33SSILL
 62
13
 10
874.868
 20
-3544.367
 30
1884.536
 70
    32
  0
VERTEX
  8
T33SSILL
 62
13
 10
938.433
 20
-3499.001
 30
1884.528
 70
    32
  0
SEQEND
  8
T33SSILL
  0
POLYLINE
  8
T33SSILL
 62
13
 66
     1
 70
     9
  0
VERTEX
  8
T33SSILL
 62
13
 10
758.935
 20
-3827.409
 30
1884.484
 70
    32
  0
VERTEX
  8
T33SSILL
 62
13
 10
761.724
 20
-3835.294
 30
1884.483
 70
    32
  0
VERTEX
  8
T33SSILL
 62
13
 10
793.023
 20
-3882.660
 30
1884.477
 70
    32
  0
VERTEX
  8
T33SSILL
 62
13
 10
794.867
 20
-3876.419
 30
1884.479
 70
    32
  0
VERTEX
  8
T33SSILL
 62
13
 10
799.239
 20
-3869.550
 30
1884.481
 70
    32
  0
VERTEX
  8
T33SSILL
 62
13
 10
803.976
 20
-3864.297
 30
1884.483
 70
    32
  0
VERTEX
  8
T33SSILL
 62
13
 10
810.190
 20
-3859.792
 30
1884.485
 70
    32
  0
VERTEX
  8
T33SSILL
 62
13
 10
816.528
 20
-3816.417
 30
1884.496
 70
    32
  0
VERTEX
  8
T33SSILL
 62
13
 10
914.310
 20
-3746.974
 30
1884.525
 70
    32
  0
VERTEX
  8
T33SSILL
 62
13
 10
918.242
 20
-3752.740
 30
1884.525
 70
    32
  0
VERTEX
  8
T33SSILL
 62
13
 10
823.026
 20
-3820.743
 30
1884.496
 70
    32
  0
VERTEX
  8
T33SSILL
 62
13
 10
817.958
 20
-3854.414
 30
1884.487
 70
    32
  0
VERTEX
  8
T33SSILL
 62
13
 10
1001.866
 20
-3722.371
 30
1884.534
 70
    32
  0
VERTEX
  8
T33SSILL
 62
13
 10
962.319
 20
-3666.566
 30
1884.535
 70
    32
  0
VERTEX
  8
T33SSILL
 62
13
 10
890.060
 20
-3718.703
 30
1884.525
 70
    32
  0
VERTEX
  8
T33SSILL
 62
13
 10
902.646
 20
-3728.122
 30
1884.525
 70
    32
  0
VERTEX
  8
T33SSILL
 62
13
 10
897.034
 20
-3730.816
 30
1884.524
 70
    32
  0
VERTEX
  8
T33SSILL
 62
13
 10
878.740
 20
-3746.068
 30
1884.521
 70
    32
  0
VERTEX
  8
T33SSILL
 62
13
 10
864.802
 20
-3751.558
 30
1884.517
 70
    32
  0
VERTEX
  8
T33SSILL
 62
13
 10
850.942
 20
-3746.819
 30
1884.516
 70
    32
  0
VERTEX
  8
T33SSILL
 62
13
 10
768.287
 20
-3806.270
 30
1884.490
 70
    32
  0
VERTEX
  8
T33SSILL
 62
13
 10
762.136
 20
-3813.295
 30
1884.488
 70
    32
  0
VERTEX
  8
T33SSILL
 62
13
 10
759.340
 20
-3819.606
 30
1884.486
 70
    32
  0
VERTEX
  8
T33SSILL
 62
13
 10
758.995
 20
-3823.898
 30
1884.485
 70
    32
  0
SEQEND
  8
T33SSILL
  0
POLYLINE
  8
T33SSILL
 62
13
 66
     1
 70
     9
  0
VERTEX
  8
T33SSILL
 62
13
 10
908.593
 20
-3614.651
 30
1884.534
 70
    32
  0
VERTEX
  8
T33SSILL
 62
13
 10
910.177
 20
-3611.518
 30
1884.534
 70
    32
  0
VERTEX
  8
T33SSILL
 62
13
 10
979.554
 20
-3561.849
 30
1884.548
 70
    32
  0
VERTEX
  8
T33SSILL
 62
13
 10
984.802
 20
-3558.544
 30
1884.549
 70
    32
  0
VERTEX
  8
T33SSILL
 62
13
 10
991.637
 20
-3557.133
 30
1884.551
 70
    32
  0
VERTEX
  8
T33SSILL
 62
13
 10
1002.719
 20
-3559.454
 30
1884.553
 70
    32
  0
VERTEX
  8
T33SSILL
 62
13
 10
1007.825
 20
-3562.853
 30
1884.553
 70
    32
  0
VERTEX
  8
T33SSILL
 62
13
 10
1043.099
 20
-3611.593
 30
1884.552
 70
    32
  0
VERTEX
  8
T33SSILL
 62
13
 10
1035.227
 20
-3611.242
 30
1884.551
 70
    32
  0
VERTEX
  8
T33SSILL
 62
13
 10
1024.326
 20
-3614.032
 30
1884.548
 70
    32
  0
VERTEX
  8
T33SSILL
 62
13
 10
957.970
 20
-3661.125
 30
1884.535
 70
    32
  0
VERTEX
  8
T33SSILL
 62
13
 10
949.442
 20
-3661.509
 30
1884.534
 70
    32
  0
VERTEX
  8
T33SSILL
 62
13
 10
930.544
 20
-3649.295
 30
1884.533
 70
    32
  0
VERTEX
  8
T33SSILL
 62
13
 10
908.704
 20
-3618.811
 30
1884.533
 70
    32
  0
VERTEX
  8
T33SSILL
 62
13
 10
908.456
 20
-3616.770
 30
1884.534
 70
    32
  0
SEQEND
  8
T33SSILL
  0
POLYLINE
  8
T33SSILL
 62
13
 66
     1
 70
     9
  0
VERTEX
  8
T33SSILL
 62
13
 10
1168.799
 20
-4024.535
 30
1884.488
 70
    32
  0
VERTEX
  8
T33SSILL
 62
13
 10
1176.194
 20
-4034.880
 30
1884.491
 70
    32
  0
VERTEX
  8
T33SSILL
 62
13
 10
1086.175
 20
-4099.593
 30
1884.461
 70
    32
  0
VERTEX
  8
T33SSILL
 62
13
 10
1075.544
 20
-4085.600
 30
1884.468
 70
    32
  0
VERTEX
  8
T33SSILL
 62
13
 10
1066.455
 20
-4093.013
 30
1884.465
 70
    32
  0
VERTEX
  8
T33SSILL
 62
13
 10
1065.312
 20
-4091.500
 30
1884.466
 70
    32
  0
VERTEX
  8
T33SSILL
 62
13
 10
1068.724
 20
-4084.858
 30
1884.469
 70
    32
  0
VERTEX
  8
T33SSILL
 62
13
 10
1072.138
 20
-4059.970
 30
1884.479
 70
    32
  0
VERTEX
  8
T33SSILL
 62
13
 10
1174.895
 20
-3986.117
 30
1884.504
 70
    32
  0
VERTEX
  8
T33SSILL
 62
13
 10
1189.918
 20
-4002.996
 30
1884.506
 70
    32
  0
VERTEX
  8
T33SSILL
 62
13
 10
1211.060
 20
-3988.172
 30
1884.526
 70
    32
  0
VERTEX
  8
T33SSILL
 62
13
 10
1199.320
 20
-3967.855
 30
1884.518
 70
    32
  0
VERTEX
  8
T33SSILL
 62
13
 10
1265.577
 20
-3920.375
 30
1884.479
 70
    32
  0
VERTEX
  8
T33SSILL
 62
13
 10
1289.271
 20
-3953.591
 30
1884.460
 70
    32
  0
VERTEX
  8
T33SSILL
 62
13
 10
1241.084
 20
-3988.232
 30
1884.551
 70
    32
  0
VERTEX
  8
T33SSILL
 62
13
 10
1237.348
 20
-3983.035
 30
1884.549
 70
    32
  0
VERTEX
  8
T33SSILL
 62
13
 10
1227.504
 20
-3989.899
 30
1884.540
 70
    32
  0
VERTEX
  8
T33SSILL
 62
13
 10
1231.340
 20
-3995.236
 30
1884.542
 70
    32
  0
VERTEX
  8
T33SSILL
 62
13
 10
1210.297
 20
-4010.364
 30
1884.523
 70
    32
  0
VERTEX
  8
T33SSILL
 62
13
 10
1202.968
 20
-4000.111
 30
1884.518
 70
    32
  0
VERTEX
  8
T33SSILL
 62
13
 10
1188.324
 20
-4010.578
 30
1884.504
 70
    32
  0
VERTEX
  8
T33SSILL
 62
13
 10
1184.835
 20
-4005.697
 30
1884.502
 70
    32
  0
VERTEX
  8
T33SSILL
 62
13
 10
1179.954
 20
-4009.186
 30
1884.497
 70
    32
  0
VERTEX
  8
T33SSILL
 62
13
 10
1176.465
 20
-4004.305
 30
1884.496
 70
    32
  0
VERTEX
  8
T33SSILL
 62
13
 10
1171.584
 20
-4007.794
 30
1884.495
 70
    32
  0
VERTEX
  8
T33SSILL
 62
13
 10
1175.073
 20
-4012.675
 30
1884.493
 70
    32
  0
VERTEX
  8
T33SSILL
 62
13
 10
1170.191
 20
-4016.164
 30
1884.491
 70
    32
  0
VERTEX
  8
T33SSILL
 62
13
 10
1173.681
 20
-4021.045
 30
1884.491
 70
    32
  0
VERTEX
  8
T33SSILL
 62
13
 10
1171.018
 20
-4022.949
 30
1884.488
 70
    32
  0
SEQEND
  8
T33SSILL
  0
POLYLINE
  8
T33SSILL
 62
13
 66
     1
 70
     9
  0
VERTEX
  8
T33SSILL
 62
13
 10
1260.225
 20
-4030.301
 30
1884.545
 70
    32
  0
VERTEX
  8
T33SSILL
 62
13
 10
1257.382
 20
-4026.362
 30
1884.547
 70
    32
  0
VERTEX
  8
T33SSILL
 62
13
 10
1242.824
 20
-4014.954
 30
1884.550
 70
    32
  0
VERTEX
  8
T33SSILL
 62
13
 10
1223.484
 20
-4028.813
 30
1884.532
 70
    32
  0
VERTEX
  8
T33SSILL
 62
13
 10
1218.054
 20
-4021.216
 30
1884.529
 70
    32
  0
VERTEX
  8
T33SSILL
 62
13
 10
1222.935
 20
-4017.727
 30
1884.533
 70
    32
  0
VERTEX
  8
T33SSILL
 62
13
 10
1219.358
 20
-4012.723
 30
1884.530
 70
    32
  0
VERTEX
  8
T33SSILL
 62
13
 10
1235.560
 20
-4001.105
 30
1884.545
 70
    32
  0
VERTEX
  8
T33SSILL
 62
13
 10
1239.097
 20
-4006.026
 30
1884.548
 70
    32
  0
VERTEX
  8
T33SSILL
 62
13
 10
1244.060
 20
-4002.650
 30
1884.553
 70
    32
  0
VERTEX
  8
T33SSILL
 62
13
 10
1240.436
 20
-3997.609
 30
1884.550
 70
    32
  0
VERTEX
  8
T33SSILL
 62
13
 10
1293.674
 20
-3959.433
 30
1884.456
 70
    32
  0
VERTEX
  8
T33SSILL
 62
13
 10
1314.932
 20
-3990.498
 30
1884.440
 70
    32
  0
VERTEX
  8
T33SSILL
 62
13
 10
1266.261
 20
-4025.809
 30
1884.533
 70
    32
  0
SEQEND
  8
T33SSILL
  0
POLYLINE
  8
T33SSILL
 62
13
 66
     1
 70
     9
  0
VERTEX
  8
T33SSILL
 62
13
 10
1335.929
 20
-4183.141
 30
1884.508
 70
    32
  0
VERTEX
  8
T33SSILL
 62
13
 10
1349.619
 20
-4201.986
 30
1884.497
 70
    32
  0
VERTEX
  8
T33SSILL
 62
13
 10
1178.424
 20
-4325.253
 30
1884.457
 70
    32
  0
VERTEX
  8
T33SSILL
 62
13
 10
1186.125
 20
-4277.013
 30
1884.477
 70
    32
  0
VERTEX
  8
T33SSILL
 62
13
 10
1275.789
 20
-4214.337
 30
1884.559
 70
    32
  0
VERTEX
  8
T33SSILL
 62
13
 10
1279.075
 20
-4219.039
 30
1884.562
 70
    32
  0
VERTEX
  8
T33SSILL
 62
13
 10
1294.064
 20
-4209.063
 30
1884.576
 70
    32
  0
VERTEX
  8
T33SSILL
 62
13
 10
1290.542
 20
-4204.025
 30
1884.573
 70
    32
  0
VERTEX
  8
T33SSILL
 62
13
 10
1322.009
 20
-4182.029
 30
1884.529
 70
    32
  0
VERTEX
  8
T33SSILL
 62
13
 10
1323.738
 20
-4184.305
 30
1884.528
 70
    32
  0
VERTEX
  8
T33SSILL
 62
13
 10
1328.039
 20
-4181.063
 30
1884.519
 70
    32
  0
VERTEX
  8
T33SSILL
 62
13
 10
1331.679
 20
-4185.996
 30
1884.516
 70
    32
  0
SEQEND
  8
T33SSILL
  0
POLYLINE
  8
T33SSILL
 62
13
 66
     1
 70
     9
  0
VERTEX
  8
T33SSILL
 62
13
 10
1287.799
 20
-4106.851
 30
1884.542
 70
    32
  0
VERTEX
  8
T33SSILL
 62
13
 10
1275.435
 20
-4109.321
 30
1884.563
 70
    32
  0
VERTEX
  8
T33SSILL
 62
13
 10
1272.788
 20
-4113.494
 30
1884.567
 70
    32
  0
VERTEX
  8
T33SSILL
 62
13
 10
1281.220
 20
-4134.338
 30
1884.567
 70
    32
  0
VERTEX
  8
T33SSILL
 62
13
 10
1115.346
 20
-4252.338
 30
1884.419
 70
    32
  0
VERTEX
  8
T33SSILL
 62
13
 10
1123.285
 20
-4205.777
 30
1884.430
 70
    32
  0
VERTEX
  8
T33SSILL
 62
13
 10
1254.516
 20
-4111.669
 30
1884.551
 70
    32
  0
VERTEX
  8
T33SSILL
 62
13
 10
1257.933
 20
-4116.530
 30
1884.554
 70
    32
  0
VERTEX
  8
T33SSILL
 62
13
 10
1282.366
 20
-4099.121
 30
1884.547
 70
    32
  0
SEQEND
  8
T33SSILL
  0
POLYLINE
  8
T33SSILL
 62
13
 66
     1
 70
     9
  0
VERTEX
  8
T33SSILL
 62
13
 10
1306.798
 20
-4081.712
 30
1884.500
 70
    32
  0
VERTEX
  8
T33SSILL
 62
13
 10
1292.139
 20
-4092.157
 30
1884.528
 70
    32
  0
VERTEX
  8
T33SSILL
 62
13
 10
1299.039
 20
-4101.975
 30
1884.523
 70
    32
  0
VERTEX
  8
T33SSILL
 62
13
 10
1311.300
 20
-4096.737
 30
1884.501
 70
    32
  0
VERTEX
  8
T33SSILL
 62
13
 10
1323.583
 20
-4103.439
 30
1884.486
 70
    32
  0
VERTEX
  8
T33SSILL
 62
13
 10
1366.090
 20
-4073.194
 30
1884.405
 70
    32
  0
VERTEX
  8
T33SSILL
 62
13
 10
1362.089
 20
-4056.113
 30
1884.402
 70
    32
  0
VERTEX
  8
T33SSILL
 62
13
 10
1350.954
 20
-4039.199
 30
1884.410
 70
    32
  0
VERTEX
  8
T33SSILL
 62
13
 10
1302.989
 20
-4076.885
 30
1884.503
 70
    32
  0
SEQEND
  8
T33SSILL
  0
POLYLINE
  8
T33SSILL
 62
13
 66
     1
 70
     9
  0
VERTEX
  8
T33SSILL
 62
13
 10
1149.465
 20
-3924.912
 30
1884.523
 70
    32
  0
VERTEX
  8
T33SSILL
 62
13
 10
1170.762
 20
-3909.396
 30
1884.530
 70
    32
  0
VERTEX
  8
T33SSILL
 62
13
 10
1166.531
 20
-3902.887
 30
1884.531
 70
    32
  0
VERTEX
  8
T33SSILL
 62
13
 10
1162.582
 20
-3893.141
 30
1884.532
 70
    32
  0
VERTEX
  8
T33SSILL
 62
13
 10
1217.788
 20
-3853.688
 30
1884.547
 70
    32
  0
VERTEX
  8
T33SSILL
 62
13
 10
1235.805
 20
-3878.830
 30
1884.546
 70
    32
  0
VERTEX
  8
T33SSILL
 62
13
 10
1176.386
 20
-3921.143
 30
1884.528
 70
    32
  0
VERTEX
  8
T33SSILL
 62
13
 10
1172.551
 20
-3915.860
 30
1884.529
 70
    32
  0
VERTEX
  8
T33SSILL
 62
13
 10
1153.119
 20
-3929.946
 30
1884.523
 70
    32
  0
SEQEND
  8
T33SSILL
  0
POLYLINE
  8
T33SSILL
 62
13
 66
     1
 70
     9
  0
VERTEX
  8
T33SSILL
 62
13
 10
1196.437
 20
-3813.070
 30
1884.549
 70
    32
  0
VERTEX
  8
T33SSILL
 62
13
 10
1281.265
 20
-3752.286
 30
1884.575
 70
    32
  0
VERTEX
  8
T33SSILL
 62
13
 10
1285.291
 20
-3748.677
 30
1884.577
 70
    32
  0
VERTEX
  8
T33SSILL
 62
13
 10
1289.213
 20
-3741.645
 30
1884.579
 70
    32
  0
VERTEX
  8
T33SSILL
 62
13
 10
1294.212
 20
-3706.695
 30
1884.585
 70
    32
  0
VERTEX
  8
T33SSILL
 62
13
 10
1187.635
 20
-3783.318
 30
1884.552
 70
    32
  0
VERTEX
  8
T33SSILL
 62
13
 10
1184.321
 20
-3788.046
 30
1884.551
 70
    32
  0
VERTEX
  8
T33SSILL
 62
13
 10
1183.505
 20
-3791.707
 30
1884.550
 70
    32
  0
SEQEND
  8
T33SSILL
  0
POLYLINE
  8
T33SSILL
 62
13
 66
     1
 70
     9
  0
VERTEX
  8
T33SSILL
 62
13
 10
1104.560
 20
-3901.599
 30
1884.521
 70
    32
  0
VERTEX
  8
T33SSILL
 62
13
 10
1097.776
 20
-3892.145
 30
1884.522
 70
    32
  0
VERTEX
  8
T33SSILL
 62
13
 10
1107.543
 20
-3885.174
 30
1884.525
 70
    32
  0
VERTEX
  8
T33SSILL
 62
13
 10
1111.036
 20
-3890.042
 30
1884.525
 70
    32
  0
VERTEX
  8
T33SSILL
 62
13
 10
1140.351
 20
-3869.145
 30
1884.534
 70
    32
  0
VERTEX
  8
T33SSILL
 62
13
 10
1136.845
 20
-3864.259
 30
1884.535
 70
    32
  0
VERTEX
  8
T33SSILL
 62
13
 10
1194.583
 20
-3823.048
 30
1884.547
 70
    32
  0
VERTEX
  8
T33SSILL
 62
13
 10
1212.127
 20
-3848.160
 30
1884.547
 70
    32
  0
VERTEX
  8
T33SSILL
 62
13
 10
1157.845
 20
-3887.080
 30
1884.533
 70
    32
  0
VERTEX
  8
T33SSILL
 62
13
 10
1154.843
 20
-3882.937
 30
1884.533
 70
    32
  0
VERTEX
  8
T33SSILL
 62
13
 10
1149.468
 20
-3869.578
 30
1884.535
 70
    32
  0
SEQEND
  8
T33SSILL
  0
POLYLINE
  8
T33SSILL
 62
13
 66
     1
 70
     9
  0
VERTEX
  8
T33SSILL
 62
13
 10
1160.578
 20
-3802.484
 30
1884.544
 70
    32
  0
VERTEX
  8
T33SSILL
 62
13
 10
1167.815
 20
-3800.872
 30
1884.546
 70
    32
  0
VERTEX
  8
T33SSILL
 62
13
 10
1171.086
 20
-3801.341
 30
1884.546
 70
    32
  0
VERTEX
  8
T33SSILL
 62
13
 10
1181.187
 20
-3805.990
 30
1884.548
 70
    32
  0
VERTEX
  8
T33SSILL
 62
13
 10
1181.539
 20
-3812.756
 30
1884.547
 70
    32
  0
VERTEX
  8
T33SSILL
 62
13
 10
1180.113
 20
-3819.677
 30
1884.545
 70
    32
  0
VERTEX
  8
T33SSILL
 62
13
 10
1175.139
 20
-3828.356
 30
1884.543
 70
    32
  0
VERTEX
  8
T33SSILL
 62
13
 10
1137.729
 20
-3855.201
 30
1884.536
 70
    32
  0
VERTEX
  8
T33SSILL
 62
13
 10
1123.887
 20
-3828.263
 30
1884.537
 70
    32
  0
VERTEX
  8
T33SSILL
 62
13
 10
1157.045
 20
-3804.118
 30
1884.543
 70
    32
  0
SEQEND
  8
T33SSILL
  0
POLYLINE
  8
T33SSILL
 62
13
 66
     1
 70
     9
  0
VERTEX
  8
T33SSILL
 62
13
 10
1088.166
 20
-3808.192
 30
1884.535
 70
    32
  0
VERTEX
  8
T33SSILL
 62
13
 10
1114.330
 20
-3790.449
 30
1884.539
 70
    32
  0
VERTEX
  8
T33SSILL
 62
13
 10
1155.634
 20
-3797.283
 30
1884.544
 70
    32
  0
VERTEX
  8
T33SSILL
 62
13
 10
1119.307
 20
-3823.673
 30
1884.537
 70
    32
  0
VERTEX
  8
T33SSILL
 62
13
 10
1114.973
 20
-3818.108
 30
1884.537
 70
    32
  0
VERTEX
  8
T33SSILL
 62
13
 10
1105.132
 20
-3809.346
 30
1884.537
 70
    32
  0
VERTEX
  8
T33SSILL
 62
13
 10
1094.537
 20
-3817.170
 30
1884.535
 70
    32
  0
SEQEND
  8
T33SSILL
  0
POLYLINE
  8
T33SSILL
 62
13
 66
     1
 70
     9
  0
VERTEX
  8
T33SSILL
 62
13
 10
1324.532
 20
-3810.691
 30
1884.574
 70
    32
  0
VERTEX
  8
T33SSILL
 62
13
 10
1319.937
 20
-3817.999
 30
1884.572
 70
    32
  0
VERTEX
  8
T33SSILL
 62
13
 10
1305.434
 20
-3828.516
 30
1884.568
 70
    32
  0
VERTEX
  8
T33SSILL
 62
13
 10
1301.569
 20
-3823.096
 30
1884.568
 70
    32
  0
VERTEX
  8
T33SSILL
 62
13
 10
1291.793
 20
-3830.054
 30
1884.565
 70
    32
  0
VERTEX
  8
T33SSILL
 62
13
 10
1295.672
 20
-3835.495
 30
1884.565
 70
    32
  0
VERTEX
  8
T33SSILL
 62
13
 10
1240.638
 20
-3874.837
 30
1884.548
 70
    32
  0
VERTEX
  8
T33SSILL
 62
13
 10
1222.969
 20
-3849.400
 30
1884.549
 70
    32
  0
VERTEX
  8
T33SSILL
 62
13
 10
1330.621
 20
-3772.754
 30
1884.581
 70
    32
  0
VERTEX
  8
T33SSILL
 62
13
 10
1325.044
 20
-3809.003
 30
1884.575
 70
    32
  0
SEQEND
  8
T33SSILL
  0
POLYLINE
  8
T33SSILL
 62
13
 66
     1
 70
     9
  0
VERTEX
  8
T33SSILL
 62
13
 10
1539.881
 20
-4553.405
 30
1883.508
 70
    32
  0
VERTEX
  8
T33SSILL
 62
13
 10
1536.697
 20
-4551.838
 30
1883.517
 70
    32
  0
VERTEX
  8
T33SSILL
 62
13
 10
1532.870
 20
-4546.219
 30
1883.525
 70
    32
  0
VERTEX
  8
T33SSILL
 62
13
 10
1574.213
 20
-4516.245
 30
1883.362
 70
    32
  0
VERTEX
  8
T33SSILL
 62
13
 10
1571.289
 20
-4542.098
 30
1883.396
 70
    32
  0
VERTEX
  8
T33SSILL
 62
13
 10
1570.356
 20
-4543.962
 30
1883.401
 70
    32
  0
VERTEX
  8
T33SSILL
 62
13
 10
1560.460
 20
-4550.750
 30
1883.439
 70
    32
  0
VERTEX
  8
T33SSILL
 62
13
 10
1580.464
 20
-4580.684
 30
1883.402
 70
    32
  0
VERTEX
  8
T33SSILL
 62
13
 10
1600.257
 20
-4567.108
 30
1883.325
 70
    32
  0
VERTEX
  8
T33SSILL
 62
13
 10
1593.589
 20
-4557.130
 30
1883.337
 70
    32
  0
VERTEX
  8
T33SSILL
 62
13
 10
1608.434
 20
-4546.948
 30
1883.280
 70
    32
  0
VERTEX
  8
T33SSILL
 62
13
 10
1601.766
 20
-4536.970
 30
1883.292
 70
    32
  0
VERTEX
  8
T33SSILL
 62
13
 10
1581.973
 20
-4550.546
 30
1883.369
 70
    32
  0
VERTEX
  8
T33SSILL
 62
13
 10
1578.639
 20
-4545.557
 30
1883.375
 70
    32
  0
VERTEX
  8
T33SSILL
 62
13
 10
1578.060
 20
-4539.146
 30
1883.371
 70
    32
  0
VERTEX
  8
T33SSILL
 62
13
 10
1582.373
 20
-4509.757
 30
1883.330
 70
    32
  0
VERTEX
  8
T33SSILL
 62
13
 10
1606.870
 20
-4493.115
 30
1883.235
 70
    32
  0
VERTEX
  8
T33SSILL
 62
13
 10
1660.641
 20
-4453.404
 30
1883.264
 70
    32
  0
VERTEX
  8
T33SSILL
 62
13
 10
1664.465
 20
-4456.421
 30
1883.264
 70
    32
  0
VERTEX
  8
T33SSILL
 62
13
 10
1676.926
 20
-4461.480
 30
1883.275
 70
    32
  0
VERTEX
  8
T33SSILL
 62
13
 10
1667.817
 20
-4471.304
 30
1883.233
 70
    32
  0
VERTEX
  8
T33SSILL
 62
13
 10
1669.345
 20
-4476.057
 30
1883.224
 70
    32
  0
VERTEX
  8
T33SSILL
 62
13
 10
1673.782
 20
-4480.704
 30
1883.220
 70
    32
  0
VERTEX
  8
T33SSILL
 62
13
 10
1675.815
 20
-4481.485
 30
1883.222
 70
    32
  0
VERTEX
  8
T33SSILL
 62
13
 10
1681.259
 20
-4477.661
 30
1883.242
 70
    32
  0
VERTEX
  8
T33SSILL
 62
13
 10
1688.272
 20
-4485.379
 30
1883.236
 70
    32
  0
VERTEX
  8
T33SSILL
 62
13
 10
1695.581
 20
-4482.127
 30
1883.258
 70
    32
  0
VERTEX
  8
T33SSILL
 62
13
 10
1698.495
 20
-4486.328
 30
1883.253
 70
    32
  0
VERTEX
  8
T33SSILL
 62
13
 10
1708.354
 20
-4479.486
 30
1883.289
 70
    32
  0
VERTEX
  8
T33SSILL
 62
13
 10
1694.671
 20
-4459.769
 30
1883.312
 70
    32
  0
VERTEX
  8
T33SSILL
 62
13
 10
1700.520
 20
-4454.441
 30
1883.337
 70
    32
  0
VERTEX
  8
T33SSILL
 62
13
 10
1699.337
 20
-4448.187
 30
1883.350
 70
    32
  0
VERTEX
  8
T33SSILL
 62
13
 10
1690.034
 20
-4432.617
 30
1883.372
 70
    32
  0
VERTEX
  8
T33SSILL
 62
13
 10
1799.045
 20
-4355.526
 30
1883.564
 70
    32
  0
VERTEX
  8
T33SSILL
 62
13
 10
1802.152
 20
-4358.947
 30
1883.557
 70
    32
  0
VERTEX
  8
T33SSILL
 62
13
 10
1781.689
 20
-4415.661
 30
1883.579
 70
    32
  0
VERTEX
  8
T33SSILL
 62
13
 10
1788.563
 20
-4416.259
 30
1883.574
 70
    32
  0
VERTEX
  8
T33SSILL
 62
13
 10
1807.389
 20
-4364.647
 30
1883.542
 70
    32
  0
VERTEX
  8
T33SSILL
 62
13
 10
1852.640
 20
-4425.575
 30
1883.520
 70
    32
  0
VERTEX
  8
T33SSILL
 62
13
 10
1839.179
 20
-4435.102
 30
1883.539
 70
    32
  0
VERTEX
  8
T33SSILL
 62
13
 10
1834.667
 20
-4428.240
 30
1883.542
 70
    32
  0
VERTEX
  8
T33SSILL
 62
13
 10
1820.851
 20
-4418.358
 30
1883.551
 70
    32
  0
VERTEX
  8
T33SSILL
 62
13
 10
1801.183
 20
-4432.585
 30
1883.567
 70
    32
  0
VERTEX
  8
T33SSILL
 62
13
 10
1801.482
 20
-4438.316
 30
1883.567
 70
    32
  0
VERTEX
  8
T33SSILL
 62
13
 10
1810.237
 20
-4455.586
 30
1883.541
 70
    32
  0
VERTEX
  8
T33SSILL
 62
13
 10
1734.779
 20
-4508.884
 30
1883.264
 70
    32
  0
VERTEX
  8
T33SSILL
 62
13
 10
1731.170
 20
-4507.014
 30
1883.262
 70
    32
  0
VERTEX
  8
T33SSILL
 62
13
 10
1720.039
 20
-4490.989
 30
1883.282
 70
    32
  0
VERTEX
  8
T33SSILL
 62
13
 10
1694.984
 20
-4508.077
 30
1883.191
 70
    32
  0
VERTEX
  8
T33SSILL
 62
13
 10
1704.270
 20
-4522.417
 30
1883.202
 70
    32
  0
VERTEX
  8
T33SSILL
 62
13
 10
1706.972
 20
-4529.401
 30
1883.211
 70
    32
  0
VERTEX
  8
T33SSILL
 62
13
 10
1623.720
 20
-4589.401
 30
1883.288
 70
    32
  0
VERTEX
  8
T33SSILL
 62
13
 10
1612.938
 20
-4574.992
 30
1883.291
 70
    32
  0
VERTEX
  8
T33SSILL
 62
13
 10
1599.643
 20
-4578.161
 30
1883.337
 70
    32
  0
VERTEX
  8
T33SSILL
 62
13
 10
1583.837
 20
-4588.665
 30
1883.398
 70
    32
  0
VERTEX
  8
T33SSILL
 62
13
 10
1586.066
 20
-4592.531
 30
1883.395
 70
    32
  0
VERTEX
  8
T33SSILL
 62
13
 10
1592.700
 20
-4595.928
 30
1883.376
 70
    32
  0
VERTEX
  8
T33SSILL
 62
13
 10
1599.933
 20
-4606.545
 30
1883.362
 70
    32
  0
VERTEX
  8
T33SSILL
 62
13
 10
1576.582
 20
-4623.374
 30
1883.454
 70
    32
  0
VERTEX
  8
T33SSILL
 62
13
 10
1573.172
 20
-4617.477
 30
1883.460
 70
    32
  0
VERTEX
  8
T33SSILL
 62
13
 10
1565.818
 20
-4611.880
 30
1883.478
 70
    32
  0
VERTEX
  8
T33SSILL
 62
13
 10
1563.593
 20
-4608.543
 30
1883.482
 70
    32
  0
VERTEX
  8
T33SSILL
 62
13
 10
1559.711
 20
-4607.088
 30
1883.494
 70
    32
  0
VERTEX
  8
T33SSILL
 62
13
 10
1568.483
 20
-4600.929
 30
1883.460
 70
    32
  0
VERTEX
  8
T33SSILL
 62
13
 10
1550.643
 20
-4575.495
 30
1883.494
 70
    32
  0
VERTEX
  8
T33SSILL
 62
13
 10
1556.058
 20
-4571.697
 30
1883.473
 70
    32
  0
VERTEX
  8
T33SSILL
 62
13
 10
1552.129
 20
-4566.059
 30
1883.480
 70
    32
  0
VERTEX
  8
T33SSILL
 62
13
 10
1546.685
 20
-4569.851
 30
1883.502
 70
    32
  0
SEQEND
  8
T33SSILL
  0
POLYLINE
  8
T33SSILL
 62
13
 66
     1
 70
     9
  0
VERTEX
  8
T33SSILL
 62
13
 10
1886.873
 20
-4499.196
 30
1883.512
 70
    32
  0
VERTEX
  8
T33SSILL
 62
13
 10
1896.702
 20
-4510.538
 30
1883.506
 70
    32
  0
VERTEX
  8
T33SSILL
 62
13
 10
1905.052
 20
-4505.029
 30
1883.499
 70
    32
  0
VERTEX
  8
T33SSILL
 62
13
 10
1901.732
 20
-4500.565
 30
1883.501
 70
    32
  0
VERTEX
  8
T33SSILL
 62
13
 10
1906.471
 20
-4496.972
 30
1883.492
 70
    32
  0
VERTEX
  8
T33SSILL
 62
13
 10
1883.715
 20
-4466.607
 30
1883.504
 70
    32
  0
VERTEX
  8
T33SSILL
 62
13
 10
1855.664
 20
-4485.714
 30
1883.533
 70
    32
  0
VERTEX
  8
T33SSILL
 62
13
 10
1856.536
 20
-4487.015
 30
1883.533
 70
    32
  0
VERTEX
  8
T33SSILL
 62
13
 10
1847.140
 20
-4493.686
 30
1883.515
 70
    32
  0
VERTEX
  8
T33SSILL
 62
13
 10
1859.175
 20
-4510.799
 30
1883.494
 70
    32
  0
VERTEX
  8
T33SSILL
 62
13
 10
1881.049
 20
-4499.168
 30
1883.516
 70
    32
  0
SEQEND
  8
T33SSILL
  0
POLYLINE
  8
T33SSILL
 62
13
 66
     1
 70
     9
  0
VERTEX
  8
T33SSILL
 62
13
 10
1844.162
 20
-4511.693
 30
1883.464
 70
    32
  0
VERTEX
  8
T33SSILL
 62
13
 10
1849.168
 20
-4508.312
 30
1883.482
 70
    32
  0
VERTEX
  8
T33SSILL
 62
13
 10
1853.411
 20
-4514.737
 30
1883.473
 70
    32
  0
VERTEX
  8
T33SSILL
 62
13
 10
1843.526
 20
-4521.492
 30
1883.438
 70
    32
  0
VERTEX
  8
T33SSILL
 62
13
 10
1844.716
 20
-4531.028
 30
1883.416
 70
    32
  0
VERTEX
  8
T33SSILL
 62
13
 10
1851.189
 20
-4543.061
 30
1883.398
 70
    32
  0
VERTEX
  8
T33SSILL
 62
13
 10
1770.428
 20
-4601.977
 30
1883.293
 70
    32
  0
VERTEX
  8
T33SSILL
 62
13
 10
1738.783
 20
-4557.615
 30
1883.242
 70
    32
  0
VERTEX
  8
T33SSILL
 62
13
 10
1732.673
 20
-4562.087
 30
1883.248
 70
    32
  0
VERTEX
  8
T33SSILL
 62
13
 10
1761.252
 20
-4601.669
 30
1883.293
 70
    32
  0
VERTEX
  8
T33SSILL
 62
13
 10
1759.452
 20
-4609.161
 30
1883.302
 70
    32
  0
VERTEX
  8
T33SSILL
 62
13
 10
1687.550
 20
-4660.883
 30
1883.369
 70
    32
  0
VERTEX
  8
T33SSILL
 62
13
 10
1672.474
 20
-4639.368
 30
1883.344
 70
    32
  0
VERTEX
  8
T33SSILL
 62
13
 10
1655.618
 20
-4634.136
 30
1883.339
 70
    32
  0
VERTEX
  8
T33SSILL
 62
13
 10
1660.281
 20
-4630.246
 30
1883.334
 70
    32
  0
VERTEX
  8
T33SSILL
 62
13
 10
1656.282
 20
-4625.333
 30
1883.329
 70
    32
  0
VERTEX
  8
T33SSILL
 62
13
 10
1648.261
 20
-4631.852
 30
1883.337
 70
    32
  0
VERTEX
  8
T33SSILL
 62
13
 10
1640.136
 20
-4629.330
 30
1883.334
 70
    32
  0
VERTEX
  8
T33SSILL
 62
13
 10
1637.812
 20
-4635.496
 30
1883.342
 70
    32
  0
VERTEX
  8
T33SSILL
 62
13
 10
1666.623
 20
-4644.987
 30
1883.351
 70
    32
  0
VERTEX
  8
T33SSILL
 62
13
 10
1676.526
 20
-4659.330
 30
1883.368
 70
    32
  0
VERTEX
  8
T33SSILL
 62
13
 10
1674.931
 20
-4660.735
 30
1883.370
 70
    32
  0
VERTEX
  8
T33SSILL
 62
13
 10
1679.312
 20
-4667.374
 30
1883.377
 70
    32
  0
VERTEX
  8
T33SSILL
 62
13
 10
1672.908
 20
-4672.320
 30
1883.383
 70
    32
  0
VERTEX
  8
T33SSILL
 62
13
 10
1662.677
 20
-4676.737
 30
1883.389
 70
    32
  0
VERTEX
  8
T33SSILL
 62
13
 10
1661.541
 20
-4678.709
 30
1883.392
 70
    32
  0
VERTEX
  8
T33SSILL
 62
13
 10
1653.159
 20
-4674.044
 30
1883.387
 70
    32
  0
VERTEX
  8
T33SSILL
 62
13
 10
1650.749
 20
-4661.325
 30
1883.372
 70
    32
  0
VERTEX
  8
T33SSILL
 62
13
 10
1646.329
 20
-4662.981
 30
1883.374
 70
    32
  0
VERTEX
  8
T33SSILL
 62
13
 10
1645.596
 20
-4668.537
 30
1883.381
 70
    32
  0
VERTEX
  8
T33SSILL
 62
13
 10
1649.546
 20
-4689.121
 30
1883.405
 70
    32
  0
VERTEX
  8
T33SSILL
 62
13
 10
1533.381
 20
-4772.662
 30
1883.733
 70
    32
  0
VERTEX
  8
T33SSILL
 62
13
 10
1543.721
 20
-4712.804
 30
1883.644
 70
    32
  0
VERTEX
  8
T33SSILL
 62
13
 10
1546.606
 20
-4710.653
 30
1883.632
 70
    32
  0
VERTEX
  8
T33SSILL
 62
13
 10
1553.780
 20
-4720.273
 30
1883.618
 70
    32
  0
VERTEX
  8
T33SSILL
 62
13
 10
1568.209
 20
-4709.513
 30
1883.561
 70
    32
  0
VERTEX
  8
T33SSILL
 62
13
 10
1575.383
 20
-4719.132
 30
1883.547
 70
    32
  0
VERTEX
  8
T33SSILL
 62
13
 10
1580.193
 20
-4715.545
 30
1883.528
 70
    32
  0
VERTEX
  8
T33SSILL
 62
13
 10
1583.779
 20
-4720.355
 30
1883.520
 70
    32
  0
VERTEX
  8
T33SSILL
 62
13
 10
1593.399
 20
-4713.182
 30
1883.483
 70
    32
  0
VERTEX
  8
T33SSILL
 62
13
 10
1589.812
 20
-4708.372
 30
1883.490
 70
    32
  0
VERTEX
  8
T33SSILL
 62
13
 10
1594.622
 20
-4704.785
 30
1883.471
 70
    32
  0
VERTEX
  8
T33SSILL
 62
13
 10
1591.035
 20
-4699.975
 30
1883.478
 70
    32
  0
VERTEX
  8
T33SSILL
 62
13
 10
1595.845
 20
-4696.388
 30
1883.459
 70
    32
  0
VERTEX
  8
T33SSILL
 62
13
 10
1592.258
 20
-4691.578
 30
1883.466
 70
    32
  0
VERTEX
  8
T33SSILL
 62
13
 10
1601.878
 20
-4684.405
 30
1883.428
 70
    32
  0
VERTEX
  8
T33SSILL
 62
13
 10
1598.291
 20
-4679.595
 30
1883.435
 70
    32
  0
VERTEX
  8
T33SSILL
 62
13
 10
1603.101
 20
-4676.008
 30
1883.417
 70
    32
  0
VERTEX
  8
T33SSILL
 62
13
 10
1588.754
 20
-4656.769
 30
1883.445
 70
    32
  0
VERTEX
  8
T33SSILL
 62
13
 10
1526.226
 20
-4703.397
 30
1883.692
 70
    32
  0
VERTEX
  8
T33SSILL
 62
13
 10
1533.399
 20
-4713.017
 30
1883.677
 70
    32
  0
VERTEX
  8
T33SSILL
 62
13
 10
1535.694
 20
-4711.306
 30
1883.668
 70
    32
  0
VERTEX
  8
T33SSILL
 62
13
 10
1525.235
 20
-4778.535
 30
1883.765
 70
    32
  0
VERTEX
  8
T33SSILL
 62
13
 10
1498.404
 20
-4797.910
 30
1883.856
 70
    32
  0
VERTEX
  8
T33SSILL
 62
13
 10
1493.174
 20
-4802.915
 30
1883.846
 70
    32
  0
VERTEX
  8
T33SSILL
 62
13
 10
1487.380
 20
-4814.977
 30
1883.813
 70
    32
  0
VERTEX
  8
T33SSILL
 62
13
 10
1487.414
 20
-4826.361
 30
1883.786
 70
    32
  0
VERTEX
  8
T33SSILL
 62
13
 10
1421.383
 20
-4775.746
 30
1883.858
 70
    32
  0
VERTEX
  8
T33SSILL
 62
13
 10
1418.664
 20
-4772.203
 30
1883.864
 70
    32
  0
VERTEX
  8
T33SSILL
 62
13
 10
1415.252
 20
-4765.922
 30
1883.876
 70
    32
  0
VERTEX
  8
T33SSILL
 62
13
 10
1414.595
 20
-4755.770
 30
1883.900
 70
    32
  0
VERTEX
  8
T33SSILL
 62
13
 10
1417.984
 20
-4748.197
 30
1883.920
 70
    32
  0
VERTEX
  8
T33SSILL
 62
13
 10
1424.724
 20
-4741.258
 30
1883.942
 70
    32
  0
VERTEX
  8
T33SSILL
 62
13
 10
1504.753
 20
-4683.710
 30
1883.743
 70
    32
  0
VERTEX
  8
T33SSILL
 62
13
 10
1509.326
 20
-4686.830
 30
1883.731
 70
    32
  0
VERTEX
  8
T33SSILL
 62
13
 10
1521.587
 20
-4701.743
 30
1883.705
 70
    32
  0
VERTEX
  8
T33SSILL
 62
13
 10
1593.039
 20
-4650.066
 30
1883.425
 70
    32
  0
VERTEX
  8
T33SSILL
 62
13
 10
1592.219
 20
-4645.926
 30
1883.424
 70
    32
  0
VERTEX
  8
T33SSILL
 62
13
 10
1579.534
 20
-4629.935
 30
1883.450
 70
    32
  0
VERTEX
  8
T33SSILL
 62
13
 10
1614.129
 20
-4605.059
 30
1883.315
 70
    32
  0
VERTEX
  8
T33SSILL
 62
13
 10
1621.560
 20
-4614.264
 30
1883.318
 70
    32
  0
VERTEX
  8
T33SSILL
 62
13
 10
1623.975
 20
-4619.804
 30
1883.324
 70
    32
  0
VERTEX
  8
T33SSILL
 62
13
 10
1640.255
 20
-4614.588
 30
1883.317
 70
    32
  0
VERTEX
  8
T33SSILL
 62
13
 10
1631.351
 20
-4600.712
 30
1883.301
 70
    32
  0
VERTEX
  8
T33SSILL
 62
13
 10
1631.324
 20
-4596.391
 30
1883.296
 70
    32
  0
VERTEX
  8
T33SSILL
 62
13
 10
1629.090
 20
-4594.300
 30
1883.293
 70
    32
  0
VERTEX
  8
T33SSILL
 62
13
 10
1711.092
 20
-4535.333
 30
1883.217
 70
    32
  0
VERTEX
  8
T33SSILL
 62
13
 10
1730.872
 20
-4551.135
 30
1883.235
 70
    32
  0
VERTEX
  8
T33SSILL
 62
13
 10
1746.547
 20
-4539.473
 30
1883.220
 70
    32
  0
VERTEX
  8
T33SSILL
 62
13
 10
1742.622
 20
-4529.748
 30
1883.227
 70
    32
  0
VERTEX
  8
T33SSILL
 62
13
 10
1743.467
 20
-4519.074
 30
1883.255
 70
    32
  0
VERTEX
  8
T33SSILL
 62
13
 10
1740.313
 20
-4514.382
 30
1883.261
 70
    32
  0
VERTEX
  8
T33SSILL
 62
13
 10
1813.614
 20
-4461.873
 30
1883.531
 70
    32
  0
VERTEX
  8
T33SSILL
 62
13
 10
1814.354
 20
-4467.251
 30
1883.519
 70
    32
  0
VERTEX
  8
T33SSILL
 62
13
 10
1820.366
 20
-4469.860
 30
1883.524
 70
    32
  0
VERTEX
  8
T33SSILL
 62
13
 10
1832.142
 20
-4477.726
 30
1883.526
 70
    32
  0
VERTEX
  8
T33SSILL
 62
13
 10
1855.848
 20
-4460.565
 30
1883.530
 70
    32
  0
VERTEX
  8
T33SSILL
 62
13
 10
1851.132
 20
-4453.538
 30
1883.533
 70
    32
  0
VERTEX
  8
T33SSILL
 62
13
 10
1844.483
 20
-4447.582
 30
1883.537
 70
    32
  0
VERTEX
  8
T33SSILL
 62
13
 10
1841.920
 20
-4441.258
 30
1883.538
 70
    32
  0
VERTEX
  8
T33SSILL
 62
13
 10
1856.463
 20
-4430.667
 30
1883.518
 70
    32
  0
VERTEX
  8
T33SSILL
 62
13
 10
1878.521
 20
-4459.757
 30
1883.506
 70
    32
  0
VERTEX
  8
T33SSILL
 62
13
 10
1850.922
 20
-4478.631
 30
1883.536
 70
    32
  0
VERTEX
  8
T33SSILL
 62
13
 10
1849.773
 20
-4476.915
 30
1883.537
 70
    32
  0
VERTEX
  8
T33SSILL
 62
13
 10
1829.400
 20
-4491.146
 30
1883.487
 70
    32
  0
SEQEND
  8
T33SSILL
  0
POLYLINE
  8
T33SSILL
 62
13
 66
     1
 70
     9
  0
VERTEX
  8
T33SSILL
 62
13
 10
1916.245
 20
-4576.110
 30
1883.437
 70
    32
  0
VERTEX
  8
T33SSILL
 62
13
 10
1923.410
 20
-4591.146
 30
1883.413
 70
    32
  0
VERTEX
  8
T33SSILL
 62
13
 10
1926.974
 20
-4602.370
 30
1883.392
 70
    32
  0
VERTEX
  8
T33SSILL
 62
13
 10
1935.722
 20
-4599.941
 30
1883.414
 70
    32
  0
VERTEX
  8
T33SSILL
 62
13
 10
1962.555
 20
-4580.125
 30
1883.467
 70
    32
  0
VERTEX
  8
T33SSILL
 62
13
 10
1937.207
 20
-4566.150
 30
1883.483
 70
    32
  0
VERTEX
  8
T33SSILL
 62
13
 10
1919.990
 20
-4568.097
 30
1883.465
 70
    32
  0
SEQEND
  8
T33SSILL
  0
POLYLINE
  8
T33SSILL
 62
13
 66
     1
 70
     9
  0
VERTEX
  8
T33SSILL
 62
13
 10
1911.191
 20
-4525.609
 30
1883.498
 70
    32
  0
VERTEX
  8
T33SSILL
 62
13
 10
1921.194
 20
-4537.482
 30
1883.492
 70
    32
  0
VERTEX
  8
T33SSILL
 62
13
 10
1936.953
 20
-4545.323
 30
1883.481
 70
    32
  0
VERTEX
  8
T33SSILL
 62
13
 10
1941.822
 20
-4542.081
 30
1883.473
 70
    32
  0
VERTEX
  8
T33SSILL
 62
13
 10
1914.632
 20
-4507.182
 30
1883.488
 70
    32
  0
VERTEX
  8
T33SSILL
 62
13
 10
1902.237
 20
-4515.683
 30
1883.503
 70
    32
  0
SEQEND
  8
T33SSILL
  0
POLYLINE
  8
T33SSILL
 62
13
 66
     1
 70
     9
  0
VERTEX
  8
T33SSILL
 62
13
 10
1912.116
 20
-4609.182
 30
1883.346
 70
    32
  0
VERTEX
  8
T33SSILL
 62
13
 10
1905.198
 20
-4598.030
 30
1883.361
 70
    32
  0
VERTEX
  8
T33SSILL
 62
13
 10
1909.987
 20
-4593.200
 30
1883.383
 70
    32
  0
VERTEX
  8
T33SSILL
 62
13
 10
1901.715
 20
-4569.775
 30
1883.426
 70
    32
  0
VERTEX
  8
T33SSILL
 62
13
 10
1896.750
 20
-4574.693
 30
1883.404
 70
    32
  0
VERTEX
  8
T33SSILL
 62
13
 10
1897.843
 20
-4585.994
 30
1883.378
 70
    32
  0
VERTEX
  8
T33SSILL
 62
13
 10
1892.815
 20
-4604.060
 30
1883.323
 70
    32
  0
VERTEX
  8
T33SSILL
 62
13
 10
1896.176
 20
-4620.931
 30
1883.306
 70
    32
  0
VERTEX
  8
T33SSILL
 62
13
 10
1906.071
 20
-4618.508
 30
1883.311
 70
    32
  0
VERTEX
  8
T33SSILL
 62
13
 10
1910.588
 20
-4615.176
 30
1883.328
 70
    32
  0
SEQEND
  8
T33SSILL
  0
POLYLINE
  8
T33SSILL
 62
13
 66
     1
 70
     9
  0
VERTEX
  8
T33SSILL
 62
13
 10
1971.920
 20
-4522.369
 30
1883.420
 70
    32
  0
VERTEX
  8
T33SSILL
 62
13
 10
1966.391
 20
-4515.812
 30
1883.424
 70
    32
  0
VERTEX
  8
T33SSILL
 62
13
 10
1951.613
 20
-4506.035
 30
1883.437
 70
    32
  0
VERTEX
  8
T33SSILL
 62
13
 10
1947.859
 20
-4497.545
 30
1883.437
 70
    32
  0
VERTEX
  8
T33SSILL
 62
13
 10
1932.996
 20
-4505.417
 30
1883.462
 70
    32
  0
VERTEX
  8
T33SSILL
 62
13
 10
1960.023
 20
-4537.490
 30
1883.446
 70
    32
  0
VERTEX
  8
T33SSILL
 62
13
 10
1970.494
 20
-4525.274
 30
1883.424
 70
    32
  0
SEQEND
  8
T33SSILL
  0
POLYLINE
  8
T33SSILL
 62
13
 66
     1
 70
     9
  0
VERTEX
  8
T33SSILL
 62
13
 10
1434.865
 20
-4088.837
 30
1884.308
 70
    32
  0
VERTEX
  8
T33SSILL
 62
13
 10
1439.510
 20
-4095.169
 30
1884.304
 70
    32
  0
VERTEX
  8
T33SSILL
 62
13
 10
1412.769
 20
-4114.655
 30
1884.355
 70
    32
  0
VERTEX
  8
T33SSILL
 62
13
 10
1419.437
 20
-4123.675
 30
1884.349
 70
    32
  0
VERTEX
  8
T33SSILL
 62
13
 10
1438.507
 20
-4112.714
 30
1884.315
 70
    32
  0
VERTEX
  8
T33SSILL
 62
13
 10
1442.624
 20
-4107.252
 30
1884.305
 70
    32
  0
VERTEX
  8
T33SSILL
 62
13
 10
1446.320
 20
-4104.524
 30
1884.298
 70
    32
  0
VERTEX
  8
T33SSILL
 62
13
 10
1467.902
 20
-4097.241
 30
1884.261
 70
    32
  0
VERTEX
  8
T33SSILL
 62
13
 10
1476.071
 20
-4109.532
 30
1884.255
 70
    32
  0
VERTEX
  8
T33SSILL
 62
13
 10
1502.683
 20
-4088.722
 30
1884.204
 70
    32
  0
VERTEX
  8
T33SSILL
 62
13
 10
1498.359
 20
-4083.233
 30
1884.207
 70
    32
  0
VERTEX
  8
T33SSILL
 62
13
 10
1496.254
 20
-4074.764
 30
1884.206
 70
    32
  0
VERTEX
  8
T33SSILL
 62
13
 10
1500.925
 20
-4066.689
 30
1884.195
 70
    32
  0
VERTEX
  8
T33SSILL
 62
13
 10
1506.646
 20
-4061.011
 30
1884.183
 70
    32
  0
VERTEX
  8
T33SSILL
 62
13
 10
1520.792
 20
-4070.582
 30
1884.166
 70
    32
  0
VERTEX
  8
T33SSILL
 62
13
 10
1527.042
 20
-4071.458
 30
1884.157
 70
    32
  0
VERTEX
  8
T33SSILL
 62
13
 10
1638.170
 20
-3990.855
 30
1884.149
 70
    32
  0
VERTEX
  8
T33SSILL
 62
13
 10
1593.533
 20
-3982.106
 30
1884.172
 70
    32
  0
VERTEX
  8
T33SSILL
 62
13
 10
1529.193
 20
-4028.357
 30
1884.132
 70
    32
  0
VERTEX
  8
T33SSILL
 62
13
 10
1525.202
 20
-4021.657
 30
1884.134
 70
    32
  0
VERTEX
  8
T33SSILL
 62
13
 10
1591.251
 20
-3974.304
 30
1884.201
 70
    32
  0
VERTEX
  8
T33SSILL
 62
13
 10
1648.095
 20
-3983.929
 30
1884.169
 70
    32
  0
VERTEX
  8
T33SSILL
 62
13
 10
1675.613
 20
-3964.859
 30
1884.192
 70
    32
  0
VERTEX
  8
T33SSILL
 62
13
 10
1682.668
 20
-3962.133
 30
1884.192
 70
    32
  0
VERTEX
  8
T33SSILL
 62
13
 10
1690.843
 20
-3961.752
 30
1884.188
 70
    32
  0
VERTEX
  8
T33SSILL
 62
13
 10
1635.962
 20
-3901.580
 30
1884.323
 70
    32
  0
VERTEX
  8
T33SSILL
 62
13
 10
1626.764
 20
-3897.921
 30
1884.331
 70
    32
  0
VERTEX
  8
T33SSILL
 62
13
 10
1619.358
 20
-3898.623
 30
1884.336
 70
    32
  0
VERTEX
  8
T33SSILL
 62
13
 10
1613.361
 20
-3901.466
 30
1884.346
 70
    32
  0
VERTEX
  8
T33SSILL
 62
13
 10
1467.830
 20
-4006.092
 30
1884.214
 70
    32
  0
VERTEX
  8
T33SSILL
 62
13
 10
1473.861
 20
-4012.463
 30
1884.208
 70
    32
  0
VERTEX
  8
T33SSILL
 62
13
 10
1469.778
 20
-4017.089
 30
1884.217
 70
    32
  0
VERTEX
  8
T33SSILL
 62
13
 10
1464.896
 20
-4012.645
 30
1884.222
 70
    32
  0
VERTEX
  8
T33SSILL
 62
13
 10
1458.454
 20
-4012.724
 30
1884.232
 70
    32
  0
VERTEX
  8
T33SSILL
 62
13
 10
1415.256
 20
-4043.280
 30
1884.314
 70
    32
  0
VERTEX
  8
T33SSILL
 62
13
 10
1413.811
 20
-4051.017
 30
1884.320
 70
    32
  0
VERTEX
  8
T33SSILL
 62
13
 10
1417.814
 20
-4071.025
 30
1884.324
 70
    32
  0
VERTEX
  8
T33SSILL
 62
13
 10
1392.250
 20
-4089.035
 30
1884.373
 70
    32
  0
VERTEX
  8
T33SSILL
 62
13
 10
1407.621
 20
-4108.683
 30
1884.360
 70
    32
  0
SEQEND
  8
T33SSILL
  0
POLYLINE
  8
T33SSILL
 62
13
 66
     1
 70
     9
  0
VERTEX
  8
T33SSILL
 62
13
 10
1484.494
 20
-4208.206
 30
1884.181
 70
    32
  0
VERTEX
  8
T33SSILL
 62
13
 10
1488.814
 20
-4208.092
 30
1884.172
 70
    32
  0
VERTEX
  8
T33SSILL
 62
13
 10
1495.367
 20
-4212.726
 30
1884.159
 70
    32
  0
VERTEX
  8
T33SSILL
 62
13
 10
1570.178
 20
-4159.015
 30
1883.966
 70
    32
  0
VERTEX
  8
T33SSILL
 62
13
 10
1561.095
 20
-4144.343
 30
1883.996
 70
    32
  0
VERTEX
  8
T33SSILL
 62
13
 10
1560.904
 20
-4141.875
 30
1883.999
 70
    32
  0
VERTEX
  8
T33SSILL
 62
13
 10
1569.488
 20
-4132.299
 30
1883.983
 70
    32
  0
VERTEX
  8
T33SSILL
 62
13
 10
1570.678
 20
-4124.885
 30
1883.988
 70
    32
  0
VERTEX
  8
T33SSILL
 62
13
 10
1575.874
 20
-4123.619
 30
1883.973
 70
    32
  0
VERTEX
  8
T33SSILL
 62
13
 10
1581.294
 20
-4130.465
 30
1883.948
 70
    32
  0
VERTEX
  8
T33SSILL
 62
13
 10
1590.959
 20
-4139.402
 30
1883.909
 70
    32
  0
VERTEX
  8
T33SSILL
 62
13
 10
1595.108
 20
-4140.082
 30
1883.900
 70
    32
  0
VERTEX
  8
T33SSILL
 62
13
 10
1701.156
 20
-4064.447
 30
1883.839
 70
    32
  0
VERTEX
  8
T33SSILL
 62
13
 10
1655.870
 20
-4056.158
 30
1883.891
 70
    32
  0
VERTEX
  8
T33SSILL
 62
13
 10
1595.680
 20
-4099.251
 30
1883.939
 70
    32
  0
VERTEX
  8
T33SSILL
 62
13
 10
1591.635
 20
-4093.239
 30
1883.959
 70
    32
  0
VERTEX
  8
T33SSILL
 62
13
 10
1654.564
 20
-4048.205
 30
1883.923
 70
    32
  0
VERTEX
  8
T33SSILL
 62
13
 10
1710.206
 20
-4057.816
 30
1883.861
 70
    32
  0
VERTEX
  8
T33SSILL
 62
13
 10
1739.662
 20
-4037.048
 30
1883.932
 70
    32
  0
VERTEX
  8
T33SSILL
 62
13
 10
1748.503
 20
-4034.246
 30
1883.941
 70
    32
  0
VERTEX
  8
T33SSILL
 62
13
 10
1755.844
 20
-4034.674
 30
1883.939
 70
    32
  0
VERTEX
  8
T33SSILL
 62
13
 10
1702.591
 20
-3975.730
 30
1884.141
 70
    32
  0
VERTEX
  8
T33SSILL
 62
13
 10
1696.291
 20
-3971.425
 30
1884.156
 70
    32
  0
VERTEX
  8
T33SSILL
 62
13
 10
1687.508
 20
-3969.421
 30
1884.176
 70
    32
  0
VERTEX
  8
T33SSILL
 62
13
 10
1681.550
 20
-3970.179
 30
1884.179
 70
    32
  0
VERTEX
  8
T33SSILL
 62
13
 10
1676.787
 20
-3972.472
 30
1884.178
 70
    32
  0
VERTEX
  8
T33SSILL
 62
13
 10
1528.408
 20
-4079.801
 30
1884.160
 70
    32
  0
VERTEX
  8
T33SSILL
 62
13
 10
1530.975
 20
-4085.561
 30
1884.159
 70
    32
  0
VERTEX
  8
T33SSILL
 62
13
 10
1532.446
 20
-4095.886
 30
1884.147
 70
    32
  0
VERTEX
  8
T33SSILL
 62
13
 10
1528.520
 20
-4105.165
 30
1884.148
 70
    32
  0
VERTEX
  8
T33SSILL
 62
13
 10
1526.430
 20
-4106.647
 30
1884.153
 70
    32
  0
VERTEX
  8
T33SSILL
 62
13
 10
1521.154
 20
-4100.425
 30
1884.178
 70
    32
  0
VERTEX
  8
T33SSILL
 62
13
 10
1514.583
 20
-4100.319
 30
1884.192
 70
    32
  0
VERTEX
  8
T33SSILL
 62
13
 10
1506.691
 20
-4096.059
 30
1884.201
 70
    32
  0
VERTEX
  8
T33SSILL
 62
13
 10
1481.825
 20
-4116.070
 30
1884.250
 70
    32
  0
VERTEX
  8
T33SSILL
 62
13
 10
1485.887
 20
-4131.742
 30
1884.252
 70
    32
  0
VERTEX
  8
T33SSILL
 62
13
 10
1483.614
 20
-4135.019
 30
1884.257
 70
    32
  0
VERTEX
  8
T33SSILL
 62
13
 10
1486.910
 20
-4140.643
 30
1884.239
 70
    32
  0
VERTEX
  8
T33SSILL
 62
13
 10
1475.855
 20
-4149.880
 30
1884.263
 70
    32
  0
VERTEX
  8
T33SSILL
 62
13
 10
1455.649
 20
-4162.612
 30
1884.313
 70
    32
  0
VERTEX
  8
T33SSILL
 62
13
 10
1450.565
 20
-4167.669
 30
1884.323
 70
    32
  0
VERTEX
  8
T33SSILL
 62
13
 10
1478.404
 20
-4207.449
 30
1884.194
 70
    32
  0
SEQEND
  8
T33SSILL
  0
POLYLINE
  8
T33SSILL
 62
13
 66
     1
 70
     9
  0
VERTEX
  8
T33SSILL
 62
13
 10
1689.361
 20
-4174.907
 30
1883.709
 70
    32
  0
VERTEX
  8
T33SSILL
 62
13
 10
1691.339
 20
-4167.767
 30
1883.707
 70
    32
  0
VERTEX
  8
T33SSILL
 62
13
 10
1702.457
 20
-4154.582
 30
1883.715
 70
    32
  0
VERTEX
  8
T33SSILL
 62
13
 10
1715.753
 20
-4143.859
 30
1883.723
 70
    32
  0
VERTEX
  8
T33SSILL
 62
13
 10
1720.372
 20
-4141.668
 30
1883.724
 70
    32
  0
VERTEX
  8
T33SSILL
 62
13
 10
1732.069
 20
-4144.422
 30
1883.726
 70
    32
  0
VERTEX
  8
T33SSILL
 62
13
 10
1741.405
 20
-4149.498
 30
1883.726
 70
    32
  0
VERTEX
  8
T33SSILL
 62
13
 10
1754.838
 20
-4143.550
 30
1883.727
 70
    32
  0
VERTEX
  8
T33SSILL
 62
13
 10
1803.680
 20
-4109.042
 30
1883.685
 70
    32
  0
VERTEX
  8
T33SSILL
 62
13
 10
1800.309
 20
-4104.285
 30
1883.701
 70
    32
  0
VERTEX
  8
T33SSILL
 62
13
 10
1810.738
 20
-4097.002
 30
1883.726
 70
    32
  0
VERTEX
  8
T33SSILL
 62
13
 10
1768.748
 20
-4049.673
 30
1883.888
 70
    32
  0
VERTEX
  8
T33SSILL
 62
13
 10
1760.925
 20
-4043.524
 30
1883.909
 70
    32
  0
VERTEX
  8
T33SSILL
 62
13
 10
1750.818
 20
-4041.484
 30
1883.916
 70
    32
  0
VERTEX
  8
T33SSILL
 62
13
 10
1740.577
 20
-4045.061
 30
1883.904
 70
    32
  0
VERTEX
  8
T33SSILL
 62
13
 10
1601.666
 20
-4145.510
 30
1883.889
 70
    32
  0
VERTEX
  8
T33SSILL
 62
13
 10
1602.870
 20
-4155.027
 30
1883.891
 70
    32
  0
VERTEX
  8
T33SSILL
 62
13
 10
1595.188
 20
-4160.667
 30
1883.911
 70
    32
  0
VERTEX
  8
T33SSILL
 62
13
 10
1603.006
 20
-4174.774
 30
1883.901
 70
    32
  0
VERTEX
  8
T33SSILL
 62
13
 10
1620.764
 20
-4168.588
 30
1883.858
 70
    32
  0
VERTEX
  8
T33SSILL
 62
13
 10
1622.466
 20
-4173.075
 30
1883.856
 70
    32
  0
VERTEX
  8
T33SSILL
 62
13
 10
1633.670
 20
-4188.528
 30
1883.839
 70
    32
  0
VERTEX
  8
T33SSILL
 62
13
 10
1643.038
 20
-4206.550
 30
1883.828
 70
    32
  0
VERTEX
  8
T33SSILL
 62
13
 10
1649.495
 20
-4209.950
 30
1883.815
 70
    32
  0
VERTEX
  8
T33SSILL
 62
13
 10
1649.683
 20
-4211.889
 30
1883.816
 70
    32
  0
VERTEX
  8
T33SSILL
 62
13
 10
1655.169
 20
-4214.943
 30
1883.805
 70
    32
  0
VERTEX
  8
T33SSILL
 62
13
 10
1690.858
 20
-4189.546
 30
1883.713
 70
    32
  0
VERTEX
  8
T33SSILL
 62
13
 10
1690.319
 20
-4185.272
 30
1883.712
 70
    32
  0
SEQEND
  8
T33SSILL
  0
POLYLINE
  8
T33SSILL
 62
13
 66
     1
 70
     9
  0
VERTEX
  8
T33SSILL
 62
13
 10
1814.109
 20
-4112.911
 30
1883.672
 70
    32
  0
VERTEX
  8
T33SSILL
 62
13
 10
1804.082
 20
-4117.094
 30
1883.677
 70
    32
  0
VERTEX
  8
T33SSILL
 62
13
 10
1762.539
 20
-4146.321
 30
1883.725
 70
    32
  0
VERTEX
  8
T33SSILL
 62
13
 10
1760.505
 20
-4152.310
 30
1883.729
 70
    32
  0
VERTEX
  8
T33SSILL
 62
13
 10
1738.404
 20
-4169.706
 30
1883.717
 70
    32
  0
VERTEX
  8
T33SSILL
 62
13
 10
1728.332
 20
-4174.896
 30
1883.713
 70
    32
  0
VERTEX
  8
T33SSILL
 62
13
 10
1704.554
 20
-4190.233
 30
1883.701
 70
    32
  0
VERTEX
  8
T33SSILL
 62
13
 10
1698.857
 20
-4192.430
 30
1883.699
 70
    32
  0
VERTEX
  8
T33SSILL
 62
13
 10
1657.162
 20
-4223.749
 30
1883.805
 70
    32
  0
VERTEX
  8
T33SSILL
 62
13
 10
1655.875
 20
-4229.665
 30
1883.811
 70
    32
  0
VERTEX
  8
T33SSILL
 62
13
 10
1658.800
 20
-4247.020
 30
1883.814
 70
    32
  0
VERTEX
  8
T33SSILL
 62
13
 10
1656.121
 20
-4256.030
 30
1883.824
 70
    32
  0
VERTEX
  8
T33SSILL
 62
13
 10
1643.381
 20
-4249.140
 30
1883.849
 70
    32
  0
VERTEX
  8
T33SSILL
 62
13
 10
1638.988
 20
-4251.900
 30
1883.860
 70
    32
  0
VERTEX
  8
T33SSILL
 62
13
 10
1630.335
 20
-4249.924
 30
1883.878
 70
    32
  0
VERTEX
  8
T33SSILL
 62
13
 10
1626.252
 20
-4245.539
 30
1883.885
 70
    32
  0
VERTEX
  8
T33SSILL
 62
13
 10
1586.040
 20
-4274.881
 30
1883.990
 70
    32
  0
VERTEX
  8
T33SSILL
 62
13
 10
1588.976
 20
-4279.272
 30
1883.985
 70
    32
  0
VERTEX
  8
T33SSILL
 62
13
 10
1586.565
 20
-4288.987
 30
1883.974
 70
    32
  0
VERTEX
  8
T33SSILL
 62
13
 10
1588.840
 20
-4300.702
 30
1883.923
 70
    32
  0
VERTEX
  8
T33SSILL
 62
13
 10
1575.827
 20
-4307.041
 30
1883.929
 70
    32
  0
VERTEX
  8
T33SSILL
 62
13
 10
1565.260
 20
-4294.759
 30
1884.002
 70
    32
  0
VERTEX
  8
T33SSILL
 62
13
 10
1561.281
 20
-4293.019
 30
1884.018
 70
    32
  0
VERTEX
  8
T33SSILL
 62
13
 10
1547.585
 20
-4303.154
 30
1884.011
 70
    32
  0
VERTEX
  8
T33SSILL
 62
13
 10
1571.320
 20
-4334.846
 30
1883.830
 70
    32
  0
VERTEX
  8
T33SSILL
 62
13
 10
1604.853
 20
-4309.248
 30
1883.851
 70
    32
  0
VERTEX
  8
T33SSILL
 62
13
 10
1608.858
 20
-4315.485
 30
1883.817
 70
    32
  0
VERTEX
  8
T33SSILL
 62
13
 10
1575.238
 20
-4341.083
 30
1883.796
 70
    32
  0
VERTEX
  8
T33SSILL
 62
13
 10
1580.668
 20
-4349.604
 30
1883.750
 70
    32
  0
VERTEX
  8
T33SSILL
 62
13
 10
1583.840
 20
-4349.233
 30
1883.744
 70
    32
  0
VERTEX
  8
T33SSILL
 62
13
 10
1588.179
 20
-4352.205
 30
1883.722
 70
    32
  0
VERTEX
  8
T33SSILL
 62
13
 10
1621.462
 20
-4329.078
 30
1883.734
 70
    32
  0
VERTEX
  8
T33SSILL
 62
13
 10
1632.054
 20
-4345.504
 30
1883.644
 70
    32
  0
VERTEX
  8
T33SSILL
 62
13
 10
1678.416
 20
-4312.334
 30
1883.664
 70
    32
  0
VERTEX
  8
T33SSILL
 62
13
 10
1675.305
 20
-4308.208
 30
1883.687
 70
    32
  0
VERTEX
  8
T33SSILL
 62
13
 10
1678.115
 20
-4306.251
 30
1883.688
 70
    32
  0
VERTEX
  8
T33SSILL
 62
13
 10
1673.657
 20
-4298.165
 30
1883.731
 70
    32
  0
VERTEX
  8
T33SSILL
 62
13
 10
1678.843
 20
-4295.312
 30
1883.730
 70
    32
  0
VERTEX
  8
T33SSILL
 62
13
 10
1687.022
 20
-4306.286
 30
1883.667
 70
    32
  0
VERTEX
  8
T33SSILL
 62
13
 10
1735.136
 20
-4271.165
 30
1883.674
 70
    32
  0
VERTEX
  8
T33SSILL
 62
13
 10
1728.731
 20
-4261.944
 30
1883.677
 70
    32
  0
VERTEX
  8
T33SSILL
 62
13
 10
1734.525
 20
-4257.500
 30
1883.680
 70
    32
  0
VERTEX
  8
T33SSILL
 62
13
 10
1741.629
 20
-4265.835
 30
1883.678
 70
    32
  0
VERTEX
  8
T33SSILL
 62
13
 10
1861.218
 20
-4179.668
 30
1883.655
 70
    32
  0
VERTEX
  8
T33SSILL
 62
13
 10
1873.352
 20
-4173.775
 30
1883.607
 70
    32
  0
VERTEX
  8
T33SSILL
 62
13
 10
1882.172
 20
-4173.899
 30
1883.578
 70
    32
  0
VERTEX
  8
T33SSILL
 62
13
 10
1854.077
 20
-4142.594
 30
1883.632
 70
    32
  0
VERTEX
  8
T33SSILL
 62
13
 10
1833.373
 20
-4121.453
 30
1883.666
 70
    32
  0
VERTEX
  8
T33SSILL
 62
13
 10
1826.013
 20
-4115.193
 30
1883.664
 70
    32
  0
VERTEX
  8
T33SSILL
 62
13
 10
1817.930
 20
-4112.801
 30
1883.672
 70
    32
  0
SEQEND
  8
T33SSILL
  0
POLYLINE
  8
T33SSILL
 62
13
 66
     1
 70
     9
  0
VERTEX
  8
T33SSILL
 62
13
 10
1642.977
 20
-4358.226
 30
1883.568
 70
    32
  0
VERTEX
  8
T33SSILL
 62
13
 10
1648.470
 20
-4362.514
 30
1883.538
 70
    32
  0
VERTEX
  8
T33SSILL
 62
13
 10
1653.380
 20
-4372.197
 30
1883.488
 70
    32
  0
VERTEX
  8
T33SSILL
 62
13
 10
1663.959
 20
-4388.364
 30
1883.399
 70
    32
  0
VERTEX
  8
T33SSILL
 62
13
 10
1726.465
 20
-4398.642
 30
1883.522
 70
    32
  0
VERTEX
  8
T33SSILL
 62
13
 10
1728.132
 20
-4397.309
 30
1883.528
 70
    32
  0
VERTEX
  8
T33SSILL
 62
13
 10
1699.850
 20
-4357.355
 30
1883.492
 70
    32
  0
VERTEX
  8
T33SSILL
 62
13
 10
1705.647
 20
-4353.441
 30
1883.513
 70
    32
  0
VERTEX
  8
T33SSILL
 62
13
 10
1733.661
 20
-4392.867
 30
1883.549
 70
    32
  0
VERTEX
  8
T33SSILL
 62
13
 10
1795.217
 20
-4349.464
 30
1883.576
 70
    32
  0
VERTEX
  8
T33SSILL
 62
13
 10
1739.047
 20
-4276.344
 30
1883.671
 70
    32
  0
VERTEX
  8
T33SSILL
 62
13
 10
1691.583
 20
-4310.974
 30
1883.638
 70
    32
  0
VERTEX
  8
T33SSILL
 62
13
 10
1696.259
 20
-4317.253
 30
1883.602
 70
    32
  0
VERTEX
  8
T33SSILL
 62
13
 10
1689.850
 20
-4321.966
 30
1883.599
 70
    32
  0
VERTEX
  8
T33SSILL
 62
13
 10
1684.933
 20
-4315.826
 30
1883.635
 70
    32
  0
VERTEX
  8
T33SSILL
 62
13
 10
1637.287
 20
-4350.588
 30
1883.611
 70
    32
  0
VERTEX
  8
T33SSILL
 62
13
 10
1638.013
 20
-4353.934
 30
1883.597
 70
    32
  0
SEQEND
  8
T33SSILL
  0
POLYLINE
  8
T33SSILL
 62
13
 66
     1
 70
     9
  0
VERTEX
  8
T33SSILL
 62
13
 10
1670.968
 20
-4408.410
 30
1883.350
 70
    32
  0
VERTEX
  8
T33SSILL
 62
13
 10
1680.366
 20
-4416.908
 30
1883.368
 70
    32
  0
VERTEX
  8
T33SSILL
 62
13
 10
1686.257
 20
-4427.276
 30
1883.373
 70
    32
  0
VERTEX
  8
T33SSILL
 62
13
 10
1715.312
 20
-4406.381
 30
1883.481
 70
    32
  0
VERTEX
  8
T33SSILL
 62
13
 10
1667.863
 20
-4398.140
 30
1883.353
 70
    32
  0
SEQEND
  8
T33SSILL
  0
POLYLINE
  8
T33SSILL
 62
13
 66
     1
 70
     9
  0
VERTEX
  8
T33SSILL
 62
13
 10
1591.061
 20
-4189.184
 30
1883.935
 70
    32
  0
VERTEX
  8
T33SSILL
 62
13
 10
1582.299
 20
-4178.808
 30
1883.949
 70
    32
  0
VERTEX
  8
T33SSILL
 62
13
 10
1581.622
 20
-4170.410
 30
1883.946
 70
    32
  0
VERTEX
  8
T33SSILL
 62
13
 10
1574.794
 20
-4164.190
 30
1883.958
 70
    32
  0
VERTEX
  8
T33SSILL
 62
13
 10
1500.867
 20
-4218.161
 30
1884.150
 70
    32
  0
VERTEX
  8
T33SSILL
 62
13
 10
1513.473
 20
-4232.106
 30
1884.129
 70
    32
  0
VERTEX
  8
T33SSILL
 62
13
 10
1513.575
 20
-4234.398
 30
1884.130
 70
    32
  0
VERTEX
  8
T33SSILL
 62
13
 10
1503.920
 20
-4241.952
 30
1884.155
 70
    32
  0
VERTEX
  8
T33SSILL
 62
13
 10
1543.581
 20
-4297.181
 30
1884.044
 70
    32
  0
VERTEX
  8
T33SSILL
 62
13
 10
1615.488
 20
-4244.546
 30
1883.909
 70
    32
  0
VERTEX
  8
T33SSILL
 62
13
 10
1614.091
 20
-4232.296
 30
1883.905
 70
    32
  0
VERTEX
  8
T33SSILL
 62
13
 10
1607.655
 20
-4217.697
 30
1883.912
 70
    32
  0
VERTEX
  8
T33SSILL
 62
13
 10
1599.106
 20
-4203.815
 30
1883.924
 70
    32
  0
VERTEX
  8
T33SSILL
 62
13
 10
1596.217
 20
-4192.721
 30
1883.925
 70
    32
  0
VERTEX
  8
T33SSILL
 62
13
 10
1594.508
 20
-4191.906
 30
1883.928
 70
    32
  0
SEQEND
  8
T33SSILL
  0
POLYLINE
  8
T33SSILL
 62
13
 66
     1
 70
     9
  0
VERTEX
  8
T33SSILL
 62
13
 10
1615.759
 20
-4220.405
 30
1883.896
 70
    32
  0
VERTEX
  8
T33SSILL
 62
13
 10
1616.143
 20
-4230.279
 30
1883.900
 70
    32
  0
VERTEX
  8
T33SSILL
 62
13
 10
1618.350
 20
-4231.418
 30
1883.896
 70
    32
  0
VERTEX
  8
T33SSILL
 62
13
 10
1622.843
 20
-4230.257
 30
1883.885
 70
    32
  0
VERTEX
  8
T33SSILL
 62
13
 10
1624.860
 20
-4226.812
 30
1883.879
 70
    32
  0
VERTEX
  8
T33SSILL
 62
13
 10
1624.850
 20
-4223.638
 30
1883.877
 70
    32
  0
VERTEX
  8
T33SSILL
 62
13
 10
1623.341
 20
-4220.469
 30
1883.879
 70
    32
  0
VERTEX
  8
T33SSILL
 62
13
 10
1620.779
 20
-4218.802
 30
1883.884
 70
    32
  0
VERTEX
  8
T33SSILL
 62
13
 10
1618.488
 20
-4219.162
 30
1883.889
 70
    32
  0
SEQEND
  8
T33SSILL
  0
POLYLINE
  8
T33SSILL
 62
13
 66
     1
 70
     9
  0
VERTEX
  8
T33SSILL
 62
13
 10
1612.934
 20
-4191.495
 30
1883.887
 70
    32
  0
VERTEX
  8
T33SSILL
 62
13
 10
1616.662
 20
-4199.418
 30
1883.883
 70
    32
  0
VERTEX
  8
T33SSILL
 62
13
 10
1616.583
 20
-4202.240
 30
1883.885
 70
    32
  0
VERTEX
  8
T33SSILL
 62
13
 10
1608.827
 20
-4203.322
 30
1883.902
 70
    32
  0
VERTEX
  8
T33SSILL
 62
13
 10
1603.784
 20
-4197.872
 30
1883.911
 70
    32
  0
VERTEX
  8
T33SSILL
 62
13
 10
1602.789
 20
-4189.852
 30
1883.909
 70
    32
  0
VERTEX
  8
T33SSILL
 62
13
 10
1608.240
 20
-4185.073
 30
1883.894
 70
    32
  0
SEQEND
  8
T33SSILL
  0
POLYLINE
  8
T33SSILL
 62
13
 66
     1
 70
     9
  0
VERTEX
  8
T33SSILL
 62
13
 10
1792.383
 20
-4259.181
 30
1883.676
 70
    32
  0
VERTEX
  8
T33SSILL
 62
13
 10
1796.861
 20
-4255.892
 30
1883.678
 70
    32
  0
VERTEX
  8
T33SSILL
 62
13
 10
1812.376
 20
-4255.005
 30
1883.675
 70
    32
  0
VERTEX
  8
T33SSILL
 62
13
 10
1819.039
 20
-4248.616
 30
1883.680
 70
    32
  0
VERTEX
  8
T33SSILL
 62
13
 10
1821.950
 20
-4248.775
 30
1883.680
 70
    32
  0
VERTEX
  8
T33SSILL
 62
13
 10
1826.071
 20
-4244.782
 30
1883.683
 70
    32
  0
VERTEX
  8
T33SSILL
 62
13
 10
1836.619
 20
-4253.890
 30
1883.663
 70
    32
  0
VERTEX
  8
T33SSILL
 62
13
 10
1843.826
 20
-4249.878
 30
1883.661
 70
    32
  0
VERTEX
  8
T33SSILL
 62
13
 10
1853.395
 20
-4257.405
 30
1883.644
 70
    32
  0
VERTEX
  8
T33SSILL
 62
13
 10
1857.672
 20
-4264.698
 30
1883.630
 70
    32
  0
VERTEX
  8
T33SSILL
 62
13
 10
1860.098
 20
-4272.267
 30
1883.619
 70
    32
  0
VERTEX
  8
T33SSILL
 62
13
 10
1867.178
 20
-4276.458
 30
1883.607
 70
    32
  0
VERTEX
  8
T33SSILL
 62
13
 10
1870.975
 20
-4277.317
 30
1883.603
 70
    32
  0
VERTEX
  8
T33SSILL
 62
13
 10
1872.499
 20
-4281.452
 30
1883.596
 70
    32
  0
VERTEX
  8
T33SSILL
 62
13
 10
1872.735
 20
-4291.328
 30
1883.583
 70
    32
  0
VERTEX
  8
T33SSILL
 62
13
 10
1874.942
 20
-4291.843
 30
1883.581
 70
    32
  0
VERTEX
  8
T33SSILL
 62
13
 10
1930.699
 20
-4251.915
 30
1883.563
 70
    32
  0
VERTEX
  8
T33SSILL
 62
13
 10
1940.819
 20
-4248.415
 30
1883.524
 70
    32
  0
VERTEX
  8
T33SSILL
 62
13
 10
1948.931
 20
-4248.190
 30
1883.498
 70
    32
  0
VERTEX
  8
T33SSILL
 62
13
 10
1891.320
 20
-4184.779
 30
1883.563
 70
    32
  0
VERTEX
  8
T33SSILL
 62
13
 10
1880.275
 20
-4181.141
 30
1883.593
 70
    32
  0
VERTEX
  8
T33SSILL
 62
13
 10
1875.336
 20
-4180.994
 30
1883.610
 70
    32
  0
VERTEX
  8
T33SSILL
 62
13
 10
1868.294
 20
-4183.153
 30
1883.636
 70
    32
  0
VERTEX
  8
T33SSILL
 62
13
 10
1782.688
 20
-4245.395
 30
1883.693
 70
    32
  0
VERTEX
  8
T33SSILL
 62
13
 10
1782.701
 20
-4247.511
 30
1883.691
 70
    32
  0
VERTEX
  8
T33SSILL
 62
13
 10
1787.419
 20
-4254.890
 30
1883.682
 70
    32
  0
SEQEND
  8
T33SSILL
  0
POLYLINE
  8
T33SSILL
 62
13
 66
     1
 70
     9
  0
VERTEX
  8
T33SSILL
 62
13
 10
1809.801
 20
-4281.476
 30
1883.648
 70
    32
  0
VERTEX
  8
T33SSILL
 62
13
 10
1795.628
 20
-4270.890
 30
1883.663
 70
    32
  0
VERTEX
  8
T33SSILL
 62
13
 10
1783.415
 20
-4278.283
 30
1883.658
 70
    32
  0
VERTEX
  8
T33SSILL
 62
13
 10
1781.459
 20
-4275.737
 30
1883.661
 70
    32
  0
VERTEX
  8
T33SSILL
 62
13
 10
1778.898
 20
-4275.047
 30
1883.662
 70
    32
  0
VERTEX
  8
T33SSILL
 62
13
 10
1766.269
 20
-4257.222
 30
1883.684
 70
    32
  0
VERTEX
  8
T33SSILL
 62
13
 10
1745.988
 20
-4272.158
 30
1883.674
 70
    32
  0
VERTEX
  8
T33SSILL
 62
13
 10
1801.011
 20
-4345.109
 30
1883.576
 70
    32
  0
VERTEX
  8
T33SSILL
 62
13
 10
1831.653
 20
-4322.791
 30
1883.578
 70
    32
  0
VERTEX
  8
T33SSILL
 62
13
 10
1829.329
 20
-4317.514
 30
1883.587
 70
    32
  0
VERTEX
  8
T33SSILL
 62
13
 10
1830.905
 20
-4315.652
 30
1883.588
 70
    32
  0
VERTEX
  8
T33SSILL
 62
13
 10
1839.967
 20
-4312.071
 30
1883.585
 70
    32
  0
VERTEX
  8
T33SSILL
 62
13
 10
1834.372
 20
-4305.579
 30
1883.598
 70
    32
  0
VERTEX
  8
T33SSILL
 62
13
 10
1833.376
 20
-4301.264
 30
1883.604
 70
    32
  0
VERTEX
  8
T33SSILL
 62
13
 10
1834.665
 20
-4295.612
 30
1883.611
 70
    32
  0
SEQEND
  8
T33SSILL
  0
POLYLINE
  8
T33SSILL
 62
13
 66
     1
 70
     9
  0
VERTEX
  8
T33SSILL
 62
13
 10
3284.949
 20
-4615.933
 30
1883.627
 70
    32
  0
VERTEX
  8
T33SSILL
 62
13
 10
3266.422
 20
-4590.843
 30
1883.642
 70
    32
  0
VERTEX
  8
T33SSILL
 62
13
 10
3281.202
 20
-4579.945
 30
1883.662
 70
    32
  0
VERTEX
  8
T33SSILL
 62
13
 10
3270.520
 20
-4565.457
 30
1883.671
 70
    32
  0
VERTEX
  8
T33SSILL
 62
13
 10
3275.209
 20
-4562.000
 30
1883.677
 70
    32
  0
VERTEX
  8
T33SSILL
 62
13
 10
3266.583
 20
-4549.445
 30
1883.685
 70
    32
  0
VERTEX
  8
T33SSILL
 62
13
 10
3265.150
 20
-4542.140
 30
1883.692
 70
    32
  0
VERTEX
  8
T33SSILL
 62
13
 10
3265.652
 20
-4533.771
 30
1883.701
 70
    32
  0
VERTEX
  8
T33SSILL
 62
13
 10
3251.329
 20
-4544.121
 30
1883.681
 70
    32
  0
VERTEX
  8
T33SSILL
 62
13
 10
3123.424
 20
-4704.470
 30
1883.444
 70
    32
  0
VERTEX
  8
T33SSILL
 62
13
 10
3230.026
 20
-4696.072
 30
1883.511
 70
    32
  0
VERTEX
  8
T33SSILL
 62
13
 10
3298.559
 20
-4646.419
 30
1883.606
 70
    32
  0
VERTEX
  8
T33SSILL
 62
13
 10
3290.635
 20
-4622.112
 30
1883.624
 70
    32
  0
VERTEX
  8
T33SSILL
 62
13
 10
3292.239
 20
-4618.677
 30
1883.629
 70
    32
  0
VERTEX
  8
T33SSILL
 62
13
 10
3298.615
 20
-4613.851
 30
1883.638
 70
    32
  0
VERTEX
  8
T33SSILL
 62
13
 10
3308.875
 20
-4608.865
 30
1883.649
 70
    32
  0
VERTEX
  8
T33SSILL
 62
13
 10
3315.690
 20
-4624.606
 30
1883.639
 70
    32
  0
VERTEX
  8
T33SSILL
 62
13
 10
3324.057
 20
-4628.615
 30
1883.642
 70
    32
  0
VERTEX
  8
T33SSILL
 62
13
 10
3331.671
 20
-4623.352
 30
1883.653
 70
    32
  0
VERTEX
  8
T33SSILL
 62
13
 10
3329.842
 20
-4617.784
 30
1883.656
 70
    32
  0
VERTEX
  8
T33SSILL
 62
13
 10
3331.351
 20
-4615.849
 30
1883.659
 70
    32
  0
VERTEX
  8
T33SSILL
 62
13
 10
3328.127
 20
-4606.391
 30
1883.665
 70
    32
  0
VERTEX
  8
T33SSILL
 62
13
 10
3324.091
 20
-4600.901
 30
1883.667
 70
    32
  0
VERTEX
  8
T33SSILL
 62
13
 10
3324.381
 20
-4595.341
 30
1883.673
 70
    32
  0
VERTEX
  8
T33SSILL
 62
13
 10
3385.385
 20
-4551.833
 30
1883.757
 70
    32
  0
VERTEX
  8
T33SSILL
 62
13
 10
3389.714
 20
-4550.881
 30
1883.762
 70
    32
  0
VERTEX
  8
T33SSILL
 62
13
 10
3404.542
 20
-4570.717
 30
1883.757
 70
    32
  0
VERTEX
  8
T33SSILL
 62
13
 10
3433.226
 20
-4550.985
 30
1883.797
 70
    32
  0
VERTEX
  8
T33SSILL
 62
13
 10
3428.782
 20
-4538.079
 30
1883.804
 70
    32
  0
VERTEX
  8
T33SSILL
 62
13
 10
3434.452
 20
-4533.250
 30
1883.813
 70
    32
  0
VERTEX
  8
T33SSILL
 62
13
 10
3436.418
 20
-4527.786
 30
1883.819
 70
    32
  0
VERTEX
  8
T33SSILL
 62
13
 10
3437.174
 20
-4514.014
 30
1883.831
 70
    32
  0
VERTEX
  8
T33SSILL
 62
13
 10
3433.820
 20
-4516.416
 30
1883.827
 70
    32
  0
VERTEX
  8
T33SSILL
 62
13
 10
3416.214
 20
-4491.458
 30
1883.836
 70
    32
  0
VERTEX
  8
T33SSILL
 62
13
 10
3421.134
 20
-4487.655
 30
1883.843
 70
    32
  0
VERTEX
  8
T33SSILL
 62
13
 10
3417.683
 20
-4482.470
 30
1883.846
 70
    32
  0
VERTEX
  8
T33SSILL
 62
13
 10
3422.780
 20
-4478.931
 30
1883.853
 70
    32
  0
VERTEX
  8
T33SSILL
 62
13
 10
3395.747
 20
-4441.792
 30
1883.875
 70
    32
  0
VERTEX
  8
T33SSILL
 62
13
 10
3306.691
 20
-4504.752
 30
1883.756
 70
    32
  0
VERTEX
  8
T33SSILL
 62
13
 10
3320.142
 20
-4524.703
 30
1883.743
 70
    32
  0
VERTEX
  8
T33SSILL
 62
13
 10
3331.798
 20
-4534.562
 30
1883.740
 70
    32
  0
VERTEX
  8
T33SSILL
 62
13
 10
3336.824
 20
-4535.732
 30
1883.742
 70
    32
  0
VERTEX
  8
T33SSILL
 62
13
 10
3356.282
 20
-4526.550
 30
1883.763
 70
    32
  0
VERTEX
  8
T33SSILL
 62
13
 10
3360.876
 20
-4525.423
 30
1883.767
 70
    32
  0
VERTEX
  8
T33SSILL
 62
13
 10
3377.613
 20
-4512.876
 30
1883.790
 70
    32
  0
VERTEX
  8
T33SSILL
 62
13
 10
3381.325
 20
-4516.561
 30
1883.789
 70
    32
  0
VERTEX
  8
T33SSILL
 62
13
 10
3409.549
 20
-4496.247
 30
1883.827
 70
    32
  0
VERTEX
  8
T33SSILL
 62
13
 10
3413.672
 20
-4502.002
 30
1883.823
 70
    32
  0
VERTEX
  8
T33SSILL
 62
13
 10
3400.651
 20
-4511.090
 30
1883.806
 70
    32
  0
VERTEX
  8
T33SSILL
 62
13
 10
3404.692
 20
-4516.879
 30
1883.803
 70
    32
  0
VERTEX
  8
T33SSILL
 62
13
 10
3394.864
 20
-4523.720
 30
1883.790
 70
    32
  0
VERTEX
  8
T33SSILL
 62
13
 10
3390.160
 20
-4518.412
 30
1883.792
 70
    32
  0
VERTEX
  8
T33SSILL
 62
13
 10
3362.369
 20
-4537.809
 30
1883.755
 70
    32
  0
VERTEX
  8
T33SSILL
 62
13
 10
3365.747
 20
-4542.649
 30
1883.752
 70
    32
  0
VERTEX
  8
T33SSILL
 62
13
 10
3355.291
 20
-4550.658
 30
1883.738
 70
    32
  0
VERTEX
  8
T33SSILL
 62
13
 10
3350.500
 20
-4545.444
 30
1883.740
 70
    32
  0
VERTEX
  8
T33SSILL
 62
13
 10
3352.298
 20
-4549.216
 30
1883.737
 70
    32
  0
VERTEX
  8
T33SSILL
 62
13
 10
3351.663
 20
-4553.185
 30
1883.733
 70
    32
  0
VERTEX
  8
T33SSILL
 62
13
 10
3345.719
 20
-4560.043
 30
1883.722
 70
    32
  0
VERTEX
  8
T33SSILL
 62
13
 10
3352.738
 20
-4569.606
 30
1883.716
 70
    32
  0
VERTEX
  8
T33SSILL
 62
13
 10
3346.806
 20
-4573.728
 30
1883.709
 70
    32
  0
VERTEX
  8
T33SSILL
 62
13
 10
3308.771
 20
-4521.832
 30
1883.739
 70
    32
  0
VERTEX
  8
T33SSILL
 62
13
 10
3304.443
 20
-4517.795
 30
1883.741
 70
    32
  0
VERTEX
  8
T33SSILL
 62
13
 10
3296.155
 20
-4515.091
 30
1883.738
 70
    32
  0
VERTEX
  8
T33SSILL
 62
13
 10
3290.433
 20
-4515.989
 30
1883.734
 70
    32
  0
VERTEX
  8
T33SSILL
 62
13
 10
3276.731
 20
-4527.747
 30
1883.714
 70
    32
  0
VERTEX
  8
T33SSILL
 62
13
 10
3274.282
 20
-4533.303
 30
1883.706
 70
    32
  0
VERTEX
  8
T33SSILL
 62
13
 10
3273.511
 20
-4540.264
 30
1883.699
 70
    32
  0
VERTEX
  8
T33SSILL
 62
13
 10
3275.743
 20
-4549.504
 30
1883.690
 70
    32
  0
VERTEX
  8
T33SSILL
 62
13
 10
3309.985
 20
-4597.396
 30
1883.662
 70
    32
  0
SEQEND
  8
T33SSILL
  0
POLYLINE
  8
T33SSILL
 62
13
 66
     1
 70
     9
  0
VERTEX
  8
T33SSILL
 62
13
 10
3299.030
 20
-4739.802
 30
1883.548
 70
    32
  0
VERTEX
  8
T33SSILL
 62
13
 10
3323.739
 20
-4720.846
 30
1883.567
 70
    32
  0
VERTEX
  8
T33SSILL
 62
13
 10
3327.442
 20
-4709.590
 30
1883.579
 70
    32
  0
VERTEX
  8
T33SSILL
 62
13
 10
3321.397
 20
-4708.895
 30
1883.575
 70
    32
  0
VERTEX
  8
T33SSILL
 62
13
 10
3323.530
 20
-4697.061
 30
1883.586
 70
    32
  0
VERTEX
  8
T33SSILL
 62
13
 10
3317.566
 20
-4679.513
 30
1883.595
 70
    32
  0
VERTEX
  8
T33SSILL
 62
13
 10
3322.463
 20
-4670.101
 30
1883.607
 70
    32
  0
VERTEX
  8
T33SSILL
 62
13
 10
3313.799
 20
-4673.141
 30
1883.597
 70
    32
  0
VERTEX
  8
T33SSILL
 62
13
 10
3302.935
 20
-4654.911
 30
1883.603
 70
    32
  0
VERTEX
  8
T33SSILL
 62
13
 10
3301.439
 20
-4654.022
 30
1883.602
 70
    32
  0
VERTEX
  8
T33SSILL
 62
13
 10
3238.225
 20
-4698.139
 30
1883.514
 70
    32
  0
VERTEX
  8
T33SSILL
 62
13
 10
3268.757
 20
-4739.756
 30
1883.540
 70
    32
  0
VERTEX
  8
T33SSILL
 62
13
 10
3277.825
 20
-4744.915
 30
1883.545
 70
    32
  0
VERTEX
  8
T33SSILL
 62
13
 10
3285.324
 20
-4745.566
 30
1883.548
 70
    32
  0
SEQEND
  8
T33SSILL
  0
POLYLINE
  8
T33SSILL
 62
13
 66
     1
 70
     9
  0
VERTEX
  8
T33SSILL
 62
13
 10
2677.757
 20
-5913.572
 30
1883.400
 70
    32
  0
VERTEX
  8
T33SSILL
 62
13
 10
2681.014
 20
-5917.864
 30
1883.401
 70
    32
  0
VERTEX
  8
T33SSILL
 62
13
 10
2678.236
 20
-5921.543
 30
1883.408
 70
    32
  0
VERTEX
  8
T33SSILL
 62
13
 10
2666.885
 20
-5925.924
 30
1883.428
 70
    32
  0
VERTEX
  8
T33SSILL
 62
13
 10
2661.225
 20
-5926.570
 30
1883.436
 70
    32
  0
VERTEX
  8
T33SSILL
 62
13
 10
2652.223
 20
-5924.727
 30
1883.445
 70
    32
  0
VERTEX
  8
T33SSILL
 62
13
 10
2705.222
 20
-6004.366
 30
1883.466
 70
    32
  0
VERTEX
  8
T33SSILL
 62
13
 10
2718.269
 20
-5994.539
 30
1883.438
 70
    32
  0
VERTEX
  8
T33SSILL
 62
13
 10
2722.030
 20
-5999.404
 30
1883.439
 70
    32
  0
VERTEX
  8
T33SSILL
 62
13
 10
2709.266
 20
-6009.025
 30
1883.466
 70
    32
  0
VERTEX
  8
T33SSILL
 62
13
 10
2712.024
 20
-6011.470
 30
1883.465
 70
    32
  0
VERTEX
  8
T33SSILL
 62
13
 10
2716.672
 20
-6020.686
 30
1883.469
 70
    32
  0
VERTEX
  8
T33SSILL
 62
13
 10
2726.285
 20
-6031.500
 30
1883.469
 70
    32
  0
VERTEX
  8
T33SSILL
 62
13
 10
2730.157
 20
-6039.651
 30
1883.473
 70
    32
  0
VERTEX
  8
T33SSILL
 62
13
 10
2888.883
 20
-6283.505
 30
1883.720
 70
    32
  0
VERTEX
  8
T33SSILL
 62
13
 10
2893.010
 20
-6286.255
 30
1883.729
 70
    32
  0
VERTEX
  8
T33SSILL
 62
13
 10
2902.895
 20
-6298.934
 30
1883.756
 70
    32
  0
VERTEX
  8
T33SSILL
 62
13
 10
2903.911
 20
-6301.671
 30
1883.761
 70
    32
  0
VERTEX
  8
T33SSILL
 62
13
 10
2902.738
 20
-6304.790
 30
1883.763
 70
    32
  0
VERTEX
  8
T33SSILL
 62
13
 10
2912.146
 20
-6319.245
 30
1883.792
 70
    32
  0
VERTEX
  8
T33SSILL
 62
13
 10
2924.207
 20
-6310.897
 30
1883.797
 70
    32
  0
VERTEX
  8
T33SSILL
 62
13
 10
2928.304
 20
-6316.821
 30
1883.809
 70
    32
  0
VERTEX
  8
T33SSILL
 62
13
 10
2916.101
 20
-6325.272
 30
1883.804
 70
    32
  0
VERTEX
  8
T33SSILL
 62
13
 10
2920.463
 20
-6332.307
 30
1883.818
 70
    32
  0
VERTEX
  8
T33SSILL
 62
13
 10
3151.495
 20
-6148.965
 30
1884.026
 70
    32
  0
VERTEX
  8
T33SSILL
 62
13
 10
3147.014
 20
-6147.884
 30
1884.025
 70
    32
  0
VERTEX
  8
T33SSILL
 62
13
 10
3141.709
 20
-6140.450
 30
1884.022
 70
    32
  0
VERTEX
  8
T33SSILL
 62
13
 10
3148.414
 20
-6135.785
 30
1884.021
 70
    32
  0
VERTEX
  8
T33SSILL
 62
13
 10
3152.116
 20
-6141.018
 30
1884.023
 70
    32
  0
VERTEX
  8
T33SSILL
 62
13
 10
3154.988
 20
-6139.144
 30
1884.023
 70
    32
  0
VERTEX
  8
T33SSILL
 62
13
 10
3159.833
 20
-6143.111
 30
1884.024
 70
    32
  0
VERTEX
  8
T33SSILL
 62
13
 10
3200.196
 20
-6114.261
 30
1884.019
 70
    32
  0
VERTEX
  8
T33SSILL
 62
13
 10
3203.749
 20
-6107.654
 30
1884.018
 70
    32
  0
VERTEX
  8
T33SSILL
 62
13
 10
3204.682
 20
-6102.521
 30
1884.016
 70
    32
  0
VERTEX
  8
T33SSILL
 62
13
 10
3157.443
 20
-6037.204
 30
1883.993
 70
    32
  0
VERTEX
  8
T33SSILL
 62
13
 10
3137.832
 20
-6051.594
 30
1883.968
 70
    32
  0
VERTEX
  8
T33SSILL
 62
13
 10
3146.174
 20
-6062.899
 30
1883.998
 70
    32
  0
VERTEX
  8
T33SSILL
 62
13
 10
3139.598
 20
-6067.145
 30
1883.988
 70
    32
  0
VERTEX
  8
T33SSILL
 62
13
 10
3131.747
 20
-6055.916
 30
1883.958
 70
    32
  0
VERTEX
  8
T33SSILL
 62
13
 10
3125.694
 20
-6060.433
 30
1883.949
 70
    32
  0
VERTEX
  8
T33SSILL
 62
13
 10
3120.661
 20
-6053.670
 30
1883.931
 70
    32
  0
VERTEX
  8
T33SSILL
 62
13
 10
3146.512
 20
-6035.171
 30
1883.971
 70
    32
  0
VERTEX
  8
T33SSILL
 62
13
 10
3149.883
 20
-6026.525
 30
1883.969
 70
    32
  0
VERTEX
  8
T33SSILL
 62
13
 10
3101.035
 20
-5959.446
 30
1883.790
 70
    32
  0
VERTEX
  8
T33SSILL
 62
13
 10
2977.485
 20
-6047.245
 30
1883.601
 70
    32
  0
VERTEX
  8
T33SSILL
 62
13
 10
2973.324
 20
-6040.934
 30
1883.585
 70
    32
  0
VERTEX
  8
T33SSILL
 62
13
 10
3090.401
 20
-5957.523
 30
1883.764
 70
    32
  0
VERTEX
  8
T33SSILL
 62
13
 10
3091.595
 20
-5946.334
 30
1883.756
 70
    32
  0
VERTEX
  8
T33SSILL
 62
13
 10
3024.357
 20
-5853.108
 30
1883.508
 70
    32
  0
VERTEX
  8
T33SSILL
 62
13
 10
3016.601
 20
-5848.871
 30
1883.486
 70
    32
  0
VERTEX
  8
T33SSILL
 62
13
 10
3000.577
 20
-5858.042
 30
1883.460
 70
    32
  0
VERTEX
  8
T33SSILL
 62
13
 10
2997.315
 20
-5855.203
 30
1883.449
 70
    32
  0
VERTEX
  8
T33SSILL
 62
13
 10
2996.607
 20
-5848.115
 30
1883.441
 70
    32
  0
VERTEX
  8
T33SSILL
 62
13
 10
3012.947
 20
-5837.737
 30
1883.467
 70
    32
  0
VERTEX
  8
T33SSILL
 62
13
 10
2989.363
 20
-5805.052
 30
1883.380
 70
    32
  0
VERTEX
  8
T33SSILL
 62
13
 10
2922.491
 20
-5854.184
 30
1883.279
 70
    32
  0
VERTEX
  8
T33SSILL
 62
13
 10
2922.677
 20
-5863.390
 30
1883.289
 70
    32
  0
VERTEX
  8
T33SSILL
 62
13
 10
2919.978
 20
-5872.960
 30
1883.293
 70
    32
  0
VERTEX
  8
T33SSILL
 62
13
 10
2925.118
 20
-5895.829
 30
1883.328
 70
    32
  0
VERTEX
  8
T33SSILL
 62
13
 10
2929.625
 20
-5896.350
 30
1883.339
 70
    32
  0
VERTEX
  8
T33SSILL
 62
13
 10
2935.652
 20
-5892.395
 30
1883.348
 70
    32
  0
VERTEX
  8
T33SSILL
 62
13
 10
2940.582
 20
-5909.009
 30
1883.376
 70
    32
  0
VERTEX
  8
T33SSILL
 62
13
 10
2938.050
 20
-5916.719
 30
1883.379
 70
    32
  0
VERTEX
  8
T33SSILL
 62
13
 10
2941.921
 20
-5923.676
 30
1883.394
 70
    32
  0
VERTEX
  8
T33SSILL
 62
13
 10
2944.761
 20
-5933.991
 30
1883.411
 70
    32
  0
VERTEX
  8
T33SSILL
 62
13
 10
2947.920
 20
-5936.687
 30
1883.421
 70
    32
  0
VERTEX
  8
T33SSILL
 62
13
 10
2956.780
 20
-5951.091
 30
1883.456
 70
    32
  0
VERTEX
  8
T33SSILL
 62
13
 10
2963.523
 20
-5976.162
 30
1883.497
 70
    32
  0
VERTEX
  8
T33SSILL
 62
13
 10
2960.189
 20
-5983.369
 30
1883.497
 70
    32
  0
VERTEX
  8
T33SSILL
 62
13
 10
2960.449
 20
-5984.918
 30
1883.499
 70
    32
  0
VERTEX
  8
T33SSILL
 62
13
 10
2957.281
 20
-5987.877
 30
1883.495
 70
    32
  0
VERTEX
  8
T33SSILL
 62
13
 10
2957.253
 20
-5994.849
 30
1883.502
 70
    32
  0
VERTEX
  8
T33SSILL
 62
13
 10
2956.060
 20
-5997.238
 30
1883.502
 70
    32
  0
VERTEX
  8
T33SSILL
 62
13
 10
2950.070
 20
-5999.753
 30
1883.491
 70
    32
  0
VERTEX
  8
T33SSILL
 62
13
 10
2943.682
 20
-5984.418
 30
1883.461
 70
    32
  0
VERTEX
  8
T33SSILL
 62
13
 10
2940.777
 20
-5984.904
 30
1883.454
 70
    32
  0
VERTEX
  8
T33SSILL
 62
13
 10
2924.107
 20
-5930.240
 30
1883.361
 70
    32
  0
VERTEX
  8
T33SSILL
 62
13
 10
2910.533
 20
-5913.837
 30
1883.314
 70
    32
  0
VERTEX
  8
T33SSILL
 62
13
 10
2906.306
 20
-5885.957
 30
1883.275
 70
    32
  0
VERTEX
  8
T33SSILL
 62
13
 10
2902.410
 20
-5880.756
 30
1883.263
 70
    32
  0
VERTEX
  8
T33SSILL
 62
13
 10
2899.809
 20
-5870.919
 30
1883.248
 70
    32
  0
VERTEX
  8
T33SSILL
 62
13
 10
2862.950
 20
-5897.869
 30
1883.231
 70
    32
  0
VERTEX
  8
T33SSILL
 62
13
 10
2859.085
 20
-5891.668
 30
1883.219
 70
    32
  0
VERTEX
  8
T33SSILL
 62
13
 10
2901.817
 20
-5860.550
 30
1883.239
 70
    32
  0
VERTEX
  8
T33SSILL
 62
13
 10
2902.294
 20
-5849.123
 30
1883.229
 70
    32
  0
VERTEX
  8
T33SSILL
 62
13
 10
2908.031
 20
-5845.814
 30
1883.238
 70
    32
  0
VERTEX
  8
T33SSILL
 62
13
 10
2914.046
 20
-5852.731
 30
1883.259
 70
    32
  0
VERTEX
  8
T33SSILL
 62
13
 10
2982.015
 20
-5803.017
 30
1883.361
 70
    32
  0
VERTEX
  8
T33SSILL
 62
13
 10
2981.609
 20
-5794.405
 30
1883.352
 70
    32
  0
VERTEX
  8
T33SSILL
 62
13
 10
2945.077
 20
-5737.819
 30
1883.211
 70
    32
  0
VERTEX
  8
T33SSILL
 62
13
 10
2882.329
 20
-5650.452
 30
1882.980
 70
    32
  0
VERTEX
  8
T33SSILL
 62
13
 10
2860.320
 20
-5666.289
 30
1882.953
 70
    32
  0
VERTEX
  8
T33SSILL
 62
13
 10
2858.271
 20
-5675.285
 30
1882.961
 70
    32
  0
VERTEX
  8
T33SSILL
 62
13
 10
2861.879
 20
-5694.247
 30
1882.988
 70
    32
  0
VERTEX
  8
T33SSILL
 62
13
 10
2859.438
 20
-5696.146
 30
1882.987
 70
    32
  0
VERTEX
  8
T33SSILL
 62
13
 10
2865.144
 20
-5715.725
 30
1883.018
 70
    32
  0
VERTEX
  8
T33SSILL
 62
13
 10
2866.861
 20
-5744.799
 30
1883.054
 70
    32
  0
VERTEX
  8
T33SSILL
 62
13
 10
2859.601
 20
-5749.683
 30
1883.051
 70
    32
  0
VERTEX
  8
T33SSILL
 62
13
 10
2848.634
 20
-5754.440
 30
1883.043
 70
    32
  0
VERTEX
  8
T33SSILL
 62
13
 10
2835.671
 20
-5718.391
 30
1883.013
 70
    32
  0
VERTEX
  8
T33SSILL
 62
13
 10
2821.372
 20
-5694.316
 30
1882.998
 70
    32
  0
VERTEX
  8
T33SSILL
 62
13
 10
2786.130
 20
-5719.675
 30
1883.051
 70
    32
  0
VERTEX
  8
T33SSILL
 62
13
 10
2781.482
 20
-5728.120
 30
1883.064
 70
    32
  0
VERTEX
  8
T33SSILL
 62
13
 10
2778.628
 20
-5740.507
 30
1883.081
 70
    32
  0
VERTEX
  8
T33SSILL
 62
13
 10
2781.618
 20
-5753.097
 30
1883.091
 70
    32
  0
VERTEX
  8
T33SSILL
 62
13
 10
2823.138
 20
-5810.356
 30
1883.120
 70
    32
  0
VERTEX
  8
T33SSILL
 62
13
 10
2827.861
 20
-5806.904
 30
1883.113
 70
    32
  0
VERTEX
  8
T33SSILL
 62
13
 10
2831.431
 20
-5811.623
 30
1883.115
 70
    32
  0
VERTEX
  8
T33SSILL
 62
13
 10
2826.447
 20
-5814.948
 30
1883.122
 70
    32
  0
VERTEX
  8
T33SSILL
 62
13
 10
2827.789
 20
-5816.812
 30
1883.123
 70
    32
  0
VERTEX
  8
T33SSILL
 62
13
 10
2822.035
 20
-5821.359
 30
1883.132
 70
    32
  0
VERTEX
  8
T33SSILL
 62
13
 10
2774.900
 20
-5755.285
 30
1883.102
 70
    32
  0
VERTEX
  8
T33SSILL
 62
13
 10
2770.837
 20
-5742.277
 30
1883.093
 70
    32
  0
VERTEX
  8
T33SSILL
 62
13
 10
2772.827
 20
-5729.758
 30
1883.076
 70
    32
  0
VERTEX
  8
T33SSILL
 62
13
 10
2609.762
 20
-5845.930
 30
1883.412
 70
    32
  0
VERTEX
  8
T33SSILL
 62
13
 10
2616.522
 20
-5859.480
 30
1883.418
 70
    32
  0
VERTEX
  8
T33SSILL
 62
13
 10
2631.723
 20
-5874.834
 30
1883.416
 70
    32
  0
VERTEX
  8
T33SSILL
 62
13
 10
2643.320
 20
-5883.632
 30
1883.411
 70
    32
  0
SEQEND
  8
T33SSILL
  0
POLYLINE
  8
T33SSILL
 62
13
 66
     1
 70
     9
  0
VERTEX
  8
T33SSILL
 62
13
 10
2850.831
 20
-5704.866
 30
1882.988
 70
    32
  0
VERTEX
  8
T33SSILL
 62
13
 10
2850.180
 20
-5699.649
 30
1882.983
 70
    32
  0
VERTEX
  8
T33SSILL
 62
13
 10
2845.386
 20
-5685.643
 30
1882.971
 70
    32
  0
VERTEX
  8
T33SSILL
 62
13
 10
2841.266
 20
-5680.000
 30
1882.968
 70
    32
  0
VERTEX
  8
T33SSILL
 62
13
 10
2838.889
 20
-5681.710
 30
1882.972
 70
    32
  0
VERTEX
  8
T33SSILL
 62
13
 10
2835.914
 20
-5694.231
 30
1882.987
 70
    32
  0
VERTEX
  8
T33SSILL
 62
13
 10
2839.346
 20
-5703.541
 30
1882.995
 70
    32
  0
VERTEX
  8
T33SSILL
 62
13
 10
2845.698
 20
-5709.068
 30
1882.996
 70
    32
  0
SEQEND
  8
T33SSILL
  0
POLYLINE
  8
T33SSILL
 62
13
 66
     1
 70
     9
  0
VERTEX
  8
T33SSILL
 62
13
 10
2173.623
 20
-4598.559
 30
1882.978
 70
    32
  0
VERTEX
  8
T33SSILL
 62
13
 10
2172.581
 20
-4548.152
 30
1883.027
 70
    32
  0
VERTEX
  8
T33SSILL
 62
13
 10
2159.984
 20
-4547.971
 30
1883.019
 70
    32
  0
VERTEX
  8
T33SSILL
 62
13
 10
2159.855
 20
-4537.788
 30
1883.029
 70
    32
  0
VERTEX
  8
T33SSILL
 62
13
 10
2148.515
 20
-4537.234
 30
1883.023
 70
    32
  0
VERTEX
  8
T33SSILL
 62
13
 10
2125.738
 20
-4558.393
 30
1882.996
 70
    32
  0
VERTEX
  8
T33SSILL
 62
13
 10
2126.164
 20
-4607.064
 30
1882.966
 70
    32
  0
VERTEX
  8
T33SSILL
 62
13
 10
2165.449
 20
-4606.511
 30
1882.965
 70
    32
  0
SEQEND
  8
T33SSILL
  0
POLYLINE
  8
T33SSILL
 62
13
 66
     1
 70
     9
  0
VERTEX
  8
T33SSILL
 62
13
 10
2259.531
 20
-4807.149
 30
1882.940
 70
    32
  0
VERTEX
  8
T33SSILL
 62
13
 10
2264.215
 20
-4791.145
 30
1882.910
 70
    32
  0
VERTEX
  8
T33SSILL
 62
13
 10
2308.805
 20
-4853.842
 30
1882.901
 70
    32
  0
VERTEX
  8
T33SSILL
 62
13
 10
2311.371
 20
-4859.289
 30
1882.899
 70
    32
  0
VERTEX
  8
T33SSILL
 62
13
 10
2312.753
 20
-4869.539
 30
1882.903
 70
    32
  0
VERTEX
  8
T33SSILL
 62
13
 10
2310.930
 20
-4877.653
 30
1882.932
 70
    32
  0
VERTEX
  8
T33SSILL
 62
13
 10
2307.767
 20
-4882.592
 30
1882.959
 70
    32
  0
VERTEX
  8
T33SSILL
 62
13
 10
2302.840
 20
-4887.512
 30
1882.992
 70
    32
  0
VERTEX
  8
T33SSILL
 62
13
 10
2217.104
 20
-4948.422
 30
1883.262
 70
    32
  0
VERTEX
  8
T33SSILL
 62
13
 10
2213.219
 20
-4944.160
 30
1883.266
 70
    32
  0
VERTEX
  8
T33SSILL
 62
13
 10
2207.567
 20
-4935.396
 30
1883.271
 70
    32
  0
VERTEX
  8
T33SSILL
 62
13
 10
2197.672
 20
-4907.543
 30
1883.283
 70
    32
  0
VERTEX
  8
T33SSILL
 62
13
 10
2188.483
 20
-4891.856
 30
1883.292
 70
    32
  0
VERTEX
  8
T33SSILL
 62
13
 10
2196.725
 20
-4887.134
 30
1883.287
 70
    32
  0
VERTEX
  8
T33SSILL
 62
13
 10
2185.673
 20
-4870.843
 30
1883.298
 70
    32
  0
VERTEX
  8
T33SSILL
 62
13
 10
2181.565
 20
-4872.102
 30
1883.300
 70
    32
  0
VERTEX
  8
T33SSILL
 62
13
 10
2178.134
 20
-4868.162
 30
1883.303
 70
    32
  0
VERTEX
  8
T33SSILL
 62
13
 10
2251.917
 20
-4815.566
 30
1882.993
 70
    32
  0
SEQEND
  8
T33SSILL
  0
POLYLINE
  8
T33SSILL
 62
13
 66
     1
 70
     9
  0
VERTEX
  8
T33SSILL
 62
13
 10
3293.159
 20
-6174.198
 30
1884.286
 70
    32
  0
VERTEX
  8
T33SSILL
 62
13
 10
3306.258
 20
-6164.441
 30
1884.301
 70
    32
  0
VERTEX
  8
T33SSILL
 62
13
 10
3303.764
 20
-6171.906
 30
1884.308
 70
    32
  0
VERTEX
  8
T33SSILL
 62
13
 10
3298.164
 20
-6176.745
 30
1884.302
 70
    32
  0
VERTEX
  8
T33SSILL
 62
13
 10
3303.843
 20
-6183.797
 30
1884.327
 70
    32
  0
VERTEX
  8
T33SSILL
 62
13
 10
3307.838
 20
-6181.974
 30
1884.334
 70
    32
  0
VERTEX
  8
T33SSILL
 62
13
 10
3309.844
 20
-6179.210
 30
1884.334
 70
    32
  0
VERTEX
  8
T33SSILL
 62
13
 10
3326.525
 20
-6188.244
 30
1884.388
 70
    32
  0
VERTEX
  8
T33SSILL
 62
13
 10
3319.840
 20
-6193.981
 30
1884.382
 70
    32
  0
VERTEX
  8
T33SSILL
 62
13
 10
3325.022
 20
-6201.396
 30
1884.406
 70
    32
  0
VERTEX
  8
T33SSILL
 62
13
 10
3331.811
 20
-6195.801
 30
1884.413
 70
    32
  0
VERTEX
  8
T33SSILL
 62
13
 10
3347.468
 20
-6216.872
 30
1884.439
 70
    32
  0
VERTEX
  8
T33SSILL
 62
13
 10
3340.926
 20
-6216.970
 30
1884.444
 70
    32
  0
VERTEX
  8
T33SSILL
 62
13
 10
3311.395
 20
-6238.153
 30
1884.435
 70
    32
  0
VERTEX
  8
T33SSILL
 62
13
 10
3267.686
 20
-6177.106
 30
1884.231
 70
    32
  0
VERTEX
  8
T33SSILL
 62
13
 10
3276.066
 20
-6178.172
 30
1884.253
 70
    32
  0
VERTEX
  8
T33SSILL
 62
13
 10
3285.265
 20
-6177.230
 30
1884.273
 70
    32
  0
SEQEND
  8
T33SSILL
  0
POLYLINE
  8
T33SSILL
 62
13
 66
     1
 70
     9
  0
VERTEX
  8
T33SSILL
 62
13
 10
3439.804
 20
-4459.148
 30
1883.884
 70
    32
  0
VERTEX
  8
T33SSILL
 62
13
 10
3454.048
 20
-4479.624
 30
1883.874
 70
    32
  0
VERTEX
  8
T33SSILL
 62
13
 10
3448.952
 20
-4483.252
 30
1883.867
 70
    32
  0
VERTEX
  8
T33SSILL
 62
13
 10
3458.776
 20
-4498.545
 30
1883.862
 70
    32
  0
VERTEX
  8
T33SSILL
 62
13
 10
3450.470
 20
-4504.493
 30
1883.850
 70
    32
  0
VERTEX
  8
T33SSILL
 62
13
 10
3469.007
 20
-4523.076
 30
1883.849
 70
    32
  0
VERTEX
  8
T33SSILL
 62
13
 10
3472.718
 20
-4522.210
 30
1883.853
 70
    32
  0
VERTEX
  8
T33SSILL
 62
13
 10
3518.575
 20
-4490.171
 30
1883.917
 70
    32
  0
VERTEX
  8
T33SSILL
 62
13
 10
3550.556
 20
-4466.730
 30
1883.963
 70
    32
  0
VERTEX
  8
T33SSILL
 62
13
 10
3581.735
 20
-4306.444
 30
1884.114
 70
    32
  0
VERTEX
  8
T33SSILL
 62
13
 10
3401.738
 20
-4437.111
 30
1883.883
 70
    32
  0
VERTEX
  8
T33SSILL
 62
13
 10
3425.607
 20
-4469.553
 30
1883.864
 70
    32
  0
SEQEND
  8
T33SSILL
  0
POLYLINE
  8
T33SSILL
 62
13
 66
     1
 70
     9
  0
VERTEX
  8
T33SSILL
 62
13
 10
3484.858
 20
-4551.213
 30
1883.839
 70
    32
  0
VERTEX
  8
T33SSILL
 62
13
 10
3484.077
 20
-4548.120
 30
1883.841
 70
    32
  0
VERTEX
  8
T33SSILL
 62
13
 10
3476.526
 20
-4539.173
 30
1883.842
 70
    32
  0
VERTEX
  8
T33SSILL
 62
13
 10
3476.222
 20
-4528.139
 30
1883.851
 70
    32
  0
VERTEX
  8
T33SSILL
 62
13
 10
3557.662
 20
-4470.479
 30
1883.952
 70
    32
  0
VERTEX
  8
T33SSILL
 62
13
 10
3563.680
 20
-4437.017
 30
1883.989
 70
    32
  0
VERTEX
  8
T33SSILL
 62
13
 10
3601.653
 20
-4489.779
 30
1883.836
 70
    32
  0
VERTEX
  8
T33SSILL
 62
13
 10
3620.826
 20
-4520.922
 30
1883.775
 70
    32
  0
VERTEX
  8
T33SSILL
 62
13
 10
3622.368
 20
-4531.520
 30
1883.771
 70
    32
  0
VERTEX
  8
T33SSILL
 62
13
 10
3620.306
 20
-4538.748
 30
1883.768
 70
    32
  0
VERTEX
  8
T33SSILL
 62
13
 10
3614.808
 20
-4544.549
 30
1883.767
 70
    32
  0
VERTEX
  8
T33SSILL
 62
13
 10
3513.439
 20
-4614.799
 30
1883.812
 70
    32
  0
VERTEX
  8
T33SSILL
 62
13
 10
3501.610
 20
-4595.169
 30
1883.818
 70
    32
  0
VERTEX
  8
T33SSILL
 62
13
 10
3506.911
 20
-4591.424
 30
1883.826
 70
    32
  0
VERTEX
  8
T33SSILL
 62
13
 10
3496.073
 20
-4576.082
 30
1883.829
 70
    32
  0
VERTEX
  8
T33SSILL
 62
13
 10
3534.304
 20
-4548.762
 30
1883.883
 70
    32
  0
VERTEX
  8
T33SSILL
 62
13
 10
3538.242
 20
-4554.449
 30
1883.882
 70
    32
  0
VERTEX
  8
T33SSILL
 62
13
 10
3548.600
 20
-4547.258
 30
1883.896
 70
    32
  0
VERTEX
  8
T33SSILL
 62
13
 10
3544.479
 20
-4541.492
 30
1883.897
 70
    32
  0
VERTEX
  8
T33SSILL
 62
13
 10
3559.440
 20
-4530.801
 30
1883.898
 70
    32
  0
VERTEX
  8
T33SSILL
 62
13
 10
3555.586
 20
-4524.252
 30
1883.913
 70
    32
  0
VERTEX
  8
T33SSILL
 62
13
 10
3491.724
 20
-4569.925
 30
1883.830
 70
    32
  0
VERTEX
  8
T33SSILL
 62
13
 10
3482.072
 20
-4556.262
 30
1883.833
 70
    32
  0
VERTEX
  8
T33SSILL
 62
13
 10
3484.313
 20
-4554.653
 30
1883.836
 70
    32
  0
SEQEND
  8
T33SSILL
  0
POLYLINE
  8
T33SSILL
 62
13
 66
     1
 70
     9
  0
VERTEX
  8
T33SSILL
 62
13
 10
3679.955
 20
-4622.153
 30
1883.734
 70
    32
  0
VERTEX
  8
T33SSILL
 62
13
 10
3677.910
 20
-4625.675
 30
1883.732
 70
    32
  0
VERTEX
  8
T33SSILL
 62
13
 10
3673.657
 20
-4629.275
 30
1883.732
 70
    32
  0
VERTEX
  8
T33SSILL
 62
13
 10
3596.270
 20
-4685.244
 30
1883.719
 70
    32
  0
VERTEX
  8
T33SSILL
 62
13
 10
3587.626
 20
-4684.058
 30
1883.721
 70
    32
  0
VERTEX
  8
T33SSILL
 62
13
 10
3585.524
 20
-4680.254
 30
1883.722
 70
    32
  0
VERTEX
  8
T33SSILL
 62
13
 10
3565.697
 20
-4673.105
 30
1883.774
 70
    32
  0
VERTEX
  8
T33SSILL
 62
13
 10
3562.130
 20
-4674.357
 30
1883.782
 70
    32
  0
VERTEX
  8
T33SSILL
 62
13
 10
3551.926
 20
-4661.486
 30
1883.807
 70
    32
  0
VERTEX
  8
T33SSILL
 62
13
 10
3616.702
 20
-4615.343
 30
1883.742
 70
    32
  0
VERTEX
  8
T33SSILL
 62
13
 10
3604.554
 20
-4588.105
 30
1883.753
 70
    32
  0
VERTEX
  8
T33SSILL
 62
13
 10
3603.884
 20
-4579.894
 30
1883.756
 70
    32
  0
VERTEX
  8
T33SSILL
 62
13
 10
3596.476
 20
-4578.625
 30
1883.775
 70
    32
  0
VERTEX
  8
T33SSILL
 62
13
 10
3585.074
 20
-4582.282
 30
1883.799
 70
    32
  0
VERTEX
  8
T33SSILL
 62
13
 10
3572.981
 20
-4602.440
 30
1883.812
 70
    32
  0
VERTEX
  8
T33SSILL
 62
13
 10
3572.963
 20
-4606.589
 30
1883.808
 70
    32
  0
VERTEX
  8
T33SSILL
 62
13
 10
3569.495
 20
-4612.487
 30
1883.812
 70
    32
  0
VERTEX
  8
T33SSILL
 62
13
 10
3568.682
 20
-4616.720
 30
1883.811
 70
    32
  0
VERTEX
  8
T33SSILL
 62
13
 10
3570.075
 20
-4621.051
 30
1883.804
 70
    32
  0
VERTEX
  8
T33SSILL
 62
13
 10
3583.361
 20
-4630.288
 30
1883.766
 70
    32
  0
VERTEX
  8
T33SSILL
 62
13
 10
3512.796
 20
-4681.024
 30
1883.758
 70
    32
  0
VERTEX
  8
T33SSILL
 62
13
 10
3509.006
 20
-4675.754
 30
1883.759
 70
    32
  0
VERTEX
  8
T33SSILL
 62
13
 10
3504.135
 20
-4679.256
 30
1883.752
 70
    32
  0
VERTEX
  8
T33SSILL
 62
13
 10
3497.235
 20
-4669.737
 30
1883.754
 70
    32
  0
VERTEX
  8
T33SSILL
 62
13
 10
3534.052
 20
-4643.840
 30
1883.806
 70
    32
  0
VERTEX
  8
T33SSILL
 62
13
 10
3519.241
 20
-4620.032
 30
1883.813
 70
    32
  0
VERTEX
  8
T33SSILL
 62
13
 10
3621.141
 20
-4549.343
 30
1883.765
 70
    32
  0
VERTEX
  8
T33SSILL
 62
13
 10
3624.775
 20
-4546.093
 30
1883.765
 70
    32
  0
VERTEX
  8
T33SSILL
 62
13
 10
3629.952
 20
-4532.789
 30
1883.770
 70
    32
  0
VERTEX
  8
T33SSILL
 62
13
 10
3680.572
 20
-4602.297
 30
1883.740
 70
    32
  0
VERTEX
  8
T33SSILL
 62
13
 10
3682.402
 20
-4607.601
 30
1883.738
 70
    32
  0
VERTEX
  8
T33SSILL
 62
13
 10
3682.003
 20
-4618.102
 30
1883.735
 70
    32
  0
SEQEND
  8
T33SSILL
  0
POLYLINE
  8
T33SSILL
 62
13
 66
     1
 70
     9
  0
VERTEX
  8
T33SSILL
 62
13
 10
3442.307
 20
-4831.133
 30
1883.637
 70
    32
  0
VERTEX
  8
T33SSILL
 62
13
 10
3429.799
 20
-4824.247
 30
1883.630
 70
    32
  0
VERTEX
  8
T33SSILL
 62
13
 10
3429.811
 20
-4812.437
 30
1883.623
 70
    32
  0
VERTEX
  8
T33SSILL
 62
13
 10
3483.480
 20
-4772.385
 30
1883.660
 70
    32
  0
VERTEX
  8
T33SSILL
 62
13
 10
3498.777
 20
-4762.315
 30
1883.681
 70
    32
  0
VERTEX
  8
T33SSILL
 62
13
 10
3574.036
 20
-4866.947
 30
1883.680
 70
    32
  0
VERTEX
  8
T33SSILL
 62
13
 10
3575.665
 20
-4877.092
 30
1883.684
 70
    32
  0
VERTEX
  8
T33SSILL
 62
13
 10
3569.523
 20
-4890.201
 30
1883.687
 70
    32
  0
VERTEX
  8
T33SSILL
 62
13
 10
3518.051
 20
-4926.467
 30
1883.675
 70
    32
  0
VERTEX
  8
T33SSILL
 62
13
 10
3510.956
 20
-4916.209
 30
1883.648
 70
    32
  0
VERTEX
  8
T33SSILL
 62
13
 10
3505.206
 20
-4920.503
 30
1883.640
 70
    32
  0
VERTEX
  8
T33SSILL
 62
13
 10
3511.555
 20
-4930.693
 30
1883.664
 70
    32
  0
VERTEX
  8
T33SSILL
 62
13
 10
3494.900
 20
-4943.196
 30
1883.640
 70
    32
  0
VERTEX
  8
T33SSILL
 62
13
 10
3485.733
 20
-4944.597
 30
1883.620
 70
    32
  0
VERTEX
  8
T33SSILL
 62
13
 10
3442.391
 20
-4926.753
 30
1883.576
 70
    32
  0
VERTEX
  8
T33SSILL
 62
13
 10
3485.427
 20
-4896.743
 30
1883.607
 70
    32
  0
VERTEX
  8
T33SSILL
 62
13
 10
3480.673
 20
-4891.362
 30
1883.612
 70
    32
  0
VERTEX
  8
T33SSILL
 62
13
 10
3434.814
 20
-4924.014
 30
1883.578
 70
    32
  0
VERTEX
  8
T33SSILL
 62
13
 10
3388.830
 20
-4904.052
 30
1883.596
 70
    32
  0
VERTEX
  8
T33SSILL
 62
13
 10
3440.245
 20
-4867.528
 30
1883.634
 70
    32
  0
VERTEX
  8
T33SSILL
 62
13
 10
3443.768
 20
-4869.118
 30
1883.633
 70
    32
  0
VERTEX
  8
T33SSILL
 62
13
 10
3447.118
 20
-4867.887
 30
1883.634
 70
    32
  0
VERTEX
  8
T33SSILL
 62
13
 10
3457.348
 20
-4861.023
 30
1883.641
 70
    32
  0
VERTEX
  8
T33SSILL
 62
13
 10
3458.672
 20
-4858.909
 30
1883.643
 70
    32
  0
VERTEX
  8
T33SSILL
 62
13
 10
3456.737
 20
-4855.206
 30
1883.647
 70
    32
  0
VERTEX
  8
T33SSILL
 62
13
 10
3469.171
 20
-4846.934
 30
1883.653
 70
    32
  0
VERTEX
  8
T33SSILL
 62
13
 10
3472.421
 20
-4858.306
 30
1883.645
 70
    32
  0
VERTEX
  8
T33SSILL
 62
13
 10
3470.562
 20
-4866.324
 30
1883.637
 70
    32
  0
VERTEX
  8
T33SSILL
 62
13
 10
3475.658
 20
-4882.192
 30
1883.621
 70
    32
  0
VERTEX
  8
T33SSILL
 62
13
 10
3481.915
 20
-4882.374
 30
1883.621
 70
    32
  0
VERTEX
  8
T33SSILL
 62
13
 10
3482.385
 20
-4852.499
 30
1883.651
 70
    32
  0
VERTEX
  8
T33SSILL
 62
13
 10
3488.653
 20
-4841.136
 30
1883.655
 70
    32
  0
VERTEX
  8
T33SSILL
 62
13
 10
3486.109
 20
-4829.589
 30
1883.648
 70
    32
  0
VERTEX
  8
T33SSILL
 62
13
 10
3469.900
 20
-4822.611
 30
1883.639
 70
    32
  0
VERTEX
  8
T33SSILL
 62
13
 10
3464.796
 20
-4814.146
 30
1883.633
 70
    32
  0
VERTEX
  8
T33SSILL
 62
13
 10
3458.368
 20
-4808.676
 30
1883.629
 70
    32
  0
VERTEX
  8
T33SSILL
 62
13
 10
3449.817
 20
-4811.928
 30
1883.628
 70
    32
  0
VERTEX
  8
T33SSILL
 62
13
 10
3457.032
 20
-4823.216
 30
1883.636
 70
    32
  0
VERTEX
  8
T33SSILL
 62
13
 10
3456.059
 20
-4827.004
 30
1883.638
 70
    32
  0
VERTEX
  8
T33SSILL
 62
13
 10
3465.300
 20
-4840.056
 30
1883.648
 70
    32
  0
VERTEX
  8
T33SSILL
 62
13
 10
3449.426
 20
-4851.498
 30
1883.650
 70
    32
  0
VERTEX
  8
T33SSILL
 62
13
 10
3438.775
 20
-4837.915
 30
1883.640
 70
    32
  0
VERTEX
  8
T33SSILL
 62
13
 10
3443.450
 20
-4833.954
 30
1883.639
 70
    32
  0
SEQEND
  8
T33SSILL
  0
POLYLINE
  8
T33SSILL
 62
13
 66
     1
 70
     9
  0
VERTEX
  8
T33SSILL
 62
13
 10
3558.265
 20
-4727.406
 30
1883.750
 70
    32
  0
VERTEX
  8
T33SSILL
 62
13
 10
3569.305
 20
-4742.531
 30
1883.713
 70
    32
  0
VERTEX
  8
T33SSILL
 62
13
 10
3581.570
 20
-4732.774
 30
1883.704
 70
    32
  0
VERTEX
  8
T33SSILL
 62
13
 10
3592.059
 20
-4740.606
 30
1883.700
 70
    32
  0
VERTEX
  8
T33SSILL
 62
13
 10
3596.619
 20
-4746.181
 30
1883.698
 70
    32
  0
VERTEX
  8
T33SSILL
 62
13
 10
3530.110
 20
-4793.400
 30
1883.682
 70
    32
  0
VERTEX
  8
T33SSILL
 62
13
 10
3505.932
 20
-4759.173
 30
1883.689
 70
    32
  0
VERTEX
  8
T33SSILL
 62
13
 10
3541.131
 20
-4734.382
 30
1883.739
 70
    32
  0
VERTEX
  8
T33SSILL
 62
13
 10
3545.830
 20
-4728.408
 30
1883.748
 70
    32
  0
VERTEX
  8
T33SSILL
 62
13
 10
3552.283
 20
-4724.558
 30
1883.756
 70
    32
  0
VERTEX
  8
T33SSILL
 62
13
 10
3555.484
 20
-4726.082
 30
1883.758
 70
    32
  0
SEQEND
  8
T33SSILL
  0
POLYLINE
  8
T33SSILL
 62
13
 66
     1
 70
     9
  0
VERTEX
  8
T33SSILL
 62
13
 10
3723.766
 20
-4780.870
 30
1883.681
 70
    32
  0
VERTEX
  8
T33SSILL
 62
13
 10
3677.683
 20
-4716.571
 30
1883.701
 70
    32
  0
VERTEX
  8
T33SSILL
 62
13
 10
3661.278
 20
-4718.172
 30
1883.702
 70
    32
  0
VERTEX
  8
T33SSILL
 62
13
 10
3656.649
 20
-4708.454
 30
1883.705
 70
    32
  0
VERTEX
  8
T33SSILL
 62
13
 10
3645.419
 20
-4696.325
 30
1883.711
 70
    32
  0
VERTEX
  8
T33SSILL
 62
13
 10
3646.689
 20
-4688.308
 30
1883.713
 70
    32
  0
VERTEX
  8
T33SSILL
 62
13
 10
3625.727
 20
-4703.466
 30
1883.710
 70
    32
  0
VERTEX
  8
T33SSILL
 62
13
 10
3604.841
 20
-4701.785
 30
1883.713
 70
    32
  0
VERTEX
  8
T33SSILL
 62
13
 10
3598.199
 20
-4708.455
 30
1883.711
 70
    32
  0
VERTEX
  8
T33SSILL
 62
13
 10
3583.151
 20
-4702.393
 30
1883.715
 70
    32
  0
VERTEX
  8
T33SSILL
 62
13
 10
3578.288
 20
-4705.456
 30
1883.720
 70
    32
  0
VERTEX
  8
T33SSILL
 62
13
 10
3579.847
 20
-4711.723
 30
1883.712
 70
    32
  0
VERTEX
  8
T33SSILL
 62
13
 10
3586.045
 20
-4723.340
 30
1883.707
 70
    32
  0
VERTEX
  8
T33SSILL
 62
13
 10
3599.974
 20
-4725.390
 30
1883.705
 70
    32
  0
VERTEX
  8
T33SSILL
 62
13
 10
3611.125
 20
-4735.490
 30
1883.700
 70
    32
  0
VERTEX
  8
T33SSILL
 62
13
 10
3625.188
 20
-4725.327
 30
1883.703
 70
    32
  0
VERTEX
  8
T33SSILL
 62
13
 10
3629.567
 20
-4731.694
 30
1883.700
 70
    32
  0
VERTEX
  8
T33SSILL
 62
13
 10
3622.668
 20
-4736.865
 30
1883.699
 70
    32
  0
VERTEX
  8
T33SSILL
 62
13
 10
3635.061
 20
-4745.119
 30
1883.695
 70
    32
  0
VERTEX
  8
T33SSILL
 62
13
 10
3642.244
 20
-4755.466
 30
1883.690
 70
    32
  0
VERTEX
  8
T33SSILL
 62
13
 10
3649.469
 20
-4756.380
 30
1883.689
 70
    32
  0
VERTEX
  8
T33SSILL
 62
13
 10
3654.145
 20
-4755.608
 30
1883.689
 70
    32
  0
VERTEX
  8
T33SSILL
 62
13
 10
3660.534
 20
-4766.040
 30
1883.685
 70
    32
  0
VERTEX
  8
T33SSILL
 62
13
 10
3641.170
 20
-4778.648
 30
1883.682
 70
    32
  0
VERTEX
  8
T33SSILL
 62
13
 10
3635.565
 20
-4770.335
 30
1883.686
 70
    32
  0
VERTEX
  8
T33SSILL
 62
13
 10
3620.321
 20
-4768.592
 30
1883.688
 70
    32
  0
VERTEX
  8
T33SSILL
 62
13
 10
3605.512
 20
-4748.601
 30
1883.696
 70
    32
  0
VERTEX
  8
T33SSILL
 62
13
 10
3542.719
 20
-4793.016
 30
1883.693
 70
    32
  0
VERTEX
  8
T33SSILL
 62
13
 10
3538.639
 20
-4798.463
 30
1883.685
 70
    32
  0
VERTEX
  8
T33SSILL
 62
13
 10
3537.822
 20
-4803.661
 30
1883.680
 70
    32
  0
VERTEX
  8
T33SSILL
 62
13
 10
3545.090
 20
-4814.626
 30
1883.678
 70
    32
  0
VERTEX
  8
T33SSILL
 62
13
 10
3554.907
 20
-4807.705
 30
1883.692
 70
    32
  0
VERTEX
  8
T33SSILL
 62
13
 10
3558.495
 20
-4813.452
 30
1883.684
 70
    32
  0
VERTEX
  8
T33SSILL
 62
13
 10
3549.387
 20
-4819.582
 30
1883.677
 70
    32
  0
VERTEX
  8
T33SSILL
 62
13
 10
3589.245
 20
-4876.448
 30
1883.685
 70
    32
  0
VERTEX
  8
T33SSILL
 62
13
 10
3687.155
 20
-4805.831
 30
1883.677
 70
    32
  0
SEQEND
  8
T33SSILL
  0
POLYLINE
  8
T33SSILL
 62
13
 66
     1
 70
     9
  0
VERTEX
  8
T33SSILL
 62
13
 10
3413.158
 20
-4605.189
 30
1883.736
 70
    32
  0
VERTEX
  8
T33SSILL
 62
13
 10
3420.270
 20
-4615.142
 30
1883.734
 70
    32
  0
VERTEX
  8
T33SSILL
 62
13
 10
3435.032
 20
-4604.841
 30
1883.754
 70
    32
  0
VERTEX
  8
T33SSILL
 62
13
 10
3437.694
 20
-4608.566
 30
1883.754
 70
    32
  0
VERTEX
  8
T33SSILL
 62
13
 10
3457.232
 20
-4594.593
 30
1883.781
 70
    32
  0
VERTEX
  8
T33SSILL
 62
13
 10
3447.631
 20
-4581.003
 30
1883.784
 70
    32
  0
VERTEX
  8
T33SSILL
 62
13
 10
3433.756
 20
-4590.970
 30
1883.764
 70
    32
  0
VERTEX
  8
T33SSILL
 62
13
 10
3416.194
 20
-4570.327
 30
1883.766
 70
    32
  0
VERTEX
  8
T33SSILL
 62
13
 10
3407.428
 20
-4576.732
 30
1883.754
 70
    32
  0
VERTEX
  8
T33SSILL
 62
13
 10
3416.321
 20
-4601.572
 30
1883.741
 70
    32
  0
VERTEX
  8
T33SSILL
 62
13
 10
3414.987
 20
-4603.861
 30
1883.738
 70
    32
  0
SEQEND
  8
T33SSILL
  0
POLYLINE
  8
T33SSILL
 62
13
 66
     1
 70
     9
  0
VERTEX
  8
T33SSILL
 62
13
 10
3437.499
 20
-4791.030
 30
1883.613
 70
    32
  0
VERTEX
  8
T33SSILL
 62
13
 10
3439.788
 20
-4793.588
 30
1883.615
 70
    32
  0
VERTEX
  8
T33SSILL
 62
13
 10
3443.753
 20
-4794.296
 30
1883.617
 70
    32
  0
VERTEX
  8
T33SSILL
 62
13
 10
3485.821
 20
-4762.434
 30
1883.670
 70
    32
  0
VERTEX
  8
T33SSILL
 62
13
 10
3483.803
 20
-4753.620
 30
1883.675
 70
    32
  0
VERTEX
  8
T33SSILL
 62
13
 10
3479.491
 20
-4747.094
 30
1883.677
 70
    32
  0
VERTEX
  8
T33SSILL
 62
13
 10
3485.840
 20
-4742.958
 30
1883.686
 70
    32
  0
VERTEX
  8
T33SSILL
 62
13
 10
3456.180
 20
-4701.861
 30
1883.694
 70
    32
  0
VERTEX
  8
T33SSILL
 62
13
 10
3417.115
 20
-4727.116
 30
1883.641
 70
    32
  0
VERTEX
  8
T33SSILL
 62
13
 10
3412.707
 20
-4728.963
 30
1883.635
 70
    32
  0
VERTEX
  8
T33SSILL
 62
13
 10
3405.479
 20
-4729.484
 30
1883.629
 70
    32
  0
VERTEX
  8
T33SSILL
 62
13
 10
3405.311
 20
-4721.465
 30
1883.635
 70
    32
  0
VERTEX
  8
T33SSILL
 62
13
 10
3403.992
 20
-4718.731
 30
1883.636
 70
    32
  0
VERTEX
  8
T33SSILL
 62
13
 10
3405.510
 20
-4698.287
 30
1883.654
 70
    32
  0
VERTEX
  8
T33SSILL
 62
13
 10
3396.533
 20
-4685.411
 30
1883.657
 70
    32
  0
VERTEX
  8
T33SSILL
 62
13
 10
3393.363
 20
-4682.941
 30
1883.656
 70
    32
  0
VERTEX
  8
T33SSILL
 62
13
 10
3388.251
 20
-4683.112
 30
1883.652
 70
    32
  0
VERTEX
  8
T33SSILL
 62
13
 10
3375.110
 20
-4693.058
 30
1883.633
 70
    32
  0
VERTEX
  8
T33SSILL
 62
13
 10
3375.987
 20
-4698.258
 30
1883.629
 70
    32
  0
VERTEX
  8
T33SSILL
 62
13
 10
3389.267
 20
-4726.296
 30
1883.618
 70
    32
  0
VERTEX
  8
T33SSILL
 62
13
 10
3396.580
 20
-4728.330
 30
1883.622
 70
    32
  0
VERTEX
  8
T33SSILL
 62
13
 10
3400.805
 20
-4733.093
 30
1883.622
 70
    32
  0
VERTEX
  8
T33SSILL
 62
13
 10
3398.553
 20
-4741.415
 30
1883.613
 70
    32
  0
VERTEX
  8
T33SSILL
 62
13
 10
3416.701
 20
-4728.669
 30
1883.639
 70
    32
  0
VERTEX
  8
T33SSILL
 62
13
 10
3437.392
 20
-4758.129
 30
1883.633
 70
    32
  0
VERTEX
  8
T33SSILL
 62
13
 10
3422.662
 20
-4768.475
 30
1883.612
 70
    32
  0
VERTEX
  8
T33SSILL
 62
13
 10
3426.110
 20
-4773.385
 30
1883.611
 70
    32
  0
SEQEND
  8
T33SSILL
  0
POLYLINE
  8
T33SSILL
 62
13
 66
     1
 70
     9
  0
VERTEX
  8
T33SSILL
 62
13
 10
3356.961
 20
-4869.298
 30
1883.628
 70
    32
  0
VERTEX
  8
T33SSILL
 62
13
 10
3359.340
 20
-4870.094
 30
1883.628
 70
    32
  0
VERTEX
  8
T33SSILL
 62
13
 10
3361.985
 20
-4869.127
 30
1883.629
 70
    32
  0
VERTEX
  8
T33SSILL
 62
13
 10
3363.492
 20
-4859.875
 30
1883.632
 70
    32
  0
VERTEX
  8
T33SSILL
 62
13
 10
3370.459
 20
-4854.329
 30
1883.631
 70
    32
  0
VERTEX
  8
T33SSILL
 62
13
 10
3375.039
 20
-4857.242
 30
1883.634
 70
    32
  0
VERTEX
  8
T33SSILL
 62
13
 10
3382.256
 20
-4867.296
 30
1883.632
 70
    32
  0
VERTEX
  8
T33SSILL
 62
13
 10
3388.165
 20
-4862.807
 30
1883.636
 70
    32
  0
VERTEX
  8
T33SSILL
 62
13
 10
3395.126
 20
-4863.607
 30
1883.636
 70
    32
  0
VERTEX
  8
T33SSILL
 62
13
 10
3399.008
 20
-4859.204
 30
1883.640
 70
    32
  0
VERTEX
  8
T33SSILL
 62
13
 10
3396.998
 20
-4842.634
 30
1883.632
 70
    32
  0
VERTEX
  8
T33SSILL
 62
13
 10
3400.180
 20
-4832.502
 30
1883.627
 70
    32
  0
VERTEX
  8
T33SSILL
 62
13
 10
3409.968
 20
-4826.343
 30
1883.626
 70
    32
  0
VERTEX
  8
T33SSILL
 62
13
 10
3415.517
 20
-4829.521
 30
1883.629
 70
    32
  0
VERTEX
  8
T33SSILL
 62
13
 10
3428.281
 20
-4844.779
 30
1883.641
 70
    32
  0
VERTEX
  8
T33SSILL
 62
13
 10
3429.251
 20
-4844.428
 30
1883.641
 70
    32
  0
VERTEX
  8
T33SSILL
 62
13
 10
3435.059
 20
-4853.070
 30
1883.647
 70
    32
  0
VERTEX
  8
T33SSILL
 62
13
 10
3437.697
 20
-4859.594
 30
1883.642
 70
    32
  0
VERTEX
  8
T33SSILL
 62
13
 10
3381.078
 20
-4901.048
 30
1883.598
 70
    32
  0
VERTEX
  8
T33SSILL
 62
13
 10
3362.315
 20
-4892.217
 30
1883.606
 70
    32
  0
VERTEX
  8
T33SSILL
 62
13
 10
3359.585
 20
-4889.747
 30
1883.608
 70
    32
  0
VERTEX
  8
T33SSILL
 62
13
 10
3346.735
 20
-4872.197
 30
1883.625
 70
    32
  0
VERTEX
  8
T33SSILL
 62
13
 10
3354.231
 20
-4867.180
 30
1883.630
 70
    32
  0
SEQEND
  8
T33SSILL
  0
POLYLINE
  8
T33SSILL
 62
13
 66
     1
 70
     9
  0
VERTEX
  8
T33SSILL
 62
13
 10
3374.449
 20
-4744.613
 30
1883.591
 70
    32
  0
VERTEX
  8
T33SSILL
 62
13
 10
3370.703
 20
-4738.706
 30
1883.592
 70
    32
  0
VERTEX
  8
T33SSILL
 62
13
 10
3382.747
 20
-4729.580
 30
1883.610
 70
    32
  0
VERTEX
  8
T33SSILL
 62
13
 10
3379.344
 20
-4720.650
 30
1883.614
 70
    32
  0
VERTEX
  8
T33SSILL
 62
13
 10
3367.437
 20
-4698.709
 30
1883.622
 70
    32
  0
VERTEX
  8
T33SSILL
 62
13
 10
3357.431
 20
-4706.079
 30
1883.607
 70
    32
  0
VERTEX
  8
T33SSILL
 62
13
 10
3350.247
 20
-4714.079
 30
1883.595
 70
    32
  0
VERTEX
  8
T33SSILL
 62
13
 10
3356.691
 20
-4733.789
 30
1883.584
 70
    32
  0
VERTEX
  8
T33SSILL
 62
13
 10
3352.522
 20
-4738.537
 30
1883.577
 70
    32
  0
VERTEX
  8
T33SSILL
 62
13
 10
3348.830
 20
-4735.167
 30
1883.577
 70
    32
  0
VERTEX
  8
T33SSILL
 62
13
 10
3345.040
 20
-4734.003
 30
1883.574
 70
    32
  0
VERTEX
  8
T33SSILL
 62
13
 10
3335.820
 20
-4723.194
 30
1883.575
 70
    32
  0
VERTEX
  8
T33SSILL
 62
13
 10
3294.744
 20
-4750.904
 30
1883.553
 70
    32
  0
VERTEX
  8
T33SSILL
 62
13
 10
3287.498
 20
-4752.902
 30
1883.552
 70
    32
  0
VERTEX
  8
T33SSILL
 62
13
 10
3284.310
 20
-4755.359
 30
1883.553
 70
    32
  0
VERTEX
  8
T33SSILL
 62
13
 10
3282.969
 20
-4759.236
 30
1883.555
 70
    32
  0
VERTEX
  8
T33SSILL
 62
13
 10
3313.669
 20
-4802.620
 30
1883.587
 70
    32
  0
VERTEX
  8
T33SSILL
 62
13
 10
3320.751
 20
-4817.920
 30
1883.598
 70
    32
  0
VERTEX
  8
T33SSILL
 62
13
 10
3391.952
 20
-4766.507
 30
1883.588
 70
    32
  0
VERTEX
  8
T33SSILL
 62
13
 10
3389.228
 20
-4762.629
 30
1883.589
 70
    32
  0
VERTEX
  8
T33SSILL
 62
13
 10
3394.138
 20
-4759.180
 30
1883.595
 70
    32
  0
VERTEX
  8
T33SSILL
 62
13
 10
3387.241
 20
-4749.360
 30
1883.598
 70
    32
  0
VERTEX
  8
T33SSILL
 62
13
 10
3389.563
 20
-4747.729
 30
1883.601
 70
    32
  0
VERTEX
  8
T33SSILL
 62
13
 10
3386.046
 20
-4742.039
 30
1883.602
 70
    32
  0
VERTEX
  8
T33SSILL
 62
13
 10
3385.361
 20
-4737.182
 30
1883.606
 70
    32
  0
SEQEND
  8
T33SSILL
  0
POLYLINE
  8
T33SSILL
 62
13
 66
     1
 70
     9
  0
VERTEX
  8
T33SSILL
 62
13
 10
3347.026
 20
-4844.701
 30
1883.620
 70
    32
  0
VERTEX
  8
T33SSILL
 62
13
 10
3352.142
 20
-4840.475
 30
1883.619
 70
    32
  0
VERTEX
  8
T33SSILL
 62
13
 10
3356.122
 20
-4825.497
 30
1883.611
 70
    32
  0
VERTEX
  8
T33SSILL
 62
13
 10
3357.621
 20
-4825.411
 30
1883.611
 70
    32
  0
VERTEX
  8
T33SSILL
 62
13
 10
3360.093
 20
-4820.654
 30
1883.609
 70
    32
  0
VERTEX
  8
T33SSILL
 62
13
 10
3368.209
 20
-4812.554
 30
1883.607
 70
    32
  0
VERTEX
  8
T33SSILL
 62
13
 10
3358.968
 20
-4799.590
 30
1883.597
 70
    32
  0
VERTEX
  8
T33SSILL
 62
13
 10
3349.934
 20
-4805.878
 30
1883.599
 70
    32
  0
VERTEX
  8
T33SSILL
 62
13
 10
3352.933
 20
-4810.040
 30
1883.602
 70
    32
  0
VERTEX
  8
T33SSILL
 62
13
 10
3343.196
 20
-4817.054
 30
1883.603
 70
    32
  0
VERTEX
  8
T33SSILL
 62
13
 10
3340.084
 20
-4812.734
 30
1883.600
 70
    32
  0
VERTEX
  8
T33SSILL
 62
13
 10
3323.692
 20
-4824.144
 30
1883.602
 70
    32
  0
VERTEX
  8
T33SSILL
 62
13
 10
3342.600
 20
-4865.230
 30
1883.630
 70
    32
  0
VERTEX
  8
T33SSILL
 62
13
 10
3349.919
 20
-4860.655
 30
1883.629
 70
    32
  0
SEQEND
  8
T33SSILL
  0
POLYLINE
  8
T33SSILL
 62
13
 66
     1
 70
     9
  0
VERTEX
  8
T33SSILL
 62
13
 10
3381.340
 20
-4812.038
 30
1883.610
 70
    32
  0
VERTEX
  8
T33SSILL
 62
13
 10
3389.345
 20
-4827.028
 30
1883.621
 70
    32
  0
VERTEX
  8
T33SSILL
 62
13
 10
3395.691
 20
-4827.210
 30
1883.623
 70
    32
  0
VERTEX
  8
T33SSILL
 62
13
 10
3407.156
 20
-4818.761
 30
1883.621
 70
    32
  0
VERTEX
  8
T33SSILL
 62
13
 10
3401.610
 20
-4811.881
 30
1883.615
 70
    32
  0
VERTEX
  8
T33SSILL
 62
13
 10
3402.426
 20
-4788.880
 30
1883.603
 70
    32
  0
VERTEX
  8
T33SSILL
 62
13
 10
3392.392
 20
-4775.211
 30
1883.592
 70
    32
  0
VERTEX
  8
T33SSILL
 62
13
 10
3364.700
 20
-4795.542
 30
1883.597
 70
    32
  0
VERTEX
  8
T33SSILL
 62
13
 10
3374.999
 20
-4807.978
 30
1883.606
 70
    32
  0
SEQEND
  8
T33SSILL
  0
POLYLINE
  8
T33SSILL
 62
13
 66
     1
 70
     9
  0
VERTEX
  8
T33SSILL
 62
13
 10
3366.671
 20
-4652.368
 30
1883.658
 70
    32
  0
VERTEX
  8
T33SSILL
 62
13
 10
3373.486
 20
-4647.985
 30
1883.668
 70
    32
  0
VERTEX
  8
T33SSILL
 62
13
 10
3376.563
 20
-4652.287
 30
1883.667
 70
    32
  0
VERTEX
  8
T33SSILL
 62
13
 10
3379.131
 20
-4650.451
 30
1883.670
 70
    32
  0
VERTEX
  8
T33SSILL
 62
13
 10
3372.575
 20
-4641.277
 30
1883.672
 70
    32
  0
VERTEX
  8
T33SSILL
 62
13
 10
3382.540
 20
-4634.582
 30
1883.686
 70
    32
  0
VERTEX
  8
T33SSILL
 62
13
 10
3385.825
 20
-4639.179
 30
1883.685
 70
    32
  0
VERTEX
  8
T33SSILL
 62
13
 10
3400.587
 20
-4628.878
 30
1883.706
 70
    32
  0
VERTEX
  8
T33SSILL
 62
13
 10
3393.734
 20
-4619.287
 30
1883.708
 70
    32
  0
VERTEX
  8
T33SSILL
 62
13
 10
3361.683
 20
-4642.549
 30
1883.662
 70
    32
  0
VERTEX
  8
T33SSILL
 62
13
 10
3359.302
 20
-4642.098
 30
1883.661
 70
    32
  0
VERTEX
  8
T33SSILL
 62
13
 10
3346.595
 20
-4621.565
 30
1883.666
 70
    32
  0
VERTEX
  8
T33SSILL
 62
13
 10
3328.885
 20
-4634.549
 30
1883.641
 70
    32
  0
VERTEX
  8
T33SSILL
 62
13
 10
3331.050
 20
-4644.003
 30
1883.635
 70
    32
  0
VERTEX
  8
T33SSILL
 62
13
 10
3336.806
 20
-4659.739
 30
1883.627
 70
    32
  0
VERTEX
  8
T33SSILL
 62
13
 10
3334.679
 20
-4661.759
 30
1883.624
 70
    32
  0
VERTEX
  8
T33SSILL
 62
13
 10
3338.782
 20
-4671.928
 30
1883.619
 70
    32
  0
VERTEX
  8
T33SSILL
 62
13
 10
3342.291
 20
-4676.797
 30
1883.618
 70
    32
  0
VERTEX
  8
T33SSILL
 62
13
 10
3369.370
 20
-4657.431
 30
1883.657
 70
    32
  0
SEQEND
  8
T33SSILL
  0
POLYLINE
  8
T33SSILL
 62
13
 66
     1
 70
     9
  0
VERTEX
  8
T33SSILL
 62
13
 10
3344.558
 20
-4703.109
 30
1883.599
 70
    32
  0
VERTEX
  8
T33SSILL
 62
13
 10
3347.303
 20
-4701.180
 30
1883.603
 70
    32
  0
VERTEX
  8
T33SSILL
 62
13
 10
3353.753
 20
-4699.619
 30
1883.610
 70
    32
  0
VERTEX
  8
T33SSILL
 62
13
 10
3393.966
 20
-4671.212
 30
1883.666
 70
    32
  0
VERTEX
  8
T33SSILL
 62
13
 10
3390.288
 20
-4666.064
 30
1883.667
 70
    32
  0
VERTEX
  8
T33SSILL
 62
13
 10
3385.406
 20
-4669.553
 30
1883.660
 70
    32
  0
VERTEX
  8
T33SSILL
 62
13
 10
3381.918
 20
-4664.671
 30
1883.661
 70
    32
  0
VERTEX
  8
T33SSILL
 62
13
 10
3377.036
 20
-4668.159
 30
1883.654
 70
    32
  0
VERTEX
  8
T33SSILL
 62
13
 10
3373.718
 20
-4663.515
 30
1883.655
 70
    32
  0
VERTEX
  8
T33SSILL
 62
13
 10
3342.162
 20
-4686.064
 30
1883.611
 70
    32
  0
VERTEX
  8
T33SSILL
 62
13
 10
3340.615
 20
-4696.561
 30
1883.601
 70
    32
  0
VERTEX
  8
T33SSILL
 62
13
 10
3341.750
 20
-4699.478
 30
1883.600
 70
    32
  0
SEQEND
  8
T33SSILL
  0
POLYLINE
  8
T33SSILL
 62
13
 66
     1
 70
     9
  0
VERTEX
  8
T33SSILL
 62
13
 10
3544.625
 20
-4687.929
 30
1883.779
 70
    32
  0
VERTEX
  8
T33SSILL
 62
13
 10
3551.902
 20
-4698.993
 30
1883.777
 70
    32
  0
VERTEX
  8
T33SSILL
 62
13
 10
3552.671
 20
-4704.734
 30
1883.773
 70
    32
  0
VERTEX
  8
T33SSILL
 62
13
 10
3544.924
 20
-4720.322
 30
1883.754
 70
    32
  0
VERTEX
  8
T33SSILL
 62
13
 10
3535.880
 20
-4729.638
 30
1883.738
 70
    32
  0
VERTEX
  8
T33SSILL
 62
13
 10
3502.234
 20
-4753.761
 30
1883.691
 70
    32
  0
VERTEX
  8
T33SSILL
 62
13
 10
3475.216
 20
-4716.131
 30
1883.698
 70
    32
  0
VERTEX
  8
T33SSILL
 62
13
 10
3497.212
 20
-4700.462
 30
1883.729
 70
    32
  0
VERTEX
  8
T33SSILL
 62
13
 10
3500.350
 20
-4704.827
 30
1883.729
 70
    32
  0
VERTEX
  8
T33SSILL
 62
13
 10
3510.280
 20
-4698.082
 30
1883.742
 70
    32
  0
VERTEX
  8
T33SSILL
 62
13
 10
3506.986
 20
-4693.499
 30
1883.743
 70
    32
  0
VERTEX
  8
T33SSILL
 62
13
 10
3547.033
 20
-4664.972
 30
1883.800
 70
    32
  0
VERTEX
  8
T33SSILL
 62
13
 10
3550.251
 20
-4669.032
 30
1883.799
 70
    32
  0
VERTEX
  8
T33SSILL
 62
13
 10
3542.531
 20
-4675.153
 30
1883.788
 70
    32
  0
VERTEX
  8
T33SSILL
 62
13
 10
3549.651
 20
-4684.134
 30
1883.787
 70
    32
  0
SEQEND
  8
T33SSILL
  0
POLYLINE
  8
T33SSILL
 62
13
 66
     1
 70
     9
  0
VERTEX
  8
T33SSILL
 62
13
 10
3423.577
 20
-4788.020
 30
1883.608
 70
    32
  0
VERTEX
  8
T33SSILL
 62
13
 10
3421.986
 20
-4793.041
 30
1883.610
 70
    32
  0
VERTEX
  8
T33SSILL
 62
13
 10
3416.344
 20
-4794.534
 30
1883.610
 70
    32
  0
VERTEX
  8
T33SSILL
 62
13
 10
3413.702
 20
-4793.210
 30
1883.608
 70
    32
  0
VERTEX
  8
T33SSILL
 62
13
 10
3408.244
 20
-4785.933
 30
1883.603
 70
    32
  0
VERTEX
  8
T33SSILL
 62
13
 10
3421.235
 20
-4776.809
 30
1883.604
 70
    32
  0
SEQEND
  8
T33SSILL
  0
POLYLINE
  8
T33SSILL
 62
13
 66
     1
 70
     9
  0
VERTEX
  8
T33SSILL
 62
13
 10
3729.514
 20
-4776.841
 30
1883.682
 70
    32
  0
VERTEX
  8
T33SSILL
 62
13
 10
3684.041
 20
-4714.131
 30
1883.701
 70
    32
  0
VERTEX
  8
T33SSILL
 62
13
 10
3688.444
 20
-4695.637
 30
1883.707
 70
    32
  0
VERTEX
  8
T33SSILL
 62
13
 10
3684.898
 20
-4680.369
 30
1883.713
 70
    32
  0
VERTEX
  8
T33SSILL
 62
13
 10
3683.065
 20
-4676.394
 30
1883.714
 70
    32
  0
VERTEX
  8
T33SSILL
 62
13
 10
3678.764
 20
-4672.143
 30
1883.716
 70
    32
  0
VERTEX
  8
T33SSILL
 62
13
 10
3671.896
 20
-4670.261
 30
1883.717
 70
    32
  0
VERTEX
  8
T33SSILL
 62
13
 10
3690.030
 20
-4656.766
 30
1883.720
 70
    32
  0
VERTEX
  8
T33SSILL
 62
13
 10
3690.835
 20
-4654.124
 30
1883.721
 70
    32
  0
VERTEX
  8
T33SSILL
 62
13
 10
3689.260
 20
-4651.472
 30
1883.722
 70
    32
  0
VERTEX
  8
T33SSILL
 62
13
 10
3679.150
 20
-4645.079
 30
1883.726
 70
    32
  0
VERTEX
  8
T33SSILL
 62
13
 10
3679.437
 20
-4640.144
 30
1883.727
 70
    32
  0
VERTEX
  8
T33SSILL
 62
13
 10
3676.721
 20
-4636.341
 30
1883.729
 70
    32
  0
VERTEX
  8
T33SSILL
 62
13
 10
3681.319
 20
-4633.364
 30
1883.729
 70
    32
  0
VERTEX
  8
T33SSILL
 62
13
 10
3687.985
 20
-4621.404
 30
1883.733
 70
    32
  0
VERTEX
  8
T33SSILL
 62
13
 10
3689.240
 20
-4616.649
 30
1883.735
 70
    32
  0
VERTEX
  8
T33SSILL
 62
13
 10
3716.142
 20
-4652.916
 30
1883.719
 70
    32
  0
VERTEX
  8
T33SSILL
 62
13
 10
3704.642
 20
-4661.592
 30
1883.717
 70
    32
  0
VERTEX
  8
T33SSILL
 62
13
 10
3707.794
 20
-4666.631
 30
1883.715
 70
    32
  0
VERTEX
  8
T33SSILL
 62
13
 10
3720.177
 20
-4657.430
 30
1883.717
 70
    32
  0
VERTEX
  8
T33SSILL
 62
13
 10
3767.224
 20
-4723.056
 30
1883.690
 70
    32
  0
VERTEX
  8
T33SSILL
 62
13
 10
3769.497
 20
-4727.475
 30
1883.689
 70
    32
  0
VERTEX
  8
T33SSILL
 62
13
 10
3771.041
 20
-4736.827
 30
1883.688
 70
    32
  0
VERTEX
  8
T33SSILL
 62
13
 10
3769.420
 20
-4744.577
 30
1883.687
 70
    32
  0
VERTEX
  8
T33SSILL
 62
13
 10
3764.716
 20
-4751.521
 30
1883.686
 70
    32
  0
SEQEND
  8
T33SSILL
  0
POLYLINE
  8
T33SSILL
 62
13
 66
     1
 70
     9
  0
VERTEX
  8
T33SSILL
 62
13
 10
3641.116
 20
-4673.032
 30
1883.719
 70
    32
  0
VERTEX
  8
T33SSILL
 62
13
 10
3647.828
 20
-4670.241
 30
1883.720
 70
    32
  0
VERTEX
  8
T33SSILL
 62
13
 10
3653.276
 20
-4674.232
 30
1883.718
 70
    32
  0
VERTEX
  8
T33SSILL
 62
13
 10
3661.142
 20
-4669.860
 30
1883.719
 70
    32
  0
VERTEX
  8
T33SSILL
 62
13
 10
3660.071
 20
-4653.193
 30
1883.725
 70
    32
  0
VERTEX
  8
T33SSILL
 62
13
 10
3661.931
 20
-4651.261
 30
1883.725
 70
    32
  0
VERTEX
  8
T33SSILL
 62
13
 10
3661.768
 20
-4648.440
 30
1883.726
 70
    32
  0
VERTEX
  8
T33SSILL
 62
13
 10
3659.039
 20
-4647.546
 30
1883.727
 70
    32
  0
VERTEX
  8
T33SSILL
 62
13
 10
3633.299
 20
-4666.473
 30
1883.722
 70
    32
  0
VERTEX
  8
T33SSILL
 62
13
 10
3636.262
 20
-4674.156
 30
1883.719
 70
    32
  0
SEQEND
  8
T33SSILL
  0
POLYLINE
  8
T33SSILL
 62
13
 66
     1
 70
     9
  0
VERTEX
  8
T33SSILL
 62
13
 10
3604.971
 20
-4692.441
 30
1883.716
 70
    32
  0
VERTEX
  8
T33SSILL
 62
13
 10
3606.542
 20
-4696.062
 30
1883.715
 70
    32
  0
VERTEX
  8
T33SSILL
 62
13
 10
3615.886
 20
-4696.104
 30
1883.714
 70
    32
  0
VERTEX
  8
T33SSILL
 62
13
 10
3616.810
 20
-4686.852
 30
1883.717
 70
    32
  0
VERTEX
  8
T33SSILL
 62
13
 10
3622.293
 20
-4682.997
 30
1883.718
 70
    32
  0
VERTEX
  8
T33SSILL
 62
13
 10
3625.498
 20
-4675.959
 30
1883.720
 70
    32
  0
VERTEX
  8
T33SSILL
 62
13
 10
3623.040
 20
-4673.567
 30
1883.721
 70
    32
  0
VERTEX
  8
T33SSILL
 62
13
 10
3604.022
 20
-4687.852
 30
1883.718
 70
    32
  0
SEQEND
  8
T33SSILL
  0
POLYLINE
  8
T33SSILL
 62
13
 66
     1
 70
     9
  0
VERTEX
  8
T33SSILL
 62
13
 10
3660.111
 20
-4683.608
 30
1883.714
 70
    32
  0
VERTEX
  8
T33SSILL
 62
13
 10
3667.709
 20
-4679.939
 30
1883.714
 70
    32
  0
VERTEX
  8
T33SSILL
 62
13
 10
3666.594
 20
-4672.970
 30
1883.717
 70
    32
  0
VERTEX
  8
T33SSILL
 62
13
 10
3656.508
 20
-4680.947
 30
1883.715
 70
    32
  0
SEQEND
  8
T33SSILL
  0
POLYLINE
  8
T33SSILL
 62
13
 66
     1
 70
     9
  0
VERTEX
  8
T33SSILL
 62
13
 10
3967.094
 20
-2536.103
 30
1883.048
 70
    32
  0
VERTEX
  8
T33SSILL
 62
13
 10
3978.709
 20
-2526.874
 30
1883.045
 70
    32
  0
VERTEX
  8
T33SSILL
 62
13
 10
3957.722
 20
-2500.615
 30
1883.069
 70
    32
  0
VERTEX
  8
T33SSILL
 62
13
 10
3929.524
 20
-2504.637
 30
1883.085
 70
    32
  0
VERTEX
  8
T33SSILL
 62
13
 10
3940.674
 20
-2579.031
 30
1883.056
 70
    32
  0
VERTEX
  8
T33SSILL
 62
13
 10
3971.444
 20
-2554.603
 30
1883.038
 70
    32
  0
VERTEX
  8
T33SSILL
 62
13
 10
3961.132
 20
-2540.788
 30
1883.050
 70
    32
  0
SEQEND
  8
T33SSILL
  0
POLYLINE
  8
T33SSILL
 62
13
 66
     1
 70
     9
  0
VERTEX
  8
T33SSILL
 62
13
 10
2125.681
 20
-4612.228
 30
1882.972
 70
    32
  0
VERTEX
  8
T33SSILL
 62
13
 10
2119.435
 20
-4612.209
 30
1883.019
 70
    32
  0
VERTEX
  8
T33SSILL
 62
13
 10
2118.459
 20
-4556.068
 30
1883.004
 70
    32
  0
VERTEX
  8
T33SSILL
 62
13
 10
2145.754
 20
-4531.820
 30
1883.027
 70
    32
  0
VERTEX
  8
T33SSILL
 62
13
 10
2173.500
 20
-4531.188
 30
1883.044
 70
    32
  0
VERTEX
  8
T33SSILL
 62
13
 10
2172.368
 20
-4500.718
 30
1883.063
 70
    32
  0
VERTEX
  8
T33SSILL
 62
13
 10
2148.735
 20
-4472.911
 30
1883.086
 70
    32
  0
VERTEX
  8
T33SSILL
 62
13
 10
2140.901
 20
-4468.638
 30
1883.086
 70
    32
  0
VERTEX
  8
T33SSILL
 62
13
 10
2134.020
 20
-4468.252
 30
1883.082
 70
    32
  0
VERTEX
  8
T33SSILL
 62
13
 10
2126.686
 20
-4470.159
 30
1883.082
 70
    32
  0
VERTEX
  8
T33SSILL
 62
13
 10
2017.854
 20
-4549.591
 30
1883.376
 70
    32
  0
VERTEX
  8
T33SSILL
 62
13
 10
2028.550
 20
-4564.379
 30
1883.371
 70
    32
  0
VERTEX
  8
T33SSILL
 62
13
 10
2008.338
 20
-4583.608
 30
1883.410
 70
    32
  0
VERTEX
  8
T33SSILL
 62
13
 10
1985.972
 20
-4573.442
 30
1883.434
 70
    32
  0
VERTEX
  8
T33SSILL
 62
13
 10
1979.056
 20
-4580.380
 30
1883.447
 70
    32
  0
VERTEX
  8
T33SSILL
 62
13
 10
2107.302
 20
-4746.174
 30
1883.372
 70
    32
  0
VERTEX
  8
T33SSILL
 62
13
 10
2173.541
 20
-4689.697
 30
1882.954
 70
    32
  0
VERTEX
  8
T33SSILL
 62
13
 10
2172.533
 20
-4633.361
 30
1882.947
 70
    32
  0
VERTEX
  8
T33SSILL
 62
13
 10
2169.872
 20
-4626.890
 30
1882.949
 70
    32
  0
VERTEX
  8
T33SSILL
 62
13
 10
2166.871
 20
-4625.479
 30
1882.948
 70
    32
  0
VERTEX
  8
T33SSILL
 62
13
 10
2126.301
 20
-4625.769
 30
1882.975
 70
    32
  0
SEQEND
  8
T33SSILL
  0
TEXT
  8
T33SSILL
 62
13
 10
2043.805
 20
-3188.022
 30
1883.727
 40
0.200
  1
3350
 41
 1.0 
  0
ENDSEC
  0
EOF
