999
********************************
999
*   DXF File - Entities Only   *
999
*        3D Data Format        *
999
*     Output from ENVISAGE     *
999
*     20-Dec-2007 15:26:56     *
999
********************************
  0
SECTION 
  2
HEADER
  9
$ACADVER
  1
AC1009
  9
$EXTMIN
 10
-290000.000
 20
-250000.000
 30
-4000.000
  9
$EXTMAX
 10
5000000.000
 20
600000.000
 30
6000.000
  0
ENDSEC
  0
SECTION
  2
ENTITIES
  0
POLYLINE
  8
T35SSILL
 62
8
 66
     1
 70
     9
  0
VERTEX
  8
T35SSILL
 62
8
 10
2889.349
 20
-5923.434
 30
1736.372
 70
    32
  0
VERTEX
  8
T35SSILL
 62
8
 10
2890.839
 20
-5904.631
 30
1736.350
 70
    32
  0
VERTEX
  8
T35SSILL
 62
8
 10
2882.098
 20
-5901.810
 30
1736.337
 70
    32
  0
VERTEX
  8
T35SSILL
 62
8
 10
2873.796
 20
-5893.870
 30
1736.318
 70
    32
  0
VERTEX
  8
T35SSILL
 62
8
 10
2874.220
 20
-5889.605
 30
1736.313
 70
    32
  0
VERTEX
  8
T35SSILL
 62
8
 10
2908.121
 20
-5865.426
 30
1736.316
 70
    32
  0
VERTEX
  8
T35SSILL
 62
8
 10
2914.649
 20
-5857.566
 30
1736.295
 70
    32
  0
VERTEX
  8
T35SSILL
 62
8
 10
2918.506
 20
-5842.761
 30
1736.265
 70
    32
  0
VERTEX
  8
T35SSILL
 62
8
 10
2925.266
 20
-5852.696
 30
1736.276
 70
    32
  0
VERTEX
  8
T35SSILL
 62
8
 10
2919.063
 20
-5856.858
 30
1736.290
 70
    32
  0
VERTEX
  8
T35SSILL
 62
8
 10
2922.773
 20
-5861.623
 30
1736.294
 70
    32
  0
VERTEX
  8
T35SSILL
 62
8
 10
2928.624
 20
-5857.675
 30
1736.281
 70
    32
  0
VERTEX
  8
T35SSILL
 62
8
 10
2953.482
 20
-5894.532
 30
1736.322
 70
    32
  0
VERTEX
  8
T35SSILL
 62
8
 10
2946.113
 20
-5937.603
 30
1736.407
 70
    32
  0
VERTEX
  8
T35SSILL
 62
8
 10
2942.587
 20
-5937.795
 30
1736.410
 70
    32
  0
VERTEX
  8
T35SSILL
 62
8
 10
2929.067
 20
-5911.937
 30
1736.378
 70
    32
  0
VERTEX
  8
T35SSILL
 62
8
 10
2922.526
 20
-5896.139
 30
1736.356
 70
    32
  0
VERTEX
  8
T35SSILL
 62
8
 10
2917.758
 20
-5893.140
 30
1736.356
 70
    32
  0
VERTEX
  8
T35SSILL
 62
8
 10
2911.756
 20
-5894.644
 30
1736.360
 70
    32
  0
VERTEX
  8
T35SSILL
 62
8
 10
2908.400
 20
-5892.969
 30
1736.354
 70
    32
  0
VERTEX
  8
T35SSILL
 62
8
 10
2904.869
 20
-5892.971
 30
1736.351
 70
    32
  0
VERTEX
  8
T35SSILL
 62
8
 10
2903.464
 20
-5906.213
 30
1736.366
 70
    32
  0
VERTEX
  8
T35SSILL
 62
8
 10
2907.969
 20
-5912.655
 30
1736.379
 70
    32
  0
VERTEX
  8
T35SSILL
 62
8
 10
2915.216
 20
-5927.570
 30
1736.406
 70
    32
  0
VERTEX
  8
T35SSILL
 62
8
 10
2918.838
 20
-5931.982
 30
1736.416
 70
    32
  0
VERTEX
  8
T35SSILL
 62
8
 10
2920.428
 20
-5935.512
 30
1736.422
 70
    32
  0
VERTEX
  8
T35SSILL
 62
8
 10
2920.521
 20
-5943.015
 30
1736.431
 70
    32
  0
VERTEX
  8
T35SSILL
 62
8
 10
2923.965
 20
-5945.485
 30
1736.438
 70
    32
  0
VERTEX
  8
T35SSILL
 62
8
 10
2935.796
 20
-5949.187
 30
1736.438
 70
    32
  0
VERTEX
  8
T35SSILL
 62
8
 10
2937.829
 20
-5952.627
 30
1736.442
 70
    32
  0
VERTEX
  8
T35SSILL
 62
8
 10
2916.551
 20
-5967.388
 30
1736.458
 70
    32
  0
VERTEX
  8
T35SSILL
 62
8
 10
2913.735
 20
-5964.470
 30
1736.451
 70
    32
  0
VERTEX
  8
T35SSILL
 62
8
 10
2908.168
 20
-5954.056
 30
1736.432
 70
    32
  0
VERTEX
  8
T35SSILL
 62
8
 10
2903.302
 20
-5933.844
 30
1736.401
 70
    32
  0
VERTEX
  8
T35SSILL
 62
8
 10
2900.476
 20
-5931.991
 30
1736.395
 70
    32
  0
VERTEX
  8
T35SSILL
 62
8
 10
2889.528
 20
-5929.349
 30
1736.380
 70
    32
  0
VERTEX
  8
T35SSILL
 62
8
 10
2875.415
 20
-5950.366
 30
1736.391
 70
    32
  0
VERTEX
  8
T35SSILL
 62
8
 10
2879.394
 20
-5962.105
 30
1736.410
 70
    32
  0
VERTEX
  8
T35SSILL
 62
8
 10
2890.751
 20
-5985.746
 30
1736.453
 70
    32
  0
VERTEX
  8
T35SSILL
 62
8
 10
2827.788
 20
-6030.547
 30
1736.441
 70
    32
  0
VERTEX
  8
T35SSILL
 62
8
 10
2832.117
 20
-6036.371
 30
1736.453
 70
    32
  0
VERTEX
  8
T35SSILL
 62
8
 10
2943.921
 20
-5955.891
 30
1736.441
 70
    32
  0
VERTEX
  8
T35SSILL
 62
8
 10
2950.361
 20
-5947.678
 30
1736.420
 70
    32
  0
VERTEX
  8
T35SSILL
 62
8
 10
2952.917
 20
-5940.703
 30
1736.405
 70
    32
  0
VERTEX
  8
T35SSILL
 62
8
 10
2959.279
 20
-5903.127
 30
1736.331
 70
    32
  0
VERTEX
  8
T35SSILL
 62
8
 10
2969.968
 20
-5918.976
 30
1736.349
 70
    32
  0
VERTEX
  8
T35SSILL
 62
8
 10
2961.736
 20
-5924.367
 30
1736.367
 70
    32
  0
VERTEX
  8
T35SSILL
 62
8
 10
2965.182
 20
-5929.838
 30
1736.373
 70
    32
  0
VERTEX
  8
T35SSILL
 62
8
 10
2973.843
 20
-5924.721
 30
1736.355
 70
    32
  0
VERTEX
  8
T35SSILL
 62
8
 10
3020.412
 20
-5993.769
 30
1736.432
 70
    32
  0
VERTEX
  8
T35SSILL
 62
8
 10
3017.750
 20
-6007.218
 30
1736.458
 70
    32
  0
VERTEX
  8
T35SSILL
 62
8
 10
3013.081
 20
-6015.256
 30
1736.477
 70
    32
  0
VERTEX
  8
T35SSILL
 62
8
 10
2906.540
 20
-6091.466
 30
1736.605
 70
    32
  0
VERTEX
  8
T35SSILL
 62
8
 10
2898.869
 20
-6099.330
 30
1736.606
 70
    32
  0
VERTEX
  8
T35SSILL
 62
8
 10
2893.934
 20
-6106.221
 30
1736.610
 70
    32
  0
VERTEX
  8
T35SSILL
 62
8
 10
2891.303
 20
-6120.877
 30
1736.625
 70
    32
  0
VERTEX
  8
T35SSILL
 62
8
 10
2892.459
 20
-6128.114
 30
1736.636
 70
    32
  0
VERTEX
  8
T35SSILL
 62
8
 10
2895.688
 20
-6135.516
 30
1736.649
 70
    32
  0
VERTEX
  8
T35SSILL
 62
8
 10
2889.383
 20
-6139.769
 30
1736.647
 70
    32
  0
VERTEX
  8
T35SSILL
 62
8
 10
2897.075
 20
-6151.058
 30
1736.670
 70
    32
  0
VERTEX
  8
T35SSILL
 62
8
 10
2903.374
 20
-6147.185
 30
1736.672
 70
    32
  0
VERTEX
  8
T35SSILL
 62
8
 10
2920.778
 20
-6173.543
 30
1736.725
 70
    32
  0
VERTEX
  8
T35SSILL
 62
8
 10
2926.165
 20
-6194.453
 30
1736.757
 70
    32
  0
VERTEX
  8
T35SSILL
 62
8
 10
2936.948
 20
-6206.798
 30
1736.785
 70
    32
  0
VERTEX
  8
T35SSILL
 62
8
 10
2946.156
 20
-6231.238
 30
1736.826
 70
    32
  0
VERTEX
  8
T35SSILL
 62
8
 10
2957.735
 20
-6244.465
 30
1736.855
 70
    32
  0
VERTEX
  8
T35SSILL
 62
8
 10
2971.180
 20
-6268.812
 30
1736.901
 70
    32
  0
VERTEX
  8
T35SSILL
 62
8
 10
2982.055
 20
-6284.512
 30
1736.933
 70
    32
  0
VERTEX
  8
T35SSILL
 62
8
 10
2984.085
 20
-6284.951
 30
1736.936
 70
    32
  0
VERTEX
  8
T35SSILL
 62
8
 10
2998.498
 20
-6306.472
 30
1736.979
 70
    32
  0
VERTEX
  8
T35SSILL
 62
8
 10
3003.533
 20
-6309.909
 30
1736.989
 70
    32
  0
VERTEX
  8
T35SSILL
 62
8
 10
3008.727
 20
-6306.747
 30
1736.991
 70
    32
  0
VERTEX
  8
T35SSILL
 62
8
 10
3030.843
 20
-6340.242
 30
1737.041
 70
    32
  0
VERTEX
  8
T35SSILL
 62
8
 10
3053.343
 20
-6378.875
 30
1737.087
 70
    32
  0
VERTEX
  8
T35SSILL
 62
8
 10
3059.781
 20
-6390.264
 30
1737.101
 70
    32
  0
VERTEX
  8
T35SSILL
 62
8
 10
3056.594
 20
-6403.535
 30
1737.128
 70
    32
  0
VERTEX
  8
T35SSILL
 62
8
 10
3059.727
 20
-6412.818
 30
1737.141
 70
    32
  0
VERTEX
  8
T35SSILL
 62
8
 10
3051.309
 20
-6419.839
 30
1737.162
 70
    32
  0
VERTEX
  8
T35SSILL
 62
8
 10
3052.092
 20
-6422.137
 30
1737.166
 70
    32
  0
VERTEX
  8
T35SSILL
 62
8
 10
3065.621
 20
-6435.529
 30
1737.176
 70
    32
  0
VERTEX
  8
T35SSILL
 62
8
 10
3076.009
 20
-6441.139
 30
1737.175
 70
    32
  0
VERTEX
  8
T35SSILL
 62
8
 10
3079.674
 20
-6441.909
 30
1737.173
 70
    32
  0
VERTEX
  8
T35SSILL
 62
8
 10
3082.246
 20
-6447.170
 30
1737.180
 70
    32
  0
VERTEX
  8
T35SSILL
 62
8
 10
3085.215
 20
-6445.371
 30
1737.174
 70
    32
  0
VERTEX
  8
T35SSILL
 62
8
 10
3089.400
 20
-6446.322
 30
1737.171
 70
    32
  0
VERTEX
  8
T35SSILL
 62
8
 10
3091.417
 20
-6449.068
 30
1737.174
 70
    32
  0
VERTEX
  8
T35SSILL
 62
8
 10
3093.306
 20
-6449.567
 30
1737.172
 70
    32
  0
VERTEX
  8
T35SSILL
 62
8
 10
3107.516
 20
-6474.704
 30
1737.180
 70
    32
  0
VERTEX
  8
T35SSILL
 62
8
 10
3105.459
 20
-6476.394
 30
1737.189
 70
    32
  0
VERTEX
  8
T35SSILL
 62
8
 10
3103.954
 20
-6482.394
 30
1737.205
 70
    32
  0
VERTEX
  8
T35SSILL
 62
8
 10
3113.552
 20
-6503.970
 30
1737.220
 70
    32
  0
VERTEX
  8
T35SSILL
 62
8
 10
3117.235
 20
-6515.700
 30
1737.232
 70
    32
  0
VERTEX
  8
T35SSILL
 62
8
 10
3118.632
 20
-6532.468
 30
1737.260
 70
    32
  0
VERTEX
  8
T35SSILL
 62
8
 10
3120.613
 20
-6541.301
 30
1737.275
 70
    32
  0
VERTEX
  8
T35SSILL
 62
8
 10
3127.333
 20
-6557.683
 30
1737.308
 70
    32
  0
VERTEX
  8
T35SSILL
 62
8
 10
3154.935
 20
-6611.629
 30
1737.413
 70
    32
  0
VERTEX
  8
T35SSILL
 62
8
 10
3158.217
 20
-6629.554
 30
1737.434
 70
    32
  0
VERTEX
  8
T35SSILL
 62
8
 10
3161.323
 20
-6639.535
 30
1737.440
 70
    32
  0
VERTEX
  8
T35SSILL
 62
8
 10
3155.452
 20
-6650.523
 30
1737.464
 70
    32
  0
VERTEX
  8
T35SSILL
 62
8
 10
3142.644
 20
-6659.585
 30
1737.497
 70
    32
  0
VERTEX
  8
T35SSILL
 62
8
 10
3135.630
 20
-6663.090
 30
1737.514
 70
    32
  0
VERTEX
  8
T35SSILL
 62
8
 10
3119.726
 20
-6678.187
 30
1737.557
 70
    32
  0
VERTEX
  8
T35SSILL
 62
8
 10
3109.793
 20
-6684.593
 30
1737.576
 70
    32
  0
VERTEX
  8
T35SSILL
 62
8
 10
3110.144
 20
-6688.327
 30
1737.582
 70
    32
  0
VERTEX
  8
T35SSILL
 62
8
 10
3111.278
 20
-6688.717
 30
1737.580
 70
    32
  0
VERTEX
  8
T35SSILL
 62
8
 10
3110.866
 20
-6689.974
 30
1737.583
 70
    32
  0
VERTEX
  8
T35SSILL
 62
8
 10
3115.745
 20
-6700.308
 30
1737.591
 70
    32
  0
VERTEX
  8
T35SSILL
 62
8
 10
3018.610
 20
-6563.362
 30
1737.328
 70
    32
  0
VERTEX
  8
T35SSILL
 62
8
 10
3012.005
 20
-6566.986
 30
1737.325
 70
    32
  0
VERTEX
  8
T35SSILL
 62
8
 10
3044.473
 20
-6613.096
 30
1737.419
 70
    32
  0
VERTEX
  8
T35SSILL
 62
8
 10
3040.355
 20
-6615.959
 30
1737.418
 70
    32
  0
VERTEX
  8
T35SSILL
 62
8
 10
3044.255
 20
-6621.725
 30
1737.430
 70
    32
  0
VERTEX
  8
T35SSILL
 62
8
 10
3048.421
 20
-6618.703
 30
1737.431
 70
    32
  0
VERTEX
  8
T35SSILL
 62
8
 10
3096.897
 20
-6687.546
 30
1737.568
 70
    32
  0
VERTEX
  8
T35SSILL
 62
8
 10
3092.339
 20
-6690.881
 30
1737.555
 70
    32
  0
VERTEX
  8
T35SSILL
 62
8
 10
3099.356
 20
-6700.616
 30
1737.571
 70
    32
  0
VERTEX
  8
T35SSILL
 62
8
 10
3103.807
 20
-6697.359
 30
1737.583
 70
    32
  0
VERTEX
  8
T35SSILL
 62
8
 10
3107.024
 20
-6702.016
 30
1737.590
 70
    32
  0
VERTEX
  8
T35SSILL
 62
8
 10
3080.712
 20
-6720.840
 30
1737.518
 70
    32
  0
VERTEX
  8
T35SSILL
 62
8
 10
3103.278
 20
-6744.966
 30
1737.570
 70
    32
  0
VERTEX
  8
T35SSILL
 62
8
 10
3109.697
 20
-6757.687
 30
1737.584
 70
    32
  0
VERTEX
  8
T35SSILL
 62
8
 10
3122.450
 20
-6769.313
 30
1737.591
 70
    32
  0
VERTEX
  8
T35SSILL
 62
8
 10
3126.338
 20
-6769.236
 30
1737.589
 70
    32
  0
VERTEX
  8
T35SSILL
 62
8
 10
3133.555
 20
-6764.156
 30
1737.584
 70
    32
  0
VERTEX
  8
T35SSILL
 62
8
 10
3140.884
 20
-6761.005
 30
1737.579
 70
    32
  0
VERTEX
  8
T35SSILL
 62
8
 10
3143.668
 20
-6753.966
 30
1737.577
 70
    32
  0
VERTEX
  8
T35SSILL
 62
8
 10
3177.595
 20
-6802.148
 30
1737.551
 70
    32
  0
VERTEX
  8
T35SSILL
 62
8
 10
3190.772
 20
-6812.305
 30
1737.536
 70
    32
  0
VERTEX
  8
T35SSILL
 62
8
 10
3199.410
 20
-6815.315
 30
1737.524
 70
    32
  0
VERTEX
  8
T35SSILL
 62
8
 10
3203.300
 20
-6815.509
 30
1737.518
 70
    32
  0
VERTEX
  8
T35SSILL
 62
8
 10
3165.121
 20
-6843.332
 30
1737.561
 70
    32
  0
VERTEX
  8
T35SSILL
 62
8
 10
3169.182
 20
-6848.558
 30
1737.558
 70
    32
  0
VERTEX
  8
T35SSILL
 62
8
 10
3173.228
 20
-6845.424
 30
1737.555
 70
    32
  0
VERTEX
  8
T35SSILL
 62
8
 10
3172.431
 20
-6854.777
 30
1737.556
 70
    32
  0
VERTEX
  8
T35SSILL
 62
8
 10
3174.468
 20
-6865.272
 30
1737.554
 70
    32
  0
VERTEX
  8
T35SSILL
 62
8
 10
3210.578
 20
-6918.616
 30
1737.529
 70
    32
  0
VERTEX
  8
T35SSILL
 62
8
 10
3209.895
 20
-6919.949
 30
1737.529
 70
    32
  0
VERTEX
  8
T35SSILL
 62
8
 10
3211.786
 20
-6926.684
 30
1737.528
 70
    32
  0
VERTEX
  8
T35SSILL
 62
8
 10
3218.304
 20
-6928.806
 30
1737.523
 70
    32
  0
VERTEX
  8
T35SSILL
 62
8
 10
3283.025
 20
-7018.065
 30
1737.477
 70
    32
  0
VERTEX
  8
T35SSILL
 62
8
 10
3288.996
 20
-7013.378
 30
1737.473
 70
    32
  0
VERTEX
  8
T35SSILL
 62
8
 10
3230.839
 20
-6932.327
 30
1737.514
 70
    32
  0
VERTEX
  8
T35SSILL
 62
8
 10
3230.684
 20
-6926.855
 30
1737.515
 70
    32
  0
VERTEX
  8
T35SSILL
 62
8
 10
3235.198
 20
-6923.932
 30
1737.511
 70
    32
  0
VERTEX
  8
T35SSILL
 62
8
 10
3231.087
 20
-6916.166
 30
1737.514
 70
    32
  0
VERTEX
  8
T35SSILL
 62
8
 10
3229.402
 20
-6914.976
 30
1737.516
 70
    32
  0
VERTEX
  8
T35SSILL
 62
8
 10
3218.228
 20
-6914.802
 30
1737.523
 70
    32
  0
VERTEX
  8
T35SSILL
 62
8
 10
3184.996
 20
-6868.686
 30
1737.547
 70
    32
  0
VERTEX
  8
T35SSILL
 62
8
 10
3181.696
 20
-6862.394
 30
1737.549
 70
    32
  0
VERTEX
  8
T35SSILL
 62
8
 10
3180.736
 20
-6849.434
 30
1737.550
 70
    32
  0
VERTEX
  8
T35SSILL
 62
8
 10
3184.586
 20
-6839.997
 30
1737.548
 70
    32
  0
VERTEX
  8
T35SSILL
 62
8
 10
3190.052
 20
-6833.194
 30
1737.544
 70
    32
  0
VERTEX
  8
T35SSILL
 62
8
 10
3440.469
 20
-6653.888
 30
1737.085
 70
    32
  0
VERTEX
  8
T35SSILL
 62
8
 10
3448.587
 20
-6643.953
 30
1737.068
 70
    32
  0
VERTEX
  8
T35SSILL
 62
8
 10
3451.074
 20
-6638.576
 30
1737.061
 70
    32
  0
VERTEX
  8
T35SSILL
 62
8
 10
3452.559
 20
-6630.677
 30
1737.055
 70
    32
  0
VERTEX
  8
T35SSILL
 62
8
 10
3461.762
 20
-6643.918
 30
1737.048
 70
    32
  0
VERTEX
  8
T35SSILL
 62
8
 10
3467.801
 20
-6640.256
 30
1737.037
 70
    32
  0
VERTEX
  8
T35SSILL
 62
8
 10
3397.890
 20
-6538.534
 30
1736.955
 70
    32
  0
VERTEX
  8
T35SSILL
 62
8
 10
3404.849
 20
-6525.197
 30
1736.924
 70
    32
  0
VERTEX
  8
T35SSILL
 62
8
 10
3378.281
 20
-6509.583
 30
1736.924
 70
    32
  0
VERTEX
  8
T35SSILL
 62
8
 10
3313.064
 20
-6413.296
 30
1736.920
 70
    32
  0
VERTEX
  8
T35SSILL
 62
8
 10
3312.097
 20
-6407.986
 30
1736.927
 70
    32
  0
VERTEX
  8
T35SSILL
 62
8
 10
3314.367
 20
-6393.064
 30
1736.959
 70
    32
  0
VERTEX
  8
T35SSILL
 62
8
 10
3369.651
 20
-6352.966
 30
1737.172
 70
    32
  0
VERTEX
  8
T35SSILL
 62
8
 10
3380.225
 20
-6364.076
 30
1737.180
 70
    32
  0
VERTEX
  8
T35SSILL
 62
8
 10
3394.122
 20
-6389.912
 30
1737.154
 70
    32
  0
VERTEX
  8
T35SSILL
 62
8
 10
3394.250
 20
-6401.506
 30
1737.131
 70
    32
  0
VERTEX
  8
T35SSILL
 62
8
 10
3399.556
 20
-6413.181
 30
1737.113
 70
    32
  0
VERTEX
  8
T35SSILL
 62
8
 10
3402.337
 20
-6423.433
 30
1737.096
 70
    32
  0
VERTEX
  8
T35SSILL
 62
8
 10
3401.133
 20
-6429.901
 30
1737.082
 70
    32
  0
VERTEX
  8
T35SSILL
 62
8
 10
3403.951
 20
-6445.332
 30
1737.054
 70
    32
  0
VERTEX
  8
T35SSILL
 62
8
 10
3409.816
 20
-6450.065
 30
1737.051
 70
    32
  0
VERTEX
  8
T35SSILL
 62
8
 10
3413.817
 20
-6450.200
 30
1737.056
 70
    32
  0
VERTEX
  8
T35SSILL
 62
8
 10
3421.772
 20
-6447.821
 30
1737.070
 70
    32
  0
VERTEX
  8
T35SSILL
 62
8
 10
3424.153
 20
-6441.651
 30
1737.085
 70
    32
  0
VERTEX
  8
T35SSILL
 62
8
 10
3424.289
 20
-6437.356
 30
1737.094
 70
    32
  0
VERTEX
  8
T35SSILL
 62
8
 10
3421.026
 20
-6415.744
 30
1737.134
 70
    32
  0
VERTEX
  8
T35SSILL
 62
8
 10
3421.894
 20
-6405.272
 30
1737.156
 70
    32
  0
VERTEX
  8
T35SSILL
 62
8
 10
3419.144
 20
-6387.546
 30
1737.189
 70
    32
  0
VERTEX
  8
T35SSILL
 62
8
 10
3415.162
 20
-6382.880
 30
1737.193
 70
    32
  0
VERTEX
  8
T35SSILL
 62
8
 10
3411.677
 20
-6372.095
 30
1737.211
 70
    32
  0
VERTEX
  8
T35SSILL
 62
8
 10
3404.124
 20
-6362.824
 30
1737.220
 70
    32
  0
VERTEX
  8
T35SSILL
 62
8
 10
3397.945
 20
-6348.850
 30
1737.241
 70
    32
  0
VERTEX
  8
T35SSILL
 62
8
 10
3396.791
 20
-6343.548
 30
1737.251
 70
    32
  0
VERTEX
  8
T35SSILL
 62
8
 10
3397.390
 20
-6341.020
 30
1737.256
 70
    32
  0
VERTEX
  8
T35SSILL
 62
8
 10
3395.333
 20
-6340.246
 30
1737.256
 70
    32
  0
VERTEX
  8
T35SSILL
 62
8
 10
3392.883
 20
-6336.115
 30
1737.261
 70
    32
  0
VERTEX
  8
T35SSILL
 62
8
 10
3495.628
 20
-6261.593
 30
1736.812
 70
    32
  0
VERTEX
  8
T35SSILL
 62
8
 10
3491.207
 20
-6255.612
 30
1736.827
 70
    32
  0
VERTEX
  8
T35SSILL
 62
8
 10
3415.110
 20
-6311.905
 30
1737.237
 70
    32
  0
VERTEX
  8
T35SSILL
 62
8
 10
3401.939
 20
-6309.083
 30
1737.297
 70
    32
  0
VERTEX
  8
T35SSILL
 62
8
 10
3319.335
 20
-6195.968
 30
1737.309
 70
    32
  0
VERTEX
  8
T35SSILL
 62
8
 10
3321.327
 20
-6194.629
 30
1737.299
 70
    32
  0
VERTEX
  8
T35SSILL
 62
8
 10
3311.306
 20
-6184.523
 30
1737.309
 70
    32
  0
VERTEX
  8
T35SSILL
 62
8
 10
3297.632
 20
-6161.513
 30
1737.299
 70
    32
  0
VERTEX
  8
T35SSILL
 62
8
 10
3291.059
 20
-6157.248
 30
1737.311
 70
    32
  0
VERTEX
  8
T35SSILL
 62
8
 10
3301.350
 20
-6159.292
 30
1737.280
 70
    32
  0
VERTEX
  8
T35SSILL
 62
8
 10
3307.883
 20
-6159.144
 30
1737.257
 70
    32
  0
VERTEX
  8
T35SSILL
 62
8
 10
3318.136
 20
-6155.950
 30
1737.213
 70
    32
  0
VERTEX
  8
T35SSILL
 62
8
 10
3327.561
 20
-6149.346
 30
1737.164
 70
    32
  0
VERTEX
  8
T35SSILL
 62
8
 10
3331.793
 20
-6155.125
 30
1737.163
 70
    32
  0
VERTEX
  8
T35SSILL
 62
8
 10
3337.935
 20
-6150.149
 30
1737.129
 70
    32
  0
VERTEX
  8
T35SSILL
 62
8
 10
3334.104
 20
-6144.688
 30
1737.129
 70
    32
  0
VERTEX
  8
T35SSILL
 62
8
 10
3353.542
 20
-6130.848
 30
1737.026
 70
    32
  0
VERTEX
  8
T35SSILL
 62
8
 10
3357.531
 20
-6136.461
 30
1737.026
 70
    32
  0
VERTEX
  8
T35SSILL
 62
8
 10
3363.791
 20
-6131.544
 30
1736.992
 70
    32
  0
VERTEX
  8
T35SSILL
 62
8
 10
3360.174
 20
-6126.126
 30
1736.991
 70
    32
  0
VERTEX
  8
T35SSILL
 62
8
 10
3432.172
 20
-6074.864
 30
1736.610
 70
    32
  0
VERTEX
  8
T35SSILL
 62
8
 10
3427.205
 20
-6068.489
 30
1736.612
 70
    32
  0
VERTEX
  8
T35SSILL
 62
8
 10
3315.459
 20
-6148.818
 30
1737.205
 70
    32
  0
VERTEX
  8
T35SSILL
 62
8
 10
3308.446
 20
-6151.260
 30
1737.235
 70
    32
  0
VERTEX
  8
T35SSILL
 62
8
 10
3301.264
 20
-6151.759
 30
1737.262
 70
    32
  0
VERTEX
  8
T35SSILL
 62
8
 10
3293.090
 20
-6150.136
 30
1737.286
 70
    32
  0
VERTEX
  8
T35SSILL
 62
8
 10
3278.336
 20
-6140.554
 30
1737.314
 70
    32
  0
VERTEX
  8
T35SSILL
 62
8
 10
3232.546
 20
-6076.340
 30
1737.314
 70
    32
  0
VERTEX
  8
T35SSILL
 62
8
 10
3251.751
 20
-6057.306
 30
1737.199
 70
    32
  0
VERTEX
  8
T35SSILL
 62
8
 10
3248.115
 20
-6047.161
 30
1737.186
 70
    32
  0
VERTEX
  8
T35SSILL
 62
8
 10
3238.839
 20
-6042.675
 30
1737.208
 70
    32
  0
VERTEX
  8
T35SSILL
 62
8
 10
3234.429
 20
-6044.801
 30
1737.228
 70
    32
  0
VERTEX
  8
T35SSILL
 62
8
 10
3229.834
 20
-6041.542
 30
1737.236
 70
    32
  0
VERTEX
  8
T35SSILL
 62
8
 10
3222.504
 20
-6039.613
 30
1737.257
 70
    32
  0
VERTEX
  8
T35SSILL
 62
8
 10
3215.989
 20
-6049.245
 30
1737.304
 70
    32
  0
VERTEX
  8
T35SSILL
 62
8
 10
3212.624
 20
-6048.403
 30
1737.314
 70
    32
  0
VERTEX
  8
T35SSILL
 62
8
 10
3140.020
 20
-5946.586
 30
1737.132
 70
    32
  0
VERTEX
  8
T35SSILL
 62
8
 10
3146.516
 20
-5941.144
 30
1737.095
 70
    32
  0
VERTEX
  8
T35SSILL
 62
8
 10
3156.663
 20
-5938.920
 30
1737.076
 70
    32
  0
VERTEX
  8
T35SSILL
 62
8
 10
3166.463
 20
-5940.051
 30
1737.079
 70
    32
  0
VERTEX
  8
T35SSILL
 62
8
 10
3173.175
 20
-5942.158
 30
1737.089
 70
    32
  0
VERTEX
  8
T35SSILL
 62
8
 10
3179.001
 20
-5942.501
 30
1737.088
 70
    32
  0
VERTEX
  8
T35SSILL
 62
8
 10
3181.118
 20
-5941.527
 30
1737.081
 70
    32
  0
VERTEX
  8
T35SSILL
 62
8
 10
3198.932
 20
-5931.787
 30
1737.012
 70
    32
  0
VERTEX
  8
T35SSILL
 62
8
 10
3199.364
 20
-5926.138
 30
1736.976
 70
    32
  0
VERTEX
  8
T35SSILL
 62
8
 10
3194.407
 20
-5917.937
 30
1736.927
 70
    32
  0
VERTEX
  8
T35SSILL
 62
8
 10
3192.639
 20
-5915.998
 30
1736.916
 70
    32
  0
VERTEX
  8
T35SSILL
 62
8
 10
3165.112
 20
-5923.988
 30
1736.979
 70
    32
  0
VERTEX
  8
T35SSILL
 62
8
 10
3150.559
 20
-5930.456
 30
1737.026
 70
    32
  0
VERTEX
  8
T35SSILL
 62
8
 10
3130.144
 20
-5932.735
 30
1737.050
 70
    32
  0
VERTEX
  8
T35SSILL
 62
8
 10
3051.163
 20
-5822.281
 30
1736.520
 70
    32
  0
VERTEX
  8
T35SSILL
 62
8
 10
3054.866
 20
-5819.751
 30
1736.502
 70
    32
  0
VERTEX
  8
T35SSILL
 62
8
 10
3047.917
 20
-5809.543
 30
1736.474
 70
    32
  0
VERTEX
  8
T35SSILL
 62
8
 10
3043.923
 20
-5812.267
 30
1736.493
 70
    32
  0
VERTEX
  8
T35SSILL
 62
8
 10
2588.630
 20
-5182.537
 30
1734.695
 70
    32
  0
VERTEX
  8
T35SSILL
 62
8
 10
2480.623
 20
-5029.221
 30
1734.168
 70
    32
  0
VERTEX
  8
T35SSILL
 62
8
 10
2314.767
 20
-4799.784
 30
1733.338
 70
    32
  0
VERTEX
  8
T35SSILL
 62
8
 10
2220.104
 20
-4741.859
 30
1733.279
 70
    32
  0
VERTEX
  8
T35SSILL
 62
8
 10
2184.618
 20
-4691.945
 30
1733.044
 70
    32
  0
VERTEX
  8
T35SSILL
 62
8
 10
2178.499
 20
-4629.041
 30
1732.879
 70
    32
  0
VERTEX
  8
T35SSILL
 62
8
 10
2179.721
 20
-4623.941
 30
1732.883
 70
    32
  0
VERTEX
  8
T35SSILL
 62
8
 10
2190.630
 20
-4626.888
 30
1732.932
 70
    32
  0
VERTEX
  8
T35SSILL
 62
8
 10
2192.749
 20
-4619.028
 30
1732.939
 70
    32
  0
VERTEX
  8
T35SSILL
 62
8
 10
2181.686
 20
-4615.737
 30
1732.888
 70
    32
  0
VERTEX
  8
T35SSILL
 62
8
 10
2210.899
 20
-4493.783
 30
1732.948
 70
    32
  0
VERTEX
  8
T35SSILL
 62
8
 10
2481.260
 20
-4300.108
 30
1732.603
 70
    32
  0
VERTEX
  8
T35SSILL
 62
8
 10
2490.197
 20
-4312.520
 30
1732.618
 70
    32
  0
VERTEX
  8
T35SSILL
 62
8
 10
2498.850
 20
-4306.265
 30
1732.607
 70
    32
  0
VERTEX
  8
T35SSILL
 62
8
 10
2494.374
 20
-4299.266
 30
1732.598
 70
    32
  0
VERTEX
  8
T35SSILL
 62
8
 10
2491.400
 20
-4301.235
 30
1732.602
 70
    32
  0
VERTEX
  8
T35SSILL
 62
8
 10
2487.556
 20
-4295.815
 30
1732.596
 70
    32
  0
VERTEX
  8
T35SSILL
 62
8
 10
2507.660
 20
-4281.338
 30
1732.570
 70
    32
  0
VERTEX
  8
T35SSILL
 62
8
 10
2518.110
 20
-4278.498
 30
1732.563
 70
    32
  0
VERTEX
  8
T35SSILL
 62
8
 10
2519.527
 20
-4279.276
 30
1732.564
 70
    32
  0
VERTEX
  8
T35SSILL
 62
8
 10
2517.953
 20
-4280.349
 30
1732.566
 70
    32
  0
VERTEX
  8
T35SSILL
 62
8
 10
2526.904
 20
-4294.082
 30
1732.582
 70
    32
  0
VERTEX
  8
T35SSILL
 62
8
 10
2534.073
 20
-4289.075
 30
1732.574
 70
    32
  0
VERTEX
  8
T35SSILL
 62
8
 10
2525.917
 20
-4275.510
 30
1732.557
 70
    32
  0
VERTEX
  8
T35SSILL
 62
8
 10
2524.338
 20
-4276.143
 30
1732.558
 70
    32
  0
VERTEX
  8
T35SSILL
 62
8
 10
2530.676
 20
-4263.438
 30
1732.539
 70
    32
  0
VERTEX
  8
T35SSILL
 62
8
 10
2542.096
 20
-4255.070
 30
1732.524
 70
    32
  0
VERTEX
  8
T35SSILL
 62
8
 10
2546.973
 20
-4259.694
 30
1732.531
 70
    32
  0
VERTEX
  8
T35SSILL
 62
8
 10
2555.630
 20
-4253.201
 30
1732.516
 70
    32
  0
VERTEX
  8
T35SSILL
 62
8
 10
2551.983
 20
-4248.216
 30
1732.511
 70
    32
  0
VERTEX
  8
T35SSILL
 62
8
 10
2952.952
 20
-3959.293
 30
1731.155
 70
    32
  0
VERTEX
  8
T35SSILL
 62
8
 10
3078.475
 20
-4140.751
 30
1731.802
 70
    32
  0
VERTEX
  8
T35SSILL
 62
8
 10
3063.345
 20
-4141.138
 30
1731.812
 70
    32
  0
VERTEX
  8
T35SSILL
 62
8
 10
3064.308
 20
-4151.336
 30
1731.852
 70
    32
  0
VERTEX
  8
T35SSILL
 62
8
 10
3084.011
 20
-4150.736
 30
1731.839
 70
    32
  0
VERTEX
  8
T35SSILL
 62
8
 10
3085.690
 20
-4151.691
 30
1731.841
 70
    32
  0
VERTEX
  8
T35SSILL
 62
8
 10
3094.139
 20
-4162.884
 30
1731.881
 70
    32
  0
VERTEX
  8
T35SSILL
 62
8
 10
3102.967
 20
-4199.149
 30
1732.019
 70
    32
  0
VERTEX
  8
T35SSILL
 62
8
 10
3124.409
 20
-4217.803
 30
1732.081
 70
    32
  0
VERTEX
  8
T35SSILL
 62
8
 10
3140.651
 20
-4235.268
 30
1732.141
 70
    32
  0
VERTEX
  8
T35SSILL
 62
8
 10
3145.919
 20
-4233.906
 30
1732.133
 70
    32
  0
VERTEX
  8
T35SSILL
 62
8
 10
3331.012
 20
-4493.017
 30
1732.390
 70
    32
  0
VERTEX
  8
T35SSILL
 62
8
 10
3299.332
 20
-4844.035
 30
1732.710
 70
    32
  0
VERTEX
  8
T35SSILL
 62
8
 10
3385.262
 20
-5023.012
 30
1732.741
 70
    32
  0
VERTEX
  8
T35SSILL
 62
8
 10
3358.194
 20
-5042.017
 30
1732.867
 70
    32
  0
VERTEX
  8
T35SSILL
 62
8
 10
3363.091
 20
-5047.613
 30
1732.888
 70
    32
  0
VERTEX
  8
T35SSILL
 62
8
 10
3388.163
 20
-5029.716
 30
1732.769
 70
    32
  0
VERTEX
  8
T35SSILL
 62
8
 10
3417.763
 20
-5142.666
 30
1733.278
 70
    32
  0
VERTEX
  8
T35SSILL
 62
8
 10
3410.440
 20
-5165.781
 30
1733.399
 70
    32
  0
VERTEX
  8
T35SSILL
 62
8
 10
3347.577
 20
-5211.736
 30
1733.701
 70
    32
  0
VERTEX
  8
T35SSILL
 62
8
 10
3342.823
 20
-5205.035
 30
1733.675
 70
    32
  0
VERTEX
  8
T35SSILL
 62
8
 10
3322.634
 20
-5218.856
 30
1733.768
 70
    32
  0
VERTEX
  8
T35SSILL
 62
8
 10
3327.210
 20
-5226.967
 30
1733.799
 70
    32
  0
VERTEX
  8
T35SSILL
 62
8
 10
3311.077
 20
-5237.706
 30
1733.861
 70
    32
  0
VERTEX
  8
T35SSILL
 62
8
 10
3315.038
 20
-5244.142
 30
1733.875
 70
    32
  0
VERTEX
  8
T35SSILL
 62
8
 10
3423.870
 20
-5165.970
 30
1733.383
 70
    32
  0
VERTEX
  8
T35SSILL
 62
8
 10
3435.263
 20
-5209.444
 30
1733.485
 70
    32
  0
VERTEX
  8
T35SSILL
 62
8
 10
3592.138
 20
-5427.365
 30
1733.887
 70
    32
  0
VERTEX
  8
T35SSILL
 62
8
 10
3594.342
 20
-5425.692
 30
1733.876
 70
    32
  0
VERTEX
  8
T35SSILL
 62
8
 10
3662.659
 20
-5517.915
 30
1734.260
 70
    32
  0
VERTEX
  8
T35SSILL
 62
8
 10
3660.802
 20
-5527.078
 30
1734.308
 70
    32
  0
VERTEX
  8
T35SSILL
 62
8
 10
3679.732
 20
-5549.739
 30
1734.399
 70
    32
  0
VERTEX
  8
T35SSILL
 62
8
 10
3687.926
 20
-5551.595
 30
1734.401
 70
    32
  0
VERTEX
  8
T35SSILL
 62
8
 10
3750.873
 20
-5636.853
 30
1734.628
 70
    32
  0
VERTEX
  8
T35SSILL
 62
8
 10
3749.634
 20
-5644.519
 30
1734.656
 70
    32
  0
VERTEX
  8
T35SSILL
 62
8
 10
3763.280
 20
-5662.152
 30
1734.704
 70
    32
  0
VERTEX
  8
T35SSILL
 62
8
 10
3770.149
 20
-5667.973
 30
1734.718
 70
    32
  0
VERTEX
  8
T35SSILL
 62
8
 10
3785.403
 20
-5655.206
 30
1734.658
 70
    32
  0
VERTEX
  8
T35SSILL
 62
8
 10
3779.505
 20
-5647.183
 30
1734.636
 70
    32
  0
VERTEX
  8
T35SSILL
 62
8
 10
3777.394
 20
-5642.159
 30
1734.621
 70
    32
  0
VERTEX
  8
T35SSILL
 62
8
 10
3771.139
 20
-5639.511
 30
1734.617
 70
    32
  0
VERTEX
  8
T35SSILL
 62
8
 10
3760.839
 20
-5625.140
 30
1734.577
 70
    32
  0
VERTEX
  8
T35SSILL
 62
8
 10
3724.615
 20
-5508.618
 30
1734.247
 70
    32
  0
VERTEX
  8
T35SSILL
 62
8
 10
3726.562
 20
-5497.252
 30
1734.207
 70
    32
  0
VERTEX
  8
T35SSILL
 62
8
 10
3715.822
 20
-5481.823
 30
1734.143
 70
    32
  0
VERTEX
  8
T35SSILL
 62
8
 10
3707.628
 20
-5480.143
 30
1734.132
 70
    32
  0
VERTEX
  8
T35SSILL
 62
8
 10
3599.642
 20
-5407.984
 30
1733.796
 70
    32
  0
VERTEX
  8
T35SSILL
 62
8
 10
3450.947
 20
-5206.434
 30
1733.403
 70
    32
  0
VERTEX
  8
T35SSILL
 62
8
 10
3450.333
 20
-5202.115
 30
1733.410
 70
    32
  0
VERTEX
  8
T35SSILL
 62
8
 10
3473.175
 20
-5202.059
 30
1733.223
 70
    32
  0
VERTEX
  8
T35SSILL
 62
8
 10
3488.546
 20
-5210.279
 30
1733.092
 70
    32
  0
VERTEX
  8
T35SSILL
 62
8
 10
3514.239
 20
-5210.010
 30
1732.882
 70
    32
  0
VERTEX
  8
T35SSILL
 62
8
 10
3514.197
 20
-5213.185
 30
1732.880
 70
    32
  0
VERTEX
  8
T35SSILL
 62
8
 10
3533.958
 20
-5213.378
 30
1732.972
 70
    32
  0
VERTEX
  8
T35SSILL
 62
8
 10
3533.765
 20
-5192.278
 30
1732.904
 70
    32
  0
VERTEX
  8
T35SSILL
 62
8
 10
3514.155
 20
-5192.709
 30
1732.892
 70
    32
  0
VERTEX
  8
T35SSILL
 62
8
 10
3513.871
 20
-5201.787
 30
1732.889
 70
    32
  0
VERTEX
  8
T35SSILL
 62
8
 10
3495.950
 20
-5202.386
 30
1733.036
 70
    32
  0
VERTEX
  8
T35SSILL
 62
8
 10
3495.959
 20
-5191.196
 30
1733.042
 70
    32
  0
VERTEX
  8
T35SSILL
 62
8
 10
3487.865
 20
-5191.286
 30
1733.109
 70
    32
  0
VERTEX
  8
T35SSILL
 62
8
 10
3487.889
 20
-5195.861
 30
1733.106
 70
    32
  0
VERTEX
  8
T35SSILL
 62
8
 10
3450.235
 20
-5195.202
 30
1733.415
 70
    32
  0
VERTEX
  8
T35SSILL
 62
8
 10
3402.302
 20
-5019.378
 30
1732.724
 70
    32
  0
VERTEX
  8
T35SSILL
 62
8
 10
3437.139
 20
-4994.155
 30
1732.662
 70
    32
  0
VERTEX
  8
T35SSILL
 62
8
 10
3455.651
 20
-5018.005
 30
1732.784
 70
    32
  0
VERTEX
  8
T35SSILL
 62
8
 10
3454.226
 20
-5019.661
 30
1732.789
 70
    32
  0
VERTEX
  8
T35SSILL
 62
8
 10
3458.037
 20
-5025.331
 30
1732.818
 70
    32
  0
VERTEX
  8
T35SSILL
 62
8
 10
3461.373
 20
-5039.748
 30
1732.882
 70
    32
  0
VERTEX
  8
T35SSILL
 62
8
 10
3469.037
 20
-5055.565
 30
1732.957
 70
    32
  0
VERTEX
  8
T35SSILL
 62
8
 10
3473.145
 20
-5060.852
 30
1732.984
 70
    32
  0
VERTEX
  8
T35SSILL
 62
8
 10
3527.916
 20
-5102.549
 30
1732.830
 70
    32
  0
VERTEX
  8
T35SSILL
 62
8
 10
3559.094
 20
-5136.041
 30
1732.883
 70
    32
  0
VERTEX
  8
T35SSILL
 62
8
 10
3566.134
 20
-5151.503
 30
1732.976
 70
    32
  0
VERTEX
  8
T35SSILL
 62
8
 10
3579.812
 20
-5195.349
 30
1733.186
 70
    32
  0
VERTEX
  8
T35SSILL
 62
8
 10
3592.789
 20
-5230.746
 30
1733.321
 70
    32
  0
VERTEX
  8
T35SSILL
 62
8
 10
3611.043
 20
-5258.024
 30
1733.447
 70
    32
  0
VERTEX
  8
T35SSILL
 62
8
 10
3618.115
 20
-5278.675
 30
1733.492
 70
    32
  0
VERTEX
  8
T35SSILL
 62
8
 10
3627.675
 20
-5288.890
 30
1733.512
 70
    32
  0
VERTEX
  8
T35SSILL
 62
8
 10
3639.014
 20
-5281.101
 30
1733.503
 70
    32
  0
VERTEX
  8
T35SSILL
 62
8
 10
3635.280
 20
-5276.840
 30
1733.495
 70
    32
  0
VERTEX
  8
T35SSILL
 62
8
 10
3629.367
 20
-5281.174
 30
1733.500
 70
    32
  0
VERTEX
  8
T35SSILL
 62
8
 10
3626.560
 20
-5278.239
 30
1733.494
 70
    32
  0
VERTEX
  8
T35SSILL
 62
8
 10
3620.802
 20
-5266.131
 30
1733.473
 70
    32
  0
VERTEX
  8
T35SSILL
 62
8
 10
3616.119
 20
-5252.101
 30
1733.444
 70
    32
  0
VERTEX
  8
T35SSILL
 62
8
 10
3598.452
 20
-5227.467
 30
1733.327
 70
    32
  0
VERTEX
  8
T35SSILL
 62
8
 10
3569.450
 20
-5137.736
 30
1732.953
 70
    32
  0
VERTEX
  8
T35SSILL
 62
8
 10
3535.348
 20
-5099.941
 30
1732.771
 70
    32
  0
VERTEX
  8
T35SSILL
 62
8
 10
3494.638
 20
-5066.147
 30
1733.033
 70
    32
  0
VERTEX
  8
T35SSILL
 62
8
 10
3477.094
 20
-5048.482
 30
1732.937
 70
    32
  0
VERTEX
  8
T35SSILL
 62
8
 10
3473.570
 20
-5041.895
 30
1732.906
 70
    32
  0
VERTEX
  8
T35SSILL
 62
8
 10
3471.130
 20
-5032.528
 30
1732.864
 70
    32
  0
VERTEX
  8
T35SSILL
 62
8
 10
3461.095
 20
-5016.848
 30
1732.786
 70
    32
  0
VERTEX
  8
T35SSILL
 62
8
 10
3462.653
 20
-5013.294
 30
1732.773
 70
    32
  0
VERTEX
  8
T35SSILL
 62
8
 10
3452.679
 20
-4996.116
 30
1732.689
 70
    32
  0
VERTEX
  8
T35SSILL
 62
8
 10
3449.898
 20
-4986.471
 30
1732.646
 70
    32
  0
VERTEX
  8
T35SSILL
 62
8
 10
3492.864
 20
-4955.407
 30
1732.569
 70
    32
  0
VERTEX
  8
T35SSILL
 62
8
 10
3499.798
 20
-4965.201
 30
1732.618
 70
    32
  0
VERTEX
  8
T35SSILL
 62
8
 10
3504.661
 20
-4961.686
 30
1732.610
 70
    32
  0
VERTEX
  8
T35SSILL
 62
8
 10
3501.194
 20
-4956.789
 30
1732.585
 70
    32
  0
VERTEX
  8
T35SSILL
 62
8
 10
3520.644
 20
-4942.726
 30
1732.550
 70
    32
  0
VERTEX
  8
T35SSILL
 62
8
 10
3517.177
 20
-4937.829
 30
1732.526
 70
    32
  0
VERTEX
  8
T35SSILL
 62
8
 10
3539.710
 20
-4921.538
 30
1732.485
 70
    32
  0
VERTEX
  8
T35SSILL
 62
8
 10
3549.347
 20
-4934.936
 30
1732.553
 70
    32
  0
VERTEX
  8
T35SSILL
 62
8
 10
3546.298
 20
-4940.161
 30
1732.571
 70
    32
  0
VERTEX
  8
T35SSILL
 62
8
 10
3553.075
 20
-4947.887
 30
1732.612
 70
    32
  0
VERTEX
  8
T35SSILL
 62
8
 10
3563.723
 20
-4963.659
 30
1732.615
 70
    32
  0
VERTEX
  8
T35SSILL
 62
8
 10
3566.201
 20
-4970.371
 30
1732.591
 70
    32
  0
VERTEX
  8
T35SSILL
 62
8
 10
3568.643
 20
-4988.604
 30
1732.560
 70
    32
  0
VERTEX
  8
T35SSILL
 62
8
 10
3573.309
 20
-4988.215
 30
1732.522
 70
    32
  0
VERTEX
  8
T35SSILL
 62
8
 10
3575.665
 20
-4989.912
 30
1732.523
 70
    32
  0
VERTEX
  8
T35SSILL
 62
8
 10
3578.317
 20
-4988.709
 30
1732.535
 70
    32
  0
VERTEX
  8
T35SSILL
 62
8
 10
3592.779
 20
-5009.712
 30
1732.692
 70
    32
  0
VERTEX
  8
T35SSILL
 62
8
 10
3596.677
 20
-5007.115
 30
1732.698
 70
    32
  0
VERTEX
  8
T35SSILL
 62
8
 10
3602.289
 20
-5008.759
 30
1732.718
 70
    32
  0
VERTEX
  8
T35SSILL
 62
8
 10
3618.567
 20
-5000.139
 30
1732.737
 70
    32
  0
VERTEX
  8
T35SSILL
 62
8
 10
3622.596
 20
-4993.586
 30
1732.729
 70
    32
  0
VERTEX
  8
T35SSILL
 62
8
 10
3621.234
 20
-4989.349
 30
1732.714
 70
    32
  0
VERTEX
  8
T35SSILL
 62
8
 10
3664.224
 20
-4958.853
 30
1732.742
 70
    32
  0
VERTEX
  8
T35SSILL
 62
8
 10
3673.494
 20
-4960.255
 30
1732.771
 70
    32
  0
VERTEX
  8
T35SSILL
 62
8
 10
3694.558
 20
-4989.374
 30
1732.910
 70
    32
  0
VERTEX
  8
T35SSILL
 62
8
 10
3644.867
 20
-5024.437
 30
1732.876
 70
    32
  0
VERTEX
  8
T35SSILL
 62
8
 10
3648.758
 20
-5030.636
 30
1732.904
 70
    32
  0
VERTEX
  8
T35SSILL
 62
8
 10
3650.905
 20
-5029.139
 30
1732.906
 70
    32
  0
VERTEX
  8
T35SSILL
 62
8
 10
3654.012
 20
-5034.385
 30
1732.929
 70
    32
  0
VERTEX
  8
T35SSILL
 62
8
 10
3660.126
 20
-5030.056
 30
1732.933
 70
    32
  0
VERTEX
  8
T35SSILL
 62
8
 10
3656.725
 20
-5025.083
 30
1732.910
 70
    32
  0
VERTEX
  8
T35SSILL
 62
8
 10
3699.052
 20
-4995.587
 30
1732.940
 70
    32
  0
VERTEX
  8
T35SSILL
 62
8
 10
3720.575
 20
-5025.341
 30
1733.082
 70
    32
  0
VERTEX
  8
T35SSILL
 62
8
 10
3718.935
 20
-5034.931
 30
1733.104
 70
    32
  0
VERTEX
  8
T35SSILL
 62
8
 10
3673.030
 20
-5069.672
 30
1733.080
 70
    32
  0
VERTEX
  8
T35SSILL
 62
8
 10
3676.976
 20
-5074.600
 30
1733.104
 70
    32
  0
VERTEX
  8
T35SSILL
 62
8
 10
3684.834
 20
-5068.836
 30
1733.109
 70
    32
  0
VERTEX
  8
T35SSILL
 62
8
 10
3687.875
 20
-5073.439
 30
1733.130
 70
    32
  0
VERTEX
  8
T35SSILL
 62
8
 10
3694.786
 20
-5068.591
 30
1733.135
 70
    32
  0
VERTEX
  8
T35SSILL
 62
8
 10
3691.360
 20
-5064.048
 30
1733.113
 70
    32
  0
VERTEX
  8
T35SSILL
 62
8
 10
3728.739
 20
-5036.627
 30
1733.135
 70
    32
  0
VERTEX
  8
T35SSILL
 62
8
 10
3753.303
 20
-5070.584
 30
1733.203
 70
    32
  0
VERTEX
  8
T35SSILL
 62
8
 10
3726.723
 20
-5090.342
 30
1733.226
 70
    32
  0
VERTEX
  8
T35SSILL
 62
8
 10
3724.473
 20
-5087.466
 30
1733.220
 70
    32
  0
VERTEX
  8
T35SSILL
 62
8
 10
3718.622
 20
-5091.886
 30
1733.226
 70
    32
  0
VERTEX
  8
T35SSILL
 62
8
 10
3720.602
 20
-5094.892
 30
1733.231
 70
    32
  0
VERTEX
  8
T35SSILL
 62
8
 10
3717.073
 20
-5097.515
 30
1733.234
 70
    32
  0
VERTEX
  8
T35SSILL
 62
8
 10
3721.783
 20
-5103.180
 30
1733.245
 70
    32
  0
VERTEX
  8
T35SSILL
 62
8
 10
3795.433
 20
-5050.426
 30
1733.186
 70
    32
  0
VERTEX
  8
T35SSILL
 62
8
 10
3900.899
 20
-5061.108
 30
1733.240
 70
    32
  0
VERTEX
  8
T35SSILL
 62
8
 10
4043.085
 20
-5258.718
 30
1733.609
 70
    32
  0
VERTEX
  8
T35SSILL
 62
8
 10
4048.241
 20
-5255.664
 30
1733.606
 70
    32
  0
VERTEX
  8
T35SSILL
 62
8
 10
3980.818
 20
-5162.232
 30
1733.431
 70
    32
  0
VERTEX
  8
T35SSILL
 62
8
 10
3985.256
 20
-5158.886
 30
1733.427
 70
    32
  0
VERTEX
  8
T35SSILL
 62
8
 10
3981.193
 20
-5152.512
 30
1733.416
 70
    32
  0
VERTEX
  8
T35SSILL
 62
8
 10
3976.470
 20
-5156.207
 30
1733.420
 70
    32
  0
VERTEX
  8
T35SSILL
 62
8
 10
3957.329
 20
-5129.682
 30
1733.370
 70
    32
  0
VERTEX
  8
T35SSILL
 62
8
 10
3963.913
 20
-5124.629
 30
1733.364
 70
    32
  0
VERTEX
  8
T35SSILL
 62
8
 10
3960.359
 20
-5119.930
 30
1733.356
 70
    32
  0
VERTEX
  8
T35SSILL
 62
8
 10
3953.569
 20
-5124.472
 30
1733.361
 70
    32
  0
VERTEX
  8
T35SSILL
 62
8
 10
3927.160
 20
-5087.875
 30
1733.292
 70
    32
  0
VERTEX
  8
T35SSILL
 62
8
 10
3931.639
 20
-5084.977
 30
1733.289
 70
    32
  0
VERTEX
  8
T35SSILL
 62
8
 10
3927.487
 20
-5078.777
 30
1733.278
 70
    32
  0
VERTEX
  8
T35SSILL
 62
8
 10
3922.931
 20
-5082.015
 30
1733.281
 70
    32
  0
VERTEX
  8
T35SSILL
 62
8
 10
3896.807
 20
-5045.813
 30
1733.214
 70
    32
  0
VERTEX
  8
T35SSILL
 62
8
 10
3904.256
 20
-5040.279
 30
1733.207
 70
    32
  0
VERTEX
  8
T35SSILL
 62
8
 10
3900.700
 20
-5035.756
 30
1733.199
 70
    32
  0
VERTEX
  8
T35SSILL
 62
8
 10
3893.284
 20
-5040.932
 30
1733.204
 70
    32
  0
VERTEX
  8
T35SSILL
 62
8
 10
3880.229
 20
-5022.841
 30
1733.171
 70
    32
  0
VERTEX
  8
T35SSILL
 62
8
 10
3952.606
 20
-4971.005
 30
1733.102
 70
    32
  0
VERTEX
  8
T35SSILL
 62
8
 10
3949.005
 20
-4964.150
 30
1733.090
 70
    32
  0
VERTEX
  8
T35SSILL
 62
8
 10
3929.323
 20
-4938.367
 30
1733.045
 70
    32
  0
VERTEX
  8
T35SSILL
 62
8
 10
3922.054
 20
-4919.800
 30
1733.011
 70
    32
  0
VERTEX
  8
T35SSILL
 62
8
 10
3914.476
 20
-4923.814
 30
1733.021
 70
    32
  0
VERTEX
  8
T35SSILL
 62
8
 10
3911.182
 20
-4916.853
 30
1733.008
 70
    32
  0
VERTEX
  8
T35SSILL
 62
8
 10
3914.261
 20
-4914.645
 30
1733.003
 70
    32
  0
VERTEX
  8
T35SSILL
 62
8
 10
3907.229
 20
-4904.986
 30
1732.987
 70
    32
  0
VERTEX
  8
T35SSILL
 62
8
 10
3897.208
 20
-4884.424
 30
1732.949
 70
    32
  0
VERTEX
  8
T35SSILL
 62
8
 10
3891.563
 20
-4868.057
 30
1732.919
 70
    32
  0
VERTEX
  8
T35SSILL
 62
8
 10
3873.404
 20
-4826.968
 30
1732.845
 70
    32
  0
VERTEX
  8
T35SSILL
 62
8
 10
3868.390
 20
-4830.580
 30
1732.853
 70
    32
  0
VERTEX
  8
T35SSILL
 62
8
 10
3860.255
 20
-4817.096
 30
1732.829
 70
    32
  0
VERTEX
  8
T35SSILL
 62
8
 10
3937.590
 20
-4762.729
 30
1732.775
 70
    32
  0
VERTEX
  8
T35SSILL
 62
8
 10
3951.876
 20
-4784.496
 30
1732.788
 70
    32
  0
VERTEX
  8
T35SSILL
 62
8
 10
3957.604
 20
-4780.406
 30
1732.784
 70
    32
  0
VERTEX
  8
T35SSILL
 62
8
 10
3943.022
 20
-4758.372
 30
1732.772
 70
    32
  0
VERTEX
  8
T35SSILL
 62
8
 10
3953.804
 20
-4750.675
 30
1732.766
 70
    32
  0
VERTEX
  8
T35SSILL
 62
8
 10
3948.795
 20
-4743.181
 30
1732.761
 70
    32
  0
VERTEX
  8
T35SSILL
 62
8
 10
3938.064
 20
-4751.187
 30
1732.767
 70
    32
  0
VERTEX
  8
T35SSILL
 62
8
 10
3923.639
 20
-4728.913
 30
1732.754
 70
    32
  0
VERTEX
  8
T35SSILL
 62
8
 10
3337.178
 20
-4472.522
 30
1732.384
 70
    32
  0
VERTEX
  8
T35SSILL
 62
8
 10
3200.926
 20
-4279.563
 30
1732.284
 70
    32
  0
VERTEX
  8
T35SSILL
 62
8
 10
3212.342
 20
-4255.188
 30
1732.278
 70
    32
  0
VERTEX
  8
T35SSILL
 62
8
 10
3219.669
 20
-4258.208
 30
1732.281
 70
    32
  0
VERTEX
  8
T35SSILL
 62
8
 10
3226.416
 20
-4243.900
 30
1732.277
 70
    32
  0
VERTEX
  8
T35SSILL
 62
8
 10
3225.324
 20
-4239.510
 30
1732.275
 70
    32
  0
VERTEX
  8
T35SSILL
 62
8
 10
3221.350
 20
-4237.695
 30
1732.274
 70
    32
  0
VERTEX
  8
T35SSILL
 62
8
 10
3949.659
 20
-2754.860
 30
1732.385
 70
    32
  0
VERTEX
  8
T35SSILL
 62
8
 10
3980.827
 20
-2729.502
 30
1732.260
 70
    32
  0
VERTEX
  8
T35SSILL
 62
8
 10
3975.234
 20
-2721.638
 30
1732.277
 70
    32
  0
VERTEX
  8
T35SSILL
 62
8
 10
3965.639
 20
-2730.671
 30
1732.317
 70
    32
  0
VERTEX
  8
T35SSILL
 62
8
 10
3963.144
 20
-2725.946
 30
1732.324
 70
    32
  0
VERTEX
  8
T35SSILL
 62
8
 10
3942.200
 20
-2592.028
 30
1731.344
 70
    32
  0
VERTEX
  8
T35SSILL
 62
8
 10
3995.976
 20
-2548.783
 30
1731.426
 70
    32
  0
VERTEX
  8
T35SSILL
 62
8
 10
3987.159
 20
-2537.872
 30
1731.286
 70
    32
  0
VERTEX
  8
T35SSILL
 62
8
 10
3995.231
 20
-2531.572
 30
1731.291
 70
    32
  0
VERTEX
  8
T35SSILL
 62
8
 10
3990.881
 20
-2525.455
 30
1731.296
 70
    32
  0
VERTEX
  8
T35SSILL
 62
8
 10
3999.783
 20
-2517.746
 30
1731.288
 70
    32
  0
VERTEX
  8
T35SSILL
 62
8
 10
3993.838
 20
-2509.885
 30
1731.312
 70
    32
  0
VERTEX
  8
T35SSILL
 62
8
 10
3982.050
 20
-2519.285
 30
1731.324
 70
    32
  0
VERTEX
  8
T35SSILL
 62
8
 10
3960.502
 20
-2492.480
 30
1731.408
 70
    32
  0
VERTEX
  8
T35SSILL
 62
8
 10
3927.494
 20
-2498.002
 30
1731.470
 70
    32
  0
VERTEX
  8
T35SSILL
 62
8
 10
3920.146
 20
-2451.016
 30
1731.553
 70
    32
  0
VERTEX
  8
T35SSILL
 62
8
 10
3910.562
 20
-2451.572
 30
1731.573
 70
    32
  0
VERTEX
  8
T35SSILL
 62
8
 10
3919.591
 20
-2509.121
 30
1731.470
 70
    32
  0
VERTEX
  8
T35SSILL
 62
8
 10
3913.549
 20
-2509.789
 30
1731.482
 70
    32
  0
VERTEX
  8
T35SSILL
 62
8
 10
3914.389
 20
-2516.283
 30
1731.471
 70
    32
  0
VERTEX
  8
T35SSILL
 62
8
 10
3920.600
 20
-2515.555
 30
1731.459
 70
    32
  0
VERTEX
  8
T35SSILL
 62
8
 10
3953.852
 20
-2728.564
 30
1732.300
 70
    32
  0
VERTEX
  8
T35SSILL
 62
8
 10
3824.794
 20
-2993.681
 30
1732.280
 70
    32
  0
VERTEX
  8
T35SSILL
 62
8
 10
3580.100
 20
-3489.638
 30
1732.179
 70
    32
  0
VERTEX
  8
T35SSILL
 62
8
 10
3225.635
 20
-4212.673
 30
1732.266
 70
    32
  0
VERTEX
  8
T35SSILL
 62
8
 10
3219.456
 20
-4220.993
 30
1732.268
 70
    32
  0
VERTEX
  8
T35SSILL
 62
8
 10
3204.939
 20
-4231.933
 30
1732.251
 70
    32
  0
VERTEX
  8
T35SSILL
 62
8
 10
3196.673
 20
-4232.439
 30
1732.229
 70
    32
  0
VERTEX
  8
T35SSILL
 62
8
 10
3195.743
 20
-4226.200
 30
1732.216
 70
    32
  0
VERTEX
  8
T35SSILL
 62
8
 10
3187.130
 20
-4227.326
 30
1732.194
 70
    32
  0
VERTEX
  8
T35SSILL
 62
8
 10
3172.520
 20
-4226.740
 30
1732.153
 70
    32
  0
VERTEX
  8
T35SSILL
 62
8
 10
3169.717
 20
-4228.258
 30
1732.148
 70
    32
  0
VERTEX
  8
T35SSILL
 62
8
 10
3167.805
 20
-4231.177
 30
1732.147
 70
    32
  0
VERTEX
  8
T35SSILL
 62
8
 10
3163.568
 20
-4229.540
 30
1732.133
 70
    32
  0
VERTEX
  8
T35SSILL
 62
8
 10
3159.833
 20
-4224.555
 30
1732.114
 70
    32
  0
VERTEX
  8
T35SSILL
 62
8
 10
3162.113
 20
-4223.657
 30
1732.119
 70
    32
  0
VERTEX
  8
T35SSILL
 62
8
 10
3163.216
 20
-4218.633
 30
1732.114
 70
    32
  0
VERTEX
  8
T35SSILL
 62
8
 10
3156.799
 20
-4208.391
 30
1732.080
 70
    32
  0
VERTEX
  8
T35SSILL
 62
8
 10
3147.311
 20
-4188.408
 30
1732.021
 70
    32
  0
VERTEX
  8
T35SSILL
 62
8
 10
3133.585
 20
-4177.434
 30
1731.966
 70
    32
  0
VERTEX
  8
T35SSILL
 62
8
 10
3126.370
 20
-4166.494
 30
1731.928
 70
    32
  0
VERTEX
  8
T35SSILL
 62
8
 10
3111.066
 20
-4156.324
 30
1731.869
 70
    32
  0
VERTEX
  8
T35SSILL
 62
8
 10
2899.202
 20
-3848.466
 30
1731.624
 70
    32
  0
VERTEX
  8
T35SSILL
 62
8
 10
2910.509
 20
-3841.937
 30
1731.630
 70
    32
  0
VERTEX
  8
T35SSILL
 62
8
 10
2887.591
 20
-3808.230
 30
1731.818
 70
    32
  0
VERTEX
  8
T35SSILL
 62
8
 10
2882.531
 20
-3802.640
 30
1731.851
 70
    32
  0
VERTEX
  8
T35SSILL
 62
8
 10
2852.133
 20
-3775.524
 30
1732.025
 70
    32
  0
VERTEX
  8
T35SSILL
 62
8
 10
2747.234
 20
-3728.951
 30
1732.423
 70
    32
  0
VERTEX
  8
T35SSILL
 62
8
 10
2743.327
 20
-3735.405
 30
1732.403
 70
    32
  0
VERTEX
  8
T35SSILL
 62
8
 10
2845.938
 20
-3781.821
 30
1732.010
 70
    32
  0
VERTEX
  8
T35SSILL
 62
8
 10
2849.964
 20
-3790.058
 30
1731.967
 70
    32
  0
VERTEX
  8
T35SSILL
 62
8
 10
2860.069
 20
-3821.122
 30
1731.815
 70
    32
  0
VERTEX
  8
T35SSILL
 62
8
 10
2878.963
 20
-3850.971
 30
1731.651
 70
    32
  0
VERTEX
  8
T35SSILL
 62
8
 10
2841.354
 20
-4030.758
 30
1731.498
 70
    32
  0
VERTEX
  8
T35SSILL
 62
8
 10
2477.105
 20
-4291.053
 30
1732.636
 70
    32
  0
VERTEX
  8
T35SSILL
 62
8
 10
2218.131
 20
-4477.943
 30
1732.976
 70
    32
  0
VERTEX
  8
T35SSILL
 62
8
 10
2209.088
 20
-4480.592
 30
1733.008
 70
    32
  0
VERTEX
  8
T35SSILL
 62
8
 10
2203.177
 20
-4479.597
 30
1733.042
 70
    32
  0
VERTEX
  8
T35SSILL
 62
8
 10
2200.207
 20
-4473.551
 30
1733.087
 70
    32
  0
VERTEX
  8
T35SSILL
 62
8
 10
2194.269
 20
-4469.915
 30
1733.134
 70
    32
  0
VERTEX
  8
T35SSILL
 62
8
 10
2178.139
 20
-4468.675
 30
1733.220
 70
    32
  0
VERTEX
  8
T35SSILL
 62
8
 10
1462.847
 20
-4031.816
 30
1735.111
 70
    32
  0
VERTEX
  8
T35SSILL
 62
8
 10
1465.042
 20
-4028.388
 30
1735.104
 70
    32
  0
VERTEX
  8
T35SSILL
 62
8
 10
1458.483
 20
-4024.298
 30
1735.117
 70
    32
  0
VERTEX
  8
T35SSILL
 62
8
 10
1456.427
 20
-4027.899
 30
1735.125
 70
    32
  0
VERTEX
  8
T35SSILL
 62
8
 10
1334.054
 20
-3954.380
 30
1735.384
 70
    32
  0
VERTEX
  8
T35SSILL
 62
8
 10
1336.605
 20
-3950.201
 30
1735.375
 70
    32
  0
VERTEX
  8
T35SSILL
 62
8
 10
1330.210
 20
-3946.323
 30
1735.389
 70
    32
  0
VERTEX
  8
T35SSILL
 62
8
 10
1327.634
 20
-3950.523
 30
1735.398
 70
    32
  0
VERTEX
  8
T35SSILL
 62
8
 10
1102.782
 20
-3815.438
 30
1735.838
 70
    32
  0
VERTEX
  8
T35SSILL
 62
8
 10
1099.332
 20
-3820.384
 30
1735.854
 70
    32
  0
VERTEX
  8
T35SSILL
 62
8
 10
1113.460
 20
-3829.706
 30
1735.829
 70
    32
  0
VERTEX
  8
T35SSILL
 62
8
 10
1105.305
 20
-3832.372
 30
1735.855
 70
    32
  0
VERTEX
  8
T35SSILL
 62
8
 10
1016.617
 20
-3895.501
 30
1735.838
 70
    32
  0
VERTEX
  8
T35SSILL
 62
8
 10
899.667
 20
-3911.865
 30
1735.765
 70
    32
  0
VERTEX
  8
T35SSILL
 62
8
 10
900.188
 20
-3919.588
 30
1735.755
 70
    32
  0
VERTEX
  8
T35SSILL
 62
8
 10
1005.549
 20
-3903.408
 30
1735.815
 70
    32
  0
VERTEX
  8
T35SSILL
 62
8
 10
911.947
 20
-3970.280
 30
1735.695
 70
    32
  0
VERTEX
  8
T35SSILL
 62
8
 10
916.002
 20
-3975.607
 30
1735.690
 70
    32
  0
VERTEX
  8
T35SSILL
 62
8
 10
953.908
 20
-3948.625
 30
1735.738
 70
    32
  0
VERTEX
  8
T35SSILL
 62
8
 10
957.553
 20
-3953.905
 30
1735.733
 70
    32
  0
VERTEX
  8
T35SSILL
 62
8
 10
963.266
 20
-3949.772
 30
1735.740
 70
    32
  0
VERTEX
  8
T35SSILL
 62
8
 10
959.409
 20
-3944.710
 30
1735.745
 70
    32
  0
VERTEX
  8
T35SSILL
 62
8
 10
967.409
 20
-3939.015
 30
1735.756
 70
    32
  0
VERTEX
  8
T35SSILL
 62
8
 10
972.361
 20
-3966.022
 30
1735.723
 70
    32
  0
VERTEX
  8
T35SSILL
 62
8
 10
975.435
 20
-3970.237
 30
1735.719
 70
    32
  0
VERTEX
  8
T35SSILL
 62
8
 10
970.625
 20
-3973.526
 30
1735.713
 70
    32
  0
VERTEX
  8
T35SSILL
 62
8
 10
974.745
 20
-3979.804
 30
1735.706
 70
    32
  0
VERTEX
  8
T35SSILL
 62
8
 10
979.797
 20
-3976.217
 30
1735.713
 70
    32
  0
VERTEX
  8
T35SSILL
 62
8
 10
997.644
 20
-4000.686
 30
1735.688
 70
    32
  0
VERTEX
  8
T35SSILL
 62
8
 10
953.405
 20
-4032.152
 30
1735.632
 70
    32
  0
VERTEX
  8
T35SSILL
 62
8
 10
957.267
 20
-4037.515
 30
1735.626
 70
    32
  0
VERTEX
  8
T35SSILL
 62
8
 10
978.480
 20
-4022.356
 30
1735.653
 70
    32
  0
VERTEX
  8
T35SSILL
 62
8
 10
982.341
 20
-4027.421
 30
1735.648
 70
    32
  0
VERTEX
  8
T35SSILL
 62
8
 10
987.584
 20
-4023.979
 30
1735.655
 70
    32
  0
VERTEX
  8
T35SSILL
 62
8
 10
983.961
 20
-4018.439
 30
1735.660
 70
    32
  0
VERTEX
  8
T35SSILL
 62
8
 10
1012.027
 20
-3998.383
 30
1735.686
 70
    32
  0
VERTEX
  8
T35SSILL
 62
8
 10
1015.399
 20
-4003.775
 30
1735.677
 70
    32
  0
VERTEX
  8
T35SSILL
 62
8
 10
1021.726
 20
-3999.285
 30
1735.679
 70
    32
  0
VERTEX
  8
T35SSILL
 62
8
 10
1018.005
 20
-3994.110
 30
1735.688
 70
    32
  0
VERTEX
  8
T35SSILL
 62
8
 10
1145.739
 20
-3902.828
 30
1735.826
 70
    32
  0
VERTEX
  8
T35SSILL
 62
8
 10
1149.931
 20
-3908.435
 30
1735.818
 70
    32
  0
VERTEX
  8
T35SSILL
 62
8
 10
1155.594
 20
-3904.672
 30
1735.802
 70
    32
  0
VERTEX
  8
T35SSILL
 62
8
 10
1151.521
 20
-3898.696
 30
1735.808
 70
    32
  0
VERTEX
  8
T35SSILL
 62
8
 10
1174.881
 20
-3882.027
 30
1735.737
 70
    32
  0
VERTEX
  8
T35SSILL
 62
8
 10
1180.604
 20
-3879.219
 30
1735.717
 70
    32
  0
VERTEX
  8
T35SSILL
 62
8
 10
1185.672
 20
-3878.461
 30
1735.702
 70
    32
  0
VERTEX
  8
T35SSILL
 62
8
 10
1197.155
 20
-3880.457
 30
1735.674
 70
    32
  0
VERTEX
  8
T35SSILL
 62
8
 10
1215.604
 20
-3891.636
 30
1735.639
 70
    32
  0
VERTEX
  8
T35SSILL
 62
8
 10
1209.360
 20
-3896.711
 30
1735.661
 70
    32
  0
VERTEX
  8
T35SSILL
 62
8
 10
1213.510
 20
-3902.301
 30
1735.654
 70
    32
  0
VERTEX
  8
T35SSILL
 62
8
 10
1222.678
 20
-3895.923
 30
1735.626
 70
    32
  0
VERTEX
  8
T35SSILL
 62
8
 10
1259.014
 20
-3917.941
 30
1735.549
 70
    32
  0
VERTEX
  8
T35SSILL
 62
8
 10
1248.190
 20
-3921.753
 30
1735.579
 70
    32
  0
VERTEX
  8
T35SSILL
 62
8
 10
1133.604
 20
-4004.340
 30
1735.706
 70
    32
  0
VERTEX
  8
T35SSILL
 62
8
 10
1087.181
 20
-3996.729
 30
1735.693
 70
    32
  0
VERTEX
  8
T35SSILL
 62
8
 10
1073.602
 20
-3997.215
 30
1735.680
 70
    32
  0
VERTEX
  8
T35SSILL
 62
8
 10
1063.625
 20
-4001.268
 30
1735.663
 70
    32
  0
VERTEX
  8
T35SSILL
 62
8
 10
1032.328
 20
-4023.834
 30
1735.640
 70
    32
  0
VERTEX
  8
T35SSILL
 62
8
 10
1029.586
 20
-4019.881
 30
1735.647
 70
    32
  0
VERTEX
  8
T35SSILL
 62
8
 10
1023.384
 20
-4024.393
 30
1735.645
 70
    32
  0
VERTEX
  8
T35SSILL
 62
8
 10
1026.181
 20
-4028.267
 30
1735.638
 70
    32
  0
VERTEX
  8
T35SSILL
 62
8
 10
997.656
 20
-4048.834
 30
1735.627
 70
    32
  0
VERTEX
  8
T35SSILL
 62
8
 10
1001.808
 20
-4055.305
 30
1735.617
 70
    32
  0
VERTEX
  8
T35SSILL
 62
8
 10
1065.967
 20
-4008.562
 30
1735.650
 70
    32
  0
VERTEX
  8
T35SSILL
 62
8
 10
1070.412
 20
-4006.839
 30
1735.657
 70
    32
  0
VERTEX
  8
T35SSILL
 62
8
 10
1082.090
 20
-4004.148
 30
1735.673
 70
    32
  0
VERTEX
  8
T35SSILL
 62
8
 10
1087.552
 20
-4004.196
 30
1735.678
 70
    32
  0
VERTEX
  8
T35SSILL
 62
8
 10
1125.294
 20
-4010.002
 30
1735.700
 70
    32
  0
VERTEX
  8
T35SSILL
 62
8
 10
1008.062
 20
-4094.493
 30
1735.561
 70
    32
  0
VERTEX
  8
T35SSILL
 62
8
 10
1011.907
 20
-4099.979
 30
1735.552
 70
    32
  0
VERTEX
  8
T35SSILL
 62
8
 10
1043.406
 20
-4077.396
 30
1735.563
 70
    32
  0
VERTEX
  8
T35SSILL
 62
8
 10
1048.820
 20
-4085.468
 30
1735.549
 70
    32
  0
VERTEX
  8
T35SSILL
 62
8
 10
1055.356
 20
-4080.812
 30
1735.551
 70
    32
  0
VERTEX
  8
T35SSILL
 62
8
 10
1049.588
 20
-4072.964
 30
1735.565
 70
    32
  0
VERTEX
  8
T35SSILL
 62
8
 10
1191.645
 20
-3971.116
 30
1735.711
 70
    32
  0
VERTEX
  8
T35SSILL
 62
8
 10
1196.157
 20
-3977.678
 30
1735.698
 70
    32
  0
VERTEX
  8
T35SSILL
 62
8
 10
1201.411
 20
-3973.668
 30
1735.700
 70
    32
  0
VERTEX
  8
T35SSILL
 62
8
 10
1196.843
 20
-3967.389
 30
1735.713
 70
    32
  0
VERTEX
  8
T35SSILL
 62
8
 10
1254.390
 20
-3926.553
 30
1735.567
 70
    32
  0
VERTEX
  8
T35SSILL
 62
8
 10
1263.009
 20
-3924.642
 30
1735.544
 70
    32
  0
VERTEX
  8
T35SSILL
 62
8
 10
1273.064
 20
-3926.507
 30
1735.520
 70
    32
  0
VERTEX
  8
T35SSILL
 62
8
 10
1347.009
 20
-3971.285
 30
1735.363
 70
    32
  0
VERTEX
  8
T35SSILL
 62
8
 10
1338.523
 20
-3974.535
 30
1735.387
 70
    32
  0
VERTEX
  8
T35SSILL
 62
8
 10
1218.574
 20
-4060.983
 30
1735.556
 70
    32
  0
VERTEX
  8
T35SSILL
 62
8
 10
1161.703
 20
-4050.700
 30
1735.615
 70
    32
  0
VERTEX
  8
T35SSILL
 62
8
 10
1149.435
 20
-4059.427
 30
1735.611
 70
    32
  0
VERTEX
  8
T35SSILL
 62
8
 10
1146.664
 20
-4055.018
 30
1735.620
 70
    32
  0
VERTEX
  8
T35SSILL
 62
8
 10
1140.384
 20
-4059.143
 30
1735.612
 70
    32
  0
VERTEX
  8
T35SSILL
 62
8
 10
1143.580
 20
-4063.593
 30
1735.606
 70
    32
  0
VERTEX
  8
T35SSILL
 62
8
 10
1115.098
 20
-4083.856
 30
1735.539
 70
    32
  0
VERTEX
  8
T35SSILL
 62
8
 10
1119.693
 20
-4090.764
 30
1735.529
 70
    32
  0
VERTEX
  8
T35SSILL
 62
8
 10
1164.209
 20
-4058.645
 30
1735.601
 70
    32
  0
VERTEX
  8
T35SSILL
 62
8
 10
1210.598
 20
-4066.502
 30
1735.553
 70
    32
  0
VERTEX
  8
T35SSILL
 62
8
 10
1074.057
 20
-4165.472
 30
1735.428
 70
    32
  0
VERTEX
  8
T35SSILL
 62
8
 10
1077.915
 20
-4170.395
 30
1735.419
 70
    32
  0
VERTEX
  8
T35SSILL
 62
8
 10
1114.270
 20
-4144.225
 30
1735.432
 70
    32
  0
VERTEX
  8
T35SSILL
 62
8
 10
1118.633
 20
-4150.707
 30
1735.421
 70
    32
  0
VERTEX
  8
T35SSILL
 62
8
 10
1124.592
 20
-4146.161
 30
1735.423
 70
    32
  0
VERTEX
  8
T35SSILL
 62
8
 10
1120.221
 20
-4139.941
 30
1735.434
 70
    32
  0
VERTEX
  8
T35SSILL
 62
8
 10
1155.716
 20
-4114.390
 30
1735.512
 70
    32
  0
VERTEX
  8
T35SSILL
 62
8
 10
1160.255
 20
-4120.950
 30
1735.503
 70
    32
  0
VERTEX
  8
T35SSILL
 62
8
 10
1166.040
 20
-4116.759
 30
1735.512
 70
    32
  0
VERTEX
  8
T35SSILL
 62
8
 10
1161.440
 20
-4110.270
 30
1735.525
 70
    32
  0
VERTEX
  8
T35SSILL
 62
8
 10
1230.583
 20
-4060.497
 30
1735.547
 70
    32
  0
VERTEX
  8
T35SSILL
 62
8
 10
1235.009
 20
-4067.026
 30
1735.534
 70
    32
  0
VERTEX
  8
T35SSILL
 62
8
 10
1240.563
 20
-4062.678
 30
1735.536
 70
    32
  0
VERTEX
  8
T35SSILL
 62
8
 10
1236.111
 20
-4056.518
 30
1735.549
 70
    32
  0
VERTEX
  8
T35SSILL
 62
8
 10
1332.309
 20
-3987.270
 30
1735.411
 70
    32
  0
VERTEX
  8
T35SSILL
 62
8
 10
1337.327
 20
-3993.848
 30
1735.403
 70
    32
  0
VERTEX
  8
T35SSILL
 62
8
 10
1343.289
 20
-3989.743
 30
1735.385
 70
    32
  0
VERTEX
  8
T35SSILL
 62
8
 10
1338.124
 20
-3983.085
 30
1735.394
 70
    32
  0
VERTEX
  8
T35SSILL
 62
8
 10
1342.632
 20
-3979.932
 30
1735.380
 70
    32
  0
VERTEX
  8
T35SSILL
 62
8
 10
1351.514
 20
-3977.930
 30
1735.356
 70
    32
  0
VERTEX
  8
T35SSILL
 62
8
 10
1361.535
 20
-3980.042
 30
1735.332
 70
    32
  0
VERTEX
  8
T35SSILL
 62
8
 10
1436.100
 20
-4025.345
 30
1735.175
 70
    32
  0
VERTEX
  8
T35SSILL
 62
8
 10
1425.716
 20
-4029.154
 30
1735.204
 70
    32
  0
VERTEX
  8
T35SSILL
 62
8
 10
1417.042
 20
-4035.647
 30
1735.230
 70
    32
  0
VERTEX
  8
T35SSILL
 62
8
 10
1359.804
 20
-4025.753
 30
1735.368
 70
    32
  0
VERTEX
  8
T35SSILL
 62
8
 10
1326.706
 20
-4049.488
 30
1735.453
 70
    32
  0
VERTEX
  8
T35SSILL
 62
8
 10
1323.767
 20
-4045.559
 30
1735.459
 70
    32
  0
VERTEX
  8
T35SSILL
 62
8
 10
1317.083
 20
-4049.882
 30
1735.474
 70
    32
  0
VERTEX
  8
T35SSILL
 62
8
 10
1320.292
 20
-4054.088
 30
1735.467
 70
    32
  0
VERTEX
  8
T35SSILL
 62
8
 10
1251.790
 20
-4103.213
 30
1735.467
 70
    32
  0
VERTEX
  8
T35SSILL
 62
8
 10
1249.033
 20
-4099.801
 30
1735.474
 70
    32
  0
VERTEX
  8
T35SSILL
 62
8
 10
1239.656
 20
-4106.843
 30
1735.471
 70
    32
  0
VERTEX
  8
T35SSILL
 62
8
 10
1242.121
 20
-4110.147
 30
1735.464
 70
    32
  0
VERTEX
  8
T35SSILL
 62
8
 10
1209.496
 20
-4133.543
 30
1735.453
 70
    32
  0
VERTEX
  8
T35SSILL
 62
8
 10
1213.554
 20
-4139.310
 30
1735.442
 70
    32
  0
VERTEX
  8
T35SSILL
 62
8
 10
1361.285
 20
-4033.371
 30
1735.370
 70
    32
  0
VERTEX
  8
T35SSILL
 62
8
 10
1408.542
 20
-4041.786
 30
1735.256
 70
    32
  0
VERTEX
  8
T35SSILL
 62
8
 10
1286.960
 20
-4129.054
 30
1735.401
 70
    32
  0
VERTEX
  8
T35SSILL
 62
8
 10
1269.077
 20
-4135.524
 30
1735.405
 70
    32
  0
VERTEX
  8
T35SSILL
 62
8
 10
1263.326
 20
-4146.017
 30
1735.394
 70
    32
  0
VERTEX
  8
T35SSILL
 62
8
 10
1126.034
 20
-4244.561
 30
1735.292
 70
    32
  0
VERTEX
  8
T35SSILL
 62
8
 10
1130.410
 20
-4250.545
 30
1735.281
 70
    32
  0
VERTEX
  8
T35SSILL
 62
8
 10
1230.809
 20
-4178.132
 30
1735.370
 70
    32
  0
VERTEX
  8
T35SSILL
 62
8
 10
1235.249
 20
-4184.509
 30
1735.357
 70
    32
  0
VERTEX
  8
T35SSILL
 62
8
 10
1241.455
 20
-4179.997
 30
1735.359
 70
    32
  0
VERTEX
  8
T35SSILL
 62
8
 10
1236.913
 20
-4173.730
 30
1735.372
 70
    32
  0
VERTEX
  8
T35SSILL
 62
8
 10
1248.547
 20
-4165.339
 30
1735.376
 70
    32
  0
VERTEX
  8
T35SSILL
 62
8
 10
1252.738
 20
-4170.946
 30
1735.364
 70
    32
  0
VERTEX
  8
T35SSILL
 62
8
 10
1258.720
 20
-4167.158
 30
1735.365
 70
    32
  0
VERTEX
  8
T35SSILL
 62
8
 10
1254.548
 20
-4161.010
 30
1735.378
 70
    32
  0
VERTEX
  8
T35SSILL
 62
8
 10
1265.708
 20
-4152.962
 30
1735.381
 70
    32
  0
VERTEX
  8
T35SSILL
 62
8
 10
1268.360
 20
-4157.697
 30
1735.372
 70
    32
  0
VERTEX
  8
T35SSILL
 62
8
 10
1273.976
 20
-4156.628
 30
1735.369
 70
    32
  0
VERTEX
  8
T35SSILL
 62
8
 10
1278.988
 20
-4148.369
 30
1735.378
 70
    32
  0
VERTEX
  8
T35SSILL
 62
8
 10
1284.565
 20
-4142.451
 30
1735.383
 70
    32
  0
VERTEX
  8
T35SSILL
 62
8
 10
1286.716
 20
-4137.809
 30
1735.388
 70
    32
  0
VERTEX
  8
T35SSILL
 62
8
 10
1301.038
 20
-4127.480
 30
1735.393
 70
    32
  0
VERTEX
  8
T35SSILL
 62
8
 10
1305.229
 20
-4133.340
 30
1735.381
 70
    32
  0
VERTEX
  8
T35SSILL
 62
8
 10
1310.997
 20
-4129.272
 30
1735.382
 70
    32
  0
VERTEX
  8
T35SSILL
 62
8
 10
1306.855
 20
-4123.284
 30
1735.394
 70
    32
  0
VERTEX
  8
T35SSILL
 62
8
 10
1392.408
 20
-4061.580
 30
1735.310
 70
    32
  0
VERTEX
  8
T35SSILL
 62
8
 10
1397.390
 20
-4068.798
 30
1735.303
 70
    32
  0
VERTEX
  8
T35SSILL
 62
8
 10
1403.616
 20
-4064.603
 30
1735.284
 70
    32
  0
VERTEX
  8
T35SSILL
 62
8
 10
1398.569
 20
-4057.136
 30
1735.292
 70
    32
  0
VERTEX
  8
T35SSILL
 62
8
 10
1428.773
 20
-4035.351
 30
1735.200
 70
    32
  0
VERTEX
  8
T35SSILL
 62
8
 10
1436.992
 20
-4031.751
 30
1735.177
 70
    32
  0
VERTEX
  8
T35SSILL
 62
8
 10
1441.884
 20
-4030.905
 30
1735.164
 70
    32
  0
VERTEX
  8
T35SSILL
 62
8
 10
1451.014
 20
-4034.028
 30
1735.143
 70
    32
  0
VERTEX
  8
T35SSILL
 62
8
 10
1524.698
 20
-4079.337
 30
1734.988
 70
    32
  0
VERTEX
  8
T35SSILL
 62
8
 10
1515.349
 20
-4082.470
 30
1735.013
 70
    32
  0
VERTEX
  8
T35SSILL
 62
8
 10
1473.720
 20
-4111.838
 30
1735.139
 70
    32
  0
VERTEX
  8
T35SSILL
 62
8
 10
1416.214
 20
-4101.594
 30
1735.267
 70
    32
  0
VERTEX
  8
T35SSILL
 62
8
 10
1392.237
 20
-4118.771
 30
1735.319
 70
    32
  0
VERTEX
  8
T35SSILL
 62
8
 10
1389.443
 20
-4114.785
 30
1735.325
 70
    32
  0
VERTEX
  8
T35SSILL
 62
8
 10
1382.095
 20
-4119.836
 30
1735.341
 70
    32
  0
VERTEX
  8
T35SSILL
 62
8
 10
1385.079
 20
-4123.899
 30
1735.334
 70
    32
  0
VERTEX
  8
T35SSILL
 62
8
 10
1287.614
 20
-4193.724
 30
1735.303
 70
    32
  0
VERTEX
  8
T35SSILL
 62
8
 10
1284.276
 20
-4189.028
 30
1735.313
 70
    32
  0
VERTEX
  8
T35SSILL
 62
8
 10
1278.528
 20
-4193.413
 30
1735.311
 70
    32
  0
VERTEX
  8
T35SSILL
 62
8
 10
1281.601
 20
-4198.032
 30
1735.301
 70
    32
  0
VERTEX
  8
T35SSILL
 62
8
 10
1244.391
 20
-4224.690
 30
1735.290
 70
    32
  0
VERTEX
  8
T35SSILL
 62
8
 10
1248.599
 20
-4230.420
 30
1735.278
 70
    32
  0
VERTEX
  8
T35SSILL
 62
8
 10
1416.885
 20
-4109.164
 30
1735.266
 70
    32
  0
VERTEX
  8
T35SSILL
 62
8
 10
1464.956
 20
-4118.067
 30
1735.164
 70
    32
  0
VERTEX
  8
T35SSILL
 62
8
 10
1260.905
 20
-4263.451
 30
1735.219
 70
    32
  0
VERTEX
  8
T35SSILL
 62
8
 10
1265.140
 20
-4269.305
 30
1735.207
 70
    32
  0
VERTEX
  8
T35SSILL
 62
8
 10
1304.496
 20
-4241.143
 30
1735.219
 70
    32
  0
VERTEX
  8
T35SSILL
 62
8
 10
1308.255
 20
-4246.480
 30
1735.208
 70
    32
  0
VERTEX
  8
T35SSILL
 62
8
 10
1314.144
 20
-4241.988
 30
1735.210
 70
    32
  0
VERTEX
  8
T35SSILL
 62
8
 10
1310.418
 20
-4236.905
 30
1735.221
 70
    32
  0
VERTEX
  8
T35SSILL
 62
8
 10
1378.779
 20
-4187.986
 30
1735.242
 70
    32
  0
VERTEX
  8
T35SSILL
 62
8
 10
1383.505
 20
-4194.951
 30
1735.228
 70
    32
  0
VERTEX
  8
T35SSILL
 62
8
 10
1388.886
 20
-4190.956
 30
1735.230
 70
    32
  0
VERTEX
  8
T35SSILL
 62
8
 10
1384.100
 20
-4184.179
 30
1735.244
 70
    32
  0
VERTEX
  8
T35SSILL
 62
8
 10
1461.072
 20
-4129.098
 30
1735.174
 70
    32
  0
VERTEX
  8
T35SSILL
 62
8
 10
1465.537
 20
-4136.029
 30
1735.165
 70
    32
  0
VERTEX
  8
T35SSILL
 62
8
 10
1471.672
 20
-4131.570
 30
1735.151
 70
    32
  0
VERTEX
  8
T35SSILL
 62
8
 10
1467.020
 20
-4124.842
 30
1735.161
 70
    32
  0
VERTEX
  8
T35SSILL
 62
8
 10
1500.402
 20
-4100.955
 30
1735.064
 70
    32
  0
VERTEX
  8
T35SSILL
 62
8
 10
1505.068
 20
-4107.312
 30
1735.057
 70
    32
  0
VERTEX
  8
T35SSILL
 62
8
 10
1510.977
 20
-4103.137
 30
1735.039
 70
    32
  0
VERTEX
  8
T35SSILL
 62
8
 10
1506.282
 20
-4096.747
 30
1735.046
 70
    32
  0
VERTEX
  8
T35SSILL
 62
8
 10
1516.894
 20
-4089.153
 30
1735.014
 70
    32
  0
VERTEX
  8
T35SSILL
 62
8
 10
1524.566
 20
-4085.416
 30
1734.992
 70
    32
  0
VERTEX
  8
T35SSILL
 62
8
 10
1529.300
 20
-4084.800
 30
1734.980
 70
    32
  0
VERTEX
  8
T35SSILL
 62
8
 10
1538.218
 20
-4087.643
 30
1734.959
 70
    32
  0
VERTEX
  8
T35SSILL
 62
8
 10
1612.305
 20
-4132.755
 30
1734.802
 70
    32
  0
VERTEX
  8
T35SSILL
 62
8
 10
1607.117
 20
-4133.937
 30
1734.816
 70
    32
  0
VERTEX
  8
T35SSILL
 62
8
 10
1598.257
 20
-4139.022
 30
1734.842
 70
    32
  0
VERTEX
  8
T35SSILL
 62
8
 10
1500.298
 20
-4208.840
 30
1735.096
 70
    32
  0
VERTEX
  8
T35SSILL
 62
8
 10
1442.886
 20
-4199.300
 30
1735.176
 70
    32
  0
VERTEX
  8
T35SSILL
 62
8
 10
1426.416
 20
-4211.044
 30
1735.171
 70
    32
  0
VERTEX
  8
T35SSILL
 62
8
 10
1423.830
 20
-4207.106
 30
1735.179
 70
    32
  0
VERTEX
  8
T35SSILL
 62
8
 10
1413.328
 20
-4214.563
 30
1735.176
 70
    32
  0
VERTEX
  8
T35SSILL
 62
8
 10
1416.012
 20
-4218.462
 30
1735.168
 70
    32
  0
VERTEX
  8
T35SSILL
 62
8
 10
1363.372
 20
-4255.997
 30
1735.152
 70
    32
  0
VERTEX
  8
T35SSILL
 62
8
 10
1360.734
 20
-4252.469
 30
1735.159
 70
    32
  0
VERTEX
  8
T35SSILL
 62
8
 10
1354.421
 20
-4256.841
 30
1735.157
 70
    32
  0
VERTEX
  8
T35SSILL
 62
8
 10
1356.926
 20
-4260.593
 30
1735.150
 70
    32
  0
VERTEX
  8
T35SSILL
 62
8
 10
1306.418
 20
-4296.608
 30
1735.134
 70
    32
  0
VERTEX
  8
T35SSILL
 62
8
 10
1303.749
 20
-4292.615
 30
1735.142
 70
    32
  0
VERTEX
  8
T35SSILL
 62
8
 10
1296.665
 20
-4297.576
 30
1735.140
 70
    32
  0
VERTEX
  8
T35SSILL
 62
8
 10
1299.412
 20
-4301.604
 30
1735.132
 70
    32
  0
VERTEX
  8
T35SSILL
 62
8
 10
1266.050
 20
-4325.392
 30
1735.122
 70
    32
  0
VERTEX
  8
T35SSILL
 62
8
 10
1270.598
 20
-4332.458
 30
1735.108
 70
    32
  0
VERTEX
  8
T35SSILL
 62
8
 10
1443.330
 20
-4207.154
 30
1735.164
 70
    32
  0
VERTEX
  8
T35SSILL
 62
8
 10
1492.395
 20
-4214.746
 30
1735.114
 70
    32
  0
VERTEX
  8
T35SSILL
 62
8
 10
1344.108
 20
-4320.655
 30
1735.069
 70
    32
  0
VERTEX
  8
T35SSILL
 62
8
 10
1331.448
 20
-4317.730
 30
1735.083
 70
    32
  0
VERTEX
  8
T35SSILL
 62
8
 10
1324.163
 20
-4321.846
 30
1735.083
 70
    32
  0
VERTEX
  8
T35SSILL
 62
8
 10
1324.115
 20
-4324.544
 30
1735.079
 70
    32
  0
VERTEX
  8
T35SSILL
 62
8
 10
1327.853
 20
-4332.265
 30
1735.064
 70
    32
  0
VERTEX
  8
T35SSILL
 62
8
 10
1262.057
 20
-4379.258
 30
1735.044
 70
    32
  0
VERTEX
  8
T35SSILL
 62
8
 10
1254.267
 20
-4386.185
 30
1735.039
 70
    32
  0
VERTEX
  8
T35SSILL
 62
8
 10
1249.513
 20
-4393.900
 30
1735.021
 70
    32
  0
VERTEX
  8
T35SSILL
 62
8
 10
1247.994
 20
-4405.574
 30
1735.006
 70
    32
  0
VERTEX
  8
T35SSILL
 62
8
 10
1248.816
 20
-4412.033
 30
1734.997
 70
    32
  0
VERTEX
  8
T35SSILL
 62
8
 10
1108.596
 20
-4389.260
 30
1735.110
 70
    32
  0
VERTEX
  8
T35SSILL
 62
8
 10
1095.834
 20
-4388.348
 30
1735.119
 70
    32
  0
VERTEX
  8
T35SSILL
 62
8
 10
1090.889
 20
-4389.124
 30
1735.121
 70
    32
  0
VERTEX
  8
T35SSILL
 62
8
 10
1082.724
 20
-4392.794
 30
1735.121
 70
    32
  0
VERTEX
  8
T35SSILL
 62
8
 10
1008.343
 20
-4446.322
 30
1735.094
 70
    32
  0
VERTEX
  8
T35SSILL
 62
8
 10
1003.770
 20
-4457.300
 30
1735.082
 70
    32
  0
VERTEX
  8
T35SSILL
 62
8
 10
1083.484
 20
-4398.690
 30
1735.112
 70
    32
  0
VERTEX
  8
T35SSILL
 62
8
 10
1087.352
 20
-4396.045
 30
1735.114
 70
    32
  0
VERTEX
  8
T35SSILL
 62
8
 10
1094.555
 20
-4393.897
 30
1735.112
 70
    32
  0
VERTEX
  8
T35SSILL
 62
8
 10
1098.320
 20
-4393.636
 30
1735.110
 70
    32
  0
VERTEX
  8
T35SSILL
 62
8
 10
1252.820
 20
-4419.360
 30
1734.984
 70
    32
  0
VERTEX
  8
T35SSILL
 62
8
 10
1418.092
 20
-4649.697
 30
1734.323
 70
    32
  0
VERTEX
  8
T35SSILL
 62
8
 10
1463.932
 20
-4713.583
 30
1731.436
 70
    32
  0
VERTEX
  8
T35SSILL
 62
8
 10
1518.180
 20
-4789.187
 30
1734.171
 70
    32
  0
VERTEX
  8
T35SSILL
 62
8
 10
1649.937
 20
-4972.815
 30
1734.376
 70
    32
  0
VERTEX
  8
T35SSILL
 62
8
 10
1636.408
 20
-4978.000
 30
1734.333
 70
    32
  0
VERTEX
  8
T35SSILL
 62
8
 10
1642.954
 20
-4988.322
 30
1734.344
 70
    32
  0
VERTEX
  8
T35SSILL
 62
8
 10
1658.867
 20
-4987.954
 30
1734.390
 70
    32
  0
VERTEX
  8
T35SSILL
 62
8
 10
1736.177
 20
-5094.727
 30
1734.019
 70
    32
  0
VERTEX
  8
T35SSILL
 62
8
 10
1745.798
 20
-5105.191
 30
1734.038
 70
    32
  0
VERTEX
  8
T35SSILL
 62
8
 10
1755.218
 20
-5110.636
 30
1734.051
 70
    32
  0
VERTEX
  8
T35SSILL
 62
8
 10
1756.646
 20
-5111.227
 30
1734.053
 70
    32
  0
VERTEX
  8
T35SSILL
 62
8
 10
1758.220
 20
-5107.862
 30
1734.051
 70
    32
  0
VERTEX
  8
T35SSILL
 62
8
 10
1771.098
 20
-5111.295
 30
1734.065
 70
    32
  0
VERTEX
  8
T35SSILL
 62
8
 10
1782.140
 20
-5111.361
 30
1734.074
 70
    32
  0
VERTEX
  8
T35SSILL
 62
8
 10
1797.815
 20
-5107.885
 30
1734.083
 70
    32
  0
VERTEX
  8
T35SSILL
 62
8
 10
1804.583
 20
-5104.851
 30
1734.085
 70
    32
  0
VERTEX
  8
T35SSILL
 62
8
 10
1812.383
 20
-5100.392
 30
1734.087
 70
    32
  0
VERTEX
  8
T35SSILL
 62
8
 10
1904.489
 20
-5034.911
 30
1734.075
 70
    32
  0
VERTEX
  8
T35SSILL
 62
8
 10
1939.265
 20
-5081.709
 30
1734.143
 70
    32
  0
VERTEX
  8
T35SSILL
 62
8
 10
2016.025
 20
-5190.925
 30
1734.346
 70
    32
  0
VERTEX
  8
T35SSILL
 62
8
 10
2043.575
 20
-5232.678
 30
1734.474
 70
    32
  0
VERTEX
  8
T35SSILL
 62
8
 10
2050.930
 20
-5228.349
 30
1734.468
 70
    32
  0
VERTEX
  8
T35SSILL
 62
8
 10
2038.267
 20
-5209.404
 30
1734.409
 70
    32
  0
VERTEX
  8
T35SSILL
 62
8
 10
2043.059
 20
-5206.309
 30
1734.405
 70
    32
  0
VERTEX
  8
T35SSILL
 62
8
 10
2039.295
 20
-5201.682
 30
1734.390
 70
    32
  0
VERTEX
  8
T35SSILL
 62
8
 10
2035.142
 20
-5204.729
 30
1734.395
 70
    32
  0
VERTEX
  8
T35SSILL
 62
8
 10
1984.713
 20
-5132.973
 30
1734.261
 70
    32
  0
VERTEX
  8
T35SSILL
 62
8
 10
1988.185
 20
-5130.621
 30
1734.261
 70
    32
  0
VERTEX
  8
T35SSILL
 62
8
 10
1984.145
 20
-5125.116
 30
1734.252
 70
    32
  0
VERTEX
  8
T35SSILL
 62
8
 10
1980.868
 20
-5127.618
 30
1734.252
 70
    32
  0
VERTEX
  8
T35SSILL
 62
8
 10
1925.750
 20
-5050.838
 30
1734.090
 70
    32
  0
VERTEX
  8
T35SSILL
 62
8
 10
1931.540
 20
-5047.183
 30
1734.093
 70
    32
  0
VERTEX
  8
T35SSILL
 62
8
 10
1928.307
 20
-5042.204
 30
1734.091
 70
    32
  0
VERTEX
  8
T35SSILL
 62
8
 10
1922.598
 20
-5046.447
 30
1734.087
 70
    32
  0
VERTEX
  8
T35SSILL
 62
8
 10
1910.355
 20
-5029.393
 30
1734.078
 70
    32
  0
VERTEX
  8
T35SSILL
 62
8
 10
2069.675
 20
-4916.162
 30
1734.355
 70
    32
  0
VERTEX
  8
T35SSILL
 62
8
 10
2072.931
 20
-4915.945
 30
1734.352
 70
    32
  0
VERTEX
  8
T35SSILL
 62
8
 10
2077.267
 20
-4917.565
 30
1734.354
 70
    32
  0
VERTEX
  8
T35SSILL
 62
8
 10
2081.213
 20
-4923.152
 30
1734.365
 70
    32
  0
VERTEX
  8
T35SSILL
 62
8
 10
2073.134
 20
-4932.149
 30
1734.341
 70
    32
  0
VERTEX
  8
T35SSILL
 62
8
 10
2075.298
 20
-4936.173
 30
1734.332
 70
    32
  0
VERTEX
  8
T35SSILL
 62
8
 10
2087.110
 20
-4950.998
 30
1734.299
 70
    32
  0
VERTEX
  8
T35SSILL
 62
8
 10
2099.335
 20
-4956.658
 30
1734.289
 70
    32
  0
VERTEX
  8
T35SSILL
 62
8
 10
2098.309
 20
-4959.137
 30
1734.283
 70
    32
  0
VERTEX
  8
T35SSILL
 62
8
 10
2109.075
 20
-4981.990
 30
1734.230
 70
    32
  0
VERTEX
  8
T35SSILL
 62
8
 10
2116.295
 20
-4981.811
 30
1734.233
 70
    32
  0
VERTEX
  8
T35SSILL
 62
8
 10
2121.826
 20
-4980.333
 30
1734.237
 70
    32
  0
VERTEX
  8
T35SSILL
 62
8
 10
2136.183
 20
-4980.418
 30
1734.241
 70
    32
  0
VERTEX
  8
T35SSILL
 62
8
 10
2142.804
 20
-4995.748
 30
1734.218
 70
    32
  0
VERTEX
  8
T35SSILL
 62
8
 10
2136.622
 20
-5001.462
 30
1734.215
 70
    32
  0
VERTEX
  8
T35SSILL
 62
8
 10
2128.678
 20
-4985.972
 30
1734.226
 70
    32
  0
VERTEX
  8
T35SSILL
 62
8
 10
2117.940
 20
-4993.593
 30
1734.205
 70
    32
  0
VERTEX
  8
T35SSILL
 62
8
 10
2116.501
 20
-4998.279
 30
1734.202
 70
    32
  0
VERTEX
  8
T35SSILL
 62
8
 10
2118.168
 20
-5004.775
 30
1734.204
 70
    32
  0
VERTEX
  8
T35SSILL
 62
8
 10
2115.380
 20
-5007.188
 30
1734.203
 70
    32
  0
VERTEX
  8
T35SSILL
 62
8
 10
2120.302
 20
-5013.468
 30
1734.206
 70
    32
  0
VERTEX
  8
T35SSILL
 62
8
 10
2126.669
 20
-5015.502
 30
1734.211
 70
    32
  0
VERTEX
  8
T35SSILL
 62
8
 10
2147.206
 20
-5030.835
 30
1734.225
 70
    32
  0
VERTEX
  8
T35SSILL
 62
8
 10
2155.803
 20
-5028.085
 30
1734.230
 70
    32
  0
VERTEX
  8
T35SSILL
 62
8
 10
2169.522
 20
-5019.370
 30
1734.237
 70
    32
  0
VERTEX
  8
T35SSILL
 62
8
 10
2168.248
 20
-5023.173
 30
1734.237
 70
    32
  0
VERTEX
  8
T35SSILL
 62
8
 10
2159.957
 20
-5036.312
 30
1734.233
 70
    32
  0
VERTEX
  8
T35SSILL
 62
8
 10
2166.637
 20
-5049.263
 30
1734.239
 70
    32
  0
VERTEX
  8
T35SSILL
 62
8
 10
2179.713
 20
-5066.627
 30
1734.249
 70
    32
  0
VERTEX
  8
T35SSILL
 62
8
 10
2193.034
 20
-5075.444
 30
1734.258
 70
    32
  0
VERTEX
  8
T35SSILL
 62
8
 10
2190.853
 20
-5084.102
 30
1734.269
 70
    32
  0
VERTEX
  8
T35SSILL
 62
8
 10
2180.135
 20
-5092.749
 30
1734.288
 70
    32
  0
VERTEX
  8
T35SSILL
 62
8
 10
2184.691
 20
-5098.448
 30
1734.306
 70
    32
  0
VERTEX
  8
T35SSILL
 62
8
 10
2190.971
 20
-5093.525
 30
1734.296
 70
    32
  0
VERTEX
  8
T35SSILL
 62
8
 10
2196.831
 20
-5097.327
 30
1734.309
 70
    32
  0
VERTEX
  8
T35SSILL
 62
8
 10
2206.214
 20
-5101.085
 30
1734.324
 70
    32
  0
VERTEX
  8
T35SSILL
 62
8
 10
2213.324
 20
-5106.192
 30
1734.342
 70
    32
  0
VERTEX
  8
T35SSILL
 62
8
 10
2250.609
 20
-5080.361
 30
1734.294
 70
    32
  0
VERTEX
  8
T35SSILL
 62
8
 10
2264.193
 20
-5067.948
 30
1734.301
 70
    32
  0
VERTEX
  8
T35SSILL
 62
8
 10
2256.707
 20
-5046.816
 30
1734.294
 70
    32
  0
VERTEX
  8
T35SSILL
 62
8
 10
2270.059
 20
-5036.961
 30
1734.301
 70
    32
  0
VERTEX
  8
T35SSILL
 62
8
 10
2274.410
 20
-5046.859
 30
1734.305
 70
    32
  0
VERTEX
  8
T35SSILL
 62
8
 10
2281.026
 20
-5054.703
 30
1734.310
 70
    32
  0
VERTEX
  8
T35SSILL
 62
8
 10
2280.824
 20
-5059.725
 30
1734.311
 70
    32
  0
VERTEX
  8
T35SSILL
 62
8
 10
2298.572
 20
-5084.429
 30
1734.324
 70
    32
  0
VERTEX
  8
T35SSILL
 62
8
 10
2313.035
 20
-5080.839
 30
1734.333
 70
    32
  0
VERTEX
  8
T35SSILL
 62
8
 10
2328.432
 20
-5102.882
 30
1734.387
 70
    32
  0
VERTEX
  8
T35SSILL
 62
8
 10
2244.683
 20
-5162.873
 30
1734.503
 70
    32
  0
VERTEX
  8
T35SSILL
 62
8
 10
2249.166
 20
-5169.246
 30
1734.513
 70
    32
  0
VERTEX
  8
T35SSILL
 62
8
 10
2272.061
 20
-5152.794
 30
1734.500
 70
    32
  0
VERTEX
  8
T35SSILL
 62
8
 10
2276.163
 20
-5158.895
 30
1734.519
 70
    32
  0
VERTEX
  8
T35SSILL
 62
8
 10
2282.526
 20
-5154.383
 30
1734.510
 70
    32
  0
VERTEX
  8
T35SSILL
 62
8
 10
2278.203
 20
-5148.380
 30
1734.491
 70
    32
  0
VERTEX
  8
T35SSILL
 62
8
 10
2332.275
 20
-5108.690
 30
1734.405
 70
    32
  0
VERTEX
  8
T35SSILL
 62
8
 10
2346.153
 20
-5116.396
 30
1734.433
 70
    32
  0
VERTEX
  8
T35SSILL
 62
8
 10
2349.050
 20
-5115.300
 30
1734.431
 70
    32
  0
VERTEX
  8
T35SSILL
 62
8
 10
2353.303
 20
-5116.745
 30
1734.438
 70
    32
  0
VERTEX
  8
T35SSILL
 62
8
 10
2365.917
 20
-5116.670
 30
1734.443
 70
    32
  0
VERTEX
  8
T35SSILL
 62
8
 10
2362.923
 20
-5096.508
 30
1734.385
 70
    32
  0
VERTEX
  8
T35SSILL
 62
8
 10
2356.128
 20
-5091.181
 30
1734.367
 70
    32
  0
VERTEX
  8
T35SSILL
 62
8
 10
2380.181
 20
-5073.526
 30
1734.373
 70
    32
  0
VERTEX
  8
T35SSILL
 62
8
 10
2390.144
 20
-5079.926
 30
1734.380
 70
    32
  0
VERTEX
  8
T35SSILL
 62
8
 10
2410.625
 20
-5086.262
 30
1734.394
 70
    32
  0
VERTEX
  8
T35SSILL
 62
8
 10
2406.331
 20
-5090.215
 30
1734.391
 70
    32
  0
VERTEX
  8
T35SSILL
 62
8
 10
2408.024
 20
-5091.516
 30
1734.393
 70
    32
  0
VERTEX
  8
T35SSILL
 62
8
 10
2409.576
 20
-5095.554
 30
1734.405
 70
    32
  0
VERTEX
  8
T35SSILL
 62
8
 10
2423.866
 20
-5109.220
 30
1734.450
 70
    32
  0
VERTEX
  8
T35SSILL
 62
8
 10
2425.671
 20
-5112.372
 30
1734.459
 70
    32
  0
VERTEX
  8
T35SSILL
 62
8
 10
2424.314
 20
-5116.624
 30
1734.471
 70
    32
  0
VERTEX
  8
T35SSILL
 62
8
 10
2419.129
 20
-5118.102
 30
1734.472
 70
    32
  0
VERTEX
  8
T35SSILL
 62
8
 10
2418.353
 20
-5119.524
 30
1734.476
 70
    32
  0
VERTEX
  8
T35SSILL
 62
8
 10
2426.043
 20
-5127.540
 30
1734.502
 70
    32
  0
VERTEX
  8
T35SSILL
 62
8
 10
2429.838
 20
-5134.549
 30
1734.524
 70
    32
  0
VERTEX
  8
T35SSILL
 62
8
 10
2435.747
 20
-5141.140
 30
1734.545
 70
    32
  0
VERTEX
  8
T35SSILL
 62
8
 10
2416.093
 20
-5155.314
 30
1734.575
 70
    32
  0
VERTEX
  8
T35SSILL
 62
8
 10
2414.684
 20
-5149.740
 30
1734.559
 70
    32
  0
VERTEX
  8
T35SSILL
 62
8
 10
2412.440
 20
-5146.682
 30
1734.550
 70
    32
  0
VERTEX
  8
T35SSILL
 62
8
 10
2409.761
 20
-5144.158
 30
1734.541
 70
    32
  0
VERTEX
  8
T35SSILL
 62
8
 10
2404.798
 20
-5142.369
 30
1734.534
 70
    32
  0
VERTEX
  8
T35SSILL
 62
8
 10
2401.526
 20
-5141.794
 30
1734.531
 70
    32
  0
VERTEX
  8
T35SSILL
 62
8
 10
2394.251
 20
-5145.416
 30
1734.537
 70
    32
  0
VERTEX
  8
T35SSILL
 62
8
 10
2391.253
 20
-5145.543
 30
1734.536
 70
    32
  0
VERTEX
  8
T35SSILL
 62
8
 10
2388.244
 20
-5144.788
 30
1734.533
 70
    32
  0
VERTEX
  8
T35SSILL
 62
8
 10
2378.094
 20
-5137.509
 30
1734.508
 70
    32
  0
VERTEX
  8
T35SSILL
 62
8
 10
2364.800
 20
-5139.532
 30
1734.507
 70
    32
  0
VERTEX
  8
T35SSILL
 62
8
 10
2362.453
 20
-5149.090
 30
1734.533
 70
    32
  0
VERTEX
  8
T35SSILL
 62
8
 10
2357.807
 20
-5158.236
 30
1734.556
 70
    32
  0
VERTEX
  8
T35SSILL
 62
8
 10
2357.763
 20
-5161.677
 30
1734.566
 70
    32
  0
VERTEX
  8
T35SSILL
 62
8
 10
2364.315
 20
-5177.206
 30
1734.612
 70
    32
  0
VERTEX
  8
T35SSILL
 62
8
 10
2367.471
 20
-5190.377
 30
1734.631
 70
    32
  0
VERTEX
  8
T35SSILL
 62
8
 10
2311.021
 20
-5231.086
 30
1734.674
 70
    32
  0
VERTEX
  8
T35SSILL
 62
8
 10
2314.971
 20
-5236.416
 30
1734.690
 70
    32
  0
VERTEX
  8
T35SSILL
 62
8
 10
2377.324
 20
-5191.960
 30
1734.641
 70
    32
  0
VERTEX
  8
T35SSILL
 62
8
 10
2379.710
 20
-5201.355
 30
1734.653
 70
    32
  0
VERTEX
  8
T35SSILL
 62
8
 10
2388.717
 20
-5208.914
 30
1734.676
 70
    32
  0
VERTEX
  8
T35SSILL
 62
8
 10
2395.016
 20
-5211.656
 30
1734.688
 70
    32
  0
VERTEX
  8
T35SSILL
 62
8
 10
2400.825
 20
-5210.610
 30
1734.689
 70
    32
  0
VERTEX
  8
T35SSILL
 62
8
 10
2408.155
 20
-5204.429
 30
1734.679
 70
    32
  0
VERTEX
  8
T35SSILL
 62
8
 10
2417.799
 20
-5199.806
 30
1734.682
 70
    32
  0
VERTEX
  8
T35SSILL
 62
8
 10
2425.551
 20
-5192.120
 30
1734.680
 70
    32
  0
VERTEX
  8
T35SSILL
 62
8
 10
2426.574
 20
-5189.372
 30
1734.676
 70
    32
  0
VERTEX
  8
T35SSILL
 62
8
 10
2425.244
 20
-5188.772
 30
1734.674
 70
    32
  0
VERTEX
  8
T35SSILL
 62
8
 10
2419.693
 20
-5175.611
 30
1734.634
 70
    32
  0
VERTEX
  8
T35SSILL
 62
8
 10
2417.390
 20
-5168.054
 30
1734.612
 70
    32
  0
VERTEX
  8
T35SSILL
 62
8
 10
2417.499
 20
-5163.317
 30
1734.599
 70
    32
  0
VERTEX
  8
T35SSILL
 62
8
 10
2444.903
 20
-5143.778
 30
1734.557
 70
    32
  0
VERTEX
  8
T35SSILL
 62
8
 10
2445.582
 20
-5144.667
 30
1734.560
 70
    32
  0
VERTEX
  8
T35SSILL
 62
8
 10
2449.974
 20
-5143.199
 30
1734.558
 70
    32
  0
VERTEX
  8
T35SSILL
 62
8
 10
2455.037
 20
-5145.868
 30
1734.567
 70
    32
  0
VERTEX
  8
T35SSILL
 62
8
 10
2459.430
 20
-5151.369
 30
1734.585
 70
    32
  0
VERTEX
  8
T35SSILL
 62
8
 10
2466.151
 20
-5145.814
 30
1734.572
 70
    32
  0
VERTEX
  8
T35SSILL
 62
8
 10
2468.349
 20
-5145.256
 30
1734.572
 70
    32
  0
VERTEX
  8
T35SSILL
 62
8
 10
2468.393
 20
-5141.815
 30
1734.562
 70
    32
  0
VERTEX
  8
T35SSILL
 62
8
 10
2464.192
 20
-5130.666
 30
1734.529
 70
    32
  0
VERTEX
  8
T35SSILL
 62
8
 10
2476.509
 20
-5121.245
 30
1734.503
 70
    32
  0
VERTEX
  8
T35SSILL
 62
8
 10
2484.128
 20
-5130.674
 30
1734.532
 70
    32
  0
VERTEX
  8
T35SSILL
 62
8
 10
2493.515
 20
-5147.137
 30
1734.583
 70
    32
  0
VERTEX
  8
T35SSILL
 62
8
 10
2499.696
 20
-5188.695
 30
1734.709
 70
    32
  0
VERTEX
  8
T35SSILL
 62
8
 10
2495.786
 20
-5210.106
 30
1734.761
 70
    32
  0
VERTEX
  8
T35SSILL
 62
8
 10
2485.999
 20
-5217.053
 30
1734.771
 70
    32
  0
VERTEX
  8
T35SSILL
 62
8
 10
2489.632
 20
-5221.953
 30
1734.786
 70
    32
  0
VERTEX
  8
T35SSILL
 62
8
 10
2381.247
 20
-5300.136
 30
1734.905
 70
    32
  0
VERTEX
  8
T35SSILL
 62
8
 10
2385.773
 20
-5305.305
 30
1734.922
 70
    32
  0
VERTEX
  8
T35SSILL
 62
8
 10
2424.771
 20
-5277.321
 30
1734.880
 70
    32
  0
VERTEX
  8
T35SSILL
 62
8
 10
2427.049
 20
-5283.622
 30
1734.898
 70
    32
  0
VERTEX
  8
T35SSILL
 62
8
 10
2435.053
 20
-5297.891
 30
1734.941
 70
    32
  0
VERTEX
  8
T35SSILL
 62
8
 10
2450.195
 20
-5319.574
 30
1735.008
 70
    32
  0
VERTEX
  8
T35SSILL
 62
8
 10
2459.740
 20
-5335.658
 30
1735.057
 70
    32
  0
VERTEX
  8
T35SSILL
 62
8
 10
2465.459
 20
-5350.246
 30
1735.099
 70
    32
  0
VERTEX
  8
T35SSILL
 62
8
 10
2466.206
 20
-5355.135
 30
1735.112
 70
    32
  0
VERTEX
  8
T35SSILL
 62
8
 10
2422.405
 20
-5386.340
 30
1735.159
 70
    32
  0
VERTEX
  8
T35SSILL
 62
8
 10
2427.052
 20
-5392.754
 30
1735.179
 70
    32
  0
VERTEX
  8
T35SSILL
 62
8
 10
2478.309
 20
-5356.908
 30
1735.126
 70
    32
  0
VERTEX
  8
T35SSILL
 62
8
 10
2524.075
 20
-5419.894
 30
1735.324
 70
    32
  0
VERTEX
  8
T35SSILL
 62
8
 10
2517.800
 20
-5434.548
 30
1735.357
 70
    32
  0
VERTEX
  8
T35SSILL
 62
8
 10
2525.273
 20
-5448.508
 30
1735.391
 70
    32
  0
VERTEX
  8
T35SSILL
 62
8
 10
2532.662
 20
-5454.963
 30
1735.410
 70
    32
  0
VERTEX
  8
T35SSILL
 62
8
 10
2546.470
 20
-5450.714
 30
1735.416
 70
    32
  0
VERTEX
  8
T35SSILL
 62
8
 10
2557.286
 20
-5465.600
 30
1735.453
 70
    32
  0
VERTEX
  8
T35SSILL
 62
8
 10
2558.666
 20
-5471.826
 30
1735.465
 70
    32
  0
VERTEX
  8
T35SSILL
 62
8
 10
2545.256
 20
-5486.421
 30
1735.477
 70
    32
  0
VERTEX
  8
T35SSILL
 62
8
 10
2546.828
 20
-5497.051
 30
1735.497
 70
    32
  0
VERTEX
  8
T35SSILL
 62
8
 10
2554.388
 20
-5507.452
 30
1735.522
 70
    32
  0
VERTEX
  8
T35SSILL
 62
8
 10
2558.365
 20
-5515.380
 30
1735.540
 70
    32
  0
VERTEX
  8
T35SSILL
 62
8
 10
2560.846
 20
-5527.223
 30
1735.563
 70
    32
  0
VERTEX
  8
T35SSILL
 62
8
 10
2564.515
 20
-5533.307
 30
1735.577
 70
    32
  0
VERTEX
  8
T35SSILL
 62
8
 10
2564.860
 20
-5548.021
 30
1735.603
 70
    32
  0
VERTEX
  8
T35SSILL
 62
8
 10
2566.545
 20
-5552.213
 30
1735.612
 70
    32
  0
VERTEX
  8
T35SSILL
 62
8
 10
2574.927
 20
-5560.038
 30
1735.628
 70
    32
  0
VERTEX
  8
T35SSILL
 62
8
 10
2577.983
 20
-5566.313
 30
1735.636
 70
    32
  0
VERTEX
  8
T35SSILL
 62
8
 10
2582.599
 20
-5586.480
 30
1735.654
 70
    32
  0
VERTEX
  8
T35SSILL
 62
8
 10
2588.351
 20
-5598.686
 30
1735.669
 70
    32
  0
VERTEX
  8
T35SSILL
 62
8
 10
2603.669
 20
-5620.365
 30
1735.703
 70
    32
  0
VERTEX
  8
T35SSILL
 62
8
 10
2608.863
 20
-5620.067
 30
1735.710
 70
    32
  0
VERTEX
  8
T35SSILL
 62
8
 10
2620.941
 20
-5631.420
 30
1735.734
 70
    32
  0
VERTEX
  8
T35SSILL
 62
8
 10
2640.595
 20
-5642.507
 30
1735.768
 70
    32
  0
VERTEX
  8
T35SSILL
 62
8
 10
2668.758
 20
-5678.166
 30
1735.829
 70
    32
  0
VERTEX
  8
T35SSILL
 62
8
 10
2664.944
 20
-5680.900
 30
1735.825
 70
    32
  0
VERTEX
  8
T35SSILL
 62
8
 10
2669.466
 20
-5686.753
 30
1735.834
 70
    32
  0
VERTEX
  8
T35SSILL
 62
8
 10
2723.306
 20
-5648.198
 30
1735.890
 70
    32
  0
VERTEX
  8
T35SSILL
 62
8
 10
2731.018
 20
-5660.634
 30
1735.908
 70
    32
  0
VERTEX
  8
T35SSILL
 62
8
 10
2728.412
 20
-5664.740
 30
1735.906
 70
    32
  0
VERTEX
  8
T35SSILL
 62
8
 10
2731.959
 20
-5676.586
 30
1735.918
 70
    32
  0
VERTEX
  8
T35SSILL
 62
8
 10
2745.202
 20
-5674.025
 30
1735.935
 70
    32
  0
VERTEX
  8
T35SSILL
 62
8
 10
2751.812
 20
-5680.538
 30
1735.949
 70
    32
  0
VERTEX
  8
T35SSILL
 62
8
 10
2760.946
 20
-5675.547
 30
1735.959
 70
    32
  0
VERTEX
  8
T35SSILL
 62
8
 10
2759.142
 20
-5665.132
 30
1735.950
 70
    32
  0
VERTEX
  8
T35SSILL
 62
8
 10
2742.885
 20
-5648.544
 30
1735.918
 70
    32
  0
VERTEX
  8
T35SSILL
 62
8
 10
2734.963
 20
-5648.267
 30
1735.906
 70
    32
  0
VERTEX
  8
T35SSILL
 62
8
 10
2731.136
 20
-5642.591
 30
1735.898
 70
    32
  0
VERTEX
  8
T35SSILL
 62
8
 10
2759.802
 20
-5622.063
 30
1735.925
 70
    32
  0
VERTEX
  8
T35SSILL
 62
8
 10
2763.301
 20
-5626.848
 30
1735.935
 70
    32
  0
VERTEX
  8
T35SSILL
 62
8
 10
2768.812
 20
-5623.172
 30
1735.936
 70
    32
  0
VERTEX
  8
T35SSILL
 62
8
 10
2802.027
 20
-5672.898
 30
1736.016
 70
    32
  0
VERTEX
  8
T35SSILL
 62
8
 10
2790.316
 20
-5672.135
 30
1735.999
 70
    32
  0
VERTEX
  8
T35SSILL
 62
8
 10
2785.296
 20
-5679.028
 30
1735.996
 70
    32
  0
VERTEX
  8
T35SSILL
 62
8
 10
2795.641
 20
-5682.771
 30
1736.012
 70
    32
  0
VERTEX
  8
T35SSILL
 62
8
 10
2800.265
 20
-5698.948
 30
1736.028
 70
    32
  0
VERTEX
  8
T35SSILL
 62
8
 10
2797.954
 20
-5701.654
 30
1736.026
 70
    32
  0
VERTEX
  8
T35SSILL
 62
8
 10
2794.027
 20
-5704.974
 30
1736.023
 70
    32
  0
VERTEX
  8
T35SSILL
 62
8
 10
2792.376
 20
-5703.954
 30
1736.020
 70
    32
  0
VERTEX
  8
T35SSILL
 62
8
 10
2785.470
 20
-5693.033
 30
1736.004
 70
    32
  0
VERTEX
  8
T35SSILL
 62
8
 10
2769.413
 20
-5702.163
 30
1735.986
 70
    32
  0
VERTEX
  8
T35SSILL
 62
8
 10
2778.426
 20
-5716.475
 30
1736.007
 70
    32
  0
VERTEX
  8
T35SSILL
 62
8
 10
2746.805
 20
-5739.788
 30
1735.982
 70
    32
  0
VERTEX
  8
T35SSILL
 62
8
 10
2744.001
 20
-5735.799
 30
1735.974
 70
    32
  0
VERTEX
  8
T35SSILL
 62
8
 10
2738.274
 20
-5739.970
 30
1735.973
 70
    32
  0
VERTEX
  8
T35SSILL
 62
8
 10
2741.169
 20
-5743.943
 30
1735.981
 70
    32
  0
VERTEX
  8
T35SSILL
 62
8
 10
2713.460
 20
-5764.371
 30
1735.977
 70
    32
  0
VERTEX
  8
T35SSILL
 62
8
 10
2662.336
 20
-5714.975
 30
1735.858
 70
    32
  0
VERTEX
  8
T35SSILL
 62
8
 10
2657.823
 20
-5709.809
 30
1735.846
 70
    32
  0
VERTEX
  8
T35SSILL
 62
8
 10
2652.256
 20
-5697.497
 30
1735.824
 70
    32
  0
VERTEX
  8
T35SSILL
 62
8
 10
2644.214
 20
-5692.727
 30
1735.810
 70
    32
  0
VERTEX
  8
T35SSILL
 62
8
 10
2619.027
 20
-5665.192
 30
1735.750
 70
    32
  0
VERTEX
  8
T35SSILL
 62
8
 10
2601.109
 20
-5654.572
 30
1735.719
 70
    32
  0
VERTEX
  8
T35SSILL
 62
8
 10
2593.908
 20
-5659.852
 30
1735.712
 70
    32
  0
VERTEX
  8
T35SSILL
 62
8
 10
2611.796
 20
-5679.719
 30
1735.757
 70
    32
  0
VERTEX
  8
T35SSILL
 62
8
 10
2625.792
 20
-5700.946
 30
1735.800
 70
    32
  0
VERTEX
  8
T35SSILL
 62
8
 10
2628.339
 20
-5701.419
 30
1735.803
 70
    32
  0
VERTEX
  8
T35SSILL
 62
8
 10
2643.507
 20
-5713.678
 30
1735.835
 70
    32
  0
VERTEX
  8
T35SSILL
 62
8
 10
2657.617
 20
-5732.792
 30
1735.875
 70
    32
  0
VERTEX
  8
T35SSILL
 62
8
 10
2661.470
 20
-5741.472
 30
1735.890
 70
    32
  0
VERTEX
  8
T35SSILL
 62
8
 10
2666.592
 20
-5747.262
 30
1735.903
 70
    32
  0
VERTEX
  8
T35SSILL
 62
8
 10
2676.683
 20
-5763.859
 30
1735.936
 70
    32
  0
VERTEX
  8
T35SSILL
 62
8
 10
2682.088
 20
-5768.243
 30
1735.947
 70
    32
  0
VERTEX
  8
T35SSILL
 62
8
 10
2692.120
 20
-5780.103
 30
1735.973
 70
    32
  0
VERTEX
  8
T35SSILL
 62
8
 10
2672.118
 20
-5794.849
 30
1735.970
 70
    32
  0
VERTEX
  8
T35SSILL
 62
8
 10
2675.787
 20
-5799.603
 30
1735.980
 70
    32
  0
VERTEX
  8
T35SSILL
 62
8
 10
2696.412
 20
-5784.634
 30
1735.984
 70
    32
  0
VERTEX
  8
T35SSILL
 62
8
 10
2701.766
 20
-5792.713
 30
1736.000
 70
    32
  0
VERTEX
  8
T35SSILL
 62
8
 10
2718.858
 20
-5805.965
 30
1736.036
 70
    32
  0
VERTEX
  8
T35SSILL
 62
8
 10
2737.039
 20
-5823.635
 30
1736.078
 70
    32
  0
VERTEX
  8
T35SSILL
 62
8
 10
2741.331
 20
-5825.451
 30
1736.085
 70
    32
  0
VERTEX
  8
T35SSILL
 62
8
 10
2749.065
 20
-5819.737
 30
1736.086
 70
    32
  0
VERTEX
  8
T35SSILL
 62
8
 10
2734.303
 20
-5803.344
 30
1736.049
 70
    32
  0
VERTEX
  8
T35SSILL
 62
8
 10
2727.033
 20
-5793.388
 30
1736.029
 70
    32
  0
VERTEX
  8
T35SSILL
 62
8
 10
2719.666
 20
-5777.178
 30
1736.000
 70
    32
  0
VERTEX
  8
T35SSILL
 62
8
 10
2719.120
 20
-5768.154
 30
1735.988
 70
    32
  0
VERTEX
  8
T35SSILL
 62
8
 10
2735.702
 20
-5756.120
 30
1735.991
 70
    32
  0
VERTEX
  8
T35SSILL
 62
8
 10
2743.578
 20
-5766.739
 30
1736.013
 70
    32
  0
VERTEX
  8
T35SSILL
 62
8
 10
2749.005
 20
-5762.405
 30
1736.013
 70
    32
  0
VERTEX
  8
T35SSILL
 62
8
 10
2745.982
 20
-5758.343
 30
1736.005
 70
    32
  0
VERTEX
  8
T35SSILL
 62
8
 10
2753.839
 20
-5749.344
 30
1736.002
 70
    32
  0
VERTEX
  8
T35SSILL
 62
8
 10
2752.523
 20
-5743.912
 30
1735.994
 70
    32
  0
VERTEX
  8
T35SSILL
 62
8
 10
2788.126
 20
-5718.074
 30
1736.022
 70
    32
  0
VERTEX
  8
T35SSILL
 62
8
 10
2792.722
 20
-5725.094
 30
1736.032
 70
    32
  0
VERTEX
  8
T35SSILL
 62
8
 10
2805.769
 20
-5724.116
 30
1736.050
 70
    32
  0
VERTEX
  8
T35SSILL
 62
8
 10
2796.580
 20
-5711.939
 30
1736.030
 70
    32
  0
VERTEX
  8
T35SSILL
 62
8
 10
2806.594
 20
-5700.877
 30
1736.038
 70
    32
  0
VERTEX
  8
T35SSILL
 62
8
 10
2811.636
 20
-5698.510
 30
1736.044
 70
    32
  0
VERTEX
  8
T35SSILL
 62
8
 10
2816.229
 20
-5704.963
 30
1736.054
 70
    32
  0
VERTEX
  8
T35SSILL
 62
8
 10
2822.286
 20
-5701.114
 30
1736.061
 70
    32
  0
VERTEX
  8
T35SSILL
 62
8
 10
2854.490
 20
-5750.101
 30
1736.134
 70
    32
  0
VERTEX
  8
T35SSILL
 62
8
 10
2857.052
 20
-5763.256
 30
1736.145
 70
    32
  0
VERTEX
  8
T35SSILL
 62
8
 10
2854.828
 20
-5771.946
 30
1736.147
 70
    32
  0
VERTEX
  8
T35SSILL
 62
8
 10
2850.049
 20
-5779.406
 30
1736.146
 70
    32
  0
VERTEX
  8
T35SSILL
 62
8
 10
2842.136
 20
-5785.836
 30
1736.145
 70
    32
  0
VERTEX
  8
T35SSILL
 62
8
 10
2802.585
 20
-5814.261
 30
1736.138
 70
    32
  0
VERTEX
  8
T35SSILL
 62
8
 10
2798.852
 20
-5812.889
 30
1736.132
 70
    32
  0
VERTEX
  8
T35SSILL
 62
8
 10
2798.052
 20
-5813.768
 30
1736.133
 70
    32
  0
VERTEX
  8
T35SSILL
 62
8
 10
2792.138
 20
-5813.117
 30
1736.125
 70
    32
  0
VERTEX
  8
T35SSILL
 62
8
 10
2788.241
 20
-5815.039
 30
1736.123
 70
    32
  0
VERTEX
  8
T35SSILL
 62
8
 10
2785.809
 20
-5823.770
 30
1736.132
 70
    32
  0
VERTEX
  8
T35SSILL
 62
8
 10
2784.566
 20
-5824.911
 30
1736.132
 70
    32
  0
VERTEX
  8
T35SSILL
 62
8
 10
2785.530
 20
-5826.518
 30
1736.135
 70
    32
  0
VERTEX
  8
T35SSILL
 62
8
 10
2767.718
 20
-5839.321
 30
1736.132
 70
    32
  0
VERTEX
  8
T35SSILL
 62
8
 10
2757.097
 20
-5841.101
 30
1736.122
 70
    32
  0
VERTEX
  8
T35SSILL
 62
8
 10
2751.839
 20
-5833.476
 30
1736.107
 70
    32
  0
VERTEX
  8
T35SSILL
 62
8
 10
2741.480
 20
-5838.189
 30
1736.101
 70
    32
  0
VERTEX
  8
T35SSILL
 62
8
 10
2735.625
 20
-5842.749
 30
1736.101
 70
    32
  0
VERTEX
  8
T35SSILL
 62
8
 10
2742.103
 20
-5853.472
 30
1736.121
 70
    32
  0
VERTEX
  8
T35SSILL
 62
8
 10
2735.960
 20
-5862.359
 30
1736.126
 70
    32
  0
VERTEX
  8
T35SSILL
 62
8
 10
2742.909
 20
-5867.520
 30
1736.140
 70
    32
  0
VERTEX
  8
T35SSILL
 62
8
 10
2750.195
 20
-5862.844
 30
1736.142
 70
    32
  0
VERTEX
  8
T35SSILL
 62
8
 10
2764.376
 20
-5882.741
 30
1736.183
 70
    32
  0
VERTEX
  8
T35SSILL
 62
8
 10
2773.013
 20
-5902.308
 30
1736.218
 70
    32
  0
VERTEX
  8
T35SSILL
 62
8
 10
2785.034
 20
-5916.770
 30
1736.249
 70
    32
  0
VERTEX
  8
T35SSILL
 62
8
 10
2792.565
 20
-5930.603
 30
1736.275
 70
    32
  0
VERTEX
  8
T35SSILL
 62
8
 10
2782.855
 20
-5937.656
 30
1736.273
 70
    32
  0
VERTEX
  8
T35SSILL
 62
8
 10
2786.238
 20
-5942.173
 30
1736.283
 70
    32
  0
VERTEX
  8
T35SSILL
 62
8
 10
2740.100
 20
-5974.890
 30
1736.274
 70
    32
  0
VERTEX
  8
T35SSILL
 62
8
 10
2745.047
 20
-5981.509
 30
1736.287
 70
    32
  0
VERTEX
  8
T35SSILL
 62
8
 10
2786.642
 20
-5951.915
 30
1736.296
 70
    32
  0
VERTEX
  8
T35SSILL
 62
8
 10
2789.525
 20
-5955.973
 30
1736.304
 70
    32
  0
VERTEX
  8
T35SSILL
 62
8
 10
2796.673
 20
-5951.379
 30
1736.306
 70
    32
  0
VERTEX
  8
T35SSILL
 62
8
 10
2793.479
 20
-5947.050
 30
1736.297
 70
    32
  0
VERTEX
  8
T35SSILL
 62
8
 10
2800.048
 20
-5942.377
 30
1736.298
 70
    32
  0
VERTEX
  8
T35SSILL
 62
8
 10
2807.813
 20
-5950.635
 30
1736.317
 70
    32
  0
VERTEX
  8
T35SSILL
 62
8
 10
2818.850
 20
-5967.388
 30
1736.351
 70
    32
  0
VERTEX
  8
T35SSILL
 62
8
 10
2839.378
 20
-5992.938
 30
1736.406
 70
    32
  0
VERTEX
  8
T35SSILL
 62
8
 10
2853.462
 20
-6001.582
 30
1736.432
 70
    32
  0
VERTEX
  8
T35SSILL
 62
8
 10
2869.877
 20
-5987.894
 30
1736.433
 70
    32
  0
VERTEX
  8
T35SSILL
 62
8
 10
2851.528
 20
-5967.655
 30
1736.387
 70
    32
  0
VERTEX
  8
T35SSILL
 62
8
 10
2825.981
 20
-5923.926
 30
1736.303
 70
    32
  0
VERTEX
  8
T35SSILL
 62
8
 10
2849.909
 20
-5906.902
 30
1736.308
 70
    32
  0
VERTEX
  8
T35SSILL
 62
8
 10
2856.590
 20
-5908.268
 30
1736.317
 70
    32
  0
VERTEX
  8
T35SSILL
 62
8
 10
2862.156
 20
-5916.828
 30
1736.334
 70
    32
  0
VERTEX
  8
T35SSILL
 62
8
 10
2866.664
 20
-5928.655
 30
1736.354
 70
    32
  0
VERTEX
  8
T35SSILL
 62
8
 10
2874.345
 20
-5930.240
 30
1736.364
 70
    32
  0
VERTEX
  8
T35SSILL
 62
8
 10
2883.790
 20
-5928.822
 30
1736.373
 70
    32
  0
SEQEND
  8
T35SSILL
  0
POLYLINE
  8
T35SSILL
 62
8
 66
     1
 70
     9
  0
VERTEX
  8
T35SSILL
 62
8
 10
1915.278
 20
-4398.435
 30
1734.143
 70
    32
  0
VERTEX
  8
T35SSILL
 62
8
 10
1910.376
 20
-4392.067
 30
1734.159
 70
    32
  0
VERTEX
  8
T35SSILL
 62
8
 10
1960.310
 20
-4355.590
 30
1734.047
 70
    32
  0
VERTEX
  8
T35SSILL
 62
8
 10
1968.298
 20
-4353.128
 30
1734.027
 70
    32
  0
VERTEX
  8
T35SSILL
 62
8
 10
1974.374
 20
-4353.065
 30
1734.010
 70
    32
  0
VERTEX
  8
T35SSILL
 62
8
 10
1981.627
 20
-4356.071
 30
1733.985
 70
    32
  0
VERTEX
  8
T35SSILL
 62
8
 10
2054.224
 20
-4400.929
 30
1733.724
 70
    32
  0
VERTEX
  8
T35SSILL
 62
8
 10
2044.662
 20
-4404.552
 30
1733.747
 70
    32
  0
VERTEX
  8
T35SSILL
 62
8
 10
1932.160
 20
-4484.639
 30
1733.918
 70
    32
  0
VERTEX
  8
T35SSILL
 62
8
 10
1909.732
 20
-4445.420
 30
1733.874
 70
    32
  0
VERTEX
  8
T35SSILL
 62
8
 10
1881.913
 20
-4412.774
 30
1734.078
 70
    32
  0
VERTEX
  8
T35SSILL
 62
8
 10
1904.360
 20
-4396.444
 30
1734.160
 70
    32
  0
VERTEX
  8
T35SSILL
 62
8
 10
1908.380
 20
-4402.834
 30
1734.121
 70
    32
  0
SEQEND
  8
T35SSILL
  0
POLYLINE
  8
T35SSILL
 62
8
 66
     1
 70
     9
  0
VERTEX
  8
T35SSILL
 62
8
 10
2024.833
 20
-4517.921
 30
1733.870
 70
    32
  0
VERTEX
  8
T35SSILL
 62
8
 10
2015.876
 20
-4512.909
 30
1733.867
 70
    32
  0
VERTEX
  8
T35SSILL
 62
8
 10
1993.229
 20
-4528.850
 30
1733.978
 70
    32
  0
VERTEX
  8
T35SSILL
 62
8
 10
1995.337
 20
-4536.141
 30
1734.003
 70
    32
  0
VERTEX
  8
T35SSILL
 62
8
 10
2000.730
 20
-4545.510
 30
1734.031
 70
    32
  0
VERTEX
  8
T35SSILL
 62
8
 10
2001.183
 20
-4551.456
 30
1734.055
 70
    32
  0
VERTEX
  8
T35SSILL
 62
8
 10
1978.734
 20
-4567.462
 30
1734.165
 70
    32
  0
VERTEX
  8
T35SSILL
 62
8
 10
1935.488
 20
-4491.297
 30
1733.938
 70
    32
  0
VERTEX
  8
T35SSILL
 62
8
 10
1964.369
 20
-4470.692
 30
1733.796
 70
    32
  0
VERTEX
  8
T35SSILL
 62
8
 10
1968.455
 20
-4476.367
 30
1733.811
 70
    32
  0
VERTEX
  8
T35SSILL
 62
8
 10
1974.392
 20
-4472.508
 30
1733.783
 70
    32
  0
VERTEX
  8
T35SSILL
 62
8
 10
1970.169
 20
-4466.554
 30
1733.767
 70
    32
  0
VERTEX
  8
T35SSILL
 62
8
 10
2052.363
 20
-4408.258
 30
1733.720
 70
    32
  0
VERTEX
  8
T35SSILL
 62
8
 10
2059.838
 20
-4407.211
 30
1733.700
 70
    32
  0
VERTEX
  8
T35SSILL
 62
8
 10
2067.521
 20
-4409.244
 30
1733.676
 70
    32
  0
VERTEX
  8
T35SSILL
 62
8
 10
2141.970
 20
-4454.347
 30
1733.409
 70
    32
  0
VERTEX
  8
T35SSILL
 62
8
 10
2133.815
 20
-4457.691
 30
1733.438
 70
    32
  0
VERTEX
  8
T35SSILL
 62
8
 10
2121.394
 20
-4465.747
 30
1733.488
 70
    32
  0
VERTEX
  8
T35SSILL
 62
8
 10
2036.355
 20
-4526.379
 30
1733.881
 70
    32
  0
VERTEX
  8
T35SSILL
 62
8
 10
2029.720
 20
-4521.479
 30
1733.874
 70
    32
  0
SEQEND
  8
T35SSILL
  0
POLYLINE
  8
T35SSILL
 62
8
 66
     1
 70
     9
  0
VERTEX
  8
T35SSILL
 62
8
 10
2196.603
 20
-4499.393
 30
1732.982
 70
    32
  0
VERTEX
  8
T35SSILL
 62
8
 10
2201.976
 20
-4499.513
 30
1732.953
 70
    32
  0
VERTEX
  8
T35SSILL
 62
8
 10
2186.817
 20
-4557.179
 30
1732.886
 70
    32
  0
VERTEX
  8
T35SSILL
 62
8
 10
2116.976
 20
-4556.854
 30
1733.167
 70
    32
  0
VERTEX
  8
T35SSILL
 62
8
 10
2116.761
 20
-4603.532
 30
1732.983
 70
    32
  0
VERTEX
  8
T35SSILL
 62
8
 10
2105.896
 20
-4608.842
 30
1733.046
 70
    32
  0
VERTEX
  8
T35SSILL
 62
8
 10
2105.683
 20
-4613.688
 30
1733.032
 70
    32
  0
VERTEX
  8
T35SSILL
 62
8
 10
2122.422
 20
-4614.305
 30
1732.896
 70
    32
  0
VERTEX
  8
T35SSILL
 62
8
 10
2122.104
 20
-4625.933
 30
1732.938
 70
    32
  0
VERTEX
  8
T35SSILL
 62
8
 10
2124.225
 20
-4626.703
 30
1732.919
 70
    32
  0
VERTEX
  8
T35SSILL
 62
8
 10
2168.621
 20
-4627.647
 30
1732.835
 70
    32
  0
VERTEX
  8
T35SSILL
 62
8
 10
2173.446
 20
-4667.765
 30
1732.908
 70
    32
  0
VERTEX
  8
T35SSILL
 62
8
 10
2158.842
 20
-4669.317
 30
1732.971
 70
    32
  0
VERTEX
  8
T35SSILL
 62
8
 10
2159.615
 20
-4675.826
 30
1733.016
 70
    32
  0
VERTEX
  8
T35SSILL
 62
8
 10
2174.261
 20
-4674.540
 30
1732.954
 70
    32
  0
VERTEX
  8
T35SSILL
 62
8
 10
2183.188
 20
-4748.763
 30
1733.461
 70
    32
  0
VERTEX
  8
T35SSILL
 62
8
 10
2177.799
 20
-4772.333
 30
1733.652
 70
    32
  0
VERTEX
  8
T35SSILL
 62
8
 10
2177.892
 20
-4782.819
 30
1733.728
 70
    32
  0
VERTEX
  8
T35SSILL
 62
8
 10
2174.976
 20
-4783.095
 30
1733.740
 70
    32
  0
VERTEX
  8
T35SSILL
 62
8
 10
2175.496
 20
-4790.139
 30
1733.789
 70
    32
  0
VERTEX
  8
T35SSILL
 62
8
 10
2178.282
 20
-4789.876
 30
1733.777
 70
    32
  0
VERTEX
  8
T35SSILL
 62
8
 10
2179.326
 20
-4808.777
 30
1733.788
 70
    32
  0
VERTEX
  8
T35SSILL
 62
8
 10
2126.336
 20
-4786.183
 30
1733.986
 70
    32
  0
VERTEX
  8
T35SSILL
 62
8
 10
2121.456
 20
-4782.210
 30
1733.993
 70
    32
  0
VERTEX
  8
T35SSILL
 62
8
 10
2109.878
 20
-4776.498
 30
1734.010
 70
    32
  0
VERTEX
  8
T35SSILL
 62
8
 10
2105.772
 20
-4772.069
 30
1734.016
 70
    32
  0
VERTEX
  8
T35SSILL
 62
8
 10
2100.152
 20
-4770.182
 30
1734.025
 70
    32
  0
VERTEX
  8
T35SSILL
 62
8
 10
2093.252
 20
-4772.076
 30
1734.036
 70
    32
  0
VERTEX
  8
T35SSILL
 62
8
 10
2091.837
 20
-4771.473
 30
1734.038
 70
    32
  0
VERTEX
  8
T35SSILL
 62
8
 10
1981.185
 20
-4574.394
 30
1734.159
 70
    32
  0
VERTEX
  8
T35SSILL
 62
8
 10
2001.902
 20
-4559.792
 30
1734.052
 70
    32
  0
VERTEX
  8
T35SSILL
 62
8
 10
2016.451
 20
-4580.057
 30
1733.857
 70
    32
  0
VERTEX
  8
T35SSILL
 62
8
 10
2052.377
 20
-4553.745
 30
1733.683
 70
    32
  0
VERTEX
  8
T35SSILL
 62
8
 10
2054.224
 20
-4545.529
 30
1733.701
 70
    32
  0
VERTEX
  8
T35SSILL
 62
8
 10
2051.272
 20
-4541.596
 30
1733.740
 70
    32
  0
VERTEX
  8
T35SSILL
 62
8
 10
2040.217
 20
-4532.789
 30
1733.861
 70
    32
  0
VERTEX
  8
T35SSILL
 62
8
 10
2133.647
 20
-4466.939
 30
1733.447
 70
    32
  0
VERTEX
  8
T35SSILL
 62
8
 10
2141.880
 20
-4462.626
 30
1733.414
 70
    32
  0
VERTEX
  8
T35SSILL
 62
8
 10
2150.061
 20
-4461.659
 30
1733.385
 70
    32
  0
VERTEX
  8
T35SSILL
 62
8
 10
2154.038
 20
-4463.027
 30
1733.372
 70
    32
  0
VERTEX
  8
T35SSILL
 62
8
 10
2183.188
 20
-4479.806
 30
1733.141
 70
    32
  0
VERTEX
  8
T35SSILL
 62
8
 10
2186.606
 20
-4495.094
 30
1733.056
 70
    32
  0
VERTEX
  8
T35SSILL
 62
8
 10
2192.459
 20
-4498.908
 30
1733.007
 70
    32
  0
SEQEND
  8
T35SSILL
  0
POLYLINE
  8
T35SSILL
 62
8
 66
     1
 70
     9
  0
VERTEX
  8
T35SSILL
 62
8
 10
1665.815
 20
-4814.767
 30
1734.263
 70
    32
  0
VERTEX
  8
T35SSILL
 62
8
 10
1659.508
 20
-4824.268
 30
1734.283
 70
    32
  0
VERTEX
  8
T35SSILL
 62
8
 10
1655.234
 20
-4827.403
 30
1734.292
 70
    32
  0
VERTEX
  8
T35SSILL
 62
8
 10
1652.500
 20
-4827.086
 30
1734.292
 70
    32
  0
VERTEX
  8
T35SSILL
 62
8
 10
1643.121
 20
-4830.374
 30
1734.303
 70
    32
  0
VERTEX
  8
T35SSILL
 62
8
 10
1615.755
 20
-4845.424
 30
1734.347
 70
    32
  0
VERTEX
  8
T35SSILL
 62
8
 10
1612.694
 20
-4841.794
 30
1734.340
 70
    32
  0
VERTEX
  8
T35SSILL
 62
8
 10
1596.911
 20
-4853.194
 30
1734.310
 70
    32
  0
VERTEX
  8
T35SSILL
 62
8
 10
1589.530
 20
-4861.209
 30
1734.282
 70
    32
  0
VERTEX
  8
T35SSILL
 62
8
 10
1588.158
 20
-4871.085
 30
1734.271
 70
    32
  0
VERTEX
  8
T35SSILL
 62
8
 10
1589.009
 20
-4875.739
 30
1734.270
 70
    32
  0
VERTEX
  8
T35SSILL
 62
8
 10
1593.429
 20
-4884.221
 30
1734.277
 70
    32
  0
VERTEX
  8
T35SSILL
 62
8
 10
1656.079
 20
-4970.211
 30
1734.395
 70
    32
  0
VERTEX
  8
T35SSILL
 62
8
 10
1667.105
 20
-4970.761
 30
1734.427
 70
    32
  0
VERTEX
  8
T35SSILL
 62
8
 10
1661.090
 20
-4975.107
 30
1734.406
 70
    32
  0
VERTEX
  8
T35SSILL
 62
8
 10
1665.711
 20
-4975.592
 30
1734.419
 70
    32
  0
VERTEX
  8
T35SSILL
 62
8
 10
1713.587
 20
-4864.320
 30
1734.370
 70
    32
  0
VERTEX
  8
T35SSILL
 62
8
 10
1741.887
 20
-4844.346
 30
1734.328
 70
    32
  0
VERTEX
  8
T35SSILL
 62
8
 10
1742.015
 20
-4837.544
 30
1734.313
 70
    32
  0
VERTEX
  8
T35SSILL
 62
8
 10
1745.281
 20
-4829.189
 30
1734.296
 70
    32
  0
VERTEX
  8
T35SSILL
 62
8
 10
1763.274
 20
-4816.079
 30
1734.275
 70
    32
  0
VERTEX
  8
T35SSILL
 62
8
 10
1776.793
 20
-4812.661
 30
1734.314
 70
    32
  0
VERTEX
  8
T35SSILL
 62
8
 10
1785.072
 20
-4813.894
 30
1734.333
 70
    32
  0
VERTEX
  8
T35SSILL
 62
8
 10
1880.515
 20
-4745.942
 30
1734.329
 70
    32
  0
VERTEX
  8
T35SSILL
 62
8
 10
1909.409
 20
-4733.004
 30
1734.308
 70
    32
  0
VERTEX
  8
T35SSILL
 62
8
 10
1929.627
 20
-4741.004
 30
1734.285
 70
    32
  0
VERTEX
  8
T35SSILL
 62
8
 10
1933.658
 20
-4752.530
 30
1734.280
 70
    32
  0
VERTEX
  8
T35SSILL
 62
8
 10
1957.961
 20
-4786.612
 30
1734.247
 70
    32
  0
VERTEX
  8
T35SSILL
 62
8
 10
2054.669
 20
-4717.426
 30
1734.089
 70
    32
  0
VERTEX
  8
T35SSILL
 62
8
 10
1976.786
 20
-4578.806
 30
1734.192
 70
    32
  0
VERTEX
  8
T35SSILL
 62
8
 10
1951.184
 20
-4597.299
 30
1734.216
 70
    32
  0
VERTEX
  8
T35SSILL
 62
8
 10
1954.017
 20
-4602.273
 30
1734.217
 70
    32
  0
VERTEX
  8
T35SSILL
 62
8
 10
1933.074
 20
-4617.066
 30
1734.235
 70
    32
  0
VERTEX
  8
T35SSILL
 62
8
 10
1929.963
 20
-4621.684
 30
1734.239
 70
    32
  0
VERTEX
  8
T35SSILL
 62
8
 10
1937.878
 20
-4634.878
 30
1734.242
 70
    32
  0
VERTEX
  8
T35SSILL
 62
8
 10
1862.152
 20
-4689.721
 30
1734.309
 70
    32
  0
VERTEX
  8
T35SSILL
 62
8
 10
1853.608
 20
-4682.522
 30
1734.309
 70
    32
  0
VERTEX
  8
T35SSILL
 62
8
 10
1848.923
 20
-4674.041
 30
1734.307
 70
    32
  0
VERTEX
  8
T35SSILL
 62
8
 10
1848.877
 20
-4671.196
 30
1734.306
 70
    32
  0
VERTEX
  8
T35SSILL
 62
8
 10
1795.294
 20
-4709.900
 30
1734.353
 70
    32
  0
VERTEX
  8
T35SSILL
 62
8
 10
1800.821
 20
-4720.345
 30
1734.356
 70
    32
  0
VERTEX
  8
T35SSILL
 62
8
 10
1808.851
 20
-4728.696
 30
1734.356
 70
    32
  0
VERTEX
  8
T35SSILL
 62
8
 10
1724.467
 20
-4788.138
 30
1734.224
 70
    32
  0
VERTEX
  8
T35SSILL
 62
8
 10
1721.743
 20
-4788.613
 30
1734.216
 70
    32
  0
VERTEX
  8
T35SSILL
 62
8
 10
1716.177
 20
-4787.099
 30
1734.205
 70
    32
  0
VERTEX
  8
T35SSILL
 62
8
 10
1708.281
 20
-4782.357
 30
1734.195
 70
    32
  0
VERTEX
  8
T35SSILL
 62
8
 10
1706.227
 20
-4774.234
 30
1734.201
 70
    32
  0
VERTEX
  8
T35SSILL
 62
8
 10
1674.785
 20
-4796.945
 30
1734.225
 70
    32
  0
VERTEX
  8
T35SSILL
 62
8
 10
1676.814
 20
-4800.364
 30
1734.233
 70
    32
  0
VERTEX
  8
T35SSILL
 62
8
 10
1671.672
 20
-4804.480
 30
1734.241
 70
    32
  0
VERTEX
  8
T35SSILL
 62
8
 10
1669.269
 20
-4800.929
 30
1734.234
 70
    32
  0
VERTEX
  8
T35SSILL
 62
8
 10
1665.280
 20
-4803.811
 30
1734.240
 70
    32
  0
VERTEX
  8
T35SSILL
 62
8
 10
1666.076
 20
-4807.544
 30
1734.248
 70
    32
  0
SEQEND
  8
T35SSILL
  0
POLYLINE
  8
T35SSILL
 62
8
 66
     1
 70
     9
  0
VERTEX
  8
T35SSILL
 62
8
 10
2077.573
 20
-4898.821
 30
1734.298
 70
    32
  0
VERTEX
  8
T35SSILL
 62
8
 10
2081.060
 20
-4898.168
 30
1734.293
 70
    32
  0
VERTEX
  8
T35SSILL
 62
8
 10
2126.770
 20
-4866.455
 30
1734.165
 70
    32
  0
VERTEX
  8
T35SSILL
 62
8
 10
2123.598
 20
-4861.929
 30
1734.154
 70
    32
  0
VERTEX
  8
T35SSILL
 62
8
 10
2130.925
 20
-4856.382
 30
1734.132
 70
    32
  0
VERTEX
  8
T35SSILL
 62
8
 10
2098.509
 20
-4822.763
 30
1734.056
 70
    32
  0
VERTEX
  8
T35SSILL
 62
8
 10
2090.809
 20
-4819.427
 30
1734.052
 70
    32
  0
VERTEX
  8
T35SSILL
 62
8
 10
2089.808
 20
-4809.846
 30
1734.046
 70
    32
  0
VERTEX
  8
T35SSILL
 62
8
 10
2082.130
 20
-4801.228
 30
1734.056
 70
    32
  0
VERTEX
  8
T35SSILL
 62
8
 10
2077.588
 20
-4790.019
 30
1734.062
 70
    32
  0
VERTEX
  8
T35SSILL
 62
8
 10
2086.718
 20
-4781.102
 30
1734.047
 70
    32
  0
VERTEX
  8
T35SSILL
 62
8
 10
2085.020
 20
-4772.145
 30
1734.048
 70
    32
  0
VERTEX
  8
T35SSILL
 62
8
 10
2057.647
 20
-4723.286
 30
1734.085
 70
    32
  0
VERTEX
  8
T35SSILL
 62
8
 10
1976.888
 20
-4780.727
 30
1734.217
 70
    32
  0
VERTEX
  8
T35SSILL
 62
8
 10
1984.105
 20
-4782.389
 30
1734.206
 70
    32
  0
VERTEX
  8
T35SSILL
 62
8
 10
1992.741
 20
-4786.606
 30
1734.193
 70
    32
  0
VERTEX
  8
T35SSILL
 62
8
 10
2020.112
 20
-4825.210
 30
1734.155
 70
    32
  0
VERTEX
  8
T35SSILL
 62
8
 10
2028.744
 20
-4820.159
 30
1734.141
 70
    32
  0
VERTEX
  8
T35SSILL
 62
8
 10
2039.715
 20
-4816.071
 30
1734.124
 70
    32
  0
VERTEX
  8
T35SSILL
 62
8
 10
2048.850
 20
-4813.413
 30
1734.109
 70
    32
  0
VERTEX
  8
T35SSILL
 62
8
 10
2050.975
 20
-4814.270
 30
1734.106
 70
    32
  0
VERTEX
  8
T35SSILL
 62
8
 10
2053.936
 20
-4818.996
 30
1734.102
 70
    32
  0
VERTEX
  8
T35SSILL
 62
8
 10
2056.063
 20
-4820.030
 30
1734.099
 70
    32
  0
VERTEX
  8
T35SSILL
 62
8
 10
2059.768
 20
-4828.273
 30
1734.102
 70
    32
  0
VERTEX
  8
T35SSILL
 62
8
 10
2068.038
 20
-4834.878
 30
1734.115
 70
    32
  0
VERTEX
  8
T35SSILL
 62
8
 10
2072.585
 20
-4847.429
 30
1734.149
 70
    32
  0
VERTEX
  8
T35SSILL
 62
8
 10
2074.254
 20
-4854.814
 30
1734.170
 70
    32
  0
VERTEX
  8
T35SSILL
 62
8
 10
2062.707
 20
-4863.578
 30
1734.204
 70
    32
  0
VERTEX
  8
T35SSILL
 62
8
 10
2077.641
 20
-4883.878
 30
1734.253
 70
    32
  0
VERTEX
  8
T35SSILL
 62
8
 10
2087.311
 20
-4876.771
 30
1734.225
 70
    32
  0
VERTEX
  8
T35SSILL
 62
8
 10
2094.422
 20
-4886.437
 30
1734.248
 70
    32
  0
SEQEND
  8
T35SSILL
  0
POLYLINE
  8
T35SSILL
 62
8
 66
     1
 70
     9
  0
VERTEX
  8
T35SSILL
 62
8
 10
1978.009
 20
-4788.800
 30
1734.216
 70
    32
  0
VERTEX
  8
T35SSILL
 62
8
 10
1990.491
 20
-4796.851
 30
1734.198
 70
    32
  0
VERTEX
  8
T35SSILL
 62
8
 10
2014.691
 20
-4830.736
 30
1734.164
 70
    32
  0
VERTEX
  8
T35SSILL
 62
8
 10
1997.533
 20
-4842.541
 30
1734.193
 70
    32
  0
VERTEX
  8
T35SSILL
 62
8
 10
1997.231
 20
-4847.127
 30
1734.205
 70
    32
  0
VERTEX
  8
T35SSILL
 62
8
 10
2011.857
 20
-4870.406
 30
1734.263
 70
    32
  0
VERTEX
  8
T35SSILL
 62
8
 10
2017.272
 20
-4873.870
 30
1734.269
 70
    32
  0
VERTEX
  8
T35SSILL
 62
8
 10
2023.094
 20
-4882.266
 30
1734.289
 70
    32
  0
VERTEX
  8
T35SSILL
 62
8
 10
2033.708
 20
-4885.672
 30
1734.292
 70
    32
  0
VERTEX
  8
T35SSILL
 62
8
 10
2047.024
 20
-4876.007
 30
1734.253
 70
    32
  0
VERTEX
  8
T35SSILL
 62
8
 10
2050.788
 20
-4881.277
 30
1734.266
 70
    32
  0
VERTEX
  8
T35SSILL
 62
8
 10
2041.488
 20
-4888.113
 30
1734.293
 70
    32
  0
VERTEX
  8
T35SSILL
 62
8
 10
2058.987
 20
-4912.483
 30
1734.352
 70
    32
  0
VERTEX
  8
T35SSILL
 62
8
 10
2068.461
 20
-4906.022
 30
1734.326
 70
    32
  0
VERTEX
  8
T35SSILL
 62
8
 10
2048.428
 20
-4922.325
 30
1734.359
 70
    32
  0
VERTEX
  8
T35SSILL
 62
8
 10
1978.578
 20
-4972.939
 30
1734.220
 70
    32
  0
VERTEX
  8
T35SSILL
 62
8
 10
1968.096
 20
-4972.279
 30
1734.219
 70
    32
  0
VERTEX
  8
T35SSILL
 62
8
 10
1948.495
 20
-4944.722
 30
1734.280
 70
    32
  0
VERTEX
  8
T35SSILL
 62
8
 10
1970.130
 20
-4928.593
 30
1734.324
 70
    32
  0
VERTEX
  8
T35SSILL
 62
8
 10
1967.165
 20
-4923.874
 30
1734.335
 70
    32
  0
VERTEX
  8
T35SSILL
 62
8
 10
1957.095
 20
-4914.488
 30
1734.355
 70
    32
  0
VERTEX
  8
T35SSILL
 62
8
 10
1945.504
 20
-4910.229
 30
1734.363
 70
    32
  0
VERTEX
  8
T35SSILL
 62
8
 10
1937.245
 20
-4904.783
 30
1734.374
 70
    32
  0
VERTEX
  8
T35SSILL
 62
8
 10
1925.834
 20
-4893.829
 30
1734.397
 70
    32
  0
VERTEX
  8
T35SSILL
 62
8
 10
1916.866
 20
-4900.255
 30
1734.379
 70
    32
  0
VERTEX
  8
T35SSILL
 62
8
 10
1896.859
 20
-4872.128
 30
1734.354
 70
    32
  0
VERTEX
  8
T35SSILL
 62
8
 10
1891.017
 20
-4876.515
 30
1734.371
 70
    32
  0
VERTEX
  8
T35SSILL
 62
8
 10
1911.111
 20
-4904.379
 30
1734.368
 70
    32
  0
VERTEX
  8
T35SSILL
 62
8
 10
1894.060
 20
-4916.597
 30
1734.335
 70
    32
  0
VERTEX
  8
T35SSILL
 62
8
 10
1896.674
 20
-4921.409
 30
1734.324
 70
    32
  0
VERTEX
  8
T35SSILL
 62
8
 10
1903.979
 20
-4928.011
 30
1734.310
 70
    32
  0
VERTEX
  8
T35SSILL
 62
8
 10
1914.861
 20
-4931.926
 30
1734.303
 70
    32
  0
VERTEX
  8
T35SSILL
 62
8
 10
1925.685
 20
-4938.220
 30
1734.290
 70
    32
  0
VERTEX
  8
T35SSILL
 62
8
 10
1933.200
 20
-4947.550
 30
1734.270
 70
    32
  0
VERTEX
  8
T35SSILL
 62
8
 10
1941.155
 20
-4949.829
 30
1734.266
 70
    32
  0
VERTEX
  8
T35SSILL
 62
8
 10
1942.988
 20
-4948.585
 30
1734.270
 70
    32
  0
VERTEX
  8
T35SSILL
 62
8
 10
1966.626
 20
-4981.364
 30
1734.197
 70
    32
  0
VERTEX
  8
T35SSILL
 62
8
 10
1954.427
 20
-4990.226
 30
1734.172
 70
    32
  0
VERTEX
  8
T35SSILL
 62
8
 10
1947.342
 20
-4979.697
 30
1734.196
 70
    32
  0
VERTEX
  8
T35SSILL
 62
8
 10
1952.109
 20
-4973.560
 30
1734.212
 70
    32
  0
VERTEX
  8
T35SSILL
 62
8
 10
1948.349
 20
-4968.675
 30
1734.223
 70
    32
  0
VERTEX
  8
T35SSILL
 62
8
 10
1937.954
 20
-4975.587
 30
1734.204
 70
    32
  0
VERTEX
  8
T35SSILL
 62
8
 10
1943.146
 20
-4982.215
 30
1734.189
 70
    32
  0
VERTEX
  8
T35SSILL
 62
8
 10
1941.226
 20
-4983.649
 30
1734.185
 70
    32
  0
VERTEX
  8
T35SSILL
 62
8
 10
1948.856
 20
-4994.273
 30
1734.161
 70
    32
  0
VERTEX
  8
T35SSILL
 62
8
 10
1906.704
 20
-5024.896
 30
1734.077
 70
    32
  0
VERTEX
  8
T35SSILL
 62
8
 10
1871.268
 20
-4976.163
 30
1734.186
 70
    32
  0
VERTEX
  8
T35SSILL
 62
8
 10
1877.574
 20
-4971.674
 30
1734.198
 70
    32
  0
VERTEX
  8
T35SSILL
 62
8
 10
1874.350
 20
-4967.398
 30
1734.208
 70
    32
  0
VERTEX
  8
T35SSILL
 62
8
 10
1868.280
 20
-4972.052
 30
1734.195
 70
    32
  0
VERTEX
  8
T35SSILL
 62
8
 10
1828.060
 20
-4916.740
 30
1734.332
 70
    32
  0
VERTEX
  8
T35SSILL
 62
8
 10
1844.317
 20
-4900.604
 30
1734.361
 70
    32
  0
VERTEX
  8
T35SSILL
 62
8
 10
1857.914
 20
-4889.958
 30
1734.390
 70
    32
  0
VERTEX
  8
T35SSILL
 62
8
 10
1902.847
 20
-4858.322
 30
1734.341
 70
    32
  0
VERTEX
  8
T35SSILL
 62
8
 10
1891.263
 20
-4841.757
 30
1734.357
 70
    32
  0
VERTEX
  8
T35SSILL
 62
8
 10
1948.772
 20
-4800.503
 30
1734.263
 70
    32
  0
VERTEX
  8
T35SSILL
 62
8
 10
1971.503
 20
-4833.005
 30
1734.232
 70
    32
  0
VERTEX
  8
T35SSILL
 62
8
 10
1984.648
 20
-4824.037
 30
1734.210
 70
    32
  0
VERTEX
  8
T35SSILL
 62
8
 10
1961.398
 20
-4791.432
 30
1734.242
 70
    32
  0
VERTEX
  8
T35SSILL
 62
8
 10
1965.045
 20
-4788.796
 30
1734.236
 70
    32
  0
SEQEND
  8
T35SSILL
  0
POLYLINE
  8
T35SSILL
 62
8
 66
     1
 70
     9
  0
VERTEX
  8
T35SSILL
 62
8
 10
1349.505
 20
-4347.650
 30
1735.024
 70
    32
  0
VERTEX
  8
T35SSILL
 62
8
 10
1335.103
 20
-4342.001
 30
1735.044
 70
    32
  0
VERTEX
  8
T35SSILL
 62
8
 10
1331.460
 20
-4338.402
 30
1735.052
 70
    32
  0
VERTEX
  8
T35SSILL
 62
8
 10
1301.740
 20
-4359.657
 30
1735.043
 70
    32
  0
VERTEX
  8
T35SSILL
 62
8
 10
1306.042
 20
-4365.835
 30
1735.030
 70
    32
  0
VERTEX
  8
T35SSILL
 62
8
 10
1300.521
 20
-4369.937
 30
1735.028
 70
    32
  0
VERTEX
  8
T35SSILL
 62
8
 10
1296.102
 20
-4363.690
 30
1735.041
 70
    32
  0
VERTEX
  8
T35SSILL
 62
8
 10
1261.229
 20
-4389.077
 30
1735.030
 70
    32
  0
VERTEX
  8
T35SSILL
 62
8
 10
1256.335
 20
-4396.899
 30
1735.021
 70
    32
  0
VERTEX
  8
T35SSILL
 62
8
 10
1255.177
 20
-4407.301
 30
1734.999
 70
    32
  0
VERTEX
  8
T35SSILL
 62
8
 10
1257.002
 20
-4413.771
 30
1734.989
 70
    32
  0
VERTEX
  8
T35SSILL
 62
8
 10
1303.532
 20
-4477.650
 30
1734.836
 70
    32
  0
VERTEX
  8
T35SSILL
 62
8
 10
1307.145
 20
-4468.146
 30
1734.854
 70
    32
  0
VERTEX
  8
T35SSILL
 62
8
 10
1310.169
 20
-4464.848
 30
1734.858
 70
    32
  0
VERTEX
  8
T35SSILL
 62
8
 10
1319.103
 20
-4413.764
 30
1734.948
 70
    32
  0
VERTEX
  8
T35SSILL
 62
8
 10
1321.647
 20
-4407.509
 30
1734.956
 70
    32
  0
VERTEX
  8
T35SSILL
 62
8
 10
1329.765
 20
-4397.233
 30
1734.965
 70
    32
  0
VERTEX
  8
T35SSILL
 62
8
 10
1345.234
 20
-4386.190
 30
1734.970
 70
    32
  0
VERTEX
  8
T35SSILL
 62
8
 10
1342.193
 20
-4381.129
 30
1734.980
 70
    32
  0
VERTEX
  8
T35SSILL
 62
8
 10
1347.662
 20
-4377.408
 30
1734.981
 70
    32
  0
VERTEX
  8
T35SSILL
 62
8
 10
1350.968
 20
-4382.097
 30
1734.972
 70
    32
  0
VERTEX
  8
T35SSILL
 62
8
 10
1361.870
 20
-4374.314
 30
1734.975
 70
    32
  0
VERTEX
  8
T35SSILL
 62
8
 10
1352.507
 20
-4373.972
 30
1734.983
 70
    32
  0
VERTEX
  8
T35SSILL
 62
8
 10
1349.612
 20
-4369.305
 30
1734.992
 70
    32
  0
VERTEX
  8
T35SSILL
 62
8
 10
1354.068
 20
-4360.027
 30
1735.002
 70
    32
  0
VERTEX
  8
T35SSILL
 62
8
 10
1357.302
 20
-4356.562
 30
1735.005
 70
    32
  0
VERTEX
  8
T35SSILL
 62
8
 10
1359.481
 20
-4349.243
 30
1735.014
 70
    32
  0
VERTEX
  8
T35SSILL
 62
8
 10
1366.938
 20
-4346.660
 30
1735.013
 70
    32
  0
VERTEX
  8
T35SSILL
 62
8
 10
1369.483
 20
-4347.380
 30
1735.010
 70
    32
  0
VERTEX
  8
T35SSILL
 62
8
 10
1381.486
 20
-4353.084
 30
1734.992
 70
    32
  0
VERTEX
  8
T35SSILL
 62
8
 10
1384.448
 20
-4358.196
 30
1734.982
 70
    32
  0
VERTEX
  8
T35SSILL
 62
8
 10
1447.241
 20
-4313.370
 30
1735.001
 70
    32
  0
VERTEX
  8
T35SSILL
 62
8
 10
1444.363
 20
-4308.886
 30
1735.010
 70
    32
  0
VERTEX
  8
T35SSILL
 62
8
 10
1450.272
 20
-4304.711
 30
1735.012
 70
    32
  0
VERTEX
  8
T35SSILL
 62
8
 10
1453.263
 20
-4309.071
 30
1735.003
 70
    32
  0
VERTEX
  8
T35SSILL
 62
8
 10
1501.799
 20
-4274.423
 30
1735.018
 70
    32
  0
VERTEX
  8
T35SSILL
 62
8
 10
1497.836
 20
-4268.852
 30
1735.029
 70
    32
  0
VERTEX
  8
T35SSILL
 62
8
 10
1509.596
 20
-4260.744
 30
1735.033
 70
    32
  0
VERTEX
  8
T35SSILL
 62
8
 10
1513.334
 20
-4266.188
 30
1735.022
 70
    32
  0
VERTEX
  8
T35SSILL
 62
8
 10
1558.422
 20
-4234.001
 30
1734.975
 70
    32
  0
VERTEX
  8
T35SSILL
 62
8
 10
1616.799
 20
-4242.918
 30
1734.851
 70
    32
  0
VERTEX
  8
T35SSILL
 62
8
 10
1680.874
 20
-4196.900
 30
1734.673
 70
    32
  0
VERTEX
  8
T35SSILL
 62
8
 10
1678.814
 20
-4194.376
 30
1734.676
 70
    32
  0
VERTEX
  8
T35SSILL
 62
8
 10
1684.967
 20
-4189.953
 30
1734.658
 70
    32
  0
VERTEX
  8
T35SSILL
 62
8
 10
1682.600
 20
-4186.844
 30
1734.662
 70
    32
  0
VERTEX
  8
T35SSILL
 62
8
 10
1689.014
 20
-4182.182
 30
1734.642
 70
    32
  0
VERTEX
  8
T35SSILL
 62
8
 10
1693.747
 20
-4188.300
 30
1734.634
 70
    32
  0
VERTEX
  8
T35SSILL
 62
8
 10
1701.548
 20
-4185.703
 30
1734.613
 70
    32
  0
VERTEX
  8
T35SSILL
 62
8
 10
1627.493
 20
-4140.344
 30
1734.769
 70
    32
  0
VERTEX
  8
T35SSILL
 62
8
 10
1620.187
 20
-4138.600
 30
1734.786
 70
    32
  0
VERTEX
  8
T35SSILL
 62
8
 10
1615.573
 20
-4138.792
 30
1734.798
 70
    32
  0
VERTEX
  8
T35SSILL
 62
8
 10
1607.698
 20
-4141.244
 30
1734.820
 70
    32
  0
VERTEX
  8
T35SSILL
 62
8
 10
1587.929
 20
-4154.981
 30
1734.880
 70
    32
  0
VERTEX
  8
T35SSILL
 62
8
 10
1592.170
 20
-4161.302
 30
1734.873
 70
    32
  0
VERTEX
  8
T35SSILL
 62
8
 10
1586.769
 20
-4164.979
 30
1734.889
 70
    32
  0
VERTEX
  8
T35SSILL
 62
8
 10
1582.603
 20
-4158.790
 30
1734.896
 70
    32
  0
VERTEX
  8
T35SSILL
 62
8
 10
1564.583
 20
-4171.677
 30
1734.950
 70
    32
  0
VERTEX
  8
T35SSILL
 62
8
 10
1569.317
 20
-4178.737
 30
1734.943
 70
    32
  0
VERTEX
  8
T35SSILL
 62
8
 10
1563.268
 20
-4183.019
 30
1734.961
 70
    32
  0
VERTEX
  8
T35SSILL
 62
8
 10
1558.409
 20
-4176.093
 30
1734.969
 70
    32
  0
VERTEX
  8
T35SSILL
 62
8
 10
1484.671
 20
-4228.829
 30
1735.100
 70
    32
  0
VERTEX
  8
T35SSILL
 62
8
 10
1488.854
 20
-4235.353
 30
1735.087
 70
    32
  0
VERTEX
  8
T35SSILL
 62
8
 10
1483.279
 20
-4239.384
 30
1735.085
 70
    32
  0
VERTEX
  8
T35SSILL
 62
8
 10
1478.915
 20
-4232.946
 30
1735.098
 70
    32
  0
VERTEX
  8
T35SSILL
 62
8
 10
1453.417
 20
-4251.181
 30
1735.090
 70
    32
  0
VERTEX
  8
T35SSILL
 62
8
 10
1458.125
 20
-4258.019
 30
1735.076
 70
    32
  0
VERTEX
  8
T35SSILL
 62
8
 10
1452.249
 20
-4261.947
 30
1735.075
 70
    32
  0
VERTEX
  8
T35SSILL
 62
8
 10
1447.348
 20
-4255.522
 30
1735.088
 70
    32
  0
VERTEX
  8
T35SSILL
 62
8
 10
1426.294
 20
-4270.579
 30
1735.082
 70
    32
  0
VERTEX
  8
T35SSILL
 62
8
 10
1431.516
 20
-4277.654
 30
1735.067
 70
    32
  0
VERTEX
  8
T35SSILL
 62
8
 10
1425.517
 20
-4281.565
 30
1735.066
 70
    32
  0
VERTEX
  8
T35SSILL
 62
8
 10
1420.719
 20
-4274.566
 30
1735.080
 70
    32
  0
VERTEX
  8
T35SSILL
 62
8
 10
1392.572
 20
-4294.696
 30
1735.071
 70
    32
  0
VERTEX
  8
T35SSILL
 62
8
 10
1397.251
 20
-4301.354
 30
1735.058
 70
    32
  0
VERTEX
  8
T35SSILL
 62
8
 10
1391.313
 20
-4306.217
 30
1735.055
 70
    32
  0
VERTEX
  8
T35SSILL
 62
8
 10
1386.071
 20
-4299.346
 30
1735.069
 70
    32
  0
VERTEX
  8
T35SSILL
 62
8
 10
1365.768
 20
-4313.866
 30
1735.063
 70
    32
  0
VERTEX
  8
T35SSILL
 62
8
 10
1373.219
 20
-4323.348
 30
1735.043
 70
    32
  0
VERTEX
  8
T35SSILL
 62
8
 10
1373.014
 20
-4332.820
 30
1735.029
 70
    32
  0
VERTEX
  8
T35SSILL
 62
8
 10
1371.598
 20
-4338.669
 30
1735.021
 70
    32
  0
VERTEX
  8
T35SSILL
 62
8
 10
1365.451
 20
-4346.020
 30
1735.015
 70
    32
  0
VERTEX
  8
T35SSILL
 62
8
 10
1351.816
 20
-4347.772
 30
1735.023
 70
    32
  0
SEQEND
  8
T35SSILL
  0
POLYLINE
  8
T35SSILL
 62
8
 66
     1
 70
     9
  0
VERTEX
  8
T35SSILL
 62
8
 10
1371.381
 20
-4377.286
 30
1734.963
 70
    32
  0
VERTEX
  8
T35SSILL
 62
8
 10
1334.954
 20
-4403.467
 30
1734.952
 70
    32
  0
VERTEX
  8
T35SSILL
 62
8
 10
1328.226
 20
-4410.915
 30
1734.946
 70
    32
  0
VERTEX
  8
T35SSILL
 62
8
 10
1325.897
 20
-4417.890
 30
1734.937
 70
    32
  0
VERTEX
  8
T35SSILL
 62
8
 10
1318.236
 20
-4457.267
 30
1734.868
 70
    32
  0
VERTEX
  8
T35SSILL
 62
8
 10
1531.042
 20
-4304.446
 30
1734.951
 70
    32
  0
VERTEX
  8
T35SSILL
 62
8
 10
1528.066
 20
-4302.169
 30
1734.956
 70
    32
  0
VERTEX
  8
T35SSILL
 62
8
 10
1521.083
 20
-4291.543
 30
1734.978
 70
    32
  0
VERTEX
  8
T35SSILL
 62
8
 10
1519.687
 20
-4286.075
 30
1734.987
 70
    32
  0
VERTEX
  8
T35SSILL
 62
8
 10
1521.020
 20
-4282.735
 30
1734.991
 70
    32
  0
VERTEX
  8
T35SSILL
 62
8
 10
1528.064
 20
-4279.919
 30
1734.990
 70
    32
  0
VERTEX
  8
T35SSILL
 62
8
 10
1531.554
 20
-4280.140
 30
1734.987
 70
    32
  0
VERTEX
  8
T35SSILL
 62
8
 10
1557.197
 20
-4285.664
 30
1734.959
 70
    32
  0
VERTEX
  8
T35SSILL
 62
8
 10
1607.825
 20
-4249.307
 30
1734.871
 70
    32
  0
VERTEX
  8
T35SSILL
 62
8
 10
1559.133
 20
-4242.206
 30
1734.974
 70
    32
  0
VERTEX
  8
T35SSILL
 62
8
 10
1385.993
 20
-4366.773
 30
1734.968
 70
    32
  0
VERTEX
  8
T35SSILL
 62
8
 10
1388.686
 20
-4372.988
 30
1734.956
 70
    32
  0
VERTEX
  8
T35SSILL
 62
8
 10
1388.721
 20
-4381.611
 30
1734.943
 70
    32
  0
VERTEX
  8
T35SSILL
 62
8
 10
1384.048
 20
-4385.952
 30
1734.940
 70
    32
  0
VERTEX
  8
T35SSILL
 62
8
 10
1374.919
 20
-4382.222
 30
1734.953
 70
    32
  0
SEQEND
  8
T35SSILL
  0
POLYLINE
  8
T35SSILL
 62
8
 66
     1
 70
     9
  0
VERTEX
  8
T35SSILL
 62
8
 10
1536.636
 20
-4309.574
 30
1734.939
 70
    32
  0
VERTEX
  8
T35SSILL
 62
8
 10
1498.718
 20
-4336.642
 30
1734.927
 70
    32
  0
VERTEX
  8
T35SSILL
 62
8
 10
1502.597
 20
-4342.150
 30
1734.916
 70
    32
  0
VERTEX
  8
T35SSILL
 62
8
 10
1496.937
 20
-4346.348
 30
1734.914
 70
    32
  0
VERTEX
  8
T35SSILL
 62
8
 10
1493.034
 20
-4340.699
 30
1734.925
 70
    32
  0
VERTEX
  8
T35SSILL
 62
8
 10
1468.131
 20
-4358.475
 30
1734.917
 70
    32
  0
VERTEX
  8
T35SSILL
 62
8
 10
1471.978
 20
-4364.022
 30
1734.906
 70
    32
  0
VERTEX
  8
T35SSILL
 62
8
 10
1466.281
 20
-4368.027
 30
1734.905
 70
    32
  0
VERTEX
  8
T35SSILL
 62
8
 10
1462.401
 20
-4362.565
 30
1734.916
 70
    32
  0
VERTEX
  8
T35SSILL
 62
8
 10
1436.741
 20
-4380.882
 30
1734.908
 70
    32
  0
VERTEX
  8
T35SSILL
 62
8
 10
1441.245
 20
-4387.198
 30
1734.895
 70
    32
  0
VERTEX
  8
T35SSILL
 62
8
 10
1435.037
 20
-4391.260
 30
1734.893
 70
    32
  0
VERTEX
  8
T35SSILL
 62
8
 10
1430.810
 20
-4385.116
 30
1734.906
 70
    32
  0
VERTEX
  8
T35SSILL
 62
8
 10
1389.144
 20
-4414.858
 30
1734.893
 70
    32
  0
VERTEX
  8
T35SSILL
 62
8
 10
1393.285
 20
-4420.611
 30
1734.881
 70
    32
  0
VERTEX
  8
T35SSILL
 62
8
 10
1387.151
 20
-4425.060
 30
1734.879
 70
    32
  0
VERTEX
  8
T35SSILL
 62
8
 10
1383.048
 20
-4419.210
 30
1734.891
 70
    32
  0
VERTEX
  8
T35SSILL
 62
8
 10
1342.269
 20
-4448.319
 30
1734.868
 70
    32
  0
VERTEX
  8
T35SSILL
 62
8
 10
1346.223
 20
-4453.894
 30
1734.853
 70
    32
  0
VERTEX
  8
T35SSILL
 62
8
 10
1340.349
 20
-4457.812
 30
1734.849
 70
    32
  0
VERTEX
  8
T35SSILL
 62
8
 10
1336.637
 20
-4452.340
 30
1734.864
 70
    32
  0
VERTEX
  8
T35SSILL
 62
8
 10
1317.909
 20
-4465.708
 30
1734.850
 70
    32
  0
VERTEX
  8
T35SSILL
 62
8
 10
1312.258
 20
-4473.553
 30
1734.838
 70
    32
  0
VERTEX
  8
T35SSILL
 62
8
 10
1310.984
 20
-4480.169
 30
1734.824
 70
    32
  0
VERTEX
  8
T35SSILL
 62
8
 10
1311.471
 20
-4489.097
 30
1734.803
 70
    32
  0
VERTEX
  8
T35SSILL
 62
8
 10
1359.591
 20
-4556.083
 30
1734.545
 70
    32
  0
VERTEX
  8
T35SSILL
 62
8
 10
1360.427
 20
-4547.481
 30
1734.571
 70
    32
  0
VERTEX
  8
T35SSILL
 62
8
 10
1358.514
 20
-4517.854
 30
1734.666
 70
    32
  0
VERTEX
  8
T35SSILL
 62
8
 10
1359.165
 20
-4508.178
 30
1734.696
 70
    32
  0
VERTEX
  8
T35SSILL
 62
8
 10
1365.767
 20
-4493.805
 30
1734.734
 70
    32
  0
VERTEX
  8
T35SSILL
 62
8
 10
1375.305
 20
-4485.345
 30
1734.751
 70
    32
  0
VERTEX
  8
T35SSILL
 62
8
 10
1394.391
 20
-4471.647
 30
1734.776
 70
    32
  0
VERTEX
  8
T35SSILL
 62
8
 10
1391.381
 20
-4467.108
 30
1734.788
 70
    32
  0
VERTEX
  8
T35SSILL
 62
8
 10
1398.223
 20
-4461.989
 30
1734.794
 70
    32
  0
VERTEX
  8
T35SSILL
 62
8
 10
1403.408
 20
-4458.490
 30
1734.797
 70
    32
  0
VERTEX
  8
T35SSILL
 62
8
 10
1406.376
 20
-4463.046
 30
1734.785
 70
    32
  0
VERTEX
  8
T35SSILL
 62
8
 10
1436.425
 20
-4441.481
 30
1734.807
 70
    32
  0
VERTEX
  8
T35SSILL
 62
8
 10
1433.442
 20
-4437.262
 30
1734.819
 70
    32
  0
VERTEX
  8
T35SSILL
 62
8
 10
1443.691
 20
-4430.376
 30
1734.826
 70
    32
  0
VERTEX
  8
T35SSILL
 62
8
 10
1446.465
 20
-4434.276
 30
1734.815
 70
    32
  0
VERTEX
  8
T35SSILL
 62
8
 10
1516.350
 20
-4384.122
 30
1734.842
 70
    32
  0
VERTEX
  8
T35SSILL
 62
8
 10
1513.140
 20
-4379.588
 30
1734.851
 70
    32
  0
VERTEX
  8
T35SSILL
 62
8
 10
1522.948
 20
-4372.674
 30
1734.854
 70
    32
  0
VERTEX
  8
T35SSILL
 62
8
 10
1519.481
 20
-4367.777
 30
1734.864
 70
    32
  0
VERTEX
  8
T35SSILL
 62
8
 10
1534.193
 20
-4357.405
 30
1734.869
 70
    32
  0
VERTEX
  8
T35SSILL
 62
8
 10
1537.660
 20
-4362.302
 30
1734.859
 70
    32
  0
VERTEX
  8
T35SSILL
 62
8
 10
1547.468
 20
-4355.388
 30
1734.861
 70
    32
  0
VERTEX
  8
T35SSILL
 62
8
 10
1550.473
 20
-4359.633
 30
1734.853
 70
    32
  0
VERTEX
  8
T35SSILL
 62
8
 10
1565.989
 20
-4348.498
 30
1734.858
 70
    32
  0
VERTEX
  8
T35SSILL
 62
8
 10
1562.827
 20
-4344.254
 30
1734.866
 70
    32
  0
VERTEX
  8
T35SSILL
 62
8
 10
1568.789
 20
-4339.873
 30
1734.868
 70
    32
  0
VERTEX
  8
T35SSILL
 62
8
 10
1571.810
 20
-4344.320
 30
1734.859
 70
    32
  0
VERTEX
  8
T35SSILL
 62
8
 10
1601.489
 20
-4323.021
 30
1734.869
 70
    32
  0
VERTEX
  8
T35SSILL
 62
8
 10
1598.313
 20
-4318.934
 30
1734.877
 70
    32
  0
VERTEX
  8
T35SSILL
 62
8
 10
1604.746
 20
-4314.757
 30
1734.879
 70
    32
  0
VERTEX
  8
T35SSILL
 62
8
 10
1607.297
 20
-4318.853
 30
1734.871
 70
    32
  0
VERTEX
  8
T35SSILL
 62
8
 10
1639.957
 20
-4295.414
 30
1734.806
 70
    32
  0
VERTEX
  8
T35SSILL
 62
8
 10
1637.214
 20
-4291.274
 30
1734.812
 70
    32
  0
VERTEX
  8
T35SSILL
 62
8
 10
1642.901
 20
-4287.417
 30
1734.799
 70
    32
  0
VERTEX
  8
T35SSILL
 62
8
 10
1645.685
 20
-4291.303
 30
1734.794
 70
    32
  0
VERTEX
  8
T35SSILL
 62
8
 10
1674.161
 20
-4270.866
 30
1734.732
 70
    32
  0
VERTEX
  8
T35SSILL
 62
8
 10
1734.244
 20
-4277.070
 30
1734.593
 70
    32
  0
VERTEX
  8
T35SSILL
 62
8
 10
1745.168
 20
-4269.151
 30
1734.560
 70
    32
  0
VERTEX
  8
T35SSILL
 62
8
 10
1686.221
 20
-4202.796
 30
1734.663
 70
    32
  0
VERTEX
  8
T35SSILL
 62
8
 10
1633.827
 20
-4240.197
 30
1734.815
 70
    32
  0
VERTEX
  8
T35SSILL
 62
8
 10
1637.534
 20
-4245.287
 30
1734.807
 70
    32
  0
VERTEX
  8
T35SSILL
 62
8
 10
1631.013
 20
-4249.809
 30
1734.822
 70
    32
  0
VERTEX
  8
T35SSILL
 62
8
 10
1627.508
 20
-4244.707
 30
1734.829
 70
    32
  0
VERTEX
  8
T35SSILL
 62
8
 10
1587.353
 20
-4273.371
 30
1734.916
 70
    32
  0
VERTEX
  8
T35SSILL
 62
8
 10
1591.109
 20
-4278.971
 30
1734.909
 70
    32
  0
VERTEX
  8
T35SSILL
 62
8
 10
1585.322
 20
-4282.712
 30
1734.921
 70
    32
  0
VERTEX
  8
T35SSILL
 62
8
 10
1581.766
 20
-4277.359
 30
1734.929
 70
    32
  0
VERTEX
  8
T35SSILL
 62
8
 10
1562.299
 20
-4291.255
 30
1734.946
 70
    32
  0
VERTEX
  8
T35SSILL
 62
8
 10
1572.185
 20
-4305.445
 30
1734.918
 70
    32
  0
VERTEX
  8
T35SSILL
 62
8
 10
1554.895
 20
-4326.358
 30
1734.899
 70
    32
  0
VERTEX
  8
T35SSILL
 62
8
 10
1539.992
 20
-4314.345
 30
1734.929
 70
    32
  0
SEQEND
  8
T35SSILL
  0
POLYLINE
  8
T35SSILL
 62
8
 66
     1
 70
     9
  0
VERTEX
  8
T35SSILL
 62
8
 10
1444.829
 20
-4546.685
 30
1734.490
 70
    32
  0
VERTEX
  8
T35SSILL
 62
8
 10
1447.599
 20
-4550.882
 30
1734.482
 70
    32
  0
VERTEX
  8
T35SSILL
 62
8
 10
1436.515
 20
-4559.576
 30
1734.469
 70
    32
  0
VERTEX
  8
T35SSILL
 62
8
 10
1428.464
 20
-4570.112
 30
1734.453
 70
    32
  0
VERTEX
  8
T35SSILL
 62
8
 10
1426.426
 20
-4576.340
 30
1734.442
 70
    32
  0
VERTEX
  8
T35SSILL
 62
8
 10
1419.691
 20
-4624.395
 30
1734.362
 70
    32
  0
VERTEX
  8
T35SSILL
 62
8
 10
1417.117
 20
-4628.514
 30
1734.356
 70
    32
  0
VERTEX
  8
T35SSILL
 62
8
 10
1414.591
 20
-4636.933
 30
1734.343
 70
    32
  0
VERTEX
  8
T35SSILL
 62
8
 10
1368.548
 20
-4572.527
 30
1734.484
 70
    32
  0
VERTEX
  8
T35SSILL
 62
8
 10
1366.082
 20
-4560.318
 30
1734.525
 70
    32
  0
VERTEX
  8
T35SSILL
 62
8
 10
1367.518
 20
-4555.064
 30
1734.540
 70
    32
  0
VERTEX
  8
T35SSILL
 62
8
 10
1372.021
 20
-4547.286
 30
1734.560
 70
    32
  0
VERTEX
  8
T35SSILL
 62
8
 10
1407.579
 20
-4521.924
 30
1734.604
 70
    32
  0
VERTEX
  8
T35SSILL
 62
8
 10
1411.415
 20
-4526.967
 30
1734.585
 70
    32
  0
VERTEX
  8
T35SSILL
 62
8
 10
1416.794
 20
-4523.437
 30
1734.590
 70
    32
  0
VERTEX
  8
T35SSILL
 62
8
 10
1412.924
 20
-4518.132
 30
1734.611
 70
    32
  0
VERTEX
  8
T35SSILL
 62
8
 10
1507.129
 20
-4450.410
 30
1734.730
 70
    32
  0
VERTEX
  8
T35SSILL
 62
8
 10
1510.845
 20
-4455.985
 30
1734.709
 70
    32
  0
VERTEX
  8
T35SSILL
 62
8
 10
1517.300
 20
-4451.327
 30
1734.717
 70
    32
  0
VERTEX
  8
T35SSILL
 62
8
 10
1513.342
 20
-4445.909
 30
1734.736
 70
    32
  0
VERTEX
  8
T35SSILL
 62
8
 10
1530.191
 20
-4433.703
 30
1734.749
 70
    32
  0
VERTEX
  8
T35SSILL
 62
8
 10
1543.644
 20
-4453.460
 30
1734.684
 70
    32
  0
VERTEX
  8
T35SSILL
 62
8
 10
1609.242
 20
-4406.248
 30
1734.738
 70
    32
  0
VERTEX
  8
T35SSILL
 62
8
 10
1606.808
 20
-4387.706
 30
1734.767
 70
    32
  0
VERTEX
  8
T35SSILL
 62
8
 10
1607.307
 20
-4385.411
 30
1734.771
 70
    32
  0
VERTEX
  8
T35SSILL
 62
8
 10
1613.155
 20
-4381.465
 30
1734.772
 70
    32
  0
VERTEX
  8
T35SSILL
 62
8
 10
1609.427
 20
-4376.303
 30
1734.783
 70
    32
  0
VERTEX
  8
T35SSILL
 62
8
 10
1645.416
 20
-4350.232
 30
1734.794
 70
    32
  0
VERTEX
  8
T35SSILL
 62
8
 10
1649.448
 20
-4355.834
 30
1734.783
 70
    32
  0
VERTEX
  8
T35SSILL
 62
8
 10
1654.511
 20
-4352.425
 30
1734.780
 70
    32
  0
VERTEX
  8
T35SSILL
 62
8
 10
1650.826
 20
-4346.313
 30
1734.787
 70
    32
  0
VERTEX
  8
T35SSILL
 62
8
 10
1687.956
 20
-4319.416
 30
1734.706
 70
    32
  0
VERTEX
  8
T35SSILL
 62
8
 10
1691.839
 20
-4325.021
 30
1734.698
 70
    32
  0
VERTEX
  8
T35SSILL
 62
8
 10
1698.559
 20
-4320.448
 30
1734.684
 70
    32
  0
VERTEX
  8
T35SSILL
 62
8
 10
1694.650
 20
-4314.566
 30
1734.691
 70
    32
  0
VERTEX
  8
T35SSILL
 62
8
 10
1750.506
 20
-4274.103
 30
1734.550
 70
    32
  0
VERTEX
  8
T35SSILL
 62
8
 10
1808.402
 20
-4340.639
 30
1734.449
 70
    32
  0
VERTEX
  8
T35SSILL
 62
8
 10
1799.230
 20
-4347.258
 30
1734.472
 70
    32
  0
VERTEX
  8
T35SSILL
 62
8
 10
1744.698
 20
-4338.307
 30
1734.587
 70
    32
  0
VERTEX
  8
T35SSILL
 62
8
 10
1732.177
 20
-4347.265
 30
1734.614
 70
    32
  0
VERTEX
  8
T35SSILL
 62
8
 10
1728.846
 20
-4342.190
 30
1734.621
 70
    32
  0
VERTEX
  8
T35SSILL
 62
8
 10
1722.996
 20
-4346.274
 30
1734.634
 70
    32
  0
VERTEX
  8
T35SSILL
 62
8
 10
1726.435
 20
-4351.374
 30
1734.627
 70
    32
  0
VERTEX
  8
T35SSILL
 62
8
 10
1652.380
 20
-4404.361
 30
1734.708
 70
    32
  0
VERTEX
  8
T35SSILL
 62
8
 10
1648.661
 20
-4399.325
 30
1734.718
 70
    32
  0
VERTEX
  8
T35SSILL
 62
8
 10
1634.103
 20
-4409.912
 30
1734.713
 70
    32
  0
VERTEX
  8
T35SSILL
 62
8
 10
1630.539
 20
-4405.085
 30
1734.723
 70
    32
  0
VERTEX
  8
T35SSILL
 62
8
 10
1601.422
 20
-4426.258
 30
1734.707
 70
    32
  0
VERTEX
  8
T35SSILL
 62
8
 10
1608.459
 20
-4435.786
 30
1734.676
 70
    32
  0
VERTEX
  8
T35SSILL
 62
8
 10
1558.600
 20
-4471.461
 30
1734.613
 70
    32
  0
VERTEX
  8
T35SSILL
 62
8
 10
1555.521
 20
-4467.196
 30
1734.629
 70
    32
  0
VERTEX
  8
T35SSILL
 62
8
 10
1540.816
 20
-4477.579
 30
1734.611
 70
    32
  0
VERTEX
  8
T35SSILL
 62
8
 10
1537.304
 20
-4472.714
 30
1734.630
 70
    32
  0
VERTEX
  8
T35SSILL
 62
8
 10
1532.402
 20
-4476.175
 30
1734.624
 70
    32
  0
VERTEX
  8
T35SSILL
 62
8
 10
1528.890
 20
-4471.310
 30
1734.643
 70
    32
  0
VERTEX
  8
T35SSILL
 62
8
 10
1504.382
 20
-4488.614
 30
1734.613
 70
    32
  0
VERTEX
  8
T35SSILL
 62
8
 10
1507.894
 20
-4493.479
 30
1734.594
 70
    32
  0
VERTEX
  8
T35SSILL
 62
8
 10
1498.091
 20
-4500.401
 30
1734.582
 70
    32
  0
VERTEX
  8
T35SSILL
 62
8
 10
1504.924
 20
-4509.866
 30
1734.545
 70
    32
  0
VERTEX
  8
T35SSILL
 62
8
 10
1458.254
 20
-4543.259
 30
1734.492
 70
    32
  0
VERTEX
  8
T35SSILL
 62
8
 10
1455.649
 20
-4539.256
 30
1734.502
 70
    32
  0
VERTEX
  8
T35SSILL
 62
8
 10
1448.961
 20
-4543.848
 30
1734.494
 70
    32
  0
SEQEND
  8
T35SSILL
  0
POLYLINE
  8
T35SSILL
 62
8
 66
     1
 70
     9
  0
VERTEX
  8
T35SSILL
 62
8
 10
1520.850
 20
-4390.477
 30
1734.829
 70
    32
  0
VERTEX
  8
T35SSILL
 62
8
 10
1377.764
 20
-4493.009
 30
1734.725
 70
    32
  0
VERTEX
  8
T35SSILL
 62
8
 10
1373.767
 20
-4496.956
 30
1734.716
 70
    32
  0
VERTEX
  8
T35SSILL
 62
8
 10
1368.700
 20
-4503.946
 30
1734.699
 70
    32
  0
VERTEX
  8
T35SSILL
 62
8
 10
1367.295
 20
-4509.394
 30
1734.684
 70
    32
  0
VERTEX
  8
T35SSILL
 62
8
 10
1366.526
 20
-4515.579
 30
1734.665
 70
    32
  0
VERTEX
  8
T35SSILL
 62
8
 10
1367.202
 20
-4542.830
 30
1734.579
 70
    32
  0
VERTEX
  8
T35SSILL
 62
8
 10
1526.656
 20
-4427.551
 30
1734.765
 70
    32
  0
VERTEX
  8
T35SSILL
 62
8
 10
1522.482
 20
-4408.484
 30
1734.801
 70
    32
  0
VERTEX
  8
T35SSILL
 62
8
 10
1524.238
 20
-4401.156
 30
1734.810
 70
    32
  0
VERTEX
  8
T35SSILL
 62
8
 10
1526.973
 20
-4399.125
 30
1734.811
 70
    32
  0
VERTEX
  8
T35SSILL
 62
8
 10
1524.406
 20
-4395.500
 30
1734.819
 70
    32
  0
SEQEND
  8
T35SSILL
  0
POLYLINE
  8
T35SSILL
 62
8
 66
     1
 70
     9
  0
VERTEX
  8
T35SSILL
 62
8
 10
1111.239
 20
-3836.822
 30
1735.846
 70
    32
  0
VERTEX
  8
T35SSILL
 62
8
 10
994.063
 20
-3920.049
 30
1735.790
 70
    32
  0
VERTEX
  8
T35SSILL
 62
8
 10
997.782
 20
-3925.568
 30
1735.784
 70
    32
  0
VERTEX
  8
T35SSILL
 62
8
 10
992.332
 20
-3929.612
 30
1735.777
 70
    32
  0
VERTEX
  8
T35SSILL
 62
8
 10
988.095
 20
-3924.323
 30
1735.782
 70
    32
  0
VERTEX
  8
T35SSILL
 62
8
 10
974.491
 20
-3934.067
 30
1735.765
 70
    32
  0
VERTEX
  8
T35SSILL
 62
8
 10
979.155
 20
-3962.731
 30
1735.730
 70
    32
  0
VERTEX
  8
T35SSILL
 62
8
 10
1000.283
 20
-3992.810
 30
1735.699
 70
    32
  0
VERTEX
  8
T35SSILL
 62
8
 10
1006.441
 20
-3994.210
 30
1735.695
 70
    32
  0
VERTEX
  8
T35SSILL
 62
8
 10
1170.618
 20
-3877.301
 30
1735.741
 70
    32
  0
VERTEX
  8
T35SSILL
 62
8
 10
1177.233
 20
-3873.483
 30
1735.718
 70
    32
  0
VERTEX
  8
T35SSILL
 62
8
 10
1182.842
 20
-3871.980
 30
1735.700
 70
    32
  0
VERTEX
  8
T35SSILL
 62
8
 10
1152.141
 20
-3853.092
 30
1735.757
 70
    32
  0
VERTEX
  8
T35SSILL
 62
8
 10
1144.767
 20
-3858.631
 30
1735.785
 70
    32
  0
VERTEX
  8
T35SSILL
 62
8
 10
1140.383
 20
-3852.444
 30
1735.788
 70
    32
  0
VERTEX
  8
T35SSILL
 62
8
 10
1145.465
 20
-3848.985
 30
1735.770
 70
    32
  0
VERTEX
  8
T35SSILL
 62
8
 10
1128.074
 20
-3838.286
 30
1735.802
 70
    32
  0
VERTEX
  8
T35SSILL
 62
8
 10
1122.880
 20
-3836.262
 30
1735.813
 70
    32
  0
VERTEX
  8
T35SSILL
 62
8
 10
1116.868
 20
-3835.636
 30
1735.828
 70
    32
  0
SEQEND
  8
T35SSILL
  0
POLYLINE
  8
T35SSILL
 62
8
 66
     1
 70
     9
  0
VERTEX
  8
T35SSILL
 62
8
 10
1605.162
 20
-4459.727
 30
1734.604
 70
    32
  0
VERTEX
  8
T35SSILL
 62
8
 10
1574.451
 20
-4481.415
 30
1734.566
 70
    32
  0
VERTEX
  8
T35SSILL
 62
8
 10
1586.595
 20
-4500.700
 30
1734.526
 70
    32
  0
VERTEX
  8
T35SSILL
 62
8
 10
1513.687
 20
-4553.313
 30
1734.454
 70
    32
  0
VERTEX
  8
T35SSILL
 62
8
 10
1503.623
 20
-4546.561
 30
1734.470
 70
    32
  0
VERTEX
  8
T35SSILL
 62
8
 10
1499.885
 20
-4550.305
 30
1734.464
 70
    32
  0
VERTEX
  8
T35SSILL
 62
8
 10
1494.208
 20
-4560.851
 30
1734.447
 70
    32
  0
VERTEX
  8
T35SSILL
 62
8
 10
1491.636
 20
-4566.253
 30
1734.438
 70
    32
  0
VERTEX
  8
T35SSILL
 62
8
 10
1492.354
 20
-4568.707
 30
1734.433
 70
    32
  0
VERTEX
  8
T35SSILL
 62
8
 10
1427.837
 20
-4615.957
 30
1734.373
 70
    32
  0
VERTEX
  8
T35SSILL
 62
8
 10
1434.715
 20
-4574.300
 30
1734.443
 70
    32
  0
VERTEX
  8
T35SSILL
 62
8
 10
1440.250
 20
-4565.242
 30
1734.457
 70
    32
  0
VERTEX
  8
T35SSILL
 62
8
 10
1445.434
 20
-4560.986
 30
1734.464
 70
    32
  0
VERTEX
  8
T35SSILL
 62
8
 10
1504.127
 20
-4519.013
 30
1734.521
 70
    32
  0
VERTEX
  8
T35SSILL
 62
8
 10
1507.427
 20
-4523.584
 30
1734.511
 70
    32
  0
VERTEX
  8
T35SSILL
 62
8
 10
1512.292
 20
-4520.072
 30
1734.516
 70
    32
  0
VERTEX
  8
T35SSILL
 62
8
 10
1515.804
 20
-4524.937
 30
1734.506
 70
    32
  0
VERTEX
  8
T35SSILL
 62
8
 10
1540.127
 20
-4507.376
 30
1734.530
 70
    32
  0
VERTEX
  8
T35SSILL
 62
8
 10
1543.642
 20
-4512.244
 30
1734.520
 70
    32
  0
VERTEX
  8
T35SSILL
 62
8
 10
1553.329
 20
-4505.162
 30
1734.530
 70
    32
  0
VERTEX
  8
T35SSILL
 62
8
 10
1549.856
 20
-4500.351
 30
1734.540
 70
    32
  0
VERTEX
  8
T35SSILL
 62
8
 10
1559.585
 20
-4493.327
 30
1734.549
 70
    32
  0
VERTEX
  8
T35SSILL
 62
8
 10
1552.932
 20
-4484.111
 30
1734.579
 70
    32
  0
VERTEX
  8
T35SSILL
 62
8
 10
1612.622
 20
-4441.424
 30
1734.654
 70
    32
  0
VERTEX
  8
T35SSILL
 62
8
 10
1615.521
 20
-4445.350
 30
1734.639
 70
    32
  0
VERTEX
  8
T35SSILL
 62
8
 10
1649.537
 20
-4420.711
 30
1734.680
 70
    32
  0
VERTEX
  8
T35SSILL
 62
8
 10
1646.789
 20
-4416.991
 30
1734.691
 70
    32
  0
VERTEX
  8
T35SSILL
 62
8
 10
1745.151
 20
-4346.649
 30
1734.587
 70
    32
  0
VERTEX
  8
T35SSILL
 62
8
 10
1789.067
 20
-4354.591
 30
1734.494
 70
    32
  0
VERTEX
  8
T35SSILL
 62
8
 10
1671.043
 20
-4439.761
 30
1734.610
 70
    32
  0
VERTEX
  8
T35SSILL
 62
8
 10
1656.012
 20
-4422.735
 30
1734.669
 70
    32
  0
VERTEX
  8
T35SSILL
 62
8
 10
1643.103
 20
-4432.139
 30
1734.653
 70
    32
  0
VERTEX
  8
T35SSILL
 62
8
 10
1634.231
 20
-4461.562
 30
1734.582
 70
    32
  0
VERTEX
  8
T35SSILL
 62
8
 10
1631.130
 20
-4466.882
 30
1734.574
 70
    32
  0
VERTEX
  8
T35SSILL
 62
8
 10
1622.975
 20
-4469.361
 30
1734.572
 70
    32
  0
VERTEX
  8
T35SSILL
 62
8
 10
1619.977
 20
-4468.959
 30
1734.574
 70
    32
  0
VERTEX
  8
T35SSILL
 62
8
 10
1610.492
 20
-4463.048
 30
1734.588
 70
    32
  0
SEQEND
  8
T35SSILL
  0
POLYLINE
  8
T35SSILL
 62
8
 66
     1
 70
     9
  0
VERTEX
  8
T35SSILL
 62
8
 10
1621.106
 20
-4675.254
 30
1734.102
 70
    32
  0
VERTEX
  8
T35SSILL
 62
8
 10
1616.206
 20
-4678.719
 30
1734.019
 70
    32
  0
VERTEX
  8
T35SSILL
 62
8
 10
1609.175
 20
-4668.321
 30
1733.871
 70
    32
  0
VERTEX
  8
T35SSILL
 62
8
 10
1559.821
 20
-4703.674
 30
1733.032
 70
    32
  0
VERTEX
  8
T35SSILL
 62
8
 10
1551.900
 20
-4759.667
 30
1734.050
 70
    32
  0
VERTEX
  8
T35SSILL
 62
8
 10
1562.633
 20
-4751.959
 30
1734.028
 70
    32
  0
VERTEX
  8
T35SSILL
 62
8
 10
1565.606
 20
-4736.697
 30
1733.670
 70
    32
  0
VERTEX
  8
T35SSILL
 62
8
 10
1568.252
 20
-4730.151
 30
1733.540
 70
    32
  0
VERTEX
  8
T35SSILL
 62
8
 10
1584.220
 20
-4712.081
 30
1733.495
 70
    32
  0
VERTEX
  8
T35SSILL
 62
8
 10
1585.810
 20
-4712.501
 30
1733.525
 70
    32
  0
VERTEX
  8
T35SSILL
 62
8
 10
1590.596
 20
-4708.128
 30
1733.605
 70
    32
  0
VERTEX
  8
T35SSILL
 62
8
 10
1603.083
 20
-4722.911
 30
1733.948
 70
    32
  0
VERTEX
  8
T35SSILL
 62
8
 10
1635.567
 20
-4699.583
 30
1734.145
 70
    32
  0
VERTEX
  8
T35SSILL
 62
8
 10
1630.047
 20
-4674.536
 30
1734.171
 70
    32
  0
VERTEX
  8
T35SSILL
 62
8
 10
1728.966
 20
-4603.403
 30
1734.331
 70
    32
  0
VERTEX
  8
T35SSILL
 62
8
 10
1738.903
 20
-4609.615
 30
1734.329
 70
    32
  0
VERTEX
  8
T35SSILL
 62
8
 10
1749.136
 20
-4618.026
 30
1734.328
 70
    32
  0
VERTEX
  8
T35SSILL
 62
8
 10
1757.723
 20
-4611.859
 30
1734.321
 70
    32
  0
VERTEX
  8
T35SSILL
 62
8
 10
1756.638
 20
-4606.047
 30
1734.318
 70
    32
  0
VERTEX
  8
T35SSILL
 62
8
 10
1752.406
 20
-4598.531
 30
1734.316
 70
    32
  0
VERTEX
  8
T35SSILL
 62
8
 10
1751.530
 20
-4591.852
 30
1734.313
 70
    32
  0
VERTEX
  8
T35SSILL
 62
8
 10
1753.218
 20
-4587.166
 30
1734.310
 70
    32
  0
VERTEX
  8
T35SSILL
 62
8
 10
1750.157
 20
-4589.294
 30
1734.313
 70
    32
  0
VERTEX
  8
T35SSILL
 62
8
 10
1739.903
 20
-4574.677
 30
1734.303
 70
    32
  0
VERTEX
  8
T35SSILL
 62
8
 10
1716.108
 20
-4591.722
 30
1734.331
 70
    32
  0
VERTEX
  8
T35SSILL
 62
8
 10
1719.140
 20
-4596.110
 30
1734.332
 70
    32
  0
VERTEX
  8
T35SSILL
 62
8
 10
1708.982
 20
-4603.607
 30
1734.341
 70
    32
  0
VERTEX
  8
T35SSILL
 62
8
 10
1712.433
 20
-4608.517
 30
1734.341
 70
    32
  0
VERTEX
  8
T35SSILL
 62
8
 10
1683.459
 20
-4629.900
 30
1734.367
 70
    32
  0
VERTEX
  8
T35SSILL
 62
8
 10
1676.545
 20
-4620.062
 30
1734.366
 70
    32
  0
VERTEX
  8
T35SSILL
 62
8
 10
1638.452
 20
-4647.349
 30
1734.235
 70
    32
  0
VERTEX
  8
T35SSILL
 62
8
 10
1645.607
 20
-4657.930
 30
1734.236
 70
    32
  0
VERTEX
  8
T35SSILL
 62
8
 10
1640.706
 20
-4661.394
 30
1734.219
 70
    32
  0
VERTEX
  8
T35SSILL
 62
8
 10
1637.345
 20
-4656.423
 30
1734.218
 70
    32
  0
VERTEX
  8
T35SSILL
 62
8
 10
1617.745
 20
-4670.282
 30
1734.031
 70
    32
  0
SEQEND
  8
T35SSILL
  0
POLYLINE
  8
T35SSILL
 62
8
 66
     1
 70
     9
  0
VERTEX
  8
T35SSILL
 62
8
 10
1929.195
 20
-4497.106
 30
1733.965
 70
    32
  0
VERTEX
  8
T35SSILL
 62
8
 10
1933.591
 20
-4503.653
 30
1733.985
 70
    32
  0
VERTEX
  8
T35SSILL
 62
8
 10
1931.967
 20
-4507.546
 30
1733.998
 70
    32
  0
VERTEX
  8
T35SSILL
 62
8
 10
1934.275
 20
-4516.055
 30
1734.025
 70
    32
  0
VERTEX
  8
T35SSILL
 62
8
 10
1931.459
 20
-4537.127
 30
1734.095
 70
    32
  0
VERTEX
  8
T35SSILL
 62
8
 10
1838.996
 20
-4603.915
 30
1734.276
 70
    32
  0
VERTEX
  8
T35SSILL
 62
8
 10
1834.617
 20
-4597.429
 30
1734.274
 70
    32
  0
VERTEX
  8
T35SSILL
 62
8
 10
1815.064
 20
-4611.359
 30
1734.292
 70
    32
  0
VERTEX
  8
T35SSILL
 62
8
 10
1819.531
 20
-4617.975
 30
1734.293
 70
    32
  0
VERTEX
  8
T35SSILL
 62
8
 10
1735.696
 20
-4678.532
 30
1734.366
 70
    32
  0
VERTEX
  8
T35SSILL
 62
8
 10
1732.451
 20
-4673.886
 30
1734.366
 70
    32
  0
VERTEX
  8
T35SSILL
 62
8
 10
1727.525
 20
-4677.311
 30
1734.370
 70
    32
  0
VERTEX
  8
T35SSILL
 62
8
 10
1724.089
 20
-4672.392
 30
1734.369
 70
    32
  0
VERTEX
  8
T35SSILL
 62
8
 10
1694.532
 20
-4692.945
 30
1734.301
 70
    32
  0
VERTEX
  8
T35SSILL
 62
8
 10
1697.231
 20
-4690.502
 30
1734.312
 70
    32
  0
VERTEX
  8
T35SSILL
 62
8
 10
1697.717
 20
-4687.151
 30
1734.318
 70
    32
  0
VERTEX
  8
T35SSILL
 62
8
 10
1689.745
 20
-4669.721
 30
1734.326
 70
    32
  0
VERTEX
  8
T35SSILL
 62
8
 10
1707.180
 20
-4657.153
 30
1734.369
 70
    32
  0
VERTEX
  8
T35SSILL
 62
8
 10
1709.874
 20
-4659.976
 30
1734.370
 70
    32
  0
VERTEX
  8
T35SSILL
 62
8
 10
1716.138
 20
-4661.130
 30
1734.367
 70
    32
  0
VERTEX
  8
T35SSILL
 62
8
 10
1722.954
 20
-4664.212
 30
1734.365
 70
    32
  0
VERTEX
  8
T35SSILL
 62
8
 10
1726.247
 20
-4667.076
 30
1734.365
 70
    32
  0
VERTEX
  8
T35SSILL
 62
8
 10
1728.320
 20
-4670.922
 30
1734.366
 70
    32
  0
VERTEX
  8
T35SSILL
 62
8
 10
1760.679
 20
-4647.366
 30
1734.338
 70
    32
  0
VERTEX
  8
T35SSILL
 62
8
 10
1749.497
 20
-4626.647
 30
1734.332
 70
    32
  0
VERTEX
  8
T35SSILL
 62
8
 10
1763.222
 20
-4616.753
 30
1734.320
 70
    32
  0
VERTEX
  8
T35SSILL
 62
8
 10
1767.761
 20
-4622.631
 30
1734.321
 70
    32
  0
VERTEX
  8
T35SSILL
 62
8
 10
1780.259
 20
-4615.520
 30
1734.311
 70
    32
  0
VERTEX
  8
T35SSILL
 62
8
 10
1789.295
 20
-4627.113
 30
1734.313
 70
    32
  0
VERTEX
  8
T35SSILL
 62
8
 10
1868.486
 20
-4570.080
 30
1734.230
 70
    32
  0
VERTEX
  8
T35SSILL
 62
8
 10
1854.503
 20
-4550.951
 30
1734.174
 70
    32
  0
VERTEX
  8
T35SSILL
 62
8
 10
1864.911
 20
-4544.439
 30
1734.148
 70
    32
  0
VERTEX
  8
T35SSILL
 62
8
 10
1868.377
 20
-4544.248
 30
1734.146
 70
    32
  0
VERTEX
  8
T35SSILL
 62
8
 10
1870.663
 20
-4547.182
 30
1734.155
 70
    32
  0
VERTEX
  8
T35SSILL
 62
8
 10
1875.544
 20
-4543.514
 30
1734.140
 70
    32
  0
VERTEX
  8
T35SSILL
 62
8
 10
1875.497
 20
-4539.820
 30
1734.128
 70
    32
  0
VERTEX
  8
T35SSILL
 62
8
 10
1877.435
 20
-4534.419
 30
1734.110
 70
    32
  0
VERTEX
  8
T35SSILL
 62
8
 10
1890.374
 20
-4525.092
 30
1734.074
 70
    32
  0
VERTEX
  8
T35SSILL
 62
8
 10
1894.115
 20
-4530.264
 30
1734.089
 70
    32
  0
VERTEX
  8
T35SSILL
 62
8
 10
1899.521
 20
-4526.413
 30
1734.074
 70
    32
  0
VERTEX
  8
T35SSILL
 62
8
 10
1895.797
 20
-4521.182
 30
1734.059
 70
    32
  0
SEQEND
  8
T35SSILL
  0
POLYLINE
  8
T35SSILL
 62
8
 66
     1
 70
     9
  0
VERTEX
  8
T35SSILL
 62
8
 10
1483.500
 20
-4591.177
 30
1734.396
 70
    32
  0
VERTEX
  8
T35SSILL
 62
8
 10
1480.481
 20
-4586.358
 30
1734.405
 70
    32
  0
VERTEX
  8
T35SSILL
 62
8
 10
1497.768
 20
-4573.866
 30
1734.421
 70
    32
  0
VERTEX
  8
T35SSILL
 62
8
 10
1512.101
 20
-4589.642
 30
1734.389
 70
    32
  0
VERTEX
  8
T35SSILL
 62
8
 10
1493.031
 20
-4603.390
 30
1734.372
 70
    32
  0
VERTEX
  8
T35SSILL
 62
8
 10
1496.546
 20
-4608.253
 30
1734.363
 70
    32
  0
VERTEX
  8
T35SSILL
 62
8
 10
1491.678
 20
-4611.761
 30
1734.358
 70
    32
  0
VERTEX
  8
T35SSILL
 62
8
 10
1498.527
 20
-4621.236
 30
1734.340
 70
    32
  0
VERTEX
  8
T35SSILL
 62
8
 10
1483.462
 20
-4631.894
 30
1734.247
 70
    32
  0
VERTEX
  8
T35SSILL
 62
8
 10
1469.393
 20
-4708.010
 30
1731.588
 70
    32
  0
VERTEX
  8
T35SSILL
 62
8
 10
1423.432
 20
-4644.993
 30
1734.326
 70
    32
  0
VERTEX
  8
T35SSILL
 62
8
 10
1421.696
 20
-4634.804
 30
1734.344
 70
    32
  0
VERTEX
  8
T35SSILL
 62
8
 10
1424.728
 20
-4625.588
 30
1734.358
 70
    32
  0
VERTEX
  8
T35SSILL
 62
8
 10
1427.246
 20
-4622.109
 30
1734.363
 70
    32
  0
VERTEX
  8
T35SSILL
 62
8
 10
1445.235
 20
-4611.825
 30
1734.374
 70
    32
  0
VERTEX
  8
T35SSILL
 62
8
 10
1474.095
 20
-4590.972
 30
1734.400
 70
    32
  0
VERTEX
  8
T35SSILL
 62
8
 10
1477.223
 20
-4596.009
 30
1734.390
 70
    32
  0
SEQEND
  8
T35SSILL
  0
POLYLINE
  8
T35SSILL
 62
8
 66
     1
 70
     9
  0
VERTEX
  8
T35SSILL
 62
8
 10
1504.887
 20
-4640.275
 30
1733.692
 70
    32
  0
VERTEX
  8
T35SSILL
 62
8
 10
1498.120
 20
-4630.915
 30
1734.116
 70
    32
  0
VERTEX
  8
T35SSILL
 62
8
 10
1490.624
 20
-4636.296
 30
1734.002
 70
    32
  0
VERTEX
  8
T35SSILL
 62
8
 10
1480.806
 20
-4693.095
 30
1732.011
 70
    32
  0
VERTEX
  8
T35SSILL
 62
8
 10
1524.014
 20
-4661.691
 30
1732.682
 70
    32
  0
VERTEX
  8
T35SSILL
 62
8
 10
1525.415
 20
-4655.520
 30
1732.894
 70
    32
  0
VERTEX
  8
T35SSILL
 62
8
 10
1528.510
 20
-4649.672
 30
1733.076
 70
    32
  0
VERTEX
  8
T35SSILL
 62
8
 10
1538.123
 20
-4644.182
 30
1733.169
 70
    32
  0
VERTEX
  8
T35SSILL
 62
8
 10
1553.704
 20
-4640.299
 30
1733.136
 70
    32
  0
VERTEX
  8
T35SSILL
 62
8
 10
1646.519
 20
-4573.427
 30
1734.370
 70
    32
  0
VERTEX
  8
T35SSILL
 62
8
 10
1642.416
 20
-4559.338
 30
1734.398
 70
    32
  0
VERTEX
  8
T35SSILL
 62
8
 10
1639.528
 20
-4553.653
 30
1734.409
 70
    32
  0
VERTEX
  8
T35SSILL
 62
8
 10
1640.687
 20
-4551.664
 30
1734.413
 70
    32
  0
VERTEX
  8
T35SSILL
 62
8
 10
1634.720
 20
-4555.901
 30
1734.407
 70
    32
  0
VERTEX
  8
T35SSILL
 62
8
 10
1631.226
 20
-4551.024
 30
1734.417
 70
    32
  0
VERTEX
  8
T35SSILL
 62
8
 10
1626.334
 20
-4554.498
 30
1734.412
 70
    32
  0
VERTEX
  8
T35SSILL
 62
8
 10
1618.939
 20
-4544.178
 30
1734.434
 70
    32
  0
VERTEX
  8
T35SSILL
 62
8
 10
1537.113
 20
-4602.922
 30
1734.357
 70
    32
  0
VERTEX
  8
T35SSILL
 62
8
 10
1543.865
 20
-4612.262
 30
1734.286
 70
    32
  0
VERTEX
  8
T35SSILL
 62
8
 10
1524.376
 20
-4626.269
 30
1733.989
 70
    32
  0
VERTEX
  8
T35SSILL
 62
8
 10
1520.861
 20
-4621.406
 30
1734.209
 70
    32
  0
VERTEX
  8
T35SSILL
 62
8
 10
1506.244
 20
-4631.911
 30
1733.987
 70
    32
  0
VERTEX
  8
T35SSILL
 62
8
 10
1509.759
 20
-4636.774
 30
1733.767
 70
    32
  0
SEQEND
  8
T35SSILL
  0
POLYLINE
  8
T35SSILL
 62
8
 66
     1
 70
     9
  0
VERTEX
  8
T35SSILL
 62
8
 10
1676.075
 20
-4590.161
 30
1734.350
 70
    32
  0
VERTEX
  8
T35SSILL
 62
8
 10
1672.037
 20
-4592.775
 30
1734.354
 70
    32
  0
VERTEX
  8
T35SSILL
 62
8
 10
1675.265
 20
-4597.368
 30
1734.354
 70
    32
  0
VERTEX
  8
T35SSILL
 62
8
 10
1665.401
 20
-4604.203
 30
1734.363
 70
    32
  0
VERTEX
  8
T35SSILL
 62
8
 10
1672.636
 20
-4614.498
 30
1734.365
 70
    32
  0
VERTEX
  8
T35SSILL
 62
8
 10
1629.767
 20
-4645.215
 30
1734.205
 70
    32
  0
VERTEX
  8
T35SSILL
 62
8
 10
1622.859
 20
-4635.000
 30
1734.059
 70
    32
  0
VERTEX
  8
T35SSILL
 62
8
 10
1613.062
 20
-4641.933
 30
1733.892
 70
    32
  0
VERTEX
  8
T35SSILL
 62
8
 10
1616.423
 20
-4646.904
 30
1733.963
 70
    32
  0
VERTEX
  8
T35SSILL
 62
8
 10
1611.524
 20
-4650.371
 30
1733.880
 70
    32
  0
VERTEX
  8
T35SSILL
 62
8
 10
1615.130
 20
-4655.703
 30
1733.956
 70
    32
  0
VERTEX
  8
T35SSILL
 62
8
 10
1553.349
 20
-4699.971
 30
1732.907
 70
    32
  0
VERTEX
  8
T35SSILL
 62
8
 10
1543.096
 20
-4766.556
 30
1734.083
 70
    32
  0
VERTEX
  8
T35SSILL
 62
8
 10
1534.299
 20
-4773.884
 30
1733.994
 70
    32
  0
VERTEX
  8
T35SSILL
 62
8
 10
1529.278
 20
-4780.637
 30
1733.964
 70
    32
  0
VERTEX
  8
T35SSILL
 62
8
 10
1526.846
 20
-4790.173
 30
1734.090
 70
    32
  0
VERTEX
  8
T35SSILL
 62
8
 10
1482.244
 20
-4729.209
 30
1731.965
 70
    32
  0
VERTEX
  8
T35SSILL
 62
8
 10
1479.802
 20
-4717.005
 30
1731.657
 70
    32
  0
VERTEX
  8
T35SSILL
 62
8
 10
1480.304
 20
-4707.932
 30
1731.583
 70
    32
  0
VERTEX
  8
T35SSILL
 62
8
 10
1483.387
 20
-4701.116
 30
1731.684
 70
    32
  0
VERTEX
  8
T35SSILL
 62
8
 10
1543.714
 20
-4657.544
 30
1732.650
 70
    32
  0
VERTEX
  8
T35SSILL
 62
8
 10
1547.454
 20
-4658.236
 30
1732.720
 70
    32
  0
VERTEX
  8
T35SSILL
 62
8
 10
1552.955
 20
-4654.734
 30
1732.815
 70
    32
  0
VERTEX
  8
T35SSILL
 62
8
 10
1566.920
 20
-4652.269
 30
1733.066
 70
    32
  0
VERTEX
  8
T35SSILL
 62
8
 10
1579.525
 20
-4646.741
 30
1733.287
 70
    32
  0
VERTEX
  8
T35SSILL
 62
8
 10
1573.458
 20
-4636.238
 30
1733.156
 70
    32
  0
VERTEX
  8
T35SSILL
 62
8
 10
1595.130
 20
-4620.713
 30
1733.524
 70
    32
  0
VERTEX
  8
T35SSILL
 62
8
 10
1600.377
 20
-4625.090
 30
1733.628
 70
    32
  0
VERTEX
  8
T35SSILL
 62
8
 10
1605.490
 20
-4625.642
 30
1733.723
 70
    32
  0
VERTEX
  8
T35SSILL
 62
8
 10
1614.869
 20
-4622.531
 30
1733.889
 70
    32
  0
VERTEX
  8
T35SSILL
 62
8
 10
1616.871
 20
-4620.745
 30
1733.923
 70
    32
  0
VERTEX
  8
T35SSILL
 62
8
 10
1621.644
 20
-4608.362
 30
1733.987
 70
    32
  0
VERTEX
  8
T35SSILL
 62
8
 10
1620.419
 20
-4602.597
 30
1733.954
 70
    32
  0
VERTEX
  8
T35SSILL
 62
8
 10
1622.900
 20
-4600.821
 30
1733.996
 70
    32
  0
VERTEX
  8
T35SSILL
 62
8
 10
1626.369
 20
-4606.102
 30
1734.069
 70
    32
  0
VERTEX
  8
T35SSILL
 62
8
 10
1632.300
 20
-4601.803
 30
1734.170
 70
    32
  0
VERTEX
  8
T35SSILL
 62
8
 10
1629.005
 20
-4596.447
 30
1734.099
 70
    32
  0
VERTEX
  8
T35SSILL
 62
8
 10
1652.063
 20
-4579.930
 30
1734.357
 70
    32
  0
VERTEX
  8
T35SSILL
 62
8
 10
1654.812
 20
-4586.116
 30
1734.359
 70
    32
  0
VERTEX
  8
T35SSILL
 62
8
 10
1658.757
 20
-4584.922
 30
1734.356
 70
    32
  0
VERTEX
  8
T35SSILL
 62
8
 10
1670.381
 20
-4585.304
 30
1734.350
 70
    32
  0
VERTEX
  8
T35SSILL
 62
8
 10
1672.675
 20
-4585.715
 30
1734.350
 70
    32
  0
VERTEX
  8
T35SSILL
 62
8
 10
1673.933
 20
-4587.812
 30
1734.350
 70
    32
  0
SEQEND
  8
T35SSILL
  0
POLYLINE
  8
T35SSILL
 62
8
 66
     1
 70
     9
  0
VERTEX
  8
T35SSILL
 62
8
 10
1702.047
 20
-4724.659
 30
1734.269
 70
    32
  0
VERTEX
  8
T35SSILL
 62
8
 10
1698.611
 20
-4719.740
 30
1734.269
 70
    32
  0
VERTEX
  8
T35SSILL
 62
8
 10
1693.713
 20
-4723.206
 30
1734.251
 70
    32
  0
VERTEX
  8
T35SSILL
 62
8
 10
1690.855
 20
-4719.114
 30
1734.251
 70
    32
  0
VERTEX
  8
T35SSILL
 62
8
 10
1626.838
 20
-4765.496
 30
1734.160
 70
    32
  0
VERTEX
  8
T35SSILL
 62
8
 10
1629.938
 20
-4769.703
 30
1734.169
 70
    32
  0
VERTEX
  8
T35SSILL
 62
8
 10
1624.181
 20
-4773.914
 30
1734.180
 70
    32
  0
VERTEX
  8
T35SSILL
 62
8
 10
1621.247
 20
-4769.546
 30
1734.171
 70
    32
  0
VERTEX
  8
T35SSILL
 62
8
 10
1569.833
 20
-4806.796
 30
1734.254
 70
    32
  0
VERTEX
  8
T35SSILL
 62
8
 10
1563.839
 20
-4813.121
 30
1734.238
 70
    32
  0
VERTEX
  8
T35SSILL
 62
8
 10
1559.633
 20
-4821.624
 30
1734.225
 70
    32
  0
VERTEX
  8
T35SSILL
 62
8
 10
1559.169
 20
-4833.689
 30
1734.215
 70
    32
  0
VERTEX
  8
T35SSILL
 62
8
 10
1560.990
 20
-4838.507
 30
1734.216
 70
    32
  0
VERTEX
  8
T35SSILL
 62
8
 10
1581.415
 20
-4866.857
 30
1734.255
 70
    32
  0
VERTEX
  8
T35SSILL
 62
8
 10
1582.315
 20
-4861.388
 30
1734.261
 70
    32
  0
VERTEX
  8
T35SSILL
 62
8
 10
1585.644
 20
-4853.160
 30
1734.277
 70
    32
  0
VERTEX
  8
T35SSILL
 62
8
 10
1592.506
 20
-4845.856
 30
1734.300
 70
    32
  0
VERTEX
  8
T35SSILL
 62
8
 10
1608.014
 20
-4835.861
 30
1734.328
 70
    32
  0
VERTEX
  8
T35SSILL
 62
8
 10
1599.780
 20
-4821.503
 30
1734.298
 70
    32
  0
VERTEX
  8
T35SSILL
 62
8
 10
1604.816
 20
-4815.980
 30
1734.284
 70
    32
  0
VERTEX
  8
T35SSILL
 62
8
 10
1629.529
 20
-4806.863
 30
1734.254
 70
    32
  0
VERTEX
  8
T35SSILL
 62
8
 10
1636.226
 20
-4800.351
 30
1734.237
 70
    32
  0
VERTEX
  8
T35SSILL
 62
8
 10
1638.399
 20
-4791.255
 30
1734.215
 70
    32
  0
VERTEX
  8
T35SSILL
 62
8
 10
1641.024
 20
-4789.901
 30
1734.211
 70
    32
  0
VERTEX
  8
T35SSILL
 62
8
 10
1662.888
 20
-4796.402
 30
1734.224
 70
    32
  0
VERTEX
  8
T35SSILL
 62
8
 10
1705.126
 20
-4766.021
 30
1734.211
 70
    32
  0
VERTEX
  8
T35SSILL
 62
8
 10
1704.015
 20
-4758.375
 30
1734.221
 70
    32
  0
VERTEX
  8
T35SSILL
 62
8
 10
1696.605
 20
-4750.281
 30
1734.215
 70
    32
  0
VERTEX
  8
T35SSILL
 62
8
 10
1693.710
 20
-4744.154
 30
1734.218
 70
    32
  0
VERTEX
  8
T35SSILL
 62
8
 10
1767.785
 20
-4691.005
 30
1734.357
 70
    32
  0
VERTEX
  8
T35SSILL
 62
8
 10
1770.013
 20
-4693.090
 30
1734.357
 70
    32
  0
VERTEX
  8
T35SSILL
 62
8
 10
1779.264
 20
-4693.589
 30
1734.352
 70
    32
  0
VERTEX
  8
T35SSILL
 62
8
 10
1791.547
 20
-4697.131
 30
1734.348
 70
    32
  0
VERTEX
  8
T35SSILL
 62
8
 10
1796.033
 20
-4700.636
 30
1734.348
 70
    32
  0
VERTEX
  8
T35SSILL
 62
8
 10
1846.295
 20
-4664.484
 30
1734.304
 70
    32
  0
VERTEX
  8
T35SSILL
 62
8
 10
1845.061
 20
-4661.147
 30
1734.302
 70
    32
  0
VERTEX
  8
T35SSILL
 62
8
 10
1840.139
 20
-4654.871
 30
1734.302
 70
    32
  0
VERTEX
  8
T35SSILL
 62
8
 10
1829.215
 20
-4647.349
 30
1734.303
 70
    32
  0
VERTEX
  8
T35SSILL
 62
8
 10
1902.670
 20
-4593.944
 30
1734.239
 70
    32
  0
VERTEX
  8
T35SSILL
 62
8
 10
1919.104
 20
-4605.445
 30
1734.236
 70
    32
  0
VERTEX
  8
T35SSILL
 62
8
 10
1922.880
 20
-4604.693
 30
1734.234
 70
    32
  0
VERTEX
  8
T35SSILL
 62
8
 10
1934.543
 20
-4601.011
 30
1734.226
 70
    32
  0
VERTEX
  8
T35SSILL
 62
8
 10
1972.933
 20
-4573.398
 30
1734.193
 70
    32
  0
VERTEX
  8
T35SSILL
 62
8
 10
1941.421
 20
-4517.373
 30
1734.026
 70
    32
  0
VERTEX
  8
T35SSILL
 62
8
 10
1938.271
 20
-4539.858
 30
1734.100
 70
    32
  0
VERTEX
  8
T35SSILL
 62
8
 10
1857.148
 20
-4598.633
 30
1734.264
 70
    32
  0
VERTEX
  8
T35SSILL
 62
8
 10
1860.692
 20
-4603.883
 30
1734.265
 70
    32
  0
VERTEX
  8
T35SSILL
 62
8
 10
1815.117
 20
-4636.667
 30
1734.305
 70
    32
  0
VERTEX
  8
T35SSILL
 62
8
 10
1811.581
 20
-4631.647
 30
1734.304
 70
    32
  0
VERTEX
  8
T35SSILL
 62
8
 10
1768.607
 20
-4662.782
 30
1734.342
 70
    32
  0
VERTEX
  8
T35SSILL
 62
8
 10
1772.077
 20
-4667.749
 30
1734.342
 70
    32
  0
VERTEX
  8
T35SSILL
 62
8
 10
1752.486
 20
-4681.613
 30
1734.360
 70
    32
  0
VERTEX
  8
T35SSILL
 62
8
 10
1759.358
 20
-4691.451
 30
1734.361
 70
    32
  0
VERTEX
  8
T35SSILL
 62
8
 10
1725.074
 20
-4715.713
 30
1734.341
 70
    32
  0
VERTEX
  8
T35SSILL
 62
8
 10
1721.638
 20
-4710.794
 30
1734.340
 70
    32
  0
SEQEND
  8
T35SSILL
  0
POLYLINE
  8
T35SSILL
 62
8
 66
     1
 70
     9
  0
VERTEX
  8
T35SSILL
 62
8
 10
1759.174
 20
-4898.419
 30
1734.443
 70
    32
  0
VERTEX
  8
T35SSILL
 62
8
 10
1740.044
 20
-4910.102
 30
1734.468
 70
    32
  0
VERTEX
  8
T35SSILL
 62
8
 10
1702.385
 20
-4939.095
 30
1734.531
 70
    32
  0
VERTEX
  8
T35SSILL
 62
8
 10
1704.429
 20
-4940.654
 30
1734.534
 70
    32
  0
VERTEX
  8
T35SSILL
 62
8
 10
1714.529
 20
-4960.765
 30
1734.571
 70
    32
  0
VERTEX
  8
T35SSILL
 62
8
 10
1690.725
 20
-4977.795
 30
1734.490
 70
    32
  0
VERTEX
  8
T35SSILL
 62
8
 10
1685.680
 20
-4982.611
 30
1734.472
 70
    32
  0
VERTEX
  8
T35SSILL
 62
8
 10
1679.609
 20
-4994.152
 30
1734.446
 70
    32
  0
VERTEX
  8
T35SSILL
 62
8
 10
1672.109
 20
-4983.343
 30
1734.432
 70
    32
  0
VERTEX
  8
T35SSILL
 62
8
 10
1716.408
 20
-4880.150
 30
1734.404
 70
    32
  0
VERTEX
  8
T35SSILL
 62
8
 10
1730.845
 20
-4868.026
 30
1734.378
 70
    32
  0
VERTEX
  8
T35SSILL
 62
8
 10
1734.680
 20
-4861.777
 30
1734.365
 70
    32
  0
VERTEX
  8
T35SSILL
 62
8
 10
1808.144
 20
-4808.397
 30
1734.398
 70
    32
  0
VERTEX
  8
T35SSILL
 62
8
 10
1828.611
 20
-4810.336
 30
1734.389
 70
    32
  0
VERTEX
  8
T35SSILL
 62
8
 10
1839.562
 20
-4825.861
 30
1734.391
 70
    32
  0
VERTEX
  8
T35SSILL
 62
8
 10
1853.717
 20
-4816.475
 30
1734.379
 70
    32
  0
VERTEX
  8
T35SSILL
 62
8
 10
1837.823
 20
-4794.901
 30
1734.376
 70
    32
  0
VERTEX
  8
T35SSILL
 62
8
 10
1840.387
 20
-4785.123
 30
1734.369
 70
    32
  0
VERTEX
  8
T35SSILL
 62
8
 10
1888.081
 20
-4751.111
 30
1734.328
 70
    32
  0
VERTEX
  8
T35SSILL
 62
8
 10
1904.939
 20
-4747.748
 30
1734.318
 70
    32
  0
VERTEX
  8
T35SSILL
 62
8
 10
1925.576
 20
-4756.758
 30
1734.293
 70
    32
  0
VERTEX
  8
T35SSILL
 62
8
 10
1951.116
 20
-4791.509
 30
1734.258
 70
    32
  0
VERTEX
  8
T35SSILL
 62
8
 10
1887.178
 20
-4837.251
 30
1734.363
 70
    32
  0
VERTEX
  8
T35SSILL
 62
8
 10
1876.742
 20
-4826.347
 30
1734.373
 70
    32
  0
VERTEX
  8
T35SSILL
 62
8
 10
1870.279
 20
-4816.394
 30
1734.371
 70
    32
  0
VERTEX
  8
T35SSILL
 62
8
 10
1866.387
 20
-4814.858
 30
1734.372
 70
    32
  0
VERTEX
  8
T35SSILL
 62
8
 10
1863.149
 20
-4816.308
 30
1734.374
 70
    32
  0
VERTEX
  8
T35SSILL
 62
8
 10
1852.348
 20
-4825.334
 30
1734.384
 70
    32
  0
VERTEX
  8
T35SSILL
 62
8
 10
1838.819
 20
-4834.394
 30
1734.396
 70
    32
  0
VERTEX
  8
T35SSILL
 62
8
 10
1830.045
 20
-4843.658
 30
1734.396
 70
    32
  0
VERTEX
  8
T35SSILL
 62
8
 10
1804.869
 20
-4864.484
 30
1734.372
 70
    32
  0
SEQEND
  8
T35SSILL
  0
POLYLINE
  8
T35SSILL
 62
8
 66
     1
 70
     9
  0
VERTEX
  8
T35SSILL
 62
8
 10
1717.012
 20
-4968.310
 30
1734.549
 70
    32
  0
VERTEX
  8
T35SSILL
 62
8
 10
1724.155
 20
-4976.406
 30
1734.455
 70
    32
  0
VERTEX
  8
T35SSILL
 62
8
 10
1728.234
 20
-4978.819
 30
1734.417
 70
    32
  0
VERTEX
  8
T35SSILL
 62
8
 10
1737.703
 20
-4975.795
 30
1734.389
 70
    32
  0
VERTEX
  8
T35SSILL
 62
8
 10
1744.082
 20
-4972.106
 30
1734.382
 70
    32
  0
VERTEX
  8
T35SSILL
 62
8
 10
1748.424
 20
-4967.474
 30
1734.392
 70
    32
  0
VERTEX
  8
T35SSILL
 62
8
 10
1755.731
 20
-4953.563
 30
1734.451
 70
    32
  0
VERTEX
  8
T35SSILL
 62
8
 10
1760.094
 20
-4950.516
 30
1734.449
 70
    32
  0
VERTEX
  8
T35SSILL
 62
8
 10
1766.702
 20
-4951.048
 30
1734.411
 70
    32
  0
VERTEX
  8
T35SSILL
 62
8
 10
1772.830
 20
-4955.372
 30
1734.349
 70
    32
  0
VERTEX
  8
T35SSILL
 62
8
 10
1775.726
 20
-4954.720
 30
1734.339
 70
    32
  0
VERTEX
  8
T35SSILL
 62
8
 10
1783.591
 20
-4950.220
 30
1734.330
 70
    32
  0
VERTEX
  8
T35SSILL
 62
8
 10
1811.560
 20
-4927.511
 30
1734.343
 70
    32
  0
VERTEX
  8
T35SSILL
 62
8
 10
1822.655
 20
-4920.857
 30
1734.332
 70
    32
  0
VERTEX
  8
T35SSILL
 62
8
 10
1900.720
 20
-5029.296
 30
1734.072
 70
    32
  0
VERTEX
  8
T35SSILL
 62
8
 10
1803.194
 20
-5097.634
 30
1734.077
 70
    32
  0
VERTEX
  8
T35SSILL
 62
8
 10
1788.526
 20
-5104.102
 30
1734.071
 70
    32
  0
VERTEX
  8
T35SSILL
 62
8
 10
1771.561
 20
-5104.796
 30
1734.058
 70
    32
  0
VERTEX
  8
T35SSILL
 62
8
 10
1760.898
 20
-5101.003
 30
1734.046
 70
    32
  0
VERTEX
  8
T35SSILL
 62
8
 10
1761.862
 20
-5098.678
 30
1734.044
 70
    32
  0
VERTEX
  8
T35SSILL
 62
8
 10
1750.609
 20
-5092.392
 30
1734.028
 70
    32
  0
VERTEX
  8
T35SSILL
 62
8
 10
1741.580
 20
-5083.469
 30
1734.012
 70
    32
  0
VERTEX
  8
T35SSILL
 62
8
 10
1687.107
 20
-5004.959
 30
1734.457
 70
    32
  0
VERTEX
  8
T35SSILL
 62
8
 10
1688.368
 20
-4993.379
 30
1734.472
 70
    32
  0
VERTEX
  8
T35SSILL
 62
8
 10
1691.259
 20
-4988.379
 30
1734.484
 70
    32
  0
VERTEX
  8
T35SSILL
 62
8
 10
1694.606
 20
-4984.141
 30
1734.496
 70
    32
  0
VERTEX
  8
T35SSILL
 62
8
 10
1711.041
 20
-4972.536
 30
1734.552
 70
    32
  0
SEQEND
  8
T35SSILL
  0
POLYLINE
  8
T35SSILL
 62
8
 66
     1
 70
     9
  0
VERTEX
  8
T35SSILL
 62
8
 10
1674.044
 20
-4708.486
 30
1734.226
 70
    32
  0
VERTEX
  8
T35SSILL
 62
8
 10
1676.417
 20
-4708.192
 30
1734.232
 70
    32
  0
VERTEX
  8
T35SSILL
 62
8
 10
1680.965
 20
-4704.955
 30
1734.249
 70
    32
  0
VERTEX
  8
T35SSILL
 62
8
 10
1687.051
 20
-4713.669
 30
1734.250
 70
    32
  0
VERTEX
  8
T35SSILL
 62
8
 10
1565.977
 20
-4801.124
 30
1734.246
 70
    32
  0
VERTEX
  8
T35SSILL
 62
8
 10
1559.096
 20
-4806.932
 30
1734.228
 70
    32
  0
VERTEX
  8
T35SSILL
 62
8
 10
1553.746
 20
-4815.449
 30
1734.212
 70
    32
  0
VERTEX
  8
T35SSILL
 62
8
 10
1551.586
 20
-4825.686
 30
1734.199
 70
    32
  0
VERTEX
  8
T35SSILL
 62
8
 10
1535.357
 20
-4802.037
 30
1734.169
 70
    32
  0
VERTEX
  8
T35SSILL
 62
8
 10
1533.512
 20
-4788.329
 30
1734.170
 70
    32
  0
VERTEX
  8
T35SSILL
 62
8
 10
1537.454
 20
-4779.830
 30
1734.165
 70
    32
  0
VERTEX
  8
T35SSILL
 62
8
 10
1566.124
 20
-4758.793
 30
1734.166
 70
    32
  0
VERTEX
  8
T35SSILL
 62
8
 10
1576.352
 20
-4772.329
 30
1734.194
 70
    32
  0
VERTEX
  8
T35SSILL
 62
8
 10
1608.364
 20
-4749.098
 30
1734.129
 70
    32
  0
VERTEX
  8
T35SSILL
 62
8
 10
1608.379
 20
-4743.289
 30
1734.116
 70
    32
  0
VERTEX
  8
T35SSILL
 62
8
 10
1606.486
 20
-4735.472
 30
1734.098
 70
    32
  0
VERTEX
  8
T35SSILL
 62
8
 10
1610.796
 20
-4732.520
 30
1734.090
 70
    32
  0
VERTEX
  8
T35SSILL
 62
8
 10
1608.139
 20
-4728.550
 30
1734.082
 70
    32
  0
VERTEX
  8
T35SSILL
 62
8
 10
1615.131
 20
-4723.510
 30
1734.068
 70
    32
  0
VERTEX
  8
T35SSILL
 62
8
 10
1617.686
 20
-4727.504
 30
1734.076
 70
    32
  0
VERTEX
  8
T35SSILL
 62
8
 10
1624.143
 20
-4723.022
 30
1734.080
 70
    32
  0
VERTEX
  8
T35SSILL
 62
8
 10
1621.419
 20
-4718.976
 30
1734.079
 70
    32
  0
VERTEX
  8
T35SSILL
 62
8
 10
1640.944
 20
-4704.901
 30
1734.150
 70
    32
  0
VERTEX
  8
T35SSILL
 62
8
 10
1646.114
 20
-4707.624
 30
1734.158
 70
    32
  0
VERTEX
  8
T35SSILL
 62
8
 10
1655.750
 20
-4716.638
 30
1734.168
 70
    32
  0
VERTEX
  8
T35SSILL
 62
8
 10
1660.502
 20
-4716.490
 30
1734.180
 70
    32
  0
VERTEX
  8
T35SSILL
 62
8
 10
1663.801
 20
-4712.928
 30
1734.194
 70
    32
  0
VERTEX
  8
T35SSILL
 62
8
 10
1668.262
 20
-4710.671
 30
1734.208
 70
    32
  0
SEQEND
  8
T35SSILL
  0
POLYLINE
  8
T35SSILL
 62
8
 66
     1
 70
     9
  0
VERTEX
  8
T35SSILL
 62
8
 10
1690.308
 20
-4518.069
 30
1734.397
 70
    32
  0
VERTEX
  8
T35SSILL
 62
8
 10
1688.276
 20
-4517.870
 30
1734.405
 70
    32
  0
VERTEX
  8
T35SSILL
 62
8
 10
1696.505
 20
-4512.026
 30
1734.395
 70
    32
  0
VERTEX
  8
T35SSILL
 62
8
 10
1693.040
 20
-4507.128
 30
1734.422
 70
    32
  0
VERTEX
  8
T35SSILL
 62
8
 10
1702.824
 20
-4500.180
 30
1734.410
 70
    32
  0
VERTEX
  8
T35SSILL
 62
8
 10
1699.359
 20
-4495.282
 30
1734.438
 70
    32
  0
VERTEX
  8
T35SSILL
 62
8
 10
1704.251
 20
-4491.808
 30
1734.432
 70
    32
  0
VERTEX
  8
T35SSILL
 62
8
 10
1700.157
 20
-4486.021
 30
1734.465
 70
    32
  0
VERTEX
  8
T35SSILL
 62
8
 10
1806.325
 20
-4410.264
 30
1734.336
 70
    32
  0
VERTEX
  8
T35SSILL
 62
8
 10
1816.078
 20
-4349.787
 30
1734.436
 70
    32
  0
VERTEX
  8
T35SSILL
 62
8
 10
1871.363
 20
-4411.427
 30
1734.104
 70
    32
  0
VERTEX
  8
T35SSILL
 62
8
 10
1814.252
 20
-4452.575
 30
1734.171
 70
    32
  0
VERTEX
  8
T35SSILL
 62
8
 10
1808.065
 20
-4447.051
 30
1734.210
 70
    32
  0
VERTEX
  8
T35SSILL
 62
8
 10
1799.036
 20
-4435.986
 30
1734.278
 70
    32
  0
VERTEX
  8
T35SSILL
 62
8
 10
1758.812
 20
-4464.043
 30
1734.329
 70
    32
  0
VERTEX
  8
T35SSILL
 62
8
 10
1762.611
 20
-4472.181
 30
1734.290
 70
    32
  0
VERTEX
  8
T35SSILL
 62
8
 10
1763.053
 20
-4479.305
 30
1734.265
 70
    32
  0
VERTEX
  8
T35SSILL
 62
8
 10
1766.521
 20
-4486.965
 30
1734.228
 70
    32
  0
VERTEX
  8
T35SSILL
 62
8
 10
1724.933
 20
-4516.929
 30
1734.279
 70
    32
  0
VERTEX
  8
T35SSILL
 62
8
 10
1708.835
 20
-4500.496
 30
1734.388
 70
    32
  0
VERTEX
  8
T35SSILL
 62
8
 10
1698.799
 20
-4507.400
 30
1734.401
 70
    32
  0
VERTEX
  8
T35SSILL
 62
8
 10
1697.222
 20
-4514.990
 30
1734.382
 70
    32
  0
VERTEX
  8
T35SSILL
 62
8
 10
1693.906
 20
-4517.232
 30
1734.387
 70
    32
  0
SEQEND
  8
T35SSILL
  0
POLYLINE
  8
T35SSILL
 62
8
 66
     1
 70
     9
  0
VERTEX
  8
T35SSILL
 62
8
 10
1738.919
 20
-4408.136
 30
1734.580
 70
    32
  0
VERTEX
  8
T35SSILL
 62
8
 10
1735.161
 20
-4402.723
 30
1734.611
 70
    32
  0
VERTEX
  8
T35SSILL
 62
8
 10
1760.823
 20
-4384.281
 30
1734.556
 70
    32
  0
VERTEX
  8
T35SSILL
 62
8
 10
1764.208
 20
-4389.246
 30
1734.549
 70
    32
  0
VERTEX
  8
T35SSILL
 62
8
 10
1770.755
 20
-4384.938
 30
1734.535
 70
    32
  0
VERTEX
  8
T35SSILL
 62
8
 10
1767.044
 20
-4379.810
 30
1734.543
 70
    32
  0
VERTEX
  8
T35SSILL
 62
8
 10
1808.077
 20
-4350.322
 30
1734.453
 70
    32
  0
VERTEX
  8
T35SSILL
 62
8
 10
1799.594
 20
-4406.560
 30
1734.372
 70
    32
  0
VERTEX
  8
T35SSILL
 62
8
 10
1786.284
 20
-4415.932
 30
1734.388
 70
    32
  0
VERTEX
  8
T35SSILL
 62
8
 10
1783.041
 20
-4411.130
 30
1734.415
 70
    32
  0
VERTEX
  8
T35SSILL
 62
8
 10
1773.255
 20
-4418.081
 30
1734.427
 70
    32
  0
VERTEX
  8
T35SSILL
 62
8
 10
1776.471
 20
-4422.842
 30
1734.400
 70
    32
  0
VERTEX
  8
T35SSILL
 62
8
 10
1711.636
 20
-4468.494
 30
1734.481
 70
    32
  0
VERTEX
  8
T35SSILL
 62
8
 10
1719.436
 20
-4414.023
 30
1734.629
 70
    32
  0
VERTEX
  8
T35SSILL
 62
8
 10
1729.306
 20
-4406.931
 30
1734.617
 70
    32
  0
VERTEX
  8
T35SSILL
 62
8
 10
1733.076
 20
-4412.435
 30
1734.586
 70
    32
  0
SEQEND
  8
T35SSILL
  0
POLYLINE
  8
T35SSILL
 62
8
 66
     1
 70
     9
  0
VERTEX
  8
T35SSILL
 62
8
 10
1698.494
 20
-4574.297
 30
1734.320
 70
    32
  0
VERTEX
  8
T35SSILL
 62
8
 10
1721.089
 20
-4558.307
 30
1734.258
 70
    32
  0
VERTEX
  8
T35SSILL
 62
8
 10
1731.114
 20
-4572.596
 30
1734.300
 70
    32
  0
VERTEX
  8
T35SSILL
 62
8
 10
1706.778
 20
-4590.034
 30
1734.335
 70
    32
  0
VERTEX
  8
T35SSILL
 62
8
 10
1703.373
 20
-4585.190
 30
1734.334
 70
    32
  0
VERTEX
  8
T35SSILL
 62
8
 10
1693.510
 20
-4592.025
 30
1734.342
 70
    32
  0
VERTEX
  8
T35SSILL
 62
8
 10
1690.060
 20
-4587.115
 30
1734.342
 70
    32
  0
VERTEX
  8
T35SSILL
 62
8
 10
1685.128
 20
-4590.533
 30
1734.346
 70
    32
  0
VERTEX
  8
T35SSILL
 62
8
 10
1682.134
 20
-4585.874
 30
1734.345
 70
    32
  0
VERTEX
  8
T35SSILL
 62
8
 10
1692.881
 20
-4578.268
 30
1734.336
 70
    32
  0
SEQEND
  8
T35SSILL
  0
POLYLINE
  8
T35SSILL
 62
8
 66
     1
 70
     9
  0
VERTEX
  8
T35SSILL
 62
8
 10
1581.270
 20
-4358.805
 30
1734.830
 70
    32
  0
VERTEX
  8
T35SSILL
 62
8
 10
1601.056
 20
-4373.618
 30
1734.793
 70
    32
  0
VERTEX
  8
T35SSILL
 62
8
 10
1725.308
 20
-4283.548
 30
1734.620
 70
    32
  0
VERTEX
  8
T35SSILL
 62
8
 10
1677.132
 20
-4278.489
 30
1734.726
 70
    32
  0
VERTEX
  8
T35SSILL
 62
8
 10
1554.990
 20
-4366.013
 30
1734.840
 70
    32
  0
VERTEX
  8
T35SSILL
 62
8
 10
1558.507
 20
-4370.981
 30
1734.830
 70
    32
  0
VERTEX
  8
T35SSILL
 62
8
 10
1553.636
 20
-4374.483
 30
1734.828
 70
    32
  0
VERTEX
  8
T35SSILL
 62
8
 10
1555.883
 20
-4377.657
 30
1734.822
 70
    32
  0
SEQEND
  8
T35SSILL
  0
POLYLINE
  8
T35SSILL
 62
8
 66
     1
 70
     9
  0
VERTEX
  8
T35SSILL
 62
8
 10
1788.748
 20
-4238.877
 30
1734.429
 70
    32
  0
VERTEX
  8
T35SSILL
 62
8
 10
1715.424
 20
-4194.623
 30
1734.584
 70
    32
  0
VERTEX
  8
T35SSILL
 62
8
 10
1707.624
 20
-4192.812
 30
1734.602
 70
    32
  0
VERTEX
  8
T35SSILL
 62
8
 10
1699.386
 20
-4193.770
 30
1734.624
 70
    32
  0
VERTEX
  8
T35SSILL
 62
8
 10
1692.128
 20
-4198.631
 30
1734.646
 70
    32
  0
VERTEX
  8
T35SSILL
 62
8
 10
1749.726
 20
-4263.382
 30
1734.544
 70
    32
  0
VERTEX
  8
T35SSILL
 62
8
 10
1774.910
 20
-4244.985
 30
1734.468
 70
    32
  0
VERTEX
  8
T35SSILL
 62
8
 10
1783.176
 20
-4240.574
 30
1734.444
 70
    32
  0
SEQEND
  8
T35SSILL
  0
POLYLINE
  8
T35SSILL
 62
8
 66
     1
 70
     9
  0
VERTEX
  8
T35SSILL
 62
8
 10
1518.040
 20
-4559.143
 30
1734.442
 70
    32
  0
VERTEX
  8
T35SSILL
 62
8
 10
1522.590
 20
-4563.927
 30
1734.431
 70
    32
  0
VERTEX
  8
T35SSILL
 62
8
 10
1527.739
 20
-4560.429
 30
1734.436
 70
    32
  0
VERTEX
  8
T35SSILL
 62
8
 10
1524.322
 20
-4554.679
 30
1734.448
 70
    32
  0
VERTEX
  8
T35SSILL
 62
8
 10
1554.759
 20
-4532.686
 30
1734.478
 70
    32
  0
VERTEX
  8
T35SSILL
 62
8
 10
1558.622
 20
-4538.475
 30
1734.466
 70
    32
  0
VERTEX
  8
T35SSILL
 62
8
 10
1564.380
 20
-4534.442
 30
1734.471
 70
    32
  0
VERTEX
  8
T35SSILL
 62
8
 10
1560.297
 20
-4528.684
 30
1734.483
 70
    32
  0
VERTEX
  8
T35SSILL
 62
8
 10
1591.467
 20
-4506.161
 30
1734.514
 70
    32
  0
VERTEX
  8
T35SSILL
 62
8
 10
1594.793
 20
-4510.117
 30
1734.506
 70
    32
  0
VERTEX
  8
T35SSILL
 62
8
 10
1598.073
 20
-4511.925
 30
1734.501
 70
    32
  0
VERTEX
  8
T35SSILL
 62
8
 10
1600.070
 20
-4516.741
 30
1734.492
 70
    32
  0
VERTEX
  8
T35SSILL
 62
8
 10
1607.216
 20
-4525.013
 30
1734.474
 70
    32
  0
VERTEX
  8
T35SSILL
 62
8
 10
1615.570
 20
-4518.875
 30
1734.482
 70
    32
  0
VERTEX
  8
T35SSILL
 62
8
 10
1617.738
 20
-4521.901
 30
1734.476
 70
    32
  0
VERTEX
  8
T35SSILL
 62
8
 10
1607.984
 20
-4528.891
 30
1734.466
 70
    32
  0
VERTEX
  8
T35SSILL
 62
8
 10
1614.330
 20
-4537.747
 30
1734.448
 70
    32
  0
VERTEX
  8
T35SSILL
 62
8
 10
1532.536
 20
-4596.590
 30
1734.370
 70
    32
  0
VERTEX
  8
T35SSILL
 62
8
 10
1523.752
 20
-4584.438
 30
1734.393
 70
    32
  0
VERTEX
  8
T35SSILL
 62
8
 10
1527.835
 20
-4582.081
 30
1734.396
 70
    32
  0
VERTEX
  8
T35SSILL
 62
8
 10
1518.462
 20
-4564.683
 30
1734.431
 70
    32
  0
SEQEND
  8
T35SSILL
  0
POLYLINE
  8
T35SSILL
 62
8
 66
     1
 70
     9
  0
VERTEX
  8
T35SSILL
 62
8
 10
1680.625
 20
-4455.081
 30
1734.578
 70
    32
  0
VERTEX
  8
T35SSILL
 62
8
 10
1674.909
 20
-4445.868
 30
1734.597
 70
    32
  0
VERTEX
  8
T35SSILL
 62
8
 10
1697.471
 20
-4429.566
 30
1734.620
 70
    32
  0
VERTEX
  8
T35SSILL
 62
8
 10
1701.320
 20
-4434.927
 30
1734.608
 70
    32
  0
VERTEX
  8
T35SSILL
 62
8
 10
1706.994
 20
-4431.159
 30
1734.613
 70
    32
  0
VERTEX
  8
T35SSILL
 62
8
 10
1703.141
 20
-4425.468
 30
1734.625
 70
    32
  0
VERTEX
  8
T35SSILL
 62
8
 10
1711.668
 20
-4419.307
 30
1734.634
 70
    32
  0
VERTEX
  8
T35SSILL
 62
8
 10
1703.415
 20
-4473.658
 30
1734.494
 70
    32
  0
VERTEX
  8
T35SSILL
 62
8
 10
1695.460
 20
-4479.381
 30
1734.503
 70
    32
  0
VERTEX
  8
T35SSILL
 62
8
 10
1692.741
 20
-4475.538
 30
1734.525
 70
    32
  0
VERTEX
  8
T35SSILL
 62
8
 10
1687.859
 20
-4479.031
 30
1734.531
 70
    32
  0
VERTEX
  8
T35SSILL
 62
8
 10
1684.398
 20
-4474.134
 30
1734.541
 70
    32
  0
VERTEX
  8
T35SSILL
 62
8
 10
1647.001
 20
-4500.932
 30
1734.505
 70
    32
  0
VERTEX
  8
T35SSILL
 62
8
 10
1644.583
 20
-4497.558
 30
1734.512
 70
    32
  0
VERTEX
  8
T35SSILL
 62
8
 10
1686.929
 20
-4466.444
 30
1734.555
 70
    32
  0
VERTEX
  8
T35SSILL
 62
8
 10
1684.749
 20
-4461.102
 30
1734.566
 70
    32
  0
SEQEND
  8
T35SSILL
  0
POLYLINE
  8
T35SSILL
 62
8
 66
     1
 70
     9
  0
VERTEX
  8
T35SSILL
 62
8
 10
1740.680
 20
-4544.443
 30
1734.204
 70
    32
  0
VERTEX
  8
T35SSILL
 62
8
 10
1751.803
 20
-4536.572
 30
1734.173
 70
    32
  0
VERTEX
  8
T35SSILL
 62
8
 10
1744.537
 20
-4525.749
 30
1734.181
 70
    32
  0
VERTEX
  8
T35SSILL
 62
8
 10
1742.989
 20
-4520.795
 30
1734.203
 70
    32
  0
VERTEX
  8
T35SSILL
 62
8
 10
1746.466
 20
-4518.155
 30
1734.199
 70
    32
  0
VERTEX
  8
T35SSILL
 62
8
 10
1743.844
 20
-4514.183
 30
1734.221
 70
    32
  0
VERTEX
  8
T35SSILL
 62
8
 10
1765.042
 20
-4498.998
 30
1734.195
 70
    32
  0
VERTEX
  8
T35SSILL
 62
8
 10
1778.828
 20
-4515.811
 30
1734.094
 70
    32
  0
VERTEX
  8
T35SSILL
 62
8
 10
1809.123
 20
-4496.153
 30
1734.049
 70
    32
  0
VERTEX
  8
T35SSILL
 62
8
 10
1811.812
 20
-4492.951
 30
1734.050
 70
    32
  0
VERTEX
  8
T35SSILL
 62
8
 10
1810.907
 20
-4483.984
 30
1734.082
 70
    32
  0
VERTEX
  8
T35SSILL
 62
8
 10
1822.420
 20
-4468.611
 30
1734.091
 70
    32
  0
VERTEX
  8
T35SSILL
 62
8
 10
1825.253
 20
-4462.942
 30
1734.099
 70
    32
  0
VERTEX
  8
T35SSILL
 62
8
 10
1821.885
 20
-4458.279
 30
1734.126
 70
    32
  0
VERTEX
  8
T35SSILL
 62
8
 10
1837.851
 20
-4446.842
 30
1734.106
 70
    32
  0
VERTEX
  8
T35SSILL
 62
8
 10
1841.576
 20
-4452.086
 30
1734.076
 70
    32
  0
VERTEX
  8
T35SSILL
 62
8
 10
1848.127
 20
-4448.043
 30
1734.066
 70
    32
  0
VERTEX
  8
T35SSILL
 62
8
 10
1844.128
 20
-4442.346
 30
1734.099
 70
    32
  0
VERTEX
  8
T35SSILL
 62
8
 10
1876.109
 20
-4419.436
 30
1734.061
 70
    32
  0
VERTEX
  8
T35SSILL
 62
8
 10
1903.080
 20
-4450.256
 30
1733.865
 70
    32
  0
VERTEX
  8
T35SSILL
 62
8
 10
1923.770
 20
-4485.644
 30
1733.931
 70
    32
  0
VERTEX
  8
T35SSILL
 62
8
 10
1865.820
 20
-4476.075
 30
1733.925
 70
    32
  0
VERTEX
  8
T35SSILL
 62
8
 10
1770.516
 20
-4544.363
 30
1734.190
 70
    32
  0
VERTEX
  8
T35SSILL
 62
8
 10
1767.111
 20
-4539.642
 30
1734.177
 70
    32
  0
VERTEX
  8
T35SSILL
 62
8
 10
1762.169
 20
-4543.046
 30
1734.190
 70
    32
  0
VERTEX
  8
T35SSILL
 62
8
 10
1765.639
 20
-4547.858
 30
1734.204
 70
    32
  0
VERTEX
  8
T35SSILL
 62
8
 10
1750.624
 20
-4558.617
 30
1734.246
 70
    32
  0
VERTEX
  8
T35SSILL
 62
8
 10
1748.214
 20
-4555.182
 30
1734.236
 70
    32
  0
SEQEND
  8
T35SSILL
  0
POLYLINE
  8
T35SSILL
 62
8
 66
     1
 70
     9
  0
VERTEX
  8
T35SSILL
 62
8
 10
1769.353
 20
-4574.867
 30
1734.290
 70
    32
  0
VERTEX
  8
T35SSILL
 62
8
 10
1766.416
 20
-4570.681
 30
1734.278
 70
    32
  0
VERTEX
  8
T35SSILL
 62
8
 10
1771.342
 20
-4567.255
 30
1734.264
 70
    32
  0
VERTEX
  8
T35SSILL
 62
8
 10
1767.896
 20
-4562.343
 30
1734.250
 70
    32
  0
VERTEX
  8
T35SSILL
 62
8
 10
1778.277
 20
-4555.125
 30
1734.222
 70
    32
  0
VERTEX
  8
T35SSILL
 62
8
 10
1774.503
 20
-4549.892
 30
1734.207
 70
    32
  0
VERTEX
  8
T35SSILL
 62
8
 10
1867.757
 20
-4483.092
 30
1733.947
 70
    32
  0
VERTEX
  8
T35SSILL
 62
8
 10
1922.548
 20
-4493.493
 30
1733.957
 70
    32
  0
VERTEX
  8
T35SSILL
 62
8
 10
1880.325
 20
-4523.815
 30
1734.074
 70
    32
  0
VERTEX
  8
T35SSILL
 62
8
 10
1872.576
 20
-4524.287
 30
1734.079
 70
    32
  0
VERTEX
  8
T35SSILL
 62
8
 10
1868.022
 20
-4525.839
 30
1734.086
 70
    32
  0
VERTEX
  8
T35SSILL
 62
8
 10
1865.843
 20
-4527.450
 30
1734.093
 70
    32
  0
VERTEX
  8
T35SSILL
 62
8
 10
1864.290
 20
-4535.330
 30
1734.119
 70
    32
  0
VERTEX
  8
T35SSILL
 62
8
 10
1851.526
 20
-4544.497
 30
1734.154
 70
    32
  0
VERTEX
  8
T35SSILL
 62
8
 10
1845.821
 20
-4537.589
 30
1734.135
 70
    32
  0
VERTEX
  8
T35SSILL
 62
8
 10
1834.270
 20
-4528.932
 30
1734.112
 70
    32
  0
SEQEND
  8
T35SSILL
  0
POLYLINE
  8
T35SSILL
 62
8
 66
     1
 70
     9
  0
VERTEX
  8
T35SSILL
 62
8
 10
1806.712
 20
-4249.162
 30
1734.390
 70
    32
  0
VERTEX
  8
T35SSILL
 62
8
 10
1798.477
 20
-4246.357
 30
1734.409
 70
    32
  0
VERTEX
  8
T35SSILL
 62
8
 10
1792.948
 20
-4246.165
 30
1734.423
 70
    32
  0
VERTEX
  8
T35SSILL
 62
8
 10
1786.436
 20
-4247.911
 30
1734.441
 70
    32
  0
VERTEX
  8
T35SSILL
 62
8
 10
1755.389
 20
-4269.370
 30
1734.534
 70
    32
  0
VERTEX
  8
T35SSILL
 62
8
 10
1813.951
 20
-4336.257
 30
1734.432
 70
    32
  0
VERTEX
  8
T35SSILL
 62
8
 10
1867.341
 20
-4298.357
 30
1734.271
 70
    32
  0
VERTEX
  8
T35SSILL
 62
8
 10
1879.156
 20
-4293.233
 30
1734.237
 70
    32
  0
SEQEND
  8
T35SSILL
  0
POLYLINE
  8
T35SSILL
 62
8
 66
     1
 70
     9
  0
VERTEX
  8
T35SSILL
 62
8
 10
1875.440
 20
-4302.799
 30
1734.253
 70
    32
  0
VERTEX
  8
T35SSILL
 62
8
 10
1884.477
 20
-4300.580
 30
1734.229
 70
    32
  0
VERTEX
  8
T35SSILL
 62
8
 10
1891.894
 20
-4302.780
 30
1734.211
 70
    32
  0
VERTEX
  8
T35SSILL
 62
8
 10
1964.310
 20
-4347.322
 30
1734.045
 70
    32
  0
VERTEX
  8
T35SSILL
 62
8
 10
1955.210
 20
-4351.566
 30
1734.066
 70
    32
  0
VERTEX
  8
T35SSILL
 62
8
 10
1877.211
 20
-4407.398
 30
1734.111
 70
    32
  0
VERTEX
  8
T35SSILL
 62
8
 10
1819.861
 20
-4342.351
 30
1734.421
 70
    32
  0
VERTEX
  8
T35SSILL
 62
8
 10
1856.339
 20
-4315.929
 30
1734.310
 70
    32
  0
VERTEX
  8
T35SSILL
 62
8
 10
1859.463
 20
-4320.711
 30
1734.306
 70
    32
  0
VERTEX
  8
T35SSILL
 62
8
 10
1865.753
 20
-4316.935
 30
1734.287
 70
    32
  0
VERTEX
  8
T35SSILL
 62
8
 10
1862.243
 20
-4311.652
 30
1734.293
 70
    32
  0
VERTEX
  8
T35SSILL
 62
8
 10
1871.855
 20
-4304.690
 30
1734.263
 70
    32
  0
SEQEND
  8
T35SSILL
  0
POLYLINE
  8
T35SSILL
 62
8
 66
     1
 70
     9
  0
VERTEX
  8
T35SSILL
 62
8
 10
3183.966
 20
-6585.311
 30
1737.336
 70
    32
  0
VERTEX
  8
T35SSILL
 62
8
 10
3186.245
 20
-6586.608
 30
1737.333
 70
    32
  0
VERTEX
  8
T35SSILL
 62
8
 10
3189.273
 20
-6591.788
 30
1737.334
 70
    32
  0
VERTEX
  8
T35SSILL
 62
8
 10
3194.416
 20
-6595.644
 30
1737.330
 70
    32
  0
VERTEX
  8
T35SSILL
 62
8
 10
3206.101
 20
-6617.589
 30
1737.335
 70
    32
  0
VERTEX
  8
T35SSILL
 62
8
 10
3212.524
 20
-6623.854
 30
1737.329
 70
    32
  0
VERTEX
  8
T35SSILL
 62
8
 10
3214.067
 20
-6628.368
 30
1737.330
 70
    32
  0
VERTEX
  8
T35SSILL
 62
8
 10
3213.673
 20
-6633.805
 30
1737.335
 70
    32
  0
VERTEX
  8
T35SSILL
 62
8
 10
3218.622
 20
-6654.115
 30
1737.344
 70
    32
  0
VERTEX
  8
T35SSILL
 62
8
 10
3222.760
 20
-6664.343
 30
1737.358
 70
    32
  0
VERTEX
  8
T35SSILL
 62
8
 10
3226.866
 20
-6681.907
 30
1737.384
 70
    32
  0
VERTEX
  8
T35SSILL
 62
8
 10
3229.358
 20
-6703.934
 30
1737.420
 70
    32
  0
VERTEX
  8
T35SSILL
 62
8
 10
3213.569
 20
-6719.811
 30
1737.458
 70
    32
  0
VERTEX
  8
T35SSILL
 62
8
 10
3194.077
 20
-6724.081
 30
1737.490
 70
    32
  0
VERTEX
  8
T35SSILL
 62
8
 10
3181.112
 20
-6728.304
 30
1737.511
 70
    32
  0
VERTEX
  8
T35SSILL
 62
8
 10
3170.247
 20
-6734.609
 30
1737.530
 70
    32
  0
VERTEX
  8
T35SSILL
 62
8
 10
3158.133
 20
-6729.741
 30
1737.540
 70
    32
  0
VERTEX
  8
T35SSILL
 62
8
 10
3146.756
 20
-6722.853
 30
1737.549
 70
    32
  0
VERTEX
  8
T35SSILL
 62
8
 10
3132.495
 20
-6710.452
 30
1737.567
 70
    32
  0
VERTEX
  8
T35SSILL
 62
8
 10
3125.629
 20
-6706.423
 30
1737.577
 70
    32
  0
VERTEX
  8
T35SSILL
 62
8
 10
3124.993
 20
-6708.490
 30
1737.580
 70
    32
  0
VERTEX
  8
T35SSILL
 62
8
 10
3133.399
 20
-6720.360
 30
1737.574
 70
    32
  0
VERTEX
  8
T35SSILL
 62
8
 10
3150.008
 20
-6731.657
 30
1737.552
 70
    32
  0
VERTEX
  8
T35SSILL
 62
8
 10
3153.105
 20
-6752.980
 30
1737.565
 70
    32
  0
VERTEX
  8
T35SSILL
 62
8
 10
3183.837
 20
-6796.307
 30
1737.539
 70
    32
  0
VERTEX
  8
T35SSILL
 62
8
 10
3192.527
 20
-6803.252
 30
1737.529
 70
    32
  0
VERTEX
  8
T35SSILL
 62
8
 10
3204.829
 20
-6807.364
 30
1737.512
 70
    32
  0
VERTEX
  8
T35SSILL
 62
8
 10
3212.267
 20
-6806.487
 30
1737.501
 70
    32
  0
VERTEX
  8
T35SSILL
 62
8
 10
3219.533
 20
-6803.046
 30
1737.488
 70
    32
  0
VERTEX
  8
T35SSILL
 62
8
 10
3225.916
 20
-6798.180
 30
1737.476
 70
    32
  0
VERTEX
  8
T35SSILL
 62
8
 10
3221.764
 20
-6792.052
 30
1737.480
 70
    32
  0
VERTEX
  8
T35SSILL
 62
8
 10
3241.395
 20
-6778.301
 30
1737.443
 70
    32
  0
VERTEX
  8
T35SSILL
 62
8
 10
3246.043
 20
-6784.835
 30
1737.440
 70
    32
  0
VERTEX
  8
T35SSILL
 62
8
 10
3435.829
 20
-6649.065
 30
1737.089
 70
    32
  0
VERTEX
  8
T35SSILL
 62
8
 10
3442.979
 20
-6639.589
 30
1737.074
 70
    32
  0
VERTEX
  8
T35SSILL
 62
8
 10
3445.498
 20
-6630.863
 30
1737.066
 70
    32
  0
VERTEX
  8
T35SSILL
 62
8
 10
3445.224
 20
-6624.293
 30
1737.056
 70
    32
  0
VERTEX
  8
T35SSILL
 62
8
 10
3443.607
 20
-6617.798
 30
1737.046
 70
    32
  0
VERTEX
  8
T35SSILL
 62
8
 10
3427.341
 20
-6597.130
 30
1737.027
 70
    32
  0
VERTEX
  8
T35SSILL
 62
8
 10
3158.289
 20
-6198.201
 30
1736.562
 70
    32
  0
VERTEX
  8
T35SSILL
 62
8
 10
3154.692
 20
-6209.916
 30
1736.587
 70
    32
  0
VERTEX
  8
T35SSILL
 62
8
 10
3148.650
 20
-6218.449
 30
1736.606
 70
    32
  0
VERTEX
  8
T35SSILL
 62
8
 10
3036.701
 20
-6299.645
 30
1736.962
 70
    32
  0
VERTEX
  8
T35SSILL
 62
8
 10
3031.183
 20
-6309.151
 30
1736.985
 70
    32
  0
VERTEX
  8
T35SSILL
 62
8
 10
3030.079
 20
-6318.678
 30
1737.003
 70
    32
  0
VERTEX
  8
T35SSILL
 62
8
 10
3031.195
 20
-6325.215
 30
1737.013
 70
    32
  0
VERTEX
  8
T35SSILL
 62
8
 10
3034.339
 20
-6332.114
 30
1737.023
 70
    32
  0
VERTEX
  8
T35SSILL
 62
8
 10
3049.471
 20
-6358.680
 30
1737.055
 70
    32
  0
VERTEX
  8
T35SSILL
 62
8
 10
3061.085
 20
-6350.070
 30
1737.028
 70
    32
  0
VERTEX
  8
T35SSILL
 62
8
 10
3064.590
 20
-6355.559
 30
1737.034
 70
    32
  0
VERTEX
  8
T35SSILL
 62
8
 10
3052.566
 20
-6364.113
 30
1737.061
 70
    32
  0
VERTEX
  8
T35SSILL
 62
8
 10
3067.479
 20
-6390.296
 30
1737.093
 70
    32
  0
VERTEX
  8
T35SSILL
 62
8
 10
3077.089
 20
-6399.750
 30
1737.100
 70
    32
  0
VERTEX
  8
T35SSILL
 62
8
 10
3090.516
 20
-6415.877
 30
1737.115
 70
    32
  0
VERTEX
  8
T35SSILL
 62
8
 10
3094.106
 20
-6421.896
 30
1737.117
 70
    32
  0
VERTEX
  8
T35SSILL
 62
8
 10
3095.373
 20
-6433.729
 30
1737.136
 70
    32
  0
VERTEX
  8
T35SSILL
 62
8
 10
3099.743
 20
-6442.841
 30
1737.141
 70
    32
  0
VERTEX
  8
T35SSILL
 62
8
 10
3099.676
 20
-6446.822
 30
1737.149
 70
    32
  0
VERTEX
  8
T35SSILL
 62
8
 10
3113.519
 20
-6471.125
 30
1737.157
 70
    32
  0
VERTEX
  8
T35SSILL
 62
8
 10
3116.794
 20
-6469.223
 30
1737.144
 70
    32
  0
VERTEX
  8
T35SSILL
 62
8
 10
3121.812
 20
-6470.555
 30
1737.133
 70
    32
  0
VERTEX
  8
T35SSILL
 62
8
 10
3126.970
 20
-6478.242
 30
1737.144
 70
    32
  0
VERTEX
  8
T35SSILL
 62
8
 10
3130.984
 20
-6491.676
 30
1737.171
 70
    32
  0
VERTEX
  8
T35SSILL
 62
8
 10
3144.799
 20
-6514.821
 30
1737.216
 70
    32
  0
VERTEX
  8
T35SSILL
 62
8
 10
3151.430
 20
-6534.922
 30
1737.256
 70
    32
  0
VERTEX
  8
T35SSILL
 62
8
 10
3161.782
 20
-6550.808
 30
1737.286
 70
    32
  0
VERTEX
  8
T35SSILL
 62
8
 10
3166.338
 20
-6563.857
 30
1737.312
 70
    32
  0
VERTEX
  8
T35SSILL
 62
8
 10
3175.607
 20
-6580.131
 30
1737.344
 70
    32
  0
VERTEX
  8
T35SSILL
 62
8
 10
3179.433
 20
-6582.672
 30
1737.341
 70
    32
  0
SEQEND
  8
T35SSILL
  0
POLYLINE
  8
T35SSILL
 62
8
 66
     1
 70
     9
  0
VERTEX
  8
T35SSILL
 62
8
 10
3214.743
 20
-6096.206
 30
1737.174
 70
    32
  0
VERTEX
  8
T35SSILL
 62
8
 10
3177.186
 20
-6122.926
 30
1736.869
 70
    32
  0
VERTEX
  8
T35SSILL
 62
8
 10
3183.200
 20
-6130.419
 30
1736.872
 70
    32
  0
VERTEX
  8
T35SSILL
 62
8
 10
3188.501
 20
-6132.882
 30
1736.891
 70
    32
  0
VERTEX
  8
T35SSILL
 62
8
 10
3201.566
 20
-6133.919
 30
1736.957
 70
    32
  0
VERTEX
  8
T35SSILL
 62
8
 10
3211.098
 20
-6133.374
 30
1737.010
 70
    32
  0
VERTEX
  8
T35SSILL
 62
8
 10
3221.981
 20
-6148.538
 30
1737.009
 70
    32
  0
VERTEX
  8
T35SSILL
 62
8
 10
3224.279
 20
-6150.123
 30
1737.015
 70
    32
  0
VERTEX
  8
T35SSILL
 62
8
 10
3225.342
 20
-6152.857
 30
1737.010
 70
    32
  0
VERTEX
  8
T35SSILL
 62
8
 10
3238.141
 20
-6152.659
 30
1737.079
 70
    32
  0
VERTEX
  8
T35SSILL
 62
8
 10
3241.071
 20
-6162.805
 30
1737.056
 70
    32
  0
VERTEX
  8
T35SSILL
 62
8
 10
3248.066
 20
-6175.504
 30
1737.043
 70
    32
  0
VERTEX
  8
T35SSILL
 62
8
 10
3242.158
 20
-6179.398
 30
1736.997
 70
    32
  0
VERTEX
  8
T35SSILL
 62
8
 10
3222.354
 20
-6160.188
 30
1736.965
 70
    32
  0
VERTEX
  8
T35SSILL
 62
8
 10
3214.412
 20
-6161.879
 30
1736.916
 70
    32
  0
VERTEX
  8
T35SSILL
 62
8
 10
3208.159
 20
-6170.363
 30
1736.850
 70
    32
  0
VERTEX
  8
T35SSILL
 62
8
 10
3195.634
 20
-6175.680
 30
1736.762
 70
    32
  0
VERTEX
  8
T35SSILL
 62
8
 10
3188.141
 20
-6181.430
 30
1736.699
 70
    32
  0
VERTEX
  8
T35SSILL
 62
8
 10
3173.931
 20
-6182.337
 30
1736.620
 70
    32
  0
VERTEX
  8
T35SSILL
 62
8
 10
3152.431
 20
-6151.920
 30
1736.623
 70
    32
  0
VERTEX
  8
T35SSILL
 62
8
 10
3145.465
 20
-6156.434
 30
1736.568
 70
    32
  0
VERTEX
  8
T35SSILL
 62
8
 10
3144.766
 20
-6160.672
 30
1736.548
 70
    32
  0
VERTEX
  8
T35SSILL
 62
8
 10
3147.267
 20
-6168.514
 30
1736.531
 70
    32
  0
VERTEX
  8
T35SSILL
 62
8
 10
3190.739
 20
-6232.696
 30
1736.645
 70
    32
  0
VERTEX
  8
T35SSILL
 62
8
 10
3197.057
 20
-6228.565
 30
1736.669
 70
    32
  0
VERTEX
  8
T35SSILL
 62
8
 10
3200.476
 20
-6233.436
 30
1736.679
 70
    32
  0
VERTEX
  8
T35SSILL
 62
8
 10
3194.166
 20
-6237.756
 30
1736.655
 70
    32
  0
VERTEX
  8
T35SSILL
 62
8
 10
3299.756
 20
-6393.649
 30
1736.920
 70
    32
  0
VERTEX
  8
T35SSILL
 62
8
 10
3353.259
 20
-6355.680
 30
1737.125
 70
    32
  0
VERTEX
  8
T35SSILL
 62
8
 10
3347.597
 20
-6346.945
 30
1737.126
 70
    32
  0
VERTEX
  8
T35SSILL
 62
8
 10
3352.869
 20
-6344.284
 30
1737.144
 70
    32
  0
VERTEX
  8
T35SSILL
 62
8
 10
3352.717
 20
-6342.125
 30
1737.148
 70
    32
  0
VERTEX
  8
T35SSILL
 62
8
 10
3363.633
 20
-6335.345
 30
1737.188
 70
    32
  0
VERTEX
  8
T35SSILL
 62
8
 10
3364.590
 20
-6331.877
 30
1737.196
 70
    32
  0
VERTEX
  8
T35SSILL
 62
8
 10
3362.263
 20
-6325.393
 30
1737.193
 70
    32
  0
VERTEX
  8
T35SSILL
 62
8
 10
3363.044
 20
-6321.571
 30
1737.198
 70
    32
  0
VERTEX
  8
T35SSILL
 62
8
 10
3359.626
 20
-6295.015
 30
1737.198
 70
    32
  0
VERTEX
  8
T35SSILL
 62
8
 10
3357.227
 20
-6291.591
 30
1737.191
 70
    32
  0
VERTEX
  8
T35SSILL
 62
8
 10
3346.903
 20
-6283.603
 30
1737.159
 70
    32
  0
VERTEX
  8
T35SSILL
 62
8
 10
3344.041
 20
-6278.647
 30
1737.155
 70
    32
  0
VERTEX
  8
T35SSILL
 62
8
 10
3354.104
 20
-6264.860
 30
1737.263
 70
    32
  0
VERTEX
  8
T35SSILL
 62
8
 10
3352.489
 20
-6257.143
 30
1737.284
 70
    32
  0
VERTEX
  8
T35SSILL
 62
8
 10
3353.813
 20
-6256.261
 30
1737.295
 70
    32
  0
VERTEX
  8
T35SSILL
 62
8
 10
3304.914
 20
-6189.948
 30
1737.292
 70
    32
  0
VERTEX
  8
T35SSILL
 62
8
 10
3297.689
 20
-6189.821
 30
1737.253
 70
    32
  0
VERTEX
  8
T35SSILL
 62
8
 10
3300.770
 20
-6198.838
 30
1737.235
 70
    32
  0
VERTEX
  8
T35SSILL
 62
8
 10
3305.986
 20
-6203.980
 30
1737.243
 70
    32
  0
VERTEX
  8
T35SSILL
 62
8
 10
3298.434
 20
-6208.362
 30
1737.185
 70
    32
  0
VERTEX
  8
T35SSILL
 62
8
 10
3289.891
 20
-6196.909
 30
1737.184
 70
    32
  0
VERTEX
  8
T35SSILL
 62
8
 10
3280.636
 20
-6200.401
 30
1737.121
 70
    32
  0
VERTEX
  8
T35SSILL
 62
8
 10
3276.496
 20
-6191.320
 30
1737.134
 70
    32
  0
VERTEX
  8
T35SSILL
 62
8
 10
3272.151
 20
-6189.065
 30
1737.120
 70
    32
  0
VERTEX
  8
T35SSILL
 62
8
 10
3270.064
 20
-6181.523
 30
1737.138
 70
    32
  0
VERTEX
  8
T35SSILL
 62
8
 10
3260.072
 20
-6178.656
 30
1737.095
 70
    32
  0
VERTEX
  8
T35SSILL
 62
8
 10
3260.987
 20
-6170.892
 30
1737.131
 70
    32
  0
VERTEX
  8
T35SSILL
 62
8
 10
3269.058
 20
-6168.866
 30
1737.182
 70
    32
  0
VERTEX
  8
T35SSILL
 62
8
 10
3269.429
 20
-6164.748
 30
1737.200
 70
    32
  0
VERTEX
  8
T35SSILL
 62
8
 10
3281.806
 20
-6160.387
 30
1737.283
 70
    32
  0
VERTEX
  8
T35SSILL
 62
8
 10
3281.600
 20
-6157.642
 30
1737.293
 70
    32
  0
VERTEX
  8
T35SSILL
 62
8
 10
3223.923
 20
-6077.074
 30
1737.298
 70
    32
  0
VERTEX
  8
T35SSILL
 62
8
 10
3221.997
 20
-6077.981
 30
1737.284
 70
    32
  0
VERTEX
  8
T35SSILL
 62
8
 10
3217.471
 20
-6091.259
 30
1737.208
 70
    32
  0
SEQEND
  8
T35SSILL
  0
POLYLINE
  8
T35SSILL
 62
8
 66
     1
 70
     9
  0
VERTEX
  8
T35SSILL
 62
8
 10
2884.810
 20
-5737.769
 30
1736.162
 70
    32
  0
VERTEX
  8
T35SSILL
 62
8
 10
2879.770
 20
-5732.129
 30
1736.151
 70
    32
  0
VERTEX
  8
T35SSILL
 62
8
 10
2873.230
 20
-5727.285
 30
1736.140
 70
    32
  0
VERTEX
  8
T35SSILL
 62
8
 10
2868.112
 20
-5728.264
 30
1736.135
 70
    32
  0
VERTEX
  8
T35SSILL
 62
8
 10
2853.730
 20
-5734.469
 30
1736.123
 70
    32
  0
VERTEX
  8
T35SSILL
 62
8
 10
2834.793
 20
-5706.345
 30
1736.080
 70
    32
  0
VERTEX
  8
T35SSILL
 62
8
 10
2833.768
 20
-5696.997
 30
1736.072
 70
    32
  0
VERTEX
  8
T35SSILL
 62
8
 10
2834.886
 20
-5692.167
 30
1736.070
 70
    32
  0
VERTEX
  8
T35SSILL
 62
8
 10
2839.681
 20
-5682.189
 30
1736.068
 70
    32
  0
VERTEX
  8
T35SSILL
 62
8
 10
2849.376
 20
-5673.876
 30
1736.073
 70
    32
  0
VERTEX
  8
T35SSILL
 62
8
 10
2852.415
 20
-5678.124
 30
1736.080
 70
    32
  0
VERTEX
  8
T35SSILL
 62
8
 10
2859.081
 20
-5673.366
 30
1736.084
 70
    32
  0
VERTEX
  8
T35SSILL
 62
8
 10
2855.996
 20
-5668.958
 30
1736.077
 70
    32
  0
VERTEX
  8
T35SSILL
 62
8
 10
2889.841
 20
-5643.816
 30
1735.966
 70
    32
  0
VERTEX
  8
T35SSILL
 62
8
 10
2895.511
 20
-5634.289
 30
1735.923
 70
    32
  0
VERTEX
  8
T35SSILL
 62
8
 10
2898.113
 20
-5623.666
 30
1735.877
 70
    32
  0
VERTEX
  8
T35SSILL
 62
8
 10
2996.695
 20
-5760.329
 30
1736.350
 70
    32
  0
VERTEX
  8
T35SSILL
 62
8
 10
3000.588
 20
-5771.912
 30
1736.374
 70
    32
  0
VERTEX
  8
T35SSILL
 62
8
 10
3000.685
 20
-5776.943
 30
1736.381
 70
    32
  0
VERTEX
  8
T35SSILL
 62
8
 10
2999.196
 20
-5783.477
 30
1736.388
 70
    32
  0
VERTEX
  8
T35SSILL
 62
8
 10
2995.061
 20
-5791.870
 30
1736.393
 70
    32
  0
VERTEX
  8
T35SSILL
 62
8
 10
2947.458
 20
-5828.758
 30
1736.336
 70
    32
  0
VERTEX
  8
T35SSILL
 62
8
 10
2939.202
 20
-5851.989
 30
1736.300
 70
    32
  0
VERTEX
  8
T35SSILL
 62
8
 10
2935.393
 20
-5845.549
 30
1736.294
 70
    32
  0
VERTEX
  8
T35SSILL
 62
8
 10
2933.969
 20
-5838.667
 30
1736.295
 70
    32
  0
VERTEX
  8
T35SSILL
 62
8
 10
2918.205
 20
-5807.534
 30
1736.275
 70
    32
  0
VERTEX
  8
T35SSILL
 62
8
 10
2916.960
 20
-5801.887
 30
1736.268
 70
    32
  0
VERTEX
  8
T35SSILL
 62
8
 10
2912.355
 20
-5793.068
 30
1736.247
 70
    32
  0
VERTEX
  8
T35SSILL
 62
8
 10
2909.613
 20
-5789.718
 30
1736.237
 70
    32
  0
VERTEX
  8
T35SSILL
 62
8
 10
2897.330
 20
-5781.706
 30
1736.209
 70
    32
  0
VERTEX
  8
T35SSILL
 62
8
 10
2891.459
 20
-5754.882
 30
1736.182
 70
    32
  0
VERTEX
  8
T35SSILL
 62
8
 10
2886.494
 20
-5741.562
 30
1736.166
 70
    32
  0
SEQEND
  8
T35SSILL
  0
POLYLINE
  8
T35SSILL
 62
8
 66
     1
 70
     9
  0
VERTEX
  8
T35SSILL
 62
8
 10
3030.453
 20
-6295.644
 30
1736.961
 70
    32
  0
VERTEX
  8
T35SSILL
 62
8
 10
3139.925
 20
-6215.671
 30
1736.602
 70
    32
  0
VERTEX
  8
T35SSILL
 62
8
 10
3145.155
 20
-6211.018
 30
1736.591
 70
    32
  0
VERTEX
  8
T35SSILL
 62
8
 10
3149.156
 20
-6204.771
 30
1736.578
 70
    32
  0
VERTEX
  8
T35SSILL
 62
8
 10
3151.402
 20
-6196.573
 30
1736.560
 70
    32
  0
VERTEX
  8
T35SSILL
 62
8
 10
3150.164
 20
-6186.155
 30
1736.539
 70
    32
  0
VERTEX
  8
T35SSILL
 62
8
 10
3085.259
 20
-6089.919
 30
1736.506
 70
    32
  0
VERTEX
  8
T35SSILL
 62
8
 10
3051.239
 20
-6114.691
 30
1736.617
 70
    32
  0
VERTEX
  8
T35SSILL
 62
8
 10
3051.249
 20
-6123.253
 30
1736.632
 70
    32
  0
VERTEX
  8
T35SSILL
 62
8
 10
3039.695
 20
-6131.475
 30
1736.658
 70
    32
  0
VERTEX
  8
T35SSILL
 62
8
 10
3044.030
 20
-6139.591
 30
1736.668
 70
    32
  0
VERTEX
  8
T35SSILL
 62
8
 10
3040.328
 20
-6144.627
 30
1736.681
 70
    32
  0
VERTEX
  8
T35SSILL
 62
8
 10
3035.388
 20
-6147.280
 30
1736.691
 70
    32
  0
VERTEX
  8
T35SSILL
 62
8
 10
3023.917
 20
-6150.206
 30
1736.708
 70
    32
  0
VERTEX
  8
T35SSILL
 62
8
 10
3019.675
 20
-6146.416
 30
1736.705
 70
    32
  0
VERTEX
  8
T35SSILL
 62
8
 10
3012.876
 20
-6143.864
 30
1736.708
 70
    32
  0
VERTEX
  8
T35SSILL
 62
8
 10
3006.864
 20
-6135.573
 30
1736.699
 70
    32
  0
VERTEX
  8
T35SSILL
 62
8
 10
3006.504
 20
-6129.218
 30
1736.688
 70
    32
  0
VERTEX
  8
T35SSILL
 62
8
 10
3013.023
 20
-6117.912
 30
1736.661
 70
    32
  0
VERTEX
  8
T35SSILL
 62
8
 10
3030.757
 20
-6111.184
 30
1736.631
 70
    32
  0
VERTEX
  8
T35SSILL
 62
8
 10
3038.264
 20
-6114.441
 30
1736.629
 70
    32
  0
VERTEX
  8
T35SSILL
 62
8
 10
3072.131
 20
-6089.952
 30
1736.542
 70
    32
  0
VERTEX
  8
T35SSILL
 62
8
 10
3073.141
 20
-6071.952
 30
1736.505
 70
    32
  0
VERTEX
  8
T35SSILL
 62
8
 10
3029.318
 20
-6006.975
 30
1736.446
 70
    32
  0
VERTEX
  8
T35SSILL
 62
8
 10
3018.295
 20
-6020.369
 30
1736.481
 70
    32
  0
VERTEX
  8
T35SSILL
 62
8
 10
3007.427
 20
-6028.124
 30
1736.506
 70
    32
  0
VERTEX
  8
T35SSILL
 62
8
 10
3010.718
 20
-6032.824
 30
1736.511
 70
    32
  0
VERTEX
  8
T35SSILL
 62
8
 10
3005.074
 20
-6036.891
 30
1736.524
 70
    32
  0
VERTEX
  8
T35SSILL
 62
8
 10
3001.647
 20
-6032.248
 30
1736.519
 70
    32
  0
VERTEX
  8
T35SSILL
 62
8
 10
2910.254
 20
-6097.464
 30
1736.616
 70
    32
  0
VERTEX
  8
T35SSILL
 62
8
 10
2904.787
 20
-6102.854
 30
1736.617
 70
    32
  0
VERTEX
  8
T35SSILL
 62
8
 10
2900.294
 20
-6109.745
 30
1736.621
 70
    32
  0
VERTEX
  8
T35SSILL
 62
8
 10
2898.539
 20
-6119.015
 30
1736.631
 70
    32
  0
VERTEX
  8
T35SSILL
 62
8
 10
2898.988
 20
-6125.370
 30
1736.640
 70
    32
  0
VERTEX
  8
T35SSILL
 62
8
 10
2900.935
 20
-6130.134
 30
1736.648
 70
    32
  0
VERTEX
  8
T35SSILL
 62
8
 10
2931.520
 20
-6176.297
 30
1736.740
 70
    32
  0
VERTEX
  8
T35SSILL
 62
8
 10
2934.444
 20
-6178.026
 30
1736.745
 70
    32
  0
VERTEX
  8
T35SSILL
 62
8
 10
2944.152
 20
-6176.514
 30
1736.754
 70
    32
  0
VERTEX
  8
T35SSILL
 62
8
 10
2949.641
 20
-6191.160
 30
1736.779
 70
    32
  0
VERTEX
  8
T35SSILL
 62
8
 10
2949.647
 20
-6196.192
 30
1736.785
 70
    32
  0
VERTEX
  8
T35SSILL
 62
8
 10
2951.687
 20
-6204.487
 30
1736.798
 70
    32
  0
VERTEX
  8
T35SSILL
 62
8
 10
2955.227
 20
-6212.868
 30
1736.813
 70
    32
  0
VERTEX
  8
T35SSILL
 62
8
 10
2961.859
 20
-6223.100
 30
1736.833
 70
    32
  0
VERTEX
  8
T35SSILL
 62
8
 10
2966.985
 20
-6229.008
 30
1736.846
 70
    32
  0
VERTEX
  8
T35SSILL
 62
8
 10
2976.085
 20
-6235.706
 30
1736.865
 70
    32
  0
VERTEX
  8
T35SSILL
 62
8
 10
2999.952
 20
-6265.513
 30
1736.929
 70
    32
  0
VERTEX
  8
T35SSILL
 62
8
 10
3002.870
 20
-6270.541
 30
1736.938
 70
    32
  0
VERTEX
  8
T35SSILL
 62
8
 10
3007.218
 20
-6290.044
 30
1736.968
 70
    32
  0
VERTEX
  8
T35SSILL
 62
8
 10
3009.866
 20
-6290.570
 30
1736.971
 70
    32
  0
VERTEX
  8
T35SSILL
 62
8
 10
3015.776
 20
-6286.327
 30
1736.960
 70
    32
  0
VERTEX
  8
T35SSILL
 62
8
 10
3026.756
 20
-6301.533
 30
1736.976
 70
    32
  0
SEQEND
  8
T35SSILL
  0
POLYLINE
  8
T35SSILL
 62
8
 66
     1
 70
     9
  0
VERTEX
  8
T35SSILL
 62
8
 10
3152.476
 20
-5979.626
 30
1737.274
 70
    32
  0
VERTEX
  8
T35SSILL
 62
8
 10
3151.775
 20
-5976.294
 30
1737.269
 70
    32
  0
VERTEX
  8
T35SSILL
 62
8
 10
3131.317
 20
-5947.716
 30
1737.097
 70
    32
  0
VERTEX
  8
T35SSILL
 62
8
 10
3125.614
 20
-5951.683
 30
1737.046
 70
    32
  0
VERTEX
  8
T35SSILL
 62
8
 10
3121.366
 20
-5945.070
 30
1737.011
 70
    32
  0
VERTEX
  8
T35SSILL
 62
8
 10
3126.595
 20
-5941.120
 30
1737.057
 70
    32
  0
VERTEX
  8
T35SSILL
 62
8
 10
3008.896
 20
-5777.244
 30
1736.396
 70
    32
  0
VERTEX
  8
T35SSILL
 62
8
 10
3007.055
 20
-5785.583
 30
1736.405
 70
    32
  0
VERTEX
  8
T35SSILL
 62
8
 10
3000.279
 20
-5798.216
 30
1736.411
 70
    32
  0
VERTEX
  8
T35SSILL
 62
8
 10
2973.118
 20
-5818.198
 30
1736.391
 70
    32
  0
VERTEX
  8
T35SSILL
 62
8
 10
2976.224
 20
-5823.149
 30
1736.404
 70
    32
  0
VERTEX
  8
T35SSILL
 62
8
 10
2970.758
 20
-5827.042
 30
1736.395
 70
    32
  0
VERTEX
  8
T35SSILL
 62
8
 10
2967.638
 20
-5822.229
 30
1736.387
 70
    32
  0
VERTEX
  8
T35SSILL
 62
8
 10
2954.701
 20
-5831.747
 30
1736.352
 70
    32
  0
VERTEX
  8
T35SSILL
 62
8
 10
2951.442
 20
-5835.901
 30
1736.341
 70
    32
  0
VERTEX
  8
T35SSILL
 62
8
 10
2947.045
 20
-5845.795
 30
1736.324
 70
    32
  0
VERTEX
  8
T35SSILL
 62
8
 10
2943.886
 20
-5858.631
 30
1736.308
 70
    32
  0
VERTEX
  8
T35SSILL
 62
8
 10
2949.023
 20
-5867.682
 30
1736.315
 70
    32
  0
VERTEX
  8
T35SSILL
 62
8
 10
2951.331
 20
-5875.181
 30
1736.316
 70
    32
  0
VERTEX
  8
T35SSILL
 62
8
 10
2949.389
 20
-5876.366
 30
1736.310
 70
    32
  0
VERTEX
  8
T35SSILL
 62
8
 10
3085.072
 20
-6076.689
 30
1736.517
 70
    32
  0
VERTEX
  8
T35SSILL
 62
8
 10
3089.063
 20
-6076.604
 30
1736.541
 70
    32
  0
VERTEX
  8
T35SSILL
 62
8
 10
3100.087
 20
-6068.470
 30
1736.638
 70
    32
  0
VERTEX
  8
T35SSILL
 62
8
 10
3100.348
 20
-6064.763
 30
1736.654
 70
    32
  0
VERTEX
  8
T35SSILL
 62
8
 10
3103.430
 20
-6058.492
 30
1736.696
 70
    32
  0
VERTEX
  8
T35SSILL
 62
8
 10
3115.333
 20
-6046.474
 30
1736.813
 70
    32
  0
VERTEX
  8
T35SSILL
 62
8
 10
3122.658
 20
-6045.759
 30
1736.860
 70
    32
  0
VERTEX
  8
T35SSILL
 62
8
 10
3132.016
 20
-6046.896
 30
1736.911
 70
    32
  0
VERTEX
  8
T35SSILL
 62
8
 10
3133.520
 20
-6049.454
 30
1736.910
 70
    32
  0
VERTEX
  8
T35SSILL
 62
8
 10
3134.149
 20
-6059.604
 30
1736.875
 70
    32
  0
VERTEX
  8
T35SSILL
 62
8
 10
3140.786
 20
-6074.073
 30
1736.859
 70
    32
  0
VERTEX
  8
T35SSILL
 62
8
 10
3139.113
 20
-6077.694
 30
1736.835
 70
    32
  0
VERTEX
  8
T35SSILL
 62
8
 10
3129.059
 20
-6085.208
 30
1736.747
 70
    32
  0
VERTEX
  8
T35SSILL
 62
8
 10
3123.058
 20
-6086.716
 30
1736.705
 70
    32
  0
VERTEX
  8
T35SSILL
 62
8
 10
3107.603
 20
-6079.142
 30
1736.642
 70
    32
  0
VERTEX
  8
T35SSILL
 62
8
 10
3101.512
 20
-6078.796
 30
1736.607
 70
    32
  0
VERTEX
  8
T35SSILL
 62
8
 10
3094.720
 20
-6083.217
 30
1736.549
 70
    32
  0
VERTEX
  8
T35SSILL
 62
8
 10
3093.001
 20
-6088.395
 30
1736.519
 70
    32
  0
VERTEX
  8
T35SSILL
 62
8
 10
3133.763
 20
-6148.576
 30
1736.531
 70
    32
  0
VERTEX
  8
T35SSILL
 62
8
 10
3138.297
 20
-6145.500
 30
1736.570
 70
    32
  0
VERTEX
  8
T35SSILL
 62
8
 10
3140.950
 20
-6148.409
 30
1736.575
 70
    32
  0
VERTEX
  8
T35SSILL
 62
8
 10
3145.171
 20
-6139.222
 30
1736.634
 70
    32
  0
VERTEX
  8
T35SSILL
 62
8
 10
3143.227
 20
-6137.989
 30
1736.628
 70
    32
  0
VERTEX
  8
T35SSILL
 62
8
 10
3141.986
 20
-6134.460
 30
1736.635
 70
    32
  0
VERTEX
  8
T35SSILL
 62
8
 10
3138.429
 20
-6119.284
 30
1736.672
 70
    32
  0
VERTEX
  8
T35SSILL
 62
8
 10
3138.055
 20
-6106.486
 30
1736.719
 70
    32
  0
VERTEX
  8
T35SSILL
 62
8
 10
3134.693
 20
-6102.078
 30
1736.715
 70
    32
  0
VERTEX
  8
T35SSILL
 62
8
 10
3144.658
 20
-6096.589
 30
1736.796
 70
    32
  0
VERTEX
  8
T35SSILL
 62
8
 10
3157.404
 20
-6117.134
 30
1736.785
 70
    32
  0
VERTEX
  8
T35SSILL
 62
8
 10
3160.234
 20
-6120.395
 30
1736.788
 70
    32
  0
VERTEX
  8
T35SSILL
 62
8
 10
3165.446
 20
-6122.946
 30
1736.806
 70
    32
  0
VERTEX
  8
T35SSILL
 62
8
 10
3188.435
 20
-6106.949
 30
1736.991
 70
    32
  0
VERTEX
  8
T35SSILL
 62
8
 10
3185.184
 20
-6102.126
 30
1736.993
 70
    32
  0
VERTEX
  8
T35SSILL
 62
8
 10
3195.752
 20
-6094.226
 30
1737.080
 70
    32
  0
VERTEX
  8
T35SSILL
 62
8
 10
3199.641
 20
-6099.152
 30
1737.082
 70
    32
  0
VERTEX
  8
T35SSILL
 62
8
 10
3203.974
 20
-6096.136
 30
1737.117
 70
    32
  0
VERTEX
  8
T35SSILL
 62
8
 10
3212.785
 20
-6086.235
 30
1737.203
 70
    32
  0
VERTEX
  8
T35SSILL
 62
8
 10
3214.661
 20
-6079.501
 30
1737.239
 70
    32
  0
VERTEX
  8
T35SSILL
 62
8
 10
3208.080
 20
-6070.178
 30
1737.240
 70
    32
  0
VERTEX
  8
T35SSILL
 62
8
 10
3210.364
 20
-6063.907
 30
1737.277
 70
    32
  0
VERTEX
  8
T35SSILL
 62
8
 10
3210.215
 20
-6057.926
 30
1737.299
 70
    32
  0
VERTEX
  8
T35SSILL
 62
8
 10
3187.414
 20
-6026.076
 30
1737.301
 70
    32
  0
VERTEX
  8
T35SSILL
 62
8
 10
3182.060
 20
-6029.441
 30
1737.260
 70
    32
  0
VERTEX
  8
T35SSILL
 62
8
 10
3177.990
 20
-6023.887
 30
1737.259
 70
    32
  0
VERTEX
  8
T35SSILL
 62
8
 10
3183.237
 20
-6020.242
 30
1737.302
 70
    32
  0
VERTEX
  8
T35SSILL
 62
8
 10
3163.021
 20
-5992.002
 30
1737.304
 70
    32
  0
VERTEX
  8
T35SSILL
 62
8
 10
3159.589
 20
-5989.299
 30
1737.296
 70
    32
  0
VERTEX
  8
T35SSILL
 62
8
 10
3154.800
 20
-5992.576
 30
1737.256
 70
    32
  0
VERTEX
  8
T35SSILL
 62
8
 10
3147.857
 20
-5982.786
 30
1737.233
 70
    32
  0
SEQEND
  8
T35SSILL
  0
POLYLINE
  8
T35SSILL
 62
8
 66
     1
 70
     9
  0
VERTEX
  8
T35SSILL
 62
8
 10
2884.950
 20
-5800.024
 30
1736.211
 70
    32
  0
VERTEX
  8
T35SSILL
 62
8
 10
2880.041
 20
-5793.196
 30
1736.197
 70
    32
  0
VERTEX
  8
T35SSILL
 62
8
 10
2878.207
 20
-5789.299
 30
1736.190
 70
    32
  0
VERTEX
  8
T35SSILL
 62
8
 10
2878.462
 20
-5784.648
 30
1736.188
 70
    32
  0
VERTEX
  8
T35SSILL
 62
8
 10
2875.357
 20
-5780.142
 30
1736.181
 70
    32
  0
VERTEX
  8
T35SSILL
 62
8
 10
2868.664
 20
-5784.981
 30
1736.174
 70
    32
  0
VERTEX
  8
T35SSILL
 62
8
 10
2864.781
 20
-5778.678
 30
1736.165
 70
    32
  0
VERTEX
  8
T35SSILL
 62
8
 10
2871.058
 20
-5773.903
 30
1736.171
 70
    32
  0
VERTEX
  8
T35SSILL
 62
8
 10
2863.658
 20
-5763.164
 30
1736.155
 70
    32
  0
VERTEX
  8
T35SSILL
 62
8
 10
2863.135
 20
-5769.675
 30
1736.158
 70
    32
  0
VERTEX
  8
T35SSILL
 62
8
 10
2857.972
 20
-5780.881
 30
1736.157
 70
    32
  0
VERTEX
  8
T35SSILL
 62
8
 10
2845.611
 20
-5792.105
 30
1736.157
 70
    32
  0
VERTEX
  8
T35SSILL
 62
8
 10
2849.543
 20
-5797.887
 30
1736.169
 70
    32
  0
VERTEX
  8
T35SSILL
 62
8
 10
2842.451
 20
-5802.706
 30
1736.167
 70
    32
  0
VERTEX
  8
T35SSILL
 62
8
 10
2838.607
 20
-5797.173
 30
1736.156
 70
    32
  0
VERTEX
  8
T35SSILL
 62
8
 10
2815.822
 20
-5813.657
 30
1736.152
 70
    32
  0
VERTEX
  8
T35SSILL
 62
8
 10
2821.323
 20
-5822.198
 30
1736.169
 70
    32
  0
VERTEX
  8
T35SSILL
 62
8
 10
2815.735
 20
-5826.495
 30
1736.168
 70
    32
  0
VERTEX
  8
T35SSILL
 62
8
 10
2809.885
 20
-5817.952
 30
1736.151
 70
    32
  0
VERTEX
  8
T35SSILL
 62
8
 10
2805.589
 20
-5821.060
 30
1736.150
 70
    32
  0
VERTEX
  8
T35SSILL
 62
8
 10
2808.119
 20
-5824.967
 30
1736.158
 70
    32
  0
VERTEX
  8
T35SSILL
 62
8
 10
2809.124
 20
-5824.251
 30
1736.158
 70
    32
  0
VERTEX
  8
T35SSILL
 62
8
 10
2812.012
 20
-5829.036
 30
1736.167
 70
    32
  0
VERTEX
  8
T35SSILL
 62
8
 10
2811.263
 20
-5829.530
 30
1736.167
 70
    32
  0
VERTEX
  8
T35SSILL
 62
8
 10
2839.436
 20
-5853.387
 30
1736.228
 70
    32
  0
VERTEX
  8
T35SSILL
 62
8
 10
2842.659
 20
-5861.619
 30
1736.242
 70
    32
  0
VERTEX
  8
T35SSILL
 62
8
 10
2863.532
 20
-5872.420
 30
1736.279
 70
    32
  0
VERTEX
  8
T35SSILL
 62
8
 10
2881.861
 20
-5874.363
 30
1736.302
 70
    32
  0
VERTEX
  8
T35SSILL
 62
8
 10
2905.645
 20
-5857.395
 30
1736.304
 70
    32
  0
VERTEX
  8
T35SSILL
 62
8
 10
2909.614
 20
-5850.419
 30
1736.288
 70
    32
  0
VERTEX
  8
T35SSILL
 62
8
 10
2911.551
 20
-5841.237
 30
1736.269
 70
    32
  0
VERTEX
  8
T35SSILL
 62
8
 10
2910.051
 20
-5830.491
 30
1736.252
 70
    32
  0
VERTEX
  8
T35SSILL
 62
8
 10
2889.272
 20
-5800.336
 30
1736.216
 70
    32
  0
SEQEND
  8
T35SSILL
  0
POLYLINE
  8
T35SSILL
 62
8
 66
     1
 70
     9
  0
VERTEX
  8
T35SSILL
 62
8
 10
2772.062
 20
-5845.315
 30
1736.144
 70
    32
  0
VERTEX
  8
T35SSILL
 62
8
 10
2787.005
 20
-5834.505
 30
1736.147
 70
    32
  0
VERTEX
  8
T35SSILL
 62
8
 10
2791.829
 20
-5837.228
 30
1736.155
 70
    32
  0
VERTEX
  8
T35SSILL
 62
8
 10
2796.807
 20
-5847.589
 30
1736.174
 70
    32
  0
VERTEX
  8
T35SSILL
 62
8
 10
2815.363
 20
-5862.264
 30
1736.213
 70
    32
  0
VERTEX
  8
T35SSILL
 62
8
 10
2818.150
 20
-5869.522
 30
1736.225
 70
    32
  0
VERTEX
  8
T35SSILL
 62
8
 10
2819.688
 20
-5878.892
 30
1736.239
 70
    32
  0
VERTEX
  8
T35SSILL
 62
8
 10
2835.721
 20
-5886.576
 30
1736.266
 70
    32
  0
VERTEX
  8
T35SSILL
 62
8
 10
2840.796
 20
-5895.348
 30
1736.283
 70
    32
  0
VERTEX
  8
T35SSILL
 62
8
 10
2847.000
 20
-5899.084
 30
1736.295
 70
    32
  0
VERTEX
  8
T35SSILL
 62
8
 10
2821.672
 20
-5917.045
 30
1736.290
 70
    32
  0
VERTEX
  8
T35SSILL
 62
8
 10
2808.627
 20
-5898.881
 30
1736.252
 70
    32
  0
VERTEX
  8
T35SSILL
 62
8
 10
2778.478
 20
-5872.219
 30
1736.185
 70
    32
  0
VERTEX
  8
T35SSILL
 62
8
 10
2781.935
 20
-5869.942
 30
1736.186
 70
    32
  0
VERTEX
  8
T35SSILL
 62
8
 10
2783.455
 20
-5866.505
 30
1736.183
 70
    32
  0
VERTEX
  8
T35SSILL
 62
8
 10
2786.991
 20
-5865.907
 30
1736.187
 70
    32
  0
VERTEX
  8
T35SSILL
 62
8
 10
2786.999
 20
-5864.493
 30
1736.185
 70
    32
  0
VERTEX
  8
T35SSILL
 62
8
 10
2782.096
 20
-5856.517
 30
1736.169
 70
    32
  0
VERTEX
  8
T35SSILL
 62
8
 10
2777.517
 20
-5854.108
 30
1736.161
 70
    32
  0
VERTEX
  8
T35SSILL
 62
8
 10
2776.556
 20
-5852.071
 30
1736.158
 70
    32
  0
VERTEX
  8
T35SSILL
 62
8
 10
2775.140
 20
-5852.593
 30
1736.157
 70
    32
  0
VERTEX
  8
T35SSILL
 62
8
 10
2775.329
 20
-5850.386
 30
1736.154
 70
    32
  0
SEQEND
  8
T35SSILL
  0
POLYLINE
  8
T35SSILL
 62
8
 66
     1
 70
     9
  0
VERTEX
  8
T35SSILL
 62
8
 10
2641.946
 20
-5421.918
 30
1735.419
 70
    32
  0
VERTEX
  8
T35SSILL
 62
8
 10
2646.941
 20
-5420.655
 30
1735.416
 70
    32
  0
VERTEX
  8
T35SSILL
 62
8
 10
2650.394
 20
-5425.070
 30
1735.430
 70
    32
  0
VERTEX
  8
T35SSILL
 62
8
 10
2657.338
 20
-5427.993
 30
1735.439
 70
    32
  0
VERTEX
  8
T35SSILL
 62
8
 10
2661.629
 20
-5438.030
 30
1735.470
 70
    32
  0
VERTEX
  8
T35SSILL
 62
8
 10
2664.670
 20
-5451.181
 30
1735.509
 70
    32
  0
VERTEX
  8
T35SSILL
 62
8
 10
2669.810
 20
-5459.876
 30
1735.535
 70
    32
  0
VERTEX
  8
T35SSILL
 62
8
 10
2671.654
 20
-5467.061
 30
1735.557
 70
    32
  0
VERTEX
  8
T35SSILL
 62
8
 10
2697.305
 20
-5504.629
 30
1735.654
 70
    32
  0
VERTEX
  8
T35SSILL
 62
8
 10
2702.828
 20
-5499.563
 30
1735.637
 70
    32
  0
VERTEX
  8
T35SSILL
 62
8
 10
2703.283
 20
-5496.379
 30
1735.628
 70
    32
  0
VERTEX
  8
T35SSILL
 62
8
 10
2707.029
 20
-5490.738
 30
1735.611
 70
    32
  0
VERTEX
  8
T35SSILL
 62
8
 10
2713.112
 20
-5490.772
 30
1735.607
 70
    32
  0
VERTEX
  8
T35SSILL
 62
8
 10
2719.990
 20
-5487.084
 30
1735.594
 70
    32
  0
VERTEX
  8
T35SSILL
 62
8
 10
2721.951
 20
-5488.008
 30
1735.595
 70
    32
  0
VERTEX
  8
T35SSILL
 62
8
 10
2727.887
 20
-5500.563
 30
1735.627
 70
    32
  0
VERTEX
  8
T35SSILL
 62
8
 10
2726.701
 20
-5502.618
 30
1735.633
 70
    32
  0
VERTEX
  8
T35SSILL
 62
8
 10
2718.240
 20
-5506.431
 30
1735.648
 70
    32
  0
VERTEX
  8
T35SSILL
 62
8
 10
2718.187
 20
-5507.930
 30
1735.652
 70
    32
  0
VERTEX
  8
T35SSILL
 62
8
 10
2705.805
 20
-5509.984
 30
1735.664
 70
    32
  0
VERTEX
  8
T35SSILL
 62
8
 10
2702.843
 20
-5511.464
 30
1735.670
 70
    32
  0
VERTEX
  8
T35SSILL
 62
8
 10
2765.204
 20
-5603.267
 30
1735.891
 70
    32
  0
VERTEX
  8
T35SSILL
 62
8
 10
2768.511
 20
-5605.217
 30
1735.895
 70
    32
  0
VERTEX
  8
T35SSILL
 62
8
 10
2775.728
 20
-5600.992
 30
1735.879
 70
    32
  0
VERTEX
  8
T35SSILL
 62
8
 10
2766.471
 20
-5567.094
 30
1735.790
 70
    32
  0
VERTEX
  8
T35SSILL
 62
8
 10
2765.910
 20
-5558.204
 30
1735.766
 70
    32
  0
VERTEX
  8
T35SSILL
 62
8
 10
2765.443
 20
-5557.069
 30
1735.763
 70
    32
  0
VERTEX
  8
T35SSILL
 62
8
 10
2763.863
 20
-5557.371
 30
1735.765
 70
    32
  0
VERTEX
  8
T35SSILL
 62
8
 10
2751.495
 20
-5544.967
 30
1735.737
 70
    32
  0
VERTEX
  8
T35SSILL
 62
8
 10
2743.697
 20
-5535.717
 30
1735.716
 70
    32
  0
VERTEX
  8
T35SSILL
 62
8
 10
2743.480
 20
-5533.959
 30
1735.711
 70
    32
  0
VERTEX
  8
T35SSILL
 62
8
 10
2760.586
 20
-5522.892
 30
1735.671
 70
    32
  0
VERTEX
  8
T35SSILL
 62
8
 10
2771.088
 20
-5538.425
 30
1735.709
 70
    32
  0
VERTEX
  8
T35SSILL
 62
8
 10
2780.893
 20
-5565.610
 30
1735.777
 70
    32
  0
VERTEX
  8
T35SSILL
 62
8
 10
2782.955
 20
-5567.060
 30
1735.777
 70
    32
  0
VERTEX
  8
T35SSILL
 62
8
 10
2789.647
 20
-5578.011
 30
1735.794
 70
    32
  0
VERTEX
  8
T35SSILL
 62
8
 10
2794.989
 20
-5584.056
 30
1735.801
 70
    32
  0
VERTEX
  8
T35SSILL
 62
8
 10
2797.389
 20
-5584.881
 30
1735.798
 70
    32
  0
VERTEX
  8
T35SSILL
 62
8
 10
2826.951
 20
-5563.649
 30
1735.683
 70
    32
  0
VERTEX
  8
T35SSILL
 62
8
 10
2833.939
 20
-5549.645
 30
1735.631
 70
    32
  0
VERTEX
  8
T35SSILL
 62
8
 10
2833.437
 20
-5535.729
 30
1735.593
 70
    32
  0
VERTEX
  8
T35SSILL
 62
8
 10
2831.741
 20
-5531.096
 30
1735.584
 70
    32
  0
VERTEX
  8
T35SSILL
 62
8
 10
2621.446
 20
-5239.395
 30
1734.880
 70
    32
  0
VERTEX
  8
T35SSILL
 62
8
 10
2618.026
 20
-5251.464
 30
1734.914
 70
    32
  0
VERTEX
  8
T35SSILL
 62
8
 10
2615.656
 20
-5255.663
 30
1734.926
 70
    32
  0
VERTEX
  8
T35SSILL
 62
8
 10
2608.175
 20
-5263.683
 30
1734.948
 70
    32
  0
VERTEX
  8
T35SSILL
 62
8
 10
2558.227
 20
-5298.970
 30
1735.038
 70
    32
  0
VERTEX
  8
T35SSILL
 62
8
 10
2573.389
 20
-5321.534
 30
1735.107
 70
    32
  0
VERTEX
  8
T35SSILL
 62
8
 10
2582.050
 20
-5318.686
 30
1735.106
 70
    32
  0
VERTEX
  8
T35SSILL
 62
8
 10
2592.705
 20
-5325.753
 30
1735.129
 70
    32
  0
VERTEX
  8
T35SSILL
 62
8
 10
2594.256
 20
-5331.711
 30
1735.146
 70
    32
  0
VERTEX
  8
T35SSILL
 62
8
 10
2617.030
 20
-5355.595
 30
1735.220
 70
    32
  0
VERTEX
  8
T35SSILL
 62
8
 10
2613.206
 20
-5361.679
 30
1735.238
 70
    32
  0
VERTEX
  8
T35SSILL
 62
8
 10
2653.871
 20
-5404.185
 30
1735.369
 70
    32
  0
VERTEX
  8
T35SSILL
 62
8
 10
2648.389
 20
-5407.222
 30
1735.377
 70
    32
  0
VERTEX
  8
T35SSILL
 62
8
 10
2639.039
 20
-5415.564
 30
1735.400
 70
    32
  0
SEQEND
  8
T35SSILL
  0
POLYLINE
  8
T35SSILL
 62
8
 66
     1
 70
     9
  0
VERTEX
  8
T35SSILL
 62
8
 10
2561.554
 20
-5369.413
 30
1735.222
 70
    32
  0
VERTEX
  8
T35SSILL
 62
8
 10
2568.003
 20
-5377.549
 30
1735.248
 70
    32
  0
VERTEX
  8
T35SSILL
 62
8
 10
2566.925
 20
-5384.185
 30
1735.264
 70
    32
  0
VERTEX
  8
T35SSILL
 62
8
 10
2571.554
 20
-5389.895
 30
1735.282
 70
    32
  0
VERTEX
  8
T35SSILL
 62
8
 10
2583.498
 20
-5391.730
 30
1735.296
 70
    32
  0
VERTEX
  8
T35SSILL
 62
8
 10
2597.619
 20
-5403.741
 30
1735.338
 70
    32
  0
VERTEX
  8
T35SSILL
 62
8
 10
2617.136
 20
-5397.729
 30
1735.337
 70
    32
  0
VERTEX
  8
T35SSILL
 62
8
 10
2638.501
 20
-5429.140
 30
1735.435
 70
    32
  0
VERTEX
  8
T35SSILL
 62
8
 10
2638.879
 20
-5433.979
 30
1735.448
 70
    32
  0
VERTEX
  8
T35SSILL
 62
8
 10
2641.812
 20
-5442.549
 30
1735.472
 70
    32
  0
VERTEX
  8
T35SSILL
 62
8
 10
2634.286
 20
-5452.422
 30
1735.492
 70
    32
  0
VERTEX
  8
T35SSILL
 62
8
 10
2625.070
 20
-5461.630
 30
1735.508
 70
    32
  0
VERTEX
  8
T35SSILL
 62
8
 10
2633.555
 20
-5473.861
 30
1735.543
 70
    32
  0
VERTEX
  8
T35SSILL
 62
8
 10
2640.073
 20
-5477.410
 30
1735.555
 70
    32
  0
VERTEX
  8
T35SSILL
 62
8
 10
2648.676
 20
-5475.886
 30
1735.561
 70
    32
  0
VERTEX
  8
T35SSILL
 62
8
 10
2648.012
 20
-5473.874
 30
1735.557
 70
    32
  0
VERTEX
  8
T35SSILL
 62
8
 10
2652.627
 20
-5463.893
 30
1735.535
 70
    32
  0
VERTEX
  8
T35SSILL
 62
8
 10
2658.283
 20
-5460.763
 30
1735.531
 70
    32
  0
VERTEX
  8
T35SSILL
 62
8
 10
2662.849
 20
-5467.532
 30
1735.552
 70
    32
  0
VERTEX
  8
T35SSILL
 62
8
 10
2664.894
 20
-5468.277
 30
1735.556
 70
    32
  0
VERTEX
  8
T35SSILL
 62
8
 10
2709.539
 20
-5534.375
 30
1735.723
 70
    32
  0
VERTEX
  8
T35SSILL
 62
8
 10
2702.299
 20
-5550.703
 30
1735.744
 70
    32
  0
VERTEX
  8
T35SSILL
 62
8
 10
2704.126
 20
-5557.196
 30
1735.757
 70
    32
  0
VERTEX
  8
T35SSILL
 62
8
 10
2702.216
 20
-5558.653
 30
1735.758
 70
    32
  0
VERTEX
  8
T35SSILL
 62
8
 10
2700.089
 20
-5558.348
 30
1735.755
 70
    32
  0
VERTEX
  8
T35SSILL
 62
8
 10
2700.161
 20
-5565.324
 30
1735.767
 70
    32
  0
VERTEX
  8
T35SSILL
 62
8
 10
2701.625
 20
-5567.586
 30
1735.773
 70
    32
  0
VERTEX
  8
T35SSILL
 62
8
 10
2710.408
 20
-5565.442
 30
1735.778
 70
    32
  0
VERTEX
  8
T35SSILL
 62
8
 10
2717.294
 20
-5561.487
 30
1735.778
 70
    32
  0
VERTEX
  8
T35SSILL
 62
8
 10
2723.400
 20
-5554.896
 30
1735.772
 70
    32
  0
VERTEX
  8
T35SSILL
 62
8
 10
2761.605
 20
-5611.461
 30
1735.908
 70
    32
  0
VERTEX
  8
T35SSILL
 62
8
 10
2725.566
 20
-5637.900
 30
1735.887
 70
    32
  0
VERTEX
  8
T35SSILL
 62
8
 10
2722.370
 20
-5632.819
 30
1735.880
 70
    32
  0
VERTEX
  8
T35SSILL
 62
8
 10
2715.500
 20
-5637.480
 30
1735.872
 70
    32
  0
VERTEX
  8
T35SSILL
 62
8
 10
2719.149
 20
-5642.607
 30
1735.881
 70
    32
  0
VERTEX
  8
T35SSILL
 62
8
 10
2685.075
 20
-5667.604
 30
1735.846
 70
    32
  0
VERTEX
  8
T35SSILL
 62
8
 10
2681.011
 20
-5666.353
 30
1735.839
 70
    32
  0
VERTEX
  8
T35SSILL
 62
8
 10
2674.366
 20
-5661.560
 30
1735.827
 70
    32
  0
VERTEX
  8
T35SSILL
 62
8
 10
2669.211
 20
-5652.404
 30
1735.815
 70
    32
  0
VERTEX
  8
T35SSILL
 62
8
 10
2670.351
 20
-5644.342
 30
1735.812
 70
    32
  0
VERTEX
  8
T35SSILL
 62
8
 10
2659.816
 20
-5627.802
 30
1735.787
 70
    32
  0
VERTEX
  8
T35SSILL
 62
8
 10
2649.525
 20
-5625.742
 30
1735.772
 70
    32
  0
VERTEX
  8
T35SSILL
 62
8
 10
2645.646
 20
-5622.209
 30
1735.764
 70
    32
  0
VERTEX
  8
T35SSILL
 62
8
 10
2642.099
 20
-5621.584
 30
1735.759
 70
    32
  0
VERTEX
  8
T35SSILL
 62
8
 10
2639.224
 20
-5619.442
 30
1735.753
 70
    32
  0
VERTEX
  8
T35SSILL
 62
8
 10
2611.750
 20
-5588.188
 30
1735.697
 70
    32
  0
VERTEX
  8
T35SSILL
 62
8
 10
2597.903
 20
-5569.694
 30
1735.666
 70
    32
  0
VERTEX
  8
T35SSILL
 62
8
 10
2593.285
 20
-5560.880
 30
1735.654
 70
    32
  0
VERTEX
  8
T35SSILL
 62
8
 10
2602.600
 20
-5562.698
 30
1735.666
 70
    32
  0
VERTEX
  8
T35SSILL
 62
8
 10
2609.255
 20
-5556.363
 30
1735.662
 70
    32
  0
VERTEX
  8
T35SSILL
 62
8
 10
2608.083
 20
-5551.445
 30
1735.652
 70
    32
  0
VERTEX
  8
T35SSILL
 62
8
 10
2601.925
 20
-5540.899
 30
1735.627
 70
    32
  0
VERTEX
  8
T35SSILL
 62
8
 10
2600.576
 20
-5535.984
 30
1735.618
 70
    32
  0
VERTEX
  8
T35SSILL
 62
8
 10
2588.996
 20
-5536.611
 30
1735.607
 70
    32
  0
VERTEX
  8
T35SSILL
 62
8
 10
2606.917
 20
-5507.013
 30
1735.574
 70
    32
  0
VERTEX
  8
T35SSILL
 62
8
 10
2591.538
 20
-5486.482
 30
1735.523
 70
    32
  0
VERTEX
  8
T35SSILL
 62
8
 10
2581.304
 20
-5467.328
 30
1735.479
 70
    32
  0
VERTEX
  8
T35SSILL
 62
8
 10
2576.521
 20
-5455.099
 30
1735.453
 70
    32
  0
VERTEX
  8
T35SSILL
 62
8
 10
2558.359
 20
-5451.206
 30
1735.429
 70
    32
  0
VERTEX
  8
T35SSILL
 62
8
 10
2544.285
 20
-5429.938
 30
1735.365
 70
    32
  0
VERTEX
  8
T35SSILL
 62
8
 10
2531.943
 20
-5414.889
 30
1735.317
 70
    32
  0
VERTEX
  8
T35SSILL
 62
8
 10
2525.816
 20
-5409.215
 30
1735.297
 70
    32
  0
VERTEX
  8
T35SSILL
 62
8
 10
2492.667
 20
-5363.977
 30
1735.155
 70
    32
  0
VERTEX
  8
T35SSILL
 62
8
 10
2500.174
 20
-5360.803
 30
1735.153
 70
    32
  0
VERTEX
  8
T35SSILL
 62
8
 10
2509.068
 20
-5360.419
 30
1735.159
 70
    32
  0
VERTEX
  8
T35SSILL
 62
8
 10
2513.092
 20
-5359.090
 30
1735.158
 70
    32
  0
VERTEX
  8
T35SSILL
 62
8
 10
2521.004
 20
-5354.409
 30
1735.152
 70
    32
  0
VERTEX
  8
T35SSILL
 62
8
 10
2519.221
 20
-5349.778
 30
1735.139
 70
    32
  0
VERTEX
  8
T35SSILL
 62
8
 10
2513.893
 20
-5348.140
 30
1735.131
 70
    32
  0
VERTEX
  8
T35SSILL
 62
8
 10
2509.391
 20
-5344.103
 30
1735.117
 70
    32
  0
VERTEX
  8
T35SSILL
 62
8
 10
2507.590
 20
-5334.977
 30
1735.092
 70
    32
  0
VERTEX
  8
T35SSILL
 62
8
 10
2548.168
 20
-5306.081
 30
1735.048
 70
    32
  0
VERTEX
  8
T35SSILL
 62
8
 10
2547.735
 20
-5325.221
 30
1735.097
 70
    32
  0
VERTEX
  8
T35SSILL
 62
8
 10
2529.763
 20
-5340.716
 30
1735.124
 70
    32
  0
VERTEX
  8
T35SSILL
 62
8
 10
2535.811
 20
-5361.819
 30
1735.183
 70
    32
  0
VERTEX
  8
T35SSILL
 62
8
 10
2559.572
 20
-5367.609
 30
1735.216
 70
    32
  0
SEQEND
  8
T35SSILL
  0
POLYLINE
  8
T35SSILL
 62
8
 66
     1
 70
     9
  0
VERTEX
  8
T35SSILL
 62
8
 10
2174.438
 20
-4602.839
 30
1732.850
 70
    32
  0
VERTEX
  8
T35SSILL
 62
8
 10
2168.928
 20
-4606.508
 30
1732.827
 70
    32
  0
VERTEX
  8
T35SSILL
 62
8
 10
2125.071
 20
-4606.527
 30
1732.906
 70
    32
  0
VERTEX
  8
T35SSILL
 62
8
 10
2124.801
 20
-4563.994
 30
1733.078
 70
    32
  0
VERTEX
  8
T35SSILL
 62
8
 10
2184.685
 20
-4563.895
 30
1732.880
 70
    32
  0
VERTEX
  8
T35SSILL
 62
8
 10
2175.653
 20
-4601.153
 30
1732.855
 70
    32
  0
SEQEND
  8
T35SSILL
  0
POLYLINE
  8
T35SSILL
 62
8
 66
     1
 70
     9
  0
VERTEX
  8
T35SSILL
 62
8
 10
2298.235
 20
-4943.407
 30
1734.219
 70
    32
  0
VERTEX
  8
T35SSILL
 62
8
 10
2309.279
 20
-4955.660
 30
1734.263
 70
    32
  0
VERTEX
  8
T35SSILL
 62
8
 10
2329.933
 20
-4984.244
 30
1734.333
 70
    32
  0
VERTEX
  8
T35SSILL
 62
8
 10
2382.835
 20
-4946.267
 30
1733.860
 70
    32
  0
VERTEX
  8
T35SSILL
 62
8
 10
2386.130
 20
-4942.863
 30
1733.824
 70
    32
  0
VERTEX
  8
T35SSILL
 62
8
 10
2390.535
 20
-4931.771
 30
1733.735
 70
    32
  0
VERTEX
  8
T35SSILL
 62
8
 10
2391.080
 20
-4921.887
 30
1733.672
 70
    32
  0
VERTEX
  8
T35SSILL
 62
8
 10
2389.321
 20
-4916.714
 30
1733.650
 70
    32
  0
VERTEX
  8
T35SSILL
 62
8
 10
2345.122
 20
-4855.272
 30
1733.450
 70
    32
  0
VERTEX
  8
T35SSILL
 62
8
 10
2342.013
 20
-4864.757
 30
1733.526
 70
    32
  0
VERTEX
  8
T35SSILL
 62
8
 10
2335.353
 20
-4872.712
 30
1733.607
 70
    32
  0
VERTEX
  8
T35SSILL
 62
8
 10
2274.434
 20
-4916.461
 30
1734.119
 70
    32
  0
VERTEX
  8
T35SSILL
 62
8
 10
2293.143
 20
-4939.258
 30
1734.208
 70
    32
  0
SEQEND
  8
T35SSILL
  0
POLYLINE
  8
T35SSILL
 62
8
 66
     1
 70
     9
  0
VERTEX
  8
T35SSILL
 62
8
 10
2285.304
 20
-5037.604
 30
1734.311
 70
    32
  0
VERTEX
  8
T35SSILL
 62
8
 10
2288.127
 20
-5043.113
 30
1734.313
 70
    32
  0
VERTEX
  8
T35SSILL
 62
8
 10
2292.240
 20
-5046.661
 30
1734.316
 70
    32
  0
VERTEX
  8
T35SSILL
 62
8
 10
2308.718
 20
-5035.196
 30
1734.325
 70
    32
  0
VERTEX
  8
T35SSILL
 62
8
 10
2311.008
 20
-5035.071
 30
1734.327
 70
    32
  0
VERTEX
  8
T35SSILL
 62
8
 10
2327.435
 20
-5042.211
 30
1734.338
 70
    32
  0
VERTEX
  8
T35SSILL
 62
8
 10
2347.578
 20
-5066.483
 30
1734.353
 70
    32
  0
VERTEX
  8
T35SSILL
 62
8
 10
2351.884
 20
-5085.846
 30
1734.357
 70
    32
  0
VERTEX
  8
T35SSILL
 62
8
 10
2375.021
 20
-5069.016
 30
1734.370
 70
    32
  0
VERTEX
  8
T35SSILL
 62
8
 10
2344.145
 20
-5017.870
 30
1734.345
 70
    32
  0
VERTEX
  8
T35SSILL
 62
8
 10
2327.467
 20
-4995.305
 30
1734.333
 70
    32
  0
VERTEX
  8
T35SSILL
 62
8
 10
2286.166
 20
-5025.511
 30
1734.310
 70
    32
  0
VERTEX
  8
T35SSILL
 62
8
 10
2285.156
 20
-5033.903
 30
1734.311
 70
    32
  0
SEQEND
  8
T35SSILL
  0
POLYLINE
  8
T35SSILL
 62
8
 66
     1
 70
     9
  0
VERTEX
  8
T35SSILL
 62
8
 10
2334.281
 20
-4991.403
 30
1734.336
 70
    32
  0
VERTEX
  8
T35SSILL
 62
8
 10
2388.634
 20
-4950.493
 30
1733.858
 70
    32
  0
VERTEX
  8
T35SSILL
 62
8
 10
2396.490
 20
-4940.138
 30
1733.757
 70
    32
  0
VERTEX
  8
T35SSILL
 62
8
 10
2399.049
 20
-4929.428
 30
1733.696
 70
    32
  0
VERTEX
  8
T35SSILL
 62
8
 10
2443.975
 20
-4992.180
 30
1733.989
 70
    32
  0
VERTEX
  8
T35SSILL
 62
8
 10
2447.160
 20
-5003.767
 30
1734.040
 70
    32
  0
VERTEX
  8
T35SSILL
 62
8
 10
2446.395
 20
-5010.921
 30
1734.069
 70
    32
  0
VERTEX
  8
T35SSILL
 62
8
 10
2441.860
 20
-5019.458
 30
1734.102
 70
    32
  0
VERTEX
  8
T35SSILL
 62
8
 10
2438.830
 20
-5022.858
 30
1734.114
 70
    32
  0
VERTEX
  8
T35SSILL
 62
8
 10
2399.529
 20
-5050.983
 30
1734.383
 70
    32
  0
VERTEX
  8
T35SSILL
 62
8
 10
2396.338
 20
-5046.806
 30
1734.381
 70
    32
  0
VERTEX
  8
T35SSILL
 62
8
 10
2386.144
 20
-5053.230
 30
1734.375
 70
    32
  0
VERTEX
  8
T35SSILL
 62
8
 10
2389.782
 20
-5057.991
 30
1734.378
 70
    32
  0
VERTEX
  8
T35SSILL
 62
8
 10
2381.308
 20
-5064.084
 30
1734.373
 70
    32
  0
SEQEND
  8
T35SSILL
  0
POLYLINE
  8
T35SSILL
 62
8
 66
     1
 70
     9
  0
VERTEX
  8
T35SSILL
 62
8
 10
2254.707
 20
-4896.150
 30
1734.072
 70
    32
  0
VERTEX
  8
T35SSILL
 62
8
 10
2198.511
 20
-4817.975
 30
1733.717
 70
    32
  0
VERTEX
  8
T35SSILL
 62
8
 10
2185.863
 20
-4706.824
 30
1733.147
 70
    32
  0
VERTEX
  8
T35SSILL
 62
8
 10
2212.762
 20
-4745.358
 30
1733.331
 70
    32
  0
VERTEX
  8
T35SSILL
 62
8
 10
2308.396
 20
-4803.408
 30
1733.350
 70
    32
  0
VERTEX
  8
T35SSILL
 62
8
 10
2336.553
 20
-4843.420
 30
1733.410
 70
    32
  0
VERTEX
  8
T35SSILL
 62
8
 10
2337.953
 20
-4848.159
 30
1733.435
 70
    32
  0
VERTEX
  8
T35SSILL
 62
8
 10
2336.541
 20
-4858.938
 30
1733.512
 70
    32
  0
VERTEX
  8
T35SSILL
 62
8
 10
2330.593
 20
-4867.322
 30
1733.593
 70
    32
  0
VERTEX
  8
T35SSILL
 62
8
 10
2269.158
 20
-4911.874
 30
1734.115
 70
    32
  0
VERTEX
  8
T35SSILL
 62
8
 10
2264.108
 20
-4904.991
 30
1734.085
 70
    32
  0
SEQEND
  8
T35SSILL
  0
POLYLINE
  8
T35SSILL
 62
8
 66
     1
 70
     9
  0
VERTEX
  8
T35SSILL
 62
8
 10
2262.883
 20
-4916.384
 30
1734.211
 70
    32
  0
VERTEX
  8
T35SSILL
 62
8
 10
2245.121
 20
-4897.628
 30
1734.169
 70
    32
  0
VERTEX
  8
T35SSILL
 62
8
 10
2239.681
 20
-4888.371
 30
1734.122
 70
    32
  0
VERTEX
  8
T35SSILL
 62
8
 10
2213.020
 20
-4851.713
 30
1733.958
 70
    32
  0
VERTEX
  8
T35SSILL
 62
8
 10
2208.425
 20
-4854.729
 30
1734.033
 70
    32
  0
VERTEX
  8
T35SSILL
 62
8
 10
2204.457
 20
-4849.156
 30
1734.007
 70
    32
  0
VERTEX
  8
T35SSILL
 62
8
 10
2208.972
 20
-4846.147
 30
1733.933
 70
    32
  0
VERTEX
  8
T35SSILL
 62
8
 10
2194.050
 20
-4825.630
 30
1733.842
 70
    32
  0
VERTEX
  8
T35SSILL
 62
8
 10
2143.881
 20
-4862.105
 30
1734.139
 70
    32
  0
VERTEX
  8
T35SSILL
 62
8
 10
2147.807
 20
-4867.474
 30
1734.152
 70
    32
  0
VERTEX
  8
T35SSILL
 62
8
 10
2141.773
 20
-4871.684
 30
1734.169
 70
    32
  0
VERTEX
  8
T35SSILL
 62
8
 10
2138.087
 20
-4866.318
 30
1734.156
 70
    32
  0
VERTEX
  8
T35SSILL
 62
8
 10
2080.681
 20
-4908.055
 30
1734.323
 70
    32
  0
VERTEX
  8
T35SSILL
 62
8
 10
2087.595
 20
-4915.789
 30
1734.341
 70
    32
  0
VERTEX
  8
T35SSILL
 62
8
 10
2106.642
 20
-4899.610
 30
1734.278
 70
    32
  0
VERTEX
  8
T35SSILL
 62
8
 10
2113.391
 20
-4897.208
 30
1734.266
 70
    32
  0
VERTEX
  8
T35SSILL
 62
8
 10
2123.335
 20
-4901.455
 30
1734.271
 70
    32
  0
VERTEX
  8
T35SSILL
 62
8
 10
2134.161
 20
-4900.310
 30
1734.260
 70
    32
  0
VERTEX
  8
T35SSILL
 62
8
 10
2139.186
 20
-4905.695
 30
1734.272
 70
    32
  0
VERTEX
  8
T35SSILL
 62
8
 10
2147.777
 20
-4918.957
 30
1734.305
 70
    32
  0
VERTEX
  8
T35SSILL
 62
8
 10
2146.738
 20
-4920.120
 30
1734.309
 70
    32
  0
VERTEX
  8
T35SSILL
 62
8
 10
2155.969
 20
-4934.782
 30
1734.346
 70
    32
  0
VERTEX
  8
T35SSILL
 62
8
 10
2172.061
 20
-4953.918
 30
1734.313
 70
    32
  0
VERTEX
  8
T35SSILL
 62
8
 10
2182.963
 20
-4951.978
 30
1734.321
 70
    32
  0
VERTEX
  8
T35SSILL
 62
8
 10
2191.023
 20
-4959.694
 30
1734.304
 70
    32
  0
VERTEX
  8
T35SSILL
 62
8
 10
2195.294
 20
-4962.094
 30
1734.299
 70
    32
  0
VERTEX
  8
T35SSILL
 62
8
 10
2198.204
 20
-4962.135
 30
1734.300
 70
    32
  0
VERTEX
  8
T35SSILL
 62
8
 10
2211.059
 20
-4953.042
 30
1734.325
 70
    32
  0
VERTEX
  8
T35SSILL
 62
8
 10
2206.023
 20
-4941.595
 30
1734.328
 70
    32
  0
VERTEX
  8
T35SSILL
 62
8
 10
2195.790
 20
-4934.758
 30
1734.316
 70
    32
  0
VERTEX
  8
T35SSILL
 62
8
 10
2190.951
 20
-4928.910
 30
1734.302
 70
    32
  0
VERTEX
  8
T35SSILL
 62
8
 10
2191.220
 20
-4922.378
 30
1734.283
 70
    32
  0
VERTEX
  8
T35SSILL
 62
8
 10
2193.725
 20
-4918.288
 30
1734.269
 70
    32
  0
VERTEX
  8
T35SSILL
 62
8
 10
2197.487
 20
-4915.858
 30
1734.258
 70
    32
  0
VERTEX
  8
T35SSILL
 62
8
 10
2199.001
 20
-4910.105
 30
1734.240
 70
    32
  0
VERTEX
  8
T35SSILL
 62
8
 10
2200.502
 20
-4910.173
 30
1734.239
 70
    32
  0
VERTEX
  8
T35SSILL
 62
8
 10
2206.557
 20
-4921.475
 30
1734.268
 70
    32
  0
VERTEX
  8
T35SSILL
 62
8
 10
2213.816
 20
-4930.291
 30
1734.289
 70
    32
  0
VERTEX
  8
T35SSILL
 62
8
 10
2217.782
 20
-4929.976
 30
1734.285
 70
    32
  0
VERTEX
  8
T35SSILL
 62
8
 10
2219.243
 20
-4926.958
 30
1734.275
 70
    32
  0
VERTEX
  8
T35SSILL
 62
8
 10
2221.802
 20
-4927.013
 30
1734.273
 70
    32
  0
VERTEX
  8
T35SSILL
 62
8
 10
2225.098
 20
-4922.648
 30
1734.258
 70
    32
  0
VERTEX
  8
T35SSILL
 62
8
 10
2233.589
 20
-4924.391
 30
1734.257
 70
    32
  0
VERTEX
  8
T35SSILL
 62
8
 10
2244.140
 20
-4928.578
 30
1734.261
 70
    32
  0
SEQEND
  8
T35SSILL
  0
POLYLINE
  8
T35SSILL
 62
8
 66
     1
 70
     9
  0
VERTEX
  8
T35SSILL
 62
8
 10
2110.057
 20
-4821.452
 30
1734.044
 70
    32
  0
VERTEX
  8
T35SSILL
 62
8
 10
2114.654
 20
-4818.775
 30
1734.032
 70
    32
  0
VERTEX
  8
T35SSILL
 62
8
 10
2119.744
 20
-4817.567
 30
1734.025
 70
    32
  0
VERTEX
  8
T35SSILL
 62
8
 10
2122.912
 20
-4810.485
 30
1734.002
 70
    32
  0
VERTEX
  8
T35SSILL
 62
8
 10
2120.593
 20
-4794.143
 30
1733.996
 70
    32
  0
VERTEX
  8
T35SSILL
 62
8
 10
2123.575
 20
-4793.225
 30
1733.991
 70
    32
  0
VERTEX
  8
T35SSILL
 62
8
 10
2178.724
 20
-4818.057
 30
1733.896
 70
    32
  0
VERTEX
  8
T35SSILL
 62
8
 10
2177.380
 20
-4830.132
 30
1734.019
 70
    32
  0
VERTEX
  8
T35SSILL
 62
8
 10
2149.471
 20
-4850.640
 30
1734.101
 70
    32
  0
VERTEX
  8
T35SSILL
 62
8
 10
2135.123
 20
-4850.557
 30
1734.111
 70
    32
  0
VERTEX
  8
T35SSILL
 62
8
 10
2113.716
 20
-4828.570
 30
1734.062
 70
    32
  0
SEQEND
  8
T35SSILL
  0
POLYLINE
  8
T35SSILL
 62
8
 66
     1
 70
     9
  0
VERTEX
  8
T35SSILL
 62
8
 10
2279.234
 20
-5011.252
 30
1734.304
 70
    32
  0
VERTEX
  8
T35SSILL
 62
8
 10
2269.062
 20
-4998.368
 30
1734.297
 70
    32
  0
VERTEX
  8
T35SSILL
 62
8
 10
2267.488
 20
-4982.876
 30
1734.294
 70
    32
  0
VERTEX
  8
T35SSILL
 62
8
 10
2259.204
 20
-4972.254
 30
1734.291
 70
    32
  0
VERTEX
  8
T35SSILL
 62
8
 10
2253.210
 20
-4966.885
 30
1734.302
 70
    32
  0
VERTEX
  8
T35SSILL
 62
8
 10
2249.558
 20
-4953.719
 30
1734.332
 70
    32
  0
VERTEX
  8
T35SSILL
 62
8
 10
2241.309
 20
-4939.834
 30
1734.297
 70
    32
  0
VERTEX
  8
T35SSILL
 62
8
 10
2266.938
 20
-4921.785
 30
1734.224
 70
    32
  0
VERTEX
  8
T35SSILL
 62
8
 10
2298.080
 20
-4955.577
 30
1734.301
 70
    32
  0
VERTEX
  8
T35SSILL
 62
8
 10
2323.321
 20
-4989.729
 30
1734.330
 70
    32
  0
VERTEX
  8
T35SSILL
 62
8
 10
2286.971
 20
-5015.359
 30
1734.310
 70
    32
  0
VERTEX
  8
T35SSILL
 62
8
 10
2281.894
 20
-5012.179
 30
1734.306
 70
    32
  0
SEQEND
  8
T35SSILL
  0
POLYLINE
  8
T35SSILL
 62
8
 66
     1
 70
     9
  0
VERTEX
  8
T35SSILL
 62
8
 10
2224.858
 20
-4963.818
 30
1734.303
 70
    32
  0
VERTEX
  8
T35SSILL
 62
8
 10
2210.165
 20
-4965.732
 30
1734.294
 70
    32
  0
VERTEX
  8
T35SSILL
 62
8
 10
2201.061
 20
-4969.759
 30
1734.282
 70
    32
  0
VERTEX
  8
T35SSILL
 62
8
 10
2205.044
 20
-4976.130
 30
1734.268
 70
    32
  0
VERTEX
  8
T35SSILL
 62
8
 10
2206.449
 20
-4992.066
 30
1734.257
 70
    32
  0
VERTEX
  8
T35SSILL
 62
8
 10
2199.965
 20
-5000.018
 30
1734.254
 70
    32
  0
VERTEX
  8
T35SSILL
 62
8
 10
2214.150
 20
-5021.125
 30
1734.265
 70
    32
  0
VERTEX
  8
T35SSILL
 62
8
 10
2226.811
 20
-5029.824
 30
1734.274
 70
    32
  0
VERTEX
  8
T35SSILL
 62
8
 10
2231.519
 20
-5026.574
 30
1734.277
 70
    32
  0
VERTEX
  8
T35SSILL
 62
8
 10
2237.695
 20
-5026.826
 30
1734.280
 70
    32
  0
VERTEX
  8
T35SSILL
 62
8
 10
2252.985
 20
-5039.980
 30
1734.291
 70
    32
  0
VERTEX
  8
T35SSILL
 62
8
 10
2261.436
 20
-5033.759
 30
1734.296
 70
    32
  0
VERTEX
  8
T35SSILL
 62
8
 10
2260.935
 20
-5024.598
 30
1734.295
 70
    32
  0
VERTEX
  8
T35SSILL
 62
8
 10
2264.586
 20
-5021.365
 30
1734.296
 70
    32
  0
VERTEX
  8
T35SSILL
 62
8
 10
2260.953
 20
-5014.811
 30
1734.294
 70
    32
  0
VERTEX
  8
T35SSILL
 62
8
 10
2263.345
 20
-5010.099
 30
1734.295
 70
    32
  0
VERTEX
  8
T35SSILL
 62
8
 10
2262.942
 20
-5007.020
 30
1734.294
 70
    32
  0
VERTEX
  8
T35SSILL
 62
8
 10
2258.937
 20
-4999.238
 30
1734.291
 70
    32
  0
VERTEX
  8
T35SSILL
 62
8
 10
2241.355
 20
-4975.277
 30
1734.279
 70
    32
  0
VERTEX
  8
T35SSILL
 62
8
 10
2241.864
 20
-4974.034
 30
1734.282
 70
    32
  0
VERTEX
  8
T35SSILL
 62
8
 10
2233.790
 20
-4970.903
 30
1734.288
 70
    32
  0
SEQEND
  8
T35SSILL
  0
POLYLINE
  8
T35SSILL
 62
8
 66
     1
 70
     9
  0
VERTEX
  8
T35SSILL
 62
8
 10
2509.348
 20
-5082.007
 30
1734.379
 70
    32
  0
VERTEX
  8
T35SSILL
 62
8
 10
2508.625
 20
-5087.486
 30
1734.396
 70
    32
  0
VERTEX
  8
T35SSILL
 62
8
 10
2504.187
 20
-5099.099
 30
1734.432
 70
    32
  0
VERTEX
  8
T35SSILL
 62
8
 10
2495.128
 20
-5108.037
 30
1734.460
 70
    32
  0
VERTEX
  8
T35SSILL
 62
8
 10
2482.443
 20
-5116.228
 30
1734.487
 70
    32
  0
VERTEX
  8
T35SSILL
 62
8
 10
2496.658
 20
-5137.746
 30
1734.553
 70
    32
  0
VERTEX
  8
T35SSILL
 62
8
 10
2503.347
 20
-5157.155
 30
1734.613
 70
    32
  0
VERTEX
  8
T35SSILL
 62
8
 10
2505.754
 20
-5179.619
 30
1734.683
 70
    32
  0
VERTEX
  8
T35SSILL
 62
8
 10
2504.797
 20
-5204.577
 30
1734.756
 70
    32
  0
VERTEX
  8
T35SSILL
 62
8
 10
2507.937
 20
-5209.023
 30
1734.767
 70
    32
  0
VERTEX
  8
T35SSILL
 62
8
 10
2548.525
 20
-5178.627
 30
1734.684
 70
    32
  0
VERTEX
  8
T35SSILL
 62
8
 10
2552.356
 20
-5174.696
 30
1734.672
 70
    32
  0
VERTEX
  8
T35SSILL
 62
8
 10
2555.469
 20
-5169.804
 30
1734.657
 70
    32
  0
VERTEX
  8
T35SSILL
 62
8
 10
2556.902
 20
-5164.669
 30
1734.641
 70
    32
  0
VERTEX
  8
T35SSILL
 62
8
 10
2556.168
 20
-5148.800
 30
1734.592
 70
    32
  0
SEQEND
  8
T35SSILL
  0
POLYLINE
  8
T35SSILL
 62
8
 66
     1
 70
     9
  0
VERTEX
  8
T35SSILL
 62
8
 10
2486.950
 20
-5232.704
 30
1734.812
 70
    32
  0
VERTEX
  8
T35SSILL
 62
8
 10
2492.274
 20
-5249.476
 30
1734.859
 70
    32
  0
VERTEX
  8
T35SSILL
 62
8
 10
2494.672
 20
-5250.213
 30
1734.863
 70
    32
  0
VERTEX
  8
T35SSILL
 62
8
 10
2494.383
 20
-5252.953
 30
1734.870
 70
    32
  0
VERTEX
  8
T35SSILL
 62
8
 10
2496.536
 20
-5258.279
 30
1734.885
 70
    32
  0
VERTEX
  8
T35SSILL
 62
8
 10
2497.385
 20
-5271.923
 30
1734.921
 70
    32
  0
VERTEX
  8
T35SSILL
 62
8
 10
2499.088
 20
-5276.908
 30
1734.935
 70
    32
  0
VERTEX
  8
T35SSILL
 62
8
 10
2507.855
 20
-5282.344
 30
1734.956
 70
    32
  0
VERTEX
  8
T35SSILL
 62
8
 10
2520.579
 20
-5294.916
 30
1734.998
 70
    32
  0
VERTEX
  8
T35SSILL
 62
8
 10
2528.955
 20
-5294.984
 30
1735.005
 70
    32
  0
VERTEX
  8
T35SSILL
 62
8
 10
2531.668
 20
-5297.918
 30
1735.015
 70
    32
  0
VERTEX
  8
T35SSILL
 62
8
 10
2540.532
 20
-5302.185
 30
1735.032
 70
    32
  0
VERTEX
  8
T35SSILL
 62
8
 10
2530.812
 20
-5309.109
 30
1735.043
 70
    32
  0
VERTEX
  8
T35SSILL
 62
8
 10
2526.961
 20
-5303.934
 30
1735.026
 70
    32
  0
VERTEX
  8
T35SSILL
 62
8
 10
2521.235
 20
-5307.859
 30
1735.032
 70
    32
  0
VERTEX
  8
T35SSILL
 62
8
 10
2524.812
 20
-5313.384
 30
1735.049
 70
    32
  0
VERTEX
  8
T35SSILL
 62
8
 10
2504.596
 20
-5327.786
 30
1735.071
 70
    32
  0
VERTEX
  8
T35SSILL
 62
8
 10
2495.270
 20
-5313.316
 30
1735.026
 70
    32
  0
VERTEX
  8
T35SSILL
 62
8
 10
2493.552
 20
-5307.715
 30
1735.011
 70
    32
  0
VERTEX
  8
T35SSILL
 62
8
 10
2462.033
 20
-5250.583
 30
1734.839
 70
    32
  0
SEQEND
  8
T35SSILL
  0
POLYLINE
  8
T35SSILL
 62
8
 66
     1
 70
     9
  0
VERTEX
  8
T35SSILL
 62
8
 10
2553.976
 20
-5283.114
 30
1734.993
 70
    32
  0
VERTEX
  8
T35SSILL
 62
8
 10
2548.239
 20
-5271.524
 30
1734.959
 70
    32
  0
VERTEX
  8
T35SSILL
 62
8
 10
2540.058
 20
-5260.961
 30
1734.926
 70
    32
  0
VERTEX
  8
T35SSILL
 62
8
 10
2538.961
 20
-5255.522
 30
1734.911
 70
    32
  0
VERTEX
  8
T35SSILL
 62
8
 10
2513.191
 20
-5224.215
 30
1734.810
 70
    32
  0
VERTEX
  8
T35SSILL
 62
8
 10
2512.634
 20
-5222.994
 30
1734.807
 70
    32
  0
VERTEX
  8
T35SSILL
 62
8
 10
2516.876
 20
-5219.721
 30
1734.801
 70
    32
  0
VERTEX
  8
T35SSILL
 62
8
 10
2513.419
 20
-5213.710
 30
1734.783
 70
    32
  0
VERTEX
  8
T35SSILL
 62
8
 10
2556.805
 20
-5181.937
 30
1734.695
 70
    32
  0
VERTEX
  8
T35SSILL
 62
8
 10
2563.532
 20
-5171.818
 30
1734.664
 70
    32
  0
VERTEX
  8
T35SSILL
 62
8
 10
2565.898
 20
-5159.950
 30
1734.628
 70
    32
  0
VERTEX
  8
T35SSILL
 62
8
 10
2611.917
 20
-5224.015
 30
1734.832
 70
    32
  0
VERTEX
  8
T35SSILL
 62
8
 10
2613.135
 20
-5227.072
 30
1734.842
 70
    32
  0
VERTEX
  8
T35SSILL
 62
8
 10
2614.746
 20
-5239.376
 30
1734.879
 70
    32
  0
VERTEX
  8
T35SSILL
 62
8
 10
2611.686
 20
-5247.998
 30
1734.903
 70
    32
  0
VERTEX
  8
T35SSILL
 62
8
 10
2606.651
 20
-5255.080
 30
1734.923
 70
    32
  0
VERTEX
  8
T35SSILL
 62
8
 10
2555.580
 20
-5291.464
 30
1735.016
 70
    32
  0
SEQEND
  8
T35SSILL
  0
POLYLINE
  8
T35SSILL
 62
8
 66
     1
 70
     9
  0
VERTEX
  8
T35SSILL
 62
8
 10
2421.884
 20
-5078.635
 30
1734.400
 70
    32
  0
VERTEX
  8
T35SSILL
 62
8
 10
2430.210
 20
-5074.382
 30
1734.404
 70
    32
  0
VERTEX
  8
T35SSILL
 62
8
 10
2435.865
 20
-5085.101
 30
1734.409
 70
    32
  0
VERTEX
  8
T35SSILL
 62
8
 10
2453.699
 20
-5089.958
 30
1734.405
 70
    32
  0
VERTEX
  8
T35SSILL
 62
8
 10
2476.907
 20
-5111.095
 30
1734.472
 70
    32
  0
VERTEX
  8
T35SSILL
 62
8
 10
2493.954
 20
-5099.055
 30
1734.432
 70
    32
  0
VERTEX
  8
T35SSILL
 62
8
 10
2498.221
 20
-5094.765
 30
1734.419
 70
    32
  0
VERTEX
  8
T35SSILL
 62
8
 10
2500.804
 20
-5089.792
 30
1734.403
 70
    32
  0
VERTEX
  8
T35SSILL
 62
8
 10
2502.424
 20
-5078.656
 30
1734.368
 70
    32
  0
VERTEX
  8
T35SSILL
 62
8
 10
2500.822
 20
-5070.649
 30
1734.343
 70
    32
  0
VERTEX
  8
T35SSILL
 62
8
 10
2454.468
 20
-5005.791
 30
1734.053
 70
    32
  0
VERTEX
  8
T35SSILL
 62
8
 10
2449.723
 20
-5020.937
 30
1734.113
 70
    32
  0
VERTEX
  8
T35SSILL
 62
8
 10
2444.346
 20
-5028.152
 30
1734.140
 70
    32
  0
VERTEX
  8
T35SSILL
 62
8
 10
2385.950
 20
-5069.394
 30
1734.377
 70
    32
  0
VERTEX
  8
T35SSILL
 62
8
 10
2391.910
 20
-5073.199
 30
1734.381
 70
    32
  0
VERTEX
  8
T35SSILL
 62
8
 10
2416.197
 20
-5080.164
 30
1734.396
 70
    32
  0
VERTEX
  8
T35SSILL
 62
8
 10
2419.049
 20
-5077.701
 30
1734.398
 70
    32
  0
SEQEND
  8
T35SSILL
  0
POLYLINE
  8
T35SSILL
 62
8
 66
     1
 70
     9
  0
VERTEX
  8
T35SSILL
 62
8
 10
2469.817
 20
-5116.571
 30
1734.489
 70
    32
  0
VERTEX
  8
T35SSILL
 62
8
 10
2461.041
 20
-5105.212
 30
1734.455
 70
    32
  0
VERTEX
  8
T35SSILL
 62
8
 10
2451.142
 20
-5096.871
 30
1734.428
 70
    32
  0
VERTEX
  8
T35SSILL
 62
8
 10
2442.045
 20
-5094.104
 30
1734.416
 70
    32
  0
VERTEX
  8
T35SSILL
 62
8
 10
2433.443
 20
-5099.393
 30
1734.427
 70
    32
  0
VERTEX
  8
T35SSILL
 62
8
 10
2438.168
 20
-5110.094
 30
1734.459
 70
    32
  0
VERTEX
  8
T35SSILL
 62
8
 10
2442.505
 20
-5111.185
 30
1734.464
 70
    32
  0
VERTEX
  8
T35SSILL
 62
8
 10
2451.372
 20
-5107.895
 30
1734.459
 70
    32
  0
VERTEX
  8
T35SSILL
 62
8
 10
2462.662
 20
-5121.730
 30
1734.503
 70
    32
  0
VERTEX
  8
T35SSILL
 62
8
 10
2466.210
 20
-5119.172
 30
1734.498
 70
    32
  0
SEQEND
  8
T35SSILL
  0
POLYLINE
  8
T35SSILL
 62
8
 66
     1
 70
     9
  0
VERTEX
  8
T35SSILL
 62
8
 10
2888.645
 20
-5627.156
 30
1735.896
 70
    32
  0
VERTEX
  8
T35SSILL
 62
8
 10
2888.609
 20
-5616.147
 30
1735.850
 70
    32
  0
VERTEX
  8
T35SSILL
 62
8
 10
2884.591
 20
-5606.672
 30
1735.812
 70
    32
  0
VERTEX
  8
T35SSILL
 62
8
 10
2840.032
 20
-5544.369
 30
1735.604
 70
    32
  0
VERTEX
  8
T35SSILL
 62
8
 10
2837.211
 20
-5558.423
 30
1735.648
 70
    32
  0
VERTEX
  8
T35SSILL
 62
8
 10
2831.536
 20
-5568.302
 30
1735.686
 70
    32
  0
VERTEX
  8
T35SSILL
 62
8
 10
2798.101
 20
-5593.503
 30
1735.821
 70
    32
  0
VERTEX
  8
T35SSILL
 62
8
 10
2802.250
 20
-5599.632
 30
1735.829
 70
    32
  0
VERTEX
  8
T35SSILL
 62
8
 10
2793.909
 20
-5611.503
 30
1735.878
 70
    32
  0
VERTEX
  8
T35SSILL
 62
8
 10
2789.555
 20
-5614.530
 30
1735.895
 70
    32
  0
VERTEX
  8
T35SSILL
 62
8
 10
2780.290
 20
-5609.039
 30
1735.898
 70
    32
  0
VERTEX
  8
T35SSILL
 62
8
 10
2781.704
 20
-5622.444
 30
1735.932
 70
    32
  0
VERTEX
  8
T35SSILL
 62
8
 10
2780.723
 20
-5623.400
 30
1735.936
 70
    32
  0
VERTEX
  8
T35SSILL
 62
8
 10
2780.936
 20
-5627.366
 30
1735.947
 70
    32
  0
VERTEX
  8
T35SSILL
 62
8
 10
2825.695
 20
-5694.692
 30
1736.061
 70
    32
  0
VERTEX
  8
T35SSILL
 62
8
 10
2828.376
 20
-5684.775
 30
1736.057
 70
    32
  0
VERTEX
  8
T35SSILL
 62
8
 10
2833.944
 20
-5676.303
 30
1736.057
 70
    32
  0
VERTEX
  8
T35SSILL
 62
8
 10
2877.966
 20
-5642.695
 30
1735.966
 70
    32
  0
VERTEX
  8
T35SSILL
 62
8
 10
2886.186
 20
-5633.465
 30
1735.924
 70
    32
  0
SEQEND
  8
T35SSILL
  0
POLYLINE
  8
T35SSILL
 62
8
 66
     1
 70
     9
  0
VERTEX
  8
T35SSILL
 62
8
 10
2949.383
 20
-3953.164
 30
1731.133
 70
    32
  0
VERTEX
  8
T35SSILL
 62
8
 10
2884.398
 20
-3859.373
 30
1731.605
 70
    32
  0
VERTEX
  8
T35SSILL
 62
8
 10
2850.294
 20
-4023.489
 30
1731.465
 70
    32
  0
SEQEND
  8
T35SSILL
  0
POLYLINE
  8
T35SSILL
 62
8
 66
     1
 70
     9
  0
VERTEX
  8
T35SSILL
 62
8
 10
3195.950
 20
-4240.979
 30
1732.241
 70
    32
  0
VERTEX
  8
T35SSILL
 62
8
 10
3187.861
 20
-4241.573
 30
1732.219
 70
    32
  0
VERTEX
  8
T35SSILL
 62
8
 10
3172.277
 20
-4240.203
 30
1732.174
 70
    32
  0
VERTEX
  8
T35SSILL
 62
8
 10
3196.300
 20
-4273.354
 30
1732.280
 70
    32
  0
VERTEX
  8
T35SSILL
 62
8
 10
3215.589
 20
-4232.462
 30
1732.271
 70
    32
  0
VERTEX
  8
T35SSILL
 62
8
 10
3210.535
 20
-4234.654
 30
1732.270
 70
    32
  0
SEQEND
  8
T35SSILL
  0
POLYLINE
  8
T35SSILL
 62
8
 66
     1
 70
     9
  0
VERTEX
  8
T35SSILL
 62
8
 10
3378.531
 20
-6289.782
 30
1737.297
 70
    32
  0
VERTEX
  8
T35SSILL
 62
8
 10
3381.764
 20
-6320.415
 30
1737.261
 70
    32
  0
VERTEX
  8
T35SSILL
 62
8
 10
3386.267
 20
-6327.084
 30
1737.261
 70
    32
  0
VERTEX
  8
T35SSILL
 62
8
 10
3389.484
 20
-6329.971
 30
1737.264
 70
    32
  0
VERTEX
  8
T35SSILL
 62
8
 10
3394.745
 20
-6326.237
 30
1737.283
 70
    32
  0
VERTEX
  8
T35SSILL
 62
8
 10
3395.035
 20
-6313.409
 30
1737.307
 70
    32
  0
VERTEX
  8
T35SSILL
 62
8
 10
3390.014
 20
-6305.353
 30
1737.297
 70
    32
  0
SEQEND
  8
T35SSILL
  0
POLYLINE
  8
T35SSILL
 62
8
 66
     1
 70
     9
  0
VERTEX
  8
T35SSILL
 62
8
 10
3918.832
 20
-4733.702
 30
1732.758
 70
    32
  0
VERTEX
  8
T35SSILL
 62
8
 10
3344.392
 20
-4482.638
 30
1732.393
 70
    32
  0
VERTEX
  8
T35SSILL
 62
8
 10
3357.897
 20
-4501.219
 30
1732.391
 70
    32
  0
VERTEX
  8
T35SSILL
 62
8
 10
3352.109
 20
-4502.072
 30
1732.380
 70
    32
  0
VERTEX
  8
T35SSILL
 62
8
 10
3432.342
 20
-4613.319
 30
1732.359
 70
    32
  0
VERTEX
  8
T35SSILL
 62
8
 10
3447.019
 20
-4602.809
 30
1732.400
 70
    32
  0
VERTEX
  8
T35SSILL
 62
8
 10
3442.818
 20
-4595.873
 30
1732.403
 70
    32
  0
VERTEX
  8
T35SSILL
 62
8
 10
3448.639
 20
-4591.700
 30
1732.419
 70
    32
  0
VERTEX
  8
T35SSILL
 62
8
 10
3453.101
 20
-4598.454
 30
1732.417
 70
    32
  0
VERTEX
  8
T35SSILL
 62
8
 10
3477.988
 20
-4580.633
 30
1732.486
 70
    32
  0
VERTEX
  8
T35SSILL
 62
8
 10
3482.030
 20
-4587.220
 30
1732.483
 70
    32
  0
VERTEX
  8
T35SSILL
 62
8
 10
3436.186
 20
-4619.031
 30
1732.358
 70
    32
  0
VERTEX
  8
T35SSILL
 62
8
 10
3461.232
 20
-4655.100
 30
1732.349
 70
    32
  0
VERTEX
  8
T35SSILL
 62
8
 10
3518.392
 20
-4614.812
 30
1732.507
 70
    32
  0
VERTEX
  8
T35SSILL
 62
8
 10
3523.030
 20
-4620.591
 30
1732.506
 70
    32
  0
VERTEX
  8
T35SSILL
 62
8
 10
3509.457
 20
-4630.407
 30
1732.469
 70
    32
  0
VERTEX
  8
T35SSILL
 62
8
 10
3512.504
 20
-4633.946
 30
1732.469
 70
    32
  0
VERTEX
  8
T35SSILL
 62
8
 10
3505.555
 20
-4639.496
 30
1732.449
 70
    32
  0
VERTEX
  8
T35SSILL
 62
8
 10
3502.759
 20
-4635.252
 30
1732.450
 70
    32
  0
VERTEX
  8
T35SSILL
 62
8
 10
3476.393
 20
-4654.321
 30
1732.377
 70
    32
  0
VERTEX
  8
T35SSILL
 62
8
 10
3479.869
 20
-4658.701
 30
1732.376
 70
    32
  0
VERTEX
  8
T35SSILL
 62
8
 10
3474.151
 20
-4663.018
 30
1732.360
 70
    32
  0
VERTEX
  8
T35SSILL
 62
8
 10
3470.586
 20
-4658.521
 30
1732.361
 70
    32
  0
VERTEX
  8
T35SSILL
 62
8
 10
3466.242
 20
-4661.662
 30
1732.348
 70
    32
  0
VERTEX
  8
T35SSILL
 62
8
 10
3491.150
 20
-4696.583
 30
1732.341
 70
    32
  0
VERTEX
  8
T35SSILL
 62
8
 10
3500.994
 20
-4689.756
 30
1732.368
 70
    32
  0
VERTEX
  8
T35SSILL
 62
8
 10
3518.329
 20
-4714.243
 30
1732.363
 70
    32
  0
VERTEX
  8
T35SSILL
 62
8
 10
3512.816
 20
-4718.066
 30
1732.348
 70
    32
  0
VERTEX
  8
T35SSILL
 62
8
 10
3519.424
 20
-4720.239
 30
1732.356
 70
    32
  0
VERTEX
  8
T35SSILL
 62
8
 10
3530.186
 20
-4718.210
 30
1732.378
 70
    32
  0
VERTEX
  8
T35SSILL
 62
8
 10
3535.489
 20
-4715.868
 30
1732.391
 70
    32
  0
VERTEX
  8
T35SSILL
 62
8
 10
3538.787
 20
-4712.915
 30
1732.401
 70
    32
  0
VERTEX
  8
T35SSILL
 62
8
 10
3534.525
 20
-4700.649
 30
1732.411
 70
    32
  0
VERTEX
  8
T35SSILL
 62
8
 10
3543.416
 20
-4694.748
 30
1732.435
 70
    32
  0
VERTEX
  8
T35SSILL
 62
8
 10
3551.633
 20
-4703.116
 30
1732.437
 70
    32
  0
VERTEX
  8
T35SSILL
 62
8
 10
3557.075
 20
-4712.430
 30
1732.433
 70
    32
  0
VERTEX
  8
T35SSILL
 62
8
 10
3581.483
 20
-4694.015
 30
1732.502
 70
    32
  0
VERTEX
  8
T35SSILL
 62
8
 10
3584.758
 20
-4700.239
 30
1732.499
 70
    32
  0
VERTEX
  8
T35SSILL
 62
8
 10
3571.433
 20
-4709.819
 30
1732.462
 70
    32
  0
VERTEX
  8
T35SSILL
 62
8
 10
3575.130
 20
-4715.425
 30
1732.460
 70
    32
  0
VERTEX
  8
T35SSILL
 62
8
 10
3569.371
 20
-4719.146
 30
1732.445
 70
    32
  0
VERTEX
  8
T35SSILL
 62
8
 10
3565.613
 20
-4714.003
 30
1732.446
 70
    32
  0
VERTEX
  8
T35SSILL
 62
8
 10
3560.023
 20
-4718.022
 30
1732.430
 70
    32
  0
VERTEX
  8
T35SSILL
 62
8
 10
3564.043
 20
-4729.748
 30
1732.420
 70
    32
  0
VERTEX
  8
T35SSILL
 62
8
 10
3560.618
 20
-4742.228
 30
1732.396
 70
    32
  0
VERTEX
  8
T35SSILL
 62
8
 10
3560.928
 20
-4749.742
 30
1732.386
 70
    32
  0
VERTEX
  8
T35SSILL
 62
8
 10
3541.668
 20
-4763.676
 30
1732.333
 70
    32
  0
VERTEX
  8
T35SSILL
 62
8
 10
3544.951
 20
-4768.493
 30
1732.331
 70
    32
  0
VERTEX
  8
T35SSILL
 62
8
 10
3554.700
 20
-4761.628
 30
1732.358
 70
    32
  0
VERTEX
  8
T35SSILL
 62
8
 10
3558.079
 20
-4766.587
 30
1732.357
 70
    32
  0
VERTEX
  8
T35SSILL
 62
8
 10
3577.704
 20
-4752.767
 30
1732.411
 70
    32
  0
VERTEX
  8
T35SSILL
 62
8
 10
3581.097
 20
-4757.746
 30
1732.410
 70
    32
  0
VERTEX
  8
T35SSILL
 62
8
 10
3597.671
 20
-4746.108
 30
1732.455
 70
    32
  0
VERTEX
  8
T35SSILL
 62
8
 10
3601.844
 20
-4750.728
 30
1732.456
 70
    32
  0
VERTEX
  8
T35SSILL
 62
8
 10
3584.624
 20
-4762.921
 30
1732.408
 70
    32
  0
VERTEX
  8
T35SSILL
 62
8
 10
3587.842
 20
-4767.643
 30
1732.407
 70
    32
  0
VERTEX
  8
T35SSILL
 62
8
 10
3578.029
 20
-4774.553
 30
1732.380
 70
    32
  0
VERTEX
  8
T35SSILL
 62
8
 10
3574.829
 20
-4769.857
 30
1732.381
 70
    32
  0
VERTEX
  8
T35SSILL
 62
8
 10
3561.950
 20
-4778.976
 30
1732.346
 70
    32
  0
VERTEX
  8
T35SSILL
 62
8
 10
3566.109
 20
-4784.915
 30
1732.344
 70
    32
  0
VERTEX
  8
T35SSILL
 62
8
 10
3559.389
 20
-4789.606
 30
1732.326
 70
    32
  0
VERTEX
  8
T35SSILL
 62
8
 10
3565.337
 20
-4797.139
 30
1732.325
 70
    32
  0
VERTEX
  8
T35SSILL
 62
8
 10
3579.274
 20
-4788.709
 30
1732.362
 70
    32
  0
VERTEX
  8
T35SSILL
 62
8
 10
3587.050
 20
-4797.059
 30
1732.363
 70
    32
  0
VERTEX
  8
T35SSILL
 62
8
 10
3581.874
 20
-4802.760
 30
1732.346
 70
    32
  0
VERTEX
  8
T35SSILL
 62
8
 10
3586.904
 20
-4815.675
 30
1732.336
 70
    32
  0
VERTEX
  8
T35SSILL
 62
8
 10
3619.737
 20
-4791.958
 30
1732.428
 70
    32
  0
VERTEX
  8
T35SSILL
 62
8
 10
3618.733
 20
-4788.475
 30
1732.431
 70
    32
  0
VERTEX
  8
T35SSILL
 62
8
 10
3620.055
 20
-4784.205
 30
1732.439
 70
    32
  0
VERTEX
  8
T35SSILL
 62
8
 10
3621.741
 20
-4779.685
 30
1732.449
 70
    32
  0
VERTEX
  8
T35SSILL
 62
8
 10
3624.690
 20
-4776.629
 30
1732.458
 70
    32
  0
VERTEX
  8
T35SSILL
 62
8
 10
3630.248
 20
-4776.680
 30
1732.468
 70
    32
  0
VERTEX
  8
T35SSILL
 62
8
 10
3634.088
 20
-4782.045
 30
1732.467
 70
    32
  0
VERTEX
  8
T35SSILL
 62
8
 10
3747.047
 20
-4700.457
 30
1732.708
 70
    32
  0
VERTEX
  8
T35SSILL
 62
8
 10
3750.507
 20
-4707.170
 30
1732.713
 70
    32
  0
VERTEX
  8
T35SSILL
 62
8
 10
3708.940
 20
-4736.898
 30
1732.662
 70
    32
  0
VERTEX
  8
T35SSILL
 62
8
 10
3712.188
 20
-4740.364
 30
1732.663
 70
    32
  0
VERTEX
  8
T35SSILL
 62
8
 10
3705.548
 20
-4744.429
 30
1732.645
 70
    32
  0
VERTEX
  8
T35SSILL
 62
8
 10
3703.146
 20
-4741.042
 30
1732.646
 70
    32
  0
VERTEX
  8
T35SSILL
 62
8
 10
3656.805
 20
-4774.185
 30
1732.518
 70
    32
  0
VERTEX
  8
T35SSILL
 62
8
 10
3659.800
 20
-4778.253
 30
1732.517
 70
    32
  0
VERTEX
  8
T35SSILL
 62
8
 10
3653.948
 20
-4782.677
 30
1732.500
 70
    32
  0
VERTEX
  8
T35SSILL
 62
8
 10
3650.968
 20
-4778.359
 30
1732.501
 70
    32
  0
VERTEX
  8
T35SSILL
 62
8
 10
3636.865
 20
-4788.445
 30
1732.462
 70
    32
  0
VERTEX
  8
T35SSILL
 62
8
 10
3658.650
 20
-4819.732
 30
1732.455
 70
    32
  0
VERTEX
  8
T35SSILL
 62
8
 10
3672.937
 20
-4809.518
 30
1732.495
 70
    32
  0
VERTEX
  8
T35SSILL
 62
8
 10
3676.109
 20
-4814.026
 30
1732.494
 70
    32
  0
VERTEX
  8
T35SSILL
 62
8
 10
3718.000
 20
-4783.901
 30
1732.610
 70
    32
  0
VERTEX
  8
T35SSILL
 62
8
 10
3714.156
 20
-4778.800
 30
1732.611
 70
    32
  0
VERTEX
  8
T35SSILL
 62
8
 10
3725.943
 20
-4770.608
 30
1732.643
 70
    32
  0
VERTEX
  8
T35SSILL
 62
8
 10
3729.189
 20
-4775.853
 30
1732.641
 70
    32
  0
VERTEX
  8
T35SSILL
 62
8
 10
3756.824
 20
-4755.980
 30
1732.718
 70
    32
  0
VERTEX
  8
T35SSILL
 62
8
 10
3761.646
 20
-4761.895
 30
1732.718
 70
    32
  0
VERTEX
  8
T35SSILL
 62
8
 10
3680.534
 20
-4820.314
 30
1732.492
 70
    32
  0
VERTEX
  8
T35SSILL
 62
8
 10
3683.900
 20
-4825.097
 30
1732.491
 70
    32
  0
VERTEX
  8
T35SSILL
 62
8
 10
3679.012
 20
-4828.576
 30
1732.478
 70
    32
  0
VERTEX
  8
T35SSILL
 62
8
 10
3682.465
 20
-4833.483
 30
1732.477
 70
    32
  0
VERTEX
  8
T35SSILL
 62
8
 10
3673.601
 20
-4839.791
 30
1732.452
 70
    32
  0
VERTEX
  8
T35SSILL
 62
8
 10
3676.582
 20
-4843.822
 30
1732.452
 70
    32
  0
VERTEX
  8
T35SSILL
 62
8
 10
3682.338
 20
-4840.365
 30
1732.467
 70
    32
  0
VERTEX
  8
T35SSILL
 62
8
 10
3691.511
 20
-4854.452
 30
1732.520
 70
    32
  0
VERTEX
  8
T35SSILL
 62
8
 10
3691.473
 20
-4857.971
 30
1732.530
 70
    32
  0
VERTEX
  8
T35SSILL
 62
8
 10
3695.631
 20
-4863.910
 30
1732.558
 70
    32
  0
VERTEX
  8
T35SSILL
 62
8
 10
3767.630
 20
-4811.817
 30
1732.656
 70
    32
  0
VERTEX
  8
T35SSILL
 62
8
 10
3772.120
 20
-4803.332
 30
1732.676
 70
    32
  0
VERTEX
  8
T35SSILL
 62
8
 10
3777.808
 20
-4798.027
 30
1732.694
 70
    32
  0
VERTEX
  8
T35SSILL
 62
8
 10
3786.077
 20
-4798.028
 30
1732.708
 70
    32
  0
VERTEX
  8
T35SSILL
 62
8
 10
3821.008
 20
-4773.158
 30
1732.780
 70
    32
  0
VERTEX
  8
T35SSILL
 62
8
 10
3819.888
 20
-4771.034
 30
1732.778
 70
    32
  0
VERTEX
  8
T35SSILL
 62
8
 10
3825.035
 20
-4766.867
 30
1732.779
 70
    32
  0
VERTEX
  8
T35SSILL
 62
8
 10
3857.973
 20
-4810.459
 30
1732.817
 70
    32
  0
VERTEX
  8
T35SSILL
 62
8
 10
3933.529
 20
-4756.296
 30
1732.771
 70
    32
  0
VERTEX
  8
T35SSILL
 62
8
 10
3921.837
 20
-4737.989
 30
1732.760
 70
    32
  0
SEQEND
  8
T35SSILL
  0
POLYLINE
  8
T35SSILL
 62
8
 66
     1
 70
     9
  0
VERTEX
  8
T35SSILL
 62
8
 10
3452.761
 20
-4661.215
 30
1732.360
 70
    32
  0
VERTEX
  8
T35SSILL
 62
8
 10
3454.453
 20
-4658.531
 30
1732.356
 70
    32
  0
VERTEX
  8
T35SSILL
 62
8
 10
3453.789
 20
-4656.850
 30
1732.356
 70
    32
  0
VERTEX
  8
T35SSILL
 62
8
 10
3429.977
 20
-4623.578
 30
1732.361
 70
    32
  0
VERTEX
  8
T35SSILL
 62
8
 10
3352.066
 20
-4679.113
 30
1732.491
 70
    32
  0
VERTEX
  8
T35SSILL
 62
8
 10
3345.324
 20
-4674.105
 30
1732.500
 70
    32
  0
VERTEX
  8
T35SSILL
 62
8
 10
3342.231
 20
-4669.917
 30
1732.502
 70
    32
  0
VERTEX
  8
T35SSILL
 62
8
 10
3347.369
 20
-4665.187
 30
1732.490
 70
    32
  0
VERTEX
  8
T35SSILL
 62
8
 10
3351.432
 20
-4670.861
 30
1732.487
 70
    32
  0
VERTEX
  8
T35SSILL
 62
8
 10
3374.399
 20
-4654.418
 30
1732.448
 70
    32
  0
VERTEX
  8
T35SSILL
 62
8
 10
3370.224
 20
-4648.214
 30
1732.449
 70
    32
  0
VERTEX
  8
T35SSILL
 62
8
 10
3376.338
 20
-4643.347
 30
1732.438
 70
    32
  0
VERTEX
  8
T35SSILL
 62
8
 10
3380.898
 20
-4649.765
 30
1732.437
 70
    32
  0
VERTEX
  8
T35SSILL
 62
8
 10
3405.904
 20
-4631.862
 30
1732.395
 70
    32
  0
VERTEX
  8
T35SSILL
 62
8
 10
3401.164
 20
-4625.662
 30
1732.397
 70
    32
  0
VERTEX
  8
T35SSILL
 62
8
 10
3407.690
 20
-4621.518
 30
1732.386
 70
    32
  0
VERTEX
  8
T35SSILL
 62
8
 10
3411.886
 20
-4627.579
 30
1732.385
 70
    32
  0
VERTEX
  8
T35SSILL
 62
8
 10
3422.180
 20
-4620.209
 30
1732.368
 70
    32
  0
VERTEX
  8
T35SSILL
 62
8
 10
3423.422
 20
-4614.419
 30
1732.363
 70
    32
  0
VERTEX
  8
T35SSILL
 62
8
 10
3400.908
 20
-4582.960
 30
1732.368
 70
    32
  0
VERTEX
  8
T35SSILL
 62
8
 10
3361.794
 20
-4610.638
 30
1732.433
 70
    32
  0
VERTEX
  8
T35SSILL
 62
8
 10
3368.966
 20
-4620.978
 30
1732.432
 70
    32
  0
VERTEX
  8
T35SSILL
 62
8
 10
3363.288
 20
-4625.950
 30
1732.442
 70
    32
  0
VERTEX
  8
T35SSILL
 62
8
 10
3361.768
 20
-4623.710
 30
1732.442
 70
    32
  0
VERTEX
  8
T35SSILL
 62
8
 10
3357.701
 20
-4626.602
 30
1732.449
 70
    32
  0
VERTEX
  8
T35SSILL
 62
8
 10
3353.793
 20
-4620.792
 30
1732.450
 70
    32
  0
VERTEX
  8
T35SSILL
 62
8
 10
3357.949
 20
-4618.081
 30
1732.443
 70
    32
  0
VERTEX
  8
T35SSILL
 62
8
 10
3355.784
 20
-4614.890
 30
1732.443
 70
    32
  0
VERTEX
  8
T35SSILL
 62
8
 10
3336.981
 20
-4628.196
 30
1732.480
 70
    32
  0
VERTEX
  8
T35SSILL
 62
8
 10
3331.126
 20
-4694.623
 30
1732.541
 70
    32
  0
VERTEX
  8
T35SSILL
 62
8
 10
3333.123
 20
-4702.576
 30
1732.543
 70
    32
  0
VERTEX
  8
T35SSILL
 62
8
 10
3336.830
 20
-4713.221
 30
1732.544
 70
    32
  0
VERTEX
  8
T35SSILL
 62
8
 10
3342.747
 20
-4720.817
 30
1732.539
 70
    32
  0
VERTEX
  8
T35SSILL
 62
8
 10
3351.217
 20
-4725.002
 30
1732.527
 70
    32
  0
VERTEX
  8
T35SSILL
 62
8
 10
3359.340
 20
-4725.938
 30
1732.514
 70
    32
  0
VERTEX
  8
T35SSILL
 62
8
 10
3368.745
 20
-4721.912
 30
1732.501
 70
    32
  0
SEQEND
  8
T35SSILL
  0
POLYLINE
  8
T35SSILL
 62
8
 66
     1
 70
     9
  0
VERTEX
  8
T35SSILL
 62
8
 10
3396.811
 20
-4577.203
 30
1732.369
 70
    32
  0
VERTEX
  8
T35SSILL
 62
8
 10
3337.768
 20
-4619.265
 30
1732.472
 70
    32
  0
VERTEX
  8
T35SSILL
 62
8
 10
3347.613
 20
-4507.562
 30
1732.380
 70
    32
  0
SEQEND
  8
T35SSILL
  0
POLYLINE
  8
T35SSILL
 62
8
 66
     1
 70
     9
  0
VERTEX
  8
T35SSILL
 62
8
 10
3611.187
 20
-4983.083
 30
1732.669
 70
    32
  0
VERTEX
  8
T35SSILL
 62
8
 10
3612.443
 20
-4980.810
 30
1732.666
 70
    32
  0
VERTEX
  8
T35SSILL
 62
8
 10
3615.267
 20
-4979.873
 30
1732.671
 70
    32
  0
VERTEX
  8
T35SSILL
 62
8
 10
3619.300
 20
-4981.148
 30
1732.685
 70
    32
  0
VERTEX
  8
T35SSILL
 62
8
 10
3664.788
 20
-4948.221
 30
1732.714
 70
    32
  0
VERTEX
  8
T35SSILL
 62
8
 10
3609.163
 20
-4871.325
 30
1732.347
 70
    32
  0
VERTEX
  8
T35SSILL
 62
8
 10
3586.591
 20
-4887.644
 30
1732.402
 70
    32
  0
VERTEX
  8
T35SSILL
 62
8
 10
3586.915
 20
-4894.531
 30
1732.431
 70
    32
  0
VERTEX
  8
T35SSILL
 62
8
 10
3595.274
 20
-4906.267
 30
1732.388
 70
    32
  0
VERTEX
  8
T35SSILL
 62
8
 10
3589.410
 20
-4910.886
 30
1732.434
 70
    32
  0
VERTEX
  8
T35SSILL
 62
8
 10
3577.460
 20
-4894.246
 30
1732.418
 70
    32
  0
VERTEX
  8
T35SSILL
 62
8
 10
3558.322
 20
-4908.082
 30
1732.452
 70
    32
  0
VERTEX
  8
T35SSILL
 62
8
 10
3561.726
 20
-4912.749
 30
1732.476
 70
    32
  0
VERTEX
  8
T35SSILL
 62
8
 10
3557.801
 20
-4915.863
 30
1732.484
 70
    32
  0
VERTEX
  8
T35SSILL
 62
8
 10
3563.737
 20
-4924.116
 30
1732.526
 70
    32
  0
VERTEX
  8
T35SSILL
 62
8
 10
3574.973
 20
-4915.667
 30
1732.504
 70
    32
  0
VERTEX
  8
T35SSILL
 62
8
 10
3603.676
 20
-4969.984
 30
1732.612
 70
    32
  0
VERTEX
  8
T35SSILL
 62
8
 10
3589.037
 20
-4981.612
 30
1732.580
 70
    32
  0
VERTEX
  8
T35SSILL
 62
8
 10
3600.602
 20
-4993.964
 30
1732.671
 70
    32
  0
VERTEX
  8
T35SSILL
 62
8
 10
3611.408
 20
-4987.044
 30
1732.681
 70
    32
  0
VERTEX
  8
T35SSILL
 62
8
 10
3610.549
 20
-4985.100
 30
1732.673
 70
    32
  0
SEQEND
  8
T35SSILL
  0
POLYLINE
  8
T35SSILL
 62
8
 66
     1
 70
     9
  0
VERTEX
  8
T35SSILL
 62
8
 10
3621.503
 20
-4806.261
 30
1732.410
 70
    32
  0
VERTEX
  8
T35SSILL
 62
8
 10
3616.094
 20
-4810.339
 30
1732.395
 70
    32
  0
VERTEX
  8
T35SSILL
 62
8
 10
3613.105
 20
-4805.912
 30
1732.396
 70
    32
  0
VERTEX
  8
T35SSILL
 62
8
 10
3593.866
 20
-4819.821
 30
1732.342
 70
    32
  0
VERTEX
  8
T35SSILL
 62
8
 10
3595.161
 20
-4830.214
 30
1732.330
 70
    32
  0
VERTEX
  8
T35SSILL
 62
8
 10
3594.558
 20
-4837.156
 30
1732.319
 70
    32
  0
VERTEX
  8
T35SSILL
 62
8
 10
3607.987
 20
-4855.106
 30
1732.316
 70
    32
  0
VERTEX
  8
T35SSILL
 62
8
 10
3615.029
 20
-4850.314
 30
1732.335
 70
    32
  0
VERTEX
  8
T35SSILL
 62
8
 10
3618.706
 20
-4855.745
 30
1732.334
 70
    32
  0
VERTEX
  8
T35SSILL
 62
8
 10
3651.725
 20
-4831.748
 30
1732.426
 70
    32
  0
VERTEX
  8
T35SSILL
 62
8
 10
3648.605
 20
-4826.915
 30
1732.427
 70
    32
  0
VERTEX
  8
T35SSILL
 62
8
 10
3651.377
 20
-4824.933
 30
1732.435
 70
    32
  0
VERTEX
  8
T35SSILL
 62
8
 10
3629.947
 20
-4793.736
 30
1732.443
 70
    32
  0
VERTEX
  8
T35SSILL
 62
8
 10
3618.834
 20
-4801.770
 30
1732.412
 70
    32
  0
SEQEND
  8
T35SSILL
  0
POLYLINE
  8
T35SSILL
 62
8
 66
     1
 70
     9
  0
VERTEX
  8
T35SSILL
 62
8
 10
3711.572
 20
-5509.578
 30
1734.243
 70
    32
  0
VERTEX
  8
T35SSILL
 62
8
 10
3714.657
 20
-5509.668
 30
1734.245
 70
    32
  0
VERTEX
  8
T35SSILL
 62
8
 10
3744.637
 20
-5607.680
 30
1734.532
 70
    32
  0
VERTEX
  8
T35SSILL
 62
8
 10
3697.273
 20
-5543.847
 30
1734.359
 70
    32
  0
VERTEX
  8
T35SSILL
 62
8
 10
3687.242
 20
-5521.986
 30
1734.272
 70
    32
  0
VERTEX
  8
T35SSILL
 62
8
 10
3680.815
 20
-5514.315
 30
1734.240
 70
    32
  0
VERTEX
  8
T35SSILL
 62
8
 10
3670.861
 20
-5508.933
 30
1734.214
 70
    32
  0
VERTEX
  8
T35SSILL
 62
8
 10
3612.581
 20
-5429.494
 30
1733.884
 70
    32
  0
VERTEX
  8
T35SSILL
 62
8
 10
3701.012
 20
-5490.184
 30
1734.164
 70
    32
  0
VERTEX
  8
T35SSILL
 62
8
 10
3699.599
 20
-5494.413
 30
1734.179
 70
    32
  0
SEQEND
  8
T35SSILL
  0
POLYLINE
  8
T35SSILL
 62
8
 66
     1
 70
     9
  0
VERTEX
  8
T35SSILL
 62
8
 10
3515.009
 20
-4759.290
 30
1732.352
 70
    32
  0
VERTEX
  8
T35SSILL
 62
8
 10
3516.902
 20
-4755.087
 30
1732.347
 70
    32
  0
VERTEX
  8
T35SSILL
 62
8
 10
3516.249
 20
-4750.418
 30
1732.345
 70
    32
  0
VERTEX
  8
T35SSILL
 62
8
 10
3497.018
 20
-4763.406
 30
1732.377
 70
    32
  0
VERTEX
  8
T35SSILL
 62
8
 10
3493.796
 20
-4784.749
 30
1732.395
 70
    32
  0
VERTEX
  8
T35SSILL
 62
8
 10
3491.731
 20
-4788.597
 30
1732.400
 70
    32
  0
VERTEX
  8
T35SSILL
 62
8
 10
3474.406
 20
-4779.876
 30
1732.415
 70
    32
  0
VERTEX
  8
T35SSILL
 62
8
 10
3406.674
 20
-4827.969
 30
1732.528
 70
    32
  0
VERTEX
  8
T35SSILL
 62
8
 10
3396.159
 20
-4832.166
 30
1732.543
 70
    32
  0
VERTEX
  8
T35SSILL
 62
8
 10
3389.560
 20
-4832.270
 30
1732.551
 70
    32
  0
VERTEX
  8
T35SSILL
 62
8
 10
3378.598
 20
-4829.073
 30
1732.562
 70
    32
  0
VERTEX
  8
T35SSILL
 62
8
 10
3391.755
 20
-4865.196
 30
1732.570
 70
    32
  0
VERTEX
  8
T35SSILL
 62
8
 10
3395.745
 20
-4870.430
 30
1732.569
 70
    32
  0
VERTEX
  8
T35SSILL
 62
8
 10
3401.338
 20
-4873.921
 30
1732.565
 70
    32
  0
VERTEX
  8
T35SSILL
 62
8
 10
3409.503
 20
-4875.417
 30
1732.556
 70
    32
  0
VERTEX
  8
T35SSILL
 62
8
 10
3417.440
 20
-4873.656
 30
1732.546
 70
    32
  0
VERTEX
  8
T35SSILL
 62
8
 10
3429.042
 20
-4866.479
 30
1732.527
 70
    32
  0
VERTEX
  8
T35SSILL
 62
8
 10
3520.468
 20
-4800.279
 30
1732.374
 70
    32
  0
VERTEX
  8
T35SSILL
 62
8
 10
3510.291
 20
-4785.345
 30
1732.376
 70
    32
  0
VERTEX
  8
T35SSILL
 62
8
 10
3509.354
 20
-4785.973
 30
1732.377
 70
    32
  0
VERTEX
  8
T35SSILL
 62
8
 10
3503.616
 20
-4779.664
 30
1732.380
 70
    32
  0
VERTEX
  8
T35SSILL
 62
8
 10
3504.914
 20
-4773.520
 30
1732.374
 70
    32
  0
SEQEND
  8
T35SSILL
  0
POLYLINE
  8
T35SSILL
 62
8
 66
     1
 70
     9
  0
VERTEX
  8
T35SSILL
 62
8
 10
3483.158
 20
-4709.426
 30
1732.356
 70
    32
  0
VERTEX
  8
T35SSILL
 62
8
 10
3488.677
 20
-4705.599
 30
1732.347
 70
    32
  0
VERTEX
  8
T35SSILL
 62
8
 10
3515.059
 20
-4742.461
 30
1732.341
 70
    32
  0
VERTEX
  8
T35SSILL
 62
8
 10
3502.069
 20
-4751.579
 30
1732.363
 70
    32
  0
VERTEX
  8
T35SSILL
 62
8
 10
3498.987
 20
-4749.407
 30
1732.365
 70
    32
  0
VERTEX
  8
T35SSILL
 62
8
 10
3494.233
 20
-4749.124
 30
1732.370
 70
    32
  0
VERTEX
  8
T35SSILL
 62
8
 10
3491.835
 20
-4753.791
 30
1732.376
 70
    32
  0
VERTEX
  8
T35SSILL
 62
8
 10
3492.086
 20
-4758.586
 30
1732.379
 70
    32
  0
VERTEX
  8
T35SSILL
 62
8
 10
3453.225
 20
-4785.862
 30
1732.444
 70
    32
  0
VERTEX
  8
T35SSILL
 62
8
 10
3453.571
 20
-4754.689
 30
1732.422
 70
    32
  0
VERTEX
  8
T35SSILL
 62
8
 10
3436.599
 20
-4703.887
 30
1732.408
 70
    32
  0
VERTEX
  8
T35SSILL
 62
8
 10
3435.408
 20
-4702.069
 30
1732.408
 70
    32
  0
VERTEX
  8
T35SSILL
 62
8
 10
3419.617
 20
-4693.934
 30
1732.421
 70
    32
  0
VERTEX
  8
T35SSILL
 62
8
 10
3424.245
 20
-4690.637
 30
1732.414
 70
    32
  0
VERTEX
  8
T35SSILL
 62
8
 10
3426.693
 20
-4693.841
 30
1732.413
 70
    32
  0
VERTEX
  8
T35SSILL
 62
8
 10
3432.421
 20
-4689.752
 30
1732.403
 70
    32
  0
VERTEX
  8
T35SSILL
 62
8
 10
3429.814
 20
-4686.670
 30
1732.404
 70
    32
  0
VERTEX
  8
T35SSILL
 62
8
 10
3447.681
 20
-4673.942
 30
1732.374
 70
    32
  0
VERTEX
  8
T35SSILL
 62
8
 10
3451.015
 20
-4679.316
 30
1732.374
 70
    32
  0
VERTEX
  8
T35SSILL
 62
8
 10
3457.173
 20
-4675.175
 30
1732.364
 70
    32
  0
VERTEX
  8
T35SSILL
 62
8
 10
3453.650
 20
-4669.691
 30
1732.364
 70
    32
  0
VERTEX
  8
T35SSILL
 62
8
 10
3459.827
 20
-4665.286
 30
1732.354
 70
    32
  0
VERTEX
  8
T35SSILL
 62
8
 10
3485.185
 20
-4700.719
 30
1732.348
 70
    32
  0
VERTEX
  8
T35SSILL
 62
8
 10
3479.739
 20
-4704.495
 30
1732.357
 70
    32
  0
SEQEND
  8
T35SSILL
  0
POLYLINE
  8
T35SSILL
 62
8
 66
     1
 70
     9
  0
VERTEX
  8
T35SSILL
 62
8
 10
3421.339
 20
-4880.493
 30
1732.546
 70
    32
  0
VERTEX
  8
T35SSILL
 62
8
 10
3404.955
 20
-4882.691
 30
1732.567
 70
    32
  0
VERTEX
  8
T35SSILL
 62
8
 10
3395.662
 20
-4879.863
 30
1732.576
 70
    32
  0
VERTEX
  8
T35SSILL
 62
8
 10
3408.896
 20
-4916.773
 30
1732.585
 70
    32
  0
VERTEX
  8
T35SSILL
 62
8
 10
3411.926
 20
-4921.292
 30
1732.585
 70
    32
  0
VERTEX
  8
T35SSILL
 62
8
 10
3418.570
 20
-4925.058
 30
1732.579
 70
    32
  0
VERTEX
  8
T35SSILL
 62
8
 10
3425.155
 20
-4926.097
 30
1732.572
 70
    32
  0
VERTEX
  8
T35SSILL
 62
8
 10
3435.996
 20
-4924.103
 30
1732.558
 70
    32
  0
VERTEX
  8
T35SSILL
 62
8
 10
3444.398
 20
-4919.796
 30
1732.545
 70
    32
  0
VERTEX
  8
T35SSILL
 62
8
 10
3446.928
 20
-4913.578
 30
1732.538
 70
    32
  0
VERTEX
  8
T35SSILL
 62
8
 10
3450.123
 20
-4910.974
 30
1732.532
 70
    32
  0
VERTEX
  8
T35SSILL
 62
8
 10
3458.947
 20
-4908.343
 30
1732.520
 70
    32
  0
VERTEX
  8
T35SSILL
 62
8
 10
3458.915
 20
-4903.241
 30
1732.517
 70
    32
  0
VERTEX
  8
T35SSILL
 62
8
 10
3460.702
 20
-4900.622
 30
1732.513
 70
    32
  0
VERTEX
  8
T35SSILL
 62
8
 10
3463.705
 20
-4899.511
 30
1732.508
 70
    32
  0
VERTEX
  8
T35SSILL
 62
8
 10
3468.797
 20
-4900.357
 30
1732.503
 70
    32
  0
VERTEX
  8
T35SSILL
 62
8
 10
3518.970
 20
-4864.485
 30
1732.419
 70
    32
  0
VERTEX
  8
T35SSILL
 62
8
 10
3503.768
 20
-4822.453
 30
1732.409
 70
    32
  0
VERTEX
  8
T35SSILL
 62
8
 10
3498.746
 20
-4825.988
 30
1732.417
 70
    32
  0
VERTEX
  8
T35SSILL
 62
8
 10
3501.611
 20
-4830.682
 30
1732.417
 70
    32
  0
VERTEX
  8
T35SSILL
 62
8
 10
3495.232
 20
-4835.013
 30
1732.427
 70
    32
  0
VERTEX
  8
T35SSILL
 62
8
 10
3492.394
 20
-4830.461
 30
1732.428
 70
    32
  0
VERTEX
  8
T35SSILL
 62
8
 10
3453.881
 20
-4857.579
 30
1732.492
 70
    32
  0
VERTEX
  8
T35SSILL
 62
8
 10
3456.600
 20
-4861.435
 30
1732.491
 70
    32
  0
VERTEX
  8
T35SSILL
 62
8
 10
3450.577
 20
-4865.330
 30
1732.501
 70
    32
  0
VERTEX
  8
T35SSILL
 62
8
 10
3448.093
 20
-4861.655
 30
1732.501
 70
    32
  0
VERTEX
  8
T35SSILL
 62
8
 10
3430.599
 20
-4873.973
 30
1732.530
 70
    32
  0
VERTEX
  8
T35SSILL
 62
8
 10
3434.164
 20
-4878.527
 30
1732.529
 70
    32
  0
VERTEX
  8
T35SSILL
 62
8
 10
3427.609
 20
-4882.857
 30
1732.540
 70
    32
  0
VERTEX
  8
T35SSILL
 62
8
 10
3424.313
 20
-4878.399
 30
1732.541
 70
    32
  0
SEQEND
  8
T35SSILL
  0
POLYLINE
  8
T35SSILL
 62
8
 66
     1
 70
     9
  0
VERTEX
  8
T35SSILL
 62
8
 10
3442.287
 20
-4936.133
 30
1732.559
 70
    32
  0
VERTEX
  8
T35SSILL
 62
8
 10
3440.502
 20
-4930.309
 30
1732.557
 70
    32
  0
VERTEX
  8
T35SSILL
 62
8
 10
3433.268
 20
-4932.342
 30
1732.567
 70
    32
  0
VERTEX
  8
T35SSILL
 62
8
 10
3424.997
 20
-4932.604
 30
1732.577
 70
    32
  0
VERTEX
  8
T35SSILL
 62
8
 10
3419.281
 20
-4932.454
 30
1732.583
 70
    32
  0
VERTEX
  8
T35SSILL
 62
8
 10
3414.201
 20
-4930.464
 30
1732.588
 70
    32
  0
VERTEX
  8
T35SSILL
 62
8
 10
3425.958
 20
-4965.687
 30
1732.598
 70
    32
  0
VERTEX
  8
T35SSILL
 62
8
 10
3433.883
 20
-4973.073
 30
1732.594
 70
    32
  0
VERTEX
  8
T35SSILL
 62
8
 10
3443.265
 20
-4975.813
 30
1732.593
 70
    32
  0
VERTEX
  8
T35SSILL
 62
8
 10
3452.525
 20
-4973.539
 30
1732.595
 70
    32
  0
VERTEX
  8
T35SSILL
 62
8
 10
3492.986
 20
-4945.197
 30
1732.527
 70
    32
  0
VERTEX
  8
T35SSILL
 62
8
 10
3489.069
 20
-4939.664
 30
1732.506
 70
    32
  0
VERTEX
  8
T35SSILL
 62
8
 10
3493.731
 20
-4936.366
 30
1732.498
 70
    32
  0
VERTEX
  8
T35SSILL
 62
8
 10
3494.764
 20
-4931.160
 30
1732.493
 70
    32
  0
VERTEX
  8
T35SSILL
 62
8
 10
3487.614
 20
-4925.365
 30
1732.498
 70
    32
  0
VERTEX
  8
T35SSILL
 62
8
 10
3484.255
 20
-4910.640
 30
1732.492
 70
    32
  0
VERTEX
  8
T35SSILL
 62
8
 10
3484.035
 20
-4898.411
 30
1732.484
 70
    32
  0
VERTEX
  8
T35SSILL
 62
8
 10
3464.981
 20
-4911.663
 30
1732.515
 70
    32
  0
VERTEX
  8
T35SSILL
 62
8
 10
3467.801
 20
-4927.438
 30
1732.523
 70
    32
  0
VERTEX
  8
T35SSILL
 62
8
 10
3464.891
 20
-4936.202
 30
1732.532
 70
    32
  0
VERTEX
  8
T35SSILL
 62
8
 10
3447.164
 20
-4940.584
 30
1732.556
 70
    32
  0
SEQEND
  8
T35SSILL
  0
POLYLINE
  8
T35SSILL
 62
8
 66
     1
 70
     9
  0
VERTEX
  8
T35SSILL
 62
8
 10
3406.226
 20
-5007.254
 30
1732.679
 70
    32
  0
VERTEX
  8
T35SSILL
 62
8
 10
3440.804
 20
-4982.837
 30
1732.619
 70
    32
  0
VERTEX
  8
T35SSILL
 62
8
 10
3427.830
 20
-4978.566
 30
1732.605
 70
    32
  0
VERTEX
  8
T35SSILL
 62
8
 10
3422.786
 20
-4973.059
 30
1732.607
 70
    32
  0
VERTEX
  8
T35SSILL
 62
8
 10
3419.593
 20
-4967.219
 30
1732.607
 70
    32
  0
VERTEX
  8
T35SSILL
 62
8
 10
3329.415
 20
-4713.702
 30
1732.558
 70
    32
  0
VERTEX
  8
T35SSILL
 62
8
 10
3317.936
 20
-4841.710
 30
1732.675
 70
    32
  0
VERTEX
  8
T35SSILL
 62
8
 10
3399.078
 20
-5012.445
 30
1732.691
 70
    32
  0
SEQEND
  8
T35SSILL
  0
POLYLINE
  8
T35SSILL
 62
8
 66
     1
 70
     9
  0
VERTEX
  8
T35SSILL
 62
8
 10
3386.855
 20
-4717.486
 30
1732.476
 70
    32
  0
VERTEX
  8
T35SSILL
 62
8
 10
3399.905
 20
-4707.688
 30
1732.454
 70
    32
  0
VERTEX
  8
T35SSILL
 62
8
 10
3403.428
 20
-4712.390
 30
1732.453
 70
    32
  0
VERTEX
  8
T35SSILL
 62
8
 10
3409.501
 20
-4708.492
 30
1732.443
 70
    32
  0
VERTEX
  8
T35SSILL
 62
8
 10
3405.736
 20
-4703.310
 30
1732.444
 70
    32
  0
VERTEX
  8
T35SSILL
 62
8
 10
3413.804
 20
-4697.252
 30
1732.430
 70
    32
  0
VERTEX
  8
T35SSILL
 62
8
 10
3431.300
 20
-4706.664
 30
1732.416
 70
    32
  0
VERTEX
  8
T35SSILL
 62
8
 10
3440.126
 20
-4755.650
 30
1732.439
 70
    32
  0
VERTEX
  8
T35SSILL
 62
8
 10
3444.947
 20
-4768.555
 30
1732.442
 70
    32
  0
VERTEX
  8
T35SSILL
 62
8
 10
3444.739
 20
-4784.495
 30
1732.453
 70
    32
  0
VERTEX
  8
T35SSILL
 62
8
 10
3441.747
 20
-4794.872
 30
1732.464
 70
    32
  0
VERTEX
  8
T35SSILL
 62
8
 10
3435.797
 20
-4798.859
 30
1732.473
 70
    32
  0
VERTEX
  8
T35SSILL
 62
8
 10
3432.559
 20
-4793.499
 30
1732.473
 70
    32
  0
VERTEX
  8
T35SSILL
 62
8
 10
3426.618
 20
-4797.834
 30
1732.483
 70
    32
  0
VERTEX
  8
T35SSILL
 62
8
 10
3429.996
 20
-4802.746
 30
1732.483
 70
    32
  0
VERTEX
  8
T35SSILL
 62
8
 10
3398.992
 20
-4823.523
 30
1732.534
 70
    32
  0
VERTEX
  8
T35SSILL
 62
8
 10
3392.337
 20
-4824.926
 30
1732.542
 70
    32
  0
VERTEX
  8
T35SSILL
 62
8
 10
3385.549
 20
-4824.571
 30
1732.550
 70
    32
  0
VERTEX
  8
T35SSILL
 62
8
 10
3379.219
 20
-4821.476
 30
1732.556
 70
    32
  0
VERTEX
  8
T35SSILL
 62
8
 10
3374.804
 20
-4817.540
 30
1732.558
 70
    32
  0
VERTEX
  8
T35SSILL
 62
8
 10
3371.315
 20
-4811.907
 30
1732.559
 70
    32
  0
VERTEX
  8
T35SSILL
 62
8
 10
3342.354
 20
-4729.543
 30
1732.547
 70
    32
  0
VERTEX
  8
T35SSILL
 62
8
 10
3356.714
 20
-4733.400
 30
1732.524
 70
    32
  0
VERTEX
  8
T35SSILL
 62
8
 10
3363.895
 20
-4731.896
 30
1732.513
 70
    32
  0
VERTEX
  8
T35SSILL
 62
8
 10
3373.273
 20
-4726.814
 30
1732.499
 70
    32
  0
SEQEND
  8
T35SSILL
  0
POLYLINE
  8
T35SSILL
 62
8
 66
     1
 70
     9
  0
VERTEX
  8
T35SSILL
 62
8
 10
3564.121
 20
-4893.823
 30
1732.400
 70
    32
  0
VERTEX
  8
T35SSILL
 62
8
 10
3560.799
 20
-4889.206
 30
1732.386
 70
    32
  0
VERTEX
  8
T35SSILL
 62
8
 10
3575.656
 20
-4879.035
 30
1732.362
 70
    32
  0
VERTEX
  8
T35SSILL
 62
8
 10
3578.715
 20
-4883.287
 30
1732.374
 70
    32
  0
VERTEX
  8
T35SSILL
 62
8
 10
3604.402
 20
-4864.743
 30
1732.328
 70
    32
  0
VERTEX
  8
T35SSILL
 62
8
 10
3590.025
 20
-4844.869
 30
1732.322
 70
    32
  0
VERTEX
  8
T35SSILL
 62
8
 10
3574.395
 20
-4855.322
 30
1732.347
 70
    32
  0
VERTEX
  8
T35SSILL
 62
8
 10
3574.458
 20
-4865.789
 30
1732.354
 70
    32
  0
VERTEX
  8
T35SSILL
 62
8
 10
3539.660
 20
-4890.642
 30
1732.412
 70
    32
  0
VERTEX
  8
T35SSILL
 62
8
 10
3549.527
 20
-4904.359
 30
1732.426
 70
    32
  0
SEQEND
  8
T35SSILL
  0
POLYLINE
  8
T35SSILL
 62
8
 66
     1
 70
     9
  0
VERTEX
  8
T35SSILL
 62
8
 10
3524.413
 20
-4897.968
 30
1732.435
 70
    32
  0
VERTEX
  8
T35SSILL
 62
8
 10
3520.976
 20
-4898.547
 30
1732.440
 70
    32
  0
VERTEX
  8
T35SSILL
 62
8
 10
3517.771
 20
-4902.119
 30
1732.446
 70
    32
  0
VERTEX
  8
T35SSILL
 62
8
 10
3512.512
 20
-4900.390
 30
1732.451
 70
    32
  0
VERTEX
  8
T35SSILL
 62
8
 10
3505.243
 20
-4905.589
 30
1732.463
 70
    32
  0
VERTEX
  8
T35SSILL
 62
8
 10
3506.270
 20
-4908.239
 30
1732.464
 70
    32
  0
VERTEX
  8
T35SSILL
 62
8
 10
3504.401
 20
-4910.242
 30
1732.467
 70
    32
  0
VERTEX
  8
T35SSILL
 62
8
 10
3501.304
 20
-4931.008
 30
1732.485
 70
    32
  0
VERTEX
  8
T35SSILL
 62
8
 10
3508.661
 20
-4925.802
 30
1732.473
 70
    32
  0
VERTEX
  8
T35SSILL
 62
8
 10
3512.188
 20
-4930.783
 30
1732.490
 70
    32
  0
VERTEX
  8
T35SSILL
 62
8
 10
3534.740
 20
-4914.628
 30
1732.450
 70
    32
  0
VERTEX
  8
T35SSILL
 62
8
 10
3524.644
 20
-4900.592
 30
1732.437
 70
    32
  0
VERTEX
  8
T35SSILL
 62
8
 10
3528.264
 20
-4898.194
 30
1732.431
 70
    32
  0
SEQEND
  8
T35SSILL
  0
POLYLINE
  8
T35SSILL
 62
8
 66
     1
 70
     9
  0
VERTEX
  8
T35SSILL
 62
8
 10
3555.198
 20
-4797.970
 30
1732.331
 70
    32
  0
VERTEX
  8
T35SSILL
 62
8
 10
3535.573
 20
-4811.790
 30
1732.364
 70
    32
  0
VERTEX
  8
T35SSILL
 62
8
 10
3532.193
 20
-4806.831
 30
1732.364
 70
    32
  0
VERTEX
  8
T35SSILL
 62
8
 10
3527.287
 20
-4810.286
 30
1732.373
 70
    32
  0
VERTEX
  8
T35SSILL
 62
8
 10
3524.420
 20
-4806.079
 30
1732.373
 70
    32
  0
VERTEX
  8
T35SSILL
 62
8
 10
3511.894
 20
-4815.062
 30
1732.394
 70
    32
  0
VERTEX
  8
T35SSILL
 62
8
 10
3515.443
 20
-4820.360
 30
1732.393
 70
    32
  0
VERTEX
  8
T35SSILL
 62
8
 10
3512.136
 20
-4822.817
 30
1732.399
 70
    32
  0
VERTEX
  8
T35SSILL
 62
8
 10
3521.223
 20
-4851.316
 30
1732.408
 70
    32
  0
VERTEX
  8
T35SSILL
 62
8
 10
3529.153
 20
-4850.082
 30
1732.397
 70
    32
  0
VERTEX
  8
T35SSILL
 62
8
 10
3534.035
 20
-4854.093
 30
1732.394
 70
    32
  0
VERTEX
  8
T35SSILL
 62
8
 10
3548.849
 20
-4842.555
 30
1732.369
 70
    32
  0
VERTEX
  8
T35SSILL
 62
8
 10
3543.827
 20
-4827.108
 30
1732.364
 70
    32
  0
VERTEX
  8
T35SSILL
 62
8
 10
3541.756
 20
-4815.211
 30
1732.359
 70
    32
  0
VERTEX
  8
T35SSILL
 62
8
 10
3558.634
 20
-4801.979
 30
1732.330
 70
    32
  0
SEQEND
  8
T35SSILL
  0
POLYLINE
  8
T35SSILL
 62
8
 66
     1
 70
     9
  0
VERTEX
  8
T35SSILL
 62
8
 10
3795.455
 20
-5032.311
 30
1733.156
 70
    32
  0
VERTEX
  8
T35SSILL
 62
8
 10
3780.492
 20
-5025.112
 30
1733.139
 70
    32
  0
VERTEX
  8
T35SSILL
 62
8
 10
3783.671
 20
-5023.915
 30
1733.139
 70
    32
  0
VERTEX
  8
T35SSILL
 62
8
 10
3767.039
 20
-5000.804
 30
1733.095
 70
    32
  0
VERTEX
  8
T35SSILL
 62
8
 10
3763.084
 20
-5000.029
 30
1733.093
 70
    32
  0
VERTEX
  8
T35SSILL
 62
8
 10
3763.761
 20
-4996.250
 30
1733.087
 70
    32
  0
VERTEX
  8
T35SSILL
 62
8
 10
3755.855
 20
-4985.264
 30
1733.063
 70
    32
  0
VERTEX
  8
T35SSILL
 62
8
 10
3746.135
 20
-4973.109
 30
1733.002
 70
    32
  0
VERTEX
  8
T35SSILL
 62
8
 10
3737.036
 20
-4968.612
 30
1732.965
 70
    32
  0
VERTEX
  8
T35SSILL
 62
8
 10
3705.842
 20
-4990.089
 30
1732.942
 70
    32
  0
VERTEX
  8
T35SSILL
 62
8
 10
3760.172
 20
-5065.881
 30
1733.198
 70
    32
  0
VERTEX
  8
T35SSILL
 62
8
 10
3788.801
 20
-5045.631
 30
1733.175
 70
    32
  0
VERTEX
  8
T35SSILL
 62
8
 10
3786.433
 20
-5041.192
 30
1733.167
 70
    32
  0
VERTEX
  8
T35SSILL
 62
8
 10
3791.919
 20
-5037.999
 30
1733.164
 70
    32
  0
VERTEX
  8
T35SSILL
 62
8
 10
3794.596
 20
-5043.312
 30
1733.174
 70
    32
  0
VERTEX
  8
T35SSILL
 62
8
 10
3807.194
 20
-5044.840
 30
1733.181
 70
    32
  0
VERTEX
  8
T35SSILL
 62
8
 10
3800.358
 20
-5034.387
 30
1733.161
 70
    32
  0
SEQEND
  8
T35SSILL
  0
POLYLINE
  8
T35SSILL
 62
8
 66
     1
 70
     9
  0
VERTEX
  8
T35SSILL
 62
8
 10
3764.174
 20
-4985.753
 30
1733.070
 70
    32
  0
VERTEX
  8
T35SSILL
 62
8
 10
3766.731
 20
-4988.530
 30
1733.075
 70
    32
  0
VERTEX
  8
T35SSILL
 62
8
 10
3771.090
 20
-4989.370
 30
1733.078
 70
    32
  0
VERTEX
  8
T35SSILL
 62
8
 10
3772.148
 20
-4983.463
 30
1733.069
 70
    32
  0
VERTEX
  8
T35SSILL
 62
8
 10
3820.373
 20
-4992.913
 30
1733.101
 70
    32
  0
VERTEX
  8
T35SSILL
 62
8
 10
3839.678
 20
-4978.727
 30
1733.085
 70
    32
  0
VERTEX
  8
T35SSILL
 62
8
 10
3837.377
 20
-4975.611
 30
1733.079
 70
    32
  0
VERTEX
  8
T35SSILL
 62
8
 10
3835.519
 20
-4976.970
 30
1733.081
 70
    32
  0
VERTEX
  8
T35SSILL
 62
8
 10
3828.589
 20
-4967.171
 30
1733.063
 70
    32
  0
VERTEX
  8
T35SSILL
 62
8
 10
3830.247
 20
-4965.958
 30
1733.061
 70
    32
  0
VERTEX
  8
T35SSILL
 62
8
 10
3799.881
 20
-4924.847
 30
1732.984
 70
    32
  0
VERTEX
  8
T35SSILL
 62
8
 10
3778.043
 20
-4940.235
 30
1732.995
 70
    32
  0
VERTEX
  8
T35SSILL
 62
8
 10
3780.137
 20
-4943.400
 30
1733.007
 70
    32
  0
VERTEX
  8
T35SSILL
 62
8
 10
3774.358
 20
-4947.667
 30
1733.006
 70
    32
  0
VERTEX
  8
T35SSILL
 62
8
 10
3772.018
 20
-4944.480
 30
1732.990
 70
    32
  0
VERTEX
  8
T35SSILL
 62
8
 10
3756.382
 20
-4955.498
 30
1732.980
 70
    32
  0
VERTEX
  8
T35SSILL
 62
8
 10
3762.542
 20
-4966.114
 30
1733.026
 70
    32
  0
VERTEX
  8
T35SSILL
 62
8
 10
3757.301
 20
-4968.992
 30
1733.020
 70
    32
  0
VERTEX
  8
T35SSILL
 62
8
 10
3766.198
 20
-4984.642
 30
1733.069
 70
    32
  0
SEQEND
  8
T35SSILL
  0
POLYLINE
  8
T35SSILL
 62
8
 66
     1
 70
     9
  0
VERTEX
  8
T35SSILL
 62
8
 10
3730.214
 20
-4902.043
 30
1732.758
 70
    32
  0
VERTEX
  8
T35SSILL
 62
8
 10
3739.970
 20
-4895.049
 30
1732.765
 70
    32
  0
VERTEX
  8
T35SSILL
 62
8
 10
3723.160
 20
-4872.653
 30
1732.656
 70
    32
  0
VERTEX
  8
T35SSILL
 62
8
 10
3738.401
 20
-4862.613
 30
1732.669
 70
    32
  0
VERTEX
  8
T35SSILL
 62
8
 10
3746.981
 20
-4874.797
 30
1732.726
 70
    32
  0
VERTEX
  8
T35SSILL
 62
8
 10
3761.633
 20
-4864.344
 30
1732.736
 70
    32
  0
VERTEX
  8
T35SSILL
 62
8
 10
3758.245
 20
-4859.391
 30
1732.713
 70
    32
  0
VERTEX
  8
T35SSILL
 62
8
 10
3782.671
 20
-4841.964
 30
1732.729
 70
    32
  0
VERTEX
  8
T35SSILL
 62
8
 10
3786.161
 20
-4846.845
 30
1732.752
 70
    32
  0
VERTEX
  8
T35SSILL
 62
8
 10
3787.168
 20
-4843.611
 30
1732.745
 70
    32
  0
VERTEX
  8
T35SSILL
 62
8
 10
3776.084
 20
-4829.440
 30
1732.675
 70
    32
  0
VERTEX
  8
T35SSILL
 62
8
 10
3783.679
 20
-4822.867
 30
1732.677
 70
    32
  0
VERTEX
  8
T35SSILL
 62
8
 10
3782.099
 20
-4820.508
 30
1732.669
 70
    32
  0
VERTEX
  8
T35SSILL
 62
8
 10
3769.577
 20
-4820.259
 30
1732.647
 70
    32
  0
VERTEX
  8
T35SSILL
 62
8
 10
3764.995
 20
-4823.512
 30
1732.635
 70
    32
  0
VERTEX
  8
T35SSILL
 62
8
 10
3767.147
 20
-4826.769
 30
1732.644
 70
    32
  0
VERTEX
  8
T35SSILL
 62
8
 10
3761.190
 20
-4830.773
 30
1732.639
 70
    32
  0
VERTEX
  8
T35SSILL
 62
8
 10
3759.095
 20
-4827.702
 30
1732.625
 70
    32
  0
VERTEX
  8
T35SSILL
 62
8
 10
3727.876
 20
-4849.870
 30
1732.604
 70
    32
  0
VERTEX
  8
T35SSILL
 62
8
 10
3730.279
 20
-4853.267
 30
1732.620
 70
    32
  0
VERTEX
  8
T35SSILL
 62
8
 10
3724.233
 20
-4857.184
 30
1732.615
 70
    32
  0
VERTEX
  8
T35SSILL
 62
8
 10
3722.157
 20
-4853.931
 30
1732.600
 70
    32
  0
VERTEX
  8
T35SSILL
 62
8
 10
3703.309
 20
-4867.314
 30
1732.588
 70
    32
  0
SEQEND
  8
T35SSILL
  0
POLYLINE
  8
T35SSILL
 62
8
 66
     1
 70
     9
  0
VERTEX
  8
T35SSILL
 62
8
 10
3752.728
 20
-4937.245
 30
1732.918
 70
    32
  0
VERTEX
  8
T35SSILL
 62
8
 10
3757.339
 20
-4942.858
 30
1732.946
 70
    32
  0
VERTEX
  8
T35SSILL
 62
8
 10
3757.500
 20
-4938.840
 30
1732.936
 70
    32
  0
VERTEX
  8
T35SSILL
 62
8
 10
3763.683
 20
-4936.444
 30
1732.945
 70
    32
  0
VERTEX
  8
T35SSILL
 62
8
 10
3770.632
 20
-4928.339
 30
1732.941
 70
    32
  0
VERTEX
  8
T35SSILL
 62
8
 10
3778.365
 20
-4929.039
 30
1732.964
 70
    32
  0
VERTEX
  8
T35SSILL
 62
8
 10
3787.750
 20
-4923.335
 30
1732.973
 70
    32
  0
VERTEX
  8
T35SSILL
 62
8
 10
3779.746
 20
-4915.156
 30
1732.928
 70
    32
  0
VERTEX
  8
T35SSILL
 62
8
 10
3774.052
 20
-4913.071
 30
1732.907
 70
    32
  0
VERTEX
  8
T35SSILL
 62
8
 10
3768.177
 20
-4903.244
 30
1732.863
 70
    32
  0
VERTEX
  8
T35SSILL
 62
8
 10
3755.800
 20
-4892.731
 30
1732.800
 70
    32
  0
VERTEX
  8
T35SSILL
 62
8
 10
3733.828
 20
-4907.359
 30
1732.783
 70
    32
  0
VERTEX
  8
T35SSILL
 62
8
 10
3735.283
 20
-4911.157
 30
1732.798
 70
    32
  0
VERTEX
  8
T35SSILL
 62
8
 10
3729.082
 20
-4915.136
 30
1732.792
 70
    32
  0
VERTEX
  8
T35SSILL
 62
8
 10
3726.908
 20
-4912.913
 30
1732.780
 70
    32
  0
VERTEX
  8
T35SSILL
 62
8
 10
3716.960
 20
-4920.118
 30
1732.774
 70
    32
  0
VERTEX
  8
T35SSILL
 62
8
 10
3719.432
 20
-4923.768
 30
1732.791
 70
    32
  0
VERTEX
  8
T35SSILL
 62
8
 10
3714.704
 20
-4927.235
 30
1732.788
 70
    32
  0
VERTEX
  8
T35SSILL
 62
8
 10
3712.101
 20
-4923.637
 30
1732.771
 70
    32
  0
VERTEX
  8
T35SSILL
 62
8
 10
3675.932
 20
-4949.832
 30
1732.748
 70
    32
  0
VERTEX
  8
T35SSILL
 62
8
 10
3695.429
 20
-4976.958
 30
1732.877
 70
    32
  0
VERTEX
  8
T35SSILL
 62
8
 10
3707.799
 20
-4979.907
 30
1732.919
 70
    32
  0
VERTEX
  8
T35SSILL
 62
8
 10
3747.496
 20
-4951.745
 30
1732.945
 70
    32
  0
VERTEX
  8
T35SSILL
 62
8
 10
3733.575
 20
-4927.260
 30
1732.839
 70
    32
  0
VERTEX
  8
T35SSILL
 62
8
 10
3738.445
 20
-4924.586
 30
1732.844
 70
    32
  0
VERTEX
  8
T35SSILL
 62
8
 10
3746.052
 20
-4937.696
 30
1732.902
 70
    32
  0
VERTEX
  8
T35SSILL
 62
8
 10
3749.822
 20
-4934.959
 30
1732.904
 70
    32
  0
SEQEND
  8
T35SSILL
  0
POLYLINE
  8
T35SSILL
 62
8
 66
     1
 70
     9
  0
VERTEX
  8
T35SSILL
 62
8
 10
3668.602
 20
-4895.658
 30
1732.575
 70
    32
  0
VERTEX
  8
T35SSILL
 62
8
 10
3663.332
 20
-4894.985
 30
1732.559
 70
    32
  0
VERTEX
  8
T35SSILL
 62
8
 10
3661.259
 20
-4891.445
 30
1732.544
 70
    32
  0
VERTEX
  8
T35SSILL
 62
8
 10
3656.727
 20
-4887.526
 30
1732.520
 70
    32
  0
VERTEX
  8
T35SSILL
 62
8
 10
3646.410
 20
-4881.872
 30
1732.477
 70
    32
  0
VERTEX
  8
T35SSILL
 62
8
 10
3640.269
 20
-4880.311
 30
1732.456
 70
    32
  0
VERTEX
  8
T35SSILL
 62
8
 10
3639.309
 20
-4871.505
 30
1732.428
 70
    32
  0
VERTEX
  8
T35SSILL
 62
8
 10
3660.401
 20
-4855.721
 30
1732.440
 70
    32
  0
VERTEX
  8
T35SSILL
 62
8
 10
3663.695
 20
-4860.614
 30
1732.463
 70
    32
  0
VERTEX
  8
T35SSILL
 62
8
 10
3669.384
 20
-4856.172
 30
1732.465
 70
    32
  0
VERTEX
  8
T35SSILL
 62
8
 10
3666.200
 20
-4851.381
 30
1732.443
 70
    32
  0
VERTEX
  8
T35SSILL
 62
8
 10
3670.267
 20
-4848.338
 30
1732.446
 70
    32
  0
VERTEX
  8
T35SSILL
 62
8
 10
3660.499
 20
-4834.388
 30
1732.437
 70
    32
  0
VERTEX
  8
T35SSILL
 62
8
 10
3616.414
 20
-4865.803
 30
1732.351
 70
    32
  0
VERTEX
  8
T35SSILL
 62
8
 10
3641.617
 20
-4902.051
 30
1732.521
 70
    32
  0
VERTEX
  8
T35SSILL
 62
8
 10
3646.943
 20
-4897.623
 30
1732.523
 70
    32
  0
VERTEX
  8
T35SSILL
 62
8
 10
3658.710
 20
-4899.421
 30
1732.559
 70
    32
  0
VERTEX
  8
T35SSILL
 62
8
 10
3661.120
 20
-4904.285
 30
1732.580
 70
    32
  0
VERTEX
  8
T35SSILL
 62
8
 10
3654.839
 20
-4907.648
 30
1732.572
 70
    32
  0
VERTEX
  8
T35SSILL
 62
8
 10
3649.234
 20
-4905.388
 30
1732.551
 70
    32
  0
VERTEX
  8
T35SSILL
 62
8
 10
3645.602
 20
-4907.724
 30
1732.548
 70
    32
  0
VERTEX
  8
T35SSILL
 62
8
 10
3671.335
 20
-4943.801
 30
1732.719
 70
    32
  0
VERTEX
  8
T35SSILL
 62
8
 10
3715.805
 20
-4911.869
 30
1732.747
 70
    32
  0
VERTEX
  8
T35SSILL
 62
8
 10
3714.138
 20
-4908.697
 30
1732.734
 70
    32
  0
VERTEX
  8
T35SSILL
 62
8
 10
3709.183
 20
-4912.079
 30
1732.730
 70
    32
  0
VERTEX
  8
T35SSILL
 62
8
 10
3702.407
 20
-4902.175
 30
1732.684
 70
    32
  0
VERTEX
  8
T35SSILL
 62
8
 10
3692.496
 20
-4908.941
 30
1732.677
 70
    32
  0
VERTEX
  8
T35SSILL
 62
8
 10
3687.220
 20
-4901.229
 30
1732.641
 70
    32
  0
VERTEX
  8
T35SSILL
 62
8
 10
3685.424
 20
-4901.733
 30
1732.637
 70
    32
  0
VERTEX
  8
T35SSILL
 62
8
 10
3674.203
 20
-4898.270
 30
1732.598
 70
    32
  0
VERTEX
  8
T35SSILL
 62
8
 10
3670.277
 20
-4895.324
 30
1732.579
 70
    32
  0
SEQEND
  8
T35SSILL
  0
POLYLINE
  8
T35SSILL
 62
8
 66
     1
 70
     9
  0
VERTEX
  8
T35SSILL
 62
8
 10
3890.761
 20
-4889.706
 30
1732.959
 70
    32
  0
VERTEX
  8
T35SSILL
 62
8
 10
3880.836
 20
-4896.547
 30
1732.967
 70
    32
  0
VERTEX
  8
T35SSILL
 62
8
 10
3872.478
 20
-4872.356
 30
1732.925
 70
    32
  0
VERTEX
  8
T35SSILL
 62
8
 10
3840.562
 20
-4895.496
 30
1732.951
 70
    32
  0
VERTEX
  8
T35SSILL
 62
8
 10
3842.910
 20
-4906.164
 30
1732.969
 70
    32
  0
VERTEX
  8
T35SSILL
 62
8
 10
3833.051
 20
-4915.029
 30
1732.980
 70
    32
  0
VERTEX
  8
T35SSILL
 62
8
 10
3828.389
 20
-4914.979
 30
1732.978
 70
    32
  0
VERTEX
  8
T35SSILL
 62
8
 10
3818.931
 20
-4911.182
 30
1732.969
 70
    32
  0
VERTEX
  8
T35SSILL
 62
8
 10
3806.793
 20
-4919.231
 30
1732.978
 70
    32
  0
VERTEX
  8
T35SSILL
 62
8
 10
3831.676
 20
-4954.311
 30
1733.043
 70
    32
  0
VERTEX
  8
T35SSILL
 62
8
 10
3836.615
 20
-4951.030
 30
1733.039
 70
    32
  0
VERTEX
  8
T35SSILL
 62
8
 10
3840.873
 20
-4956.712
 30
1733.050
 70
    32
  0
VERTEX
  8
T35SSILL
 62
8
 10
3902.210
 20
-4912.787
 30
1733.001
 70
    32
  0
SEQEND
  8
T35SSILL
  0
POLYLINE
  8
T35SSILL
 62
8
 66
     1
 70
     9
  0
VERTEX
  8
T35SSILL
 62
8
 10
3836.679
 20
-4887.740
 30
1732.937
 70
    32
  0
VERTEX
  8
T35SSILL
 62
8
 10
3869.132
 20
-4864.579
 30
1732.911
 70
    32
  0
VERTEX
  8
T35SSILL
 62
8
 10
3859.307
 20
-4837.734
 30
1732.864
 70
    32
  0
VERTEX
  8
T35SSILL
 62
8
 10
3862.489
 20
-4836.273
 30
1732.863
 70
    32
  0
VERTEX
  8
T35SSILL
 62
8
 10
3857.401
 20
-4825.756
 30
1732.844
 70
    32
  0
VERTEX
  8
T35SSILL
 62
8
 10
3853.151
 20
-4828.909
 30
1732.848
 70
    32
  0
VERTEX
  8
T35SSILL
 62
8
 10
3849.987
 20
-4824.014
 30
1732.839
 70
    32
  0
VERTEX
  8
T35SSILL
 62
8
 10
3816.042
 20
-4848.240
 30
1732.836
 70
    32
  0
VERTEX
  8
T35SSILL
 62
8
 10
3826.207
 20
-4863.100
 30
1732.894
 70
    32
  0
VERTEX
  8
T35SSILL
 62
8
 10
3821.321
 20
-4866.585
 30
1732.898
 70
    32
  0
VERTEX
  8
T35SSILL
 62
8
 10
3824.710
 20
-4871.538
 30
1732.907
 70
    32
  0
VERTEX
  8
T35SSILL
 62
8
 10
3819.824
 20
-4875.023
 30
1732.911
 70
    32
  0
VERTEX
  8
T35SSILL
 62
8
 10
3823.213
 20
-4879.977
 30
1732.920
 70
    32
  0
VERTEX
  8
T35SSILL
 62
8
 10
3811.975
 20
-4887.994
 30
1732.929
 70
    32
  0
VERTEX
  8
T35SSILL
 62
8
 10
3806.446
 20
-4894.423
 30
1732.937
 70
    32
  0
VERTEX
  8
T35SSILL
 62
8
 10
3796.806
 20
-4899.244
 30
1732.929
 70
    32
  0
VERTEX
  8
T35SSILL
 62
8
 10
3800.970
 20
-4905.540
 30
1732.953
 70
    32
  0
VERTEX
  8
T35SSILL
 62
8
 10
3802.304
 20
-4904.508
 30
1732.952
 70
    32
  0
VERTEX
  8
T35SSILL
 62
8
 10
3805.948
 20
-4909.672
 30
1732.962
 70
    32
  0
VERTEX
  8
T35SSILL
 62
8
 10
3830.684
 20
-4892.019
 30
1732.942
 70
    32
  0
VERTEX
  8
T35SSILL
 62
8
 10
3827.904
 20
-4888.616
 30
1732.935
 70
    32
  0
VERTEX
  8
T35SSILL
 62
8
 10
3834.383
 20
-4883.992
 30
1732.930
 70
    32
  0
SEQEND
  8
T35SSILL
  0
POLYLINE
  8
T35SSILL
 62
8
 66
     1
 70
     9
  0
VERTEX
  8
T35SSILL
 62
8
 10
3830.000
 20
-5000.782
 30
1733.117
 70
    32
  0
VERTEX
  8
T35SSILL
 62
8
 10
3850.589
 20
-5009.622
 30
1733.139
 70
    32
  0
VERTEX
  8
T35SSILL
 62
8
 10
3874.990
 20
-5027.921
 30
1733.177
 70
    32
  0
VERTEX
  8
T35SSILL
 62
8
 10
3894.294
 20
-5054.306
 30
1733.226
 70
    32
  0
VERTEX
  8
T35SSILL
 62
8
 10
3820.837
 20
-5046.438
 30
1733.188
 70
    32
  0
VERTEX
  8
T35SSILL
 62
8
 10
3790.904
 20
-5016.704
 30
1733.129
 70
    32
  0
VERTEX
  8
T35SSILL
 62
8
 10
3786.725
 20
-5019.621
 30
1733.133
 70
    32
  0
VERTEX
  8
T35SSILL
 62
8
 10
3775.595
 20
-5002.481
 30
1733.101
 70
    32
  0
VERTEX
  8
T35SSILL
 62
8
 10
3827.861
 20
-5012.722
 30
1733.136
 70
    32
  0
SEQEND
  8
T35SSILL
  0
POLYLINE
  8
T35SSILL
 62
8
 66
     1
 70
     9
  0
VERTEX
  8
T35SSILL
 62
8
 10
3907.269
 20
-4945.150
 30
1733.055
 70
    32
  0
VERTEX
  8
T35SSILL
 62
8
 10
3904.048
 20
-4949.926
 30
1733.061
 70
    32
  0
VERTEX
  8
T35SSILL
 62
8
 10
3891.787
 20
-4958.202
 30
1733.070
 70
    32
  0
VERTEX
  8
T35SSILL
 62
8
 10
3879.140
 20
-4949.846
 30
1733.052
 70
    32
  0
VERTEX
  8
T35SSILL
 62
8
 10
3850.176
 20
-4970.372
 30
1733.075
 70
    32
  0
VERTEX
  8
T35SSILL
 62
8
 10
3854.514
 20
-4975.992
 30
1733.086
 70
    32
  0
VERTEX
  8
T35SSILL
 62
8
 10
3850.135
 20
-4978.929
 30
1733.089
 70
    32
  0
VERTEX
  8
T35SSILL
 62
8
 10
3844.190
 20
-4970.627
 30
1733.074
 70
    32
  0
VERTEX
  8
T35SSILL
 62
8
 10
3874.266
 20
-4948.627
 30
1733.049
 70
    32
  0
VERTEX
  8
T35SSILL
 62
8
 10
3870.454
 20
-4943.239
 30
1733.039
 70
    32
  0
VERTEX
  8
T35SSILL
 62
8
 10
3906.193
 20
-4918.578
 30
1733.011
 70
    32
  0
VERTEX
  8
T35SSILL
 62
8
 10
3911.095
 20
-4926.903
 30
1733.027
 70
    32
  0
VERTEX
  8
T35SSILL
 62
8
 10
3903.128
 20
-4932.594
 30
1733.033
 70
    32
  0
VERTEX
  8
T35SSILL
 62
8
 10
3903.512
 20
-4936.992
 30
1733.040
 70
    32
  0
VERTEX
  8
T35SSILL
 62
8
 10
3906.726
 20
-4943.041
 30
1733.051
 70
    32
  0
SEQEND
  8
T35SSILL
  0
POLYLINE
  8
T35SSILL
 62
8
 66
     1
 70
     9
  0
VERTEX
  8
T35SSILL
 62
8
 10
3802.585
 20
-4800.934
 30
1732.733
 70
    32
  0
VERTEX
  8
T35SSILL
 62
8
 10
3802.984
 20
-4796.628
 30
1732.740
 70
    32
  0
VERTEX
  8
T35SSILL
 62
8
 10
3804.955
 20
-4793.306
 30
1732.748
 70
    32
  0
VERTEX
  8
T35SSILL
 62
8
 10
3826.307
 20
-4779.373
 30
1732.785
 70
    32
  0
VERTEX
  8
T35SSILL
 62
8
 10
3851.996
 20
-4814.744
 30
1732.825
 70
    32
  0
VERTEX
  8
T35SSILL
 62
8
 10
3807.620
 20
-4846.555
 30
1732.808
 70
    32
  0
VERTEX
  8
T35SSILL
 62
8
 10
3804.104
 20
-4841.415
 30
1732.784
 70
    32
  0
VERTEX
  8
T35SSILL
 62
8
 10
3799.218
 20
-4844.900
 30
1732.781
 70
    32
  0
VERTEX
  8
T35SSILL
 62
8
 10
3795.830
 20
-4839.947
 30
1732.758
 70
    32
  0
VERTEX
  8
T35SSILL
 62
8
 10
3794.995
 20
-4840.543
 30
1732.758
 70
    32
  0
VERTEX
  8
T35SSILL
 62
8
 10
3790.671
 20
-4836.962
 30
1732.736
 70
    32
  0
VERTEX
  8
T35SSILL
 62
8
 10
3814.349
 20
-4819.448
 30
1732.750
 70
    32
  0
VERTEX
  8
T35SSILL
 62
8
 10
3804.028
 20
-4805.788
 30
1732.728
 70
    32
  0
SEQEND
  8
T35SSILL
  0
POLYLINE
  8
T35SSILL
 62
8
 66
     1
 70
     9
  0
VERTEX
  8
T35SSILL
 62
8
 10
3942.009
 20
-2556.130
 30
1731.355
 70
    32
  0
VERTEX
  8
T35SSILL
 62
8
 10
3936.727
 20
-2557.035
 30
1731.364
 70
    32
  0
VERTEX
  8
T35SSILL
 62
8
 10
3939.543
 20
-2575.039
 30
1731.338
 70
    32
  0
VERTEX
  8
T35SSILL
 62
8
 10
3968.069
 20
-2552.773
 30
1731.304
 70
    32
  0
VERTEX
  8
T35SSILL
 62
8
 10
3957.342
 20
-2539.324
 30
1731.347
 70
    32
  0
VERTEX
  8
T35SSILL
 62
8
 10
3975.978
 20
-2524.035
 30
1731.330
 70
    32
  0
VERTEX
  8
T35SSILL
 62
8
 10
3956.961
 20
-2500.501
 30
1731.404
 70
    32
  0
VERTEX
  8
T35SSILL
 62
8
 10
3928.590
 20
-2505.007
 30
1731.457
 70
    32
  0
VERTEX
  8
T35SSILL
 62
8
 10
3935.597
 20
-2549.808
 30
1731.377
 70
    32
  0
VERTEX
  8
T35SSILL
 62
8
 10
3941.161
 20
-2548.582
 30
1731.367
 70
    32
  0
SEQEND
  8
T35SSILL
  0
TEXT
  8
T35SSILL
 62
8
 10
1352.055
 20
-6330.084
 30
1743.606
 40
0.200
  1
3500
 41
 1.0 
  0
ENDSEC
  0
EOF
