999
********************************
999
*   DXF File - Entities Only   *
999
*        3D Data Format        *
999
*     Output from ENVISAGE     *
999
*     20-Dec-2007 15:27:31     *
999
********************************
  0
SECTION 
  2
HEADER
  9
$ACADVER
  1
AC1009
  9
$EXTMIN
 10
-290000.000
 20
-250000.000
 30
-4000.000
  9
$EXTMAX
 10
5000000.000
 20
600000.000
 30
6000.000
  0
ENDSEC
  0
SECTION
  2
ENTITIES
  0
POLYLINE
  8
T36SSILL
 62
2
 66
     1
 70
     9
  0
VERTEX
  8
T36SSILL
 62
2
 10
3514.006
 20
-5183.377
 30
1583.537
 70
    32
  0
VERTEX
  8
T36SSILL
 62
2
 10
3521.801
 20
-5156.208
 30
1583.538
 70
    32
  0
VERTEX
  8
T36SSILL
 62
2
 10
3464.520
 20
-5168.234
 30
1583.892
 70
    32
  0
SEQEND
  8
T36SSILL
  0
POLYLINE
  8
T36SSILL
 62
2
 66
     1
 70
     9
  0
VERTEX
  8
T36SSILL
 62
2
 10
2113.593
 20
-5102.737
 30
1583.888
 70
    32
  0
VERTEX
  8
T36SSILL
 62
2
 10
2109.457
 20
-5096.541
 30
1583.871
 70
    32
  0
VERTEX
  8
T36SSILL
 62
2
 10
2133.480
 20
-5079.919
 30
1583.762
 70
    32
  0
VERTEX
  8
T36SSILL
 62
2
 10
2137.541
 20
-5085.656
 30
1583.777
 70
    32
  0
SEQEND
  8
T36SSILL
  0
POLYLINE
  8
T36SSILL
 62
2
 66
     1
 70
     9
  0
VERTEX
  8
T36SSILL
 62
2
 10
4150.736
 20
-5267.014
 30
1584.014
 70
    32
  0
VERTEX
  8
T36SSILL
 62
2
 10
4155.427
 20
-5285.193
 30
1584.022
 70
    32
  0
VERTEX
  8
T36SSILL
 62
2
 10
4167.461
 20
-5291.713
 30
1584.045
 70
    32
  0
VERTEX
  8
T36SSILL
 62
2
 10
4173.874
 20
-5300.092
 30
1584.057
 70
    32
  0
VERTEX
  8
T36SSILL
 62
2
 10
4186.867
 20
-5302.732
 30
1584.080
 70
    32
  0
VERTEX
  8
T36SSILL
 62
2
 10
4200.013
 20
-5310.965
 30
1584.081
 70
    32
  0
VERTEX
  8
T36SSILL
 62
2
 10
4187.231
 20
-5320.063
 30
1584.083
 70
    32
  0
VERTEX
  8
T36SSILL
 62
2
 10
4174.673
 20
-5320.776
 30
1584.059
 70
    32
  0
VERTEX
  8
T36SSILL
 62
2
 10
4169.378
 20
-5313.723
 30
1584.049
 70
    32
  0
VERTEX
  8
T36SSILL
 62
2
 10
4163.608
 20
-5309.137
 30
1584.038
 70
    32
  0
VERTEX
  8
T36SSILL
 62
2
 10
4151.746
 20
-5304.204
 30
1584.015
 70
    32
  0
VERTEX
  8
T36SSILL
 62
2
 10
4143.186
 20
-5303.292
 30
1583.998
 70
    32
  0
VERTEX
  8
T36SSILL
 62
2
 10
4130.422
 20
-5306.123
 30
1583.974
 70
    32
  0
VERTEX
  8
T36SSILL
 62
2
 10
4111.353
 20
-5317.705
 30
1583.937
 70
    32
  0
VERTEX
  8
T36SSILL
 62
2
 10
4093.318
 20
-5292.274
 30
1583.903
 70
    32
  0
VERTEX
  8
T36SSILL
 62
2
 10
4094.042
 20
-5291.047
 30
1583.904
 70
    32
  0
VERTEX
  8
T36SSILL
 62
2
 10
4093.110
 20
-5288.118
 30
1583.902
 70
    32
  0
VERTEX
  8
T36SSILL
 62
2
 10
4109.671
 20
-5240.004
 30
1583.935
 70
    32
  0
VERTEX
  8
T36SSILL
 62
2
 10
4114.411
 20
-5248.930
 30
1583.944
 70
    32
  0
VERTEX
  8
T36SSILL
 62
2
 10
4129.200
 20
-5256.366
 30
1583.973
 70
    32
  0
VERTEX
  8
T36SSILL
 62
2
 10
4133.061
 20
-5259.962
 30
1583.980
 70
    32
  0
VERTEX
  8
T36SSILL
 62
2
 10
4135.664
 20
-5259.787
 30
1583.985
 70
    32
  0
SEQEND
  8
T36SSILL
  0
POLYLINE
  8
T36SSILL
 62
2
 66
     1
 70
     9
  0
VERTEX
  8
T36SSILL
 62
2
 10
3790.867
 20
-5425.670
 30
1583.795
 70
    32
  0
VERTEX
  8
T36SSILL
 62
2
 10
3787.775
 20
-5421.769
 30
1583.783
 70
    32
  0
VERTEX
  8
T36SSILL
 62
2
 10
3793.778
 20
-5416.726
 30
1583.781
 70
    32
  0
VERTEX
  8
T36SSILL
 62
2
 10
3796.554
 20
-5420.670
 30
1583.793
 70
    32
  0
VERTEX
  8
T36SSILL
 62
2
 10
3940.610
 20
-5316.749
 30
1583.776
 70
    32
  0
VERTEX
  8
T36SSILL
 62
2
 10
3943.483
 20
-5304.099
 30
1583.754
 70
    32
  0
VERTEX
  8
T36SSILL
 62
2
 10
3913.404
 20
-5262.036
 30
1583.663
 70
    32
  0
VERTEX
  8
T36SSILL
 62
2
 10
3927.261
 20
-5253.247
 30
1583.669
 70
    32
  0
VERTEX
  8
T36SSILL
 62
2
 10
3930.658
 20
-5257.538
 30
1583.676
 70
    32
  0
VERTEX
  8
T36SSILL
 62
2
 10
3923.207
 20
-5262.556
 30
1583.673
 70
    32
  0
VERTEX
  8
T36SSILL
 62
2
 10
3955.771
 20
-5306.005
 30
1583.775
 70
    32
  0
VERTEX
  8
T36SSILL
 62
2
 10
3978.288
 20
-5289.539
 30
1583.771
 70
    32
  0
VERTEX
  8
T36SSILL
 62
2
 10
3969.888
 20
-5279.209
 30
1583.738
 70
    32
  0
VERTEX
  8
T36SSILL
 62
2
 10
3956.772
 20
-5282.694
 30
1583.728
 70
    32
  0
VERTEX
  8
T36SSILL
 62
2
 10
3943.011
 20
-5274.713
 30
1583.703
 70
    32
  0
VERTEX
  8
T36SSILL
 62
2
 10
3926.479
 20
-5245.665
 30
1583.662
 70
    32
  0
VERTEX
  8
T36SSILL
 62
2
 10
3903.613
 20
-5227.536
 30
1583.634
 70
    32
  0
VERTEX
  8
T36SSILL
 62
2
 10
3874.956
 20
-5247.860
 30
1583.612
 70
    32
  0
VERTEX
  8
T36SSILL
 62
2
 10
3878.003
 20
-5252.419
 30
1583.619
 70
    32
  0
VERTEX
  8
T36SSILL
 62
2
 10
3872.038
 20
-5256.010
 30
1583.616
 70
    32
  0
VERTEX
  8
T36SSILL
 62
2
 10
3868.998
 20
-5252.157
 30
1583.610
 70
    32
  0
VERTEX
  8
T36SSILL
 62
2
 10
3752.282
 20
-5336.473
 30
1583.567
 70
    32
  0
VERTEX
  8
T36SSILL
 62
2
 10
3756.608
 20
-5341.538
 30
1583.575
 70
    32
  0
VERTEX
  8
T36SSILL
 62
2
 10
3750.701
 20
-5346.021
 30
1583.575
 70
    32
  0
VERTEX
  8
T36SSILL
 62
2
 10
3746.324
 20
-5340.770
 30
1583.564
 70
    32
  0
VERTEX
  8
T36SSILL
 62
2
 10
3714.160
 20
-5363.423
 30
1583.564
 70
    32
  0
VERTEX
  8
T36SSILL
 62
2
 10
3711.613
 20
-5364.685
 30
1583.564
 70
    32
  0
VERTEX
  8
T36SSILL
 62
2
 10
3696.970
 20
-5365.538
 30
1583.552
 70
    32
  0
VERTEX
  8
T36SSILL
 62
2
 10
3735.082
 20
-5416.523
 30
1583.701
 70
    32
  0
VERTEX
  8
T36SSILL
 62
2
 10
3746.909
 20
-5434.056
 30
1583.752
 70
    32
  0
VERTEX
  8
T36SSILL
 62
2
 10
3751.445
 20
-5437.452
 30
1583.765
 70
    32
  0
VERTEX
  8
T36SSILL
 62
2
 10
3757.027
 20
-5439.603
 30
1583.777
 70
    32
  0
VERTEX
  8
T36SSILL
 62
2
 10
3762.327
 20
-5440.079
 30
1583.786
 70
    32
  0
VERTEX
  8
T36SSILL
 62
2
 10
3769.648
 20
-5439.564
 30
1583.795
 70
    32
  0
VERTEX
  8
T36SSILL
 62
2
 10
3779.390
 20
-5434.082
 30
1583.797
 70
    32
  0
SEQEND
  8
T36SSILL
  0
POLYLINE
  8
T36SSILL
 62
2
 66
     1
 70
     9
  0
VERTEX
  8
T36SSILL
 62
2
 10
3917.933
 20
-5194.559
 30
1583.648
 70
    32
  0
VERTEX
  8
T36SSILL
 62
2
 10
3910.496
 20
-5183.513
 30
1583.641
 70
    32
  0
VERTEX
  8
T36SSILL
 62
2
 10
3908.925
 20
-5176.468
 30
1583.643
 70
    32
  0
VERTEX
  8
T36SSILL
 62
2
 10
3910.296
 20
-5163.656
 30
1583.649
 70
    32
  0
VERTEX
  8
T36SSILL
 62
2
 10
3914.115
 20
-5157.175
 30
1583.653
 70
    32
  0
VERTEX
  8
T36SSILL
 62
2
 10
3925.804
 20
-5152.291
 30
1583.658
 70
    32
  0
VERTEX
  8
T36SSILL
 62
2
 10
3926.281
 20
-5147.079
 30
1583.660
 70
    32
  0
VERTEX
  8
T36SSILL
 62
2
 10
3942.490
 20
-5135.177
 30
1583.672
 70
    32
  0
VERTEX
  8
T36SSILL
 62
2
 10
3962.310
 20
-5140.097
 30
1583.695
 70
    32
  0
VERTEX
  8
T36SSILL
 62
2
 10
3968.073
 20
-5142.687
 30
1583.701
 70
    32
  0
VERTEX
  8
T36SSILL
 62
2
 10
3969.657
 20
-5142.229
 30
1583.703
 70
    32
  0
VERTEX
  8
T36SSILL
 62
2
 10
3977.990
 20
-5128.289
 30
1583.711
 70
    32
  0
VERTEX
  8
T36SSILL
 62
2
 10
3988.078
 20
-5130.923
 30
1583.723
 70
    32
  0
VERTEX
  8
T36SSILL
 62
2
 10
3992.579
 20
-5122.140
 30
1583.727
 70
    32
  0
VERTEX
  8
T36SSILL
 62
2
 10
3999.930
 20
-5124.626
 30
1583.736
 70
    32
  0
VERTEX
  8
T36SSILL
 62
2
 10
4007.349
 20
-5125.081
 30
1583.744
 70
    32
  0
VERTEX
  8
T36SSILL
 62
2
 10
4011.660
 20
-5123.713
 30
1583.750
 70
    32
  0
VERTEX
  8
T36SSILL
 62
2
 10
4016.796
 20
-5107.863
 30
1583.760
 70
    32
  0
VERTEX
  8
T36SSILL
 62
2
 10
4014.082
 20
-5092.533
 30
1583.755
 70
    32
  0
VERTEX
  8
T36SSILL
 62
2
 10
4014.483
 20
-5088.557
 30
1583.756
 70
    32
  0
VERTEX
  8
T36SSILL
 62
2
 10
4016.914
 20
-5084.561
 30
1583.761
 70
    32
  0
VERTEX
  8
T36SSILL
 62
2
 10
4020.076
 20
-5083.028
 30
1583.767
 70
    32
  0
VERTEX
  8
T36SSILL
 62
2
 10
4027.898
 20
-5088.422
 30
1583.782
 70
    32
  0
VERTEX
  8
T36SSILL
 62
2
 10
4030.050
 20
-5091.842
 30
1583.786
 70
    32
  0
VERTEX
  8
T36SSILL
 62
2
 10
4036.916
 20
-5107.484
 30
1583.799
 70
    32
  0
VERTEX
  8
T36SSILL
 62
2
 10
4037.223
 20
-5120.455
 30
1583.799
 70
    32
  0
VERTEX
  8
T36SSILL
 62
2
 10
4030.127
 20
-5125.734
 30
1583.785
 70
    32
  0
VERTEX
  8
T36SSILL
 62
2
 10
4026.275
 20
-5120.124
 30
1583.778
 70
    32
  0
VERTEX
  8
T36SSILL
 62
2
 10
4020.587
 20
-5125.036
 30
1583.767
 70
    32
  0
VERTEX
  8
T36SSILL
 62
2
 10
4023.900
 20
-5129.680
 30
1583.773
 70
    32
  0
VERTEX
  8
T36SSILL
 62
2
 10
3987.802
 20
-5156.080
 30
1583.724
 70
    32
  0
VERTEX
  8
T36SSILL
 62
2
 10
3984.668
 20
-5151.699
 30
1583.720
 70
    32
  0
VERTEX
  8
T36SSILL
 62
2
 10
3977.744
 20
-5156.535
 30
1583.713
 70
    32
  0
VERTEX
  8
T36SSILL
 62
2
 10
3981.404
 20
-5160.558
 30
1583.717
 70
    32
  0
VERTEX
  8
T36SSILL
 62
2
 10
3929.912
 20
-5197.221
 30
1583.662
 70
    32
  0
VERTEX
  8
T36SSILL
 62
2
 10
3919.886
 20
-5195.687
 30
1583.651
 70
    32
  0
SEQEND
  8
T36SSILL
  0
POLYLINE
  8
T36SSILL
 62
2
 66
     1
 70
     9
  0
VERTEX
  8
T36SSILL
 62
2
 10
3565.962
 20
-5198.876
 30
1583.580
 70
    32
  0
VERTEX
  8
T36SSILL
 62
2
 10
3531.602
 20
-5149.777
 30
1583.539
 70
    32
  0
VERTEX
  8
T36SSILL
 62
2
 10
3521.302
 20
-5184.201
 30
1583.523
 70
    32
  0
SEQEND
  8
T36SSILL
  0
POLYLINE
  8
T36SSILL
 62
2
 66
     1
 70
     9
  0
VERTEX
  8
T36SSILL
 62
2
 10
3706.006
 20
-5030.403
 30
1583.646
 70
    32
  0
VERTEX
  8
T36SSILL
 62
2
 10
3703.069
 20
-5025.374
 30
1583.646
 70
    32
  0
VERTEX
  8
T36SSILL
 62
2
 10
3698.772
 20
-5028.366
 30
1583.643
 70
    32
  0
VERTEX
  8
T36SSILL
 62
2
 10
3688.196
 20
-5017.236
 30
1583.643
 70
    32
  0
VERTEX
  8
T36SSILL
 62
2
 10
3679.202
 20
-5011.050
 30
1583.641
 70
    32
  0
VERTEX
  8
T36SSILL
 62
2
 10
3657.391
 20
-5025.762
 30
1583.628
 70
    32
  0
VERTEX
  8
T36SSILL
 62
2
 10
3660.122
 20
-5030.177
 30
1583.628
 70
    32
  0
VERTEX
  8
T36SSILL
 62
2
 10
3653.675
 20
-5034.846
 30
1583.624
 70
    32
  0
VERTEX
  8
T36SSILL
 62
2
 10
3651.033
 20
-5030.255
 30
1583.624
 70
    32
  0
VERTEX
  8
T36SSILL
 62
2
 10
3623.039
 20
-5050.078
 30
1583.607
 70
    32
  0
VERTEX
  8
T36SSILL
 62
2
 10
3632.379
 20
-5062.530
 30
1583.606
 70
    32
  0
VERTEX
  8
T36SSILL
 62
2
 10
3647.117
 20
-5060.693
 30
1583.613
 70
    32
  0
VERTEX
  8
T36SSILL
 62
2
 10
3651.343
 20
-5068.992
 30
1583.612
 70
    32
  0
VERTEX
  8
T36SSILL
 62
2
 10
3652.481
 20
-5077.906
 30
1583.609
 70
    32
  0
VERTEX
  8
T36SSILL
 62
2
 10
3650.516
 20
-5099.699
 30
1583.601
 70
    32
  0
VERTEX
  8
T36SSILL
 62
2
 10
3641.419
 20
-5106.924
 30
1583.595
 70
    32
  0
VERTEX
  8
T36SSILL
 62
2
 10
3631.733
 20
-5088.119
 30
1583.598
 70
    32
  0
VERTEX
  8
T36SSILL
 62
2
 10
3624.699
 20
-5065.081
 30
1583.603
 70
    32
  0
VERTEX
  8
T36SSILL
 62
2
 10
3617.122
 20
-5055.013
 30
1583.603
 70
    32
  0
VERTEX
  8
T36SSILL
 62
2
 10
3571.025
 20
-5087.611
 30
1583.574
 70
    32
  0
VERTEX
  8
T36SSILL
 62
2
 10
3574.990
 20
-5092.645
 30
1583.574
 70
    32
  0
VERTEX
  8
T36SSILL
 62
2
 10
3568.456
 20
-5096.785
 30
1583.570
 70
    32
  0
VERTEX
  8
T36SSILL
 62
2
 10
3564.844
 20
-5091.840
 30
1583.571
 70
    32
  0
VERTEX
  8
T36SSILL
 62
2
 10
3543.914
 20
-5106.994
 30
1583.557
 70
    32
  0
VERTEX
  8
T36SSILL
 62
2
 10
3534.347
 20
-5141.221
 30
1583.542
 70
    32
  0
VERTEX
  8
T36SSILL
 62
2
 10
3576.814
 20
-5200.299
 30
1583.592
 70
    32
  0
VERTEX
  8
T36SSILL
 62
2
 10
3646.402
 20
-5149.197
 30
1583.619
 70
    32
  0
VERTEX
  8
T36SSILL
 62
2
 10
3634.601
 20
-5128.447
 30
1583.590
 70
    32
  0
VERTEX
  8
T36SSILL
 62
2
 10
3641.871
 20
-5124.663
 30
1583.594
 70
    32
  0
VERTEX
  8
T36SSILL
 62
2
 10
3655.497
 20
-5143.912
 30
1583.624
 70
    32
  0
VERTEX
  8
T36SSILL
 62
2
 10
3674.926
 20
-5129.197
 30
1583.631
 70
    32
  0
VERTEX
  8
T36SSILL
 62
2
 10
3686.031
 20
-5060.030
 30
1583.628
 70
    32
  0
VERTEX
  8
T36SSILL
 62
2
 10
3691.950
 20
-5054.301
 30
1583.632
 70
    32
  0
VERTEX
  8
T36SSILL
 62
2
 10
3689.308
 20
-5049.621
 30
1583.633
 70
    32
  0
VERTEX
  8
T36SSILL
 62
2
 10
3693.724
 20
-5045.744
 30
1583.636
 70
    32
  0
VERTEX
  8
T36SSILL
 62
2
 10
3690.552
 20
-5040.975
 30
1583.636
 70
    32
  0
SEQEND
  8
T36SSILL
  0
POLYLINE
  8
T36SSILL
 62
2
 66
     1
 70
     9
  0
VERTEX
  8
T36SSILL
 62
2
 10
3713.519
 20
-5018.940
 30
1583.652
 70
    32
  0
VERTEX
  8
T36SSILL
 62
2
 10
3716.073
 20
-5022.914
 30
1583.652
 70
    32
  0
VERTEX
  8
T36SSILL
 62
2
 10
3726.405
 20
-5015.866
 30
1583.658
 70
    32
  0
VERTEX
  8
T36SSILL
 62
2
 10
3730.195
 20
-5020.282
 30
1583.658
 70
    32
  0
VERTEX
  8
T36SSILL
 62
2
 10
3734.963
 20
-5017.287
 30
1583.661
 70
    32
  0
VERTEX
  8
T36SSILL
 62
2
 10
3737.958
 20
-5021.879
 30
1583.661
 70
    32
  0
VERTEX
  8
T36SSILL
 62
2
 10
3753.234
 20
-5011.836
 30
1583.670
 70
    32
  0
VERTEX
  8
T36SSILL
 62
2
 10
3742.127
 20
-4997.225
 30
1583.670
 70
    32
  0
VERTEX
  8
T36SSILL
 62
2
 10
3735.509
 20
-5002.022
 30
1583.666
 70
    32
  0
VERTEX
  8
T36SSILL
 62
2
 10
3721.232
 20
-4985.241
 30
1583.666
 70
    32
  0
VERTEX
  8
T36SSILL
 62
2
 10
3706.750
 20
-4995.814
 30
1583.657
 70
    32
  0
VERTEX
  8
T36SSILL
 62
2
 10
3710.007
 20
-5002.700
 30
1583.656
 70
    32
  0
VERTEX
  8
T36SSILL
 62
2
 10
3711.930
 20
-5019.203
 30
1583.651
 70
    32
  0
SEQEND
  8
T36SSILL
  0
POLYLINE
  8
T36SSILL
 62
2
 66
     1
 70
     9
  0
VERTEX
  8
T36SSILL
 62
2
 10
3911.580
 20
-5212.275
 30
1583.642
 70
    32
  0
VERTEX
  8
T36SSILL
 62
2
 10
3897.490
 20
-5197.942
 30
1583.631
 70
    32
  0
VERTEX
  8
T36SSILL
 62
2
 10
3889.790
 20
-5204.551
 30
1583.627
 70
    32
  0
VERTEX
  8
T36SSILL
 62
2
 10
3899.137
 20
-5221.227
 30
1583.629
 70
    32
  0
VERTEX
  8
T36SSILL
 62
2
 10
3866.623
 20
-5244.237
 30
1583.608
 70
    32
  0
VERTEX
  8
T36SSILL
 62
2
 10
3853.407
 20
-5228.924
 30
1583.617
 70
    32
  0
VERTEX
  8
T36SSILL
 62
2
 10
3850.114
 20
-5217.483
 30
1583.621
 70
    32
  0
VERTEX
  8
T36SSILL
 62
2
 10
3851.609
 20
-5208.201
 30
1583.622
 70
    32
  0
VERTEX
  8
T36SSILL
 62
2
 10
3854.028
 20
-5202.969
 30
1583.623
 70
    32
  0
VERTEX
  8
T36SSILL
 62
2
 10
3862.059
 20
-5194.151
 30
1583.625
 70
    32
  0
VERTEX
  8
T36SSILL
 62
2
 10
3877.128
 20
-5182.966
 30
1583.633
 70
    32
  0
VERTEX
  8
T36SSILL
 62
2
 10
3880.169
 20
-5186.996
 30
1583.632
 70
    32
  0
VERTEX
  8
T36SSILL
 62
2
 10
3890.432
 20
-5180.626
 30
1583.637
 70
    32
  0
VERTEX
  8
T36SSILL
 62
2
 10
3887.651
 20
-5176.241
 30
1583.639
 70
    32
  0
VERTEX
  8
T36SSILL
 62
2
 10
3892.468
 20
-5172.485
 30
1583.641
 70
    32
  0
VERTEX
  8
T36SSILL
 62
2
 10
3913.220
 20
-5199.814
 30
1583.644
 70
    32
  0
VERTEX
  8
T36SSILL
 62
2
 10
3912.808
 20
-5211.557
 30
1583.644
 70
    32
  0
SEQEND
  8
T36SSILL
  0
POLYLINE
  8
T36SSILL
 62
2
 66
     1
 70
     9
  0
VERTEX
  8
T36SSILL
 62
2
 10
3932.785
 20
-5232.009
 30
1583.667
 70
    32
  0
VERTEX
  8
T36SSILL
 62
2
 10
3927.399
 20
-5231.887
 30
1583.661
 70
    32
  0
VERTEX
  8
T36SSILL
 62
2
 10
3918.697
 20
-5226.679
 30
1583.651
 70
    32
  0
VERTEX
  8
T36SSILL
 62
2
 10
3918.066
 20
-5225.361
 30
1583.650
 70
    32
  0
VERTEX
  8
T36SSILL
 62
2
 10
3920.343
 20
-5223.573
 30
1583.653
 70
    32
  0
VERTEX
  8
T36SSILL
 62
2
 10
3916.749
 20
-5217.254
 30
1583.648
 70
    32
  0
VERTEX
  8
T36SSILL
 62
2
 10
3922.446
 20
-5213.313
 30
1583.655
 70
    32
  0
VERTEX
  8
T36SSILL
 62
2
 10
3936.130
 20
-5231.181
 30
1583.671
 70
    32
  0
SEQEND
  8
T36SSILL
  0
POLYLINE
  8
T36SSILL
 62
2
 66
     1
 70
     9
  0
VERTEX
  8
T36SSILL
 62
2
 10
3979.391
 20
-4988.408
 30
1583.711
 70
    32
  0
VERTEX
  8
T36SSILL
 62
2
 10
3973.318
 20
-4993.097
 30
1583.703
 70
    32
  0
VERTEX
  8
T36SSILL
 62
2
 10
3969.587
 20
-4988.010
 30
1583.699
 70
    32
  0
VERTEX
  8
T36SSILL
 62
2
 10
3903.460
 20
-5035.360
 30
1583.704
 70
    32
  0
VERTEX
  8
T36SSILL
 62
2
 10
3906.566
 20
-5040.881
 30
1583.702
 70
    32
  0
VERTEX
  8
T36SSILL
 62
2
 10
3900.588
 20
-5045.130
 30
1583.699
 70
    32
  0
VERTEX
  8
T36SSILL
 62
2
 10
3897.292
 20
-5040.578
 30
1583.700
 70
    32
  0
VERTEX
  8
T36SSILL
 62
2
 10
3842.222
 20
-5080.656
 30
1583.670
 70
    32
  0
VERTEX
  8
T36SSILL
 62
2
 10
3845.610
 20
-5084.944
 30
1583.669
 70
    32
  0
VERTEX
  8
T36SSILL
 62
2
 10
3841.235
 20
-5088.242
 30
1583.667
 70
    32
  0
VERTEX
  8
T36SSILL
 62
2
 10
3863.183
 20
-5118.322
 30
1583.658
 70
    32
  0
VERTEX
  8
T36SSILL
 62
2
 10
3948.674
 20
-5057.184
 30
1583.704
 70
    32
  0
VERTEX
  8
T36SSILL
 62
2
 10
4007.957
 20
-5012.745
 30
1583.745
 70
    32
  0
VERTEX
  8
T36SSILL
 62
2
 10
3982.260
 20
-4978.903
 30
1583.716
 70
    32
  0
VERTEX
  8
T36SSILL
 62
2
 10
3975.656
 20
-4983.585
 30
1583.707
 70
    32
  0
SEQEND
  8
T36SSILL
  0
POLYLINE
  8
T36SSILL
 62
2
 66
     1
 70
     9
  0
VERTEX
  8
T36SSILL
 62
2
 10
3789.340
 20
-5077.879
 30
1583.683
 70
    32
  0
VERTEX
  8
T36SSILL
 62
2
 10
3780.621
 20
-5063.045
 30
1583.682
 70
    32
  0
VERTEX
  8
T36SSILL
 62
2
 10
3759.691
 20
-5078.288
 30
1583.673
 70
    32
  0
VERTEX
  8
T36SSILL
 62
2
 10
3766.736
 20
-5091.708
 30
1583.691
 70
    32
  0
VERTEX
  8
T36SSILL
 62
2
 10
3770.606
 20
-5102.477
 30
1583.694
 70
    32
  0
VERTEX
  8
T36SSILL
 62
2
 10
3736.431
 20
-5126.794
 30
1583.690
 70
    32
  0
VERTEX
  8
T36SSILL
 62
2
 10
3726.118
 20
-5116.900
 30
1583.672
 70
    32
  0
VERTEX
  8
T36SSILL
 62
2
 10
3719.159
 20
-5106.039
 30
1583.656
 70
    32
  0
VERTEX
  8
T36SSILL
 62
2
 10
3672.796
 20
-5139.696
 30
1583.637
 70
    32
  0
VERTEX
  8
T36SSILL
 62
2
 10
3727.261
 20
-5151.716
 30
1583.701
 70
    32
  0
VERTEX
  8
T36SSILL
 62
2
 10
3731.060
 20
-5151.430
 30
1583.705
 70
    32
  0
VERTEX
  8
T36SSILL
 62
2
 10
3745.150
 20
-5142.078
 30
1583.709
 70
    32
  0
VERTEX
  8
T36SSILL
 62
2
 10
3741.595
 20
-5137.081
 30
1583.704
 70
    32
  0
VERTEX
  8
T36SSILL
 62
2
 10
3736.425
 20
-5140.368
 30
1583.701
 70
    32
  0
VERTEX
  8
T36SSILL
 62
2
 10
3733.048
 20
-5135.285
 30
1583.694
 70
    32
  0
VERTEX
  8
T36SSILL
 62
2
 10
3757.496
 20
-5118.032
 30
1583.702
 70
    32
  0
VERTEX
  8
T36SSILL
 62
2
 10
3764.178
 20
-5127.049
 30
1583.696
 70
    32
  0
VERTEX
  8
T36SSILL
 62
2
 10
3779.789
 20
-5116.303
 30
1583.686
 70
    32
  0
VERTEX
  8
T36SSILL
 62
2
 10
3776.778
 20
-5110.253
 30
1583.689
 70
    32
  0
VERTEX
  8
T36SSILL
 62
2
 10
3782.403
 20
-5105.999
 30
1583.685
 70
    32
  0
VERTEX
  8
T36SSILL
 62
2
 10
3785.955
 20
-5111.262
 30
1583.682
 70
    32
  0
VERTEX
  8
T36SSILL
 62
2
 10
3808.169
 20
-5095.834
 30
1583.667
 70
    32
  0
VERTEX
  8
T36SSILL
 62
2
 10
3799.516
 20
-5082.179
 30
1583.675
 70
    32
  0
VERTEX
  8
T36SSILL
 62
2
 10
3795.597
 20
-5085.033
 30
1583.678
 70
    32
  0
VERTEX
  8
T36SSILL
 62
2
 10
3792.159
 20
-5082.118
 30
1583.681
 70
    32
  0
SEQEND
  8
T36SSILL
  0
POLYLINE
  8
T36SSILL
 62
2
 66
     1
 70
     9
  0
VERTEX
  8
T36SSILL
 62
2
 10
3857.501
 20
-5159.248
 30
1583.639
 70
    32
  0
VERTEX
  8
T36SSILL
 62
2
 10
3862.141
 20
-5162.405
 30
1583.639
 70
    32
  0
VERTEX
  8
T36SSILL
 62
2
 10
3877.321
 20
-5150.858
 30
1583.647
 70
    32
  0
VERTEX
  8
T36SSILL
 62
2
 10
3886.776
 20
-5163.889
 30
1583.644
 70
    32
  0
VERTEX
  8
T36SSILL
 62
2
 10
3853.024
 20
-5189.499
 30
1583.628
 70
    32
  0
VERTEX
  8
T36SSILL
 62
2
 10
3844.447
 20
-5202.814
 30
1583.627
 70
    32
  0
VERTEX
  8
T36SSILL
 62
2
 10
3842.144
 20
-5209.764
 30
1583.628
 70
    32
  0
VERTEX
  8
T36SSILL
 62
2
 10
3842.157
 20
-5215.243
 30
1583.627
 70
    32
  0
VERTEX
  8
T36SSILL
 62
2
 10
3830.404
 20
-5202.270
 30
1583.638
 70
    32
  0
VERTEX
  8
T36SSILL
 62
2
 10
3821.694
 20
-5186.421
 30
1583.646
 70
    32
  0
VERTEX
  8
T36SSILL
 62
2
 10
3815.844
 20
-5181.216
 30
1583.651
 70
    32
  0
VERTEX
  8
T36SSILL
 62
2
 10
3815.333
 20
-5179.795
 30
1583.652
 70
    32
  0
VERTEX
  8
T36SSILL
 62
2
 10
3816.413
 20
-5178.396
 30
1583.651
 70
    32
  0
VERTEX
  8
T36SSILL
 62
2
 10
3809.409
 20
-5167.077
 30
1583.658
 70
    32
  0
VERTEX
  8
T36SSILL
 62
2
 10
3843.578
 20
-5143.329
 30
1583.643
 70
    32
  0
VERTEX
  8
T36SSILL
 62
2
 10
3855.410
 20
-5157.011
 30
1583.640
 70
    32
  0
SEQEND
  8
T36SSILL
  0
POLYLINE
  8
T36SSILL
 62
2
 66
     1
 70
     9
  0
VERTEX
  8
T36SSILL
 62
2
 10
3714.530
 20
-5062.355
 30
1583.638
 70
    32
  0
VERTEX
  8
T36SSILL
 62
2
 10
3709.408
 20
-5066.232
 30
1583.635
 70
    32
  0
VERTEX
  8
T36SSILL
 62
2
 10
3705.619
 20
-5061.463
 30
1583.635
 70
    32
  0
VERTEX
  8
T36SSILL
 62
2
 10
3700.674
 20
-5064.723
 30
1583.632
 70
    32
  0
VERTEX
  8
T36SSILL
 62
2
 10
3696.532
 20
-5060.306
 30
1583.632
 70
    32
  0
VERTEX
  8
T36SSILL
 62
2
 10
3692.558
 20
-5063.037
 30
1583.630
 70
    32
  0
VERTEX
  8
T36SSILL
 62
2
 10
3683.227
 20
-5123.383
 30
1583.634
 70
    32
  0
VERTEX
  8
T36SSILL
 62
2
 10
3714.664
 20
-5100.916
 30
1583.647
 70
    32
  0
VERTEX
  8
T36SSILL
 62
2
 10
3704.455
 20
-5077.169
 30
1583.630
 70
    32
  0
VERTEX
  8
T36SSILL
 62
2
 10
3717.613
 20
-5067.565
 30
1583.638
 70
    32
  0
SEQEND
  8
T36SSILL
  0
POLYLINE
  8
T36SSILL
 62
2
 66
     1
 70
     9
  0
VERTEX
  8
T36SSILL
 62
2
 10
3585.888
 20
-5213.898
 30
1583.607
 70
    32
  0
VERTEX
  8
T36SSILL
 62
2
 10
3632.586
 20
-5276.864
 30
1583.559
 70
    32
  0
VERTEX
  8
T36SSILL
 62
2
 10
3636.466
 20
-5278.457
 30
1583.563
 70
    32
  0
VERTEX
  8
T36SSILL
 62
2
 10
3641.761
 20
-5278.374
 30
1583.575
 70
    32
  0
VERTEX
  8
T36SSILL
 62
2
 10
3645.823
 20
-5275.908
 30
1583.589
 70
    32
  0
VERTEX
  8
T36SSILL
 62
2
 10
3676.024
 20
-5254.057
 30
1583.704
 70
    32
  0
VERTEX
  8
T36SSILL
 62
2
 10
3673.029
 20
-5249.466
 30
1583.708
 70
    32
  0
VERTEX
  8
T36SSILL
 62
2
 10
3677.709
 20
-5246.824
 30
1583.724
 70
    32
  0
VERTEX
  8
T36SSILL
 62
2
 10
3663.964
 20
-5227.837
 30
1583.701
 70
    32
  0
VERTEX
  8
T36SSILL
 62
2
 10
3659.998
 20
-5224.039
 30
1583.694
 70
    32
  0
VERTEX
  8
T36SSILL
 62
2
 10
3636.893
 20
-5211.395
 30
1583.660
 70
    32
  0
VERTEX
  8
T36SSILL
 62
2
 10
3629.580
 20
-5201.504
 30
1583.645
 70
    32
  0
VERTEX
  8
T36SSILL
 62
2
 10
3612.300
 20
-5187.808
 30
1583.617
 70
    32
  0
VERTEX
  8
T36SSILL
 62
2
 10
3608.154
 20
-5186.921
 30
1583.612
 70
    32
  0
VERTEX
  8
T36SSILL
 62
2
 10
3586.077
 20
-5202.427
 30
1583.603
 70
    32
  0
VERTEX
  8
T36SSILL
 62
2
 10
3584.220
 20
-5205.425
 30
1583.603
 70
    32
  0
VERTEX
  8
T36SSILL
 62
2
 10
3584.920
 20
-5212.104
 30
1583.609
 70
    32
  0
SEQEND
  8
T36SSILL
  0
POLYLINE
  8
T36SSILL
 62
2
 66
     1
 70
     9
  0
VERTEX
  8
T36SSILL
 62
2
 10
3635.680
 20
-5191.187
 30
1583.643
 70
    32
  0
VERTEX
  8
T36SSILL
 62
2
 10
3636.918
 20
-5188.365
 30
1583.642
 70
    32
  0
VERTEX
  8
T36SSILL
 62
2
 10
3640.803
 20
-5186.251
 30
1583.644
 70
    32
  0
VERTEX
  8
T36SSILL
 62
2
 10
3651.566
 20
-5188.381
 30
1583.656
 70
    32
  0
VERTEX
  8
T36SSILL
 62
2
 10
3655.887
 20
-5190.591
 30
1583.662
 70
    32
  0
VERTEX
  8
T36SSILL
 62
2
 10
3661.782
 20
-5197.822
 30
1583.674
 70
    32
  0
VERTEX
  8
T36SSILL
 62
2
 10
3666.908
 20
-5198.633
 30
1583.680
 70
    32
  0
VERTEX
  8
T36SSILL
 62
2
 10
3665.507
 20
-5188.837
 30
1583.670
 70
    32
  0
VERTEX
  8
T36SSILL
 62
2
 10
3653.802
 20
-5160.323
 30
1583.635
 70
    32
  0
VERTEX
  8
T36SSILL
 62
2
 10
3646.480
 20
-5159.432
 30
1583.627
 70
    32
  0
VERTEX
  8
T36SSILL
 62
2
 10
3616.278
 20
-5180.842
 30
1583.615
 70
    32
  0
VERTEX
  8
T36SSILL
 62
2
 10
3628.708
 20
-5191.620
 30
1583.636
 70
    32
  0
VERTEX
  8
T36SSILL
 62
2
 10
3633.999
 20
-5194.450
 30
1583.644
 70
    32
  0
SEQEND
  8
T36SSILL
  0
POLYLINE
  8
T36SSILL
 62
2
 66
     1
 70
     9
  0
VERTEX
  8
T36SSILL
 62
2
 10
3720.071
 20
-5159.689
 30
1583.701
 70
    32
  0
VERTEX
  8
T36SSILL
 62
2
 10
3715.130
 20
-5159.243
 30
1583.695
 70
    32
  0
VERTEX
  8
T36SSILL
 62
2
 10
3665.025
 20
-5145.952
 30
1583.635
 70
    32
  0
VERTEX
  8
T36SSILL
 62
2
 10
3657.518
 20
-5151.768
 30
1583.632
 70
    32
  0
VERTEX
  8
T36SSILL
 62
2
 10
3672.039
 20
-5186.903
 30
1583.675
 70
    32
  0
VERTEX
  8
T36SSILL
 62
2
 10
3673.424
 20
-5211.435
 30
1583.697
 70
    32
  0
VERTEX
  8
T36SSILL
 62
2
 10
3695.629
 20
-5239.784
 30
1583.734
 70
    32
  0
VERTEX
  8
T36SSILL
 62
2
 10
3763.539
 20
-5191.150
 30
1583.689
 70
    32
  0
VERTEX
  8
T36SSILL
 62
2
 10
3754.736
 20
-5171.287
 30
1583.698
 70
    32
  0
VERTEX
  8
T36SSILL
 62
2
 10
3760.217
 20
-5162.469
 30
1583.695
 70
    32
  0
VERTEX
  8
T36SSILL
 62
2
 10
3749.203
 20
-5147.897
 30
1583.705
 70
    32
  0
VERTEX
  8
T36SSILL
 62
2
 10
3728.629
 20
-5160.405
 30
1583.710
 70
    32
  0
SEQEND
  8
T36SSILL
  0
POLYLINE
  8
T36SSILL
 62
2
 66
     1
 70
     9
  0
VERTEX
  8
T36SSILL
 62
2
 10
3774.176
 20
-5204.067
 30
1583.680
 70
    32
  0
VERTEX
  8
T36SSILL
 62
2
 10
3768.079
 20
-5197.533
 30
1583.685
 70
    32
  0
VERTEX
  8
T36SSILL
 62
2
 10
3700.072
 20
-5246.625
 30
1583.730
 70
    32
  0
VERTEX
  8
T36SSILL
 62
2
 10
3718.670
 20
-5256.687
 30
1583.702
 70
    32
  0
VERTEX
  8
T36SSILL
 62
2
 10
3701.326
 20
-5271.386
 30
1583.693
 70
    32
  0
VERTEX
  8
T36SSILL
 62
2
 10
3692.909
 20
-5266.499
 30
1583.707
 70
    32
  0
VERTEX
  8
T36SSILL
 62
2
 10
3683.838
 20
-5257.716
 30
1583.712
 70
    32
  0
VERTEX
  8
T36SSILL
 62
2
 10
3640.735
 20
-5288.589
 30
1583.548
 70
    32
  0
VERTEX
  8
T36SSILL
 62
2
 10
3685.569
 20
-5351.324
 30
1583.509
 70
    32
  0
VERTEX
  8
T36SSILL
 62
2
 10
3690.464
 20
-5355.278
 30
1583.523
 70
    32
  0
VERTEX
  8
T36SSILL
 62
2
 10
3693.985
 20
-5356.298
 30
1583.528
 70
    32
  0
VERTEX
  8
T36SSILL
 62
2
 10
3701.129
 20
-5357.279
 30
1583.537
 70
    32
  0
VERTEX
  8
T36SSILL
 62
2
 10
3710.165
 20
-5355.635
 30
1583.543
 70
    32
  0
VERTEX
  8
T36SSILL
 62
2
 10
3748.002
 20
-5328.667
 30
1583.568
 70
    32
  0
VERTEX
  8
T36SSILL
 62
2
 10
3715.932
 20
-5282.543
 30
1583.664
 70
    32
  0
VERTEX
  8
T36SSILL
 62
2
 10
3722.075
 20
-5279.180
 30
1583.664
 70
    32
  0
VERTEX
  8
T36SSILL
 62
2
 10
3753.183
 20
-5324.584
 30
1583.570
 70
    32
  0
VERTEX
  8
T36SSILL
 62
2
 10
3809.586
 20
-5283.906
 30
1583.588
 70
    32
  0
VERTEX
  8
T36SSILL
 62
2
 10
3813.086
 20
-5273.526
 30
1583.600
 70
    32
  0
VERTEX
  8
T36SSILL
 62
2
 10
3793.310
 20
-5226.685
 30
1583.663
 70
    32
  0
VERTEX
  8
T36SSILL
 62
2
 10
3799.805
 20
-5223.416
 30
1583.658
 70
    32
  0
VERTEX
  8
T36SSILL
 62
2
 10
3822.074
 20
-5275.415
 30
1583.592
 70
    32
  0
VERTEX
  8
T36SSILL
 62
2
 10
3850.273
 20
-5255.297
 30
1583.602
 70
    32
  0
VERTEX
  8
T36SSILL
 62
2
 10
3854.190
 20
-5246.690
 30
1583.609
 70
    32
  0
VERTEX
  8
T36SSILL
 62
2
 10
3852.612
 20
-5239.246
 30
1583.616
 70
    32
  0
VERTEX
  8
T36SSILL
 62
2
 10
3813.129
 20
-5192.402
 30
1583.652
 70
    32
  0
VERTEX
  8
T36SSILL
 62
2
 10
3810.499
 20
-5190.864
 30
1583.654
 70
    32
  0
VERTEX
  8
T36SSILL
 62
2
 10
3806.380
 20
-5201.324
 30
1583.656
 70
    32
  0
VERTEX
  8
T36SSILL
 62
2
 10
3785.761
 20
-5216.420
 30
1583.669
 70
    32
  0
VERTEX
  8
T36SSILL
 62
2
 10
3781.149
 20
-5211.143
 30
1583.674
 70
    32
  0
SEQEND
  8
T36SSILL
  0
POLYLINE
  8
T36SSILL
 62
2
 66
     1
 70
     9
  0
VERTEX
  8
T36SSILL
 62
2
 10
3338.561
 20
-6607.244
 30
1584.572
 70
    32
  0
VERTEX
  8
T36SSILL
 62
2
 10
3318.932
 20
-6620.615
 30
1584.568
 70
    32
  0
VERTEX
  8
T36SSILL
 62
2
 10
3342.300
 20
-6694.408
 30
1584.568
 70
    32
  0
VERTEX
  8
T36SSILL
 62
2
 10
3343.303
 20
-6723.987
 30
1584.567
 70
    32
  0
VERTEX
  8
T36SSILL
 62
2
 10
3355.373
 20
-6741.735
 30
1584.567
 70
    32
  0
VERTEX
  8
T36SSILL
 62
2
 10
3357.970
 20
-6747.960
 30
1584.567
 70
    32
  0
VERTEX
  8
T36SSILL
 62
2
 10
3356.757
 20
-6751.154
 30
1584.567
 70
    32
  0
VERTEX
  8
T36SSILL
 62
2
 10
3366.957
 20
-6772.228
 30
1584.568
 70
    32
  0
VERTEX
  8
T36SSILL
 62
2
 10
3378.828
 20
-6779.951
 30
1584.569
 70
    32
  0
VERTEX
  8
T36SSILL
 62
2
 10
3387.210
 20
-6794.689
 30
1584.569
 70
    32
  0
VERTEX
  8
T36SSILL
 62
2
 10
3393.267
 20
-6802.050
 30
1584.570
 70
    32
  0
VERTEX
  8
T36SSILL
 62
2
 10
3392.660
 20
-6810.600
 30
1584.569
 70
    32
  0
VERTEX
  8
T36SSILL
 62
2
 10
3424.303
 20
-6855.237
 30
1584.572
 70
    32
  0
VERTEX
  8
T36SSILL
 62
2
 10
3432.385
 20
-6863.978
 30
1584.572
 70
    32
  0
VERTEX
  8
T36SSILL
 62
2
 10
3441.953
 20
-6868.374
 30
1584.574
 70
    32
  0
VERTEX
  8
T36SSILL
 62
2
 10
3448.106
 20
-6868.609
 30
1584.574
 70
    32
  0
VERTEX
  8
T36SSILL
 62
2
 10
3457.286
 20
-6866.106
 30
1584.576
 70
    32
  0
VERTEX
  8
T36SSILL
 62
2
 10
3568.420
 20
-6785.871
 30
1584.596
 70
    32
  0
VERTEX
  8
T36SSILL
 62
2
 10
3576.020
 20
-6776.760
 30
1584.597
 70
    32
  0
VERTEX
  8
T36SSILL
 62
2
 10
3578.441
 20
-6770.056
 30
1584.598
 70
    32
  0
VERTEX
  8
T36SSILL
 62
2
 10
3578.948
 20
-6764.143
 30
1584.598
 70
    32
  0
VERTEX
  8
T36SSILL
 62
2
 10
3577.886
 20
-6756.427
 30
1584.599
 70
    32
  0
VERTEX
  8
T36SSILL
 62
2
 10
3576.296
 20
-6753.356
 30
1584.598
 70
    32
  0
VERTEX
  8
T36SSILL
 62
2
 10
3421.738
 20
-6538.549
 30
1584.587
 70
    32
  0
VERTEX
  8
T36SSILL
 62
2
 10
3409.832
 20
-6547.003
 30
1584.585
 70
    32
  0
VERTEX
  8
T36SSILL
 62
2
 10
3405.466
 20
-6538.686
 30
1584.585
 70
    32
  0
VERTEX
  8
T36SSILL
 62
2
 10
3410.011
 20
-6536.289
 30
1584.585
 70
    32
  0
VERTEX
  8
T36SSILL
 62
2
 10
3413.417
 20
-6527.299
 30
1584.586
 70
    32
  0
VERTEX
  8
T36SSILL
 62
2
 10
3351.182
 20
-6439.544
 30
1584.582
 70
    32
  0
VERTEX
  8
T36SSILL
 62
2
 10
3344.812
 20
-6487.063
 30
1584.578
 70
    32
  0
VERTEX
  8
T36SSILL
 62
2
 10
3294.222
 20
-6522.934
 30
1584.569
 70
    32
  0
VERTEX
  8
T36SSILL
 62
2
 10
3291.805
 20
-6536.908
 30
1584.568
 70
    32
  0
VERTEX
  8
T36SSILL
 62
2
 10
3316.524
 20
-6612.654
 30
1584.568
 70
    32
  0
VERTEX
  8
T36SSILL
 62
2
 10
3333.945
 20
-6601.073
 30
1584.571
 70
    32
  0
SEQEND
  8
T36SSILL
  0
POLYLINE
  8
T36SSILL
 62
2
 66
     1
 70
     9
  0
VERTEX
  8
T36SSILL
 62
2
 10
3356.341
 20
-6917.787
 30
1584.559
 70
    32
  0
VERTEX
  8
T36SSILL
 62
2
 10
3360.920
 20
-6920.074
 30
1584.559
 70
    32
  0
VERTEX
  8
T36SSILL
 62
2
 10
3365.603
 20
-6931.167
 30
1584.560
 70
    32
  0
VERTEX
  8
T36SSILL
 62
2
 10
3399.758
 20
-6907.100
 30
1584.566
 70
    32
  0
VERTEX
  8
T36SSILL
 62
2
 10
3350.813
 20
-6907.172
 30
1584.559
 70
    32
  0
SEQEND
  8
T36SSILL
  0
POLYLINE
  8
T36SSILL
 62
2
 66
     1
 70
     9
  0
VERTEX
  8
T36SSILL
 62
2
 10
3168.784
 20
-6142.845
 30
1584.561
 70
    32
  0
VERTEX
  8
T36SSILL
 62
2
 10
3177.281
 20
-6140.709
 30
1584.565
 70
    32
  0
VERTEX
  8
T36SSILL
 62
2
 10
3196.985
 20
-6126.726
 30
1584.573
 70
    32
  0
VERTEX
  8
T36SSILL
 62
2
 10
3202.614
 20
-6129.582
 30
1584.576
 70
    32
  0
VERTEX
  8
T36SSILL
 62
2
 10
3226.153
 20
-6105.965
 30
1584.580
 70
    32
  0
VERTEX
  8
T36SSILL
 62
2
 10
3271.324
 20
-6073.466
 30
1584.588
 70
    32
  0
VERTEX
  8
T36SSILL
 62
2
 10
3281.159
 20
-6070.939
 30
1584.590
 70
    32
  0
VERTEX
  8
T36SSILL
 62
2
 10
3295.430
 20
-6070.165
 30
1584.592
 70
    32
  0
VERTEX
  8
T36SSILL
 62
2
 10
3302.914
 20
-6071.520
 30
1584.593
 70
    32
  0
VERTEX
  8
T36SSILL
 62
2
 10
3312.192
 20
-6075.925
 30
1584.594
 70
    32
  0
VERTEX
  8
T36SSILL
 62
2
 10
3323.306
 20
-6084.527
 30
1584.595
 70
    32
  0
VERTEX
  8
T36SSILL
 62
2
 10
3375.985
 20
-6157.874
 30
1584.599
 70
    32
  0
VERTEX
  8
T36SSILL
 62
2
 10
3429.662
 20
-6271.193
 30
1584.601
 70
    32
  0
VERTEX
  8
T36SSILL
 62
2
 10
3433.299
 20
-6280.153
 30
1584.601
 70
    32
  0
VERTEX
  8
T36SSILL
 62
2
 10
3433.126
 20
-6288.105
 30
1584.601
 70
    32
  0
VERTEX
  8
T36SSILL
 62
2
 10
3430.134
 20
-6298.109
 30
1584.600
 70
    32
  0
VERTEX
  8
T36SSILL
 62
2
 10
3410.528
 20
-6312.461
 30
1584.596
 70
    32
  0
VERTEX
  8
T36SSILL
 62
2
 10
3394.045
 20
-6310.283
 30
1584.594
 70
    32
  0
VERTEX
  8
T36SSILL
 62
2
 10
3377.145
 20
-6305.185
 30
1584.592
 70
    32
  0
VERTEX
  8
T36SSILL
 62
2
 10
3375.393
 20
-6297.091
 30
1584.592
 70
    32
  0
VERTEX
  8
T36SSILL
 62
2
 10
3380.901
 20
-6281.182
 30
1584.594
 70
    32
  0
VERTEX
  8
T36SSILL
 62
2
 10
3379.438
 20
-6278.763
 30
1584.594
 70
    32
  0
VERTEX
  8
T36SSILL
 62
2
 10
3371.812
 20
-6275.037
 30
1584.593
 70
    32
  0
VERTEX
  8
T36SSILL
 62
2
 10
3367.727
 20
-6271.003
 30
1584.592
 70
    32
  0
VERTEX
  8
T36SSILL
 62
2
 10
3366.311
 20
-6271.126
 30
1584.592
 70
    32
  0
VERTEX
  8
T36SSILL
 62
2
 10
3354.683
 20
-6262.558
 30
1584.591
 70
    32
  0
VERTEX
  8
T36SSILL
 62
2
 10
3349.465
 20
-6256.734
 30
1584.590
 70
    32
  0
VERTEX
  8
T36SSILL
 62
2
 10
3338.552
 20
-6265.909
 30
1584.588
 70
    32
  0
VERTEX
  8
T36SSILL
 62
2
 10
3338.648
 20
-6267.131
 30
1584.588
 70
    32
  0
VERTEX
  8
T36SSILL
 62
2
 10
3348.131
 20
-6270.749
 30
1584.590
 70
    32
  0
VERTEX
  8
T36SSILL
 62
2
 10
3349.409
 20
-6272.438
 30
1584.590
 70
    32
  0
VERTEX
  8
T36SSILL
 62
2
 10
3351.309
 20
-6277.344
 30
1584.590
 70
    32
  0
VERTEX
  8
T36SSILL
 62
2
 10
3350.287
 20
-6284.382
 30
1584.589
 70
    32
  0
VERTEX
  8
T36SSILL
 62
2
 10
3352.871
 20
-6294.608
 30
1584.589
 70
    32
  0
VERTEX
  8
T36SSILL
 62
2
 10
3355.882
 20
-6301.426
 30
1584.589
 70
    32
  0
VERTEX
  8
T36SSILL
 62
2
 10
3367.179
 20
-6316.018
 30
1584.590
 70
    32
  0
VERTEX
  8
T36SSILL
 62
2
 10
3366.779
 20
-6318.227
 30
1584.590
 70
    32
  0
VERTEX
  8
T36SSILL
 62
2
 10
3325.230
 20
-6330.725
 30
1584.583
 70
    32
  0
VERTEX
  8
T36SSILL
 62
2
 10
3320.008
 20
-6335.419
 30
1584.582
 70
    32
  0
VERTEX
  8
T36SSILL
 62
2
 10
3306.388
 20
-6341.000
 30
1584.580
 70
    32
  0
VERTEX
  8
T36SSILL
 62
2
 10
3306.242
 20
-6352.975
 30
1584.580
 70
    32
  0
VERTEX
  8
T36SSILL
 62
2
 10
3309.435
 20
-6355.579
 30
1584.580
 70
    32
  0
VERTEX
  8
T36SSILL
 62
2
 10
3314.709
 20
-6354.389
 30
1584.581
 70
    32
  0
VERTEX
  8
T36SSILL
 62
2
 10
3316.311
 20
-6355.313
 30
1584.581
 70
    32
  0
VERTEX
  8
T36SSILL
 62
2
 10
3324.070
 20
-6366.524
 30
1584.581
 70
    32
  0
VERTEX
  8
T36SSILL
 62
2
 10
3328.921
 20
-6369.050
 30
1584.582
 70
    32
  0
VERTEX
  8
T36SSILL
 62
2
 10
3320.743
 20
-6368.827
 30
1584.581
 70
    32
  0
VERTEX
  8
T36SSILL
 62
2
 10
3310.869
 20
-6366.461
 30
1584.580
 70
    32
  0
VERTEX
  8
T36SSILL
 62
2
 10
3304.027
 20
-6361.676
 30
1584.579
 70
    32
  0
VERTEX
  8
T36SSILL
 62
2
 10
3297.797
 20
-6354.220
 30
1584.578
 70
    32
  0
VERTEX
  8
T36SSILL
 62
2
 10
3266.721
 20
-6309.168
 30
1584.576
 70
    32
  0
VERTEX
  8
T36SSILL
 62
2
 10
3273.845
 20
-6304.122
 30
1584.577
 70
    32
  0
VERTEX
  8
T36SSILL
 62
2
 10
3279.794
 20
-6317.808
 30
1584.577
 70
    32
  0
VERTEX
  8
T36SSILL
 62
2
 10
3283.433
 20
-6322.903
 30
1584.578
 70
    32
  0
VERTEX
  8
T36SSILL
 62
2
 10
3301.226
 20
-6327.519
 30
1584.580
 70
    32
  0
VERTEX
  8
T36SSILL
 62
2
 10
3303.836
 20
-6327.104
 30
1584.580
 70
    32
  0
VERTEX
  8
T36SSILL
 62
2
 10
3308.579
 20
-6322.958
 30
1584.581
 70
    32
  0
VERTEX
  8
T36SSILL
 62
2
 10
3310.264
 20
-6317.497
 30
1584.582
 70
    32
  0
VERTEX
  8
T36SSILL
 62
2
 10
3313.909
 20
-6313.468
 30
1584.583
 70
    32
  0
VERTEX
  8
T36SSILL
 62
2
 10
3315.617
 20
-6307.884
 30
1584.583
 70
    32
  0
VERTEX
  8
T36SSILL
 62
2
 10
3304.213
 20
-6292.830
 30
1584.582
 70
    32
  0
VERTEX
  8
T36SSILL
 62
2
 10
3297.461
 20
-6286.031
 30
1584.582
 70
    32
  0
VERTEX
  8
T36SSILL
 62
2
 10
3291.842
 20
-6282.416
 30
1584.581
 70
    32
  0
VERTEX
  8
T36SSILL
 62
2
 10
3282.925
 20
-6281.625
 30
1584.580
 70
    32
  0
VERTEX
  8
T36SSILL
 62
2
 10
3272.045
 20
-6273.825
 30
1584.579
 70
    32
  0
VERTEX
  8
T36SSILL
 62
2
 10
3261.841
 20
-6260.191
 30
1584.578
 70
    32
  0
VERTEX
  8
T36SSILL
 62
2
 10
3260.566
 20
-6256.032
 30
1584.578
 70
    32
  0
VERTEX
  8
T36SSILL
 62
2
 10
3257.228
 20
-6251.372
 30
1584.578
 70
    32
  0
VERTEX
  8
T36SSILL
 62
2
 10
3251.748
 20
-6245.945
 30
1584.577
 70
    32
  0
VERTEX
  8
T36SSILL
 62
2
 10
3248.262
 20
-6237.203
 30
1584.577
 70
    32
  0
VERTEX
  8
T36SSILL
 62
2
 10
3247.969
 20
-6233.221
 30
1584.577
 70
    32
  0
VERTEX
  8
T36SSILL
 62
2
 10
3239.075
 20
-6217.607
 30
1584.577
 70
    32
  0
VERTEX
  8
T36SSILL
 62
2
 10
3235.484
 20
-6217.844
 30
1584.576
 70
    32
  0
VERTEX
  8
T36SSILL
 62
2
 10
3231.170
 20
-6221.371
 30
1584.575
 70
    32
  0
VERTEX
  8
T36SSILL
 62
2
 10
3227.982
 20
-6233.023
 30
1584.574
 70
    32
  0
VERTEX
  8
T36SSILL
 62
2
 10
3230.089
 20
-6246.584
 30
1584.574
 70
    32
  0
VERTEX
  8
T36SSILL
 62
2
 10
3228.791
 20
-6249.201
 30
1584.574
 70
    32
  0
VERTEX
  8
T36SSILL
 62
2
 10
3211.782
 20
-6232.561
 30
1584.572
 70
    32
  0
VERTEX
  8
T36SSILL
 62
2
 10
3207.461
 20
-6226.329
 30
1584.572
 70
    32
  0
VERTEX
  8
T36SSILL
 62
2
 10
3216.056
 20
-6220.155
 30
1584.573
 70
    32
  0
VERTEX
  8
T36SSILL
 62
2
 10
3211.395
 20
-6214.052
 30
1584.573
 70
    32
  0
VERTEX
  8
T36SSILL
 62
2
 10
3203.168
 20
-6220.292
 30
1584.571
 70
    32
  0
VERTEX
  8
T36SSILL
 62
2
 10
3191.200
 20
-6203.805
 30
1584.570
 70
    32
  0
VERTEX
  8
T36SSILL
 62
2
 10
3236.290
 20
-6215.139
 30
1584.576
 70
    32
  0
VERTEX
  8
T36SSILL
 62
2
 10
3303.677
 20
-6167.116
 30
1584.588
 70
    32
  0
VERTEX
  8
T36SSILL
 62
2
 10
3298.875
 20
-6160.243
 30
1584.588
 70
    32
  0
VERTEX
  8
T36SSILL
 62
2
 10
3234.734
 20
-6206.239
 30
1584.577
 70
    32
  0
VERTEX
  8
T36SSILL
 62
2
 10
3185.149
 20
-6195.232
 30
1584.570
 70
    32
  0
VERTEX
  8
T36SSILL
 62
2
 10
3173.689
 20
-6178.393
 30
1584.569
 70
    32
  0
VERTEX
  8
T36SSILL
 62
2
 10
3175.550
 20
-6169.162
 30
1584.569
 70
    32
  0
VERTEX
  8
T36SSILL
 62
2
 10
3173.838
 20
-6161.122
 30
1584.567
 70
    32
  0
VERTEX
  8
T36SSILL
 62
2
 10
3167.973
 20
-6156.068
 30
1584.563
 70
    32
  0
VERTEX
  8
T36SSILL
 62
2
 10
3157.870
 20
-6142.580
 30
1584.555
 70
    32
  0
VERTEX
  8
T36SSILL
 62
2
 10
3165.315
 20
-6143.104
 30
1584.559
 70
    32
  0
SEQEND
  8
T36SSILL
  0
POLYLINE
  8
T36SSILL
 62
2
 66
     1
 70
     9
  0
VERTEX
  8
T36SSILL
 62
2
 10
2060.277
 20
-4456.224
 30
1583.210
 70
    32
  0
VERTEX
  8
T36SSILL
 62
2
 10
2115.145
 20
-4463.897
 30
1583.197
 70
    32
  0
VERTEX
  8
T36SSILL
 62
2
 10
2115.446
 20
-4468.683
 30
1583.194
 70
    32
  0
VERTEX
  8
T36SSILL
 62
2
 10
2112.047
 20
-4473.016
 30
1583.192
 70
    32
  0
VERTEX
  8
T36SSILL
 62
2
 10
1954.366
 20
-4584.476
 30
1583.146
 70
    32
  0
VERTEX
  8
T36SSILL
 62
2
 10
1940.799
 20
-4590.667
 30
1583.144
 70
    32
  0
VERTEX
  8
T36SSILL
 62
2
 10
1936.425
 20
-4584.376
 30
1583.149
 70
    32
  0
VERTEX
  8
T36SSILL
 62
2
 10
1940.149
 20
-4569.372
 30
1583.158
 70
    32
  0
VERTEX
  8
T36SSILL
 62
2
 10
1940.356
 20
-4562.785
 30
1583.162
 70
    32
  0
VERTEX
  8
T36SSILL
 62
2
 10
1962.342
 20
-4509.410
 30
1583.191
 70
    32
  0
VERTEX
  8
T36SSILL
 62
2
 10
1964.613
 20
-4501.481
 30
1583.195
 70
    32
  0
VERTEX
  8
T36SSILL
 62
2
 10
1969.461
 20
-4492.667
 30
1583.200
 70
    32
  0
VERTEX
  8
T36SSILL
 62
2
 10
1969.531
 20
-4487.658
 30
1583.203
 70
    32
  0
VERTEX
  8
T36SSILL
 62
2
 10
1974.846
 20
-4477.979
 30
1583.208
 70
    32
  0
VERTEX
  8
T36SSILL
 62
2
 10
1973.472
 20
-4471.342
 30
1583.213
 70
    32
  0
VERTEX
  8
T36SSILL
 62
2
 10
1979.559
 20
-4459.489
 30
1583.219
 70
    32
  0
VERTEX
  8
T36SSILL
 62
2
 10
1985.828
 20
-4455.818
 30
1583.220
 70
    32
  0
VERTEX
  8
T36SSILL
 62
2
 10
1994.149
 20
-4456.783
 30
1583.219
 70
    32
  0
VERTEX
  8
T36SSILL
 62
2
 10
2004.674
 20
-4460.367
 30
1583.215
 70
    32
  0
VERTEX
  8
T36SSILL
 62
2
 10
2008.545
 20
-4457.499
 30
1583.216
 70
    32
  0
VERTEX
  8
T36SSILL
 62
2
 10
2006.687
 20
-4455.067
 30
1583.218
 70
    32
  0
VERTEX
  8
T36SSILL
 62
2
 10
2012.885
 20
-4450.866
 30
1583.220
 70
    32
  0
VERTEX
  8
T36SSILL
 62
2
 10
2048.228
 20
-4456.373
 30
1583.211
 70
    32
  0
SEQEND
  8
T36SSILL
  0
POLYLINE
  8
T36SSILL
 62
2
 66
     1
 70
     9
  0
VERTEX
  8
T36SSILL
 62
2
 10
1977.676
 20
-4657.284
 30
1583.099
 70
    32
  0
VERTEX
  8
T36SSILL
 62
2
 10
2084.707
 20
-4769.149
 30
1583.015
 70
    32
  0
VERTEX
  8
T36SSILL
 62
2
 10
2090.698
 20
-4772.957
 30
1583.012
 70
    32
  0
VERTEX
  8
T36SSILL
 62
2
 10
2115.860
 20
-4782.447
 30
1583.018
 70
    32
  0
VERTEX
  8
T36SSILL
 62
2
 10
2119.317
 20
-4782.447
 30
1583.019
 70
    32
  0
VERTEX
  8
T36SSILL
 62
2
 10
2124.904
 20
-4778.442
 30
1583.015
 70
    32
  0
VERTEX
  8
T36SSILL
 62
2
 10
1980.572
 20
-4575.795
 30
1583.148
 70
    32
  0
VERTEX
  8
T36SSILL
 62
2
 10
1946.459
 20
-4600.779
 30
1583.137
 70
    32
  0
VERTEX
  8
T36SSILL
 62
2
 10
1947.073
 20
-4615.791
 30
1583.128
 70
    32
  0
VERTEX
  8
T36SSILL
 62
2
 10
1967.890
 20
-4647.805
 30
1583.106
 70
    32
  0
SEQEND
  8
T36SSILL
  0
POLYLINE
  8
T36SSILL
 62
2
 66
     1
 70
     9
  0
VERTEX
  8
T36SSILL
 62
2
 10
1740.702
 20
-4411.690
 30
1583.282
 70
    32
  0
VERTEX
  8
T36SSILL
 62
2
 10
1725.250
 20
-4409.317
 30
1583.286
 70
    32
  0
VERTEX
  8
T36SSILL
 62
2
 10
1660.484
 20
-4454.932
 30
1583.267
 70
    32
  0
VERTEX
  8
T36SSILL
 62
2
 10
1665.162
 20
-4460.776
 30
1583.263
 70
    32
  0
VERTEX
  8
T36SSILL
 62
2
 10
1659.761
 20
-4464.571
 30
1583.261
 70
    32
  0
VERTEX
  8
T36SSILL
 62
2
 10
1655.603
 20
-4458.550
 30
1583.266
 70
    32
  0
VERTEX
  8
T36SSILL
 62
2
 10
1651.912
 20
-4461.261
 30
1583.264
 70
    32
  0
VERTEX
  8
T36SSILL
 62
2
 10
1667.672
 20
-4492.324
 30
1583.243
 70
    32
  0
VERTEX
  8
T36SSILL
 62
2
 10
1694.665
 20
-4530.983
 30
1583.216
 70
    32
  0
VERTEX
  8
T36SSILL
 62
2
 10
1698.976
 20
-4532.564
 30
1583.214
 70
    32
  0
VERTEX
  8
T36SSILL
 62
2
 10
1703.568
 20
-4532.047
 30
1583.214
 70
    32
  0
VERTEX
  8
T36SSILL
 62
2
 10
1841.128
 20
-4433.337
 30
1583.255
 70
    32
  0
VERTEX
  8
T36SSILL
 62
2
 10
1839.249
 20
-4428.794
 30
1583.258
 70
    32
  0
VERTEX
  8
T36SSILL
 62
2
 10
1740.228
 20
-4415.836
 30
1583.280
 70
    32
  0
SEQEND
  8
T36SSILL
  0
POLYLINE
  8
T36SSILL
 62
2
 66
     1
 70
     9
  0
VERTEX
  8
T36SSILL
 62
2
 10
2564.031
 20
-5463.185
 30
1584.372
 70
    32
  0
VERTEX
  8
T36SSILL
 62
2
 10
2767.186
 20
-5780.568
 30
1584.392
 70
    32
  0
VERTEX
  8
T36SSILL
 62
2
 10
2792.221
 20
-5816.175
 30
1584.385
 70
    32
  0
VERTEX
  8
T36SSILL
 62
2
 10
2803.628
 20
-5834.586
 30
1584.383
 70
    32
  0
VERTEX
  8
T36SSILL
 62
2
 10
2813.860
 20
-5841.640
 30
1584.376
 70
    32
  0
VERTEX
  8
T36SSILL
 62
2
 10
2819.789
 20
-5847.939
 30
1584.373
 70
    32
  0
VERTEX
  8
T36SSILL
 62
2
 10
2845.173
 20
-5845.548
 30
1584.347
 70
    32
  0
VERTEX
  8
T36SSILL
 62
2
 10
2852.445
 20
-5850.689
 30
1584.347
 70
    32
  0
VERTEX
  8
T36SSILL
 62
2
 10
2856.811
 20
-5856.143
 30
1584.349
 70
    32
  0
VERTEX
  8
T36SSILL
 62
2
 10
2863.206
 20
-5865.565
 30
1584.354
 70
    32
  0
VERTEX
  8
T36SSILL
 62
2
 10
2867.195
 20
-5876.783
 30
1584.357
 70
    32
  0
VERTEX
  8
T36SSILL
 62
2
 10
2877.120
 20
-5881.249
 30
1584.363
 70
    32
  0
VERTEX
  8
T36SSILL
 62
2
 10
2885.870
 20
-5882.657
 30
1584.368
 70
    32
  0
VERTEX
  8
T36SSILL
 62
2
 10
2882.125
 20
-5889.920
 30
1584.366
 70
    32
  0
VERTEX
  8
T36SSILL
 62
2
 10
2876.996
 20
-5887.373
 30
1584.363
 70
    32
  0
VERTEX
  8
T36SSILL
 62
2
 10
2865.506
 20
-5887.132
 30
1584.357
 70
    32
  0
VERTEX
  8
T36SSILL
 62
2
 10
2847.695
 20
-5891.865
 30
1584.367
 70
    32
  0
VERTEX
  8
T36SSILL
 62
2
 10
2842.898
 20
-5896.093
 30
1584.374
 70
    32
  0
VERTEX
  8
T36SSILL
 62
2
 10
2851.071
 20
-5891.761
 30
1584.364
 70
    32
  0
VERTEX
  8
T36SSILL
 62
2
 10
2854.852
 20
-5897.303
 30
1584.363
 70
    32
  0
VERTEX
  8
T36SSILL
 62
2
 10
2851.735
 20
-5904.233
 30
1584.370
 70
    32
  0
VERTEX
  8
T36SSILL
 62
2
 10
2851.871
 20
-5909.959
 30
1584.372
 70
    32
  0
VERTEX
  8
T36SSILL
 62
2
 10
2890.075
 20
-5968.871
 30
1584.379
 70
    32
  0
VERTEX
  8
T36SSILL
 62
2
 10
2893.705
 20
-5969.128
 30
1584.381
 70
    32
  0
VERTEX
  8
T36SSILL
 62
2
 10
2902.955
 20
-5963.717
 30
1584.385
 70
    32
  0
VERTEX
  8
T36SSILL
 62
2
 10
2913.519
 20
-5977.545
 30
1584.393
 70
    32
  0
VERTEX
  8
T36SSILL
 62
2
 10
2945.282
 20
-6003.456
 30
1584.415
 70
    32
  0
VERTEX
  8
T36SSILL
 62
2
 10
2962.433
 20
-6072.932
 30
1584.436
 70
    32
  0
VERTEX
  8
T36SSILL
 62
2
 10
2973.047
 20
-6078.532
 30
1584.443
 70
    32
  0
VERTEX
  8
T36SSILL
 62
2
 10
2980.573
 20
-6091.257
 30
1584.449
 70
    32
  0
VERTEX
  8
T36SSILL
 62
2
 10
3017.318
 20
-6124.885
 30
1584.475
 70
    32
  0
VERTEX
  8
T36SSILL
 62
2
 10
3024.724
 20
-6133.598
 30
1584.480
 70
    32
  0
VERTEX
  8
T36SSILL
 62
2
 10
3031.078
 20
-6138.197
 30
1584.485
 70
    32
  0
VERTEX
  8
T36SSILL
 62
2
 10
3041.898
 20
-6154.541
 30
1584.493
 70
    32
  0
VERTEX
  8
T36SSILL
 62
2
 10
3052.634
 20
-6167.386
 30
1584.501
 70
    32
  0
VERTEX
  8
T36SSILL
 62
2
 10
3054.843
 20
-6170.688
 30
1584.503
 70
    32
  0
VERTEX
  8
T36SSILL
 62
2
 10
3053.024
 20
-6173.474
 30
1584.503
 70
    32
  0
VERTEX
  8
T36SSILL
 62
2
 10
3048.132
 20
-6176.798
 30
1584.500
 70
    32
  0
VERTEX
  8
T36SSILL
 62
2
 10
3058.442
 20
-6189.188
 30
1584.508
 70
    32
  0
VERTEX
  8
T36SSILL
 62
2
 10
3064.568
 20
-6212.060
 30
1584.515
 70
    32
  0
VERTEX
  8
T36SSILL
 62
2
 10
3078.730
 20
-6236.087
 30
1584.527
 70
    32
  0
VERTEX
  8
T36SSILL
 62
2
 10
3084.883
 20
-6242.552
 30
1584.532
 70
    32
  0
VERTEX
  8
T36SSILL
 62
2
 10
3092.414
 20
-6260.664
 30
1584.539
 70
    32
  0
VERTEX
  8
T36SSILL
 62
2
 10
3118.215
 20
-6282.995
 30
1584.556
 70
    32
  0
VERTEX
  8
T36SSILL
 62
2
 10
3124.450
 20
-6284.658
 30
1584.557
 70
    32
  0
VERTEX
  8
T36SSILL
 62
2
 10
3181.502
 20
-6243.362
 30
1584.567
 70
    32
  0
VERTEX
  8
T36SSILL
 62
2
 10
3185.932
 20
-6238.144
 30
1584.568
 70
    32
  0
VERTEX
  8
T36SSILL
 62
2
 10
3190.477
 20
-6229.843
 30
1584.569
 70
    32
  0
VERTEX
  8
T36SSILL
 62
2
 10
3191.420
 20
-6222.537
 30
1584.570
 70
    32
  0
VERTEX
  8
T36SSILL
 62
2
 10
3189.210
 20
-6212.696
 30
1584.570
 70
    32
  0
VERTEX
  8
T36SSILL
 62
2
 10
3187.105
 20
-6208.576
 30
1584.570
 70
    32
  0
VERTEX
  8
T36SSILL
 62
2
 10
3171.916
 20
-6187.133
 30
1584.568
 70
    32
  0
VERTEX
  8
T36SSILL
 62
2
 10
3132.629
 20
-6212.334
 30
1584.553
 70
    32
  0
VERTEX
  8
T36SSILL
 62
2
 10
3120.540
 20
-6206.660
 30
1584.545
 70
    32
  0
VERTEX
  8
T36SSILL
 62
2
 10
3108.764
 20
-6192.615
 30
1584.536
 70
    32
  0
VERTEX
  8
T36SSILL
 62
2
 10
3108.800
 20
-6189.263
 30
1584.536
 70
    32
  0
VERTEX
  8
T36SSILL
 62
2
 10
3102.246
 20
-6178.572
 30
1584.530
 70
    32
  0
VERTEX
  8
T36SSILL
 62
2
 10
3100.568
 20
-6172.439
 30
1584.528
 70
    32
  0
VERTEX
  8
T36SSILL
 62
2
 10
3127.106
 20
-6153.610
 30
1584.540
 70
    32
  0
VERTEX
  8
T36SSILL
 62
2
 10
3129.022
 20
-6150.028
 30
1584.540
 70
    32
  0
VERTEX
  8
T36SSILL
 62
2
 10
3129.659
 20
-6144.758
 30
1584.540
 70
    32
  0
VERTEX
  8
T36SSILL
 62
2
 10
3138.367
 20
-6140.759
 30
1584.544
 70
    32
  0
VERTEX
  8
T36SSILL
 62
2
 10
3047.238
 20
-6014.100
 30
1584.473
 70
    32
  0
VERTEX
  8
T36SSILL
 62
2
 10
3041.810
 20
-6017.900
 30
1584.470
 70
    32
  0
VERTEX
  8
T36SSILL
 62
2
 10
3033.962
 20
-6007.354
 30
1584.464
 70
    32
  0
VERTEX
  8
T36SSILL
 62
2
 10
3040.026
 20
-6003.257
 30
1584.467
 70
    32
  0
VERTEX
  8
T36SSILL
 62
2
 10
2980.826
 20
-5922.799
 30
1584.422
 70
    32
  0
VERTEX
  8
T36SSILL
 62
2
 10
2977.001
 20
-5925.569
 30
1584.421
 70
    32
  0
VERTEX
  8
T36SSILL
 62
2
 10
2970.862
 20
-5918.663
 30
1584.417
 70
    32
  0
VERTEX
  8
T36SSILL
 62
2
 10
2971.772
 20
-5917.809
 30
1584.417
 70
    32
  0
VERTEX
  8
T36SSILL
 62
2
 10
2970.150
 20
-5915.497
 30
1584.416
 70
    32
  0
VERTEX
  8
T36SSILL
 62
2
 10
2973.553
 20
-5912.670
 30
1584.417
 70
    32
  0
VERTEX
  8
T36SSILL
 62
2
 10
2928.603
 20
-5850.071
 30
1584.387
 70
    32
  0
VERTEX
  8
T36SSILL
 62
2
 10
2922.862
 20
-5854.548
 30
1584.385
 70
    32
  0
VERTEX
  8
T36SSILL
 62
2
 10
2918.169
 20
-5847.706
 30
1584.382
 70
    32
  0
VERTEX
  8
T36SSILL
 62
2
 10
2923.686
 20
-5843.224
 30
1584.384
 70
    32
  0
VERTEX
  8
T36SSILL
 62
2
 10
2609.189
 20
-5403.993
 30
1584.179
 70
    32
  0
VERTEX
  8
T36SSILL
 62
2
 10
2600.878
 20
-5397.755
 30
1584.166
 70
    32
  0
VERTEX
  8
T36SSILL
 62
2
 10
2599.549
 20
-5403.674
 30
1584.176
 70
    32
  0
VERTEX
  8
T36SSILL
 62
2
 10
2591.462
 20
-5402.797
 30
1584.172
 70
    32
  0
VERTEX
  8
T36SSILL
 62
2
 10
2592.209
 20
-5396.209
 30
1584.161
 70
    32
  0
VERTEX
  8
T36SSILL
 62
2
 10
2583.382
 20
-5397.803
 30
1584.162
 70
    32
  0
VERTEX
  8
T36SSILL
 62
2
 10
2547.137
 20
-5424.108
 30
1584.318
 70
    32
  0
VERTEX
  8
T36SSILL
 62
2
 10
2546.692
 20
-5434.487
 30
1584.359
 70
    32
  0
SEQEND
  8
T36SSILL
  0
POLYLINE
  8
T36SSILL
 62
2
 66
     1
 70
     9
  0
VERTEX
  8
T36SSILL
 62
2
 10
3136.155
 20
-6126.735
 30
1584.540
 70
    32
  0
VERTEX
  8
T36SSILL
 62
2
 10
3143.937
 20
-6130.996
 30
1584.545
 70
    32
  0
VERTEX
  8
T36SSILL
 62
2
 10
3154.290
 20
-6134.011
 30
1584.551
 70
    32
  0
VERTEX
  8
T36SSILL
 62
2
 10
3161.278
 20
-6134.960
 30
1584.555
 70
    32
  0
VERTEX
  8
T36SSILL
 62
2
 10
3172.241
 20
-6133.903
 30
1584.561
 70
    32
  0
VERTEX
  8
T36SSILL
 62
2
 10
3190.300
 20
-6120.953
 30
1584.569
 70
    32
  0
VERTEX
  8
T36SSILL
 62
2
 10
3187.280
 20
-6116.287
 30
1584.566
 70
    32
  0
VERTEX
  8
T36SSILL
 62
2
 10
3202.117
 20
-6105.034
 30
1584.573
 70
    32
  0
VERTEX
  8
T36SSILL
 62
2
 10
3205.266
 20
-6110.040
 30
1584.575
 70
    32
  0
VERTEX
  8
T36SSILL
 62
2
 10
3212.150
 20
-6105.267
 30
1584.578
 70
    32
  0
VERTEX
  8
T36SSILL
 62
2
 10
3203.861
 20
-6086.658
 30
1584.570
 70
    32
  0
VERTEX
  8
T36SSILL
 62
2
 10
3202.611
 20
-6085.164
 30
1584.570
 70
    32
  0
VERTEX
  8
T36SSILL
 62
2
 10
3184.711
 20
-6086.738
 30
1584.560
 70
    32
  0
VERTEX
  8
T36SSILL
 62
2
 10
3177.798
 20
-6089.922
 30
1584.557
 70
    32
  0
VERTEX
  8
T36SSILL
 62
2
 10
3174.039
 20
-6090.382
 30
1584.555
 70
    32
  0
VERTEX
  8
T36SSILL
 62
2
 10
3169.541
 20
-6069.037
 30
1584.549
 70
    32
  0
VERTEX
  8
T36SSILL
 62
2
 10
3149.368
 20
-6042.573
 30
1584.533
 70
    32
  0
VERTEX
  8
T36SSILL
 62
2
 10
3137.707
 20
-6050.980
 30
1584.528
 70
    32
  0
VERTEX
  8
T36SSILL
 62
2
 10
3154.684
 20
-6076.548
 30
1584.542
 70
    32
  0
VERTEX
  8
T36SSILL
 62
2
 10
3158.848
 20
-6098.339
 30
1584.548
 70
    32
  0
VERTEX
  8
T36SSILL
 62
2
 10
3167.521
 20
-6107.133
 30
1584.554
 70
    32
  0
VERTEX
  8
T36SSILL
 62
2
 10
3159.640
 20
-6113.563
 30
1584.551
 70
    32
  0
VERTEX
  8
T36SSILL
 62
2
 10
3155.531
 20
-6106.863
 30
1584.547
 70
    32
  0
VERTEX
  8
T36SSILL
 62
2
 10
3134.789
 20
-6088.089
 30
1584.533
 70
    32
  0
VERTEX
  8
T36SSILL
 62
2
 10
3117.272
 20
-6063.754
 30
1584.519
 70
    32
  0
VERTEX
  8
T36SSILL
 62
2
 10
3097.481
 20
-6064.922
 30
1584.509
 70
    32
  0
VERTEX
  8
T36SSILL
 62
2
 10
3093.217
 20
-6067.128
 30
1584.507
 70
    32
  0
SEQEND
  8
T36SSILL
  0
POLYLINE
  8
T36SSILL
 62
2
 66
     1
 70
     9
  0
VERTEX
  8
T36SSILL
 62
2
 10
3109.883
 20
-5968.448
 30
1584.499
 70
    32
  0
VERTEX
  8
T36SSILL
 62
2
 10
3104.456
 20
-5959.228
 30
1584.495
 70
    32
  0
VERTEX
  8
T36SSILL
 62
2
 10
3079.156
 20
-5977.521
 30
1584.484
 70
    32
  0
VERTEX
  8
T36SSILL
 62
2
 10
3091.637
 20
-6008.674
 30
1584.496
 70
    32
  0
VERTEX
  8
T36SSILL
 62
2
 10
3095.442
 20
-6012.151
 30
1584.499
 70
    32
  0
VERTEX
  8
T36SSILL
 62
2
 10
3096.901
 20
-6017.041
 30
1584.500
 70
    32
  0
VERTEX
  8
T36SSILL
 62
2
 10
3093.887
 20
-6020.741
 30
1584.499
 70
    32
  0
VERTEX
  8
T36SSILL
 62
2
 10
3071.603
 20
-6036.728
 30
1584.490
 70
    32
  0
VERTEX
  8
T36SSILL
 62
2
 10
3080.383
 20
-6048.773
 30
1584.497
 70
    32
  0
VERTEX
  8
T36SSILL
 62
2
 10
3083.999
 20
-6051.202
 30
1584.499
 70
    32
  0
VERTEX
  8
T36SSILL
 62
2
 10
3093.202
 20
-6054.263
 30
1584.504
 70
    32
  0
VERTEX
  8
T36SSILL
 62
2
 10
3100.686
 20
-6054.224
 30
1584.509
 70
    32
  0
VERTEX
  8
T36SSILL
 62
2
 10
3102.288
 20
-6056.225
 30
1584.510
 70
    32
  0
VERTEX
  8
T36SSILL
 62
2
 10
3105.160
 20
-6056.808
 30
1584.511
 70
    32
  0
VERTEX
  8
T36SSILL
 62
2
 10
3115.566
 20
-6056.031
 30
1584.517
 70
    32
  0
VERTEX
  8
T36SSILL
 62
2
 10
3119.134
 20
-6054.523
 30
1584.519
 70
    32
  0
VERTEX
  8
T36SSILL
 62
2
 10
3116.136
 20
-6041.688
 30
1584.515
 70
    32
  0
VERTEX
  8
T36SSILL
 62
2
 10
3123.627
 20
-6036.708
 30
1584.518
 70
    32
  0
VERTEX
  8
T36SSILL
 62
2
 10
3131.247
 20
-6046.769
 30
1584.524
 70
    32
  0
VERTEX
  8
T36SSILL
 62
2
 10
3144.618
 20
-6036.961
 30
1584.530
 70
    32
  0
VERTEX
  8
T36SSILL
 62
2
 10
3142.789
 20
-6021.169
 30
1584.526
 70
    32
  0
VERTEX
  8
T36SSILL
 62
2
 10
3135.083
 20
-6014.388
 30
1584.521
 70
    32
  0
VERTEX
  8
T36SSILL
 62
2
 10
3130.299
 20
-6008.262
 30
1584.517
 70
    32
  0
VERTEX
  8
T36SSILL
 62
2
 10
3120.853
 20
-5993.245
 30
1584.509
 70
    32
  0
VERTEX
  8
T36SSILL
 62
2
 10
3113.313
 20
-5976.799
 30
1584.502
 70
    32
  0
SEQEND
  8
T36SSILL
  0
POLYLINE
  8
T36SSILL
 62
2
 66
     1
 70
     9
  0
VERTEX
  8
T36SSILL
 62
2
 10
2582.795
 20
-5367.162
 30
1584.110
 70
    32
  0
VERTEX
  8
T36SSILL
 62
2
 10
2558.156
 20
-5332.659
 30
1584.046
 70
    32
  0
VERTEX
  8
T36SSILL
 62
2
 10
2556.790
 20
-5339.902
 30
1584.058
 70
    32
  0
VERTEX
  8
T36SSILL
 62
2
 10
2551.987
 20
-5351.309
 30
1584.076
 70
    32
  0
VERTEX
  8
T36SSILL
 62
2
 10
2550.187
 20
-5354.423
 30
1584.081
 70
    32
  0
VERTEX
  8
T36SSILL
 62
2
 10
2543.420
 20
-5359.538
 30
1584.088
 70
    32
  0
VERTEX
  8
T36SSILL
 62
2
 10
2547.790
 20
-5365.102
 30
1584.098
 70
    32
  0
VERTEX
  8
T36SSILL
 62
2
 10
2528.331
 20
-5379.958
 30
1584.183
 70
    32
  0
VERTEX
  8
T36SSILL
 62
2
 10
2523.603
 20
-5373.890
 30
1584.168
 70
    32
  0
VERTEX
  8
T36SSILL
 62
2
 10
2475.793
 20
-5408.164
 30
1584.372
 70
    32
  0
VERTEX
  8
T36SSILL
 62
2
 10
2471.269
 20
-5402.384
 30
1584.371
 70
    32
  0
VERTEX
  8
T36SSILL
 62
2
 10
2540.999
 20
-5351.837
 30
1584.074
 70
    32
  0
VERTEX
  8
T36SSILL
 62
2
 10
2546.271
 20
-5345.833
 30
1584.065
 70
    32
  0
VERTEX
  8
T36SSILL
 62
2
 10
2550.442
 20
-5331.086
 30
1584.041
 70
    32
  0
VERTEX
  8
T36SSILL
 62
2
 10
2548.598
 20
-5320.379
 30
1584.023
 70
    32
  0
VERTEX
  8
T36SSILL
 62
2
 10
2536.648
 20
-5303.190
 30
1583.991
 70
    32
  0
VERTEX
  8
T36SSILL
 62
2
 10
2534.475
 20
-5309.598
 30
1584.001
 70
    32
  0
VERTEX
  8
T36SSILL
 62
2
 10
2528.054
 20
-5320.095
 30
1584.017
 70
    32
  0
VERTEX
  8
T36SSILL
 62
2
 10
2504.098
 20
-5337.160
 30
1584.063
 70
    32
  0
VERTEX
  8
T36SSILL
 62
2
 10
2508.928
 20
-5343.372
 30
1584.078
 70
    32
  0
VERTEX
  8
T36SSILL
 62
2
 10
2502.694
 20
-5348.326
 30
1584.109
 70
    32
  0
VERTEX
  8
T36SSILL
 62
2
 10
2501.259
 20
-5347.827
 30
1584.109
 70
    32
  0
VERTEX
  8
T36SSILL
 62
2
 10
2499.403
 20
-5366.455
 30
1584.185
 70
    32
  0
VERTEX
  8
T36SSILL
 62
2
 10
2492.337
 20
-5371.456
 30
1584.217
 70
    32
  0
VERTEX
  8
T36SSILL
 62
2
 10
2488.927
 20
-5376.575
 30
1584.244
 70
    32
  0
VERTEX
  8
T36SSILL
 62
2
 10
2477.561
 20
-5383.755
 30
1584.293
 70
    32
  0
VERTEX
  8
T36SSILL
 62
2
 10
2464.036
 20
-5389.108
 30
1584.339
 70
    32
  0
VERTEX
  8
T36SSILL
 62
2
 10
2460.265
 20
-5384.851
 30
1584.329
 70
    32
  0
VERTEX
  8
T36SSILL
 62
2
 10
2459.326
 20
-5381.079
 30
1584.316
 70
    32
  0
VERTEX
  8
T36SSILL
 62
2
 10
2452.887
 20
-5374.274
 30
1584.302
 70
    32
  0
VERTEX
  8
T36SSILL
 62
2
 10
2388.300
 20
-5420.315
 30
1584.392
 70
    32
  0
VERTEX
  8
T36SSILL
 62
2
 10
2426.941
 20
-5474.448
 30
1584.401
 70
    32
  0
VERTEX
  8
T36SSILL
 62
2
 10
2437.636
 20
-5482.678
 30
1584.401
 70
    32
  0
VERTEX
  8
T36SSILL
 62
2
 10
2449.204
 20
-5483.579
 30
1584.399
 70
    32
  0
VERTEX
  8
T36SSILL
 62
2
 10
2457.638
 20
-5480.207
 30
1584.397
 70
    32
  0
VERTEX
  8
T36SSILL
 62
2
 10
2521.396
 20
-5433.454
 30
1584.371
 70
    32
  0
VERTEX
  8
T36SSILL
 62
2
 10
2518.410
 20
-5428.317
 30
1584.370
 70
    32
  0
VERTEX
  8
T36SSILL
 62
2
 10
2526.803
 20
-5422.376
 30
1584.350
 70
    32
  0
VERTEX
  8
T36SSILL
 62
2
 10
2519.589
 20
-5407.463
 30
1584.306
 70
    32
  0
VERTEX
  8
T36SSILL
 62
2
 10
2523.836
 20
-5402.772
 30
1584.280
 70
    32
  0
VERTEX
  8
T36SSILL
 62
2
 10
2526.811
 20
-5401.336
 30
1584.268
 70
    32
  0
VERTEX
  8
T36SSILL
 62
2
 10
2528.471
 20
-5402.326
 30
1584.269
 70
    32
  0
VERTEX
  8
T36SSILL
 62
2
 10
2539.401
 20
-5420.040
 30
1584.317
 70
    32
  0
VERTEX
  8
T36SSILL
 62
2
 10
2580.579
 20
-5390.481
 30
1584.149
 70
    32
  0
VERTEX
  8
T36SSILL
 62
2
 10
2584.387
 20
-5381.184
 30
1584.134
 70
    32
  0
VERTEX
  8
T36SSILL
 62
2
 10
2584.711
 20
-5375.220
 30
1584.124
 70
    32
  0
VERTEX
  8
T36SSILL
 62
2
 10
2583.391
 20
-5369.228
 30
1584.114
 70
    32
  0
SEQEND
  8
T36SSILL
  0
POLYLINE
  8
T36SSILL
 62
2
 66
     1
 70
     9
  0
VERTEX
  8
T36SSILL
 62
2
 10
2738.063
 20
-4958.510
 30
1583.461
 70
    32
  0
VERTEX
  8
T36SSILL
 62
2
 10
2796.197
 20
-4976.571
 30
1583.505
 70
    32
  0
VERTEX
  8
T36SSILL
 62
2
 10
2511.251
 20
-5152.467
 30
1583.731
 70
    32
  0
VERTEX
  8
T36SSILL
 62
2
 10
2484.015
 20
-5164.698
 30
1583.745
 70
    32
  0
VERTEX
  8
T36SSILL
 62
2
 10
2472.090
 20
-5172.149
 30
1583.754
 70
    32
  0
VERTEX
  8
T36SSILL
 62
2
 10
2463.714
 20
-5182.650
 30
1583.770
 70
    32
  0
VERTEX
  8
T36SSILL
 62
2
 10
2460.682
 20
-5194.053
 30
1583.788
 70
    32
  0
VERTEX
  8
T36SSILL
 62
2
 10
2180.790
 20
-4798.789
 30
1583.062
 70
    32
  0
VERTEX
  8
T36SSILL
 62
2
 10
2180.443
 20
-4791.519
 30
1583.051
 70
    32
  0
VERTEX
  8
T36SSILL
 62
2
 10
2182.920
 20
-4788.961
 30
1583.047
 70
    32
  0
VERTEX
  8
T36SSILL
 62
2
 10
2521.798
 20
-4894.652
 30
1583.303
 70
    32
  0
VERTEX
  8
T36SSILL
 62
2
 10
2669.243
 20
-4938.119
 30
1583.410
 70
    32
  0
VERTEX
  8
T36SSILL
 62
2
 10
2667.161
 20
-4945.275
 30
1583.421
 70
    32
  0
VERTEX
  8
T36SSILL
 62
2
 10
2676.346
 20
-4947.435
 30
1583.426
 70
    32
  0
VERTEX
  8
T36SSILL
 62
2
 10
2678.079
 20
-4941.075
 30
1583.417
 70
    32
  0
VERTEX
  8
T36SSILL
 62
2
 10
2694.954
 20
-4946.373
 30
1583.430
 70
    32
  0
VERTEX
  8
T36SSILL
 62
2
 10
2686.324
 20
-4967.234
 30
1583.462
 70
    32
  0
VERTEX
  8
T36SSILL
 62
2
 10
2698.073
 20
-4970.616
 30
1583.471
 70
    32
  0
VERTEX
  8
T36SSILL
 62
2
 10
2702.902
 20
-4948.186
 30
1583.435
 70
    32
  0
VERTEX
  8
T36SSILL
 62
2
 10
2730.378
 20
-4956.607
 30
1583.456
 70
    32
  0
VERTEX
  8
T36SSILL
 62
2
 10
2726.037
 20
-4970.655
 30
1583.478
 70
    32
  0
VERTEX
  8
T36SSILL
 62
2
 10
2735.489
 20
-4973.343
 30
1583.485
 70
    32
  0
VERTEX
  8
T36SSILL
 62
2
 10
2738.702
 20
-4963.006
 30
1583.468
 70
    32
  0
VERTEX
  8
T36SSILL
 62
2
 10
2737.452
 20
-4960.013
 30
1583.463
 70
    32
  0
SEQEND
  8
T36SSILL
  0
POLYLINE
  8
T36SSILL
 62
2
 66
     1
 70
     9
  0
VERTEX
  8
T36SSILL
 62
2
 10
2114.681
 20
-4951.259
 30
1583.300
 70
    32
  0
VERTEX
  8
T36SSILL
 62
2
 10
2164.537
 20
-4916.152
 30
1583.246
 70
    32
  0
VERTEX
  8
T36SSILL
 62
2
 10
2170.127
 20
-4877.855
 30
1583.183
 70
    32
  0
VERTEX
  8
T36SSILL
 62
2
 10
2120.128
 20
-4914.738
 30
1583.233
 70
    32
  0
VERTEX
  8
T36SSILL
 62
2
 10
2115.086
 20
-4948.541
 30
1583.289
 70
    32
  0
SEQEND
  8
T36SSILL
  0
POLYLINE
  8
T36SSILL
 62
2
 66
     1
 70
     9
  0
VERTEX
  8
T36SSILL
 62
2
 10
2172.135
 20
-4756.866
 30
1583.010
 70
    32
  0
VERTEX
  8
T36SSILL
 62
2
 10
2173.589
 20
-4763.844
 30
1583.007
 70
    32
  0
VERTEX
  8
T36SSILL
 62
2
 10
2172.858
 20
-4809.726
 30
1583.076
 70
    32
  0
VERTEX
  8
T36SSILL
 62
2
 10
2155.270
 20
-4821.948
 30
1583.089
 70
    32
  0
VERTEX
  8
T36SSILL
 62
2
 10
2084.737
 20
-4815.786
 30
1583.060
 70
    32
  0
VERTEX
  8
T36SSILL
 62
2
 10
2170.853
 20
-4753.302
 30
1583.013
 70
    32
  0
SEQEND
  8
T36SSILL
  0
POLYLINE
  8
T36SSILL
 62
2
 66
     1
 70
     9
  0
VERTEX
  8
T36SSILL
 62
2
 10
2058.881
 20
-4918.989
 30
1583.280
 70
    32
  0
VERTEX
  8
T36SSILL
 62
2
 10
2047.624
 20
-4922.383
 30
1583.314
 70
    32
  0
VERTEX
  8
T36SSILL
 62
2
 10
2033.296
 20
-4929.011
 30
1583.366
 70
    32
  0
VERTEX
  8
T36SSILL
 62
2
 10
2020.530
 20
-4937.104
 30
1583.421
 70
    32
  0
VERTEX
  8
T36SSILL
 62
2
 10
2018.744
 20
-4940.131
 30
1583.436
 70
    32
  0
VERTEX
  8
T36SSILL
 62
2
 10
2016.205
 20
-4953.485
 30
1583.493
 70
    32
  0
VERTEX
  8
T36SSILL
 62
2
 10
2004.219
 20
-4956.217
 30
1583.526
 70
    32
  0
VERTEX
  8
T36SSILL
 62
2
 10
1997.310
 20
-4959.502
 30
1583.551
 70
    32
  0
VERTEX
  8
T36SSILL
 62
2
 10
1977.484
 20
-4971.551
 30
1583.635
 70
    32
  0
VERTEX
  8
T36SSILL
 62
2
 10
1957.611
 20
-4986.294
 30
1583.729
 70
    32
  0
VERTEX
  8
T36SSILL
 62
2
 10
1956.227
 20
-4991.008
 30
1583.750
 70
    32
  0
VERTEX
  8
T36SSILL
 62
2
 10
1953.630
 20
-4993.990
 30
1583.767
 70
    32
  0
VERTEX
  8
T36SSILL
 62
2
 10
1945.631
 20
-4995.559
 30
1583.788
 70
    32
  0
VERTEX
  8
T36SSILL
 62
2
 10
1935.682
 20
-4999.506
 30
1583.821
 70
    32
  0
VERTEX
  8
T36SSILL
 62
2
 10
1934.900
 20
-5010.519
 30
1583.865
 70
    32
  0
VERTEX
  8
T36SSILL
 62
2
 10
1939.288
 20
-5018.581
 30
1583.888
 70
    32
  0
VERTEX
  8
T36SSILL
 62
2
 10
1939.431
 20
-5020.798
 30
1583.897
 70
    32
  0
VERTEX
  8
T36SSILL
 62
2
 10
1935.784
 20
-5024.582
 30
1583.918
 70
    32
  0
VERTEX
  8
T36SSILL
 62
2
 10
1930.721
 20
-5021.581
 30
1583.916
 70
    32
  0
VERTEX
  8
T36SSILL
 62
2
 10
1924.829
 20
-5020.543
 30
1583.923
 70
    32
  0
VERTEX
  8
T36SSILL
 62
2
 10
1899.268
 20
-5026.329
 30
1583.993
 70
    32
  0
VERTEX
  8
T36SSILL
 62
2
 10
1898.330
 20
-5019.073
 30
1583.967
 70
    32
  0
VERTEX
  8
T36SSILL
 62
2
 10
1890.737
 20
-4999.277
 30
1583.905
 70
    32
  0
VERTEX
  8
T36SSILL
 62
2
 10
1888.420
 20
-4988.414
 30
1583.867
 70
    32
  0
VERTEX
  8
T36SSILL
 62
2
 10
1893.548
 20
-4984.829
 30
1583.844
 70
    32
  0
VERTEX
  8
T36SSILL
 62
2
 10
1893.211
 20
-4982.648
 30
1583.836
 70
    32
  0
VERTEX
  8
T36SSILL
 62
2
 10
1888.980
 20
-4976.241
 30
1583.819
 70
    32
  0
VERTEX
  8
T36SSILL
 62
2
 10
1885.255
 20
-4967.451
 30
1583.792
 70
    32
  0
VERTEX
  8
T36SSILL
 62
2
 10
1883.884
 20
-4957.971
 30
1583.758
 70
    32
  0
VERTEX
  8
T36SSILL
 62
2
 10
1895.995
 20
-4949.603
 30
1583.703
 70
    32
  0
VERTEX
  8
T36SSILL
 62
2
 10
1899.548
 20
-4954.977
 30
1583.717
 70
    32
  0
VERTEX
  8
T36SSILL
 62
2
 10
1906.318
 20
-4949.915
 30
1583.685
 70
    32
  0
VERTEX
  8
T36SSILL
 62
2
 10
1902.502
 20
-4944.631
 30
1583.671
 70
    32
  0
VERTEX
  8
T36SSILL
 62
2
 10
1936.666
 20
-4921.182
 30
1583.517
 70
    32
  0
VERTEX
  8
T36SSILL
 62
2
 10
1941.533
 20
-4921.896
 30
1583.510
 70
    32
  0
VERTEX
  8
T36SSILL
 62
2
 10
1954.604
 20
-4935.955
 30
1583.540
 70
    32
  0
VERTEX
  8
T36SSILL
 62
2
 10
1994.159
 20
-4908.830
 30
1583.361
 70
    32
  0
VERTEX
  8
T36SSILL
 62
2
 10
2004.586
 20
-4903.188
 30
1583.320
 70
    32
  0
VERTEX
  8
T36SSILL
 62
2
 10
2010.538
 20
-4897.200
 30
1583.286
 70
    32
  0
VERTEX
  8
T36SSILL
 62
2
 10
2012.015
 20
-4896.958
 30
1583.282
 70
    32
  0
VERTEX
  8
T36SSILL
 62
2
 10
2012.787
 20
-4888.832
 30
1583.249
 70
    32
  0
VERTEX
  8
T36SSILL
 62
2
 10
2005.142
 20
-4876.944
 30
1583.218
 70
    32
  0
VERTEX
  8
T36SSILL
 62
2
 10
2010.118
 20
-4872.144
 30
1583.190
 70
    32
  0
VERTEX
  8
T36SSILL
 62
2
 10
2014.801
 20
-4870.006
 30
1583.173
 70
    32
  0
VERTEX
  8
T36SSILL
 62
2
 10
2016.907
 20
-4871.167
 30
1583.173
 70
    32
  0
VERTEX
  8
T36SSILL
 62
2
 10
2019.892
 20
-4876.089
 30
1583.187
 70
    32
  0
VERTEX
  8
T36SSILL
 62
2
 10
2022.909
 20
-4884.532
 30
1583.214
 70
    32
  0
VERTEX
  8
T36SSILL
 62
2
 10
2031.826
 20
-4881.264
 30
1583.184
 70
    32
  0
VERTEX
  8
T36SSILL
 62
2
 10
2044.880
 20
-4871.954
 30
1583.142
 70
    32
  0
VERTEX
  8
T36SSILL
 62
2
 10
2032.938
 20
-4852.267
 30
1583.106
 70
    32
  0
VERTEX
  8
T36SSILL
 62
2
 10
2072.078
 20
-4824.019
 30
1583.069
 70
    32
  0
VERTEX
  8
T36SSILL
 62
2
 10
2144.636
 20
-4830.074
 30
1583.098
 70
    32
  0
VERTEX
  8
T36SSILL
 62
2
 10
2125.875
 20
-4843.082
 30
1583.114
 70
    32
  0
VERTEX
  8
T36SSILL
 62
2
 10
2122.585
 20
-4837.617
 30
1583.104
 70
    32
  0
VERTEX
  8
T36SSILL
 62
2
 10
2110.470
 20
-4845.545
 30
1583.114
 70
    32
  0
VERTEX
  8
T36SSILL
 62
2
 10
2115.014
 20
-4851.492
 30
1583.125
 70
    32
  0
VERTEX
  8
T36SSILL
 62
2
 10
2027.936
 20
-4912.717
 30
1583.313
 70
    32
  0
VERTEX
  8
T36SSILL
 62
2
 10
2023.330
 20
-4907.704
 30
1583.303
 70
    32
  0
VERTEX
  8
T36SSILL
 62
2
 10
2018.906
 20
-4911.195
 30
1583.324
 70
    32
  0
VERTEX
  8
T36SSILL
 62
2
 10
2015.147
 20
-4906.422
 30
1583.313
 70
    32
  0
VERTEX
  8
T36SSILL
 62
2
 10
2010.496
 20
-4910.197
 30
1583.336
 70
    32
  0
VERTEX
  8
T36SSILL
 62
2
 10
2006.770
 20
-4905.176
 30
1583.324
 70
    32
  0
VERTEX
  8
T36SSILL
 62
2
 10
1986.947
 20
-4919.549
 30
1583.416
 70
    32
  0
VERTEX
  8
T36SSILL
 62
2
 10
1993.745
 20
-4929.315
 30
1583.441
 70
    32
  0
VERTEX
  8
T36SSILL
 62
2
 10
1979.469
 20
-4939.781
 30
1583.509
 70
    32
  0
VERTEX
  8
T36SSILL
 62
2
 10
1982.771
 20
-4944.682
 30
1583.521
 70
    32
  0
VERTEX
  8
T36SSILL
 62
2
 10
1922.483
 20
-4986.875
 30
1583.797
 70
    32
  0
VERTEX
  8
T36SSILL
 62
2
 10
1927.731
 20
-4992.727
 30
1583.810
 70
    32
  0
VERTEX
  8
T36SSILL
 62
2
 10
2002.278
 20
-4940.191
 30
1583.468
 70
    32
  0
VERTEX
  8
T36SSILL
 62
2
 10
2006.017
 20
-4944.648
 30
1583.478
 70
    32
  0
VERTEX
  8
T36SSILL
 62
2
 10
2035.186
 20
-4923.799
 30
1583.343
 70
    32
  0
VERTEX
  8
T36SSILL
 62
2
 10
2031.604
 20
-4919.111
 30
1583.331
 70
    32
  0
VERTEX
  8
T36SSILL
 62
2
 10
2173.366
 20
-4817.206
 30
1583.087
 70
    32
  0
VERTEX
  8
T36SSILL
 62
2
 10
2173.246
 20
-4868.384
 30
1583.168
 70
    32
  0
VERTEX
  8
T36SSILL
 62
2
 10
2166.876
 20
-4872.809
 30
1583.174
 70
    32
  0
VERTEX
  8
T36SSILL
 62
2
 10
2163.109
 20
-4867.154
 30
1583.163
 70
    32
  0
VERTEX
  8
T36SSILL
 62
2
 10
2152.327
 20
-4874.507
 30
1583.173
 70
    32
  0
VERTEX
  8
T36SSILL
 62
2
 10
2156.481
 20
-4880.087
 30
1583.184
 70
    32
  0
VERTEX
  8
T36SSILL
 62
2
 10
2083.810
 20
-4931.743
 30
1583.282
 70
    32
  0
VERTEX
  8
T36SSILL
 62
2
 10
2079.475
 20
-4925.636
 30
1583.267
 70
    32
  0
VERTEX
  8
T36SSILL
 62
2
 10
2073.792
 20
-4930.090
 30
1583.295
 70
    32
  0
VERTEX
  8
T36SSILL
 62
2
 10
2078.266
 20
-4936.090
 30
1583.309
 70
    32
  0
VERTEX
  8
T36SSILL
 62
2
 10
2076.867
 20
-4937.159
 30
1583.316
 70
    32
  0
VERTEX
  8
T36SSILL
 62
2
 10
2070.018
 20
-4935.301
 30
1583.322
 70
    32
  0
VERTEX
  8
T36SSILL
 62
2
 10
2067.179
 20
-4933.038
 30
1583.318
 70
    32
  0
VERTEX
  8
T36SSILL
 62
2
 10
2060.090
 20
-4922.165
 30
1583.290
 70
    32
  0
SEQEND
  8
T36SSILL
  0
POLYLINE
  8
T36SSILL
 62
2
 66
     1
 70
     9
  0
VERTEX
  8
T36SSILL
 62
2
 10
1848.617
 20
-5032.906
 30
1584.114
 70
    32
  0
VERTEX
  8
T36SSILL
 62
2
 10
1836.095
 20
-5025.076
 30
1584.107
 70
    32
  0
VERTEX
  8
T36SSILL
 62
2
 10
1832.629
 20
-5019.525
 30
1584.092
 70
    32
  0
VERTEX
  8
T36SSILL
 62
2
 10
1828.582
 20
-5015.969
 30
1584.086
 70
    32
  0
VERTEX
  8
T36SSILL
 62
2
 10
1822.114
 20
-5003.735
 30
1584.050
 70
    32
  0
VERTEX
  8
T36SSILL
 62
2
 10
1823.106
 20
-5000.538
 30
1584.036
 70
    32
  0
VERTEX
  8
T36SSILL
 62
2
 10
1832.037
 20
-5006.569
 30
1584.043
 70
    32
  0
VERTEX
  8
T36SSILL
 62
2
 10
1834.679
 20
-5004.661
 30
1584.030
 70
    32
  0
VERTEX
  8
T36SSILL
 62
2
 10
1830.325
 20
-4994.468
 30
1583.999
 70
    32
  0
VERTEX
  8
T36SSILL
 62
2
 10
1850.724
 20
-4981.428
 30
1583.911
 70
    32
  0
VERTEX
  8
T36SSILL
 62
2
 10
1855.289
 20
-4985.807
 30
1583.919
 70
    32
  0
VERTEX
  8
T36SSILL
 62
2
 10
1862.118
 20
-4989.233
 30
1583.919
 70
    32
  0
VERTEX
  8
T36SSILL
 62
2
 10
1873.343
 20
-4984.201
 30
1583.879
 70
    32
  0
VERTEX
  8
T36SSILL
 62
2
 10
1885.578
 20
-5011.087
 30
1583.960
 70
    32
  0
VERTEX
  8
T36SSILL
 62
2
 10
1890.890
 20
-5031.297
 30
1584.028
 70
    32
  0
VERTEX
  8
T36SSILL
 62
2
 10
1858.221
 20
-5053.159
 30
1584.174
 70
    32
  0
VERTEX
  8
T36SSILL
 62
2
 10
1854.717
 20
-5049.299
 30
1584.165
 70
    32
  0
VERTEX
  8
T36SSILL
 62
2
 10
1851.787
 20
-5036.910
 30
1584.123
 70
    32
  0
SEQEND
  8
T36SSILL
  0
POLYLINE
  8
T36SSILL
 62
2
 66
     1
 70
     9
  0
VERTEX
  8
T36SSILL
 62
2
 10
2266.399
 20
-5305.464
 30
1584.382
 70
    32
  0
VERTEX
  8
T36SSILL
 62
2
 10
2265.581
 20
-5309.875
 30
1584.383
 70
    32
  0
VERTEX
  8
T36SSILL
 62
2
 10
2257.752
 20
-5315.583
 30
1584.386
 70
    32
  0
VERTEX
  8
T36SSILL
 62
2
 10
2247.312
 20
-5315.018
 30
1584.388
 70
    32
  0
VERTEX
  8
T36SSILL
 62
2
 10
2242.201
 20
-5319.071
 30
1584.390
 70
    32
  0
VERTEX
  8
T36SSILL
 62
2
 10
2239.980
 20
-5319.165
 30
1584.391
 70
    32
  0
VERTEX
  8
T36SSILL
 62
2
 10
2238.593
 20
-5317.269
 30
1584.391
 70
    32
  0
VERTEX
  8
T36SSILL
 62
2
 10
2277.593
 20
-5287.325
 30
1584.294
 70
    32
  0
VERTEX
  8
T36SSILL
 62
2
 10
2270.680
 20
-5298.539
 30
1584.350
 70
    32
  0
SEQEND
  8
T36SSILL
  0
POLYLINE
  8
T36SSILL
 62
2
 66
     1
 70
     9
  0
VERTEX
  8
T36SSILL
 62
2
 10
2227.350
 20
-5346.248
 30
1584.401
 70
    32
  0
VERTEX
  8
T36SSILL
 62
2
 10
2223.029
 20
-5338.825
 30
1584.400
 70
    32
  0
VERTEX
  8
T36SSILL
 62
2
 10
2226.512
 20
-5337.921
 30
1584.399
 70
    32
  0
VERTEX
  8
T36SSILL
 62
2
 10
2233.079
 20
-5333.025
 30
1584.396
 70
    32
  0
VERTEX
  8
T36SSILL
 62
2
 10
2233.138
 20
-5322.190
 30
1584.393
 70
    32
  0
VERTEX
  8
T36SSILL
 62
2
 10
2232.154
 20
-5321.025
 30
1584.393
 70
    32
  0
VERTEX
  8
T36SSILL
 62
2
 10
2228.415
 20
-5323.206
 30
1584.394
 70
    32
  0
VERTEX
  8
T36SSILL
 62
2
 10
2214.743
 20
-5306.097
 30
1584.392
 70
    32
  0
VERTEX
  8
T36SSILL
 62
2
 10
2197.121
 20
-5318.689
 30
1584.399
 70
    32
  0
VERTEX
  8
T36SSILL
 62
2
 10
2200.664
 20
-5341.940
 30
1584.405
 70
    32
  0
VERTEX
  8
T36SSILL
 62
2
 10
2203.400
 20
-5344.197
 30
1584.405
 70
    32
  0
VERTEX
  8
T36SSILL
 62
2
 10
2206.013
 20
-5348.896
 30
1584.406
 70
    32
  0
VERTEX
  8
T36SSILL
 62
2
 10
2208.634
 20
-5349.816
 30
1584.406
 70
    32
  0
VERTEX
  8
T36SSILL
 62
2
 10
2217.302
 20
-5361.761
 30
1584.408
 70
    32
  0
VERTEX
  8
T36SSILL
 62
2
 10
2232.307
 20
-5378.552
 30
1584.410
 70
    32
  0
VERTEX
  8
T36SSILL
 62
2
 10
2242.181
 20
-5386.475
 30
1584.410
 70
    32
  0
VERTEX
  8
T36SSILL
 62
2
 10
2244.338
 20
-5386.755
 30
1584.410
 70
    32
  0
VERTEX
  8
T36SSILL
 62
2
 10
2253.387
 20
-5381.275
 30
1584.406
 70
    32
  0
VERTEX
  8
T36SSILL
 62
2
 10
2255.336
 20
-5382.465
 30
1584.406
 70
    32
  0
VERTEX
  8
T36SSILL
 62
2
 10
2290.237
 20
-5357.302
 30
1584.392
 70
    32
  0
VERTEX
  8
T36SSILL
 62
2
 10
2282.800
 20
-5337.980
 30
1584.388
 70
    32
  0
VERTEX
  8
T36SSILL
 62
2
 10
2283.363
 20
-5331.575
 30
1584.386
 70
    32
  0
VERTEX
  8
T36SSILL
 62
2
 10
2287.525
 20
-5329.958
 30
1584.385
 70
    32
  0
VERTEX
  8
T36SSILL
 62
2
 10
2335.077
 20
-5294.856
 30
1584.216
 70
    32
  0
VERTEX
  8
T36SSILL
 62
2
 10
2345.566
 20
-5304.758
 30
1584.234
 70
    32
  0
VERTEX
  8
T36SSILL
 62
2
 10
2349.441
 20
-5300.953
 30
1584.212
 70
    32
  0
VERTEX
  8
T36SSILL
 62
2
 10
2365.542
 20
-5302.404
 30
1584.188
 70
    32
  0
VERTEX
  8
T36SSILL
 62
2
 10
2378.155
 20
-5294.735
 30
1584.135
 70
    32
  0
VERTEX
  8
T36SSILL
 62
2
 10
2377.463
 20
-5289.899
 30
1584.117
 70
    32
  0
VERTEX
  8
T36SSILL
 62
2
 10
2385.188
 20
-5284.049
 30
1584.080
 70
    32
  0
VERTEX
  8
T36SSILL
 62
2
 10
2381.821
 20
-5278.982
 30
1584.067
 70
    32
  0
VERTEX
  8
T36SSILL
 62
2
 10
2386.344
 20
-5258.571
 30
1583.979
 70
    32
  0
VERTEX
  8
T36SSILL
 62
2
 10
2416.899
 20
-5237.386
 30
1583.850
 70
    32
  0
VERTEX
  8
T36SSILL
 62
2
 10
2437.631
 20
-5250.722
 30
1583.878
 70
    32
  0
VERTEX
  8
T36SSILL
 62
2
 10
2456.830
 20
-5235.561
 30
1583.857
 70
    32
  0
VERTEX
  8
T36SSILL
 62
2
 10
2460.411
 20
-5230.387
 30
1583.849
 70
    32
  0
VERTEX
  8
T36SSILL
 62
2
 10
2462.643
 20
-5222.142
 30
1583.836
 70
    32
  0
VERTEX
  8
T36SSILL
 62
2
 10
2460.677
 20
-5207.244
 30
1583.810
 70
    32
  0
VERTEX
  8
T36SSILL
 62
2
 10
2439.453
 20
-5177.585
 30
1583.755
 70
    32
  0
VERTEX
  8
T36SSILL
 62
2
 10
2438.423
 20
-5184.357
 30
1583.766
 70
    32
  0
VERTEX
  8
T36SSILL
 62
2
 10
2435.009
 20
-5192.506
 30
1583.779
 70
    32
  0
VERTEX
  8
T36SSILL
 62
2
 10
2430.173
 20
-5199.083
 30
1583.789
 70
    32
  0
VERTEX
  8
T36SSILL
 62
2
 10
2420.870
 20
-5207.067
 30
1583.800
 70
    32
  0
VERTEX
  8
T36SSILL
 62
2
 10
2419.639
 20
-5209.445
 30
1583.804
 70
    32
  0
VERTEX
  8
T36SSILL
 62
2
 10
2424.217
 20
-5214.828
 30
1583.814
 70
    32
  0
VERTEX
  8
T36SSILL
 62
2
 10
2407.911
 20
-5225.953
 30
1583.829
 70
    32
  0
VERTEX
  8
T36SSILL
 62
2
 10
2411.310
 20
-5231.214
 30
1583.839
 70
    32
  0
VERTEX
  8
T36SSILL
 62
2
 10
2406.230
 20
-5234.264
 30
1583.848
 70
    32
  0
VERTEX
  8
T36SSILL
 62
2
 10
2410.135
 20
-5239.919
 30
1583.863
 70
    32
  0
VERTEX
  8
T36SSILL
 62
2
 10
2383.598
 20
-5258.393
 30
1583.984
 70
    32
  0
VERTEX
  8
T36SSILL
 62
2
 10
2373.983
 20
-5242.512
 30
1583.941
 70
    32
  0
VERTEX
  8
T36SSILL
 62
2
 10
2323.389
 20
-5278.524
 30
1584.174
 70
    32
  0
VERTEX
  8
T36SSILL
 62
2
 10
2332.641
 20
-5293.907
 30
1584.217
 70
    32
  0
VERTEX
  8
T36SSILL
 62
2
 10
2281.479
 20
-5330.269
 30
1584.386
 70
    32
  0
VERTEX
  8
T36SSILL
 62
2
 10
2270.348
 20
-5315.991
 30
1584.384
 70
    32
  0
VERTEX
  8
T36SSILL
 62
2
 10
2262.370
 20
-5321.917
 30
1584.387
 70
    32
  0
VERTEX
  8
T36SSILL
 62
2
 10
2265.143
 20
-5334.393
 30
1584.391
 70
    32
  0
VERTEX
  8
T36SSILL
 62
2
 10
2264.371
 20
-5344.548
 30
1584.394
 70
    32
  0
VERTEX
  8
T36SSILL
 62
2
 10
2258.203
 20
-5347.301
 30
1584.396
 70
    32
  0
VERTEX
  8
T36SSILL
 62
2
 10
2239.706
 20
-5340.620
 30
1584.397
 70
    32
  0
SEQEND
  8
T36SSILL
  0
POLYLINE
  8
T36SSILL
 62
2
 66
     1
 70
     9
  0
VERTEX
  8
T36SSILL
 62
2
 10
2336.460
 20
-5218.853
 30
1583.919
 70
    32
  0
VERTEX
  8
T36SSILL
 62
2
 10
2339.756
 20
-5223.971
 30
1583.933
 70
    32
  0
VERTEX
  8
T36SSILL
 62
2
 10
2334.638
 20
-5227.583
 30
1583.956
 70
    32
  0
VERTEX
  8
T36SSILL
 62
2
 10
2340.959
 20
-5238.967
 30
1583.989
 70
    32
  0
VERTEX
  8
T36SSILL
 62
2
 10
2310.942
 20
-5259.800
 30
1584.125
 70
    32
  0
VERTEX
  8
T36SSILL
 62
2
 10
2319.126
 20
-5271.930
 30
1584.157
 70
    32
  0
VERTEX
  8
T36SSILL
 62
2
 10
2358.573
 20
-5244.699
 30
1583.978
 70
    32
  0
VERTEX
  8
T36SSILL
 62
2
 10
2351.593
 20
-5234.527
 30
1583.952
 70
    32
  0
VERTEX
  8
T36SSILL
 62
2
 10
2366.319
 20
-5223.028
 30
1583.880
 70
    32
  0
VERTEX
  8
T36SSILL
 62
2
 10
2371.455
 20
-5228.876
 30
1583.893
 70
    32
  0
VERTEX
  8
T36SSILL
 62
2
 10
2396.922
 20
-5209.983
 30
1583.799
 70
    32
  0
VERTEX
  8
T36SSILL
 62
2
 10
2400.756
 20
-5215.690
 30
1583.810
 70
    32
  0
VERTEX
  8
T36SSILL
 62
2
 10
2411.482
 20
-5205.417
 30
1583.795
 70
    32
  0
VERTEX
  8
T36SSILL
 62
2
 10
2424.879
 20
-5195.926
 30
1583.782
 70
    32
  0
VERTEX
  8
T36SSILL
 62
2
 10
2431.025
 20
-5186.132
 30
1583.767
 70
    32
  0
VERTEX
  8
T36SSILL
 62
2
 10
2432.335
 20
-5181.031
 30
1583.759
 70
    32
  0
VERTEX
  8
T36SSILL
 62
2
 10
2433.210
 20
-5170.721
 30
1583.742
 70
    32
  0
VERTEX
  8
T36SSILL
 62
2
 10
2431.977
 20
-5166.787
 30
1583.735
 70
    32
  0
VERTEX
  8
T36SSILL
 62
2
 10
2417.239
 20
-5143.586
 30
1583.692
 70
    32
  0
VERTEX
  8
T36SSILL
 62
2
 10
2413.622
 20
-5156.932
 30
1583.714
 70
    32
  0
VERTEX
  8
T36SSILL
 62
2
 10
2409.345
 20
-5165.719
 30
1583.728
 70
    32
  0
VERTEX
  8
T36SSILL
 62
2
 10
2405.949
 20
-5169.284
 30
1583.733
 70
    32
  0
VERTEX
  8
T36SSILL
 62
2
 10
2390.775
 20
-5180.019
 30
1583.747
 70
    32
  0
VERTEX
  8
T36SSILL
 62
2
 10
2393.475
 20
-5184.919
 30
1583.756
 70
    32
  0
VERTEX
  8
T36SSILL
 62
2
 10
2384.061
 20
-5193.089
 30
1583.768
 70
    32
  0
VERTEX
  8
T36SSILL
 62
2
 10
2396.193
 20
-5201.315
 30
1583.784
 70
    32
  0
VERTEX
  8
T36SSILL
 62
2
 10
2365.550
 20
-5222.543
 30
1583.879
 70
    32
  0
VERTEX
  8
T36SSILL
 62
2
 10
2345.121
 20
-5220.971
 30
1583.911
 70
    32
  0
VERTEX
  8
T36SSILL
 62
2
 10
2341.525
 20
-5215.187
 30
1583.896
 70
    32
  0
SEQEND
  8
T36SSILL
  0
POLYLINE
  8
T36SSILL
 62
2
 66
     1
 70
     9
  0
VERTEX
  8
T36SSILL
 62
2
 10
2345.570
 20
-5165.664
 30
1583.712
 70
    32
  0
VERTEX
  8
T36SSILL
 62
2
 10
2349.516
 20
-5161.983
 30
1583.707
 70
    32
  0
VERTEX
  8
T36SSILL
 62
2
 10
2340.762
 20
-5148.062
 30
1583.681
 70
    32
  0
VERTEX
  8
T36SSILL
 62
2
 10
2348.988
 20
-5142.440
 30
1583.673
 70
    32
  0
VERTEX
  8
T36SSILL
 62
2
 10
2363.871
 20
-5150.460
 30
1583.691
 70
    32
  0
VERTEX
  8
T36SSILL
 62
2
 10
2371.248
 20
-5148.368
 30
1583.689
 70
    32
  0
VERTEX
  8
T36SSILL
 62
2
 10
2370.403
 20
-5142.476
 30
1583.679
 70
    32
  0
VERTEX
  8
T36SSILL
 62
2
 10
2374.976
 20
-5135.989
 30
1583.669
 70
    32
  0
VERTEX
  8
T36SSILL
 62
2
 10
2379.098
 20
-5138.048
 30
1583.674
 70
    32
  0
VERTEX
  8
T36SSILL
 62
2
 10
2386.971
 20
-5130.369
 30
1583.663
 70
    32
  0
VERTEX
  8
T36SSILL
 62
2
 10
2381.869
 20
-5117.313
 30
1583.639
 70
    32
  0
VERTEX
  8
T36SSILL
 62
2
 10
2385.762
 20
-5101.815
 30
1583.614
 70
    32
  0
VERTEX
  8
T36SSILL
 62
2
 10
2405.761
 20
-5128.421
 30
1583.664
 70
    32
  0
VERTEX
  8
T36SSILL
 62
2
 10
2408.862
 20
-5134.363
 30
1583.675
 70
    32
  0
VERTEX
  8
T36SSILL
 62
2
 10
2409.028
 20
-5141.106
 30
1583.686
 70
    32
  0
VERTEX
  8
T36SSILL
 62
2
 10
2405.769
 20
-5154.678
 30
1583.708
 70
    32
  0
VERTEX
  8
T36SSILL
 62
2
 10
2400.007
 20
-5162.074
 30
1583.719
 70
    32
  0
VERTEX
  8
T36SSILL
 62
2
 10
2376.895
 20
-5178.959
 30
1583.742
 70
    32
  0
VERTEX
  8
T36SSILL
 62
2
 10
2352.795
 20
-5162.359
 30
1583.708
 70
    32
  0
VERTEX
  8
T36SSILL
 62
2
 10
2347.064
 20
-5167.863
 30
1583.716
 70
    32
  0
SEQEND
  8
T36SSILL
  0
POLYLINE
  8
T36SSILL
 62
2
 66
     1
 70
     9
  0
VERTEX
  8
T36SSILL
 62
2
 10
2374.367
 20
-5086.033
 30
1583.585
 70
    32
  0
VERTEX
  8
T36SSILL
 62
2
 10
2362.018
 20
-5067.988
 30
1583.551
 70
    32
  0
VERTEX
  8
T36SSILL
 62
2
 10
2360.724
 20
-5074.850
 30
1583.563
 70
    32
  0
VERTEX
  8
T36SSILL
 62
2
 10
2355.211
 20
-5084.604
 30
1583.578
 70
    32
  0
VERTEX
  8
T36SSILL
 62
2
 10
2365.456
 20
-5107.581
 30
1583.619
 70
    32
  0
VERTEX
  8
T36SSILL
 62
2
 10
2345.202
 20
-5120.954
 30
1583.636
 70
    32
  0
VERTEX
  8
T36SSILL
 62
2
 10
2354.188
 20
-5117.633
 30
1583.633
 70
    32
  0
VERTEX
  8
T36SSILL
 62
2
 10
2366.371
 20
-5115.304
 30
1583.632
 70
    32
  0
VERTEX
  8
T36SSILL
 62
2
 10
2376.520
 20
-5107.992
 30
1583.622
 70
    32
  0
VERTEX
  8
T36SSILL
 62
2
 10
2377.678
 20
-5101.677
 30
1583.612
 70
    32
  0
VERTEX
  8
T36SSILL
 62
2
 10
2377.179
 20
-5093.193
 30
1583.598
 70
    32
  0
SEQEND
  8
T36SSILL
  0
POLYLINE
  8
T36SSILL
 62
2
 66
     1
 70
     9
  0
VERTEX
  8
T36SSILL
 62
2
 10
2233.559
 20
-5213.694
 30
1584.092
 70
    32
  0
VERTEX
  8
T36SSILL
 62
2
 10
2227.385
 20
-5204.488
 30
1584.068
 70
    32
  0
VERTEX
  8
T36SSILL
 62
2
 10
2233.349
 20
-5200.224
 30
1584.040
 70
    32
  0
VERTEX
  8
T36SSILL
 62
2
 10
2232.865
 20
-5183.639
 30
1583.977
 70
    32
  0
VERTEX
  8
T36SSILL
 62
2
 10
2228.778
 20
-5175.681
 30
1583.954
 70
    32
  0
VERTEX
  8
T36SSILL
 62
2
 10
2240.610
 20
-5167.526
 30
1583.900
 70
    32
  0
VERTEX
  8
T36SSILL
 62
2
 10
2250.500
 20
-5168.723
 30
1583.886
 70
    32
  0
VERTEX
  8
T36SSILL
 62
2
 10
2252.268
 20
-5171.472
 30
1583.894
 70
    32
  0
VERTEX
  8
T36SSILL
 62
2
 10
2247.614
 20
-5174.807
 30
1583.915
 70
    32
  0
VERTEX
  8
T36SSILL
 62
2
 10
2256.098
 20
-5184.169
 30
1583.936
 70
    32
  0
VERTEX
  8
T36SSILL
 62
2
 10
2263.811
 20
-5178.165
 30
1583.898
 70
    32
  0
VERTEX
  8
T36SSILL
 62
2
 10
2269.444
 20
-5175.966
 30
1583.879
 70
    32
  0
VERTEX
  8
T36SSILL
 62
2
 10
2285.749
 20
-5162.065
 30
1583.795
 70
    32
  0
VERTEX
  8
T36SSILL
 62
2
 10
2293.318
 20
-5153.843
 30
1583.749
 70
    32
  0
VERTEX
  8
T36SSILL
 62
2
 10
2285.228
 20
-5145.287
 30
1583.731
 70
    32
  0
VERTEX
  8
T36SSILL
 62
2
 10
2284.291
 20
-5141.016
 30
1583.716
 70
    32
  0
VERTEX
  8
T36SSILL
 62
2
 10
2278.609
 20
-5139.480
 30
1583.721
 70
    32
  0
VERTEX
  8
T36SSILL
 62
2
 10
2306.741
 20
-5120.134
 30
1583.625
 70
    32
  0
VERTEX
  8
T36SSILL
 62
2
 10
2328.044
 20
-5131.778
 30
1583.650
 70
    32
  0
VERTEX
  8
T36SSILL
 62
2
 10
2344.955
 20
-5121.130
 30
1583.637
 70
    32
  0
VERTEX
  8
T36SSILL
 62
2
 10
2340.692
 20
-5131.445
 30
1583.653
 70
    32
  0
VERTEX
  8
T36SSILL
 62
2
 10
2342.024
 20
-5137.101
 30
1583.663
 70
    32
  0
VERTEX
  8
T36SSILL
 62
2
 10
2304.205
 20
-5164.029
 30
1583.768
 70
    32
  0
VERTEX
  8
T36SSILL
 62
2
 10
2300.508
 20
-5158.322
 30
1583.753
 70
    32
  0
VERTEX
  8
T36SSILL
 62
2
 10
2269.594
 20
-5180.948
 30
1583.898
 70
    32
  0
VERTEX
  8
T36SSILL
 62
2
 10
2272.653
 20
-5185.579
 30
1583.910
 70
    32
  0
SEQEND
  8
T36SSILL
  0
POLYLINE
  8
T36SSILL
 62
2
 66
     1
 70
     9
  0
VERTEX
  8
T36SSILL
 62
2
 10
2352.001
 20
-5076.197
 30
1583.563
 70
    32
  0
VERTEX
  8
T36SSILL
 62
2
 10
2349.704
 20
-5079.282
 30
1583.567
 70
    32
  0
VERTEX
  8
T36SSILL
 62
2
 10
2334.286
 20
-5060.701
 30
1583.532
 70
    32
  0
VERTEX
  8
T36SSILL
 62
2
 10
2275.487
 20
-5102.088
 30
1583.587
 70
    32
  0
VERTEX
  8
T36SSILL
 62
2
 10
2290.931
 20
-5105.911
 30
1583.597
 70
    32
  0
VERTEX
  8
T36SSILL
 62
2
 10
2302.567
 20
-5115.192
 30
1583.616
 70
    32
  0
VERTEX
  8
T36SSILL
 62
2
 10
2271.629
 20
-5137.062
 30
1583.724
 70
    32
  0
VERTEX
  8
T36SSILL
 62
2
 10
2268.017
 20
-5134.946
 30
1583.723
 70
    32
  0
VERTEX
  8
T36SSILL
 62
2
 10
2263.421
 20
-5136.907
 30
1583.739
 70
    32
  0
VERTEX
  8
T36SSILL
 62
2
 10
2260.052
 20
-5136.268
 30
1583.743
 70
    32
  0
VERTEX
  8
T36SSILL
 62
2
 10
2247.434
 20
-5121.642
 30
1583.710
 70
    32
  0
VERTEX
  8
T36SSILL
 62
2
 10
2242.133
 20
-5125.582
 30
1583.735
 70
    32
  0
VERTEX
  8
T36SSILL
 62
2
 10
2243.412
 20
-5128.705
 30
1583.745
 70
    32
  0
VERTEX
  8
T36SSILL
 62
2
 10
2235.695
 20
-5136.153
 30
1583.788
 70
    32
  0
VERTEX
  8
T36SSILL
 62
2
 10
2220.930
 20
-5145.109
 30
1583.850
 70
    32
  0
VERTEX
  8
T36SSILL
 62
2
 10
2235.602
 20
-5157.058
 30
1583.869
 70
    32
  0
VERTEX
  8
T36SSILL
 62
2
 10
2233.374
 20
-5163.858
 30
1583.900
 70
    32
  0
VERTEX
  8
T36SSILL
 62
2
 10
2223.785
 20
-5170.742
 30
1583.944
 70
    32
  0
VERTEX
  8
T36SSILL
 62
2
 10
2217.908
 20
-5163.487
 30
1583.927
 70
    32
  0
VERTEX
  8
T36SSILL
 62
2
 10
2209.286
 20
-5148.578
 30
1583.886
 70
    32
  0
VERTEX
  8
T36SSILL
 62
2
 10
2197.351
 20
-5157.033
 30
1583.941
 70
    32
  0
VERTEX
  8
T36SSILL
 62
2
 10
2186.199
 20
-5140.844
 30
1583.899
 70
    32
  0
VERTEX
  8
T36SSILL
 62
2
 10
2196.137
 20
-5133.692
 30
1583.853
 70
    32
  0
VERTEX
  8
T36SSILL
 62
2
 10
2200.007
 20
-5139.046
 30
1583.866
 70
    32
  0
VERTEX
  8
T36SSILL
 62
2
 10
2207.154
 20
-5136.798
 30
1583.844
 70
    32
  0
VERTEX
  8
T36SSILL
 62
2
 10
2218.129
 20
-5129.408
 30
1583.795
 70
    32
  0
VERTEX
  8
T36SSILL
 62
2
 10
2226.592
 20
-5118.730
 30
1583.738
 70
    32
  0
VERTEX
  8
T36SSILL
 62
2
 10
2224.378
 20
-5113.469
 30
1583.722
 70
    32
  0
VERTEX
  8
T36SSILL
 62
2
 10
2291.796
 20
-5065.135
 30
1583.529
 70
    32
  0
VERTEX
  8
T36SSILL
 62
2
 10
2307.023
 20
-4990.223
 30
1583.407
 70
    32
  0
VERTEX
  8
T36SSILL
 62
2
 10
2353.048
 20
-5055.671
 30
1583.528
 70
    32
  0
VERTEX
  8
T36SSILL
 62
2
 10
2354.380
 20
-5058.864
 30
1583.534
 70
    32
  0
VERTEX
  8
T36SSILL
 62
2
 10
2355.003
 20
-5067.365
 30
1583.548
 70
    32
  0
VERTEX
  8
T36SSILL
 62
2
 10
2353.014
 20
-5073.317
 30
1583.558
 70
    32
  0
SEQEND
  8
T36SSILL
  0
POLYLINE
  8
T36SSILL
 62
2
 66
     1
 70
     9
  0
VERTEX
  8
T36SSILL
 62
2
 10
2453.398
 20
-5336.470
 30
1584.155
 70
    32
  0
VERTEX
  8
T36SSILL
 62
2
 10
2465.652
 20
-5325.957
 30
1584.092
 70
    32
  0
VERTEX
  8
T36SSILL
 62
2
 10
2471.145
 20
-5323.476
 30
1584.072
 70
    32
  0
VERTEX
  8
T36SSILL
 62
2
 10
2473.827
 20
-5322.984
 30
1584.065
 70
    32
  0
VERTEX
  8
T36SSILL
 62
2
 10
2476.503
 20
-5324.012
 30
1584.064
 70
    32
  0
VERTEX
  8
T36SSILL
 62
2
 10
2481.658
 20
-5328.696
 30
1584.072
 70
    32
  0
VERTEX
  8
T36SSILL
 62
2
 10
2496.987
 20
-5333.536
 30
1584.062
 70
    32
  0
VERTEX
  8
T36SSILL
 62
2
 10
2518.021
 20
-5317.999
 30
1584.011
 70
    32
  0
VERTEX
  8
T36SSILL
 62
2
 10
2522.585
 20
-5312.063
 30
1584.002
 70
    32
  0
VERTEX
  8
T36SSILL
 62
2
 10
2526.700
 20
-5300.601
 30
1583.984
 70
    32
  0
VERTEX
  8
T36SSILL
 62
2
 10
2526.538
 20
-5290.435
 30
1583.967
 70
    32
  0
VERTEX
  8
T36SSILL
 62
2
 10
2501.598
 20
-5259.176
 30
1583.908
 70
    32
  0
VERTEX
  8
T36SSILL
 62
2
 10
2502.069
 20
-5261.981
 30
1583.913
 70
    32
  0
VERTEX
  8
T36SSILL
 62
2
 10
2500.292
 20
-5266.810
 30
1583.921
 70
    32
  0
VERTEX
  8
T36SSILL
 62
2
 10
2494.307
 20
-5276.241
 30
1583.935
 70
    32
  0
VERTEX
  8
T36SSILL
 62
2
 10
2458.088
 20
-5303.500
 30
1584.019
 70
    32
  0
VERTEX
  8
T36SSILL
 62
2
 10
2469.744
 20
-5319.814
 30
1584.060
 70
    32
  0
VERTEX
  8
T36SSILL
 62
2
 10
2444.130
 20
-5338.053
 30
1584.179
 70
    32
  0
VERTEX
  8
T36SSILL
 62
2
 10
2440.209
 20
-5332.820
 30
1584.166
 70
    32
  0
VERTEX
  8
T36SSILL
 62
2
 10
2435.133
 20
-5336.197
 30
1584.188
 70
    32
  0
VERTEX
  8
T36SSILL
 62
2
 10
2427.971
 20
-5325.467
 30
1584.160
 70
    32
  0
VERTEX
  8
T36SSILL
 62
2
 10
2356.373
 20
-5375.821
 30
1584.385
 70
    32
  0
VERTEX
  8
T36SSILL
 62
2
 10
2384.133
 20
-5415.040
 30
1584.392
 70
    32
  0
VERTEX
  8
T36SSILL
 62
2
 10
2455.975
 20
-5362.890
 30
1584.252
 70
    32
  0
VERTEX
  8
T36SSILL
 62
2
 10
2446.276
 20
-5349.952
 30
1584.221
 70
    32
  0
SEQEND
  8
T36SSILL
  0
POLYLINE
  8
T36SSILL
 62
2
 66
     1
 70
     9
  0
VERTEX
  8
T36SSILL
 62
2
 10
1994.088
 20
-5022.994
 30
1583.803
 70
    32
  0
VERTEX
  8
T36SSILL
 62
2
 10
2007.216
 20
-5015.098
 30
1583.748
 70
    32
  0
VERTEX
  8
T36SSILL
 62
2
 10
2018.427
 20
-5002.652
 30
1583.679
 70
    32
  0
VERTEX
  8
T36SSILL
 62
2
 10
2024.633
 20
-4997.577
 30
1583.648
 70
    32
  0
VERTEX
  8
T36SSILL
 62
2
 10
2046.364
 20
-4985.846
 30
1583.561
 70
    32
  0
VERTEX
  8
T36SSILL
 62
2
 10
2088.331
 20
-4958.541
 30
1583.377
 70
    32
  0
VERTEX
  8
T36SSILL
 62
2
 10
2089.908
 20
-4953.789
 30
1583.356
 70
    32
  0
VERTEX
  8
T36SSILL
 62
2
 10
2089.613
 20
-4950.358
 30
1583.343
 70
    32
  0
VERTEX
  8
T36SSILL
 62
2
 10
2086.457
 20
-4938.253
 30
1583.302
 70
    32
  0
VERTEX
  8
T36SSILL
 62
2
 10
2110.025
 20
-4921.240
 30
1583.241
 70
    32
  0
VERTEX
  8
T36SSILL
 62
2
 10
2102.512
 20
-4961.002
 30
1583.360
 70
    32
  0
VERTEX
  8
T36SSILL
 62
2
 10
2097.006
 20
-4963.658
 30
1583.381
 70
    32
  0
VERTEX
  8
T36SSILL
 62
2
 10
2092.088
 20
-4957.221
 30
1583.365
 70
    32
  0
VERTEX
  8
T36SSILL
 62
2
 10
2081.647
 20
-4965.311
 30
1583.416
 70
    32
  0
VERTEX
  8
T36SSILL
 62
2
 10
2085.154
 20
-4971.496
 30
1583.433
 70
    32
  0
VERTEX
  8
T36SSILL
 62
2
 10
2050.570
 20
-4994.808
 30
1583.588
 70
    32
  0
VERTEX
  8
T36SSILL
 62
2
 10
2046.138
 20
-4988.672
 30
1583.573
 70
    32
  0
VERTEX
  8
T36SSILL
 62
2
 10
1991.570
 20
-5027.818
 30
1583.826
 70
    32
  0
SEQEND
  8
T36SSILL
  0
POLYLINE
  8
T36SSILL
 62
2
 66
     1
 70
     9
  0
VERTEX
  8
T36SSILL
 62
2
 10
2121.452
 20
-5062.926
 30
1583.719
 70
    32
  0
VERTEX
  8
T36SSILL
 62
2
 10
2052.403
 20
-5111.519
 30
1584.036
 70
    32
  0
VERTEX
  8
T36SSILL
 62
2
 10
2057.629
 20
-5117.816
 30
1584.051
 70
    32
  0
VERTEX
  8
T36SSILL
 62
2
 10
2091.211
 20
-5094.416
 30
1583.897
 70
    32
  0
VERTEX
  8
T36SSILL
 62
2
 10
2102.555
 20
-5110.610
 30
1583.939
 70
    32
  0
VERTEX
  8
T36SSILL
 62
2
 10
2064.779
 20
-5137.553
 30
1584.113
 70
    32
  0
VERTEX
  8
T36SSILL
 62
2
 10
2072.404
 20
-5160.872
 30
1584.189
 70
    32
  0
VERTEX
  8
T36SSILL
 62
2
 10
2011.732
 20
-5205.463
 30
1584.401
 70
    32
  0
VERTEX
  8
T36SSILL
 62
2
 10
2016.009
 20
-5211.060
 30
1584.402
 70
    32
  0
VERTEX
  8
T36SSILL
 62
2
 10
2069.726
 20
-5172.448
 30
1584.239
 70
    32
  0
VERTEX
  8
T36SSILL
 62
2
 10
2083.889
 20
-5190.547
 30
1584.283
 70
    32
  0
VERTEX
  8
T36SSILL
 62
2
 10
2098.335
 20
-5179.703
 30
1584.214
 70
    32
  0
VERTEX
  8
T36SSILL
 62
2
 10
2102.501
 20
-5191.336
 30
1584.251
 70
    32
  0
VERTEX
  8
T36SSILL
 62
2
 10
2096.053
 20
-5195.879
 30
1584.280
 70
    32
  0
VERTEX
  8
T36SSILL
 62
2
 10
2100.193
 20
-5201.262
 30
1584.293
 70
    32
  0
VERTEX
  8
T36SSILL
 62
2
 10
2106.112
 20
-5198.137
 30
1584.270
 70
    32
  0
VERTEX
  8
T36SSILL
 62
2
 10
2111.302
 20
-5199.325
 30
1584.265
 70
    32
  0
VERTEX
  8
T36SSILL
 62
2
 10
2138.965
 20
-5179.704
 30
1584.138
 70
    32
  0
VERTEX
  8
T36SSILL
 62
2
 10
2143.078
 20
-5175.179
 30
1584.112
 70
    32
  0
VERTEX
  8
T36SSILL
 62
2
 10
2158.435
 20
-5169.042
 30
1584.060
 70
    32
  0
VERTEX
  8
T36SSILL
 62
2
 10
2168.958
 20
-5160.336
 30
1584.007
 70
    32
  0
VERTEX
  8
T36SSILL
 62
2
 10
2173.140
 20
-5165.229
 30
1584.018
 70
    32
  0
VERTEX
  8
T36SSILL
 62
2
 10
2186.726
 20
-5155.145
 30
1583.953
 70
    32
  0
VERTEX
  8
T36SSILL
 62
2
 10
2191.158
 20
-5161.544
 30
1583.970
 70
    32
  0
VERTEX
  8
T36SSILL
 62
2
 10
2112.277
 20
-5217.834
 30
1584.335
 70
    32
  0
VERTEX
  8
T36SSILL
 62
2
 10
2115.575
 20
-5235.926
 30
1584.390
 70
    32
  0
VERTEX
  8
T36SSILL
 62
2
 10
2122.563
 20
-5241.446
 30
1584.390
 70
    32
  0
VERTEX
  8
T36SSILL
 62
2
 10
2089.267
 20
-5265.450
 30
1584.404
 70
    32
  0
VERTEX
  8
T36SSILL
 62
2
 10
2085.492
 20
-5257.031
 30
1584.402
 70
    32
  0
VERTEX
  8
T36SSILL
 62
2
 10
2077.840
 20
-5245.259
 30
1584.400
 70
    32
  0
VERTEX
  8
T36SSILL
 62
2
 10
2082.799
 20
-5241.470
 30
1584.398
 70
    32
  0
VERTEX
  8
T36SSILL
 62
2
 10
2082.991
 20
-5231.571
 30
1584.395
 70
    32
  0
VERTEX
  8
T36SSILL
 62
2
 10
2080.900
 20
-5222.309
 30
1584.393
 70
    32
  0
VERTEX
  8
T36SSILL
 62
2
 10
2073.907
 20
-5204.603
 30
1584.356
 70
    32
  0
VERTEX
  8
T36SSILL
 62
2
 10
2065.011
 20
-5208.187
 30
1584.386
 70
    32
  0
VERTEX
  8
T36SSILL
 62
2
 10
2051.553
 20
-5207.833
 30
1584.394
 70
    32
  0
VERTEX
  8
T36SSILL
 62
2
 10
2036.948
 20
-5218.884
 30
1584.400
 70
    32
  0
VERTEX
  8
T36SSILL
 62
2
 10
2042.545
 20
-5228.237
 30
1584.402
 70
    32
  0
VERTEX
  8
T36SSILL
 62
2
 10
2028.145
 20
-5238.687
 30
1584.407
 70
    32
  0
VERTEX
  8
T36SSILL
 62
2
 10
2028.882
 20
-5251.976
 30
1584.411
 70
    32
  0
VERTEX
  8
T36SSILL
 62
2
 10
2031.346
 20
-5265.496
 30
1584.413
 70
    32
  0
VERTEX
  8
T36SSILL
 62
2
 10
2036.918
 20
-5275.417
 30
1584.413
 70
    32
  0
VERTEX
  8
T36SSILL
 62
2
 10
2030.776
 20
-5282.443
 30
1584.415
 70
    32
  0
VERTEX
  8
T36SSILL
 62
2
 10
2027.787
 20
-5290.712
 30
1584.416
 70
    32
  0
VERTEX
  8
T36SSILL
 62
2
 10
2033.494
 20
-5300.645
 30
1584.417
 70
    32
  0
VERTEX
  8
T36SSILL
 62
2
 10
2061.023
 20
-5326.373
 30
1584.417
 70
    32
  0
VERTEX
  8
T36SSILL
 62
2
 10
2064.389
 20
-5324.687
 30
1584.417
 70
    32
  0
VERTEX
  8
T36SSILL
 62
2
 10
2069.108
 20
-5324.627
 30
1584.417
 70
    32
  0
VERTEX
  8
T36SSILL
 62
2
 10
2072.606
 20
-5321.954
 30
1584.416
 70
    32
  0
VERTEX
  8
T36SSILL
 62
2
 10
2080.455
 20
-5311.634
 30
1584.414
 70
    32
  0
VERTEX
  8
T36SSILL
 62
2
 10
2083.849
 20
-5311.145
 30
1584.414
 70
    32
  0
VERTEX
  8
T36SSILL
 62
2
 10
2100.297
 20
-5291.484
 30
1584.409
 70
    32
  0
VERTEX
  8
T36SSILL
 62
2
 10
2100.331
 20
-5287.469
 30
1584.408
 70
    32
  0
VERTEX
  8
T36SSILL
 62
2
 10
2093.535
 20
-5272.050
 30
1584.405
 70
    32
  0
VERTEX
  8
T36SSILL
 62
2
 10
2128.839
 20
-5248.063
 30
1584.391
 70
    32
  0
VERTEX
  8
T36SSILL
 62
2
 10
2133.093
 20
-5249.135
 30
1584.391
 70
    32
  0
VERTEX
  8
T36SSILL
 62
2
 10
2136.445
 20
-5251.781
 30
1584.391
 70
    32
  0
VERTEX
  8
T36SSILL
 62
2
 10
2145.703
 20
-5262.880
 30
1584.392
 70
    32
  0
VERTEX
  8
T36SSILL
 62
2
 10
2215.501
 20
-5212.983
 30
1584.123
 70
    32
  0
VERTEX
  8
T36SSILL
 62
2
 10
2221.577
 20
-5221.862
 30
1584.146
 70
    32
  0
VERTEX
  8
T36SSILL
 62
2
 10
2156.921
 20
-5266.830
 30
1584.391
 70
    32
  0
VERTEX
  8
T36SSILL
 62
2
 10
2161.013
 20
-5273.344
 30
1584.392
 70
    32
  0
VERTEX
  8
T36SSILL
 62
2
 10
2195.157
 20
-5249.579
 30
1584.303
 70
    32
  0
VERTEX
  8
T36SSILL
 62
2
 10
2203.102
 20
-5259.686
 30
1584.327
 70
    32
  0
VERTEX
  8
T36SSILL
 62
2
 10
2224.247
 20
-5243.417
 30
1584.224
 70
    32
  0
VERTEX
  8
T36SSILL
 62
2
 10
2228.750
 20
-5248.730
 30
1584.236
 70
    32
  0
VERTEX
  8
T36SSILL
 62
2
 10
2248.726
 20
-5233.686
 30
1584.141
 70
    32
  0
VERTEX
  8
T36SSILL
 62
2
 10
2238.840
 20
-5219.300
 30
1584.104
 70
    32
  0
VERTEX
  8
T36SSILL
 62
2
 10
2278.144
 20
-5191.702
 30
1583.923
 70
    32
  0
VERTEX
  8
T36SSILL
 62
2
 10
2281.858
 20
-5197.286
 30
1583.938
 70
    32
  0
VERTEX
  8
T36SSILL
 62
2
 10
2286.599
 20
-5193.774
 30
1583.916
 70
    32
  0
VERTEX
  8
T36SSILL
 62
2
 10
2289.823
 20
-5197.848
 30
1583.925
 70
    32
  0
VERTEX
  8
T36SSILL
 62
2
 10
2295.597
 20
-5193.658
 30
1583.898
 70
    32
  0
VERTEX
  8
T36SSILL
 62
2
 10
2292.792
 20
-5189.263
 30
1583.887
 70
    32
  0
VERTEX
  8
T36SSILL
 62
2
 10
2317.360
 20
-5171.818
 30
1583.773
 70
    32
  0
VERTEX
  8
T36SSILL
 62
2
 10
2326.436
 20
-5184.490
 30
1583.805
 70
    32
  0
VERTEX
  8
T36SSILL
 62
2
 10
2300.928
 20
-5203.008
 30
1583.925
 70
    32
  0
VERTEX
  8
T36SSILL
 62
2
 10
2300.195
 20
-5207.684
 30
1583.944
 70
    32
  0
VERTEX
  8
T36SSILL
 62
2
 10
2302.364
 20
-5212.752
 30
1583.960
 70
    32
  0
VERTEX
  8
T36SSILL
 62
2
 10
2312.371
 20
-5225.732
 30
1583.991
 70
    32
  0
VERTEX
  8
T36SSILL
 62
2
 10
2235.222
 20
-5281.538
 30
1584.351
 70
    32
  0
VERTEX
  8
T36SSILL
 62
2
 10
2217.630
 20
-5261.444
 30
1584.306
 70
    32
  0
VERTEX
  8
T36SSILL
 62
2
 10
2195.604
 20
-5277.284
 30
1584.387
 70
    32
  0
VERTEX
  8
T36SSILL
 62
2
 10
2209.068
 20
-5300.387
 30
1584.391
 70
    32
  0
VERTEX
  8
T36SSILL
 62
2
 10
2191.765
 20
-5312.239
 30
1584.398
 70
    32
  0
VERTEX
  8
T36SSILL
 62
2
 10
2134.164
 20
-5297.222
 30
1584.404
 70
    32
  0
VERTEX
  8
T36SSILL
 62
2
 10
2082.557
 20
-5314.351
 30
1584.414
 70
    32
  0
VERTEX
  8
T36SSILL
 62
2
 10
2117.326
 20
-5359.203
 30
1584.417
 70
    32
  0
VERTEX
  8
T36SSILL
 62
2
 10
2117.797
 20
-5363.437
 30
1584.417
 70
    32
  0
VERTEX
  8
T36SSILL
 62
2
 10
2092.283
 20
-5381.819
 30
1584.422
 70
    32
  0
VERTEX
  8
T36SSILL
 62
2
 10
2095.924
 20
-5388.757
 30
1584.422
 70
    32
  0
VERTEX
  8
T36SSILL
 62
2
 10
2121.936
 20
-5370.012
 30
1584.418
 70
    32
  0
VERTEX
  8
T36SSILL
 62
2
 10
2131.647
 20
-5378.847
 30
1584.418
 70
    32
  0
VERTEX
  8
T36SSILL
 62
2
 10
2150.748
 20
-5376.041
 30
1584.416
 70
    32
  0
VERTEX
  8
T36SSILL
 62
2
 10
2165.564
 20
-5381.263
 30
1584.416
 70
    32
  0
VERTEX
  8
T36SSILL
 62
2
 10
2176.431
 20
-5381.516
 30
1584.415
 70
    32
  0
VERTEX
  8
T36SSILL
 62
2
 10
2175.835
 20
-5369.633
 30
1584.414
 70
    32
  0
VERTEX
  8
T36SSILL
 62
2
 10
2172.362
 20
-5356.796
 30
1584.412
 70
    32
  0
VERTEX
  8
T36SSILL
 62
2
 10
2172.615
 20
-5351.161
 30
1584.412
 70
    32
  0
VERTEX
  8
T36SSILL
 62
2
 10
2173.903
 20
-5350.985
 30
1584.412
 70
    32
  0
VERTEX
  8
T36SSILL
 62
2
 10
2189.319
 20
-5364.482
 30
1584.412
 70
    32
  0
VERTEX
  8
T36SSILL
 62
2
 10
2193.162
 20
-5370.377
 30
1584.412
 70
    32
  0
VERTEX
  8
T36SSILL
 62
2
 10
2195.589
 20
-5378.059
 30
1584.413
 70
    32
  0
VERTEX
  8
T36SSILL
 62
2
 10
2201.246
 20
-5384.809
 30
1584.413
 70
    32
  0
VERTEX
  8
T36SSILL
 62
2
 10
2212.132
 20
-5394.277
 30
1584.414
 70
    32
  0
VERTEX
  8
T36SSILL
 62
2
 10
2225.421
 20
-5402.869
 30
1584.414
 70
    32
  0
VERTEX
  8
T36SSILL
 62
2
 10
2225.136
 20
-5404.270
 30
1584.414
 70
    32
  0
VERTEX
  8
T36SSILL
 62
2
 10
2203.726
 20
-5420.239
 30
1584.417
 70
    32
  0
VERTEX
  8
T36SSILL
 62
2
 10
2207.395
 20
-5426.043
 30
1584.418
 70
    32
  0
VERTEX
  8
T36SSILL
 62
2
 10
2224.402
 20
-5414.029
 30
1584.415
 70
    32
  0
VERTEX
  8
T36SSILL
 62
2
 10
2231.284
 20
-5428.898
 30
1584.416
 70
    32
  0
VERTEX
  8
T36SSILL
 62
2
 10
2237.412
 20
-5435.849
 30
1584.417
 70
    32
  0
VERTEX
  8
T36SSILL
 62
2
 10
2267.495
 20
-5414.780
 30
1584.412
 70
    32
  0
VERTEX
  8
T36SSILL
 62
2
 10
2279.378
 20
-5404.529
 30
1584.408
 70
    32
  0
VERTEX
  8
T36SSILL
 62
2
 10
2265.558
 20
-5385.034
 30
1584.405
 70
    32
  0
VERTEX
  8
T36SSILL
 62
2
 10
2299.605
 20
-5360.284
 30
1584.392
 70
    32
  0
VERTEX
  8
T36SSILL
 62
2
 10
2313.713
 20
-5380.084
 30
1584.395
 70
    32
  0
VERTEX
  8
T36SSILL
 62
2
 10
2366.356
 20
-5341.052
 30
1584.336
 70
    32
  0
VERTEX
  8
T36SSILL
 62
2
 10
2370.206
 20
-5309.251
 30
1584.206
 70
    32
  0
VERTEX
  8
T36SSILL
 62
2
 10
2386.124
 20
-5298.191
 30
1584.133
 70
    32
  0
VERTEX
  8
T36SSILL
 62
2
 10
2405.161
 20
-5313.090
 30
1584.155
 70
    32
  0
VERTEX
  8
T36SSILL
 62
2
 10
2453.531
 20
-5280.007
 30
1583.937
 70
    32
  0
VERTEX
  8
T36SSILL
 62
2
 10
2443.882
 20
-5257.502
 30
1583.891
 70
    32
  0
VERTEX
  8
T36SSILL
 62
2
 10
2462.049
 20
-5240.216
 30
1583.866
 70
    32
  0
VERTEX
  8
T36SSILL
 62
2
 10
2469.613
 20
-5221.692
 30
1583.837
 70
    32
  0
VERTEX
  8
T36SSILL
 62
2
 10
2490.319
 20
-5250.528
 30
1583.891
 70
    32
  0
VERTEX
  8
T36SSILL
 62
2
 10
2495.915
 20
-5253.135
 30
1583.896
 70
    32
  0
VERTEX
  8
T36SSILL
 62
2
 10
2494.153
 20
-5261.957
 30
1583.911
 70
    32
  0
VERTEX
  8
T36SSILL
 62
2
 10
2491.956
 20
-5266.651
 30
1583.918
 70
    32
  0
VERTEX
  8
T36SSILL
 62
2
 10
2484.835
 20
-5274.937
 30
1583.930
 70
    32
  0
VERTEX
  8
T36SSILL
 62
2
 10
2449.188
 20
-5300.710
 30
1584.025
 70
    32
  0
VERTEX
  8
T36SSILL
 62
2
 10
2445.123
 20
-5295.579
 30
1584.013
 70
    32
  0
VERTEX
  8
T36SSILL
 62
2
 10
2419.370
 20
-5314.998
 30
1584.136
 70
    32
  0
VERTEX
  8
T36SSILL
 62
2
 10
2422.627
 20
-5319.294
 30
1584.146
 70
    32
  0
VERTEX
  8
T36SSILL
 62
2
 10
2336.382
 20
-5383.046
 30
1584.391
 70
    32
  0
VERTEX
  8
T36SSILL
 62
2
 10
2332.644
 20
-5378.225
 30
1584.391
 70
    32
  0
VERTEX
  8
T36SSILL
 62
2
 10
2328.081
 20
-5381.563
 30
1584.392
 70
    32
  0
VERTEX
  8
T36SSILL
 62
2
 10
2323.993
 20
-5377.315
 30
1584.392
 70
    32
  0
VERTEX
  8
T36SSILL
 62
2
 10
2313.437
 20
-5384.570
 30
1584.396
 70
    32
  0
VERTEX
  8
T36SSILL
 62
2
 10
2319.773
 20
-5393.828
 30
1584.398
 70
    32
  0
VERTEX
  8
T36SSILL
 62
2
 10
2245.021
 20
-5447.064
 30
1584.417
 70
    32
  0
VERTEX
  8
T36SSILL
 62
2
 10
2258.944
 20
-5466.427
 30
1584.419
 70
    32
  0
VERTEX
  8
T36SSILL
 62
2
 10
2264.414
 20
-5462.230
 30
1584.418
 70
    32
  0
VERTEX
  8
T36SSILL
 62
2
 10
2260.800
 20
-5457.430
 30
1584.417
 70
    32
  0
VERTEX
  8
T36SSILL
 62
2
 10
2256.661
 20
-5447.914
 30
1584.417
 70
    32
  0
VERTEX
  8
T36SSILL
 62
2
 10
2329.233
 20
-5395.573
 30
1584.396
 70
    32
  0
VERTEX
  8
T36SSILL
 62
2
 10
2334.258
 20
-5401.755
 30
1584.397
 70
    32
  0
VERTEX
  8
T36SSILL
 62
2
 10
2328.995
 20
-5405.480
 30
1584.399
 70
    32
  0
VERTEX
  8
T36SSILL
 62
2
 10
2335.635
 20
-5415.930
 30
1584.401
 70
    32
  0
VERTEX
  8
T36SSILL
 62
2
 10
2356.368
 20
-5401.039
 30
1584.393
 70
    32
  0
VERTEX
  8
T36SSILL
 62
2
 10
2344.262
 20
-5384.394
 30
1584.390
 70
    32
  0
VERTEX
  8
T36SSILL
 62
2
 10
2350.645
 20
-5380.417
 30
1584.388
 70
    32
  0
VERTEX
  8
T36SSILL
 62
2
 10
2366.365
 20
-5401.862
 30
1584.391
 70
    32
  0
VERTEX
  8
T36SSILL
 62
2
 10
2359.189
 20
-5406.400
 30
1584.394
 70
    32
  0
VERTEX
  8
T36SSILL
 62
2
 10
2350.828
 20
-5407.124
 30
1584.396
 70
    32
  0
VERTEX
  8
T36SSILL
 62
2
 10
2338.214
 20
-5417.892
 30
1584.401
 70
    32
  0
VERTEX
  8
T36SSILL
 62
2
 10
2320.159
 20
-5452.315
 30
1584.412
 70
    32
  0
VERTEX
  8
T36SSILL
 62
2
 10
2312.051
 20
-5458.595
 30
1584.414
 70
    32
  0
VERTEX
  8
T36SSILL
 62
2
 10
2315.696
 20
-5463.590
 30
1584.414
 70
    32
  0
VERTEX
  8
T36SSILL
 62
2
 10
2240.316
 20
-5517.162
 30
1584.426
 70
    32
  0
VERTEX
  8
T36SSILL
 62
2
 10
2230.115
 20
-5506.419
 30
1584.426
 70
    32
  0
VERTEX
  8
T36SSILL
 62
2
 10
2217.964
 20
-5497.814
 30
1584.425
 70
    32
  0
VERTEX
  8
T36SSILL
 62
2
 10
2219.805
 20
-5506.683
 30
1584.426
 70
    32
  0
VERTEX
  8
T36SSILL
 62
2
 10
2206.399
 20
-5522.448
 30
1584.429
 70
    32
  0
VERTEX
  8
T36SSILL
 62
2
 10
2209.290
 20
-5535.552
 30
1584.431
 70
    32
  0
VERTEX
  8
T36SSILL
 62
2
 10
2211.674
 20
-5537.544
 30
1584.431
 70
    32
  0
VERTEX
  8
T36SSILL
 62
2
 10
2173.264
 20
-5565.278
 30
1584.437
 70
    32
  0
VERTEX
  8
T36SSILL
 62
2
 10
2177.353
 20
-5570.713
 30
1584.437
 70
    32
  0
VERTEX
  8
T36SSILL
 62
2
 10
2217.075
 20
-5542.270
 30
1584.431
 70
    32
  0
VERTEX
  8
T36SSILL
 62
2
 10
2222.413
 20
-5544.767
 30
1584.431
 70
    32
  0
VERTEX
  8
T36SSILL
 62
2
 10
2228.994
 20
-5552.229
 30
1584.431
 70
    32
  0
VERTEX
  8
T36SSILL
 62
2
 10
2236.401
 20
-5548.934
 30
1584.430
 70
    32
  0
VERTEX
  8
T36SSILL
 62
2
 10
2237.617
 20
-5547.749
 30
1584.430
 70
    32
  0
VERTEX
  8
T36SSILL
 62
2
 10
2239.156
 20
-5526.532
 30
1584.427
 70
    32
  0
VERTEX
  8
T36SSILL
 62
2
 10
2317.369
 20
-5470.846
 30
1584.415
 70
    32
  0
VERTEX
  8
T36SSILL
 62
2
 10
2328.094
 20
-5486.304
 30
1584.416
 70
    32
  0
VERTEX
  8
T36SSILL
 62
2
 10
2335.384
 20
-5481.469
 30
1584.414
 70
    32
  0
VERTEX
  8
T36SSILL
 62
2
 10
2345.022
 20
-5479.949
 30
1584.414
 70
    32
  0
VERTEX
  8
T36SSILL
 62
2
 10
2347.014
 20
-5477.565
 30
1584.413
 70
    32
  0
VERTEX
  8
T36SSILL
 62
2
 10
2346.087
 20
-5473.352
 30
1584.413
 70
    32
  0
VERTEX
  8
T36SSILL
 62
2
 10
2346.854
 20
-5471.835
 30
1584.412
 70
    32
  0
VERTEX
  8
T36SSILL
 62
2
 10
2367.540
 20
-5460.547
 30
1584.408
 70
    32
  0
VERTEX
  8
T36SSILL
 62
2
 10
2373.756
 20
-5454.958
 30
1584.405
 70
    32
  0
VERTEX
  8
T36SSILL
 62
2
 10
2378.994
 20
-5445.082
 30
1584.401
 70
    32
  0
VERTEX
  8
T36SSILL
 62
2
 10
2390.514
 20
-5435.521
 30
1584.396
 70
    32
  0
VERTEX
  8
T36SSILL
 62
2
 10
2410.776
 20
-5463.382
 30
1584.401
 70
    32
  0
VERTEX
  8
T36SSILL
 62
2
 10
2405.188
 20
-5461.602
 30
1584.401
 70
    32
  0
VERTEX
  8
T36SSILL
 62
2
 10
2396.100
 20
-5461.758
 30
1584.403
 70
    32
  0
VERTEX
  8
T36SSILL
 62
2
 10
2383.269
 20
-5465.646
 30
1584.406
 70
    32
  0
VERTEX
  8
T36SSILL
 62
2
 10
2292.996
 20
-5529.977
 30
1584.423
 70
    32
  0
VERTEX
  8
T36SSILL
 62
2
 10
2296.539
 20
-5535.557
 30
1584.424
 70
    32
  0
VERTEX
  8
T36SSILL
 62
2
 10
2348.061
 20
-5499.225
 30
1584.416
 70
    32
  0
VERTEX
  8
T36SSILL
 62
2
 10
2351.684
 20
-5504.343
 30
1584.416
 70
    32
  0
VERTEX
  8
T36SSILL
 62
2
 10
2362.341
 20
-5497.232
 30
1584.414
 70
    32
  0
VERTEX
  8
T36SSILL
 62
2
 10
2358.454
 20
-5491.435
 30
1584.414
 70
    32
  0
VERTEX
  8
T36SSILL
 62
2
 10
2386.706
 20
-5471.113
 30
1584.407
 70
    32
  0
VERTEX
  8
T36SSILL
 62
2
 10
2391.653
 20
-5469.235
 30
1584.406
 70
    32
  0
VERTEX
  8
T36SSILL
 62
2
 10
2397.675
 20
-5468.111
 30
1584.404
 70
    32
  0
VERTEX
  8
T36SSILL
 62
2
 10
2405.354
 20
-5468.411
 30
1584.403
 70
    32
  0
VERTEX
  8
T36SSILL
 62
2
 10
2414.557
 20
-5472.393
 30
1584.402
 70
    32
  0
VERTEX
  8
T36SSILL
 62
2
 10
2429.343
 20
-5486.708
 30
1584.404
 70
    32
  0
VERTEX
  8
T36SSILL
 62
2
 10
2439.852
 20
-5492.688
 30
1584.404
 70
    32
  0
VERTEX
  8
T36SSILL
 62
2
 10
2437.019
 20
-5494.801
 30
1584.405
 70
    32
  0
VERTEX
  8
T36SSILL
 62
2
 10
2433.071
 20
-5491.211
 30
1584.404
 70
    32
  0
VERTEX
  8
T36SSILL
 62
2
 10
2418.369
 20
-5486.035
 30
1584.406
 70
    32
  0
VERTEX
  8
T36SSILL
 62
2
 10
2408.162
 20
-5493.476
 30
1584.410
 70
    32
  0
VERTEX
  8
T36SSILL
 62
2
 10
2410.623
 20
-5499.093
 30
1584.411
 70
    32
  0
VERTEX
  8
T36SSILL
 62
2
 10
2417.728
 20
-5508.672
 30
1584.411
 70
    32
  0
VERTEX
  8
T36SSILL
 62
2
 10
2414.916
 20
-5510.662
 30
1584.412
 70
    32
  0
VERTEX
  8
T36SSILL
 62
2
 10
2411.242
 20
-5505.472
 30
1584.411
 70
    32
  0
VERTEX
  8
T36SSILL
 62
2
 10
2400.882
 20
-5512.697
 30
1584.413
 70
    32
  0
VERTEX
  8
T36SSILL
 62
2
 10
2404.544
 20
-5518.329
 30
1584.413
 70
    32
  0
VERTEX
  8
T36SSILL
 62
2
 10
2402.546
 20
-5519.635
 30
1584.414
 70
    32
  0
VERTEX
  8
T36SSILL
 62
2
 10
2380.150
 20
-5505.728
 30
1584.414
 70
    32
  0
VERTEX
  8
T36SSILL
 62
2
 10
2366.751
 20
-5512.941
 30
1584.416
 70
    32
  0
VERTEX
  8
T36SSILL
 62
2
 10
2356.083
 20
-5522.331
 30
1584.418
 70
    32
  0
VERTEX
  8
T36SSILL
 62
2
 10
2352.798
 20
-5529.309
 30
1584.419
 70
    32
  0
VERTEX
  8
T36SSILL
 62
2
 10
2355.289
 20
-5535.121
 30
1584.419
 70
    32
  0
VERTEX
  8
T36SSILL
 62
2
 10
2371.378
 20
-5542.562
 30
1584.419
 70
    32
  0
VERTEX
  8
T36SSILL
 62
2
 10
2337.473
 20
-5566.669
 30
1584.424
 70
    32
  0
VERTEX
  8
T36SSILL
 62
2
 10
2341.657
 20
-5572.581
 30
1584.425
 70
    32
  0
VERTEX
  8
T36SSILL
 62
2
 10
2371.147
 20
-5550.950
 30
1584.420
 70
    32
  0
VERTEX
  8
T36SSILL
 62
2
 10
2376.249
 20
-5551.126
 30
1584.419
 70
    32
  0
VERTEX
  8
T36SSILL
 62
2
 10
2387.120
 20
-5561.287
 30
1584.420
 70
    32
  0
VERTEX
  8
T36SSILL
 62
2
 10
2398.633
 20
-5555.843
 30
1584.418
 70
    32
  0
VERTEX
  8
T36SSILL
 62
2
 10
2408.886
 20
-5554.429
 30
1584.417
 70
    32
  0
VERTEX
  8
T36SSILL
 62
2
 10
2409.962
 20
-5562.216
 30
1584.418
 70
    32
  0
VERTEX
  8
T36SSILL
 62
2
 10
2415.884
 20
-5569.819
 30
1584.419
 70
    32
  0
VERTEX
  8
T36SSILL
 62
2
 10
2449.637
 20
-5598.088
 30
1584.419
 70
    32
  0
VERTEX
  8
T36SSILL
 62
2
 10
2458.878
 20
-5612.215
 30
1584.420
 70
    32
  0
VERTEX
  8
T36SSILL
 62
2
 10
2474.284
 20
-5623.278
 30
1584.420
 70
    32
  0
VERTEX
  8
T36SSILL
 62
2
 10
2529.180
 20
-5720.685
 30
1584.428
 70
    32
  0
VERTEX
  8
T36SSILL
 62
2
 10
2535.286
 20
-5716.798
 30
1584.427
 70
    32
  0
VERTEX
  8
T36SSILL
 62
2
 10
2529.178
 20
-5706.487
 30
1584.426
 70
    32
  0
VERTEX
  8
T36SSILL
 62
2
 10
2539.832
 20
-5700.136
 30
1584.424
 70
    32
  0
VERTEX
  8
T36SSILL
 62
2
 10
2544.820
 20
-5700.609
 30
1584.424
 70
    32
  0
VERTEX
  8
T36SSILL
 62
2
 10
2546.985
 20
-5693.883
 30
1584.423
 70
    32
  0
VERTEX
  8
T36SSILL
 62
2
 10
2538.730
 20
-5691.393
 30
1584.423
 70
    32
  0
VERTEX
  8
T36SSILL
 62
2
 10
2525.441
 20
-5699.068
 30
1584.425
 70
    32
  0
VERTEX
  8
T36SSILL
 62
2
 10
2480.496
 20
-5618.448
 30
1584.419
 70
    32
  0
VERTEX
  8
T36SSILL
 62
2
 10
2475.761
 20
-5599.832
 30
1584.418
 70
    32
  0
VERTEX
  8
T36SSILL
 62
2
 10
2477.757
 20
-5594.091
 30
1584.417
 70
    32
  0
VERTEX
  8
T36SSILL
 62
2
 10
2477.377
 20
-5589.274
 30
1584.416
 70
    32
  0
VERTEX
  8
T36SSILL
 62
2
 10
2470.401
 20
-5578.196
 30
1584.415
 70
    32
  0
VERTEX
  8
T36SSILL
 62
2
 10
2460.942
 20
-5566.819
 30
1584.415
 70
    32
  0
VERTEX
  8
T36SSILL
 62
2
 10
2457.734
 20
-5560.758
 30
1584.414
 70
    32
  0
VERTEX
  8
T36SSILL
 62
2
 10
2441.381
 20
-5545.604
 30
1584.414
 70
    32
  0
VERTEX
  8
T36SSILL
 62
2
 10
2435.150
 20
-5533.133
 30
1584.413
 70
    32
  0
VERTEX
  8
T36SSILL
 62
2
 10
2439.612
 20
-5527.053
 30
1584.412
 70
    32
  0
VERTEX
  8
T36SSILL
 62
2
 10
2442.984
 20
-5518.823
 30
1584.411
 70
    32
  0
VERTEX
  8
T36SSILL
 62
2
 10
2441.644
 20
-5512.954
 30
1584.409
 70
    32
  0
VERTEX
  8
T36SSILL
 62
2
 10
2437.298
 20
-5503.910
 30
1584.407
 70
    32
  0
VERTEX
  8
T36SSILL
 62
2
 10
2523.745
 20
-5441.206
 30
1584.373
 70
    32
  0
VERTEX
  8
T36SSILL
 62
2
 10
2543.246
 20
-5454.997
 30
1584.373
 70
    32
  0
VERTEX
  8
T36SSILL
 62
2
 10
2547.776
 20
-5452.224
 30
1584.371
 70
    32
  0
VERTEX
  8
T36SSILL
 62
2
 10
2682.689
 20
-5662.946
 30
1584.407
 70
    32
  0
VERTEX
  8
T36SSILL
 62
2
 10
2678.093
 20
-5665.946
 30
1584.409
 70
    32
  0
VERTEX
  8
T36SSILL
 62
2
 10
2684.452
 20
-5675.932
 30
1584.410
 70
    32
  0
VERTEX
  8
T36SSILL
 62
2
 10
2689.176
 20
-5673.054
 30
1584.409
 70
    32
  0
VERTEX
  8
T36SSILL
 62
2
 10
2739.828
 20
-5751.981
 30
1584.403
 70
    32
  0
VERTEX
  8
T36SSILL
 62
2
 10
2734.795
 20
-5754.145
 30
1584.406
 70
    32
  0
VERTEX
  8
T36SSILL
 62
2
 10
2741.422
 20
-5765.128
 30
1584.405
 70
    32
  0
VERTEX
  8
T36SSILL
 62
2
 10
2746.341
 20
-5762.128
 30
1584.401
 70
    32
  0
VERTEX
  8
T36SSILL
 62
2
 10
2790.043
 20
-5828.592
 30
1584.391
 70
    32
  0
VERTEX
  8
T36SSILL
 62
2
 10
2785.585
 20
-5831.612
 30
1584.395
 70
    32
  0
VERTEX
  8
T36SSILL
 62
2
 10
2787.412
 20
-5834.750
 30
1584.394
 70
    32
  0
VERTEX
  8
T36SSILL
 62
2
 10
2786.362
 20
-5835.487
 30
1584.395
 70
    32
  0
VERTEX
  8
T36SSILL
 62
2
 10
2790.642
 20
-5841.433
 30
1584.394
 70
    32
  0
VERTEX
  8
T36SSILL
 62
2
 10
2797.292
 20
-5838.924
 30
1584.389
 70
    32
  0
VERTEX
  8
T36SSILL
 62
2
 10
2799.170
 20
-5850.976
 30
1584.391
 70
    32
  0
VERTEX
  8
T36SSILL
 62
2
 10
2808.087
 20
-5866.607
 30
1584.390
 70
    32
  0
VERTEX
  8
T36SSILL
 62
2
 10
2812.712
 20
-5877.809
 30
1584.389
 70
    32
  0
VERTEX
  8
T36SSILL
 62
2
 10
2822.777
 20
-5891.233
 30
1584.387
 70
    32
  0
VERTEX
  8
T36SSILL
 62
2
 10
2832.665
 20
-5895.186
 30
1584.382
 70
    32
  0
VERTEX
  8
T36SSILL
 62
2
 10
2834.229
 20
-5897.107
 30
1584.381
 70
    32
  0
VERTEX
  8
T36SSILL
 62
2
 10
2832.800
 20
-5905.981
 30
1584.384
 70
    32
  0
VERTEX
  8
T36SSILL
 62
2
 10
2820.061
 20
-5915.025
 30
1584.394
 70
    32
  0
VERTEX
  8
T36SSILL
 62
2
 10
2822.677
 20
-5919.983
 30
1584.393
 70
    32
  0
VERTEX
  8
T36SSILL
 62
2
 10
2731.594
 20
-5984.594
 30
1584.443
 70
    32
  0
VERTEX
  8
T36SSILL
 62
2
 10
2736.396
 20
-5990.231
 30
1584.443
 70
    32
  0
VERTEX
  8
T36SSILL
 62
2
 10
2834.145
 20
-5920.347
 30
1584.387
 70
    32
  0
VERTEX
  8
T36SSILL
 62
2
 10
2853.704
 20
-5927.326
 30
1584.377
 70
    32
  0
VERTEX
  8
T36SSILL
 62
2
 10
2880.646
 20
-5968.802
 30
1584.374
 70
    32
  0
VERTEX
  8
T36SSILL
 62
2
 10
2877.642
 20
-5979.427
 30
1584.375
 70
    32
  0
VERTEX
  8
T36SSILL
 62
2
 10
2878.903
 20
-5989.216
 30
1584.377
 70
    32
  0
VERTEX
  8
T36SSILL
 62
2
 10
2883.253
 20
-6000.180
 30
1584.380
 70
    32
  0
VERTEX
  8
T36SSILL
 62
2
 10
2891.521
 20
-6010.121
 30
1584.387
 70
    32
  0
VERTEX
  8
T36SSILL
 62
2
 10
2893.639
 20
-6030.199
 30
1584.391
 70
    32
  0
VERTEX
  8
T36SSILL
 62
2
 10
2925.830
 20
-6050.418
 30
1584.412
 70
    32
  0
VERTEX
  8
T36SSILL
 62
2
 10
2935.443
 20
-6067.501
 30
1584.420
 70
    32
  0
VERTEX
  8
T36SSILL
 62
2
 10
2941.670
 20
-6083.294
 30
1584.426
 70
    32
  0
VERTEX
  8
T36SSILL
 62
2
 10
2949.829
 20
-6098.918
 30
1584.434
 70
    32
  0
VERTEX
  8
T36SSILL
 62
2
 10
2955.894
 20
-6104.798
 30
1584.438
 70
    32
  0
VERTEX
  8
T36SSILL
 62
2
 10
2961.058
 20
-6112.927
 30
1584.442
 70
    32
  0
VERTEX
  8
T36SSILL
 62
2
 10
2962.555
 20
-6113.062
 30
1584.443
 70
    32
  0
VERTEX
  8
T36SSILL
 62
2
 10
2977.076
 20
-6135.759
 30
1584.455
 70
    32
  0
VERTEX
  8
T36SSILL
 62
2
 10
2989.406
 20
-6150.721
 30
1584.464
 70
    32
  0
VERTEX
  8
T36SSILL
 62
2
 10
3006.060
 20
-6166.314
 30
1584.476
 70
    32
  0
VERTEX
  8
T36SSILL
 62
2
 10
3010.790
 20
-6173.670
 30
1584.480
 70
    32
  0
VERTEX
  8
T36SSILL
 62
2
 10
3021.516
 20
-6184.042
 30
1584.487
 70
    32
  0
VERTEX
  8
T36SSILL
 62
2
 10
3026.209
 20
-6190.885
 30
1584.491
 70
    32
  0
VERTEX
  8
T36SSILL
 62
2
 10
3028.226
 20
-6190.225
 30
1584.492
 70
    32
  0
VERTEX
  8
T36SSILL
 62
2
 10
3042.477
 20
-6216.992
 30
1584.504
 70
    32
  0
VERTEX
  8
T36SSILL
 62
2
 10
3041.609
 20
-6217.601
 30
1584.504
 70
    32
  0
VERTEX
  8
T36SSILL
 62
2
 10
3046.201
 20
-6224.299
 30
1584.507
 70
    32
  0
VERTEX
  8
T36SSILL
 62
2
 10
3047.357
 20
-6223.488
 30
1584.508
 70
    32
  0
VERTEX
  8
T36SSILL
 62
2
 10
3068.456
 20
-6243.726
 30
1584.523
 70
    32
  0
VERTEX
  8
T36SSILL
 62
2
 10
3102.412
 20
-6300.119
 30
1584.551
 70
    32
  0
VERTEX
  8
T36SSILL
 62
2
 10
3102.486
 20
-6301.146
 30
1584.551
 70
    32
  0
VERTEX
  8
T36SSILL
 62
2
 10
3097.414
 20
-6305.135
 30
1584.549
 70
    32
  0
VERTEX
  8
T36SSILL
 62
2
 10
3104.113
 20
-6314.991
 30
1584.552
 70
    32
  0
VERTEX
  8
T36SSILL
 62
2
 10
3110.073
 20
-6310.270
 30
1584.554
 70
    32
  0
VERTEX
  8
T36SSILL
 62
2
 10
3112.373
 20
-6311.244
 30
1584.554
 70
    32
  0
VERTEX
  8
T36SSILL
 62
2
 10
3110.784
 20
-6312.359
 30
1584.554
 70
    32
  0
VERTEX
  8
T36SSILL
 62
2
 10
3115.418
 20
-6318.811
 30
1584.554
 70
    32
  0
VERTEX
  8
T36SSILL
 62
2
 10
3119.009
 20
-6316.400
 30
1584.555
 70
    32
  0
VERTEX
  8
T36SSILL
 62
2
 10
3122.056
 20
-6318.898
 30
1584.555
 70
    32
  0
VERTEX
  8
T36SSILL
 62
2
 10
3138.954
 20
-6339.604
 30
1584.556
 70
    32
  0
VERTEX
  8
T36SSILL
 62
2
 10
3148.877
 20
-6355.284
 30
1584.557
 70
    32
  0
VERTEX
  8
T36SSILL
 62
2
 10
3153.481
 20
-6360.464
 30
1584.557
 70
    32
  0
VERTEX
  8
T36SSILL
 62
2
 10
3159.332
 20
-6355.280
 30
1584.558
 70
    32
  0
VERTEX
  8
T36SSILL
 62
2
 10
3156.993
 20
-6351.638
 30
1584.558
 70
    32
  0
VERTEX
  8
T36SSILL
 62
2
 10
3161.392
 20
-6354.374
 30
1584.559
 70
    32
  0
VERTEX
  8
T36SSILL
 62
2
 10
3164.835
 20
-6348.832
 30
1584.559
 70
    32
  0
VERTEX
  8
T36SSILL
 62
2
 10
3150.810
 20
-6336.677
 30
1584.558
 70
    32
  0
VERTEX
  8
T36SSILL
 62
2
 10
3145.463
 20
-6327.059
 30
1584.558
 70
    32
  0
VERTEX
  8
T36SSILL
 62
2
 10
3125.694
 20
-6298.880
 30
1584.556
 70
    32
  0
VERTEX
  8
T36SSILL
 62
2
 10
3124.294
 20
-6294.579
 30
1584.556
 70
    32
  0
VERTEX
  8
T36SSILL
 62
2
 10
3152.588
 20
-6274.513
 30
1584.561
 70
    32
  0
VERTEX
  8
T36SSILL
 62
2
 10
3183.513
 20
-6329.654
 30
1584.563
 70
    32
  0
VERTEX
  8
T36SSILL
 62
2
 10
3189.898
 20
-6326.280
 30
1584.564
 70
    32
  0
VERTEX
  8
T36SSILL
 62
2
 10
3162.983
 20
-6278.110
 30
1584.563
 70
    32
  0
VERTEX
  8
T36SSILL
 62
2
 10
3162.167
 20
-6272.645
 30
1584.563
 70
    32
  0
VERTEX
  8
T36SSILL
 62
2
 10
3164.124
 20
-6265.497
 30
1584.563
 70
    32
  0
VERTEX
  8
T36SSILL
 62
2
 10
3185.968
 20
-6249.493
 30
1584.567
 70
    32
  0
VERTEX
  8
T36SSILL
 62
2
 10
3191.875
 20
-6243.466
 30
1584.569
 70
    32
  0
VERTEX
  8
T36SSILL
 62
2
 10
3197.405
 20
-6232.872
 30
1584.570
 70
    32
  0
VERTEX
  8
T36SSILL
 62
2
 10
3199.107
 20
-6225.576
 30
1584.570
 70
    32
  0
VERTEX
  8
T36SSILL
 62
2
 10
3246.516
 20
-6291.632
 30
1584.574
 70
    32
  0
VERTEX
  8
T36SSILL
 62
2
 10
3233.255
 20
-6300.827
 30
1584.572
 70
    32
  0
VERTEX
  8
T36SSILL
 62
2
 10
3237.794
 20
-6306.907
 30
1584.572
 70
    32
  0
VERTEX
  8
T36SSILL
 62
2
 10
3250.792
 20
-6298.110
 30
1584.574
 70
    32
  0
VERTEX
  8
T36SSILL
 62
2
 10
3255.152
 20
-6303.778
 30
1584.575
 70
    32
  0
VERTEX
  8
T36SSILL
 62
2
 10
3254.147
 20
-6310.376
 30
1584.574
 70
    32
  0
VERTEX
  8
T36SSILL
 62
2
 10
3155.429
 20
-6380.855
 30
1584.557
 70
    32
  0
VERTEX
  8
T36SSILL
 62
2
 10
3160.650
 20
-6387.051
 30
1584.557
 70
    32
  0
VERTEX
  8
T36SSILL
 62
2
 10
3262.113
 20
-6313.973
 30
1584.575
 70
    32
  0
VERTEX
  8
T36SSILL
 62
2
 10
3307.863
 20
-6380.202
 30
1584.578
 70
    32
  0
VERTEX
  8
T36SSILL
 62
2
 10
3310.049
 20
-6387.996
 30
1584.578
 70
    32
  0
VERTEX
  8
T36SSILL
 62
2
 10
3309.892
 20
-6391.634
 30
1584.578
 70
    32
  0
VERTEX
  8
T36SSILL
 62
2
 10
3307.950
 20
-6400.574
 30
1584.577
 70
    32
  0
VERTEX
  8
T36SSILL
 62
2
 10
3305.262
 20
-6405.964
 30
1584.577
 70
    32
  0
VERTEX
  8
T36SSILL
 62
2
 10
3299.320
 20
-6412.217
 30
1584.576
 70
    32
  0
VERTEX
  8
T36SSILL
 62
2
 10
3181.638
 20
-6496.128
 30
1584.555
 70
    32
  0
VERTEX
  8
T36SSILL
 62
2
 10
3186.978
 20
-6501.525
 30
1584.555
 70
    32
  0
VERTEX
  8
T36SSILL
 62
2
 10
3306.234
 20
-6415.561
 30
1584.576
 70
    32
  0
VERTEX
  8
T36SSILL
 62
2
 10
3314.642
 20
-6402.361
 30
1584.578
 70
    32
  0
VERTEX
  8
T36SSILL
 62
2
 10
3316.813
 20
-6392.514
 30
1584.579
 70
    32
  0
VERTEX
  8
T36SSILL
 62
2
 10
3344.145
 20
-6430.614
 30
1584.581
 70
    32
  0
VERTEX
  8
T36SSILL
 62
2
 10
3334.643
 20
-6484.581
 30
1584.577
 70
    32
  0
VERTEX
  8
T36SSILL
 62
2
 10
3171.666
 20
-6601.343
 30
1584.548
 70
    32
  0
VERTEX
  8
T36SSILL
 62
2
 10
3177.212
 20
-6606.597
 30
1584.549
 70
    32
  0
VERTEX
  8
T36SSILL
 62
2
 10
3282.293
 20
-6531.511
 30
1584.567
 70
    32
  0
VERTEX
  8
T36SSILL
 62
2
 10
3306.773
 20
-6607.529
 30
1584.567
 70
    32
  0
VERTEX
  8
T36SSILL
 62
2
 10
3306.778
 20
-6610.628
 30
1584.567
 70
    32
  0
VERTEX
  8
T36SSILL
 62
2
 10
3300.535
 20
-6623.400
 30
1584.565
 70
    32
  0
VERTEX
  8
T36SSILL
 62
2
 10
3290.242
 20
-6632.021
 30
1584.563
 70
    32
  0
VERTEX
  8
T36SSILL
 62
2
 10
3070.900
 20
-6791.001
 30
1584.524
 70
    32
  0
VERTEX
  8
T36SSILL
 62
2
 10
3075.511
 20
-6796.581
 30
1584.525
 70
    32
  0
VERTEX
  8
T36SSILL
 62
2
 10
3301.273
 20
-6633.586
 30
1584.565
 70
    32
  0
VERTEX
  8
T36SSILL
 62
2
 10
3305.023
 20
-6630.349
 30
1584.566
 70
    32
  0
VERTEX
  8
T36SSILL
 62
2
 10
3310.977
 20
-6620.558
 30
1584.567
 70
    32
  0
VERTEX
  8
T36SSILL
 62
2
 10
3334.928
 20
-6697.049
 30
1584.567
 70
    32
  0
VERTEX
  8
T36SSILL
 62
2
 10
3334.688
 20
-6702.885
 30
1584.566
 70
    32
  0
VERTEX
  8
T36SSILL
 62
2
 10
3327.722
 20
-6709.204
 30
1584.565
 70
    32
  0
VERTEX
  8
T36SSILL
 62
2
 10
3315.565
 20
-6725.641
 30
1584.562
 70
    32
  0
VERTEX
  8
T36SSILL
 62
2
 10
3332.676
 20
-6737.226
 30
1584.564
 70
    32
  0
VERTEX
  8
T36SSILL
 62
2
 10
3329.057
 20
-6755.028
 30
1584.563
 70
    32
  0
VERTEX
  8
T36SSILL
 62
2
 10
3345.679
 20
-6767.914
 30
1584.565
 70
    32
  0
VERTEX
  8
T36SSILL
 62
2
 10
3346.556
 20
-6779.074
 30
1584.564
 70
    32
  0
VERTEX
  8
T36SSILL
 62
2
 10
3349.731
 20
-6791.853
 30
1584.564
 70
    32
  0
VERTEX
  8
T36SSILL
 62
2
 10
3360.504
 20
-6819.164
 30
1584.564
 70
    32
  0
VERTEX
  8
T36SSILL
 62
2
 10
3375.311
 20
-6831.593
 30
1584.566
 70
    32
  0
VERTEX
  8
T36SSILL
 62
2
 10
3392.842
 20
-6823.846
 30
1584.569
 70
    32
  0
VERTEX
  8
T36SSILL
 62
2
 10
3422.455
 20
-6864.005
 30
1584.571
 70
    32
  0
VERTEX
  8
T36SSILL
 62
2
 10
3431.138
 20
-6870.832
 30
1584.572
 70
    32
  0
VERTEX
  8
T36SSILL
 62
2
 10
3437.931
 20
-6874.154
 30
1584.573
 70
    32
  0
VERTEX
  8
T36SSILL
 62
2
 10
3444.222
 20
-6875.362
 30
1584.574
 70
    32
  0
VERTEX
  8
T36SSILL
 62
2
 10
3418.969
 20
-6893.589
 30
1584.569
 70
    32
  0
VERTEX
  8
T36SSILL
 62
2
 10
3414.864
 20
-6887.658
 30
1584.569
 70
    32
  0
VERTEX
  8
T36SSILL
 62
2
 10
3397.945
 20
-6899.689
 30
1584.566
 70
    32
  0
VERTEX
  8
T36SSILL
 62
2
 10
3316.172
 20
-6897.771
 30
1584.554
 70
    32
  0
VERTEX
  8
T36SSILL
 62
2
 10
3316.318
 20
-6890.717
 30
1584.554
 70
    32
  0
VERTEX
  8
T36SSILL
 62
2
 10
3303.539
 20
-6891.111
 30
1584.553
 70
    32
  0
VERTEX
  8
T36SSILL
 62
2
 10
3303.650
 20
-6897.453
 30
1584.552
 70
    32
  0
VERTEX
  8
T36SSILL
 62
2
 10
3238.987
 20
-6896.641
 30
1584.543
 70
    32
  0
VERTEX
  8
T36SSILL
 62
2
 10
3238.987
 20
-6903.589
 30
1584.543
 70
    32
  0
VERTEX
  8
T36SSILL
 62
2
 10
3312.183
 20
-6905.453
 30
1584.553
 70
    32
  0
VERTEX
  8
T36SSILL
 62
2
 10
3313.144
 20
-6911.634
 30
1584.553
 70
    32
  0
VERTEX
  8
T36SSILL
 62
2
 10
3305.566
 20
-6920.623
 30
1584.551
 70
    32
  0
VERTEX
  8
T36SSILL
 62
2
 10
3297.659
 20
-6940.110
 30
1584.549
 70
    32
  0
VERTEX
  8
T36SSILL
 62
2
 10
3307.355
 20
-6944.846
 30
1584.551
 70
    32
  0
VERTEX
  8
T36SSILL
 62
2
 10
3311.999
 20
-6953.719
 30
1584.551
 70
    32
  0
VERTEX
  8
T36SSILL
 62
2
 10
3320.243
 20
-6959.139
 30
1584.552
 70
    32
  0
VERTEX
  8
T36SSILL
 62
2
 10
3337.974
 20
-6989.549
 30
1584.553
 70
    32
  0
VERTEX
  8
T36SSILL
 62
2
 10
3341.640
 20
-6992.682
 30
1584.553
 70
    32
  0
VERTEX
  8
T36SSILL
 62
2
 10
3351.397
 20
-6995.342
 30
1584.554
 70
    32
  0
VERTEX
  8
T36SSILL
 62
2
 10
3364.019
 20
-7002.759
 30
1584.556
 70
    32
  0
VERTEX
  8
T36SSILL
 62
2
 10
3384.433
 20
-7031.635
 30
1584.557
 70
    32
  0
VERTEX
  8
T36SSILL
 62
2
 10
3383.603
 20
-7037.237
 30
1584.557
 70
    32
  0
VERTEX
  8
T36SSILL
 62
2
 10
3381.127
 20
-7039.378
 30
1584.556
 70
    32
  0
VERTEX
  8
T36SSILL
 62
2
 10
3386.100
 20
-7043.318
 30
1584.557
 70
    32
  0
VERTEX
  8
T36SSILL
 62
2
 10
3390.356
 20
-7039.730
 30
1584.558
 70
    32
  0
VERTEX
  8
T36SSILL
 62
2
 10
3427.902
 20
-7092.113
 30
1584.561
 70
    32
  0
VERTEX
  8
T36SSILL
 62
2
 10
3434.173
 20
-7087.998
 30
1584.562
 70
    32
  0
VERTEX
  8
T36SSILL
 62
2
 10
3399.018
 20
-7039.725
 30
1584.559
 70
    32
  0
VERTEX
  8
T36SSILL
 62
2
 10
3399.837
 20
-7032.098
 30
1584.559
 70
    32
  0
VERTEX
  8
T36SSILL
 62
2
 10
3405.106
 20
-7029.201
 30
1584.560
 70
    32
  0
VERTEX
  8
T36SSILL
 62
2
 10
3401.235
 20
-7021.289
 30
1584.560
 70
    32
  0
VERTEX
  8
T36SSILL
 62
2
 10
3391.226
 20
-7023.830
 30
1584.559
 70
    32
  0
VERTEX
  8
T36SSILL
 62
2
 10
3384.812
 20
-7019.819
 30
1584.558
 70
    32
  0
VERTEX
  8
T36SSILL
 62
2
 10
3370.256
 20
-6999.406
 30
1584.557
 70
    32
  0
VERTEX
  8
T36SSILL
 62
2
 10
3369.941
 20
-6985.503
 30
1584.557
 70
    32
  0
VERTEX
  8
T36SSILL
 62
2
 10
3360.714
 20
-6964.290
 30
1584.557
 70
    32
  0
VERTEX
  8
T36SSILL
 62
2
 10
3362.011
 20
-6957.508
 30
1584.558
 70
    32
  0
VERTEX
  8
T36SSILL
 62
2
 10
3366.095
 20
-6955.217
 30
1584.558
 70
    32
  0
VERTEX
  8
T36SSILL
 62
2
 10
3370.201
 20
-6950.021
 30
1584.559
 70
    32
  0
VERTEX
  8
T36SSILL
 62
2
 10
3371.115
 20
-6935.268
 30
1584.560
 70
    32
  0
VERTEX
  8
T36SSILL
 62
2
 10
3571.740
 20
-6791.596
 30
1584.596
 70
    32
  0
VERTEX
  8
T36SSILL
 62
2
 10
3579.329
 20
-6784.632
 30
1584.597
 70
    32
  0
VERTEX
  8
T36SSILL
 62
2
 10
3582.963
 20
-6778.908
 30
1584.598
 70
    32
  0
VERTEX
  8
T36SSILL
 62
2
 10
3585.596
 20
-6766.174
 30
1584.599
 70
    32
  0
VERTEX
  8
T36SSILL
 62
2
 10
3742.691
 20
-6985.563
 30
1584.611
 70
    32
  0
VERTEX
  8
T36SSILL
 62
2
 10
3748.136
 20
-6981.232
 30
1584.612
 70
    32
  0
VERTEX
  8
T36SSILL
 62
2
 10
3423.169
 20
-6529.642
 30
1584.588
 70
    32
  0
VERTEX
  8
T36SSILL
 62
2
 10
3433.066
 20
-6530.495
 30
1584.589
 70
    32
  0
VERTEX
  8
T36SSILL
 62
2
 10
3446.229
 20
-6528.338
 30
1584.591
 70
    32
  0
VERTEX
  8
T36SSILL
 62
2
 10
3461.640
 20
-6519.383
 30
1584.594
 70
    32
  0
VERTEX
  8
T36SSILL
 62
2
 10
3470.313
 20
-6517.231
 30
1584.595
 70
    32
  0
VERTEX
  8
T36SSILL
 62
2
 10
3483.292
 20
-6518.518
 30
1584.597
 70
    32
  0
VERTEX
  8
T36SSILL
 62
2
 10
3489.661
 20
-6521.384
 30
1584.598
 70
    32
  0
VERTEX
  8
T36SSILL
 62
2
 10
3495.485
 20
-6526.552
 30
1584.598
 70
    32
  0
VERTEX
  8
T36SSILL
 62
2
 10
3499.111
 20
-6533.028
 30
1584.598
 70
    32
  0
VERTEX
  8
T36SSILL
 62
2
 10
3497.036
 20
-6538.530
 30
1584.598
 70
    32
  0
VERTEX
  8
T36SSILL
 62
2
 10
3503.450
 20
-6539.760
 30
1584.599
 70
    32
  0
VERTEX
  8
T36SSILL
 62
2
 10
3508.677
 20
-6554.114
 30
1584.599
 70
    32
  0
VERTEX
  8
T36SSILL
 62
2
 10
3516.482
 20
-6562.298
 30
1584.599
 70
    32
  0
VERTEX
  8
T36SSILL
 62
2
 10
3523.224
 20
-6566.939
 30
1584.600
 70
    32
  0
VERTEX
  8
T36SSILL
 62
2
 10
3527.707
 20
-6573.571
 30
1584.600
 70
    32
  0
VERTEX
  8
T36SSILL
 62
2
 10
3532.230
 20
-6571.296
 30
1584.601
 70
    32
  0
VERTEX
  8
T36SSILL
 62
2
 10
3548.819
 20
-6572.544
 30
1584.603
 70
    32
  0
VERTEX
  8
T36SSILL
 62
2
 10
3553.498
 20
-6570.803
 30
1584.604
 70
    32
  0
VERTEX
  8
T36SSILL
 62
2
 10
3557.431
 20
-6566.904
 30
1584.605
 70
    32
  0
VERTEX
  8
T36SSILL
 62
2
 10
3555.393
 20
-6543.711
 30
1584.606
 70
    32
  0
VERTEX
  8
T36SSILL
 62
2
 10
3553.536
 20
-6535.155
 30
1584.606
 70
    32
  0
VERTEX
  8
T36SSILL
 62
2
 10
3550.571
 20
-6531.644
 30
1584.606
 70
    32
  0
VERTEX
  8
T36SSILL
 62
2
 10
3545.592
 20
-6530.169
 30
1584.605
 70
    32
  0
VERTEX
  8
T36SSILL
 62
2
 10
3535.730
 20
-6515.921
 30
1584.604
 70
    32
  0
VERTEX
  8
T36SSILL
 62
2
 10
3528.881
 20
-6523.335
 30
1584.603
 70
    32
  0
VERTEX
  8
T36SSILL
 62
2
 10
3515.762
 20
-6533.592
 30
1584.601
 70
    32
  0
VERTEX
  8
T36SSILL
 62
2
 10
3506.811
 20
-6531.015
 30
1584.599
 70
    32
  0
VERTEX
  8
T36SSILL
 62
2
 10
3502.361
 20
-6523.505
 30
1584.599
 70
    32
  0
VERTEX
  8
T36SSILL
 62
2
 10
3494.897
 20
-6515.192
 30
1584.599
 70
    32
  0
VERTEX
  8
T36SSILL
 62
2
 10
3485.323
 20
-6510.479
 30
1584.597
 70
    32
  0
VERTEX
  8
T36SSILL
 62
2
 10
3475.994
 20
-6508.592
 30
1584.596
 70
    32
  0
VERTEX
  8
T36SSILL
 62
2
 10
3541.306
 20
-6461.998
 30
1584.608
 70
    32
  0
VERTEX
  8
T36SSILL
 62
2
 10
3536.461
 20
-6455.616
 30
1584.607
 70
    32
  0
VERTEX
  8
T36SSILL
 62
2
 10
3512.988
 20
-6472.397
 30
1584.603
 70
    32
  0
VERTEX
  8
T36SSILL
 62
2
 10
3509.278
 20
-6466.728
 30
1584.603
 70
    32
  0
VERTEX
  8
T36SSILL
 62
2
 10
3502.240
 20
-6471.706
 30
1584.602
 70
    32
  0
VERTEX
  8
T36SSILL
 62
2
 10
3505.850
 20
-6477.231
 30
1584.602
 70
    32
  0
VERTEX
  8
T36SSILL
 62
2
 10
3446.102
 20
-6521.044
 30
1584.591
 70
    32
  0
VERTEX
  8
T36SSILL
 62
2
 10
3439.158
 20
-6523.069
 30
1584.590
 70
    32
  0
VERTEX
  8
T36SSILL
 62
2
 10
3428.939
 20
-6523.295
 30
1584.589
 70
    32
  0
VERTEX
  8
T36SSILL
 62
2
 10
3425.100
 20
-6522.850
 30
1584.588
 70
    32
  0
VERTEX
  8
T36SSILL
 62
2
 10
3414.075
 20
-6516.039
 30
1584.587
 70
    32
  0
VERTEX
  8
T36SSILL
 62
2
 10
3369.450
 20
-6453.109
 30
1584.584
 70
    32
  0
VERTEX
  8
T36SSILL
 62
2
 10
3374.501
 20
-6454.534
 30
1584.584
 70
    32
  0
VERTEX
  8
T36SSILL
 62
2
 10
3383.630
 20
-6454.741
 30
1584.586
 70
    32
  0
VERTEX
  8
T36SSILL
 62
2
 10
3394.089
 20
-6451.460
 30
1584.587
 70
    32
  0
VERTEX
  8
T36SSILL
 62
2
 10
3444.668
 20
-6414.955
 30
1584.596
 70
    32
  0
VERTEX
  8
T36SSILL
 62
2
 10
3448.371
 20
-6434.215
 30
1584.596
 70
    32
  0
VERTEX
  8
T36SSILL
 62
2
 10
3475.500
 20
-6453.628
 30
1584.599
 70
    32
  0
VERTEX
  8
T36SSILL
 62
2
 10
3482.277
 20
-6447.654
 30
1584.600
 70
    32
  0
VERTEX
  8
T36SSILL
 62
2
 10
3473.283
 20
-6428.633
 30
1584.600
 70
    32
  0
VERTEX
  8
T36SSILL
 62
2
 10
3469.406
 20
-6423.186
 30
1584.599
 70
    32
  0
VERTEX
  8
T36SSILL
 62
2
 10
3461.741
 20
-6418.757
 30
1584.599
 70
    32
  0
VERTEX
  8
T36SSILL
 62
2
 10
3459.321
 20
-6418.506
 30
1584.598
 70
    32
  0
VERTEX
  8
T36SSILL
 62
2
 10
3455.222
 20
-6407.329
 30
1584.598
 70
    32
  0
VERTEX
  8
T36SSILL
 62
2
 10
3468.002
 20
-6398.591
 30
1584.600
 70
    32
  0
VERTEX
  8
T36SSILL
 62
2
 10
3474.973
 20
-6399.543
 30
1584.601
 70
    32
  0
VERTEX
  8
T36SSILL
 62
2
 10
3483.652
 20
-6393.536
 30
1584.603
 70
    32
  0
VERTEX
  8
T36SSILL
 62
2
 10
3495.035
 20
-6388.653
 30
1584.605
 70
    32
  0
VERTEX
  8
T36SSILL
 62
2
 10
3496.331
 20
-6390.216
 30
1584.605
 70
    32
  0
VERTEX
  8
T36SSILL
 62
2
 10
3500.854
 20
-6385.160
 30
1584.606
 70
    32
  0
VERTEX
  8
T36SSILL
 62
2
 10
3503.502
 20
-6387.285
 30
1584.606
 70
    32
  0
VERTEX
  8
T36SSILL
 62
2
 10
3508.471
 20
-6381.172
 30
1584.607
 70
    32
  0
VERTEX
  8
T36SSILL
 62
2
 10
3503.025
 20
-6378.095
 30
1584.606
 70
    32
  0
VERTEX
  8
T36SSILL
 62
2
 10
3494.826
 20
-6369.649
 30
1584.606
 70
    32
  0
VERTEX
  8
T36SSILL
 62
2
 10
3485.563
 20
-6366.004
 30
1584.605
 70
    32
  0
VERTEX
  8
T36SSILL
 62
2
 10
3485.213
 20
-6364.107
 30
1584.605
 70
    32
  0
VERTEX
  8
T36SSILL
 62
2
 10
3479.527
 20
-6368.256
 30
1584.604
 70
    32
  0
VERTEX
  8
T36SSILL
 62
2
 10
3481.858
 20
-6371.778
 30
1584.604
 70
    32
  0
VERTEX
  8
T36SSILL
 62
2
 10
3470.285
 20
-6381.178
 30
1584.602
 70
    32
  0
VERTEX
  8
T36SSILL
 62
2
 10
3467.842
 20
-6389.395
 30
1584.601
 70
    32
  0
VERTEX
  8
T36SSILL
 62
2
 10
3452.653
 20
-6399.907
 30
1584.598
 70
    32
  0
VERTEX
  8
T36SSILL
 62
2
 10
3449.110
 20
-6394.016
 30
1584.598
 70
    32
  0
VERTEX
  8
T36SSILL
 62
2
 10
3447.404
 20
-6382.895
 30
1584.598
 70
    32
  0
VERTEX
  8
T36SSILL
 62
2
 10
3447.433
 20
-6373.354
 30
1584.599
 70
    32
  0
VERTEX
  8
T36SSILL
 62
2
 10
3444.163
 20
-6362.138
 30
1584.599
 70
    32
  0
VERTEX
  8
T36SSILL
 62
2
 10
3440.314
 20
-6356.886
 30
1584.599
 70
    32
  0
VERTEX
  8
T36SSILL
 62
2
 10
3430.828
 20
-6357.246
 30
1584.597
 70
    32
  0
VERTEX
  8
T36SSILL
 62
2
 10
3428.146
 20
-6361.563
 30
1584.597
 70
    32
  0
VERTEX
  8
T36SSILL
 62
2
 10
3430.693
 20
-6371.889
 30
1584.596
 70
    32
  0
VERTEX
  8
T36SSILL
 62
2
 10
3436.272
 20
-6382.576
 30
1584.597
 70
    32
  0
VERTEX
  8
T36SSILL
 62
2
 10
3438.051
 20
-6389.475
 30
1584.597
 70
    32
  0
VERTEX
  8
T36SSILL
 62
2
 10
3438.151
 20
-6392.401
 30
1584.596
 70
    32
  0
VERTEX
  8
T36SSILL
 62
2
 10
3435.352
 20
-6401.185
 30
1584.596
 70
    32
  0
VERTEX
  8
T36SSILL
 62
2
 10
3440.535
 20
-6408.829
 30
1584.596
 70
    32
  0
VERTEX
  8
T36SSILL
 62
2
 10
3389.684
 20
-6445.095
 30
1584.587
 70
    32
  0
VERTEX
  8
T36SSILL
 62
2
 10
3377.495
 20
-6447.113
 30
1584.585
 70
    32
  0
VERTEX
  8
T36SSILL
 62
2
 10
3369.962
 20
-6446.122
 30
1584.584
 70
    32
  0
VERTEX
  8
T36SSILL
 62
2
 10
3363.893
 20
-6443.690
 30
1584.583
 70
    32
  0
VERTEX
  8
T36SSILL
 62
2
 10
3360.300
 20
-6440.507
 30
1584.583
 70
    32
  0
VERTEX
  8
T36SSILL
 62
2
 10
3313.138
 20
-6374.839
 30
1584.579
 70
    32
  0
VERTEX
  8
T36SSILL
 62
2
 10
3320.642
 20
-6377.027
 30
1584.580
 70
    32
  0
VERTEX
  8
T36SSILL
 62
2
 10
3341.649
 20
-6375.538
 30
1584.583
 70
    32
  0
VERTEX
  8
T36SSILL
 62
2
 10
3360.062
 20
-6383.440
 30
1584.586
 70
    32
  0
VERTEX
  8
T36SSILL
 62
2
 10
3364.946
 20
-6383.697
 30
1584.586
 70
    32
  0
VERTEX
  8
T36SSILL
 62
2
 10
3368.863
 20
-6380.237
 30
1584.587
 70
    32
  0
VERTEX
  8
T36SSILL
 62
2
 10
3372.860
 20
-6368.625
 30
1584.588
 70
    32
  0
VERTEX
  8
T36SSILL
 62
2
 10
3372.833
 20
-6361.776
 30
1584.589
 70
    32
  0
VERTEX
  8
T36SSILL
 62
2
 10
3369.069
 20
-6352.805
 30
1584.589
 70
    32
  0
VERTEX
  8
T36SSILL
 62
2
 10
3371.030
 20
-6351.439
 30
1584.589
 70
    32
  0
VERTEX
  8
T36SSILL
 62
2
 10
3373.787
 20
-6355.106
 30
1584.589
 70
    32
  0
VERTEX
  8
T36SSILL
 62
2
 10
3391.329
 20
-6343.266
 30
1584.592
 70
    32
  0
VERTEX
  8
T36SSILL
 62
2
 10
3399.581
 20
-6341.085
 30
1584.593
 70
    32
  0
VERTEX
  8
T36SSILL
 62
2
 10
3403.546
 20
-6341.233
 30
1584.594
 70
    32
  0
VERTEX
  8
T36SSILL
 62
2
 10
3407.222
 20
-6342.976
 30
1584.594
 70
    32
  0
VERTEX
  8
T36SSILL
 62
2
 10
3413.748
 20
-6353.472
 30
1584.595
 70
    32
  0
VERTEX
  8
T36SSILL
 62
2
 10
3415.951
 20
-6353.554
 30
1584.595
 70
    32
  0
VERTEX
  8
T36SSILL
 62
2
 10
3422.098
 20
-6347.405
 30
1584.596
 70
    32
  0
VERTEX
  8
T36SSILL
 62
2
 10
3416.984
 20
-6338.480
 30
1584.596
 70
    32
  0
VERTEX
  8
T36SSILL
 62
2
 10
3414.721
 20
-6331.810
 30
1584.596
 70
    32
  0
VERTEX
  8
T36SSILL
 62
2
 10
3413.943
 20
-6319.404
 30
1584.597
 70
    32
  0
VERTEX
  8
T36SSILL
 62
2
 10
3469.356
 20
-6279.405
 30
1584.607
 70
    32
  0
VERTEX
  8
T36SSILL
 62
2
 10
3464.134
 20
-6273.219
 30
1584.606
 70
    32
  0
VERTEX
  8
T36SSILL
 62
2
 10
3440.188
 20
-6290.749
 30
1584.602
 70
    32
  0
VERTEX
  8
T36SSILL
 62
2
 10
3440.089
 20
-6276.947
 30
1584.602
 70
    32
  0
VERTEX
  8
T36SSILL
 62
2
 10
3436.664
 20
-6267.519
 30
1584.602
 70
    32
  0
VERTEX
  8
T36SSILL
 62
2
 10
3381.882
 20
-6154.000
 30
1584.600
 70
    32
  0
VERTEX
  8
T36SSILL
 62
2
 10
3327.730
 20
-6078.992
 30
1584.596
 70
    32
  0
VERTEX
  8
T36SSILL
 62
2
 10
3310.100
 20
-6067.182
 30
1584.594
 70
    32
  0
VERTEX
  8
T36SSILL
 62
2
 10
3301.906
 20
-6064.494
 30
1584.593
 70
    32
  0
VERTEX
  8
T36SSILL
 62
2
 10
3285.961
 20
-6063.318
 30
1584.591
 70
    32
  0
VERTEX
  8
T36SSILL
 62
2
 10
3317.199
 20
-6040.561
 30
1584.597
 70
    32
  0
VERTEX
  8
T36SSILL
 62
2
 10
3311.586
 20
-6033.734
 30
1584.596
 70
    32
  0
VERTEX
  8
T36SSILL
 62
2
 10
3222.055
 20
-6098.507
 30
1584.580
 70
    32
  0
VERTEX
  8
T36SSILL
 62
2
 10
3220.247
 20
-6097.292
 30
1584.580
 70
    32
  0
VERTEX
  8
T36SSILL
 62
2
 10
3216.383
 20
-6090.636
 30
1584.578
 70
    32
  0
VERTEX
  8
T36SSILL
 62
2
 10
3208.565
 20
-6083.074
 30
1584.572
 70
    32
  0
VERTEX
  8
T36SSILL
 62
2
 10
3210.251
 20
-6077.614
 30
1584.572
 70
    32
  0
VERTEX
  8
T36SSILL
 62
2
 10
3207.809
 20
-6063.105
 30
1584.569
 70
    32
  0
VERTEX
  8
T36SSILL
 62
2
 10
3202.793
 20
-6050.918
 30
1584.564
 70
    32
  0
VERTEX
  8
T36SSILL
 62
2
 10
3196.741
 20
-6040.951
 30
1584.559
 70
    32
  0
VERTEX
  8
T36SSILL
 62
2
 10
3187.140
 20
-6044.281
 30
1584.554
 70
    32
  0
VERTEX
  8
T36SSILL
 62
2
 10
3180.820
 20
-6034.393
 30
1584.549
 70
    32
  0
VERTEX
  8
T36SSILL
 62
2
 10
3174.021
 20
-6039.751
 30
1584.546
 70
    32
  0
VERTEX
  8
T36SSILL
 62
2
 10
3174.388
 20
-6054.518
 30
1584.549
 70
    32
  0
VERTEX
  8
T36SSILL
 62
2
 10
3162.985
 20
-6032.810
 30
1584.539
 70
    32
  0
VERTEX
  8
T36SSILL
 62
2
 10
3236.839
 20
-5979.780
 30
1584.570
 70
    32
  0
VERTEX
  8
T36SSILL
 62
2
 10
3232.590
 20
-5973.498
 30
1584.567
 70
    32
  0
VERTEX
  8
T36SSILL
 62
2
 10
3165.286
 20
-6022.202
 30
1584.538
 70
    32
  0
VERTEX
  8
T36SSILL
 62
2
 10
3154.655
 20
-6011.976
 30
1584.531
 70
    32
  0
VERTEX
  8
T36SSILL
 62
2
 10
3147.459
 20
-6000.978
 30
1584.525
 70
    32
  0
VERTEX
  8
T36SSILL
 62
2
 10
3142.701
 20
-5990.865
 30
1584.521
 70
    32
  0
VERTEX
  8
T36SSILL
 62
2
 10
3120.640
 20
-5960.131
 30
1584.504
 70
    32
  0
VERTEX
  8
T36SSILL
 62
2
 10
3114.055
 20
-5953.109
 30
1584.499
 70
    32
  0
VERTEX
  8
T36SSILL
 62
2
 10
3152.509
 20
-5925.160
 30
1584.515
 70
    32
  0
VERTEX
  8
T36SSILL
 62
2
 10
3147.747
 20
-5918.912
 30
1584.512
 70
    32
  0
VERTEX
  8
T36SSILL
 62
2
 10
3108.553
 20
-5947.804
 30
1584.495
 70
    32
  0
VERTEX
  8
T36SSILL
 62
2
 10
3104.182
 20
-5941.500
 30
1584.491
 70
    32
  0
VERTEX
  8
T36SSILL
 62
2
 10
3093.825
 20
-5949.002
 30
1584.487
 70
    32
  0
VERTEX
  8
T36SSILL
 62
2
 10
3098.263
 20
-5954.938
 30
1584.490
 70
    32
  0
VERTEX
  8
T36SSILL
 62
2
 10
3074.061
 20
-5971.719
 30
1584.480
 70
    32
  0
VERTEX
  8
T36SSILL
 62
2
 10
3069.023
 20
-5969.096
 30
1584.477
 70
    32
  0
VERTEX
  8
T36SSILL
 62
2
 10
3060.956
 20
-5955.913
 30
1584.470
 70
    32
  0
VERTEX
  8
T36SSILL
 62
2
 10
3054.231
 20
-5933.215
 30
1584.463
 70
    32
  0
VERTEX
  8
T36SSILL
 62
2
 10
3052.008
 20
-5911.902
 30
1584.460
 70
    32
  0
VERTEX
  8
T36SSILL
 62
2
 10
3046.229
 20
-5902.175
 30
1584.456
 70
    32
  0
VERTEX
  8
T36SSILL
 62
2
 10
3030.563
 20
-5885.461
 30
1584.446
 70
    32
  0
VERTEX
  8
T36SSILL
 62
2
 10
3016.975
 20
-5864.625
 30
1584.436
 70
    32
  0
VERTEX
  8
T36SSILL
 62
2
 10
3013.003
 20
-5862.765
 30
1584.434
 70
    32
  0
VERTEX
  8
T36SSILL
 62
2
 10
3010.031
 20
-5863.431
 30
1584.432
 70
    32
  0
VERTEX
  8
T36SSILL
 62
2
 10
3004.491
 20
-5868.131
 30
1584.430
 70
    32
  0
VERTEX
  8
T36SSILL
 62
2
 10
3003.890
 20
-5870.049
 30
1584.430
 70
    32
  0
VERTEX
  8
T36SSILL
 62
2
 10
3014.612
 20
-5898.667
 30
1584.438
 70
    32
  0
VERTEX
  8
T36SSILL
 62
2
 10
3016.448
 20
-5916.171
 30
1584.441
 70
    32
  0
VERTEX
  8
T36SSILL
 62
2
 10
3010.843
 20
-5924.027
 30
1584.439
 70
    32
  0
VERTEX
  8
T36SSILL
 62
2
 10
3000.532
 20
-5931.284
 30
1584.434
 70
    32
  0
VERTEX
  8
T36SSILL
 62
2
 10
2998.396
 20
-5932.228
 30
1584.433
 70
    32
  0
VERTEX
  8
T36SSILL
 62
2
 10
2996.277
 20
-5931.337
 30
1584.431
 70
    32
  0
VERTEX
  8
T36SSILL
 62
2
 10
2988.138
 20
-5921.829
 30
1584.426
 70
    32
  0
VERTEX
  8
T36SSILL
 62
2
 10
2632.349
 20
-5422.519
 30
1584.216
 70
    32
  0
VERTEX
  8
T36SSILL
 62
2
 10
2552.688
 20
-5312.398
 30
1584.010
 70
    32
  0
VERTEX
  8
T36SSILL
 62
2
 10
2558.320
 20
-5308.736
 30
1584.006
 70
    32
  0
VERTEX
  8
T36SSILL
 62
2
 10
2553.341
 20
-5301.547
 30
1583.992
 70
    32
  0
VERTEX
  8
T36SSILL
 62
2
 10
2547.768
 20
-5305.600
 30
1583.998
 70
    32
  0
VERTEX
  8
T36SSILL
 62
2
 10
2497.500
 20
-5246.148
 30
1583.885
 70
    32
  0
VERTEX
  8
T36SSILL
 62
2
 10
2470.321
 20
-5208.407
 30
1583.815
 70
    32
  0
VERTEX
  8
T36SSILL
 62
2
 10
2468.640
 20
-5203.597
 30
1583.806
 70
    32
  0
VERTEX
  8
T36SSILL
 62
2
 10
2467.625
 20
-5198.499
 30
1583.797
 70
    32
  0
VERTEX
  8
T36SSILL
 62
2
 10
2468.249
 20
-5189.600
 30
1583.783
 70
    32
  0
VERTEX
  8
T36SSILL
 62
2
 10
2470.946
 20
-5183.993
 30
1583.774
 70
    32
  0
VERTEX
  8
T36SSILL
 62
2
 10
2477.470
 20
-5177.014
 30
1583.764
 70
    32
  0
VERTEX
  8
T36SSILL
 62
2
 10
2515.165
 20
-5159.152
 30
1583.743
 70
    32
  0
VERTEX
  8
T36SSILL
 62
2
 10
2805.206
 20
-4978.820
 30
1583.518
 70
    32
  0
VERTEX
  8
T36SSILL
 62
2
 10
3022.540
 20
-5044.878
 30
1583.868
 70
    32
  0
VERTEX
  8
T36SSILL
 62
2
 10
3268.333
 20
-5116.223
 30
1584.257
 70
    32
  0
VERTEX
  8
T36SSILL
 62
2
 10
3402.588
 20
-5157.754
 30
1584.320
 70
    32
  0
VERTEX
  8
T36SSILL
 62
2
 10
3392.493
 20
-5189.597
 30
1584.324
 70
    32
  0
VERTEX
  8
T36SSILL
 62
2
 10
3399.463
 20
-5191.105
 30
1584.276
 70
    32
  0
VERTEX
  8
T36SSILL
 62
2
 10
3409.556
 20
-5159.879
 30
1584.270
 70
    32
  0
VERTEX
  8
T36SSILL
 62
2
 10
3488.152
 20
-5183.172
 30
1583.707
 70
    32
  0
VERTEX
  8
T36SSILL
 62
2
 10
3487.867
 20
-5201.261
 30
1583.694
 70
    32
  0
VERTEX
  8
T36SSILL
 62
2
 10
3495.014
 20
-5201.798
 30
1583.666
 70
    32
  0
VERTEX
  8
T36SSILL
 62
2
 10
3494.151
 20
-5184.414
 30
1583.665
 70
    32
  0
VERTEX
  8
T36SSILL
 62
2
 10
3573.275
 20
-5208.766
 30
1583.592
 70
    32
  0
VERTEX
  8
T36SSILL
 62
2
 10
3722.560
 20
-5413.549
 30
1583.682
 70
    32
  0
VERTEX
  8
T36SSILL
 62
2
 10
3723.851
 20
-5429.162
 30
1583.718
 70
    32
  0
VERTEX
  8
T36SSILL
 62
2
 10
3728.158
 20
-5441.940
 30
1583.750
 70
    32
  0
VERTEX
  8
T36SSILL
 62
2
 10
3743.410
 20
-5642.430
 30
1584.488
 70
    32
  0
VERTEX
  8
T36SSILL
 62
2
 10
3751.752
 20
-5641.292
 30
1584.448
 70
    32
  0
VERTEX
  8
T36SSILL
 62
2
 10
3736.211
 20
-5441.891
 30
1583.758
 70
    32
  0
VERTEX
  8
T36SSILL
 62
2
 10
3743.506
 20
-5440.338
 30
1583.762
 70
    32
  0
VERTEX
  8
T36SSILL
 62
2
 10
3753.650
 20
-5446.100
 30
1583.786
 70
    32
  0
VERTEX
  8
T36SSILL
 62
2
 10
3768.585
 20
-5446.038
 30
1583.807
 70
    32
  0
VERTEX
  8
T36SSILL
 62
2
 10
3781.330
 20
-5438.081
 30
1583.808
 70
    32
  0
VERTEX
  8
T36SSILL
 62
2
 10
3932.500
 20
-5330.029
 30
1583.792
 70
    32
  0
VERTEX
  8
T36SSILL
 62
2
 10
3935.795
 20
-5334.669
 30
1583.806
 70
    32
  0
VERTEX
  8
T36SSILL
 62
2
 10
3943.288
 20
-5329.557
 30
1583.806
 70
    32
  0
VERTEX
  8
T36SSILL
 62
2
 10
3939.635
 20
-5325.265
 30
1583.792
 70
    32
  0
VERTEX
  8
T36SSILL
 62
2
 10
3980.603
 20
-5295.424
 30
1583.787
 70
    32
  0
VERTEX
  8
T36SSILL
 62
2
 10
4041.845
 20
-5379.767
 30
1583.972
 70
    32
  0
VERTEX
  8
T36SSILL
 62
2
 10
4047.017
 20
-5376.303
 30
1583.967
 70
    32
  0
VERTEX
  8
T36SSILL
 62
2
 10
4048.298
 20
-5373.139
 30
1583.961
 70
    32
  0
VERTEX
  8
T36SSILL
 62
2
 10
4114.518
 20
-5325.436
 30
1583.943
 70
    32
  0
VERTEX
  8
T36SSILL
 62
2
 10
4118.079
 20
-5329.992
 30
1583.950
 70
    32
  0
VERTEX
  8
T36SSILL
 62
2
 10
4124.250
 20
-5324.597
 30
1583.962
 70
    32
  0
VERTEX
  8
T36SSILL
 62
2
 10
4121.567
 20
-5320.407
 30
1583.956
 70
    32
  0
VERTEX
  8
T36SSILL
 62
2
 10
4131.840
 20
-5312.328
 30
1583.976
 70
    32
  0
VERTEX
  8
T36SSILL
 62
2
 10
4139.024
 20
-5310.393
 30
1583.990
 70
    32
  0
VERTEX
  8
T36SSILL
 62
2
 10
4148.748
 20
-5310.172
 30
1584.009
 70
    32
  0
VERTEX
  8
T36SSILL
 62
2
 10
4160.342
 20
-5315.367
 30
1584.031
 70
    32
  0
VERTEX
  8
T36SSILL
 62
2
 10
4164.797
 20
-5319.228
 30
1584.040
 70
    32
  0
VERTEX
  8
T36SSILL
 62
2
 10
4201.731
 20
-5371.515
 30
1584.109
 70
    32
  0
VERTEX
  8
T36SSILL
 62
2
 10
4199.104
 20
-5382.703
 30
1584.104
 70
    32
  0
VERTEX
  8
T36SSILL
 62
2
 10
4148.519
 20
-5417.893
 30
1584.036
 70
    32
  0
VERTEX
  8
T36SSILL
 62
2
 10
4153.289
 20
-5424.585
 30
1584.047
 70
    32
  0
VERTEX
  8
T36SSILL
 62
2
 10
4164.719
 20
-5415.815
 30
1584.037
 70
    32
  0
VERTEX
  8
T36SSILL
 62
2
 10
4168.449
 20
-5420.992
 30
1584.044
 70
    32
  0
VERTEX
  8
T36SSILL
 62
2
 10
4175.060
 20
-5415.691
 30
1584.057
 70
    32
  0
VERTEX
  8
T36SSILL
 62
2
 10
4171.585
 20
-5411.314
 30
1584.051
 70
    32
  0
VERTEX
  8
T36SSILL
 62
2
 10
4209.787
 20
-5383.467
 30
1584.125
 70
    32
  0
VERTEX
  8
T36SSILL
 62
2
 10
4359.443
 20
-5587.960
 30
1584.408
 70
    32
  0
VERTEX
  8
T36SSILL
 62
2
 10
4411.028
 20
-5664.867
 30
1584.505
 70
    32
  0
VERTEX
  8
T36SSILL
 62
2
 10
4403.414
 20
-5669.949
 30
1584.490
 70
    32
  0
VERTEX
  8
T36SSILL
 62
2
 10
4408.234
 20
-5677.209
 30
1584.499
 70
    32
  0
VERTEX
  8
T36SSILL
 62
2
 10
4415.516
 20
-5671.827
 30
1584.514
 70
    32
  0
VERTEX
  8
T36SSILL
 62
2
 10
4769.338
 20
-6163.158
 30
1584.806
 70
    32
  0
VERTEX
  8
T36SSILL
 62
2
 10
4762.568
 20
-6167.885
 30
1584.806
 70
    32
  0
VERTEX
  8
T36SSILL
 62
2
 10
4767.000
 20
-6173.813
 30
1584.806
 70
    32
  0
VERTEX
  8
T36SSILL
 62
2
 10
4773.527
 20
-6168.977
 30
1584.806
 70
    32
  0
VERTEX
  8
T36SSILL
 62
2
 10
4917.611
 20
-6369.143
 30
1584.810
 70
    32
  0
VERTEX
  8
T36SSILL
 62
2
 10
4923.307
 20
-6362.990
 30
1584.811
 70
    32
  0
VERTEX
  8
T36SSILL
 62
2
 10
4780.022
 20
-6164.466
 30
1584.806
 70
    32
  0
VERTEX
  8
T36SSILL
 62
2
 10
4787.544
 20
-6159.469
 30
1584.806
 70
    32
  0
VERTEX
  8
T36SSILL
 62
2
 10
4783.543
 20
-6153.091
 30
1584.806
 70
    32
  0
VERTEX
  8
T36SSILL
 62
2
 10
4775.675
 20
-6158.442
 30
1584.806
 70
    32
  0
VERTEX
  8
T36SSILL
 62
2
 10
4421.925
 20
-5668.073
 30
1584.526
 70
    32
  0
VERTEX
  8
T36SSILL
 62
2
 10
4429.720
 20
-5662.202
 30
1584.527
 70
    32
  0
VERTEX
  8
T36SSILL
 62
2
 10
4425.127
 20
-5655.101
 30
1584.518
 70
    32
  0
VERTEX
  8
T36SSILL
 62
2
 10
4417.477
 20
-5660.429
 30
1584.518
 70
    32
  0
VERTEX
  8
T36SSILL
 62
2
 10
4366.115
 20
-5584.693
 30
1584.421
 70
    32
  0
VERTEX
  8
T36SSILL
 62
2
 10
4182.633
 20
-5333.256
 30
1584.074
 70
    32
  0
VERTEX
  8
T36SSILL
 62
2
 10
4206.832
 20
-5315.373
 30
1584.081
 70
    32
  0
VERTEX
  8
T36SSILL
 62
2
 10
4210.100
 20
-5317.155
 30
1584.081
 70
    32
  0
VERTEX
  8
T36SSILL
 62
2
 10
4214.751
 20
-5315.904
 30
1584.073
 70
    32
  0
VERTEX
  8
T36SSILL
 62
2
 10
4219.894
 20
-5309.638
 30
1584.054
 70
    32
  0
VERTEX
  8
T36SSILL
 62
2
 10
4217.710
 20
-5307.753
 30
1584.052
 70
    32
  0
VERTEX
  8
T36SSILL
 62
2
 10
4227.613
 20
-5300.818
 30
1584.039
 70
    32
  0
VERTEX
  8
T36SSILL
 62
2
 10
4222.925
 20
-5294.656
 30
1584.032
 70
    32
  0
VERTEX
  8
T36SSILL
 62
2
 10
4211.498
 20
-5302.791
 30
1584.050
 70
    32
  0
VERTEX
  8
T36SSILL
 62
2
 10
4206.005
 20
-5289.133
 30
1584.028
 70
    32
  0
VERTEX
  8
T36SSILL
 62
2
 10
4206.088
 20
-5287.322
 30
1584.024
 70
    32
  0
VERTEX
  8
T36SSILL
 62
2
 10
4212.645
 20
-5277.557
 30
1584.019
 70
    32
  0
VERTEX
  8
T36SSILL
 62
2
 10
4211.461
 20
-5268.264
 30
1584.020
 70
    32
  0
VERTEX
  8
T36SSILL
 62
2
 10
4207.428
 20
-5266.653
 30
1584.013
 70
    32
  0
VERTEX
  8
T36SSILL
 62
2
 10
4199.052
 20
-5267.597
 30
1583.999
 70
    32
  0
VERTEX
  8
T36SSILL
 62
2
 10
4197.281
 20
-5266.829
 30
1583.997
 70
    32
  0
VERTEX
  8
T36SSILL
 62
2
 10
4182.784
 20
-5255.351
 30
1583.987
 70
    32
  0
VERTEX
  8
T36SSILL
 62
2
 10
4168.567
 20
-5249.133
 30
1583.991
 70
    32
  0
VERTEX
  8
T36SSILL
 62
2
 10
4158.048
 20
-5242.149
 30
1583.989
 70
    32
  0
VERTEX
  8
T36SSILL
 62
2
 10
4139.125
 20
-5217.435
 30
1583.961
 70
    32
  0
VERTEX
  8
T36SSILL
 62
2
 10
4135.018
 20
-5213.801
 30
1583.959
 70
    32
  0
VERTEX
  8
T36SSILL
 62
2
 10
4127.229
 20
-5211.250
 30
1583.963
 70
    32
  0
VERTEX
  8
T36SSILL
 62
2
 10
4122.849
 20
-5214.051
 30
1583.961
 70
    32
  0
VERTEX
  8
T36SSILL
 62
2
 10
4111.866
 20
-5225.667
 30
1583.940
 70
    32
  0
VERTEX
  8
T36SSILL
 62
2
 10
4103.754
 20
-5231.554
 30
1583.924
 70
    32
  0
VERTEX
  8
T36SSILL
 62
2
 10
4104.184
 20
-5234.097
 30
1583.925
 70
    32
  0
VERTEX
  8
T36SSILL
 62
2
 10
4086.294
 20
-5282.458
 30
1583.890
 70
    32
  0
VERTEX
  8
T36SSILL
 62
2
 10
4084.096
 20
-5279.551
 30
1583.885
 70
    32
  0
VERTEX
  8
T36SSILL
 62
2
 10
4078.241
 20
-5283.671
 30
1583.874
 70
    32
  0
VERTEX
  8
T36SSILL
 62
2
 10
4101.213
 20
-5316.065
 30
1583.917
 70
    32
  0
VERTEX
  8
T36SSILL
 62
2
 10
4098.226
 20
-5327.777
 30
1583.911
 70
    32
  0
VERTEX
  8
T36SSILL
 62
2
 10
4095.258
 20
-5331.537
 30
1583.906
 70
    32
  0
VERTEX
  8
T36SSILL
 62
2
 10
4042.799
 20
-5368.115
 30
1583.953
 70
    32
  0
VERTEX
  8
T36SSILL
 62
2
 10
3986.680
 20
-5290.469
 30
1583.785
 70
    32
  0
VERTEX
  8
T36SSILL
 62
2
 10
4024.507
 20
-5264.119
 30
1583.779
 70
    32
  0
VERTEX
  8
T36SSILL
 62
2
 10
4027.237
 20
-5264.863
 30
1583.781
 70
    32
  0
VERTEX
  8
T36SSILL
 62
2
 10
4045.059
 20
-5279.952
 30
1583.810
 70
    32
  0
VERTEX
  8
T36SSILL
 62
2
 10
4069.880
 20
-5261.290
 30
1583.858
 70
    32
  0
VERTEX
  8
T36SSILL
 62
2
 10
4080.192
 20
-5256.835
 30
1583.878
 70
    32
  0
VERTEX
  8
T36SSILL
 62
2
 10
4070.252
 20
-5240.440
 30
1583.860
 70
    32
  0
VERTEX
  8
T36SSILL
 62
2
 10
4070.848
 20
-5235.588
 30
1583.861
 70
    32
  0
VERTEX
  8
T36SSILL
 62
2
 10
4105.796
 20
-5213.087
 30
1583.929
 70
    32
  0
VERTEX
  8
T36SSILL
 62
2
 10
4109.781
 20
-5212.434
 30
1583.936
 70
    32
  0
VERTEX
  8
T36SSILL
 62
2
 10
4119.291
 20
-5195.508
 30
1583.940
 70
    32
  0
VERTEX
  8
T36SSILL
 62
2
 10
4128.216
 20
-5189.002
 30
1583.916
 70
    32
  0
VERTEX
  8
T36SSILL
 62
2
 10
4123.949
 20
-5184.349
 30
1583.911
 70
    32
  0
VERTEX
  8
T36SSILL
 62
2
 10
4115.930
 20
-5189.188
 30
1583.931
 70
    32
  0
VERTEX
  8
T36SSILL
 62
2
 10
4104.655
 20
-5180.021
 30
1583.926
 70
    32
  0
VERTEX
  8
T36SSILL
 62
2
 10
4102.667
 20
-5176.724
 30
1583.921
 70
    32
  0
VERTEX
  8
T36SSILL
 62
2
 10
4097.365
 20
-5176.740
 30
1583.913
 70
    32
  0
VERTEX
  8
T36SSILL
 62
2
 10
4091.647
 20
-5174.807
 30
1583.902
 70
    32
  0
VERTEX
  8
T36SSILL
 62
2
 10
4072.049
 20
-5186.293
 30
1583.864
 70
    32
  0
VERTEX
  8
T36SSILL
 62
2
 10
4053.737
 20
-5200.714
 30
1583.829
 70
    32
  0
VERTEX
  8
T36SSILL
 62
2
 10
4036.906
 20
-5210.205
 30
1583.796
 70
    32
  0
VERTEX
  8
T36SSILL
 62
2
 10
4021.225
 20
-5226.075
 30
1583.766
 70
    32
  0
VERTEX
  8
T36SSILL
 62
2
 10
4004.267
 20
-5238.393
 30
1583.747
 70
    32
  0
VERTEX
  8
T36SSILL
 62
2
 10
3997.868
 20
-5247.585
 30
1583.740
 70
    32
  0
VERTEX
  8
T36SSILL
 62
2
 10
3991.169
 20
-5252.796
 30
1583.733
 70
    32
  0
VERTEX
  8
T36SSILL
 62
2
 10
3992.460
 20
-5255.376
 30
1583.736
 70
    32
  0
VERTEX
  8
T36SSILL
 62
2
 10
4008.251
 20
-5257.359
 30
1583.753
 70
    32
  0
VERTEX
  8
T36SSILL
 62
2
 10
4014.265
 20
-5256.999
 30
1583.759
 70
    32
  0
VERTEX
  8
T36SSILL
 62
2
 10
4018.915
 20
-5259.448
 30
1583.766
 70
    32
  0
VERTEX
  8
T36SSILL
 62
2
 10
3982.070
 20
-5285.016
 30
1583.767
 70
    32
  0
VERTEX
  8
T36SSILL
 62
2
 10
3976.011
 20
-5275.743
 30
1583.740
 70
    32
  0
VERTEX
  8
T36SSILL
 62
2
 10
3980.469
 20
-5266.348
 30
1583.734
 70
    32
  0
VERTEX
  8
T36SSILL
 62
2
 10
3966.180
 20
-5244.856
 30
1583.705
 70
    32
  0
VERTEX
  8
T36SSILL
 62
2
 10
3980.680
 20
-5231.356
 30
1583.720
 70
    32
  0
VERTEX
  8
T36SSILL
 62
2
 10
3986.029
 20
-5227.894
 30
1583.726
 70
    32
  0
VERTEX
  8
T36SSILL
 62
2
 10
3993.231
 20
-5237.624
 30
1583.735
 70
    32
  0
VERTEX
  8
T36SSILL
 62
2
 10
4008.039
 20
-5227.487
 30
1583.751
 70
    32
  0
VERTEX
  8
T36SSILL
 62
2
 10
4004.219
 20
-5222.486
 30
1583.746
 70
    32
  0
VERTEX
  8
T36SSILL
 62
2
 10
4009.230
 20
-5217.870
 30
1583.751
 70
    32
  0
VERTEX
  8
T36SSILL
 62
2
 10
4001.420
 20
-5207.336
 30
1583.742
 70
    32
  0
VERTEX
  8
T36SSILL
 62
2
 10
4021.312
 20
-5193.733
 30
1583.767
 70
    32
  0
VERTEX
  8
T36SSILL
 62
2
 10
4019.080
 20
-5188.931
 30
1583.762
 70
    32
  0
VERTEX
  8
T36SSILL
 62
2
 10
4037.383
 20
-5175.129
 30
1583.798
 70
    32
  0
VERTEX
  8
T36SSILL
 62
2
 10
4033.650
 20
-5170.218
 30
1583.791
 70
    32
  0
VERTEX
  8
T36SSILL
 62
2
 10
3979.838
 20
-5208.810
 30
1583.718
 70
    32
  0
VERTEX
  8
T36SSILL
 62
2
 10
3976.276
 20
-5204.255
 30
1583.714
 70
    32
  0
VERTEX
  8
T36SSILL
 62
2
 10
3966.196
 20
-5211.187
 30
1583.703
 70
    32
  0
VERTEX
  8
T36SSILL
 62
2
 10
3973.474
 20
-5221.891
 30
1583.712
 70
    32
  0
VERTEX
  8
T36SSILL
 62
2
 10
3962.376
 20
-5232.167
 30
1583.700
 70
    32
  0
VERTEX
  8
T36SSILL
 62
2
 10
3942.362
 20
-5228.802
 30
1583.678
 70
    32
  0
VERTEX
  8
T36SSILL
 62
2
 10
3927.885
 20
-5208.103
 30
1583.660
 70
    32
  0
VERTEX
  8
T36SSILL
 62
2
 10
3935.918
 20
-5202.292
 30
1583.669
 70
    32
  0
VERTEX
  8
T36SSILL
 62
2
 10
3940.982
 20
-5206.779
 30
1583.675
 70
    32
  0
VERTEX
  8
T36SSILL
 62
2
 10
3944.792
 20
-5212.575
 30
1583.679
 70
    32
  0
VERTEX
  8
T36SSILL
 62
2
 10
3950.481
 20
-5210.090
 30
1583.686
 70
    32
  0
VERTEX
  8
T36SSILL
 62
2
 10
3953.524
 20
-5207.303
 30
1583.689
 70
    32
  0
VERTEX
  8
T36SSILL
 62
2
 10
3954.641
 20
-5203.165
 30
1583.690
 70
    32
  0
VERTEX
  8
T36SSILL
 62
2
 10
3948.147
 20
-5193.267
 30
1583.682
 70
    32
  0
VERTEX
  8
T36SSILL
 62
2
 10
4033.027
 20
-5131.591
 30
1583.791
 70
    32
  0
VERTEX
  8
T36SSILL
 62
2
 10
4033.962
 20
-5134.343
 30
1583.792
 70
    32
  0
VERTEX
  8
T36SSILL
 62
2
 10
4042.332
 20
-5142.676
 30
1583.808
 70
    32
  0
VERTEX
  8
T36SSILL
 62
2
 10
4038.216
 20
-5172.401
 30
1583.800
 70
    32
  0
VERTEX
  8
T36SSILL
 62
2
 10
4049.321
 20
-5174.584
 30
1583.821
 70
    32
  0
VERTEX
  8
T36SSILL
 62
2
 10
4056.771
 20
-5159.574
 30
1583.836
 70
    32
  0
VERTEX
  8
T36SSILL
 62
2
 10
4063.633
 20
-5161.877
 30
1583.849
 70
    32
  0
VERTEX
  8
T36SSILL
 62
2
 10
4070.737
 20
-5159.323
 30
1583.862
 70
    32
  0
VERTEX
  8
T36SSILL
 62
2
 10
4065.960
 20
-5146.709
 30
1583.853
 70
    32
  0
VERTEX
  8
T36SSILL
 62
2
 10
4061.217
 20
-5138.072
 30
1583.845
 70
    32
  0
VERTEX
  8
T36SSILL
 62
2
 10
4060.857
 20
-5132.058
 30
1583.844
 70
    32
  0
VERTEX
  8
T36SSILL
 62
2
 10
4050.248
 20
-5119.454
 30
1583.824
 70
    32
  0
VERTEX
  8
T36SSILL
 62
2
 10
4069.430
 20
-5106.017
 30
1583.824
 70
    32
  0
VERTEX
  8
T36SSILL
 62
2
 10
4073.172
 20
-5110.310
 30
1583.829
 70
    32
  0
VERTEX
  8
T36SSILL
 62
2
 10
4084.386
 20
-5117.444
 30
1583.846
 70
    32
  0
VERTEX
  8
T36SSILL
 62
2
 10
4093.332
 20
-5128.965
 30
1583.858
 70
    32
  0
VERTEX
  8
T36SSILL
 62
2
 10
4099.441
 20
-5134.616
 30
1583.867
 70
    32
  0
VERTEX
  8
T36SSILL
 62
2
 10
4105.845
 20
-5131.522
 30
1583.878
 70
    32
  0
VERTEX
  8
T36SSILL
 62
2
 10
4107.786
 20
-5118.823
 30
1583.884
 70
    32
  0
VERTEX
  8
T36SSILL
 62
2
 10
4097.968
 20
-5099.955
 30
1583.873
 70
    32
  0
VERTEX
  8
T36SSILL
 62
2
 10
4097.464
 20
-5091.553
 30
1583.874
 70
    32
  0
VERTEX
  8
T36SSILL
 62
2
 10
4101.079
 20
-5085.681
 30
1583.881
 70
    32
  0
VERTEX
  8
T36SSILL
 62
2
 10
4094.980
 20
-5079.235
 30
1583.873
 70
    32
  0
VERTEX
  8
T36SSILL
 62
2
 10
4087.779
 20
-5082.407
 30
1583.860
 70
    32
  0
VERTEX
  8
T36SSILL
 62
2
 10
4080.915
 20
-5080.281
 30
1583.849
 70
    32
  0
VERTEX
  8
T36SSILL
 62
2
 10
4076.077
 20
-5091.615
 30
1583.839
 70
    32
  0
VERTEX
  8
T36SSILL
 62
2
 10
4050.831
 20
-5109.034
 30
1583.825
 70
    32
  0
VERTEX
  8
T36SSILL
 62
2
 10
4048.370
 20
-5108.117
 30
1583.821
 70
    32
  0
VERTEX
  8
T36SSILL
 62
2
 10
4043.907
 20
-5104.875
 30
1583.812
 70
    32
  0
VERTEX
  8
T36SSILL
 62
2
 10
4035.522
 20
-5084.612
 30
1583.796
 70
    32
  0
VERTEX
  8
T36SSILL
 62
2
 10
4029.037
 20
-5080.636
 30
1583.784
 70
    32
  0
VERTEX
  8
T36SSILL
 62
2
 10
4027.165
 20
-5075.308
 30
1583.781
 70
    32
  0
VERTEX
  8
T36SSILL
 62
2
 10
4024.533
 20
-5060.956
 30
1583.776
 70
    32
  0
VERTEX
  8
T36SSILL
 62
2
 10
4025.876
 20
-5046.658
 30
1583.767
 70
    32
  0
VERTEX
  8
T36SSILL
 62
2
 10
4025.402
 20
-5036.047
 30
1583.768
 70
    32
  0
VERTEX
  8
T36SSILL
 62
2
 10
4005.679
 20
-5043.732
 30
1583.740
 70
    32
  0
VERTEX
  8
T36SSILL
 62
2
 10
4003.257
 20
-5039.899
 30
1583.735
 70
    32
  0
VERTEX
  8
T36SSILL
 62
2
 10
3997.012
 20
-5044.233
 30
1583.728
 70
    32
  0
VERTEX
  8
T36SSILL
 62
2
 10
4002.273
 20
-5053.760
 30
1583.734
 70
    32
  0
VERTEX
  8
T36SSILL
 62
2
 10
4003.699
 20
-5059.347
 30
1583.736
 70
    32
  0
VERTEX
  8
T36SSILL
 62
2
 10
4002.700
 20
-5061.366
 30
1583.735
 70
    32
  0
VERTEX
  8
T36SSILL
 62
2
 10
3993.852
 20
-5068.669
 30
1583.725
 70
    32
  0
VERTEX
  8
T36SSILL
 62
2
 10
3981.707
 20
-5084.410
 30
1583.713
 70
    32
  0
VERTEX
  8
T36SSILL
 62
2
 10
3954.967
 20
-5101.278
 30
1583.686
 70
    32
  0
VERTEX
  8
T36SSILL
 62
2
 10
3948.884
 20
-5106.674
 30
1583.683
 70
    32
  0
VERTEX
  8
T36SSILL
 62
2
 10
3947.172
 20
-5115.577
 30
1583.678
 70
    32
  0
VERTEX
  8
T36SSILL
 62
2
 10
3947.990
 20
-5120.448
 30
1583.678
 70
    32
  0
VERTEX
  8
T36SSILL
 62
2
 10
3931.763
 20
-5131.008
 30
1583.668
 70
    32
  0
VERTEX
  8
T36SSILL
 62
2
 10
3900.780
 20
-5128.378
 30
1583.662
 70
    32
  0
VERTEX
  8
T36SSILL
 62
2
 10
3893.263
 20
-5128.805
 30
1583.661
 70
    32
  0
VERTEX
  8
T36SSILL
 62
2
 10
3886.685
 20
-5131.632
 30
1583.658
 70
    32
  0
VERTEX
  8
T36SSILL
 62
2
 10
3893.946
 20
-5143.573
 30
1583.654
 70
    32
  0
VERTEX
  8
T36SSILL
 62
2
 10
3896.022
 20
-5153.322
 30
1583.650
 70
    32
  0
VERTEX
  8
T36SSILL
 62
2
 10
3895.730
 20
-5155.350
 30
1583.650
 70
    32
  0
VERTEX
  8
T36SSILL
 62
2
 10
3890.763
 20
-5156.696
 30
1583.648
 70
    32
  0
VERTEX
  8
T36SSILL
 62
2
 10
3871.779
 20
-5129.574
 30
1583.655
 70
    32
  0
VERTEX
  8
T36SSILL
 62
2
 10
3871.256
 20
-5122.497
 30
1583.658
 70
    32
  0
VERTEX
  8
T36SSILL
 62
2
 10
3873.303
 20
-5121.464
 30
1583.659
 70
    32
  0
VERTEX
  8
T36SSILL
 62
2
 10
3876.414
 20
-5126.632
 30
1583.658
 70
    32
  0
VERTEX
  8
T36SSILL
 62
2
 10
3882.302
 20
-5122.559
 30
1583.661
 70
    32
  0
VERTEX
  8
T36SSILL
 62
2
 10
3879.024
 20
-5116.682
 30
1583.663
 70
    32
  0
VERTEX
  8
T36SSILL
 62
2
 10
3895.616
 20
-5105.243
 30
1583.671
 70
    32
  0
VERTEX
  8
T36SSILL
 62
2
 10
3898.992
 20
-5110.414
 30
1583.670
 70
    32
  0
VERTEX
  8
T36SSILL
 62
2
 10
3904.965
 20
-5106.607
 30
1583.673
 70
    32
  0
VERTEX
  8
T36SSILL
 62
2
 10
3901.590
 20
-5101.347
 30
1583.674
 70
    32
  0
VERTEX
  8
T36SSILL
 62
2
 10
3925.697
 20
-5083.206
 30
1583.688
 70
    32
  0
VERTEX
  8
T36SSILL
 62
2
 10
3928.203
 20
-5087.393
 30
1583.686
 70
    32
  0
VERTEX
  8
T36SSILL
 62
2
 10
3934.985
 20
-5082.537
 30
1583.690
 70
    32
  0
VERTEX
  8
T36SSILL
 62
2
 10
3931.418
 20
-5078.423
 30
1583.691
 70
    32
  0
VERTEX
  8
T36SSILL
 62
2
 10
3954.448
 20
-5061.505
 30
1583.703
 70
    32
  0
VERTEX
  8
T36SSILL
 62
2
 10
3957.907
 20
-5067.031
 30
1583.702
 70
    32
  0
VERTEX
  8
T36SSILL
 62
2
 10
3964.066
 20
-5062.519
 30
1583.705
 70
    32
  0
VERTEX
  8
T36SSILL
 62
2
 10
3959.896
 20
-5057.248
 30
1583.706
 70
    32
  0
VERTEX
  8
T36SSILL
 62
2
 10
3983.636
 20
-5040.074
 30
1583.719
 70
    32
  0
VERTEX
  8
T36SSILL
 62
2
 10
3987.247
 20
-5045.552
 30
1583.718
 70
    32
  0
VERTEX
  8
T36SSILL
 62
2
 10
3993.933
 20
-5041.270
 30
1583.724
 70
    32
  0
VERTEX
  8
T36SSILL
 62
2
 10
3989.621
 20
-5035.384
 30
1583.723
 70
    32
  0
VERTEX
  8
T36SSILL
 62
2
 10
4015.579
 20
-5017.621
 30
1583.757
 70
    32
  0
VERTEX
  8
T36SSILL
 62
2
 10
4019.473
 20
-5023.683
 30
1583.762
 70
    32
  0
VERTEX
  8
T36SSILL
 62
2
 10
4026.424
 20
-5019.359
 30
1583.774
 70
    32
  0
VERTEX
  8
T36SSILL
 62
2
 10
4021.566
 20
-5012.754
 30
1583.768
 70
    32
  0
VERTEX
  8
T36SSILL
 62
2
 10
4045.471
 20
-4996.465
 30
1583.811
 70
    32
  0
VERTEX
  8
T36SSILL
 62
2
 10
4049.108
 20
-5001.905
 30
1583.815
 70
    32
  0
VERTEX
  8
T36SSILL
 62
2
 10
4055.439
 20
-4997.750
 30
1583.827
 70
    32
  0
VERTEX
  8
T36SSILL
 62
2
 10
4051.634
 20
-4991.601
 30
1583.822
 70
    32
  0
VERTEX
  8
T36SSILL
 62
2
 10
4056.639
 20
-4987.515
 30
1583.831
 70
    32
  0
VERTEX
  8
T36SSILL
 62
2
 10
4051.940
 20
-4982.149
 30
1583.825
 70
    32
  0
VERTEX
  8
T36SSILL
 62
2
 10
4013.751
 20
-5009.024
 30
1583.756
 70
    32
  0
VERTEX
  8
T36SSILL
 62
2
 10
3989.033
 20
-4974.665
 30
1583.725
 70
    32
  0
VERTEX
  8
T36SSILL
 62
2
 10
4047.941
 20
-4931.812
 30
1583.830
 70
    32
  0
VERTEX
  8
T36SSILL
 62
2
 10
4066.974
 20
-4961.852
 30
1583.854
 70
    32
  0
VERTEX
  8
T36SSILL
 62
2
 10
4072.767
 20
-4958.219
 30
1583.864
 70
    32
  0
VERTEX
  8
T36SSILL
 62
2
 10
4053.645
 20
-4928.266
 30
1583.840
 70
    32
  0
VERTEX
  8
T36SSILL
 62
2
 10
4057.488
 20
-4925.137
 30
1583.847
 70
    32
  0
VERTEX
  8
T36SSILL
 62
2
 10
4054.299
 20
-4919.173
 30
1583.843
 70
    32
  0
VERTEX
  8
T36SSILL
 62
2
 10
4049.754
 20
-4921.939
 30
1583.835
 70
    32
  0
VERTEX
  8
T36SSILL
 62
2
 10
4032.512
 20
-4896.696
 30
1583.813
 70
    32
  0
VERTEX
  8
T36SSILL
 62
2
 10
4027.872
 20
-4899.990
 30
1583.804
 70
    32
  0
VERTEX
  8
T36SSILL
 62
2
 10
4043.781
 20
-4925.834
 30
1583.824
 70
    32
  0
VERTEX
  8
T36SSILL
 62
2
 10
3838.056
 20
-5075.032
 30
1583.672
 70
    32
  0
VERTEX
  8
T36SSILL
 62
2
 10
3834.317
 20
-5070.562
 30
1583.673
 70
    32
  0
VERTEX
  8
T36SSILL
 62
2
 10
3829.945
 20
-5073.684
 30
1583.671
 70
    32
  0
VERTEX
  8
T36SSILL
 62
2
 10
3827.939
 20
-5070.145
 30
1583.672
 70
    32
  0
VERTEX
  8
T36SSILL
 62
2
 10
3829.057
 20
-5069.452
 30
1583.672
 70
    32
  0
VERTEX
  8
T36SSILL
 62
2
 10
3811.440
 20
-5041.460
 30
1583.681
 70
    32
  0
VERTEX
  8
T36SSILL
 62
2
 10
3880.577
 20
-4991.368
 30
1583.704
 70
    32
  0
VERTEX
  8
T36SSILL
 62
2
 10
3874.945
 20
-4985.674
 30
1583.701
 70
    32
  0
VERTEX
  8
T36SSILL
 62
2
 10
3806.505
 20
-5035.896
 30
1583.682
 70
    32
  0
VERTEX
  8
T36SSILL
 62
2
 10
3790.468
 20
-5014.966
 30
1583.680
 70
    32
  0
VERTEX
  8
T36SSILL
 62
2
 10
3762.651
 20
-5034.789
 30
1583.666
 70
    32
  0
VERTEX
  8
T36SSILL
 62
2
 10
3776.745
 20
-5056.688
 30
1583.673
 70
    32
  0
VERTEX
  8
T36SSILL
 62
2
 10
3754.845
 20
-5072.194
 30
1583.664
 70
    32
  0
VERTEX
  8
T36SSILL
 62
2
 10
3749.644
 20
-5067.423
 30
1583.655
 70
    32
  0
VERTEX
  8
T36SSILL
 62
2
 10
3744.705
 20
-5064.859
 30
1583.649
 70
    32
  0
VERTEX
  8
T36SSILL
 62
2
 10
3729.393
 20
-5059.093
 30
1583.645
 70
    32
  0
VERTEX
  8
T36SSILL
 62
2
 10
3742.604
 20
-5049.591
 30
1583.653
 70
    32
  0
VERTEX
  8
T36SSILL
 62
2
 10
3732.295
 20
-5035.815
 30
1583.654
 70
    32
  0
VERTEX
  8
T36SSILL
 62
2
 10
3757.199
 20
-5017.665
 30
1583.670
 70
    32
  0
VERTEX
  8
T36SSILL
 62
2
 10
3764.336
 20
-5027.202
 30
1583.669
 70
    32
  0
VERTEX
  8
T36SSILL
 62
2
 10
3788.973
 20
-5010.464
 30
1583.680
 70
    32
  0
VERTEX
  8
T36SSILL
 62
2
 10
3781.661
 20
-4999.514
 30
1583.679
 70
    32
  0
VERTEX
  8
T36SSILL
 62
2
 10
3800.912
 20
-4986.123
 30
1583.685
 70
    32
  0
VERTEX
  8
T36SSILL
 62
2
 10
3796.595
 20
-4980.118
 30
1583.685
 70
    32
  0
VERTEX
  8
T36SSILL
 62
2
 10
3783.082
 20
-4990.692
 30
1583.680
 70
    32
  0
VERTEX
  8
T36SSILL
 62
2
 10
3775.945
 20
-4981.419
 30
1583.679
 70
    32
  0
VERTEX
  8
T36SSILL
 62
2
 10
3770.823
 20
-4985.031
 30
1583.678
 70
    32
  0
VERTEX
  8
T36SSILL
 62
2
 10
3766.589
 20
-4979.453
 30
1583.677
 70
    32
  0
VERTEX
  8
T36SSILL
 62
2
 10
3767.921
 20
-4976.468
 30
1583.678
 70
    32
  0
VERTEX
  8
T36SSILL
 62
2
 10
3767.488
 20
-4969.056
 30
1583.679
 70
    32
  0
VERTEX
  8
T36SSILL
 62
2
 10
3761.860
 20
-4950.784
 30
1583.674
 70
    32
  0
VERTEX
  8
T36SSILL
 62
2
 10
3829.151
 20
-4903.385
 30
1583.549
 70
    32
  0
VERTEX
  8
T36SSILL
 62
2
 10
3825.187
 20
-4896.763
 30
1583.539
 70
    32
  0
VERTEX
  8
T36SSILL
 62
2
 10
3757.983
 20
-4945.574
 30
1583.664
 70
    32
  0
VERTEX
  8
T36SSILL
 62
2
 10
3753.664
 20
-4941.598
 30
1583.658
 70
    32
  0
VERTEX
  8
T36SSILL
 62
2
 10
3737.879
 20
-4932.228
 30
1583.645
 70
    32
  0
VERTEX
  8
T36SSILL
 62
2
 10
3731.703
 20
-4931.780
 30
1583.646
 70
    32
  0
VERTEX
  8
T36SSILL
 62
2
 10
3704.065
 20
-4949.750
 30
1583.665
 70
    32
  0
VERTEX
  8
T36SSILL
 62
2
 10
3701.146
 20
-4956.100
 30
1583.664
 70
    32
  0
VERTEX
  8
T36SSILL
 62
2
 10
3712.513
 20
-4970.319
 30
1583.665
 70
    32
  0
VERTEX
  8
T36SSILL
 62
2
 10
3712.329
 20
-4977.467
 30
1583.664
 70
    32
  0
VERTEX
  8
T36SSILL
 62
2
 10
3694.490
 20
-4991.036
 30
1583.654
 70
    32
  0
VERTEX
  8
T36SSILL
 62
2
 10
3688.138
 20
-4989.352
 30
1583.652
 70
    32
  0
VERTEX
  8
T36SSILL
 62
2
 10
3670.041
 20
-4996.656
 30
1583.643
 70
    32
  0
VERTEX
  8
T36SSILL
 62
2
 10
3674.532
 20
-5005.044
 30
1583.642
 70
    32
  0
VERTEX
  8
T36SSILL
 62
2
 10
3547.105
 20
-5094.556
 30
1583.563
 70
    32
  0
VERTEX
  8
T36SSILL
 62
2
 10
3559.591
 20
-5053.450
 30
1583.581
 70
    32
  0
VERTEX
  8
T36SSILL
 62
2
 10
3565.425
 20
-5044.544
 30
1583.586
 70
    32
  0
VERTEX
  8
T36SSILL
 62
2
 10
3584.673
 20
-5034.065
 30
1583.597
 70
    32
  0
VERTEX
  8
T36SSILL
 62
2
 10
3595.536
 20
-5024.635
 30
1583.604
 70
    32
  0
VERTEX
  8
T36SSILL
 62
2
 10
3599.512
 20
-5020.404
 30
1583.607
 70
    32
  0
VERTEX
  8
T36SSILL
 62
2
 10
3621.431
 20
-4987.691
 30
1583.627
 70
    32
  0
VERTEX
  8
T36SSILL
 62
2
 10
3644.480
 20
-4971.039
 30
1583.641
 70
    32
  0
VERTEX
  8
T36SSILL
 62
2
 10
3647.651
 20
-4975.719
 30
1583.641
 70
    32
  0
VERTEX
  8
T36SSILL
 62
2
 10
3654.804
 20
-4970.962
 30
1583.645
 70
    32
  0
VERTEX
  8
T36SSILL
 62
2
 10
3651.191
 20
-4966.281
 30
1583.645
 70
    32
  0
VERTEX
  8
T36SSILL
 62
2
 10
3691.018
 20
-4938.177
 30
1583.663
 70
    32
  0
VERTEX
  8
T36SSILL
 62
2
 10
3698.243
 20
-4947.361
 30
1583.664
 70
    32
  0
VERTEX
  8
T36SSILL
 62
2
 10
3718.288
 20
-4933.971
 30
1583.656
 70
    32
  0
VERTEX
  8
T36SSILL
 62
2
 10
3714.412
 20
-4928.408
 30
1583.646
 70
    32
  0
VERTEX
  8
T36SSILL
 62
2
 10
3719.446
 20
-4924.795
 30
1583.637
 70
    32
  0
VERTEX
  8
T36SSILL
 62
2
 10
3716.804
 20
-4919.763
 30
1583.627
 70
    32
  0
VERTEX
  8
T36SSILL
 62
2
 10
3732.012
 20
-4910.398
 30
1583.602
 70
    32
  0
VERTEX
  8
T36SSILL
 62
2
 10
3727.238
 20
-4903.857
 30
1583.590
 70
    32
  0
VERTEX
  8
T36SSILL
 62
2
 10
3616.849
 20
-4981.951
 30
1583.627
 70
    32
  0
VERTEX
  8
T36SSILL
 62
2
 10
3595.283
 20
-5014.223
 30
1583.608
 70
    32
  0
VERTEX
  8
T36SSILL
 62
2
 10
3592.281
 20
-5015.719
 30
1583.606
 70
    32
  0
VERTEX
  8
T36SSILL
 62
2
 10
3584.594
 20
-5025.241
 30
1583.600
 70
    32
  0
VERTEX
  8
T36SSILL
 62
2
 10
3580.444
 20
-5027.707
 30
1583.598
 70
    32
  0
VERTEX
  8
T36SSILL
 62
2
 10
3572.233
 20
-5031.757
 30
1583.593
 70
    32
  0
VERTEX
  8
T36SSILL
 62
2
 10
3574.887
 20
-5025.495
 30
1583.596
 70
    32
  0
VERTEX
  8
T36SSILL
 62
2
 10
3572.243
 20
-5022.580
 30
1583.596
 70
    32
  0
VERTEX
  8
T36SSILL
 62
2
 10
3572.862
 20
-5021.522
 30
1583.597
 70
    32
  0
VERTEX
  8
T36SSILL
 62
2
 10
3578.155
 20
-5022.940
 30
1583.598
 70
    32
  0
VERTEX
  8
T36SSILL
 62
2
 10
3579.133
 20
-5016.146
 30
1583.601
 70
    32
  0
VERTEX
  8
T36SSILL
 62
2
 10
3573.575
 20
-5015.169
 30
1583.599
 70
    32
  0
VERTEX
  8
T36SSILL
 62
2
 10
3572.444
 20
-5000.697
 30
1583.603
 70
    32
  0
VERTEX
  8
T36SSILL
 62
2
 10
3571.299
 20
-4998.313
 30
1583.604
 70
    32
  0
VERTEX
  8
T36SSILL
 62
2
 10
3577.102
 20
-4958.735
 30
1583.619
 70
    32
  0
VERTEX
  8
T36SSILL
 62
2
 10
3604.137
 20
-4940.226
 30
1583.635
 70
    32
  0
VERTEX
  8
T36SSILL
 62
2
 10
3615.357
 20
-4941.633
 30
1583.639
 70
    32
  0
VERTEX
  8
T36SSILL
 62
2
 10
3617.590
 20
-4943.449
 30
1583.640
 70
    32
  0
VERTEX
  8
T36SSILL
 62
2
 10
3619.600
 20
-4947.825
 30
1583.639
 70
    32
  0
VERTEX
  8
T36SSILL
 62
2
 10
3622.685
 20
-4947.776
 30
1583.640
 70
    32
  0
VERTEX
  8
T36SSILL
 62
2
 10
3630.482
 20
-4944.653
 30
1583.644
 70
    32
  0
VERTEX
  8
T36SSILL
 62
2
 10
3632.187
 20
-4941.011
 30
1583.646
 70
    32
  0
VERTEX
  8
T36SSILL
 62
2
 10
3632.203
 20
-4936.514
 30
1583.648
 70
    32
  0
VERTEX
  8
T36SSILL
 62
2
 10
3626.987
 20
-4935.628
 30
1583.646
 70
    32
  0
VERTEX
  8
T36SSILL
 62
2
 10
3625.376
 20
-4934.155
 30
1583.646
 70
    32
  0
VERTEX
  8
T36SSILL
 62
2
 10
3624.882
 20
-4925.346
 30
1583.648
 70
    32
  0
VERTEX
  8
T36SSILL
 62
2
 10
3629.410
 20
-4921.835
 30
1583.650
 70
    32
  0
VERTEX
  8
T36SSILL
 62
2
 10
3634.271
 20
-4928.016
 30
1583.650
 70
    32
  0
VERTEX
  8
T36SSILL
 62
2
 10
3639.231
 20
-4923.969
 30
1583.652
 70
    32
  0
VERTEX
  8
T36SSILL
 62
2
 10
3635.518
 20
-4917.857
 30
1583.651
 70
    32
  0
VERTEX
  8
T36SSILL
 62
2
 10
3662.248
 20
-4896.797
 30
1583.602
 70
    32
  0
VERTEX
  8
T36SSILL
 62
2
 10
3671.073
 20
-4908.293
 30
1583.622
 70
    32
  0
VERTEX
  8
T36SSILL
 62
2
 10
3691.736
 20
-4893.767
 30
1583.584
 70
    32
  0
VERTEX
  8
T36SSILL
 62
2
 10
3682.894
 20
-4881.213
 30
1583.561
 70
    32
  0
VERTEX
  8
T36SSILL
 62
2
 10
3697.812
 20
-4871.363
 30
1583.535
 70
    32
  0
VERTEX
  8
T36SSILL
 62
2
 10
3693.323
 20
-4866.321
 30
1583.526
 70
    32
  0
VERTEX
  8
T36SSILL
 62
2
 10
3679.721
 20
-4875.797
 30
1583.551
 70
    32
  0
VERTEX
  8
T36SSILL
 62
2
 10
3671.131
 20
-4862.445
 30
1583.527
 70
    32
  0
VERTEX
  8
T36SSILL
 62
2
 10
3668.535
 20
-4860.018
 30
1583.523
 70
    32
  0
VERTEX
  8
T36SSILL
 62
2
 10
3663.226
 20
-4858.869
 30
1583.523
 70
    32
  0
VERTEX
  8
T36SSILL
 62
2
 10
3648.438
 20
-4871.362
 30
1583.555
 70
    32
  0
VERTEX
  8
T36SSILL
 62
2
 10
3653.078
 20
-4880.280
 30
1583.571
 70
    32
  0
VERTEX
  8
T36SSILL
 62
2
 10
3652.553
 20
-4886.020
 30
1583.583
 70
    32
  0
VERTEX
  8
T36SSILL
 62
2
 10
3649.239
 20
-4888.277
 30
1583.589
 70
    32
  0
VERTEX
  8
T36SSILL
 62
2
 10
3638.638
 20
-4881.482
 30
1583.579
 70
    32
  0
VERTEX
  8
T36SSILL
 62
2
 10
3635.810
 20
-4881.086
 30
1583.580
 70
    32
  0
VERTEX
  8
T36SSILL
 62
2
 10
3631.413
 20
-4881.774
 30
1583.583
 70
    32
  0
VERTEX
  8
T36SSILL
 62
2
 10
3629.853
 20
-4883.474
 30
1583.587
 70
    32
  0
VERTEX
  8
T36SSILL
 62
2
 10
3627.736
 20
-4888.887
 30
1583.599
 70
    32
  0
VERTEX
  8
T36SSILL
 62
2
 10
3640.021
 20
-4901.738
 30
1583.621
 70
    32
  0
VERTEX
  8
T36SSILL
 62
2
 10
3639.888
 20
-4904.474
 30
1583.626
 70
    32
  0
VERTEX
  8
T36SSILL
 62
2
 10
3624.392
 20
-4916.801
 30
1583.649
 70
    32
  0
VERTEX
  8
T36SSILL
 62
2
 10
3617.935
 20
-4915.494
 30
1583.647
 70
    32
  0
VERTEX
  8
T36SSILL
 62
2
 10
3605.482
 20
-4908.641
 30
1583.645
 70
    32
  0
VERTEX
  8
T36SSILL
 62
2
 10
3602.208
 20
-4907.900
 30
1583.644
 70
    32
  0
VERTEX
  8
T36SSILL
 62
2
 10
3599.673
 20
-4909.263
 30
1583.643
 70
    32
  0
VERTEX
  8
T36SSILL
 62
2
 10
3596.975
 20
-4911.510
 30
1583.642
 70
    32
  0
VERTEX
  8
T36SSILL
 62
2
 10
3594.173
 20
-4918.168
 30
1583.639
 70
    32
  0
VERTEX
  8
T36SSILL
 62
2
 10
3600.080
 20
-4918.161
 30
1583.641
 70
    32
  0
VERTEX
  8
T36SSILL
 62
2
 10
3606.967
 20
-4929.777
 30
1583.640
 70
    32
  0
VERTEX
  8
T36SSILL
 62
2
 10
3600.673
 20
-4933.140
 30
1583.636
 70
    32
  0
VERTEX
  8
T36SSILL
 62
2
 10
3578.364
 20
-4949.457
 30
1583.622
 70
    32
  0
VERTEX
  8
T36SSILL
 62
2
 10
3586.752
 20
-4889.809
 30
1583.617
 70
    32
  0
VERTEX
  8
T36SSILL
 62
2
 10
3594.598
 20
-4884.216
 30
1583.602
 70
    32
  0
VERTEX
  8
T36SSILL
 62
2
 10
3598.557
 20
-4889.179
 30
1583.611
 70
    32
  0
VERTEX
  8
T36SSILL
 62
2
 10
3604.646
 20
-4884.055
 30
1583.598
 70
    32
  0
VERTEX
  8
T36SSILL
 62
2
 10
3601.402
 20
-4879.699
 30
1583.590
 70
    32
  0
VERTEX
  8
T36SSILL
 62
2
 10
3666.097
 20
-4832.260
 30
1583.467
 70
    32
  0
VERTEX
  8
T36SSILL
 62
2
 10
3661.163
 20
-4825.678
 30
1583.455
 70
    32
  0
VERTEX
  8
T36SSILL
 62
2
 10
3636.018
 20
-4844.582
 30
1583.504
 70
    32
  0
VERTEX
  8
T36SSILL
 62
2
 10
3631.352
 20
-4839.543
 30
1583.496
 70
    32
  0
VERTEX
  8
T36SSILL
 62
2
 10
3625.523
 20
-4844.397
 30
1583.508
 70
    32
  0
VERTEX
  8
T36SSILL
 62
2
 10
3629.661
 20
-4849.533
 30
1583.517
 70
    32
  0
VERTEX
  8
T36SSILL
 62
2
 10
3589.125
 20
-4878.309
 30
1583.592
 70
    32
  0
VERTEX
  8
T36SSILL
 62
2
 10
3596.715
 20
-4829.342
 30
1583.488
 70
    32
  0
VERTEX
  8
T36SSILL
 62
2
 10
3604.487
 20
-4830.187
 30
1583.487
 70
    32
  0
VERTEX
  8
T36SSILL
 62
2
 10
3605.605
 20
-4822.940
 30
1583.472
 70
    32
  0
VERTEX
  8
T36SSILL
 62
2
 10
3597.922
 20
-4822.181
 30
1583.473
 70
    32
  0
VERTEX
  8
T36SSILL
 62
2
 10
3799.159
 20
-3676.007
 30
1583.721
 70
    32
  0
VERTEX
  8
T36SSILL
 62
2
 10
3957.755
 20
-2749.987
 30
1583.601
 70
    32
  0
VERTEX
  8
T36SSILL
 62
2
 10
3981.630
 20
-2717.688
 30
1583.523
 70
    32
  0
VERTEX
  8
T36SSILL
 62
2
 10
3975.218
 20
-2707.954
 30
1583.532
 70
    32
  0
VERTEX
  8
T36SSILL
 62
2
 10
3968.585
 20
-2721.078
 30
1583.539
 70
    32
  0
VERTEX
  8
T36SSILL
 62
2
 10
3964.795
 20
-2722.009
 30
1583.492
 70
    32
  0
VERTEX
  8
T36SSILL
 62
2
 10
3961.553
 20
-2720.922
 30
1583.438
 70
    32
  0
VERTEX
  8
T36SSILL
 62
2
 10
3941.990
 20
-2598.261
 30
1582.753
 70
    32
  0
VERTEX
  8
T36SSILL
 62
2
 10
3945.422
 20
-2588.799
 30
1582.699
 70
    32
  0
VERTEX
  8
T36SSILL
 62
2
 10
3995.473
 20
-2549.895
 30
1582.645
 70
    32
  0
VERTEX
  8
T36SSILL
 62
2
 10
3977.588
 20
-2526.511
 30
1582.508
 70
    32
  0
VERTEX
  8
T36SSILL
 62
2
 10
3959.337
 20
-2540.929
 30
1582.513
 70
    32
  0
VERTEX
  8
T36SSILL
 62
2
 10
3968.367
 20
-2552.622
 30
1582.506
 70
    32
  0
VERTEX
  8
T36SSILL
 62
2
 10
3938.596
 20
-2576.424
 30
1582.641
 70
    32
  0
VERTEX
  8
T36SSILL
 62
2
 10
3914.293
 20
-2416.614
 30
1582.558
 70
    32
  0
VERTEX
  8
T36SSILL
 62
2
 10
3905.455
 20
-2419.716
 30
1582.561
 70
    32
  0
VERTEX
  8
T36SSILL
 62
2
 10
3918.857
 20
-2508.359
 30
1582.537
 70
    32
  0
VERTEX
  8
T36SSILL
 62
2
 10
3906.002
 20
-2510.345
 30
1582.541
 70
    32
  0
VERTEX
  8
T36SSILL
 62
2
 10
3907.724
 20
-2523.110
 30
1582.538
 70
    32
  0
VERTEX
  8
T36SSILL
 62
2
 10
3920.493
 20
-2521.035
 30
1582.533
 70
    32
  0
VERTEX
  8
T36SSILL
 62
2
 10
3929.378
 20
-2575.016
 30
1582.644
 70
    32
  0
VERTEX
  8
T36SSILL
 62
2
 10
3913.267
 20
-2577.234
 30
1582.674
 70
    32
  0
VERTEX
  8
T36SSILL
 62
2
 10
3915.111
 20
-2586.659
 30
1582.722
 70
    32
  0
VERTEX
  8
T36SSILL
 62
2
 10
3930.521
 20
-2584.083
 30
1582.691
 70
    32
  0
VERTEX
  8
T36SSILL
 62
2
 10
3953.725
 20
-2730.254
 30
1583.437
 70
    32
  0
VERTEX
  8
T36SSILL
 62
2
 10
3927.011
 20
-2883.416
 30
1583.693
 70
    32
  0
VERTEX
  8
T36SSILL
 62
2
 10
3923.499
 20
-2882.942
 30
1583.684
 70
    32
  0
VERTEX
  8
T36SSILL
 62
2
 10
3901.329
 20
-2851.940
 30
1583.612
 70
    32
  0
VERTEX
  8
T36SSILL
 62
2
 10
3895.402
 20
-2856.635
 30
1583.599
 70
    32
  0
VERTEX
  8
T36SSILL
 62
2
 10
3913.990
 20
-2884.345
 30
1583.660
 70
    32
  0
VERTEX
  8
T36SSILL
 62
2
 10
3915.081
 20
-2889.719
 30
1583.666
 70
    32
  0
VERTEX
  8
T36SSILL
 62
2
 10
3919.057
 20
-2896.791
 30
1583.679
 70
    32
  0
VERTEX
  8
T36SSILL
 62
2
 10
3922.515
 20
-2911.946
 30
1583.696
 70
    32
  0
VERTEX
  8
T36SSILL
 62
2
 10
3790.450
 20
-3685.682
 30
1583.709
 70
    32
  0
VERTEX
  8
T36SSILL
 62
2
 10
3601.654
 20
-4758.023
 30
1583.339
 70
    32
  0
VERTEX
  8
T36SSILL
 62
2
 10
3595.526
 20
-4756.948
 30
1583.339
 70
    32
  0
VERTEX
  8
T36SSILL
 62
2
 10
3594.133
 20
-4765.199
 30
1583.357
 70
    32
  0
VERTEX
  8
T36SSILL
 62
2
 10
3600.198
 20
-4766.158
 30
1583.356
 70
    32
  0
VERTEX
  8
T36SSILL
 62
2
 10
3590.927
 20
-4814.799
 30
1583.461
 70
    32
  0
VERTEX
  8
T36SSILL
 62
2
 10
3570.266
 20
-4829.414
 30
1583.499
 70
    32
  0
VERTEX
  8
T36SSILL
 62
2
 10
3567.384
 20
-4825.669
 30
1583.492
 70
    32
  0
VERTEX
  8
T36SSILL
 62
2
 10
3561.709
 20
-4829.110
 30
1583.502
 70
    32
  0
VERTEX
  8
T36SSILL
 62
2
 10
3564.513
 20
-4833.562
 30
1583.510
 70
    32
  0
VERTEX
  8
T36SSILL
 62
2
 10
3553.456
 20
-4842.292
 30
1583.532
 70
    32
  0
VERTEX
  8
T36SSILL
 62
2
 10
3550.321
 20
-4837.371
 30
1583.523
 70
    32
  0
VERTEX
  8
T36SSILL
 62
2
 10
3543.225
 20
-4842.103
 30
1583.536
 70
    32
  0
VERTEX
  8
T36SSILL
 62
2
 10
3546.835
 20
-4847.247
 30
1583.545
 70
    32
  0
VERTEX
  8
T36SSILL
 62
2
 10
3525.106
 20
-4862.839
 30
1583.594
 70
    32
  0
VERTEX
  8
T36SSILL
 62
2
 10
3528.658
 20
-4868.970
 30
1583.606
 70
    32
  0
VERTEX
  8
T36SSILL
 62
2
 10
3589.322
 20
-4824.700
 30
1583.482
 70
    32
  0
VERTEX
  8
T36SSILL
 62
2
 10
3572.183
 20
-4943.384
 30
1583.622
 70
    32
  0
VERTEX
  8
T36SSILL
 62
2
 10
3564.409
 20
-4942.451
 30
1583.671
 70
    32
  0
VERTEX
  8
T36SSILL
 62
2
 10
3563.572
 20
-4950.752
 30
1583.661
 70
    32
  0
VERTEX
  8
T36SSILL
 62
2
 10
3570.901
 20
-4951.428
 30
1583.619
 70
    32
  0
VERTEX
  8
T36SSILL
 62
2
 10
3565.115
 20
-4986.435
 30
1583.605
 70
    32
  0
VERTEX
  8
T36SSILL
 62
2
 10
3561.035
 20
-5024.068
 30
1583.591
 70
    32
  0
VERTEX
  8
T36SSILL
 62
2
 10
3525.340
 20
-5147.299
 30
1583.537
 70
    32
  0
VERTEX
  8
T36SSILL
 62
2
 10
3448.907
 20
-5163.805
 30
1584.003
 70
    32
  0
VERTEX
  8
T36SSILL
 62
2
 10
3277.779
 20
-5111.733
 30
1584.255
 70
    32
  0
VERTEX
  8
T36SSILL
 62
2
 10
3114.205
 20
-5064.715
 30
1583.998
 70
    32
  0
VERTEX
  8
T36SSILL
 62
2
 10
2523.527
 20
-4887.587
 30
1583.293
 70
    32
  0
VERTEX
  8
T36SSILL
 62
2
 10
2185.876
 20
-4782.823
 30
1583.039
 70
    32
  0
VERTEX
  8
T36SSILL
 62
2
 10
2181.574
 20
-4780.238
 30
1583.034
 70
    32
  0
VERTEX
  8
T36SSILL
 62
2
 10
2180.464
 20
-4778.205
 30
1583.031
 70
    32
  0
VERTEX
  8
T36SSILL
 62
2
 10
2182.599
 20
-4616.556
 30
1583.094
 70
    32
  0
VERTEX
  8
T36SSILL
 62
2
 10
2197.937
 20
-4616.470
 30
1583.092
 70
    32
  0
VERTEX
  8
T36SSILL
 62
2
 10
2198.540
 20
-4609.139
 30
1583.097
 70
    32
  0
VERTEX
  8
T36SSILL
 62
2
 10
2182.305
 20
-4609.356
 30
1583.099
 70
    32
  0
VERTEX
  8
T36SSILL
 62
2
 10
2182.977
 20
-4517.863
 30
1583.154
 70
    32
  0
VERTEX
  8
T36SSILL
 62
2
 10
2181.311
 20
-4491.321
 30
1583.171
 70
    32
  0
VERTEX
  8
T36SSILL
 62
2
 10
2178.487
 20
-4482.840
 30
1583.176
 70
    32
  0
VERTEX
  8
T36SSILL
 62
2
 10
2173.314
 20
-4475.491
 30
1583.182
 70
    32
  0
VERTEX
  8
T36SSILL
 62
2
 10
2168.358
 20
-4470.745
 30
1583.185
 70
    32
  0
VERTEX
  8
T36SSILL
 62
2
 10
2155.252
 20
-4462.586
 30
1583.192
 70
    32
  0
VERTEX
  8
T36SSILL
 62
2
 10
2097.612
 20
-4453.434
 30
1583.206
 70
    32
  0
VERTEX
  8
T36SSILL
 62
2
 10
2095.469
 20
-4449.770
 30
1583.208
 70
    32
  0
VERTEX
  8
T36SSILL
 62
2
 10
2092.683
 20
-4448.891
 30
1583.209
 70
    32
  0
VERTEX
  8
T36SSILL
 62
2
 10
2087.490
 20
-4449.079
 30
1583.210
 70
    32
  0
VERTEX
  8
T36SSILL
 62
2
 10
2074.924
 20
-4446.135
 30
1583.214
 70
    32
  0
VERTEX
  8
T36SSILL
 62
2
 10
2040.442
 20
-4441.183
 30
1583.221
 70
    32
  0
VERTEX
  8
T36SSILL
 62
2
 10
2021.310
 20
-4440.142
 30
1583.225
 70
    32
  0
VERTEX
  8
T36SSILL
 62
2
 10
2014.968
 20
-4437.745
 30
1583.227
 70
    32
  0
VERTEX
  8
T36SSILL
 62
2
 10
2008.600
 20
-4438.952
 30
1583.227
 70
    32
  0
VERTEX
  8
T36SSILL
 62
2
 10
2001.262
 20
-4434.677
 30
1583.231
 70
    32
  0
VERTEX
  8
T36SSILL
 62
2
 10
1995.994
 20
-4426.072
 30
1583.237
 70
    32
  0
VERTEX
  8
T36SSILL
 62
2
 10
1983.945
 20
-4429.034
 30
1583.237
 70
    32
  0
VERTEX
  8
T36SSILL
 62
2
 10
1978.003
 20
-4427.880
 30
1583.238
 70
    32
  0
VERTEX
  8
T36SSILL
 62
2
 10
1961.744
 20
-4427.721
 30
1583.241
 70
    32
  0
VERTEX
  8
T36SSILL
 62
2
 10
1962.177
 20
-4433.537
 30
1583.237
 70
    32
  0
VERTEX
  8
T36SSILL
 62
2
 10
1960.810
 20
-4435.076
 30
1583.237
 70
    32
  0
VERTEX
  8
T36SSILL
 62
2
 10
1945.611
 20
-4431.961
 30
1583.241
 70
    32
  0
VERTEX
  8
T36SSILL
 62
2
 10
1897.426
 20
-4426.666
 30
1583.251
 70
    32
  0
VERTEX
  8
T36SSILL
 62
2
 10
1848.157
 20
-4419.492
 30
1583.262
 70
    32
  0
VERTEX
  8
T36SSILL
 62
2
 10
1828.344
 20
-4414.913
 30
1583.268
 70
    32
  0
VERTEX
  8
T36SSILL
 62
2
 10
1823.884
 20
-4416.970
 30
1583.267
 70
    32
  0
VERTEX
  8
T36SSILL
 62
2
 10
1801.995
 20
-4411.359
 30
1583.274
 70
    32
  0
VERTEX
  8
T36SSILL
 62
2
 10
1741.561
 20
-4404.185
 30
1583.286
 70
    32
  0
VERTEX
  8
T36SSILL
 62
2
 10
1583.394
 20
-4381.750
 30
1583.323
 70
    32
  0
VERTEX
  8
T36SSILL
 62
2
 10
1584.643
 20
-4375.698
 30
1583.326
 70
    32
  0
VERTEX
  8
T36SSILL
 62
2
 10
1577.937
 20
-4374.174
 30
1583.328
 70
    32
  0
VERTEX
  8
T36SSILL
 62
2
 10
1576.219
 20
-4380.917
 30
1583.324
 70
    32
  0
VERTEX
  8
T36SSILL
 62
2
 10
1537.954
 20
-4375.362
 30
1583.333
 70
    32
  0
VERTEX
  8
T36SSILL
 62
2
 10
1539.269
 20
-4368.817
 30
1583.337
 70
    32
  0
VERTEX
  8
T36SSILL
 62
2
 10
1532.209
 20
-4367.119
 30
1583.339
 70
    32
  0
VERTEX
  8
T36SSILL
 62
2
 10
1530.672
 20
-4374.389
 30
1583.335
 70
    32
  0
VERTEX
  8
T36SSILL
 62
2
 10
1361.201
 20
-4350.417
 30
1583.202
 70
    32
  0
VERTEX
  8
T36SSILL
 62
2
 10
1362.289
 20
-4344.155
 30
1583.249
 70
    32
  0
VERTEX
  8
T36SSILL
 62
2
 10
1355.019
 20
-4342.618
 30
1583.225
 70
    32
  0
VERTEX
  8
T36SSILL
 62
2
 10
1353.335
 20
-4349.114
 30
1583.173
 70
    32
  0
VERTEX
  8
T36SSILL
 62
2
 10
1344.102
 20
-4348.634
 30
1583.132
 70
    32
  0
VERTEX
  8
T36SSILL
 62
2
 10
1343.215
 20
-4355.739
 30
1583.081
 70
    32
  0
VERTEX
  8
T36SSILL
 62
2
 10
1440.003
 20
-4369.430
 30
1583.350
 70
    32
  0
VERTEX
  8
T36SSILL
 62
2
 10
1342.991
 20
-4438.246
 30
1583.222
 70
    32
  0
VERTEX
  8
T36SSILL
 62
2
 10
1348.634
 20
-4443.021
 30
1583.205
 70
    32
  0
VERTEX
  8
T36SSILL
 62
2
 10
1436.910
 20
-4379.883
 30
1583.345
 70
    32
  0
VERTEX
  8
T36SSILL
 62
2
 10
1445.720
 20
-4374.591
 30
1583.347
 70
    32
  0
VERTEX
  8
T36SSILL
 62
2
 10
1452.460
 20
-4372.100
 30
1583.347
 70
    32
  0
VERTEX
  8
T36SSILL
 62
2
 10
1575.369
 20
-4388.215
 30
1583.320
 70
    32
  0
VERTEX
  8
T36SSILL
 62
2
 10
1575.521
 20
-4389.429
 30
1583.319
 70
    32
  0
VERTEX
  8
T36SSILL
 62
2
 10
1408.792
 20
-4509.416
 30
1583.053
 70
    32
  0
VERTEX
  8
T36SSILL
 62
2
 10
1412.674
 20
-4514.207
 30
1583.045
 70
    32
  0
VERTEX
  8
T36SSILL
 62
2
 10
1585.568
 20
-4390.395
 30
1583.317
 70
    32
  0
VERTEX
  8
T36SSILL
 62
2
 10
1645.481
 20
-4398.466
 30
1583.304
 70
    32
  0
VERTEX
  8
T36SSILL
 62
2
 10
1640.613
 20
-4401.522
 30
1583.302
 70
    32
  0
VERTEX
  8
T36SSILL
 62
2
 10
1645.951
 20
-4409.522
 30
1583.297
 70
    32
  0
VERTEX
  8
T36SSILL
 62
2
 10
1657.844
 20
-4400.433
 30
1583.301
 70
    32
  0
VERTEX
  8
T36SSILL
 62
2
 10
1707.744
 20
-4407.291
 30
1583.289
 70
    32
  0
VERTEX
  8
T36SSILL
 62
2
 10
1711.298
 20
-4408.897
 30
1583.288
 70
    32
  0
VERTEX
  8
T36SSILL
 62
2
 10
1456.301
 20
-4591.018
 30
1582.983
 70
    32
  0
VERTEX
  8
T36SSILL
 62
2
 10
1460.409
 20
-4597.409
 30
1582.976
 70
    32
  0
VERTEX
  8
T36SSILL
 62
2
 10
1629.895
 20
-4476.534
 30
1583.258
 70
    32
  0
VERTEX
  8
T36SSILL
 62
2
 10
1633.736
 20
-4482.575
 30
1583.254
 70
    32
  0
VERTEX
  8
T36SSILL
 62
2
 10
1639.794
 20
-4478.611
 30
1583.256
 70
    32
  0
VERTEX
  8
T36SSILL
 62
2
 10
1635.599
 20
-4472.397
 30
1583.260
 70
    32
  0
VERTEX
  8
T36SSILL
 62
2
 10
1645.974
 20
-4464.801
 30
1583.263
 70
    32
  0
VERTEX
  8
T36SSILL
 62
2
 10
1663.949
 20
-4501.375
 30
1583.238
 70
    32
  0
VERTEX
  8
T36SSILL
 62
2
 10
1658.748
 20
-4504.574
 30
1583.237
 70
    32
  0
VERTEX
  8
T36SSILL
 62
2
 10
1662.543
 20
-4511.425
 30
1583.232
 70
    32
  0
VERTEX
  8
T36SSILL
 62
2
 10
1668.160
 20
-4507.465
 30
1583.234
 70
    32
  0
VERTEX
  8
T36SSILL
 62
2
 10
1692.054
 20
-4540.182
 30
1583.211
 70
    32
  0
VERTEX
  8
T36SSILL
 62
2
 10
1662.185
 20
-4561.566
 30
1583.202
 70
    32
  0
VERTEX
  8
T36SSILL
 62
2
 10
1594.110
 20
-4550.645
 30
1582.954
 70
    32
  0
VERTEX
  8
T36SSILL
 62
2
 10
1548.669
 20
-4583.264
 30
1582.565
 70
    32
  0
VERTEX
  8
T36SSILL
 62
2
 10
1552.971
 20
-4589.618
 30
1582.557
 70
    32
  0
VERTEX
  8
T36SSILL
 62
2
 10
1595.436
 20
-4559.051
 30
1582.903
 70
    32
  0
VERTEX
  8
T36SSILL
 62
2
 10
1652.013
 20
-4568.121
 30
1583.112
 70
    32
  0
VERTEX
  8
T36SSILL
 62
2
 10
424.025
 20
-5452.049
 30
1582.957
 70
    32
  0
VERTEX
  8
T36SSILL
 62
2
 10
-561.771
 20
-6159.019
 30
1583.554
 70
    32
  0
VERTEX
  8
T36SSILL
 62
2
 10
-566.980
 20
-6161.945
 30
1583.567
 70
    32
  0
VERTEX
  8
T36SSILL
 62
2
 10
-571.666
 20
-6162.988
 30
1583.577
 70
    32
  0
VERTEX
  8
T36SSILL
 62
2
 10
-582.013
 20
-6163.151
 30
1583.595
 70
    32
  0
VERTEX
  8
T36SSILL
 62
2
 10
-591.467
 20
-6160.346
 30
1583.608
 70
    32
  0
VERTEX
  8
T36SSILL
 62
2
 10
-595.191
 20
-6157.803
 30
1583.611
 70
    32
  0
VERTEX
  8
T36SSILL
 62
2
 10
-599.326
 20
-6152.773
 30
1583.611
 70
    32
  0
VERTEX
  8
T36SSILL
 62
2
 10
-773.109
 20
-5908.126
 30
1583.585
 70
    32
  0
VERTEX
  8
T36SSILL
 62
2
 10
-1057.793
 20
-5263.318
 30
1584.498
 70
    32
  0
VERTEX
  8
T36SSILL
 62
2
 10
-1035.061
 20
-5246.943
 30
1584.463
 70
    32
  0
VERTEX
  8
T36SSILL
 62
2
 10
-1040.762
 20
-5238.545
 30
1584.466
 70
    32
  0
VERTEX
  8
T36SSILL
 62
2
 10
-1061.899
 20
-5253.533
 30
1584.496
 70
    32
  0
VERTEX
  8
T36SSILL
 62
2
 10
-1077.245
 20
-5215.399
 30
1584.486
 70
    32
  0
VERTEX
  8
T36SSILL
 62
2
 10
-1240.131
 20
-4846.394
 30
1584.258
 70
    32
  0
VERTEX
  8
T36SSILL
 62
2
 10
-1238.876
 20
-4842.751
 30
1584.256
 70
    32
  0
VERTEX
  8
T36SSILL
 62
2
 10
-1232.392
 20
-4838.659
 30
1584.254
 70
    32
  0
VERTEX
  8
T36SSILL
 62
2
 10
-1244.542
 20
-4820.422
 30
1584.249
 70
    32
  0
VERTEX
  8
T36SSILL
 62
2
 10
-1254.702
 20
-4812.496
 30
1584.248
 70
    32
  0
VERTEX
  8
T36SSILL
 62
2
 10
-1259.717
 20
-4802.220
 30
1584.245
 70
    32
  0
VERTEX
  8
T36SSILL
 62
2
 10
-1266.507
 20
-4805.447
 30
1584.247
 70
    32
  0
VERTEX
  8
T36SSILL
 62
2
 10
-1262.380
 20
-4814.956
 30
1584.250
 70
    32
  0
VERTEX
  8
T36SSILL
 62
2
 10
-1279.634
 20
-4827.259
 30
1584.257
 70
    32
  0
VERTEX
  8
T36SSILL
 62
2
 10
-1281.593
 20
-4824.879
 30
1584.256
 70
    32
  0
VERTEX
  8
T36SSILL
 62
2
 10
-1287.798
 20
-4829.203
 30
1584.258
 70
    32
  0
VERTEX
  8
T36SSILL
 62
2
 10
-1281.184
 20
-4838.091
 30
1584.261
 70
    32
  0
VERTEX
  8
T36SSILL
 62
2
 10
-1263.093
 20
-4824.848
 30
1584.253
 70
    32
  0
VERTEX
  8
T36SSILL
 62
2
 10
-1261.236
 20
-4825.450
 30
1584.253
 70
    32
  0
VERTEX
  8
T36SSILL
 62
2
 10
-1259.740
 20
-4828.387
 30
1584.254
 70
    32
  0
VERTEX
  8
T36SSILL
 62
2
 10
-1264.950
 20
-4834.815
 30
1584.257
 70
    32
  0
VERTEX
  8
T36SSILL
 62
2
 10
-1260.464
 20
-4845.260
 30
1584.260
 70
    32
  0
VERTEX
  8
T36SSILL
 62
2
 10
-1253.184
 20
-4854.314
 30
1584.263
 70
    32
  0
VERTEX
  8
T36SSILL
 62
2
 10
-1245.168
 20
-4854.548
 30
1584.262
 70
    32
  0
VERTEX
  8
T36SSILL
 62
2
 10
-850.416
 20
-5750.592
 30
1583.607
 70
    32
  0
VERTEX
  8
T36SSILL
 62
2
 10
-869.698
 20
-5763.533
 30
1583.677
 70
    32
  0
VERTEX
  8
T36SSILL
 62
2
 10
-871.292
 20
-5761.540
 30
1583.680
 70
    32
  0
VERTEX
  8
T36SSILL
 62
2
 10
-877.724
 20
-5765.895
 30
1583.703
 70
    32
  0
VERTEX
  8
T36SSILL
 62
2
 10
-871.075
 20
-5774.773
 30
1583.691
 70
    32
  0
VERTEX
  8
T36SSILL
 62
2
 10
-848.068
 20
-5758.178
 30
1583.607
 70
    32
  0
VERTEX
  8
T36SSILL
 62
2
 10
-780.022
 20
-5911.176
 30
1583.587
 70
    32
  0
VERTEX
  8
T36SSILL
 62
2
 10
-602.721
 20
-6160.220
 30
1583.627
 70
    32
  0
VERTEX
  8
T36SSILL
 62
2
 10
-591.290
 20
-6168.316
 30
1583.618
 70
    32
  0
VERTEX
  8
T36SSILL
 62
2
 10
-578.085
 20
-6171.163
 30
1583.599
 70
    32
  0
VERTEX
  8
T36SSILL
 62
2
 10
-684.542
 20
-6246.831
 30
1583.617
 70
    32
  0
VERTEX
  8
T36SSILL
 62
2
 10
-679.348
 20
-6252.480
 30
1583.629
 70
    32
  0
VERTEX
  8
T36SSILL
 62
2
 10
-636.469
 20
-6222.697
 30
1583.770
 70
    32
  0
VERTEX
  8
T36SSILL
 62
2
 10
-637.309
 20
-6230.804
 30
1583.777
 70
    32
  0
VERTEX
  8
T36SSILL
 62
2
 10
-635.716
 20
-6238.994
 30
1583.776
 70
    32
  0
VERTEX
  8
T36SSILL
 62
2
 10
-612.682
 20
-6294.144
 30
1583.804
 70
    32
  0
VERTEX
  8
T36SSILL
 62
2
 10
-438.873
 20
-6687.307
 30
1583.805
 70
    32
  0
VERTEX
  8
T36SSILL
 62
2
 10
-457.239
 20
-6700.212
 30
1583.727
 70
    32
  0
VERTEX
  8
T36SSILL
 62
2
 10
-458.808
 20
-6697.766
 30
1583.722
 70
    32
  0
VERTEX
  8
T36SSILL
 62
2
 10
-465.224
 20
-6701.949
 30
1583.694
 70
    32
  0
VERTEX
  8
T36SSILL
 62
2
 10
-459.285
 20
-6710.150
 30
1583.715
 70
    32
  0
VERTEX
  8
T36SSILL
 62
2
 10
-436.761
 20
-6693.969
 30
1583.811
 70
    32
  0
VERTEX
  8
T36SSILL
 62
2
 10
-245.515
 20
-7128.367
 30
1583.669
 70
    32
  0
VERTEX
  8
T36SSILL
 62
2
 10
-247.612
 20
-7141.332
 30
1583.669
 70
    32
  0
VERTEX
  8
T36SSILL
 62
2
 10
-246.033
 20
-7148.723
 30
1583.690
 70
    32
  0
VERTEX
  8
T36SSILL
 62
2
 10
-241.449
 20
-7160.540
 30
1583.725
 70
    32
  0
VERTEX
  8
T36SSILL
 62
2
 10
-252.206
 20
-7167.911
 30
1583.732
 70
    32
  0
VERTEX
  8
T36SSILL
 62
2
 10
-253.794
 20
-7165.905
 30
1583.725
 70
    32
  0
VERTEX
  8
T36SSILL
 62
2
 10
-259.943
 20
-7170.012
 30
1583.729
 70
    32
  0
VERTEX
  8
T36SSILL
 62
2
 10
-254.130
 20
-7177.872
 30
1583.756
 70
    32
  0
VERTEX
  8
T36SSILL
 62
2
 10
-238.050
 20
-7166.482
 30
1583.745
 70
    32
  0
VERTEX
  8
T36SSILL
 62
2
 10
-231.033
 20
-7170.253
 30
1583.762
 70
    32
  0
VERTEX
  8
T36SSILL
 62
2
 10
-224.867
 20
-7175.548
 30
1583.783
 70
    32
  0
VERTEX
  8
T36SSILL
 62
2
 10
-28.159
 20
-7620.336
 30
1584.032
 70
    32
  0
VERTEX
  8
T36SSILL
 62
2
 10
-45.366
 20
-7632.243
 30
1584.029
 70
    32
  0
VERTEX
  8
T36SSILL
 62
2
 10
-47.264
 20
-7629.494
 30
1584.029
 70
    32
  0
VERTEX
  8
T36SSILL
 62
2
 10
-54.041
 20
-7634.223
 30
1584.028
 70
    32
  0
VERTEX
  8
T36SSILL
 62
2
 10
-48.185
 20
-7642.245
 30
1584.030
 70
    32
  0
VERTEX
  8
T36SSILL
 62
2
 10
-25.106
 20
-7626.160
 30
1584.033
 70
    32
  0
VERTEX
  8
T36SSILL
 62
2
 10
-18.097
 20
-7641.270
 30
1584.035
 70
    32
  0
VERTEX
  8
T36SSILL
 62
2
 10
-12.116
 20
-7637.865
 30
1584.036
 70
    32
  0
VERTEX
  8
T36SSILL
 62
2
 10
-77.078
 20
-7494.024
 30
1584.012
 70
    32
  0
VERTEX
  8
T36SSILL
 62
2
 10
-389.031
 20
-6782.155
 30
1583.927
 70
    32
  0
VERTEX
  8
T36SSILL
 62
2
 10
-382.283
 20
-6777.211
 30
1583.929
 70
    32
  0
VERTEX
  8
T36SSILL
 62
2
 10
-385.842
 20
-6771.861
 30
1583.930
 70
    32
  0
VERTEX
  8
T36SSILL
 62
2
 10
-391.456
 20
-6775.814
 30
1583.929
 70
    32
  0
VERTEX
  8
T36SSILL
 62
2
 10
-471.588
 20
-6595.341
 30
1583.706
 70
    32
  0
VERTEX
  8
T36SSILL
 62
2
 10
-464.036
 20
-6590.167
 30
1583.729
 70
    32
  0
VERTEX
  8
T36SSILL
 62
2
 10
-467.455
 20
-6584.400
 30
1583.718
 70
    32
  0
VERTEX
  8
T36SSILL
 62
2
 10
-474.035
 20
-6589.122
 30
1583.699
 70
    32
  0
VERTEX
  8
T36SSILL
 62
2
 10
-513.025
 20
-6500.923
 30
1583.774
 70
    32
  0
VERTEX
  8
T36SSILL
 62
2
 10
-506.150
 20
-6496.319
 30
1583.781
 70
    32
  0
VERTEX
  8
T36SSILL
 62
2
 10
-510.180
 20
-6490.437
 30
1583.787
 70
    32
  0
VERTEX
  8
T36SSILL
 62
2
 10
-515.427
 20
-6494.459
 30
1583.781
 70
    32
  0
VERTEX
  8
T36SSILL
 62
2
 10
-627.170
 20
-6242.074
 30
1583.780
 70
    32
  0
VERTEX
  8
T36SSILL
 62
2
 10
-629.559
 20
-6234.296
 30
1583.774
 70
    32
  0
VERTEX
  8
T36SSILL
 62
2
 10
-629.503
 20
-6227.604
 30
1583.765
 70
    32
  0
VERTEX
  8
T36SSILL
 62
2
 10
-627.330
 20
-6218.768
 30
1583.749
 70
    32
  0
VERTEX
  8
T36SSILL
 62
2
 10
-625.117
 20
-6214.633
 30
1583.740
 70
    32
  0
VERTEX
  8
T36SSILL
 62
2
 10
-621.227
 20
-6210.621
 30
1583.727
 70
    32
  0
VERTEX
  8
T36SSILL
 62
2
 10
-385.239
 20
-6042.071
 30
1583.184
 70
    32
  0
VERTEX
  8
T36SSILL
 62
2
 10
-381.172
 20
-6047.156
 30
1583.213
 70
    32
  0
VERTEX
  8
T36SSILL
 62
2
 10
-382.025
 20
-6051.444
 30
1583.222
 70
    32
  0
VERTEX
  8
T36SSILL
 62
2
 10
-371.815
 20
-6053.644
 30
1583.264
 70
    32
  0
VERTEX
  8
T36SSILL
 62
2
 10
-365.902
 20
-6028.072
 30
1583.212
 70
    32
  0
VERTEX
  8
T36SSILL
 62
2
 10
1291.410
 20
-4837.794
 30
1583.047
 70
    32
  0
VERTEX
  8
T36SSILL
 62
2
 10
1300.589
 20
-4842.592
 30
1583.016
 70
    32
  0
VERTEX
  8
T36SSILL
 62
2
 10
1320.579
 20
-4828.895
 30
1583.081
 70
    32
  0
VERTEX
  8
T36SSILL
 62
2
 10
1314.860
 20
-4821.078
 30
1583.127
 70
    32
  0
VERTEX
  8
T36SSILL
 62
2
 10
1626.392
 20
-4595.789
 30
1582.801
 70
    32
  0
VERTEX
  8
T36SSILL
 62
2
 10
1629.735
 20
-4601.324
 30
1582.779
 70
    32
  0
VERTEX
  8
T36SSILL
 62
2
 10
1635.653
 20
-4597.467
 30
1582.834
 70
    32
  0
VERTEX
  8
T36SSILL
 62
2
 10
1631.766
 20
-4592.236
 30
1582.851
 70
    32
  0
VERTEX
  8
T36SSILL
 62
2
 10
1676.878
 20
-4560.201
 30
1583.201
 70
    32
  0
VERTEX
  8
T36SSILL
 62
2
 10
1680.587
 20
-4565.345
 30
1583.197
 70
    32
  0
VERTEX
  8
T36SSILL
 62
2
 10
1687.188
 20
-4561.076
 30
1583.199
 70
    32
  0
VERTEX
  8
T36SSILL
 62
2
 10
1683.051
 20
-4555.373
 30
1583.203
 70
    32
  0
VERTEX
  8
T36SSILL
 62
2
 10
1714.862
 20
-4532.615
 30
1583.212
 70
    32
  0
VERTEX
  8
T36SSILL
 62
2
 10
1718.365
 20
-4538.359
 30
1583.208
 70
    32
  0
VERTEX
  8
T36SSILL
 62
2
 10
1725.842
 20
-4533.643
 30
1583.210
 70
    32
  0
VERTEX
  8
T36SSILL
 62
2
 10
1721.615
 20
-4527.676
 30
1583.214
 70
    32
  0
VERTEX
  8
T36SSILL
 62
2
 10
1803.693
 20
-4468.609
 30
1583.238
 70
    32
  0
VERTEX
  8
T36SSILL
 62
2
 10
1807.801
 20
-4475.000
 30
1583.234
 70
    32
  0
VERTEX
  8
T36SSILL
 62
2
 10
1813.209
 20
-4471.200
 30
1583.235
 70
    32
  0
VERTEX
  8
T36SSILL
 62
2
 10
1809.261
 20
-4465.019
 30
1583.240
 70
    32
  0
VERTEX
  8
T36SSILL
 62
2
 10
1856.094
 20
-4432.664
 30
1583.253
 70
    32
  0
VERTEX
  8
T36SSILL
 62
2
 10
1873.500
 20
-4432.684
 30
1583.250
 70
    32
  0
VERTEX
  8
T36SSILL
 62
2
 10
1951.114
 20
-4444.266
 30
1583.232
 70
    32
  0
VERTEX
  8
T36SSILL
 62
2
 10
1964.611
 20
-4451.195
 30
1583.226
 70
    32
  0
VERTEX
  8
T36SSILL
 62
2
 10
1967.483
 20
-4457.703
 30
1583.222
 70
    32
  0
VERTEX
  8
T36SSILL
 62
2
 10
1965.797
 20
-4460.991
 30
1583.220
 70
    32
  0
VERTEX
  8
T36SSILL
 62
2
 10
1954.985
 20
-4469.354
 30
1583.216
 70
    32
  0
VERTEX
  8
T36SSILL
 62
2
 10
1925.483
 20
-4487.768
 30
1583.209
 70
    32
  0
VERTEX
  8
T36SSILL
 62
2
 10
1909.044
 20
-4501.757
 30
1583.203
 70
    32
  0
VERTEX
  8
T36SSILL
 62
2
 10
1819.604
 20
-4565.271
 30
1583.177
 70
    32
  0
VERTEX
  8
T36SSILL
 62
2
 10
1761.460
 20
-4556.180
 30
1583.191
 70
    32
  0
VERTEX
  8
T36SSILL
 62
2
 10
1738.802
 20
-4572.498
 30
1583.184
 70
    32
  0
VERTEX
  8
T36SSILL
 62
2
 10
1735.051
 20
-4566.720
 30
1583.188
 70
    32
  0
VERTEX
  8
T36SSILL
 62
2
 10
1728.035
 20
-4571.750
 30
1583.186
 70
    32
  0
VERTEX
  8
T36SSILL
 62
2
 10
1732.189
 20
-4577.330
 30
1583.182
 70
    32
  0
VERTEX
  8
T36SSILL
 62
2
 10
1643.662
 20
-4639.994
 30
1582.582
 70
    32
  0
VERTEX
  8
T36SSILL
 62
2
 10
1638.697
 20
-4634.369
 30
1582.597
 70
    32
  0
VERTEX
  8
T36SSILL
 62
2
 10
1632.117
 20
-4638.954
 30
1582.534
 70
    32
  0
VERTEX
  8
T36SSILL
 62
2
 10
1636.715
 20
-4644.970
 30
1582.515
 70
    32
  0
VERTEX
  8
T36SSILL
 62
2
 10
1601.925
 20
-4669.340
 30
1582.477
 70
    32
  0
VERTEX
  8
T36SSILL
 62
2
 10
1606.547
 20
-4676.114
 30
1582.468
 70
    32
  0
VERTEX
  8
T36SSILL
 62
2
 10
1763.112
 20
-4563.562
 30
1583.186
 70
    32
  0
VERTEX
  8
T36SSILL
 62
2
 10
1810.452
 20
-4571.711
 30
1583.175
 70
    32
  0
VERTEX
  8
T36SSILL
 62
2
 10
1707.131
 20
-4645.903
 30
1582.846
 70
    32
  0
VERTEX
  8
T36SSILL
 62
2
 10
1698.732
 20
-4649.994
 30
1582.778
 70
    32
  0
VERTEX
  8
T36SSILL
 62
2
 10
1683.798
 20
-4646.113
 30
1582.733
 70
    32
  0
VERTEX
  8
T36SSILL
 62
2
 10
1677.437
 20
-4647.650
 30
1582.692
 70
    32
  0
VERTEX
  8
T36SSILL
 62
2
 10
1672.005
 20
-4650.693
 30
1582.645
 70
    32
  0
VERTEX
  8
T36SSILL
 62
2
 10
1673.255
 20
-4668.134
 30
1582.532
 70
    32
  0
VERTEX
  8
T36SSILL
 62
2
 10
1584.962
 20
-4731.394
 30
1582.656
 70
    32
  0
VERTEX
  8
T36SSILL
 62
2
 10
1588.350
 20
-4738.003
 30
1582.653
 70
    32
  0
VERTEX
  8
T36SSILL
 62
2
 10
1599.897
 20
-4729.622
 30
1582.588
 70
    32
  0
VERTEX
  8
T36SSILL
 62
2
 10
1604.762
 20
-4735.988
 30
1582.577
 70
    32
  0
VERTEX
  8
T36SSILL
 62
2
 10
1610.450
 20
-4731.975
 30
1582.545
 70
    32
  0
VERTEX
  8
T36SSILL
 62
2
 10
1606.436
 20
-4726.287
 30
1582.553
 70
    32
  0
VERTEX
  8
T36SSILL
 62
2
 10
1632.712
 20
-4706.873
 30
1582.405
 70
    32
  0
VERTEX
  8
T36SSILL
 62
2
 10
1636.816
 20
-4712.823
 30
1582.397
 70
    32
  0
VERTEX
  8
T36SSILL
 62
2
 10
1643.244
 20
-4708.908
 30
1582.363
 70
    32
  0
VERTEX
  8
T36SSILL
 62
2
 10
1638.819
 20
-4702.538
 30
1582.371
 70
    32
  0
VERTEX
  8
T36SSILL
 62
2
 10
1660.951
 20
-4686.401
 30
1582.349
 70
    32
  0
VERTEX
  8
T36SSILL
 62
2
 10
1665.187
 20
-4691.364
 30
1582.335
 70
    32
  0
VERTEX
  8
T36SSILL
 62
2
 10
1671.405
 20
-4687.610
 30
1582.390
 70
    32
  0
VERTEX
  8
T36SSILL
 62
2
 10
1667.461
 20
-4681.869
 30
1582.411
 70
    32
  0
VERTEX
  8
T36SSILL
 62
2
 10
1688.424
 20
-4666.958
 30
1582.613
 70
    32
  0
VERTEX
  8
T36SSILL
 62
2
 10
1698.109
 20
-4666.870
 30
1582.660
 70
    32
  0
VERTEX
  8
T36SSILL
 62
2
 10
1701.655
 20
-4657.734
 30
1582.739
 70
    32
  0
VERTEX
  8
T36SSILL
 62
2
 10
1721.329
 20
-4644.472
 30
1582.924
 70
    32
  0
VERTEX
  8
T36SSILL
 62
2
 10
1725.981
 20
-4650.558
 30
1582.905
 70
    32
  0
VERTEX
  8
T36SSILL
 62
2
 10
1731.705
 20
-4646.738
 30
1582.958
 70
    32
  0
VERTEX
  8
T36SSILL
 62
2
 10
1727.457
 20
-4640.454
 30
1582.981
 70
    32
  0
VERTEX
  8
T36SSILL
 62
2
 10
1751.971
 20
-4622.939
 30
1583.152
 70
    32
  0
VERTEX
  8
T36SSILL
 62
2
 10
1756.306
 20
-4629.046
 30
1583.147
 70
    32
  0
VERTEX
  8
T36SSILL
 62
2
 10
1762.606
 20
-4624.675
 30
1583.149
 70
    32
  0
VERTEX
  8
T36SSILL
 62
2
 10
1758.795
 20
-4617.947
 30
1583.154
 70
    32
  0
VERTEX
  8
T36SSILL
 62
2
 10
1790.392
 20
-4594.909
 30
1583.163
 70
    32
  0
VERTEX
  8
T36SSILL
 62
2
 10
1793.784
 20
-4600.074
 30
1583.160
 70
    32
  0
VERTEX
  8
T36SSILL
 62
2
 10
1800.908
 20
-4595.184
 30
1583.162
 70
    32
  0
VERTEX
  8
T36SSILL
 62
2
 10
1797.322
 20
-4590.057
 30
1583.165
 70
    32
  0
VERTEX
  8
T36SSILL
 62
2
 10
1856.668
 20
-4546.921
 30
1583.183
 70
    32
  0
VERTEX
  8
T36SSILL
 62
2
 10
1848.320
 20
-4595.743
 30
1583.154
 70
    32
  0
VERTEX
  8
T36SSILL
 62
2
 10
1645.336
 20
-4739.779
 30
1582.406
 70
    32
  0
VERTEX
  8
T36SSILL
 62
2
 10
1649.411
 20
-4746.416
 30
1582.399
 70
    32
  0
VERTEX
  8
T36SSILL
 62
2
 10
1692.827
 20
-4715.787
 30
1582.301
 70
    32
  0
VERTEX
  8
T36SSILL
 62
2
 10
1696.730
 20
-4720.895
 30
1582.285
 70
    32
  0
VERTEX
  8
T36SSILL
 62
2
 10
1703.269
 20
-4715.676
 30
1582.352
 70
    32
  0
VERTEX
  8
T36SSILL
 62
2
 10
1699.383
 20
-4710.445
 30
1582.369
 70
    32
  0
VERTEX
  8
T36SSILL
 62
2
 10
1768.066
 20
-4661.837
 30
1583.030
 70
    32
  0
VERTEX
  8
T36SSILL
 62
2
 10
1772.183
 20
-4667.224
 30
1583.013
 70
    32
  0
VERTEX
  8
T36SSILL
 62
2
 10
1777.812
 20
-4662.700
 30
1583.071
 70
    32
  0
VERTEX
  8
T36SSILL
 62
2
 10
1773.910
 20
-4657.593
 30
1583.087
 70
    32
  0
VERTEX
  8
T36SSILL
 62
2
 10
1829.976
 20
-4617.851
 30
1583.144
 70
    32
  0
VERTEX
  8
T36SSILL
 62
2
 10
1834.212
 20
-4622.814
 30
1583.140
 70
    32
  0
VERTEX
  8
T36SSILL
 62
2
 10
1839.916
 20
-4618.677
 30
1583.142
 70
    32
  0
VERTEX
  8
T36SSILL
 62
2
 10
1836.083
 20
-4613.517
 30
1583.145
 70
    32
  0
VERTEX
  8
T36SSILL
 62
2
 10
1855.190
 20
-4599.802
 30
1583.151
 70
    32
  0
VERTEX
  8
T36SSILL
 62
2
 10
1865.964
 20
-4540.815
 30
1583.185
 70
    32
  0
VERTEX
  8
T36SSILL
 62
2
 10
1869.221
 20
-4538.475
 30
1583.186
 70
    32
  0
VERTEX
  8
T36SSILL
 62
2
 10
1870.955
 20
-4540.880
 30
1583.185
 70
    32
  0
VERTEX
  8
T36SSILL
 62
2
 10
1877.420
 20
-4537.334
 30
1583.186
 70
    32
  0
VERTEX
  8
T36SSILL
 62
2
 10
1954.258
 20
-4481.288
 30
1583.209
 70
    32
  0
VERTEX
  8
T36SSILL
 62
2
 10
1957.384
 20
-4482.529
 30
1583.208
 70
    32
  0
VERTEX
  8
T36SSILL
 62
2
 10
1957.323
 20
-4490.087
 30
1583.203
 70
    32
  0
VERTEX
  8
T36SSILL
 62
2
 10
1955.279
 20
-4499.166
 30
1583.198
 70
    32
  0
VERTEX
  8
T36SSILL
 62
2
 10
1938.055
 20
-4538.097
 30
1583.177
 70
    32
  0
VERTEX
  8
T36SSILL
 62
2
 10
1934.868
 20
-4541.601
 30
1583.175
 70
    32
  0
VERTEX
  8
T36SSILL
 62
2
 10
1935.158
 20
-4549.171
 30
1583.171
 70
    32
  0
VERTEX
  8
T36SSILL
 62
2
 10
1930.072
 20
-4565.539
 30
1583.161
 70
    32
  0
VERTEX
  8
T36SSILL
 62
2
 10
1928.264
 20
-4578.317
 30
1583.154
 70
    32
  0
VERTEX
  8
T36SSILL
 62
2
 10
1924.327
 20
-4586.105
 30
1583.150
 70
    32
  0
VERTEX
  8
T36SSILL
 62
2
 10
1914.653
 20
-4597.406
 30
1583.144
 70
    32
  0
VERTEX
  8
T36SSILL
 62
2
 10
1913.531
 20
-4607.920
 30
1583.138
 70
    32
  0
VERTEX
  8
T36SSILL
 62
2
 10
1914.137
 20
-4613.829
 30
1583.134
 70
    32
  0
VERTEX
  8
T36SSILL
 62
2
 10
1732.715
 20
-4741.157
 30
1582.319
 70
    32
  0
VERTEX
  8
T36SSILL
 62
2
 10
1705.205
 20
-4744.892
 30
1582.162
 70
    32
  0
VERTEX
  8
T36SSILL
 62
2
 10
1703.979
 20
-4757.354
 30
1582.178
 70
    32
  0
VERTEX
  8
T36SSILL
 62
2
 10
1701.640
 20
-4763.574
 30
1582.199
 70
    32
  0
VERTEX
  8
T36SSILL
 62
2
 10
1640.644
 20
-4807.305
 30
1582.475
 70
    32
  0
VERTEX
  8
T36SSILL
 62
2
 10
1644.785
 20
-4813.449
 30
1582.447
 70
    32
  0
VERTEX
  8
T36SSILL
 62
2
 10
1672.518
 20
-4793.475
 30
1582.377
 70
    32
  0
VERTEX
  8
T36SSILL
 62
2
 10
1676.811
 20
-4800.833
 30
1582.352
 70
    32
  0
VERTEX
  8
T36SSILL
 62
2
 10
1682.815
 20
-4796.798
 30
1582.338
 70
    32
  0
VERTEX
  8
T36SSILL
 62
2
 10
1678.209
 20
-4789.901
 30
1582.346
 70
    32
  0
VERTEX
  8
T36SSILL
 62
2
 10
1701.658
 20
-4773.312
 30
1582.215
 70
    32
  0
VERTEX
  8
T36SSILL
 62
2
 10
1710.685
 20
-4772.509
 30
1582.175
 70
    32
  0
VERTEX
  8
T36SSILL
 62
2
 10
1722.946
 20
-4769.122
 30
1582.115
 70
    32
  0
VERTEX
  8
T36SSILL
 62
2
 10
1727.902
 20
-4762.122
 30
1582.153
 70
    32
  0
VERTEX
  8
T36SSILL
 62
2
 10
1724.687
 20
-4757.044
 30
1582.173
 70
    32
  0
VERTEX
  8
T36SSILL
 62
2
 10
1732.473
 20
-4751.426
 30
1582.248
 70
    32
  0
VERTEX
  8
T36SSILL
 62
2
 10
1736.791
 20
-4757.656
 30
1582.227
 70
    32
  0
VERTEX
  8
T36SSILL
 62
2
 10
1744.078
 20
-4753.417
 30
1582.290
 70
    32
  0
VERTEX
  8
T36SSILL
 62
2
 10
1738.786
 20
-4746.491
 30
1582.312
 70
    32
  0
VERTEX
  8
T36SSILL
 62
2
 10
1776.518
 20
-4720.316
 30
1582.672
 70
    32
  0
VERTEX
  8
T36SSILL
 62
2
 10
1780.779
 20
-4726.036
 30
1582.653
 70
    32
  0
VERTEX
  8
T36SSILL
 62
2
 10
1786.766
 20
-4722.126
 30
1582.708
 70
    32
  0
VERTEX
  8
T36SSILL
 62
2
 10
1782.304
 20
-4715.562
 30
1582.732
 70
    32
  0
VERTEX
  8
T36SSILL
 62
2
 10
1821.049
 20
-4688.391
 30
1583.102
 70
    32
  0
VERTEX
  8
T36SSILL
 62
2
 10
1825.248
 20
-4695.046
 30
1583.078
 70
    32
  0
VERTEX
  8
T36SSILL
 62
2
 10
1831.651
 20
-4690.374
 30
1583.099
 70
    32
  0
VERTEX
  8
T36SSILL
 62
2
 10
1827.123
 20
-4684.304
 30
1583.103
 70
    32
  0
VERTEX
  8
T36SSILL
 62
2
 10
1857.128
 20
-4662.372
 30
1583.113
 70
    32
  0
VERTEX
  8
T36SSILL
 62
2
 10
1873.649
 20
-4678.337
 30
1583.101
 70
    32
  0
VERTEX
  8
T36SSILL
 62
2
 10
1894.719
 20
-4663.566
 30
1583.107
 70
    32
  0
VERTEX
  8
T36SSILL
 62
2
 10
1881.979
 20
-4645.154
 30
1583.120
 70
    32
  0
VERTEX
  8
T36SSILL
 62
2
 10
1895.436
 20
-4635.646
 30
1583.123
 70
    32
  0
VERTEX
  8
T36SSILL
 62
2
 10
1899.150
 20
-4641.231
 30
1583.120
 70
    32
  0
VERTEX
  8
T36SSILL
 62
2
 10
1906.330
 20
-4636.851
 30
1583.121
 70
    32
  0
VERTEX
  8
T36SSILL
 62
2
 10
1902.650
 20
-4631.020
 30
1583.125
 70
    32
  0
VERTEX
  8
T36SSILL
 62
2
 10
1918.027
 20
-4621.512
 30
1583.129
 70
    32
  0
VERTEX
  8
T36SSILL
 62
2
 10
1923.887
 20
-4622.487
 30
1583.127
 70
    32
  0
VERTEX
  8
T36SSILL
 62
2
 10
1927.097
 20
-4631.581
 30
1583.121
 70
    32
  0
VERTEX
  8
T36SSILL
 62
2
 10
1933.635
 20
-4640.852
 30
1583.115
 70
    32
  0
VERTEX
  8
T36SSILL
 62
2
 10
1949.231
 20
-4647.906
 30
1583.108
 70
    32
  0
VERTEX
  8
T36SSILL
 62
2
 10
1959.027
 20
-4656.628
 30
1583.102
 70
    32
  0
VERTEX
  8
T36SSILL
 62
2
 10
1958.135
 20
-4659.816
 30
1583.100
 70
    32
  0
VERTEX
  8
T36SSILL
 62
2
 10
1940.709
 20
-4664.626
 30
1583.099
 70
    32
  0
VERTEX
  8
T36SSILL
 62
2
 10
1920.037
 20
-4663.984
 30
1583.103
 70
    32
  0
VERTEX
  8
T36SSILL
 62
2
 10
1902.844
 20
-4661.569
 30
1583.107
 70
    32
  0
VERTEX
  8
T36SSILL
 62
2
 10
1901.057
 20
-4671.799
 30
1583.101
 70
    32
  0
VERTEX
  8
T36SSILL
 62
2
 10
1911.899
 20
-4675.087
 30
1583.097
 70
    32
  0
VERTEX
  8
T36SSILL
 62
2
 10
1911.293
 20
-4680.537
 30
1583.094
 70
    32
  0
VERTEX
  8
T36SSILL
 62
2
 10
1842.780
 20
-4728.492
 30
1582.934
 70
    32
  0
VERTEX
  8
T36SSILL
 62
2
 10
1841.117
 20
-4728.254
 30
1582.927
 70
    32
  0
VERTEX
  8
T36SSILL
 62
2
 10
1839.858
 20
-4726.131
 30
1582.936
 70
    32
  0
VERTEX
  8
T36SSILL
 62
2
 10
1841.232
 20
-4719.934
 30
1582.985
 70
    32
  0
VERTEX
  8
T36SSILL
 62
2
 10
1832.881
 20
-4716.844
 30
1582.966
 70
    32
  0
VERTEX
  8
T36SSILL
 62
2
 10
1821.173
 20
-4734.063
 30
1582.792
 70
    32
  0
VERTEX
  8
T36SSILL
 62
2
 10
1819.267
 20
-4741.552
 30
1582.732
 70
    32
  0
VERTEX
  8
T36SSILL
 62
2
 10
1804.734
 20
-4746.072
 30
1582.631
 70
    32
  0
VERTEX
  8
T36SSILL
 62
2
 10
1797.092
 20
-4750.535
 30
1582.564
 70
    32
  0
VERTEX
  8
T36SSILL
 62
2
 10
1768.860
 20
-4752.689
 30
1582.414
 70
    32
  0
VERTEX
  8
T36SSILL
 62
2
 10
1743.228
 20
-4759.764
 30
1582.243
 70
    32
  0
VERTEX
  8
T36SSILL
 62
2
 10
1739.679
 20
-4773.293
 30
1582.134
 70
    32
  0
VERTEX
  8
T36SSILL
 62
2
 10
1725.837
 20
-4785.554
 30
1582.130
 70
    32
  0
VERTEX
  8
T36SSILL
 62
2
 10
1742.399
 20
-4786.640
 30
1582.059
 70
    32
  0
VERTEX
  8
T36SSILL
 62
2
 10
1760.023
 20
-4766.365
 30
1582.279
 70
    32
  0
VERTEX
  8
T36SSILL
 62
2
 10
1765.566
 20
-4763.167
 30
1582.327
 70
    32
  0
VERTEX
  8
T36SSILL
 62
2
 10
1769.377
 20
-4769.074
 30
1582.305
 70
    32
  0
VERTEX
  8
T36SSILL
 62
2
 10
1744.248
 20
-4795.417
 30
1582.066
 70
    32
  0
VERTEX
  8
T36SSILL
 62
2
 10
1746.881
 20
-4809.713
 30
1582.072
 70
    32
  0
VERTEX
  8
T36SSILL
 62
2
 10
1767.236
 20
-4782.143
 30
1582.206
 70
    32
  0
VERTEX
  8
T36SSILL
 62
2
 10
1770.795
 20
-4783.756
 30
1582.212
 70
    32
  0
VERTEX
  8
T36SSILL
 62
2
 10
1769.008
 20
-4799.401
 30
1582.096
 70
    32
  0
VERTEX
  8
T36SSILL
 62
2
 10
1782.050
 20
-4789.470
 30
1582.227
 70
    32
  0
VERTEX
  8
T36SSILL
 62
2
 10
1783.764
 20
-4770.114
 30
1582.367
 70
    32
  0
VERTEX
  8
T36SSILL
 62
2
 10
1807.670
 20
-4763.111
 30
1582.529
 70
    32
  0
VERTEX
  8
T36SSILL
 62
2
 10
1812.438
 20
-4776.311
 30
1582.462
 70
    32
  0
VERTEX
  8
T36SSILL
 62
2
 10
1791.291
 20
-4786.487
 30
1582.291
 70
    32
  0
VERTEX
  8
T36SSILL
 62
2
 10
1698.245
 20
-4853.823
 30
1583.019
 70
    32
  0
VERTEX
  8
T36SSILL
 62
2
 10
1694.232
 20
-4848.136
 30
1582.926
 70
    32
  0
VERTEX
  8
T36SSILL
 62
2
 10
1666.125
 20
-4867.620
 30
1583.252
 70
    32
  0
VERTEX
  8
T36SSILL
 62
2
 10
1663.778
 20
-4872.960
 30
1583.293
 70
    32
  0
VERTEX
  8
T36SSILL
 62
2
 10
1666.027
 20
-4876.338
 30
1583.316
 70
    32
  0
VERTEX
  8
T36SSILL
 62
2
 10
1609.628
 20
-4916.224
 30
1583.651
 70
    32
  0
VERTEX
  8
T36SSILL
 62
2
 10
1597.958
 20
-4922.704
 30
1583.707
 70
    32
  0
VERTEX
  8
T36SSILL
 62
2
 10
1584.063
 20
-4924.679
 30
1583.732
 70
    32
  0
VERTEX
  8
T36SSILL
 62
2
 10
1570.207
 20
-4923.078
 30
1583.732
 70
    32
  0
VERTEX
  8
T36SSILL
 62
2
 10
1567.360
 20
-4921.818
 30
1583.725
 70
    32
  0
VERTEX
  8
T36SSILL
 62
2
 10
1561.663
 20
-4918.858
 30
1583.708
 70
    32
  0
VERTEX
  8
T36SSILL
 62
2
 10
1547.739
 20
-4907.889
 30
1583.633
 70
    32
  0
VERTEX
  8
T36SSILL
 62
2
 10
1449.301
 20
-4769.794
 30
1583.269
 70
    32
  0
VERTEX
  8
T36SSILL
 62
2
 10
1438.159
 20
-4760.578
 30
1583.330
 70
    32
  0
VERTEX
  8
T36SSILL
 62
2
 10
1431.116
 20
-4757.787
 30
1583.362
 70
    32
  0
VERTEX
  8
T36SSILL
 62
2
 10
1426.619
 20
-4764.373
 30
1583.365
 70
    32
  0
VERTEX
  8
T36SSILL
 62
2
 10
1434.594
 20
-4767.514
 30
1583.329
 70
    32
  0
VERTEX
  8
T36SSILL
 62
2
 10
1443.248
 20
-4774.198
 30
1583.283
 70
    32
  0
VERTEX
  8
T36SSILL
 62
2
 10
1542.442
 20
-4914.153
 30
1583.647
 70
    32
  0
VERTEX
  8
T36SSILL
 62
2
 10
1550.854
 20
-4921.245
 30
1583.694
 70
    32
  0
VERTEX
  8
T36SSILL
 62
2
 10
1560.924
 20
-4926.737
 30
1583.738
 70
    32
  0
VERTEX
  8
T36SSILL
 62
2
 10
1579.132
 20
-4932.437
 30
1583.793
 70
    32
  0
VERTEX
  8
T36SSILL
 62
2
 10
1587.459
 20
-4932.168
 30
1583.784
 70
    32
  0
VERTEX
  8
T36SSILL
 62
2
 10
1598.305
 20
-4929.974
 30
1583.760
 70
    32
  0
VERTEX
  8
T36SSILL
 62
2
 10
1609.674
 20
-4925.276
 30
1583.716
 70
    32
  0
VERTEX
  8
T36SSILL
 62
2
 10
1769.585
 20
-4810.815
 30
1582.021
 70
    32
  0
VERTEX
  8
T36SSILL
 62
2
 10
1791.301
 20
-4795.345
 30
1582.231
 70
    32
  0
VERTEX
  8
T36SSILL
 62
2
 10
1806.329
 20
-4786.298
 30
1582.365
 70
    32
  0
VERTEX
  8
T36SSILL
 62
2
 10
1816.594
 20
-4784.169
 30
1582.429
 70
    32
  0
VERTEX
  8
T36SSILL
 62
2
 10
1845.926
 20
-4793.274
 30
1582.507
 70
    32
  0
VERTEX
  8
T36SSILL
 62
2
 10
1831.081
 20
-4801.289
 30
1582.381
 70
    32
  0
VERTEX
  8
T36SSILL
 62
2
 10
1821.557
 20
-4804.261
 30
1582.315
 70
    32
  0
VERTEX
  8
T36SSILL
 62
2
 10
1787.162
 20
-4809.070
 30
1582.118
 70
    32
  0
VERTEX
  8
T36SSILL
 62
2
 10
1756.345
 20
-4824.802
 30
1582.195
 70
    32
  0
VERTEX
  8
T36SSILL
 62
2
 10
1796.655
 20
-4819.855
 30
1582.286
 70
    32
  0
VERTEX
  8
T36SSILL
 62
2
 10
1800.606
 20
-4821.280
 30
1582.327
 70
    32
  0
VERTEX
  8
T36SSILL
 62
2
 10
1801.956
 20
-4823.791
 30
1582.367
 70
    32
  0
VERTEX
  8
T36SSILL
 62
2
 10
1801.759
 20
-4826.592
 30
1582.403
 70
    32
  0
VERTEX
  8
T36SSILL
 62
2
 10
1792.985
 20
-4829.153
 30
1582.389
 70
    32
  0
VERTEX
  8
T36SSILL
 62
2
 10
1771.609
 20
-4839.052
 30
1582.405
 70
    32
  0
VERTEX
  8
T36SSILL
 62
2
 10
1760.589
 20
-4849.423
 30
1582.482
 70
    32
  0
VERTEX
  8
T36SSILL
 62
2
 10
1751.069
 20
-4855.024
 30
1582.504
 70
    32
  0
VERTEX
  8
T36SSILL
 62
2
 10
1746.712
 20
-4881.538
 30
1582.831
 70
    32
  0
VERTEX
  8
T36SSILL
 62
2
 10
1740.212
 20
-4886.203
 30
1582.857
 70
    32
  0
VERTEX
  8
T36SSILL
 62
2
 10
1741.168
 20
-4897.826
 30
1583.015
 70
    32
  0
VERTEX
  8
T36SSILL
 62
2
 10
1746.062
 20
-4902.930
 30
1583.109
 70
    32
  0
VERTEX
  8
T36SSILL
 62
2
 10
1758.431
 20
-4923.594
 30
1583.448
 70
    32
  0
VERTEX
  8
T36SSILL
 62
2
 10
1767.368
 20
-4917.180
 30
1583.412
 70
    32
  0
VERTEX
  8
T36SSILL
 62
2
 10
1766.307
 20
-4910.556
 30
1583.319
 70
    32
  0
VERTEX
  8
T36SSILL
 62
2
 10
1769.432
 20
-4904.621
 30
1583.257
 70
    32
  0
VERTEX
  8
T36SSILL
 62
2
 10
1788.471
 20
-4893.418
 30
1583.212
 70
    32
  0
VERTEX
  8
T36SSILL
 62
2
 10
1781.183
 20
-4883.263
 30
1583.039
 70
    32
  0
VERTEX
  8
T36SSILL
 62
2
 10
1776.017
 20
-4886.355
 30
1583.052
 70
    32
  0
VERTEX
  8
T36SSILL
 62
2
 10
1770.416
 20
-4876.835
 30
1582.896
 70
    32
  0
VERTEX
  8
T36SSILL
 62
2
 10
1777.813
 20
-4857.986
 30
1582.688
 70
    32
  0
VERTEX
  8
T36SSILL
 62
2
 10
1821.892
 20
-4824.592
 30
1582.485
 70
    32
  0
VERTEX
  8
T36SSILL
 62
2
 10
1831.180
 20
-4813.654
 30
1582.391
 70
    32
  0
VERTEX
  8
T36SSILL
 62
2
 10
1839.262
 20
-4811.365
 30
1582.404
 70
    32
  0
VERTEX
  8
T36SSILL
 62
2
 10
1873.406
 20
-4791.351
 30
1582.652
 70
    32
  0
VERTEX
  8
T36SSILL
 62
2
 10
1934.093
 20
-4801.806
 30
1582.872
 70
    32
  0
VERTEX
  8
T36SSILL
 62
2
 10
1886.101
 20
-4836.597
 30
1582.989
 70
    32
  0
VERTEX
  8
T36SSILL
 62
2
 10
1881.836
 20
-4830.436
 30
1582.885
 70
    32
  0
VERTEX
  8
T36SSILL
 62
2
 10
1875.272
 20
-4834.898
 30
1582.908
 70
    32
  0
VERTEX
  8
T36SSILL
 62
2
 10
1879.767
 20
-4841.215
 30
1583.016
 70
    32
  0
VERTEX
  8
T36SSILL
 62
2
 10
1859.821
 20
-4855.571
 30
1583.098
 70
    32
  0
VERTEX
  8
T36SSILL
 62
2
 10
1856.445
 20
-4850.284
 30
1583.010
 70
    32
  0
VERTEX
  8
T36SSILL
 62
2
 10
1850.531
 20
-4854.581
 30
1583.035
 70
    32
  0
VERTEX
  8
T36SSILL
 62
2
 10
1854.413
 20
-4859.371
 30
1583.119
 70
    32
  0
VERTEX
  8
T36SSILL
 62
2
 10
1834.866
 20
-4873.090
 30
1583.194
 70
    32
  0
VERTEX
  8
T36SSILL
 62
2
 10
1831.370
 20
-4868.226
 30
1583.111
 70
    32
  0
VERTEX
  8
T36SSILL
 62
2
 10
1824.473
 20
-4872.832
 30
1583.135
 70
    32
  0
VERTEX
  8
T36SSILL
 62
2
 10
1828.380
 20
-4878.379
 30
1583.229
 70
    32
  0
VERTEX
  8
T36SSILL
 62
2
 10
1809.409
 20
-4891.547
 30
1583.300
 70
    32
  0
VERTEX
  8
T36SSILL
 62
2
 10
1805.058
 20
-4885.563
 30
1583.198
 70
    32
  0
VERTEX
  8
T36SSILL
 62
2
 10
1798.058
 20
-4890.469
 30
1583.225
 70
    32
  0
VERTEX
  8
T36SSILL
 62
2
 10
1802.903
 20
-4896.519
 30
1583.331
 70
    32
  0
VERTEX
  8
T36SSILL
 62
2
 10
1783.108
 20
-4910.204
 30
1583.405
 70
    32
  0
VERTEX
  8
T36SSILL
 62
2
 10
1779.235
 20
-4904.410
 30
1583.307
 70
    32
  0
VERTEX
  8
T36SSILL
 62
2
 10
1772.988
 20
-4908.852
 30
1583.332
 70
    32
  0
VERTEX
  8
T36SSILL
 62
2
 10
1776.775
 20
-4914.823
 30
1583.431
 70
    32
  0
VERTEX
  8
T36SSILL
 62
2
 10
1756.931
 20
-4928.879
 30
1583.510
 70
    32
  0
VERTEX
  8
T36SSILL
 62
2
 10
1753.341
 20
-4923.311
 30
1583.417
 70
    32
  0
VERTEX
  8
T36SSILL
 62
2
 10
1747.391
 20
-4927.415
 30
1583.439
 70
    32
  0
VERTEX
  8
T36SSILL
 62
2
 10
1751.121
 20
-4932.876
 30
1583.531
 70
    32
  0
VERTEX
  8
T36SSILL
 62
2
 10
1716.561
 20
-4957.402
 30
1583.668
 70
    32
  0
VERTEX
  8
T36SSILL
 62
2
 10
1720.924
 20
-4964.706
 30
1583.788
 70
    32
  0
VERTEX
  8
T36SSILL
 62
2
 10
1940.493
 20
-4806.556
 30
1582.886
 70
    32
  0
VERTEX
  8
T36SSILL
 62
2
 10
1951.096
 20
-4804.770
 30
1582.933
 70
    32
  0
VERTEX
  8
T36SSILL
 62
2
 10
2060.019
 20
-4824.480
 30
1583.066
 70
    32
  0
VERTEX
  8
T36SSILL
 62
2
 10
2038.686
 20
-4839.342
 30
1583.086
 70
    32
  0
VERTEX
  8
T36SSILL
 62
2
 10
2034.508
 20
-4833.005
 30
1583.074
 70
    32
  0
VERTEX
  8
T36SSILL
 62
2
 10
2028.574
 20
-4836.985
 30
1583.079
 70
    32
  0
VERTEX
  8
T36SSILL
 62
2
 10
2033.015
 20
-4843.232
 30
1583.091
 70
    32
  0
VERTEX
  8
T36SSILL
 62
2
 10
2028.801
 20
-4846.563
 30
1583.095
 70
    32
  0
VERTEX
  8
T36SSILL
 62
2
 10
2023.842
 20
-4839.493
 30
1583.082
 70
    32
  0
VERTEX
  8
T36SSILL
 62
2
 10
2018.264
 20
-4834.225
 30
1583.072
 70
    32
  0
VERTEX
  8
T36SSILL
 62
2
 10
2009.546
 20
-4836.012
 30
1583.073
 70
    32
  0
VERTEX
  8
T36SSILL
 62
2
 10
2002.476
 20
-4839.087
 30
1583.076
 70
    32
  0
VERTEX
  8
T36SSILL
 62
2
 10
2000.377
 20
-4842.575
 30
1583.094
 70
    32
  0
VERTEX
  8
T36SSILL
 62
2
 10
2001.317
 20
-4847.287
 30
1583.110
 70
    32
  0
VERTEX
  8
T36SSILL
 62
2
 10
2002.745
 20
-4847.415
 30
1583.108
 70
    32
  0
VERTEX
  8
T36SSILL
 62
2
 10
2009.978
 20
-4860.505
 30
1583.145
 70
    32
  0
VERTEX
  8
T36SSILL
 62
2
 10
1998.286
 20
-4868.552
 30
1583.198
 70
    32
  0
VERTEX
  8
T36SSILL
 62
2
 10
1991.023
 20
-4861.803
 30
1583.186
 70
    32
  0
VERTEX
  8
T36SSILL
 62
2
 10
1979.805
 20
-4855.969
 30
1583.184
 70
    32
  0
VERTEX
  8
T36SSILL
 62
2
 10
1964.098
 20
-4863.982
 30
1583.244
 70
    32
  0
VERTEX
  8
T36SSILL
 62
2
 10
1940.961
 20
-4883.880
 30
1583.365
 70
    32
  0
VERTEX
  8
T36SSILL
 62
2
 10
1926.783
 20
-4899.258
 30
1583.451
 70
    32
  0
VERTEX
  8
T36SSILL
 62
2
 10
1931.513
 20
-4916.034
 30
1583.507
 70
    32
  0
VERTEX
  8
T36SSILL
 62
2
 10
1884.784
 20
-4948.418
 30
1583.719
 70
    32
  0
VERTEX
  8
T36SSILL
 62
2
 10
1867.739
 20
-4934.959
 30
1583.699
 70
    32
  0
VERTEX
  8
T36SSILL
 62
2
 10
1857.233
 20
-4941.658
 30
1583.745
 70
    32
  0
VERTEX
  8
T36SSILL
 62
2
 10
1840.054
 20
-4946.585
 30
1583.796
 70
    32
  0
VERTEX
  8
T36SSILL
 62
2
 10
1846.039
 20
-4975.589
 30
1583.897
 70
    32
  0
VERTEX
  8
T36SSILL
 62
2
 10
1816.574
 20
-4996.776
 30
1584.034
 70
    32
  0
VERTEX
  8
T36SSILL
 62
2
 10
1810.204
 20
-4989.454
 30
1584.017
 70
    32
  0
VERTEX
  8
T36SSILL
 62
2
 10
1806.356
 20
-4980.649
 30
1583.991
 70
    32
  0
VERTEX
  8
T36SSILL
 62
2
 10
1804.903
 20
-4979.763
 30
1583.990
 70
    32
  0
VERTEX
  8
T36SSILL
 62
2
 10
1796.205
 20
-4983.751
 30
1584.022
 70
    32
  0
VERTEX
  8
T36SSILL
 62
2
 10
1792.990
 20
-4988.535
 30
1584.046
 70
    32
  0
VERTEX
  8
T36SSILL
 62
2
 10
1794.931
 20
-4990.930
 30
1584.052
 70
    32
  0
VERTEX
  8
T36SSILL
 62
2
 10
1801.966
 20
-4991.871
 30
1584.042
 70
    32
  0
VERTEX
  8
T36SSILL
 62
2
 10
1805.516
 20
-4994.921
 30
1584.047
 70
    32
  0
VERTEX
  8
T36SSILL
 62
2
 10
1807.514
 20
-4997.826
 30
1584.055
 70
    32
  0
VERTEX
  8
T36SSILL
 62
2
 10
1807.101
 20
-5002.796
 30
1584.075
 70
    32
  0
VERTEX
  8
T36SSILL
 62
2
 10
1775.290
 20
-5025.554
 30
1584.222
 70
    32
  0
VERTEX
  8
T36SSILL
 62
2
 10
1779.860
 20
-5030.373
 30
1584.232
 70
    32
  0
VERTEX
  8
T36SSILL
 62
2
 10
1802.819
 20
-5014.158
 30
1584.127
 70
    32
  0
VERTEX
  8
T36SSILL
 62
2
 10
1805.003
 20
-5016.146
 30
1584.130
 70
    32
  0
VERTEX
  8
T36SSILL
 62
2
 10
1811.850
 20
-5025.541
 30
1584.154
 70
    32
  0
VERTEX
  8
T36SSILL
 62
2
 10
1814.597
 20
-5027.542
 30
1584.156
 70
    32
  0
VERTEX
  8
T36SSILL
 62
2
 10
1825.315
 20
-5054.037
 30
1584.239
 70
    32
  0
VERTEX
  8
T36SSILL
 62
2
 10
1835.366
 20
-5067.190
 30
1584.271
 70
    32
  0
VERTEX
  8
T36SSILL
 62
2
 10
1843.615
 20
-5066.094
 30
1584.251
 70
    32
  0
VERTEX
  8
T36SSILL
 62
2
 10
1848.840
 20
-5067.420
 30
1584.247
 70
    32
  0
VERTEX
  8
T36SSILL
 62
2
 10
1849.002
 20
-5073.723
 30
1584.271
 70
    32
  0
VERTEX
  8
T36SSILL
 62
2
 10
1852.236
 20
-5086.656
 30
1584.315
 70
    32
  0
VERTEX
  8
T36SSILL
 62
2
 10
1867.553
 20
-5113.515
 30
1584.390
 70
    32
  0
VERTEX
  8
T36SSILL
 62
2
 10
1941.010
 20
-5061.148
 30
1584.050
 70
    32
  0
VERTEX
  8
T36SSILL
 62
2
 10
1943.062
 20
-5052.377
 30
1584.012
 70
    32
  0
VERTEX
  8
T36SSILL
 62
2
 10
1953.008
 20
-5032.475
 30
1583.916
 70
    32
  0
VERTEX
  8
T36SSILL
 62
2
 10
1959.618
 20
-5027.203
 30
1583.884
 70
    32
  0
VERTEX
  8
T36SSILL
 62
2
 10
1972.757
 20
-5019.600
 30
1583.830
 70
    32
  0
VERTEX
  8
T36SSILL
 62
2
 10
1984.346
 20
-5021.714
 30
1583.816
 70
    32
  0
VERTEX
  8
T36SSILL
 62
2
 10
1989.089
 20
-5024.295
 30
1583.817
 70
    32
  0
VERTEX
  8
T36SSILL
 62
2
 10
1989.801
 20
-5025.081
 30
1583.819
 70
    32
  0
VERTEX
  8
T36SSILL
 62
2
 10
1986.927
 20
-5030.602
 30
1583.846
 70
    32
  0
VERTEX
  8
T36SSILL
 62
2
 10
1990.591
 20
-5036.556
 30
1583.862
 70
    32
  0
VERTEX
  8
T36SSILL
 62
2
 10
1964.188
 20
-5053.630
 30
1583.977
 70
    32
  0
VERTEX
  8
T36SSILL
 62
2
 10
1964.915
 20
-5058.061
 30
1583.993
 70
    32
  0
VERTEX
  8
T36SSILL
 62
2
 10
1900.862
 20
-5102.577
 30
1584.285
 70
    32
  0
VERTEX
  8
T36SSILL
 62
2
 10
1905.459
 20
-5108.594
 30
1584.300
 70
    32
  0
VERTEX
  8
T36SSILL
 62
2
 10
1948.052
 20
-5078.483
 30
1584.104
 70
    32
  0
VERTEX
  8
T36SSILL
 62
2
 10
1951.593
 20
-5082.537
 30
1584.113
 70
    32
  0
VERTEX
  8
T36SSILL
 62
2
 10
1961.935
 20
-5075.188
 30
1584.065
 70
    32
  0
VERTEX
  8
T36SSILL
 62
2
 10
1958.233
 20
-5070.925
 30
1584.055
 70
    32
  0
VERTEX
  8
T36SSILL
 62
2
 10
1967.875
 20
-5064.110
 30
1584.011
 70
    32
  0
VERTEX
  8
T36SSILL
 62
2
 10
1976.589
 20
-5077.398
 30
1584.046
 70
    32
  0
VERTEX
  8
T36SSILL
 62
2
 10
1980.436
 20
-5078.227
 30
1584.042
 70
    32
  0
VERTEX
  8
T36SSILL
 62
2
 10
1982.682
 20
-5077.396
 30
1584.035
 70
    32
  0
VERTEX
  8
T36SSILL
 62
2
 10
1988.362
 20
-5072.502
 30
1584.005
 70
    32
  0
VERTEX
  8
T36SSILL
 62
2
 10
1990.412
 20
-5067.500
 30
1583.982
 70
    32
  0
VERTEX
  8
T36SSILL
 62
2
 10
1982.393
 20
-5055.121
 30
1583.949
 70
    32
  0
VERTEX
  8
T36SSILL
 62
2
 10
1983.328
 20
-5053.299
 30
1583.940
 70
    32
  0
VERTEX
  8
T36SSILL
 62
2
 10
2005.986
 20
-5036.981
 30
1583.835
 70
    32
  0
VERTEX
  8
T36SSILL
 62
2
 10
2011.110
 20
-5044.701
 30
1583.855
 70
    32
  0
VERTEX
  8
T36SSILL
 62
2
 10
2076.435
 20
-4999.451
 30
1583.558
 70
    32
  0
VERTEX
  8
T36SSILL
 62
2
 10
2083.225
 20
-5009.429
 30
1583.584
 70
    32
  0
VERTEX
  8
T36SSILL
 62
2
 10
2016.381
 20
-5056.963
 30
1583.893
 70
    32
  0
VERTEX
  8
T36SSILL
 62
2
 10
2030.705
 20
-5075.273
 30
1583.936
 70
    32
  0
VERTEX
  8
T36SSILL
 62
2
 10
2027.976
 20
-5079.242
 30
1583.957
 70
    32
  0
VERTEX
  8
T36SSILL
 62
2
 10
2017.679
 20
-5075.918
 30
1583.963
 70
    32
  0
VERTEX
  8
T36SSILL
 62
2
 10
2007.079
 20
-5068.283
 30
1583.954
 70
    32
  0
VERTEX
  8
T36SSILL
 62
2
 10
2002.689
 20
-5067.759
 30
1583.960
 70
    32
  0
VERTEX
  8
T36SSILL
 62
2
 10
1986.716
 20
-5083.400
 30
1584.050
 70
    32
  0
VERTEX
  8
T36SSILL
 62
2
 10
1980.475
 20
-5082.629
 30
1584.059
 70
    32
  0
VERTEX
  8
T36SSILL
 62
2
 10
1960.220
 20
-5097.886
 30
1584.156
 70
    32
  0
VERTEX
  8
T36SSILL
 62
2
 10
1968.700
 20
-5120.439
 30
1584.227
 70
    32
  0
VERTEX
  8
T36SSILL
 62
2
 10
1965.219
 20
-5122.989
 30
1584.244
 70
    32
  0
VERTEX
  8
T36SSILL
 62
2
 10
1968.652
 20
-5128.787
 30
1584.260
 70
    32
  0
VERTEX
  8
T36SSILL
 62
2
 10
1978.804
 20
-5121.916
 30
1584.214
 70
    32
  0
VERTEX
  8
T36SSILL
 62
2
 10
1980.376
 20
-5122.377
 30
1584.213
 70
    32
  0
VERTEX
  8
T36SSILL
 62
2
 10
1989.109
 20
-5128.004
 30
1584.218
 70
    32
  0
VERTEX
  8
T36SSILL
 62
2
 10
1994.557
 20
-5136.584
 30
1584.241
 70
    32
  0
VERTEX
  8
T36SSILL
 62
2
 10
2007.430
 20
-5126.747
 30
1584.179
 70
    32
  0
VERTEX
  8
T36SSILL
 62
2
 10
1999.837
 20
-5120.581
 30
1584.169
 70
    32
  0
VERTEX
  8
T36SSILL
 62
2
 10
1995.963
 20
-5114.787
 30
1584.154
 70
    32
  0
VERTEX
  8
T36SSILL
 62
2
 10
2021.788
 20
-5090.287
 30
1584.011
 70
    32
  0
VERTEX
  8
T36SSILL
 62
2
 10
2035.321
 20
-5099.005
 30
1584.020
 70
    32
  0
VERTEX
  8
T36SSILL
 62
2
 10
2044.655
 20
-5102.954
 30
1584.017
 70
    32
  0
VERTEX
  8
T36SSILL
 62
2
 10
2115.037
 20
-5053.864
 30
1583.696
 70
    32
  0
SEQEND
  8
T36SSILL
  0
POLYLINE
  8
T36SSILL
 62
2
 66
     1
 70
     9
  0
VERTEX
  8
T36SSILL
 62
2
 10
2180.763
 20
-4868.069
 30
1583.169
 70
    32
  0
VERTEX
  8
T36SSILL
 62
2
 10
2180.066
 20
-4810.313
 30
1583.079
 70
    32
  0
VERTEX
  8
T36SSILL
 62
2
 10
2244.112
 20
-4901.663
 30
1583.242
 70
    32
  0
VERTEX
  8
T36SSILL
 62
2
 10
2246.183
 20
-4910.608
 30
1583.257
 70
    32
  0
VERTEX
  8
T36SSILL
 62
2
 10
2243.570
 20
-4921.691
 30
1583.275
 70
    32
  0
VERTEX
  8
T36SSILL
 62
2
 10
2240.282
 20
-4926.088
 30
1583.282
 70
    32
  0
VERTEX
  8
T36SSILL
 62
2
 10
2229.028
 20
-4929.923
 30
1583.286
 70
    32
  0
VERTEX
  8
T36SSILL
 62
2
 10
2224.942
 20
-4929.942
 30
1583.285
 70
    32
  0
VERTEX
  8
T36SSILL
 62
2
 10
2210.806
 20
-4940.301
 30
1583.299
 70
    32
  0
VERTEX
  8
T36SSILL
 62
2
 10
2214.573
 20
-4945.956
 30
1583.309
 70
    32
  0
VERTEX
  8
T36SSILL
 62
2
 10
2211.388
 20
-4948.168
 30
1583.312
 70
    32
  0
VERTEX
  8
T36SSILL
 62
2
 10
2200.377
 20
-4951.596
 30
1583.315
 70
    32
  0
VERTEX
  8
T36SSILL
 62
2
 10
2193.964
 20
-4961.040
 30
1583.329
 70
    32
  0
VERTEX
  8
T36SSILL
 62
2
 10
2142.915
 20
-4996.616
 30
1583.422
 70
    32
  0
VERTEX
  8
T36SSILL
 62
2
 10
2142.323
 20
-4993.522
 30
1583.412
 70
    32
  0
VERTEX
  8
T36SSILL
 62
2
 10
2135.376
 20
-4988.636
 30
1583.406
 70
    32
  0
VERTEX
  8
T36SSILL
 62
2
 10
2120.685
 20
-4986.232
 30
1583.424
 70
    32
  0
VERTEX
  8
T36SSILL
 62
2
 10
2112.196
 20
-4988.175
 30
1583.447
 70
    32
  0
VERTEX
  8
T36SSILL
 62
2
 10
2088.955
 20
-5004.226
 30
1583.553
 70
    32
  0
VERTEX
  8
T36SSILL
 62
2
 10
2086.477
 20
-5000.724
 30
1583.544
 70
    32
  0
VERTEX
  8
T36SSILL
 62
2
 10
2106.453
 20
-4986.026
 30
1583.450
 70
    32
  0
VERTEX
  8
T36SSILL
 62
2
 10
2098.241
 20
-4975.569
 30
1583.425
 70
    32
  0
VERTEX
  8
T36SSILL
 62
2
 10
2103.282
 20
-4972.160
 30
1583.402
 70
    32
  0
VERTEX
  8
T36SSILL
 62
2
 10
2101.933
 20
-4969.090
 30
1583.393
 70
    32
  0
VERTEX
  8
T36SSILL
 62
2
 10
2172.073
 20
-4919.923
 30
1583.255
 70
    32
  0
SEQEND
  8
T36SSILL
  0
POLYLINE
  8
T36SSILL
 62
2
 66
     1
 70
     9
  0
VERTEX
  8
T36SSILL
 62
2
 10
2208.059
 20
-4961.793
 30
1583.334
 70
    32
  0
VERTEX
  8
T36SSILL
 62
2
 10
2211.813
 20
-4956.265
 30
1583.326
 70
    32
  0
VERTEX
  8
T36SSILL
 62
2
 10
2239.101
 20
-4937.739
 30
1583.301
 70
    32
  0
VERTEX
  8
T36SSILL
 62
2
 10
2231.734
 20
-4983.928
 30
1583.377
 70
    32
  0
VERTEX
  8
T36SSILL
 62
2
 10
2223.713
 20
-4990.833
 30
1583.387
 70
    32
  0
VERTEX
  8
T36SSILL
 62
2
 10
2219.970
 20
-4985.936
 30
1583.378
 70
    32
  0
VERTEX
  8
T36SSILL
 62
2
 10
2188.917
 20
-5008.669
 30
1583.408
 70
    32
  0
VERTEX
  8
T36SSILL
 62
2
 10
2192.285
 20
-5013.077
 30
1583.417
 70
    32
  0
VERTEX
  8
T36SSILL
 62
2
 10
2127.494
 20
-5058.673
 30
1583.691
 70
    32
  0
VERTEX
  8
T36SSILL
 62
2
 10
2121.098
 20
-5049.637
 30
1583.668
 70
    32
  0
VERTEX
  8
T36SSILL
 62
2
 10
2134.363
 20
-5040.385
 30
1583.608
 70
    32
  0
VERTEX
  8
T36SSILL
 62
2
 10
2136.800
 20
-5037.193
 30
1583.591
 70
    32
  0
VERTEX
  8
T36SSILL
 62
2
 10
2133.905
 20
-5020.788
 30
1583.533
 70
    32
  0
VERTEX
  8
T36SSILL
 62
2
 10
2134.606
 20
-5014.601
 30
1583.507
 70
    32
  0
VERTEX
  8
T36SSILL
 62
2
 10
2136.896
 20
-5008.751
 30
1583.481
 70
    32
  0
VERTEX
  8
T36SSILL
 62
2
 10
2199.867
 20
-4965.284
 30
1583.338
 70
    32
  0
VERTEX
  8
T36SSILL
 62
2
 10
2204.457
 20
-4980.282
 30
1583.364
 70
    32
  0
VERTEX
  8
T36SSILL
 62
2
 10
2213.691
 20
-4976.993
 30
1583.361
 70
    32
  0
VERTEX
  8
T36SSILL
 62
2
 10
2208.400
 20
-4964.414
 30
1583.339
 70
    32
  0
SEQEND
  8
T36SSILL
  0
POLYLINE
  8
T36SSILL
 62
2
 66
     1
 70
     9
  0
VERTEX
  8
T36SSILL
 62
2
 10
2180.646
 20
-5091.523
 30
1583.719
 70
    32
  0
VERTEX
  8
T36SSILL
 62
2
 10
2183.919
 20
-5091.167
 30
1583.711
 70
    32
  0
VERTEX
  8
T36SSILL
 62
2
 10
2193.071
 20
-5100.242
 30
1583.729
 70
    32
  0
VERTEX
  8
T36SSILL
 62
2
 10
2195.752
 20
-5104.621
 30
1583.741
 70
    32
  0
VERTEX
  8
T36SSILL
 62
2
 10
2201.634
 20
-5106.663
 30
1583.738
 70
    32
  0
VERTEX
  8
T36SSILL
 62
2
 10
2214.652
 20
-5095.275
 30
1583.670
 70
    32
  0
VERTEX
  8
T36SSILL
 62
2
 10
2222.668
 20
-5089.814
 30
1583.633
 70
    32
  0
VERTEX
  8
T36SSILL
 62
2
 10
2228.091
 20
-5087.775
 30
1583.615
 70
    32
  0
VERTEX
  8
T36SSILL
 62
2
 10
2234.225
 20
-5078.545
 30
1583.568
 70
    32
  0
VERTEX
  8
T36SSILL
 62
2
 10
2247.195
 20
-5071.736
 30
1583.529
 70
    32
  0
VERTEX
  8
T36SSILL
 62
2
 10
2245.236
 20
-5061.486
 30
1583.511
 70
    32
  0
VERTEX
  8
T36SSILL
 62
2
 10
2254.346
 20
-5058.181
 30
1583.508
 70
    32
  0
VERTEX
  8
T36SSILL
 62
2
 10
2256.593
 20
-5055.467
 30
1583.504
 70
    32
  0
VERTEX
  8
T36SSILL
 62
2
 10
2257.430
 20
-5050.616
 30
1583.496
 70
    32
  0
VERTEX
  8
T36SSILL
 62
2
 10
2256.458
 20
-5040.499
 30
1583.479
 70
    32
  0
VERTEX
  8
T36SSILL
 62
2
 10
2294.483
 20
-5013.547
 30
1583.443
 70
    32
  0
VERTEX
  8
T36SSILL
 62
2
 10
2283.708
 20
-5062.672
 30
1583.523
 70
    32
  0
VERTEX
  8
T36SSILL
 62
2
 10
2192.029
 20
-5127.301
 30
1583.836
 70
    32
  0
VERTEX
  8
T36SSILL
 62
2
 10
2186.597
 20
-5130.344
 30
1583.858
 70
    32
  0
VERTEX
  8
T36SSILL
 62
2
 10
2183.542
 20
-5125.476
 30
1583.845
 70
    32
  0
VERTEX
  8
T36SSILL
 62
2
 10
2162.274
 20
-5141.729
 30
1583.947
 70
    32
  0
VERTEX
  8
T36SSILL
 62
2
 10
2165.815
 20
-5145.782
 30
1583.956
 70
    32
  0
VERTEX
  8
T36SSILL
 62
2
 10
2149.383
 20
-5157.342
 30
1584.032
 70
    32
  0
VERTEX
  8
T36SSILL
 62
2
 10
2143.775
 20
-5156.249
 30
1584.038
 70
    32
  0
VERTEX
  8
T36SSILL
 62
2
 10
2136.733
 20
-5151.982
 30
1584.035
 70
    32
  0
VERTEX
  8
T36SSILL
 62
2
 10
2185.524
 20
-5116.758
 30
1583.807
 70
    32
  0
VERTEX
  8
T36SSILL
 62
2
 10
2184.837
 20
-5103.099
 30
1583.756
 70
    32
  0
SEQEND
  8
T36SSILL
  0
POLYLINE
  8
T36SSILL
 62
2
 66
     1
 70
     9
  0
VERTEX
  8
T36SSILL
 62
2
 10
2175.245
 20
-5082.282
 30
1583.693
 70
    32
  0
VERTEX
  8
T36SSILL
 62
2
 10
2177.186
 20
-5086.561
 30
1583.706
 70
    32
  0
VERTEX
  8
T36SSILL
 62
2
 10
2167.339
 20
-5078.461
 30
1583.693
 70
    32
  0
VERTEX
  8
T36SSILL
 62
2
 10
2156.154
 20
-5072.380
 30
1583.691
 70
    32
  0
VERTEX
  8
T36SSILL
 62
2
 10
2143.557
 20
-5081.366
 30
1583.749
 70
    32
  0
VERTEX
  8
T36SSILL
 62
2
 10
2136.036
 20
-5069.691
 30
1583.718
 70
    32
  0
VERTEX
  8
T36SSILL
 62
2
 10
2140.925
 20
-5066.953
 30
1583.698
 70
    32
  0
VERTEX
  8
T36SSILL
 62
2
 10
2136.808
 20
-5061.566
 30
1583.685
 70
    32
  0
VERTEX
  8
T36SSILL
 62
2
 10
2152.738
 20
-5050.944
 30
1583.614
 70
    32
  0
VERTEX
  8
T36SSILL
 62
2
 10
2157.475
 20
-5058.738
 30
1583.635
 70
    32
  0
VERTEX
  8
T36SSILL
 62
2
 10
2164.586
 20
-5054.412
 30
1583.605
 70
    32
  0
VERTEX
  8
T36SSILL
 62
2
 10
2158.631
 20
-5046.330
 30
1583.585
 70
    32
  0
VERTEX
  8
T36SSILL
 62
2
 10
2196.265
 20
-5019.011
 30
1583.428
 70
    32
  0
VERTEX
  8
T36SSILL
 62
2
 10
2200.406
 20
-5025.155
 30
1583.439
 70
    32
  0
VERTEX
  8
T36SSILL
 62
2
 10
2210.880
 20
-5016.819
 30
1583.427
 70
    32
  0
VERTEX
  8
T36SSILL
 62
2
 10
2213.659
 20
-5022.341
 30
1583.437
 70
    32
  0
VERTEX
  8
T36SSILL
 62
2
 10
2220.157
 20
-5018.373
 30
1583.432
 70
    32
  0
VERTEX
  8
T36SSILL
 62
2
 10
2224.113
 20
-5023.550
 30
1583.442
 70
    32
  0
VERTEX
  8
T36SSILL
 62
2
 10
2248.854
 20
-5005.751
 30
1583.418
 70
    32
  0
VERTEX
  8
T36SSILL
 62
2
 10
2237.192
 20
-4989.620
 30
1583.388
 70
    32
  0
VERTEX
  8
T36SSILL
 62
2
 10
2247.892
 20
-4928.361
 30
1583.288
 70
    32
  0
VERTEX
  8
T36SSILL
 62
2
 10
2252.489
 20
-4912.770
 30
1583.263
 70
    32
  0
VERTEX
  8
T36SSILL
 62
2
 10
2296.442
 20
-4974.926
 30
1583.378
 70
    32
  0
VERTEX
  8
T36SSILL
 62
2
 10
2300.573
 20
-4987.727
 30
1583.401
 70
    32
  0
VERTEX
  8
T36SSILL
 62
2
 10
2297.961
 20
-4998.810
 30
1583.419
 70
    32
  0
VERTEX
  8
T36SSILL
 62
2
 10
2292.671
 20
-5005.955
 30
1583.430
 70
    32
  0
VERTEX
  8
T36SSILL
 62
2
 10
2286.609
 20
-5011.363
 30
1583.437
 70
    32
  0
VERTEX
  8
T36SSILL
 62
2
 10
2266.231
 20
-5024.720
 30
1583.455
 70
    32
  0
VERTEX
  8
T36SSILL
 62
2
 10
2256.009
 20
-5018.014
 30
1583.441
 70
    32
  0
VERTEX
  8
T36SSILL
 62
2
 10
2251.823
 20
-5012.681
 30
1583.431
 70
    32
  0
VERTEX
  8
T36SSILL
 62
2
 10
2247.158
 20
-5009.042
 30
1583.423
 70
    32
  0
VERTEX
  8
T36SSILL
 62
2
 10
2168.597
 20
-5067.637
 30
1583.649
 70
    32
  0
VERTEX
  8
T36SSILL
 62
2
 10
2166.070
 20
-5072.449
 30
1583.672
 70
    32
  0
VERTEX
  8
T36SSILL
 62
2
 10
2172.806
 20
-5079.380
 30
1583.686
 70
    32
  0
SEQEND
  8
T36SSILL
  0
POLYLINE
  8
T36SSILL
 62
2
 66
     1
 70
     9
  0
VERTEX
  8
T36SSILL
 62
2
 10
2094.763
 20
-4615.305
 30
1583.108
 70
    32
  0
VERTEX
  8
T36SSILL
 62
2
 10
2083.050
 20
-4615.058
 30
1583.109
 70
    32
  0
VERTEX
  8
T36SSILL
 62
2
 10
2082.418
 20
-4660.200
 30
1583.082
 70
    32
  0
VERTEX
  8
T36SSILL
 62
2
 10
2172.660
 20
-4699.838
 30
1583.045
 70
    32
  0
VERTEX
  8
T36SSILL
 62
2
 10
2172.797
 20
-4670.145
 30
1583.063
 70
    32
  0
VERTEX
  8
T36SSILL
 62
2
 10
2154.123
 20
-4669.345
 30
1583.066
 70
    32
  0
VERTEX
  8
T36SSILL
 62
2
 10
2154.055
 20
-4661.861
 30
1583.071
 70
    32
  0
VERTEX
  8
T36SSILL
 62
2
 10
2173.129
 20
-4662.024
 30
1583.068
 70
    32
  0
VERTEX
  8
T36SSILL
 62
2
 10
2173.302
 20
-4624.547
 30
1583.091
 70
    32
  0
VERTEX
  8
T36SSILL
 62
2
 10
2123.992
 20
-4624.551
 30
1583.098
 70
    32
  0
VERTEX
  8
T36SSILL
 62
2
 10
2124.517
 20
-4616.393
 30
1583.103
 70
    32
  0
VERTEX
  8
T36SSILL
 62
2
 10
2117.776
 20
-4609.022
 30
1583.108
 70
    32
  0
VERTEX
  8
T36SSILL
 62
2
 10
2095.222
 20
-4609.525
 30
1583.111
 70
    32
  0
SEQEND
  8
T36SSILL
  0
POLYLINE
  8
T36SSILL
 62
2
 66
     1
 70
     9
  0
VERTEX
  8
T36SSILL
 62
2
 10
2120.480
 20
-4582.687
 30
1583.124
 70
    32
  0
VERTEX
  8
T36SSILL
 62
2
 10
2119.380
 20
-4601.223
 30
1583.113
 70
    32
  0
VERTEX
  8
T36SSILL
 62
2
 10
2064.656
 20
-4600.414
 30
1583.121
 70
    32
  0
VERTEX
  8
T36SSILL
 62
2
 10
2065.021
 20
-4553.038
 30
1583.150
 70
    32
  0
VERTEX
  8
T36SSILL
 62
2
 10
2173.097
 20
-4517.777
 30
1583.156
 70
    32
  0
VERTEX
  8
T36SSILL
 62
2
 10
2173.273
 20
-4562.734
 30
1583.129
 70
    32
  0
VERTEX
  8
T36SSILL
 62
2
 10
2121.180
 20
-4580.268
 30
1583.125
 70
    32
  0
SEQEND
  8
T36SSILL
  0
POLYLINE
  8
T36SSILL
 62
2
 66
     1
 70
     9
  0
VERTEX
  8
T36SSILL
 62
2
 10
2024.007
 20
-4623.498
 30
1583.113
 70
    32
  0
VERTEX
  8
T36SSILL
 62
2
 10
2062.491
 20
-4676.758
 30
1583.075
 70
    32
  0
VERTEX
  8
T36SSILL
 62
2
 10
2064.365
 20
-4669.785
 30
1583.079
 70
    32
  0
VERTEX
  8
T36SSILL
 62
2
 10
2066.279
 20
-4667.214
 30
1583.080
 70
    32
  0
VERTEX
  8
T36SSILL
 62
2
 10
2072.997
 20
-4671.943
 30
1583.076
 70
    32
  0
VERTEX
  8
T36SSILL
 62
2
 10
2069.842
 20
-4681.446
 30
1583.071
 70
    32
  0
VERTEX
  8
T36SSILL
 62
2
 10
2071.144
 20
-4689.095
 30
1583.066
 70
    32
  0
VERTEX
  8
T36SSILL
 62
2
 10
2128.840
 20
-4770.106
 30
1583.008
 70
    32
  0
VERTEX
  8
T36SSILL
 62
2
 10
2134.966
 20
-4771.307
 30
1583.007
 70
    32
  0
VERTEX
  8
T36SSILL
 62
2
 10
2173.810
 20
-4743.396
 30
1583.018
 70
    32
  0
VERTEX
  8
T36SSILL
 62
2
 10
2173.522
 20
-4729.099
 30
1583.027
 70
    32
  0
VERTEX
  8
T36SSILL
 62
2
 10
2171.233
 20
-4721.318
 30
1583.032
 70
    32
  0
VERTEX
  8
T36SSILL
 62
2
 10
2171.547
 20
-4707.227
 30
1583.041
 70
    32
  0
VERTEX
  8
T36SSILL
 62
2
 10
2075.714
 20
-4664.769
 30
1583.080
 70
    32
  0
VERTEX
  8
T36SSILL
 62
2
 10
2075.319
 20
-4615.093
 30
1583.110
 70
    32
  0
VERTEX
  8
T36SSILL
 62
2
 10
2046.984
 20
-4615.137
 30
1583.114
 70
    32
  0
VERTEX
  8
T36SSILL
 62
2
 10
2046.738
 20
-4601.473
 30
1583.123
 70
    32
  0
VERTEX
  8
T36SSILL
 62
2
 10
2057.838
 20
-4600.193
 30
1583.122
 70
    32
  0
VERTEX
  8
T36SSILL
 62
2
 10
2057.485
 20
-4586.390
 30
1583.131
 70
    32
  0
VERTEX
  8
T36SSILL
 62
2
 10
2026.987
 20
-4608.256
 30
1583.122
 70
    32
  0
VERTEX
  8
T36SSILL
 62
2
 10
2023.941
 20
-4612.245
 30
1583.120
 70
    32
  0
VERTEX
  8
T36SSILL
 62
2
 10
2022.576
 20
-4621.045
 30
1583.114
 70
    32
  0
SEQEND
  8
T36SSILL
  0
POLYLINE
  8
T36SSILL
 62
2
 66
     1
 70
     9
  0
VERTEX
  8
T36SSILL
 62
2
 10
2152.511
 20
-4603.866
 30
1583.106
 70
    32
  0
VERTEX
  8
T36SSILL
 62
2
 10
2151.261
 20
-4613.686
 30
1583.101
 70
    32
  0
VERTEX
  8
T36SSILL
 62
2
 10
2173.717
 20
-4613.924
 30
1583.097
 70
    32
  0
VERTEX
  8
T36SSILL
 62
2
 10
2173.316
 20
-4569.461
 30
1583.124
 70
    32
  0
VERTEX
  8
T36SSILL
 62
2
 10
2126.251
 20
-4586.034
 30
1583.121
 70
    32
  0
VERTEX
  8
T36SSILL
 62
2
 10
2125.995
 20
-4602.520
 30
1583.111
 70
    32
  0
SEQEND
  8
T36SSILL
  0
POLYLINE
  8
T36SSILL
 62
2
 66
     1
 70
     9
  0
VERTEX
  8
T36SSILL
 62
2
 10
2174.181
 20
-4489.677
 30
1583.173
 70
    32
  0
VERTEX
  8
T36SSILL
 62
2
 10
2166.948
 20
-4478.471
 30
1583.181
 70
    32
  0
VERTEX
  8
T36SSILL
 62
2
 10
2156.949
 20
-4471.042
 30
1583.187
 70
    32
  0
VERTEX
  8
T36SSILL
 62
2
 10
2149.367
 20
-4468.081
 30
1583.190
 70
    32
  0
VERTEX
  8
T36SSILL
 62
2
 10
2143.249
 20
-4467.326
 30
1583.191
 70
    32
  0
VERTEX
  8
T36SSILL
 62
2
 10
2132.038
 20
-4468.026
 30
1583.192
 70
    32
  0
VERTEX
  8
T36SSILL
 62
2
 10
2097.104
 20
-4492.063
 30
1583.182
 70
    32
  0
VERTEX
  8
T36SSILL
 62
2
 10
2093.649
 20
-4499.578
 30
1583.178
 70
    32
  0
VERTEX
  8
T36SSILL
 62
2
 10
2093.564
 20
-4509.617
 30
1583.172
 70
    32
  0
VERTEX
  8
T36SSILL
 62
2
 10
2085.570
 20
-4509.742
 30
1583.173
 70
    32
  0
VERTEX
  8
T36SSILL
 62
2
 10
2085.993
 20
-4500.000
 30
1583.179
 70
    32
  0
VERTEX
  8
T36SSILL
 62
2
 10
2032.433
 20
-4538.380
 30
1583.163
 70
    32
  0
VERTEX
  8
T36SSILL
 62
2
 10
2036.290
 20
-4544.298
 30
1583.159
 70
    32
  0
VERTEX
  8
T36SSILL
 62
2
 10
2029.619
 20
-4548.620
 30
1583.158
 70
    32
  0
VERTEX
  8
T36SSILL
 62
2
 10
2026.013
 20
-4543.176
 30
1583.161
 70
    32
  0
VERTEX
  8
T36SSILL
 62
2
 10
1986.465
 20
-4571.181
 30
1583.150
 70
    32
  0
VERTEX
  8
T36SSILL
 62
2
 10
2016.124
 20
-4612.457
 30
1583.120
 70
    32
  0
VERTEX
  8
T36SSILL
 62
2
 10
2021.685
 20
-4604.218
 30
1583.125
 70
    32
  0
VERTEX
  8
T36SSILL
 62
2
 10
2057.735
 20
-4578.458
 30
1583.135
 70
    32
  0
VERTEX
  8
T36SSILL
 62
2
 10
2058.703
 20
-4547.671
 30
1583.154
 70
    32
  0
VERTEX
  8
T36SSILL
 62
2
 10
2174.290
 20
-4509.541
 30
1583.161
 70
    32
  0
VERTEX
  8
T36SSILL
 62
2
 10
2175.644
 20
-4495.651
 30
1583.169
 70
    32
  0
SEQEND
  8
T36SSILL
  0
TEXT
  8
T36SSILL
 62
2
 10
2178.889
 20
-3798.056
 30
1584.810
 40
0.200
  1
3650
 41
 1.0 
  0
POLYLINE
  8
T36SSILL
 62
2
 66
     1
 70
     9
  0
VERTEX
  8
T36SSILL
 62
2
 10
2002.167
 20
-4696.909
 30
1583.071
 70
    32
  0
VERTEX
  8
T36SSILL
 62
2
 10
1986.496
 20
-4680.489
 30
1583.083
 70
    32
  0
VERTEX
  8
T36SSILL
 62
2
 10
1978.357
 20
-4678.322
 30
1583.086
 70
    32
  0
VERTEX
  8
T36SSILL
 62
2
 10
1971.737
 20
-4669.858
 30
1583.092
 70
    32
  0
VERTEX
  8
T36SSILL
 62
2
 10
1968.972
 20
-4669.422
 30
1583.092
 70
    32
  0
VERTEX
  8
T36SSILL
 62
2
 10
1943.014
 20
-4673.194
 30
1583.094
 70
    32
  0
VERTEX
  8
T36SSILL
 62
2
 10
1932.803
 20
-4678.993
 30
1583.092
 70
    32
  0
VERTEX
  8
T36SSILL
 62
2
 10
1873.578
 20
-4720.418
 30
1582.879
 70
    32
  0
VERTEX
  8
T36SSILL
 62
2
 10
1870.696
 20
-4725.882
 30
1583.000
 70
    32
  0
VERTEX
  8
T36SSILL
 62
2
 10
1873.420
 20
-4734.025
 30
1584.000
 70
    32
  0
VERTEX
  8
T36SSILL
 62
2
 10
1896.572
 20
-4739.530
 30
1586.000
 70
    32
  0
VERTEX
  8
T36SSILL
 62
2
 10
1889.339
 20
-4748.376
 30
1586.000
 70
    32
  0
VERTEX
  8
T36SSILL
 62
2
 10
1880.560
 20
-4745.591
 30
1585.000
 70
    32
  0
VERTEX
  8
T36SSILL
 62
2
 10
1875.644
 20
-4744.595
 30
1585.000
 70
    32
  0
VERTEX
  8
T36SSILL
 62
2
 10
1856.608
 20
-4741.323
 30
1585.000
 70
    32
  0
VERTEX
  8
T36SSILL
 62
2
 10
1852.476
 20
-4741.582
 30
1585.000
 70
    32
  0
VERTEX
  8
T36SSILL
 62
2
 10
1840.417
 20
-4743.651
 30
1583.760
 70
    32
  0
VERTEX
  8
T36SSILL
 62
2
 10
1830.455
 20
-4750.544
 30
1582.724
 70
    32
  0
VERTEX
  8
T36SSILL
 62
2
 10
1830.135
 20
-4753.024
 30
1582.706
 70
    32
  0
VERTEX
  8
T36SSILL
 62
2
 10
1830.547
 20
-4757.375
 30
1582.678
 70
    32
  0
VERTEX
  8
T36SSILL
 62
2
 10
1844.142
 20
-4778.790
 30
1582.597
 70
    32
  0
VERTEX
  8
T36SSILL
 62
2
 10
1899.623
 20
-4788.184
 30
1582.799
 70
    32
  0
VERTEX
  8
T36SSILL
 62
2
 10
1884.355
 20
-4750.110
 30
1582.986
 70
    32
  0
VERTEX
  8
T36SSILL
 62
2
 10
1884.258
 20
-4743.732
 30
1583.029
 70
    32
  0
VERTEX
  8
T36SSILL
 62
2
 10
1919.346
 20
-4733.207
 30
1583.061
 70
    32
  0
VERTEX
  8
T36SSILL
 62
2
 10
1917.035
 20
-4737.240
 30
1583.058
 70
    32
  0
VERTEX
  8
T36SSILL
 62
2
 10
1918.173
 20
-4740.647
 30
1583.056
 70
    32
  0
VERTEX
  8
T36SSILL
 62
2
 10
1915.167
 20
-4745.827
 30
1583.053
 70
    32
  0
VERTEX
  8
T36SSILL
 62
2
 10
1916.672
 20
-4748.538
 30
1583.052
 70
    32
  0
VERTEX
  8
T36SSILL
 62
2
 10
1914.259
 20
-4752.428
 30
1583.050
 70
    32
  0
VERTEX
  8
T36SSILL
 62
2
 10
1907.753
 20
-4757.405
 30
1583.047
 70
    32
  0
VERTEX
  8
T36SSILL
 62
2
 10
1904.020
 20
-4763.537
 30
1582.988
 70
    32
  0
VERTEX
  8
T36SSILL
 62
2
 10
1903.469
 20
-4766.853
 30
1582.963
 70
    32
  0
VERTEX
  8
T36SSILL
 62
2
 10
1915.100
 20
-4790.805
 30
1582.856
 70
    32
  0
VERTEX
  8
T36SSILL
 62
2
 10
1991.713
 20
-4803.778
 30
1583.015
 70
    32
  0
VERTEX
  8
T36SSILL
 62
2
 10
1975.324
 20
-4780.041
 30
1583.024
 70
    32
  0
VERTEX
  8
T36SSILL
 62
2
 10
1985.954
 20
-4774.656
 30
1583.026
 70
    32
  0
VERTEX
  8
T36SSILL
 62
2
 10
1991.098
 20
-4781.346
 30
1583.021
 70
    32
  0
VERTEX
  8
T36SSILL
 62
2
 10
1998.925
 20
-4784.695
 30
1583.018
 70
    32
  0
VERTEX
  8
T36SSILL
 62
2
 10
2003.242
 20
-4781.368
 30
1583.019
 70
    32
  0
VERTEX
  8
T36SSILL
 62
2
 10
2006.922
 20
-4774.733
 30
1583.023
 70
    32
  0
VERTEX
  8
T36SSILL
 62
2
 10
2016.406
 20
-4775.753
 30
1583.021
 70
    32
  0
VERTEX
  8
T36SSILL
 62
2
 10
2014.510
 20
-4799.864
 30
1583.016
 70
    32
  0
VERTEX
  8
T36SSILL
 62
2
 10
2020.091
 20
-4808.584
 30
1583.030
 70
    32
  0
VERTEX
  8
T36SSILL
 62
2
 10
2071.348
 20
-4817.263
 30
1583.058
 70
    32
  0
VERTEX
  8
T36SSILL
 62
2
 10
2081.073
 20
-4809.832
 30
1583.050
 70
    32
  0
VERTEX
  8
T36SSILL
 62
2
 10
2077.030
 20
-4804.832
 30
1583.041
 70
    32
  0
VERTEX
  8
T36SSILL
 62
2
 10
2083.697
 20
-4800.070
 30
1583.036
 70
    32
  0
VERTEX
  8
T36SSILL
 62
2
 10
2087.530
 20
-4805.230
 30
1583.045
 70
    32
  0
VERTEX
  8
T36SSILL
 62
2
 10
2106.806
 20
-4791.414
 30
1583.029
 70
    32
  0
VERTEX
  8
T36SSILL
 62
2
 10
2084.641
 20
-4782.786
 30
1583.010
 70
    32
  0
VERTEX
  8
T36SSILL
 62
2
 10
2077.628
 20
-4776.842
 30
1583.011
 70
    32
  0
VERTEX
  8
T36SSILL
 62
2
 10
2077.605
 20
-4775.574
 30
1583.012
 70
    32
  0
VERTEX
  8
T36SSILL
 62
2
 10
2063.003
 20
-4760.232
 30
1583.024
 70
    32
  0
VERTEX
  8
T36SSILL
 62
2
 10
2059.934
 20
-4761.825
 30
1583.023
 70
    32
  0
VERTEX
  8
T36SSILL
 62
2
 10
2057.118
 20
-4759.926
 30
1583.025
 70
    32
  0
VERTEX
  8
T36SSILL
 62
2
 10
2052.414
 20
-4754.841
 30
1583.028
 70
    32
  0
VERTEX
  8
T36SSILL
 62
2
 10
2050.850
 20
-4748.113
 30
1583.033
 70
    32
  0
VERTEX
  8
T36SSILL
 62
2
 10
2014.347
 20
-4709.222
 30
1583.062
 70
    32
  0
VERTEX
  8
T36SSILL
 62
2
 10
2008.256
 20
-4708.310
 30
1583.063
 70
    32
  0
VERTEX
  8
T36SSILL
 62
2
 10
2001.734
 20
-4703.845
 30
1583.067
 70
    32
  0
VERTEX
  8
T36SSILL
 62
2
 10
2002.164
 20
-4699.373
 30
1583.069
 70
    32
  0
SEQEND
  8
T36SSILL
  0
ENDSEC
  0
EOF
