999
********************************
999
*   DXF File - Entities Only   *
999
*        3D Data Format        *
999
*     Output from ENVISAGE     *
999
*     20-Dec-2007 15:27:53     *
999
********************************
  0
SECTION 
  2
HEADER
  9
$ACADVER
  1
AC1009
  9
$EXTMIN
 10
-290000.000
 20
-250000.000
 30
-4000.000
  9
$EXTMAX
 10
5000000.000
 20
600000.000
 30
6000.000
  0
ENDSEC
  0
SECTION
  2
ENTITIES
  0
POLYLINE
  8
T38SSILL
 62
3
 66
     1
 70
     9
  0
VERTEX
  8
T38SSILL
 62
3
 10
2211.633
 20
-5307.682
 30
1435.259
 70
    32
  0
VERTEX
  8
T38SSILL
 62
3
 10
2218.482
 20
-5316.353
 30
1435.297
 70
    32
  0
VERTEX
  8
T38SSILL
 62
3
 10
2222.639
 20
-5313.369
 30
1435.268
 70
    32
  0
VERTEX
  8
T38SSILL
 62
3
 10
2216.673
 20
-5304.525
 30
1435.227
 70
    32
  0
SEQEND
  8
T38SSILL
  0
POLYLINE
  8
T38SSILL
 62
3
 66
     1
 70
     9
  0
VERTEX
  8
T38SSILL
 62
3
 10
2174.388
 20
-4614.697
 30
1432.184
 70
    32
  0
VERTEX
  8
T38SSILL
 62
3
 10
2148.845
 20
-4614.863
 30
1432.527
 70
    32
  0
VERTEX
  8
T38SSILL
 62
3
 10
2148.235
 20
-4606.049
 30
1432.634
 70
    32
  0
VERTEX
  8
T38SSILL
 62
3
 10
2126.745
 20
-4606.083
 30
1432.924
 70
    32
  0
VERTEX
  8
T38SSILL
 62
3
 10
2126.726
 20
-4583.183
 30
1433.181
 70
    32
  0
VERTEX
  8
T38SSILL
 62
3
 10
2174.931
 20
-4564.237
 30
1432.743
 70
    32
  0
SEQEND
  8
T38SSILL
  0
POLYLINE
  8
T38SSILL
 62
3
 66
     1
 70
     9
  0
VERTEX
  8
T38SSILL
 62
3
 10
3654.952
 20
-5205.657
 30
1433.703
 70
    32
  0
VERTEX
  8
T38SSILL
 62
3
 10
3646.596
 20
-5214.745
 30
1433.673
 70
    32
  0
VERTEX
  8
T38SSILL
 62
3
 10
3641.674
 20
-5222.242
 30
1433.652
 70
    32
  0
VERTEX
  8
T38SSILL
 62
3
 10
3637.206
 20
-5238.197
 30
1433.618
 70
    32
  0
VERTEX
  8
T38SSILL
 62
3
 10
3636.522
 20
-5251.149
 30
1433.596
 70
    32
  0
VERTEX
  8
T38SSILL
 62
3
 10
3610.209
 20
-5215.332
 30
1433.602
 70
    32
  0
VERTEX
  8
T38SSILL
 62
3
 10
3598.302
 20
-5207.245
 30
1433.592
 70
    32
  0
SEQEND
  8
T38SSILL
  0
POLYLINE
  8
T38SSILL
 62
3
 66
     1
 70
     9
  0
VERTEX
  8
T38SSILL
 62
3
 10
3861.240
 20
-5244.844
 30
1434.484
 70
    32
  0
VERTEX
  8
T38SSILL
 62
3
 10
3856.567
 20
-5239.103
 30
1434.520
 70
    32
  0
VERTEX
  8
T38SSILL
 62
3
 10
3824.388
 20
-5226.662
 30
1434.759
 70
    32
  0
VERTEX
  8
T38SSILL
 62
3
 10
3818.204
 20
-5225.614
 30
1434.805
 70
    32
  0
VERTEX
  8
T38SSILL
 62
3
 10
3812.920
 20
-5225.786
 30
1434.844
 70
    32
  0
VERTEX
  8
T38SSILL
 62
3
 10
3799.595
 20
-5235.601
 30
1434.786
 70
    32
  0
VERTEX
  8
T38SSILL
 62
3
 10
3802.344
 20
-5264.456
 30
1434.864
 70
    32
  0
VERTEX
  8
T38SSILL
 62
3
 10
3806.179
 20
-5278.492
 30
1434.878
 70
    32
  0
VERTEX
  8
T38SSILL
 62
3
 10
3809.688
 20
-5283.106
 30
1434.851
 70
    32
  0
SEQEND
  8
T38SSILL
  0
POLYLINE
  8
T38SSILL
 62
3
 66
     1
 70
     9
  0
VERTEX
  8
T38SSILL
 62
3
 10
2673.410
 20
-5551.178
 30
1435.670
 70
    32
  0
VERTEX
  8
T38SSILL
 62
3
 10
2667.997
 20
-5566.023
 30
1435.707
 70
    32
  0
VERTEX
  8
T38SSILL
 62
3
 10
2660.430
 20
-5575.034
 30
1435.733
 70
    32
  0
VERTEX
  8
T38SSILL
 62
3
 10
2651.568
 20
-5580.950
 30
1435.754
 70
    32
  0
VERTEX
  8
T38SSILL
 62
3
 10
2657.566
 20
-5590.606
 30
1435.769
 70
    32
  0
VERTEX
  8
T38SSILL
 62
3
 10
2657.093
 20
-5594.391
 30
1435.777
 70
    32
  0
VERTEX
  8
T38SSILL
 62
3
 10
2660.121
 20
-5600.849
 30
1435.789
 70
    32
  0
VERTEX
  8
T38SSILL
 62
3
 10
2659.841
 20
-5602.785
 30
1435.793
 70
    32
  0
VERTEX
  8
T38SSILL
 62
3
 10
2649.469
 20
-5610.010
 30
1435.818
 70
    32
  0
VERTEX
  8
T38SSILL
 62
3
 10
2629.322
 20
-5627.108
 30
1435.873
 70
    32
  0
VERTEX
  8
T38SSILL
 62
3
 10
2667.569
 20
-5605.759
 30
1435.792
 70
    32
  0
VERTEX
  8
T38SSILL
 62
3
 10
2698.953
 20
-5655.547
 30
1435.871
 70
    32
  0
VERTEX
  8
T38SSILL
 62
3
 10
2716.690
 20
-5642.129
 30
1435.826
 70
    32
  0
VERTEX
  8
T38SSILL
 62
3
 10
2719.896
 20
-5638.103
 30
1435.814
 70
    32
  0
VERTEX
  8
T38SSILL
 62
3
 10
2723.940
 20
-5628.886
 30
1435.791
 70
    32
  0
VERTEX
  8
T38SSILL
 62
3
 10
2724.317
 20
-5615.760
 30
1435.762
 70
    32
  0
SEQEND
  8
T38SSILL
  0
POLYLINE
  8
T38SSILL
 62
3
 66
     1
 70
     9
  0
VERTEX
  8
T38SSILL
 62
3
 10
2173.540
 20
-4685.500
 30
1432.191
 70
    32
  0
VERTEX
  8
T38SSILL
 62
3
 10
2157.240
 20
-4686.030
 30
1432.216
 70
    32
  0
VERTEX
  8
T38SSILL
 62
3
 10
2132.397
 20
-4776.744
 30
1432.307
 70
    32
  0
VERTEX
  8
T38SSILL
 62
3
 10
2174.914
 20
-4746.111
 30
1432.334
 70
    32
  0
VERTEX
  8
T38SSILL
 62
3
 10
2174.965
 20
-4741.355
 30
1432.331
 70
    32
  0
VERTEX
  8
T38SSILL
 62
3
 10
2173.566
 20
-4740.459
 30
1432.333
 70
    32
  0
VERTEX
  8
T38SSILL
 62
3
 10
2173.558
 20
-4723.684
 30
1432.310
 70
    32
  0
SEQEND
  8
T38SSILL
  0
POLYLINE
  8
T38SSILL
 62
3
 66
     1
 70
     9
  0
VERTEX
  8
T38SSILL
 62
3
 10
1924.742
 20
-4938.332
 30
1437.078
 70
    32
  0
VERTEX
  8
T38SSILL
 62
3
 10
1929.557
 20
-4949.305
 30
1437.012
 70
    32
  0
VERTEX
  8
T38SSILL
 62
3
 10
1932.080
 20
-4952.150
 30
1436.971
 70
    32
  0
VERTEX
  8
T38SSILL
 62
3
 10
1933.972
 20
-4964.589
 30
1436.975
 70
    32
  0
VERTEX
  8
T38SSILL
 62
3
 10
1937.998
 20
-4975.201
 30
1436.936
 70
    32
  0
VERTEX
  8
T38SSILL
 62
3
 10
1946.031
 20
-4981.717
 30
1436.802
 70
    32
  0
VERTEX
  8
T38SSILL
 62
3
 10
1950.431
 20
-4982.029
 30
1436.717
 70
    32
  0
VERTEX
  8
T38SSILL
 62
3
 10
1954.600
 20
-4979.255
 30
1436.624
 70
    32
  0
VERTEX
  8
T38SSILL
 62
3
 10
1946.731
 20
-4965.695
 30
1436.728
 70
    32
  0
VERTEX
  8
T38SSILL
 62
3
 10
1945.640
 20
-4960.663
 30
1436.733
 70
    32
  0
VERTEX
  8
T38SSILL
 62
3
 10
1942.444
 20
-4954.816
 30
1436.780
 70
    32
  0
VERTEX
  8
T38SSILL
 62
3
 10
1940.688
 20
-4954.357
 30
1436.813
 70
    32
  0
VERTEX
  8
T38SSILL
 62
3
 10
1938.084
 20
-4950.806
 30
1436.854
 70
    32
  0
VERTEX
  8
T38SSILL
 62
3
 10
1929.778
 20
-4936.889
 30
1436.979
 70
    32
  0
SEQEND
  8
T38SSILL
  0
POLYLINE
  8
T38SSILL
 62
3
 66
     1
 70
     9
  0
VERTEX
  8
T38SSILL
 62
3
 10
4895.487
 20
-6131.012
 30
1436.820
 70
    32
  0
VERTEX
  8
T38SSILL
 62
3
 10
4893.674
 20
-6141.981
 30
1436.816
 70
    32
  0
VERTEX
  8
T38SSILL
 62
3
 10
4889.762
 20
-6149.289
 30
1436.808
 70
    32
  0
VERTEX
  8
T38SSILL
 62
3
 10
4838.580
 20
-6187.593
 30
1436.762
 70
    32
  0
VERTEX
  8
T38SSILL
 62
3
 10
4837.941
 20
-6190.957
 30
1436.765
 70
    32
  0
VERTEX
  8
T38SSILL
 62
3
 10
4840.682
 20
-6195.841
 30
1436.770
 70
    32
  0
VERTEX
  8
T38SSILL
 62
3
 10
4870.977
 20
-6234.307
 30
1436.805
 70
    32
  0
VERTEX
  8
T38SSILL
 62
3
 10
4880.831
 20
-6251.131
 30
1436.821
 70
    32
  0
VERTEX
  8
T38SSILL
 62
3
 10
4882.715
 20
-6252.769
 30
1436.822
 70
    32
  0
VERTEX
  8
T38SSILL
 62
3
 10
4889.598
 20
-6253.075
 30
1436.822
 70
    32
  0
VERTEX
  8
T38SSILL
 62
3
 10
4896.626
 20
-6265.193
 30
1436.834
 70
    32
  0
VERTEX
  8
T38SSILL
 62
3
 10
4898.315
 20
-6270.362
 30
1436.839
 70
    32
  0
VERTEX
  8
T38SSILL
 62
3
 10
4910.230
 20
-6279.915
 30
1436.850
 70
    32
  0
VERTEX
  8
T38SSILL
 62
3
 10
4915.661
 20
-6291.536
 30
1436.861
 70
    32
  0
VERTEX
  8
T38SSILL
 62
3
 10
4920.753
 20
-6299.371
 30
1436.871
 70
    32
  0
VERTEX
  8
T38SSILL
 62
3
 10
4933.363
 20
-6312.879
 30
1436.898
 70
    32
  0
VERTEX
  8
T38SSILL
 62
3
 10
4960.929
 20
-6320.185
 30
1436.955
 70
    32
  0
VERTEX
  8
T38SSILL
 62
3
 10
4962.146
 20
-6319.279
 30
1436.958
 70
    32
  0
VERTEX
  8
T38SSILL
 62
3
 10
4968.524
 20
-6320.741
 30
1436.971
 70
    32
  0
VERTEX
  8
T38SSILL
 62
3
 10
4980.368
 20
-6326.680
 30
1436.976
 70
    32
  0
VERTEX
  8
T38SSILL
 62
3
 10
5001.851
 20
-6311.620
 30
1436.976
 70
    32
  0
VERTEX
  8
T38SSILL
 62
3
 10
5005.421
 20
-6304.849
 30
1436.975
 70
    32
  0
VERTEX
  8
T38SSILL
 62
3
 10
5007.123
 20
-6297.232
 30
1436.973
 70
    32
  0
VERTEX
  8
T38SSILL
 62
3
 10
5007.041
 20
-6288.593
 30
1436.971
 70
    32
  0
VERTEX
  8
T38SSILL
 62
3
 10
5005.453
 20
-6284.039
 30
1436.970
 70
    32
  0
VERTEX
  8
T38SSILL
 62
3
 10
4954.046
 20
-6212.502
 30
1436.942
 70
    32
  0
SEQEND
  8
T38SSILL
  0
POLYLINE
  8
T38SSILL
 62
3
 66
     1
 70
     9
  0
VERTEX
  8
T38SSILL
 62
3
 10
3129.995
 20
-6132.233
 30
1436.542
 70
    32
  0
VERTEX
  8
T38SSILL
 62
3
 10
3171.300
 20
-6136.975
 30
1436.507
 70
    32
  0
VERTEX
  8
T38SSILL
 62
3
 10
3179.205
 20
-6142.500
 30
1436.513
 70
    32
  0
VERTEX
  8
T38SSILL
 62
3
 10
3196.749
 20
-6159.238
 30
1436.538
 70
    32
  0
VERTEX
  8
T38SSILL
 62
3
 10
3207.647
 20
-6164.598
 30
1436.541
 70
    32
  0
VERTEX
  8
T38SSILL
 62
3
 10
3216.854
 20
-6172.735
 30
1436.552
 70
    32
  0
VERTEX
  8
T38SSILL
 62
3
 10
3232.961
 20
-6191.803
 30
1436.586
 70
    32
  0
VERTEX
  8
T38SSILL
 62
3
 10
3234.574
 20
-6196.170
 30
1436.596
 70
    32
  0
VERTEX
  8
T38SSILL
 62
3
 10
3235.003
 20
-6205.859
 30
1436.622
 70
    32
  0
VERTEX
  8
T38SSILL
 62
3
 10
3222.261
 20
-6214.304
 30
1436.660
 70
    32
  0
VERTEX
  8
T38SSILL
 62
3
 10
3209.132
 20
-6218.086
 30
1436.685
 70
    32
  0
VERTEX
  8
T38SSILL
 62
3
 10
3195.823
 20
-6214.994
 30
1436.692
 70
    32
  0
VERTEX
  8
T38SSILL
 62
3
 10
3191.958
 20
-6212.185
 30
1436.689
 70
    32
  0
SEQEND
  8
T38SSILL
  0
POLYLINE
  8
T38SSILL
 62
3
 66
     1
 70
     9
  0
VERTEX
  8
T38SSILL
 62
3
 10
3391.894
 20
-6466.490
 30
1437.091
 70
    32
  0
VERTEX
  8
T38SSILL
 62
3
 10
3389.832
 20
-6468.572
 30
1437.092
 70
    32
  0
VERTEX
  8
T38SSILL
 62
3
 10
3412.031
 20
-6498.063
 30
1437.128
 70
    32
  0
VERTEX
  8
T38SSILL
 62
3
 10
3431.992
 20
-6502.657
 30
1437.135
 70
    32
  0
VERTEX
  8
T38SSILL
 62
3
 10
3423.142
 20
-6484.546
 30
1437.113
 70
    32
  0
VERTEX
  8
T38SSILL
 62
3
 10
3421.158
 20
-6476.132
 30
1437.102
 70
    32
  0
VERTEX
  8
T38SSILL
 62
3
 10
3411.694
 20
-6464.915
 30
1437.089
 70
    32
  0
VERTEX
  8
T38SSILL
 62
3
 10
3405.017
 20
-6448.952
 30
1437.069
 70
    32
  0
VERTEX
  8
T38SSILL
 62
3
 10
3402.580
 20
-6446.811
 30
1437.066
 70
    32
  0
VERTEX
  8
T38SSILL
 62
3
 10
3396.253
 20
-6451.033
 30
1437.073
 70
    32
  0
VERTEX
  8
T38SSILL
 62
3
 10
3386.777
 20
-6449.516
 30
1437.073
 70
    32
  0
VERTEX
  8
T38SSILL
 62
3
 10
3385.496
 20
-6454.488
 30
1437.077
 70
    32
  0
VERTEX
  8
T38SSILL
 62
3
 10
3382.794
 20
-6455.705
 30
1437.077
 70
    32
  0
VERTEX
  8
T38SSILL
 62
3
 10
3379.467
 20
-6453.234
 30
1437.074
 70
    32
  0
VERTEX
  8
T38SSILL
 62
3
 10
3379.422
 20
-6448.121
 30
1437.069
 70
    32
  0
VERTEX
  8
T38SSILL
 62
3
 10
3372.245
 20
-6446.809
 30
1437.065
 70
    32
  0
VERTEX
  8
T38SSILL
 62
3
 10
3384.307
 20
-6462.985
 30
1437.084
 70
    32
  0
VERTEX
  8
T38SSILL
 62
3
 10
3387.072
 20
-6460.796
 30
1437.084
 70
    32
  0
SEQEND
  8
T38SSILL
  0
POLYLINE
  8
T38SSILL
 62
3
 66
     1
 70
     9
  0
VERTEX
  8
T38SSILL
 62
3
 10
3365.123
 20
-6437.471
 30
1437.053
 70
    32
  0
VERTEX
  8
T38SSILL
 62
3
 10
3395.408
 20
-6442.324
 30
1437.062
 70
    32
  0
VERTEX
  8
T38SSILL
 62
3
 10
3398.368
 20
-6440.836
 30
1437.059
 70
    32
  0
VERTEX
  8
T38SSILL
 62
3
 10
3378.548
 20
-6404.493
 30
1437.014
 70
    32
  0
VERTEX
  8
T38SSILL
 62
3
 10
3369.040
 20
-6391.602
 30
1436.999
 70
    32
  0
VERTEX
  8
T38SSILL
 62
3
 10
3365.065
 20
-6381.212
 30
1436.986
 70
    32
  0
VERTEX
  8
T38SSILL
 62
3
 10
3358.288
 20
-6374.951
 30
1436.979
 70
    32
  0
VERTEX
  8
T38SSILL
 62
3
 10
3352.898
 20
-6364.422
 30
1436.966
 70
    32
  0
VERTEX
  8
T38SSILL
 62
3
 10
3334.653
 20
-6374.863
 30
1436.983
 70
    32
  0
VERTEX
  8
T38SSILL
 62
3
 10
3327.637
 20
-6376.369
 30
1436.982
 70
    32
  0
VERTEX
  8
T38SSILL
 62
3
 10
3317.923
 20
-6375.828
 30
1436.977
 70
    32
  0
SEQEND
  8
T38SSILL
  0
POLYLINE
  8
T38SSILL
 62
3
 66
     1
 70
     9
  0
VERTEX
  8
T38SSILL
 62
3
 10
3449.290
 20
-6400.530
 30
1436.995
 70
    32
  0
VERTEX
  8
T38SSILL
 62
3
 10
3442.952
 20
-6402.283
 30
1436.999
 70
    32
  0
VERTEX
  8
T38SSILL
 62
3
 10
3434.444
 20
-6390.512
 30
1436.985
 70
    32
  0
VERTEX
  8
T38SSILL
 62
3
 10
3431.800
 20
-6390.581
 30
1436.985
 70
    32
  0
VERTEX
  8
T38SSILL
 62
3
 10
3414.479
 20
-6379.040
 30
1436.973
 70
    32
  0
VERTEX
  8
T38SSILL
 62
3
 10
3411.292
 20
-6375.155
 30
1436.969
 70
    32
  0
VERTEX
  8
T38SSILL
 62
3
 10
3413.975
 20
-6373.233
 30
1436.966
 70
    32
  0
VERTEX
  8
T38SSILL
 62
3
 10
3401.823
 20
-6363.762
 30
1436.955
 70
    32
  0
VERTEX
  8
T38SSILL
 62
3
 10
3399.657
 20
-6351.737
 30
1436.940
 70
    32
  0
VERTEX
  8
T38SSILL
 62
3
 10
3405.087
 20
-6336.781
 30
1436.919
 70
    32
  0
VERTEX
  8
T38SSILL
 62
3
 10
3400.599
 20
-6330.372
 30
1436.911
 70
    32
  0
VERTEX
  8
T38SSILL
 62
3
 10
3369.837
 20
-6351.193
 30
1436.945
 70
    32
  0
VERTEX
  8
T38SSILL
 62
3
 10
3373.356
 20
-6367.768
 30
1436.966
 70
    32
  0
VERTEX
  8
T38SSILL
 62
3
 10
3376.168
 20
-6374.132
 30
1436.974
 70
    32
  0
VERTEX
  8
T38SSILL
 62
3
 10
3390.991
 20
-6398.083
 30
1437.003
 70
    32
  0
VERTEX
  8
T38SSILL
 62
3
 10
3416.000
 20
-6427.149
 30
1437.037
 70
    32
  0
VERTEX
  8
T38SSILL
 62
3
 10
3450.569
 20
-6402.249
 30
1436.997
 70
    32
  0
SEQEND
  8
T38SSILL
  0
POLYLINE
  8
T38SSILL
 62
3
 66
     1
 70
     9
  0
VERTEX
  8
T38SSILL
 62
3
 10
3820.632
 20
-5372.188
 30
1434.282
 70
    32
  0
VERTEX
  8
T38SSILL
 62
3
 10
3817.072
 20
-5384.470
 30
1434.190
 70
    32
  0
VERTEX
  8
T38SSILL
 62
3
 10
3821.343
 20
-5392.038
 30
1434.156
 70
    32
  0
VERTEX
  8
T38SSILL
 62
3
 10
3825.588
 20
-5394.136
 30
1434.167
 70
    32
  0
VERTEX
  8
T38SSILL
 62
3
 10
3832.111
 20
-5392.694
 30
1434.191
 70
    32
  0
VERTEX
  8
T38SSILL
 62
3
 10
3825.496
 20
-5374.459
 30
1434.263
 70
    32
  0
SEQEND
  8
T38SSILL
  0
POLYLINE
  8
T38SSILL
 62
3
 66
     1
 70
     9
  0
VERTEX
  8
T38SSILL
 62
3
 10
2824.869
 20
-5797.611
 30
1435.859
 70
    32
  0
VERTEX
  8
T38SSILL
 62
3
 10
2822.587
 20
-5794.036
 30
1435.861
 70
    32
  0
VERTEX
  8
T38SSILL
 62
3
 10
2817.140
 20
-5797.966
 30
1435.865
 70
    32
  0
VERTEX
  8
T38SSILL
 62
3
 10
2819.545
 20
-5801.504
 30
1435.840
 70
    32
  0
VERTEX
  8
T38SSILL
 62
3
 10
2801.416
 20
-5814.759
 30
1435.854
 70
    32
  0
VERTEX
  8
T38SSILL
 62
3
 10
2774.088
 20
-5820.090
 30
1435.941
 70
    32
  0
VERTEX
  8
T38SSILL
 62
3
 10
2767.268
 20
-5805.366
 30
1436.034
 70
    32
  0
VERTEX
  8
T38SSILL
 62
3
 10
2753.185
 20
-5799.560
 30
1436.117
 70
    32
  0
VERTEX
  8
T38SSILL
 62
3
 10
2747.119
 20
-5790.107
 30
1436.115
 70
    32
  0
VERTEX
  8
T38SSILL
 62
3
 10
2741.078
 20
-5793.815
 30
1436.129
 70
    32
  0
VERTEX
  8
T38SSILL
 62
3
 10
2732.533
 20
-5783.977
 30
1436.115
 70
    32
  0
VERTEX
  8
T38SSILL
 62
3
 10
2731.711
 20
-5781.077
 30
1436.110
 70
    32
  0
VERTEX
  8
T38SSILL
 62
3
 10
2733.692
 20
-5776.385
 30
1436.098
 70
    32
  0
VERTEX
  8
T38SSILL
 62
3
 10
2733.733
 20
-5771.713
 30
1436.088
 70
    32
  0
VERTEX
  8
T38SSILL
 62
3
 10
2741.198
 20
-5751.278
 30
1436.037
 70
    32
  0
VERTEX
  8
T38SSILL
 62
3
 10
2784.406
 20
-5717.529
 30
1435.926
 70
    32
  0
VERTEX
  8
T38SSILL
 62
3
 10
2789.242
 20
-5707.520
 30
1435.900
 70
    32
  0
VERTEX
  8
T38SSILL
 62
3
 10
2790.591
 20
-5701.337
 30
1435.886
 70
    32
  0
VERTEX
  8
T38SSILL
 62
3
 10
2820.059
 20
-5739.562
 30
1435.941
 70
    32
  0
VERTEX
  8
T38SSILL
 62
3
 10
2840.573
 20
-5763.686
 30
1435.954
 70
    32
  0
VERTEX
  8
T38SSILL
 62
3
 10
2841.447
 20
-5771.786
 30
1435.944
 70
    32
  0
VERTEX
  8
T38SSILL
 62
3
 10
2840.122
 20
-5780.350
 30
1435.927
 70
    32
  0
VERTEX
  8
T38SSILL
 62
3
 10
2836.235
 20
-5788.409
 30
1435.905
 70
    32
  0
VERTEX
  8
T38SSILL
 62
3
 10
2830.381
 20
-5793.580
 30
1435.881
 70
    32
  0
SEQEND
  8
T38SSILL
  0
POLYLINE
  8
T38SSILL
 62
3
 66
     1
 70
     9
  0
VERTEX
  8
T38SSILL
 62
3
 10
2045.290
 20
-4969.633
 30
1434.864
 70
    32
  0
VERTEX
  8
T38SSILL
 62
3
 10
2051.254
 20
-4959.508
 30
1434.727
 70
    32
  0
VERTEX
  8
T38SSILL
 62
3
 10
2174.897
 20
-4870.648
 30
1433.655
 70
    32
  0
VERTEX
  8
T38SSILL
 62
3
 10
2174.862
 20
-4898.479
 30
1433.785
 70
    32
  0
VERTEX
  8
T38SSILL
 62
3
 10
2205.528
 20
-4938.002
 30
1433.888
 70
    32
  0
VERTEX
  8
T38SSILL
 62
3
 10
2205.871
 20
-4947.077
 30
1433.909
 70
    32
  0
VERTEX
  8
T38SSILL
 62
3
 10
2204.584
 20
-4952.084
 30
1433.919
 70
    32
  0
VERTEX
  8
T38SSILL
 62
3
 10
2202.243
 20
-4956.815
 30
1433.929
 70
    32
  0
VERTEX
  8
T38SSILL
 62
3
 10
2196.634
 20
-4962.479
 30
1433.940
 70
    32
  0
VERTEX
  8
T38SSILL
 62
3
 10
2095.752
 20
-5035.789
 30
1434.061
 70
    32
  0
VERTEX
  8
T38SSILL
 62
3
 10
2032.413
 20
-5081.817
 30
1435.479
 70
    32
  0
VERTEX
  8
T38SSILL
 62
3
 10
2023.996
 20
-5070.101
 30
1435.600
 70
    32
  0
VERTEX
  8
T38SSILL
 62
3
 10
2019.616
 20
-5059.661
 30
1435.647
 70
    32
  0
VERTEX
  8
T38SSILL
 62
3
 10
2015.445
 20
-5054.420
 30
1435.709
 70
    32
  0
VERTEX
  8
T38SSILL
 62
3
 10
1990.561
 20
-5042.351
 30
1436.154
 70
    32
  0
VERTEX
  8
T38SSILL
 62
3
 10
1979.501
 20
-5030.694
 30
1436.328
 70
    32
  0
VERTEX
  8
T38SSILL
 62
3
 10
1980.313
 20
-5028.941
 30
1436.305
 70
    32
  0
VERTEX
  8
T38SSILL
 62
3
 10
1983.935
 20
-5027.923
 30
1436.230
 70
    32
  0
VERTEX
  8
T38SSILL
 62
3
 10
1987.310
 20
-5025.229
 30
1436.153
 70
    32
  0
VERTEX
  8
T38SSILL
 62
3
 10
1989.911
 20
-5020.941
 30
1436.086
 70
    32
  0
VERTEX
  8
T38SSILL
 62
3
 10
1990.699
 20
-5013.111
 30
1436.040
 70
    32
  0
VERTEX
  8
T38SSILL
 62
3
 10
1988.768
 20
-5004.371
 30
1436.045
 70
    32
  0
VERTEX
  8
T38SSILL
 62
3
 10
2029.330
 20
-4975.302
 30
1435.180
 70
    32
  0
VERTEX
  8
T38SSILL
 62
3
 10
2040.212
 20
-4975.607
 30
1434.974
 70
    32
  0
VERTEX
  8
T38SSILL
 62
3
 10
2043.828
 20
-4980.354
 30
1434.917
 70
    32
  0
VERTEX
  8
T38SSILL
 62
3
 10
2049.835
 20
-4976.015
 30
1434.792
 70
    32
  0
SEQEND
  8
T38SSILL
  0
POLYLINE
  8
T38SSILL
 62
3
 66
     1
 70
     9
  0
VERTEX
  8
T38SSILL
 62
3
 10
2060.081
 20
-4837.164
 30
1434.274
 70
    32
  0
VERTEX
  8
T38SSILL
 62
3
 10
2142.511
 20
-4778.086
 30
1432.362
 70
    32
  0
VERTEX
  8
T38SSILL
 62
3
 10
2140.897
 20
-4788.990
 30
1432.364
 70
    32
  0
VERTEX
  8
T38SSILL
 62
3
 10
2138.022
 20
-4794.243
 30
1432.598
 70
    32
  0
VERTEX
  8
T38SSILL
 62
3
 10
2136.916
 20
-4807.002
 30
1433.010
 70
    32
  0
VERTEX
  8
T38SSILL
 62
3
 10
2146.673
 20
-4808.781
 30
1432.915
 70
    32
  0
VERTEX
  8
T38SSILL
 62
3
 10
2150.241
 20
-4796.400
 30
1432.539
 70
    32
  0
VERTEX
  8
T38SSILL
 62
3
 10
2149.014
 20
-4787.668
 30
1432.378
 70
    32
  0
VERTEX
  8
T38SSILL
 62
3
 10
2151.568
 20
-4771.313
 30
1432.391
 70
    32
  0
VERTEX
  8
T38SSILL
 62
3
 10
2174.463
 20
-4755.266
 30
1432.338
 70
    32
  0
VERTEX
  8
T38SSILL
 62
3
 10
2174.551
 20
-4861.837
 30
1433.503
 70
    32
  0
VERTEX
  8
T38SSILL
 62
3
 10
2102.543
 20
-4913.751
 30
1433.749
 70
    32
  0
VERTEX
  8
T38SSILL
 62
3
 10
2099.082
 20
-4908.922
 30
1433.732
 70
    32
  0
VERTEX
  8
T38SSILL
 62
3
 10
2097.541
 20
-4910.032
 30
1433.734
 70
    32
  0
VERTEX
  8
T38SSILL
 62
3
 10
2093.684
 20
-4912.809
 30
1433.813
 70
    32
  0
VERTEX
  8
T38SSILL
 62
3
 10
2097.022
 20
-4917.731
 30
1433.761
 70
    32
  0
VERTEX
  8
T38SSILL
 62
3
 10
2058.636
 20
-4945.406
 30
1434.554
 70
    32
  0
VERTEX
  8
T38SSILL
 62
3
 10
2055.204
 20
-4940.649
 30
1434.608
 70
    32
  0
VERTEX
  8
T38SSILL
 62
3
 10
2049.716
 20
-4944.450
 30
1434.721
 70
    32
  0
VERTEX
  8
T38SSILL
 62
3
 10
2053.260
 20
-4949.282
 30
1434.665
 70
    32
  0
VERTEX
  8
T38SSILL
 62
3
 10
2009.095
 20
-4981.123
 30
1435.577
 70
    32
  0
VERTEX
  8
T38SSILL
 62
3
 10
2005.308
 20
-4976.099
 30
1435.637
 70
    32
  0
VERTEX
  8
T38SSILL
 62
3
 10
1999.911
 20
-4980.074
 30
1435.749
 70
    32
  0
VERTEX
  8
T38SSILL
 62
3
 10
2003.347
 20
-4985.267
 30
1435.696
 70
    32
  0
VERTEX
  8
T38SSILL
 62
3
 10
1984.245
 20
-4999.038
 30
1436.114
 70
    32
  0
VERTEX
  8
T38SSILL
 62
3
 10
1975.093
 20
-4981.941
 30
1436.230
 70
    32
  0
VERTEX
  8
T38SSILL
 62
3
 10
1971.434
 20
-4961.821
 30
1436.247
 70
    32
  0
VERTEX
  8
T38SSILL
 62
3
 10
1967.311
 20
-4952.088
 30
1436.302
 70
    32
  0
VERTEX
  8
T38SSILL
 62
3
 10
1962.079
 20
-4930.806
 30
1436.352
 70
    32
  0
VERTEX
  8
T38SSILL
 62
3
 10
1960.690
 20
-4928.942
 30
1436.374
 70
    32
  0
VERTEX
  8
T38SSILL
 62
3
 10
1960.025
 20
-4925.235
 30
1436.378
 70
    32
  0
VERTEX
  8
T38SSILL
 62
3
 10
1966.747
 20
-4922.577
 30
1436.244
 70
    32
  0
VERTEX
  8
T38SSILL
 62
3
 10
1967.500
 20
-4918.094
 30
1436.219
 70
    32
  0
VERTEX
  8
T38SSILL
 62
3
 10
1964.901
 20
-4905.823
 30
1436.240
 70
    32
  0
VERTEX
  8
T38SSILL
 62
3
 10
2011.418
 20
-4871.798
 30
1435.278
 70
    32
  0
VERTEX
  8
T38SSILL
 62
3
 10
2018.039
 20
-4870.372
 30
1435.149
 70
    32
  0
VERTEX
  8
T38SSILL
 62
3
 10
2028.417
 20
-4871.716
 30
1434.956
 70
    32
  0
VERTEX
  8
T38SSILL
 62
3
 10
2039.074
 20
-4863.552
 30
1434.734
 70
    32
  0
VERTEX
  8
T38SSILL
 62
3
 10
2042.747
 20
-4849.587
 30
1434.632
 70
    32
  0
VERTEX
  8
T38SSILL
 62
3
 10
2053.653
 20
-4841.771
 30
1434.407
 70
    32
  0
VERTEX
  8
T38SSILL
 62
3
 10
2057.776
 20
-4846.961
 30
1434.341
 70
    32
  0
VERTEX
  8
T38SSILL
 62
3
 10
2064.314
 20
-4842.701
 30
1434.207
 70
    32
  0
SEQEND
  8
T38SSILL
  0
POLYLINE
  8
T38SSILL
 62
3
 66
     1
 70
     9
  0
VERTEX
  8
T38SSILL
 62
3
 10
2228.156
 20
-5307.090
 30
1435.215
 70
    32
  0
VERTEX
  8
T38SSILL
 62
3
 10
2226.471
 20
-5327.603
 30
1435.347
 70
    32
  0
VERTEX
  8
T38SSILL
 62
3
 10
2243.387
 20
-5348.454
 30
1435.436
 70
    32
  0
VERTEX
  8
T38SSILL
 62
3
 10
2252.230
 20
-5365.360
 30
1435.519
 70
    32
  0
VERTEX
  8
T38SSILL
 62
3
 10
2256.338
 20
-5369.272
 30
1435.534
 70
    32
  0
VERTEX
  8
T38SSILL
 62
3
 10
2256.977
 20
-5387.252
 30
1435.644
 70
    32
  0
VERTEX
  8
T38SSILL
 62
3
 10
2426.129
 20
-5266.573
 30
1434.984
 70
    32
  0
VERTEX
  8
T38SSILL
 62
3
 10
2433.034
 20
-5252.534
 30
1434.909
 70
    32
  0
VERTEX
  8
T38SSILL
 62
3
 10
2432.453
 20
-5238.078
 30
1434.837
 70
    32
  0
VERTEX
  8
T38SSILL
 62
3
 10
2416.162
 20
-5216.263
 30
1434.737
 70
    32
  0
VERTEX
  8
T38SSILL
 62
3
 10
2413.963
 20
-5226.113
 30
1434.788
 70
    32
  0
VERTEX
  8
T38SSILL
 62
3
 10
2405.750
 20
-5238.555
 30
1434.856
 70
    32
  0
VERTEX
  8
T38SSILL
 62
3
 10
2280.203
 20
-5329.648
 30
1435.228
 70
    32
  0
VERTEX
  8
T38SSILL
 62
3
 10
2276.149
 20
-5324.178
 30
1435.204
 70
    32
  0
VERTEX
  8
T38SSILL
 62
3
 10
2305.750
 20
-5302.700
 30
1435.161
 70
    32
  0
VERTEX
  8
T38SSILL
 62
3
 10
2301.739
 20
-5297.254
 30
1435.143
 70
    32
  0
VERTEX
  8
T38SSILL
 62
3
 10
2308.551
 20
-5291.987
 30
1435.128
 70
    32
  0
VERTEX
  8
T38SSILL
 62
3
 10
2312.688
 20
-5297.666
 30
1435.147
 70
    32
  0
VERTEX
  8
T38SSILL
 62
3
 10
2380.752
 20
-5248.278
 30
1434.921
 70
    32
  0
VERTEX
  8
T38SSILL
 62
3
 10
2377.185
 20
-5243.546
 30
1434.900
 70
    32
  0
VERTEX
  8
T38SSILL
 62
3
 10
2383.466
 20
-5238.806
 30
1434.872
 70
    32
  0
VERTEX
  8
T38SSILL
 62
3
 10
2387.480
 20
-5243.397
 30
1434.892
 70
    32
  0
VERTEX
  8
T38SSILL
 62
3
 10
2400.769
 20
-5233.754
 30
1434.835
 70
    32
  0
VERTEX
  8
T38SSILL
 62
3
 10
2404.862
 20
-5229.031
 30
1434.809
 70
    32
  0
VERTEX
  8
T38SSILL
 62
3
 10
2408.180
 20
-5222.363
 30
1434.773
 70
    32
  0
VERTEX
  8
T38SSILL
 62
3
 10
2408.216
 20
-5207.824
 30
1434.700
 70
    32
  0
VERTEX
  8
T38SSILL
 62
3
 10
2406.667
 20
-5203.493
 30
1434.679
 70
    32
  0
VERTEX
  8
T38SSILL
 62
3
 10
2385.660
 20
-5176.792
 30
1434.558
 70
    32
  0
VERTEX
  8
T38SSILL
 62
3
 10
2383.745
 20
-5184.265
 30
1434.597
 70
    32
  0
VERTEX
  8
T38SSILL
 62
3
 10
2375.099
 20
-5195.910
 30
1434.661
 70
    32
  0
VERTEX
  8
T38SSILL
 62
3
 10
2322.176
 20
-5233.764
 30
1434.886
 70
    32
  0
VERTEX
  8
T38SSILL
 62
3
 10
2326.037
 20
-5239.123
 30
1434.910
 70
    32
  0
VERTEX
  8
T38SSILL
 62
3
 10
2320.553
 20
-5243.072
 30
1434.934
 70
    32
  0
VERTEX
  8
T38SSILL
 62
3
 10
2316.570
 20
-5237.774
 30
1434.910
 70
    32
  0
VERTEX
  8
T38SSILL
 62
3
 10
2296.196
 20
-5252.347
 30
1434.996
 70
    32
  0
VERTEX
  8
T38SSILL
 62
3
 10
2299.947
 20
-5257.286
 30
1435.018
 70
    32
  0
VERTEX
  8
T38SSILL
 62
3
 10
2293.666
 20
-5261.938
 30
1435.031
 70
    32
  0
VERTEX
  8
T38SSILL
 62
3
 10
2290.006
 20
-5256.774
 30
1435.012
 70
    32
  0
VERTEX
  8
T38SSILL
 62
3
 10
2270.170
 20
-5270.962
 30
1435.016
 70
    32
  0
VERTEX
  8
T38SSILL
 62
3
 10
2274.030
 20
-5275.980
 30
1435.037
 70
    32
  0
VERTEX
  8
T38SSILL
 62
3
 10
2268.193
 20
-5280.104
 30
1435.038
 70
    32
  0
VERTEX
  8
T38SSILL
 62
3
 10
2264.293
 20
-5275.166
 30
1435.017
 70
    32
  0
VERTEX
  8
T38SSILL
 62
3
 10
2229.261
 20
-5300.224
 30
1435.170
 70
    32
  0
SEQEND
  8
T38SSILL
  0
POLYLINE
  8
T38SSILL
 62
3
 66
     1
 70
     9
  0
VERTEX
  8
T38SSILL
 62
3
 10
2155.418
 20
-5119.232
 30
1434.084
 70
    32
  0
VERTEX
  8
T38SSILL
 62
3
 10
2159.033
 20
-5123.825
 30
1434.122
 70
    32
  0
VERTEX
  8
T38SSILL
 62
3
 10
2164.693
 20
-5120.053
 30
1434.125
 70
    32
  0
VERTEX
  8
T38SSILL
 62
3
 10
2161.226
 20
-5115.022
 30
1434.085
 70
    32
  0
VERTEX
  8
T38SSILL
 62
3
 10
2201.395
 20
-5085.905
 30
1434.152
 70
    32
  0
VERTEX
  8
T38SSILL
 62
3
 10
2205.377
 20
-5091.622
 30
1434.186
 70
    32
  0
VERTEX
  8
T38SSILL
 62
3
 10
2210.597
 20
-5087.407
 30
1434.200
 70
    32
  0
VERTEX
  8
T38SSILL
 62
3
 10
2207.075
 20
-5081.788
 30
1434.169
 70
    32
  0
VERTEX
  8
T38SSILL
 62
3
 10
2259.472
 20
-5043.807
 30
1434.211
 70
    32
  0
VERTEX
  8
T38SSILL
 62
3
 10
2265.786
 20
-5037.077
 30
1434.168
 70
    32
  0
VERTEX
  8
T38SSILL
 62
3
 10
2270.386
 20
-5024.604
 30
1434.106
 70
    32
  0
VERTEX
  8
T38SSILL
 62
3
 10
2317.091
 20
-5085.977
 30
1434.248
 70
    32
  0
VERTEX
  8
T38SSILL
 62
3
 10
2319.676
 20
-5092.696
 30
1434.270
 70
    32
  0
VERTEX
  8
T38SSILL
 62
3
 10
2319.762
 20
-5103.359
 30
1434.313
 70
    32
  0
VERTEX
  8
T38SSILL
 62
3
 10
2315.473
 20
-5110.283
 30
1434.352
 70
    32
  0
VERTEX
  8
T38SSILL
 62
3
 10
2309.693
 20
-5116.401
 30
1434.391
 70
    32
  0
VERTEX
  8
T38SSILL
 62
3
 10
2169.881
 20
-5216.713
 30
1434.755
 70
    32
  0
VERTEX
  8
T38SSILL
 62
3
 10
2161.456
 20
-5212.764
 30
1434.727
 70
    32
  0
VERTEX
  8
T38SSILL
 62
3
 10
2154.990
 20
-5206.365
 30
1434.682
 70
    32
  0
VERTEX
  8
T38SSILL
 62
3
 10
2146.983
 20
-5205.063
 30
1434.673
 70
    32
  0
VERTEX
  8
T38SSILL
 62
3
 10
2136.909
 20
-5198.104
 30
1434.624
 70
    32
  0
VERTEX
  8
T38SSILL
 62
3
 10
2137.734
 20
-5194.410
 30
1434.597
 70
    32
  0
VERTEX
  8
T38SSILL
 62
3
 10
2128.540
 20
-5187.635
 30
1434.593
 70
    32
  0
VERTEX
  8
T38SSILL
 62
3
 10
2118.176
 20
-5183.669
 30
1434.653
 70
    32
  0
VERTEX
  8
T38SSILL
 62
3
 10
2112.844
 20
-5178.689
 30
1434.669
 70
    32
  0
VERTEX
  8
T38SSILL
 62
3
 10
2114.102
 20
-5175.792
 30
1434.644
 70
    32
  0
VERTEX
  8
T38SSILL
 62
3
 10
2109.010
 20
-5173.634
 30
1434.673
 70
    32
  0
VERTEX
  8
T38SSILL
 62
3
 10
2099.081
 20
-5160.068
 30
1434.679
 70
    32
  0
VERTEX
  8
T38SSILL
 62
3
 10
2134.362
 20
-5134.495
 30
1434.267
 70
    32
  0
VERTEX
  8
T38SSILL
 62
3
 10
2137.363
 20
-5139.270
 30
1434.269
 70
    32
  0
VERTEX
  8
T38SSILL
 62
3
 10
2144.261
 20
-5134.621
 30
1434.190
 70
    32
  0
VERTEX
  8
T38SSILL
 62
3
 10
2141.008
 20
-5129.677
 30
1434.190
 70
    32
  0
VERTEX
  8
T38SSILL
 62
3
 10
2151.682
 20
-5121.940
 30
1434.083
 70
    32
  0
SEQEND
  8
T38SSILL
  0
POLYLINE
  8
T38SSILL
 62
3
 66
     1
 70
     9
  0
VERTEX
  8
T38SSILL
 62
3
 10
2863.392
 20
-6013.972
 30
1435.499
 70
    32
  0
VERTEX
  8
T38SSILL
 62
3
 10
2869.679
 20
-6022.733
 30
1435.486
 70
    32
  0
VERTEX
  8
T38SSILL
 62
3
 10
2875.010
 20
-6018.789
 30
1435.505
 70
    32
  0
VERTEX
  8
T38SSILL
 62
3
 10
2869.026
 20
-6009.922
 30
1435.518
 70
    32
  0
VERTEX
  8
T38SSILL
 62
3
 10
2897.010
 20
-5989.805
 30
1435.649
 70
    32
  0
VERTEX
  8
T38SSILL
 62
3
 10
2885.233
 20
-6035.346
 30
1435.486
 70
    32
  0
VERTEX
  8
T38SSILL
 62
3
 10
2882.951
 20
-6042.547
 30
1435.458
 70
    32
  0
VERTEX
  8
T38SSILL
 62
3
 10
2878.729
 20
-6049.711
 30
1435.432
 70
    32
  0
VERTEX
  8
T38SSILL
 62
3
 10
2871.845
 20
-6056.239
 30
1435.422
 70
    32
  0
VERTEX
  8
T38SSILL
 62
3
 10
2774.553
 20
-6127.656
 30
1435.685
 70
    32
  0
VERTEX
  8
T38SSILL
 62
3
 10
2768.110
 20
-6115.722
 30
1435.642
 70
    32
  0
VERTEX
  8
T38SSILL
 62
3
 10
2755.937
 20
-6098.580
 30
1435.580
 70
    32
  0
VERTEX
  8
T38SSILL
 62
3
 10
2757.653
 20
-6089.983
 30
1435.549
 70
    32
  0
VERTEX
  8
T38SSILL
 62
3
 10
2790.300
 20
-6066.514
 30
1435.463
 70
    32
  0
VERTEX
  8
T38SSILL
 62
3
 10
2796.963
 20
-6069.383
 30
1435.473
 70
    32
  0
VERTEX
  8
T38SSILL
 62
3
 10
2803.326
 20
-6085.555
 30
1435.531
 70
    32
  0
VERTEX
  8
T38SSILL
 62
3
 10
2807.461
 20
-6083.539
 30
1435.524
 70
    32
  0
VERTEX
  8
T38SSILL
 62
3
 10
2811.032
 20
-6079.107
 30
1435.507
 70
    32
  0
VERTEX
  8
T38SSILL
 62
3
 10
2805.971
 20
-6068.004
 30
1435.467
 70
    32
  0
VERTEX
  8
T38SSILL
 62
3
 10
2805.558
 20
-6055.546
 30
1435.418
 70
    32
  0
VERTEX
  8
T38SSILL
 62
3
 10
2822.835
 20
-6043.127
 30
1435.356
 70
    32
  0
SEQEND
  8
T38SSILL
  0
POLYLINE
  8
T38SSILL
 62
3
 66
     1
 70
     9
  0
VERTEX
  8
T38SSILL
 62
3
 10
3168.902
 20
-6487.655
 30
1437.013
 70
    32
  0
VERTEX
  8
T38SSILL
 62
3
 10
3159.847
 20
-6441.418
 30
1436.968
 70
    32
  0
VERTEX
  8
T38SSILL
 62
3
 10
3157.269
 20
-6433.902
 30
1436.960
 70
    32
  0
VERTEX
  8
T38SSILL
 62
3
 10
3151.743
 20
-6424.875
 30
1436.949
 70
    32
  0
VERTEX
  8
T38SSILL
 62
3
 10
3147.120
 20
-6420.058
 30
1436.943
 70
    32
  0
VERTEX
  8
T38SSILL
 62
3
 10
3144.419
 20
-6414.572
 30
1436.937
 70
    32
  0
VERTEX
  8
T38SSILL
 62
3
 10
3143.189
 20
-6397.850
 30
1436.921
 70
    32
  0
VERTEX
  8
T38SSILL
 62
3
 10
3227.392
 20
-6336.569
 30
1436.893
 70
    32
  0
VERTEX
  8
T38SSILL
 62
3
 10
3237.506
 20
-6324.134
 30
1436.883
 70
    32
  0
VERTEX
  8
T38SSILL
 62
3
 10
3250.622
 20
-6315.155
 30
1436.862
 70
    32
  0
VERTEX
  8
T38SSILL
 62
3
 10
3243.413
 20
-6305.411
 30
1436.813
 70
    32
  0
VERTEX
  8
T38SSILL
 62
3
 10
3243.924
 20
-6294.250
 30
1436.812
 70
    32
  0
VERTEX
  8
T38SSILL
 62
3
 10
3287.751
 20
-6351.660
 30
1436.937
 70
    32
  0
VERTEX
  8
T38SSILL
 62
3
 10
3292.652
 20
-6367.141
 30
1436.957
 70
    32
  0
VERTEX
  8
T38SSILL
 62
3
 10
3293.172
 20
-6376.915
 30
1436.968
 70
    32
  0
VERTEX
  8
T38SSILL
 62
3
 10
3291.660
 20
-6386.567
 30
1436.976
 70
    32
  0
VERTEX
  8
T38SSILL
 62
3
 10
3283.693
 20
-6402.295
 30
1436.986
 70
    32
  0
VERTEX
  8
T38SSILL
 62
3
 10
3279.258
 20
-6408.055
 30
1436.990
 70
    32
  0
VERTEX
  8
T38SSILL
 62
3
 10
3274.835
 20
-6410.904
 30
1436.990
 70
    32
  0
VERTEX
  8
T38SSILL
 62
3
 10
3269.982
 20
-6407.415
 30
1436.985
 70
    32
  0
VERTEX
  8
T38SSILL
 62
3
 10
3262.171
 20
-6398.712
 30
1436.974
 70
    32
  0
VERTEX
  8
T38SSILL
 62
3
 10
3255.729
 20
-6395.177
 30
1436.968
 70
    32
  0
VERTEX
  8
T38SSILL
 62
3
 10
3237.447
 20
-6394.067
 30
1436.959
 70
    32
  0
VERTEX
  8
T38SSILL
 62
3
 10
3217.901
 20
-6398.633
 30
1436.954
 70
    32
  0
VERTEX
  8
T38SSILL
 62
3
 10
3208.482
 20
-6402.671
 30
1436.954
 70
    32
  0
VERTEX
  8
T38SSILL
 62
3
 10
3208.576
 20
-6409.635
 30
1436.960
 70
    32
  0
VERTEX
  8
T38SSILL
 62
3
 10
3211.410
 20
-6420.231
 30
1436.971
 70
    32
  0
VERTEX
  8
T38SSILL
 62
3
 10
3207.889
 20
-6433.992
 30
1436.982
 70
    32
  0
VERTEX
  8
T38SSILL
 62
3
 10
3213.586
 20
-6455.089
 30
1437.003
 70
    32
  0
SEQEND
  8
T38SSILL
  0
POLYLINE
  8
T38SSILL
 62
3
 66
     1
 70
     9
  0
VERTEX
  8
T38SSILL
 62
3
 10
3299.744
 20
-6192.881
 30
1436.512
 70
    32
  0
VERTEX
  8
T38SSILL
 62
3
 10
3303.202
 20
-6200.375
 30
1436.528
 70
    32
  0
VERTEX
  8
T38SSILL
 62
3
 10
3300.571
 20
-6227.957
 30
1436.607
 70
    32
  0
VERTEX
  8
T38SSILL
 62
3
 10
3297.363
 20
-6233.420
 30
1436.625
 70
    32
  0
VERTEX
  8
T38SSILL
 62
3
 10
3288.215
 20
-6227.574
 30
1436.620
 70
    32
  0
VERTEX
  8
T38SSILL
 62
3
 10
3285.766
 20
-6228.343
 30
1436.625
 70
    32
  0
VERTEX
  8
T38SSILL
 62
3
 10
3270.231
 20
-6237.920
 30
1436.669
 70
    32
  0
VERTEX
  8
T38SSILL
 62
3
 10
3277.780
 20
-6246.718
 30
1436.684
 70
    32
  0
VERTEX
  8
T38SSILL
 62
3
 10
3293.984
 20
-6252.644
 30
1436.682
 70
    32
  0
VERTEX
  8
T38SSILL
 62
3
 10
3295.456
 20
-6254.986
 30
1436.686
 70
    32
  0
VERTEX
  8
T38SSILL
 62
3
 10
3299.096
 20
-6272.793
 30
1436.732
 70
    32
  0
VERTEX
  8
T38SSILL
 62
3
 10
3300.635
 20
-6274.340
 30
1436.735
 70
    32
  0
VERTEX
  8
T38SSILL
 62
3
 10
3297.191
 20
-6277.516
 30
1436.747
 70
    32
  0
VERTEX
  8
T38SSILL
 62
3
 10
3277.432
 20
-6290.818
 30
1436.805
 70
    32
  0
VERTEX
  8
T38SSILL
 62
3
 10
3265.320
 20
-6292.986
 30
1436.825
 70
    32
  0
VERTEX
  8
T38SSILL
 62
3
 10
3257.797
 20
-6291.948
 30
1436.831
 70
    32
  0
VERTEX
  8
T38SSILL
 62
3
 10
3252.879
 20
-6289.343
 30
1436.829
 70
    32
  0
VERTEX
  8
T38SSILL
 62
3
 10
3246.568
 20
-6284.040
 30
1436.822
 70
    32
  0
VERTEX
  8
T38SSILL
 62
3
 10
3202.180
 20
-6225.410
 30
1436.713
 70
    32
  0
VERTEX
  8
T38SSILL
 62
3
 10
3207.669
 20
-6226.237
 30
1436.709
 70
    32
  0
VERTEX
  8
T38SSILL
 62
3
 10
3222.161
 20
-6224.007
 30
1436.686
 70
    32
  0
VERTEX
  8
T38SSILL
 62
3
 10
3226.955
 20
-6221.854
 30
1436.675
 70
    32
  0
VERTEX
  8
T38SSILL
 62
3
 10
3237.307
 20
-6213.030
 30
1436.639
 70
    32
  0
VERTEX
  8
T38SSILL
 62
3
 10
3246.822
 20
-6212.693
 30
1436.627
 70
    32
  0
VERTEX
  8
T38SSILL
 62
3
 10
3265.659
 20
-6224.900
 30
1436.638
 70
    32
  0
VERTEX
  8
T38SSILL
 62
3
 10
3263.900
 20
-6238.614
 30
1436.678
 70
    32
  0
VERTEX
  8
T38SSILL
 62
3
 10
3269.128
 20
-6236.185
 30
1436.665
 70
    32
  0
VERTEX
  8
T38SSILL
 62
3
 10
3277.201
 20
-6231.301
 30
1436.643
 70
    32
  0
VERTEX
  8
T38SSILL
 62
3
 10
3283.487
 20
-6225.493
 30
1436.619
 70
    32
  0
VERTEX
  8
T38SSILL
 62
3
 10
3289.602
 20
-6196.233
 30
1436.532
 70
    32
  0
VERTEX
  8
T38SSILL
 62
3
 10
3276.149
 20
-6187.589
 30
1436.524
 70
    32
  0
VERTEX
  8
T38SSILL
 62
3
 10
3276.827
 20
-6184.539
 30
1436.515
 70
    32
  0
VERTEX
  8
T38SSILL
 62
3
 10
3287.701
 20
-6176.700
 30
1436.481
 70
    32
  0
SEQEND
  8
T38SSILL
  0
POLYLINE
  8
T38SSILL
 62
3
 66
     1
 70
     9
  0
VERTEX
  8
T38SSILL
 62
3
 10
3290.277
 20
-6522.758
 30
1437.097
 70
    32
  0
VERTEX
  8
T38SSILL
 62
3
 10
3286.095
 20
-6514.578
 30
1437.088
 70
    32
  0
VERTEX
  8
T38SSILL
 62
3
 10
3284.376
 20
-6506.157
 30
1437.080
 70
    32
  0
VERTEX
  8
T38SSILL
 62
3
 10
3285.448
 20
-6503.308
 30
1437.078
 70
    32
  0
VERTEX
  8
T38SSILL
 62
3
 10
3284.244
 20
-6494.344
 30
1437.069
 70
    32
  0
VERTEX
  8
T38SSILL
 62
3
 10
3284.291
 20
-6489.405
 30
1437.065
 70
    32
  0
VERTEX
  8
T38SSILL
 62
3
 10
3285.402
 20
-6488.053
 30
1437.064
 70
    32
  0
VERTEX
  8
T38SSILL
 62
3
 10
3284.576
 20
-6480.050
 30
1437.056
 70
    32
  0
VERTEX
  8
T38SSILL
 62
3
 10
3286.577
 20
-6472.237
 30
1437.050
 70
    32
  0
VERTEX
  8
T38SSILL
 62
3
 10
3280.777
 20
-6459.514
 30
1437.036
 70
    32
  0
VERTEX
  8
T38SSILL
 62
3
 10
3279.713
 20
-6459.277
 30
1437.036
 70
    32
  0
VERTEX
  8
T38SSILL
 62
3
 10
3269.839
 20
-6435.726
 30
1437.010
 70
    32
  0
VERTEX
  8
T38SSILL
 62
3
 10
3274.391
 20
-6427.670
 30
1437.005
 70
    32
  0
VERTEX
  8
T38SSILL
 62
3
 10
3278.768
 20
-6423.059
 30
1437.003
 70
    32
  0
VERTEX
  8
T38SSILL
 62
3
 10
3280.997
 20
-6417.268
 30
1436.999
 70
    32
  0
VERTEX
  8
T38SSILL
 62
3
 10
3291.709
 20
-6405.349
 30
1436.993
 70
    32
  0
VERTEX
  8
T38SSILL
 62
3
 10
3298.442
 20
-6393.004
 30
1436.984
 70
    32
  0
VERTEX
  8
T38SSILL
 62
3
 10
3301.623
 20
-6383.132
 30
1436.977
 70
    32
  0
VERTEX
  8
T38SSILL
 62
3
 10
3302.018
 20
-6367.866
 30
1436.962
 70
    32
  0
VERTEX
  8
T38SSILL
 62
3
 10
3366.427
 20
-6453.663
 30
1437.068
 70
    32
  0
VERTEX
  8
T38SSILL
 62
3
 10
3370.857
 20
-6464.570
 30
1437.080
 70
    32
  0
VERTEX
  8
T38SSILL
 62
3
 10
3371.006
 20
-6470.298
 30
1437.085
 70
    32
  0
VERTEX
  8
T38SSILL
 62
3
 10
3363.913
 20
-6478.949
 30
1437.090
 70
    32
  0
VERTEX
  8
T38SSILL
 62
3
 10
3314.293
 20
-6514.192
 30
1437.100
 70
    32
  0
VERTEX
  8
T38SSILL
 62
3
 10
3311.226
 20
-6509.520
 30
1437.094
 70
    32
  0
VERTEX
  8
T38SSILL
 62
3
 10
3304.567
 20
-6514.724
 30
1437.096
 70
    32
  0
VERTEX
  8
T38SSILL
 62
3
 10
3307.798
 20
-6518.804
 30
1437.101
 70
    32
  0
VERTEX
  8
T38SSILL
 62
3
 10
3289.697
 20
-6531.660
 30
1437.105
 70
    32
  0
SEQEND
  8
T38SSILL
  0
POLYLINE
  8
T38SSILL
 62
3
 66
     1
 70
     9
  0
VERTEX
  8
T38SSILL
 62
3
 10
3742.129
 20
-5342.612
 30
1434.246
 70
    32
  0
VERTEX
  8
T38SSILL
 62
3
 10
3739.375
 20
-5346.143
 30
1434.177
 70
    32
  0
VERTEX
  8
T38SSILL
 62
3
 10
3725.141
 20
-5352.859
 30
1433.900
 70
    32
  0
VERTEX
  8
T38SSILL
 62
3
 10
3709.812
 20
-5353.500
 30
1433.649
 70
    32
  0
VERTEX
  8
T38SSILL
 62
3
 10
3758.994
 20
-5421.351
 30
1433.929
 70
    32
  0
VERTEX
  8
T38SSILL
 62
3
 10
3765.788
 20
-5427.156
 30
1433.918
 70
    32
  0
VERTEX
  8
T38SSILL
 62
3
 10
3772.576
 20
-5429.700
 30
1433.938
 70
    32
  0
VERTEX
  8
T38SSILL
 62
3
 10
3780.240
 20
-5429.247
 30
1433.963
 70
    32
  0
VERTEX
  8
T38SSILL
 62
3
 10
3785.700
 20
-5427.300
 30
1433.984
 70
    32
  0
VERTEX
  8
T38SSILL
 62
3
 10
3804.710
 20
-5414.319
 30
1434.067
 70
    32
  0
VERTEX
  8
T38SSILL
 62
3
 10
3795.563
 20
-5368.782
 30
1434.318
 70
    32
  0
VERTEX
  8
T38SSILL
 62
3
 10
3792.693
 20
-5337.157
 30
1434.561
 70
    32
  0
VERTEX
  8
T38SSILL
 62
3
 10
3789.235
 20
-5323.242
 30
1434.685
 70
    32
  0
VERTEX
  8
T38SSILL
 62
3
 10
3787.823
 20
-5307.771
 30
1434.870
 70
    32
  0
SEQEND
  8
T38SSILL
  0
POLYLINE
  8
T38SSILL
 62
3
 66
     1
 70
     9
  0
VERTEX
  8
T38SSILL
 62
3
 10
3745.989
 20
-5212.417
 30
1434.342
 70
    32
  0
VERTEX
  8
T38SSILL
 62
3
 10
3695.669
 20
-5248.995
 30
1433.980
 70
    32
  0
VERTEX
  8
T38SSILL
 62
3
 10
3690.023
 20
-5243.570
 30
1433.913
 70
    32
  0
VERTEX
  8
T38SSILL
 62
3
 10
3769.601
 20
-5187.517
 30
1434.467
 70
    32
  0
VERTEX
  8
T38SSILL
 62
3
 10
3770.973
 20
-5184.726
 30
1434.471
 70
    32
  0
VERTEX
  8
T38SSILL
 62
3
 10
3770.517
 20
-5180.845
 30
1434.460
 70
    32
  0
VERTEX
  8
T38SSILL
 62
3
 10
3772.225
 20
-5178.940
 30
1434.469
 70
    32
  0
VERTEX
  8
T38SSILL
 62
3
 10
3778.527
 20
-5176.065
 30
1434.510
 70
    32
  0
VERTEX
  8
T38SSILL
 62
3
 10
3784.260
 20
-5170.714
 30
1434.542
 70
    32
  0
VERTEX
  8
T38SSILL
 62
3
 10
3788.156
 20
-5169.466
 30
1434.568
 70
    32
  0
VERTEX
  8
T38SSILL
 62
3
 10
3790.411
 20
-5171.268
 30
1434.589
 70
    32
  0
VERTEX
  8
T38SSILL
 62
3
 10
3852.771
 20
-5126.392
 30
1434.581
 70
    32
  0
VERTEX
  8
T38SSILL
 62
3
 10
3827.730
 20
-5090.806
 30
1434.719
 70
    32
  0
VERTEX
  8
T38SSILL
 62
3
 10
3668.222
 20
-5205.351
 30
1433.747
 70
    32
  0
VERTEX
  8
T38SSILL
 62
3
 10
3648.782
 20
-5223.650
 30
1433.663
 70
    32
  0
VERTEX
  8
T38SSILL
 62
3
 10
3644.526
 20
-5242.854
 30
1433.625
 70
    32
  0
VERTEX
  8
T38SSILL
 62
3
 10
3645.076
 20
-5256.334
 30
1433.605
 70
    32
  0
VERTEX
  8
T38SSILL
 62
3
 10
3647.289
 20
-5262.762
 30
1433.599
 70
    32
  0
VERTEX
  8
T38SSILL
 62
3
 10
3652.854
 20
-5272.092
 30
1433.595
 70
    32
  0
VERTEX
  8
T38SSILL
 62
3
 10
3703.890
 20
-5341.703
 30
1433.623
 70
    32
  0
VERTEX
  8
T38SSILL
 62
3
 10
3709.623
 20
-5345.571
 30
1433.700
 70
    32
  0
VERTEX
  8
T38SSILL
 62
3
 10
3716.092
 20
-5346.101
 30
1433.803
 70
    32
  0
VERTEX
  8
T38SSILL
 62
3
 10
3716.054
 20
-5344.856
 30
1433.811
 70
    32
  0
VERTEX
  8
T38SSILL
 62
3
 10
3721.515
 20
-5344.318
 30
1433.903
 70
    32
  0
VERTEX
  8
T38SSILL
 62
3
 10
3724.301
 20
-5343.287
 30
1433.955
 70
    32
  0
VERTEX
  8
T38SSILL
 62
3
 10
3721.162
 20
-5337.336
 30
1433.941
 70
    32
  0
VERTEX
  8
T38SSILL
 62
3
 10
3731.804
 20
-5331.879
 30
1434.151
 70
    32
  0
VERTEX
  8
T38SSILL
 62
3
 10
3734.985
 20
-5337.777
 30
1434.166
 70
    32
  0
VERTEX
  8
T38SSILL
 62
3
 10
3792.539
 20
-5295.659
 30
1434.908
 70
    32
  0
VERTEX
  8
T38SSILL
 62
3
 10
3793.147
 20
-5290.196
 30
1434.871
 70
    32
  0
VERTEX
  8
T38SSILL
 62
3
 10
3791.994
 20
-5285.352
 30
1434.831
 70
    32
  0
VERTEX
  8
T38SSILL
 62
3
 10
3787.402
 20
-5278.487
 30
1434.782
 70
    32
  0
VERTEX
  8
T38SSILL
 62
3
 10
3785.439
 20
-5262.631
 30
1434.735
 70
    32
  0
VERTEX
  8
T38SSILL
 62
3
 10
3781.907
 20
-5258.231
 30
1434.700
 70
    32
  0
VERTEX
  8
T38SSILL
 62
3
 10
3776.702
 20
-5253.922
 30
1434.653
 70
    32
  0
VERTEX
  8
T38SSILL
 62
3
 10
3760.772
 20
-5264.873
 30
1434.559
 70
    32
  0
VERTEX
  8
T38SSILL
 62
3
 10
3757.416
 20
-5259.592
 30
1434.521
 70
    32
  0
VERTEX
  8
T38SSILL
 62
3
 10
3774.225
 20
-5247.230
 30
1434.621
 70
    32
  0
VERTEX
  8
T38SSILL
 62
3
 10
3771.133
 20
-5242.301
 30
1434.588
 70
    32
  0
VERTEX
  8
T38SSILL
 62
3
 10
3778.087
 20
-5238.237
 30
1434.632
 70
    32
  0
VERTEX
  8
T38SSILL
 62
3
 10
3779.854
 20
-5241.054
 30
1434.650
 70
    32
  0
VERTEX
  8
T38SSILL
 62
3
 10
3794.971
 20
-5217.770
 30
1434.716
 70
    32
  0
VERTEX
  8
T38SSILL
 62
3
 10
3799.295
 20
-5221.816
 30
1434.756
 70
    32
  0
VERTEX
  8
T38SSILL
 62
3
 10
3799.654
 20
-5226.045
 30
1434.767
 70
    32
  0
VERTEX
  8
T38SSILL
 62
3
 10
3795.218
 20
-5229.979
 30
1434.742
 70
    32
  0
VERTEX
  8
T38SSILL
 62
3
 10
3883.618
 20
-5166.926
 30
1434.343
 70
    32
  0
VERTEX
  8
T38SSILL
 62
3
 10
3861.686
 20
-5137.009
 30
1434.513
 70
    32
  0
VERTEX
  8
T38SSILL
 62
3
 10
3854.686
 20
-5141.743
 30
1434.562
 70
    32
  0
VERTEX
  8
T38SSILL
 62
3
 10
3851.192
 20
-5136.384
 30
1434.590
 70
    32
  0
VERTEX
  8
T38SSILL
 62
3
 10
3832.104
 20
-5150.023
 30
1434.725
 70
    32
  0
VERTEX
  8
T38SSILL
 62
3
 10
3835.255
 20
-5154.849
 30
1434.701
 70
    32
  0
VERTEX
  8
T38SSILL
 62
3
 10
3830.522
 20
-5158.458
 30
1434.735
 70
    32
  0
VERTEX
  8
T38SSILL
 62
3
 10
3827.022
 20
-5153.655
 30
1434.762
 70
    32
  0
VERTEX
  8
T38SSILL
 62
3
 10
3806.422
 20
-5168.375
 30
1434.702
 70
    32
  0
VERTEX
  8
T38SSILL
 62
3
 10
3810.093
 20
-5173.130
 30
1434.738
 70
    32
  0
VERTEX
  8
T38SSILL
 62
3
 10
3803.598
 20
-5176.882
 30
1434.698
 70
    32
  0
VERTEX
  8
T38SSILL
 62
3
 10
3800.662
 20
-5172.490
 30
1434.667
 70
    32
  0
VERTEX
  8
T38SSILL
 62
3
 10
3797.276
 20
-5176.061
 30
1434.649
 70
    32
  0
VERTEX
  8
T38SSILL
 62
3
 10
3798.354
 20
-5184.355
 30
1434.674
 70
    32
  0
VERTEX
  8
T38SSILL
 62
3
 10
3800.980
 20
-5189.861
 30
1434.704
 70
    32
  0
VERTEX
  8
T38SSILL
 62
3
 10
3806.142
 20
-5196.294
 30
1434.756
 70
    32
  0
VERTEX
  8
T38SSILL
 62
3
 10
3807.138
 20
-5199.569
 30
1434.770
 70
    32
  0
VERTEX
  8
T38SSILL
 62
3
 10
3806.227
 20
-5201.225
 30
1434.766
 70
    32
  0
VERTEX
  8
T38SSILL
 62
3
 10
3784.181
 20
-5217.627
 30
1434.636
 70
    32
  0
VERTEX
  8
T38SSILL
 62
3
 10
3776.937
 20
-5204.818
 30
1434.556
 70
    32
  0
VERTEX
  8
T38SSILL
 62
3
 10
3775.321
 20
-5197.042
 30
1434.528
 70
    32
  0
VERTEX
  8
T38SSILL
 62
3
 10
3772.217
 20
-5193.551
 30
1434.498
 70
    32
  0
VERTEX
  8
T38SSILL
 62
3
 10
3751.911
 20
-5208.157
 30
1434.377
 70
    32
  0
VERTEX
  8
T38SSILL
 62
3
 10
3755.985
 20
-5214.463
 30
1434.420
 70
    32
  0
VERTEX
  8
T38SSILL
 62
3
 10
3750.096
 20
-5218.755
 30
1434.385
 70
    32
  0
SEQEND
  8
T38SSILL
  0
POLYLINE
  8
T38SSILL
 62
3
 66
     1
 70
     9
  0
VERTEX
  8
T38SSILL
 62
3
 10
3903.421
 20
-5214.805
 30
1434.200
 70
    32
  0
VERTEX
  8
T38SSILL
 62
3
 10
3912.555
 20
-5208.347
 30
1434.140
 70
    32
  0
VERTEX
  8
T38SSILL
 62
3
 10
3886.897
 20
-5173.776
 30
1434.317
 70
    32
  0
VERTEX
  8
T38SSILL
 62
3
 10
3873.823
 20
-5182.706
 30
1434.410
 70
    32
  0
VERTEX
  8
T38SSILL
 62
3
 10
3880.605
 20
-5188.149
 30
1434.359
 70
    32
  0
VERTEX
  8
T38SSILL
 62
3
 10
3885.563
 20
-5189.656
 30
1434.322
 70
    32
  0
VERTEX
  8
T38SSILL
 62
3
 10
3891.552
 20
-5195.112
 30
1434.277
 70
    32
  0
VERTEX
  8
T38SSILL
 62
3
 10
3896.170
 20
-5197.418
 30
1434.242
 70
    32
  0
VERTEX
  8
T38SSILL
 62
3
 10
3897.928
 20
-5202.676
 30
1434.228
 70
    32
  0
VERTEX
  8
T38SSILL
 62
3
 10
3896.826
 20
-5205.425
 30
1434.235
 70
    32
  0
VERTEX
  8
T38SSILL
 62
3
 10
3893.957
 20
-5207.849
 30
1434.255
 70
    32
  0
VERTEX
  8
T38SSILL
 62
3
 10
3888.005
 20
-5210.322
 30
1434.298
 70
    32
  0
VERTEX
  8
T38SSILL
 62
3
 10
3883.225
 20
-5214.451
 30
1434.332
 70
    32
  0
VERTEX
  8
T38SSILL
 62
3
 10
3880.842
 20
-5214.225
 30
1434.349
 70
    32
  0
VERTEX
  8
T38SSILL
 62
3
 10
3868.347
 20
-5198.564
 30
1434.446
 70
    32
  0
VERTEX
  8
T38SSILL
 62
3
 10
3861.414
 20
-5194.709
 30
1434.498
 70
    32
  0
VERTEX
  8
T38SSILL
 62
3
 10
3860.051
 20
-5192.087
 30
1434.508
 70
    32
  0
VERTEX
  8
T38SSILL
 62
3
 10
3837.410
 20
-5208.922
 30
1434.669
 70
    32
  0
VERTEX
  8
T38SSILL
 62
3
 10
3855.835
 20
-5220.700
 30
1434.531
 70
    32
  0
VERTEX
  8
T38SSILL
 62
3
 10
3861.755
 20
-5227.303
 30
1434.485
 70
    32
  0
VERTEX
  8
T38SSILL
 62
3
 10
3869.339
 20
-5238.900
 30
1434.426
 70
    32
  0
VERTEX
  8
T38SSILL
 62
3
 10
3895.846
 20
-5220.161
 30
1434.250
 70
    32
  0
VERTEX
  8
T38SSILL
 62
3
 10
3898.158
 20
-5222.760
 30
1434.271
 70
    32
  0
VERTEX
  8
T38SSILL
 62
3
 10
3902.550
 20
-5221.898
 30
1434.262
 70
    32
  0
VERTEX
  8
T38SSILL
 62
3
 10
3904.365
 20
-5219.666
 30
1434.242
 70
    32
  0
VERTEX
  8
T38SSILL
 62
3
 10
3904.303
 20
-5215.791
 30
1434.208
 70
    32
  0
SEQEND
  8
T38SSILL
  0
POLYLINE
  8
T38SSILL
 62
3
 66
     1
 70
     9
  0
VERTEX
  8
T38SSILL
 62
3
 10
4014.970
 20
-5206.083
 30
1434.611
 70
    32
  0
VERTEX
  8
T38SSILL
 62
3
 10
4133.357
 20
-5120.419
 30
1435.315
 70
    32
  0
VERTEX
  8
T38SSILL
 62
3
 10
4137.430
 20
-5126.807
 30
1435.329
 70
    32
  0
VERTEX
  8
T38SSILL
 62
3
 10
4148.935
 20
-5118.960
 30
1435.343
 70
    32
  0
VERTEX
  8
T38SSILL
 62
3
 10
4144.528
 20
-5112.337
 30
1435.329
 70
    32
  0
VERTEX
  8
T38SSILL
 62
3
 10
4158.102
 20
-5102.515
 30
1435.345
 70
    32
  0
VERTEX
  8
T38SSILL
 62
3
 10
4184.769
 20
-5139.625
 30
1435.416
 70
    32
  0
VERTEX
  8
T38SSILL
 62
3
 10
3977.586
 20
-5286.699
 30
1434.792
 70
    32
  0
VERTEX
  8
T38SSILL
 62
3
 10
3952.444
 20
-5251.327
 30
1434.507
 70
    32
  0
VERTEX
  8
T38SSILL
 62
3
 10
3962.531
 20
-5244.028
 30
1434.511
 70
    32
  0
VERTEX
  8
T38SSILL
 62
3
 10
3968.945
 20
-5252.915
 30
1434.583
 70
    32
  0
VERTEX
  8
T38SSILL
 62
3
 10
3971.256
 20
-5254.200
 30
1434.599
 70
    32
  0
VERTEX
  8
T38SSILL
 62
3
 10
3977.207
 20
-5251.639
 30
1434.610
 70
    32
  0
VERTEX
  8
T38SSILL
 62
3
 10
3978.841
 20
-5249.146
 30
1434.604
 70
    32
  0
VERTEX
  8
T38SSILL
 62
3
 10
3978.792
 20
-5246.063
 30
1434.588
 70
    32
  0
VERTEX
  8
T38SSILL
 62
3
 10
3971.922
 20
-5237.233
 30
1434.514
 70
    32
  0
VERTEX
  8
T38SSILL
 62
3
 10
4009.378
 20
-5210.130
 30
1434.586
 70
    32
  0
VERTEX
  8
T38SSILL
 62
3
 10
4012.927
 20
-5215.125
 30
1434.606
 70
    32
  0
VERTEX
  8
T38SSILL
 62
3
 10
4018.588
 20
-5210.983
 30
1434.632
 70
    32
  0
SEQEND
  8
T38SSILL
  0
POLYLINE
  8
T38SSILL
 62
3
 66
     1
 70
     9
  0
VERTEX
  8
T38SSILL
 62
3
 10
4189.732
 20
-5260.502
 30
1436.138
 70
    32
  0
VERTEX
  8
T38SSILL
 62
3
 10
4189.361
 20
-5250.910
 30
1436.151
 70
    32
  0
VERTEX
  8
T38SSILL
 62
3
 10
4185.109
 20
-5236.572
 30
1436.133
 70
    32
  0
VERTEX
  8
T38SSILL
 62
3
 10
4186.773
 20
-5232.432
 30
1436.157
 70
    32
  0
VERTEX
  8
T38SSILL
 62
3
 10
4190.024
 20
-5229.873
 30
1436.196
 70
    32
  0
VERTEX
  8
T38SSILL
 62
3
 10
4194.251
 20
-5230.745
 30
1436.238
 70
    32
  0
VERTEX
  8
T38SSILL
 62
3
 10
4206.239
 20
-5240.579
 30
1436.344
 70
    32
  0
VERTEX
  8
T38SSILL
 62
3
 10
4211.953
 20
-5237.048
 30
1436.410
 70
    32
  0
VERTEX
  8
T38SSILL
 62
3
 10
4214.334
 20
-5239.332
 30
1436.430
 70
    32
  0
VERTEX
  8
T38SSILL
 62
3
 10
4216.529
 20
-5236.599
 30
1436.458
 70
    32
  0
VERTEX
  8
T38SSILL
 62
3
 10
4221.724
 20
-5237.645
 30
1436.510
 70
    32
  0
VERTEX
  8
T38SSILL
 62
3
 10
4243.054
 20
-5222.546
 30
1436.727
 70
    32
  0
VERTEX
  8
T38SSILL
 62
3
 10
4187.766
 20
-5145.904
 30
1435.508
 70
    32
  0
VERTEX
  8
T38SSILL
 62
3
 10
4149.777
 20
-5172.496
 30
1435.320
 70
    32
  0
VERTEX
  8
T38SSILL
 62
3
 10
4153.113
 20
-5177.652
 30
1435.405
 70
    32
  0
VERTEX
  8
T38SSILL
 62
3
 10
4147.577
 20
-5181.862
 30
1435.381
 70
    32
  0
VERTEX
  8
T38SSILL
 62
3
 10
4144.129
 20
-5176.449
 30
1435.292
 70
    32
  0
VERTEX
  8
T38SSILL
 62
3
 10
4062.087
 20
-5234.051
 30
1434.864
 70
    32
  0
VERTEX
  8
T38SSILL
 62
3
 10
4067.947
 20
-5242.324
 30
1434.910
 70
    32
  0
VERTEX
  8
T38SSILL
 62
3
 10
4061.859
 20
-5246.471
 30
1434.858
 70
    32
  0
VERTEX
  8
T38SSILL
 62
3
 10
4056.541
 20
-5238.252
 30
1434.851
 70
    32
  0
VERTEX
  8
T38SSILL
 62
3
 10
4004.777
 20
-5277.456
 30
1434.838
 70
    32
  0
VERTEX
  8
T38SSILL
 62
3
 10
4009.532
 20
-5283.923
 30
1434.844
 70
    32
  0
VERTEX
  8
T38SSILL
 62
3
 10
4003.964
 20
-5287.621
 30
1434.842
 70
    32
  0
VERTEX
  8
T38SSILL
 62
3
 10
3999.399
 20
-5281.529
 30
1434.837
 70
    32
  0
VERTEX
  8
T38SSILL
 62
3
 10
3983.406
 20
-5293.642
 30
1434.833
 70
    32
  0
VERTEX
  8
T38SSILL
 62
3
 10
4001.679
 20
-5321.595
 30
1434.857
 70
    32
  0
VERTEX
  8
T38SSILL
 62
3
 10
4015.149
 20
-5323.857
 30
1434.866
 70
    32
  0
VERTEX
  8
T38SSILL
 62
3
 10
4209.039
 20
-5186.358
 30
1436.121
 70
    32
  0
VERTEX
  8
T38SSILL
 62
3
 10
4212.217
 20
-5191.369
 30
1436.204
 70
    32
  0
VERTEX
  8
T38SSILL
 62
3
 10
4167.945
 20
-5223.138
 30
1435.979
 70
    32
  0
VERTEX
  8
T38SSILL
 62
3
 10
4172.131
 20
-5229.432
 30
1436.011
 70
    32
  0
VERTEX
  8
T38SSILL
 62
3
 10
4165.784
 20
-5233.846
 30
1435.938
 70
    32
  0
VERTEX
  8
T38SSILL
 62
3
 10
4161.366
 20
-5227.859
 30
1435.903
 70
    32
  0
VERTEX
  8
T38SSILL
 62
3
 10
4084.467
 20
-5283.041
 30
1435.008
 70
    32
  0
VERTEX
  8
T38SSILL
 62
3
 10
4087.871
 20
-5287.729
 30
1435.035
 70
    32
  0
VERTEX
  8
T38SSILL
 62
3
 10
4081.613
 20
-5292.230
 30
1434.962
 70
    32
  0
VERTEX
  8
T38SSILL
 62
3
 10
4077.864
 20
-5287.779
 30
1434.931
 70
    32
  0
VERTEX
  8
T38SSILL
 62
3
 10
4011.387
 20
-5335.482
 30
1434.870
 70
    32
  0
VERTEX
  8
T38SSILL
 62
3
 10
4037.244
 20
-5371.077
 30
1434.902
 70
    32
  0
VERTEX
  8
T38SSILL
 62
3
 10
4050.955
 20
-5361.633
 30
1434.906
 70
    32
  0
VERTEX
  8
T38SSILL
 62
3
 10
4041.850
 20
-5340.880
 30
1434.890
 70
    32
  0
VERTEX
  8
T38SSILL
 62
3
 10
4044.047
 20
-5338.940
 30
1434.891
 70
    32
  0
VERTEX
  8
T38SSILL
 62
3
 10
4045.184
 20
-5335.681
 30
1434.890
 70
    32
  0
VERTEX
  8
T38SSILL
 62
3
 10
4047.822
 20
-5334.092
 30
1434.891
 70
    32
  0
VERTEX
  8
T38SSILL
 62
3
 10
4052.487
 20
-5334.611
 30
1434.894
 70
    32
  0
VERTEX
  8
T38SSILL
 62
3
 10
4055.828
 20
-5332.404
 30
1434.895
 70
    32
  0
VERTEX
  8
T38SSILL
 62
3
 10
4058.194
 20
-5327.470
 30
1434.894
 70
    32
  0
VERTEX
  8
T38SSILL
 62
3
 10
4062.061
 20
-5324.295
 30
1434.895
 70
    32
  0
VERTEX
  8
T38SSILL
 62
3
 10
4078.682
 20
-5317.309
 30
1434.901
 70
    32
  0
VERTEX
  8
T38SSILL
 62
3
 10
4091.969
 20
-5316.227
 30
1435.026
 70
    32
  0
VERTEX
  8
T38SSILL
 62
3
 10
4104.391
 20
-5322.540
 30
1435.143
 70
    32
  0
VERTEX
  8
T38SSILL
 62
3
 10
4158.530
 20
-5282.478
 30
1435.775
 70
    32
  0
SEQEND
  8
T38SSILL
  0
POLYLINE
  8
T38SSILL
 62
3
 66
     1
 70
     9
  0
VERTEX
  8
T38SSILL
 62
3
 10
4261.548
 20
-5462.273
 30
1435.631
 70
    32
  0
VERTEX
  8
T38SSILL
 62
3
 10
4310.188
 20
-5427.375
 30
1435.963
 70
    32
  0
VERTEX
  8
T38SSILL
 62
3
 10
4310.184
 20
-5425.348
 30
1435.973
 70
    32
  0
VERTEX
  8
T38SSILL
 62
3
 10
4303.648
 20
-5417.082
 30
1435.991
 70
    32
  0
VERTEX
  8
T38SSILL
 62
3
 10
4297.809
 20
-5405.554
 30
1436.027
 70
    32
  0
VERTEX
  8
T38SSILL
 62
3
 10
4292.071
 20
-5399.488
 30
1436.037
 70
    32
  0
VERTEX
  8
T38SSILL
 62
3
 10
4284.317
 20
-5398.624
 30
1436.015
 70
    32
  0
VERTEX
  8
T38SSILL
 62
3
 10
4282.199
 20
-5396.866
 30
1436.016
 70
    32
  0
VERTEX
  8
T38SSILL
 62
3
 10
4279.824
 20
-5398.193
 30
1436.002
 70
    32
  0
VERTEX
  8
T38SSILL
 62
3
 10
4265.190
 20
-5393.379
 30
1435.976
 70
    32
  0
VERTEX
  8
T38SSILL
 62
3
 10
4249.332
 20
-5392.531
 30
1435.927
 70
    32
  0
VERTEX
  8
T38SSILL
 62
3
 10
4236.995
 20
-5390.267
 30
1435.896
 70
    32
  0
VERTEX
  8
T38SSILL
 62
3
 10
4225.486
 20
-5404.738
 30
1435.787
 70
    32
  0
VERTEX
  8
T38SSILL
 62
3
 10
4222.424
 20
-5414.875
 30
1435.728
 70
    32
  0
VERTEX
  8
T38SSILL
 62
3
 10
4228.056
 20
-5412.309
 30
1435.759
 70
    32
  0
VERTEX
  8
T38SSILL
 62
3
 10
4250.445
 20
-5419.044
 30
1435.802
 70
    32
  0
VERTEX
  8
T38SSILL
 62
3
 10
4255.730
 20
-5418.769
 30
1435.821
 70
    32
  0
VERTEX
  8
T38SSILL
 62
3
 10
4265.787
 20
-5425.707
 30
1435.822
 70
    32
  0
VERTEX
  8
T38SSILL
 62
3
 10
4271.791
 20
-5432.036
 30
1435.811
 70
    32
  0
VERTEX
  8
T38SSILL
 62
3
 10
4265.985
 20
-5435.837
 30
1435.774
 70
    32
  0
SEQEND
  8
T38SSILL
  0
POLYLINE
  8
T38SSILL
 62
3
 66
     1
 70
     9
  0
VERTEX
  8
T38SSILL
 62
3
 10
4103.375
 20
-5462.337
 30
1434.985
 70
    32
  0
VERTEX
  8
T38SSILL
 62
3
 10
4126.487
 20
-5495.064
 30
1435.030
 70
    32
  0
VERTEX
  8
T38SSILL
 62
3
 10
4132.733
 20
-5491.263
 30
1435.057
 70
    32
  0
VERTEX
  8
T38SSILL
 62
3
 10
4137.149
 20
-5496.363
 30
1435.063
 70
    32
  0
VERTEX
  8
T38SSILL
 62
3
 10
4131.345
 20
-5501.132
 30
1435.057
 70
    32
  0
VERTEX
  8
T38SSILL
 62
3
 10
4148.840
 20
-5526.377
 30
1435.161
 70
    32
  0
VERTEX
  8
T38SSILL
 62
3
 10
4160.659
 20
-5533.575
 30
1435.209
 70
    32
  0
VERTEX
  8
T38SSILL
 62
3
 10
4164.093
 20
-5532.357
 30
1435.216
 70
    32
  0
VERTEX
  8
T38SSILL
 62
3
 10
4160.257
 20
-5527.253
 30
1435.194
 70
    32
  0
VERTEX
  8
T38SSILL
 62
3
 10
4166.779
 20
-5522.748
 30
1435.203
 70
    32
  0
VERTEX
  8
T38SSILL
 62
3
 10
4170.332
 20
-5527.859
 30
1435.224
 70
    32
  0
VERTEX
  8
T38SSILL
 62
3
 10
4253.456
 20
-5467.928
 30
1435.576
 70
    32
  0
VERTEX
  8
T38SSILL
 62
3
 10
4257.454
 20
-5442.197
 30
1435.714
 70
    32
  0
VERTEX
  8
T38SSILL
 62
3
 10
4255.683
 20
-5437.884
 30
1435.729
 70
    32
  0
VERTEX
  8
T38SSILL
 62
3
 10
4248.711
 20
-5431.909
 30
1435.734
 70
    32
  0
VERTEX
  8
T38SSILL
 62
3
 10
4233.456
 20
-5424.454
 30
1435.719
 70
    32
  0
VERTEX
  8
T38SSILL
 62
3
 10
4229.395
 20
-5420.498
 30
1435.724
 70
    32
  0
VERTEX
  8
T38SSILL
 62
3
 10
4223.228
 20
-5420.247
 30
1435.705
 70
    32
  0
VERTEX
  8
T38SSILL
 62
3
 10
4222.608
 20
-5418.398
 30
1435.712
 70
    32
  0
VERTEX
  8
T38SSILL
 62
3
 10
4219.081
 20
-5458.839
 30
1435.504
 70
    32
  0
VERTEX
  8
T38SSILL
 62
3
 10
4194.531
 20
-5471.312
 30
1435.361
 70
    32
  0
VERTEX
  8
T38SSILL
 62
3
 10
4187.806
 20
-5457.143
 30
1435.407
 70
    32
  0
VERTEX
  8
T38SSILL
 62
3
 10
4194.877
 20
-5426.649
 30
1435.578
 70
    32
  0
VERTEX
  8
T38SSILL
 62
3
 10
4180.383
 20
-5404.481
 30
1435.637
 70
    32
  0
VERTEX
  8
T38SSILL
 62
3
 10
4167.191
 20
-5414.551
 30
1435.544
 70
    32
  0
VERTEX
  8
T38SSILL
 62
3
 10
4166.043
 20
-5413.497
 30
1435.545
 70
    32
  0
VERTEX
  8
T38SSILL
 62
3
 10
4140.186
 20
-5433.196
 30
1435.315
 70
    32
  0
VERTEX
  8
T38SSILL
 62
3
 10
4147.350
 20
-5446.482
 30
1435.322
 70
    32
  0
VERTEX
  8
T38SSILL
 62
3
 10
4150.280
 20
-5457.223
 30
1435.280
 70
    32
  0
VERTEX
  8
T38SSILL
 62
3
 10
4137.085
 20
-5466.412
 30
1435.192
 70
    32
  0
VERTEX
  8
T38SSILL
 62
3
 10
4135.323
 20
-5466.063
 30
1435.187
 70
    32
  0
VERTEX
  8
T38SSILL
 62
3
 10
4115.468
 20
-5449.809
 30
1435.030
 70
    32
  0
VERTEX
  8
T38SSILL
 62
3
 10
4103.717
 20
-5459.066
 30
1434.984
 70
    32
  0
SEQEND
  8
T38SSILL
  0
POLYLINE
  8
T38SSILL
 62
3
 66
     1
 70
     9
  0
VERTEX
  8
T38SSILL
 62
3
 10
4093.710
 20
-5396.055
 30
1434.948
 70
    32
  0
VERTEX
  8
T38SSILL
 62
3
 10
4117.693
 20
-5378.898
 30
1435.180
 70
    32
  0
VERTEX
  8
T38SSILL
 62
3
 10
4114.200
 20
-5374.020
 30
1435.153
 70
    32
  0
VERTEX
  8
T38SSILL
 62
3
 10
4119.080
 20
-5370.529
 30
1435.209
 70
    32
  0
VERTEX
  8
T38SSILL
 62
3
 10
4113.027
 20
-5362.077
 30
1435.162
 70
    32
  0
VERTEX
  8
T38SSILL
 62
3
 10
4092.138
 20
-5372.955
 30
1434.936
 70
    32
  0
VERTEX
  8
T38SSILL
 62
3
 10
4084.723
 20
-5365.571
 30
1434.928
 70
    32
  0
VERTEX
  8
T38SSILL
 62
3
 10
4083.481
 20
-5361.698
 30
1434.925
 70
    32
  0
VERTEX
  8
T38SSILL
 62
3
 10
4076.680
 20
-5352.903
 30
1434.917
 70
    32
  0
VERTEX
  8
T38SSILL
 62
3
 10
4068.157
 20
-5363.316
 30
1434.917
 70
    32
  0
VERTEX
  8
T38SSILL
 62
3
 10
4072.135
 20
-5369.914
 30
1434.922
 70
    32
  0
VERTEX
  8
T38SSILL
 62
3
 10
4066.509
 20
-5375.476
 30
1434.922
 70
    32
  0
VERTEX
  8
T38SSILL
 62
3
 10
4053.459
 20
-5369.337
 30
1434.911
 70
    32
  0
VERTEX
  8
T38SSILL
 62
3
 10
4042.024
 20
-5377.202
 30
1434.908
 70
    32
  0
VERTEX
  8
T38SSILL
 62
3
 10
4065.701
 20
-5409.921
 30
1434.938
 70
    32
  0
VERTEX
  8
T38SSILL
 62
3
 10
4073.629
 20
-5410.420
 30
1434.943
 70
    32
  0
VERTEX
  8
T38SSILL
 62
3
 10
4083.550
 20
-5403.323
 30
1434.945
 70
    32
  0
VERTEX
  8
T38SSILL
 62
3
 10
4078.622
 20
-5396.592
 30
1434.939
 70
    32
  0
VERTEX
  8
T38SSILL
 62
3
 10
4081.107
 20
-5394.949
 30
1434.940
 70
    32
  0
VERTEX
  8
T38SSILL
 62
3
 10
4076.666
 20
-5388.228
 30
1434.934
 70
    32
  0
VERTEX
  8
T38SSILL
 62
3
 10
4082.736
 20
-5383.986
 30
1434.935
 70
    32
  0
VERTEX
  8
T38SSILL
 62
3
 10
4087.390
 20
-5390.793
 30
1434.941
 70
    32
  0
VERTEX
  8
T38SSILL
 62
3
 10
4089.178
 20
-5389.611
 30
1434.942
 70
    32
  0
SEQEND
  8
T38SSILL
  0
TEXT
  8
T38SSILL
 62
3
 10
2321.570
 20
-3878.515
 30
1437.146
 40
0.200
  1
3800
 41
 1.0 
  0
POLYLINE
  8
T38SSILL
 62
3
 66
     1
 70
     8
  0
VERTEX
  8
T38SSILL
 62
3
 10
2026.982
 20
-4786.432
 30
1434.000
 70
    32
  0
VERTEX
  8
T38SSILL
 62
3
 10
2026.970
 20
-4786.171
 30
1434.000
 70
    32
  0
VERTEX
  8
T38SSILL
 62
3
 10
2026.936
 20
-4785.911
 30
1434.000
 70
    32
  0
VERTEX
  8
T38SSILL
 62
3
 10
2026.880
 20
-4785.656
 30
1434.000
 70
    32
  0
VERTEX
  8
T38SSILL
 62
3
 10
2026.801
 20
-4785.406
 30
1434.000
 70
    32
  0
VERTEX
  8
T38SSILL
 62
3
 10
2026.701
 20
-4785.164
 30
1434.000
 70
    32
  0
VERTEX
  8
T38SSILL
 62
3
 10
2026.580
 20
-4784.932
 30
1434.000
 70
    32
  0
VERTEX
  8
T38SSILL
 62
3
 10
2026.439
 20
-4784.711
 30
1434.000
 70
    32
  0
VERTEX
  8
T38SSILL
 62
3
 10
2026.280
 20
-4784.504
 30
1434.000
 70
    32
  0
VERTEX
  8
T38SSILL
 62
3
 10
2026.103
 20
-4784.311
 30
1434.000
 70
    32
  0
VERTEX
  8
T38SSILL
 62
3
 10
2025.910
 20
-4784.134
 30
1434.000
 70
    32
  0
VERTEX
  8
T38SSILL
 62
3
 10
2025.703
 20
-4783.975
 30
1434.000
 70
    32
  0
VERTEX
  8
T38SSILL
 62
3
 10
2025.482
 20
-4783.834
 30
1434.000
 70
    32
  0
VERTEX
  8
T38SSILL
 62
3
 10
2025.250
 20
-4783.713
 30
1434.000
 70
    32
  0
VERTEX
  8
T38SSILL
 62
3
 10
2025.008
 20
-4783.613
 30
1434.000
 70
    32
  0
VERTEX
  8
T38SSILL
 62
3
 10
2024.758
 20
-4783.534
 30
1434.000
 70
    32
  0
VERTEX
  8
T38SSILL
 62
3
 10
2024.503
 20
-4783.478
 30
1434.000
 70
    32
  0
VERTEX
  8
T38SSILL
 62
3
 10
2024.243
 20
-4783.443
 30
1434.000
 70
    32
  0
VERTEX
  8
T38SSILL
 62
3
 10
2023.982
 20
-4783.432
 30
1434.000
 70
    32
  0
VERTEX
  8
T38SSILL
 62
3
 10
2023.720
 20
-4783.443
 30
1434.000
 70
    32
  0
VERTEX
  8
T38SSILL
 62
3
 10
2023.461
 20
-4783.478
 30
1434.000
 70
    32
  0
VERTEX
  8
T38SSILL
 62
3
 10
2023.205
 20
-4783.534
 30
1434.000
 70
    32
  0
VERTEX
  8
T38SSILL
 62
3
 10
2022.956
 20
-4783.613
 30
1434.000
 70
    32
  0
VERTEX
  8
T38SSILL
 62
3
 10
2022.714
 20
-4783.713
 30
1434.000
 70
    32
  0
VERTEX
  8
T38SSILL
 62
3
 10
2022.482
 20
-4783.834
 30
1434.000
 70
    32
  0
VERTEX
  8
T38SSILL
 62
3
 10
2022.261
 20
-4783.975
 30
1434.000
 70
    32
  0
VERTEX
  8
T38SSILL
 62
3
 10
2022.053
 20
-4784.134
 30
1434.000
 70
    32
  0
VERTEX
  8
T38SSILL
 62
3
 10
2021.860
 20
-4784.311
 30
1434.000
 70
    32
  0
VERTEX
  8
T38SSILL
 62
3
 10
2021.684
 20
-4784.504
 30
1434.000
 70
    32
  0
VERTEX
  8
T38SSILL
 62
3
 10
2021.524
 20
-4784.711
 30
1434.000
 70
    32
  0
VERTEX
  8
T38SSILL
 62
3
 10
2021.384
 20
-4784.932
 30
1434.000
 70
    32
  0
VERTEX
  8
T38SSILL
 62
3
 10
2021.263
 20
-4785.164
 30
1434.000
 70
    32
  0
VERTEX
  8
T38SSILL
 62
3
 10
2021.163
 20
-4785.406
 30
1434.000
 70
    32
  0
VERTEX
  8
T38SSILL
 62
3
 10
2021.084
 20
-4785.656
 30
1434.000
 70
    32
  0
VERTEX
  8
T38SSILL
 62
3
 10
2021.027
 20
-4785.911
 30
1434.000
 70
    32
  0
VERTEX
  8
T38SSILL
 62
3
 10
2020.993
 20
-4786.171
 30
1434.000
 70
    32
  0
VERTEX
  8
T38SSILL
 62
3
 10
2020.982
 20
-4786.432
 30
1434.000
 70
    32
  0
VERTEX
  8
T38SSILL
 62
3
 10
2020.993
 20
-4786.693
 30
1434.000
 70
    32
  0
VERTEX
  8
T38SSILL
 62
3
 10
2021.027
 20
-4786.953
 30
1434.000
 70
    32
  0
VERTEX
  8
T38SSILL
 62
3
 10
2021.084
 20
-4787.208
 30
1434.000
 70
    32
  0
VERTEX
  8
T38SSILL
 62
3
 10
2021.163
 20
-4787.458
 30
1434.000
 70
    32
  0
VERTEX
  8
T38SSILL
 62
3
 10
2021.263
 20
-4787.700
 30
1434.000
 70
    32
  0
VERTEX
  8
T38SSILL
 62
3
 10
2021.384
 20
-4787.932
 30
1434.000
 70
    32
  0
VERTEX
  8
T38SSILL
 62
3
 10
2021.524
 20
-4788.153
 30
1434.000
 70
    32
  0
VERTEX
  8
T38SSILL
 62
3
 10
2021.684
 20
-4788.360
 30
1434.000
 70
    32
  0
VERTEX
  8
T38SSILL
 62
3
 10
2021.860
 20
-4788.553
 30
1434.000
 70
    32
  0
VERTEX
  8
T38SSILL
 62
3
 10
2022.053
 20
-4788.730
 30
1434.000
 70
    32
  0
VERTEX
  8
T38SSILL
 62
3
 10
2022.261
 20
-4788.889
 30
1434.000
 70
    32
  0
VERTEX
  8
T38SSILL
 62
3
 10
2022.482
 20
-4789.030
 30
1434.000
 70
    32
  0
VERTEX
  8
T38SSILL
 62
3
 10
2022.714
 20
-4789.151
 30
1434.000
 70
    32
  0
VERTEX
  8
T38SSILL
 62
3
 10
2022.956
 20
-4789.251
 30
1434.000
 70
    32
  0
VERTEX
  8
T38SSILL
 62
3
 10
2023.205
 20
-4789.330
 30
1434.000
 70
    32
  0
VERTEX
  8
T38SSILL
 62
3
 10
2023.461
 20
-4789.386
 30
1434.000
 70
    32
  0
VERTEX
  8
T38SSILL
 62
3
 10
2023.720
 20
-4789.421
 30
1434.000
 70
    32
  0
VERTEX
  8
T38SSILL
 62
3
 10
2023.982
 20
-4789.432
 30
1434.000
 70
    32
  0
VERTEX
  8
T38SSILL
 62
3
 10
2024.243
 20
-4789.421
 30
1434.000
 70
    32
  0
VERTEX
  8
T38SSILL
 62
3
 10
2024.503
 20
-4789.386
 30
1434.000
 70
    32
  0
VERTEX
  8
T38SSILL
 62
3
 10
2024.758
 20
-4789.330
 30
1434.000
 70
    32
  0
VERTEX
  8
T38SSILL
 62
3
 10
2025.008
 20
-4789.251
 30
1434.000
 70
    32
  0
VERTEX
  8
T38SSILL
 62
3
 10
2025.250
 20
-4789.151
 30
1434.000
 70
    32
  0
VERTEX
  8
T38SSILL
 62
3
 10
2025.482
 20
-4789.030
 30
1434.000
 70
    32
  0
VERTEX
  8
T38SSILL
 62
3
 10
2025.703
 20
-4788.889
 30
1434.000
 70
    32
  0
VERTEX
  8
T38SSILL
 62
3
 10
2025.910
 20
-4788.730
 30
1434.000
 70
    32
  0
VERTEX
  8
T38SSILL
 62
3
 10
2026.103
 20
-4788.553
 30
1434.000
 70
    32
  0
VERTEX
  8
T38SSILL
 62
3
 10
2026.280
 20
-4788.360
 30
1434.000
 70
    32
  0
VERTEX
  8
T38SSILL
 62
3
 10
2026.439
 20
-4788.153
 30
1434.000
 70
    32
  0
VERTEX
  8
T38SSILL
 62
3
 10
2026.580
 20
-4787.932
 30
1434.000
 70
    32
  0
VERTEX
  8
T38SSILL
 62
3
 10
2026.701
 20
-4787.700
 30
1434.000
 70
    32
  0
VERTEX
  8
T38SSILL
 62
3
 10
2026.801
 20
-4787.458
 30
1434.000
 70
    32
  0
VERTEX
  8
T38SSILL
 62
3
 10
2026.880
 20
-4787.208
 30
1434.000
 70
    32
  0
VERTEX
  8
T38SSILL
 62
3
 10
2026.936
 20
-4786.953
 30
1434.000
 70
    32
  0
VERTEX
  8
T38SSILL
 62
3
 10
2026.970
 20
-4786.693
 30
1434.000
 70
    32
  0
VERTEX
  8
T38SSILL
 62
3
 10
2026.982
 20
-4786.432
 30
1434.000
 70
    32
  0
SEQEND
  8
T38SSILL
  0
POLYLINE
  8
T38SSILL
 62
1
 66
     1
 70
     9
  0
VERTEX
  8
T38SSILL
 62
1
 10
1613.467
 20
-5008.567
 30
1444.966
 70
    32
  0
VERTEX
  8
T38SSILL
 62
1
 10
1607.227
 20
-5012.945
 30
1444.706
 70
    32
  0
VERTEX
  8
T38SSILL
 62
1
 10
1607.842
 20
-5019.698
 30
1445.291
 70
    32
  0
VERTEX
  8
T38SSILL
 62
1
 10
1613.707
 20
-5024.669
 30
1445.324
 70
    32
  0
VERTEX
  8
T38SSILL
 62
1
 10
1614.796
 20
-5020.753
 30
1445.316
 70
    32
  0
VERTEX
  8
T38SSILL
 62
1
 10
1617.876
 20
-5014.090
 30
1444.906
 70
    32
  0
SEQEND
  8
T38SSILL
  0
POLYLINE
  8
T38SSILL
 62
1
 66
     1
 70
     9
  0
VERTEX
  8
T38SSILL
 62
1
 10
1612.214
 20
-4999.605
 30
1437.084
 70
    32
  0
VERTEX
  8
T38SSILL
 62
1
 10
1605.137
 20
-5004.232
 30
1437.652
 70
    32
  0
VERTEX
  8
T38SSILL
 62
1
 10
1601.600
 20
-5017.275
 30
1437.145
 70
    32
  0
VERTEX
  8
T38SSILL
 62
1
 10
1602.874
 20
-5024.663
 30
1435.734
 70
    32
  0
VERTEX
  8
T38SSILL
 62
1
 10
1622.588
 20
-5031.429
 30
1434.856
 70
    32
  0
VERTEX
  8
T38SSILL
 62
1
 10
1626.278
 20
-5019.988
 30
1438.940
 70
    32
  0
VERTEX
  8
T38SSILL
 62
1
 10
1620.894
 20
-5012.560
 30
1438.167
 70
    32
  0
VERTEX
  8
T38SSILL
 62
1
 10
1619.775
 20
-5006.917
 30
1436.029
 70
    32
  0
SEQEND
  8
T38SSILL
  0
LINE
  8
T38SSILL
 62
3
 10
1644.730
 20
-4905.946
 30
1442.455
 11
1643.558
 21
-4905.872
 31
1442.100
  0
LINE
  8
T38SSILL
 62
3
 10
1648.071
 20
-4915.130
 30
1442.424
 11
1646.724
 21
-4915.018
 31
1442.056
  0
POLYLINE
  8
T38SSILL
 62
3
 66
     1
 70
     8
  0
VERTEX
  8
T38SSILL
 62
3
 10
1804.021
 20
-4875.465
 30
1439.222
 70
    32
  0
VERTEX
  8
T38SSILL
 62
3
 10
1783.329
 20
-4889.887
 30
1436.732
 70
    32
  0
VERTEX
  8
T38SSILL
 62
3
 10
1759.903
 20
-4906.159
 30
1436.771
 70
    32
  0
VERTEX
  8
T38SSILL
 62
3
 10
1744.722
 20
-4917.163
 30
1436.801
 70
    32
  0
VERTEX
  8
T38SSILL
 62
3
 10
1634.926
 20
-4996.673
 30
1437.575
 70
    32
  0
VERTEX
  8
T38SSILL
 62
3
 10
1621.607
 20
-5005.764
 30
1437.477
 70
    32
  0
VERTEX
  8
T38SSILL
 62
3
 10
1621.199
 20
-5012.842
 30
1437.581
 70
    32
  0
VERTEX
  8
T38SSILL
 62
3
 10
1626.452
 20
-5020.402
 30
1437.240
 70
    32
  0
VERTEX
  8
T38SSILL
 62
3
 10
1638.350
 20
-5029.636
 30
1435.320
 70
    32
  0
VERTEX
  8
T38SSILL
 62
3
 10
1645.824
 20
-5032.329
 30
1433.423
 70
    32
  0
VERTEX
  8
T38SSILL
 62
3
 10
1647.258
 20
-5032.845
 30
1433.423
 70
    32
  0
VERTEX
  8
T38SSILL
 62
3
 10
1649.258
 20
-5033.332
 30
1433.062
 70
    32
  0
VERTEX
  8
T38SSILL
 62
3
 10
1660.415
 20
-5034.852
 30
1435.232
 70
    32
  0
VERTEX
  8
T38SSILL
 62
3
 10
1678.755
 20
-5033.829
 30
1438.834
 70
    32
  0
VERTEX
  8
T38SSILL
 62
3
 10
1685.755
 20
-5031.364
 30
1440.230
 70
    32
  0
VERTEX
  8
T38SSILL
 62
3
 10
1709.058
 20
-5030.480
 30
1443.269
 70
    32
  0
VERTEX
  8
T38SSILL
 62
3
 10
1718.675
 20
-5019.910
 30
1443.297
 70
    32
  0
VERTEX
  8
T38SSILL
 62
3
 10
1719.593
 20
-5008.759
 30
1441.369
 70
    32
  0
VERTEX
  8
T38SSILL
 62
3
 10
1718.760
 20
-4996.907
 30
1441.340
 70
    32
  0
VERTEX
  8
T38SSILL
 62
3
 10
1713.074
 20
-4982.372
 30
1441.397
 70
    32
  0
VERTEX
  8
T38SSILL
 62
3
 10
1668.543
 20
-4920.067
 30
1442.039
 70
    32
  0
VERTEX
  8
T38SSILL
 62
3
 10
1648.071
 20
-4915.130
 30
1442.424
 70
    32
  0
VERTEX
  8
T38SSILL
 62
3
 10
1646.724
 20
-4915.018
 30
1442.056
 70
    32
  0
VERTEX
  8
T38SSILL
 62
3
 10
1605.581
 20
-4913.790
 30
1438.070
 70
    32
  0
VERTEX
  8
T38SSILL
 62
3
 10
1600.195
 20
-4908.975
 30
1437.454
 70
    32
  0
VERTEX
  8
T38SSILL
 62
3
 10
1596.979
 20
-4908.565
 30
1437.045
 70
    32
  0
VERTEX
  8
T38SSILL
 62
3
 10
1578.202
 20
-4884.843
 30
1437.181
 70
    32
  0
VERTEX
  8
T38SSILL
 62
3
 10
1567.750
 20
-4857.774
 30
1437.181
 70
    32
  0
VERTEX
  8
T38SSILL
 62
3
 10
1552.802
 20
-4836.081
 30
1437.181
 70
    32
  0
VERTEX
  8
T38SSILL
 62
3
 10
1536.971
 20
-4828.766
 30
1437.181
 70
    32
  0
VERTEX
  8
T38SSILL
 62
3
 10
1514.297
 20
-4830.666
 30
1437.181
 70
    32
  0
VERTEX
  8
T38SSILL
 62
3
 10
1506.922
 20
-4838.530
 30
1437.181
 70
    32
  0
VERTEX
  8
T38SSILL
 62
3
 10
1506.356
 20
-4839.464
 30
1437.181
 70
    32
  0
VERTEX
  8
T38SSILL
 62
3
 10
1507.908
 20
-4842.726
 30
1437.181
 70
    32
  0
VERTEX
  8
T38SSILL
 62
3
 10
1507.986
 20
-4845.551
 30
1437.181
 70
    32
  0
VERTEX
  8
T38SSILL
 62
3
 10
1508.042
 20
-4851.401
 30
1437.181
 70
    32
  0
VERTEX
  8
T38SSILL
 62
3
 10
1506.451
 20
-4855.744
 30
1437.181
 70
    32
  0
VERTEX
  8
T38SSILL
 62
3
 10
1503.272
 20
-4859.249
 30
1437.181
 70
    32
  0
VERTEX
  8
T38SSILL
 62
3
 10
1516.144
 20
-4872.803
 30
1437.181
 70
    32
  0
VERTEX
  8
T38SSILL
 62
3
 10
1525.800
 20
-4874.382
 30
1437.181
 70
    32
  0
VERTEX
  8
T38SSILL
 62
3
 10
1528.189
 20
-4882.653
 30
1437.181
 70
    32
  0
VERTEX
  8
T38SSILL
 62
3
 10
1531.614
 20
-4890.770
 30
1437.181
 70
    32
  0
VERTEX
  8
T38SSILL
 62
3
 10
1540.218
 20
-4913.902
 30
1437.181
 70
    32
  0
VERTEX
  8
T38SSILL
 62
3
 10
1547.571
 20
-4934.465
 30
1437.181
 70
    32
  0
VERTEX
  8
T38SSILL
 62
3
 10
1557.477
 20
-4944.546
 30
1437.181
 70
    32
  0
VERTEX
  8
T38SSILL
 62
3
 10
1563.588
 20
-4949.749
 30
1437.181
 70
    32
  0
VERTEX
  8
T38SSILL
 62
3
 10
1570.545
 20
-4949.227
 30
1437.181
 70
    32
  0
VERTEX
  8
T38SSILL
 62
3
 10
1572.436
 20
-4948.985
 30
1437.181
 70
    32
  0
VERTEX
  8
T38SSILL
 62
3
 10
1574.239
 20
-4944.029
 30
1437.181
 70
    32
  0
VERTEX
  8
T38SSILL
 62
3
 10
1571.290
 20
-4936.459
 30
1437.181
 70
    32
  0
VERTEX
  8
T38SSILL
 62
3
 10
1561.507
 20
-4917.103
 30
1437.181
 70
    32
  0
VERTEX
  8
T38SSILL
 62
3
 10
1566.234
 20
-4915.473
 30
1437.181
 70
    32
  0
VERTEX
  8
T38SSILL
 62
3
 10
1570.773
 20
-4919.687
 30
1437.181
 70
    32
  0
VERTEX
  8
T38SSILL
 62
3
 10
1577.096
 20
-4919.808
 30
1437.181
 70
    32
  0
VERTEX
  8
T38SSILL
 62
3
 10
1583.570
 20
-4946.371
 30
1437.181
 70
    32
  0
VERTEX
  8
T38SSILL
 62
3
 10
1585.668
 20
-4956.457
 30
1437.181
 70
    32
  0
VERTEX
  8
T38SSILL
 62
3
 10
1588.640
 20
-4961.228
 30
1437.401
 70
    32
  0
VERTEX
  8
T38SSILL
 62
3
 10
1587.489
 20
-4970.551
 30
1437.479
 70
    32
  0
VERTEX
  8
T38SSILL
 62
3
 10
1602.320
 20
-4993.101
 30
1436.363
 70
    32
  0
VERTEX
  8
T38SSILL
 62
3
 10
1616.287
 20
-4995.113
 30
1437.749
 70
    32
  0
VERTEX
  8
T38SSILL
 62
3
 10
1621.095
 20
-4992.284
 30
1437.154
 70
    32
  0
VERTEX
  8
T38SSILL
 62
3
 10
1622.001
 20
-4990.001
 30
1437.195
 70
    32
  0
VERTEX
  8
T38SSILL
 62
3
 10
1623.247
 20
-4983.166
 30
1437.177
 70
    32
  0
VERTEX
  8
T38SSILL
 62
3
 10
1619.242
 20
-4977.362
 30
1437.674
 70
    32
  0
VERTEX
  8
T38SSILL
 62
3
 10
1628.071
 20
-4970.389
 30
1437.382
 70
    32
  0
VERTEX
  8
T38SSILL
 62
3
 10
1631.845
 20
-4975.595
 30
1437.851
 70
    32
  0
VERTEX
  8
T38SSILL
 62
3
 10
1645.620
 20
-4974.795
 30
1437.479
 70
    32
  0
VERTEX
  8
T38SSILL
 62
3
 10
1649.654
 20
-4972.829
 30
1437.872
 70
    32
  0
VERTEX
  8
T38SSILL
 62
3
 10
1687.009
 20
-4945.895
 30
1436.756
 70
    32
  0
VERTEX
  8
T38SSILL
 62
3
 10
1738.449
 20
-4908.823
 30
1436.655
 70
    32
  0
VERTEX
  8
T38SSILL
 62
3
 10
1753.914
 20
-4897.975
 30
1436.628
 70
    32
  0
VERTEX
  8
T38SSILL
 62
3
 10
1777.310
 20
-4881.691
 30
1436.590
 70
    32
  0
VERTEX
  8
T38SSILL
 62
3
 10
1798.153
 20
-4867.071
 30
1439.313
 70
    32
  0
SEQEND
  8
T38SSILL
  0
POLYLINE
  8
T38SSILL
 62
3
 66
     1
 70
     8
  0
VERTEX
  8
T38SSILL
 62
3
 10
1643.558
 20
-4905.872
 30
1442.100
 70
    32
  0
VERTEX
  8
T38SSILL
 62
3
 10
1636.125
 20
-4905.400
 30
1440.841
 70
    32
  0
VERTEX
  8
T38SSILL
 62
3
 10
1625.355
 20
-4899.422
 30
1439.683
 70
    32
  0
VERTEX
  8
T38SSILL
 62
3
 10
1597.494
 20
-4890.245
 30
1437.181
 70
    32
  0
VERTEX
  8
T38SSILL
 62
3
 10
1590.532
 20
-4882.101
 30
1437.181
 70
    32
  0
VERTEX
  8
T38SSILL
 62
3
 10
1585.721
 20
-4872.330
 30
1437.181
 70
    32
  0
VERTEX
  8
T38SSILL
 62
3
 10
1582.998
 20
-4862.908
 30
1437.181
 70
    32
  0
VERTEX
  8
T38SSILL
 62
3
 10
1572.722
 20
-4833.657
 30
1437.181
 70
    32
  0
VERTEX
  8
T38SSILL
 62
3
 10
1567.007
 20
-4833.083
 30
1437.181
 70
    32
  0
VERTEX
  8
T38SSILL
 62
3
 10
1540.552
 20
-4794.059
 30
1437.181
 70
    32
  0
VERTEX
  8
T38SSILL
 62
3
 10
1523.964
 20
-4776.135
 30
1437.181
 70
    32
  0
VERTEX
  8
T38SSILL
 62
3
 10
1514.767
 20
-4782.810
 30
1437.181
 70
    32
  0
VERTEX
  8
T38SSILL
 62
3
 10
1531.998
 20
-4807.095
 30
1437.181
 70
    32
  0
VERTEX
  8
T38SSILL
 62
3
 10
1527.624
 20
-4814.765
 30
1437.181
 70
    32
  0
VERTEX
  8
T38SSILL
 62
3
 10
1517.116
 20
-4817.937
 30
1437.181
 70
    32
  0
VERTEX
  8
T38SSILL
 62
3
 10
1495.447
 20
-4812.301
 30
1437.181
 70
    32
  0
VERTEX
  8
T38SSILL
 62
3
 10
1492.814
 20
-4813.314
 30
1437.181
 70
    32
  0
VERTEX
  8
T38SSILL
 62
3
 10
1492.805
 20
-4813.530
 30
1437.181
 70
    32
  0
VERTEX
  8
T38SSILL
 62
3
 10
1490.775
 20
-4811.672
 30
1437.181
 70
    32
  0
VERTEX
  8
T38SSILL
 62
3
 10
1491.657
 20
-4807.304
 30
1437.181
 70
    32
  0
VERTEX
  8
T38SSILL
 62
3
 10
1489.758
 20
-4803.731
 30
1437.181
 70
    32
  0
VERTEX
  8
T38SSILL
 62
3
 10
1486.774
 20
-4800.794
 30
1437.181
 70
    32
  0
VERTEX
  8
T38SSILL
 62
3
 10
1483.554
 20
-4799.856
 30
1437.181
 70
    32
  0
VERTEX
  8
T38SSILL
 62
3
 10
1477.423
 20
-4801.441
 30
1437.181
 70
    32
  0
VERTEX
  8
T38SSILL
 62
3
 10
1473.981
 20
-4803.429
 30
1437.181
 70
    32
  0
VERTEX
  8
T38SSILL
 62
3
 10
1473.855
 20
-4806.899
 30
1437.181
 70
    32
  0
VERTEX
  8
T38SSILL
 62
3
 10
1473.461
 20
-4806.990
 30
1437.181
 70
    32
  0
VERTEX
  8
T38SSILL
 62
3
 10
1470.914
 20
-4793.597
 30
1437.181
 70
    32
  0
VERTEX
  8
T38SSILL
 62
3
 10
1467.953
 20
-4786.517
 30
1437.181
 70
    32
  0
VERTEX
  8
T38SSILL
 62
3
 10
1463.790
 20
-4775.219
 30
1437.181
 70
    32
  0
VERTEX
  8
T38SSILL
 62
3
 10
1463.057
 20
-4773.375
 30
1437.181
 70
    32
  0
VERTEX
  8
T38SSILL
 62
3
 10
1454.120
 20
-4775.902
 30
1436.865
 70
    32
  0
VERTEX
  8
T38SSILL
 62
3
 10
1451.786
 20
-4778.846
 30
1436.806
 70
    32
  0
VERTEX
  8
T38SSILL
 62
3
 10
1452.072
 20
-4784.586
 30
1436.903
 70
    32
  0
VERTEX
  8
T38SSILL
 62
3
 10
1450.378
 20
-4787.897
 30
1437.015
 70
    32
  0
VERTEX
  8
T38SSILL
 62
3
 10
1453.358
 20
-4796.289
 30
1436.986
 70
    32
  0
VERTEX
  8
T38SSILL
 62
3
 10
1457.357
 20
-4809.226
 30
1437.188
 70
    32
  0
VERTEX
  8
T38SSILL
 62
3
 10
1460.748
 20
-4817.481
 30
1437.284
 70
    32
  0
VERTEX
  8
T38SSILL
 62
3
 10
1461.368
 20
-4818.784
 30
1437.295
 70
    32
  0
VERTEX
  8
T38SSILL
 62
3
 10
1450.244
 20
-4824.330
 30
1437.890
 70
    32
  0
VERTEX
  8
T38SSILL
 62
3
 10
1444.309
 20
-4832.614
 30
1438.356
 70
    32
  0
VERTEX
  8
T38SSILL
 62
3
 10
1443.583
 20
-4836.363
 30
1438.115
 70
    32
  0
VERTEX
  8
T38SSILL
 62
3
 10
1444.163
 20
-4839.684
 30
1438.159
 70
    32
  0
VERTEX
  8
T38SSILL
 62
3
 10
1446.326
 20
-4842.366
 30
1438.144
 70
    32
  0
VERTEX
  8
T38SSILL
 62
3
 10
1452.344
 20
-4843.687
 30
1438.346
 70
    32
  0
VERTEX
  8
T38SSILL
 62
3
 10
1470.359
 20
-4849.247
 30
1437.788
 70
    32
  0
VERTEX
  8
T38SSILL
 62
3
 10
1473.357
 20
-4849.728
 30
1437.181
 70
    32
  0
VERTEX
  8
T38SSILL
 62
3
 10
1477.393
 20
-4846.787
 30
1437.181
 70
    32
  0
VERTEX
  8
T38SSILL
 62
3
 10
1480.462
 20
-4846.124
 30
1437.181
 70
    32
  0
VERTEX
  8
T38SSILL
 62
3
 10
1481.457
 20
-4848.530
 30
1437.181
 70
    32
  0
VERTEX
  8
T38SSILL
 62
3
 10
1485.026
 20
-4858.585
 30
1437.181
 70
    32
  0
VERTEX
  8
T38SSILL
 62
3
 10
1490.275
 20
-4864.271
 30
1437.181
 70
    32
  0
VERTEX
  8
T38SSILL
 62
3
 10
1495.745
 20
-4862.768
 30
1437.181
 70
    32
  0
VERTEX
  8
T38SSILL
 62
3
 10
1507.229
 20
-4874.256
 30
1437.181
 70
    32
  0
VERTEX
  8
T38SSILL
 62
3
 10
1515.200
 20
-4882.215
 30
1437.181
 70
    32
  0
VERTEX
  8
T38SSILL
 62
3
 10
1522.194
 20
-4889.929
 30
1437.181
 70
    32
  0
VERTEX
  8
T38SSILL
 62
3
 10
1523.835
 20
-4893.759
 30
1437.181
 70
    32
  0
VERTEX
  8
T38SSILL
 62
3
 10
1525.807
 20
-4897.224
 30
1437.181
 70
    32
  0
VERTEX
  8
T38SSILL
 62
3
 10
1531.506
 20
-4915.930
 30
1437.181
 70
    32
  0
VERTEX
  8
T38SSILL
 62
3
 10
1534.823
 20
-4924.060
 30
1437.181
 70
    32
  0
VERTEX
  8
T38SSILL
 62
3
 10
1533.700
 20
-4926.942
 30
1437.181
 70
    32
  0
VERTEX
  8
T38SSILL
 62
3
 10
1537.519
 20
-4933.373
 30
1437.181
 70
    32
  0
VERTEX
  8
T38SSILL
 62
3
 10
1536.986
 20
-4936.460
 30
1437.181
 70
    32
  0
VERTEX
  8
T38SSILL
 62
3
 10
1542.801
 20
-4944.475
 30
1437.181
 70
    32
  0
VERTEX
  8
T38SSILL
 62
3
 10
1539.596
 20
-4951.043
 30
1437.181
 70
    32
  0
VERTEX
  8
T38SSILL
 62
3
 10
1550.662
 20
-4956.823
 30
1437.181
 70
    32
  0
VERTEX
  8
T38SSILL
 62
3
 10
1556.381
 20
-4958.906
 30
1437.181
 70
    32
  0
VERTEX
  8
T38SSILL
 62
3
 10
1559.349
 20
-4962.579
 30
1437.181
 70
    32
  0
VERTEX
  8
T38SSILL
 62
3
 10
1566.709
 20
-4962.671
 30
1437.181
 70
    32
  0
VERTEX
  8
T38SSILL
 62
3
 10
1577.672
 20
-4976.218
 30
1437.181
 70
    32
  0
VERTEX
  8
T38SSILL
 62
3
 10
1593.643
 20
-4999.486
 30
1438.658
 70
    32
  0
VERTEX
  8
T38SSILL
 62
3
 10
1594.489
 20
-5006.433
 30
1438.880
 70
    32
  0
VERTEX
  8
T38SSILL
 62
3
 10
1589.847
 20
-5013.188
 30
1438.570
 70
    32
  0
VERTEX
  8
T38SSILL
 62
3
 10
1586.921
 20
-5015.671
 30
1438.338
 70
    32
  0
VERTEX
  8
T38SSILL
 62
3
 10
1583.049
 20
-5016.931
 30
1437.181
 70
    32
  0
VERTEX
  8
T38SSILL
 62
3
 10
1575.419
 20
-5014.960
 30
1437.181
 70
    32
  0
VERTEX
  8
T38SSILL
 62
3
 10
1567.287
 20
-5008.249
 30
1437.181
 70
    32
  0
VERTEX
  8
T38SSILL
 62
3
 10
1559.628
 20
-4994.983
 30
1437.181
 70
    32
  0
VERTEX
  8
T38SSILL
 62
3
 10
1557.212
 20
-4995.627
 30
1437.181
 70
    32
  0
VERTEX
  8
T38SSILL
 62
3
 10
1550.615
 20
-4985.254
 30
1437.181
 70
    32
  0
VERTEX
  8
T38SSILL
 62
3
 10
1535.132
 20
-4952.544
 30
1437.181
 70
    32
  0
VERTEX
  8
T38SSILL
 62
3
 10
1528.353
 20
-4956.046
 30
1437.181
 70
    32
  0
VERTEX
  8
T38SSILL
 62
3
 10
1540.770
 20
-4980.799
 30
1437.181
 70
    32
  0
VERTEX
  8
T38SSILL
 62
3
 10
1544.664
 20
-4990.009
 30
1437.181
 70
    32
  0
VERTEX
  8
T38SSILL
 62
3
 10
1544.016
 20
-4993.244
 30
1437.181
 70
    32
  0
VERTEX
  8
T38SSILL
 62
3
 10
1552.026
 20
-5005.054
 30
1437.181
 70
    32
  0
VERTEX
  8
T38SSILL
 62
3
 10
1560.717
 20
-5015.179
 30
1437.181
 70
    32
  0
VERTEX
  8
T38SSILL
 62
3
 10
1564.447
 20
-5022.364
 30
1437.181
 70
    32
  0
VERTEX
  8
T38SSILL
 62
3
 10
1556.493
 20
-5030.050
 30
1437.181
 70
    32
  0
VERTEX
  8
T38SSILL
 62
3
 10
1544.626
 20
-5013.842
 30
1437.181
 70
    32
  0
VERTEX
  8
T38SSILL
 62
3
 10
1540.483
 20
-5001.299
 30
1437.181
 70
    32
  0
VERTEX
  8
T38SSILL
 62
3
 10
1538.667
 20
-5002.137
 30
1437.181
 70
    32
  0
VERTEX
  8
T38SSILL
 62
3
 10
1527.943
 20
-4987.069
 30
1437.181
 70
    32
  0
VERTEX
  8
T38SSILL
 62
3
 10
1521.006
 20
-4978.285
 30
1437.181
 70
    32
  0
VERTEX
  8
T38SSILL
 62
3
 10
1517.215
 20
-4979.562
 30
1437.181
 70
    32
  0
VERTEX
  8
T38SSILL
 62
3
 10
1521.044
 20
-4992.618
 30
1437.181
 70
    32
  0
VERTEX
  8
T38SSILL
 62
3
 10
1526.744
 20
-5002.580
 30
1437.181
 70
    32
  0
VERTEX
  8
T38SSILL
 62
3
 10
1534.410
 20
-5011.054
 30
1437.181
 70
    32
  0
VERTEX
  8
T38SSILL
 62
3
 10
1537.227
 20
-5017.445
 30
1437.181
 70
    32
  0
VERTEX
  8
T38SSILL
 62
3
 10
1537.136
 20
-5018.322
 30
1437.181
 70
    32
  0
VERTEX
  8
T38SSILL
 62
3
 10
1534.020
 20
-5028.333
 30
1437.181
 70
    32
  0
VERTEX
  8
T38SSILL
 62
3
 10
1528.508
 20
-5033.188
 30
1437.181
 70
    32
  0
VERTEX
  8
T38SSILL
 62
3
 10
1528.140
 20
-5039.678
 30
1437.181
 70
    32
  0
VERTEX
  8
T38SSILL
 62
3
 10
1533.260
 20
-5039.608
 30
1437.181
 70
    32
  0
VERTEX
  8
T38SSILL
 62
3
 10
1539.865
 20
-5044.244
 30
1437.181
 70
    32
  0
VERTEX
  8
T38SSILL
 62
3
 10
1540.811
 20
-5045.381
 30
1437.181
 70
    32
  0
VERTEX
  8
T38SSILL
 62
3
 10
1542.216
 20
-5056.042
 30
1437.181
 70
    32
  0
VERTEX
  8
T38SSILL
 62
3
 10
1544.900
 20
-5060.062
 30
1437.181
 70
    32
  0
VERTEX
  8
T38SSILL
 62
3
 10
1544.710
 20
-5078.584
 30
1437.181
 70
    32
  0
VERTEX
  8
T38SSILL
 62
3
 10
1550.346
 20
-5087.038
 30
1437.181
 70
    32
  0
VERTEX
  8
T38SSILL
 62
3
 10
1555.512
 20
-5087.816
 30
1437.181
 70
    32
  0
VERTEX
  8
T38SSILL
 62
3
 10
1560.765
 20
-5098.241
 30
1437.181
 70
    32
  0
VERTEX
  8
T38SSILL
 62
3
 10
1565.698
 20
-5113.942
 30
1437.181
 70
    32
  0
VERTEX
  8
T38SSILL
 62
3
 10
1573.310
 20
-5114.141
 30
1437.181
 70
    32
  0
VERTEX
  8
T38SSILL
 62
3
 10
1580.747
 20
-5124.746
 30
1437.181
 70
    32
  0
VERTEX
  8
T38SSILL
 62
3
 10
1580.920
 20
-5129.738
 30
1437.181
 70
    32
  0
VERTEX
  8
T38SSILL
 62
3
 10
1577.351
 20
-5133.446
 30
1437.181
 70
    32
  0
VERTEX
  8
T38SSILL
 62
3
 10
1576.905
 20
-5142.734
 30
1437.181
 70
    32
  0
VERTEX
  8
T38SSILL
 62
3
 10
1560.784
 20
-5167.404
 30
1437.181
 70
    32
  0
VERTEX
  8
T38SSILL
 62
3
 10
1567.611
 20
-5173.314
 30
1437.181
 70
    32
  0
VERTEX
  8
T38SSILL
 62
3
 10
1572.960
 20
-5164.822
 30
1437.181
 70
    32
  0
VERTEX
  8
T38SSILL
 62
3
 10
1590.311
 20
-5160.023
 30
1437.181
 70
    32
  0
VERTEX
  8
T38SSILL
 62
3
 10
1588.532
 20
-5154.437
 30
1437.181
 70
    32
  0
VERTEX
  8
T38SSILL
 62
3
 10
1587.054
 20
-5149.932
 30
1437.181
 70
    32
  0
VERTEX
  8
T38SSILL
 62
3
 10
1587.063
 20
-5145.236
 30
1437.181
 70
    32
  0
VERTEX
  8
T38SSILL
 62
3
 10
1594.838
 20
-5142.019
 30
1437.181
 70
    32
  0
VERTEX
  8
T38SSILL
 62
3
 10
1593.869
 20
-5132.490
 30
1437.181
 70
    32
  0
VERTEX
  8
T38SSILL
 62
3
 10
1598.648
 20
-5124.942
 30
1437.181
 70
    32
  0
VERTEX
  8
T38SSILL
 62
3
 10
1588.827
 20
-5116.356
 30
1437.181
 70
    32
  0
VERTEX
  8
T38SSILL
 62
3
 10
1580.728
 20
-5106.664
 30
1437.181
 70
    32
  0
VERTEX
  8
T38SSILL
 62
3
 10
1580.207
 20
-5102.590
 30
1437.181
 70
    32
  0
VERTEX
  8
T38SSILL
 62
3
 10
1582.295
 20
-5101.215
 30
1437.181
 70
    32
  0
VERTEX
  8
T38SSILL
 62
3
 10
1596.472
 20
-5106.233
 30
1437.181
 70
    32
  0
VERTEX
  8
T38SSILL
 62
3
 10
1601.232
 20
-5116.478
 30
1437.181
 70
    32
  0
VERTEX
  8
T38SSILL
 62
3
 10
1605.820
 20
-5127.715
 30
1438.181
 70
    32
  0
VERTEX
  8
T38SSILL
 62
3
 10
1613.268
 20
-5126.846
 30
1439.787
 70
    32
  0
VERTEX
  8
T38SSILL
 62
3
 10
1617.672
 20
-5122.405
 30
1439.000
 70
    32
  0
VERTEX
  8
T38SSILL
 62
3
 10
1613.878
 20
-5116.172
 30
1438.970
 70
    32
  0
VERTEX
  8
T38SSILL
 62
3
 10
1617.938
 20
-5111.754
 30
1438.105
 70
    32
  0
VERTEX
  8
T38SSILL
 62
3
 10
1617.517
 20
-5109.051
 30
1438.033
 70
    32
  0
VERTEX
  8
T38SSILL
 62
3
 10
1602.886
 20
-5095.381
 30
1438.491
 70
    32
  0
VERTEX
  8
T38SSILL
 62
3
 10
1588.626
 20
-5089.714
 30
1437.181
 70
    32
  0
VERTEX
  8
T38SSILL
 62
3
 10
1584.956
 20
-5082.213
 30
1437.181
 70
    32
  0
VERTEX
  8
T38SSILL
 62
3
 10
1574.151
 20
-5075.735
 30
1437.181
 70
    32
  0
VERTEX
  8
T38SSILL
 62
3
 10
1572.621
 20
-5056.561
 30
1437.181
 70
    32
  0
VERTEX
  8
T38SSILL
 62
3
 10
1565.029
 20
-5047.771
 30
1437.181
 70
    32
  0
VERTEX
  8
T38SSILL
 62
3
 10
1566.865
 20
-5045.439
 30
1437.181
 70
    32
  0
VERTEX
  8
T38SSILL
 62
3
 10
1573.540
 20
-5041.153
 30
1437.181
 70
    32
  0
VERTEX
  8
T38SSILL
 62
3
 10
1581.403
 20
-5041.567
 30
1437.181
 70
    32
  0
VERTEX
  8
T38SSILL
 62
3
 10
1583.211
 20
-5045.244
 30
1437.181
 70
    32
  0
VERTEX
  8
T38SSILL
 62
3
 10
1590.205
 20
-5041.766
 30
1439.183
 70
    32
  0
VERTEX
  8
T38SSILL
 62
3
 10
1586.737
 20
-5034.450
 30
1437.181
 70
    32
  0
VERTEX
  8
T38SSILL
 62
3
 10
1587.083
 20
-5032.230
 30
1437.181
 70
    32
  0
VERTEX
  8
T38SSILL
 62
3
 10
1595.839
 20
-5026.306
 30
1437.412
 70
    32
  0
VERTEX
  8
T38SSILL
 62
3
 10
1602.331
 20
-5025.136
 30
1437.014
 70
    32
  0
VERTEX
  8
T38SSILL
 62
3
 10
1607.722
 20
-5030.404
 30
1437.639
 70
    32
  0
VERTEX
  8
T38SSILL
 62
3
 10
1621.874
 20
-5032.680
 30
1437.048
 70
    32
  0
VERTEX
  8
T38SSILL
 62
3
 10
1634.809
 20
-5043.368
 30
1435.104
 70
    32
  0
VERTEX
  8
T38SSILL
 62
3
 10
1644.090
 20
-5046.805
 30
1433.911
 70
    32
  0
VERTEX
  8
T38SSILL
 62
3
 10
1645.849
 20
-5047.318
 30
1432.479
 70
    32
  0
VERTEX
  8
T38SSILL
 62
3
 10
1660.002
 20
-5046.833
 30
1435.032
 70
    32
  0
VERTEX
  8
T38SSILL
 62
3
 10
1675.092
 20
-5044.494
 30
1438.011
 70
    32
  0
VERTEX
  8
T38SSILL
 62
3
 10
1687.767
 20
-5043.871
 30
1440.499
 70
    32
  0
VERTEX
  8
T38SSILL
 62
3
 10
1705.496
 20
-5042.516
 30
1443.266
 70
    32
  0
VERTEX
  8
T38SSILL
 62
3
 10
1710.220
 20
-5045.852
 30
1443.287
 70
    32
  0
VERTEX
  8
T38SSILL
 62
3
 10
1715.779
 20
-5056.762
 30
1443.317
 70
    32
  0
SEQEND
  8
T38SSILL
  0
POLYLINE
  8
T38SSILL
 62
3
 66
     1
 70
     8
  0
VERTEX
  8
T38SSILL
 62
3
 10
1644.730
 20
-4905.946
 30
1442.455
 70
    32
  0
VERTEX
  8
T38SSILL
 62
3
 10
1649.163
 20
-4906.228
 30
1442.369
 70
    32
  0
VERTEX
  8
T38SSILL
 62
3
 10
1652.300
 20
-4897.339
 30
1442.273
 70
    32
  0
VERTEX
  8
T38SSILL
 62
3
 10
1639.566
 20
-4879.523
 30
1442.457
 70
    32
  0
VERTEX
  8
T38SSILL
 62
3
 10
1607.445
 20
-4860.463
 30
1442.996
 70
    32
  0
VERTEX
  8
T38SSILL
 62
3
 10
1604.774
 20
-4865.978
 30
1442.955
 70
    32
  0
VERTEX
  8
T38SSILL
 62
3
 10
1593.145
 20
-4868.342
 30
1442.918
 70
    32
  0
VERTEX
  8
T38SSILL
 62
3
 10
1592.347
 20
-4867.509
 30
1442.922
 70
    32
  0
VERTEX
  8
T38SSILL
 62
3
 10
1591.141
 20
-4857.532
 30
1442.985
 70
    32
  0
VERTEX
  8
T38SSILL
 62
3
 10
1586.518
 20
-4842.986
 30
1443.071
 70
    32
  0
VERTEX
  8
T38SSILL
 62
3
 10
1576.991
 20
-4825.876
 30
1443.164
 70
    32
  0
VERTEX
  8
T38SSILL
 62
3
 10
1569.311
 20
-4821.187
 30
1443.181
 70
    32
  0
VERTEX
  8
T38SSILL
 62
3
 10
1563.570
 20
-4812.995
 30
1443.224
 70
    32
  0
VERTEX
  8
T38SSILL
 62
3
 10
1557.549
 20
-4791.715
 30
1443.351
 70
    32
  0
VERTEX
  8
T38SSILL
 62
3
 10
1548.318
 20
-4776.862
 30
1443.430
 70
    32
  0
VERTEX
  8
T38SSILL
 62
3
 10
1538.768
 20
-4756.661
 30
1443.321
 70
    32
  0
VERTEX
  8
T38SSILL
 62
3
 10
1541.704
 20
-4749.996
 30
1443.049
 70
    32
  0
VERTEX
  8
T38SSILL
 62
3
 10
1539.622
 20
-4742.133
 30
1442.785
 70
    32
  0
VERTEX
  8
T38SSILL
 62
3
 10
1480.637
 20
-4659.212
 30
1441.046
 70
    32
  0
VERTEX
  8
T38SSILL
 62
3
 10
1488.996
 20
-4654.610
 30
1440.985
 70
    32
  0
VERTEX
  8
T38SSILL
 62
3
 10
1553.705
 20
-4744.799
 30
1442.739
 70
    32
  0
VERTEX
  8
T38SSILL
 62
3
 10
1566.779
 20
-4754.280
 30
1442.950
 70
    32
  0
VERTEX
  8
T38SSILL
 62
3
 10
1578.942
 20
-4767.507
 30
1443.247
 70
    32
  0
VERTEX
  8
T38SSILL
 62
3
 10
1597.208
 20
-4795.099
 30
1442.972
 70
    32
  0
VERTEX
  8
T38SSILL
 62
3
 10
1616.529
 20
-4818.845
 30
1442.681
 70
    32
  0
VERTEX
  8
T38SSILL
 62
3
 10
1624.426
 20
-4839.133
 30
1442.602
 70
    32
  0
VERTEX
  8
T38SSILL
 62
3
 10
1647.088
 20
-4872.817
 30
1442.283
 70
    32
  0
VERTEX
  8
T38SSILL
 62
3
 10
1723.933
 20
-4981.061
 30
1441.178
 70
    32
  0
VERTEX
  8
T38SSILL
 62
3
 10
1727.111
 20
-4987.439
 30
1441.140
 70
    32
  0
VERTEX
  8
T38SSILL
 62
3
 10
1730.106
 20
-5001.093
 30
1441.132
 70
    32
  0
VERTEX
  8
T38SSILL
 62
3
 10
1727.711
 20
-5026.527
 30
1441.276
 70
    32
  0
VERTEX
  8
T38SSILL
 62
3
 10
1741.307
 20
-5026.477
 30
1441.008
 70
    32
  0
VERTEX
  8
T38SSILL
 62
3
 10
1749.171
 20
-5019.301
 30
1440.826
 70
    32
  0
VERTEX
  8
T38SSILL
 62
3
 10
1751.133
 20
-5029.594
 30
1440.826
 70
    32
  0
VERTEX
  8
T38SSILL
 62
3
 10
1731.894
 20
-5046.812
 30
1441.271
 70
    32
  0
VERTEX
  8
T38SSILL
 62
3
 10
1725.313
 20
-5064.305
 30
1441.467
 70
    32
  0
VERTEX
  8
T38SSILL
 62
3
 10
1708.569
 20
-5263.004
 30
1440.569
 70
    32
  0
VERTEX
  8
T38SSILL
 62
3
 10
1727.370
 20
-5262.047
 30
1440.610
 70
    32
  0
VERTEX
  8
T38SSILL
 62
3
 10
1728.797
 20
-5270.657
 30
1440.556
 70
    32
  0
VERTEX
  8
T38SSILL
 62
3
 10
1718.392
 20
-5273.806
 30
1440.517
 70
    32
  0
VERTEX
  8
T38SSILL
 62
3
 10
1710.638
 20
-5274.617
 30
1440.498
 70
    32
  0
VERTEX
  8
T38SSILL
 62
3
 10
1713.245
 20
-5281.405
 30
1440.458
 70
    32
  0
VERTEX
  8
T38SSILL
 62
3
 10
1745.770
 20
-5327.099
 30
1440.221
 70
    32
  0
VERTEX
  8
T38SSILL
 62
3
 10
1761.021
 20
-5331.293
 30
1440.222
 70
    32
  0
VERTEX
  8
T38SSILL
 62
3
 10
1768.443
 20
-5332.129
 30
1440.230
 70
    32
  0
VERTEX
  8
T38SSILL
 62
3
 10
1774.756
 20
-5331.271
 30
1440.247
 70
    32
  0
VERTEX
  8
T38SSILL
 62
3
 10
1797.152
 20
-5322.966
 30
1440.341
 70
    32
  0
VERTEX
  8
T38SSILL
 62
3
 10
1808.425
 20
-5316.810
 30
1440.402
 70
    32
  0
VERTEX
  8
T38SSILL
 62
3
 10
1820.806
 20
-5331.621
 30
1440.328
 70
    32
  0
VERTEX
  8
T38SSILL
 62
3
 10
1823.660
 20
-5339.205
 30
1440.284
 70
    32
  0
VERTEX
  8
T38SSILL
 62
3
 10
1823.899
 20
-5343.905
 30
1440.254
 70
    32
  0
VERTEX
  8
T38SSILL
 62
3
 10
1816.764
 20
-5353.258
 30
1440.181
 70
    32
  0
VERTEX
  8
T38SSILL
 62
3
 10
1800.268
 20
-5362.843
 30
1440.089
 70
    32
  0
VERTEX
  8
T38SSILL
 62
3
 10
1795.380
 20
-5358.453
 30
1440.108
 70
    32
  0
VERTEX
  8
T38SSILL
 62
3
 10
1769.291
 20
-5342.346
 30
1440.165
 70
    32
  0
VERTEX
  8
T38SSILL
 62
3
 10
1762.559
 20
-5343.071
 30
1440.148
 70
    32
  0
VERTEX
  8
T38SSILL
 62
3
 10
1759.073
 20
-5345.903
 30
1440.124
 70
    32
  0
VERTEX
  8
T38SSILL
 62
3
 10
1800.025
 20
-5403.462
 30
1439.825
 70
    32
  0
VERTEX
  8
T38SSILL
 62
3
 10
1810.286
 20
-5410.210
 30
1439.800
 70
    32
  0
VERTEX
  8
T38SSILL
 62
3
 10
1816.631
 20
-5416.476
 30
1439.771
 70
    32
  0
VERTEX
  8
T38SSILL
 62
3
 10
1818.101
 20
-5419.425
 30
1439.754
 70
    32
  0
VERTEX
  8
T38SSILL
 62
3
 10
1813.399
 20
-5422.372
 30
1439.726
 70
    32
  0
VERTEX
  8
T38SSILL
 62
3
 10
1818.997
 20
-5430.680
 30
1441.683
 70
    32
  0
VERTEX
  8
T38SSILL
 62
3
 10
1864.951
 20
-5494.944
 30
1442.350
 70
    32
  0
VERTEX
  8
T38SSILL
 62
3
 10
1868.937
 20
-5491.973
 30
1439.376
 70
    32
  0
VERTEX
  8
T38SSILL
 62
3
 10
1873.133
 20
-5497.377
 30
1439.349
 70
    32
  0
VERTEX
  8
T38SSILL
 62
3
 10
1869.414
 20
-5499.909
 30
1442.325
 70
    32
  0
VERTEX
  8
T38SSILL
 62
3
 10
1919.904
 20
-5571.102
 30
1442.956
 70
    32
  0
VERTEX
  8
T38SSILL
 62
3
 10
1923.266
 20
-5569.185
 30
1438.974
 70
    32
  0
VERTEX
  8
T38SSILL
 62
3
 10
1927.463
 20
-5574.412
 30
1438.948
 70
    32
  0
VERTEX
  8
T38SSILL
 62
3
 10
1924.188
 20
-5576.595
 30
1442.928
 70
    32
  0
VERTEX
  8
T38SSILL
 62
3
 10
1973.802
 20
-5646.724
 30
1442.563
 70
    32
  0
VERTEX
  8
T38SSILL
 62
3
 10
1979.093
 20
-5646.406
 30
1438.575
 70
    32
  0
VERTEX
  8
T38SSILL
 62
3
 10
1982.237
 20
-5651.010
 30
1438.551
 70
    32
  0
VERTEX
  8
T38SSILL
 62
3
 10
1979.747
 20
-5654.431
 30
1442.524
 70
    32
  0
VERTEX
  8
T38SSILL
 62
3
 10
2138.375
 20
-5874.607
 30
1438.720
 70
    32
  0
VERTEX
  8
T38SSILL
 62
3
 10
2147.717
 20
-5873.540
 30
1437.000
 70
    32
  0
VERTEX
  8
T38SSILL
 62
3
 10
2156.334
 20
-5868.460
 30
1437.000
 70
    32
  0
VERTEX
  8
T38SSILL
 62
3
 10
2159.040
 20
-5864.923
 30
1437.000
 70
    32
  0
VERTEX
  8
T38SSILL
 62
3
 10
2168.321
 20
-5843.247
 30
1435.685
 70
    32
  0
VERTEX
  8
T38SSILL
 62
3
 10
2180.785
 20
-5819.003
 30
1435.475
 70
    32
  0
VERTEX
  8
T38SSILL
 62
3
 10
2183.409
 20
-5825.931
 30
1437.000
 70
    32
  0
VERTEX
  8
T38SSILL
 62
3
 10
2189.358
 20
-5829.601
 30
1437.000
 70
    32
  0
VERTEX
  8
T38SSILL
 62
3
 10
2190.132
 20
-5834.315
 30
1437.000
 70
    32
  0
VERTEX
  8
T38SSILL
 62
3
 10
2193.006
 20
-5837.098
 30
1437.000
 70
    32
  0
VERTEX
  8
T38SSILL
 62
3
 10
2199.614
 20
-5837.042
 30
1437.000
 70
    32
  0
VERTEX
  8
T38SSILL
 62
3
 10
2202.543
 20
-5845.606
 30
1437.000
 70
    32
  0
VERTEX
  8
T38SSILL
 62
3
 10
2197.863
 20
-5849.011
 30
1437.000
 70
    32
  0
VERTEX
  8
T38SSILL
 62
3
 10
2196.741
 20
-5853.252
 30
1437.000
 70
    32
  0
VERTEX
  8
T38SSILL
 62
3
 10
2201.323
 20
-5859.568
 30
1437.803
 70
    32
  0
VERTEX
  8
T38SSILL
 62
3
 10
2208.773
 20
-5866.067
 30
1438.821
 70
    32
  0
VERTEX
  8
T38SSILL
 62
3
 10
2215.270
 20
-5875.596
 30
1440.009
 70
    32
  0
VERTEX
  8
T38SSILL
 62
3
 10
2218.437
 20
-5884.684
 30
1441.000
 70
    32
  0
VERTEX
  8
T38SSILL
 62
3
 10
2213.478
 20
-5889.624
 30
1441.000
 70
    32
  0
VERTEX
  8
T38SSILL
 62
3
 10
2208.020
 20
-5878.373
 30
1439.762
 70
    32
  0
VERTEX
  8
T38SSILL
 62
3
 10
2198.314
 20
-5867.490
 30
1438.319
 70
    32
  0
VERTEX
  8
T38SSILL
 62
3
 10
2195.959
 20
-5865.872
 30
1438.036
 70
    32
  0
VERTEX
  8
T38SSILL
 62
3
 10
2189.826
 20
-5857.393
 30
1437.000
 70
    32
  0
VERTEX
  8
T38SSILL
 62
3
 10
2188.000
 20
-5856.968
 30
1437.000
 70
    32
  0
VERTEX
  8
T38SSILL
 62
3
 10
2155.782
 20
-5882.120
 30
1437.000
 70
    32
  0
VERTEX
  8
T38SSILL
 62
3
 10
2150.929
 20
-5892.031
 30
1438.419
 70
    32
  0
VERTEX
  8
T38SSILL
 62
3
 10
2202.742
 20
-5963.947
 30
1437.177
 70
    32
  0
VERTEX
  8
T38SSILL
 62
3
 10
2213.035
 20
-5970.597
 30
1437.221
 70
    32
  0
VERTEX
  8
T38SSILL
 62
3
 10
2223.908
 20
-5973.369
 30
1437.267
 70
    32
  0
VERTEX
  8
T38SSILL
 62
3
 10
2313.351
 20
-5988.454
 30
1436.982
 70
    32
  0
VERTEX
  8
T38SSILL
 62
3
 10
2327.704
 20
-5996.212
 30
1436.934
 70
    32
  0
VERTEX
  8
T38SSILL
 62
3
 10
2334.216
 20
-6001.542
 30
1436.930
 70
    32
  0
VERTEX
  8
T38SSILL
 62
3
 10
2339.646
 20
-6007.920
 30
1436.896
 70
    32
  0
VERTEX
  8
T38SSILL
 62
3
 10
2436.339
 20
-6139.928
 30
1436.424
 70
    32
  0
VERTEX
  8
T38SSILL
 62
3
 10
2444.463
 20
-6148.237
 30
1436.387
 70
    32
  0
VERTEX
  8
T38SSILL
 62
3
 10
2456.677
 20
-6155.081
 30
1436.339
 70
    32
  0
VERTEX
  8
T38SSILL
 62
3
 10
2469.221
 20
-6157.573
 30
1436.296
 70
    32
  0
VERTEX
  8
T38SSILL
 62
3
 10
2480.935
 20
-6157.818
 30
1436.259
 70
    32
  0
VERTEX
  8
T38SSILL
 62
3
 10
2494.909
 20
-6153.489
 30
1436.221
 70
    32
  0
VERTEX
  8
T38SSILL
 62
3
 10
2665.202
 20
-6030.427
 30
1435.454
 70
    32
  0
VERTEX
  8
T38SSILL
 62
3
 10
2667.280
 20
-6025.704
 30
1435.467
 70
    32
  0
VERTEX
  8
T38SSILL
 62
3
 10
2671.812
 20
-6020.477
 30
1435.472
 70
    32
  0
VERTEX
  8
T38SSILL
 62
3
 10
2657.659
 20
-6008.075
 30
1435.581
 70
    32
  0
VERTEX
  8
T38SSILL
 62
3
 10
2652.156
 20
-5999.763
 30
1435.641
 70
    32
  0
VERTEX
  8
T38SSILL
 62
3
 10
2645.292
 20
-5993.248
 30
1435.698
 70
    32
  0
VERTEX
  8
T38SSILL
 62
3
 10
2645.107
 20
-5989.554
 30
1435.715
 70
    32
  0
VERTEX
  8
T38SSILL
 62
3
 10
2646.005
 20
-5990.235
 30
1435.708
 70
    32
  0
VERTEX
  8
T38SSILL
 62
3
 10
2647.303
 20
-5989.320
 30
1435.707
 70
    32
  0
VERTEX
  8
T38SSILL
 62
3
 10
2652.790
 20
-5976.845
 30
1435.740
 70
    32
  0
VERTEX
  8
T38SSILL
 62
3
 10
2657.725
 20
-5980.327
 30
1435.704
 70
    32
  0
VERTEX
  8
T38SSILL
 62
3
 10
2678.479
 20
-5985.774
 30
1435.595
 70
    32
  0
VERTEX
  8
T38SSILL
 62
3
 10
2684.070
 20
-5990.736
 30
1435.552
 70
    32
  0
VERTEX
  8
T38SSILL
 62
3
 10
2687.832
 20
-5989.757
 30
1435.542
 70
    32
  0
VERTEX
  8
T38SSILL
 62
3
 10
2690.896
 20
-5992.408
 30
1435.518
 70
    32
  0
VERTEX
  8
T38SSILL
 62
3
 10
2696.643
 20
-5993.226
 30
1435.493
 70
    32
  0
VERTEX
  8
T38SSILL
 62
3
 10
2704.195
 20
-6005.801
 30
1435.409
 70
    32
  0
VERTEX
  8
T38SSILL
 62
3
 10
2710.149
 20
-6011.194
 30
1435.363
 70
    32
  0
VERTEX
  8
T38SSILL
 62
3
 10
2713.113
 20
-6016.754
 30
1435.328
 70
    32
  0
VERTEX
  8
T38SSILL
 62
3
 10
2810.241
 20
-6032.534
 30
1435.362
 70
    32
  0
VERTEX
  8
T38SSILL
 62
3
 10
2829.460
 20
-6029.829
 30
1435.401
 70
    32
  0
VERTEX
  8
T38SSILL
 62
3
 10
2841.498
 20
-6020.752
 30
1435.445
 70
    32
  0
VERTEX
  8
T38SSILL
 62
3
 10
2837.882
 20
-6015.411
 30
1435.452
 70
    32
  0
VERTEX
  8
T38SSILL
 62
3
 10
2847.439
 20
-6008.122
 30
1435.487
 70
    32
  0
VERTEX
  8
T38SSILL
 62
3
 10
2851.092
 20
-6013.518
 30
1435.479
 70
    32
  0
VERTEX
  8
T38SSILL
 62
3
 10
2856.326
 20
-6009.660
 30
1435.498
 70
    32
  0
VERTEX
  8
T38SSILL
 62
3
 10
2842.319
 20
-5992.762
 30
1435.518
 70
    32
  0
VERTEX
  8
T38SSILL
 62
3
 10
2831.401
 20
-5986.178
 30
1435.517
 70
    32
  0
VERTEX
  8
T38SSILL
 62
3
 10
2827.897
 20
-5980.192
 30
1435.527
 70
    32
  0
VERTEX
  8
T38SSILL
 62
3
 10
2828.808
 20
-5974.619
 30
1435.543
 70
    32
  0
VERTEX
  8
T38SSILL
 62
3
 10
2848.713
 20
-5961.062
 30
1435.611
 70
    32
  0
VERTEX
  8
T38SSILL
 62
3
 10
2850.505
 20
-5962.248
 30
1435.611
 70
    32
  0
VERTEX
  8
T38SSILL
 62
3
 10
2862.431
 20
-5983.780
 30
1435.575
 70
    32
  0
VERTEX
  8
T38SSILL
 62
3
 10
2864.851
 20
-5992.085
 30
1435.558
 70
    32
  0
VERTEX
  8
T38SSILL
 62
3
 10
2869.392
 20
-6000.686
 30
1435.543
 70
    32
  0
VERTEX
  8
T38SSILL
 62
3
 10
2916.676
 20
-5967.116
 30
1435.803
 70
    32
  0
VERTEX
  8
T38SSILL
 62
3
 10
2912.793
 20
-5961.853
 30
1435.794
 70
    32
  0
VERTEX
  8
T38SSILL
 62
3
 10
2919.012
 20
-5957.272
 30
1435.837
 70
    32
  0
VERTEX
  8
T38SSILL
 62
3
 10
2922.785
 20
-5962.779
 30
1435.845
 70
    32
  0
VERTEX
  8
T38SSILL
 62
3
 10
2943.588
 20
-5948.010
 30
1435.987
 70
    32
  0
VERTEX
  8
T38SSILL
 62
3
 10
2949.512
 20
-5942.129
 30
1436.032
 70
    32
  0
VERTEX
  8
T38SSILL
 62
3
 10
2954.209
 20
-5933.110
 30
1436.076
 70
    32
  0
VERTEX
  8
T38SSILL
 62
3
 10
2955.248
 20
-5925.684
 30
1436.098
 70
    32
  0
VERTEX
  8
T38SSILL
 62
3
 10
2953.600
 20
-5916.567
 30
1436.110
 70
    32
  0
VERTEX
  8
T38SSILL
 62
3
 10
2905.082
 20
-5853.183
 30
1435.993
 70
    32
  0
VERTEX
  8
T38SSILL
 62
3
 10
2900.190
 20
-5868.197
 30
1435.937
 70
    32
  0
VERTEX
  8
T38SSILL
 62
3
 10
2895.693
 20
-5874.745
 30
1435.912
 70
    32
  0
VERTEX
  8
T38SSILL
 62
3
 10
2889.011
 20
-5878.912
 30
1435.891
 70
    32
  0
VERTEX
  8
T38SSILL
 62
3
 10
2880.490
 20
-5900.472
 30
1435.821
 70
    32
  0
VERTEX
  8
T38SSILL
 62
3
 10
2888.092
 20
-5904.595
 30
1435.823
 70
    32
  0
VERTEX
  8
T38SSILL
 62
3
 10
2886.499
 20
-5914.512
 30
1435.794
 70
    32
  0
VERTEX
  8
T38SSILL
 62
3
 10
2887.103
 20
-5917.406
 30
1435.788
 70
    32
  0
VERTEX
  8
T38SSILL
 62
3
 10
2890.047
 20
-5918.740
 30
1435.789
 70
    32
  0
VERTEX
  8
T38SSILL
 62
3
 10
2892.014
 20
-5926.537
 30
1435.772
 70
    32
  0
VERTEX
  8
T38SSILL
 62
3
 10
2880.462
 20
-5933.274
 30
1435.736
 70
    32
  0
VERTEX
  8
T38SSILL
 62
3
 10
2876.419
 20
-5937.171
 30
1435.719
 70
    32
  0
VERTEX
  8
T38SSILL
 62
3
 10
2872.007
 20
-5933.671
 30
1435.721
 70
    32
  0
VERTEX
  8
T38SSILL
 62
3
 10
2871.438
 20
-5928.748
 30
1435.732
 70
    32
  0
VERTEX
  8
T38SSILL
 62
3
 10
2866.196
 20
-5920.419
 30
1435.745
 70
    32
  0
VERTEX
  8
T38SSILL
 62
3
 10
2863.140
 20
-5911.416
 30
1435.763
 70
    32
  0
VERTEX
  8
T38SSILL
 62
3
 10
2855.091
 20
-5910.480
 30
1435.752
 70
    32
  0
VERTEX
  8
T38SSILL
 62
3
 10
2843.128
 20
-5911.584
 30
1435.730
 70
    32
  0
VERTEX
  8
T38SSILL
 62
3
 10
2840.540
 20
-5913.768
 30
1435.720
 70
    32
  0
VERTEX
  8
T38SSILL
 62
3
 10
2839.907
 20
-5919.957
 30
1435.702
 70
    32
  0
VERTEX
  8
T38SSILL
 62
3
 10
2843.812
 20
-5927.703
 30
1435.689
 70
    32
  0
VERTEX
  8
T38SSILL
 62
3
 10
2844.070
 20
-5934.221
 30
1435.673
 70
    32
  0
VERTEX
  8
T38SSILL
 62
3
 10
2841.548
 20
-5938.960
 30
1435.656
 70
    32
  0
VERTEX
  8
T38SSILL
 62
3
 10
2837.193
 20
-5937.662
 30
1435.652
 70
    32
  0
VERTEX
  8
T38SSILL
 62
3
 10
2818.404
 20
-5944.147
 30
1435.604
 70
    32
  0
VERTEX
  8
T38SSILL
 62
3
 10
2793.418
 20
-5963.226
 30
1435.513
 70
    32
  0
VERTEX
  8
T38SSILL
 62
3
 10
2774.846
 20
-5960.550
 30
1435.475
 70
    32
  0
VERTEX
  8
T38SSILL
 62
3
 10
2771.154
 20
-5955.380
 30
1435.473
 70
    32
  0
VERTEX
  8
T38SSILL
 62
3
 10
2772.370
 20
-5954.074
 30
1435.478
 70
    32
  0
VERTEX
  8
T38SSILL
 62
3
 10
2770.988
 20
-5938.238
 30
1435.498
 70
    32
  0
VERTEX
  8
T38SSILL
 62
3
 10
2771.850
 20
-5934.071
 30
1435.507
 70
    32
  0
VERTEX
  8
T38SSILL
 62
3
 10
2768.160
 20
-5927.819
 30
1435.506
 70
    32
  0
VERTEX
  8
T38SSILL
 62
3
 10
2767.752
 20
-5922.274
 30
1435.522
 70
    32
  0
VERTEX
  8
T38SSILL
 62
3
 10
2760.198
 20
-5909.862
 30
1435.605
 70
    32
  0
VERTEX
  8
T38SSILL
 62
3
 10
2765.685
 20
-5900.461
 30
1435.624
 70
    32
  0
VERTEX
  8
T38SSILL
 62
3
 10
2771.993
 20
-5898.886
 30
1435.606
 70
    32
  0
VERTEX
  8
T38SSILL
 62
3
 10
2781.751
 20
-5890.961
 30
1435.602
 70
    32
  0
VERTEX
  8
T38SSILL
 62
3
 10
2799.096
 20
-5903.559
 30
1435.628
 70
    32
  0
VERTEX
  8
T38SSILL
 62
3
 10
2801.365
 20
-5899.268
 30
1435.641
 70
    32
  0
VERTEX
  8
T38SSILL
 62
3
 10
2811.959
 20
-5909.926
 30
1435.654
 70
    32
  0
VERTEX
  8
T38SSILL
 62
3
 10
2821.701
 20
-5914.963
 30
1435.673
 70
    32
  0
VERTEX
  8
T38SSILL
 62
3
 10
2821.136
 20
-5883.058
 30
1435.720
 70
    32
  0
VERTEX
  8
T38SSILL
 62
3
 10
2824.729
 20
-5872.031
 30
1435.747
 70
    32
  0
VERTEX
  8
T38SSILL
 62
3
 10
2825.485
 20
-5863.811
 30
1435.761
 70
    32
  0
VERTEX
  8
T38SSILL
 62
3
 10
2823.132
 20
-5854.702
 30
1435.768
 70
    32
  0
VERTEX
  8
T38SSILL
 62
3
 10
2834.218
 20
-5847.007
 30
1435.811
 70
    32
  0
VERTEX
  8
T38SSILL
 62
3
 10
2834.142
 20
-5844.099
 30
1435.815
 70
    32
  0
VERTEX
  8
T38SSILL
 62
3
 10
2836.296
 20
-5838.753
 30
1435.829
 70
    32
  0
VERTEX
  8
T38SSILL
 62
3
 10
2835.288
 20
-5837.280
 30
1435.828
 70
    32
  0
VERTEX
  8
T38SSILL
 62
3
 10
2826.843
 20
-5834.678
 30
1435.809
 70
    32
  0
VERTEX
  8
T38SSILL
 62
3
 10
2819.663
 20
-5823.049
 30
1435.806
 70
    32
  0
VERTEX
  8
T38SSILL
 62
3
 10
2830.247
 20
-5819.776
 30
1435.841
 70
    32
  0
VERTEX
  8
T38SSILL
 62
3
 10
2834.545
 20
-5815.520
 30
1435.859
 70
    32
  0
VERTEX
  8
T38SSILL
 62
3
 10
2842.196
 20
-5811.353
 30
1435.886
 70
    32
  0
VERTEX
  8
T38SSILL
 62
3
 10
2850.810
 20
-5820.475
 30
1435.896
 70
    32
  0
VERTEX
  8
T38SSILL
 62
3
 10
2852.725
 20
-5836.474
 30
1435.878
 70
    32
  0
VERTEX
  8
T38SSILL
 62
3
 10
2855.714
 20
-5846.271
 30
1435.871
 70
    32
  0
VERTEX
  8
T38SSILL
 62
3
 10
2860.280
 20
-5852.325
 30
1435.875
 70
    32
  0
VERTEX
  8
T38SSILL
 62
3
 10
2878.668
 20
-5867.718
 30
1435.902
 70
    32
  0
VERTEX
  8
T38SSILL
 62
3
 10
2882.143
 20
-5872.478
 30
1435.896
 70
    32
  0
VERTEX
  8
T38SSILL
 62
3
 10
2889.476
 20
-5869.642
 30
1435.915
 70
    32
  0
VERTEX
  8
T38SSILL
 62
3
 10
2893.746
 20
-5864.328
 30
1435.936
 70
    32
  0
VERTEX
  8
T38SSILL
 62
3
 10
2896.508
 20
-5855.262
 30
1435.964
 70
    32
  0
VERTEX
  8
T38SSILL
 62
3
 10
2897.065
 20
-5846.166
 30
1435.986
 70
    32
  0
VERTEX
  8
T38SSILL
 62
3
 10
2895.992
 20
-5838.787
 30
1435.994
 70
    32
  0
VERTEX
  8
T38SSILL
 62
3
 10
2880.934
 20
-5815.906
 30
1435.987
 70
    32
  0
VERTEX
  8
T38SSILL
 62
3
 10
2849.955
 20
-5776.461
 30
1435.960
 70
    32
  0
VERTEX
  8
T38SSILL
 62
3
 10
2848.533
 20
-5784.144
 30
1435.945
 70
    32
  0
VERTEX
  8
T38SSILL
 62
3
 10
2839.863
 20
-5798.598
 30
1435.899
 70
    32
  0
VERTEX
  8
T38SSILL
 62
3
 10
2785.730
 20
-5837.158
 30
1435.818
 70
    32
  0
VERTEX
  8
T38SSILL
 62
3
 10
2787.361
 20
-5855.809
 30
1435.732
 70
    32
  0
VERTEX
  8
T38SSILL
 62
3
 10
2779.433
 20
-5862.893
 30
1435.732
 70
    32
  0
VERTEX
  8
T38SSILL
 62
3
 10
2767.305
 20
-5850.864
 30
1435.832
 70
    32
  0
VERTEX
  8
T38SSILL
 62
3
 10
2754.635
 20
-5858.688
 30
1435.849
 70
    32
  0
VERTEX
  8
T38SSILL
 62
3
 10
2747.841
 20
-5865.302
 30
1435.847
 70
    32
  0
VERTEX
  8
T38SSILL
 62
3
 10
2732.547
 20
-5884.128
 30
1435.826
 70
    32
  0
VERTEX
  8
T38SSILL
 62
3
 10
2722.338
 20
-5881.484
 30
1435.879
 70
    32
  0
VERTEX
  8
T38SSILL
 62
3
 10
2718.747
 20
-5872.231
 30
1435.935
 70
    32
  0
VERTEX
  8
T38SSILL
 62
3
 10
2711.749
 20
-5877.792
 30
1435.939
 70
    32
  0
VERTEX
  8
T38SSILL
 62
3
 10
2692.916
 20
-5855.444
 30
1436.115
 70
    32
  0
VERTEX
  8
T38SSILL
 62
3
 10
2700.326
 20
-5848.814
 30
1436.114
 70
    32
  0
VERTEX
  8
T38SSILL
 62
3
 10
2691.313
 20
-5824.360
 30
1436.239
 70
    32
  0
VERTEX
  8
T38SSILL
 62
3
 10
2730.661
 20
-5800.208
 30
1436.152
 70
    32
  0
VERTEX
  8
T38SSILL
 62
3
 10
2720.346
 20
-5790.533
 30
1436.140
 70
    32
  0
VERTEX
  8
T38SSILL
 62
3
 10
2717.472
 20
-5785.097
 30
1436.131
 70
    32
  0
VERTEX
  8
T38SSILL
 62
3
 10
2716.182
 20
-5779.469
 30
1436.121
 70
    32
  0
VERTEX
  8
T38SSILL
 62
3
 10
2718.623
 20
-5776.800
 30
1436.113
 70
    32
  0
VERTEX
  8
T38SSILL
 62
3
 10
2713.712
 20
-5770.502
 30
1436.104
 70
    32
  0
VERTEX
  8
T38SSILL
 62
3
 10
2668.824
 20
-5803.563
 30
1436.215
 70
    32
  0
VERTEX
  8
T38SSILL
 62
3
 10
2663.522
 20
-5802.294
 30
1436.217
 70
    32
  0
VERTEX
  8
T38SSILL
 62
3
 10
2663.318
 20
-5799.475
 30
1436.211
 70
    32
  0
VERTEX
  8
T38SSILL
 62
3
 10
2669.214
 20
-5780.818
 30
1436.166
 70
    32
  0
VERTEX
  8
T38SSILL
 62
3
 10
2681.309
 20
-5773.910
 30
1436.140
 70
    32
  0
VERTEX
  8
T38SSILL
 62
3
 10
2690.404
 20
-5766.680
 30
1436.116
 70
    32
  0
VERTEX
  8
T38SSILL
 62
3
 10
2701.545
 20
-5769.615
 30
1436.113
 70
    32
  0
VERTEX
  8
T38SSILL
 62
3
 10
2708.614
 20
-5764.625
 30
1436.096
 70
    32
  0
VERTEX
  8
T38SSILL
 62
3
 10
2708.528
 20
-5763.238
 30
1436.093
 70
    32
  0
VERTEX
  8
T38SSILL
 62
3
 10
2702.054
 20
-5759.336
 30
1436.090
 70
    32
  0
VERTEX
  8
T38SSILL
 62
3
 10
2700.531
 20
-5756.883
 30
1436.086
 70
    32
  0
VERTEX
  8
T38SSILL
 62
3
 10
2708.144
 20
-5751.254
 30
1436.067
 70
    32
  0
VERTEX
  8
T38SSILL
 62
3
 10
2692.318
 20
-5728.759
 30
1436.033
 70
    32
  0
VERTEX
  8
T38SSILL
 62
3
 10
2681.976
 20
-5725.777
 30
1436.036
 70
    32
  0
VERTEX
  8
T38SSILL
 62
3
 10
2671.515
 20
-5728.702
 30
1436.052
 70
    32
  0
VERTEX
  8
T38SSILL
 62
3
 10
2669.875
 20
-5723.253
 30
1436.042
 70
    32
  0
VERTEX
  8
T38SSILL
 62
3
 10
2678.469
 20
-5718.848
 30
1436.025
 70
    32
  0
VERTEX
  8
T38SSILL
 62
3
 10
2678.672
 20
-5712.676
 30
1436.011
 70
    32
  0
VERTEX
  8
T38SSILL
 62
3
 10
2679.993
 20
-5712.575
 30
1436.010
 70
    32
  0
VERTEX
  8
T38SSILL
 62
3
 10
2689.804
 20
-5697.581
 30
1435.969
 70
    32
  0
VERTEX
  8
T38SSILL
 62
3
 10
2702.223
 20
-5696.664
 30
1435.956
 70
    32
  0
VERTEX
  8
T38SSILL
 62
3
 10
2709.465
 20
-5698.090
 30
1435.952
 70
    32
  0
VERTEX
  8
T38SSILL
 62
3
 10
2718.717
 20
-5724.265
 30
1436.000
 70
    32
  0
VERTEX
  8
T38SSILL
 62
3
 10
2718.567
 20
-5735.813
 30
1436.025
 70
    32
  0
VERTEX
  8
T38SSILL
 62
3
 10
2722.991
 20
-5746.347
 30
1436.043
 70
    32
  0
VERTEX
  8
T38SSILL
 62
3
 10
2734.365
 20
-5737.771
 30
1436.015
 70
    32
  0
VERTEX
  8
T38SSILL
 62
3
 10
2738.477
 20
-5743.548
 30
1436.023
 70
    32
  0
VERTEX
  8
T38SSILL
 62
3
 10
2771.916
 20
-5720.209
 30
1435.943
 70
    32
  0
VERTEX
  8
T38SSILL
 62
3
 10
2775.674
 20
-5716.999
 30
1435.933
 70
    32
  0
VERTEX
  8
T38SSILL
 62
3
 10
2782.595
 20
-5703.884
 30
1435.898
 70
    32
  0
VERTEX
  8
T38SSILL
 62
3
 10
2781.221
 20
-5689.883
 30
1435.870
 70
    32
  0
VERTEX
  8
T38SSILL
 62
3
 10
2732.299
 20
-5627.699
 30
1435.781
 70
    32
  0
VERTEX
  8
T38SSILL
 62
3
 10
2728.105
 20
-5640.258
 30
1435.811
 70
    32
  0
VERTEX
  8
T38SSILL
 62
3
 10
2721.756
 20
-5648.871
 30
1435.836
 70
    32
  0
VERTEX
  8
T38SSILL
 62
3
 10
2697.727
 20
-5664.876
 30
1435.892
 70
    32
  0
VERTEX
  8
T38SSILL
 62
3
 10
2700.953
 20
-5684.160
 30
1435.930
 70
    32
  0
VERTEX
  8
T38SSILL
 62
3
 10
2666.995
 20
-5708.473
 30
1436.013
 70
    32
  0
VERTEX
  8
T38SSILL
 62
3
 10
2658.022
 20
-5701.423
 30
1436.006
 70
    32
  0
VERTEX
  8
T38SSILL
 62
3
 10
2643.393
 20
-5710.559
 30
1436.039
 70
    32
  0
VERTEX
  8
T38SSILL
 62
3
 10
2645.416
 20
-5719.001
 30
1436.055
 70
    32
  0
VERTEX
  8
T38SSILL
 62
3
 10
2619.885
 20
-5730.979
 30
1436.104
 70
    32
  0
VERTEX
  8
T38SSILL
 62
3
 10
2610.773
 20
-5727.632
 30
1436.105
 70
    32
  0
VERTEX
  8
T38SSILL
 62
3
 10
2544.186
 20
-5776.863
 30
1436.271
 70
    32
  0
VERTEX
  8
T38SSILL
 62
3
 10
2542.496
 20
-5775.381
 30
1436.269
 70
    32
  0
VERTEX
  8
T38SSILL
 62
3
 10
2542.659
 20
-5774.057
 30
1436.266
 70
    32
  0
VERTEX
  8
T38SSILL
 62
3
 10
2540.400
 20
-5777.341
 30
1436.275
 70
    32
  0
VERTEX
  8
T38SSILL
 62
3
 10
2530.766
 20
-5774.705
 30
1436.278
 70
    32
  0
VERTEX
  8
T38SSILL
 62
3
 10
2514.888
 20
-5764.638
 30
1436.271
 70
    32
  0
VERTEX
  8
T38SSILL
 62
3
 10
2520.080
 20
-5754.890
 30
1436.245
 70
    32
  0
VERTEX
  8
T38SSILL
 62
3
 10
2544.058
 20
-5764.083
 30
1436.243
 70
    32
  0
VERTEX
  8
T38SSILL
 62
3
 10
2547.676
 20
-5764.488
 30
1436.241
 70
    32
  0
VERTEX
  8
T38SSILL
 62
3
 10
2603.851
 20
-5723.689
 30
1436.103
 70
    32
  0
VERTEX
  8
T38SSILL
 62
3
 10
2600.553
 20
-5719.074
 30
1436.096
 70
    32
  0
VERTEX
  8
T38SSILL
 62
3
 10
2602.603
 20
-5717.546
 30
1436.091
 70
    32
  0
VERTEX
  8
T38SSILL
 62
3
 10
2579.526
 20
-5679.991
 30
1436.031
 70
    32
  0
VERTEX
  8
T38SSILL
 62
3
 10
2588.428
 20
-5659.096
 30
1435.978
 70
    32
  0
VERTEX
  8
T38SSILL
 62
3
 10
2621.968
 20
-5631.803
 30
1435.889
 70
    32
  0
VERTEX
  8
T38SSILL
 62
3
 10
2587.331
 20
-5653.359
 30
1435.967
 70
    32
  0
VERTEX
  8
T38SSILL
 62
3
 10
2579.508
 20
-5651.177
 30
1435.969
 70
    32
  0
VERTEX
  8
T38SSILL
 62
3
 10
2576.298
 20
-5655.644
 30
1435.982
 70
    32
  0
VERTEX
  8
T38SSILL
 62
3
 10
2570.397
 20
-5655.329
 30
1435.986
 70
    32
  0
VERTEX
  8
T38SSILL
 62
3
 10
2566.302
 20
-5660.228
 30
1436.001
 70
    32
  0
VERTEX
  8
T38SSILL
 62
3
 10
2555.544
 20
-5661.106
 30
1436.012
 70
    32
  0
VERTEX
  8
T38SSILL
 62
3
 10
2545.628
 20
-5656.351
 30
1436.011
 70
    32
  0
VERTEX
  8
T38SSILL
 62
3
 10
2486.581
 20
-5698.934
 30
1436.156
 70
    32
  0
VERTEX
  8
T38SSILL
 62
3
 10
2481.437
 20
-5692.546
 30
1436.147
 70
    32
  0
VERTEX
  8
T38SSILL
 62
3
 10
2530.508
 20
-5657.720
 30
1436.028
 70
    32
  0
VERTEX
  8
T38SSILL
 62
3
 10
2526.645
 20
-5653.018
 30
1436.021
 70
    32
  0
VERTEX
  8
T38SSILL
 62
3
 10
2532.770
 20
-5648.462
 30
1436.006
 70
    32
  0
VERTEX
  8
T38SSILL
 62
3
 10
2536.851
 20
-5653.218
 30
1436.012
 70
    32
  0
VERTEX
  8
T38SSILL
 62
3
 10
2561.077
 20
-5636.025
 30
1435.953
 70
    32
  0
VERTEX
  8
T38SSILL
 62
3
 10
2556.722
 20
-5629.937
 30
1435.944
 70
    32
  0
VERTEX
  8
T38SSILL
 62
3
 10
2567.173
 20
-5622.248
 30
1435.918
 70
    32
  0
VERTEX
  8
T38SSILL
 62
3
 10
2567.673
 20
-5623.173
 30
1435.920
 70
    32
  0
VERTEX
  8
T38SSILL
 62
3
 10
2580.610
 20
-5593.071
 30
1435.844
 70
    32
  0
VERTEX
  8
T38SSILL
 62
3
 10
2578.732
 20
-5581.543
 30
1435.821
 70
    32
  0
VERTEX
  8
T38SSILL
 62
3
 10
2613.966
 20
-5552.633
 30
1435.727
 70
    32
  0
VERTEX
  8
T38SSILL
 62
3
 10
2618.808
 20
-5551.968
 30
1435.721
 70
    32
  0
VERTEX
  8
T38SSILL
 62
3
 10
2625.164
 20
-5552.962
 30
1435.718
 70
    32
  0
VERTEX
  8
T38SSILL
 62
3
 10
2640.072
 20
-5571.853
 30
1435.745
 70
    32
  0
VERTEX
  8
T38SSILL
 62
3
 10
2644.327
 20
-5574.279
 30
1435.746
 70
    32
  0
VERTEX
  8
T38SSILL
 62
3
 10
2654.760
 20
-5568.622
 30
1435.724
 70
    32
  0
VERTEX
  8
T38SSILL
 62
3
 10
2661.478
 20
-5561.679
 30
1435.703
 70
    32
  0
VERTEX
  8
T38SSILL
 62
3
 10
2664.390
 20
-5554.978
 30
1435.686
 70
    32
  0
VERTEX
  8
T38SSILL
 62
3
 10
2665.252
 20
-5546.967
 30
1435.668
 70
    32
  0
VERTEX
  8
T38SSILL
 62
3
 10
2662.611
 20
-5536.371
 30
1435.648
 70
    32
  0
VERTEX
  8
T38SSILL
 62
3
 10
2615.724
 20
-5475.701
 30
1435.561
 70
    32
  0
VERTEX
  8
T38SSILL
 62
3
 10
2610.223
 20
-5490.545
 30
1435.597
 70
    32
  0
VERTEX
  8
T38SSILL
 62
3
 10
2606.300
 20
-5495.886
 30
1435.612
 70
    32
  0
VERTEX
  8
T38SSILL
 62
3
 10
2598.666
 20
-5502.517
 30
1435.633
 70
    32
  0
VERTEX
  8
T38SSILL
 62
3
 10
2598.466
 20
-5505.247
 30
1435.639
 70
    32
  0
VERTEX
  8
T38SSILL
 62
3
 10
2591.538
 20
-5511.708
 30
1435.660
 70
    32
  0
VERTEX
  8
T38SSILL
 62
3
 10
2588.313
 20
-5517.937
 30
1435.676
 70
    32
  0
VERTEX
  8
T38SSILL
 62
3
 10
2577.835
 20
-5516.966
 30
1435.683
 70
    32
  0
VERTEX
  8
T38SSILL
 62
3
 10
2574.199
 20
-5519.755
 30
1435.692
 70
    32
  0
VERTEX
  8
T38SSILL
 62
3
 10
2569.469
 20
-5526.763
 30
1435.712
 70
    32
  0
VERTEX
  8
T38SSILL
 62
3
 10
2563.472
 20
-5527.329
 30
1435.718
 70
    32
  0
VERTEX
  8
T38SSILL
 62
3
 10
2430.758
 20
-5621.974
 30
1436.021
 70
    32
  0
VERTEX
  8
T38SSILL
 62
3
 10
2426.747
 20
-5616.969
 30
1436.007
 70
    32
  0
VERTEX
  8
T38SSILL
 62
3
 10
2496.796
 20
-5566.631
 30
1435.863
 70
    32
  0
VERTEX
  8
T38SSILL
 62
3
 10
2493.268
 20
-5560.895
 30
1435.854
 70
    32
  0
VERTEX
  8
T38SSILL
 62
3
 10
2501.497
 20
-5554.909
 30
1435.834
 70
    32
  0
VERTEX
  8
T38SSILL
 62
3
 10
2505.601
 20
-5560.304
 30
1435.841
 70
    32
  0
VERTEX
  8
T38SSILL
 62
3
 10
2554.415
 20
-5525.225
 30
1435.722
 70
    32
  0
VERTEX
  8
T38SSILL
 62
3
 10
2552.451
 20
-5517.895
 30
1435.708
 70
    32
  0
VERTEX
  8
T38SSILL
 62
3
 10
2557.499
 20
-5514.854
 30
1435.697
 70
    32
  0
VERTEX
  8
T38SSILL
 62
3
 10
2564.387
 20
-5513.062
 30
1435.687
 70
    32
  0
VERTEX
  8
T38SSILL
 62
3
 10
2566.607
 20
-5511.055
 30
1435.681
 70
    32
  0
VERTEX
  8
T38SSILL
 62
3
 10
2566.427
 20
-5501.273
 30
1435.660
 70
    32
  0
VERTEX
  8
T38SSILL
 62
3
 10
2576.018
 20
-5492.543
 30
1435.633
 70
    32
  0
VERTEX
  8
T38SSILL
 62
3
 10
2587.318
 20
-5489.996
 30
1435.617
 70
    32
  0
VERTEX
  8
T38SSILL
 62
3
 10
2596.098
 20
-5493.596
 30
1435.617
 70
    32
  0
VERTEX
  8
T38SSILL
 62
3
 10
2601.964
 20
-5487.743
 30
1435.599
 70
    32
  0
VERTEX
  8
T38SSILL
 62
3
 10
2605.003
 20
-5482.746
 30
1435.585
 70
    32
  0
VERTEX
  8
T38SSILL
 62
3
 10
2606.462
 20
-5476.943
 30
1435.572
 70
    32
  0
VERTEX
  8
T38SSILL
 62
3
 10
2605.613
 20
-5462.838
 30
1435.542
 70
    32
  0
VERTEX
  8
T38SSILL
 62
3
 10
2559.169
 20
-5401.995
 30
1435.454
 70
    32
  0
VERTEX
  8
T38SSILL
 62
3
 10
2555.107
 20
-5413.327
 30
1435.482
 70
    32
  0
VERTEX
  8
T38SSILL
 62
3
 10
2551.802
 20
-5418.497
 30
1435.496
 70
    32
  0
VERTEX
  8
T38SSILL
 62
3
 10
2546.918
 20
-5422.949
 30
1435.510
 70
    32
  0
VERTEX
  8
T38SSILL
 62
3
 10
2319.787
 20
-5584.899
 30
1435.904
 70
    32
  0
VERTEX
  8
T38SSILL
 62
3
 10
2315.972
 20
-5578.526
 30
1435.887
 70
    32
  0
VERTEX
  8
T38SSILL
 62
3
 10
2376.886
 20
-5534.890
 30
1435.791
 70
    32
  0
VERTEX
  8
T38SSILL
 62
3
 10
2373.069
 20
-5529.607
 30
1435.777
 70
    32
  0
VERTEX
  8
T38SSILL
 62
3
 10
2379.110
 20
-5525.229
 30
1435.768
 70
    32
  0
VERTEX
  8
T38SSILL
 62
3
 10
2383.056
 20
-5530.470
 30
1435.782
 70
    32
  0
VERTEX
  8
T38SSILL
 62
3
 10
2430.456
 20
-5496.515
 30
1435.707
 70
    32
  0
VERTEX
  8
T38SSILL
 62
3
 10
2426.653
 20
-5491.095
 30
1435.693
 70
    32
  0
VERTEX
  8
T38SSILL
 62
3
 10
2433.048
 20
-5486.802
 30
1435.683
 70
    32
  0
VERTEX
  8
T38SSILL
 62
3
 10
2436.795
 20
-5491.974
 30
1435.697
 70
    32
  0
VERTEX
  8
T38SSILL
 62
3
 10
2478.043
 20
-5462.425
 30
1435.632
 70
    32
  0
VERTEX
  8
T38SSILL
 62
3
 10
2474.023
 20
-5457.228
 30
1435.619
 70
    32
  0
VERTEX
  8
T38SSILL
 62
3
 10
2480.325
 20
-5452.494
 30
1435.608
 70
    32
  0
VERTEX
  8
T38SSILL
 62
3
 10
2484.476
 20
-5457.817
 30
1435.622
 70
    32
  0
VERTEX
  8
T38SSILL
 62
3
 10
2524.807
 20
-5428.925
 30
1435.543
 70
    32
  0
VERTEX
  8
T38SSILL
 62
3
 10
2522.383
 20
-5425.554
 30
1435.537
 70
    32
  0
VERTEX
  8
T38SSILL
 62
3
 10
2528.248
 20
-5421.266
 30
1435.523
 70
    32
  0
VERTEX
  8
T38SSILL
 62
3
 10
2530.716
 20
-5424.692
 30
1435.528
 70
    32
  0
VERTEX
  8
T38SSILL
 62
3
 10
2547.366
 20
-5411.763
 30
1435.485
 70
    32
  0
VERTEX
  8
T38SSILL
 62
3
 10
2550.495
 20
-5406.503
 30
1435.471
 70
    32
  0
VERTEX
  8
T38SSILL
 62
3
 10
2551.519
 20
-5400.167
 30
1435.457
 70
    32
  0
VERTEX
  8
T38SSILL
 62
3
 10
2550.182
 20
-5391.609
 30
1435.440
 70
    32
  0
VERTEX
  8
T38SSILL
 62
3
 10
2547.936
 20
-5386.391
 30
1435.430
 70
    32
  0
VERTEX
  8
T38SSILL
 62
3
 10
2532.067
 20
-5366.694
 30
1435.403
 70
    32
  0
VERTEX
  8
T38SSILL
 62
3
 10
2529.691
 20
-5376.631
 30
1435.426
 70
    32
  0
VERTEX
  8
T38SSILL
 62
3
 10
2526.642
 20
-5382.861
 30
1435.442
 70
    32
  0
VERTEX
  8
T38SSILL
 62
3
 10
2522.805
 20
-5388.467
 30
1435.457
 70
    32
  0
VERTEX
  8
T38SSILL
 62
3
 10
2512.505
 20
-5397.702
 30
1435.478
 70
    32
  0
VERTEX
  8
T38SSILL
 62
3
 10
2514.933
 20
-5402.616
 30
1435.491
 70
    32
  0
VERTEX
  8
T38SSILL
 62
3
 10
2499.238
 20
-5411.495
 30
1435.510
 70
    32
  0
VERTEX
  8
T38SSILL
 62
3
 10
2494.635
 20
-5409.599
 30
1435.504
 70
    32
  0
VERTEX
  8
T38SSILL
 62
3
 10
2407.546
 20
-5471.718
 30
1435.640
 70
    32
  0
VERTEX
  8
T38SSILL
 62
3
 10
2358.747
 20
-5542.056
 30
1435.805
 70
    32
  0
VERTEX
  8
T38SSILL
 62
3
 10
2352.350
 20
-5538.868
 30
1435.796
 70
    32
  0
VERTEX
  8
T38SSILL
 62
3
 10
2378.908
 20
-5499.381
 30
1435.703
 70
    32
  0
VERTEX
  8
T38SSILL
 62
3
 10
2384.195
 20
-5495.651
 30
1435.695
 70
    32
  0
VERTEX
  8
T38SSILL
 62
3
 10
2380.973
 20
-5491.084
 30
1435.683
 70
    32
  0
VERTEX
  8
T38SSILL
 62
3
 10
2369.256
 20
-5499.758
 30
1435.702
 70
    32
  0
VERTEX
  8
T38SSILL
 62
3
 10
2364.534
 20
-5493.820
 30
1435.686
 70
    32
  0
VERTEX
  8
T38SSILL
 62
3
 10
2445.898
 20
-5434.873
 30
1435.557
 70
    32
  0
VERTEX
  8
T38SSILL
 62
3
 10
2442.553
 20
-5430.112
 30
1435.544
 70
    32
  0
VERTEX
  8
T38SSILL
 62
3
 10
2448.504
 20
-5425.559
 30
1435.534
 70
    32
  0
VERTEX
  8
T38SSILL
 62
3
 10
2452.114
 20
-5430.370
 30
1435.547
 70
    32
  0
VERTEX
  8
T38SSILL
 62
3
 10
2488.916
 20
-5403.708
 30
1435.488
 70
    32
  0
VERTEX
  8
T38SSILL
 62
3
 10
2487.328
 20
-5401.471
 30
1435.482
 70
    32
  0
VERTEX
  8
T38SSILL
 62
3
 10
2488.553
 20
-5400.489
 30
1435.480
 70
    32
  0
VERTEX
  8
T38SSILL
 62
3
 10
2487.322
 20
-5391.685
 30
1435.458
 70
    32
  0
VERTEX
  8
T38SSILL
 62
3
 10
2484.195
 20
-5387.395
 30
1435.446
 70
    32
  0
VERTEX
  8
T38SSILL
 62
3
 10
2491.253
 20
-5378.776
 30
1435.426
 70
    32
  0
VERTEX
  8
T38SSILL
 62
3
 10
2501.914
 20
-5387.225
 30
1435.450
 70
    32
  0
VERTEX
  8
T38SSILL
 62
3
 10
2507.876
 20
-5389.973
 30
1435.458
 70
    32
  0
VERTEX
  8
T38SSILL
 62
3
 10
2518.100
 20
-5382.259
 30
1435.441
 70
    32
  0
VERTEX
  8
T38SSILL
 62
3
 10
2521.576
 20
-5377.707
 30
1435.430
 70
    32
  0
VERTEX
  8
T38SSILL
 62
3
 10
2524.207
 20
-5368.830
 30
1435.409
 70
    32
  0
VERTEX
  8
T38SSILL
 62
3
 10
2523.409
 20
-5359.130
 30
1435.383
 70
    32
  0
VERTEX
  8
T38SSILL
 62
3
 10
2520.389
 20
-5351.615
 30
1435.352
 70
    32
  0
VERTEX
  8
T38SSILL
 62
3
 10
2499.388
 20
-5324.208
 30
1435.227
 70
    32
  0
VERTEX
  8
T38SSILL
 62
3
 10
2496.294
 20
-5335.637
 30
1435.287
 70
    32
  0
VERTEX
  8
T38SSILL
 62
3
 10
2492.893
 20
-5341.864
 30
1435.320
 70
    32
  0
VERTEX
  8
T38SSILL
 62
3
 10
2486.770
 20
-5348.390
 30
1435.342
 70
    32
  0
VERTEX
  8
T38SSILL
 62
3
 10
2490.818
 20
-5354.065
 30
1435.361
 70
    32
  0
VERTEX
  8
T38SSILL
 62
3
 10
2484.735
 20
-5358.271
 30
1435.373
 70
    32
  0
VERTEX
  8
T38SSILL
 62
3
 10
2480.548
 20
-5352.854
 30
1435.355
 70
    32
  0
VERTEX
  8
T38SSILL
 62
3
 10
2449.753
 20
-5374.948
 30
1435.408
 70
    32
  0
VERTEX
  8
T38SSILL
 62
3
 10
2453.953
 20
-5380.652
 30
1435.423
 70
    32
  0
VERTEX
  8
T38SSILL
 62
3
 10
2448.820
 20
-5385.043
 30
1435.433
 70
    32
  0
VERTEX
  8
T38SSILL
 62
3
 10
2444.001
 20
-5379.075
 30
1435.417
 70
    32
  0
VERTEX
  8
T38SSILL
 62
3
 10
2411.827
 20
-5402.159
 30
1435.467
 70
    32
  0
VERTEX
  8
T38SSILL
 62
3
 10
2416.097
 20
-5407.858
 30
1435.482
 70
    32
  0
VERTEX
  8
T38SSILL
 62
3
 10
2409.462
 20
-5412.861
 30
1435.493
 70
    32
  0
VERTEX
  8
T38SSILL
 62
3
 10
2405.436
 20
-5406.744
 30
1435.477
 70
    32
  0
VERTEX
  8
T38SSILL
 62
3
 10
2377.169
 20
-5427.025
 30
1435.522
 70
    32
  0
VERTEX
  8
T38SSILL
 62
3
 10
2381.600
 20
-5432.783
 30
1435.537
 70
    32
  0
VERTEX
  8
T38SSILL
 62
3
 10
2376.115
 20
-5437.085
 30
1435.547
 70
    32
  0
VERTEX
  8
T38SSILL
 62
3
 10
2371.583
 20
-5431.033
 30
1435.531
 70
    32
  0
VERTEX
  8
T38SSILL
 62
3
 10
2340.118
 20
-5453.607
 30
1435.580
 70
    32
  0
VERTEX
  8
T38SSILL
 62
3
 10
2342.190
 20
-5458.560
 30
1435.593
 70
    32
  0
VERTEX
  8
T38SSILL
 62
3
 10
2344.645
 20
-5460.078
 30
1435.597
 70
    32
  0
VERTEX
  8
T38SSILL
 62
3
 10
2344.361
 20
-5462.367
 30
1435.603
 70
    32
  0
VERTEX
  8
T38SSILL
 62
3
 10
2348.838
 20
-5464.256
 30
1435.609
 70
    32
  0
VERTEX
  8
T38SSILL
 62
3
 10
2351.866
 20
-5470.802
 30
1435.626
 70
    32
  0
VERTEX
  8
T38SSILL
 62
3
 10
2346.409
 20
-5480.448
 30
1435.649
 70
    32
  0
VERTEX
  8
T38SSILL
 62
3
 10
2356.279
 20
-5490.577
 30
1435.676
 70
    32
  0
VERTEX
  8
T38SSILL
 62
3
 10
2363.647
 20
-5504.826
 30
1435.713
 70
    32
  0
VERTEX
  8
T38SSILL
 62
3
 10
2351.878
 20
-5521.027
 30
1435.751
 70
    32
  0
VERTEX
  8
T38SSILL
 62
3
 10
2344.209
 20
-5521.314
 30
1435.750
 70
    32
  0
VERTEX
  8
T38SSILL
 62
3
 10
2336.222
 20
-5528.030
 30
1435.765
 70
    32
  0
VERTEX
  8
T38SSILL
 62
3
 10
2323.811
 20
-5526.514
 30
1435.759
 70
    32
  0
VERTEX
  8
T38SSILL
 62
3
 10
2315.574
 20
-5521.157
 30
1435.744
 70
    32
  0
VERTEX
  8
T38SSILL
 62
3
 10
2310.349
 20
-5524.196
 30
1435.760
 70
    32
  0
VERTEX
  8
T38SSILL
 62
3
 10
2302.868
 20
-5512.942
 30
1435.765
 70
    32
  0
VERTEX
  8
T38SSILL
 62
3
 10
2301.511
 20
-5506.674
 30
1435.755
 70
    32
  0
VERTEX
  8
T38SSILL
 62
3
 10
2302.083
 20
-5501.657
 30
1435.739
 70
    32
  0
VERTEX
  8
T38SSILL
 62
3
 10
2292.862
 20
-5487.744
 30
1435.746
 70
    32
  0
VERTEX
  8
T38SSILL
 62
3
 10
2281.152
 20
-5495.967
 30
1435.823
 70
    32
  0
VERTEX
  8
T38SSILL
 62
3
 10
2285.456
 20
-5501.587
 30
1435.818
 70
    32
  0
VERTEX
  8
T38SSILL
 62
3
 10
2279.531
 20
-5505.535
 30
1435.856
 70
    32
  0
VERTEX
  8
T38SSILL
 62
3
 10
2275.467
 20
-5499.960
 30
1435.861
 70
    32
  0
VERTEX
  8
T38SSILL
 62
3
 10
2261.747
 20
-5509.595
 30
1435.951
 70
    32
  0
VERTEX
  8
T38SSILL
 62
3
 10
2257.578
 20
-5503.447
 30
1435.955
 70
    32
  0
VERTEX
  8
T38SSILL
 62
3
 10
2289.572
 20
-5480.931
 30
1435.743
 70
    32
  0
VERTEX
  8
T38SSILL
 62
3
 10
2286.441
 20
-5465.749
 30
1435.717
 70
    32
  0
VERTEX
  8
T38SSILL
 62
3
 10
2286.925
 20
-5460.731
 30
1435.702
 70
    32
  0
VERTEX
  8
T38SSILL
 62
3
 10
2294.046
 20
-5452.333
 30
1435.646
 70
    32
  0
VERTEX
  8
T38SSILL
 62
3
 10
2306.621
 20
-5444.950
 30
1435.566
 70
    32
  0
VERTEX
  8
T38SSILL
 62
3
 10
2315.063
 20
-5436.652
 30
1435.532
 70
    32
  0
VERTEX
  8
T38SSILL
 62
3
 10
2318.670
 20
-5437.299
 30
1435.535
 70
    32
  0
VERTEX
  8
T38SSILL
 62
3
 10
2335.402
 20
-5448.721
 30
1435.567
 70
    32
  0
VERTEX
  8
T38SSILL
 62
3
 10
2479.830
 20
-5344.395
 30
1435.328
 70
    32
  0
VERTEX
  8
T38SSILL
 62
3
 10
2486.587
 20
-5337.404
 30
1435.302
 70
    32
  0
VERTEX
  8
T38SSILL
 62
3
 10
2490.348
 20
-5330.299
 30
1435.264
 70
    32
  0
VERTEX
  8
T38SSILL
 62
3
 10
2491.137
 20
-5320.525
 30
1435.214
 70
    32
  0
VERTEX
  8
T38SSILL
 62
3
 10
2488.923
 20
-5311.431
 30
1435.170
 70
    32
  0
VERTEX
  8
T38SSILL
 62
3
 10
2475.257
 20
-5291.841
 30
1435.080
 70
    32
  0
VERTEX
  8
T38SSILL
 62
3
 10
2472.968
 20
-5301.866
 30
1435.132
 70
    32
  0
VERTEX
  8
T38SSILL
 62
3
 10
2469.124
 20
-5308.354
 30
1435.167
 70
    32
  0
VERTEX
  8
T38SSILL
 62
3
 10
2464.145
 20
-5313.598
 30
1435.196
 70
    32
  0
VERTEX
  8
T38SSILL
 62
3
 10
2307.801
 20
-5425.559
 30
1435.509
 70
    32
  0
VERTEX
  8
T38SSILL
 62
3
 10
2312.093
 20
-5431.895
 30
1435.520
 70
    32
  0
VERTEX
  8
T38SSILL
 62
3
 10
2305.352
 20
-5436.720
 30
1435.550
 70
    32
  0
VERTEX
  8
T38SSILL
 62
3
 10
2300.904
 20
-5430.414
 30
1435.555
 70
    32
  0
VERTEX
  8
T38SSILL
 62
3
 10
2258.996
 20
-5460.404
 30
1435.869
 70
    32
  0
VERTEX
  8
T38SSILL
 62
3
 10
2254.903
 20
-5454.641
 30
1435.907
 70
    32
  0
VERTEX
  8
T38SSILL
 62
3
 10
2385.870
 20
-5360.981
 30
1435.359
 70
    32
  0
VERTEX
  8
T38SSILL
 62
3
 10
2383.118
 20
-5356.571
 30
1435.346
 70
    32
  0
VERTEX
  8
T38SSILL
 62
3
 10
2389.131
 20
-5352.536
 30
1435.335
 70
    32
  0
VERTEX
  8
T38SSILL
 62
3
 10
2391.986
 20
-5356.607
 30
1435.348
 70
    32
  0
VERTEX
  8
T38SSILL
 62
3
 10
2438.538
 20
-5323.315
 30
1435.253
 70
    32
  0
VERTEX
  8
T38SSILL
 62
3
 10
2435.303
 20
-5319.097
 30
1435.239
 70
    32
  0
VERTEX
  8
T38SSILL
 62
3
 10
2441.141
 20
-5314.884
 30
1435.218
 70
    32
  0
VERTEX
  8
T38SSILL
 62
3
 10
2444.560
 20
-5319.008
 30
1435.236
 70
    32
  0
VERTEX
  8
T38SSILL
 62
3
 10
2460.147
 20
-5307.131
 30
1435.166
 70
    32
  0
VERTEX
  8
T38SSILL
 62
3
 10
2465.135
 20
-5300.830
 30
1435.131
 70
    32
  0
VERTEX
  8
T38SSILL
 62
3
 10
2467.598
 20
-5290.982
 30
1435.080
 70
    32
  0
VERTEX
  8
T38SSILL
 62
3
 10
2465.835
 20
-5280.834
 30
1435.030
 70
    32
  0
VERTEX
  8
T38SSILL
 62
3
 10
2441.441
 20
-5248.288
 30
1434.882
 70
    32
  0
VERTEX
  8
T38SSILL
 62
3
 10
2439.247
 20
-5257.609
 30
1434.931
 70
    32
  0
VERTEX
  8
T38SSILL
 62
3
 10
2436.107
 20
-5264.191
 30
1434.966
 70
    32
  0
VERTEX
  8
T38SSILL
 62
3
 10
2429.355
 20
-5272.145
 30
1435.010
 70
    32
  0
VERTEX
  8
T38SSILL
 62
3
 10
2433.871
 20
-5278.418
 30
1435.039
 70
    32
  0
VERTEX
  8
T38SSILL
 62
3
 10
2428.560
 20
-5282.110
 30
1435.061
 70
    32
  0
VERTEX
  8
T38SSILL
 62
3
 10
2424.106
 20
-5275.921
 30
1435.033
 70
    32
  0
VERTEX
  8
T38SSILL
 62
3
 10
2369.913
 20
-5314.901
 30
1435.213
 70
    32
  0
VERTEX
  8
T38SSILL
 62
3
 10
2374.867
 20
-5321.696
 30
1435.235
 70
    32
  0
VERTEX
  8
T38SSILL
 62
3
 10
2368.854
 20
-5325.379
 30
1435.245
 70
    32
  0
VERTEX
  8
T38SSILL
 62
3
 10
2364.187
 20
-5319.019
 30
1435.224
 70
    32
  0
VERTEX
  8
T38SSILL
 62
3
 10
2316.975
 20
-5352.978
 30
1435.321
 70
    32
  0
VERTEX
  8
T38SSILL
 62
3
 10
2321.712
 20
-5358.990
 30
1435.340
 70
    32
  0
VERTEX
  8
T38SSILL
 62
3
 10
2314.901
 20
-5363.728
 30
1435.350
 70
    32
  0
VERTEX
  8
T38SSILL
 62
3
 10
2310.384
 20
-5357.719
 30
1435.334
 70
    32
  0
VERTEX
  8
T38SSILL
 62
3
 10
2281.818
 20
-5378.266
 30
1435.527
 70
    32
  0
VERTEX
  8
T38SSILL
 62
3
 10
2286.508
 20
-5384.442
 30
1435.537
 70
    32
  0
VERTEX
  8
T38SSILL
 62
3
 10
2279.520
 20
-5389.621
 30
1435.601
 70
    32
  0
VERTEX
  8
T38SSILL
 62
3
 10
2275.214
 20
-5383.016
 30
1435.573
 70
    32
  0
VERTEX
  8
T38SSILL
 62
3
 10
2261.068
 20
-5393.191
 30
1435.671
 70
    32
  0
VERTEX
  8
T38SSILL
 62
3
 10
2263.759
 20
-5397.972
 30
1435.694
 70
    32
  0
VERTEX
  8
T38SSILL
 62
3
 10
2263.908
 20
-5401.057
 30
1435.713
 70
    32
  0
VERTEX
  8
T38SSILL
 62
3
 10
2261.512
 20
-5403.152
 30
1435.732
 70
    32
  0
VERTEX
  8
T38SSILL
 62
3
 10
2252.461
 20
-5400.255
 30
1435.736
 70
    32
  0
VERTEX
  8
T38SSILL
 62
3
 10
2240.147
 20
-5407.991
 30
1435.815
 70
    32
  0
VERTEX
  8
T38SSILL
 62
3
 10
2238.475
 20
-5428.331
 30
1435.946
 70
    32
  0
VERTEX
  8
T38SSILL
 62
3
 10
2249.122
 20
-5461.024
 30
1435.967
 70
    32
  0
VERTEX
  8
T38SSILL
 62
3
 10
2243.700
 20
-5476.838
 30
1436.033
 70
    32
  0
VERTEX
  8
T38SSILL
 62
3
 10
2210.484
 20
-5455.848
 30
1436.186
 70
    32
  0
VERTEX
  8
T38SSILL
 62
3
 10
2198.995
 20
-5439.272
 30
1436.111
 70
    32
  0
VERTEX
  8
T38SSILL
 62
3
 10
2158.049
 20
-5467.031
 30
1436.384
 70
    32
  0
VERTEX
  8
T38SSILL
 62
3
 10
2154.165
 20
-5461.492
 30
1436.359
 70
    32
  0
VERTEX
  8
T38SSILL
 62
3
 10
2195.916
 20
-5430.772
 30
1436.065
 70
    32
  0
VERTEX
  8
T38SSILL
 62
3
 10
2205.948
 20
-5413.784
 30
1435.935
 70
    32
  0
VERTEX
  8
T38SSILL
 62
3
 10
2208.517
 20
-5410.794
 30
1435.910
 70
    32
  0
VERTEX
  8
T38SSILL
 62
3
 10
2221.072
 20
-5403.077
 30
1435.831
 70
    32
  0
VERTEX
  8
T38SSILL
 62
3
 10
2227.195
 20
-5393.308
 30
1435.755
 70
    32
  0
VERTEX
  8
T38SSILL
 62
3
 10
2235.702
 20
-5382.930
 30
1435.669
 70
    32
  0
VERTEX
  8
T38SSILL
 62
3
 10
2238.860
 20
-5387.794
 30
1435.692
 70
    32
  0
VERTEX
  8
T38SSILL
 62
3
 10
2239.026
 20
-5390.529
 30
1435.709
 70
    32
  0
VERTEX
  8
T38SSILL
 62
3
 10
2238.393
 20
-5394.585
 30
1435.735
 70
    32
  0
VERTEX
  8
T38SSILL
 62
3
 10
2233.330
 20
-5404.181
 30
1435.808
 70
    32
  0
VERTEX
  8
T38SSILL
 62
3
 10
2248.098
 20
-5394.268
 30
1435.710
 70
    32
  0
VERTEX
  8
T38SSILL
 62
3
 10
2238.182
 20
-5380.117
 30
1435.646
 70
    32
  0
VERTEX
  8
T38SSILL
 62
3
 10
2234.829
 20
-5380.369
 30
1435.656
 70
    32
  0
VERTEX
  8
T38SSILL
 62
3
 10
2227.610
 20
-5376.461
 30
1435.649
 70
    32
  0
VERTEX
  8
T38SSILL
 62
3
 10
2220.582
 20
-5368.584
 30
1435.617
 70
    32
  0
VERTEX
  8
T38SSILL
 62
3
 10
2224.825
 20
-5366.218
 30
1435.592
 70
    32
  0
VERTEX
  8
T38SSILL
 62
3
 10
2226.253
 20
-5361.900
 30
1435.561
 70
    32
  0
VERTEX
  8
T38SSILL
 62
3
 10
2213.606
 20
-5346.592
 30
1435.497
 70
    32
  0
VERTEX
  8
T38SSILL
 62
3
 10
2201.607
 20
-5347.254
 30
1435.531
 70
    32
  0
VERTEX
  8
T38SSILL
 62
3
 10
2189.367
 20
-5341.298
 30
1435.524
 70
    32
  0
VERTEX
  8
T38SSILL
 62
3
 10
2181.895
 20
-5334.213
 30
1435.498
 70
    32
  0
VERTEX
  8
T38SSILL
 62
3
 10
2136.876
 20
-5366.068
 30
1435.807
 70
    32
  0
VERTEX
  8
T38SSILL
 62
3
 10
2132.978
 20
-5359.056
 30
1435.765
 70
    32
  0
VERTEX
  8
T38SSILL
 62
3
 10
2177.180
 20
-5327.942
 30
1435.470
 70
    32
  0
VERTEX
  8
T38SSILL
 62
3
 10
2173.998
 20
-5322.892
 30
1435.447
 70
    32
  0
VERTEX
  8
T38SSILL
 62
3
 10
2182.932
 20
-5316.309
 30
1435.384
 70
    32
  0
VERTEX
  8
T38SSILL
 62
3
 10
2186.677
 20
-5321.257
 30
1435.405
 70
    32
  0
VERTEX
  8
T38SSILL
 62
3
 10
2200.261
 20
-5311.695
 30
1435.312
 70
    32
  0
VERTEX
  8
T38SSILL
 62
3
 10
2200.536
 20
-5310.464
 30
1435.304
 70
    32
  0
VERTEX
  8
T38SSILL
 62
3
 10
2197.285
 20
-5309.379
 30
1435.305
 70
    32
  0
VERTEX
  8
T38SSILL
 62
3
 10
2194.391
 20
-5297.547
 30
1435.239
 70
    32
  0
VERTEX
  8
T38SSILL
 62
3
 10
2194.884
 20
-5291.383
 30
1435.199
 70
    32
  0
VERTEX
  8
T38SSILL
 62
3
 10
2186.741
 20
-5275.012
 30
1435.117
 70
    32
  0
VERTEX
  8
T38SSILL
 62
3
 10
2184.206
 20
-5272.612
 30
1435.108
 70
    32
  0
VERTEX
  8
T38SSILL
 62
3
 10
2178.390
 20
-5262.429
 30
1435.059
 70
    32
  0
VERTEX
  8
T38SSILL
 62
3
 10
2182.272
 20
-5251.536
 30
1434.982
 70
    32
  0
VERTEX
  8
T38SSILL
 62
3
 10
2189.232
 20
-5251.595
 30
1434.965
 70
    32
  0
VERTEX
  8
T38SSILL
 62
3
 10
2191.184
 20
-5250.026
 30
1434.950
 70
    32
  0
VERTEX
  8
T38SSILL
 62
3
 10
2199.176
 20
-5253.090
 30
1434.950
 70
    32
  0
VERTEX
  8
T38SSILL
 62
3
 10
2204.718
 20
-5264.504
 30
1435.007
 70
    32
  0
VERTEX
  8
T38SSILL
 62
3
 10
2207.112
 20
-5273.072
 30
1435.055
 70
    32
  0
VERTEX
  8
T38SSILL
 62
3
 10
2212.595
 20
-5270.739
 30
1435.027
 70
    32
  0
VERTEX
  8
T38SSILL
 62
3
 10
2216.998
 20
-5271.041
 30
1435.018
 70
    32
  0
VERTEX
  8
T38SSILL
 62
3
 10
2220.280
 20
-5278.735
 30
1435.058
 70
    32
  0
VERTEX
  8
T38SSILL
 62
3
 10
2222.909
 20
-5290.741
 30
1435.126
 70
    32
  0
VERTEX
  8
T38SSILL
 62
3
 10
2225.172
 20
-5294.109
 30
1435.142
 70
    32
  0
VERTEX
  8
T38SSILL
 62
3
 10
2371.636
 20
-5188.655
 30
1434.627
 70
    32
  0
VERTEX
  8
T38SSILL
 62
3
 10
2375.378
 20
-5183.841
 30
1434.600
 70
    32
  0
VERTEX
  8
T38SSILL
 62
3
 10
2377.818
 20
-5176.725
 30
1434.563
 70
    32
  0
VERTEX
  8
T38SSILL
 62
3
 10
2376.521
 20
-5163.497
 30
1434.497
 70
    32
  0
VERTEX
  8
T38SSILL
 62
3
 10
2327.188
 20
-5100.426
 30
1434.284
 70
    32
  0
VERTEX
  8
T38SSILL
 62
3
 10
2323.563
 20
-5112.202
 30
1434.341
 70
    32
  0
VERTEX
  8
T38SSILL
 62
3
 10
2320.531
 20
-5116.406
 30
1434.366
 70
    32
  0
VERTEX
  8
T38SSILL
 62
3
 10
2311.558
 20
-5176.599
 30
1434.636
 70
    32
  0
VERTEX
  8
T38SSILL
 62
3
 10
2288.102
 20
-5193.339
 30
1434.761
 70
    32
  0
VERTEX
  8
T38SSILL
 62
3
 10
2291.348
 20
-5197.180
 30
1434.769
 70
    32
  0
VERTEX
  8
T38SSILL
 62
3
 10
2285.598
 20
-5201.393
 30
1434.801
 70
    32
  0
VERTEX
  8
T38SSILL
 62
3
 10
2281.860
 20
-5197.794
 30
1434.795
 70
    32
  0
VERTEX
  8
T38SSILL
 62
3
 10
2237.915
 20
-5229.157
 30
1434.835
 70
    32
  0
VERTEX
  8
T38SSILL
 62
3
 10
2241.283
 20
-5233.604
 30
1434.854
 70
    32
  0
VERTEX
  8
T38SSILL
 62
3
 10
2233.676
 20
-5239.310
 30
1434.856
 70
    32
  0
VERTEX
  8
T38SSILL
 62
3
 10
2230.110
 20
-5234.727
 30
1434.836
 70
    32
  0
VERTEX
  8
T38SSILL
 62
3
 10
2204.198
 20
-5253.221
 30
1434.938
 70
    32
  0
VERTEX
  8
T38SSILL
 62
3
 10
2200.277
 20
-5247.989
 30
1434.915
 70
    32
  0
VERTEX
  8
T38SSILL
 62
3
 10
2304.986
 20
-5172.313
 30
1434.634
 70
    32
  0
VERTEX
  8
T38SSILL
 62
3
 10
2312.544
 20
-5123.122
 30
1434.412
 70
    32
  0
VERTEX
  8
T38SSILL
 62
3
 10
2288.092
 20
-5140.512
 30
1434.543
 70
    32
  0
VERTEX
  8
T38SSILL
 62
3
 10
2292.066
 20
-5146.195
 30
1434.557
 70
    32
  0
VERTEX
  8
T38SSILL
 62
3
 10
2284.990
 20
-5151.197
 30
1434.594
 70
    32
  0
VERTEX
  8
T38SSILL
 62
3
 10
2280.989
 20
-5145.563
 30
1434.581
 70
    32
  0
VERTEX
  8
T38SSILL
 62
3
 10
2233.380
 20
-5179.422
 30
1434.547
 70
    32
  0
VERTEX
  8
T38SSILL
 62
3
 10
2237.581
 20
-5185.160
 30
1434.583
 70
    32
  0
VERTEX
  8
T38SSILL
 62
3
 10
2230.860
 20
-5189.899
 30
1434.607
 70
    32
  0
VERTEX
  8
T38SSILL
 62
3
 10
2226.984
 20
-5183.971
 30
1434.570
 70
    32
  0
VERTEX
  8
T38SSILL
 62
3
 10
2195.282
 20
-5206.725
 30
1434.685
 70
    32
  0
VERTEX
  8
T38SSILL
 62
3
 10
2199.457
 20
-5213.160
 30
1434.717
 70
    32
  0
VERTEX
  8
T38SSILL
 62
3
 10
2193.089
 20
-5217.811
 30
1434.745
 70
    32
  0
VERTEX
  8
T38SSILL
 62
3
 10
2188.645
 20
-5211.238
 30
1434.715
 70
    32
  0
VERTEX
  8
T38SSILL
 62
3
 10
2173.714
 20
-5221.857
 30
1434.791
 70
    32
  0
VERTEX
  8
T38SSILL
 62
3
 10
2178.603
 20
-5227.185
 30
1434.829
 70
    32
  0
VERTEX
  8
T38SSILL
 62
3
 10
2180.916
 20
-5234.871
 30
1434.881
 70
    32
  0
VERTEX
  8
T38SSILL
 62
3
 10
2179.851
 20
-5246.140
 30
1434.954
 70
    32
  0
VERTEX
  8
T38SSILL
 62
3
 10
2161.524
 20
-5256.381
 30
1435.036
 70
    32
  0
VERTEX
  8
T38SSILL
 62
3
 10
2155.312
 20
-5261.527
 30
1435.073
 70
    32
  0
VERTEX
  8
T38SSILL
 62
3
 10
2142.758
 20
-5245.823
 30
1434.962
 70
    32
  0
VERTEX
  8
T38SSILL
 62
3
 10
2076.007
 20
-5292.746
 30
1435.559
 70
    32
  0
VERTEX
  8
T38SSILL
 62
3
 10
2072.885
 20
-5286.904
 30
1435.552
 70
    32
  0
VERTEX
  8
T38SSILL
 62
3
 10
2138.149
 20
-5238.647
 30
1434.911
 70
    32
  0
VERTEX
  8
T38SSILL
 62
3
 10
2148.624
 20
-5229.572
 30
1434.846
 70
    32
  0
VERTEX
  8
T38SSILL
 62
3
 10
2150.471
 20
-5219.631
 30
1434.776
 70
    32
  0
VERTEX
  8
T38SSILL
 62
3
 10
2144.555
 20
-5210.769
 30
1434.713
 70
    32
  0
VERTEX
  8
T38SSILL
 62
3
 10
2133.308
 20
-5207.061
 30
1434.687
 70
    32
  0
VERTEX
  8
T38SSILL
 62
3
 10
2130.248
 20
-5204.303
 30
1434.668
 70
    32
  0
VERTEX
  8
T38SSILL
 62
3
 10
2115.851
 20
-5198.012
 30
1434.747
 70
    32
  0
VERTEX
  8
T38SSILL
 62
3
 10
2113.315
 20
-5195.699
 30
1434.755
 70
    32
  0
VERTEX
  8
T38SSILL
 62
3
 10
2108.107
 20
-5196.888
 30
1434.802
 70
    32
  0
VERTEX
  8
T38SSILL
 62
3
 10
2103.286
 20
-5183.542
 30
1434.770
 70
    32
  0
VERTEX
  8
T38SSILL
 62
3
 10
2094.711
 20
-5176.508
 30
1434.800
 70
    32
  0
VERTEX
  8
T38SSILL
 62
3
 10
2088.010
 20
-5167.382
 30
1434.804
 70
    32
  0
VERTEX
  8
T38SSILL
 62
3
 10
2004.402
 20
-5227.282
 30
1436.582
 70
    32
  0
VERTEX
  8
T38SSILL
 62
3
 10
2000.224
 20
-5221.255
 30
1436.642
 70
    32
  0
VERTEX
  8
T38SSILL
 62
3
 10
2078.506
 20
-5165.267
 30
1434.886
 70
    32
  0
VERTEX
  8
T38SSILL
 62
3
 10
2072.433
 20
-5154.201
 30
1434.964
 70
    32
  0
VERTEX
  8
T38SSILL
 62
3
 10
2064.564
 20
-5147.085
 30
1435.092
 70
    32
  0
VERTEX
  8
T38SSILL
 62
3
 10
2057.556
 20
-5142.178
 30
1435.212
 70
    32
  0
VERTEX
  8
T38SSILL
 62
3
 10
2048.430
 20
-5137.871
 30
1435.375
 70
    32
  0
VERTEX
  8
T38SSILL
 62
3
 10
2034.780
 20
-5126.652
 30
1435.602
 70
    32
  0
VERTEX
  8
T38SSILL
 62
3
 10
2024.738
 20
-5105.683
 30
1435.720
 70
    32
  0
VERTEX
  8
T38SSILL
 62
3
 10
2023.547
 20
-5100.651
 30
1435.725
 70
    32
  0
VERTEX
  8
T38SSILL
 62
3
 10
2033.407
 20
-5091.395
 30
1435.495
 70
    32
  0
VERTEX
  8
T38SSILL
 62
3
 10
2035.434
 20
-5091.324
 30
1435.455
 70
    32
  0
VERTEX
  8
T38SSILL
 62
3
 10
2043.111
 20
-5100.289
 30
1435.338
 70
    32
  0
VERTEX
  8
T38SSILL
 62
3
 10
2047.753
 20
-5103.677
 30
1435.259
 70
    32
  0
VERTEX
  8
T38SSILL
 62
3
 10
2057.645
 20
-5121.473
 30
1435.131
 70
    32
  0
VERTEX
  8
T38SSILL
 62
3
 10
2067.960
 20
-5131.165
 30
1434.965
 70
    32
  0
VERTEX
  8
T38SSILL
 62
3
 10
2070.736
 20
-5136.299
 30
1434.930
 70
    32
  0
VERTEX
  8
T38SSILL
 62
3
 10
2090.835
 20
-5155.768
 30
1434.721
 70
    32
  0
VERTEX
  8
T38SSILL
 62
3
 10
2178.880
 20
-5092.930
 30
1434.064
 70
    32
  0
VERTEX
  8
T38SSILL
 62
3
 10
2176.188
 20
-5088.779
 30
1434.052
 70
    32
  0
VERTEX
  8
T38SSILL
 62
3
 10
2181.851
 20
-5084.213
 30
1434.056
 70
    32
  0
VERTEX
  8
T38SSILL
 62
3
 10
2184.864
 20
-5088.660
 30
1434.081
 70
    32
  0
VERTEX
  8
T38SSILL
 62
3
 10
2255.289
 20
-5038.397
 30
1434.199
 70
    32
  0
VERTEX
  8
T38SSILL
 62
3
 10
2258.666
 20
-5034.989
 30
1434.177
 70
    32
  0
VERTEX
  8
T38SSILL
 62
3
 10
2261.534
 20
-5029.374
 30
1434.147
 70
    32
  0
VERTEX
  8
T38SSILL
 62
3
 10
2262.661
 20
-5021.189
 30
1434.110
 70
    32
  0
VERTEX
  8
T38SSILL
 62
3
 10
2260.540
 20
-5011.655
 30
1434.076
 70
    32
  0
VERTEX
  8
T38SSILL
 62
3
 10
2211.303
 20
-4947.704
 30
1433.912
 70
    32
  0
VERTEX
  8
T38SSILL
 62
3
 10
2208.567
 20
-4958.519
 30
1433.936
 70
    32
  0
VERTEX
  8
T38SSILL
 62
3
 10
2200.904
 20
-4968.410
 30
1433.955
 70
    32
  0
VERTEX
  8
T38SSILL
 62
3
 10
2117.031
 20
-5029.162
 30
1434.052
 70
    32
  0
VERTEX
  8
T38SSILL
 62
3
 10
2121.127
 20
-5034.342
 30
1434.052
 70
    32
  0
VERTEX
  8
T38SSILL
 62
3
 10
2114.303
 20
-5038.866
 30
1434.059
 70
    32
  0
VERTEX
  8
T38SSILL
 62
3
 10
2110.850
 20
-5033.640
 30
1434.058
 70
    32
  0
VERTEX
  8
T38SSILL
 62
3
 10
2069.332
 20
-5063.713
 30
1434.682
 70
    32
  0
VERTEX
  8
T38SSILL
 62
3
 10
2072.902
 20
-5068.442
 30
1434.630
 70
    32
  0
VERTEX
  8
T38SSILL
 62
3
 10
2067.034
 20
-5072.799
 30
1434.762
 70
    32
  0
VERTEX
  8
T38SSILL
 62
3
 10
2063.250
 20
-5068.118
 30
1434.819
 70
    32
  0
VERTEX
  8
T38SSILL
 62
3
 10
1914.880
 20
-5175.588
 30
1438.151
 70
    32
  0
VERTEX
  8
T38SSILL
 62
3
 10
1910.960
 20
-5169.553
 30
1438.205
 70
    32
  0
VERTEX
  8
T38SSILL
 62
3
 10
2022.868
 20
-5087.825
 30
1435.689
 70
    32
  0
VERTEX
  8
T38SSILL
 62
3
 10
2019.760
 20
-5079.063
 30
1435.718
 70
    32
  0
VERTEX
  8
T38SSILL
 62
3
 10
2014.071
 20
-5073.104
 30
1435.807
 70
    32
  0
VERTEX
  8
T38SSILL
 62
3
 10
2009.108
 20
-5064.503
 30
1435.872
 70
    32
  0
VERTEX
  8
T38SSILL
 62
3
 10
2000.002
 20
-5055.252
 30
1436.017
 70
    32
  0
VERTEX
  8
T38SSILL
 62
3
 10
1985.824
 20
-5051.255
 30
1436.281
 70
    32
  0
VERTEX
  8
T38SSILL
 62
3
 10
1983.020
 20
-5048.762
 30
1436.327
 70
    32
  0
VERTEX
  8
T38SSILL
 62
3
 10
1976.644
 20
-5051.359
 30
1436.463
 70
    32
  0
VERTEX
  8
T38SSILL
 62
3
 10
1967.665
 20
-5048.375
 30
1436.628
 70
    32
  0
VERTEX
  8
T38SSILL
 62
3
 10
1947.839
 20
-5033.125
 30
1436.961
 70
    32
  0
VERTEX
  8
T38SSILL
 62
3
 10
1851.529
 20
-5101.998
 30
1439.121
 70
    32
  0
VERTEX
  8
T38SSILL
 62
3
 10
1848.153
 20
-5097.108
 30
1439.169
 70
    32
  0
VERTEX
  8
T38SSILL
 62
3
 10
1903.072
 20
-5057.988
 30
1437.938
 70
    32
  0
VERTEX
  8
T38SSILL
 62
3
 10
1898.104
 20
-5051.713
 30
1438.012
 70
    32
  0
VERTEX
  8
T38SSILL
 62
3
 10
1903.848
 20
-5047.467
 30
1437.883
 70
    32
  0
VERTEX
  8
T38SSILL
 62
3
 10
1908.963
 20
-5053.791
 30
1437.806
 70
    32
  0
VERTEX
  8
T38SSILL
 62
3
 10
1943.051
 20
-5029.510
 30
1437.042
 70
    32
  0
VERTEX
  8
T38SSILL
 62
3
 10
1926.262
 20
-5010.041
 30
1437.299
 70
    32
  0
VERTEX
  8
T38SSILL
 62
3
 10
1932.577
 20
-5004.296
 30
1437.153
 70
    32
  0
VERTEX
  8
T38SSILL
 62
3
 10
1935.303
 20
-4996.486
 30
1437.070
 70
    32
  0
VERTEX
  8
T38SSILL
 62
3
 10
1932.485
 20
-4988.265
 30
1437.094
 70
    32
  0
VERTEX
  8
T38SSILL
 62
3
 10
1927.281
 20
-4980.723
 30
1437.168
 70
    32
  0
VERTEX
  8
T38SSILL
 62
3
 10
1924.119
 20
-4979.896
 30
1437.227
 70
    32
  0
VERTEX
  8
T38SSILL
 62
3
 10
1922.781
 20
-4973.276
 30
1437.228
 70
    32
  0
VERTEX
  8
T38SSILL
 62
3
 10
1923.672
 20
-4972.317
 30
1437.207
 70
    32
  0
VERTEX
  8
T38SSILL
 62
3
 10
1923.474
 20
-4966.238
 30
1437.188
 70
    32
  0
VERTEX
  8
T38SSILL
 62
3
 10
1922.163
 20
-4957.064
 30
1437.179
 70
    32
  0
VERTEX
  8
T38SSILL
 62
3
 10
1915.123
 20
-4948.269
 30
1437.285
 70
    32
  0
VERTEX
  8
T38SSILL
 62
3
 10
1912.150
 20
-4946.299
 30
1437.336
 70
    32
  0
VERTEX
  8
T38SSILL
 62
3
 10
1906.501
 20
-4947.472
 30
1437.452
 70
    32
  0
VERTEX
  8
T38SSILL
 62
3
 10
1902.224
 20
-4950.568
 30
1437.548
 70
    32
  0
VERTEX
  8
T38SSILL
 62
3
 10
1905.472
 20
-4955.030
 30
1437.501
 70
    32
  0
VERTEX
  8
T38SSILL
 62
3
 10
1900.254
 20
-4959.091
 30
1437.619
 70
    32
  0
VERTEX
  8
T38SSILL
 62
3
 10
1896.776
 20
-4954.512
 30
1437.670
 70
    32
  0
VERTEX
  8
T38SSILL
 62
3
 10
1864.426
 20
-4977.934
 30
1438.397
 70
    32
  0
VERTEX
  8
T38SSILL
 62
3
 10
1859.688
 20
-4971.420
 30
1438.465
 70
    32
  0
VERTEX
  8
T38SSILL
 62
3
 10
1898.321
 20
-4944.576
 30
1437.602
 70
    32
  0
VERTEX
  8
T38SSILL
 62
3
 10
1903.961
 20
-4934.424
 30
1437.463
 70
    32
  0
VERTEX
  8
T38SSILL
 62
3
 10
1902.059
 20
-4926.610
 30
1437.481
 70
    32
  0
VERTEX
  8
T38SSILL
 62
3
 10
1903.087
 20
-4924.917
 30
1437.457
 70
    32
  0
VERTEX
  8
T38SSILL
 62
3
 10
1903.564
 20
-4912.035
 30
1437.418
 70
    32
  0
VERTEX
  8
T38SSILL
 62
3
 10
1907.115
 20
-4903.419
 30
1437.331
 70
    32
  0
VERTEX
  8
T38SSILL
 62
3
 10
1918.653
 20
-4897.747
 30
1437.099
 70
    32
  0
VERTEX
  8
T38SSILL
 62
3
 10
1930.148
 20
-4889.608
 30
1436.862
 70
    32
  0
VERTEX
  8
T38SSILL
 62
3
 10
1941.910
 20
-4886.578
 30
1436.631
 70
    32
  0
VERTEX
  8
T38SSILL
 62
3
 10
1947.431
 20
-4889.654
 30
1436.534
 70
    32
  0
VERTEX
  8
T38SSILL
 62
3
 10
1951.291
 20
-4888.528
 30
1436.458
 70
    32
  0
VERTEX
  8
T38SSILL
 62
3
 10
1956.897
 20
-4896.364
 30
1436.370
 70
    32
  0
VERTEX
  8
T38SSILL
 62
3
 10
1960.080
 20
-4896.837
 30
1436.311
 70
    32
  0
VERTEX
  8
T38SSILL
 62
3
 10
1957.370
 20
-4893.181
 30
1436.354
 70
    32
  0
VERTEX
  8
T38SSILL
 62
3
 10
1963.981
 20
-4888.126
 30
1436.216
 70
    32
  0
VERTEX
  8
T38SSILL
 62
3
 10
1968.320
 20
-4894.133
 30
1436.148
 70
    32
  0
VERTEX
  8
T38SSILL
 62
3
 10
2065.396
 20
-4824.165
 30
1434.143
 70
    32
  0
VERTEX
  8
T38SSILL
 62
3
 10
2064.997
 20
-4821.527
 30
1434.145
 70
    32
  0
VERTEX
  8
T38SSILL
 62
3
 10
2059.927
 20
-4819.060
 30
1434.235
 70
    32
  0
VERTEX
  8
T38SSILL
 62
3
 10
2040.500
 20
-4817.464
 30
1434.600
 70
    32
  0
VERTEX
  8
T38SSILL
 62
3
 10
2033.783
 20
-4811.587
 30
1434.714
 70
    32
  0
VERTEX
  8
T38SSILL
 62
3
 10
1969.363
 20
-4793.771
 30
1435.901
 70
    32
  0
VERTEX
  8
T38SSILL
 62
3
 10
1964.263
 20
-4794.567
 30
1435.996
 70
    32
  0
VERTEX
  8
T38SSILL
 62
3
 10
1939.643
 20
-4819.227
 30
1436.518
 70
    32
  0
VERTEX
  8
T38SSILL
 62
3
 10
1930.052
 20
-4813.430
 30
1436.686
 70
    32
  0
VERTEX
  8
T38SSILL
 62
3
 10
1947.852
 20
-4795.811
 30
1436.307
 70
    32
  0
VERTEX
  8
T38SSILL
 62
3
 10
1949.833
 20
-4791.781
 30
1436.268
 70
    32
  0
VERTEX
  8
T38SSILL
 62
3
 10
1932.405
 20
-4798.992
 30
1436.608
 70
    32
  0
VERTEX
  8
T38SSILL
 62
3
 10
1924.593
 20
-4796.530
 30
1436.750
 70
    32
  0
VERTEX
  8
T38SSILL
 62
3
 10
1911.425
 20
-4800.704
 30
1437.010
 70
    32
  0
VERTEX
  8
T38SSILL
 62
3
 10
1903.013
 20
-4804.841
 30
1437.179
 70
    32
  0
VERTEX
  8
T38SSILL
 62
3
 10
1890.151
 20
-4813.334
 30
1437.443
 70
    32
  0
VERTEX
  8
T38SSILL
 62
3
 10
1888.255
 20
-4817.630
 30
1437.489
 70
    32
  0
VERTEX
  8
T38SSILL
 62
3
 10
1879.898
 20
-4824.938
 30
1437.664
 70
    32
  0
VERTEX
  8
T38SSILL
 62
3
 10
1874.699
 20
-4825.146
 30
1437.763
 70
    32
  0
VERTEX
  8
T38SSILL
 62
3
 10
1804.021
 20
-4875.465
 30
1439.222
 70
    32
  0
SEQEND
  8
T38SSILL
  0
POLYLINE
  8
T38SSILL
 62
3
 66
     1
 70
     8
  0
VERTEX
  8
T38SSILL
 62
3
 10
1715.779
 20
-5056.762
 30
1443.317
 70
    32
  0
VERTEX
  8
T38SSILL
 62
3
 10
1707.616
 20
-5162.130
 30
1441.222
 70
    32
  0
VERTEX
  8
T38SSILL
 62
3
 10
1703.262
 20
-5168.724
 30
1441.171
 70
    32
  0
VERTEX
  8
T38SSILL
 62
3
 10
1698.884
 20
-5237.485
 30
1440.717
 70
    32
  0
VERTEX
  8
T38SSILL
 62
3
 10
1691.084
 20
-5246.665
 30
1440.643
 70
    32
  0
VERTEX
  8
T38SSILL
 62
3
 10
1673.938
 20
-5224.020
 30
1440.759
 70
    32
  0
VERTEX
  8
T38SSILL
 62
3
 10
1663.854
 20
-5231.378
 30
1440.722
 70
    32
  0
VERTEX
  8
T38SSILL
 62
3
 10
1675.518
 20
-5245.946
 30
1440.641
 70
    32
  0
VERTEX
  8
T38SSILL
 62
3
 10
1673.419
 20
-5247.997
 30
1440.649
 70
    32
  0
VERTEX
  8
T38SSILL
 62
3
 10
1611.791
 20
-5243.147
 30
1440.979
 70
    32
  0
VERTEX
  8
T38SSILL
 62
3
 10
1595.615
 20
-5223.811
 30
1441.091
 70
    32
  0
VERTEX
  8
T38SSILL
 62
3
 10
1588.306
 20
-5229.607
 30
1441.121
 70
    32
  0
VERTEX
  8
T38SSILL
 62
3
 10
1595.088
 20
-5238.590
 30
1441.073
 70
    32
  0
VERTEX
  8
T38SSILL
 62
3
 10
1594.190
 20
-5242.159
 30
1441.073
 70
    32
  0
VERTEX
  8
T38SSILL
 62
3
 10
1574.260
 20
-5241.546
 30
1441.179
 70
    32
  0
VERTEX
  8
T38SSILL
 62
3
 10
1565.842
 20
-5236.012
 30
1441.231
 70
    32
  0
VERTEX
  8
T38SSILL
 62
3
 10
1564.525
 20
-5246.379
 30
1441.224
 70
    32
  0
VERTEX
  8
T38SSILL
 62
3
 10
1573.964
 20
-5251.827
 30
1441.167
 70
    32
  0
VERTEX
  8
T38SSILL
 62
3
 10
1668.649
 20
-5258.681
 30
1440.659
 70
    32
  0
VERTEX
  8
T38SSILL
 62
3
 10
1677.558
 20
-5258.122
 30
1440.613
 70
    32
  0
VERTEX
  8
T38SSILL
 62
3
 10
1681.453
 20
-5258.570
 30
1440.592
 70
    32
  0
VERTEX
  8
T38SSILL
 62
3
 10
1687.751
 20
-5262.812
 30
1440.553
 70
    32
  0
VERTEX
  8
T38SSILL
 62
3
 10
1689.947
 20
-5265.564
 30
1440.538
 70
    32
  0
VERTEX
  8
T38SSILL
 62
3
 10
1686.982
 20
-5268.670
 30
1440.549
 70
    32
  0
VERTEX
  8
T38SSILL
 62
3
 10
1662.698
 20
-5287.753
 30
1440.651
 70
    32
  0
VERTEX
  8
T38SSILL
 62
3
 10
1667.671
 20
-5296.629
 30
1440.613
 70
    32
  0
VERTEX
  8
T38SSILL
 62
3
 10
1671.362
 20
-5300.255
 30
1440.589
 70
    32
  0
VERTEX
  8
T38SSILL
 62
3
 10
1673.724
 20
-5300.831
 30
1440.575
 70
    32
  0
VERTEX
  8
T38SSILL
 62
3
 10
1678.883
 20
-5293.549
 30
1440.558
 70
    32
  0
VERTEX
  8
T38SSILL
 62
3
 10
1689.723
 20
-5282.724
 30
1440.516
 70
    32
  0
VERTEX
  8
T38SSILL
 62
3
 10
1694.198
 20
-5282.322
 30
1440.493
 70
    32
  0
VERTEX
  8
T38SSILL
 62
3
 10
1699.448
 20
-5284.503
 30
1440.462
 70
    32
  0
VERTEX
  8
T38SSILL
 62
3
 10
1733.881
 20
-5332.398
 30
1440.216
 70
    32
  0
VERTEX
  8
T38SSILL
 62
3
 10
1736.503
 20
-5337.551
 30
1440.195
 70
    32
  0
VERTEX
  8
T38SSILL
 62
3
 10
1729.597
 20
-5341.650
 30
1440.226
 70
    32
  0
VERTEX
  8
T38SSILL
 62
3
 10
1738.316
 20
-5355.736
 30
1440.161
 70
    32
  0
VERTEX
  8
T38SSILL
 62
3
 10
1748.109
 20
-5353.243
 30
1440.113
 70
    32
  0
VERTEX
  8
T38SSILL
 62
3
 10
1749.778
 20
-5354.209
 30
1440.103
 70
    32
  0
VERTEX
  8
T38SSILL
 62
3
 10
1766.712
 20
-5377.764
 30
1439.982
 70
    32
  0
VERTEX
  8
T38SSILL
 62
3
 10
1774.058
 20
-5393.705
 30
1439.921
 70
    32
  0
VERTEX
  8
T38SSILL
 62
3
 10
1772.336
 20
-5395.376
 30
1439.928
 70
    32
  0
VERTEX
  8
T38SSILL
 62
3
 10
1748.214
 20
-5390.738
 30
1440.061
 70
    32
  0
VERTEX
  8
T38SSILL
 62
3
 10
1747.030
 20
-5394.513
 30
1440.062
 70
    32
  0
VERTEX
  8
T38SSILL
 62
3
 10
1746.998
 20
-5407.420
 30
1440.045
 70
    32
  0
VERTEX
  8
T38SSILL
 62
3
 10
1774.907
 20
-5407.386
 30
1439.898
 70
    32
  0
VERTEX
  8
T38SSILL
 62
3
 10
1790.784
 20
-5413.044
 30
1439.807
 70
    32
  0
VERTEX
  8
T38SSILL
 62
3
 10
1796.300
 20
-5425.245
 30
1439.761
 70
    32
  0
VERTEX
  8
T38SSILL
 62
3
 10
1795.181
 20
-5426.700
 30
1439.765
 70
    32
  0
VERTEX
  8
T38SSILL
 62
3
 10
1799.315
 20
-5431.848
 30
1439.737
 70
    32
  0
VERTEX
  8
T38SSILL
 62
3
 10
1806.841
 20
-5426.654
 30
1441.704
 70
    32
  0
VERTEX
  8
T38SSILL
 62
3
 10
1858.848
 20
-5498.254
 30
1442.333
 70
    32
  0
VERTEX
  8
T38SSILL
 62
3
 10
1854.241
 20
-5501.839
 30
1439.353
 70
    32
  0
VERTEX
  8
T38SSILL
 62
3
 10
1858.085
 20
-5507.240
 30
1439.325
 70
    32
  0
VERTEX
  8
T38SSILL
 62
3
 10
1862.779
 20
-5503.656
 30
1442.305
 70
    32
  0
VERTEX
  8
T38SSILL
 62
3
 10
1912.741
 20
-5574.670
 30
1442.946
 70
    32
  0
VERTEX
  8
T38SSILL
 62
3
 10
1909.021
 20
-5577.467
 30
1438.962
 70
    32
  0
VERTEX
  8
T38SSILL
 62
3
 10
1912.951
 20
-5583.133
 30
1438.933
 70
    32
  0
VERTEX
  8
T38SSILL
 62
3
 10
1917.200
 20
-5580.428
 30
1442.915
 70
    32
  0
VERTEX
  8
T38SSILL
 62
3
 10
1967.171
 20
-5649.943
 30
1442.557
 70
    32
  0
VERTEX
  8
T38SSILL
 62
3
 10
1966.258
 20
-5654.873
 30
1438.555
 70
    32
  0
VERTEX
  8
T38SSILL
 62
3
 10
1969.402
 20
-5659.301
 30
1438.533
 70
    32
  0
VERTEX
  8
T38SSILL
 62
3
 10
1973.526
 20
-5660.991
 30
1442.000
 70
    32
  0
VERTEX
  8
T38SSILL
 62
3
 10
1974.569
 20
-5662.563
 30
1442.000
 70
    32
  0
VERTEX
  8
T38SSILL
 62
3
 10
2022.735
 20
-5730.110
 30
1442.000
 70
    32
  0
VERTEX
  8
T38SSILL
 62
3
 10
2017.315
 20
-5733.650
 30
1442.000
 70
    32
  0
VERTEX
  8
T38SSILL
 62
3
 10
2021.155
 20
-5739.669
 30
1442.000
 70
    32
  0
VERTEX
  8
T38SSILL
 62
3
 10
2026.420
 20
-5735.581
 30
1442.000
 70
    32
  0
VERTEX
  8
T38SSILL
 62
3
 10
2026.998
 20
-5736.088
 30
1442.000
 70
    32
  0
VERTEX
  8
T38SSILL
 62
3
 10
2078.878
 20
-5808.842
 30
1442.000
 70
    32
  0
VERTEX
  8
T38SSILL
 62
3
 10
2073.015
 20
-5813.080
 30
1442.000
 70
    32
  0
VERTEX
  8
T38SSILL
 62
3
 10
2077.313
 20
-5818.993
 30
1442.000
 70
    32
  0
VERTEX
  8
T38SSILL
 62
3
 10
2083.208
 20
-5814.913
 30
1442.000
 70
    32
  0
VERTEX
  8
T38SSILL
 62
3
 10
2121.792
 20
-5869.023
 30
1442.000
 70
    32
  0
VERTEX
  8
T38SSILL
 62
3
 10
2132.270
 20
-5883.622
 30
1440.000
 70
    32
  0
VERTEX
  8
T38SSILL
 62
3
 10
2140.521
 20
-5891.102
 30
1437.319
 70
    32
  0
VERTEX
  8
T38SSILL
 62
3
 10
2190.769
 20
-5961.416
 30
1437.126
 70
    32
  0
VERTEX
  8
T38SSILL
 62
3
 10
2182.992
 20
-5966.962
 30
1437.091
 70
    32
  0
VERTEX
  8
T38SSILL
 62
3
 10
2187.151
 20
-5972.983
 30
1437.108
 70
    32
  0
VERTEX
  8
T38SSILL
 62
3
 10
2195.837
 20
-5966.947
 30
1437.147
 70
    32
  0
VERTEX
  8
T38SSILL
 62
3
 10
2204.670
 20
-5972.558
 30
1437.184
 70
    32
  0
VERTEX
  8
T38SSILL
 62
3
 10
2223.006
 20
-5980.597
 30
1437.262
 70
    32
  0
VERTEX
  8
T38SSILL
 62
3
 10
2313.794
 20
-5996.427
 30
1436.966
 70
    32
  0
VERTEX
  8
T38SSILL
 62
3
 10
2325.798
 20
-6003.433
 30
1436.958
 70
    32
  0
VERTEX
  8
T38SSILL
 62
3
 10
2332.256
 20
-6010.576
 30
1436.926
 70
    32
  0
VERTEX
  8
T38SSILL
 62
3
 10
2339.357
 20
-6020.273
 30
1436.891
 70
    32
  0
VERTEX
  8
T38SSILL
 62
3
 10
2331.296
 20
-6019.179
 30
1436.918
 70
    32
  0
VERTEX
  8
T38SSILL
 62
3
 10
2322.919
 20
-6019.819
 30
1436.947
 70
    32
  0
VERTEX
  8
T38SSILL
 62
3
 10
2316.562
 20
-6021.797
 30
1436.968
 70
    32
  0
VERTEX
  8
T38SSILL
 62
3
 10
2310.023
 20
-6025.132
 30
1436.988
 70
    32
  0
VERTEX
  8
T38SSILL
 62
3
 10
2281.938
 20
-6046.822
 30
1437.065
 70
    32
  0
VERTEX
  8
T38SSILL
 62
3
 10
2276.595
 20
-6040.266
 30
1437.093
 70
    32
  0
VERTEX
  8
T38SSILL
 62
3
 10
2256.703
 20
-6054.695
 30
1437.169
 70
    32
  0
VERTEX
  8
T38SSILL
 62
3
 10
2259.808
 20
-6062.962
 30
1437.148
 70
    32
  0
VERTEX
  8
T38SSILL
 62
3
 10
2235.892
 20
-6079.548
 30
1437.260
 70
    32
  0
VERTEX
  8
T38SSILL
 62
3
 10
2241.211
 20
-6086.044
 30
1437.228
 70
    32
  0
VERTEX
  8
T38SSILL
 62
3
 10
2317.123
 20
-6031.231
 30
1436.954
 70
    32
  0
VERTEX
  8
T38SSILL
 62
3
 10
2329.274
 20
-6027.264
 30
1436.914
 70
    32
  0
VERTEX
  8
T38SSILL
 62
3
 10
2336.881
 20
-6027.212
 30
1436.889
 70
    32
  0
VERTEX
  8
T38SSILL
 62
3
 10
2340.970
 20
-6029.517
 30
1436.873
 70
    32
  0
VERTEX
  8
T38SSILL
 62
3
 10
2337.872
 20
-6031.552
 30
1436.880
 70
    32
  0
VERTEX
  8
T38SSILL
 62
3
 10
2342.100
 20
-6037.519
 30
1436.859
 70
    32
  0
VERTEX
  8
T38SSILL
 62
3
 10
2348.684
 20
-6033.007
 30
1436.844
 70
    32
  0
VERTEX
  8
T38SSILL
 62
3
 10
2400.497
 20
-6103.752
 30
1436.585
 70
    32
  0
VERTEX
  8
T38SSILL
 62
3
 10
2393.873
 20
-6108.441
 30
1436.600
 70
    32
  0
VERTEX
  8
T38SSILL
 62
3
 10
2397.957
 20
-6114.074
 30
1436.579
 70
    32
  0
VERTEX
  8
T38SSILL
 62
3
 10
2404.504
 20
-6109.223
 30
1436.565
 70
    32
  0
VERTEX
  8
T38SSILL
 62
3
 10
2431.232
 20
-6145.716
 30
1436.432
 70
    32
  0
VERTEX
  8
T38SSILL
 62
3
 10
2446.604
 20
-6159.013
 30
1436.365
 70
    32
  0
VERTEX
  8
T38SSILL
 62
3
 10
2455.840
 20
-6163.701
 30
1436.330
 70
    32
  0
VERTEX
  8
T38SSILL
 62
3
 10
2468.088
 20
-6166.530
 30
1436.288
 70
    32
  0
VERTEX
  8
T38SSILL
 62
3
 10
2477.118
 20
-6166.346
 30
1436.260
 70
    32
  0
VERTEX
  8
T38SSILL
 62
3
 10
2008.339
 20
-6503.877
 30
1437.540
 70
    32
  0
VERTEX
  8
T38SSILL
 62
3
 10
2012.214
 20
-6509.671
 30
1437.540
 70
    32
  0
VERTEX
  8
T38SSILL
 62
3
 10
2114.404
 20
-6435.881
 30
1437.540
 70
    32
  0
VERTEX
  8
T38SSILL
 62
3
 10
2110.200
 20
-6453.724
 30
1437.500
 70
    32
  0
VERTEX
  8
T38SSILL
 62
3
 10
2111.366
 20
-6465.689
 30
1437.459
 70
    32
  0
VERTEX
  8
T38SSILL
 62
3
 10
2114.528
 20
-6476.350
 30
1437.417
 70
    32
  0
VERTEX
  8
T38SSILL
 62
3
 10
2118.315
 20
-6484.205
 30
1437.382
 70
    32
  0
VERTEX
  8
T38SSILL
 62
3
 10
2300.483
 20
-6738.620
 30
1437.596
 70
    32
  0
VERTEX
  8
T38SSILL
 62
3
 10
2307.553
 20
-6733.659
 30
1437.587
 70
    32
  0
VERTEX
  8
T38SSILL
 62
3
 10
2149.142
 20
-6513.950
 30
1437.208
 70
    32
  0
VERTEX
  8
T38SSILL
 62
3
 10
2155.211
 20
-6515.074
 30
1437.188
 70
    32
  0
VERTEX
  8
T38SSILL
 62
3
 10
2165.328
 20
-6514.101
 30
1437.165
 70
    32
  0
VERTEX
  8
T38SSILL
 62
3
 10
2175.956
 20
-6509.302
 30
1437.152
 70
    32
  0
VERTEX
  8
T38SSILL
 62
3
 10
2242.594
 20
-6460.914
 30
1437.129
 70
    32
  0
VERTEX
  8
T38SSILL
 62
3
 10
2236.551
 20
-6454.820
 30
1437.164
 70
    32
  0
VERTEX
  8
T38SSILL
 62
3
 10
2216.652
 20
-6468.309
 30
1437.174
 70
    32
  0
VERTEX
  8
T38SSILL
 62
3
 10
2211.385
 20
-6461.466
 30
1437.209
 70
    32
  0
VERTEX
  8
T38SSILL
 62
3
 10
2188.135
 20
-6478.662
 30
1437.216
 70
    32
  0
VERTEX
  8
T38SSILL
 62
3
 10
2192.590
 20
-6485.478
 30
1437.183
 70
    32
  0
VERTEX
  8
T38SSILL
 62
3
 10
2170.015
 20
-6502.810
 30
1437.188
 70
    32
  0
VERTEX
  8
T38SSILL
 62
3
 10
2162.756
 20
-6506.152
 30
1437.197
 70
    32
  0
VERTEX
  8
T38SSILL
 62
3
 10
2152.356
 20
-6506.706
 30
1437.222
 70
    32
  0
VERTEX
  8
T38SSILL
 62
3
 10
2145.969
 20
-6504.942
 30
1437.244
 70
    32
  0
VERTEX
  8
T38SSILL
 62
3
 10
2137.704
 20
-6499.150
 30
1437.284
 70
    32
  0
VERTEX
  8
T38SSILL
 62
3
 10
2126.686
 20
-6484.158
 30
1437.361
 70
    32
  0
VERTEX
  8
T38SSILL
 62
3
 10
2133.790
 20
-6478.794
 30
1437.359
 70
    32
  0
VERTEX
  8
T38SSILL
 62
3
 10
2132.684
 20
-6475.728
 30
1437.371
 70
    32
  0
VERTEX
  8
T38SSILL
 62
3
 10
2129.061
 20
-6472.762
 30
1437.390
 70
    32
  0
VERTEX
  8
T38SSILL
 62
3
 10
2122.479
 20
-6477.369
 30
1437.393
 70
    32
  0
VERTEX
  8
T38SSILL
 62
3
 10
2116.661
 20
-6462.382
 30
1437.455
 70
    32
  0
VERTEX
  8
T38SSILL
 62
3
 10
2116.917
 20
-6450.880
 30
1437.491
 70
    32
  0
VERTEX
  8
T38SSILL
 62
3
 10
2120.997
 20
-6438.793
 30
1437.518
 70
    32
  0
VERTEX
  8
T38SSILL
 62
3
 10
2124.987
 20
-6430.958
 30
1437.524
 70
    32
  0
VERTEX
  8
T38SSILL
 62
3
 10
2129.287
 20
-6427.167
 30
1437.507
 70
    32
  0
VERTEX
  8
T38SSILL
 62
3
 10
2326.562
 20
-6283.764
 30
1436.685
 70
    32
  0
VERTEX
  8
T38SSILL
 62
3
 10
2333.682
 20
-6290.456
 30
1436.693
 70
    32
  0
VERTEX
  8
T38SSILL
 62
3
 10
2348.094
 20
-6279.086
 30
1436.623
 70
    32
  0
VERTEX
  8
T38SSILL
 62
3
 10
2343.158
 20
-6271.762
 30
1436.608
 70
    32
  0
VERTEX
  8
T38SSILL
 62
3
 10
2420.967
 20
-6215.490
 30
1436.386
 70
    32
  0
VERTEX
  8
T38SSILL
 62
3
 10
2417.836
 20
-6223.450
 30
1436.408
 70
    32
  0
VERTEX
  8
T38SSILL
 62
3
 10
2416.328
 20
-6231.917
 30
1436.431
 70
    32
  0
VERTEX
  8
T38SSILL
 62
3
 10
2416.598
 20
-6242.129
 30
1436.458
 70
    32
  0
VERTEX
  8
T38SSILL
 62
3
 10
2418.583
 20
-6251.250
 30
1436.482
 70
    32
  0
VERTEX
  8
T38SSILL
 62
3
 10
2423.180
 20
-6262.920
 30
1436.510
 70
    32
  0
VERTEX
  8
T38SSILL
 62
3
 10
2660.284
 20
-6595.148
 30
1437.111
 70
    32
  0
VERTEX
  8
T38SSILL
 62
3
 10
2662.052
 20
-6599.782
 30
1437.123
 70
    32
  0
VERTEX
  8
T38SSILL
 62
3
 10
2660.611
 20
-6605.870
 30
1437.139
 70
    32
  0
VERTEX
  8
T38SSILL
 62
3
 10
2663.284
 20
-6609.368
 30
1437.147
 70
    32
  0
VERTEX
  8
T38SSILL
 62
3
 10
2665.756
 20
-6615.791
 30
1437.163
 70
    32
  0
VERTEX
  8
T38SSILL
 62
3
 10
2671.914
 20
-6617.179
 30
1437.163
 70
    32
  0
VERTEX
  8
T38SSILL
 62
3
 10
2679.555
 20
-6614.996
 30
1437.153
 70
    32
  0
VERTEX
  8
T38SSILL
 62
3
 10
2682.510
 20
-6612.627
 30
1437.145
 70
    32
  0
VERTEX
  8
T38SSILL
 62
3
 10
2570.266
 20
-6455.489
 30
1436.791
 70
    32
  0
VERTEX
  8
T38SSILL
 62
3
 10
2575.605
 20
-6442.320
 30
1436.753
 70
    32
  0
VERTEX
  8
T38SSILL
 62
3
 10
2583.554
 20
-6439.236
 30
1436.741
 70
    32
  0
VERTEX
  8
T38SSILL
 62
3
 10
2656.245
 20
-6428.780
 30
1436.736
 70
    32
  0
VERTEX
  8
T38SSILL
 62
3
 10
2654.966
 20
-6421.888
 30
1436.731
 70
    32
  0
VERTEX
  8
T38SSILL
 62
3
 10
2634.480
 20
-6425.245
 30
1436.723
 70
    32
  0
VERTEX
  8
T38SSILL
 62
3
 10
2633.424
 20
-6421.398
 30
1436.720
 70
    32
  0
VERTEX
  8
T38SSILL
 62
3
 10
2627.866
 20
-6418.332
 30
1436.716
 70
    32
  0
VERTEX
  8
T38SSILL
 62
3
 10
2627.743
 20
-6416.431
 30
1436.714
 70
    32
  0
VERTEX
  8
T38SSILL
 62
3
 10
2619.123
 20
-6417.478
 30
1436.711
 70
    32
  0
VERTEX
  8
T38SSILL
 62
3
 10
2616.478
 20
-6417.062
 30
1436.709
 70
    32
  0
VERTEX
  8
T38SSILL
 62
3
 10
2613.693
 20
-6414.869
 30
1436.706
 70
    32
  0
VERTEX
  8
T38SSILL
 62
3
 10
2607.889
 20
-6406.116
 30
1436.696
 70
    32
  0
VERTEX
  8
T38SSILL
 62
3
 10
2605.673
 20
-6398.722
 30
1436.689
 70
    32
  0
VERTEX
  8
T38SSILL
 62
3
 10
2610.374
 20
-6388.923
 30
1436.682
 70
    32
  0
VERTEX
  8
T38SSILL
 62
3
 10
2608.428
 20
-6386.088
 30
1436.679
 70
    32
  0
VERTEX
  8
T38SSILL
 62
3
 10
2599.843
 20
-6381.235
 30
1436.669
 70
    32
  0
VERTEX
  8
T38SSILL
 62
3
 10
2600.980
 20
-6374.603
 30
1436.645
 70
    32
  0
VERTEX
  8
T38SSILL
 62
3
 10
2590.634
 20
-6365.998
 30
1436.598
 70
    32
  0
VERTEX
  8
T38SSILL
 62
3
 10
2587.992
 20
-6367.906
 30
1436.605
 70
    32
  0
VERTEX
  8
T38SSILL
 62
3
 10
2585.418
 20
-6377.299
 30
1436.645
 70
    32
  0
VERTEX
  8
T38SSILL
 62
3
 10
2583.171
 20
-6380.014
 30
1436.656
 70
    32
  0
VERTEX
  8
T38SSILL
 62
3
 10
2569.321
 20
-6388.717
 30
1436.664
 70
    32
  0
VERTEX
  8
T38SSILL
 62
3
 10
2564.254
 20
-6397.023
 30
1436.669
 70
    32
  0
VERTEX
  8
T38SSILL
 62
3
 10
2552.132
 20
-6405.957
 30
1436.670
 70
    32
  0
VERTEX
  8
T38SSILL
 62
3
 10
2547.946
 20
-6412.370
 30
1436.689
 70
    32
  0
VERTEX
  8
T38SSILL
 62
3
 10
2541.712
 20
-6416.249
 30
1436.702
 70
    32
  0
VERTEX
  8
T38SSILL
 62
3
 10
2430.607
 20
-6262.341
 30
1436.505
 70
    32
  0
VERTEX
  8
T38SSILL
 62
3
 10
2425.553
 20
-6250.799
 30
1436.479
 70
    32
  0
VERTEX
  8
T38SSILL
 62
3
 10
2424.255
 20
-6239.822
 30
1436.450
 70
    32
  0
VERTEX
  8
T38SSILL
 62
3
 10
2424.677
 20
-6230.079
 30
1436.424
 70
    32
  0
VERTEX
  8
T38SSILL
 62
3
 10
2428.040
 20
-6218.531
 30
1436.392
 70
    32
  0
VERTEX
  8
T38SSILL
 62
3
 10
2432.004
 20
-6210.957
 30
1436.371
 70
    32
  0
VERTEX
  8
T38SSILL
 62
3
 10
2438.257
 20
-6202.986
 30
1436.349
 70
    32
  0
VERTEX
  8
T38SSILL
 62
3
 10
2681.508
 20
-6027.066
 30
1435.406
 70
    32
  0
VERTEX
  8
T38SSILL
 62
3
 10
2698.384
 20
-6021.601
 30
1435.364
 70
    32
  0
VERTEX
  8
T38SSILL
 62
3
 10
2813.424
 20
-6040.829
 30
1435.346
 70
    32
  0
VERTEX
  8
T38SSILL
 62
3
 10
2801.315
 20
-6049.431
 30
1435.387
 70
    32
  0
VERTEX
  8
T38SSILL
 62
3
 10
2794.988
 20
-6043.615
 30
1435.358
 70
    32
  0
VERTEX
  8
T38SSILL
 62
3
 10
2792.733
 20
-6039.889
 30
1435.339
 70
    32
  0
VERTEX
  8
T38SSILL
 62
3
 10
2785.215
 20
-6045.046
 30
1435.365
 70
    32
  0
VERTEX
  8
T38SSILL
 62
3
 10
2790.205
 20
-6051.562
 30
1435.398
 70
    32
  0
VERTEX
  8
T38SSILL
 62
3
 10
2791.988
 20
-6056.057
 30
1435.421
 70
    32
  0
VERTEX
  8
T38SSILL
 62
3
 10
2753.514
 20
-6083.389
 30
1435.525
 70
    32
  0
VERTEX
  8
T38SSILL
 62
3
 10
2746.152
 20
-6074.939
 30
1435.495
 70
    32
  0
VERTEX
  8
T38SSILL
 62
3
 10
2737.378
 20
-6080.017
 30
1435.514
 70
    32
  0
VERTEX
  8
T38SSILL
 62
3
 10
2739.110
 20
-6095.755
 30
1435.571
 70
    32
  0
VERTEX
  8
T38SSILL
 62
3
 10
2755.681
 20
-6126.010
 30
1435.680
 70
    32
  0
VERTEX
  8
T38SSILL
 62
3
 10
2759.831
 20
-6131.617
 30
1435.700
 70
    32
  0
VERTEX
  8
T38SSILL
 62
3
 10
2761.586
 20
-6137.174
 30
1435.720
 70
    32
  0
VERTEX
  8
T38SSILL
 62
3
 10
2747.683
 20
-6147.380
 30
1435.758
 70
    32
  0
VERTEX
  8
T38SSILL
 62
3
 10
2753.075
 20
-6154.646
 30
1435.784
 70
    32
  0
VERTEX
  8
T38SSILL
 62
3
 10
2878.526
 20
-6062.237
 30
1435.446
 70
    32
  0
VERTEX
  8
T38SSILL
 62
3
 10
2883.510
 20
-6057.258
 30
1435.429
 70
    32
  0
VERTEX
  8
T38SSILL
 62
3
 10
2888.544
 20
-6050.779
 30
1435.469
 70
    32
  0
VERTEX
  8
T38SSILL
 62
3
 10
2894.037
 20
-6038.203
 30
1435.526
 70
    32
  0
VERTEX
  8
T38SSILL
 62
3
 10
2905.896
 20
-5982.256
 30
1435.712
 70
    32
  0
VERTEX
  8
T38SSILL
 62
3
 10
2949.525
 20
-5951.053
 30
1436.012
 70
    32
  0
VERTEX
  8
T38SSILL
 62
3
 10
2955.103
 20
-5945.176
 30
1436.055
 70
    32
  0
VERTEX
  8
T38SSILL
 62
3
 10
2959.669
 20
-5937.651
 30
1436.095
 70
    32
  0
VERTEX
  8
T38SSILL
 62
3
 10
2962.368
 20
-5927.946
 30
1436.131
 70
    32
  0
VERTEX
  8
T38SSILL
 62
3
 10
3011.895
 20
-5992.901
 30
1436.250
 70
    32
  0
VERTEX
  8
T38SSILL
 62
3
 10
3013.087
 20
-6001.423
 30
1436.237
 70
    32
  0
VERTEX
  8
T38SSILL
 62
3
 10
3011.071
 20
-6012.057
 30
1436.203
 70
    32
  0
VERTEX
  8
T38SSILL
 62
3
 10
3005.383
 20
-6020.493
 30
1436.154
 70
    32
  0
VERTEX
  8
T38SSILL
 62
3
 10
2893.870
 20
-6103.795
 30
1435.645
 70
    32
  0
VERTEX
  8
T38SSILL
 62
3
 10
2887.112
 20
-6095.509
 30
1435.602
 70
    32
  0
VERTEX
  8
T38SSILL
 62
3
 10
2867.812
 20
-6109.070
 30
1435.649
 70
    32
  0
VERTEX
  8
T38SSILL
 62
3
 10
2874.281
 20
-6118.450
 30
1435.696
 70
    32
  0
VERTEX
  8
T38SSILL
 62
3
 10
2861.700
 20
-6127.861
 30
1435.729
 70
    32
  0
VERTEX
  8
T38SSILL
 62
3
 10
2855.817
 20
-6119.770
 30
1435.688
 70
    32
  0
VERTEX
  8
T38SSILL
 62
3
 10
2845.860
 20
-6126.482
 30
1435.711
 70
    32
  0
VERTEX
  8
T38SSILL
 62
3
 10
2851.794
 20
-6134.642
 30
1435.752
 70
    32
  0
VERTEX
  8
T38SSILL
 62
3
 10
2836.840
 20
-6131.685
 30
1435.728
 70
    32
  0
VERTEX
  8
T38SSILL
 62
3
 10
2820.634
 20
-6141.457
 30
1435.760
 70
    32
  0
VERTEX
  8
T38SSILL
 62
3
 10
2816.379
 20
-6149.586
 30
1435.793
 70
    32
  0
VERTEX
  8
T38SSILL
 62
3
 10
2804.123
 20
-6152.460
 30
1435.797
 70
    32
  0
VERTEX
  8
T38SSILL
 62
3
 10
2799.970
 20
-6167.879
 30
1435.863
 70
    32
  0
VERTEX
  8
T38SSILL
 62
3
 10
2792.398
 20
-6172.624
 30
1435.879
 70
    32
  0
VERTEX
  8
T38SSILL
 62
3
 10
2784.896
 20
-6170.373
 30
1435.863
 70
    32
  0
VERTEX
  8
T38SSILL
 62
3
 10
2772.171
 20
-6178.945
 30
1435.892
 70
    32
  0
VERTEX
  8
T38SSILL
 62
3
 10
2772.206
 20
-6187.117
 30
1435.929
 70
    32
  0
VERTEX
  8
T38SSILL
 62
3
 10
2761.365
 20
-6195.414
 30
1435.958
 70
    32
  0
VERTEX
  8
T38SSILL
 62
3
 10
2766.012
 20
-6200.987
 30
1435.987
 70
    32
  0
VERTEX
  8
T38SSILL
 62
3
 10
2767.610
 20
-6199.886
 30
1435.983
 70
    32
  0
VERTEX
  8
T38SSILL
 62
3
 10
2784.678
 20
-6197.883
 30
1435.987
 70
    32
  0
VERTEX
  8
T38SSILL
 62
3
 10
2803.060
 20
-6205.533
 30
1436.035
 70
    32
  0
VERTEX
  8
T38SSILL
 62
3
 10
2805.871
 20
-6212.439
 30
1436.068
 70
    32
  0
VERTEX
  8
T38SSILL
 62
3
 10
2823.086
 20
-6215.748
 30
1436.096
 70
    32
  0
VERTEX
  8
T38SSILL
 62
3
 10
2860.156
 20
-6268.361
 30
1436.360
 70
    32
  0
VERTEX
  8
T38SSILL
 62
3
 10
2866.196
 20
-6263.954
 30
1436.345
 70
    32
  0
VERTEX
  8
T38SSILL
 62
3
 10
2829.880
 20
-6213.199
 30
1436.089
 70
    32
  0
VERTEX
  8
T38SSILL
 62
3
 10
2838.121
 20
-6203.064
 30
1436.050
 70
    32
  0
VERTEX
  8
T38SSILL
 62
3
 10
2839.777
 20
-6196.261
 30
1436.020
 70
    32
  0
VERTEX
  8
T38SSILL
 62
3
 10
2815.509
 20
-6189.316
 30
1435.971
 70
    32
  0
VERTEX
  8
T38SSILL
 62
3
 10
2813.944
 20
-6175.427
 30
1435.907
 70
    32
  0
VERTEX
  8
T38SSILL
 62
3
 10
2845.259
 20
-6147.936
 30
1435.807
 70
    32
  0
VERTEX
  8
T38SSILL
 62
3
 10
2854.175
 20
-6149.907
 30
1435.823
 70
    32
  0
VERTEX
  8
T38SSILL
 62
3
 10
2859.621
 20
-6146.082
 30
1435.809
 70
    32
  0
VERTEX
  8
T38SSILL
 62
3
 10
2860.674
 20
-6140.802
 30
1435.786
 70
    32
  0
VERTEX
  8
T38SSILL
 62
3
 10
2866.007
 20
-6136.623
 30
1435.772
 70
    32
  0
VERTEX
  8
T38SSILL
 62
3
 10
2867.147
 20
-6130.791
 30
1435.746
 70
    32
  0
VERTEX
  8
T38SSILL
 62
3
 10
2938.607
 20
-6077.657
 30
1435.675
 70
    32
  0
VERTEX
  8
T38SSILL
 62
3
 10
2942.614
 20
-6082.957
 30
1435.684
 70
    32
  0
VERTEX
  8
T38SSILL
 62
3
 10
2948.421
 20
-6078.430
 30
1435.725
 70
    32
  0
VERTEX
  8
T38SSILL
 62
3
 10
2944.655
 20
-6073.160
 30
1435.717
 70
    32
  0
VERTEX
  8
T38SSILL
 62
3
 10
3013.682
 20
-6020.894
 30
1436.197
 70
    32
  0
VERTEX
  8
T38SSILL
 62
3
 10
3017.331
 20
-6015.421
 30
1436.229
 70
    32
  0
VERTEX
  8
T38SSILL
 62
3
 10
3020.887
 20
-6002.984
 30
1436.275
 70
    32
  0
VERTEX
  8
T38SSILL
 62
3
 10
3068.679
 20
-6067.431
 30
1436.385
 70
    32
  0
VERTEX
  8
T38SSILL
 62
3
 10
3070.508
 20
-6076.730
 30
1436.375
 70
    32
  0
VERTEX
  8
T38SSILL
 62
3
 10
3068.221
 20
-6087.106
 30
1436.340
 70
    32
  0
VERTEX
  8
T38SSILL
 62
3
 10
3062.788
 20
-6095.184
 30
1436.293
 70
    32
  0
VERTEX
  8
T38SSILL
 62
3
 10
3059.420
 20
-6097.916
 30
1436.269
 70
    32
  0
VERTEX
  8
T38SSILL
 62
3
 10
2959.900
 20
-6169.164
 30
1435.988
 70
    32
  0
VERTEX
  8
T38SSILL
 62
3
 10
2964.361
 20
-6175.181
 30
1436.019
 70
    32
  0
VERTEX
  8
T38SSILL
 62
3
 10
3007.215
 20
-6144.400
 30
1435.912
 70
    32
  0
VERTEX
  8
T38SSILL
 62
3
 10
3010.846
 20
-6149.071
 30
1435.936
 70
    32
  0
VERTEX
  8
T38SSILL
 62
3
 10
3017.183
 20
-6144.432
 30
1435.943
 70
    32
  0
VERTEX
  8
T38SSILL
 62
3
 10
3013.405
 20
-6139.954
 30
1435.933
 70
    32
  0
VERTEX
  8
T38SSILL
 62
3
 10
3066.156
 20
-6102.065
 30
1436.296
 70
    32
  0
VERTEX
  8
T38SSILL
 62
3
 10
3071.062
 20
-6097.440
 30
1436.332
 70
    32
  0
VERTEX
  8
T38SSILL
 62
3
 10
3075.158
 20
-6092.218
 30
1436.365
 70
    32
  0
VERTEX
  8
T38SSILL
 62
3
 10
3078.647
 20
-6077.224
 30
1436.417
 70
    32
  0
VERTEX
  8
T38SSILL
 62
3
 10
3126.969
 20
-6141.307
 30
1436.531
 70
    32
  0
VERTEX
  8
T38SSILL
 62
3
 10
3129.309
 20
-6149.888
 30
1436.524
 70
    32
  0
VERTEX
  8
T38SSILL
 62
3
 10
3128.430
 20
-6160.140
 30
1436.497
 70
    32
  0
VERTEX
  8
T38SSILL
 62
3
 10
3125.266
 20
-6167.277
 30
1436.464
 70
    32
  0
VERTEX
  8
T38SSILL
 62
3
 10
3119.838
 20
-6172.181
 30
1436.425
 70
    32
  0
VERTEX
  8
T38SSILL
 62
3
 10
3116.826
 20
-6174.355
 30
1436.404
 70
    32
  0
VERTEX
  8
T38SSILL
 62
3
 10
3112.938
 20
-6169.222
 30
1436.395
 70
    32
  0
VERTEX
  8
T38SSILL
 62
3
 10
3106.898
 20
-6174.029
 30
1436.352
 70
    32
  0
VERTEX
  8
T38SSILL
 62
3
 10
3110.188
 20
-6179.145
 30
1436.358
 70
    32
  0
VERTEX
  8
T38SSILL
 62
3
 10
3073.335
 20
-6205.741
 30
1436.238
 70
    32
  0
VERTEX
  8
T38SSILL
 62
3
 10
3070.019
 20
-6200.501
 30
1436.212
 70
    32
  0
VERTEX
  8
T38SSILL
 62
3
 10
3059.950
 20
-6208.338
 30
1436.239
 70
    32
  0
VERTEX
  8
T38SSILL
 62
3
 10
3063.287
 20
-6212.993
 30
1436.263
 70
    32
  0
VERTEX
  8
T38SSILL
 62
3
 10
3015.955
 20
-6247.152
 30
1436.381
 70
    32
  0
VERTEX
  8
T38SSILL
 62
3
 10
3020.175
 20
-6252.648
 30
1436.409
 70
    32
  0
VERTEX
  8
T38SSILL
 62
3
 10
3119.719
 20
-6180.708
 30
1436.405
 70
    32
  0
VERTEX
  8
T38SSILL
 62
3
 10
3123.824
 20
-6185.786
 30
1436.416
 70
    32
  0
VERTEX
  8
T38SSILL
 62
3
 10
3129.866
 20
-6181.155
 30
1436.458
 70
    32
  0
VERTEX
  8
T38SSILL
 62
3
 10
3126.352
 20
-6175.914
 30
1436.451
 70
    32
  0
VERTEX
  8
T38SSILL
 62
3
 10
3132.821
 20
-6166.198
 30
1436.507
 70
    32
  0
VERTEX
  8
T38SSILL
 62
3
 10
3135.990
 20
-6152.447
 30
1436.554
 70
    32
  0
VERTEX
  8
T38SSILL
 62
3
 10
3171.946
 20
-6198.863
 30
1436.642
 70
    32
  0
VERTEX
  8
T38SSILL
 62
3
 10
3177.839
 20
-6215.199
 30
1436.637
 70
    32
  0
VERTEX
  8
T38SSILL
 62
3
 10
3178.429
 20
-6224.267
 30
1436.620
 70
    32
  0
VERTEX
  8
T38SSILL
 62
3
 10
3177.010
 20
-6234.092
 30
1436.591
 70
    32
  0
VERTEX
  8
T38SSILL
 62
3
 10
3173.184
 20
-6242.922
 30
1436.551
 70
    32
  0
VERTEX
  8
T38SSILL
 62
3
 10
3153.798
 20
-6216.444
 30
1436.507
 70
    32
  0
VERTEX
  8
T38SSILL
 62
3
 10
3136.265
 20
-6200.147
 30
1436.450
 70
    32
  0
VERTEX
  8
T38SSILL
 62
3
 10
3115.715
 20
-6213.558
 30
1436.312
 70
    32
  0
VERTEX
  8
T38SSILL
 62
3
 10
3111.065
 20
-6227.965
 30
1436.366
 70
    32
  0
VERTEX
  8
T38SSILL
 62
3
 10
3116.539
 20
-6255.247
 30
1436.493
 70
    32
  0
VERTEX
  8
T38SSILL
 62
3
 10
3127.757
 20
-6282.997
 30
1436.626
 70
    32
  0
VERTEX
  8
T38SSILL
 62
3
 10
3077.283
 20
-6318.882
 30
1436.750
 70
    32
  0
VERTEX
  8
T38SSILL
 62
3
 10
3081.588
 20
-6325.031
 30
1436.781
 70
    32
  0
VERTEX
  8
T38SSILL
 62
3
 10
3114.475
 20
-6301.157
 30
1436.698
 70
    32
  0
VERTEX
  8
T38SSILL
 62
3
 10
3122.601
 20
-6311.791
 30
1436.752
 70
    32
  0
VERTEX
  8
T38SSILL
 62
3
 10
3132.506
 20
-6309.504
 30
1436.749
 70
    32
  0
VERTEX
  8
T38SSILL
 62
3
 10
3159.328
 20
-6330.321
 30
1436.856
 70
    32
  0
VERTEX
  8
T38SSILL
 62
3
 10
3172.554
 20
-6316.748
 30
1436.811
 70
    32
  0
VERTEX
  8
T38SSILL
 62
3
 10
3197.843
 20
-6282.226
 30
1436.675
 70
    32
  0
VERTEX
  8
T38SSILL
 62
3
 10
3196.466
 20
-6259.863
 30
1436.637
 70
    32
  0
VERTEX
  8
T38SSILL
 62
3
 10
3184.005
 20
-6238.583
 30
1436.618
 70
    32
  0
VERTEX
  8
T38SSILL
 62
3
 10
3186.291
 20
-6221.416
 30
1436.668
 70
    32
  0
VERTEX
  8
T38SSILL
 62
3
 10
3185.582
 20
-6217.907
 30
1436.672
 70
    32
  0
VERTEX
  8
T38SSILL
 62
3
 10
3201.521
 20
-6238.625
 30
1436.710
 70
    32
  0
VERTEX
  8
T38SSILL
 62
3
 10
3196.101
 20
-6242.467
 30
1436.673
 70
    32
  0
VERTEX
  8
T38SSILL
 62
3
 10
3200.997
 20
-6248.595
 30
1436.685
 70
    32
  0
VERTEX
  8
T38SSILL
 62
3
 10
3206.146
 20
-6244.637
 30
1436.721
 70
    32
  0
VERTEX
  8
T38SSILL
 62
3
 10
3232.135
 20
-6278.420
 30
1436.784
 70
    32
  0
VERTEX
  8
T38SSILL
 62
3
 10
3236.112
 20
-6292.250
 30
1436.775
 70
    32
  0
VERTEX
  8
T38SSILL
 62
3
 10
3235.624
 20
-6303.991
 30
1436.801
 70
    32
  0
VERTEX
  8
T38SSILL
 62
3
 10
3232.684
 20
-6316.325
 30
1436.854
 70
    32
  0
VERTEX
  8
T38SSILL
 62
3
 10
3227.000
 20
-6324.939
 30
1436.879
 70
    32
  0
VERTEX
  8
T38SSILL
 62
3
 10
3215.996
 20
-6335.808
 30
1436.887
 70
    32
  0
VERTEX
  8
T38SSILL
 62
3
 10
3197.890
 20
-6348.760
 30
1436.894
 70
    32
  0
VERTEX
  8
T38SSILL
 62
3
 10
3193.465
 20
-6342.800
 30
1436.885
 70
    32
  0
VERTEX
  8
T38SSILL
 62
3
 10
3183.597
 20
-6349.640
 30
1436.889
 70
    32
  0
VERTEX
  8
T38SSILL
 62
3
 10
3188.128
 20
-6355.742
 30
1436.898
 70
    32
  0
VERTEX
  8
T38SSILL
 62
3
 10
3139.990
 20
-6390.173
 30
1436.913
 70
    32
  0
VERTEX
  8
T38SSILL
 62
3
 10
3117.897
 20
-6357.946
 30
1436.870
 70
    32
  0
VERTEX
  8
T38SSILL
 62
3
 10
3120.290
 20
-6348.271
 30
1436.860
 70
    32
  0
VERTEX
  8
T38SSILL
 62
3
 10
3114.194
 20
-6334.321
 30
1436.841
 70
    32
  0
VERTEX
  8
T38SSILL
 62
3
 10
3117.575
 20
-6325.326
 30
1436.809
 70
    32
  0
VERTEX
  8
T38SSILL
 62
3
 10
3112.565
 20
-6329.337
 30
1436.823
 70
    32
  0
VERTEX
  8
T38SSILL
 62
3
 10
3104.643
 20
-6329.896
 30
1436.820
 70
    32
  0
VERTEX
  8
T38SSILL
 62
3
 10
3097.132
 20
-6336.089
 30
1436.835
 70
    32
  0
VERTEX
  8
T38SSILL
 62
3
 10
3096.148
 20
-6342.287
 30
1436.842
 70
    32
  0
VERTEX
  8
T38SSILL
 62
3
 10
3101.384
 20
-6353.703
 30
1436.858
 70
    32
  0
VERTEX
  8
T38SSILL
 62
3
 10
3093.923
 20
-6368.536
 30
1436.872
 70
    32
  0
VERTEX
  8
T38SSILL
 62
3
 10
3101.349
 20
-6386.155
 30
1436.893
 70
    32
  0
VERTEX
  8
T38SSILL
 62
3
 10
3109.928
 20
-6393.868
 30
1436.903
 70
    32
  0
VERTEX
  8
T38SSILL
 62
3
 10
3113.433
 20
-6399.773
 30
1436.910
 70
    32
  0
VERTEX
  8
T38SSILL
 62
3
 10
3114.628
 20
-6408.384
 30
1436.918
 70
    32
  0
VERTEX
  8
T38SSILL
 62
3
 10
3064.036
 20
-6445.262
 30
1436.929
 70
    32
  0
VERTEX
  8
T38SSILL
 62
3
 10
3068.482
 20
-6451.299
 30
1436.937
 70
    32
  0
VERTEX
  8
T38SSILL
 62
3
 10
3111.880
 20
-6421.330
 30
1436.929
 70
    32
  0
VERTEX
  8
T38SSILL
 62
3
 10
3114.244
 20
-6424.090
 30
1436.932
 70
    32
  0
VERTEX
  8
T38SSILL
 62
3
 10
3115.478
 20
-6434.199
 30
1436.942
 70
    32
  0
VERTEX
  8
T38SSILL
 62
3
 10
3117.975
 20
-6438.631
 30
1436.947
 70
    32
  0
VERTEX
  8
T38SSILL
 62
3
 10
3115.426
 20
-6449.104
 30
1436.955
 70
    32
  0
VERTEX
  8
T38SSILL
 62
3
 10
3119.089
 20
-6454.299
 30
1436.961
 70
    32
  0
VERTEX
  8
T38SSILL
 62
3
 10
3127.797
 20
-6477.087
 30
1436.986
 70
    32
  0
VERTEX
  8
T38SSILL
 62
3
 10
3129.274
 20
-6479.606
 30
1436.988
 70
    32
  0
VERTEX
  8
T38SSILL
 62
3
 10
3135.300
 20
-6484.123
 30
1436.995
 70
    32
  0
VERTEX
  8
T38SSILL
 62
3
 10
3136.422
 20
-6486.563
 30
1436.998
 70
    32
  0
VERTEX
  8
T38SSILL
 62
3
 10
3140.730
 20
-6489.448
 30
1437.002
 70
    32
  0
VERTEX
  8
T38SSILL
 62
3
 10
3148.804
 20
-6501.495
 30
1437.017
 70
    32
  0
VERTEX
  8
T38SSILL
 62
3
 10
3125.818
 20
-6518.381
 30
1437.022
 70
    32
  0
VERTEX
  8
T38SSILL
 62
3
 10
3130.368
 20
-6524.904
 30
1437.030
 70
    32
  0
VERTEX
  8
T38SSILL
 62
3
 10
3217.806
 20
-6462.569
 30
1437.012
 70
    32
  0
VERTEX
  8
T38SSILL
 62
3
 10
3233.271
 20
-6487.474
 30
1437.041
 70
    32
  0
VERTEX
  8
T38SSILL
 62
3
 10
3244.291
 20
-6521.137
 30
1437.076
 70
    32
  0
VERTEX
  8
T38SSILL
 62
3
 10
3262.482
 20
-6551.830
 30
1437.111
 70
    32
  0
VERTEX
  8
T38SSILL
 62
3
 10
3214.192
 20
-6587.619
 30
1437.119
 70
    32
  0
VERTEX
  8
T38SSILL
 62
3
 10
3218.216
 20
-6593.158
 30
1437.124
 70
    32
  0
VERTEX
  8
T38SSILL
 62
3
 10
3266.358
 20
-6558.346
 30
1437.119
 70
    32
  0
VERTEX
  8
T38SSILL
 62
3
 10
3279.327
 20
-6583.009
 30
1437.146
 70
    32
  0
VERTEX
  8
T38SSILL
 62
3
 10
3295.114
 20
-6576.336
 30
1437.147
 70
    32
  0
VERTEX
  8
T38SSILL
 62
3
 10
3292.603
 20
-6564.585
 30
1437.136
 70
    32
  0
VERTEX
  8
T38SSILL
 62
3
 10
3290.611
 20
-6540.808
 30
1437.113
 70
    32
  0
VERTEX
  8
T38SSILL
 62
3
 10
3383.700
 20
-6473.494
 30
1437.094
 70
    32
  0
VERTEX
  8
T38SSILL
 62
3
 10
3418.429
 20
-6520.207
 30
1437.150
 70
    32
  0
VERTEX
  8
T38SSILL
 62
3
 10
3419.593
 20
-6531.023
 30
1437.161
 70
    32
  0
VERTEX
  8
T38SSILL
 62
3
 10
3418.107
 20
-6538.293
 30
1437.166
 70
    32
  0
VERTEX
  8
T38SSILL
 62
3
 10
3415.154
 20
-6543.396
 30
1437.170
 70
    32
  0
VERTEX
  8
T38SSILL
 62
3
 10
3407.337
 20
-6551.361
 30
1437.174
 70
    32
  0
VERTEX
  8
T38SSILL
 62
3
 10
3399.295
 20
-6557.082
 30
1437.175
 70
    32
  0
VERTEX
  8
T38SSILL
 62
3
 10
3394.937
 20
-6551.102
 30
1437.168
 70
    32
  0
VERTEX
  8
T38SSILL
 62
3
 10
3389.154
 20
-6555.651
 30
1437.169
 70
    32
  0
VERTEX
  8
T38SSILL
 62
3
 10
3393.315
 20
-6561.337
 30
1437.176
 70
    32
  0
VERTEX
  8
T38SSILL
 62
3
 10
3295.790
 20
-6630.726
 30
1437.184
 70
    32
  0
VERTEX
  8
T38SSILL
 62
3
 10
3300.226
 20
-6637.049
 30
1437.189
 70
    32
  0
VERTEX
  8
T38SSILL
 62
3
 10
3324.338
 20
-6619.821
 30
1437.195
 70
    32
  0
VERTEX
  8
T38SSILL
 62
3
 10
3328.173
 20
-6624.192
 30
1437.199
 70
    32
  0
VERTEX
  8
T38SSILL
 62
3
 10
3334.307
 20
-6619.463
 30
1437.201
 70
    32
  0
VERTEX
  8
T38SSILL
 62
3
 10
3330.940
 20
-6615.104
 30
1437.197
 70
    32
  0
VERTEX
  8
T38SSILL
 62
3
 10
3413.978
 20
-6555.773
 30
1437.180
 70
    32
  0
VERTEX
  8
T38SSILL
 62
3
 10
3421.929
 20
-6546.218
 30
1437.175
 70
    32
  0
VERTEX
  8
T38SSILL
 62
3
 10
3427.296
 20
-6532.233
 30
1437.165
 70
    32
  0
VERTEX
  8
T38SSILL
 62
3
 10
3569.159
 20
-6713.715
 30
1437.374
 70
    32
  0
VERTEX
  8
T38SSILL
 62
3
 10
3589.508
 20
-6744.073
 30
1437.398
 70
    32
  0
VERTEX
  8
T38SSILL
 62
3
 10
3591.958
 20
-6752.334
 30
1437.403
 70
    32
  0
VERTEX
  8
T38SSILL
 62
3
 10
3591.943
 20
-6760.704
 30
1437.407
 70
    32
  0
VERTEX
  8
T38SSILL
 62
3
 10
3588.324
 20
-6770.162
 30
1437.409
 70
    32
  0
VERTEX
  8
T38SSILL
 62
3
 10
3582.651
 20
-6776.467
 30
1437.407
 70
    32
  0
VERTEX
  8
T38SSILL
 62
3
 10
3483.423
 20
-6847.374
 30
1437.334
 70
    32
  0
VERTEX
  8
T38SSILL
 62
3
 10
3477.853
 20
-6843.187
 30
1437.326
 70
    32
  0
VERTEX
  8
T38SSILL
 62
3
 10
3466.706
 20
-6827.688
 30
1437.291
 70
    32
  0
VERTEX
  8
T38SSILL
 62
3
 10
3464.371
 20
-6822.510
 30
1437.279
 70
    32
  0
VERTEX
  8
T38SSILL
 62
3
 10
3456.344
 20
-6811.302
 30
1437.254
 70
    32
  0
VERTEX
  8
T38SSILL
 62
3
 10
3444.868
 20
-6788.229
 30
1437.199
 70
    32
  0
VERTEX
  8
T38SSILL
 62
3
 10
3441.652
 20
-6772.927
 30
1437.232
 70
    32
  0
VERTEX
  8
T38SSILL
 62
3
 10
3438.589
 20
-6765.112
 30
1437.291
 70
    32
  0
VERTEX
  8
T38SSILL
 62
3
 10
3435.718
 20
-6759.233
 30
1437.306
 70
    32
  0
VERTEX
  8
T38SSILL
 62
3
 10
3430.110
 20
-6752.498
 30
1437.302
 70
    32
  0
VERTEX
  8
T38SSILL
 62
3
 10
3427.315
 20
-6745.209
 30
1437.299
 70
    32
  0
VERTEX
  8
T38SSILL
 62
3
 10
3429.392
 20
-6730.654
 30
1437.298
 70
    32
  0
VERTEX
  8
T38SSILL
 62
3
 10
3427.182
 20
-6719.571
 30
1437.295
 70
    32
  0
VERTEX
  8
T38SSILL
 62
3
 10
3421.687
 20
-6715.742
 30
1437.291
 70
    32
  0
VERTEX
  8
T38SSILL
 62
3
 10
3406.816
 20
-6717.985
 30
1437.282
 70
    32
  0
VERTEX
  8
T38SSILL
 62
3
 10
3403.408
 20
-6721.186
 30
1437.280
 70
    32
  0
VERTEX
  8
T38SSILL
 62
3
 10
3391.483
 20
-6738.118
 30
1437.274
 70
    32
  0
VERTEX
  8
T38SSILL
 62
3
 10
3391.819
 20
-6746.397
 30
1437.254
 70
    32
  0
VERTEX
  8
T38SSILL
 62
3
 10
3399.100
 20
-6763.162
 30
1437.157
 70
    32
  0
VERTEX
  8
T38SSILL
 62
3
 10
3408.742
 20
-6777.792
 30
1437.191
 70
    32
  0
VERTEX
  8
T38SSILL
 62
3
 10
3422.777
 20
-6790.975
 30
1437.218
 70
    32
  0
VERTEX
  8
T38SSILL
 62
3
 10
3444.967
 20
-6830.343
 30
1437.310
 70
    32
  0
VERTEX
  8
T38SSILL
 62
3
 10
3450.776
 20
-6839.896
 30
1437.332
 70
    32
  0
VERTEX
  8
T38SSILL
 62
3
 10
3452.192
 20
-6840.589
 30
1437.333
 70
    32
  0
VERTEX
  8
T38SSILL
 62
3
 10
3459.214
 20
-6857.973
 30
1437.369
 70
    32
  0
VERTEX
  8
T38SSILL
 62
3
 10
3459.296
 20
-6864.615
 30
1437.380
 70
    32
  0
VERTEX
  8
T38SSILL
 62
3
 10
3410.495
 20
-6899.487
 30
1437.448
 70
    32
  0
VERTEX
  8
T38SSILL
 62
3
 10
3414.966
 20
-6906.725
 30
1437.457
 70
    32
  0
VERTEX
  8
T38SSILL
 62
3
 10
3468.201
 20
-6868.204
 30
1437.382
 70
    32
  0
VERTEX
  8
T38SSILL
 62
3
 10
3473.837
 20
-6867.803
 30
1437.380
 70
    32
  0
VERTEX
  8
T38SSILL
 62
3
 10
3481.462
 20
-6863.244
 30
1437.369
 70
    32
  0
VERTEX
  8
T38SSILL
 62
3
 10
3482.114
 20
-6867.291
 30
1437.376
 70
    32
  0
VERTEX
  8
T38SSILL
 62
3
 10
3487.211
 20
-6875.969
 30
1437.388
 70
    32
  0
VERTEX
  8
T38SSILL
 62
3
 10
3477.893
 20
-6888.649
 30
1437.411
 70
    32
  0
VERTEX
  8
T38SSILL
 62
3
 10
3482.179
 20
-6915.660
 30
1437.447
 70
    32
  0
VERTEX
  8
T38SSILL
 62
3
 10
3488.215
 20
-6931.027
 30
1437.466
 70
    32
  0
VERTEX
  8
T38SSILL
 62
3
 10
3484.730
 20
-6945.771
 30
1437.488
 70
    32
  0
VERTEX
  8
T38SSILL
 62
3
 10
3501.083
 20
-6982.546
 30
1437.534
 70
    32
  0
VERTEX
  8
T38SSILL
 62
3
 10
3507.271
 20
-7005.312
 30
1437.563
 70
    32
  0
VERTEX
  8
T38SSILL
 62
3
 10
3511.379
 20
-7011.708
 30
1437.571
 70
    32
  0
VERTEX
  8
T38SSILL
 62
3
 10
3512.447
 20
-7023.241
 30
1437.587
 70
    32
  0
VERTEX
  8
T38SSILL
 62
3
 10
3515.672
 20
-7029.380
 30
1437.594
 70
    32
  0
VERTEX
  8
T38SSILL
 62
3
 10
3514.754
 20
-7035.291
 30
1437.603
 70
    32
  0
VERTEX
  8
T38SSILL
 62
3
 10
3510.981
 20
-7037.086
 30
1437.607
 70
    32
  0
VERTEX
  8
T38SSILL
 62
3
 10
3508.461
 20
-7041.160
 30
1437.613
 70
    32
  0
VERTEX
  8
T38SSILL
 62
3
 10
3501.600
 20
-7042.453
 30
1437.617
 70
    32
  0
VERTEX
  8
T38SSILL
 62
3
 10
3499.415
 20
-7044.498
 30
1437.621
 70
    32
  0
VERTEX
  8
T38SSILL
 62
3
 10
3494.145
 20
-7046.394
 30
1437.625
 70
    32
  0
VERTEX
  8
T38SSILL
 62
3
 10
3488.944
 20
-7056.307
 30
1437.641
 70
    32
  0
VERTEX
  8
T38SSILL
 62
3
 10
3488.375
 20
-7071.995
 30
1437.663
 70
    32
  0
VERTEX
  8
T38SSILL
 62
3
 10
3486.002
 20
-7082.852
 30
1437.679
 70
    32
  0
VERTEX
  8
T38SSILL
 62
3
 10
3491.576
 20
-7095.756
 30
1437.695
 70
    32
  0
VERTEX
  8
T38SSILL
 62
3
 10
3500.232
 20
-7108.456
 30
1437.710
 70
    32
  0
VERTEX
  8
T38SSILL
 62
3
 10
3501.343
 20
-7114.702
 30
1437.718
 70
    32
  0
VERTEX
  8
T38SSILL
 62
3
 10
3512.407
 20
-7130.818
 30
1437.737
 70
    32
  0
VERTEX
  8
T38SSILL
 62
3
 10
3515.776
 20
-7133.256
 30
1437.739
 70
    32
  0
VERTEX
  8
T38SSILL
 62
3
 10
3523.666
 20
-7149.047
 30
1437.758
 70
    32
  0
VERTEX
  8
T38SSILL
 62
3
 10
3525.271
 20
-7151.236
 30
1437.761
 70
    32
  0
VERTEX
  8
T38SSILL
 62
3
 10
3528.004
 20
-7151.476
 30
1437.760
 70
    32
  0
VERTEX
  8
T38SSILL
 62
3
 10
3553.729
 20
-7253.281
 30
1437.894
 70
    32
  0
VERTEX
  8
T38SSILL
 62
3
 10
3560.197
 20
-7252.027
 30
1437.890
 70
    32
  0
VERTEX
  8
T38SSILL
 62
3
 10
3530.925
 20
-7136.003
 30
1437.738
 70
    32
  0
VERTEX
  8
T38SSILL
 62
3
 10
3532.859
 20
-7124.894
 30
1437.722
 70
    32
  0
VERTEX
  8
T38SSILL
 62
3
 10
3558.961
 20
-7141.630
 30
1437.736
 70
    32
  0
VERTEX
  8
T38SSILL
 62
3
 10
3554.995
 20
-7143.659
 30
1437.740
 70
    32
  0
VERTEX
  8
T38SSILL
 62
3
 10
3560.993
 20
-7151.413
 30
1437.749
 70
    32
  0
VERTEX
  8
T38SSILL
 62
3
 10
3568.660
 20
-7147.002
 30
1437.740
 70
    32
  0
VERTEX
  8
T38SSILL
 62
3
 10
3586.359
 20
-7157.515
 30
1437.749
 70
    32
  0
VERTEX
  8
T38SSILL
 62
3
 10
3589.947
 20
-7151.999
 30
1437.740
 70
    32
  0
VERTEX
  8
T38SSILL
 62
3
 10
3575.147
 20
-7141.994
 30
1437.731
 70
    32
  0
VERTEX
  8
T38SSILL
 62
3
 10
3580.752
 20
-7138.069
 30
1437.724
 70
    32
  0
VERTEX
  8
T38SSILL
 62
3
 10
3575.313
 20
-7130.627
 30
1437.715
 70
    32
  0
VERTEX
  8
T38SSILL
 62
3
 10
3566.024
 20
-7136.434
 30
1437.727
 70
    32
  0
VERTEX
  8
T38SSILL
 62
3
 10
3531.748
 20
-7115.673
 30
1437.709
 70
    32
  0
VERTEX
  8
T38SSILL
 62
3
 10
3524.677
 20
-7092.650
 30
1437.679
 70
    32
  0
VERTEX
  8
T38SSILL
 62
3
 10
3523.516
 20
-7080.678
 30
1437.663
 70
    32
  0
VERTEX
  8
T38SSILL
 62
3
 10
3530.250
 20
-7074.893
 30
1437.653
 70
    32
  0
VERTEX
  8
T38SSILL
 62
3
 10
3531.807
 20
-7071.532
 30
1437.648
 70
    32
  0
VERTEX
  8
T38SSILL
 62
3
 10
3531.705
 20
-7059.726
 30
1437.631
 70
    32
  0
VERTEX
  8
T38SSILL
 62
3
 10
3535.771
 20
-7051.057
 30
1437.618
 70
    32
  0
VERTEX
  8
T38SSILL
 62
3
 10
3544.263
 20
-7044.728
 30
1437.606
 70
    32
  0
VERTEX
  8
T38SSILL
 62
3
 10
3547.835
 20
-7040.028
 30
1437.598
 70
    32
  0
VERTEX
  8
T38SSILL
 62
3
 10
3555.618
 20
-7023.132
 30
1437.572
 70
    32
  0
VERTEX
  8
T38SSILL
 62
3
 10
3551.293
 20
-7011.980
 30
1437.558
 70
    32
  0
VERTEX
  8
T38SSILL
 62
3
 10
3528.963
 20
-6936.049
 30
1437.460
 70
    32
  0
VERTEX
  8
T38SSILL
 62
3
 10
3494.398
 20
-6871.590
 30
1437.378
 70
    32
  0
VERTEX
  8
T38SSILL
 62
3
 10
3493.155
 20
-6860.323
 30
1437.360
 70
    32
  0
VERTEX
  8
T38SSILL
 62
3
 10
3493.983
 20
-6854.149
 30
1437.347
 70
    32
  0
VERTEX
  8
T38SSILL
 62
3
 10
3500.766
 20
-6843.870
 30
1437.316
 70
    32
  0
VERTEX
  8
T38SSILL
 62
3
 10
3590.689
 20
-6778.776
 30
1437.413
 70
    32
  0
VERTEX
  8
T38SSILL
 62
3
 10
3596.513
 20
-6769.651
 30
1437.414
 70
    32
  0
VERTEX
  8
T38SSILL
 62
3
 10
3599.572
 20
-6756.585
 30
1437.410
 70
    32
  0
VERTEX
  8
T38SSILL
 62
3
 10
3689.475
 20
-6873.769
 30
1437.413
 70
    32
  0
VERTEX
  8
T38SSILL
 62
3
 10
3683.527
 20
-6877.887
 30
1437.348
 70
    32
  0
VERTEX
  8
T38SSILL
 62
3
 10
3687.541
 20
-6883.579
 30
1437.320
 70
    32
  0
VERTEX
  8
T38SSILL
 62
3
 10
3693.800
 20
-6879.407
 30
1437.380
 70
    32
  0
VERTEX
  8
T38SSILL
 62
3
 10
3698.483
 20
-6885.511
 30
1437.344
 70
    32
  0
VERTEX
  8
T38SSILL
 62
3
 10
3678.709
 20
-6901.453
 30
1437.357
 70
    32
  0
VERTEX
  8
T38SSILL
 62
3
 10
3685.916
 20
-6909.672
 30
1437.368
 70
    32
  0
VERTEX
  8
T38SSILL
 62
3
 10
3708.733
 20
-6899.167
 30
1437.342
 70
    32
  0
VERTEX
  8
T38SSILL
 62
3
 10
3889.265
 20
-7134.260
 30
1437.615
 70
    32
  0
VERTEX
  8
T38SSILL
 62
3
 10
3895.662
 20
-7130.240
 30
1437.607
 70
    32
  0
VERTEX
  8
T38SSILL
 62
3
 10
3779.114
 20
-6979.000
 30
1437.436
 70
    32
  0
VERTEX
  8
T38SSILL
 62
3
 10
3784.234
 20
-6980.189
 30
1437.436
 70
    32
  0
VERTEX
  8
T38SSILL
 62
3
 10
3792.602
 20
-6979.941
 30
1437.432
 70
    32
  0
VERTEX
  8
T38SSILL
 62
3
 10
3803.757
 20
-6975.968
 30
1437.424
 70
    32
  0
VERTEX
  8
T38SSILL
 62
3
 10
3968.547
 20
-6857.276
 30
1437.319
 70
    32
  0
VERTEX
  8
T38SSILL
 62
3
 10
3963.856
 20
-6850.662
 30
1437.317
 70
    32
  0
VERTEX
  8
T38SSILL
 62
3
 10
3945.064
 20
-6864.213
 30
1437.325
 70
    32
  0
VERTEX
  8
T38SSILL
 62
3
 10
3939.912
 20
-6857.171
 30
1437.322
 70
    32
  0
VERTEX
  8
T38SSILL
 62
3
 10
3919.777
 20
-6872.146
 30
1437.332
 70
    32
  0
VERTEX
  8
T38SSILL
 62
3
 10
3924.443
 20
-6879.083
 30
1437.334
 70
    32
  0
VERTEX
  8
T38SSILL
 62
3
 10
3898.996
 20
-6897.434
 30
1437.346
 70
    32
  0
VERTEX
  8
T38SSILL
 62
3
 10
3892.691
 20
-6888.151
 30
1437.342
 70
    32
  0
VERTEX
  8
T38SSILL
 62
3
 10
3871.681
 20
-6903.927
 30
1437.352
 70
    32
  0
VERTEX
  8
T38SSILL
 62
3
 10
3877.764
 20
-6912.745
 30
1437.356
 70
    32
  0
VERTEX
  8
T38SSILL
 62
3
 10
3797.719
 20
-6970.469
 30
1437.419
 70
    32
  0
VERTEX
  8
T38SSILL
 62
3
 10
3788.487
 20
-6972.751
 30
1437.424
 70
    32
  0
VERTEX
  8
T38SSILL
 62
3
 10
3779.140
 20
-6971.863
 30
1437.426
 70
    32
  0
VERTEX
  8
T38SSILL
 62
3
 10
3773.036
 20
-6968.920
 30
1437.424
 70
    32
  0
VERTEX
  8
T38SSILL
 62
3
 10
3769.036
 20
-6964.902
 30
1437.419
 70
    32
  0
VERTEX
  8
T38SSILL
 62
3
 10
3700.603
 20
-6875.977
 30
1437.416
 70
    32
  0
VERTEX
  8
T38SSILL
 62
3
 10
3709.007
 20
-6869.737
 30
1437.430
 70
    32
  0
VERTEX
  8
T38SSILL
 62
3
 10
3704.457
 20
-6863.080
 30
1437.470
 70
    32
  0
VERTEX
  8
T38SSILL
 62
3
 10
3696.229
 20
-6869.407
 30
1437.455
 70
    32
  0
VERTEX
  8
T38SSILL
 62
3
 10
3668.705
 20
-6832.961
 30
1437.468
 70
    32
  0
VERTEX
  8
T38SSILL
 62
3
 10
3674.123
 20
-6829.510
 30
1437.464
 70
    32
  0
VERTEX
  8
T38SSILL
 62
3
 10
3670.290
 20
-6824.433
 30
1437.461
 70
    32
  0
VERTEX
  8
T38SSILL
 62
3
 10
3664.976
 20
-6828.025
 30
1437.465
 70
    32
  0
VERTEX
  8
T38SSILL
 62
3
 10
3577.679
 20
-6712.434
 30
1437.372
 70
    32
  0
VERTEX
  8
T38SSILL
 62
3
 10
3493.081
 20
-6603.179
 30
1437.257
 70
    32
  0
VERTEX
  8
T38SSILL
 62
3
 10
3495.933
 20
-6604.339
 30
1437.258
 70
    32
  0
VERTEX
  8
T38SSILL
 62
3
 10
3501.740
 20
-6603.835
 30
1437.257
 70
    32
  0
VERTEX
  8
T38SSILL
 62
3
 10
3510.161
 20
-6602.116
 30
1437.253
 70
    32
  0
VERTEX
  8
T38SSILL
 62
3
 10
3518.698
 20
-6598.101
 30
1437.246
 70
    32
  0
VERTEX
  8
T38SSILL
 62
3
 10
3559.371
 20
-6568.468
 30
1437.198
 70
    32
  0
VERTEX
  8
T38SSILL
 62
3
 10
3569.500
 20
-6571.378
 30
1437.200
 70
    32
  0
VERTEX
  8
T38SSILL
 62
3
 10
3575.045
 20
-6567.618
 30
1437.194
 70
    32
  0
VERTEX
  8
T38SSILL
 62
3
 10
3581.649
 20
-6570.620
 30
1437.197
 70
    32
  0
VERTEX
  8
T38SSILL
 62
3
 10
3587.142
 20
-6574.974
 30
1437.202
 70
    32
  0
VERTEX
  8
T38SSILL
 62
3
 10
3623.854
 20
-6622.419
 30
1437.247
 70
    32
  0
VERTEX
  8
T38SSILL
 62
3
 10
3615.840
 20
-6628.605
 30
1437.258
 70
    32
  0
VERTEX
  8
T38SSILL
 62
3
 10
3620.289
 20
-6634.860
 30
1437.263
 70
    32
  0
VERTEX
  8
T38SSILL
 62
3
 10
3628.648
 20
-6628.615
 30
1437.252
 70
    32
  0
VERTEX
  8
T38SSILL
 62
3
 10
3630.161
 20
-6630.570
 30
1437.254
 70
    32
  0
VERTEX
  8
T38SSILL
 62
3
 10
3612.441
 20
-6643.308
 30
1437.276
 70
    32
  0
VERTEX
  8
T38SSILL
 62
3
 10
3617.805
 20
-6651.219
 30
1437.283
 70
    32
  0
VERTEX
  8
T38SSILL
 62
3
 10
3626.995
 20
-6643.713
 30
1437.271
 70
    32
  0
VERTEX
  8
T38SSILL
 62
3
 10
3643.332
 20
-6647.591
 30
1437.268
 70
    32
  0
VERTEX
  8
T38SSILL
 62
3
 10
3694.558
 20
-6713.793
 30
1437.346
 70
    32
  0
VERTEX
  8
T38SSILL
 62
3
 10
3733.782
 20
-6769.611
 30
1437.403
 70
    32
  0
VERTEX
  8
T38SSILL
 62
3
 10
3740.878
 20
-6764.969
 30
1437.398
 70
    32
  0
VERTEX
  8
T38SSILL
 62
3
 10
3693.066
 20
-6699.888
 30
1437.322
 70
    32
  0
VERTEX
  8
T38SSILL
 62
3
 10
3696.859
 20
-6697.279
 30
1437.319
 70
    32
  0
VERTEX
  8
T38SSILL
 62
3
 10
3691.156
 20
-6690.080
 30
1437.305
 70
    32
  0
VERTEX
  8
T38SSILL
 62
3
 10
3687.752
 20
-6692.903
 30
1437.308
 70
    32
  0
VERTEX
  8
T38SSILL
 62
3
 10
3598.352
 20
-6575.387
 30
1437.200
 70
    32
  0
VERTEX
  8
T38SSILL
 62
3
 10
3586.864
 20
-6564.311
 30
1437.187
 70
    32
  0
VERTEX
  8
T38SSILL
 62
3
 10
3582.050
 20
-6562.320
 30
1437.186
 70
    32
  0
VERTEX
  8
T38SSILL
 62
3
 10
3582.819
 20
-6554.628
 30
1437.175
 70
    32
  0
VERTEX
  8
T38SSILL
 62
3
 10
3590.733
 20
-6547.014
 30
1437.164
 70
    32
  0
VERTEX
  8
T38SSILL
 62
3
 10
3623.261
 20
-6523.402
 30
1437.126
 70
    32
  0
VERTEX
  8
T38SSILL
 62
3
 10
3618.060
 20
-6516.231
 30
1437.117
 70
    32
  0
VERTEX
  8
T38SSILL
 62
3
 10
3566.849
 20
-6552.609
 30
1437.176
 70
    32
  0
VERTEX
  8
T38SSILL
 62
3
 10
3560.695
 20
-6546.597
 30
1437.169
 70
    32
  0
VERTEX
  8
T38SSILL
 62
3
 10
3550.961
 20
-6552.322
 30
1437.178
 70
    32
  0
VERTEX
  8
T38SSILL
 62
3
 10
3546.732
 20
-6555.963
 30
1437.184
 70
    32
  0
VERTEX
  8
T38SSILL
 62
3
 10
3549.657
 20
-6564.580
 30
1437.195
 70
    32
  0
VERTEX
  8
T38SSILL
 62
3
 10
3512.990
 20
-6592.254
 30
1437.239
 70
    32
  0
VERTEX
  8
T38SSILL
 62
3
 10
3505.821
 20
-6594.645
 30
1437.244
 70
    32
  0
VERTEX
  8
T38SSILL
 62
3
 10
3497.890
 20
-6594.852
 30
1437.245
 70
    32
  0
VERTEX
  8
T38SSILL
 62
3
 10
3489.102
 20
-6592.613
 30
1437.244
 70
    32
  0
VERTEX
  8
T38SSILL
 62
3
 10
3482.805
 20
-6589.477
 30
1437.240
 70
    32
  0
VERTEX
  8
T38SSILL
 62
3
 10
3420.792
 20
-6509.387
 30
1437.142
 70
    32
  0
VERTEX
  8
T38SSILL
 62
3
 10
3456.272
 20
-6513.928
 30
1437.145
 70
    32
  0
VERTEX
  8
T38SSILL
 62
3
 10
3474.096
 20
-6524.486
 30
1437.156
 70
    32
  0
VERTEX
  8
T38SSILL
 62
3
 10
3478.254
 20
-6524.994
 30
1437.156
 70
    32
  0
VERTEX
  8
T38SSILL
 62
3
 10
3485.595
 20
-6519.071
 30
1437.147
 70
    32
  0
VERTEX
  8
T38SSILL
 62
3
 10
3486.145
 20
-6516.499
 30
1437.143
 70
    32
  0
VERTEX
  8
T38SSILL
 62
3
 10
3483.047
 20
-6505.910
 30
1437.130
 70
    32
  0
VERTEX
  8
T38SSILL
 62
3
 10
3525.173
 20
-6474.966
 30
1437.080
 70
    32
  0
VERTEX
  8
T38SSILL
 62
3
 10
3537.959
 20
-6494.776
 30
1437.104
 70
    32
  0
VERTEX
  8
T38SSILL
 62
3
 10
3543.508
 20
-6508.035
 30
1437.121
 70
    32
  0
VERTEX
  8
T38SSILL
 62
3
 10
3548.217
 20
-6512.763
 30
1437.126
 70
    32
  0
VERTEX
  8
T38SSILL
 62
3
 10
3551.271
 20
-6511.536
 30
1437.124
 70
    32
  0
VERTEX
  8
T38SSILL
 62
3
 10
3552.728
 20
-6509.911
 30
1437.121
 70
    32
  0
VERTEX
  8
T38SSILL
 62
3
 10
3552.875
 20
-6505.410
 30
1437.115
 70
    32
  0
VERTEX
  8
T38SSILL
 62
3
 10
3561.925
 20
-6497.414
 30
1437.103
 70
    32
  0
VERTEX
  8
T38SSILL
 62
3
 10
3560.656
 20
-6489.334
 30
1437.092
 70
    32
  0
VERTEX
  8
T38SSILL
 62
3
 10
3557.310
 20
-6479.368
 30
1437.080
 70
    32
  0
VERTEX
  8
T38SSILL
 62
3
 10
3547.128
 20
-6464.290
 30
1437.062
 70
    32
  0
VERTEX
  8
T38SSILL
 62
3
 10
3547.082
 20
-6462.528
 30
1437.059
 70
    32
  0
VERTEX
  8
T38SSILL
 62
3
 10
3555.826
 20
-6456.303
 30
1437.049
 70
    32
  0
VERTEX
  8
T38SSILL
 62
3
 10
3555.493
 20
-6453.666
 30
1437.046
 70
    32
  0
VERTEX
  8
T38SSILL
 62
3
 10
3577.473
 20
-6437.660
 30
1437.020
 70
    32
  0
VERTEX
  8
T38SSILL
 62
3
 10
3586.772
 20
-6442.532
 30
1437.025
 70
    32
  0
VERTEX
  8
T38SSILL
 62
3
 10
3600.424
 20
-6441.911
 30
1437.022
 70
    32
  0
VERTEX
  8
T38SSILL
 62
3
 10
3604.977
 20
-6447.436
 30
1437.028
 70
    32
  0
VERTEX
  8
T38SSILL
 62
3
 10
3612.586
 20
-6445.033
 30
1437.023
 70
    32
  0
VERTEX
  8
T38SSILL
 62
3
 10
3616.066
 20
-6439.828
 30
1437.016
 70
    32
  0
VERTEX
  8
T38SSILL
 62
3
 10
3617.146
 20
-6430.540
 30
1437.003
 70
    32
  0
VERTEX
  8
T38SSILL
 62
3
 10
3616.074
 20
-6426.600
 30
1436.998
 70
    32
  0
VERTEX
  8
T38SSILL
 62
3
 10
3609.844
 20
-6417.680
 30
1436.987
 70
    32
  0
VERTEX
  8
T38SSILL
 62
3
 10
3622.239
 20
-6406.842
 30
1436.971
 70
    32
  0
VERTEX
  8
T38SSILL
 62
3
 10
3616.258
 20
-6396.524
 30
1436.958
 70
    32
  0
VERTEX
  8
T38SSILL
 62
3
 10
3607.098
 20
-6386.799
 30
1436.947
 70
    32
  0
VERTEX
  8
T38SSILL
 62
3
 10
3603.914
 20
-6386.441
 30
1436.947
 70
    32
  0
VERTEX
  8
T38SSILL
 62
3
 10
3582.088
 20
-6394.859
 30
1436.962
 70
    32
  0
VERTEX
  8
T38SSILL
 62
3
 10
3581.749
 20
-6398.748
 30
1436.968
 70
    32
  0
VERTEX
  8
T38SSILL
 62
3
 10
3578.575
 20
-6402.182
 30
1436.973
 70
    32
  0
VERTEX
  8
T38SSILL
 62
3
 10
3572.392
 20
-6405.165
 30
1436.978
 70
    32
  0
VERTEX
  8
T38SSILL
 62
3
 10
3571.128
 20
-6407.403
 30
1436.981
 70
    32
  0
VERTEX
  8
T38SSILL
 62
3
 10
3572.337
 20
-6416.542
 30
1436.993
 70
    32
  0
VERTEX
  8
T38SSILL
 62
3
 10
3571.965
 20
-6429.338
 30
1437.010
 70
    32
  0
VERTEX
  8
T38SSILL
 62
3
 10
3573.347
 20
-6431.595
 30
1437.013
 70
    32
  0
VERTEX
  8
T38SSILL
 62
3
 10
3551.862
 20
-6446.354
 30
1437.037
 70
    32
  0
VERTEX
  8
T38SSILL
 62
3
 10
3546.515
 20
-6441.777
 30
1437.032
 70
    32
  0
VERTEX
  8
T38SSILL
 62
3
 10
3542.318
 20
-6442.193
 30
1437.033
 70
    32
  0
VERTEX
  8
T38SSILL
 62
3
 10
3537.561
 20
-6445.757
 30
1437.039
 70
    32
  0
VERTEX
  8
T38SSILL
 62
3
 10
3535.270
 20
-6445.817
 30
1437.039
 70
    32
  0
VERTEX
  8
T38SSILL
 62
3
 10
3528.124
 20
-6438.948
 30
1437.031
 70
    32
  0
VERTEX
  8
T38SSILL
 62
3
 10
3525.930
 20
-6439.358
 30
1437.032
 70
    32
  0
VERTEX
  8
T38SSILL
 62
3
 10
3520.232
 20
-6444.005
 30
1437.040
 70
    32
  0
VERTEX
  8
T38SSILL
 62
3
 10
3511.888
 20
-6455.422
 30
1437.057
 70
    32
  0
VERTEX
  8
T38SSILL
 62
3
 10
3511.353
 20
-6458.610
 30
1437.061
 70
    32
  0
VERTEX
  8
T38SSILL
 62
3
 10
3520.991
 20
-6468.520
 30
1437.072
 70
    32
  0
VERTEX
  8
T38SSILL
 62
3
 10
3478.032
 20
-6499.603
 30
1437.122
 70
    32
  0
VERTEX
  8
T38SSILL
 62
3
 10
3469.402
 20
-6503.444
 30
1437.129
 70
    32
  0
VERTEX
  8
T38SSILL
 62
3
 10
3453.443
 20
-6503.508
 30
1437.132
 70
    32
  0
VERTEX
  8
T38SSILL
 62
3
 10
3450.404
 20
-6505.351
 30
1437.135
 70
    32
  0
VERTEX
  8
T38SSILL
 62
3
 10
3447.311
 20
-6505.079
 30
1437.135
 70
    32
  0
VERTEX
  8
T38SSILL
 62
3
 10
3445.749
 20
-6499.300
 30
1437.128
 70
    32
  0
VERTEX
  8
T38SSILL
 62
3
 10
3431.496
 20
-6466.779
 30
1437.087
 70
    32
  0
VERTEX
  8
T38SSILL
 62
3
 10
3415.132
 20
-6437.841
 30
1437.052
 70
    32
  0
VERTEX
  8
T38SSILL
 62
3
 10
3490.775
 20
-6382.604
 30
1436.963
 70
    32
  0
VERTEX
  8
T38SSILL
 62
3
 10
3486.641
 20
-6376.716
 30
1436.956
 70
    32
  0
VERTEX
  8
T38SSILL
 62
3
 10
3461.023
 20
-6395.285
 30
1436.986
 70
    32
  0
VERTEX
  8
T38SSILL
 62
3
 10
3453.894
 20
-6385.683
 30
1436.975
 70
    32
  0
VERTEX
  8
T38SSILL
 62
3
 10
3448.620
 20
-6389.701
 30
1436.981
 70
    32
  0
VERTEX
  8
T38SSILL
 62
3
 10
3430.289
 20
-6376.599
 30
1436.967
 70
    32
  0
VERTEX
  8
T38SSILL
 62
3
 10
3427.632
 20
-6372.788
 30
1436.963
 70
    32
  0
VERTEX
  8
T38SSILL
 62
3
 10
3421.624
 20
-6368.977
 30
1436.959
 70
    32
  0
VERTEX
  8
T38SSILL
 62
3
 10
3427.105
 20
-6366.100
 30
1436.954
 70
    32
  0
VERTEX
  8
T38SSILL
 62
3
 10
3431.709
 20
-6360.072
 30
1436.945
 70
    32
  0
VERTEX
  8
T38SSILL
 62
3
 10
3438.365
 20
-6358.311
 30
1436.941
 70
    32
  0
VERTEX
  8
T38SSILL
 62
3
 10
3444.252
 20
-6350.750
 30
1436.930
 70
    32
  0
VERTEX
  8
T38SSILL
 62
3
 10
3437.594
 20
-6342.281
 30
1436.920
 70
    32
  0
VERTEX
  8
T38SSILL
 62
3
 10
3426.773
 20
-6333.128
 30
1436.910
 70
    32
  0
VERTEX
  8
T38SSILL
 62
3
 10
3416.962
 20
-6318.746
 30
1436.892
 70
    32
  0
VERTEX
  8
T38SSILL
 62
3
 10
3463.388
 20
-6284.926
 30
1436.838
 70
    32
  0
VERTEX
  8
T38SSILL
 62
3
 10
3459.121
 20
-6278.492
 30
1436.831
 70
    32
  0
VERTEX
  8
T38SSILL
 62
3
 10
3413.497
 20
-6310.988
 30
1436.883
 70
    32
  0
VERTEX
  8
T38SSILL
 62
3
 10
3411.023
 20
-6307.437
 30
1436.867
 70
    32
  0
VERTEX
  8
T38SSILL
 62
3
 10
3407.262
 20
-6305.243
 30
1436.851
 70
    32
  0
VERTEX
  8
T38SSILL
 62
3
 10
3395.508
 20
-6300.876
 30
1436.810
 70
    32
  0
VERTEX
  8
T38SSILL
 62
3
 10
3386.234
 20
-6310.465
 30
1436.831
 70
    32
  0
VERTEX
  8
T38SSILL
 62
3
 10
3385.685
 20
-6319.827
 30
1436.869
 70
    32
  0
VERTEX
  8
T38SSILL
 62
3
 10
3389.438
 20
-6328.459
 30
1436.911
 70
    32
  0
VERTEX
  8
T38SSILL
 62
3
 10
3383.915
 20
-6333.101
 30
1436.918
 70
    32
  0
VERTEX
  8
T38SSILL
 62
3
 10
3380.811
 20
-6329.037
 30
1436.898
 70
    32
  0
VERTEX
  8
T38SSILL
 62
3
 10
3385.177
 20
-6300.352
 30
1436.787
 70
    32
  0
VERTEX
  8
T38SSILL
 62
3
 10
3388.249
 20
-6293.040
 30
1436.763
 70
    32
  0
VERTEX
  8
T38SSILL
 62
3
 10
3395.908
 20
-6285.786
 30
1436.748
 70
    32
  0
VERTEX
  8
T38SSILL
 62
3
 10
3414.728
 20
-6290.586
 30
1436.804
 70
    32
  0
VERTEX
  8
T38SSILL
 62
3
 10
3416.426
 20
-6288.072
 30
1436.797
 70
    32
  0
VERTEX
  8
T38SSILL
 62
3
 10
3418.726
 20
-6288.365
 30
1436.803
 70
    32
  0
VERTEX
  8
T38SSILL
 62
3
 10
3420.017
 20
-6280.395
 30
1436.772
 70
    32
  0
VERTEX
  8
T38SSILL
 62
3
 10
3409.643
 20
-6278.196
 30
1436.743
 70
    32
  0
VERTEX
  8
T38SSILL
 62
3
 10
3408.643
 20
-6277.076
 30
1436.737
 70
    32
  0
VERTEX
  8
T38SSILL
 62
3
 10
3427.207
 20
-6263.058
 30
1436.715
 70
    32
  0
VERTEX
  8
T38SSILL
 62
3
 10
3423.111
 20
-6257.033
 30
1436.682
 70
    32
  0
VERTEX
  8
T38SSILL
 62
3
 10
3389.147
 20
-6280.142
 30
1436.711
 70
    32
  0
VERTEX
  8
T38SSILL
 62
3
 10
3380.979
 20
-6291.555
 30
1436.743
 70
    32
  0
VERTEX
  8
T38SSILL
 62
3
 10
3377.401
 20
-6299.761
 30
1436.770
 70
    32
  0
VERTEX
  8
T38SSILL
 62
3
 10
3370.583
 20
-6342.620
 30
1436.933
 70
    32
  0
VERTEX
  8
T38SSILL
 62
3
 10
3366.156
 20
-6345.293
 30
1436.936
 70
    32
  0
VERTEX
  8
T38SSILL
 62
3
 10
3357.151
 20
-6324.628
 30
1436.833
 70
    32
  0
VERTEX
  8
T38SSILL
 62
3
 10
3347.557
 20
-6311.827
 30
1436.794
 70
    32
  0
VERTEX
  8
T38SSILL
 62
3
 10
3341.354
 20
-6314.018
 30
1436.807
 70
    32
  0
VERTEX
  8
T38SSILL
 62
3
 10
3338.701
 20
-6313.734
 30
1436.808
 70
    32
  0
VERTEX
  8
T38SSILL
 62
3
 10
3334.141
 20
-6324.876
 30
1436.844
 70
    32
  0
VERTEX
  8
T38SSILL
 62
3
 10
3338.427
 20
-6333.671
 30
1436.865
 70
    32
  0
VERTEX
  8
T38SSILL
 62
3
 10
3347.258
 20
-6344.287
 30
1436.895
 70
    32
  0
VERTEX
  8
T38SSILL
 62
3
 10
3349.642
 20
-6357.893
 30
1436.957
 70
    32
  0
VERTEX
  8
T38SSILL
 62
3
 10
3341.000
 20
-6364.644
 30
1436.968
 70
    32
  0
VERTEX
  8
T38SSILL
 62
3
 10
3330.544
 20
-6369.503
 30
1436.974
 70
    32
  0
VERTEX
  8
T38SSILL
 62
3
 10
3322.168
 20
-6369.545
 30
1436.973
 70
    32
  0
VERTEX
  8
T38SSILL
 62
3
 10
3309.544
 20
-6365.642
 30
1436.963
 70
    32
  0
VERTEX
  8
T38SSILL
 62
3
 10
3258.333
 20
-6298.989
 30
1436.849
 70
    32
  0
VERTEX
  8
T38SSILL
 62
3
 10
3266.823
 20
-6299.914
 30
1436.842
 70
    32
  0
VERTEX
  8
T38SSILL
 62
3
 10
3275.427
 20
-6298.454
 30
1436.828
 70
    32
  0
VERTEX
  8
T38SSILL
 62
3
 10
3284.245
 20
-6295.050
 30
1436.809
 70
    32
  0
VERTEX
  8
T38SSILL
 62
3
 10
3301.921
 20
-6283.036
 30
1436.758
 70
    32
  0
VERTEX
  8
T38SSILL
 62
3
 10
3304.447
 20
-6288.614
 30
1436.771
 70
    32
  0
VERTEX
  8
T38SSILL
 62
3
 10
3306.893
 20
-6291.108
 30
1436.776
 70
    32
  0
VERTEX
  8
T38SSILL
 62
3
 10
3318.602
 20
-6290.361
 30
1436.762
 70
    32
  0
VERTEX
  8
T38SSILL
 62
3
 10
3323.482
 20
-6288.117
 30
1436.751
 70
    32
  0
VERTEX
  8
T38SSILL
 62
3
 10
3326.050
 20
-6285.140
 30
1436.740
 70
    32
  0
VERTEX
  8
T38SSILL
 62
3
 10
3329.877
 20
-6289.890
 30
1436.750
 70
    32
  0
VERTEX
  8
T38SSILL
 62
3
 10
3334.290
 20
-6300.181
 30
1436.774
 70
    32
  0
VERTEX
  8
T38SSILL
 62
3
 10
3339.145
 20
-6307.109
 30
1436.789
 70
    32
  0
VERTEX
  8
T38SSILL
 62
3
 10
3345.278
 20
-6308.977
 30
1436.788
 70
    32
  0
VERTEX
  8
T38SSILL
 62
3
 10
3351.448
 20
-6305.465
 30
1436.772
 70
    32
  0
VERTEX
  8
T38SSILL
 62
3
 10
3346.639
 20
-6290.158
 30
1436.734
 70
    32
  0
VERTEX
  8
T38SSILL
 62
3
 10
3342.729
 20
-6282.236
 30
1436.715
 70
    32
  0
VERTEX
  8
T38SSILL
 62
3
 10
3339.480
 20
-6279.410
 30
1436.711
 70
    32
  0
VERTEX
  8
T38SSILL
 62
3
 10
3342.820
 20
-6268.829
 30
1436.677
 70
    32
  0
VERTEX
  8
T38SSILL
 62
3
 10
3342.484
 20
-6266.104
 30
1436.670
 70
    32
  0
VERTEX
  8
T38SSILL
 62
3
 10
3337.543
 20
-6259.267
 30
1436.656
 70
    32
  0
VERTEX
  8
T38SSILL
 62
3
 10
3346.009
 20
-6252.520
 30
1436.628
 70
    32
  0
VERTEX
  8
T38SSILL
 62
3
 10
3347.768
 20
-6248.947
 30
1436.616
 70
    32
  0
VERTEX
  8
T38SSILL
 62
3
 10
3381.890
 20
-6225.129
 30
1436.516
 70
    32
  0
VERTEX
  8
T38SSILL
 62
3
 10
3378.680
 20
-6220.363
 30
1436.505
 70
    32
  0
VERTEX
  8
T38SSILL
 62
3
 10
3347.584
 20
-6241.897
 30
1436.597
 70
    32
  0
VERTEX
  8
T38SSILL
 62
3
 10
3339.132
 20
-6225.539
 30
1436.559
 70
    32
  0
VERTEX
  8
T38SSILL
 62
3
 10
3334.783
 20
-6221.067
 30
1436.550
 70
    32
  0
VERTEX
  8
T38SSILL
 62
3
 10
3329.463
 20
-6209.831
 30
1436.524
 70
    32
  0
VERTEX
  8
T38SSILL
 62
3
 10
3328.941
 20
-6189.827
 30
1436.470
 70
    32
  0
VERTEX
  8
T38SSILL
 62
3
 10
3327.755
 20
-6184.919
 30
1436.458
 70
    32
  0
VERTEX
  8
T38SSILL
 62
3
 10
3338.251
 20
-6171.506
 30
1436.409
 70
    32
  0
VERTEX
  8
T38SSILL
 62
3
 10
3326.278
 20
-6148.626
 30
1436.360
 70
    32
  0
VERTEX
  8
T38SSILL
 62
3
 10
3317.984
 20
-6141.700
 30
1436.351
 70
    32
  0
VERTEX
  8
T38SSILL
 62
3
 10
3309.616
 20
-6138.656
 30
1436.352
 70
    32
  0
VERTEX
  8
T38SSILL
 62
3
 10
3303.177
 20
-6145.349
 30
1436.378
 70
    32
  0
VERTEX
  8
T38SSILL
 62
3
 10
3294.758
 20
-6147.156
 30
1436.392
 70
    32
  0
VERTEX
  8
T38SSILL
 62
3
 10
3287.901
 20
-6144.602
 30
1436.393
 70
    32
  0
VERTEX
  8
T38SSILL
 62
3
 10
3283.713
 20
-6136.157
 30
1436.375
 70
    32
  0
VERTEX
  8
T38SSILL
 62
3
 10
3281.844
 20
-6135.500
 30
1436.375
 70
    32
  0
VERTEX
  8
T38SSILL
 62
3
 10
3279.347
 20
-6144.560
 30
1436.403
 70
    32
  0
VERTEX
  8
T38SSILL
 62
3
 10
3279.466
 20
-6149.143
 30
1436.416
 70
    32
  0
VERTEX
  8
T38SSILL
 62
3
 10
3282.620
 20
-6158.496
 30
1436.437
 70
    32
  0
VERTEX
  8
T38SSILL
 62
3
 10
3278.749
 20
-6162.213
 30
1436.452
 70
    32
  0
VERTEX
  8
T38SSILL
 62
3
 10
3279.324
 20
-6166.616
 30
1436.463
 70
    32
  0
VERTEX
  8
T38SSILL
 62
3
 10
3276.648
 20
-6168.585
 30
1436.472
 70
    32
  0
VERTEX
  8
T38SSILL
 62
3
 10
3279.787
 20
-6172.839
 30
1436.480
 70
    32
  0
VERTEX
  8
T38SSILL
 62
3
 10
3270.471
 20
-6179.536
 30
1436.509
 70
    32
  0
VERTEX
  8
T38SSILL
 62
3
 10
3259.045
 20
-6170.840
 30
1436.498
 70
    32
  0
VERTEX
  8
T38SSILL
 62
3
 10
3250.606
 20
-6161.713
 30
1436.483
 70
    32
  0
VERTEX
  8
T38SSILL
 62
3
 10
3234.870
 20
-6153.481
 30
1436.479
 70
    32
  0
VERTEX
  8
T38SSILL
 62
3
 10
3235.193
 20
-6152.327
 30
1436.475
 70
    32
  0
VERTEX
  8
T38SSILL
 62
3
 10
3224.851
 20
-6137.870
 30
1436.448
 70
    32
  0
VERTEX
  8
T38SSILL
 62
3
 10
3208.470
 20
-6125.158
 30
1436.432
 70
    32
  0
VERTEX
  8
T38SSILL
 62
3
 10
3198.781
 20
-6135.728
 30
1436.472
 70
    32
  0
VERTEX
  8
T38SSILL
 62
3
 10
3195.300
 20
-6134.144
 30
1436.472
 70
    32
  0
VERTEX
  8
T38SSILL
 62
3
 10
3193.489
 20
-6131.426
 30
1436.466
 70
    32
  0
VERTEX
  8
T38SSILL
 62
3
 10
3203.582
 20
-6128.208
 30
1436.446
 70
    32
  0
VERTEX
  8
T38SSILL
 62
3
 10
3201.794
 20
-6122.511
 30
1436.432
 70
    32
  0
VERTEX
  8
T38SSILL
 62
3
 10
3303.373
 20
-6049.060
 30
1436.114
 70
    32
  0
VERTEX
  8
T38SSILL
 62
3
 10
3299.075
 20
-6042.282
 30
1436.101
 70
    32
  0
VERTEX
  8
T38SSILL
 62
3
 10
3234.722
 20
-6089.069
 30
1436.303
 70
    32
  0
VERTEX
  8
T38SSILL
 62
3
 10
3231.727
 20
-6084.629
 30
1436.294
 70
    32
  0
VERTEX
  8
T38SSILL
 62
3
 10
3225.770
 20
-6088.907
 30
1436.313
 70
    32
  0
VERTEX
  8
T38SSILL
 62
3
 10
3228.967
 20
-6093.253
 30
1436.321
 70
    32
  0
VERTEX
  8
T38SSILL
 62
3
 10
3186.226
 20
-6124.328
 30
1436.455
 70
    32
  0
VERTEX
  8
T38SSILL
 62
3
 10
3184.525
 20
-6118.760
 30
1436.442
 70
    32
  0
VERTEX
  8
T38SSILL
 62
3
 10
3172.789
 20
-6121.264
 30
1436.462
 70
    32
  0
VERTEX
  8
T38SSILL
 62
3
 10
3173.872
 20
-6126.281
 30
1436.475
 70
    32
  0
VERTEX
  8
T38SSILL
 62
3
 10
3164.183
 20
-6127.813
 30
1436.490
 70
    32
  0
VERTEX
  8
T38SSILL
 62
3
 10
3122.599
 20
-6122.549
 30
1436.524
 70
    32
  0
VERTEX
  8
T38SSILL
 62
3
 10
3057.536
 20
-6038.710
 30
1436.370
 70
    32
  0
VERTEX
  8
T38SSILL
 62
3
 10
3147.445
 20
-6057.527
 30
1436.317
 70
    32
  0
VERTEX
  8
T38SSILL
 62
3
 10
3151.319
 20
-6064.040
 30
1436.331
 70
    32
  0
VERTEX
  8
T38SSILL
 62
3
 10
3157.127
 20
-6090.608
 30
1436.397
 70
    32
  0
VERTEX
  8
T38SSILL
 62
3
 10
3164.719
 20
-6094.290
 30
1436.398
 70
    32
  0
VERTEX
  8
T38SSILL
 62
3
 10
3176.260
 20
-6097.251
 30
1436.393
 70
    32
  0
VERTEX
  8
T38SSILL
 62
3
 10
3180.731
 20
-6096.253
 30
1436.385
 70
    32
  0
VERTEX
  8
T38SSILL
 62
3
 10
3182.011
 20
-6097.983
 30
1436.388
 70
    32
  0
VERTEX
  8
T38SSILL
 62
3
 10
3190.166
 20
-6092.832
 30
1436.365
 70
    32
  0
VERTEX
  8
T38SSILL
 62
3
 10
3189.580
 20
-6087.291
 30
1436.350
 70
    32
  0
VERTEX
  8
T38SSILL
 62
3
 10
3192.621
 20
-6082.186
 30
1436.333
 70
    32
  0
VERTEX
  8
T38SSILL
 62
3
 10
3196.508
 20
-6082.437
 30
1436.329
 70
    32
  0
VERTEX
  8
T38SSILL
 62
3
 10
3195.697
 20
-6078.402
 30
1436.319
 70
    32
  0
VERTEX
  8
T38SSILL
 62
3
 10
3193.903
 20
-6077.214
 30
1436.318
 70
    32
  0
VERTEX
  8
T38SSILL
 62
3
 10
3191.529
 20
-6070.750
 30
1436.303
 70
    32
  0
VERTEX
  8
T38SSILL
 62
3
 10
3193.814
 20
-6067.075
 30
1436.290
 70
    32
  0
VERTEX
  8
T38SSILL
 62
3
 10
3202.203
 20
-6068.556
 30
1436.284
 70
    32
  0
VERTEX
  8
T38SSILL
 62
3
 10
3204.330
 20
-6071.298
 30
1436.289
 70
    32
  0
VERTEX
  8
T38SSILL
 62
3
 10
3210.424
 20
-6071.668
 30
1436.283
 70
    32
  0
VERTEX
  8
T38SSILL
 62
3
 10
3212.301
 20
-6079.379
 30
1436.302
 70
    32
  0
VERTEX
  8
T38SSILL
 62
3
 10
3217.310
 20
-6078.719
 30
1436.295
 70
    32
  0
VERTEX
  8
T38SSILL
 62
3
 10
3223.017
 20
-6081.128
 30
1436.295
 70
    32
  0
VERTEX
  8
T38SSILL
 62
3
 10
3225.082
 20
-6075.783
 30
1436.278
 70
    32
  0
VERTEX
  8
T38SSILL
 62
3
 10
3226.165
 20
-6076.724
 30
1436.279
 70
    32
  0
VERTEX
  8
T38SSILL
 62
3
 10
3240.272
 20
-6073.270
 30
1436.253
 70
    32
  0
VERTEX
  8
T38SSILL
 62
3
 10
3239.802
 20
-6068.785
 30
1436.242
 70
    32
  0
VERTEX
  8
T38SSILL
 62
3
 10
3234.961
 20
-6065.736
 30
1436.239
 70
    32
  0
VERTEX
  8
T38SSILL
 62
3
 10
3229.340
 20
-6053.097
 30
1436.211
 70
    32
  0
VERTEX
  8
T38SSILL
 62
3
 10
3224.109
 20
-6051.999
 30
1436.214
 70
    32
  0
VERTEX
  8
T38SSILL
 62
3
 10
3212.053
 20
-6046.229
 30
1436.212
 70
    32
  0
VERTEX
  8
T38SSILL
 62
3
 10
3208.387
 20
-6047.647
 30
1436.220
 70
    32
  0
VERTEX
  8
T38SSILL
 62
3
 10
3202.297
 20
-6057.594
 30
1436.254
 70
    32
  0
VERTEX
  8
T38SSILL
 62
3
 10
3193.002
 20
-6059.601
 30
1436.271
 70
    32
  0
VERTEX
  8
T38SSILL
 62
3
 10
3179.923
 20
-6048.390
 30
1436.255
 70
    32
  0
VERTEX
  8
T38SSILL
 62
3
 10
3169.561
 20
-6050.071
 30
1436.271
 70
    32
  0
VERTEX
  8
T38SSILL
 62
3
 10
3166.372
 20
-6049.537
 30
1436.274
 70
    32
  0
VERTEX
  8
T38SSILL
 62
3
 10
3158.758
 20
-6044.974
 30
1436.270
 70
    32
  0
VERTEX
  8
T38SSILL
 62
3
 10
3153.050
 20
-6045.917
 30
1436.279
 70
    32
  0
VERTEX
  8
T38SSILL
 62
3
 10
3148.567
 20
-6049.826
 30
1436.295
 70
    32
  0
VERTEX
  8
T38SSILL
 62
3
 10
3060.689
 20
-6031.132
 30
1436.345
 70
    32
  0
VERTEX
  8
T38SSILL
 62
3
 10
3071.943
 20
-6023.078
 30
1436.310
 70
    32
  0
VERTEX
  8
T38SSILL
 62
3
 10
3067.342
 20
-6019.410
 30
1436.306
 70
    32
  0
VERTEX
  8
T38SSILL
 62
3
 10
3054.449
 20
-6028.828
 30
1436.346
 70
    32
  0
VERTEX
  8
T38SSILL
 62
3
 10
3047.011
 20
-6024.260
 30
1436.342
 70
    32
  0
VERTEX
  8
T38SSILL
 62
3
 10
3039.408
 20
-6014.238
 30
1436.324
 70
    32
  0
VERTEX
  8
T38SSILL
 62
3
 10
3044.278
 20
-6010.439
 30
1436.308
 70
    32
  0
VERTEX
  8
T38SSILL
 62
3
 10
3039.285
 20
-6004.275
 30
1436.297
 70
    32
  0
VERTEX
  8
T38SSILL
 62
3
 10
3034.582
 20
-6007.878
 30
1436.312
 70
    32
  0
VERTEX
  8
T38SSILL
 62
3
 10
2920.386
 20
-5857.367
 30
1436.032
 70
    32
  0
VERTEX
  8
T38SSILL
 62
3
 10
2924.060
 20
-5854.713
 30
1436.021
 70
    32
  0
VERTEX
  8
T38SSILL
 62
3
 10
2919.136
 20
-5848.323
 30
1436.009
 70
    32
  0
VERTEX
  8
T38SSILL
 62
3
 10
2915.487
 20
-5850.911
 30
1436.020
 70
    32
  0
VERTEX
  8
T38SSILL
 62
3
 10
2629.810
 20
-5480.555
 30
1435.546
 70
    32
  0
VERTEX
  8
T38SSILL
 62
3
 10
2642.334
 20
-5470.592
 30
1435.465
 70
    32
  0
VERTEX
  8
T38SSILL
 62
3
 10
2638.407
 20
-5465.001
 30
1435.455
 70
    32
  0
VERTEX
  8
T38SSILL
 62
3
 10
2625.533
 20
-5474.607
 30
1435.536
 70
    32
  0
VERTEX
  8
T38SSILL
 62
3
 10
2354.449
 20
-5123.292
 30
1434.313
 70
    32
  0
VERTEX
  8
T38SSILL
 62
3
 10
2356.795
 20
-5116.868
 30
1434.281
 70
    32
  0
VERTEX
  8
T38SSILL
 62
3
 10
2353.139
 20
-5110.396
 30
1434.263
 70
    32
  0
VERTEX
  8
T38SSILL
 62
3
 10
2343.351
 20
-5109.259
 30
1434.281
 70
    32
  0
VERTEX
  8
T38SSILL
 62
3
 10
2181.316
 20
-4896.498
 30
1433.783
 70
    32
  0
VERTEX
  8
T38SSILL
 62
3
 10
2182.368
 20
-4781.949
 30
1432.426
 70
    32
  0
VERTEX
  8
T38SSILL
 62
3
 10
2442.270
 20
-4878.712
 30
1432.971
 70
    32
  0
VERTEX
  8
T38SSILL
 62
3
 10
2706.999
 20
-4972.305
 30
1433.037
 70
    32
  0
VERTEX
  8
T38SSILL
 62
3
 10
3354.758
 20
-5204.323
 30
1433.176
 70
    32
  0
VERTEX
  8
T38SSILL
 62
3
 10
3439.399
 20
-5203.742
 30
1433.303
 70
    32
  0
VERTEX
  8
T38SSILL
 62
3
 10
3439.204
 20
-5214.213
 30
1433.289
 70
    32
  0
VERTEX
  8
T38SSILL
 62
3
 10
3447.298
 20
-5214.451
 30
1433.302
 70
    32
  0
VERTEX
  8
T38SSILL
 62
3
 10
3447.241
 20
-5203.272
 30
1433.317
 70
    32
  0
VERTEX
  8
T38SSILL
 62
3
 10
3483.585
 20
-5203.770
 30
1433.380
 70
    32
  0
VERTEX
  8
T38SSILL
 62
3
 10
3489.465
 20
-5209.425
 30
1433.383
 70
    32
  0
VERTEX
  8
T38SSILL
 62
3
 10
3576.991
 20
-5207.618
 30
1433.550
 70
    32
  0
VERTEX
  8
T38SSILL
 62
3
 10
3591.155
 20
-5212.722
 30
1433.569
 70
    32
  0
VERTEX
  8
T38SSILL
 62
3
 10
3601.173
 20
-5218.365
 30
1433.580
 70
    32
  0
VERTEX
  8
T38SSILL
 62
3
 10
3610.278
 20
-5225.752
 30
1433.586
 70
    32
  0
VERTEX
  8
T38SSILL
 62
3
 10
3617.088
 20
-5238.201
 30
1433.579
 70
    32
  0
VERTEX
  8
T38SSILL
 62
3
 10
3811.993
 20
-5506.994
 30
1434.331
 70
    32
  0
VERTEX
  8
T38SSILL
 62
3
 10
3820.022
 20
-5513.854
 30
1434.375
 70
    32
  0
VERTEX
  8
T38SSILL
 62
3
 10
3828.750
 20
-5517.452
 30
1434.407
 70
    32
  0
VERTEX
  8
T38SSILL
 62
3
 10
3838.002
 20
-5517.790
 30
1434.426
 70
    32
  0
VERTEX
  8
T38SSILL
 62
3
 10
3849.979
 20
-5514.423
 30
1434.435
 70
    32
  0
VERTEX
  8
T38SSILL
 62
3
 10
3908.855
 20
-5472.215
 30
1434.398
 70
    32
  0
VERTEX
  8
T38SSILL
 62
3
 10
3904.440
 20
-5466.407
 30
1434.373
 70
    32
  0
VERTEX
  8
T38SSILL
 62
3
 10
3877.700
 20
-5485.489
 30
1434.370
 70
    32
  0
VERTEX
  8
T38SSILL
 62
3
 10
3874.844
 20
-5481.641
 30
1434.349
 70
    32
  0
VERTEX
  8
T38SSILL
 62
3
 10
3869.345
 20
-5485.518
 30
1434.353
 70
    32
  0
VERTEX
  8
T38SSILL
 62
3
 10
3872.003
 20
-5489.554
 30
1434.375
 70
    32
  0
VERTEX
  8
T38SSILL
 62
3
 10
3847.148
 20
-5507.291
 30
1434.400
 70
    32
  0
VERTEX
  8
T38SSILL
 62
3
 10
3836.934
 20
-5511.008
 30
1434.396
 70
    32
  0
VERTEX
  8
T38SSILL
 62
3
 10
3828.386
 20
-5510.228
 30
1434.376
 70
    32
  0
VERTEX
  8
T38SSILL
 62
3
 10
3819.744
 20
-5505.484
 30
1434.339
 70
    32
  0
VERTEX
  8
T38SSILL
 62
3
 10
3769.061
 20
-5435.432
 30
1433.950
 70
    32
  0
VERTEX
  8
T38SSILL
 62
3
 10
3774.877
 20
-5436.568
 30
1433.966
 70
    32
  0
VERTEX
  8
T38SSILL
 62
3
 10
3785.800
 20
-5435.053
 30
1433.986
 70
    32
  0
VERTEX
  8
T38SSILL
 62
3
 10
3806.483
 20
-5421.100
 30
1434.063
 70
    32
  0
VERTEX
  8
T38SSILL
 62
3
 10
3809.222
 20
-5425.853
 30
1434.065
 70
    32
  0
VERTEX
  8
T38SSILL
 62
3
 10
3820.696
 20
-5439.139
 30
1434.088
 70
    32
  0
VERTEX
  8
T38SSILL
 62
3
 10
3828.889
 20
-5438.333
 30
1434.113
 70
    32
  0
VERTEX
  8
T38SSILL
 62
3
 10
3831.971
 20
-5437.447
 30
1434.124
 70
    32
  0
VERTEX
  8
T38SSILL
 62
3
 10
3832.673
 20
-5435.331
 30
1434.130
 70
    32
  0
VERTEX
  8
T38SSILL
 62
3
 10
3831.162
 20
-5426.964
 30
1434.137
 70
    32
  0
VERTEX
  8
T38SSILL
 62
3
 10
3832.391
 20
-5424.583
 30
1434.145
 70
    32
  0
VERTEX
  8
T38SSILL
 62
3
 10
3834.414
 20
-5422.377
 30
1434.155
 70
    32
  0
VERTEX
  8
T38SSILL
 62
3
 10
3844.009
 20
-5417.076
 30
1434.195
 70
    32
  0
VERTEX
  8
T38SSILL
 62
3
 10
3849.400
 20
-5427.464
 30
1434.197
 70
    32
  0
VERTEX
  8
T38SSILL
 62
3
 10
3850.555
 20
-5433.189
 30
1434.193
 70
    32
  0
VERTEX
  8
T38SSILL
 62
3
 10
3856.827
 20
-5443.487
 30
1434.198
 70
    32
  0
VERTEX
  8
T38SSILL
 62
3
 10
3874.659
 20
-5438.372
 30
1434.266
 70
    32
  0
VERTEX
  8
T38SSILL
 62
3
 10
3875.913
 20
-5429.662
 30
1434.283
 70
    32
  0
VERTEX
  8
T38SSILL
 62
3
 10
3859.162
 20
-5436.373
 30
1434.217
 70
    32
  0
VERTEX
  8
T38SSILL
 62
3
 10
3850.330
 20
-5419.973
 30
1434.212
 70
    32
  0
VERTEX
  8
T38SSILL
 62
3
 10
3864.267
 20
-5412.726
 30
1434.269
 70
    32
  0
VERTEX
  8
T38SSILL
 62
3
 10
3864.966
 20
-5408.937
 30
1434.277
 70
    32
  0
VERTEX
  8
T38SSILL
 62
3
 10
3863.607
 20
-5385.326
 30
1434.307
 70
    32
  0
VERTEX
  8
T38SSILL
 62
3
 10
3856.516
 20
-5358.906
 30
1434.371
 70
    32
  0
VERTEX
  8
T38SSILL
 62
3
 10
3854.641
 20
-5342.962
 30
1434.494
 70
    32
  0
VERTEX
  8
T38SSILL
 62
3
 10
3839.185
 20
-5319.638
 30
1434.678
 70
    32
  0
VERTEX
  8
T38SSILL
 62
3
 10
3832.834
 20
-5314.626
 30
1434.719
 70
    32
  0
VERTEX
  8
T38SSILL
 62
3
 10
3820.402
 20
-5309.007
 30
1434.766
 70
    32
  0
VERTEX
  8
T38SSILL
 62
3
 10
3813.322
 20
-5289.283
 30
1434.887
 70
    32
  0
VERTEX
  8
T38SSILL
 62
3
 10
3866.829
 20
-5250.520
 30
1434.526
 70
    32
  0
VERTEX
  8
T38SSILL
 62
3
 10
3875.306
 20
-5262.224
 30
1434.622
 70
    32
  0
VERTEX
  8
T38SSILL
 62
3
 10
3881.139
 20
-5273.669
 30
1434.717
 70
    32
  0
VERTEX
  8
T38SSILL
 62
3
 10
3884.219
 20
-5271.725
 30
1434.698
 70
    32
  0
VERTEX
  8
T38SSILL
 62
3
 10
3885.537
 20
-5268.904
 30
1434.674
 70
    32
  0
VERTEX
  8
T38SSILL
 62
3
 10
3883.499
 20
-5261.683
 30
1434.613
 70
    32
  0
VERTEX
  8
T38SSILL
 62
3
 10
3881.730
 20
-5257.280
 30
1434.576
 70
    32
  0
VERTEX
  8
T38SSILL
 62
3
 10
3874.047
 20
-5246.103
 30
1434.485
 70
    32
  0
VERTEX
  8
T38SSILL
 62
3
 10
3892.366
 20
-5231.431
 30
1434.349
 70
    32
  0
VERTEX
  8
T38SSILL
 62
3
 10
3917.599
 20
-5214.032
 30
1434.186
 70
    32
  0
VERTEX
  8
T38SSILL
 62
3
 10
3918.474
 20
-5215.292
 30
1434.196
 70
    32
  0
VERTEX
  8
T38SSILL
 62
3
 10
3913.192
 20
-5219.055
 30
1434.231
 70
    32
  0
VERTEX
  8
T38SSILL
 62
3
 10
3917.315
 20
-5224.589
 30
1434.277
 70
    32
  0
VERTEX
  8
T38SSILL
 62
3
 10
3922.577
 20
-5221.202
 30
1434.245
 70
    32
  0
VERTEX
  8
T38SSILL
 62
3
 10
3942.776
 20
-5250.487
 30
1434.485
 70
    32
  0
VERTEX
  8
T38SSILL
 62
3
 10
3936.881
 20
-5255.254
 30
1434.529
 70
    32
  0
VERTEX
  8
T38SSILL
 62
3
 10
3940.680
 20
-5261.856
 30
1434.583
 70
    32
  0
VERTEX
  8
T38SSILL
 62
3
 10
3947.897
 20
-5257.439
 30
1434.541
 70
    32
  0
VERTEX
  8
T38SSILL
 62
3
 10
3973.329
 20
-5293.522
 30
1434.829
 70
    32
  0
VERTEX
  8
T38SSILL
 62
3
 10
3925.981
 20
-5327.354
 30
1434.602
 70
    32
  0
VERTEX
  8
T38SSILL
 62
3
 10
3922.929
 20
-5322.910
 30
1434.622
 70
    32
  0
VERTEX
  8
T38SSILL
 62
3
 10
3917.543
 20
-5326.957
 30
1434.593
 70
    32
  0
VERTEX
  8
T38SSILL
 62
3
 10
3920.538
 20
-5331.242
 30
1434.578
 70
    32
  0
VERTEX
  8
T38SSILL
 62
3
 10
3903.628
 20
-5343.325
 30
1434.504
 70
    32
  0
VERTEX
  8
T38SSILL
 62
3
 10
3908.219
 20
-5349.309
 30
1434.510
 70
    32
  0
VERTEX
  8
T38SSILL
 62
3
 10
3948.830
 20
-5319.932
 30
1434.690
 70
    32
  0
VERTEX
  8
T38SSILL
 62
3
 10
3952.254
 20
-5325.152
 30
1434.693
 70
    32
  0
VERTEX
  8
T38SSILL
 62
3
 10
3958.949
 20
-5320.468
 30
1434.723
 70
    32
  0
VERTEX
  8
T38SSILL
 62
3
 10
3955.051
 20
-5315.431
 30
1434.717
 70
    32
  0
VERTEX
  8
T38SSILL
 62
3
 10
3977.919
 20
-5298.890
 30
1434.818
 70
    32
  0
VERTEX
  8
T38SSILL
 62
3
 10
4002.997
 20
-5334.004
 30
1434.850
 70
    32
  0
VERTEX
  8
T38SSILL
 62
3
 10
3996.396
 20
-5338.332
 30
1434.822
 70
    32
  0
VERTEX
  8
T38SSILL
 62
3
 10
4001.603
 20
-5344.050
 30
1434.831
 70
    32
  0
VERTEX
  8
T38SSILL
 62
3
 10
4007.588
 20
-5340.076
 30
1434.856
 70
    32
  0
VERTEX
  8
T38SSILL
 62
3
 10
4032.931
 20
-5375.719
 30
1434.889
 70
    32
  0
VERTEX
  8
T38SSILL
 62
3
 10
3996.937
 20
-5401.679
 30
1434.730
 70
    32
  0
VERTEX
  8
T38SSILL
 62
3
 10
3990.316
 20
-5393.760
 30
1434.719
 70
    32
  0
VERTEX
  8
T38SSILL
 62
3
 10
3990.214
 20
-5385.038
 30
1434.732
 70
    32
  0
VERTEX
  8
T38SSILL
 62
3
 10
3979.609
 20
-5364.526
 30
1434.727
 70
    32
  0
VERTEX
  8
T38SSILL
 62
3
 10
3976.346
 20
-5362.681
 30
1434.718
 70
    32
  0
VERTEX
  8
T38SSILL
 62
3
 10
3971.836
 20
-5352.291
 30
1434.719
 70
    32
  0
VERTEX
  8
T38SSILL
 62
3
 10
3961.148
 20
-5335.128
 30
1434.708
 70
    32
  0
VERTEX
  8
T38SSILL
 62
3
 10
3957.891
 20
-5336.983
 30
1434.695
 70
    32
  0
VERTEX
  8
T38SSILL
 62
3
 10
3969.569
 20
-5367.185
 30
1434.689
 70
    32
  0
VERTEX
  8
T38SSILL
 62
3
 10
3964.472
 20
-5375.563
 30
1434.660
 70
    32
  0
VERTEX
  8
T38SSILL
 62
3
 10
3980.194
 20
-5400.296
 30
1434.676
 70
    32
  0
VERTEX
  8
T38SSILL
 62
3
 10
3984.616
 20
-5410.509
 30
1434.675
 70
    32
  0
VERTEX
  8
T38SSILL
 62
3
 10
3987.019
 20
-5425.659
 30
1434.661
 70
    32
  0
VERTEX
  8
T38SSILL
 62
3
 10
3992.133
 20
-5428.206
 30
1434.674
 70
    32
  0
VERTEX
  8
T38SSILL
 62
3
 10
3997.963
 20
-5438.065
 30
1434.679
 70
    32
  0
VERTEX
  8
T38SSILL
 62
3
 10
4003.596
 20
-5434.444
 30
1434.703
 70
    32
  0
VERTEX
  8
T38SSILL
 62
3
 10
3999.786
 20
-5420.529
 30
1434.711
 70
    32
  0
VERTEX
  8
T38SSILL
 62
3
 10
4004.715
 20
-5417.614
 30
1434.732
 70
    32
  0
VERTEX
  8
T38SSILL
 62
3
 10
4003.464
 20
-5406.514
 30
1434.744
 70
    32
  0
VERTEX
  8
T38SSILL
 62
3
 10
4029.602
 20
-5388.147
 30
1434.859
 70
    32
  0
VERTEX
  8
T38SSILL
 62
3
 10
4040.261
 20
-5386.632
 30
1434.897
 70
    32
  0
VERTEX
  8
T38SSILL
 62
3
 10
4061.717
 20
-5415.937
 30
1434.925
 70
    32
  0
VERTEX
  8
T38SSILL
 62
3
 10
4055.997
 20
-5420.352
 30
1434.900
 70
    32
  0
VERTEX
  8
T38SSILL
 62
3
 10
4060.411
 20
-5426.072
 30
1434.906
 70
    32
  0
VERTEX
  8
T38SSILL
 62
3
 10
4066.308
 20
-5421.833
 30
1434.932
 70
    32
  0
VERTEX
  8
T38SSILL
 62
3
 10
4121.585
 20
-5499.719
 30
1435.027
 70
    32
  0
VERTEX
  8
T38SSILL
 62
3
 10
4116.041
 20
-5503.869
 30
1435.022
 70
    32
  0
VERTEX
  8
T38SSILL
 62
3
 10
4119.488
 20
-5510.295
 30
1435.046
 70
    32
  0
VERTEX
  8
T38SSILL
 62
3
 10
4125.824
 20
-5505.704
 30
1435.052
 70
    32
  0
VERTEX
  8
T38SSILL
 62
3
 10
4135.713
 20
-5519.344
 30
1435.109
 70
    32
  0
VERTEX
  8
T38SSILL
 62
3
 10
4136.520
 20
-5527.625
 30
1435.130
 70
    32
  0
VERTEX
  8
T38SSILL
 62
3
 10
4135.471
 20
-5532.913
 30
1435.139
 70
    32
  0
VERTEX
  8
T38SSILL
 62
3
 10
4119.542
 20
-5544.656
 30
1435.123
 70
    32
  0
VERTEX
  8
T38SSILL
 62
3
 10
4117.250
 20
-5543.867
 30
1435.115
 70
    32
  0
VERTEX
  8
T38SSILL
 62
3
 10
4115.027
 20
-5531.095
 30
1435.081
 70
    32
  0
VERTEX
  8
T38SSILL
 62
3
 10
4111.586
 20
-5527.664
 30
1435.064
 70
    32
  0
VERTEX
  8
T38SSILL
 62
3
 10
4092.643
 20
-5527.959
 30
1435.014
 70
    32
  0
VERTEX
  8
T38SSILL
 62
3
 10
4104.124
 20
-5545.033
 30
1435.083
 70
    32
  0
VERTEX
  8
T38SSILL
 62
3
 10
4104.745
 20
-5547.675
 30
1435.091
 70
    32
  0
VERTEX
  8
T38SSILL
 62
3
 10
4101.492
 20
-5552.086
 30
1435.098
 70
    32
  0
VERTEX
  8
T38SSILL
 62
3
 10
4096.385
 20
-5553.768
 30
1435.093
 70
    32
  0
VERTEX
  8
T38SSILL
 62
3
 10
4089.585
 20
-5543.646
 30
1435.041
 70
    32
  0
VERTEX
  8
T38SSILL
 62
3
 10
4082.602
 20
-5529.296
 30
1434.990
 70
    32
  0
VERTEX
  8
T38SSILL
 62
3
 10
4072.030
 20
-5529.842
 30
1434.963
 70
    32
  0
VERTEX
  8
T38SSILL
 62
3
 10
4091.734
 20
-5565.317
 30
1435.127
 70
    32
  0
VERTEX
  8
T38SSILL
 62
3
 10
4103.113
 20
-5574.021
 30
1435.185
 70
    32
  0
VERTEX
  8
T38SSILL
 62
3
 10
4111.047
 20
-5576.916
 30
1435.212
 70
    32
  0
VERTEX
  8
T38SSILL
 62
3
 10
4122.962
 20
-5590.025
 30
1435.288
 70
    32
  0
VERTEX
  8
T38SSILL
 62
3
 10
4124.283
 20
-5589.495
 30
1435.288
 70
    32
  0
VERTEX
  8
T38SSILL
 62
3
 10
4125.513
 20
-5587.290
 30
1435.283
 70
    32
  0
VERTEX
  8
T38SSILL
 62
3
 10
4129.388
 20
-5586.138
 30
1435.286
 70
    32
  0
VERTEX
  8
T38SSILL
 62
3
 10
4129.738
 20
-5585.081
 30
1435.283
 70
    32
  0
VERTEX
  8
T38SSILL
 62
3
 10
4120.461
 20
-5568.355
 30
1435.200
 70
    32
  0
VERTEX
  8
T38SSILL
 62
3
 10
4119.292
 20
-5553.820
 30
1435.143
 70
    32
  0
VERTEX
  8
T38SSILL
 62
3
 10
4146.840
 20
-5534.921
 30
1435.174
 70
    32
  0
VERTEX
  8
T38SSILL
 62
3
 10
4182.245
 20
-5582.530
 30
1435.385
 70
    32
  0
VERTEX
  8
T38SSILL
 62
3
 10
4175.203
 20
-5586.594
 30
1435.385
 70
    32
  0
VERTEX
  8
T38SSILL
 62
3
 10
4178.578
 20
-5592.293
 30
1435.414
 70
    32
  0
VERTEX
  8
T38SSILL
 62
3
 10
4184.471
 20
-5588.317
 30
1435.412
 70
    32
  0
VERTEX
  8
T38SSILL
 62
3
 10
4238.985
 20
-5665.104
 30
1435.819
 70
    32
  0
VERTEX
  8
T38SSILL
 62
3
 10
4233.971
 20
-5668.286
 30
1435.822
 70
    32
  0
VERTEX
  8
T38SSILL
 62
3
 10
4238.390
 20
-5674.972
 30
1435.858
 70
    32
  0
VERTEX
  8
T38SSILL
 62
3
 10
4243.755
 20
-5671.084
 30
1435.852
 70
    32
  0
VERTEX
  8
T38SSILL
 62
3
 10
4261.338
 20
-5695.977
 30
1435.914
 70
    32
  0
VERTEX
  8
T38SSILL
 62
3
 10
4266.526
 20
-5691.649
 30
1435.909
 70
    32
  0
VERTEX
  8
T38SSILL
 62
3
 10
4250.177
 20
-5667.283
 30
1435.854
 70
    32
  0
VERTEX
  8
T38SSILL
 62
3
 10
4312.979
 20
-5622.224
 30
1435.898
 70
    32
  0
VERTEX
  8
T38SSILL
 62
3
 10
4323.727
 20
-5622.730
 30
1435.920
 70
    32
  0
VERTEX
  8
T38SSILL
 62
3
 10
4348.364
 20
-5656.916
 30
1435.969
 70
    32
  0
VERTEX
  8
T38SSILL
 62
3
 10
4342.505
 20
-5661.091
 30
1435.965
 70
    32
  0
VERTEX
  8
T38SSILL
 62
3
 10
4346.558
 20
-5666.829
 30
1435.973
 70
    32
  0
VERTEX
  8
T38SSILL
 62
3
 10
4352.459
 20
-5662.598
 30
1435.977
 70
    32
  0
VERTEX
  8
T38SSILL
 62
3
 10
4354.914
 20
-5666.004
 30
1435.982
 70
    32
  0
VERTEX
  8
T38SSILL
 62
3
 10
4360.368
 20
-5662.469
 30
1435.986
 70
    32
  0
VERTEX
  8
T38SSILL
 62
3
 10
4325.646
 20
-5614.093
 30
1435.910
 70
    32
  0
VERTEX
  8
T38SSILL
 62
3
 10
4446.371
 20
-5527.846
 30
1435.995
 70
    32
  0
VERTEX
  8
T38SSILL
 62
3
 10
4454.307
 20
-5528.479
 30
1436.004
 70
    32
  0
VERTEX
  8
T38SSILL
 62
3
 10
4460.943
 20
-5531.503
 30
1436.013
 70
    32
  0
VERTEX
  8
T38SSILL
 62
3
 10
4722.690
 20
-5896.208
 30
1436.506
 70
    32
  0
VERTEX
  8
T38SSILL
 62
3
 10
4775.481
 20
-5965.133
 30
1436.571
 70
    32
  0
VERTEX
  8
T38SSILL
 62
3
 10
4773.193
 20
-5974.348
 30
1436.566
 70
    32
  0
VERTEX
  8
T38SSILL
 62
3
 10
4737.261
 20
-5999.448
 30
1436.586
 70
    32
  0
VERTEX
  8
T38SSILL
 62
3
 10
4734.287
 20
-5995.746
 30
1436.583
 70
    32
  0
VERTEX
  8
T38SSILL
 62
3
 10
4727.931
 20
-5999.839
 30
1436.587
 70
    32
  0
VERTEX
  8
T38SSILL
 62
3
 10
4731.028
 20
-6003.803
 30
1436.591
 70
    32
  0
VERTEX
  8
T38SSILL
 62
3
 10
4725.527
 20
-6007.645
 30
1436.595
 70
    32
  0
VERTEX
  8
T38SSILL
 62
3
 10
4729.430
 20
-6013.300
 30
1436.600
 70
    32
  0
VERTEX
  8
T38SSILL
 62
3
 10
4783.875
 20
-5975.019
 30
1436.588
 70
    32
  0
VERTEX
  8
T38SSILL
 62
3
 10
4886.530
 20
-6119.461
 30
1436.802
 70
    32
  0
VERTEX
  8
T38SSILL
 62
3
 10
4887.975
 20
-6125.693
 30
1436.805
 70
    32
  0
VERTEX
  8
T38SSILL
 62
3
 10
4887.763
 20
-6132.839
 30
1436.804
 70
    32
  0
VERTEX
  8
T38SSILL
 62
3
 10
4885.532
 20
-6140.466
 30
1436.799
 70
    32
  0
VERTEX
  8
T38SSILL
 62
3
 10
4880.125
 20
-6147.979
 30
1436.788
 70
    32
  0
VERTEX
  8
T38SSILL
 62
3
 10
4832.565
 20
-6182.157
 30
1436.757
 70
    32
  0
VERTEX
  8
T38SSILL
 62
3
 10
4831.411
 20
-6181.738
 30
1436.757
 70
    32
  0
VERTEX
  8
T38SSILL
 62
3
 10
4817.683
 20
-6187.652
 30
1436.763
 70
    32
  0
VERTEX
  8
T38SSILL
 62
3
 10
4815.789
 20
-6194.478
 30
1436.770
 70
    32
  0
VERTEX
  8
T38SSILL
 62
3
 10
4810.572
 20
-6198.196
 30
1436.774
 70
    32
  0
VERTEX
  8
T38SSILL
 62
3
 10
4814.224
 20
-6204.561
 30
1436.780
 70
    32
  0
VERTEX
  8
T38SSILL
 62
3
 10
4819.350
 20
-6205.166
 30
1436.780
 70
    32
  0
VERTEX
  8
T38SSILL
 62
3
 10
4823.714
 20
-6202.876
 30
1436.778
 70
    32
  0
VERTEX
  8
T38SSILL
 62
3
 10
4827.100
 20
-6204.661
 30
1436.779
 70
    32
  0
VERTEX
  8
T38SSILL
 62
3
 10
4830.591
 20
-6207.325
 30
1436.782
 70
    32
  0
VERTEX
  8
T38SSILL
 62
3
 10
4844.404
 20
-6223.719
 30
1436.797
 70
    32
  0
VERTEX
  8
T38SSILL
 62
3
 10
4848.364
 20
-6232.282
 30
1436.805
 70
    32
  0
VERTEX
  8
T38SSILL
 62
3
 10
4842.267
 20
-6240.603
 30
1436.813
 70
    32
  0
VERTEX
  8
T38SSILL
 62
3
 10
4872.873
 20
-6294.846
 30
1436.864
 70
    32
  0
VERTEX
  8
T38SSILL
 62
3
 10
4883.089
 20
-6303.198
 30
1436.871
 70
    32
  0
VERTEX
  8
T38SSILL
 62
3
 10
4886.131
 20
-6309.928
 30
1436.878
 70
    32
  0
VERTEX
  8
T38SSILL
 62
3
 10
4895.933
 20
-6324.108
 30
1436.891
 70
    32
  0
VERTEX
  8
T38SSILL
 62
3
 10
4909.470
 20
-6339.890
 30
1436.905
 70
    32
  0
VERTEX
  8
T38SSILL
 62
3
 10
4916.538
 20
-6340.632
 30
1436.906
 70
    32
  0
VERTEX
  8
T38SSILL
 62
3
 10
4938.489
 20
-6362.774
 30
1436.926
 70
    32
  0
VERTEX
  8
T38SSILL
 62
3
 10
4947.387
 20
-6362.422
 30
1436.927
 70
    32
  0
VERTEX
  8
T38SSILL
 62
3
 10
4955.002
 20
-6359.539
 30
1436.943
 70
    32
  0
VERTEX
  8
T38SSILL
 62
3
 10
4958.094
 20
-6364.328
 30
1436.949
 70
    32
  0
VERTEX
  8
T38SSILL
 62
3
 10
4962.525
 20
-6365.475
 30
1436.958
 70
    32
  0
VERTEX
  8
T38SSILL
 62
3
 10
4989.215
 20
-6386.465
 30
1436.993
 70
    32
  0
VERTEX
  8
T38SSILL
 62
3
 10
5005.361
 20
-6373.539
 30
1436.993
 70
    32
  0
VERTEX
  8
T38SSILL
 62
3
 10
5003.752
 20
-6367.927
 30
1436.991
 70
    32
  0
VERTEX
  8
T38SSILL
 62
3
 10
4994.095
 20
-6352.157
 30
1436.985
 70
    32
  0
VERTEX
  8
T38SSILL
 62
3
 10
4986.682
 20
-6342.868
 30
1436.981
 70
    32
  0
VERTEX
  8
T38SSILL
 62
3
 10
4988.429
 20
-6337.543
 30
1436.980
 70
    32
  0
VERTEX
  8
T38SSILL
 62
3
 10
4988.538
 20
-6334.102
 30
1436.980
 70
    32
  0
VERTEX
  8
T38SSILL
 62
3
 10
4987.167
 20
-6331.661
 30
1436.979
 70
    32
  0
VERTEX
  8
T38SSILL
 62
3
 10
5004.625
 20
-6318.179
 30
1436.978
 70
    32
  0
VERTEX
  8
T38SSILL
 62
3
 10
5009.454
 20
-6312.617
 30
1436.978
 70
    32
  0
VERTEX
  8
T38SSILL
 62
3
 10
5013.437
 20
-6304.427
 30
1436.976
 70
    32
  0
VERTEX
  8
T38SSILL
 62
3
 10
5014.874
 20
-6296.815
 30
1436.975
 70
    32
  0
VERTEX
  8
T38SSILL
 62
3
 10
5071.123
 20
-6374.229
 30
1437.004
 70
    32
  0
VERTEX
  8
T38SSILL
 62
3
 10
5071.423
 20
-6376.728
 30
1437.005
 70
    32
  0
VERTEX
  8
T38SSILL
 62
3
 10
5068.509
 20
-6385.700
 30
1437.007
 70
    32
  0
VERTEX
  8
T38SSILL
 62
3
 10
5063.035
 20
-6392.952
 30
1437.008
 70
    32
  0
VERTEX
  8
T38SSILL
 62
3
 10
4877.449
 20
-6525.533
 30
1437.057
 70
    32
  0
VERTEX
  8
T38SSILL
 62
3
 10
4881.297
 20
-6531.147
 30
1437.059
 70
    32
  0
VERTEX
  8
T38SSILL
 62
3
 10
4874.001
 20
-6536.161
 30
1437.062
 70
    32
  0
VERTEX
  8
T38SSILL
 62
3
 10
4877.679
 20
-6541.407
 30
1437.064
 70
    32
  0
VERTEX
  8
T38SSILL
 62
3
 10
4888.261
 20
-6534.226
 30
1437.060
 70
    32
  0
VERTEX
  8
T38SSILL
 62
3
 10
4884.810
 20
-6528.495
 30
1437.057
 70
    32
  0
VERTEX
  8
T38SSILL
 62
3
 10
4897.746
 20
-6519.469
 30
1437.052
 70
    32
  0
VERTEX
  8
T38SSILL
 62
3
 10
4896.392
 20
-6522.318
 30
1437.053
 70
    32
  0
VERTEX
  8
T38SSILL
 62
3
 10
4896.077
 20
-6528.761
 30
1437.056
 70
    32
  0
VERTEX
  8
T38SSILL
 62
3
 10
4898.454
 20
-6542.028
 30
1437.062
 70
    32
  0
VERTEX
  8
T38SSILL
 62
3
 10
4902.473
 20
-6549.092
 30
1437.065
 70
    32
  0
VERTEX
  8
T38SSILL
 62
3
 10
4937.058
 20
-6597.123
 30
1437.083
 70
    32
  0
VERTEX
  8
T38SSILL
 62
3
 10
4934.363
 20
-6601.370
 30
1437.085
 70
    32
  0
VERTEX
  8
T38SSILL
 62
3
 10
4934.335
 20
-6604.457
 30
1437.087
 70
    32
  0
VERTEX
  8
T38SSILL
 62
3
 10
4942.766
 20
-6616.195
 30
1437.091
 70
    32
  0
VERTEX
  8
T38SSILL
 62
3
 10
4952.328
 20
-6618.331
 30
1437.091
 70
    32
  0
VERTEX
  8
T38SSILL
 62
3
 10
4972.128
 20
-6645.830
 30
1437.101
 70
    32
  0
VERTEX
  8
T38SSILL
 62
3
 10
4971.390
 20
-6650.373
 30
1437.103
 70
    32
  0
VERTEX
  8
T38SSILL
 62
3
 10
4964.498
 20
-6654.124
 30
1437.106
 70
    32
  0
VERTEX
  8
T38SSILL
 62
3
 10
4966.546
 20
-6664.135
 30
1437.110
 70
    32
  0
VERTEX
  8
T38SSILL
 62
3
 10
4969.649
 20
-6669.453
 30
1437.112
 70
    32
  0
VERTEX
  8
T38SSILL
 62
3
 10
4968.228
 20
-6691.349
 30
1437.123
 70
    32
  0
VERTEX
  8
T38SSILL
 62
3
 10
5083.447
 20
-6774.152
 30
1437.147
 70
    32
  0
VERTEX
  8
T38SSILL
 62
3
 10
5088.611
 20
-6768.781
 30
1437.144
 70
    32
  0
VERTEX
  8
T38SSILL
 62
3
 10
4981.124
 20
-6692.506
 30
1437.122
 70
    32
  0
VERTEX
  8
T38SSILL
 62
3
 10
4979.363
 20
-6688.132
 30
1437.120
 70
    32
  0
VERTEX
  8
T38SSILL
 62
3
 10
4979.760
 20
-6685.920
 30
1437.119
 70
    32
  0
VERTEX
  8
T38SSILL
 62
3
 10
5005.514
 20
-6692.196
 30
1437.119
 70
    32
  0
VERTEX
  8
T38SSILL
 62
3
 10
5012.342
 20
-6701.680
 30
1437.122
 70
    32
  0
VERTEX
  8
T38SSILL
 62
3
 10
5019.271
 20
-6699.780
 30
1437.120
 70
    32
  0
VERTEX
  8
T38SSILL
 62
3
 10
5013.575
 20
-6691.944
 30
1437.118
 70
    32
  0
VERTEX
  8
T38SSILL
 62
3
 10
5018.912
 20
-6686.031
 30
1437.114
 70
    32
  0
VERTEX
  8
T38SSILL
 62
3
 10
5026.098
 20
-6674.780
 30
1437.108
 70
    32
  0
VERTEX
  8
T38SSILL
 62
3
 10
5024.146
 20
-6665.207
 30
1437.104
 70
    32
  0
VERTEX
  8
T38SSILL
 62
3
 10
5012.203
 20
-6649.747
 30
1437.098
 70
    32
  0
VERTEX
  8
T38SSILL
 62
3
 10
5003.022
 20
-6644.725
 30
1437.097
 70
    32
  0
VERTEX
  8
T38SSILL
 62
3
 10
4993.432
 20
-6641.298
 30
1437.097
 70
    32
  0
VERTEX
  8
T38SSILL
 62
3
 10
4979.052
 20
-6644.455
 30
1437.100
 70
    32
  0
VERTEX
  8
T38SSILL
 62
3
 10
4946.650
 20
-6599.884
 30
1437.083
 70
    32
  0
VERTEX
  8
T38SSILL
 62
3
 10
4962.467
 20
-6591.206
 30
1437.077
 70
    32
  0
VERTEX
  8
T38SSILL
 62
3
 10
4963.760
 20
-6589.682
 30
1437.076
 70
    32
  0
VERTEX
  8
T38SSILL
 62
3
 10
4963.163
 20
-6586.255
 30
1437.075
 70
    32
  0
VERTEX
  8
T38SSILL
 62
3
 10
4957.803
 20
-6578.248
 30
1437.072
 70
    32
  0
VERTEX
  8
T38SSILL
 62
3
 10
4956.207
 20
-6577.750
 30
1437.072
 70
    32
  0
VERTEX
  8
T38SSILL
 62
3
 10
4954.895
 20
-6573.808
 30
1437.070
 70
    32
  0
VERTEX
  8
T38SSILL
 62
3
 10
4937.844
 20
-6587.769
 30
1437.078
 70
    32
  0
VERTEX
  8
T38SSILL
 62
3
 10
4903.974
 20
-6540.245
 30
1437.060
 70
    32
  0
VERTEX
  8
T38SSILL
 62
3
 10
4902.468
 20
-6526.431
 30
1437.054
 70
    32
  0
VERTEX
  8
T38SSILL
 62
3
 10
4904.364
 20
-6519.692
 30
1437.051
 70
    32
  0
VERTEX
  8
T38SSILL
 62
3
 10
4909.668
 20
-6511.387
 30
1437.046
 70
    32
  0
VERTEX
  8
T38SSILL
 62
3
 10
5081.953
 20
-6390.666
 30
1437.010
 70
    32
  0
VERTEX
  8
T38SSILL
 62
3
 10
5192.069
 20
-6543.312
 30
1437.072
 70
    32
  0
VERTEX
  8
T38SSILL
 62
3
 10
5184.881
 20
-6548.124
 30
1437.073
 70
    32
  0
VERTEX
  8
T38SSILL
 62
3
 10
5189.345
 20
-6553.515
 30
1437.076
 70
    32
  0
VERTEX
  8
T38SSILL
 62
3
 10
5182.896
 20
-6558.384
 30
1437.077
 70
    32
  0
VERTEX
  8
T38SSILL
 62
3
 10
5189.451
 20
-6565.624
 30
1437.081
 70
    32
  0
VERTEX
  8
T38SSILL
 62
3
 10
5201.384
 20
-6557.416
 30
1437.079
 70
    32
  0
VERTEX
  8
T38SSILL
 62
3
 10
5203.344
 20
-6557.730
 30
1437.079
 70
    32
  0
VERTEX
  8
T38SSILL
 62
3
 10
5322.072
 20
-6725.273
 30
1437.160
 70
    32
  0
VERTEX
  8
T38SSILL
 62
3
 10
5852.528
 20
-8532.922
 30
1438.811
 70
    32
  0
VERTEX
  8
T38SSILL
 62
3
 10
5854.692
 20
-8546.979
 30
1438.807
 70
    32
  0
VERTEX
  8
T38SSILL
 62
3
 10
5875.056
 20
-8615.410
 30
1438.788
 70
    32
  0
VERTEX
  8
T38SSILL
 62
3
 10
5872.514
 20
-8635.966
 30
1438.778
 70
    32
  0
VERTEX
  8
T38SSILL
 62
3
 10
5864.058
 20
-8650.512
 30
1438.767
 70
    32
  0
VERTEX
  8
T38SSILL
 62
3
 10
5866.737
 20
-8656.304
 30
1438.766
 70
    32
  0
VERTEX
  8
T38SSILL
 62
3
 10
5899.063
 20
-8656.525
 30
1438.783
 70
    32
  0
VERTEX
  8
T38SSILL
 62
3
 10
5328.988
 20
-6722.107
 30
1437.161
 70
    32
  0
VERTEX
  8
T38SSILL
 62
3
 10
5262.409
 20
-6628.186
 30
1437.115
 70
    32
  0
VERTEX
  8
T38SSILL
 62
3
 10
5266.376
 20
-6625.439
 30
1437.114
 70
    32
  0
VERTEX
  8
T38SSILL
 62
3
 10
5262.652
 20
-6619.869
 30
1437.112
 70
    32
  0
VERTEX
  8
T38SSILL
 62
3
 10
5258.539
 20
-6622.728
 30
1437.112
 70
    32
  0
VERTEX
  8
T38SSILL
 62
3
 10
5208.253
 20
-6551.792
 30
1437.077
 70
    32
  0
VERTEX
  8
T38SSILL
 62
3
 10
5207.287
 20
-6547.616
 30
1437.076
 70
    32
  0
VERTEX
  8
T38SSILL
 62
3
 10
5204.163
 20
-6545.545
 30
1437.074
 70
    32
  0
VERTEX
  8
T38SSILL
 62
3
 10
5121.185
 20
-6428.705
 30
1437.027
 70
    32
  0
VERTEX
  8
T38SSILL
 62
3
 10
5127.020
 20
-6423.975
 30
1437.027
 70
    32
  0
VERTEX
  8
T38SSILL
 62
3
 10
5122.718
 20
-6418.119
 30
1437.025
 70
    32
  0
VERTEX
  8
T38SSILL
 62
3
 10
5116.809
 20
-6422.544
 30
1437.025
 70
    32
  0
VERTEX
  8
T38SSILL
 62
3
 10
5055.488
 20
-6336.199
 30
1436.992
 70
    32
  0
VERTEX
  8
T38SSILL
 62
3
 10
4729.451
 20
-5893.591
 30
1436.529
 70
    32
  0
VERTEX
  8
T38SSILL
 62
3
 10
4455.918
 20
-5511.811
 30
1435.997
 70
    32
  0
VERTEX
  8
T38SSILL
 62
3
 10
4380.716
 20
-5565.538
 30
1435.920
 70
    32
  0
VERTEX
  8
T38SSILL
 62
3
 10
4352.598
 20
-5525.525
 30
1435.725
 70
    32
  0
VERTEX
  8
T38SSILL
 62
3
 10
4345.937
 20
-5529.462
 30
1435.715
 70
    32
  0
VERTEX
  8
T38SSILL
 62
3
 10
4368.067
 20
-5560.101
 30
1435.865
 70
    32
  0
VERTEX
  8
T38SSILL
 62
3
 10
4368.458
 20
-5564.415
 30
1435.880
 70
    32
  0
VERTEX
  8
T38SSILL
 62
3
 10
4363.204
 20
-5577.680
 30
1435.907
 70
    32
  0
VERTEX
  8
T38SSILL
 62
3
 10
4254.380
 20
-5655.294
 30
1435.829
 70
    32
  0
VERTEX
  8
T38SSILL
 62
3
 10
4239.490
 20
-5653.563
 30
1435.779
 70
    32
  0
VERTEX
  8
T38SSILL
 62
3
 10
4161.120
 20
-5543.000
 30
1435.231
 70
    32
  0
VERTEX
  8
T38SSILL
 62
3
 10
4290.427
 20
-5449.506
 30
1435.790
 70
    32
  0
VERTEX
  8
T38SSILL
 62
3
 10
4294.147
 20
-5454.503
 30
1435.778
 70
    32
  0
VERTEX
  8
T38SSILL
 62
3
 10
4299.880
 20
-5450.187
 30
1435.818
 70
    32
  0
VERTEX
  8
T38SSILL
 62
3
 10
4296.460
 20
-5445.144
 30
1435.831
 70
    32
  0
VERTEX
  8
T38SSILL
 62
3
 10
4338.175
 20
-5414.983
 30
1436.117
 70
    32
  0
VERTEX
  8
T38SSILL
 62
3
 10
4334.287
 20
-5409.617
 30
1436.130
 70
    32
  0
VERTEX
  8
T38SSILL
 62
3
 10
4314.759
 20
-5422.520
 30
1436.002
 70
    32
  0
VERTEX
  8
T38SSILL
 62
3
 10
4312.196
 20
-5418.649
 30
1436.012
 70
    32
  0
VERTEX
  8
T38SSILL
 62
3
 10
4318.347
 20
-5411.589
 30
1436.067
 70
    32
  0
VERTEX
  8
T38SSILL
 62
3
 10
4317.110
 20
-5409.566
 30
1436.073
 70
    32
  0
VERTEX
  8
T38SSILL
 62
3
 10
4290.996
 20
-5391.210
 30
1436.073
 70
    32
  0
VERTEX
  8
T38SSILL
 62
3
 10
4281.921
 20
-5390.524
 30
1436.046
 70
    32
  0
VERTEX
  8
T38SSILL
 62
3
 10
4275.923
 20
-5386.749
 30
1436.044
 70
    32
  0
VERTEX
  8
T38SSILL
 62
3
 10
4266.493
 20
-5384.479
 30
1436.023
 70
    32
  0
VERTEX
  8
T38SSILL
 62
3
 10
4259.011
 20
-5387.049
 30
1435.986
 70
    32
  0
VERTEX
  8
T38SSILL
 62
3
 10
4243.142
 20
-5381.269
 30
1435.960
 70
    32
  0
VERTEX
  8
T38SSILL
 62
3
 10
4243.461
 20
-5365.412
 30
1436.038
 70
    32
  0
VERTEX
  8
T38SSILL
 62
3
 10
4256.393
 20
-5357.192
 30
1436.121
 70
    32
  0
VERTEX
  8
T38SSILL
 62
3
 10
4274.613
 20
-5350.459
 30
1436.215
 70
    32
  0
VERTEX
  8
T38SSILL
 62
3
 10
4284.299
 20
-5348.236
 30
1436.259
 70
    32
  0
VERTEX
  8
T38SSILL
 62
3
 10
4295.133
 20
-5347.861
 30
1436.297
 70
    32
  0
VERTEX
  8
T38SSILL
 62
3
 10
4298.131
 20
-5349.440
 30
1436.299
 70
    32
  0
VERTEX
  8
T38SSILL
 62
3
 10
4309.317
 20
-5348.712
 30
1436.341
 70
    32
  0
VERTEX
  8
T38SSILL
 62
3
 10
4310.641
 20
-5349.942
 30
1436.339
 70
    32
  0
VERTEX
  8
T38SSILL
 62
3
 10
4314.605
 20
-5349.846
 30
1436.353
 70
    32
  0
VERTEX
  8
T38SSILL
 62
3
 10
4316.974
 20
-5345.172
 30
1436.384
 70
    32
  0
VERTEX
  8
T38SSILL
 62
3
 10
4305.686
 20
-5339.470
 30
1436.373
 70
    32
  0
VERTEX
  8
T38SSILL
 62
3
 10
4292.732
 20
-5337.119
 30
1436.341
 70
    32
  0
VERTEX
  8
T38SSILL
 62
3
 10
4285.757
 20
-5329.646
 30
1436.353
 70
    32
  0
VERTEX
  8
T38SSILL
 62
3
 10
4304.024
 20
-5315.564
 30
1436.483
 70
    32
  0
VERTEX
  8
T38SSILL
 62
3
 10
4299.184
 20
-5309.100
 30
1436.498
 70
    32
  0
VERTEX
  8
T38SSILL
 62
3
 10
4239.991
 20
-5349.211
 30
1436.105
 70
    32
  0
VERTEX
  8
T38SSILL
 62
3
 10
4228.187
 20
-5349.236
 30
1436.065
 70
    32
  0
VERTEX
  8
T38SSILL
 62
3
 10
4203.535
 20
-5355.542
 30
1435.951
 70
    32
  0
VERTEX
  8
T38SSILL
 62
3
 10
4201.635
 20
-5373.252
 30
1435.859
 70
    32
  0
VERTEX
  8
T38SSILL
 62
3
 10
4195.749
 20
-5381.105
 30
1435.802
 70
    32
  0
VERTEX
  8
T38SSILL
 62
3
 10
4193.188
 20
-5377.939
 30
1435.808
 70
    32
  0
VERTEX
  8
T38SSILL
 62
3
 10
4183.604
 20
-5386.240
 30
1435.736
 70
    32
  0
VERTEX
  8
T38SSILL
 62
3
 10
4186.606
 20
-5389.757
 30
1435.729
 70
    32
  0
VERTEX
  8
T38SSILL
 62
3
 10
4135.328
 20
-5426.863
 30
1435.276
 70
    32
  0
VERTEX
  8
T38SSILL
 62
3
 10
4118.732
 20
-5410.073
 30
1435.135
 70
    32
  0
VERTEX
  8
T38SSILL
 62
3
 10
4114.576
 20
-5402.947
 30
1435.105
 70
    32
  0
VERTEX
  8
T38SSILL
 62
3
 10
4113.697
 20
-5403.565
 30
1435.094
 70
    32
  0
VERTEX
  8
T38SSILL
 62
3
 10
4102.353
 20
-5412.839
 30
1434.961
 70
    32
  0
VERTEX
  8
T38SSILL
 62
3
 10
4108.731
 20
-5429.650
 30
1434.996
 70
    32
  0
VERTEX
  8
T38SSILL
 62
3
 10
4115.800
 20
-5439.942
 30
1435.051
 70
    32
  0
VERTEX
  8
T38SSILL
 62
3
 10
4104.633
 20
-5449.655
 30
1434.980
 70
    32
  0
VERTEX
  8
T38SSILL
 62
3
 10
4094.059
 20
-5448.004
 30
1434.973
 70
    32
  0
VERTEX
  8
T38SSILL
 62
3
 10
4071.486
 20
-5419.330
 30
1434.945
 70
    32
  0
VERTEX
  8
T38SSILL
 62
3
 10
4160.225
 20
-5355.849
 30
1435.661
 70
    32
  0
VERTEX
  8
T38SSILL
 62
3
 10
4163.718
 20
-5360.728
 30
1435.689
 70
    32
  0
VERTEX
  8
T38SSILL
 62
3
 10
4173.478
 20
-5353.746
 30
1435.802
 70
    32
  0
VERTEX
  8
T38SSILL
 62
3
 10
4169.985
 20
-5348.868
 30
1435.775
 70
    32
  0
VERTEX
  8
T38SSILL
 62
3
 10
4228.544
 20
-5306.977
 30
1436.270
 70
    32
  0
VERTEX
  8
T38SSILL
 62
3
 10
4232.037
 20
-5311.855
 30
1436.258
 70
    32
  0
VERTEX
  8
T38SSILL
 62
3
 10
4236.917
 20
-5308.364
 30
1436.292
 70
    32
  0
VERTEX
  8
T38SSILL
 62
3
 10
4233.424
 20
-5303.486
 30
1436.304
 70
    32
  0
VERTEX
  8
T38SSILL
 62
3
 10
4252.944
 20
-5289.522
 30
1436.437
 70
    32
  0
VERTEX
  8
T38SSILL
 62
3
 10
4256.437
 20
-5294.400
 30
1436.425
 70
    32
  0
VERTEX
  8
T38SSILL
 62
3
 10
4261.317
 20
-5290.910
 30
1436.458
 70
    32
  0
VERTEX
  8
T38SSILL
 62
3
 10
4257.824
 20
-5286.031
 30
1436.470
 70
    32
  0
VERTEX
  8
T38SSILL
 62
3
 10
4267.583
 20
-5279.049
 30
1436.537
 70
    32
  0
VERTEX
  8
T38SSILL
 62
3
 10
4253.611
 20
-5259.536
 30
1436.584
 70
    32
  0
VERTEX
  8
T38SSILL
 62
3
 10
4234.091
 20
-5273.500
 30
1436.451
 70
    32
  0
VERTEX
  8
T38SSILL
 62
3
 10
4230.598
 20
-5268.622
 30
1436.463
 70
    32
  0
VERTEX
  8
T38SSILL
 62
3
 10
4220.838
 20
-5275.603
 30
1436.396
 70
    32
  0
VERTEX
  8
T38SSILL
 62
3
 10
4231.318
 20
-5290.238
 30
1436.361
 70
    32
  0
VERTEX
  8
T38SSILL
 62
3
 10
4213.486
 20
-5302.995
 30
1436.239
 70
    32
  0
VERTEX
  8
T38SSILL
 62
3
 10
4212.783
 20
-5302.000
 30
1436.241
 70
    32
  0
VERTEX
  8
T38SSILL
 62
3
 10
4207.247
 20
-5306.147
 30
1436.203
 70
    32
  0
VERTEX
  8
T38SSILL
 62
3
 10
4211.179
 20
-5312.022
 30
1436.187
 70
    32
  0
VERTEX
  8
T38SSILL
 62
3
 10
4166.492
 20
-5343.989
 30
1435.747
 70
    32
  0
VERTEX
  8
T38SSILL
 62
3
 10
4162.999
 20
-5339.111
 30
1435.720
 70
    32
  0
VERTEX
  8
T38SSILL
 62
3
 10
4158.119
 20
-5342.602
 30
1435.663
 70
    32
  0
VERTEX
  8
T38SSILL
 62
3
 10
4154.626
 20
-5337.724
 30
1435.636
 70
    32
  0
VERTEX
  8
T38SSILL
 62
3
 10
4130.226
 20
-5355.178
 30
1435.352
 70
    32
  0
VERTEX
  8
T38SSILL
 62
3
 10
4127.695
 20
-5351.644
 30
1435.332
 70
    32
  0
VERTEX
  8
T38SSILL
 62
3
 10
4142.366
 20
-5338.934
 30
1435.507
 70
    32
  0
VERTEX
  8
T38SSILL
 62
3
 10
4134.673
 20
-5325.297
 30
1435.452
 70
    32
  0
VERTEX
  8
T38SSILL
 62
3
 10
4134.667
 20
-5322.566
 30
1435.457
 70
    32
  0
VERTEX
  8
T38SSILL
 62
3
 10
4127.985
 20
-5328.482
 30
1435.377
 70
    32
  0
VERTEX
  8
T38SSILL
 62
3
 10
4125.421
 20
-5324.347
 30
1435.358
 70
    32
  0
VERTEX
  8
T38SSILL
 62
3
 10
4125.846
 20
-5316.859
 30
1435.376
 70
    32
  0
VERTEX
  8
T38SSILL
 62
3
 10
4153.112
 20
-5297.157
 30
1435.693
 70
    32
  0
VERTEX
  8
T38SSILL
 62
3
 10
4161.836
 20
-5298.548
 30
1435.781
 70
    32
  0
VERTEX
  8
T38SSILL
 62
3
 10
4163.242
 20
-5296.695
 30
1435.799
 70
    32
  0
VERTEX
  8
T38SSILL
 62
3
 10
4164.199
 20
-5290.967
 30
1435.819
 70
    32
  0
VERTEX
  8
T38SSILL
 62
3
 10
4166.834
 20
-5287.526
 30
1435.852
 70
    32
  0
VERTEX
  8
T38SSILL
 62
3
 10
4200.962
 20
-5263.493
 30
1436.248
 70
    32
  0
VERTEX
  8
T38SSILL
 62
3
 10
4210.825
 20
-5262.063
 30
1436.353
 70
    32
  0
VERTEX
  8
T38SSILL
 62
3
 10
4213.011
 20
-5254.395
 30
1436.389
 70
    32
  0
VERTEX
  8
T38SSILL
 62
3
 10
4247.790
 20
-5229.110
 30
1436.712
 70
    32
  0
VERTEX
  8
T38SSILL
 62
3
 10
4282.797
 20
-5279.157
 30
1436.588
 70
    32
  0
VERTEX
  8
T38SSILL
 62
3
 10
4288.424
 20
-5275.889
 30
1436.572
 70
    32
  0
VERTEX
  8
T38SSILL
 62
3
 10
4258.436
 20
-5231.804
 30
1436.675
 70
    32
  0
VERTEX
  8
T38SSILL
 62
3
 10
4166.193
 20
-5102.773
 30
1435.360
 70
    32
  0
VERTEX
  8
T38SSILL
 62
3
 10
4169.534
 20
-5099.179
 30
1435.366
 70
    32
  0
VERTEX
  8
T38SSILL
 62
3
 10
4168.053
 20
-5096.888
 30
1435.361
 70
    32
  0
VERTEX
  8
T38SSILL
 62
3
 10
4175.487
 20
-5091.456
 30
1435.385
 70
    32
  0
VERTEX
  8
T38SSILL
 62
3
 10
4170.876
 20
-5083.800
 30
1435.369
 70
    32
  0
VERTEX
  8
T38SSILL
 62
3
 10
4162.479
 20
-5090.422
 30
1435.343
 70
    32
  0
VERTEX
  8
T38SSILL
 62
3
 10
4143.871
 20
-5054.428
 30
1435.278
 70
    32
  0
VERTEX
  8
T38SSILL
 62
3
 10
4135.942
 20
-5054.809
 30
1435.262
 70
    32
  0
VERTEX
  8
T38SSILL
 62
3
 10
4130.801
 20
-5056.738
 30
1435.254
 70
    32
  0
VERTEX
  8
T38SSILL
 62
3
 10
4125.847
 20
-5062.807
 30
1435.250
 70
    32
  0
VERTEX
  8
T38SSILL
 62
3
 10
4123.542
 20
-5073.151
 30
1435.255
 70
    32
  0
VERTEX
  8
T38SSILL
 62
3
 10
4140.911
 20
-5095.303
 30
1435.307
 70
    32
  0
VERTEX
  8
T38SSILL
 62
3
 10
4143.552
 20
-5104.770
 30
1435.320
 70
    32
  0
VERTEX
  8
T38SSILL
 62
3
 10
3966.614
 20
-5230.578
 30
1434.458
 70
    32
  0
VERTEX
  8
T38SSILL
 62
3
 10
3950.603
 20
-5213.030
 30
1434.302
 70
    32
  0
VERTEX
  8
T38SSILL
 62
3
 10
3943.905
 20
-5218.423
 30
1434.302
 70
    32
  0
VERTEX
  8
T38SSILL
 62
3
 10
3950.972
 20
-5225.183
 30
1434.366
 70
    32
  0
VERTEX
  8
T38SSILL
 62
3
 10
3955.563
 20
-5232.567
 30
1434.423
 70
    32
  0
VERTEX
  8
T38SSILL
 62
3
 10
3954.536
 20
-5233.232
 30
1434.422
 70
    32
  0
VERTEX
  8
T38SSILL
 62
3
 10
3957.502
 20
-5237.059
 30
1434.454
 70
    32
  0
VERTEX
  8
T38SSILL
 62
3
 10
3946.424
 20
-5244.934
 30
1434.449
 70
    32
  0
VERTEX
  8
T38SSILL
 62
3
 10
3893.140
 20
-5170.190
 30
1434.314
 70
    32
  0
VERTEX
  8
T38SSILL
 62
3
 10
3900.176
 20
-5166.238
 30
1434.365
 70
    32
  0
VERTEX
  8
T38SSILL
 62
3
 10
3895.585
 20
-5160.694
 30
1434.394
 70
    32
  0
VERTEX
  8
T38SSILL
 62
3
 10
3889.146
 20
-5164.586
 30
1434.345
 70
    32
  0
VERTEX
  8
T38SSILL
 62
3
 10
3833.616
 20
-5086.691
 30
1434.738
 70
    32
  0
VERTEX
  8
T38SSILL
 62
3
 10
3867.159
 20
-5062.580
 30
1434.778
 70
    32
  0
VERTEX
  8
T38SSILL
 62
3
 10
3863.045
 20
-5056.606
 30
1434.765
 70
    32
  0
VERTEX
  8
T38SSILL
 62
3
 10
3832.451
 20
-5077.258
 30
1434.726
 70
    32
  0
VERTEX
  8
T38SSILL
 62
3
 10
3834.552
 20
-5022.379
 30
1434.680
 70
    32
  0
VERTEX
  8
T38SSILL
 62
3
 10
3952.793
 20
-2889.413
 30
1434.415
 70
    32
  0
VERTEX
  8
T38SSILL
 62
3
 10
3956.366
 20
-2880.152
 30
1434.416
 70
    32
  0
VERTEX
  8
T38SSILL
 62
3
 10
3961.197
 20
-2877.227
 30
1434.416
 70
    32
  0
VERTEX
  8
T38SSILL
 62
3
 10
3974.952
 20
-2881.574
 30
1434.419
 70
    32
  0
VERTEX
  8
T38SSILL
 62
3
 10
3974.767
 20
-2879.373
 30
1434.418
 70
    32
  0
VERTEX
  8
T38SSILL
 62
3
 10
3985.334
 20
-2879.506
 30
1434.420
 70
    32
  0
VERTEX
  8
T38SSILL
 62
3
 10
3985.651
 20
-2870.787
 30
1434.420
 70
    32
  0
VERTEX
  8
T38SSILL
 62
3
 10
3960.281
 20
-2868.512
 30
1434.416
 70
    32
  0
VERTEX
  8
T38SSILL
 62
3
 10
3955.869
 20
-2866.329
 30
1434.415
 70
    32
  0
VERTEX
  8
T38SSILL
 62
3
 10
3954.966
 20
-2860.697
 30
1434.415
 70
    32
  0
VERTEX
  8
T38SSILL
 62
3
 10
3962.526
 20
-2727.168
 30
1434.410
 70
    32
  0
VERTEX
  8
T38SSILL
 62
3
 10
3963.404
 20
-2726.460
 30
1434.410
 70
    32
  0
VERTEX
  8
T38SSILL
 62
3
 10
3945.259
 20
-2594.709
 30
1434.524
 70
    32
  0
VERTEX
  8
T38SSILL
 62
3
 10
3947.082
 20
-2588.450
 30
1434.524
 70
    32
  0
VERTEX
  8
T38SSILL
 62
3
 10
3997.558
 20
-2549.323
 30
1434.438
 70
    32
  0
VERTEX
  8
T38SSILL
 62
3
 10
3979.942
 20
-2526.499
 30
1434.490
 70
    32
  0
VERTEX
  8
T38SSILL
 62
3
 10
3960.803
 20
-2540.842
 30
1434.522
 70
    32
  0
VERTEX
  8
T38SSILL
 62
3
 10
3968.505
 20
-2550.938
 30
1434.500
 70
    32
  0
VERTEX
  8
T38SSILL
 62
3
 10
3942.696
 20
-2570.679
 30
1434.543
 70
    32
  0
VERTEX
  8
T38SSILL
 62
3
 10
3941.072
 20
-2561.088
 30
1434.553
 70
    32
  0
VERTEX
  8
T38SSILL
 62
3
 10
3939.750
 20
-2560.917
 30
1434.556
 70
    32
  0
VERTEX
  8
T38SSILL
 62
3
 10
3932.817
 20
-2545.094
 30
1434.580
 70
    32
  0
VERTEX
  8
T38SSILL
 62
3
 10
3913.025
 20
-2419.866
 30
1434.697
 70
    32
  0
VERTEX
  8
T38SSILL
 62
3
 10
3905.369
 20
-2421.130
 30
1434.712
 70
    32
  0
VERTEX
  8
T38SSILL
 62
3
 10
3930.161
 20
-2571.699
 30
1434.570
 70
    32
  0
VERTEX
  8
T38SSILL
 62
3
 10
3926.545
 20
-2572.375
 30
1434.577
 70
    32
  0
VERTEX
  8
T38SSILL
 62
3
 10
3927.547
 20
-2579.164
 30
1434.571
 70
    32
  0
VERTEX
  8
T38SSILL
 62
3
 10
3931.555
 20
-2584.480
 30
1434.559
 70
    32
  0
VERTEX
  8
T38SSILL
 62
3
 10
3954.027
 20
-2736.488
 30
1434.416
 70
    32
  0
VERTEX
  8
T38SSILL
 62
3
 10
3842.361
 20
-4758.009
 30
1434.448
 70
    32
  0
VERTEX
  8
T38SSILL
 62
3
 10
3637.428
 20
-4905.496
 30
1433.765
 70
    32
  0
VERTEX
  8
T38SSILL
 62
3
 10
3641.741
 20
-4910.783
 30
1433.771
 70
    32
  0
VERTEX
  8
T38SSILL
 62
3
 10
3664.721
 20
-4894.337
 30
1433.822
 70
    32
  0
VERTEX
  8
T38SSILL
 62
3
 10
3668.538
 20
-4899.222
 30
1433.844
 70
    32
  0
VERTEX
  8
T38SSILL
 62
3
 10
3674.333
 20
-4895.281
 30
1433.865
 70
    32
  0
VERTEX
  8
T38SSILL
 62
3
 10
3670.221
 20
-4890.401
 30
1433.842
 70
    32
  0
VERTEX
  8
T38SSILL
 62
3
 10
3706.594
 20
-4864.369
 30
1433.972
 70
    32
  0
VERTEX
  8
T38SSILL
 62
3
 10
3696.253
 20
-4904.578
 30
1433.968
 70
    32
  0
VERTEX
  8
T38SSILL
 62
3
 10
3696.652
 20
-4911.539
 30
1433.977
 70
    32
  0
VERTEX
  8
T38SSILL
 62
3
 10
3701.631
 20
-4920.607
 30
1434.007
 70
    32
  0
VERTEX
  8
T38SSILL
 62
3
 10
3697.934
 20
-4923.093
 30
1433.994
 70
    32
  0
VERTEX
  8
T38SSILL
 62
3
 10
3702.219
 20
-4929.334
 30
1434.018
 70
    32
  0
VERTEX
  8
T38SSILL
 62
3
 10
3706.015
 20
-4926.559
 30
1434.032
 70
    32
  0
VERTEX
  8
T38SSILL
 62
3
 10
3723.655
 20
-4950.505
 30
1434.132
 70
    32
  0
VERTEX
  8
T38SSILL
 62
3
 10
3728.506
 20
-4945.226
 30
1434.147
 70
    32
  0
VERTEX
  8
T38SSILL
 62
3
 10
3705.080
 20
-4912.752
 30
1434.014
 70
    32
  0
VERTEX
  8
T38SSILL
 62
3
 10
3702.996
 20
-4906.464
 30
1433.999
 70
    32
  0
VERTEX
  8
T38SSILL
 62
3
 10
3703.321
 20
-4898.460
 30
1433.992
 70
    32
  0
VERTEX
  8
T38SSILL
 62
3
 10
3717.571
 20
-4856.299
 30
1434.011
 70
    32
  0
VERTEX
  8
T38SSILL
 62
3
 10
3842.199
 20
-4766.720
 30
1434.456
 70
    32
  0
VERTEX
  8
T38SSILL
 62
3
 10
3834.757
 20
-4887.786
 30
1434.546
 70
    32
  0
VERTEX
  8
T38SSILL
 62
3
 10
3702.434
 20
-4984.087
 30
1434.074
 70
    32
  0
VERTEX
  8
T38SSILL
 62
3
 10
3706.892
 20
-4990.507
 30
1434.100
 70
    32
  0
VERTEX
  8
T38SSILL
 62
3
 10
3730.899
 20
-4972.702
 30
1434.185
 70
    32
  0
VERTEX
  8
T38SSILL
 62
3
 10
3735.020
 20
-4978.355
 30
1434.208
 70
    32
  0
VERTEX
  8
T38SSILL
 62
3
 10
3740.999
 20
-4973.977
 30
1434.230
 70
    32
  0
VERTEX
  8
T38SSILL
 62
3
 10
3736.417
 20
-4968.610
 30
1434.205
 70
    32
  0
VERTEX
  8
T38SSILL
 62
3
 10
3757.140
 20
-4953.240
 30
1434.278
 70
    32
  0
VERTEX
  8
T38SSILL
 62
3
 10
3753.077
 20
-4987.140
 30
1434.295
 70
    32
  0
VERTEX
  8
T38SSILL
 62
3
 10
3764.375
 20
-5002.376
 30
1434.359
 70
    32
  0
VERTEX
  8
T38SSILL
 62
3
 10
3759.778
 20
-5005.485
 30
1434.342
 70
    32
  0
VERTEX
  8
T38SSILL
 62
3
 10
3764.764
 20
-5011.915
 30
1434.370
 70
    32
  0
VERTEX
  8
T38SSILL
 62
3
 10
3768.961
 20
-5008.563
 30
1434.384
 70
    32
  0
VERTEX
  8
T38SSILL
 62
3
 10
3788.370
 20
-5034.739
 30
1434.494
 70
    32
  0
VERTEX
  8
T38SSILL
 62
3
 10
3795.403
 20
-5030.440
 30
1434.520
 70
    32
  0
VERTEX
  8
T38SSILL
 62
3
 10
3761.334
 20
-4983.333
 30
1434.326
 70
    32
  0
VERTEX
  8
T38SSILL
 62
3
 10
3766.782
 20
-4945.937
 30
1434.312
 70
    32
  0
VERTEX
  8
T38SSILL
 62
3
 10
3834.328
 20
-4896.668
 30
1434.553
 70
    32
  0
VERTEX
  8
T38SSILL
 62
3
 10
3827.851
 20
-5017.928
 30
1434.647
 70
    32
  0
VERTEX
  8
T38SSILL
 62
3
 10
3719.555
 20
-5096.035
 30
1434.260
 70
    32
  0
VERTEX
  8
T38SSILL
 62
3
 10
3716.460
 20
-5091.468
 30
1434.242
 70
    32
  0
VERTEX
  8
T38SSILL
 62
3
 10
3710.574
 20
-5095.584
 30
1434.221
 70
    32
  0
VERTEX
  8
T38SSILL
 62
3
 10
3713.902
 20
-5100.112
 30
1434.240
 70
    32
  0
VERTEX
  8
T38SSILL
 62
3
 10
3676.988
 20
-5126.736
 30
1434.108
 70
    32
  0
VERTEX
  8
T38SSILL
 62
3
 10
3682.161
 20
-5132.553
 30
1434.136
 70
    32
  0
VERTEX
  8
T38SSILL
 62
3
 10
3702.378
 20
-5117.836
 30
1434.208
 70
    32
  0
VERTEX
  8
T38SSILL
 62
3
 10
3706.189
 20
-5123.141
 30
1434.230
 70
    32
  0
VERTEX
  8
T38SSILL
 62
3
 10
3711.752
 20
-5119.494
 30
1434.250
 70
    32
  0
VERTEX
  8
T38SSILL
 62
3
 10
3707.781
 20
-5113.902
 30
1434.228
 70
    32
  0
VERTEX
  8
T38SSILL
 62
3
 10
3730.991
 20
-5097.005
 30
1434.310
 70
    32
  0
VERTEX
  8
T38SSILL
 62
3
 10
3735.178
 20
-5102.555
 30
1434.334
 70
    32
  0
VERTEX
  8
T38SSILL
 62
3
 10
3741.330
 20
-5098.356
 30
1434.356
 70
    32
  0
VERTEX
  8
T38SSILL
 62
3
 10
3737.283
 20
-5092.425
 30
1434.333
 70
    32
  0
VERTEX
  8
T38SSILL
 62
3
 10
3793.888
 20
-5051.218
 30
1434.534
 70
    32
  0
VERTEX
  8
T38SSILL
 62
3
 10
3797.038
 20
-5056.172
 30
1434.553
 70
    32
  0
VERTEX
  8
T38SSILL
 62
3
 10
3802.668
 20
-5051.612
 30
1434.572
 70
    32
  0
VERTEX
  8
T38SSILL
 62
3
 10
3799.758
 20
-5046.944
 30
1434.555
 70
    32
  0
VERTEX
  8
T38SSILL
 62
3
 10
3826.708
 20
-5027.325
 30
1434.651
 70
    32
  0
VERTEX
  8
T38SSILL
 62
3
 10
3824.250
 20
-5083.876
 30
1434.697
 70
    32
  0
VERTEX
  8
T38SSILL
 62
3
 10
3820.906
 20
-5080.100
 30
1434.679
 70
    32
  0
VERTEX
  8
T38SSILL
 62
3
 10
3813.958
 20
-5085.400
 30
1434.655
 70
    32
  0
VERTEX
  8
T38SSILL
 62
3
 10
3816.714
 20
-5089.277
 30
1434.670
 70
    32
  0
VERTEX
  8
T38SSILL
 62
3
 10
3734.161
 20
-5148.444
 30
1434.194
 70
    32
  0
VERTEX
  8
T38SSILL
 62
3
 10
3729.603
 20
-5142.060
 30
1434.224
 70
    32
  0
VERTEX
  8
T38SSILL
 62
3
 10
3723.635
 20
-5145.910
 30
1434.189
 70
    32
  0
VERTEX
  8
T38SSILL
 62
3
 10
3728.527
 20
-5152.483
 30
1434.159
 70
    32
  0
VERTEX
  8
T38SSILL
 62
3
 10
3665.995
 20
-5197.300
 30
1433.760
 70
    32
  0
VERTEX
  8
T38SSILL
 62
3
 10
3637.639
 20
-5198.006
 30
1433.699
 70
    32
  0
VERTEX
  8
T38SSILL
 62
3
 10
3637.418
 20
-5167.282
 30
1433.886
 70
    32
  0
VERTEX
  8
T38SSILL
 62
3
 10
3629.134
 20
-5167.833
 30
1433.866
 70
    32
  0
VERTEX
  8
T38SSILL
 62
3
 10
3628.925
 20
-5198.020
 30
1433.682
 70
    32
  0
VERTEX
  8
T38SSILL
 62
3
 10
3501.755
 20
-5201.731
 30
1433.415
 70
    32
  0
VERTEX
  8
T38SSILL
 62
3
 10
3495.813
 20
-5189.914
 30
1433.411
 70
    32
  0
VERTEX
  8
T38SSILL
 62
3
 10
3485.764
 20
-5190.696
 30
1433.393
 70
    32
  0
VERTEX
  8
T38SSILL
 62
3
 10
3481.121
 20
-5194.219
 30
1433.383
 70
    32
  0
VERTEX
  8
T38SSILL
 62
3
 10
3355.658
 20
-5196.722
 30
1433.165
 70
    32
  0
VERTEX
  8
T38SSILL
 62
3
 10
3175.456
 20
-5132.749
 30
1433.142
 70
    32
  0
VERTEX
  8
T38SSILL
 62
3
 10
3180.277
 20
-5118.631
 30
1433.163
 70
    32
  0
VERTEX
  8
T38SSILL
 62
3
 10
3173.354
 20
-5116.394
 30
1433.162
 70
    32
  0
VERTEX
  8
T38SSILL
 62
3
 10
3168.698
 20
-5129.979
 30
1433.142
 70
    32
  0
VERTEX
  8
T38SSILL
 62
3
 10
3152.351
 20
-5123.882
 30
1433.140
 70
    32
  0
VERTEX
  8
T38SSILL
 62
3
 10
3159.720
 20
-5105.128
 30
1433.168
 70
    32
  0
VERTEX
  8
T38SSILL
 62
3
 10
3150.220
 20
-5101.886
 30
1433.167
 70
    32
  0
VERTEX
  8
T38SSILL
 62
3
 10
3146.650
 20
-5112.540
 30
1433.151
 70
    32
  0
VERTEX
  8
T38SSILL
 62
3
 10
3149.326
 20
-5114.071
 30
1433.151
 70
    32
  0
VERTEX
  8
T38SSILL
 62
3
 10
3145.870
 20
-5121.724
 30
1433.139
 70
    32
  0
VERTEX
  8
T38SSILL
 62
3
 10
3122.860
 20
-5113.209
 30
1433.137
 70
    32
  0
VERTEX
  8
T38SSILL
 62
3
 10
3125.016
 20
-5106.640
 30
1433.146
 70
    32
  0
VERTEX
  8
T38SSILL
 62
3
 10
3116.935
 20
-5103.810
 30
1433.145
 70
    32
  0
VERTEX
  8
T38SSILL
 62
3
 10
3113.898
 20
-5110.397
 30
1433.135
 70
    32
  0
VERTEX
  8
T38SSILL
 62
3
 10
2463.098
 20
-4878.877
 30
1432.989
 70
    32
  0
VERTEX
  8
T38SSILL
 62
3
 10
2182.442
 20
-4774.992
 30
1432.295
 70
    32
  0
VERTEX
  8
T38SSILL
 62
3
 10
2184.235
 20
-4620.104
 30
1432.028
 70
    32
  0
VERTEX
  8
T38SSILL
 62
3
 10
2199.530
 20
-4620.053
 30
1432.051
 70
    32
  0
VERTEX
  8
T38SSILL
 62
3
 10
2199.348
 20
-4613.485
 30
1432.048
 70
    32
  0
VERTEX
  8
T38SSILL
 62
3
 10
2184.312
 20
-4613.450
 30
1432.064
 70
    32
  0
VERTEX
  8
T38SSILL
 62
3
 10
2184.908
 20
-4561.966
 30
1432.634
 70
    32
  0
VERTEX
  8
T38SSILL
 62
3
 10
2198.732
 20
-4554.099
 30
1432.535
 70
    32
  0
VERTEX
  8
T38SSILL
 62
3
 10
2195.277
 20
-4547.721
 30
1432.654
 70
    32
  0
VERTEX
  8
T38SSILL
 62
3
 10
2184.992
 20
-4554.128
 30
1432.721
 70
    32
  0
VERTEX
  8
T38SSILL
 62
3
 10
2185.140
 20
-4540.302
 30
1432.874
 70
    32
  0
VERTEX
  8
T38SSILL
 62
3
 10
2202.666
 20
-4540.402
 30
1432.636
 70
    32
  0
VERTEX
  8
T38SSILL
 62
3
 10
2225.584
 20
-4538.711
 30
1432.346
 70
    32
  0
VERTEX
  8
T38SSILL
 62
3
 10
2255.342
 20
-4539.735
 30
1432.127
 70
    32
  0
VERTEX
  8
T38SSILL
 62
3
 10
2253.252
 20
-4537.511
 30
1432.129
 70
    32
  0
VERTEX
  8
T38SSILL
 62
3
 10
2252.440
 20
-4531.073
 30
1432.136
 70
    32
  0
VERTEX
  8
T38SSILL
 62
3
 10
2250.778
 20
-4530.086
 30
1432.137
 70
    32
  0
VERTEX
  8
T38SSILL
 62
3
 10
2213.963
 20
-4530.043
 30
1432.600
 70
    32
  0
VERTEX
  8
T38SSILL
 62
3
 10
2207.794
 20
-4530.417
 30
1432.679
 70
    32
  0
VERTEX
  8
T38SSILL
 62
3
 10
2201.681
 20
-4533.698
 30
1432.724
 70
    32
  0
VERTEX
  8
T38SSILL
 62
3
 10
2185.213
 20
-4533.521
 30
1432.949
 70
    32
  0
VERTEX
  8
T38SSILL
 62
3
 10
2185.383
 20
-4525.948
 30
1433.031
 70
    32
  0
VERTEX
  8
T38SSILL
 62
3
 10
2221.461
 20
-4496.126
 30
1432.879
 70
    32
  0
VERTEX
  8
T38SSILL
 62
3
 10
2216.865
 20
-4489.471
 30
1433.016
 70
    32
  0
VERTEX
  8
T38SSILL
 62
3
 10
2200.064
 20
-4503.911
 30
1433.080
 70
    32
  0
VERTEX
  8
T38SSILL
 62
3
 10
2199.026
 20
-4502.139
 30
1433.114
 70
    32
  0
VERTEX
  8
T38SSILL
 62
3
 10
2184.712
 20
-4506.388
 30
1433.260
 70
    32
  0
VERTEX
  8
T38SSILL
 62
3
 10
2185.341
 20
-4488.868
 30
1433.448
 70
    32
  0
VERTEX
  8
T38SSILL
 62
3
 10
2183.345
 20
-4486.029
 30
1433.507
 70
    32
  0
VERTEX
  8
T38SSILL
 62
3
 10
2183.558
 20
-4466.214
 30
1433.726
 70
    32
  0
VERTEX
  8
T38SSILL
 62
3
 10
2175.983
 20
-4466.309
 30
1433.827
 70
    32
  0
VERTEX
  8
T38SSILL
 62
3
 10
2176.570
 20
-4485.427
 30
1433.605
 70
    32
  0
VERTEX
  8
T38SSILL
 62
3
 10
2175.210
 20
-4489.024
 30
1433.583
 70
    32
  0
VERTEX
  8
T38SSILL
 62
3
 10
2174.989
 20
-4558.777
 30
1432.803
 70
    32
  0
VERTEX
  8
T38SSILL
 62
3
 10
2120.951
 20
-4579.686
 30
1433.298
 70
    32
  0
VERTEX
  8
T38SSILL
 62
3
 10
2120.536
 20
-4601.876
 30
1433.055
 70
    32
  0
VERTEX
  8
T38SSILL
 62
3
 10
2106.833
 20
-4606.749
 30
1433.185
 70
    32
  0
VERTEX
  8
T38SSILL
 62
3
 10
2106.940
 20
-4613.180
 30
1433.111
 70
    32
  0
VERTEX
  8
T38SSILL
 62
3
 10
2120.327
 20
-4613.148
 30
1432.931
 70
    32
  0
VERTEX
  8
T38SSILL
 62
3
 10
2126.283
 20
-4616.294
 30
1432.816
 70
    32
  0
VERTEX
  8
T38SSILL
 62
3
 10
2126.260
 20
-4626.599
 30
1432.700
 70
    32
  0
VERTEX
  8
T38SSILL
 62
3
 10
2174.353
 20
-4626.235
 30
1432.097
 70
    32
  0
VERTEX
  8
T38SSILL
 62
3
 10
2173.876
 20
-4678.810
 30
1432.171
 70
    32
  0
VERTEX
  8
T38SSILL
 62
3
 10
2151.240
 20
-4678.831
 30
1432.516
 70
    32
  0
VERTEX
  8
T38SSILL
 62
3
 10
2121.216
 20
-4784.551
 30
1432.633
 70
    32
  0
VERTEX
  8
T38SSILL
 62
3
 10
2086.777
 20
-4809.282
 30
1433.703
 70
    32
  0
VERTEX
  8
T38SSILL
 62
3
 10
2068.962
 20
-4811.557
 30
1434.046
 70
    32
  0
VERTEX
  8
T38SSILL
 62
3
 10
2058.761
 20
-4806.796
 30
1434.230
 70
    32
  0
SEQEND
  8
T38SSILL
  0
POLYLINE
  8
T38SSILL
 62
3
 66
     1
 70
     8
  0
VERTEX
  8
T38SSILL
 62
3
 10
1798.153
 20
-4867.071
 30
1439.313
 70
    32
  0
VERTEX
  8
T38SSILL
 62
3
 10
1871.299
 20
-4813.660
 30
1437.801
 70
    32
  0
VERTEX
  8
T38SSILL
 62
3
 10
1865.211
 20
-4798.270
 30
1437.881
 70
    32
  0
VERTEX
  8
T38SSILL
 62
3
 10
1869.746
 20
-4794.432
 30
1437.786
 70
    32
  0
VERTEX
  8
T38SSILL
 62
3
 10
1872.121
 20
-4794.557
 30
1437.741
 70
    32
  0
VERTEX
  8
T38SSILL
 62
3
 10
1876.718
 20
-4801.212
 30
1437.669
 70
    32
  0
VERTEX
  8
T38SSILL
 62
3
 10
1883.363
 20
-4805.687
 30
1437.554
 70
    32
  0
VERTEX
  8
T38SSILL
 62
3
 10
1898.277
 20
-4794.750
 30
1437.245
 70
    32
  0
VERTEX
  8
T38SSILL
 62
3
 10
1913.248
 20
-4786.720
 30
1436.958
 70
    32
  0
VERTEX
  8
T38SSILL
 62
3
 10
1958.698
 20
-4780.072
 30
1436.106
 70
    32
  0
VERTEX
  8
T38SSILL
 62
3
 10
1961.872
 20
-4780.920
 30
1436.046
 70
    32
  0
VERTEX
  8
T38SSILL
 62
3
 10
1961.872
 20
-4780.920
 30
1436.044
 70
    32
  0
VERTEX
  8
T38SSILL
 62
3
 10
2010.680
 20
-4791.301
 30
1434.000
 70
    32
  0
VERTEX
  8
T38SSILL
 62
3
 10
2012.517
 20
-4791.749
 30
1434.000
 70
    32
  0
VERTEX
  8
T38SSILL
 62
3
 10
2015.092
 20
-4790.521
 30
1434.000
 70
    32
  0
VERTEX
  8
T38SSILL
 62
3
 10
2021.635
 20
-4784.563
 30
1434.000
 70
    32
  0
VERTEX
  8
T38SSILL
 62
3
 10
2026.775
 20
-4787.527
 30
1434.000
 70
    32
  0
VERTEX
  8
T38SSILL
 62
3
 10
2038.411
 20
-4795.022
 30
1434.000
 70
    32
  0
VERTEX
  8
T38SSILL
 62
3
 10
2048.283
 20
-4792.376
 30
1434.000
 70
    32
  0
VERTEX
  8
T38SSILL
 62
3
 10
2048.427
 20
-4803.846
 30
1434.000
 70
    32
  0
VERTEX
  8
T38SSILL
 62
3
 10
2052.160
 20
-4804.070
 30
1434.000
 70
    32
  0
VERTEX
  8
T38SSILL
 62
3
 10
2058.761
 20
-4806.796
 30
1434.208
 70
    32
  0
SEQEND
  8
T38SSILL
  0
ENDSEC
  0
EOF
