999
********************************
999
*   DXF File - Entities Only   *
999
*        3D Data Format        *
999
*     Output from ENVISAGE     *
999
*     20-Dec-2007 15:28:17     *
999
********************************
  0
SECTION 
  2
HEADER
  9
$ACADVER
  1
AC1009
  9
$EXTMIN
 10
-290000.000
 20
-250000.000
 30
-4000.000
  9
$EXTMAX
 10
5000000.000
 20
600000.000
 30
6000.000
  0
ENDSEC
  0
SECTION
  2
ENTITIES
  0
POLYLINE
  8
T39SSILL
 62
6
 66
     1
 70
     9
  0
VERTEX
  8
T39SSILL
 62
6
 10
3759.176
 20
-5634.897
 30
1284.386
 70
    32
  0
VERTEX
  8
T39SSILL
 62
6
 10
3805.781
 20
-5647.434
 30
1284.430
 70
    32
  0
VERTEX
  8
T39SSILL
 62
6
 10
3804.606
 20
-5635.692
 30
1284.425
 70
    32
  0
VERTEX
  8
T39SSILL
 62
6
 10
3778.825
 20
-5601.655
 30
1284.394
 70
    32
  0
VERTEX
  8
T39SSILL
 62
6
 10
3728.109
 20
-5638.910
 30
1284.361
 70
    32
  0
VERTEX
  8
T39SSILL
 62
6
 10
3747.409
 20
-5642.441
 30
1284.378
 70
    32
  0
SEQEND
  8
T39SSILL
  0
POLYLINE
  8
T39SSILL
 62
6
 66
     1
 70
     9
  0
VERTEX
  8
T39SSILL
 62
6
 10
3155.738
 20
-6142.327
 30
1283.689
 70
    32
  0
VERTEX
  8
T39SSILL
 62
6
 10
3200.000
 20
-6011.000
 30
1283.821
 70
    32
  0
VERTEX
  8
T39SSILL
 62
6
 10
3127.415
 20
-6062.067
 30
1283.708
 70
    32
  0
VERTEX
  8
T39SSILL
 62
6
 10
3122.878
 20
-6068.173
 30
1283.699
 70
    32
  0
VERTEX
  8
T39SSILL
 62
6
 10
3119.510
 20
-6075.381
 30
1283.691
 70
    32
  0
VERTEX
  8
T39SSILL
 62
6
 10
3117.825
 20
-6084.075
 30
1283.684
 70
    32
  0
VERTEX
  8
T39SSILL
 62
6
 10
3119.190
 20
-6090.670
 30
1283.681
 70
    32
  0
SEQEND
  8
T39SSILL
  0
POLYLINE
  8
T39SSILL
 62
6
 66
     1
 70
     9
  0
VERTEX
  8
T39SSILL
 62
6
 10
2620.886
 20
-6245.807
 30
1285.004
 70
    32
  0
VERTEX
  8
T39SSILL
 62
6
 10
2588.976
 20
-6213.492
 30
1285.152
 70
    32
  0
VERTEX
  8
T39SSILL
 62
6
 10
2619.216
 20
-6203.568
 30
1284.988
 70
    32
  0
SEQEND
  8
T39SSILL
  0
POLYLINE
  8
T39SSILL
 62
6
 66
     1
 70
     9
  0
VERTEX
  8
T39SSILL
 62
6
 10
2387.395
 20
-6020.655
 30
1284.979
 70
    32
  0
VERTEX
  8
T39SSILL
 62
6
 10
2369.966
 20
-6002.847
 30
1284.955
 70
    32
  0
VERTEX
  8
T39SSILL
 62
6
 10
2354.874
 20
-5996.626
 30
1284.997
 70
    32
  0
VERTEX
  8
T39SSILL
 62
6
 10
2343.509
 20
-6001.959
 30
1285.075
 70
    32
  0
VERTEX
  8
T39SSILL
 62
6
 10
2347.441
 20
-6009.007
 30
1285.094
 70
    32
  0
VERTEX
  8
T39SSILL
 62
6
 10
2368.600
 20
-6015.176
 30
1285.010
 70
    32
  0
SEQEND
  8
T39SSILL
  0
POLYLINE
  8
T39SSILL
 62
6
 66
     1
 70
     9
  0
VERTEX
  8
T39SSILL
 62
6
 10
2342.915
 20
-6389.235
 30
1286.375
 70
    32
  0
VERTEX
  8
T39SSILL
 62
6
 10
2290.263
 20
-6427.019
 30
1286.541
 70
    32
  0
VERTEX
  8
T39SSILL
 62
6
 10
2289.437
 20
-6433.065
 30
1286.543
 70
    32
  0
VERTEX
  8
T39SSILL
 62
6
 10
2295.587
 20
-6447.648
 30
1286.522
 70
    32
  0
VERTEX
  8
T39SSILL
 62
6
 10
2290.798
 20
-6452.440
 30
1286.537
 70
    32
  0
VERTEX
  8
T39SSILL
 62
6
 10
2295.095
 20
-6463.579
 30
1286.521
 70
    32
  0
VERTEX
  8
T39SSILL
 62
6
 10
2289.822
 20
-6469.052
 30
1286.538
 70
    32
  0
VERTEX
  8
T39SSILL
 62
6
 10
2290.162
 20
-6493.308
 30
1286.534
 70
    32
  0
VERTEX
  8
T39SSILL
 62
6
 10
2338.627
 20
-6560.185
 30
1286.373
 70
    32
  0
VERTEX
  8
T39SSILL
 62
6
 10
2338.806
 20
-6553.060
 30
1286.370
 70
    32
  0
SEQEND
  8
T39SSILL
  0
POLYLINE
  8
T39SSILL
 62
6
 66
     1
 70
     9
  0
VERTEX
  8
T39SSILL
 62
6
 10
2173.787
 20
-4548.070
 30
1284.609
 70
    32
  0
VERTEX
  8
T39SSILL
 62
6
 10
2173.811
 20
-4608.152
 30
1284.074
 70
    32
  0
VERTEX
  8
T39SSILL
 62
6
 10
2169.444
 20
-4613.914
 30
1284.072
 70
    32
  0
VERTEX
  8
T39SSILL
 62
6
 10
2161.574
 20
-4618.059
 30
1284.124
 70
    32
  0
VERTEX
  8
T39SSILL
 62
6
 10
2147.049
 20
-4619.148
 30
1284.277
 70
    32
  0
VERTEX
  8
T39SSILL
 62
6
 10
2146.988
 20
-4607.535
 30
1284.381
 70
    32
  0
VERTEX
  8
T39SSILL
 62
6
 10
2126.039
 20
-4608.824
 30
1284.606
 70
    32
  0
VERTEX
  8
T39SSILL
 62
6
 10
2125.152
 20
-4573.893
 30
1284.927
 70
    32
  0
SEQEND
  8
T39SSILL
  0
POLYLINE
  8
T39SSILL
 62
6
 66
     1
 70
     9
  0
VERTEX
  8
T39SSILL
 62
6
 10
3897.633
 20
-5351.494
 30
1283.999
 70
    32
  0
VERTEX
  8
T39SSILL
 62
6
 10
3909.962
 20
-5347.220
 30
1284.017
 70
    32
  0
VERTEX
  8
T39SSILL
 62
6
 10
3917.062
 20
-5341.319
 30
1284.024
 70
    32
  0
VERTEX
  8
T39SSILL
 62
6
 10
3919.009
 20
-5341.653
 30
1284.028
 70
    32
  0
VERTEX
  8
T39SSILL
 62
6
 10
3931.806
 20
-5358.052
 30
1284.067
 70
    32
  0
VERTEX
  8
T39SSILL
 62
6
 10
3938.240
 20
-5356.398
 30
1284.077
 70
    32
  0
VERTEX
  8
T39SSILL
 62
6
 10
3936.418
 20
-5359.862
 30
1284.078
 70
    32
  0
VERTEX
  8
T39SSILL
 62
6
 10
3939.511
 20
-5368.845
 30
1284.092
 70
    32
  0
VERTEX
  8
T39SSILL
 62
6
 10
3939.806
 20
-5380.947
 30
1284.105
 70
    32
  0
VERTEX
  8
T39SSILL
 62
6
 10
3932.275
 20
-5387.914
 30
1284.098
 70
    32
  0
VERTEX
  8
T39SSILL
 62
6
 10
3928.196
 20
-5386.451
 30
1284.089
 70
    32
  0
VERTEX
  8
T39SSILL
 62
6
 10
3915.749
 20
-5387.634
 30
1284.068
 70
    32
  0
VERTEX
  8
T39SSILL
 62
6
 10
3911.839
 20
-5385.375
 30
1284.059
 70
    32
  0
VERTEX
  8
T39SSILL
 62
6
 10
3888.897
 20
-5351.207
 30
1283.983
 70
    32
  0
SEQEND
  8
T39SSILL
  0
POLYLINE
  8
T39SSILL
 62
6
 66
     1
 70
     9
  0
VERTEX
  8
T39SSILL
 62
6
 10
4001.911
 20
-5397.569
 30
1284.235
 70
    32
  0
VERTEX
  8
T39SSILL
 62
6
 10
3999.031
 20
-5383.194
 30
1284.215
 70
    32
  0
VERTEX
  8
T39SSILL
 62
6
 10
3993.791
 20
-5380.506
 30
1284.203
 70
    32
  0
VERTEX
  8
T39SSILL
 62
6
 10
3991.688
 20
-5382.294
 30
1284.201
 70
    32
  0
VERTEX
  8
T39SSILL
 62
6
 10
3983.193
 20
-5372.039
 30
1284.175
 70
    32
  0
VERTEX
  8
T39SSILL
 62
6
 10
3967.774
 20
-5376.608
 30
1284.151
 70
    32
  0
VERTEX
  8
T39SSILL
 62
6
 10
3954.908
 20
-5389.105
 30
1284.141
 70
    32
  0
VERTEX
  8
T39SSILL
 62
6
 10
3949.087
 20
-5390.223
 30
1284.131
 70
    32
  0
VERTEX
  8
T39SSILL
 62
6
 10
3938.210
 20
-5398.370
 30
1284.120
 70
    32
  0
VERTEX
  8
T39SSILL
 62
6
 10
3941.526
 20
-5403.198
 30
1284.131
 70
    32
  0
VERTEX
  8
T39SSILL
 62
6
 10
3941.743
 20
-5407.260
 30
1284.135
 70
    32
  0
VERTEX
  8
T39SSILL
 62
6
 10
3944.295
 20
-5406.175
 30
1284.139
 70
    32
  0
VERTEX
  8
T39SSILL
 62
6
 10
3946.991
 20
-5410.832
 30
1284.148
 70
    32
  0
VERTEX
  8
T39SSILL
 62
6
 10
3949.727
 20
-5419.465
 30
1284.162
 70
    32
  0
VERTEX
  8
T39SSILL
 62
6
 10
3947.387
 20
-5424.082
 30
1284.162
 70
    32
  0
VERTEX
  8
T39SSILL
 62
6
 10
3953.816
 20
-5430.912
 30
1284.181
 70
    32
  0
VERTEX
  8
T39SSILL
 62
6
 10
3961.292
 20
-5427.392
 30
1284.191
 70
    32
  0
SEQEND
  8
T39SSILL
  0
POLYLINE
  8
T39SSILL
 62
6
 66
     1
 70
     9
  0
VERTEX
  8
T39SSILL
 62
6
 10
4173.175
 20
-5660.535
 30
1284.756
 70
    32
  0
VERTEX
  8
T39SSILL
 62
6
 10
4181.232
 20
-5671.236
 30
1284.759
 70
    32
  0
VERTEX
  8
T39SSILL
 62
6
 10
4188.523
 20
-5675.848
 30
1284.762
 70
    32
  0
VERTEX
  8
T39SSILL
 62
6
 10
4188.774
 20
-5683.357
 30
1284.760
 70
    32
  0
VERTEX
  8
T39SSILL
 62
6
 10
4190.898
 20
-5692.702
 30
1284.760
 70
    32
  0
VERTEX
  8
T39SSILL
 62
6
 10
4202.764
 20
-5713.351
 30
1284.765
 70
    32
  0
VERTEX
  8
T39SSILL
 62
6
 10
4222.328
 20
-5725.972
 30
1284.840
 70
    32
  0
VERTEX
  8
T39SSILL
 62
6
 10
4227.975
 20
-5725.121
 30
1284.856
 70
    32
  0
VERTEX
  8
T39SSILL
 62
6
 10
4234.986
 20
-5719.220
 30
1284.870
 70
    32
  0
VERTEX
  8
T39SSILL
 62
6
 10
4237.415
 20
-5714.690
 30
1284.872
 70
    32
  0
VERTEX
  8
T39SSILL
 62
6
 10
4239.439
 20
-5713.787
 30
1284.877
 70
    32
  0
VERTEX
  8
T39SSILL
 62
6
 10
4246.054
 20
-5721.586
 30
1284.907
 70
    32
  0
VERTEX
  8
T39SSILL
 62
6
 10
4247.053
 20
-5724.315
 30
1284.913
 70
    32
  0
VERTEX
  8
T39SSILL
 62
6
 10
4204.660
 20
-5753.537
 30
1284.818
 70
    32
  0
VERTEX
  8
T39SSILL
 62
6
 10
4191.782
 20
-5755.784
 30
1284.782
 70
    32
  0
VERTEX
  8
T39SSILL
 62
6
 10
4183.549
 20
-5754.275
 30
1284.755
 70
    32
  0
VERTEX
  8
T39SSILL
 62
6
 10
4175.021
 20
-5749.675
 30
1284.741
 70
    32
  0
VERTEX
  8
T39SSILL
 62
6
 10
4131.843
 20
-5689.747
 30
1284.729
 70
    32
  0
SEQEND
  8
T39SSILL
  0
POLYLINE
  8
T39SSILL
 62
6
 66
     1
 70
     9
  0
VERTEX
  8
T39SSILL
 62
6
 10
4196.433
 20
-5635.389
 30
1284.773
 70
    32
  0
VERTEX
  8
T39SSILL
 62
6
 10
4186.593
 20
-5623.203
 30
1284.770
 70
    32
  0
VERTEX
  8
T39SSILL
 62
6
 10
4180.986
 20
-5619.105
 30
1284.768
 70
    32
  0
VERTEX
  8
T39SSILL
 62
6
 10
4176.943
 20
-5621.265
 30
1284.766
 70
    32
  0
VERTEX
  8
T39SSILL
 62
6
 10
4170.344
 20
-5606.132
 30
1284.765
 70
    32
  0
VERTEX
  8
T39SSILL
 62
6
 10
4163.702
 20
-5595.593
 30
1284.763
 70
    32
  0
VERTEX
  8
T39SSILL
 62
6
 10
4157.976
 20
-5570.378
 30
1284.765
 70
    32
  0
VERTEX
  8
T39SSILL
 62
6
 10
4155.837
 20
-5568.543
 30
1284.764
 70
    32
  0
VERTEX
  8
T39SSILL
 62
6
 10
4145.834
 20
-5566.697
 30
1284.759
 70
    32
  0
VERTEX
  8
T39SSILL
 62
6
 10
4141.280
 20
-5561.882
 30
1284.758
 70
    32
  0
VERTEX
  8
T39SSILL
 62
6
 10
4139.744
 20
-5558.451
 30
1284.758
 70
    32
  0
VERTEX
  8
T39SSILL
 62
6
 10
4181.082
 20
-5529.769
 30
1284.785
 70
    32
  0
VERTEX
  8
T39SSILL
 62
6
 10
4188.986
 20
-5533.845
 30
1284.788
 70
    32
  0
VERTEX
  8
T39SSILL
 62
6
 10
4204.594
 20
-5548.537
 30
1284.794
 70
    32
  0
VERTEX
  8
T39SSILL
 62
6
 10
4211.029
 20
-5546.971
 30
1284.798
 70
    32
  0
VERTEX
  8
T39SSILL
 62
6
 10
4214.314
 20
-5548.530
 30
1284.799
 70
    32
  0
VERTEX
  8
T39SSILL
 62
6
 10
4222.153
 20
-5554.992
 30
1284.802
 70
    32
  0
VERTEX
  8
T39SSILL
 62
6
 10
4221.743
 20
-5558.265
 30
1284.801
 70
    32
  0
VERTEX
  8
T39SSILL
 62
6
 10
4227.555
 20
-5565.189
 30
1284.803
 70
    32
  0
VERTEX
  8
T39SSILL
 62
6
 10
4235.803
 20
-5568.289
 30
1284.807
 70
    32
  0
VERTEX
  8
T39SSILL
 62
6
 10
4246.297
 20
-5584.180
 30
1284.809
 70
    32
  0
VERTEX
  8
T39SSILL
 62
6
 10
4253.490
 20
-5587.820
 30
1284.812
 70
    32
  0
VERTEX
  8
T39SSILL
 62
6
 10
4258.307
 20
-5592.456
 30
1284.814
 70
    32
  0
SEQEND
  8
T39SSILL
  0
POLYLINE
  8
T39SSILL
 62
6
 66
     1
 70
     9
  0
VERTEX
  8
T39SSILL
 62
6
 10
4270.565
 20
-5707.031
 30
1284.964
 70
    32
  0
VERTEX
  8
T39SSILL
 62
6
 10
4264.328
 20
-5701.790
 30
1284.939
 70
    32
  0
VERTEX
  8
T39SSILL
 62
6
 10
4259.360
 20
-5699.807
 30
1284.922
 70
    32
  0
VERTEX
  8
T39SSILL
 62
6
 10
4253.249
 20
-5698.364
 30
1284.901
 70
    32
  0
VERTEX
  8
T39SSILL
 62
6
 10
4246.005
 20
-5698.524
 30
1284.879
 70
    32
  0
VERTEX
  8
T39SSILL
 62
6
 10
4228.328
 20
-5689.066
 30
1284.814
 70
    32
  0
VERTEX
  8
T39SSILL
 62
6
 10
4225.201
 20
-5685.562
 30
1284.800
 70
    32
  0
VERTEX
  8
T39SSILL
 62
6
 10
4218.092
 20
-5681.478
 30
1284.776
 70
    32
  0
VERTEX
  8
T39SSILL
 62
6
 10
4211.130
 20
-5674.389
 30
1284.774
 70
    32
  0
VERTEX
  8
T39SSILL
 62
6
 10
4204.036
 20
-5671.896
 30
1284.771
 70
    32
  0
VERTEX
  8
T39SSILL
 62
6
 10
4197.192
 20
-5667.811
 30
1284.768
 70
    32
  0
VERTEX
  8
T39SSILL
 62
6
 10
4198.193
 20
-5643.678
 30
1284.773
 70
    32
  0
VERTEX
  8
T39SSILL
 62
6
 10
4262.773
 20
-5597.361
 30
1284.816
 70
    32
  0
VERTEX
  8
T39SSILL
 62
6
 10
4269.357
 20
-5601.891
 30
1284.836
 70
    32
  0
VERTEX
  8
T39SSILL
 62
6
 10
4274.762
 20
-5603.429
 30
1284.854
 70
    32
  0
VERTEX
  8
T39SSILL
 62
6
 10
4291.820
 20
-5621.817
 30
1284.928
 70
    32
  0
VERTEX
  8
T39SSILL
 62
6
 10
4307.934
 20
-5625.106
 30
1284.981
 70
    32
  0
VERTEX
  8
T39SSILL
 62
6
 10
4311.013
 20
-5623.750
 30
1284.989
 70
    32
  0
VERTEX
  8
T39SSILL
 62
6
 10
4332.847
 20
-5624.596
 30
1285.057
 70
    32
  0
VERTEX
  8
T39SSILL
 62
6
 10
4333.617
 20
-5622.026
 30
1285.056
 70
    32
  0
VERTEX
  8
T39SSILL
 62
6
 10
4341.626
 20
-5627.779
 30
1285.087
 70
    32
  0
VERTEX
  8
T39SSILL
 62
6
 10
4352.282
 20
-5633.065
 30
1285.126
 70
    32
  0
VERTEX
  8
T39SSILL
 62
6
 10
4353.959
 20
-5632.872
 30
1285.131
 70
    32
  0
VERTEX
  8
T39SSILL
 62
6
 10
4361.307
 20
-5643.315
 30
1285.166
 70
    32
  0
SEQEND
  8
T39SSILL
  0
POLYLINE
  8
T39SSILL
 62
6
 66
     1
 70
     9
  0
VERTEX
  8
T39SSILL
 62
6
 10
4169.668
 20
-5654.384
 30
1284.756
 70
    32
  0
VERTEX
  8
T39SSILL
 62
6
 10
4127.457
 20
-5684.604
 30
1284.728
 70
    32
  0
VERTEX
  8
T39SSILL
 62
6
 10
4082.843
 20
-5622.295
 30
1284.716
 70
    32
  0
VERTEX
  8
T39SSILL
 62
6
 10
4080.919
 20
-5615.244
 30
1284.716
 70
    32
  0
VERTEX
  8
T39SSILL
 62
6
 10
4083.908
 20
-5613.712
 30
1284.718
 70
    32
  0
VERTEX
  8
T39SSILL
 62
6
 10
4084.104
 20
-5606.553
 30
1284.719
 70
    32
  0
VERTEX
  8
T39SSILL
 62
6
 10
4080.252
 20
-5601.199
 30
1284.718
 70
    32
  0
VERTEX
  8
T39SSILL
 62
6
 10
4121.066
 20
-5572.524
 30
1284.745
 70
    32
  0
VERTEX
  8
T39SSILL
 62
6
 10
4122.225
 20
-5582.675
 30
1284.744
 70
    32
  0
VERTEX
  8
T39SSILL
 62
6
 10
4139.787
 20
-5607.514
 30
1284.748
 70
    32
  0
VERTEX
  8
T39SSILL
 62
6
 10
4140.435
 20
-5610.600
 30
1284.748
 70
    32
  0
VERTEX
  8
T39SSILL
 62
6
 10
4139.032
 20
-5611.674
 30
1284.747
 70
    32
  0
VERTEX
  8
T39SSILL
 62
6
 10
4138.878
 20
-5614.062
 30
1284.747
 70
    32
  0
VERTEX
  8
T39SSILL
 62
6
 10
4150.901
 20
-5632.679
 30
1284.750
 70
    32
  0
VERTEX
  8
T39SSILL
 62
6
 10
4160.985
 20
-5642.744
 30
1284.753
 70
    32
  0
VERTEX
  8
T39SSILL
 62
6
 10
4164.939
 20
-5649.510
 30
1284.754
 70
    32
  0
SEQEND
  8
T39SSILL
  0
POLYLINE
  8
T39SSILL
 62
6
 66
     1
 70
     9
  0
VERTEX
  8
T39SSILL
 62
6
 10
2985.000
 20
-6269.000
 30
1284.200
 70
    32
  0
VERTEX
  8
T39SSILL
 62
6
 10
2966.000
 20
-6266.000
 30
1284.210
 70
    32
  0
VERTEX
  8
T39SSILL
 62
6
 10
2949.000
 20
-6240.000
 30
1284.225
 70
    32
  0
VERTEX
  8
T39SSILL
 62
6
 10
2924.000
 20
-6212.000
 30
1284.244
 70
    32
  0
VERTEX
  8
T39SSILL
 62
6
 10
2921.000
 20
-6207.000
 30
1284.247
 70
    32
  0
VERTEX
  8
T39SSILL
 62
6
 10
2950.000
 20
-6186.000
 30
1284.238
 70
    32
  0
VERTEX
  8
T39SSILL
 62
6
 10
2969.000
 20
-6183.000
 30
1284.054
 70
    32
  0
VERTEX
  8
T39SSILL
 62
6
 10
2977.000
 20
-6207.000
 30
1284.219
 70
    32
  0
VERTEX
  8
T39SSILL
 62
6
 10
2985.000
 20
-6214.000
 30
1284.213
 70
    32
  0
VERTEX
  8
T39SSILL
 62
6
 10
2992.000
 20
-6233.000
 30
1284.205
 70
    32
  0
VERTEX
  8
T39SSILL
 62
6
 10
2998.000
 20
-6236.000
 30
1284.202
 70
    32
  0
VERTEX
  8
T39SSILL
 62
6
 10
3005.000
 20
-6236.000
 30
1284.198
 70
    32
  0
VERTEX
  8
T39SSILL
 62
6
 10
3009.000
 20
-6227.000
 30
1284.198
 70
    32
  0
VERTEX
  8
T39SSILL
 62
6
 10
3007.000
 20
-6214.000
 30
1284.203
 70
    32
  0
VERTEX
  8
T39SSILL
 62
6
 10
3009.000
 20
-6209.000
 30
1284.203
 70
    32
  0
VERTEX
  8
T39SSILL
 62
6
 10
3007.000
 20
-6203.000
 30
1284.205
 70
    32
  0
VERTEX
  8
T39SSILL
 62
6
 10
3009.000
 20
-6199.000
 30
1284.194
 70
    32
  0
VERTEX
  8
T39SSILL
 62
6
 10
3004.000
 20
-6191.000
 30
1284.005
 70
    32
  0
VERTEX
  8
T39SSILL
 62
6
 10
2999.000
 20
-6175.000
 30
1283.886
 70
    32
  0
VERTEX
  8
T39SSILL
 62
6
 10
3000.000
 20
-6160.000
 30
1283.757
 70
    32
  0
VERTEX
  8
T39SSILL
 62
6
 10
2993.000
 20
-6155.000
 30
1283.738
 70
    32
  0
VERTEX
  8
T39SSILL
 62
6
 10
3082.000
 20
-6091.000
 30
1283.640
 70
    32
  0
VERTEX
  8
T39SSILL
 62
6
 10
3088.000
 20
-6085.000
 30
1283.650
 70
    32
  0
VERTEX
  8
T39SSILL
 62
6
 10
3092.000
 20
-6078.000
 30
1283.659
 70
    32
  0
VERTEX
  8
T39SSILL
 62
6
 10
3094.000
 20
-6067.000
 30
1283.668
 70
    32
  0
VERTEX
  8
T39SSILL
 62
6
 10
3140.000
 20
-6130.000
 30
1283.679
 70
    32
  0
VERTEX
  8
T39SSILL
 62
6
 10
3143.000
 20
-6142.000
 30
1283.675
 70
    32
  0
VERTEX
  8
T39SSILL
 62
6
 10
3141.000
 20
-6153.000
 30
1283.666
 70
    32
  0
VERTEX
  8
T39SSILL
 62
6
 10
3132.000
 20
-6163.000
 30
1283.650
 70
    32
  0
VERTEX
  8
T39SSILL
 62
6
 10
3062.755
 20
-6212.932
 30
1284.175
 70
    32
  0
SEQEND
  8
T39SSILL
  0
POLYLINE
  8
T39SSILL
 62
6
 66
     1
 70
     9
  0
VERTEX
  8
T39SSILL
 62
6
 10
4576.032
 20
-6202.550
 30
1285.507
 70
    32
  0
VERTEX
  8
T39SSILL
 62
6
 10
4507.898
 20
-6179.647
 30
1285.398
 70
    32
  0
VERTEX
  8
T39SSILL
 62
6
 10
4504.365
 20
-6180.767
 30
1285.389
 70
    32
  0
VERTEX
  8
T39SSILL
 62
6
 10
4500.818
 20
-6183.915
 30
1285.377
 70
    32
  0
VERTEX
  8
T39SSILL
 62
6
 10
4489.829
 20
-6180.224
 30
1285.358
 70
    32
  0
VERTEX
  8
T39SSILL
 62
6
 10
4483.483
 20
-6180.444
 30
1285.344
 70
    32
  0
VERTEX
  8
T39SSILL
 62
6
 10
4654.181
 20
-6416.931
 30
1285.412
 70
    32
  0
VERTEX
  8
T39SSILL
 62
6
 10
4659.528
 20
-6421.022
 30
1285.412
 70
    32
  0
VERTEX
  8
T39SSILL
 62
6
 10
4670.609
 20
-6424.097
 30
1285.415
 70
    32
  0
VERTEX
  8
T39SSILL
 62
6
 10
4681.201
 20
-6421.616
 30
1285.439
 70
    32
  0
VERTEX
  8
T39SSILL
 62
6
 10
4696.622
 20
-6409.211
 30
1285.488
 70
    32
  0
VERTEX
  8
T39SSILL
 62
6
 10
4701.796
 20
-6400.171
 30
1285.512
 70
    32
  0
VERTEX
  8
T39SSILL
 62
6
 10
4704.960
 20
-6388.914
 30
1285.534
 70
    32
  0
VERTEX
  8
T39SSILL
 62
6
 10
4704.048
 20
-6380.800
 30
1285.544
 70
    32
  0
VERTEX
  8
T39SSILL
 62
6
 10
4685.682
 20
-6323.568
 30
1285.581
 70
    32
  0
VERTEX
  8
T39SSILL
 62
6
 10
4675.295
 20
-6296.971
 30
1285.591
 70
    32
  0
VERTEX
  8
T39SSILL
 62
6
 10
4667.895
 20
-6271.628
 30
1285.606
 70
    32
  0
VERTEX
  8
T39SSILL
 62
6
 10
4661.122
 20
-6232.278
 30
1285.637
 70
    32
  0
VERTEX
  8
T39SSILL
 62
6
 10
4650.165
 20
-6199.067
 30
1285.654
 70
    32
  0
VERTEX
  8
T39SSILL
 62
6
 10
4645.566
 20
-6201.414
 30
1285.642
 70
    32
  0
VERTEX
  8
T39SSILL
 62
6
 10
4637.924
 20
-6197.923
 30
1285.631
 70
    32
  0
VERTEX
  8
T39SSILL
 62
6
 10
4630.349
 20
-6197.429
 30
1285.617
 70
    32
  0
VERTEX
  8
T39SSILL
 62
6
 10
4620.706
 20
-6190.312
 30
1285.607
 70
    32
  0
VERTEX
  8
T39SSILL
 62
6
 10
4619.020
 20
-6179.549
 30
1285.616
 70
    32
  0
VERTEX
  8
T39SSILL
 62
6
 10
4606.591
 20
-6155.052
 30
1285.620
 70
    32
  0
VERTEX
  8
T39SSILL
 62
6
 10
4606.995
 20
-6147.829
 30
1285.629
 70
    32
  0
VERTEX
  8
T39SSILL
 62
6
 10
4605.700
 20
-6143.942
 30
1285.631
 70
    32
  0
VERTEX
  8
T39SSILL
 62
6
 10
4591.034
 20
-6124.364
 30
1285.625
 70
    32
  0
VERTEX
  8
T39SSILL
 62
6
 10
4584.644
 20
-6118.239
 30
1285.619
 70
    32
  0
VERTEX
  8
T39SSILL
 62
6
 10
4582.265
 20
-6118.222
 30
1285.615
 70
    32
  0
VERTEX
  8
T39SSILL
 62
6
 10
4511.227
 20
-6169.977
 30
1285.417
 70
    32
  0
VERTEX
  8
T39SSILL
 62
6
 10
4580.054
 20
-6194.343
 30
1285.524
 70
    32
  0
SEQEND
  8
T39SSILL
  0
POLYLINE
  8
T39SSILL
 62
6
 66
     1
 70
     9
  0
VERTEX
  8
T39SSILL
 62
6
 10
5254.892
 20
-6633.284
 30
1286.246
 70
    32
  0
VERTEX
  8
T39SSILL
 62
6
 10
5252.310
 20
-6629.206
 30
1286.242
 70
    32
  0
VERTEX
  8
T39SSILL
 62
6
 10
5245.447
 20
-6623.480
 30
1286.235
 70
    32
  0
VERTEX
  8
T39SSILL
 62
6
 10
5235.697
 20
-6618.716
 30
1286.229
 70
    32
  0
VERTEX
  8
T39SSILL
 62
6
 10
5220.771
 20
-6615.063
 30
1286.222
 70
    32
  0
VERTEX
  8
T39SSILL
 62
6
 10
5203.577
 20
-6618.886
 30
1286.221
 70
    32
  0
VERTEX
  8
T39SSILL
 62
6
 10
5204.358
 20
-6605.450
 30
1286.210
 70
    32
  0
VERTEX
  8
T39SSILL
 62
6
 10
5203.125
 20
-6592.599
 30
1286.199
 70
    32
  0
VERTEX
  8
T39SSILL
 62
6
 10
5206.936
 20
-6589.935
 30
1286.197
 70
    32
  0
VERTEX
  8
T39SSILL
 62
6
 10
5212.909
 20
-6579.182
 30
1286.190
 70
    32
  0
VERTEX
  8
T39SSILL
 62
6
 10
5214.099
 20
-6574.296
 30
1286.186
 70
    32
  0
VERTEX
  8
T39SSILL
 62
6
 10
5220.472
 20
-6571.739
 30
1286.185
 70
    32
  0
VERTEX
  8
T39SSILL
 62
6
 10
5236.185
 20
-6568.663
 30
1286.186
 70
    32
  0
VERTEX
  8
T39SSILL
 62
6
 10
5239.068
 20
-6570.791
 30
1286.189
 70
    32
  0
VERTEX
  8
T39SSILL
 62
6
 10
5241.116
 20
-6574.706
 30
1286.193
 70
    32
  0
VERTEX
  8
T39SSILL
 62
6
 10
5243.758
 20
-6610.112
 30
1286.223
 70
    32
  0
VERTEX
  8
T39SSILL
 62
6
 10
5258.142
 20
-6619.781
 30
1286.235
 70
    32
  0
VERTEX
  8
T39SSILL
 62
6
 10
5263.131
 20
-6621.498
 30
1286.238
 70
    32
  0
VERTEX
  8
T39SSILL
 62
6
 10
5265.504
 20
-6624.346
 30
1286.241
 70
    32
  0
VERTEX
  8
T39SSILL
 62
6
 10
5263.960
 20
-6619.534
 30
1286.236
 70
    32
  0
VERTEX
  8
T39SSILL
 62
6
 10
5268.140
 20
-6614.213
 30
1286.233
 70
    32
  0
VERTEX
  8
T39SSILL
 62
6
 10
5261.688
 20
-6604.151
 30
1286.223
 70
    32
  0
VERTEX
  8
T39SSILL
 62
6
 10
5262.134
 20
-6588.165
 30
1286.209
 70
    32
  0
VERTEX
  8
T39SSILL
 62
6
 10
5258.435
 20
-6578.735
 30
1286.200
 70
    32
  0
VERTEX
  8
T39SSILL
 62
6
 10
5250.695
 20
-6573.209
 30
1286.194
 70
    32
  0
VERTEX
  8
T39SSILL
 62
6
 10
5248.496
 20
-6570.269
 30
1286.191
 70
    32
  0
VERTEX
  8
T39SSILL
 62
6
 10
5245.367
 20
-6559.058
 30
1286.181
 70
    32
  0
VERTEX
  8
T39SSILL
 62
6
 10
5233.656
 20
-6566.525
 30
1286.184
 70
    32
  0
VERTEX
  8
T39SSILL
 62
6
 10
5222.137
 20
-6548.659
 30
1286.166
 70
    32
  0
VERTEX
  8
T39SSILL
 62
6
 10
5199.284
 20
-6564.992
 30
1286.174
 70
    32
  0
VERTEX
  8
T39SSILL
 62
6
 10
5210.669
 20
-6581.185
 30
1286.191
 70
    32
  0
VERTEX
  8
T39SSILL
 62
6
 10
5200.097
 20
-6588.357
 30
1286.194
 70
    32
  0
VERTEX
  8
T39SSILL
 62
6
 10
5191.309
 20
-6576.770
 30
1286.188
 70
    32
  0
VERTEX
  8
T39SSILL
 62
6
 10
5183.706
 20
-6585.980
 30
1286.204
 70
    32
  0
VERTEX
  8
T39SSILL
 62
6
 10
5168.476
 20
-6587.366
 30
1286.220
 70
    32
  0
VERTEX
  8
T39SSILL
 62
6
 10
5153.232
 20
-6591.488
 30
1286.238
 70
    32
  0
VERTEX
  8
T39SSILL
 62
6
 10
5151.339
 20
-6590.039
 30
1286.239
 70
    32
  0
VERTEX
  8
T39SSILL
 62
6
 10
5103.513
 20
-6622.674
 30
1286.317
 70
    32
  0
VERTEX
  8
T39SSILL
 62
6
 10
5097.552
 20
-6624.160
 30
1286.318
 70
    32
  0
VERTEX
  8
T39SSILL
 62
6
 10
5084.317
 20
-6624.256
 30
1286.318
 70
    32
  0
VERTEX
  8
T39SSILL
 62
6
 10
5134.036
 20
-6693.415
 30
1286.329
 70
    32
  0
VERTEX
  8
T39SSILL
 62
6
 10
5141.848
 20
-6698.320
 30
1286.330
 70
    32
  0
VERTEX
  8
T39SSILL
 62
6
 10
5148.162
 20
-6700.090
 30
1286.331
 70
    32
  0
VERTEX
  8
T39SSILL
 62
6
 10
5156.900
 20
-6700.116
 30
1286.331
 70
    32
  0
VERTEX
  8
T39SSILL
 62
6
 10
5164.314
 20
-6696.913
 30
1286.330
 70
    32
  0
VERTEX
  8
T39SSILL
 62
6
 10
5209.552
 20
-6665.378
 30
1286.262
 70
    32
  0
SEQEND
  8
T39SSILL
  0
POLYLINE
  8
T39SSILL
 62
6
 66
     1
 70
     9
  0
VERTEX
  8
T39SSILL
 62
6
 10
3383.345
 20
-6343.333
 30
1283.902
 70
    32
  0
VERTEX
  8
T39SSILL
 62
6
 10
3384.643
 20
-6352.855
 30
1283.897
 70
    32
  0
VERTEX
  8
T39SSILL
 62
6
 10
3376.092
 20
-6435.407
 30
1283.876
 70
    32
  0
VERTEX
  8
T39SSILL
 62
6
 10
3380.210
 20
-6443.199
 30
1283.869
 70
    32
  0
VERTEX
  8
T39SSILL
 62
6
 10
3393.588
 20
-6443.451
 30
1283.856
 70
    32
  0
VERTEX
  8
T39SSILL
 62
6
 10
3398.818
 20
-6441.366
 30
1283.852
 70
    32
  0
VERTEX
  8
T39SSILL
 62
6
 10
3446.157
 20
-6406.506
 30
1283.831
 70
    32
  0
VERTEX
  8
T39SSILL
 62
6
 10
3442.715
 20
-6399.209
 30
1283.833
 70
    32
  0
VERTEX
  8
T39SSILL
 62
6
 10
3425.952
 20
-6378.312
 30
1283.848
 70
    32
  0
VERTEX
  8
T39SSILL
 62
6
 10
3423.714
 20
-6372.866
 30
1283.852
 70
    32
  0
VERTEX
  8
T39SSILL
 62
6
 10
3426.608
 20
-6361.077
 30
1283.853
 70
    32
  0
VERTEX
  8
T39SSILL
 62
6
 10
3424.162
 20
-6353.507
 30
1283.858
 70
    32
  0
VERTEX
  8
T39SSILL
 62
6
 10
3417.237
 20
-6341.755
 30
1283.869
 70
    32
  0
VERTEX
  8
T39SSILL
 62
6
 10
3403.637
 20
-6328.778
 30
1283.887
 70
    32
  0
SEQEND
  8
T39SSILL
  0
POLYLINE
  8
T39SSILL
 62
6
 66
     1
 70
     9
  0
VERTEX
  8
T39SSILL
 62
6
 10
3350.613
 20
-6366.811
 30
1283.926
 70
    32
  0
VERTEX
  8
T39SSILL
 62
6
 10
3342.914
 20
-6370.755
 30
1283.932
 70
    32
  0
VERTEX
  8
T39SSILL
 62
6
 10
3329.486
 20
-6373.026
 30
1283.944
 70
    32
  0
VERTEX
  8
T39SSILL
 62
6
 10
3319.663
 20
-6371.227
 30
1283.954
 70
    32
  0
VERTEX
  8
T39SSILL
 62
6
 10
3363.721
 20
-6431.844
 30
1283.890
 70
    32
  0
VERTEX
  8
T39SSILL
 62
6
 10
3368.080
 20
-6429.295
 30
1283.886
 70
    32
  0
VERTEX
  8
T39SSILL
 62
6
 10
3375.392
 20
-6354.761
 30
1283.906
 70
    32
  0
VERTEX
  8
T39SSILL
 62
6
 10
3374.573
 20
-6349.690
 30
1283.908
 70
    32
  0
SEQEND
  8
T39SSILL
  0
POLYLINE
  8
T39SSILL
 62
6
 66
     1
 70
     9
  0
VERTEX
  8
T39SSILL
 62
6
 10
3771.359
 20
-6765.174
 30
1284.020
 70
    32
  0
VERTEX
  8
T39SSILL
 62
6
 10
3776.526
 20
-6769.849
 30
1284.023
 70
    32
  0
VERTEX
  8
T39SSILL
 62
6
 10
3781.963
 20
-6777.802
 30
1284.023
 70
    32
  0
VERTEX
  8
T39SSILL
 62
6
 10
3784.525
 20
-6785.522
 30
1284.017
 70
    32
  0
VERTEX
  8
T39SSILL
 62
6
 10
3765.066
 20
-6795.670
 30
1283.971
 70
    32
  0
VERTEX
  8
T39SSILL
 62
6
 10
3758.595
 20
-6799.836
 30
1283.954
 70
    32
  0
VERTEX
  8
T39SSILL
 62
6
 10
3755.279
 20
-6803.712
 30
1283.944
 70
    32
  0
VERTEX
  8
T39SSILL
 62
6
 10
3760.035
 20
-6808.571
 30
1283.946
 70
    32
  0
VERTEX
  8
T39SSILL
 62
6
 10
3775.174
 20
-6800.736
 30
1283.982
 70
    32
  0
VERTEX
  8
T39SSILL
 62
6
 10
3787.140
 20
-6796.674
 30
1284.008
 70
    32
  0
VERTEX
  8
T39SSILL
 62
6
 10
3788.926
 20
-6806.355
 30
1283.999
 70
    32
  0
VERTEX
  8
T39SSILL
 62
6
 10
3790.896
 20
-6807.448
 30
1284.001
 70
    32
  0
VERTEX
  8
T39SSILL
 62
6
 10
3793.381
 20
-6826.499
 30
1283.981
 70
    32
  0
VERTEX
  8
T39SSILL
 62
6
 10
3799.945
 20
-6836.036
 30
1283.981
 70
    32
  0
VERTEX
  8
T39SSILL
 62
6
 10
3804.558
 20
-6840.238
 30
1283.984
 70
    32
  0
VERTEX
  8
T39SSILL
 62
6
 10
3795.914
 20
-6842.263
 30
1283.966
 70
    32
  0
VERTEX
  8
T39SSILL
 62
6
 10
3786.189
 20
-6840.937
 30
1283.951
 70
    32
  0
VERTEX
  8
T39SSILL
 62
6
 10
3775.592
 20
-6834.267
 30
1283.941
 70
    32
  0
VERTEX
  8
T39SSILL
 62
6
 10
3765.621
 20
-6832.899
 30
1283.925
 70
    32
  0
VERTEX
  8
T39SSILL
 62
6
 10
3709.274
 20
-6810.071
 30
1283.856
 70
    32
  0
SEQEND
  8
T39SSILL
  0
POLYLINE
  8
T39SSILL
 62
6
 66
     1
 70
     9
  0
VERTEX
  8
T39SSILL
 62
6
 10
3977.147
 20
-6851.117
 30
1284.270
 70
    32
  0
VERTEX
  8
T39SSILL
 62
6
 10
3984.124
 20
-6845.984
 30
1284.289
 70
    32
  0
VERTEX
  8
T39SSILL
 62
6
 10
3986.583
 20
-6847.686
 30
1284.291
 70
    32
  0
VERTEX
  8
T39SSILL
 62
6
 10
3999.257
 20
-6863.270
 30
1284.296
 70
    32
  0
VERTEX
  8
T39SSILL
 62
6
 10
4008.965
 20
-6878.404
 30
1284.302
 70
    32
  0
VERTEX
  8
T39SSILL
 62
6
 10
4009.940
 20
-6881.966
 30
1284.300
 70
    32
  0
VERTEX
  8
T39SSILL
 62
6
 10
4008.493
 20
-6889.395
 30
1284.291
 70
    32
  0
VERTEX
  8
T39SSILL
 62
6
 10
4004.581
 20
-6897.650
 30
1284.276
 70
    32
  0
VERTEX
  8
T39SSILL
 62
6
 10
4005.933
 20
-6902.471
 30
1284.274
 70
    32
  0
VERTEX
  8
T39SSILL
 62
6
 10
4014.556
 20
-6916.428
 30
1284.278
 70
    32
  0
VERTEX
  8
T39SSILL
 62
6
 10
4015.359
 20
-6919.458
 30
1284.277
 70
    32
  0
VERTEX
  8
T39SSILL
 62
6
 10
4014.078
 20
-6924.131
 30
1284.271
 70
    32
  0
VERTEX
  8
T39SSILL
 62
6
 10
4011.294
 20
-6927.057
 30
1284.262
 70
    32
  0
VERTEX
  8
T39SSILL
 62
6
 10
4012.218
 20
-6934.279
 30
1284.258
 70
    32
  0
VERTEX
  8
T39SSILL
 62
6
 10
4002.768
 20
-6941.122
 30
1284.233
 70
    32
  0
VERTEX
  8
T39SSILL
 62
6
 10
3995.527
 20
-6932.623
 30
1284.226
 70
    32
  0
VERTEX
  8
T39SSILL
 62
6
 10
3992.497
 20
-6921.794
 30
1284.230
 70
    32
  0
VERTEX
  8
T39SSILL
 62
6
 10
3962.481
 20
-6861.908
 30
1284.231
 70
    32
  0
SEQEND
  8
T39SSILL
  0
POLYLINE
  8
T39SSILL
 62
6
 66
     1
 70
     9
  0
VERTEX
  8
T39SSILL
 62
6
 10
3366.880
 20
-6276.306
 30
1283.942
 70
    32
  0
VERTEX
  8
T39SSILL
 62
6
 10
3348.676
 20
-6267.062
 30
1283.963
 70
    32
  0
VERTEX
  8
T39SSILL
 62
6
 10
3381.068
 20
-6337.294
 30
1283.906
 70
    32
  0
VERTEX
  8
T39SSILL
 62
6
 10
3401.689
 20
-6322.033
 30
1283.892
 70
    32
  0
VERTEX
  8
T39SSILL
 62
6
 10
3397.156
 20
-6315.675
 30
1283.898
 70
    32
  0
VERTEX
  8
T39SSILL
 62
6
 10
3400.260
 20
-6313.491
 30
1283.896
 70
    32
  0
VERTEX
  8
T39SSILL
 62
6
 10
3392.980
 20
-6305.240
 30
1283.906
 70
    32
  0
SEQEND
  8
T39SSILL
  0
POLYLINE
  8
T39SSILL
 62
6
 66
     1
 70
     9
  0
VERTEX
  8
T39SSILL
 62
6
 10
4971.618
 20
-6521.168
 30
1286.211
 70
    32
  0
VERTEX
  8
T39SSILL
 62
6
 10
4977.598
 20
-6515.263
 30
1286.218
 70
    32
  0
VERTEX
  8
T39SSILL
 62
6
 10
4979.748
 20
-6510.256
 30
1286.225
 70
    32
  0
VERTEX
  8
T39SSILL
 62
6
 10
4981.696
 20
-6496.434
 30
1286.225
 70
    32
  0
VERTEX
  8
T39SSILL
 62
6
 10
4979.979
 20
-6489.989
 30
1286.202
 70
    32
  0
VERTEX
  8
T39SSILL
 62
6
 10
4919.263
 20
-6402.586
 30
1285.861
 70
    32
  0
VERTEX
  8
T39SSILL
 62
6
 10
4908.302
 20
-6394.842
 30
1285.855
 70
    32
  0
VERTEX
  8
T39SSILL
 62
6
 10
4902.401
 20
-6394.360
 30
1285.851
 70
    32
  0
VERTEX
  8
T39SSILL
 62
6
 10
4894.902
 20
-6395.717
 30
1285.847
 70
    32
  0
VERTEX
  8
T39SSILL
 62
6
 10
4891.007
 20
-6398.157
 30
1285.844
 70
    32
  0
VERTEX
  8
T39SSILL
 62
6
 10
4759.016
 20
-6496.010
 30
1285.490
 70
    32
  0
VERTEX
  8
T39SSILL
 62
6
 10
4756.769
 20
-6502.339
 30
1285.477
 70
    32
  0
VERTEX
  8
T39SSILL
 62
6
 10
4756.069
 20
-6514.054
 30
1285.459
 70
    32
  0
VERTEX
  8
T39SSILL
 62
6
 10
4758.206
 20
-6523.410
 30
1285.450
 70
    32
  0
VERTEX
  8
T39SSILL
 62
6
 10
4772.898
 20
-6551.503
 30
1285.553
 70
    32
  0
VERTEX
  8
T39SSILL
 62
6
 10
4776.392
 20
-6549.519
 30
1285.560
 70
    32
  0
VERTEX
  8
T39SSILL
 62
6
 10
4780.115
 20
-6550.123
 30
1285.576
 70
    32
  0
VERTEX
  8
T39SSILL
 62
6
 10
4787.364
 20
-6560.251
 30
1285.629
 70
    32
  0
VERTEX
  8
T39SSILL
 62
6
 10
4796.805
 20
-6582.851
 30
1285.724
 70
    32
  0
VERTEX
  8
T39SSILL
 62
6
 10
4811.824
 20
-6606.094
 30
1285.841
 70
    32
  0
VERTEX
  8
T39SSILL
 62
6
 10
4821.519
 20
-6615.623
 30
1285.902
 70
    32
  0
VERTEX
  8
T39SSILL
 62
6
 10
4825.228
 20
-6616.410
 30
1285.918
 70
    32
  0
VERTEX
  8
T39SSILL
 62
6
 10
4837.020
 20
-6606.271
 30
1285.935
 70
    32
  0
VERTEX
  8
T39SSILL
 62
6
 10
4846.770
 20
-6610.746
 30
1285.965
 70
    32
  0
VERTEX
  8
T39SSILL
 62
6
 10
4864.005
 20
-6598.379
 30
1286.004
 70
    32
  0
VERTEX
  8
T39SSILL
 62
6
 10
4866.508
 20
-6595.159
 30
1286.011
 70
    32
  0
VERTEX
  8
T39SSILL
 62
6
 10
4878.151
 20
-6588.230
 30
1286.036
 70
    32
  0
VERTEX
  8
T39SSILL
 62
6
 10
4965.212
 20
-6525.764
 30
1286.200
 70
    32
  0
VERTEX
  8
T39SSILL
 62
6
 10
4962.330
 20
-6521.617
 30
1286.178
 70
    32
  0
VERTEX
  8
T39SSILL
 62
6
 10
4969.017
 20
-6517.350
 30
1286.192
 70
    32
  0
SEQEND
  8
T39SSILL
  0
POLYLINE
  8
T39SSILL
 62
6
 66
     1
 70
     9
  0
VERTEX
  8
T39SSILL
 62
6
 10
4011.476
 20
-5886.954
 30
1284.692
 70
    32
  0
VERTEX
  8
T39SSILL
 62
6
 10
3873.064
 20
-5696.914
 30
1284.516
 70
    32
  0
VERTEX
  8
T39SSILL
 62
6
 10
3875.501
 20
-5684.628
 30
1284.542
 70
    32
  0
VERTEX
  8
T39SSILL
 62
6
 10
3928.505
 20
-5647.584
 30
1284.771
 70
    32
  0
VERTEX
  8
T39SSILL
 62
6
 10
3938.227
 20
-5649.428
 30
1284.784
 70
    32
  0
VERTEX
  8
T39SSILL
 62
6
 10
3947.617
 20
-5662.391
 30
1284.780
 70
    32
  0
VERTEX
  8
T39SSILL
 62
6
 10
3951.981
 20
-5666.582
 30
1284.779
 70
    32
  0
VERTEX
  8
T39SSILL
 62
6
 10
3956.863
 20
-5669.622
 30
1284.778
 70
    32
  0
VERTEX
  8
T39SSILL
 62
6
 10
3964.558
 20
-5671.663
 30
1284.777
 70
    32
  0
VERTEX
  8
T39SSILL
 62
6
 10
4130.243
 20
-5700.283
 30
1284.731
 70
    32
  0
VERTEX
  8
T39SSILL
 62
6
 10
4269.932
 20
-5897.655
 30
1285.079
 70
    32
  0
VERTEX
  8
T39SSILL
 62
6
 10
4257.178
 20
-5906.818
 30
1285.065
 70
    32
  0
VERTEX
  8
T39SSILL
 62
6
 10
4262.072
 20
-5912.581
 30
1285.081
 70
    32
  0
VERTEX
  8
T39SSILL
 62
6
 10
4275.442
 20
-5903.598
 30
1285.096
 70
    32
  0
VERTEX
  8
T39SSILL
 62
6
 10
4706.452
 20
-6502.249
 30
1285.442
 70
    32
  0
VERTEX
  8
T39SSILL
 62
6
 10
4711.754
 20
-6506.741
 30
1285.443
 70
    32
  0
VERTEX
  8
T39SSILL
 62
6
 10
4713.378
 20
-6517.719
 30
1285.449
 70
    32
  0
VERTEX
  8
T39SSILL
 62
6
 10
4563.453
 20
-6624.170
 30
1285.496
 70
    32
  0
VERTEX
  8
T39SSILL
 62
6
 10
4550.091
 20
-6619.581
 30
1285.456
 70
    32
  0
VERTEX
  8
T39SSILL
 62
6
 10
4037.622
 20
-5922.518
 30
1284.726
 70
    32
  0
SEQEND
  8
T39SSILL
  0
POLYLINE
  8
T39SSILL
 62
6
 66
     1
 70
     9
  0
VERTEX
  8
T39SSILL
 62
6
 10
4023.214
 20
-5552.869
 30
1284.547
 70
    32
  0
VERTEX
  8
T39SSILL
 62
6
 10
4004.768
 20
-5527.211
 30
1284.469
 70
    32
  0
VERTEX
  8
T39SSILL
 62
6
 10
3993.773
 20
-5530.496
 30
1284.482
 70
    32
  0
VERTEX
  8
T39SSILL
 62
6
 10
3985.689
 20
-5524.753
 30
1284.465
 70
    32
  0
VERTEX
  8
T39SSILL
 62
6
 10
3981.122
 20
-5526.827
 30
1284.472
 70
    32
  0
VERTEX
  8
T39SSILL
 62
6
 10
3972.093
 20
-5523.653
 30
1284.464
 70
    32
  0
VERTEX
  8
T39SSILL
 62
6
 10
3970.222
 20
-5521.730
 30
1284.458
 70
    32
  0
VERTEX
  8
T39SSILL
 62
6
 10
3958.637
 20
-5483.119
 30
1284.337
 70
    32
  0
VERTEX
  8
T39SSILL
 62
6
 10
3962.348
 20
-5474.790
 30
1284.309
 70
    32
  0
VERTEX
  8
T39SSILL
 62
6
 10
3952.943
 20
-5455.135
 30
1284.248
 70
    32
  0
VERTEX
  8
T39SSILL
 62
6
 10
3949.113
 20
-5449.808
 30
1284.232
 70
    32
  0
VERTEX
  8
T39SSILL
 62
6
 10
3942.423
 20
-5449.140
 30
1284.223
 70
    32
  0
VERTEX
  8
T39SSILL
 62
6
 10
3918.088
 20
-5468.258
 30
1284.241
 70
    32
  0
VERTEX
  8
T39SSILL
 62
6
 10
3911.240
 20
-5471.590
 30
1284.238
 70
    32
  0
VERTEX
  8
T39SSILL
 62
6
 10
3917.843
 20
-5488.109
 30
1284.310
 70
    32
  0
VERTEX
  8
T39SSILL
 62
6
 10
3917.886
 20
-5492.431
 30
1284.325
 70
    32
  0
VERTEX
  8
T39SSILL
 62
6
 10
3934.198
 20
-5509.560
 30
1284.419
 70
    32
  0
VERTEX
  8
T39SSILL
 62
6
 10
3938.938
 20
-5516.041
 30
1284.446
 70
    32
  0
VERTEX
  8
T39SSILL
 62
6
 10
3932.549
 20
-5521.220
 30
1284.456
 70
    32
  0
VERTEX
  8
T39SSILL
 62
6
 10
3950.968
 20
-5536.975
 30
1284.511
 70
    32
  0
VERTEX
  8
T39SSILL
 62
6
 10
3969.924
 20
-5541.737
 30
1284.522
 70
    32
  0
VERTEX
  8
T39SSILL
 62
6
 10
3980.754
 20
-5555.769
 30
1284.565
 70
    32
  0
VERTEX
  8
T39SSILL
 62
6
 10
3967.050
 20
-5564.033
 30
1284.595
 70
    32
  0
VERTEX
  8
T39SSILL
 62
6
 10
3955.495
 20
-5566.090
 30
1284.604
 70
    32
  0
VERTEX
  8
T39SSILL
 62
6
 10
3940.502
 20
-5560.052
 30
1284.587
 70
    32
  0
VERTEX
  8
T39SSILL
 62
6
 10
3912.283
 20
-5529.755
 30
1284.444
 70
    32
  0
VERTEX
  8
T39SSILL
 62
6
 10
3912.061
 20
-5525.162
 30
1284.428
 70
    32
  0
VERTEX
  8
T39SSILL
 62
6
 10
3900.356
 20
-5511.934
 30
1284.357
 70
    32
  0
VERTEX
  8
T39SSILL
 62
6
 10
3891.019
 20
-5497.004
 30
1284.286
 70
    32
  0
VERTEX
  8
T39SSILL
 62
6
 10
3887.927
 20
-5488.022
 30
1284.252
 70
    32
  0
VERTEX
  8
T39SSILL
 62
6
 10
3886.609
 20
-5470.804
 30
1284.218
 70
    32
  0
VERTEX
  8
T39SSILL
 62
6
 10
3884.778
 20
-5464.283
 30
1284.204
 70
    32
  0
VERTEX
  8
T39SSILL
 62
6
 10
3886.796
 20
-5453.836
 30
1284.185
 70
    32
  0
VERTEX
  8
T39SSILL
 62
6
 10
3885.264
 20
-5450.759
 30
1284.178
 70
    32
  0
VERTEX
  8
T39SSILL
 62
6
 10
3890.707
 20
-5438.069
 30
1284.156
 70
    32
  0
VERTEX
  8
T39SSILL
 62
6
 10
3896.907
 20
-5430.586
 30
1284.145
 70
    32
  0
VERTEX
  8
T39SSILL
 62
6
 10
3894.643
 20
-5416.029
 30
1284.115
 70
    32
  0
VERTEX
  8
T39SSILL
 62
6
 10
3898.098
 20
-5398.852
 30
1284.081
 70
    32
  0
VERTEX
  8
T39SSILL
 62
6
 10
3907.694
 20
-5392.205
 30
1284.071
 70
    32
  0
VERTEX
  8
T39SSILL
 62
6
 10
3796.359
 20
-5236.839
 30
1283.699
 70
    32
  0
VERTEX
  8
T39SSILL
 62
6
 10
3769.543
 20
-5397.654
 30
1284.018
 70
    32
  0
VERTEX
  8
T39SSILL
 62
6
 10
3769.760
 20
-5401.798
 30
1284.026
 70
    32
  0
VERTEX
  8
T39SSILL
 62
6
 10
3772.834
 20
-5409.354
 30
1284.043
 70
    32
  0
VERTEX
  8
T39SSILL
 62
6
 10
3953.127
 20
-5657.573
 30
1284.781
 70
    32
  0
VERTEX
  8
T39SSILL
 62
6
 10
3957.843
 20
-5661.673
 30
1284.780
 70
    32
  0
VERTEX
  8
T39SSILL
 62
6
 10
3964.398
 20
-5664.431
 30
1284.778
 70
    32
  0
VERTEX
  8
T39SSILL
 62
6
 10
4122.655
 20
-5691.184
 30
1284.729
 70
    32
  0
VERTEX
  8
T39SSILL
 62
6
 10
4030.220
 20
-5562.614
 30
1284.577
 70
    32
  0
VERTEX
  8
T39SSILL
 62
6
 10
4024.906
 20
-5566.276
 30
1284.590
 70
    32
  0
VERTEX
  8
T39SSILL
 62
6
 10
4018.247
 20
-5556.292
 30
1284.559
 70
    32
  0
SEQEND
  8
T39SSILL
  0
POLYLINE
  8
T39SSILL
 62
6
 66
     1
 70
     9
  0
VERTEX
  8
T39SSILL
 62
6
 10
4114.220
 20
-5552.016
 30
1284.701
 70
    32
  0
VERTEX
  8
T39SSILL
 62
6
 10
4119.224
 20
-5565.368
 30
1284.734
 70
    32
  0
VERTEX
  8
T39SSILL
 62
6
 10
4077.885
 20
-5593.961
 30
1284.708
 70
    32
  0
VERTEX
  8
T39SSILL
 62
6
 10
4070.815
 20
-5593.853
 30
1284.695
 70
    32
  0
VERTEX
  8
T39SSILL
 62
6
 10
4069.459
 20
-5590.686
 30
1284.687
 70
    32
  0
VERTEX
  8
T39SSILL
 62
6
 10
4069.027
 20
-5582.737
 30
1284.671
 70
    32
  0
VERTEX
  8
T39SSILL
 62
6
 10
4064.890
 20
-5584.368
 30
1284.667
 70
    32
  0
VERTEX
  8
T39SSILL
 62
6
 10
4062.679
 20
-5584.125
 30
1284.662
 70
    32
  0
VERTEX
  8
T39SSILL
 62
6
 10
4059.827
 20
-5581.590
 30
1284.652
 70
    32
  0
VERTEX
  8
T39SSILL
 62
6
 10
4057.191
 20
-5583.207
 30
1284.650
 70
    32
  0
VERTEX
  8
T39SSILL
 62
6
 10
4055.068
 20
-5582.963
 30
1284.646
 70
    32
  0
VERTEX
  8
T39SSILL
 62
6
 10
4047.816
 20
-5573.314
 30
1284.615
 70
    32
  0
VERTEX
  8
T39SSILL
 62
6
 10
4049.292
 20
-5570.560
 30
1284.613
 70
    32
  0
VERTEX
  8
T39SSILL
 62
6
 10
4049.169
 20
-5567.027
 30
1284.606
 70
    32
  0
VERTEX
  8
T39SSILL
 62
6
 10
4054.232
 20
-5569.805
 30
1284.620
 70
    32
  0
VERTEX
  8
T39SSILL
 62
6
 10
4057.829
 20
-5567.119
 30
1284.622
 70
    32
  0
VERTEX
  8
T39SSILL
 62
6
 10
4057.607
 20
-5562.526
 30
1284.614
 70
    32
  0
VERTEX
  8
T39SSILL
 62
6
 10
4061.680
 20
-5554.357
 30
1284.606
 70
    32
  0
VERTEX
  8
T39SSILL
 62
6
 10
4054.710
 20
-5546.472
 30
1284.579
 70
    32
  0
VERTEX
  8
T39SSILL
 62
6
 10
4043.657
 20
-5518.570
 30
1284.508
 70
    32
  0
VERTEX
  8
T39SSILL
 62
6
 10
4036.045
 20
-5526.332
 30
1284.508
 70
    32
  0
VERTEX
  8
T39SSILL
 62
6
 10
4032.925
 20
-5532.548
 30
1284.513
 70
    32
  0
VERTEX
  8
T39SSILL
 62
6
 10
4031.584
 20
-5539.984
 30
1284.524
 70
    32
  0
VERTEX
  8
T39SSILL
 62
6
 10
4033.918
 20
-5543.672
 30
1284.535
 70
    32
  0
VERTEX
  8
T39SSILL
 62
6
 10
4038.977
 20
-5546.008
 30
1284.549
 70
    32
  0
VERTEX
  8
T39SSILL
 62
6
 10
4036.131
 20
-5553.105
 30
1284.556
 70
    32
  0
VERTEX
  8
T39SSILL
 62
6
 10
4033.215
 20
-5553.134
 30
1284.551
 70
    32
  0
VERTEX
  8
T39SSILL
 62
6
 10
4027.205
 20
-5544.003
 30
1284.523
 70
    32
  0
VERTEX
  8
T39SSILL
 62
6
 10
4025.581
 20
-5531.560
 30
1284.498
 70
    32
  0
VERTEX
  8
T39SSILL
 62
6
 10
4023.986
 20
-5531.045
 30
1284.494
 70
    32
  0
VERTEX
  8
T39SSILL
 62
6
 10
4019.525
 20
-5534.357
 30
1284.491
 70
    32
  0
VERTEX
  8
T39SSILL
 62
6
 10
4015.511
 20
-5528.804
 30
1284.474
 70
    32
  0
VERTEX
  8
T39SSILL
 62
6
 10
4017.294
 20
-5524.484
 30
1284.469
 70
    32
  0
VERTEX
  8
T39SSILL
 62
6
 10
4028.797
 20
-5517.037
 30
1284.477
 70
    32
  0
VERTEX
  8
T39SSILL
 62
6
 10
4025.783
 20
-5507.081
 30
1284.454
 70
    32
  0
VERTEX
  8
T39SSILL
 62
6
 10
4014.500
 20
-5491.905
 30
1284.405
 70
    32
  0
VERTEX
  8
T39SSILL
 62
6
 10
4000.082
 20
-5490.368
 30
1284.375
 70
    32
  0
VERTEX
  8
T39SSILL
 62
6
 10
3979.765
 20
-5463.970
 30
1284.290
 70
    32
  0
VERTEX
  8
T39SSILL
 62
6
 10
3974.070
 20
-5459.961
 30
1284.272
 70
    32
  0
VERTEX
  8
T39SSILL
 62
6
 10
3967.432
 20
-5449.776
 30
1284.241
 70
    32
  0
VERTEX
  8
T39SSILL
 62
6
 10
3968.731
 20
-5447.112
 30
1284.239
 70
    32
  0
VERTEX
  8
T39SSILL
 62
6
 10
3968.933
 20
-5440.660
 30
1284.227
 70
    32
  0
VERTEX
  8
T39SSILL
 62
6
 10
3965.417
 20
-5433.537
 30
1284.208
 70
    32
  0
VERTEX
  8
T39SSILL
 62
6
 10
4005.363
 20
-5404.600
 30
1284.248
 70
    32
  0
VERTEX
  8
T39SSILL
 62
6
 10
4006.326
 20
-5408.848
 30
1284.254
 70
    32
  0
VERTEX
  8
T39SSILL
 62
6
 10
4015.071
 20
-5407.086
 30
1284.268
 70
    32
  0
VERTEX
  8
T39SSILL
 62
6
 10
4017.729
 20
-5415.705
 30
1284.282
 70
    32
  0
VERTEX
  8
T39SSILL
 62
6
 10
4053.899
 20
-5436.734
 30
1284.379
 70
    32
  0
VERTEX
  8
T39SSILL
 62
6
 10
4089.622
 20
-5475.263
 30
1284.516
 70
    32
  0
VERTEX
  8
T39SSILL
 62
6
 10
4100.244
 20
-5495.129
 30
1284.572
 70
    32
  0
VERTEX
  8
T39SSILL
 62
6
 10
4097.884
 20
-5497.803
 30
1284.572
 70
    32
  0
VERTEX
  8
T39SSILL
 62
6
 10
4112.832
 20
-5535.299
 30
1284.668
 70
    32
  0
VERTEX
  8
T39SSILL
 62
6
 10
4111.602
 20
-5545.031
 30
1284.683
 70
    32
  0
VERTEX
  8
T39SSILL
 62
6
 10
4112.557
 20
-5547.578
 30
1284.689
 70
    32
  0
SEQEND
  8
T39SSILL
  0
POLYLINE
  8
T39SSILL
 62
6
 66
     1
 70
     9
  0
VERTEX
  8
T39SSILL
 62
6
 10
4364.796
 20
-5764.868
 30
1285.321
 70
    32
  0
VERTEX
  8
T39SSILL
 62
6
 10
4346.168
 20
-5728.211
 30
1285.221
 70
    32
  0
VERTEX
  8
T39SSILL
 62
6
 10
4345.633
 20
-5721.401
 30
1285.211
 70
    32
  0
VERTEX
  8
T39SSILL
 62
6
 10
4350.700
 20
-5718.902
 30
1285.223
 70
    32
  0
VERTEX
  8
T39SSILL
 62
6
 10
4348.605
 20
-5716.844
 30
1285.214
 70
    32
  0
VERTEX
  8
T39SSILL
 62
6
 10
4344.810
 20
-5716.532
 30
1285.202
 70
    32
  0
VERTEX
  8
T39SSILL
 62
6
 10
4337.849
 20
-5722.189
 30
1285.188
 70
    32
  0
VERTEX
  8
T39SSILL
 62
6
 10
4336.744
 20
-5725.886
 30
1285.189
 70
    32
  0
VERTEX
  8
T39SSILL
 62
6
 10
4338.136
 20
-5749.227
 30
1285.221
 70
    32
  0
VERTEX
  8
T39SSILL
 62
6
 10
4328.870
 20
-5750.570
 30
1285.194
 70
    32
  0
VERTEX
  8
T39SSILL
 62
6
 10
4294.255
 20
-5725.973
 30
1285.059
 70
    32
  0
VERTEX
  8
T39SSILL
 62
6
 10
4282.958
 20
-5709.295
 30
1285.005
 70
    32
  0
VERTEX
  8
T39SSILL
 62
6
 10
4283.649
 20
-5707.698
 30
1285.005
 70
    32
  0
VERTEX
  8
T39SSILL
 62
6
 10
4364.199
 20
-5649.914
 30
1285.183
 70
    32
  0
VERTEX
  8
T39SSILL
 62
6
 10
4368.497
 20
-5655.704
 30
1285.203
 70
    32
  0
VERTEX
  8
T39SSILL
 62
6
 10
4373.930
 20
-5651.055
 30
1285.214
 70
    32
  0
VERTEX
  8
T39SSILL
 62
6
 10
4394.877
 20
-5660.570
 30
1285.280
 70
    32
  0
VERTEX
  8
T39SSILL
 62
6
 10
4408.627
 20
-5675.015
 30
1285.295
 70
    32
  0
VERTEX
  8
T39SSILL
 62
6
 10
4413.563
 20
-5682.831
 30
1285.305
 70
    32
  0
VERTEX
  8
T39SSILL
 62
6
 10
4415.212
 20
-5688.823
 30
1285.313
 70
    32
  0
VERTEX
  8
T39SSILL
 62
6
 10
4437.122
 20
-5715.382
 30
1285.343
 70
    32
  0
VERTEX
  8
T39SSILL
 62
6
 10
4373.679
 20
-5760.539
 30
1285.343
 70
    32
  0
SEQEND
  8
T39SSILL
  0
POLYLINE
  8
T39SSILL
 62
6
 66
     1
 70
     9
  0
VERTEX
  8
T39SSILL
 62
6
 10
3493.094
 20
-5211.695
 30
1283.497
 70
    32
  0
VERTEX
  8
T39SSILL
 62
6
 10
3720.377
 20
-5519.612
 30
1284.145
 70
    32
  0
VERTEX
  8
T39SSILL
 62
6
 10
3722.729
 20
-5525.499
 30
1284.160
 70
    32
  0
VERTEX
  8
T39SSILL
 62
6
 10
3755.272
 20
-5569.285
 30
1284.299
 70
    32
  0
VERTEX
  8
T39SSILL
 62
6
 10
3750.635
 20
-5599.941
 30
1284.345
 70
    32
  0
VERTEX
  8
T39SSILL
 62
6
 10
3513.443
 20
-5771.631
 30
1284.193
 70
    32
  0
VERTEX
  8
T39SSILL
 62
6
 10
3363.178
 20
-5877.692
 30
1284.093
 70
    32
  0
VERTEX
  8
T39SSILL
 62
6
 10
3203.056
 20
-5993.113
 30
1283.834
 70
    32
  0
VERTEX
  8
T39SSILL
 62
6
 10
3200.409
 20
-6001.991
 30
1283.827
 70
    32
  0
VERTEX
  8
T39SSILL
 62
6
 10
3124.392
 20
-6055.789
 30
1283.709
 70
    32
  0
VERTEX
  8
T39SSILL
 62
6
 10
3114.771
 20
-6069.315
 30
1283.690
 70
    32
  0
VERTEX
  8
T39SSILL
 62
6
 10
3112.786
 20
-6074.701
 30
1283.684
 70
    32
  0
VERTEX
  8
T39SSILL
 62
6
 10
3112.254
 20
-6081.415
 30
1283.679
 70
    32
  0
VERTEX
  8
T39SSILL
 62
6
 10
2742.440
 20
-5563.558
 30
1283.475
 70
    32
  0
VERTEX
  8
T39SSILL
 62
6
 10
2760.815
 20
-5550.961
 30
1283.502
 70
    32
  0
VERTEX
  8
T39SSILL
 62
6
 10
2754.998
 20
-5542.755
 30
1283.498
 70
    32
  0
VERTEX
  8
T39SSILL
 62
6
 10
2736.419
 20
-5555.111
 30
1283.471
 70
    32
  0
VERTEX
  8
T39SSILL
 62
6
 10
2721.921
 20
-5534.773
 30
1283.463
 70
    32
  0
VERTEX
  8
T39SSILL
 62
6
 10
2740.369
 20
-5521.555
 30
1283.490
 70
    32
  0
VERTEX
  8
T39SSILL
 62
6
 10
2733.865
 20
-5512.324
 30
1283.486
 70
    32
  0
VERTEX
  8
T39SSILL
 62
6
 10
2715.409
 20
-5525.637
 30
1283.459
 70
    32
  0
VERTEX
  8
T39SSILL
 62
6
 10
2190.177
 20
-4795.241
 30
1283.458
 70
    32
  0
VERTEX
  8
T39SSILL
 62
6
 10
2727.375
 20
-4955.548
 30
1283.486
 70
    32
  0
VERTEX
  8
T39SSILL
 62
6
 10
2725.122
 20
-4962.633
 30
1283.484
 70
    32
  0
VERTEX
  8
T39SSILL
 62
6
 10
2733.803
 20
-4965.446
 30
1283.483
 70
    32
  0
VERTEX
  8
T39SSILL
 62
6
 10
2735.815
 20
-4958.066
 30
1283.485
 70
    32
  0
VERTEX
  8
T39SSILL
 62
6
 10
2748.444
 20
-4961.835
 30
1283.484
 70
    32
  0
VERTEX
  8
T39SSILL
 62
6
 10
2742.268
 20
-4981.187
 30
1283.480
 70
    32
  0
VERTEX
  8
T39SSILL
 62
6
 10
2750.166
 20
-4983.200
 30
1283.479
 70
    32
  0
VERTEX
  8
T39SSILL
 62
6
 10
2755.996
 20
-4964.089
 30
1283.483
 70
    32
  0
VERTEX
  8
T39SSILL
 62
6
 10
2781.110
 20
-4971.583
 30
1283.481
 70
    32
  0
VERTEX
  8
T39SSILL
 62
6
 10
2776.435
 20
-4986.538
 30
1283.477
 70
    32
  0
VERTEX
  8
T39SSILL
 62
6
 10
2784.327
 20
-4988.991
 30
1283.477
 70
    32
  0
VERTEX
  8
T39SSILL
 62
6
 10
2785.117
 20
-4980.290
 30
1283.479
 70
    32
  0
VERTEX
  8
T39SSILL
 62
6
 10
2787.425
 20
-4973.467
 30
1283.480
 70
    32
  0
VERTEX
  8
T39SSILL
 62
6
 10
3436.688
 20
-5167.216
 30
1283.421
 70
    32
  0
VERTEX
  8
T39SSILL
 62
6
 10
3484.847
 20
-5172.001
 30
1283.432
 70
    32
  0
VERTEX
  8
T39SSILL
 62
6
 10
3485.609
 20
-5201.741
 30
1283.477
 70
    32
  0
VERTEX
  8
T39SSILL
 62
6
 10
3493.700
 20
-5201.908
 30
1283.487
 70
    32
  0
VERTEX
  8
T39SSILL
 62
6
 10
3493.108
 20
-5172.786
 30
1283.437
 70
    32
  0
VERTEX
  8
T39SSILL
 62
6
 10
3769.871
 20
-5198.727
 30
1283.613
 70
    32
  0
VERTEX
  8
T39SSILL
 62
6
 10
3790.347
 20
-5226.577
 30
1283.678
 70
    32
  0
VERTEX
  8
T39SSILL
 62
6
 10
3762.404
 20
-5398.343
 30
1284.015
 70
    32
  0
VERTEX
  8
T39SSILL
 62
6
 10
3763.825
 20
-5408.209
 30
1284.031
 70
    32
  0
VERTEX
  8
T39SSILL
 62
6
 10
3767.424
 20
-5415.318
 30
1284.051
 70
    32
  0
VERTEX
  8
T39SSILL
 62
6
 10
3929.728
 20
-5637.515
 30
1284.787
 70
    32
  0
VERTEX
  8
T39SSILL
 62
6
 10
3870.592
 20
-5678.854
 30
1284.534
 70
    32
  0
VERTEX
  8
T39SSILL
 62
6
 10
3858.312
 20
-5677.035
 30
1284.496
 70
    32
  0
VERTEX
  8
T39SSILL
 62
6
 10
3505.057
 20
-5199.315
 30
1283.497
 70
    32
  0
SEQEND
  8
T39SSILL
  0
POLYLINE
  8
T39SSILL
 62
6
 66
     1
 70
     9
  0
VERTEX
  8
T39SSILL
 62
6
 10
3656.461
 20
-7160.863
 30
1284.107
 70
    32
  0
VERTEX
  8
T39SSILL
 62
6
 10
3662.621
 20
-7164.351
 30
1284.102
 70
    32
  0
VERTEX
  8
T39SSILL
 62
6
 10
3679.449
 20
-7169.435
 30
1284.082
 70
    32
  0
VERTEX
  8
T39SSILL
 62
6
 10
3662.070
 20
-7181.718
 30
1284.126
 70
    32
  0
VERTEX
  8
T39SSILL
 62
6
 10
3651.717
 20
-7174.290
 30
1284.133
 70
    32
  0
VERTEX
  8
T39SSILL
 62
6
 10
3648.643
 20
-7168.437
 30
1284.130
 70
    32
  0
VERTEX
  8
T39SSILL
 62
6
 10
3648.552
 20
-7153.142
 30
1284.110
 70
    32
  0
SEQEND
  8
T39SSILL
  0
POLYLINE
  8
T39SSILL
 62
6
 66
     1
 70
     9
  0
VERTEX
  8
T39SSILL
 62
6
 10
4008.833
 20
-6973.307
 30
1284.216
 70
    32
  0
VERTEX
  8
T39SSILL
 62
6
 10
4014.962
 20
-6985.383
 30
1284.217
 70
    32
  0
VERTEX
  8
T39SSILL
 62
6
 10
4004.561
 20
-6990.390
 30
1284.192
 70
    32
  0
VERTEX
  8
T39SSILL
 62
6
 10
4007.241
 20
-6996.867
 30
1284.192
 70
    32
  0
VERTEX
  8
T39SSILL
 62
6
 10
4018.058
 20
-6991.482
 30
1284.218
 70
    32
  0
VERTEX
  8
T39SSILL
 62
6
 10
4024.228
 20
-7003.640
 30
1284.219
 70
    32
  0
VERTEX
  8
T39SSILL
 62
6
 10
4012.626
 20
-7009.255
 30
1284.191
 70
    32
  0
VERTEX
  8
T39SSILL
 62
6
 10
4015.539
 20
-7015.452
 30
1284.191
 70
    32
  0
VERTEX
  8
T39SSILL
 62
6
 10
4027.207
 20
-7009.510
 30
1284.219
 70
    32
  0
VERTEX
  8
T39SSILL
 62
6
 10
4038.234
 20
-7031.235
 30
1284.222
 70
    32
  0
VERTEX
  8
T39SSILL
 62
6
 10
3957.067
 20
-7090.426
 30
1283.989
 70
    32
  0
VERTEX
  8
T39SSILL
 62
6
 10
3943.870
 20
-7088.813
 30
1283.961
 70
    32
  0
VERTEX
  8
T39SSILL
 62
6
 10
3932.359
 20
-7081.371
 30
1283.949
 70
    32
  0
VERTEX
  8
T39SSILL
 62
6
 10
3924.376
 20
-7084.391
 30
1283.924
 70
    32
  0
VERTEX
  8
T39SSILL
 62
6
 10
3927.101
 20
-7091.823
 30
1283.917
 70
    32
  0
VERTEX
  8
T39SSILL
 62
6
 10
3932.530
 20
-7099.351
 30
1283.915
 70
    32
  0
VERTEX
  8
T39SSILL
 62
6
 10
3933.476
 20
-7102.276
 30
1283.912
 70
    32
  0
VERTEX
  8
T39SSILL
 62
6
 10
3932.493
 20
-7108.347
 30
1283.898
 70
    32
  0
VERTEX
  8
T39SSILL
 62
6
 10
3903.331
 20
-7129.613
 30
1283.790
 70
    32
  0
VERTEX
  8
T39SSILL
 62
6
 10
3894.800
 20
-7134.573
 30
1283.760
 70
    32
  0
VERTEX
  8
T39SSILL
 62
6
 10
3883.234
 20
-7137.048
 30
1283.729
 70
    32
  0
VERTEX
  8
T39SSILL
 62
6
 10
3874.240
 20
-7134.667
 30
1283.725
 70
    32
  0
VERTEX
  8
T39SSILL
 62
6
 10
3867.505
 20
-7130.734
 30
1283.731
 70
    32
  0
VERTEX
  8
T39SSILL
 62
6
 10
3861.326
 20
-7123.977
 30
1283.732
 70
    32
  0
VERTEX
  8
T39SSILL
 62
6
 10
3819.935
 20
-7066.974
 30
1283.724
 70
    32
  0
VERTEX
  8
T39SSILL
 62
6
 10
3830.694
 20
-7067.727
 30
1283.738
 70
    32
  0
VERTEX
  8
T39SSILL
 62
6
 10
3837.829
 20
-7066.538
 30
1283.757
 70
    32
  0
VERTEX
  8
T39SSILL
 62
6
 10
3848.664
 20
-7060.980
 30
1283.793
 70
    32
  0
VERTEX
  8
T39SSILL
 62
6
 10
3996.222
 20
-6954.466
 30
1284.208
 70
    32
  0
VERTEX
  8
T39SSILL
 62
6
 10
4000.551
 20
-6956.990
 30
1284.214
 70
    32
  0
VERTEX
  8
T39SSILL
 62
6
 10
4005.843
 20
-6967.417
 30
1284.215
 70
    32
  0
VERTEX
  8
T39SSILL
 62
6
 10
3995.795
 20
-6972.808
 30
1284.191
 70
    32
  0
VERTEX
  8
T39SSILL
 62
6
 10
3998.659
 20
-6978.491
 30
1284.191
 70
    32
  0
SEQEND
  8
T39SSILL
  0
POLYLINE
  8
T39SSILL
 62
6
 66
     1
 70
     9
  0
VERTEX
  8
T39SSILL
 62
6
 10
3987.659
 20
-6934.593
 30
1284.209
 70
    32
  0
VERTEX
  8
T39SSILL
 62
6
 10
3978.568
 20
-6929.409
 30
1284.196
 70
    32
  0
VERTEX
  8
T39SSILL
 62
6
 10
3985.192
 20
-6941.544
 30
1284.198
 70
    32
  0
VERTEX
  8
T39SSILL
 62
6
 10
3979.408
 20
-6943.824
 30
1284.185
 70
    32
  0
VERTEX
  8
T39SSILL
 62
6
 10
3967.899
 20
-6922.664
 30
1284.181
 70
    32
  0
VERTEX
  8
T39SSILL
 62
6
 10
3963.804
 20
-6920.081
 30
1284.175
 70
    32
  0
VERTEX
  8
T39SSILL
 62
6
 10
3961.910
 20
-6912.586
 30
1284.178
 70
    32
  0
VERTEX
  8
T39SSILL
 62
6
 10
3955.655
 20
-6902.593
 30
1284.175
 70
    32
  0
VERTEX
  8
T39SSILL
 62
6
 10
3951.746
 20
-6897.130
 30
1284.172
 70
    32
  0
VERTEX
  8
T39SSILL
 62
6
 10
3943.458
 20
-6890.937
 30
1284.162
 70
    32
  0
VERTEX
  8
T39SSILL
 62
6
 10
3947.379
 20
-6885.528
 30
1284.175
 70
    32
  0
VERTEX
  8
T39SSILL
 62
6
 10
3955.342
 20
-6890.534
 30
1284.185
 70
    32
  0
VERTEX
  8
T39SSILL
 62
6
 10
3959.757
 20
-6891.016
 30
1284.194
 70
    32
  0
VERTEX
  8
T39SSILL
 62
6
 10
3967.707
 20
-6889.561
 30
1284.210
 70
    32
  0
VERTEX
  8
T39SSILL
 62
6
 10
3956.291
 20
-6866.023
 30
1284.215
 70
    32
  0
VERTEX
  8
T39SSILL
 62
6
 10
3902.287
 20
-6904.732
 30
1284.073
 70
    32
  0
VERTEX
  8
T39SSILL
 62
6
 10
3901.207
 20
-6915.989
 30
1284.057
 70
    32
  0
VERTEX
  8
T39SSILL
 62
6
 10
3905.787
 20
-6921.617
 30
1284.060
 70
    32
  0
VERTEX
  8
T39SSILL
 62
6
 10
3905.778
 20
-6924.587
 30
1284.057
 70
    32
  0
VERTEX
  8
T39SSILL
 62
6
 10
3893.608
 20
-6933.102
 30
1284.025
 70
    32
  0
VERTEX
  8
T39SSILL
 62
6
 10
3891.782
 20
-6935.543
 30
1284.020
 70
    32
  0
VERTEX
  8
T39SSILL
 62
6
 10
3880.439
 20
-6940.707
 30
1283.993
 70
    32
  0
VERTEX
  8
T39SSILL
 62
6
 10
3874.862
 20
-6941.628
 30
1283.981
 70
    32
  0
VERTEX
  8
T39SSILL
 62
6
 10
3868.448
 20
-6939.324
 30
1283.971
 70
    32
  0
VERTEX
  8
T39SSILL
 62
6
 10
3864.713
 20
-6936.037
 30
1283.968
 70
    32
  0
VERTEX
  8
T39SSILL
 62
6
 10
3854.787
 20
-6938.779
 30
1283.948
 70
    32
  0
VERTEX
  8
T39SSILL
 62
6
 10
3788.863
 20
-6985.370
 30
1283.775
 70
    32
  0
VERTEX
  8
T39SSILL
 62
6
 10
3775.763
 20
-6989.192
 30
1283.747
 70
    32
  0
VERTEX
  8
T39SSILL
 62
6
 10
3768.831
 20
-6989.464
 30
1283.735
 70
    32
  0
VERTEX
  8
T39SSILL
 62
6
 10
3763.521
 20
-6988.213
 30
1283.727
 70
    32
  0
VERTEX
  8
T39SSILL
 62
6
 10
3810.896
 20
-7054.093
 30
1283.721
 70
    32
  0
VERTEX
  8
T39SSILL
 62
6
 10
3817.948
 20
-7058.011
 30
1283.727
 70
    32
  0
VERTEX
  8
T39SSILL
 62
6
 10
3825.864
 20
-7060.417
 30
1283.741
 70
    32
  0
VERTEX
  8
T39SSILL
 62
6
 10
3833.912
 20
-7059.872
 30
1283.760
 70
    32
  0
VERTEX
  8
T39SSILL
 62
6
 10
3845.560
 20
-7054.375
 30
1283.798
 70
    32
  0
VERTEX
  8
T39SSILL
 62
6
 10
3974.868
 20
-6960.771
 30
1284.160
 70
    32
  0
VERTEX
  8
T39SSILL
 62
6
 10
3984.143
 20
-6951.752
 30
1284.187
 70
    32
  0
VERTEX
  8
T39SSILL
 62
6
 10
3987.509
 20
-6943.351
 30
1284.201
 70
    32
  0
SEQEND
  8
T39SSILL
  0
POLYLINE
  8
T39SSILL
 62
6
 66
     1
 70
     9
  0
VERTEX
  8
T39SSILL
 62
6
 10
3479.564
 20
-6732.045
 30
1283.880
 70
    32
  0
VERTEX
  8
T39SSILL
 62
6
 10
3505.105
 20
-6713.577
 30
1283.815
 70
    32
  0
VERTEX
  8
T39SSILL
 62
6
 10
3509.276
 20
-6709.844
 30
1283.803
 70
    32
  0
VERTEX
  8
T39SSILL
 62
6
 10
3514.148
 20
-6702.737
 30
1283.786
 70
    32
  0
VERTEX
  8
T39SSILL
 62
6
 10
3517.595
 20
-6694.593
 30
1283.771
 70
    32
  0
VERTEX
  8
T39SSILL
 62
6
 10
3520.244
 20
-6676.269
 30
1283.744
 70
    32
  0
VERTEX
  8
T39SSILL
 62
6
 10
3519.677
 20
-6665.809
 30
1283.732
 70
    32
  0
VERTEX
  8
T39SSILL
 62
6
 10
3516.678
 20
-6656.372
 30
1283.726
 70
    32
  0
VERTEX
  8
T39SSILL
 62
6
 10
3472.460
 20
-6596.221
 30
1283.724
 70
    32
  0
VERTEX
  8
T39SSILL
 62
6
 10
3472.416
 20
-6609.879
 30
1283.744
 70
    32
  0
VERTEX
  8
T39SSILL
 62
6
 10
3469.268
 20
-6620.219
 30
1283.762
 70
    32
  0
VERTEX
  8
T39SSILL
 62
6
 10
3464.738
 20
-6630.920
 30
1283.783
 70
    32
  0
VERTEX
  8
T39SSILL
 62
6
 10
3455.981
 20
-6640.651
 30
1283.810
 70
    32
  0
VERTEX
  8
T39SSILL
 62
6
 10
3467.887
 20
-6655.464
 30
1283.807
 70
    32
  0
VERTEX
  8
T39SSILL
 62
6
 10
3471.542
 20
-6671.527
 30
1283.821
 70
    32
  0
VERTEX
  8
T39SSILL
 62
6
 10
3467.523
 20
-6682.799
 30
1283.841
 70
    32
  0
VERTEX
  8
T39SSILL
 62
6
 10
3470.597
 20
-6700.164
 30
1283.857
 70
    32
  0
VERTEX
  8
T39SSILL
 62
6
 10
3476.006
 20
-6715.929
 30
1283.867
 70
    32
  0
SEQEND
  8
T39SSILL
  0
POLYLINE
  8
T39SSILL
 62
6
 66
     1
 70
     9
  0
VERTEX
  8
T39SSILL
 62
6
 10
3416.265
 20
-6553.107
 30
1283.792
 70
    32
  0
VERTEX
  8
T39SSILL
 62
6
 10
3429.990
 20
-6563.767
 30
1283.775
 70
    32
  0
VERTEX
  8
T39SSILL
 62
6
 10
3427.616
 20
-6567.259
 30
1283.776
 70
    32
  0
VERTEX
  8
T39SSILL
 62
6
 10
3431.662
 20
-6573.831
 30
1283.770
 70
    32
  0
VERTEX
  8
T39SSILL
 62
6
 10
3421.913
 20
-6588.203
 30
1283.772
 70
    32
  0
VERTEX
  8
T39SSILL
 62
6
 10
3420.055
 20
-6596.140
 30
1283.770
 70
    32
  0
VERTEX
  8
T39SSILL
 62
6
 10
3431.505
 20
-6612.521
 30
1283.753
 70
    32
  0
VERTEX
  8
T39SSILL
 62
6
 10
3438.051
 20
-6626.247
 30
1283.765
 70
    32
  0
VERTEX
  8
T39SSILL
 62
6
 10
3444.286
 20
-6626.831
 30
1283.778
 70
    32
  0
VERTEX
  8
T39SSILL
 62
6
 10
3447.743
 20
-6624.519
 30
1283.776
 70
    32
  0
VERTEX
  8
T39SSILL
 62
6
 10
3453.111
 20
-6633.180
 30
1283.805
 70
    32
  0
VERTEX
  8
T39SSILL
 62
6
 10
3459.371
 20
-6625.426
 30
1283.785
 70
    32
  0
VERTEX
  8
T39SSILL
 62
6
 10
3464.047
 20
-6616.266
 30
1283.766
 70
    32
  0
VERTEX
  8
T39SSILL
 62
6
 10
3465.688
 20
-6602.091
 30
1283.727
 70
    32
  0
VERTEX
  8
T39SSILL
 62
6
 10
3464.098
 20
-6589.199
 30
1283.734
 70
    32
  0
VERTEX
  8
T39SSILL
 62
6
 10
3460.008
 20
-6579.027
 30
1283.742
 70
    32
  0
VERTEX
  8
T39SSILL
 62
6
 10
3417.795
 20
-6520.256
 30
1283.805
 70
    32
  0
VERTEX
  8
T39SSILL
 62
6
 10
3415.851
 20
-6536.851
 30
1283.799
 70
    32
  0
VERTEX
  8
T39SSILL
 62
6
 10
3411.816
 20
-6547.638
 30
1283.798
 70
    32
  0
SEQEND
  8
T39SSILL
  0
POLYLINE
  8
T39SSILL
 62
6
 66
     1
 70
     9
  0
VERTEX
  8
T39SSILL
 62
6
 10
3071.316
 20
-6339.986
 30
1284.139
 70
    32
  0
VERTEX
  8
T39SSILL
 62
6
 10
3070.921
 20
-6337.895
 30
1284.140
 70
    32
  0
VERTEX
  8
T39SSILL
 62
6
 10
3077.966
 20
-6327.554
 30
1284.139
 70
    32
  0
VERTEX
  8
T39SSILL
 62
6
 10
3100.147
 20
-6311.822
 30
1284.132
 70
    32
  0
VERTEX
  8
T39SSILL
 62
6
 10
3053.746
 20
-6447.262
 30
1284.121
 70
    32
  0
VERTEX
  8
T39SSILL
 62
6
 10
2879.138
 20
-6573.496
 30
1284.210
 70
    32
  0
VERTEX
  8
T39SSILL
 62
6
 10
2870.476
 20
-6572.069
 30
1284.241
 70
    32
  0
VERTEX
  8
T39SSILL
 62
6
 10
2861.754
 20
-6567.418
 30
1284.272
 70
    32
  0
VERTEX
  8
T39SSILL
 62
6
 10
2856.255
 20
-6561.511
 30
1284.289
 70
    32
  0
VERTEX
  8
T39SSILL
 62
6
 10
2800.835
 20
-6457.550
 30
1284.442
 70
    32
  0
VERTEX
  8
T39SSILL
 62
6
 10
2749.060
 20
-6401.686
 30
1284.606
 70
    32
  0
VERTEX
  8
T39SSILL
 62
6
 10
2742.938
 20
-6390.133
 30
1284.623
 70
    32
  0
VERTEX
  8
T39SSILL
 62
6
 10
2744.244
 20
-6373.826
 30
1284.609
 70
    32
  0
VERTEX
  8
T39SSILL
 62
6
 10
2741.270
 20
-6367.496
 30
1284.617
 70
    32
  0
VERTEX
  8
T39SSILL
 62
6
 10
2635.516
 20
-6260.968
 30
1284.958
 70
    32
  0
VERTEX
  8
T39SSILL
 62
6
 10
2628.524
 20
-6244.930
 30
1284.975
 70
    32
  0
VERTEX
  8
T39SSILL
 62
6
 10
2627.049
 20
-6217.469
 30
1284.966
 70
    32
  0
VERTEX
  8
T39SSILL
 62
6
 10
2634.492
 20
-6198.220
 30
1284.928
 70
    32
  0
VERTEX
  8
T39SSILL
 62
6
 10
2692.700
 20
-6178.392
 30
1284.698
 70
    32
  0
VERTEX
  8
T39SSILL
 62
6
 10
2695.241
 20
-6185.473
 30
1284.692
 70
    32
  0
VERTEX
  8
T39SSILL
 62
6
 10
2699.552
 20
-6185.710
 30
1284.676
 70
    32
  0
VERTEX
  8
T39SSILL
 62
6
 10
2698.189
 20
-6176.357
 30
1284.676
 70
    32
  0
VERTEX
  8
T39SSILL
 62
6
 10
2893.985
 20
-6110.499
 30
1283.699
 70
    32
  0
VERTEX
  8
T39SSILL
 62
6
 10
2946.127
 20
-6072.761
 30
1283.499
 70
    32
  0
VERTEX
  8
T39SSILL
 62
6
 10
3031.000
 20
-6008.000
 30
1283.626
 70
    32
  0
VERTEX
  8
T39SSILL
 62
6
 10
3038.000
 20
-5994.000
 30
1283.640
 70
    32
  0
VERTEX
  8
T39SSILL
 62
6
 10
3038.000
 20
-5989.000
 30
1283.642
 70
    32
  0
VERTEX
  8
T39SSILL
 62
6
 10
3085.000
 20
-6054.000
 30
1283.666
 70
    32
  0
VERTEX
  8
T39SSILL
 62
6
 10
3086.000
 20
-6070.000
 30
1283.657
 70
    32
  0
VERTEX
  8
T39SSILL
 62
6
 10
3078.000
 20
-6085.000
 30
1283.639
 70
    32
  0
VERTEX
  8
T39SSILL
 62
6
 10
2982.000
 20
-6153.000
 30
1283.758
 70
    32
  0
VERTEX
  8
T39SSILL
 62
6
 10
2978.000
 20
-6150.000
 30
1283.746
 70
    32
  0
VERTEX
  8
T39SSILL
 62
6
 10
2974.000
 20
-6150.000
 30
1283.759
 70
    32
  0
VERTEX
  8
T39SSILL
 62
6
 10
2969.000
 20
-6148.000
 30
1283.759
 70
    32
  0
VERTEX
  8
T39SSILL
 62
6
 10
2961.000
 20
-6151.000
 30
1283.811
 70
    32
  0
VERTEX
  8
T39SSILL
 62
6
 10
2941.000
 20
-6163.000
 30
1283.979
 70
    32
  0
VERTEX
  8
T39SSILL
 62
6
 10
2945.000
 20
-6171.000
 30
1284.033
 70
    32
  0
VERTEX
  8
T39SSILL
 62
6
 10
2944.000
 20
-6174.000
 30
1284.062
 70
    32
  0
VERTEX
  8
T39SSILL
 62
6
 10
2935.000
 20
-6179.000
 30
1284.192
 70
    32
  0
VERTEX
  8
T39SSILL
 62
6
 10
2928.000
 20
-6185.000
 30
1284.249
 70
    32
  0
VERTEX
  8
T39SSILL
 62
6
 10
2931.000
 20
-6191.000
 30
1284.246
 70
    32
  0
VERTEX
  8
T39SSILL
 62
6
 10
2845.000
 20
-6252.000
 30
1284.273
 70
    32
  0
VERTEX
  8
T39SSILL
 62
6
 10
2850.000
 20
-6258.000
 30
1284.269
 70
    32
  0
VERTEX
  8
T39SSILL
 62
6
 10
2912.000
 20
-6214.000
 30
1284.250
 70
    32
  0
VERTEX
  8
T39SSILL
 62
6
 10
2910.000
 20
-6219.000
 30
1284.249
 70
    32
  0
VERTEX
  8
T39SSILL
 62
6
 10
2914.000
 20
-6224.000
 30
1284.246
 70
    32
  0
VERTEX
  8
T39SSILL
 62
6
 10
2912.000
 20
-6231.000
 30
1284.245
 70
    32
  0
VERTEX
  8
T39SSILL
 62
6
 10
2913.000
 20
-6240.000
 30
1284.243
 70
    32
  0
VERTEX
  8
T39SSILL
 62
6
 10
2920.000
 20
-6250.000
 30
1284.237
 70
    32
  0
VERTEX
  8
T39SSILL
 62
6
 10
2933.000
 20
-6254.000
 30
1284.229
 70
    32
  0
VERTEX
  8
T39SSILL
 62
6
 10
2940.000
 20
-6267.000
 30
1284.222
 70
    32
  0
VERTEX
  8
T39SSILL
 62
6
 10
2949.000
 20
-6294.000
 30
1284.211
 70
    32
  0
VERTEX
  8
T39SSILL
 62
6
 10
2900.000
 20
-6330.000
 30
1284.226
 70
    32
  0
VERTEX
  8
T39SSILL
 62
6
 10
2904.000
 20
-6336.000
 30
1284.223
 70
    32
  0
VERTEX
  8
T39SSILL
 62
6
 10
2952.000
 20
-6302.000
 30
1284.208
 70
    32
  0
VERTEX
  8
T39SSILL
 62
6
 10
2958.000
 20
-6309.000
 30
1284.203
 70
    32
  0
VERTEX
  8
T39SSILL
 62
6
 10
2955.000
 20
-6314.000
 30
1284.203
 70
    32
  0
VERTEX
  8
T39SSILL
 62
6
 10
2954.000
 20
-6319.000
 30
1284.203
 70
    32
  0
VERTEX
  8
T39SSILL
 62
6
 10
2955.000
 20
-6327.000
 30
1284.200
 70
    32
  0
VERTEX
  8
T39SSILL
 62
6
 10
2959.000
 20
-6334.000
 30
1284.196
 70
    32
  0
VERTEX
  8
T39SSILL
 62
6
 10
2964.000
 20
-6338.000
 30
1284.193
 70
    32
  0
VERTEX
  8
T39SSILL
 62
6
 10
2968.000
 20
-6339.000
 30
1284.191
 70
    32
  0
VERTEX
  8
T39SSILL
 62
6
 10
3000.000
 20
-6319.000
 30
1284.180
 70
    32
  0
VERTEX
  8
T39SSILL
 62
6
 10
3003.000
 20
-6316.000
 30
1284.179
 70
    32
  0
VERTEX
  8
T39SSILL
 62
6
 10
3007.000
 20
-6315.000
 30
1284.177
 70
    32
  0
VERTEX
  8
T39SSILL
 62
6
 10
3008.000
 20
-6311.000
 30
1284.178
 70
    32
  0
VERTEX
  8
T39SSILL
 62
6
 10
3006.000
 20
-6311.000
 30
1284.179
 70
    32
  0
VERTEX
  8
T39SSILL
 62
6
 10
3006.000
 20
-6306.000
 30
1284.180
 70
    32
  0
VERTEX
  8
T39SSILL
 62
6
 10
3000.000
 20
-6289.000
 30
1284.187
 70
    32
  0
VERTEX
  8
T39SSILL
 62
6
 10
2992.000
 20
-6277.000
 30
1284.194
 70
    32
  0
VERTEX
  8
T39SSILL
 62
6
 10
2993.000
 20
-6271.000
 30
1284.195
 70
    32
  0
VERTEX
  8
T39SSILL
 62
6
 10
3120.240
 20
-6179.492
 30
1283.626
 70
    32
  0
VERTEX
  8
T39SSILL
 62
6
 10
3124.304
 20
-6185.685
 30
1283.627
 70
    32
  0
VERTEX
  8
T39SSILL
 62
6
 10
3129.810
 20
-6182.161
 30
1283.635
 70
    32
  0
VERTEX
  8
T39SSILL
 62
6
 10
3125.656
 20
-6175.597
 30
1283.635
 70
    32
  0
VERTEX
  8
T39SSILL
 62
6
 10
3139.000
 20
-6166.000
 30
1283.656
 70
    32
  0
VERTEX
  8
T39SSILL
 62
6
 10
3144.000
 20
-6160.000
 30
1283.665
 70
    32
  0
VERTEX
  8
T39SSILL
 62
6
 10
3149.000
 20
-6144.000
 30
1283.680
 70
    32
  0
VERTEX
  8
T39SSILL
 62
6
 10
3153.158
 20
-6149.983
 30
1283.681
 70
    32
  0
VERTEX
  8
T39SSILL
 62
6
 10
3104.338
 20
-6299.591
 30
1284.133
 70
    32
  0
VERTEX
  8
T39SSILL
 62
6
 10
3044.104
 20
-6343.090
 30
1284.152
 70
    32
  0
VERTEX
  8
T39SSILL
 62
6
 10
3034.659
 20
-6336.707
 30
1284.158
 70
    32
  0
VERTEX
  8
T39SSILL
 62
6
 10
3031.075
 20
-6339.876
 30
1284.159
 70
    32
  0
VERTEX
  8
T39SSILL
 62
6
 10
3029.757
 20
-6343.818
 30
1284.159
 70
    32
  0
VERTEX
  8
T39SSILL
 62
6
 10
3022.731
 20
-6352.961
 30
1284.160
 70
    32
  0
VERTEX
  8
T39SSILL
 62
6
 10
3021.043
 20
-6352.857
 30
1284.161
 70
    32
  0
VERTEX
  8
T39SSILL
 62
6
 10
3012.582
 20
-6362.257
 30
1284.163
 70
    32
  0
VERTEX
  8
T39SSILL
 62
6
 10
3008.677
 20
-6364.358
 30
1284.164
 70
    32
  0
VERTEX
  8
T39SSILL
 62
6
 10
2993.479
 20
-6350.718
 30
1284.175
 70
    32
  0
VERTEX
  8
T39SSILL
 62
6
 10
2989.243
 20
-6350.360
 30
1284.177
 70
    32
  0
VERTEX
  8
T39SSILL
 62
6
 10
2981.201
 20
-6356.988
 30
1284.180
 70
    32
  0
VERTEX
  8
T39SSILL
 62
6
 10
2978.756
 20
-6356.879
 30
1284.181
 70
    32
  0
VERTEX
  8
T39SSILL
 62
6
 10
2976.267
 20
-6362.829
 30
1284.181
 70
    32
  0
VERTEX
  8
T39SSILL
 62
6
 10
2963.501
 20
-6370.089
 30
1284.185
 70
    32
  0
VERTEX
  8
T39SSILL
 62
6
 10
2963.618
 20
-6376.683
 30
1284.183
 70
    32
  0
VERTEX
  8
T39SSILL
 62
6
 10
2965.184
 20
-6379.673
 30
1284.182
 70
    32
  0
VERTEX
  8
T39SSILL
 62
6
 10
2967.670
 20
-6381.369
 30
1284.180
 70
    32
  0
VERTEX
  8
T39SSILL
 62
6
 10
2969.593
 20
-6385.939
 30
1284.178
 70
    32
  0
VERTEX
  8
T39SSILL
 62
6
 10
2971.788
 20
-6386.763
 30
1284.177
 70
    32
  0
VERTEX
  8
T39SSILL
 62
6
 10
2974.090
 20
-6384.066
 30
1284.176
 70
    32
  0
VERTEX
  8
T39SSILL
 62
6
 10
2982.089
 20
-6380.591
 30
1284.173
 70
    32
  0
VERTEX
  8
T39SSILL
 62
6
 10
2985.186
 20
-6384.226
 30
1284.171
 70
    32
  0
VERTEX
  8
T39SSILL
 62
6
 10
2988.467
 20
-6383.533
 30
1284.169
 70
    32
  0
VERTEX
  8
T39SSILL
 62
6
 10
2990.958
 20
-6387.379
 30
1284.167
 70
    32
  0
VERTEX
  8
T39SSILL
 62
6
 10
3007.948
 20
-6376.177
 30
1284.162
 70
    32
  0
VERTEX
  8
T39SSILL
 62
6
 10
3013.755
 20
-6384.582
 30
1284.157
 70
    32
  0
VERTEX
  8
T39SSILL
 62
6
 10
3035.738
 20
-6394.094
 30
1284.143
 70
    32
  0
VERTEX
  8
T39SSILL
 62
6
 10
3037.125
 20
-6391.933
 30
1284.143
 70
    32
  0
VERTEX
  8
T39SSILL
 62
6
 10
3036.616
 20
-6375.602
 30
1284.147
 70
    32
  0
VERTEX
  8
T39SSILL
 62
6
 10
3029.404
 20
-6370.555
 30
1284.152
 70
    32
  0
VERTEX
  8
T39SSILL
 62
6
 10
3028.497
 20
-6368.501
 30
1284.153
 70
    32
  0
VERTEX
  8
T39SSILL
 62
6
 10
3032.864
 20
-6360.475
 30
1284.153
 70
    32
  0
VERTEX
  8
T39SSILL
 62
6
 10
3046.304
 20
-6351.879
 30
1284.149
 70
    32
  0
VERTEX
  8
T39SSILL
 62
6
 10
3059.326
 20
-6348.961
 30
1284.143
 70
    32
  0
VERTEX
  8
T39SSILL
 62
6
 10
3066.162
 20
-6344.905
 30
1284.141
 70
    32
  0
SEQEND
  8
T39SSILL
  0
POLYLINE
  8
T39SSILL
 62
6
 66
     1
 70
     9
  0
VERTEX
  8
T39SSILL
 62
6
 10
3164.572
 20
-6166.409
 30
1283.684
 70
    32
  0
VERTEX
  8
T39SSILL
 62
6
 10
3195.000
 20
-6211.000
 30
1283.689
 70
    32
  0
VERTEX
  8
T39SSILL
 62
6
 10
3196.000
 20
-6222.000
 30
1283.683
 70
    32
  0
VERTEX
  8
T39SSILL
 62
6
 10
3194.000
 20
-6230.000
 30
1283.699
 70
    32
  0
VERTEX
  8
T39SSILL
 62
6
 10
3189.609
 20
-6238.011
 30
1283.877
 70
    32
  0
VERTEX
  8
T39SSILL
 62
6
 10
3124.493
 20
-6285.036
 30
1284.127
 70
    32
  0
VERTEX
  8
T39SSILL
 62
6
 10
3158.974
 20
-6183.763
 30
1283.667
 70
    32
  0
SEQEND
  8
T39SSILL
  0
POLYLINE
  8
T39SSILL
 62
6
 66
     1
 70
     9
  0
VERTEX
  8
T39SSILL
 62
6
 10
3235.751
 20
-6318.086
 30
1284.052
 70
    32
  0
VERTEX
  8
T39SSILL
 62
6
 10
3228.037
 20
-6313.757
 30
1284.060
 70
    32
  0
VERTEX
  8
T39SSILL
 62
6
 10
3223.548
 20
-6316.606
 30
1284.063
 70
    32
  0
VERTEX
  8
T39SSILL
 62
6
 10
3219.795
 20
-6321.656
 30
1284.064
 70
    32
  0
VERTEX
  8
T39SSILL
 62
6
 10
3207.631
 20
-6307.441
 30
1284.080
 70
    32
  0
VERTEX
  8
T39SSILL
 62
6
 10
3203.029
 20
-6309.387
 30
1284.082
 70
    32
  0
VERTEX
  8
T39SSILL
 62
6
 10
3207.139
 20
-6317.993
 30
1284.077
 70
    32
  0
VERTEX
  8
T39SSILL
 62
6
 10
3203.038
 20
-6317.929
 30
1284.080
 70
    32
  0
VERTEX
  8
T39SSILL
 62
6
 10
3195.882
 20
-6322.074
 30
1284.082
 70
    32
  0
VERTEX
  8
T39SSILL
 62
6
 10
3189.265
 20
-6322.317
 30
1284.085
 70
    32
  0
VERTEX
  8
T39SSILL
 62
6
 10
3175.381
 20
-6330.294
 30
1284.090
 70
    32
  0
VERTEX
  8
T39SSILL
 62
6
 10
3173.421
 20
-6333.154
 30
1284.090
 70
    32
  0
VERTEX
  8
T39SSILL
 62
6
 10
3170.846
 20
-6338.766
 30
1284.090
 70
    32
  0
VERTEX
  8
T39SSILL
 62
6
 10
3171.443
 20
-6342.274
 30
1284.089
 70
    32
  0
VERTEX
  8
T39SSILL
 62
6
 10
3176.567
 20
-6348.822
 30
1284.085
 70
    32
  0
VERTEX
  8
T39SSILL
 62
6
 10
3176.281
 20
-6350.675
 30
1284.085
 70
    32
  0
VERTEX
  8
T39SSILL
 62
6
 10
3175.107
 20
-6351.316
 30
1284.085
 70
    32
  0
VERTEX
  8
T39SSILL
 62
6
 10
3171.703
 20
-6359.837
 30
1284.085
 70
    32
  0
VERTEX
  8
T39SSILL
 62
6
 10
3162.298
 20
-6371.985
 30
1284.086
 70
    32
  0
VERTEX
  8
T39SSILL
 62
6
 10
3163.881
 20
-6373.837
 30
1284.085
 70
    32
  0
VERTEX
  8
T39SSILL
 62
6
 10
3144.816
 20
-6387.693
 30
1284.091
 70
    32
  0
VERTEX
  8
T39SSILL
 62
6
 10
3141.454
 20
-6383.864
 30
1284.094
 70
    32
  0
VERTEX
  8
T39SSILL
 62
6
 10
3138.318
 20
-6382.950
 30
1284.095
 70
    32
  0
VERTEX
  8
T39SSILL
 62
6
 10
3134.808
 20
-6386.087
 30
1284.096
 70
    32
  0
VERTEX
  8
T39SSILL
 62
6
 10
3130.937
 20
-6386.884
 30
1284.098
 70
    32
  0
VERTEX
  8
T39SSILL
 62
6
 10
3128.352
 20
-6389.799
 30
1284.099
 70
    32
  0
VERTEX
  8
T39SSILL
 62
6
 10
3127.781
 20
-6400.074
 30
1284.096
 70
    32
  0
VERTEX
  8
T39SSILL
 62
6
 10
3072.711
 20
-6440.100
 30
1284.113
 70
    32
  0
VERTEX
  8
T39SSILL
 62
6
 10
3120.220
 20
-6297.586
 30
1284.126
 70
    32
  0
VERTEX
  8
T39SSILL
 62
6
 10
3152.095
 20
-6274.979
 30
1284.116
 70
    32
  0
VERTEX
  8
T39SSILL
 62
6
 10
3156.000
 20
-6280.000
 30
1284.112
 70
    32
  0
VERTEX
  8
T39SSILL
 62
6
 10
3162.000
 20
-6275.000
 30
1284.111
 70
    32
  0
VERTEX
  8
T39SSILL
 62
6
 10
3158.949
 20
-6270.118
 30
1284.113
 70
    32
  0
VERTEX
  8
T39SSILL
 62
6
 10
3194.114
 20
-6245.178
 30
1284.071
 70
    32
  0
VERTEX
  8
T39SSILL
 62
6
 10
3200.000
 20
-6234.000
 30
1283.712
 70
    32
  0
VERTEX
  8
T39SSILL
 62
6
 10
3204.000
 20
-6221.000
 30
1283.693
 70
    32
  0
VERTEX
  8
T39SSILL
 62
6
 10
3232.660
 20
-6261.602
 30
1284.078
 70
    32
  0
VERTEX
  8
T39SSILL
 62
6
 10
3229.386
 20
-6268.166
 30
1284.079
 70
    32
  0
VERTEX
  8
T39SSILL
 62
6
 10
3227.787
 20
-6279.748
 30
1284.075
 70
    32
  0
VERTEX
  8
T39SSILL
 62
6
 10
3228.523
 20
-6288.085
 30
1284.071
 70
    32
  0
VERTEX
  8
T39SSILL
 62
6
 10
3231.984
 20
-6294.756
 30
1284.065
 70
    32
  0
VERTEX
  8
T39SSILL
 62
6
 10
3236.624
 20
-6300.344
 30
1284.059
 70
    32
  0
VERTEX
  8
T39SSILL
 62
6
 10
3241.950
 20
-6302.559
 30
1284.053
 70
    32
  0
VERTEX
  8
T39SSILL
 62
6
 10
3236.515
 20
-6316.360
 30
1284.052
 70
    32
  0
SEQEND
  8
T39SSILL
  0
POLYLINE
  8
T39SSILL
 62
6
 66
     1
 70
     9
  0
VERTEX
  8
T39SSILL
 62
6
 10
3384.020
 20
-6462.233
 30
1283.859
 70
    32
  0
VERTEX
  8
T39SSILL
 62
6
 10
3389.458
 20
-6458.713
 30
1283.855
 70
    32
  0
VERTEX
  8
T39SSILL
 62
6
 10
3383.676
 20
-6450.789
 30
1283.863
 70
    32
  0
VERTEX
  8
T39SSILL
 62
6
 10
3378.496
 20
-6454.390
 30
1283.867
 70
    32
  0
VERTEX
  8
T39SSILL
 62
6
 10
3373.605
 20
-6447.446
 30
1283.874
 70
    32
  0
VERTEX
  8
T39SSILL
 62
6
 10
3385.100
 20
-6449.157
 30
1283.862
 70
    32
  0
VERTEX
  8
T39SSILL
 62
6
 10
3396.238
 20
-6446.593
 30
1283.853
 70
    32
  0
VERTEX
  8
T39SSILL
 62
6
 10
3448.199
 20
-6410.782
 30
1283.829
 70
    32
  0
VERTEX
  8
T39SSILL
 62
6
 10
3454.170
 20
-6418.883
 30
1283.829
 70
    32
  0
VERTEX
  8
T39SSILL
 62
6
 10
3468.692
 20
-6428.832
 30
1283.835
 70
    32
  0
VERTEX
  8
T39SSILL
 62
6
 10
3483.328
 20
-6433.373
 30
1283.845
 70
    32
  0
VERTEX
  8
T39SSILL
 62
6
 10
3499.268
 20
-6429.831
 30
1283.863
 70
    32
  0
VERTEX
  8
T39SSILL
 62
6
 10
3503.525
 20
-6422.282
 30
1283.872
 70
    32
  0
VERTEX
  8
T39SSILL
 62
6
 10
3497.691
 20
-6407.414
 30
1283.878
 70
    32
  0
VERTEX
  8
T39SSILL
 62
6
 10
3499.161
 20
-6397.210
 30
1283.886
 70
    32
  0
VERTEX
  8
T39SSILL
 62
6
 10
3501.790
 20
-6392.780
 30
1283.892
 70
    32
  0
VERTEX
  8
T39SSILL
 62
6
 10
3507.930
 20
-6419.610
 30
1283.878
 70
    32
  0
VERTEX
  8
T39SSILL
 62
6
 10
3514.361
 20
-6430.146
 30
1283.876
 70
    32
  0
VERTEX
  8
T39SSILL
 62
6
 10
3512.784
 20
-6436.551
 30
1283.870
 70
    32
  0
VERTEX
  8
T39SSILL
 62
6
 10
3513.102
 20
-6440.189
 30
1283.868
 70
    32
  0
VERTEX
  8
T39SSILL
 62
6
 10
3516.340
 20
-6448.267
 30
1283.865
 70
    32
  0
VERTEX
  8
T39SSILL
 62
6
 10
3505.521
 20
-6465.443
 30
1283.842
 70
    32
  0
VERTEX
  8
T39SSILL
 62
6
 10
3504.915
 20
-6471.667
 30
1283.837
 70
    32
  0
VERTEX
  8
T39SSILL
 62
6
 10
3506.184
 20
-6477.592
 30
1283.834
 70
    32
  0
VERTEX
  8
T39SSILL
 62
6
 10
3452.616
 20
-6516.613
 30
1283.772
 70
    32
  0
VERTEX
  8
T39SSILL
 62
6
 10
3447.115
 20
-6519.008
 30
1283.777
 70
    32
  0
VERTEX
  8
T39SSILL
 62
6
 10
3438.569
 20
-6520.605
 30
1283.785
 70
    32
  0
VERTEX
  8
T39SSILL
 62
6
 10
3432.222
 20
-6519.982
 30
1283.791
 70
    32
  0
VERTEX
  8
T39SSILL
 62
6
 10
3422.074
 20
-6515.367
 30
1283.803
 70
    32
  0
VERTEX
  8
T39SSILL
 62
6
 10
3418.964
 20
-6511.848
 30
1283.807
 70
    32
  0
SEQEND
  8
T39SSILL
  0
POLYLINE
  8
T39SSILL
 62
6
 66
     1
 70
     9
  0
VERTEX
  8
T39SSILL
 62
6
 10
3363.773
 20
-6321.129
 30
1283.929
 70
    32
  0
VERTEX
  8
T39SSILL
 62
6
 10
3341.308
 20
-6276.470
 30
1283.967
 70
    32
  0
VERTEX
  8
T39SSILL
 62
6
 10
3331.248
 20
-6264.271
 30
1283.981
 70
    32
  0
VERTEX
  8
T39SSILL
 62
6
 10
3322.376
 20
-6270.530
 30
1283.988
 70
    32
  0
VERTEX
  8
T39SSILL
 62
6
 10
3325.859
 20
-6275.738
 30
1283.983
 70
    32
  0
VERTEX
  8
T39SSILL
 62
6
 10
3320.696
 20
-6279.290
 30
1283.986
 70
    32
  0
VERTEX
  8
T39SSILL
 62
6
 10
3317.255
 20
-6274.143
 30
1283.992
 70
    32
  0
VERTEX
  8
T39SSILL
 62
6
 10
3308.101
 20
-6280.601
 30
1283.998
 70
    32
  0
VERTEX
  8
T39SSILL
 62
6
 10
3310.573
 20
-6284.087
 30
1283.995
 70
    32
  0
VERTEX
  8
T39SSILL
 62
6
 10
3306.190
 20
-6287.519
 30
1283.998
 70
    32
  0
VERTEX
  8
T39SSILL
 62
6
 10
3303.454
 20
-6283.879
 30
1284.002
 70
    32
  0
VERTEX
  8
T39SSILL
 62
6
 10
3290.143
 20
-6293.270
 30
1284.011
 70
    32
  0
VERTEX
  8
T39SSILL
 62
6
 10
3283.476
 20
-6295.616
 30
1284.017
 70
    32
  0
VERTEX
  8
T39SSILL
 62
6
 10
3285.625
 20
-6303.072
 30
1284.012
 70
    32
  0
VERTEX
  8
T39SSILL
 62
6
 10
3287.667
 20
-6305.952
 30
1284.009
 70
    32
  0
VERTEX
  8
T39SSILL
 62
6
 10
3294.487
 20
-6309.773
 30
1284.001
 70
    32
  0
VERTEX
  8
T39SSILL
 62
6
 10
3321.262
 20
-6304.963
 30
1283.977
 70
    32
  0
VERTEX
  8
T39SSILL
 62
6
 10
3323.702
 20
-6305.505
 30
1283.974
 70
    32
  0
VERTEX
  8
T39SSILL
 62
6
 10
3327.037
 20
-6322.723
 30
1283.965
 70
    32
  0
VERTEX
  8
T39SSILL
 62
6
 10
3326.211
 20
-6327.204
 30
1283.964
 70
    32
  0
VERTEX
  8
T39SSILL
 62
6
 10
3318.761
 20
-6330.430
 30
1283.970
 70
    32
  0
VERTEX
  8
T39SSILL
 62
6
 10
3313.083
 20
-6337.376
 30
1283.973
 70
    32
  0
VERTEX
  8
T39SSILL
 62
6
 10
3312.562
 20
-6339.693
 30
1283.973
 70
    32
  0
VERTEX
  8
T39SSILL
 62
6
 10
3319.710
 20
-6354.965
 30
1283.960
 70
    32
  0
VERTEX
  8
T39SSILL
 62
6
 10
3320.300
 20
-6359.307
 30
1283.958
 70
    32
  0
VERTEX
  8
T39SSILL
 62
6
 10
3318.583
 20
-6363.446
 30
1283.958
 70
    32
  0
VERTEX
  8
T39SSILL
 62
6
 10
3322.136
 20
-6365.254
 30
1283.954
 70
    32
  0
VERTEX
  8
T39SSILL
 62
6
 10
3332.268
 20
-6366.726
 30
1283.944
 70
    32
  0
VERTEX
  8
T39SSILL
 62
6
 10
3344.747
 20
-6362.963
 30
1283.933
 70
    32
  0
VERTEX
  8
T39SSILL
 62
6
 10
3372.394
 20
-6343.713
 30
1283.913
 70
    32
  0
SEQEND
  8
T39SSILL
  0
POLYLINE
  8
T39SSILL
 62
6
 66
     1
 70
     9
  0
VERTEX
  8
T39SSILL
 62
6
 10
3294.783
 20
-6272.345
 30
1284.014
 70
    32
  0
VERTEX
  8
T39SSILL
 62
6
 10
3298.251
 20
-6276.958
 30
1284.009
 70
    32
  0
VERTEX
  8
T39SSILL
 62
6
 10
3325.280
 20
-6258.041
 30
1283.989
 70
    32
  0
VERTEX
  8
T39SSILL
 62
6
 10
3321.543
 20
-6254.239
 30
1283.995
 70
    32
  0
VERTEX
  8
T39SSILL
 62
6
 10
3308.543
 20
-6245.820
 30
1284.010
 70
    32
  0
VERTEX
  8
T39SSILL
 62
6
 10
3278.180
 20
-6229.482
 30
1284.046
 70
    32
  0
VERTEX
  8
T39SSILL
 62
6
 10
3258.000
 20
-6237.000
 30
1284.063
 70
    32
  0
VERTEX
  8
T39SSILL
 62
6
 10
3247.000
 20
-6239.000
 30
1284.073
 70
    32
  0
VERTEX
  8
T39SSILL
 62
6
 10
3239.000
 20
-6240.000
 30
1284.080
 70
    32
  0
VERTEX
  8
T39SSILL
 62
6
 10
3228.000
 20
-6237.000
 30
1283.812
 70
    32
  0
VERTEX
  8
T39SSILL
 62
6
 10
3226.000
 20
-6240.000
 30
1283.786
 70
    32
  0
VERTEX
  8
T39SSILL
 62
6
 10
3238.674
 20
-6257.823
 30
1284.074
 70
    32
  0
VERTEX
  8
T39SSILL
 62
6
 10
3247.424
 20
-6260.482
 30
1284.065
 70
    32
  0
VERTEX
  8
T39SSILL
 62
6
 10
3259.935
 20
-6268.057
 30
1284.050
 70
    32
  0
VERTEX
  8
T39SSILL
 62
6
 10
3269.957
 20
-6280.209
 30
1284.036
 70
    32
  0
VERTEX
  8
T39SSILL
 62
6
 10
3282.066
 20
-6288.285
 30
1284.021
 70
    32
  0
VERTEX
  8
T39SSILL
 62
6
 10
3287.923
 20
-6284.186
 30
1284.017
 70
    32
  0
VERTEX
  8
T39SSILL
 62
6
 10
3284.274
 20
-6279.039
 30
1284.022
 70
    32
  0
SEQEND
  8
T39SSILL
  0
POLYLINE
  8
T39SSILL
 62
6
 66
     1
 70
     9
  0
VERTEX
  8
T39SSILL
 62
6
 10
3272.293
 20
-6521.125
 30
1283.933
 70
    32
  0
VERTEX
  8
T39SSILL
 62
6
 10
3273.692
 20
-6511.662
 30
1283.936
 70
    32
  0
VERTEX
  8
T39SSILL
 62
6
 10
3273.027
 20
-6503.272
 30
1283.940
 70
    32
  0
VERTEX
  8
T39SSILL
 62
6
 10
3250.134
 20
-6482.340
 30
1283.969
 70
    32
  0
VERTEX
  8
T39SSILL
 62
6
 10
3248.243
 20
-6466.739
 30
1283.978
 70
    32
  0
VERTEX
  8
T39SSILL
 62
6
 10
3233.587
 20
-6453.911
 30
1283.996
 70
    32
  0
VERTEX
  8
T39SSILL
 62
6
 10
3234.361
 20
-6446.743
 30
1283.999
 70
    32
  0
VERTEX
  8
T39SSILL
 62
6
 10
3182.502
 20
-6484.013
 30
1284.029
 70
    32
  0
VERTEX
  8
T39SSILL
 62
6
 10
3185.537
 20
-6494.691
 30
1284.022
 70
    32
  0
VERTEX
  8
T39SSILL
 62
6
 10
3197.271
 20
-6504.728
 30
1284.007
 70
    32
  0
VERTEX
  8
T39SSILL
 62
6
 10
3207.015
 20
-6504.715
 30
1283.998
 70
    32
  0
VERTEX
  8
T39SSILL
 62
6
 10
3222.502
 20
-6509.701
 30
1283.982
 70
    32
  0
VERTEX
  8
T39SSILL
 62
6
 10
3238.235
 20
-6524.150
 30
1283.962
 70
    32
  0
VERTEX
  8
T39SSILL
 62
6
 10
3239.800
 20
-6531.224
 30
1283.958
 70
    32
  0
VERTEX
  8
T39SSILL
 62
6
 10
3247.936
 20
-6540.388
 30
1283.947
 70
    32
  0
VERTEX
  8
T39SSILL
 62
6
 10
3252.240
 20
-6541.706
 30
1283.942
 70
    32
  0
VERTEX
  8
T39SSILL
 62
6
 10
3275.242
 20
-6525.175
 30
1283.929
 70
    32
  0
SEQEND
  8
T39SSILL
  0
POLYLINE
  8
T39SSILL
 62
6
 66
     1
 70
     9
  0
VERTEX
  8
T39SSILL
 62
6
 10
3251.586
 20
-6434.364
 30
1283.988
 70
    32
  0
VERTEX
  8
T39SSILL
 62
6
 10
3253.181
 20
-6436.821
 30
1283.986
 70
    32
  0
VERTEX
  8
T39SSILL
 62
6
 10
3257.348
 20
-6438.920
 30
1283.981
 70
    32
  0
VERTEX
  8
T39SSILL
 62
6
 10
3262.071
 20
-6434.146
 30
1283.979
 70
    32
  0
VERTEX
  8
T39SSILL
 62
6
 10
3261.421
 20
-6432.211
 30
1283.981
 70
    32
  0
VERTEX
  8
T39SSILL
 62
6
 10
3258.127
 20
-6429.663
 30
1283.985
 70
    32
  0
SEQEND
  8
T39SSILL
  0
POLYLINE
  8
T39SSILL
 62
6
 66
     1
 70
     9
  0
VERTEX
  8
T39SSILL
 62
6
 10
3347.482
 20
-6431.209
 30
1283.905
 70
    32
  0
VERTEX
  8
T39SSILL
 62
6
 10
3350.450
 20
-6450.076
 30
1283.894
 70
    32
  0
VERTEX
  8
T39SSILL
 62
6
 10
3346.234
 20
-6466.315
 30
1283.891
 70
    32
  0
VERTEX
  8
T39SSILL
 62
6
 10
3341.290
 20
-6474.977
 30
1283.892
 70
    32
  0
VERTEX
  8
T39SSILL
 62
6
 10
3335.725
 20
-6480.696
 30
1283.894
 70
    32
  0
VERTEX
  8
T39SSILL
 62
6
 10
3306.886
 20
-6502.433
 30
1283.911
 70
    32
  0
VERTEX
  8
T39SSILL
 62
6
 10
3294.071
 20
-6484.572
 30
1283.930
 70
    32
  0
VERTEX
  8
T39SSILL
 62
6
 10
3282.276
 20
-6458.143
 30
1283.951
 70
    32
  0
VERTEX
  8
T39SSILL
 62
6
 10
3277.280
 20
-6443.391
 30
1283.962
 70
    32
  0
VERTEX
  8
T39SSILL
 62
6
 10
3272.852
 20
-6419.081
 30
1283.976
 70
    32
  0
VERTEX
  8
T39SSILL
 62
6
 10
3288.340
 20
-6405.372
 30
1283.968
 70
    32
  0
VERTEX
  8
T39SSILL
 62
6
 10
3298.463
 20
-6390.080
 30
1283.966
 70
    32
  0
VERTEX
  8
T39SSILL
 62
6
 10
3303.426
 20
-6391.983
 30
1283.960
 70
    32
  0
VERTEX
  8
T39SSILL
 62
6
 10
3312.516
 20
-6400.616
 30
1283.949
 70
    32
  0
VERTEX
  8
T39SSILL
 62
6
 10
3320.910
 20
-6400.574
 30
1283.941
 70
    32
  0
VERTEX
  8
T39SSILL
 62
6
 10
3330.057
 20
-6410.161
 30
1283.929
 70
    32
  0
VERTEX
  8
T39SSILL
 62
6
 10
3335.997
 20
-6411.640
 30
1283.923
 70
    32
  0
SEQEND
  8
T39SSILL
  0
POLYLINE
  8
T39SSILL
 62
6
 66
     1
 70
     9
  0
VERTEX
  8
T39SSILL
 62
6
 10
4196.638
 20
-5764.485
 30
1284.807
 70
    32
  0
VERTEX
  8
T39SSILL
 62
6
 10
4207.128
 20
-5761.908
 30
1284.836
 70
    32
  0
VERTEX
  8
T39SSILL
 62
6
 10
4255.218
 20
-5727.947
 30
1284.942
 70
    32
  0
VERTEX
  8
T39SSILL
 62
6
 10
4267.426
 20
-5729.417
 30
1284.981
 70
    32
  0
VERTEX
  8
T39SSILL
 62
6
 10
4272.181
 20
-5736.705
 30
1285.005
 70
    32
  0
VERTEX
  8
T39SSILL
 62
6
 10
4281.328
 20
-5732.374
 30
1285.027
 70
    32
  0
VERTEX
  8
T39SSILL
 62
6
 10
4295.165
 20
-5737.716
 30
1285.076
 70
    32
  0
VERTEX
  8
T39SSILL
 62
6
 10
4297.373
 20
-5737.606
 30
1285.083
 70
    32
  0
VERTEX
  8
T39SSILL
 62
6
 10
4325.108
 20
-5756.763
 30
1285.190
 70
    32
  0
VERTEX
  8
T39SSILL
 62
6
 10
4315.662
 20
-5773.512
 30
1285.181
 70
    32
  0
VERTEX
  8
T39SSILL
 62
6
 10
4317.365
 20
-5778.745
 30
1285.193
 70
    32
  0
VERTEX
  8
T39SSILL
 62
6
 10
4329.816
 20
-5800.808
 30
1285.257
 70
    32
  0
VERTEX
  8
T39SSILL
 62
6
 10
4341.358
 20
-5789.023
 30
1285.278
 70
    32
  0
VERTEX
  8
T39SSILL
 62
6
 10
4343.320
 20
-5788.228
 30
1285.283
 70
    32
  0
VERTEX
  8
T39SSILL
 62
6
 10
4357.533
 20
-5808.918
 30
1285.351
 70
    32
  0
VERTEX
  8
T39SSILL
 62
6
 10
4362.742
 20
-5807.545
 30
1285.365
 70
    32
  0
VERTEX
  8
T39SSILL
 62
6
 10
4396.345
 20
-5853.429
 30
1285.523
 70
    32
  0
VERTEX
  8
T39SSILL
 62
6
 10
4395.590
 20
-5860.561
 30
1285.524
 70
    32
  0
VERTEX
  8
T39SSILL
 62
6
 10
4388.196
 20
-5871.965
 30
1285.497
 70
    32
  0
VERTEX
  8
T39SSILL
 62
6
 10
4326.805
 20
-5917.707
 30
1285.273
 70
    32
  0
VERTEX
  8
T39SSILL
 62
6
 10
4321.321
 20
-5920.577
 30
1285.253
 70
    32
  0
VERTEX
  8
T39SSILL
 62
6
 10
4311.879
 20
-5922.449
 30
1285.219
 70
    32
  0
VERTEX
  8
T39SSILL
 62
6
 10
4299.737
 20
-5919.808
 30
1285.175
 70
    32
  0
VERTEX
  8
T39SSILL
 62
6
 10
4293.507
 20
-5916.063
 30
1285.153
 70
    32
  0
VERTEX
  8
T39SSILL
 62
6
 10
4187.644
 20
-5763.854
 30
1284.779
 70
    32
  0
SEQEND
  8
T39SSILL
  0
POLYLINE
  8
T39SSILL
 62
6
 66
     1
 70
     9
  0
VERTEX
  8
T39SSILL
 62
6
 10
4671.218
 20
-6100.255
 30
1285.721
 70
    32
  0
VERTEX
  8
T39SSILL
 62
6
 10
4655.313
 20
-6093.798
 30
1285.712
 70
    32
  0
VERTEX
  8
T39SSILL
 62
6
 10
4638.430
 20
-6088.745
 30
1285.702
 70
    32
  0
VERTEX
  8
T39SSILL
 62
6
 10
4631.331
 20
-6083.143
 30
1285.697
 70
    32
  0
VERTEX
  8
T39SSILL
 62
6
 10
4600.324
 20
-6106.541
 30
1285.663
 70
    32
  0
VERTEX
  8
T39SSILL
 62
6
 10
4607.855
 20
-6125.716
 30
1285.655
 70
    32
  0
VERTEX
  8
T39SSILL
 62
6
 10
4613.772
 20
-6136.421
 30
1285.655
 70
    32
  0
VERTEX
  8
T39SSILL
 62
6
 10
4626.469
 20
-6147.878
 30
1285.666
 70
    32
  0
VERTEX
  8
T39SSILL
 62
6
 10
4629.866
 20
-6153.542
 30
1285.666
 70
    32
  0
VERTEX
  8
T39SSILL
 62
6
 10
4637.574
 20
-6185.143
 30
1285.645
 70
    32
  0
VERTEX
  8
T39SSILL
 62
6
 10
4648.899
 20
-6191.215
 30
1285.660
 70
    32
  0
VERTEX
  8
T39SSILL
 62
6
 10
4660.684
 20
-6206.984
 30
1285.665
 70
    32
  0
VERTEX
  8
T39SSILL
 62
6
 10
4663.971
 20
-6215.731
 30
1285.661
 70
    32
  0
VERTEX
  8
T39SSILL
 62
6
 10
4684.385
 20
-6295.008
 30
1285.611
 70
    32
  0
VERTEX
  8
T39SSILL
 62
6
 10
4690.090
 20
-6285.707
 30
1285.632
 70
    32
  0
VERTEX
  8
T39SSILL
 62
6
 10
4709.137
 20
-6271.478
 30
1285.685
 70
    32
  0
VERTEX
  8
T39SSILL
 62
6
 10
4698.256
 20
-6252.455
 30
1285.685
 70
    32
  0
VERTEX
  8
T39SSILL
 62
6
 10
4702.857
 20
-6249.756
 30
1285.697
 70
    32
  0
VERTEX
  8
T39SSILL
 62
6
 10
4706.103
 20
-6251.805
 30
1285.701
 70
    32
  0
VERTEX
  8
T39SSILL
 62
6
 10
4710.710
 20
-6260.738
 30
1285.700
 70
    32
  0
VERTEX
  8
T39SSILL
 62
6
 10
4717.729
 20
-6265.194
 30
1285.708
 70
    32
  0
VERTEX
  8
T39SSILL
 62
6
 10
4754.570
 20
-6239.193
 30
1285.767
 70
    32
  0
VERTEX
  8
T39SSILL
 62
6
 10
4754.812
 20
-6229.942
 30
1285.767
 70
    32
  0
VERTEX
  8
T39SSILL
 62
6
 10
4715.704
 20
-6177.323
 30
1285.745
 70
    32
  0
VERTEX
  8
T39SSILL
 62
6
 10
4712.805
 20
-6176.068
 30
1285.744
 70
    32
  0
VERTEX
  8
T39SSILL
 62
6
 10
4710.602
 20
-6176.141
 30
1285.742
 70
    32
  0
VERTEX
  8
T39SSILL
 62
6
 10
4701.302
 20
-6182.861
 30
1285.737
 70
    32
  0
VERTEX
  8
T39SSILL
 62
6
 10
4700.038
 20
-6187.170
 30
1285.736
 70
    32
  0
VERTEX
  8
T39SSILL
 62
6
 10
4707.777
 20
-6214.278
 30
1285.740
 70
    32
  0
VERTEX
  8
T39SSILL
 62
6
 10
4716.220
 20
-6229.141
 30
1285.744
 70
    32
  0
VERTEX
  8
T39SSILL
 62
6
 10
4710.110
 20
-6233.328
 30
1285.730
 70
    32
  0
VERTEX
  8
T39SSILL
 62
6
 10
4706.788
 20
-6229.692
 30
1285.728
 70
    32
  0
VERTEX
  8
T39SSILL
 62
6
 10
4703.767
 20
-6220.682
 30
1285.732
 70
    32
  0
VERTEX
  8
T39SSILL
 62
6
 10
4697.663
 20
-6211.475
 30
1285.731
 70
    32
  0
VERTEX
  8
T39SSILL
 62
6
 10
4691.480
 20
-6188.519
 30
1285.731
 70
    32
  0
VERTEX
  8
T39SSILL
 62
6
 10
4688.453
 20
-6180.391
 30
1285.729
 70
    32
  0
VERTEX
  8
T39SSILL
 62
6
 10
4687.657
 20
-6180.826
 30
1285.729
 70
    32
  0
VERTEX
  8
T39SSILL
 62
6
 10
4687.084
 20
-6174.653
 30
1285.728
 70
    32
  0
VERTEX
  8
T39SSILL
 62
6
 10
4682.669
 20
-6163.431
 30
1285.726
 70
    32
  0
VERTEX
  8
T39SSILL
 62
6
 10
4682.689
 20
-6160.611
 30
1285.726
 70
    32
  0
VERTEX
  8
T39SSILL
 62
6
 10
4687.718
 20
-6147.252
 30
1285.729
 70
    32
  0
VERTEX
  8
T39SSILL
 62
6
 10
4687.409
 20
-6141.081
 30
1285.729
 70
    32
  0
VERTEX
  8
T39SSILL
 62
6
 10
4692.106
 20
-6137.325
 30
1285.732
 70
    32
  0
VERTEX
  8
T39SSILL
 62
6
 10
4690.927
 20
-6129.474
 30
1285.732
 70
    32
  0
VERTEX
  8
T39SSILL
 62
6
 10
4686.103
 20
-6113.755
 30
1285.729
 70
    32
  0
VERTEX
  8
T39SSILL
 62
6
 10
4674.284
 20
-6102.744
 30
1285.723
 70
    32
  0
SEQEND
  8
T39SSILL
  0
POLYLINE
  8
T39SSILL
 62
6
 66
     1
 70
     9
  0
VERTEX
  8
T39SSILL
 62
6
 10
4690.159
 20
-6425.997
 30
1285.451
 70
    32
  0
VERTEX
  8
T39SSILL
 62
6
 10
4705.600
 20
-6410.685
 30
1285.504
 70
    32
  0
VERTEX
  8
T39SSILL
 62
6
 10
4709.630
 20
-6401.460
 30
1285.526
 70
    32
  0
VERTEX
  8
T39SSILL
 62
6
 10
4739.012
 20
-6496.133
 30
1285.450
 70
    32
  0
VERTEX
  8
T39SSILL
 62
6
 10
4732.706
 20
-6503.139
 30
1285.434
 70
    32
  0
VERTEX
  8
T39SSILL
 62
6
 10
4728.383
 20
-6503.901
 30
1285.436
 70
    32
  0
VERTEX
  8
T39SSILL
 62
6
 10
4721.956
 20
-6503.063
 30
1285.437
 70
    32
  0
VERTEX
  8
T39SSILL
 62
6
 10
4713.783
 20
-6499.833
 30
1285.438
 70
    32
  0
VERTEX
  8
T39SSILL
 62
6
 10
4709.665
 20
-6496.543
 30
1285.438
 70
    32
  0
VERTEX
  8
T39SSILL
 62
6
 10
4662.546
 20
-6430.296
 30
1285.417
 70
    32
  0
VERTEX
  8
T39SSILL
 62
6
 10
4668.796
 20
-6431.222
 30
1285.415
 70
    32
  0
VERTEX
  8
T39SSILL
 62
6
 10
4680.258
 20
-6430.333
 30
1285.425
 70
    32
  0
SEQEND
  8
T39SSILL
  0
POLYLINE
  8
T39SSILL
 62
6
 66
     1
 70
     9
  0
VERTEX
  8
T39SSILL
 62
6
 10
1525.485
 20
-5186.959
 30
1287.508
 70
    32
  0
VERTEX
  8
T39SSILL
 62
6
 10
1513.879
 20
-5170.946
 30
1287.569
 70
    32
  0
VERTEX
  8
T39SSILL
 62
6
 10
1506.447
 20
-5154.525
 30
1287.631
 70
    32
  0
VERTEX
  8
T39SSILL
 62
6
 10
1502.039
 20
-5150.850
 30
1287.645
 70
    32
  0
VERTEX
  8
T39SSILL
 62
6
 10
1404.153
 20
-5012.762
 30
1288.164
 70
    32
  0
VERTEX
  8
T39SSILL
 62
6
 10
1393.197
 20
-5019.182
 30
1288.136
 70
    32
  0
VERTEX
  8
T39SSILL
 62
6
 10
1517.351
 20
-5192.248
 30
1287.486
 70
    32
  0
SEQEND
  8
T39SSILL
  0
POLYLINE
  8
T39SSILL
 62
6
 66
     1
 70
     9
  0
VERTEX
  8
T39SSILL
 62
6
 10
4470.361
 20
-5824.979
 30
1285.489
 70
    32
  0
VERTEX
  8
T39SSILL
 62
6
 10
4456.416
 20
-5832.350
 30
1285.506
 70
    32
  0
VERTEX
  8
T39SSILL
 62
6
 10
4477.206
 20
-5858.317
 30
1285.535
 70
    32
  0
VERTEX
  8
T39SSILL
 62
6
 10
4486.016
 20
-5871.156
 30
1285.550
 70
    32
  0
VERTEX
  8
T39SSILL
 62
6
 10
4499.122
 20
-5899.536
 30
1285.586
 70
    32
  0
VERTEX
  8
T39SSILL
 62
6
 10
4518.649
 20
-5929.634
 30
1285.622
 70
    32
  0
VERTEX
  8
T39SSILL
 62
6
 10
4520.761
 20
-5930.002
 30
1285.621
 70
    32
  0
VERTEX
  8
T39SSILL
 62
6
 10
4527.136
 20
-5925.729
 30
1285.613
 70
    32
  0
VERTEX
  8
T39SSILL
 62
6
 10
4530.574
 20
-5925.577
 30
1285.611
 70
    32
  0
VERTEX
  8
T39SSILL
 62
6
 10
4545.393
 20
-5948.505
 30
1285.638
 70
    32
  0
VERTEX
  8
T39SSILL
 62
6
 10
4567.761
 20
-6000.566
 30
1285.662
 70
    32
  0
VERTEX
  8
T39SSILL
 62
6
 10
4569.691
 20
-6001.901
 30
1285.663
 70
    32
  0
VERTEX
  8
T39SSILL
 62
6
 10
4581.393
 20
-6029.389
 30
1285.669
 70
    32
  0
VERTEX
  8
T39SSILL
 62
6
 10
4589.509
 20
-6053.151
 30
1285.673
 70
    32
  0
VERTEX
  8
T39SSILL
 62
6
 10
4588.013
 20
-6065.390
 30
1285.672
 70
    32
  0
VERTEX
  8
T39SSILL
 62
6
 10
4584.931
 20
-6077.529
 30
1285.666
 70
    32
  0
VERTEX
  8
T39SSILL
 62
6
 10
4591.315
 20
-6096.960
 30
1285.656
 70
    32
  0
VERTEX
  8
T39SSILL
 62
6
 10
4595.252
 20
-6100.953
 30
1285.659
 70
    32
  0
VERTEX
  8
T39SSILL
 62
6
 10
4629.884
 20
-6075.907
 30
1285.697
 70
    32
  0
VERTEX
  8
T39SSILL
 62
6
 10
4630.543
 20
-6069.919
 30
1285.697
 70
    32
  0
VERTEX
  8
T39SSILL
 62
6
 10
4629.361
 20
-6062.685
 30
1285.697
 70
    32
  0
VERTEX
  8
T39SSILL
 62
6
 10
4623.152
 20
-6043.343
 30
1285.694
 70
    32
  0
VERTEX
  8
T39SSILL
 62
6
 10
4619.142
 20
-6037.146
 30
1285.691
 70
    32
  0
VERTEX
  8
T39SSILL
 62
6
 10
4606.723
 20
-6023.840
 30
1285.684
 70
    32
  0
VERTEX
  8
T39SSILL
 62
6
 10
4595.156
 20
-6014.682
 30
1285.678
 70
    32
  0
VERTEX
  8
T39SSILL
 62
6
 10
4592.405
 20
-6004.793
 30
1285.676
 70
    32
  0
VERTEX
  8
T39SSILL
 62
6
 10
4579.492
 20
-5986.549
 30
1285.669
 70
    32
  0
VERTEX
  8
T39SSILL
 62
6
 10
4568.627
 20
-5965.323
 30
1285.653
 70
    32
  0
VERTEX
  8
T39SSILL
 62
6
 10
4559.020
 20
-5953.007
 30
1285.639
 70
    32
  0
VERTEX
  8
T39SSILL
 62
6
 10
4550.495
 20
-5937.349
 30
1285.620
 70
    32
  0
VERTEX
  8
T39SSILL
 62
6
 10
4546.763
 20
-5929.216
 30
1285.609
 70
    32
  0
VERTEX
  8
T39SSILL
 62
6
 10
4547.765
 20
-5924.552
 30
1285.602
 70
    32
  0
VERTEX
  8
T39SSILL
 62
6
 10
4550.254
 20
-5921.486
 30
1285.597
 70
    32
  0
VERTEX
  8
T39SSILL
 62
6
 10
4549.309
 20
-5918.042
 30
1285.592
 70
    32
  0
VERTEX
  8
T39SSILL
 62
6
 10
4529.202
 20
-5907.679
 30
1285.585
 70
    32
  0
VERTEX
  8
T39SSILL
 62
6
 10
4521.552
 20
-5905.333
 30
1285.585
 70
    32
  0
VERTEX
  8
T39SSILL
 62
6
 10
4516.581
 20
-5897.984
 30
1285.576
 70
    32
  0
VERTEX
  8
T39SSILL
 62
6
 10
4519.546
 20
-5864.872
 30
1285.527
 70
    32
  0
VERTEX
  8
T39SSILL
 62
6
 10
4511.438
 20
-5840.052
 30
1285.494
 70
    32
  0
VERTEX
  8
T39SSILL
 62
6
 10
4508.036
 20
-5835.094
 30
1285.488
 70
    32
  0
VERTEX
  8
T39SSILL
 62
6
 10
4509.375
 20
-5832.636
 30
1285.484
 70
    32
  0
VERTEX
  8
T39SSILL
 62
6
 10
4513.267
 20
-5830.548
 30
1285.479
 70
    32
  0
VERTEX
  8
T39SSILL
 62
6
 10
4518.205
 20
-5830.054
 30
1285.476
 70
    32
  0
VERTEX
  8
T39SSILL
 62
6
 10
4520.833
 20
-5832.276
 30
1285.478
 70
    32
  0
VERTEX
  8
T39SSILL
 62
6
 10
4523.268
 20
-5836.963
 30
1285.484
 70
    32
  0
VERTEX
  8
T39SSILL
 62
6
 10
4523.847
 20
-5842.343
 30
1285.492
 70
    32
  0
VERTEX
  8
T39SSILL
 62
6
 10
4551.901
 20
-5875.410
 30
1285.529
 70
    32
  0
VERTEX
  8
T39SSILL
 62
6
 10
4552.316
 20
-5878.938
 30
1285.534
 70
    32
  0
VERTEX
  8
T39SSILL
 62
6
 10
4555.896
 20
-5883.633
 30
1285.539
 70
    32
  0
VERTEX
  8
T39SSILL
 62
6
 10
4556.652
 20
-5888.926
 30
1285.546
 70
    32
  0
VERTEX
  8
T39SSILL
 62
6
 10
4564.582
 20
-5901.583
 30
1285.562
 70
    32
  0
VERTEX
  8
T39SSILL
 62
6
 10
4569.055
 20
-5904.523
 30
1285.564
 70
    32
  0
VERTEX
  8
T39SSILL
 62
6
 10
4571.346
 20
-5904.539
 30
1285.563
 70
    32
  0
VERTEX
  8
T39SSILL
 62
6
 10
4574.276
 20
-5901.387
 30
1285.557
 70
    32
  0
VERTEX
  8
T39SSILL
 62
6
 10
4580.201
 20
-5886.008
 30
1285.532
 70
    32
  0
VERTEX
  8
T39SSILL
 62
6
 10
4553.663
 20
-5850.396
 30
1285.491
 70
    32
  0
VERTEX
  8
T39SSILL
 62
6
 10
4550.841
 20
-5850.640
 30
1285.493
 70
    32
  0
VERTEX
  8
T39SSILL
 62
6
 10
4542.861
 20
-5845.209
 30
1285.488
 70
    32
  0
VERTEX
  8
T39SSILL
 62
6
 10
4534.953
 20
-5829.467
 30
1285.468
 70
    32
  0
VERTEX
  8
T39SSILL
 62
6
 10
4538.272
 20
-5821.119
 30
1285.455
 70
    32
  0
VERTEX
  8
T39SSILL
 62
6
 10
4528.928
 20
-5809.069
 30
1285.441
 70
    32
  0
VERTEX
  8
T39SSILL
 62
6
 10
4520.939
 20
-5804.783
 30
1285.438
 70
    32
  0
VERTEX
  8
T39SSILL
 62
6
 10
4513.680
 20
-5796.977
 30
1285.430
 70
    32
  0
VERTEX
  8
T39SSILL
 62
6
 10
4513.209
 20
-5793.973
 30
1285.426
 70
    32
  0
SEQEND
  8
T39SSILL
  0
POLYLINE
  8
T39SSILL
 62
6
 66
     1
 70
     9
  0
VERTEX
  8
T39SSILL
 62
6
 10
4432.502
 20
-5849.542
 30
1285.541
 70
    32
  0
VERTEX
  8
T39SSILL
 62
6
 10
4449.335
 20
-5836.795
 30
1285.515
 70
    32
  0
VERTEX
  8
T39SSILL
 62
6
 10
4456.674
 20
-5845.835
 30
1285.525
 70
    32
  0
VERTEX
  8
T39SSILL
 62
6
 10
4469.558
 20
-5868.220
 30
1285.553
 70
    32
  0
VERTEX
  8
T39SSILL
 62
6
 10
4474.930
 20
-5881.212
 30
1285.569
 70
    32
  0
VERTEX
  8
T39SSILL
 62
6
 10
4492.906
 20
-5906.277
 30
1285.598
 70
    32
  0
VERTEX
  8
T39SSILL
 62
6
 10
4518.077
 20
-5948.224
 30
1285.633
 70
    32
  0
VERTEX
  8
T39SSILL
 62
6
 10
4524.855
 20
-5961.754
 30
1285.637
 70
    32
  0
VERTEX
  8
T39SSILL
 62
6
 10
4525.072
 20
-5968.541
 30
1285.637
 70
    32
  0
VERTEX
  8
T39SSILL
 62
6
 10
4521.707
 20
-5970.897
 30
1285.635
 70
    32
  0
VERTEX
  8
T39SSILL
 62
6
 10
4497.805
 20
-5948.874
 30
1285.621
 70
    32
  0
VERTEX
  8
T39SSILL
 62
6
 10
4485.250
 20
-5929.752
 30
1285.614
 70
    32
  0
VERTEX
  8
T39SSILL
 62
6
 10
4481.615
 20
-5920.473
 30
1285.612
 70
    32
  0
VERTEX
  8
T39SSILL
 62
6
 10
4466.665
 20
-5903.625
 30
1285.604
 70
    32
  0
VERTEX
  8
T39SSILL
 62
6
 10
4460.210
 20
-5906.752
 30
1285.600
 70
    32
  0
VERTEX
  8
T39SSILL
 62
6
 10
4462.894
 20
-5913.556
 30
1285.601
 70
    32
  0
VERTEX
  8
T39SSILL
 62
6
 10
4478.209
 20
-5941.070
 30
1285.610
 70
    32
  0
VERTEX
  8
T39SSILL
 62
6
 10
4488.972
 20
-5951.808
 30
1285.616
 70
    32
  0
VERTEX
  8
T39SSILL
 62
6
 10
4495.605
 20
-5960.931
 30
1285.620
 70
    32
  0
VERTEX
  8
T39SSILL
 62
6
 10
4500.952
 20
-5964.934
 30
1285.623
 70
    32
  0
VERTEX
  8
T39SSILL
 62
6
 10
4510.908
 20
-5977.694
 30
1285.628
 70
    32
  0
VERTEX
  8
T39SSILL
 62
6
 10
4514.358
 20
-5988.381
 30
1285.630
 70
    32
  0
VERTEX
  8
T39SSILL
 62
6
 10
4527.620
 20
-6007.068
 30
1285.636
 70
    32
  0
VERTEX
  8
T39SSILL
 62
6
 10
4537.195
 20
-6011.454
 30
1285.643
 70
    32
  0
VERTEX
  8
T39SSILL
 62
6
 10
4541.050
 20
-6014.565
 30
1285.645
 70
    32
  0
VERTEX
  8
T39SSILL
 62
6
 10
4552.809
 20
-6034.035
 30
1285.652
 70
    32
  0
VERTEX
  8
T39SSILL
 62
6
 10
4556.579
 20
-6036.705
 30
1285.654
 70
    32
  0
VERTEX
  8
T39SSILL
 62
6
 10
4558.048
 20
-6040.945
 30
1285.655
 70
    32
  0
VERTEX
  8
T39SSILL
 62
6
 10
4564.522
 20
-6047.600
 30
1285.659
 70
    32
  0
VERTEX
  8
T39SSILL
 62
6
 10
4566.932
 20
-6068.237
 30
1285.642
 70
    32
  0
VERTEX
  8
T39SSILL
 62
6
 10
4570.373
 20
-6080.070
 30
1285.635
 70
    32
  0
VERTEX
  8
T39SSILL
 62
6
 10
4574.702
 20
-6103.540
 30
1285.617
 70
    32
  0
VERTEX
  8
T39SSILL
 62
6
 10
4570.454
 20
-6106.066
 30
1285.606
 70
    32
  0
VERTEX
  8
T39SSILL
 62
6
 10
4569.116
 20
-6108.348
 30
1285.601
 70
    32
  0
VERTEX
  8
T39SSILL
 62
6
 10
4570.110
 20
-6117.343
 30
1285.592
 70
    32
  0
VERTEX
  8
T39SSILL
 62
6
 10
4509.438
 20
-6161.240
 30
1285.424
 70
    32
  0
VERTEX
  8
T39SSILL
 62
6
 10
4503.263
 20
-6162.078
 30
1285.410
 70
    32
  0
VERTEX
  8
T39SSILL
 62
6
 10
4492.219
 20
-6166.230
 30
1285.380
 70
    32
  0
VERTEX
  8
T39SSILL
 62
6
 10
4468.550
 20
-6161.216
 30
1285.335
 70
    32
  0
VERTEX
  8
T39SSILL
 62
6
 10
4438.792
 20
-6119.854
 30
1285.321
 70
    32
  0
VERTEX
  8
T39SSILL
 62
6
 10
4445.505
 20
-6105.185
 30
1285.353
 70
    32
  0
VERTEX
  8
T39SSILL
 62
6
 10
4449.425
 20
-6086.619
 30
1285.385
 70
    32
  0
VERTEX
  8
T39SSILL
 62
6
 10
4435.429
 20
-6086.961
 30
1285.354
 70
    32
  0
VERTEX
  8
T39SSILL
 62
6
 10
4436.621
 20
-6102.831
 30
1285.337
 70
    32
  0
VERTEX
  8
T39SSILL
 62
6
 10
4430.946
 20
-6107.814
 30
1285.318
 70
    32
  0
VERTEX
  8
T39SSILL
 62
6
 10
4395.082
 20
-6057.597
 30
1285.302
 70
    32
  0
VERTEX
  8
T39SSILL
 62
6
 10
4408.012
 20
-6048.523
 30
1285.341
 70
    32
  0
VERTEX
  8
T39SSILL
 62
6
 10
4404.259
 20
-6043.298
 30
1285.339
 70
    32
  0
VERTEX
  8
T39SSILL
 62
6
 10
4390.979
 20
-6052.192
 30
1285.299
 70
    32
  0
VERTEX
  8
T39SSILL
 62
6
 10
4302.405
 20
-5928.815
 30
1285.185
 70
    32
  0
VERTEX
  8
T39SSILL
 62
6
 10
4310.943
 20
-5930.197
 30
1285.215
 70
    32
  0
VERTEX
  8
T39SSILL
 62
6
 10
4321.437
 20
-5929.125
 30
1285.253
 70
    32
  0
VERTEX
  8
T39SSILL
 62
6
 10
4328.422
 20
-5925.826
 30
1285.279
 70
    32
  0
VERTEX
  8
T39SSILL
 62
6
 10
4419.306
 20
-5858.966
 30
1285.560
 70
    32
  0
VERTEX
  8
T39SSILL
 62
6
 10
4428.910
 20
-5859.122
 30
1285.556
 70
    32
  0
VERTEX
  8
T39SSILL
 62
6
 10
4460.681
 20
-5902.437
 30
1285.600
 70
    32
  0
VERTEX
  8
T39SSILL
 62
6
 10
4466.263
 20
-5898.070
 30
1285.598
 70
    32
  0
VERTEX
  8
T39SSILL
 62
6
 10
4452.827
 20
-5878.941
 30
1285.575
 70
    32
  0
SEQEND
  8
T39SSILL
  0
TEXT
  8
T39SSILL
 62
6
 10
3302.600
 20
-8402.670
 30
1296.765
 40
0.200
  1
3950
 41
 1.0 
  0
POLYLINE
  8
T39SSILL
 62
6
 66
     1
 70
     8
  0
VERTEX
  8
T39SSILL
 62
6
 10
3854.387
 20
-6920.809
 30
1283.969
 70
    32
  0
VERTEX
  8
T39SSILL
 62
6
 10
3848.360
 20
-6916.794
 30
1283.964
 70
    32
  0
VERTEX
  8
T39SSILL
 62
6
 10
3844.658
 20
-6919.518
 30
1283.954
 70
    32
  0
VERTEX
  8
T39SSILL
 62
6
 10
3840.641
 20
-6918.085
 30
1283.949
 70
    32
  0
VERTEX
  8
T39SSILL
 62
6
 10
3830.916
 20
-6910.535
 30
1283.941
 70
    32
  0
VERTEX
  8
T39SSILL
 62
6
 10
3826.118
 20
-6917.138
 30
1283.925
 70
    32
  0
VERTEX
  8
T39SSILL
 62
6
 10
3838.843
 20
-6929.064
 30
1283.932
 70
    32
  0
VERTEX
  8
T39SSILL
 62
6
 10
3841.188
 20
-6933.593
 30
1283.930
 70
    32
  0
VERTEX
  8
T39SSILL
 62
6
 10
3840.919
 20
-6940.454
 30
1283.921
 70
    32
  0
VERTEX
  8
T39SSILL
 62
6
 10
3788.879
 20
-6977.786
 30
1283.784
 70
    32
  0
VERTEX
  8
T39SSILL
 62
6
 10
3780.270
 20
-6981.596
 30
1283.764
 70
    32
  0
VERTEX
  8
T39SSILL
 62
6
 10
3772.461
 20
-6983.063
 30
1283.749
 70
    32
  0
VERTEX
  8
T39SSILL
 62
6
 10
3765.208
 20
-6981.706
 30
1283.738
 70
    32
  0
VERTEX
  8
T39SSILL
 62
6
 10
3753.135
 20
-6973.799
 30
1283.727
 70
    32
  0
VERTEX
  8
T39SSILL
 62
6
 10
3745.211
 20
-6962.905
 30
1283.727
 70
    32
  0
VERTEX
  8
T39SSILL
 62
6
 10
3744.700
 20
-6959.381
 30
1283.700
 70
    32
  0
VERTEX
  8
T39SSILL
 62
6
 10
3744.583
 20
-6959.223
 30
1283.700
 70
    32
  0
VERTEX
  8
T39SSILL
 62
6
 10
3742.219
 20
-6952.092
 30
1283.700
 70
    32
  0
VERTEX
  8
T39SSILL
 62
6
 10
3735.064
 20
-6938.466
 30
1283.700
 70
    32
  0
VERTEX
  8
T39SSILL
 62
6
 10
3734.543
 20
-6938.334
 30
1283.700
 70
    32
  0
VERTEX
  8
T39SSILL
 62
6
 10
3731.383
 20
-6932.976
 30
1283.700
 70
    32
  0
VERTEX
  8
T39SSILL
 62
6
 10
3731.879
 20
-6928.779
 30
1283.700
 70
    32
  0
VERTEX
  8
T39SSILL
 62
6
 10
3737.328
 20
-6922.553
 30
1283.700
 70
    32
  0
VERTEX
  8
T39SSILL
 62
6
 10
3725.845
 20
-6901.026
 30
1283.700
 70
    32
  0
VERTEX
  8
T39SSILL
 62
6
 10
3706.011
 20
-6904.025
 30
1283.700
 70
    32
  0
VERTEX
  8
T39SSILL
 62
6
 10
3704.730
 20
-6902.432
 30
1283.700
 70
    32
  0
VERTEX
  8
T39SSILL
 62
6
 10
3693.157
 20
-6886.510
 30
1283.700
 70
    32
  0
VERTEX
  8
T39SSILL
 62
6
 10
3688.340
 20
-6879.234
 30
1283.700
 70
    32
  0
VERTEX
  8
T39SSILL
 62
6
 10
3679.898
 20
-6867.878
 30
1283.700
 70
    32
  0
VERTEX
  8
T39SSILL
 62
6
 10
3665.905
 20
-6849.125
 30
1283.700
 70
    32
  0
VERTEX
  8
T39SSILL
 62
6
 10
3659.930
 20
-6839.804
 30
1283.700
 70
    32
  0
VERTEX
  8
T39SSILL
 62
6
 10
3659.719
 20
-6839.157
 30
1283.700
 70
    32
  0
VERTEX
  8
T39SSILL
 62
6
 10
3659.122
 20
-6837.330
 30
1283.700
 70
    32
  0
VERTEX
  8
T39SSILL
 62
6
 10
3674.386
 20
-6826.648
 30
1283.700
 70
    32
  0
VERTEX
  8
T39SSILL
 62
6
 10
3670.333
 20
-6821.290
 30
1283.700
 70
    32
  0
VERTEX
  8
T39SSILL
 62
6
 10
3655.237
 20
-6831.335
 30
1283.700
 70
    32
  0
VERTEX
  8
T39SSILL
 62
6
 10
3647.617
 20
-6821.117
 30
1283.700
 70
    32
  0
VERTEX
  8
T39SSILL
 62
6
 10
3647.648
 20
-6814.897
 30
1283.700
 70
    32
  0
VERTEX
  8
T39SSILL
 62
6
 10
3651.427
 20
-6809.546
 30
1283.700
 70
    32
  0
VERTEX
  8
T39SSILL
 62
6
 10
3656.240
 20
-6807.223
 30
1283.700
 70
    32
  0
VERTEX
  8
T39SSILL
 62
6
 10
3656.864
 20
-6807.325
 30
1283.700
 70
    32
  0
VERTEX
  8
T39SSILL
 62
6
 10
3659.260
 20
-6807.711
 30
1283.772
 70
    32
  0
VERTEX
  8
T39SSILL
 62
6
 10
3695.401
 20
-6813.600
 30
1283.827
 70
    32
  0
VERTEX
  8
T39SSILL
 62
6
 10
3753.066
 20
-6836.890
 30
1283.898
 70
    32
  0
VERTEX
  8
T39SSILL
 62
6
 10
3763.280
 20
-6846.945
 30
1283.904
 70
    32
  0
VERTEX
  8
T39SSILL
 62
6
 10
3772.752
 20
-6851.169
 30
1283.915
 70
    32
  0
VERTEX
  8
T39SSILL
 62
6
 10
3785.847
 20
-6853.605
 30
1283.934
 70
    32
  0
VERTEX
  8
T39SSILL
 62
6
 10
3792.638
 20
-6857.167
 30
1283.942
 70
    32
  0
VERTEX
  8
T39SSILL
 62
6
 10
3800.355
 20
-6855.990
 30
1283.957
 70
    32
  0
VERTEX
  8
T39SSILL
 62
6
 10
3834.824
 20
-6869.911
 30
1283.999
 70
    32
  0
VERTEX
  8
T39SSILL
 62
6
 10
3861.627
 20
-6915.120
 30
1283.989
 70
    32
  0
VERTEX
  8
T39SSILL
 62
6
 10
3863.340
 20
-6914.414
 30
1283.993
 70
    32
  0
VERTEX
  8
T39SSILL
 62
6
 10
3868.428
 20
-6922.490
 30
1283.992
 70
    32
  0
VERTEX
  8
T39SSILL
 62
6
 10
3858.403
 20
-6929.120
 30
1283.966
 70
    32
  0
SEQEND
  8
T39SSILL
  0
POLYLINE
  8
T39SSILL
 62
6
 66
     1
 70
     9
  0
VERTEX
  8
T39SSILL
 62
6
 10
3553.557
 20
-6573.176
 30
1283.858
 70
    32
  0
VERTEX
  8
T39SSILL
 62
6
 10
3663.536
 20
-6494.677
 30
1284.053
 70
    32
  0
VERTEX
  8
T39SSILL
 62
6
 10
3657.349
 20
-6487.462
 30
1284.041
 70
    32
  0
VERTEX
  8
T39SSILL
 62
6
 10
3592.738
 20
-6534.539
 30
1283.927
 70
    32
  0
VERTEX
  8
T39SSILL
 62
6
 10
3587.976
 20
-6527.794
 30
1283.918
 70
    32
  0
VERTEX
  8
T39SSILL
 62
6
 10
3578.342
 20
-6534.954
 30
1283.900
 70
    32
  0
VERTEX
  8
T39SSILL
 62
6
 10
3583.038
 20
-6541.606
 30
1283.909
 70
    32
  0
VERTEX
  8
T39SSILL
 62
6
 10
3549.467
 20
-6566.067
 30
1283.850
 70
    32
  0
VERTEX
  8
T39SSILL
 62
6
 10
3544.748
 20
-6561.117
 30
1283.841
 70
    32
  0
VERTEX
  8
T39SSILL
 62
6
 10
3543.991
 20
-6556.956
 30
1283.839
 70
    32
  0
VERTEX
  8
T39SSILL
 62
6
 10
3540.733
 20
-6551.782
 30
1283.833
 70
    32
  0
VERTEX
  8
T39SSILL
 62
6
 10
3535.811
 20
-6552.550
 30
1283.824
 70
    32
  0
VERTEX
  8
T39SSILL
 62
6
 10
3531.546
 20
-6551.079
 30
1283.817
 70
    32
  0
VERTEX
  8
T39SSILL
 62
6
 10
3526.026
 20
-6551.629
 30
1283.807
 70
    32
  0
VERTEX
  8
T39SSILL
 62
6
 10
3520.838
 20
-6564.115
 30
1283.798
 70
    32
  0
VERTEX
  8
T39SSILL
 62
6
 10
3524.361
 20
-6571.290
 30
1283.805
 70
    32
  0
VERTEX
  8
T39SSILL
 62
6
 10
3523.205
 20
-6573.895
 30
1283.803
 70
    32
  0
VERTEX
  8
T39SSILL
 62
6
 10
3519.985
 20
-6579.503
 30
1283.797
 70
    32
  0
VERTEX
  8
T39SSILL
 62
6
 10
3518.682
 20
-6577.443
 30
1283.795
 70
    32
  0
VERTEX
  8
T39SSILL
 62
6
 10
3498.958
 20
-6592.394
 30
1283.760
 70
    32
  0
VERTEX
  8
T39SSILL
 62
6
 10
3502.198
 20
-6596.798
 30
1283.763
 70
    32
  0
VERTEX
  8
T39SSILL
 62
6
 10
3498.592
 20
-6597.607
 30
1283.756
 70
    32
  0
VERTEX
  8
T39SSILL
 62
6
 10
3488.742
 20
-6597.021
 30
1283.740
 70
    32
  0
VERTEX
  8
T39SSILL
 62
6
 10
3472.117
 20
-6585.675
 30
1283.728
 70
    32
  0
VERTEX
  8
T39SSILL
 62
6
 10
3428.141
 20
-6524.503
 30
1283.793
 70
    32
  0
VERTEX
  8
T39SSILL
 62
6
 10
3439.937
 20
-6527.305
 30
1283.781
 70
    32
  0
VERTEX
  8
T39SSILL
 62
6
 10
3448.598
 20
-6526.677
 30
1283.773
 70
    32
  0
VERTEX
  8
T39SSILL
 62
6
 10
3456.739
 20
-6524.250
 30
1283.765
 70
    32
  0
VERTEX
  8
T39SSILL
 62
6
 10
3505.729
 20
-6489.023
 30
1283.825
 70
    32
  0
VERTEX
  8
T39SSILL
 62
6
 10
3508.091
 20
-6492.372
 30
1283.825
 70
    32
  0
VERTEX
  8
T39SSILL
 62
6
 10
3513.890
 20
-6487.997
 30
1283.833
 70
    32
  0
VERTEX
  8
T39SSILL
 62
6
 10
3516.108
 20
-6495.054
 30
1283.830
 70
    32
  0
VERTEX
  8
T39SSILL
 62
6
 10
3522.262
 20
-6504.015
 30
1283.829
 70
    32
  0
VERTEX
  8
T39SSILL
 62
6
 10
3553.106
 20
-6501.494
 30
1283.860
 70
    32
  0
VERTEX
  8
T39SSILL
 62
6
 10
3557.450
 20
-6497.539
 30
1283.867
 70
    32
  0
VERTEX
  8
T39SSILL
 62
6
 10
3556.581
 20
-6472.677
 30
1283.884
 70
    32
  0
VERTEX
  8
T39SSILL
 62
6
 10
3551.663
 20
-6466.523
 30
1283.884
 70
    32
  0
VERTEX
  8
T39SSILL
 62
6
 10
3550.030
 20
-6461.938
 30
1283.886
 70
    32
  0
VERTEX
  8
T39SSILL
 62
6
 10
3560.310
 20
-6453.979
 30
1283.901
 70
    32
  0
VERTEX
  8
T39SSILL
 62
6
 10
3558.555
 20
-6450.445
 30
1283.902
 70
    32
  0
VERTEX
  8
T39SSILL
 62
6
 10
3602.805
 20
-6418.129
 30
1283.967
 70
    32
  0
VERTEX
  8
T39SSILL
 62
6
 10
3596.759
 20
-6411.612
 30
1283.966
 70
    32
  0
VERTEX
  8
T39SSILL
 62
6
 10
3555.766
 20
-6441.473
 30
1283.906
 70
    32
  0
VERTEX
  8
T39SSILL
 62
6
 10
3551.648
 20
-6422.731
 30
1283.916
 70
    32
  0
VERTEX
  8
T39SSILL
 62
6
 10
3546.230
 20
-6415.415
 30
1283.916
 70
    32
  0
VERTEX
  8
T39SSILL
 62
6
 10
3540.254
 20
-6400.147
 30
1283.922
 70
    32
  0
VERTEX
  8
T39SSILL
 62
6
 10
3535.776
 20
-6399.644
 30
1283.918
 70
    32
  0
VERTEX
  8
T39SSILL
 62
6
 10
3528.149
 20
-6388.152
 30
1283.920
 70
    32
  0
VERTEX
  8
T39SSILL
 62
6
 10
3510.985
 20
-6368.586
 30
1283.918
 70
    32
  0
VERTEX
  8
T39SSILL
 62
6
 10
3502.448
 20
-6364.355
 30
1283.914
 70
    32
  0
VERTEX
  8
T39SSILL
 62
6
 10
3499.721
 20
-6361.740
 30
1283.913
 70
    32
  0
VERTEX
  8
T39SSILL
 62
6
 10
3496.771
 20
-6353.320
 30
1283.916
 70
    32
  0
VERTEX
  8
T39SSILL
 62
6
 10
3489.340
 20
-6341.038
 30
1283.919
 70
    32
  0
VERTEX
  8
T39SSILL
 62
6
 10
3484.170
 20
-6337.883
 30
1283.916
 70
    32
  0
VERTEX
  8
T39SSILL
 62
6
 10
3475.082
 20
-6336.538
 30
1283.909
 70
    32
  0
VERTEX
  8
T39SSILL
 62
6
 10
3469.995
 20
-6332.890
 30
1283.907
 70
    32
  0
VERTEX
  8
T39SSILL
 62
6
 10
3454.440
 20
-6310.554
 30
1283.909
 70
    32
  0
VERTEX
  8
T39SSILL
 62
6
 10
3449.419
 20
-6305.016
 30
1283.908
 70
    32
  0
VERTEX
  8
T39SSILL
 62
6
 10
3441.618
 20
-6301.535
 30
1283.903
 70
    32
  0
VERTEX
  8
T39SSILL
 62
6
 10
3435.854
 20
-6296.749
 30
1283.902
 70
    32
  0
VERTEX
  8
T39SSILL
 62
6
 10
3431.224
 20
-6300.175
 30
1283.895
 70
    32
  0
VERTEX
  8
T39SSILL
 62
6
 10
3419.712
 20
-6299.680
 30
1283.885
 70
    32
  0
VERTEX
  8
T39SSILL
 62
6
 10
3405.505
 20
-6285.493
 30
1283.901
 70
    32
  0
VERTEX
  8
T39SSILL
 62
6
 10
3389.916
 20
-6274.241
 30
1283.920
 70
    32
  0
VERTEX
  8
T39SSILL
 62
6
 10
3383.267
 20
-6265.956
 30
1283.930
 70
    32
  0
VERTEX
  8
T39SSILL
 62
6
 10
3376.807
 20
-6265.562
 30
1283.936
 70
    32
  0
VERTEX
  8
T39SSILL
 62
6
 10
3371.275
 20
-6263.423
 30
1283.943
 70
    32
  0
VERTEX
  8
T39SSILL
 62
6
 10
3368.204
 20
-6263.221
 30
1283.946
 70
    32
  0
VERTEX
  8
T39SSILL
 62
6
 10
3365.190
 20
-6264.930
 30
1283.948
 70
    32
  0
VERTEX
  8
T39SSILL
 62
6
 10
3352.046
 20
-6262.456
 30
1283.962
 70
    32
  0
VERTEX
  8
T39SSILL
 62
6
 10
3348.152
 20
-6266.172
 30
1283.964
 70
    32
  0
VERTEX
  8
T39SSILL
 62
6
 10
3345.719
 20
-6262.091
 30
1283.968
 70
    32
  0
VERTEX
  8
T39SSILL
 62
6
 10
3340.810
 20
-6257.525
 30
1283.974
 70
    32
  0
VERTEX
  8
T39SSILL
 62
6
 10
3382.889
 20
-6227.841
 30
1283.944
 70
    32
  0
VERTEX
  8
T39SSILL
 62
6
 10
3377.370
 20
-6221.583
 30
1283.952
 70
    32
  0
VERTEX
  8
T39SSILL
 62
6
 10
3354.580
 20
-6237.534
 30
1283.968
 70
    32
  0
VERTEX
  8
T39SSILL
 62
6
 10
3351.653
 20
-6233.277
 30
1283.973
 70
    32
  0
VERTEX
  8
T39SSILL
 62
6
 10
3341.796
 20
-6240.122
 30
1283.980
 70
    32
  0
VERTEX
  8
T39SSILL
 62
6
 10
3344.749
 20
-6244.415
 30
1283.975
 70
    32
  0
VERTEX
  8
T39SSILL
 62
6
 10
3334.981
 20
-6251.251
 30
1283.982
 70
    32
  0
VERTEX
  8
T39SSILL
 62
6
 10
3325.132
 20
-6240.226
 30
1283.996
 70
    32
  0
VERTEX
  8
T39SSILL
 62
6
 10
3294.452
 20
-6223.420
 30
1284.032
 70
    32
  0
VERTEX
  8
T39SSILL
 62
6
 10
3360.000
 20
-6199.000
 30
1283.977
 70
    32
  0
VERTEX
  8
T39SSILL
 62
6
 10
3381.000
 20
-6200.000
 30
1283.956
 70
    32
  0
VERTEX
  8
T39SSILL
 62
6
 10
3391.380
 20
-6202.888
 30
1283.944
 70
    32
  0
VERTEX
  8
T39SSILL
 62
6
 10
3399.973
 20
-6207.073
 30
1283.935
 70
    32
  0
VERTEX
  8
T39SSILL
 62
6
 10
3406.796
 20
-6212.730
 30
1283.936
 70
    32
  0
VERTEX
  8
T39SSILL
 62
6
 10
3454.854
 20
-6279.600
 30
1283.932
 70
    32
  0
VERTEX
  8
T39SSILL
 62
6
 10
3455.380
 20
-6281.715
 30
1283.931
 70
    32
  0
VERTEX
  8
T39SSILL
 62
6
 10
3453.221
 20
-6285.842
 30
1283.926
 70
    32
  0
VERTEX
  8
T39SSILL
 62
6
 10
3456.691
 20
-6294.093
 30
1283.923
 70
    32
  0
VERTEX
  8
T39SSILL
 62
6
 10
3466.335
 20
-6299.914
 30
1283.927
 70
    32
  0
VERTEX
  8
T39SSILL
 62
6
 10
3491.006
 20
-6330.135
 30
1283.928
 70
    32
  0
VERTEX
  8
T39SSILL
 62
6
 10
3498.453
 20
-6325.072
 30
1283.939
 70
    32
  0
VERTEX
  8
T39SSILL
 62
6
 10
3479.904
 20
-6299.353
 30
1283.940
 70
    32
  0
VERTEX
  8
T39SSILL
 62
6
 10
3476.879
 20
-6289.301
 30
1283.945
 70
    32
  0
VERTEX
  8
T39SSILL
 62
6
 10
3473.588
 20
-6285.576
 30
1283.945
 70
    32
  0
VERTEX
  8
T39SSILL
 62
6
 10
3471.404
 20
-6279.443
 30
1283.947
 70
    32
  0
VERTEX
  8
T39SSILL
 62
6
 10
3463.362
 20
-6276.416
 30
1283.942
 70
    32
  0
VERTEX
  8
T39SSILL
 62
6
 10
3408.805
 20
-6201.677
 30
1283.946
 70
    32
  0
VERTEX
  8
T39SSILL
 62
6
 10
3395.233
 20
-6195.504
 30
1283.943
 70
    32
  0
VERTEX
  8
T39SSILL
 62
6
 10
3372.000
 20
-6191.000
 30
1283.968
 70
    32
  0
VERTEX
  8
T39SSILL
 62
6
 10
3360.000
 20
-6191.000
 30
1283.979
 70
    32
  0
VERTEX
  8
T39SSILL
 62
6
 10
3258.000
 20
-6230.000
 30
1284.065
 70
    32
  0
VERTEX
  8
T39SSILL
 62
6
 10
3249.000
 20
-6232.000
 30
1284.074
 70
    32
  0
VERTEX
  8
T39SSILL
 62
6
 10
3238.000
 20
-6232.000
 30
1284.012
 70
    32
  0
VERTEX
  8
T39SSILL
 62
6
 10
3220.000
 20
-6226.000
 30
1283.707
 70
    32
  0
VERTEX
  8
T39SSILL
 62
6
 10
3210.000
 20
-6218.000
 30
1283.701
 70
    32
  0
VERTEX
  8
T39SSILL
 62
6
 10
3198.000
 20
-6201.000
 30
1283.699
 70
    32
  0
VERTEX
  8
T39SSILL
 62
6
 10
3242.000
 20
-6208.000
 30
1283.934
 70
    32
  0
VERTEX
  8
T39SSILL
 62
6
 10
3331.000
 20
-6145.000
 30
1284.024
 70
    32
  0
VERTEX
  8
T39SSILL
 62
6
 10
3326.426
 20
-6139.407
 30
1284.031
 70
    32
  0
VERTEX
  8
T39SSILL
 62
6
 10
3241.000
 20
-6200.000
 30
1283.852
 70
    32
  0
VERTEX
  8
T39SSILL
 62
6
 10
3192.000
 20
-6192.000
 30
1283.698
 70
    32
  0
VERTEX
  8
T39SSILL
 62
6
 10
3167.253
 20
-6158.100
 30
1283.692
 70
    32
  0
VERTEX
  8
T39SSILL
 62
6
 10
3216.000
 20
-6007.000
 30
1283.844
 70
    32
  0
VERTEX
  8
T39SSILL
 62
6
 10
3716.874
 20
-5647.204
 30
1284.353
 70
    32
  0
VERTEX
  8
T39SSILL
 62
6
 10
3821.531
 20
-5668.577
 30
1284.449
 70
    32
  0
VERTEX
  8
T39SSILL
 62
6
 10
3840.106
 20
-5682.508
 30
1284.468
 70
    32
  0
VERTEX
  8
T39SSILL
 62
6
 10
3956.514
 20
-5843.454
 30
1284.612
 70
    32
  0
VERTEX
  8
T39SSILL
 62
6
 10
3959.223
 20
-5846.734
 30
1284.615
 70
    32
  0
VERTEX
  8
T39SSILL
 62
6
 10
3962.210
 20
-5848.077
 30
1284.618
 70
    32
  0
VERTEX
  8
T39SSILL
 62
6
 10
4445.335
 20
-6504.285
 30
1285.470
 70
    32
  0
VERTEX
  8
T39SSILL
 62
6
 10
4133.411
 20
-6731.348
 30
1284.692
 70
    32
  0
VERTEX
  8
T39SSILL
 62
6
 10
3996.565
 20
-6829.627
 30
1284.331
 70
    32
  0
VERTEX
  8
T39SSILL
 62
6
 10
3986.453
 20
-6825.286
 30
1284.319
 70
    32
  0
VERTEX
  8
T39SSILL
 62
6
 10
3979.098
 20
-6819.615
 30
1284.313
 70
    32
  0
VERTEX
  8
T39SSILL
 62
6
 10
3967.699
 20
-6801.885
 30
1284.315
 70
    32
  0
VERTEX
  8
T39SSILL
 62
6
 10
3961.811
 20
-6786.575
 30
1284.324
 70
    32
  0
VERTEX
  8
T39SSILL
 62
6
 10
3949.370
 20
-6797.704
 30
1284.289
 70
    32
  0
VERTEX
  8
T39SSILL
 62
6
 10
3952.903
 20
-6805.639
 30
1284.285
 70
    32
  0
VERTEX
  8
T39SSILL
 62
6
 10
3956.593
 20
-6810.057
 30
1284.286
 70
    32
  0
VERTEX
  8
T39SSILL
 62
6
 10
3961.983
 20
-6814.101
 30
1284.290
 70
    32
  0
VERTEX
  8
T39SSILL
 62
6
 10
3968.329
 20
-6816.016
 30
1284.299
 70
    32
  0
VERTEX
  8
T39SSILL
 62
6
 10
3974.150
 20
-6825.120
 30
1284.297
 70
    32
  0
VERTEX
  8
T39SSILL
 62
6
 10
3975.529
 20
-6840.566
 30
1284.280
 70
    32
  0
VERTEX
  8
T39SSILL
 62
6
 10
3977.387
 20
-6843.400
 30
1284.280
 70
    32
  0
VERTEX
  8
T39SSILL
 62
6
 10
3976.194
 20
-6844.256
 30
1284.277
 70
    32
  0
VERTEX
  8
T39SSILL
 62
6
 10
3971.815
 20
-6838.800
 30
1284.276
 70
    32
  0
VERTEX
  8
T39SSILL
 62
6
 10
3963.398
 20
-6840.932
 30
1284.259
 70
    32
  0
VERTEX
  8
T39SSILL
 62
6
 10
3960.467
 20
-6844.405
 30
1284.249
 70
    32
  0
VERTEX
  8
T39SSILL
 62
6
 10
3965.118
 20
-6852.211
 30
1284.248
 70
    32
  0
VERTEX
  8
T39SSILL
 62
6
 10
3893.461
 20
-6903.673
 30
1284.059
 70
    32
  0
VERTEX
  8
T39SSILL
 62
6
 10
3890.401
 20
-6903.030
 30
1284.054
 70
    32
  0
VERTEX
  8
T39SSILL
 62
6
 10
3877.028
 20
-6888.033
 30
1284.050
 70
    32
  0
VERTEX
  8
T39SSILL
 62
6
 10
3869.026
 20
-6887.758
 30
1284.036
 70
    32
  0
VERTEX
  8
T39SSILL
 62
6
 10
3863.793
 20
-6889.852
 30
1284.024
 70
    32
  0
VERTEX
  8
T39SSILL
 62
6
 10
3859.152
 20
-6893.694
 30
1284.012
 70
    32
  0
VERTEX
  8
T39SSILL
 62
6
 10
3839.075
 20
-6862.863
 30
1284.015
 70
    32
  0
VERTEX
  8
T39SSILL
 62
6
 10
3841.156
 20
-6846.421
 30
1284.040
 70
    32
  0
VERTEX
  8
T39SSILL
 62
6
 10
3851.379
 20
-6836.551
 30
1284.070
 70
    32
  0
VERTEX
  8
T39SSILL
 62
6
 10
3850.950
 20
-6830.458
 30
1284.077
 70
    32
  0
VERTEX
  8
T39SSILL
 62
6
 10
3845.767
 20
-6814.627
 30
1284.087
 70
    32
  0
VERTEX
  8
T39SSILL
 62
6
 10
3837.976
 20
-6802.601
 30
1284.089
 70
    32
  0
VERTEX
  8
T39SSILL
 62
6
 10
3832.383
 20
-6791.073
 30
1284.094
 70
    32
  0
VERTEX
  8
T39SSILL
 62
6
 10
3831.343
 20
-6782.596
 30
1284.102
 70
    32
  0
VERTEX
  8
T39SSILL
 62
6
 10
3828.790
 20
-6775.954
 30
1284.106
 70
    32
  0
VERTEX
  8
T39SSILL
 62
6
 10
3824.692
 20
-6770.952
 30
1284.105
 70
    32
  0
VERTEX
  8
T39SSILL
 62
6
 10
3845.393
 20
-6756.452
 30
1284.160
 70
    32
  0
VERTEX
  8
T39SSILL
 62
6
 10
3844.384
 20
-6748.170
 30
1284.168
 70
    32
  0
VERTEX
  8
T39SSILL
 62
6
 10
3841.387
 20
-6747.157
 30
1284.164
 70
    32
  0
VERTEX
  8
T39SSILL
 62
6
 10
3839.525
 20
-6748.047
 30
1284.160
 70
    32
  0
VERTEX
  8
T39SSILL
 62
6
 10
3819.397
 20
-6763.657
 30
1284.105
 70
    32
  0
VERTEX
  8
T39SSILL
 62
6
 10
3809.653
 20
-6747.816
 30
1284.108
 70
    32
  0
VERTEX
  8
T39SSILL
 62
6
 10
3804.150
 20
-6741.753
 30
1284.106
 70
    32
  0
VERTEX
  8
T39SSILL
 62
6
 10
3813.029
 20
-6735.332
 30
1284.130
 70
    32
  0
VERTEX
  8
T39SSILL
 62
6
 10
3808.315
 20
-6730.269
 30
1284.128
 70
    32
  0
VERTEX
  8
T39SSILL
 62
6
 10
3793.921
 20
-6740.785
 30
1284.090
 70
    32
  0
VERTEX
  8
T39SSILL
 62
6
 10
3780.532
 20
-6728.511
 30
1284.082
 70
    32
  0
VERTEX
  8
T39SSILL
 62
6
 10
3773.282
 20
-6727.159
 30
1284.071
 70
    32
  0
VERTEX
  8
T39SSILL
 62
6
 10
3765.188
 20
-6722.179
 30
1284.063
 70
    32
  0
VERTEX
  8
T39SSILL
 62
6
 10
3752.289
 20
-6720.507
 30
1284.043
 70
    32
  0
VERTEX
  8
T39SSILL
 62
6
 10
3741.442
 20
-6725.075
 30
1284.018
 70
    32
  0
VERTEX
  8
T39SSILL
 62
6
 10
3735.937
 20
-6733.651
 30
1283.998
 70
    32
  0
VERTEX
  8
T39SSILL
 62
6
 10
3735.644
 20
-6736.136
 30
1283.994
 70
    32
  0
VERTEX
  8
T39SSILL
 62
6
 10
3754.963
 20
-6756.447
 30
1284.002
 70
    32
  0
VERTEX
  8
T39SSILL
 62
6
 10
3764.595
 20
-6757.947
 30
1284.017
 70
    32
  0
VERTEX
  8
T39SSILL
 62
6
 10
3767.621
 20
-6759.916
 30
1284.020
 70
    32
  0
VERTEX
  8
T39SSILL
 62
6
 10
3700.918
 20
-6807.772
 30
1283.844
 70
    32
  0
VERTEX
  8
T39SSILL
 62
6
 10
3639.574
 20
-6797.456
 30
1283.751
 70
    32
  0
VERTEX
  8
T39SSILL
 62
6
 10
3635.915
 20
-6794.790
 30
1283.800
 70
    32
  0
VERTEX
  8
T39SSILL
 62
6
 10
3630.289
 20
-6791.231
 30
1283.700
 70
    32
  0
VERTEX
  8
T39SSILL
 62
6
 10
3616.882
 20
-6778.565
 30
1283.700
 70
    32
  0
VERTEX
  8
T39SSILL
 62
6
 10
3602.023
 20
-6759.111
 30
1283.700
 70
    32
  0
VERTEX
  8
T39SSILL
 62
6
 10
3602.476
 20
-6759.194
 30
1283.700
 70
    32
  0
VERTEX
  8
T39SSILL
 62
6
 10
3608.499
 20
-6759.522
 30
1283.744
 70
    32
  0
VERTEX
  8
T39SSILL
 62
6
 10
3627.578
 20
-6753.873
 30
1283.784
 70
    32
  0
VERTEX
  8
T39SSILL
 62
6
 10
3700.187
 20
-6701.571
 30
1283.976
 70
    32
  0
VERTEX
  8
T39SSILL
 62
6
 10
3710.197
 20
-6707.685
 30
1283.986
 70
    32
  0
VERTEX
  8
T39SSILL
 62
6
 10
3718.743
 20
-6724.221
 30
1283.980
 70
    32
  0
VERTEX
  8
T39SSILL
 62
6
 10
3723.822
 20
-6739.029
 30
1283.970
 70
    32
  0
VERTEX
  8
T39SSILL
 62
6
 10
3728.389
 20
-6742.253
 30
1283.974
 70
    32
  0
VERTEX
  8
T39SSILL
 62
6
 10
3731.575
 20
-6737.934
 30
1283.985
 70
    32
  0
VERTEX
  8
T39SSILL
 62
6
 10
3731.719
 20
-6735.743
 30
1283.988
 70
    32
  0
VERTEX
  8
T39SSILL
 62
6
 10
3724.420
 20
-6714.338
 30
1284.002
 70
    32
  0
VERTEX
  8
T39SSILL
 62
6
 10
3724.345
 20
-6709.016
 30
1284.009
 70
    32
  0
VERTEX
  8
T39SSILL
 62
6
 10
3726.234
 20
-6707.407
 30
1284.014
 70
    32
  0
VERTEX
  8
T39SSILL
 62
6
 10
3733.009
 20
-6706.922
 30
1284.026
 70
    32
  0
VERTEX
  8
T39SSILL
 62
6
 10
3737.502
 20
-6702.738
 30
1284.039
 70
    32
  0
VERTEX
  8
T39SSILL
 62
6
 10
3738.526
 20
-6700.997
 30
1284.043
 70
    32
  0
VERTEX
  8
T39SSILL
 62
6
 10
3737.551
 20
-6697.435
 30
1284.046
 70
    32
  0
VERTEX
  8
T39SSILL
 62
6
 10
3738.151
 20
-6674.225
 30
1284.076
 70
    32
  0
VERTEX
  8
T39SSILL
 62
6
 10
3754.709
 20
-6662.298
 30
1284.120
 70
    32
  0
VERTEX
  8
T39SSILL
 62
6
 10
3749.823
 20
-6656.339
 30
1284.119
 70
    32
  0
VERTEX
  8
T39SSILL
 62
6
 10
3738.516
 20
-6664.474
 30
1284.089
 70
    32
  0
VERTEX
  8
T39SSILL
 62
6
 10
3722.907
 20
-6655.757
 30
1284.073
 70
    32
  0
VERTEX
  8
T39SSILL
 62
6
 10
3713.334
 20
-6645.133
 30
1284.070
 70
    32
  0
VERTEX
  8
T39SSILL
 62
6
 10
3701.367
 20
-6625.736
 30
1284.073
 70
    32
  0
VERTEX
  8
T39SSILL
 62
6
 10
3699.570
 20
-6625.083
 30
1284.071
 70
    32
  0
VERTEX
  8
T39SSILL
 62
6
 10
3693.128
 20
-6625.873
 30
1284.059
 70
    32
  0
VERTEX
  8
T39SSILL
 62
6
 10
3689.640
 20
-6628.439
 30
1284.049
 70
    32
  0
VERTEX
  8
T39SSILL
 62
6
 10
3685.237
 20
-6641.993
 30
1284.025
 70
    32
  0
VERTEX
  8
T39SSILL
 62
6
 10
3681.516
 20
-6644.841
 30
1284.015
 70
    32
  0
VERTEX
  8
T39SSILL
 62
6
 10
3675.101
 20
-6644.623
 30
1284.004
 70
    32
  0
VERTEX
  8
T39SSILL
 62
6
 10
3665.216
 20
-6625.670
 30
1284.010
 70
    32
  0
VERTEX
  8
T39SSILL
 62
6
 10
3659.724
 20
-6611.757
 30
1284.018
 70
    32
  0
VERTEX
  8
T39SSILL
 62
6
 10
3686.635
 20
-6591.861
 30
1284.090
 70
    32
  0
VERTEX
  8
T39SSILL
 62
6
 10
3682.118
 20
-6585.965
 30
1284.089
 70
    32
  0
VERTEX
  8
T39SSILL
 62
6
 10
3657.922
 20
-6603.602
 30
1284.025
 70
    32
  0
VERTEX
  8
T39SSILL
 62
6
 10
3629.523
 20
-6569.850
 30
1283.995
 70
    32
  0
VERTEX
  8
T39SSILL
 62
6
 10
3609.949
 20
-6583.813
 30
1283.960
 70
    32
  0
VERTEX
  8
T39SSILL
 62
6
 10
3618.166
 20
-6599.605
 30
1283.961
 70
    32
  0
VERTEX
  8
T39SSILL
 62
6
 10
3632.193
 20
-6622.357
 30
1283.957
 70
    32
  0
VERTEX
  8
T39SSILL
 62
6
 10
3567.639
 20
-6669.412
 30
1283.786
 70
    32
  0
VERTEX
  8
T39SSILL
 62
6
 10
3562.270
 20
-6672.688
 30
1283.773
 70
    32
  0
VERTEX
  8
T39SSILL
 62
6
 10
3549.835
 20
-6675.023
 30
1283.748
 70
    32
  0
VERTEX
  8
T39SSILL
 62
6
 10
3542.615
 20
-6673.866
 30
1283.737
 70
    32
  0
VERTEX
  8
T39SSILL
 62
6
 10
3528.497
 20
-6663.680
 30
1283.725
 70
    32
  0
VERTEX
  8
T39SSILL
 62
6
 10
3485.486
 20
-6604.253
 30
1283.725
 70
    32
  0
VERTEX
  8
T39SSILL
 62
6
 10
3492.154
 20
-6605.328
 30
1283.735
 70
    32
  0
VERTEX
  8
T39SSILL
 62
6
 10
3506.599
 20
-6604.600
 30
1283.761
 70
    32
  0
VERTEX
  8
T39SSILL
 62
6
 10
3512.172
 20
-6602.373
 30
1283.774
 70
    32
  0
VERTEX
  8
T39SSILL
 62
6
 10
3525.181
 20
-6593.430
 30
1283.807
 70
    32
  0
SEQEND
  8
T39SSILL
  0
POLYLINE
  8
T39SSILL
 62
6
 66
     1
 70
     9
  0
VERTEX
  8
T39SSILL
 62
6
 10
3599.487
 20
-6751.726
 30
1283.738
 70
    32
  0
VERTEX
  8
T39SSILL
 62
6
 10
3604.939
 20
-6752.837
 30
1283.746
 70
    32
  0
VERTEX
  8
T39SSILL
 62
6
 10
3618.822
 20
-6750.556
 30
1283.773
 70
    32
  0
VERTEX
  8
T39SSILL
 62
6
 10
3702.467
 20
-6690.414
 30
1283.994
 70
    32
  0
VERTEX
  8
T39SSILL
 62
6
 10
3696.741
 20
-6669.412
 30
1284.010
 70
    32
  0
VERTEX
  8
T39SSILL
 62
6
 10
3692.155
 20
-6662.581
 30
1284.011
 70
    32
  0
VERTEX
  8
T39SSILL
 62
6
 10
3677.615
 20
-6653.856
 30
1283.997
 70
    32
  0
VERTEX
  8
T39SSILL
 62
6
 10
3672.312
 20
-6647.991
 30
1283.995
 70
    32
  0
VERTEX
  8
T39SSILL
 62
6
 10
3664.477
 20
-6654.195
 30
1283.973
 70
    32
  0
VERTEX
  8
T39SSILL
 62
6
 10
3652.581
 20
-6640.562
 30
1283.970
 70
    32
  0
VERTEX
  8
T39SSILL
 62
6
 10
3650.569
 20
-6636.336
 30
1283.972
 70
    32
  0
VERTEX
  8
T39SSILL
 62
6
 10
3637.556
 20
-6628.147
 30
1283.959
 70
    32
  0
VERTEX
  8
T39SSILL
 62
6
 10
3570.231
 20
-6677.328
 30
1283.781
 70
    32
  0
VERTEX
  8
T39SSILL
 62
6
 10
3558.777
 20
-6682.110
 30
1283.755
 70
    32
  0
VERTEX
  8
T39SSILL
 62
6
 10
3551.066
 20
-6682.113
 30
1283.741
 70
    32
  0
VERTEX
  8
T39SSILL
 62
6
 10
3548.992
 20
-6684.466
 30
1283.700
 70
    32
  0
VERTEX
  8
T39SSILL
 62
6
 10
3550.747
 20
-6687.877
 30
1283.700
 70
    32
  0
VERTEX
  8
T39SSILL
 62
6
 10
3554.465
 20
-6688.610
 30
1283.700
 70
    32
  0
VERTEX
  8
T39SSILL
 62
6
 10
3560.384
 20
-6698.146
 30
1283.700
 70
    32
  0
VERTEX
  8
T39SSILL
 62
6
 10
3561.013
 20
-6699.317
 30
1283.700
 70
    32
  0
VERTEX
  8
T39SSILL
 62
6
 10
3572.361
 20
-6716.065
 30
1283.700
 70
    32
  0
VERTEX
  8
T39SSILL
 62
6
 10
3594.849
 20
-6747.770
 30
1283.700
 70
    32
  0
SEQEND
  8
T39SSILL
  0
POLYLINE
  8
T39SSILL
 62
6
 66
     1
 70
     9
  0
VERTEX
  8
T39SSILL
 62
6
 10
3535.683
 20
-6686.178
 30
1283.700
 70
    32
  0
VERTEX
  8
T39SSILL
 62
6
 10
3529.788
 20
-6688.237
 30
1283.700
 70
    32
  0
VERTEX
  8
T39SSILL
 62
6
 10
3529.383
 20
-6690.709
 30
1283.700
 70
    32
  0
VERTEX
  8
T39SSILL
 62
6
 10
3527.909
 20
-6701.518
 30
1283.700
 70
    32
  0
VERTEX
  8
T39SSILL
 62
6
 10
3531.882
 20
-6710.984
 30
1283.700
 70
    32
  0
VERTEX
  8
T39SSILL
 62
6
 10
3539.504
 20
-6717.318
 30
1283.700
 70
    32
  0
VERTEX
  8
T39SSILL
 62
6
 10
3554.377
 20
-6724.338
 30
1283.700
 70
    32
  0
VERTEX
  8
T39SSILL
 62
6
 10
3558.443
 20
-6724.380
 30
1283.700
 70
    32
  0
VERTEX
  8
T39SSILL
 62
6
 10
3561.043
 20
-6722.380
 30
1283.700
 70
    32
  0
SEQEND
  8
T39SSILL
  0
LINE
  8
T39SSILL
 62
24
 10
3930.664
 20
-2567.278
 30
1284.000
 11
3929.864
 21
-2561.357
 31
1284.000
  0
LINE
  8
T39SSILL
 62
24
 10
3929.864
 20
-2561.357
 30
1284.000
 11
3923.047
 21
-2562.277
 31
1284.000
  0
LINE
  8
T39SSILL
 62
24
 10
3930.664
 20
-2567.278
 30
1284.000
 11
3923.047
 21
-2562.277
 31
1284.000
  0
LINE
  8
T39SSILL
 62
24
 10
3923.847
 20
-2568.199
 30
1284.000
 11
3930.664
 21
-2567.278
 31
1284.000
  0
LINE
  8
T39SSILL
 62
24
 10
3922.557
 20
-2549.232
 30
1284.000
 11
3928.670
 21
-2542.979
 31
1284.000
  0
LINE
  8
T39SSILL
 62
24
 10
3929.006
 20
-2548.863
 30
1284.000
 11
3928.670
 21
-2542.979
 31
1284.000
  0
LINE
  8
T39SSILL
 62
24
 10
3922.557
 20
-2549.232
 30
1284.000
 11
3929.006
 21
-2548.863
 31
1284.000
  0
LINE
  8
T39SSILL
 62
24
 10
3922.221
 20
-2543.348
 30
1284.000
 11
3922.557
 21
-2549.232
 31
1284.000
  0
LINE
  8
T39SSILL
 62
1
 10
3930.000
 20
-2543.000
 30
1284.000
 11
3922.000
 21
-2536.000
 31
1284.000
  0
LINE
  8
T39SSILL
 62
24
 10
3928.670
 20
-2542.979
 30
1284.000
 11
3922.221
 21
-2543.348
 31
1284.000
  0
LINE
  8
T39SSILL
 62
24
 10
3929.006
 20
-2548.863
 30
1284.000
 11
3922.221
 21
-2543.348
 31
1284.000
  0
LINE
  8
T39SSILL
 62
1
 10
3930.000
 20
-2543.000
 30
1284.000
 11
3922.266
 21
-2549.559
 31
1284.000
  0
POLYLINE
  8
T39SSILL
 62
1
 66
     1
 70
     8
  0
VERTEX
  8
T39SSILL
 62
1
 10
3912.576
 20
-2543.942
 30
1284.000
 70
    32
  0
VERTEX
  8
T39SSILL
 62
1
 10
3922.000
 20
-2543.000
 30
1284.000
 70
    32
  0
VERTEX
  8
T39SSILL
 62
1
 10
3922.000
 20
-2536.000
 30
1284.000
 70
    32
  0
VERTEX
  8
T39SSILL
 62
1
 10
3930.000
 20
-2536.000
 30
1284.000
 70
    32
  0
VERTEX
  8
T39SSILL
 62
1
 10
3930.000
 20
-2543.000
 30
1284.000
 70
    32
  0
VERTEX
  8
T39SSILL
 62
1
 10
3934.000
 20
-2542.000
 30
1284.000
 70
    32
  0
VERTEX
  8
T39SSILL
 62
1
 10
3966.000
 20
-2551.000
 30
1284.000
 70
    32
  0
SEQEND
  8
T39SSILL
  0
LINE
  8
T39SSILL
 62
1
 10
3966.000
 20
-2551.000
 30
1284.000
 11
3973.042
 21
-2547.759
 31
1284.000
  0
POLYLINE
  8
T39SSILL
 62
1
 66
     1
 70
     8
  0
VERTEX
  8
T39SSILL
 62
1
 10
3914.879
 20
-2582.590
 30
1284.000
 70
    32
  0
VERTEX
  8
T39SSILL
 62
1
 10
3974.000
 20
-2555.000
 30
1284.000
 70
    32
  0
VERTEX
  8
T39SSILL
 62
1
 10
3984.000
 20
-2556.000
 30
1284.000
 70
    32
  0
VERTEX
  8
T39SSILL
 62
1
 10
3986.000
 20
-2558.000
 30
1284.000
 70
    32
  0
VERTEX
  8
T39SSILL
 62
1
 10
3997.000
 20
-2550.000
 30
1284.000
 70
    32
  0
VERTEX
  8
T39SSILL
 62
1
 10
3980.000
 20
-2528.000
 30
1284.000
 70
    32
  0
VERTEX
  8
T39SSILL
 62
1
 10
3969.000
 20
-2536.000
 30
1284.000
 70
    32
  0
VERTEX
  8
T39SSILL
 62
1
 10
3984.000
 20
-2556.000
 30
1284.000
 70
    32
  0
SEQEND
  8
T39SSILL
  0
LINE
  8
T39SSILL
 62
1
 10
3912.000
 20
-2577.000
 30
1284.000
 11
3923.481
 21
-2599.294
 31
1284.000
  0
POLYLINE
  8
T39SSILL
 62
1
 66
     1
 70
     8
  0
VERTEX
  8
T39SSILL
 62
1
 10
3913.000
 20
-2550.000
 30
1284.000
 70
    32
  0
VERTEX
  8
T39SSILL
 62
1
 10
3934.000
 20
-2549.000
 30
1284.000
 70
    32
  0
VERTEX
  8
T39SSILL
 62
1
 10
3957.000
 20
-2556.000
 30
1284.000
 70
    32
  0
VERTEX
  8
T39SSILL
 62
1
 10
3933.000
 20
-2566.000
 30
1284.000
 70
    32
  0
VERTEX
  8
T39SSILL
 62
1
 10
3930.000
 20
-2560.000
 30
1284.000
 70
    32
  0
VERTEX
  8
T39SSILL
 62
1
 10
3927.000
 20
-2559.000
 30
1284.000
 70
    32
  0
VERTEX
  8
T39SSILL
 62
1
 10
3917.000
 20
-2566.000
 30
1284.000
 70
    32
  0
VERTEX
  8
T39SSILL
 62
1
 10
3919.000
 20
-2570.000
 30
1284.000
 70
    32
  0
VERTEX
  8
T39SSILL
 62
1
 10
3919.000
 20
-2573.000
 30
1284.000
 70
    32
  0
VERTEX
  8
T39SSILL
 62
1
 10
3912.000
 20
-2577.000
 30
1284.000
 70
    32
  0
SEQEND
  8
T39SSILL
  0
LINE
  8
T39SSILL
 62
1
 10
3934.002
 20
-2569.019
 30
1284.000
 11
3922.814
 21
-2562.091
 31
1284.000
  0
POLYLINE
  8
T39SSILL
 62
1
 66
     1
 70
     9
  0
VERTEX
  8
T39SSILL
 62
1
 10
3934.002
 20
-2569.019
 30
1284.000
 70
    32
  0
VERTEX
  8
T39SSILL
 62
1
 10
3933.206
 20
-2562.401
 30
1284.000
 70
    32
  0
VERTEX
  8
T39SSILL
 62
1
 10
3925.619
 20
-2563.184
 30
1284.000
 70
    32
  0
VERTEX
  8
T39SSILL
 62
1
 10
3926.238
 20
-2569.888
 30
1284.000
 70
    32
  0
SEQEND
  8
T39SSILL
  0
LINE
  8
T39SSILL
 62
24
 10
3923.047
 20
-2562.277
 30
1284.000
 11
3923.847
 21
-2568.199
 31
1284.000
  0
POLYLINE
  8
T39SSILL
 62
1
 66
     1
 70
     9
  0
VERTEX
  8
T39SSILL
 62
1
 10
3930.768
 20
-2567.039
 30
1284.000
 70
    32
  0
VERTEX
  8
T39SSILL
 62
1
 10
3929.516
 20
-2561.560
 30
1284.000
 70
    32
  0
VERTEX
  8
T39SSILL
 62
1
 10
3922.814
 20
-2562.091
 30
1284.000
 70
    32
  0
VERTEX
  8
T39SSILL
 62
1
 10
3923.795
 20
-2568.007
 30
1284.000
 70
    32
  0
SEQEND
  8
T39SSILL
  0
LINE
  8
T39SSILL
 62
1
 10
3913.000
 20
-2550.000
 30
1284.000
 11
3911.354
 21
-2526.503
 31
1284.000
  0
LINE
  8
T39SSILL
 62
1
 10
3922.000
 20
-2543.000
 30
1284.000
 11
3929.148
 21
-2549.231
 31
1284.000
  0
POLYLINE
  8
T39SSILL
 62
6
 66
     1
 70
     8
  0
VERTEX
  8
T39SSILL
 62
6
 10
2346.791
 20
-6527.217
 30
1286.300
 70
    32
  0
VERTEX
  8
T39SSILL
 62
6
 10
2346.500
 20
-6547.810
 30
1286.300
 70
    32
  0
VERTEX
  8
T39SSILL
 62
6
 10
2348.294
 20
-6549.227
 30
1286.300
 70
    32
  0
VERTEX
  8
T39SSILL
 62
6
 10
2355.911
 20
-6544.880
 30
1286.300
 70
    32
  0
VERTEX
  8
T39SSILL
 62
6
 10
2360.563
 20
-6552.167
 30
1286.300
 70
    32
  0
VERTEX
  8
T39SSILL
 62
6
 10
2346.125
 20
-6563.004
 30
1286.300
 70
    32
  0
VERTEX
  8
T39SSILL
 62
6
 10
2348.843
 20
-6574.966
 30
1286.300
 70
    32
  0
VERTEX
  8
T39SSILL
 62
6
 10
2360.866
 20
-6587.488
 30
1286.300
 70
    32
  0
VERTEX
  8
T39SSILL
 62
6
 10
2372.652
 20
-6573.111
 30
1286.300
 70
    32
  0
VERTEX
  8
T39SSILL
 62
6
 10
2373.792
 20
-6571.632
 30
1286.300
 70
    32
  0
VERTEX
  8
T39SSILL
 62
6
 10
2377.228
 20
-6577.215
 30
1286.300
 70
    32
  0
VERTEX
  8
T39SSILL
 62
6
 10
2370.358
 20
-6588.332
 30
1286.300
 70
    32
  0
VERTEX
  8
T39SSILL
 62
6
 10
2372.387
 20
-6590.542
 30
1286.300
 70
    32
  0
VERTEX
  8
T39SSILL
 62
6
 10
2377.363
 20
-6590.953
 30
1286.300
 70
    32
  0
VERTEX
  8
T39SSILL
 62
6
 10
2378.818
 20
-6597.758
 30
1286.300
 70
    32
  0
VERTEX
  8
T39SSILL
 62
6
 10
2373.467
 20
-6597.678
 30
1286.300
 70
    32
  0
VERTEX
  8
T39SSILL
 62
6
 10
2375.979
 20
-6601.156
 30
1286.300
 70
    32
  0
VERTEX
  8
T39SSILL
 62
6
 10
2375.487
 20
-6604.650
 30
1286.300
 70
    32
  0
VERTEX
  8
T39SSILL
 62
6
 10
2374.703
 20
-6610.296
 30
1286.300
 70
    32
  0
VERTEX
  8
T39SSILL
 62
6
 10
2374.701
 20
-6610.488
 30
1286.300
 70
    32
  0
VERTEX
  8
T39SSILL
 62
6
 10
2393.059
 20
-6635.979
 30
1286.300
 70
    32
  0
SEQEND
  8
T39SSILL
  0
POINT
  8
T39SSILL
 62
6
 10
2391.699
 20
-6633.987
 30
1286.200
  0
POLYLINE
  8
T39SSILL
 62
6
 66
     1
 70
     8
  0
VERTEX
  8
T39SSILL
 62
6
 10
2401.465
 20
-6648.032
 30
1286.200
 70
    32
  0
VERTEX
  8
T39SSILL
 62
6
 10
2410.993
 20
-6649.222
 30
1286.200
 70
    32
  0
VERTEX
  8
T39SSILL
 62
6
 10
2423.380
 20
-6662.076
 30
1286.200
 70
    32
  0
VERTEX
  8
T39SSILL
 62
6
 10
2420.760
 20
-6668.742
 30
1286.200
 70
    32
  0
VERTEX
  8
T39SSILL
 62
6
 10
2423.856
 20
-6678.739
 30
1286.200
 70
    32
  0
SEQEND
  8
T39SSILL
  0
POINT
  8
T39SSILL
 62
6
 10
2457.681
 20
-6725.634
 30
1286.200
  0
LINE
  8
T39SSILL
 62
1
 10
2393.067
 20
-6648.945
 30
1286.263
 11
2394.162
 21
-6655.511
 31
1286.200
  0
POINT
  8
T39SSILL
 62
6
 10
2393.067
 20
-6648.945
 30
1286.263
  0
POINT
  8
T39SSILL
 62
6
 10
2393.067
 20
-6648.945
 30
1286.263
  0
POLYLINE
  8
T39SSILL
 62
6
 66
     1
 70
     8
  0
VERTEX
  8
T39SSILL
 62
6
 10
2394.162
 20
-6655.511
 30
1286.200
 70
    32
  0
VERTEX
  8
T39SSILL
 62
6
 10
2384.629
 20
-6673.250
 30
1286.200
 70
    32
  0
VERTEX
  8
T39SSILL
 62
6
 10
2396.463
 20
-6677.521
 30
1286.200
 70
    32
  0
VERTEX
  8
T39SSILL
 62
6
 10
2399.093
 20
-6681.791
 30
1286.200
 70
    32
  0
VERTEX
  8
T39SSILL
 62
6
 10
2398.435
 20
-6690.989
 30
1286.200
 70
    32
  0
VERTEX
  8
T39SSILL
 62
6
 10
2396.134
 20
-6700.844
 30
1286.200
 70
    32
  0
VERTEX
  8
T39SSILL
 62
6
 10
2403.695
 20
-6702.486
 30
1286.200
 70
    32
  0
VERTEX
  8
T39SSILL
 62
6
 10
2406.467
 20
-6684.452
 30
1286.200
 70
    32
  0
VERTEX
  8
T39SSILL
 62
6
 10
2409.088
 20
-6680.882
 30
1286.200
 70
    32
  0
VERTEX
  8
T39SSILL
 62
6
 10
2412.422
 20
-6680.882
 30
1286.200
 70
    32
  0
SEQEND
  8
T39SSILL
  0
POINT
  8
T39SSILL
 62
6
 10
2420.185
 20
-6686.269
 30
1286.201
  0
POINT
  8
T39SSILL
 62
6
 10
2431.717
 20
-6701.353
 30
1286.200
  0
POINT
  8
T39SSILL
 62
6
 10
2453.393
 20
-6732.061
 30
1286.200
  0
LINE
  8
T39SSILL
 62
1
 10
2412.422
 20
-6680.882
 30
1286.200
 11
2420.185
 21
-6686.269
 31
1286.201
  0
POLYLINE
  8
T39SSILL
 62
6
 66
     1
 70
     9
  0
VERTEX
  8
T39SSILL
 62
6
 10
2482.416
 20
-6261.003
 30
1285.739
 70
    32
  0
VERTEX
  8
T39SSILL
 62
6
 10
2500.545
 20
-6266.757
 30
1285.743
 70
    32
  0
VERTEX
  8
T39SSILL
 62
6
 10
2472.246
 20
-6287.106
 30
1286.200
 70
    32
  0
VERTEX
  8
T39SSILL
 62
6
 10
2474.547
 20
-6262.376
 30
1285.700
 70
    32
  0
VERTEX
  8
T39SSILL
 62
6
 10
2476.365
 20
-6258.155
 30
1285.700
 70
    32
  0
SEQEND
  8
T39SSILL
  0
POLYLINE
  8
T39SSILL
 62
7
 66
     1
 70
     8
  0
VERTEX
  8
T39SSILL
 62
7
 10
2459.594
 20
-6283.852
 30
1286.432
 70
    32
  0
VERTEX
  8
T39SSILL
 62
7
 10
2452.923
 20
-6294.398
 30
1286.200
 70
    32
  0
VERTEX
  8
T39SSILL
 62
7
 10
2418.812
 20
-6320.662
 30
1285.260
 70
    32
  0
VERTEX
  8
T39SSILL
 62
7
 10
2411.432
 20
-6323.897
 30
1285.345
 70
    32
  0
VERTEX
  8
T39SSILL
 62
7
 10
2382.559
 20
-6343.982
 30
1284.996
 70
    32
  0
VERTEX
  8
T39SSILL
 62
7
 10
2377.347
 20
-6348.492
 30
1284.500
 70
    32
  0
VERTEX
  8
T39SSILL
 62
7
 10
2373.211
 20
-6347.292
 30
1284.500
 70
    32
  0
VERTEX
  8
T39SSILL
 62
7
 10
2368.716
 20
-6337.328
 30
1285.500
 70
    32
  0
VERTEX
  8
T39SSILL
 62
7
 10
2358.957
 20
-6336.500
 30
1286.500
 70
    32
  0
VERTEX
  8
T39SSILL
 62
7
 10
2351.348
 20
-6346.809
 30
1286.209
 70
    32
  0
VERTEX
  8
T39SSILL
 62
7
 10
2353.930
 20
-6354.885
 30
1285.000
 70
    32
  0
VERTEX
  8
T39SSILL
 62
7
 10
2353.874
 20
-6355.721
 30
1284.477
 70
    32
  0
VERTEX
  8
T39SSILL
 62
7
 10
2347.082
 20
-6358.312
 30
1284.000
 70
    32
  0
VERTEX
  8
T39SSILL
 62
7
 10
2329.326
 20
-6359.128
 30
1284.465
 70
    32
  0
VERTEX
  8
T39SSILL
 62
7
 10
2328.003
 20
-6368.663
 30
1284.631
 70
    32
  0
VERTEX
  8
T39SSILL
 62
7
 10
2344.570
 20
-6367.958
 30
1284.391
 70
    32
  0
VERTEX
  8
T39SSILL
 62
7
 10
2345.434
 20
-6372.625
 30
1284.489
 70
    32
  0
VERTEX
  8
T39SSILL
 62
7
 10
2338.293
 20
-6378.181
 30
1284.747
 70
    32
  0
SEQEND
  8
T39SSILL
  0
POLYLINE
  8
T39SSILL
 62
7
 66
     1
 70
     8
  0
VERTEX
  8
T39SSILL
 62
7
 10
2348.922
 20
-6388.138
 30
1284.500
 70
    32
  0
VERTEX
  8
T39SSILL
 62
7
 10
2352.089
 20
-6383.103
 30
1284.500
 70
    32
  0
VERTEX
  8
T39SSILL
 62
7
 10
2361.130
 20
-6372.151
 30
1284.643
 70
    32
  0
VERTEX
  8
T39SSILL
 62
7
 10
2368.797
 20
-6366.232
 30
1283.831
 70
    32
  0
VERTEX
  8
T39SSILL
 62
7
 10
2462.953
 20
-6299.141
 30
1286.079
 70
    32
  0
VERTEX
  8
T39SSILL
 62
7
 10
2467.402
 20
-6298.287
 30
1286.158
 70
    32
  0
VERTEX
  8
T39SSILL
 62
7
 10
2470.981
 20
-6293.691
 30
1286.267
 70
    32
  0
SEQEND
  8
T39SSILL
  0
POINT
  8
T39SSILL
 62
6
 10
2284.793
 20
-6000.816
 30
1285.216
  0
POLYLINE
  8
T39SSILL
 62
6
 66
     1
 70
     9
  0
VERTEX
  8
T39SSILL
 62
6
 10
2282.468
 20
-5992.142
 30
1285.347
 70
    32
  0
VERTEX
  8
T39SSILL
 62
6
 10
2322.904
 20
-6003.127
 30
1285.172
 70
    32
  0
VERTEX
  8
T39SSILL
 62
6
 10
2330.041
 20
-5995.427
 30
1285.101
 70
    32
  0
VERTEX
  8
T39SSILL
 62
6
 10
2337.511
 20
-5995.216
 30
1285.066
 70
    32
  0
VERTEX
  8
T39SSILL
 62
6
 10
2349.878
 20
-5986.323
 30
1284.965
 70
    32
  0
VERTEX
  8
T39SSILL
 62
6
 10
2359.941
 20
-5993.264
 30
1284.954
 70
    32
  0
VERTEX
  8
T39SSILL
 62
6
 10
2319.784
 20
-5935.401
 30
1284.847
 70
    32
  0
VERTEX
  8
T39SSILL
 62
6
 10
2317.793
 20
-5936.807
 30
1284.863
 70
    32
  0
VERTEX
  8
T39SSILL
 62
6
 10
2311.745
 20
-5940.234
 30
1284.913
 70
    32
  0
VERTEX
  8
T39SSILL
 62
6
 10
2311.729
 20
-5940.080
 30
1284.914
 70
    32
  0
VERTEX
  8
T39SSILL
 62
6
 10
2304.914
 20
-5952.001
 30
1285.012
 70
    32
  0
VERTEX
  8
T39SSILL
 62
6
 10
2283.755
 20
-5984.306
 30
1285.287
 70
    32
  0
VERTEX
  8
T39SSILL
 62
6
 10
2281.973
 20
-5990.692
 30
1285.334
 70
    32
  0
SEQEND
  8
T39SSILL
  0
LINE
  8
T39SSILL
 62
6
 10
2290.614
 20
-6505.674
 30
1286.500
 11
2284.681
 21
-6497.298
 31
1286.551
  0
POLYLINE
  8
T39SSILL
 62
6
 66
     1
 70
     8
  0
VERTEX
  8
T39SSILL
 62
6
 10
2244.544
 20
-6347.906
 30
1286.910
 70
    32
  0
VERTEX
  8
T39SSILL
 62
6
 10
2273.847
 20
-6389.214
 30
1285.300
 70
    32
  0
VERTEX
  8
T39SSILL
 62
6
 10
2273.651
 20
-6394.116
 30
1285.300
 70
    32
  0
VERTEX
  8
T39SSILL
 62
6
 10
2268.353
 20
-6395.881
 30
1285.300
 70
    32
  0
VERTEX
  8
T39SSILL
 62
6
 10
2264.036
 20
-6396.273
 30
1285.300
 70
    32
  0
VERTEX
  8
T39SSILL
 62
6
 10
2261.289
 20
-6396.273
 30
1285.300
 70
    32
  0
VERTEX
  8
T39SSILL
 62
6
 10
2252.067
 20
-6392.351
 30
1285.300
 70
    32
  0
VERTEX
  8
T39SSILL
 62
6
 10
2243.237
 20
-6389.116
 30
1285.300
 70
    32
  0
VERTEX
  8
T39SSILL
 62
6
 10
2241.274
 20
-6396.861
 30
1285.300
 70
    32
  0
VERTEX
  8
T39SSILL
 62
6
 10
2241.569
 20
-6404.607
 30
1285.300
 70
    32
  0
VERTEX
  8
T39SSILL
 62
6
 10
2245.787
 20
-6404.313
 30
1285.300
 70
    32
  0
VERTEX
  8
T39SSILL
 62
6
 10
2250.693
 20
-6406.666
 30
1285.300
 70
    32
  0
VERTEX
  8
T39SSILL
 62
6
 10
2270.806
 20
-6402.352
 30
1285.300
 70
    32
  0
VERTEX
  8
T39SSILL
 62
6
 10
2275.613
 20
-6401.371
 30
1285.300
 70
    32
  0
VERTEX
  8
T39SSILL
 62
6
 10
2283.266
 20
-6401.567
 30
1285.300
 70
    32
  0
VERTEX
  8
T39SSILL
 62
6
 10
2292.694
 20
-6407.169
 30
1286.535
 70
    32
  0
VERTEX
  8
T39SSILL
 62
6
 10
2283.266
 20
-6401.567
 30
1285.300
 70
    32
  0
VERTEX
  8
T39SSILL
 62
6
 10
2292.694
 20
-6407.169
 30
1286.535
 70
    32
  0
SEQEND
  8
T39SSILL
  0
POLYLINE
  8
T39SSILL
 62
6
 66
     1
 70
     8
  0
VERTEX
  8
T39SSILL
 62
6
 10
2387.117
 20
-6640.756
 30
1286.500
 70
    32
  0
VERTEX
  8
T39SSILL
 62
6
 10
2369.628
 20
-6616.685
 30
1286.500
 70
    32
  0
VERTEX
  8
T39SSILL
 62
6
 10
2368.769
 20
-6616.799
 30
1286.500
 70
    32
  0
VERTEX
  8
T39SSILL
 62
6
 10
2367.093
 20
-6621.252
 30
1286.500
 70
    32
  0
VERTEX
  8
T39SSILL
 62
6
 10
2359.582
 20
-6622.453
 30
1286.500
 70
    32
  0
VERTEX
  8
T39SSILL
 62
6
 10
2357.486
 20
-6615.750
 30
1286.500
 70
    32
  0
VERTEX
  8
T39SSILL
 62
6
 10
2352.532
 20
-6617.559
 30
1286.500
 70
    32
  0
VERTEX
  8
T39SSILL
 62
6
 10
2343.162
 20
-6625.656
 30
1286.500
 70
    32
  0
VERTEX
  8
T39SSILL
 62
6
 10
2342.736
 20
-6634.498
 30
1286.500
 70
    32
  0
VERTEX
  8
T39SSILL
 62
6
 10
2332.550
 20
-6642.408
 30
1286.500
 70
    32
  0
VERTEX
  8
T39SSILL
 62
6
 10
2331.758
 20
-6644.030
 30
1286.500
 70
    32
  0
VERTEX
  8
T39SSILL
 62
6
 10
2335.027
 20
-6649.175
 30
1286.500
 70
    32
  0
VERTEX
  8
T39SSILL
 62
6
 10
2329.790
 20
-6655.184
 30
1286.500
 70
    32
  0
VERTEX
  8
T39SSILL
 62
6
 10
2327.468
 20
-6663.919
 30
1286.500
 70
    32
  0
VERTEX
  8
T39SSILL
 62
6
 10
2320.597
 20
-6662.579
 30
1286.500
 70
    32
  0
VERTEX
  8
T39SSILL
 62
6
 10
2323.457
 20
-6651.269
 30
1286.500
 70
    32
  0
VERTEX
  8
T39SSILL
 62
6
 10
2320.924
 20
-6648.930
 30
1286.500
 70
    32
  0
VERTEX
  8
T39SSILL
 62
6
 10
2314.134
 20
-6651.704
 30
1286.500
 70
    32
  0
VERTEX
  8
T39SSILL
 62
6
 10
2308.387
 20
-6657.781
 30
1286.500
 70
    32
  0
VERTEX
  8
T39SSILL
 62
6
 10
2308.287
 20
-6666.022
 30
1286.500
 70
    32
  0
VERTEX
  8
T39SSILL
 62
6
 10
2308.137
 20
-6678.982
 30
1286.500
 70
    32
  0
VERTEX
  8
T39SSILL
 62
6
 10
2307.875
 20
-6680.485
 30
1286.500
 70
    32
  0
VERTEX
  8
T39SSILL
 62
6
 10
2318.457
 20
-6694.049
 30
1286.500
 70
    32
  0
VERTEX
  8
T39SSILL
 62
6
 10
2326.742
 20
-6705.645
 30
1286.500
 70
    32
  0
VERTEX
  8
T39SSILL
 62
6
 10
2321.450
 20
-6708.472
 30
1286.500
 70
    32
  0
VERTEX
  8
T39SSILL
 62
6
 10
2310.482
 20
-6699.605
 30
1286.500
 70
    32
  0
VERTEX
  8
T39SSILL
 62
6
 10
2302.020
 20
-6697.325
 30
1286.500
 70
    32
  0
VERTEX
  8
T39SSILL
 62
6
 10
2295.164
 20
-6703.038
 30
1286.500
 70
    32
  0
VERTEX
  8
T39SSILL
 62
6
 10
2294.925
 20
-6710.126
 30
1286.500
 70
    32
  0
VERTEX
  8
T39SSILL
 62
6
 10
2289.052
 20
-6710.009
 30
1286.500
 70
    32
  0
VERTEX
  8
T39SSILL
 62
6
 10
2288.321
 20
-6700.944
 30
1286.500
 70
    32
  0
VERTEX
  8
T39SSILL
 62
6
 10
2287.166
 20
-6700.891
 30
1286.500
 70
    32
  0
VERTEX
  8
T39SSILL
 62
6
 10
2265.344
 20
-6687.371
 30
1286.500
 70
    32
  0
VERTEX
  8
T39SSILL
 62
6
 10
2266.294
 20
-6683.739
 30
1286.500
 70
    32
  0
VERTEX
  8
T39SSILL
 62
6
 10
2266.324
 20
-6679.143
 30
1286.500
 70
    32
  0
VERTEX
  8
T39SSILL
 62
6
 10
2264.986
 20
-6668.028
 30
1286.500
 70
    32
  0
VERTEX
  8
T39SSILL
 62
6
 10
2265.988
 20
-6664.467
 30
1286.500
 70
    32
  0
VERTEX
  8
T39SSILL
 62
6
 10
2265.164
 20
-6661.690
 30
1286.500
 70
    32
  0
VERTEX
  8
T39SSILL
 62
6
 10
2264.943
 20
-6641.168
 30
1286.500
 70
    32
  0
VERTEX
  8
T39SSILL
 62
6
 10
2258.299
 20
-6639.293
 30
1286.500
 70
    32
  0
VERTEX
  8
T39SSILL
 62
6
 10
2258.031
 20
-6632.612
 30
1286.500
 70
    32
  0
VERTEX
  8
T39SSILL
 62
6
 10
2262.110
 20
-6632.259
 30
1286.500
 70
    32
  0
VERTEX
  8
T39SSILL
 62
6
 10
2264.786
 20
-6626.548
 30
1286.500
 70
    32
  0
VERTEX
  8
T39SSILL
 62
6
 10
2264.543
 20
-6603.985
 30
1286.500
 70
    32
  0
VERTEX
  8
T39SSILL
 62
6
 10
2256.696
 20
-6586.173
 30
1286.500
 70
    32
  0
VERTEX
  8
T39SSILL
 62
6
 10
2259.819
 20
-6578.345
 30
1286.500
 70
    32
  0
VERTEX
  8
T39SSILL
 62
6
 10
2263.159
 20
-6576.350
 30
1286.500
 70
    32
  0
VERTEX
  8
T39SSILL
 62
6
 10
2262.427
 20
-6574.596
 30
1286.500
 70
    32
  0
VERTEX
  8
T39SSILL
 62
6
 10
2259.789
 20
-6568.130
 30
1286.500
 70
    32
  0
VERTEX
  8
T39SSILL
 62
6
 10
2260.856
 20
-6566.155
 30
1286.500
 70
    32
  0
VERTEX
  8
T39SSILL
 62
6
 10
2259.638
 20
-6562.686
 30
1286.500
 70
    32
  0
VERTEX
  8
T39SSILL
 62
6
 10
2254.442
 20
-6554.052
 30
1286.500
 70
    32
  0
VERTEX
  8
T39SSILL
 62
6
 10
2252.079
 20
-6553.050
 30
1286.500
 70
    32
  0
VERTEX
  8
T39SSILL
 62
6
 10
2242.859
 20
-6549.960
 30
1286.500
 70
    32
  0
VERTEX
  8
T39SSILL
 62
6
 10
2238.040
 20
-6543.339
 30
1286.500
 70
    32
  0
VERTEX
  8
T39SSILL
 62
6
 10
2239.397
 20
-6539.519
 30
1286.500
 70
    32
  0
VERTEX
  8
T39SSILL
 62
6
 10
2239.138
 20
-6539.163
 30
1286.500
 70
    32
  0
VERTEX
  8
T39SSILL
 62
6
 10
2237.480
 20
-6535.688
 30
1286.500
 70
    32
  0
VERTEX
  8
T39SSILL
 62
6
 10
2237.821
 20
-6532.716
 30
1286.500
 70
    32
  0
VERTEX
  8
T39SSILL
 62
6
 10
2244.759
 20
-6529.082
 30
1286.500
 70
    32
  0
VERTEX
  8
T39SSILL
 62
6
 10
2248.942
 20
-6529.740
 30
1286.500
 70
    32
  0
VERTEX
  8
T39SSILL
 62
6
 10
2250.307
 20
-6527.875
 30
1286.500
 70
    32
  0
VERTEX
  8
T39SSILL
 62
6
 10
2256.624
 20
-6525.781
 30
1286.500
 70
    32
  0
VERTEX
  8
T39SSILL
 62
6
 10
2257.952
 20
-6526.558
 30
1286.500
 70
    32
  0
VERTEX
  8
T39SSILL
 62
6
 10
2259.590
 20
-6528.959
 30
1286.500
 70
    32
  0
VERTEX
  8
T39SSILL
 62
6
 10
2262.757
 20
-6531.663
 30
1286.500
 70
    32
  0
VERTEX
  8
T39SSILL
 62
6
 10
2264.901
 20
-6533.261
 30
1286.500
 70
    32
  0
VERTEX
  8
T39SSILL
 62
6
 10
2267.717
 20
-6534.587
 30
1286.500
 70
    32
  0
VERTEX
  8
T39SSILL
 62
6
 10
2268.696
 20
-6536.380
 30
1286.500
 70
    32
  0
VERTEX
  8
T39SSILL
 62
6
 10
2267.895
 20
-6541.863
 30
1286.500
 70
    32
  0
VERTEX
  8
T39SSILL
 62
6
 10
2268.842
 20
-6544.659
 30
1286.500
 70
    32
  0
VERTEX
  8
T39SSILL
 62
6
 10
2276.225
 20
-6553.007
 30
1286.500
 70
    32
  0
VERTEX
  8
T39SSILL
 62
6
 10
2279.353
 20
-6554.760
 30
1286.500
 70
    32
  0
VERTEX
  8
T39SSILL
 62
6
 10
2280.719
 20
-6556.488
 30
1286.500
 70
    32
  0
VERTEX
  8
T39SSILL
 62
6
 10
2283.711
 20
-6559.102
 30
1286.500
 70
    32
  0
VERTEX
  8
T39SSILL
 62
6
 10
2286.977
 20
-6565.982
 30
1286.500
 70
    32
  0
VERTEX
  8
T39SSILL
 62
6
 10
2289.525
 20
-6568.375
 30
1286.500
 70
    32
  0
VERTEX
  8
T39SSILL
 62
6
 10
2292.242
 20
-6570.971
 30
1286.500
 70
    32
  0
VERTEX
  8
T39SSILL
 62
6
 10
2293.460
 20
-6573.242
 30
1286.500
 70
    32
  0
VERTEX
  8
T39SSILL
 62
6
 10
2293.694
 20
-6575.359
 30
1286.500
 70
    32
  0
VERTEX
  8
T39SSILL
 62
6
 10
2293.792
 20
-6577.139
 30
1286.500
 70
    32
  0
VERTEX
  8
T39SSILL
 62
6
 10
2310.491
 20
-6600.379
 30
1286.500
 70
    32
  0
VERTEX
  8
T39SSILL
 62
6
 10
2313.913
 20
-6609.867
 30
1286.500
 70
    32
  0
VERTEX
  8
T39SSILL
 62
6
 10
2314.750
 20
-6614.159
 30
1286.500
 70
    32
  0
VERTEX
  8
T39SSILL
 62
6
 10
2318.895
 20
-6617.459
 30
1286.500
 70
    32
  0
VERTEX
  8
T39SSILL
 62
6
 10
2322.449
 20
-6616.506
 30
1286.500
 70
    32
  0
VERTEX
  8
T39SSILL
 62
6
 10
2323.236
 20
-6617.368
 30
1286.500
 70
    32
  0
VERTEX
  8
T39SSILL
 62
6
 10
2328.554
 20
-6613.511
 30
1286.500
 70
    32
  0
VERTEX
  8
T39SSILL
 62
6
 10
2330.407
 20
-6610.631
 30
1286.500
 70
    32
  0
VERTEX
  8
T39SSILL
 62
6
 10
2323.899
 20
-6605.149
 30
1286.500
 70
    32
  0
VERTEX
  8
T39SSILL
 62
6
 10
2330.380
 20
-6598.885
 30
1286.500
 70
    32
  0
VERTEX
  8
T39SSILL
 62
6
 10
2337.595
 20
-6605.610
 30
1286.500
 70
    32
  0
VERTEX
  8
T39SSILL
 62
6
 10
2340.573
 20
-6604.796
 30
1286.500
 70
    32
  0
VERTEX
  8
T39SSILL
 62
6
 10
2342.235
 20
-6603.590
 30
1286.500
 70
    32
  0
VERTEX
  8
T39SSILL
 62
6
 10
2347.706
 20
-6599.529
 30
1286.500
 70
    32
  0
VERTEX
  8
T39SSILL
 62
6
 10
2350.568
 20
-6595.097
 30
1286.500
 70
    32
  0
VERTEX
  8
T39SSILL
 62
6
 10
2351.305
 20
-6591.353
 30
1286.500
 70
    32
  0
VERTEX
  8
T39SSILL
 62
6
 10
2290.614
 20
-6505.674
 30
1286.500
 70
    32
  0
SEQEND
  8
T39SSILL
  0
POLYLINE
  8
T39SSILL
 62
6
 66
     1
 70
     8
  0
VERTEX
  8
T39SSILL
 62
6
 10
3693.967
 20
-7158.663
 30
1284.045
 70
    32
  0
VERTEX
  8
T39SSILL
 62
6
 10
3737.000
 20
-7129.000
 30
1283.937
 70
    32
  0
VERTEX
  8
T39SSILL
 62
6
 10
3733.499
 20
-7129.363
 30
1283.943
 70
    32
  0
VERTEX
  8
T39SSILL
 62
6
 10
3725.831
 20
-7126.995
 30
1283.952
 70
    32
  0
VERTEX
  8
T39SSILL
 62
6
 10
3712.913
 20
-7118.833
 30
1283.962
 70
    32
  0
VERTEX
  8
T39SSILL
 62
6
 10
3677.198
 20
-7067.309
 30
1283.954
 70
    32
  0
VERTEX
  8
T39SSILL
 62
6
 10
3673.226
 20
-7070.561
 30
1283.964
 70
    32
  0
VERTEX
  8
T39SSILL
 62
6
 10
3667.464
 20
-7062.729
 30
1283.965
 70
    32
  0
VERTEX
  8
T39SSILL
 62
6
 10
3671.826
 20
-7059.411
 30
1283.953
 70
    32
  0
VERTEX
  8
T39SSILL
 62
6
 10
3658.902
 20
-7042.144
 30
1283.954
 70
    32
  0
VERTEX
  8
T39SSILL
 62
6
 10
3666.265
 20
-7037.386
 30
1283.936
 70
    32
  0
VERTEX
  8
T39SSILL
 62
6
 10
3679.075
 20
-7055.393
 30
1283.936
 70
    32
  0
VERTEX
  8
T39SSILL
 62
6
 10
3688.316
 20
-7048.266
 30
1283.912
 70
    32
  0
VERTEX
  8
T39SSILL
 62
6
 10
3692.835
 20
-7054.706
 30
1283.912
 70
    32
  0
VERTEX
  8
T39SSILL
 62
6
 10
3688.470
 20
-7058.467
 30
1283.924
 70
    32
  0
VERTEX
  8
T39SSILL
 62
6
 10
3687.004
 20
-7066.020
 30
1283.936
 70
    32
  0
VERTEX
  8
T39SSILL
 62
6
 10
3716.461
 20
-7105.907
 30
1283.940
 70
    32
  0
VERTEX
  8
T39SSILL
 62
6
 10
3730.340
 20
-7117.313
 30
1283.933
 70
    32
  0
VERTEX
  8
T39SSILL
 62
6
 10
3741.000
 20
-7121.000
 30
1283.920
 70
    32
  0
VERTEX
  8
T39SSILL
 62
6
 10
3747.000
 20
-7120.000
 30
1283.909
 70
    32
  0
VERTEX
  8
T39SSILL
 62
6
 10
3753.000
 20
-7117.000
 30
1283.896
 70
    32
  0
VERTEX
  8
T39SSILL
 62
6
 10
3787.000
 20
-7092.000
 30
1283.809
 70
    32
  0
VERTEX
  8
T39SSILL
 62
6
 10
3796.000
 20
-7044.000
 30
1283.732
 70
    32
  0
VERTEX
  8
T39SSILL
 62
6
 10
3738.336
 20
-6964.523
 30
1283.730
 70
    32
  0
VERTEX
  8
T39SSILL
 62
6
 10
3645.930
 20
-6843.609
 30
1283.736
 70
    32
  0
VERTEX
  8
T39SSILL
 62
6
 10
3643.142
 20
-6853.472
 30
1283.752
 70
    32
  0
VERTEX
  8
T39SSILL
 62
6
 10
3636.381
 20
-6862.190
 30
1283.774
 70
    32
  0
VERTEX
  8
T39SSILL
 62
6
 10
3595.551
 20
-6892.199
 30
1283.879
 70
    32
  0
VERTEX
  8
T39SSILL
 62
6
 10
3624.760
 20
-6929.319
 30
1283.875
 70
    32
  0
VERTEX
  8
T39SSILL
 62
6
 10
3632.459
 20
-6935.293
 30
1283.869
 70
    32
  0
VERTEX
  8
T39SSILL
 62
6
 10
3637.066
 20
-6942.886
 30
1283.871
 70
    32
  0
VERTEX
  8
T39SSILL
 62
6
 10
3650.855
 20
-6956.677
 30
1283.864
 70
    32
  0
VERTEX
  8
T39SSILL
 62
6
 10
3665.803
 20
-6975.767
 30
1283.862
 70
    32
  0
VERTEX
  8
T39SSILL
 62
6
 10
3664.855
 20
-6985.366
 30
1283.875
 70
    32
  0
VERTEX
  8
T39SSILL
 62
6
 10
3660.362
 20
-6993.731
 30
1283.893
 70
    32
  0
VERTEX
  8
T39SSILL
 62
6
 10
3650.450
 20
-7004.882
 30
1283.923
 70
    32
  0
VERTEX
  8
T39SSILL
 62
6
 10
3646.676
 20
-7003.488
 30
1283.928
 70
    32
  0
VERTEX
  8
T39SSILL
 62
6
 10
3642.973
 20
-6999.954
 30
1283.930
 70
    32
  0
VERTEX
  8
T39SSILL
 62
6
 10
3627.803
 20
-6973.555
 30
1283.923
 70
    32
  0
VERTEX
  8
T39SSILL
 62
6
 10
3622.904
 20
-6969.144
 30
1283.926
 70
    32
  0
VERTEX
  8
T39SSILL
 62
6
 10
3619.846
 20
-6968.871
 30
1283.931
 70
    32
  0
VERTEX
  8
T39SSILL
 62
6
 10
3600.524
 20
-6943.994
 30
1283.933
 70
    32
  0
VERTEX
  8
T39SSILL
 62
6
 10
3595.812
 20
-6936.258
 30
1283.932
 70
    32
  0
VERTEX
  8
T39SSILL
 62
6
 10
3586.178
 20
-6912.153
 30
1283.919
 70
    32
  0
VERTEX
  8
T39SSILL
 62
6
 10
3579.335
 20
-6904.021
 30
1283.921
 70
    32
  0
VERTEX
  8
T39SSILL
 62
6
 10
3508.199
 20
-6955.885
 30
1284.103
 70
    32
  0
VERTEX
  8
T39SSILL
 62
6
 10
3503.450
 20
-6948.397
 30
1284.102
 70
    32
  0
VERTEX
  8
T39SSILL
 62
6
 10
3576.147
 20
-6896.031
 30
1283.916
 70
    32
  0
VERTEX
  8
T39SSILL
 62
6
 10
3561.496
 20
-6874.634
 30
1283.915
 70
    32
  0
VERTEX
  8
T39SSILL
 62
6
 10
3556.173
 20
-6863.833
 30
1283.911
 70
    32
  0
VERTEX
  8
T39SSILL
 62
6
 10
3557.814
 20
-6855.921
 30
1283.898
 70
    32
  0
VERTEX
  8
T39SSILL
 62
6
 10
3562.480
 20
-6850.176
 30
1283.884
 70
    32
  0
VERTEX
  8
T39SSILL
 62
6
 10
3569.387
 20
-6847.173
 30
1283.868
 70
    32
  0
VERTEX
  8
T39SSILL
 62
6
 10
3575.908
 20
-6845.883
 30
1283.856
 70
    32
  0
VERTEX
  8
T39SSILL
 62
6
 10
3580.664
 20
-6846.224
 30
1283.848
 70
    32
  0
VERTEX
  8
T39SSILL
 62
6
 10
3583.831
 20
-6848.285
 30
1283.846
 70
    32
  0
VERTEX
  8
T39SSILL
 62
6
 10
3589.507
 20
-6863.441
 30
1283.854
 70
    32
  0
VERTEX
  8
T39SSILL
 62
6
 10
3590.501
 20
-6879.849
 30
1283.873
 70
    32
  0
VERTEX
  8
T39SSILL
 62
6
 10
3592.329
 20
-6884.374
 30
1283.875
 70
    32
  0
VERTEX
  8
T39SSILL
 62
6
 10
3629.129
 20
-6857.865
 30
1283.781
 70
    32
  0
VERTEX
  8
T39SSILL
 62
6
 10
3636.946
 20
-6847.599
 30
1283.756
 70
    32
  0
VERTEX
  8
T39SSILL
 62
6
 10
3640.112
 20
-6835.047
 30
1283.735
 70
    32
  0
VERTEX
  8
T39SSILL
 62
6
 10
3636.723
 20
-6823.590
 30
1283.727
 70
    32
  0
VERTEX
  8
T39SSILL
 62
6
 10
3589.559
 20
-6757.744
 30
1283.727
 70
    32
  0
VERTEX
  8
T39SSILL
 62
6
 10
3588.796
 20
-6756.808
 30
1283.700
 70
    32
  0
VERTEX
  8
T39SSILL
 62
6
 10
3578.263
 20
-6751.135
 30
1283.700
 70
    32
  0
VERTEX
  8
T39SSILL
 62
6
 10
3578.176
 20
-6751.661
 30
1283.700
 70
    32
  0
VERTEX
  8
T39SSILL
 62
6
 10
3577.824
 20
-6752.378
 30
1283.739
 70
    32
  0
VERTEX
  8
T39SSILL
 62
6
 10
3571.141
 20
-6794.238
 30
1283.801
 70
    32
  0
VERTEX
  8
T39SSILL
 62
6
 10
3517.017
 20
-6832.916
 30
1283.939
 70
    32
  0
VERTEX
  8
T39SSILL
 62
6
 10
3512.031
 20
-6826.719
 30
1283.940
 70
    32
  0
VERTEX
  8
T39SSILL
 62
6
 10
3520.588
 20
-6820.575
 30
1283.918
 70
    32
  0
VERTEX
  8
T39SSILL
 62
6
 10
3516.641
 20
-6814.514
 30
1283.917
 70
    32
  0
VERTEX
  8
T39SSILL
 62
6
 10
3530.977
 20
-6804.064
 30
1283.881
 70
    32
  0
VERTEX
  8
T39SSILL
 62
6
 10
3541.882
 20
-6799.034
 30
1283.856
 70
    32
  0
VERTEX
  8
T39SSILL
 62
6
 10
3544.216
 20
-6803.608
 30
1283.858
 70
    32
  0
VERTEX
  8
T39SSILL
 62
6
 10
3549.138
 20
-6800.073
 30
1283.845
 70
    32
  0
VERTEX
  8
T39SSILL
 62
6
 10
3542.305
 20
-6790.351
 30
1283.845
 70
    32
  0
VERTEX
  8
T39SSILL
 62
6
 10
3552.187
 20
-6783.542
 30
1283.820
 70
    32
  0
VERTEX
  8
T39SSILL
 62
6
 10
3558.886
 20
-6793.074
 30
1283.821
 70
    32
  0
VERTEX
  8
T39SSILL
 62
6
 10
3563.465
 20
-6789.786
 30
1283.809
 70
    32
  0
VERTEX
  8
T39SSILL
 62
6
 10
3570.404
 20
-6746.666
 30
1283.745
 70
    32
  0
VERTEX
  8
T39SSILL
 62
6
 10
3570.672
 20
-6746.160
 30
1283.700
 70
    32
  0
VERTEX
  8
T39SSILL
 62
6
 10
3570.814
 20
-6745.298
 30
1283.700
 70
    32
  0
VERTEX
  8
T39SSILL
 62
6
 10
3550.258
 20
-6733.216
 30
1283.700
 70
    32
  0
VERTEX
  8
T39SSILL
 62
6
 10
3536.211
 20
-6727.380
 30
1283.700
 70
    32
  0
VERTEX
  8
T39SSILL
 62
6
 10
3526.944
 20
-6721.970
 30
1283.700
 70
    32
  0
VERTEX
  8
T39SSILL
 62
6
 10
3518.164
 20
-6710.559
 30
1283.700
 70
    32
  0
VERTEX
  8
T39SSILL
 62
6
 10
3516.909
 20
-6711.009
 30
1283.789
 70
    32
  0
VERTEX
  8
T39SSILL
 62
6
 10
3506.721
 20
-6721.286
 30
1283.821
 70
    32
  0
VERTEX
  8
T39SSILL
 62
6
 10
3466.035
 20
-6750.280
 30
1283.926
 70
    32
  0
VERTEX
  8
T39SSILL
 62
6
 10
3471.218
 20
-6771.490
 30
1283.942
 70
    32
  0
VERTEX
  8
T39SSILL
 62
6
 10
3475.625
 20
-6779.003
 30
1283.944
 70
    32
  0
VERTEX
  8
T39SSILL
 62
6
 10
3477.085
 20
-6784.289
 30
1283.948
 70
    32
  0
VERTEX
  8
T39SSILL
 62
6
 10
3462.477
 20
-6787.536
 30
1283.977
 70
    32
  0
VERTEX
  8
T39SSILL
 62
6
 10
3453.592
 20
-6781.988
 30
1283.985
 70
    32
  0
VERTEX
  8
T39SSILL
 62
6
 10
3423.991
 20
-6733.640
 30
1283.977
 70
    32
  0
VERTEX
  8
T39SSILL
 62
6
 10
3419.615
 20
-6707.914
 30
1283.953
 70
    32
  0
VERTEX
  8
T39SSILL
 62
6
 10
3420.868
 20
-6695.708
 30
1283.936
 70
    32
  0
VERTEX
  8
T39SSILL
 62
6
 10
3422.863
 20
-6689.754
 30
1283.926
 70
    32
  0
VERTEX
  8
T39SSILL
 62
6
 10
3412.771
 20
-6672.154
 30
1283.893
 70
    32
  0
VERTEX
  8
T39SSILL
 62
6
 10
3351.872
 20
-6716.554
 30
1283.954
 70
    32
  0
VERTEX
  8
T39SSILL
 62
6
 10
3361.290
 20
-6730.027
 30
1284.020
 70
    32
  0
VERTEX
  8
T39SSILL
 62
6
 10
3355.831
 20
-6734.245
 30
1284.026
 70
    32
  0
VERTEX
  8
T39SSILL
 62
6
 10
3346.184
 20
-6720.701
 30
1283.959
 70
    32
  0
VERTEX
  8
T39SSILL
 62
6
 10
3332.827
 20
-6730.440
 30
1283.973
 70
    32
  0
VERTEX
  8
T39SSILL
 62
6
 10
3328.153
 20
-6724.544
 30
1283.943
 70
    32
  0
VERTEX
  8
T39SSILL
 62
6
 10
3409.396
 20
-6666.086
 30
1283.864
 70
    32
  0
VERTEX
  8
T39SSILL
 62
6
 10
3388.259
 20
-6653.728
 30
1283.798
 70
    32
  0
VERTEX
  8
T39SSILL
 62
6
 10
3381.214
 20
-6646.503
 30
1283.784
 70
    32
  0
VERTEX
  8
T39SSILL
 62
6
 10
3373.759
 20
-6634.977
 30
1283.795
 70
    32
  0
VERTEX
  8
T39SSILL
 62
6
 10
3349.988
 20
-6621.373
 30
1283.822
 70
    32
  0
VERTEX
  8
T39SSILL
 62
6
 10
3344.372
 20
-6609.815
 30
1283.832
 70
    32
  0
VERTEX
  8
T39SSILL
 62
6
 10
3337.977
 20
-6608.827
 30
1283.838
 70
    32
  0
VERTEX
  8
T39SSILL
 62
6
 10
3298.465
 20
-6637.469
 30
1283.861
 70
    32
  0
VERTEX
  8
T39SSILL
 62
6
 10
3301.569
 20
-6641.601
 30
1283.856
 70
    32
  0
VERTEX
  8
T39SSILL
 62
6
 10
3298.736
 20
-6643.730
 30
1283.858
 70
    32
  0
VERTEX
  8
T39SSILL
 62
6
 10
3296.239
 20
-6653.177
 30
1283.856
 70
    32
  0
VERTEX
  8
T39SSILL
 62
6
 10
3300.627
 20
-6666.949
 30
1283.846
 70
    32
  0
VERTEX
  8
T39SSILL
 62
6
 10
3298.748
 20
-6676.654
 30
1283.844
 70
    32
  0
VERTEX
  8
T39SSILL
 62
6
 10
3292.800
 20
-6680.353
 30
1283.848
 70
    32
  0
VERTEX
  8
T39SSILL
 62
6
 10
3286.853
 20
-6672.982
 30
1283.856
 70
    32
  0
VERTEX
  8
T39SSILL
 62
6
 10
3282.311
 20
-6669.623
 30
1283.862
 70
    32
  0
VERTEX
  8
T39SSILL
 62
6
 10
3278.985
 20
-6660.443
 30
1283.868
 70
    32
  0
VERTEX
  8
T39SSILL
 62
6
 10
3275.411
 20
-6660.650
 30
1283.872
 70
    32
  0
VERTEX
  8
T39SSILL
 62
6
 10
3268.192
 20
-6657.827
 30
1283.879
 70
    32
  0
VERTEX
  8
T39SSILL
 62
6
 10
3265.217
 20
-6650.472
 30
1283.885
 70
    32
  0
VERTEX
  8
T39SSILL
 62
6
 10
3271.228
 20
-6645.960
 30
1283.881
 70
    32
  0
VERTEX
  8
T39SSILL
 62
6
 10
3267.945
 20
-6636.091
 30
1283.889
 70
    32
  0
VERTEX
  8
T39SSILL
 62
6
 10
3255.699
 20
-6615.031
 30
1283.908
 70
    32
  0
VERTEX
  8
T39SSILL
 62
6
 10
3260.755
 20
-6610.562
 30
1283.906
 70
    32
  0
VERTEX
  8
T39SSILL
 62
6
 10
3278.362
 20
-6631.311
 30
1283.881
 70
    32
  0
VERTEX
  8
T39SSILL
 62
6
 10
3286.558
 20
-6635.171
 30
1283.872
 70
    32
  0
VERTEX
  8
T39SSILL
 62
6
 10
3324.501
 20
-6607.500
 30
1283.850
 70
    32
  0
VERTEX
  8
T39SSILL
 62
6
 10
3319.626
 20
-6588.596
 30
1283.863
 70
    32
  0
VERTEX
  8
T39SSILL
 62
6
 10
3321.170
 20
-6574.095
 30
1283.868
 70
    32
  0
VERTEX
  8
T39SSILL
 62
6
 10
3333.448
 20
-6565.870
 30
1283.860
 70
    32
  0
VERTEX
  8
T39SSILL
 62
6
 10
3344.500
 20
-6556.571
 30
1283.854
 70
    32
  0
VERTEX
  8
T39SSILL
 62
6
 10
3341.426
 20
-6546.986
 30
1283.861
 70
    32
  0
VERTEX
  8
T39SSILL
 62
6
 10
3346.833
 20
-6542.698
 30
1283.858
 70
    32
  0
VERTEX
  8
T39SSILL
 62
6
 10
3355.342
 20
-6548.630
 30
1283.848
 70
    32
  0
VERTEX
  8
T39SSILL
 62
6
 10
3362.308
 20
-6551.857
 30
1283.840
 70
    32
  0
VERTEX
  8
T39SSILL
 62
6
 10
3366.753
 20
-6557.478
 30
1283.834
 70
    32
  0
VERTEX
  8
T39SSILL
 62
6
 10
3376.172
 20
-6553.429
 30
1283.827
 70
    32
  0
VERTEX
  8
T39SSILL
 62
6
 10
3386.173
 20
-6552.571
 30
1283.819
 70
    32
  0
VERTEX
  8
T39SSILL
 62
6
 10
3394.558
 20
-6544.567
 30
1283.815
 70
    32
  0
VERTEX
  8
T39SSILL
 62
6
 10
3403.557
 20
-6541.592
 30
1283.808
 70
    32
  0
VERTEX
  8
T39SSILL
 62
6
 10
3406.972
 20
-6522.762
 30
1283.813
 70
    32
  0
VERTEX
  8
T39SSILL
 62
6
 10
3405.041
 20
-6509.053
 30
1283.821
 70
    32
  0
VERTEX
  8
T39SSILL
 62
6
 10
3357.883
 20
-6443.317
 30
1283.890
 70
    32
  0
VERTEX
  8
T39SSILL
 62
6
 10
3357.010
 20
-6456.340
 30
1283.886
 70
    32
  0
VERTEX
  8
T39SSILL
 62
6
 10
3354.990
 20
-6464.504
 30
1283.884
 70
    32
  0
VERTEX
  8
T39SSILL
 62
6
 10
3352.357
 20
-6472.132
 30
1283.883
 70
    32
  0
VERTEX
  8
T39SSILL
 62
6
 10
3346.562
 20
-6480.978
 30
1283.884
 70
    32
  0
VERTEX
  8
T39SSILL
 62
6
 10
3339.870
 20
-6487.852
 30
1283.887
 70
    32
  0
VERTEX
  8
T39SSILL
 62
6
 10
3316.541
 20
-6504.584
 30
1283.901
 70
    32
  0
VERTEX
  8
T39SSILL
 62
6
 10
3318.924
 20
-6508.781
 30
1283.897
 70
    32
  0
VERTEX
  8
T39SSILL
 62
6
 10
3319.179
 20
-6512.869
 30
1283.895
 70
    32
  0
VERTEX
  8
T39SSILL
 62
6
 10
3315.072
 20
-6521.028
 30
1283.895
 70
    32
  0
VERTEX
  8
T39SSILL
 62
6
 10
3325.445
 20
-6532.499
 30
1283.881
 70
    32
  0
VERTEX
  8
T39SSILL
 62
6
 10
3329.519
 20
-6539.707
 30
1283.875
 70
    32
  0
VERTEX
  8
T39SSILL
 62
6
 10
3318.546
 20
-6543.579
 30
1283.883
 70
    32
  0
VERTEX
  8
T39SSILL
 62
6
 10
3298.425
 20
-6546.480
 30
1283.899
 70
    32
  0
VERTEX
  8
T39SSILL
 62
6
 10
3280.084
 20
-6530.732
 30
1283.922
 70
    32
  0
VERTEX
  8
T39SSILL
 62
6
 10
3209.753
 20
-6581.175
 30
1283.963
 70
    32
  0
VERTEX
  8
T39SSILL
 62
6
 10
3205.023
 20
-6575.640
 30
1283.970
 70
    32
  0
VERTEX
  8
T39SSILL
 62
6
 10
3220.833
 20
-6564.277
 30
1283.961
 70
    32
  0
VERTEX
  8
T39SSILL
 62
6
 10
3219.532
 20
-6554.725
 30
1283.966
 70
    32
  0
VERTEX
  8
T39SSILL
 62
6
 10
3232.000
 20
-6545.265
 30
1283.959
 70
    32
  0
VERTEX
  8
T39SSILL
 62
6
 10
3231.265
 20
-6543.064
 30
1283.960
 70
    32
  0
VERTEX
  8
T39SSILL
 62
6
 10
3214.070
 20
-6540.534
 30
1283.977
 70
    32
  0
VERTEX
  8
T39SSILL
 62
6
 10
3204.624
 20
-6542.301
 30
1283.984
 70
    32
  0
VERTEX
  8
T39SSILL
 62
6
 10
3199.081
 20
-6544.607
 30
1283.988
 70
    32
  0
VERTEX
  8
T39SSILL
 62
6
 10
3187.848
 20
-6538.697
 30
1284.001
 70
    32
  0
VERTEX
  8
T39SSILL
 62
6
 10
3181.778
 20
-6531.307
 30
1284.009
 70
    32
  0
VERTEX
  8
T39SSILL
 62
6
 10
3176.464
 20
-6532.131
 30
1284.014
 70
    32
  0
VERTEX
  8
T39SSILL
 62
6
 10
3173.945
 20
-6531.236
 30
1284.016
 70
    32
  0
VERTEX
  8
T39SSILL
 62
6
 10
3174.272
 20
-6525.846
 30
1284.018
 70
    32
  0
VERTEX
  8
T39SSILL
 62
6
 10
3181.085
 20
-6522.280
 30
1284.014
 70
    32
  0
VERTEX
  8
T39SSILL
 62
6
 10
3179.306
 20
-6509.227
 30
1284.021
 70
    32
  0
VERTEX
  8
T39SSILL
 62
6
 10
3175.724
 20
-6505.385
 30
1284.026
 70
    32
  0
VERTEX
  8
T39SSILL
 62
6
 10
3167.205
 20
-6508.117
 30
1284.032
 70
    32
  0
VERTEX
  8
T39SSILL
 62
6
 10
3163.165
 20
-6497.911
 30
1284.040
 70
    32
  0
VERTEX
  8
T39SSILL
 62
6
 10
3132.267
 20
-6520.116
 30
1284.058
 70
    32
  0
VERTEX
  8
T39SSILL
 62
6
 10
3127.802
 20
-6514.619
 30
1284.064
 70
    32
  0
VERTEX
  8
T39SSILL
 62
6
 10
3160.008
 20
-6491.431
 30
1284.046
 70
    32
  0
VERTEX
  8
T39SSILL
 62
6
 10
3159.637
 20
-6486.262
 30
1284.048
 70
    32
  0
VERTEX
  8
T39SSILL
 62
6
 10
3166.546
 20
-6482.079
 30
1284.044
 70
    32
  0
VERTEX
  8
T39SSILL
 62
6
 10
3161.707
 20
-6467.541
 30
1284.054
 70
    32
  0
VERTEX
  8
T39SSILL
 62
6
 10
3163.372
 20
-6465.774
 30
1284.053
 70
    32
  0
VERTEX
  8
T39SSILL
 62
6
 10
3162.272
 20
-6461.429
 30
1284.056
 70
    32
  0
VERTEX
  8
T39SSILL
 62
6
 10
3164.302
 20
-6460.161
 30
1284.055
 70
    32
  0
VERTEX
  8
T39SSILL
 62
6
 10
3180.482
 20
-6476.689
 30
1284.034
 70
    32
  0
VERTEX
  8
T39SSILL
 62
6
 10
3198.635
 20
-6463.620
 30
1284.023
 70
    32
  0
VERTEX
  8
T39SSILL
 62
6
 10
3194.552
 20
-6457.623
 30
1284.029
 70
    32
  0
VERTEX
  8
T39SSILL
 62
6
 10
3200.877
 20
-6453.539
 30
1284.025
 70
    32
  0
VERTEX
  8
T39SSILL
 62
6
 10
3204.808
 20
-6459.175
 30
1284.020
 70
    32
  0
VERTEX
  8
T39SSILL
 62
6
 10
3232.350
 20
-6439.345
 30
1284.003
 70
    32
  0
VERTEX
  8
T39SSILL
 62
6
 10
3228.046
 20
-6421.805
 30
1284.015
 70
    32
  0
VERTEX
  8
T39SSILL
 62
6
 10
3223.924
 20
-6415.728
 30
1284.021
 70
    32
  0
VERTEX
  8
T39SSILL
 62
6
 10
3220.279
 20
-6392.644
 30
1284.034
 70
    32
  0
VERTEX
  8
T39SSILL
 62
6
 10
3227.729
 20
-6389.051
 30
1284.029
 70
    32
  0
VERTEX
  8
T39SSILL
 62
6
 10
3233.707
 20
-6390.480
 30
1284.023
 70
    32
  0
VERTEX
  8
T39SSILL
 62
6
 10
3238.967
 20
-6394.519
 30
1284.017
 70
    32
  0
VERTEX
  8
T39SSILL
 62
6
 10
3238.219
 20
-6404.272
 30
1284.013
 70
    32
  0
VERTEX
  8
T39SSILL
 62
6
 10
3250.627
 20
-6426.185
 30
1283.993
 70
    32
  0
VERTEX
  8
T39SSILL
 62
6
 10
3258.120
 20
-6420.790
 30
1283.988
 70
    32
  0
VERTEX
  8
T39SSILL
 62
6
 10
3254.245
 20
-6414.782
 30
1283.994
 70
    32
  0
VERTEX
  8
T39SSILL
 62
6
 10
3242.771
 20
-6383.404
 30
1284.018
 70
    32
  0
VERTEX
  8
T39SSILL
 62
6
 10
3246.100
 20
-6373.733
 30
1284.019
 70
    32
  0
VERTEX
  8
T39SSILL
 62
6
 10
3253.195
 20
-6374.893
 30
1284.012
 70
    32
  0
VERTEX
  8
T39SSILL
 62
6
 10
3257.342
 20
-6378.760
 30
1284.007
 70
    32
  0
VERTEX
  8
T39SSILL
 62
6
 10
3260.127
 20
-6387.350
 30
1284.001
 70
    32
  0
VERTEX
  8
T39SSILL
 62
6
 10
3267.296
 20
-6400.730
 30
1283.989
 70
    32
  0
VERTEX
  8
T39SSILL
 62
6
 10
3271.419
 20
-6411.215
 30
1283.981
 70
    32
  0
VERTEX
  8
T39SSILL
 62
6
 10
3278.196
 20
-6406.336
 30
1283.977
 70
    32
  0
VERTEX
  8
T39SSILL
 62
6
 10
3290.654
 20
-6391.623
 30
1283.972
 70
    32
  0
VERTEX
  8
T39SSILL
 62
6
 10
3292.696
 20
-6386.182
 30
1283.972
 70
    32
  0
VERTEX
  8
T39SSILL
 62
6
 10
3288.769
 20
-6380.072
 30
1283.978
 70
    32
  0
VERTEX
  8
T39SSILL
 62
6
 10
3286.099
 20
-6370.740
 30
1283.985
 70
    32
  0
VERTEX
  8
T39SSILL
 62
6
 10
3272.519
 20
-6386.165
 30
1283.990
 70
    32
  0
VERTEX
  8
T39SSILL
 62
6
 10
3262.800
 20
-6377.831
 30
1284.002
 70
    32
  0
VERTEX
  8
T39SSILL
 62
6
 10
3281.408
 20
-6355.655
 30
1283.995
 70
    32
  0
VERTEX
  8
T39SSILL
 62
6
 10
3279.669
 20
-6346.847
 30
1284.001
 70
    32
  0
VERTEX
  8
T39SSILL
 62
6
 10
3280.393
 20
-6343.796
 30
1284.001
 70
    32
  0
VERTEX
  8
T39SSILL
 62
6
 10
3284.906
 20
-6340.381
 30
1283.999
 70
    32
  0
VERTEX
  8
T39SSILL
 62
6
 10
3274.423
 20
-6335.346
 30
1284.010
 70
    32
  0
VERTEX
  8
T39SSILL
 62
6
 10
3269.549
 20
-6331.683
 30
1284.016
 70
    32
  0
VERTEX
  8
T39SSILL
 62
6
 10
3252.957
 20
-6315.013
 30
1284.038
 70
    32
  0
VERTEX
  8
T39SSILL
 62
6
 10
3250.816
 20
-6310.444
 30
1284.042
 70
    32
  0
VERTEX
  8
T39SSILL
 62
6
 10
3247.255
 20
-6306.958
 30
1284.046
 70
    32
  0
VERTEX
  8
T39SSILL
 62
6
 10
3245.708
 20
-6313.304
 30
1284.045
 70
    32
  0
VERTEX
  8
T39SSILL
 62
6
 10
3241.061
 20
-6322.547
 30
1284.045
 70
    32
  0
VERTEX
  8
T39SSILL
 62
6
 10
3260.700
 20
-6344.739
 30
1284.018
 70
    32
  0
VERTEX
  8
T39SSILL
 62
6
 10
3253.775
 20
-6351.893
 30
1284.021
 70
    32
  0
VERTEX
  8
T39SSILL
 62
6
 10
3245.541
 20
-6354.416
 30
1284.028
 70
    32
  0
VERTEX
  8
T39SSILL
 62
6
 10
3243.976
 20
-6356.768
 30
1284.028
 70
    32
  0
VERTEX
  8
T39SSILL
 62
6
 10
3251.456
 20
-6366.556
 30
1284.017
 70
    32
  0
VERTEX
  8
T39SSILL
 62
6
 10
3249.196
 20
-6370.479
 30
1284.018
 70
    32
  0
VERTEX
  8
T39SSILL
 62
6
 10
3231.911
 20
-6382.042
 30
1284.028
 70
    32
  0
VERTEX
  8
T39SSILL
 62
6
 10
3216.741
 20
-6394.249
 30
1284.036
 70
    32
  0
VERTEX
  8
T39SSILL
 62
6
 10
3202.639
 20
-6387.863
 30
1284.052
 70
    32
  0
VERTEX
  8
T39SSILL
 62
6
 10
3193.296
 20
-6375.255
 30
1284.065
 70
    32
  0
VERTEX
  8
T39SSILL
 62
6
 10
3171.276
 20
-6376.720
 30
1284.081
 70
    32
  0
VERTEX
  8
T39SSILL
 62
6
 10
3149.836
 20
-6392.127
 30
1284.087
 70
    32
  0
VERTEX
  8
T39SSILL
 62
6
 10
3148.146
 20
-6397.728
 30
1284.087
 70
    32
  0
VERTEX
  8
T39SSILL
 62
6
 10
3144.670
 20
-6402.897
 30
1284.087
 70
    32
  0
VERTEX
  8
T39SSILL
 62
6
 10
3138.681
 20
-6404.979
 30
1284.090
 70
    32
  0
VERTEX
  8
T39SSILL
 62
6
 10
3132.668
 20
-6404.464
 30
1284.093
 70
    32
  0
VERTEX
  8
T39SSILL
 62
6
 10
3068.190
 20
-6450.797
 30
1284.113
 70
    32
  0
VERTEX
  8
T39SSILL
 62
6
 10
3071.520
 20
-6455.670
 30
1284.110
 70
    32
  0
VERTEX
  8
T39SSILL
 62
6
 10
2890.880
 20
-6586.186
 30
1284.172
 70
    32
  0
VERTEX
  8
T39SSILL
 62
6
 10
2883.058
 20
-6595.038
 30
1284.206
 70
    32
  0
VERTEX
  8
T39SSILL
 62
6
 10
2879.708
 20
-6602.705
 30
1284.223
 70
    32
  0
VERTEX
  8
T39SSILL
 62
6
 10
2882.289
 20
-6614.330
 30
1284.220
 70
    32
  0
VERTEX
  8
T39SSILL
 62
6
 10
2910.379
 20
-6674.910
 30
1284.147
 70
    32
  0
VERTEX
  8
T39SSILL
 62
6
 10
2939.244
 20
-6766.646
 30
1284.098
 70
    32
  0
VERTEX
  8
T39SSILL
 62
6
 10
2946.604
 20
-6761.479
 30
1284.095
 70
    32
  0
VERTEX
  8
T39SSILL
 62
6
 10
2950.485
 20
-6767.258
 30
1284.092
 70
    32
  0
VERTEX
  8
T39SSILL
 62
6
 10
2941.356
 20
-6773.357
 30
1284.095
 70
    32
  0
VERTEX
  8
T39SSILL
 62
6
 10
3092.077
 20
-7251.510
 30
1285.040
 70
    32
  0
VERTEX
  8
T39SSILL
 62
6
 10
3076.908
 20
-7255.508
 30
1285.040
 70
    32
  0
VERTEX
  8
T39SSILL
 62
6
 10
3061.875
 20
-7207.082
 30
1285.040
 70
    32
  0
VERTEX
  8
T39SSILL
 62
6
 10
2865.079
 20
-6620.759
 30
1284.288
 70
    32
  0
VERTEX
  8
T39SSILL
 62
6
 10
2862.165
 20
-6604.039
 30
1284.290
 70
    32
  0
VERTEX
  8
T39SSILL
 62
6
 10
2862.662
 20
-6600.084
 30
1284.286
 70
    32
  0
VERTEX
  8
T39SSILL
 62
6
 10
2839.526
 20
-6616.925
 30
1284.382
 70
    32
  0
VERTEX
  8
T39SSILL
 62
6
 10
2835.526
 20
-6611.897
 30
1284.394
 70
    32
  0
VERTEX
  8
T39SSILL
 62
6
 10
2865.965
 20
-6589.511
 30
1284.268
 70
    32
  0
VERTEX
  8
T39SSILL
 62
6
 10
2872.441
 20
-6580.005
 30
1284.238
 70
    32
  0
VERTEX
  8
T39SSILL
 62
6
 10
2860.405
 20
-6575.589
 30
1284.281
 70
    32
  0
VERTEX
  8
T39SSILL
 62
6
 10
2853.443
 20
-6569.766
 30
1284.304
 70
    32
  0
VERTEX
  8
T39SSILL
 62
6
 10
2836.631
 20
-6540.836
 30
1284.352
 70
    32
  0
VERTEX
  8
T39SSILL
 62
6
 10
2830.625
 20
-6543.357
 30
1284.376
 70
    32
  0
VERTEX
  8
T39SSILL
 62
6
 10
2828.113
 20
-6542.898
 30
1284.385
 70
    32
  0
VERTEX
  8
T39SSILL
 62
6
 10
2825.615
 20
-6543.955
 30
1284.395
 70
    32
  0
VERTEX
  8
T39SSILL
 62
6
 10
2821.134
 20
-6541.989
 30
1284.411
 70
    32
  0
VERTEX
  8
T39SSILL
 62
6
 10
2813.108
 20
-6544.129
 30
1284.442
 70
    32
  0
VERTEX
  8
T39SSILL
 62
6
 10
2811.044
 20
-6546.829
 30
1284.451
 70
    32
  0
VERTEX
  8
T39SSILL
 62
6
 10
2810.603
 20
-6560.437
 30
1284.460
 70
    32
  0
VERTEX
  8
T39SSILL
 62
6
 10
2808.670
 20
-6566.309
 30
1284.471
 70
    32
  0
VERTEX
  8
T39SSILL
 62
6
 10
2800.279
 20
-6563.160
 30
1284.501
 70
    32
  0
VERTEX
  8
T39SSILL
 62
6
 10
2791.170
 20
-6547.356
 30
1284.526
 70
    32
  0
VERTEX
  8
T39SSILL
 62
6
 10
2779.876
 20
-6537.825
 30
1284.564
 70
    32
  0
VERTEX
  8
T39SSILL
 62
6
 10
2777.473
 20
-6534.673
 30
1284.571
 70
    32
  0
VERTEX
  8
T39SSILL
 62
6
 10
2778.389
 20
-6528.452
 30
1284.564
 70
    32
  0
VERTEX
  8
T39SSILL
 62
6
 10
2783.101
 20
-6526.547
 30
1284.546
 70
    32
  0
VERTEX
  8
T39SSILL
 62
6
 10
2787.172
 20
-6522.712
 30
1284.528
 70
    32
  0
VERTEX
  8
T39SSILL
 62
6
 10
2799.487
 20
-6514.945
 30
1284.478
 70
    32
  0
VERTEX
  8
T39SSILL
 62
6
 10
2806.403
 20
-6519.059
 30
1284.454
 70
    32
  0
VERTEX
  8
T39SSILL
 62
6
 10
2807.990
 20
-6521.389
 30
1284.449
 70
    32
  0
VERTEX
  8
T39SSILL
 62
6
 10
2813.694
 20
-6522.791
 30
1284.428
 70
    32
  0
VERTEX
  8
T39SSILL
 62
6
 10
2816.847
 20
-6522.783
 30
1284.417
 70
    32
  0
VERTEX
  8
T39SSILL
 62
6
 10
2826.406
 20
-6518.112
 30
1284.378
 70
    32
  0
VERTEX
  8
T39SSILL
 62
6
 10
2811.698
 20
-6488.631
 30
1284.418
 70
    32
  0
VERTEX
  8
T39SSILL
 62
6
 10
2796.014
 20
-6462.148
 30
1284.462
 70
    32
  0
VERTEX
  8
T39SSILL
 62
6
 10
2792.838
 20
-6467.510
 30
1284.477
 70
    32
  0
VERTEX
  8
T39SSILL
 62
6
 10
2793.046
 20
-6470.190
 30
1284.478
 70
    32
  0
VERTEX
  8
T39SSILL
 62
6
 10
2798.441
 20
-6475.955
 30
1284.461
 70
    32
  0
VERTEX
  8
T39SSILL
 62
6
 10
2802.885
 20
-6484.155
 30
1284.448
 70
    32
  0
VERTEX
  8
T39SSILL
 62
6
 10
2802.020
 20
-6488.053
 30
1284.454
 70
    32
  0
VERTEX
  8
T39SSILL
 62
6
 10
2799.833
 20
-6490.734
 30
1284.463
 70
    32
  0
VERTEX
  8
T39SSILL
 62
6
 10
2794.001
 20
-6493.345
 30
1284.487
 70
    32
  0
VERTEX
  8
T39SSILL
 62
6
 10
2789.150
 20
-6486.531
 30
1284.501
 70
    32
  0
VERTEX
  8
T39SSILL
 62
6
 10
2783.626
 20
-6483.581
 30
1284.520
 70
    32
  0
VERTEX
  8
T39SSILL
 62
6
 10
2776.152
 20
-6475.408
 30
1284.544
 70
    32
  0
VERTEX
  8
T39SSILL
 62
6
 10
2771.066
 20
-6466.477
 30
1284.558
 70
    32
  0
VERTEX
  8
T39SSILL
 62
6
 10
2765.680
 20
-6450.250
 30
1284.570
 70
    32
  0
VERTEX
  8
T39SSILL
 62
6
 10
2757.148
 20
-6437.184
 30
1284.595
 70
    32
  0
VERTEX
  8
T39SSILL
 62
6
 10
2746.207
 20
-6435.020
 30
1284.635
 70
    32
  0
VERTEX
  8
T39SSILL
 62
6
 10
2731.343
 20
-6418.940
 30
1284.682
 70
    32
  0
VERTEX
  8
T39SSILL
 62
6
 10
2720.213
 20
-6415.170
 30
1284.722
 70
    32
  0
VERTEX
  8
T39SSILL
 62
6
 10
2715.157
 20
-6415.257
 30
1284.741
 70
    32
  0
VERTEX
  8
T39SSILL
 62
6
 10
2700.491
 20
-6422.339
 30
1284.874
 70
    32
  0
VERTEX
  8
T39SSILL
 62
6
 10
2694.542
 20
-6422.095
 30
1284.934
 70
    32
  0
VERTEX
  8
T39SSILL
 62
6
 10
2693.279
 20
-6420.510
 30
1284.941
 70
    32
  0
VERTEX
  8
T39SSILL
 62
6
 10
2694.576
 20
-6415.868
 30
1284.908
 70
    32
  0
VERTEX
  8
T39SSILL
 62
6
 10
2696.927
 20
-6411.173
 30
1284.864
 70
    32
  0
VERTEX
  8
T39SSILL
 62
6
 10
2699.838
 20
-6408.874
 30
1284.824
 70
    32
  0
VERTEX
  8
T39SSILL
 62
6
 10
2720.843
 20
-6404.366
 30
1284.714
 70
    32
  0
VERTEX
  8
T39SSILL
 62
6
 10
2724.642
 20
-6402.254
 30
1284.698
 70
    32
  0
VERTEX
  8
T39SSILL
 62
6
 10
2726.013
 20
-6399.948
 30
1284.692
 70
    32
  0
VERTEX
  8
T39SSILL
 62
6
 10
2726.051
 20
-6381.298
 30
1284.682
 70
    32
  0
VERTEX
  8
T39SSILL
 62
6
 10
2727.364
 20
-6379.362
 30
1284.676
 70
    32
  0
VERTEX
  8
T39SSILL
 62
6
 10
2737.963
 20
-6383.300
 30
1284.638
 70
    32
  0
VERTEX
  8
T39SSILL
 62
6
 10
2737.628
 20
-6373.415
 30
1284.634
 70
    32
  0
VERTEX
  8
T39SSILL
 62
6
 10
2589.570
 20
-6223.733
 30
1285.188
 70
    32
  0
VERTEX
  8
T39SSILL
 62
6
 10
2577.074
 20
-6220.631
 30
1285.304
 70
    32
  0
VERTEX
  8
T39SSILL
 62
6
 10
2482.269
 20
-6288.967
 30
1286.093
 70
    32
  0
VERTEX
  8
T39SSILL
 62
6
 10
2473.002
 20
-6295.647
 30
1286.269
 70
    32
  0
VERTEX
  8
T39SSILL
 62
6
 10
2445.588
 20
-6315.407
 30
1286.064
 70
    32
  0
VERTEX
  8
T39SSILL
 62
6
 10
2435.390
 20
-6322.758
 30
1285.980
 70
    32
  0
VERTEX
  8
T39SSILL
 62
6
 10
2363.643
 20
-6374.473
 30
1286.310
 70
    32
  0
VERTEX
  8
T39SSILL
 62
6
 10
2353.608
 20
-6385.372
 30
1286.341
 70
    32
  0
VERTEX
  8
T39SSILL
 62
6
 10
2349.598
 20
-6394.825
 30
1286.353
 70
    32
  0
VERTEX
  8
T39SSILL
 62
6
 10
2348.503
 20
-6406.187
 30
1286.355
 70
    32
  0
VERTEX
  8
T39SSILL
 62
6
 10
2346.500
 20
-6547.810
 30
1286.351
 70
    32
  0
VERTEX
  8
T39SSILL
 62
6
 10
2348.294
 20
-6549.227
 30
1286.347
 70
    32
  0
VERTEX
  8
T39SSILL
 62
6
 10
2355.911
 20
-6544.880
 30
1286.329
 70
    32
  0
VERTEX
  8
T39SSILL
 62
6
 10
2360.563
 20
-6552.167
 30
1286.320
 70
    32
  0
VERTEX
  8
T39SSILL
 62
6
 10
2346.125
 20
-6563.004
 30
1286.356
 70
    32
  0
VERTEX
  8
T39SSILL
 62
6
 10
2348.843
 20
-6574.966
 30
1286.353
 70
    32
  0
SEQEND
  8
T39SSILL
  0
POINT
  8
T39SSILL
 62
6
 10
2378.711
 20
-6597.756
 30
1286.300
  0
POINT
  8
T39SSILL
 62
6
 10
2373.551
 20
-6597.794
 30
1286.300
  0
POLYLINE
  8
T39SSILL
 62
6
 66
     1
 70
     8
  0
VERTEX
  8
T39SSILL
 62
6
 10
2375.953
 20
-6601.337
 30
1286.300
 70
    32
  0
VERTEX
  8
T39SSILL
 62
6
 10
2374.701
 20
-6610.488
 30
1286.303
 70
    32
  0
VERTEX
  8
T39SSILL
 62
6
 10
2401.766
 20
-6648.069
 30
1286.240
 70
    32
  0
SEQEND
  8
T39SSILL
  0
POLYLINE
  8
T39SSILL
 62
6
 66
     1
 70
     8
  0
VERTEX
  8
T39SSILL
 62
6
 10
2423.858
 20
-6678.744
 30
1286.188
 70
    32
  0
VERTEX
  8
T39SSILL
 62
6
 10
2546.414
 20
-6848.919
 30
1285.901
 70
    32
  0
VERTEX
  8
T39SSILL
 62
6
 10
2540.629
 20
-6852.040
 30
1285.928
 70
    32
  0
VERTEX
  8
T39SSILL
 62
6
 10
2420.185
 20
-6686.269
 30
1286.201
 70
    32
  0
SEQEND
  8
T39SSILL
  0
LINE
  8
T39SSILL
 62
6
 10
2393.067
 20
-6648.945
 30
1286.263
 11
2369.628
 21
-6616.685
 31
1286.316
  0
POINT
  8
T39SSILL
 62
6
 10
2352.623
 20
-6617.526
 30
1286.500
  0
POINT
  8
T39SSILL
 62
6
 10
2343.150
 20
-6625.896
 30
1286.500
  0
POINT
  8
T39SSILL
 62
6
 10
2342.985
 20
-6636.189
 30
1286.383
  0
POINT
  8
T39SSILL
 62
6
 10
2331.805
 20
-6643.934
 30
1286.500
  0
POINT
  8
T39SSILL
 62
6
 10
2334.966
 20
-6649.080
 30
1286.500
  0
POINT
  8
T39SSILL
 62
6
 10
2327.515
 20
-6663.742
 30
1286.500
  0
POINT
  8
T39SSILL
 62
6
 10
2320.891
 20
-6662.636
 30
1286.500
  0
POINT
  8
T39SSILL
 62
6
 10
2323.348
 20
-6651.699
 30
1286.500
  0
LINE
  8
T39SSILL
 62
6
 10
2308.387
 20
-6657.781
 30
1286.468
 11
2308.137
 21
-6678.982
 31
1286.474
  0
POINT
  8
T39SSILL
 62
6
 10
2302.332
 20
-6697.409
 30
1286.500
  0
POINT
  8
T39SSILL
 62
6
 10
2295.691
 20
-6702.599
 30
1286.500
  0
LINE
  8
T39SSILL
 62
6
 10
2287.166
 20
-6700.891
 30
1286.528
 11
2265.344
 21
-6687.371
 31
1286.593
  0
POLYLINE
  8
T39SSILL
 62
6
 66
     1
 70
     8
  0
VERTEX
  8
T39SSILL
 62
6
 10
2266.324
 20
-6679.143
 30
1286.590
 70
    32
  0
VERTEX
  8
T39SSILL
 62
6
 10
2264.986
 20
-6668.028
 30
1286.596
 70
    32
  0
VERTEX
  8
T39SSILL
 62
6
 10
2265.988
 20
-6664.467
 30
1286.593
 70
    32
  0
VERTEX
  8
T39SSILL
 62
6
 10
2265.164
 20
-6661.690
 30
1286.596
 70
    32
  0
SEQEND
  8
T39SSILL
  0
POLYLINE
  8
T39SSILL
 62
6
 66
     1
 70
     8
  0
VERTEX
  8
T39SSILL
 62
6
 10
2264.543
 20
-6603.985
 30
1286.605
 70
    32
  0
VERTEX
  8
T39SSILL
 62
6
 10
2256.696
 20
-6586.173
 30
1286.632
 70
    32
  0
VERTEX
  8
T39SSILL
 62
6
 10
2259.819
 20
-6578.345
 30
1286.623
 70
    32
  0
VERTEX
  8
T39SSILL
 62
6
 10
2263.159
 20
-6576.350
 30
1286.612
 70
    32
  0
VERTEX
  8
T39SSILL
 62
6
 10
2259.789
 20
-6568.130
 30
1286.624
 70
    32
  0
VERTEX
  8
T39SSILL
 62
6
 10
2260.856
 20
-6566.155
 30
1286.621
 70
    32
  0
VERTEX
  8
T39SSILL
 62
6
 10
2259.638
 20
-6562.686
 30
1286.625
 70
    32
  0
VERTEX
  8
T39SSILL
 62
6
 10
2254.442
 20
-6554.052
 30
1286.643
 70
    32
  0
SEQEND
  8
T39SSILL
  0
POLYLINE
  8
T39SSILL
 62
6
 66
     1
 70
     8
  0
VERTEX
  8
T39SSILL
 62
6
 10
2242.859
 20
-6549.960
 30
1286.681
 70
    32
  0
VERTEX
  8
T39SSILL
 62
6
 10
2238.040
 20
-6543.339
 30
1286.697
 70
    32
  0
VERTEX
  8
T39SSILL
 62
6
 10
2239.397
 20
-6539.519
 30
1286.693
 70
    32
  0
SEQEND
  8
T39SSILL
  0
POLYLINE
  8
T39SSILL
 62
6
 66
     1
 70
     8
  0
VERTEX
  8
T39SSILL
 62
6
 10
2237.480
 20
-6535.688
 30
1286.700
 70
    32
  0
VERTEX
  8
T39SSILL
 62
6
 10
2237.821
 20
-6532.716
 30
1286.699
 70
    32
  0
VERTEX
  8
T39SSILL
 62
6
 10
2244.759
 20
-6529.082
 30
1286.677
 70
    32
  0
VERTEX
  8
T39SSILL
 62
6
 10
2248.942
 20
-6529.740
 30
1286.663
 70
    32
  0
VERTEX
  8
T39SSILL
 62
6
 10
2250.307
 20
-6527.875
 30
1286.659
 70
    32
  0
VERTEX
  8
T39SSILL
 62
6
 10
2256.624
 20
-6525.781
 30
1286.639
 70
    32
  0
SEQEND
  8
T39SSILL
  0
POINT
  8
T39SSILL
 62
6
 10
2262.757
 20
-6531.663
 30
1286.618
  0
POLYLINE
  8
T39SSILL
 62
6
 66
     1
 70
     8
  0
VERTEX
  8
T39SSILL
 62
6
 10
2267.717
 20
-6534.587
 30
1286.602
 70
    32
  0
VERTEX
  8
T39SSILL
 62
6
 10
2268.696
 20
-6536.380
 30
1286.599
 70
    32
  0
VERTEX
  8
T39SSILL
 62
6
 10
2267.895
 20
-6541.863
 30
1286.601
 70
    32
  0
VERTEX
  8
T39SSILL
 62
6
 10
2268.842
 20
-6544.659
 30
1286.597
 70
    32
  0
VERTEX
  8
T39SSILL
 62
6
 10
2276.225
 20
-6553.007
 30
1286.572
 70
    32
  0
SEQEND
  8
T39SSILL
  0
POLYLINE
  8
T39SSILL
 62
6
 66
     1
 70
     8
  0
VERTEX
  8
T39SSILL
 62
6
 10
2283.711
 20
-6559.102
 30
1286.548
 70
    32
  0
VERTEX
  8
T39SSILL
 62
6
 10
2286.977
 20
-6565.982
 30
1286.536
 70
    32
  0
VERTEX
  8
T39SSILL
 62
6
 10
2292.242
 20
-6570.971
 30
1286.519
 70
    32
  0
SEQEND
  8
T39SSILL
  0
LINE
  8
T39SSILL
 62
6
 10
2293.792
 20
-6577.139
 30
1286.513
 11
2310.491
 21
-6600.379
 31
1286.457
  0
POLYLINE
  8
T39SSILL
 62
6
 66
     1
 70
     8
  0
VERTEX
  8
T39SSILL
 62
6
 10
2314.750
 20
-6614.159
 30
1286.442
 70
    32
  0
VERTEX
  8
T39SSILL
 62
6
 10
2318.895
 20
-6617.459
 30
1286.433
 70
    32
  0
VERTEX
  8
T39SSILL
 62
6
 10
2322.449
 20
-6616.506
 30
1286.425
 70
    32
  0
VERTEX
  8
T39SSILL
 62
6
 10
2323.224
 20
-6617.355
 30
1286.500
 70
    32
  0
SEQEND
  8
T39SSILL
  0
POLYLINE
  8
T39SSILL
 62
6
 66
     1
 70
     8
  0
VERTEX
  8
T39SSILL
 62
6
 10
2340.544
 20
-6604.804
 30
1286.500
 70
    32
  0
VERTEX
  8
T39SSILL
 62
6
 10
2347.611
 20
-6599.600
 30
1286.500
 70
    32
  0
VERTEX
  8
T39SSILL
 62
6
 10
2350.514
 20
-6595.179
 30
1286.500
 70
    32
  0
SEQEND
  8
T39SSILL
  0
POLYLINE
  8
T39SSILL
 62
6
 66
     1
 70
     8
  0
VERTEX
  8
T39SSILL
 62
6
 10
2284.681
 20
-6497.298
 30
1286.551
 70
    32
  0
VERTEX
  8
T39SSILL
 62
6
 10
2277.929
 20
-6496.550
 30
1286.573
 70
    32
  0
VERTEX
  8
T39SSILL
 62
6
 10
2272.367
 20
-6493.847
 30
1286.591
 70
    32
  0
VERTEX
  8
T39SSILL
 62
6
 10
2256.576
 20
-6505.668
 30
1286.641
 70
    32
  0
VERTEX
  8
T39SSILL
 62
6
 10
2227.968
 20
-6486.415
 30
1286.736
 70
    32
  0
VERTEX
  8
T39SSILL
 62
6
 10
2218.798
 20
-6478.606
 30
1286.766
 70
    32
  0
VERTEX
  8
T39SSILL
 62
6
 10
2169.544
 20
-6513.492
 30
1286.921
 70
    32
  0
VERTEX
  8
T39SSILL
 62
6
 10
2164.277
 20
-6507.838
 30
1286.939
 70
    32
  0
VERTEX
  8
T39SSILL
 62
6
 10
2209.688
 20
-6475.217
 30
1286.796
 70
    32
  0
VERTEX
  8
T39SSILL
 62
6
 10
2215.716
 20
-6448.939
 30
1286.779
 70
    32
  0
VERTEX
  8
T39SSILL
 62
6
 10
2231.115
 20
-6429.997
 30
1286.732
 70
    32
  0
VERTEX
  8
T39SSILL
 62
6
 10
2233.820
 20
-6428.027
 30
1286.723
 70
    32
  0
VERTEX
  8
T39SSILL
 62
6
 10
2236.901
 20
-6426.874
 30
1286.713
 70
    32
  0
VERTEX
  8
T39SSILL
 62
6
 10
2243.390
 20
-6432.496
 30
1286.692
 70
    32
  0
VERTEX
  8
T39SSILL
 62
6
 10
2245.507
 20
-6432.262
 30
1286.685
 70
    32
  0
VERTEX
  8
T39SSILL
 62
6
 10
2257.125
 20
-6428.923
 30
1286.648
 70
    32
  0
VERTEX
  8
T39SSILL
 62
6
 10
2273.632
 20
-6412.551
 30
1286.596
 70
    32
  0
VERTEX
  8
T39SSILL
 62
6
 10
2279.550
 20
-6414.995
 30
1286.577
 70
    32
  0
VERTEX
  8
T39SSILL
 62
6
 10
2290.724
 20
-6416.881
 30
1286.541
 70
    32
  0
VERTEX
  8
T39SSILL
 62
6
 10
2301.694
 20
-6409.658
 30
1286.506
 70
    32
  0
VERTEX
  8
T39SSILL
 62
6
 10
2292.694
 20
-6407.169
 30
1286.535
 70
    32
  0
SEQEND
  8
T39SSILL
  0
POLYLINE
  8
T39SSILL
 62
6
 66
     1
 70
     8
  0
VERTEX
  8
T39SSILL
 62
6
 10
2273.847
 20
-6389.214
 30
1285.300
 70
    32
  0
VERTEX
  8
T39SSILL
 62
6
 10
2244.544
 20
-6347.906
 30
1286.910
 70
    32
  0
VERTEX
  8
T39SSILL
 62
6
 10
2239.658
 20
-6350.918
 30
1286.924
 70
    32
  0
VERTEX
  8
T39SSILL
 62
6
 10
2236.425
 20
-6346.627
 30
1286.953
 70
    32
  0
VERTEX
  8
T39SSILL
 62
6
 10
2241.175
 20
-6343.278
 30
1286.940
 70
    32
  0
VERTEX
  8
T39SSILL
 62
6
 10
2099.480
 20
-6148.777
 30
1286.918
 70
    32
  0
VERTEX
  8
T39SSILL
 62
6
 10
2105.641
 20
-6144.075
 30
1286.866
 70
    32
  0
VERTEX
  8
T39SSILL
 62
6
 10
2161.471
 20
-6220.620
 30
1287.025
 70
    32
  0
VERTEX
  8
T39SSILL
 62
6
 10
2163.412
 20
-6219.098
 30
1287.009
 70
    32
  0
VERTEX
  8
T39SSILL
 62
6
 10
2164.510
 20
-6213.724
 30
1286.976
 70
    32
  0
VERTEX
  8
T39SSILL
 62
6
 10
2171.063
 20
-6203.726
 30
1286.894
 70
    32
  0
VERTEX
  8
T39SSILL
 62
6
 10
2193.403
 20
-6187.137
 30
1286.709
 70
    32
  0
VERTEX
  8
T39SSILL
 62
6
 10
2186.537
 20
-6178.304
 30
1286.692
 70
    32
  0
VERTEX
  8
T39SSILL
 62
6
 10
2185.873
 20
-6170.510
 30
1286.654
 70
    32
  0
VERTEX
  8
T39SSILL
 62
6
 10
2210.893
 20
-6168.525
 30
1286.534
 70
    32
  0
VERTEX
  8
T39SSILL
 62
6
 10
2217.484
 20
-6170.697
 30
1286.517
 70
    32
  0
VERTEX
  8
T39SSILL
 62
6
 10
2222.441
 20
-6167.633
 30
1286.479
 70
    32
  0
VERTEX
  8
T39SSILL
 62
6
 10
2226.185
 20
-6173.075
 30
1286.491
 70
    32
  0
VERTEX
  8
T39SSILL
 62
6
 10
2185.738
 20
-6200.994
 30
1286.816
 70
    32
  0
VERTEX
  8
T39SSILL
 62
6
 10
2177.319
 20
-6208.430
 30
1286.892
 70
    32
  0
VERTEX
  8
T39SSILL
 62
6
 10
2172.339
 20
-6218.045
 30
1286.964
 70
    32
  0
VERTEX
  8
T39SSILL
 62
6
 10
2171.171
 20
-6227.063
 30
1287.017
 70
    32
  0
VERTEX
  8
T39SSILL
 62
6
 10
2172.981
 20
-6237.181
 30
1287.062
 70
    32
  0
VERTEX
  8
T39SSILL
 62
6
 10
2245.898
 20
-6336.900
 30
1286.938
 70
    32
  0
VERTEX
  8
T39SSILL
 62
6
 10
2254.881
 20
-6330.688
 30
1286.914
 70
    32
  0
VERTEX
  8
T39SSILL
 62
6
 10
2260.303
 20
-6338.285
 30
1286.864
 70
    32
  0
VERTEX
  8
T39SSILL
 62
6
 10
2251.871
 20
-6345.404
 30
1286.882
 70
    32
  0
VERTEX
  8
T39SSILL
 62
6
 10
2286.273
 20
-6393.112
 30
1286.567
 70
    32
  0
VERTEX
  8
T39SSILL
 62
6
 10
2294.290
 20
-6399.038
 30
1286.531
 70
    32
  0
VERTEX
  8
T39SSILL
 62
6
 10
2304.979
 20
-6401.603
 30
1286.496
 70
    32
  0
VERTEX
  8
T39SSILL
 62
6
 10
2315.465
 20
-6399.851
 30
1286.463
 70
    32
  0
VERTEX
  8
T39SSILL
 62
6
 10
2430.818
 20
-6316.899
 30
1285.980
 70
    32
  0
VERTEX
  8
T39SSILL
 62
6
 10
2438.669
 20
-6311.253
 30
1286.045
 70
    32
  0
SEQEND
  8
T39SSILL
  0
POLYLINE
  8
T39SSILL
 62
6
 66
     1
 70
     9
  0
VERTEX
  8
T39SSILL
 62
6
 10
2475.958
 20
-6237.170
 30
1285.243
 70
    32
  0
VERTEX
  8
T39SSILL
 62
6
 10
2479.677
 20
-6245.571
 30
1285.363
 70
    32
  0
VERTEX
  8
T39SSILL
 62
6
 10
2483.645
 20
-6250.196
 30
1285.416
 70
    32
  0
VERTEX
  8
T39SSILL
 62
6
 10
2485.429
 20
-6252.275
 30
1285.692
 70
    32
  0
VERTEX
  8
T39SSILL
 62
6
 10
2499.680
 20
-6258.238
 30
1285.702
 70
    32
  0
VERTEX
  8
T39SSILL
 62
6
 10
2514.814
 20
-6255.389
 30
1285.668
 70
    32
  0
VERTEX
  8
T39SSILL
 62
6
 10
2576.824
 20
-6211.011
 30
1285.235
 70
    32
  0
VERTEX
  8
T39SSILL
 62
6
 10
2517.785
 20
-6150.853
 30
1285.149
 70
    32
  0
VERTEX
  8
T39SSILL
 62
6
 10
2509.787
 20
-6158.417
 30
1285.201
 70
    32
  0
VERTEX
  8
T39SSILL
 62
6
 10
2504.723
 20
-6153.058
 30
1285.194
 70
    32
  0
VERTEX
  8
T39SSILL
 62
6
 10
2512.208
 20
-6145.437
 30
1285.140
 70
    32
  0
VERTEX
  8
T39SSILL
 62
6
 10
2464.945
 20
-6097.621
 30
1286.184
 70
    32
  0
VERTEX
  8
T39SSILL
 62
6
 10
2463.558
 20
-6096.217
 30
1286.189
 70
    32
  0
VERTEX
  8
T39SSILL
 62
6
 10
2461.313
 20
-6097.624
 30
1286.178
 70
    32
  0
VERTEX
  8
T39SSILL
 62
6
 10
2456.643
 20
-6100.550
 30
1286.167
 70
    32
  0
VERTEX
  8
T39SSILL
 62
6
 10
2457.854
 20
-6106.317
 30
1286.136
 70
    32
  0
VERTEX
  8
T39SSILL
 62
6
 10
2460.469
 20
-6112.750
 30
1286.100
 70
    32
  0
VERTEX
  8
T39SSILL
 62
6
 10
2461.130
 20
-6114.376
 30
1286.093
 70
    32
  0
VERTEX
  8
T39SSILL
 62
6
 10
2465.958
 20
-6140.647
 30
1285.970
 70
    32
  0
VERTEX
  8
T39SSILL
 62
6
 10
2473.436
 20
-6212.826
 30
1285.620
 70
    32
  0
VERTEX
  8
T39SSILL
 62
6
 10
2473.836
 20
-6216.690
 30
1285.119
 70
    32
  0
VERTEX
  8
T39SSILL
 62
6
 10
2473.951
 20
-6217.795
 30
1284.854
 70
    32
  0
VERTEX
  8
T39SSILL
 62
6
 10
2475.883
 20
-6236.449
 30
1285.231
 70
    32
  0
SEQEND
  8
T39SSILL
  0
POLYLINE
  8
T39SSILL
 62
6
 66
     1
 70
     8
  0
VERTEX
  8
T39SSILL
 62
6
 10
2469.583
 20
-6298.111
 30
1286.244
 70
    32
  0
VERTEX
  8
T39SSILL
 62
6
 10
2445.588
 20
-6315.407
 30
1286.064
 70
    32
  0
VERTEX
  8
T39SSILL
 62
6
 10
2443.953
 20
-6316.585
 30
1286.051
 70
    32
  0
VERTEX
  8
T39SSILL
 62
6
 10
2437.712
 20
-6310.288
 30
1286.044
 70
    32
  0
VERTEX
  8
T39SSILL
 62
6
 10
2445.420
 20
-6303.967
 30
1286.111
 70
    32
  0
VERTEX
  8
T39SSILL
 62
6
 10
2448.940
 20
-6300.477
 30
1286.144
 70
    32
  0
VERTEX
  8
T39SSILL
 62
6
 10
2453.411
 20
-6296.044
 30
1286.182
 70
    32
  0
VERTEX
  8
T39SSILL
 62
6
 10
2458.605
 20
-6288.301
 30
1286.239
 70
    32
  0
VERTEX
  8
T39SSILL
 62
6
 10
2460.535
 20
-6285.424
 30
1286.176
 70
    32
  0
VERTEX
  8
T39SSILL
 62
6
 10
2464.331
 20
-6260.382
 30
1285.720
 70
    32
  0
VERTEX
  8
T39SSILL
 62
6
 10
2464.457
 20
-6259.550
 30
1285.703
 70
    32
  0
VERTEX
  8
T39SSILL
 62
6
 10
2463.180
 20
-6253.652
 30
1285.584
 70
    32
  0
VERTEX
  8
T39SSILL
 62
6
 10
2464.259
 20
-6245.561
 30
1285.420
 70
    32
  0
VERTEX
  8
T39SSILL
 62
6
 10
2464.121
 20
-6238.130
 30
1285.269
 70
    32
  0
VERTEX
  8
T39SSILL
 62
6
 10
2464.317
 20
-6226.490
 30
1285.034
 70
    32
  0
VERTEX
  8
T39SSILL
 62
6
 10
2463.514
 20
-6217.597
 30
1284.854
 70
    32
  0
VERTEX
  8
T39SSILL
 62
6
 10
2463.318
 20
-6215.431
 30
1285.373
 70
    32
  0
VERTEX
  8
T39SSILL
 62
6
 10
2463.162
 20
-6213.700
 30
1285.598
 70
    32
  0
VERTEX
  8
T39SSILL
 62
6
 10
2459.381
 20
-6171.851
 30
1285.801
 70
    32
  0
VERTEX
  8
T39SSILL
 62
6
 10
2457.703
 20
-6162.335
 30
1285.846
 70
    32
  0
VERTEX
  8
T39SSILL
 62
6
 10
2450.843
 20
-6123.429
 30
1286.054
 70
    32
  0
VERTEX
  8
T39SSILL
 62
6
 10
2448.780
 20
-6118.641
 30
1286.080
 70
    32
  0
VERTEX
  8
T39SSILL
 62
6
 10
2443.728
 20
-6092.050
 30
1286.223
 70
    32
  0
VERTEX
  8
T39SSILL
 62
6
 10
2439.953
 20
-6087.283
 30
1286.251
 70
    32
  0
VERTEX
  8
T39SSILL
 62
6
 10
2439.953
 20
-6087.283
 30
1286.251
 70
    32
  0
VERTEX
  8
T39SSILL
 62
6
 10
2436.681
 20
-6089.520
 30
1286.338
 70
    32
  0
VERTEX
  8
T39SSILL
 62
6
 10
2426.021
 20
-6102.436
 30
1284.546
 70
    32
  0
VERTEX
  8
T39SSILL
 62
6
 10
2412.972
 20
-6112.170
 30
1281.981
 70
    32
  0
VERTEX
  8
T39SSILL
 62
6
 10
2409.690
 20
-6109.079
 30
1281.825
 70
    32
  0
VERTEX
  8
T39SSILL
 62
6
 10
2411.044
 20
-6106.872
 30
1281.993
 70
    32
  0
VERTEX
  8
T39SSILL
 62
6
 10
2410.839
 20
-6103.958
 30
1282.182
 70
    32
  0
VERTEX
  8
T39SSILL
 62
6
 10
2414.378
 20
-6101.255
 30
1282.471
 70
    32
  0
VERTEX
  8
T39SSILL
 62
6
 10
2415.131
 20
-6100.369
 30
1282.546
 70
    32
  0
VERTEX
  8
T39SSILL
 62
6
 10
2413.804
 20
-6095.633
 30
1282.948
 70
    32
  0
VERTEX
  8
T39SSILL
 62
6
 10
2411.011
 20
-6092.575
 30
1283.286
 70
    32
  0
VERTEX
  8
T39SSILL
 62
6
 10
2405.162
 20
-6089.684
 30
1283.818
 70
    32
  0
VERTEX
  8
T39SSILL
 62
6
 10
2401.941
 20
-6088.432
 30
1284.100
 70
    32
  0
VERTEX
  8
T39SSILL
 62
6
 10
2402.864
 20
-6085.368
 30
1284.362
 70
    32
  0
VERTEX
  8
T39SSILL
 62
6
 10
2405.387
 20
-6082.796
 30
1284.656
 70
    32
  0
VERTEX
  8
T39SSILL
 62
6
 10
2410.136
 20
-6083.899
 30
1285.054
 70
    32
  0
VERTEX
  8
T39SSILL
 62
6
 10
2414.633
 20
-6083.461
 30
1285.423
 70
    32
  0
VERTEX
  8
T39SSILL
 62
6
 10
2418.048
 20
-6086.691
 30
1285.807
 70
    32
  0
VERTEX
  8
T39SSILL
 62
6
 10
2421.261
 20
-6087.081
 30
1286.071
 70
    32
  0
VERTEX
  8
T39SSILL
 62
6
 10
2424.307
 20
-6089.533
 30
1286.390
 70
    32
  0
VERTEX
  8
T39SSILL
 62
6
 10
2425.234
 20
-6087.964
 30
1286.438
 70
    32
  0
VERTEX
  8
T39SSILL
 62
6
 10
2436.946
 20
-6077.550
 30
1285.074
 70
    32
  0
VERTEX
  8
T39SSILL
 62
6
 10
2435.580
 20
-6068.642
 30
1285.040
 70
    32
  0
VERTEX
  8
T39SSILL
 62
6
 10
2395.848
 20
-6032.274
 30
1284.991
 70
    32
  0
VERTEX
  8
T39SSILL
 62
6
 10
2342.731
 20
-6015.703
 30
1285.150
 70
    32
  0
VERTEX
  8
T39SSILL
 62
6
 10
2337.191
 20
-6017.667
 30
1285.185
 70
    32
  0
VERTEX
  8
T39SSILL
 62
6
 10
2321.497
 20
-6014.062
 30
1285.235
 70
    32
  0
VERTEX
  8
T39SSILL
 62
6
 10
2316.763
 20
-6008.904
 30
1285.229
 70
    32
  0
VERTEX
  8
T39SSILL
 62
6
 10
2284.793
 20
-6000.816
 30
1285.216
 70
    32
  0
VERTEX
  8
T39SSILL
 62
6
 10
2282.066
 20
-6005.548
 30
1285.219
 70
    32
  0
VERTEX
  8
T39SSILL
 62
6
 10
2277.064
 20
-6007.656
 30
1285.222
 70
    32
  0
VERTEX
  8
T39SSILL
 62
6
 10
2275.959
 20
-6013.087
 30
1285.225
 70
    32
  0
VERTEX
  8
T39SSILL
 62
6
 10
2275.846
 20
-6014.416
 30
1285.226
 70
    32
  0
VERTEX
  8
T39SSILL
 62
6
 10
2282.018
 20
-6021.579
 30
1285.231
 70
    32
  0
VERTEX
  8
T39SSILL
 62
6
 10
2282.352
 20
-6029.099
 30
1285.235
 70
    32
  0
VERTEX
  8
T39SSILL
 62
6
 10
2283.041
 20
-6034.933
 30
1285.238
 70
    32
  0
VERTEX
  8
T39SSILL
 62
6
 10
2286.551
 20
-6046.303
 30
1285.245
 70
    32
  0
VERTEX
  8
T39SSILL
 62
6
 10
2297.716
 20
-6060.126
 30
1285.255
 70
    32
  0
VERTEX
  8
T39SSILL
 62
6
 10
2293.810
 20
-6067.495
 30
1285.259
 70
    32
  0
VERTEX
  8
T39SSILL
 62
6
 10
2293.841
 20
-6074.218
 30
1285.263
 70
    32
  0
VERTEX
  8
T39SSILL
 62
6
 10
2291.802
 20
-6074.823
 30
1285.264
 70
    32
  0
VERTEX
  8
T39SSILL
 62
6
 10
2297.636
 20
-6094.373
 30
1285.275
 70
    32
  0
VERTEX
  8
T39SSILL
 62
6
 10
2285.119
 20
-6097.880
 30
1285.283
 70
    32
  0
VERTEX
  8
T39SSILL
 62
6
 10
2278.532
 20
-6079.828
 30
1285.293
 70
    32
  0
VERTEX
  8
T39SSILL
 62
6
 10
2277.834
 20
-6067.552
 30
1285.300
 70
    32
  0
VERTEX
  8
T39SSILL
 62
6
 10
2273.208
 20
-6052.362
 30
1285.309
 70
    32
  0
VERTEX
  8
T39SSILL
 62
6
 10
2270.989
 20
-6039.637
 30
1285.316
 70
    32
  0
VERTEX
  8
T39SSILL
 62
6
 10
2263.858
 20
-6036.251
 30
1285.320
 70
    32
  0
VERTEX
  8
T39SSILL
 62
6
 10
2263.457
 20
-6019.168
 30
1285.329
 70
    32
  0
VERTEX
  8
T39SSILL
 62
6
 10
2266.442
 20
-6002.816
 30
1285.339
 70
    32
  0
VERTEX
  8
T39SSILL
 62
6
 10
2264.185
 20
-5995.022
 30
1285.343
 70
    32
  0
VERTEX
  8
T39SSILL
 62
6
 10
2267.556
 20
-5988.768
 30
1285.347
 70
    32
  0
VERTEX
  8
T39SSILL
 62
6
 10
2261.314
 20
-5970.231
 30
1285.236
 70
    32
  0
VERTEX
  8
T39SSILL
 62
6
 10
2286.524
 20
-5955.879
 30
1285.072
 70
    32
  0
VERTEX
  8
T39SSILL
 62
6
 10
2291.322
 20
-5947.881
 30
1285.019
 70
    32
  0
VERTEX
  8
T39SSILL
 62
6
 10
2300.671
 20
-5930.708
 30
1284.908
 70
    32
  0
VERTEX
  8
T39SSILL
 62
6
 10
2300.267
 20
-5907.281
 30
1284.809
 70
    32
  0
VERTEX
  8
T39SSILL
 62
6
 10
2267.817
 20
-5860.532
 30
1284.755
 70
    32
  0
VERTEX
  8
T39SSILL
 62
6
 10
2260.226
 20
-5858.313
 30
1284.783
 70
    32
  0
VERTEX
  8
T39SSILL
 62
6
 10
2252.333
 20
-5890.031
 30
1284.966
 70
    32
  0
VERTEX
  8
T39SSILL
 62
6
 10
2244.093
 20
-5888.718
 30
1285.001
 70
    32
  0
VERTEX
  8
T39SSILL
 62
6
 10
2247.144
 20
-5874.324
 30
1284.921
 70
    32
  0
VERTEX
  8
T39SSILL
 62
6
 10
2249.224
 20
-5855.740
 30
1284.834
 70
    32
  0
VERTEX
  8
T39SSILL
 62
6
 10
2249.029
 20
-5847.071
 30
1284.804
 70
    32
  0
VERTEX
  8
T39SSILL
 62
6
 10
2244.636
 20
-5832.310
 30
1284.781
 70
    32
  0
VERTEX
  8
T39SSILL
 62
6
 10
2241.852
 20
-5828.020
 30
1284.784
 70
    32
  0
VERTEX
  8
T39SSILL
 62
6
 10
2226.365
 20
-5823.912
 30
1284.870
 70
    32
  0
VERTEX
  8
T39SSILL
 62
6
 10
2215.340
 20
-5823.857
 30
1284.942
 70
    32
  0
VERTEX
  8
T39SSILL
 62
6
 10
2210.408
 20
-5818.406
 30
1284.955
 70
    32
  0
VERTEX
  8
T39SSILL
 62
6
 10
2212.390
 20
-5813.488
 30
1284.925
 70
    32
  0
VERTEX
  8
T39SSILL
 62
6
 10
2222.157
 20
-5810.757
 30
1284.851
 70
    32
  0
VERTEX
  8
T39SSILL
 62
6
 10
2223.402
 20
-5804.525
 30
1284.821
 70
    32
  0
VERTEX
  8
T39SSILL
 62
6
 10
2222.743
 20
-5799.565
 30
1284.808
 70
    32
  0
VERTEX
  8
T39SSILL
 62
6
 10
2223.965
 20
-5795.850
 30
1284.787
 70
    32
  0
VERTEX
  8
T39SSILL
 62
6
 10
2211.615
 20
-5776.416
 30
1284.799
 70
    32
  0
VERTEX
  8
T39SSILL
 62
6
 10
2206.151
 20
-5776.680
 30
1284.836
 70
    32
  0
VERTEX
  8
T39SSILL
 62
6
 10
2203.162
 20
-5770.908
 30
1284.835
 70
    32
  0
VERTEX
  8
T39SSILL
 62
6
 10
2204.475
 20
-5767.018
 30
1284.812
 70
    32
  0
VERTEX
  8
T39SSILL
 62
6
 10
2160.675
 20
-5702.408
 30
1284.825
 70
    32
  0
VERTEX
  8
T39SSILL
 62
6
 10
2156.662
 20
-5702.272
 30
1284.847
 70
    32
  0
VERTEX
  8
T39SSILL
 62
6
 10
2154.297
 20
-5699.310
 30
1284.849
 70
    32
  0
VERTEX
  8
T39SSILL
 62
6
 10
2154.692
 20
-5694.455
 30
1284.829
 70
    32
  0
VERTEX
  8
T39SSILL
 62
6
 10
2106.602
 20
-5623.928
 30
1285.056
 70
    32
  0
VERTEX
  8
T39SSILL
 62
6
 10
2097.402
 20
-5619.939
 30
1285.294
 70
    32
  0
VERTEX
  8
T39SSILL
 62
6
 10
2097.117
 20
-5611.445
 30
1285.109
 70
    32
  0
VERTEX
  8
T39SSILL
 62
6
 10
2095.200
 20
-5606.852
 30
1285.072
 70
    32
  0
VERTEX
  8
T39SSILL
 62
6
 10
2053.506
 20
-5546.044
 30
1285.931
 70
    32
  0
VERTEX
  8
T39SSILL
 62
6
 10
2045.328
 20
-5541.967
 30
1286.167
 70
    32
  0
VERTEX
  8
T39SSILL
 62
6
 10
2043.849
 20
-5539.776
 30
1286.214
 70
    32
  0
VERTEX
  8
T39SSILL
 62
6
 10
2044.223
 20
-5531.891
 30
1286.230
 70
    32
  0
VERTEX
  8
T39SSILL
 62
6
 10
1998.140
 20
-5465.782
 30
1287.701
 70
    32
  0
VERTEX
  8
T39SSILL
 62
6
 10
1992.143
 20
-5467.411
 30
1287.859
 70
    32
  0
VERTEX
  8
T39SSILL
 62
6
 10
1989.533
 20
-5463.212
 30
1287.944
 70
    32
  0
VERTEX
  8
T39SSILL
 62
6
 10
1991.581
 20
-5461.836
 30
1287.892
 70
    32
  0
VERTEX
  8
T39SSILL
 62
6
 10
1993.018
 20
-5457.967
 30
1287.866
 70
    32
  0
VERTEX
  8
T39SSILL
 62
6
 10
1983.618
 20
-5444.551
 30
1288.166
 70
    32
  0
VERTEX
  8
T39SSILL
 62
6
 10
1976.109
 20
-5448.146
 30
1288.358
 70
    32
  0
VERTEX
  8
T39SSILL
 62
6
 10
1973.717
 20
-5445.748
 30
1288.431
 70
    32
  0
VERTEX
  8
T39SSILL
 62
6
 10
1968.276
 20
-5443.493
 30
1288.506
 70
    32
  0
VERTEX
  8
T39SSILL
 62
6
 10
1966.213
 20
-5441.399
 30
1288.482
 70
    32
  0
VERTEX
  8
T39SSILL
 62
6
 10
1966.306
 20
-5440.027
 30
1288.464
 70
    32
  0
VERTEX
  8
T39SSILL
 62
6
 10
1957.352
 20
-5431.727
 30
1288.368
 70
    32
  0
VERTEX
  8
T39SSILL
 62
6
 10
1918.736
 20
-5425.149
 30
1288.331
 70
    32
  0
VERTEX
  8
T39SSILL
 62
6
 10
1917.944
 20
-5413.829
 30
1288.186
 70
    32
  0
VERTEX
  8
T39SSILL
 62
6
 10
1946.875
 20
-5419.527
 30
1288.224
 70
    32
  0
VERTEX
  8
T39SSILL
 62
6
 10
1951.617
 20
-5412.717
 30
1288.131
 70
    32
  0
VERTEX
  8
T39SSILL
 62
6
 10
1949.594
 20
-5397.325
 30
1287.936
 70
    32
  0
VERTEX
  8
T39SSILL
 62
6
 10
1942.005
 20
-5385.207
 30
1287.789
 70
    32
  0
VERTEX
  8
T39SSILL
 62
6
 10
1937.364
 20
-5384.657
 30
1287.788
 70
    32
  0
VERTEX
  8
T39SSILL
 62
6
 10
1935.292
 20
-5375.499
 30
1287.673
 70
    32
  0
VERTEX
  8
T39SSILL
 62
6
 10
1928.352
 20
-5366.827
 30
1287.570
 70
    32
  0
VERTEX
  8
T39SSILL
 62
6
 10
1921.659
 20
-5361.346
 30
1287.508
 70
    32
  0
VERTEX
  8
T39SSILL
 62
6
 10
1916.444
 20
-5359.254
 30
1287.487
 70
    32
  0
VERTEX
  8
T39SSILL
 62
6
 10
1911.046
 20
-5358.709
 30
1287.487
 70
    32
  0
VERTEX
  8
T39SSILL
 62
6
 10
1830.957
 20
-5379.361
 30
1287.849
 70
    32
  0
VERTEX
  8
T39SSILL
 62
6
 10
1836.787
 20
-5407.654
 30
1288.168
 70
    32
  0
VERTEX
  8
T39SSILL
 62
6
 10
1838.468
 20
-5409.372
 30
1288.192
 70
    32
  0
VERTEX
  8
T39SSILL
 62
6
 10
1845.205
 20
-5411.014
 30
1288.239
 70
    32
  0
VERTEX
  8
T39SSILL
 62
6
 10
1847.571
 20
-5413.976
 30
1288.274
 70
    32
  0
VERTEX
  8
T39SSILL
 62
6
 10
1855.454
 20
-5432.950
 30
1288.493
 70
    32
  0
VERTEX
  8
T39SSILL
 62
6
 10
1862.320
 20
-5444.070
 30
1288.628
 70
    32
  0
VERTEX
  8
T39SSILL
 62
6
 10
1870.968
 20
-5453.897
 30
1288.758
 70
    32
  0
VERTEX
  8
T39SSILL
 62
6
 10
1878.273
 20
-5456.323
 30
1288.780
 70
    32
  0
VERTEX
  8
T39SSILL
 62
6
 10
1882.193
 20
-5467.729
 30
1288.922
 70
    32
  0
VERTEX
  8
T39SSILL
 62
6
 10
1888.864
 20
-5478.881
 30
1289.057
 70
    32
  0
VERTEX
  8
T39SSILL
 62
6
 10
1934.131
 20
-5532.313
 30
1289.227
 70
    32
  0
VERTEX
  8
T39SSILL
 62
6
 10
1930.411
 20
-5543.385
 30
1289.409
 70
    32
  0
VERTEX
  8
T39SSILL
 62
6
 10
1935.037
 20
-5554.715
 30
1289.316
 70
    32
  0
VERTEX
  8
T39SSILL
 62
6
 10
1940.840
 20
-5557.468
 30
1289.189
 70
    32
  0
VERTEX
  8
T39SSILL
 62
6
 10
1943.961
 20
-5561.623
 30
1289.123
 70
    32
  0
VERTEX
  8
T39SSILL
 62
6
 10
1948.201
 20
-5574.972
 30
1289.041
 70
    32
  0
VERTEX
  8
T39SSILL
 62
6
 10
1950.461
 20
-5587.690
 30
1289.001
 70
    32
  0
VERTEX
  8
T39SSILL
 62
6
 10
1949.458
 20
-5592.007
 30
1289.027
 70
    32
  0
VERTEX
  8
T39SSILL
 62
6
 10
1962.486
 20
-5621.826
 30
1288.763
 70
    32
  0
VERTEX
  8
T39SSILL
 62
6
 10
1950.895
 20
-5622.942
 30
1289.022
 70
    32
  0
VERTEX
  8
T39SSILL
 62
6
 10
1940.283
 20
-5597.354
 30
1289.236
 70
    32
  0
VERTEX
  8
T39SSILL
 62
6
 10
1936.143
 20
-5590.893
 30
1289.323
 70
    32
  0
VERTEX
  8
T39SSILL
 62
6
 10
1919.967
 20
-5544.431
 30
1289.630
 70
    32
  0
VERTEX
  8
T39SSILL
 62
6
 10
1914.173
 20
-5531.338
 30
1289.626
 70
    32
  0
VERTEX
  8
T39SSILL
 62
6
 10
1911.652
 20
-5528.162
 30
1289.604
 70
    32
  0
VERTEX
  8
T39SSILL
 62
6
 10
1906.621
 20
-5524.523
 30
1289.537
 70
    32
  0
VERTEX
  8
T39SSILL
 62
6
 10
1893.050
 20
-5507.606
 30
1289.348
 70
    32
  0
VERTEX
  8
T39SSILL
 62
6
 10
1884.894
 20
-5502.208
 30
1289.253
 70
    32
  0
VERTEX
  8
T39SSILL
 62
6
 10
1875.077
 20
-5499.319
 30
1289.138
 70
    32
  0
VERTEX
  8
T39SSILL
 62
6
 10
1858.305
 20
-5479.937
 30
1288.905
 70
    32
  0
VERTEX
  8
T39SSILL
 62
6
 10
1841.019
 20
-5476.046
 30
1288.675
 70
    32
  0
VERTEX
  8
T39SSILL
 62
6
 10
1831.826
 20
-5475.968
 30
1288.499
 70
    32
  0
VERTEX
  8
T39SSILL
 62
6
 10
1829.530
 20
-5474.152
 30
1288.470
 70
    32
  0
VERTEX
  8
T39SSILL
 62
6
 10
1814.734
 20
-5440.394
 30
1288.309
 70
    32
  0
VERTEX
  8
T39SSILL
 62
6
 10
1806.651
 20
-5429.396
 30
1288.167
 70
    32
  0
VERTEX
  8
T39SSILL
 62
6
 10
1800.516
 20
-5427.535
 30
1288.114
 70
    32
  0
VERTEX
  8
T39SSILL
 62
6
 10
1795.201
 20
-5414.204
 30
1287.970
 70
    32
  0
VERTEX
  8
T39SSILL
 62
6
 10
1792.460
 20
-5398.571
 30
1287.823
 70
    32
  0
VERTEX
  8
T39SSILL
 62
6
 10
1790.027
 20
-5393.265
 30
1287.763
 70
    32
  0
VERTEX
  8
T39SSILL
 62
6
 10
1785.928
 20
-5394.062
 30
1287.745
 70
    32
  0
VERTEX
  8
T39SSILL
 62
6
 10
1783.170
 20
-5393.560
 30
1287.724
 70
    32
  0
VERTEX
  8
T39SSILL
 62
6
 10
1782.473
 20
-5391.998
 30
1287.707
 70
    32
  0
VERTEX
  8
T39SSILL
 62
6
 10
1764.182
 20
-5397.973
 30
1287.646
 70
    32
  0
VERTEX
  8
T39SSILL
 62
6
 10
1750.263
 20
-5400.275
 30
1287.553
 70
    32
  0
VERTEX
  8
T39SSILL
 62
6
 10
1747.385
 20
-5382.307
 30
1287.413
 70
    32
  0
VERTEX
  8
T39SSILL
 62
6
 10
1760.407
 20
-5385.265
 30
1287.516
 70
    32
  0
VERTEX
  8
T39SSILL
 62
6
 10
1770.746
 20
-5385.274
 30
1287.579
 70
    32
  0
VERTEX
  8
T39SSILL
 62
6
 10
1776.738
 20
-5382.887
 30
1287.596
 70
    32
  0
VERTEX
  8
T39SSILL
 62
6
 10
1772.579
 20
-5375.352
 30
1287.507
 70
    32
  0
VERTEX
  8
T39SSILL
 62
6
 10
1778.242
 20
-5372.660
 30
1287.519
 70
    32
  0
VERTEX
  8
T39SSILL
 62
6
 10
1774.787
 20
-5361.895
 30
1287.408
 70
    32
  0
VERTEX
  8
T39SSILL
 62
6
 10
1771.486
 20
-5356.893
 30
1287.346
 70
    32
  0
VERTEX
  8
T39SSILL
 62
6
 10
1759.910
 20
-5348.427
 30
1287.204
 70
    32
  0
VERTEX
  8
T39SSILL
 62
6
 10
1737.436
 20
-5350.582
 30
1287.086
 70
    32
  0
VERTEX
  8
T39SSILL
 62
6
 10
1734.060
 20
-5348.027
 30
1287.044
 70
    32
  0
VERTEX
  8
T39SSILL
 62
6
 10
1729.547
 20
-5335.201
 30
1287.032
 70
    32
  0
VERTEX
  8
T39SSILL
 62
6
 10
1740.746
 20
-5322.296
 30
1287.030
 70
    32
  0
VERTEX
  8
T39SSILL
 62
6
 10
1764.915
 20
-5339.578
 30
1287.160
 70
    32
  0
VERTEX
  8
T39SSILL
 62
6
 10
1766.715
 20
-5339.360
 30
1287.170
 70
    32
  0
VERTEX
  8
T39SSILL
 62
6
 10
1769.290
 20
-5335.862
 30
1287.156
 70
    32
  0
VERTEX
  8
T39SSILL
 62
6
 10
1742.262
 20
-5281.932
 30
1287.176
 70
    32
  0
VERTEX
  8
T39SSILL
 62
6
 10
1751.353
 20
-5241.514
 30
1287.332
 70
    32
  0
VERTEX
  8
T39SSILL
 62
6
 10
1749.912
 20
-5239.078
 30
1287.343
 70
    32
  0
VERTEX
  8
T39SSILL
 62
6
 10
1750.522
 20
-5238.419
 30
1287.345
 70
    32
  0
VERTEX
  8
T39SSILL
 62
6
 10
1734.840
 20
-5203.889
 30
1287.495
 70
    32
  0
VERTEX
  8
T39SSILL
 62
6
 10
1718.414
 20
-5187.084
 30
1287.558
 70
    32
  0
VERTEX
  8
T39SSILL
 62
6
 10
1730.394
 20
-5167.304
 30
1287.639
 70
    32
  0
VERTEX
  8
T39SSILL
 62
6
 10
1741.849
 20
-5174.552
 30
1287.607
 70
    32
  0
VERTEX
  8
T39SSILL
 62
6
 10
1743.883
 20
-5178.407
 30
1287.590
 70
    32
  0
VERTEX
  8
T39SSILL
 62
6
 10
1754.923
 20
-5190.633
 30
1287.533
 70
    32
  0
VERTEX
  8
T39SSILL
 62
6
 10
1760.760
 20
-5192.383
 30
1287.522
 70
    32
  0
VERTEX
  8
T39SSILL
 62
6
 10
1765.608
 20
-5197.570
 30
1287.497
 70
    32
  0
VERTEX
  8
T39SSILL
 62
6
 10
1774.996
 20
-5201.966
 30
1287.473
 70
    32
  0
VERTEX
  8
T39SSILL
 62
6
 10
1778.270
 20
-5229.285
 30
1287.353
 70
    32
  0
VERTEX
  8
T39SSILL
 62
6
 10
1776.986
 20
-5248.816
 30
1287.284
 70
    32
  0
VERTEX
  8
T39SSILL
 62
6
 10
1781.622
 20
-5270.794
 30
1287.179
 70
    32
  0
VERTEX
  8
T39SSILL
 62
6
 10
1776.642
 20
-5279.057
 30
1287.163
 70
    32
  0
VERTEX
  8
T39SSILL
 62
6
 10
1783.733
 20
-5302.670
 30
1287.050
 70
    32
  0
VERTEX
  8
T39SSILL
 62
6
 10
1788.359
 20
-5309.521
 30
1287.004
 70
    32
  0
VERTEX
  8
T39SSILL
 62
6
 10
1792.561
 20
-5307.351
 30
1286.971
 70
    32
  0
VERTEX
  8
T39SSILL
 62
6
 10
1811.926
 20
-5341.712
 30
1287.389
 70
    32
  0
VERTEX
  8
T39SSILL
 62
6
 10
1832.131
 20
-5368.829
 30
1287.713
 70
    32
  0
VERTEX
  8
T39SSILL
 62
6
 10
1893.928
 20
-5354.152
 30
1287.449
 70
    32
  0
VERTEX
  8
T39SSILL
 62
6
 10
1895.463
 20
-5349.668
 30
1287.389
 70
    32
  0
VERTEX
  8
T39SSILL
 62
6
 10
1894.001
 20
-5344.201
 30
1287.321
 70
    32
  0
VERTEX
  8
T39SSILL
 62
6
 10
1899.047
 20
-5338.259
 30
1287.239
 70
    32
  0
VERTEX
  8
T39SSILL
 62
6
 10
1901.303
 20
-5327.269
 30
1287.095
 70
    32
  0
VERTEX
  8
T39SSILL
 62
6
 10
1887.680
 20
-5305.930
 30
1286.837
 70
    32
  0
VERTEX
  8
T39SSILL
 62
6
 10
1880.205
 20
-5304.171
 30
1286.824
 70
    32
  0
VERTEX
  8
T39SSILL
 62
6
 10
1878.524
 20
-5293.752
 30
1286.692
 70
    32
  0
VERTEX
  8
T39SSILL
 62
6
 10
1863.179
 20
-5271.655
 30
1286.427
 70
    32
  0
VERTEX
  8
T39SSILL
 62
6
 10
1868.527
 20
-5268.262
 30
1286.377
 70
    32
  0
VERTEX
  8
T39SSILL
 62
6
 10
1873.863
 20
-5275.922
 30
1286.469
 70
    32
  0
VERTEX
  8
T39SSILL
 62
6
 10
1878.383
 20
-5275.255
 30
1286.455
 70
    32
  0
VERTEX
  8
T39SSILL
 62
6
 10
1854.364
 20
-5007.057
 30
1287.344
 70
    32
  0
VERTEX
  8
T39SSILL
 62
6
 10
1852.199
 20
-5000.892
 30
1287.387
 70
    32
  0
VERTEX
  8
T39SSILL
 62
6
 10
1709.711
 20
-4801.553
 30
1288.644
 70
    32
  0
VERTEX
  8
T39SSILL
 62
6
 10
1691.773
 20
-4779.288
 30
1288.610
 70
    32
  0
VERTEX
  8
T39SSILL
 62
6
 10
1688.679
 20
-4772.608
 30
1288.579
 70
    32
  0
VERTEX
  8
T39SSILL
 62
6
 10
1678.787
 20
-4758.385
 30
1288.544
 70
    32
  0
VERTEX
  8
T39SSILL
 62
6
 10
1686.936
 20
-4753.435
 30
1288.428
 70
    32
  0
VERTEX
  8
T39SSILL
 62
6
 10
1699.958
 20
-4764.352
 30
1288.407
 70
    32
  0
VERTEX
  8
T39SSILL
 62
6
 10
1704.775
 20
-4761.108
 30
1288.335
 70
    32
  0
VERTEX
  8
T39SSILL
 62
6
 10
1705.933
 20
-4751.602
 30
1288.242
 70
    32
  0
VERTEX
  8
T39SSILL
 62
6
 10
1716.003
 20
-4752.342
 30
1288.158
 70
    32
  0
VERTEX
  8
T39SSILL
 62
6
 10
1718.390
 20
-4795.991
 30
1288.518
 70
    32
  0
VERTEX
  8
T39SSILL
 62
6
 10
1848.921
 20
-4979.355
 30
1287.493
 70
    32
  0
VERTEX
  8
T39SSILL
 62
6
 10
1852.419
 20
-4979.497
 30
1287.457
 70
    32
  0
VERTEX
  8
T39SSILL
 62
6
 10
1856.201
 20
-4982.382
 30
1287.409
 70
    32
  0
VERTEX
  8
T39SSILL
 62
6
 10
1862.814
 20
-4981.855
 30
1287.345
 70
    32
  0
VERTEX
  8
T39SSILL
 62
6
 10
1865.338
 20
-4993.226
 30
1287.281
 70
    32
  0
VERTEX
  8
T39SSILL
 62
6
 10
1890.517
 20
-5274.289
 30
1286.427
 70
    32
  0
VERTEX
  8
T39SSILL
 62
6
 10
1893.723
 20
-5281.862
 30
1286.521
 70
    32
  0
VERTEX
  8
T39SSILL
 62
6
 10
1900.409
 20
-5292.133
 30
1286.645
 70
    32
  0
VERTEX
  8
T39SSILL
 62
6
 10
1958.567
 20
-5286.838
 30
1286.506
 70
    32
  0
VERTEX
  8
T39SSILL
 62
6
 10
1959.761
 20
-5297.937
 30
1286.647
 70
    32
  0
VERTEX
  8
T39SSILL
 62
6
 10
1929.550
 20
-5300.372
 30
1286.715
 70
    32
  0
VERTEX
  8
T39SSILL
 62
6
 10
1915.785
 20
-5313.941
 30
1286.906
 70
    32
  0
VERTEX
  8
T39SSILL
 62
6
 10
1910.246
 20
-5321.003
 30
1287.003
 70
    32
  0
VERTEX
  8
T39SSILL
 62
6
 10
1918.739
 20
-5334.967
 30
1287.172
 70
    32
  0
VERTEX
  8
T39SSILL
 62
6
 10
1967.077
 20
-5404.336
 30
1288.004
 70
    32
  0
VERTEX
  8
T39SSILL
 62
6
 10
1971.755
 20
-5405.838
 30
1288.018
 70
    32
  0
VERTEX
  8
T39SSILL
 62
6
 10
1974.541
 20
-5408.931
 30
1288.054
 70
    32
  0
VERTEX
  8
T39SSILL
 62
6
 10
1983.171
 20
-5413.333
 30
1288.100
 70
    32
  0
VERTEX
  8
T39SSILL
 62
6
 10
1992.601
 20
-5415.088
 30
1288.017
 70
    32
  0
VERTEX
  8
T39SSILL
 62
6
 10
2003.311
 20
-5413.958
 30
1287.729
 70
    32
  0
VERTEX
  8
T39SSILL
 62
6
 10
2011.554
 20
-5408.525
 30
1287.522
 70
    32
  0
VERTEX
  8
T39SSILL
 62
6
 10
2016.819
 20
-5416.237
 30
1287.354
 70
    32
  0
VERTEX
  8
T39SSILL
 62
6
 10
2030.753
 20
-5406.352
 30
1287.007
 70
    32
  0
VERTEX
  8
T39SSILL
 62
6
 10
2035.887
 20
-5413.602
 30
1286.843
 70
    32
  0
VERTEX
  8
T39SSILL
 62
6
 10
1994.852
 20
-5442.311
 30
1287.867
 70
    32
  0
VERTEX
  8
T39SSILL
 62
6
 10
1993.326
 20
-5448.568
 30
1287.888
 70
    32
  0
VERTEX
  8
T39SSILL
 62
6
 10
1999.743
 20
-5458.547
 30
1287.681
 70
    32
  0
VERTEX
  8
T39SSILL
 62
6
 10
2049.969
 20
-5527.975
 30
1286.086
 70
    32
  0
VERTEX
  8
T39SSILL
 62
6
 10
2059.129
 20
-5532.558
 30
1285.822
 70
    32
  0
VERTEX
  8
T39SSILL
 62
6
 10
2059.969
 20
-5534.710
 30
1285.792
 70
    32
  0
VERTEX
  8
T39SSILL
 62
6
 10
2058.591
 20
-5541.951
 30
1285.806
 70
    32
  0
VERTEX
  8
T39SSILL
 62
6
 10
2103.998
 20
-5606.561
 30
1284.879
 70
    32
  0
VERTEX
  8
T39SSILL
 62
6
 10
2110.159
 20
-5608.704
 30
1284.863
 70
    32
  0
VERTEX
  8
T39SSILL
 62
6
 10
2113.537
 20
-5614.124
 30
1284.856
 70
    32
  0
VERTEX
  8
T39SSILL
 62
6
 10
2113.355
 20
-5619.487
 30
1284.859
 70
    32
  0
VERTEX
  8
T39SSILL
 62
6
 10
2162.175
 20
-5690.396
 30
1284.789
 70
    32
  0
VERTEX
  8
T39SSILL
 62
6
 10
2166.817
 20
-5689.690
 30
1284.778
 70
    32
  0
VERTEX
  8
T39SSILL
 62
6
 10
2170.149
 20
-5694.355
 30
1284.777
 70
    32
  0
VERTEX
  8
T39SSILL
 62
6
 10
2168.400
 20
-5699.742
 30
1284.789
 70
    32
  0
VERTEX
  8
T39SSILL
 62
6
 10
2212.343
 20
-5765.201
 30
1284.773
 70
    32
  0
VERTEX
  8
T39SSILL
 62
6
 10
2218.945
 20
-5763.697
 30
1284.754
 70
    32
  0
VERTEX
  8
T39SSILL
 62
6
 10
2221.142
 20
-5767.243
 30
1284.751
 70
    32
  0
VERTEX
  8
T39SSILL
 62
6
 10
2217.718
 20
-5773.082
 30
1284.765
 70
    32
  0
VERTEX
  8
T39SSILL
 62
6
 10
2262.653
 20
-5836.829
 30
1284.695
 70
    32
  0
VERTEX
  8
T39SSILL
 62
6
 10
2266.936
 20
-5835.960
 30
1284.683
 70
    32
  0
VERTEX
  8
T39SSILL
 62
6
 10
2271.381
 20
-5842.555
 30
1284.690
 70
    32
  0
VERTEX
  8
T39SSILL
 62
6
 10
2271.540
 20
-5849.456
 30
1284.703
 70
    32
  0
VERTEX
  8
T39SSILL
 62
6
 10
2325.191
 20
-5925.061
 30
1284.793
 70
    32
  0
VERTEX
  8
T39SSILL
 62
6
 10
2328.967
 20
-5922.449
 30
1284.784
 70
    32
  0
VERTEX
  8
T39SSILL
 62
6
 10
2331.842
 20
-5926.691
 30
1284.792
 70
    32
  0
VERTEX
  8
T39SSILL
 62
6
 10
2328.318
 20
-5929.891
 30
1284.801
 70
    32
  0
VERTEX
  8
T39SSILL
 62
6
 10
2371.076
 20
-5991.097
 30
1284.902
 70
    32
  0
VERTEX
  8
T39SSILL
 62
6
 10
2400.320
 20
-6023.215
 30
1284.952
 70
    32
  0
VERTEX
  8
T39SSILL
 62
6
 10
2458.704
 20
-6082.410
 30
1286.259
 70
    32
  0
VERTEX
  8
T39SSILL
 62
6
 10
2461.977
 20
-6085.728
 30
1286.239
 70
    32
  0
VERTEX
  8
T39SSILL
 62
6
 10
2463.071
 20
-6086.838
 30
1286.235
 70
    32
  0
VERTEX
  8
T39SSILL
 62
6
 10
2583.025
 20
-6208.458
 30
1285.166
 70
    32
  0
VERTEX
  8
T39SSILL
 62
6
 10
2889.056
 20
-6104.176
 30
1283.671
 70
    32
  0
VERTEX
  8
T39SSILL
 62
6
 10
2926.599
 20
-6077.399
 30
1283.475
 70
    32
  0
VERTEX
  8
T39SSILL
 62
6
 10
2923.000
 20
-6072.000
 30
1283.473
 70
    32
  0
VERTEX
  8
T39SSILL
 62
6
 10
2934.000
 20
-6065.000
 30
1283.488
 70
    32
  0
VERTEX
  8
T39SSILL
 62
6
 10
2937.217
 20
-6069.826
 30
1283.490
 70
    32
  0
VERTEX
  8
T39SSILL
 62
6
 10
3022.024
 20
-6008.572
 30
1283.615
 70
    32
  0
VERTEX
  8
T39SSILL
 62
6
 10
3028.846
 20
-5999.946
 30
1283.627
 70
    32
  0
VERTEX
  8
T39SSILL
 62
6
 10
3031.613
 20
-5992.969
 30
1283.633
 70
    32
  0
VERTEX
  8
T39SSILL
 62
6
 10
3031.321
 20
-5984.447
 30
1283.636
 70
    32
  0
VERTEX
  8
T39SSILL
 62
6
 10
3028.337
 20
-5976.316
 30
1283.636
 70
    32
  0
VERTEX
  8
T39SSILL
 62
6
 10
2982.337
 20
-5911.847
 30
1283.610
 70
    32
  0
VERTEX
  8
T39SSILL
 62
6
 10
2980.404
 20
-5921.952
 30
1283.603
 70
    32
  0
VERTEX
  8
T39SSILL
 62
6
 10
2977.335
 20
-5928.385
 30
1283.597
 70
    32
  0
VERTEX
  8
T39SSILL
 62
6
 10
2971.764
 20
-5934.731
 30
1283.588
 70
    32
  0
VERTEX
  8
T39SSILL
 62
6
 10
2901.075
 20
-5986.178
 30
1283.483
 70
    32
  0
VERTEX
  8
T39SSILL
 62
6
 10
2905.231
 20
-5992.264
 30
1283.485
 70
    32
  0
VERTEX
  8
T39SSILL
 62
6
 10
2898.854
 20
-5996.678
 30
1283.476
 70
    32
  0
VERTEX
  8
T39SSILL
 62
6
 10
2894.501
 20
-5990.963
 30
1283.473
 70
    32
  0
VERTEX
  8
T39SSILL
 62
6
 10
2850.565
 20
-6022.940
 30
1283.666
 70
    32
  0
VERTEX
  8
T39SSILL
 62
6
 10
2846.033
 20
-6017.426
 30
1283.677
 70
    32
  0
VERTEX
  8
T39SSILL
 62
6
 10
2965.664
 20
-5931.518
 30
1283.582
 70
    32
  0
VERTEX
  8
T39SSILL
 62
6
 10
2970.421
 20
-5927.010
 30
1283.589
 70
    32
  0
VERTEX
  8
T39SSILL
 62
6
 10
2974.785
 20
-5919.370
 30
1283.598
 70
    32
  0
VERTEX
  8
T39SSILL
 62
6
 10
2976.545
 20
-5909.618
 30
1283.604
 70
    32
  0
VERTEX
  8
T39SSILL
 62
6
 10
2973.268
 20
-5899.938
 30
1283.604
 70
    32
  0
VERTEX
  8
T39SSILL
 62
6
 10
2926.665
 20
-5834.823
 30
1283.577
 70
    32
  0
VERTEX
  8
T39SSILL
 62
6
 10
2924.274
 20
-5847.379
 30
1283.569
 70
    32
  0
VERTEX
  8
T39SSILL
 62
6
 10
2917.154
 20
-5858.667
 30
1283.556
 70
    32
  0
VERTEX
  8
T39SSILL
 62
6
 10
2810.802
 20
-5934.806
 30
1283.662
 70
    32
  0
VERTEX
  8
T39SSILL
 62
6
 10
2815.178
 20
-5940.870
 30
1283.653
 70
    32
  0
VERTEX
  8
T39SSILL
 62
6
 10
2809.677
 20
-5944.838
 30
1283.694
 70
    32
  0
VERTEX
  8
T39SSILL
 62
6
 10
2805.129
 20
-5938.867
 30
1283.704
 70
    32
  0
VERTEX
  8
T39SSILL
 62
6
 10
2769.387
 20
-5964.455
 30
1283.966
 70
    32
  0
VERTEX
  8
T39SSILL
 62
6
 10
2765.050
 20
-5970.967
 30
1284.006
 70
    32
  0
VERTEX
  8
T39SSILL
 62
6
 10
2757.021
 20
-5978.300
 30
1284.069
 70
    32
  0
VERTEX
  8
T39SSILL
 62
6
 10
2752.732
 20
-5977.028
 30
1284.089
 70
    32
  0
VERTEX
  8
T39SSILL
 62
6
 10
2704.361
 20
-6011.322
 30
1284.268
 70
    32
  0
VERTEX
  8
T39SSILL
 62
6
 10
2699.933
 20
-6005.507
 30
1284.267
 70
    32
  0
VERTEX
  8
T39SSILL
 62
6
 10
2747.110
 20
-5971.681
 30
1284.107
 70
    32
  0
VERTEX
  8
T39SSILL
 62
6
 10
2742.018
 20
-5966.594
 30
1284.117
 70
    32
  0
VERTEX
  8
T39SSILL
 62
6
 10
2741.348
 20
-5961.791
 30
1284.110
 70
    32
  0
VERTEX
  8
T39SSILL
 62
6
 10
2755.968
 20
-5954.973
 30
1284.016
 70
    32
  0
VERTEX
  8
T39SSILL
 62
6
 10
2764.589
 20
-5958.590
 30
1283.977
 70
    32
  0
VERTEX
  8
T39SSILL
 62
6
 10
2910.818
 20
-5854.417
 30
1283.550
 70
    32
  0
VERTEX
  8
T39SSILL
 62
6
 10
2916.790
 20
-5847.434
 30
1283.560
 70
    32
  0
VERTEX
  8
T39SSILL
 62
6
 10
2918.705
 20
-5842.102
 30
1283.564
 70
    32
  0
VERTEX
  8
T39SSILL
 62
6
 10
2919.834
 20
-5835.155
 30
1283.569
 70
    32
  0
VERTEX
  8
T39SSILL
 62
6
 10
2918.959
 20
-5823.978
 30
1283.572
 70
    32
  0
VERTEX
  8
T39SSILL
 62
6
 10
2872.766
 20
-5759.546
 30
1283.545
 70
    32
  0
VERTEX
  8
T39SSILL
 62
6
 10
2871.657
 20
-5766.810
 30
1283.541
 70
    32
  0
VERTEX
  8
T39SSILL
 62
6
 10
2869.238
 20
-5773.080
 30
1283.535
 70
    32
  0
VERTEX
  8
T39SSILL
 62
6
 10
2860.944
 20
-5782.827
 30
1283.521
 70
    32
  0
VERTEX
  8
T39SSILL
 62
6
 10
2775.023
 20
-5844.667
 30
1283.631
 70
    32
  0
VERTEX
  8
T39SSILL
 62
6
 10
2778.812
 20
-5850.249
 30
1283.624
 70
    32
  0
VERTEX
  8
T39SSILL
 62
6
 10
2773.171
 20
-5854.323
 30
1283.666
 70
    32
  0
VERTEX
  8
T39SSILL
 62
6
 10
2769.180
 20
-5848.873
 30
1283.674
 70
    32
  0
VERTEX
  8
T39SSILL
 62
6
 10
2728.755
 20
-5877.968
 30
1283.970
 70
    32
  0
VERTEX
  8
T39SSILL
 62
6
 10
2723.710
 20
-5872.070
 30
1283.983
 70
    32
  0
VERTEX
  8
T39SSILL
 62
6
 10
2853.588
 20
-5778.690
 30
1283.515
 70
    32
  0
VERTEX
  8
T39SSILL
 62
6
 10
2860.203
 20
-5772.988
 30
1283.525
 70
    32
  0
VERTEX
  8
T39SSILL
 62
6
 10
2863.919
 20
-5765.951
 30
1283.532
 70
    32
  0
VERTEX
  8
T39SSILL
 62
6
 10
2864.885
 20
-5758.354
 30
1283.536
 70
    32
  0
VERTEX
  8
T39SSILL
 62
6
 10
2862.326
 20
-5745.693
 30
1283.539
 70
    32
  0
VERTEX
  8
T39SSILL
 62
6
 10
2840.918
 20
-5712.214
 30
1283.528
 70
    32
  0
VERTEX
  8
T39SSILL
 62
6
 10
2817.745
 20
-5680.137
 30
1283.514
 70
    32
  0
VERTEX
  8
T39SSILL
 62
6
 10
2814.594
 20
-5692.547
 30
1283.505
 70
    32
  0
VERTEX
  8
T39SSILL
 62
6
 10
2810.745
 20
-5699.478
 30
1283.498
 70
    32
  0
VERTEX
  8
T39SSILL
 62
6
 10
2805.572
 20
-5705.068
 30
1283.489
 70
    32
  0
VERTEX
  8
T39SSILL
 62
6
 10
2725.415
 20
-5763.056
 30
1283.697
 70
    32
  0
VERTEX
  8
T39SSILL
 62
6
 10
2730.206
 20
-5769.261
 30
1283.687
 70
    32
  0
VERTEX
  8
T39SSILL
 62
6
 10
2723.196
 20
-5773.852
 30
1283.737
 70
    32
  0
VERTEX
  8
T39SSILL
 62
6
 10
2718.717
 20
-5767.902
 30
1283.747
 70
    32
  0
VERTEX
  8
T39SSILL
 62
6
 10
2676.359
 20
-5798.546
 30
1283.963
 70
    32
  0
VERTEX
  8
T39SSILL
 62
6
 10
2671.975
 20
-5792.435
 30
1283.961
 70
    32
  0
VERTEX
  8
T39SSILL
 62
6
 10
2800.573
 20
-5701.092
 30
1283.485
 70
    32
  0
VERTEX
  8
T39SSILL
 62
6
 10
2806.891
 20
-5693.567
 30
1283.496
 70
    32
  0
VERTEX
  8
T39SSILL
 62
6
 10
2809.902
 20
-5684.118
 30
1283.503
 70
    32
  0
VERTEX
  8
T39SSILL
 62
6
 10
2810.595
 20
-5677.071
 30
1283.507
 70
    32
  0
VERTEX
  8
T39SSILL
 62
6
 10
2808.446
 20
-5668.001
 30
1283.508
 70
    32
  0
VERTEX
  8
T39SSILL
 62
6
 10
2761.864
 20
-5602.598
 30
1283.481
 70
    32
  0
VERTEX
  8
T39SSILL
 62
6
 10
2758.520
 20
-5615.987
 30
1283.472
 70
    32
  0
VERTEX
  8
T39SSILL
 62
6
 10
2755.304
 20
-5621.645
 30
1283.465
 70
    32
  0
VERTEX
  8
T39SSILL
 62
6
 10
2750.106
 20
-5627.357
 30
1283.457
 70
    32
  0
VERTEX
  8
T39SSILL
 62
6
 10
2675.230
 20
-5680.714
 30
1283.765
 70
    32
  0
VERTEX
  8
T39SSILL
 62
6
 10
2679.303
 20
-5686.794
 30
1283.758
 70
    32
  0
VERTEX
  8
T39SSILL
 62
6
 10
2673.345
 20
-5691.211
 30
1283.787
 70
    32
  0
VERTEX
  8
T39SSILL
 62
6
 10
2668.977
 20
-5685.170
 30
1283.785
 70
    32
  0
VERTEX
  8
T39SSILL
 62
6
 10
2595.466
 20
-5737.553
 30
1284.019
 70
    32
  0
VERTEX
  8
T39SSILL
 62
6
 10
2591.105
 20
-5732.769
 30
1284.020
 70
    32
  0
VERTEX
  8
T39SSILL
 62
6
 10
2743.519
 20
-5624.339
 30
1283.450
 70
    32
  0
VERTEX
  8
T39SSILL
 62
6
 10
2750.111
 20
-5618.649
 30
1283.461
 70
    32
  0
VERTEX
  8
T39SSILL
 62
6
 10
2754.455
 20
-5603.741
 30
1283.472
 70
    32
  0
VERTEX
  8
T39SSILL
 62
6
 10
2754.634
 20
-5596.720
 30
1283.475
 70
    32
  0
VERTEX
  8
T39SSILL
 62
6
 10
2753.276
 20
-5591.366
 30
1283.476
 70
    32
  0
VERTEX
  8
T39SSILL
 62
6
 10
2706.819
 20
-5526.942
 30
1283.448
 70
    32
  0
VERTEX
  8
T39SSILL
 62
6
 10
2704.107
 20
-5538.739
 30
1283.440
 70
    32
  0
VERTEX
  8
T39SSILL
 62
6
 10
2696.059
 20
-5549.228
 30
1283.426
 70
    32
  0
VERTEX
  8
T39SSILL
 62
6
 10
2565.355
 20
-5643.492
 30
1283.920
 70
    32
  0
VERTEX
  8
T39SSILL
 62
6
 10
2560.962
 20
-5637.729
 30
1283.919
 70
    32
  0
VERTEX
  8
T39SSILL
 62
6
 10
2622.518
 20
-5594.301
 30
1283.723
 70
    32
  0
VERTEX
  8
T39SSILL
 62
6
 10
2618.140
 20
-5588.695
 30
1283.722
 70
    32
  0
VERTEX
  8
T39SSILL
 62
6
 10
2624.417
 20
-5584.596
 30
1283.703
 70
    32
  0
VERTEX
  8
T39SSILL
 62
6
 10
2628.720
 20
-5589.926
 30
1283.703
 70
    32
  0
VERTEX
  8
T39SSILL
 62
6
 10
2692.672
 20
-5544.808
 30
1283.424
 70
    32
  0
VERTEX
  8
T39SSILL
 62
6
 10
2696.040
 20
-5541.277
 30
1283.430
 70
    32
  0
VERTEX
  8
T39SSILL
 62
6
 10
2698.956
 20
-5532.953
 30
1283.437
 70
    32
  0
VERTEX
  8
T39SSILL
 62
6
 10
2699.599
 20
-5525.197
 30
1283.441
 70
    32
  0
VERTEX
  8
T39SSILL
 62
6
 10
2698.699
 20
-5517.200
 30
1283.443
 70
    32
  0
VERTEX
  8
T39SSILL
 62
6
 10
2649.298
 20
-5444.469
 30
1283.416
 70
    32
  0
VERTEX
  8
T39SSILL
 62
6
 10
2429.736
 20
-5140.757
 30
1283.348
 70
    32
  0
VERTEX
  8
T39SSILL
 62
6
 10
2427.707
 20
-5150.238
 30
1283.363
 70
    32
  0
VERTEX
  8
T39SSILL
 62
6
 10
2424.205
 20
-5157.504
 30
1283.379
 70
    32
  0
VERTEX
  8
T39SSILL
 62
6
 10
2417.801
 20
-5164.655
 30
1283.399
 70
    32
  0
VERTEX
  8
T39SSILL
 62
6
 10
2259.221
 20
-5279.397
 30
1283.946
 70
    32
  0
VERTEX
  8
T39SSILL
 62
6
 10
2263.021
 20
-5285.491
 30
1283.951
 70
    32
  0
VERTEX
  8
T39SSILL
 62
6
 10
2257.000
 20
-5289.478
 30
1283.971
 70
    32
  0
VERTEX
  8
T39SSILL
 62
6
 10
2253.140
 20
-5283.797
 30
1283.967
 70
    32
  0
VERTEX
  8
T39SSILL
 62
6
 10
2212.342
 20
-5313.317
 30
1284.110
 70
    32
  0
VERTEX
  8
T39SSILL
 62
6
 10
2206.687
 20
-5307.294
 30
1284.109
 70
    32
  0
VERTEX
  8
T39SSILL
 62
6
 10
2412.839
 20
-5159.328
 30
1283.400
 70
    32
  0
VERTEX
  8
T39SSILL
 62
6
 10
2417.912
 20
-5153.396
 30
1283.384
 70
    32
  0
VERTEX
  8
T39SSILL
 62
6
 10
2421.429
 20
-5144.634
 30
1283.367
 70
    32
  0
VERTEX
  8
T39SSILL
 62
6
 10
2421.257
 20
-5135.308
 30
1283.356
 70
    32
  0
VERTEX
  8
T39SSILL
 62
6
 10
2417.140
 20
-5124.536
 30
1283.350
 70
    32
  0
VERTEX
  8
T39SSILL
 62
6
 10
2318.388
 20
-4987.215
 30
1283.350
 70
    32
  0
VERTEX
  8
T39SSILL
 62
6
 10
2315.739
 20
-4997.129
 30
1283.367
 70
    32
  0
VERTEX
  8
T39SSILL
 62
6
 10
2307.962
 20
-5009.720
 30
1283.396
 70
    32
  0
VERTEX
  8
T39SSILL
 62
6
 10
2250.649
 20
-5051.121
 30
1283.546
 70
    32
  0
VERTEX
  8
T39SSILL
 62
6
 10
2251.701
 20
-5055.581
 30
1283.550
 70
    32
  0
VERTEX
  8
T39SSILL
 62
6
 10
2241.346
 20
-5062.944
 30
1283.577
 70
    32
  0
VERTEX
  8
T39SSILL
 62
6
 10
2236.188
 20
-5064.595
 30
1283.588
 70
    32
  0
VERTEX
  8
T39SSILL
 62
6
 10
2226.321
 20
-5071.418
 30
1283.614
 70
    32
  0
VERTEX
  8
T39SSILL
 62
6
 10
2222.329
 20
-5071.580
 30
1283.621
 70
    32
  0
VERTEX
  8
T39SSILL
 62
6
 10
2152.559
 20
-5121.980
 30
1284.152
 70
    32
  0
VERTEX
  8
T39SSILL
 62
6
 10
2156.554
 20
-5127.867
 30
1284.223
 70
    32
  0
VERTEX
  8
T39SSILL
 62
6
 10
2150.614
 20
-5132.290
 30
1284.287
 70
    32
  0
VERTEX
  8
T39SSILL
 62
6
 10
2146.303
 20
-5126.500
 30
1284.218
 70
    32
  0
VERTEX
  8
T39SSILL
 62
6
 10
2106.138
 20
-5155.514
 30
1284.639
 70
    32
  0
VERTEX
  8
T39SSILL
 62
6
 10
2101.624
 20
-5149.488
 30
1284.568
 70
    32
  0
VERTEX
  8
T39SSILL
 62
6
 10
2120.708
 20
-5135.735
 30
1284.368
 70
    32
  0
VERTEX
  8
T39SSILL
 62
6
 10
2117.284
 20
-5131.346
 30
1284.315
 70
    32
  0
VERTEX
  8
T39SSILL
 62
6
 10
2123.756
 20
-5126.219
 30
1284.242
 70
    32
  0
VERTEX
  8
T39SSILL
 62
6
 10
2127.034
 20
-5131.175
 30
1284.301
 70
    32
  0
VERTEX
  8
T39SSILL
 62
6
 10
2217.752
 20
-5065.797
 30
1283.622
 70
    32
  0
VERTEX
  8
T39SSILL
 62
6
 10
2218.395
 20
-5060.697
 30
1283.614
 70
    32
  0
VERTEX
  8
T39SSILL
 62
6
 10
2226.352
 20
-5052.924
 30
1283.591
 70
    32
  0
VERTEX
  8
T39SSILL
 62
6
 10
2230.826
 20
-5051.838
 30
1283.582
 70
    32
  0
VERTEX
  8
T39SSILL
 62
6
 10
2242.256
 20
-5044.179
 30
1283.552
 70
    32
  0
VERTEX
  8
T39SSILL
 62
6
 10
2247.280
 20
-5044.516
 30
1283.544
 70
    32
  0
VERTEX
  8
T39SSILL
 62
6
 10
2303.798
 20
-5003.785
 30
1283.395
 70
    32
  0
VERTEX
  8
T39SSILL
 62
6
 10
2309.058
 20
-4996.711
 30
1283.378
 70
    32
  0
VERTEX
  8
T39SSILL
 62
6
 10
2311.157
 20
-4988.991
 30
1283.364
 70
    32
  0
VERTEX
  8
T39SSILL
 62
6
 10
2307.287
 20
-4971.096
 30
1283.349
 70
    32
  0
VERTEX
  8
T39SSILL
 62
6
 10
2208.264
 20
-4834.388
 30
1283.448
 70
    32
  0
VERTEX
  8
T39SSILL
 62
6
 10
2206.516
 20
-4842.200
 30
1283.459
 70
    32
  0
VERTEX
  8
T39SSILL
 62
6
 10
2199.098
 20
-4854.090
 30
1283.486
 70
    32
  0
VERTEX
  8
T39SSILL
 62
6
 10
1940.505
 20
-5040.928
 30
1286.367
 70
    32
  0
VERTEX
  8
T39SSILL
 62
6
 10
1934.178
 20
-5034.547
 30
1286.452
 70
    32
  0
VERTEX
  8
T39SSILL
 62
6
 10
2006.135
 20
-4984.490
 30
1285.884
 70
    32
  0
VERTEX
  8
T39SSILL
 62
6
 10
2190.769
 20
-4851.281
 30
1283.503
 70
    32
  0
VERTEX
  8
T39SSILL
 62
6
 10
2196.280
 20
-4845.442
 30
1283.485
 70
    32
  0
VERTEX
  8
T39SSILL
 62
6
 10
2199.340
 20
-4838.435
 30
1283.472
 70
    32
  0
VERTEX
  8
T39SSILL
 62
6
 10
2199.779
 20
-4829.554
 30
1283.464
 70
    32
  0
VERTEX
  8
T39SSILL
 62
6
 10
2198.530
 20
-4822.417
 30
1283.461
 70
    32
  0
VERTEX
  8
T39SSILL
 62
6
 10
2177.366
 20
-4792.036
 30
1283.528
 70
    32
  0
VERTEX
  8
T39SSILL
 62
6
 10
2174.118
 20
-4791.300
 30
1283.568
 70
    32
  0
VERTEX
  8
T39SSILL
 62
6
 10
2173.972
 20
-4673.735
 30
1283.489
 70
    32
  0
VERTEX
  8
T39SSILL
 62
6
 10
2171.088
 20
-4670.317
 30
1283.551
 70
    32
  0
VERTEX
  8
T39SSILL
 62
6
 10
2158.155
 20
-4670.453
 30
1283.696
 70
    32
  0
VERTEX
  8
T39SSILL
 62
6
 10
2158.135
 20
-4663.592
 30
1283.757
 70
    32
  0
VERTEX
  8
T39SSILL
 62
6
 10
2173.959
 20
-4663.960
 30
1283.576
 70
    32
  0
VERTEX
  8
T39SSILL
 62
6
 10
2173.921
 20
-4632.783
 30
1283.854
 70
    32
  0
VERTEX
  8
T39SSILL
 62
6
 10
2171.397
 20
-4630.031
 30
1283.906
 70
    32
  0
VERTEX
  8
T39SSILL
 62
6
 10
2165.533
 20
-4626.983
 30
1284.000
 70
    32
  0
VERTEX
  8
T39SSILL
 62
6
 10
2126.210
 20
-4627.211
 30
1284.440
 70
    32
  0
VERTEX
  8
T39SSILL
 62
6
 10
2125.329
 20
-4618.406
 30
1284.528
 70
    32
  0
VERTEX
  8
T39SSILL
 62
6
 10
2119.216
 20
-4613.859
 30
1284.638
 70
    32
  0
VERTEX
  8
T39SSILL
 62
6
 10
2118.498
 20
-4570.661
 30
1285.030
 70
    32
  0
VERTEX
  8
T39SSILL
 62
6
 10
2174.209
 20
-4541.037
 30
1284.667
 70
    32
  0
VERTEX
  8
T39SSILL
 62
6
 10
2173.590
 20
-4464.674
 30
1285.353
 70
    32
  0
VERTEX
  8
T39SSILL
 62
6
 10
2183.805
 20
-4464.658
 30
1285.238
 70
    32
  0
VERTEX
  8
T39SSILL
 62
6
 10
2183.290
 20
-4610.356
 30
1283.948
 70
    32
  0
VERTEX
  8
T39SSILL
 62
6
 10
2189.628
 20
-4609.891
 30
1283.880
 70
    32
  0
VERTEX
  8
T39SSILL
 62
6
 10
2189.466
 20
-4617.366
 30
1283.816
 70
    32
  0
VERTEX
  8
T39SSILL
 62
6
 10
2183.397
 20
-4617.394
 30
1283.884
 70
    32
  0
VERTEX
  8
T39SSILL
 62
6
 10
2183.489
 20
-4786.554
 30
1283.466
 70
    32
  0
VERTEX
  8
T39SSILL
 62
6
 10
3441.770
 20
-5160.317
 30
1283.414
 70
    32
  0
VERTEX
  8
T39SSILL
 62
6
 10
3773.328
 20
-5191.460
 30
1283.614
 70
    32
  0
VERTEX
  8
T39SSILL
 62
6
 10
3817.950
 20
-5252.504
 30
1283.754
 70
    32
  0
VERTEX
  8
T39SSILL
 62
6
 10
3825.044
 20
-5256.228
 30
1283.771
 70
    32
  0
VERTEX
  8
T39SSILL
 62
6
 10
3835.476
 20
-5258.506
 30
1283.792
 70
    32
  0
VERTEX
  8
T39SSILL
 62
6
 10
3843.937
 20
-5257.717
 30
1283.807
 70
    32
  0
VERTEX
  8
T39SSILL
 62
6
 10
3848.418
 20
-5255.908
 30
1283.813
 70
    32
  0
VERTEX
  8
T39SSILL
 62
6
 10
3881.608
 20
-5231.321
 30
1283.850
 70
    32
  0
VERTEX
  8
T39SSILL
 62
6
 10
3885.386
 20
-5238.694
 30
1283.863
 70
    32
  0
VERTEX
  8
T39SSILL
 62
6
 10
3848.678
 20
-5264.374
 30
1283.822
 70
    32
  0
VERTEX
  8
T39SSILL
 62
6
 10
3836.786
 20
-5266.168
 30
1283.802
 70
    32
  0
VERTEX
  8
T39SSILL
 62
6
 10
3827.167
 20
-5265.734
 30
1283.784
 70
    32
  0
VERTEX
  8
T39SSILL
 62
6
 10
3880.835
 20
-5340.539
 30
1283.957
 70
    32
  0
VERTEX
  8
T39SSILL
 62
6
 10
3888.280
 20
-5344.082
 30
1283.974
 70
    32
  0
VERTEX
  8
T39SSILL
 62
6
 10
3897.985
 20
-5344.251
 30
1283.992
 70
    32
  0
VERTEX
  8
T39SSILL
 62
6
 10
3910.447
 20
-5337.776
 30
1284.008
 70
    32
  0
VERTEX
  8
T39SSILL
 62
6
 10
3922.901
 20
-5321.510
 30
1284.014
 70
    32
  0
VERTEX
  8
T39SSILL
 62
6
 10
3928.154
 20
-5317.488
 30
1284.020
 70
    32
  0
VERTEX
  8
T39SSILL
 62
6
 10
3940.785
 20
-5310.218
 30
1284.036
 70
    32
  0
VERTEX
  8
T39SSILL
 62
6
 10
3942.760
 20
-5313.639
 30
1284.043
 70
    32
  0
VERTEX
  8
T39SSILL
 62
6
 10
3954.502
 20
-5305.672
 30
1284.056
 70
    32
  0
VERTEX
  8
T39SSILL
 62
6
 10
3958.359
 20
-5312.162
 30
1284.069
 70
    32
  0
VERTEX
  8
T39SSILL
 62
6
 10
3954.603
 20
-5315.904
 30
1284.066
 70
    32
  0
VERTEX
  8
T39SSILL
 62
6
 10
3958.974
 20
-5329.710
 30
1284.088
 70
    32
  0
VERTEX
  8
T39SSILL
 62
6
 10
3958.938
 20
-5335.003
 30
1284.093
 70
    32
  0
VERTEX
  8
T39SSILL
 62
6
 10
3957.301
 20
-5338.989
 30
1284.095
 70
    32
  0
VERTEX
  8
T39SSILL
 62
6
 10
3954.854
 20
-5341.307
 30
1284.092
 70
    32
  0
VERTEX
  8
T39SSILL
 62
6
 10
3966.466
 20
-5338.017
 30
1284.110
 70
    32
  0
VERTEX
  8
T39SSILL
 62
6
 10
3972.039
 20
-5339.638
 30
1284.122
 70
    32
  0
VERTEX
  8
T39SSILL
 62
6
 10
3974.323
 20
-5338.645
 30
1284.125
 70
    32
  0
VERTEX
  8
T39SSILL
 62
6
 10
3983.858
 20
-5339.433
 30
1284.143
 70
    32
  0
VERTEX
  8
T39SSILL
 62
6
 10
4009.484
 20
-5370.672
 30
1284.221
 70
    32
  0
VERTEX
  8
T39SSILL
 62
6
 10
4015.046
 20
-5371.058
 30
1284.232
 70
    32
  0
VERTEX
  8
T39SSILL
 62
6
 10
4020.594
 20
-5379.031
 30
1284.250
 70
    32
  0
VERTEX
  8
T39SSILL
 62
6
 10
4042.693
 20
-5401.484
 30
1284.313
 70
    32
  0
VERTEX
  8
T39SSILL
 62
6
 10
4065.334
 20
-5434.164
 30
1284.396
 70
    32
  0
VERTEX
  8
T39SSILL
 62
6
 10
4087.617
 20
-5448.411
 30
1284.463
 70
    32
  0
VERTEX
  8
T39SSILL
 62
6
 10
4102.855
 20
-5481.870
 30
1284.553
 70
    32
  0
VERTEX
  8
T39SSILL
 62
6
 10
4117.783
 20
-5510.569
 30
1284.632
 70
    32
  0
VERTEX
  8
T39SSILL
 62
6
 10
4116.993
 20
-5511.018
 30
1284.632
 70
    32
  0
VERTEX
  8
T39SSILL
 62
6
 10
4124.154
 20
-5530.442
 30
1284.680
 70
    32
  0
VERTEX
  8
T39SSILL
 62
6
 10
4135.832
 20
-5551.675
 30
1284.740
 70
    32
  0
VERTEX
  8
T39SSILL
 62
6
 10
4182.081
 20
-5518.490
 30
1284.767
 70
    32
  0
VERTEX
  8
T39SSILL
 62
6
 10
4178.896
 20
-5508.642
 30
1284.743
 70
    32
  0
VERTEX
  8
T39SSILL
 62
6
 10
4184.118
 20
-5501.445
 30
1284.740
 70
    32
  0
VERTEX
  8
T39SSILL
 62
6
 10
4203.622
 20
-5502.311
 30
1284.778
 70
    32
  0
VERTEX
  8
T39SSILL
 62
6
 10
4360.956
 20
-5391.017
 30
1284.883
 70
    32
  0
VERTEX
  8
T39SSILL
 62
6
 10
4352.010
 20
-5378.491
 30
1284.858
 70
    32
  0
VERTEX
  8
T39SSILL
 62
6
 10
4358.229
 20
-5373.931
 30
1284.867
 70
    32
  0
VERTEX
  8
T39SSILL
 62
6
 10
4381.607
 20
-5407.219
 30
1284.919
 70
    32
  0
VERTEX
  8
T39SSILL
 62
6
 10
4375.080
 20
-5411.861
 30
1284.925
 70
    32
  0
VERTEX
  8
T39SSILL
 62
6
 10
4364.272
 20
-5396.366
 30
1284.892
 70
    32
  0
VERTEX
  8
T39SSILL
 62
6
 10
4205.647
 20
-5510.848
 30
1284.797
 70
    32
  0
VERTEX
  8
T39SSILL
 62
6
 10
4209.005
 20
-5520.342
 30
1284.801
 70
    32
  0
VERTEX
  8
T39SSILL
 62
6
 10
4218.829
 20
-5532.594
 30
1284.804
 70
    32
  0
VERTEX
  8
T39SSILL
 62
6
 10
4243.282
 20
-5552.201
 30
1284.814
 70
    32
  0
VERTEX
  8
T39SSILL
 62
6
 10
4249.446
 20
-5551.082
 30
1284.817
 70
    32
  0
VERTEX
  8
T39SSILL
 62
6
 10
4262.341
 20
-5570.538
 30
1284.820
 70
    32
  0
VERTEX
  8
T39SSILL
 62
6
 10
4265.979
 20
-5572.707
 30
1284.822
 70
    32
  0
VERTEX
  8
T39SSILL
 62
6
 10
4272.978
 20
-5582.005
 30
1284.824
 70
    32
  0
VERTEX
  8
T39SSILL
 62
6
 10
4392.944
 20
-5495.915
 30
1285.040
 70
    32
  0
VERTEX
  8
T39SSILL
 62
6
 10
4396.709
 20
-5501.446
 30
1285.047
 70
    32
  0
VERTEX
  8
T39SSILL
 62
6
 10
4278.642
 20
-5585.997
 30
1284.845
 70
    32
  0
VERTEX
  8
T39SSILL
 62
6
 10
4283.006
 20
-5590.711
 30
1284.864
 70
    32
  0
VERTEX
  8
T39SSILL
 62
6
 10
4294.903
 20
-5598.445
 30
1284.910
 70
    32
  0
VERTEX
  8
T39SSILL
 62
6
 10
4314.116
 20
-5596.579
 30
1284.966
 70
    32
  0
VERTEX
  8
T39SSILL
 62
6
 10
4317.078
 20
-5601.754
 30
1284.981
 70
    32
  0
VERTEX
  8
T39SSILL
 62
6
 10
4332.724
 20
-5613.950
 30
1285.044
 70
    32
  0
VERTEX
  8
T39SSILL
 62
6
 10
4339.124
 20
-5592.009
 30
1285.037
 70
    32
  0
VERTEX
  8
T39SSILL
 62
6
 10
4367.189
 20
-5594.393
 30
1285.126
 70
    32
  0
VERTEX
  8
T39SSILL
 62
6
 10
4389.149
 20
-5608.139
 30
1285.206
 70
    32
  0
VERTEX
  8
T39SSILL
 62
6
 10
4403.363
 20
-5606.850
 30
1285.198
 70
    32
  0
VERTEX
  8
T39SSILL
 62
6
 10
4414.094
 20
-5610.810
 30
1285.199
 70
    32
  0
VERTEX
  8
T39SSILL
 62
6
 10
4429.455
 20
-5645.474
 30
1285.244
 70
    32
  0
VERTEX
  8
T39SSILL
 62
6
 10
4432.432
 20
-5660.643
 30
1285.264
 70
    32
  0
VERTEX
  8
T39SSILL
 62
6
 10
4425.137
 20
-5664.691
 30
1285.273
 70
    32
  0
VERTEX
  8
T39SSILL
 62
6
 10
4428.540
 20
-5669.253
 30
1285.279
 70
    32
  0
VERTEX
  8
T39SSILL
 62
6
 10
4436.332
 20
-5670.855
 30
1285.278
 70
    32
  0
VERTEX
  8
T39SSILL
 62
6
 10
4442.468
 20
-5674.860
 30
1285.281
 70
    32
  0
VERTEX
  8
T39SSILL
 62
6
 10
4446.311
 20
-5679.328
 30
1285.286
 70
    32
  0
VERTEX
  8
T39SSILL
 62
6
 10
4449.926
 20
-5687.511
 30
1285.296
 70
    32
  0
VERTEX
  8
T39SSILL
 62
6
 10
4457.586
 20
-5693.709
 30
1285.302
 70
    32
  0
VERTEX
  8
T39SSILL
 62
6
 10
4465.109
 20
-5694.961
 30
1285.301
 70
    32
  0
VERTEX
  8
T39SSILL
 62
6
 10
4511.440
 20
-5661.812
 30
1285.233
 70
    32
  0
VERTEX
  8
T39SSILL
 62
6
 10
4516.176
 20
-5667.244
 30
1285.239
 70
    32
  0
VERTEX
  8
T39SSILL
 62
6
 10
4498.701
 20
-5678.373
 30
1285.263
 70
    32
  0
VERTEX
  8
T39SSILL
 62
6
 10
4509.190
 20
-5693.733
 30
1285.281
 70
    32
  0
VERTEX
  8
T39SSILL
 62
6
 10
4514.631
 20
-5698.893
 30
1285.286
 70
    32
  0
VERTEX
  8
T39SSILL
 62
6
 10
4517.718
 20
-5707.346
 30
1285.297
 70
    32
  0
VERTEX
  8
T39SSILL
 62
6
 10
4514.377
 20
-5727.084
 30
1285.327
 70
    32
  0
VERTEX
  8
T39SSILL
 62
6
 10
4497.097
 20
-5740.066
 30
1285.354
 70
    32
  0
VERTEX
  8
T39SSILL
 62
6
 10
4491.034
 20
-5734.470
 30
1285.348
 70
    32
  0
VERTEX
  8
T39SSILL
 62
6
 10
4481.975
 20
-5729.875
 30
1285.345
 70
    32
  0
VERTEX
  8
T39SSILL
 62
6
 10
4466.374
 20
-5724.815
 30
1285.344
 70
    32
  0
VERTEX
  8
T39SSILL
 62
6
 10
4441.507
 20
-5720.994
 30
1285.349
 70
    32
  0
VERTEX
  8
T39SSILL
 62
6
 10
4376.842
 20
-5767.754
 30
1285.361
 70
    32
  0
VERTEX
  8
T39SSILL
 62
6
 10
4368.140
 20
-5772.434
 30
1285.340
 70
    32
  0
VERTEX
  8
T39SSILL
 62
6
 10
4362.321
 20
-5772.977
 30
1285.323
 70
    32
  0
VERTEX
  8
T39SSILL
 62
6
 10
4360.799
 20
-5779.630
 30
1285.326
 70
    32
  0
VERTEX
  8
T39SSILL
 62
6
 10
4372.073
 20
-5796.507
 30
1285.381
 70
    32
  0
VERTEX
  8
T39SSILL
 62
6
 10
4369.471
 20
-5803.098
 30
1285.381
 70
    32
  0
VERTEX
  8
T39SSILL
 62
6
 10
4406.132
 20
-5852.704
 30
1285.552
 70
    32
  0
VERTEX
  8
T39SSILL
 62
6
 10
4412.549
 20
-5854.865
 30
1285.557
 70
    32
  0
VERTEX
  8
T39SSILL
 62
6
 10
4477.620
 20
-5809.360
 30
1285.463
 70
    32
  0
VERTEX
  8
T39SSILL
 62
6
 10
4494.927
 20
-5794.642
 30
1285.434
 70
    32
  0
VERTEX
  8
T39SSILL
 62
6
 10
4494.952
 20
-5791.029
 30
1285.429
 70
    32
  0
VERTEX
  8
T39SSILL
 62
6
 10
4498.155
 20
-5786.734
 30
1285.421
 70
    32
  0
VERTEX
  8
T39SSILL
 62
6
 10
4498.810
 20
-5768.850
 30
1285.395
 70
    32
  0
VERTEX
  8
T39SSILL
 62
6
 10
4500.413
 20
-5766.393
 30
1285.391
 70
    32
  0
VERTEX
  8
T39SSILL
 62
6
 10
4505.963
 20
-5766.609
 30
1285.389
 70
    32
  0
VERTEX
  8
T39SSILL
 62
6
 10
4517.272
 20
-5774.972
 30
1285.396
 70
    32
  0
VERTEX
  8
T39SSILL
 62
6
 10
4519.308
 20
-5773.664
 30
1285.393
 70
    32
  0
VERTEX
  8
T39SSILL
 62
6
 10
4524.951
 20
-5773.264
 30
1285.390
 70
    32
  0
VERTEX
  8
T39SSILL
 62
6
 10
4588.633
 20
-5727.449
 30
1285.297
 70
    32
  0
VERTEX
  8
T39SSILL
 62
6
 10
4593.438
 20
-5733.299
 30
1285.303
 70
    32
  0
VERTEX
  8
T39SSILL
 62
6
 10
4552.515
 20
-5763.236
 30
1285.364
 70
    32
  0
VERTEX
  8
T39SSILL
 62
6
 10
4556.709
 20
-5769.354
 30
1285.371
 70
    32
  0
VERTEX
  8
T39SSILL
 62
6
 10
4548.252
 20
-5774.519
 30
1285.383
 70
    32
  0
VERTEX
  8
T39SSILL
 62
6
 10
4544.097
 20
-5768.567
 30
1285.376
 70
    32
  0
VERTEX
  8
T39SSILL
 62
6
 10
4534.178
 20
-5776.854
 30
1285.392
 70
    32
  0
VERTEX
  8
T39SSILL
 62
6
 10
4537.243
 20
-5779.519
 30
1285.394
 70
    32
  0
VERTEX
  8
T39SSILL
 62
6
 10
4541.287
 20
-5780.869
 30
1285.395
 70
    32
  0
VERTEX
  8
T39SSILL
 62
6
 10
4562.628
 20
-5778.728
 30
1285.383
 70
    32
  0
VERTEX
  8
T39SSILL
 62
6
 10
4569.992
 20
-5784.156
 30
1285.388
 70
    32
  0
VERTEX
  8
T39SSILL
 62
6
 10
4572.694
 20
-5788.405
 30
1285.393
 70
    32
  0
VERTEX
  8
T39SSILL
 62
6
 10
4574.953
 20
-5792.915
 30
1285.398
 70
    32
  0
VERTEX
  8
T39SSILL
 62
6
 10
4574.932
 20
-5795.911
 30
1285.403
 70
    32
  0
VERTEX
  8
T39SSILL
 62
6
 10
4572.356
 20
-5798.801
 30
1285.408
 70
    32
  0
VERTEX
  8
T39SSILL
 62
6
 10
4566.431
 20
-5801.755
 30
1285.415
 70
    32
  0
VERTEX
  8
T39SSILL
 62
6
 10
4566.147
 20
-5804.485
 30
1285.419
 70
    32
  0
VERTEX
  8
T39SSILL
 62
6
 10
4583.266
 20
-5813.682
 30
1285.425
 70
    32
  0
VERTEX
  8
T39SSILL
 62
6
 10
4584.652
 20
-5829.553
 30
1285.448
 70
    32
  0
VERTEX
  8
T39SSILL
 62
6
 10
4582.253
 20
-5832.445
 30
1285.453
 70
    32
  0
VERTEX
  8
T39SSILL
 62
6
 10
4576.807
 20
-5829.939
 30
1285.452
 70
    32
  0
VERTEX
  8
T39SSILL
 62
6
 10
4567.435
 20
-5834.367
 30
1285.462
 70
    32
  0
VERTEX
  8
T39SSILL
 62
6
 10
4566.629
 20
-5836.124
 30
1285.465
 70
    32
  0
VERTEX
  8
T39SSILL
 62
6
 10
4568.798
 20
-5840.986
 30
1285.471
 70
    32
  0
VERTEX
  8
T39SSILL
 62
6
 10
4561.721
 20
-5844.901
 30
1285.480
 70
    32
  0
VERTEX
  8
T39SSILL
 62
6
 10
4561.356
 20
-5846.661
 30
1285.483
 70
    32
  0
VERTEX
  8
T39SSILL
 62
6
 10
4587.788
 20
-5884.739
 30
1285.527
 70
    32
  0
VERTEX
  8
T39SSILL
 62
6
 10
4595.523
 20
-5887.526
 30
1285.528
 70
    32
  0
VERTEX
  8
T39SSILL
 62
6
 10
4600.870
 20
-5891.529
 30
1285.532
 70
    32
  0
VERTEX
  8
T39SSILL
 62
6
 10
4629.002
 20
-5926.006
 30
1285.570
 70
    32
  0
VERTEX
  8
T39SSILL
 62
6
 10
4637.604
 20
-5968.365
 30
1285.629
 70
    32
  0
VERTEX
  8
T39SSILL
 62
6
 10
4636.879
 20
-5971.268
 30
1285.633
 70
    32
  0
VERTEX
  8
T39SSILL
 62
6
 10
4609.926
 20
-5994.518
 30
1285.679
 70
    32
  0
VERTEX
  8
T39SSILL
 62
6
 10
4616.008
 20
-5994.209
 30
1285.676
 70
    32
  0
VERTEX
  8
T39SSILL
 62
6
 10
4624.151
 20
-5989.155
 30
1285.665
 70
    32
  0
VERTEX
  8
T39SSILL
 62
6
 10
4628.301
 20
-5987.951
 30
1285.661
 70
    32
  0
VERTEX
  8
T39SSILL
 62
6
 10
4633.580
 20
-5989.222
 30
1285.661
 70
    32
  0
VERTEX
  8
T39SSILL
 62
6
 10
4649.503
 20
-6018.061
 30
1285.696
 70
    32
  0
VERTEX
  8
T39SSILL
 62
6
 10
4665.714
 20
-6030.953
 30
1285.708
 70
    32
  0
VERTEX
  8
T39SSILL
 62
6
 10
4674.601
 20
-6032.866
 30
1285.708
 70
    32
  0
VERTEX
  8
T39SSILL
 62
6
 10
4678.665
 20
-6031.309
 30
1285.704
 70
    32
  0
VERTEX
  8
T39SSILL
 62
6
 10
4683.986
 20
-6026.588
 30
1285.694
 70
    32
  0
VERTEX
  8
T39SSILL
 62
6
 10
4688.849
 20
-6024.331
 30
1285.689
 70
    32
  0
VERTEX
  8
T39SSILL
 62
6
 10
4695.337
 20
-6028.959
 30
1285.693
 70
    32
  0
VERTEX
  8
T39SSILL
 62
6
 10
4730.318
 20
-6004.444
 30
1285.643
 70
    32
  0
VERTEX
  8
T39SSILL
 62
6
 10
4734.546
 20
-6009.733
 30
1285.649
 70
    32
  0
VERTEX
  8
T39SSILL
 62
6
 10
4701.823
 20
-6033.851
 30
1285.698
 70
    32
  0
VERTEX
  8
T39SSILL
 62
6
 10
4699.895
 20
-6057.366
 30
1285.733
 70
    32
  0
VERTEX
  8
T39SSILL
 62
6
 10
4707.682
 20
-6077.865
 30
1285.743
 70
    32
  0
VERTEX
  8
T39SSILL
 62
6
 10
4726.719
 20
-6114.922
 30
1285.754
 70
    32
  0
VERTEX
  8
T39SSILL
 62
6
 10
4733.460
 20
-6121.226
 30
1285.757
 70
    32
  0
VERTEX
  8
T39SSILL
 62
6
 10
4739.198
 20
-6132.282
 30
1285.761
 70
    32
  0
VERTEX
  8
T39SSILL
 62
6
 10
4731.754
 20
-6138.134
 30
1285.756
 70
    32
  0
VERTEX
  8
T39SSILL
 62
6
 10
4725.125
 20
-6141.083
 30
1285.752
 70
    32
  0
VERTEX
  8
T39SSILL
 62
6
 10
4723.783
 20
-6143.893
 30
1285.751
 70
    32
  0
VERTEX
  8
T39SSILL
 62
6
 10
4720.419
 20
-6146.073
 30
1285.749
 70
    32
  0
VERTEX
  8
T39SSILL
 62
6
 10
4715.503
 20
-6155.908
 30
1285.746
 70
    32
  0
VERTEX
  8
T39SSILL
 62
6
 10
4714.310
 20
-6162.685
 30
1285.745
 70
    32
  0
VERTEX
  8
T39SSILL
 62
6
 10
4725.263
 20
-6171.486
 30
1285.751
 70
    32
  0
VERTEX
  8
T39SSILL
 62
6
 10
4732.144
 20
-6182.814
 30
1285.755
 70
    32
  0
VERTEX
  8
T39SSILL
 62
6
 10
4742.550
 20
-6194.255
 30
1285.761
 70
    32
  0
VERTEX
  8
T39SSILL
 62
6
 10
4769.270
 20
-6228.987
 30
1285.776
 70
    32
  0
VERTEX
  8
T39SSILL
 62
6
 10
4789.621
 20
-6214.288
 30
1285.789
 70
    32
  0
VERTEX
  8
T39SSILL
 62
6
 10
4793.750
 20
-6219.113
 30
1285.791
 70
    32
  0
VERTEX
  8
T39SSILL
 62
6
 10
4775.673
 20
-6233.350
 30
1285.780
 70
    32
  0
VERTEX
  8
T39SSILL
 62
6
 10
4779.429
 20
-6238.047
 30
1285.782
 70
    32
  0
VERTEX
  8
T39SSILL
 62
6
 10
4785.075
 20
-6249.542
 30
1285.785
 70
    32
  0
VERTEX
  8
T39SSILL
 62
6
 10
4785.203
 20
-6256.505
 30
1285.785
 70
    32
  0
VERTEX
  8
T39SSILL
 62
6
 10
4802.765
 20
-6290.291
 30
1285.794
 70
    32
  0
VERTEX
  8
T39SSILL
 62
6
 10
4805.881
 20
-6298.332
 30
1285.796
 70
    32
  0
VERTEX
  8
T39SSILL
 62
6
 10
4805.713
 20
-6309.610
 30
1285.796
 70
    32
  0
VERTEX
  8
T39SSILL
 62
6
 10
4810.977
 20
-6325.421
 30
1285.798
 70
    32
  0
VERTEX
  8
T39SSILL
 62
6
 10
4814.217
 20
-6340.865
 30
1285.800
 70
    32
  0
VERTEX
  8
T39SSILL
 62
6
 10
4814.695
 20
-6348.006
 30
1285.800
 70
    32
  0
VERTEX
  8
T39SSILL
 62
6
 10
4813.171
 20
-6351.697
 30
1285.794
 70
    32
  0
VERTEX
  8
T39SSILL
 62
6
 10
4806.452
 20
-6354.734
 30
1285.777
 70
    32
  0
VERTEX
  8
T39SSILL
 62
6
 10
4793.939
 20
-6354.822
 30
1285.753
 70
    32
  0
VERTEX
  8
T39SSILL
 62
6
 10
4781.438
 20
-6340.546
 30
1285.745
 70
    32
  0
VERTEX
  8
T39SSILL
 62
6
 10
4791.828
 20
-6316.738
 30
1285.787
 70
    32
  0
VERTEX
  8
T39SSILL
 62
6
 10
4784.172
 20
-6302.761
 30
1285.783
 70
    32
  0
VERTEX
  8
T39SSILL
 62
6
 10
4775.174
 20
-6266.568
 30
1285.779
 70
    32
  0
VERTEX
  8
T39SSILL
 62
6
 10
4756.636
 20
-6246.169
 30
1285.768
 70
    32
  0
VERTEX
  8
T39SSILL
 62
6
 10
4722.183
 20
-6270.865
 30
1285.711
 70
    32
  0
VERTEX
  8
T39SSILL
 62
6
 10
4721.541
 20
-6274.473
 30
1285.705
 70
    32
  0
VERTEX
  8
T39SSILL
 62
6
 10
4720.031
 20
-6276.137
 30
1285.700
 70
    32
  0
VERTEX
  8
T39SSILL
 62
6
 10
4713.589
 20
-6277.413
 30
1285.687
 70
    32
  0
VERTEX
  8
T39SSILL
 62
6
 10
4697.381
 20
-6289.019
 30
1285.642
 70
    32
  0
VERTEX
  8
T39SSILL
 62
6
 10
4693.122
 20
-6293.131
 30
1285.630
 70
    32
  0
VERTEX
  8
T39SSILL
 62
6
 10
4689.194
 20
-6300.329
 30
1285.614
 70
    32
  0
VERTEX
  8
T39SSILL
 62
6
 10
4687.832
 20
-6306.047
 30
1285.605
 70
    32
  0
VERTEX
  8
T39SSILL
 62
6
 10
4744.712
 20
-6487.538
 30
1285.474
 70
    32
  0
VERTEX
  8
T39SSILL
 62
6
 10
4748.198
 20
-6493.114
 30
1285.473
 70
    32
  0
VERTEX
  8
T39SSILL
 62
6
 10
4849.164
 20
-6421.037
 30
1285.780
 70
    32
  0
VERTEX
  8
T39SSILL
 62
6
 10
4845.676
 20
-6415.814
 30
1285.780
 70
    32
  0
VERTEX
  8
T39SSILL
 62
6
 10
4852.046
 20
-6412.246
 30
1285.798
 70
    32
  0
VERTEX
  8
T39SSILL
 62
6
 10
4855.367
 20
-6416.235
 30
1285.799
 70
    32
  0
VERTEX
  8
T39SSILL
 62
6
 10
4910.543
 20
-6376.969
 30
1285.857
 70
    32
  0
VERTEX
  8
T39SSILL
 62
6
 10
4907.147
 20
-6371.129
 30
1285.855
 70
    32
  0
VERTEX
  8
T39SSILL
 62
6
 10
4912.467
 20
-6366.584
 30
1285.858
 70
    32
  0
VERTEX
  8
T39SSILL
 62
6
 10
4917.006
 20
-6372.697
 30
1285.861
 70
    32
  0
VERTEX
  8
T39SSILL
 62
6
 10
4948.627
 20
-6349.744
 30
1285.880
 70
    32
  0
VERTEX
  8
T39SSILL
 62
6
 10
4952.899
 20
-6356.207
 30
1285.882
 70
    32
  0
VERTEX
  8
T39SSILL
 62
6
 10
4907.025
 20
-6388.488
 30
1285.854
 70
    32
  0
VERTEX
  8
T39SSILL
 62
6
 10
4914.062
 20
-6390.300
 30
1285.858
 70
    32
  0
VERTEX
  8
T39SSILL
 62
6
 10
4920.735
 20
-6393.784
 30
1285.862
 70
    32
  0
VERTEX
  8
T39SSILL
 62
6
 10
4925.991
 20
-6398.227
 30
1285.865
 70
    32
  0
VERTEX
  8
T39SSILL
 62
6
 10
4971.000
 20
-6463.599
 30
1286.104
 70
    32
  0
VERTEX
  8
T39SSILL
 62
6
 10
4985.666
 20
-6453.296
 30
1286.084
 70
    32
  0
VERTEX
  8
T39SSILL
 62
6
 10
4991.081
 20
-6460.242
 30
1286.112
 70
    32
  0
VERTEX
  8
T39SSILL
 62
6
 10
4976.143
 20
-6471.241
 30
1286.135
 70
    32
  0
VERTEX
  8
T39SSILL
 62
6
 10
4992.105
 20
-6494.921
 30
1286.230
 70
    32
  0
VERTEX
  8
T39SSILL
 62
6
 10
4996.314
 20
-6497.859
 30
1286.244
 70
    32
  0
VERTEX
  8
T39SSILL
 62
6
 10
5004.593
 20
-6498.534
 30
1286.254
 70
    32
  0
VERTEX
  8
T39SSILL
 62
6
 10
5035.399
 20
-6478.660
 30
1286.217
 70
    32
  0
VERTEX
  8
T39SSILL
 62
6
 10
5017.917
 20
-6470.958
 30
1286.174
 70
    32
  0
VERTEX
  8
T39SSILL
 62
6
 10
5014.657
 20
-6470.935
 30
1286.171
 70
    32
  0
VERTEX
  8
T39SSILL
 62
6
 10
5006.504
 20
-6464.974
 30
1286.143
 70
    32
  0
VERTEX
  8
T39SSILL
 62
6
 10
5008.934
 20
-6457.765
 30
1286.121
 70
    32
  0
VERTEX
  8
T39SSILL
 62
6
 10
5020.579
 20
-6455.908
 30
1286.126
 70
    32
  0
VERTEX
  8
T39SSILL
 62
6
 10
5020.939
 20
-6454.853
 30
1286.123
 70
    32
  0
VERTEX
  8
T39SSILL
 62
6
 10
5025.961
 20
-6454.977
 30
1286.128
 70
    32
  0
VERTEX
  8
T39SSILL
 62
6
 10
5038.965
 20
-6460.356
 30
1286.159
 70
    32
  0
VERTEX
  8
T39SSILL
 62
6
 10
5046.667
 20
-6455.299
 30
1286.150
 70
    32
  0
VERTEX
  8
T39SSILL
 62
6
 10
5054.532
 20
-6464.607
 30
1286.188
 70
    32
  0
VERTEX
  8
T39SSILL
 62
6
 10
5107.739
 20
-6427.123
 30
1286.112
 70
    32
  0
VERTEX
  8
T39SSILL
 62
6
 10
5104.302
 20
-6422.042
 30
1286.094
 70
    32
  0
VERTEX
  8
T39SSILL
 62
6
 10
5111.517
 20
-6417.420
 30
1286.085
 70
    32
  0
VERTEX
  8
T39SSILL
 62
6
 10
5114.698
 20
-6422.220
 30
1286.100
 70
    32
  0
VERTEX
  8
T39SSILL
 62
6
 10
5147.787
 20
-6398.909
 30
1286.045
 70
    32
  0
VERTEX
  8
T39SSILL
 62
6
 10
5152.058
 20
-6405.549
 30
1286.048
 70
    32
  0
VERTEX
  8
T39SSILL
 62
6
 10
5065.802
 20
-6465.920
 30
1286.191
 70
    32
  0
VERTEX
  8
T39SSILL
 62
6
 10
5064.355
 20
-6471.197
 30
1286.198
 70
    32
  0
VERTEX
  8
T39SSILL
 62
6
 10
5066.113
 20
-6484.428
 30
1286.210
 70
    32
  0
VERTEX
  8
T39SSILL
 62
6
 10
5064.857
 20
-6487.592
 30
1286.214
 70
    32
  0
VERTEX
  8
T39SSILL
 62
6
 10
5064.819
 20
-6492.967
 30
1286.220
 70
    32
  0
VERTEX
  8
T39SSILL
 62
6
 10
5059.769
 20
-6496.720
 30
1286.228
 70
    32
  0
VERTEX
  8
T39SSILL
 62
6
 10
5055.367
 20
-6496.249
 30
1286.232
 70
    32
  0
VERTEX
  8
T39SSILL
 62
6
 10
5046.401
 20
-6480.588
 30
1286.224
 70
    32
  0
VERTEX
  8
T39SSILL
 62
6
 10
5003.539
 20
-6510.511
 30
1286.293
 70
    32
  0
VERTEX
  8
T39SSILL
 62
6
 10
5075.871
 20
-6612.713
 30
1286.316
 70
    32
  0
VERTEX
  8
T39SSILL
 62
6
 10
5083.159
 20
-6616.378
 30
1286.317
 70
    32
  0
VERTEX
  8
T39SSILL
 62
6
 10
5092.052
 20
-6617.410
 30
1286.317
 70
    32
  0
VERTEX
  8
T39SSILL
 62
6
 10
5101.322
 20
-6614.919
 30
1286.311
 70
    32
  0
VERTEX
  8
T39SSILL
 62
6
 10
5149.733
 20
-6580.270
 30
1286.230
 70
    32
  0
VERTEX
  8
T39SSILL
 62
6
 10
5150.236
 20
-6572.242
 30
1286.221
 70
    32
  0
VERTEX
  8
T39SSILL
 62
6
 10
5165.585
 20
-6562.292
 30
1286.197
 70
    32
  0
VERTEX
  8
T39SSILL
 62
6
 10
5173.457
 20
-6559.695
 30
1286.187
 70
    32
  0
VERTEX
  8
T39SSILL
 62
6
 10
5185.561
 20
-6550.451
 30
1286.166
 70
    32
  0
VERTEX
  8
T39SSILL
 62
6
 10
5184.624
 20
-6548.447
 30
1286.165
 70
    32
  0
VERTEX
  8
T39SSILL
 62
6
 10
5189.816
 20
-6544.687
 30
1286.156
 70
    32
  0
VERTEX
  8
T39SSILL
 62
6
 10
5191.690
 20
-6535.722
 30
1286.148
 70
    32
  0
VERTEX
  8
T39SSILL
 62
6
 10
5205.320
 20
-6530.673
 30
1286.147
 70
    32
  0
VERTEX
  8
T39SSILL
 62
6
 10
5213.998
 20
-6531.760
 30
1286.150
 70
    32
  0
VERTEX
  8
T39SSILL
 62
6
 10
5221.999
 20
-6530.659
 30
1286.151
 70
    32
  0
VERTEX
  8
T39SSILL
 62
6
 10
5370.452
 20
-6424.237
 30
1286.097
 70
    32
  0
VERTEX
  8
T39SSILL
 62
6
 10
5374.767
 20
-6430.385
 30
1286.103
 70
    32
  0
VERTEX
  8
T39SSILL
 62
6
 10
5229.653
 20
-6533.010
 30
1286.155
 70
    32
  0
VERTEX
  8
T39SSILL
 62
6
 10
5233.876
 20
-6538.984
 30
1286.161
 70
    32
  0
VERTEX
  8
T39SSILL
 62
6
 10
5251.526
 20
-6542.210
 30
1286.168
 70
    32
  0
VERTEX
  8
T39SSILL
 62
6
 10
5247.373
 20
-6558.209
 30
1286.180
 70
    32
  0
VERTEX
  8
T39SSILL
 62
6
 10
5256.631
 20
-6557.868
 30
1286.182
 70
    32
  0
VERTEX
  8
T39SSILL
 62
6
 10
5263.351
 20
-6564.833
 30
1286.190
 70
    32
  0
VERTEX
  8
T39SSILL
 62
6
 10
5271.373
 20
-6561.261
 30
1286.189
 70
    32
  0
VERTEX
  8
T39SSILL
 62
6
 10
5272.448
 20
-6561.849
 30
1286.190
 70
    32
  0
VERTEX
  8
T39SSILL
 62
6
 10
5280.725
 20
-6596.748
 30
1286.221
 70
    32
  0
VERTEX
  8
T39SSILL
 62
6
 10
5288.903
 20
-6608.616
 30
1286.233
 70
    32
  0
VERTEX
  8
T39SSILL
 62
6
 10
5317.364
 20
-6587.542
 30
1286.222
 70
    32
  0
VERTEX
  8
T39SSILL
 62
6
 10
5322.096
 20
-6592.796
 30
1286.228
 70
    32
  0
VERTEX
  8
T39SSILL
 62
6
 10
5298.326
 20
-6611.095
 30
1286.238
 70
    32
  0
VERTEX
  8
T39SSILL
 62
6
 10
5285.845
 20
-6629.174
 30
1286.250
 70
    32
  0
VERTEX
  8
T39SSILL
 62
6
 10
5277.371
 20
-6625.875
 30
1286.245
 70
    32
  0
VERTEX
  8
T39SSILL
 62
6
 10
5163.406
 20
-6705.675
 30
1286.332
 70
    32
  0
VERTEX
  8
T39SSILL
 62
6
 10
5151.005
 20
-6707.249
 30
1286.332
 70
    32
  0
VERTEX
  8
T39SSILL
 62
6
 10
5142.849
 20
-6705.883
 30
1286.331
 70
    32
  0
VERTEX
  8
T39SSILL
 62
6
 10
5292.374
 20
-6913.878
 30
1286.424
 70
    32
  0
VERTEX
  8
T39SSILL
 62
6
 10
5287.203
 20
-6918.432
 30
1286.413
 70
    32
  0
VERTEX
  8
T39SSILL
 62
6
 10
5188.234
 20
-6781.161
 30
1286.344
 70
    32
  0
VERTEX
  8
T39SSILL
 62
6
 10
5182.362
 20
-6785.910
 30
1286.332
 70
    32
  0
VERTEX
  8
T39SSILL
 62
6
 10
5177.687
 20
-6779.507
 30
1286.328
 70
    32
  0
VERTEX
  8
T39SSILL
 62
6
 10
5183.203
 20
-6774.679
 30
1286.340
 70
    32
  0
VERTEX
  8
T39SSILL
 62
6
 10
5174.741
 20
-6762.113
 30
1286.335
 70
    32
  0
VERTEX
  8
T39SSILL
 62
6
 10
5159.425
 20
-6773.298
 30
1286.301
 70
    32
  0
VERTEX
  8
T39SSILL
 62
6
 10
5150.691
 20
-6796.041
 30
1286.273
 70
    32
  0
VERTEX
  8
T39SSILL
 62
6
 10
5135.431
 20
-6812.519
 30
1286.236
 70
    32
  0
VERTEX
  8
T39SSILL
 62
6
 10
5125.141
 20
-6820.301
 30
1286.213
 70
    32
  0
VERTEX
  8
T39SSILL
 62
6
 10
5118.859
 20
-6822.943
 30
1286.200
 70
    32
  0
VERTEX
  8
T39SSILL
 62
6
 10
5108.190
 20
-6829.765
 30
1286.177
 70
    32
  0
VERTEX
  8
T39SSILL
 62
6
 10
5089.858
 20
-6808.025
 30
1286.153
 70
    32
  0
VERTEX
  8
T39SSILL
 62
6
 10
5083.435
 20
-6802.287
 30
1286.144
 70
    32
  0
VERTEX
  8
T39SSILL
 62
6
 10
5075.469
 20
-6798.180
 30
1286.131
 70
    32
  0
VERTEX
  8
T39SSILL
 62
6
 10
5061.334
 20
-6794.418
 30
1286.107
 70
    32
  0
VERTEX
  8
T39SSILL
 62
6
 10
5064.283
 20
-6789.307
 30
1286.115
 70
    32
  0
VERTEX
  8
T39SSILL
 62
6
 10
5078.656
 20
-6788.827
 30
1286.142
 70
    32
  0
VERTEX
  8
T39SSILL
 62
6
 10
5082.358
 20
-6791.903
 30
1286.147
 70
    32
  0
VERTEX
  8
T39SSILL
 62
6
 10
5092.400
 20
-6794.453
 30
1286.165
 70
    32
  0
VERTEX
  8
T39SSILL
 62
6
 10
5109.299
 20
-6786.314
 30
1286.200
 70
    32
  0
VERTEX
  8
T39SSILL
 62
6
 10
5110.896
 20
-6786.624
 30
1286.203
 70
    32
  0
VERTEX
  8
T39SSILL
 62
6
 10
5119.981
 20
-6779.933
 30
1286.224
 70
    32
  0
VERTEX
  8
T39SSILL
 62
6
 10
5128.441
 20
-6776.261
 30
1286.241
 70
    32
  0
VERTEX
  8
T39SSILL
 62
6
 10
5137.744
 20
-6777.596
 30
1286.258
 70
    32
  0
VERTEX
  8
T39SSILL
 62
6
 10
5161.908
 20
-6760.786
 30
1286.313
 70
    32
  0
VERTEX
  8
T39SSILL
 62
6
 10
5164.759
 20
-6752.060
 30
1286.328
 70
    32
  0
VERTEX
  8
T39SSILL
 62
6
 10
5164.289
 20
-6747.748
 30
1286.331
 70
    32
  0
VERTEX
  8
T39SSILL
 62
6
 10
5116.954
 20
-6681.878
 30
1286.320
 70
    32
  0
VERTEX
  8
T39SSILL
 62
6
 10
5110.531
 20
-6685.848
 30
1286.306
 70
    32
  0
VERTEX
  8
T39SSILL
 62
6
 10
5101.343
 20
-6743.728
 30
1286.237
 70
    32
  0
VERTEX
  8
T39SSILL
 62
6
 10
5098.596
 20
-6749.804
 30
1286.227
 70
    32
  0
VERTEX
  8
T39SSILL
 62
6
 10
5091.162
 20
-6758.744
 30
1286.203
 70
    32
  0
VERTEX
  8
T39SSILL
 62
6
 10
5094.571
 20
-6764.035
 30
1286.198
 70
    32
  0
VERTEX
  8
T39SSILL
 62
6
 10
5088.842
 20
-6767.545
 30
1286.181
 70
    32
  0
VERTEX
  8
T39SSILL
 62
6
 10
5085.466
 20
-6763.489
 30
1286.184
 70
    32
  0
VERTEX
  8
T39SSILL
 62
6
 10
5066.416
 20
-6776.893
 30
1286.126
 70
    32
  0
VERTEX
  8
T39SSILL
 62
6
 10
5069.446
 20
-6781.223
 30
1286.128
 70
    32
  0
VERTEX
  8
T39SSILL
 62
6
 10
5063.737
 20
-6785.439
 30
1286.116
 70
    32
  0
VERTEX
  8
T39SSILL
 62
6
 10
5060.954
 20
-6780.484
 30
1286.113
 70
    32
  0
VERTEX
  8
T39SSILL
 62
6
 10
4988.848
 20
-6833.191
 30
1285.952
 70
    32
  0
VERTEX
  8
T39SSILL
 62
6
 10
4980.458
 20
-6822.217
 30
1285.942
 70
    32
  0
VERTEX
  8
T39SSILL
 62
6
 10
4985.829
 20
-6818.540
 30
1285.954
 70
    32
  0
VERTEX
  8
T39SSILL
 62
6
 10
4989.584
 20
-6823.556
 30
1285.958
 70
    32
  0
VERTEX
  8
T39SSILL
 62
6
 10
5087.201
 20
-6752.675
 30
1286.206
 70
    32
  0
VERTEX
  8
T39SSILL
 62
6
 10
5089.848
 20
-6749.425
 30
1286.213
 70
    32
  0
VERTEX
  8
T39SSILL
 62
6
 10
5093.384
 20
-6743.151
 30
1286.225
 70
    32
  0
VERTEX
  8
T39SSILL
 62
6
 10
5101.961
 20
-6688.730
 30
1286.290
 70
    32
  0
VERTEX
  8
T39SSILL
 62
6
 10
5070.793
 20
-6710.849
 30
1286.220
 70
    32
  0
VERTEX
  8
T39SSILL
 62
6
 10
5065.409
 20
-6704.376
 30
1286.218
 70
    32
  0
VERTEX
  8
T39SSILL
 62
6
 10
5075.442
 20
-6696.866
 30
1286.241
 70
    32
  0
VERTEX
  8
T39SSILL
 62
6
 10
5070.079
 20
-6687.922
 30
1286.241
 70
    32
  0
VERTEX
  8
T39SSILL
 62
6
 10
5070.911
 20
-6686.046
 30
1286.244
 70
    32
  0
VERTEX
  8
T39SSILL
 62
6
 10
5061.825
 20
-6676.498
 30
1286.239
 70
    32
  0
VERTEX
  8
T39SSILL
 62
6
 10
5067.658
 20
-6670.337
 30
1286.254
 70
    32
  0
VERTEX
  8
T39SSILL
 62
6
 10
5080.853
 20
-6681.715
 30
1286.264
 70
    32
  0
VERTEX
  8
T39SSILL
 62
6
 10
5094.847
 20
-6683.540
 30
1286.284
 70
    32
  0
VERTEX
  8
T39SSILL
 62
6
 10
5104.622
 20
-6676.301
 30
1286.306
 70
    32
  0
VERTEX
  8
T39SSILL
 62
6
 10
5106.021
 20
-6666.114
 30
1286.318
 70
    32
  0
VERTEX
  8
T39SSILL
 62
6
 10
5066.133
 20
-6611.161
 30
1286.308
 70
    32
  0
VERTEX
  8
T39SSILL
 62
6
 10
5059.603
 20
-6646.817
 30
1286.264
 70
    32
  0
VERTEX
  8
T39SSILL
 62
6
 10
5055.515
 20
-6655.489
 30
1286.249
 70
    32
  0
VERTEX
  8
T39SSILL
 62
6
 10
5050.824
 20
-6661.442
 30
1286.236
 70
    32
  0
VERTEX
  8
T39SSILL
 62
6
 10
4974.757
 20
-6716.733
 30
1286.064
 70
    32
  0
VERTEX
  8
T39SSILL
 62
6
 10
4969.617
 20
-6711.313
 30
1286.061
 70
    32
  0
VERTEX
  8
T39SSILL
 62
6
 10
4989.215
 20
-6696.746
 30
1286.106
 70
    32
  0
VERTEX
  8
T39SSILL
 62
6
 10
4986.819
 20
-6693.017
 30
1286.106
 70
    32
  0
VERTEX
  8
T39SSILL
 62
6
 10
4992.702
 20
-6688.708
 30
1286.119
 70
    32
  0
VERTEX
  8
T39SSILL
 62
6
 10
4996.169
 20
-6692.850
 30
1286.120
 70
    32
  0
VERTEX
  8
T39SSILL
 62
6
 10
5035.375
 20
-6664.511
 30
1286.209
 70
    32
  0
VERTEX
  8
T39SSILL
 62
6
 10
5031.493
 20
-6658.086
 30
1286.209
 70
    32
  0
VERTEX
  8
T39SSILL
 62
6
 10
5037.701
 20
-6652.709
 30
1286.224
 70
    32
  0
VERTEX
  8
T39SSILL
 62
6
 10
5042.109
 20
-6659.032
 30
1286.225
 70
    32
  0
VERTEX
  8
T39SSILL
 62
6
 10
5045.839
 20
-6656.635
 30
1286.233
 70
    32
  0
VERTEX
  8
T39SSILL
 62
6
 10
5052.193
 20
-6646.931
 30
1286.252
 70
    32
  0
VERTEX
  8
T39SSILL
 62
6
 10
5053.999
 20
-6641.939
 30
1286.260
 70
    32
  0
VERTEX
  8
T39SSILL
 62
6
 10
5059.821
 20
-6602.959
 30
1286.306
 70
    32
  0
VERTEX
  8
T39SSILL
 62
6
 10
5034.024
 20
-6567.549
 30
1286.300
 70
    32
  0
VERTEX
  8
T39SSILL
 62
6
 10
5025.892
 20
-6585.035
 30
1286.270
 70
    32
  0
VERTEX
  8
T39SSILL
 62
6
 10
5021.050
 20
-6584.211
 30
1286.263
 70
    32
  0
VERTEX
  8
T39SSILL
 62
6
 10
5009.494
 20
-6585.987
 30
1286.244
 70
    32
  0
VERTEX
  8
T39SSILL
 62
6
 10
5000.467
 20
-6591.833
 30
1286.224
 70
    32
  0
VERTEX
  8
T39SSILL
 62
6
 10
4982.084
 20
-6586.251
 30
1286.200
 70
    32
  0
VERTEX
  8
T39SSILL
 62
6
 10
4978.822
 20
-6586.318
 30
1286.195
 70
    32
  0
VERTEX
  8
T39SSILL
 62
6
 10
4883.569
 20
-6652.387
 30
1285.983
 70
    32
  0
VERTEX
  8
T39SSILL
 62
6
 10
4879.904
 20
-6648.078
 30
1285.981
 70
    32
  0
VERTEX
  8
T39SSILL
 62
6
 10
4889.861
 20
-6640.934
 30
1286.003
 70
    32
  0
VERTEX
  8
T39SSILL
 62
6
 10
4888.704
 20
-6638.857
 30
1286.004
 70
    32
  0
VERTEX
  8
T39SSILL
 62
6
 10
4886.995
 20
-6637.668
 30
1286.002
 70
    32
  0
VERTEX
  8
T39SSILL
 62
6
 10
4885.160
 20
-6638.336
 30
1285.999
 70
    32
  0
VERTEX
  8
T39SSILL
 62
6
 10
4881.807
 20
-6641.605
 30
1285.990
 70
    32
  0
VERTEX
  8
T39SSILL
 62
6
 10
4876.265
 20
-6639.020
 30
1285.984
 70
    32
  0
VERTEX
  8
T39SSILL
 62
6
 10
4861.396
 20
-6618.068
 30
1285.981
 70
    32
  0
VERTEX
  8
T39SSILL
 62
6
 10
4868.841
 20
-6622.454
 30
1285.988
 70
    32
  0
VERTEX
  8
T39SSILL
 62
6
 10
4877.086
 20
-6623.818
 30
1286.000
 70
    32
  0
VERTEX
  8
T39SSILL
 62
6
 10
4891.217
 20
-6620.961
 30
1286.025
 70
    32
  0
VERTEX
  8
T39SSILL
 62
6
 10
4898.183
 20
-6607.798
 30
1286.048
 70
    32
  0
VERTEX
  8
T39SSILL
 62
6
 10
4896.561
 20
-6593.634
 30
1286.059
 70
    32
  0
VERTEX
  8
T39SSILL
 62
6
 10
4901.691
 20
-6606.997
 30
1286.054
 70
    32
  0
VERTEX
  8
T39SSILL
 62
6
 10
4902.851
 20
-6613.937
 30
1286.050
 70
    32
  0
VERTEX
  8
T39SSILL
 62
6
 10
4903.011
 20
-6623.023
 30
1286.041
 70
    32
  0
VERTEX
  8
T39SSILL
 62
6
 10
4897.981
 20
-6629.514
 30
1286.027
 70
    32
  0
VERTEX
  8
T39SSILL
 62
6
 10
4900.461
 20
-6633.326
 30
1286.027
 70
    32
  0
VERTEX
  8
T39SSILL
 62
6
 10
4969.891
 20
-6583.503
 30
1286.184
 70
    32
  0
VERTEX
  8
T39SSILL
 62
6
 10
4961.150
 20
-6573.395
 30
1286.180
 70
    32
  0
VERTEX
  8
T39SSILL
 62
6
 10
4958.976
 20
-6556.813
 30
1286.192
 70
    32
  0
VERTEX
  8
T39SSILL
 62
6
 10
4965.802
 20
-6550.957
 30
1286.209
 70
    32
  0
VERTEX
  8
T39SSILL
 62
6
 10
4968.862
 20
-6554.416
 30
1286.210
 70
    32
  0
VERTEX
  8
T39SSILL
 62
6
 10
4973.261
 20
-6555.416
 30
1286.216
 70
    32
  0
VERTEX
  8
T39SSILL
 62
6
 10
4976.416
 20
-6557.906
 30
1286.219
 70
    32
  0
VERTEX
  8
T39SSILL
 62
6
 10
4978.280
 20
-6555.980
 30
1286.223
 70
    32
  0
VERTEX
  8
T39SSILL
 62
6
 10
4998.256
 20
-6559.910
 30
1286.251
 70
    32
  0
VERTEX
  8
T39SSILL
 62
6
 10
5002.230
 20
-6558.616
 30
1286.258
 70
    32
  0
VERTEX
  8
T39SSILL
 62
6
 10
5009.237
 20
-6552.233
 30
1286.275
 70
    32
  0
VERTEX
  8
T39SSILL
 62
6
 10
5015.920
 20
-6541.794
 30
1286.296
 70
    32
  0
VERTEX
  8
T39SSILL
 62
6
 10
4987.911
 20
-6502.382
 30
1286.251
 70
    32
  0
VERTEX
  8
T39SSILL
 62
6
 10
4987.770
 20
-6509.783
 30
1286.253
 70
    32
  0
VERTEX
  8
T39SSILL
 62
6
 10
4984.631
 20
-6517.604
 30
1286.250
 70
    32
  0
VERTEX
  8
T39SSILL
 62
6
 10
4977.614
 20
-6525.397
 30
1286.245
 70
    32
  0
VERTEX
  8
T39SSILL
 62
6
 10
4880.550
 20
-6594.981
 30
1286.033
 70
    32
  0
VERTEX
  8
T39SSILL
 62
6
 10
4884.048
 20
-6600.262
 30
1286.033
 70
    32
  0
VERTEX
  8
T39SSILL
 62
6
 10
4874.375
 20
-6607.388
 30
1286.011
 70
    32
  0
VERTEX
  8
T39SSILL
 62
6
 10
4870.790
 20
-6601.977
 30
1286.011
 70
    32
  0
VERTEX
  8
T39SSILL
 62
6
 10
4830.324
 20
-6630.986
 30
1285.920
 70
    32
  0
VERTEX
  8
T39SSILL
 62
6
 10
4824.073
 20
-6642.750
 30
1285.899
 70
    32
  0
VERTEX
  8
T39SSILL
 62
6
 10
4828.911
 20
-6653.373
 30
1285.896
 70
    32
  0
VERTEX
  8
T39SSILL
 62
6
 10
4829.119
 20
-6654.514
 30
1285.895
 70
    32
  0
VERTEX
  8
T39SSILL
 62
6
 10
4827.367
 20
-6655.890
 30
1285.891
 70
    32
  0
VERTEX
  8
T39SSILL
 62
6
 10
4833.825
 20
-6668.507
 30
1285.889
 70
    32
  0
VERTEX
  8
T39SSILL
 62
6
 10
4849.349
 20
-6671.437
 30
1285.911
 70
    32
  0
VERTEX
  8
T39SSILL
 62
6
 10
4856.928
 20
-6677.496
 30
1285.917
 70
    32
  0
VERTEX
  8
T39SSILL
 62
6
 10
4883.407
 20
-6674.391
 30
1285.961
 70
    32
  0
VERTEX
  8
T39SSILL
 62
6
 10
4888.922
 20
-6682.448
 30
1285.962
 70
    32
  0
VERTEX
  8
T39SSILL
 62
6
 10
4889.397
 20
-6693.379
 30
1285.953
 70
    32
  0
VERTEX
  8
T39SSILL
 62
6
 10
4888.363
 20
-6694.290
 30
1285.950
 70
    32
  0
VERTEX
  8
T39SSILL
 62
6
 10
4878.433
 20
-6692.619
 30
1285.936
 70
    32
  0
VERTEX
  8
T39SSILL
 62
6
 10
4871.466
 20
-6692.809
 30
1285.925
 70
    32
  0
VERTEX
  8
T39SSILL
 62
6
 10
4850.636
 20
-6699.202
 30
1285.886
 70
    32
  0
VERTEX
  8
T39SSILL
 62
6
 10
4860.530
 20
-6718.965
 30
1285.883
 70
    32
  0
VERTEX
  8
T39SSILL
 62
6
 10
4864.286
 20
-6720.804
 30
1285.887
 70
    32
  0
VERTEX
  8
T39SSILL
 62
6
 10
4868.490
 20
-6726.073
 30
1285.889
 70
    32
  0
VERTEX
  8
T39SSILL
 62
6
 10
4868.757
 20
-6729.420
 30
1285.886
 70
    32
  0
VERTEX
  8
T39SSILL
 62
6
 10
4865.543
 20
-6731.272
 30
1285.879
 70
    32
  0
VERTEX
  8
T39SSILL
 62
6
 10
4863.085
 20
-6731.781
 30
1285.875
 70
    32
  0
VERTEX
  8
T39SSILL
 62
6
 10
4860.392
 20
-6730.089
 30
1285.872
 70
    32
  0
VERTEX
  8
T39SSILL
 62
6
 10
4854.942
 20
-6724.413
 30
1285.869
 70
    32
  0
VERTEX
  8
T39SSILL
 62
6
 10
4832.159
 20
-6680.791
 30
1285.875
 70
    32
  0
VERTEX
  8
T39SSILL
 62
6
 10
4825.232
 20
-6679.620
 30
1285.865
 70
    32
  0
VERTEX
  8
T39SSILL
 62
6
 10
4823.192
 20
-6675.619
 30
1285.866
 70
    32
  0
VERTEX
  8
T39SSILL
 62
6
 10
4826.123
 20
-6669.233
 30
1285.876
 70
    32
  0
VERTEX
  8
T39SSILL
 62
6
 10
4811.275
 20
-6640.788
 30
1285.880
 70
    32
  0
VERTEX
  8
T39SSILL
 62
6
 10
4806.256
 20
-6640.271
 30
1285.873
 70
    32
  0
VERTEX
  8
T39SSILL
 62
6
 10
4797.752
 20
-6624.625
 30
1285.838
 70
    32
  0
VERTEX
  8
T39SSILL
 62
6
 10
4796.810
 20
-6618.745
 30
1285.819
 70
    32
  0
VERTEX
  8
T39SSILL
 62
6
 10
4797.510
 20
-6614.357
 30
1285.810
 70
    32
  0
VERTEX
  8
T39SSILL
 62
6
 10
4795.594
 20
-6610.679
 30
1285.793
 70
    32
  0
VERTEX
  8
T39SSILL
 62
6
 10
4789.106
 20
-6606.868
 30
1285.759
 70
    32
  0
VERTEX
  8
T39SSILL
 62
6
 10
4783.380
 20
-6596.527
 30
1285.710
 70
    32
  0
VERTEX
  8
T39SSILL
 62
6
 10
4783.442
 20
-6592.031
 30
1285.699
 70
    32
  0
VERTEX
  8
T39SSILL
 62
6
 10
4784.736
 20
-6589.830
 30
1285.698
 70
    32
  0
VERTEX
  8
T39SSILL
 62
6
 10
4751.404
 20
-6525.829
 30
1285.440
 70
    32
  0
VERTEX
  8
T39SSILL
 62
6
 10
4748.151
 20
-6512.324
 30
1285.445
 70
    32
  0
VERTEX
  8
T39SSILL
 62
6
 10
4749.203
 20
-6500.611
 30
1285.464
 70
    32
  0
VERTEX
  8
T39SSILL
 62
6
 10
4571.531
 20
-6628.368
 30
1285.495
 70
    32
  0
VERTEX
  8
T39SSILL
 62
6
 10
4566.588
 20
-6641.992
 30
1285.498
 70
    32
  0
VERTEX
  8
T39SSILL
 62
6
 10
4815.767
 20
-6978.676
 30
1285.558
 70
    32
  0
VERTEX
  8
T39SSILL
 62
6
 10
5652.057
 20
-8116.774
 30
1286.680
 70
    32
  0
VERTEX
  8
T39SSILL
 62
6
 10
5739.885
 20
-8232.878
 30
1286.799
 70
    32
  0
VERTEX
  8
T39SSILL
 62
6
 10
5727.793
 20
-8242.063
 30
1286.775
 70
    32
  0
VERTEX
  8
T39SSILL
 62
6
 10
5635.356
 20
-8121.382
 30
1286.650
 70
    32
  0
VERTEX
  8
T39SSILL
 62
6
 10
4821.186
 20
-7012.802
 30
1285.558
 70
    32
  0
VERTEX
  8
T39SSILL
 62
6
 10
4548.054
 20
-6646.091
 30
1285.472
 70
    32
  0
VERTEX
  8
T39SSILL
 62
6
 10
4449.525
 20
-6509.866
 30
1285.478
 70
    32
  0
VERTEX
  8
T39SSILL
 62
6
 10
4002.259
 20
-6833.588
 30
1284.336
 70
    32
  0
VERTEX
  8
T39SSILL
 62
6
 10
4002.348
 20
-6839.814
 30
1284.328
 70
    32
  0
VERTEX
  8
T39SSILL
 62
6
 10
4010.963
 20
-6850.712
 30
1284.331
 70
    32
  0
VERTEX
  8
T39SSILL
 62
6
 10
4028.994
 20
-6854.265
 30
1284.363
 70
    32
  0
VERTEX
  8
T39SSILL
 62
6
 10
4045.307
 20
-6891.241
 30
1284.362
 70
    32
  0
VERTEX
  8
T39SSILL
 62
6
 10
4045.754
 20
-6893.852
 30
1284.360
 70
    32
  0
VERTEX
  8
T39SSILL
 62
6
 10
4041.779
 20
-6897.870
 30
1284.349
 70
    32
  0
VERTEX
  8
T39SSILL
 62
6
 10
4046.669
 20
-6912.067
 30
1284.346
 70
    32
  0
VERTEX
  8
T39SSILL
 62
6
 10
4048.047
 20
-6920.412
 30
1284.341
 70
    32
  0
VERTEX
  8
T39SSILL
 62
6
 10
4046.608
 20
-6925.555
 30
1284.333
 70
    32
  0
VERTEX
  8
T39SSILL
 62
6
 10
4043.320
 20
-6930.386
 30
1284.322
 70
    32
  0
VERTEX
  8
T39SSILL
 62
6
 10
4037.496
 20
-6934.852
 30
1284.307
 70
    32
  0
VERTEX
  8
T39SSILL
 62
6
 10
4031.665
 20
-6937.479
 30
1284.293
 70
    32
  0
VERTEX
  8
T39SSILL
 62
6
 10
4018.299
 20
-6938.199
 30
1284.266
 70
    32
  0
VERTEX
  8
T39SSILL
 62
6
 10
4008.154
 20
-6945.737
 30
1284.239
 70
    32
  0
VERTEX
  8
T39SSILL
 62
6
 10
4007.452
 20
-6951.766
 30
1284.233
 70
    32
  0
VERTEX
  8
T39SSILL
 62
6
 10
4044.408
 20
-7027.845
 30
1284.237
 70
    32
  0
VERTEX
  8
T39SSILL
 62
6
 10
4080.475
 20
-7000.830
 30
1284.332
 70
    32
  0
VERTEX
  8
T39SSILL
 62
6
 10
4085.700
 20
-7006.621
 30
1284.337
 70
    32
  0
VERTEX
  8
T39SSILL
 62
6
 10
4047.698
 20
-7034.364
 30
1284.237
 70
    32
  0
VERTEX
  8
T39SSILL
 62
6
 10
4071.553
 20
-7081.605
 30
1284.242
 70
    32
  0
VERTEX
  8
T39SSILL
 62
6
 10
4063.603
 20
-7085.103
 30
1284.223
 70
    32
  0
VERTEX
  8
T39SSILL
 62
6
 10
4050.884
 20
-7058.936
 30
1284.222
 70
    32
  0
VERTEX
  8
T39SSILL
 62
6
 10
4039.717
 20
-7064.271
 30
1284.195
 70
    32
  0
VERTEX
  8
T39SSILL
 62
6
 10
4037.122
 20
-7058.060
 30
1284.195
 70
    32
  0
VERTEX
  8
T39SSILL
 62
6
 10
4047.952
 20
-7052.904
 30
1284.221
 70
    32
  0
VERTEX
  8
T39SSILL
 62
6
 10
4041.234
 20
-7039.083
 30
1284.220
 70
    32
  0
VERTEX
  8
T39SSILL
 62
6
 10
3959.176
 20
-7098.989
 30
1283.978
 70
    32
  0
VERTEX
  8
T39SSILL
 62
6
 10
3972.000
 20
-7109.595
 30
1283.987
 70
    32
  0
VERTEX
  8
T39SSILL
 62
6
 10
3986.588
 20
-7113.017
 30
1284.015
 70
    32
  0
VERTEX
  8
T39SSILL
 62
6
 10
4002.068
 20
-7121.379
 30
1284.035
 70
    32
  0
VERTEX
  8
T39SSILL
 62
6
 10
4013.009
 20
-7125.510
 30
1284.052
 70
    32
  0
VERTEX
  8
T39SSILL
 62
6
 10
4021.745
 20
-7127.093
 30
1284.070
 70
    32
  0
VERTEX
  8
T39SSILL
 62
6
 10
4025.731
 20
-7135.792
 30
1284.063
 70
    32
  0
VERTEX
  8
T39SSILL
 62
6
 10
4024.389
 20
-7143.364
 30
1284.045
 70
    32
  0
VERTEX
  8
T39SSILL
 62
6
 10
4022.473
 20
-7145.980
 30
1284.036
 70
    32
  0
VERTEX
  8
T39SSILL
 62
6
 10
4016.777
 20
-7146.441
 30
1284.022
 70
    32
  0
VERTEX
  8
T39SSILL
 62
6
 10
4000.189
 20
-7141.197
 30
1283.993
 70
    32
  0
VERTEX
  8
T39SSILL
 62
6
 10
3993.639
 20
-7142.286
 30
1283.976
 70
    32
  0
VERTEX
  8
T39SSILL
 62
6
 10
3957.768
 20
-7115.457
 30
1283.943
 70
    32
  0
VERTEX
  8
T39SSILL
 62
6
 10
3946.158
 20
-7111.161
 30
1283.924
 70
    32
  0
VERTEX
  8
T39SSILL
 62
6
 10
3942.255
 20
-7111.342
 30
1283.915
 70
    32
  0
VERTEX
  8
T39SSILL
 62
6
 10
3904.289
 20
-7139.280
 30
1283.773
 70
    32
  0
VERTEX
  8
T39SSILL
 62
6
 10
3895.149
 20
-7142.742
 30
1283.746
 70
    32
  0
VERTEX
  8
T39SSILL
 62
6
 10
3888.171
 20
-7143.908
 30
1283.727
 70
    32
  0
VERTEX
  8
T39SSILL
 62
6
 10
3879.809
 20
-7143.889
 30
1283.728
 70
    32
  0
VERTEX
  8
T39SSILL
 62
6
 10
3874.339
 20
-7142.350
 30
1283.735
 70
    32
  0
VERTEX
  8
T39SSILL
 62
6
 10
4025.687
 20
-7352.880
 30
1283.582
 70
    32
  0
VERTEX
  8
T39SSILL
 62
6
 10
4020.000
 20
-7356.000
 30
1283.590
 70
    32
  0
VERTEX
  8
T39SSILL
 62
6
 10
3802.000
 20
-7054.000
 30
1283.736
 70
    32
  0
VERTEX
  8
T39SSILL
 62
6
 10
3795.000
 20
-7097.000
 30
1283.803
 70
    32
  0
VERTEX
  8
T39SSILL
 62
6
 10
3674.000
 20
-7183.000
 30
1284.108
 70
    32
  0
VERTEX
  8
T39SSILL
 62
6
 10
3670.000
 20
-7188.000
 30
1284.121
 70
    32
  0
VERTEX
  8
T39SSILL
 62
6
 10
3667.000
 20
-7202.000
 30
1284.125
 70
    32
  0
VERTEX
  8
T39SSILL
 62
6
 10
3674.000
 20
-7223.000
 30
1284.112
 70
    32
  0
VERTEX
  8
T39SSILL
 62
6
 10
3685.000
 20
-7234.000
 30
1284.094
 70
    32
  0
VERTEX
  8
T39SSILL
 62
6
 10
3695.000
 20
-7239.000
 30
1284.079
 70
    32
  0
VERTEX
  8
T39SSILL
 62
6
 10
3738.000
 20
-7246.000
 30
1284.015
 70
    32
  0
VERTEX
  8
T39SSILL
 62
6
 10
3738.000
 20
-7253.000
 30
1284.015
 70
    32
  0
VERTEX
  8
T39SSILL
 62
6
 10
3686.000
 20
-7245.000
 30
1284.091
 70
    32
  0
VERTEX
  8
T39SSILL
 62
6
 10
3681.000
 20
-7247.000
 30
1284.098
 70
    32
  0
VERTEX
  8
T39SSILL
 62
6
 10
3720.000
 20
-7371.000
 30
1284.024
 70
    32
  0
VERTEX
  8
T39SSILL
 62
6
 10
3780.042
 20
-7491.083
 30
1283.920
 70
    32
  0
VERTEX
  8
T39SSILL
 62
6
 10
3788.704
 20
-7496.138
 30
1283.906
 70
    32
  0
VERTEX
  8
T39SSILL
 62
6
 10
3790.364
 20
-7500.365
 30
1283.903
 70
    32
  0
VERTEX
  8
T39SSILL
 62
6
 10
3794.869
 20
-7504.302
 30
1283.896
 70
    32
  0
VERTEX
  8
T39SSILL
 62
6
 10
3795.397
 20
-7513.803
 30
1283.894
 70
    32
  0
VERTEX
  8
T39SSILL
 62
6
 10
3794.049
 20
-7519.098
 30
1283.895
 70
    32
  0
VERTEX
  8
T39SSILL
 62
6
 10
3811.000
 20
-7553.000
 30
1283.866
 70
    32
  0
VERTEX
  8
T39SSILL
 62
6
 10
3818.559
 20
-7556.830
 30
1283.854
 70
    32
  0
VERTEX
  8
T39SSILL
 62
6
 10
3819.397
 20
-7558.538
 30
1283.853
 70
    32
  0
VERTEX
  8
T39SSILL
 62
6
 10
3834.213
 20
-7569.158
 30
1283.830
 70
    32
  0
VERTEX
  8
T39SSILL
 62
6
 10
3852.269
 20
-7579.276
 30
1283.802
 70
    32
  0
VERTEX
  8
T39SSILL
 62
6
 10
3848.210
 20
-7585.709
 30
1283.807
 70
    32
  0
VERTEX
  8
T39SSILL
 62
6
 10
3848.465
 20
-7588.925
 30
1283.806
 70
    32
  0
VERTEX
  8
T39SSILL
 62
6
 10
3850.636
 20
-7592.388
 30
1283.803
 70
    32
  0
VERTEX
  8
T39SSILL
 62
6
 10
3862.711
 20
-7602.871
 30
1283.784
 70
    32
  0
VERTEX
  8
T39SSILL
 62
6
 10
3873.150
 20
-7608.879
 30
1283.767
 70
    32
  0
VERTEX
  8
T39SSILL
 62
6
 10
3873.708
 20
-7610.247
 30
1283.766
 70
    32
  0
VERTEX
  8
T39SSILL
 62
6
 10
3869.559
 20
-7614.355
 30
1283.772
 70
    32
  0
VERTEX
  8
T39SSILL
 62
6
 10
3848.259
 20
-7605.428
 30
1283.804
 70
    32
  0
VERTEX
  8
T39SSILL
 62
6
 10
3845.680
 20
-7616.008
 30
1283.806
 70
    32
  0
VERTEX
  8
T39SSILL
 62
6
 10
3841.898
 20
-7618.900
 30
1283.811
 70
    32
  0
VERTEX
  8
T39SSILL
 62
6
 10
3839.149
 20
-7618.199
 30
1283.816
 70
    32
  0
VERTEX
  8
T39SSILL
 62
6
 10
3814.473
 20
-7600.749
 30
1283.854
 70
    32
  0
VERTEX
  8
T39SSILL
 62
6
 10
3805.957
 20
-7598.180
 30
1283.867
 70
    32
  0
VERTEX
  8
T39SSILL
 62
6
 10
3797.442
 20
-7586.474
 30
1283.881
 70
    32
  0
VERTEX
  8
T39SSILL
 62
6
 10
3786.571
 20
-7576.482
 30
1283.898
 70
    32
  0
VERTEX
  8
T39SSILL
 62
6
 10
3785.169
 20
-7561.076
 30
1283.902
 70
    32
  0
VERTEX
  8
T39SSILL
 62
6
 10
3767.456
 20
-7522.577
 30
1283.933
 70
    32
  0
VERTEX
  8
T39SSILL
 62
6
 10
3769.483
 20
-7521.019
 30
1283.931
 70
    32
  0
VERTEX
  8
T39SSILL
 62
6
 10
3765.641
 20
-7515.394
 30
1283.937
 70
    32
  0
VERTEX
  8
T39SSILL
 62
6
 10
3771.403
 20
-7511.440
 30
1283.929
 70
    32
  0
VERTEX
  8
T39SSILL
 62
6
 10
3774.028
 20
-7507.561
 30
1283.926
 70
    32
  0
VERTEX
  8
T39SSILL
 62
6
 10
3774.608
 20
-7497.542
 30
1283.927
 70
    32
  0
VERTEX
  8
T39SSILL
 62
6
 10
3714.000
 20
-7377.000
 30
1284.032
 70
    32
  0
VERTEX
  8
T39SSILL
 62
6
 10
3661.000
 20
-7209.000
 30
1284.133
 70
    32
  0
VERTEX
  8
T39SSILL
 62
6
 10
3659.000
 20
-7200.000
 30
1284.137
 70
    32
  0
VERTEX
  8
T39SSILL
 62
6
 10
3660.000
 20
-7193.000
 30
1284.136
 70
    32
  0
VERTEX
  8
T39SSILL
 62
6
 10
3649.327
 20
-7201.733
 30
1284.151
 70
    32
  0
VERTEX
  8
T39SSILL
 62
6
 10
3652.272
 20
-7221.499
 30
1284.144
 70
    32
  0
VERTEX
  8
T39SSILL
 62
6
 10
3659.887
 20
-7235.428
 30
1284.131
 70
    32
  0
VERTEX
  8
T39SSILL
 62
6
 10
3660.326
 20
-7239.605
 30
1284.129
 70
    32
  0
VERTEX
  8
T39SSILL
 62
6
 10
3657.788
 20
-7242.569
 30
1284.133
 70
    32
  0
VERTEX
  8
T39SSILL
 62
6
 10
3657.360
 20
-7244.969
 30
1284.133
 70
    32
  0
VERTEX
  8
T39SSILL
 62
6
 10
3653.504
 20
-7247.037
 30
1284.138
 70
    32
  0
VERTEX
  8
T39SSILL
 62
6
 10
3648.200
 20
-7254.891
 30
1284.145
 70
    32
  0
VERTEX
  8
T39SSILL
 62
6
 10
3641.931
 20
-7254.126
 30
1284.154
 70
    32
  0
VERTEX
  8
T39SSILL
 62
6
 10
3627.615
 20
-7230.642
 30
1284.178
 70
    32
  0
VERTEX
  8
T39SSILL
 62
6
 10
3624.071
 20
-7221.947
 30
1284.184
 70
    32
  0
VERTEX
  8
T39SSILL
 62
6
 10
3617.450
 20
-7215.187
 30
1284.195
 70
    32
  0
VERTEX
  8
T39SSILL
 62
6
 10
3610.763
 20
-7202.220
 30
1284.207
 70
    32
  0
VERTEX
  8
T39SSILL
 62
6
 10
3610.071
 20
-7196.804
 30
1284.208
 70
    32
  0
VERTEX
  8
T39SSILL
 62
6
 10
3612.075
 20
-7184.466
 30
1284.207
 70
    32
  0
VERTEX
  8
T39SSILL
 62
6
 10
3615.021
 20
-7181.311
 30
1284.200
 70
    32
  0
VERTEX
  8
T39SSILL
 62
6
 10
3623.087
 20
-7167.366
 30
1284.169
 70
    32
  0
VERTEX
  8
T39SSILL
 62
6
 10
3623.174
 20
-7159.730
 30
1284.159
 70
    32
  0
VERTEX
  8
T39SSILL
 62
6
 10
3629.737
 20
-7136.137
 30
1284.118
 70
    32
  0
VERTEX
  8
T39SSILL
 62
6
 10
3628.152
 20
-7131.596
 30
1284.115
 70
    32
  0
VERTEX
  8
T39SSILL
 62
6
 10
3621.148
 20
-7122.375
 30
1284.115
 70
    32
  0
VERTEX
  8
T39SSILL
 62
6
 10
3613.457
 20
-7120.572
 30
1284.125
 70
    32
  0
VERTEX
  8
T39SSILL
 62
6
 10
3610.587
 20
-7117.416
 30
1284.126
 70
    32
  0
VERTEX
  8
T39SSILL
 62
6
 10
3604.996
 20
-7106.387
 30
1284.122
 70
    32
  0
VERTEX
  8
T39SSILL
 62
6
 10
3605.717
 20
-7102.893
 30
1284.117
 70
    32
  0
VERTEX
  8
T39SSILL
 62
6
 10
3610.690
 20
-7099.616
 30
1284.105
 70
    32
  0
VERTEX
  8
T39SSILL
 62
6
 10
3565.235
 20
-7035.345
 30
1284.103
 70
    32
  0
VERTEX
  8
T39SSILL
 62
6
 10
3574.519
 20
-7030.310
 30
1284.081
 70
    32
  0
VERTEX
  8
T39SSILL
 62
6
 10
3618.332
 20
-7093.728
 30
1284.085
 70
    32
  0
VERTEX
  8
T39SSILL
 62
6
 10
3623.621
 20
-7089.864
 30
1284.071
 70
    32
  0
VERTEX
  8
T39SSILL
 62
6
 10
3629.254
 20
-7095.925
 30
1284.069
 70
    32
  0
VERTEX
  8
T39SSILL
 62
6
 10
3633.227
 20
-7103.310
 30
1284.071
 70
    32
  0
VERTEX
  8
T39SSILL
 62
6
 10
3645.419
 20
-7119.244
 30
1284.071
 70
    32
  0
VERTEX
  8
T39SSILL
 62
6
 10
3650.125
 20
-7123.138
 30
1284.068
 70
    32
  0
VERTEX
  8
T39SSILL
 62
6
 10
3658.382
 20
-7125.751
 30
1284.059
 70
    32
  0
VERTEX
  8
T39SSILL
 62
6
 10
3661.831
 20
-7128.374
 30
1284.056
 70
    32
  0
VERTEX
  8
T39SSILL
 62
6
 10
3664.076
 20
-7135.489
 30
1284.062
 70
    32
  0
VERTEX
  8
T39SSILL
 62
6
 10
3661.971
 20
-7144.141
 30
1284.077
 70
    32
  0
VERTEX
  8
T39SSILL
 62
6
 10
3666.172
 20
-7151.687
 30
1284.080
 70
    32
  0
VERTEX
  8
T39SSILL
 62
6
 10
3670.423
 20
-7155.257
 30
1284.078
 70
    32
  0
VERTEX
  8
T39SSILL
 62
6
 10
3676.770
 20
-7157.952
 30
1284.071
 70
    32
  0
VERTEX
  8
T39SSILL
 62
6
 10
3684.127
 20
-7159.033
 30
1284.061
 70
    32
  0
SEQEND
  8
T39SSILL
  0
POLYLINE
  8
T39SSILL
 62
2
 66
     1
 70
     8
  0
VERTEX
  8
T39SSILL
 62
2
 10
2444.561
 20
-6096.913
 30
1286.997
 70
    32
  0
VERTEX
  8
T39SSILL
 62
2
 10
2440.381
 20
-6092.791
 30
1288.117
 70
    32
  0
VERTEX
  8
T39SSILL
 62
2
 10
2435.466
 20
-6092.427
 30
1289.825
 70
    32
  0
VERTEX
  8
T39SSILL
 62
2
 10
2428.944
 20
-6097.129
 30
1292.355
 70
    32
  0
VERTEX
  8
T39SSILL
 62
2
 10
2423.408
 20
-6101.184
 30
1294.389
 70
    32
  0
VERTEX
  8
T39SSILL
 62
2
 10
2422.481
 20
-6101.919
 30
1294.395
 70
    32
  0
VERTEX
  8
T39SSILL
 62
2
 10
2421.128
 20
-6102.647
 30
1294.246
 70
    32
  0
VERTEX
  8
T39SSILL
 62
2
 10
2420.436
 20
-6103.919
 30
1294.398
 70
    32
  0
VERTEX
  8
T39SSILL
 62
2
 10
2416.728
 20
-6103.079
 30
1294.976
 70
    32
  0
VERTEX
  8
T39SSILL
 62
2
 10
2408.423
 20
-6106.016
 30
1295.245
 70
    32
  0
VERTEX
  8
T39SSILL
 62
2
 10
2402.870
 20
-6104.119
 30
1296.592
 70
    32
  0
VERTEX
  8
T39SSILL
 62
2
 10
2396.727
 20
-6104.529
 30
1297.042
 70
    32
  0
VERTEX
  8
T39SSILL
 62
2
 10
2393.043
 20
-6104.554
 30
1297.532
 70
    32
  0
VERTEX
  8
T39SSILL
 62
2
 10
2386.512
 20
-6104.436
 30
1298.586
 70
    32
  0
VERTEX
  8
T39SSILL
 62
2
 10
2382.941
 20
-6100.814
 30
1299.996
 70
    32
  0
VERTEX
  8
T39SSILL
 62
2
 10
2376.539
 20
-6098.472
 30
1301.073
 70
    32
  0
VERTEX
  8
T39SSILL
 62
2
 10
2379.095
 20
-6092.247
 30
1301.091
 70
    32
  0
VERTEX
  8
T39SSILL
 62
2
 10
2382.665
 20
-6087.386
 30
1301.035
 70
    32
  0
VERTEX
  8
T39SSILL
 62
2
 10
2386.922
 20
-6089.252
 30
1300.626
 70
    32
  0
VERTEX
  8
T39SSILL
 62
2
 10
2392.581
 20
-6090.611
 30
1299.345
 70
    32
  0
VERTEX
  8
T39SSILL
 62
2
 10
2400.613
 20
-6092.412
 30
1297.207
 70
    32
  0
VERTEX
  8
T39SSILL
 62
2
 10
2405.156
 20
-6092.849
 30
1296.197
 70
    32
  0
VERTEX
  8
T39SSILL
 62
2
 10
2410.892
 20
-6092.212
 30
1294.941
 70
    32
  0
VERTEX
  8
T39SSILL
 62
2
 10
2415.397
 20
-6090.610
 30
1294.360
 70
    32
  0
VERTEX
  8
T39SSILL
 62
2
 10
2416.425
 20
-6090.391
 30
1294.324
 70
    32
  0
VERTEX
  8
T39SSILL
 62
2
 10
2419.195
 20
-6087.805
 30
1292.162
 70
    32
  0
VERTEX
  8
T39SSILL
 62
2
 10
2428.532
 20
-6082.842
 30
1290.052
 70
    32
  0
VERTEX
  8
T39SSILL
 62
2
 10
2431.524
 20
-6078.120
 30
1287.881
 70
    32
  0
VERTEX
  8
T39SSILL
 62
2
 10
2432.737
 20
-6070.339
 30
1287.289
 70
    32
  0
VERTEX
  8
T39SSILL
 62
2
 10
2430.758
 20
-6064.603
 30
1286.946
 70
    32
  0
SEQEND
  8
T39SSILL
  0
ENDSEC
  0
EOF
