999
********************************
999
*   DXF File - Entities Only   *
999
*        3D Data Format        *
999
*     Output from ENVISAGE     *
999
*     20-Dec-2007 09:07:04     *
999
********************************
  0
SECTION 
  2
HEADER
  9
$ACADVER
  1
AC1009
  9
$EXTMIN
 10
-290000.000
 20
-250000.000
 30
-4000.000
  9
$EXTMAX
 10
5000000.000
 20
600000.000
 30
6000.000
  0
ENDSEC
  0
SECTION
  2
ENTITIES
  0
POLYLINE
  8
T04SSILL
 62
7
 66
     1
 70
     9
  0
VERTEX
  8
T04SSILL
 62
7
 10
-1177.485
 20
1115.204
 30
4827.750
 70
    32
  0
VERTEX
  8
T04SSILL
 62
7
 10
-1188.705
 20
1109.381
 30
4827.750
 70
    32
  0
VERTEX
  8
T04SSILL
 62
7
 10
-1189.381
 20
1106.117
 30
4827.750
 70
    32
  0
VERTEX
  8
T04SSILL
 62
7
 10
-1175.137
 20
1078.504
 30
4827.750
 70
    32
  0
VERTEX
  8
T04SSILL
 62
7
 10
-1173.103
 20
1077.553
 30
4827.750
 70
    32
  0
VERTEX
  8
T04SSILL
 62
7
 10
-1163.023
 20
1082.925
 30
4827.750
 70
    32
  0
VERTEX
  8
T04SSILL
 62
7
 10
-1162.512
 20
1084.867
 30
4827.750
 70
    32
  0
SEQEND
  8
T04SSILL
  0
POLYLINE
  8
T04SSILL
 62
7
 66
     1
 70
     9
  0
VERTEX
  8
T04SSILL
 62
7
 10
-1151.685
 20
1035.385
 30
4827.750
 70
    32
  0
VERTEX
  8
T04SSILL
 62
7
 10
-1137.043
 20
1042.559
 30
4827.750
 70
    32
  0
VERTEX
  8
T04SSILL
 62
7
 10
-1118.208
 20
1013.665
 30
4827.750
 70
    32
  0
VERTEX
  8
T04SSILL
 62
7
 10
-1119.071
 20
1011.720
 30
4827.750
 70
    32
  0
VERTEX
  8
T04SSILL
 62
7
 10
-1133.713
 20
1004.458
 30
4827.750
 70
    32
  0
VERTEX
  8
T04SSILL
 62
7
 10
-1136.892
 20
1005.399
 30
4827.750
 70
    32
  0
SEQEND
  8
T04SSILL
  0
POLYLINE
  8
T04SSILL
 62
7
 66
     1
 70
     9
  0
VERTEX
  8
T04SSILL
 62
7
 10
-1132.416
 20
997.161
 30
4827.750
 70
    32
  0
VERTEX
  8
T04SSILL
 62
7
 10
-1128.044
 20
1000.634
 30
4827.750
 70
    32
  0
VERTEX
  8
T04SSILL
 62
7
 10
-1114.274
 20
1007.007
 30
4827.750
 70
    32
  0
VERTEX
  8
T04SSILL
 62
7
 10
-1112.239
 20
1005.880
 30
4827.750
 70
    32
  0
VERTEX
  8
T04SSILL
 62
7
 10
-1097.505
 20
972.636
 30
4827.750
 70
    32
  0
VERTEX
  8
T04SSILL
 62
7
 10
-1098.888
 20
969.717
 30
4827.750
 70
    32
  0
VERTEX
  8
T04SSILL
 62
7
 10
-1113.091
 20
962.636
 30
4827.750
 70
    32
  0
VERTEX
  8
T04SSILL
 62
7
 10
-1115.040
 20
963.939
 30
4827.750
 70
    32
  0
SEQEND
  8
T04SSILL
  0
POLYLINE
  8
T04SSILL
 62
7
 66
     1
 70
     9
  0
VERTEX
  8
T04SSILL
 62
7
 10
-983.735
 20
712.894
 30
4827.750
 70
    32
  0
VERTEX
  8
T04SSILL
 62
7
 10
-966.901
 20
721.232
 30
4827.750
 70
    32
  0
VERTEX
  8
T04SSILL
 62
7
 10
-964.922
 20
726.533
 30
4827.750
 70
    32
  0
VERTEX
  8
T04SSILL
 62
7
 10
-979.050
 20
770.966
 30
4827.750
 70
    32
  0
VERTEX
  8
T04SSILL
 62
7
 10
-981.183
 20
773.149
 30
4827.750
 70
    32
  0
VERTEX
  8
T04SSILL
 62
7
 10
-983.828
 20
773.478
 30
4827.750
 70
    32
  0
VERTEX
  8
T04SSILL
 62
7
 10
-1006.773
 20
759.099
 30
4827.750
 70
    32
  0
SEQEND
  8
T04SSILL
  0
POLYLINE
  8
T04SSILL
 62
7
 66
     1
 70
     9
  0
VERTEX
  8
T04SSILL
 62
7
 10
-934.167
 20
636.892
 30
4827.750
 70
    32
  0
VERTEX
  8
T04SSILL
 62
7
 10
-922.473
 20
645.655
 30
4827.750
 70
    32
  0
VERTEX
  8
T04SSILL
 62
7
 10
-920.438
 20
644.992
 30
4827.750
 70
    32
  0
VERTEX
  8
T04SSILL
 62
7
 10
-905.041
 20
618.134
 30
4827.750
 70
    32
  0
VERTEX
  8
T04SSILL
 62
7
 10
-905.779
 20
615.481
 30
4827.750
 70
    32
  0
VERTEX
  8
T04SSILL
 62
7
 10
-914.001
 20
608.986
 30
4827.750
 70
    32
  0
VERTEX
  8
T04SSILL
 62
7
 10
-917.446
 20
609.796
 30
4827.750
 70
    32
  0
VERTEX
  8
T04SSILL
 62
7
 10
-935.182
 20
634.937
 30
4827.750
 70
    32
  0
SEQEND
  8
T04SSILL
  0
POLYLINE
  8
T04SSILL
 62
7
 66
     1
 70
     9
  0
VERTEX
  8
T04SSILL
 62
7
 10
-880.349
 20
574.932
 30
4827.750
 70
    32
  0
VERTEX
  8
T04SSILL
 62
7
 10
-887.128
 20
571.016
 30
4827.750
 70
    32
  0
VERTEX
  8
T04SSILL
 62
7
 10
-888.312
 20
568.706
 30
4827.750
 70
    32
  0
VERTEX
  8
T04SSILL
 62
7
 10
-879.045
 20
553.770
 30
4827.750
 70
    32
  0
VERTEX
  8
T04SSILL
 62
7
 10
-871.258
 20
538.100
 30
4827.750
 70
    32
  0
VERTEX
  8
T04SSILL
 62
7
 10
-862.211
 20
542.941
 30
4827.750
 70
    32
  0
VERTEX
  8
T04SSILL
 62
7
 10
-862.895
 20
546.357
 30
4827.750
 70
    32
  0
SEQEND
  8
T04SSILL
  0
POLYLINE
  8
T04SSILL
 62
7
 66
     1
 70
     9
  0
VERTEX
  8
T04SSILL
 62
7
 10
-867.946
 20
530.781
 30
4827.750
 70
    32
  0
VERTEX
  8
T04SSILL
 62
7
 10
-867.118
 20
533.348
 30
4827.750
 70
    32
  0
VERTEX
  8
T04SSILL
 62
7
 10
-859.893
 20
536.921
 30
4827.750
 70
    32
  0
VERTEX
  8
T04SSILL
 62
7
 10
-854.660
 20
534.653
 30
4827.750
 70
    32
  0
VERTEX
  8
T04SSILL
 62
7
 10
-842.863
 20
511.942
 30
4827.750
 70
    32
  0
VERTEX
  8
T04SSILL
 62
7
 10
-839.822
 20
504.969
 30
4827.750
 70
    32
  0
VERTEX
  8
T04SSILL
 62
7
 10
-849.202
 20
499.242
 30
4827.750
 70
    32
  0
VERTEX
  8
T04SSILL
 62
7
 10
-852.287
 20
499.620
 30
4827.750
 70
    32
  0
SEQEND
  8
T04SSILL
  0
POLYLINE
  8
T04SSILL
 62
7
 66
     1
 70
     9
  0
VERTEX
  8
T04SSILL
 62
7
 10
-803.854
 20
429.991
 30
4827.750
 70
    32
  0
VERTEX
  8
T04SSILL
 62
7
 10
-815.560
 20
426.240
 30
4827.750
 70
    32
  0
VERTEX
  8
T04SSILL
 62
7
 10
-809.682
 20
409.301
 30
4827.750
 70
    32
  0
VERTEX
  8
T04SSILL
 62
7
 10
-806.312
 20
407.874
 30
4827.750
 70
    32
  0
VERTEX
  8
T04SSILL
 62
7
 10
-796.287
 20
412.119
 30
4827.750
 70
    32
  0
SEQEND
  8
T04SSILL
  0
POLYLINE
  8
T04SSILL
 62
7
 66
     1
 70
     9
  0
VERTEX
  8
T04SSILL
 62
7
 10
-794.152
 20
406.535
 30
4827.750
 70
    32
  0
VERTEX
  8
T04SSILL
 62
7
 10
-804.531
 20
402.371
 30
4827.750
 70
    32
  0
VERTEX
  8
T04SSILL
 62
7
 10
-805.705
 20
399.534
 30
4827.750
 70
    32
  0
VERTEX
  8
T04SSILL
 62
7
 10
-795.503
 20
373.011
 30
4827.750
 70
    32
  0
VERTEX
  8
T04SSILL
 62
7
 10
-791.697
 20
371.768
 30
4827.750
 70
    32
  0
VERTEX
  8
T04SSILL
 62
7
 10
-779.571
 20
376.495
 30
4827.750
 70
    32
  0
SEQEND
  8
T04SSILL
  0
POLYLINE
  8
T04SSILL
 62
7
 66
     1
 70
     9
  0
VERTEX
  8
T04SSILL
 62
7
 10
-777.725
 20
372.136
 30
4827.750
 70
    32
  0
VERTEX
  8
T04SSILL
 62
7
 10
-791.407
 20
366.059
 30
4827.750
 70
    32
  0
VERTEX
  8
T04SSILL
 62
7
 10
-792.505
 20
363.839
 30
4827.750
 70
    32
  0
VERTEX
  8
T04SSILL
 62
7
 10
-766.819
 20
297.359
 30
4827.750
 70
    32
  0
VERTEX
  8
T04SSILL
 62
7
 10
-764.428
 20
296.528
 30
4827.750
 70
    32
  0
VERTEX
  8
T04SSILL
 62
7
 10
-753.719
 20
301.754
 30
4827.750
 70
    32
  0
VERTEX
  8
T04SSILL
 62
7
 10
-752.035
 20
305.481
 30
4827.750
 70
    32
  0
VERTEX
  8
T04SSILL
 62
7
 10
-758.691
 20
326.096
 30
4827.750
 70
    32
  0
VERTEX
  8
T04SSILL
 62
7
 10
-759.603
 20
332.144
 30
4827.750
 70
    32
  0
SEQEND
  8
T04SSILL
  0
POLYLINE
  8
T04SSILL
 62
7
 66
     1
 70
     9
  0
VERTEX
  8
T04SSILL
 62
7
 10
-763.553
 20
287.929
 30
4827.750
 70
    32
  0
VERTEX
  8
T04SSILL
 62
7
 10
-739.977
 20
256.575
 30
4827.750
 70
    32
  0
VERTEX
  8
T04SSILL
 62
7
 10
-736.187
 20
256.124
 30
4827.750
 70
    32
  0
VERTEX
  8
T04SSILL
 62
7
 10
-727.350
 20
262.631
 30
4827.750
 70
    32
  0
VERTEX
  8
T04SSILL
 62
7
 10
-727.508
 20
266.145
 30
4827.750
 70
    32
  0
VERTEX
  8
T04SSILL
 62
7
 10
-748.716
 20
293.414
 30
4827.750
 70
    32
  0
VERTEX
  8
T04SSILL
 62
7
 10
-752.349
 20
294.836
 30
4827.750
 70
    32
  0
VERTEX
  8
T04SSILL
 62
7
 10
-760.806
 20
291.238
 30
4827.750
 70
    32
  0
SEQEND
  8
T04SSILL
  0
POLYLINE
  8
T04SSILL
 62
7
 66
     1
 70
     9
  0
VERTEX
  8
T04SSILL
 62
7
 10
-695.142
 20
221.690
 30
4827.750
 70
    32
  0
VERTEX
  8
T04SSILL
 62
7
 10
-720.562
 20
257.316
 30
4827.750
 70
    32
  0
VERTEX
  8
T04SSILL
 62
7
 10
-723.564
 20
257.959
 30
4827.750
 70
    32
  0
VERTEX
  8
T04SSILL
 62
7
 10
-733.528
 20
250.638
 30
4827.750
 70
    32
  0
VERTEX
  8
T04SSILL
 62
7
 10
-733.739
 20
247.996
 30
4827.750
 70
    32
  0
VERTEX
  8
T04SSILL
 62
7
 10
-708.801
 20
214.471
 30
4827.750
 70
    32
  0
VERTEX
  8
T04SSILL
 62
7
 10
-704.396
 20
214.032
 30
4827.750
 70
    32
  0
SEQEND
  8
T04SSILL
  0
POLYLINE
  8
T04SSILL
 62
7
 66
     1
 70
     9
  0
VERTEX
  8
T04SSILL
 62
7
 10
-672.925
 20
179.143
 30
4827.750
 70
    32
  0
VERTEX
  8
T04SSILL
 62
7
 10
-685.756
 20
174.490
 30
4827.750
 70
    32
  0
VERTEX
  8
T04SSILL
 62
7
 10
-687.622
 20
175.507
 30
4827.750
 70
    32
  0
VERTEX
  8
T04SSILL
 62
7
 10
-704.222
 20
205.331
 30
4827.750
 70
    32
  0
VERTEX
  8
T04SSILL
 62
7
 10
-703.478
 20
207.720
 30
4827.750
 70
    32
  0
VERTEX
  8
T04SSILL
 62
7
 10
-693.412
 20
214.340
 30
4827.750
 70
    32
  0
VERTEX
  8
T04SSILL
 62
7
 10
-690.491
 20
213.343
 30
4827.750
 70
    32
  0
SEQEND
  8
T04SSILL
  0
POLYLINE
  8
T04SSILL
 62
7
 66
     1
 70
     9
  0
VERTEX
  8
T04SSILL
 62
7
 10
-684.295
 20
167.398
 30
4827.750
 70
    32
  0
VERTEX
  8
T04SSILL
 62
7
 10
-670.058
 20
172.079
 30
4827.750
 70
    32
  0
VERTEX
  8
T04SSILL
 62
7
 10
-657.690
 20
134.082
 30
4827.750
 70
    32
  0
VERTEX
  8
T04SSILL
 62
7
 10
-669.468
 20
129.538
 30
4827.750
 70
    32
  0
VERTEX
  8
T04SSILL
 62
7
 10
-671.766
 20
130.107
 30
4827.750
 70
    32
  0
SEQEND
  8
T04SSILL
  0
POLYLINE
  8
T04SSILL
 62
7
 66
     1
 70
     9
  0
VERTEX
  8
T04SSILL
 62
7
 10
-376.269
 20
-345.677
 30
4827.750
 70
    32
  0
VERTEX
  8
T04SSILL
 62
7
 10
-331.915
 20
-332.558
 30
4827.750
 70
    32
  0
VERTEX
  8
T04SSILL
 62
7
 10
-323.886
 20
-360.739
 30
4827.750
 70
    32
  0
VERTEX
  8
T04SSILL
 62
7
 10
-369.281
 20
-372.526
 30
4827.750
 70
    32
  0
SEQEND
  8
T04SSILL
  0
POLYLINE
  8
T04SSILL
 62
7
 66
     1
 70
     9
  0
VERTEX
  8
T04SSILL
 62
7
 10
-145.937
 20
-455.916
 30
4827.750
 70
    32
  0
VERTEX
  8
T04SSILL
 62
7
 10
-166.097
 20
-455.765
 30
4827.750
 70
    32
  0
VERTEX
  8
T04SSILL
 62
7
 10
-171.358
 20
-453.941
 30
4827.750
 70
    32
  0
VERTEX
  8
T04SSILL
 62
7
 10
-184.515
 20
-427.548
 30
4827.750
 70
    32
  0
VERTEX
  8
T04SSILL
 62
7
 10
-177.159
 20
-423.497
 30
4827.750
 70
    32
  0
VERTEX
  8
T04SSILL
 62
7
 10
-161.738
 20
-429.756
 30
4827.750
 70
    32
  0
VERTEX
  8
T04SSILL
 62
7
 10
-156.464
 20
-437.918
 30
4827.750
 70
    32
  0
SEQEND
  8
T04SSILL
  0
POLYLINE
  8
T04SSILL
 62
7
 66
     1
 70
     9
  0
VERTEX
  8
T04SSILL
 62
7
 10
-167.144
 20
-462.356
 30
4827.750
 70
    32
  0
VERTEX
  8
T04SSILL
 62
7
 10
-153.307
 20
-461.199
 30
4827.750
 70
    32
  0
VERTEX
  8
T04SSILL
 62
7
 10
-144.619
 20
-463.592
 30
4827.750
 70
    32
  0
VERTEX
  8
T04SSILL
 62
7
 10
-134.755
 20
-470.753
 30
4827.750
 70
    32
  0
VERTEX
  8
T04SSILL
 62
7
 10
-129.299
 20
-478.389
 30
4827.750
 70
    32
  0
VERTEX
  8
T04SSILL
 62
7
 10
-129.516
 20
-481.820
 30
4827.750
 70
    32
  0
VERTEX
  8
T04SSILL
 62
7
 10
-136.971
 20
-486.750
 30
4827.750
 70
    32
  0
VERTEX
  8
T04SSILL
 62
7
 10
-150.603
 20
-492.927
 30
4827.750
 70
    32
  0
VERTEX
  8
T04SSILL
 62
7
 10
-154.429
 20
-488.920
 30
4827.750
 70
    32
  0
SEQEND
  8
T04SSILL
  0
POLYLINE
  8
T04SSILL
 62
7
 66
     1
 70
     9
  0
VERTEX
  8
T04SSILL
 62
7
 10
-367.846
 20
-377.737
 30
4827.750
 70
    32
  0
VERTEX
  8
T04SSILL
 62
7
 10
-366.422
 20
-383.829
 30
4827.750
 70
    32
  0
VERTEX
  8
T04SSILL
 62
7
 10
-355.027
 20
-380.707
 30
4827.750
 70
    32
  0
VERTEX
  8
T04SSILL
 62
7
 10
-340.057
 20
-439.786
 30
4827.750
 70
    32
  0
VERTEX
  8
T04SSILL
 62
7
 10
-334.668
 20
-438.177
 30
4827.750
 70
    32
  0
VERTEX
  8
T04SSILL
 62
7
 10
-331.544
 20
-449.484
 30
4827.750
 70
    32
  0
VERTEX
  8
T04SSILL
 62
7
 10
-325.978
 20
-447.878
 30
4827.750
 70
    32
  0
VERTEX
  8
T04SSILL
 62
7
 10
-325.404
 20
-451.406
 30
4827.750
 70
    32
  0
VERTEX
  8
T04SSILL
 62
7
 10
-316.206
 20
-447.906
 30
4827.750
 70
    32
  0
VERTEX
  8
T04SSILL
 62
7
 10
-306.261
 20
-470.475
 30
4827.750
 70
    32
  0
VERTEX
  8
T04SSILL
 62
7
 10
-294.568
 20
-464.451
 30
4827.750
 70
    32
  0
VERTEX
  8
T04SSILL
 62
7
 10
-288.829
 20
-463.110
 30
4827.750
 70
    32
  0
VERTEX
  8
T04SSILL
 62
7
 10
-290.346
 20
-457.370
 30
4827.750
 70
    32
  0
VERTEX
  8
T04SSILL
 62
7
 10
-302.197
 20
-461.895
 30
4827.750
 70
    32
  0
VERTEX
  8
T04SSILL
 62
7
 10
-308.260
 20
-446.063
 30
4827.750
 70
    32
  0
VERTEX
  8
T04SSILL
 62
7
 10
-297.551
 20
-441.348
 30
4827.750
 70
    32
  0
VERTEX
  8
T04SSILL
 62
7
 10
-296.861
 20
-435.193
 30
4827.750
 70
    32
  0
VERTEX
  8
T04SSILL
 62
7
 10
-308.610
 20
-394.025
 30
4827.750
 70
    32
  0
VERTEX
  8
T04SSILL
 62
7
 10
-314.522
 20
-395.099
 30
4827.750
 70
    32
  0
VERTEX
  8
T04SSILL
 62
7
 10
-323.089
 20
-367.704
 30
4827.750
 70
    32
  0
SEQEND
  8
T04SSILL
  0
POLYLINE
  8
T04SSILL
 62
7
 66
     1
 70
     9
  0
VERTEX
  8
T04SSILL
 62
7
 10
-342.764
 20
-489.763
 30
4827.750
 70
    32
  0
VERTEX
  8
T04SSILL
 62
7
 10
-338.590
 20
-494.127
 30
4827.750
 70
    32
  0
VERTEX
  8
T04SSILL
 62
7
 10
-334.105
 20
-487.136
 30
4827.750
 70
    32
  0
SEQEND
  8
T04SSILL
  0
POLYLINE
  8
T04SSILL
 62
7
 66
     1
 70
     9
  0
VERTEX
  8
T04SSILL
 62
7
 10
-296.839
 20
-559.247
 30
4827.750
 70
    32
  0
VERTEX
  8
T04SSILL
 62
7
 10
-300.820
 20
-560.872
 30
4827.750
 70
    32
  0
VERTEX
  8
T04SSILL
 62
7
 10
-303.625
 20
-559.783
 30
4827.750
 70
    32
  0
VERTEX
  8
T04SSILL
 62
7
 10
-313.952
 20
-532.366
 30
4827.750
 70
    32
  0
VERTEX
  8
T04SSILL
 62
7
 10
-313.308
 20
-529.997
 30
4827.750
 70
    32
  0
VERTEX
  8
T04SSILL
 62
7
 10
-311.034
 20
-531.256
 30
4827.750
 70
    32
  0
VERTEX
  8
T04SSILL
 62
7
 10
-304.413
 20
-529.838
 30
4827.750
 70
    32
  0
SEQEND
  8
T04SSILL
  0
POLYLINE
  8
T04SSILL
 62
7
 66
     1
 70
     9
  0
VERTEX
  8
T04SSILL
 62
7
 10
-275.156
 20
-594.194
 30
4827.750
 70
    32
  0
VERTEX
  8
T04SSILL
 62
7
 10
-280.432
 20
-593.691
 30
4827.750
 70
    32
  0
VERTEX
  8
T04SSILL
 62
7
 10
-292.343
 20
-580.959
 30
4827.750
 70
    32
  0
VERTEX
  8
T04SSILL
 62
7
 10
-298.453
 20
-569.089
 30
4827.750
 70
    32
  0
VERTEX
  8
T04SSILL
 62
7
 10
-295.323
 20
-564.988
 30
4827.750
 70
    32
  0
VERTEX
  8
T04SSILL
 62
7
 10
-289.055
 20
-563.566
 30
4827.750
 70
    32
  0
VERTEX
  8
T04SSILL
 62
7
 10
-284.679
 20
-580.610
 30
4827.750
 70
    32
  0
VERTEX
  8
T04SSILL
 62
7
 10
-278.939
 20
-579.181
 30
4827.750
 70
    32
  0
SEQEND
  8
T04SSILL
  0
POLYLINE
  8
T04SSILL
 62
7
 66
     1
 70
     9
  0
VERTEX
  8
T04SSILL
 62
7
 10
-235.519
 20
-674.256
 30
4827.750
 70
    32
  0
VERTEX
  8
T04SSILL
 62
7
 10
-237.994
 20
-675.107
 30
4827.750
 70
    32
  0
VERTEX
  8
T04SSILL
 62
7
 10
-240.607
 20
-672.699
 30
4827.750
 70
    32
  0
VERTEX
  8
T04SSILL
 62
7
 10
-261.275
 20
-626.407
 30
4827.750
 70
    32
  0
VERTEX
  8
T04SSILL
 62
7
 10
-271.638
 20
-609.379
 30
4827.750
 70
    32
  0
VERTEX
  8
T04SSILL
 62
7
 10
-266.695
 20
-600.898
 30
4827.750
 70
    32
  0
VERTEX
  8
T04SSILL
 62
7
 10
-261.132
 20
-599.555
 30
4827.750
 70
    32
  0
VERTEX
  8
T04SSILL
 62
7
 10
-256.411
 20
-617.132
 30
4827.750
 70
    32
  0
VERTEX
  8
T04SSILL
 62
7
 10
-251.385
 20
-616.487
 30
4827.750
 70
    32
  0
SEQEND
  8
T04SSILL
  0
POLYLINE
  8
T04SSILL
 62
7
 66
     1
 70
     9
  0
VERTEX
  8
T04SSILL
 62
7
 10
-79.286
 20
-729.820
 30
4827.750
 70
    32
  0
VERTEX
  8
T04SSILL
 62
7
 10
-98.302
 20
-692.704
 30
4827.750
 70
    32
  0
VERTEX
  8
T04SSILL
 62
7
 10
-104.052
 20
-695.013
 30
4827.750
 70
    32
  0
VERTEX
  8
T04SSILL
 62
7
 10
-111.962
 20
-678.983
 30
4827.750
 70
    32
  0
VERTEX
  8
T04SSILL
 62
7
 10
-84.766
 20
-664.955
 30
4827.750
 70
    32
  0
VERTEX
  8
T04SSILL
 62
7
 10
-82.372
 20
-670.970
 30
4827.750
 70
    32
  0
VERTEX
  8
T04SSILL
 62
7
 10
-77.140
 20
-667.863
 30
4827.750
 70
    32
  0
VERTEX
  8
T04SSILL
 62
7
 10
-100.435
 20
-627.702
 30
4827.750
 70
    32
  0
VERTEX
  8
T04SSILL
 62
7
 10
-111.960
 20
-634.345
 30
4827.750
 70
    32
  0
VERTEX
  8
T04SSILL
 62
7
 10
-120.059
 20
-619.457
 30
4827.750
 70
    32
  0
VERTEX
  8
T04SSILL
 62
7
 10
-141.240
 20
-631.179
 30
4827.750
 70
    32
  0
VERTEX
  8
T04SSILL
 62
7
 10
-155.983
 20
-604.855
 30
4827.750
 70
    32
  0
VERTEX
  8
T04SSILL
 62
7
 10
-166.354
 20
-610.719
 30
4827.750
 70
    32
  0
VERTEX
  8
T04SSILL
 62
7
 10
-169.464
 20
-605.751
 30
4827.750
 70
    32
  0
VERTEX
  8
T04SSILL
 62
7
 10
-174.689
 20
-608.242
 30
4827.750
 70
    32
  0
VERTEX
  8
T04SSILL
 62
7
 10
-177.450
 20
-603.543
 30
4827.750
 70
    32
  0
VERTEX
  8
T04SSILL
 62
7
 10
-198.630
 20
-615.089
 30
4827.750
 70
    32
  0
VERTEX
  8
T04SSILL
 62
7
 10
-201.559
 20
-609.684
 30
4827.750
 70
    32
  0
VERTEX
  8
T04SSILL
 62
7
 10
-213.020
 20
-618.352
 30
4827.750
 70
    32
  0
VERTEX
  8
T04SSILL
 62
7
 10
-207.367
 20
-616.834
 30
4827.750
 70
    32
  0
VERTEX
  8
T04SSILL
 62
7
 10
-205.408
 20
-622.404
 30
4827.750
 70
    32
  0
VERTEX
  8
T04SSILL
 62
7
 10
-188.280
 20
-618.382
 30
4827.750
 70
    32
  0
VERTEX
  8
T04SSILL
 62
7
 10
-186.935
 20
-623.769
 30
4827.750
 70
    32
  0
VERTEX
  8
T04SSILL
 62
7
 10
-163.623
 20
-617.971
 30
4827.750
 70
    32
  0
VERTEX
  8
T04SSILL
 62
7
 10
-142.493
 20
-699.486
 30
4827.750
 70
    32
  0
VERTEX
  8
T04SSILL
 62
7
 10
-136.133
 20
-697.801
 30
4827.750
 70
    32
  0
VERTEX
  8
T04SSILL
 62
7
 10
-134.710
 20
-703.981
 30
4827.750
 70
    32
  0
VERTEX
  8
T04SSILL
 62
7
 10
-129.320
 20
-702.372
 30
4827.750
 70
    32
  0
VERTEX
  8
T04SSILL
 62
7
 10
-126.025
 20
-714.033
 30
4827.750
 70
    32
  0
VERTEX
  8
T04SSILL
 62
7
 10
-141.840
 20
-718.687
 30
4827.750
 70
    32
  0
VERTEX
  8
T04SSILL
 62
7
 10
-138.262
 20
-728.767
 30
4827.750
 70
    32
  0
VERTEX
  8
T04SSILL
 62
7
 10
-142.955
 20
-731.000
 30
4827.750
 70
    32
  0
VERTEX
  8
T04SSILL
 62
7
 10
-135.956
 20
-749.573
 30
4827.750
 70
    32
  0
VERTEX
  8
T04SSILL
 62
7
 10
-123.230
 20
-745.498
 30
4827.750
 70
    32
  0
SEQEND
  8
T04SSILL
  0
POLYLINE
  8
T04SSILL
 62
7
 66
     1
 70
     9
  0
VERTEX
  8
T04SSILL
 62
7
 10
185.999
 20
-692.033
 30
4827.750
 70
    32
  0
VERTEX
  8
T04SSILL
 62
7
 10
367.052
 20
-814.981
 30
4827.750
 70
    32
  0
VERTEX
  8
T04SSILL
 62
7
 10
302.780
 20
-859.471
 30
4827.750
 70
    32
  0
SEQEND
  8
T04SSILL
  0
POLYLINE
  8
T04SSILL
 62
7
 66
     1
 70
     9
  0
VERTEX
  8
T04SSILL
 62
7
 10
373.338
 20
-819.458
 30
4827.750
 70
    32
  0
VERTEX
  8
T04SSILL
 62
7
 10
459.991
 20
-891.979
 30
4827.750
 70
    32
  0
VERTEX
  8
T04SSILL
 62
7
 10
400.659
 20
-965.319
 30
4827.750
 70
    32
  0
VERTEX
  8
T04SSILL
 62
7
 10
397.716
 20
-961.058
 30
4827.750
 70
    32
  0
VERTEX
  8
T04SSILL
 62
7
 10
393.094
 20
-964.700
 30
4827.750
 70
    32
  0
VERTEX
  8
T04SSILL
 62
7
 10
392.651
 20
-972.355
 30
4827.750
 70
    32
  0
VERTEX
  8
T04SSILL
 62
7
 10
390.050
 20
-976.374
 30
4827.750
 70
    32
  0
VERTEX
  8
T04SSILL
 62
7
 10
385.880
 20
-979.054
 30
4827.750
 70
    32
  0
VERTEX
  8
T04SSILL
 62
7
 10
308.411
 20
-867.198
 30
4827.750
 70
    32
  0
VERTEX
  8
T04SSILL
 62
7
 10
309.150
 20
-864.213
 30
4827.750
 70
    32
  0
SEQEND
  8
T04SSILL
  0
POLYLINE
  8
T04SSILL
 62
7
 66
     1
 70
     9
  0
VERTEX
  8
T04SSILL
 62
7
 10
392.423
 20
-806.390
 30
4827.750
 70
    32
  0
VERTEX
  8
T04SSILL
 62
7
 10
393.924
 20
-828.243
 30
4827.750
 70
    32
  0
VERTEX
  8
T04SSILL
 62
7
 10
379.291
 20
-814.950
 30
4827.750
 70
    32
  0
SEQEND
  8
T04SSILL
  0
POLYLINE
  8
T04SSILL
 62
7
 66
     1
 70
     9
  0
VERTEX
  8
T04SSILL
 62
7
 10
-66.458
 20
-895.841
 30
4827.750
 70
    32
  0
VERTEX
  8
T04SSILL
 62
7
 10
-8.239
 20
-871.886
 30
4827.750
 70
    32
  0
VERTEX
  8
T04SSILL
 62
7
 10
23.678
 20
-963.745
 30
4827.750
 70
    32
  0
VERTEX
  8
T04SSILL
 62
7
 10
-28.576
 20
-982.137
 30
4827.750
 70
    32
  0
VERTEX
  8
T04SSILL
 62
7
 10
-77.093
 20
-901.613
 30
4827.750
 70
    32
  0
SEQEND
  8
T04SSILL
  0
POLYLINE
  8
T04SSILL
 62
7
 66
     1
 70
     9
  0
VERTEX
  8
T04SSILL
 62
7
 10
295.868
 20
-864.170
 30
4827.750
 70
    32
  0
VERTEX
  8
T04SSILL
 62
7
 10
289.777
 20
-865.505
 30
4827.750
 70
    32
  0
VERTEX
  8
T04SSILL
 62
7
 10
283.369
 20
-871.328
 30
4827.750
 70
    32
  0
VERTEX
  8
T04SSILL
 62
7
 10
292.310
 20
-896.615
 30
4827.750
 70
    32
  0
VERTEX
  8
T04SSILL
 62
7
 10
296.644
 20
-894.994
 30
4827.750
 70
    32
  0
VERTEX
  8
T04SSILL
 62
7
 10
298.367
 20
-898.184
 30
4827.750
 70
    32
  0
VERTEX
  8
T04SSILL
 62
7
 10
312.485
 20
-888.228
 30
4827.750
 70
    32
  0
SEQEND
  8
T04SSILL
  0
POLYLINE
  8
T04SSILL
 62
7
 66
     1
 70
     9
  0
VERTEX
  8
T04SSILL
 62
7
 10
199.455
 20
-1033.732
 30
4827.750
 70
    32
  0
VERTEX
  8
T04SSILL
 62
7
 10
205.109
 20
-1032.127
 30
4827.750
 70
    32
  0
VERTEX
  8
T04SSILL
 62
7
 10
211.488
 20
-1058.264
 30
4827.750
 70
    32
  0
VERTEX
  8
T04SSILL
 62
7
 10
224.830
 20
-1076.297
 30
4827.750
 70
    32
  0
VERTEX
  8
T04SSILL
 62
7
 10
214.938
 20
-1078.908
 30
4827.750
 70
    32
  0
SEQEND
  8
T04SSILL
  0
POLYLINE
  8
T04SSILL
 62
7
 66
     1
 70
     9
  0
VERTEX
  8
T04SSILL
 62
7
 10
200.922
 20
-999.500
 30
4827.750
 70
    32
  0
VERTEX
  8
T04SSILL
 62
7
 10
195.383
 20
-984.114
 30
4827.750
 70
    32
  0
VERTEX
  8
T04SSILL
 62
7
 10
247.279
 20
-966.247
 30
4827.750
 70
    32
  0
VERTEX
  8
T04SSILL
 62
7
 10
238.913
 20
-944.312
 30
4827.750
 70
    32
  0
VERTEX
  8
T04SSILL
 62
7
 10
227.067
 20
-948.308
 30
4827.750
 70
    32
  0
VERTEX
  8
T04SSILL
 62
7
 10
228.932
 20
-954.317
 30
4827.750
 70
    32
  0
VERTEX
  8
T04SSILL
 62
7
 10
171.909
 20
-973.972
 30
4827.750
 70
    32
  0
VERTEX
  8
T04SSILL
 62
7
 10
176.179
 20
-985.029
 30
4827.750
 70
    32
  0
SEQEND
  8
T04SSILL
  0
POLYLINE
  8
T04SSILL
 62
7
 66
     1
 70
     9
  0
VERTEX
  8
T04SSILL
 62
7
 10
789.510
 20
-496.998
 30
4827.750
 70
    32
  0
VERTEX
  8
T04SSILL
 62
7
 10
795.540
 20
-479.787
 30
4827.750
 70
    32
  0
VERTEX
  8
T04SSILL
 62
7
 10
801.710
 20
-467.243
 30
4827.750
 70
    32
  0
VERTEX
  8
T04SSILL
 62
7
 10
824.282
 20
-486.167
 30
4827.750
 70
    32
  0
VERTEX
  8
T04SSILL
 62
7
 10
824.739
 20
-495.503
 30
4827.750
 70
    32
  0
VERTEX
  8
T04SSILL
 62
7
 10
823.537
 20
-503.154
 30
4827.750
 70
    32
  0
SEQEND
  8
T04SSILL
  0
POLYLINE
  8
T04SSILL
 62
7
 66
     1
 70
     9
  0
VERTEX
  8
T04SSILL
 62
7
 10
837.948
 20
-495.251
 30
4827.750
 70
    32
  0
VERTEX
  8
T04SSILL
 62
7
 10
872.131
 20
-538.828
 30
4827.750
 70
    32
  0
VERTEX
  8
T04SSILL
 62
7
 10
857.393
 20
-531.761
 30
4827.750
 70
    32
  0
VERTEX
  8
T04SSILL
 62
7
 10
836.543
 20
-517.956
 30
4827.750
 70
    32
  0
VERTEX
  8
T04SSILL
 62
7
 10
836.670
 20
-512.850
 30
4827.750
 70
    32
  0
SEQEND
  8
T04SSILL
  0
POLYLINE
  8
T04SSILL
 62
7
 66
     1
 70
     9
  0
VERTEX
  8
T04SSILL
 62
7
 10
810.025
 20
-427.158
 30
4827.750
 70
    32
  0
VERTEX
  8
T04SSILL
 62
7
 10
802.664
 20
-434.234
 30
4827.750
 70
    32
  0
VERTEX
  8
T04SSILL
 62
7
 10
799.345
 20
-442.309
 30
4827.750
 70
    32
  0
VERTEX
  8
T04SSILL
 62
7
 10
798.949
 20
-448.117
 30
4827.750
 70
    32
  0
VERTEX
  8
T04SSILL
 62
7
 10
804.787
 20
-456.173
 30
4827.750
 70
    32
  0
VERTEX
  8
T04SSILL
 62
7
 10
808.410
 20
-442.818
 30
4827.750
 70
    32
  0
SEQEND
  8
T04SSILL
  0
POLYLINE
  8
T04SSILL
 62
7
 66
     1
 70
     9
  0
VERTEX
  8
T04SSILL
 62
7
 10
756.331
 20
-448.762
 30
4827.750
 70
    32
  0
VERTEX
  8
T04SSILL
 62
7
 10
755.973
 20
-437.930
 30
4827.750
 70
    32
  0
VERTEX
  8
T04SSILL
 62
7
 10
759.242
 20
-424.749
 30
4827.750
 70
    32
  0
VERTEX
  8
T04SSILL
 62
7
 10
767.258
 20
-412.571
 30
4827.750
 70
    32
  0
VERTEX
  8
T04SSILL
 62
7
 10
772.819
 20
-422.298
 30
4827.750
 70
    32
  0
VERTEX
  8
T04SSILL
 62
7
 10
774.871
 20
-430.414
 30
4827.750
 70
    32
  0
SEQEND
  8
T04SSILL
  0
POLYLINE
  8
T04SSILL
 62
7
 66
     1
 70
     9
  0
VERTEX
  8
T04SSILL
 62
7
 10
772.214
 20
-397.553
 30
4827.750
 70
    32
  0
VERTEX
  8
T04SSILL
 62
7
 10
762.793
 20
-397.658
 30
4827.750
 70
    32
  0
VERTEX
  8
T04SSILL
 62
7
 10
768.054
 20
-365.562
 30
4827.750
 70
    32
  0
VERTEX
  8
T04SSILL
 62
7
 10
771.200
 20
-368.667
 30
4827.750
 70
    32
  0
VERTEX
  8
T04SSILL
 62
7
 10
775.368
 20
-376.447
 30
4827.750
 70
    32
  0
SEQEND
  8
T04SSILL
  0
POLYLINE
  8
T04SSILL
 62
7
 66
     1
 70
     9
  0
VERTEX
  8
T04SSILL
 62
7
 10
798.820
 20
-406.999
 30
4827.750
 70
    32
  0
VERTEX
  8
T04SSILL
 62
7
 10
792.723
 20
-398.325
 30
4827.750
 70
    32
  0
VERTEX
  8
T04SSILL
 62
7
 10
791.548
 20
-402.366
 30
4827.750
 70
    32
  0
VERTEX
  8
T04SSILL
 62
7
 10
782.162
 20
-409.338
 30
4827.750
 70
    32
  0
VERTEX
  8
T04SSILL
 62
7
 10
781.175
 20
-411.796
 30
4827.750
 70
    32
  0
VERTEX
  8
T04SSILL
 62
7
 10
784.627
 20
-420.979
 30
4827.750
 70
    32
  0
SEQEND
  8
T04SSILL
  0
POLYLINE
  8
T04SSILL
 62
7
 66
     1
 70
     9
  0
VERTEX
  8
T04SSILL
 62
7
 10
876.543
 20
-351.416
 30
4827.750
 70
    32
  0
VERTEX
  8
T04SSILL
 62
7
 10
886.836
 20
-340.929
 30
4827.750
 70
    32
  0
VERTEX
  8
T04SSILL
 62
7
 10
895.393
 20
-327.083
 30
4827.750
 70
    32
  0
VERTEX
  8
T04SSILL
 62
7
 10
896.925
 20
-322.428
 30
4827.750
 70
    32
  0
VERTEX
  8
T04SSILL
 62
7
 10
910.171
 20
-317.246
 30
4827.750
 70
    32
  0
VERTEX
  8
T04SSILL
 62
7
 10
916.049
 20
-308.310
 30
4827.750
 70
    32
  0
VERTEX
  8
T04SSILL
 62
7
 10
916.381
 20
-322.575
 30
4827.750
 70
    32
  0
VERTEX
  8
T04SSILL
 62
7
 10
914.276
 20
-333.124
 30
4827.750
 70
    32
  0
VERTEX
  8
T04SSILL
 62
7
 10
903.873
 20
-346.692
 30
4827.750
 70
    32
  0
VERTEX
  8
T04SSILL
 62
7
 10
893.081
 20
-353.302
 30
4827.750
 70
    32
  0
SEQEND
  8
T04SSILL
  0
POLYLINE
  8
T04SSILL
 62
7
 66
     1
 70
     9
  0
VERTEX
  8
T04SSILL
 62
7
 10
1014.678
 20
159.424
 30
4827.750
 70
    32
  0
VERTEX
  8
T04SSILL
 62
7
 10
1008.761
 20
168.713
 30
4827.750
 70
    32
  0
VERTEX
  8
T04SSILL
 62
7
 10
1001.395
 20
160.933
 30
4827.750
 70
    32
  0
VERTEX
  8
T04SSILL
 62
7
 10
1003.512
 20
149.912
 30
4827.750
 70
    32
  0
SEQEND
  8
T04SSILL
  0
POLYLINE
  8
T04SSILL
 62
7
 66
     1
 70
     9
  0
VERTEX
  8
T04SSILL
 62
7
 10
495.524
 20
-1136.477
 30
4827.750
 70
    32
  0
VERTEX
  8
T04SSILL
 62
7
 10
460.958
 20
-1088.806
 30
4827.750
 70
    32
  0
VERTEX
  8
T04SSILL
 62
7
 10
461.889
 20
-1084.051
 30
4827.750
 70
    32
  0
VERTEX
  8
T04SSILL
 62
7
 10
501.155
 20
-1054.560
 30
4827.750
 70
    32
  0
VERTEX
  8
T04SSILL
 62
7
 10
504.758
 20
-1054.093
 30
4827.750
 70
    32
  0
VERTEX
  8
T04SSILL
 62
7
 10
525.089
 20
-1068.100
 30
4827.750
 70
    32
  0
VERTEX
  8
T04SSILL
 62
7
 10
521.589
 20
-1070.501
 30
4827.750
 70
    32
  0
VERTEX
  8
T04SSILL
 62
7
 10
544.456
 20
-1106.035
 30
4827.750
 70
    32
  0
SEQEND
  8
T04SSILL
  0
POLYLINE
  8
T04SSILL
 62
7
 66
     1
 70
     9
  0
VERTEX
  8
T04SSILL
 62
7
 10
465.798
 20
-1253.927
 30
4827.750
 70
    32
  0
VERTEX
  8
T04SSILL
 62
7
 10
466.044
 20
-1251.639
 30
4827.750
 70
    32
  0
VERTEX
  8
T04SSILL
 62
7
 10
477.951
 20
-1256.211
 30
4827.750
 70
    32
  0
VERTEX
  8
T04SSILL
 62
7
 10
483.194
 20
-1263.559
 30
4827.750
 70
    32
  0
VERTEX
  8
T04SSILL
 62
7
 10
482.171
 20
-1267.876
 30
4827.750
 70
    32
  0
VERTEX
  8
T04SSILL
 62
7
 10
476.571
 20
-1271.611
 30
4827.750
 70
    32
  0
VERTEX
  8
T04SSILL
 62
7
 10
472.870
 20
-1270.584
 30
4827.750
 70
    32
  0
SEQEND
  8
T04SSILL
  0
POLYLINE
  8
T04SSILL
 62
7
 66
     1
 70
     9
  0
VERTEX
  8
T04SSILL
 62
7
 10
837.862
 20
-1074.469
 30
4827.750
 70
    32
  0
VERTEX
  8
T04SSILL
 62
7
 10
844.886
 20
-1084.705
 30
4827.750
 70
    32
  0
VERTEX
  8
T04SSILL
 62
7
 10
848.995
 20
-1081.421
 30
4827.750
 70
    32
  0
VERTEX
  8
T04SSILL
 62
7
 10
845.525
 20
-1076.082
 30
4827.750
 70
    32
  0
SEQEND
  8
T04SSILL
  0
POLYLINE
  8
T04SSILL
 62
7
 66
     1
 70
     9
  0
VERTEX
  8
T04SSILL
 62
7
 10
778.732
 20
-1540.745
 30
4827.750
 70
    32
  0
VERTEX
  8
T04SSILL
 62
7
 10
783.631
 20
-1537.278
 30
4827.750
 70
    32
  0
VERTEX
  8
T04SSILL
 62
7
 10
742.115
 20
-1477.524
 30
4827.750
 70
    32
  0
VERTEX
  8
T04SSILL
 62
7
 10
751.738
 20
-1470.680
 30
4827.750
 70
    32
  0
VERTEX
  8
T04SSILL
 62
7
 10
748.007
 20
-1465.783
 30
4827.750
 70
    32
  0
VERTEX
  8
T04SSILL
 62
7
 10
765.429
 20
-1455.188
 30
4827.750
 70
    32
  0
VERTEX
  8
T04SSILL
 62
7
 10
767.625
 20
-1454.907
 30
4827.750
 70
    32
  0
VERTEX
  8
T04SSILL
 62
7
 10
772.169
 20
-1462.700
 30
4827.750
 70
    32
  0
VERTEX
  8
T04SSILL
 62
7
 10
781.371
 20
-1458.410
 30
4827.750
 70
    32
  0
VERTEX
  8
T04SSILL
 62
7
 10
775.937
 20
-1449.217
 30
4827.750
 70
    32
  0
VERTEX
  8
T04SSILL
 62
7
 10
793.630
 20
-1439.587
 30
4827.750
 70
    32
  0
VERTEX
  8
T04SSILL
 62
7
 10
801.199
 20
-1452.194
 30
4827.750
 70
    32
  0
VERTEX
  8
T04SSILL
 62
7
 10
807.483
 20
-1445.815
 30
4827.750
 70
    32
  0
VERTEX
  8
T04SSILL
 62
7
 10
801.152
 20
-1434.078
 30
4827.750
 70
    32
  0
VERTEX
  8
T04SSILL
 62
7
 10
820.589
 20
-1422.500
 30
4827.750
 70
    32
  0
VERTEX
  8
T04SSILL
 62
7
 10
821.226
 20
-1425.398
 30
4827.750
 70
    32
  0
VERTEX
  8
T04SSILL
 62
7
 10
827.368
 20
-1423.505
 30
4827.750
 70
    32
  0
VERTEX
  8
T04SSILL
 62
7
 10
834.662
 20
-1446.403
 30
4827.750
 70
    32
  0
VERTEX
  8
T04SSILL
 62
7
 10
852.208
 20
-1440.644
 30
4827.750
 70
    32
  0
VERTEX
  8
T04SSILL
 62
7
 10
850.320
 20
-1435.118
 30
4827.750
 70
    32
  0
VERTEX
  8
T04SSILL
 62
7
 10
856.110
 20
-1433.316
 30
4827.750
 70
    32
  0
VERTEX
  8
T04SSILL
 62
7
 10
853.692
 20
-1427.441
 30
4827.750
 70
    32
  0
VERTEX
  8
T04SSILL
 62
7
 10
870.887
 20
-1421.860
 30
4827.750
 70
    32
  0
VERTEX
  8
T04SSILL
 62
7
 10
863.863
 20
-1399.839
 30
4827.750
 70
    32
  0
VERTEX
  8
T04SSILL
 62
7
 10
866.120
 20
-1395.953
 30
4827.750
 70
    32
  0
VERTEX
  8
T04SSILL
 62
7
 10
903.422
 20
-1374.304
 30
4827.750
 70
    32
  0
VERTEX
  8
T04SSILL
 62
7
 10
903.975
 20
-1377.642
 30
4827.750
 70
    32
  0
VERTEX
  8
T04SSILL
 62
7
 10
899.999
 20
-1422.258
 30
4827.750
 70
    32
  0
VERTEX
  8
T04SSILL
 62
7
 10
901.544
 20
-1428.843
 30
4827.750
 70
    32
  0
VERTEX
  8
T04SSILL
 62
7
 10
885.138
 20
-1434.154
 30
4827.750
 70
    32
  0
VERTEX
  8
T04SSILL
 62
7
 10
892.782
 20
-1456.786
 30
4827.750
 70
    32
  0
VERTEX
  8
T04SSILL
 62
7
 10
898.395
 20
-1454.721
 30
4827.750
 70
    32
  0
VERTEX
  8
T04SSILL
 62
7
 10
906.568
 20
-1477.437
 30
4827.750
 70
    32
  0
VERTEX
  8
T04SSILL
 62
7
 10
917.445
 20
-1473.751
 30
4827.750
 70
    32
  0
VERTEX
  8
T04SSILL
 62
7
 10
930.403
 20
-1513.052
 30
4827.750
 70
    32
  0
VERTEX
  8
T04SSILL
 62
7
 10
797.450
 20
-1562.415
 30
4827.750
 70
    32
  0
VERTEX
  8
T04SSILL
 62
7
 10
793.751
 20
-1561.651
 30
4827.750
 70
    32
  0
SEQEND
  8
T04SSILL
  0
POLYLINE
  8
T04SSILL
 62
7
 66
     1
 70
     9
  0
VERTEX
  8
T04SSILL
 62
7
 10
825.560
 20
-1675.739
 30
4827.750
 70
    32
  0
VERTEX
  8
T04SSILL
 62
7
 10
852.572
 20
-1736.394
 30
4827.750
 70
    32
  0
VERTEX
  8
T04SSILL
 62
7
 10
836.269
 20
-1743.639
 30
4827.750
 70
    32
  0
VERTEX
  8
T04SSILL
 62
7
 10
828.581
 20
-1726.987
 30
4827.750
 70
    32
  0
VERTEX
  8
T04SSILL
 62
7
 10
823.061
 20
-1729.667
 30
4827.750
 70
    32
  0
VERTEX
  8
T04SSILL
 62
7
 10
816.080
 20
-1713.537
 30
4827.750
 70
    32
  0
VERTEX
  8
T04SSILL
 62
7
 10
821.515
 20
-1711.122
 30
4827.750
 70
    32
  0
VERTEX
  8
T04SSILL
 62
7
 10
813.915
 20
-1694.382
 30
4827.750
 70
    32
  0
VERTEX
  8
T04SSILL
 62
7
 10
819.085
 20
-1691.881
 30
4827.750
 70
    32
  0
VERTEX
  8
T04SSILL
 62
7
 10
814.514
 20
-1680.482
 30
4827.750
 70
    32
  0
SEQEND
  8
T04SSILL
  0
POLYLINE
  8
T04SSILL
 62
7
 66
     1
 70
     9
  0
VERTEX
  8
T04SSILL
 62
7
 10
1202.450
 20
-1130.137
 30
4827.750
 70
    32
  0
VERTEX
  8
T04SSILL
 62
7
 10
1208.126
 20
-1112.946
 30
4827.750
 70
    32
  0
VERTEX
  8
T04SSILL
 62
7
 10
1206.610
 20
-1098.359
 30
4827.750
 70
    32
  0
VERTEX
  8
T04SSILL
 62
7
 10
1202.959
 20
-1092.318
 30
4827.750
 70
    32
  0
VERTEX
  8
T04SSILL
 62
7
 10
1161.676
 20
-1063.781
 30
4827.750
 70
    32
  0
VERTEX
  8
T04SSILL
 62
7
 10
1156.302
 20
-1062.502
 30
4827.750
 70
    32
  0
VERTEX
  8
T04SSILL
 62
7
 10
1151.578
 20
-1065.792
 30
4827.750
 70
    32
  0
VERTEX
  8
T04SSILL
 62
7
 10
1139.575
 20
-1083.558
 30
4827.750
 70
    32
  0
VERTEX
  8
T04SSILL
 62
7
 10
1137.948
 20
-1089.550
 30
4827.750
 70
    32
  0
VERTEX
  8
T04SSILL
 62
7
 10
1142.034
 20
-1094.972
 30
4827.750
 70
    32
  0
VERTEX
  8
T04SSILL
 62
7
 10
1165.541
 20
-1110.186
 30
4827.750
 70
    32
  0
SEQEND
  8
T04SSILL
  0
POLYLINE
  8
T04SSILL
 62
7
 66
     1
 70
     9
  0
VERTEX
  8
T04SSILL
 62
7
 10
-1155.876
 20
1041.248
 30
4827.750
 70
    32
  0
VERTEX
  8
T04SSILL
 62
7
 10
-1171.280
 20
1070.524
 30
4827.750
 70
    32
  0
VERTEX
  8
T04SSILL
 62
7
 10
-1159.279
 20
1077.675
 30
4827.750
 70
    32
  0
VERTEX
  8
T04SSILL
 62
7
 10
-1156.981
 20
1076.814
 30
4827.750
 70
    32
  0
VERTEX
  8
T04SSILL
 62
7
 10
-1142.117
 20
1048.766
 30
4827.750
 70
    32
  0
VERTEX
  8
T04SSILL
 62
7
 10
-1142.988
 20
1047.702
 30
4827.750
 70
    32
  0
SEQEND
  8
T04SSILL
  0
POLYLINE
  8
T04SSILL
 62
7
 66
     1
 70
     9
  0
VERTEX
  8
T04SSILL
 62
7
 10
-1068.617
 20
952.108
 30
4827.750
 70
    32
  0
VERTEX
  8
T04SSILL
 62
7
 10
-1070.240
 20
956.409
 30
4827.750
 70
    32
  0
VERTEX
  8
T04SSILL
 62
7
 10
-1076.063
 20
957.766
 30
4827.750
 70
    32
  0
VERTEX
  8
T04SSILL
 62
7
 10
-1087.745
 20
964.356
 30
4827.750
 70
    32
  0
VERTEX
  8
T04SSILL
 62
7
 10
-1095.499
 20
964.816
 30
4827.750
 70
    32
  0
VERTEX
  8
T04SSILL
 62
7
 10
-1111.281
 20
957.104
 30
4827.750
 70
    32
  0
VERTEX
  8
T04SSILL
 62
7
 10
-1103.748
 20
941.584
 30
4827.750
 70
    32
  0
SEQEND
  8
T04SSILL
  0
POLYLINE
  8
T04SSILL
 62
7
 66
     1
 70
     9
  0
VERTEX
  8
T04SSILL
 62
7
 10
-892.394
 20
574.955
 30
4827.750
 70
    32
  0
VERTEX
  8
T04SSILL
 62
7
 10
-910.793
 20
602.456
 30
4827.750
 70
    32
  0
VERTEX
  8
T04SSILL
 62
7
 10
-910.756
 20
605.007
 30
4827.750
 70
    32
  0
VERTEX
  8
T04SSILL
 62
7
 10
-902.081
 20
610.808
 30
4827.750
 70
    32
  0
VERTEX
  8
T04SSILL
 62
7
 10
-883.397
 20
582.257
 30
4827.750
 70
    32
  0
VERTEX
  8
T04SSILL
 62
7
 10
-883.878
 20
579.961
 30
4827.750
 70
    32
  0
SEQEND
  8
T04SSILL
  0
POLYLINE
  8
T04SSILL
 62
7
 66
     1
 70
     9
  0
VERTEX
  8
T04SSILL
 62
7
 10
-834.756
 20
497.861
 30
4827.750
 70
    32
  0
VERTEX
  8
T04SSILL
 62
7
 10
-837.948
 20
499.204
 30
4827.750
 70
    32
  0
VERTEX
  8
T04SSILL
 62
7
 10
-847.687
 20
493.822
 30
4827.750
 70
    32
  0
VERTEX
  8
T04SSILL
 62
7
 10
-848.170
 20
491.614
 30
4827.750
 70
    32
  0
VERTEX
  8
T04SSILL
 62
7
 10
-823.799
 20
442.516
 30
4827.750
 70
    32
  0
VERTEX
  8
T04SSILL
 62
7
 10
-815.336
 20
436.971
 30
4827.750
 70
    32
  0
VERTEX
  8
T04SSILL
 62
7
 10
-806.793
 20
436.263
 30
4827.750
 70
    32
  0
SEQEND
  8
T04SSILL
  0
POLYLINE
  8
T04SSILL
 62
7
 66
     1
 70
     9
  0
VERTEX
  8
T04SSILL
 62
7
 10
-628.198
 20
13.695
 30
4827.750
 70
    32
  0
VERTEX
  8
T04SSILL
 62
7
 10
-623.194
 20
14.059
 30
4827.750
 70
    32
  0
VERTEX
  8
T04SSILL
 62
7
 10
-619.308
 20
17.566
 30
4827.750
 70
    32
  0
VERTEX
  8
T04SSILL
 62
7
 10
-618.308
 20
24.708
 30
4827.750
 70
    32
  0
VERTEX
  8
T04SSILL
 62
7
 10
-620.141
 20
28.452
 30
4827.750
 70
    32
  0
VERTEX
  8
T04SSILL
 62
7
 10
-629.034
 20
33.461
 30
4827.750
 70
    32
  0
VERTEX
  8
T04SSILL
 62
7
 10
-633.704
 20
38.378
 30
4827.750
 70
    32
  0
VERTEX
  8
T04SSILL
 62
7
 10
-636.186
 20
43.780
 30
4827.750
 70
    32
  0
VERTEX
  8
T04SSILL
 62
7
 10
-656.110
 20
125.409
 30
4827.750
 70
    32
  0
VERTEX
  8
T04SSILL
 62
7
 10
-657.453
 20
126.613
 30
4827.750
 70
    32
  0
VERTEX
  8
T04SSILL
 62
7
 10
-667.320
 20
123.250
 30
4827.750
 70
    32
  0
VERTEX
  8
T04SSILL
 62
7
 10
-668.777
 20
121.375
 30
4827.750
 70
    32
  0
SEQEND
  8
T04SSILL
  0
POLYLINE
  8
T04SSILL
 62
7
 66
     1
 70
     9
  0
VERTEX
  8
T04SSILL
 62
7
 10
-656.093
 20
493.003
 30
4827.750
 70
    32
  0
VERTEX
  8
T04SSILL
 62
7
 10
-713.681
 20
431.623
 30
4827.750
 70
    32
  0
VERTEX
  8
T04SSILL
 62
7
 10
-766.489
 20
434.433
 30
4827.750
 70
    32
  0
VERTEX
  8
T04SSILL
 62
7
 10
-776.055
 20
433.538
 30
4827.750
 70
    32
  0
VERTEX
  8
T04SSILL
 62
7
 10
-780.196
 20
429.586
 30
4827.750
 70
    32
  0
VERTEX
  8
T04SSILL
 62
7
 10
-781.825
 20
423.136
 30
4827.750
 70
    32
  0
VERTEX
  8
T04SSILL
 62
7
 10
-752.598
 20
359.892
 30
4827.750
 70
    32
  0
VERTEX
  8
T04SSILL
 62
7
 10
-746.846
 20
362.381
 30
4827.750
 70
    32
  0
VERTEX
  8
T04SSILL
 62
7
 10
-733.045
 20
336.194
 30
4827.750
 70
    32
  0
VERTEX
  8
T04SSILL
 62
7
 10
-725.684
 20
315.504
 30
4827.750
 70
    32
  0
VERTEX
  8
T04SSILL
 62
7
 10
-709.142
 20
288.493
 30
4827.750
 70
    32
  0
VERTEX
  8
T04SSILL
 62
7
 10
-665.434
 20
230.902
 30
4827.750
 70
    32
  0
VERTEX
  8
T04SSILL
 62
7
 10
-644.821
 20
189.466
 30
4827.750
 70
    32
  0
VERTEX
  8
T04SSILL
 62
7
 10
-630.450
 20
147.992
 30
4827.750
 70
    32
  0
VERTEX
  8
T04SSILL
 62
7
 10
-612.633
 20
74.936
 30
4827.750
 70
    32
  0
VERTEX
  8
T04SSILL
 62
7
 10
-603.757
 20
57.618
 30
4827.750
 70
    32
  0
VERTEX
  8
T04SSILL
 62
7
 10
-592.105
 20
46.510
 30
4827.750
 70
    32
  0
VERTEX
  8
T04SSILL
 62
7
 10
-582.491
 20
44.944
 30
4827.750
 70
    32
  0
VERTEX
  8
T04SSILL
 62
7
 10
-527.856
 20
82.614
 30
4827.750
 70
    32
  0
VERTEX
  8
T04SSILL
 62
7
 10
-526.248
 20
90.119
 30
4827.750
 70
    32
  0
VERTEX
  8
T04SSILL
 62
7
 10
-516.963
 20
104.988
 30
4827.750
 70
    32
  0
VERTEX
  8
T04SSILL
 62
7
 10
-504.984
 20
103.909
 30
4827.750
 70
    32
  0
VERTEX
  8
T04SSILL
 62
7
 10
-488.605
 20
111.359
 30
4827.750
 70
    32
  0
VERTEX
  8
T04SSILL
 62
7
 10
-424.020
 20
157.053
 30
4827.750
 70
    32
  0
VERTEX
  8
T04SSILL
 62
7
 10
-424.014
 20
161.098
 30
4827.750
 70
    32
  0
SEQEND
  8
T04SSILL
  0
POLYLINE
  8
T04SSILL
 62
7
 66
     1
 70
     9
  0
VERTEX
  8
T04SSILL
 62
7
 10
-504.290
 20
-360.972
 30
4827.750
 70
    32
  0
VERTEX
  8
T04SSILL
 62
7
 10
-507.897
 20
-360.665
 30
4827.750
 70
    32
  0
VERTEX
  8
T04SSILL
 62
7
 10
-509.533
 20
-357.564
 30
4827.750
 70
    32
  0
VERTEX
  8
T04SSILL
 62
7
 10
-555.125
 20
-260.086
 30
4827.750
 70
    32
  0
VERTEX
  8
T04SSILL
 62
7
 10
-553.421
 20
-257.465
 30
4827.750
 70
    32
  0
VERTEX
  8
T04SSILL
 62
7
 10
-382.541
 20
-184.483
 30
4827.750
 70
    32
  0
VERTEX
  8
T04SSILL
 62
7
 10
-377.288
 20
-186.923
 30
4827.750
 70
    32
  0
VERTEX
  8
T04SSILL
 62
7
 10
-358.666
 20
-220.248
 30
4827.750
 70
    32
  0
VERTEX
  8
T04SSILL
 62
7
 10
-359.450
 20
-226.930
 30
4827.750
 70
    32
  0
VERTEX
  8
T04SSILL
 62
7
 10
-361.999
 20
-233.943
 30
4827.750
 70
    32
  0
VERTEX
  8
T04SSILL
 62
7
 10
-365.731
 20
-236.805
 30
4827.750
 70
    32
  0
VERTEX
  8
T04SSILL
 62
7
 10
-367.277
 20
-241.012
 30
4827.750
 70
    32
  0
VERTEX
  8
T04SSILL
 62
7
 10
-363.499
 20
-249.069
 30
4827.750
 70
    32
  0
VERTEX
  8
T04SSILL
 62
7
 10
-362.030
 20
-258.771
 30
4827.750
 70
    32
  0
VERTEX
  8
T04SSILL
 62
7
 10
-357.774
 20
-271.060
 30
4827.750
 70
    32
  0
VERTEX
  8
T04SSILL
 62
7
 10
-352.455
 20
-282.833
 30
4827.750
 70
    32
  0
VERTEX
  8
T04SSILL
 62
7
 10
-342.992
 20
-323.710
 30
4827.750
 70
    32
  0
VERTEX
  8
T04SSILL
 62
7
 10
-334.791
 20
-322.663
 30
4827.750
 70
    32
  0
VERTEX
  8
T04SSILL
 62
7
 10
-333.772
 20
-325.756
 30
4827.750
 70
    32
  0
VERTEX
  8
T04SSILL
 62
7
 10
-377.862
 20
-338.967
 30
4827.750
 70
    32
  0
VERTEX
  8
T04SSILL
 62
7
 10
-378.373
 20
-337.464
 30
4827.750
 70
    32
  0
VERTEX
  8
T04SSILL
 62
7
 10
-383.937
 20
-338.895
 30
4827.750
 70
    32
  0
VERTEX
  8
T04SSILL
 62
7
 10
-386.966
 20
-327.149
 30
4827.750
 70
    32
  0
VERTEX
  8
T04SSILL
 62
7
 10
-410.454
 20
-332.857
 30
4827.750
 70
    32
  0
VERTEX
  8
T04SSILL
 62
7
 10
-433.555
 20
-239.432
 30
4827.750
 70
    32
  0
VERTEX
  8
T04SSILL
 62
7
 10
-474.437
 20
-249.335
 30
4827.750
 70
    32
  0
VERTEX
  8
T04SSILL
 62
7
 10
-472.924
 20
-255.340
 30
4827.750
 70
    32
  0
VERTEX
  8
T04SSILL
 62
7
 10
-478.755
 20
-257.032
 30
4827.750
 70
    32
  0
VERTEX
  8
T04SSILL
 62
7
 10
-476.249
 20
-268.419
 30
4827.750
 70
    32
  0
VERTEX
  8
T04SSILL
 62
7
 10
-481.728
 20
-270.115
 30
4827.750
 70
    32
  0
VERTEX
  8
T04SSILL
 62
7
 10
-459.947
 20
-356.128
 30
4827.750
 70
    32
  0
VERTEX
  8
T04SSILL
 62
7
 10
-468.418
 20
-357.701
 30
4827.750
 70
    32
  0
SEQEND
  8
T04SSILL
  0
POLYLINE
  8
T04SSILL
 62
7
 66
     1
 70
     9
  0
VERTEX
  8
T04SSILL
 62
7
 10
-343.494
 20
-247.458
 30
4827.750
 70
    32
  0
VERTEX
  8
T04SSILL
 62
7
 10
-349.856
 20
-241.924
 30
4827.750
 70
    32
  0
VERTEX
  8
T04SSILL
 62
7
 10
-353.029
 20
-242.238
 30
4827.750
 70
    32
  0
VERTEX
  8
T04SSILL
 62
7
 10
-353.459
 20
-248.836
 30
4827.750
 70
    32
  0
VERTEX
  8
T04SSILL
 62
7
 10
-345.046
 20
-266.897
 30
4827.750
 70
    32
  0
VERTEX
  8
T04SSILL
 62
7
 10
-339.208
 20
-264.589
 30
4827.750
 70
    32
  0
VERTEX
  8
T04SSILL
 62
7
 10
-340.043
 20
-260.794
 30
4827.750
 70
    32
  0
SEQEND
  8
T04SSILL
  0
POLYLINE
  8
T04SSILL
 62
7
 66
     1
 70
     9
  0
VERTEX
  8
T04SSILL
 62
7
 10
-10.522
 20
-426.006
 30
4827.750
 70
    32
  0
VERTEX
  8
T04SSILL
 62
7
 10
-130.732
 20
-391.473
 30
4827.750
 70
    32
  0
VERTEX
  8
T04SSILL
 62
7
 10
-140.169
 20
-385.462
 30
4827.750
 70
    32
  0
VERTEX
  8
T04SSILL
 62
7
 10
-161.320
 20
-357.565
 30
4827.750
 70
    32
  0
VERTEX
  8
T04SSILL
 62
7
 10
-173.053
 20
-344.747
 30
4827.750
 70
    32
  0
VERTEX
  8
T04SSILL
 62
7
 10
-176.582
 20
-337.926
 30
4827.750
 70
    32
  0
VERTEX
  8
T04SSILL
 62
7
 10
-174.897
 20
-329.494
 30
4827.750
 70
    32
  0
VERTEX
  8
T04SSILL
 62
7
 10
-183.977
 20
-323.047
 30
4827.750
 70
    32
  0
VERTEX
  8
T04SSILL
 62
7
 10
-212.785
 20
-294.882
 30
4827.750
 70
    32
  0
VERTEX
  8
T04SSILL
 62
7
 10
-159.935
 20
-278.078
 30
4827.750
 70
    32
  0
VERTEX
  8
T04SSILL
 62
7
 10
-118.684
 20
-274.166
 30
4827.750
 70
    32
  0
VERTEX
  8
T04SSILL
 62
7
 10
-63.250
 20
-351.071
 30
4827.750
 70
    32
  0
SEQEND
  8
T04SSILL
  0
POLYLINE
  8
T04SSILL
 62
7
 66
     1
 70
     9
  0
VERTEX
  8
T04SSILL
 62
7
 10
-16.002
 20
-435.186
 30
4827.750
 70
    32
  0
VERTEX
  8
T04SSILL
 62
7
 10
-140.157
 20
-399.285
 30
4827.750
 70
    32
  0
VERTEX
  8
T04SSILL
 62
7
 10
-152.914
 20
-391.121
 30
4827.750
 70
    32
  0
VERTEX
  8
T04SSILL
 62
7
 10
-183.955
 20
-350.781
 30
4827.750
 70
    32
  0
VERTEX
  8
T04SSILL
 62
7
 10
-197.440
 20
-337.238
 30
4827.750
 70
    32
  0
VERTEX
  8
T04SSILL
 62
7
 10
-226.040
 20
-298.951
 30
4827.750
 70
    32
  0
VERTEX
  8
T04SSILL
 62
7
 10
-254.589
 20
-308.296
 30
4827.750
 70
    32
  0
VERTEX
  8
T04SSILL
 62
7
 10
-256.868
 20
-314.873
 30
4827.750
 70
    32
  0
VERTEX
  8
T04SSILL
 62
7
 10
-235.138
 20
-353.342
 30
4827.750
 70
    32
  0
VERTEX
  8
T04SSILL
 62
7
 10
-229.383
 20
-350.593
 30
4827.750
 70
    32
  0
VERTEX
  8
T04SSILL
 62
7
 10
-220.850
 20
-366.014
 30
4827.750
 70
    32
  0
VERTEX
  8
T04SSILL
 62
7
 10
-226.255
 20
-368.943
 30
4827.750
 70
    32
  0
VERTEX
  8
T04SSILL
 62
7
 10
-219.174
 20
-380.561
 30
4827.750
 70
    32
  0
VERTEX
  8
T04SSILL
 62
7
 10
-211.465
 20
-376.427
 30
4827.750
 70
    32
  0
VERTEX
  8
T04SSILL
 62
7
 10
-210.009
 20
-379.878
 30
4827.750
 70
    32
  0
VERTEX
  8
T04SSILL
 62
7
 10
-207.089
 20
-378.680
 30
4827.750
 70
    32
  0
VERTEX
  8
T04SSILL
 62
7
 10
-188.895
 20
-418.251
 30
4827.750
 70
    32
  0
VERTEX
  8
T04SSILL
 62
7
 10
-178.582
 20
-417.317
 30
4827.750
 70
    32
  0
VERTEX
  8
T04SSILL
 62
7
 10
-165.347
 20
-422.317
 30
4827.750
 70
    32
  0
VERTEX
  8
T04SSILL
 62
7
 10
-156.776
 20
-419.690
 30
4827.750
 70
    32
  0
VERTEX
  8
T04SSILL
 62
7
 10
-150.544
 20
-436.140
 30
4827.750
 70
    32
  0
VERTEX
  8
T04SSILL
 62
7
 10
-137.001
 20
-459.720
 30
4827.750
 70
    32
  0
VERTEX
  8
T04SSILL
 62
7
 10
-122.303
 20
-474.951
 30
4827.750
 70
    32
  0
VERTEX
  8
T04SSILL
 62
7
 10
-112.262
 20
-474.630
 30
4827.750
 70
    32
  0
VERTEX
  8
T04SSILL
 62
7
 10
-100.317
 20
-469.665
 30
4827.750
 70
    32
  0
VERTEX
  8
T04SSILL
 62
7
 10
-88.929
 20
-467.071
 30
4827.750
 70
    32
  0
SEQEND
  8
T04SSILL
  0
POLYLINE
  8
T04SSILL
 62
7
 66
     1
 70
     9
  0
VERTEX
  8
T04SSILL
 62
7
 10
-292.712
 20
-471.252
 30
4827.750
 70
    32
  0
VERTEX
  8
T04SSILL
 62
7
 10
-289.673
 20
-482.294
 30
4827.750
 70
    32
  0
VERTEX
  8
T04SSILL
 62
7
 10
-314.119
 20
-524.176
 30
4827.750
 70
    32
  0
VERTEX
  8
T04SSILL
 62
7
 10
-317.185
 20
-522.907
 30
4827.750
 70
    32
  0
VERTEX
  8
T04SSILL
 62
7
 10
-334.002
 20
-500.696
 30
4827.750
 70
    32
  0
VERTEX
  8
T04SSILL
 62
7
 10
-325.812
 20
-485.738
 30
4827.750
 70
    32
  0
VERTEX
  8
T04SSILL
 62
7
 10
-309.341
 20
-477.746
 30
4827.750
 70
    32
  0
SEQEND
  8
T04SSILL
  0
POLYLINE
  8
T04SSILL
 62
7
 66
     1
 70
     9
  0
VERTEX
  8
T04SSILL
 62
7
 10
-2.657
 20
-438.338
 30
4827.750
 70
    32
  0
VERTEX
  8
T04SSILL
 62
7
 10
-112.384
 20
-484.841
 30
4827.750
 70
    32
  0
VERTEX
  8
T04SSILL
 62
7
 10
-116.338
 20
-491.574
 30
4827.750
 70
    32
  0
VERTEX
  8
T04SSILL
 62
7
 10
-114.468
 20
-512.022
 30
4827.750
 70
    32
  0
VERTEX
  8
T04SSILL
 62
7
 10
-115.552
 20
-521.782
 30
4827.750
 70
    32
  0
VERTEX
  8
T04SSILL
 62
7
 10
-88.832
 20
-547.808
 30
4827.750
 70
    32
  0
VERTEX
  8
T04SSILL
 62
7
 10
-82.404
 20
-562.588
 30
4827.750
 70
    32
  0
VERTEX
  8
T04SSILL
 62
7
 10
-70.938
 20
-583.062
 30
4827.750
 70
    32
  0
VERTEX
  8
T04SSILL
 62
7
 10
-102.055
 20
-601.006
 30
4827.750
 70
    32
  0
VERTEX
  8
T04SSILL
 62
7
 10
-66.581
 20
-660.945
 30
4827.750
 70
    32
  0
VERTEX
  8
T04SSILL
 62
7
 10
-47.491
 20
-647.437
 30
4827.750
 70
    32
  0
VERTEX
  8
T04SSILL
 62
7
 10
-33.988
 20
-666.967
 30
4827.750
 70
    32
  0
VERTEX
  8
T04SSILL
 62
7
 10
-54.856
 20
-681.863
 30
4827.750
 70
    32
  0
VERTEX
  8
T04SSILL
 62
7
 10
-47.430
 20
-694.189
 30
4827.750
 70
    32
  0
VERTEX
  8
T04SSILL
 62
7
 10
-42.172
 20
-696.188
 30
4827.750
 70
    32
  0
VERTEX
  8
T04SSILL
 62
7
 10
-5.655
 20
-683.152
 30
4827.750
 70
    32
  0
VERTEX
  8
T04SSILL
 62
7
 10
1.365
 20
-692.568
 30
4827.750
 70
    32
  0
VERTEX
  8
T04SSILL
 62
7
 10
15.029
 20
-683.750
 30
4827.750
 70
    32
  0
VERTEX
  8
T04SSILL
 62
7
 10
39.806
 20
-717.677
 30
4827.750
 70
    32
  0
VERTEX
  8
T04SSILL
 62
7
 10
50.585
 20
-721.855
 30
4827.750
 70
    32
  0
VERTEX
  8
T04SSILL
 62
7
 10
59.045
 20
-721.251
 30
4827.750
 70
    32
  0
VERTEX
  8
T04SSILL
 62
7
 10
144.798
 20
-669.532
 30
4827.750
 70
    32
  0
VERTEX
  8
T04SSILL
 62
7
 10
-36.519
 20
-605.835
 30
4827.750
 70
    32
  0
VERTEX
  8
T04SSILL
 62
7
 10
-33.971
 20
-598.821
 30
4827.750
 70
    32
  0
VERTEX
  8
T04SSILL
 62
7
 10
152.256
 20
-664.250
 30
4827.750
 70
    32
  0
VERTEX
  8
T04SSILL
 62
7
 10
154.824
 20
-663.048
 30
4827.750
 70
    32
  0
VERTEX
  8
T04SSILL
 62
7
 10
153.368
 20
-659.597
 30
4827.750
 70
    32
  0
SEQEND
  8
T04SSILL
  0
POLYLINE
  8
T04SSILL
 62
7
 66
     1
 70
     9
  0
VERTEX
  8
T04SSILL
 62
7
 10
-138.934
 20
-496.412
 30
4827.750
 70
    32
  0
VERTEX
  8
T04SSILL
 62
7
 10
-131.760
 20
-492.799
 30
4827.750
 70
    32
  0
VERTEX
  8
T04SSILL
 62
7
 10
-126.819
 20
-491.889
 30
4827.750
 70
    32
  0
VERTEX
  8
T04SSILL
 62
7
 10
-122.182
 20
-494.410
 30
4827.750
 70
    32
  0
VERTEX
  8
T04SSILL
 62
7
 10
-120.149
 20
-515.917
 30
4827.750
 70
    32
  0
SEQEND
  8
T04SSILL
  0
POLYLINE
  8
T04SSILL
 62
7
 66
     1
 70
     9
  0
VERTEX
  8
T04SSILL
 62
7
 10
-87.274
 20
-564.907
 30
4827.750
 70
    32
  0
VERTEX
  8
T04SSILL
 62
7
 10
-91.210
 20
-555.264
 30
4827.750
 70
    32
  0
VERTEX
  8
T04SSILL
 62
7
 10
-132.076
 20
-511.989
 30
4827.750
 70
    32
  0
VERTEX
  8
T04SSILL
 62
7
 10
-138.590
 20
-511.911
 30
4827.750
 70
    32
  0
VERTEX
  8
T04SSILL
 62
7
 10
-155.838
 20
-518.574
 30
4827.750
 70
    32
  0
VERTEX
  8
T04SSILL
 62
7
 10
-160.310
 20
-524.420
 30
4827.750
 70
    32
  0
VERTEX
  8
T04SSILL
 62
7
 10
-153.477
 20
-534.714
 30
4827.750
 70
    32
  0
VERTEX
  8
T04SSILL
 62
7
 10
-158.705
 20
-537.557
 30
4827.750
 70
    32
  0
VERTEX
  8
T04SSILL
 62
7
 10
-146.985
 20
-558.915
 30
4827.750
 70
    32
  0
VERTEX
  8
T04SSILL
 62
7
 10
-152.299
 20
-561.581
 30
4827.750
 70
    32
  0
VERTEX
  8
T04SSILL
 62
7
 10
-140.387
 20
-581.621
 30
4827.750
 70
    32
  0
VERTEX
  8
T04SSILL
 62
7
 10
-130.992
 20
-576.362
 30
4827.750
 70
    32
  0
VERTEX
  8
T04SSILL
 62
7
 10
-127.348
 20
-580.895
 30
4827.750
 70
    32
  0
VERTEX
  8
T04SSILL
 62
7
 10
-121.941
 20
-577.790
 30
4827.750
 70
    32
  0
VERTEX
  8
T04SSILL
 62
7
 10
-119.449
 20
-583.014
 30
4827.750
 70
    32
  0
SEQEND
  8
T04SSILL
  0
POLYLINE
  8
T04SSILL
 62
7
 66
     1
 70
     9
  0
VERTEX
  8
T04SSILL
 62
7
 10
-81.504
 20
-738.686
 30
4827.750
 70
    32
  0
VERTEX
  8
T04SSILL
 62
7
 10
-78.657
 20
-743.562
 30
4827.750
 70
    32
  0
VERTEX
  8
T04SSILL
 62
7
 10
-73.252
 20
-740.721
 30
4827.750
 70
    32
  0
VERTEX
  8
T04SSILL
 62
7
 10
-51.293
 20
-782.099
 30
4827.750
 70
    32
  0
VERTEX
  8
T04SSILL
 62
7
 10
-113.979
 20
-811.641
 30
4827.750
 70
    32
  0
VERTEX
  8
T04SSILL
 62
7
 10
-116.553
 20
-805.975
 30
4827.750
 70
    32
  0
VERTEX
  8
T04SSILL
 62
7
 10
-122.309
 20
-808.812
 30
4827.750
 70
    32
  0
VERTEX
  8
T04SSILL
 62
7
 10
-124.621
 20
-803.326
 30
4827.750
 70
    32
  0
VERTEX
  8
T04SSILL
 62
7
 10
-130.462
 20
-805.810
 30
4827.750
 70
    32
  0
VERTEX
  8
T04SSILL
 62
7
 10
-136.459
 20
-791.828
 30
4827.750
 70
    32
  0
VERTEX
  8
T04SSILL
 62
7
 10
-121.952
 20
-786.189
 30
4827.750
 70
    32
  0
VERTEX
  8
T04SSILL
 62
7
 10
-133.489
 20
-756.822
 30
4827.750
 70
    32
  0
VERTEX
  8
T04SSILL
 62
7
 10
-117.841
 20
-751.373
 30
4827.750
 70
    32
  0
SEQEND
  8
T04SSILL
  0
POLYLINE
  8
T04SSILL
 62
7
 66
     1
 70
     9
  0
VERTEX
  8
T04SSILL
 62
7
 10
-13.500
 20
-713.610
 30
4827.750
 70
    32
  0
VERTEX
  8
T04SSILL
 62
7
 10
33.392
 20
-723.940
 30
4827.750
 70
    32
  0
VERTEX
  8
T04SSILL
 62
7
 10
50.270
 20
-726.165
 30
4827.750
 70
    32
  0
VERTEX
  8
T04SSILL
 62
7
 10
14.273
 20
-747.308
 30
4827.750
 70
    32
  0
VERTEX
  8
T04SSILL
 62
7
 10
8.656
 20
-745.833
 30
4827.750
 70
    32
  0
VERTEX
  8
T04SSILL
 62
7
 10
-4.073
 20
-727.897
 30
4827.750
 70
    32
  0
SEQEND
  8
T04SSILL
  0
POLYLINE
  8
T04SSILL
 62
7
 66
     1
 70
     9
  0
VERTEX
  8
T04SSILL
 62
7
 10
-21.347
 20
-714.485
 30
4827.750
 70
    32
  0
VERTEX
  8
T04SSILL
 62
7
 10
-47.609
 20
-724.034
 30
4827.750
 70
    32
  0
VERTEX
  8
T04SSILL
 62
7
 10
-35.826
 20
-747.505
 30
4827.750
 70
    32
  0
VERTEX
  8
T04SSILL
 62
7
 10
-40.963
 20
-750.085
 30
4827.750
 70
    32
  0
VERTEX
  8
T04SSILL
 62
7
 10
-27.960
 20
-774.628
 30
4827.750
 70
    32
  0
VERTEX
  8
T04SSILL
 62
7
 10
-9.574
 20
-761.024
 30
4827.750
 70
    32
  0
VERTEX
  8
T04SSILL
 62
7
 10
1.507
 20
-754.728
 30
4827.750
 70
    32
  0
VERTEX
  8
T04SSILL
 62
7
 10
4.096
 20
-751.677
 30
4827.750
 70
    32
  0
VERTEX
  8
T04SSILL
 62
7
 10
-12.006
 20
-728.595
 30
4827.750
 70
    32
  0
SEQEND
  8
T04SSILL
  0
POLYLINE
  8
T04SSILL
 62
7
 66
     1
 70
     9
  0
VERTEX
  8
T04SSILL
 62
7
 10
66.711
 20
-757.792
 30
4827.750
 70
    32
  0
VERTEX
  8
T04SSILL
 62
7
 10
54.067
 20
-732.638
 30
4827.750
 70
    32
  0
VERTEX
  8
T04SSILL
 62
7
 10
88.650
 20
-711.918
 30
4827.750
 70
    32
  0
VERTEX
  8
T04SSILL
 62
7
 10
90.021
 20
-715.104
 30
4827.750
 70
    32
  0
VERTEX
  8
T04SSILL
 62
7
 10
89.010
 20
-718.702
 30
4827.750
 70
    32
  0
VERTEX
  8
T04SSILL
 62
7
 10
95.054
 20
-721.327
 30
4827.750
 70
    32
  0
VERTEX
  8
T04SSILL
 62
7
 10
105.860
 20
-701.029
 30
4827.750
 70
    32
  0
VERTEX
  8
T04SSILL
 62
7
 10
159.852
 20
-669.623
 30
4827.750
 70
    32
  0
VERTEX
  8
T04SSILL
 62
7
 10
176.819
 20
-694.037
 30
4827.750
 70
    32
  0
VERTEX
  8
T04SSILL
 62
7
 10
173.247
 20
-698.220
 30
4827.750
 70
    32
  0
VERTEX
  8
T04SSILL
 62
7
 10
107.965
 20
-738.737
 30
4827.750
 70
    32
  0
VERTEX
  8
T04SSILL
 62
7
 10
105.882
 20
-736.247
 30
4827.750
 70
    32
  0
VERTEX
  8
T04SSILL
 62
7
 10
77.967
 20
-751.499
 30
4827.750
 70
    32
  0
SEQEND
  8
T04SSILL
  0
POLYLINE
  8
T04SSILL
 62
7
 66
     1
 70
     9
  0
VERTEX
  8
T04SSILL
 62
7
 10
207.130
 20
-736.394
 30
4827.750
 70
    32
  0
VERTEX
  8
T04SSILL
 62
7
 10
183.930
 20
-703.102
 30
4827.750
 70
    32
  0
VERTEX
  8
T04SSILL
 62
7
 10
179.644
 20
-700.762
 30
4827.750
 70
    32
  0
VERTEX
  8
T04SSILL
 62
7
 10
176.368
 20
-702.308
 30
4827.750
 70
    32
  0
VERTEX
  8
T04SSILL
 62
7
 10
146.191
 20
-744.914
 30
4827.750
 70
    32
  0
VERTEX
  8
T04SSILL
 62
7
 10
133.087
 20
-765.889
 30
4827.750
 70
    32
  0
VERTEX
  8
T04SSILL
 62
7
 10
135.111
 20
-773.397
 30
4827.750
 70
    32
  0
VERTEX
  8
T04SSILL
 62
7
 10
140.283
 20
-782.703
 30
4827.750
 70
    32
  0
SEQEND
  8
T04SSILL
  0
POLYLINE
  8
T04SSILL
 62
7
 66
     1
 70
     9
  0
VERTEX
  8
T04SSILL
 62
7
 10
-100.611
 20
-812.856
 30
4827.750
 70
    32
  0
VERTEX
  8
T04SSILL
 62
7
 10
-79.087
 20
-861.272
 30
4827.750
 70
    32
  0
VERTEX
  8
T04SSILL
 62
7
 10
-94.756
 20
-868.393
 30
4827.750
 70
    32
  0
VERTEX
  8
T04SSILL
 62
7
 10
-91.845
 20
-875.383
 30
4827.750
 70
    32
  0
VERTEX
  8
T04SSILL
 62
7
 10
-77.218
 20
-867.017
 30
4827.750
 70
    32
  0
VERTEX
  8
T04SSILL
 62
7
 10
-74.281
 20
-871.718
 30
4827.750
 70
    32
  0
VERTEX
  8
T04SSILL
 62
7
 10
-79.517
 20
-875.177
 30
4827.750
 70
    32
  0
VERTEX
  8
T04SSILL
 62
7
 10
-70.101
 20
-890.433
 30
4827.750
 70
    32
  0
VERTEX
  8
T04SSILL
 62
7
 10
-12.587
 20
-866.376
 30
4827.750
 70
    32
  0
VERTEX
  8
T04SSILL
 62
7
 10
-18.511
 20
-831.440
 30
4827.750
 70
    32
  0
VERTEX
  8
T04SSILL
 62
7
 10
-0.737
 20
-795.378
 30
4827.750
 70
    32
  0
VERTEX
  8
T04SSILL
 62
7
 10
7.260
 20
-789.222
 30
4827.750
 70
    32
  0
VERTEX
  8
T04SSILL
 62
7
 10
12.087
 20
-783.116
 30
4827.750
 70
    32
  0
VERTEX
  8
T04SSILL
 62
7
 10
12.492
 20
-756.444
 30
4827.750
 70
    32
  0
VERTEX
  8
T04SSILL
 62
7
 10
-20.876
 20
-778.586
 30
4827.750
 70
    32
  0
SEQEND
  8
T04SSILL
  0
POLYLINE
  8
T04SSILL
 62
7
 66
     1
 70
     9
  0
VERTEX
  8
T04SSILL
 62
7
 10
53.870
 20
-749.188
 30
4827.750
 70
    32
  0
VERTEX
  8
T04SSILL
 62
7
 10
46.530
 20
-737.126
 30
4827.750
 70
    32
  0
VERTEX
  8
T04SSILL
 62
7
 10
19.492
 20
-752.653
 30
4827.750
 70
    32
  0
VERTEX
  8
T04SSILL
 62
7
 10
18.249
 20
-760.914
 30
4827.750
 70
    32
  0
VERTEX
  8
T04SSILL
 62
7
 10
17.497
 20
-787.142
 30
4827.750
 70
    32
  0
VERTEX
  8
T04SSILL
 62
7
 10
0.657
 20
-804.023
 30
4827.750
 70
    32
  0
VERTEX
  8
T04SSILL
 62
7
 10
-13.435
 20
-834.054
 30
4827.750
 70
    32
  0
VERTEX
  8
T04SSILL
 62
7
 10
-14.097
 20
-837.920
 30
4827.750
 70
    32
  0
VERTEX
  8
T04SSILL
 62
7
 10
-4.721
 20
-863.828
 30
4827.750
 70
    32
  0
VERTEX
  8
T04SSILL
 62
7
 10
42.523
 20
-852.064
 30
4827.750
 70
    32
  0
VERTEX
  8
T04SSILL
 62
7
 10
40.042
 20
-845.959
 30
4827.750
 70
    32
  0
VERTEX
  8
T04SSILL
 62
7
 10
84.891
 20
-828.179
 30
4827.750
 70
    32
  0
VERTEX
  8
T04SSILL
 62
7
 10
83.267
 20
-824.110
 30
4827.750
 70
    32
  0
VERTEX
  8
T04SSILL
 62
7
 10
79.907
 20
-825.303
 30
4827.750
 70
    32
  0
VERTEX
  8
T04SSILL
 62
7
 10
76.888
 20
-820.072
 30
4827.750
 70
    32
  0
VERTEX
  8
T04SSILL
 62
7
 10
71.400
 20
-822.472
 30
4827.750
 70
    32
  0
VERTEX
  8
T04SSILL
 62
7
 10
42.879
 20
-770.187
 30
4827.750
 70
    32
  0
VERTEX
  8
T04SSILL
 62
7
 10
60.511
 20
-760.888
 30
4827.750
 70
    32
  0
VERTEX
  8
T04SSILL
 62
7
 10
56.891
 20
-754.330
 30
4827.750
 70
    32
  0
VERTEX
  8
T04SSILL
 62
7
 10
33.677
 20
-774.040
 30
4827.750
 70
    32
  0
VERTEX
  8
T04SSILL
 62
7
 10
29.952
 20
-768.889
 30
4827.750
 70
    32
  0
SEQEND
  8
T04SSILL
  0
POLYLINE
  8
T04SSILL
 62
7
 66
     1
 70
     9
  0
VERTEX
  8
T04SSILL
 62
7
 10
213.898
 20
-746.706
 30
4827.750
 70
    32
  0
VERTEX
  8
T04SSILL
 62
7
 10
197.834
 20
-757.343
 30
4827.750
 70
    32
  0
VERTEX
  8
T04SSILL
 62
7
 10
194.357
 20
-761.000
 30
4827.750
 70
    32
  0
VERTEX
  8
T04SSILL
 62
7
 10
199.562
 20
-782.192
 30
4827.750
 70
    32
  0
VERTEX
  8
T04SSILL
 62
7
 10
194.814
 20
-789.003
 30
4827.750
 70
    32
  0
VERTEX
  8
T04SSILL
 62
7
 10
194.161
 20
-792.077
 30
4827.750
 70
    32
  0
VERTEX
  8
T04SSILL
 62
7
 10
196.475
 20
-797.299
 30
4827.750
 70
    32
  0
VERTEX
  8
T04SSILL
 62
7
 10
182.337
 20
-808.927
 30
4827.750
 70
    32
  0
VERTEX
  8
T04SSILL
 62
7
 10
179.737
 20
-805.463
 30
4827.750
 70
    32
  0
VERTEX
  8
T04SSILL
 62
7
 10
183.328
 20
-799.695
 30
4827.750
 70
    32
  0
VERTEX
  8
T04SSILL
 62
7
 10
182.590
 20
-795.196
 30
4827.750
 70
    32
  0
VERTEX
  8
T04SSILL
 62
7
 10
188.140
 20
-787.514
 30
4827.750
 70
    32
  0
VERTEX
  8
T04SSILL
 62
7
 10
191.758
 20
-779.546
 30
4827.750
 70
    32
  0
VERTEX
  8
T04SSILL
 62
7
 10
190.509
 20
-773.544
 30
4827.750
 70
    32
  0
VERTEX
  8
T04SSILL
 62
7
 10
185.131
 20
-766.788
 30
4827.750
 70
    32
  0
VERTEX
  8
T04SSILL
 62
7
 10
140.122
 20
-797.769
 30
4827.750
 70
    32
  0
VERTEX
  8
T04SSILL
 62
7
 10
168.447
 20
-851.286
 30
4827.750
 70
    32
  0
VERTEX
  8
T04SSILL
 62
7
 10
178.522
 20
-848.149
 30
4827.750
 70
    32
  0
VERTEX
  8
T04SSILL
 62
7
 10
186.076
 20
-871.659
 30
4827.750
 70
    32
  0
VERTEX
  8
T04SSILL
 62
7
 10
171.228
 20
-876.412
 30
4827.750
 70
    32
  0
VERTEX
  8
T04SSILL
 62
7
 10
185.401
 20
-913.384
 30
4827.750
 70
    32
  0
VERTEX
  8
T04SSILL
 62
7
 10
189.234
 20
-916.775
 30
4827.750
 70
    32
  0
VERTEX
  8
T04SSILL
 62
7
 10
286.765
 20
-859.746
 30
4827.750
 70
    32
  0
VERTEX
  8
T04SSILL
 62
7
 10
289.386
 20
-854.055
 30
4827.750
 70
    32
  0
VERTEX
  8
T04SSILL
 62
7
 10
267.305
 20
-823.151
 30
4827.750
 70
    32
  0
VERTEX
  8
T04SSILL
 62
7
 10
263.785
 20
-823.021
 30
4827.750
 70
    32
  0
VERTEX
  8
T04SSILL
 62
7
 10
254.594
 20
-825.905
 30
4827.750
 70
    32
  0
VERTEX
  8
T04SSILL
 62
7
 10
250.775
 20
-821.281
 30
4827.750
 70
    32
  0
VERTEX
  8
T04SSILL
 62
7
 10
260.681
 20
-817.525
 30
4827.750
 70
    32
  0
VERTEX
  8
T04SSILL
 62
7
 10
261.430
 20
-813.836
 30
4827.750
 70
    32
  0
VERTEX
  8
T04SSILL
 62
7
 10
255.110
 20
-804.868
 30
4827.750
 70
    32
  0
SEQEND
  8
T04SSILL
  0
POLYLINE
  8
T04SSILL
 62
7
 66
     1
 70
     9
  0
VERTEX
  8
T04SSILL
 62
7
 10
316.637
 20
-894.353
 30
4827.750
 70
    32
  0
VERTEX
  8
T04SSILL
 62
7
 10
296.486
 20
-908.199
 30
4827.750
 70
    32
  0
VERTEX
  8
T04SSILL
 62
7
 10
304.993
 20
-933.041
 30
4827.750
 70
    32
  0
VERTEX
  8
T04SSILL
 62
7
 10
310.300
 20
-930.991
 30
4827.750
 70
    32
  0
VERTEX
  8
T04SSILL
 62
7
 10
319.597
 20
-956.019
 30
4827.750
 70
    32
  0
VERTEX
  8
T04SSILL
 62
7
 10
343.823
 20
-940.109
 30
4827.750
 70
    32
  0
VERTEX
  8
T04SSILL
 62
7
 10
345.524
 20
-937.752
 30
4827.750
 70
    32
  0
VERTEX
  8
T04SSILL
 62
7
 10
345.119
 20
-934.842
 30
4827.750
 70
    32
  0
SEQEND
  8
T04SSILL
  0
POLYLINE
  8
T04SSILL
 62
7
 66
     1
 70
     9
  0
VERTEX
  8
T04SSILL
 62
7
 10
212.188
 20
-1029.218
 30
4827.750
 70
    32
  0
VERTEX
  8
T04SSILL
 62
7
 10
217.186
 20
-1052.962
 30
4827.750
 70
    32
  0
VERTEX
  8
T04SSILL
 62
7
 10
232.953
 20
-1074.369
 30
4827.750
 70
    32
  0
VERTEX
  8
T04SSILL
 62
7
 10
280.748
 20
-1060.766
 30
4827.750
 70
    32
  0
VERTEX
  8
T04SSILL
 62
7
 10
379.092
 20
-1009.382
 30
4827.750
 70
    32
  0
VERTEX
  8
T04SSILL
 62
7
 10
387.268
 20
-1003.052
 30
4827.750
 70
    32
  0
VERTEX
  8
T04SSILL
 62
7
 10
388.478
 20
-997.520
 30
4827.750
 70
    32
  0
VERTEX
  8
T04SSILL
 62
7
 10
353.517
 20
-946.740
 30
4827.750
 70
    32
  0
VERTEX
  8
T04SSILL
 62
7
 10
350.105
 20
-944.939
 30
4827.750
 70
    32
  0
VERTEX
  8
T04SSILL
 62
7
 10
323.400
 20
-961.964
 30
4827.750
 70
    32
  0
SEQEND
  8
T04SSILL
  0
POLYLINE
  8
T04SSILL
 62
7
 66
     1
 70
     9
  0
VERTEX
  8
T04SSILL
 62
7
 10
352.690
 20
-1030.460
 30
4827.750
 70
    32
  0
VERTEX
  8
T04SSILL
 62
7
 10
382.016
 20
-1015.139
 30
4827.750
 70
    32
  0
VERTEX
  8
T04SSILL
 62
7
 10
390.595
 20
-1011.897
 30
4827.750
 70
    32
  0
VERTEX
  8
T04SSILL
 62
7
 10
399.822
 20
-1013.416
 30
4827.750
 70
    32
  0
VERTEX
  8
T04SSILL
 62
7
 10
396.511
 20
-1017.866
 30
4827.750
 70
    32
  0
VERTEX
  8
T04SSILL
 62
7
 10
379.070
 20
-1025.934
 30
4827.750
 70
    32
  0
VERTEX
  8
T04SSILL
 62
7
 10
365.195
 20
-1030.258
 30
4827.750
 70
    32
  0
SEQEND
  8
T04SSILL
  0
POLYLINE
  8
T04SSILL
 62
7
 66
     1
 70
     9
  0
VERTEX
  8
T04SSILL
 62
7
 10
282.060
 20
-1068.882
 30
4827.750
 70
    32
  0
VERTEX
  8
T04SSILL
 62
7
 10
268.104
 20
-1072.589
 30
4827.750
 70
    32
  0
VERTEX
  8
T04SSILL
 62
7
 10
286.223
 20
-1081.434
 30
4827.750
 70
    32
  0
VERTEX
  8
T04SSILL
 62
7
 10
405.751
 20
-1099.153
 30
4827.750
 70
    32
  0
VERTEX
  8
T04SSILL
 62
7
 10
443.973
 20
-1083.499
 30
4827.750
 70
    32
  0
VERTEX
  8
T04SSILL
 62
7
 10
445.603
 20
-1079.733
 30
4827.750
 70
    32
  0
VERTEX
  8
T04SSILL
 62
7
 10
420.768
 20
-1043.513
 30
4827.750
 70
    32
  0
VERTEX
  8
T04SSILL
 62
7
 10
418.235
 20
-1041.810
 30
4827.750
 70
    32
  0
VERTEX
  8
T04SSILL
 62
7
 10
379.523
 20
-1046.893
 30
4827.750
 70
    32
  0
SEQEND
  8
T04SSILL
  0
POLYLINE
  8
T04SSILL
 62
7
 66
     1
 70
     9
  0
VERTEX
  8
T04SSILL
 62
7
 10
198.699
 20
-1008.630
 30
4827.750
 70
    32
  0
VERTEX
  8
T04SSILL
 62
7
 10
197.586
 20
-1005.976
 30
4827.750
 70
    32
  0
VERTEX
  8
T04SSILL
 62
7
 10
156.590
 20
-981.273
 30
4827.750
 70
    32
  0
VERTEX
  8
T04SSILL
 62
7
 10
151.487
 20
-980.948
 30
4827.750
 70
    32
  0
VERTEX
  8
T04SSILL
 62
7
 10
88.158
 20
-1005.194
 30
4827.750
 70
    32
  0
VERTEX
  8
T04SSILL
 62
7
 10
101.797
 20
-1042.599
 30
4827.750
 70
    32
  0
SEQEND
  8
T04SSILL
  0
POLYLINE
  8
T04SSILL
 62
7
 66
     1
 70
     9
  0
VERTEX
  8
T04SSILL
 62
7
 10
183.947
 20
-931.856
 30
4827.750
 70
    32
  0
VERTEX
  8
T04SSILL
 62
7
 10
179.996
 20
-916.225
 30
4827.750
 70
    32
  0
VERTEX
  8
T04SSILL
 62
7
 10
165.042
 20
-878.363
 30
4827.750
 70
    32
  0
VERTEX
  8
T04SSILL
 62
7
 10
141.526
 20
-886.357
 30
4827.750
 70
    32
  0
VERTEX
  8
T04SSILL
 62
7
 10
160.254
 20
-939.936
 30
4827.750
 70
    32
  0
SEQEND
  8
T04SSILL
  0
POLYLINE
  8
T04SSILL
 62
7
 66
     1
 70
     9
  0
VERTEX
  8
T04SSILL
 62
7
 10
731.130
 20
-486.342
 30
4827.750
 70
    32
  0
VERTEX
  8
T04SSILL
 62
7
 10
780.370
 20
-494.903
 30
4827.750
 70
    32
  0
VERTEX
  8
T04SSILL
 62
7
 10
795.937
 20
-462.181
 30
4827.750
 70
    32
  0
VERTEX
  8
T04SSILL
 62
7
 10
779.368
 20
-441.101
 30
4827.750
 70
    32
  0
VERTEX
  8
T04SSILL
 62
7
 10
774.431
 20
-441.944
 30
4827.750
 70
    32
  0
VERTEX
  8
T04SSILL
 62
7
 10
764.310
 20
-453.137
 30
4827.750
 70
    32
  0
SEQEND
  8
T04SSILL
  0
POLYLINE
  8
T04SSILL
 62
7
 66
     1
 70
     9
  0
VERTEX
  8
T04SSILL
 62
7
 10
875.163
 20
-463.925
 30
4827.750
 70
    32
  0
VERTEX
  8
T04SSILL
 62
7
 10
887.526
 20
-459.000
 30
4827.750
 70
    32
  0
VERTEX
  8
T04SSILL
 62
7
 10
901.503
 20
-461.924
 30
4827.750
 70
    32
  0
VERTEX
  8
T04SSILL
 62
7
 10
899.742
 20
-473.620
 30
4827.750
 70
    32
  0
VERTEX
  8
T04SSILL
 62
7
 10
896.221
 20
-485.127
 30
4827.750
 70
    32
  0
VERTEX
  8
T04SSILL
 62
7
 10
897.810
 20
-496.145
 30
4827.750
 70
    32
  0
VERTEX
  8
T04SSILL
 62
7
 10
902.604
 20
-502.608
 30
4827.750
 70
    32
  0
VERTEX
  8
T04SSILL
 62
7
 10
893.952
 20
-517.422
 30
4827.750
 70
    32
  0
VERTEX
  8
T04SSILL
 62
7
 10
882.080
 20
-480.706
 30
4827.750
 70
    32
  0
SEQEND
  8
T04SSILL
  0
POLYLINE
  8
T04SSILL
 62
7
 66
     1
 70
     9
  0
VERTEX
  8
T04SSILL
 62
7
 10
794.973
 20
-391.827
 30
4827.750
 70
    32
  0
VERTEX
  8
T04SSILL
 62
7
 10
798.366
 20
-397.223
 30
4827.750
 70
    32
  0
VERTEX
  8
T04SSILL
 62
7
 10
805.114
 20
-401.324
 30
4827.750
 70
    32
  0
VERTEX
  8
T04SSILL
 62
7
 10
816.382
 20
-389.876
 30
4827.750
 70
    32
  0
VERTEX
  8
T04SSILL
 62
7
 10
821.216
 20
-379.347
 30
4827.750
 70
    32
  0
VERTEX
  8
T04SSILL
 62
7
 10
825.215
 20
-374.447
 30
4827.750
 70
    32
  0
VERTEX
  8
T04SSILL
 62
7
 10
825.634
 20
-365.646
 30
4827.750
 70
    32
  0
VERTEX
  8
T04SSILL
 62
7
 10
830.246
 20
-361.190
 30
4827.750
 70
    32
  0
VERTEX
  8
T04SSILL
 62
7
 10
830.114
 20
-355.467
 30
4827.750
 70
    32
  0
VERTEX
  8
T04SSILL
 62
7
 10
833.487
 20
-351.794
 30
4827.750
 70
    32
  0
VERTEX
  8
T04SSILL
 62
7
 10
832.140
 20
-343.596
 30
4827.750
 70
    32
  0
VERTEX
  8
T04SSILL
 62
7
 10
849.194
 20
-323.827
 30
4827.750
 70
    32
  0
VERTEX
  8
T04SSILL
 62
7
 10
855.158
 20
-315.332
 30
4827.750
 70
    32
  0
VERTEX
  8
T04SSILL
 62
7
 10
857.498
 20
-308.571
 30
4827.750
 70
    32
  0
VERTEX
  8
T04SSILL
 62
7
 10
864.290
 20
-306.949
 30
4827.750
 70
    32
  0
VERTEX
  8
T04SSILL
 62
7
 10
867.669
 20
-302.485
 30
4827.750
 70
    32
  0
VERTEX
  8
T04SSILL
 62
7
 10
868.587
 20
-297.561
 30
4827.750
 70
    32
  0
VERTEX
  8
T04SSILL
 62
7
 10
849.149
 20
-294.949
 30
4827.750
 70
    32
  0
VERTEX
  8
T04SSILL
 62
7
 10
835.987
 20
-300.660
 30
4827.750
 70
    32
  0
VERTEX
  8
T04SSILL
 62
7
 10
825.900
 20
-307.275
 30
4827.750
 70
    32
  0
VERTEX
  8
T04SSILL
 62
7
 10
813.382
 20
-321.003
 30
4827.750
 70
    32
  0
VERTEX
  8
T04SSILL
 62
7
 10
808.529
 20
-322.463
 30
4827.750
 70
    32
  0
VERTEX
  8
T04SSILL
 62
7
 10
799.275
 20
-312.092
 30
4827.750
 70
    32
  0
VERTEX
  8
T04SSILL
 62
7
 10
793.546
 20
-312.841
 30
4827.750
 70
    32
  0
VERTEX
  8
T04SSILL
 62
7
 10
790.355
 20
-315.634
 30
4827.750
 70
    32
  0
VERTEX
  8
T04SSILL
 62
7
 10
790.440
 20
-339.318
 30
4827.750
 70
    32
  0
VERTEX
  8
T04SSILL
 62
7
 10
792.306
 20
-348.665
 30
4827.750
 70
    32
  0
VERTEX
  8
T04SSILL
 62
7
 10
795.983
 20
-351.510
 30
4827.750
 70
    32
  0
VERTEX
  8
T04SSILL
 62
7
 10
797.573
 20
-385.595
 30
4827.750
 70
    32
  0
SEQEND
  8
T04SSILL
  0
POLYLINE
  8
T04SSILL
 62
7
 66
     1
 70
     9
  0
VERTEX
  8
T04SSILL
 62
7
 10
977.523
 20
-328.937
 30
4827.750
 70
    32
  0
VERTEX
  8
T04SSILL
 62
7
 10
967.316
 20
-328.155
 30
4827.750
 70
    32
  0
VERTEX
  8
T04SSILL
 62
7
 10
959.546
 20
-319.468
 30
4827.750
 70
    32
  0
VERTEX
  8
T04SSILL
 62
7
 10
954.207
 20
-315.378
 30
4827.750
 70
    32
  0
VERTEX
  8
T04SSILL
 62
7
 10
944.066
 20
-317.414
 30
4827.750
 70
    32
  0
VERTEX
  8
T04SSILL
 62
7
 10
933.595
 20
-316.542
 30
4827.750
 70
    32
  0
VERTEX
  8
T04SSILL
 62
7
 10
921.058
 20
-309.580
 30
4827.750
 70
    32
  0
VERTEX
  8
T04SSILL
 62
7
 10
928.299
 20
-295.108
 30
4827.750
 70
    32
  0
VERTEX
  8
T04SSILL
 62
7
 10
942.377
 20
-284.737
 30
4827.750
 70
    32
  0
VERTEX
  8
T04SSILL
 62
7
 10
947.792
 20
-278.791
 30
4827.750
 70
    32
  0
VERTEX
  8
T04SSILL
 62
7
 10
962.527
 20
-274.589
 30
4827.750
 70
    32
  0
VERTEX
  8
T04SSILL
 62
7
 10
989.214
 20
-261.672
 30
4827.750
 70
    32
  0
VERTEX
  8
T04SSILL
 62
7
 10
992.488
 20
-247.962
 30
4827.750
 70
    32
  0
VERTEX
  8
T04SSILL
 62
7
 10
996.277
 20
-247.463
 30
4827.750
 70
    32
  0
VERTEX
  8
T04SSILL
 62
7
 10
1006.978
 20
-264.448
 30
4827.750
 70
    32
  0
VERTEX
  8
T04SSILL
 62
7
 10
1009.737
 20
-283.750
 30
4827.750
 70
    32
  0
VERTEX
  8
T04SSILL
 62
7
 10
1008.155
 20
-295.096
 30
4827.750
 70
    32
  0
VERTEX
  8
T04SSILL
 62
7
 10
985.860
 20
-309.278
 30
4827.750
 70
    32
  0
VERTEX
  8
T04SSILL
 62
7
 10
980.983
 20
-313.908
 30
4827.750
 70
    32
  0
SEQEND
  8
T04SSILL
  0
POLYLINE
  8
T04SSILL
 62
7
 66
     1
 70
     9
  0
VERTEX
  8
T04SSILL
 62
7
 10
794.666
 20
-234.666
 30
4827.750
 70
    32
  0
VERTEX
  8
T04SSILL
 62
7
 10
799.084
 20
-232.587
 30
4827.750
 70
    32
  0
VERTEX
  8
T04SSILL
 62
7
 10
799.726
 20
-229.246
 30
4827.750
 70
    32
  0
VERTEX
  8
T04SSILL
 62
7
 10
816.657
 20
-225.676
 30
4827.750
 70
    32
  0
VERTEX
  8
T04SSILL
 62
7
 10
831.859
 20
-217.956
 30
4827.750
 70
    32
  0
VERTEX
  8
T04SSILL
 62
7
 10
854.326
 20
-215.837
 30
4827.750
 70
    32
  0
VERTEX
  8
T04SSILL
 62
7
 10
865.106
 20
-210.812
 30
4827.750
 70
    32
  0
VERTEX
  8
T04SSILL
 62
7
 10
861.421
 20
-197.489
 30
4827.750
 70
    32
  0
VERTEX
  8
T04SSILL
 62
7
 10
855.865
 20
-198.680
 30
4827.750
 70
    32
  0
VERTEX
  8
T04SSILL
 62
7
 10
852.223
 20
-179.723
 30
4827.750
 70
    32
  0
VERTEX
  8
T04SSILL
 62
7
 10
859.191
 20
-178.015
 30
4827.750
 70
    32
  0
VERTEX
  8
T04SSILL
 62
7
 10
856.664
 20
-151.318
 30
4827.750
 70
    32
  0
VERTEX
  8
T04SSILL
 62
7
 10
863.043
 20
-146.084
 30
4827.750
 70
    32
  0
VERTEX
  8
T04SSILL
 62
7
 10
864.627
 20
-122.852
 30
4827.750
 70
    32
  0
VERTEX
  8
T04SSILL
 62
7
 10
858.011
 20
-77.988
 30
4827.750
 70
    32
  0
VERTEX
  8
T04SSILL
 62
7
 10
860.212
 20
-78.005
 30
4827.750
 70
    32
  0
VERTEX
  8
T04SSILL
 62
7
 10
860.765
 20
-63.130
 30
4827.750
 70
    32
  0
VERTEX
  8
T04SSILL
 62
7
 10
842.611
 20
-65.369
 30
4827.750
 70
    32
  0
VERTEX
  8
T04SSILL
 62
7
 10
841.934
 20
-96.708
 30
4827.750
 70
    32
  0
VERTEX
  8
T04SSILL
 62
7
 10
834.899
 20
-95.598
 30
4827.750
 70
    32
  0
VERTEX
  8
T04SSILL
 62
7
 10
822.326
 20
-104.923
 30
4827.750
 70
    32
  0
VERTEX
  8
T04SSILL
 62
7
 10
819.441
 20
-125.416
 30
4827.750
 70
    32
  0
VERTEX
  8
T04SSILL
 62
7
 10
813.725
 20
-124.580
 30
4827.750
 70
    32
  0
VERTEX
  8
T04SSILL
 62
7
 10
816.250
 20
-105.053
 30
4827.750
 70
    32
  0
VERTEX
  8
T04SSILL
 62
7
 10
798.120
 20
-104.124
 30
4827.750
 70
    32
  0
VERTEX
  8
T04SSILL
 62
7
 10
772.837
 20
-199.020
 30
4827.750
 70
    32
  0
SEQEND
  8
T04SSILL
  0
POLYLINE
  8
T04SSILL
 62
7
 66
     1
 70
     9
  0
VERTEX
  8
T04SSILL
 62
7
 10
949.215
 20
-207.222
 30
4827.750
 70
    32
  0
VERTEX
  8
T04SSILL
 62
7
 10
932.257
 20
-202.604
 30
4827.750
 70
    32
  0
VERTEX
  8
T04SSILL
 62
7
 10
894.893
 20
-206.987
 30
4827.750
 70
    32
  0
VERTEX
  8
T04SSILL
 62
7
 10
889.982
 20
-204.485
 30
4827.750
 70
    32
  0
VERTEX
  8
T04SSILL
 62
7
 10
888.420
 20
-178.236
 30
4827.750
 70
    32
  0
VERTEX
  8
T04SSILL
 62
7
 10
873.178
 20
-179.529
 30
4827.750
 70
    32
  0
VERTEX
  8
T04SSILL
 62
7
 10
869.740
 20
-156.876
 30
4827.750
 70
    32
  0
VERTEX
  8
T04SSILL
 62
7
 10
870.775
 20
-148.168
 30
4827.750
 70
    32
  0
VERTEX
  8
T04SSILL
 62
7
 10
883.341
 20
-162.966
 30
4827.750
 70
    32
  0
VERTEX
  8
T04SSILL
 62
7
 10
925.257
 20
-196.828
 30
4827.750
 70
    32
  0
VERTEX
  8
T04SSILL
 62
7
 10
929.107
 20
-188.405
 30
4827.750
 70
    32
  0
VERTEX
  8
T04SSILL
 62
7
 10
914.570
 20
-178.082
 30
4827.750
 70
    32
  0
VERTEX
  8
T04SSILL
 62
7
 10
908.477
 20
-168.879
 30
4827.750
 70
    32
  0
VERTEX
  8
T04SSILL
 62
7
 10
909.219
 20
-163.866
 30
4827.750
 70
    32
  0
VERTEX
  8
T04SSILL
 62
7
 10
912.322
 20
-160.984
 30
4827.750
 70
    32
  0
VERTEX
  8
T04SSILL
 62
7
 10
892.732
 20
-131.958
 30
4827.750
 70
    32
  0
VERTEX
  8
T04SSILL
 62
7
 10
944.268
 20
-81.459
 30
4827.750
 70
    32
  0
VERTEX
  8
T04SSILL
 62
7
 10
951.303
 20
-82.568
 30
4827.750
 70
    32
  0
VERTEX
  8
T04SSILL
 62
7
 10
959.514
 20
-91.171
 30
4827.750
 70
    32
  0
VERTEX
  8
T04SSILL
 62
7
 10
966.713
 20
-117.198
 30
4827.750
 70
    32
  0
VERTEX
  8
T04SSILL
 62
7
 10
974.007
 20
-130.548
 30
4827.750
 70
    32
  0
VERTEX
  8
T04SSILL
 62
7
 10
988.281
 20
-140.781
 30
4827.750
 70
    32
  0
VERTEX
  8
T04SSILL
 62
7
 10
1009.565
 20
-143.672
 30
4827.750
 70
    32
  0
VERTEX
  8
T04SSILL
 62
7
 10
1029.836
 20
-141.008
 30
4827.750
 70
    32
  0
VERTEX
  8
T04SSILL
 62
7
 10
1040.836
 20
-141.707
 30
4827.750
 70
    32
  0
VERTEX
  8
T04SSILL
 62
7
 10
1041.497
 20
-159.057
 30
4827.750
 70
    32
  0
VERTEX
  8
T04SSILL
 62
7
 10
1032.451
 20
-167.705
 30
4827.750
 70
    32
  0
VERTEX
  8
T04SSILL
 62
7
 10
988.097
 20
-176.614
 30
4827.750
 70
    32
  0
VERTEX
  8
T04SSILL
 62
7
 10
977.291
 20
-185.248
 30
4827.750
 70
    32
  0
SEQEND
  8
T04SSILL
  0
POLYLINE
  8
T04SSILL
 62
7
 66
     1
 70
     9
  0
VERTEX
  8
T04SSILL
 62
7
 10
809.095
 20
-61.594
 30
4827.750
 70
    32
  0
VERTEX
  8
T04SSILL
 62
7
 10
835.590
 20
-62.411
 30
4827.750
 70
    32
  0
VERTEX
  8
T04SSILL
 62
7
 10
834.262
 20
-86.613
 30
4827.750
 70
    32
  0
VERTEX
  8
T04SSILL
 62
7
 10
816.212
 20
-98.450
 30
4827.750
 70
    32
  0
VERTEX
  8
T04SSILL
 62
7
 10
799.490
 20
-97.619
 30
4827.750
 70
    32
  0
SEQEND
  8
T04SSILL
  0
POLYLINE
  8
T04SSILL
 62
7
 66
     1
 70
     9
  0
VERTEX
  8
T04SSILL
 62
7
 10
894.311
 20
-121.140
 30
4827.750
 70
    32
  0
VERTEX
  8
T04SSILL
 62
7
 10
884.736
 20
-118.250
 30
4827.750
 70
    32
  0
VERTEX
  8
T04SSILL
 62
7
 10
878.370
 20
-110.190
 30
4827.750
 70
    32
  0
VERTEX
  8
T04SSILL
 62
7
 10
871.048
 20
-77.118
 30
4827.750
 70
    32
  0
VERTEX
  8
T04SSILL
 62
7
 10
866.463
 20
-78.052
 30
4827.750
 70
    32
  0
VERTEX
  8
T04SSILL
 62
7
 10
867.551
 20
-62.212
 30
4827.750
 70
    32
  0
VERTEX
  8
T04SSILL
 62
7
 10
881.033
 20
-60.730
 30
4827.750
 70
    32
  0
VERTEX
  8
T04SSILL
 62
7
 10
878.296
 20
-73.475
 30
4827.750
 70
    32
  0
VERTEX
  8
T04SSILL
 62
7
 10
885.073
 20
-73.703
 30
4827.750
 70
    32
  0
VERTEX
  8
T04SSILL
 62
7
 10
887.139
 20
-56.638
 30
4827.750
 70
    32
  0
VERTEX
  8
T04SSILL
 62
7
 10
886.774
 20
-46.774
 30
4827.750
 70
    32
  0
VERTEX
  8
T04SSILL
 62
7
 10
890.730
 20
-35.975
 30
4827.750
 70
    32
  0
VERTEX
  8
T04SSILL
 62
7
 10
940.775
 20
-7.828
 30
4827.750
 70
    32
  0
VERTEX
  8
T04SSILL
 62
7
 10
950.312
 20
-4.114
 30
4827.750
 70
    32
  0
VERTEX
  8
T04SSILL
 62
7
 10
968.421
 20
-7.861
 30
4827.750
 70
    32
  0
VERTEX
  8
T04SSILL
 62
7
 10
970.487
 20
-2.418
 30
4827.750
 70
    32
  0
VERTEX
  8
T04SSILL
 62
7
 10
984.393
 20
-14.673
 30
4827.750
 70
    32
  0
VERTEX
  8
T04SSILL
 62
7
 10
988.710
 20
-25.975
 30
4827.750
 70
    32
  0
SEQEND
  8
T04SSILL
  0
POLYLINE
  8
T04SSILL
 62
7
 66
     1
 70
     9
  0
VERTEX
  8
T04SSILL
 62
7
 10
811.436
 20
-54.832
 30
4827.750
 70
    32
  0
VERTEX
  8
T04SSILL
 62
7
 10
856.179
 20
110.263
 30
4827.750
 70
    32
  0
VERTEX
  8
T04SSILL
 62
7
 10
974.734
 20
128.295
 30
4827.750
 70
    32
  0
VERTEX
  8
T04SSILL
 62
7
 10
991.939
 20
109.851
 30
4827.750
 70
    32
  0
VERTEX
  8
T04SSILL
 62
7
 10
1002.971
 20
101.668
 30
4827.750
 70
    32
  0
VERTEX
  8
T04SSILL
 62
7
 10
1008.999
 20
95.459
 30
4827.750
 70
    32
  0
VERTEX
  8
T04SSILL
 62
7
 10
1008.227
 20
86.573
 30
4827.750
 70
    32
  0
VERTEX
  8
T04SSILL
 62
7
 10
1001.304
 20
79.141
 30
4827.750
 70
    32
  0
VERTEX
  8
T04SSILL
 62
7
 10
969.027
 20
60.544
 30
4827.750
 70
    32
  0
VERTEX
  8
T04SSILL
 62
7
 10
962.108
 20
53.817
 30
4827.750
 70
    32
  0
VERTEX
  8
T04SSILL
 62
7
 10
963.074
 20
30.126
 30
4827.750
 70
    32
  0
VERTEX
  8
T04SSILL
 62
7
 10
961.718
 20
13.937
 30
4827.750
 70
    32
  0
VERTEX
  8
T04SSILL
 62
7
 10
966.891
 20
-0.542
 30
4827.750
 70
    32
  0
VERTEX
  8
T04SSILL
 62
7
 10
951.689
 20
3.271
 30
4827.750
 70
    32
  0
VERTEX
  8
T04SSILL
 62
7
 10
943.234
 20
2.895
 30
4827.750
 70
    32
  0
VERTEX
  8
T04SSILL
 62
7
 10
933.859
 20
8.953
 30
4827.750
 70
    32
  0
VERTEX
  8
T04SSILL
 62
7
 10
925.904
 20
16.497
 30
4827.750
 70
    32
  0
VERTEX
  8
T04SSILL
 62
7
 10
918.596
 20
16.464
 30
4827.750
 70
    32
  0
VERTEX
  8
T04SSILL
 62
7
 10
921.587
 20
4.468
 30
4827.750
 70
    32
  0
VERTEX
  8
T04SSILL
 62
7
 10
920.945
 20
-10.495
 30
4827.750
 70
    32
  0
VERTEX
  8
T04SSILL
 62
7
 10
883.545
 20
-31.342
 30
4827.750
 70
    32
  0
VERTEX
  8
T04SSILL
 62
7
 10
888.693
 20
-14.301
 30
4827.750
 70
    32
  0
VERTEX
  8
T04SSILL
 62
7
 10
882.783
 20
-4.131
 30
4827.750
 70
    32
  0
VERTEX
  8
T04SSILL
 62
7
 10
862.725
 20
-13.664
 30
4827.750
 70
    32
  0
VERTEX
  8
T04SSILL
 62
7
 10
849.187
 20
-22.454
 30
4827.750
 70
    32
  0
VERTEX
  8
T04SSILL
 62
7
 10
839.518
 20
-55.309
 30
4827.750
 70
    32
  0
SEQEND
  8
T04SSILL
  0
POLYLINE
  8
T04SSILL
 62
7
 66
     1
 70
     9
  0
VERTEX
  8
T04SSILL
 62
7
 10
1021.632
 20
89.553
 30
4827.750
 70
    32
  0
VERTEX
  8
T04SSILL
 62
7
 10
1017.345
 20
93.107
 30
4827.750
 70
    32
  0
VERTEX
  8
T04SSILL
 62
7
 10
1016.193
 20
103.769
 30
4827.750
 70
    32
  0
VERTEX
  8
T04SSILL
 62
7
 10
1021.804
 20
112.179
 30
4827.750
 70
    32
  0
VERTEX
  8
T04SSILL
 62
7
 10
1031.290
 20
120.823
 30
4827.750
 70
    32
  0
VERTEX
  8
T04SSILL
 62
7
 10
1044.102
 20
126.889
 30
4827.750
 70
    32
  0
VERTEX
  8
T04SSILL
 62
7
 10
1059.845
 20
124.657
 30
4827.750
 70
    32
  0
VERTEX
  8
T04SSILL
 62
7
 10
1065.638
 20
122.324
 30
4827.750
 70
    32
  0
VERTEX
  8
T04SSILL
 62
7
 10
1065.815
 20
110.789
 30
4827.750
 70
    32
  0
VERTEX
  8
T04SSILL
 62
7
 10
1032.966
 20
98.007
 30
4827.750
 70
    32
  0
SEQEND
  8
T04SSILL
  0
POLYLINE
  8
T04SSILL
 62
7
 66
     1
 70
     9
  0
VERTEX
  8
T04SSILL
 62
7
 10
1052.218
 20
187.138
 30
4827.750
 70
    32
  0
VERTEX
  8
T04SSILL
 62
7
 10
1032.104
 20
170.209
 30
4827.750
 70
    32
  0
VERTEX
  8
T04SSILL
 62
7
 10
1020.072
 20
162.553
 30
4827.750
 70
    32
  0
VERTEX
  8
T04SSILL
 62
7
 10
1010.143
 20
176.803
 30
4827.750
 70
    32
  0
VERTEX
  8
T04SSILL
 62
7
 10
994.532
 20
161.513
 30
4827.750
 70
    32
  0
VERTEX
  8
T04SSILL
 62
7
 10
998.066
 20
151.538
 30
4827.750
 70
    32
  0
VERTEX
  8
T04SSILL
 62
7
 10
997.318
 20
145.821
 30
4827.750
 70
    32
  0
VERTEX
  8
T04SSILL
 62
7
 10
981.569
 20
135.639
 30
4827.750
 70
    32
  0
VERTEX
  8
T04SSILL
 62
7
 10
956.094
 20
131.518
 30
4827.750
 70
    32
  0
VERTEX
  8
T04SSILL
 62
7
 10
1029.174
 20
225.083
 30
4827.750
 70
    32
  0
VERTEX
  8
T04SSILL
 62
7
 10
1054.656
 20
230.084
 30
4827.750
 70
    32
  0
VERTEX
  8
T04SSILL
 62
7
 10
1064.137
 20
237.937
 30
4827.750
 70
    32
  0
VERTEX
  8
T04SSILL
 62
7
 10
1072.005
 20
242.279
 30
4827.750
 70
    32
  0
VERTEX
  8
T04SSILL
 62
7
 10
1081.502
 20
240.711
 30
4827.750
 70
    32
  0
VERTEX
  8
T04SSILL
 62
7
 10
1084.205
 20
237.256
 30
4827.750
 70
    32
  0
VERTEX
  8
T04SSILL
 62
7
 10
1076.497
 20
184.401
 30
4827.750
 70
    32
  0
SEQEND
  8
T04SSILL
  0
POLYLINE
  8
T04SSILL
 62
7
 66
     1
 70
     9
  0
VERTEX
  8
T04SSILL
 62
7
 10
430.636
 20
-1173.722
 30
4827.750
 70
    32
  0
VERTEX
  8
T04SSILL
 62
7
 10
436.339
 20
-1171.921
 30
4827.750
 70
    32
  0
VERTEX
  8
T04SSILL
 62
7
 10
438.314
 20
-1165.574
 30
4827.750
 70
    32
  0
VERTEX
  8
T04SSILL
 62
7
 10
487.290
 20
-1140.936
 30
4827.750
 70
    32
  0
VERTEX
  8
T04SSILL
 62
7
 10
491.000
 20
-1143.019
 30
4827.750
 70
    32
  0
VERTEX
  8
T04SSILL
 62
7
 10
540.146
 20
-1211.774
 30
4827.750
 70
    32
  0
VERTEX
  8
T04SSILL
 62
7
 10
520.113
 20
-1225.907
 30
4827.750
 70
    32
  0
VERTEX
  8
T04SSILL
 62
7
 10
526.781
 20
-1235.619
 30
4827.750
 70
    32
  0
VERTEX
  8
T04SSILL
 62
7
 10
492.054
 20
-1260.591
 30
4827.750
 70
    32
  0
VERTEX
  8
T04SSILL
 62
7
 10
489.502
 20
-1260.258
 30
4827.750
 70
    32
  0
VERTEX
  8
T04SSILL
 62
7
 10
482.213
 20
-1249.935
 30
4827.750
 70
    32
  0
VERTEX
  8
T04SSILL
 62
7
 10
459.455
 20
-1240.783
 30
4827.750
 70
    32
  0
VERTEX
  8
T04SSILL
 62
7
 10
442.660
 20
-1217.428
 30
4827.750
 70
    32
  0
VERTEX
  8
T04SSILL
 62
7
 10
443.423
 20
-1213.641
 30
4827.750
 70
    32
  0
SEQEND
  8
T04SSILL
  0
POLYLINE
  8
T04SSILL
 62
7
 66
     1
 70
     9
  0
VERTEX
  8
T04SSILL
 62
7
 10
531.973
 20
-1189.058
 30
4827.750
 70
    32
  0
VERTEX
  8
T04SSILL
 62
7
 10
502.901
 20
-1146.887
 30
4827.750
 70
    32
  0
VERTEX
  8
T04SSILL
 62
7
 10
505.084
 20
-1144.760
 30
4827.750
 70
    32
  0
VERTEX
  8
T04SSILL
 62
7
 10
520.226
 20
-1135.237
 30
4827.750
 70
    32
  0
VERTEX
  8
T04SSILL
 62
7
 10
523.169
 20
-1140.668
 30
4827.750
 70
    32
  0
VERTEX
  8
T04SSILL
 62
7
 10
558.359
 20
-1118.858
 30
4827.750
 70
    32
  0
VERTEX
  8
T04SSILL
 62
7
 10
564.893
 20
-1134.112
 30
4827.750
 70
    32
  0
VERTEX
  8
T04SSILL
 62
7
 10
550.282
 20
-1144.246
 30
4827.750
 70
    32
  0
VERTEX
  8
T04SSILL
 62
7
 10
557.302
 20
-1153.956
 30
4827.750
 70
    32
  0
VERTEX
  8
T04SSILL
 62
7
 10
562.463
 20
-1150.135
 30
4827.750
 70
    32
  0
VERTEX
  8
T04SSILL
 62
7
 10
565.748
 20
-1154.420
 30
4827.750
 70
    32
  0
VERTEX
  8
T04SSILL
 62
7
 10
545.193
 20
-1169.348
 30
4827.750
 70
    32
  0
VERTEX
  8
T04SSILL
 62
7
 10
550.166
 20
-1175.731
 30
4827.750
 70
    32
  0
SEQEND
  8
T04SSILL
  0
POLYLINE
  8
T04SSILL
 62
7
 66
     1
 70
     9
  0
VERTEX
  8
T04SSILL
 62
7
 10
840.608
 20
-1088.871
 30
4827.750
 70
    32
  0
VERTEX
  8
T04SSILL
 62
7
 10
805.589
 20
-1121.759
 30
4827.750
 70
    32
  0
VERTEX
  8
T04SSILL
 62
7
 10
668.194
 20
-1294.451
 30
4827.750
 70
    32
  0
VERTEX
  8
T04SSILL
 62
7
 10
662.930
 20
-1296.161
 30
4827.750
 70
    32
  0
VERTEX
  8
T04SSILL
 62
7
 10
651.247
 20
-1309.792
 30
4827.750
 70
    32
  0
VERTEX
  8
T04SSILL
 62
7
 10
633.661
 20
-1333.580
 30
4827.750
 70
    32
  0
VERTEX
  8
T04SSILL
 62
7
 10
604.950
 20
-1292.813
 30
4827.750
 70
    32
  0
VERTEX
  8
T04SSILL
 62
7
 10
610.378
 20
-1289.519
 30
4827.750
 70
    32
  0
VERTEX
  8
T04SSILL
 62
7
 10
589.143
 20
-1260.568
 30
4827.750
 70
    32
  0
VERTEX
  8
T04SSILL
 62
7
 10
583.622
 20
-1263.072
 30
4827.750
 70
    32
  0
VERTEX
  8
T04SSILL
 62
7
 10
561.220
 20
-1230.964
 30
4827.750
 70
    32
  0
VERTEX
  8
T04SSILL
 62
7
 10
580.471
 20
-1218.069
 30
4827.750
 70
    32
  0
VERTEX
  8
T04SSILL
 62
7
 10
597.451
 20
-1242.478
 30
4827.750
 70
    32
  0
VERTEX
  8
T04SSILL
 62
7
 10
616.871
 20
-1228.702
 30
4827.750
 70
    32
  0
VERTEX
  8
T04SSILL
 62
7
 10
606.824
 20
-1214.090
 30
4827.750
 70
    32
  0
VERTEX
  8
T04SSILL
 62
7
 10
611.285
 20
-1210.891
 30
4827.750
 70
    32
  0
VERTEX
  8
T04SSILL
 62
7
 10
604.614
 20
-1200.739
 30
4827.750
 70
    32
  0
VERTEX
  8
T04SSILL
 62
7
 10
609.426
 20
-1197.450
 30
4827.750
 70
    32
  0
VERTEX
  8
T04SSILL
 62
7
 10
592.791
 20
-1172.070
 30
4827.750
 70
    32
  0
VERTEX
  8
T04SSILL
 62
7
 10
596.902
 20
-1169.050
 30
4827.750
 70
    32
  0
VERTEX
  8
T04SSILL
 62
7
 10
591.025
 20
-1159.332
 30
4827.750
 70
    32
  0
VERTEX
  8
T04SSILL
 62
7
 10
595.745
 20
-1155.427
 30
4827.750
 70
    32
  0
VERTEX
  8
T04SSILL
 62
7
 10
573.899
 20
-1127.097
 30
4827.750
 70
    32
  0
VERTEX
  8
T04SSILL
 62
7
 10
568.908
 20
-1130.036
 30
4827.750
 70
    32
  0
VERTEX
  8
T04SSILL
 62
7
 10
564.398
 20
-1114.944
 30
4827.750
 70
    32
  0
VERTEX
  8
T04SSILL
 62
7
 10
579.631
 20
-1105.684
 30
4827.750
 70
    32
  0
VERTEX
  8
T04SSILL
 62
7
 10
575.813
 20
-1100.876
 30
4827.750
 70
    32
  0
VERTEX
  8
T04SSILL
 62
7
 10
580.978
 20
-1097.671
 30
4827.750
 70
    32
  0
VERTEX
  8
T04SSILL
 62
7
 10
574.660
 20
-1087.781
 30
4827.750
 70
    32
  0
VERTEX
  8
T04SSILL
 62
7
 10
579.819
 20
-1083.785
 30
4827.750
 70
    32
  0
VERTEX
  8
T04SSILL
 62
7
 10
570.475
 20
-1069.080
 30
4827.750
 70
    32
  0
VERTEX
  8
T04SSILL
 62
7
 10
560.233
 20
-1075.401
 30
4827.750
 70
    32
  0
VERTEX
  8
T04SSILL
 62
7
 10
547.325
 20
-1054.567
 30
4827.750
 70
    32
  0
VERTEX
  8
T04SSILL
 62
7
 10
533.673
 20
-1063.463
 30
4827.750
 70
    32
  0
VERTEX
  8
T04SSILL
 62
7
 10
511.056
 20
-1049.561
 30
4827.750
 70
    32
  0
VERTEX
  8
T04SSILL
 62
7
 10
511.906
 20
-1045.685
 30
4827.750
 70
    32
  0
VERTEX
  8
T04SSILL
 62
7
 10
566.301
 20
-1004.825
 30
4827.750
 70
    32
  0
VERTEX
  8
T04SSILL
 62
7
 10
828.256
 20
-1071.814
 30
4827.750
 70
    32
  0
SEQEND
  8
T04SSILL
  0
POLYLINE
  8
T04SSILL
 62
7
 66
     1
 70
     9
  0
VERTEX
  8
T04SSILL
 62
7
 10
531.045
 20
-1241.391
 30
4827.750
 70
    32
  0
VERTEX
  8
T04SSILL
 62
7
 10
546.710
 20
-1230.985
 30
4827.750
 70
    32
  0
VERTEX
  8
T04SSILL
 62
7
 10
553.046
 20
-1231.641
 30
4827.750
 70
    32
  0
VERTEX
  8
T04SSILL
 62
7
 10
617.300
 20
-1333.175
 30
4827.750
 70
    32
  0
VERTEX
  8
T04SSILL
 62
7
 10
617.245
 20
-1337.572
 30
4827.750
 70
    32
  0
VERTEX
  8
T04SSILL
 62
7
 10
591.518
 20
-1354.738
 30
4827.750
 70
    32
  0
VERTEX
  8
T04SSILL
 62
7
 10
587.034
 20
-1354.859
 30
4827.750
 70
    32
  0
VERTEX
  8
T04SSILL
 62
7
 10
533.218
 20
-1308.476
 30
4827.750
 70
    32
  0
VERTEX
  8
T04SSILL
 62
7
 10
496.346
 20
-1269.968
 30
4827.750
 70
    32
  0
VERTEX
  8
T04SSILL
 62
7
 10
497.107
 20
-1265.917
 30
4827.750
 70
    32
  0
SEQEND
  8
T04SSILL
  0
POLYLINE
  8
T04SSILL
 62
7
 66
     1
 70
     9
  0
VERTEX
  8
T04SSILL
 62
7
 10
468.546
 20
-1292.162
 30
4827.750
 70
    32
  0
VERTEX
  8
T04SSILL
 62
7
 10
468.853
 20
-1286.180
 30
4827.750
 70
    32
  0
VERTEX
  8
T04SSILL
 62
7
 10
487.047
 20
-1273.028
 30
4827.750
 70
    32
  0
VERTEX
  8
T04SSILL
 62
7
 10
491.186
 20
-1273.876
 30
4827.750
 70
    32
  0
VERTEX
  8
T04SSILL
 62
7
 10
532.140
 20
-1317.278
 30
4827.750
 70
    32
  0
VERTEX
  8
T04SSILL
 62
7
 10
574.450
 20
-1353.722
 30
4827.750
 70
    32
  0
VERTEX
  8
T04SSILL
 62
7
 10
572.154
 20
-1364.292
 30
4827.750
 70
    32
  0
VERTEX
  8
T04SSILL
 62
7
 10
562.369
 20
-1372.896
 30
4827.750
 70
    32
  0
VERTEX
  8
T04SSILL
 62
7
 10
546.657
 20
-1376.883
 30
4827.750
 70
    32
  0
VERTEX
  8
T04SSILL
 62
7
 10
509.233
 20
-1370.391
 30
4827.750
 70
    32
  0
VERTEX
  8
T04SSILL
 62
7
 10
496.882
 20
-1353.422
 30
4827.750
 70
    32
  0
VERTEX
  8
T04SSILL
 62
7
 10
506.767
 20
-1346.489
 30
4827.750
 70
    32
  0
SEQEND
  8
T04SSILL
  0
POLYLINE
  8
T04SSILL
 62
7
 66
     1
 70
     9
  0
VERTEX
  8
T04SSILL
 62
7
 10
859.933
 20
-1391.690
 30
4827.750
 70
    32
  0
VERTEX
  8
T04SSILL
 62
7
 10
855.643
 20
-1394.360
 30
4827.750
 70
    32
  0
VERTEX
  8
T04SSILL
 62
7
 10
853.940
 20
-1389.976
 30
4827.750
 70
    32
  0
VERTEX
  8
T04SSILL
 62
7
 10
848.322
 20
-1391.425
 30
4827.750
 70
    32
  0
VERTEX
  8
T04SSILL
 62
7
 10
844.186
 20
-1379.320
 30
4827.750
 70
    32
  0
VERTEX
  8
T04SSILL
 62
7
 10
850.330
 20
-1377.691
 30
4827.750
 70
    32
  0
VERTEX
  8
T04SSILL
 62
7
 10
839.173
 20
-1344.004
 30
4827.750
 70
    32
  0
VERTEX
  8
T04SSILL
 62
7
 10
833.472
 20
-1345.981
 30
4827.750
 70
    32
  0
VERTEX
  8
T04SSILL
 62
7
 10
827.452
 20
-1328.878
 30
4827.750
 70
    32
  0
VERTEX
  8
T04SSILL
 62
7
 10
834.033
 20
-1326.982
 30
4827.750
 70
    32
  0
VERTEX
  8
T04SSILL
 62
7
 10
830.161
 20
-1314.786
 30
4827.750
 70
    32
  0
VERTEX
  8
T04SSILL
 62
7
 10
823.932
 20
-1316.768
 30
4827.750
 70
    32
  0
VERTEX
  8
T04SSILL
 62
7
 10
817.999
 20
-1299.575
 30
4827.750
 70
    32
  0
VERTEX
  8
T04SSILL
 62
7
 10
790.189
 20
-1308.665
 30
4827.750
 70
    32
  0
VERTEX
  8
T04SSILL
 62
7
 10
798.235
 20
-1337.978
 30
4827.750
 70
    32
  0
VERTEX
  8
T04SSILL
 62
7
 10
805.085
 20
-1336.696
 30
4827.750
 70
    32
  0
VERTEX
  8
T04SSILL
 62
7
 10
816.681
 20
-1370.291
 30
4827.750
 70
    32
  0
VERTEX
  8
T04SSILL
 62
7
 10
810.625
 20
-1371.920
 30
4827.750
 70
    32
  0
VERTEX
  8
T04SSILL
 62
7
 10
824.030
 20
-1412.273
 30
4827.750
 70
    32
  0
VERTEX
  8
T04SSILL
 62
7
 10
818.330
 20
-1414.514
 30
4827.750
 70
    32
  0
VERTEX
  8
T04SSILL
 62
7
 10
815.273
 20
-1417.351
 30
4827.750
 70
    32
  0
VERTEX
  8
T04SSILL
 62
7
 10
795.568
 20
-1428.316
 30
4827.750
 70
    32
  0
VERTEX
  8
T04SSILL
 62
7
 10
793.080
 20
-1424.816
 30
4827.750
 70
    32
  0
VERTEX
  8
T04SSILL
 62
7
 10
787.825
 20
-1427.758
 30
4827.750
 70
    32
  0
VERTEX
  8
T04SSILL
 62
7
 10
789.615
 20
-1431.878
 30
4827.750
 70
    32
  0
VERTEX
  8
T04SSILL
 62
7
 10
771.491
 20
-1442.654
 30
4827.750
 70
    32
  0
VERTEX
  8
T04SSILL
 62
7
 10
767.050
 20
-1436.707
 30
4827.750
 70
    32
  0
VERTEX
  8
T04SSILL
 62
7
 10
759.610
 20
-1441.424
 30
4827.750
 70
    32
  0
VERTEX
  8
T04SSILL
 62
7
 10
762.038
 20
-1448.617
 30
4827.750
 70
    32
  0
VERTEX
  8
T04SSILL
 62
7
 10
746.451
 20
-1457.616
 30
4827.750
 70
    32
  0
VERTEX
  8
T04SSILL
 62
7
 10
741.877
 20
-1457.386
 30
4827.750
 70
    32
  0
VERTEX
  8
T04SSILL
 62
7
 10
739.037
 20
-1453.978
 30
4827.750
 70
    32
  0
VERTEX
  8
T04SSILL
 62
7
 10
738.443
 20
-1421.619
 30
4827.750
 70
    32
  0
VERTEX
  8
T04SSILL
 62
7
 10
704.054
 20
-1385.820
 30
4827.750
 70
    32
  0
VERTEX
  8
T04SSILL
 62
7
 10
687.614
 20
-1363.077
 30
4827.750
 70
    32
  0
VERTEX
  8
T04SSILL
 62
7
 10
654.759
 20
-1344.327
 30
4827.750
 70
    32
  0
VERTEX
  8
T04SSILL
 62
7
 10
656.031
 20
-1337.986
 30
4827.750
 70
    32
  0
VERTEX
  8
T04SSILL
 62
7
 10
664.290
 20
-1336.957
 30
4827.750
 70
    32
  0
VERTEX
  8
T04SSILL
 62
7
 10
675.267
 20
-1346.636
 30
4827.750
 70
    32
  0
VERTEX
  8
T04SSILL
 62
7
 10
683.200
 20
-1337.255
 30
4827.750
 70
    32
  0
VERTEX
  8
T04SSILL
 62
7
 10
673.992
 20
-1328.969
 30
4827.750
 70
    32
  0
VERTEX
  8
T04SSILL
 62
7
 10
677.738
 20
-1324.280
 30
4827.750
 70
    32
  0
VERTEX
  8
T04SSILL
 62
7
 10
669.154
 20
-1317.045
 30
4827.750
 70
    32
  0
VERTEX
  8
T04SSILL
 62
7
 10
672.812
 20
-1312.269
 30
4827.750
 70
    32
  0
VERTEX
  8
T04SSILL
 62
7
 10
668.036
 20
-1308.611
 30
4827.750
 70
    32
  0
VERTEX
  8
T04SSILL
 62
7
 10
671.949
 20
-1302.690
 30
4827.750
 70
    32
  0
VERTEX
  8
T04SSILL
 62
7
 10
672.715
 20
-1299.254
 30
4827.750
 70
    32
  0
VERTEX
  8
T04SSILL
 62
7
 10
806.374
 20
-1132.746
 30
4827.750
 70
    32
  0
VERTEX
  8
T04SSILL
 62
7
 10
813.699
 20
-1124.425
 30
4827.750
 70
    32
  0
VERTEX
  8
T04SSILL
 62
7
 10
843.914
 20
-1095.881
 30
4827.750
 70
    32
  0
VERTEX
  8
T04SSILL
 62
7
 10
848.857
 20
-1098.219
 30
4827.750
 70
    32
  0
VERTEX
  8
T04SSILL
 62
7
 10
861.301
 20
-1115.890
 30
4827.750
 70
    32
  0
VERTEX
  8
T04SSILL
 62
7
 10
989.040
 20
-1310.257
 30
4827.750
 70
    32
  0
VERTEX
  8
T04SSILL
 62
7
 10
988.202
 20
-1315.804
 30
4827.750
 70
    32
  0
VERTEX
  8
T04SSILL
 62
7
 10
946.963
 20
-1340.208
 30
4827.750
 70
    32
  0
SEQEND
  8
T04SSILL
  0
POLYLINE
  8
T04SSILL
 62
7
 66
     1
 70
     9
  0
VERTEX
  8
T04SSILL
 62
7
 10
731.784
 20
-1424.923
 30
4827.750
 70
    32
  0
VERTEX
  8
T04SSILL
 62
7
 10
731.622
 20
-1462.036
 30
4827.750
 70
    32
  0
VERTEX
  8
T04SSILL
 62
7
 10
728.129
 20
-1465.316
 30
4827.750
 70
    32
  0
VERTEX
  8
T04SSILL
 62
7
 10
725.124
 20
-1463.404
 30
4827.750
 70
    32
  0
VERTEX
  8
T04SSILL
 62
7
 10
649.034
 20
-1354.835
 30
4827.750
 70
    32
  0
VERTEX
  8
T04SSILL
 62
7
 10
649.708
 20
-1350.961
 30
4827.750
 70
    32
  0
VERTEX
  8
T04SSILL
 62
7
 10
651.639
 20
-1350.419
 30
4827.750
 70
    32
  0
VERTEX
  8
T04SSILL
 62
7
 10
680.961
 20
-1367.085
 30
4827.750
 70
    32
  0
VERTEX
  8
T04SSILL
 62
7
 10
696.152
 20
-1387.638
 30
4827.750
 70
    32
  0
VERTEX
  8
T04SSILL
 62
7
 10
713.879
 20
-1406.149
 30
4827.750
 70
    32
  0
SEQEND
  8
T04SSILL
  0
POLYLINE
  8
T04SSILL
 62
7
 66
     1
 70
     9
  0
VERTEX
  8
T04SSILL
 62
7
 10
740.851
 20
-1496.617
 30
4827.750
 70
    32
  0
VERTEX
  8
T04SSILL
 62
7
 10
736.402
 20
-1536.840
 30
4827.750
 70
    32
  0
VERTEX
  8
T04SSILL
 62
7
 10
754.826
 20
-1554.379
 30
4827.750
 70
    32
  0
VERTEX
  8
T04SSILL
 62
7
 10
763.268
 20
-1554.316
 30
4827.750
 70
    32
  0
VERTEX
  8
T04SSILL
 62
7
 10
763.944
 20
-1550.705
 30
4827.750
 70
    32
  0
VERTEX
  8
T04SSILL
 62
7
 10
773.745
 20
-1544.124
 30
4827.750
 70
    32
  0
SEQEND
  8
T04SSILL
  0
POLYLINE
  8
T04SSILL
 62
7
 66
     1
 70
     9
  0
VERTEX
  8
T04SSILL
 62
7
 10
906.231
 20
-1420.629
 30
4827.750
 70
    32
  0
VERTEX
  8
T04SSILL
 62
7
 10
912.372
 20
-1371.511
 30
4827.750
 70
    32
  0
VERTEX
  8
T04SSILL
 62
7
 10
914.892
 20
-1367.447
 30
4827.750
 70
    32
  0
VERTEX
  8
T04SSILL
 62
7
 10
992.023
 20
-1321.052
 30
4827.750
 70
    32
  0
VERTEX
  8
T04SSILL
 62
7
 10
995.898
 20
-1321.814
 30
4827.750
 70
    32
  0
VERTEX
  8
T04SSILL
 62
7
 10
1075.249
 20
-1454.806
 30
4827.750
 70
    32
  0
VERTEX
  8
T04SSILL
 62
7
 10
1073.702
 20
-1459.567
 30
4827.750
 70
    32
  0
VERTEX
  8
T04SSILL
 62
7
 10
1041.607
 20
-1471.943
 30
4827.750
 70
    32
  0
VERTEX
  8
T04SSILL
 62
7
 10
1035.846
 20
-1465.918
 30
4827.750
 70
    32
  0
VERTEX
  8
T04SSILL
 62
7
 10
1029.685
 20
-1465.260
 30
4827.750
 70
    32
  0
VERTEX
  8
T04SSILL
 62
7
 10
1017.276
 20
-1475.818
 30
4827.750
 70
    32
  0
VERTEX
  8
T04SSILL
 62
7
 10
981.127
 20
-1475.297
 30
4827.750
 70
    32
  0
VERTEX
  8
T04SSILL
 62
7
 10
980.279
 20
-1491.221
 30
4827.750
 70
    32
  0
VERTEX
  8
T04SSILL
 62
7
 10
960.058
 20
-1433.154
 30
4827.750
 70
    32
  0
VERTEX
  8
T04SSILL
 62
7
 10
943.044
 20
-1439.437
 30
4827.750
 70
    32
  0
VERTEX
  8
T04SSILL
 62
7
 10
941.244
 20
-1433.910
 30
4827.750
 70
    32
  0
VERTEX
  8
T04SSILL
 62
7
 10
935.542
 20
-1435.800
 30
4827.750
 70
    32
  0
VERTEX
  8
T04SSILL
 62
7
 10
932.376
 20
-1424.127
 30
4827.750
 70
    32
  0
VERTEX
  8
T04SSILL
 62
7
 10
925.883
 20
-1426.110
 30
4827.750
 70
    32
  0
VERTEX
  8
T04SSILL
 62
7
 10
922.196
 20
-1415.233
 30
4827.750
 70
    32
  0
SEQEND
  8
T04SSILL
  0
POLYLINE
  8
T04SSILL
 62
7
 66
     1
 70
     9
  0
VERTEX
  8
T04SSILL
 62
7
 10
1029.338
 20
-1536.497
 30
4827.750
 70
    32
  0
VERTEX
  8
T04SSILL
 62
7
 10
1029.337
 20
-1489.272
 30
4827.750
 70
    32
  0
VERTEX
  8
T04SSILL
 62
7
 10
1042.216
 20
-1482.843
 30
4827.750
 70
    32
  0
VERTEX
  8
T04SSILL
 62
7
 10
1042.015
 20
-1479.503
 30
4827.750
 70
    32
  0
VERTEX
  8
T04SSILL
 62
7
 10
1079.991
 20
-1465.676
 30
4827.750
 70
    32
  0
VERTEX
  8
T04SSILL
 62
7
 10
1083.004
 20
-1468.731
 30
4827.750
 70
    32
  0
VERTEX
  8
T04SSILL
 62
7
 10
1113.099
 20
-1518.194
 30
4827.750
 70
    32
  0
VERTEX
  8
T04SSILL
 62
7
 10
1111.307
 20
-1525.507
 30
4827.750
 70
    32
  0
VERTEX
  8
T04SSILL
 62
7
 10
1092.885
 20
-1531.713
 30
4827.750
 70
    32
  0
VERTEX
  8
T04SSILL
 62
7
 10
1079.000
 20
-1533.048
 30
4827.750
 70
    32
  0
VERTEX
  8
T04SSILL
 62
7
 10
1064.513
 20
-1536.234
 30
4827.750
 70
    32
  0
VERTEX
  8
T04SSILL
 62
7
 10
1052.464
 20
-1536.148
 30
4827.750
 70
    32
  0
SEQEND
  8
T04SSILL
  0
POLYLINE
  8
T04SSILL
 62
7
 66
     1
 70
     9
  0
VERTEX
  8
T04SSILL
 62
7
 10
1120.133
 20
-1529.838
 30
4827.750
 70
    32
  0
VERTEX
  8
T04SSILL
 62
7
 10
1097.234
 20
-1537.045
 30
4827.750
 70
    32
  0
VERTEX
  8
T04SSILL
 62
7
 10
1080.587
 20
-1545.348
 30
4827.750
 70
    32
  0
VERTEX
  8
T04SSILL
 62
7
 10
1072.428
 20
-1548.047
 30
4827.750
 70
    32
  0
VERTEX
  8
T04SSILL
 62
7
 10
1060.121
 20
-1548.667
 30
4827.750
 70
    32
  0
VERTEX
  8
T04SSILL
 62
7
 10
1059.863
 20
-1561.245
 30
4827.750
 70
    32
  0
VERTEX
  8
T04SSILL
 62
7
 10
1053.267
 20
-1561.206
 30
4827.750
 70
    32
  0
VERTEX
  8
T04SSILL
 62
7
 10
1053.608
 20
-1547.924
 30
4827.750
 70
    32
  0
VERTEX
  8
T04SSILL
 62
7
 10
1012.103
 20
-1548.498
 30
4827.750
 70
    32
  0
VERTEX
  8
T04SSILL
 62
7
 10
1012.186
 20
-1536.097
 30
4827.750
 70
    32
  0
VERTEX
  8
T04SSILL
 62
7
 10
1005.855
 20
-1536.233
 30
4827.750
 70
    32
  0
VERTEX
  8
T04SSILL
 62
7
 10
1005.409
 20
-1500.091
 30
4827.750
 70
    32
  0
VERTEX
  8
T04SSILL
 62
7
 10
989.843
 20
-1500.120
 30
4827.750
 70
    32
  0
VERTEX
  8
T04SSILL
 62
7
 10
1015.104
 20
-1573.451
 30
4827.750
 70
    32
  0
VERTEX
  8
T04SSILL
 62
7
 10
1009.138
 20
-1575.343
 30
4827.750
 70
    32
  0
VERTEX
  8
T04SSILL
 62
7
 10
1011.026
 20
-1580.957
 30
4827.750
 70
    32
  0
VERTEX
  8
T04SSILL
 62
7
 10
1005.587
 20
-1582.757
 30
4827.750
 70
    32
  0
VERTEX
  8
T04SSILL
 62
7
 10
1007.393
 20
-1588.987
 30
4827.750
 70
    32
  0
VERTEX
  8
T04SSILL
 62
7
 10
996.255
 20
-1593.116
 30
4827.750
 70
    32
  0
VERTEX
  8
T04SSILL
 62
7
 10
1002.333
 20
-1606.262
 30
4827.750
 70
    32
  0
VERTEX
  8
T04SSILL
 62
7
 10
1061.722
 20
-1609.863
 30
4827.750
 70
    32
  0
VERTEX
  8
T04SSILL
 62
7
 10
1087.807
 20
-1605.271
 30
4827.750
 70
    32
  0
VERTEX
  8
T04SSILL
 62
7
 10
1111.853
 20
-1598.583
 30
4827.750
 70
    32
  0
VERTEX
  8
T04SSILL
 62
7
 10
1143.363
 20
-1578.561
 30
4827.750
 70
    32
  0
VERTEX
  8
T04SSILL
 62
7
 10
1145.878
 20
-1573.881
 30
4827.750
 70
    32
  0
VERTEX
  8
T04SSILL
 62
7
 10
1132.158
 20
-1550.239
 30
4827.750
 70
    32
  0
SEQEND
  8
T04SSILL
  0
POLYLINE
  8
T04SSILL
 62
7
 66
     1
 70
     9
  0
VERTEX
  8
T04SSILL
 62
7
 10
921.510
 20
-1523.408
 30
4827.750
 70
    32
  0
VERTEX
  8
T04SSILL
 62
7
 10
941.542
 20
-1579.718
 30
4827.750
 70
    32
  0
VERTEX
  8
T04SSILL
 62
7
 10
946.718
 20
-1578.008
 30
4827.750
 70
    32
  0
VERTEX
  8
T04SSILL
 62
7
 10
949.137
 20
-1583.970
 30
4827.750
 70
    32
  0
VERTEX
  8
T04SSILL
 62
7
 10
960.188
 20
-1579.930
 30
4827.750
 70
    32
  0
VERTEX
  8
T04SSILL
 62
7
 10
962.340
 20
-1585.542
 30
4827.750
 70
    32
  0
VERTEX
  8
T04SSILL
 62
7
 10
967.864
 20
-1583.302
 30
4827.750
 70
    32
  0
VERTEX
  8
T04SSILL
 62
7
 10
969.843
 20
-1589.180
 30
4827.750
 70
    32
  0
VERTEX
  8
T04SSILL
 62
7
 10
974.755
 20
-1587.472
 30
4827.750
 70
    32
  0
VERTEX
  8
T04SSILL
 62
7
 10
976.907
 20
-1593.084
 30
4827.750
 70
    32
  0
VERTEX
  8
T04SSILL
 62
7
 10
982.699
 20
-1591.370
 30
4827.750
 70
    32
  0
VERTEX
  8
T04SSILL
 62
7
 10
995.824
 20
-1629.615
 30
4827.750
 70
    32
  0
VERTEX
  8
T04SSILL
 62
7
 10
916.689
 20
-1772.587
 30
4827.750
 70
    32
  0
VERTEX
  8
T04SSILL
 62
7
 10
912.812
 20
-1771.648
 30
4827.750
 70
    32
  0
VERTEX
  8
T04SSILL
 62
7
 10
884.063
 20
-1725.693
 30
4827.750
 70
    32
  0
VERTEX
  8
T04SSILL
 62
7
 10
888.351
 20
-1722.847
 30
4827.750
 70
    32
  0
VERTEX
  8
T04SSILL
 62
7
 10
885.237
 20
-1718.033
 30
4827.750
 70
    32
  0
VERTEX
  8
T04SSILL
 62
7
 10
890.491
 20
-1714.916
 30
4827.750
 70
    32
  0
VERTEX
  8
T04SSILL
 62
7
 10
887.291
 20
-1710.367
 30
4827.750
 70
    32
  0
VERTEX
  8
T04SSILL
 62
7
 10
892.365
 20
-1706.899
 30
4827.750
 70
    32
  0
VERTEX
  8
T04SSILL
 62
7
 10
889.601
 20
-1701.819
 30
4827.750
 70
    32
  0
VERTEX
  8
T04SSILL
 62
7
 10
894.150
 20
-1698.531
 30
4827.750
 70
    32
  0
VERTEX
  8
T04SSILL
 62
7
 10
881.154
 20
-1677.698
 30
4827.750
 70
    32
  0
VERTEX
  8
T04SSILL
 62
7
 10
865.927
 20
-1687.749
 30
4827.750
 70
    32
  0
VERTEX
  8
T04SSILL
 62
7
 10
872.601
 20
-1698.252
 30
4827.750
 70
    32
  0
VERTEX
  8
T04SSILL
 62
7
 10
867.963
 20
-1701.277
 30
4827.750
 70
    32
  0
VERTEX
  8
T04SSILL
 62
7
 10
834.663
 20
-1646.562
 30
4827.750
 70
    32
  0
VERTEX
  8
T04SSILL
 62
7
 10
801.499
 20
-1574.696
 30
4827.750
 70
    32
  0
VERTEX
  8
T04SSILL
 62
7
 10
801.362
 20
-1568.102
 30
4827.750
 70
    32
  0
VERTEX
  8
T04SSILL
 62
7
 10
832.667
 20
-1555.995
 30
4827.750
 70
    32
  0
VERTEX
  8
T04SSILL
 62
7
 10
837.331
 20
-1556.400
 30
4827.750
 70
    32
  0
VERTEX
  8
T04SSILL
 62
7
 10
839.460
 20
-1558.847
 30
4827.750
 70
    32
  0
VERTEX
  8
T04SSILL
 62
7
 10
850.186
 20
-1581.983
 30
4827.750
 70
    32
  0
VERTEX
  8
T04SSILL
 62
7
 10
844.922
 20
-1583.606
 30
4827.750
 70
    32
  0
VERTEX
  8
T04SSILL
 62
7
 10
859.823
 20
-1635.821
 30
4827.750
 70
    32
  0
VERTEX
  8
T04SSILL
 62
7
 10
865.970
 20
-1634.631
 30
4827.750
 70
    32
  0
VERTEX
  8
T04SSILL
 62
7
 10
875.547
 20
-1668.770
 30
4827.750
 70
    32
  0
VERTEX
  8
T04SSILL
 62
7
 10
881.165
 20
-1667.320
 30
4827.750
 70
    32
  0
VERTEX
  8
T04SSILL
 62
7
 10
879.710
 20
-1660.999
 30
4827.750
 70
    32
  0
VERTEX
  8
T04SSILL
 62
7
 10
885.326
 20
-1659.287
 30
4827.750
 70
    32
  0
VERTEX
  8
T04SSILL
 62
7
 10
883.969
 20
-1654.196
 30
4827.750
 70
    32
  0
VERTEX
  8
T04SSILL
 62
7
 10
890.110
 20
-1652.303
 30
4827.750
 70
    32
  0
VERTEX
  8
T04SSILL
 62
7
 10
884.704
 20
-1634.931
 30
4827.750
 70
    32
  0
VERTEX
  8
T04SSILL
 62
7
 10
878.999
 20
-1636.381
 30
4827.750
 70
    32
  0
VERTEX
  8
T04SSILL
 62
7
 10
873.857
 20
-1619.094
 30
4827.750
 70
    32
  0
VERTEX
  8
T04SSILL
 62
7
 10
879.211
 20
-1617.735
 30
4827.750
 70
    32
  0
VERTEX
  8
T04SSILL
 62
7
 10
868.177
 20
-1577.012
 30
4827.750
 70
    32
  0
VERTEX
  8
T04SSILL
 62
7
 10
856.857
 20
-1580.263
 30
4827.750
 70
    32
  0
VERTEX
  8
T04SSILL
 62
7
 10
844.797
 20
-1555.113
 30
4827.750
 70
    32
  0
VERTEX
  8
T04SSILL
 62
7
 10
846.439
 20
-1551.231
 30
4827.750
 70
    32
  0
VERTEX
  8
T04SSILL
 62
7
 10
867.577
 20
-1543.686
 30
4827.750
 70
    32
  0
VERTEX
  8
T04SSILL
 62
7
 10
871.819
 20
-1546.557
 30
4827.750
 70
    32
  0
VERTEX
  8
T04SSILL
 62
7
 10
879.763
 20
-1562.151
 30
4827.750
 70
    32
  0
VERTEX
  8
T04SSILL
 62
7
 10
874.685
 20
-1565.179
 30
4827.750
 70
    32
  0
VERTEX
  8
T04SSILL
 62
7
 10
883.332
 20
-1580.768
 30
4827.750
 70
    32
  0
VERTEX
  8
T04SSILL
 62
7
 10
888.588
 20
-1578.091
 30
4827.750
 70
    32
  0
VERTEX
  8
T04SSILL
 62
7
 10
885.384
 20
-1572.926
 30
4827.750
 70
    32
  0
VERTEX
  8
T04SSILL
 62
7
 10
890.991
 20
-1570.070
 30
4827.750
 70
    32
  0
VERTEX
  8
T04SSILL
 62
7
 10
877.424
 20
-1543.437
 30
4827.750
 70
    32
  0
VERTEX
  8
T04SSILL
 62
7
 10
878.714
 20
-1539.470
 30
4827.750
 70
    32
  0
SEQEND
  8
T04SSILL
  0
POLYLINE
  8
T04SSILL
 62
7
 66
     1
 70
     9
  0
VERTEX
  8
T04SSILL
 62
7
 10
1092.492
 20
-1620.362
 30
4827.750
 70
    32
  0
VERTEX
  8
T04SSILL
 62
7
 10
1093.116
 20
-1621.501
 30
4827.750
 70
    32
  0
VERTEX
  8
T04SSILL
 62
7
 10
1133.598
 20
-1625.244
 30
4827.750
 70
    32
  0
VERTEX
  8
T04SSILL
 62
7
 10
1151.145
 20
-1631.356
 30
4827.750
 70
    32
  0
VERTEX
  8
T04SSILL
 62
7
 10
1157.518
 20
-1636.937
 30
4827.750
 70
    32
  0
VERTEX
  8
T04SSILL
 62
7
 10
1177.485
 20
-1625.619
 30
4827.750
 70
    32
  0
VERTEX
  8
T04SSILL
 62
7
 10
1152.111
 20
-1584.212
 30
4827.750
 70
    32
  0
VERTEX
  8
T04SSILL
 62
7
 10
1148.414
 20
-1583.712
 30
4827.750
 70
    32
  0
SEQEND
  8
T04SSILL
  0
POLYLINE
  8
T04SSILL
 62
7
 66
     1
 70
     9
  0
VERTEX
  8
T04SSILL
 62
7
 10
922.875
 20
-1804.649
 30
4827.750
 70
    32
  0
VERTEX
  8
T04SSILL
 62
7
 10
918.554
 20
-1805.205
 30
4827.750
 70
    32
  0
VERTEX
  8
T04SSILL
 62
7
 10
911.192
 20
-1809.240
 30
4827.750
 70
    32
  0
VERTEX
  8
T04SSILL
 62
7
 10
906.983
 20
-1814.375
 30
4827.750
 70
    32
  0
VERTEX
  8
T04SSILL
 62
7
 10
901.676
 20
-1816.238
 30
4827.750
 70
    32
  0
VERTEX
  8
T04SSILL
 62
7
 10
918.568
 20
-1854.853
 30
4827.750
 70
    32
  0
VERTEX
  8
T04SSILL
 62
7
 10
913.432
 20
-1857.071
 30
4827.750
 70
    32
  0
VERTEX
  8
T04SSILL
 62
7
 10
949.725
 20
-1937.505
 30
4827.750
 70
    32
  0
VERTEX
  8
T04SSILL
 62
7
 10
951.664
 20
-1937.356
 30
4827.750
 70
    32
  0
VERTEX
  8
T04SSILL
 62
7
 10
949.693
 20
-1927.117
 30
4827.750
 70
    32
  0
SEQEND
  8
T04SSILL
  0
POLYLINE
  8
T04SSILL
 62
7
 66
     1
 70
     9
  0
VERTEX
  8
T04SSILL
 62
7
 10
1589.038
 20
-2566.643
 30
4827.750
 70
    32
  0
VERTEX
  8
T04SSILL
 62
7
 10
1489.116
 20
-2725.553
 30
4827.750
 70
    32
  0
VERTEX
  8
T04SSILL
 62
7
 10
1478.724
 20
-2732.275
 30
4827.750
 70
    32
  0
VERTEX
  8
T04SSILL
 62
7
 10
1465.669
 20
-2734.206
 30
4827.750
 70
    32
  0
VERTEX
  8
T04SSILL
 62
7
 10
1455.568
 20
-2732.569
 30
4827.750
 70
    32
  0
VERTEX
  8
T04SSILL
 62
7
 10
1329.640
 20
-2691.733
 30
4827.750
 70
    32
  0
VERTEX
  8
T04SSILL
 62
7
 10
1405.819
 20
-2625.891
 30
4827.750
 70
    32
  0
VERTEX
  8
T04SSILL
 62
7
 10
1415.402
 20
-2633.154
 30
4827.750
 70
    32
  0
VERTEX
  8
T04SSILL
 62
7
 10
1422.571
 20
-2636.687
 30
4827.750
 70
    32
  0
VERTEX
  8
T04SSILL
 62
7
 10
1430.218
 20
-2624.822
 30
4827.750
 70
    32
  0
VERTEX
  8
T04SSILL
 62
7
 10
1442.223
 20
-2616.098
 30
4827.750
 70
    32
  0
VERTEX
  8
T04SSILL
 62
7
 10
1442.187
 20
-2612.400
 30
4827.750
 70
    32
  0
VERTEX
  8
T04SSILL
 62
7
 10
1434.807
 20
-2604.991
 30
4827.750
 70
    32
  0
VERTEX
  8
T04SSILL
 62
7
 10
1435.411
 20
-2599.542
 30
4827.750
 70
    32
  0
VERTEX
  8
T04SSILL
 62
7
 10
1448.144
 20
-2589.156
 30
4827.750
 70
    32
  0
VERTEX
  8
T04SSILL
 62
7
 10
1551.151
 20
-2543.845
 30
4827.750
 70
    32
  0
VERTEX
  8
T04SSILL
 62
7
 10
1554.231
 20
-2543.888
 30
4827.750
 70
    32
  0
SEQEND
  8
T04SSILL
  0
POLYLINE
  8
T04SSILL
 62
7
 66
     1
 70
     9
  0
VERTEX
  8
T04SSILL
 62
7
 10
1336.243
 20
-2425.803
 30
4827.750
 70
    32
  0
VERTEX
  8
T04SSILL
 62
7
 10
1351.255
 20
-2416.065
 30
4827.750
 70
    32
  0
VERTEX
  8
T04SSILL
 62
7
 10
1354.689
 20
-2416.025
 30
4827.750
 70
    32
  0
VERTEX
  8
T04SSILL
 62
7
 10
1540.355
 20
-2535.244
 30
4827.750
 70
    32
  0
VERTEX
  8
T04SSILL
 62
7
 10
1542.784
 20
-2537.831
 30
4827.750
 70
    32
  0
VERTEX
  8
T04SSILL
 62
7
 10
1540.367
 20
-2540.702
 30
4827.750
 70
    32
  0
VERTEX
  8
T04SSILL
 62
7
 10
1453.037
 20
-2579.100
 30
4827.750
 70
    32
  0
VERTEX
  8
T04SSILL
 62
7
 10
1451.211
 20
-2577.490
 30
4827.750
 70
    32
  0
VERTEX
  8
T04SSILL
 62
7
 10
1450.797
 20
-2569.298
 30
4827.750
 70
    32
  0
VERTEX
  8
T04SSILL
 62
7
 10
1361.765
 20
-2457.937
 30
4827.750
 70
    32
  0
SEQEND
  8
T04SSILL
  0
POLYLINE
  8
T04SSILL
 62
7
 66
     1
 70
     9
  0
VERTEX
  8
T04SSILL
 62
7
 10
1401.322
 20
-2518.874
 30
4827.750
 70
    32
  0
VERTEX
  8
T04SSILL
 62
7
 10
1397.728
 20
-2517.768
 30
4827.750
 70
    32
  0
VERTEX
  8
T04SSILL
 62
7
 10
1389.331
 20
-2532.880
 30
4827.750
 70
    32
  0
VERTEX
  8
T04SSILL
 62
7
 10
1382.178
 20
-2534.541
 30
4827.750
 70
    32
  0
VERTEX
  8
T04SSILL
 62
7
 10
1378.941
 20
-2545.763
 30
4827.750
 70
    32
  0
VERTEX
  8
T04SSILL
 62
7
 10
1380.570
 20
-2555.205
 30
4827.750
 70
    32
  0
VERTEX
  8
T04SSILL
 62
7
 10
1384.883
 20
-2561.603
 30
4827.750
 70
    32
  0
VERTEX
  8
T04SSILL
 62
7
 10
1409.082
 20
-2587.556
 30
4827.750
 70
    32
  0
VERTEX
  8
T04SSILL
 62
7
 10
1420.492
 20
-2596.253
 30
4827.750
 70
    32
  0
VERTEX
  8
T04SSILL
 62
7
 10
1427.688
 20
-2597.850
 30
4827.750
 70
    32
  0
VERTEX
  8
T04SSILL
 62
7
 10
1440.612
 20
-2586.410
 30
4827.750
 70
    32
  0
VERTEX
  8
T04SSILL
 62
7
 10
1442.846
 20
-2571.300
 30
4827.750
 70
    32
  0
VERTEX
  8
T04SSILL
 62
7
 10
1437.316
 20
-2563.829
 30
4827.750
 70
    32
  0
SEQEND
  8
T04SSILL
  0
POLYLINE
  8
T04SSILL
 62
7
 66
     1
 70
     9
  0
VERTEX
  8
T04SSILL
 62
7
 10
1332.093
 20
-2420.376
 30
4827.750
 70
    32
  0
VERTEX
  8
T04SSILL
 62
7
 10
1344.179
 20
-2412.181
 30
4827.750
 70
    32
  0
VERTEX
  8
T04SSILL
 62
7
 10
1344.475
 20
-2409.897
 30
4827.750
 70
    32
  0
VERTEX
  8
T04SSILL
 62
7
 10
1332.964
 20
-2402.078
 30
4827.750
 70
    32
  0
VERTEX
  8
T04SSILL
 62
7
 10
1318.739
 20
-2399.504
 30
4827.750
 70
    32
  0
VERTEX
  8
T04SSILL
 62
7
 10
1317.217
 20
-2401.331
 30
4827.750
 70
    32
  0
SEQEND
  8
T04SSILL
  0
POLYLINE
  8
T04SSILL
 62
7
 66
     1
 70
     9
  0
VERTEX
  8
T04SSILL
 62
7
 10
1282.633
 20
-2368.896
 30
4827.750
 70
    32
  0
VERTEX
  8
T04SSILL
 62
7
 10
1217.680
 20
-2418.697
 30
4827.750
 70
    32
  0
VERTEX
  8
T04SSILL
 62
7
 10
1230.704
 20
-2437.980
 30
4827.750
 70
    32
  0
VERTEX
  8
T04SSILL
 62
7
 10
1243.772
 20
-2460.433
 30
4827.750
 70
    32
  0
VERTEX
  8
T04SSILL
 62
7
 10
1226.437
 20
-2472.604
 30
4827.750
 70
    32
  0
VERTEX
  8
T04SSILL
 62
7
 10
1229.985
 20
-2477.054
 30
4827.750
 70
    32
  0
VERTEX
  8
T04SSILL
 62
7
 10
1240.177
 20
-2478.429
 30
4827.750
 70
    32
  0
VERTEX
  8
T04SSILL
 62
7
 10
1250.566
 20
-2471.971
 30
4827.750
 70
    32
  0
VERTEX
  8
T04SSILL
 62
7
 10
1264.641
 20
-2453.681
 30
4827.750
 70
    32
  0
VERTEX
  8
T04SSILL
 62
7
 10
1276.616
 20
-2453.407
 30
4827.750
 70
    32
  0
VERTEX
  8
T04SSILL
 62
7
 10
1284.918
 20
-2451.498
 30
4827.750
 70
    32
  0
VERTEX
  8
T04SSILL
 62
7
 10
1294.461
 20
-2442.564
 30
4827.750
 70
    32
  0
VERTEX
  8
T04SSILL
 62
7
 10
1304.047
 20
-2436.887
 30
4827.750
 70
    32
  0
VERTEX
  8
T04SSILL
 62
7
 10
1310.643
 20
-2430.993
 30
4827.750
 70
    32
  0
VERTEX
  8
T04SSILL
 62
7
 10
1320.273
 20
-2434.824
 30
4827.750
 70
    32
  0
VERTEX
  8
T04SSILL
 62
7
 10
1327.783
 20
-2426.478
 30
4827.750
 70
    32
  0
SEQEND
  8
T04SSILL
  0
POLYLINE
  8
T04SSILL
 62
7
 66
     1
 70
     9
  0
VERTEX
  8
T04SSILL
 62
7
 10
-884.034
 20
650.898
 30
4827.750
 70
    32
  0
VERTEX
  8
T04SSILL
 62
7
 10
-911.653
 20
727.354
 30
4827.750
 70
    32
  0
VERTEX
  8
T04SSILL
 62
7
 10
-921.428
 20
747.346
 30
4827.750
 70
    32
  0
VERTEX
  8
T04SSILL
 62
7
 10
-936.270
 20
762.801
 30
4827.750
 70
    32
  0
VERTEX
  8
T04SSILL
 62
7
 10
-956.692
 20
771.956
 30
4827.750
 70
    32
  0
VERTEX
  8
T04SSILL
 62
7
 10
-971.331
 20
774.293
 30
4827.750
 70
    32
  0
VERTEX
  8
T04SSILL
 62
7
 10
-975.423
 20
779.012
 30
4827.750
 70
    32
  0
VERTEX
  8
T04SSILL
 62
7
 10
-975.411
 20
787.730
 30
4827.750
 70
    32
  0
VERTEX
  8
T04SSILL
 62
7
 10
-973.515
 20
792.414
 30
4827.750
 70
    32
  0
VERTEX
  8
T04SSILL
 62
7
 10
-936.021
 20
814.494
 30
4827.750
 70
    32
  0
VERTEX
  8
T04SSILL
 62
7
 10
-932.851
 20
814.522
 30
4827.750
 70
    32
  0
VERTEX
  8
T04SSILL
 62
7
 10
-894.750
 20
757.795
 30
4827.750
 70
    32
  0
VERTEX
  8
T04SSILL
 62
7
 10
-721.967
 20
586.196
 30
4827.750
 70
    32
  0
VERTEX
  8
T04SSILL
 62
7
 10
-662.335
 20
501.757
 30
4827.750
 70
    32
  0
VERTEX
  8
T04SSILL
 62
7
 10
-663.483
 20
497.602
 30
4827.750
 70
    32
  0
VERTEX
  8
T04SSILL
 62
7
 10
-717.262
 20
439.200
 30
4827.750
 70
    32
  0
VERTEX
  8
T04SSILL
 62
7
 10
-787.920
 20
442.092
 30
4827.750
 70
    32
  0
VERTEX
  8
T04SSILL
 62
7
 10
-824.267
 20
518.469
 30
4827.750
 70
    32
  0
VERTEX
  8
T04SSILL
 62
7
 10
-876.138
 20
636.824
 30
4827.750
 70
    32
  0
SEQEND
  8
T04SSILL
  0
POLYLINE
  8
T04SSILL
 62
7
 66
     1
 70
     9
  0
VERTEX
  8
T04SSILL
 62
7
 10
-947.697
 20
650.513
 30
4827.750
 70
    32
  0
VERTEX
  8
T04SSILL
 62
7
 10
-959.813
 20
666.345
 30
4827.750
 70
    32
  0
VERTEX
  8
T04SSILL
 62
7
 10
-980.338
 20
707.200
 30
4827.750
 70
    32
  0
VERTEX
  8
T04SSILL
 62
7
 10
-962.808
 20
716.513
 30
4827.750
 70
    32
  0
VERTEX
  8
T04SSILL
 62
7
 10
-960.597
 20
715.387
 30
4827.750
 70
    32
  0
VERTEX
  8
T04SSILL
 62
7
 10
-923.484
 20
650.815
 30
4827.750
 70
    32
  0
VERTEX
  8
T04SSILL
 62
7
 10
-940.407
 20
641.163
 30
4827.750
 70
    32
  0
VERTEX
  8
T04SSILL
 62
7
 10
-943.588
 20
646.374
 30
4827.750
 70
    32
  0
SEQEND
  8
T04SSILL
  0
POLYLINE
  8
T04SSILL
 62
7
 66
     1
 70
     9
  0
VERTEX
  8
T04SSILL
 62
7
 10
-490.819
 20
-137.850
 30
4827.750
 70
    32
  0
VERTEX
  8
T04SSILL
 62
7
 10
-494.323
 20
-116.556
 30
4827.750
 70
    32
  0
VERTEX
  8
T04SSILL
 62
7
 10
-496.429
 20
-112.378
 30
4827.750
 70
    32
  0
VERTEX
  8
T04SSILL
 62
7
 10
-504.790
 20
-107.534
 30
4827.750
 70
    32
  0
VERTEX
  8
T04SSILL
 62
7
 10
-512.860
 20
-99.695
 30
4827.750
 70
    32
  0
VERTEX
  8
T04SSILL
 62
7
 10
-516.529
 20
-92.120
 30
4827.750
 70
    32
  0
VERTEX
  8
T04SSILL
 62
7
 10
-516.216
 20
-85.783
 30
4827.750
 70
    32
  0
VERTEX
  8
T04SSILL
 62
7
 10
-539.779
 20
-33.152
 30
4827.750
 70
    32
  0
VERTEX
  8
T04SSILL
 62
7
 10
-552.748
 20
-8.970
 30
4827.750
 70
    32
  0
VERTEX
  8
T04SSILL
 62
7
 10
-580.128
 20
32.331
 30
4827.750
 70
    32
  0
VERTEX
  8
T04SSILL
 62
7
 10
-580.390
 20
36.634
 30
4827.750
 70
    32
  0
VERTEX
  8
T04SSILL
 62
7
 10
-470.028
 20
115.415
 30
4827.750
 70
    32
  0
VERTEX
  8
T04SSILL
 62
7
 10
-395.546
 20
-11.939
 30
4827.750
 70
    32
  0
VERTEX
  8
T04SSILL
 62
7
 10
-392.729
 20
-19.368
 30
4827.750
 70
    32
  0
VERTEX
  8
T04SSILL
 62
7
 10
-389.225
 20
-20.906
 30
4827.750
 70
    32
  0
VERTEX
  8
T04SSILL
 62
7
 10
-377.032
 20
-39.452
 30
4827.750
 70
    32
  0
VERTEX
  8
T04SSILL
 62
7
 10
-365.681
 20
-47.423
 30
4827.750
 70
    32
  0
VERTEX
  8
T04SSILL
 62
7
 10
-353.926
 20
-51.085
 30
4827.750
 70
    32
  0
VERTEX
  8
T04SSILL
 62
7
 10
-336.416
 20
-59.393
 30
4827.750
 70
    32
  0
VERTEX
  8
T04SSILL
 62
7
 10
-241.314
 20
-258.093
 30
4827.750
 70
    32
  0
VERTEX
  8
T04SSILL
 62
7
 10
-228.270
 20
-286.598
 30
4827.750
 70
    32
  0
VERTEX
  8
T04SSILL
 62
7
 10
-228.168
 20
-292.851
 30
4827.750
 70
    32
  0
VERTEX
  8
T04SSILL
 62
7
 10
-256.977
 20
-301.841
 30
4827.750
 70
    32
  0
VERTEX
  8
T04SSILL
 62
7
 10
-268.429
 20
-294.925
 30
4827.750
 70
    32
  0
VERTEX
  8
T04SSILL
 62
7
 10
-308.535
 20
-306.247
 30
4827.750
 70
    32
  0
VERTEX
  8
T04SSILL
 62
7
 10
-316.465
 20
-277.098
 30
4827.750
 70
    32
  0
VERTEX
  8
T04SSILL
 62
7
 10
-305.067
 20
-273.712
 30
4827.750
 70
    32
  0
VERTEX
  8
T04SSILL
 62
7
 10
-300.609
 20
-291.197
 30
4827.750
 70
    32
  0
VERTEX
  8
T04SSILL
 62
7
 10
-282.592
 20
-286.481
 30
4827.750
 70
    32
  0
VERTEX
  8
T04SSILL
 62
7
 10
-295.950
 20
-240.011
 30
4827.750
 70
    32
  0
VERTEX
  8
T04SSILL
 62
7
 10
-318.476
 20
-246.259
 30
4827.750
 70
    32
  0
VERTEX
  8
T04SSILL
 62
7
 10
-315.449
 20
-258.269
 30
4827.750
 70
    32
  0
VERTEX
  8
T04SSILL
 62
7
 10
-332.314
 20
-262.382
 30
4827.750
 70
    32
  0
VERTEX
  8
T04SSILL
 62
7
 10
-338.834
 20
-240.558
 30
4827.750
 70
    32
  0
VERTEX
  8
T04SSILL
 62
7
 10
-375.997
 20
-174.612
 30
4827.750
 70
    32
  0
VERTEX
  8
T04SSILL
 62
7
 10
-379.079
 20
-174.663
 30
4827.750
 70
    32
  0
VERTEX
  8
T04SSILL
 62
7
 10
-422.354
 20
-193.342
 30
4827.750
 70
    32
  0
VERTEX
  8
T04SSILL
 62
7
 10
-424.991
 20
-192.959
 30
4827.750
 70
    32
  0
VERTEX
  8
T04SSILL
 62
7
 10
-439.636
 20
-165.843
 30
4827.750
 70
    32
  0
VERTEX
  8
T04SSILL
 62
7
 10
-445.046
 20
-169.125
 30
4827.750
 70
    32
  0
VERTEX
  8
T04SSILL
 62
7
 10
-431.618
 20
-194.905
 30
4827.750
 70
    32
  0
VERTEX
  8
T04SSILL
 62
7
 10
-432.533
 20
-197.888
 30
4827.750
 70
    32
  0
VERTEX
  8
T04SSILL
 62
7
 10
-456.787
 20
-208.781
 30
4827.750
 70
    32
  0
VERTEX
  8
T04SSILL
 62
7
 10
-460.355
 20
-205.305
 30
4827.750
 70
    32
  0
VERTEX
  8
T04SSILL
 62
7
 10
-465.141
 20
-193.098
 30
4827.750
 70
    32
  0
VERTEX
  8
T04SSILL
 62
7
 10
-460.869
 20
-189.275
 30
4827.750
 70
    32
  0
VERTEX
  8
T04SSILL
 62
7
 10
-465.668
 20
-178.212
 30
4827.750
 70
    32
  0
VERTEX
  8
T04SSILL
 62
7
 10
-464.740
 20
-174.173
 30
4827.750
 70
    32
  0
VERTEX
  8
T04SSILL
 62
7
 10
-471.464
 20
-162.119
 30
4827.750
 70
    32
  0
VERTEX
  8
T04SSILL
 62
7
 10
-485.539
 20
-146.280
 30
4827.750
 70
    32
  0
SEQEND
  8
T04SSILL
  0
POLYLINE
  8
T04SSILL
 62
7
 66
     1
 70
     9
  0
VERTEX
  8
T04SSILL
 62
7
 10
-461.735
 20
121.335
 30
4827.750
 70
    32
  0
VERTEX
  8
T04SSILL
 62
7
 10
-420.466
 20
150.794
 30
4827.750
 70
    32
  0
VERTEX
  8
T04SSILL
 62
7
 10
-416.761
 20
150.165
 30
4827.750
 70
    32
  0
VERTEX
  8
T04SSILL
 62
7
 10
-313.022
 20
1.724
 30
4827.750
 70
    32
  0
VERTEX
  8
T04SSILL
 62
7
 10
-332.162
 20
-49.583
 30
4827.750
 70
    32
  0
VERTEX
  8
T04SSILL
 62
7
 10
-367.023
 20
-34.465
 30
4827.750
 70
    32
  0
VERTEX
  8
T04SSILL
 62
7
 10
-387.117
 20
-6.492
 30
4827.750
 70
    32
  0
VERTEX
  8
T04SSILL
 62
7
 10
-403.785
 20
20.823
 30
4827.750
 70
    32
  0
SEQEND
  8
T04SSILL
  0
POLYLINE
  8
T04SSILL
 62
7
 66
     1
 70
     9
  0
VERTEX
  8
T04SSILL
 62
7
 10
-796.762
 20
-138.708
 30
4827.750
 70
    32
  0
VERTEX
  8
T04SSILL
 62
7
 10
-805.949
 20
-127.814
 30
4827.750
 70
    32
  0
VERTEX
  8
T04SSILL
 62
7
 10
-805.564
 20
-125.081
 30
4827.750
 70
    32
  0
VERTEX
  8
T04SSILL
 62
7
 10
-600.583
 20
22.074
 30
4827.750
 70
    32
  0
VERTEX
  8
T04SSILL
 62
7
 10
-596.474
 20
23.211
 30
4827.750
 70
    32
  0
VERTEX
  8
T04SSILL
 62
7
 10
-593.347
 20
20.724
 30
4827.750
 70
    32
  0
VERTEX
  8
T04SSILL
 62
7
 10
-564.694
 20
-31.453
 30
4827.750
 70
    32
  0
VERTEX
  8
T04SSILL
 62
7
 10
-566.005
 20
-40.623
 30
4827.750
 70
    32
  0
VERTEX
  8
T04SSILL
 62
7
 10
-570.469
 20
-44.763
 30
4827.750
 70
    32
  0
VERTEX
  8
T04SSILL
 62
7
 10
-583.136
 20
-16.613
 30
4827.750
 70
    32
  0
VERTEX
  8
T04SSILL
 62
7
 10
-588.640
 20
-20.421
 30
4827.750
 70
    32
  0
VERTEX
  8
T04SSILL
 62
7
 10
-575.635
 20
-49.554
 30
4827.750
 70
    32
  0
VERTEX
  8
T04SSILL
 62
7
 10
-629.964
 20
-99.932
 30
4827.750
 70
    32
  0
VERTEX
  8
T04SSILL
 62
7
 10
-632.383
 20
-97.695
 30
4827.750
 70
    32
  0
VERTEX
  8
T04SSILL
 62
7
 10
-645.469
 20
-63.317
 30
4827.750
 70
    32
  0
VERTEX
  8
T04SSILL
 62
7
 10
-651.645
 20
-66.606
 30
4827.750
 70
    32
  0
VERTEX
  8
T04SSILL
 62
7
 10
-626.709
 20
-139.519
 30
4827.750
 70
    32
  0
VERTEX
  8
T04SSILL
 62
7
 10
-566.408
 20
-253.789
 30
4827.750
 70
    32
  0
VERTEX
  8
T04SSILL
 62
7
 10
-573.146
 20
-257.759
 30
4827.750
 70
    32
  0
VERTEX
  8
T04SSILL
 62
7
 10
-570.235
 20
-264.661
 30
4827.750
 70
    32
  0
VERTEX
  8
T04SSILL
 62
7
 10
-565.367
 20
-262.518
 30
4827.750
 70
    32
  0
VERTEX
  8
T04SSILL
 62
7
 10
-562.476
 20
-263.697
 30
4827.750
 70
    32
  0
VERTEX
  8
T04SSILL
 62
7
 10
-560.743
 20
-266.094
 30
4827.750
 70
    32
  0
VERTEX
  8
T04SSILL
 62
7
 10
-516.774
 20
-359.415
 30
4827.750
 70
    32
  0
VERTEX
  8
T04SSILL
 62
7
 10
-517.143
 20
-360.819
 30
4827.750
 70
    32
  0
VERTEX
  8
T04SSILL
 62
7
 10
-519.629
 20
-362.551
 30
4827.750
 70
    32
  0
VERTEX
  8
T04SSILL
 62
7
 10
-547.041
 20
-365.130
 30
4827.750
 70
    32
  0
VERTEX
  8
T04SSILL
 62
7
 10
-554.748
 20
-361.693
 30
4827.750
 70
    32
  0
VERTEX
  8
T04SSILL
 62
7
 10
-565.994
 20
-359.710
 30
4827.750
 70
    32
  0
VERTEX
  8
T04SSILL
 62
7
 10
-629.918
 20
-367.491
 30
4827.750
 70
    32
  0
VERTEX
  8
T04SSILL
 62
7
 10
-652.030
 20
-368.549
 30
4827.750
 70
    32
  0
VERTEX
  8
T04SSILL
 62
7
 10
-743.819
 20
-202.200
 30
4827.750
 70
    32
  0
VERTEX
  8
T04SSILL
 62
7
 10
-783.398
 20
-154.362
 30
4827.750
 70
    32
  0
SEQEND
  8
T04SSILL
  0
POLYLINE
  8
T04SSILL
 62
7
 66
     1
 70
     9
  0
VERTEX
  8
T04SSILL
 62
7
 10
-307.149
 20
-6.664
 30
4827.750
 70
    32
  0
VERTEX
  8
T04SSILL
 62
7
 10
-327.188
 20
-60.735
 30
4827.750
 70
    32
  0
VERTEX
  8
T04SSILL
 62
7
 10
-218.279
 20
-283.019
 30
4827.750
 70
    32
  0
VERTEX
  8
T04SSILL
 62
7
 10
-213.856
 20
-288.707
 30
4827.750
 70
    32
  0
VERTEX
  8
T04SSILL
 62
7
 10
-161.442
 20
-271.545
 30
4827.750
 70
    32
  0
VERTEX
  8
T04SSILL
 62
7
 10
-152.185
 20
-270.510
 30
4827.750
 70
    32
  0
VERTEX
  8
T04SSILL
 62
7
 10
-144.023
 20
-265.325
 30
4827.750
 70
    32
  0
VERTEX
  8
T04SSILL
 62
7
 10
-138.983
 20
-256.052
 30
4827.750
 70
    32
  0
VERTEX
  8
T04SSILL
 62
7
 10
-142.135
 20
-247.210
 30
4827.750
 70
    32
  0
VERTEX
  8
T04SSILL
 62
7
 10
-149.748
 20
-235.850
 30
4827.750
 70
    32
  0
VERTEX
  8
T04SSILL
 62
7
 10
-196.710
 20
-172.076
 30
4827.750
 70
    32
  0
VERTEX
  8
T04SSILL
 62
7
 10
-226.553
 20
-127.348
 30
4827.750
 70
    32
  0
VERTEX
  8
T04SSILL
 62
7
 10
-226.253
 20
-122.203
 30
4827.750
 70
    32
  0
SEQEND
  8
T04SSILL
  0
POLYLINE
  8
T04SSILL
 62
7
 66
     1
 70
     9
  0
VERTEX
  8
T04SSILL
 62
7
 10
-618.538
 20
-139.267
 30
4827.750
 70
    32
  0
VERTEX
  8
T04SSILL
 62
7
 10
-628.141
 20
-111.941
 30
4827.750
 70
    32
  0
VERTEX
  8
T04SSILL
 62
7
 10
-627.614
 20
-107.534
 30
4827.750
 70
    32
  0
VERTEX
  8
T04SSILL
 62
7
 10
-578.768
 20
-61.804
 30
4827.750
 70
    32
  0
VERTEX
  8
T04SSILL
 62
7
 10
-574.066
 20
-59.512
 30
4827.750
 70
    32
  0
VERTEX
  8
T04SSILL
 62
7
 10
-569.911
 20
-60.659
 30
4827.750
 70
    32
  0
VERTEX
  8
T04SSILL
 62
7
 10
-552.103
 20
-80.612
 30
4827.750
 70
    32
  0
VERTEX
  8
T04SSILL
 62
7
 10
-542.291
 20
-87.625
 30
4827.750
 70
    32
  0
VERTEX
  8
T04SSILL
 62
7
 10
-539.229
 20
-91.256
 30
4827.750
 70
    32
  0
VERTEX
  8
T04SSILL
 62
7
 10
-536.972
 20
-107.388
 30
4827.750
 70
    32
  0
VERTEX
  8
T04SSILL
 62
7
 10
-534.426
 20
-111.557
 30
4827.750
 70
    32
  0
VERTEX
  8
T04SSILL
 62
7
 10
-520.125
 20
-123.227
 30
4827.750
 70
    32
  0
VERTEX
  8
T04SSILL
 62
7
 10
-513.815
 20
-126.618
 30
4827.750
 70
    32
  0
VERTEX
  8
T04SSILL
 62
7
 10
-502.613
 20
-145.725
 30
4827.750
 70
    32
  0
VERTEX
  8
T04SSILL
 62
7
 10
-490.320
 20
-185.579
 30
4827.750
 70
    32
  0
VERTEX
  8
T04SSILL
 62
7
 10
-485.449
 20
-183.172
 30
4827.750
 70
    32
  0
VERTEX
  8
T04SSILL
 62
7
 10
-482.217
 20
-185.323
 30
4827.750
 70
    32
  0
VERTEX
  8
T04SSILL
 62
7
 10
-477.768
 20
-196.205
 30
4827.750
 70
    32
  0
VERTEX
  8
T04SSILL
 62
7
 10
-473.165
 20
-194.147
 30
4827.750
 70
    32
  0
VERTEX
  8
T04SSILL
 62
7
 10
-467.670
 20
-205.922
 30
4827.750
 70
    32
  0
VERTEX
  8
T04SSILL
 62
7
 10
-471.287
 20
-213.891
 30
4827.750
 70
    32
  0
VERTEX
  8
T04SSILL
 62
7
 10
-557.667
 20
-251.692
 30
4827.750
 70
    32
  0
VERTEX
  8
T04SSILL
 62
7
 10
-607.468
 20
-160.151
 30
4827.750
 70
    32
  0
SEQEND
  8
T04SSILL
  0
POLYLINE
  8
T04SSILL
 62
7
 66
     1
 70
     9
  0
VERTEX
  8
T04SSILL
 62
7
 10
465.299
 20
-897.325
 30
4827.750
 70
    32
  0
VERTEX
  8
T04SSILL
 62
7
 10
405.607
 20
-971.188
 30
4827.750
 70
    32
  0
VERTEX
  8
T04SSILL
 62
7
 10
399.409
 20
-974.196
 30
4827.750
 70
    32
  0
VERTEX
  8
T04SSILL
 62
7
 10
392.786
 20
-983.274
 30
4827.750
 70
    32
  0
VERTEX
  8
T04SSILL
 62
7
 10
391.678
 20
-987.575
 30
4827.750
 70
    32
  0
VERTEX
  8
T04SSILL
 62
7
 10
456.438
 20
-1079.822
 30
4827.750
 70
    32
  0
VERTEX
  8
T04SSILL
 62
7
 10
567.467
 20
-996.022
 30
4827.750
 70
    32
  0
VERTEX
  8
T04SSILL
 62
7
 10
568.325
 20
-993.201
 30
4827.750
 70
    32
  0
VERTEX
  8
T04SSILL
 62
7
 10
561.511
 20
-975.840
 30
4827.750
 70
    32
  0
SEQEND
  8
T04SSILL
  0
POLYLINE
  8
T04SSILL
 62
7
 66
     1
 70
     9
  0
VERTEX
  8
T04SSILL
 62
7
 10
431.953
 20
-1097.171
 30
4827.750
 70
    32
  0
VERTEX
  8
T04SSILL
 62
7
 10
435.842
 20
-1105.352
 30
4827.750
 70
    32
  0
VERTEX
  8
T04SSILL
 62
7
 10
417.354
 20
-1114.460
 30
4827.750
 70
    32
  0
VERTEX
  8
T04SSILL
 62
7
 10
425.004
 20
-1137.884
 30
4827.750
 70
    32
  0
VERTEX
  8
T04SSILL
 62
7
 10
419.211
 20
-1139.422
 30
4827.750
 70
    32
  0
VERTEX
  8
T04SSILL
 62
7
 10
426.595
 20
-1162.496
 30
4827.750
 70
    32
  0
VERTEX
  8
T04SSILL
 62
7
 10
432.479
 20
-1161.396
 30
4827.750
 70
    32
  0
VERTEX
  8
T04SSILL
 62
7
 10
483.109
 20
-1134.547
 30
4827.750
 70
    32
  0
VERTEX
  8
T04SSILL
 62
7
 10
482.645
 20
-1131.297
 30
4827.750
 70
    32
  0
VERTEX
  8
T04SSILL
 62
7
 10
464.637
 20
-1107.782
 30
4827.750
 70
    32
  0
VERTEX
  8
T04SSILL
 62
7
 10
452.179
 20
-1089.320
 30
4827.750
 70
    32
  0
SEQEND
  8
T04SSILL
  0
POLYLINE
  8
T04SSILL
 62
7
 66
     1
 70
     9
  0
VERTEX
  8
T04SSILL
 62
7
 10
919.258
 20
-1796.342
 30
4827.750
 70
    32
  0
VERTEX
  8
T04SSILL
 62
7
 10
831.748
 20
-1656.521
 30
4827.750
 70
    32
  0
VERTEX
  8
T04SSILL
 62
7
 10
828.423
 20
-1658.745
 30
4827.750
 70
    32
  0
VERTEX
  8
T04SSILL
 62
7
 10
831.263
 20
-1674.025
 30
4827.750
 70
    32
  0
VERTEX
  8
T04SSILL
 62
7
 10
880.098
 20
-1783.501
 30
4827.750
 70
    32
  0
VERTEX
  8
T04SSILL
 62
7
 10
885.972
 20
-1780.995
 30
4827.750
 70
    32
  0
VERTEX
  8
T04SSILL
 62
7
 10
890.979
 20
-1792.038
 30
4827.750
 70
    32
  0
VERTEX
  8
T04SSILL
 62
7
 10
896.327
 20
-1789.800
 30
4827.750
 70
    32
  0
VERTEX
  8
T04SSILL
 62
7
 10
902.153
 20
-1802.911
 30
4827.750
 70
    32
  0
VERTEX
  8
T04SSILL
 62
7
 10
907.926
 20
-1803.561
 30
4827.750
 70
    32
  0
VERTEX
  8
T04SSILL
 62
7
 10
916.338
 20
-1799.981
 30
4827.750
 70
    32
  0
SEQEND
  8
T04SSILL
  0
POLYLINE
  8
T04SSILL
 62
7
 66
     1
 70
     9
  0
VERTEX
  8
T04SSILL
 62
7
 10
933.108
 20
-1804.299
 30
4827.750
 70
    32
  0
VERTEX
  8
T04SSILL
 62
7
 10
921.180
 20
-1785.217
 30
4827.750
 70
    32
  0
VERTEX
  8
T04SSILL
 62
7
 10
921.035
 20
-1777.567
 30
4827.750
 70
    32
  0
VERTEX
  8
T04SSILL
 62
7
 10
998.863
 20
-1636.188
 30
4827.750
 70
    32
  0
VERTEX
  8
T04SSILL
 62
7
 10
1015.841
 20
-1636.765
 30
4827.750
 70
    32
  0
VERTEX
  8
T04SSILL
 62
7
 10
1036.531
 20
-1639.864
 30
4827.750
 70
    32
  0
VERTEX
  8
T04SSILL
 62
7
 10
1041.577
 20
-1644.311
 30
4827.750
 70
    32
  0
VERTEX
  8
T04SSILL
 62
7
 10
1047.378
 20
-1643.916
 30
4827.750
 70
    32
  0
VERTEX
  8
T04SSILL
 62
7
 10
1049.205
 20
-1641.264
 30
4827.750
 70
    32
  0
VERTEX
  8
T04SSILL
 62
7
 10
1073.777
 20
-1646.093
 30
4827.750
 70
    32
  0
VERTEX
  8
T04SSILL
 62
7
 10
1087.138
 20
-1645.290
 30
4827.750
 70
    32
  0
VERTEX
  8
T04SSILL
 62
7
 10
1102.175
 20
-1656.874
 30
4827.750
 70
    32
  0
VERTEX
  8
T04SSILL
 62
7
 10
1103.525
 20
-1684.478
 30
4827.750
 70
    32
  0
VERTEX
  8
T04SSILL
 62
7
 10
1097.492
 20
-1689.184
 30
4827.750
 70
    32
  0
VERTEX
  8
T04SSILL
 62
7
 10
1091.416
 20
-1688.086
 30
4827.750
 70
    32
  0
VERTEX
  8
T04SSILL
 62
7
 10
1074.333
 20
-1696.920
 30
4827.750
 70
    32
  0
VERTEX
  8
T04SSILL
 62
7
 10
1072.997
 20
-1706.516
 30
4827.750
 70
    32
  0
VERTEX
  8
T04SSILL
 62
7
 10
1065.327
 20
-1715.720
 30
4827.750
 70
    32
  0
VERTEX
  8
T04SSILL
 62
7
 10
1067.143
 20
-1746.926
 30
4827.750
 70
    32
  0
VERTEX
  8
T04SSILL
 62
7
 10
1074.457
 20
-1784.159
 30
4827.750
 70
    32
  0
VERTEX
  8
T04SSILL
 62
7
 10
1087.034
 20
-1784.241
 30
4827.750
 70
    32
  0
VERTEX
  8
T04SSILL
 62
7
 10
1111.610
 20
-1766.029
 30
4827.750
 70
    32
  0
VERTEX
  8
T04SSILL
 62
7
 10
1128.742
 20
-1740.309
 30
4827.750
 70
    32
  0
VERTEX
  8
T04SSILL
 62
7
 10
1132.059
 20
-1713.462
 30
4827.750
 70
    32
  0
VERTEX
  8
T04SSILL
 62
7
 10
1127.455
 20
-1697.491
 30
4827.750
 70
    32
  0
VERTEX
  8
T04SSILL
 62
7
 10
1123.438
 20
-1689.518
 30
4827.750
 70
    32
  0
VERTEX
  8
T04SSILL
 62
7
 10
1113.748
 20
-1687.392
 30
4827.750
 70
    32
  0
VERTEX
  8
T04SSILL
 62
7
 10
1110.704
 20
-1680.115
 30
4827.750
 70
    32
  0
VERTEX
  8
T04SSILL
 62
7
 10
1110.167
 20
-1655.407
 30
4827.750
 70
    32
  0
VERTEX
  8
T04SSILL
 62
7
 10
1120.393
 20
-1646.888
 30
4827.750
 70
    32
  0
VERTEX
  8
T04SSILL
 62
7
 10
1140.945
 20
-1643.393
 30
4827.750
 70
    32
  0
VERTEX
  8
T04SSILL
 62
7
 10
1152.397
 20
-1645.945
 30
4827.750
 70
    32
  0
VERTEX
  8
T04SSILL
 62
7
 10
1180.160
 20
-1630.612
 30
4827.750
 70
    32
  0
VERTEX
  8
T04SSILL
 62
7
 10
1199.038
 20
-1661.866
 30
4827.750
 70
    32
  0
VERTEX
  8
T04SSILL
 62
7
 10
1191.007
 20
-1681.714
 30
4827.750
 70
    32
  0
VERTEX
  8
T04SSILL
 62
7
 10
1190.345
 20
-1687.259
 30
4827.750
 70
    32
  0
VERTEX
  8
T04SSILL
 62
7
 10
1193.973
 20
-1690.134
 30
4827.750
 70
    32
  0
VERTEX
  8
T04SSILL
 62
7
 10
1155.228
 20
-1754.094
 30
4827.750
 70
    32
  0
VERTEX
  8
T04SSILL
 62
7
 10
1148.953
 20
-1761.704
 30
4827.750
 70
    32
  0
VERTEX
  8
T04SSILL
 62
7
 10
1135.440
 20
-1765.763
 30
4827.750
 70
    32
  0
VERTEX
  8
T04SSILL
 62
7
 10
1131.353
 20
-1771.949
 30
4827.750
 70
    32
  0
VERTEX
  8
T04SSILL
 62
7
 10
1148.324
 20
-1783.431
 30
4827.750
 70
    32
  0
VERTEX
  8
T04SSILL
 62
7
 10
1154.279
 20
-1780.045
 30
4827.750
 70
    32
  0
VERTEX
  8
T04SSILL
 62
7
 10
1157.632
 20
-1769.818
 30
4827.750
 70
    32
  0
VERTEX
  8
T04SSILL
 62
7
 10
1156.367
 20
-1765.254
 30
4827.750
 70
    32
  0
VERTEX
  8
T04SSILL
 62
7
 10
1158.356
 20
-1760.755
 30
4827.750
 70
    32
  0
VERTEX
  8
T04SSILL
 62
7
 10
1162.562
 20
-1758.700
 30
4827.750
 70
    32
  0
VERTEX
  8
T04SSILL
 62
7
 10
1201.288
 20
-1692.278
 30
4827.750
 70
    32
  0
VERTEX
  8
T04SSILL
 62
7
 10
1207.033
 20
-1696.104
 30
4827.750
 70
    32
  0
VERTEX
  8
T04SSILL
 62
7
 10
1215.009
 20
-1692.527
 30
4827.750
 70
    32
  0
VERTEX
  8
T04SSILL
 62
7
 10
1218.980
 20
-1694.432
 30
4827.750
 70
    32
  0
VERTEX
  8
T04SSILL
 62
7
 10
1295.923
 20
-1822.781
 30
4827.750
 70
    32
  0
VERTEX
  8
T04SSILL
 62
7
 10
1317.936
 20
-1856.007
 30
4827.750
 70
    32
  0
VERTEX
  8
T04SSILL
 62
7
 10
1827.352
 20
-2710.627
 30
4827.750
 70
    32
  0
VERTEX
  8
T04SSILL
 62
7
 10
1826.803
 20
-2712.116
 30
4827.750
 70
    32
  0
VERTEX
  8
T04SSILL
 62
7
 10
1333.601
 20
-2394.253
 30
4827.750
 70
    32
  0
VERTEX
  8
T04SSILL
 62
7
 10
1308.923
 20
-2390.124
 30
4827.750
 70
    32
  0
VERTEX
  8
T04SSILL
 62
7
 10
962.948
 20
-1955.118
 30
4827.750
 70
    32
  0
VERTEX
  8
T04SSILL
 62
7
 10
934.579
 20
-1823.914
 30
4827.750
 70
    32
  0
SEQEND
  8
T04SSILL
  0
POLYLINE
  8
T04SSILL
 62
7
 66
     1
 70
     9
  0
VERTEX
  8
T04SSILL
 62
7
 10
954.567
 20
-70.091
 30
4827.750
 70
    32
  0
VERTEX
  8
T04SSILL
 62
7
 10
954.194
 20
-72.905
 30
4827.750
 70
    32
  0
VERTEX
  8
T04SSILL
 62
7
 10
958.638
 20
-79.014
 30
4827.750
 70
    32
  0
VERTEX
  8
T04SSILL
 62
7
 10
969.452
 20
-81.033
 30
4827.750
 70
    32
  0
VERTEX
  8
T04SSILL
 62
7
 10
1023.145
 20
-82.760
 30
4827.750
 70
    32
  0
VERTEX
  8
T04SSILL
 62
7
 10
1044.403
 20
-89.260
 30
4827.750
 70
    32
  0
VERTEX
  8
T04SSILL
 62
7
 10
1060.302
 20
-105.669
 30
4827.750
 70
    32
  0
VERTEX
  8
T04SSILL
 62
7
 10
1059.778
 20
-116.758
 30
4827.750
 70
    32
  0
VERTEX
  8
T04SSILL
 62
7
 10
1049.682
 20
-136.140
 30
4827.750
 70
    32
  0
VERTEX
  8
T04SSILL
 62
7
 10
1051.269
 20
-159.131
 30
4827.750
 70
    32
  0
VERTEX
  8
T04SSILL
 62
7
 10
1053.696
 20
-164.168
 30
4827.750
 70
    32
  0
VERTEX
  8
T04SSILL
 62
7
 10
1120.145
 20
-155.690
 30
4827.750
 70
    32
  0
VERTEX
  8
T04SSILL
 62
7
 10
1122.029
 20
-162.748
 30
4827.750
 70
    32
  0
VERTEX
  8
T04SSILL
 62
7
 10
992.453
 20
-182.810
 30
4827.750
 70
    32
  0
VERTEX
  8
T04SSILL
 62
7
 10
957.907
 20
-210.370
 30
4827.750
 70
    32
  0
VERTEX
  8
T04SSILL
 62
7
 10
977.830
 20
-218.621
 30
4827.750
 70
    32
  0
VERTEX
  8
T04SSILL
 62
7
 10
986.931
 20
-226.085
 30
4827.750
 70
    32
  0
VERTEX
  8
T04SSILL
 62
7
 10
990.738
 20
-223.209
 30
4827.750
 70
    32
  0
VERTEX
  8
T04SSILL
 62
7
 10
995.690
 20
-208.807
 30
4827.750
 70
    32
  0
VERTEX
  8
T04SSILL
 62
7
 10
1012.647
 20
-201.804
 30
4827.750
 70
    32
  0
VERTEX
  8
T04SSILL
 62
7
 10
1057.884
 20
-192.462
 30
4827.750
 70
    32
  0
VERTEX
  8
T04SSILL
 62
7
 10
1078.142
 20
-191.470
 30
4827.750
 70
    32
  0
VERTEX
  8
T04SSILL
 62
7
 10
1082.616
 20
-205.239
 30
4827.750
 70
    32
  0
VERTEX
  8
T04SSILL
 62
7
 10
1082.849
 20
-221.001
 30
4827.750
 70
    32
  0
VERTEX
  8
T04SSILL
 62
7
 10
1055.543
 20
-280.752
 30
4827.750
 70
    32
  0
VERTEX
  8
T04SSILL
 62
7
 10
1048.524
 20
-300.772
 30
4827.750
 70
    32
  0
VERTEX
  8
T04SSILL
 62
7
 10
1041.187
 20
-362.788
 30
4827.750
 70
    32
  0
VERTEX
  8
T04SSILL
 62
7
 10
1050.512
 20
-387.070
 30
4827.750
 70
    32
  0
VERTEX
  8
T04SSILL
 62
7
 10
1049.056
 20
-404.932
 30
4827.750
 70
    32
  0
VERTEX
  8
T04SSILL
 62
7
 10
1042.578
 20
-423.196
 30
4827.750
 70
    32
  0
VERTEX
  8
T04SSILL
 62
7
 10
1031.798
 20
-428.397
 30
4827.750
 70
    32
  0
VERTEX
  8
T04SSILL
 62
7
 10
1024.977
 20
-433.804
 30
4827.750
 70
    32
  0
VERTEX
  8
T04SSILL
 62
7
 10
1017.694
 20
-442.289
 30
4827.750
 70
    32
  0
VERTEX
  8
T04SSILL
 62
7
 10
1000.008
 20
-452.456
 30
4827.750
 70
    32
  0
VERTEX
  8
T04SSILL
 62
7
 10
996.876
 20
-459.124
 30
4827.750
 70
    32
  0
VERTEX
  8
T04SSILL
 62
7
 10
990.420
 20
-462.861
 30
4827.750
 70
    32
  0
VERTEX
  8
T04SSILL
 62
7
 10
979.322
 20
-463.481
 30
4827.750
 70
    32
  0
VERTEX
  8
T04SSILL
 62
7
 10
962.000
 20
-460.533
 30
4827.750
 70
    32
  0
VERTEX
  8
T04SSILL
 62
7
 10
953.648
 20
-470.595
 30
4827.750
 70
    32
  0
VERTEX
  8
T04SSILL
 62
7
 10
940.185
 20
-481.146
 30
4827.750
 70
    32
  0
VERTEX
  8
T04SSILL
 62
7
 10
935.518
 20
-492.820
 30
4827.750
 70
    32
  0
VERTEX
  8
T04SSILL
 62
7
 10
931.017
 20
-494.283
 30
4827.750
 70
    32
  0
VERTEX
  8
T04SSILL
 62
7
 10
921.369
 20
-501.077
 30
4827.750
 70
    32
  0
VERTEX
  8
T04SSILL
 62
7
 10
910.161
 20
-516.224
 30
4827.750
 70
    32
  0
VERTEX
  8
T04SSILL
 62
7
 10
900.069
 20
-535.077
 30
4827.750
 70
    32
  0
VERTEX
  8
T04SSILL
 62
7
 10
897.497
 20
-537.611
 30
4827.750
 70
    32
  0
VERTEX
  8
T04SSILL
 62
7
 10
881.177
 20
-541.801
 30
4827.750
 70
    32
  0
VERTEX
  8
T04SSILL
 62
7
 10
863.842
 20
-540.526
 30
4827.750
 70
    32
  0
VERTEX
  8
T04SSILL
 62
7
 10
847.228
 20
-536.966
 30
4827.750
 70
    32
  0
VERTEX
  8
T04SSILL
 62
7
 10
837.102
 20
-537.154
 30
4827.750
 70
    32
  0
VERTEX
  8
T04SSILL
 62
7
 10
828.956
 20
-531.545
 30
4827.750
 70
    32
  0
VERTEX
  8
T04SSILL
 62
7
 10
816.057
 20
-514.191
 30
4827.750
 70
    32
  0
VERTEX
  8
T04SSILL
 62
7
 10
733.598
 20
-497.631
 30
4827.750
 70
    32
  0
VERTEX
  8
T04SSILL
 62
7
 10
717.744
 20
-498.479
 30
4827.750
 70
    32
  0
VERTEX
  8
T04SSILL
 62
7
 10
462.144
 20
-755.361
 30
4827.750
 70
    32
  0
VERTEX
  8
T04SSILL
 62
7
 10
453.508
 20
-763.358
 30
4827.750
 70
    32
  0
VERTEX
  8
T04SSILL
 62
7
 10
429.809
 20
-779.453
 30
4827.750
 70
    32
  0
VERTEX
  8
T04SSILL
 62
7
 10
399.250
 20
-802.333
 30
4827.750
 70
    32
  0
VERTEX
  8
T04SSILL
 62
7
 10
402.115
 20
-835.383
 30
4827.750
 70
    32
  0
VERTEX
  8
T04SSILL
 62
7
 10
556.582
 20
-963.476
 30
4827.750
 70
    32
  0
VERTEX
  8
T04SSILL
 62
7
 10
554.877
 20
-958.916
 30
4827.750
 70
    32
  0
VERTEX
  8
T04SSILL
 62
7
 10
561.542
 20
-956.404
 30
4827.750
 70
    32
  0
VERTEX
  8
T04SSILL
 62
7
 10
577.577
 20
-995.683
 30
4827.750
 70
    32
  0
VERTEX
  8
T04SSILL
 62
7
 10
573.561
 20
-999.582
 30
4827.750
 70
    32
  0
VERTEX
  8
T04SSILL
 62
7
 10
847.672
 20
-1069.119
 30
4827.750
 70
    32
  0
VERTEX
  8
T04SSILL
 62
7
 10
855.822
 20
-1065.364
 30
4827.750
 70
    32
  0
VERTEX
  8
T04SSILL
 62
7
 10
860.172
 20
-1070.784
 30
4827.750
 70
    32
  0
VERTEX
  8
T04SSILL
 62
7
 10
914.576
 20
-1019.370
 30
4827.750
 70
    32
  0
VERTEX
  8
T04SSILL
 62
7
 10
917.739
 20
-1018.907
 30
4827.750
 70
    32
  0
VERTEX
  8
T04SSILL
 62
7
 10
1038.830
 20
-1065.139
 30
4827.750
 70
    32
  0
VERTEX
  8
T04SSILL
 62
7
 10
1051.927
 20
-1064.250
 30
4827.750
 70
    32
  0
VERTEX
  8
T04SSILL
 62
7
 10
1069.713
 20
-1055.411
 30
4827.750
 70
    32
  0
VERTEX
  8
T04SSILL
 62
7
 10
1072.145
 20
-1063.044
 30
4827.750
 70
    32
  0
VERTEX
  8
T04SSILL
 62
7
 10
1054.708
 20
-1071.616
 30
4827.750
 70
    32
  0
VERTEX
  8
T04SSILL
 62
7
 10
1106.567
 20
-1091.456
 30
4827.750
 70
    32
  0
VERTEX
  8
T04SSILL
 62
7
 10
1114.638
 20
-1088.845
 30
4827.750
 70
    32
  0
VERTEX
  8
T04SSILL
 62
7
 10
1130.466
 20
-1088.551
 30
4827.750
 70
    32
  0
VERTEX
  8
T04SSILL
 62
7
 10
1146.608
 20
-1059.761
 30
4827.750
 70
    32
  0
VERTEX
  8
T04SSILL
 62
7
 10
1142.602
 20
-1053.283
 30
4827.750
 70
    32
  0
VERTEX
  8
T04SSILL
 62
7
 10
1129.273
 20
-1046.611
 30
4827.750
 70
    32
  0
VERTEX
  8
T04SSILL
 62
7
 10
1106.673
 20
-1046.868
 30
4827.750
 70
    32
  0
VERTEX
  8
T04SSILL
 62
7
 10
1095.225
 20
-1032.970
 30
4827.750
 70
    32
  0
VERTEX
  8
T04SSILL
 62
7
 10
1089.020
 20
-1014.725
 30
4827.750
 70
    32
  0
VERTEX
  8
T04SSILL
 62
7
 10
1104.136
 20
-1013.292
 30
4827.750
 70
    32
  0
VERTEX
  8
T04SSILL
 62
7
 10
1119.904
 20
-1016.868
 30
4827.750
 70
    32
  0
VERTEX
  8
T04SSILL
 62
7
 10
1133.180
 20
-1016.417
 30
4827.750
 70
    32
  0
VERTEX
  8
T04SSILL
 62
7
 10
1145.995
 20
-1024.852
 30
4827.750
 70
    32
  0
VERTEX
  8
T04SSILL
 62
7
 10
1154.793
 20
-1025.314
 30
4827.750
 70
    32
  0
VERTEX
  8
T04SSILL
 62
7
 10
1172.481
 20
-1038.637
 30
4827.750
 70
    32
  0
VERTEX
  8
T04SSILL
 62
7
 10
1171.774
 20
-1049.899
 30
4827.750
 70
    32
  0
VERTEX
  8
T04SSILL
 62
7
 10
1167.745
 20
-1052.127
 30
4827.750
 70
    32
  0
VERTEX
  8
T04SSILL
 62
7
 10
1169.042
 20
-1060.912
 30
4827.750
 70
    32
  0
VERTEX
  8
T04SSILL
 62
7
 10
1210.062
 20
-1089.627
 30
4827.750
 70
    32
  0
VERTEX
  8
T04SSILL
 62
7
 10
1215.009
 20
-1104.276
 30
4827.750
 70
    32
  0
VERTEX
  8
T04SSILL
 62
7
 10
1213.282
 20
-1120.383
 30
4827.750
 70
    32
  0
VERTEX
  8
T04SSILL
 62
7
 10
1209.418
 20
-1132.811
 30
4827.750
 70
    32
  0
VERTEX
  8
T04SSILL
 62
7
 10
1211.935
 20
-1140.180
 30
4827.750
 70
    32
  0
VERTEX
  8
T04SSILL
 62
7
 10
1229.568
 20
-1157.813
 30
4827.750
 70
    32
  0
VERTEX
  8
T04SSILL
 62
7
 10
1230.448
 20
-1169.678
 30
4827.750
 70
    32
  0
VERTEX
  8
T04SSILL
 62
7
 10
1229.048
 20
-1182.353
 30
4827.750
 70
    32
  0
VERTEX
  8
T04SSILL
 62
7
 10
1237.070
 20
-1196.715
 30
4827.750
 70
    32
  0
VERTEX
  8
T04SSILL
 62
7
 10
1249.721
 20
-1206.734
 30
4827.750
 70
    32
  0
VERTEX
  8
T04SSILL
 62
7
 10
1266.174
 20
-1207.842
 30
4827.750
 70
    32
  0
VERTEX
  8
T04SSILL
 62
7
 10
1274.261
 20
-1230.823
 30
4827.750
 70
    32
  0
VERTEX
  8
T04SSILL
 62
7
 10
1296.189
 20
-1258.361
 30
4827.750
 70
    32
  0
VERTEX
  8
T04SSILL
 62
7
 10
1307.878
 20
-1269.179
 30
4827.750
 70
    32
  0
VERTEX
  8
T04SSILL
 62
7
 10
1312.763
 20
-1275.650
 30
4827.750
 70
    32
  0
VERTEX
  8
T04SSILL
 62
7
 10
1309.765
 20
-1286.313
 30
4827.750
 70
    32
  0
VERTEX
  8
T04SSILL
 62
7
 10
1295.762
 20
-1295.388
 30
4827.750
 70
    32
  0
VERTEX
  8
T04SSILL
 62
7
 10
1291.974
 20
-1294.537
 30
4827.750
 70
    32
  0
VERTEX
  8
T04SSILL
 62
7
 10
1244.158
 20
-1239.051
 30
4827.750
 70
    32
  0
VERTEX
  8
T04SSILL
 62
7
 10
1224.679
 20
-1221.520
 30
4827.750
 70
    32
  0
VERTEX
  8
T04SSILL
 62
7
 10
1210.363
 20
-1212.217
 30
4827.750
 70
    32
  0
VERTEX
  8
T04SSILL
 62
7
 10
1206.961
 20
-1168.799
 30
4827.750
 70
    32
  0
VERTEX
  8
T04SSILL
 62
7
 10
1213.306
 20
-1158.901
 30
4827.750
 70
    32
  0
VERTEX
  8
T04SSILL
 62
7
 10
1212.725
 20
-1151.782
 30
4827.750
 70
    32
  0
VERTEX
  8
T04SSILL
 62
7
 10
1199.865
 20
-1149.064
 30
4827.750
 70
    32
  0
VERTEX
  8
T04SSILL
 62
7
 10
1200.290
 20
-1135.254
 30
4827.750
 70
    32
  0
VERTEX
  8
T04SSILL
 62
7
 10
1160.208
 20
-1114.447
 30
4827.750
 70
    32
  0
VERTEX
  8
T04SSILL
 62
7
 10
1146.270
 20
-1132.140
 30
4827.750
 70
    32
  0
VERTEX
  8
T04SSILL
 62
7
 10
1133.516
 20
-1120.099
 30
4827.750
 70
    32
  0
VERTEX
  8
T04SSILL
 62
7
 10
1124.813
 20
-1108.820
 30
4827.750
 70
    32
  0
VERTEX
  8
T04SSILL
 62
7
 10
1111.297
 20
-1100.654
 30
4827.750
 70
    32
  0
VERTEX
  8
T04SSILL
 62
7
 10
915.951
 20
-1026.835
 30
4827.750
 70
    32
  0
VERTEX
  8
T04SSILL
 62
7
 10
856.487
 20
-1083.739
 30
4827.750
 70
    32
  0
VERTEX
  8
T04SSILL
 62
7
 10
854.222
 20
-1086.570
 30
4827.750
 70
    32
  0
VERTEX
  8
T04SSILL
 62
7
 10
853.470
 20
-1091.853
 30
4827.750
 70
    32
  0
VERTEX
  8
T04SSILL
 62
7
 10
977.805
 20
-1277.890
 30
4827.750
 70
    32
  0
VERTEX
  8
T04SSILL
 62
7
 10
1205.081
 20
-1658.567
 30
4827.750
 70
    32
  0
VERTEX
  8
T04SSILL
 62
7
 10
1210.004
 20
-1658.267
 30
4827.750
 70
    32
  0
VERTEX
  8
T04SSILL
 62
7
 10
1222.780
 20
-1649.817
 30
4827.750
 70
    32
  0
VERTEX
  8
T04SSILL
 62
7
 10
1221.859
 20
-1632.499
 30
4827.750
 70
    32
  0
VERTEX
  8
T04SSILL
 62
7
 10
1222.939
 20
-1624.048
 30
4827.750
 70
    32
  0
VERTEX
  8
T04SSILL
 62
7
 10
1230.213
 20
-1620.564
 30
4827.750
 70
    32
  0
VERTEX
  8
T04SSILL
 62
7
 10
1248.038
 20
-1616.913
 30
4827.750
 70
    32
  0
VERTEX
  8
T04SSILL
 62
7
 10
1266.361
 20
-1632.782
 30
4827.750
 70
    32
  0
VERTEX
  8
T04SSILL
 62
7
 10
1273.640
 20
-1641.873
 30
4827.750
 70
    32
  0
VERTEX
  8
T04SSILL
 62
7
 10
1275.169
 20
-1646.435
 30
4827.750
 70
    32
  0
VERTEX
  8
T04SSILL
 62
7
 10
1267.712
 20
-1660.561
 30
4827.750
 70
    32
  0
VERTEX
  8
T04SSILL
 62
7
 10
1249.666
 20
-1681.803
 30
4827.750
 70
    32
  0
VERTEX
  8
T04SSILL
 62
7
 10
1246.777
 20
-1683.583
 30
4827.750
 70
    32
  0
VERTEX
  8
T04SSILL
 62
7
 10
1239.088
 20
-1678.452
 30
4827.750
 70
    32
  0
VERTEX
  8
T04SSILL
 62
7
 10
1223.843
 20
-1686.129
 30
4827.750
 70
    32
  0
VERTEX
  8
T04SSILL
 62
7
 10
1222.372
 20
-1689.306
 30
4827.750
 70
    32
  0
VERTEX
  8
T04SSILL
 62
7
 10
1302.962
 20
-1823.344
 30
4827.750
 70
    32
  0
VERTEX
  8
T04SSILL
 62
7
 10
1398.997
 20
-1977.204
 30
4827.750
 70
    32
  0
VERTEX
  8
T04SSILL
 62
7
 10
1833.453
 20
-2708.687
 30
4827.750
 70
    32
  0
VERTEX
  8
T04SSILL
 62
7
 10
1847.040
 20
-2719.175
 30
4827.750
 70
    32
  0
VERTEX
  8
T04SSILL
 62
7
 10
1856.772
 20
-2721.952
 30
4827.750
 70
    32
  0
VERTEX
  8
T04SSILL
 62
7
 10
1867.814
 20
-2719.200
 30
4827.750
 70
    32
  0
VERTEX
  8
T04SSILL
 62
7
 10
1874.597
 20
-2712.516
 30
4827.750
 70
    32
  0
VERTEX
  8
T04SSILL
 62
7
 10
1879.802
 20
-2686.356
 30
4827.750
 70
    32
  0
VERTEX
  8
T04SSILL
 62
7
 10
1884.030
 20
-2679.901
 30
4827.750
 70
    32
  0
VERTEX
  8
T04SSILL
 62
7
 10
1889.549
 20
-2681.826
 30
4827.750
 70
    32
  0
VERTEX
  8
T04SSILL
 62
7
 10
1896.951
 20
-2674.887
 30
4827.750
 70
    32
  0
VERTEX
  8
T04SSILL
 62
7
 10
1907.563
 20
-2671.426
 30
4827.750
 70
    32
  0
VERTEX
  8
T04SSILL
 62
7
 10
1919.575
 20
-2687.526
 30
4827.750
 70
    32
  0
VERTEX
  8
T04SSILL
 62
7
 10
1929.452
 20
-2679.917
 30
4827.750
 70
    32
  0
VERTEX
  8
T04SSILL
 62
7
 10
2120.510
 20
-2335.479
 30
4827.750
 70
    32
  0
VERTEX
  8
T04SSILL
 62
7
 10
2151.586
 20
-2341.633
 30
4827.750
 70
    32
  0
VERTEX
  8
T04SSILL
 62
7
 10
2150.094
 20
-2347.686
 30
4827.750
 70
    32
  0
VERTEX
  8
T04SSILL
 62
7
 10
2124.286
 20
-2342.486
 30
4827.750
 70
    32
  0
VERTEX
  8
T04SSILL
 62
7
 10
1932.242
 20
-2688.142
 30
4827.750
 70
    32
  0
VERTEX
  8
T04SSILL
 62
7
 10
1916.328
 20
-2699.452
 30
4827.750
 70
    32
  0
VERTEX
  8
T04SSILL
 62
7
 10
1916.458
 20
-2702.799
 30
4827.750
 70
    32
  0
VERTEX
  8
T04SSILL
 62
7
 10
1911.512
 20
-2716.639
 30
4827.750
 70
    32
  0
VERTEX
  8
T04SSILL
 62
7
 10
1892.418
 20
-2728.697
 30
4827.750
 70
    32
  0
VERTEX
  8
T04SSILL
 62
7
 10
1863.269
 20
-2735.862
 30
4827.750
 70
    32
  0
VERTEX
  8
T04SSILL
 62
7
 10
1851.732
 20
-2736.230
 30
4827.750
 70
    32
  0
VERTEX
  8
T04SSILL
 62
7
 10
1595.679
 20
-2570.169
 30
4827.750
 70
    32
  0
VERTEX
  8
T04SSILL
 62
7
 10
1496.743
 20
-2727.860
 30
4827.750
 70
    32
  0
VERTEX
  8
T04SSILL
 62
7
 10
1490.667
 20
-2734.289
 30
4827.750
 70
    32
  0
VERTEX
  8
T04SSILL
 62
7
 10
1481.701
 20
-2739.710
 30
4827.750
 70
    32
  0
VERTEX
  8
T04SSILL
 62
7
 10
1471.717
 20
-2742.388
 30
4827.750
 70
    32
  0
VERTEX
  8
T04SSILL
 62
7
 10
1461.071
 20
-2741.976
 30
4827.750
 70
    32
  0
VERTEX
  8
T04SSILL
 62
7
 10
1323.396
 20
-2697.632
 30
4827.750
 70
    32
  0
VERTEX
  8
T04SSILL
 62
7
 10
1103.080
 20
-2892.455
 30
4827.750
 70
    32
  0
VERTEX
  8
T04SSILL
 62
7
 10
888.935
 20
-2884.195
 30
4827.750
 70
    32
  0
VERTEX
  8
T04SSILL
 62
7
 10
860.406
 20
-2884.766
 30
4827.750
 70
    32
  0
VERTEX
  8
T04SSILL
 62
7
 10
857.462
 20
-2887.542
 30
4827.750
 70
    32
  0
VERTEX
  8
T04SSILL
 62
7
 10
858.342
 20
-2900.230
 30
4827.750
 70
    32
  0
VERTEX
  8
T04SSILL
 62
7
 10
864.191
 20
-2910.083
 30
4827.750
 70
    32
  0
VERTEX
  8
T04SSILL
 62
7
 10
875.994
 20
-2922.219
 30
4827.750
 70
    32
  0
VERTEX
  8
T04SSILL
 62
7
 10
885.154
 20
-2934.494
 30
4827.750
 70
    32
  0
VERTEX
  8
T04SSILL
 62
7
 10
885.917
 20
-2949.294
 30
4827.750
 70
    32
  0
VERTEX
  8
T04SSILL
 62
7
 10
888.952
 20
-2952.593
 30
4827.750
 70
    32
  0
VERTEX
  8
T04SSILL
 62
7
 10
895.477
 20
-2951.803
 30
4827.750
 70
    32
  0
VERTEX
  8
T04SSILL
 62
7
 10
903.753
 20
-2957.992
 30
4827.750
 70
    32
  0
VERTEX
  8
T04SSILL
 62
7
 10
901.574
 20
-2962.804
 30
4827.750
 70
    32
  0
VERTEX
  8
T04SSILL
 62
7
 10
902.378
 20
-2974.611
 30
4827.750
 70
    32
  0
VERTEX
  8
T04SSILL
 62
7
 10
905.816
 20
-2980.556
 30
4827.750
 70
    32
  0
VERTEX
  8
T04SSILL
 62
7
 10
918.073
 20
-2991.730
 30
4827.750
 70
    32
  0
VERTEX
  8
T04SSILL
 62
7
 10
928.031
 20
-3009.915
 30
4827.750
 70
    32
  0
VERTEX
  8
T04SSILL
 62
7
 10
929.515
 20
-3023.491
 30
4827.750
 70
    32
  0
VERTEX
  8
T04SSILL
 62
7
 10
926.382
 20
-3033.571
 30
4827.750
 70
    32
  0
VERTEX
  8
T04SSILL
 62
7
 10
907.131
 20
-3044.219
 30
4827.750
 70
    32
  0
VERTEX
  8
T04SSILL
 62
7
 10
900.595
 20
-3045.801
 30
4827.750
 70
    32
  0
VERTEX
  8
T04SSILL
 62
7
 10
854.319
 20
-3005.896
 30
4827.750
 70
    32
  0
VERTEX
  8
T04SSILL
 62
7
 10
847.650
 20
-2998.057
 30
4827.750
 70
    32
  0
VERTEX
  8
T04SSILL
 62
7
 10
844.844
 20
-2990.976
 30
4827.750
 70
    32
  0
VERTEX
  8
T04SSILL
 62
7
 10
840.559
 20
-2988.892
 30
4827.750
 70
    32
  0
VERTEX
  8
T04SSILL
 62
7
 10
832.702
 20
-2977.867
 30
4827.750
 70
    32
  0
VERTEX
  8
T04SSILL
 62
7
 10
835.228
 20
-2973.501
 30
4827.750
 70
    32
  0
VERTEX
  8
T04SSILL
 62
7
 10
862.345
 20
-2966.835
 30
4827.750
 70
    32
  0
VERTEX
  8
T04SSILL
 62
7
 10
864.253
 20
-2962.549
 30
4827.750
 70
    32
  0
VERTEX
  8
T04SSILL
 62
7
 10
863.240
 20
-2953.115
 30
4827.750
 70
    32
  0
VERTEX
  8
T04SSILL
 62
7
 10
858.188
 20
-2942.922
 30
4827.750
 70
    32
  0
VERTEX
  8
T04SSILL
 62
7
 10
840.355
 20
-2921.283
 30
4827.750
 70
    32
  0
VERTEX
  8
T04SSILL
 62
7
 10
834.082
 20
-2903.942
 30
4827.750
 70
    32
  0
VERTEX
  8
T04SSILL
 62
7
 10
825.846
 20
-2888.511
 30
4827.750
 70
    32
  0
VERTEX
  8
T04SSILL
 62
7
 10
814.564
 20
-2889.586
 30
4827.750
 70
    32
  0
VERTEX
  8
T04SSILL
 62
7
 10
804.377
 20
-2887.860
 30
4827.750
 70
    32
  0
VERTEX
  8
T04SSILL
 62
7
 10
798.012
 20
-2883.458
 30
4827.750
 70
    32
  0
VERTEX
  8
T04SSILL
 62
7
 10
803.509
 20
-2874.292
 30
4827.750
 70
    32
  0
VERTEX
  8
T04SSILL
 62
7
 10
828.237
 20
-2868.562
 30
4827.750
 70
    32
  0
VERTEX
  8
T04SSILL
 62
7
 10
828.972
 20
-2866.283
 30
4827.750
 70
    32
  0
VERTEX
  8
T04SSILL
 62
7
 10
828.061
 20
-2849.545
 30
4827.750
 70
    32
  0
VERTEX
  8
T04SSILL
 62
7
 10
825.779
 20
-2842.735
 30
4827.750
 70
    32
  0
VERTEX
  8
T04SSILL
 62
7
 10
826.372
 20
-2831.740
 30
4827.750
 70
    32
  0
VERTEX
  8
T04SSILL
 62
7
 10
840.041
 20
-2829.994
 30
4827.750
 70
    32
  0
VERTEX
  8
T04SSILL
 62
7
 10
850.188
 20
-2866.226
 30
4827.750
 70
    32
  0
VERTEX
  8
T04SSILL
 62
7
 10
858.866
 20
-2875.238
 30
4827.750
 70
    32
  0
VERTEX
  8
T04SSILL
 62
7
 10
1100.714
 20
-2885.380
 30
4827.750
 70
    32
  0
VERTEX
  8
T04SSILL
 62
7
 10
1386.604
 20
-2634.074
 30
4827.750
 70
    32
  0
VERTEX
  8
T04SSILL
 62
7
 10
1395.861
 20
-2614.045
 30
4827.750
 70
    32
  0
VERTEX
  8
T04SSILL
 62
7
 10
1374.035
 20
-2588.389
 30
4827.750
 70
    32
  0
VERTEX
  8
T04SSILL
 62
7
 10
1336.145
 20
-2565.767
 30
4827.750
 70
    32
  0
VERTEX
  8
T04SSILL
 62
7
 10
1287.013
 20
-2541.316
 30
4827.750
 70
    32
  0
VERTEX
  8
T04SSILL
 62
7
 10
1267.031
 20
-2541.302
 30
4827.750
 70
    32
  0
VERTEX
  8
T04SSILL
 62
7
 10
1254.366
 20
-2534.172
 30
4827.750
 70
    32
  0
VERTEX
  8
T04SSILL
 62
7
 10
1242.368
 20
-2523.441
 30
4827.750
 70
    32
  0
VERTEX
  8
T04SSILL
 62
7
 10
1233.541
 20
-2518.829
 30
4827.750
 70
    32
  0
VERTEX
  8
T04SSILL
 62
7
 10
1221.617
 20
-2502.730
 30
4827.750
 70
    32
  0
VERTEX
  8
T04SSILL
 62
7
 10
1217.809
 20
-2504.350
 30
4827.750
 70
    32
  0
VERTEX
  8
T04SSILL
 62
7
 10
1212.357
 20
-2503.922
 30
4827.750
 70
    32
  0
VERTEX
  8
T04SSILL
 62
7
 10
1206.152
 20
-2494.417
 30
4827.750
 70
    32
  0
VERTEX
  8
T04SSILL
 62
7
 10
1192.185
 20
-2485.948
 30
4827.750
 70
    32
  0
VERTEX
  8
T04SSILL
 62
7
 10
1184.286
 20
-2477.915
 30
4827.750
 70
    32
  0
VERTEX
  8
T04SSILL
 62
7
 10
1176.302
 20
-2463.368
 30
4827.750
 70
    32
  0
VERTEX
  8
T04SSILL
 62
7
 10
1173.840
 20
-2463.157
 30
4827.750
 70
    32
  0
VERTEX
  8
T04SSILL
 62
7
 10
1159.451
 20
-2472.376
 30
4827.750
 70
    32
  0
VERTEX
  8
T04SSILL
 62
7
 10
1151.178
 20
-2459.585
 30
4827.750
 70
    32
  0
VERTEX
  8
T04SSILL
 62
7
 10
1143.364
 20
-2451.818
 30
4827.750
 70
    32
  0
VERTEX
  8
T04SSILL
 62
7
 10
1138.312
 20
-2441.624
 30
4827.750
 70
    32
  0
VERTEX
  8
T04SSILL
 62
7
 10
1123.916
 20
-2419.681
 30
4827.750
 70
    32
  0
VERTEX
  8
T04SSILL
 62
7
 10
1122.671
 20
-2414.294
 30
4827.750
 70
    32
  0
VERTEX
  8
T04SSILL
 62
7
 10
1126.930
 20
-2411.889
 30
4827.750
 70
    32
  0
VERTEX
  8
T04SSILL
 62
7
 10
1109.410
 20
-2386.733
 30
4827.750
 70
    32
  0
VERTEX
  8
T04SSILL
 62
7
 10
1098.312
 20
-2368.181
 30
4827.750
 70
    32
  0
VERTEX
  8
T04SSILL
 62
7
 10
1094.372
 20
-2354.041
 30
4827.750
 70
    32
  0
VERTEX
  8
T04SSILL
 62
7
 10
1098.181
 20
-2345.996
 30
4827.750
 70
    32
  0
VERTEX
  8
T04SSILL
 62
7
 10
1112.347
 20
-2340.119
 30
4827.750
 70
    32
  0
VERTEX
  8
T04SSILL
 62
7
 10
1137.448
 20
-2351.824
 30
4827.750
 70
    32
  0
VERTEX
  8
T04SSILL
 62
7
 10
1150.341
 20
-2355.260
 30
4827.750
 70
    32
  0
VERTEX
  8
T04SSILL
 62
7
 10
1163.491
 20
-2365.478
 30
4827.750
 70
    32
  0
VERTEX
  8
T04SSILL
 62
7
 10
1176.872
 20
-2378.076
 30
4827.750
 70
    32
  0
VERTEX
  8
T04SSILL
 62
7
 10
1189.868
 20
-2393.046
 30
4827.750
 70
    32
  0
VERTEX
  8
T04SSILL
 62
7
 10
1191.248
 20
-2414.104
 30
4827.750
 70
    32
  0
VERTEX
  8
T04SSILL
 62
7
 10
1197.974
 20
-2411.468
 30
4827.750
 70
    32
  0
VERTEX
  8
T04SSILL
 62
7
 10
1206.708
 20
-2403.755
 30
4827.750
 70
    32
  0
VERTEX
  8
T04SSILL
 62
7
 10
1214.223
 20
-2414.071
 30
4827.750
 70
    32
  0
VERTEX
  8
T04SSILL
 62
7
 10
1278.304
 20
-2363.730
 30
4827.750
 70
    32
  0
VERTEX
  8
T04SSILL
 62
7
 10
943.676
 20
-1941.998
 30
4827.750
 70
    32
  0
VERTEX
  8
T04SSILL
 62
7
 10
934.104
 20
-1946.707
 30
4827.750
 70
    32
  0
VERTEX
  8
T04SSILL
 62
7
 10
928.976
 20
-1935.632
 30
4827.750
 70
    32
  0
VERTEX
  8
T04SSILL
 62
7
 10
923.314
 20
-1937.666
 30
4827.750
 70
    32
  0
VERTEX
  8
T04SSILL
 62
7
 10
915.435
 20
-1921.887
 30
4827.750
 70
    32
  0
VERTEX
  8
T04SSILL
 62
7
 10
910.121
 20
-1924.190
 30
4827.750
 70
    32
  0
VERTEX
  8
T04SSILL
 62
7
 10
897.996
 20
-1897.261
 30
4827.750
 70
    32
  0
VERTEX
  8
T04SSILL
 62
7
 10
892.510
 20
-1899.297
 30
4827.750
 70
    32
  0
VERTEX
  8
T04SSILL
 62
7
 10
835.324
 20
-1770.205
 30
4827.750
 70
    32
  0
VERTEX
  8
T04SSILL
 62
7
 10
828.925
 20
-1772.979
 30
4827.750
 70
    32
  0
VERTEX
  8
T04SSILL
 62
7
 10
822.295
 20
-1756.671
 30
4827.750
 70
    32
  0
VERTEX
  8
T04SSILL
 62
7
 10
817.655
 20
-1759.520
 30
4827.750
 70
    32
  0
VERTEX
  8
T04SSILL
 62
7
 10
812.473
 20
-1748.566
 30
4827.750
 70
    32
  0
VERTEX
  8
T04SSILL
 62
7
 10
806.153
 20
-1750.196
 30
4827.750
 70
    32
  0
VERTEX
  8
T04SSILL
 62
7
 10
804.269
 20
-1745.197
 30
4827.750
 70
    32
  0
VERTEX
  8
T04SSILL
 62
7
 10
798.571
 20
-1747.614
 30
4827.750
 70
    32
  0
VERTEX
  8
T04SSILL
 62
7
 10
796.770
 20
-1741.999
 30
4827.750
 70
    32
  0
VERTEX
  8
T04SSILL
 62
7
 10
790.722
 20
-1744.771
 30
4827.750
 70
    32
  0
VERTEX
  8
T04SSILL
 62
7
 10
789.095
 20
-1738.803
 30
4827.750
 70
    32
  0
VERTEX
  8
T04SSILL
 62
7
 10
783.136
 20
-1741.662
 30
4827.750
 70
    32
  0
VERTEX
  8
T04SSILL
 62
7
 10
778.215
 20
-1730.442
 30
4827.750
 70
    32
  0
VERTEX
  8
T04SSILL
 62
7
 10
772.167
 20
-1733.037
 30
4827.750
 70
    32
  0
VERTEX
  8
T04SSILL
 62
7
 10
767.339
 20
-1722.432
 30
4827.750
 70
    32
  0
VERTEX
  8
T04SSILL
 62
7
 10
773.299
 20
-1719.749
 30
4827.750
 70
    32
  0
VERTEX
  8
T04SSILL
 62
7
 10
768.382
 20
-1709.145
 30
4827.750
 70
    32
  0
VERTEX
  8
T04SSILL
 62
7
 10
778.804
 20
-1703.351
 30
4827.750
 70
    32
  0
VERTEX
  8
T04SSILL
 62
7
 10
776.743
 20
-1698.178
 30
4827.750
 70
    32
  0
VERTEX
  8
T04SSILL
 62
7
 10
782.177
 20
-1695.762
 30
4827.750
 70
    32
  0
VERTEX
  8
T04SSILL
 62
7
 10
776.995
 20
-1684.808
 30
4827.750
 70
    32
  0
VERTEX
  8
T04SSILL
 62
7
 10
788.122
 20
-1679.185
 30
4827.750
 70
    32
  0
VERTEX
  8
T04SSILL
 62
7
 10
783.034
 20
-1669.197
 30
4827.750
 70
    32
  0
VERTEX
  8
T04SSILL
 62
7
 10
788.641
 20
-1666.253
 30
4827.750
 70
    32
  0
VERTEX
  8
T04SSILL
 62
7
 10
785.962
 20
-1660.821
 30
4827.750
 70
    32
  0
VERTEX
  8
T04SSILL
 62
7
 10
791.567
 20
-1657.789
 30
4827.750
 70
    32
  0
VERTEX
  8
T04SSILL
 62
7
 10
784.239
 20
-1642.190
 30
4827.750
 70
    32
  0
VERTEX
  8
T04SSILL
 62
7
 10
795.633
 20
-1637.004
 30
4827.750
 70
    32
  0
VERTEX
  8
T04SSILL
 62
7
 10
788.041
 20
-1621.319
 30
4827.750
 70
    32
  0
VERTEX
  8
T04SSILL
 62
7
 10
793.913
 20
-1618.637
 30
4827.750
 70
    32
  0
VERTEX
  8
T04SSILL
 62
7
 10
778.713
 20
-1585.244
 30
4827.750
 70
    32
  0
VERTEX
  8
T04SSILL
 62
7
 10
784.921
 20
-1580.449
 30
4827.750
 70
    32
  0
VERTEX
  8
T04SSILL
 62
7
 10
769.188
 20
-1558.141
 30
4827.750
 70
    32
  0
VERTEX
  8
T04SSILL
 62
7
 10
657.133
 20
-1673.656
 30
4827.750
 70
    32
  0
VERTEX
  8
T04SSILL
 62
7
 10
651.033
 20
-1681.177
 30
4827.750
 70
    32
  0
VERTEX
  8
T04SSILL
 62
7
 10
647.593
 20
-1691.492
 30
4827.750
 70
    32
  0
VERTEX
  8
T04SSILL
 62
7
 10
643.206
 20
-1692.932
 30
4827.750
 70
    32
  0
VERTEX
  8
T04SSILL
 62
7
 10
634.911
 20
-1689.124
 30
4827.750
 70
    32
  0
VERTEX
  8
T04SSILL
 62
7
 10
632.300
 20
-1680.965
 30
4827.750
 70
    32
  0
VERTEX
  8
T04SSILL
 62
7
 10
635.495
 20
-1673.114
 30
4827.750
 70
    32
  0
VERTEX
  8
T04SSILL
 62
7
 10
633.051
 20
-1663.811
 30
4827.750
 70
    32
  0
VERTEX
  8
T04SSILL
 62
7
 10
637.502
 20
-1659.204
 30
4827.750
 70
    32
  0
VERTEX
  8
T04SSILL
 62
7
 10
648.721
 20
-1665.892
 30
4827.750
 70
    32
  0
VERTEX
  8
T04SSILL
 62
7
 10
654.085
 20
-1665.852
 30
4827.750
 70
    32
  0
VERTEX
  8
T04SSILL
 62
7
 10
755.324
 20
-1562.202
 30
4827.750
 70
    32
  0
VERTEX
  8
T04SSILL
 62
7
 10
749.859
 20
-1560.484
 30
4827.750
 70
    32
  0
VERTEX
  8
T04SSILL
 62
7
 10
729.661
 20
-1540.936
 30
4827.750
 70
    32
  0
VERTEX
  8
T04SSILL
 62
7
 10
735.255
 20
-1489.183
 30
4827.750
 70
    32
  0
VERTEX
  8
T04SSILL
 62
7
 10
675.970
 20
-1405.289
 30
4827.750
 70
    32
  0
VERTEX
  8
T04SSILL
 62
7
 10
670.979
 20
-1408.316
 30
4827.750
 70
    32
  0
VERTEX
  8
T04SSILL
 62
7
 10
661.019
 20
-1393.441
 30
4827.750
 70
    32
  0
VERTEX
  8
T04SSILL
 62
7
 10
655.945
 20
-1397.084
 30
4827.750
 70
    32
  0
VERTEX
  8
T04SSILL
 62
7
 10
652.218
 20
-1392.627
 30
4827.750
 70
    32
  0
VERTEX
  8
T04SSILL
 62
7
 10
647.758
 20
-1396.002
 30
4827.750
 70
    32
  0
VERTEX
  8
T04SSILL
 62
7
 10
637.269
 20
-1380.954
 30
4827.750
 70
    32
  0
VERTEX
  8
T04SSILL
 62
7
 10
647.331
 20
-1374.108
 30
4827.750
 70
    32
  0
VERTEX
  8
T04SSILL
 62
7
 10
638.700
 20
-1360.717
 30
4827.750
 70
    32
  0
VERTEX
  8
T04SSILL
 62
7
 10
629.088
 20
-1357.183
 30
4827.750
 70
    32
  0
VERTEX
  8
T04SSILL
 62
7
 10
535.220
 20
-1423.314
 30
4827.750
 70
    32
  0
VERTEX
  8
T04SSILL
 62
7
 10
532.890
 20
-1429.312
 30
4827.750
 70
    32
  0
VERTEX
  8
T04SSILL
 62
7
 10
541.461
 20
-1446.572
 30
4827.750
 70
    32
  0
VERTEX
  8
T04SSILL
 62
7
 10
546.274
 20
-1443.283
 30
4827.750
 70
    32
  0
VERTEX
  8
T04SSILL
 62
7
 10
553.913
 20
-1453.515
 30
4827.750
 70
    32
  0
VERTEX
  8
T04SSILL
 62
7
 10
548.487
 20
-1457.073
 30
4827.750
 70
    32
  0
VERTEX
  8
T04SSILL
 62
7
 10
586.883
 20
-1511.135
 30
4827.750
 70
    32
  0
VERTEX
  8
T04SSILL
 62
7
 10
581.459
 20
-1514.957
 30
4827.750
 70
    32
  0
VERTEX
  8
T04SSILL
 62
7
 10
585.625
 20
-1519.323
 30
4827.750
 70
    32
  0
VERTEX
  8
T04SSILL
 62
7
 10
580.462
 20
-1522.791
 30
4827.750
 70
    32
  0
VERTEX
  8
T04SSILL
 62
7
 10
594.769
 20
-1542.560
 30
4827.750
 70
    32
  0
VERTEX
  8
T04SSILL
 62
7
 10
560.653
 20
-1566.911
 30
4827.750
 70
    32
  0
VERTEX
  8
T04SSILL
 62
7
 10
549.902
 20
-1552.217
 30
4827.750
 70
    32
  0
VERTEX
  8
T04SSILL
 62
7
 10
554.624
 20
-1548.576
 30
4827.750
 70
    32
  0
VERTEX
  8
T04SSILL
 62
7
 10
546.990
 20
-1539.047
 30
4827.750
 70
    32
  0
VERTEX
  8
T04SSILL
 62
7
 10
552.415
 20
-1535.489
 30
4827.750
 70
    32
  0
VERTEX
  8
T04SSILL
 62
7
 10
545.396
 20
-1525.868
 30
4827.750
 70
    32
  0
VERTEX
  8
T04SSILL
 62
7
 10
550.820
 20
-1522.046
 30
4827.750
 70
    32
  0
VERTEX
  8
T04SSILL
 62
7
 10
532.873
 20
-1497.644
 30
4827.750
 70
    32
  0
VERTEX
  8
T04SSILL
 62
7
 10
543.109
 20
-1490.444
 30
4827.750
 70
    32
  0
VERTEX
  8
T04SSILL
 62
7
 10
501.780
 20
-1432.183
 30
4827.750
 70
    32
  0
VERTEX
  8
T04SSILL
 62
7
 10
445.426
 20
-1469.892
 30
4827.750
 70
    32
  0
VERTEX
  8
T04SSILL
 62
7
 10
442.824
 20
-1474.660
 30
4827.750
 70
    32
  0
VERTEX
  8
T04SSILL
 62
7
 10
411.553
 20
-1585.526
 30
4827.750
 70
    32
  0
VERTEX
  8
T04SSILL
 62
7
 10
509.219
 20
-1674.410
 30
4827.750
 70
    32
  0
VERTEX
  8
T04SSILL
 62
7
 10
471.800
 20
-1715.759
 30
4827.750
 70
    32
  0
VERTEX
  8
T04SSILL
 62
7
 10
466.038
 20
-1709.558
 30
4827.750
 70
    32
  0
VERTEX
  8
T04SSILL
 62
7
 10
498.666
 20
-1674.489
 30
4827.750
 70
    32
  0
VERTEX
  8
T04SSILL
 62
7
 10
409.162
 20
-1595.130
 30
4827.750
 70
    32
  0
VERTEX
  8
T04SSILL
 62
7
 10
387.779
 20
-1663.973
 30
4827.750
 70
    32
  0
VERTEX
  8
T04SSILL
 62
7
 10
388.287
 20
-1673.027
 30
4827.750
 70
    32
  0
VERTEX
  8
T04SSILL
 62
7
 10
379.215
 20
-1671.161
 30
4827.750
 70
    32
  0
VERTEX
  8
T04SSILL
 62
7
 10
435.979
 20
-1476.734
 30
4827.750
 70
    32
  0
VERTEX
  8
T04SSILL
 62
7
 10
381.912
 20
-1514.426
 30
4827.750
 70
    32
  0
VERTEX
  8
T04SSILL
 62
7
 10
359.304
 20
-1513.452
 30
4827.750
 70
    32
  0
VERTEX
  8
T04SSILL
 62
7
 10
349.137
 20
-1518.101
 30
4827.750
 70
    32
  0
VERTEX
  8
T04SSILL
 62
7
 10
332.694
 20
-1518.400
 30
4827.750
 70
    32
  0
VERTEX
  8
T04SSILL
 62
7
 10
323.096
 20
-1528.585
 30
4827.750
 70
    32
  0
VERTEX
  8
T04SSILL
 62
7
 10
316.012
 20
-1533.738
 30
4827.750
 70
    32
  0
VERTEX
  8
T04SSILL
 62
7
 10
308.262
 20
-1532.301
 30
4827.750
 70
    32
  0
VERTEX
  8
T04SSILL
 62
7
 10
287.763
 20
-1507.655
 30
4827.750
 70
    32
  0
VERTEX
  8
T04SSILL
 62
7
 10
286.214
 20
-1500.455
 30
4827.750
 70
    32
  0
VERTEX
  8
T04SSILL
 62
7
 10
287.800
 20
-1489.098
 30
4827.750
 70
    32
  0
VERTEX
  8
T04SSILL
 62
7
 10
305.033
 20
-1476.833
 30
4827.750
 70
    32
  0
VERTEX
  8
T04SSILL
 62
7
 10
310.034
 20
-1475.301
 30
4827.750
 70
    32
  0
VERTEX
  8
T04SSILL
 62
7
 10
315.513
 20
-1478.778
 30
4827.750
 70
    32
  0
VERTEX
  8
T04SSILL
 62
7
 10
316.997
 20
-1477.360
 30
4827.750
 70
    32
  0
VERTEX
  8
T04SSILL
 62
7
 10
315.521
 20
-1468.137
 30
4827.750
 70
    32
  0
VERTEX
  8
T04SSILL
 62
7
 10
322.266
 20
-1464.568
 30
4827.750
 70
    32
  0
VERTEX
  8
T04SSILL
 62
7
 10
324.165
 20
-1471.502
 30
4827.750
 70
    32
  0
VERTEX
  8
T04SSILL
 62
7
 10
334.194
 20
-1483.739
 30
4827.750
 70
    32
  0
VERTEX
  8
T04SSILL
 62
7
 10
357.667
 20
-1506.253
 30
4827.750
 70
    32
  0
VERTEX
  8
T04SSILL
 62
7
 10
379.041
 20
-1506.796
 30
4827.750
 70
    32
  0
VERTEX
  8
T04SSILL
 62
7
 10
493.045
 20
-1428.466
 30
4827.750
 70
    32
  0
VERTEX
  8
T04SSILL
 62
7
 10
495.464
 20
-1422.644
 30
4827.750
 70
    32
  0
VERTEX
  8
T04SSILL
 62
7
 10
466.849
 20
-1382.844
 30
4827.750
 70
    32
  0
VERTEX
  8
T04SSILL
 62
7
 10
476.554
 20
-1375.208
 30
4827.750
 70
    32
  0
VERTEX
  8
T04SSILL
 62
7
 10
466.244
 20
-1360.775
 30
4827.750
 70
    32
  0
VERTEX
  8
T04SSILL
 62
7
 10
470.969
 20
-1357.486
 30
4827.750
 70
    32
  0
VERTEX
  8
T04SSILL
 62
7
 10
467.942
 20
-1352.583
 30
4827.750
 70
    32
  0
VERTEX
  8
T04SSILL
 62
7
 10
472.493
 20
-1349.559
 30
4827.750
 70
    32
  0
VERTEX
  8
T04SSILL
 62
7
 10
462.269
 20
-1334.773
 30
4827.750
 70
    32
  0
VERTEX
  8
T04SSILL
 62
7
 10
466.818
 20
-1331.661
 30
4827.750
 70
    32
  0
VERTEX
  8
T04SSILL
 62
7
 10
463.525
 20
-1326.409
 30
4827.750
 70
    32
  0
VERTEX
  8
T04SSILL
 62
7
 10
468.246
 20
-1322.592
 30
4827.750
 70
    32
  0
VERTEX
  8
T04SSILL
 62
7
 10
453.676
 20
-1302.914
 30
4827.750
 70
    32
  0
VERTEX
  8
T04SSILL
 62
7
 10
459.543
 20
-1299.616
 30
4827.750
 70
    32
  0
VERTEX
  8
T04SSILL
 62
7
 10
452.437
 20
-1290.084
 30
4827.750
 70
    32
  0
VERTEX
  8
T04SSILL
 62
7
 10
461.706
 20
-1283.067
 30
4827.750
 70
    32
  0
VERTEX
  8
T04SSILL
 62
7
 10
467.262
 20
-1273.352
 30
4827.750
 70
    32
  0
VERTEX
  8
T04SSILL
 62
7
 10
453.511
 20
-1245.577
 30
4827.750
 70
    32
  0
VERTEX
  8
T04SSILL
 62
7
 10
436.876
 20
-1220.197
 30
4827.750
 70
    32
  0
VERTEX
  8
T04SSILL
 62
7
 10
432.721
 20
-1217.238
 30
4827.750
 70
    32
  0
VERTEX
  8
T04SSILL
 62
7
 10
431.446
 20
-1211.444
 30
4827.750
 70
    32
  0
VERTEX
  8
T04SSILL
 62
7
 10
414.166
 20
-1217.465
 30
4827.750
 70
    32
  0
VERTEX
  8
T04SSILL
 62
7
 10
419.842
 20
-1235.627
 30
4827.750
 70
    32
  0
VERTEX
  8
T04SSILL
 62
7
 10
413.788
 20
-1237.431
 30
4827.750
 70
    32
  0
VERTEX
  8
T04SSILL
 62
7
 10
416.204
 20
-1243.041
 30
4827.750
 70
    32
  0
VERTEX
  8
T04SSILL
 62
7
 10
410.588
 20
-1244.666
 30
4827.750
 70
    32
  0
VERTEX
  8
T04SSILL
 62
7
 10
411.781
 20
-1251.253
 30
4827.750
 70
    32
  0
VERTEX
  8
T04SSILL
 62
7
 10
407.392
 20
-1252.341
 30
4827.750
 70
    32
  0
VERTEX
  8
T04SSILL
 62
7
 10
408.749
 20
-1257.520
 30
4827.750
 70
    32
  0
VERTEX
  8
T04SSILL
 62
7
 10
402.962
 20
-1259.762
 30
4827.750
 70
    32
  0
VERTEX
  8
T04SSILL
 62
7
 10
401.250
 20
-1254.322
 30
4827.750
 70
    32
  0
VERTEX
  8
T04SSILL
 62
7
 10
395.458
 20
-1255.948
 30
4827.750
 70
    32
  0
VERTEX
  8
T04SSILL
 62
7
 10
386.096
 20
-1227.085
 30
4827.750
 70
    32
  0
VERTEX
  8
T04SSILL
 62
7
 10
380.306
 20
-1228.887
 30
4827.750
 70
    32
  0
VERTEX
  8
T04SSILL
 62
7
 10
376.180
 20
-1218.189
 30
4827.750
 70
    32
  0
VERTEX
  8
T04SSILL
 62
7
 10
370.741
 20
-1219.900
 30
4827.750
 70
    32
  0
VERTEX
  8
T04SSILL
 62
7
 10
368.409
 20
-1213.850
 30
4827.750
 70
    32
  0
VERTEX
  8
T04SSILL
 62
7
 10
363.059
 20
-1215.824
 30
4827.750
 70
    32
  0
VERTEX
  8
T04SSILL
 62
7
 10
384.675
 20
-1272.210
 30
4827.750
 70
    32
  0
VERTEX
  8
T04SSILL
 62
7
 10
390.583
 20
-1297.933
 30
4827.750
 70
    32
  0
VERTEX
  8
T04SSILL
 62
7
 10
421.101
 20
-1321.626
 30
4827.750
 70
    32
  0
VERTEX
  8
T04SSILL
 62
7
 10
418.426
 20
-1328.505
 30
4827.750
 70
    32
  0
VERTEX
  8
T04SSILL
 62
7
 10
384.283
 20
-1302.114
 30
4827.750
 70
    32
  0
VERTEX
  8
T04SSILL
 62
7
 10
377.744
 20
-1274.461
 30
4827.750
 70
    32
  0
VERTEX
  8
T04SSILL
 62
7
 10
355.869
 20
-1218.692
 30
4827.750
 70
    32
  0
VERTEX
  8
T04SSILL
 62
7
 10
229.364
 20
-1259.916
 30
4827.750
 70
    32
  0
VERTEX
  8
T04SSILL
 62
7
 10
258.107
 20
-1340.345
 30
4827.750
 70
    32
  0
VERTEX
  8
T04SSILL
 62
7
 10
252.052
 20
-1342.149
 30
4827.750
 70
    32
  0
VERTEX
  8
T04SSILL
 62
7
 10
272.353
 20
-1399.072
 30
4827.750
 70
    32
  0
VERTEX
  8
T04SSILL
 62
7
 10
255.686
 20
-1404.737
 30
4827.750
 70
    32
  0
VERTEX
  8
T04SSILL
 62
7
 10
252.922
 20
-1399.657
 30
4827.750
 70
    32
  0
VERTEX
  8
T04SSILL
 62
7
 10
248.006
 20
-1400.925
 30
4827.750
 70
    32
  0
VERTEX
  8
T04SSILL
 62
7
 10
241.814
 20
-1384.262
 30
4827.750
 70
    32
  0
VERTEX
  8
T04SSILL
 62
7
 10
235.758
 20
-1385.978
 30
4827.750
 70
    32
  0
VERTEX
  8
T04SSILL
 62
7
 10
193.621
 20
-1266.691
 30
4827.750
 70
    32
  0
VERTEX
  8
T04SSILL
 62
7
 10
182.488
 20
-1271.435
 30
4827.750
 70
    32
  0
VERTEX
  8
T04SSILL
 62
7
 10
180.333
 20
-1265.471
 30
4827.750
 70
    32
  0
VERTEX
  8
T04SSILL
 62
7
 10
168.929
 20
-1269.338
 30
4827.750
 70
    32
  0
VERTEX
  8
T04SSILL
 62
7
 10
166.862
 20
-1263.373
 30
4827.750
 70
    32
  0
VERTEX
  8
T04SSILL
 62
7
 10
161.424
 20
-1265.261
 30
4827.750
 70
    32
  0
VERTEX
  8
T04SSILL
 62
7
 10
150.926
 20
-1237.373
 30
4827.750
 70
    32
  0
VERTEX
  8
T04SSILL
 62
7
 10
145.577
 20
-1239.436
 30
4827.750
 70
    32
  0
VERTEX
  8
T04SSILL
 62
7
 10
123.562
 20
-1176.721
 30
4827.750
 70
    32
  0
VERTEX
  8
T04SSILL
 62
7
 10
118.121
 20
-1178.345
 30
4827.750
 70
    32
  0
VERTEX
  8
T04SSILL
 62
7
 10
99.840
 20
-1127.934
 30
4827.750
 70
    32
  0
VERTEX
  8
T04SSILL
 62
7
 10
82.959
 20
-1137.901
 30
4827.750
 70
    32
  0
VERTEX
  8
T04SSILL
 62
7
 10
72.756
 20
-1159.086
 30
4827.750
 70
    32
  0
VERTEX
  8
T04SSILL
 62
7
 10
48.267
 20
-1174.904
 30
4827.750
 70
    32
  0
VERTEX
  8
T04SSILL
 62
7
 10
30.670
 20
-1197.027
 30
4827.750
 70
    32
  0
VERTEX
  8
T04SSILL
 62
7
 10
7.639
 20
-1198.342
 30
4827.750
 70
    32
  0
VERTEX
  8
T04SSILL
 62
7
 10
-24.156
 20
-1142.342
 30
4827.750
 70
    32
  0
VERTEX
  8
T04SSILL
 62
7
 10
-35.183
 20
-1092.729
 30
4827.750
 70
    32
  0
VERTEX
  8
T04SSILL
 62
7
 10
-28.292
 20
-1090.698
 30
4827.750
 70
    32
  0
VERTEX
  8
T04SSILL
 62
7
 10
-18.029
 20
-1138.013
 30
4827.750
 70
    32
  0
VERTEX
  8
T04SSILL
 62
7
 10
4.236
 20
-1175.610
 30
4827.750
 70
    32
  0
VERTEX
  8
T04SSILL
 62
7
 10
10.743
 20
-1190.052
 30
4827.750
 70
    32
  0
VERTEX
  8
T04SSILL
 62
7
 10
26.482
 20
-1189.759
 30
4827.750
 70
    32
  0
VERTEX
  8
T04SSILL
 62
7
 10
38.060
 20
-1173.843
 30
4827.750
 70
    32
  0
VERTEX
  8
T04SSILL
 62
7
 10
34.340
 20
-1170.156
 30
4827.750
 70
    32
  0
VERTEX
  8
T04SSILL
 62
7
 10
37.725
 20
-1166.851
 30
4827.750
 70
    32
  0
VERTEX
  8
T04SSILL
 62
7
 10
41.485
 20
-1169.009
 30
4827.750
 70
    32
  0
VERTEX
  8
T04SSILL
 62
7
 10
45.727
 20
-1167.650
 30
4827.750
 70
    32
  0
VERTEX
  8
T04SSILL
 62
7
 10
67.829
 20
-1152.593
 30
4827.750
 70
    32
  0
VERTEX
  8
T04SSILL
 62
7
 10
78.452
 20
-1132.910
 30
4827.750
 70
    32
  0
VERTEX
  8
T04SSILL
 62
7
 10
97.002
 20
-1120.364
 30
4827.750
 70
    32
  0
VERTEX
  8
T04SSILL
 62
7
 10
59.977
 20
-1013.215
 30
4827.750
 70
    32
  0
VERTEX
  8
T04SSILL
 62
7
 10
55.469
 20
-1014.658
 30
4827.750
 70
    32
  0
VERTEX
  8
T04SSILL
 62
7
 10
48.891
 20
-997.764
 30
4827.750
 70
    32
  0
VERTEX
  8
T04SSILL
 62
7
 10
42.531
 20
-999.537
 30
4827.750
 70
    32
  0
VERTEX
  8
T04SSILL
 62
7
 10
36.390
 20
-982.824
 30
4827.750
 70
    32
  0
VERTEX
  8
T04SSILL
 62
7
 10
31.707
 20
-984.265
 30
4827.750
 70
    32
  0
VERTEX
  8
T04SSILL
 62
7
 10
26.579
 20
-971.261
 30
4827.750
 70
    32
  0
VERTEX
  8
T04SSILL
 62
7
 10
-21.156
 20
-987.334
 30
4827.750
 70
    32
  0
VERTEX
  8
T04SSILL
 62
7
 10
-20.619
 20
-994.032
 30
4827.750
 70
    32
  0
VERTEX
  8
T04SSILL
 62
7
 10
-36.311
 20
-1003.090
 30
4827.750
 70
    32
  0
VERTEX
  8
T04SSILL
 62
7
 10
-42.271
 20
-993.423
 30
4827.750
 70
    32
  0
VERTEX
  8
T04SSILL
 62
7
 10
-37.565
 20
-990.133
 30
4827.750
 70
    32
  0
VERTEX
  8
T04SSILL
 62
7
 10
-56.129
 20
-959.361
 30
4827.750
 70
    32
  0
VERTEX
  8
T04SSILL
 62
7
 10
-60.924
 20
-962.738
 30
4827.750
 70
    32
  0
VERTEX
  8
T04SSILL
 62
7
 10
-73.623
 20
-942.337
 30
4827.750
 70
    32
  0
VERTEX
  8
T04SSILL
 62
7
 10
-78.766
 20
-945.357
 30
4827.750
 70
    32
  0
VERTEX
  8
T04SSILL
 62
7
 10
-82.223
 20
-939.945
 30
4827.750
 70
    32
  0
VERTEX
  8
T04SSILL
 62
7
 10
-97.572
 20
-949.800
 30
4827.750
 70
    32
  0
VERTEX
  8
T04SSILL
 62
7
 10
-100.329
 20
-944.749
 30
4827.750
 70
    32
  0
VERTEX
  8
T04SSILL
 62
7
 10
-111.410
 20
-951.044
 30
4827.750
 70
    32
  0
VERTEX
  8
T04SSILL
 62
7
 10
-136.362
 20
-909.631
 30
4827.750
 70
    32
  0
VERTEX
  8
T04SSILL
 62
7
 10
-130.776
 20
-906.352
 30
4827.750
 70
    32
  0
VERTEX
  8
T04SSILL
 62
7
 10
-134.235
 20
-901.028
 30
4827.750
 70
    32
  0
VERTEX
  8
T04SSILL
 62
7
 10
-102.578
 20
-882.123
 30
4827.750
 70
    32
  0
VERTEX
  8
T04SSILL
 62
7
 10
-103.686
 20
-879.028
 30
4827.750
 70
    32
  0
VERTEX
  8
T04SSILL
 62
7
 10
-136.090
 20
-894.139
 30
4827.750
 70
    32
  0
VERTEX
  8
T04SSILL
 62
7
 10
-168.178
 20
-823.410
 30
4827.750
 70
    32
  0
VERTEX
  8
T04SSILL
 62
7
 10
-173.577
 20
-825.812
 30
4827.750
 70
    32
  0
VERTEX
  8
T04SSILL
 62
7
 10
-207.725
 20
-750.657
 30
4827.750
 70
    32
  0
VERTEX
  8
T04SSILL
 62
7
 10
-213.420
 20
-740.904
 30
4827.750
 70
    32
  0
VERTEX
  8
T04SSILL
 62
7
 10
-198.148
 20
-730.080
 30
4827.750
 70
    32
  0
VERTEX
  8
T04SSILL
 62
7
 10
-194.079
 20
-735.939
 30
4827.750
 70
    32
  0
VERTEX
  8
T04SSILL
 62
7
 10
-178.498
 20
-728.729
 30
4827.750
 70
    32
  0
VERTEX
  8
T04SSILL
 62
7
 10
-176.274
 20
-734.214
 30
4827.750
 70
    32
  0
VERTEX
  8
T04SSILL
 62
7
 10
-160.660
 20
-724.275
 30
4827.750
 70
    32
  0
VERTEX
  8
T04SSILL
 62
7
 10
-161.533
 20
-716.252
 30
4827.750
 70
    32
  0
VERTEX
  8
T04SSILL
 62
7
 10
-197.659
 20
-726.036
 30
4827.750
 70
    32
  0
VERTEX
  8
T04SSILL
 62
7
 10
-199.177
 20
-720.383
 30
4827.750
 70
    32
  0
VERTEX
  8
T04SSILL
 62
7
 10
-216.396
 20
-724.669
 30
4827.750
 70
    32
  0
VERTEX
  8
T04SSILL
 62
7
 10
-217.827
 20
-719.105
 30
4827.750
 70
    32
  0
VERTEX
  8
T04SSILL
 62
7
 10
-224.094
 20
-720.439
 30
4827.750
 70
    32
  0
VERTEX
  8
T04SSILL
 62
7
 10
-228.025
 20
-703.048
 30
4827.750
 70
    32
  0
VERTEX
  8
T04SSILL
 62
7
 10
-238.060
 20
-702.840
 30
4827.750
 70
    32
  0
VERTEX
  8
T04SSILL
 62
7
 10
-241.297
 20
-701.129
 30
4827.750
 70
    32
  0
VERTEX
  8
T04SSILL
 62
7
 10
-242.907
 20
-695.827
 30
4827.750
 70
    32
  0
VERTEX
  8
T04SSILL
 62
7
 10
-242.965
 20
-685.878
 30
4827.750
 70
    32
  0
VERTEX
  8
T04SSILL
 62
7
 10
-267.408
 20
-631.264
 30
4827.750
 70
    32
  0
VERTEX
  8
T04SSILL
 62
7
 10
-289.090
 20
-596.141
 30
4827.750
 70
    32
  0
VERTEX
  8
T04SSILL
 62
7
 10
-298.890
 20
-583.611
 30
4827.750
 70
    32
  0
VERTEX
  8
T04SSILL
 62
7
 10
-318.314
 20
-551.156
 30
4827.750
 70
    32
  0
VERTEX
  8
T04SSILL
 62
7
 10
-329.492
 20
-536.056
 30
4827.750
 70
    32
  0
VERTEX
  8
T04SSILL
 62
7
 10
-361.833
 20
-479.235
 30
4827.750
 70
    32
  0
VERTEX
  8
T04SSILL
 62
7
 10
-361.610
 20
-475.276
 30
4827.750
 70
    32
  0
VERTEX
  8
T04SSILL
 62
7
 10
-373.831
 20
-429.436
 30
4827.750
 70
    32
  0
VERTEX
  8
T04SSILL
 62
7
 10
-379.310
 20
-431.132
 30
4827.750
 70
    32
  0
VERTEX
  8
T04SSILL
 62
7
 10
-385.190
 20
-407.290
 30
4827.750
 70
    32
  0
VERTEX
  8
T04SSILL
 62
7
 10
-391.195
 20
-408.803
 30
4827.750
 70
    32
  0
VERTEX
  8
T04SSILL
 62
7
 10
-393.882
 20
-397.854
 30
4827.750
 70
    32
  0
VERTEX
  8
T04SSILL
 62
7
 10
-400.061
 20
-399.189
 30
4827.750
 70
    32
  0
VERTEX
  8
T04SSILL
 62
7
 10
-404.596
 20
-380.734
 30
4827.750
 70
    32
  0
VERTEX
  8
T04SSILL
 62
7
 10
-410.074
 20
-382.342
 30
4827.750
 70
    32
  0
VERTEX
  8
T04SSILL
 62
7
 10
-414.807
 20
-365.734
 30
4827.750
 70
    32
  0
VERTEX
  8
T04SSILL
 62
7
 10
-449.594
 20
-373.948
 30
4827.750
 70
    32
  0
VERTEX
  8
T04SSILL
 62
7
 10
-451.020
 20
-368.032
 30
4827.750
 70
    32
  0
VERTEX
  8
T04SSILL
 62
7
 10
-461.634
 20
-364.737
 30
4827.750
 70
    32
  0
VERTEX
  8
T04SSILL
 62
7
 10
-653.273
 20
-384.294
 30
4827.750
 70
    32
  0
VERTEX
  8
T04SSILL
 62
7
 10
-670.099
 20
-392.458
 30
4827.750
 70
    32
  0
VERTEX
  8
T04SSILL
 62
7
 10
-681.041
 20
-394.529
 30
4827.750
 70
    32
  0
VERTEX
  8
T04SSILL
 62
7
 10
-693.455
 20
-394.557
 30
4827.750
 70
    32
  0
VERTEX
  8
T04SSILL
 62
7
 10
-693.286
 20
-380.296
 30
4827.750
 70
    32
  0
VERTEX
  8
T04SSILL
 62
7
 10
-689.996
 20
-377.606
 30
4827.750
 70
    32
  0
VERTEX
  8
T04SSILL
 62
7
 10
-674.972
 20
-372.854
 30
4827.750
 70
    32
  0
VERTEX
  8
T04SSILL
 62
7
 10
-662.711
 20
-370.887
 30
4827.750
 70
    32
  0
VERTEX
  8
T04SSILL
 62
7
 10
-660.040
 20
-368.365
 30
4827.750
 70
    32
  0
VERTEX
  8
T04SSILL
 62
7
 10
-749.690
 20
-207.236
 30
4827.750
 70
    32
  0
VERTEX
  8
T04SSILL
 62
7
 10
-810.863
 20
-132.660
 30
4827.750
 70
    32
  0
VERTEX
  8
T04SSILL
 62
7
 10
-813.962
 20
-131.579
 30
4827.750
 70
    32
  0
VERTEX
  8
T04SSILL
 62
7
 10
-1333.025
 20
-507.399
 30
4827.750
 70
    32
  0
VERTEX
  8
T04SSILL
 62
7
 10
-1336.947
 20
-500.516
 30
4827.750
 70
    32
  0
VERTEX
  8
T04SSILL
 62
7
 10
-902.814
 20
-186.399
 30
4827.750
 70
    32
  0
VERTEX
  8
T04SSILL
 62
7
 10
-635.156
 20
5.555
 30
4827.750
 70
    32
  0
VERTEX
  8
T04SSILL
 62
7
 10
-634.346
 20
9.000
 30
4827.750
 70
    32
  0
VERTEX
  8
T04SSILL
 62
7
 10
-672.394
 20
108.818
 30
4827.750
 70
    32
  0
VERTEX
  8
T04SSILL
 62
7
 10
-695.548
 20
176.140
 30
4827.750
 70
    32
  0
VERTEX
  8
T04SSILL
 62
7
 10
-718.234
 20
215.777
 30
4827.750
 70
    32
  0
VERTEX
  8
T04SSILL
 62
7
 10
-769.713
 20
283.850
 30
4827.750
 70
    32
  0
VERTEX
  8
T04SSILL
 62
7
 10
-821.664
 20
419.348
 30
4827.750
 70
    32
  0
VERTEX
  8
T04SSILL
 62
7
 10
-825.690
 20
427.180
 30
4827.750
 70
    32
  0
VERTEX
  8
T04SSILL
 62
7
 10
-829.935
 20
428.413
 30
4827.750
 70
    32
  0
VERTEX
  8
T04SSILL
 62
7
 10
-911.990
 20
368.302
 30
4827.750
 70
    32
  0
VERTEX
  8
T04SSILL
 62
7
 10
-916.572
 20
373.222
 30
4827.750
 70
    32
  0
VERTEX
  8
T04SSILL
 62
7
 10
-835.496
 20
433.929
 30
4827.750
 70
    32
  0
VERTEX
  8
T04SSILL
 62
7
 10
-832.192
 20
440.149
 30
4827.750
 70
    32
  0
VERTEX
  8
T04SSILL
 62
7
 10
-885.594
 20
551.528
 30
4827.750
 70
    32
  0
VERTEX
  8
T04SSILL
 62
7
 10
-897.669
 20
570.541
 30
4827.750
 70
    32
  0
VERTEX
  8
T04SSILL
 62
7
 10
-945.680
 20
636.661
 30
4827.750
 70
    32
  0
VERTEX
  8
T04SSILL
 62
7
 10
-965.226
 20
661.014
 30
4827.750
 70
    32
  0
VERTEX
  8
T04SSILL
 62
7
 10
-1044.256
 20
815.655
 30
4827.750
 70
    32
  0
VERTEX
  8
T04SSILL
 62
7
 10
-1037.946
 20
819.145
 30
4827.750
 70
    32
  0
VERTEX
  8
T04SSILL
 62
7
 10
-1010.094
 20
766.290
 30
4827.750
 70
    32
  0
VERTEX
  8
T04SSILL
 62
7
 10
-987.316
 20
779.612
 30
4827.750
 70
    32
  0
VERTEX
  8
T04SSILL
 62
7
 10
-979.882
 20
795.352
 30
4827.750
 70
    32
  0
VERTEX
  8
T04SSILL
 62
7
 10
-993.320
 20
821.475
 30
4827.750
 70
    32
  0
VERTEX
  8
T04SSILL
 62
7
 10
-999.836
 20
821.417
 30
4827.750
 70
    32
  0
VERTEX
  8
T04SSILL
 62
7
 10
-1011.822
 20
842.534
 30
4827.750
 70
    32
  0
VERTEX
  8
T04SSILL
 62
7
 10
-1009.066
 20
849.515
 30
4827.750
 70
    32
  0
VERTEX
  8
T04SSILL
 62
7
 10
-1017.136
 20
865.911
 30
4827.750
 70
    32
  0
VERTEX
  8
T04SSILL
 62
7
 10
-1064.062
 20
944.927
 30
4827.750
 70
    32
  0
VERTEX
  8
T04SSILL
 62
7
 10
-1107.107
 20
933.101
 30
4827.750
 70
    32
  0
VERTEX
  8
T04SSILL
 62
7
 10
-1279.085
 20
1262.865
 30
4827.750
 70
    32
  0
VERTEX
  8
T04SSILL
 62
7
 10
-1280.172
 20
1266.289
 30
4827.750
 70
    32
  0
VERTEX
  8
T04SSILL
 62
7
 10
-1278.082
 20
1268.950
 30
4827.750
 70
    32
  0
VERTEX
  8
T04SSILL
 62
7
 10
-1249.944
 20
1293.590
 30
4827.750
 70
    32
  0
VERTEX
  8
T04SSILL
 62
7
 10
-1247.242
 20
1296.784
 30
4827.750
 70
    32
  0
VERTEX
  8
T04SSILL
 62
7
 10
-1248.064
 20
1300.123
 30
4827.750
 70
    32
  0
VERTEX
  8
T04SSILL
 62
7
 10
-1399.656
 20
1524.924
 30
4827.750
 70
    32
  0
VERTEX
  8
T04SSILL
 62
7
 10
-1498.726
 20
1465.316
 30
4827.750
 70
    32
  0
VERTEX
  8
T04SSILL
 62
7
 10
-1501.867
 20
1471.981
 30
4827.750
 70
    32
  0
VERTEX
  8
T04SSILL
 62
7
 10
-1437.923
 20
1510.585
 30
4827.750
 70
    32
  0
VERTEX
  8
T04SSILL
 62
7
 10
-1344.019
 20
1576.752
 30
4827.750
 70
    32
  0
VERTEX
  8
T04SSILL
 62
7
 10
-1339.655
 20
1571.243
 30
4827.750
 70
    32
  0
VERTEX
  8
T04SSILL
 62
7
 10
-1391.536
 20
1532.833
 30
4827.750
 70
    32
  0
VERTEX
  8
T04SSILL
 62
7
 10
-1392.915
 20
1529.386
 30
4827.750
 70
    32
  0
VERTEX
  8
T04SSILL
 62
7
 10
-1240.775
 20
1302.388
 30
4827.750
 70
    32
  0
VERTEX
  8
T04SSILL
 62
7
 10
-1166.835
 20
1365.738
 30
4827.750
 70
    32
  0
VERTEX
  8
T04SSILL
 62
7
 10
-1161.422
 20
1361.118
 30
4827.750
 70
    32
  0
VERTEX
  8
T04SSILL
 62
7
 10
-1270.310
 20
1266.376
 30
4827.750
 70
    32
  0
VERTEX
  8
T04SSILL
 62
7
 10
-1270.903
 20
1263.729
 30
4827.750
 70
    32
  0
VERTEX
  8
T04SSILL
 62
7
 10
-1194.843
 20
1116.372
 30
4827.750
 70
    32
  0
VERTEX
  8
T04SSILL
 62
7
 10
-1192.279
 20
1115.249
 30
4827.750
 70
    32
  0
VERTEX
  8
T04SSILL
 62
7
 10
-1189.203
 20
1115.893
 30
4827.750
 70
    32
  0
VERTEX
  8
T04SSILL
 62
7
 10
-1145.633
 20
1138.027
 30
4827.750
 70
    32
  0
VERTEX
  8
T04SSILL
 62
7
 10
-1142.595
 20
1133.123
 30
4827.750
 70
    32
  0
VERTEX
  8
T04SSILL
 62
7
 10
-1168.020
 20
1120.394
 30
4827.750
 70
    32
  0
VERTEX
  8
T04SSILL
 62
7
 10
-1168.270
 20
1118.719
 30
4827.750
 70
    32
  0
VERTEX
  8
T04SSILL
 62
7
 10
-1156.753
 20
1120.846
 30
4827.750
 70
    32
  0
VERTEX
  8
T04SSILL
 62
7
 10
-1150.910
 20
1117.375
 30
4827.750
 70
    32
  0
VERTEX
  8
T04SSILL
 62
7
 10
-1095.340
 20
1026.811
 30
4827.750
 70
    32
  0
VERTEX
  8
T04SSILL
 62
7
 10
-1065.240
 20
968.605
 30
4827.750
 70
    32
  0
VERTEX
  8
T04SSILL
 62
7
 10
-1065.440
 20
961.382
 30
4827.750
 70
    32
  0
VERTEX
  8
T04SSILL
 62
7
 10
-1008.768
 20
865.721
 30
4827.750
 70
    32
  0
VERTEX
  8
T04SSILL
 62
7
 10
-973.947
 20
801.392
 30
4827.750
 70
    32
  0
VERTEX
  8
T04SSILL
 62
7
 10
-938.557
 20
822.485
 30
4827.750
 70
    32
  0
VERTEX
  8
T04SSILL
 62
7
 10
-951.942
 20
842.533
 30
4827.750
 70
    32
  0
VERTEX
  8
T04SSILL
 62
7
 10
-945.728
 20
846.903
 30
4827.750
 70
    32
  0
VERTEX
  8
T04SSILL
 62
7
 10
-889.950
 20
762.681
 30
4827.750
 70
    32
  0
VERTEX
  8
T04SSILL
 62
7
 10
-714.117
 20
589.342
 30
4827.750
 70
    32
  0
VERTEX
  8
T04SSILL
 62
7
 10
-656.653
 20
507.762
 30
4827.750
 70
    32
  0
VERTEX
  8
T04SSILL
 62
7
 10
-653.308
 20
507.565
 30
4827.750
 70
    32
  0
VERTEX
  8
T04SSILL
 62
7
 10
-481.971
 20
692.730
 30
4827.750
 70
    32
  0
VERTEX
  8
T04SSILL
 62
7
 10
-468.169
 20
679.643
 30
4827.750
 70
    32
  0
VERTEX
  8
T04SSILL
 62
7
 10
-475.119
 20
675.459
 30
4827.750
 70
    32
  0
VERTEX
  8
T04SSILL
 62
7
 10
-488.245
 20
672.383
 30
4827.750
 70
    32
  0
VERTEX
  8
T04SSILL
 62
7
 10
-493.975
 20
668.751
 30
4827.750
 70
    32
  0
VERTEX
  8
T04SSILL
 62
7
 10
-648.704
 20
501.591
 30
4827.750
 70
    32
  0
VERTEX
  8
T04SSILL
 62
7
 10
-650.138
 20
498.573
 30
4827.750
 70
    32
  0
VERTEX
  8
T04SSILL
 62
7
 10
-205.491
 20
-139.252
 30
4827.750
 70
    32
  0
VERTEX
  8
T04SSILL
 62
7
 10
-159.369
 20
-200.870
 30
4827.750
 70
    32
  0
VERTEX
  8
T04SSILL
 62
7
 10
-140.414
 20
-228.301
 30
4827.750
 70
    32
  0
VERTEX
  8
T04SSILL
 62
7
 10
-133.240
 20
-224.777
 30
4827.750
 70
    32
  0
VERTEX
  8
T04SSILL
 62
7
 10
-136.804
 20
-213.465
 30
4827.750
 70
    32
  0
VERTEX
  8
T04SSILL
 62
7
 10
-116.905
 20
-205.953
 30
4827.750
 70
    32
  0
VERTEX
  8
T04SSILL
 62
7
 10
-107.660
 20
-228.162
 30
4827.750
 70
    32
  0
VERTEX
  8
T04SSILL
 62
7
 10
-124.498
 20
-237.383
 30
4827.750
 70
    32
  0
VERTEX
  8
T04SSILL
 62
7
 10
-80.110
 20
-295.491
 30
4827.750
 70
    32
  0
VERTEX
  8
T04SSILL
 62
7
 10
-62.822
 20
-315.066
 30
4827.750
 70
    32
  0
VERTEX
  8
T04SSILL
 62
7
 10
-41.172
 20
-330.643
 30
4827.750
 70
    32
  0
VERTEX
  8
T04SSILL
 62
7
 10
-42.018
 20
-335.123
 30
4827.750
 70
    32
  0
VERTEX
  8
T04SSILL
 62
7
 10
-46.558
 20
-339.295
 30
4827.750
 70
    32
  0
VERTEX
  8
T04SSILL
 62
7
 10
-54.603
 20
-342.105
 30
4827.750
 70
    32
  0
VERTEX
  8
T04SSILL
 62
7
 10
-56.298
 20
-343.934
 30
4827.750
 70
    32
  0
VERTEX
  8
T04SSILL
 62
7
 10
-56.443
 20
-348.774
 30
4827.750
 70
    32
  0
VERTEX
  8
T04SSILL
 62
7
 10
-45.621
 20
-364.135
 30
4827.750
 70
    32
  0
VERTEX
  8
T04SSILL
 62
7
 10
-13.862
 20
-343.998
 30
4827.750
 70
    32
  0
VERTEX
  8
T04SSILL
 62
7
 10
-4.418
 20
-342.085
 30
4827.750
 70
    32
  0
VERTEX
  8
T04SSILL
 62
7
 10
42.436
 20
-311.210
 30
4827.750
 70
    32
  0
VERTEX
  8
T04SSILL
 62
7
 10
46.418
 20
-316.893
 30
4827.750
 70
    32
  0
VERTEX
  8
T04SSILL
 62
7
 10
-16.166
 20
-360.083
 30
4827.750
 70
    32
  0
VERTEX
  8
T04SSILL
 62
7
 10
-38.342
 20
-373.994
 30
4827.750
 70
    32
  0
VERTEX
  8
T04SSILL
 62
7
 10
173.602
 20
-675.774
 30
4827.750
 70
    32
  0
VERTEX
  8
T04SSILL
 62
7
 10
271.254
 20
-741.470
 30
4827.750
 70
    32
  0
VERTEX
  8
T04SSILL
 62
7
 10
295.737
 20
-748.277
 30
4827.750
 70
    32
  0
VERTEX
  8
T04SSILL
 62
7
 10
324.916
 20
-767.465
 30
4827.750
 70
    32
  0
VERTEX
  8
T04SSILL
 62
7
 10
351.887
 20
-787.155
 30
4827.750
 70
    32
  0
VERTEX
  8
T04SSILL
 62
7
 10
362.970
 20
-788.079
 30
4827.750
 70
    32
  0
VERTEX
  8
T04SSILL
 62
7
 10
375.464
 20
-781.360
 30
4827.750
 70
    32
  0
VERTEX
  8
T04SSILL
 62
7
 10
378.681
 20
-784.744
 30
4827.750
 70
    32
  0
VERTEX
  8
T04SSILL
 62
7
 10
373.349
 20
-788.907
 30
4827.750
 70
    32
  0
VERTEX
  8
T04SSILL
 62
7
 10
373.953
 20
-797.366
 30
4827.750
 70
    32
  0
VERTEX
  8
T04SSILL
 62
7
 10
379.818
 20
-800.165
 30
4827.750
 70
    32
  0
VERTEX
  8
T04SSILL
 62
7
 10
391.946
 20
-794.674
 30
4827.750
 70
    32
  0
VERTEX
  8
T04SSILL
 62
7
 10
395.968
 20
-789.616
 30
4827.750
 70
    32
  0
VERTEX
  8
T04SSILL
 62
7
 10
406.255
 20
-783.399
 30
4827.750
 70
    32
  0
VERTEX
  8
T04SSILL
 62
7
 10
408.165
 20
-785.623
 30
4827.750
 70
    32
  0
VERTEX
  8
T04SSILL
 62
7
 10
455.308
 20
-752.638
 30
4827.750
 70
    32
  0
VERTEX
  8
T04SSILL
 62
7
 10
532.593
 20
-672.196
 30
4827.750
 70
    32
  0
VERTEX
  8
T04SSILL
 62
7
 10
644.020
 20
-560.696
 30
4827.750
 70
    32
  0
VERTEX
  8
T04SSILL
 62
7
 10
642.120
 20
-555.839
 30
4827.750
 70
    32
  0
VERTEX
  8
T04SSILL
 62
7
 10
634.008
 20
-545.741
 30
4827.750
 70
    32
  0
VERTEX
  8
T04SSILL
 62
7
 10
639.679
 20
-541.029
 30
4827.750
 70
    32
  0
VERTEX
  8
T04SSILL
 62
7
 10
645.267
 20
-547.235
 30
4827.750
 70
    32
  0
VERTEX
  8
T04SSILL
 62
7
 10
652.623
 20
-552.397
 30
4827.750
 70
    32
  0
VERTEX
  8
T04SSILL
 62
7
 10
741.958
 20
-463.269
 30
4827.750
 70
    32
  0
VERTEX
  8
T04SSILL
 62
7
 10
760.998
 20
-367.269
 30
4827.750
 70
    32
  0
VERTEX
  8
T04SSILL
 62
7
 10
764.233
 20
-358.578
 30
4827.750
 70
    32
  0
VERTEX
  8
T04SSILL
 62
7
 10
770.258
 20
-353.605
 30
4827.750
 70
    32
  0
VERTEX
  8
T04SSILL
 62
7
 10
769.436
 20
-334.317
 30
4827.750
 70
    32
  0
VERTEX
  8
T04SSILL
 62
7
 10
775.367
 20
-330.048
 30
4827.750
 70
    32
  0
VERTEX
  8
T04SSILL
 62
7
 10
780.763
 20
-315.033
 30
4827.750
 70
    32
  0
VERTEX
  8
T04SSILL
 62
7
 10
783.850
 20
-314.264
 30
4827.750
 70
    32
  0
VERTEX
  8
T04SSILL
 62
7
 10
789.289
 20
-305.325
 30
4827.750
 70
    32
  0
VERTEX
  8
T04SSILL
 62
7
 10
788.099
 20
-299.681
 30
4827.750
 70
    32
  0
VERTEX
  8
T04SSILL
 62
7
 10
776.690
 20
-283.218
 30
4827.750
 70
    32
  0
VERTEX
  8
T04SSILL
 62
7
 10
777.241
 20
-280.229
 30
4827.750
 70
    32
  0
VERTEX
  8
T04SSILL
 62
7
 10
783.377
 20
-272.176
 30
4827.750
 70
    32
  0
VERTEX
  8
T04SSILL
 62
7
 10
781.100
 20
-258.864
 30
4827.750
 70
    32
  0
VERTEX
  8
T04SSILL
 62
7
 10
788.295
 20
-238.844
 30
4827.750
 70
    32
  0
VERTEX
  8
T04SSILL
 62
7
 10
764.552
 20
-200.277
 30
4827.750
 70
    32
  0
VERTEX
  8
T04SSILL
 62
7
 10
847.988
 20
109.885
 30
4827.750
 70
    32
  0
VERTEX
  8
T04SSILL
 62
7
 10
846.017
 20
116.943
 30
4827.750
 70
    32
  0
VERTEX
  8
T04SSILL
 62
7
 10
850.160
 20
117.616
 30
4827.750
 70
    32
  0
VERTEX
  8
T04SSILL
 62
7
 10
954.864
 20
504.040
 30
4827.750
 70
    32
  0
VERTEX
  8
T04SSILL
 62
7
 10
1065.095
 20
562.194
 30
4827.750
 70
    32
  0
VERTEX
  8
T04SSILL
 62
7
 10
1124.854
 20
547.567
 30
4827.750
 70
    32
  0
VERTEX
  8
T04SSILL
 62
7
 10
1139.915
 20
548.333
 30
4827.750
 70
    32
  0
VERTEX
  8
T04SSILL
 62
7
 10
1162.767
 20
543.054
 30
4827.750
 70
    32
  0
VERTEX
  8
T04SSILL
 62
7
 10
1168.811
 20
527.424
 30
4827.750
 70
    32
  0
VERTEX
  8
T04SSILL
 62
7
 10
1151.408
 20
508.010
 30
4827.750
 70
    32
  0
VERTEX
  8
T04SSILL
 62
7
 10
1120.641
 20
502.784
 30
4827.750
 70
    32
  0
VERTEX
  8
T04SSILL
 62
7
 10
1108.686
 20
516.962
 30
4827.750
 70
    32
  0
VERTEX
  8
T04SSILL
 62
7
 10
1105.998
 20
522.441
 30
4827.750
 70
    32
  0
VERTEX
  8
T04SSILL
 62
7
 10
1111.622
 20
532.523
 30
4827.750
 70
    32
  0
VERTEX
  8
T04SSILL
 62
7
 10
1120.145
 20
541.880
 30
4827.750
 70
    32
  0
VERTEX
  8
T04SSILL
 62
7
 10
1065.481
 20
555.060
 30
4827.750
 70
    32
  0
VERTEX
  8
T04SSILL
 62
7
 10
960.641
 20
499.506
 30
4827.750
 70
    32
  0
VERTEX
  8
T04SSILL
 62
7
 10
908.288
 20
306.206
 30
4827.750
 70
    32
  0
VERTEX
  8
T04SSILL
 62
7
 10
941.403
 20
307.628
 30
4827.750
 70
    32
  0
VERTEX
  8
T04SSILL
 62
7
 10
955.034
 20
328.831
 30
4827.750
 70
    32
  0
VERTEX
  8
T04SSILL
 62
7
 10
954.306
 20
348.911
 30
4827.750
 70
    32
  0
VERTEX
  8
T04SSILL
 62
7
 10
967.408
 20
369.942
 30
4827.750
 70
    32
  0
VERTEX
  8
T04SSILL
 62
7
 10
974.660
 20
374.289
 30
4827.750
 70
    32
  0
VERTEX
  8
T04SSILL
 62
7
 10
977.453
 20
371.099
 30
4827.750
 70
    32
  0
VERTEX
  8
T04SSILL
 62
7
 10
978.881
 20
362.019
 30
4827.750
 70
    32
  0
VERTEX
  8
T04SSILL
 62
7
 10
962.344
 20
317.506
 30
4827.750
 70
    32
  0
VERTEX
  8
T04SSILL
 62
7
 10
936.755
 20
275.175
 30
4827.750
 70
    32
  0
VERTEX
  8
T04SSILL
 62
7
 10
932.458
 20
277.409
 30
4827.750
 70
    32
  0
VERTEX
  8
T04SSILL
 62
7
 10
936.109
 20
282.840
 30
4827.750
 70
    32
  0
VERTEX
  8
T04SSILL
 62
7
 10
938.298
 20
292.948
 30
4827.750
 70
    32
  0
VERTEX
  8
T04SSILL
 62
7
 10
937.653
 20
300.789
 30
4827.750
 70
    32
  0
VERTEX
  8
T04SSILL
 62
7
 10
906.652
 20
299.439
 30
4827.750
 70
    32
  0
VERTEX
  8
T04SSILL
 62
7
 10
857.823
 20
118.087
 30
4827.750
 70
    32
  0
VERTEX
  8
T04SSILL
 62
7
 10
947.730
 20
131.581
 30
4827.750
 70
    32
  0
VERTEX
  8
T04SSILL
 62
7
 10
1023.132
 20
229.443
 30
4827.750
 70
    32
  0
VERTEX
  8
T04SSILL
 62
7
 10
1020.353
 20
234.570
 30
4827.750
 70
    32
  0
VERTEX
  8
T04SSILL
 62
7
 10
1008.773
 20
240.029
 30
4827.750
 70
    32
  0
VERTEX
  8
T04SSILL
 62
7
 10
990.511
 20
246.770
 30
4827.750
 70
    32
  0
VERTEX
  8
T04SSILL
 62
7
 10
968.454
 20
252.308
 30
4827.750
 70
    32
  0
VERTEX
  8
T04SSILL
 62
7
 10
969.819
 20
258.196
 30
4827.750
 70
    32
  0
VERTEX
  8
T04SSILL
 62
7
 10
997.155
 20
252.179
 30
4827.750
 70
    32
  0
VERTEX
  8
T04SSILL
 62
7
 10
1009.957
 20
256.836
 30
4827.750
 70
    32
  0
VERTEX
  8
T04SSILL
 62
7
 10
1016.257
 20
263.392
 30
4827.750
 70
    32
  0
VERTEX
  8
T04SSILL
 62
7
 10
1022.615
 20
265.809
 30
4827.750
 70
    32
  0
VERTEX
  8
T04SSILL
 62
7
 10
1036.608
 20
265.086
 30
4827.750
 70
    32
  0
VERTEX
  8
T04SSILL
 62
7
 10
1054.006
 20
260.464
 30
4827.750
 70
    32
  0
VERTEX
  8
T04SSILL
 62
7
 10
1070.668
 20
263.332
 30
4827.750
 70
    32
  0
VERTEX
  8
T04SSILL
 62
7
 10
1072.553
 20
268.160
 30
4827.750
 70
    32
  0
VERTEX
  8
T04SSILL
 62
7
 10
1061.356
 20
277.753
 30
4827.750
 70
    32
  0
VERTEX
  8
T04SSILL
 62
7
 10
1065.436
 20
281.684
 30
4827.750
 70
    32
  0
VERTEX
  8
T04SSILL
 62
7
 10
1071.561
 20
276.620
 30
4827.750
 70
    32
  0
VERTEX
  8
T04SSILL
 62
7
 10
1078.788
 20
277.621
 30
4827.750
 70
    32
  0
VERTEX
  8
T04SSILL
 62
7
 10
1090.459
 20
284.136
 30
4827.750
 70
    32
  0
VERTEX
  8
T04SSILL
 62
7
 10
1102.211
 20
301.304
 30
4827.750
 70
    32
  0
VERTEX
  8
T04SSILL
 62
7
 10
1103.215
 20
317.584
 30
4827.750
 70
    32
  0
VERTEX
  8
T04SSILL
 62
7
 10
1101.981
 20
329.127
 30
4827.750
 70
    32
  0
VERTEX
  8
T04SSILL
 62
7
 10
1108.236
 20
341.230
 30
4827.750
 70
    32
  0
VERTEX
  8
T04SSILL
 62
7
 10
1116.119
 20
347.422
 30
4827.750
 70
    32
  0
VERTEX
  8
T04SSILL
 62
7
 10
1122.802
 20
346.402
 30
4827.750
 70
    32
  0
VERTEX
  8
T04SSILL
 62
7
 10
1128.999
 20
327.602
 30
4827.750
 70
    32
  0
VERTEX
  8
T04SSILL
 62
7
 10
1133.883
 20
321.402
 30
4827.750
 70
    32
  0
VERTEX
  8
T04SSILL
 62
7
 10
1140.382
 20
319.240
 30
4827.750
 70
    32
  0
VERTEX
  8
T04SSILL
 62
7
 10
1157.857
 20
324.918
 30
4827.750
 70
    32
  0
VERTEX
  8
T04SSILL
 62
7
 10
1169.164
 20
306.520
 30
4827.750
 70
    32
  0
VERTEX
  8
T04SSILL
 62
7
 10
1158.177
 20
297.358
 30
4827.750
 70
    32
  0
VERTEX
  8
T04SSILL
 62
7
 10
1144.338
 20
272.019
 30
4827.750
 70
    32
  0
VERTEX
  8
T04SSILL
 62
7
 10
1140.450
 20
270.111
 30
4827.750
 70
    32
  0
VERTEX
  8
T04SSILL
 62
7
 10
1132.977
 20
271.488
 30
4827.750
 70
    32
  0
VERTEX
  8
T04SSILL
 62
7
 10
1123.712
 20
268.829
 30
4827.750
 70
    32
  0
VERTEX
  8
T04SSILL
 62
7
 10
1111.342
 20
263.112
 30
4827.750
 70
    32
  0
VERTEX
  8
T04SSILL
 62
7
 10
1103.454
 20
256.216
 30
4827.750
 70
    32
  0
VERTEX
  8
T04SSILL
 62
7
 10
1098.088
 20
245.163
 30
4827.750
 70
    32
  0
VERTEX
  8
T04SSILL
 62
7
 10
1098.627
 20
234.946
 30
4827.750
 70
    32
  0
VERTEX
  8
T04SSILL
 62
7
 10
1104.503
 20
220.286
 30
4827.750
 70
    32
  0
VERTEX
  8
T04SSILL
 62
7
 10
1097.552
 20
209.246
 30
4827.750
 70
    32
  0
VERTEX
  8
T04SSILL
 62
7
 10
1095.117
 20
189.982
 30
4827.750
 70
    32
  0
VERTEX
  8
T04SSILL
 62
7
 10
1085.247
 20
188.825
 30
4827.750
 70
    32
  0
VERTEX
  8
T04SSILL
 62
7
 10
1082.125
 20
183.477
 30
4827.750
 70
    32
  0
VERTEX
  8
T04SSILL
 62
7
 10
1159.701
 20
173.029
 30
4827.750
 70
    32
  0
VERTEX
  8
T04SSILL
 62
7
 10
1169.684
 20
131.045
 30
4827.750
 70
    32
  0
VERTEX
  8
T04SSILL
 62
7
 10
1167.537
 20
114.949
 30
4827.750
 70
    32
  0
VERTEX
  8
T04SSILL
 62
7
 10
1151.283
 20
84.521
 30
4827.750
 70
    32
  0
VERTEX
  8
T04SSILL
 62
7
 10
1140.876
 20
70.513
 30
4827.750
 70
    32
  0
VERTEX
  8
T04SSILL
 62
7
 10
1139.016
 20
57.496
 30
4827.750
 70
    32
  0
VERTEX
  8
T04SSILL
 62
7
 10
1139.632
 20
34.160
 30
4827.750
 70
    32
  0
VERTEX
  8
T04SSILL
 62
7
 10
1136.560
 20
23.882
 30
4827.750
 70
    32
  0
VERTEX
  8
T04SSILL
 62
7
 10
1127.623
 20
17.875
 30
4827.750
 70
    32
  0
VERTEX
  8
T04SSILL
 62
7
 10
1047.313
 20
-7.226
 30
4827.750
 70
    32
  0
VERTEX
  8
T04SSILL
 62
7
 10
1017.431
 20
-18.293
 30
4827.750
 70
    32
  0
VERTEX
  8
T04SSILL
 62
7
 10
1027.307
 20
-33.047
 30
4827.750
 70
    32
  0
VERTEX
  8
T04SSILL
 62
7
 10
1020.732
 20
-41.009
 30
4827.750
 70
    32
  0
VERTEX
  8
T04SSILL
 62
7
 10
1009.835
 20
-49.995
 30
4827.750
 70
    32
  0
VERTEX
  8
T04SSILL
 62
7
 10
1013.477
 20
-57.242
 30
4827.750
 70
    32
  0
VERTEX
  8
T04SSILL
 62
7
 10
1007.386
 20
-59.397
 30
4827.750
 70
    32
  0
VERTEX
  8
T04SSILL
 62
7
 10
999.921
 20
-45.342
 30
4827.750
 70
    32
  0
VERTEX
  8
T04SSILL
 62
7
 10
990.309
 20
-35.760
 30
4827.750
 70
    32
  0
SEQEND
  8
T04SSILL
  0
POLYLINE
  8
T04SSILL
 62
7
 66
     1
 70
     9
  0
VERTEX
  8
T04SSILL
 62
7
 10
246.142
 20
-1171.463
 30
4827.750
 70
    32
  0
VERTEX
  8
T04SSILL
 62
7
 10
244.803
 20
-1143.625
 30
4827.750
 70
    32
  0
VERTEX
  8
T04SSILL
 62
7
 10
242.143
 20
-1123.079
 30
4827.750
 70
    32
  0
VERTEX
  8
T04SSILL
 62
7
 10
231.045
 20
-1101.375
 30
4827.750
 70
    32
  0
VERTEX
  8
T04SSILL
 62
7
 10
237.449
 20
-1088.598
 30
4827.750
 70
    32
  0
VERTEX
  8
T04SSILL
 62
7
 10
238.571
 20
-1083.152
 30
4827.750
 70
    32
  0
VERTEX
  8
T04SSILL
 62
7
 10
234.106
 20
-1081.074
 30
4827.750
 70
    32
  0
VERTEX
  8
T04SSILL
 62
7
 10
218.729
 20
-1085.042
 30
4827.750
 70
    32
  0
VERTEX
  8
T04SSILL
 62
7
 10
229.066
 20
-1114.197
 30
4827.750
 70
    32
  0
VERTEX
  8
T04SSILL
 62
7
 10
217.576
 20
-1118.328
 30
4827.750
 70
    32
  0
VERTEX
  8
T04SSILL
 62
7
 10
257.996
 20
-1231.384
 30
4827.750
 70
    32
  0
VERTEX
  8
T04SSILL
 62
7
 10
263.874
 20
-1229.494
 30
4827.750
 70
    32
  0
VERTEX
  8
T04SSILL
 62
7
 10
268.004
 20
-1240.807
 30
4827.750
 70
    32
  0
VERTEX
  8
T04SSILL
 62
7
 10
367.220
 20
-1207.703
 30
4827.750
 70
    32
  0
VERTEX
  8
T04SSILL
 62
7
 10
353.116
 20
-1167.970
 30
4827.750
 70
    32
  0
VERTEX
  8
T04SSILL
 62
7
 10
347.857
 20
-1170.384
 30
4827.750
 70
    32
  0
VERTEX
  8
T04SSILL
 62
7
 10
341.566
 20
-1152.314
 30
4827.750
 70
    32
  0
VERTEX
  8
T04SSILL
 62
7
 10
335.603
 20
-1154.558
 30
4827.750
 70
    32
  0
VERTEX
  8
T04SSILL
 62
7
 10
332.707
 20
-1143.674
 30
4827.750
 70
    32
  0
VERTEX
  8
T04SSILL
 62
7
 10
320.957
 20
-1148.247
 30
4827.750
 70
    32
  0
VERTEX
  8
T04SSILL
 62
7
 10
305.749
 20
-1102.015
 30
4827.750
 70
    32
  0
VERTEX
  8
T04SSILL
 62
7
 10
299.081
 20
-1104.175
 30
4827.750
 70
    32
  0
VERTEX
  8
T04SSILL
 62
7
 10
294.034
 20
-1089.130
 30
4827.750
 70
    32
  0
VERTEX
  8
T04SSILL
 62
7
 10
277.725
 20
-1085.294
 30
4827.750
 70
    32
  0
VERTEX
  8
T04SSILL
 62
7
 10
260.161
 20
-1074.166
 30
4827.750
 70
    32
  0
VERTEX
  8
T04SSILL
 62
7
 10
250.622
 20
-1076.693
 30
4827.750
 70
    32
  0
VERTEX
  8
T04SSILL
 62
7
 10
240.240
 20
-1098.228
 30
4827.750
 70
    32
  0
VERTEX
  8
T04SSILL
 62
7
 10
240.107
 20
-1101.924
 30
4827.750
 70
    32
  0
VERTEX
  8
T04SSILL
 62
7
 10
247.325
 20
-1116.802
 30
4827.750
 70
    32
  0
VERTEX
  8
T04SSILL
 62
7
 10
250.595
 20
-1137.795
 30
4827.750
 70
    32
  0
VERTEX
  8
T04SSILL
 62
7
 10
252.927
 20
-1171.016
 30
4827.750
 70
    32
  0
SEQEND
  8
T04SSILL
  0
TEXT
  8
T04SSILL
 62
7
 10
159.110
 20
178.242
 30
4827.750
 40
8.202
  1
400
 41
 1.0 
  0
ENDSEC
  0
EOF
