999
********************************
999
*   DXF File - Entities Only   *
999
*        3D Data Format        *
999
*     Output from ENVISAGE     *
999
*     20-Dec-2007 15:29:08     *
999
********************************
  0
SECTION 
  2
HEADER
  9
$ACADVER
  1
AC1009
  9
$EXTMIN
 10
-290000.000
 20
-250000.000
 30
-4000.000
  9
$EXTMAX
 10
5000000.000
 20
600000.000
 30
6000.000
  0
ENDSEC
  0
SECTION
  2
ENTITIES
  0
POLYLINE
  8
T42SSILL
 62
7
 66
     1
 70
     9
  0
VERTEX
  8
T42SSILL
 62
7
 10
492.305
 20
-7417.301
 30
998.202
 70
    32
  0
VERTEX
  8
T42SSILL
 62
7
 10
490.125
 20
-7411.484
 30
998.171
 70
    32
  0
VERTEX
  8
T42SSILL
 62
7
 10
179.561
 20
-6979.110
 30
994.332
 70
    32
  0
VERTEX
  8
T42SSILL
 62
7
 10
173.752
 20
-6975.144
 30
994.251
 70
    32
  0
VERTEX
  8
T42SSILL
 62
7
 10
170.048
 20
-6983.457
 30
994.307
 70
    32
  0
VERTEX
  8
T42SSILL
 62
7
 10
154.806
 20
-7005.287
 30
994.416
 70
    32
  0
VERTEX
  8
T42SSILL
 62
7
 10
144.378
 20
-6998.128
 30
994.269
 70
    32
  0
VERTEX
  8
T42SSILL
 62
7
 10
161.757
 20
-6974.145
 30
994.154
 70
    32
  0
VERTEX
  8
T42SSILL
 62
7
 10
162.730
 20
-6966.685
 30
994.086
 70
    32
  0
VERTEX
  8
T42SSILL
 62
7
 10
158.463
 20
-6957.437
 30
993.963
 70
    32
  0
VERTEX
  8
T42SSILL
 62
7
 10
159.583
 20
-6950.948
 30
993.906
 70
    32
  0
VERTEX
  8
T42SSILL
 62
7
 10
138.410
 20
-6920.941
 30
993.452
 70
    32
  0
VERTEX
  8
T42SSILL
 62
7
 10
133.660
 20
-6924.723
 30
993.455
 70
    32
  0
VERTEX
  8
T42SSILL
 62
7
 10
133.272
 20
-6940.480
 30
993.611
 70
    32
  0
VERTEX
  8
T42SSILL
 62
7
 10
122.860
 20
-6941.268
 30
993.543
 70
    32
  0
VERTEX
  8
T42SSILL
 62
7
 10
122.712
 20
-6922.770
 30
993.357
 70
    32
  0
VERTEX
  8
T42SSILL
 62
7
 10
120.188
 20
-6915.841
 30
993.269
 70
    32
  0
VERTEX
  8
T42SSILL
 62
7
 10
120.619
 20
-6896.183
 30
993.075
 70
    32
  0
VERTEX
  8
T42SSILL
 62
7
 10
53.656
 20
-6803.109
 30
992.370
 70
    32
  0
VERTEX
  8
T42SSILL
 62
7
 10
49.396
 20
-6803.319
 30
992.372
 70
    32
  0
VERTEX
  8
T42SSILL
 62
7
 10
46.442
 20
-6816.048
 30
992.441
 70
    32
  0
VERTEX
  8
T42SSILL
 62
7
 10
47.357
 20
-6820.241
 30
992.463
 70
    32
  0
VERTEX
  8
T42SSILL
 62
7
 10
38.878
 20
-6827.730
 30
992.506
 70
    32
  0
VERTEX
  8
T42SSILL
 62
7
 10
32.652
 20
-6818.144
 30
992.458
 70
    32
  0
VERTEX
  8
T42SSILL
 62
7
 10
29.707
 20
-6804.523
 30
992.386
 70
    32
  0
VERTEX
  8
T42SSILL
 62
7
 10
32.345
 20
-6789.974
 30
992.308
 70
    32
  0
VERTEX
  8
T42SSILL
 62
7
 10
30.212
 20
-6770.188
 30
992.300
 70
    32
  0
VERTEX
  8
T42SSILL
 62
7
 10
-83.490
 20
-6612.243
 30
992.300
 70
    32
  0
VERTEX
  8
T42SSILL
 62
7
 10
-88.062
 20
-6609.878
 30
992.300
 70
    32
  0
VERTEX
  8
T42SSILL
 62
7
 10
-91.000
 20
-6602.058
 30
992.300
 70
    32
  0
VERTEX
  8
T42SSILL
 62
7
 10
-128.119
 20
-6549.755
 30
992.300
 70
    32
  0
VERTEX
  8
T42SSILL
 62
7
 10
-118.872
 20
-6543.660
 30
992.300
 70
    32
  0
VERTEX
  8
T42SSILL
 62
7
 10
5.573
 20
-6717.896
 30
992.300
 70
    32
  0
VERTEX
  8
T42SSILL
 62
7
 10
10.944
 20
-6718.192
 30
992.300
 70
    32
  0
VERTEX
  8
T42SSILL
 62
7
 10
14.458
 20
-6730.336
 30
992.300
 70
    32
  0
VERTEX
  8
T42SSILL
 62
7
 10
45.314
 20
-6772.543
 30
992.300
 70
    32
  0
VERTEX
  8
T42SSILL
 62
7
 10
52.504
 20
-6776.179
 30
992.300
 70
    32
  0
VERTEX
  8
T42SSILL
 62
7
 10
64.064
 20
-6776.410
 30
992.346
 70
    32
  0
VERTEX
  8
T42SSILL
 62
7
 10
141.636
 20
-6725.117
 30
992.503
 70
    32
  0
VERTEX
  8
T42SSILL
 62
7
 10
148.187
 20
-6733.182
 30
992.546
 70
    32
  0
VERTEX
  8
T42SSILL
 62
7
 10
66.474
 20
-6785.462
 30
992.370
 70
    32
  0
VERTEX
  8
T42SSILL
 62
7
 10
63.702
 20
-6793.117
 30
992.377
 70
    32
  0
VERTEX
  8
T42SSILL
 62
7
 10
66.723
 20
-6804.103
 30
992.429
 70
    32
  0
VERTEX
  8
T42SSILL
 62
7
 10
80.969
 20
-6823.836
 30
992.571
 70
    32
  0
VERTEX
  8
T42SSILL
 62
7
 10
88.100
 20
-6825.257
 30
992.614
 70
    32
  0
VERTEX
  8
T42SSILL
 62
7
 10
113.848
 20
-6819.992
 30
992.737
 70
    32
  0
VERTEX
  8
T42SSILL
 62
7
 10
115.810
 20
-6830.544
 30
992.782
 70
    32
  0
VERTEX
  8
T42SSILL
 62
7
 10
94.575
 20
-6835.957
 30
992.684
 70
    32
  0
VERTEX
  8
T42SSILL
 62
7
 10
93.029
 20
-6840.166
 30
992.690
 70
    32
  0
VERTEX
  8
T42SSILL
 62
7
 10
110.390
 20
-6865.228
 30
992.866
 70
    32
  0
VERTEX
  8
T42SSILL
 62
7
 10
113.046
 20
-6865.182
 30
992.880
 70
    32
  0
VERTEX
  8
T42SSILL
 62
7
 10
113.189
 20
-6868.737
 30
992.892
 70
    32
  0
VERTEX
  8
T42SSILL
 62
7
 10
171.650
 20
-6950.068
 30
993.984
 70
    32
  0
VERTEX
  8
T42SSILL
 62
7
 10
176.607
 20
-6951.302
 30
994.032
 70
    32
  0
VERTEX
  8
T42SSILL
 62
7
 10
175.854
 20
-6956.026
 30
994.074
 70
    32
  0
VERTEX
  8
T42SSILL
 62
7
 10
200.455
 20
-6990.281
 30
994.595
 70
    32
  0
VERTEX
  8
T42SSILL
 62
7
 10
205.323
 20
-6990.933
 30
994.637
 70
    32
  0
VERTEX
  8
T42SSILL
 62
7
 10
204.684
 20
-6995.362
 30
994.677
 70
    32
  0
VERTEX
  8
T42SSILL
 62
7
 10
231.268
 20
-7032.733
 30
994.795
 70
    32
  0
VERTEX
  8
T42SSILL
 62
7
 10
235.359
 20
-7033.502
 30
994.802
 70
    32
  0
VERTEX
  8
T42SSILL
 62
7
 10
235.346
 20
-7037.598
 30
994.809
 70
    32
  0
VERTEX
  8
T42SSILL
 62
7
 10
258.642
 20
-7071.376
 30
994.898
 70
    32
  0
VERTEX
  8
T42SSILL
 62
7
 10
263.353
 20
-7072.567
 30
994.906
 70
    32
  0
VERTEX
  8
T42SSILL
 62
7
 10
263.661
 20
-7077.727
 30
994.915
 70
    32
  0
VERTEX
  8
T42SSILL
 62
7
 10
286.897
 20
-7111.116
 30
995.003
 70
    32
  0
VERTEX
  8
T42SSILL
 62
7
 10
293.910
 20
-7113.588
 30
995.017
 70
    32
  0
VERTEX
  8
T42SSILL
 62
7
 10
293.465
 20
-7119.815
 30
995.027
 70
    32
  0
VERTEX
  8
T42SSILL
 62
7
 10
318.998
 20
-7155.240
 30
995.211
 70
    32
  0
VERTEX
  8
T42SSILL
 62
7
 10
323.495
 20
-7156.584
 30
995.252
 70
    32
  0
VERTEX
  8
T42SSILL
 62
7
 10
324.642
 20
-7163.086
 30
995.318
 70
    32
  0
VERTEX
  8
T42SSILL
 62
7
 10
347.355
 20
-7195.124
 30
995.754
 70
    32
  0
VERTEX
  8
T42SSILL
 62
7
 10
351.987
 20
-7196.050
 30
995.793
 70
    32
  0
VERTEX
  8
T42SSILL
 62
7
 10
351.948
 20
-7201.023
 30
995.837
 70
    32
  0
VERTEX
  8
T42SSILL
 62
7
 10
376.219
 20
-7233.898
 30
996.291
 70
    32
  0
VERTEX
  8
T42SSILL
 62
7
 10
380.272
 20
-7235.984
 30
996.336
 70
    32
  0
VERTEX
  8
T42SSILL
 62
7
 10
380.997
 20
-7241.279
 30
996.389
 70
    32
  0
VERTEX
  8
T42SSILL
 62
7
 10
405.053
 20
-7274.306
 30
996.842
 70
    32
  0
VERTEX
  8
T42SSILL
 62
7
 10
409.190
 20
-7275.902
 30
996.884
 70
    32
  0
VERTEX
  8
T42SSILL
 62
7
 10
409.713
 20
-7280.910
 30
996.932
 70
    32
  0
VERTEX
  8
T42SSILL
 62
7
 10
434.550
 20
-7314.891
 30
997.400
 70
    32
  0
VERTEX
  8
T42SSILL
 62
7
 10
438.907
 20
-7317.408
 30
997.451
 70
    32
  0
VERTEX
  8
T42SSILL
 62
7
 10
440.442
 20
-7323.851
 30
997.519
 70
    32
  0
VERTEX
  8
T42SSILL
 62
7
 10
499.216
 20
-7405.929
 30
998.172
 70
    32
  0
VERTEX
  8
T42SSILL
 62
7
 10
516.455
 20
-7464.128
 30
998.465
 70
    32
  0
VERTEX
  8
T42SSILL
 62
7
 10
526.798
 20
-7471.903
 30
998.525
 70
    32
  0
VERTEX
  8
T42SSILL
 62
7
 10
520.166
 20
-7484.779
 30
998.562
 70
    32
  0
VERTEX
  8
T42SSILL
 62
7
 10
524.994
 20
-7505.179
 30
998.662
 70
    32
  0
VERTEX
  8
T42SSILL
 62
7
 10
534.717
 20
-7510.681
 30
998.711
 70
    32
  0
VERTEX
  8
T42SSILL
 62
7
 10
544.190
 20
-7508.378
 30
998.727
 70
    32
  0
VERTEX
  8
T42SSILL
 62
7
 10
553.881
 20
-7515.257
 30
998.782
 70
    32
  0
VERTEX
  8
T42SSILL
 62
7
 10
551.445
 20
-7523.550
 30
998.810
 70
    32
  0
VERTEX
  8
T42SSILL
 62
7
 10
546.175
 20
-7528.137
 30
998.816
 70
    32
  0
VERTEX
  8
T42SSILL
 62
7
 10
545.416
 20
-7532.552
 30
998.833
 70
    32
  0
VERTEX
  8
T42SSILL
 62
7
 10
548.796
 20
-7541.908
 30
998.881
 70
    32
  0
VERTEX
  8
T42SSILL
 62
7
 10
573.760
 20
-7569.304
 30
999.124
 70
    32
  0
VERTEX
  8
T42SSILL
 62
7
 10
615.888
 20
-7582.415
 30
999.517
 70
    32
  0
VERTEX
  8
T42SSILL
 62
7
 10
639.955
 20
-7592.990
 30
999.778
 70
    32
  0
VERTEX
  8
T42SSILL
 62
7
 10
656.375
 20
-7594.423
 30
999.936
 70
    32
  0
VERTEX
  8
T42SSILL
 62
7
 10
655.045
 20
-7604.737
 30
1000.079
 70
    32
  0
VERTEX
  8
T42SSILL
 62
7
 10
650.452
 20
-7604.642
 30
1000.038
 70
    32
  0
VERTEX
  8
T42SSILL
 62
7
 10
648.348
 20
-7608.068
 30
1000.071
 70
    32
  0
VERTEX
  8
T42SSILL
 62
7
 10
666.911
 20
-7637.079
 30
1000.638
 70
    32
  0
VERTEX
  8
T42SSILL
 62
7
 10
659.091
 20
-7642.175
 30
1000.676
 70
    32
  0
VERTEX
  8
T42SSILL
 62
7
 10
629.824
 20
-7601.981
 30
999.828
 70
    32
  0
VERTEX
  8
T42SSILL
 62
7
 10
592.734
 20
-7585.633
 30
999.406
 70
    32
  0
VERTEX
  8
T42SSILL
 62
7
 10
587.193
 20
-7591.057
 30
999.426
 70
    32
  0
VERTEX
  8
T42SSILL
 62
7
 10
665.078
 20
-7698.661
 30
1001.510
 70
    32
  0
VERTEX
  8
T42SSILL
 62
7
 10
819.889
 20
-7912.547
 30
1001.510
 70
    32
  0
VERTEX
  8
T42SSILL
 62
7
 10
810.823
 20
-7919.385
 30
1001.510
 70
    32
  0
VERTEX
  8
T42SSILL
 62
7
 10
656.287
 20
-7705.919
 30
1001.510
 70
    32
  0
VERTEX
  8
T42SSILL
 62
7
 10
548.119
 20
-7556.501
 30
998.942
 70
    32
  0
VERTEX
  8
T42SSILL
 62
7
 10
513.645
 20
-7514.277
 30
998.671
 70
    32
  0
VERTEX
  8
T42SSILL
 62
7
 10
512.988
 20
-7496.424
 30
998.593
 70
    32
  0
VERTEX
  8
T42SSILL
 62
7
 10
497.715
 20
-7435.782
 30
998.294
 70
    32
  0
SEQEND
  8
T42SSILL
  0
POLYLINE
  8
T42SSILL
 62
7
 66
     1
 70
     9
  0
VERTEX
  8
T42SSILL
 62
7
 10
4001.376
 20
-7630.898
 30
986.902
 70
    32
  0
VERTEX
  8
T42SSILL
 62
7
 10
3978.027
 20
-7666.556
 30
987.034
 70
    32
  0
VERTEX
  8
T42SSILL
 62
7
 10
3975.652
 20
-7674.831
 30
987.059
 70
    32
  0
VERTEX
  8
T42SSILL
 62
7
 10
3985.054
 20
-7698.533
 30
987.100
 70
    32
  0
VERTEX
  8
T42SSILL
 62
7
 10
3992.097
 20
-7699.514
 30
987.089
 70
    32
  0
VERTEX
  8
T42SSILL
 62
7
 10
4014.598
 20
-7665.238
 30
986.962
 70
    32
  0
SEQEND
  8
T42SSILL
  0
POLYLINE
  8
T42SSILL
 62
7
 66
     1
 70
     9
  0
VERTEX
  8
T42SSILL
 62
7
 10
3971.647
 20
-7447.875
 30
986.504
 70
    32
  0
VERTEX
  8
T42SSILL
 62
7
 10
3942.560
 20
-7472.655
 30
986.620
 70
    32
  0
VERTEX
  8
T42SSILL
 62
7
 10
3940.595
 20
-7485.541
 30
986.655
 70
    32
  0
VERTEX
  8
T42SSILL
 62
7
 10
3943.519
 20
-7507.086
 30
986.703
 70
    32
  0
VERTEX
  8
T42SSILL
 62
7
 10
3948.958
 20
-7505.417
 30
986.689
 70
    32
  0
VERTEX
  8
T42SSILL
 62
7
 10
3980.350
 20
-7483.651
 30
986.576
 70
    32
  0
SEQEND
  8
T42SSILL
  0
POLYLINE
  8
T42SSILL
 62
7
 66
     1
 70
     9
  0
VERTEX
  8
T42SSILL
 62
7
 10
3980.602
 20
-7493.287
 30
986.600
 70
    32
  0
VERTEX
  8
T42SSILL
 62
7
 10
3949.230
 20
-7516.129
 30
986.715
 70
    32
  0
VERTEX
  8
T42SSILL
 62
7
 10
3942.083
 20
-7525.042
 30
986.750
 70
    32
  0
VERTEX
  8
T42SSILL
 62
7
 10
3944.901
 20
-7555.284
 30
986.820
 70
    32
  0
VERTEX
  8
T42SSILL
 62
7
 10
3950.491
 20
-7556.668
 30
986.813
 70
    32
  0
VERTEX
  8
T42SSILL
 62
7
 10
3984.310
 20
-7526.698
 30
986.675
 70
    32
  0
SEQEND
  8
T42SSILL
  0
POLYLINE
  8
T42SSILL
 62
7
 66
     1
 70
     9
  0
VERTEX
  8
T42SSILL
 62
7
 10
5278.751
 20
-6866.318
 30
986.595
 70
    32
  0
VERTEX
  8
T42SSILL
 62
7
 10
5268.698
 20
-6859.324
 30
986.586
 70
    32
  0
VERTEX
  8
T42SSILL
 62
7
 10
5266.298
 20
-6867.115
 30
986.591
 70
    32
  0
VERTEX
  8
T42SSILL
 62
7
 10
5266.706
 20
-6875.547
 30
986.597
 70
    32
  0
SEQEND
  8
T42SSILL
  0
POLYLINE
  8
T42SSILL
 62
7
 66
     1
 70
     9
  0
VERTEX
  8
T42SSILL
 62
7
 10
3652.021
 20
-6967.700
 30
986.197
 70
    32
  0
VERTEX
  8
T42SSILL
 62
7
 10
3655.140
 20
-6971.981
 30
986.204
 70
    32
  0
SEQEND
  8
T42SSILL
  0
POLYLINE
  8
T42SSILL
 62
7
 66
     1
 70
     9
  0
VERTEX
  8
T42SSILL
 62
7
 10
3314.742
 20
-6391.539
 30
986.412
 70
    32
  0
VERTEX
  8
T42SSILL
 62
7
 10
3313.469
 20
-6399.953
 30
986.420
 70
    32
  0
SEQEND
  8
T42SSILL
  0
POLYLINE
  8
T42SSILL
 62
7
 66
     1
 70
     9
  0
VERTEX
  8
T42SSILL
 62
7
 10
2245.473
 20
-5961.222
 30
988.504
 70
    32
  0
VERTEX
  8
T42SSILL
 62
7
 10
2255.253
 20
-6260.809
 30
989.383
 70
    32
  0
VERTEX
  8
T42SSILL
 62
7
 10
2274.265
 20
-6287.293
 30
989.289
 70
    32
  0
VERTEX
  8
T42SSILL
 62
7
 10
2276.511
 20
-6266.431
 30
989.362
 70
    32
  0
VERTEX
  8
T42SSILL
 62
7
 10
2286.025
 20
-6246.460
 30
989.451
 70
    32
  0
VERTEX
  8
T42SSILL
 62
7
 10
2290.095
 20
-6241.937
 30
989.474
 70
    32
  0
VERTEX
  8
T42SSILL
 62
7
 10
2386.663
 20
-6171.599
 30
989.666
 70
    32
  0
VERTEX
  8
T42SSILL
 62
7
 10
2395.870
 20
-6153.985
 30
989.471
 70
    32
  0
VERTEX
  8
T42SSILL
 62
7
 10
2397.586
 20
-6147.759
 30
989.412
 70
    32
  0
VERTEX
  8
T42SSILL
 62
7
 10
2397.612
 20
-6136.904
 30
989.328
 70
    32
  0
VERTEX
  8
T42SSILL
 62
7
 10
2395.748
 20
-6127.353
 30
989.266
 70
    32
  0
VERTEX
  8
T42SSILL
 62
7
 10
2387.653
 20
-6112.655
 30
989.204
 70
    32
  0
VERTEX
  8
T42SSILL
 62
7
 10
2293.816
 20
-5981.538
 30
988.702
 70
    32
  0
VERTEX
  8
T42SSILL
 62
7
 10
2277.460
 20
-5980.691
 30
988.646
 70
    32
  0
VERTEX
  8
T42SSILL
 62
7
 10
2269.117
 20
-5978.396
 30
988.623
 70
    32
  0
VERTEX
  8
T42SSILL
 62
7
 10
2256.839
 20
-5971.948
 30
988.574
 70
    32
  0
VERTEX
  8
T42SSILL
 62
7
 10
2247.878
 20
-5962.997
 30
988.516
 70
    32
  0
SEQEND
  8
T42SSILL
  0
POLYLINE
  8
T42SSILL
 62
7
 66
     1
 70
     9
  0
VERTEX
  8
T42SSILL
 62
7
 10
3989.493
 20
-7589.256
 30
986.821
 70
    32
  0
VERTEX
  8
T42SSILL
 62
7
 10
3961.515
 20
-7626.647
 30
986.966
 70
    32
  0
VERTEX
  8
T42SSILL
 62
7
 10
3962.217
 20
-7641.846
 30
987.002
 70
    32
  0
VERTEX
  8
T42SSILL
 62
7
 10
3968.009
 20
-7655.194
 30
987.024
 70
    32
  0
VERTEX
  8
T42SSILL
 62
7
 10
3974.000
 20
-7655.632
 30
987.014
 70
    32
  0
VERTEX
  8
T42SSILL
 62
7
 10
3997.188
 20
-7620.202
 30
986.883
 70
    32
  0
VERTEX
  8
T42SSILL
 62
7
 10
3991.110
 20
-7604.662
 30
986.856
 70
    32
  0
SEQEND
  8
T42SSILL
  0
POLYLINE
  8
T42SSILL
 62
7
 66
     1
 70
     9
  0
VERTEX
  8
T42SSILL
 62
7
 10
4018.643
 20
-7674.839
 30
986.978
 70
    32
  0
VERTEX
  8
T42SSILL
 62
7
 10
3998.927
 20
-7704.250
 30
987.088
 70
    32
  0
VERTEX
  8
T42SSILL
 62
7
 10
3993.937
 20
-7720.321
 30
987.137
 70
    32
  0
VERTEX
  8
T42SSILL
 62
7
 10
4003.638
 20
-7744.133
 30
987.178
 70
    32
  0
VERTEX
  8
T42SSILL
 62
7
 10
4008.262
 20
-7745.239
 30
987.172
 70
    32
  0
VERTEX
  8
T42SSILL
 62
7
 10
4025.275
 20
-7719.759
 30
987.077
 70
    32
  0
VERTEX
  8
T42SSILL
 62
7
 10
4024.300
 20
-7715.123
 30
987.068
 70
    32
  0
VERTEX
  8
T42SSILL
 62
7
 10
4029.299
 20
-7713.448
 30
987.054
 70
    32
  0
VERTEX
  8
T42SSILL
 62
7
 10
4032.370
 20
-7709.575
 30
987.039
 70
    32
  0
SEQEND
  8
T42SSILL
  0
POLYLINE
  8
T42SSILL
 62
7
 66
     1
 70
     9
  0
VERTEX
  8
T42SSILL
 62
7
 10
3953.905
 20
-7376.460
 30
986.430
 70
    32
  0
VERTEX
  8
T42SSILL
 62
7
 10
3938.274
 20
-7403.989
 30
986.499
 70
    32
  0
VERTEX
  8
T42SSILL
 62
7
 10
3936.362
 20
-7416.945
 30
986.516
 70
    32
  0
VERTEX
  8
T42SSILL
 62
7
 10
3930.112
 20
-7418.550
 30
986.535
 70
    32
  0
VERTEX
  8
T42SSILL
 62
7
 10
3935.469
 20
-7466.363
 30
986.617
 70
    32
  0
VERTEX
  8
T42SSILL
 62
7
 10
3969.392
 20
-7438.935
 30
986.486
 70
    32
  0
VERTEX
  8
T42SSILL
 62
7
 10
3964.197
 20
-7417.977
 30
986.444
 70
    32
  0
SEQEND
  8
T42SSILL
  0
POLYLINE
  8
T42SSILL
 62
7
 66
     1
 70
     9
  0
VERTEX
  8
T42SSILL
 62
7
 10
3984.867
 20
-7537.203
 30
986.700
 70
    32
  0
VERTEX
  8
T42SSILL
 62
7
 10
3950.516
 20
-7566.142
 30
986.836
 70
    32
  0
VERTEX
  8
T42SSILL
 62
7
 10
3948.288
 20
-7581.511
 30
986.879
 70
    32
  0
VERTEX
  8
T42SSILL
 62
7
 10
3952.120
 20
-7616.142
 30
986.957
 70
    32
  0
VERTEX
  8
T42SSILL
 62
7
 10
3957.255
 20
-7616.003
 30
986.947
 70
    32
  0
VERTEX
  8
T42SSILL
 62
7
 10
3988.630
 20
-7575.484
 30
986.788
 70
    32
  0
SEQEND
  8
T42SSILL
  0
POLYLINE
  8
T42SSILL
 62
7
 66
     1
 70
     9
  0
VERTEX
  8
T42SSILL
 62
7
 10
4078.702
 20
-7246.536
 30
986.296
 70
    32
  0
VERTEX
  8
T42SSILL
 62
7
 10
4091.084
 20
-7265.340
 30
986.309
 70
    32
  0
VERTEX
  8
T42SSILL
 62
7
 10
4108.754
 20
-7311.933
 30
986.336
 70
    32
  0
VERTEX
  8
T42SSILL
 62
7
 10
4116.977
 20
-7325.474
 30
986.345
 70
    32
  0
VERTEX
  8
T42SSILL
 62
7
 10
4092.853
 20
-7343.585
 30
986.341
 70
    32
  0
VERTEX
  8
T42SSILL
 62
7
 10
4089.468
 20
-7343.431
 30
986.339
 70
    32
  0
VERTEX
  8
T42SSILL
 62
7
 10
4093.427
 20
-7327.893
 30
986.335
 70
    32
  0
VERTEX
  8
T42SSILL
 62
7
 10
4091.869
 20
-7312.117
 30
986.328
 70
    32
  0
VERTEX
  8
T42SSILL
 62
7
 10
4067.202
 20
-7253.817
 30
986.293
 70
    32
  0
SEQEND
  8
T42SSILL
  0
POLYLINE
  8
T42SSILL
 62
7
 66
     1
 70
     9
  0
VERTEX
  8
T42SSILL
 62
7
 10
5156.447
 20
-7079.065
 30
986.750
 70
    32
  0
VERTEX
  8
T42SSILL
 62
7
 10
5148.136
 20
-7067.211
 30
986.733
 70
    32
  0
VERTEX
  8
T42SSILL
 62
7
 10
5144.157
 20
-7065.023
 30
986.735
 70
    32
  0
VERTEX
  8
T42SSILL
 62
7
 10
5131.672
 20
-7066.508
 30
986.758
 70
    32
  0
VERTEX
  8
T42SSILL
 62
7
 10
5129.263
 20
-7068.442
 30
986.752
 70
    32
  0
VERTEX
  8
T42SSILL
 62
7
 10
5127.966
 20
-7078.275
 30
986.739
 70
    32
  0
VERTEX
  8
T42SSILL
 62
7
 10
5131.648
 20
-7084.893
 30
986.738
 70
    32
  0
VERTEX
  8
T42SSILL
 62
7
 10
5139.754
 20
-7090.485
 30
986.746
 70
    32
  0
VERTEX
  8
T42SSILL
 62
7
 10
5150.393
 20
-7083.207
 30
986.772
 70
    32
  0
SEQEND
  8
T42SSILL
  0
POLYLINE
  8
T42SSILL
 62
7
 66
     1
 70
     9
  0
VERTEX
  8
T42SSILL
 62
7
 10
5268.758
 20
-6986.851
 30
986.674
 70
    32
  0
VERTEX
  8
T42SSILL
 62
7
 10
5242.536
 20
-6982.028
 30
986.660
 70
    32
  0
VERTEX
  8
T42SSILL
 62
7
 10
5253.983
 20
-6997.150
 30
986.675
 70
    32
  0
VERTEX
  8
T42SSILL
 62
7
 10
5266.102
 20
-6988.751
 30
986.674
 70
    32
  0
SEQEND
  8
T42SSILL
  0
POLYLINE
  8
T42SSILL
 62
7
 66
     1
 70
     9
  0
VERTEX
  8
T42SSILL
 62
7
 10
5014.135
 20
-6673.743
 30
986.355
 70
    32
  0
VERTEX
  8
T42SSILL
 62
7
 10
5010.525
 20
-6687.098
 30
986.363
 70
    32
  0
VERTEX
  8
T42SSILL
 62
7
 10
5003.247
 20
-6696.923
 30
986.367
 70
    32
  0
VERTEX
  8
T42SSILL
 62
7
 10
4864.255
 20
-6796.279
 30
986.516
 70
    32
  0
VERTEX
  8
T42SSILL
 62
7
 10
4872.791
 20
-6815.154
 30
986.550
 70
    32
  0
VERTEX
  8
T42SSILL
 62
7
 10
4887.946
 20
-6830.789
 30
986.565
 70
    32
  0
VERTEX
  8
T42SSILL
 62
7
 10
4895.242
 20
-6848.612
 30
986.593
 70
    32
  0
VERTEX
  8
T42SSILL
 62
7
 10
4908.148
 20
-6870.044
 30
986.592
 70
    32
  0
VERTEX
  8
T42SSILL
 62
7
 10
4920.175
 20
-6872.777
 30
986.609
 70
    32
  0
VERTEX
  8
T42SSILL
 62
7
 10
5054.186
 20
-6776.196
 30
986.442
 70
    32
  0
VERTEX
  8
T42SSILL
 62
7
 10
5060.474
 20
-6769.887
 30
986.440
 70
    32
  0
VERTEX
  8
T42SSILL
 62
7
 10
5064.444
 20
-6762.123
 30
986.437
 70
    32
  0
VERTEX
  8
T42SSILL
 62
7
 10
5065.869
 20
-6753.189
 30
986.431
 70
    32
  0
VERTEX
  8
T42SSILL
 62
7
 10
5064.257
 20
-6743.898
 30
986.424
 70
    32
  0
SEQEND
  8
T42SSILL
  0
POLYLINE
  8
T42SSILL
 62
7
 66
     1
 70
     9
  0
VERTEX
  8
T42SSILL
 62
7
 10
4798.951
 20
-6375.139
 30
986.259
 70
    32
  0
VERTEX
  8
T42SSILL
 62
7
 10
4791.717
 20
-6365.031
 30
986.254
 70
    32
  0
VERTEX
  8
T42SSILL
 62
7
 10
4789.232
 20
-6364.307
 30
986.253
 70
    32
  0
VERTEX
  8
T42SSILL
 62
7
 10
4766.257
 20
-6332.522
 30
986.234
 70
    32
  0
VERTEX
  8
T42SSILL
 62
7
 10
4764.564
 20
-6351.152
 30
986.242
 70
    32
  0
VERTEX
  8
T42SSILL
 62
7
 10
4755.361
 20
-6368.931
 30
986.244
 70
    32
  0
VERTEX
  8
T42SSILL
 62
7
 10
4777.270
 20
-6368.156
 30
986.251
 70
    32
  0
VERTEX
  8
T42SSILL
 62
7
 10
4794.667
 20
-6373.054
 30
986.257
 70
    32
  0
SEQEND
  8
T42SSILL
  0
POLYLINE
  8
T42SSILL
 62
7
 66
     1
 70
     9
  0
VERTEX
  8
T42SSILL
 62
7
 10
3034.000
 20
-6711.000
 30
987.312
 70
    32
  0
VERTEX
  8
T42SSILL
 62
7
 10
2975.000
 20
-6754.000
 30
987.423
 70
    32
  0
VERTEX
  8
T42SSILL
 62
7
 10
2991.000
 20
-6758.000
 30
987.384
 70
    32
  0
VERTEX
  8
T42SSILL
 62
7
 10
3000.000
 20
-6766.000
 30
987.360
 70
    32
  0
VERTEX
  8
T42SSILL
 62
7
 10
3021.000
 20
-6793.000
 30
987.298
 70
    32
  0
VERTEX
  8
T42SSILL
 62
7
 10
3036.000
 20
-6797.000
 30
987.262
 70
    32
  0
VERTEX
  8
T42SSILL
 62
7
 10
3039.000
 20
-6800.000
 30
987.254
 70
    32
  0
VERTEX
  8
T42SSILL
 62
7
 10
3042.000
 20
-6814.000
 30
987.239
 70
    32
  0
VERTEX
  8
T42SSILL
 62
7
 10
3082.000
 20
-6785.000
 30
987.164
 70
    32
  0
VERTEX
  8
T42SSILL
 62
7
 10
3076.000
 20
-6760.000
 30
987.191
 70
    32
  0
VERTEX
  8
T42SSILL
 62
7
 10
3078.000
 20
-6754.000
 30
987.189
 70
    32
  0
VERTEX
  8
T42SSILL
 62
7
 10
3079.000
 20
-6739.000
 30
987.195
 70
    32
  0
VERTEX
  8
T42SSILL
 62
7
 10
3068.000
 20
-6720.000
 30
987.230
 70
    32
  0
VERTEX
  8
T42SSILL
 62
7
 10
3059.000
 20
-6712.000
 30
987.254
 70
    32
  0
VERTEX
  8
T42SSILL
 62
7
 10
3051.000
 20
-6712.000
 30
987.272
 70
    32
  0
VERTEX
  8
T42SSILL
 62
7
 10
3042.000
 20
-6708.000
 30
987.295
 70
    32
  0
VERTEX
  8
T42SSILL
 62
7
 10
3035.000
 20
-6711.000
 30
987.309
 70
    32
  0
SEQEND
  8
T42SSILL
  0
POLYLINE
  8
T42SSILL
 62
7
 66
     1
 70
     9
  0
VERTEX
  8
T42SSILL
 62
7
 10
2851.071
 20
-7103.328
 30
987.514
 70
    32
  0
VERTEX
  8
T42SSILL
 62
7
 10
2773.288
 20
-6994.405
 30
987.748
 70
    32
  0
VERTEX
  8
T42SSILL
 62
7
 10
2762.063
 20
-6983.260
 30
987.774
 70
    32
  0
VERTEX
  8
T42SSILL
 62
7
 10
2757.156
 20
-6981.278
 30
987.782
 70
    32
  0
VERTEX
  8
T42SSILL
 62
7
 10
2750.969
 20
-6988.334
 30
987.776
 70
    32
  0
VERTEX
  8
T42SSILL
 62
7
 10
2758.208
 20
-7012.527
 30
987.733
 70
    32
  0
VERTEX
  8
T42SSILL
 62
7
 10
2819.623
 20
-7094.754
 30
987.554
 70
    32
  0
SEQEND
  8
T42SSILL
  0
POLYLINE
  8
T42SSILL
 62
7
 66
     1
 70
     9
  0
VERTEX
  8
T42SSILL
 62
7
 10
2659.005
 20
-6909.575
 30
987.976
 70
    32
  0
VERTEX
  8
T42SSILL
 62
7
 10
2645.728
 20
-6931.712
 30
987.953
 70
    32
  0
VERTEX
  8
T42SSILL
 62
7
 10
2662.030
 20
-6966.716
 30
987.885
 70
    32
  0
VERTEX
  8
T42SSILL
 62
7
 10
2671.250
 20
-6948.342
 30
987.906
 70
    32
  0
VERTEX
  8
T42SSILL
 62
7
 10
2671.577
 20
-6941.035
 30
987.917
 70
    32
  0
VERTEX
  8
T42SSILL
 62
7
 10
2668.499
 20
-6925.990
 30
987.943
 70
    32
  0
VERTEX
  8
T42SSILL
 62
7
 10
2662.598
 20
-6915.252
 30
987.964
 70
    32
  0
SEQEND
  8
T42SSILL
  0
POLYLINE
  8
T42SSILL
 62
7
 66
     1
 70
     9
  0
VERTEX
  8
T42SSILL
 62
7
 10
2713.845
 20
-6900.411
 30
987.939
 70
    32
  0
VERTEX
  8
T42SSILL
 62
7
 10
2717.413
 20
-6884.110
 30
987.939
 70
    32
  0
VERTEX
  8
T42SSILL
 62
7
 10
2840.184
 20
-6819.096
 30
987.695
 70
    32
  0
VERTEX
  8
T42SSILL
 62
7
 10
2854.627
 20
-6821.370
 30
987.661
 70
    32
  0
VERTEX
  8
T42SSILL
 62
7
 10
2855.996
 20
-6824.289
 30
987.656
 70
    32
  0
VERTEX
  8
T42SSILL
 62
7
 10
2851.910
 20
-6830.968
 30
987.662
 70
    32
  0
VERTEX
  8
T42SSILL
 62
7
 10
2746.159
 20
-6906.350
 30
987.862
 70
    32
  0
VERTEX
  8
T42SSILL
 62
7
 10
2742.115
 20
-6906.242
 30
987.871
 70
    32
  0
VERTEX
  8
T42SSILL
 62
7
 10
2742.425
 20
-6910.427
 30
987.869
 70
    32
  0
VERTEX
  8
T42SSILL
 62
7
 10
2737.718
 20
-6918.072
 30
987.875
 70
    32
  0
VERTEX
  8
T42SSILL
 62
7
 10
2734.777
 20
-6930.614
 30
987.875
 70
    32
  0
SEQEND
  8
T42SSILL
  0
POLYLINE
  8
T42SSILL
 62
7
 66
     1
 70
     9
  0
VERTEX
  8
T42SSILL
 62
7
 10
2664.288
 20
-6741.233
 30
988.135
 70
    32
  0
VERTEX
  8
T42SSILL
 62
7
 10
2641.921
 20
-6757.190
 30
988.177
 70
    32
  0
VERTEX
  8
T42SSILL
 62
7
 10
2634.518
 20
-6766.372
 30
988.189
 70
    32
  0
VERTEX
  8
T42SSILL
 62
7
 10
2631.633
 20
-6776.194
 30
988.190
 70
    32
  0
VERTEX
  8
T42SSILL
 62
7
 10
2635.959
 20
-6792.739
 30
988.172
 70
    32
  0
VERTEX
  8
T42SSILL
 62
7
 10
2680.686
 20
-6854.497
 30
988.038
 70
    32
  0
VERTEX
  8
T42SSILL
 62
7
 10
2683.198
 20
-6841.177
 30
988.039
 70
    32
  0
VERTEX
  8
T42SSILL
 62
7
 10
2689.776
 20
-6830.955
 30
988.030
 70
    32
  0
VERTEX
  8
T42SSILL
 62
7
 10
2684.803
 20
-6820.006
 30
988.047
 70
    32
  0
VERTEX
  8
T42SSILL
 62
7
 10
2683.216
 20
-6811.014
 30
988.055
 70
    32
  0
VERTEX
  8
T42SSILL
 62
7
 10
2674.507
 20
-6796.204
 30
988.083
 70
    32
  0
VERTEX
  8
T42SSILL
 62
7
 10
2673.342
 20
-6785.955
 30
988.091
 70
    32
  0
VERTEX
  8
T42SSILL
 62
7
 10
2665.432
 20
-6773.705
 30
988.115
 70
    32
  0
VERTEX
  8
T42SSILL
 62
7
 10
2668.695
 20
-6770.812
 30
988.109
 70
    32
  0
VERTEX
  8
T42SSILL
 62
7
 10
2671.178
 20
-6763.520
 30
988.107
 70
    32
  0
VERTEX
  8
T42SSILL
 62
7
 10
2667.286
 20
-6748.071
 30
988.124
 70
    32
  0
SEQEND
  8
T42SSILL
  0
POLYLINE
  8
T42SSILL
 62
7
 66
     1
 70
     9
  0
VERTEX
  8
T42SSILL
 62
7
 10
3599.793
 20
-6895.745
 30
986.125
 70
    32
  0
VERTEX
  8
T42SSILL
 62
7
 10
3600.742
 20
-6888.997
 30
986.127
 70
    32
  0
VERTEX
  8
T42SSILL
 62
7
 10
3606.587
 20
-6874.648
 30
986.135
 70
    32
  0
VERTEX
  8
T42SSILL
 62
7
 10
3597.376
 20
-6867.643
 30
986.128
 70
    32
  0
VERTEX
  8
T42SSILL
 62
7
 10
3586.751
 20
-6854.379
 30
986.123
 70
    32
  0
VERTEX
  8
T42SSILL
 62
7
 10
3573.117
 20
-6821.026
 30
986.196
 70
    32
  0
VERTEX
  8
T42SSILL
 62
7
 10
3563.543
 20
-6806.038
 30
986.225
 70
    32
  0
VERTEX
  8
T42SSILL
 62
7
 10
3556.142
 20
-6803.711
 30
986.224
 70
    32
  0
VERTEX
  8
T42SSILL
 62
7
 10
3553.243
 20
-6809.242
 30
986.207
 70
    32
  0
VERTEX
  8
T42SSILL
 62
7
 10
3551.267
 20
-6820.949
 30
986.174
 70
    32
  0
VERTEX
  8
T42SSILL
 62
7
 10
3553.584
 20
-6832.747
 30
986.146
 70
    32
  0
VERTEX
  8
T42SSILL
 62
7
 10
3570.527
 20
-6855.846
 30
986.104
 70
    32
  0
SEQEND
  8
T42SSILL
  0
POLYLINE
  8
T42SSILL
 62
7
 66
     1
 70
     9
  0
VERTEX
  8
T42SSILL
 62
7
 10
3770.750
 20
-6872.958
 30
986.291
 70
    32
  0
VERTEX
  8
T42SSILL
 62
7
 10
3765.323
 20
-6864.564
 30
986.287
 70
    32
  0
VERTEX
  8
T42SSILL
 62
7
 10
3766.783
 20
-6854.418
 30
986.304
 70
    32
  0
VERTEX
  8
T42SSILL
 62
7
 10
3766.090
 20
-6846.886
 30
986.323
 70
    32
  0
VERTEX
  8
T42SSILL
 62
7
 10
3761.136
 20
-6833.059
 30
986.354
 70
    32
  0
VERTEX
  8
T42SSILL
 62
7
 10
3759.875
 20
-6817.256
 30
986.394
 70
    32
  0
VERTEX
  8
T42SSILL
 62
7
 10
3757.364
 20
-6809.608
 30
986.411
 70
    32
  0
VERTEX
  8
T42SSILL
 62
7
 10
3760.483
 20
-6801.643
 30
986.435
 70
    32
  0
VERTEX
  8
T42SSILL
 62
7
 10
3752.531
 20
-6787.563
 30
986.464
 70
    32
  0
VERTEX
  8
T42SSILL
 62
7
 10
3750.232
 20
-6786.161
 30
986.465
 70
    32
  0
VERTEX
  8
T42SSILL
 62
7
 10
3751.188
 20
-6795.891
 30
986.441
 70
    32
  0
VERTEX
  8
T42SSILL
 62
7
 10
3747.752
 20
-6798.226
 30
986.431
 70
    32
  0
VERTEX
  8
T42SSILL
 62
7
 10
3739.114
 20
-6787.453
 30
986.451
 70
    32
  0
VERTEX
  8
T42SSILL
 62
7
 10
3659.604
 20
-6845.512
 30
986.219
 70
    32
  0
VERTEX
  8
T42SSILL
 62
7
 10
3666.147
 20
-6851.053
 30
986.211
 70
    32
  0
VERTEX
  8
T42SSILL
 62
7
 10
3673.008
 20
-6871.223
 30
986.200
 70
    32
  0
VERTEX
  8
T42SSILL
 62
7
 10
3678.542
 20
-6877.480
 30
986.204
 70
    32
  0
VERTEX
  8
T42SSILL
 62
7
 10
3685.706
 20
-6895.483
 30
986.207
 70
    32
  0
VERTEX
  8
T42SSILL
 62
7
 10
3683.270
 20
-6905.781
 30
986.203
 70
    32
  0
VERTEX
  8
T42SSILL
 62
7
 10
3688.895
 20
-6932.143
 30
986.203
 70
    32
  0
VERTEX
  8
T42SSILL
 62
7
 10
3751.039
 20
-6887.210
 30
986.272
 70
    32
  0
SEQEND
  8
T42SSILL
  0
POLYLINE
  8
T42SSILL
 62
7
 66
     1
 70
     9
  0
VERTEX
  8
T42SSILL
 62
7
 10
3652.021
 20
-6967.700
 30
986.197
 70
    32
  0
VERTEX
  8
T42SSILL
 62
7
 10
3611.371
 20
-6910.500
 30
986.133
 70
    32
  0
VERTEX
  8
T42SSILL
 62
7
 10
3608.816
 20
-6903.858
 30
986.132
 70
    32
  0
VERTEX
  8
T42SSILL
 62
7
 10
3607.565
 20
-6898.134
 30
986.132
 70
    32
  0
VERTEX
  8
T42SSILL
 62
7
 10
3608.653
 20
-6888.685
 30
986.135
 70
    32
  0
VERTEX
  8
T42SSILL
 62
7
 10
3614.323
 20
-6879.123
 30
986.142
 70
    32
  0
VERTEX
  8
T42SSILL
 62
7
 10
3629.901
 20
-6896.455
 30
986.154
 70
    32
  0
VERTEX
  8
T42SSILL
 62
7
 10
3632.451
 20
-6905.377
 30
986.154
 70
    32
  0
VERTEX
  8
T42SSILL
 62
7
 10
3640.511
 20
-6922.200
 30
986.159
 70
    32
  0
VERTEX
  8
T42SSILL
 62
7
 10
3652.722
 20
-6943.337
 30
986.150
 70
    32
  0
VERTEX
  8
T42SSILL
 62
7
 10
3661.401
 20
-6953.864
 30
986.168
 70
    32
  0
VERTEX
  8
T42SSILL
 62
7
 10
3655.755
 20
-6966.662
 30
986.194
 70
    32
  0
VERTEX
  8
T42SSILL
 62
7
 10
3655.140
 20
-6971.981
 30
986.204
 70
    32
  0
SEQEND
  8
T42SSILL
  0
POLYLINE
  8
T42SSILL
 62
7
 66
     1
 70
     9
  0
VERTEX
  8
T42SSILL
 62
7
 10
3519.840
 20
-6635.859
 30
986.569
 70
    32
  0
VERTEX
  8
T42SSILL
 62
7
 10
3508.351
 20
-6637.848
 30
986.582
 70
    32
  0
VERTEX
  8
T42SSILL
 62
7
 10
3494.725
 20
-6634.851
 30
986.587
 70
    32
  0
VERTEX
  8
T42SSILL
 62
7
 10
3490.512
 20
-6625.268
 30
986.573
 70
    32
  0
VERTEX
  8
T42SSILL
 62
7
 10
3478.279
 20
-6624.533
 30
986.582
 70
    32
  0
VERTEX
  8
T42SSILL
 62
7
 10
3468.309
 20
-6632.166
 30
986.583
 70
    32
  0
VERTEX
  8
T42SSILL
 62
7
 10
3462.358
 20
-6643.012
 30
986.548
 70
    32
  0
VERTEX
  8
T42SSILL
 62
7
 10
3470.386
 20
-6650.641
 30
986.537
 70
    32
  0
VERTEX
  8
T42SSILL
 62
7
 10
3484.374
 20
-6657.501
 30
986.533
 70
    32
  0
VERTEX
  8
T42SSILL
 62
7
 10
3500.597
 20
-6661.254
 30
986.539
 70
    32
  0
VERTEX
  8
T42SSILL
 62
7
 10
3502.237
 20
-6662.798
 30
986.537
 70
    32
  0
VERTEX
  8
T42SSILL
 62
7
 10
3500.752
 20
-6665.590
 30
986.528
 70
    32
  0
VERTEX
  8
T42SSILL
 62
7
 10
3494.980
 20
-6670.128
 30
986.511
 70
    32
  0
VERTEX
  8
T42SSILL
 62
7
 10
3484.361
 20
-6668.462
 30
986.504
 70
    32
  0
VERTEX
  8
T42SSILL
 62
7
 10
3480.943
 20
-6667.315
 30
986.504
 70
    32
  0
VERTEX
  8
T42SSILL
 62
7
 10
3478.843
 20
-6664.362
 30
986.509
 70
    32
  0
VERTEX
  8
T42SSILL
 62
7
 10
3472.990
 20
-6662.994
 30
986.507
 70
    32
  0
VERTEX
  8
T42SSILL
 62
7
 10
3471.311
 20
-6660.176
 30
986.513
 70
    32
  0
VERTEX
  8
T42SSILL
 62
7
 10
3468.735
 20
-6659.297
 30
986.512
 70
    32
  0
VERTEX
  8
T42SSILL
 62
7
 10
3462.868
 20
-6664.771
 30
986.492
 70
    32
  0
VERTEX
  8
T42SSILL
 62
7
 10
3454.216
 20
-6651.079
 30
986.519
 70
    32
  0
VERTEX
  8
T42SSILL
 62
7
 10
3448.709
 20
-6646.537
 30
986.525
 70
    32
  0
VERTEX
  8
T42SSILL
 62
7
 10
3442.517
 20
-6655.061
 30
986.497
 70
    32
  0
VERTEX
  8
T42SSILL
 62
7
 10
3440.228
 20
-6668.617
 30
986.459
 70
    32
  0
VERTEX
  8
T42SSILL
 62
7
 10
3442.010
 20
-6676.458
 30
986.441
 70
    32
  0
VERTEX
  8
T42SSILL
 62
7
 10
3490.461
 20
-6743.066
 30
986.316
 70
    32
  0
VERTEX
  8
T42SSILL
 62
7
 10
3491.789
 20
-6731.820
 30
986.347
 70
    32
  0
VERTEX
  8
T42SSILL
 62
7
 10
3498.347
 20
-6720.000
 30
986.384
 70
    32
  0
VERTEX
  8
T42SSILL
 62
7
 10
3538.773
 20
-6689.626
 30
986.504
 70
    32
  0
VERTEX
  8
T42SSILL
 62
7
 10
3533.884
 20
-6684.428
 30
986.512
 70
    32
  0
VERTEX
  8
T42SSILL
 62
7
 10
3528.349
 20
-6668.411
 30
986.549
 70
    32
  0
VERTEX
  8
T42SSILL
 62
7
 10
3521.312
 20
-6663.547
 30
986.554
 70
    32
  0
VERTEX
  8
T42SSILL
 62
7
 10
3520.536
 20
-6648.945
 30
986.591
 70
    32
  0
SEQEND
  8
T42SSILL
  0
POLYLINE
  8
T42SSILL
 62
7
 66
     1
 70
     9
  0
VERTEX
  8
T42SSILL
 62
7
 10
3544.491
 20
-6819.045
 30
986.172
 70
    32
  0
VERTEX
  8
T42SSILL
 62
7
 10
3546.350
 20
-6809.156
 30
986.200
 70
    32
  0
VERTEX
  8
T42SSILL
 62
7
 10
3551.656
 20
-6797.250
 30
986.236
 70
    32
  0
VERTEX
  8
T42SSILL
 62
7
 10
3550.580
 20
-6790.858
 30
986.252
 70
    32
  0
VERTEX
  8
T42SSILL
 62
7
 10
3536.096
 20
-6775.676
 30
986.277
 70
    32
  0
VERTEX
  8
T42SSILL
 62
7
 10
3526.649
 20
-6793.346
 30
986.221
 70
    32
  0
SEQEND
  8
T42SSILL
  0
POLYLINE
  8
T42SSILL
 62
7
 66
     1
 70
     9
  0
VERTEX
  8
T42SSILL
 62
7
 10
3352.387
 20
-6481.354
 30
986.497
 70
    32
  0
VERTEX
  8
T42SSILL
 62
7
 10
3340.000
 20
-6490.162
 30
986.506
 70
    32
  0
VERTEX
  8
T42SSILL
 62
7
 10
3334.039
 20
-6496.570
 30
986.512
 70
    32
  0
VERTEX
  8
T42SSILL
 62
7
 10
3329.440
 20
-6509.926
 30
986.525
 70
    32
  0
VERTEX
  8
T42SSILL
 62
7
 10
3330.418
 20
-6518.773
 30
986.533
 70
    32
  0
VERTEX
  8
T42SSILL
 62
7
 10
3338.644
 20
-6534.610
 30
986.548
 70
    32
  0
VERTEX
  8
T42SSILL
 62
7
 10
3367.605
 20
-6572.896
 30
986.584
 70
    32
  0
VERTEX
  8
T42SSILL
 62
7
 10
3373.902
 20
-6567.876
 30
986.579
 70
    32
  0
VERTEX
  8
T42SSILL
 62
7
 10
3347.043
 20
-6531.782
 30
986.545
 70
    32
  0
VERTEX
  8
T42SSILL
 62
7
 10
3343.954
 20
-6520.424
 30
986.535
 70
    32
  0
VERTEX
  8
T42SSILL
 62
7
 10
3348.259
 20
-6505.435
 30
986.520
 70
    32
  0
VERTEX
  8
T42SSILL
 62
7
 10
3352.607
 20
-6499.198
 30
986.514
 70
    32
  0
VERTEX
  8
T42SSILL
 62
7
 10
3348.751
 20
-6495.759
 30
986.511
 70
    32
  0
VERTEX
  8
T42SSILL
 62
7
 10
3348.489
 20
-6493.560
 30
986.509
 70
    32
  0
VERTEX
  8
T42SSILL
 62
7
 10
3348.577
 20
-6490.786
 30
986.506
 70
    32
  0
VERTEX
  8
T42SSILL
 62
7
 10
3352.901
 20
-6486.193
 30
986.502
 70
    32
  0
VERTEX
  8
T42SSILL
 62
7
 10
3352.744
 20
-6482.618
 30
986.498
 70
    32
  0
SEQEND
  8
T42SSILL
  0
POLYLINE
  8
T42SSILL
 62
7
 66
     1
 70
     9
  0
VERTEX
  8
T42SSILL
 62
7
 10
2403.611
 20
-6125.686
 30
989.203
 70
    32
  0
VERTEX
  8
T42SSILL
 62
7
 10
2417.427
 20
-6134.830
 30
989.186
 70
    32
  0
VERTEX
  8
T42SSILL
 62
7
 10
2423.733
 20
-6145.060
 30
989.225
 70
    32
  0
VERTEX
  8
T42SSILL
 62
7
 10
2400.893
 20
-6161.412
 30
989.497
 70
    32
  0
VERTEX
  8
T42SSILL
 62
7
 10
2402.931
 20
-6157.378
 30
989.453
 70
    32
  0
VERTEX
  8
T42SSILL
 62
7
 10
2404.454
 20
-6146.672
 30
989.360
 70
    32
  0
VERTEX
  8
T42SSILL
 62
7
 10
2403.558
 20
-6130.122
 30
989.238
 70
    32
  0
SEQEND
  8
T42SSILL
  0
POLYLINE
  8
T42SSILL
 62
7
 66
     1
 70
     9
  0
VERTEX
  8
T42SSILL
 62
7
 10
3520.441
 20
-6766.101
 30
986.286
 70
    32
  0
VERTEX
  8
T42SSILL
 62
7
 10
3530.127
 20
-6761.487
 30
986.308
 70
    32
  0
VERTEX
  8
T42SSILL
 62
7
 10
3527.563
 20
-6754.526
 30
986.323
 70
    32
  0
VERTEX
  8
T42SSILL
 62
7
 10
3516.137
 20
-6740.747
 30
986.348
 70
    32
  0
VERTEX
  8
T42SSILL
 62
7
 10
3515.150
 20
-6731.582
 30
986.371
 70
    32
  0
VERTEX
  8
T42SSILL
 62
7
 10
3511.594
 20
-6722.616
 30
986.390
 70
    32
  0
VERTEX
  8
T42SSILL
 62
7
 10
3508.292
 20
-6719.651
 30
986.395
 70
    32
  0
VERTEX
  8
T42SSILL
 62
7
 10
3502.755
 20
-6724.673
 30
986.376
 70
    32
  0
VERTEX
  8
T42SSILL
 62
7
 10
3498.426
 20
-6731.547
 30
986.354
 70
    32
  0
VERTEX
  8
T42SSILL
 62
7
 10
3496.350
 20
-6746.469
 30
986.313
 70
    32
  0
VERTEX
  8
T42SSILL
 62
7
 10
3500.343
 20
-6757.726
 30
986.288
 70
    32
  0
VERTEX
  8
T42SSILL
 62
7
 10
3518.691
 20
-6782.306
 30
986.242
 70
    32
  0
VERTEX
  8
T42SSILL
 62
7
 10
3522.828
 20
-6778.822
 30
986.255
 70
    32
  0
VERTEX
  8
T42SSILL
 62
7
 10
3517.590
 20
-6771.590
 30
986.269
 70
    32
  0
SEQEND
  8
T42SSILL
  0
POLYLINE
  8
T42SSILL
 62
7
 66
     1
 70
     9
  0
VERTEX
  8
T42SSILL
 62
7
 10
3319.615
 20
-6388.038
 30
986.409
 70
    32
  0
VERTEX
  8
T42SSILL
 62
7
 10
3323.188
 20
-6392.914
 30
986.413
 70
    32
  0
VERTEX
  8
T42SSILL
 62
7
 10
3313.469
 20
-6399.953
 30
986.420
 70
    32
  0
VERTEX
  8
T42SSILL
 62
7
 10
3309.869
 20
-6395.040
 30
986.416
 70
    32
  0
VERTEX
  8
T42SSILL
 62
7
 10
3282.600
 20
-6414.629
 30
986.435
 70
    32
  0
VERTEX
  8
T42SSILL
 62
7
 10
3276.450
 20
-6422.906
 30
986.443
 70
    32
  0
VERTEX
  8
T42SSILL
 62
7
 10
3273.387
 20
-6433.543
 30
986.453
 70
    32
  0
VERTEX
  8
T42SSILL
 62
7
 10
3275.978
 20
-6447.098
 30
986.466
 70
    32
  0
VERTEX
  8
T42SSILL
 62
7
 10
3322.094
 20
-6510.270
 30
986.525
 70
    32
  0
VERTEX
  8
T42SSILL
 62
7
 10
3323.336
 20
-6501.037
 30
986.517
 70
    32
  0
VERTEX
  8
T42SSILL
 62
7
 10
3329.019
 20
-6490.273
 30
986.506
 70
    32
  0
VERTEX
  8
T42SSILL
 62
7
 10
3355.298
 20
-6469.741
 30
986.486
 70
    32
  0
VERTEX
  8
T42SSILL
 62
7
 10
3341.479
 20
-6451.375
 30
986.469
 70
    32
  0
VERTEX
  8
T42SSILL
 62
7
 10
3337.699
 20
-6431.726
 30
986.450
 70
    32
  0
VERTEX
  8
T42SSILL
 62
7
 10
3338.990
 20
-6423.325
 30
986.442
 70
    32
  0
VERTEX
  8
T42SSILL
 62
7
 10
3343.233
 20
-6413.585
 30
986.433
 70
    32
  0
VERTEX
  8
T42SSILL
 62
7
 10
3354.584
 20
-6398.898
 30
986.418
 70
    32
  0
VERTEX
  8
T42SSILL
 62
7
 10
3357.369
 20
-6388.785
 30
986.409
 70
    32
  0
VERTEX
  8
T42SSILL
 62
7
 10
3350.877
 20
-6393.076
 30
986.413
 70
    32
  0
VERTEX
  8
T42SSILL
 62
7
 10
3327.457
 20
-6382.405
 30
986.403
 70
    32
  0
SEQEND
  8
T42SSILL
  0
POLYLINE
  8
T42SSILL
 62
7
 66
     1
 70
     9
  0
VERTEX
  8
T42SSILL
 62
7
 10
2916.404
 20
-6871.909
 30
987.494
 70
    32
  0
VERTEX
  8
T42SSILL
 62
7
 10
2896.501
 20
-6876.619
 30
987.537
 70
    32
  0
VERTEX
  8
T42SSILL
 62
7
 10
2852.916
 20
-6899.126
 30
987.624
 70
    32
  0
VERTEX
  8
T42SSILL
 62
7
 10
2857.333
 20
-6907.996
 30
987.609
 70
    32
  0
VERTEX
  8
T42SSILL
 62
7
 10
2901.789
 20
-6886.049
 30
987.520
 70
    32
  0
VERTEX
  8
T42SSILL
 62
7
 10
2928.790
 20
-6880.536
 30
987.461
 70
    32
  0
VERTEX
  8
T42SSILL
 62
7
 10
2941.317
 20
-6885.633
 30
987.430
 70
    32
  0
VERTEX
  8
T42SSILL
 62
7
 10
2838.738
 20
-6958.612
 30
987.625
 70
    32
  0
VERTEX
  8
T42SSILL
 62
7
 10
2831.708
 20
-6950.906
 30
987.645
 70
    32
  0
VERTEX
  8
T42SSILL
 62
7
 10
2779.352
 20
-6990.438
 30
987.743
 70
    32
  0
VERTEX
  8
T42SSILL
 62
7
 10
2773.287
 20
-6983.354
 30
987.760
 70
    32
  0
VERTEX
  8
T42SSILL
 62
7
 10
2777.450
 20
-6976.943
 30
987.754
 70
    32
  0
VERTEX
  8
T42SSILL
 62
7
 10
2781.121
 20
-6976.665
 30
987.746
 70
    32
  0
VERTEX
  8
T42SSILL
 62
7
 10
2784.486
 20
-6978.744
 30
987.737
 70
    32
  0
VERTEX
  8
T42SSILL
 62
7
 10
2793.814
 20
-6976.711
 30
987.717
 70
    32
  0
VERTEX
  8
T42SSILL
 62
7
 10
2798.675
 20
-6967.888
 30
987.711
 70
    32
  0
VERTEX
  8
T42SSILL
 62
7
 10
2804.415
 20
-6963.608
 30
987.700
 70
    32
  0
VERTEX
  8
T42SSILL
 62
7
 10
2813.992
 20
-6960.224
 30
987.680
 70
    32
  0
VERTEX
  8
T42SSILL
 62
7
 10
2813.974
 20
-6957.554
 30
987.681
 70
    32
  0
VERTEX
  8
T42SSILL
 62
7
 10
2811.144
 20
-6953.604
 30
987.690
 70
    32
  0
VERTEX
  8
T42SSILL
 62
7
 10
2804.790
 20
-6954.659
 30
987.704
 70
    32
  0
VERTEX
  8
T42SSILL
 62
7
 10
2799.451
 20
-6953.297
 30
987.717
 70
    32
  0
VERTEX
  8
T42SSILL
 62
7
 10
2772.251
 20
-6960.999
 30
987.774
 70
    32
  0
VERTEX
  8
T42SSILL
 62
7
 10
2756.614
 20
-6960.729
 30
987.810
 70
    32
  0
VERTEX
  8
T42SSILL
 62
7
 10
2743.239
 20
-6940.552
 30
987.851
 70
    32
  0
VERTEX
  8
T42SSILL
 62
7
 10
2742.621
 20
-6927.673
 30
987.859
 70
    32
  0
VERTEX
  8
T42SSILL
 62
7
 10
2747.287
 20
-6915.766
 30
987.855
 70
    32
  0
VERTEX
  8
T42SSILL
 62
7
 10
2769.970
 20
-6915.362
 30
987.803
 70
    32
  0
VERTEX
  8
T42SSILL
 62
7
 10
2769.615
 20
-6905.199
 30
987.810
 70
    32
  0
VERTEX
  8
T42SSILL
 62
7
 10
2759.502
 20
-6905.627
 30
987.832
 70
    32
  0
VERTEX
  8
T42SSILL
 62
7
 10
2832.582
 20
-6853.200
 30
987.694
 70
    32
  0
VERTEX
  8
T42SSILL
 62
7
 10
2841.406
 20
-6851.837
 30
987.675
 70
    32
  0
VERTEX
  8
T42SSILL
 62
7
 10
2856.585
 20
-6846.307
 30
987.643
 70
    32
  0
VERTEX
  8
T42SSILL
 62
7
 10
2858.644
 20
-6844.781
 30
987.639
 70
    32
  0
VERTEX
  8
T42SSILL
 62
7
 10
2860.638
 20
-6836.002
 30
987.639
 70
    32
  0
VERTEX
  8
T42SSILL
 62
7
 10
2870.378
 20
-6828.964
 30
987.621
 70
    32
  0
VERTEX
  8
T42SSILL
 62
7
 10
2914.244
 20
-6862.239
 30
987.504
 70
    32
  0
SEQEND
  8
T42SSILL
  0
POLYLINE
  8
T42SSILL
 62
7
 66
     1
 70
     9
  0
VERTEX
  8
T42SSILL
 62
7
 10
2942.215
 20
-6863.125
 30
987.440
 70
    32
  0
VERTEX
  8
T42SSILL
 62
7
 10
2960.088
 20
-6815.529
 30
987.424
 70
    32
  0
VERTEX
  8
T42SSILL
 62
7
 10
2950.846
 20
-6810.110
 30
987.448
 70
    32
  0
VERTEX
  8
T42SSILL
 62
7
 10
2934.054
 20
-6856.735
 30
987.462
 70
    32
  0
VERTEX
  8
T42SSILL
 62
7
 10
2925.159
 20
-6859.863
 30
987.480
 70
    32
  0
VERTEX
  8
T42SSILL
 62
7
 10
2886.359
 20
-6827.710
 30
987.585
 70
    32
  0
VERTEX
  8
T42SSILL
 62
7
 10
2881.583
 20
-6818.449
 30
987.601
 70
    32
  0
VERTEX
  8
T42SSILL
 62
7
 10
2963.000
 20
-6763.000
 30
987.445
 70
    32
  0
VERTEX
  8
T42SSILL
 62
7
 10
2968.000
 20
-6761.000
 30
987.435
 70
    32
  0
VERTEX
  8
T42SSILL
 62
7
 10
2977.000
 20
-6761.000
 30
987.415
 70
    32
  0
VERTEX
  8
T42SSILL
 62
7
 10
2987.000
 20
-6764.000
 30
987.390
 70
    32
  0
VERTEX
  8
T42SSILL
 62
7
 10
2991.000
 20
-6767.000
 30
987.380
 70
    32
  0
VERTEX
  8
T42SSILL
 62
7
 10
3012.000
 20
-6794.000
 30
987.318
 70
    32
  0
VERTEX
  8
T42SSILL
 62
7
 10
3000.000
 20
-6801.000
 30
987.341
 70
    32
  0
VERTEX
  8
T42SSILL
 62
7
 10
2995.000
 20
-6807.000
 30
987.350
 70
    32
  0
VERTEX
  8
T42SSILL
 62
7
 10
2995.000
 20
-6810.000
 30
987.348
 70
    32
  0
VERTEX
  8
T42SSILL
 62
7
 10
3012.000
 20
-6836.000
 30
987.296
 70
    32
  0
VERTEX
  8
T42SSILL
 62
7
 10
2951.413
 20
-6879.423
 30
987.411
 70
    32
  0
VERTEX
  8
T42SSILL
 62
7
 10
2944.900
 20
-6867.175
 30
987.432
 70
    32
  0
SEQEND
  8
T42SSILL
  0
POLYLINE
  8
T42SSILL
 62
7
 66
     1
 70
     9
  0
VERTEX
  8
T42SSILL
 62
7
 10
2739.116
 20
-6665.820
 30
988.004
 70
    32
  0
VERTEX
  8
T42SSILL
 62
7
 10
2724.939
 20
-6661.754
 30
988.039
 70
    32
  0
VERTEX
  8
T42SSILL
 62
7
 10
2722.108
 20
-6657.804
 30
988.047
 70
    32
  0
VERTEX
  8
T42SSILL
 62
7
 10
2716.509
 20
-6658.553
 30
988.059
 70
    32
  0
VERTEX
  8
T42SSILL
 62
7
 10
2714.513
 20
-6659.393
 30
988.064
 70
    32
  0
VERTEX
  8
T42SSILL
 62
7
 10
2713.416
 20
-6666.050
 30
988.063
 70
    32
  0
VERTEX
  8
T42SSILL
 62
7
 10
2705.093
 20
-6671.252
 30
988.079
 70
    32
  0
VERTEX
  8
T42SSILL
 62
7
 10
2702.931
 20
-6677.142
 30
988.080
 70
    32
  0
VERTEX
  8
T42SSILL
 62
7
 10
2718.866
 20
-6679.245
 30
988.043
 70
    32
  0
VERTEX
  8
T42SSILL
 62
7
 10
2723.332
 20
-6681.209
 30
988.032
 70
    32
  0
VERTEX
  8
T42SSILL
 62
7
 10
2728.313
 20
-6686.399
 30
988.018
 70
    32
  0
VERTEX
  8
T42SSILL
 62
7
 10
2737.482
 20
-6675.745
 30
988.003
 70
    32
  0
VERTEX
  8
T42SSILL
 62
7
 10
2739.201
 20
-6668.122
 30
988.003
 70
    32
  0
SEQEND
  8
T42SSILL
  0
POLYLINE
  8
T42SSILL
 62
7
 66
     1
 70
     9
  0
VERTEX
  8
T42SSILL
 62
7
 10
4638.027
 20
-6151.712
 30
986.037
 70
    32
  0
VERTEX
  8
T42SSILL
 62
7
 10
4611.657
 20
-6115.324
 30
985.981
 70
    32
  0
VERTEX
  8
T42SSILL
 62
7
 10
4584.535
 20
-6121.965
 30
985.929
 70
    32
  0
VERTEX
  8
T42SSILL
 62
7
 10
4574.048
 20
-6115.294
 30
985.908
 70
    32
  0
VERTEX
  8
T42SSILL
 62
7
 10
4559.464
 20
-6129.520
 30
985.964
 70
    32
  0
VERTEX
  8
T42SSILL
 62
7
 10
4562.361
 20
-6138.865
 30
985.963
 70
    32
  0
VERTEX
  8
T42SSILL
 62
7
 10
4558.378
 20
-6141.351
 30
985.978
 70
    32
  0
VERTEX
  8
T42SSILL
 62
7
 10
4551.823
 20
-6136.774
 30
985.994
 70
    32
  0
VERTEX
  8
T42SSILL
 62
7
 10
4538.510
 20
-6136.257
 30
986.033
 70
    32
  0
VERTEX
  8
T42SSILL
 62
7
 10
4525.461
 20
-6145.421
 30
986.052
 70
    32
  0
VERTEX
  8
T42SSILL
 62
7
 10
4551.221
 20
-6179.243
 30
986.031
 70
    32
  0
VERTEX
  8
T42SSILL
 62
7
 10
4555.401
 20
-6180.714
 30
986.020
 70
    32
  0
VERTEX
  8
T42SSILL
 62
7
 10
4563.783
 20
-6187.707
 30
986.000
 70
    32
  0
VERTEX
  8
T42SSILL
 62
7
 10
4577.034
 20
-6211.742
 30
985.981
 70
    32
  0
VERTEX
  8
T42SSILL
 62
7
 10
4585.191
 20
-6233.098
 30
985.974
 70
    32
  0
VERTEX
  8
T42SSILL
 62
7
 10
4636.341
 20
-6196.824
 30
986.040
 70
    32
  0
VERTEX
  8
T42SSILL
 62
7
 10
4646.413
 20
-6191.528
 30
986.058
 70
    32
  0
VERTEX
  8
T42SSILL
 62
7
 10
4656.843
 20
-6189.658
 30
986.078
 70
    32
  0
VERTEX
  8
T42SSILL
 62
7
 10
4666.296
 20
-6190.721
 30
986.095
 70
    32
  0
VERTEX
  8
T42SSILL
 62
7
 10
4645.078
 20
-6161.443
 30
986.052
 70
    32
  0
VERTEX
  8
T42SSILL
 62
7
 10
4639.696
 20
-6164.849
 30
986.042
 70
    32
  0
VERTEX
  8
T42SSILL
 62
7
 10
4633.371
 20
-6155.774
 30
986.028
 70
    32
  0
VERTEX
  8
T42SSILL
 62
7
 10
4637.668
 20
-6151.944
 30
986.036
 70
    32
  0
SEQEND
  8
T42SSILL
  0
POLYLINE
  8
T42SSILL
 62
7
 66
     1
 70
     9
  0
VERTEX
  8
T42SSILL
 62
7
 10
5168.029
 20
-6958.879
 30
986.613
 70
    32
  0
VERTEX
  8
T42SSILL
 62
7
 10
5174.045
 20
-6970.479
 30
986.624
 70
    32
  0
VERTEX
  8
T42SSILL
 62
7
 10
5173.762
 20
-6974.344
 30
986.626
 70
    32
  0
VERTEX
  8
T42SSILL
 62
7
 10
5168.235
 20
-6985.167
 30
986.632
 70
    32
  0
VERTEX
  8
T42SSILL
 62
7
 10
5168.515
 20
-7000.445
 30
986.642
 70
    32
  0
VERTEX
  8
T42SSILL
 62
7
 10
5171.832
 20
-7008.334
 30
986.649
 70
    32
  0
VERTEX
  8
T42SSILL
 62
7
 10
5178.578
 20
-7017.390
 30
986.658
 70
    32
  0
VERTEX
  8
T42SSILL
 62
7
 10
5178.028
 20
-7028.649
 30
986.665
 70
    32
  0
VERTEX
  8
T42SSILL
 62
7
 10
5186.281
 20
-7027.712
 30
986.668
 70
    32
  0
VERTEX
  8
T42SSILL
 62
7
 10
5186.841
 20
-7022.752
 30
986.665
 70
    32
  0
VERTEX
  8
T42SSILL
 62
7
 10
5194.649
 20
-7009.096
 30
986.659
 70
    32
  0
VERTEX
  8
T42SSILL
 62
7
 10
5186.340
 20
-6974.005
 30
986.631
 70
    32
  0
VERTEX
  8
T42SSILL
 62
7
 10
5178.516
 20
-6956.361
 30
986.616
 70
    32
  0
VERTEX
  8
T42SSILL
 62
7
 10
5179.796
 20
-6946.652
 30
986.610
 70
    32
  0
VERTEX
  8
T42SSILL
 62
7
 10
5187.868
 20
-6937.000
 30
986.607
 70
    32
  0
VERTEX
  8
T42SSILL
 62
7
 10
5192.499
 20
-6923.094
 30
986.599
 70
    32
  0
VERTEX
  8
T42SSILL
 62
7
 10
5241.828
 20
-6993.517
 30
986.667
 70
    32
  0
VERTEX
  8
T42SSILL
 62
7
 10
5233.406
 20
-7023.461
 30
986.684
 70
    32
  0
VERTEX
  8
T42SSILL
 62
7
 10
5173.097
 20
-7066.129
 30
986.689
 70
    32
  0
VERTEX
  8
T42SSILL
 62
7
 10
5154.747
 20
-7034.435
 30
986.660
 70
    32
  0
VERTEX
  8
T42SSILL
 62
7
 10
5152.678
 20
-7029.363
 30
986.655
 70
    32
  0
VERTEX
  8
T42SSILL
 62
7
 10
5150.527
 20
-7013.952
 30
986.644
 70
    32
  0
VERTEX
  8
T42SSILL
 62
7
 10
5136.800
 20
-6978.396
 30
986.614
 70
    32
  0
VERTEX
  8
T42SSILL
 62
7
 10
5166.483
 20
-6956.398
 30
986.611
 70
    32
  0
SEQEND
  8
T42SSILL
  0
POLYLINE
  8
T42SSILL
 62
7
 66
     1
 70
     9
  0
VERTEX
  8
T42SSILL
 62
7
 10
3998.534
 20
-7384.672
 30
986.329
 70
    32
  0
VERTEX
  8
T42SSILL
 62
7
 10
4006.716
 20
-7391.903
 30
986.319
 70
    32
  0
VERTEX
  8
T42SSILL
 62
7
 10
4019.491
 20
-7392.965
 30
986.326
 70
    32
  0
VERTEX
  8
T42SSILL
 62
7
 10
4026.149
 20
-7391.172
 30
986.328
 70
    32
  0
VERTEX
  8
T42SSILL
 62
7
 10
4066.939
 20
-7362.236
 30
986.336
 70
    32
  0
VERTEX
  8
T42SSILL
 62
7
 10
4078.783
 20
-7346.738
 30
986.336
 70
    32
  0
VERTEX
  8
T42SSILL
 62
7
 10
4083.401
 20
-7335.848
 30
986.333
 70
    32
  0
VERTEX
  8
T42SSILL
 62
7
 10
4083.902
 20
-7316.609
 30
986.326
 70
    32
  0
VERTEX
  8
T42SSILL
 62
7
 10
4082.745
 20
-7311.124
 30
986.323
 70
    32
  0
VERTEX
  8
T42SSILL
 62
7
 10
4066.650
 20
-7275.385
 30
986.301
 70
    32
  0
VERTEX
  8
T42SSILL
 62
7
 10
4059.119
 20
-7269.086
 30
986.295
 70
    32
  0
VERTEX
  8
T42SSILL
 62
7
 10
4055.509
 20
-7262.331
 30
986.309
 70
    32
  0
VERTEX
  8
T42SSILL
 62
7
 10
3973.826
 20
-7320.062
 30
986.375
 70
    32
  0
VERTEX
  8
T42SSILL
 62
7
 10
3963.019
 20
-7323.349
 30
986.378
 70
    32
  0
VERTEX
  8
T42SSILL
 62
7
 10
3953.694
 20
-7322.569
 30
986.384
 70
    32
  0
SEQEND
  8
T42SSILL
  0
POLYLINE
  8
T42SSILL
 62
7
 66
     1
 70
     9
  0
VERTEX
  8
T42SSILL
 62
7
 10
4014.405
 20
-7459.400
 30
986.452
 70
    32
  0
VERTEX
  8
T42SSILL
 62
7
 10
4017.522
 20
-7456.039
 30
986.442
 70
    32
  0
VERTEX
  8
T42SSILL
 62
7
 10
4022.081
 20
-7444.320
 30
986.417
 70
    32
  0
VERTEX
  8
T42SSILL
 62
7
 10
4021.642
 20
-7430.569
 30
986.389
 70
    32
  0
VERTEX
  8
T42SSILL
 62
7
 10
3956.446
 20
-7340.577
 30
986.388
 70
    32
  0
VERTEX
  8
T42SSILL
 62
7
 10
3988.796
 20
-7477.720
 30
986.546
 70
    32
  0
VERTEX
  8
T42SSILL
 62
7
 10
4008.727
 20
-7464.189
 30
986.475
 70
    32
  0
SEQEND
  8
T42SSILL
  0
POLYLINE
  8
T42SSILL
 62
7
 66
     1
 70
     9
  0
VERTEX
  8
T42SSILL
 62
7
 10
3892.112
 20
-7237.278
 30
986.420
 70
    32
  0
VERTEX
  8
T42SSILL
 62
7
 10
3902.201
 20
-7239.222
 30
986.417
 70
    32
  0
VERTEX
  8
T42SSILL
 62
7
 10
3915.907
 20
-7236.770
 30
986.415
 70
    32
  0
VERTEX
  8
T42SSILL
 62
7
 10
4041.322
 20
-7146.652
 30
986.401
 70
    32
  0
VERTEX
  8
T42SSILL
 62
7
 10
4029.864
 20
-7122.375
 30
986.445
 70
    32
  0
VERTEX
  8
T42SSILL
 62
7
 10
4010.241
 20
-7096.624
 30
986.468
 70
    32
  0
VERTEX
  8
T42SSILL
 62
7
 10
3999.175
 20
-7078.279
 30
986.475
 70
    32
  0
VERTEX
  8
T42SSILL
 62
7
 10
3993.855
 20
-7072.771
 30
986.471
 70
    32
  0
VERTEX
  8
T42SSILL
 62
7
 10
3949.001
 20
-7105.866
 30
986.441
 70
    32
  0
VERTEX
  8
T42SSILL
 62
7
 10
3949.455
 20
-7116.227
 30
986.439
 70
    32
  0
VERTEX
  8
T42SSILL
 62
7
 10
3945.263
 20
-7122.007
 30
986.438
 70
    32
  0
VERTEX
  8
T42SSILL
 62
7
 10
3945.096
 20
-7137.511
 30
986.434
 70
    32
  0
VERTEX
  8
T42SSILL
 62
7
 10
3938.072
 20
-7146.444
 30
986.433
 70
    32
  0
VERTEX
  8
T42SSILL
 62
7
 10
3950.032
 20
-7163.919
 30
986.427
 70
    32
  0
VERTEX
  8
T42SSILL
 62
7
 10
3954.677
 20
-7178.539
 30
986.422
 70
    32
  0
VERTEX
  8
T42SSILL
 62
7
 10
3953.561
 20
-7190.043
 30
986.420
 70
    32
  0
VERTEX
  8
T42SSILL
 62
7
 10
3949.137
 20
-7198.501
 30
986.419
 70
    32
  0
VERTEX
  8
T42SSILL
 62
7
 10
3945.197
 20
-7201.479
 30
986.419
 70
    32
  0
VERTEX
  8
T42SSILL
 62
7
 10
3941.513
 20
-7201.215
 30
986.419
 70
    32
  0
VERTEX
  8
T42SSILL
 62
7
 10
3937.692
 20
-7197.016
 30
986.421
 70
    32
  0
VERTEX
  8
T42SSILL
 62
7
 10
3929.191
 20
-7196.878
 30
986.423
 70
    32
  0
VERTEX
  8
T42SSILL
 62
7
 10
3900.127
 20
-7183.783
 30
986.412
 70
    32
  0
VERTEX
  8
T42SSILL
 62
7
 10
3889.038
 20
-7182.038
 30
986.369
 70
    32
  0
VERTEX
  8
T42SSILL
 62
7
 10
3877.847
 20
-7171.313
 30
986.400
 70
    32
  0
VERTEX
  8
T42SSILL
 62
7
 10
3874.471
 20
-7165.479
 30
986.406
 70
    32
  0
VERTEX
  8
T42SSILL
 62
7
 10
3873.444
 20
-7159.572
 30
986.398
 70
    32
  0
VERTEX
  8
T42SSILL
 62
7
 10
3856.939
 20
-7167.771
 30
986.277
 70
    32
  0
VERTEX
  8
T42SSILL
 62
7
 10
3842.955
 20
-7169.196
 30
986.282
 70
    32
  0
VERTEX
  8
T42SSILL
 62
7
 10
3890.115
 20
-7234.513
 30
986.421
 70
    32
  0
SEQEND
  8
T42SSILL
  0
POLYLINE
  8
T42SSILL
 62
7
 66
     1
 70
     9
  0
VERTEX
  8
T42SSILL
 62
7
 10
2698.053
 20
-6889.768
 30
987.973
 70
    32
  0
VERTEX
  8
T42SSILL
 62
7
 10
2742.207
 20
-6951.349
 30
987.840
 70
    32
  0
VERTEX
  8
T42SSILL
 62
7
 10
2745.631
 20
-6966.586
 30
987.814
 70
    32
  0
VERTEX
  8
T42SSILL
 62
7
 10
2742.334
 20
-6978.300
 30
987.799
 70
    32
  0
VERTEX
  8
T42SSILL
 62
7
 10
2738.409
 20
-6985.835
 30
987.791
 70
    32
  0
VERTEX
  8
T42SSILL
 62
7
 10
2734.761
 20
-6989.102
 30
987.789
 70
    32
  0
VERTEX
  8
T42SSILL
 62
7
 10
2737.737
 20
-6992.951
 30
987.780
 70
    32
  0
VERTEX
  8
T42SSILL
 62
7
 10
2701.116
 20
-7018.737
 30
987.772
 70
    32
  0
VERTEX
  8
T42SSILL
 62
7
 10
2696.285
 20
-7012.197
 30
987.786
 70
    32
  0
VERTEX
  8
T42SSILL
 62
7
 10
2691.746
 20
-7013.395
 30
987.790
 70
    32
  0
VERTEX
  8
T42SSILL
 62
7
 10
2688.607
 20
-7010.087
 30
987.797
 70
    32
  0
VERTEX
  8
T42SSILL
 62
7
 10
2685.032
 20
-7003.968
 30
987.809
 70
    32
  0
VERTEX
  8
T42SSILL
 62
7
 10
2683.965
 20
-6998.374
 30
987.818
 70
    32
  0
VERTEX
  8
T42SSILL
 62
7
 10
2682.388
 20
-6996.242
 30
987.823
 70
    32
  0
VERTEX
  8
T42SSILL
 62
7
 10
2673.356
 20
-6992.169
 30
987.837
 70
    32
  0
VERTEX
  8
T42SSILL
 62
7
 10
2666.560
 20
-6979.044
 30
987.863
 70
    32
  0
VERTEX
  8
T42SSILL
 62
7
 10
2683.288
 20
-6951.952
 30
987.890
 70
    32
  0
VERTEX
  8
T42SSILL
 62
7
 10
2684.377
 20
-6946.373
 30
987.898
 70
    32
  0
VERTEX
  8
T42SSILL
 62
7
 10
2682.959
 20
-6937.158
 30
987.913
 70
    32
  0
VERTEX
  8
T42SSILL
 62
7
 10
2684.983
 20
-6933.401
 30
987.917
 70
    32
  0
VERTEX
  8
T42SSILL
 62
7
 10
2672.228
 20
-6904.320
 30
987.973
 70
    32
  0
VERTEX
  8
T42SSILL
 62
7
 10
2670.833
 20
-6888.758
 30
987.998
 70
    32
  0
VERTEX
  8
T42SSILL
 62
7
 10
2685.366
 20
-6891.754
 30
987.981
 70
    32
  0
SEQEND
  8
T42SSILL
  0
POLYLINE
  8
T42SSILL
 62
3
 66
     1
 70
     9
  0
VERTEX
  8
T42SSILL
 62
3
 10
38.878
 20
-6827.730
 30
992.506
 70
    32
  0
VERTEX
  8
T42SSILL
 62
3
 10
47.357
 20
-6820.241
 30
992.463
 70
    32
  0
VERTEX
  8
T42SSILL
 62
3
 10
56.685
 20
-6838.596
 30
986.586
 70
    32
  0
VERTEX
  8
T42SSILL
 62
3
 10
48.081
 20
-6845.203
 30
986.561
 70
    32
  0
SEQEND
  8
T42SSILL
  0
TEXT
  8
T42SSILL
 62
7
 10
3179.790
 20
-5116.444
 30
997.403
 40
0.200
  1
4250
 41
 1.0 
  0
TEXT
  8
T42SSILL
 62
7
 10
661.727
 20
-7179.656
 30
1011.510
 40
0.200
  1
4250
 41
 1.0 
  0
TEXT
  8
T42SSILL
 62
3
 10
47.455
 20
-6833.157
 30
992.506
 40
0.200
  1
D
 41
 1.0 
  0
POLYLINE
  8
T42SSILL
 62
7
 66
     1
 70
     8
  0
VERTEX
  8
T42SSILL
 62
7
 10
2663.727
 20
-6870.339
 30
988.032
 70
    32
  0
VERTEX
  8
T42SSILL
 62
7
 10
2657.363
 20
-6865.886
 30
988.045
 70
    32
  0
VERTEX
  8
T42SSILL
 62
7
 10
2645.150
 20
-6871.273
 30
988.047
 70
    32
  0
VERTEX
  8
T42SSILL
 62
7
 10
2655.720
 20
-6892.205
 30
988.005
 70
    32
  0
VERTEX
  8
T42SSILL
 62
7
 10
2637.361
 20
-6924.712
 30
987.971
 70
    32
  0
VERTEX
  8
T42SSILL
 62
7
 10
2634.091
 20
-6922.460
 30
987.977
 70
    32
  0
VERTEX
  8
T42SSILL
 62
7
 10
2612.750
 20
-6895.866
 30
988.037
 70
    32
  0
VERTEX
  8
T42SSILL
 62
7
 10
2599.449
 20
-6883.577
 30
988.067
 70
    32
  0
VERTEX
  8
T42SSILL
 62
7
 10
2591.026
 20
-6888.634
 30
988.066
 70
    32
  0
VERTEX
  8
T42SSILL
 62
7
 10
2601.287
 20
-6907.095
 30
988.029
 70
    32
  0
VERTEX
  8
T42SSILL
 62
7
 10
2619.866
 20
-6926.260
 30
987.984
 70
    32
  0
VERTEX
  8
T42SSILL
 62
7
 10
2642.211
 20
-6959.136
 30
987.914
 70
    32
  0
VERTEX
  8
T42SSILL
 62
7
 10
2654.213
 20
-6972.964
 30
987.882
 70
    32
  0
VERTEX
  8
T42SSILL
 62
7
 10
2665.927
 20
-7009.094
 30
987.825
 70
    32
  0
VERTEX
  8
T42SSILL
 62
7
 10
2667.099
 20
-7018.264
 30
987.813
 70
    32
  0
VERTEX
  8
T42SSILL
 62
7
 10
2677.448
 20
-7034.519
 30
987.782
 70
    32
  0
VERTEX
  8
T42SSILL
 62
7
 10
2672.424
 20
-7038.561
 30
987.783
 70
    32
  0
VERTEX
  8
T42SSILL
 62
7
 10
2676.497
 20
-7044.188
 30
987.771
 70
    32
  0
VERTEX
  8
T42SSILL
 62
7
 10
2682.488
 20
-7040.272
 30
987.769
 70
    32
  0
VERTEX
  8
T42SSILL
 62
7
 10
2685.311
 20
-7042.188
 30
987.763
 70
    32
  0
VERTEX
  8
T42SSILL
 62
7
 10
2690.019
 20
-7048.705
 30
987.750
 70
    32
  0
VERTEX
  8
T42SSILL
 62
7
 10
2701.538
 20
-7055.141
 30
987.729
 70
    32
  0
VERTEX
  8
T42SSILL
 62
7
 10
2708.470
 20
-7067.529
 30
987.706
 70
    32
  0
VERTEX
  8
T42SSILL
 62
7
 10
2717.208
 20
-7076.311
 30
987.685
 70
    32
  0
VERTEX
  8
T42SSILL
 62
7
 10
2721.375
 20
-7076.442
 30
987.680
 70
    32
  0
VERTEX
  8
T42SSILL
 62
7
 10
2725.593
 20
-7073.534
 30
987.679
 70
    32
  0
VERTEX
  8
T42SSILL
 62
7
 10
2727.961
 20
-7068.253
 30
987.682
 70
    32
  0
VERTEX
  8
T42SSILL
 62
7
 10
2727.806
 20
-7064.605
 30
987.686
 70
    32
  0
VERTEX
  8
T42SSILL
 62
7
 10
2707.655
 20
-7043.627
 30
987.735
 70
    32
  0
VERTEX
  8
T42SSILL
 62
7
 10
2700.440
 20
-7030.362
 30
987.759
 70
    32
  0
VERTEX
  8
T42SSILL
 62
7
 10
2700.905
 20
-7027.145
 30
987.763
 70
    32
  0
VERTEX
  8
T42SSILL
 62
7
 10
2733.533
 20
-7003.038
 30
987.768
 70
    32
  0
VERTEX
  8
T42SSILL
 62
7
 10
2742.659
 20
-7010.051
 30
987.750
 70
    32
  0
VERTEX
  8
T42SSILL
 62
7
 10
2749.231
 20
-7018.181
 30
987.732
 70
    32
  0
VERTEX
  8
T42SSILL
 62
7
 10
2749.516
 20
-7020.774
 30
987.727
 70
    32
  0
VERTEX
  8
T42SSILL
 62
7
 10
2811.686
 20
-7102.694
 30
987.548
 70
    32
  0
VERTEX
  8
T42SSILL
 62
7
 10
2853.477
 20
-7119.266
 30
987.487
 70
    32
  0
VERTEX
  8
T42SSILL
 62
7
 10
2877.144
 20
-7150.480
 30
987.419
 70
    32
  0
VERTEX
  8
T42SSILL
 62
7
 10
2878.096
 20
-7161.197
 30
987.401
 70
    32
  0
VERTEX
  8
T42SSILL
 62
7
 10
2873.288
 20
-7171.808
 30
987.389
 70
    32
  0
VERTEX
  8
T42SSILL
 62
7
 10
2866.870
 20
-7178.855
 30
987.387
 70
    32
  0
VERTEX
  8
T42SSILL
 62
7
 10
2860.210
 20
-7165.977
 30
987.410
 70
    32
  0
VERTEX
  8
T42SSILL
 62
7
 10
2857.280
 20
-7164.155
 30
987.415
 70
    32
  0
VERTEX
  8
T42SSILL
 62
7
 10
2844.885
 20
-7177.941
 30
987.414
 70
    32
  0
VERTEX
  8
T42SSILL
 62
7
 10
2850.491
 20
-7186.188
 30
987.397
 70
    32
  0
VERTEX
  8
T42SSILL
 62
7
 10
2841.558
 20
-7192.344
 30
987.401
 70
    32
  0
VERTEX
  8
T42SSILL
 62
7
 10
2844.207
 20
-7199.016
 30
987.390
 70
    32
  0
VERTEX
  8
T42SSILL
 62
7
 10
2834.685
 20
-7205.984
 30
987.393
 70
    32
  0
VERTEX
  8
T42SSILL
 62
7
 10
2840.812
 20
-7214.037
 30
987.376
 70
    32
  0
VERTEX
  8
T42SSILL
 62
7
 10
2882.344
 20
-7183.853
 30
987.363
 70
    32
  0
VERTEX
  8
T42SSILL
 62
7
 10
2889.143
 20
-7174.898
 30
987.371
 70
    32
  0
VERTEX
  8
T42SSILL
 62
7
 10
2890.933
 20
-7169.400
 30
987.378
 70
    32
  0
VERTEX
  8
T42SSILL
 62
7
 10
2897.300
 20
-7165.529
 30
987.378
 70
    32
  0
VERTEX
  8
T42SSILL
 62
7
 10
2912.202
 20
-7187.181
 30
987.332
 70
    32
  0
VERTEX
  8
T42SSILL
 62
7
 10
2898.281
 20
-7200.613
 30
987.324
 70
    32
  0
VERTEX
  8
T42SSILL
 62
7
 10
2897.700
 20
-7206.494
 30
987.317
 70
    32
  0
VERTEX
  8
T42SSILL
 62
7
 10
2917.794
 20
-7211.569
 30
987.290
 70
    32
  0
VERTEX
  8
T42SSILL
 62
7
 10
2923.527
 20
-7214.637
 30
987.280
 70
    32
  0
VERTEX
  8
T42SSILL
 62
7
 10
2933.283
 20
-7215.829
 30
987.270
 70
    32
  0
VERTEX
  8
T42SSILL
 62
7
 10
3106.171
 20
-7456.050
 30
987.385
 70
    32
  0
VERTEX
  8
T42SSILL
 62
7
 10
3103.124
 20
-7465.603
 30
987.391
 70
    32
  0
VERTEX
  8
T42SSILL
 62
7
 10
3087.660
 20
-7476.551
 30
987.387
 70
    32
  0
VERTEX
  8
T42SSILL
 62
7
 10
3094.353
 20
-7485.729
 30
987.400
 70
    32
  0
VERTEX
  8
T42SSILL
 62
7
 10
3109.075
 20
-7475.264
 30
987.403
 70
    32
  0
VERTEX
  8
T42SSILL
 62
7
 10
3117.712
 20
-7472.955
 30
987.408
 70
    32
  0
VERTEX
  8
T42SSILL
 62
7
 10
3137.954
 20
-7500.697
 30
987.446
 70
    32
  0
VERTEX
  8
T42SSILL
 62
7
 10
3146.136
 20
-7505.409
 30
987.457
 70
    32
  0
VERTEX
  8
T42SSILL
 62
7
 10
3158.808
 20
-7509.110
 30
987.470
 70
    32
  0
VERTEX
  8
T42SSILL
 62
7
 10
3147.983
 20
-7517.124
 30
987.467
 70
    32
  0
VERTEX
  8
T42SSILL
 62
7
 10
3152.275
 20
-7522.699
 30
987.475
 70
    32
  0
VERTEX
  8
T42SSILL
 62
7
 10
3349.233
 20
-7381.038
 30
987.236
 70
    32
  0
VERTEX
  8
T42SSILL
 62
7
 10
3347.415
 20
-7397.064
 30
987.279
 70
    32
  0
VERTEX
  8
T42SSILL
 62
7
 10
3351.677
 20
-7409.651
 30
987.310
 70
    32
  0
VERTEX
  8
T42SSILL
 62
7
 10
3351.355
 20
-7414.561
 30
987.323
 70
    32
  0
VERTEX
  8
T42SSILL
 62
7
 10
3357.131
 20
-7417.878
 30
987.329
 70
    32
  0
VERTEX
  8
T42SSILL
 62
7
 10
3375.553
 20
-7446.966
 30
987.395
 70
    32
  0
VERTEX
  8
T42SSILL
 62
7
 10
3374.028
 20
-7450.028
 30
987.404
 70
    32
  0
VERTEX
  8
T42SSILL
 62
7
 10
3376.643
 20
-7455.005
 30
987.416
 70
    32
  0
VERTEX
  8
T42SSILL
 62
7
 10
3381.676
 20
-7455.343
 30
987.414
 70
    32
  0
VERTEX
  8
T42SSILL
 62
7
 10
3401.269
 20
-7486.525
 30
987.486
 70
    32
  0
VERTEX
  8
T42SSILL
 62
7
 10
3398.367
 20
-7490.537
 30
987.498
 70
    32
  0
VERTEX
  8
T42SSILL
 62
7
 10
3400.134
 20
-7493.837
 30
987.506
 70
    32
  0
VERTEX
  8
T42SSILL
 62
7
 10
3408.278
 20
-7496.772
 30
987.509
 70
    32
  0
VERTEX
  8
T42SSILL
 62
7
 10
3427.124
 20
-7525.977
 30
987.576
 70
    32
  0
VERTEX
  8
T42SSILL
 62
7
 10
3425.480
 20
-7533.348
 30
987.597
 70
    32
  0
VERTEX
  8
T42SSILL
 62
7
 10
3438.101
 20
-7543.821
 30
987.618
 70
    32
  0
VERTEX
  8
T42SSILL
 62
7
 10
3451.945
 20
-7565.671
 30
987.668
 70
    32
  0
VERTEX
  8
T42SSILL
 62
7
 10
3451.580
 20
-7571.391
 30
987.683
 70
    32
  0
VERTEX
  8
T42SSILL
 62
7
 10
3460.977
 20
-7578.687
 30
987.698
 70
    32
  0
VERTEX
  8
T42SSILL
 62
7
 10
3478.519
 20
-7606.345
 30
987.761
 70
    32
  0
VERTEX
  8
T42SSILL
 62
7
 10
3478.945
 20
-7609.346
 30
987.769
 70
    32
  0
VERTEX
  8
T42SSILL
 62
7
 10
3476.997
 20
-7612.290
 30
987.777
 70
    32
  0
VERTEX
  8
T42SSILL
 62
7
 10
3479.375
 20
-7616.672
 30
987.788
 70
    32
  0
VERTEX
  8
T42SSILL
 62
7
 10
3488.712
 20
-7622.018
 30
987.797
 70
    32
  0
VERTEX
  8
T42SSILL
 62
7
 10
3504.459
 20
-7647.512
 30
987.856
 70
    32
  0
VERTEX
  8
T42SSILL
 62
7
 10
3503.038
 20
-7649.823
 30
987.857
 70
    32
  0
VERTEX
  8
T42SSILL
 62
7
 10
3503.808
 20
-7653.558
 30
987.859
 70
    32
  0
VERTEX
  8
T42SSILL
 62
7
 10
3511.101
 20
-7657.260
 30
987.867
 70
    32
  0
VERTEX
  8
T42SSILL
 62
7
 10
3530.715
 20
-7688.759
 30
987.862
 70
    32
  0
VERTEX
  8
T42SSILL
 62
7
 10
3528.880
 20
-7692.282
 30
987.862
 70
    32
  0
VERTEX
  8
T42SSILL
 62
7
 10
3530.111
 20
-7696.327
 30
987.861
 70
    32
  0
VERTEX
  8
T42SSILL
 62
7
 10
3536.705
 20
-7697.683
 30
987.859
 70
    32
  0
VERTEX
  8
T42SSILL
 62
7
 10
3555.991
 20
-7728.324
 30
987.849
 70
    32
  0
VERTEX
  8
T42SSILL
 62
7
 10
3553.946
 20
-7730.566
 30
987.850
 70
    32
  0
VERTEX
  8
T42SSILL
 62
7
 10
3555.317
 20
-7735.946
 30
987.849
 70
    32
  0
VERTEX
  8
T42SSILL
 62
7
 10
3560.596
 20
-7734.875
 30
987.847
 70
    32
  0
VERTEX
  8
T42SSILL
 62
7
 10
3581.025
 20
-7766.855
 30
987.837
 70
    32
  0
VERTEX
  8
T42SSILL
 62
7
 10
3580.619
 20
-7773.383
 30
987.837
 70
    32
  0
VERTEX
  8
T42SSILL
 62
7
 10
3582.192
 20
-7776.721
 30
987.836
 70
    32
  0
VERTEX
  8
T42SSILL
 62
7
 10
3588.250
 20
-7777.380
 30
987.834
 70
    32
  0
VERTEX
  8
T42SSILL
 62
7
 10
3591.041
 20
-7782.443
 30
987.832
 70
    32
  0
VERTEX
  8
T42SSILL
 62
7
 10
3598.022
 20
-7778.395
 30
987.830
 70
    32
  0
VERTEX
  8
T42SSILL
 62
7
 10
3593.920
 20
-7771.345
 30
987.832
 70
    32
  0
VERTEX
  8
T42SSILL
 62
7
 10
3595.391
 20
-7768.213
 30
987.832
 70
    32
  0
VERTEX
  8
T42SSILL
 62
7
 10
3594.589
 20
-7764.725
 30
987.832
 70
    32
  0
VERTEX
  8
T42SSILL
 62
7
 10
3593.532
 20
-7763.209
 30
987.833
 70
    32
  0
VERTEX
  8
T42SSILL
 62
7
 10
3588.071
 20
-7763.755
 30
987.835
 70
    32
  0
VERTEX
  8
T42SSILL
 62
7
 10
3567.328
 20
-7729.353
 30
987.845
 70
    32
  0
VERTEX
  8
T42SSILL
 62
7
 10
3569.501
 20
-7726.124
 30
987.845
 70
    32
  0
VERTEX
  8
T42SSILL
 62
7
 10
3569.071
 20
-7724.126
 30
987.845
 70
    32
  0
VERTEX
  8
T42SSILL
 62
7
 10
3567.638
 20
-7722.122
 30
987.846
 70
    32
  0
VERTEX
  8
T42SSILL
 62
7
 10
3562.515
 20
-7722.963
 30
987.847
 70
    32
  0
VERTEX
  8
T42SSILL
 62
7
 10
3542.821
 20
-7692.081
 30
987.857
 70
    32
  0
VERTEX
  8
T42SSILL
 62
7
 10
3544.076
 20
-7687.230
 30
987.857
 70
    32
  0
VERTEX
  8
T42SSILL
 62
7
 10
3541.371
 20
-7683.432
 30
987.858
 70
    32
  0
VERTEX
  8
T42SSILL
 62
7
 10
3536.723
 20
-7683.018
 30
987.860
 70
    32
  0
VERTEX
  8
T42SSILL
 62
7
 10
3518.816
 20
-7654.311
 30
987.861
 70
    32
  0
VERTEX
  8
T42SSILL
 62
7
 10
3517.780
 20
-7646.342
 30
987.846
 70
    32
  0
VERTEX
  8
T42SSILL
 62
7
 10
3514.414
 20
-7640.390
 30
987.832
 70
    32
  0
VERTEX
  8
T42SSILL
 62
7
 10
3510.905
 20
-7642.317
 30
987.839
 70
    32
  0
VERTEX
  8
T42SSILL
 62
7
 10
3493.802
 20
-7614.654
 30
987.775
 70
    32
  0
VERTEX
  8
T42SSILL
 62
7
 10
3488.190
 20
-7602.332
 30
987.746
 70
    32
  0
VERTEX
  8
T42SSILL
 62
7
 10
3485.923
 20
-7602.414
 30
987.747
 70
    32
  0
VERTEX
  8
T42SSILL
 62
7
 10
3467.669
 20
-7575.417
 30
987.686
 70
    32
  0
VERTEX
  8
T42SSILL
 62
7
 10
3468.509
 20
-7573.771
 30
987.681
 70
    32
  0
VERTEX
  8
T42SSILL
 62
7
 10
3464.158
 20
-7563.805
 30
987.657
 70
    32
  0
VERTEX
  8
T42SSILL
 62
7
 10
3457.443
 20
-7558.548
 30
987.647
 70
    32
  0
VERTEX
  8
T42SSILL
 62
7
 10
3442.542
 20
-7535.182
 30
987.593
 70
    32
  0
VERTEX
  8
T42SSILL
 62
7
 10
3443.759
 20
-7530.137
 30
987.579
 70
    32
  0
VERTEX
  8
T42SSILL
 62
7
 10
3440.768
 20
-7523.231
 30
987.563
 70
    32
  0
VERTEX
  8
T42SSILL
 62
7
 10
3432.880
 20
-7519.765
 30
987.557
 70
    32
  0
VERTEX
  8
T42SSILL
 62
7
 10
3413.772
 20
-7490.651
 30
987.491
 70
    32
  0
VERTEX
  8
T42SSILL
 62
7
 10
3415.556
 20
-7484.614
 30
987.474
 70
    32
  0
VERTEX
  8
T42SSILL
 62
7
 10
3413.710
 20
-7481.931
 30
987.468
 70
    32
  0
VERTEX
  8
T42SSILL
 62
7
 10
3407.363
 20
-7480.607
 30
987.468
 70
    32
  0
VERTEX
  8
T42SSILL
 62
7
 10
3389.213
 20
-7450.866
 30
987.399
 70
    32
  0
VERTEX
  8
T42SSILL
 62
7
 10
3390.414
 20
-7444.503
 30
987.382
 70
    32
  0
VERTEX
  8
T42SSILL
 62
7
 10
3389.013
 20
-7442.253
 30
987.377
 70
    32
  0
VERTEX
  8
T42SSILL
 62
7
 10
3384.033
 20
-7441.984
 30
987.378
 70
    32
  0
VERTEX
  8
T42SSILL
 62
7
 10
3360.826
 20
-7403.376
 30
987.289
 70
    32
  0
VERTEX
  8
T42SSILL
 62
7
 10
3357.678
 20
-7395.259
 30
987.269
 70
    32
  0
VERTEX
  8
T42SSILL
 62
7
 10
3358.575
 20
-7385.911
 30
987.244
 70
    32
  0
VERTEX
  8
T42SSILL
 62
7
 10
3370.146
 20
-7367.226
 30
987.190
 70
    32
  0
VERTEX
  8
T42SSILL
 62
7
 10
3415.378
 20
-7334.035
 30
987.081
 70
    32
  0
VERTEX
  8
T42SSILL
 62
7
 10
3424.061
 20
-7346.260
 30
987.109
 70
    32
  0
VERTEX
  8
T42SSILL
 62
7
 10
3424.407
 20
-7351.681
 30
987.123
 70
    32
  0
VERTEX
  8
T42SSILL
 62
7
 10
3442.556
 20
-7373.160
 30
987.170
 70
    32
  0
VERTEX
  8
T42SSILL
 62
7
 10
3462.154
 20
-7400.675
 30
987.232
 70
    32
  0
VERTEX
  8
T42SSILL
 62
7
 10
3473.621
 20
-7405.635
 30
987.240
 70
    32
  0
VERTEX
  8
T42SSILL
 62
7
 10
3607.696
 20
-7449.077
 30
987.272
 70
    32
  0
VERTEX
  8
T42SSILL
 62
7
 10
3624.354
 20
-7472.405
 30
987.292
 70
    32
  0
VERTEX
  8
T42SSILL
 62
7
 10
3623.631
 20
-7477.405
 30
987.303
 70
    32
  0
VERTEX
  8
T42SSILL
 62
7
 10
3630.544
 20
-7478.808
 30
987.294
 70
    32
  0
VERTEX
  8
T42SSILL
 62
7
 10
3631.533
 20
-7473.723
 30
987.282
 70
    32
  0
VERTEX
  8
T42SSILL
 62
7
 10
3629.918
 20
-7461.916
 30
987.260
 70
    32
  0
VERTEX
  8
T42SSILL
 62
7
 10
3633.365
 20
-7457.661
 30
987.245
 70
    32
  0
VERTEX
  8
T42SSILL
 62
7
 10
3636.577
 20
-7448.886
 30
987.220
 70
    32
  0
VERTEX
  8
T42SSILL
 62
7
 10
3481.282
 20
-7399.075
 30
987.219
 70
    32
  0
VERTEX
  8
T42SSILL
 62
7
 10
3469.957
 20
-7394.011
 30
987.211
 70
    32
  0
VERTEX
  8
T42SSILL
 62
7
 10
3457.825
 20
-7381.244
 30
987.184
 70
    32
  0
VERTEX
  8
T42SSILL
 62
7
 10
3462.865
 20
-7372.883
 30
987.159
 70
    32
  0
VERTEX
  8
T42SSILL
 62
7
 10
3452.948
 20
-7358.065
 30
987.125
 70
    32
  0
VERTEX
  8
T42SSILL
 62
7
 10
3451.294
 20
-7344.105
 30
987.090
 70
    32
  0
VERTEX
  8
T42SSILL
 62
7
 10
3447.491
 20
-7338.582
 30
987.077
 70
    32
  0
VERTEX
  8
T42SSILL
 62
7
 10
3434.365
 20
-7347.376
 30
987.107
 70
    32
  0
VERTEX
  8
T42SSILL
 62
7
 10
3428.888
 20
-7340.454
 30
987.091
 70
    32
  0
VERTEX
  8
T42SSILL
 62
7
 10
3430.244
 20
-7329.430
 30
987.062
 70
    32
  0
VERTEX
  8
T42SSILL
 62
7
 10
3429.391
 20
-7323.614
 30
987.047
 70
    32
  0
VERTEX
  8
T42SSILL
 62
7
 10
3702.717
 20
-7128.062
 30
986.403
 70
    32
  0
VERTEX
  8
T42SSILL
 62
7
 10
3705.281
 20
-7128.950
 30
986.404
 70
    32
  0
VERTEX
  8
T42SSILL
 62
7
 10
3709.423
 20
-7125.498
 30
986.393
 70
    32
  0
VERTEX
  8
T42SSILL
 62
7
 10
3709.996
 20
-7122.856
 30
986.386
 70
    32
  0
VERTEX
  8
T42SSILL
 62
7
 10
3778.462
 20
-7073.882
 30
986.239
 70
    32
  0
VERTEX
  8
T42SSILL
 62
7
 10
3779.132
 20
-7093.836
 30
986.262
 70
    32
  0
VERTEX
  8
T42SSILL
 62
7
 10
3785.397
 20
-7105.561
 30
986.269
 70
    32
  0
VERTEX
  8
T42SSILL
 62
7
 10
3893.939
 20
-7254.297
 30
986.429
 70
    32
  0
VERTEX
  8
T42SSILL
 62
7
 10
3899.352
 20
-7270.971
 30
986.439
 70
    32
  0
VERTEX
  8
T42SSILL
 62
7
 10
3900.341
 20
-7277.124
 30
986.445
 70
    32
  0
VERTEX
  8
T42SSILL
 62
7
 10
3897.356
 20
-7296.099
 30
986.478
 70
    32
  0
VERTEX
  8
T42SSILL
 62
7
 10
3888.845
 20
-7300.442
 30
986.504
 70
    32
  0
VERTEX
  8
T42SSILL
 62
7
 10
3885.991
 20
-7305.510
 30
986.518
 70
    32
  0
VERTEX
  8
T42SSILL
 62
7
 10
3882.047
 20
-7308.337
 30
986.531
 70
    32
  0
VERTEX
  8
T42SSILL
 62
7
 10
3883.910
 20
-7311.241
 30
986.531
 70
    32
  0
VERTEX
  8
T42SSILL
 62
7
 10
3881.598
 20
-7317.610
 30
986.545
 70
    32
  0
VERTEX
  8
T42SSILL
 62
7
 10
3830.379
 20
-7353.049
 30
986.714
 70
    32
  0
VERTEX
  8
T42SSILL
 62
7
 10
3835.097
 20
-7359.979
 30
986.712
 70
    32
  0
VERTEX
  8
T42SSILL
 62
7
 10
3889.770
 20
-7321.042
 30
986.530
 70
    32
  0
VERTEX
  8
T42SSILL
 62
7
 10
3902.089
 20
-7305.745
 30
986.480
 70
    32
  0
VERTEX
  8
T42SSILL
 62
7
 10
3906.821
 20
-7291.717
 30
986.450
 70
    32
  0
VERTEX
  8
T42SSILL
 62
7
 10
3909.721
 20
-7276.082
 30
986.422
 70
    32
  0
VERTEX
  8
T42SSILL
 62
7
 10
3941.750
 20
-7320.292
 30
986.407
 70
    32
  0
VERTEX
  8
T42SSILL
 62
7
 10
3951.162
 20
-7364.602
 30
986.426
 70
    32
  0
VERTEX
  8
T42SSILL
 62
7
 10
3942.195
 20
-7377.459
 30
986.462
 70
    32
  0
VERTEX
  8
T42SSILL
 62
7
 10
3931.975
 20
-7375.409
 30
986.487
 70
    32
  0
VERTEX
  8
T42SSILL
 62
7
 10
3920.883
 20
-7381.303
 30
986.522
 70
    32
  0
VERTEX
  8
T42SSILL
 62
7
 10
3914.682
 20
-7389.418
 30
986.547
 70
    32
  0
VERTEX
  8
T42SSILL
 62
7
 10
3913.628
 20
-7394.114
 30
986.554
 70
    32
  0
VERTEX
  8
T42SSILL
 62
7
 10
3913.676
 20
-7399.424
 30
986.559
 70
    32
  0
VERTEX
  8
T42SSILL
 62
7
 10
3919.819
 20
-7415.353
 30
986.559
 70
    32
  0
VERTEX
  8
T42SSILL
 62
7
 10
3926.259
 20
-7475.141
 30
986.656
 70
    32
  0
VERTEX
  8
T42SSILL
 62
7
 10
3921.962
 20
-7478.379
 30
986.672
 70
    32
  0
VERTEX
  8
T42SSILL
 62
7
 10
3928.250
 20
-7486.566
 30
986.681
 70
    32
  0
VERTEX
  8
T42SSILL
 62
7
 10
3944.176
 20
-7626.508
 30
986.998
 70
    32
  0
VERTEX
  8
T42SSILL
 62
7
 10
3946.717
 20
-7626.403
 30
986.993
 70
    32
  0
VERTEX
  8
T42SSILL
 62
7
 10
4010.859
 20
-7787.314
 30
987.272
 70
    32
  0
VERTEX
  8
T42SSILL
 62
7
 10
4020.046
 20
-7783.899
 30
987.246
 70
    32
  0
VERTEX
  8
T42SSILL
 62
7
 10
4011.760
 20
-7763.529
 30
987.211
 70
    32
  0
VERTEX
  8
T42SSILL
 62
7
 10
4013.798
 20
-7754.191
 30
987.184
 70
    32
  0
VERTEX
  8
T42SSILL
 62
7
 10
4029.308
 20
-7730.242
 30
987.096
 70
    32
  0
VERTEX
  8
T42SSILL
 62
7
 10
4031.132
 20
-7733.496
 30
987.100
 70
    32
  0
VERTEX
  8
T42SSILL
 62
7
 10
4038.626
 20
-7730.003
 30
987.078
 70
    32
  0
VERTEX
  8
T42SSILL
 62
7
 10
4044.471
 20
-7735.784
 30
987.081
 70
    32
  0
VERTEX
  8
T42SSILL
 62
7
 10
4071.516
 20
-7803.044
 30
987.197
 70
    32
  0
VERTEX
  8
T42SSILL
 62
7
 10
4077.972
 20
-7799.325
 30
987.176
 70
    32
  0
VERTEX
  8
T42SSILL
 62
7
 10
4051.303
 20
-7732.379
 30
987.060
 70
    32
  0
VERTEX
  8
T42SSILL
 62
7
 10
4060.114
 20
-7734.115
 30
987.048
 70
    32
  0
VERTEX
  8
T42SSILL
 62
7
 10
4061.453
 20
-7727.315
 30
987.028
 70
    32
  0
VERTEX
  8
T42SSILL
 62
7
 10
4056.780
 20
-7726.168
 30
987.034
 70
    32
  0
VERTEX
  8
T42SSILL
 62
7
 10
4060.249
 20
-7714.150
 30
986.998
 70
    32
  0
VERTEX
  8
T42SSILL
 62
7
 10
4054.297
 20
-7704.628
 30
986.986
 70
    32
  0
VERTEX
  8
T42SSILL
 62
7
 10
4044.876
 20
-7705.924
 30
987.006
 70
    32
  0
VERTEX
  8
T42SSILL
 62
7
 10
4041.945
 20
-7704.894
 30
987.009
 70
    32
  0
VERTEX
  8
T42SSILL
 62
7
 10
4002.451
 20
-7604.805
 30
986.835
 70
    32
  0
VERTEX
  8
T42SSILL
 62
7
 10
3991.562
 20
-7485.415
 30
986.560
 70
    32
  0
VERTEX
  8
T42SSILL
 62
7
 10
4022.311
 20
-7462.917
 30
986.456
 70
    32
  0
VERTEX
  8
T42SSILL
 62
7
 10
4029.008
 20
-7448.440
 30
986.426
 70
    32
  0
VERTEX
  8
T42SSILL
 62
7
 10
4029.762
 20
-7441.778
 30
986.412
 70
    32
  0
VERTEX
  8
T42SSILL
 62
7
 10
4180.773
 20
-7650.222
 30
986.847
 70
    32
  0
VERTEX
  8
T42SSILL
 62
7
 10
4287.706
 20
-7806.879
 30
987.172
 70
    32
  0
VERTEX
  8
T42SSILL
 62
7
 10
4289.642
 20
-7814.633
 30
987.187
 70
    32
  0
VERTEX
  8
T42SSILL
 62
7
 10
4288.912
 20
-7830.112
 30
987.217
 70
    32
  0
VERTEX
  8
T42SSILL
 62
7
 10
4284.328
 20
-7843.595
 30
987.246
 70
    32
  0
VERTEX
  8
T42SSILL
 62
7
 10
4275.457
 20
-7854.636
 30
987.269
 70
    32
  0
VERTEX
  8
T42SSILL
 62
7
 10
4120.474
 20
-7967.375
 30
987.513
 70
    32
  0
VERTEX
  8
T42SSILL
 62
7
 10
4125.117
 20
-7973.078
 30
987.520
 70
    32
  0
VERTEX
  8
T42SSILL
 62
7
 10
4140.034
 20
-7962.624
 30
987.497
 70
    32
  0
VERTEX
  8
T42SSILL
 62
7
 10
4145.885
 20
-7966.764
 30
987.506
 70
    32
  0
VERTEX
  8
T42SSILL
 62
7
 10
4154.124
 20
-7961.747
 30
987.495
 70
    32
  0
VERTEX
  8
T42SSILL
 62
7
 10
4161.172
 20
-7959.889
 30
987.491
 70
    32
  0
VERTEX
  8
T42SSILL
 62
7
 10
4164.480
 20
-7951.697
 30
987.474
 70
    32
  0
VERTEX
  8
T42SSILL
 62
7
 10
4163.576
 20
-7945.810
 30
987.462
 70
    32
  0
VERTEX
  8
T42SSILL
 62
7
 10
4276.519
 20
-7863.137
 30
987.287
 70
    32
  0
VERTEX
  8
T42SSILL
 62
7
 10
4286.642
 20
-7852.166
 30
987.264
 70
    32
  0
VERTEX
  8
T42SSILL
 62
7
 10
4292.821
 20
-7840.575
 30
987.239
 70
    32
  0
VERTEX
  8
T42SSILL
 62
7
 10
4296.537
 20
-7817.359
 30
987.195
 70
    32
  0
VERTEX
  8
T42SSILL
 62
7
 10
4368.439
 20
-7918.507
 30
987.407
 70
    32
  0
VERTEX
  8
T42SSILL
 62
7
 10
4375.842
 20
-7913.990
 30
987.403
 70
    32
  0
VERTEX
  8
T42SSILL
 62
7
 10
4227.944
 20
-7709.219
 30
986.974
 70
    32
  0
VERTEX
  8
T42SSILL
 62
7
 10
4241.327
 20
-7709.620
 30
986.982
 70
    32
  0
VERTEX
  8
T42SSILL
 62
7
 10
4253.321
 20
-7706.015
 30
986.983
 70
    32
  0
VERTEX
  8
T42SSILL
 62
7
 10
4427.559
 20
-7579.824
 30
986.869
 70
    32
  0
VERTEX
  8
T42SSILL
 62
7
 10
4440.184
 20
-7585.665
 30
986.886
 70
    32
  0
VERTEX
  8
T42SSILL
 62
7
 10
4457.428
 20
-7601.257
 30
986.922
 70
    32
  0
VERTEX
  8
T42SSILL
 62
7
 10
4461.644
 20
-7602.552
 30
986.927
 70
    32
  0
VERTEX
  8
T42SSILL
 62
7
 10
4467.985
 20
-7600.771
 30
986.927
 70
    32
  0
VERTEX
  8
T42SSILL
 62
7
 10
4468.502
 20
-7597.886
 30
986.923
 70
    32
  0
VERTEX
  8
T42SSILL
 62
7
 10
4462.480
 20
-7589.615
 30
986.905
 70
    32
  0
VERTEX
  8
T42SSILL
 62
7
 10
4458.104
 20
-7579.709
 30
986.886
 70
    32
  0
VERTEX
  8
T42SSILL
 62
7
 10
4456.226
 20
-7572.785
 30
986.873
 70
    32
  0
VERTEX
  8
T42SSILL
 62
7
 10
4457.752
 20
-7565.891
 30
986.863
 70
    32
  0
VERTEX
  8
T42SSILL
 62
7
 10
4466.539
 20
-7554.584
 30
986.849
 70
    32
  0
VERTEX
  8
T42SSILL
 62
7
 10
4467.354
 20
-7551.006
 30
986.843
 70
    32
  0
VERTEX
  8
T42SSILL
 62
7
 10
4474.840
 20
-7545.584
 30
986.838
 70
    32
  0
VERTEX
  8
T42SSILL
 62
7
 10
4475.321
 20
-7547.317
 30
986.841
 70
    32
  0
VERTEX
  8
T42SSILL
 62
7
 10
4480.906
 20
-7550.342
 30
986.850
 70
    32
  0
VERTEX
  8
T42SSILL
 62
7
 10
4485.645
 20
-7549.509
 30
986.851
 70
    32
  0
VERTEX
  8
T42SSILL
 62
7
 10
4490.900
 20
-7542.192
 30
986.841
 70
    32
  0
VERTEX
  8
T42SSILL
 62
7
 10
4494.614
 20
-7531.265
 30
986.825
 70
    32
  0
VERTEX
  8
T42SSILL
 62
7
 10
4504.831
 20
-7523.866
 30
986.818
 70
    32
  0
VERTEX
  8
T42SSILL
 62
7
 10
4500.166
 20
-7518.208
 30
986.806
 70
    32
  0
VERTEX
  8
T42SSILL
 62
7
 10
4466.979
 20
-7542.182
 30
986.828
 70
    32
  0
VERTEX
  8
T42SSILL
 62
7
 10
4462.647
 20
-7529.161
 30
986.803
 70
    32
  0
VERTEX
  8
T42SSILL
 62
7
 10
4449.607
 20
-7518.145
 30
986.777
 70
    32
  0
VERTEX
  8
T42SSILL
 62
7
 10
4444.537
 20
-7506.236
 30
986.754
 70
    32
  0
VERTEX
  8
T42SSILL
 62
7
 10
4438.680
 20
-7504.936
 30
986.749
 70
    32
  0
VERTEX
  8
T42SSILL
 62
7
 10
4419.753
 20
-7540.974
 30
986.799
 70
    32
  0
VERTEX
  8
T42SSILL
 62
7
 10
4418.855
 20
-7545.883
 30
986.807
 70
    32
  0
VERTEX
  8
T42SSILL
 62
7
 10
4421.030
 20
-7550.518
 30
986.816
 70
    32
  0
VERTEX
  8
T42SSILL
 62
7
 10
4439.984
 20
-7551.227
 30
986.828
 70
    32
  0
VERTEX
  8
T42SSILL
 62
7
 10
4441.990
 20
-7555.331
 30
986.836
 70
    32
  0
VERTEX
  8
T42SSILL
 62
7
 10
4442.001
 20
-7560.226
 30
986.844
 70
    32
  0
VERTEX
  8
T42SSILL
 62
7
 10
4249.836
 20
-7699.280
 30
986.969
 70
    32
  0
VERTEX
  8
T42SSILL
 62
7
 10
4237.952
 20
-7702.587
 30
986.968
 70
    32
  0
VERTEX
  8
T42SSILL
 62
7
 10
4229.716
 20
-7701.165
 30
986.961
 70
    32
  0
VERTEX
  8
T42SSILL
 62
7
 10
4220.122
 20
-7695.931
 30
986.947
 70
    32
  0
VERTEX
  8
T42SSILL
 62
7
 10
4177.578
 20
-7632.648
 30
986.816
 70
    32
  0
VERTEX
  8
T42SSILL
 62
7
 10
4188.171
 20
-7632.571
 30
986.822
 70
    32
  0
VERTEX
  8
T42SSILL
 62
7
 10
4200.741
 20
-7626.910
 30
986.819
 70
    32
  0
VERTEX
  8
T42SSILL
 62
7
 10
4443.905
 20
-7453.912
 30
986.666
 70
    32
  0
VERTEX
  8
T42SSILL
 62
7
 10
4439.072
 20
-7447.832
 30
986.653
 70
    32
  0
VERTEX
  8
T42SSILL
 62
7
 10
4397.765
 20
-7477.339
 30
986.679
 70
    32
  0
VERTEX
  8
T42SSILL
 62
7
 10
4391.760
 20
-7470.913
 30
986.665
 70
    32
  0
VERTEX
  8
T42SSILL
 62
7
 10
4382.173
 20
-7476.476
 30
986.669
 70
    32
  0
VERTEX
  8
T42SSILL
 62
7
 10
4381.455
 20
-7479.835
 30
986.674
 70
    32
  0
VERTEX
  8
T42SSILL
 62
7
 10
4385.098
 20
-7486.388
 30
986.687
 70
    32
  0
VERTEX
  8
T42SSILL
 62
7
 10
4200.101
 20
-7618.539
 30
986.805
 70
    32
  0
VERTEX
  8
T42SSILL
 62
7
 10
4193.373
 20
-7622.783
 30
986.808
 70
    32
  0
VERTEX
  8
T42SSILL
 62
7
 10
4184.497
 20
-7625.427
 30
986.808
 70
    32
  0
VERTEX
  8
T42SSILL
 62
7
 10
4170.372
 20
-7622.668
 30
986.795
 70
    32
  0
VERTEX
  8
T42SSILL
 62
7
 10
4121.103
 20
-7554.429
 30
986.652
 70
    32
  0
VERTEX
  8
T42SSILL
 62
7
 10
4133.465
 20
-7554.141
 30
986.658
 70
    32
  0
VERTEX
  8
T42SSILL
 62
7
 10
4144.511
 20
-7548.934
 30
986.656
 70
    32
  0
VERTEX
  8
T42SSILL
 62
7
 10
4333.813
 20
-7413.834
 30
986.536
 70
    32
  0
VERTEX
  8
T42SSILL
 62
7
 10
4335.200
 20
-7416.308
 30
986.541
 70
    32
  0
VERTEX
  8
T42SSILL
 62
7
 10
4334.494
 20
-7441.260
 30
986.582
 70
    32
  0
VERTEX
  8
T42SSILL
 62
7
 10
4340.339
 20
-7445.841
 30
986.593
 70
    32
  0
VERTEX
  8
T42SSILL
 62
7
 10
4362.561
 20
-7446.244
 30
986.607
 70
    32
  0
VERTEX
  8
T42SSILL
 62
7
 10
4391.300
 20
-7423.682
 30
986.585
 70
    32
  0
VERTEX
  8
T42SSILL
 62
7
 10
4402.916
 20
-7405.623
 30
986.561
 70
    32
  0
VERTEX
  8
T42SSILL
 62
7
 10
4400.793
 20
-7389.822
 30
986.533
 70
    32
  0
VERTEX
  8
T42SSILL
 62
7
 10
4396.651
 20
-7379.637
 30
986.514
 70
    32
  0
VERTEX
  8
T42SSILL
 62
7
 10
4395.714
 20
-7369.657
 30
986.496
 70
    32
  0
VERTEX
  8
T42SSILL
 62
7
 10
4416.317
 20
-7354.953
 30
986.498
 70
    32
  0
VERTEX
  8
T42SSILL
 62
7
 10
4411.631
 20
-7348.219
 30
986.494
 70
    32
  0
VERTEX
  8
T42SSILL
 62
7
 10
4391.554
 20
-7362.680
 30
986.490
 70
    32
  0
VERTEX
  8
T42SSILL
 62
7
 10
4377.070
 20
-7348.400
 30
986.477
 70
    32
  0
VERTEX
  8
T42SSILL
 62
7
 10
4368.795
 20
-7334.788
 30
986.468
 70
    32
  0
VERTEX
  8
T42SSILL
 62
7
 10
4360.964
 20
-7339.616
 30
986.466
 70
    32
  0
VERTEX
  8
T42SSILL
 62
7
 10
4358.684
 20
-7342.477
 30
986.466
 70
    32
  0
VERTEX
  8
T42SSILL
 62
7
 10
4360.959
 20
-7364.931
 30
986.476
 70
    32
  0
VERTEX
  8
T42SSILL
 62
7
 10
4350.949
 20
-7380.402
 30
986.489
 70
    32
  0
VERTEX
  8
T42SSILL
 62
7
 10
4326.048
 20
-7401.042
 30
986.510
 70
    32
  0
VERTEX
  8
T42SSILL
 62
7
 10
4329.206
 20
-7407.588
 30
986.522
 70
    32
  0
VERTEX
  8
T42SSILL
 62
7
 10
4141.583
 20
-7542.666
 30
986.644
 70
    32
  0
VERTEX
  8
T42SSILL
 62
7
 10
4135.782
 20
-7546.235
 30
986.646
 70
    32
  0
VERTEX
  8
T42SSILL
 62
7
 10
4128.209
 20
-7547.822
 30
986.645
 70
    32
  0
VERTEX
  8
T42SSILL
 62
7
 10
4113.899
 20
-7544.453
 30
986.631
 70
    32
  0
VERTEX
  8
T42SSILL
 62
7
 10
4066.699
 20
-7479.081
 30
986.494
 70
    32
  0
VERTEX
  8
T42SSILL
 62
7
 10
4080.737
 20
-7477.980
 30
986.500
 70
    32
  0
VERTEX
  8
T42SSILL
 62
7
 10
4089.897
 20
-7473.928
 30
986.498
 70
    32
  0
VERTEX
  8
T42SSILL
 62
7
 10
4168.922
 20
-7417.043
 30
986.447
 70
    32
  0
VERTEX
  8
T42SSILL
 62
7
 10
4181.649
 20
-7425.232
 30
986.468
 70
    32
  0
VERTEX
  8
T42SSILL
 62
7
 10
4207.877
 20
-7399.371
 30
986.440
 70
    32
  0
VERTEX
  8
T42SSILL
 62
7
 10
4218.572
 20
-7391.583
 30
986.433
 70
    32
  0
VERTEX
  8
T42SSILL
 62
7
 10
4228.695
 20
-7394.249
 30
986.443
 70
    32
  0
VERTEX
  8
T42SSILL
 62
7
 10
4252.188
 20
-7394.599
 30
986.457
 70
    32
  0
VERTEX
  8
T42SSILL
 62
7
 10
4267.661
 20
-7396.970
 30
986.470
 70
    32
  0
VERTEX
  8
T42SSILL
 62
7
 10
4277.415
 20
-7399.578
 30
986.480
 70
    32
  0
VERTEX
  8
T42SSILL
 62
7
 10
4281.619
 20
-7402.954
 30
986.488
 70
    32
  0
VERTEX
  8
T42SSILL
 62
7
 10
4301.542
 20
-7409.940
 30
986.511
 70
    32
  0
VERTEX
  8
T42SSILL
 62
7
 10
4330.025
 20
-7380.582
 30
986.477
 70
    32
  0
VERTEX
  8
T42SSILL
 62
7
 10
4323.184
 20
-7369.089
 30
986.460
 70
    32
  0
VERTEX
  8
T42SSILL
 62
7
 10
4306.925
 20
-7352.453
 30
986.446
 70
    32
  0
VERTEX
  8
T42SSILL
 62
7
 10
4289.555
 20
-7343.281
 30
986.434
 70
    32
  0
VERTEX
  8
T42SSILL
 62
7
 10
4286.573
 20
-7333.342
 30
986.428
 70
    32
  0
VERTEX
  8
T42SSILL
 62
7
 10
4388.218
 20
-7258.677
 30
986.447
 70
    32
  0
VERTEX
  8
T42SSILL
 62
7
 10
4383.435
 20
-7251.359
 30
986.442
 70
    32
  0
VERTEX
  8
T42SSILL
 62
7
 10
4292.419
 20
-7317.848
 30
986.425
 70
    32
  0
VERTEX
  8
T42SSILL
 62
7
 10
4275.557
 20
-7300.233
 30
986.410
 70
    32
  0
VERTEX
  8
T42SSILL
 62
7
 10
4259.169
 20
-7297.655
 30
986.401
 70
    32
  0
VERTEX
  8
T42SSILL
 62
7
 10
4230.098
 20
-7317.513
 30
986.395
 70
    32
  0
VERTEX
  8
T42SSILL
 62
7
 10
4217.312
 20
-7330.969
 30
986.395
 70
    32
  0
VERTEX
  8
T42SSILL
 62
7
 10
4208.691
 20
-7335.610
 30
986.393
 70
    32
  0
VERTEX
  8
T42SSILL
 62
7
 10
4202.167
 20
-7346.578
 30
986.394
 70
    32
  0
VERTEX
  8
T42SSILL
 62
7
 10
4196.620
 20
-7352.145
 30
986.393
 70
    32
  0
VERTEX
  8
T42SSILL
 62
7
 10
4192.484
 20
-7355.156
 30
986.393
 70
    32
  0
VERTEX
  8
T42SSILL
 62
7
 10
4183.531
 20
-7357.093
 30
986.389
 70
    32
  0
VERTEX
  8
T42SSILL
 62
7
 10
4176.623
 20
-7365.287
 30
986.389
 70
    32
  0
VERTEX
  8
T42SSILL
 62
7
 10
4157.860
 20
-7382.221
 30
986.387
 70
    32
  0
VERTEX
  8
T42SSILL
 62
7
 10
4158.084
 20
-7387.623
 30
986.392
 70
    32
  0
VERTEX
  8
T42SSILL
 62
7
 10
4164.127
 20
-7399.369
 30
986.415
 70
    32
  0
VERTEX
  8
T42SSILL
 62
7
 10
4166.227
 20
-7409.295
 30
986.433
 70
    32
  0
VERTEX
  8
T42SSILL
 62
7
 10
4082.898
 20
-7468.660
 30
986.485
 70
    32
  0
VERTEX
  8
T42SSILL
 62
7
 10
4070.183
 20
-7470.827
 30
986.482
 70
    32
  0
VERTEX
  8
T42SSILL
 62
7
 10
4058.879
 20
-7468.250
 30
986.471
 70
    32
  0
VERTEX
  8
T42SSILL
 62
7
 10
4009.939
 20
-7400.468
 30
986.329
 70
    32
  0
VERTEX
  8
T42SSILL
 62
7
 10
4024.170
 20
-7400.141
 30
986.336
 70
    32
  0
VERTEX
  8
T42SSILL
 62
7
 10
4032.941
 20
-7396.155
 30
986.335
 70
    32
  0
VERTEX
  8
T42SSILL
 62
7
 10
4123.309
 20
-7330.574
 30
986.350
 70
    32
  0
VERTEX
  8
T42SSILL
 62
7
 10
4135.068
 20
-7348.522
 30
986.363
 70
    32
  0
VERTEX
  8
T42SSILL
 62
7
 10
4146.688
 20
-7358.936
 30
986.373
 70
    32
  0
VERTEX
  8
T42SSILL
 62
7
 10
4155.937
 20
-7352.310
 30
986.374
 70
    32
  0
VERTEX
  8
T42SSILL
 62
7
 10
4156.454
 20
-7349.424
 30
986.373
 70
    32
  0
VERTEX
  8
T42SSILL
 62
7
 10
4153.741
 20
-7332.962
 30
986.366
 70
    32
  0
VERTEX
  8
T42SSILL
 62
7
 10
4155.466
 20
-7320.797
 30
986.361
 70
    32
  0
VERTEX
  8
T42SSILL
 62
7
 10
4154.705
 20
-7317.205
 30
986.360
 70
    32
  0
VERTEX
  8
T42SSILL
 62
7
 10
4150.357
 20
-7311.533
 30
986.355
 70
    32
  0
VERTEX
  8
T42SSILL
 62
7
 10
4292.714
 20
-7207.225
 30
986.381
 70
    32
  0
VERTEX
  8
T42SSILL
 62
7
 10
4287.888
 20
-7202.993
 30
986.377
 70
    32
  0
VERTEX
  8
T42SSILL
 62
7
 10
4158.820
 20
-7296.480
 30
986.353
 70
    32
  0
VERTEX
  8
T42SSILL
 62
7
 10
4155.456
 20
-7291.565
 30
986.350
 70
    32
  0
VERTEX
  8
T42SSILL
 62
7
 10
4140.092
 20
-7302.160
 30
986.347
 70
    32
  0
VERTEX
  8
T42SSILL
 62
7
 10
4127.156
 20
-7286.861
 30
986.335
 70
    32
  0
VERTEX
  8
T42SSILL
 62
7
 10
4108.568
 20
-7257.737
 30
986.314
 70
    32
  0
VERTEX
  8
T42SSILL
 62
7
 10
4094.783
 20
-7234.608
 30
986.298
 70
    32
  0
VERTEX
  8
T42SSILL
 62
7
 10
4243.662
 20
-7128.170
 30
986.326
 70
    32
  0
VERTEX
  8
T42SSILL
 62
7
 10
4238.172
 20
-7120.930
 30
986.321
 70
    32
  0
VERTEX
  8
T42SSILL
 62
7
 10
4092.534
 20
-7226.426
 30
986.294
 70
    32
  0
VERTEX
  8
T42SSILL
 62
7
 10
4080.482
 20
-7206.727
 30
986.293
 70
    32
  0
VERTEX
  8
T42SSILL
 62
7
 10
4068.095
 20
-7191.963
 30
986.341
 70
    32
  0
VERTEX
  8
T42SSILL
 62
7
 10
4057.842
 20
-7200.956
 30
986.343
 70
    32
  0
VERTEX
  8
T42SSILL
 62
7
 10
4066.559
 20
-7216.974
 30
986.327
 70
    32
  0
VERTEX
  8
T42SSILL
 62
7
 10
4074.736
 20
-7240.041
 30
986.291
 70
    32
  0
VERTEX
  8
T42SSILL
 62
7
 10
4058.486
 20
-7251.436
 30
986.312
 70
    32
  0
VERTEX
  8
T42SSILL
 62
7
 10
4031.812
 20
-7197.871
 30
986.389
 70
    32
  0
VERTEX
  8
T42SSILL
 62
7
 10
4024.481
 20
-7202.336
 30
986.404
 70
    32
  0
VERTEX
  8
T42SSILL
 62
7
 10
4052.069
 20
-7256.108
 30
986.328
 70
    32
  0
VERTEX
  8
T42SSILL
 62
7
 10
3971.534
 20
-7313.767
 30
986.379
 70
    32
  0
VERTEX
  8
T42SSILL
 62
7
 10
3960.985
 20
-7316.211
 30
986.383
 70
    32
  0
VERTEX
  8
T42SSILL
 62
7
 10
3955.045
 20
-7315.844
 30
986.386
 70
    32
  0
VERTEX
  8
T42SSILL
 62
7
 10
3945.978
 20
-7311.882
 30
986.391
 70
    32
  0
VERTEX
  8
T42SSILL
 62
7
 10
3927.531
 20
-7286.333
 30
986.401
 70
    32
  0
VERTEX
  8
T42SSILL
 62
7
 10
3940.925
 20
-7285.214
 30
986.399
 70
    32
  0
VERTEX
  8
T42SSILL
 62
7
 10
3960.538
 20
-7294.171
 30
986.395
 70
    32
  0
VERTEX
  8
T42SSILL
 62
7
 10
3965.881
 20
-7293.117
 30
986.392
 70
    32
  0
VERTEX
  8
T42SSILL
 62
7
 10
3975.066
 20
-7287.302
 30
986.390
 70
    32
  0
VERTEX
  8
T42SSILL
 62
7
 10
3979.462
 20
-7287.047
 30
986.388
 70
    32
  0
VERTEX
  8
T42SSILL
 62
7
 10
3982.528
 20
-7284.814
 30
986.388
 70
    32
  0
VERTEX
  8
T42SSILL
 62
7
 10
3991.883
 20
-7258.256
 30
986.396
 70
    32
  0
VERTEX
  8
T42SSILL
 62
7
 10
3991.725
 20
-7253.244
 30
986.399
 70
    32
  0
VERTEX
  8
T42SSILL
 62
7
 10
3984.574
 20
-7243.722
 30
986.407
 70
    32
  0
VERTEX
  8
T42SSILL
 62
7
 10
3985.212
 20
-7237.257
 30
986.410
 70
    32
  0
VERTEX
  8
T42SSILL
 62
7
 10
3979.611
 20
-7229.116
 30
986.417
 70
    32
  0
VERTEX
  8
T42SSILL
 62
7
 10
3973.468
 20
-7224.424
 30
986.423
 70
    32
  0
VERTEX
  8
T42SSILL
 62
7
 10
3969.772
 20
-7223.843
 30
986.425
 70
    32
  0
VERTEX
  8
T42SSILL
 62
7
 10
3960.209
 20
-7226.442
 30
986.417
 70
    32
  0
VERTEX
  8
T42SSILL
 62
7
 10
3954.033
 20
-7232.794
 30
986.410
 70
    32
  0
VERTEX
  8
T42SSILL
 62
7
 10
3954.254
 20
-7257.071
 30
986.406
 70
    32
  0
VERTEX
  8
T42SSILL
 62
7
 10
3948.284
 20
-7261.308
 30
986.403
 70
    32
  0
VERTEX
  8
T42SSILL
 62
7
 10
3945.724
 20
-7275.173
 30
986.401
 70
    32
  0
VERTEX
  8
T42SSILL
 62
7
 10
3934.476
 20
-7278.454
 30
986.402
 70
    32
  0
VERTEX
  8
T42SSILL
 62
7
 10
3919.363
 20
-7275.020
 30
986.405
 70
    32
  0
VERTEX
  8
T42SSILL
 62
7
 10
3898.365
 20
-7245.939
 30
986.417
 70
    32
  0
VERTEX
  8
T42SSILL
 62
7
 10
3907.146
 20
-7246.314
 30
986.415
 70
    32
  0
VERTEX
  8
T42SSILL
 62
7
 10
3917.188
 20
-7243.474
 30
986.414
 70
    32
  0
VERTEX
  8
T42SSILL
 62
7
 10
3990.562
 20
-7192.013
 30
986.431
 70
    32
  0
VERTEX
  8
T42SSILL
 62
7
 10
3994.716
 20
-7198.916
 30
986.425
 70
    32
  0
VERTEX
  8
T42SSILL
 62
7
 10
4006.895
 20
-7189.721
 30
986.423
 70
    32
  0
VERTEX
  8
T42SSILL
 62
7
 10
4002.203
 20
-7183.427
 30
986.429
 70
    32
  0
VERTEX
  8
T42SSILL
 62
7
 10
4044.885
 20
-7152.895
 30
986.388
 70
    32
  0
VERTEX
  8
T42SSILL
 62
7
 10
4063.730
 20
-7190.014
 30
986.343
 70
    32
  0
VERTEX
  8
T42SSILL
 62
7
 10
4072.761
 20
-7186.384
 30
986.340
 70
    32
  0
VERTEX
  8
T42SSILL
 62
7
 10
4068.959
 20
-7170.824
 30
986.345
 70
    32
  0
VERTEX
  8
T42SSILL
 62
7
 10
4057.829
 20
-7143.252
 30
986.363
 70
    32
  0
VERTEX
  8
T42SSILL
 62
7
 10
4174.455
 20
-7059.643
 30
986.266
 70
    32
  0
VERTEX
  8
T42SSILL
 62
7
 10
4169.563
 20
-7053.823
 30
986.262
 70
    32
  0
VERTEX
  8
T42SSILL
 62
7
 10
4055.184
 20
-7136.234
 30
986.374
 70
    32
  0
VERTEX
  8
T42SSILL
 62
7
 10
4051.349
 20
-7131.280
 30
986.387
 70
    32
  0
VERTEX
  8
T42SSILL
 62
7
 10
4029.429
 20
-7075.779
 30
986.469
 70
    32
  0
VERTEX
  8
T42SSILL
 62
7
 10
4020.014
 20
-7063.548
 30
986.480
 70
    32
  0
VERTEX
  8
T42SSILL
 62
7
 10
4021.180
 20
-7062.802
 30
986.480
 70
    32
  0
VERTEX
  8
T42SSILL
 62
7
 10
4017.081
 20
-7056.624
 30
986.485
 70
    32
  0
VERTEX
  8
T42SSILL
 62
7
 10
4063.248
 20
-7023.334
 30
986.433
 70
    32
  0
VERTEX
  8
T42SSILL
 62
7
 10
4059.789
 20
-7017.234
 30
986.446
 70
    32
  0
VERTEX
  8
T42SSILL
 62
7
 10
4036.857
 20
-7034.586
 30
986.486
 70
    32
  0
VERTEX
  8
T42SSILL
 62
7
 10
4035.631
 20
-7022.714
 30
986.493
 70
    32
  0
VERTEX
  8
T42SSILL
 62
7
 10
4027.873
 20
-7006.216
 30
986.505
 70
    32
  0
VERTEX
  8
T42SSILL
 62
7
 10
4004.026
 20
-6974.813
 30
986.496
 70
    32
  0
VERTEX
  8
T42SSILL
 62
7
 10
4015.434
 20
-6903.391
 30
986.518
 70
    32
  0
VERTEX
  8
T42SSILL
 62
7
 10
4109.550
 20
-6835.638
 30
986.450
 70
    32
  0
VERTEX
  8
T42SSILL
 62
7
 10
4115.419
 20
-6842.970
 30
986.430
 70
    32
  0
VERTEX
  8
T42SSILL
 62
7
 10
4126.099
 20
-6835.740
 30
986.409
 70
    32
  0
VERTEX
  8
T42SSILL
 62
7
 10
4120.817
 20
-6828.350
 30
986.427
 70
    32
  0
VERTEX
  8
T42SSILL
 62
7
 10
4133.317
 20
-6818.329
 30
986.403
 70
    32
  0
VERTEX
  8
T42SSILL
 62
7
 10
4146.060
 20
-6835.545
 30
986.391
 70
    32
  0
VERTEX
  8
T42SSILL
 62
7
 10
4155.042
 20
-6829.551
 30
986.388
 70
    32
  0
VERTEX
  8
T42SSILL
 62
7
 10
4142.855
 20
-6812.360
 30
986.397
 70
    32
  0
VERTEX
  8
T42SSILL
 62
7
 10
4162.530
 20
-6796.880
 30
986.393
 70
    32
  0
VERTEX
  8
T42SSILL
 62
7
 10
4173.655
 20
-6810.933
 30
986.385
 70
    32
  0
VERTEX
  8
T42SSILL
 62
7
 10
4181.841
 20
-6805.295
 30
986.383
 70
    32
  0
VERTEX
  8
T42SSILL
 62
7
 10
4171.689
 20
-6790.672
 30
986.391
 70
    32
  0
VERTEX
  8
T42SSILL
 62
7
 10
4660.726
 20
-6438.356
 30
986.113
 70
    32
  0
VERTEX
  8
T42SSILL
 62
7
 10
4666.628
 20
-6438.378
 30
986.118
 70
    32
  0
VERTEX
  8
T42SSILL
 62
7
 10
4673.359
 20
-6436.521
 30
986.127
 70
    32
  0
VERTEX
  8
T42SSILL
 62
7
 10
4677.818
 20
-6432.084
 30
986.137
 70
    32
  0
VERTEX
  8
T42SSILL
 62
7
 10
4684.768
 20
-6431.806
 30
986.144
 70
    32
  0
VERTEX
  8
T42SSILL
 62
7
 10
4722.030
 20
-6448.139
 30
986.158
 70
    32
  0
VERTEX
  8
T42SSILL
 62
7
 10
4727.419
 20
-6455.214
 30
986.154
 70
    32
  0
VERTEX
  8
T42SSILL
 62
7
 10
4732.014
 20
-6452.534
 30
986.162
 70
    32
  0
VERTEX
  8
T42SSILL
 62
7
 10
4754.752
 20
-6462.747
 30
986.171
 70
    32
  0
VERTEX
  8
T42SSILL
 62
7
 10
4757.637
 20
-6455.534
 30
986.183
 70
    32
  0
VERTEX
  8
T42SSILL
 62
7
 10
4738.854
 20
-6448.208
 30
986.174
 70
    32
  0
VERTEX
  8
T42SSILL
 62
7
 10
4748.350
 20
-6441.167
 30
986.192
 70
    32
  0
VERTEX
  8
T42SSILL
 62
7
 10
4743.386
 20
-6433.552
 30
986.197
 70
    32
  0
VERTEX
  8
T42SSILL
 62
7
 10
4733.454
 20
-6440.781
 30
986.178
 70
    32
  0
VERTEX
  8
T42SSILL
 62
7
 10
4729.791
 20
-6438.855
 30
986.177
 70
    32
  0
VERTEX
  8
T42SSILL
 62
7
 10
4721.642
 20
-6440.399
 30
986.168
 70
    32
  0
VERTEX
  8
T42SSILL
 62
7
 10
4688.489
 20
-6426.155
 30
986.154
 70
    32
  0
VERTEX
  8
T42SSILL
 62
7
 10
4688.827
 20
-6418.111
 30
986.165
 70
    32
  0
VERTEX
  8
T42SSILL
 62
7
 10
4743.654
 20
-6379.338
 30
986.243
 70
    32
  0
VERTEX
  8
T42SSILL
 62
7
 10
4754.276
 20
-6374.725
 30
986.245
 70
    32
  0
VERTEX
  8
T42SSILL
 62
7
 10
4767.767
 20
-6372.717
 30
986.249
 70
    32
  0
VERTEX
  8
T42SSILL
 62
7
 10
4783.351
 20
-6373.865
 30
986.254
 70
    32
  0
VERTEX
  8
T42SSILL
 62
7
 10
4801.150
 20
-6381.796
 30
986.262
 70
    32
  0
VERTEX
  8
T42SSILL
 62
7
 10
4814.835
 20
-6393.340
 30
986.270
 70
    32
  0
VERTEX
  8
T42SSILL
 62
7
 10
4829.305
 20
-6414.292
 30
986.280
 70
    32
  0
VERTEX
  8
T42SSILL
 62
7
 10
4829.052
 20
-6429.277
 30
986.283
 70
    32
  0
VERTEX
  8
T42SSILL
 62
7
 10
4822.615
 20
-6440.912
 30
986.262
 70
    32
  0
VERTEX
  8
T42SSILL
 62
7
 10
4817.736
 20
-6446.347
 30
986.251
 70
    32
  0
VERTEX
  8
T42SSILL
 62
7
 10
4726.112
 20
-6510.997
 30
986.127
 70
    32
  0
VERTEX
  8
T42SSILL
 62
7
 10
4730.624
 20
-6517.242
 30
986.133
 70
    32
  0
VERTEX
  8
T42SSILL
 62
7
 10
4825.728
 20
-6447.422
 30
986.257
 70
    32
  0
VERTEX
  8
T42SSILL
 62
7
 10
4831.330
 20
-6439.978
 30
986.272
 70
    32
  0
VERTEX
  8
T42SSILL
 62
7
 10
4836.433
 20
-6424.612
 30
986.286
 70
    32
  0
VERTEX
  8
T42SSILL
 62
7
 10
4856.132
 20
-6455.027
 30
986.276
 70
    32
  0
VERTEX
  8
T42SSILL
 62
7
 10
4856.716
 20
-6462.655
 30
986.267
 70
    32
  0
VERTEX
  8
T42SSILL
 62
7
 10
4848.012
 20
-6485.655
 30
986.230
 70
    32
  0
VERTEX
  8
T42SSILL
 62
7
 10
4857.379
 20
-6489.350
 30
986.234
 70
    32
  0
VERTEX
  8
T42SSILL
 62
7
 10
4865.820
 20
-6468.248
 30
986.269
 70
    32
  0
VERTEX
  8
T42SSILL
 62
7
 10
4905.698
 20
-6523.929
 30
986.236
 70
    32
  0
VERTEX
  8
T42SSILL
 62
7
 10
4894.075
 20
-6522.014
 30
986.228
 70
    32
  0
VERTEX
  8
T42SSILL
 62
7
 10
4885.730
 20
-6523.695
 30
986.218
 70
    32
  0
VERTEX
  8
T42SSILL
 62
7
 10
4876.447
 20
-6528.077
 30
986.204
 70
    32
  0
VERTEX
  8
T42SSILL
 62
7
 10
4742.319
 20
-6625.652
 30
986.279
 70
    32
  0
VERTEX
  8
T42SSILL
 62
7
 10
4747.544
 20
-6631.077
 30
986.284
 70
    32
  0
VERTEX
  8
T42SSILL
 62
7
 10
4879.475
 20
-6534.406
 30
986.205
 70
    32
  0
VERTEX
  8
T42SSILL
 62
7
 10
4888.879
 20
-6529.600
 30
986.213
 70
    32
  0
VERTEX
  8
T42SSILL
 62
7
 10
4897.490
 20
-6528.271
 30
986.223
 70
    32
  0
VERTEX
  8
T42SSILL
 62
7
 10
4907.036
 20
-6530.655
 30
986.229
 70
    32
  0
VERTEX
  8
T42SSILL
 62
7
 10
4914.286
 20
-6535.553
 30
986.230
 70
    32
  0
VERTEX
  8
T42SSILL
 62
7
 10
4954.180
 20
-6591.110
 30
986.274
 70
    32
  0
VERTEX
  8
T42SSILL
 62
7
 10
4947.326
 20
-6596.162
 30
986.275
 70
    32
  0
VERTEX
  8
T42SSILL
 62
7
 10
4955.948
 20
-6606.134
 30
986.285
 70
    32
  0
VERTEX
  8
T42SSILL
 62
7
 10
4965.589
 20
-6606.455
 30
986.290
 70
    32
  0
VERTEX
  8
T42SSILL
 62
7
 10
5005.005
 20
-6661.381
 30
986.343
 70
    32
  0
VERTEX
  8
T42SSILL
 62
7
 10
5007.175
 20
-6668.913
 30
986.349
 70
    32
  0
VERTEX
  8
T42SSILL
 62
7
 10
5006.175
 20
-6680.284
 30
986.357
 70
    32
  0
VERTEX
  8
T42SSILL
 62
7
 10
4998.392
 20
-6692.043
 30
986.362
 70
    32
  0
VERTEX
  8
T42SSILL
 62
7
 10
4860.778
 20
-6790.698
 30
986.507
 70
    32
  0
VERTEX
  8
T42SSILL
 62
7
 10
4849.829
 20
-6782.524
 30
986.504
 70
    32
  0
VERTEX
  8
T42SSILL
 62
7
 10
4831.293
 20
-6758.650
 30
986.474
 70
    32
  0
VERTEX
  8
T42SSILL
 62
7
 10
4827.009
 20
-6761.896
 30
986.490
 70
    32
  0
VERTEX
  8
T42SSILL
 62
7
 10
4827.960
 20
-6768.694
 30
986.506
 70
    32
  0
VERTEX
  8
T42SSILL
 62
7
 10
4834.085
 20
-6777.651
 30
986.519
 70
    32
  0
VERTEX
  8
T42SSILL
 62
7
 10
4840.600
 20
-6804.774
 30
986.548
 70
    32
  0
VERTEX
  8
T42SSILL
 62
7
 10
4802.906
 20
-6831.568
 30
986.455
 70
    32
  0
VERTEX
  8
T42SSILL
 62
7
 10
4807.352
 20
-6837.491
 30
986.456
 70
    32
  0
VERTEX
  8
T42SSILL
 62
7
 10
4837.484
 20
-6815.981
 30
986.531
 70
    32
  0
VERTEX
  8
T42SSILL
 62
7
 10
4856.540
 20
-6831.058
 30
986.547
 70
    32
  0
VERTEX
  8
T42SSILL
 62
7
 10
4867.074
 20
-6847.729
 30
986.546
 70
    32
  0
VERTEX
  8
T42SSILL
 62
7
 10
4872.992
 20
-6864.582
 30
986.538
 70
    32
  0
VERTEX
  8
T42SSILL
 62
7
 10
4889.194
 20
-6883.480
 30
986.545
 70
    32
  0
VERTEX
  8
T42SSILL
 62
7
 10
4890.697
 20
-6898.593
 30
986.531
 70
    32
  0
VERTEX
  8
T42SSILL
 62
7
 10
4893.552
 20
-6902.068
 30
986.532
 70
    32
  0
VERTEX
  8
T42SSILL
 62
7
 10
4895.005
 20
-6900.193
 30
986.536
 70
    32
  0
VERTEX
  8
T42SSILL
 62
7
 10
4905.704
 20
-6900.597
 30
986.554
 70
    32
  0
VERTEX
  8
T42SSILL
 62
7
 10
4916.262
 20
-6890.655
 30
986.583
 70
    32
  0
VERTEX
  8
T42SSILL
 62
7
 10
4917.143
 20
-6891.904
 30
986.583
 70
    32
  0
VERTEX
  8
T42SSILL
 62
7
 10
4923.323
 20
-6887.761
 30
986.598
 70
    32
  0
VERTEX
  8
T42SSILL
 62
7
 10
4921.668
 20
-6885.292
 30
986.598
 70
    32
  0
VERTEX
  8
T42SSILL
 62
7
 10
4925.930
 20
-6882.062
 30
986.609
 70
    32
  0
VERTEX
  8
T42SSILL
 62
7
 10
4924.942
 20
-6878.278
 30
986.612
 70
    32
  0
VERTEX
  8
T42SSILL
 62
7
 10
5021.129
 20
-6808.696
 30
986.451
 70
    32
  0
VERTEX
  8
T42SSILL
 62
7
 10
5019.450
 20
-6818.151
 30
986.457
 70
    32
  0
VERTEX
  8
T42SSILL
 62
7
 10
5022.760
 20
-6821.059
 30
986.460
 70
    32
  0
VERTEX
  8
T42SSILL
 62
7
 10
5031.387
 20
-6903.631
 30
986.520
 70
    32
  0
VERTEX
  8
T42SSILL
 62
7
 10
5030.463
 20
-6912.623
 30
986.531
 70
    32
  0
VERTEX
  8
T42SSILL
 62
7
 10
5023.069
 20
-6924.750
 30
986.576
 70
    32
  0
VERTEX
  8
T42SSILL
 62
7
 10
4969.599
 20
-6962.934
 30
986.595
 70
    32
  0
VERTEX
  8
T42SSILL
 62
7
 10
4973.822
 20
-6968.596
 30
986.596
 70
    32
  0
VERTEX
  8
T42SSILL
 62
7
 10
5025.233
 20
-6930.960
 30
986.589
 70
    32
  0
VERTEX
  8
T42SSILL
 62
7
 10
5035.914
 20
-6917.337
 30
986.534
 70
    32
  0
VERTEX
  8
T42SSILL
 62
7
 10
5038.117
 20
-6906.822
 30
986.525
 70
    32
  0
VERTEX
  8
T42SSILL
 62
7
 10
5029.329
 20
-6816.744
 30
986.460
 70
    32
  0
VERTEX
  8
T42SSILL
 62
7
 10
5030.028
 20
-6808.475
 30
986.454
 70
    32
  0
VERTEX
  8
T42SSILL
 62
7
 10
5035.723
 20
-6798.631
 30
986.450
 70
    32
  0
VERTEX
  8
T42SSILL
 62
7
 10
5062.849
 20
-6778.405
 30
986.447
 70
    32
  0
VERTEX
  8
T42SSILL
 62
7
 10
5069.551
 20
-6769.014
 30
986.443
 70
    32
  0
VERTEX
  8
T42SSILL
 62
7
 10
5073.933
 20
-6757.290
 30
986.437
 70
    32
  0
VERTEX
  8
T42SSILL
 62
7
 10
5085.383
 20
-6773.312
 30
986.453
 70
    32
  0
VERTEX
  8
T42SSILL
 62
7
 10
5082.027
 20
-6776.142
 30
986.453
 70
    32
  0
VERTEX
  8
T42SSILL
 62
7
 10
5088.506
 20
-6784.846
 30
986.462
 70
    32
  0
VERTEX
  8
T42SSILL
 62
7
 10
5085.921
 20
-6786.693
 30
986.462
 70
    32
  0
VERTEX
  8
T42SSILL
 62
7
 10
5091.032
 20
-6793.445
 30
986.469
 70
    32
  0
VERTEX
  8
T42SSILL
 62
7
 10
5093.106
 20
-6791.654
 30
986.468
 70
    32
  0
VERTEX
  8
T42SSILL
 62
7
 10
5097.359
 20
-6797.595
 30
986.474
 70
    32
  0
VERTEX
  8
T42SSILL
 62
7
 10
5088.412
 20
-6803.284
 30
986.474
 70
    32
  0
VERTEX
  8
T42SSILL
 62
7
 10
5092.657
 20
-6809.476
 30
986.480
 70
    32
  0
VERTEX
  8
T42SSILL
 62
7
 10
5105.107
 20
-6800.915
 30
986.480
 70
    32
  0
VERTEX
  8
T42SSILL
 62
7
 10
5179.814
 20
-6905.459
 30
986.582
 70
    32
  0
VERTEX
  8
T42SSILL
 62
7
 10
5185.212
 20
-6920.605
 30
986.594
 70
    32
  0
VERTEX
  8
T42SSILL
 62
7
 10
5181.926
 20
-6933.045
 30
986.601
 70
    32
  0
VERTEX
  8
T42SSILL
 62
7
 10
5179.024
 20
-6937.677
 30
986.603
 70
    32
  0
VERTEX
  8
T42SSILL
 62
7
 10
5168.020
 20
-6932.639
 30
986.596
 70
    32
  0
VERTEX
  8
T42SSILL
 62
7
 10
5164.414
 20
-6937.363
 30
986.597
 70
    32
  0
VERTEX
  8
T42SSILL
 62
7
 10
5163.960
 20
-6948.873
 30
986.605
 70
    32
  0
VERTEX
  8
T42SSILL
 62
7
 10
5139.310
 20
-6967.112
 30
986.607
 70
    32
  0
VERTEX
  8
T42SSILL
 62
7
 10
5139.767
 20
-6931.830
 30
986.583
 70
    32
  0
VERTEX
  8
T42SSILL
 62
7
 10
5158.111
 20
-6921.023
 30
986.584
 70
    32
  0
VERTEX
  8
T42SSILL
 62
7
 10
5163.313
 20
-6925.261
 30
986.589
 70
    32
  0
VERTEX
  8
T42SSILL
 62
7
 10
5172.154
 20
-6913.586
 30
986.584
 70
    32
  0
VERTEX
  8
T42SSILL
 62
7
 10
5162.270
 20
-6899.960
 30
986.571
 70
    32
  0
VERTEX
  8
T42SSILL
 62
7
 10
5154.042
 20
-6900.337
 30
986.568
 70
    32
  0
VERTEX
  8
T42SSILL
 62
7
 10
5145.630
 20
-6885.153
 30
986.554
 70
    32
  0
VERTEX
  8
T42SSILL
 62
7
 10
5140.858
 20
-6886.005
 30
986.553
 70
    32
  0
VERTEX
  8
T42SSILL
 62
7
 10
5091.281
 20
-6916.724
 30
986.553
 70
    32
  0
VERTEX
  8
T42SSILL
 62
7
 10
5086.455
 20
-6931.216
 30
986.561
 70
    32
  0
VERTEX
  8
T42SSILL
 62
7
 10
5080.052
 20
-6937.064
 30
986.563
 70
    32
  0
VERTEX
  8
T42SSILL
 62
7
 10
5063.530
 20
-6966.612
 30
986.616
 70
    32
  0
VERTEX
  8
T42SSILL
 62
7
 10
5067.721
 20
-6973.164
 30
986.626
 70
    32
  0
VERTEX
  8
T42SSILL
 62
7
 10
5065.060
 20
-6980.156
 30
986.649
 70
    32
  0
VERTEX
  8
T42SSILL
 62
7
 10
5065.938
 20
-6986.566
 30
986.664
 70
    32
  0
VERTEX
  8
T42SSILL
 62
7
 10
5078.819
 20
-6996.705
 30
986.669
 70
    32
  0
VERTEX
  8
T42SSILL
 62
7
 10
5085.331
 20
-7005.590
 30
986.681
 70
    32
  0
VERTEX
  8
T42SSILL
 62
7
 10
5052.268
 20
-7029.854
 30
986.663
 70
    32
  0
VERTEX
  8
T42SSILL
 62
7
 10
5057.039
 20
-7035.655
 30
986.664
 70
    32
  0
VERTEX
  8
T42SSILL
 62
7
 10
5089.733
 20
-7011.982
 30
986.690
 70
    32
  0
VERTEX
  8
T42SSILL
 62
7
 10
5095.494
 20
-7018.562
 30
986.697
 70
    32
  0
VERTEX
  8
T42SSILL
 62
7
 10
5097.617
 20
-7023.697
 30
986.707
 70
    32
  0
VERTEX
  8
T42SSILL
 62
7
 10
5106.354
 20
-7015.969
 30
986.671
 70
    32
  0
VERTEX
  8
T42SSILL
 62
7
 10
5098.426
 20
-7005.947
 30
986.659
 70
    32
  0
VERTEX
  8
T42SSILL
 62
7
 10
5107.574
 20
-6999.345
 30
986.625
 70
    32
  0
VERTEX
  8
T42SSILL
 62
7
 10
5113.720
 20
-7005.412
 30
986.630
 70
    32
  0
VERTEX
  8
T42SSILL
 62
7
 10
5115.725
 20
-7004.556
 30
986.625
 70
    32
  0
VERTEX
  8
T42SSILL
 62
7
 10
5114.258
 20
-7014.291
 30
986.653
 70
    32
  0
VERTEX
  8
T42SSILL
 62
7
 10
5100.252
 20
-7036.072
 30
986.735
 70
    32
  0
VERTEX
  8
T42SSILL
 62
7
 10
5092.119
 20
-7069.544
 30
986.687
 70
    32
  0
VERTEX
  8
T42SSILL
 62
7
 10
5098.296
 20
-7081.778
 30
986.695
 70
    32
  0
VERTEX
  8
T42SSILL
 62
7
 10
5122.954
 20
-7114.168
 30
986.723
 70
    32
  0
VERTEX
  8
T42SSILL
 62
7
 10
5138.584
 20
-7103.428
 30
986.729
 70
    32
  0
VERTEX
  8
T42SSILL
 62
7
 10
5147.511
 20
-7115.789
 30
986.734
 70
    32
  0
VERTEX
  8
T42SSILL
 62
7
 10
5156.907
 20
-7106.014
 30
986.758
 70
    32
  0
VERTEX
  8
T42SSILL
 62
7
 10
5146.747
 20
-7097.131
 30
986.750
 70
    32
  0
VERTEX
  8
T42SSILL
 62
7
 10
5162.426
 20
-7085.579
 30
986.757
 70
    32
  0
VERTEX
  8
T42SSILL
 62
7
 10
5175.842
 20
-7100.509
 30
986.773
 70
    32
  0
VERTEX
  8
T42SSILL
 62
7
 10
5182.917
 20
-7102.112
 30
986.765
 70
    32
  0
VERTEX
  8
T42SSILL
 62
7
 10
5186.346
 20
-7097.302
 30
986.746
 70
    32
  0
VERTEX
  8
T42SSILL
 62
7
 10
5182.644
 20
-7089.936
 30
986.733
 70
    32
  0
VERTEX
  8
T42SSILL
 62
7
 10
5181.957
 20
-7079.402
 30
986.706
 70
    32
  0
VERTEX
  8
T42SSILL
 62
7
 10
5179.159
 20
-7073.230
 30
986.696
 70
    32
  0
VERTEX
  8
T42SSILL
 62
7
 10
5231.608
 20
-7035.360
 30
986.692
 70
    32
  0
VERTEX
  8
T42SSILL
 62
7
 10
5243.908
 20
-7059.758
 30
986.714
 70
    32
  0
VERTEX
  8
T42SSILL
 62
7
 10
5259.682
 20
-7081.302
 30
986.735
 70
    32
  0
VERTEX
  8
T42SSILL
 62
7
 10
5263.409
 20
-7083.010
 30
986.737
 70
    32
  0
VERTEX
  8
T42SSILL
 62
7
 10
5277.606
 20
-7078.111
 30
986.740
 70
    32
  0
VERTEX
  8
T42SSILL
 62
7
 10
5295.120
 20
-7066.938
 30
986.739
 70
    32
  0
VERTEX
  8
T42SSILL
 62
7
 10
5300.415
 20
-7075.529
 30
986.747
 70
    32
  0
VERTEX
  8
T42SSILL
 62
7
 10
5302.954
 20
-7086.319
 30
986.756
 70
    32
  0
VERTEX
  8
T42SSILL
 62
7
 10
5300.523
 20
-7097.116
 30
986.762
 70
    32
  0
VERTEX
  8
T42SSILL
 62
7
 10
5297.565
 20
-7101.237
 30
986.764
 70
    32
  0
VERTEX
  8
T42SSILL
 62
7
 10
5194.384
 20
-7176.774
 30
986.789
 70
    32
  0
VERTEX
  8
T42SSILL
 62
7
 10
5200.452
 20
-7183.018
 30
986.795
 70
    32
  0
VERTEX
  8
T42SSILL
 62
7
 10
5297.674
 20
-7112.321
 30
986.771
 70
    32
  0
VERTEX
  8
T42SSILL
 62
7
 10
5306.236
 20
-7101.299
 30
986.767
 70
    32
  0
VERTEX
  8
T42SSILL
 62
7
 10
5309.963
 20
-7088.856
 30
986.760
 70
    32
  0
VERTEX
  8
T42SSILL
 62
7
 10
5371.203
 20
-7173.455
 30
986.843
 70
    32
  0
VERTEX
  8
T42SSILL
 62
7
 10
5372.832
 20
-7189.025
 30
986.855
 70
    32
  0
VERTEX
  8
T42SSILL
 62
7
 10
5360.381
 20
-7260.707
 30
986.899
 70
    32
  0
VERTEX
  8
T42SSILL
 62
7
 10
5342.649
 20
-7235.560
 30
986.874
 70
    32
  0
VERTEX
  8
T42SSILL
 62
7
 10
5336.542
 20
-7240.631
 30
986.875
 70
    32
  0
VERTEX
  8
T42SSILL
 62
7
 10
5367.114
 20
-7282.137
 30
986.917
 70
    32
  0
VERTEX
  8
T42SSILL
 62
7
 10
5377.483
 20
-7300.924
 30
986.934
 70
    32
  0
VERTEX
  8
T42SSILL
 62
7
 10
5384.628
 20
-7297.021
 30
986.930
 70
    32
  0
VERTEX
  8
T42SSILL
 62
7
 10
5374.565
 20
-7277.817
 30
986.916
 70
    32
  0
VERTEX
  8
T42SSILL
 62
7
 10
5369.794
 20
-7271.814
 30
986.910
 70
    32
  0
VERTEX
  8
T42SSILL
 62
7
 10
5368.376
 20
-7256.084
 30
986.899
 70
    32
  0
VERTEX
  8
T42SSILL
 62
7
 10
5380.185
 20
-7186.327
 30
986.856
 70
    32
  0
VERTEX
  8
T42SSILL
 62
7
 10
5387.494
 20
-7182.015
 30
986.856
 70
    32
  0
VERTEX
  8
T42SSILL
 62
7
 10
5296.567
 20
-7056.886
 30
986.733
 70
    32
  0
VERTEX
  8
T42SSILL
 62
7
 10
5294.788
 20
-7042.867
 30
986.723
 70
    32
  0
VERTEX
  8
T42SSILL
 62
7
 10
5287.136
 20
-7017.599
 30
986.702
 70
    32
  0
VERTEX
  8
T42SSILL
 62
7
 10
5288.671
 20
-7000.515
 30
986.691
 70
    32
  0
VERTEX
  8
T42SSILL
 62
7
 10
5293.514
 20
-6992.754
 30
986.688
 70
    32
  0
VERTEX
  8
T42SSILL
 62
7
 10
5298.936
 20
-6988.092
 30
986.687
 70
    32
  0
VERTEX
  8
T42SSILL
 62
7
 10
5300.499
 20
-6973.088
 30
986.677
 70
    32
  0
VERTEX
  8
T42SSILL
 62
7
 10
5318.645
 20
-6940.430
 30
986.662
 70
    32
  0
VERTEX
  8
T42SSILL
 62
7
 10
5322.918
 20
-6924.477
 30
986.653
 70
    32
  0
VERTEX
  8
T42SSILL
 62
7
 10
5316.776
 20
-6926.147
 30
986.652
 70
    32
  0
VERTEX
  8
T42SSILL
 62
7
 10
5301.293
 20
-6917.096
 30
986.639
 70
    32
  0
VERTEX
  8
T42SSILL
 62
7
 10
5286.859
 20
-6927.372
 30
986.640
 70
    32
  0
VERTEX
  8
T42SSILL
 62
7
 10
5268.174
 20
-6979.013
 30
986.668
 70
    32
  0
VERTEX
  8
T42SSILL
 62
7
 10
5236.480
 20
-6973.955
 30
986.652
 70
    32
  0
VERTEX
  8
T42SSILL
 62
7
 10
5208.447
 20
-6932.736
 30
986.612
 70
    32
  0
VERTEX
  8
T42SSILL
 62
7
 10
5225.412
 20
-6920.984
 30
986.611
 70
    32
  0
VERTEX
  8
T42SSILL
 62
7
 10
5221.699
 20
-6915.064
 30
986.605
 70
    32
  0
VERTEX
  8
T42SSILL
 62
7
 10
5203.962
 20
-6927.401
 30
986.607
 70
    32
  0
VERTEX
  8
T42SSILL
 62
7
 10
5185.151
 20
-6901.414
 30
986.581
 70
    32
  0
VERTEX
  8
T42SSILL
 62
7
 10
5232.243
 20
-6909.284
 30
986.606
 70
    32
  0
VERTEX
  8
T42SSILL
 62
7
 10
5478.970
 20
-6732.135
 30
986.585
 70
    32
  0
VERTEX
  8
T42SSILL
 62
7
 10
5474.040
 20
-6725.921
 30
986.579
 70
    32
  0
VERTEX
  8
T42SSILL
 62
7
 10
5285.573
 20
-6860.906
 30
986.594
 70
    32
  0
VERTEX
  8
T42SSILL
 62
7
 10
5267.501
 20
-6834.580
 30
986.569
 70
    32
  0
VERTEX
  8
T42SSILL
 62
7
 10
5258.318
 20
-6827.278
 30
986.560
 70
    32
  0
VERTEX
  8
T42SSILL
 62
7
 10
5251.369
 20
-6826.132
 30
986.557
 70
    32
  0
VERTEX
  8
T42SSILL
 62
7
 10
5238.331
 20
-6833.581
 30
986.556
 70
    32
  0
VERTEX
  8
T42SSILL
 62
7
 10
5238.665
 20
-6843.942
 30
986.564
 70
    32
  0
VERTEX
  8
T42SSILL
 62
7
 10
5257.197
 20
-6860.079
 30
986.582
 70
    32
  0
VERTEX
  8
T42SSILL
 62
7
 10
5253.107
 20
-6873.793
 30
986.590
 70
    32
  0
VERTEX
  8
T42SSILL
 62
7
 10
5246.523
 20
-6882.320
 30
986.593
 70
    32
  0
VERTEX
  8
T42SSILL
 62
7
 10
5249.050
 20
-6887.259
 30
986.598
 70
    32
  0
VERTEX
  8
T42SSILL
 62
7
 10
5230.054
 20
-6901.435
 30
986.599
 70
    32
  0
VERTEX
  8
T42SSILL
 62
7
 10
5178.782
 20
-6892.864
 30
986.573
 70
    32
  0
VERTEX
  8
T42SSILL
 62
7
 10
5148.024
 20
-6849.508
 30
986.530
 70
    32
  0
VERTEX
  8
T42SSILL
 62
7
 10
5154.484
 20
-6851.467
 30
986.534
 70
    32
  0
VERTEX
  8
T42SSILL
 62
7
 10
5163.152
 20
-6851.088
 30
986.538
 70
    32
  0
VERTEX
  8
T42SSILL
 62
7
 10
5173.676
 20
-6848.198
 30
986.540
 70
    32
  0
VERTEX
  8
T42SSILL
 62
7
 10
5268.953
 20
-6779.749
 30
986.532
 70
    32
  0
VERTEX
  8
T42SSILL
 62
7
 10
5279.105
 20
-6780.015
 30
986.536
 70
    32
  0
VERTEX
  8
T42SSILL
 62
7
 10
5291.939
 20
-6784.550
 30
986.545
 70
    32
  0
VERTEX
  8
T42SSILL
 62
7
 10
5299.803
 20
-6795.948
 30
986.556
 70
    32
  0
VERTEX
  8
T42SSILL
 62
7
 10
5301.938
 20
-6796.430
 30
986.557
 70
    32
  0
VERTEX
  8
T42SSILL
 62
7
 10
5313.025
 20
-6789.907
 30
986.557
 70
    32
  0
VERTEX
  8
T42SSILL
 62
7
 10
5315.230
 20
-6786.689
 30
986.556
 70
    32
  0
VERTEX
  8
T42SSILL
 62
7
 10
5315.154
 20
-6782.213
 30
986.553
 70
    32
  0
VERTEX
  8
T42SSILL
 62
7
 10
5304.248
 20
-6768.698
 30
986.539
 70
    32
  0
VERTEX
  8
T42SSILL
 62
7
 10
5307.757
 20
-6751.446
 30
986.528
 70
    32
  0
VERTEX
  8
T42SSILL
 62
7
 10
5329.933
 20
-6735.192
 30
986.526
 70
    32
  0
VERTEX
  8
T42SSILL
 62
7
 10
5336.474
 20
-6739.300
 30
986.532
 70
    32
  0
VERTEX
  8
T42SSILL
 62
7
 10
5341.368
 20
-6734.817
 30
986.531
 70
    32
  0
VERTEX
  8
T42SSILL
 62
7
 10
5333.490
 20
-6727.632
 30
986.523
 70
    32
  0
VERTEX
  8
T42SSILL
 62
7
 10
5325.166
 20
-6715.919
 30
986.511
 70
    32
  0
VERTEX
  8
T42SSILL
 62
7
 10
5318.918
 20
-6721.096
 30
986.512
 70
    32
  0
VERTEX
  8
T42SSILL
 62
7
 10
5321.808
 20
-6731.620
 30
986.521
 70
    32
  0
VERTEX
  8
T42SSILL
 62
7
 10
5299.175
 20
-6748.000
 30
986.523
 70
    32
  0
VERTEX
  8
T42SSILL
 62
7
 10
5294.959
 20
-6747.104
 30
986.520
 70
    32
  0
VERTEX
  8
T42SSILL
 62
7
 10
5289.650
 20
-6742.725
 30
986.515
 70
    32
  0
VERTEX
  8
T42SSILL
 62
7
 10
5289.776
 20
-6732.680
 30
986.508
 70
    32
  0
VERTEX
  8
T42SSILL
 62
7
 10
5282.045
 20
-6716.206
 30
986.494
 70
    32
  0
VERTEX
  8
T42SSILL
 62
7
 10
5275.654
 20
-6721.049
 30
986.495
 70
    32
  0
VERTEX
  8
T42SSILL
 62
7
 10
5278.196
 20
-6725.425
 30
986.499
 70
    32
  0
VERTEX
  8
T42SSILL
 62
7
 10
5272.596
 20
-6743.710
 30
986.509
 70
    32
  0
VERTEX
  8
T42SSILL
 62
7
 10
5281.573
 20
-6755.701
 30
986.521
 70
    32
  0
VERTEX
  8
T42SSILL
 62
7
 10
5266.766
 20
-6761.838
 30
986.519
 70
    32
  0
VERTEX
  8
T42SSILL
 62
7
 10
5263.085
 20
-6758.878
 30
986.515
 70
    32
  0
VERTEX
  8
T42SSILL
 62
7
 10
5242.143
 20
-6761.151
 30
986.508
 70
    32
  0
VERTEX
  8
T42SSILL
 62
7
 10
5242.649
 20
-6767.069
 30
986.513
 70
    32
  0
VERTEX
  8
T42SSILL
 62
7
 10
5257.895
 20
-6770.993
 30
986.521
 70
    32
  0
VERTEX
  8
T42SSILL
 62
7
 10
5263.214
 20
-6773.927
 30
986.526
 70
    32
  0
VERTEX
  8
T42SSILL
 62
7
 10
5172.084
 20
-6840.117
 30
986.534
 70
    32
  0
VERTEX
  8
T42SSILL
 62
7
 10
5161.512
 20
-6843.818
 30
986.532
 70
    32
  0
VERTEX
  8
T42SSILL
 62
7
 10
5151.477
 20
-6842.247
 30
986.527
 70
    32
  0
VERTEX
  8
T42SSILL
 62
7
 10
5154.225
 20
-6835.079
 30
986.523
 70
    32
  0
VERTEX
  8
T42SSILL
 62
7
 10
5162.097
 20
-6830.440
 30
986.523
 70
    32
  0
VERTEX
  8
T42SSILL
 62
7
 10
5171.559
 20
-6830.234
 30
986.527
 70
    32
  0
VERTEX
  8
T42SSILL
 62
7
 10
5190.418
 20
-6788.743
 30
986.506
 70
    32
  0
VERTEX
  8
T42SSILL
 62
7
 10
5186.914
 20
-6782.223
 30
986.500
 70
    32
  0
VERTEX
  8
T42SSILL
 62
7
 10
5180.315
 20
-6787.666
 30
986.501
 70
    32
  0
VERTEX
  8
T42SSILL
 62
7
 10
5177.616
 20
-6787.169
 30
986.500
 70
    32
  0
VERTEX
  8
T42SSILL
 62
7
 10
5172.584
 20
-6781.696
 30
986.494
 70
    32
  0
VERTEX
  8
T42SSILL
 62
7
 10
5165.617
 20
-6766.522
 30
986.481
 70
    32
  0
VERTEX
  8
T42SSILL
 62
7
 10
5168.229
 20
-6756.693
 30
986.475
 70
    32
  0
VERTEX
  8
T42SSILL
 62
7
 10
5161.208
 20
-6755.160
 30
986.471
 70
    32
  0
VERTEX
  8
T42SSILL
 62
7
 10
5157.811
 20
-6777.082
 30
986.485
 70
    32
  0
VERTEX
  8
T42SSILL
 62
7
 10
5150.966
 20
-6786.139
 30
986.488
 70
    32
  0
VERTEX
  8
T42SSILL
 62
7
 10
5148.707
 20
-6792.495
 30
986.492
 70
    32
  0
VERTEX
  8
T42SSILL
 62
7
 10
5145.279
 20
-6839.758
 30
986.523
 70
    32
  0
VERTEX
  8
T42SSILL
 62
7
 10
5135.232
 20
-6832.337
 30
986.513
 70
    32
  0
VERTEX
  8
T42SSILL
 62
7
 10
4801.956
 20
-6363.160
 30
986.257
 70
    32
  0
VERTEX
  8
T42SSILL
 62
7
 10
4846.027
 20
-6363.506
 30
986.271
 70
    32
  0
VERTEX
  8
T42SSILL
 62
7
 10
4846.565
 20
-6354.946
 30
986.268
 70
    32
  0
VERTEX
  8
T42SSILL
 62
7
 10
4795.109
 20
-6353.946
 30
986.252
 70
    32
  0
VERTEX
  8
T42SSILL
 62
7
 10
4756.396
 20
-6300.380
 30
986.210
 70
    32
  0
VERTEX
  8
T42SSILL
 62
7
 10
4751.090
 20
-6296.386
 30
986.204
 70
    32
  0
VERTEX
  8
T42SSILL
 62
7
 10
4616.666
 20
-6109.750
 30
985.990
 70
    32
  0
VERTEX
  8
T42SSILL
 62
7
 10
4615.630
 20
-6102.797
 30
985.987
 70
    32
  0
VERTEX
  8
T42SSILL
 62
7
 10
4606.603
 20
-6095.777
 30
985.968
 70
    32
  0
VERTEX
  8
T42SSILL
 62
7
 10
4264.529
 20
-5620.838
 30
985.479
 70
    32
  0
VERTEX
  8
T42SSILL
 62
7
 10
4256.380
 20
-5612.694
 30
985.473
 70
    32
  0
VERTEX
  8
T42SSILL
 62
7
 10
4248.974
 20
-5609.197
 30
985.465
 70
    32
  0
VERTEX
  8
T42SSILL
 62
7
 10
4232.343
 20
-5609.739
 30
985.444
 70
    32
  0
VERTEX
  8
T42SSILL
 62
7
 10
4069.231
 20
-5725.959
 30
985.758
 70
    32
  0
VERTEX
  8
T42SSILL
 62
7
 10
4074.052
 20
-5731.552
 30
985.763
 70
    32
  0
VERTEX
  8
T42SSILL
 62
7
 10
4233.853
 20
-5616.655
 30
985.442
 70
    32
  0
VERTEX
  8
T42SSILL
 62
7
 10
4242.001
 20
-5615.112
 30
985.453
 70
    32
  0
VERTEX
  8
T42SSILL
 62
7
 10
4247.751
 20
-5616.012
 30
985.460
 70
    32
  0
VERTEX
  8
T42SSILL
 62
7
 10
4255.540
 20
-5620.643
 30
985.468
 70
    32
  0
VERTEX
  8
T42SSILL
 62
7
 10
4336.483
 20
-5733.635
 30
985.759
 70
    32
  0
VERTEX
  8
T42SSILL
 62
7
 10
4326.597
 20
-5732.848
 30
985.758
 70
    32
  0
VERTEX
  8
T42SSILL
 62
7
 10
4316.291
 20
-5736.036
 30
985.762
 70
    32
  0
VERTEX
  8
T42SSILL
 62
7
 10
4142.959
 20
-5859.776
 30
985.884
 70
    32
  0
VERTEX
  8
T42SSILL
 62
7
 10
4147.282
 20
-5865.276
 30
985.889
 70
    32
  0
VERTEX
  8
T42SSILL
 62
7
 10
4322.919
 20
-5740.082
 30
985.765
 70
    32
  0
VERTEX
  8
T42SSILL
 62
7
 10
4328.081
 20
-5738.796
 30
985.764
 70
    32
  0
VERTEX
  8
T42SSILL
 62
7
 10
4336.996
 20
-5739.522
 30
985.765
 70
    32
  0
VERTEX
  8
T42SSILL
 62
7
 10
4342.634
 20
-5742.803
 30
985.768
 70
    32
  0
VERTEX
  8
T42SSILL
 62
7
 10
4346.063
 20
-5745.792
 30
985.770
 70
    32
  0
VERTEX
  8
T42SSILL
 62
7
 10
4397.933
 20
-5819.768
 30
985.839
 70
    32
  0
VERTEX
  8
T42SSILL
 62
7
 10
4385.903
 20
-5817.894
 30
985.838
 70
    32
  0
VERTEX
  8
T42SSILL
 62
7
 10
4370.534
 20
-5822.717
 30
985.843
 70
    32
  0
VERTEX
  8
T42SSILL
 62
7
 10
4284.250
 20
-5883.920
 30
985.904
 70
    32
  0
VERTEX
  8
T42SSILL
 62
7
 10
4280.551
 20
-5878.636
 30
985.899
 70
    32
  0
VERTEX
  8
T42SSILL
 62
7
 10
4270.708
 20
-5885.862
 30
985.906
 70
    32
  0
VERTEX
  8
T42SSILL
 62
7
 10
4265.347
 20
-5886.273
 30
985.906
 70
    32
  0
VERTEX
  8
T42SSILL
 62
7
 10
4262.603
 20
-5882.561
 30
985.903
 70
    32
  0
VERTEX
  8
T42SSILL
 62
7
 10
4260.491
 20
-5882.618
 30
985.903
 70
    32
  0
VERTEX
  8
T42SSILL
 62
7
 10
4251.513
 20
-5889.293
 30
985.910
 70
    32
  0
VERTEX
  8
T42SSILL
 62
7
 10
4259.553
 20
-5901.488
 30
985.921
 70
    32
  0
VERTEX
  8
T42SSILL
 62
7
 10
4245.022
 20
-5911.825
 30
985.931
 70
    32
  0
VERTEX
  8
T42SSILL
 62
7
 10
4249.632
 20
-5917.176
 30
985.936
 70
    32
  0
VERTEX
  8
T42SSILL
 62
7
 10
4263.417
 20
-5907.348
 30
985.927
 70
    32
  0
VERTEX
  8
T42SSILL
 62
7
 10
4271.704
 20
-5919.127
 30
985.934
 70
    32
  0
VERTEX
  8
T42SSILL
 62
7
 10
4282.097
 20
-5912.678
 30
985.927
 70
    32
  0
VERTEX
  8
T42SSILL
 62
7
 10
4278.500
 20
-5900.270
 30
985.920
 70
    32
  0
VERTEX
  8
T42SSILL
 62
7
 10
4289.808
 20
-5891.858
 30
985.911
 70
    32
  0
VERTEX
  8
T42SSILL
 62
7
 10
4288.255
 20
-5889.641
 30
985.909
 70
    32
  0
VERTEX
  8
T42SSILL
 62
7
 10
4372.570
 20
-5829.532
 30
985.850
 70
    32
  0
VERTEX
  8
T42SSILL
 62
7
 10
4387.846
 20
-5824.535
 30
985.845
 70
    32
  0
VERTEX
  8
T42SSILL
 62
7
 10
4399.452
 20
-5827.036
 30
985.840
 70
    32
  0
VERTEX
  8
T42SSILL
 62
7
 10
4407.537
 20
-5832.805
 30
985.838
 70
    32
  0
VERTEX
  8
T42SSILL
 62
7
 10
4458.028
 20
-5901.445
 30
985.837
 70
    32
  0
VERTEX
  8
T42SSILL
 62
7
 10
4443.021
 20
-5900.182
 30
985.843
 70
    32
  0
VERTEX
  8
T42SSILL
 62
7
 10
4433.089
 20
-5904.152
 30
985.850
 70
    32
  0
VERTEX
  8
T42SSILL
 62
7
 10
4303.574
 20
-5996.412
 30
985.944
 70
    32
  0
VERTEX
  8
T42SSILL
 62
7
 10
4307.975
 20
-6002.424
 30
985.944
 70
    32
  0
VERTEX
  8
T42SSILL
 62
7
 10
4436.779
 20
-5910.305
 30
985.850
 70
    32
  0
VERTEX
  8
T42SSILL
 62
7
 10
4445.340
 20
-5907.693
 30
985.845
 70
    32
  0
VERTEX
  8
T42SSILL
 62
7
 10
4457.609
 20
-5908.679
 30
985.839
 70
    32
  0
VERTEX
  8
T42SSILL
 62
7
 10
4470.026
 20
-5918.292
 30
985.836
 70
    32
  0
VERTEX
  8
T42SSILL
 62
7
 10
4516.624
 20
-5983.076
 30
985.916
 70
    32
  0
VERTEX
  8
T42SSILL
 62
7
 10
4503.485
 20
-5982.466
 30
985.876
 70
    32
  0
VERTEX
  8
T42SSILL
 62
7
 10
4491.873
 20
-5986.218
 30
985.867
 70
    32
  0
VERTEX
  8
T42SSILL
 62
7
 10
4375.602
 20
-6069.272
 30
985.933
 70
    32
  0
VERTEX
  8
T42SSILL
 62
7
 10
4380.408
 20
-6074.694
 30
985.933
 70
    32
  0
VERTEX
  8
T42SSILL
 62
7
 10
4493.502
 20
-5994.276
 30
985.872
 70
    32
  0
VERTEX
  8
T42SSILL
 62
7
 10
4501.833
 20
-5989.733
 30
985.876
 70
    32
  0
VERTEX
  8
T42SSILL
 62
7
 10
4511.764
 20
-5988.934
 30
985.905
 70
    32
  0
VERTEX
  8
T42SSILL
 62
7
 10
4525.757
 20
-5994.981
 30
985.951
 70
    32
  0
VERTEX
  8
T42SSILL
 62
7
 10
4597.912
 20
-6095.794
 30
985.952
 70
    32
  0
VERTEX
  8
T42SSILL
 62
7
 10
4585.883
 20
-6093.921
 30
985.928
 70
    32
  0
VERTEX
  8
T42SSILL
 62
7
 10
4560.876
 20
-6110.281
 30
985.944
 70
    32
  0
VERTEX
  8
T42SSILL
 62
7
 10
4545.948
 20
-6102.233
 30
985.982
 70
    32
  0
VERTEX
  8
T42SSILL
 62
7
 10
4541.752
 20
-6119.522
 30
986.009
 70
    32
  0
VERTEX
  8
T42SSILL
 62
7
 10
4539.429
 20
-6124.782
 30
986.021
 70
    32
  0
VERTEX
  8
T42SSILL
 62
7
 10
4533.701
 20
-6131.104
 30
986.044
 70
    32
  0
VERTEX
  8
T42SSILL
 62
7
 10
4479.521
 20
-6169.310
 30
985.954
 70
    32
  0
VERTEX
  8
T42SSILL
 62
7
 10
4472.430
 20
-6167.654
 30
985.951
 70
    32
  0
VERTEX
  8
T42SSILL
 62
7
 10
4459.363
 20
-6172.943
 30
985.948
 70
    32
  0
VERTEX
  8
T42SSILL
 62
7
 10
4453.373
 20
-6179.360
 30
985.949
 70
    32
  0
VERTEX
  8
T42SSILL
 62
7
 10
4452.831
 20
-6188.535
 30
985.954
 70
    32
  0
VERTEX
  8
T42SSILL
 62
7
 10
4444.070
 20
-6194.791
 30
985.955
 70
    32
  0
VERTEX
  8
T42SSILL
 62
7
 10
4448.149
 20
-6200.905
 30
985.958
 70
    32
  0
VERTEX
  8
T42SSILL
 62
7
 10
4467.842
 20
-6186.716
 30
985.958
 70
    32
  0
VERTEX
  8
T42SSILL
 62
7
 10
4487.998
 20
-6199.112
 30
985.976
 70
    32
  0
VERTEX
  8
T42SSILL
 62
7
 10
4495.994
 20
-6198.454
 30
985.999
 70
    32
  0
VERTEX
  8
T42SSILL
 62
7
 10
4500.240
 20
-6195.872
 30
986.010
 70
    32
  0
VERTEX
  8
T42SSILL
 62
7
 10
4509.363
 20
-6200.995
 30
986.041
 70
    32
  0
VERTEX
  8
T42SSILL
 62
7
 10
4512.768
 20
-6206.363
 30
986.055
 70
    32
  0
VERTEX
  8
T42SSILL
 62
7
 10
4518.480
 20
-6225.231
 30
986.085
 70
    32
  0
VERTEX
  8
T42SSILL
 62
7
 10
4542.063
 20
-6256.734
 30
986.124
 70
    32
  0
VERTEX
  8
T42SSILL
 62
7
 10
4543.652
 20
-6263.296
 30
986.125
 70
    32
  0
VERTEX
  8
T42SSILL
 62
7
 10
4498.011
 20
-6295.829
 30
986.071
 70
    32
  0
VERTEX
  8
T42SSILL
 62
7
 10
4502.514
 20
-6301.763
 30
986.089
 70
    32
  0
VERTEX
  8
T42SSILL
 62
7
 10
4547.626
 20
-6270.146
 30
986.119
 70
    32
  0
VERTEX
  8
T42SSILL
 62
7
 10
4567.204
 20
-6267.850
 30
986.058
 70
    32
  0
VERTEX
  8
T42SSILL
 62
7
 10
4588.446
 20
-6252.297
 30
985.981
 70
    32
  0
VERTEX
  8
T42SSILL
 62
7
 10
4589.812
 20
-6247.504
 30
985.972
 70
    32
  0
VERTEX
  8
T42SSILL
 62
7
 10
4587.396
 20
-6242.902
 30
985.976
 70
    32
  0
VERTEX
  8
T42SSILL
 62
7
 10
4594.164
 20
-6235.935
 30
985.963
 70
    32
  0
VERTEX
  8
T42SSILL
 62
7
 10
4649.517
 20
-6198.754
 30
986.065
 70
    32
  0
VERTEX
  8
T42SSILL
 62
7
 10
4654.345
 20
-6198.182
 30
986.075
 70
    32
  0
VERTEX
  8
T42SSILL
 62
7
 10
4665.199
 20
-6198.942
 30
986.096
 70
    32
  0
VERTEX
  8
T42SSILL
 62
7
 10
4672.695
 20
-6202.525
 30
986.105
 70
    32
  0
VERTEX
  8
T42SSILL
 62
7
 10
4676.495
 20
-6206.208
 30
986.110
 70
    32
  0
VERTEX
  8
T42SSILL
 62
7
 10
4682.393
 20
-6212.565
 30
986.117
 70
    32
  0
VERTEX
  8
T42SSILL
 62
7
 10
4726.170
 20
-6273.990
 30
986.177
 70
    32
  0
VERTEX
  8
T42SSILL
 62
7
 10
4713.537
 20
-6272.574
 30
986.169
 70
    32
  0
VERTEX
  8
T42SSILL
 62
7
 10
4701.031
 20
-6275.822
 30
986.163
 70
    32
  0
VERTEX
  8
T42SSILL
 62
7
 10
4639.250
 20
-6320.197
 30
986.062
 70
    32
  0
VERTEX
  8
T42SSILL
 62
7
 10
4624.069
 20
-6318.294
 30
986.032
 70
    32
  0
VERTEX
  8
T42SSILL
 62
7
 10
4628.971
 20
-6313.988
 30
986.041
 70
    32
  0
VERTEX
  8
T42SSILL
 62
7
 10
4621.404
 20
-6304.594
 30
986.025
 70
    32
  0
VERTEX
  8
T42SSILL
 62
7
 10
4616.257
 20
-6308.810
 30
986.016
 70
    32
  0
VERTEX
  8
T42SSILL
 62
7
 10
4589.635
 20
-6276.485
 30
985.997
 70
    32
  0
VERTEX
  8
T42SSILL
 62
7
 10
4585.166
 20
-6280.571
 30
986.014
 70
    32
  0
VERTEX
  8
T42SSILL
 62
7
 10
4611.390
 20
-6312.796
 30
986.007
 70
    32
  0
VERTEX
  8
T42SSILL
 62
7
 10
4607.276
 20
-6316.166
 30
985.999
 70
    32
  0
VERTEX
  8
T42SSILL
 62
7
 10
4615.209
 20
-6326.078
 30
986.016
 70
    32
  0
VERTEX
  8
T42SSILL
 62
7
 10
4619.284
 20
-6322.498
 30
986.023
 70
    32
  0
VERTEX
  8
T42SSILL
 62
7
 10
4625.432
 20
-6330.052
 30
986.036
 70
    32
  0
VERTEX
  8
T42SSILL
 62
7
 10
4562.293
 20
-6375.083
 30
986.163
 70
    32
  0
VERTEX
  8
T42SSILL
 62
7
 10
4558.091
 20
-6369.561
 30
986.171
 70
    32
  0
VERTEX
  8
T42SSILL
 62
7
 10
4539.701
 20
-6383.098
 30
986.238
 70
    32
  0
VERTEX
  8
T42SSILL
 62
7
 10
4543.294
 20
-6388.901
 30
986.233
 70
    32
  0
VERTEX
  8
T42SSILL
 62
7
 10
4526.880
 20
-6400.622
 30
986.229
 70
    32
  0
VERTEX
  8
T42SSILL
 62
7
 10
4531.444
 20
-6406.487
 30
986.246
 70
    32
  0
VERTEX
  8
T42SSILL
 62
7
 10
4621.113
 20
-6342.535
 30
986.029
 70
    32
  0
VERTEX
  8
T42SSILL
 62
7
 10
4623.302
 20
-6345.057
 30
986.034
 70
    32
  0
VERTEX
  8
T42SSILL
 62
7
 10
4637.143
 20
-6331.805
 30
986.059
 70
    32
  0
VERTEX
  8
T42SSILL
 62
7
 10
4639.216
 20
-6335.121
 30
986.064
 70
    32
  0
VERTEX
  8
T42SSILL
 62
7
 10
4648.665
 20
-6328.863
 30
986.081
 70
    32
  0
VERTEX
  8
T42SSILL
 62
7
 10
4645.552
 20
-6325.105
 30
986.074
 70
    32
  0
VERTEX
  8
T42SSILL
 62
7
 10
4709.536
 20
-6280.874
 30
986.171
 70
    32
  0
VERTEX
  8
T42SSILL
 62
7
 10
4722.984
 20
-6279.890
 30
986.178
 70
    32
  0
VERTEX
  8
T42SSILL
 62
7
 10
4737.678
 20
-6289.001
 30
986.192
 70
    32
  0
VERTEX
  8
T42SSILL
 62
7
 10
4748.506
 20
-6308.170
 30
986.209
 70
    32
  0
VERTEX
  8
T42SSILL
 62
7
 10
4754.490
 20
-6314.436
 30
986.217
 70
    32
  0
VERTEX
  8
T42SSILL
 62
7
 10
4757.108
 20
-6320.001
 30
986.221
 70
    32
  0
VERTEX
  8
T42SSILL
 62
7
 10
4759.869
 20
-6337.277
 30
986.232
 70
    32
  0
VERTEX
  8
T42SSILL
 62
7
 10
4757.710
 20
-6348.521
 30
986.237
 70
    32
  0
VERTEX
  8
T42SSILL
 62
7
 10
4726.522
 20
-6381.952
 30
986.237
 70
    32
  0
VERTEX
  8
T42SSILL
 62
7
 10
4696.917
 20
-6403.254
 30
986.184
 70
    32
  0
VERTEX
  8
T42SSILL
 62
7
 10
4689.507
 20
-6393.125
 30
986.169
 70
    32
  0
VERTEX
  8
T42SSILL
 62
7
 10
4683.826
 20
-6397.306
 30
986.158
 70
    32
  0
VERTEX
  8
T42SSILL
 62
7
 10
4690.965
 20
-6407.537
 30
986.173
 70
    32
  0
VERTEX
  8
T42SSILL
 62
7
 10
3983.474
 20
-6916.610
 30
986.242
 70
    32
  0
SEQEND
  8
T42SSILL
  0
POLYLINE
  8
T42SSILL
 62
7
 66
     1
 70
     8
  0
VERTEX
  8
T42SSILL
 62
7
 10
3958.789
 20
-6934.386
 30
986.245
 70
    32
  0
VERTEX
  8
T42SSILL
 62
7
 10
3954.623
 20
-6937.369
 30
986.245
 70
    32
  0
VERTEX
  8
T42SSILL
 62
7
 10
3951.278
 20
-6934.715
 30
988.000
 70
    32
  0
VERTEX
  8
T42SSILL
 62
7
 10
3911.841
 20
-6963.752
 30
988.000
 70
    32
  0
VERTEX
  8
T42SSILL
 62
7
 10
3905.437
 20
-6963.715
 30
988.000
 70
    32
  0
VERTEX
  8
T42SSILL
 62
7
 10
3890.124
 20
-6973.444
 30
988.000
 70
    32
  0
VERTEX
  8
T42SSILL
 62
7
 10
3870.327
 20
-6991.780
 30
988.000
 70
    32
  0
VERTEX
  8
T42SSILL
 62
7
 10
3865.275
 20
-6991.939
 30
988.000
 70
    32
  0
VERTEX
  8
T42SSILL
 62
7
 10
3841.480
 20
-7011.181
 30
988.000
 70
    32
  0
VERTEX
  8
T42SSILL
 62
7
 10
3836.222
 20
-7009.852
 30
988.000
 70
    32
  0
VERTEX
  8
T42SSILL
 62
7
 10
3823.019
 20
-7020.542
 30
988.000
 70
    32
  0
VERTEX
  8
T42SSILL
 62
7
 10
3807.071
 20
-7035.478
 30
988.000
 70
    32
  0
VERTEX
  8
T42SSILL
 62
7
 10
3800.047
 20
-7040.122
 30
988.000
 70
    32
  0
VERTEX
  8
T42SSILL
 62
7
 10
3794.482
 20
-7043.898
 30
988.000
 70
    32
  0
VERTEX
  8
T42SSILL
 62
7
 10
3789.894
 20
-7047.158
 30
987.500
 70
    32
  0
VERTEX
  8
T42SSILL
 62
7
 10
3785.154
 20
-7050.687
 30
987.000
 70
    32
  0
VERTEX
  8
T42SSILL
 62
7
 10
3773.000
 20
-7047.649
 30
987.000
 70
    32
  0
VERTEX
  8
T42SSILL
 62
7
 10
3766.767
 20
-7045.723
 30
987.000
 70
    32
  0
VERTEX
  8
T42SSILL
 62
7
 10
3759.293
 20
-7040.763
 30
987.000
 70
    32
  0
VERTEX
  8
T42SSILL
 62
7
 10
3758.098
 20
-7040.122
 30
987.000
 70
    32
  0
VERTEX
  8
T42SSILL
 62
7
 10
3723.849
 20
-7021.671
 30
986.500
 70
    32
  0
VERTEX
  8
T42SSILL
 62
7
 10
3717.844
 20
-7015.933
 30
986.500
 70
    32
  0
VERTEX
  8
T42SSILL
 62
7
 10
3686.442
 20
-6998.766
 30
986.000
 70
    32
  0
VERTEX
  8
T42SSILL
 62
7
 10
3682.517
 20
-6996.453
 30
987.000
 70
    32
  0
VERTEX
  8
T42SSILL
 62
7
 10
3671.687
 20
-6985.554
 30
990.000
 70
    32
  0
VERTEX
  8
T42SSILL
 62
7
 10
3672.715
 20
-7008.434
 30
986.000
 70
    32
  0
VERTEX
  8
T42SSILL
 62
7
 10
3688.410
 20
-7016.327
 30
986.000
 70
    32
  0
VERTEX
  8
T42SSILL
 62
7
 10
3691.114
 20
-7014.073
 30
986.500
 70
    32
  0
VERTEX
  8
T42SSILL
 62
7
 10
3711.547
 20
-7023.677
 30
986.500
 70
    32
  0
VERTEX
  8
T42SSILL
 62
7
 10
3717.167
 20
-7028.570
 30
986.500
 70
    32
  0
VERTEX
  8
T42SSILL
 62
7
 10
3745.854
 20
-7045.359
 30
987.000
 70
    32
  0
VERTEX
  8
T42SSILL
 62
7
 10
3757.724
 20
-7053.499
 30
986.500
 70
    32
  0
VERTEX
  8
T42SSILL
 62
7
 10
3771.143
 20
-7060.740
 30
986.500
 70
    32
  0
VERTEX
  8
T42SSILL
 62
7
 10
3771.811
 20
-7064.553
 30
986.000
 70
    32
  0
VERTEX
  8
T42SSILL
 62
7
 10
3749.444
 20
-7080.513
 30
986.278
 70
    32
  0
VERTEX
  8
T42SSILL
 62
7
 10
3738.448
 20
-7078.951
 30
986.288
 70
    32
  0
VERTEX
  8
T42SSILL
 62
7
 10
3732.519
 20
-7076.214
 30
986.292
 70
    32
  0
VERTEX
  8
T42SSILL
 62
7
 10
3722.829
 20
-7064.909
 30
986.290
 70
    32
  0
VERTEX
  8
T42SSILL
 62
7
 10
3720.208
 20
-7058.976
 30
986.286
 70
    32
  0
VERTEX
  8
T42SSILL
 62
7
 10
3718.651
 20
-7047.179
 30
986.275
 70
    32
  0
VERTEX
  8
T42SSILL
 62
7
 10
3724.784
 20
-7047.264
 30
986.269
 70
    32
  0
VERTEX
  8
T42SSILL
 62
7
 10
3724.044
 20
-7037.380
 30
986.259
 70
    32
  0
VERTEX
  8
T42SSILL
 62
7
 10
3721.866
 20
-7037.519
 30
986.261
 70
    32
  0
VERTEX
  8
T42SSILL
 62
7
 10
3725.845
 20
-7031.220
 30
986.250
 70
    32
  0
VERTEX
  8
T42SSILL
 62
7
 10
3784.213
 20
-6988.870
 30
986.208
 70
    32
  0
VERTEX
  8
T42SSILL
 62
7
 10
3787.632
 20
-6993.679
 30
986.216
 70
    32
  0
VERTEX
  8
T42SSILL
 62
7
 10
3798.270
 20
-6986.223
 30
986.200
 70
    32
  0
VERTEX
  8
T42SSILL
 62
7
 10
3794.725
 20
-6981.290
 30
986.191
 70
    32
  0
VERTEX
  8
T42SSILL
 62
7
 10
3841.199
 20
-6947.779
 30
986.281
 70
    32
  0
VERTEX
  8
T42SSILL
 62
7
 10
3848.863
 20
-6947.425
 30
986.289
 70
    32
  0
VERTEX
  8
T42SSILL
 62
7
 10
3850.159
 20
-6951.383
 30
986.276
 70
    32
  0
VERTEX
  8
T42SSILL
 62
7
 10
3855.277
 20
-6945.466
 30
986.302
 70
    32
  0
VERTEX
  8
T42SSILL
 62
7
 10
3867.165
 20
-6944.495
 30
986.316
 70
    32
  0
VERTEX
  8
T42SSILL
 62
7
 10
3863.276
 20
-6932.622
 30
986.358
 70
    32
  0
VERTEX
  8
T42SSILL
 62
7
 10
3936.631
 20
-6880.240
 30
986.447
 70
    32
  0
VERTEX
  8
T42SSILL
 62
7
 10
3932.351
 20
-6874.385
 30
986.443
 70
    32
  0
VERTEX
  8
T42SSILL
 62
7
 10
3860.218
 20
-6926.338
 30
986.369
 70
    32
  0
VERTEX
  8
T42SSILL
 62
7
 10
3851.723
 20
-6925.982
 30
986.361
 70
    32
  0
VERTEX
  8
T42SSILL
 62
7
 10
3841.330
 20
-6939.119
 30
986.314
 70
    32
  0
VERTEX
  8
T42SSILL
 62
7
 10
3728.015
 20
-7020.243
 30
986.246
 70
    32
  0
VERTEX
  8
T42SSILL
 62
7
 10
3718.917
 20
-7028.339
 30
986.254
 70
    32
  0
VERTEX
  8
T42SSILL
 62
7
 10
3713.863
 20
-7038.006
 30
986.270
 70
    32
  0
VERTEX
  8
T42SSILL
 62
7
 10
3703.528
 20
-7038.411
 30
986.282
 70
    32
  0
VERTEX
  8
T42SSILL
 62
7
 10
3665.601
 20
-6986.343
 30
986.230
 70
    32
  0
VERTEX
  8
T42SSILL
 62
7
 10
3663.056
 20
-6972.965
 30
986.205
 70
    32
  0
VERTEX
  8
T42SSILL
 62
7
 10
3666.556
 20
-6959.740
 30
986.178
 70
    32
  0
VERTEX
  8
T42SSILL
 62
7
 10
3679.153
 20
-6973.337
 30
986.202
 70
    32
  0
VERTEX
  8
T42SSILL
 62
7
 10
3692.108
 20
-6972.799
 30
986.198
 70
    32
  0
VERTEX
  8
T42SSILL
 62
7
 10
3699.484
 20
-6967.771
 30
986.186
 70
    32
  0
VERTEX
  8
T42SSILL
 62
7
 10
3703.533
 20
-6962.181
 30
986.175
 70
    32
  0
VERTEX
  8
T42SSILL
 62
7
 10
3692.724
 20
-6938.746
 30
986.185
 70
    32
  0
VERTEX
  8
T42SSILL
 62
7
 10
3776.603
 20
-6879.206
 30
986.296
 70
    32
  0
VERTEX
  8
T42SSILL
 62
7
 10
3783.282
 20
-6893.325
 30
986.301
 70
    32
  0
VERTEX
  8
T42SSILL
 62
7
 10
3804.307
 20
-6884.770
 30
986.322
 70
    32
  0
VERTEX
  8
T42SSILL
 62
7
 10
3807.014
 20
-6877.749
 30
986.325
 70
    32
  0
VERTEX
  8
T42SSILL
 62
7
 10
3815.283
 20
-6873.062
 30
986.333
 70
    32
  0
VERTEX
  8
T42SSILL
 62
7
 10
3813.549
 20
-6852.173
 30
986.357
 70
    32
  0
VERTEX
  8
T42SSILL
 62
7
 10
3861.534
 20
-6817.942
 30
986.494
 70
    32
  0
VERTEX
  8
T42SSILL
 62
7
 10
3856.657
 20
-6811.542
 30
986.506
 70
    32
  0
VERTEX
  8
T42SSILL
 62
7
 10
3810.349
 20
-6845.232
 30
986.372
 70
    32
  0
VERTEX
  8
T42SSILL
 62
7
 10
3803.894
 20
-6841.798
 30
986.374
 70
    32
  0
VERTEX
  8
T42SSILL
 62
7
 10
3793.151
 20
-6845.751
 30
986.353
 70
    32
  0
VERTEX
  8
T42SSILL
 62
7
 10
3788.689
 20
-6823.008
 30
986.408
 70
    32
  0
VERTEX
  8
T42SSILL
 62
7
 10
3789.497
 20
-6819.722
 30
986.417
 70
    32
  0
VERTEX
  8
T42SSILL
 62
7
 10
3780.086
 20
-6800.390
 30
986.458
 70
    32
  0
VERTEX
  8
T42SSILL
 62
7
 10
3771.846
 20
-6776.755
 30
986.512
 70
    32
  0
VERTEX
  8
T42SSILL
 62
7
 10
3766.193
 20
-6768.196
 30
986.528
 70
    32
  0
VERTEX
  8
T42SSILL
 62
7
 10
3796.442
 20
-6745.927
 30
986.548
 70
    32
  0
VERTEX
  8
T42SSILL
 62
7
 10
3792.796
 20
-6740.495
 30
986.541
 70
    32
  0
VERTEX
  8
T42SSILL
 62
7
 10
3760.760
 20
-6762.843
 30
986.537
 70
    32
  0
VERTEX
  8
T42SSILL
 62
7
 10
3746.247
 20
-6746.705
 30
986.564
 70
    32
  0
VERTEX
  8
T42SSILL
 62
7
 10
3742.107
 20
-6746.830
 30
986.560
 70
    32
  0
VERTEX
  8
T42SSILL
 62
7
 10
3732.047
 20
-6738.477
 30
986.571
 70
    32
  0
VERTEX
  8
T42SSILL
 62
7
 10
3725.517
 20
-6736.615
 30
986.569
 70
    32
  0
VERTEX
  8
T42SSILL
 62
7
 10
3716.521
 20
-6739.975
 30
986.552
 70
    32
  0
VERTEX
  8
T42SSILL
 62
7
 10
3717.294
 20
-6743.655
 30
986.543
 70
    32
  0
VERTEX
  8
T42SSILL
 62
7
 10
3731.208
 20
-6761.086
 30
986.511
 70
    32
  0
VERTEX
  8
T42SSILL
 62
7
 10
3740.902
 20
-6769.832
 30
986.498
 70
    32
  0
VERTEX
  8
T42SSILL
 62
7
 10
3736.877
 20
-6772.820
 30
986.487
 70
    32
  0
VERTEX
  8
T42SSILL
 62
7
 10
3740.655
 20
-6777.621
 30
986.478
 70
    32
  0
VERTEX
  8
T42SSILL
 62
7
 10
3647.134
 20
-6845.055
 30
986.208
 70
    32
  0
VERTEX
  8
T42SSILL
 62
7
 10
3632.948
 20
-6829.986
 30
986.233
 70
    32
  0
VERTEX
  8
T42SSILL
 62
7
 10
3626.753
 20
-6820.511
 30
986.251
 70
    32
  0
VERTEX
  8
T42SSILL
 62
7
 10
3624.775
 20
-6808.580
 30
986.280
 70
    32
  0
VERTEX
  8
T42SSILL
 62
7
 10
3614.685
 20
-6794.393
 30
986.307
 70
    32
  0
VERTEX
  8
T42SSILL
 62
7
 10
3594.511
 20
-6779.137
 30
986.327
 70
    32
  0
VERTEX
  8
T42SSILL
 62
7
 10
3597.348
 20
-6773.215
 30
986.345
 70
    32
  0
VERTEX
  8
T42SSILL
 62
7
 10
3691.704
 20
-6704.924
 30
986.557
 70
    32
  0
VERTEX
  8
T42SSILL
 62
7
 10
3687.741
 20
-6698.742
 30
986.549
 70
    32
  0
VERTEX
  8
T42SSILL
 62
7
 10
3593.098
 20
-6767.238
 30
986.356
 70
    32
  0
VERTEX
  8
T42SSILL
 62
7
 10
3587.855
 20
-6764.135
 30
986.359
 70
    32
  0
VERTEX
  8
T42SSILL
 62
7
 10
3585.366
 20
-6760.483
 30
986.366
 70
    32
  0
VERTEX
  8
T42SSILL
 62
7
 10
3582.844
 20
-6748.396
 30
986.395
 70
    32
  0
VERTEX
  8
T42SSILL
 62
7
 10
3570.061
 20
-6725.389
 30
986.442
 70
    32
  0
VERTEX
  8
T42SSILL
 62
7
 10
3565.041
 20
-6719.092
 30
986.454
 70
    32
  0
VERTEX
  8
T42SSILL
 62
7
 10
3557.988
 20
-6716.950
 30
986.452
 70
    32
  0
VERTEX
  8
T42SSILL
 62
7
 10
3548.934
 20
-6708.641
 30
986.465
 70
    32
  0
VERTEX
  8
T42SSILL
 62
7
 10
3540.498
 20
-6704.556
 30
986.467
 70
    32
  0
VERTEX
  8
T42SSILL
 62
7
 10
3537.562
 20
-6699.053
 30
986.478
 70
    32
  0
VERTEX
  8
T42SSILL
 62
7
 10
3541.060
 20
-6696.349
 30
986.489
 70
    32
  0
VERTEX
  8
T42SSILL
 62
7
 10
3565.642
 20
-6687.001
 30
986.538
 70
    32
  0
VERTEX
  8
T42SSILL
 62
7
 10
3569.028
 20
-6683.833
 30
986.549
 70
    32
  0
VERTEX
  8
T42SSILL
 62
7
 10
3566.605
 20
-6678.291
 30
986.561
 70
    32
  0
VERTEX
  8
T42SSILL
 62
7
 10
3593.561
 20
-6659.014
 30
986.553
 70
    32
  0
VERTEX
  8
T42SSILL
 62
7
 10
3602.571
 20
-6673.210
 30
986.570
 70
    32
  0
VERTEX
  8
T42SSILL
 62
7
 10
3596.912
 20
-6682.330
 30
986.581
 70
    32
  0
VERTEX
  8
T42SSILL
 62
7
 10
3601.009
 20
-6688.092
 30
986.571
 70
    32
  0
VERTEX
  8
T42SSILL
 62
7
 10
3607.459
 20
-6703.566
 30
986.537
 70
    32
  0
VERTEX
  8
T42SSILL
 62
7
 10
3610.356
 20
-6703.675
 30
986.539
 70
    32
  0
VERTEX
  8
T42SSILL
 62
7
 10
3620.310
 20
-6698.765
 30
986.562
 70
    32
  0
VERTEX
  8
T42SSILL
 62
7
 10
3631.476
 20
-6689.306
 30
986.576
 70
    32
  0
VERTEX
  8
T42SSILL
 62
7
 10
3633.055
 20
-6685.580
 30
986.569
 70
    32
  0
VERTEX
  8
T42SSILL
 62
7
 10
3626.364
 20
-6672.664
 30
986.551
 70
    32
  0
VERTEX
  8
T42SSILL
 62
7
 10
3621.843
 20
-6653.649
 30
986.535
 70
    32
  0
VERTEX
  8
T42SSILL
 62
7
 10
3608.435
 20
-6649.738
 30
986.539
 70
    32
  0
VERTEX
  8
T42SSILL
 62
7
 10
3652.852
 20
-6616.742
 30
986.473
 70
    32
  0
VERTEX
  8
T42SSILL
 62
7
 10
3648.138
 20
-6610.877
 30
986.473
 70
    32
  0
VERTEX
  8
T42SSILL
 62
7
 10
3598.867
 20
-6646.349
 30
986.542
 70
    32
  0
VERTEX
  8
T42SSILL
 62
7
 10
3582.927
 20
-6634.912
 30
986.546
 70
    32
  0
VERTEX
  8
T42SSILL
 62
7
 10
3571.955
 20
-6640.221
 30
986.549
 70
    32
  0
VERTEX
  8
T42SSILL
 62
7
 10
3577.145
 20
-6648.892
 30
986.548
 70
    32
  0
VERTEX
  8
T42SSILL
 62
7
 10
3571.662
 20
-6662.225
 30
986.575
 70
    32
  0
VERTEX
  8
T42SSILL
 62
7
 10
3573.527
 20
-6664.694
 30
986.578
 70
    32
  0
VERTEX
  8
T42SSILL
 62
7
 10
3562.816
 20
-6672.962
 30
986.571
 70
    32
  0
VERTEX
  8
T42SSILL
 62
7
 10
3557.603
 20
-6674.934
 30
986.561
 70
    32
  0
VERTEX
  8
T42SSILL
 62
7
 10
3552.962
 20
-6664.138
 30
986.585
 70
    32
  0
VERTEX
  8
T42SSILL
 62
7
 10
3537.745
 20
-6640.910
 30
986.564
 70
    32
  0
VERTEX
  8
T42SSILL
 62
7
 10
3534.664
 20
-6630.630
 30
986.558
 70
    32
  0
VERTEX
  8
T42SSILL
 62
7
 10
3535.957
 20
-6626.349
 30
986.558
 70
    32
  0
VERTEX
  8
T42SSILL
 62
7
 10
3532.915
 20
-6622.223
 30
986.559
 70
    32
  0
VERTEX
  8
T42SSILL
 62
7
 10
3544.207
 20
-6606.386
 30
986.523
 70
    32
  0
VERTEX
  8
T42SSILL
 62
7
 10
3541.968
 20
-6601.255
 30
986.522
 70
    32
  0
VERTEX
  8
T42SSILL
 62
7
 10
3539.385
 20
-6598.538
 30
986.522
 70
    32
  0
VERTEX
  8
T42SSILL
 62
7
 10
3517.834
 20
-6607.574
 30
986.540
 70
    32
  0
VERTEX
  8
T42SSILL
 62
7
 10
3512.014
 20
-6600.761
 30
986.537
 70
    32
  0
VERTEX
  8
T42SSILL
 62
7
 10
3562.200
 20
-6563.618
 30
986.499
 70
    32
  0
VERTEX
  8
T42SSILL
 62
7
 10
3557.210
 20
-6558.644
 30
986.500
 70
    32
  0
VERTEX
  8
T42SSILL
 62
7
 10
3512.034
 20
-6590.878
 30
986.533
 70
    32
  0
VERTEX
  8
T42SSILL
 62
7
 10
3502.824
 20
-6583.873
 30
986.535
 70
    32
  0
VERTEX
  8
T42SSILL
 62
7
 10
3492.687
 20
-6587.612
 30
986.542
 70
    32
  0
VERTEX
  8
T42SSILL
 62
7
 10
3484.486
 20
-6569.371
 30
986.540
 70
    32
  0
VERTEX
  8
T42SSILL
 62
7
 10
3476.414
 20
-6573.268
 30
986.545
 70
    32
  0
VERTEX
  8
T42SSILL
 62
7
 10
3476.569
 20
-6577.603
 30
986.546
 70
    32
  0
VERTEX
  8
T42SSILL
 62
7
 10
3474.148
 20
-6581.060
 30
986.549
 70
    32
  0
VERTEX
  8
T42SSILL
 62
7
 10
3479.482
 20
-6589.629
 30
986.549
 70
    32
  0
VERTEX
  8
T42SSILL
 62
7
 10
3482.947
 20
-6612.647
 30
986.572
 70
    32
  0
VERTEX
  8
T42SSILL
 62
7
 10
3466.404
 20
-6624.303
 30
986.590
 70
    32
  0
VERTEX
  8
T42SSILL
 62
7
 10
3454.704
 20
-6624.165
 30
986.590
 70
    32
  0
VERTEX
  8
T42SSILL
 62
7
 10
3445.772
 20
-6631.276
 30
986.562
 70
    32
  0
VERTEX
  8
T42SSILL
 62
7
 10
3445.220
 20
-6639.801
 30
986.539
 70
    32
  0
VERTEX
  8
T42SSILL
 62
7
 10
3441.990
 20
-6641.664
 30
986.531
 70
    32
  0
VERTEX
  8
T42SSILL
 62
7
 10
3438.157
 20
-6647.101
 30
986.513
 70
    32
  0
VERTEX
  8
T42SSILL
 62
7
 10
3433.151
 20
-6663.239
 30
986.466
 70
    32
  0
VERTEX
  8
T42SSILL
 62
7
 10
3385.784
 20
-6599.222
 30
986.585
 70
    32
  0
VERTEX
  8
T42SSILL
 62
7
 10
3384.889
 20
-6585.003
 30
986.594
 70
    32
  0
VERTEX
  8
T42SSILL
 62
7
 10
3390.745
 20
-6570.212
 30
986.581
 70
    32
  0
VERTEX
  8
T42SSILL
 62
7
 10
3437.310
 20
-6536.882
 30
986.548
 70
    32
  0
VERTEX
  8
T42SSILL
 62
7
 10
3462.647
 20
-6539.575
 30
986.540
 70
    32
  0
VERTEX
  8
T42SSILL
 62
7
 10
3469.882
 20
-6533.128
 30
986.535
 70
    32
  0
VERTEX
  8
T42SSILL
 62
7
 10
3467.483
 20
-6516.184
 30
986.528
 70
    32
  0
VERTEX
  8
T42SSILL
 62
7
 10
3447.936
 20
-6500.589
 30
986.513
 70
    32
  0
VERTEX
  8
T42SSILL
 62
7
 10
3438.681
 20
-6500.231
 30
986.513
 70
    32
  0
VERTEX
  8
T42SSILL
 62
7
 10
3439.504
 20
-6504.743
 30
986.517
 70
    32
  0
VERTEX
  8
T42SSILL
 62
7
 10
3431.860
 20
-6504.973
 30
986.518
 70
    32
  0
VERTEX
  8
T42SSILL
 62
7
 10
3429.668
 20
-6507.074
 30
986.520
 70
    32
  0
VERTEX
  8
T42SSILL
 62
7
 10
3427.610
 20
-6518.514
 30
986.531
 70
    32
  0
VERTEX
  8
T42SSILL
 62
7
 10
3432.262
 20
-6523.989
 30
986.536
 70
    32
  0
VERTEX
  8
T42SSILL
 62
7
 10
3432.308
 20
-6531.221
 30
986.543
 70
    32
  0
VERTEX
  8
T42SSILL
 62
7
 10
3390.362
 20
-6561.592
 30
986.573
 70
    32
  0
VERTEX
  8
T42SSILL
 62
7
 10
3384.678
 20
-6568.237
 30
986.579
 70
    32
  0
VERTEX
  8
T42SSILL
 62
7
 10
3383.303
 20
-6567.371
 30
986.579
 70
    32
  0
VERTEX
  8
T42SSILL
 62
7
 10
3377.196
 20
-6550.244
 30
986.562
 70
    32
  0
VERTEX
  8
T42SSILL
 62
7
 10
3372.875
 20
-6553.317
 30
986.565
 70
    32
  0
VERTEX
  8
T42SSILL
 62
7
 10
3354.425
 20
-6528.592
 30
986.542
 70
    32
  0
VERTEX
  8
T42SSILL
 62
7
 10
3352.780
 20
-6519.569
 30
986.534
 70
    32
  0
VERTEX
  8
T42SSILL
 62
7
 10
3354.790
 20
-6511.417
 30
986.526
 70
    32
  0
VERTEX
  8
T42SSILL
 62
7
 10
3360.191
 20
-6502.696
 30
986.517
 70
    32
  0
VERTEX
  8
T42SSILL
 62
7
 10
3373.057
 20
-6505.692
 30
986.520
 70
    32
  0
VERTEX
  8
T42SSILL
 62
7
 10
3375.694
 20
-6502.082
 30
986.516
 70
    32
  0
VERTEX
  8
T42SSILL
 62
7
 10
3382.533
 20
-6498.737
 30
986.513
 70
    32
  0
VERTEX
  8
T42SSILL
 62
7
 10
3386.245
 20
-6491.759
 30
986.506
 70
    32
  0
VERTEX
  8
T42SSILL
 62
7
 10
3390.166
 20
-6488.429
 30
986.503
 70
    32
  0
VERTEX
  8
T42SSILL
 62
7
 10
3392.602
 20
-6487.889
 30
986.502
 70
    32
  0
VERTEX
  8
T42SSILL
 62
7
 10
3400.769
 20
-6492.817
 30
986.507
 70
    32
  0
VERTEX
  8
T42SSILL
 62
7
 10
3404.018
 20
-6491.591
 30
986.506
 70
    32
  0
VERTEX
  8
T42SSILL
 62
7
 10
3401.089
 20
-6482.288
 30
986.497
 70
    32
  0
VERTEX
  8
T42SSILL
 62
7
 10
3404.525
 20
-6475.073
 30
986.490
 70
    32
  0
VERTEX
  8
T42SSILL
 62
7
 10
3404.768
 20
-6466.876
 30
986.482
 70
    32
  0
VERTEX
  8
T42SSILL
 62
7
 10
3426.964
 20
-6449.140
 30
986.465
 70
    32
  0
VERTEX
  8
T42SSILL
 62
7
 10
3421.420
 20
-6442.564
 30
986.458
 70
    32
  0
VERTEX
  8
T42SSILL
 62
7
 10
3413.610
 20
-6448.660
 30
986.464
 70
    32
  0
VERTEX
  8
T42SSILL
 62
7
 10
3405.317
 20
-6445.232
 30
986.461
 70
    32
  0
VERTEX
  8
T42SSILL
 62
7
 10
3405.485
 20
-6443.486
 30
986.460
 70
    32
  0
VERTEX
  8
T42SSILL
 62
7
 10
3417.409
 20
-6434.790
 30
986.451
 70
    32
  0
VERTEX
  8
T42SSILL
 62
7
 10
3413.879
 20
-6428.300
 30
986.445
 70
    32
  0
VERTEX
  8
T42SSILL
 62
7
 10
3403.131
 20
-6434.534
 30
986.451
 70
    32
  0
VERTEX
  8
T42SSILL
 62
7
 10
3391.100
 20
-6415.329
 30
986.433
 70
    32
  0
VERTEX
  8
T42SSILL
 62
7
 10
3385.115
 20
-6408.742
 30
986.427
 70
    32
  0
VERTEX
  8
T42SSILL
 62
7
 10
3380.333
 20
-6406.287
 30
986.425
 70
    32
  0
VERTEX
  8
T42SSILL
 62
7
 10
3378.664
 20
-6398.907
 30
986.418
 70
    32
  0
VERTEX
  8
T42SSILL
 62
7
 10
3368.619
 20
-6387.833
 30
986.407
 70
    32
  0
VERTEX
  8
T42SSILL
 62
7
 10
3361.286
 20
-6386.975
 30
986.407
 70
    32
  0
VERTEX
  8
T42SSILL
 62
7
 10
3362.327
 20
-6380.814
 30
986.401
 70
    32
  0
VERTEX
  8
T42SSILL
 62
7
 10
3366.513
 20
-6378.162
 30
986.398
 70
    32
  0
VERTEX
  8
T42SSILL
 62
7
 10
3350.595
 20
-6356.083
 30
986.377
 70
    32
  0
VERTEX
  8
T42SSILL
 62
7
 10
3311.407
 20
-6384.385
 30
986.405
 70
    32
  0
VERTEX
  8
T42SSILL
 62
7
 10
3306.230
 20
-6384.271
 30
986.405
 70
    32
  0
VERTEX
  8
T42SSILL
 62
7
 10
3300.161
 20
-6387.936
 30
986.409
 70
    32
  0
VERTEX
  8
T42SSILL
 62
7
 10
3300.295
 20
-6392.395
 30
986.413
 70
    32
  0
VERTEX
  8
T42SSILL
 62
7
 10
3278.533
 20
-6409.063
 30
986.430
 70
    32
  0
VERTEX
  8
T42SSILL
 62
7
 10
3269.026
 20
-6421.463
 30
986.442
 70
    32
  0
VERTEX
  8
T42SSILL
 62
7
 10
3266.235
 20
-6434.617
 30
986.455
 70
    32
  0
VERTEX
  8
T42SSILL
 62
7
 10
3268.174
 20
-6445.274
 30
986.465
 70
    32
  0
VERTEX
  8
T42SSILL
 62
7
 10
3273.014
 20
-6454.519
 30
986.473
 70
    32
  0
VERTEX
  8
T42SSILL
 62
7
 10
3503.413
 20
-6773.327
 30
986.262
 70
    32
  0
VERTEX
  8
T42SSILL
 62
7
 10
3480.710
 20
-6788.062
 30
986.303
 70
    32
  0
VERTEX
  8
T42SSILL
 62
7
 10
3481.067
 20
-6794.205
 30
986.299
 70
    32
  0
VERTEX
  8
T42SSILL
 62
7
 10
3484.082
 20
-6796.616
 30
986.292
 70
    32
  0
VERTEX
  8
T42SSILL
 62
7
 10
3512.907
 20
-6787.287
 30
986.237
 70
    32
  0
VERTEX
  8
T42SSILL
 62
7
 10
3557.763
 20
-6848.535
 30
986.119
 70
    32
  0
VERTEX
  8
T42SSILL
 62
7
 10
3494.207
 20
-6837.995
 30
986.255
 70
    32
  0
VERTEX
  8
T42SSILL
 62
7
 10
3479.544
 20
-6849.398
 30
986.280
 70
    32
  0
VERTEX
  8
T42SSILL
 62
7
 10
3470.761
 20
-6844.367
 30
986.300
 70
    32
  0
VERTEX
  8
T42SSILL
 62
7
 10
3468.828
 20
-6835.549
 30
986.308
 70
    32
  0
VERTEX
  8
T42SSILL
 62
7
 10
3465.452
 20
-6833.394
 30
986.316
 70
    32
  0
VERTEX
  8
T42SSILL
 62
7
 10
3459.731
 20
-6833.126
 30
986.328
 70
    32
  0
VERTEX
  8
T42SSILL
 62
7
 10
3452.585
 20
-6836.038
 30
986.341
 70
    32
  0
VERTEX
  8
T42SSILL
 62
7
 10
3449.116
 20
-6839.699
 30
986.347
 70
    32
  0
VERTEX
  8
T42SSILL
 62
7
 10
3453.323
 20
-6851.562
 30
986.333
 70
    32
  0
VERTEX
  8
T42SSILL
 62
7
 10
3460.707
 20
-6862.251
 30
986.314
 70
    32
  0
VERTEX
  8
T42SSILL
 62
7
 10
3422.825
 20
-6889.950
 30
986.381
 70
    32
  0
VERTEX
  8
T42SSILL
 62
7
 10
3426.275
 20
-6895.412
 30
986.371
 70
    32
  0
VERTEX
  8
T42SSILL
 62
7
 10
3464.433
 20
-6868.710
 30
986.304
 70
    32
  0
VERTEX
  8
T42SSILL
 62
7
 10
3466.424
 20
-6869.680
 30
986.299
 70
    32
  0
VERTEX
  8
T42SSILL
 62
7
 10
3475.580
 20
-6868.374
 30
986.281
 70
    32
  0
VERTEX
  8
T42SSILL
 62
7
 10
3485.102
 20
-6878.410
 30
986.257
 70
    32
  0
VERTEX
  8
T42SSILL
 62
7
 10
3488.738
 20
-6878.644
 30
986.249
 70
    32
  0
VERTEX
  8
T42SSILL
 62
7
 10
3490.961
 20
-6876.738
 30
986.246
 70
    32
  0
VERTEX
  8
T42SSILL
 62
7
 10
3485.142
 20
-6864.285
 30
986.263
 70
    32
  0
VERTEX
  8
T42SSILL
 62
7
 10
3484.577
 20
-6854.494
 30
986.268
 70
    32
  0
VERTEX
  8
T42SSILL
 62
7
 10
3495.772
 20
-6845.991
 30
986.248
 70
    32
  0
VERTEX
  8
T42SSILL
 62
7
 10
3563.232
 20
-6856.682
 30
986.104
 70
    32
  0
VERTEX
  8
T42SSILL
 62
7
 10
3605.856
 20
-6914.639
 30
986.133
 70
    32
  0
VERTEX
  8
T42SSILL
 62
7
 10
3562.690
 20
-6909.443
 30
986.167
 70
    32
  0
VERTEX
  8
T42SSILL
 62
7
 10
3553.459
 20
-6912.320
 30
986.179
 70
    32
  0
VERTEX
  8
T42SSILL
 62
7
 10
3531.658
 20
-6927.715
 30
986.217
 70
    32
  0
VERTEX
  8
T42SSILL
 62
7
 10
3521.288
 20
-6920.451
 30
986.218
 70
    32
  0
VERTEX
  8
T42SSILL
 62
7
 10
3508.657
 20
-6888.660
 30
986.204
 70
    32
  0
VERTEX
  8
T42SSILL
 62
7
 10
3506.228
 20
-6886.159
 30
986.210
 70
    32
  0
VERTEX
  8
T42SSILL
 62
7
 10
3490.006
 20
-6881.646
 30
986.245
 70
    32
  0
VERTEX
  8
T42SSILL
 62
7
 10
3480.796
 20
-6889.280
 30
986.261
 70
    32
  0
VERTEX
  8
T42SSILL
 62
7
 10
3482.355
 20
-6910.076
 30
986.250
 70
    32
  0
VERTEX
  8
T42SSILL
 62
7
 10
3479.052
 20
-6932.268
 30
986.272
 70
    32
  0
VERTEX
  8
T42SSILL
 62
7
 10
3460.558
 20
-6923.950
 30
986.289
 70
    32
  0
VERTEX
  8
T42SSILL
 62
7
 10
3457.120
 20
-6927.045
 30
986.295
 70
    32
  0
VERTEX
  8
T42SSILL
 62
7
 10
3467.527
 20
-6936.343
 30
986.287
 70
    32
  0
VERTEX
  8
T42SSILL
 62
7
 10
3470.471
 20
-6953.443
 30
986.305
 70
    32
  0
VERTEX
  8
T42SSILL
 62
7
 10
3475.517
 20
-6967.096
 30
986.316
 70
    32
  0
VERTEX
  8
T42SSILL
 62
7
 10
3446.337
 20
-6989.039
 30
986.369
 70
    32
  0
VERTEX
  8
T42SSILL
 62
7
 10
3450.700
 20
-6995.479
 30
986.372
 70
    32
  0
VERTEX
  8
T42SSILL
 62
7
 10
3474.302
 20
-6978.044
 30
986.330
 70
    32
  0
VERTEX
  8
T42SSILL
 62
7
 10
3494.922
 20
-6996.671
 30
986.333
 70
    32
  0
VERTEX
  8
T42SSILL
 62
7
 10
3515.711
 20
-6978.635
 30
986.292
 70
    32
  0
VERTEX
  8
T42SSILL
 62
7
 10
3510.077
 20
-6970.713
 30
986.288
 70
    32
  0
VERTEX
  8
T42SSILL
 62
7
 10
3526.547
 20
-6959.868
 30
986.260
 70
    32
  0
VERTEX
  8
T42SSILL
 62
7
 10
3541.824
 20
-6959.089
 30
986.245
 70
    32
  0
VERTEX
  8
T42SSILL
 62
7
 10
3542.853
 20
-6953.369
 30
986.237
 70
    32
  0
VERTEX
  8
T42SSILL
 62
7
 10
3537.660
 20
-6951.098
 30
986.239
 70
    32
  0
VERTEX
  8
T42SSILL
 62
7
 10
3530.351
 20
-6938.837
 30
986.232
 70
    32
  0
VERTEX
  8
T42SSILL
 62
7
 10
3558.862
 20
-6917.478
 30
986.180
 70
    32
  0
VERTEX
  8
T42SSILL
 62
7
 10
3567.822
 20
-6916.203
 30
986.170
 70
    32
  0
VERTEX
  8
T42SSILL
 62
7
 10
3583.821
 20
-6919.030
 30
986.159
 70
    32
  0
VERTEX
  8
T42SSILL
 62
7
 10
3574.538
 20
-6927.476
 30
986.177
 70
    32
  0
VERTEX
  8
T42SSILL
 62
7
 10
3569.149
 20
-6934.995
 30
986.191
 70
    32
  0
VERTEX
  8
T42SSILL
 62
7
 10
3550.448
 20
-7005.982
 30
986.322
 70
    32
  0
VERTEX
  8
T42SSILL
 62
7
 10
3544.110
 20
-7005.609
 30
986.324
 70
    32
  0
VERTEX
  8
T42SSILL
 62
7
 10
3541.172
 20
-7000.867
 30
986.315
 70
    32
  0
VERTEX
  8
T42SSILL
 62
7
 10
3525.643
 20
-7008.765
 30
986.339
 70
    32
  0
VERTEX
  8
T42SSILL
 62
7
 10
3520.588
 20
-7009.433
 30
986.342
 70
    32
  0
VERTEX
  8
T42SSILL
 62
7
 10
3517.217
 20
-7004.998
 30
986.335
 70
    32
  0
VERTEX
  8
T42SSILL
 62
7
 10
3508.378
 20
-7007.054
 30
986.343
 70
    32
  0
VERTEX
  8
T42SSILL
 62
7
 10
3506.749
 20
-7019.707
 30
986.370
 70
    32
  0
VERTEX
  8
T42SSILL
 62
7
 10
3508.823
 20
-7025.064
 30
986.380
 70
    32
  0
VERTEX
  8
T42SSILL
 62
7
 10
3518.197
 20
-7032.603
 30
986.392
 70
    32
  0
VERTEX
  8
T42SSILL
 62
7
 10
3537.585
 20
-7020.984
 30
986.359
 70
    32
  0
VERTEX
  8
T42SSILL
 62
7
 10
3544.653
 20
-7026.043
 30
986.366
 70
    32
  0
VERTEX
  8
T42SSILL
 62
7
 10
3543.369
 20
-7030.642
 30
986.376
 70
    32
  0
VERTEX
  8
T42SSILL
 62
7
 10
3535.350
 20
-7038.731
 30
986.397
 70
    32
  0
VERTEX
  8
T42SSILL
 62
7
 10
3542.451
 20
-7052.224
 30
986.421
 70
    32
  0
VERTEX
  8
T42SSILL
 62
7
 10
3539.420
 20
-7057.415
 30
986.434
 70
    32
  0
VERTEX
  8
T42SSILL
 62
7
 10
3540.787
 20
-7066.962
 30
986.453
 70
    32
  0
VERTEX
  8
T42SSILL
 62
7
 10
3539.561
 20
-7073.472
 30
986.460
 70
    32
  0
VERTEX
  8
T42SSILL
 62
7
 10
3540.964
 20
-7075.293
 30
986.460
 70
    32
  0
VERTEX
  8
T42SSILL
 62
7
 10
3547.084
 20
-7076.580
 30
986.456
 70
    32
  0
VERTEX
  8
T42SSILL
 62
7
 10
3552.943
 20
-7070.028
 30
986.445
 70
    32
  0
VERTEX
  8
T42SSILL
 62
7
 10
3564.124
 20
-7063.487
 30
986.429
 70
    32
  0
VERTEX
  8
T42SSILL
 62
7
 10
3573.951
 20
-7054.430
 30
986.412
 70
    32
  0
VERTEX
  8
T42SSILL
 62
7
 10
3578.477
 20
-7042.653
 30
986.385
 70
    32
  0
VERTEX
  8
T42SSILL
 62
7
 10
3587.097
 20
-7027.632
 30
986.350
 70
    32
  0
VERTEX
  8
T42SSILL
 62
7
 10
3595.824
 20
-7020.233
 30
986.331
 70
    32
  0
VERTEX
  8
T42SSILL
 62
7
 10
3591.583
 20
-7014.574
 30
986.321
 70
    32
  0
VERTEX
  8
T42SSILL
 62
7
 10
3586.658
 20
-7001.702
 30
986.296
 70
    32
  0
VERTEX
  8
T42SSILL
 62
7
 10
3575.947
 20
-6990.451
 30
986.278
 70
    32
  0
VERTEX
  8
T42SSILL
 62
7
 10
3570.147
 20
-6988.395
 30
986.276
 70
    32
  0
VERTEX
  8
T42SSILL
 62
7
 10
3566.487
 20
-6984.925
 30
986.270
 70
    32
  0
VERTEX
  8
T42SSILL
 62
7
 10
3565.704
 20
-6980.927
 30
986.263
 70
    32
  0
VERTEX
  8
T42SSILL
 62
7
 10
3575.567
 20
-6941.274
 30
986.192
 70
    32
  0
VERTEX
  8
T42SSILL
 62
7
 10
3580.478
 20
-6930.950
 30
986.176
 70
    32
  0
VERTEX
  8
T42SSILL
 62
7
 10
3590.498
 20
-6924.150
 30
986.158
 70
    32
  0
VERTEX
  8
T42SSILL
 62
7
 10
3600.888
 20
-6922.292
 30
986.146
 70
    32
  0
VERTEX
  8
T42SSILL
 62
7
 10
3612.217
 20
-6923.127
 30
986.137
 70
    32
  0
VERTEX
  8
T42SSILL
 62
7
 10
3720.387
 20
-7075.160
 30
986.304
 70
    32
  0
VERTEX
  8
T42SSILL
 62
7
 10
3729.526
 20
-7083.553
 30
986.303
 70
    32
  0
VERTEX
  8
T42SSILL
 62
7
 10
3744.935
 20
-7088.121
 30
986.291
 70
    32
  0
VERTEX
  8
T42SSILL
 62
7
 10
3707.564
 20
-7115.010
 30
986.366
 70
    32
  0
VERTEX
  8
T42SSILL
 62
7
 10
3699.054
 20
-7111.842
 30
986.362
 70
    32
  0
VERTEX
  8
T42SSILL
 62
7
 10
3694.607
 20
-7114.718
 30
986.372
 70
    32
  0
VERTEX
  8
T42SSILL
 62
7
 10
3695.061
 20
-7124.006
 30
986.396
 70
    32
  0
VERTEX
  8
T42SSILL
 62
7
 10
3466.228
 20
-7287.300
 30
986.934
 70
    32
  0
VERTEX
  8
T42SSILL
 62
7
 10
3460.147
 20
-7289.437
 30
986.943
 70
    32
  0
VERTEX
  8
T42SSILL
 62
7
 10
3454.414
 20
-7289.356
 30
986.945
 70
    32
  0
VERTEX
  8
T42SSILL
 62
7
 10
3423.505
 20
-7264.164
 30
986.895
 70
    32
  0
VERTEX
  8
T42SSILL
 62
7
 10
3381.151
 20
-7213.310
 30
986.783
 70
    32
  0
VERTEX
  8
T42SSILL
 62
7
 10
3381.013
 20
-7209.374
 30
986.772
 70
    32
  0
VERTEX
  8
T42SSILL
 62
7
 10
3330.751
 20
-7094.875
 30
986.606
 70
    32
  0
VERTEX
  8
T42SSILL
 62
7
 10
3342.535
 20
-7079.880
 30
986.572
 70
    32
  0
VERTEX
  8
T42SSILL
 62
7
 10
3349.500
 20
-7075.036
 30
986.560
 70
    32
  0
VERTEX
  8
T42SSILL
 62
7
 10
3344.173
 20
-7067.546
 30
986.556
 70
    32
  0
VERTEX
  8
T42SSILL
 62
7
 10
3325.315
 20
-7081.283
 30
986.590
 70
    32
  0
VERTEX
  8
T42SSILL
 62
7
 10
3313.958
 20
-7054.258
 30
986.569
 70
    32
  0
VERTEX
  8
T42SSILL
 62
7
 10
3307.900
 20
-7057.557
 30
986.578
 70
    32
  0
VERTEX
  8
T42SSILL
 62
7
 10
3369.831
 20
-7204.206
 30
986.764
 70
    32
  0
VERTEX
  8
T42SSILL
 62
7
 10
3369.483
 20
-7207.623
 30
986.774
 70
    32
  0
VERTEX
  8
T42SSILL
 62
7
 10
3367.402
 20
-7210.011
 30
986.781
 70
    32
  0
VERTEX
  8
T42SSILL
 62
7
 10
3329.711
 20
-7189.524
 30
986.754
 70
    32
  0
VERTEX
  8
T42SSILL
 62
7
 10
3332.415
 20
-7183.368
 30
986.746
 70
    32
  0
VERTEX
  8
T42SSILL
 62
7
 10
3323.147
 20
-7179.332
 30
986.750
 70
    32
  0
VERTEX
  8
T42SSILL
 62
7
 10
3318.429
 20
-7183.644
 30
986.758
 70
    32
  0
VERTEX
  8
T42SSILL
 62
7
 10
3269.924
 20
-7159.384
 30
986.768
 70
    32
  0
VERTEX
  8
T42SSILL
 62
7
 10
3266.653
 20
-7166.373
 30
986.784
 70
    32
  0
VERTEX
  8
T42SSILL
 62
7
 10
3313.250
 20
-7191.033
 30
986.770
 70
    32
  0
VERTEX
  8
T42SSILL
 62
7
 10
3305.988
 20
-7205.523
 30
986.799
 70
    32
  0
VERTEX
  8
T42SSILL
 62
7
 10
3325.327
 20
-7212.590
 30
986.808
 70
    32
  0
VERTEX
  8
T42SSILL
 62
7
 10
3332.544
 20
-7198.712
 30
986.768
 70
    32
  0
VERTEX
  8
T42SSILL
 62
7
 10
3379.510
 20
-7224.542
 30
986.813
 70
    32
  0
VERTEX
  8
T42SSILL
 62
7
 10
3394.942
 20
-7242.524
 30
986.852
 70
    32
  0
VERTEX
  8
T42SSILL
 62
7
 10
3388.384
 20
-7247.326
 30
986.868
 70
    32
  0
VERTEX
  8
T42SSILL
 62
7
 10
3396.241
 20
-7256.501
 30
986.888
 70
    32
  0
VERTEX
  8
T42SSILL
 62
7
 10
3395.258
 20
-7262.856
 30
986.905
 70
    32
  0
VERTEX
  8
T42SSILL
 62
7
 10
3412.202
 20
-7287.866
 30
986.962
 70
    32
  0
VERTEX
  8
T42SSILL
 62
7
 10
3420.649
 20
-7293.786
 30
986.973
 70
    32
  0
VERTEX
  8
T42SSILL
 62
7
 10
3430.232
 20
-7299.164
 30
986.983
 70
    32
  0
VERTEX
  8
T42SSILL
 62
7
 10
3445.100
 20
-7294.330
 30
986.963
 70
    32
  0
VERTEX
  8
T42SSILL
 62
7
 10
3454.625
 20
-7295.639
 30
986.962
 70
    32
  0
VERTEX
  8
T42SSILL
 62
7
 10
3394.581
 20
-7338.323
 30
987.102
 70
    32
  0
VERTEX
  8
T42SSILL
 62
7
 10
3383.194
 20
-7344.209
 30
987.123
 70
    32
  0
VERTEX
  8
T42SSILL
 62
7
 10
3375.216
 20
-7344.805
 30
987.129
 70
    32
  0
VERTEX
  8
T42SSILL
 62
7
 10
3365.251
 20
-7341.381
 30
987.125
 70
    32
  0
VERTEX
  8
T42SSILL
 62
7
 10
3356.974
 20
-7336.545
 30
987.116
 70
    32
  0
VERTEX
  8
T42SSILL
 62
7
 10
3352.837
 20
-7332.184
 30
987.107
 70
    32
  0
VERTEX
  8
T42SSILL
 62
7
 10
3338.935
 20
-7312.699
 30
987.063
 70
    32
  0
VERTEX
  8
T42SSILL
 62
7
 10
3338.438
 20
-7306.865
 30
987.048
 70
    32
  0
VERTEX
  8
T42SSILL
 62
7
 10
3332.612
 20
-7303.915
 30
987.043
 70
    32
  0
VERTEX
  8
T42SSILL
 62
7
 10
3311.589
 20
-7275.042
 30
986.978
 70
    32
  0
VERTEX
  8
T42SSILL
 62
7
 10
3311.084
 20
-7267.326
 30
986.958
 70
    32
  0
VERTEX
  8
T42SSILL
 62
7
 10
3304.611
 20
-7265.985
 30
986.958
 70
    32
  0
VERTEX
  8
T42SSILL
 62
7
 10
3284.134
 20
-7237.245
 30
986.893
 70
    32
  0
VERTEX
  8
T42SSILL
 62
7
 10
3285.359
 20
-7232.639
 30
986.880
 70
    32
  0
VERTEX
  8
T42SSILL
 62
7
 10
3271.956
 20
-7220.429
 30
986.855
 70
    32
  0
VERTEX
  8
T42SSILL
 62
7
 10
3264.920
 20
-7225.850
 30
986.872
 70
    32
  0
VERTEX
  8
T42SSILL
 62
7
 10
3270.599
 20
-7233.797
 30
986.890
 70
    32
  0
VERTEX
  8
T42SSILL
 62
7
 10
3270.443
 20
-7240.800
 30
986.909
 70
    32
  0
VERTEX
  8
T42SSILL
 62
7
 10
3278.478
 20
-7244.601
 30
986.915
 70
    32
  0
VERTEX
  8
T42SSILL
 62
7
 10
3298.102
 20
-7272.666
 30
986.978
 70
    32
  0
VERTEX
  8
T42SSILL
 62
7
 10
3297.130
 20
-7277.744
 30
986.992
 70
    32
  0
VERTEX
  8
T42SSILL
 62
7
 10
3299.443
 20
-7281.179
 30
987.000
 70
    32
  0
VERTEX
  8
T42SSILL
 62
7
 10
3304.838
 20
-7282.130
 30
987.000
 70
    32
  0
VERTEX
  8
T42SSILL
 62
7
 10
3325.047
 20
-7310.521
 30
987.064
 70
    32
  0
VERTEX
  8
T42SSILL
 62
7
 10
3324.696
 20
-7314.677
 30
987.075
 70
    32
  0
VERTEX
  8
T42SSILL
 62
7
 10
3327.971
 20
-7320.369
 30
987.088
 70
    32
  0
VERTEX
  8
T42SSILL
 62
7
 10
3333.188
 20
-7321.234
 30
987.088
 70
    32
  0
VERTEX
  8
T42SSILL
 62
7
 10
3349.762
 20
-7343.323
 30
987.137
 70
    32
  0
VERTEX
  8
T42SSILL
 62
7
 10
3366.897
 20
-7355.765
 30
987.162
 70
    32
  0
VERTEX
  8
T42SSILL
 62
7
 10
3367.432
 20
-7358.752
 30
987.169
 70
    32
  0
VERTEX
  8
T42SSILL
 62
7
 10
3173.174
 20
-7499.043
 30
987.473
 70
    32
  0
VERTEX
  8
T42SSILL
 62
7
 10
3159.552
 20
-7502.309
 30
987.465
 70
    32
  0
VERTEX
  8
T42SSILL
 62
7
 10
3143.371
 20
-7495.220
 30
987.446
 70
    32
  0
VERTEX
  8
T42SSILL
 62
7
 10
3010.707
 20
-7311.145
 30
987.194
 70
    32
  0
VERTEX
  8
T42SSILL
 62
7
 10
3026.077
 20
-7299.958
 30
987.183
 70
    32
  0
VERTEX
  8
T42SSILL
 62
7
 10
3028.663
 20
-7303.723
 30
987.191
 70
    32
  0
VERTEX
  8
T42SSILL
 62
7
 10
3036.443
 20
-7298.380
 30
987.173
 70
    32
  0
VERTEX
  8
T42SSILL
 62
7
 10
3032.724
 20
-7292.905
 30
987.161
 70
    32
  0
VERTEX
  8
T42SSILL
 62
7
 10
3029.874
 20
-7289.214
 30
987.153
 70
    32
  0
VERTEX
  8
T42SSILL
 62
7
 10
3007.043
 20
-7305.738
 30
987.187
 70
    32
  0
VERTEX
  8
T42SSILL
 62
7
 10
2949.730
 20
-7225.637
 30
987.233
 70
    32
  0
VERTEX
  8
T42SSILL
 62
7
 10
2955.804
 20
-7226.739
 30
987.218
 70
    32
  0
VERTEX
  8
T42SSILL
 62
7
 10
2969.213
 20
-7235.151
 30
987.184
 70
    32
  0
VERTEX
  8
T42SSILL
 62
7
 10
2981.819
 20
-7240.597
 30
987.152
 70
    32
  0
VERTEX
  8
T42SSILL
 62
7
 10
2989.653
 20
-7234.759
 30
987.137
 70
    32
  0
VERTEX
  8
T42SSILL
 62
7
 10
2993.949
 20
-7224.091
 30
987.133
 70
    32
  0
VERTEX
  8
T42SSILL
 62
7
 10
2941.506
 20
-7196.143
 30
987.267
 70
    32
  0
VERTEX
  8
T42SSILL
 62
7
 10
2933.531
 20
-7192.392
 30
987.287
 70
    32
  0
VERTEX
  8
T42SSILL
 62
7
 10
2927.816
 20
-7192.017
 30
987.300
 70
    32
  0
VERTEX
  8
T42SSILL
 62
7
 10
2926.163
 20
-7189.396
 30
987.305
 70
    32
  0
VERTEX
  8
T42SSILL
 62
7
 10
2922.341
 20
-7187.727
 30
987.315
 70
    32
  0
VERTEX
  8
T42SSILL
 62
7
 10
2870.561
 20
-7115.420
 30
987.470
 70
    32
  0
VERTEX
  8
T42SSILL
 62
7
 10
2857.822
 20
-7102.536
 30
987.506
 70
    32
  0
VERTEX
  8
T42SSILL
 62
7
 10
2866.498
 20
-7052.562
 30
987.512
 70
    32
  0
VERTEX
  8
T42SSILL
 62
7
 10
2854.366
 20
-7036.678
 30
987.548
 70
    32
  0
VERTEX
  8
T42SSILL
 62
7
 10
2859.882
 20
-7024.292
 30
987.542
 70
    32
  0
VERTEX
  8
T42SSILL
 62
7
 10
2851.428
 20
-7010.163
 30
987.569
 70
    32
  0
VERTEX
  8
T42SSILL
 62
7
 10
2839.850
 20
-7014.069
 30
987.593
 70
    32
  0
VERTEX
  8
T42SSILL
 62
7
 10
2829.062
 20
-7002.623
 30
987.624
 70
    32
  0
VERTEX
  8
T42SSILL
 62
7
 10
2823.221
 20
-7006.757
 30
987.635
 70
    32
  0
VERTEX
  8
T42SSILL
 62
7
 10
2833.277
 20
-7021.498
 30
987.604
 70
    32
  0
VERTEX
  8
T42SSILL
 62
7
 10
2830.574
 20
-7024.113
 30
987.609
 70
    32
  0
VERTEX
  8
T42SSILL
 62
7
 10
2834.297
 20
-7031.846
 30
987.596
 70
    32
  0
VERTEX
  8
T42SSILL
 62
7
 10
2839.460
 20
-7028.286
 30
987.587
 70
    32
  0
VERTEX
  8
T42SSILL
 62
7
 10
2857.993
 20
-7053.920
 30
987.531
 70
    32
  0
VERTEX
  8
T42SSILL
 62
7
 10
2852.156
 20
-7094.318
 30
987.523
 70
    32
  0
VERTEX
  8
T42SSILL
 62
7
 10
2793.424
 20
-7011.315
 30
987.700
 70
    32
  0
VERTEX
  8
T42SSILL
 62
7
 10
2806.784
 20
-7010.151
 30
987.670
 70
    32
  0
VERTEX
  8
T42SSILL
 62
7
 10
2812.336
 20
-7007.932
 30
987.659
 70
    32
  0
VERTEX
  8
T42SSILL
 62
7
 10
2831.749
 20
-6991.114
 30
987.624
 70
    32
  0
VERTEX
  8
T42SSILL
 62
7
 10
2847.724
 20
-6972.267
 30
987.597
 70
    32
  0
VERTEX
  8
T42SSILL
 62
7
 10
2842.286
 20
-6964.535
 30
987.614
 70
    32
  0
VERTEX
  8
T42SSILL
 62
7
 10
2911.522
 20
-6915.404
 30
987.482
 70
    32
  0
VERTEX
  8
T42SSILL
 62
7
 10
2917.747
 20
-6923.343
 30
987.464
 70
    32
  0
VERTEX
  8
T42SSILL
 62
7
 10
2922.509
 20
-6922.313
 30
987.454
 70
    32
  0
VERTEX
  8
T42SSILL
 62
7
 10
2924.222
 20
-6917.484
 30
987.452
 70
    32
  0
VERTEX
  8
T42SSILL
 62
7
 10
2923.770
 20
-6905.779
 30
987.459
 70
    32
  0
VERTEX
  8
T42SSILL
 62
7
 10
2946.768
 20
-6889.492
 30
987.416
 70
    32
  0
VERTEX
  8
T42SSILL
 62
7
 10
2970.642
 20
-6908.868
 30
987.351
 70
    32
  0
VERTEX
  8
T42SSILL
 62
7
 10
2977.323
 20
-6900.506
 30
987.341
 70
    32
  0
VERTEX
  8
T42SSILL
 62
7
 10
2955.377
 20
-6883.771
 30
987.399
 70
    32
  0
VERTEX
  8
T42SSILL
 62
7
 10
2994.181
 20
-6859.364
 30
987.324
 70
    32
  0
VERTEX
  8
T42SSILL
 62
7
 10
3016.000
 20
-6843.000
 30
987.283
 70
    32
  0
VERTEX
  8
T42SSILL
 62
7
 10
3017.000
 20
-6849.000
 30
987.278
 70
    32
  0
VERTEX
  8
T42SSILL
 62
7
 10
3019.000
 20
-6850.000
 30
987.273
 70
    32
  0
VERTEX
  8
T42SSILL
 62
7
 10
3033.000
 20
-6846.000
 30
987.243
 70
    32
  0
VERTEX
  8
T42SSILL
 62
7
 10
3042.000
 20
-6839.000
 30
987.226
 70
    32
  0
VERTEX
  8
T42SSILL
 62
7
 10
3047.000
 20
-6832.000
 30
987.219
 70
    32
  0
VERTEX
  8
T42SSILL
 62
7
 10
3047.000
 20
-6826.000
 30
987.222
 70
    32
  0
VERTEX
  8
T42SSILL
 62
7
 10
3044.000
 20
-6822.000
 30
987.231
 70
    32
  0
VERTEX
  8
T42SSILL
 62
7
 10
3056.000
 20
-6814.000
 30
987.208
 70
    32
  0
VERTEX
  8
T42SSILL
 62
7
 10
3068.000
 20
-6815.000
 30
987.180
 70
    32
  0
VERTEX
  8
T42SSILL
 62
7
 10
3102.000
 20
-6862.000
 30
987.078
 70
    32
  0
VERTEX
  8
T42SSILL
 62
7
 10
3094.000
 20
-6868.000
 30
987.093
 70
    32
  0
VERTEX
  8
T42SSILL
 62
7
 10
3100.000
 20
-6876.000
 30
987.075
 70
    32
  0
VERTEX
  8
T42SSILL
 62
7
 10
3114.139
 20
-6865.794
 30
987.049
 70
    32
  0
VERTEX
  8
T42SSILL
 62
7
 10
3070.000
 20
-6804.000
 30
987.181
 70
    32
  0
VERTEX
  8
T42SSILL
 62
7
 10
3085.000
 20
-6792.000
 30
987.153
 70
    32
  0
VERTEX
  8
T42SSILL
 62
7
 10
3095.000
 20
-6807.000
 30
987.123
 70
    32
  0
VERTEX
  8
T42SSILL
 62
7
 10
3108.000
 20
-6807.000
 30
987.093
 70
    32
  0
VERTEX
  8
T42SSILL
 62
7
 10
3112.000
 20
-6809.000
 30
987.083
 70
    32
  0
VERTEX
  8
T42SSILL
 62
7
 10
3129.000
 20
-6833.000
 30
987.032
 70
    32
  0
VERTEX
  8
T42SSILL
 62
7
 10
3137.000
 20
-6853.000
 30
987.003
 70
    32
  0
VERTEX
  8
T42SSILL
 62
7
 10
3149.000
 20
-6861.000
 30
986.972
 70
    32
  0
VERTEX
  8
T42SSILL
 62
7
 10
3166.000
 20
-6868.000
 30
986.930
 70
    32
  0
VERTEX
  8
T42SSILL
 62
7
 10
3177.137
 20
-6888.249
 30
986.894
 70
    32
  0
VERTEX
  8
T42SSILL
 62
7
 10
3184.000
 20
-6885.000
 30
986.880
 70
    32
  0
VERTEX
  8
T42SSILL
 62
7
 10
3174.000
 20
-6869.000
 30
986.911
 70
    32
  0
VERTEX
  8
T42SSILL
 62
7
 10
3184.000
 20
-6869.000
 30
986.888
 70
    32
  0
VERTEX
  8
T42SSILL
 62
7
 10
3190.000
 20
-6871.000
 30
986.874
 70
    32
  0
VERTEX
  8
T42SSILL
 62
7
 10
3201.000
 20
-6870.000
 30
986.849
 70
    32
  0
VERTEX
  8
T42SSILL
 62
7
 10
3212.000
 20
-6872.000
 30
986.823
 70
    32
  0
VERTEX
  8
T42SSILL
 62
7
 10
3220.000
 20
-6871.000
 30
986.807
 70
    32
  0
VERTEX
  8
T42SSILL
 62
7
 10
3209.000
 20
-6856.000
 30
986.838
 70
    32
  0
VERTEX
  8
T42SSILL
 62
7
 10
3206.000
 20
-6854.000
 30
986.846
 70
    32
  0
VERTEX
  8
T42SSILL
 62
7
 10
3201.000
 20
-6836.000
 30
986.867
 70
    32
  0
VERTEX
  8
T42SSILL
 62
7
 10
3195.000
 20
-6829.000
 30
986.884
 70
    32
  0
VERTEX
  8
T42SSILL
 62
7
 10
3176.000
 20
-6816.000
 30
986.934
 70
    32
  0
VERTEX
  8
T42SSILL
 62
7
 10
3165.000
 20
-6805.000
 30
986.965
 70
    32
  0
VERTEX
  8
T42SSILL
 62
7
 10
3144.000
 20
-6777.000
 30
987.027
 70
    32
  0
VERTEX
  8
T42SSILL
 62
7
 10
3143.000
 20
-6772.000
 30
987.032
 70
    32
  0
VERTEX
  8
T42SSILL
 62
7
 10
3144.000
 20
-6768.000
 30
987.032
 70
    32
  0
VERTEX
  8
T42SSILL
 62
7
 10
3157.000
 20
-6752.000
 30
987.011
 70
    32
  0
VERTEX
  8
T42SSILL
 62
7
 10
3158.000
 20
-6739.000
 30
987.015
 70
    32
  0
VERTEX
  8
T42SSILL
 62
7
 10
3191.386
 20
-6714.452
 30
986.953
 70
    32
  0
VERTEX
  8
T42SSILL
 62
7
 10
3187.000
 20
-6709.000
 30
986.965
 70
    32
  0
VERTEX
  8
T42SSILL
 62
7
 10
3156.000
 20
-6731.000
 30
987.024
 70
    32
  0
VERTEX
  8
T42SSILL
 62
7
 10
3154.000
 20
-6726.000
 30
987.031
 70
    32
  0
VERTEX
  8
T42SSILL
 62
7
 10
3150.000
 20
-6725.000
 30
987.041
 70
    32
  0
VERTEX
  8
T42SSILL
 62
7
 10
3139.000
 20
-6728.000
 30
987.064
 70
    32
  0
VERTEX
  8
T42SSILL
 62
7
 10
3123.000
 20
-6736.000
 30
987.096
 70
    32
  0
VERTEX
  8
T42SSILL
 62
7
 10
3115.000
 20
-6734.000
 30
987.116
 70
    32
  0
VERTEX
  8
T42SSILL
 62
7
 10
3109.000
 20
-6729.000
 30
987.132
 70
    32
  0
VERTEX
  8
T42SSILL
 62
7
 10
3091.000
 20
-6697.000
 30
987.190
 70
    32
  0
VERTEX
  8
T42SSILL
 62
7
 10
3089.000
 20
-6691.000
 30
987.197
 70
    32
  0
VERTEX
  8
T42SSILL
 62
7
 10
3089.000
 20
-6677.000
 30
987.205
 70
    32
  0
VERTEX
  8
T42SSILL
 62
7
 10
3087.000
 20
-6672.000
 30
987.212
 70
    32
  0
VERTEX
  8
T42SSILL
 62
7
 10
3102.000
 20
-6662.000
 30
987.183
 70
    32
  0
VERTEX
  8
T42SSILL
 62
7
 10
3098.000
 20
-6656.000
 30
987.195
 70
    32
  0
VERTEX
  8
T42SSILL
 62
7
 10
3081.000
 20
-6668.000
 30
987.227
 70
    32
  0
VERTEX
  8
T42SSILL
 62
7
 10
3076.000
 20
-6666.000
 30
987.240
 70
    32
  0
VERTEX
  8
T42SSILL
 62
7
 10
3073.000
 20
-6660.000
 30
987.250
 70
    32
  0
VERTEX
  8
T42SSILL
 62
7
 10
3074.000
 20
-6655.000
 30
987.250
 70
    32
  0
VERTEX
  8
T42SSILL
 62
7
 10
3073.000
 20
-6646.000
 30
987.257
 70
    32
  0
VERTEX
  8
T42SSILL
 62
7
 10
3060.000
 20
-6641.000
 30
987.289
 70
    32
  0
VERTEX
  8
T42SSILL
 62
7
 10
3055.000
 20
-6637.000
 30
987.303
 70
    32
  0
VERTEX
  8
T42SSILL
 62
7
 10
3048.000
 20
-6641.000
 30
987.316
 70
    32
  0
VERTEX
  8
T42SSILL
 62
7
 10
3048.000
 20
-6646.000
 30
987.314
 70
    32
  0
VERTEX
  8
T42SSILL
 62
7
 10
3043.000
 20
-6649.000
 30
987.324
 70
    32
  0
VERTEX
  8
T42SSILL
 62
7
 10
3035.000
 20
-6663.000
 30
987.334
 70
    32
  0
VERTEX
  8
T42SSILL
 62
7
 10
3033.000
 20
-6675.000
 30
987.333
 70
    32
  0
VERTEX
  8
T42SSILL
 62
7
 10
3034.000
 20
-6679.000
 30
987.328
 70
    32
  0
VERTEX
  8
T42SSILL
 62
7
 10
3029.000
 20
-6695.000
 30
987.331
 70
    32
  0
VERTEX
  8
T42SSILL
 62
7
 10
3031.000
 20
-6705.000
 30
987.321
 70
    32
  0
VERTEX
  8
T42SSILL
 62
7
 10
3002.000
 20
-6725.000
 30
987.377
 70
    32
  0
VERTEX
  8
T42SSILL
 62
7
 10
3003.000
 20
-6713.000
 30
987.381
 70
    32
  0
VERTEX
  8
T42SSILL
 62
7
 10
2998.000
 20
-6699.000
 30
987.400
 70
    32
  0
VERTEX
  8
T42SSILL
 62
7
 10
2964.000
 20
-6650.000
 30
987.502
 70
    32
  0
VERTEX
  8
T42SSILL
 62
7
 10
2913.000
 20
-6441.000
 30
987.873
 70
    32
  0
VERTEX
  8
T42SSILL
 62
7
 10
2905.000
 20
-6443.000
 30
987.870
 70
    32
  0
VERTEX
  8
T42SSILL
 62
7
 10
2958.000
 20
-6654.000
 30
987.514
 70
    32
  0
VERTEX
  8
T42SSILL
 62
7
 10
2994.000
 20
-6706.000
 30
987.405
 70
    32
  0
VERTEX
  8
T42SSILL
 62
7
 10
2996.000
 20
-6715.000
 30
987.396
 70
    32
  0
VERTEX
  8
T42SSILL
 62
7
 10
2993.000
 20
-6730.000
 30
987.395
 70
    32
  0
VERTEX
  8
T42SSILL
 62
7
 10
2990.000
 20
-6734.000
 30
987.399
 70
    32
  0
VERTEX
  8
T42SSILL
 62
7
 10
2934.000
 20
-6775.000
 30
987.505
 70
    32
  0
VERTEX
  8
T42SSILL
 62
7
 10
2939.000
 20
-6766.000
 30
987.498
 70
    32
  0
VERTEX
  8
T42SSILL
 62
7
 10
2940.000
 20
-6750.000
 30
987.504
 70
    32
  0
VERTEX
  8
T42SSILL
 62
7
 10
2937.000
 20
-6736.000
 30
987.519
 70
    32
  0
VERTEX
  8
T42SSILL
 62
7
 10
2930.000
 20
-6720.000
 30
987.543
 70
    32
  0
VERTEX
  8
T42SSILL
 62
7
 10
2931.000
 20
-6716.000
 30
987.543
 70
    32
  0
VERTEX
  8
T42SSILL
 62
7
 10
2923.000
 20
-6708.000
 30
987.565
 70
    32
  0
VERTEX
  8
T42SSILL
 62
7
 10
2882.000
 20
-6652.000
 30
987.687
 70
    32
  0
VERTEX
  8
T42SSILL
 62
7
 10
2874.000
 20
-6658.000
 30
987.702
 70
    32
  0
VERTEX
  8
T42SSILL
 62
7
 10
2913.000
 20
-6711.000
 30
987.586
 70
    32
  0
VERTEX
  8
T42SSILL
 62
7
 10
2903.000
 20
-6721.000
 30
987.604
 70
    32
  0
VERTEX
  8
T42SSILL
 62
7
 10
2914.000
 20
-6732.000
 30
987.573
 70
    32
  0
VERTEX
  8
T42SSILL
 62
7
 10
2923.000
 20
-6730.000
 30
987.553
 70
    32
  0
VERTEX
  8
T42SSILL
 62
7
 10
2925.000
 20
-6731.000
 30
987.548
 70
    32
  0
VERTEX
  8
T42SSILL
 62
7
 10
2928.000
 20
-6734.000
 30
987.540
 70
    32
  0
VERTEX
  8
T42SSILL
 62
7
 10
2931.633
 20
-6744.083
 30
987.526
 70
    32
  0
VERTEX
  8
T42SSILL
 62
7
 10
2929.142
 20
-6760.443
 30
987.524
 70
    32
  0
VERTEX
  8
T42SSILL
 62
7
 10
2926.418
 20
-6768.008
 30
987.526
 70
    32
  0
VERTEX
  8
T42SSILL
 62
7
 10
2912.048
 20
-6789.182
 30
987.547
 70
    32
  0
VERTEX
  8
T42SSILL
 62
7
 10
2876.177
 20
-6814.344
 30
987.615
 70
    32
  0
VERTEX
  8
T42SSILL
 62
7
 10
2869.711
 20
-6809.789
 30
987.632
 70
    32
  0
VERTEX
  8
T42SSILL
 62
7
 10
2856.552
 20
-6808.133
 30
987.663
 70
    32
  0
VERTEX
  8
T42SSILL
 62
7
 10
2850.073
 20
-6804.338
 30
987.680
 70
    32
  0
VERTEX
  8
T42SSILL
 62
7
 10
2837.690
 20
-6808.477
 30
987.706
 70
    32
  0
VERTEX
  8
T42SSILL
 62
7
 10
2710.042
 20
-6876.531
 30
987.960
 70
    32
  0
VERTEX
  8
T42SSILL
 62
7
 10
2698.231
 20
-6879.632
 30
987.985
 70
    32
  0
VERTEX
  8
T42SSILL
 62
7
 10
2690.898
 20
-6869.774
 30
988.007
 70
    32
  0
VERTEX
  8
T42SSILL
 62
7
 10
2687.318
 20
-6860.225
 30
988.020
 70
    32
  0
VERTEX
  8
T42SSILL
 62
7
 10
2686.960
 20
-6851.458
 30
988.025
 70
    32
  0
VERTEX
  8
T42SSILL
 62
7
 10
2690.412
 20
-6840.280
 30
988.023
 70
    32
  0
VERTEX
  8
T42SSILL
 62
7
 10
2693.537
 20
-6836.409
 30
988.018
 70
    32
  0
VERTEX
  8
T42SSILL
 62
7
 10
2700.168
 20
-6845.249
 30
987.999
 70
    32
  0
VERTEX
  8
T42SSILL
 62
7
 10
2708.957
 20
-6844.768
 30
987.979
 70
    32
  0
VERTEX
  8
T42SSILL
 62
7
 10
2712.770
 20
-6852.011
 30
987.966
 70
    32
  0
VERTEX
  8
T42SSILL
 62
7
 10
2715.014
 20
-6852.931
 30
987.961
 70
    32
  0
VERTEX
  8
T42SSILL
 62
7
 10
2718.124
 20
-6851.216
 30
987.955
 70
    32
  0
VERTEX
  8
T42SSILL
 62
7
 10
2719.937
 20
-6849.644
 30
987.951
 70
    32
  0
VERTEX
  8
T42SSILL
 62
7
 10
2717.496
 20
-6837.701
 30
987.963
 70
    32
  0
VERTEX
  8
T42SSILL
 62
7
 10
2723.485
 20
-6832.069
 30
987.953
 70
    32
  0
VERTEX
  8
T42SSILL
 62
7
 10
2720.507
 20
-6823.393
 30
987.964
 70
    32
  0
VERTEX
  8
T42SSILL
 62
7
 10
2722.007
 20
-6815.921
 30
987.964
 70
    32
  0
VERTEX
  8
T42SSILL
 62
7
 10
2780.738
 20
-6773.495
 30
987.853
 70
    32
  0
VERTEX
  8
T42SSILL
 62
7
 10
2776.927
 20
-6767.968
 30
987.865
 70
    32
  0
VERTEX
  8
T42SSILL
 62
7
 10
2720.205
 20
-6808.794
 30
987.972
 70
    32
  0
VERTEX
  8
T42SSILL
 62
7
 10
2716.702
 20
-6805.737
 30
987.982
 70
    32
  0
VERTEX
  8
T42SSILL
 62
7
 10
2715.494
 20
-6800.561
 30
987.987
 70
    32
  0
VERTEX
  8
T42SSILL
 62
7
 10
2742.947
 20
-6777.663
 30
987.937
 70
    32
  0
VERTEX
  8
T42SSILL
 62
7
 10
2746.290
 20
-6770.530
 30
987.933
 70
    32
  0
VERTEX
  8
T42SSILL
 62
7
 10
2745.172
 20
-6767.975
 30
987.937
 70
    32
  0
VERTEX
  8
T42SSILL
 62
7
 10
2739.546
 20
-6759.193
 30
987.954
 70
    32
  0
VERTEX
  8
T42SSILL
 62
7
 10
2733.549
 20
-6754.851
 30
987.970
 70
    32
  0
VERTEX
  8
T42SSILL
 62
7
 10
2729.607
 20
-6756.604
 30
987.978
 70
    32
  0
VERTEX
  8
T42SSILL
 62
7
 10
2712.980
 20
-6771.394
 30
988.008
 70
    32
  0
VERTEX
  8
T42SSILL
 62
7
 10
2703.331
 20
-6774.828
 30
988.028
 70
    32
  0
VERTEX
  8
T42SSILL
 62
7
 10
2685.223
 20
-6760.703
 30
988.077
 70
    32
  0
VERTEX
  8
T42SSILL
 62
7
 10
2678.396
 20
-6731.505
 30
988.108
 70
    32
  0
VERTEX
  8
T42SSILL
 62
7
 10
2702.839
 20
-6713.579
 30
988.062
 70
    32
  0
VERTEX
  8
T42SSILL
 62
7
 10
2708.445
 20
-6717.975
 30
988.047
 70
    32
  0
VERTEX
  8
T42SSILL
 62
7
 10
2711.799
 20
-6725.641
 30
988.035
 70
    32
  0
VERTEX
  8
T42SSILL
 62
7
 10
2723.965
 20
-6735.816
 30
988.002
 70
    32
  0
VERTEX
  8
T42SSILL
 62
7
 10
2728.892
 20
-6735.959
 30
987.991
 70
    32
  0
VERTEX
  8
T42SSILL
 62
7
 10
2736.577
 20
-6719.716
 30
987.982
 70
    32
  0
VERTEX
  8
T42SSILL
 62
7
 10
2731.437
 20
-6693.432
 30
988.007
 70
    32
  0
VERTEX
  8
T42SSILL
 62
7
 10
2741.438
 20
-6684.283
 30
987.989
 70
    32
  0
VERTEX
  8
T42SSILL
 62
7
 10
2747.530
 20
-6671.177
 30
987.982
 70
    32
  0
VERTEX
  8
T42SSILL
 62
7
 10
2744.481
 20
-6344.252
 30
988.571
 70
    32
  0
VERTEX
  8
T42SSILL
 62
7
 10
2746.406
 20
-6342.232
 30
988.581
 70
    32
  0
VERTEX
  8
T42SSILL
 62
7
 10
2747.392
 20
-6332.640
 30
988.614
 70
    32
  0
VERTEX
  8
T42SSILL
 62
7
 10
2752.011
 20
-6324.801
 30
988.524
 70
    32
  0
VERTEX
  8
T42SSILL
 62
7
 10
2753.325
 20
-6320.397
 30
988.481
 70
    32
  0
VERTEX
  8
T42SSILL
 62
7
 10
2752.540
 20
-6317.159
 30
988.461
 70
    32
  0
VERTEX
  8
T42SSILL
 62
7
 10
2754.973
 20
-6313.260
 30
988.416
 70
    32
  0
VERTEX
  8
T42SSILL
 62
7
 10
2744.743
 20
-6302.535
 30
988.398
 70
    32
  0
VERTEX
  8
T42SSILL
 62
7
 10
2744.290
 20
-6278.567
 30
988.216
 70
    32
  0
VERTEX
  8
T42SSILL
 62
7
 10
2736.411
 20
-6278.314
 30
988.264
 70
    32
  0
VERTEX
  8
T42SSILL
 62
7
 10
2736.991
 20
-6295.903
 30
988.396
 70
    32
  0
VERTEX
  8
T42SSILL
 62
7
 10
2731.900
 20
-6303.535
 30
988.487
 70
    32
  0
VERTEX
  8
T42SSILL
 62
7
 10
2736.881
 20
-6309.319
 30
988.500
 70
    32
  0
VERTEX
  8
T42SSILL
 62
7
 10
2740.353
 20
-6638.358
 30
988.016
 70
    32
  0
VERTEX
  8
T42SSILL
 62
7
 10
2734.458
 20
-6635.877
 30
988.031
 70
    32
  0
VERTEX
  8
T42SSILL
 62
7
 10
2721.927
 20
-6618.015
 30
988.068
 70
    32
  0
VERTEX
  8
T42SSILL
 62
7
 10
2715.954
 20
-6621.489
 30
988.080
 70
    32
  0
VERTEX
  8
T42SSILL
 62
7
 10
2721.537
 20
-6629.120
 30
988.063
 70
    32
  0
VERTEX
  8
T42SSILL
 62
7
 10
2717.194
 20
-6633.403
 30
988.071
 70
    32
  0
VERTEX
  8
T42SSILL
 62
7
 10
2704.574
 20
-6627.082
 30
988.103
 70
    32
  0
VERTEX
  8
T42SSILL
 62
7
 10
2686.045
 20
-6611.102
 30
988.153
 70
    32
  0
VERTEX
  8
T42SSILL
 62
7
 10
2679.639
 20
-6604.146
 30
988.172
 70
    32
  0
VERTEX
  8
T42SSILL
 62
7
 10
2679.156
 20
-6596.753
 30
988.177
 70
    32
  0
VERTEX
  8
T42SSILL
 62
7
 10
2675.699
 20
-6593.451
 30
988.186
 70
    32
  0
VERTEX
  8
T42SSILL
 62
7
 10
2662.685
 20
-6588.582
 30
988.218
 70
    32
  0
VERTEX
  8
T42SSILL
 62
7
 10
2661.231
 20
-6586.473
 30
988.223
 70
    32
  0
VERTEX
  8
T42SSILL
 62
7
 10
2653.881
 20
-6591.219
 30
988.237
 70
    32
  0
VERTEX
  8
T42SSILL
 62
7
 10
2669.356
 20
-6606.193
 30
988.194
 70
    32
  0
VERTEX
  8
T42SSILL
 62
7
 10
2672.404
 20
-6613.104
 30
988.183
 70
    32
  0
VERTEX
  8
T42SSILL
 62
7
 10
2676.006
 20
-6622.530
 30
988.170
 70
    32
  0
VERTEX
  8
T42SSILL
 62
7
 10
2675.714
 20
-6632.066
 30
988.166
 70
    32
  0
VERTEX
  8
T42SSILL
 62
7
 10
2671.483
 20
-6641.958
 30
988.170
 70
    32
  0
VERTEX
  8
T42SSILL
 62
7
 10
2673.757
 20
-6647.901
 30
988.162
 70
    32
  0
VERTEX
  8
T42SSILL
 62
7
 10
2684.587
 20
-6663.610
 30
988.129
 70
    32
  0
VERTEX
  8
T42SSILL
 62
7
 10
2682.877
 20
-6670.154
 30
988.130
 70
    32
  0
VERTEX
  8
T42SSILL
 62
7
 10
2688.486
 20
-6673.154
 30
988.115
 70
    32
  0
VERTEX
  8
T42SSILL
 62
7
 10
2681.677
 20
-6681.174
 30
988.127
 70
    32
  0
VERTEX
  8
T42SSILL
 62
7
 10
2677.689
 20
-6689.396
 30
988.131
 70
    32
  0
VERTEX
  8
T42SSILL
 62
7
 10
2663.932
 20
-6696.521
 30
988.159
 70
    32
  0
VERTEX
  8
T42SSILL
 62
7
 10
2663.569
 20
-6710.934
 30
988.152
 70
    32
  0
VERTEX
  8
T42SSILL
 62
7
 10
2660.299
 20
-6711.794
 30
988.159
 70
    32
  0
VERTEX
  8
T42SSILL
 62
7
 10
2659.165
 20
-6717.619
 30
988.159
 70
    32
  0
VERTEX
  8
T42SSILL
 62
7
 10
2661.320
 20
-6733.193
 30
988.146
 70
    32
  0
VERTEX
  8
T42SSILL
 62
7
 10
2633.015
 20
-6754.855
 30
988.198
 70
    32
  0
VERTEX
  8
T42SSILL
 62
7
 10
2626.675
 20
-6763.089
 30
988.208
 70
    32
  0
VERTEX
  8
T42SSILL
 62
7
 10
2623.662
 20
-6775.681
 30
988.209
 70
    32
  0
VERTEX
  8
T42SSILL
 62
7
 10
2593.887
 20
-6733.120
 30
988.299
 70
    32
  0
VERTEX
  8
T42SSILL
 62
7
 10
2601.982
 20
-6727.432
 30
988.283
 70
    32
  0
VERTEX
  8
T42SSILL
 62
7
 10
2597.670
 20
-6721.177
 30
988.296
 70
    32
  0
VERTEX
  8
T42SSILL
 62
7
 10
2589.297
 20
-6726.307
 30
988.313
 70
    32
  0
VERTEX
  8
T42SSILL
 62
7
 10
2441.981
 20
-6520.583
 30
988.755
 70
    32
  0
VERTEX
  8
T42SSILL
 62
7
 10
2438.687
 20
-6513.626
 30
988.766
 70
    32
  0
VERTEX
  8
T42SSILL
 62
7
 10
2439.473
 20
-6499.672
 30
988.771
 70
    32
  0
VERTEX
  8
T42SSILL
 62
7
 10
2447.133
 20
-6488.061
 30
988.760
 70
    32
  0
VERTEX
  8
T42SSILL
 62
7
 10
2500.387
 20
-6450.092
 30
988.659
 70
    32
  0
VERTEX
  8
T42SSILL
 62
7
 10
2502.297
 20
-6452.601
 30
988.654
 70
    32
  0
VERTEX
  8
T42SSILL
 62
7
 10
2508.228
 20
-6447.975
 30
988.642
 70
    32
  0
VERTEX
  8
T42SSILL
 62
7
 10
2511.247
 20
-6442.397
 30
988.639
 70
    32
  0
VERTEX
  8
T42SSILL
 62
7
 10
2558.606
 20
-6408.841
 30
988.549
 70
    32
  0
VERTEX
  8
T42SSILL
 62
7
 10
2552.780
 20
-6402.880
 30
988.565
 70
    32
  0
VERTEX
  8
T42SSILL
 62
7
 10
2506.709
 20
-6435.892
 30
988.652
 70
    32
  0
VERTEX
  8
T42SSILL
 62
7
 10
2502.130
 20
-6429.326
 30
988.666
 70
    32
  0
VERTEX
  8
T42SSILL
 62
7
 10
2490.940
 20
-6437.685
 30
988.687
 70
    32
  0
VERTEX
  8
T42SSILL
 62
7
 10
2495.624
 20
-6443.836
 30
988.673
 70
    32
  0
VERTEX
  8
T42SSILL
 62
7
 10
2447.665
 20
-6478.251
 30
988.764
 70
    32
  0
VERTEX
  8
T42SSILL
 62
7
 10
2438.046
 20
-6486.708
 30
988.781
 70
    32
  0
VERTEX
  8
T42SSILL
 62
7
 10
2433.245
 20
-6496.241
 30
988.787
 70
    32
  0
VERTEX
  8
T42SSILL
 62
7
 10
2431.115
 20
-6505.757
 30
988.787
 70
    32
  0
VERTEX
  8
T42SSILL
 62
7
 10
2357.679
 20
-6402.205
 30
989.008
 70
    32
  0
VERTEX
  8
T42SSILL
 62
7
 10
2370.683
 20
-6406.437
 30
988.976
 70
    32
  0
VERTEX
  8
T42SSILL
 62
7
 10
2383.649
 20
-6406.724
 30
988.947
 70
    32
  0
VERTEX
  8
T42SSILL
 62
7
 10
2400.081
 20
-6403.013
 30
988.911
 70
    32
  0
VERTEX
  8
T42SSILL
 62
7
 10
2408.392
 20
-6398.570
 30
988.895
 70
    32
  0
VERTEX
  8
T42SSILL
 62
7
 10
2537.169
 20
-6307.098
 30
988.980
 70
    32
  0
VERTEX
  8
T42SSILL
 62
7
 10
2532.200
 20
-6299.580
 30
989.026
 70
    32
  0
VERTEX
  8
T42SSILL
 62
7
 10
2479.755
 20
-6338.207
 30
988.865
 70
    32
  0
VERTEX
  8
T42SSILL
 62
7
 10
2475.082
 20
-6330.807
 30
988.911
 70
    32
  0
VERTEX
  8
T42SSILL
 62
7
 10
2463.920
 20
-6339.361
 30
988.875
 70
    32
  0
VERTEX
  8
T42SSILL
 62
7
 10
2468.729
 20
-6346.024
 30
988.833
 70
    32
  0
VERTEX
  8
T42SSILL
 62
7
 10
2401.512
 20
-6394.194
 30
988.913
 70
    32
  0
VERTEX
  8
T42SSILL
 62
7
 10
2388.592
 20
-6398.488
 30
988.940
 70
    32
  0
VERTEX
  8
T42SSILL
 62
7
 10
2375.746
 20
-6399.620
 30
988.968
 70
    32
  0
VERTEX
  8
T42SSILL
 62
7
 10
2362.394
 20
-6396.594
 30
989.000
 70
    32
  0
VERTEX
  8
T42SSILL
 62
7
 10
2355.902
 20
-6393.559
 30
989.017
 70
    32
  0
VERTEX
  8
T42SSILL
 62
7
 10
2343.815
 20
-6383.653
 30
989.049
 70
    32
  0
VERTEX
  8
T42SSILL
 62
7
 10
2287.741
 20
-6304.504
 30
989.237
 70
    32
  0
VERTEX
  8
T42SSILL
 62
7
 10
2283.893
 20
-6295.033
 30
989.267
 70
    32
  0
VERTEX
  8
T42SSILL
 62
7
 10
2282.093
 20
-6286.509
 30
989.296
 70
    32
  0
VERTEX
  8
T42SSILL
 62
7
 10
2282.554
 20
-6270.527
 30
989.356
 70
    32
  0
VERTEX
  8
T42SSILL
 62
7
 10
2291.295
 20
-6251.302
 30
989.441
 70
    32
  0
VERTEX
  8
T42SSILL
 62
7
 10
2301.228
 20
-6242.522
 30
989.489
 70
    32
  0
VERTEX
  8
T42SSILL
 62
7
 10
2350.447
 20
-6207.621
 30
989.691
 70
    32
  0
VERTEX
  8
T42SSILL
 62
7
 10
2365.247
 20
-6204.498
 30
989.714
 70
    32
  0
VERTEX
  8
T42SSILL
 62
7
 10
2378.416
 20
-6206.791
 30
989.688
 70
    32
  0
VERTEX
  8
T42SSILL
 62
7
 10
2383.027
 20
-6211.767
 30
989.656
 70
    32
  0
VERTEX
  8
T42SSILL
 62
7
 10
2383.386
 20
-6214.310
 30
989.642
 70
    32
  0
VERTEX
  8
T42SSILL
 62
7
 10
2379.001
 20
-6222.268
 30
989.602
 70
    32
  0
VERTEX
  8
T42SSILL
 62
7
 10
2384.215
 20
-6229.561
 30
989.557
 70
    32
  0
VERTEX
  8
T42SSILL
 62
7
 10
2389.128
 20
-6229.784
 30
989.551
 70
    32
  0
VERTEX
  8
T42SSILL
 62
7
 10
2392.777
 20
-6225.752
 30
989.570
 70
    32
  0
VERTEX
  8
T42SSILL
 62
7
 10
2402.008
 20
-6222.178
 30
989.580
 70
    32
  0
VERTEX
  8
T42SSILL
 62
7
 10
2402.044
 20
-6215.071
 30
989.619
 70
    32
  0
VERTEX
  8
T42SSILL
 62
7
 10
2406.688
 20
-6211.225
 30
989.636
 70
    32
  0
VERTEX
  8
T42SSILL
 62
7
 10
2457.735
 20
-6219.591
 30
989.539
 70
    32
  0
VERTEX
  8
T42SSILL
 62
7
 10
2458.729
 20
-6211.073
 30
989.512
 70
    32
  0
VERTEX
  8
T42SSILL
 62
7
 10
2365.150
 20
-6196.732
 30
989.753
 70
    32
  0
VERTEX
  8
T42SSILL
 62
7
 10
2431.808
 20
-6148.841
 30
989.203
 70
    32
  0
VERTEX
  8
T42SSILL
 62
7
 10
2437.252
 20
-6150.667
 30
989.182
 70
    32
  0
VERTEX
  8
T42SSILL
 62
7
 10
2442.921
 20
-6157.488
 30
989.199
 70
    32
  0
VERTEX
  8
T42SSILL
 62
7
 10
2453.371
 20
-6164.553
 30
989.187
 70
    32
  0
VERTEX
  8
T42SSILL
 62
7
 10
2460.440
 20
-6163.757
 30
989.136
 70
    32
  0
VERTEX
  8
T42SSILL
 62
7
 10
2469.643
 20
-6156.875
 30
989.024
 70
    32
  0
VERTEX
  8
T42SSILL
 62
7
 10
2471.758
 20
-6152.627
 30
988.978
 70
    32
  0
VERTEX
  8
T42SSILL
 62
7
 10
2465.635
 20
-6143.436
 30
988.946
 70
    32
  0
VERTEX
  8
T42SSILL
 62
7
 10
2462.821
 20
-6131.107
 30
988.869
 70
    32
  0
VERTEX
  8
T42SSILL
 62
7
 10
2468.682
 20
-6127.523
 30
988.804
 70
    32
  0
VERTEX
  8
T42SSILL
 62
7
 10
2473.826
 20
-6131.351
 30
988.800
 70
    32
  0
VERTEX
  8
T42SSILL
 62
7
 10
2482.305
 20
-6123.574
 30
988.686
 70
    32
  0
VERTEX
  8
T42SSILL
 62
7
 10
2481.817
 20
-6112.751
 30
988.606
 70
    32
  0
VERTEX
  8
T42SSILL
 62
7
 10
2542.148
 20
-6069.223
 30
987.886
 70
    32
  0
VERTEX
  8
T42SSILL
 62
7
 10
2537.533
 20
-6063.929
 30
987.874
 70
    32
  0
VERTEX
  8
T42SSILL
 62
7
 10
2455.698
 20
-6122.176
 30
988.845
 70
    32
  0
VERTEX
  8
T42SSILL
 62
7
 10
2450.656
 20
-6117.820
 30
988.843
 70
    32
  0
VERTEX
  8
T42SSILL
 62
7
 10
2447.846
 20
-6112.033
 30
988.817
 70
    32
  0
VERTEX
  8
T42SSILL
 62
7
 10
2423.931
 20
-6090.109
 30
988.799
 70
    32
  0
VERTEX
  8
T42SSILL
 62
7
 10
2415.843
 20
-6086.781
 30
988.825
 70
    32
  0
VERTEX
  8
T42SSILL
 62
7
 10
2412.467
 20
-6087.176
 30
988.850
 70
    32
  0
VERTEX
  8
T42SSILL
 62
7
 10
2408.821
 20
-6092.158
 30
988.911
 70
    32
  0
VERTEX
  8
T42SSILL
 62
7
 10
2395.492
 20
-6100.061
 30
989.057
 70
    32
  0
VERTEX
  8
T42SSILL
 62
7
 10
2393.100
 20
-6106.861
 30
989.125
 70
    32
  0
VERTEX
  8
T42SSILL
 62
7
 10
2303.247
 20
-5981.366
 30
988.728
 70
    32
  0
VERTEX
  8
T42SSILL
 62
7
 10
2471.492
 20
-5975.772
 30
987.614
 70
    32
  0
VERTEX
  8
T42SSILL
 62
7
 10
2471.759
 20
-5967.755
 30
987.550
 70
    32
  0
VERTEX
  8
T42SSILL
 62
7
 10
2428.582
 20
-5969.092
 30
987.835
 70
    32
  0
VERTEX
  8
T42SSILL
 62
7
 10
2417.036
 20
-5959.349
 30
987.834
 70
    32
  0
VERTEX
  8
T42SSILL
 62
7
 10
2406.196
 20
-5960.278
 30
987.910
 70
    32
  0
VERTEX
  8
T42SSILL
 62
7
 10
2403.412
 20
-5964.021
 30
987.956
 70
    32
  0
VERTEX
  8
T42SSILL
 62
7
 10
2401.746
 20
-5970.320
 30
988.016
 70
    32
  0
VERTEX
  8
T42SSILL
 62
7
 10
2367.235
 20
-5971.153
 30
988.242
 70
    32
  0
VERTEX
  8
T42SSILL
 62
7
 10
2362.258
 20
-5964.713
 30
988.224
 70
    32
  0
VERTEX
  8
T42SSILL
 62
7
 10
2365.640
 20
-5955.300
 30
988.130
 70
    32
  0
VERTEX
  8
T42SSILL
 62
7
 10
2366.867
 20
-5941.364
 30
988.014
 70
    32
  0
VERTEX
  8
T42SSILL
 62
7
 10
2364.062
 20
-5871.624
 30
987.516
 70
    32
  0
VERTEX
  8
T42SSILL
 62
7
 10
2368.263
 20
-5862.934
 30
987.444
 70
    32
  0
VERTEX
  8
T42SSILL
 62
7
 10
2364.319
 20
-5856.747
 30
987.428
 70
    32
  0
VERTEX
  8
T42SSILL
 62
7
 10
2362.270
 20
-5794.641
 30
987.077
 70
    32
  0
VERTEX
  8
T42SSILL
 62
7
 10
2355.091
 20
-5794.655
 30
987.113
 70
    32
  0
VERTEX
  8
T42SSILL
 62
7
 10
2357.138
 20
-5851.934
 30
987.436
 70
    32
  0
VERTEX
  8
T42SSILL
 62
7
 10
2355.390
 20
-5854.534
 30
987.460
 70
    32
  0
VERTEX
  8
T42SSILL
 62
7
 10
2345.127
 20
-5854.744
 30
987.513
 70
    32
  0
VERTEX
  8
T42SSILL
 62
7
 10
2343.030
 20
-5864.774
 30
987.582
 70
    32
  0
VERTEX
  8
T42SSILL
 62
7
 10
2344.539
 20
-5870.386
 30
987.608
 70
    32
  0
VERTEX
  8
T42SSILL
 62
7
 10
2355.850
 20
-5871.385
 30
987.556
 70
    32
  0
VERTEX
  8
T42SSILL
 62
7
 10
2358.141
 20
-5876.887
 30
987.576
 70
    32
  0
VERTEX
  8
T42SSILL
 62
7
 10
2359.690
 20
-5952.429
 30
988.145
 70
    32
  0
VERTEX
  8
T42SSILL
 62
7
 10
2352.986
 20
-5964.025
 30
988.277
 70
    32
  0
VERTEX
  8
T42SSILL
 62
7
 10
2341.405
 20
-5972.439
 30
988.416
 70
    32
  0
VERTEX
  8
T42SSILL
 62
7
 10
2281.746
 20
-5974.303
 30
988.631
 70
    32
  0
VERTEX
  8
T42SSILL
 62
7
 10
2265.064
 20
-5968.315
 30
988.566
 70
    32
  0
VERTEX
  8
T42SSILL
 62
7
 10
2259.480
 20
-5963.796
 30
988.536
 70
    32
  0
VERTEX
  8
T42SSILL
 62
7
 10
2255.426
 20
-5959.939
 30
988.510
 70
    32
  0
VERTEX
  8
T42SSILL
 62
7
 10
2243.402
 20
-5940.011
 30
988.392
 70
    32
  0
VERTEX
  8
T42SSILL
 62
7
 10
2244.381
 20
-5930.537
 30
988.344
 70
    32
  0
VERTEX
  8
T42SSILL
 62
7
 10
2253.131
 20
-5924.397
 30
988.326
 70
    32
  0
VERTEX
  8
T42SSILL
 62
7
 10
2248.086
 20
-5918.326
 30
988.286
 70
    32
  0
VERTEX
  8
T42SSILL
 62
7
 10
2243.660
 20
-5922.022
 30
988.299
 70
    32
  0
VERTEX
  8
T42SSILL
 62
7
 10
2242.000
 20
-5905.000
 30
988.209
 70
    32
  0
VERTEX
  8
T42SSILL
 62
7
 10
2234.777
 20
-5706.106
 30
987.204
 70
    32
  0
VERTEX
  8
T42SSILL
 62
7
 10
2244.394
 20
-5698.374
 30
987.110
 70
    32
  0
VERTEX
  8
T42SSILL
 62
7
 10
2239.471
 20
-5692.428
 30
987.100
 70
    32
  0
VERTEX
  8
T42SSILL
 62
7
 10
2234.435
 20
-5696.711
 30
987.151
 70
    32
  0
VERTEX
  8
T42SSILL
 62
7
 10
2226.452
 20
-5476.877
 30
985.912
 70
    32
  0
VERTEX
  8
T42SSILL
 62
7
 10
2235.141
 20
-5470.883
 30
985.834
 70
    32
  0
VERTEX
  8
T42SSILL
 62
7
 10
2230.297
 20
-5464.582
 30
985.821
 70
    32
  0
VERTEX
  8
T42SSILL
 62
7
 10
2226.119
 20
-5467.728
 30
985.861
 70
    32
  0
VERTEX
  8
T42SSILL
 62
7
 10
2199.000
 20
-4721.000
 30
983.304
 70
    32
  0
VERTEX
  8
T42SSILL
 62
7
 10
2177.000
 20
-4560.000
 30
983.356
 70
    32
  0
VERTEX
  8
T42SSILL
 62
7
 10
2172.000
 20
-4554.000
 30
983.353
 70
    32
  0
VERTEX
  8
T42SSILL
 62
7
 10
2156.000
 20
-4436.000
 30
983.394
 70
    32
  0
VERTEX
  8
T42SSILL
 62
7
 10
2149.000
 20
-4436.000
 30
983.389
 70
    32
  0
VERTEX
  8
T42SSILL
 62
7
 10
2165.000
 20
-4553.000
 30
983.349
 70
    32
  0
VERTEX
  8
T42SSILL
 62
7
 10
2163.366
 20
-4565.686
 30
983.342
 70
    32
  0
VERTEX
  8
T42SSILL
 62
7
 10
2155.425
 20
-4572.205
 30
983.332
 70
    32
  0
VERTEX
  8
T42SSILL
 62
7
 10
2159.350
 20
-4576.880
 30
983.333
 70
    32
  0
VERTEX
  8
T42SSILL
 62
7
 10
2164.328
 20
-4572.739
 30
983.339
 70
    32
  0
VERTEX
  8
T42SSILL
 62
7
 10
2166.000
 20
-4585.000
 30
983.335
 70
    32
  0
VERTEX
  8
T42SSILL
 62
7
 10
2174.000
 20
-4605.000
 30
983.332
 70
    32
  0
VERTEX
  8
T42SSILL
 62
7
 10
2176.000
 20
-4618.000
 30
983.328
 70
    32
  0
VERTEX
  8
T42SSILL
 62
7
 10
2169.000
 20
-4626.000
 30
983.319
 70
    32
  0
VERTEX
  8
T42SSILL
 62
7
 10
2184.000
 20
-4725.000
 30
983.286
 70
    32
  0
VERTEX
  8
T42SSILL
 62
7
 10
2186.000
 20
-4767.000
 30
983.268
 70
    32
  0
VERTEX
  8
T42SSILL
 62
7
 10
2192.000
 20
-4789.000
 30
983.263
 70
    32
  0
VERTEX
  8
T42SSILL
 62
7
 10
2194.000
 20
-4791.000
 30
983.264
 70
    32
  0
VERTEX
  8
T42SSILL
 62
7
 10
2195.000
 20
-4830.000
 30
983.261
 70
    32
  0
VERTEX
  8
T42SSILL
 62
7
 10
2188.000
 20
-4842.000
 30
983.303
 70
    32
  0
VERTEX
  8
T42SSILL
 62
7
 10
2188.000
 20
-4870.000
 30
983.398
 70
    32
  0
VERTEX
  8
T42SSILL
 62
7
 10
2196.000
 20
-4869.000
 30
983.395
 70
    32
  0
VERTEX
  8
T42SSILL
 62
7
 10
2197.000
 20
-4880.000
 30
983.435
 70
    32
  0
VERTEX
  8
T42SSILL
 62
7
 10
2189.000
 20
-4897.000
 30
983.496
 70
    32
  0
VERTEX
  8
T42SSILL
 62
7
 10
2190.000
 20
-4919.000
 30
983.576
 70
    32
  0
VERTEX
  8
T42SSILL
 62
7
 10
2198.000
 20
-4919.000
 30
983.577
 70
    32
  0
VERTEX
  8
T42SSILL
 62
7
 10
2203.000
 20
-5053.000
 30
984.065
 70
    32
  0
VERTEX
  8
T42SSILL
 62
7
 10
2202.000
 20
-5058.000
 30
984.083
 70
    32
  0
VERTEX
  8
T42SSILL
 62
7
 10
2209.000
 20
-5211.000
 30
984.609
 70
    32
  0
VERTEX
  8
T42SSILL
 62
7
 10
2206.000
 20
-5214.000
 30
984.611
 70
    32
  0
VERTEX
  8
T42SSILL
 62
7
 10
2209.000
 20
-5218.000
 30
984.614
 70
    32
  0
VERTEX
  8
T42SSILL
 62
7
 10
2214.000
 20
-5351.000
 30
985.106
 70
    32
  0
VERTEX
  8
T42SSILL
 62
7
 10
2212.000
 20
-5355.000
 30
985.145
 70
    32
  0
VERTEX
  8
T42SSILL
 62
7
 10
2214.000
 20
-5358.000
 30
985.165
 70
    32
  0
VERTEX
  8
T42SSILL
 62
7
 10
2217.921
 20
-5473.657
 30
985.915
 70
    32
  0
VERTEX
  8
T42SSILL
 62
7
 10
2207.392
 20
-5480.988
 30
985.954
 70
    32
  0
VERTEX
  8
T42SSILL
 62
7
 10
2211.243
 20
-5486.435
 30
985.985
 70
    32
  0
VERTEX
  8
T42SSILL
 62
7
 10
2214.728
 20
-5484.408
 30
985.974
 70
    32
  0
VERTEX
  8
T42SSILL
 62
7
 10
2208.000
 20
-5492.000
 30
986.016
 70
    32
  0
VERTEX
  8
T42SSILL
 62
7
 10
2207.000
 20
-5510.000
 30
986.117
 70
    32
  0
VERTEX
  8
T42SSILL
 62
7
 10
2199.000
 20
-5520.000
 30
986.171
 70
    32
  0
VERTEX
  8
T42SSILL
 62
7
 10
2206.000
 20
-5531.000
 30
986.235
 70
    32
  0
VERTEX
  8
T42SSILL
 62
7
 10
2209.000
 20
-5552.000
 30
986.354
 70
    32
  0
VERTEX
  8
T42SSILL
 62
7
 10
2221.000
 20
-5571.000
 30
986.463
 70
    32
  0
VERTEX
  8
T42SSILL
 62
7
 10
2225.000
 20
-5648.000
 30
986.897
 70
    32
  0
VERTEX
  8
T42SSILL
 62
7
 10
2223.000
 20
-5649.000
 30
986.903
 70
    32
  0
VERTEX
  8
T42SSILL
 62
7
 10
2223.000
 20
-5652.000
 30
986.920
 70
    32
  0
VERTEX
  8
T42SSILL
 62
7
 10
2225.000
 20
-5654.000
 30
986.931
 70
    32
  0
VERTEX
  8
T42SSILL
 62
7
 10
2226.689
 20
-5701.844
 30
987.201
 70
    32
  0
VERTEX
  8
T42SSILL
 62
7
 10
2215.203
 20
-5710.546
 30
987.247
 70
    32
  0
VERTEX
  8
T42SSILL
 62
7
 10
2219.700
 20
-5717.033
 30
987.285
 70
    32
  0
VERTEX
  8
T42SSILL
 62
7
 10
2227.040
 20
-5711.814
 30
987.257
 70
    32
  0
VERTEX
  8
T42SSILL
 62
7
 10
2228.000
 20
-5739.000
 30
987.410
 70
    32
  0
VERTEX
  8
T42SSILL
 62
7
 10
2225.000
 20
-5745.000
 30
987.443
 70
    32
  0
VERTEX
  8
T42SSILL
 62
7
 10
2216.000
 20
-5756.000
 30
987.503
 70
    32
  0
VERTEX
  8
T42SSILL
 62
7
 10
2206.000
 20
-5760.000
 30
987.524
 70
    32
  0
VERTEX
  8
T42SSILL
 62
7
 10
2195.000
 20
-5746.000
 30
987.443
 70
    32
  0
VERTEX
  8
T42SSILL
 62
7
 10
2191.000
 20
-5745.000
 30
987.436
 70
    32
  0
VERTEX
  8
T42SSILL
 62
7
 10
2186.000
 20
-5741.000
 30
987.413
 70
    32
  0
VERTEX
  8
T42SSILL
 62
7
 10
2187.000
 20
-5705.000
 30
987.210
 70
    32
  0
VERTEX
  8
T42SSILL
 62
7
 10
2182.000
 20
-5702.000
 30
987.192
 70
    32
  0
VERTEX
  8
T42SSILL
 62
7
 10
2174.000
 20
-5682.000
 30
987.078
 70
    32
  0
VERTEX
  8
T42SSILL
 62
7
 10
2164.000
 20
-5646.000
 30
986.873
 70
    32
  0
VERTEX
  8
T42SSILL
 62
7
 10
2157.000
 20
-5629.000
 30
986.776
 70
    32
  0
VERTEX
  8
T42SSILL
 62
7
 10
2156.000
 20
-5618.000
 30
986.714
 70
    32
  0
VERTEX
  8
T42SSILL
 62
7
 10
2152.000
 20
-5609.000
 30
986.662
 70
    32
  0
VERTEX
  8
T42SSILL
 62
7
 10
2145.406
 20
-5609.942
 30
986.666
 70
    32
  0
VERTEX
  8
T42SSILL
 62
7
 10
2149.795
 20
-5620.418
 30
986.726
 70
    32
  0
VERTEX
  8
T42SSILL
 62
7
 10
2153.971
 20
-5644.100
 30
986.860
 70
    32
  0
VERTEX
  8
T42SSILL
 62
7
 10
2160.316
 20
-5656.882
 30
986.934
 70
    32
  0
VERTEX
  8
T42SSILL
 62
7
 10
2166.987
 20
-5684.726
 30
987.092
 70
    32
  0
VERTEX
  8
T42SSILL
 62
7
 10
2172.641
 20
-5701.228
 30
987.186
 70
    32
  0
VERTEX
  8
T42SSILL
 62
7
 10
2173.503
 20
-5722.974
 30
987.308
 70
    32
  0
VERTEX
  8
T42SSILL
 62
7
 10
2170.803
 20
-5730.540
 30
987.350
 70
    32
  0
VERTEX
  8
T42SSILL
 62
7
 10
2170.950
 20
-5739.085
 30
987.399
 70
    32
  0
VERTEX
  8
T42SSILL
 62
7
 10
2161.924
 20
-5741.008
 30
987.408
 70
    32
  0
VERTEX
  8
T42SSILL
 62
7
 10
2159.386
 20
-5748.041
 30
987.447
 70
    32
  0
VERTEX
  8
T42SSILL
 62
7
 10
2149.287
 20
-5755.810
 30
987.488
 70
    32
  0
VERTEX
  8
T42SSILL
 62
7
 10
2146.350
 20
-5761.179
 30
987.518
 70
    32
  0
VERTEX
  8
T42SSILL
 62
7
 10
2115.322
 20
-5761.945
 30
987.515
 70
    32
  0
VERTEX
  8
T42SSILL
 62
7
 10
2115.274
 20
-5768.908
 30
987.555
 70
    32
  0
VERTEX
  8
T42SSILL
 62
7
 10
2153.144
 20
-5767.867
 30
987.557
 70
    32
  0
VERTEX
  8
T42SSILL
 62
7
 10
2163.766
 20
-5769.514
 30
987.568
 70
    32
  0
VERTEX
  8
T42SSILL
 62
7
 10
2162.354
 20
-5779.072
 30
987.622
 70
    32
  0
VERTEX
  8
T42SSILL
 62
7
 10
2168.773
 20
-5788.149
 30
987.674
 70
    32
  0
VERTEX
  8
T42SSILL
 62
7
 10
2169.566
 20
-5804.168
 30
987.752
 70
    32
  0
VERTEX
  8
T42SSILL
 62
7
 10
2176.034
 20
-5840.656
 30
987.909
 70
    32
  0
VERTEX
  8
T42SSILL
 62
7
 10
2182.855
 20
-5838.705
 30
987.902
 70
    32
  0
VERTEX
  8
T42SSILL
 62
7
 10
2181.383
 20
-5830.020
 30
987.864
 70
    32
  0
VERTEX
  8
T42SSILL
 62
7
 10
2183.072
 20
-5824.157
 30
987.839
 70
    32
  0
VERTEX
  8
T42SSILL
 62
7
 10
2185.392
 20
-5821.978
 30
987.830
 70
    32
  0
VERTEX
  8
T42SSILL
 62
7
 10
2204.979
 20
-5816.327
 30
987.809
 70
    32
  0
VERTEX
  8
T42SSILL
 62
7
 10
2209.948
 20
-5823.946
 30
987.843
 70
    32
  0
VERTEX
  8
T42SSILL
 62
7
 10
2215.418
 20
-5817.715
 30
987.817
 70
    32
  0
VERTEX
  8
T42SSILL
 62
7
 10
2212.513
 20
-5811.449
 30
987.790
 70
    32
  0
VERTEX
  8
T42SSILL
 62
7
 10
2215.059
 20
-5804.680
 30
987.761
 70
    32
  0
VERTEX
  8
T42SSILL
 62
7
 10
2203.903
 20
-5780.397
 30
987.638
 70
    32
  0
VERTEX
  8
T42SSILL
 62
7
 10
2202.957
 20
-5768.436
 30
987.571
 70
    32
  0
VERTEX
  8
T42SSILL
 62
7
 10
2204.303
 20
-5766.108
 30
987.558
 70
    32
  0
VERTEX
  8
T42SSILL
 62
7
 10
2218.557
 20
-5762.014
 30
987.538
 70
    32
  0
VERTEX
  8
T42SSILL
 62
7
 10
2227.922
 20
-5753.207
 30
987.490
 70
    32
  0
VERTEX
  8
T42SSILL
 62
7
 10
2230.427
 20
-5805.844
 30
987.769
 70
    32
  0
VERTEX
  8
T42SSILL
 62
7
 10
2226.536
 20
-5808.595
 30
987.780
 70
    32
  0
VERTEX
  8
T42SSILL
 62
7
 10
2230.786
 20
-5815.706
 30
987.811
 70
    32
  0
VERTEX
  8
T42SSILL
 62
7
 10
2233.895
 20
-5906.313
 30
988.210
 70
    32
  0
VERTEX
  8
T42SSILL
 62
7
 10
2236.706
 20
-5927.031
 30
988.319
 70
    32
  0
VERTEX
  8
T42SSILL
 62
7
 10
2227.979
 20
-5933.048
 30
988.348
 70
    32
  0
VERTEX
  8
T42SSILL
 62
7
 10
2232.515
 20
-5939.470
 30
988.383
 70
    32
  0
VERTEX
  8
T42SSILL
 62
7
 10
2236.823
 20
-5936.070
 30
988.366
 70
    32
  0
VERTEX
  8
T42SSILL
 62
7
 10
2237.037
 20
-5952.876
 30
988.453
 70
    32
  0
VERTEX
  8
T42SSILL
 62
7
 10
2234.586
 20
-5960.682
 30
988.493
 70
    32
  0
VERTEX
  8
T42SSILL
 62
7
 10
2238.108
 20
-5965.012
 30
988.517
 70
    32
  0
VERTEX
  8
T42SSILL
 62
7
 10
2247.625
 20
-6261.884
 30
989.391
 70
    32
  0
VERTEX
  8
T42SSILL
 62
7
 10
2251.850
 20
-6267.233
 30
989.371
 70
    32
  0
VERTEX
  8
T42SSILL
 62
7
 10
2232.024
 20
-6281.118
 30
989.364
 70
    32
  0
VERTEX
  8
T42SSILL
 62
7
 10
2237.567
 20
-6286.201
 30
989.344
 70
    32
  0
VERTEX
  8
T42SSILL
 62
7
 10
2256.057
 20
-6273.024
 30
989.351
 70
    32
  0
VERTEX
  8
T42SSILL
 62
7
 10
2299.167
 20
-6333.214
 30
989.171
 70
    32
  0
VERTEX
  8
T42SSILL
 62
7
 10
2304.262
 20
-6353.521
 30
989.135
 70
    32
  0
VERTEX
  8
T42SSILL
 62
7
 10
2301.907
 20
-6361.153
 30
989.125
 70
    32
  0
VERTEX
  8
T42SSILL
 62
7
 10
2296.289
 20
-6365.455
 30
989.123
 70
    32
  0
VERTEX
  8
T42SSILL
 62
7
 10
2300.596
 20
-6374.503
 30
989.106
 70
    32
  0
VERTEX
  8
T42SSILL
 62
7
 10
2305.598
 20
-6379.423
 30
989.094
 70
    32
  0
VERTEX
  8
T42SSILL
 62
7
 10
2313.442
 20
-6377.956
 30
989.089
 70
    32
  0
VERTEX
  8
T42SSILL
 62
7
 10
2319.553
 20
-6373.986
 30
989.090
 70
    32
  0
VERTEX
  8
T42SSILL
 62
7
 10
2328.900
 20
-6382.563
 30
989.069
 70
    32
  0
VERTEX
  8
T42SSILL
 62
7
 10
2339.737
 20
-6389.254
 30
989.050
 70
    32
  0
VERTEX
  8
T42SSILL
 62
7
 10
2584.667
 20
-6731.108
 30
988.314
 70
    32
  0
VERTEX
  8
T42SSILL
 62
7
 10
2575.359
 20
-6737.526
 30
988.312
 70
    32
  0
VERTEX
  8
T42SSILL
 62
7
 10
2579.465
 20
-6743.171
 30
988.300
 70
    32
  0
VERTEX
  8
T42SSILL
 62
7
 10
2588.433
 20
-6736.881
 30
988.302
 70
    32
  0
VERTEX
  8
T42SSILL
 62
7
 10
2683.767
 20
-6869.842
 30
988.016
 70
    32
  0
VERTEX
  8
T42SSILL
 62
7
 10
2669.455
 20
-6871.611
 30
988.025
 70
    32
  0
VERTEX
  8
T42SSILL
 62
7
 10
2663.727
 20
-6870.339
 30
988.032
 70
    32
  0
SEQEND
  8
T42SSILL
  0
POLYLINE
  8
T42SSILL
 62
7
 66
     1
 70
     8
  0
VERTEX
  8
T42SSILL
 62
7
 10
3958.789
 20
-6934.386
 30
986.245
 70
    32
  0
VERTEX
  8
T42SSILL
 62
7
 10
3961.196
 20
-6928.254
 30
986.245
 70
    32
  0
VERTEX
  8
T42SSILL
 62
7
 10
3977.143
 20
-6917.043
 30
986.245
 70
    32
  0
VERTEX
  8
T42SSILL
 62
7
 10
3983.474
 20
-6916.610
 30
986.245
 70
    32
  0
SEQEND
  8
T42SSILL
  0
POLYLINE
  8
T42SSILL
 62
7
 66
     1
 70
     8
  0
VERTEX
  8
T42SSILL
 62
7
 10
3985.841
 20
-6924.695
 30
986.452
 70
    32
  0
VERTEX
  8
T42SSILL
 62
7
 10
3983.360
 20
-6928.252
 30
986.452
 70
    32
  0
VERTEX
  8
T42SSILL
 62
7
 10
3978.040
 20
-6933.352
 30
986.452
 70
    32
  0
VERTEX
  8
T42SSILL
 62
7
 10
3972.912
 20
-6936.654
 30
986.452
 70
    32
  0
VERTEX
  8
T42SSILL
 62
7
 10
3967.555
 20
-6940.679
 30
986.452
 70
    32
  0
VERTEX
  8
T42SSILL
 62
7
 10
3963.113
 20
-6941.057
 30
986.452
 70
    32
  0
SEQEND
  8
T42SSILL
  0
POLYLINE
  8
T42SSILL
 62
7
 66
     1
 70
     8
  0
VERTEX
  8
T42SSILL
 62
7
 10
3799.224
 20
-7108.628
 30
986.258
 70
    32
  0
VERTEX
  8
T42SSILL
 62
7
 10
3835.437
 20
-7158.784
 30
986.278
 70
    32
  0
VERTEX
  8
T42SSILL
 62
7
 10
3845.919
 20
-7162.376
 30
986.271
 70
    32
  0
VERTEX
  8
T42SSILL
 62
7
 10
3852.079
 20
-7162.145
 30
986.271
 70
    32
  0
VERTEX
  8
T42SSILL
 62
7
 10
3861.305
 20
-7159.683
 30
986.275
 70
    32
  0
VERTEX
  8
T42SSILL
 62
7
 10
3874.146
 20
-7151.097
 30
986.383
 70
    32
  0
VERTEX
  8
T42SSILL
 62
7
 10
3862.251
 20
-7122.773
 30
986.251
 70
    32
  0
VERTEX
  8
T42SSILL
 62
7
 10
3861.743
 20
-7108.741
 30
986.241
 70
    32
  0
VERTEX
  8
T42SSILL
 62
7
 10
3870.431
 20
-7106.889
 30
986.245
 70
    32
  0
VERTEX
  8
T42SSILL
 62
7
 10
3875.777
 20
-7099.396
 30
986.248
 70
    32
  0
VERTEX
  8
T42SSILL
 62
7
 10
3881.534
 20
-7097.714
 30
986.321
 70
    32
  0
VERTEX
  8
T42SSILL
 62
7
 10
3895.431
 20
-7088.031
 30
986.293
 70
    32
  0
VERTEX
  8
T42SSILL
 62
7
 10
3914.723
 20
-7078.566
 30
986.368
 70
    32
  0
VERTEX
  8
T42SSILL
 62
7
 10
3919.042
 20
-7078.804
 30
986.387
 70
    32
  0
VERTEX
  8
T42SSILL
 62
7
 10
3928.810
 20
-7084.128
 30
986.435
 70
    32
  0
VERTEX
  8
T42SSILL
 62
7
 10
3935.839
 20
-7096.030
 30
986.446
 70
    32
  0
VERTEX
  8
T42SSILL
 62
7
 10
3943.247
 20
-7101.109
 30
986.443
 70
    32
  0
VERTEX
  8
T42SSILL
 62
7
 10
3978.676
 20
-7075.749
 30
986.458
 70
    32
  0
VERTEX
  8
T42SSILL
 62
7
 10
3931.351
 20
-7070.387
 30
986.432
 70
    32
  0
VERTEX
  8
T42SSILL
 62
7
 10
3924.731
 20
-7071.934
 30
986.405
 70
    32
  0
VERTEX
  8
T42SSILL
 62
7
 10
3896.959
 20
-7084.736
 30
986.297
 70
    32
  0
VERTEX
  8
T42SSILL
 62
7
 10
3869.852
 20
-7091.709
 30
986.235
 70
    32
  0
VERTEX
  8
T42SSILL
 62
7
 10
3863.103
 20
-7093.019
 30
989.296
 70
    32
  0
SEQEND
  8
T42SSILL
  0
POLYLINE
  8
T42SSILL
 62
7
 66
     1
 70
     8
  0
VERTEX
  8
T42SSILL
 62
7
 10
3832.634
 20
-7098.964
 30
989.296
 70
    32
  0
VERTEX
  8
T42SSILL
 62
7
 10
3825.504
 20
-7100.326
 30
986.221
 70
    32
  0
VERTEX
  8
T42SSILL
 62
7
 10
3820.390
 20
-7103.940
 30
986.230
 70
    32
  0
VERTEX
  8
T42SSILL
 62
7
 10
3809.162
 20
-7108.297
 30
986.247
 70
    32
  0
VERTEX
  8
T42SSILL
 62
7
 10
3800.369
 20
-7108.808
 30
986.257
 70
    32
  0
VERTEX
  8
T42SSILL
 62
7
 10
3799.224
 20
-7108.628
 30
986.258
 70
    32
  0
SEQEND
  8
T42SSILL
  0
POLYLINE
  8
T42SSILL
 62
7
 66
     1
 70
     8
  0
VERTEX
  8
T42SSILL
 62
7
 10
3832.634
 20
-7098.964
 30
989.296
 70
    32
  0
VERTEX
  8
T42SSILL
 62
7
 10
3835.586
 20
-7099.460
 30
989.296
 70
    32
  0
VERTEX
  8
T42SSILL
 62
7
 10
3837.540
 20
-7100.565
 30
989.296
 70
    32
  0
VERTEX
  8
T42SSILL
 62
7
 10
3840.549
 20
-7107.586
 30
989.296
 70
    32
  0
VERTEX
  8
T42SSILL
 62
7
 10
3860.907
 20
-7099.231
 30
989.296
 70
    32
  0
VERTEX
  8
T42SSILL
 62
7
 10
3858.276
 20
-7094.608
 30
989.296
 70
    32
  0
VERTEX
  8
T42SSILL
 62
7
 10
3863.103
 20
-7093.019
 30
989.296
 70
    32
  0
SEQEND
  8
T42SSILL
  0
POLYLINE
  8
T42SSILL
 62
7
 66
     1
 70
     8
  0
VERTEX
  8
T42SSILL
 62
7
 10
3858.911
 20
-7067.476
 30
989.296
 70
    32
  0
VERTEX
  8
T42SSILL
 62
7
 10
3863.301
 20
-7064.731
 30
986.213
 70
    32
  0
VERTEX
  8
T42SSILL
 62
7
 10
3857.701
 20
-7056.590
 30
986.205
 70
    32
  0
VERTEX
  8
T42SSILL
 62
7
 10
3866.769
 20
-7050.315
 30
986.206
 70
    32
  0
VERTEX
  8
T42SSILL
 62
7
 10
3872.259
 20
-7058.754
 30
986.215
 70
    32
  0
VERTEX
  8
T42SSILL
 62
7
 10
3889.949
 20
-7046.238
 30
986.262
 70
    32
  0
SEQEND
  8
T42SSILL
  0
POLYLINE
  8
T42SSILL
 62
7
 66
     1
 70
     8
  0
VERTEX
  8
T42SSILL
 62
7
 10
3908.825
 20
-7032.883
 30
986.312
 70
    32
  0
VERTEX
  8
T42SSILL
 62
7
 10
3925.183
 20
-7021.310
 30
986.355
 70
    32
  0
VERTEX
  8
T42SSILL
 62
7
 10
3929.602
 20
-7028.129
 30
986.381
 70
    32
  0
VERTEX
  8
T42SSILL
 62
7
 10
3860.191
 20
-7076.479
 30
989.296
 70
    32
  0
SEQEND
  8
T42SSILL
  0
POLYLINE
  8
T42SSILL
 62
7
 66
     1
 70
     8
  0
VERTEX
  8
T42SSILL
 62
7
 10
3858.911
 20
-7067.476
 30
989.296
 70
    32
  0
VERTEX
  8
T42SSILL
 62
7
 10
3856.757
 20
-7067.026
 30
989.296
 70
    32
  0
VERTEX
  8
T42SSILL
 62
7
 10
3846.417
 20
-7060.235
 30
989.296
 70
    32
  0
VERTEX
  8
T42SSILL
 62
7
 10
3836.899
 20
-7047.358
 30
989.435
 70
    32
  0
VERTEX
  8
T42SSILL
 62
7
 10
3828.810
 20
-7048.628
 30
988.940
 70
    32
  0
VERTEX
  8
T42SSILL
 62
7
 10
3825.545
 20
-7047.568
 30
988.476
 70
    32
  0
VERTEX
  8
T42SSILL
 62
7
 10
3824.709
 20
-7043.875
 30
987.782
 70
    32
  0
VERTEX
  8
T42SSILL
 62
7
 10
3824.709
 20
-7043.875
 30
988.000
 70
    32
  0
VERTEX
  8
T42SSILL
 62
7
 10
3825.845
 20
-7040.190
 30
986.203
 70
    32
  0
VERTEX
  8
T42SSILL
 62
7
 10
3861.863
 20
-7012.461
 30
988.529
 70
    32
  0
VERTEX
  8
T42SSILL
 62
7
 10
3870.224
 20
-7014.915
 30
988.533
 70
    32
  0
VERTEX
  8
T42SSILL
 62
7
 10
3872.865
 20
-7019.441
 30
988.539
 70
    32
  0
VERTEX
  8
T42SSILL
 62
7
 10
3873.030
 20
-7021.371
 30
988.542
 70
    32
  0
VERTEX
  8
T42SSILL
 62
7
 10
3872.913
 20
-7031.016
 30
988.554
 70
    32
  0
VERTEX
  8
T42SSILL
 62
7
 10
3876.206
 20
-7035.154
 30
988.797
 70
    32
  0
VERTEX
  8
T42SSILL
 62
7
 10
3883.508
 20
-7031.995
 30
989.016
 70
    32
  0
VERTEX
  8
T42SSILL
 62
7
 10
3886.882
 20
-7035.051
 30
989.251
 70
    32
  0
VERTEX
  8
T42SSILL
 62
7
 10
3890.465
 20
-7041.032
 30
989.580
 70
    32
  0
VERTEX
  8
T42SSILL
 62
7
 10
3889.949
 20
-7046.238
 30
986.262
 70
    32
  0
SEQEND
  8
T42SSILL
  0
POLYLINE
  8
T42SSILL
 62
7
 66
     1
 70
     8
  0
VERTEX
  8
T42SSILL
 62
7
 10
3908.825
 20
-7032.883
 30
986.312
 70
    32
  0
VERTEX
  8
T42SSILL
 62
7
 10
3903.891
 20
-7031.626
 30
985.564
 70
    32
  0
VERTEX
  8
T42SSILL
 62
7
 10
3886.039
 20
-7017.691
 30
988.539
 70
    32
  0
VERTEX
  8
T42SSILL
 62
7
 10
3881.492
 20
-7008.330
 30
988.526
 70
    32
  0
VERTEX
  8
T42SSILL
 62
7
 10
3880.906
 20
-7000.883
 30
986.190
 70
    32
  0
VERTEX
  8
T42SSILL
 62
7
 10
3892.733
 20
-6992.379
 30
986.187
 70
    32
  0
VERTEX
  8
T42SSILL
 62
7
 10
3917.242
 20
-7024.929
 30
986.324
 70
    32
  0
VERTEX
  8
T42SSILL
 62
7
 10
3923.895
 20
-7020.591
 30
986.348
 70
    32
  0
VERTEX
  8
T42SSILL
 62
7
 10
3901.941
 20
-6991.467
 30
986.222
 70
    32
  0
VERTEX
  8
T42SSILL
 62
7
 10
3902.829
 20
-6984.455
 30
986.219
 70
    32
  0
VERTEX
  8
T42SSILL
 62
7
 10
3963.113
 20
-6941.057
 30
986.388
 70
    32
  0
SEQEND
  8
T42SSILL
  0
POLYLINE
  8
T42SSILL
 62
7
 66
     1
 70
     8
  0
VERTEX
  8
T42SSILL
 62
7
 10
3860.191
 20
-7076.479
 30
989.296
 70
    32
  0
VERTEX
  8
T42SSILL
 62
7
 10
3866.610
 20
-7083.412
 30
989.296
 70
    32
  0
VERTEX
  8
T42SSILL
 62
7
 10
3893.707
 20
-7077.722
 30
986.275
 70
    32
  0
VERTEX
  8
T42SSILL
 62
7
 10
3922.152
 20
-7063.447
 30
986.385
 70
    32
  0
VERTEX
  8
T42SSILL
 62
7
 10
3932.157
 20
-7062.054
 30
986.427
 70
    32
  0
VERTEX
  8
T42SSILL
 62
7
 10
3939.536
 20
-7062.899
 30
986.454
 70
    32
  0
VERTEX
  8
T42SSILL
 62
7
 10
3941.556
 20
-7057.283
 30
986.454
 70
    32
  0
VERTEX
  8
T42SSILL
 62
7
 10
3966.321
 20
-7059.979
 30
986.449
 70
    32
  0
VERTEX
  8
T42SSILL
 62
7
 10
3965.087
 20
-7067.424
 30
986.448
 70
    32
  0
VERTEX
  8
T42SSILL
 62
7
 10
3986.182
 20
-7070.175
 30
986.465
 70
    32
  0
VERTEX
  8
T42SSILL
 62
7
 10
3989.138
 20
-7068.241
 30
986.468
 70
    32
  0
VERTEX
  8
T42SSILL
 62
7
 10
3980.081
 20
-7059.998
 30
986.461
 70
    32
  0
VERTEX
  8
T42SSILL
 62
7
 10
3974.870
 20
-7051.791
 30
986.458
 70
    32
  0
VERTEX
  8
T42SSILL
 62
7
 10
3964.028
 20
-7041.247
 30
986.454
 70
    32
  0
VERTEX
  8
T42SSILL
 62
7
 10
3962.912
 20
-7027.877
 30
986.458
 70
    32
  0
VERTEX
  8
T42SSILL
 62
7
 10
3982.586
 20
-7027.626
 30
986.469
 70
    32
  0
VERTEX
  8
T42SSILL
 62
7
 10
4011.805
 20
-7052.173
 30
986.490
 70
    32
  0
VERTEX
  8
T42SSILL
 62
7
 10
4023.576
 20
-7044.366
 30
986.488
 70
    32
  0
VERTEX
  8
T42SSILL
 62
7
 10
4027.472
 20
-7030.837
 30
986.493
 70
    32
  0
VERTEX
  8
T42SSILL
 62
7
 10
4024.709
 20
-7017.902
 30
986.501
 70
    32
  0
VERTEX
  8
T42SSILL
 62
7
 10
4002.469
 20
-6986.310
 30
986.493
 70
    32
  0
VERTEX
  8
T42SSILL
 62
7
 10
3997.376
 20
-7015.875
 30
986.484
 70
    32
  0
VERTEX
  8
T42SSILL
 62
7
 10
3988.968
 20
-7015.102
 30
986.477
 70
    32
  0
VERTEX
  8
T42SSILL
 62
7
 10
4006.004
 20
-6910.180
 30
986.509
 70
    32
  0
VERTEX
  8
T42SSILL
 62
7
 10
3985.841
 20
-6924.695
 30
986.452
 70
    32
  0
SEQEND
  8
T42SSILL
  0
POLYLINE
  8
T42SSILL
 62
7
 66
     1
 70
     9
  0
VERTEX
  8
T42SSILL
 62
7
 10
3785.293
 20
-7084.126
 30
986.244
 70
    32
  0
VERTEX
  8
T42SSILL
 62
7
 10
3788.468
 20
-7093.822
 30
986.252
 70
    32
  0
VERTEX
  8
T42SSILL
 62
7
 10
3791.723
 20
-7098.298
 30
986.254
 70
    32
  0
VERTEX
  8
T42SSILL
 62
7
 10
3803.127
 20
-7100.909
 30
986.245
 70
    32
  0
VERTEX
  8
T42SSILL
 62
7
 10
3814.208
 20
-7099.495
 30
986.232
 70
    32
  0
VERTEX
  8
T42SSILL
 62
7
 10
3824.710
 20
-7092.058
 30
986.228
 70
    32
  0
VERTEX
  8
T42SSILL
 62
7
 10
3824.994
 20
-7091.857
 30
989.296
 70
    32
  0
VERTEX
  8
T42SSILL
 62
7
 10
3829.079
 20
-7087.768
 30
989.296
 70
    32
  0
VERTEX
  8
T42SSILL
 62
7
 10
3832.391
 20
-7084.239
 30
989.296
 70
    32
  0
VERTEX
  8
T42SSILL
 62
7
 10
3822.149
 20
-7068.712
 30
989.508
 70
    32
  0
VERTEX
  8
T42SSILL
 62
7
 10
3820.370
 20
-7060.281
 30
989.687
 70
    32
  0
VERTEX
  8
T42SSILL
 62
7
 10
3813.622
 20
-7056.563
 30
988.945
 70
    32
  0
VERTEX
  8
T42SSILL
 62
7
 10
3806.664
 20
-7054.002
 30
988.083
 70
    32
  0
VERTEX
  8
T42SSILL
 62
7
 10
3794.101
 20
-7062.798
 30
986.210
 70
    32
  0
VERTEX
  8
T42SSILL
 62
7
 10
3789.316
 20
-7068.415
 30
986.222
 70
    32
  0
VERTEX
  8
T42SSILL
 62
7
 10
3785.968
 20
-7078.164
 30
986.236
 70
    32
  0
SEQEND
  8
T42SSILL
  0
ENDSEC
  0
EOF
