999
********************************
999
*   DXF File - Entities Only   *
999
*        3D Data Format        *
999
*     Output from ENVISAGE     *
999
*     20-Dec-2007 15:29:33     *
999
********************************
  0
SECTION 
  2
HEADER
  9
$ACADVER
  1
AC1009
  9
$EXTMIN
 10
-290000.000
 20
-250000.000
 30
-4000.000
  9
$EXTMAX
 10
5000000.000
 20
600000.000
 30
6000.000
  0
ENDSEC
  0
SECTION
  2
ENTITIES
  0
POLYLINE
  8
T44SSILL
 62
13
 66
     1
 70
     9
  0
VERTEX
  8
T44SSILL
 62
13
 10
3788.989
 20
-7109.156
 30
837.604
 70
    32
  0
VERTEX
  8
T44SSILL
 62
13
 10
3724.870
 20
-7155.588
 30
837.567
 70
    32
  0
VERTEX
  8
T44SSILL
 62
13
 10
3835.339
 20
-7173.717
 30
837.532
 70
    32
  0
SEQEND
  8
T44SSILL
  0
POLYLINE
  8
T44SSILL
 62
13
 66
     1
 70
     9
  0
VERTEX
  8
T44SSILL
 62
13
 10
3827.594
 20
-7081.529
 30
837.626
 70
    32
  0
VERTEX
  8
T44SSILL
 62
13
 10
3797.629
 20
-7103.134
 30
837.609
 70
    32
  0
VERTEX
  8
T44SSILL
 62
13
 10
3796.816
 20
-7108.079
 30
837.604
 70
    32
  0
VERTEX
  8
T44SSILL
 62
13
 10
3813.106
 20
-7130.784
 30
837.579
 70
    32
  0
SEQEND
  8
T44SSILL
  0
POLYLINE
  8
T44SSILL
 62
13
 66
     1
 70
     9
  0
VERTEX
  8
T44SSILL
 62
13
 10
4200.163
 20
-7713.481
 30
837.168
 70
    32
  0
VERTEX
  8
T44SSILL
 62
13
 10
4196.447
 20
-7710.864
 30
837.167
 70
    32
  0
VERTEX
  8
T44SSILL
 62
13
 10
4184.319
 20
-7708.035
 30
837.162
 70
    32
  0
VERTEX
  8
T44SSILL
 62
13
 10
4181.766
 20
-7706.090
 30
837.161
 70
    32
  0
VERTEX
  8
T44SSILL
 62
13
 10
4178.500
 20
-7699.064
 30
837.159
 70
    32
  0
VERTEX
  8
T44SSILL
 62
13
 10
4173.750
 20
-7701.841
 30
837.157
 70
    32
  0
VERTEX
  8
T44SSILL
 62
13
 10
4172.626
 20
-7699.599
 30
837.157
 70
    32
  0
VERTEX
  8
T44SSILL
 62
13
 10
4158.850
 20
-7718.142
 30
837.153
 70
    32
  0
VERTEX
  8
T44SSILL
 62
13
 10
4146.442
 20
-7740.727
 30
837.150
 70
    32
  0
VERTEX
  8
T44SSILL
 62
13
 10
4143.157
 20
-7752.096
 30
837.150
 70
    32
  0
VERTEX
  8
T44SSILL
 62
13
 10
4152.875
 20
-7768.940
 30
837.154
 70
    32
  0
VERTEX
  8
T44SSILL
 62
13
 10
4193.428
 20
-7739.093
 30
837.168
 70
    32
  0
VERTEX
  8
T44SSILL
 62
13
 10
4198.564
 20
-7728.433
 30
837.169
 70
    32
  0
VERTEX
  8
T44SSILL
 62
13
 10
4199.529
 20
-7721.769
 30
837.169
 70
    32
  0
SEQEND
  8
T44SSILL
  0
POLYLINE
  8
T44SSILL
 62
13
 66
     1
 70
     9
  0
VERTEX
  8
T44SSILL
 62
13
 10
3758.493
 20
-7525.739
 30
837.253
 70
    32
  0
VERTEX
  8
T44SSILL
 62
13
 10
3739.079
 20
-7524.060
 30
837.260
 70
    32
  0
VERTEX
  8
T44SSILL
 62
13
 10
3740.105
 20
-7540.023
 30
837.258
 70
    32
  0
SEQEND
  8
T44SSILL
  0
POLYLINE
  8
T44SSILL
 62
13
 66
     1
 70
     9
  0
VERTEX
  8
T44SSILL
 62
13
 10
4322.802
 20
-7539.343
 30
837.160
 70
    32
  0
VERTEX
  8
T44SSILL
 62
13
 10
4204.274
 20
-7625.115
 30
837.163
 70
    32
  0
VERTEX
  8
T44SSILL
 62
13
 10
4193.893
 20
-7630.667
 30
837.160
 70
    32
  0
VERTEX
  8
T44SSILL
 62
13
 10
4185.706
 20
-7632.379
 30
837.157
 70
    32
  0
VERTEX
  8
T44SSILL
 62
13
 10
4172.286
 20
-7631.947
 30
837.152
 70
    32
  0
VERTEX
  8
T44SSILL
 62
13
 10
4214.986
 20
-7691.625
 30
837.172
 70
    32
  0
VERTEX
  8
T44SSILL
 62
13
 10
4220.760
 20
-7696.998
 30
837.175
 70
    32
  0
VERTEX
  8
T44SSILL
 62
13
 10
4233.130
 20
-7702.067
 30
837.180
 70
    32
  0
VERTEX
  8
T44SSILL
 62
13
 10
4241.649
 20
-7701.978
 30
837.183
 70
    32
  0
VERTEX
  8
T44SSILL
 62
13
 10
4249.007
 20
-7699.894
 30
837.185
 70
    32
  0
VERTEX
  8
T44SSILL
 62
13
 10
4381.310
 20
-7605.154
 30
837.199
 70
    32
  0
VERTEX
  8
T44SSILL
 62
13
 10
4358.012
 20
-7570.276
 30
837.179
 70
    32
  0
VERTEX
  8
T44SSILL
 62
13
 10
4333.267
 20
-7544.513
 30
837.164
 70
    32
  0
VERTEX
  8
T44SSILL
 62
13
 10
4328.191
 20
-7543.022
 30
837.162
 70
    32
  0
SEQEND
  8
T44SSILL
  0
POLYLINE
  8
T44SSILL
 62
13
 66
     1
 70
     9
  0
VERTEX
  8
T44SSILL
 62
13
 10
3792.882
 20
-7097.472
 30
837.615
 70
    32
  0
VERTEX
  8
T44SSILL
 62
13
 10
3774.125
 20
-7111.034
 30
837.605
 70
    32
  0
VERTEX
  8
T44SSILL
 62
13
 10
3780.594
 20
-7094.469
 30
837.620
 70
    32
  0
VERTEX
  8
T44SSILL
 62
13
 10
3790.936
 20
-7096.970
 30
837.616
 70
    32
  0
SEQEND
  8
T44SSILL
  0
POLYLINE
  8
T44SSILL
 62
13
 66
     1
 70
     9
  0
VERTEX
  8
T44SSILL
 62
13
 10
3975.547
 20
-7086.239
 30
837.599
 70
    32
  0
VERTEX
  8
T44SSILL
 62
13
 10
3957.934
 20
-7099.697
 30
837.588
 70
    32
  0
VERTEX
  8
T44SSILL
 62
13
 10
3974.713
 20
-7115.326
 30
837.570
 70
    32
  0
VERTEX
  8
T44SSILL
 62
13
 10
3979.024
 20
-7114.914
 30
837.570
 70
    32
  0
VERTEX
  8
T44SSILL
 62
13
 10
3983.109
 20
-7110.805
 30
837.573
 70
    32
  0
VERTEX
  8
T44SSILL
 62
13
 10
3983.732
 20
-7104.893
 30
837.579
 70
    32
  0
VERTEX
  8
T44SSILL
 62
13
 10
3975.719
 20
-7085.972
 30
837.600
 70
    32
  0
SEQEND
  8
T44SSILL
  0
POLYLINE
  8
T44SSILL
 62
13
 66
     1
 70
     9
  0
VERTEX
  8
T44SSILL
 62
13
 10
2944.117
 20
-7191.915
 30
839.527
 70
    32
  0
VERTEX
  8
T44SSILL
 62
13
 10
2972.034
 20
-7211.472
 30
839.286
 70
    32
  0
VERTEX
  8
T44SSILL
 62
13
 10
2993.962
 20
-7195.630
 30
839.388
 70
    32
  0
VERTEX
  8
T44SSILL
 62
13
 10
2994.776
 20
-7190.506
 30
839.514
 70
    32
  0
VERTEX
  8
T44SSILL
 62
13
 10
2994.017
 20
-7187.902
 30
839.573
 70
    32
  0
VERTEX
  8
T44SSILL
 62
13
 10
2972.377
 20
-7166.503
 30
839.989
 70
    32
  0
VERTEX
  8
T44SSILL
 62
13
 10
2968.548
 20
-7165.530
 30
839.995
 70
    32
  0
VERTEX
  8
T44SSILL
 62
13
 10
2962.356
 20
-7166.880
 30
839.936
 70
    32
  0
VERTEX
  8
T44SSILL
 62
13
 10
2953.485
 20
-7174.240
 30
839.721
 70
    32
  0
VERTEX
  8
T44SSILL
 62
13
 10
2943.602
 20
-7187.514
 30
839.548
 70
    32
  0
SEQEND
  8
T44SSILL
  0
POLYLINE
  8
T44SSILL
 62
13
 66
     1
 70
     9
  0
VERTEX
  8
T44SSILL
 62
13
 10
2909.149
 20
-7151.681
 30
835.534
 70
    32
  0
VERTEX
  8
T44SSILL
 62
13
 10
2917.557
 20
-7162.950
 30
835.562
 70
    32
  0
VERTEX
  8
T44SSILL
 62
13
 10
2930.106
 20
-7174.105
 30
838.075
 70
    32
  0
VERTEX
  8
T44SSILL
 62
13
 10
2948.544
 20
-7166.798
 30
839.309
 70
    32
  0
VERTEX
  8
T44SSILL
 62
13
 10
2960.720
 20
-7155.692
 30
839.637
 70
    32
  0
VERTEX
  8
T44SSILL
 62
13
 10
2960.496
 20
-7152.926
 30
839.283
 70
    32
  0
VERTEX
  8
T44SSILL
 62
13
 10
2953.553
 20
-7144.951
 30
837.419
 70
    32
  0
VERTEX
  8
T44SSILL
 62
13
 10
2952.718
 20
-7131.681
 30
835.784
 70
    32
  0
VERTEX
  8
T44SSILL
 62
13
 10
2954.306
 20
-7123.518
 30
835.057
 70
    32
  0
VERTEX
  8
T44SSILL
 62
13
 10
2951.546
 20
-7120.381
 30
834.594
 70
    32
  0
VERTEX
  8
T44SSILL
 62
13
 10
2947.862
 20
-7123.746
 30
834.683
 70
    32
  0
VERTEX
  8
T44SSILL
 62
13
 10
2949.919
 20
-7128.030
 30
835.096
 70
    32
  0
VERTEX
  8
T44SSILL
 62
13
 10
2943.127
 20
-7132.512
 30
834.883
 70
    32
  0
VERTEX
  8
T44SSILL
 62
13
 10
2939.283
 20
-7130.141
 30
834.874
 70
    32
  0
SEQEND
  8
T44SSILL
  0
POLYLINE
  8
T44SSILL
 62
13
 66
     1
 70
     9
  0
VERTEX
  8
T44SSILL
 62
13
 10
3202.749
 20
-7522.985
 30
837.461
 70
    32
  0
VERTEX
  8
T44SSILL
 62
13
 10
3223.051
 20
-7507.752
 30
837.456
 70
    32
  0
VERTEX
  8
T44SSILL
 62
13
 10
3216.462
 20
-7496.604
 30
837.459
 70
    32
  0
VERTEX
  8
T44SSILL
 62
13
 10
3211.104
 20
-7492.706
 30
837.461
 70
    32
  0
VERTEX
  8
T44SSILL
 62
13
 10
3189.608
 20
-7485.283
 30
837.470
 70
    32
  0
VERTEX
  8
T44SSILL
 62
13
 10
3173.595
 20
-7488.058
 30
837.475
 70
    32
  0
VERTEX
  8
T44SSILL
 62
13
 10
3185.270
 20
-7503.947
 30
837.469
 70
    32
  0
VERTEX
  8
T44SSILL
 62
13
 10
3186.634
 20
-7511.537
 30
837.467
 70
    32
  0
VERTEX
  8
T44SSILL
 62
13
 10
3188.758
 20
-7514.691
 30
837.466
 70
    32
  0
VERTEX
  8
T44SSILL
 62
13
 10
3200.585
 20
-7521.917
 30
837.461
 70
    32
  0
SEQEND
  8
T44SSILL
  0
POLYLINE
  8
T44SSILL
 62
13
 66
     1
 70
     9
  0
VERTEX
  8
T44SSILL
 62
13
 10
3645.862
 20
-6950.440
 30
837.002
 70
    32
  0
VERTEX
  8
T44SSILL
 62
13
 10
3655.109
 20
-6963.515
 30
837.169
 70
    32
  0
VERTEX
  8
T44SSILL
 62
13
 10
3663.723
 20
-6956.405
 30
837.158
 70
    32
  0
VERTEX
  8
T44SSILL
 62
13
 10
3659.084
 20
-6948.186
 30
837.060
 70
    32
  0
VERTEX
  8
T44SSILL
 62
13
 10
3651.529
 20
-6940.767
 30
836.952
 70
    32
  0
SEQEND
  8
T44SSILL
  0
POLYLINE
  8
T44SSILL
 62
13
 66
     1
 70
     9
  0
VERTEX
  8
T44SSILL
 62
13
 10
3658.772
 20
-6968.726
 30
837.236
 70
    32
  0
VERTEX
  8
T44SSILL
 62
13
 10
3669.600
 20
-6984.589
 30
837.436
 70
    32
  0
VERTEX
  8
T44SSILL
 62
13
 10
3679.991
 20
-6977.066
 30
837.431
 70
    32
  0
VERTEX
  8
T44SSILL
 62
13
 10
3675.527
 20
-6972.107
 30
837.362
 70
    32
  0
VERTEX
  8
T44SSILL
 62
13
 10
3671.516
 20
-6959.173
 30
837.227
 70
    32
  0
SEQEND
  8
T44SSILL
  0
POLYLINE
  8
T44SSILL
 62
13
 66
     1
 70
     9
  0
VERTEX
  8
T44SSILL
 62
13
 10
3549.334
 20
-6795.218
 30
835.896
 70
    32
  0
VERTEX
  8
T44SSILL
 62
13
 10
3548.363
 20
-6810.774
 30
835.813
 70
    32
  0
VERTEX
  8
T44SSILL
 62
13
 10
3551.476
 20
-6815.074
 30
835.789
 70
    32
  0
VERTEX
  8
T44SSILL
 62
13
 10
3563.412
 20
-6806.215
 30
835.831
 70
    32
  0
VERTEX
  8
T44SSILL
 62
13
 10
3561.060
 20
-6801.911
 30
835.855
 70
    32
  0
VERTEX
  8
T44SSILL
 62
13
 10
3555.202
 20
-6797.741
 30
835.880
 70
    32
  0
SEQEND
  8
T44SSILL
  0
POLYLINE
  8
T44SSILL
 62
13
 66
     1
 70
     9
  0
VERTEX
  8
T44SSILL
 62
13
 10
3633.787
 20
-6919.426
 30
836.664
 70
    32
  0
VERTEX
  8
T44SSILL
 62
13
 10
3632.003
 20
-6931.748
 30
836.760
 70
    32
  0
VERTEX
  8
T44SSILL
 62
13
 10
3638.488
 20
-6940.706
 30
836.875
 70
    32
  0
VERTEX
  8
T44SSILL
 62
13
 10
3648.294
 20
-6933.280
 30
836.868
 70
    32
  0
VERTEX
  8
T44SSILL
 62
13
 10
3641.463
 20
-6924.900
 30
836.756
 70
    32
  0
VERTEX
  8
T44SSILL
 62
13
 10
3638.823
 20
-6918.838
 30
836.688
 70
    32
  0
SEQEND
  8
T44SSILL
  0
POLYLINE
  8
T44SSILL
 62
13
 66
     1
 70
     9
  0
VERTEX
  8
T44SSILL
 62
13
 10
5261.091
 20
-7185.912
 30
837.322
 70
    32
  0
VERTEX
  8
T44SSILL
 62
13
 10
5257.755
 20
-7198.995
 30
837.335
 70
    32
  0
VERTEX
  8
T44SSILL
 62
13
 10
5254.361
 20
-7204.844
 30
837.339
 70
    32
  0
VERTEX
  8
T44SSILL
 62
13
 10
5261.614
 20
-7218.371
 30
837.362
 70
    32
  0
VERTEX
  8
T44SSILL
 62
13
 10
5268.642
 20
-7236.929
 30
837.391
 70
    32
  0
VERTEX
  8
T44SSILL
 62
13
 10
5279.972
 20
-7241.867
 30
837.407
 70
    32
  0
VERTEX
  8
T44SSILL
 62
13
 10
5294.456
 20
-7232.754
 30
837.409
 70
    32
  0
SEQEND
  8
T44SSILL
  0
POLYLINE
  8
T44SSILL
 62
13
 66
     1
 70
     9
  0
VERTEX
  8
T44SSILL
 62
13
 10
3750.364
 20
-7054.802
 30
837.665
 70
    32
  0
VERTEX
  8
T44SSILL
 62
13
 10
3738.670
 20
-7055.712
 30
837.665
 70
    32
  0
VERTEX
  8
T44SSILL
 62
13
 10
3723.522
 20
-7049.421
 30
837.674
 70
    32
  0
VERTEX
  8
T44SSILL
 62
13
 10
3719.081
 20
-7051.434
 30
837.673
 70
    32
  0
VERTEX
  8
T44SSILL
 62
13
 10
3701.551
 20
-7027.973
 30
837.699
 70
    32
  0
VERTEX
  8
T44SSILL
 62
13
 10
3706.372
 20
-7027.541
 30
837.699
 70
    32
  0
VERTEX
  8
T44SSILL
 62
13
 10
3705.533
 20
-7018.537
 30
837.708
 70
    32
  0
VERTEX
  8
T44SSILL
 62
13
 10
3695.020
 20
-7019.704
 30
837.708
 70
    32
  0
VERTEX
  8
T44SSILL
 62
13
 10
3673.849
 20
-6989.704
 30
837.505
 70
    32
  0
VERTEX
  8
T44SSILL
 62
13
 10
3683.990
 20
-6983.346
 30
837.509
 70
    32
  0
VERTEX
  8
T44SSILL
 62
13
 10
3687.847
 20
-6986.561
 30
837.559
 70
    32
  0
VERTEX
  8
T44SSILL
 62
13
 10
3693.818
 20
-6986.147
 30
837.590
 70
    32
  0
VERTEX
  8
T44SSILL
 62
13
 10
3697.829
 20
-6991.660
 30
837.661
 70
    32
  0
VERTEX
  8
T44SSILL
 62
13
 10
3703.538
 20
-6988.216
 30
837.664
 70
    32
  0
VERTEX
  8
T44SSILL
 62
13
 10
3707.303
 20
-6993.569
 30
837.733
 70
    32
  0
SEQEND
  8
T44SSILL
  0
POLYLINE
  8
T44SSILL
 62
13
 66
     1
 70
     9
  0
VERTEX
  8
T44SSILL
 62
13
 10
4504.964
 20
-7530.407
 30
837.190
 70
    32
  0
VERTEX
  8
T44SSILL
 62
13
 10
4499.937
 20
-7526.893
 30
837.188
 70
    32
  0
VERTEX
  8
T44SSILL
 62
13
 10
4421.084
 20
-7585.024
 30
837.198
 70
    32
  0
VERTEX
  8
T44SSILL
 62
13
 10
4424.393
 20
-7596.970
 30
837.203
 70
    32
  0
VERTEX
  8
T44SSILL
 62
13
 10
4462.819
 20
-7624.841
 30
837.222
 70
    32
  0
VERTEX
  8
T44SSILL
 62
13
 10
4510.225
 20
-7625.091
 30
837.232
 70
    32
  0
VERTEX
  8
T44SSILL
 62
13
 10
4510.409
 20
-7619.038
 30
837.229
 70
    32
  0
VERTEX
  8
T44SSILL
 62
13
 10
4518.862
 20
-7618.094
 30
837.230
 70
    32
  0
VERTEX
  8
T44SSILL
 62
13
 10
4522.847
 20
-7609.725
 30
837.227
 70
    32
  0
VERTEX
  8
T44SSILL
 62
13
 10
4524.790
 20
-7590.664
 30
837.220
 70
    32
  0
VERTEX
  8
T44SSILL
 62
13
 10
4519.013
 20
-7560.530
 30
837.206
 70
    32
  0
VERTEX
  8
T44SSILL
 62
13
 10
4517.078
 20
-7532.150
 30
837.193
 70
    32
  0
VERTEX
  8
T44SSILL
 62
13
 10
4513.664
 20
-7528.316
 30
837.191
 70
    32
  0
VERTEX
  8
T44SSILL
 62
13
 10
4507.102
 20
-7528.814
 30
837.190
 70
    32
  0
SEQEND
  8
T44SSILL
  0
POLYLINE
  8
T44SSILL
 62
13
 66
     1
 70
     9
  0
VERTEX
  8
T44SSILL
 62
13
 10
4323.535
 20
-7522.082
 30
837.152
 70
    32
  0
VERTEX
  8
T44SSILL
 62
13
 10
4314.752
 20
-7517.070
 30
837.149
 70
    32
  0
VERTEX
  8
T44SSILL
 62
13
 10
4297.157
 20
-7496.753
 30
837.137
 70
    32
  0
VERTEX
  8
T44SSILL
 62
13
 10
4301.661
 20
-7484.364
 30
837.132
 70
    32
  0
VERTEX
  8
T44SSILL
 62
13
 10
4319.389
 20
-7473.765
 30
837.131
 70
    32
  0
VERTEX
  8
T44SSILL
 62
13
 10
4326.848
 20
-7474.468
 30
837.133
 70
    32
  0
VERTEX
  8
T44SSILL
 62
13
 10
4329.063
 20
-7477.876
 30
837.135
 70
    32
  0
VERTEX
  8
T44SSILL
 62
13
 10
4330.994
 20
-7482.377
 30
837.137
 70
    32
  0
VERTEX
  8
T44SSILL
 62
13
 10
4331.167
 20
-7492.924
 30
837.142
 70
    32
  0
VERTEX
  8
T44SSILL
 62
13
 10
4337.356
 20
-7510.643
 30
837.150
 70
    32
  0
VERTEX
  8
T44SSILL
 62
13
 10
4339.714
 20
-7513.504
 30
837.152
 70
    32
  0
VERTEX
  8
T44SSILL
 62
13
 10
4343.803
 20
-7514.853
 30
837.153
 70
    32
  0
VERTEX
  8
T44SSILL
 62
13
 10
4379.762
 20
-7488.877
 30
837.149
 70
    32
  0
VERTEX
  8
T44SSILL
 62
13
 10
4378.851
 20
-7477.341
 30
837.144
 70
    32
  0
VERTEX
  8
T44SSILL
 62
13
 10
4362.173
 20
-7438.949
 30
837.124
 70
    32
  0
VERTEX
  8
T44SSILL
 62
13
 10
4343.846
 20
-7405.862
 30
837.167
 70
    32
  0
VERTEX
  8
T44SSILL
 62
13
 10
4302.057
 20
-7436.412
 30
837.150
 70
    32
  0
VERTEX
  8
T44SSILL
 62
13
 10
4298.570
 20
-7451.784
 30
837.133
 70
    32
  0
VERTEX
  8
T44SSILL
 62
13
 10
4297.659
 20
-7466.332
 30
837.124
 70
    32
  0
VERTEX
  8
T44SSILL
 62
13
 10
4304.140
 20
-7470.736
 30
837.127
 70
    32
  0
VERTEX
  8
T44SSILL
 62
13
 10
4288.767
 20
-7485.519
 30
837.130
 70
    32
  0
VERTEX
  8
T44SSILL
 62
13
 10
4248.444
 20
-7475.649
 30
837.130
 70
    32
  0
VERTEX
  8
T44SSILL
 62
13
 10
4196.334
 20
-7512.952
 30
837.124
 70
    32
  0
VERTEX
  8
T44SSILL
 62
13
 10
4199.743
 20
-7518.990
 30
837.128
 70
    32
  0
VERTEX
  8
T44SSILL
 62
13
 10
4198.089
 20
-7534.753
 30
837.134
 70
    32
  0
VERTEX
  8
T44SSILL
 62
13
 10
4194.877
 20
-7544.746
 30
837.138
 70
    32
  0
VERTEX
  8
T44SSILL
 62
13
 10
4188.350
 20
-7554.133
 30
837.140
 70
    32
  0
VERTEX
  8
T44SSILL
 62
13
 10
4179.127
 20
-7562.563
 30
837.142
 70
    32
  0
VERTEX
  8
T44SSILL
 62
13
 10
4174.218
 20
-7556.874
 30
837.139
 70
    32
  0
VERTEX
  8
T44SSILL
 62
13
 10
4155.269
 20
-7543.291
 30
837.129
 70
    32
  0
VERTEX
  8
T44SSILL
 62
13
 10
4142.908
 20
-7551.203
 30
837.130
 70
    32
  0
VERTEX
  8
T44SSILL
 62
13
 10
4133.713
 20
-7554.658
 30
837.130
 70
    32
  0
VERTEX
  8
T44SSILL
 62
13
 10
4117.117
 20
-7554.837
 30
837.125
 70
    32
  0
VERTEX
  8
T44SSILL
 62
13
 10
4161.963
 20
-7617.535
 30
837.147
 70
    32
  0
VERTEX
  8
T44SSILL
 62
13
 10
4165.853
 20
-7621.123
 30
837.149
 70
    32
  0
VERTEX
  8
T44SSILL
 62
13
 10
4172.424
 20
-7624.469
 30
837.151
 70
    32
  0
VERTEX
  8
T44SSILL
 62
13
 10
4189.220
 20
-7612.475
 30
837.157
 70
    32
  0
VERTEX
  8
T44SSILL
 62
13
 10
4195.957
 20
-7621.642
 30
837.160
 70
    32
  0
VERTEX
  8
T44SSILL
 62
13
 10
4318.188
 20
-7533.431
 30
837.156
 70
    32
  0
VERTEX
  8
T44SSILL
 62
13
 10
4314.286
 20
-7528.883
 30
837.154
 70
    32
  0
SEQEND
  8
T44SSILL
  0
POLYLINE
  8
T44SSILL
 62
13
 66
     1
 70
     9
  0
VERTEX
  8
T44SSILL
 62
13
 10
4177.411
 20
-7476.862
 30
837.165
 70
    32
  0
VERTEX
  8
T44SSILL
 62
13
 10
4177.260
 20
-7482.403
 30
837.158
 70
    32
  0
VERTEX
  8
T44SSILL
 62
13
 10
4186.748
 20
-7499.970
 30
837.132
 70
    32
  0
VERTEX
  8
T44SSILL
 62
13
 10
4195.557
 20
-7504.397
 30
837.122
 70
    32
  0
VERTEX
  8
T44SSILL
 62
13
 10
4242.191
 20
-7470.555
 30
837.139
 70
    32
  0
VERTEX
  8
T44SSILL
 62
13
 10
4238.717
 20
-7467.430
 30
837.145
 70
    32
  0
VERTEX
  8
T44SSILL
 62
13
 10
4231.685
 20
-7464.647
 30
837.152
 70
    32
  0
VERTEX
  8
T44SSILL
 62
13
 10
4204.237
 20
-7457.507
 30
837.175
 70
    32
  0
SEQEND
  8
T44SSILL
  0
POLYLINE
  8
T44SSILL
 62
13
 66
     1
 70
     9
  0
VERTEX
  8
T44SSILL
 62
13
 10
4175.495
 20
-7470.020
 30
837.174
 70
    32
  0
VERTEX
  8
T44SSILL
 62
13
 10
4201.420
 20
-7451.237
 30
837.184
 70
    32
  0
VERTEX
  8
T44SSILL
 62
13
 10
4197.945
 20
-7439.659
 30
837.200
 70
    32
  0
VERTEX
  8
T44SSILL
 62
13
 10
4173.848
 20
-7433.773
 30
837.220
 70
    32
  0
VERTEX
  8
T44SSILL
 62
13
 10
4165.084
 20
-7442.080
 30
837.213
 70
    32
  0
VERTEX
  8
T44SSILL
 62
13
 10
4165.994
 20
-7445.803
 30
837.209
 70
    32
  0
VERTEX
  8
T44SSILL
 62
13
 10
4173.835
 20
-7457.776
 30
837.190
 70
    32
  0
VERTEX
  8
T44SSILL
 62
13
 10
4175.250
 20
-7464.533
 30
837.181
 70
    32
  0
SEQEND
  8
T44SSILL
  0
POLYLINE
  8
T44SSILL
 62
13
 66
     1
 70
     9
  0
VERTEX
  8
T44SSILL
 62
13
 10
4072.019
 20
-7489.847
 30
837.179
 70
    32
  0
VERTEX
  8
T44SSILL
 62
13
 10
4061.875
 20
-7476.154
 30
837.194
 70
    32
  0
VERTEX
  8
T44SSILL
 62
13
 10
4073.086
 20
-7477.762
 30
837.191
 70
    32
  0
VERTEX
  8
T44SSILL
 62
13
 10
4089.584
 20
-7472.954
 30
837.193
 70
    32
  0
VERTEX
  8
T44SSILL
 62
13
 10
4131.539
 20
-7442.250
 30
837.218
 70
    32
  0
VERTEX
  8
T44SSILL
 62
13
 10
4150.970
 20
-7453.392
 30
837.204
 70
    32
  0
VERTEX
  8
T44SSILL
 62
13
 10
4157.080
 20
-7467.319
 30
837.187
 70
    32
  0
VERTEX
  8
T44SSILL
 62
13
 10
4160.055
 20
-7478.524
 30
837.172
 70
    32
  0
VERTEX
  8
T44SSILL
 62
13
 10
4159.501
 20
-7481.609
 30
837.168
 70
    32
  0
VERTEX
  8
T44SSILL
 62
13
 10
4133.504
 20
-7500.445
 30
837.159
 70
    32
  0
VERTEX
  8
T44SSILL
 62
13
 10
4128.637
 20
-7500.118
 30
837.160
 70
    32
  0
VERTEX
  8
T44SSILL
 62
13
 10
4126.111
 20
-7493.640
 30
837.167
 70
    32
  0
VERTEX
  8
T44SSILL
 62
13
 10
4106.318
 20
-7505.011
 30
837.159
 70
    32
  0
VERTEX
  8
T44SSILL
 62
13
 10
4099.173
 20
-7514.749
 30
837.150
 70
    32
  0
VERTEX
  8
T44SSILL
 62
13
 10
4089.619
 20
-7512.420
 30
837.154
 70
    32
  0
VERTEX
  8
T44SSILL
 62
13
 10
4082.401
 20
-7506.144
 30
837.161
 70
    32
  0
SEQEND
  8
T44SSILL
  0
POLYLINE
  8
T44SSILL
 62
13
 66
     1
 70
     9
  0
VERTEX
  8
T44SSILL
 62
13
 10
4126.776
 20
-7513.394
 30
837.146
 70
    32
  0
VERTEX
  8
T44SSILL
 62
13
 10
4113.499
 20
-7520.668
 30
837.142
 70
    32
  0
VERTEX
  8
T44SSILL
 62
13
 10
4102.456
 20
-7522.092
 30
837.142
 70
    32
  0
VERTEX
  8
T44SSILL
 62
13
 10
4092.266
 20
-7520.679
 30
837.145
 70
    32
  0
VERTEX
  8
T44SSILL
 62
13
 10
4110.209
 20
-7543.377
 30
837.121
 70
    32
  0
VERTEX
  8
T44SSILL
 62
13
 10
4117.309
 20
-7546.989
 30
837.124
 70
    32
  0
VERTEX
  8
T44SSILL
 62
13
 10
4130.726
 20
-7548.744
 30
837.127
 70
    32
  0
VERTEX
  8
T44SSILL
 62
13
 10
4135.844
 20
-7547.344
 30
837.127
 70
    32
  0
VERTEX
  8
T44SSILL
 62
13
 10
4153.750
 20
-7535.511
 30
837.126
 70
    32
  0
VERTEX
  8
T44SSILL
 62
13
 10
4154.324
 20
-7530.680
 30
837.124
 70
    32
  0
VERTEX
  8
T44SSILL
 62
13
 10
4156.834
 20
-7528.145
 30
837.123
 70
    32
  0
VERTEX
  8
T44SSILL
 62
13
 10
4158.131
 20
-7523.104
 30
837.121
 70
    32
  0
VERTEX
  8
T44SSILL
 62
13
 10
4167.827
 20
-7516.633
 30
837.121
 70
    32
  0
VERTEX
  8
T44SSILL
 62
13
 10
4173.756
 20
-7514.846
 30
837.121
 70
    32
  0
VERTEX
  8
T44SSILL
 62
13
 10
4179.115
 20
-7507.432
 30
837.126
 70
    32
  0
VERTEX
  8
T44SSILL
 62
13
 10
4170.258
 20
-7500.289
 30
837.140
 70
    32
  0
VERTEX
  8
T44SSILL
 62
13
 10
4161.100
 20
-7488.629
 30
837.159
 70
    32
  0
SEQEND
  8
T44SSILL
  0
POLYLINE
  8
T44SSILL
 62
13
 66
     1
 70
     9
  0
VERTEX
  8
T44SSILL
 62
13
 10
3181.478
 20
-7353.500
 30
837.488
 70
    32
  0
VERTEX
  8
T44SSILL
 62
13
 10
3166.388
 20
-7364.268
 30
837.491
 70
    32
  0
VERTEX
  8
T44SSILL
 62
13
 10
3164.890
 20
-7378.577
 30
837.489
 70
    32
  0
VERTEX
  8
T44SSILL
 62
13
 10
3159.171
 20
-7396.970
 30
837.489
 70
    32
  0
VERTEX
  8
T44SSILL
 62
13
 10
3164.420
 20
-7413.193
 30
837.486
 70
    32
  0
VERTEX
  8
T44SSILL
 62
13
 10
3196.967
 20
-7454.694
 30
837.471
 70
    32
  0
VERTEX
  8
T44SSILL
 62
13
 10
3211.779
 20
-7464.030
 30
837.465
 70
    32
  0
VERTEX
  8
T44SSILL
 62
13
 10
3215.863
 20
-7477.090
 30
837.462
 70
    32
  0
VERTEX
  8
T44SSILL
 62
13
 10
3226.020
 20
-7490.049
 30
837.457
 70
    32
  0
VERTEX
  8
T44SSILL
 62
13
 10
3231.847
 20
-7501.765
 30
837.453
 70
    32
  0
VERTEX
  8
T44SSILL
 62
13
 10
3357.114
 20
-7411.832
 30
837.417
 70
    32
  0
VERTEX
  8
T44SSILL
 62
13
 10
3245.484
 20
-7392.573
 30
837.461
 70
    32
  0
VERTEX
  8
T44SSILL
 62
13
 10
3215.661
 20
-7351.098
 30
837.477
 70
    32
  0
VERTEX
  8
T44SSILL
 62
13
 10
3202.393
 20
-7346.173
 30
837.482
 70
    32
  0
VERTEX
  8
T44SSILL
 62
13
 10
3193.324
 20
-7347.284
 30
837.485
 70
    32
  0
VERTEX
  8
T44SSILL
 62
13
 10
3182.789
 20
-7352.693
 30
837.488
 70
    32
  0
SEQEND
  8
T44SSILL
  0
POLYLINE
  8
T44SSILL
 62
13
 66
     1
 70
     9
  0
VERTEX
  8
T44SSILL
 62
13
 10
3208.587
 20
-7341.260
 30
837.480
 70
    32
  0
VERTEX
  8
T44SSILL
 62
13
 10
3139.737
 20
-7245.509
 30
836.614
 70
    32
  0
VERTEX
  8
T44SSILL
 62
13
 10
3134.463
 20
-7246.959
 30
836.596
 70
    32
  0
VERTEX
  8
T44SSILL
 62
13
 10
3132.592
 20
-7249.366
 30
836.606
 70
    32
  0
VERTEX
  8
T44SSILL
 62
13
 10
3133.320
 20
-7272.892
 30
838.153
 70
    32
  0
VERTEX
  8
T44SSILL
 62
13
 10
3137.268
 20
-7295.765
 30
837.908
 70
    32
  0
VERTEX
  8
T44SSILL
 62
13
 10
3147.494
 20
-7311.595
 30
837.788
 70
    32
  0
VERTEX
  8
T44SSILL
 62
13
 10
3155.713
 20
-7316.935
 30
837.716
 70
    32
  0
VERTEX
  8
T44SSILL
 62
13
 10
3158.773
 20
-7347.583
 30
837.596
 70
    32
  0
VERTEX
  8
T44SSILL
 62
13
 10
3161.397
 20
-7359.622
 30
837.539
 70
    32
  0
VERTEX
  8
T44SSILL
 62
13
 10
3187.120
 20
-7342.036
 30
837.488
 70
    32
  0
VERTEX
  8
T44SSILL
 62
13
 10
3197.296
 20
-7339.276
 30
837.485
 70
    32
  0
VERTEX
  8
T44SSILL
 62
13
 10
3204.948
 20
-7340.142
 30
837.482
 70
    32
  0
SEQEND
  8
T44SSILL
  0
POLYLINE
  8
T44SSILL
 62
13
 66
     1
 70
     9
  0
VERTEX
  8
T44SSILL
 62
13
 10
2944.446
 20
-7021.089
 30
834.923
 70
    32
  0
VERTEX
  8
T44SSILL
 62
13
 10
2953.423
 20
-7030.901
 30
834.867
 70
    32
  0
VERTEX
  8
T44SSILL
 62
13
 10
2963.828
 20
-7031.985
 30
834.857
 70
    32
  0
VERTEX
  8
T44SSILL
 62
13
 10
2982.746
 20
-7069.280
 30
834.649
 70
    32
  0
VERTEX
  8
T44SSILL
 62
13
 10
2999.516
 20
-7085.787
 30
834.553
 70
    32
  0
VERTEX
  8
T44SSILL
 62
13
 10
3011.750
 20
-7084.711
 30
834.554
 70
    32
  0
VERTEX
  8
T44SSILL
 62
13
 10
3027.423
 20
-7089.107
 30
834.608
 70
    32
  0
VERTEX
  8
T44SSILL
 62
13
 10
2995.569
 20
-7044.396
 30
834.777
 70
    32
  0
VERTEX
  8
T44SSILL
 62
13
 10
2989.586
 20
-7047.113
 30
834.765
 70
    32
  0
VERTEX
  8
T44SSILL
 62
13
 10
2968.953
 20
-7025.759
 30
834.888
 70
    32
  0
VERTEX
  8
T44SSILL
 62
13
 10
2953.621
 20
-7018.631
 30
834.933
 70
    32
  0
VERTEX
  8
T44SSILL
 62
13
 10
2943.582
 20
-7018.843
 30
834.936
 70
    32
  0
SEQEND
  8
T44SSILL
  0
POLYLINE
  8
T44SSILL
 62
13
 66
     1
 70
     9
  0
VERTEX
  8
T44SSILL
 62
13
 10
2824.402
 20
-6905.202
 30
835.788
 70
    32
  0
VERTEX
  8
T44SSILL
 62
13
 10
2828.768
 20
-6905.548
 30
835.752
 70
    32
  0
VERTEX
  8
T44SSILL
 62
13
 10
2850.289
 20
-6889.129
 30
835.671
 70
    32
  0
VERTEX
  8
T44SSILL
 62
13
 10
2862.742
 20
-6882.699
 30
835.700
 70
    32
  0
VERTEX
  8
T44SSILL
 62
13
 10
2872.643
 20
-6881.541
 30
835.703
 70
    32
  0
VERTEX
  8
T44SSILL
 62
13
 10
2881.218
 20
-6882.946
 30
835.692
 70
    32
  0
VERTEX
  8
T44SSILL
 62
13
 10
2870.289
 20
-6867.878
 30
835.777
 70
    32
  0
VERTEX
  8
T44SSILL
 62
13
 10
2861.177
 20
-6874.060
 30
835.748
 70
    32
  0
VERTEX
  8
T44SSILL
 62
13
 10
2856.875
 20
-6868.440
 30
835.780
 70
    32
  0
VERTEX
  8
T44SSILL
 62
13
 10
2865.774
 20
-6861.654
 30
835.812
 70
    32
  0
VERTEX
  8
T44SSILL
 62
13
 10
2779.373
 20
-6742.536
 30
836.488
 70
    32
  0
VERTEX
  8
T44SSILL
 62
13
 10
2713.396
 20
-6886.363
 30
836.711
 70
    32
  0
VERTEX
  8
T44SSILL
 62
13
 10
2707.545
 20
-6900.899
 30
836.738
 70
    32
  0
VERTEX
  8
T44SSILL
 62
13
 10
2706.286
 20
-6906.771
 30
836.740
 70
    32
  0
VERTEX
  8
T44SSILL
 62
13
 10
2707.257
 20
-6912.582
 30
836.725
 70
    32
  0
VERTEX
  8
T44SSILL
 62
13
 10
2709.115
 20
-6917.657
 30
836.703
 70
    32
  0
VERTEX
  8
T44SSILL
 62
13
 10
2750.492
 20
-6974.907
 30
836.290
 70
    32
  0
VERTEX
  8
T44SSILL
 62
13
 10
2753.083
 20
-6974.589
 30
836.270
 70
    32
  0
VERTEX
  8
T44SSILL
 62
13
 10
2756.931
 20
-6978.039
 30
836.234
 70
    32
  0
VERTEX
  8
T44SSILL
 62
13
 10
2757.896
 20
-6985.370
 30
836.216
 70
    32
  0
VERTEX
  8
T44SSILL
 62
13
 10
2867.084
 20
-7138.453
 30
835.964
 70
    32
  0
VERTEX
  8
T44SSILL
 62
13
 10
2871.440
 20
-7143.385
 30
835.960
 70
    32
  0
VERTEX
  8
T44SSILL
 62
13
 10
2881.320
 20
-7149.389
 30
835.892
 70
    32
  0
VERTEX
  8
T44SSILL
 62
13
 10
2890.319
 20
-7150.169
 30
835.777
 70
    32
  0
VERTEX
  8
T44SSILL
 62
13
 10
2896.613
 20
-7148.963
 30
835.676
 70
    32
  0
VERTEX
  8
T44SSILL
 62
13
 10
2934.242
 20
-7124.395
 30
834.878
 70
    32
  0
VERTEX
  8
T44SSILL
 62
13
 10
2930.761
 20
-7119.169
 30
834.867
 70
    32
  0
VERTEX
  8
T44SSILL
 62
13
 10
2940.750
 20
-7112.318
 30
834.652
 70
    32
  0
VERTEX
  8
T44SSILL
 62
13
 10
2944.315
 20
-7117.050
 30
834.656
 70
    32
  0
VERTEX
  8
T44SSILL
 62
13
 10
2973.226
 20
-7095.618
 30
834.511
 70
    32
  0
VERTEX
  8
T44SSILL
 62
13
 10
2967.212
 20
-7082.222
 30
834.585
 70
    32
  0
VERTEX
  8
T44SSILL
 62
13
 10
2948.215
 20
-7072.056
 30
834.648
 70
    32
  0
VERTEX
  8
T44SSILL
 62
13
 10
2933.059
 20
-7055.382
 30
834.743
 70
    32
  0
VERTEX
  8
T44SSILL
 62
13
 10
2931.233
 20
-7052.342
 30
834.760
 70
    32
  0
VERTEX
  8
T44SSILL
 62
13
 10
2930.537
 20
-7042.329
 30
834.815
 70
    32
  0
VERTEX
  8
T44SSILL
 62
13
 10
2916.665
 20
-7025.938
 30
834.908
 70
    32
  0
VERTEX
  8
T44SSILL
 62
13
 10
2848.559
 20
-7047.381
 30
835.399
 70
    32
  0
VERTEX
  8
T44SSILL
 62
13
 10
2846.689
 20
-7040.148
 30
835.424
 70
    32
  0
VERTEX
  8
T44SSILL
 62
13
 10
2916.936
 20
-7018.057
 30
834.951
 70
    32
  0
VERTEX
  8
T44SSILL
 62
13
 10
2916.799
 20
-7009.599
 30
834.996
 70
    32
  0
VERTEX
  8
T44SSILL
 62
13
 10
2911.888
 20
-6995.313
 30
835.075
 70
    32
  0
VERTEX
  8
T44SSILL
 62
13
 10
2912.077
 20
-6989.765
 30
835.105
 70
    32
  0
VERTEX
  8
T44SSILL
 62
13
 10
2914.314
 20
-6988.182
 30
835.112
 70
    32
  0
VERTEX
  8
T44SSILL
 62
13
 10
2914.311
 20
-6981.903
 30
835.146
 70
    32
  0
VERTEX
  8
T44SSILL
 62
13
 10
2911.688
 20
-6961.667
 30
835.256
 70
    32
  0
VERTEX
  8
T44SSILL
 62
13
 10
2912.397
 20
-6957.158
 30
835.280
 70
    32
  0
VERTEX
  8
T44SSILL
 62
13
 10
2914.222
 20
-6955.758
 30
835.287
 70
    32
  0
VERTEX
  8
T44SSILL
 62
13
 10
2918.998
 20
-6956.386
 30
835.282
 70
    32
  0
VERTEX
  8
T44SSILL
 62
13
 10
2922.457
 20
-6982.853
 30
835.138
 70
    32
  0
VERTEX
  8
T44SSILL
 62
13
 10
2930.449
 20
-7002.106
 30
835.031
 70
    32
  0
VERTEX
  8
T44SSILL
 62
13
 10
2937.282
 20
-7011.457
 30
834.978
 70
    32
  0
VERTEX
  8
T44SSILL
 62
13
 10
2962.156
 20
-7003.604
 30
835.010
 70
    32
  0
VERTEX
  8
T44SSILL
 62
13
 10
2962.264
 20
-6997.787
 30
835.042
 70
    32
  0
VERTEX
  8
T44SSILL
 62
13
 10
2921.158
 20
-6939.696
 30
835.370
 70
    32
  0
VERTEX
  8
T44SSILL
 62
13
 10
2914.073
 20
-6933.663
 30
835.406
 70
    32
  0
VERTEX
  8
T44SSILL
 62
13
 10
2896.982
 20
-6929.405
 30
835.436
 70
    32
  0
VERTEX
  8
T44SSILL
 62
13
 10
2883.944
 20
-6933.324
 30
835.420
 70
    32
  0
VERTEX
  8
T44SSILL
 62
13
 10
2802.206
 20
-6992.912
 30
835.848
 70
    32
  0
VERTEX
  8
T44SSILL
 62
13
 10
2797.755
 20
-6986.297
 30
835.893
 70
    32
  0
VERTEX
  8
T44SSILL
 62
13
 10
2881.753
 20
-6926.860
 30
835.455
 70
    32
  0
VERTEX
  8
T44SSILL
 62
13
 10
2893.682
 20
-6922.751
 30
835.473
 70
    32
  0
VERTEX
  8
T44SSILL
 62
13
 10
2909.576
 20
-6923.634
 30
835.462
 70
    32
  0
VERTEX
  8
T44SSILL
 62
13
 10
2891.986
 20
-6899.693
 30
835.597
 70
    32
  0
VERTEX
  8
T44SSILL
 62
13
 10
2882.368
 20
-6892.529
 30
835.640
 70
    32
  0
VERTEX
  8
T44SSILL
 62
13
 10
2876.967
 20
-6891.477
 30
835.648
 70
    32
  0
VERTEX
  8
T44SSILL
 62
13
 10
2866.456
 20
-6891.009
 30
835.654
 70
    32
  0
VERTEX
  8
T44SSILL
 62
13
 10
2860.753
 20
-6893.203
 30
835.645
 70
    32
  0
VERTEX
  8
T44SSILL
 62
13
 10
2819.292
 20
-6922.656
 30
835.806
 70
    32
  0
VERTEX
  8
T44SSILL
 62
13
 10
2814.561
 20
-6915.926
 30
835.853
 70
    32
  0
VERTEX
  8
T44SSILL
 62
13
 10
2821.426
 20
-6911.393
 30
835.804
 70
    32
  0
VERTEX
  8
T44SSILL
 62
13
 10
2820.718
 20
-6909.655
 30
835.812
 70
    32
  0
SEQEND
  8
T44SSILL
  0
POLYLINE
  8
T44SSILL
 62
13
 66
     1
 70
     9
  0
VERTEX
  8
T44SSILL
 62
13
 10
4071.185
 20
-7134.264
 30
837.537
 70
    32
  0
VERTEX
  8
T44SSILL
 62
13
 10
4032.621
 20
-7161.842
 30
837.515
 70
    32
  0
VERTEX
  8
T44SSILL
 62
13
 10
4035.147
 20
-7178.988
 30
837.497
 70
    32
  0
VERTEX
  8
T44SSILL
 62
13
 10
4039.561
 20
-7192.408
 30
837.483
 70
    32
  0
VERTEX
  8
T44SSILL
 62
13
 10
4025.507
 20
-7208.372
 30
837.469
 70
    32
  0
VERTEX
  8
T44SSILL
 62
13
 10
4010.788
 20
-7207.957
 30
837.472
 70
    32
  0
VERTEX
  8
T44SSILL
 62
13
 10
4008.378
 20
-7205.700
 30
837.474
 70
    32
  0
VERTEX
  8
T44SSILL
 62
13
 10
4000.076
 20
-7204.228
 30
837.477
 70
    32
  0
VERTEX
  8
T44SSILL
 62
13
 10
3992.966
 20
-7206.176
 30
837.476
 70
    32
  0
VERTEX
  8
T44SSILL
 62
13
 10
3980.102
 20
-7199.745
 30
837.484
 70
    32
  0
VERTEX
  8
T44SSILL
 62
13
 10
3947.478
 20
-7223.325
 30
837.466
 70
    32
  0
VERTEX
  8
T44SSILL
 62
13
 10
3946.401
 20
-7231.234
 30
837.458
 70
    32
  0
VERTEX
  8
T44SSILL
 62
13
 10
3943.529
 20
-7237.092
 30
837.452
 70
    32
  0
VERTEX
  8
T44SSILL
 62
13
 10
3936.946
 20
-7239.477
 30
837.451
 70
    32
  0
VERTEX
  8
T44SSILL
 62
13
 10
3926.444
 20
-7238.528
 30
837.453
 70
    32
  0
VERTEX
  8
T44SSILL
 62
13
 10
3920.954
 20
-7242.496
 30
837.450
 70
    32
  0
VERTEX
  8
T44SSILL
 62
13
 10
3910.869
 20
-7245.895
 30
837.448
 70
    32
  0
VERTEX
  8
T44SSILL
 62
13
 10
3895.262
 20
-7245.052
 30
837.452
 70
    32
  0
VERTEX
  8
T44SSILL
 62
13
 10
3907.993
 20
-7262.667
 30
837.432
 70
    32
  0
VERTEX
  8
T44SSILL
 62
13
 10
3914.580
 20
-7267.297
 30
837.426
 70
    32
  0
VERTEX
  8
T44SSILL
 62
13
 10
3920.630
 20
-7275.986
 30
837.417
 70
    32
  0
VERTEX
  8
T44SSILL
 62
13
 10
3929.016
 20
-7280.288
 30
837.411
 70
    32
  0
VERTEX
  8
T44SSILL
 62
13
 10
3942.419
 20
-7280.403
 30
837.409
 70
    32
  0
VERTEX
  8
T44SSILL
 62
13
 10
3951.422
 20
-7276.101
 30
837.412
 70
    32
  0
VERTEX
  8
T44SSILL
 62
13
 10
4036.251
 20
-7215.056
 30
837.461
 70
    32
  0
VERTEX
  8
T44SSILL
 62
13
 10
4051.751
 20
-7180.697
 30
837.493
 70
    32
  0
VERTEX
  8
T44SSILL
 62
13
 10
4079.595
 20
-7147.245
 30
837.522
 70
    32
  0
VERTEX
  8
T44SSILL
 62
13
 10
4083.682
 20
-7140.781
 30
837.528
 70
    32
  0
VERTEX
  8
T44SSILL
 62
13
 10
4089.573
 20
-7123.174
 30
837.545
 70
    32
  0
VERTEX
  8
T44SSILL
 62
13
 10
4077.585
 20
-7103.292
 30
837.567
 70
    32
  0
VERTEX
  8
T44SSILL
 62
13
 10
4074.725
 20
-7104.767
 30
837.566
 70
    32
  0
VERTEX
  8
T44SSILL
 62
13
 10
4067.866
 20
-7103.836
 30
837.568
 70
    32
  0
VERTEX
  8
T44SSILL
 62
13
 10
4061.128
 20
-7095.552
 30
837.577
 70
    32
  0
VERTEX
  8
T44SSILL
 62
13
 10
4054.303
 20
-7095.697
 30
837.578
 70
    32
  0
VERTEX
  8
T44SSILL
 62
13
 10
4044.508
 20
-7081.550
 30
837.594
 70
    32
  0
VERTEX
  8
T44SSILL
 62
13
 10
4044.833
 20
-7078.006
 30
837.597
 70
    32
  0
VERTEX
  8
T44SSILL
 62
13
 10
4047.449
 20
-7075.172
 30
837.600
 70
    32
  0
VERTEX
  8
T44SSILL
 62
13
 10
4049.372
 20
-7074.506
 30
837.600
 70
    32
  0
VERTEX
  8
T44SSILL
 62
13
 10
4054.007
 20
-7076.437
 30
837.597
 70
    32
  0
VERTEX
  8
T44SSILL
 62
13
 10
4034.916
 20
-7043.492
 30
837.633
 70
    32
  0
VERTEX
  8
T44SSILL
 62
13
 10
4018.474
 20
-7055.605
 30
837.624
 70
    32
  0
VERTEX
  8
T44SSILL
 62
13
 10
4029.845
 20
-7075.273
 30
837.602
 70
    32
  0
VERTEX
  8
T44SSILL
 62
13
 10
4030.008
 20
-7080.733
 30
837.597
 70
    32
  0
VERTEX
  8
T44SSILL
 62
13
 10
4023.607
 20
-7102.142
 30
837.576
 70
    32
  0
VERTEX
  8
T44SSILL
 62
13
 10
4031.669
 20
-7118.243
 30
837.559
 70
    32
  0
VERTEX
  8
T44SSILL
 62
13
 10
4028.159
 20
-7138.468
 30
837.539
 70
    32
  0
VERTEX
  8
T44SSILL
 62
13
 10
4038.250
 20
-7148.285
 30
837.528
 70
    32
  0
VERTEX
  8
T44SSILL
 62
13
 10
4066.688
 20
-7127.630
 30
837.544
 70
    32
  0
SEQEND
  8
T44SSILL
  0
POLYLINE
  8
T44SSILL
 62
13
 66
     1
 70
     9
  0
VERTEX
  8
T44SSILL
 62
13
 10
3951.298
 20
-7104.017
 30
837.585
 70
    32
  0
VERTEX
  8
T44SSILL
 62
13
 10
3863.146
 20
-7164.788
 30
837.537
 70
    32
  0
VERTEX
  8
T44SSILL
 62
13
 10
3849.620
 20
-7167.882
 30
837.536
 70
    32
  0
VERTEX
  8
T44SSILL
 62
13
 10
3837.780
 20
-7165.401
 30
837.540
 70
    32
  0
VERTEX
  8
T44SSILL
 62
13
 10
3871.280
 20
-7211.725
 30
837.489
 70
    32
  0
VERTEX
  8
T44SSILL
 62
13
 10
3875.997
 20
-7208.753
 30
837.491
 70
    32
  0
VERTEX
  8
T44SSILL
 62
13
 10
3874.788
 20
-7216.963
 30
837.483
 70
    32
  0
VERTEX
  8
T44SSILL
 62
13
 10
3885.890
 20
-7229.850
 30
837.468
 70
    32
  0
VERTEX
  8
T44SSILL
 62
13
 10
3892.035
 20
-7234.612
 30
837.463
 70
    32
  0
VERTEX
  8
T44SSILL
 62
13
 10
3901.150
 20
-7237.482
 30
837.458
 70
    32
  0
VERTEX
  8
T44SSILL
 62
13
 10
3914.525
 20
-7236.241
 30
837.458
 70
    32
  0
VERTEX
  8
T44SSILL
 62
13
 10
3929.129
 20
-7225.915
 30
837.466
 70
    32
  0
VERTEX
  8
T44SSILL
 62
13
 10
3935.668
 20
-7216.988
 30
837.474
 70
    32
  0
VERTEX
  8
T44SSILL
 62
13
 10
3940.732
 20
-7217.722
 30
837.472
 70
    32
  0
VERTEX
  8
T44SSILL
 62
13
 10
3980.928
 20
-7189.337
 30
837.495
 70
    32
  0
VERTEX
  8
T44SSILL
 62
13
 10
3980.630
 20
-7180.442
 30
837.504
 70
    32
  0
VERTEX
  8
T44SSILL
 62
13
 10
3970.485
 20
-7160.318
 30
837.526
 70
    32
  0
VERTEX
  8
T44SSILL
 62
13
 10
3953.225
 20
-7148.132
 30
837.540
 70
    32
  0
VERTEX
  8
T44SSILL
 62
13
 10
3957.633
 20
-7141.904
 30
837.546
 70
    32
  0
VERTEX
  8
T44SSILL
 62
13
 10
3965.474
 20
-7141.884
 30
837.545
 70
    32
  0
VERTEX
  8
T44SSILL
 62
13
 10
3968.491
 20
-7130.565
 30
837.556
 70
    32
  0
VERTEX
  8
T44SSILL
 62
13
 10
3967.579
 20
-7121.943
 30
837.565
 70
    32
  0
VERTEX
  8
T44SSILL
 62
13
 10
3953.608
 20
-7105.483
 30
837.583
 70
    32
  0
SEQEND
  8
T44SSILL
  0
POLYLINE
  8
T44SSILL
 62
13
 66
     1
 70
     9
  0
VERTEX
  8
T44SSILL
 62
13
 10
3625.896
 20
-6880.995
 30
836.285
 70
    32
  0
VERTEX
  8
T44SSILL
 62
13
 10
3638.452
 20
-6898.360
 30
836.508
 70
    32
  0
VERTEX
  8
T44SSILL
 62
13
 10
3588.930
 20
-6887.786
 30
836.129
 70
    32
  0
VERTEX
  8
T44SSILL
 62
13
 10
3568.037
 20
-6903.130
 30
836.140
 70
    32
  0
VERTEX
  8
T44SSILL
 62
13
 10
3554.859
 20
-6902.730
 30
836.060
 70
    32
  0
VERTEX
  8
T44SSILL
 62
13
 10
3543.849
 20
-6919.656
 30
836.143
 70
    32
  0
VERTEX
  8
T44SSILL
 62
13
 10
3506.098
 20
-6946.426
 30
836.155
 70
    32
  0
VERTEX
  8
T44SSILL
 62
13
 10
3509.669
 20
-6951.498
 30
836.220
 70
    32
  0
VERTEX
  8
T44SSILL
 62
13
 10
3552.680
 20
-6920.690
 30
836.203
 70
    32
  0
VERTEX
  8
T44SSILL
 62
13
 10
3557.339
 20
-6925.618
 30
836.273
 70
    32
  0
VERTEX
  8
T44SSILL
 62
13
 10
3560.431
 20
-6933.209
 30
836.357
 70
    32
  0
VERTEX
  8
T44SSILL
 62
13
 10
3562.345
 20
-6956.070
 30
836.566
 70
    32
  0
VERTEX
  8
T44SSILL
 62
13
 10
3566.003
 20
-6966.856
 30
836.680
 70
    32
  0
VERTEX
  8
T44SSILL
 62
13
 10
3579.233
 20
-6960.992
 30
836.706
 70
    32
  0
VERTEX
  8
T44SSILL
 62
13
 10
3591.096
 20
-6961.688
 30
836.781
 70
    32
  0
VERTEX
  8
T44SSILL
 62
13
 10
3594.869
 20
-6958.301
 30
836.774
 70
    32
  0
VERTEX
  8
T44SSILL
 62
13
 10
3594.092
 20
-6947.723
 30
836.678
 70
    32
  0
VERTEX
  8
T44SSILL
 62
13
 10
3576.912
 20
-6948.583
 30
836.585
 70
    32
  0
VERTEX
  8
T44SSILL
 62
13
 10
3573.920
 20
-6945.506
 30
836.541
 70
    32
  0
VERTEX
  8
T44SSILL
 62
13
 10
3578.770
 20
-6931.838
 30
836.451
 70
    32
  0
VERTEX
  8
T44SSILL
 62
13
 10
3574.858
 20
-6906.820
 30
836.212
 70
    32
  0
VERTEX
  8
T44SSILL
 62
13
 10
3588.403
 20
-6897.015
 30
836.206
 70
    32
  0
VERTEX
  8
T44SSILL
 62
13
 10
3624.600
 20
-6902.812
 30
836.467
 70
    32
  0
VERTEX
  8
T44SSILL
 62
13
 10
3631.024
 20
-6907.009
 30
836.540
 70
    32
  0
VERTEX
  8
T44SSILL
 62
13
 10
3634.438
 20
-6910.217
 30
836.588
 70
    32
  0
VERTEX
  8
T44SSILL
 62
13
 10
3622.913
 20
-6918.888
 30
836.596
 70
    32
  0
VERTEX
  8
T44SSILL
 62
13
 10
3612.307
 20
-6902.284
 30
836.390
 70
    32
  0
VERTEX
  8
T44SSILL
 62
13
 10
3605.591
 20
-6906.314
 30
836.386
 70
    32
  0
VERTEX
  8
T44SSILL
 62
13
 10
3614.902
 20
-6920.646
 30
836.564
 70
    32
  0
VERTEX
  8
T44SSILL
 62
13
 10
3629.062
 20
-6956.048
 30
836.953
 70
    32
  0
VERTEX
  8
T44SSILL
 62
13
 10
3648.256
 20
-6967.929
 30
837.168
 70
    32
  0
VERTEX
  8
T44SSILL
 62
13
 10
3687.518
 20
-7020.657
 30
837.708
 70
    32
  0
VERTEX
  8
T44SSILL
 62
13
 10
3679.574
 20
-7021.602
 30
837.709
 70
    32
  0
VERTEX
  8
T44SSILL
 62
13
 10
3680.946
 20
-7030.438
 30
837.700
 70
    32
  0
VERTEX
  8
T44SSILL
 62
13
 10
3693.224
 20
-7028.540
 30
837.700
 70
    32
  0
VERTEX
  8
T44SSILL
 62
13
 10
3714.074
 20
-7056.588
 30
837.668
 70
    32
  0
VERTEX
  8
T44SSILL
 62
13
 10
3697.596
 20
-7057.182
 30
837.670
 70
    32
  0
VERTEX
  8
T44SSILL
 62
13
 10
3688.730
 20
-7039.984
 30
837.689
 70
    32
  0
VERTEX
  8
T44SSILL
 62
13
 10
3671.886
 20
-7024.109
 30
837.707
 70
    32
  0
VERTEX
  8
T44SSILL
 62
13
 10
3659.253
 20
-7007.260
 30
837.572
 70
    32
  0
VERTEX
  8
T44SSILL
 62
13
 10
3651.607
 20
-7000.017
 30
837.465
 70
    32
  0
VERTEX
  8
T44SSILL
 62
13
 10
3639.916
 20
-6992.315
 30
837.330
 70
    32
  0
VERTEX
  8
T44SSILL
 62
13
 10
3623.299
 20
-6976.603
 30
837.098
 70
    32
  0
VERTEX
  8
T44SSILL
 62
13
 10
3616.566
 20
-6973.941
 30
837.035
 70
    32
  0
VERTEX
  8
T44SSILL
 62
13
 10
3610.416
 20
-6975.553
 30
837.014
 70
    32
  0
VERTEX
  8
T44SSILL
 62
13
 10
3606.676
 20
-6981.100
 30
837.040
 70
    32
  0
VERTEX
  8
T44SSILL
 62
13
 10
3606.806
 20
-6987.013
 30
837.092
 70
    32
  0
VERTEX
  8
T44SSILL
 62
13
 10
3618.087
 20
-6998.069
 30
837.253
 70
    32
  0
VERTEX
  8
T44SSILL
 62
13
 10
3638.902
 20
-7027.125
 30
837.626
 70
    32
  0
VERTEX
  8
T44SSILL
 62
13
 10
3659.182
 20
-7048.049
 30
837.685
 70
    32
  0
VERTEX
  8
T44SSILL
 62
13
 10
3661.217
 20
-7052.556
 30
837.680
 70
    32
  0
VERTEX
  8
T44SSILL
 62
13
 10
3658.008
 20
-7052.613
 30
837.681
 70
    32
  0
VERTEX
  8
T44SSILL
 62
13
 10
3658.054
 20
-7058.608
 30
837.675
 70
    32
  0
VERTEX
  8
T44SSILL
 62
13
 10
3607.847
 20
-7060.418
 30
837.680
 70
    32
  0
VERTEX
  8
T44SSILL
 62
13
 10
3607.767
 20
-7067.248
 30
837.673
 70
    32
  0
VERTEX
  8
T44SSILL
 62
13
 10
3669.193
 20
-7065.367
 30
837.666
 70
    32
  0
VERTEX
  8
T44SSILL
 62
13
 10
3676.771
 20
-7074.308
 30
837.656
 70
    32
  0
VERTEX
  8
T44SSILL
 62
13
 10
3682.453
 20
-7078.386
 30
837.651
 70
    32
  0
VERTEX
  8
T44SSILL
 62
13
 10
3683.467
 20
-7090.649
 30
837.639
 70
    32
  0
VERTEX
  8
T44SSILL
 62
13
 10
3685.556
 20
-7095.799
 30
837.633
 70
    32
  0
VERTEX
  8
T44SSILL
 62
13
 10
3702.663
 20
-7125.464
 30
837.601
 70
    32
  0
VERTEX
  8
T44SSILL
 62
13
 10
3705.939
 20
-7126.369
 30
837.599
 70
    32
  0
VERTEX
  8
T44SSILL
 62
13
 10
3714.301
 20
-7124.794
 30
837.600
 70
    32
  0
VERTEX
  8
T44SSILL
 62
13
 10
3715.629
 20
-7115.314
 30
837.609
 70
    32
  0
VERTEX
  8
T44SSILL
 62
13
 10
3707.584
 20
-7079.306
 30
837.646
 70
    32
  0
VERTEX
  8
T44SSILL
 62
13
 10
3698.538
 20
-7064.469
 30
837.663
 70
    32
  0
VERTEX
  8
T44SSILL
 62
13
 10
3718.358
 20
-7063.863
 30
837.660
 70
    32
  0
VERTEX
  8
T44SSILL
 62
13
 10
3707.567
 20
-7078.227
 30
837.647
 70
    32
  0
VERTEX
  8
T44SSILL
 62
13
 10
3715.809
 20
-7083.728
 30
837.641
 70
    32
  0
VERTEX
  8
T44SSILL
 62
13
 10
3730.112
 20
-7063.654
 30
837.659
 70
    32
  0
VERTEX
  8
T44SSILL
 62
13
 10
3755.347
 20
-7061.889
 30
837.657
 70
    32
  0
VERTEX
  8
T44SSILL
 62
13
 10
3766.622
 20
-7077.921
 30
837.639
 70
    32
  0
VERTEX
  8
T44SSILL
 62
13
 10
3769.512
 20
-7089.512
 30
837.627
 70
    32
  0
VERTEX
  8
T44SSILL
 62
13
 10
3767.314
 20
-7102.670
 30
837.614
 70
    32
  0
VERTEX
  8
T44SSILL
 62
13
 10
3755.195
 20
-7124.774
 30
837.594
 70
    32
  0
VERTEX
  8
T44SSILL
 62
13
 10
3504.100
 20
-7305.390
 30
837.449
 70
    32
  0
VERTEX
  8
T44SSILL
 62
13
 10
3498.915
 20
-7305.833
 30
837.450
 70
    32
  0
VERTEX
  8
T44SSILL
 62
13
 10
3487.404
 20
-7303.425
 30
837.454
 70
    32
  0
VERTEX
  8
T44SSILL
 62
13
 10
3476.957
 20
-7298.107
 30
837.461
 70
    32
  0
VERTEX
  8
T44SSILL
 62
13
 10
3394.988
 20
-7172.321
 30
837.465
 70
    32
  0
VERTEX
  8
T44SSILL
 62
13
 10
3388.428
 20
-7157.138
 30
837.295
 70
    32
  0
VERTEX
  8
T44SSILL
 62
13
 10
3393.358
 20
-7148.343
 30
837.248
 70
    32
  0
VERTEX
  8
T44SSILL
 62
13
 10
3396.567
 20
-7145.531
 30
837.242
 70
    32
  0
VERTEX
  8
T44SSILL
 62
13
 10
3391.499
 20
-7138.829
 30
837.154
 70
    32
  0
VERTEX
  8
T44SSILL
 62
13
 10
3385.218
 20
-7144.031
 30
837.163
 70
    32
  0
VERTEX
  8
T44SSILL
 62
13
 10
3377.504
 20
-7140.935
 30
837.091
 70
    32
  0
VERTEX
  8
T44SSILL
 62
13
 10
3372.179
 20
-7132.032
 30
836.983
 70
    32
  0
VERTEX
  8
T44SSILL
 62
13
 10
3374.698
 20
-7124.726
 30
836.935
 70
    32
  0
VERTEX
  8
T44SSILL
 62
13
 10
3373.497
 20
-7115.071
 30
836.844
 70
    32
  0
VERTEX
  8
T44SSILL
 62
13
 10
3374.548
 20
-7105.231
 30
836.765
 70
    32
  0
VERTEX
  8
T44SSILL
 62
13
 10
3372.514
 20
-7098.223
 30
836.693
 70
    32
  0
VERTEX
  8
T44SSILL
 62
13
 10
3374.742
 20
-7077.803
 30
836.529
 70
    32
  0
VERTEX
  8
T44SSILL
 62
13
 10
3371.492
 20
-7066.783
 30
836.415
 70
    32
  0
VERTEX
  8
T44SSILL
 62
13
 10
3371.841
 20
-7034.372
 30
836.136
 70
    32
  0
VERTEX
  8
T44SSILL
 62
13
 10
3365.533
 20
-7020.100
 30
835.976
 70
    32
  0
VERTEX
  8
T44SSILL
 62
13
 10
3359.221
 20
-7013.629
 30
835.883
 70
    32
  0
VERTEX
  8
T44SSILL
 62
13
 10
3356.965
 20
-6987.177
 30
835.641
 70
    32
  0
VERTEX
  8
T44SSILL
 62
13
 10
3350.130
 20
-6987.465
 30
835.604
 70
    32
  0
VERTEX
  8
T44SSILL
 62
13
 10
3356.137
 20
-7050.899
 30
836.188
 70
    32
  0
VERTEX
  8
T44SSILL
 62
13
 10
3351.056
 20
-7065.757
 30
836.287
 70
    32
  0
VERTEX
  8
T44SSILL
 62
13
 10
3358.424
 20
-7077.546
 30
836.432
 70
    32
  0
VERTEX
  8
T44SSILL
 62
13
 10
3356.549
 20
-7124.790
 30
836.830
 70
    32
  0
VERTEX
  8
T44SSILL
 62
13
 10
3373.814
 20
-7150.260
 30
837.151
 70
    32
  0
VERTEX
  8
T44SSILL
 62
13
 10
3372.263
 20
-7157.097
 30
837.201
 70
    32
  0
VERTEX
  8
T44SSILL
 62
13
 10
3375.596
 20
-7163.186
 30
837.273
 70
    32
  0
VERTEX
  8
T44SSILL
 62
13
 10
3378.053
 20
-7160.689
 30
837.265
 70
    32
  0
VERTEX
  8
T44SSILL
 62
13
 10
3380.602
 20
-7160.618
 30
837.280
 70
    32
  0
VERTEX
  8
T44SSILL
 62
13
 10
3388.171
 20
-7177.149
 30
837.467
 70
    32
  0
VERTEX
  8
T44SSILL
 62
13
 10
3470.702
 20
-7302.969
 30
837.457
 70
    32
  0
VERTEX
  8
T44SSILL
 62
13
 10
3480.311
 20
-7310.603
 30
837.448
 70
    32
  0
VERTEX
  8
T44SSILL
 62
13
 10
3491.962
 20
-7314.121
 30
837.442
 70
    32
  0
VERTEX
  8
T44SSILL
 62
13
 10
3367.314
 20
-7403.938
 30
837.414
 70
    32
  0
VERTEX
  8
T44SSILL
 62
13
 10
3357.098
 20
-7404.255
 30
837.417
 70
    32
  0
VERTEX
  8
T44SSILL
 62
13
 10
3348.435
 20
-7402.171
 30
837.421
 70
    32
  0
VERTEX
  8
T44SSILL
 62
13
 10
3341.860
 20
-7398.121
 30
837.424
 70
    32
  0
VERTEX
  8
T44SSILL
 62
13
 10
3333.521
 20
-7387.575
 30
837.428
 70
    32
  0
VERTEX
  8
T44SSILL
 62
13
 10
3327.326
 20
-7391.977
 30
837.430
 70
    32
  0
VERTEX
  8
T44SSILL
 62
13
 10
3333.509
 20
-7399.557
 30
837.427
 70
    32
  0
VERTEX
  8
T44SSILL
 62
13
 10
3249.527
 20
-7385.469
 30
837.460
 70
    32
  0
VERTEX
  8
T44SSILL
 62
13
 10
3142.447
 20
-7237.423
 30
836.560
 70
    32
  0
VERTEX
  8
T44SSILL
 62
13
 10
3142.625
 20
-7225.589
 30
836.459
 70
    32
  0
VERTEX
  8
T44SSILL
 62
13
 10
3148.590
 20
-7210.755
 30
836.365
 70
    32
  0
VERTEX
  8
T44SSILL
 62
13
 10
3219.797
 20
-7159.719
 30
836.337
 70
    32
  0
VERTEX
  8
T44SSILL
 62
13
 10
3215.071
 20
-7154.724
 30
836.267
 70
    32
  0
VERTEX
  8
T44SSILL
 62
13
 10
3213.836
 20
-7155.274
 30
836.264
 70
    32
  0
VERTEX
  8
T44SSILL
 62
13
 10
3201.194
 20
-7130.215
 30
835.974
 70
    32
  0
VERTEX
  8
T44SSILL
 62
13
 10
3187.787
 20
-7112.952
 30
835.746
 70
    32
  0
VERTEX
  8
T44SSILL
 62
13
 10
3181.479
 20
-7117.199
 30
835.747
 70
    32
  0
VERTEX
  8
T44SSILL
 62
13
 10
3198.514
 20
-7138.825
 30
836.033
 70
    32
  0
VERTEX
  8
T44SSILL
 62
13
 10
3201.218
 20
-7147.849
 30
836.127
 70
    32
  0
VERTEX
  8
T44SSILL
 62
13
 10
3199.943
 20
-7161.964
 30
836.241
 70
    32
  0
VERTEX
  8
T44SSILL
 62
13
 10
3195.079
 20
-7169.629
 30
836.279
 70
    32
  0
VERTEX
  8
T44SSILL
 62
13
 10
3128.303
 20
-7217.866
 30
836.309
 70
    32
  0
VERTEX
  8
T44SSILL
 62
13
 10
3035.971
 20
-7089.556
 30
834.662
 70
    32
  0
VERTEX
  8
T44SSILL
 62
13
 10
3032.105
 20
-7078.430
 30
834.580
 70
    32
  0
VERTEX
  8
T44SSILL
 62
13
 10
3034.556
 20
-7063.375
 30
834.660
 70
    32
  0
VERTEX
  8
T44SSILL
 62
13
 10
3042.722
 20
-7052.724
 30
834.714
 70
    32
  0
VERTEX
  8
T44SSILL
 62
13
 10
3156.710
 20
-6971.849
 30
835.103
 70
    32
  0
VERTEX
  8
T44SSILL
 62
13
 10
3162.521
 20
-6970.878
 30
835.106
 70
    32
  0
VERTEX
  8
T44SSILL
 62
13
 10
3170.726
 20
-6972.220
 30
835.096
 70
    32
  0
VERTEX
  8
T44SSILL
 62
13
 10
3179.218
 20
-6975.957
 30
835.072
 70
    32
  0
VERTEX
  8
T44SSILL
 62
13
 10
3190.422
 20
-6991.638
 30
834.983
 70
    32
  0
VERTEX
  8
T44SSILL
 62
13
 10
3201.691
 20
-6978.790
 30
835.048
 70
    32
  0
VERTEX
  8
T44SSILL
 62
13
 10
3204.068
 20
-6954.908
 30
835.175
 70
    32
  0
VERTEX
  8
T44SSILL
 62
13
 10
3208.700
 20
-6948.598
 30
835.207
 70
    32
  0
VERTEX
  8
T44SSILL
 62
13
 10
3208.660
 20
-6939.205
 30
835.258
 70
    32
  0
VERTEX
  8
T44SSILL
 62
13
 10
3213.734
 20
-6932.907
 30
835.290
 70
    32
  0
VERTEX
  8
T44SSILL
 62
13
 10
3209.249
 20
-6926.875
 30
835.324
 70
    32
  0
VERTEX
  8
T44SSILL
 62
13
 10
3197.888
 20
-6925.818
 30
835.334
 70
    32
  0
VERTEX
  8
T44SSILL
 62
13
 10
3179.391
 20
-6937.174
 30
835.281
 70
    32
  0
VERTEX
  8
T44SSILL
 62
13
 10
3163.844
 20
-6939.078
 30
835.277
 70
    32
  0
VERTEX
  8
T44SSILL
 62
13
 10
3146.429
 20
-6949.668
 30
835.227
 70
    32
  0
VERTEX
  8
T44SSILL
 62
13
 10
3145.432
 20
-6961.420
 30
835.164
 70
    32
  0
VERTEX
  8
T44SSILL
 62
13
 10
3148.731
 20
-6970.673
 30
835.113
 70
    32
  0
VERTEX
  8
T44SSILL
 62
13
 10
3040.278
 20
-7047.739
 30
834.742
 70
    32
  0
VERTEX
  8
T44SSILL
 62
13
 10
3028.275
 20
-7061.539
 30
834.672
 70
    32
  0
VERTEX
  8
T44SSILL
 62
13
 10
3025.426
 20
-7073.735
 30
834.608
 70
    32
  0
VERTEX
  8
T44SSILL
 62
13
 10
2980.674
 20
-7010.643
 30
834.965
 70
    32
  0
VERTEX
  8
T44SSILL
 62
13
 10
2977.633
 20
-6996.551
 30
835.042
 70
    32
  0
VERTEX
  8
T44SSILL
 62
13
 10
2981.751
 20
-6983.240
 30
835.112
 70
    32
  0
VERTEX
  8
T44SSILL
 62
13
 10
2987.161
 20
-6977.571
 30
835.140
 70
    32
  0
VERTEX
  8
T44SSILL
 62
13
 10
3103.296
 20
-6894.527
 30
835.541
 70
    32
  0
VERTEX
  8
T44SSILL
 62
13
 10
3111.725
 20
-6905.673
 30
835.477
 70
    32
  0
VERTEX
  8
T44SSILL
 62
13
 10
3122.539
 20
-6914.374
 30
835.426
 70
    32
  0
VERTEX
  8
T44SSILL
 62
13
 10
3134.536
 20
-6910.975
 30
835.440
 70
    32
  0
VERTEX
  8
T44SSILL
 62
13
 10
3140.302
 20
-6903.971
 30
835.475
 70
    32
  0
VERTEX
  8
T44SSILL
 62
13
 10
3127.433
 20
-6888.386
 30
835.564
 70
    32
  0
VERTEX
  8
T44SSILL
 62
13
 10
3124.245
 20
-6879.595
 30
835.612
 70
    32
  0
VERTEX
  8
T44SSILL
 62
13
 10
3304.189
 20
-6751.075
 30
836.232
 70
    32
  0
VERTEX
  8
T44SSILL
 62
13
 10
3300.469
 20
-6745.260
 30
836.265
 70
    32
  0
VERTEX
  8
T44SSILL
 62
13
 10
3124.773
 20
-6869.475
 30
835.667
 70
    32
  0
VERTEX
  8
T44SSILL
 62
13
 10
3114.028
 20
-6861.484
 30
835.714
 70
    32
  0
VERTEX
  8
T44SSILL
 62
13
 10
3112.406
 20
-6858.733
 30
835.729
 70
    32
  0
VERTEX
  8
T44SSILL
 62
13
 10
3102.192
 20
-6865.419
 30
835.698
 70
    32
  0
VERTEX
  8
T44SSILL
 62
13
 10
3094.622
 20
-6876.299
 30
835.642
 70
    32
  0
VERTEX
  8
T44SSILL
 62
13
 10
3096.409
 20
-6890.303
 30
835.566
 70
    32
  0
VERTEX
  8
T44SSILL
 62
13
 10
2983.993
 20
-6971.257
 30
835.176
 70
    32
  0
VERTEX
  8
T44SSILL
 62
13
 10
2973.735
 20
-6983.389
 30
835.114
 70
    32
  0
VERTEX
  8
T44SSILL
 62
13
 10
2970.746
 20
-6996.767
 30
835.044
 70
    32
  0
VERTEX
  8
T44SSILL
 62
13
 10
2932.761
 20
-6944.156
 30
835.342
 70
    32
  0
VERTEX
  8
T44SSILL
 62
13
 10
2930.231
 20
-6912.267
 30
835.514
 70
    32
  0
VERTEX
  8
T44SSILL
 62
13
 10
2933.533
 20
-6902.241
 30
835.567
 70
    32
  0
VERTEX
  8
T44SSILL
 62
13
 10
2937.287
 20
-6896.986
 30
835.594
 70
    32
  0
VERTEX
  8
T44SSILL
 62
13
 10
3186.025
 20
-6717.729
 30
836.459
 70
    32
  0
VERTEX
  8
T44SSILL
 62
13
 10
3181.490
 20
-6711.950
 30
836.491
 70
    32
  0
VERTEX
  8
T44SSILL
 62
13
 10
3033.026
 20
-6817.870
 30
835.981
 70
    32
  0
VERTEX
  8
T44SSILL
 62
13
 10
3035.862
 20
-6790.197
 30
836.129
 70
    32
  0
VERTEX
  8
T44SSILL
 62
13
 10
3048.245
 20
-6778.619
 30
836.186
 70
    32
  0
VERTEX
  8
T44SSILL
 62
13
 10
3058.852
 20
-6773.713
 30
836.208
 70
    32
  0
VERTEX
  8
T44SSILL
 62
13
 10
3062.037
 20
-6769.184
 30
836.231
 70
    32
  0
VERTEX
  8
T44SSILL
 62
13
 10
3064.474
 20
-6752.732
 30
836.319
 70
    32
  0
VERTEX
  8
T44SSILL
 62
13
 10
3064.117
 20
-6745.187
 30
836.360
 70
    32
  0
VERTEX
  8
T44SSILL
 62
13
 10
3069.082
 20
-6733.227
 30
836.422
 70
    32
  0
VERTEX
  8
T44SSILL
 62
13
 10
3067.742
 20
-6731.793
 30
836.430
 70
    32
  0
VERTEX
  8
T44SSILL
 62
13
 10
3064.760
 20
-6732.170
 30
836.429
 70
    32
  0
VERTEX
  8
T44SSILL
 62
13
 10
3050.118
 20
-6722.496
 30
836.487
 70
    32
  0
VERTEX
  8
T44SSILL
 62
13
 10
3046.706
 20
-6722.419
 30
836.489
 70
    32
  0
VERTEX
  8
T44SSILL
 62
13
 10
3044.544
 20
-6718.751
 30
836.510
 70
    32
  0
VERTEX
  8
T44SSILL
 62
13
 10
3037.074
 20
-6720.897
 30
836.501
 70
    32
  0
VERTEX
  8
T44SSILL
 62
13
 10
3035.981
 20
-6730.984
 30
836.447
 70
    32
  0
VERTEX
  8
T44SSILL
 62
13
 10
3028.878
 20
-6738.392
 30
836.410
 70
    32
  0
VERTEX
  8
T44SSILL
 62
13
 10
3027.935
 20
-6742.417
 30
836.389
 70
    32
  0
VERTEX
  8
T44SSILL
 62
13
 10
3023.771
 20
-6793.771
 30
836.114
 70
    32
  0
VERTEX
  8
T44SSILL
 62
13
 10
3026.304
 20
-6801.942
 30
836.069
 70
    32
  0
VERTEX
  8
T44SSILL
 62
13
 10
3023.756
 20
-6824.971
 30
835.947
 70
    32
  0
VERTEX
  8
T44SSILL
 62
13
 10
2941.134
 20
-6884.517
 30
835.659
 70
    32
  0
VERTEX
  8
T44SSILL
 62
13
 10
2930.125
 20
-6894.364
 30
835.611
 70
    32
  0
VERTEX
  8
T44SSILL
 62
13
 10
2926.134
 20
-6899.896
 30
835.583
 70
    32
  0
VERTEX
  8
T44SSILL
 62
13
 10
2923.852
 20
-6906.925
 30
835.546
 70
    32
  0
VERTEX
  8
T44SSILL
 62
13
 10
2924.741
 20
-6933.587
 30
835.402
 70
    32
  0
VERTEX
  8
T44SSILL
 62
13
 10
2861.057
 20
-6843.281
 30
835.913
 70
    32
  0
VERTEX
  8
T44SSILL
 62
13
 10
2863.971
 20
-6832.555
 30
835.970
 70
    32
  0
VERTEX
  8
T44SSILL
 62
13
 10
2874.748
 20
-6824.063
 30
836.011
 70
    32
  0
VERTEX
  8
T44SSILL
 62
13
 10
2890.089
 20
-6831.509
 30
835.965
 70
    32
  0
VERTEX
  8
T44SSILL
 62
13
 10
2908.881
 20
-6851.026
 30
835.852
 70
    32
  0
VERTEX
  8
T44SSILL
 62
13
 10
2913.290
 20
-6850.830
 30
835.852
 70
    32
  0
VERTEX
  8
T44SSILL
 62
13
 10
2921.242
 20
-6846.611
 30
835.871
 70
    32
  0
VERTEX
  8
T44SSILL
 62
13
 10
2943.549
 20
-6856.709
 30
835.808
 70
    32
  0
VERTEX
  8
T44SSILL
 62
13
 10
2945.858
 20
-6850.635
 30
835.840
 70
    32
  0
VERTEX
  8
T44SSILL
 62
13
 10
2929.328
 20
-6828.652
 30
835.965
 70
    32
  0
VERTEX
  8
T44SSILL
 62
13
 10
2926.499
 20
-6822.206
 30
836.000
 70
    32
  0
VERTEX
  8
T44SSILL
 62
13
 10
2921.418
 20
-6818.546
 30
836.022
 70
    32
  0
VERTEX
  8
T44SSILL
 62
13
 10
2911.197
 20
-6815.274
 30
836.044
 70
    32
  0
VERTEX
  8
T44SSILL
 62
13
 10
2905.933
 20
-6811.201
 30
836.068
 70
    32
  0
VERTEX
  8
T44SSILL
 62
13
 10
2902.447
 20
-6804.896
 30
836.103
 70
    32
  0
VERTEX
  8
T44SSILL
 62
13
 10
2926.570
 20
-6787.718
 30
836.186
 70
    32
  0
VERTEX
  8
T44SSILL
 62
13
 10
2921.410
 20
-6781.190
 30
836.223
 70
    32
  0
VERTEX
  8
T44SSILL
 62
13
 10
2895.398
 20
-6800.138
 30
836.132
 70
    32
  0
VERTEX
  8
T44SSILL
 62
13
 10
2882.805
 20
-6784.790
 30
836.219
 70
    32
  0
VERTEX
  8
T44SSILL
 62
13
 10
2860.918
 20
-6770.388
 30
836.305
 70
    32
  0
VERTEX
  8
T44SSILL
 62
13
 10
2853.376
 20
-6777.024
 30
836.273
 70
    32
  0
VERTEX
  8
T44SSILL
 62
13
 10
2855.837
 20
-6778.207
 30
836.265
 70
    32
  0
VERTEX
  8
T44SSILL
 62
13
 10
2867.697
 20
-6805.986
 30
836.111
 70
    32
  0
VERTEX
  8
T44SSILL
 62
13
 10
2874.894
 20
-6814.321
 30
836.063
 70
    32
  0
VERTEX
  8
T44SSILL
 62
13
 10
2852.244
 20
-6830.673
 30
835.985
 70
    32
  0
VERTEX
  8
T44SSILL
 62
13
 10
2811.573
 20
-6774.115
 30
836.305
 70
    32
  0
VERTEX
  8
T44SSILL
 62
13
 10
2809.752
 20
-6767.715
 30
836.340
 70
    32
  0
VERTEX
  8
T44SSILL
 62
13
 10
2810.646
 20
-6758.419
 30
836.390
 70
    32
  0
VERTEX
  8
T44SSILL
 62
13
 10
2815.676
 20
-6750.528
 30
836.430
 70
    32
  0
VERTEX
  8
T44SSILL
 62
13
 10
2822.724
 20
-6743.807
 30
836.464
 70
    32
  0
VERTEX
  8
T44SSILL
 62
13
 10
2916.105
 20
-6675.132
 30
836.796
 70
    32
  0
VERTEX
  8
T44SSILL
 62
13
 10
2911.452
 20
-6670.086
 30
836.825
 70
    32
  0
VERTEX
  8
T44SSILL
 62
13
 10
2814.468
 20
-6742.394
 30
836.475
 70
    32
  0
VERTEX
  8
T44SSILL
 62
13
 10
2807.749
 20
-6751.263
 30
836.430
 70
    32
  0
VERTEX
  8
T44SSILL
 62
13
 10
2804.055
 20
-6763.949
 30
836.363
 70
    32
  0
VERTEX
  8
T44SSILL
 62
13
 10
2759.642
 20
-6704.473
 30
836.701
 70
    32
  0
VERTEX
  8
T44SSILL
 62
13
 10
2756.009
 20
-6695.050
 30
836.753
 70
    32
  0
VERTEX
  8
T44SSILL
 62
13
 10
2755.932
 20
-6687.240
 30
836.795
 70
    32
  0
VERTEX
  8
T44SSILL
 62
13
 10
2761.491
 20
-6674.027
 30
836.864
 70
    32
  0
VERTEX
  8
T44SSILL
 62
13
 10
2773.645
 20
-6663.215
 30
836.917
 70
    32
  0
VERTEX
  8
T44SSILL
 62
13
 10
2804.321
 20
-6641.948
 30
837.019
 70
    32
  0
VERTEX
  8
T44SSILL
 62
13
 10
2807.310
 20
-6645.433
 30
836.999
 70
    32
  0
VERTEX
  8
T44SSILL
 62
13
 10
2820.452
 20
-6653.374
 30
836.951
 70
    32
  0
VERTEX
  8
T44SSILL
 62
13
 10
2822.560
 20
-6656.866
 30
836.931
 70
    32
  0
VERTEX
  8
T44SSILL
 62
13
 10
2824.787
 20
-6662.262
 30
836.902
 70
    32
  0
VERTEX
  8
T44SSILL
 62
13
 10
2823.745
 20
-6680.677
 30
836.803
 70
    32
  0
VERTEX
  8
T44SSILL
 62
13
 10
2825.385
 20
-6685.302
 30
836.777
 70
    32
  0
VERTEX
  8
T44SSILL
 62
13
 10
2833.255
 20
-6693.158
 30
836.732
 70
    32
  0
VERTEX
  8
T44SSILL
 62
13
 10
2835.393
 20
-6693.636
 30
836.728
 70
    32
  0
VERTEX
  8
T44SSILL
 62
13
 10
2838.428
 20
-6691.656
 30
836.738
 70
    32
  0
VERTEX
  8
T44SSILL
 62
13
 10
2841.523
 20
-6685.973
 30
836.767
 70
    32
  0
VERTEX
  8
T44SSILL
 62
13
 10
2843.506
 20
-6675.484
 30
836.823
 70
    32
  0
VERTEX
  8
T44SSILL
 62
13
 10
2848.821
 20
-6637.078
 30
837.027
 70
    32
  0
VERTEX
  8
T44SSILL
 62
13
 10
2847.595
 20
-6624.269
 30
837.097
 70
    32
  0
VERTEX
  8
T44SSILL
 62
13
 10
2848.777
 20
-6617.384
 30
837.133
 70
    32
  0
VERTEX
  8
T44SSILL
 62
13
 10
2855.098
 20
-6606.916
 30
837.187
 70
    32
  0
VERTEX
  8
T44SSILL
 62
13
 10
2860.784
 20
-6603.470
 30
837.203
 70
    32
  0
VERTEX
  8
T44SSILL
 62
13
 10
2859.975
 20
-6602.084
 30
837.211
 70
    32
  0
VERTEX
  8
T44SSILL
 62
13
 10
2888.659
 20
-6589.435
 30
837.268
 70
    32
  0
VERTEX
  8
T44SSILL
 62
13
 10
2884.608
 20
-6583.101
 30
837.303
 70
    32
  0
VERTEX
  8
T44SSILL
 62
13
 10
2854.824
 20
-6596.374
 30
837.244
 70
    32
  0
VERTEX
  8
T44SSILL
 62
13
 10
2849.294
 20
-6592.608
 30
837.266
 70
    32
  0
VERTEX
  8
T44SSILL
 62
13
 10
2843.938
 20
-6586.160
 30
837.303
 70
    32
  0
VERTEX
  8
T44SSILL
 62
13
 10
2835.583
 20
-6570.250
 30
837.392
 70
    32
  0
VERTEX
  8
T44SSILL
 62
13
 10
2830.588
 20
-6555.548
 30
837.473
 70
    32
  0
VERTEX
  8
T44SSILL
 62
13
 10
2827.806
 20
-6535.170
 30
837.584
 70
    32
  0
VERTEX
  8
T44SSILL
 62
13
 10
2824.493
 20
-6526.168
 30
837.634
 70
    32
  0
VERTEX
  8
T44SSILL
 62
13
 10
2819.194
 20
-6517.903
 30
837.680
 70
    32
  0
VERTEX
  8
T44SSILL
 62
13
 10
2816.319
 20
-6503.803
 30
837.757
 70
    32
  0
VERTEX
  8
T44SSILL
 62
13
 10
2813.580
 20
-6498.463
 30
837.787
 70
    32
  0
VERTEX
  8
T44SSILL
 62
13
 10
2804.134
 20
-6485.047
 30
837.863
 70
    32
  0
VERTEX
  8
T44SSILL
 62
13
 10
2791.415
 20
-6484.209
 30
837.873
 70
    32
  0
VERTEX
  8
T44SSILL
 62
13
 10
2781.361
 20
-6485.996
 30
837.867
 70
    32
  0
VERTEX
  8
T44SSILL
 62
13
 10
2775.354
 20
-6493.676
 30
837.828
 70
    32
  0
VERTEX
  8
T44SSILL
 62
13
 10
2767.551
 20
-6517.908
 30
837.701
 70
    32
  0
VERTEX
  8
T44SSILL
 62
13
 10
2780.474
 20
-6527.013
 30
837.647
 70
    32
  0
VERTEX
  8
T44SSILL
 62
13
 10
2781.492
 20
-6531.114
 30
837.624
 70
    32
  0
VERTEX
  8
T44SSILL
 62
13
 10
2779.803
 20
-6538.496
 30
837.585
 70
    32
  0
VERTEX
  8
T44SSILL
 62
13
 10
2773.272
 20
-6549.125
 30
837.531
 70
    32
  0
VERTEX
  8
T44SSILL
 62
13
 10
2770.200
 20
-6557.893
 30
837.485
 70
    32
  0
VERTEX
  8
T44SSILL
 62
13
 10
2774.341
 20
-6583.110
 30
837.348
 70
    32
  0
VERTEX
  8
T44SSILL
 62
13
 10
2780.803
 20
-6598.136
 30
837.264
 70
    32
  0
VERTEX
  8
T44SSILL
 62
13
 10
2775.704
 20
-6611.663
 30
837.193
 70
    32
  0
VERTEX
  8
T44SSILL
 62
13
 10
2788.240
 20
-6623.169
 30
837.126
 70
    32
  0
VERTEX
  8
T44SSILL
 62
13
 10
2799.362
 20
-6636.749
 30
837.049
 70
    32
  0
VERTEX
  8
T44SSILL
 62
13
 10
2758.803
 20
-6665.990
 30
836.908
 70
    32
  0
VERTEX
  8
T44SSILL
 62
13
 10
2751.721
 20
-6676.041
 30
836.857
 70
    32
  0
VERTEX
  8
T44SSILL
 62
13
 10
2748.683
 20
-6689.217
 30
836.787
 70
    32
  0
VERTEX
  8
T44SSILL
 62
13
 10
2676.476
 20
-6588.632
 30
837.414
 70
    32
  0
VERTEX
  8
T44SSILL
 62
13
 10
2672.910
 20
-6578.715
 30
837.457
 70
    32
  0
VERTEX
  8
T44SSILL
 62
13
 10
2671.968
 20
-6570.788
 30
837.475
 70
    32
  0
VERTEX
  8
T44SSILL
 62
13
 10
2675.100
 20
-6551.334
 30
837.558
 70
    32
  0
VERTEX
  8
T44SSILL
 62
13
 10
2682.285
 20
-6538.656
 30
837.624
 70
    32
  0
VERTEX
  8
T44SSILL
 62
13
 10
2686.399
 20
-6534.746
 30
837.643
 70
    32
  0
VERTEX
  8
T44SSILL
 62
13
 10
2764.419
 20
-6479.178
 30
837.911
 70
    32
  0
VERTEX
  8
T44SSILL
 62
13
 10
2766.215
 20
-6481.245
 30
837.899
 70
    32
  0
VERTEX
  8
T44SSILL
 62
13
 10
2769.564
 20
-6481.131
 30
837.898
 70
    32
  0
VERTEX
  8
T44SSILL
 62
13
 10
2772.011
 20
-6473.725
 30
837.937
 70
    32
  0
VERTEX
  8
T44SSILL
 62
13
 10
2834.772
 20
-6428.676
 30
838.154
 70
    32
  0
VERTEX
  8
T44SSILL
 62
13
 10
2840.799
 20
-6430.622
 30
838.141
 70
    32
  0
VERTEX
  8
T44SSILL
 62
13
 10
2846.245
 20
-6430.352
 30
838.140
 70
    32
  0
VERTEX
  8
T44SSILL
 62
13
 10
2859.761
 20
-6410.855
 30
838.240
 70
    32
  0
VERTEX
  8
T44SSILL
 62
13
 10
2871.655
 20
-6405.228
 30
838.265
 70
    32
  0
VERTEX
  8
T44SSILL
 62
13
 10
2884.557
 20
-6393.070
 30
838.326
 70
    32
  0
VERTEX
  8
T44SSILL
 62
13
 10
2909.159
 20
-6375.322
 30
838.411
 70
    32
  0
VERTEX
  8
T44SSILL
 62
13
 10
2904.387
 20
-6369.205
 30
838.446
 70
    32
  0
VERTEX
  8
T44SSILL
 62
13
 10
2878.516
 20
-6387.033
 30
838.361
 70
    32
  0
VERTEX
  8
T44SSILL
 62
13
 10
2874.362
 20
-6381.000
 30
838.395
 70
    32
  0
VERTEX
  8
T44SSILL
 62
13
 10
2874.175
 20
-6374.936
 30
838.427
 70
    32
  0
VERTEX
  8
T44SSILL
 62
13
 10
2859.957
 20
-6369.366
 30
838.463
 70
    32
  0
VERTEX
  8
T44SSILL
 62
13
 10
2845.265
 20
-6359.393
 30
838.523
 70
    32
  0
VERTEX
  8
T44SSILL
 62
13
 10
2849.625
 20
-6334.570
 30
838.654
 70
    32
  0
VERTEX
  8
T44SSILL
 62
13
 10
2842.209
 20
-6333.128
 30
838.665
 70
    32
  0
VERTEX
  8
T44SSILL
 62
13
 10
2839.311
 20
-6353.179
 30
838.558
 70
    32
  0
VERTEX
  8
T44SSILL
 62
13
 10
2833.836
 20
-6365.774
 30
838.493
 70
    32
  0
VERTEX
  8
T44SSILL
 62
13
 10
2831.565
 20
-6366.285
 30
838.491
 70
    32
  0
VERTEX
  8
T44SSILL
 62
13
 10
2825.660
 20
-6301.517
 30
838.842
 70
    32
  0
VERTEX
  8
T44SSILL
 62
13
 10
2819.229
 20
-6302.095
 30
838.841
 70
    32
  0
VERTEX
  8
T44SSILL
 62
13
 10
2825.481
 20
-6366.155
 30
838.494
 70
    32
  0
VERTEX
  8
T44SSILL
 62
13
 10
2822.473
 20
-6371.661
 30
838.466
 70
    32
  0
VERTEX
  8
T44SSILL
 62
13
 10
2814.122
 20
-6379.465
 30
838.427
 70
    32
  0
VERTEX
  8
T44SSILL
 62
13
 10
2818.824
 20
-6390.290
 30
838.367
 70
    32
  0
VERTEX
  8
T44SSILL
 62
13
 10
2815.785
 20
-6396.484
 30
838.335
 70
    32
  0
VERTEX
  8
T44SSILL
 62
13
 10
2824.080
 20
-6404.461
 30
838.289
 70
    32
  0
VERTEX
  8
T44SSILL
 62
13
 10
2827.947
 20
-6423.791
 30
838.183
 70
    32
  0
VERTEX
  8
T44SSILL
 62
13
 10
2774.619
 20
-6461.875
 30
838.000
 70
    32
  0
VERTEX
  8
T44SSILL
 62
13
 10
2769.684
 20
-6455.106
 30
838.038
 70
    32
  0
VERTEX
  8
T44SSILL
 62
13
 10
2762.698
 20
-6459.320
 30
838.018
 70
    32
  0
VERTEX
  8
T44SSILL
 62
13
 10
2755.763
 20
-6465.491
 30
837.988
 70
    32
  0
VERTEX
  8
T44SSILL
 62
13
 10
2759.924
 20
-6472.406
 30
837.949
 70
    32
  0
VERTEX
  8
T44SSILL
 62
13
 10
2677.707
 20
-6532.502
 30
837.658
 70
    32
  0
VERTEX
  8
T44SSILL
 62
13
 10
2671.059
 20
-6541.668
 30
837.612
 70
    32
  0
VERTEX
  8
T44SSILL
 62
13
 10
2666.228
 20
-6553.218
 30
837.552
 70
    32
  0
VERTEX
  8
T44SSILL
 62
13
 10
2664.125
 20
-6571.112
 30
837.538
 70
    32
  0
VERTEX
  8
T44SSILL
 62
13
 10
2545.834
 20
-6408.444
 30
838.715
 70
    32
  0
VERTEX
  8
T44SSILL
 62
13
 10
2467.330
 20
-6007.294
 30
839.811
 70
    32
  0
VERTEX
  8
T44SSILL
 62
13
 10
2480.071
 20
-5998.062
 30
839.822
 70
    32
  0
VERTEX
  8
T44SSILL
 62
13
 10
2476.054
 20
-5991.481
 30
839.836
 70
    32
  0
VERTEX
  8
T44SSILL
 62
13
 10
2465.721
 20
-5998.862
 30
839.827
 70
    32
  0
VERTEX
  8
T44SSILL
 62
13
 10
2257.034
 20
-4964.998
 30
842.455
 70
    32
  0
VERTEX
  8
T44SSILL
 62
13
 10
2260.117
 20
-4964.139
 30
842.447
 70
    32
  0
VERTEX
  8
T44SSILL
 62
13
 10
2265.232
 20
-4959.373
 30
842.432
 70
    32
  0
VERTEX
  8
T44SSILL
 62
13
 10
2264.149
 20
-4955.690
 30
842.431
 70
    32
  0
VERTEX
  8
T44SSILL
 62
13
 10
2258.696
 20
-4950.535
 30
842.437
 70
    32
  0
VERTEX
  8
T44SSILL
 62
13
 10
2255.771
 20
-4943.622
 30
842.436
 70
    32
  0
VERTEX
  8
T44SSILL
 62
13
 10
2252.127
 20
-4941.504
 30
842.441
 70
    32
  0
VERTEX
  8
T44SSILL
 62
13
 10
2182.987
 20
-4596.308
 30
843.966
 70
    32
  0
VERTEX
  8
T44SSILL
 62
13
 10
2183.139
 20
-4589.415
 30
843.952
 70
    32
  0
VERTEX
  8
T44SSILL
 62
13
 10
2205.662
 20
-4553.216
 30
843.807
 70
    32
  0
VERTEX
  8
T44SSILL
 62
13
 10
2196.875
 20
-4547.652
 30
843.825
 70
    32
  0
VERTEX
  8
T44SSILL
 62
13
 10
2181.214
 20
-4572.466
 30
843.925
 70
    32
  0
VERTEX
  8
T44SSILL
 62
13
 10
2177.323
 20
-4567.797
 30
843.928
 70
    32
  0
VERTEX
  8
T44SSILL
 62
13
 10
2135.789
 20
-4364.042
 30
843.661
 70
    32
  0
VERTEX
  8
T44SSILL
 62
13
 10
2127.909
 20
-4365.958
 30
843.691
 70
    32
  0
VERTEX
  8
T44SSILL
 62
13
 10
2168.322
 20
-4567.455
 30
843.957
 70
    32
  0
VERTEX
  8
T44SSILL
 62
13
 10
2169.641
 20
-4593.492
 30
844.004
 70
    32
  0
VERTEX
  8
T44SSILL
 62
13
 10
2175.132
 20
-4597.961
 30
843.995
 70
    32
  0
VERTEX
  8
T44SSILL
 62
13
 10
2177.401
 20
-4610.937
 30
844.013
 70
    32
  0
VERTEX
  8
T44SSILL
 62
13
 10
2174.931
 20
-4614.842
 30
844.029
 70
    32
  0
VERTEX
  8
T44SSILL
 62
13
 10
2172.234
 20
-4615.633
 30
844.039
 70
    32
  0
VERTEX
  8
T44SSILL
 62
13
 10
2140.782
 20
-4615.721
 30
843.438
 70
    32
  0
VERTEX
  8
T44SSILL
 62
13
 10
2141.375
 20
-4607.177
 30
843.563
 70
    32
  0
VERTEX
  8
T44SSILL
 62
13
 10
2128.047
 20
-4606.753
 30
843.280
 70
    32
  0
VERTEX
  8
T44SSILL
 62
13
 10
2127.658
 20
-4625.304
 30
843.028
 70
    32
  0
VERTEX
  8
T44SSILL
 62
13
 10
2166.630
 20
-4627.871
 30
843.839
 70
    32
  0
VERTEX
  8
T44SSILL
 62
13
 10
2174.190
 20
-4630.700
 30
843.966
 70
    32
  0
VERTEX
  8
T44SSILL
 62
13
 10
2179.136
 20
-4637.979
 30
843.978
 70
    32
  0
VERTEX
  8
T44SSILL
 62
13
 10
2188.540
 20
-4688.112
 30
843.523
 70
    32
  0
VERTEX
  8
T44SSILL
 62
13
 10
2208.219
 20
-4776.687
 30
842.787
 70
    32
  0
VERTEX
  8
T44SSILL
 62
13
 10
2211.433
 20
-4779.997
 30
842.813
 70
    32
  0
VERTEX
  8
T44SSILL
 62
13
 10
2217.478
 20
-4809.319
 30
842.560
 70
    32
  0
VERTEX
  8
T44SSILL
 62
13
 10
2209.928
 20
-4825.729
 30
842.519
 70
    32
  0
VERTEX
  8
T44SSILL
 62
13
 10
2199.535
 20
-4833.415
 30
842.632
 70
    32
  0
VERTEX
  8
T44SSILL
 62
13
 10
2193.727
 20
-4841.975
 30
842.706
 70
    32
  0
VERTEX
  8
T44SSILL
 62
13
 10
2187.604
 20
-4847.597
 30
842.775
 70
    32
  0
VERTEX
  8
T44SSILL
 62
13
 10
2193.382
 20
-4853.932
 30
842.738
 70
    32
  0
VERTEX
  8
T44SSILL
 62
13
 10
2207.326
 20
-4859.478
 30
842.625
 70
    32
  0
VERTEX
  8
T44SSILL
 62
13
 10
2217.875
 20
-4849.489
 30
842.505
 70
    32
  0
VERTEX
  8
T44SSILL
 62
13
 10
2212.634
 20
-4841.663
 30
842.533
 70
    32
  0
VERTEX
  8
T44SSILL
 62
13
 10
2218.664
 20
-4831.627
 30
842.454
 70
    32
  0
VERTEX
  8
T44SSILL
 62
13
 10
2222.215
 20
-4831.844
 30
842.423
 70
    32
  0
VERTEX
  8
T44SSILL
 62
13
 10
2371.159
 20
-5568.157
 30
841.121
 70
    32
  0
VERTEX
  8
T44SSILL
 62
13
 10
2365.823
 20
-5574.399
 30
841.098
 70
    32
  0
VERTEX
  8
T44SSILL
 62
13
 10
2367.180
 20
-5579.192
 30
841.088
 70
    32
  0
VERTEX
  8
T44SSILL
 62
13
 10
2374.218
 20
-5583.829
 30
841.087
 70
    32
  0
VERTEX
  8
T44SSILL
 62
13
 10
2376.733
 20
-5596.843
 30
841.059
 70
    32
  0
VERTEX
  8
T44SSILL
 62
13
 10
2353.513
 20
-5613.358
 30
840.982
 70
    32
  0
VERTEX
  8
T44SSILL
 62
13
 10
2358.283
 20
-5618.033
 30
840.982
 70
    32
  0
VERTEX
  8
T44SSILL
 62
13
 10
2378.125
 20
-5604.344
 30
841.043
 70
    32
  0
VERTEX
  8
T44SSILL
 62
13
 10
2397.353
 20
-5697.189
 30
840.846
 70
    32
  0
VERTEX
  8
T44SSILL
 62
13
 10
2374.170
 20
-5713.459
 30
840.775
 70
    32
  0
VERTEX
  8
T44SSILL
 62
13
 10
2378.229
 20
-5719.096
 30
840.767
 70
    32
  0
VERTEX
  8
T44SSILL
 62
13
 10
2398.744
 20
-5704.691
 30
840.830
 70
    32
  0
VERTEX
  8
T44SSILL
 62
13
 10
2417.754
 20
-5798.572
 30
840.474
 70
    32
  0
VERTEX
  8
T44SSILL
 62
13
 10
2396.830
 20
-5813.608
 30
840.501
 70
    32
  0
VERTEX
  8
T44SSILL
 62
13
 10
2401.185
 20
-5819.793
 30
840.465
 70
    32
  0
VERTEX
  8
T44SSILL
 62
13
 10
2419.143
 20
-5806.513
 30
840.443
 70
    32
  0
VERTEX
  8
T44SSILL
 62
13
 10
2459.170
 20
-6003.542
 30
839.820
 70
    32
  0
VERTEX
  8
T44SSILL
 62
13
 10
2445.769
 20
-6013.116
 30
839.800
 70
    32
  0
VERTEX
  8
T44SSILL
 62
13
 10
2450.367
 20
-6019.587
 30
839.788
 70
    32
  0
VERTEX
  8
T44SSILL
 62
13
 10
2460.834
 20
-6012.002
 30
839.804
 70
    32
  0
VERTEX
  8
T44SSILL
 62
13
 10
2538.908
 20
-6408.956
 30
838.770
 70
    32
  0
VERTEX
  8
T44SSILL
 62
13
 10
2658.886
 20
-6575.436
 30
837.574
 70
    32
  0
VERTEX
  8
T44SSILL
 62
13
 10
2658.238
 20
-6578.368
 30
837.576
 70
    32
  0
VERTEX
  8
T44SSILL
 62
13
 10
2662.312
 20
-6592.442
 30
837.524
 70
    32
  0
VERTEX
  8
T44SSILL
 62
13
 10
2660.391
 20
-6604.279
 30
837.523
 70
    32
  0
VERTEX
  8
T44SSILL
 62
13
 10
2663.711
 20
-6610.668
 30
837.487
 70
    32
  0
VERTEX
  8
T44SSILL
 62
13
 10
2670.289
 20
-6609.748
 30
837.436
 70
    32
  0
VERTEX
  8
T44SSILL
 62
13
 10
2689.286
 20
-6624.644
 30
837.262
 70
    32
  0
VERTEX
  8
T44SSILL
 62
13
 10
2693.794
 20
-6623.869
 30
837.226
 70
    32
  0
VERTEX
  8
T44SSILL
 62
13
 10
2765.722
 20
-6723.640
 30
836.595
 70
    32
  0
VERTEX
  8
T44SSILL
 62
13
 10
2768.018
 20
-6735.518
 30
836.530
 70
    32
  0
VERTEX
  8
T44SSILL
 62
13
 10
2767.927
 20
-6749.011
 30
836.458
 70
    32
  0
VERTEX
  8
T44SSILL
 62
13
 10
2700.499
 20
-6895.380
 30
836.803
 70
    32
  0
VERTEX
  8
T44SSILL
 62
13
 10
2698.846
 20
-6902.073
 30
836.807
 70
    32
  0
VERTEX
  8
T44SSILL
 62
13
 10
2699.832
 20
-6913.721
 30
836.783
 70
    32
  0
VERTEX
  8
T44SSILL
 62
13
 10
2704.555
 20
-6923.915
 30
836.731
 70
    32
  0
VERTEX
  8
T44SSILL
 62
13
 10
2532.102
 20
-6871.101
 30
838.196
 70
    32
  0
VERTEX
  8
T44SSILL
 62
13
 10
2427.206
 20
-6751.414
 30
839.207
 70
    32
  0
VERTEX
  8
T44SSILL
 62
13
 10
2421.038
 20
-6757.142
 30
839.249
 70
    32
  0
VERTEX
  8
T44SSILL
 62
13
 10
2522.684
 20
-6872.453
 30
838.270
 70
    32
  0
VERTEX
  8
T44SSILL
 62
13
 10
2520.549
 20
-6880.480
 30
838.277
 70
    32
  0
VERTEX
  8
T44SSILL
 62
13
 10
2520.840
 20
-6894.449
 30
838.255
 70
    32
  0
VERTEX
  8
T44SSILL
 62
13
 10
2530.636
 20
-6908.842
 30
838.157
 70
    32
  0
VERTEX
  8
T44SSILL
 62
13
 10
2544.787
 20
-6920.107
 30
838.027
 70
    32
  0
VERTEX
  8
T44SSILL
 62
13
 10
2566.297
 20
-6919.919
 30
837.853
 70
    32
  0
VERTEX
  8
T44SSILL
 62
13
 10
2573.137
 20
-6917.388
 30
837.802
 70
    32
  0
VERTEX
  8
T44SSILL
 62
13
 10
2571.556
 20
-6914.735
 30
837.818
 70
    32
  0
VERTEX
  8
T44SSILL
 62
13
 10
2588.932
 20
-6895.221
 30
837.704
 70
    32
  0
VERTEX
  8
T44SSILL
 62
13
 10
2711.959
 20
-6934.379
 30
836.657
 70
    32
  0
VERTEX
  8
T44SSILL
 62
13
 10
2743.090
 20
-6977.761
 30
836.346
 70
    32
  0
VERTEX
  8
T44SSILL
 62
13
 10
2739.194
 20
-6984.958
 30
836.368
 70
    32
  0
VERTEX
  8
T44SSILL
 62
13
 10
2739.695
 20
-6987.961
 30
836.360
 70
    32
  0
VERTEX
  8
T44SSILL
 62
13
 10
2745.477
 20
-6995.674
 30
836.303
 70
    32
  0
VERTEX
  8
T44SSILL
 62
13
 10
2753.813
 20
-6992.916
 30
836.239
 70
    32
  0
VERTEX
  8
T44SSILL
 62
13
 10
2830.555
 20
-7100.298
 30
836.034
 70
    32
  0
VERTEX
  8
T44SSILL
 62
13
 10
2827.096
 20
-7143.465
 30
836.572
 70
    32
  0
VERTEX
  8
T44SSILL
 62
13
 10
2835.448
 20
-7143.944
 30
836.462
 70
    32
  0
VERTEX
  8
T44SSILL
 62
13
 10
2837.047
 20
-7119.421
 30
836.162
 70
    32
  0
VERTEX
  8
T44SSILL
 62
13
 10
2839.753
 20
-7118.806
 30
836.117
 70
    32
  0
VERTEX
  8
T44SSILL
 62
13
 10
2844.438
 20
-7121.447
 30
836.083
 70
    32
  0
VERTEX
  8
T44SSILL
 62
13
 10
2875.396
 20
-7166.576
 30
836.169
 70
    32
  0
VERTEX
  8
T44SSILL
 62
13
 10
2868.820
 20
-7170.904
 30
836.309
 70
    32
  0
VERTEX
  8
T44SSILL
 62
13
 10
2870.567
 20
-7175.516
 30
836.337
 70
    32
  0
VERTEX
  8
T44SSILL
 62
13
 10
2873.820
 20
-7174.297
 30
836.278
 70
    32
  0
VERTEX
  8
T44SSILL
 62
13
 10
2876.229
 20
-7178.007
 30
836.287
 70
    32
  0
VERTEX
  8
T44SSILL
 62
13
 10
2882.377
 20
-7182.104
 30
836.249
 70
    32
  0
VERTEX
  8
T44SSILL
 62
13
 10
2894.802
 20
-7202.877
 30
837.566
 70
    32
  0
VERTEX
  8
T44SSILL
 62
13
 10
2898.513
 20
-7204.908
 30
838.170
 70
    32
  0
VERTEX
  8
T44SSILL
 62
13
 10
2903.660
 20
-7213.138
 30
839.600
 70
    32
  0
VERTEX
  8
T44SSILL
 62
13
 10
2919.921
 20
-7239.142
 30
839.422
 70
    32
  0
VERTEX
  8
T44SSILL
 62
13
 10
2924.402
 20
-7234.455
 30
839.424
 70
    32
  0
VERTEX
  8
T44SSILL
 62
13
 10
2921.025
 20
-7219.734
 30
839.501
 70
    32
  0
VERTEX
  8
T44SSILL
 62
13
 10
2927.820
 20
-7214.492
 30
839.496
 70
    32
  0
VERTEX
  8
T44SSILL
 62
13
 10
2932.747
 20
-7213.497
 30
839.480
 70
    32
  0
VERTEX
  8
T44SSILL
 62
13
 10
2936.539
 20
-7215.795
 30
839.455
 70
    32
  0
VERTEX
  8
T44SSILL
 62
13
 10
2976.921
 20
-7272.558
 30
839.047
 70
    32
  0
VERTEX
  8
T44SSILL
 62
13
 10
2978.267
 20
-7286.550
 30
838.981
 70
    32
  0
VERTEX
  8
T44SSILL
 62
13
 10
2984.104
 20
-7286.535
 30
838.958
 70
    32
  0
VERTEX
  8
T44SSILL
 62
13
 10
2989.790
 20
-7283.703
 30
838.933
 70
    32
  0
VERTEX
  8
T44SSILL
 62
13
 10
2990.972
 20
-7281.242
 30
838.933
 70
    32
  0
VERTEX
  8
T44SSILL
 62
13
 10
2989.516
 20
-7271.226
 30
838.975
 70
    32
  0
VERTEX
  8
T44SSILL
 62
13
 10
2994.132
 20
-7254.640
 30
838.998
 70
    32
  0
VERTEX
  8
T44SSILL
 62
13
 10
2997.532
 20
-7248.119
 30
838.996
 70
    32
  0
VERTEX
  8
T44SSILL
 62
13
 10
2982.239
 20
-7234.465
 30
839.143
 70
    32
  0
VERTEX
  8
T44SSILL
 62
13
 10
2978.890
 20
-7229.579
 30
839.181
 70
    32
  0
VERTEX
  8
T44SSILL
 62
13
 10
2977.425
 20
-7219.245
 30
839.224
 70
    32
  0
VERTEX
  8
T44SSILL
 62
13
 10
2994.769
 20
-7206.106
 30
839.151
 70
    32
  0
VERTEX
  8
T44SSILL
 62
13
 10
3006.139
 20
-7200.442
 30
839.326
 70
    32
  0
VERTEX
  8
T44SSILL
 62
13
 10
3025.975
 20
-7218.679
 30
838.978
 70
    32
  0
VERTEX
  8
T44SSILL
 62
13
 10
3033.111
 20
-7210.705
 30
839.199
 70
    32
  0
VERTEX
  8
T44SSILL
 62
13
 10
2976.160
 20
-7157.004
 30
839.726
 70
    32
  0
VERTEX
  8
T44SSILL
 62
13
 10
2977.916
 20
-7154.894
 30
839.110
 70
    32
  0
VERTEX
  8
T44SSILL
 62
13
 10
2972.440
 20
-7147.615
 30
838.568
 70
    32
  0
VERTEX
  8
T44SSILL
 62
13
 10
2969.691
 20
-7146.637
 30
838.772
 70
    32
  0
VERTEX
  8
T44SSILL
 62
13
 10
2968.247
 20
-7147.658
 30
839.152
 70
    32
  0
VERTEX
  8
T44SSILL
 62
13
 10
2963.684
 20
-7143.198
 30
838.569
 70
    32
  0
VERTEX
  8
T44SSILL
 62
13
 10
2961.181
 20
-7135.222
 30
837.299
 70
    32
  0
VERTEX
  8
T44SSILL
 62
13
 10
2963.428
 20
-7119.879
 30
834.874
 70
    32
  0
VERTEX
  8
T44SSILL
 62
13
 10
2971.053
 20
-7108.311
 30
834.447
 70
    32
  0
VERTEX
  8
T44SSILL
 62
13
 10
2978.955
 20
-7101.419
 30
834.477
 70
    32
  0
VERTEX
  8
T44SSILL
 62
13
 10
2986.108
 20
-7110.762
 30
834.555
 70
    32
  0
VERTEX
  8
T44SSILL
 62
13
 10
2993.448
 20
-7110.116
 30
834.592
 70
    32
  0
VERTEX
  8
T44SSILL
 62
13
 10
2996.017
 20
-7105.482
 30
834.567
 70
    32
  0
VERTEX
  8
T44SSILL
 62
13
 10
2991.978
 20
-7098.702
 30
834.487
 70
    32
  0
VERTEX
  8
T44SSILL
 62
13
 10
2992.139
 20
-7094.798
 30
834.508
 70
    32
  0
VERTEX
  8
T44SSILL
 62
13
 10
3001.121
 20
-7092.341
 30
834.517
 70
    32
  0
VERTEX
  8
T44SSILL
 62
13
 10
3015.053
 20
-7093.204
 30
834.572
 70
    32
  0
VERTEX
  8
T44SSILL
 62
13
 10
3028.023
 20
-7097.455
 30
834.684
 70
    32
  0
VERTEX
  8
T44SSILL
 62
13
 10
3040.976
 20
-7108.107
 30
834.851
 70
    32
  0
VERTEX
  8
T44SSILL
 62
13
 10
3130.137
 20
-7232.159
 30
836.443
 70
    32
  0
VERTEX
  8
T44SSILL
 62
13
 10
3118.606
 20
-7230.672
 30
836.363
 70
    32
  0
VERTEX
  8
T44SSILL
 62
13
 10
3105.637
 20
-7235.301
 30
836.328
 70
    32
  0
VERTEX
  8
T44SSILL
 62
13
 10
3094.735
 20
-7242.919
 30
838.700
 70
    32
  0
VERTEX
  8
T44SSILL
 62
13
 10
3007.303
 20
-7304.016
 30
838.750
 70
    32
  0
VERTEX
  8
T44SSILL
 62
13
 10
3012.188
 20
-7310.306
 30
838.697
 70
    32
  0
VERTEX
  8
T44SSILL
 62
13
 10
3100.779
 20
-7247.171
 30
838.625
 70
    32
  0
VERTEX
  8
T44SSILL
 62
13
 10
3107.578
 20
-7242.482
 30
836.856
 70
    32
  0
VERTEX
  8
T44SSILL
 62
13
 10
3119.499
 20
-7238.055
 30
836.432
 70
    32
  0
VERTEX
  8
T44SSILL
 62
13
 10
3122.569
 20
-7240.864
 30
836.474
 70
    32
  0
VERTEX
  8
T44SSILL
 62
13
 10
3120.522
 20
-7252.816
 30
836.914
 70
    32
  0
VERTEX
  8
T44SSILL
 62
13
 10
3114.393
 20
-7253.796
 30
837.931
 70
    32
  0
VERTEX
  8
T44SSILL
 62
13
 10
3116.717
 20
-7272.079
 30
838.122
 70
    32
  0
VERTEX
  8
T44SSILL
 62
13
 10
3116.212
 20
-7295.394
 30
838.050
 70
    32
  0
VERTEX
  8
T44SSILL
 62
13
 10
3124.195
 20
-7302.849
 30
837.972
 70
    32
  0
VERTEX
  8
T44SSILL
 62
13
 10
3130.756
 20
-7315.642
 30
837.887
 70
    32
  0
VERTEX
  8
T44SSILL
 62
13
 10
3120.498
 20
-7320.735
 30
837.939
 70
    32
  0
VERTEX
  8
T44SSILL
 62
13
 10
3120.496
 20
-7325.935
 30
837.922
 70
    32
  0
VERTEX
  8
T44SSILL
 62
13
 10
3127.966
 20
-7372.305
 30
837.722
 70
    32
  0
VERTEX
  8
T44SSILL
 62
13
 10
3128.572
 20
-7400.250
 30
837.627
 70
    32
  0
VERTEX
  8
T44SSILL
 62
13
 10
3141.397
 20
-7451.279
 30
837.487
 70
    32
  0
VERTEX
  8
T44SSILL
 62
13
 10
3143.812
 20
-7467.548
 30
837.485
 70
    32
  0
VERTEX
  8
T44SSILL
 62
13
 10
3139.771
 20
-7474.847
 30
837.485
 70
    32
  0
VERTEX
  8
T44SSILL
 62
13
 10
3144.248
 20
-7484.999
 30
837.484
 70
    32
  0
VERTEX
  8
T44SSILL
 62
13
 10
3147.648
 20
-7482.918
 30
837.483
 70
    32
  0
VERTEX
  8
T44SSILL
 62
13
 10
3156.776
 20
-7491.838
 30
837.480
 70
    32
  0
VERTEX
  8
T44SSILL
 62
13
 10
3161.007
 20
-7506.387
 30
837.477
 70
    32
  0
VERTEX
  8
T44SSILL
 62
13
 10
3175.406
 20
-7526.738
 30
837.469
 70
    32
  0
VERTEX
  8
T44SSILL
 62
13
 10
3174.273
 20
-7534.471
 30
837.469
 70
    32
  0
VERTEX
  8
T44SSILL
 62
13
 10
3178.168
 20
-7541.353
 30
837.467
 70
    32
  0
VERTEX
  8
T44SSILL
 62
13
 10
3158.281
 20
-7554.110
 30
837.472
 70
    32
  0
VERTEX
  8
T44SSILL
 62
13
 10
3162.437
 20
-7560.263
 30
837.470
 70
    32
  0
VERTEX
  8
T44SSILL
 62
13
 10
3186.453
 20
-7544.942
 30
837.463
 70
    32
  0
VERTEX
  8
T44SSILL
 62
13
 10
3188.292
 20
-7551.185
 30
837.462
 70
    32
  0
VERTEX
  8
T44SSILL
 62
13
 10
3198.489
 20
-7558.726
 30
837.458
 70
    32
  0
VERTEX
  8
T44SSILL
 62
13
 10
3211.488
 20
-7583.145
 30
837.450
 70
    32
  0
VERTEX
  8
T44SSILL
 62
13
 10
3214.967
 20
-7585.315
 30
837.449
 70
    32
  0
VERTEX
  8
T44SSILL
 62
13
 10
3219.280
 20
-7582.580
 30
837.448
 70
    32
  0
VERTEX
  8
T44SSILL
 62
13
 10
3223.973
 20
-7576.882
 30
837.447
 70
    32
  0
VERTEX
  8
T44SSILL
 62
13
 10
3224.659
 20
-7573.592
 30
837.447
 70
    32
  0
VERTEX
  8
T44SSILL
 62
13
 10
3205.518
 20
-7548.568
 30
837.456
 70
    32
  0
VERTEX
  8
T44SSILL
 62
13
 10
3198.692
 20
-7536.050
 30
837.460
 70
    32
  0
VERTEX
  8
T44SSILL
 62
13
 10
3223.968
 20
-7518.024
 30
837.454
 70
    32
  0
VERTEX
  8
T44SSILL
 62
13
 10
3226.919
 20
-7524.772
 30
837.452
 70
    32
  0
VERTEX
  8
T44SSILL
 62
13
 10
3232.262
 20
-7523.032
 30
837.451
 70
    32
  0
VERTEX
  8
T44SSILL
 62
13
 10
3236.088
 20
-7519.457
 30
837.450
 70
    32
  0
VERTEX
  8
T44SSILL
 62
13
 10
3235.028
 20
-7509.751
 30
837.451
 70
    32
  0
VERTEX
  8
T44SSILL
 62
13
 10
3264.211
 20
-7488.416
 30
837.443
 70
    32
  0
VERTEX
  8
T44SSILL
 62
13
 10
3298.750
 20
-7628.225
 30
837.414
 70
    32
  0
VERTEX
  8
T44SSILL
 62
13
 10
3292.027
 20
-7632.884
 30
837.416
 70
    32
  0
VERTEX
  8
T44SSILL
 62
13
 10
3297.858
 20
-7640.501
 30
837.413
 70
    32
  0
VERTEX
  8
T44SSILL
 62
13
 10
3301.089
 20
-7637.455
 30
837.412
 70
    32
  0
VERTEX
  8
T44SSILL
 62
13
 10
3305.651
 20
-7656.968
 30
837.408
 70
    32
  0
VERTEX
  8
T44SSILL
 62
13
 10
3311.536
 20
-7655.384
 30
837.406
 70
    32
  0
VERTEX
  8
T44SSILL
 62
13
 10
3306.255
 20
-7633.793
 30
837.411
 70
    32
  0
VERTEX
  8
T44SSILL
 62
13
 10
3316.987
 20
-7625.969
 30
837.408
 70
    32
  0
VERTEX
  8
T44SSILL
 62
13
 10
3311.596
 20
-7618.364
 30
837.410
 70
    32
  0
VERTEX
  8
T44SSILL
 62
13
 10
3304.326
 20
-7624.380
 30
837.413
 70
    32
  0
VERTEX
  8
T44SSILL
 62
13
 10
3272.341
 20
-7493.649
 30
837.439
 70
    32
  0
VERTEX
  8
T44SSILL
 62
13
 10
3275.112
 20
-7484.784
 30
837.439
 70
    32
  0
VERTEX
  8
T44SSILL
 62
13
 10
3282.004
 20
-7475.343
 30
837.438
 70
    32
  0
VERTEX
  8
T44SSILL
 62
13
 10
3715.443
 20
-7162.061
 30
837.562
 70
    32
  0
VERTEX
  8
T44SSILL
 62
13
 10
3723.032
 20
-7162.926
 30
837.560
 70
    32
  0
VERTEX
  8
T44SSILL
 62
13
 10
3728.619
 20
-7171.924
 30
837.550
 70
    32
  0
VERTEX
  8
T44SSILL
 62
13
 10
3721.036
 20
-7177.931
 30
837.545
 70
    32
  0
VERTEX
  8
T44SSILL
 62
13
 10
3726.259
 20
-7186.141
 30
837.536
 70
    32
  0
VERTEX
  8
T44SSILL
 62
13
 10
3751.997
 20
-7167.726
 30
837.551
 70
    32
  0
VERTEX
  8
T44SSILL
 62
13
 10
3834.379
 20
-7180.779
 30
837.525
 70
    32
  0
VERTEX
  8
T44SSILL
 62
13
 10
3846.119
 20
-7188.811
 30
837.516
 70
    32
  0
VERTEX
  8
T44SSILL
 62
13
 10
3965.311
 20
-7354.030
 30
837.332
 70
    32
  0
VERTEX
  8
T44SSILL
 62
13
 10
3964.716
 20
-7374.360
 30
837.311
 70
    32
  0
VERTEX
  8
T44SSILL
 62
13
 10
3958.510
 20
-7381.967
 30
837.304
 70
    32
  0
VERTEX
  8
T44SSILL
 62
13
 10
3924.247
 20
-7406.676
 30
837.285
 70
    32
  0
VERTEX
  8
T44SSILL
 62
13
 10
3921.128
 20
-7405.153
 30
837.287
 70
    32
  0
VERTEX
  8
T44SSILL
 62
13
 10
3917.136
 20
-7399.661
 30
837.293
 70
    32
  0
VERTEX
  8
T44SSILL
 62
13
 10
3902.389
 20
-7410.124
 30
837.284
 70
    32
  0
VERTEX
  8
T44SSILL
 62
13
 10
3907.185
 20
-7419.199
 30
837.275
 70
    32
  0
VERTEX
  8
T44SSILL
 62
13
 10
3783.958
 20
-7508.701
 30
837.245
 70
    32
  0
VERTEX
  8
T44SSILL
 62
13
 10
3769.940
 20
-7516.309
 30
837.249
 70
    32
  0
VERTEX
  8
T44SSILL
 62
13
 10
3761.453
 20
-7518.356
 30
837.252
 70
    32
  0
VERTEX
  8
T44SSILL
 62
13
 10
3744.066
 20
-7517.474
 30
837.259
 70
    32
  0
VERTEX
  8
T44SSILL
 62
13
 10
3734.689
 20
-7514.351
 30
837.263
 70
    32
  0
VERTEX
  8
T44SSILL
 62
13
 10
3732.131
 20
-7497.663
 30
837.266
 70
    32
  0
VERTEX
  8
T44SSILL
 62
13
 10
3710.604
 20
-7459.261
 30
837.278
 70
    32
  0
VERTEX
  8
T44SSILL
 62
13
 10
3701.176
 20
-7446.491
 30
837.283
 70
    32
  0
VERTEX
  8
T44SSILL
 62
13
 10
3684.342
 20
-7433.530
 30
837.294
 70
    32
  0
VERTEX
  8
T44SSILL
 62
13
 10
3679.944
 20
-7436.925
 30
837.292
 70
    32
  0
VERTEX
  8
T44SSILL
 62
13
 10
3680.771
 20
-7455.568
 30
837.290
 70
    32
  0
VERTEX
  8
T44SSILL
 62
13
 10
3683.754
 20
-7462.805
 30
837.288
 70
    32
  0
VERTEX
  8
T44SSILL
 62
13
 10
3691.198
 20
-7471.003
 30
837.284
 70
    32
  0
VERTEX
  8
T44SSILL
 62
13
 10
3696.874
 20
-7480.961
 30
837.281
 70
    32
  0
VERTEX
  8
T44SSILL
 62
13
 10
3696.902
 20
-7484.682
 30
837.280
 70
    32
  0
VERTEX
  8
T44SSILL
 62
13
 10
3696.679
 20
-7486.220
 30
837.280
 70
    32
  0
VERTEX
  8
T44SSILL
 62
13
 10
3687.273
 20
-7481.115
 30
837.284
 70
    32
  0
VERTEX
  8
T44SSILL
 62
13
 10
3684.505
 20
-7486.264
 30
837.285
 70
    32
  0
VERTEX
  8
T44SSILL
 62
13
 10
3548.235
 20
-7411.917
 30
837.345
 70
    32
  0
VERTEX
  8
T44SSILL
 62
13
 10
3544.465
 20
-7418.805
 30
837.345
 70
    32
  0
VERTEX
  8
T44SSILL
 62
13
 10
3562.854
 20
-7430.164
 30
837.337
 70
    32
  0
VERTEX
  8
T44SSILL
 62
13
 10
3669.862
 20
-7486.033
 30
837.290
 70
    32
  0
VERTEX
  8
T44SSILL
 62
13
 10
3716.285
 20
-7528.317
 30
837.268
 70
    32
  0
VERTEX
  8
T44SSILL
 62
13
 10
3727.855
 20
-7536.295
 30
837.263
 70
    32
  0
VERTEX
  8
T44SSILL
 62
13
 10
3729.560
 20
-7548.008
 30
837.261
 70
    32
  0
VERTEX
  8
T44SSILL
 62
13
 10
3703.457
 20
-7566.403
 30
837.269
 70
    32
  0
VERTEX
  8
T44SSILL
 62
13
 10
3707.889
 20
-7572.779
 30
837.266
 70
    32
  0
VERTEX
  8
T44SSILL
 62
13
 10
3730.937
 20
-7556.335
 30
837.259
 70
    32
  0
VERTEX
  8
T44SSILL
 62
13
 10
3743.410
 20
-7562.868
 30
837.254
 70
    32
  0
VERTEX
  8
T44SSILL
 62
13
 10
3748.322
 20
-7558.540
 30
837.253
 70
    32
  0
VERTEX
  8
T44SSILL
 62
13
 10
3747.769
 20
-7544.094
 30
837.255
 70
    32
  0
VERTEX
  8
T44SSILL
 62
13
 10
3763.876
 20
-7532.505
 30
837.250
 70
    32
  0
VERTEX
  8
T44SSILL
 62
13
 10
3762.350
 20
-7554.776
 30
837.248
 70
    32
  0
VERTEX
  8
T44SSILL
 62
13
 10
3758.689
 20
-7568.736
 30
837.248
 70
    32
  0
VERTEX
  8
T44SSILL
 62
13
 10
3746.025
 20
-7586.559
 30
837.250
 70
    32
  0
VERTEX
  8
T44SSILL
 62
13
 10
3737.213
 20
-7592.590
 30
837.253
 70
    32
  0
VERTEX
  8
T44SSILL
 62
13
 10
3733.409
 20
-7598.402
 30
837.254
 70
    32
  0
VERTEX
  8
T44SSILL
 62
13
 10
3732.895
 20
-7608.471
 30
837.253
 70
    32
  0
VERTEX
  8
T44SSILL
 62
13
 10
3736.574
 20
-7620.912
 30
837.251
 70
    32
  0
VERTEX
  8
T44SSILL
 62
13
 10
3746.293
 20
-7629.062
 30
837.246
 70
    32
  0
VERTEX
  8
T44SSILL
 62
13
 10
3748.047
 20
-7624.780
 30
837.246
 70
    32
  0
VERTEX
  8
T44SSILL
 62
13
 10
3753.580
 20
-7627.031
 30
837.244
 70
    32
  0
VERTEX
  8
T44SSILL
 62
13
 10
3759.173
 20
-7626.266
 30
837.242
 70
    32
  0
VERTEX
  8
T44SSILL
 62
13
 10
3761.981
 20
-7624.279
 30
837.241
 70
    32
  0
VERTEX
  8
T44SSILL
 62
13
 10
3770.730
 20
-7606.079
 30
837.239
 70
    32
  0
VERTEX
  8
T44SSILL
 62
13
 10
3773.966
 20
-7584.181
 30
837.240
 70
    32
  0
VERTEX
  8
T44SSILL
 62
13
 10
3773.594
 20
-7576.315
 30
837.241
 70
    32
  0
VERTEX
  8
T44SSILL
 62
13
 10
3769.708
 20
-7570.081
 30
837.243
 70
    32
  0
VERTEX
  8
T44SSILL
 62
13
 10
3771.017
 20
-7541.919
 30
837.246
 70
    32
  0
VERTEX
  8
T44SSILL
 62
13
 10
3778.189
 20
-7527.648
 30
837.245
 70
    32
  0
VERTEX
  8
T44SSILL
 62
13
 10
3786.989
 20
-7519.095
 30
837.243
 70
    32
  0
VERTEX
  8
T44SSILL
 62
13
 10
3790.245
 20
-7513.581
 30
837.242
 70
    32
  0
VERTEX
  8
T44SSILL
 62
13
 10
3959.745
 20
-7390.840
 30
837.295
 70
    32
  0
VERTEX
  8
T44SSILL
 62
13
 10
3968.727
 20
-7379.289
 30
837.306
 70
    32
  0
VERTEX
  8
T44SSILL
 62
13
 10
3973.044
 20
-7364.748
 30
837.320
 70
    32
  0
VERTEX
  8
T44SSILL
 62
13
 10
3976.084
 20
-7368.963
 30
837.315
 70
    32
  0
VERTEX
  8
T44SSILL
 62
13
 10
3971.942
 20
-7371.828
 30
837.313
 70
    32
  0
VERTEX
  8
T44SSILL
 62
13
 10
3975.281
 20
-7377.947
 30
837.306
 70
    32
  0
VERTEX
  8
T44SSILL
 62
13
 10
3979.951
 20
-7374.637
 30
837.309
 70
    32
  0
VERTEX
  8
T44SSILL
 62
13
 10
4090.711
 20
-7528.700
 30
837.137
 70
    32
  0
VERTEX
  8
T44SSILL
 62
13
 10
4086.799
 20
-7537.969
 30
837.128
 70
    32
  0
VERTEX
  8
T44SSILL
 62
13
 10
4071.594
 20
-7548.114
 30
837.132
 70
    32
  0
VERTEX
  8
T44SSILL
 62
13
 10
4079.104
 20
-7558.464
 30
837.128
 70
    32
  0
VERTEX
  8
T44SSILL
 62
13
 10
4095.034
 20
-7547.226
 30
837.123
 70
    32
  0
VERTEX
  8
T44SSILL
 62
13
 10
4103.739
 20
-7547.143
 30
837.120
 70
    32
  0
VERTEX
  8
T44SSILL
 62
13
 10
4193.294
 20
-7673.927
 30
837.163
 70
    32
  0
VERTEX
  8
T44SSILL
 62
13
 10
4187.328
 20
-7676.402
 30
837.161
 70
    32
  0
VERTEX
  8
T44SSILL
 62
13
 10
4185.143
 20
-7675.833
 30
837.160
 70
    32
  0
VERTEX
  8
T44SSILL
 62
13
 10
4181.292
 20
-7670.235
 30
837.158
 70
    32
  0
VERTEX
  8
T44SSILL
 62
13
 10
4170.820
 20
-7676.845
 30
837.154
 70
    32
  0
VERTEX
  8
T44SSILL
 62
13
 10
4170.490
 20
-7683.035
 30
837.155
 70
    32
  0
VERTEX
  8
T44SSILL
 62
13
 10
4167.199
 20
-7688.354
 30
837.154
 70
    32
  0
VERTEX
  8
T44SSILL
 62
13
 10
4138.007
 20
-7673.287
 30
837.142
 70
    32
  0
VERTEX
  8
T44SSILL
 62
13
 10
4118.991
 20
-7675.383
 30
837.135
 70
    32
  0
VERTEX
  8
T44SSILL
 62
13
 10
4118.691
 20
-7683.971
 30
837.135
 70
    32
  0
VERTEX
  8
T44SSILL
 62
13
 10
4105.480
 20
-7693.838
 30
837.131
 70
    32
  0
VERTEX
  8
T44SSILL
 62
13
 10
4104.973
 20
-7709.075
 30
837.132
 70
    32
  0
VERTEX
  8
T44SSILL
 62
13
 10
4101.256
 20
-7715.593
 30
837.131
 70
    32
  0
VERTEX
  8
T44SSILL
 62
13
 10
4096.860
 20
-7718.106
 30
837.130
 70
    32
  0
VERTEX
  8
T44SSILL
 62
13
 10
4105.477
 20
-7730.380
 30
837.134
 70
    32
  0
VERTEX
  8
T44SSILL
 62
13
 10
4114.687
 20
-7763.343
 30
837.140
 70
    32
  0
VERTEX
  8
T44SSILL
 62
13
 10
4123.625
 20
-7773.837
 30
837.144
 70
    32
  0
VERTEX
  8
T44SSILL
 62
13
 10
4127.087
 20
-7788.640
 30
837.145
 70
    32
  0
VERTEX
  8
T44SSILL
 62
13
 10
4108.172
 20
-7802.217
 30
837.137
 70
    32
  0
VERTEX
  8
T44SSILL
 62
13
 10
4112.746
 20
-7807.606
 30
837.138
 70
    32
  0
VERTEX
  8
T44SSILL
 62
13
 10
4131.008
 20
-7794.627
 30
837.146
 70
    32
  0
VERTEX
  8
T44SSILL
 62
13
 10
4141.850
 20
-7805.460
 30
837.149
 70
    32
  0
VERTEX
  8
T44SSILL
 62
13
 10
4145.487
 20
-7812.098
 30
837.150
 70
    32
  0
VERTEX
  8
T44SSILL
 62
13
 10
4166.263
 20
-7794.380
 30
837.158
 70
    32
  0
VERTEX
  8
T44SSILL
 62
13
 10
4167.380
 20
-7791.455
 30
837.159
 70
    32
  0
VERTEX
  8
T44SSILL
 62
13
 10
4161.836
 20
-7785.800
 30
837.157
 70
    32
  0
VERTEX
  8
T44SSILL
 62
13
 10
4158.667
 20
-7774.189
 30
837.157
 70
    32
  0
VERTEX
  8
T44SSILL
 62
13
 10
4199.135
 20
-7742.314
 30
837.170
 70
    32
  0
VERTEX
  8
T44SSILL
 62
13
 10
4205.300
 20
-7728.906
 30
837.171
 70
    32
  0
VERTEX
  8
T44SSILL
 62
13
 10
4210.460
 20
-7697.206
 30
837.171
 70
    32
  0
VERTEX
  8
T44SSILL
 62
13
 10
4321.329
 20
-7850.810
 30
837.210
 70
    32
  0
VERTEX
  8
T44SSILL
 62
13
 10
4323.559
 20
-7855.858
 30
837.211
 70
    32
  0
VERTEX
  8
T44SSILL
 62
13
 10
4324.254
 20
-7869.757
 30
837.211
 70
    32
  0
VERTEX
  8
T44SSILL
 62
13
 10
4323.222
 20
-7874.270
 30
837.210
 70
    32
  0
VERTEX
  8
T44SSILL
 62
13
 10
4317.330
 20
-7883.623
 30
837.208
 70
    32
  0
VERTEX
  8
T44SSILL
 62
13
 10
4262.384
 20
-7923.670
 30
837.185
 70
    32
  0
VERTEX
  8
T44SSILL
 62
13
 10
4254.209
 20
-7928.344
 30
837.182
 70
    32
  0
VERTEX
  8
T44SSILL
 62
13
 10
4249.163
 20
-7929.251
 30
837.180
 70
    32
  0
VERTEX
  8
T44SSILL
 62
13
 10
4235.022
 20
-7927.706
 30
837.175
 70
    32
  0
VERTEX
  8
T44SSILL
 62
13
 10
4225.899
 20
-7921.533
 30
837.171
 70
    32
  0
VERTEX
  8
T44SSILL
 62
13
 10
4225.003
 20
-7919.891
 30
837.171
 70
    32
  0
VERTEX
  8
T44SSILL
 62
13
 10
4231.009
 20
-7914.965
 30
837.173
 70
    32
  0
VERTEX
  8
T44SSILL
 62
13
 10
4223.675
 20
-7905.144
 30
837.171
 70
    32
  0
VERTEX
  8
T44SSILL
 62
13
 10
4218.156
 20
-7904.534
 30
837.169
 70
    32
  0
VERTEX
  8
T44SSILL
 62
13
 10
4203.230
 20
-7890.148
 30
837.164
 70
    32
  0
VERTEX
  8
T44SSILL
 62
13
 10
4183.006
 20
-7861.449
 30
837.159
 70
    32
  0
VERTEX
  8
T44SSILL
 62
13
 10
4177.158
 20
-7866.587
 30
837.157
 70
    32
  0
VERTEX
  8
T44SSILL
 62
13
 10
4207.584
 20
-7908.357
 30
837.164
 70
    32
  0
VERTEX
  8
T44SSILL
 62
13
 10
4203.041
 20
-7914.455
 30
837.162
 70
    32
  0
VERTEX
  8
T44SSILL
 62
13
 10
4204.855
 20
-7920.109
 30
837.163
 70
    32
  0
VERTEX
  8
T44SSILL
 62
13
 10
4211.505
 20
-7923.038
 30
837.166
 70
    32
  0
VERTEX
  8
T44SSILL
 62
13
 10
4204.029
 20
-7931.153
 30
837.162
 70
    32
  0
VERTEX
  8
T44SSILL
 62
13
 10
4207.581
 20
-7936.204
 30
837.164
 70
    32
  0
VERTEX
  8
T44SSILL
 62
13
 10
4212.157
 20
-7932.016
 30
837.166
 70
    32
  0
VERTEX
  8
T44SSILL
 62
13
 10
4221.848
 20
-7927.750
 30
837.169
 70
    32
  0
VERTEX
  8
T44SSILL
 62
13
 10
4228.980
 20
-7932.879
 30
837.172
 70
    32
  0
VERTEX
  8
T44SSILL
 62
13
 10
4243.010
 20
-7937.369
 30
837.177
 70
    32
  0
VERTEX
  8
T44SSILL
 62
13
 10
4221.219
 20
-7942.528
 30
837.169
 70
    32
  0
VERTEX
  8
T44SSILL
 62
13
 10
4218.284
 20
-7946.261
 30
837.168
 70
    32
  0
VERTEX
  8
T44SSILL
 62
13
 10
4206.881
 20
-7954.160
 30
837.163
 70
    32
  0
VERTEX
  8
T44SSILL
 62
13
 10
4199.521
 20
-7954.001
 30
837.160
 70
    32
  0
VERTEX
  8
T44SSILL
 62
13
 10
4203.847
 20
-7960.235
 30
837.162
 70
    32
  0
VERTEX
  8
T44SSILL
 62
13
 10
4209.187
 20
-7962.080
 30
837.164
 70
    32
  0
VERTEX
  8
T44SSILL
 62
13
 10
4162.842
 20
-7995.813
 30
837.145
 70
    32
  0
VERTEX
  8
T44SSILL
 62
13
 10
4167.627
 20
-8001.924
 30
837.146
 70
    32
  0
VERTEX
  8
T44SSILL
 62
13
 10
4217.611
 20
-7965.254
 30
837.167
 70
    32
  0
VERTEX
  8
T44SSILL
 62
13
 10
4227.939
 20
-7977.020
 30
837.171
 70
    32
  0
VERTEX
  8
T44SSILL
 62
13
 10
4231.312
 20
-7983.746
 30
837.172
 70
    32
  0
VERTEX
  8
T44SSILL
 62
13
 10
4231.776
 20
-7989.673
 30
837.172
 70
    32
  0
VERTEX
  8
T44SSILL
 62
13
 10
4236.411
 20
-7991.604
 30
837.173
 70
    32
  0
VERTEX
  8
T44SSILL
 62
13
 10
4239.161
 20
-7983.056
 30
837.175
 70
    32
  0
VERTEX
  8
T44SSILL
 62
13
 10
4244.622
 20
-7986.242
 30
837.177
 70
    32
  0
VERTEX
  8
T44SSILL
 62
13
 10
4299.513
 20
-8061.358
 30
837.196
 70
    32
  0
VERTEX
  8
T44SSILL
 62
13
 10
4280.371
 20
-8073.894
 30
837.188
 70
    32
  0
VERTEX
  8
T44SSILL
 62
13
 10
4285.875
 20
-8081.560
 30
837.190
 70
    32
  0
VERTEX
  8
T44SSILL
 62
13
 10
4287.624
 20
-8080.364
 30
837.191
 70
    32
  0
VERTEX
  8
T44SSILL
 62
13
 10
4292.095
 20
-8084.288
 30
837.193
 70
    32
  0
VERTEX
  8
T44SSILL
 62
13
 10
4313.758
 20
-8081.316
 30
837.201
 70
    32
  0
VERTEX
  8
T44SSILL
 62
13
 10
4364.515
 20
-8151.486
 30
837.219
 70
    32
  0
VERTEX
  8
T44SSILL
 62
13
 10
4370.714
 20
-8146.966
 30
837.222
 70
    32
  0
VERTEX
  8
T44SSILL
 62
13
 10
4251.666
 20
-7982.852
 30
837.180
 70
    32
  0
VERTEX
  8
T44SSILL
 62
13
 10
4249.992
 20
-7973.096
 30
837.179
 70
    32
  0
VERTEX
  8
T44SSILL
 62
13
 10
4252.637
 20
-7964.848
 30
837.180
 70
    32
  0
VERTEX
  8
T44SSILL
 62
13
 10
4248.558
 20
-7958.649
 30
837.179
 70
    32
  0
VERTEX
  8
T44SSILL
 62
13
 10
4247.455
 20
-7945.826
 30
837.179
 70
    32
  0
VERTEX
  8
T44SSILL
 62
13
 10
4253.165
 20
-7939.030
 30
837.181
 70
    32
  0
VERTEX
  8
T44SSILL
 62
13
 10
4318.089
 20
-7892.301
 30
837.208
 70
    32
  0
VERTEX
  8
T44SSILL
 62
13
 10
4323.866
 20
-7887.216
 30
837.210
 70
    32
  0
VERTEX
  8
T44SSILL
 62
13
 10
4330.518
 20
-7876.965
 30
837.213
 70
    32
  0
VERTEX
  8
T44SSILL
 62
13
 10
4337.058
 20
-7887.049
 30
837.216
 70
    32
  0
VERTEX
  8
T44SSILL
 62
13
 10
4343.717
 20
-7881.965
 30
837.218
 70
    32
  0
VERTEX
  8
T44SSILL
 62
13
 10
4503.829
 20
-8104.448
 30
837.275
 70
    32
  0
VERTEX
  8
T44SSILL
 62
13
 10
4502.944
 20
-8114.464
 30
837.274
 70
    32
  0
VERTEX
  8
T44SSILL
 62
13
 10
4497.063
 20
-8118.526
 30
837.272
 70
    32
  0
VERTEX
  8
T44SSILL
 62
13
 10
4502.868
 20
-8126.298
 30
837.274
 70
    32
  0
VERTEX
  8
T44SSILL
 62
13
 10
4513.377
 20
-8118.559
 30
837.278
 70
    32
  0
VERTEX
  8
T44SSILL
 62
13
 10
4589.195
 20
-8223.170
 30
837.305
 70
    32
  0
VERTEX
  8
T44SSILL
 62
13
 10
4595.888
 20
-8219.162
 30
837.308
 70
    32
  0
VERTEX
  8
T44SSILL
 62
13
 10
4349.510
 20
-7878.079
 30
837.221
 70
    32
  0
VERTEX
  8
T44SSILL
 62
13
 10
4359.347
 20
-7871.062
 30
837.225
 70
    32
  0
VERTEX
  8
T44SSILL
 62
13
 10
4352.769
 20
-7862.107
 30
837.222
 70
    32
  0
VERTEX
  8
T44SSILL
 62
13
 10
4339.803
 20
-7864.198
 30
837.217
 70
    32
  0
VERTEX
  8
T44SSILL
 62
13
 10
4227.421
 20
-7708.422
 30
837.178
 70
    32
  0
VERTEX
  8
T44SSILL
 62
13
 10
4242.339
 20
-7709.386
 30
837.184
 70
    32
  0
VERTEX
  8
T44SSILL
 62
13
 10
4257.624
 20
-7703.474
 30
837.189
 70
    32
  0
VERTEX
  8
T44SSILL
 62
13
 10
4386.430
 20
-7610.685
 30
837.202
 70
    32
  0
VERTEX
  8
T44SSILL
 62
13
 10
4397.342
 20
-7621.906
 30
837.209
 70
    32
  0
VERTEX
  8
T44SSILL
 62
13
 10
4423.809
 20
-7641.870
 30
837.222
 70
    32
  0
VERTEX
  8
T44SSILL
 62
13
 10
4425.511
 20
-7646.212
 30
837.224
 70
    32
  0
VERTEX
  8
T44SSILL
 62
13
 10
4424.448
 20
-7666.156
 30
837.233
 70
    32
  0
VERTEX
  8
T44SSILL
 62
13
 10
4426.511
 20
-7675.402
 30
837.237
 70
    32
  0
VERTEX
  8
T44SSILL
 62
13
 10
4433.942
 20
-7681.078
 30
837.241
 70
    32
  0
VERTEX
  8
T44SSILL
 62
13
 10
4447.873
 20
-7681.458
 30
837.244
 70
    32
  0
VERTEX
  8
T44SSILL
 62
13
 10
4452.984
 20
-7683.585
 30
837.246
 70
    32
  0
VERTEX
  8
T44SSILL
 62
13
 10
4469.114
 20
-7704.446
 30
837.257
 70
    32
  0
VERTEX
  8
T44SSILL
 62
13
 10
4475.862
 20
-7707.881
 30
837.260
 70
    32
  0
VERTEX
  8
T44SSILL
 62
13
 10
4482.301
 20
-7706.924
 30
837.261
 70
    32
  0
VERTEX
  8
T44SSILL
 62
13
 10
4493.538
 20
-7696.329
 30
837.259
 70
    32
  0
VERTEX
  8
T44SSILL
 62
13
 10
4499.255
 20
-7686.447
 30
837.256
 70
    32
  0
VERTEX
  8
T44SSILL
 62
13
 10
4502.882
 20
-7671.852
 30
837.250
 70
    32
  0
VERTEX
  8
T44SSILL
 62
13
 10
4501.762
 20
-7667.405
 30
837.248
 70
    32
  0
VERTEX
  8
T44SSILL
 62
13
 10
4506.046
 20
-7661.732
 30
837.246
 70
    32
  0
VERTEX
  8
T44SSILL
 62
13
 10
4500.389
 20
-7657.314
 30
837.243
 70
    32
  0
VERTEX
  8
T44SSILL
 62
13
 10
4503.787
 20
-7651.254
 30
837.241
 70
    32
  0
VERTEX
  8
T44SSILL
 62
13
 10
4502.052
 20
-7646.278
 30
837.239
 70
    32
  0
VERTEX
  8
T44SSILL
 62
13
 10
4499.338
 20
-7645.002
 30
837.238
 70
    32
  0
VERTEX
  8
T44SSILL
 62
13
 10
4492.061
 20
-7650.437
 30
837.239
 70
    32
  0
VERTEX
  8
T44SSILL
 62
13
 10
4479.383
 20
-7640.536
 30
837.232
 70
    32
  0
VERTEX
  8
T44SSILL
 62
13
 10
4480.079
 20
-7636.604
 30
837.231
 70
    32
  0
VERTEX
  8
T44SSILL
 62
13
 10
4483.596
 20
-7632.767
 30
837.230
 70
    32
  0
VERTEX
  8
T44SSILL
 62
13
 10
4508.904
 20
-7632.906
 30
837.235
 70
    32
  0
VERTEX
  8
T44SSILL
 62
13
 10
4508.297
 20
-7636.220
 30
837.236
 70
    32
  0
VERTEX
  8
T44SSILL
 62
13
 10
4511.662
 20
-7638.220
 30
837.237
 70
    32
  0
VERTEX
  8
T44SSILL
 62
13
 10
4518.944
 20
-7638.834
 30
837.239
 70
    32
  0
VERTEX
  8
T44SSILL
 62
13
 10
4526.502
 20
-7642.764
 30
837.242
 70
    32
  0
VERTEX
  8
T44SSILL
 62
13
 10
4528.684
 20
-7645.097
 30
837.244
 70
    32
  0
VERTEX
  8
T44SSILL
 62
13
 10
4529.553
 20
-7651.712
 30
837.247
 70
    32
  0
VERTEX
  8
T44SSILL
 62
13
 10
4544.163
 20
-7647.844
 30
837.248
 70
    32
  0
VERTEX
  8
T44SSILL
 62
13
 10
4555.077
 20
-7640.794
 30
837.247
 70
    32
  0
VERTEX
  8
T44SSILL
 62
13
 10
4545.515
 20
-7598.077
 30
837.227
 70
    32
  0
VERTEX
  8
T44SSILL
 62
13
 10
4539.887
 20
-7546.922
 30
837.204
 70
    32
  0
VERTEX
  8
T44SSILL
 62
13
 10
4530.860
 20
-7527.909
 30
837.194
 70
    32
  0
VERTEX
  8
T44SSILL
 62
13
 10
4523.049
 20
-7527.030
 30
837.192
 70
    32
  0
VERTEX
  8
T44SSILL
 62
13
 10
4517.610
 20
-7521.957
 30
837.189
 70
    32
  0
VERTEX
  8
T44SSILL
 62
13
 10
4514.971
 20
-7516.223
 30
837.186
 70
    32
  0
VERTEX
  8
T44SSILL
 62
13
 10
4546.768
 20
-7492.475
 30
837.182
 70
    32
  0
VERTEX
  8
T44SSILL
 62
13
 10
4542.052
 20
-7487.633
 30
837.179
 70
    32
  0
VERTEX
  8
T44SSILL
 62
13
 10
4510.746
 20
-7510.407
 30
837.183
 70
    32
  0
VERTEX
  8
T44SSILL
 62
13
 10
4506.062
 20
-7510.156
 30
837.182
 70
    32
  0
VERTEX
  8
T44SSILL
 62
13
 10
4496.774
 20
-7517.165
 30
837.183
 70
    32
  0
VERTEX
  8
T44SSILL
 62
13
 10
4495.436
 20
-7521.544
 30
837.185
 70
    32
  0
VERTEX
  8
T44SSILL
 62
13
 10
4411.689
 20
-7582.465
 30
837.195
 70
    32
  0
VERTEX
  8
T44SSILL
 62
13
 10
4405.782
 20
-7581.924
 30
837.193
 70
    32
  0
VERTEX
  8
T44SSILL
 62
13
 10
4403.037
 20
-7578.691
 30
837.192
 70
    32
  0
VERTEX
  8
T44SSILL
 62
13
 10
4401.813
 20
-7573.662
 30
837.189
 70
    32
  0
VERTEX
  8
T44SSILL
 62
13
 10
4403.206
 20
-7564.918
 30
837.186
 70
    32
  0
VERTEX
  8
T44SSILL
 62
13
 10
4401.373
 20
-7555.831
 30
837.182
 70
    32
  0
VERTEX
  8
T44SSILL
 62
13
 10
4403.805
 20
-7547.741
 30
837.179
 70
    32
  0
VERTEX
  8
T44SSILL
 62
13
 10
4402.935
 20
-7533.313
 30
837.172
 70
    32
  0
VERTEX
  8
T44SSILL
 62
13
 10
4394.703
 20
-7522.292
 30
837.166
 70
    32
  0
VERTEX
  8
T44SSILL
 62
13
 10
4388.465
 20
-7519.687
 30
837.164
 70
    32
  0
VERTEX
  8
T44SSILL
 62
13
 10
4383.880
 20
-7519.589
 30
837.163
 70
    32
  0
VERTEX
  8
T44SSILL
 62
13
 10
4375.444
 20
-7522.588
 30
837.163
 70
    32
  0
VERTEX
  8
T44SSILL
 62
13
 10
4369.256
 20
-7521.377
 30
837.161
 70
    32
  0
VERTEX
  8
T44SSILL
 62
13
 10
4362.339
 20
-7514.326
 30
837.157
 70
    32
  0
VERTEX
  8
T44SSILL
 62
13
 10
4363.920
 20
-7508.633
 30
837.154
 70
    32
  0
VERTEX
  8
T44SSILL
 62
13
 10
4372.432
 20
-7503.377
 30
837.154
 70
    32
  0
VERTEX
  8
T44SSILL
 62
13
 10
4375.145
 20
-7504.652
 30
837.155
 70
    32
  0
VERTEX
  8
T44SSILL
 62
13
 10
4377.869
 20
-7509.331
 30
837.157
 70
    32
  0
VERTEX
  8
T44SSILL
 62
13
 10
4399.257
 20
-7493.907
 30
837.155
 70
    32
  0
VERTEX
  8
T44SSILL
 62
13
 10
4394.156
 20
-7487.371
 30
837.151
 70
    32
  0
VERTEX
  8
T44SSILL
 62
13
 10
4461.482
 20
-7438.849
 30
837.143
 70
    32
  0
VERTEX
  8
T44SSILL
 62
13
 10
4466.218
 20
-7434.432
 30
837.142
 70
    32
  0
VERTEX
  8
T44SSILL
 62
13
 10
4472.746
 20
-7424.163
 30
837.139
 70
    32
  0
VERTEX
  8
T44SSILL
 62
13
 10
4474.326
 20
-7410.216
 30
837.134
 70
    32
  0
VERTEX
  8
T44SSILL
 62
13
 10
4471.616
 20
-7398.483
 30
837.128
 70
    32
  0
VERTEX
  8
T44SSILL
 62
13
 10
4396.382
 20
-7292.444
 30
837.280
 70
    32
  0
VERTEX
  8
T44SSILL
 62
13
 10
4390.573
 20
-7296.013
 30
837.278
 70
    32
  0
VERTEX
  8
T44SSILL
 62
13
 10
4461.693
 20
-7395.659
 30
837.125
 70
    32
  0
VERTEX
  8
T44SSILL
 62
13
 10
4466.925
 20
-7406.939
 30
837.131
 70
    32
  0
VERTEX
  8
T44SSILL
 62
13
 10
4468.139
 20
-7417.258
 30
837.135
 70
    32
  0
VERTEX
  8
T44SSILL
 62
13
 10
4465.727
 20
-7423.902
 30
837.138
 70
    32
  0
VERTEX
  8
T44SSILL
 62
13
 10
4461.006
 20
-7430.400
 30
837.140
 70
    32
  0
VERTEX
  8
T44SSILL
 62
13
 10
4396.717
 20
-7476.654
 30
837.147
 70
    32
  0
VERTEX
  8
T44SSILL
 62
13
 10
4390.372
 20
-7474.789
 30
837.145
 70
    32
  0
VERTEX
  8
T44SSILL
 62
13
 10
4394.694
 20
-7465.398
 30
837.142
 70
    32
  0
VERTEX
  8
T44SSILL
 62
13
 10
4399.557
 20
-7458.794
 30
837.140
 70
    32
  0
VERTEX
  8
T44SSILL
 62
13
 10
4405.226
 20
-7454.890
 30
837.139
 70
    32
  0
VERTEX
  8
T44SSILL
 62
13
 10
4418.976
 20
-7440.439
 30
837.136
 70
    32
  0
VERTEX
  8
T44SSILL
 62
13
 10
4415.782
 20
-7432.919
 30
837.132
 70
    32
  0
VERTEX
  8
T44SSILL
 62
13
 10
4408.116
 20
-7429.730
 30
837.129
 70
    32
  0
VERTEX
  8
T44SSILL
 62
13
 10
4399.501
 20
-7433.963
 30
837.129
 70
    32
  0
VERTEX
  8
T44SSILL
 62
13
 10
4388.655
 20
-7442.723
 30
837.131
 70
    32
  0
VERTEX
  8
T44SSILL
 62
13
 10
4381.051
 20
-7444.331
 30
837.130
 70
    32
  0
VERTEX
  8
T44SSILL
 62
13
 10
4372.818
 20
-7425.056
 30
837.128
 70
    32
  0
VERTEX
  8
T44SSILL
 62
13
 10
4369.916
 20
-7421.170
 30
837.134
 70
    32
  0
VERTEX
  8
T44SSILL
 62
13
 10
4358.206
 20
-7412.416
 30
837.151
 70
    32
  0
VERTEX
  8
T44SSILL
 62
13
 10
4353.065
 20
-7399.197
 30
837.170
 70
    32
  0
VERTEX
  8
T44SSILL
 62
13
 10
4378.764
 20
-7380.113
 30
837.180
 70
    32
  0
VERTEX
  8
T44SSILL
 62
13
 10
4374.561
 20
-7374.705
 30
837.189
 70
    32
  0
VERTEX
  8
T44SSILL
 62
13
 10
4291.923
 20
-7433.626
 30
837.159
 70
    32
  0
VERTEX
  8
T44SSILL
 62
13
 10
4258.819
 20
-7424.791
 30
837.187
 70
    32
  0
VERTEX
  8
T44SSILL
 62
13
 10
4253.587
 20
-7421.902
 30
837.193
 70
    32
  0
VERTEX
  8
T44SSILL
 62
13
 10
4269.889
 20
-7410.140
 30
837.200
 70
    32
  0
VERTEX
  8
T44SSILL
 62
13
 10
4265.773
 20
-7404.611
 30
837.209
 70
    32
  0
VERTEX
  8
T44SSILL
 62
13
 10
4239.914
 20
-7423.346
 30
837.199
 70
    32
  0
VERTEX
  8
T44SSILL
 62
13
 10
4215.490
 20
-7423.805
 30
837.211
 70
    32
  0
VERTEX
  8
T44SSILL
 62
13
 10
4188.541
 20
-7400.534
 30
837.251
 70
    32
  0
VERTEX
  8
T44SSILL
 62
13
 10
4253.137
 20
-7353.261
 30
837.279
 70
    32
  0
VERTEX
  8
T44SSILL
 62
13
 10
4273.257
 20
-7340.379
 30
837.284
 70
    32
  0
VERTEX
  8
T44SSILL
 62
13
 10
4275.154
 20
-7343.804
 30
837.279
 70
    32
  0
VERTEX
  8
T44SSILL
 62
13
 10
4285.330
 20
-7335.324
 30
837.284
 70
    32
  0
VERTEX
  8
T44SSILL
 62
13
 10
4287.527
 20
-7330.161
 30
837.289
 70
    32
  0
VERTEX
  8
T44SSILL
 62
13
 10
4334.545
 20
-7296.023
 30
837.307
 70
    32
  0
VERTEX
  8
T44SSILL
 62
13
 10
4330.428
 20
-7290.196
 30
837.317
 70
    32
  0
VERTEX
  8
T44SSILL
 62
13
 10
4283.058
 20
-7324.914
 30
837.298
 70
    32
  0
VERTEX
  8
T44SSILL
 62
13
 10
4277.202
 20
-7316.631
 30
837.311
 70
    32
  0
VERTEX
  8
T44SSILL
 62
13
 10
4267.289
 20
-7324.764
 30
837.307
 70
    32
  0
VERTEX
  8
T44SSILL
 62
13
 10
4272.711
 20
-7331.571
 30
837.295
 70
    32
  0
VERTEX
  8
T44SSILL
 62
13
 10
4176.417
 20
-7400.796
 30
837.253
 70
    32
  0
VERTEX
  8
T44SSILL
 62
13
 10
4170.676
 20
-7397.401
 30
837.257
 70
    32
  0
VERTEX
  8
T44SSILL
 62
13
 10
4164.286
 20
-7400.634
 30
837.255
 70
    32
  0
VERTEX
  8
T44SSILL
 62
13
 10
4159.207
 20
-7400.465
 30
837.256
 70
    32
  0
VERTEX
  8
T44SSILL
 62
13
 10
4143.276
 20
-7394.313
 30
837.264
 70
    32
  0
VERTEX
  8
T44SSILL
 62
13
 10
4133.474
 20
-7392.389
 30
837.268
 70
    32
  0
VERTEX
  8
T44SSILL
 62
13
 10
4122.234
 20
-7404.306
 30
837.257
 70
    32
  0
VERTEX
  8
T44SSILL
 62
13
 10
4114.113
 20
-7417.305
 30
837.246
 70
    32
  0
VERTEX
  8
T44SSILL
 62
13
 10
4120.757
 20
-7428.411
 30
837.233
 70
    32
  0
VERTEX
  8
T44SSILL
 62
13
 10
4128.355
 20
-7429.890
 30
837.231
 70
    32
  0
VERTEX
  8
T44SSILL
 62
13
 10
4132.103
 20
-7432.820
 30
837.227
 70
    32
  0
VERTEX
  8
T44SSILL
 62
13
 10
4084.670
 20
-7467.999
 30
837.199
 70
    32
  0
VERTEX
  8
T44SSILL
 62
13
 10
4072.548
 20
-7470.633
 30
837.198
 70
    32
  0
VERTEX
  8
T44SSILL
 62
13
 10
4065.491
 20
-7470.025
 30
837.200
 70
    32
  0
VERTEX
  8
T44SSILL
 62
13
 10
4057.157
 20
-7466.263
 30
837.205
 70
    32
  0
VERTEX
  8
T44SSILL
 62
13
 10
4052.530
 20
-7462.890
 30
837.209
 70
    32
  0
VERTEX
  8
T44SSILL
 62
13
 10
4006.359
 20
-7398.591
 30
837.281
 70
    32
  0
VERTEX
  8
T44SSILL
 62
13
 10
4017.833
 20
-7400.019
 30
837.277
 70
    32
  0
VERTEX
  8
T44SSILL
 62
13
 10
4030.829
 20
-7396.845
 30
837.279
 70
    32
  0
VERTEX
  8
T44SSILL
 62
13
 10
4062.180
 20
-7374.864
 30
837.296
 70
    32
  0
VERTEX
  8
T44SSILL
 62
13
 10
4083.979
 20
-7405.692
 30
837.262
 70
    32
  0
VERTEX
  8
T44SSILL
 62
13
 10
4086.955
 20
-7407.762
 30
837.259
 70
    32
  0
VERTEX
  8
T44SSILL
 62
13
 10
4116.648
 20
-7393.289
 30
837.269
 70
    32
  0
VERTEX
  8
T44SSILL
 62
13
 10
4136.936
 20
-7372.414
 30
837.287
 70
    32
  0
VERTEX
  8
T44SSILL
 62
13
 10
4127.047
 20
-7361.089
 30
837.300
 70
    32
  0
VERTEX
  8
T44SSILL
 62
13
 10
4115.020
 20
-7351.912
 30
837.311
 70
    32
  0
VERTEX
  8
T44SSILL
 62
13
 10
4107.340
 20
-7342.332
 30
837.322
 70
    32
  0
VERTEX
  8
T44SSILL
 62
13
 10
4201.133
 20
-7274.769
 30
837.376
 70
    32
  0
VERTEX
  8
T44SSILL
 62
13
 10
4196.719
 20
-7268.681
 30
837.383
 70
    32
  0
VERTEX
  8
T44SSILL
 62
13
 10
4094.440
 20
-7342.629
 30
837.324
 70
    32
  0
VERTEX
  8
T44SSILL
 62
13
 10
4086.448
 20
-7344.306
 30
837.323
 70
    32
  0
VERTEX
  8
T44SSILL
 62
13
 10
4079.484
 20
-7342.793
 30
837.326
 70
    32
  0
VERTEX
  8
T44SSILL
 62
13
 10
4069.571
 20
-7343.814
 30
837.326
 70
    32
  0
VERTEX
  8
T44SSILL
 62
13
 10
4063.895
 20
-7351.245
 30
837.320
 70
    32
  0
VERTEX
  8
T44SSILL
 62
13
 10
4063.572
 20
-7362.602
 30
837.308
 70
    32
  0
VERTEX
  8
T44SSILL
 62
13
 10
4061.945
 20
-7366.150
 30
837.305
 70
    32
  0
VERTEX
  8
T44SSILL
 62
13
 10
4032.202
 20
-7387.751
 30
837.288
 70
    32
  0
VERTEX
  8
T44SSILL
 62
13
 10
4025.281
 20
-7390.666
 30
837.286
 70
    32
  0
VERTEX
  8
T44SSILL
 62
13
 10
4014.031
 20
-7392.671
 30
837.285
 70
    32
  0
VERTEX
  8
T44SSILL
 62
13
 10
4001.821
 20
-7388.874
 30
837.291
 70
    32
  0
VERTEX
  8
T44SSILL
 62
13
 10
3996.033
 20
-7384.460
 30
837.296
 70
    32
  0
VERTEX
  8
T44SSILL
 62
13
 10
3951.037
 20
-7322.259
 30
837.366
 70
    32
  0
VERTEX
  8
T44SSILL
 62
13
 10
3965.758
 20
-7322.761
 30
837.363
 70
    32
  0
VERTEX
  8
T44SSILL
 62
13
 10
3977.860
 20
-7318.630
 30
837.365
 70
    32
  0
VERTEX
  8
T44SSILL
 62
13
 10
4085.914
 20
-7241.469
 30
837.427
 70
    32
  0
VERTEX
  8
T44SSILL
 62
13
 10
4088.749
 20
-7243.644
 30
837.424
 70
    32
  0
VERTEX
  8
T44SSILL
 62
13
 10
4094.637
 20
-7244.750
 30
837.422
 70
    32
  0
VERTEX
  8
T44SSILL
 62
13
 10
4110.523
 20
-7255.557
 30
837.409
 70
    32
  0
VERTEX
  8
T44SSILL
 62
13
 10
4117.350
 20
-7263.225
 30
837.400
 70
    32
  0
VERTEX
  8
T44SSILL
 62
13
 10
4122.302
 20
-7273.834
 30
837.389
 70
    32
  0
VERTEX
  8
T44SSILL
 62
13
 10
4129.941
 20
-7272.862
 30
837.389
 70
    32
  0
VERTEX
  8
T44SSILL
 62
13
 10
4134.390
 20
-7270.419
 30
837.390
 70
    32
  0
VERTEX
  8
T44SSILL
 62
13
 10
4127.089
 20
-7261.234
 30
837.401
 70
    32
  0
VERTEX
  8
T44SSILL
 62
13
 10
4121.168
 20
-7250.358
 30
837.412
 70
    32
  0
VERTEX
  8
T44SSILL
 62
13
 10
4103.824
 20
-7236.567
 30
837.429
 70
    32
  0
VERTEX
  8
T44SSILL
 62
13
 10
4101.508
 20
-7230.813
 30
837.435
 70
    32
  0
VERTEX
  8
T44SSILL
 62
13
 10
4104.622
 20
-7225.405
 30
837.440
 70
    32
  0
VERTEX
  8
T44SSILL
 62
13
 10
4100.666
 20
-7219.666
 30
837.446
 70
    32
  0
VERTEX
  8
T44SSILL
 62
13
 10
4092.841
 20
-7217.145
 30
837.450
 70
    32
  0
VERTEX
  8
T44SSILL
 62
13
 10
4082.974
 20
-7203.493
 30
837.465
 70
    32
  0
VERTEX
  8
T44SSILL
 62
13
 10
4069.420
 20
-7190.944
 30
837.480
 70
    32
  0
VERTEX
  8
T44SSILL
 62
13
 10
4067.788
 20
-7186.549
 30
837.485
 70
    32
  0
VERTEX
  8
T44SSILL
 62
13
 10
4059.254
 20
-7194.574
 30
837.478
 70
    32
  0
VERTEX
  8
T44SSILL
 62
13
 10
4061.615
 20
-7204.367
 30
837.468
 70
    32
  0
VERTEX
  8
T44SSILL
 62
13
 10
4082.205
 20
-7235.325
 30
837.433
 70
    32
  0
VERTEX
  8
T44SSILL
 62
13
 10
3973.547
 20
-7312.522
 30
837.372
 70
    32
  0
VERTEX
  8
T44SSILL
 62
13
 10
3964.073
 20
-7315.560
 30
837.370
 70
    32
  0
VERTEX
  8
T44SSILL
 62
13
 10
3950.485
 20
-7314.161
 30
837.374
 70
    32
  0
VERTEX
  8
T44SSILL
 62
13
 10
3939.271
 20
-7305.945
 30
837.384
 70
    32
  0
VERTEX
  8
T44SSILL
 62
13
 10
3927.673
 20
-7289.897
 30
837.402
 70
    32
  0
VERTEX
  8
T44SSILL
 62
13
 10
3929.652
 20
-7288.508
 30
837.403
 70
    32
  0
VERTEX
  8
T44SSILL
 62
13
 10
3938.061
 20
-7290.042
 30
837.400
 70
    32
  0
VERTEX
  8
T44SSILL
 62
13
 10
3949.585
 20
-7286.167
 30
837.402
 70
    32
  0
VERTEX
  8
T44SSILL
 62
13
 10
4041.530
 20
-7220.799
 30
837.454
 70
    32
  0
VERTEX
  8
T44SSILL
 62
13
 10
4054.874
 20
-7188.710
 30
837.484
 70
    32
  0
VERTEX
  8
T44SSILL
 62
13
 10
4073.612
 20
-7167.232
 30
837.503
 70
    32
  0
VERTEX
  8
T44SSILL
 62
13
 10
4085.342
 20
-7157.150
 30
837.512
 70
    32
  0
VERTEX
  8
T44SSILL
 62
13
 10
4098.546
 20
-7125.167
 30
837.542
 70
    32
  0
VERTEX
  8
T44SSILL
 62
13
 10
4098.571
 20
-7121.517
 30
837.545
 70
    32
  0
VERTEX
  8
T44SSILL
 62
13
 10
4059.166
 20
-7054.315
 30
837.619
 70
    32
  0
VERTEX
  8
T44SSILL
 62
13
 10
4049.973
 20
-7056.448
 30
837.618
 70
    32
  0
VERTEX
  8
T44SSILL
 62
13
 10
4044.789
 20
-7047.002
 30
837.628
 70
    32
  0
VERTEX
  8
T44SSILL
 62
13
 10
4049.637
 20
-7039.199
 30
837.636
 70
    32
  0
VERTEX
  8
T44SSILL
 62
13
 10
4048.334
 20
-7033.606
 30
837.641
 70
    32
  0
VERTEX
  8
T44SSILL
 62
13
 10
4079.388
 20
-7010.728
 30
837.660
 70
    32
  0
VERTEX
  8
T44SSILL
 62
13
 10
4075.312
 20
-7005.044
 30
837.666
 70
    32
  0
VERTEX
  8
T44SSILL
 62
13
 10
4015.301
 20
-7049.129
 30
837.631
 70
    32
  0
VERTEX
  8
T44SSILL
 62
13
 10
3999.744
 20
-7026.259
 30
837.656
 70
    32
  0
VERTEX
  8
T44SSILL
 62
13
 10
3989.751
 20
-7036.352
 30
837.647
 70
    32
  0
VERTEX
  8
T44SSILL
 62
13
 10
3989.611
 20
-7051.861
 30
837.632
 70
    32
  0
VERTEX
  8
T44SSILL
 62
13
 10
3981.478
 20
-7062.633
 30
837.622
 70
    32
  0
VERTEX
  8
T44SSILL
 62
13
 10
3959.746
 20
-7058.439
 30
837.630
 70
    32
  0
VERTEX
  8
T44SSILL
 62
13
 10
3954.207
 20
-7059.308
 30
837.630
 70
    32
  0
VERTEX
  8
T44SSILL
 62
13
 10
3951.700
 20
-7062.778
 30
837.626
 70
    32
  0
VERTEX
  8
T44SSILL
 62
13
 10
3951.034
 20
-7078.470
 30
837.611
 70
    32
  0
VERTEX
  8
T44SSILL
 62
13
 10
3947.351
 20
-7092.530
 30
837.597
 70
    32
  0
VERTEX
  8
T44SSILL
 62
13
 10
3947.774
 20
-7097.634
 30
837.592
 70
    32
  0
VERTEX
  8
T44SSILL
 62
13
 10
3868.804
 20
-7153.345
 30
837.548
 70
    32
  0
VERTEX
  8
T44SSILL
 62
13
 10
3855.156
 20
-7160.405
 30
837.543
 70
    32
  0
VERTEX
  8
T44SSILL
 62
13
 10
3847.939
 20
-7160.945
 30
837.543
 70
    32
  0
VERTEX
  8
T44SSILL
 62
13
 10
3837.686
 20
-7158.530
 30
837.547
 70
    32
  0
VERTEX
  8
T44SSILL
 62
13
 10
3826.548
 20
-7149.521
 30
837.558
 70
    32
  0
VERTEX
  8
T44SSILL
 62
13
 10
3819.066
 20
-7134.252
 30
837.574
 70
    32
  0
VERTEX
  8
T44SSILL
 62
13
 10
3836.982
 20
-7074.761
 30
837.632
 70
    32
  0
VERTEX
  8
T44SSILL
 62
13
 10
4052.635
 20
-6919.277
 30
837.756
 70
    32
  0
VERTEX
  8
T44SSILL
 62
13
 10
4057.224
 20
-6926.262
 30
837.748
 70
    32
  0
VERTEX
  8
T44SSILL
 62
13
 10
4063.329
 20
-6921.685
 30
837.752
 70
    32
  0
VERTEX
  8
T44SSILL
 62
13
 10
4059.185
 20
-6915.046
 30
837.759
 70
    32
  0
VERTEX
  8
T44SSILL
 62
13
 10
4072.351
 20
-6904.997
 30
837.767
 70
    32
  0
VERTEX
  8
T44SSILL
 62
13
 10
4085.912
 20
-6923.753
 30
837.746
 70
    32
  0
VERTEX
  8
T44SSILL
 62
13
 10
4096.648
 20
-6916.381
 30
837.752
 70
    32
  0
VERTEX
  8
T44SSILL
 62
13
 10
4083.440
 20
-6897.708
 30
837.773
 70
    32
  0
VERTEX
  8
T44SSILL
 62
13
 10
4102.632
 20
-6883.788
 30
837.784
 70
    32
  0
VERTEX
  8
T44SSILL
 62
13
 10
4111.356
 20
-6896.707
 30
837.770
 70
    32
  0
VERTEX
  8
T44SSILL
 62
13
 10
4121.732
 20
-6888.811
 30
837.776
 70
    32
  0
VERTEX
  8
T44SSILL
 62
13
 10
4112.753
 20
-6876.600
 30
837.790
 70
    32
  0
VERTEX
  8
T44SSILL
 62
13
 10
4129.415
 20
-6864.477
 30
837.799
 70
    32
  0
VERTEX
  8
T44SSILL
 62
13
 10
4138.763
 20
-6877.917
 30
837.784
 70
    32
  0
VERTEX
  8
T44SSILL
 62
13
 10
4145.829
 20
-6872.797
 30
837.789
 70
    32
  0
VERTEX
  8
T44SSILL
 62
13
 10
4136.129
 20
-6859.362
 30
837.804
 70
    32
  0
VERTEX
  8
T44SSILL
 62
13
 10
4678.341
 20
-6472.823
 30
838.111
 70
    32
  0
VERTEX
  8
T44SSILL
 62
13
 10
4706.609
 20
-6457.983
 30
838.122
 70
    32
  0
VERTEX
  8
T44SSILL
 62
13
 10
4722.785
 20
-6469.648
 30
838.108
 70
    32
  0
VERTEX
  8
T44SSILL
 62
13
 10
4741.532
 20
-6464.697
 30
838.110
 70
    32
  0
VERTEX
  8
T44SSILL
 62
13
 10
4745.632
 20
-6468.716
 30
838.105
 70
    32
  0
VERTEX
  8
T44SSILL
 62
13
 10
4740.017
 20
-6472.037
 30
838.103
 70
    32
  0
VERTEX
  8
T44SSILL
 62
13
 10
4743.325
 20
-6476.416
 30
838.098
 70
    32
  0
VERTEX
  8
T44SSILL
 62
13
 10
4721.866
 20
-6492.689
 30
838.085
 70
    32
  0
VERTEX
  8
T44SSILL
 62
13
 10
4761.336
 20
-6548.776
 30
838.010
 70
    32
  0
VERTEX
  8
T44SSILL
 62
13
 10
4783.249
 20
-6533.734
 30
838.018
 70
    32
  0
VERTEX
  8
T44SSILL
 62
13
 10
4793.800
 20
-6547.661
 30
837.995
 70
    32
  0
VERTEX
  8
T44SSILL
 62
13
 10
4788.535
 20
-6550.713
 30
837.994
 70
    32
  0
VERTEX
  8
T44SSILL
 62
13
 10
4786.742
 20
-6547.907
 30
837.998
 70
    32
  0
VERTEX
  8
T44SSILL
 62
13
 10
4779.466
 20
-6552.744
 30
837.996
 70
    32
  0
VERTEX
  8
T44SSILL
 62
13
 10
4784.798
 20
-6565.487
 30
837.978
 70
    32
  0
VERTEX
  8
T44SSILL
 62
13
 10
4829.434
 20
-6626.289
 30
837.879
 70
    32
  0
VERTEX
  8
T44SSILL
 62
13
 10
4833.797
 20
-6639.218
 30
837.861
 70
    32
  0
VERTEX
  8
T44SSILL
 62
13
 10
4838.511
 20
-6642.966
 30
837.854
 70
    32
  0
VERTEX
  8
T44SSILL
 62
13
 10
4846.389
 20
-6645.359
 30
837.847
 70
    32
  0
VERTEX
  8
T44SSILL
 62
13
 10
4853.880
 20
-6644.402
 30
837.844
 70
    32
  0
VERTEX
  8
T44SSILL
 62
13
 10
4853.280
 20
-6619.346
 30
837.876
 70
    32
  0
VERTEX
  8
T44SSILL
 62
13
 10
4936.947
 20
-6736.416
 30
837.687
 70
    32
  0
VERTEX
  8
T44SSILL
 62
13
 10
4898.277
 20
-6761.549
 30
837.676
 70
    32
  0
VERTEX
  8
T44SSILL
 62
13
 10
4895.170
 20
-6756.713
 30
837.684
 70
    32
  0
VERTEX
  8
T44SSILL
 62
13
 10
4888.569
 20
-6761.250
 30
837.682
 70
    32
  0
VERTEX
  8
T44SSILL
 62
13
 10
4889.648
 20
-6763.357
 30
837.679
 70
    32
  0
VERTEX
  8
T44SSILL
 62
13
 10
4884.965
 20
-6771.610
 30
837.671
 70
    32
  0
VERTEX
  8
T44SSILL
 62
13
 10
4886.913
 20
-6772.297
 30
837.669
 70
    32
  0
VERTEX
  8
T44SSILL
 62
13
 10
4877.939
 20
-6778.526
 30
837.666
 70
    32
  0
VERTEX
  8
T44SSILL
 62
13
 10
4882.545
 20
-6785.753
 30
837.655
 70
    32
  0
VERTEX
  8
T44SSILL
 62
13
 10
4892.243
 20
-6778.973
 30
837.658
 70
    32
  0
VERTEX
  8
T44SSILL
 62
13
 10
4909.489
 20
-6779.751
 30
837.648
 70
    32
  0
VERTEX
  8
T44SSILL
 62
13
 10
4912.243
 20
-6772.664
 30
837.655
 70
    32
  0
VERTEX
  8
T44SSILL
 62
13
 10
4908.893
 20
-6766.910
 30
837.664
 70
    32
  0
VERTEX
  8
T44SSILL
 62
13
 10
4943.758
 20
-6746.359
 30
837.672
 70
    32
  0
VERTEX
  8
T44SSILL
 62
13
 10
4982.751
 20
-6799.412
 30
837.586
 70
    32
  0
VERTEX
  8
T44SSILL
 62
13
 10
4984.203
 20
-6813.651
 30
837.568
 70
    32
  0
VERTEX
  8
T44SSILL
 62
13
 10
4981.776
 20
-6825.645
 30
837.554
 70
    32
  0
VERTEX
  8
T44SSILL
 62
13
 10
4971.380
 20
-6836.411
 30
837.546
 70
    32
  0
VERTEX
  8
T44SSILL
 62
13
 10
4873.225
 20
-6905.242
 30
837.512
 70
    32
  0
VERTEX
  8
T44SSILL
 62
13
 10
4878.420
 20
-6913.044
 30
837.499
 70
    32
  0
VERTEX
  8
T44SSILL
 62
13
 10
4928.974
 20
-6876.187
 30
837.519
 70
    32
  0
VERTEX
  8
T44SSILL
 62
13
 10
4932.108
 20
-6880.745
 30
837.511
 70
    32
  0
VERTEX
  8
T44SSILL
 62
13
 10
4938.850
 20
-6875.384
 30
837.515
 70
    32
  0
VERTEX
  8
T44SSILL
 62
13
 10
4935.629
 20
-6871.003
 30
837.522
 70
    32
  0
VERTEX
  8
T44SSILL
 62
13
 10
4978.221
 20
-6841.108
 30
837.537
 70
    32
  0
VERTEX
  8
T44SSILL
 62
13
 10
4985.988
 20
-6832.295
 30
837.544
 70
    32
  0
VERTEX
  8
T44SSILL
 62
13
 10
4990.316
 20
-6823.781
 30
837.552
 70
    32
  0
VERTEX
  8
T44SSILL
 62
13
 10
4992.604
 20
-6814.139
 30
837.563
 70
    32
  0
VERTEX
  8
T44SSILL
 62
13
 10
5003.334
 20
-6828.417
 30
837.539
 70
    32
  0
VERTEX
  8
T44SSILL
 62
13
 10
4998.384
 20
-6831.499
 30
837.538
 70
    32
  0
VERTEX
  8
T44SSILL
 62
13
 10
5004.245
 20
-6840.233
 30
837.524
 70
    32
  0
VERTEX
  8
T44SSILL
 62
13
 10
5009.420
 20
-6837.005
 30
837.526
 70
    32
  0
VERTEX
  8
T44SSILL
 62
13
 10
5095.819
 20
-6957.778
 30
837.331
 70
    32
  0
VERTEX
  8
T44SSILL
 62
13
 10
5084.767
 20
-6965.805
 30
837.327
 70
    32
  0
VERTEX
  8
T44SSILL
 62
13
 10
5089.487
 20
-6971.414
 30
837.318
 70
    32
  0
VERTEX
  8
T44SSILL
 62
13
 10
5099.922
 20
-6963.568
 30
837.322
 70
    32
  0
VERTEX
  8
T44SSILL
 62
13
 10
5149.335
 20
-7031.807
 30
837.212
 70
    32
  0
VERTEX
  8
T44SSILL
 62
13
 10
5139.648
 20
-7089.399
 30
837.146
 70
    32
  0
VERTEX
  8
T44SSILL
 62
13
 10
5068.864
 20
-7140.420
 30
837.132
 70
    32
  0
VERTEX
  8
T44SSILL
 62
13
 10
5072.715
 20
-7147.800
 30
837.136
 70
    32
  0
VERTEX
  8
T44SSILL
 62
13
 10
5147.625
 20
-7094.188
 30
837.136
 70
    32
  0
VERTEX
  8
T44SSILL
 62
13
 10
5155.756
 20
-7040.577
 30
837.198
 70
    32
  0
VERTEX
  8
T44SSILL
 62
13
 10
5250.836
 20
-7171.968
 30
837.296
 70
    32
  0
VERTEX
  8
T44SSILL
 62
13
 10
5252.912
 20
-7177.950
 30
837.305
 70
    32
  0
VERTEX
  8
T44SSILL
 62
13
 10
5253.007
 20
-7189.858
 30
837.319
 70
    32
  0
VERTEX
  8
T44SSILL
 62
13
 10
5246.648
 20
-7200.053
 30
837.326
 70
    32
  0
VERTEX
  8
T44SSILL
 62
13
 10
5239.660
 20
-7197.639
 30
837.316
 70
    32
  0
VERTEX
  8
T44SSILL
 62
13
 10
5231.044
 20
-7190.121
 30
837.299
 70
    32
  0
VERTEX
  8
T44SSILL
 62
13
 10
5228.663
 20
-7190.228
 30
837.297
 70
    32
  0
VERTEX
  8
T44SSILL
 62
13
 10
5221.021
 20
-7194.434
 30
837.295
 70
    32
  0
VERTEX
  8
T44SSILL
 62
13
 10
5212.095
 20
-7203.415
 30
837.298
 70
    32
  0
VERTEX
  8
T44SSILL
 62
13
 10
5219.300
 20
-7222.059
 30
837.327
 70
    32
  0
VERTEX
  8
T44SSILL
 62
13
 10
5208.776
 20
-7229.817
 30
837.327
 70
    32
  0
VERTEX
  8
T44SSILL
 62
13
 10
5208.721
 20
-7233.964
 30
837.332
 70
    32
  0
VERTEX
  8
T44SSILL
 62
13
 10
5213.976
 20
-7240.362
 30
837.344
 70
    32
  0
VERTEX
  8
T44SSILL
 62
13
 10
5218.991
 20
-7238.646
 30
837.347
 70
    32
  0
VERTEX
  8
T44SSILL
 62
13
 10
5220.501
 20
-7239.957
 30
837.350
 70
    32
  0
VERTEX
  8
T44SSILL
 62
13
 10
5235.813
 20
-7279.709
 30
837.412
 70
    32
  0
VERTEX
  8
T44SSILL
 62
13
 10
5249.313
 20
-7302.361
 30
837.452
 70
    32
  0
VERTEX
  8
T44SSILL
 62
13
 10
5251.955
 20
-7301.811
 30
837.454
 70
    32
  0
VERTEX
  8
T44SSILL
 62
13
 10
5256.231
 20
-7295.954
 30
837.451
 70
    32
  0
VERTEX
  8
T44SSILL
 62
13
 10
5259.406
 20
-7273.611
 30
837.426
 70
    32
  0
VERTEX
  8
T44SSILL
 62
13
 10
5267.424
 20
-7261.374
 30
837.419
 70
    32
  0
VERTEX
  8
T44SSILL
 62
13
 10
5292.153
 20
-7242.740
 30
837.419
 70
    32
  0
VERTEX
  8
T44SSILL
 62
13
 10
5302.399
 20
-7244.335
 30
837.431
 70
    32
  0
VERTEX
  8
T44SSILL
 62
13
 10
5482.248
 20
-7497.318
 30
837.797
 70
    32
  0
VERTEX
  8
T44SSILL
 62
13
 10
5489.091
 20
-7492.588
 30
837.803
 70
    32
  0
VERTEX
  8
T44SSILL
 62
13
 10
5463.925
 20
-7456.179
 30
837.819
 70
    32
  0
VERTEX
  8
T44SSILL
 62
13
 10
5472.652
 20
-7410.944
 30
837.752
 70
    32
  0
VERTEX
  8
T44SSILL
 62
13
 10
5466.116
 20
-7398.734
 30
837.739
 70
    32
  0
VERTEX
  8
T44SSILL
 62
13
 10
5453.634
 20
-7382.161
 30
837.725
 70
    32
  0
VERTEX
  8
T44SSILL
 62
13
 10
5462.407
 20
-7376.092
 30
837.711
 70
    32
  0
VERTEX
  8
T44SSILL
 62
13
 10
5457.770
 20
-7369.778
 30
837.705
 70
    32
  0
VERTEX
  8
T44SSILL
 62
13
 10
5446.628
 20
-7377.541
 30
837.723
 70
    32
  0
VERTEX
  8
T44SSILL
 62
13
 10
5432.271
 20
-7357.983
 30
837.686
 70
    32
  0
VERTEX
  8
T44SSILL
 62
13
 10
5425.955
 20
-7362.532
 30
837.686
 70
    32
  0
VERTEX
  8
T44SSILL
 62
13
 10
5457.311
 20
-7411.948
 30
837.763
 70
    32
  0
VERTEX
  8
T44SSILL
 62
13
 10
5457.873
 20
-7416.090
 30
837.768
 70
    32
  0
VERTEX
  8
T44SSILL
 62
13
 10
5453.319
 20
-7442.502
 30
837.807
 70
    32
  0
VERTEX
  8
T44SSILL
 62
13
 10
5304.255
 20
-7233.735
 30
837.419
 70
    32
  0
VERTEX
  8
T44SSILL
 62
13
 10
5355.740
 20
-7196.364
 30
837.419
 70
    32
  0
VERTEX
  8
T44SSILL
 62
13
 10
5366.542
 20
-7201.395
 30
837.434
 70
    32
  0
VERTEX
  8
T44SSILL
 62
13
 10
5370.018
 20
-7205.778
 30
837.443
 70
    32
  0
VERTEX
  8
T44SSILL
 62
13
 10
5375.152
 20
-7219.146
 30
837.464
 70
    32
  0
VERTEX
  8
T44SSILL
 62
13
 10
5379.386
 20
-7219.112
 30
837.468
 70
    32
  0
VERTEX
  8
T44SSILL
 62
13
 10
5384.561
 20
-7226.481
 30
837.481
 70
    32
  0
VERTEX
  8
T44SSILL
 62
13
 10
5397.154
 20
-7223.735
 30
837.489
 70
    32
  0
VERTEX
  8
T44SSILL
 62
13
 10
5402.094
 20
-7212.669
 30
837.480
 70
    32
  0
VERTEX
  8
T44SSILL
 62
13
 10
5403.381
 20
-7196.956
 30
837.461
 70
    32
  0
VERTEX
  8
T44SSILL
 62
13
 10
5386.342
 20
-7184.124
 30
837.431
 70
    32
  0
VERTEX
  8
T44SSILL
 62
13
 10
5381.242
 20
-7163.963
 30
837.401
 70
    32
  0
VERTEX
  8
T44SSILL
 62
13
 10
5375.687
 20
-7164.272
 30
837.397
 70
    32
  0
VERTEX
  8
T44SSILL
 62
13
 10
5373.791
 20
-7158.818
 30
837.388
 70
    32
  0
VERTEX
  8
T44SSILL
 62
13
 10
5372.200
 20
-7158.389
 30
837.386
 70
    32
  0
VERTEX
  8
T44SSILL
 62
13
 10
5362.450
 20
-7163.760
 30
837.384
 70
    32
  0
VERTEX
  8
T44SSILL
 62
13
 10
5345.292
 20
-7180.304
 30
837.390
 70
    32
  0
VERTEX
  8
T44SSILL
 62
13
 10
5347.617
 20
-7184.255
 30
837.396
 70
    32
  0
VERTEX
  8
T44SSILL
 62
13
 10
5348.214
 20
-7192.807
 30
837.408
 70
    32
  0
VERTEX
  8
T44SSILL
 62
13
 10
5305.501
 20
-7223.933
 30
837.408
 70
    32
  0
VERTEX
  8
T44SSILL
 62
13
 10
5297.478
 20
-7224.526
 30
837.402
 70
    32
  0
VERTEX
  8
T44SSILL
 62
13
 10
5244.222
 20
-7149.966
 30
837.263
 70
    32
  0
VERTEX
  8
T44SSILL
 62
13
 10
5302.729
 20
-7108.129
 30
837.263
 70
    32
  0
VERTEX
  8
T44SSILL
 62
13
 10
5307.171
 20
-7112.152
 30
837.272
 70
    32
  0
VERTEX
  8
T44SSILL
 62
13
 10
5310.617
 20
-7112.830
 30
837.276
 70
    32
  0
VERTEX
  8
T44SSILL
 62
13
 10
5315.258
 20
-7119.586
 30
837.288
 70
    32
  0
VERTEX
  8
T44SSILL
 62
13
 10
5321.645
 20
-7135.149
 30
837.313
 70
    32
  0
VERTEX
  8
T44SSILL
 62
13
 10
5329.881
 20
-7128.115
 30
837.311
 70
    32
  0
VERTEX
  8
T44SSILL
 62
13
 10
5338.590
 20
-7091.701
 30
837.274
 70
    32
  0
VERTEX
  8
T44SSILL
 62
13
 10
5376.734
 20
-7062.905
 30
837.272
 70
    32
  0
VERTEX
  8
T44SSILL
 62
13
 10
5377.366
 20
-7053.549
 30
837.261
 70
    32
  0
VERTEX
  8
T44SSILL
 62
13
 10
5400.085
 20
-7037.314
 30
837.262
 70
    32
  0
VERTEX
  8
T44SSILL
 62
13
 10
5395.013
 20
-7031.885
 30
837.250
 70
    32
  0
VERTEX
  8
T44SSILL
 62
13
 10
5372.642
 20
-7047.500
 30
837.250
 70
    32
  0
VERTEX
  8
T44SSILL
 62
13
 10
5354.255
 20
-7009.273
 30
837.186
 70
    32
  0
VERTEX
  8
T44SSILL
 62
13
 10
5349.188
 20
-6993.258
 30
837.162
 70
    32
  0
VERTEX
  8
T44SSILL
 62
13
 10
5335.102
 20
-6985.695
 30
837.140
 70
    32
  0
VERTEX
  8
T44SSILL
 62
13
 10
5321.853
 20
-6983.595
 30
837.133
 70
    32
  0
VERTEX
  8
T44SSILL
 62
13
 10
5311.682
 20
-7013.669
 30
837.154
 70
    32
  0
VERTEX
  8
T44SSILL
 62
13
 10
5312.869
 20
-7018.688
 30
837.161
 70
    32
  0
VERTEX
  8
T44SSILL
 62
13
 10
5331.926
 20
-7052.411
 30
837.220
 70
    32
  0
VERTEX
  8
T44SSILL
 62
13
 10
5305.086
 20
-7071.678
 30
837.220
 70
    32
  0
VERTEX
  8
T44SSILL
 62
13
 10
5296.174
 20
-7093.626
 30
837.239
 70
    32
  0
VERTEX
  8
T44SSILL
 62
13
 10
5297.395
 20
-7102.967
 30
837.252
 70
    32
  0
VERTEX
  8
T44SSILL
 62
13
 10
5240.031
 20
-7144.354
 30
837.252
 70
    32
  0
VERTEX
  8
T44SSILL
 62
13
 10
5234.860
 20
-7137.426
 30
837.239
 70
    32
  0
VERTEX
  8
T44SSILL
 62
13
 10
5232.908
 20
-7125.003
 30
837.222
 70
    32
  0
VERTEX
  8
T44SSILL
 62
13
 10
5235.343
 20
-7120.573
 30
837.219
 70
    32
  0
VERTEX
  8
T44SSILL
 62
13
 10
5233.496
 20
-7110.179
 30
837.204
 70
    32
  0
VERTEX
  8
T44SSILL
 62
13
 10
5230.719
 20
-7104.731
 30
837.195
 70
    32
  0
VERTEX
  8
T44SSILL
 62
13
 10
5230.979
 20
-7093.085
 30
837.181
 70
    32
  0
VERTEX
  8
T44SSILL
 62
13
 10
5213.716
 20
-7074.256
 30
837.142
 70
    32
  0
VERTEX
  8
T44SSILL
 62
13
 10
5208.266
 20
-7065.654
 30
837.132
 70
    32
  0
VERTEX
  8
T44SSILL
 62
13
 10
5206.354
 20
-7058.083
 30
837.141
 70
    32
  0
VERTEX
  8
T44SSILL
 62
13
 10
5206.572
 20
-7052.171
 30
837.146
 70
    32
  0
VERTEX
  8
T44SSILL
 62
13
 10
5304.900
 20
-6981.612
 30
837.146
 70
    32
  0
VERTEX
  8
T44SSILL
 62
13
 10
5315.495
 20
-6982.763
 30
837.138
 70
    32
  0
VERTEX
  8
T44SSILL
 62
13
 10
5339.586
 20
-6972.780
 30
837.131
 70
    32
  0
VERTEX
  8
T44SSILL
 62
13
 10
5350.068
 20
-6959.730
 30
837.136
 70
    32
  0
VERTEX
  8
T44SSILL
 62
13
 10
5353.454
 20
-6952.822
 30
837.140
 70
    32
  0
VERTEX
  8
T44SSILL
 62
13
 10
5363.016
 20
-6946.130
 30
837.140
 70
    32
  0
VERTEX
  8
T44SSILL
 62
13
 10
5364.234
 20
-6944.003
 30
837.141
 70
    32
  0
VERTEX
  8
T44SSILL
 62
13
 10
5362.688
 20
-6938.105
 30
837.148
 70
    32
  0
VERTEX
  8
T44SSILL
 62
13
 10
5357.976
 20
-6933.467
 30
837.155
 70
    32
  0
VERTEX
  8
T44SSILL
 62
13
 10
5343.041
 20
-6941.260
 30
837.158
 70
    32
  0
VERTEX
  8
T44SSILL
 62
13
 10
5334.896
 20
-6937.620
 30
837.167
 70
    32
  0
VERTEX
  8
T44SSILL
 62
13
 10
5306.897
 20
-6933.167
 30
837.189
 70
    32
  0
VERTEX
  8
T44SSILL
 62
13
 10
5290.592
 20
-6934.972
 30
837.198
 70
    32
  0
VERTEX
  8
T44SSILL
 62
13
 10
5280.574
 20
-6939.815
 30
837.200
 70
    32
  0
VERTEX
  8
T44SSILL
 62
13
 10
5267.617
 20
-6941.153
 30
837.208
 70
    32
  0
VERTEX
  8
T44SSILL
 62
13
 10
5257.771
 20
-6934.351
 30
837.220
 70
    32
  0
VERTEX
  8
T44SSILL
 62
13
 10
5223.241
 20
-6951.827
 30
837.229
 70
    32
  0
VERTEX
  8
T44SSILL
 62
13
 10
5203.025
 20
-6972.100
 30
837.230
 70
    32
  0
VERTEX
  8
T44SSILL
 62
13
 10
5202.665
 20
-7004.566
 30
837.196
 70
    32
  0
VERTEX
  8
T44SSILL
 62
13
 10
5214.526
 20
-7020.703
 30
837.170
 70
    32
  0
VERTEX
  8
T44SSILL
 62
13
 10
5244.884
 20
-7011.112
 30
837.158
 70
    32
  0
VERTEX
  8
T44SSILL
 62
13
 10
5246.930
 20
-7013.301
 30
837.155
 70
    32
  0
VERTEX
  8
T44SSILL
 62
13
 10
5202.797
 20
-7043.468
 30
837.156
 70
    32
  0
VERTEX
  8
T44SSILL
 62
13
 10
5197.003
 20
-7035.839
 30
837.170
 70
    32
  0
VERTEX
  8
T44SSILL
 62
13
 10
5189.821
 20
-7031.221
 30
837.183
 70
    32
  0
VERTEX
  8
T44SSILL
 62
13
 10
5167.736
 20
-7038.365
 30
837.195
 70
    32
  0
VERTEX
  8
T44SSILL
 62
13
 10
5163.677
 20
-7038.309
 30
837.197
 70
    32
  0
VERTEX
  8
T44SSILL
 62
13
 10
5124.532
 20
-6985.514
 30
837.282
 70
    32
  0
VERTEX
  8
T44SSILL
 62
13
 10
5196.893
 20
-6933.158
 30
837.278
 70
    32
  0
VERTEX
  8
T44SSILL
 62
13
 10
5199.893
 20
-6933.134
 30
837.274
 70
    32
  0
VERTEX
  8
T44SSILL
 62
13
 10
5202.572
 20
-6937.259
 30
837.267
 70
    32
  0
VERTEX
  8
T44SSILL
 62
13
 10
5226.425
 20
-6919.515
 30
837.259
 70
    32
  0
VERTEX
  8
T44SSILL
 62
13
 10
5226.541
 20
-6911.839
 30
837.267
 70
    32
  0
VERTEX
  8
T44SSILL
 62
13
 10
5569.753
 20
-6664.448
 30
837.132
 70
    32
  0
VERTEX
  8
T44SSILL
 62
13
 10
5578.680
 20
-6661.622
 30
837.123
 70
    32
  0
VERTEX
  8
T44SSILL
 62
13
 10
5579.641
 20
-6665.970
 30
837.119
 70
    32
  0
VERTEX
  8
T44SSILL
 62
13
 10
5586.717
 20
-6672.086
 30
837.106
 70
    32
  0
VERTEX
  8
T44SSILL
 62
13
 10
5592.168
 20
-6671.646
 30
837.100
 70
    32
  0
VERTEX
  8
T44SSILL
 62
13
 10
5596.429
 20
-6664.352
 30
837.100
 70
    32
  0
VERTEX
  8
T44SSILL
 62
13
 10
5591.942
 20
-6656.885
 30
837.111
 70
    32
  0
VERTEX
  8
T44SSILL
 62
13
 10
5594.726
 20
-6646.664
 30
837.115
 70
    32
  0
VERTEX
  8
T44SSILL
 62
13
 10
5619.916
 20
-6628.809
 30
837.103
 70
    32
  0
VERTEX
  8
T44SSILL
 62
13
 10
5615.315
 20
-6623.579
 30
837.113
 70
    32
  0
VERTEX
  8
T44SSILL
 62
13
 10
5585.933
 20
-6645.029
 30
837.127
 70
    32
  0
VERTEX
  8
T44SSILL
 62
13
 10
5582.477
 20
-6645.271
 30
837.131
 70
    32
  0
VERTEX
  8
T44SSILL
 62
13
 10
5575.186
 20
-6635.894
 30
837.149
 70
    32
  0
VERTEX
  8
T44SSILL
 62
13
 10
5569.350
 20
-6636.704
 30
837.155
 70
    32
  0
VERTEX
  8
T44SSILL
 62
13
 10
5562.822
 20
-6631.385
 30
837.168
 70
    32
  0
VERTEX
  8
T44SSILL
 62
13
 10
5559.440
 20
-6635.305
 30
837.168
 70
    32
  0
VERTEX
  8
T44SSILL
 62
13
 10
5564.914
 20
-6641.881
 30
837.155
 70
    32
  0
VERTEX
  8
T44SSILL
 62
13
 10
5566.145
 20
-6648.174
 30
837.148
 70
    32
  0
VERTEX
  8
T44SSILL
 62
13
 10
5555.131
 20
-6660.530
 30
837.152
 70
    32
  0
VERTEX
  8
T44SSILL
 62
13
 10
5558.209
 20
-6664.703
 30
837.145
 70
    32
  0
VERTEX
  8
T44SSILL
 62
13
 10
5120.160
 20
-6979.286
 30
837.292
 70
    32
  0
VERTEX
  8
T44SSILL
 62
13
 10
5054.999
 20
-6886.149
 30
837.441
 70
    32
  0
VERTEX
  8
T44SSILL
 62
13
 10
5062.169
 20
-6870.547
 30
837.457
 70
    32
  0
VERTEX
  8
T44SSILL
 62
13
 10
5058.143
 20
-6864.939
 30
837.466
 70
    32
  0
VERTEX
  8
T44SSILL
 62
13
 10
5048.667
 20
-6870.504
 30
837.464
 70
    32
  0
VERTEX
  8
T44SSILL
 62
13
 10
5045.568
 20
-6869.475
 30
837.467
 70
    32
  0
VERTEX
  8
T44SSILL
 62
13
 10
5029.149
 20
-6851.018
 30
837.498
 70
    32
  0
VERTEX
  8
T44SSILL
 62
13
 10
5046.063
 20
-6839.114
 30
837.504
 70
    32
  0
VERTEX
  8
T44SSILL
 62
13
 10
5041.679
 20
-6833.068
 30
837.514
 70
    32
  0
VERTEX
  8
T44SSILL
 62
13
 10
5036.250
 20
-6837.358
 30
837.511
 70
    32
  0
VERTEX
  8
T44SSILL
 62
13
 10
5035.085
 20
-6835.605
 30
837.514
 70
    32
  0
VERTEX
  8
T44SSILL
 62
13
 10
5024.137
 20
-6843.920
 30
837.509
 70
    32
  0
VERTEX
  8
T44SSILL
 62
13
 10
5015.456
 20
-6831.651
 30
837.529
 70
    32
  0
VERTEX
  8
T44SSILL
 62
13
 10
5021.998
 20
-6827.052
 30
837.531
 70
    32
  0
VERTEX
  8
T44SSILL
 62
13
 10
5015.771
 20
-6818.852
 30
837.545
 70
    32
  0
VERTEX
  8
T44SSILL
 62
13
 10
5009.199
 20
-6823.594
 30
837.542
 70
    32
  0
VERTEX
  8
T44SSILL
 62
13
 10
4887.534
 20
-6654.172
 30
837.815
 70
    32
  0
VERTEX
  8
T44SSILL
 62
13
 10
4892.858
 20
-6650.547
 30
837.817
 70
    32
  0
VERTEX
  8
T44SSILL
 62
13
 10
4888.026
 20
-6643.800
 30
837.827
 70
    32
  0
VERTEX
  8
T44SSILL
 62
13
 10
4882.409
 20
-6647.539
 30
837.826
 70
    32
  0
VERTEX
  8
T44SSILL
 62
13
 10
4787.127
 20
-6515.341
 30
838.038
 70
    32
  0
VERTEX
  8
T44SSILL
 62
13
 10
4792.646
 20
-6511.315
 30
838.041
 70
    32
  0
VERTEX
  8
T44SSILL
 62
13
 10
4770.802
 20
-6479.763
 30
838.090
 70
    32
  0
VERTEX
  8
T44SSILL
 62
13
 10
4765.277
 20
-6483.171
 30
838.088
 70
    32
  0
VERTEX
  8
T44SSILL
 62
13
 10
4750.330
 20
-6461.963
 30
838.111
 70
    32
  0
VERTEX
  8
T44SSILL
 62
13
 10
4751.438
 20
-6457.981
 30
838.115
 70
    32
  0
VERTEX
  8
T44SSILL
 62
13
 10
4760.632
 20
-6450.742
 30
838.121
 70
    32
  0
VERTEX
  8
T44SSILL
 62
13
 10
4755.152
 20
-6440.913
 30
838.132
 70
    32
  0
VERTEX
  8
T44SSILL
 62
13
 10
4751.732
 20
-6425.239
 30
838.148
 70
    32
  0
VERTEX
  8
T44SSILL
 62
13
 10
4821.430
 20
-6370.014
 30
838.193
 70
    32
  0
VERTEX
  8
T44SSILL
 62
13
 10
4828.456
 20
-6366.591
 30
838.196
 70
    32
  0
VERTEX
  8
T44SSILL
 62
13
 10
4846.635
 20
-6366.676
 30
838.192
 70
    32
  0
VERTEX
  8
T44SSILL
 62
13
 10
4846.248
 20
-6354.326
 30
838.205
 70
    32
  0
VERTEX
  8
T44SSILL
 62
13
 10
4830.192
 20
-6354.749
 30
838.207
 70
    32
  0
VERTEX
  8
T44SSILL
 62
13
 10
4803.442
 20
-6371.516
 30
838.194
 70
    32
  0
VERTEX
  8
T44SSILL
 62
13
 10
4794.938
 20
-6359.245
 30
838.208
 70
    32
  0
VERTEX
  8
T44SSILL
 62
13
 10
4785.385
 20
-6365.870
 30
838.203
 70
    32
  0
VERTEX
  8
T44SSILL
 62
13
 10
4794.861
 20
-6378.307
 30
838.189
 70
    32
  0
VERTEX
  8
T44SSILL
 62
13
 10
4748.419
 20
-6411.505
 30
838.162
 70
    32
  0
VERTEX
  8
T44SSILL
 62
13
 10
4734.789
 20
-6407.404
 30
838.169
 70
    32
  0
VERTEX
  8
T44SSILL
 62
13
 10
4715.187
 20
-6415.187
 30
838.164
 70
    32
  0
VERTEX
  8
T44SSILL
 62
13
 10
4710.003
 20
-6408.532
 30
838.171
 70
    32
  0
VERTEX
  8
T44SSILL
 62
13
 10
4706.892
 20
-6388.442
 30
838.192
 70
    32
  0
VERTEX
  8
T44SSILL
 62
13
 10
4709.611
 20
-6368.825
 30
838.151
 70
    32
  0
VERTEX
  8
T44SSILL
 62
13
 10
4698.847
 20
-6351.194
 30
837.936
 70
    32
  0
VERTEX
  8
T44SSILL
 62
13
 10
4690.822
 20
-6333.889
 30
837.921
 70
    32
  0
VERTEX
  8
T44SSILL
 62
13
 10
4678.117
 20
-6316.277
 30
838.021
 70
    32
  0
VERTEX
  8
T44SSILL
 62
13
 10
4661.067
 20
-6305.415
 30
838.086
 70
    32
  0
VERTEX
  8
T44SSILL
 62
13
 10
4658.177
 20
-6298.737
 30
838.123
 70
    32
  0
VERTEX
  8
T44SSILL
 62
13
 10
4640.732
 20
-6283.731
 30
838.211
 70
    32
  0
VERTEX
  8
T44SSILL
 62
13
 10
4639.974
 20
-6278.444
 30
838.239
 70
    32
  0
VERTEX
  8
T44SSILL
 62
13
 10
4675.066
 20
-6132.580
 30
838.688
 70
    32
  0
VERTEX
  8
T44SSILL
 62
13
 10
4667.362
 20
-6129.832
 30
838.701
 70
    32
  0
VERTEX
  8
T44SSILL
 62
13
 10
4631.181
 20
-6281.619
 30
838.226
 70
    32
  0
VERTEX
  8
T44SSILL
 62
13
 10
4628.693
 20
-6279.879
 30
838.236
 70
    32
  0
VERTEX
  8
T44SSILL
 62
13
 10
4624.204
 20
-6289.983
 30
838.184
 70
    32
  0
VERTEX
  8
T44SSILL
 62
13
 10
4513.689
 20
-6138.977
 30
838.751
 70
    32
  0
VERTEX
  8
T44SSILL
 62
13
 10
4507.851
 20
-6142.616
 30
838.747
 70
    32
  0
VERTEX
  8
T44SSILL
 62
13
 10
4581.838
 20
-6244.514
 30
838.435
 70
    32
  0
VERTEX
  8
T44SSILL
 62
13
 10
4575.694
 20
-6247.928
 30
838.428
 70
    32
  0
VERTEX
  8
T44SSILL
 62
13
 10
4580.438
 20
-6254.676
 30
838.391
 70
    32
  0
VERTEX
  8
T44SSILL
 62
13
 10
4587.019
 20
-6250.905
 30
838.409
 70
    32
  0
VERTEX
  8
T44SSILL
 62
13
 10
4597.815
 20
-6265.801
 30
838.324
 70
    32
  0
VERTEX
  8
T44SSILL
 62
13
 10
4540.358
 20
-6256.283
 30
838.399
 70
    32
  0
VERTEX
  8
T44SSILL
 62
13
 10
4480.721
 20
-6286.400
 30
838.260
 70
    32
  0
VERTEX
  8
T44SSILL
 62
13
 10
4485.207
 20
-6293.126
 30
838.222
 70
    32
  0
VERTEX
  8
T44SSILL
 62
13
 10
4544.844
 20
-6263.009
 30
838.361
 70
    32
  0
VERTEX
  8
T44SSILL
 62
13
 10
4602.742
 20
-6272.600
 30
838.286
 70
    32
  0
VERTEX
  8
T44SSILL
 62
13
 10
4618.958
 20
-6294.977
 30
838.159
 70
    32
  0
VERTEX
  8
T44SSILL
 62
13
 10
4620.989
 20
-6303.958
 30
838.110
 70
    32
  0
VERTEX
  8
T44SSILL
 62
13
 10
4620.055
 20
-6325.587
 30
837.994
 70
    32
  0
VERTEX
  8
T44SSILL
 62
13
 10
4627.636
 20
-6369.370
 30
837.755
 70
    32
  0
VERTEX
  8
T44SSILL
 62
13
 10
4630.922
 20
-6380.457
 30
837.794
 70
    32
  0
VERTEX
  8
T44SSILL
 62
13
 10
4636.401
 20
-6390.110
 30
837.910
 70
    32
  0
VERTEX
  8
T44SSILL
 62
13
 10
4648.613
 20
-6402.520
 30
838.088
 70
    32
  0
VERTEX
  8
T44SSILL
 62
13
 10
4637.740
 20
-6409.511
 30
838.086
 70
    32
  0
VERTEX
  8
T44SSILL
 62
13
 10
4644.343
 20
-6425.859
 30
838.164
 70
    32
  0
VERTEX
  8
T44SSILL
 62
13
 10
4655.187
 20
-6433.782
 30
838.154
 70
    32
  0
VERTEX
  8
T44SSILL
 62
13
 10
4670.999
 20
-6435.391
 30
838.150
 70
    32
  0
VERTEX
  8
T44SSILL
 62
13
 10
4704.932
 20
-6413.259
 30
838.167
 70
    32
  0
VERTEX
  8
T44SSILL
 62
13
 10
4709.458
 20
-6424.774
 30
838.155
 70
    32
  0
VERTEX
  8
T44SSILL
 62
13
 10
4709.869
 20
-6430.683
 30
838.149
 70
    32
  0
VERTEX
  8
T44SSILL
 62
13
 10
4698.573
 20
-6439.531
 30
838.142
 70
    32
  0
VERTEX
  8
T44SSILL
 62
13
 10
4673.101
 20
-6451.607
 30
838.133
 70
    32
  0
VERTEX
  8
T44SSILL
 62
13
 10
4663.151
 20
-6462.736
 30
838.124
 70
    32
  0
VERTEX
  8
T44SSILL
 62
13
 10
4666.757
 20
-6470.466
 30
838.115
 70
    32
  0
VERTEX
  8
T44SSILL
 62
13
 10
4635.128
 20
-6493.458
 30
838.097
 70
    32
  0
VERTEX
  8
T44SSILL
 62
13
 10
4635.028
 20
-6474.486
 30
838.116
 70
    32
  0
VERTEX
  8
T44SSILL
 62
13
 10
4596.957
 20
-6417.150
 30
837.915
 70
    32
  0
VERTEX
  8
T44SSILL
 62
13
 10
4597.317
 20
-6408.939
 30
837.846
 70
    32
  0
VERTEX
  8
T44SSILL
 62
13
 10
4590.957
 20
-6399.295
 30
837.725
 70
    32
  0
VERTEX
  8
T44SSILL
 62
13
 10
4586.810
 20
-6399.424
 30
837.702
 70
    32
  0
VERTEX
  8
T44SSILL
 62
13
 10
4578.440
 20
-6391.830
 30
837.654
 70
    32
  0
VERTEX
  8
T44SSILL
 62
13
 10
4571.513
 20
-6378.485
 30
837.729
 70
    32
  0
VERTEX
  8
T44SSILL
 62
13
 10
4563.375
 20
-6367.535
 30
837.791
 70
    32
  0
VERTEX
  8
T44SSILL
 62
13
 10
4562.893
 20
-6363.392
 30
837.813
 70
    32
  0
VERTEX
  8
T44SSILL
 62
13
 10
4550.796
 20
-6344.803
 30
837.918
 70
    32
  0
VERTEX
  8
T44SSILL
 62
13
 10
4539.329
 20
-6336.445
 30
837.968
 70
    32
  0
VERTEX
  8
T44SSILL
 62
13
 10
4539.104
 20
-6331.506
 30
837.994
 70
    32
  0
VERTEX
  8
T44SSILL
 62
13
 10
4520.879
 20
-6326.832
 30
838.027
 70
    32
  0
VERTEX
  8
T44SSILL
 62
13
 10
4526.123
 20
-6339.488
 30
837.957
 70
    32
  0
VERTEX
  8
T44SSILL
 62
13
 10
4534.930
 20
-6346.637
 30
837.915
 70
    32
  0
VERTEX
  8
T44SSILL
 62
13
 10
4542.815
 20
-6358.737
 30
837.846
 70
    32
  0
VERTEX
  8
T44SSILL
 62
13
 10
4549.923
 20
-6372.521
 30
837.769
 70
    32
  0
VERTEX
  8
T44SSILL
 62
13
 10
4548.529
 20
-6374.388
 30
837.760
 70
    32
  0
VERTEX
  8
T44SSILL
 62
13
 10
4551.749
 20
-6378.768
 30
837.735
 70
    32
  0
VERTEX
  8
T44SSILL
 62
13
 10
4556.180
 20
-6380.666
 30
837.723
 70
    32
  0
VERTEX
  8
T44SSILL
 62
13
 10
4569.478
 20
-6395.713
 30
837.637
 70
    32
  0
VERTEX
  8
T44SSILL
 62
13
 10
4575.321
 20
-6406.598
 30
837.698
 70
    32
  0
VERTEX
  8
T44SSILL
 62
13
 10
4576.036
 20
-6416.386
 30
837.786
 70
    32
  0
VERTEX
  8
T44SSILL
 62
13
 10
4589.872
 20
-6423.485
 30
837.928
 70
    32
  0
VERTEX
  8
T44SSILL
 62
13
 10
4623.689
 20
-6470.009
 30
838.122
 70
    32
  0
VERTEX
  8
T44SSILL
 62
13
 10
4628.375
 20
-6479.847
 30
838.112
 70
    32
  0
VERTEX
  8
T44SSILL
 62
13
 10
4627.859
 20
-6490.176
 30
838.101
 70
    32
  0
VERTEX
  8
T44SSILL
 62
13
 10
4624.934
 20
-6497.795
 30
838.094
 70
    32
  0
VERTEX
  8
T44SSILL
 62
13
 10
4605.593
 20
-6514.135
 30
838.081
 70
    32
  0
VERTEX
  8
T44SSILL
 62
13
 10
4568.255
 20
-6504.179
 30
838.096
 70
    32
  0
VERTEX
  8
T44SSILL
 62
13
 10
4565.517
 20
-6512.854
 30
838.088
 70
    32
  0
VERTEX
  8
T44SSILL
 62
13
 10
4596.574
 20
-6521.195
 30
838.075
 70
    32
  0
VERTEX
  8
T44SSILL
 62
13
 10
4017.447
 20
-6936.060
 30
837.744
 70
    32
  0
VERTEX
  8
T44SSILL
 62
13
 10
4013.347
 20
-6934.755
 30
837.746
 70
    32
  0
VERTEX
  8
T44SSILL
 62
13
 10
4007.363
 20
-6939.533
 30
837.742
 70
    32
  0
VERTEX
  8
T44SSILL
 62
13
 10
4007.422
 20
-6943.863
 30
837.738
 70
    32
  0
VERTEX
  8
T44SSILL
 62
13
 10
3999.485
 20
-6949.699
 30
837.733
 70
    32
  0
VERTEX
  8
T44SSILL
 62
13
 10
3990.592
 20
-6937.310
 30
837.747
 70
    32
  0
VERTEX
  8
T44SSILL
 62
13
 10
3984.398
 20
-6941.800
 30
837.743
 70
    32
  0
VERTEX
  8
T44SSILL
 62
13
 10
3993.114
 20
-6954.103
 30
837.730
 70
    32
  0
VERTEX
  8
T44SSILL
 62
13
 10
3901.062
 20
-7019.598
 30
837.678
 70
    32
  0
VERTEX
  8
T44SSILL
 62
13
 10
3892.756
 20
-7011.430
 30
837.687
 70
    32
  0
VERTEX
  8
T44SSILL
 62
13
 10
3888.675
 20
-7009.372
 30
837.690
 70
    32
  0
VERTEX
  8
T44SSILL
 62
13
 10
3880.922
 20
-7009.390
 30
837.691
 70
    32
  0
VERTEX
  8
T44SSILL
 62
13
 10
3870.250
 20
-7014.999
 30
837.687
 70
    32
  0
VERTEX
  8
T44SSILL
 62
13
 10
3867.515
 20
-7014.684
 30
837.687
 70
    32
  0
VERTEX
  8
T44SSILL
 62
13
 10
3859.330
 20
-7002.550
 30
837.701
 70
    32
  0
VERTEX
  8
T44SSILL
 62
13
 10
3856.864
 20
-7002.584
 30
837.701
 70
    32
  0
VERTEX
  8
T44SSILL
 62
13
 10
3852.362
 20
-7008.373
 30
837.696
 70
    32
  0
VERTEX
  8
T44SSILL
 62
13
 10
3852.758
 20
-7011.539
 30
837.693
 70
    32
  0
VERTEX
  8
T44SSILL
 62
13
 10
3873.312
 20
-7039.010
 30
837.662
 70
    32
  0
VERTEX
  8
T44SSILL
 62
13
 10
3802.461
 20
-7089.323
 30
837.622
 70
    32
  0
VERTEX
  8
T44SSILL
 62
13
 10
3789.870
 20
-7089.937
 30
837.623
 70
    32
  0
VERTEX
  8
T44SSILL
 62
13
 10
3778.744
 20
-7081.719
 30
837.633
 70
    32
  0
VERTEX
  8
T44SSILL
 62
13
 10
3748.741
 20
-7039.841
 30
837.680
 70
    32
  0
VERTEX
  8
T44SSILL
 62
13
 10
3746.687
 20
-7031.411
 30
837.689
 70
    32
  0
VERTEX
  8
T44SSILL
 62
13
 10
3748.473
 20
-7020.285
 30
837.700
 70
    32
  0
VERTEX
  8
T44SSILL
 62
13
 10
3756.172
 20
-7009.959
 30
837.709
 70
    32
  0
VERTEX
  8
T44SSILL
 62
13
 10
3812.010
 20
-6970.107
 30
837.741
 70
    32
  0
VERTEX
  8
T44SSILL
 62
13
 10
3826.233
 20
-6990.796
 30
837.718
 70
    32
  0
VERTEX
  8
T44SSILL
 62
13
 10
3860.673
 20
-6973.947
 30
837.729
 70
    32
  0
VERTEX
  8
T44SSILL
 62
13
 10
3873.047
 20
-6972.635
 30
837.729
 70
    32
  0
VERTEX
  8
T44SSILL
 62
13
 10
3860.809
 20
-6935.278
 30
837.768
 70
    32
  0
VERTEX
  8
T44SSILL
 62
13
 10
3873.351
 20
-6926.327
 30
837.775
 70
    32
  0
VERTEX
  8
T44SSILL
 62
13
 10
3868.064
 20
-6920.051
 30
837.783
 70
    32
  0
VERTEX
  8
T44SSILL
 62
13
 10
3858.869
 20
-6926.761
 30
837.777
 70
    32
  0
VERTEX
  8
T44SSILL
 62
13
 10
3853.182
 20
-6919.846
 30
837.785
 70
    32
  0
VERTEX
  8
T44SSILL
 62
13
 10
3818.030
 20
-6915.039
 30
837.697
 70
    32
  0
VERTEX
  8
T44SSILL
 62
13
 10
3825.127
 20
-6951.384
 30
837.757
 70
    32
  0
VERTEX
  8
T44SSILL
 62
13
 10
3748.209
 20
-7007.514
 30
837.713
 70
    32
  0
VERTEX
  8
T44SSILL
 62
13
 10
3741.564
 20
-7017.649
 30
837.703
 70
    32
  0
VERTEX
  8
T44SSILL
 62
13
 10
3739.950
 20
-7028.420
 30
837.693
 70
    32
  0
VERTEX
  8
T44SSILL
 62
13
 10
3704.452
 20
-6979.011
 30
837.590
 70
    32
  0
VERTEX
  8
T44SSILL
 62
13
 10
3705.390
 20
-6971.568
 30
837.531
 70
    32
  0
VERTEX
  8
T44SSILL
 62
13
 10
3702.962
 20
-6963.386
 30
837.446
 70
    32
  0
VERTEX
  8
T44SSILL
 62
13
 10
3698.182
 20
-6960.403
 30
837.393
 70
    32
  0
VERTEX
  8
T44SSILL
 62
13
 10
3691.487
 20
-6949.194
 30
837.257
 70
    32
  0
VERTEX
  8
T44SSILL
 62
13
 10
3697.034
 20
-6938.298
 30
837.195
 70
    32
  0
VERTEX
  8
T44SSILL
 62
13
 10
3702.105
 20
-6933.535
 30
837.183
 70
    32
  0
VERTEX
  8
T44SSILL
 62
13
 10
3862.055
 20
-6820.268
 30
837.132
 70
    32
  0
VERTEX
  8
T44SSILL
 62
13
 10
3857.728
 20
-6814.327
 30
837.056
 70
    32
  0
VERTEX
  8
T44SSILL
 62
13
 10
3694.878
 20
-6930.794
 30
837.117
 70
    32
  0
VERTEX
  8
T44SSILL
 62
13
 10
3688.170
 20
-6940.237
 30
837.160
 70
    32
  0
VERTEX
  8
T44SSILL
 62
13
 10
3679.918
 20
-6924.913
 30
836.979
 70
    32
  0
VERTEX
  8
T44SSILL
 62
13
 10
3682.797
 20
-6916.822
 30
836.926
 70
    32
  0
VERTEX
  8
T44SSILL
 62
13
 10
3668.343
 20
-6896.704
 30
836.668
 70
    32
  0
VERTEX
  8
T44SSILL
 62
13
 10
3645.914
 20
-6871.000
 30
836.315
 70
    32
  0
VERTEX
  8
T44SSILL
 62
13
 10
3641.883
 20
-6859.850
 30
836.195
 70
    32
  0
VERTEX
  8
T44SSILL
 62
13
 10
3686.540
 20
-6827.384
 30
836.174
 70
    32
  0
VERTEX
  8
T44SSILL
 62
13
 10
3689.668
 20
-6827.641
 30
836.194
 70
    32
  0
VERTEX
  8
T44SSILL
 62
13
 10
3696.657
 20
-6835.032
 30
836.299
 70
    32
  0
VERTEX
  8
T44SSILL
 62
13
 10
3702.044
 20
-6834.628
 30
836.326
 70
    32
  0
VERTEX
  8
T44SSILL
 62
13
 10
3714.387
 20
-6829.952
 30
836.358
 70
    32
  0
VERTEX
  8
T44SSILL
 62
13
 10
3718.741
 20
-6825.708
 30
836.346
 70
    32
  0
VERTEX
  8
T44SSILL
 62
13
 10
3713.785
 20
-6807.825
 30
836.163
 70
    32
  0
VERTEX
  8
T44SSILL
 62
13
 10
3788.608
 20
-6754.930
 30
836.140
 70
    32
  0
VERTEX
  8
T44SSILL
 62
13
 10
3784.210
 20
-6748.827
 30
836.061
 70
    32
  0
VERTEX
  8
T44SSILL
 62
13
 10
3707.951
 20
-6802.214
 30
836.080
 70
    32
  0
VERTEX
  8
T44SSILL
 62
13
 10
3705.590
 20
-6798.640
 30
836.036
 70
    32
  0
VERTEX
  8
T44SSILL
 62
13
 10
3706.670
 20
-6780.820
 30
835.911
 70
    32
  0
VERTEX
  8
T44SSILL
 62
13
 10
3698.640
 20
-6782.702
 30
835.904
 70
    32
  0
VERTEX
  8
T44SSILL
 62
13
 10
3695.063
 20
-6773.386
 30
835.955
 70
    32
  0
VERTEX
  8
T44SSILL
 62
13
 10
3692.079
 20
-6755.232
 30
836.054
 70
    32
  0
VERTEX
  8
T44SSILL
 62
13
 10
3692.787
 20
-6732.220
 30
836.178
 70
    32
  0
VERTEX
  8
T44SSILL
 62
13
 10
3689.315
 20
-6731.348
 30
836.184
 70
    32
  0
VERTEX
  8
T44SSILL
 62
13
 10
3681.485
 20
-6722.194
 30
836.236
 70
    32
  0
VERTEX
  8
T44SSILL
 62
13
 10
3684.693
 20
-6719.659
 30
836.248
 70
    32
  0
VERTEX
  8
T44SSILL
 62
13
 10
3681.050
 20
-6714.511
 30
836.278
 70
    32
  0
VERTEX
  8
T44SSILL
 62
13
 10
3693.377
 20
-6705.750
 30
836.320
 70
    32
  0
VERTEX
  8
T44SSILL
 62
13
 10
3689.263
 20
-6699.601
 30
836.355
 70
    32
  0
VERTEX
  8
T44SSILL
 62
13
 10
3678.048
 20
-6707.560
 30
836.316
 70
    32
  0
VERTEX
  8
T44SSILL
 62
13
 10
3672.928
 20
-6703.127
 30
836.342
 70
    32
  0
VERTEX
  8
T44SSILL
 62
13
 10
3669.483
 20
-6690.221
 30
836.413
 70
    32
  0
VERTEX
  8
T44SSILL
 62
13
 10
3664.404
 20
-6680.792
 30
836.466
 70
    32
  0
VERTEX
  8
T44SSILL
 62
13
 10
3661.041
 20
-6669.356
 30
836.529
 70
    32
  0
VERTEX
  8
T44SSILL
 62
13
 10
3651.402
 20
-6669.016
 30
836.534
 70
    32
  0
VERTEX
  8
T44SSILL
 62
13
 10
3665.665
 20
-6660.656
 30
836.573
 70
    32
  0
VERTEX
  8
T44SSILL
 62
13
 10
3671.384
 20
-6651.055
 30
836.623
 70
    32
  0
VERTEX
  8
T44SSILL
 62
13
 10
3672.231
 20
-6641.814
 30
836.672
 70
    32
  0
VERTEX
  8
T44SSILL
 62
13
 10
3636.997
 20
-6591.632
 30
836.956
 70
    32
  0
VERTEX
  8
T44SSILL
 62
13
 10
3623.211
 20
-6581.188
 30
837.018
 70
    32
  0
VERTEX
  8
T44SSILL
 62
13
 10
3619.828
 20
-6581.343
 30
837.018
 70
    32
  0
VERTEX
  8
T44SSILL
 62
13
 10
3615.385
 20
-6584.560
 30
837.003
 70
    32
  0
VERTEX
  8
T44SSILL
 62
13
 10
3592.710
 20
-6614.190
 30
836.853
 70
    32
  0
VERTEX
  8
T44SSILL
 62
13
 10
3572.231
 20
-6630.106
 30
836.775
 70
    32
  0
VERTEX
  8
T44SSILL
 62
13
 10
3573.191
 20
-6651.801
 30
836.658
 70
    32
  0
VERTEX
  8
T44SSILL
 62
13
 10
3564.684
 20
-6666.151
 30
836.584
 70
    32
  0
VERTEX
  8
T44SSILL
 62
13
 10
3558.535
 20
-6674.757
 30
836.541
 70
    32
  0
VERTEX
  8
T44SSILL
 62
13
 10
3529.386
 20
-6695.719
 30
836.439
 70
    32
  0
VERTEX
  8
T44SSILL
 62
13
 10
3520.030
 20
-6707.302
 30
836.381
 70
    32
  0
VERTEX
  8
T44SSILL
 62
13
 10
3519.471
 20
-6709.939
 30
836.367
 70
    32
  0
VERTEX
  8
T44SSILL
 62
13
 10
3512.730
 20
-6702.558
 30
836.409
 70
    32
  0
VERTEX
  8
T44SSILL
 62
13
 10
3498.986
 20
-6694.129
 30
836.460
 70
    32
  0
VERTEX
  8
T44SSILL
 62
13
 10
3474.714
 20
-6660.259
 30
836.652
 70
    32
  0
VERTEX
  8
T44SSILL
 62
13
 10
3468.750
 20
-6649.416
 30
836.713
 70
    32
  0
VERTEX
  8
T44SSILL
 62
13
 10
3469.562
 20
-6638.039
 30
836.774
 70
    32
  0
VERTEX
  8
T44SSILL
 62
13
 10
3476.795
 20
-6625.781
 30
836.837
 70
    32
  0
VERTEX
  8
T44SSILL
 62
13
 10
3565.752
 20
-6562.044
 30
837.144
 70
    32
  0
VERTEX
  8
T44SSILL
 62
13
 10
3561.564
 20
-6556.070
 30
837.178
 70
    32
  0
VERTEX
  8
T44SSILL
 62
13
 10
3472.915
 20
-6619.139
 30
836.874
 70
    32
  0
VERTEX
  8
T44SSILL
 62
13
 10
3464.938
 20
-6628.500
 30
836.827
 70
    32
  0
VERTEX
  8
T44SSILL
 62
13
 10
3461.153
 20
-6641.591
 30
836.758
 70
    32
  0
VERTEX
  8
T44SSILL
 62
13
 10
3417.705
 20
-6581.081
 30
837.101
 70
    32
  0
VERTEX
  8
T44SSILL
 62
13
 10
3414.492
 20
-6573.068
 30
837.145
 70
    32
  0
VERTEX
  8
T44SSILL
 62
13
 10
3414.590
 20
-6565.093
 30
837.188
 70
    32
  0
VERTEX
  8
T44SSILL
 62
13
 10
3416.722
 20
-6557.087
 30
837.230
 70
    32
  0
VERTEX
  8
T44SSILL
 62
13
 10
3418.509
 20
-6552.573
 30
837.254
 70
    32
  0
VERTEX
  8
T44SSILL
 62
13
 10
3425.090
 20
-6544.885
 30
837.293
 70
    32
  0
VERTEX
  8
T44SSILL
 62
13
 10
3564.771
 20
-6445.071
 30
837.774
 70
    32
  0
VERTEX
  8
T44SSILL
 62
13
 10
3560.746
 20
-6439.689
 30
837.804
 70
    32
  0
VERTEX
  8
T44SSILL
 62
13
 10
3399.896
 20
-6555.348
 30
837.246
 70
    32
  0
VERTEX
  8
T44SSILL
 62
13
 10
3378.215
 20
-6524.555
 30
837.421
 70
    32
  0
VERTEX
  8
T44SSILL
 62
13
 10
3372.367
 20
-6529.451
 30
837.397
 70
    32
  0
VERTEX
  8
T44SSILL
 62
13
 10
3393.760
 20
-6558.817
 30
837.230
 70
    32
  0
VERTEX
  8
T44SSILL
 62
13
 10
3386.432
 20
-6564.116
 30
837.205
 70
    32
  0
VERTEX
  8
T44SSILL
 62
13
 10
3390.741
 20
-6569.960
 30
837.171
 70
    32
  0
VERTEX
  8
T44SSILL
 62
13
 10
3398.062
 20
-6564.132
 30
837.200
 70
    32
  0
VERTEX
  8
T44SSILL
 62
13
 10
3494.910
 20
-6699.442
 30
836.433
 70
    32
  0
VERTEX
  8
T44SSILL
 62
13
 10
3494.998
 20
-6708.842
 30
836.383
 70
    32
  0
VERTEX
  8
T44SSILL
 62
13
 10
3492.922
 20
-6712.310
 30
836.365
 70
    32
  0
VERTEX
  8
T44SSILL
 62
13
 10
3494.149
 20
-6716.118
 30
836.344
 70
    32
  0
VERTEX
  8
T44SSILL
 62
13
 10
3509.094
 20
-6726.051
 30
836.284
 70
    32
  0
VERTEX
  8
T44SSILL
 62
13
 10
3511.342
 20
-6744.848
 30
836.182
 70
    32
  0
VERTEX
  8
T44SSILL
 62
13
 10
3518.525
 20
-6758.542
 30
836.106
 70
    32
  0
VERTEX
  8
T44SSILL
 62
13
 10
3526.625
 20
-6757.812
 30
836.107
 70
    32
  0
VERTEX
  8
T44SSILL
 62
13
 10
3544.154
 20
-6772.974
 30
836.018
 70
    32
  0
VERTEX
  8
T44SSILL
 62
13
 10
3540.822
 20
-6811.974
 30
835.809
 70
    32
  0
VERTEX
  8
T44SSILL
 62
13
 10
3584.937
 20
-6875.922
 30
836.003
 70
    32
  0
VERTEX
  8
T44SSILL
 62
13
 10
3591.268
 20
-6872.005
 30
836.006
 70
    32
  0
VERTEX
  8
T44SSILL
 62
13
 10
3574.423
 20
-6847.829
 30
835.699
 70
    32
  0
VERTEX
  8
T44SSILL
 62
13
 10
3580.976
 20
-6843.304
 30
835.698
 70
    32
  0
VERTEX
  8
T44SSILL
 62
13
 10
3576.527
 20
-6837.459
 30
835.658
 70
    32
  0
VERTEX
  8
T44SSILL
 62
13
 10
3569.882
 20
-6842.161
 30
835.635
 70
    32
  0
VERTEX
  8
T44SSILL
 62
13
 10
3554.969
 20
-6820.955
 30
835.755
 70
    32
  0
VERTEX
  8
T44SSILL
 62
13
 10
3566.390
 20
-6812.141
 30
835.798
 70
    32
  0
VERTEX
  8
T44SSILL
 62
13
 10
3569.969
 20
-6823.421
 30
835.736
 70
    32
  0
VERTEX
  8
T44SSILL
 62
13
 10
3574.529
 20
-6828.967
 30
835.705
 70
    32
  0
VERTEX
  8
T44SSILL
 62
13
 10
3582.453
 20
-6834.481
 30
835.672
 70
    32
  0
VERTEX
  8
T44SSILL
 62
13
 10
3593.438
 20
-6837.887
 30
835.723
 70
    32
  0
VERTEX
  8
T44SSILL
 62
13
 10
3602.504
 20
-6850.110
 30
835.882
 70
    32
  0
VERTEX
  8
T44SSILL
 62
13
 10
3603.815
 20
-6854.184
 30
835.925
 70
    32
  0
VERTEX
  8
T44SSILL
 62
13
 10
3609.601
 20
-6858.941
 30
836.000
 70
    32
  0
VERTEX
  8
T44SSILL
 62
13
 10
3592.942
 20
-6861.946
 30
835.929
 70
    32
  0
VERTEX
  8
T44SSILL
 62
13
 10
3593.395
 20
-6874.943
 30
836.044
 70
    32
  0
VERTEX
  8
T44SSILL
 62
13
 10
3617.127
 20
-6877.166
 30
836.201
 70
    32
  0
SEQEND
  8
T44SSILL
  0
POLYLINE
  8
T44SSILL
 62
13
 66
     1
 70
     9
  0
VERTEX
  8
T44SSILL
 62
13
 10
3629.609
 20
-6867.185
 30
836.187
 70
    32
  0
VERTEX
  8
T44SSILL
 62
13
 10
3635.882
 20
-6854.256
 30
836.112
 70
    32
  0
VERTEX
  8
T44SSILL
 62
13
 10
3648.626
 20
-6844.766
 30
836.104
 70
    32
  0
VERTEX
  8
T44SSILL
 62
13
 10
3638.185
 20
-6827.885
 30
835.897
 70
    32
  0
VERTEX
  8
T44SSILL
 62
13
 10
3621.949
 20
-6807.418
 30
835.801
 70
    32
  0
VERTEX
  8
T44SSILL
 62
13
 10
3630.965
 20
-6792.263
 30
835.879
 70
    32
  0
VERTEX
  8
T44SSILL
 62
13
 10
3646.732
 20
-6777.682
 30
835.952
 70
    32
  0
VERTEX
  8
T44SSILL
 62
13
 10
3648.997
 20
-6768.288
 30
836.001
 70
    32
  0
VERTEX
  8
T44SSILL
 62
13
 10
3649.374
 20
-6756.438
 30
836.065
 70
    32
  0
VERTEX
  8
T44SSILL
 62
13
 10
3655.402
 20
-6751.638
 30
836.088
 70
    32
  0
VERTEX
  8
T44SSILL
 62
13
 10
3652.178
 20
-6747.637
 30
836.111
 70
    32
  0
VERTEX
  8
T44SSILL
 62
13
 10
3659.040
 20
-6744.745
 30
836.124
 70
    32
  0
VERTEX
  8
T44SSILL
 62
13
 10
3663.748
 20
-6750.948
 30
836.089
 70
    32
  0
VERTEX
  8
T44SSILL
 62
13
 10
3668.890
 20
-6752.468
 30
836.078
 70
    32
  0
VERTEX
  8
T44SSILL
 62
13
 10
3670.474
 20
-6750.884
 30
836.086
 70
    32
  0
VERTEX
  8
T44SSILL
 62
13
 10
3671.529
 20
-6735.595
 30
836.168
 70
    32
  0
VERTEX
  8
T44SSILL
 62
13
 10
3661.699
 20
-6728.265
 30
836.211
 70
    32
  0
VERTEX
  8
T44SSILL
 62
13
 10
3650.286
 20
-6736.376
 30
836.172
 70
    32
  0
VERTEX
  8
T44SSILL
 62
13
 10
3647.886
 20
-6743.972
 30
836.132
 70
    32
  0
VERTEX
  8
T44SSILL
 62
13
 10
3643.611
 20
-6747.722
 30
836.114
 70
    32
  0
VERTEX
  8
T44SSILL
 62
13
 10
3636.979
 20
-6749.574
 30
836.107
 70
    32
  0
VERTEX
  8
T44SSILL
 62
13
 10
3628.058
 20
-6757.015
 30
836.070
 70
    32
  0
VERTEX
  8
T44SSILL
 62
13
 10
3613.666
 20
-6764.594
 30
836.035
 70
    32
  0
VERTEX
  8
T44SSILL
 62
13
 10
3611.369
 20
-6764.036
 30
836.039
 70
    32
  0
VERTEX
  8
T44SSILL
 62
13
 10
3585.661
 20
-6783.643
 30
835.944
 70
    32
  0
VERTEX
  8
T44SSILL
 62
13
 10
3588.980
 20
-6791.747
 30
835.899
 70
    32
  0
VERTEX
  8
T44SSILL
 62
13
 10
3610.210
 20
-6824.544
 30
835.714
 70
    32
  0
VERTEX
  8
T44SSILL
 62
13
 10
3605.499
 20
-6834.180
 30
835.761
 70
    32
  0
VERTEX
  8
T44SSILL
 62
13
 10
3610.577
 20
-6843.610
 30
835.873
 70
    32
  0
VERTEX
  8
T44SSILL
 62
13
 10
3613.500
 20
-6845.535
 30
835.906
 70
    32
  0
VERTEX
  8
T44SSILL
 62
13
 10
3613.768
 20
-6853.168
 30
835.974
 70
    32
  0
VERTEX
  8
T44SSILL
 62
13
 10
3627.875
 20
-6866.147
 30
836.168
 70
    32
  0
SEQEND
  8
T44SSILL
  0
POLYLINE
  8
T44SSILL
 62
13
 66
     1
 70
     9
  0
VERTEX
  8
T44SSILL
 62
13
 10
3555.413
 20
-6743.416
 30
836.172
 70
    32
  0
VERTEX
  8
T44SSILL
 62
13
 10
3548.904
 20
-6743.044
 30
836.177
 70
    32
  0
VERTEX
  8
T44SSILL
 62
13
 10
3542.638
 20
-6734.971
 30
836.223
 70
    32
  0
VERTEX
  8
T44SSILL
 62
13
 10
3530.859
 20
-6705.180
 30
836.388
 70
    32
  0
VERTEX
  8
T44SSILL
 62
13
 10
3525.336
 20
-6715.158
 30
836.336
 70
    32
  0
VERTEX
  8
T44SSILL
 62
13
 10
3525.328
 20
-6727.405
 30
836.271
 70
    32
  0
VERTEX
  8
T44SSILL
 62
13
 10
3529.600
 20
-6736.950
 30
836.218
 70
    32
  0
VERTEX
  8
T44SSILL
 62
13
 10
3573.787
 20
-6797.929
 30
835.872
 70
    32
  0
VERTEX
  8
T44SSILL
 62
13
 10
3575.434
 20
-6789.624
 30
835.916
 70
    32
  0
VERTEX
  8
T44SSILL
 62
13
 10
3582.223
 20
-6777.108
 30
835.980
 70
    32
  0
VERTEX
  8
T44SSILL
 62
13
 10
3604.108
 20
-6760.028
 30
836.064
 70
    32
  0
VERTEX
  8
T44SSILL
 62
13
 10
3605.370
 20
-6757.056
 30
836.079
 70
    32
  0
VERTEX
  8
T44SSILL
 62
13
 10
3604.991
 20
-6749.139
 30
836.122
 70
    32
  0
VERTEX
  8
T44SSILL
 62
13
 10
3601.953
 20
-6740.417
 30
836.170
 70
    32
  0
VERTEX
  8
T44SSILL
 62
13
 10
3606.358
 20
-6727.944
 30
836.235
 70
    32
  0
VERTEX
  8
T44SSILL
 62
13
 10
3614.926
 20
-6721.524
 30
836.266
 70
    32
  0
VERTEX
  8
T44SSILL
 62
13
 10
3628.183
 20
-6729.729
 30
836.217
 70
    32
  0
VERTEX
  8
T44SSILL
 62
13
 10
3632.979
 20
-6728.660
 30
836.221
 70
    32
  0
VERTEX
  8
T44SSILL
 62
13
 10
3637.059
 20
-6724.942
 30
836.239
 70
    32
  0
VERTEX
  8
T44SSILL
 62
13
 10
3645.727
 20
-6730.495
 30
836.206
 70
    32
  0
VERTEX
  8
T44SSILL
 62
13
 10
3658.500
 20
-6721.217
 30
836.251
 70
    32
  0
VERTEX
  8
T44SSILL
 62
13
 10
3656.095
 20
-6711.709
 30
836.303
 70
    32
  0
VERTEX
  8
T44SSILL
 62
13
 10
3651.651
 20
-6703.458
 30
836.349
 70
    32
  0
VERTEX
  8
T44SSILL
 62
13
 10
3636.687
 20
-6690.481
 30
836.425
 70
    32
  0
VERTEX
  8
T44SSILL
 62
13
 10
3638.031
 20
-6676.948
 30
836.497
 70
    32
  0
SEQEND
  8
T44SSILL
  0
POLYLINE
  8
T44SSILL
 62
3
 66
     1
 70
     9
  0
VERTEX
  8
T44SSILL
 62
3
 10
26.511
 20
-6685.138
 30
851.139
 70
    32
  0
VERTEX
  8
T44SSILL
 62
3
 10
17.126
 20
-6696.654
 30
855.618
 70
    32
  0
VERTEX
  8
T44SSILL
 62
3
 10
-1.172
 20
-6705.760
 30
857.615
 70
    32
  0
VERTEX
  8
T44SSILL
 62
3
 10
4.354
 20
-6721.565
 30
859.071
 70
    32
  0
VERTEX
  8
T44SSILL
 62
3
 10
19.465
 20
-6707.159
 30
855.568
 70
    32
  0
VERTEX
  8
T44SSILL
 62
3
 10
35.216
 20
-6703.434
 30
852.695
 70
    32
  0
VERTEX
  8
T44SSILL
 62
3
 10
45.016
 20
-6706.255
 30
851.101
 70
    32
  0
SEQEND
  8
T44SSILL
  0
POLYLINE
  8
T44SSILL
 62
3
 66
     1
 70
     9
  0
VERTEX
  8
T44SSILL
 62
3
 10
582.663
 20
-7363.580
 30
851.752
 70
    32
  0
VERTEX
  8
T44SSILL
 62
3
 10
603.034
 20
-7362.426
 30
861.732
 70
    32
  0
VERTEX
  8
T44SSILL
 62
3
 10
600.074
 20
-7375.159
 30
861.696
 70
    32
  0
VERTEX
  8
T44SSILL
 62
3
 10
591.672
 20
-7373.053
 30
859.916
 70
    32
  0
VERTEX
  8
T44SSILL
 62
3
 10
582.663
 20
-7373.421
 30
851.920
 70
    32
  0
SEQEND
  8
T44SSILL
  0
POLYLINE
  8
T44SSILL
 62
3
 66
     1
 70
     9
  0
VERTEX
  8
T44SSILL
 62
3
 10
114.765
 20
-6829.275
 30
851.094
 70
    32
  0
VERTEX
  8
T44SSILL
 62
3
 10
101.400
 20
-6841.815
 30
842.187
 70
    32
  0
VERTEX
  8
T44SSILL
 62
3
 10
95.317
 20
-6852.290
 30
840.650
 70
    32
  0
VERTEX
  8
T44SSILL
 62
3
 10
106.248
 20
-6862.599
 30
839.488
 70
    32
  0
VERTEX
  8
T44SSILL
 62
3
 10
110.757
 20
-6850.948
 30
841.764
 70
    32
  0
VERTEX
  8
T44SSILL
 62
3
 10
121.842
 20
-6842.020
 30
851.132
 70
    32
  0
SEQEND
  8
T44SSILL
  0
POLYLINE
  8
T44SSILL
 62
3
 66
     1
 70
     9
  0
VERTEX
  8
T44SSILL
 62
3
 10
611.702
 20
-7322.991
 30
850.884
 70
    32
  0
VERTEX
  8
T44SSILL
 62
3
 10
656.756
 20
-7329.385
 30
845.696
 70
    32
  0
VERTEX
  8
T44SSILL
 62
3
 10
648.031
 20
-7339.378
 30
846.726
 70
    32
  0
VERTEX
  8
T44SSILL
 62
3
 10
597.934
 20
-7330.133
 30
851.120
 70
    32
  0
SEQEND
  8
T44SSILL
  0
TEXT
  8
T44SSILL
 62
13
 10
3570.778
 20
-5466.503
 30
837.304
 40
0.200
  1
4400
 41
 1.0 
  0
TEXT
  8
T44SSILL
 62
3
 10
3.762
 20
-6696.926
 30
855.618
 40
0.200
  1
U
 41
 1.0 
  0
TEXT
  8
T44SSILL
 62
3
 10
89.875
 20
-6841.428
 30
842.187
 40
0.200
  1
D
 41
 1.0 
  0
TEXT
  8
T44SSILL
 62
3
 10
640.828
 20
-7319.784
 30
848.595
 40
0.200
  1
D
 41
 1.0 
  0
TEXT
  8
T44SSILL
 62
3
 10
594.845
 20
-7397.517
 30
851.920
 40
0.200
  1
U
 41
 1.0 
  0
TEXT
  8
T44SSILL
 62
13
 10
917.480
 20
-6744.946
 30
858.520
 40
0.200
  1
4400
 41
 1.0 
  0
POLYLINE
  8
T44SSILL
 62
13
 66
     1
 70
     9
  0
VERTEX
  8
T44SSILL
 62
13
 10
189.315
 20
-6729.498
 30
849.216
 70
    32
  0
VERTEX
  8
T44SSILL
 62
13
 10
163.202
 20
-6751.865
 30
848.813
 70
    32
  0
VERTEX
  8
T44SSILL
 62
13
 10
160.819
 20
-6751.673
 30
848.796
 70
    32
  0
VERTEX
  8
T44SSILL
 62
13
 10
155.152
 20
-6743.039
 30
848.826
 70
    32
  0
VERTEX
  8
T44SSILL
 62
13
 10
155.424
 20
-6741.512
 30
848.842
 70
    32
  0
VERTEX
  8
T44SSILL
 62
13
 10
154.693
 20
-6731.772
 30
848.921
 70
    32
  0
VERTEX
  8
T44SSILL
 62
13
 10
157.154
 20
-6716.927
 30
849.071
 70
    32
  0
VERTEX
  8
T44SSILL
 62
13
 10
161.142
 20
-6707.027
 30
849.189
 70
    32
  0
VERTEX
  8
T44SSILL
 62
13
 10
166.427
 20
-6700.625
 30
849.287
 70
    32
  0
VERTEX
  8
T44SSILL
 62
13
 10
172.450
 20
-6694.254
 30
849.390
 70
    32
  0
VERTEX
  8
T44SSILL
 62
13
 10
174.952
 20
-6693.792
 30
849.414
 70
    32
  0
VERTEX
  8
T44SSILL
 62
13
 10
181.082
 20
-6702.064
 30
849.390
 70
    32
  0
VERTEX
  8
T44SSILL
 62
13
 10
184.751
 20
-6708.934
 30
849.359
 70
    32
  0
VERTEX
  8
T44SSILL
 62
13
 10
189.170
 20
-6718.597
 30
849.310
 70
    32
  0
SEQEND
  8
T44SSILL
  0
POLYLINE
  8
T44SSILL
 62
13
 66
     1
 70
     9
  0
VERTEX
  8
T44SSILL
 62
13
 10
496.050
 20
-7222.003
 30
850.762
 70
    32
  0
VERTEX
  8
T44SSILL
 62
13
 10
485.147
 20
-7230.344
 30
850.750
 70
    32
  0
VERTEX
  8
T44SSILL
 62
13
 10
472.065
 20
-7240.353
 30
851.021
 70
    32
  0
VERTEX
  8
T44SSILL
 62
13
 10
473.803
 20
-7253.254
 30
851.192
 70
    32
  0
VERTEX
  8
T44SSILL
 62
13
 10
487.818
 20
-7272.964
 30
851.344
 70
    32
  0
VERTEX
  8
T44SSILL
 62
13
 10
495.204
 20
-7272.679
 30
851.269
 70
    32
  0
VERTEX
  8
T44SSILL
 62
13
 10
499.208
 20
-7269.811
 30
851.189
 70
    32
  0
VERTEX
  8
T44SSILL
 62
13
 10
506.580
 20
-7279.575
 30
851.260
 70
    32
  0
VERTEX
  8
T44SSILL
 62
13
 10
501.510
 20
-7284.459
 30
851.380
 70
    32
  0
VERTEX
  8
T44SSILL
 62
13
 10
500.799
 20
-7292.105
 30
851.498
 70
    32
  0
VERTEX
  8
T44SSILL
 62
13
 10
512.496
 20
-7308.607
 30
851.626
 70
    32
  0
VERTEX
  8
T44SSILL
 62
13
 10
518.491
 20
-7311.416
 30
851.609
 70
    32
  0
VERTEX
  8
T44SSILL
 62
13
 10
524.896
 20
-7312.341
 30
851.561
 70
    32
  0
VERTEX
  8
T44SSILL
 62
13
 10
543.183
 20
-7300.909
 30
851.220
 70
    32
  0
VERTEX
  8
T44SSILL
 62
13
 10
548.601
 20
-7308.923
 30
851.284
 70
    32
  0
VERTEX
  8
T44SSILL
 62
13
 10
540.502
 20
-7315.147
 30
851.452
 70
    32
  0
VERTEX
  8
T44SSILL
 62
13
 10
543.744
 20
-7318.146
 30
851.465
 70
    32
  0
VERTEX
  8
T44SSILL
 62
13
 10
591.216
 20
-7321.627
 30
851.060
 70
    32
  0
VERTEX
  8
T44SSILL
 62
13
 10
626.587
 20
-7296.709
 30
850.359
 70
    32
  0
VERTEX
  8
T44SSILL
 62
13
 10
628.823
 20
-7288.332
 30
850.216
 70
    32
  0
VERTEX
  8
T44SSILL
 62
13
 10
628.757
 20
-7286.724
 30
850.193
 70
    32
  0
VERTEX
  8
T44SSILL
 62
13
 10
620.353
 20
-7263.224
 30
849.932
 70
    32
  0
VERTEX
  8
T44SSILL
 62
13
 10
615.183
 20
-7248.769
 30
850.058
 70
    32
  0
VERTEX
  8
T44SSILL
 62
13
 10
605.044
 20
-7234.262
 30
850.205
 70
    32
  0
VERTEX
  8
T44SSILL
 62
13
 10
584.513
 20
-7230.956
 30
850.317
 70
    32
  0
VERTEX
  8
T44SSILL
 62
13
 10
584.974
 20
-7215.571
 30
850.424
 70
    32
  0
VERTEX
  8
T44SSILL
 62
13
 10
583.465
 20
-7214.224
 30
850.440
 70
    32
  0
VERTEX
  8
T44SSILL
 62
13
 10
573.881
 20
-7205.670
 30
850.393
 70
    32
  0
VERTEX
  8
T44SSILL
 62
13
 10
569.957
 20
-7196.460
 30
850.318
 70
    32
  0
VERTEX
  8
T44SSILL
 62
13
 10
578.741
 20
-7186.358
 30
850.189
 70
    32
  0
VERTEX
  8
T44SSILL
 62
13
 10
578.396
 20
-7181.971
 30
850.148
 70
    32
  0
VERTEX
  8
T44SSILL
 62
13
 10
581.461
 20
-7178.158
 30
850.101
 70
    32
  0
VERTEX
  8
T44SSILL
 62
13
 10
585.953
 20
-7177.742
 30
850.081
 70
    32
  0
VERTEX
  8
T44SSILL
 62
13
 10
590.396
 20
-7180.382
 30
850.090
 70
    32
  0
VERTEX
  8
T44SSILL
 62
13
 10
590.182
 20
-7190.568
 30
850.189
 70
    32
  0
VERTEX
  8
T44SSILL
 62
13
 10
604.060
 20
-7207.508
 30
850.302
 70
    32
  0
VERTEX
  8
T44SSILL
 62
13
 10
603.829
 20
-7213.339
 30
850.359
 70
    32
  0
VERTEX
  8
T44SSILL
 62
13
 10
603.729
 20
-7215.869
 30
850.341
 70
    32
  0
VERTEX
  8
T44SSILL
 62
13
 10
617.313
 20
-7230.810
 30
850.176
 70
    32
  0
VERTEX
  8
T44SSILL
 62
13
 10
628.520
 20
-7247.452
 30
850.009
 70
    32
  0
VERTEX
  8
T44SSILL
 62
13
 10
634.700
 20
-7263.426
 30
849.869
 70
    32
  0
VERTEX
  8
T44SSILL
 62
13
 10
635.582
 20
-7266.928
 30
849.840
 70
    32
  0
VERTEX
  8
T44SSILL
 62
13
 10
639.840
 20
-7283.849
 30
850.045
 70
    32
  0
VERTEX
  8
T44SSILL
 62
13
 10
640.051
 20
-7285.718
 30
850.070
 70
    32
  0
VERTEX
  8
T44SSILL
 62
13
 10
641.541
 20
-7285.866
 30
850.058
 70
    32
  0
VERTEX
  8
T44SSILL
 62
13
 10
653.008
 20
-7278.174
 30
849.837
 70
    32
  0
VERTEX
  8
T44SSILL
 62
13
 10
657.665
 20
-7272.298
 30
849.707
 70
    32
  0
VERTEX
  8
T44SSILL
 62
13
 10
706.761
 20
-7210.357
 30
849.936
 70
    32
  0
VERTEX
  8
T44SSILL
 62
13
 10
706.323
 20
-7208.886
 30
849.948
 70
    32
  0
VERTEX
  8
T44SSILL
 62
13
 10
699.529
 20
-7186.078
 30
849.753
 70
    32
  0
VERTEX
  8
T44SSILL
 62
13
 10
710.554
 20
-7176.662
 30
849.623
 70
    32
  0
VERTEX
  8
T44SSILL
 62
13
 10
716.140
 20
-7178.258
 30
849.618
 70
    32
  0
VERTEX
  8
T44SSILL
 62
13
 10
724.431
 20
-7187.496
 30
849.678
 70
    32
  0
VERTEX
  8
T44SSILL
 62
13
 10
731.634
 20
-7192.676
 30
849.702
 70
    32
  0
VERTEX
  8
T44SSILL
 62
13
 10
738.642
 20
-7197.885
 30
849.726
 70
    32
  0
VERTEX
  8
T44SSILL
 62
13
 10
740.644
 20
-7201.098
 30
849.750
 70
    32
  0
VERTEX
  8
T44SSILL
 62
13
 10
737.122
 20
-7207.548
 30
849.825
 70
    32
  0
VERTEX
  8
T44SSILL
 62
13
 10
735.687
 20
-7210.176
 30
849.812
 70
    32
  0
VERTEX
  8
T44SSILL
 62
13
 10
735.941
 20
-7213.952
 30
849.784
 70
    32
  0
VERTEX
  8
T44SSILL
 62
13
 10
732.920
 20
-7217.317
 30
849.773
 70
    32
  0
VERTEX
  8
T44SSILL
 62
13
 10
723.071
 20
-7225.495
 30
849.758
 70
    32
  0
VERTEX
  8
T44SSILL
 62
13
 10
710.374
 20
-7234.035
 30
849.752
 70
    32
  0
VERTEX
  8
T44SSILL
 62
13
 10
700.537
 20
-7241.456
 30
849.741
 70
    32
  0
VERTEX
  8
T44SSILL
 62
13
 10
691.982
 20
-7248.102
 30
849.731
 70
    32
  0
VERTEX
  8
T44SSILL
 62
13
 10
678.277
 20
-7262.463
 30
849.688
 70
    32
  0
VERTEX
  8
T44SSILL
 62
13
 10
676.554
 20
-7264.582
 30
849.680
 70
    32
  0
VERTEX
  8
T44SSILL
 62
13
 10
667.411
 20
-7275.828
 30
849.784
 70
    32
  0
VERTEX
  8
T44SSILL
 62
13
 10
662.627
 20
-7281.470
 30
849.834
 70
    32
  0
VERTEX
  8
T44SSILL
 62
13
 10
658.693
 20
-7286.111
 30
849.939
 70
    32
  0
VERTEX
  8
T44SSILL
 62
13
 10
640.390
 20
-7299.271
 30
850.264
 70
    32
  0
VERTEX
  8
T44SSILL
 62
13
 10
611.848
 20
-7319.793
 30
850.836
 70
    32
  0
VERTEX
  8
T44SSILL
 62
13
 10
611.702
 20
-7322.991
 30
850.884
 70
    32
  0
VERTEX
  8
T44SSILL
 62
13
 10
619.455
 20
-7324.300
 30
850.829
 70
    32
  0
VERTEX
  8
T44SSILL
 62
13
 10
643.585
 20
-7328.374
 30
850.814
 70
    32
  0
VERTEX
  8
T44SSILL
 62
13
 10
641.869
 20
-7338.809
 30
851.022
 70
    32
  0
VERTEX
  8
T44SSILL
 62
13
 10
612.217
 20
-7332.953
 30
851.024
 70
    32
  0
VERTEX
  8
T44SSILL
 62
13
 10
599.386
 20
-7330.419
 30
851.110
 70
    32
  0
VERTEX
  8
T44SSILL
 62
13
 10
597.934
 20
-7330.133
 30
851.120
 70
    32
  0
VERTEX
  8
T44SSILL
 62
13
 10
592.667
 20
-7333.337
 30
851.217
 70
    32
  0
VERTEX
  8
T44SSILL
 62
13
 10
547.137
 20
-7329.265
 30
851.594
 70
    32
  0
VERTEX
  8
T44SSILL
 62
13
 10
543.812
 20
-7342.878
 30
851.824
 70
    32
  0
VERTEX
  8
T44SSILL
 62
13
 10
543.706
 20
-7351.710
 30
851.953
 70
    32
  0
VERTEX
  8
T44SSILL
 62
13
 10
553.569
 20
-7363.817
 30
852.035
 70
    32
  0
VERTEX
  8
T44SSILL
 62
13
 10
554.125
 20
-7364.500
 30
852.039
 70
    32
  0
VERTEX
  8
T44SSILL
 62
13
 10
582.663
 20
-7363.580
 30
851.752
 70
    32
  0
VERTEX
  8
T44SSILL
 62
13
 10
582.663
 20
-7368.287
 30
851.821
 70
    32
  0
VERTEX
  8
T44SSILL
 62
13
 10
582.663
 20
-7373.421
 30
851.920
 70
    32
  0
VERTEX
  8
T44SSILL
 62
13
 10
578.428
 20
-7373.350
 30
851.935
 70
    32
  0
VERTEX
  8
T44SSILL
 62
13
 10
566.065
 20
-7373.144
 30
852.050
 70
    32
  0
VERTEX
  8
T44SSILL
 62
13
 10
563.877
 20
-7379.886
 30
852.169
 70
    32
  0
VERTEX
  8
T44SSILL
 62
13
 10
564.452
 20
-7380.680
 30
852.175
 70
    32
  0
VERTEX
  8
T44SSILL
 62
13
 10
568.090
 20
-7385.711
 30
852.214
 70
    32
  0
VERTEX
  8
T44SSILL
 62
13
 10
660.001
 20
-7512.814
 30
854.312
 70
    32
  0
VERTEX
  8
T44SSILL
 62
13
 10
680.959
 20
-7541.922
 30
854.793
 70
    32
  0
VERTEX
  8
T44SSILL
 62
13
 10
683.368
 20
-7545.267
 30
854.881
 70
    32
  0
VERTEX
  8
T44SSILL
 62
13
 10
720.284
 20
-7596.540
 30
856.515
 70
    32
  0
VERTEX
  8
T44SSILL
 62
13
 10
771.986
 20
-7668.247
 30
858.802
 70
    32
  0
VERTEX
  8
T44SSILL
 62
13
 10
817.661
 20
-7731.595
 30
858.577
 70
    32
  0
VERTEX
  8
T44SSILL
 62
13
 10
908.864
 20
-7858.623
 30
858.138
 70
    32
  0
VERTEX
  8
T44SSILL
 62
13
 10
900.565
 20
-7864.558
 30
858.522
 70
    32
  0
VERTEX
  8
T44SSILL
 62
13
 10
811.777
 20
-7742.994
 30
858.990
 70
    32
  0
VERTEX
  8
T44SSILL
 62
13
 10
807.328
 20
-7736.902
 30
858.971
 70
    32
  0
VERTEX
  8
T44SSILL
 62
13
 10
757.045
 20
-7667.183
 30
858.769
 70
    32
  0
VERTEX
  8
T44SSILL
 62
13
 10
676.341
 20
-7555.285
 30
855.217
 70
    32
  0
VERTEX
  8
T44SSILL
 62
13
 10
667.023
 20
-7542.365
 30
855.004
 70
    32
  0
VERTEX
  8
T44SSILL
 62
13
 10
663.857
 20
-7542.731
 30
855.088
 70
    32
  0
VERTEX
  8
T44SSILL
 62
13
 10
665.153
 20
-7553.907
 30
855.425
 70
    32
  0
VERTEX
  8
T44SSILL
 62
13
 10
662.000
 20
-7556.615
 30
855.586
 70
    32
  0
VERTEX
  8
T44SSILL
 62
13
 10
654.247
 20
-7556.833
 30
855.769
 70
    32
  0
VERTEX
  8
T44SSILL
 62
13
 10
644.540
 20
-7552.203
 30
855.837
 70
    32
  0
VERTEX
  8
T44SSILL
 62
13
 10
651.528
 20
-7531.044
 30
854.983
 70
    32
  0
VERTEX
  8
T44SSILL
 62
13
 10
648.898
 20
-7525.060
 30
854.846
 70
    32
  0
VERTEX
  8
T44SSILL
 62
13
 10
647.974
 20
-7514.269
 30
854.513
 70
    32
  0
VERTEX
  8
T44SSILL
 62
13
 10
626.577
 20
-7484.161
 30
854.009
 70
    32
  0
VERTEX
  8
T44SSILL
 62
13
 10
571.204
 20
-7406.424
 30
852.712
 70
    32
  0
VERTEX
  8
T44SSILL
 62
13
 10
493.914
 20
-7297.920
 30
851.862
 70
    32
  0
VERTEX
  8
T44SSILL
 62
13
 10
486.016
 20
-7295.140
 30
852.129
 70
    32
  0
VERTEX
  8
T44SSILL
 62
13
 10
484.355
 20
-7296.240
 30
852.257
 70
    32
  0
VERTEX
  8
T44SSILL
 62
13
 10
478.097
 20
-7300.386
 30
852.781
 70
    32
  0
VERTEX
  8
T44SSILL
 62
13
 10
472.395
 20
-7289.791
 30
852.608
 70
    32
  0
VERTEX
  8
T44SSILL
 62
13
 10
476.821
 20
-7282.127
 30
852.024
 70
    32
  0
VERTEX
  8
T44SSILL
 62
13
 10
479.260
 20
-7277.903
 30
851.724
 70
    32
  0
VERTEX
  8
T44SSILL
 62
13
 10
460.531
 20
-7251.509
 30
851.514
 70
    32
  0
VERTEX
  8
T44SSILL
 62
13
 10
460.484
 20
-7251.525
 30
851.517
 70
    32
  0
VERTEX
  8
T44SSILL
 62
13
 10
448.982
 20
-7255.519
 30
852.315
 70
    32
  0
VERTEX
  8
T44SSILL
 62
13
 10
444.081
 20
-7247.789
 30
852.229
 70
    32
  0
VERTEX
  8
T44SSILL
 62
13
 10
450.391
 20
-7237.886
 30
851.442
 70
    32
  0
VERTEX
  8
T44SSILL
 62
13
 10
419.538
 20
-7194.710
 30
851.147
 70
    32
  0
VERTEX
  8
T44SSILL
 62
13
 10
411.019
 20
-7182.787
 30
851.061
 70
    32
  0
VERTEX
  8
T44SSILL
 62
13
 10
407.642
 20
-7180.523
 30
851.142
 70
    32
  0
VERTEX
  8
T44SSILL
 62
13
 10
398.957
 20
-7167.925
 30
851.034
 70
    32
  0
VERTEX
  8
T44SSILL
 62
13
 10
398.024
 20
-7164.403
 30
850.921
 70
    32
  0
VERTEX
  8
T44SSILL
 62
13
 10
374.209
 20
-7130.942
 30
850.676
 70
    32
  0
VERTEX
  8
T44SSILL
 62
13
 10
278.265
 20
-6997.035
 30
849.728
 70
    32
  0
VERTEX
  8
T44SSILL
 62
13
 10
205.609
 20
-6895.671
 30
849.013
 70
    32
  0
VERTEX
  8
T44SSILL
 62
13
 10
204.401
 20
-6896.397
 30
849.113
 70
    32
  0
VERTEX
  8
T44SSILL
 62
13
 10
201.486
 20
-6905.029
 30
849.676
 70
    32
  0
VERTEX
  8
T44SSILL
 62
13
 10
198.805
 20
-6919.266
 30
850.487
 70
    32
  0
VERTEX
  8
T44SSILL
 62
13
 10
196.391
 20
-6919.328
 30
850.623
 70
    32
  0
VERTEX
  8
T44SSILL
 62
13
 10
191.160
 20
-6918.556
 30
850.875
 70
    32
  0
VERTEX
  8
T44SSILL
 62
13
 10
188.771
 20
-6914.008
 30
850.795
 70
    32
  0
VERTEX
  8
T44SSILL
 62
13
 10
186.169
 20
-6894.120
 30
850.012
 70
    32
  0
VERTEX
  8
T44SSILL
 62
13
 10
183.602
 20
-6887.452
 30
849.843
 70
    32
  0
VERTEX
  8
T44SSILL
 62
13
 10
184.841
 20
-6879.335
 30
849.397
 70
    32
  0
VERTEX
  8
T44SSILL
 62
13
 10
183.843
 20
-6863.788
 30
848.727
 70
    32
  0
VERTEX
  8
T44SSILL
 62
13
 10
181.632
 20
-6859.651
 30
848.657
 70
    32
  0
VERTEX
  8
T44SSILL
 62
13
 10
177.303
 20
-6852.596
 30
848.567
 70
    32
  0
VERTEX
  8
T44SSILL
 62
13
 10
173.023
 20
-6848.712
 30
848.622
 70
    32
  0
VERTEX
  8
T44SSILL
 62
13
 10
160.898
 20
-6837.631
 30
848.774
 70
    32
  0
VERTEX
  8
T44SSILL
 62
13
 10
153.309
 20
-6839.018
 30
849.257
 70
    32
  0
VERTEX
  8
T44SSILL
 62
13
 10
150.709
 20
-6834.936
 30
849.210
 70
    32
  0
VERTEX
  8
T44SSILL
 62
13
 10
144.070
 20
-6832.079
 30
849.443
 70
    32
  0
VERTEX
  8
T44SSILL
 62
13
 10
143.268
 20
-6831.734
 30
849.472
 70
    32
  0
VERTEX
  8
T44SSILL
 62
13
 10
129.821
 20
-6834.095
 30
850.323
 70
    32
  0
VERTEX
  8
T44SSILL
 62
13
 10
129.549
 20
-6834.143
 30
850.342
 70
    32
  0
VERTEX
  8
T44SSILL
 62
13
 10
127.721
 20
-6835.344
 30
850.497
 70
    32
  0
VERTEX
  8
T44SSILL
 62
13
 10
126.241
 20
-6836.317
 30
850.624
 70
    32
  0
VERTEX
  8
T44SSILL
 62
13
 10
121.842
 20
-6842.020
 30
851.132
 70
    32
  0
VERTEX
  8
T44SSILL
 62
13
 10
120.514
 20
-6839.630
 30
851.094
 70
    32
  0
VERTEX
  8
T44SSILL
 62
13
 10
114.765
 20
-6829.275
 30
851.094
 70
    32
  0
VERTEX
  8
T44SSILL
 62
13
 10
120.280
 20
-6824.726
 30
850.593
 70
    32
  0
VERTEX
  8
T44SSILL
 62
13
 10
126.801
 20
-6820.551
 30
850.042
 70
    32
  0
VERTEX
  8
T44SSILL
 62
13
 10
133.906
 20
-6816.938
 30
849.475
 70
    32
  0
VERTEX
  8
T44SSILL
 62
13
 10
134.472
 20
-6816.651
 30
849.430
 70
    32
  0
VERTEX
  8
T44SSILL
 62
13
 10
135.535
 20
-6808.121
 30
849.068
 70
    32
  0
VERTEX
  8
T44SSILL
 62
13
 10
132.075
 20
-6794.272
 30
848.804
 70
    32
  0
VERTEX
  8
T44SSILL
 62
13
 10
130.103
 20
-6791.625
 30
848.836
 70
    32
  0
VERTEX
  8
T44SSILL
 62
13
 10
116.405
 20
-6773.246
 30
849.222
 70
    32
  0
VERTEX
  8
T44SSILL
 62
13
 10
83.329
 20
-6726.196
 30
850.177
 70
    32
  0
VERTEX
  8
T44SSILL
 62
13
 10
75.877
 20
-6720.653
 30
850.352
 70
    32
  0
VERTEX
  8
T44SSILL
 62
13
 10
72.402
 20
-6716.854
 30
850.443
 70
    32
  0
VERTEX
  8
T44SSILL
 62
13
 10
68.382
 20
-6713.965
 30
850.536
 70
    32
  0
VERTEX
  8
T44SSILL
 62
13
 10
52.587
 20
-6708.405
 30
850.856
 70
    32
  0
VERTEX
  8
T44SSILL
 62
13
 10
50.284
 20
-6707.751
 30
850.902
 70
    32
  0
VERTEX
  8
T44SSILL
 62
13
 10
47.555
 20
-6706.976
 30
851.045
 70
    32
  0
VERTEX
  8
T44SSILL
 62
13
 10
45.016
 20
-6706.255
 30
851.101
 70
    32
  0
VERTEX
  8
T44SSILL
 62
13
 10
26.511
 20
-6685.138
 30
851.139
 70
    32
  0
VERTEX
  8
T44SSILL
 62
13
 10
-7.941
 20
-6636.973
 30
851.000
 70
    32
  0
VERTEX
  8
T44SSILL
 62
13
 10
-59.134
 20
-6565.402
 30
850.991
 70
    32
  0
VERTEX
  8
T44SSILL
 62
13
 10
-61.108
 20
-6559.286
 30
850.987
 70
    32
  0
VERTEX
  8
T44SSILL
 62
13
 10
-65.722
 20
-6552.748
 30
850.986
 70
    32
  0
VERTEX
  8
T44SSILL
 62
13
 10
-71.817
 20
-6546.696
 30
850.987
 70
    32
  0
VERTEX
  8
T44SSILL
 62
13
 10
-87.020
 20
-6525.882
 30
850.985
 70
    32
  0
VERTEX
  8
T44SSILL
 62
13
 10
-96.261
 20
-6513.562
 30
850.984
 70
    32
  0
VERTEX
  8
T44SSILL
 62
13
 10
-87.361
 20
-6507.106
 30
850.965
 70
    32
  0
VERTEX
  8
T44SSILL
 62
13
 10
-80.056
 20
-6517.237
 30
850.967
 70
    32
  0
VERTEX
  8
T44SSILL
 62
13
 10
-76.077
 20
-6518.980
 30
850.963
 70
    32
  0
VERTEX
  8
T44SSILL
 62
13
 10
-74.434
 20
-6525.857
 30
850.968
 70
    32
  0
VERTEX
  8
T44SSILL
 62
13
 10
-60.067
 20
-6544.684
 30
850.970
 70
    32
  0
VERTEX
  8
T44SSILL
 62
13
 10
-52.804
 20
-6550.571
 30
850.966
 70
    32
  0
VERTEX
  8
T44SSILL
 62
13
 10
-50.488
 20
-6555.169
 30
850.968
 70
    32
  0
VERTEX
  8
T44SSILL
 62
13
 10
-49.735
 20
-6559.670
 30
850.972
 70
    32
  0
VERTEX
  8
T44SSILL
 62
13
 10
-44.753
 20
-6563.178
 30
850.969
 70
    32
  0
VERTEX
  8
T44SSILL
 62
13
 10
-43.419
 20
-6568.987
 30
850.974
 70
    32
  0
VERTEX
  8
T44SSILL
 62
13
 10
-21.188
 20
-6599.375
 30
850.977
 70
    32
  0
VERTEX
  8
T44SSILL
 62
13
 10
-17.572
 20
-6601.368
 30
850.975
 70
    32
  0
VERTEX
  8
T44SSILL
 62
13
 10
-16.447
 20
-6606.253
 30
850.978
 70
    32
  0
VERTEX
  8
T44SSILL
 62
13
 10
11.234
 20
-6645.166
 30
850.984
 70
    32
  0
VERTEX
  8
T44SSILL
 62
13
 10
13.099
 20
-6644.308
 30
850.980
 70
    32
  0
VERTEX
  8
T44SSILL
 62
13
 10
16.877
 20
-6648.859
 30
850.980
 70
    32
  0
VERTEX
  8
T44SSILL
 62
13
 10
15.199
 20
-6650.764
 30
850.984
 70
    32
  0
VERTEX
  8
T44SSILL
 62
13
 10
32.354
 20
-6674.718
 30
850.987
 70
    32
  0
VERTEX
  8
T44SSILL
 62
13
 10
35.080
 20
-6674.334
 30
850.983
 70
    32
  0
VERTEX
  8
T44SSILL
 62
13
 10
40.171
 20
-6681.719
 30
850.985
 70
    32
  0
VERTEX
  8
T44SSILL
 62
13
 10
38.593
 20
-6683.768
 30
850.989
 70
    32
  0
VERTEX
  8
T44SSILL
 62
13
 10
42.503
 20
-6688.975
 30
850.989
 70
    32
  0
VERTEX
  8
T44SSILL
 62
13
 10
51.037
 20
-6695.700
 30
850.985
 70
    32
  0
VERTEX
  8
T44SSILL
 62
13
 10
57.468
 20
-6700.768
 30
850.832
 70
    32
  0
VERTEX
  8
T44SSILL
 62
13
 10
69.530
 20
-6701.531
 30
850.616
 70
    32
  0
VERTEX
  8
T44SSILL
 62
13
 10
74.147
 20
-6703.582
 30
850.519
 70
    32
  0
VERTEX
  8
T44SSILL
 62
13
 10
79.242
 20
-6703.380
 30
850.432
 70
    32
  0
VERTEX
  8
T44SSILL
 62
13
 10
83.051
 20
-6706.736
 30
850.338
 70
    32
  0
VERTEX
  8
T44SSILL
 62
13
 10
99.606
 20
-6729.821
 30
849.864
 70
    32
  0
VERTEX
  8
T44SSILL
 62
13
 10
124.669
 20
-6765.092
 30
849.143
 70
    32
  0
VERTEX
  8
T44SSILL
 62
13
 10
131.899
 20
-6773.566
 30
848.949
 70
    32
  0
VERTEX
  8
T44SSILL
 62
13
 10
137.285
 20
-6777.970
 30
848.820
 70
    32
  0
VERTEX
  8
T44SSILL
 62
13
 10
142.967
 20
-6773.198
 30
848.759
 70
    32
  0
VERTEX
  8
T44SSILL
 62
13
 10
147.907
 20
-6766.029
 30
848.730
 70
    32
  0
VERTEX
  8
T44SSILL
 62
13
 10
143.833
 20
-6747.198
 30
848.953
 70
    32
  0
VERTEX
  8
T44SSILL
 62
13
 10
142.369
 20
-6742.409
 30
849.017
 70
    32
  0
VERTEX
  8
T44SSILL
 62
13
 10
142.570
 20
-6732.002
 30
849.097
 70
    32
  0
VERTEX
  8
T44SSILL
 62
13
 10
143.685
 20
-6723.153
 30
849.148
 70
    32
  0
VERTEX
  8
T44SSILL
 62
13
 10
145.469
 20
-6718.051
 30
849.158
 70
    32
  0
VERTEX
  8
T44SSILL
 62
13
 10
151.661
 20
-6703.352
 30
849.168
 70
    32
  0
VERTEX
  8
T44SSILL
 62
13
 10
152.496
 20
-6702.006
 30
849.164
 70
    32
  0
VERTEX
  8
T44SSILL
 62
13
 10
158.389
 20
-6692.496
 30
849.294
 70
    32
  0
VERTEX
  8
T44SSILL
 62
13
 10
161.732
 20
-6687.378
 30
849.365
 70
    32
  0
VERTEX
  8
T44SSILL
 62
13
 10
161.098
 20
-6674.925
 30
849.469
 70
    32
  0
VERTEX
  8
T44SSILL
 62
13
 10
154.432
 20
-6651.011
 30
849.626
 70
    32
  0
VERTEX
  8
T44SSILL
 62
13
 10
150.843
 20
-6643.859
 30
849.660
 70
    32
  0
VERTEX
  8
T44SSILL
 62
13
 10
146.427
 20
-6635.062
 30
849.807
 70
    32
  0
VERTEX
  8
T44SSILL
 62
13
 10
150.462
 20
-6630.482
 30
849.774
 70
    32
  0
VERTEX
  8
T44SSILL
 62
13
 10
151.940
 20
-6628.805
 30
849.800
 70
    32
  0
VERTEX
  8
T44SSILL
 62
13
 10
154.596
 20
-6616.080
 30
849.933
 70
    32
  0
VERTEX
  8
T44SSILL
 62
13
 10
152.268
 20
-6609.140
 30
849.975
 70
    32
  0
VERTEX
  8
T44SSILL
 62
13
 10
149.766
 20
-6605.973
 30
849.983
 70
    32
  0
VERTEX
  8
T44SSILL
 62
13
 10
136.369
 20
-6589.020
 30
850.353
 70
    32
  0
VERTEX
  8
T44SSILL
 62
13
 10
128.467
 20
-6571.825
 30
850.629
 70
    32
  0
VERTEX
  8
T44SSILL
 62
13
 10
128.164
 20
-6558.908
 30
850.738
 70
    32
  0
VERTEX
  8
T44SSILL
 62
13
 10
128.031
 20
-6553.220
 30
850.732
 70
    32
  0
VERTEX
  8
T44SSILL
 62
13
 10
134.811
 20
-6546.944
 30
850.716
 70
    32
  0
VERTEX
  8
T44SSILL
 62
13
 10
134.897
 20
-6546.966
 30
850.716
 70
    32
  0
VERTEX
  8
T44SSILL
 62
13
 10
146.446
 20
-6550.031
 30
850.490
 70
    32
  0
VERTEX
  8
T44SSILL
 62
13
 10
146.107
 20
-6558.061
 30
850.431
 70
    32
  0
VERTEX
  8
T44SSILL
 62
13
 10
148.613
 20
-6565.428
 30
850.328
 70
    32
  0
VERTEX
  8
T44SSILL
 62
13
 10
155.054
 20
-6584.363
 30
850.214
 70
    32
  0
VERTEX
  8
T44SSILL
 62
13
 10
166.360
 20
-6607.115
 30
850.104
 70
    32
  0
VERTEX
  8
T44SSILL
 62
13
 10
180.047
 20
-6629.294
 30
850.019
 70
    32
  0
VERTEX
  8
T44SSILL
 62
13
 10
186.689
 20
-6648.534
 30
849.903
 70
    32
  0
VERTEX
  8
T44SSILL
 62
13
 10
190.112
 20
-6672.555
 30
849.720
 70
    32
  0
VERTEX
  8
T44SSILL
 62
13
 10
191.379
 20
-6678.731
 30
849.676
 70
    32
  0
VERTEX
  8
T44SSILL
 62
13
 10
198.952
 20
-6690.492
 30
849.633
 70
    32
  0
VERTEX
  8
T44SSILL
 62
13
 10
207.320
 20
-6703.094
 30
849.590
 70
    32
  0
VERTEX
  8
T44SSILL
 62
13
 10
212.143
 20
-6702.654
 30
849.632
 70
    32
  0
VERTEX
  8
T44SSILL
 62
13
 10
219.859
 20
-6726.706
 30
849.483
 70
    32
  0
VERTEX
  8
T44SSILL
 62
13
 10
219.348
 20
-6734.641
 30
849.409
 70
    32
  0
VERTEX
  8
T44SSILL
 62
13
 10
224.846
 20
-6745.554
 30
849.357
 70
    32
  0
VERTEX
  8
T44SSILL
 62
13
 10
223.300
 20
-6753.799
 30
849.273
 70
    32
  0
VERTEX
  8
T44SSILL
 62
13
 10
218.994
 20
-6756.874
 30
849.212
 70
    32
  0
VERTEX
  8
T44SSILL
 62
13
 10
206.805
 20
-6757.814
 30
849.107
 70
    32
  0
VERTEX
  8
T44SSILL
 62
13
 10
195.493
 20
-6740.940
 30
849.165
 70
    32
  0
VERTEX
  8
T44SSILL
 62
13
 10
158.839
 20
-6768.024
 30
848.637
 70
    32
  0
VERTEX
  8
T44SSILL
 62
13
 10
154.495
 20
-6772.332
 30
848.565
 70
    32
  0
VERTEX
  8
T44SSILL
 62
13
 10
153.891
 20
-6772.931
 30
848.570
 70
    32
  0
VERTEX
  8
T44SSILL
 62
13
 10
150.901
 20
-6779.905
 30
848.567
 70
    32
  0
VERTEX
  8
T44SSILL
 62
13
 10
147.769
 20
-6791.783
 30
848.526
 70
    32
  0
VERTEX
  8
T44SSILL
 62
13
 10
148.539
 20
-6798.943
 30
848.455
 70
    32
  0
VERTEX
  8
T44SSILL
 62
13
 10
151.119
 20
-6804.854
 30
848.363
 70
    32
  0
VERTEX
  8
T44SSILL
 62
13
 10
155.551
 20
-6809.504
 30
848.248
 70
    32
  0
VERTEX
  8
T44SSILL
 62
13
 10
160.765
 20
-6814.973
 30
848.241
 70
    32
  0
VERTEX
  8
T44SSILL
 62
13
 10
171.451
 20
-6828.451
 30
848.208
 70
    32
  0
VERTEX
  8
T44SSILL
 62
13
 10
176.315
 20
-6834.586
 30
848.250
 70
    32
  0
VERTEX
  8
T44SSILL
 62
13
 10
191.473
 20
-6858.742
 30
848.428
 70
    32
  0
VERTEX
  8
T44SSILL
 62
13
 10
203.618
 20
-6875.896
 30
848.549
 70
    32
  0
VERTEX
  8
T44SSILL
 62
13
 10
213.901
 20
-6887.712
 30
848.626
 70
    32
  0
VERTEX
  8
T44SSILL
 62
13
 10
222.617
 20
-6889.185
 30
848.609
 70
    32
  0
VERTEX
  8
T44SSILL
 62
13
 10
239.409
 20
-6892.023
 30
848.576
 70
    32
  0
VERTEX
  8
T44SSILL
 62
13
 10
254.571
 20
-6888.299
 30
848.486
 70
    32
  0
VERTEX
  8
T44SSILL
 62
13
 10
258.743
 20
-6883.210
 30
848.422
 70
    32
  0
VERTEX
  8
T44SSILL
 62
13
 10
261.417
 20
-6879.948
 30
848.471
 70
    32
  0
VERTEX
  8
T44SSILL
 62
13
 10
270.620
 20
-6886.634
 30
848.486
 70
    32
  0
VERTEX
  8
T44SSILL
 62
13
 10
269.313
 20
-6889.840
 30
848.448
 70
    32
  0
VERTEX
  8
T44SSILL
 62
13
 10
267.048
 20
-6895.398
 30
848.509
 70
    32
  0
VERTEX
  8
T44SSILL
 62
13
 10
255.168
 20
-6898.461
 30
848.581
 70
    32
  0
VERTEX
  8
T44SSILL
 62
13
 10
247.268
 20
-6900.169
 30
848.626
 70
    32
  0
VERTEX
  8
T44SSILL
 62
13
 10
234.871
 20
-6902.948
 30
848.697
 70
    32
  0
VERTEX
  8
T44SSILL
 62
13
 10
233.043
 20
-6906.044
 30
848.734
 70
    32
  0
VERTEX
  8
T44SSILL
 62
13
 10
232.851
 20
-6906.370
 30
848.737
 70
    32
  0
VERTEX
  8
T44SSILL
 62
13
 10
234.170
 20
-6914.326
 30
848.809
 70
    32
  0
VERTEX
  8
T44SSILL
 62
13
 10
234.830
 20
-6920.706
 30
848.868
 70
    32
  0
VERTEX
  8
T44SSILL
 62
13
 10
252.112
 20
-6945.000
 30
849.040
 70
    32
  0
VERTEX
  8
T44SSILL
 62
13
 10
261.395
 20
-6947.465
 30
849.030
 70
    32
  0
VERTEX
  8
T44SSILL
 62
13
 10
268.540
 20
-6942.646
 30
848.958
 70
    32
  0
VERTEX
  8
T44SSILL
 62
13
 10
273.998
 20
-6950.098
 30
849.010
 70
    32
  0
VERTEX
  8
T44SSILL
 62
13
 10
267.180
 20
-6955.546
 30
849.087
 70
    32
  0
VERTEX
  8
T44SSILL
 62
13
 10
265.161
 20
-6963.774
 30
849.174
 70
    32
  0
VERTEX
  8
T44SSILL
 62
13
 10
274.602
 20
-6976.384
 30
849.261
 70
    32
  0
VERTEX
  8
T44SSILL
 62
13
 10
288.739
 20
-6982.018
 30
849.265
 70
    32
  0
VERTEX
  8
T44SSILL
 62
13
 10
289.320
 20
-6981.949
 30
849.262
 70
    32
  0
VERTEX
  8
T44SSILL
 62
13
 10
301.072
 20
-6980.525
 30
849.206
 70
    32
  0
VERTEX
  8
T44SSILL
 62
13
 10
319.421
 20
-6970.690
 30
849.045
 70
    32
  0
VERTEX
  8
T44SSILL
 62
13
 10
336.976
 20
-6963.786
 30
848.916
 70
    32
  0
VERTEX
  8
T44SSILL
 62
13
 10
349.725
 20
-6956.617
 30
848.801
 70
    32
  0
VERTEX
  8
T44SSILL
 62
13
 10
354.042
 20
-6950.434
 30
848.726
 70
    32
  0
VERTEX
  8
T44SSILL
 62
13
 10
359.977
 20
-6946.713
 30
848.669
 70
    32
  0
VERTEX
  8
T44SSILL
 62
13
 10
367.249
 20
-6942.155
 30
848.767
 70
    32
  0
VERTEX
  8
T44SSILL
 62
13
 10
376.282
 20
-6939.994
 30
848.857
 70
    32
  0
VERTEX
  8
T44SSILL
 62
13
 10
378.512
 20
-6929.982
 30
848.963
 70
    32
  0
VERTEX
  8
T44SSILL
 62
13
 10
388.120
 20
-6922.147
 30
849.108
 70
    32
  0
VERTEX
  8
T44SSILL
 62
13
 10
405.809
 20
-6917.531
 30
849.288
 70
    32
  0
VERTEX
  8
T44SSILL
 62
13
 10
408.547
 20
-6926.127
 30
849.235
 70
    32
  0
VERTEX
  8
T44SSILL
 62
13
 10
413.354
 20
-6931.663
 30
849.224
 70
    32
  0
VERTEX
  8
T44SSILL
 62
13
 10
414.178
 20
-6933.307
 30
849.217
 70
    32
  0
VERTEX
  8
T44SSILL
 62
13
 10
407.990
 20
-6939.779
 30
849.111
 70
    32
  0
VERTEX
  8
T44SSILL
 62
13
 10
393.019
 20
-6949.300
 30
848.909
 70
    32
  0
VERTEX
  8
T44SSILL
 62
13
 10
382.818
 20
-6957.010
 30
848.760
 70
    32
  0
VERTEX
  8
T44SSILL
 62
13
 10
379.476
 20
-6958.945
 30
848.717
 70
    32
  0
VERTEX
  8
T44SSILL
 62
13
 10
371.567
 20
-6963.526
 30
848.789
 70
    32
  0
VERTEX
  8
T44SSILL
 62
13
 10
361.431
 20
-6967.126
 30
848.860
 70
    32
  0
VERTEX
  8
T44SSILL
 62
13
 10
346.368
 20
-6969.896
 30
848.941
 70
    32
  0
VERTEX
  8
T44SSILL
 62
13
 10
326.400
 20
-6979.637
 30
849.106
 70
    32
  0
VERTEX
  8
T44SSILL
 62
13
 10
311.601
 20
-6987.837
 30
849.238
 70
    32
  0
VERTEX
  8
T44SSILL
 62
13
 10
309.509
 20
-6991.601
 30
849.282
 70
    32
  0
VERTEX
  8
T44SSILL
 62
13
 10
302.987
 20
-6991.993
 30
849.309
 70
    32
  0
VERTEX
  8
T44SSILL
 62
13
 10
296.957
 20
-6996.384
 30
849.373
 70
    32
  0
VERTEX
  8
T44SSILL
 62
13
 10
296.168
 20
-6996.976
 30
849.382
 70
    32
  0
VERTEX
  8
T44SSILL
 62
13
 10
296.243
 20
-7006.537
 30
849.473
 70
    32
  0
VERTEX
  8
T44SSILL
 62
13
 10
329.826
 20
-7053.237
 30
849.802
 70
    32
  0
VERTEX
  8
T44SSILL
 62
13
 10
339.952
 20
-7059.714
 30
849.828
 70
    32
  0
VERTEX
  8
T44SSILL
 62
13
 10
342.503
 20
-7071.626
 30
849.934
 70
    32
  0
VERTEX
  8
T44SSILL
 62
13
 10
354.504
 20
-7088.880
 30
850.056
 70
    32
  0
VERTEX
  8
T44SSILL
 62
13
 10
367.099
 20
-7095.684
 30
850.077
 70
    32
  0
VERTEX
  8
T44SSILL
 62
13
 10
373.113
 20
-7094.956
 30
850.048
 70
    32
  0
VERTEX
  8
T44SSILL
 62
13
 10
376.892
 20
-7082.311
 30
849.913
 70
    32
  0
VERTEX
  8
T44SSILL
 62
13
 10
384.653
 20
-7066.921
 30
849.737
 70
    32
  0
VERTEX
  8
T44SSILL
 62
13
 10
390.283
 20
-7057.272
 30
849.624
 70
    32
  0
VERTEX
  8
T44SSILL
 62
13
 10
398.941
 20
-7041.478
 30
849.441
 70
    32
  0
VERTEX
  8
T44SSILL
 62
13
 10
406.386
 20
-7030.897
 30
849.313
 70
    32
  0
VERTEX
  8
T44SSILL
 62
13
 10
415.292
 20
-7021.661
 30
849.192
 70
    32
  0
VERTEX
  8
T44SSILL
 62
13
 10
414.928
 20
-7020.203
 30
849.179
 70
    32
  0
VERTEX
  8
T44SSILL
 62
13
 10
417.826
 20
-7016.816
 30
849.136
 70
    32
  0
VERTEX
  8
T44SSILL
 62
13
 10
415.232
 20
-7009.953
 30
849.079
 70
    32
  0
VERTEX
  8
T44SSILL
 62
13
 10
421.811
 20
-7001.680
 30
848.976
 70
    32
  0
VERTEX
  8
T44SSILL
 62
13
 10
418.797
 20
-6992.970
 30
848.903
 70
    32
  0
VERTEX
  8
T44SSILL
 62
13
 10
422.954
 20
-6986.219
 30
848.823
 70
    32
  0
VERTEX
  8
T44SSILL
 62
13
 10
425.197
 20
-6982.577
 30
848.873
 70
    32
  0
VERTEX
  8
T44SSILL
 62
13
 10
426.874
 20
-6980.673
 30
848.903
 70
    32
  0
VERTEX
  8
T44SSILL
 62
13
 10
425.970
 20
-6971.150
 30
848.979
 70
    32
  0
VERTEX
  8
T44SSILL
 62
13
 10
423.740
 20
-6962.647
 30
849.036
 70
    32
  0
VERTEX
  8
T44SSILL
 62
13
 10
425.421
 20
-6959.352
 30
849.078
 70
    32
  0
VERTEX
  8
T44SSILL
 62
13
 10
427.420
 20
-6957.760
 30
849.108
 70
    32
  0
VERTEX
  8
T44SSILL
 62
13
 10
423.203
 20
-6953.191
 30
849.114
 70
    32
  0
VERTEX
  8
T44SSILL
 62
13
 10
429.906
 20
-6935.647
 30
849.321
 70
    32
  0
VERTEX
  8
T44SSILL
 62
13
 10
437.413
 20
-6930.578
 30
849.425
 70
    32
  0
VERTEX
  8
T44SSILL
 62
13
 10
449.893
 20
-6947.288
 30
849.378
 70
    32
  0
VERTEX
  8
T44SSILL
 62
13
 10
455.798
 20
-6950.586
 30
849.396
 70
    32
  0
VERTEX
  8
T44SSILL
 62
13
 10
458.854
 20
-6960.442
 30
849.334
 70
    32
  0
VERTEX
  8
T44SSILL
 62
13
 10
465.080
 20
-6962.345
 30
849.366
 70
    32
  0
VERTEX
  8
T44SSILL
 62
13
 10
465.483
 20
-6966.339
 30
849.335
 70
    32
  0
VERTEX
  8
T44SSILL
 62
13
 10
471.991
 20
-6977.019
 30
849.293
 70
    32
  0
VERTEX
  8
T44SSILL
 62
13
 10
468.009
 20
-6993.863
 30
849.114
 70
    32
  0
VERTEX
  8
T44SSILL
 62
13
 10
466.041
 20
-6999.064
 30
849.053
 70
    32
  0
VERTEX
  8
T44SSILL
 62
13
 10
463.545
 20
-7001.640
 30
849.010
 70
    32
  0
VERTEX
  8
T44SSILL
 62
13
 10
460.591
 20
-7004.637
 30
848.961
 70
    32
  0
VERTEX
  8
T44SSILL
 62
13
 10
460.418
 20
-7009.720
 30
848.915
 70
    32
  0
VERTEX
  8
T44SSILL
 62
13
 10
459.386
 20
-7040.073
 30
849.211
 70
    32
  0
VERTEX
  8
T44SSILL
 62
13
 10
465.738
 20
-7045.414
 30
849.239
 70
    32
  0
VERTEX
  8
T44SSILL
 62
13
 10
468.946
 20
-7043.095
 30
849.205
 70
    32
  0
VERTEX
  8
T44SSILL
 62
13
 10
472.114
 20
-7030.338
 30
849.071
 70
    32
  0
VERTEX
  8
T44SSILL
 62
13
 10
483.584
 20
-7024.252
 30
848.972
 70
    32
  0
VERTEX
  8
T44SSILL
 62
13
 10
488.927
 20
-7021.417
 30
849.039
 70
    32
  0
VERTEX
  8
T44SSILL
 62
13
 10
493.166
 20
-7021.058
 30
849.076
 70
    32
  0
VERTEX
  8
T44SSILL
 62
13
 10
494.182
 20
-7018.969
 30
849.102
 70
    32
  0
VERTEX
  8
T44SSILL
 62
13
 10
503.572
 20
-7012.603
 30
849.232
 70
    32
  0
VERTEX
  8
T44SSILL
 62
13
 10
507.561
 20
-7011.883
 30
849.270
 70
    32
  0
VERTEX
  8
T44SSILL
 62
13
 10
515.792
 20
-7017.316
 30
849.288
 70
    32
  0
VERTEX
  8
T44SSILL
 62
13
 10
518.379
 20
-7025.252
 30
849.239
 70
    32
  0
VERTEX
  8
T44SSILL
 62
13
 10
516.402
 20
-7029.819
 30
849.183
 70
    32
  0
VERTEX
  8
T44SSILL
 62
13
 10
506.615
 20
-7037.314
 30
849.040
 70
    32
  0
VERTEX
  8
T44SSILL
 62
13
 10
504.568
 20
-7037.415
 30
849.023
 70
    32
  0
VERTEX
  8
T44SSILL
 62
13
 10
496.598
 20
-7037.811
 30
849.055
 70
    32
  0
VERTEX
  8
T44SSILL
 62
13
 10
482.338
 20
-7046.253
 30
849.188
 70
    32
  0
VERTEX
  8
T44SSILL
 62
13
 10
480.315
 20
-7051.065
 30
849.241
 70
    32
  0
VERTEX
  8
T44SSILL
 62
13
 10
476.044
 20
-7050.912
 30
849.255
 70
    32
  0
VERTEX
  8
T44SSILL
 62
13
 10
470.270
 20
-7054.466
 30
849.310
 70
    32
  0
VERTEX
  8
T44SSILL
 62
13
 10
467.523
 20
-7070.778
 30
849.477
 70
    32
  0
VERTEX
  8
T44SSILL
 62
13
 10
469.649
 20
-7075.721
 30
849.517
 70
    32
  0
VERTEX
  8
T44SSILL
 62
13
 10
469.614
 20
-7079.697
 30
849.555
 70
    32
  0
VERTEX
  8
T44SSILL
 62
13
 10
475.546
 20
-7083.191
 30
849.567
 70
    32
  0
VERTEX
  8
T44SSILL
 62
13
 10
481.038
 20
-7081.861
 30
849.535
 70
    32
  0
VERTEX
  8
T44SSILL
 62
13
 10
485.547
 20
-7080.035
 30
849.501
 70
    32
  0
VERTEX
  8
T44SSILL
 62
13
 10
492.335
 20
-7075.783
 30
849.436
 70
    32
  0
VERTEX
  8
T44SSILL
 62
13
 10
507.372
 20
-7087.525
 30
849.495
 70
    32
  0
VERTEX
  8
T44SSILL
 62
13
 10
520.709
 20
-7115.393
 30
849.715
 70
    32
  0
VERTEX
  8
T44SSILL
 62
13
 10
524.069
 20
-7118.097
 30
849.729
 70
    32
  0
VERTEX
  8
T44SSILL
 62
13
 10
527.328
 20
-7120.656
 30
849.742
 70
    32
  0
VERTEX
  8
T44SSILL
 62
13
 10
516.931
 20
-7139.038
 30
849.956
 70
    32
  0
VERTEX
  8
T44SSILL
 62
13
 10
516.698
 20
-7141.335
 30
849.979
 70
    32
  0
VERTEX
  8
T44SSILL
 62
13
 10
526.158
 20
-7158.311
 30
850.108
 70
    32
  0
VERTEX
  8
T44SSILL
 62
13
 10
529.261
 20
-7169.629
 30
850.206
 70
    32
  0
VERTEX
  8
T44SSILL
 62
13
 10
532.561
 20
-7182.627
 30
850.319
 70
    32
  0
VERTEX
  8
T44SSILL
 62
13
 10
532.043
 20
-7188.538
 30
850.378
 70
    32
  0
VERTEX
  8
T44SSILL
 62
13
 10
538.258
 20
-7207.004
 30
850.533
 70
    32
  0
VERTEX
  8
T44SSILL
 62
13
 10
532.161
 20
-7213.343
 30
850.616
 70
    32
  0
VERTEX
  8
T44SSILL
 62
13
 10
533.900
 20
-7216.378
 30
850.639
 70
    32
  0
VERTEX
  8
T44SSILL
 62
13
 10
534.794
 20
-7217.937
 30
850.624
 70
    32
  0
VERTEX
  8
T44SSILL
 62
13
 10
539.411
 20
-7223.085
 30
850.567
 70
    32
  0
VERTEX
  8
T44SSILL
 62
13
 10
541.250
 20
-7226.837
 30
850.533
 70
    32
  0
VERTEX
  8
T44SSILL
 62
13
 10
542.290
 20
-7232.528
 30
850.488
 70
    32
  0
VERTEX
  8
T44SSILL
 62
13
 10
545.975
 20
-7238.959
 30
850.426
 70
    32
  0
VERTEX
  8
T44SSILL
 62
13
 10
538.929
 20
-7243.423
 30
850.425
 70
    32
  0
VERTEX
  8
T44SSILL
 62
13
 10
538.319
 20
-7243.810
 30
850.436
 70
    32
  0
VERTEX
  8
T44SSILL
 62
13
 10
530.263
 20
-7248.082
 30
850.575
 70
    32
  0
VERTEX
  8
T44SSILL
 62
13
 10
527.443
 20
-7242.443
 30
850.521
 70
    32
  0
VERTEX
  8
T44SSILL
 62
13
 10
526.284
 20
-7240.348
 30
850.501
 70
    32
  0
VERTEX
  8
T44SSILL
 62
13
 10
524.406
 20
-7236.953
 30
850.533
 70
    32
  0
VERTEX
  8
T44SSILL
 62
13
 10
517.073
 20
-7232.823
 30
850.595
 70
    32
  0
VERTEX
  8
T44SSILL
 62
13
 10
513.545
 20
-7225.536
 30
850.662
 70
    32
  0
VERTEX
  8
T44SSILL
 62
13
 10
511.608
 20
-7223.347
 30
850.686
 70
    32
  0
VERTEX
  8
T44SSILL
 62
13
 10
510.374
 20
-7217.683
 30
850.731
 70
    32
  0
VERTEX
  8
T44SSILL
 62
13
 10
505.968
 20
-7218.263
 30
850.746
 70
    32
  0
VERTEX
  8
T44SSILL
 62
13
 10
502.108
 20
-7221.031
 30
850.743
 70
    32
  0
SEQEND
  8
T44SSILL
  0
POLYLINE
  8
T44SSILL
 62
13
 66
     1
 70
     9
  0
VERTEX
  8
T44SSILL
 62
13
 10
487.721
 20
-7172.739
 30
850.385
 70
    32
  0
VERTEX
  8
T44SSILL
 62
13
 10
484.124
 20
-7172.015
 30
850.391
 70
    32
  0
VERTEX
  8
T44SSILL
 62
13
 10
475.393
 20
-7168.955
 30
850.393
 70
    32
  0
VERTEX
  8
T44SSILL
 62
13
 10
469.713
 20
-7164.434
 30
850.370
 70
    32
  0
VERTEX
  8
T44SSILL
 62
13
 10
468.010
 20
-7164.753
 30
850.379
 70
    32
  0
VERTEX
  8
T44SSILL
 62
13
 10
461.443
 20
-7164.367
 30
850.399
 70
    32
  0
VERTEX
  8
T44SSILL
 62
13
 10
454.993
 20
-7160.589
 30
850.386
 70
    32
  0
VERTEX
  8
T44SSILL
 62
13
 10
448.182
 20
-7153.963
 30
850.346
 70
    32
  0
VERTEX
  8
T44SSILL
 62
13
 10
442.085
 20
-7149.301
 30
850.323
 70
    32
  0
VERTEX
  8
T44SSILL
 62
13
 10
425.299
 20
-7130.220
 30
850.200
 70
    32
  0
VERTEX
  8
T44SSILL
 62
13
 10
417.627
 20
-7126.217
 30
850.189
 70
    32
  0
VERTEX
  8
T44SSILL
 62
13
 10
402.910
 20
-7120.982
 30
850.192
 70
    32
  0
VERTEX
  8
T44SSILL
 62
13
 10
391.334
 20
-7113.796
 30
850.164
 70
    32
  0
VERTEX
  8
T44SSILL
 62
13
 10
378.853
 20
-7111.185
 30
850.184
 70
    32
  0
VERTEX
  8
T44SSILL
 62
13
 10
375.038
 20
-7116.806
 30
850.251
 70
    32
  0
VERTEX
  8
T44SSILL
 62
13
 10
400.957
 20
-7152.234
 30
850.499
 70
    32
  0
VERTEX
  8
T44SSILL
 62
13
 10
413.317
 20
-7156.530
 30
850.496
 70
    32
  0
VERTEX
  8
T44SSILL
 62
13
 10
418.571
 20
-7160.278
 30
850.513
 70
    32
  0
VERTEX
  8
T44SSILL
 62
13
 10
425.229
 20
-7160.174
 30
850.488
 70
    32
  0
VERTEX
  8
T44SSILL
 62
13
 10
436.996
 20
-7157.723
 30
850.423
 70
    32
  0
VERTEX
  8
T44SSILL
 62
13
 10
440.110
 20
-7163.479
 30
850.467
 70
    32
  0
VERTEX
  8
T44SSILL
 62
13
 10
441.600
 20
-7166.725
 30
850.493
 70
    32
  0
VERTEX
  8
T44SSILL
 62
13
 10
441.054
 20
-7175.539
 30
850.579
 70
    32
  0
VERTEX
  8
T44SSILL
 62
13
 10
437.487
 20
-7176.716
 30
850.604
 70
    32
  0
VERTEX
  8
T44SSILL
 62
13
 10
435.870
 20
-7176.229
 30
850.605
 70
    32
  0
VERTEX
  8
T44SSILL
 62
13
 10
430.407
 20
-7179.461
 30
850.655
 70
    32
  0
VERTEX
  8
T44SSILL
 62
13
 10
428.343
 20
-7191.030
 30
850.774
 70
    32
  0
VERTEX
  8
T44SSILL
 62
13
 10
444.115
 20
-7213.909
 30
850.938
 70
    32
  0
VERTEX
  8
T44SSILL
 62
13
 10
448.383
 20
-7215.452
 30
850.937
 70
    32
  0
VERTEX
  8
T44SSILL
 62
13
 10
452.989
 20
-7219.893
 30
850.963
 70
    32
  0
VERTEX
  8
T44SSILL
 62
13
 10
453.163
 20
-7220.061
 30
850.961
 70
    32
  0
VERTEX
  8
T44SSILL
 62
13
 10
453.090
 20
-7222.549
 30
850.944
 70
    32
  0
VERTEX
  8
T44SSILL
 62
13
 10
453.019
 20
-7224.966
 30
850.980
 70
    32
  0
VERTEX
  8
T44SSILL
 62
13
 10
458.782
 20
-7233.169
 30
851.044
 70
    32
  0
VERTEX
  8
T44SSILL
 62
13
 10
468.028
 20
-7228.611
 30
850.889
 70
    32
  0
VERTEX
  8
T44SSILL
 62
13
 10
470.543
 20
-7226.793
 30
850.838
 70
    32
  0
VERTEX
  8
T44SSILL
 62
13
 10
481.823
 20
-7218.640
 30
850.848
 70
    32
  0
VERTEX
  8
T44SSILL
 62
13
 10
496.828
 20
-7207.795
 30
850.690
 70
    32
  0
VERTEX
  8
T44SSILL
 62
13
 10
493.653
 20
-7193.429
 30
850.563
 70
    32
  0
SEQEND
  8
T44SSILL
  0
POLYLINE
  8
T44SSILL
 62
13
 66
     1
 70
     9
  0
VERTEX
  8
T44SSILL
 62
13
 10
471.598
 20
-7119.450
 30
849.930
 70
    32
  0
VERTEX
  8
T44SSILL
 62
13
 10
464.464
 20
-7118.707
 30
849.949
 70
    32
  0
VERTEX
  8
T44SSILL
 62
13
 10
456.424
 20
-7117.735
 30
849.968
 70
    32
  0
VERTEX
  8
T44SSILL
 62
13
 10
443.636
 20
-7118.861
 30
850.025
 70
    32
  0
VERTEX
  8
T44SSILL
 62
13
 10
435.737
 20
-7122.276
 30
850.086
 70
    32
  0
VERTEX
  8
T44SSILL
 62
13
 10
437.084
 20
-7127.329
 30
850.130
 70
    32
  0
VERTEX
  8
T44SSILL
 62
13
 10
442.874
 20
-7135.727
 30
850.190
 70
    32
  0
VERTEX
  8
T44SSILL
 62
13
 10
452.939
 20
-7144.596
 30
850.239
 70
    32
  0
VERTEX
  8
T44SSILL
 62
13
 10
462.893
 20
-7150.978
 30
850.265
 70
    32
  0
VERTEX
  8
T44SSILL
 62
13
 10
468.986
 20
-7155.322
 30
850.285
 70
    32
  0
VERTEX
  8
T44SSILL
 62
13
 10
481.664
 20
-7156.515
 30
850.251
 70
    32
  0
VERTEX
  8
T44SSILL
 62
13
 10
479.817
 20
-7153.837
 30
850.232
 70
    32
  0
VERTEX
  8
T44SSILL
 62
13
 10
477.881
 20
-7148.549
 30
850.188
 70
    32
  0
VERTEX
  8
T44SSILL
 62
13
 10
475.344
 20
-7140.686
 30
850.121
 70
    32
  0
VERTEX
  8
T44SSILL
 62
13
 10
475.080
 20
-7133.177
 30
850.050
 70
    32
  0
SEQEND
  8
T44SSILL
  0
POLYLINE
  8
T44SSILL
 62
13
 66
     1
 70
     9
  0
VERTEX
  8
T44SSILL
 62
13
 10
430.864
 20
-7069.349
 30
849.595
 70
    32
  0
VERTEX
  8
T44SSILL
 62
13
 10
392.126
 20
-7095.734
 30
849.987
 70
    32
  0
VERTEX
  8
T44SSILL
 62
13
 10
389.290
 20
-7095.339
 30
849.994
 70
    32
  0
VERTEX
  8
T44SSILL
 62
13
 10
386.778
 20
-7089.060
 30
849.942
 70
    32
  0
VERTEX
  8
T44SSILL
 62
13
 10
393.513
 20
-7072.028
 30
849.754
 70
    32
  0
VERTEX
  8
T44SSILL
 62
13
 10
404.248
 20
-7054.908
 30
849.551
 70
    32
  0
VERTEX
  8
T44SSILL
 62
13
 10
407.878
 20
-7049.949
 30
849.490
 70
    32
  0
VERTEX
  8
T44SSILL
 62
13
 10
411.212
 20
-7043.165
 30
849.413
 70
    32
  0
VERTEX
  8
T44SSILL
 62
13
 10
421.240
 20
-7037.106
 30
849.319
 70
    32
  0
VERTEX
  8
T44SSILL
 62
13
 10
421.469
 20
-7039.297
 30
849.339
 70
    32
  0
VERTEX
  8
T44SSILL
 62
13
 10
420.212
 20
-7047.854
 30
849.426
 70
    32
  0
VERTEX
  8
T44SSILL
 62
13
 10
423.947
 20
-7060.553
 30
849.535
 70
    32
  0
VERTEX
  8
T44SSILL
 62
13
 10
430.178
 20
-7067.579
 30
849.580
 70
    32
  0
SEQEND
  8
T44SSILL
  0
POLYLINE
  8
T44SSILL
 62
13
 66
     1
 70
     9
  0
VERTEX
  8
T44SSILL
 62
13
 10
469.222
 20
-7106.242
 30
849.812
 70
    32
  0
VERTEX
  8
T44SSILL
 62
13
 10
445.807
 20
-7106.362
 30
849.897
 70
    32
  0
VERTEX
  8
T44SSILL
 62
13
 10
435.013
 20
-7111.775
 30
849.988
 70
    32
  0
VERTEX
  8
T44SSILL
 62
13
 10
413.565
 20
-7112.889
 30
850.075
 70
    32
  0
VERTEX
  8
T44SSILL
 62
13
 10
403.688
 20
-7109.872
 30
850.082
 70
    32
  0
VERTEX
  8
T44SSILL
 62
13
 10
399.861
 20
-7102.150
 30
850.021
 70
    32
  0
VERTEX
  8
T44SSILL
 62
13
 10
416.947
 20
-7090.371
 30
849.847
 70
    32
  0
VERTEX
  8
T44SSILL
 62
13
 10
423.155
 20
-7089.616
 30
849.817
 70
    32
  0
VERTEX
  8
T44SSILL
 62
13
 10
426.146
 20
-7084.350
 30
849.756
 70
    32
  0
VERTEX
  8
T44SSILL
 62
13
 10
440.057
 20
-7075.401
 30
849.620
 70
    32
  0
VERTEX
  8
T44SSILL
 62
13
 10
444.975
 20
-7099.887
 30
849.838
 70
    32
  0
VERTEX
  8
T44SSILL
 62
13
 10
450.476
 20
-7102.290
 30
849.841
 70
    32
  0
VERTEX
  8
T44SSILL
 62
13
 10
464.982
 20
-7098.698
 30
849.754
 70
    32
  0
VERTEX
  8
T44SSILL
 62
13
 10
468.756
 20
-7102.932
 30
849.782
 70
    32
  0
SEQEND
  8
T44SSILL
  0
ENDSEC
  0
EOF
