999
********************************
999
*   DXF File - Entities Only   *
999
*        3D Data Format        *
999
*     Output from ENVISAGE     *
999
*     20-Dec-2007 15:30:11     *
999
********************************
  0
SECTION 
  2
HEADER
  9
$ACADVER
  1
AC1009
  9
$EXTMIN
 10
-290000.000
 20
-250000.000
 30
-4000.000
  9
$EXTMAX
 10
5000000.000
 20
600000.000
 30
6000.000
  0
ENDSEC
  0
SECTION
  2
ENTITIES
  0
POLYLINE
  8
T45SSILL
 62
8
 66
     1
 70
     9
  0
VERTEX
  8
T45SSILL
 62
8
 10
4111.345
 20
-7522.332
 30
685.635
 70
    32
  0
VERTEX
  8
T45SSILL
 62
8
 10
4110.769
 20
-7521.475
 30
685.633
 70
    32
  0
SEQEND
  8
T45SSILL
  0
POLYLINE
  8
T45SSILL
 62
8
 66
     1
 70
     9
  0
VERTEX
  8
T45SSILL
 62
8
 10
4728.344
 20
-6480.776
 30
685.766
 70
    32
  0
VERTEX
  8
T45SSILL
 62
8
 10
4703.499
 20
-6445.400
 30
685.866
 70
    32
  0
VERTEX
  8
T45SSILL
 62
8
 10
4678.890
 20
-6463.561
 30
685.842
 70
    32
  0
VERTEX
  8
T45SSILL
 62
8
 10
4681.142
 20
-6469.296
 30
685.827
 70
    32
  0
VERTEX
  8
T45SSILL
 62
8
 10
4705.281
 20
-6470.736
 30
685.806
 70
    32
  0
VERTEX
  8
T45SSILL
 62
8
 10
4725.565
 20
-6479.649
 30
685.771
 70
    32
  0
SEQEND
  8
T45SSILL
  0
POLYLINE
  8
T45SSILL
 62
8
 66
     1
 70
     9
  0
VERTEX
  8
T45SSILL
 62
8
 10
5339.801
 20
-7207.674
 30
687.130
 70
    32
  0
VERTEX
  8
T45SSILL
 62
8
 10
5305.896
 20
-7231.807
 30
687.075
 70
    32
  0
VERTEX
  8
T45SSILL
 62
8
 10
5298.328
 20
-7234.915
 30
687.067
 70
    32
  0
VERTEX
  8
T45SSILL
 62
8
 10
5286.273
 20
-7236.157
 30
687.060
 70
    32
  0
VERTEX
  8
T45SSILL
 62
8
 10
5279.325
 20
-7234.560
 30
687.060
 70
    32
  0
VERTEX
  8
T45SSILL
 62
8
 10
5298.411
 20
-7260.967
 30
687.020
 70
    32
  0
VERTEX
  8
T45SSILL
 62
8
 10
5304.409
 20
-7263.129
 30
687.019
 70
    32
  0
VERTEX
  8
T45SSILL
 62
8
 10
5316.457
 20
-7278.404
 30
686.996
 70
    32
  0
VERTEX
  8
T45SSILL
 62
8
 10
5357.940
 20
-7251.428
 30
687.059
 70
    32
  0
VERTEX
  8
T45SSILL
 62
8
 10
5351.036
 20
-7231.988
 30
687.091
 70
    32
  0
VERTEX
  8
T45SSILL
 62
8
 10
5343.205
 20
-7216.115
 30
687.116
 70
    32
  0
SEQEND
  8
T45SSILL
  0
POLYLINE
  8
T45SSILL
 62
8
 66
     1
 70
     9
  0
VERTEX
  8
T45SSILL
 62
8
 10
5348.776
 20
-7066.288
 30
687.311
 70
    32
  0
VERTEX
  8
T45SSILL
 62
8
 10
5322.530
 20
-7046.859
 30
687.241
 70
    32
  0
VERTEX
  8
T45SSILL
 62
8
 10
5306.928
 20
-7045.318
 30
687.211
 70
    32
  0
VERTEX
  8
T45SSILL
 62
8
 10
5298.274
 20
-7050.144
 30
687.202
 70
    32
  0
VERTEX
  8
T45SSILL
 62
8
 10
5213.737
 20
-7111.750
 30
687.123
 70
    32
  0
VERTEX
  8
T45SSILL
 62
8
 10
5201.716
 20
-7113.874
 30
687.104
 70
    32
  0
VERTEX
  8
T45SSILL
 62
8
 10
5197.956
 20
-7117.281
 30
687.102
 70
    32
  0
VERTEX
  8
T45SSILL
 62
8
 10
5199.302
 20
-7125.004
 30
687.113
 70
    32
  0
VERTEX
  8
T45SSILL
 62
8
 10
5223.266
 20
-7156.706
 30
687.149
 70
    32
  0
VERTEX
  8
T45SSILL
 62
8
 10
5288.576
 20
-7109.656
 30
687.255
 70
    32
  0
SEQEND
  8
T45SSILL
  0
POLYLINE
  8
T45SSILL
 62
8
 66
     1
 70
     9
  0
VERTEX
  8
T45SSILL
 62
8
 10
4152.234
 20
-7612.907
 30
685.645
 70
    32
  0
VERTEX
  8
T45SSILL
 62
8
 10
4092.147
 20
-7528.679
 30
685.644
 70
    32
  0
VERTEX
  8
T45SSILL
 62
8
 10
4084.814
 20
-7533.744
 30
685.715
 70
    32
  0
VERTEX
  8
T45SSILL
 62
8
 10
4080.657
 20
-7527.496
 30
685.707
 70
    32
  0
VERTEX
  8
T45SSILL
 62
8
 10
4087.672
 20
-7522.446
 30
685.640
 70
    32
  0
VERTEX
  8
T45SSILL
 62
8
 10
4076.541
 20
-7507.313
 30
685.650
 70
    32
  0
VERTEX
  8
T45SSILL
 62
8
 10
4075.931
 20
-7525.388
 30
685.725
 70
    32
  0
VERTEX
  8
T45SSILL
 62
8
 10
4071.444
 20
-7537.447
 30
685.815
 70
    32
  0
VERTEX
  8
T45SSILL
 62
8
 10
4067.399
 20
-7543.706
 30
685.872
 70
    32
  0
VERTEX
  8
T45SSILL
 62
8
 10
4061.703
 20
-7566.179
 30
685.851
 70
    32
  0
VERTEX
  8
T45SSILL
 62
8
 10
4064.739
 20
-7581.025
 30
685.762
 70
    32
  0
VERTEX
  8
T45SSILL
 62
8
 10
4070.433
 20
-7590.851
 30
685.766
 70
    32
  0
VERTEX
  8
T45SSILL
 62
8
 10
4083.119
 20
-7596.191
 30
685.750
 70
    32
  0
VERTEX
  8
T45SSILL
 62
8
 10
4151.415
 20
-7613.728
 30
685.648
 70
    32
  0
SEQEND
  8
T45SSILL
  0
POLYLINE
  8
T45SSILL
 62
8
 66
     1
 70
     9
  0
VERTEX
  8
T45SSILL
 62
8
 10
3626.060
 20
-6878.600
 30
685.937
 70
    32
  0
VERTEX
  8
T45SSILL
 62
8
 10
3601.871
 20
-7014.958
 30
686.232
 70
    32
  0
VERTEX
  8
T45SSILL
 62
8
 10
3619.326
 20
-7100.763
 30
686.399
 70
    32
  0
VERTEX
  8
T45SSILL
 62
8
 10
3624.352
 20
-7100.898
 30
686.349
 70
    32
  0
VERTEX
  8
T45SSILL
 62
8
 10
3627.037
 20
-7094.873
 30
686.297
 70
    32
  0
VERTEX
  8
T45SSILL
 62
8
 10
3637.117
 20
-7084.612
 30
686.154
 70
    32
  0
VERTEX
  8
T45SSILL
 62
8
 10
3691.841
 20
-7046.334
 30
685.973
 70
    32
  0
VERTEX
  8
T45SSILL
 62
8
 10
3684.695
 20
-7029.474
 30
685.969
 70
    32
  0
VERTEX
  8
T45SSILL
 62
8
 10
3680.764
 20
-6995.251
 30
685.960
 70
    32
  0
VERTEX
  8
T45SSILL
 62
8
 10
3682.874
 20
-6992.167
 30
685.959
 70
    32
  0
VERTEX
  8
T45SSILL
 62
8
 10
3696.142
 20
-7003.210
 30
685.960
 70
    32
  0
VERTEX
  8
T45SSILL
 62
8
 10
3720.533
 20
-7020.742
 30
685.960
 70
    32
  0
VERTEX
  8
T45SSILL
 62
8
 10
3724.314
 20
-7022.012
 30
685.960
 70
    32
  0
VERTEX
  8
T45SSILL
 62
8
 10
3728.697
 20
-7030.503
 30
685.962
 70
    32
  0
VERTEX
  8
T45SSILL
 62
8
 10
3736.898
 20
-7032.573
 30
685.961
 70
    32
  0
SEQEND
  8
T45SSILL
  0
POLYLINE
  8
T45SSILL
 62
8
 66
     1
 70
     9
  0
VERTEX
  8
T45SSILL
 62
8
 10
3728.224
 20
-7037.748
 30
685.964
 70
    32
  0
VERTEX
  8
T45SSILL
 62
8
 10
3737.586
 20
-7040.059
 30
685.961
 70
    32
  0
VERTEX
  8
T45SSILL
 62
8
 10
3748.043
 20
-7048.024
 30
685.954
 70
    32
  0
VERTEX
  8
T45SSILL
 62
8
 10
3765.498
 20
-7073.394
 30
685.937
 70
    32
  0
VERTEX
  8
T45SSILL
 62
8
 10
3763.779
 20
-7074.331
 30
685.938
 70
    32
  0
VERTEX
  8
T45SSILL
 62
8
 10
3749.792
 20
-7064.692
 30
685.948
 70
    32
  0
VERTEX
  8
T45SSILL
 62
8
 10
3735.994
 20
-7057.542
 30
685.957
 70
    32
  0
VERTEX
  8
T45SSILL
 62
8
 10
3726.947
 20
-7040.330
 30
685.965
 70
    32
  0
SEQEND
  8
T45SSILL
  0
POLYLINE
  8
T45SSILL
 62
8
 66
     1
 70
     9
  0
VERTEX
  8
T45SSILL
 62
8
 10
3769.070
 20
-7078.102
 30
685.934
 70
    32
  0
VERTEX
  8
T45SSILL
 62
8
 10
3762.791
 20
-7083.706
 30
685.936
 70
    32
  0
VERTEX
  8
T45SSILL
 62
8
 10
3764.823
 20
-7088.999
 30
685.933
 70
    32
  0
VERTEX
  8
T45SSILL
 62
8
 10
3759.907
 20
-7099.731
 30
685.932
 70
    32
  0
VERTEX
  8
T45SSILL
 62
8
 10
3756.535
 20
-7101.993
 30
685.933
 70
    32
  0
VERTEX
  8
T45SSILL
 62
8
 10
3750.058
 20
-7102.267
 30
685.936
 70
    32
  0
VERTEX
  8
T45SSILL
 62
8
 10
3743.536
 20
-7107.392
 30
685.937
 70
    32
  0
VERTEX
  8
T45SSILL
 62
8
 10
3756.202
 20
-7114.937
 30
685.929
 70
    32
  0
VERTEX
  8
T45SSILL
 62
8
 10
3792.121
 20
-7089.942
 30
685.919
 70
    32
  0
VERTEX
  8
T45SSILL
 62
8
 10
3785.847
 20
-7089.301
 30
685.923
 70
    32
  0
VERTEX
  8
T45SSILL
 62
8
 10
3769.533
 20
-7079.623
 30
685.934
 70
    32
  0
SEQEND
  8
T45SSILL
  0
POLYLINE
  8
T45SSILL
 62
8
 66
     1
 70
     9
  0
VERTEX
  8
T45SSILL
 62
8
 10
3692.895
 20
-7054.317
 30
685.975
 70
    32
  0
VERTEX
  8
T45SSILL
 62
8
 10
3638.071
 20
-7095.734
 30
686.189
 70
    32
  0
VERTEX
  8
T45SSILL
 62
8
 10
3631.460
 20
-7104.757
 30
686.292
 70
    32
  0
VERTEX
  8
T45SSILL
 62
8
 10
3625.986
 20
-7116.666
 30
686.402
 70
    32
  0
VERTEX
  8
T45SSILL
 62
8
 10
3625.100
 20
-7130.346
 30
686.458
 70
    32
  0
VERTEX
  8
T45SSILL
 62
8
 10
3635.103
 20
-7173.569
 30
686.474
 70
    32
  0
VERTEX
  8
T45SSILL
 62
8
 10
3635.660
 20
-7181.917
 30
686.482
 70
    32
  0
VERTEX
  8
T45SSILL
 62
8
 10
3636.002
 20
-7188.783
 30
686.488
 70
    32
  0
VERTEX
  8
T45SSILL
 62
8
 10
3632.002
 20
-7207.161
 30
686.520
 70
    32
  0
VERTEX
  8
T45SSILL
 62
8
 10
3711.893
 20
-7148.621
 30
685.976
 70
    32
  0
VERTEX
  8
T45SSILL
 62
8
 10
3713.564
 20
-7139.728
 30
685.941
 70
    32
  0
VERTEX
  8
T45SSILL
 62
8
 10
3725.466
 20
-7123.311
 30
685.941
 70
    32
  0
VERTEX
  8
T45SSILL
 62
8
 10
3721.891
 20
-7113.240
 30
685.946
 70
    32
  0
VERTEX
  8
T45SSILL
 62
8
 10
3731.384
 20
-7107.243
 30
685.943
 70
    32
  0
VERTEX
  8
T45SSILL
 62
8
 10
3729.886
 20
-7107.141
 30
685.944
 70
    32
  0
VERTEX
  8
T45SSILL
 62
8
 10
3717.115
 20
-7092.010
 30
685.955
 70
    32
  0
VERTEX
  8
T45SSILL
 62
8
 10
3714.200
 20
-7079.265
 30
685.960
 70
    32
  0
VERTEX
  8
T45SSILL
 62
8
 10
3702.879
 20
-7063.724
 30
685.971
 70
    32
  0
VERTEX
  8
T45SSILL
 62
8
 10
3696.701
 20
-7057.903
 30
685.975
 70
    32
  0
SEQEND
  8
T45SSILL
  0
POLYLINE
  8
T45SSILL
 62
8
 66
     1
 70
     9
  0
VERTEX
  8
T45SSILL
 62
8
 10
3877.115
 20
-7028.962
 30
685.898
 70
    32
  0
VERTEX
  8
T45SSILL
 62
8
 10
3847.307
 20
-7022.968
 30
685.914
 70
    32
  0
VERTEX
  8
T45SSILL
 62
8
 10
3847.271
 20
-7051.350
 30
685.905
 70
    32
  0
SEQEND
  8
T45SSILL
  0
POLYLINE
  8
T45SSILL
 62
8
 66
     1
 70
     9
  0
VERTEX
  8
T45SSILL
 62
8
 10
3731.846
 20
-6801.233
 30
685.895
 70
    32
  0
VERTEX
  8
T45SSILL
 62
8
 10
3724.256
 20
-6805.501
 30
685.898
 70
    32
  0
VERTEX
  8
T45SSILL
 62
8
 10
3723.635
 20
-6815.374
 30
685.901
 70
    32
  0
VERTEX
  8
T45SSILL
 62
8
 10
3724.891
 20
-6818.719
 30
685.901
 70
    32
  0
VERTEX
  8
T45SSILL
 62
8
 10
3766.782
 20
-6883.267
 30
685.913
 70
    32
  0
VERTEX
  8
T45SSILL
 62
8
 10
3775.194
 20
-6870.292
 30
685.907
 70
    32
  0
VERTEX
  8
T45SSILL
 62
8
 10
3757.470
 20
-6835.923
 30
685.901
 70
    32
  0
VERTEX
  8
T45SSILL
 62
8
 10
3744.896
 20
-6822.399
 30
685.899
 70
    32
  0
VERTEX
  8
T45SSILL
 62
8
 10
3733.999
 20
-6804.904
 30
685.896
 70
    32
  0
SEQEND
  8
T45SSILL
  0
POLYLINE
  8
T45SSILL
 62
8
 66
     1
 70
     9
  0
VERTEX
  8
T45SSILL
 62
8
 10
3987.700
 20
-6959.014
 30
685.867
 70
    32
  0
VERTEX
  8
T45SSILL
 62
8
 10
3965.613
 20
-6974.383
 30
685.873
 70
    32
  0
VERTEX
  8
T45SSILL
 62
8
 10
3974.010
 20
-6974.338
 30
685.869
 70
    32
  0
VERTEX
  8
T45SSILL
 62
8
 10
3990.961
 20
-6978.183
 30
685.859
 70
    32
  0
VERTEX
  8
T45SSILL
 62
8
 10
3988.087
 20
-6974.276
 30
685.862
 70
    32
  0
VERTEX
  8
T45SSILL
 62
8
 10
3987.111
 20
-6961.636
 30
685.867
 70
    32
  0
SEQEND
  8
T45SSILL
  0
POLYLINE
  8
T45SSILL
 62
8
 66
     1
 70
     9
  0
VERTEX
  8
T45SSILL
 62
8
 10
3942.450
 20
-7227.350
 30
685.804
 70
    32
  0
VERTEX
  8
T45SSILL
 62
8
 10
3932.054
 20
-7235.544
 30
685.806
 70
    32
  0
VERTEX
  8
T45SSILL
 62
8
 10
3915.193
 20
-7244.771
 30
685.811
 70
    32
  0
VERTEX
  8
T45SSILL
 62
8
 10
3897.245
 20
-7243.739
 30
685.820
 70
    32
  0
VERTEX
  8
T45SSILL
 62
8
 10
3999.824
 20
-7384.846
 30
685.726
 70
    32
  0
VERTEX
  8
T45SSILL
 62
8
 10
4005.426
 20
-7389.484
 30
685.722
 70
    32
  0
VERTEX
  8
T45SSILL
 62
8
 10
4017.344
 20
-7391.995
 30
685.715
 70
    32
  0
VERTEX
  8
T45SSILL
 62
8
 10
4028.830
 20
-7389.897
 30
685.710
 70
    32
  0
VERTEX
  8
T45SSILL
 62
8
 10
4036.346
 20
-7384.041
 30
685.709
 70
    32
  0
VERTEX
  8
T45SSILL
 62
8
 10
3980.262
 20
-7277.272
 30
685.770
 70
    32
  0
VERTEX
  8
T45SSILL
 62
8
 10
3975.344
 20
-7276.838
 30
685.772
 70
    32
  0
VERTEX
  8
T45SSILL
 62
8
 10
3973.298
 20
-7274.949
 30
685.774
 70
    32
  0
VERTEX
  8
T45SSILL
 62
8
 10
3956.553
 20
-7245.334
 30
685.791
 70
    32
  0
VERTEX
  8
T45SSILL
 62
8
 10
3946.486
 20
-7231.498
 30
685.800
 70
    32
  0
SEQEND
  8
T45SSILL
  0
POLYLINE
  8
T45SSILL
 62
8
 66
     1
 70
     9
  0
VERTEX
  8
T45SSILL
 62
8
 10
4096.865
 20
-7410.802
 30
685.671
 70
    32
  0
VERTEX
  8
T45SSILL
 62
8
 10
4045.295
 20
-7449.497
 30
685.684
 70
    32
  0
VERTEX
  8
T45SSILL
 62
8
 10
4067.570
 20
-7480.081
 30
685.663
 70
    32
  0
VERTEX
  8
T45SSILL
 62
8
 10
4080.445
 20
-7470.941
 30
685.660
 70
    32
  0
VERTEX
  8
T45SSILL
 62
8
 10
4085.789
 20
-7478.505
 30
685.655
 70
    32
  0
VERTEX
  8
T45SSILL
 62
8
 10
4071.801
 20
-7487.918
 30
685.659
 70
    32
  0
VERTEX
  8
T45SSILL
 62
8
 10
4082.467
 20
-7499.889
 30
685.650
 70
    32
  0
VERTEX
  8
T45SSILL
 62
8
 10
4099.979
 20
-7511.642
 30
685.638
 70
    32
  0
VERTEX
  8
T45SSILL
 62
8
 10
4103.960
 20
-7510.356
 30
685.636
 70
    32
  0
VERTEX
  8
T45SSILL
 62
8
 10
4109.771
 20
-7515.279
 30
685.632
 70
    32
  0
VERTEX
  8
T45SSILL
 62
8
 10
4131.840
 20
-7500.033
 30
685.645
 70
    32
  0
VERTEX
  8
T45SSILL
 62
8
 10
4133.157
 20
-7493.042
 30
685.639
 70
    32
  0
VERTEX
  8
T45SSILL
 62
8
 10
4120.861
 20
-7478.110
 30
685.638
 70
    32
  0
VERTEX
  8
T45SSILL
 62
8
 10
4108.229
 20
-7470.760
 30
685.647
 70
    32
  0
VERTEX
  8
T45SSILL
 62
8
 10
4102.683
 20
-7445.059
 30
685.657
 70
    32
  0
VERTEX
  8
T45SSILL
 62
8
 10
4097.324
 20
-7437.177
 30
685.663
 70
    32
  0
VERTEX
  8
T45SSILL
 62
8
 10
4095.914
 20
-7429.456
 30
685.666
 70
    32
  0
VERTEX
  8
T45SSILL
 62
8
 10
4099.909
 20
-7421.043
 30
685.666
 70
    32
  0
VERTEX
  8
T45SSILL
 62
8
 10
4099.988
 20
-7416.387
 30
685.668
 70
    32
  0
SEQEND
  8
T45SSILL
  0
POLYLINE
  8
T45SSILL
 62
8
 66
     1
 70
     9
  0
VERTEX
  8
T45SSILL
 62
8
 10
4109.335
 20
-7526.000
 30
685.636
 70
    32
  0
VERTEX
  8
T45SSILL
 62
8
 10
4116.539
 20
-7540.409
 30
685.645
 70
    32
  0
VERTEX
  8
T45SSILL
 62
8
 10
4113.839
 20
-7542.394
 30
685.640
 70
    32
  0
VERTEX
  8
T45SSILL
 62
8
 10
4123.051
 20
-7545.691
 30
685.648
 70
    32
  0
VERTEX
  8
T45SSILL
 62
8
 10
4144.884
 20
-7527.444
 30
685.685
 70
    32
  0
VERTEX
  8
T45SSILL
 62
8
 10
4152.471
 20
-7534.782
 30
685.689
 70
    32
  0
VERTEX
  8
T45SSILL
 62
8
 10
4260.537
 20
-7456.943
 30
685.825
 70
    32
  0
VERTEX
  8
T45SSILL
 62
8
 10
4257.163
 20
-7451.760
 30
685.812
 70
    32
  0
VERTEX
  8
T45SSILL
 62
8
 10
4276.831
 20
-7438.609
 30
685.832
 70
    32
  0
VERTEX
  8
T45SSILL
 62
8
 10
4281.086
 20
-7443.799
 30
685.846
 70
    32
  0
VERTEX
  8
T45SSILL
 62
8
 10
4285.498
 20
-7445.481
 30
685.856
 70
    32
  0
VERTEX
  8
T45SSILL
 62
8
 10
4297.774
 20
-7445.649
 30
685.878
 70
    32
  0
VERTEX
  8
T45SSILL
 62
8
 10
4311.062
 20
-7450.765
 30
685.908
 70
    32
  0
VERTEX
  8
T45SSILL
 62
8
 10
4291.150
 20
-7418.333
 30
685.834
 70
    32
  0
VERTEX
  8
T45SSILL
 62
8
 10
4286.811
 20
-7414.518
 30
685.821
 70
    32
  0
VERTEX
  8
T45SSILL
 62
8
 10
4277.128
 20
-7410.582
 30
685.799
 70
    32
  0
VERTEX
  8
T45SSILL
 62
8
 10
4270.660
 20
-7409.974
 30
685.787
 70
    32
  0
VERTEX
  8
T45SSILL
 62
8
 10
4261.498
 20
-7412.552
 30
685.774
 70
    32
  0
VERTEX
  8
T45SSILL
 62
8
 10
4216.373
 20
-7444.976
 30
685.731
 70
    32
  0
VERTEX
  8
T45SSILL
 62
8
 10
4212.319
 20
-7452.117
 30
685.732
 70
    32
  0
VERTEX
  8
T45SSILL
 62
8
 10
4173.703
 20
-7480.738
 30
685.697
 70
    32
  0
VERTEX
  8
T45SSILL
 62
8
 10
4157.689
 20
-7489.779
 30
685.679
 70
    32
  0
VERTEX
  8
T45SSILL
 62
8
 10
4156.628
 20
-7493.844
 30
685.682
 70
    32
  0
VERTEX
  8
T45SSILL
 62
8
 10
4152.936
 20
-7498.202
 30
685.681
 70
    32
  0
VERTEX
  8
T45SSILL
 62
8
 10
4152.684
 20
-7504.409
 30
685.688
 70
    32
  0
VERTEX
  8
T45SSILL
 62
8
 10
4147.439
 20
-7510.675
 30
685.686
 70
    32
  0
VERTEX
  8
T45SSILL
 62
8
 10
4142.321
 20
-7505.352
 30
685.670
 70
    32
  0
VERTEX
  8
T45SSILL
 62
8
 10
4130.250
 20
-7509.632
 30
685.654
 70
    32
  0
SEQEND
  8
T45SSILL
  0
POLYLINE
  8
T45SSILL
 62
8
 66
     1
 70
     9
  0
VERTEX
  8
T45SSILL
 62
8
 10
2739.944
 20
-5643.993
 30
689.049
 70
    32
  0
VERTEX
  8
T45SSILL
 62
8
 10
2737.408
 20
-5646.348
 30
689.090
 70
    32
  0
VERTEX
  8
T45SSILL
 62
8
 10
2734.118
 20
-5675.326
 30
689.323
 70
    32
  0
VERTEX
  8
T45SSILL
 62
8
 10
2728.791
 20
-5690.718
 30
689.481
 70
    32
  0
VERTEX
  8
T45SSILL
 62
8
 10
2724.519
 20
-5696.697
 30
689.564
 70
    32
  0
VERTEX
  8
T45SSILL
 62
8
 10
2722.164
 20
-5705.958
 30
689.651
 70
    32
  0
VERTEX
  8
T45SSILL
 62
8
 10
2723.465
 20
-5707.625
 30
689.650
 70
    32
  0
VERTEX
  8
T45SSILL
 62
8
 10
2735.342
 20
-5706.376
 30
689.527
 70
    32
  0
VERTEX
  8
T45SSILL
 62
8
 10
2754.639
 20
-5707.178
 30
689.332
 70
    32
  0
VERTEX
  8
T45SSILL
 62
8
 10
2773.816
 20
-5711.745
 30
689.139
 70
    32
  0
VERTEX
  8
T45SSILL
 62
8
 10
2788.534
 20
-5718.097
 30
689.000
 70
    32
  0
VERTEX
  8
T45SSILL
 62
8
 10
2789.819
 20
-5713.389
 30
688.972
 70
    32
  0
VERTEX
  8
T45SSILL
 62
8
 10
2777.548
 20
-5696.316
 30
689.051
 70
    32
  0
SEQEND
  8
T45SSILL
  0
POLYLINE
  8
T45SSILL
 62
8
 66
     1
 70
     9
  0
VERTEX
  8
T45SSILL
 62
8
 10
4230.547
 20
-7707.404
 30
685.655
 70
    32
  0
VERTEX
  8
T45SSILL
 62
8
 10
4325.044
 20
-7841.483
 30
685.669
 70
    32
  0
VERTEX
  8
T45SSILL
 62
8
 10
4345.728
 20
-7852.610
 30
685.682
 70
    32
  0
VERTEX
  8
T45SSILL
 62
8
 10
4353.714
 20
-7855.025
 30
685.687
 70
    32
  0
VERTEX
  8
T45SSILL
 62
8
 10
4361.105
 20
-7852.807
 30
685.692
 70
    32
  0
VERTEX
  8
T45SSILL
 62
8
 10
4378.816
 20
-7839.892
 30
685.705
 70
    32
  0
VERTEX
  8
T45SSILL
 62
8
 10
4375.311
 20
-7830.042
 30
685.704
 70
    32
  0
VERTEX
  8
T45SSILL
 62
8
 10
4370.405
 20
-7824.662
 30
685.701
 70
    32
  0
VERTEX
  8
T45SSILL
 62
8
 10
4368.046
 20
-7817.377
 30
685.700
 70
    32
  0
VERTEX
  8
T45SSILL
 62
8
 10
4371.256
 20
-7809.127
 30
685.711
 70
    32
  0
VERTEX
  8
T45SSILL
 62
8
 10
4370.731
 20
-7805.326
 30
685.717
 70
    32
  0
VERTEX
  8
T45SSILL
 62
8
 10
4367.536
 20
-7801.645
 30
685.722
 70
    32
  0
VERTEX
  8
T45SSILL
 62
8
 10
4372.385
 20
-7797.356
 30
685.732
 70
    32
  0
VERTEX
  8
T45SSILL
 62
8
 10
4367.654
 20
-7779.374
 30
685.757
 70
    32
  0
VERTEX
  8
T45SSILL
 62
8
 10
4357.370
 20
-7764.000
 30
685.757
 70
    32
  0
VERTEX
  8
T45SSILL
 62
8
 10
4348.050
 20
-7754.637
 30
685.753
 70
    32
  0
VERTEX
  8
T45SSILL
 62
8
 10
4348.136
 20
-7743.095
 30
685.761
 70
    32
  0
VERTEX
  8
T45SSILL
 62
8
 10
4341.845
 20
-7728.487
 30
685.764
 70
    32
  0
VERTEX
  8
T45SSILL
 62
8
 10
4345.087
 20
-7723.082
 30
685.772
 70
    32
  0
VERTEX
  8
T45SSILL
 62
8
 10
4337.941
 20
-7699.953
 30
685.780
 70
    32
  0
VERTEX
  8
T45SSILL
 62
8
 10
4342.346
 20
-7696.989
 30
685.787
 70
    32
  0
VERTEX
  8
T45SSILL
 62
8
 10
4338.964
 20
-7688.483
 30
685.789
 70
    32
  0
VERTEX
  8
T45SSILL
 62
8
 10
4367.317
 20
-7687.584
 30
685.821
 70
    32
  0
VERTEX
  8
T45SSILL
 62
8
 10
4364.612
 20
-7700.642
 30
685.809
 70
    32
  0
VERTEX
  8
T45SSILL
 62
8
 10
4359.805
 20
-7713.398
 30
685.795
 70
    32
  0
VERTEX
  8
T45SSILL
 62
8
 10
4362.061
 20
-7731.907
 30
685.784
 70
    32
  0
VERTEX
  8
T45SSILL
 62
8
 10
4364.950
 20
-7739.459
 30
685.782
 70
    32
  0
VERTEX
  8
T45SSILL
 62
8
 10
4368.145
 20
-7742.256
 30
685.784
 70
    32
  0
VERTEX
  8
T45SSILL
 62
8
 10
4372.684
 20
-7758.947
 30
685.777
 70
    32
  0
VERTEX
  8
T45SSILL
 62
8
 10
4379.445
 20
-7765.479
 30
685.780
 70
    32
  0
VERTEX
  8
T45SSILL
 62
8
 10
4377.848
 20
-7769.984
 30
685.775
 70
    32
  0
VERTEX
  8
T45SSILL
 62
8
 10
4386.355
 20
-7792.867
 30
685.745
 70
    32
  0
VERTEX
  8
T45SSILL
 62
8
 10
4395.494
 20
-7792.102
 30
685.750
 70
    32
  0
VERTEX
  8
T45SSILL
 62
8
 10
4408.171
 20
-7803.148
 30
685.734
 70
    32
  0
VERTEX
  8
T45SSILL
 62
8
 10
4418.194
 20
-7815.959
 30
685.734
 70
    32
  0
VERTEX
  8
T45SSILL
 62
8
 10
4419.797
 20
-7820.168
 30
685.735
 70
    32
  0
VERTEX
  8
T45SSILL
 62
8
 10
4419.594
 20
-7826.389
 30
685.734
 70
    32
  0
VERTEX
  8
T45SSILL
 62
8
 10
4410.249
 20
-7835.144
 30
685.727
 70
    32
  0
VERTEX
  8
T45SSILL
 62
8
 10
4401.089
 20
-7838.685
 30
685.721
 70
    32
  0
VERTEX
  8
T45SSILL
 62
8
 10
4397.912
 20
-7848.013
 30
685.717
 70
    32
  0
VERTEX
  8
T45SSILL
 62
8
 10
4394.957
 20
-7850.555
 30
685.715
 70
    32
  0
VERTEX
  8
T45SSILL
 62
8
 10
4379.423
 20
-7848.819
 30
685.705
 70
    32
  0
VERTEX
  8
T45SSILL
 62
8
 10
4366.755
 20
-7857.853
 30
685.695
 70
    32
  0
VERTEX
  8
T45SSILL
 62
8
 10
4355.136
 20
-7862.680
 30
685.687
 70
    32
  0
VERTEX
  8
T45SSILL
 62
8
 10
4339.317
 20
-7861.599
 30
685.678
 70
    32
  0
VERTEX
  8
T45SSILL
 62
8
 10
4358.160
 20
-7887.678
 30
685.690
 70
    32
  0
VERTEX
  8
T45SSILL
 62
8
 10
4362.547
 20
-7885.721
 30
685.692
 70
    32
  0
VERTEX
  8
T45SSILL
 62
8
 10
4368.272
 20
-7886.737
 30
685.695
 70
    32
  0
VERTEX
  8
T45SSILL
 62
8
 10
4376.477
 20
-7897.706
 30
685.700
 70
    32
  0
VERTEX
  8
T45SSILL
 62
8
 10
4384.078
 20
-7897.098
 30
685.703
 70
    32
  0
VERTEX
  8
T45SSILL
 62
8
 10
4386.967
 20
-7904.649
 30
685.705
 70
    32
  0
VERTEX
  8
T45SSILL
 62
8
 10
4383.658
 20
-7907.013
 30
685.704
 70
    32
  0
VERTEX
  8
T45SSILL
 62
8
 10
4385.241
 20
-7913.555
 30
685.705
 70
    32
  0
VERTEX
  8
T45SSILL
 62
8
 10
4382.525
 20
-7921.877
 30
685.704
 70
    32
  0
VERTEX
  8
T45SSILL
 62
8
 10
4470.442
 20
-8042.966
 30
685.758
 70
    32
  0
VERTEX
  8
T45SSILL
 62
8
 10
4476.182
 20
-8046.950
 30
685.761
 70
    32
  0
VERTEX
  8
T45SSILL
 62
8
 10
4480.582
 20
-8047.964
 30
685.763
 70
    32
  0
VERTEX
  8
T45SSILL
 62
8
 10
4492.317
 20
-8048.898
 30
685.769
 70
    32
  0
VERTEX
  8
T45SSILL
 62
8
 10
4499.373
 20
-8046.380
 30
685.773
 70
    32
  0
VERTEX
  8
T45SSILL
 62
8
 10
4623.469
 20
-7956.876
 30
685.858
 70
    32
  0
VERTEX
  8
T45SSILL
 62
8
 10
4621.872
 20
-7934.231
 30
685.859
 70
    32
  0
VERTEX
  8
T45SSILL
 62
8
 10
4612.945
 20
-7922.147
 30
685.855
 70
    32
  0
VERTEX
  8
T45SSILL
 62
8
 10
4562.963
 20
-7958.316
 30
685.817
 70
    32
  0
VERTEX
  8
T45SSILL
 62
8
 10
4558.959
 20
-7951.930
 30
685.815
 70
    32
  0
VERTEX
  8
T45SSILL
 62
8
 10
4602.163
 20
-7921.603
 30
685.848
 70
    32
  0
VERTEX
  8
T45SSILL
 62
8
 10
4603.976
 20
-7913.845
 30
685.850
 70
    32
  0
VERTEX
  8
T45SSILL
 62
8
 10
4603.364
 20
-7908.895
 30
685.850
 70
    32
  0
VERTEX
  8
T45SSILL
 62
8
 10
4559.215
 20
-7852.080
 30
685.826
 70
    32
  0
VERTEX
  8
T45SSILL
 62
8
 10
4552.835
 20
-7851.665
 30
685.821
 70
    32
  0
VERTEX
  8
T45SSILL
 62
8
 10
4505.371
 20
-7814.766
 30
685.793
 70
    32
  0
VERTEX
  8
T45SSILL
 62
8
 10
4492.477
 20
-7795.165
 30
685.787
 70
    32
  0
VERTEX
  8
T45SSILL
 62
8
 10
4484.272
 20
-7770.620
 30
685.820
 70
    32
  0
VERTEX
  8
T45SSILL
 62
8
 10
4484.581
 20
-7764.540
 30
685.831
 70
    32
  0
VERTEX
  8
T45SSILL
 62
8
 10
4487.802
 20
-7761.027
 30
685.838
 70
    32
  0
VERTEX
  8
T45SSILL
 62
8
 10
4487.124
 20
-7752.595
 30
685.853
 70
    32
  0
VERTEX
  8
T45SSILL
 62
8
 10
4413.272
 20
-7648.688
 30
685.900
 70
    32
  0
VERTEX
  8
T45SSILL
 62
8
 10
4398.748
 20
-7657.453
 30
685.878
 70
    32
  0
VERTEX
  8
T45SSILL
 62
8
 10
4394.543
 20
-7656.405
 30
685.874
 70
    32
  0
VERTEX
  8
T45SSILL
 62
8
 10
4389.303
 20
-7648.956
 30
685.873
 70
    32
  0
VERTEX
  8
T45SSILL
 62
8
 10
4384.284
 20
-7648.296
 30
685.868
 70
    32
  0
VERTEX
  8
T45SSILL
 62
8
 10
4367.235
 20
-7655.750
 30
685.844
 70
    32
  0
VERTEX
  8
T45SSILL
 62
8
 10
4355.327
 20
-7651.633
 30
685.833
 70
    32
  0
VERTEX
  8
T45SSILL
 62
8
 10
4342.876
 20
-7643.839
 30
685.825
 70
    32
  0
VERTEX
  8
T45SSILL
 62
8
 10
4341.731
 20
-7641.275
 30
685.825
 70
    32
  0
VERTEX
  8
T45SSILL
 62
8
 10
4252.190
 20
-7704.824
 30
685.681
 70
    32
  0
VERTEX
  8
T45SSILL
 62
8
 10
4245.770
 20
-7707.308
 30
685.672
 70
    32
  0
VERTEX
  8
T45SSILL
 62
8
 10
4231.152
 20
-7707.536
 30
685.655
 70
    32
  0
SEQEND
  8
T45SSILL
  0
POLYLINE
  8
T45SSILL
 62
8
 66
     1
 70
     9
  0
VERTEX
  8
T45SSILL
 62
8
 10
4341.453
 20
-7877.439
 30
685.680
 70
    32
  0
VERTEX
  8
T45SSILL
 62
8
 10
4335.517
 20
-7874.815
 30
685.677
 70
    32
  0
VERTEX
  8
T45SSILL
 62
8
 10
4333.165
 20
-7876.244
 30
685.676
 70
    32
  0
VERTEX
  8
T45SSILL
 62
8
 10
4320.638
 20
-7939.029
 30
685.674
 70
    32
  0
VERTEX
  8
T45SSILL
 62
8
 10
4334.165
 20
-7948.114
 30
685.682
 70
    32
  0
VERTEX
  8
T45SSILL
 62
8
 10
4348.675
 20
-7949.512
 30
685.689
 70
    32
  0
VERTEX
  8
T45SSILL
 62
8
 10
4364.798
 20
-7947.607
 30
685.697
 70
    32
  0
VERTEX
  8
T45SSILL
 62
8
 10
4370.129
 20
-7952.669
 30
685.700
 70
    32
  0
VERTEX
  8
T45SSILL
 62
8
 10
4375.243
 20
-7948.292
 30
685.703
 70
    32
  0
VERTEX
  8
T45SSILL
 62
8
 10
4380.721
 20
-7949.272
 30
685.705
 70
    32
  0
VERTEX
  8
T45SSILL
 62
8
 10
4382.326
 20
-7939.022
 30
685.706
 70
    32
  0
VERTEX
  8
T45SSILL
 62
8
 10
4379.632
 20
-7930.994
 30
685.704
 70
    32
  0
VERTEX
  8
T45SSILL
 62
8
 10
4376.138
 20
-7926.765
 30
685.702
 70
    32
  0
VERTEX
  8
T45SSILL
 62
8
 10
4368.874
 20
-7925.907
 30
685.698
 70
    32
  0
VERTEX
  8
T45SSILL
 62
8
 10
4361.755
 20
-7922.733
 30
685.694
 70
    32
  0
VERTEX
  8
T45SSILL
 62
8
 10
4359.462
 20
-7919.372
 30
685.693
 70
    32
  0
VERTEX
  8
T45SSILL
 62
8
 10
4352.758
 20
-7922.509
 30
685.689
 70
    32
  0
VERTEX
  8
T45SSILL
 62
8
 10
4343.520
 20
-7918.272
 30
685.684
 70
    32
  0
VERTEX
  8
T45SSILL
 62
8
 10
4341.770
 20
-7904.572
 30
685.682
 70
    32
  0
VERTEX
  8
T45SSILL
 62
8
 10
4350.687
 20
-7898.786
 30
685.687
 70
    32
  0
VERTEX
  8
T45SSILL
 62
8
 10
4353.291
 20
-7893.858
 30
685.688
 70
    32
  0
SEQEND
  8
T45SSILL
  0
POLYLINE
  8
T45SSILL
 62
8
 66
     1
 70
     9
  0
VERTEX
  8
T45SSILL
 62
8
 10
4345.591
 20
-7982.279
 30
685.690
 70
    32
  0
VERTEX
  8
T45SSILL
 62
8
 10
4330.701
 20
-7974.323
 30
685.682
 70
    32
  0
VERTEX
  8
T45SSILL
 62
8
 10
4327.961
 20
-7974.938
 30
685.681
 70
    32
  0
VERTEX
  8
T45SSILL
 62
8
 10
4322.570
 20
-7987.798
 30
685.679
 70
    32
  0
VERTEX
  8
T45SSILL
 62
8
 10
4310.745
 20
-7987.924
 30
685.673
 70
    32
  0
VERTEX
  8
T45SSILL
 62
8
 10
4307.562
 20
-8002.555
 30
685.672
 70
    32
  0
VERTEX
  8
T45SSILL
 62
8
 10
4314.117
 20
-8004.385
 30
685.676
 70
    32
  0
SEQEND
  8
T45SSILL
  0
POLYLINE
  8
T45SSILL
 62
8
 66
     1
 70
     9
  0
VERTEX
  8
T45SSILL
 62
8
 10
4351.878
 20
-7986.405
 30
685.694
 70
    32
  0
VERTEX
  8
T45SSILL
 62
8
 10
4290.468
 20
-8030.460
 30
685.666
 70
    32
  0
VERTEX
  8
T45SSILL
 62
8
 10
4293.867
 20
-8039.285
 30
685.668
 70
    32
  0
VERTEX
  8
T45SSILL
 62
8
 10
4298.868
 20
-8040.511
 30
685.671
 70
    32
  0
VERTEX
  8
T45SSILL
 62
8
 10
4338.293
 20
-8021.067
 30
685.689
 70
    32
  0
VERTEX
  8
T45SSILL
 62
8
 10
4341.285
 20
-8017.395
 30
685.691
 70
    32
  0
VERTEX
  8
T45SSILL
 62
8
 10
4345.490
 20
-8005.752
 30
685.692
 70
    32
  0
VERTEX
  8
T45SSILL
 62
8
 10
4351.723
 20
-7997.117
 30
685.694
 70
    32
  0
VERTEX
  8
T45SSILL
 62
8
 10
4358.623
 20
-7992.177
 30
685.697
 70
    32
  0
VERTEX
  8
T45SSILL
 62
8
 10
4358.697
 20
-7989.914
 30
685.697
 70
    32
  0
SEQEND
  8
T45SSILL
  0
POLYLINE
  8
T45SSILL
 62
8
 66
     1
 70
     9
  0
VERTEX
  8
T45SSILL
 62
8
 10
4359.025
 20
-8062.509
 30
685.703
 70
    32
  0
VERTEX
  8
T45SSILL
 62
8
 10
4306.463
 20
-8058.338
 30
685.676
 70
    32
  0
VERTEX
  8
T45SSILL
 62
8
 10
4301.475
 20
-8060.523
 30
685.674
 70
    32
  0
VERTEX
  8
T45SSILL
 62
8
 10
4305.415
 20
-8075.235
 30
685.677
 70
    32
  0
VERTEX
  8
T45SSILL
 62
8
 10
4323.876
 20
-8082.948
 30
685.687
 70
    32
  0
VERTEX
  8
T45SSILL
 62
8
 10
4368.955
 20
-8091.280
 30
685.710
 70
    32
  0
VERTEX
  8
T45SSILL
 62
8
 10
4366.063
 20
-8086.380
 30
685.708
 70
    32
  0
VERTEX
  8
T45SSILL
 62
8
 10
4361.211
 20
-8066.170
 30
685.704
 70
    32
  0
SEQEND
  8
T45SSILL
  0
POLYLINE
  8
T45SSILL
 62
8
 66
     1
 70
     9
  0
VERTEX
  8
T45SSILL
 62
8
 10
4375.428
 20
-8102.000
 30
685.714
 70
    32
  0
VERTEX
  8
T45SSILL
 62
8
 10
4325.860
 20
-8092.831
 30
685.688
 70
    32
  0
VERTEX
  8
T45SSILL
 62
8
 10
4324.760
 20
-8096.082
 30
685.688
 70
    32
  0
VERTEX
  8
T45SSILL
 62
8
 10
4357.545
 20
-8124.866
 30
685.703
 70
    32
  0
VERTEX
  8
T45SSILL
 62
8
 10
4377.083
 20
-8133.872
 30
685.712
 70
    32
  0
VERTEX
  8
T45SSILL
 62
8
 10
4384.186
 20
-8135.401
 30
685.716
 70
    32
  0
VERTEX
  8
T45SSILL
 62
8
 10
4381.282
 20
-8126.648
 30
685.715
 70
    32
  0
VERTEX
  8
T45SSILL
 62
8
 10
4377.858
 20
-8122.808
 30
685.714
 70
    32
  0
VERTEX
  8
T45SSILL
 62
8
 10
4377.996
 20
-8111.778
 30
685.715
 70
    32
  0
VERTEX
  8
T45SSILL
 62
8
 10
4376.561
 20
-8106.312
 30
685.715
 70
    32
  0
SEQEND
  8
T45SSILL
  0
POLYLINE
  8
T45SSILL
 62
8
 66
     1
 70
     9
  0
VERTEX
  8
T45SSILL
 62
8
 10
4526.670
 20
-7748.511
 30
685.874
 70
    32
  0
VERTEX
  8
T45SSILL
 62
8
 10
4521.582
 20
-7746.577
 30
685.876
 70
    32
  0
VERTEX
  8
T45SSILL
 62
8
 10
4510.830
 20
-7750.646
 30
685.865
 70
    32
  0
VERTEX
  8
T45SSILL
 62
8
 10
4497.342
 20
-7751.353
 30
685.859
 70
    32
  0
VERTEX
  8
T45SSILL
 62
8
 10
4511.021
 20
-7766.837
 30
685.836
 70
    32
  0
VERTEX
  8
T45SSILL
 62
8
 10
4512.674
 20
-7772.885
 30
685.826
 70
    32
  0
VERTEX
  8
T45SSILL
 62
8
 10
4516.610
 20
-7777.114
 30
685.820
 70
    32
  0
VERTEX
  8
T45SSILL
 62
8
 10
4522.953
 20
-7779.102
 30
685.819
 70
    32
  0
VERTEX
  8
T45SSILL
 62
8
 10
4541.001
 20
-7791.429
 30
685.820
 70
    32
  0
VERTEX
  8
T45SSILL
 62
8
 10
4544.542
 20
-7787.014
 30
685.822
 70
    32
  0
VERTEX
  8
T45SSILL
 62
8
 10
4539.170
 20
-7786.177
 30
685.819
 70
    32
  0
VERTEX
  8
T45SSILL
 62
8
 10
4537.866
 20
-7782.248
 30
685.818
 70
    32
  0
SEQEND
  8
T45SSILL
  0
POLYLINE
  8
T45SSILL
 62
8
 66
     1
 70
     9
  0
VERTEX
  8
T45SSILL
 62
8
 10
4505.190
 20
-7524.868
 30
686.089
 70
    32
  0
VERTEX
  8
T45SSILL
 62
8
 10
4507.252
 20
-7529.395
 30
686.088
 70
    32
  0
VERTEX
  8
T45SSILL
 62
8
 10
4494.196
 20
-7538.057
 30
686.068
 70
    32
  0
VERTEX
  8
T45SSILL
 62
8
 10
4492.125
 20
-7553.732
 30
686.054
 70
    32
  0
VERTEX
  8
T45SSILL
 62
8
 10
4495.243
 20
-7561.885
 30
686.052
 70
    32
  0
VERTEX
  8
T45SSILL
 62
8
 10
4493.047
 20
-7564.852
 30
686.048
 70
    32
  0
VERTEX
  8
T45SSILL
 62
8
 10
4497.642
 20
-7578.963
 30
686.043
 70
    32
  0
VERTEX
  8
T45SSILL
 62
8
 10
4485.098
 20
-7588.014
 30
686.023
 70
    32
  0
VERTEX
  8
T45SSILL
 62
8
 10
4475.370
 20
-7566.154
 30
686.027
 70
    32
  0
VERTEX
  8
T45SSILL
 62
8
 10
4466.923
 20
-7564.746
 30
686.019
 70
    32
  0
VERTEX
  8
T45SSILL
 62
8
 10
4439.569
 20
-7571.409
 30
685.983
 70
    32
  0
VERTEX
  8
T45SSILL
 62
8
 10
4407.457
 20
-7594.875
 30
685.931
 70
    32
  0
VERTEX
  8
T45SSILL
 62
8
 10
4408.449
 20
-7619.958
 30
685.915
 70
    32
  0
VERTEX
  8
T45SSILL
 62
8
 10
4413.342
 20
-7635.943
 30
685.909
 70
    32
  0
VERTEX
  8
T45SSILL
 62
8
 10
4426.323
 20
-7656.694
 30
685.909
 70
    32
  0
VERTEX
  8
T45SSILL
 62
8
 10
4436.546
 20
-7665.493
 30
685.914
 70
    32
  0
VERTEX
  8
T45SSILL
 62
8
 10
4451.037
 20
-7667.898
 30
685.929
 70
    32
  0
VERTEX
  8
T45SSILL
 62
8
 10
4461.505
 20
-7664.483
 30
685.943
 70
    32
  0
VERTEX
  8
T45SSILL
 62
8
 10
4587.616
 20
-7575.017
 30
686.146
 70
    32
  0
VERTEX
  8
T45SSILL
 62
8
 10
4585.001
 20
-7574.324
 30
686.144
 70
    32
  0
VERTEX
  8
T45SSILL
 62
8
 10
4557.277
 20
-7580.491
 30
686.108
 70
    32
  0
VERTEX
  8
T45SSILL
 62
8
 10
4551.606
 20
-7578.663
 30
686.103
 70
    32
  0
VERTEX
  8
T45SSILL
 62
8
 10
4550.673
 20
-7575.498
 30
686.105
 70
    32
  0
VERTEX
  8
T45SSILL
 62
8
 10
4544.520
 20
-7577.452
 30
686.096
 70
    32
  0
VERTEX
  8
T45SSILL
 62
8
 10
4540.818
 20
-7569.405
 30
686.098
 70
    32
  0
VERTEX
  8
T45SSILL
 62
8
 10
4544.407
 20
-7569.038
 30
686.102
 70
    32
  0
VERTEX
  8
T45SSILL
 62
8
 10
4546.349
 20
-7557.322
 30
686.113
 70
    32
  0
VERTEX
  8
T45SSILL
 62
8
 10
4554.456
 20
-7548.389
 30
686.128
 70
    32
  0
VERTEX
  8
T45SSILL
 62
8
 10
4563.209
 20
-7545.926
 30
686.139
 70
    32
  0
VERTEX
  8
T45SSILL
 62
8
 10
4567.728
 20
-7537.359
 30
686.150
 70
    32
  0
VERTEX
  8
T45SSILL
 62
8
 10
4572.821
 20
-7535.315
 30
686.157
 70
    32
  0
VERTEX
  8
T45SSILL
 62
8
 10
4559.444
 20
-7519.054
 30
686.154
 70
    32
  0
VERTEX
  8
T45SSILL
 62
8
 10
4549.117
 20
-7509.230
 30
686.149
 70
    32
  0
VERTEX
  8
T45SSILL
 62
8
 10
4534.997
 20
-7507.320
 30
686.135
 70
    32
  0
VERTEX
  8
T45SSILL
 62
8
 10
4527.058
 20
-7508.953
 30
686.125
 70
    32
  0
SEQEND
  8
T45SSILL
  0
POLYLINE
  8
T45SSILL
 62
8
 66
     1
 70
     9
  0
VERTEX
  8
T45SSILL
 62
8
 10
3388.100
 20
-7377.360
 30
687.482
 70
    32
  0
VERTEX
  8
T45SSILL
 62
8
 10
3371.431
 20
-7376.858
 30
687.541
 70
    32
  0
VERTEX
  8
T45SSILL
 62
8
 10
3361.605
 20
-7374.104
 30
687.574
 70
    32
  0
VERTEX
  8
T45SSILL
 62
8
 10
3349.072
 20
-7366.576
 30
687.612
 70
    32
  0
VERTEX
  8
T45SSILL
 62
8
 10
3335.930
 20
-7351.774
 30
687.644
 70
    32
  0
VERTEX
  8
T45SSILL
 62
8
 10
3239.442
 20
-7223.266
 30
687.890
 70
    32
  0
VERTEX
  8
T45SSILL
 62
8
 10
3235.146
 20
-7226.930
 30
687.897
 70
    32
  0
VERTEX
  8
T45SSILL
 62
8
 10
3235.839
 20
-7276.970
 30
687.872
 70
    32
  0
VERTEX
  8
T45SSILL
 62
8
 10
3246.807
 20
-7283.243
 30
687.848
 70
    32
  0
VERTEX
  8
T45SSILL
 62
8
 10
3261.635
 20
-7301.712
 30
687.811
 70
    32
  0
VERTEX
  8
T45SSILL
 62
8
 10
3263.016
 20
-7305.709
 30
687.806
 70
    32
  0
VERTEX
  8
T45SSILL
 62
8
 10
3261.733
 20
-7320.554
 30
687.802
 70
    32
  0
VERTEX
  8
T45SSILL
 62
8
 10
3266.864
 20
-7325.523
 30
687.790
 70
    32
  0
VERTEX
  8
T45SSILL
 62
8
 10
3265.751
 20
-7337.310
 30
687.786
 70
    32
  0
VERTEX
  8
T45SSILL
 62
8
 10
3267.974
 20
-7349.500
 30
687.777
 70
    32
  0
VERTEX
  8
T45SSILL
 62
8
 10
3296.981
 20
-7409.193
 30
687.693
 70
    32
  0
VERTEX
  8
T45SSILL
 62
8
 10
3307.360
 20
-7418.394
 30
687.668
 70
    32
  0
VERTEX
  8
T45SSILL
 62
8
 10
3317.173
 20
-7420.831
 30
687.648
 70
    32
  0
VERTEX
  8
T45SSILL
 62
8
 10
3328.684
 20
-7419.319
 30
687.627
 70
    32
  0
VERTEX
  8
T45SSILL
 62
8
 10
3368.184
 20
-7391.425
 30
687.563
 70
    32
  0
SEQEND
  8
T45SSILL
  0
POLYLINE
  8
T45SSILL
 62
8
 66
     1
 70
     9
  0
VERTEX
  8
T45SSILL
 62
8
 10
3116.202
 20
-7017.668
 30
688.179
 70
    32
  0
VERTEX
  8
T45SSILL
 62
8
 10
3147.969
 20
-7088.943
 30
688.119
 70
    32
  0
VERTEX
  8
T45SSILL
 62
8
 10
3154.882
 20
-7096.965
 30
688.101
 70
    32
  0
VERTEX
  8
T45SSILL
 62
8
 10
3160.034
 20
-7078.766
 30
688.069
 70
    32
  0
VERTEX
  8
T45SSILL
 62
8
 10
3167.346
 20
-7071.173
 30
688.037
 70
    32
  0
VERTEX
  8
T45SSILL
 62
8
 10
3182.858
 20
-7059.907
 30
687.973
 70
    32
  0
VERTEX
  8
T45SSILL
 62
8
 10
3179.520
 20
-7052.766
 30
687.980
 70
    32
  0
VERTEX
  8
T45SSILL
 62
8
 10
3182.167
 20
-7048.778
 30
687.967
 70
    32
  0
VERTEX
  8
T45SSILL
 62
8
 10
3185.044
 20
-7049.297
 30
687.958
 70
    32
  0
VERTEX
  8
T45SSILL
 62
8
 10
3187.497
 20
-7045.342
 30
687.946
 70
    32
  0
VERTEX
  8
T45SSILL
 62
8
 10
3190.057
 20
-7035.547
 30
687.929
 70
    32
  0
VERTEX
  8
T45SSILL
 62
8
 10
3190.553
 20
-7028.448
 30
687.922
 70
    32
  0
VERTEX
  8
T45SSILL
 62
8
 10
3188.527
 20
-7021.768
 30
687.924
 70
    32
  0
VERTEX
  8
T45SSILL
 62
8
 10
3174.124
 20
-6997.446
 30
687.957
 70
    32
  0
VERTEX
  8
T45SSILL
 62
8
 10
3163.366
 20
-6984.281
 30
687.986
 70
    32
  0
VERTEX
  8
T45SSILL
 62
8
 10
3151.267
 20
-6976.004
 30
688.023
 70
    32
  0
VERTEX
  8
T45SSILL
 62
8
 10
3127.617
 20
-6992.529
 30
688.119
 70
    32
  0
VERTEX
  8
T45SSILL
 62
8
 10
3120.047
 20
-6999.766
 30
688.152
 70
    32
  0
VERTEX
  8
T45SSILL
 62
8
 10
3117.139
 20
-7006.986
 30
688.167
 70
    32
  0
VERTEX
  8
T45SSILL
 62
8
 10
3116.715
 20
-7012.838
 30
688.173
 70
    32
  0
SEQEND
  8
T45SSILL
  0
POLYLINE
  8
T45SSILL
 62
8
 66
     1
 70
     9
  0
VERTEX
  8
T45SSILL
 62
8
 10
730.288
 20
-7151.345
 30
695.279
 70
    32
  0
VERTEX
  8
T45SSILL
 62
8
 10
710.539
 20
-7190.103
 30
695.246
 70
    32
  0
VERTEX
  8
T45SSILL
 62
8
 10
711.821
 20
-7192.420
 30
695.181
 70
    32
  0
VERTEX
  8
T45SSILL
 62
8
 10
718.553
 20
-7192.889
 30
695.017
 70
    32
  0
VERTEX
  8
T45SSILL
 62
8
 10
751.806
 20
-7184.302
 30
694.262
 70
    32
  0
VERTEX
  8
T45SSILL
 62
8
 10
752.756
 20
-7165.917
 30
694.489
 70
    32
  0
VERTEX
  8
T45SSILL
 62
8
 10
743.914
 20
-7164.558
 30
694.740
 70
    32
  0
VERTEX
  8
T45SSILL
 62
8
 10
737.298
 20
-7150.981
 30
695.100
 70
    32
  0
SEQEND
  8
T45SSILL
  0
POLYLINE
  8
T45SSILL
 62
8
 66
     1
 70
     9
  0
VERTEX
  8
T45SSILL
 62
8
 10
772.902
 20
-7184.231
 30
693.709
 70
    32
  0
VERTEX
  8
T45SSILL
 62
8
 10
764.684
 20
-7190.877
 30
693.834
 70
    32
  0
VERTEX
  8
T45SSILL
 62
8
 10
723.060
 20
-7204.188
 30
694.744
 70
    32
  0
VERTEX
  8
T45SSILL
 62
8
 10
723.529
 20
-7211.659
 30
694.613
 70
    32
  0
VERTEX
  8
T45SSILL
 62
8
 10
738.660
 20
-7227.356
 30
694.017
 70
    32
  0
VERTEX
  8
T45SSILL
 62
8
 10
754.113
 20
-7224.995
 30
693.698
 70
    32
  0
VERTEX
  8
T45SSILL
 62
8
 10
759.225
 20
-7220.498
 30
693.686
 70
    32
  0
VERTEX
  8
T45SSILL
 62
8
 10
774.451
 20
-7185.082
 30
693.657
 70
    32
  0
SEQEND
  8
T45SSILL
  0
POLYLINE
  8
T45SSILL
 62
8
 66
     1
 70
     9
  0
VERTEX
  8
T45SSILL
 62
8
 10
766.359
 20
-7230.193
 30
693.996
 70
    32
  0
VERTEX
  8
T45SSILL
 62
8
 10
785.403
 20
-7190.107
 30
693.301
 70
    32
  0
VERTEX
  8
T45SSILL
 62
8
 10
787.216
 20
-7183.620
 30
693.342
 70
    32
  0
VERTEX
  8
T45SSILL
 62
8
 10
782.918
 20
-7178.797
 30
693.521
 70
    32
  0
VERTEX
  8
T45SSILL
 62
8
 10
771.916
 20
-7142.517
 30
694.307
 70
    32
  0
VERTEX
  8
T45SSILL
 62
8
 10
764.944
 20
-7130.894
 30
694.649
 70
    32
  0
VERTEX
  8
T45SSILL
 62
8
 10
759.724
 20
-7117.716
 30
694.302
 70
    32
  0
VERTEX
  8
T45SSILL
 62
8
 10
770.436
 20
-7110.109
 30
693.785
 70
    32
  0
VERTEX
  8
T45SSILL
 62
8
 10
789.410
 20
-7124.218
 30
693.948
 70
    32
  0
VERTEX
  8
T45SSILL
 62
8
 10
788.872
 20
-7139.214
 30
693.907
 70
    32
  0
VERTEX
  8
T45SSILL
 62
8
 10
792.172
 20
-7147.397
 30
693.709
 70
    32
  0
VERTEX
  8
T45SSILL
 62
8
 10
791.052
 20
-7153.507
 30
693.654
 70
    32
  0
VERTEX
  8
T45SSILL
 62
8
 10
796.724
 20
-7169.767
 30
693.283
 70
    32
  0
VERTEX
  8
T45SSILL
 62
8
 10
799.019
 20
-7182.061
 30
693.380
 70
    32
  0
VERTEX
  8
T45SSILL
 62
8
 10
800.598
 20
-7184.813
 30
693.403
 70
    32
  0
VERTEX
  8
T45SSILL
 62
8
 10
805.218
 20
-7187.176
 30
693.412
 70
    32
  0
VERTEX
  8
T45SSILL
 62
8
 10
814.114
 20
-7182.743
 30
693.336
 70
    32
  0
VERTEX
  8
T45SSILL
 62
8
 10
822.598
 20
-7202.697
 30
693.517
 70
    32
  0
VERTEX
  8
T45SSILL
 62
8
 10
801.205
 20
-7222.212
 30
693.794
 70
    32
  0
VERTEX
  8
T45SSILL
 62
8
 10
782.378
 20
-7232.353
 30
693.965
 70
    32
  0
VERTEX
  8
T45SSILL
 62
8
 10
768.602
 20
-7233.126
 30
694.019
 70
    32
  0
SEQEND
  8
T45SSILL
  0
POLYLINE
  8
T45SSILL
 62
8
 66
     1
 70
     9
  0
VERTEX
  8
T45SSILL
 62
8
 10
688.554
 20
-7175.304
 30
696.043
 70
    32
  0
VERTEX
  8
T45SSILL
 62
8
 10
685.674
 20
-7166.510
 30
696.380
 70
    32
  0
VERTEX
  8
T45SSILL
 62
8
 10
689.149
 20
-7140.505
 30
696.507
 70
    32
  0
VERTEX
  8
T45SSILL
 62
8
 10
728.344
 20
-7085.090
 30
693.669
 70
    32
  0
VERTEX
  8
T45SSILL
 62
8
 10
733.237
 20
-7086.297
 30
693.616
 70
    32
  0
VERTEX
  8
T45SSILL
 62
8
 10
741.279
 20
-7110.493
 30
694.397
 70
    32
  0
VERTEX
  8
T45SSILL
 62
8
 10
753.835
 20
-7102.106
 30
693.812
 70
    32
  0
VERTEX
  8
T45SSILL
 62
8
 10
742.035
 20
-7070.920
 30
692.835
 70
    32
  0
VERTEX
  8
T45SSILL
 62
8
 10
750.968
 20
-7066.840
 30
692.820
 70
    32
  0
VERTEX
  8
T45SSILL
 62
8
 10
787.175
 20
-7072.644
 30
692.764
 70
    32
  0
VERTEX
  8
T45SSILL
 62
8
 10
787.979
 20
-7085.912
 30
692.725
 70
    32
  0
VERTEX
  8
T45SSILL
 62
8
 10
739.624
 20
-7120.131
 30
694.808
 70
    32
  0
VERTEX
  8
T45SSILL
 62
8
 10
730.297
 20
-7124.961
 30
695.187
 70
    32
  0
VERTEX
  8
T45SSILL
 62
8
 10
729.945
 20
-7130.010
 30
695.392
 70
    32
  0
VERTEX
  8
T45SSILL
 62
8
 10
724.293
 20
-7138.512
 30
695.612
 70
    32
  0
VERTEX
  8
T45SSILL
 62
8
 10
724.614
 20
-7141.601
 30
695.561
 70
    32
  0
VERTEX
  8
T45SSILL
 62
8
 10
703.604
 20
-7182.086
 30
695.527
 70
    32
  0
VERTEX
  8
T45SSILL
 62
8
 10
697.434
 20
-7180.267
 30
695.689
 70
    32
  0
VERTEX
  8
T45SSILL
 62
8
 10
688.393
 20
-7174.454
 30
696.068
 70
    32
  0
SEQEND
  8
T45SSILL
  0
POLYLINE
  8
T45SSILL
 62
8
 66
     1
 70
     9
  0
VERTEX
  8
T45SSILL
 62
8
 10
805.036
 20
-7085.537
 30
692.708
 70
    32
  0
VERTEX
  8
T45SSILL
 62
8
 10
809.880
 20
-7087.992
 30
692.696
 70
    32
  0
VERTEX
  8
T45SSILL
 62
8
 10
822.984
 20
-7090.584
 30
692.674
 70
    32
  0
VERTEX
  8
T45SSILL
 62
8
 10
832.788
 20
-7100.149
 30
692.636
 70
    32
  0
VERTEX
  8
T45SSILL
 62
8
 10
835.517
 20
-7107.659
 30
692.612
 70
    32
  0
VERTEX
  8
T45SSILL
 62
8
 10
832.622
 20
-7115.528
 30
692.723
 70
    32
  0
VERTEX
  8
T45SSILL
 62
8
 10
834.028
 20
-7127.154
 30
692.888
 70
    32
  0
VERTEX
  8
T45SSILL
 62
8
 10
835.528
 20
-7131.028
 30
692.795
 70
    32
  0
VERTEX
  8
T45SSILL
 62
8
 10
841.454
 20
-7137.293
 30
692.766
 70
    32
  0
VERTEX
  8
T45SSILL
 62
8
 10
866.630
 20
-7041.794
 30
692.766
 70
    32
  0
SEQEND
  8
T45SSILL
  0
POLYLINE
  8
T45SSILL
 62
8
 66
     1
 70
     9
  0
VERTEX
  8
T45SSILL
 62
8
 10
4348.275
 20
-8041.677
 30
685.696
 70
    32
  0
VERTEX
  8
T45SSILL
 62
8
 10
4331.256
 20
-8035.711
 30
685.687
 70
    32
  0
VERTEX
  8
T45SSILL
 62
8
 10
4317.407
 20
-8042.869
 30
685.680
 70
    32
  0
VERTEX
  8
T45SSILL
 62
8
 10
4314.058
 20
-8049.016
 30
685.679
 70
    32
  0
VERTEX
  8
T45SSILL
 62
8
 10
4357.941
 20
-8052.945
 30
685.702
 70
    32
  0
VERTEX
  8
T45SSILL
 62
8
 10
4359.943
 20
-8050.013
 30
685.702
 70
    32
  0
VERTEX
  8
T45SSILL
 62
8
 10
4358.640
 20
-8045.911
 30
685.701
 70
    32
  0
VERTEX
  8
T45SSILL
 62
8
 10
4350.986
 20
-8046.449
 30
685.698
 70
    32
  0
VERTEX
  8
T45SSILL
 62
8
 10
4348.570
 20
-8041.744
 30
685.696
 70
    32
  0
SEQEND
  8
T45SSILL
  0
POLYLINE
  8
T45SSILL
 62
8
 66
     1
 70
     9
  0
VERTEX
  8
T45SSILL
 62
8
 10
4600.256
 20
-7671.133
 30
686.039
 70
    32
  0
VERTEX
  8
T45SSILL
 62
8
 10
4608.028
 20
-7666.081
 30
686.050
 70
    32
  0
VERTEX
  8
T45SSILL
 62
8
 10
4612.213
 20
-7672.328
 30
686.041
 70
    32
  0
VERTEX
  8
T45SSILL
 62
8
 10
4609.995
 20
-7673.111
 30
686.039
 70
    32
  0
VERTEX
  8
T45SSILL
 62
8
 10
4609.036
 20
-7683.485
 30
686.020
 70
    32
  0
VERTEX
  8
T45SSILL
 62
8
 10
4535.062
 20
-7738.040
 30
685.896
 70
    32
  0
VERTEX
  8
T45SSILL
 62
8
 10
4539.087
 20
-7755.668
 30
685.866
 70
    32
  0
VERTEX
  8
T45SSILL
 62
8
 10
4547.007
 20
-7780.867
 30
685.825
 70
    32
  0
VERTEX
  8
T45SSILL
 62
8
 10
4549.354
 20
-7783.857
 30
685.826
 70
    32
  0
VERTEX
  8
T45SSILL
 62
8
 10
4570.153
 20
-7787.614
 30
685.840
 70
    32
  0
VERTEX
  8
T45SSILL
 62
8
 10
4583.396
 20
-7785.104
 30
685.849
 70
    32
  0
VERTEX
  8
T45SSILL
 62
8
 10
4589.400
 20
-7789.442
 30
685.852
 70
    32
  0
VERTEX
  8
T45SSILL
 62
8
 10
4590.588
 20
-7799.590
 30
685.852
 70
    32
  0
VERTEX
  8
T45SSILL
 62
8
 10
4589.204
 20
-7803.494
 30
685.851
 70
    32
  0
VERTEX
  8
T45SSILL
 62
8
 10
4569.790
 20
-7821.657
 30
685.836
 70
    32
  0
VERTEX
  8
T45SSILL
 62
8
 10
4567.874
 20
-7827.063
 30
685.834
 70
    32
  0
VERTEX
  8
T45SSILL
 62
8
 10
4569.973
 20
-7830.460
 30
685.835
 70
    32
  0
VERTEX
  8
T45SSILL
 62
8
 10
4567.159
 20
-7832.895
 30
685.833
 70
    32
  0
VERTEX
  8
T45SSILL
 62
8
 10
4565.656
 20
-7846.821
 30
685.831
 70
    32
  0
VERTEX
  8
T45SSILL
 62
8
 10
4639.673
 20
-7946.522
 30
685.870
 70
    32
  0
VERTEX
  8
T45SSILL
 62
8
 10
4747.243
 20
-7869.599
 30
685.951
 70
    32
  0
VERTEX
  8
T45SSILL
 62
8
 10
4754.042
 20
-7860.982
 30
685.956
 70
    32
  0
VERTEX
  8
T45SSILL
 62
8
 10
4756.535
 20
-7847.198
 30
685.959
 70
    32
  0
VERTEX
  8
T45SSILL
 62
8
 10
4755.676
 20
-7841.771
 30
685.959
 70
    32
  0
VERTEX
  8
T45SSILL
 62
8
 10
4718.207
 20
-7772.786
 30
685.941
 70
    32
  0
VERTEX
  8
T45SSILL
 62
8
 10
4709.352
 20
-7758.881
 30
685.936
 70
    32
  0
VERTEX
  8
T45SSILL
 62
8
 10
4701.618
 20
-7752.967
 30
685.932
 70
    32
  0
VERTEX
  8
T45SSILL
 62
8
 10
4692.802
 20
-7749.739
 30
685.932
 70
    32
  0
VERTEX
  8
T45SSILL
 62
8
 10
4687.605
 20
-7749.873
 30
685.930
 70
    32
  0
VERTEX
  8
T45SSILL
 62
8
 10
4680.003
 20
-7750.924
 30
685.925
 70
    32
  0
VERTEX
  8
T45SSILL
 62
8
 10
4670.450
 20
-7757.186
 30
685.911
 70
    32
  0
VERTEX
  8
T45SSILL
 62
8
 10
4679.981
 20
-7781.290
 30
685.914
 70
    32
  0
VERTEX
  8
T45SSILL
 62
8
 10
4669.595
 20
-7788.948
 30
685.906
 70
    32
  0
VERTEX
  8
T45SSILL
 62
8
 10
4654.361
 20
-7787.319
 30
685.896
 70
    32
  0
VERTEX
  8
T45SSILL
 62
8
 10
4649.233
 20
-7775.593
 30
685.894
 70
    32
  0
VERTEX
  8
T45SSILL
 62
8
 10
4646.104
 20
-7775.395
 30
685.892
 70
    32
  0
VERTEX
  8
T45SSILL
 62
8
 10
4625.723
 20
-7789.314
 30
685.877
 70
    32
  0
VERTEX
  8
T45SSILL
 62
8
 10
4620.605
 20
-7783.651
 30
685.874
 70
    32
  0
VERTEX
  8
T45SSILL
 62
8
 10
4633.785
 20
-7775.007
 30
685.884
 70
    32
  0
VERTEX
  8
T45SSILL
 62
8
 10
4633.971
 20
-7767.584
 30
685.885
 70
    32
  0
VERTEX
  8
T45SSILL
 62
8
 10
4632.560
 20
-7765.549
 30
685.884
 70
    32
  0
VERTEX
  8
T45SSILL
 62
8
 10
4635.585
 20
-7763.397
 30
685.887
 70
    32
  0
VERTEX
  8
T45SSILL
 62
8
 10
4637.149
 20
-7757.371
 30
685.899
 70
    32
  0
VERTEX
  8
T45SSILL
 62
8
 10
4636.411
 20
-7754.171
 30
685.904
 70
    32
  0
VERTEX
  8
T45SSILL
 62
8
 10
4634.891
 20
-7753.763
 30
685.904
 70
    32
  0
VERTEX
  8
T45SSILL
 62
8
 10
4638.397
 20
-7749.154
 30
685.914
 70
    32
  0
VERTEX
  8
T45SSILL
 62
8
 10
4642.344
 20
-7745.430
 30
685.922
 70
    32
  0
VERTEX
  8
T45SSILL
 62
8
 10
4655.180
 20
-7742.230
 30
685.932
 70
    32
  0
VERTEX
  8
T45SSILL
 62
8
 10
4657.654
 20
-7743.028
 30
685.931
 70
    32
  0
VERTEX
  8
T45SSILL
 62
8
 10
4657.074
 20
-7740.482
 30
685.936
 70
    32
  0
VERTEX
  8
T45SSILL
 62
8
 10
4619.026
 20
-7721.483
 30
685.956
 70
    32
  0
VERTEX
  8
T45SSILL
 62
8
 10
4621.952
 20
-7713.887
 30
685.970
 70
    32
  0
VERTEX
  8
T45SSILL
 62
8
 10
4680.385
 20
-7743.023
 30
685.940
 70
    32
  0
VERTEX
  8
T45SSILL
 62
8
 10
4694.420
 20
-7742.458
 30
685.946
 70
    32
  0
VERTEX
  8
T45SSILL
 62
8
 10
4703.396
 20
-7745.016
 30
685.944
 70
    32
  0
VERTEX
  8
T45SSILL
 62
8
 10
4628.178
 20
-7604.165
 30
686.168
 70
    32
  0
VERTEX
  8
T45SSILL
 62
8
 10
4613.336
 20
-7586.681
 30
686.167
 70
    32
  0
VERTEX
  8
T45SSILL
 62
8
 10
4597.419
 20
-7580.598
 30
686.153
 70
    32
  0
VERTEX
  8
T45SSILL
 62
8
 10
4589.286
 20
-7582.266
 30
686.143
 70
    32
  0
VERTEX
  8
T45SSILL
 62
8
 10
4458.170
 20
-7674.041
 30
685.932
 70
    32
  0
VERTEX
  8
T45SSILL
 62
8
 10
4438.656
 20
-7674.068
 30
685.910
 70
    32
  0
VERTEX
  8
T45SSILL
 62
8
 10
4481.475
 20
-7733.975
 30
685.884
 70
    32
  0
VERTEX
  8
T45SSILL
 62
8
 10
4490.973
 20
-7742.984
 30
685.871
 70
    32
  0
VERTEX
  8
T45SSILL
 62
8
 10
4500.939
 20
-7745.242
 30
685.871
 70
    32
  0
VERTEX
  8
T45SSILL
 62
8
 10
4511.350
 20
-7744.849
 30
685.875
 70
    32
  0
VERTEX
  8
T45SSILL
 62
8
 10
4518.566
 20
-7741.660
 30
685.884
 70
    32
  0
VERTEX
  8
T45SSILL
 62
8
 10
4516.735
 20
-7736.408
 30
685.892
 70
    32
  0
VERTEX
  8
T45SSILL
 62
8
 10
4517.199
 20
-7732.749
 30
685.899
 70
    32
  0
VERTEX
  8
T45SSILL
 62
8
 10
4523.259
 20
-7721.374
 30
685.921
 70
    32
  0
VERTEX
  8
T45SSILL
 62
8
 10
4523.902
 20
-7689.771
 30
685.978
 70
    32
  0
VERTEX
  8
T45SSILL
 62
8
 10
4528.240
 20
-7671.076
 30
686.013
 70
    32
  0
VERTEX
  8
T45SSILL
 62
8
 10
4537.010
 20
-7668.489
 30
686.021
 70
    32
  0
VERTEX
  8
T45SSILL
 62
8
 10
4529.408
 20
-7709.822
 30
685.944
 70
    32
  0
VERTEX
  8
T45SSILL
 62
8
 10
4533.712
 20
-7729.890
 30
685.910
 70
    32
  0
VERTEX
  8
T45SSILL
 62
8
 10
4601.978
 20
-7681.140
 30
686.021
 70
    32
  0
VERTEX
  8
T45SSILL
 62
8
 10
4602.488
 20
-7674.816
 30
686.033
 70
    32
  0
SEQEND
  8
T45SSILL
  0
POLYLINE
  8
T45SSILL
 62
8
 66
     1
 70
     9
  0
VERTEX
  8
T45SSILL
 62
8
 10
4342.376
 20
-7505.541
 30
685.921
 70
    32
  0
VERTEX
  8
T45SSILL
 62
8
 10
4322.924
 20
-7470.615
 30
685.924
 70
    32
  0
VERTEX
  8
T45SSILL
 62
8
 10
4316.999
 20
-7464.791
 30
685.921
 70
    32
  0
VERTEX
  8
T45SSILL
 62
8
 10
4310.405
 20
-7458.803
 30
685.916
 70
    32
  0
VERTEX
  8
T45SSILL
 62
8
 10
4304.943
 20
-7456.141
 30
685.903
 70
    32
  0
VERTEX
  8
T45SSILL
 62
8
 10
4290.922
 20
-7452.111
 30
685.873
 70
    32
  0
VERTEX
  8
T45SSILL
 62
8
 10
4286.314
 20
-7452.544
 30
685.866
 70
    32
  0
VERTEX
  8
T45SSILL
 62
8
 10
4265.979
 20
-7463.450
 30
685.842
 70
    32
  0
VERTEX
  8
T45SSILL
 62
8
 10
4146.822
 20
-7550.323
 30
685.671
 70
    32
  0
VERTEX
  8
T45SSILL
 62
8
 10
4134.542
 20
-7554.318
 30
685.655
 70
    32
  0
VERTEX
  8
T45SSILL
 62
8
 10
4120.129
 20
-7554.519
 30
685.639
 70
    32
  0
VERTEX
  8
T45SSILL
 62
8
 10
4162.976
 20
-7614.859
 30
685.644
 70
    32
  0
VERTEX
  8
T45SSILL
 62
8
 10
4175.807
 20
-7621.735
 30
685.654
 70
    32
  0
VERTEX
  8
T45SSILL
 62
8
 10
4181.474
 20
-7619.319
 30
685.662
 70
    32
  0
VERTEX
  8
T45SSILL
 62
8
 10
4185.846
 20
-7623.329
 30
685.664
 70
    32
  0
VERTEX
  8
T45SSILL
 62
8
 10
4195.487
 20
-7620.508
 30
685.677
 70
    32
  0
VERTEX
  8
T45SSILL
 62
8
 10
4212.381
 20
-7607.754
 30
685.704
 70
    32
  0
VERTEX
  8
T45SSILL
 62
8
 10
4209.482
 20
-7602.770
 30
685.705
 70
    32
  0
VERTEX
  8
T45SSILL
 62
8
 10
4213.053
 20
-7596.312
 30
685.713
 70
    32
  0
VERTEX
  8
T45SSILL
 62
8
 10
4219.301
 20
-7592.154
 30
685.723
 70
    32
  0
VERTEX
  8
T45SSILL
 62
8
 10
4229.278
 20
-7596.640
 30
685.731
 70
    32
  0
VERTEX
  8
T45SSILL
 62
8
 10
4267.692
 20
-7568.934
 30
685.793
 70
    32
  0
VERTEX
  8
T45SSILL
 62
8
 10
4272.002
 20
-7575.836
 30
685.793
 70
    32
  0
VERTEX
  8
T45SSILL
 62
8
 10
4218.202
 20
-7613.435
 30
685.707
 70
    32
  0
VERTEX
  8
T45SSILL
 62
8
 10
4219.851
 20
-7616.273
 30
685.707
 70
    32
  0
VERTEX
  8
T45SSILL
 62
8
 10
4209.864
 20
-7618.473
 30
685.694
 70
    32
  0
VERTEX
  8
T45SSILL
 62
8
 10
4195.337
 20
-7628.939
 30
685.670
 70
    32
  0
VERTEX
  8
T45SSILL
 62
8
 10
4184.454
 20
-7630.812
 30
685.657
 70
    32
  0
VERTEX
  8
T45SSILL
 62
8
 10
4175.087
 20
-7628.943
 30
685.648
 70
    32
  0
VERTEX
  8
T45SSILL
 62
8
 10
4223.301
 20
-7696.743
 30
685.654
 70
    32
  0
VERTEX
  8
T45SSILL
 62
8
 10
4231.850
 20
-7700.944
 30
685.661
 70
    32
  0
VERTEX
  8
T45SSILL
 62
8
 10
4243.233
 20
-7701.259
 30
685.673
 70
    32
  0
VERTEX
  8
T45SSILL
 62
8
 10
4252.713
 20
-7696.818
 30
685.687
 70
    32
  0
VERTEX
  8
T45SSILL
 62
8
 10
4349.279
 20
-7627.021
 30
685.844
 70
    32
  0
VERTEX
  8
T45SSILL
 62
8
 10
4354.737
 20
-7616.758
 30
685.857
 70
    32
  0
VERTEX
  8
T45SSILL
 62
8
 10
4362.556
 20
-7572.173
 30
685.897
 70
    32
  0
VERTEX
  8
T45SSILL
 62
8
 10
4368.191
 20
-7561.557
 30
685.911
 70
    32
  0
VERTEX
  8
T45SSILL
 62
8
 10
4373.004
 20
-7557.074
 30
685.919
 70
    32
  0
VERTEX
  8
T45SSILL
 62
8
 10
4346.248
 20
-7511.704
 30
685.921
 70
    32
  0
SEQEND
  8
T45SSILL
  0
POLYLINE
  8
T45SSILL
 62
8
 66
     1
 70
     9
  0
VERTEX
  8
T45SSILL
 62
8
 10
3878.684
 20
-7042.919
 30
685.893
 70
    32
  0
VERTEX
  8
T45SSILL
 62
8
 10
3853.861
 20
-7061.502
 30
685.899
 70
    32
  0
VERTEX
  8
T45SSILL
 62
8
 10
3836.745
 20
-7071.573
 30
685.904
 70
    32
  0
VERTEX
  8
T45SSILL
 62
8
 10
3828.971
 20
-7072.912
 30
685.907
 70
    32
  0
VERTEX
  8
T45SSILL
 62
8
 10
3825.063
 20
-7075.786
 30
685.908
 70
    32
  0
VERTEX
  8
T45SSILL
 62
8
 10
3816.202
 20
-7089.638
 30
685.908
 70
    32
  0
VERTEX
  8
T45SSILL
 62
8
 10
3812.316
 20
-7101.473
 30
685.906
 70
    32
  0
VERTEX
  8
T45SSILL
 62
8
 10
3812.674
 20
-7119.822
 30
685.900
 70
    32
  0
VERTEX
  8
T45SSILL
 62
8
 10
3814.924
 20
-7128.240
 30
685.896
 70
    32
  0
VERTEX
  8
T45SSILL
 62
8
 10
3818.465
 20
-7134.394
 30
685.893
 70
    32
  0
VERTEX
  8
T45SSILL
 62
8
 10
3835.113
 20
-7155.541
 30
685.878
 70
    32
  0
VERTEX
  8
T45SSILL
 62
8
 10
3845.881
 20
-7162.292
 30
685.871
 70
    32
  0
VERTEX
  8
T45SSILL
 62
8
 10
3857.024
 20
-7162.855
 30
685.865
 70
    32
  0
VERTEX
  8
T45SSILL
 62
8
 10
3865.853
 20
-7159.974
 30
685.862
 70
    32
  0
VERTEX
  8
T45SSILL
 62
8
 10
3949.127
 20
-7099.930
 30
685.841
 70
    32
  0
VERTEX
  8
T45SSILL
 62
8
 10
3953.983
 20
-7106.978
 30
685.836
 70
    32
  0
VERTEX
  8
T45SSILL
 62
8
 10
3871.204
 20
-7165.016
 30
685.858
 70
    32
  0
VERTEX
  8
T45SSILL
 62
8
 10
3860.201
 20
-7170.152
 30
685.861
 70
    32
  0
VERTEX
  8
T45SSILL
 62
8
 10
3848.695
 20
-7170.732
 30
685.867
 70
    32
  0
VERTEX
  8
T45SSILL
 62
8
 10
3846.986
 20
-7172.427
 30
685.867
 70
    32
  0
VERTEX
  8
T45SSILL
 62
8
 10
3887.335
 20
-7230.116
 30
685.829
 70
    32
  0
VERTEX
  8
T45SSILL
 62
8
 10
3895.697
 20
-7235.680
 30
685.823
 70
    32
  0
VERTEX
  8
T45SSILL
 62
8
 10
3901.574
 20
-7237.270
 30
685.820
 70
    32
  0
VERTEX
  8
T45SSILL
 62
8
 10
3915.054
 20
-7236.990
 30
685.814
 70
    32
  0
VERTEX
  8
T45SSILL
 62
8
 10
3921.289
 20
-7234.156
 30
685.812
 70
    32
  0
VERTEX
  8
T45SSILL
 62
8
 10
3958.784
 20
-7206.688
 30
685.802
 70
    32
  0
VERTEX
  8
T45SSILL
 62
8
 10
3946.086
 20
-7193.146
 30
685.813
 70
    32
  0
VERTEX
  8
T45SSILL
 62
8
 10
3937.223
 20
-7192.110
 30
685.817
 70
    32
  0
VERTEX
  8
T45SSILL
 62
8
 10
3929.416
 20
-7180.007
 30
685.825
 70
    32
  0
VERTEX
  8
T45SSILL
 62
8
 10
3928.259
 20
-7169.800
 30
685.829
 70
    32
  0
VERTEX
  8
T45SSILL
 62
8
 10
3950.239
 20
-7158.452
 30
685.822
 70
    32
  0
VERTEX
  8
T45SSILL
 62
8
 10
3968.395
 20
-7176.738
 30
685.807
 70
    32
  0
VERTEX
  8
T45SSILL
 62
8
 10
3968.490
 20
-7183.565
 30
685.805
 70
    32
  0
VERTEX
  8
T45SSILL
 62
8
 10
3974.792
 20
-7194.367
 30
685.799
 70
    32
  0
VERTEX
  8
T45SSILL
 62
8
 10
4069.834
 20
-7126.654
 30
685.774
 70
    32
  0
VERTEX
  8
T45SSILL
 62
8
 10
4074.372
 20
-7120.470
 30
685.774
 70
    32
  0
VERTEX
  8
T45SSILL
 62
8
 10
4076.029
 20
-7114.981
 30
685.775
 70
    32
  0
VERTEX
  8
T45SSILL
 62
8
 10
4074.785
 20
-7100.787
 30
685.780
 70
    32
  0
VERTEX
  8
T45SSILL
 62
8
 10
4072.088
 20
-7091.166
 30
685.785
 70
    32
  0
VERTEX
  8
T45SSILL
 62
8
 10
4007.977
 20
-7001.468
 30
685.844
 70
    32
  0
VERTEX
  8
T45SSILL
 62
8
 10
3995.980
 20
-6990.366
 30
685.853
 70
    32
  0
VERTEX
  8
T45SSILL
 62
8
 10
3982.876
 20
-6984.458
 30
685.861
 70
    32
  0
VERTEX
  8
T45SSILL
 62
8
 10
3966.682
 20
-6982.684
 30
685.870
 70
    32
  0
VERTEX
  8
T45SSILL
 62
8
 10
3953.177
 20
-6985.609
 30
685.875
 70
    32
  0
VERTEX
  8
T45SSILL
 62
8
 10
3946.056
 20
-6988.877
 30
685.878
 70
    32
  0
VERTEX
  8
T45SSILL
 62
8
 10
3885.744
 20
-7032.359
 30
685.893
 70
    32
  0
VERTEX
  8
T45SSILL
 62
8
 10
3884.464
 20
-7036.070
 30
685.892
 70
    32
  0
VERTEX
  8
T45SSILL
 62
8
 10
3886.577
 20
-7039.700
 30
685.890
 70
    32
  0
VERTEX
  8
T45SSILL
 62
8
 10
3879.785
 20
-7044.632
 30
685.892
 70
    32
  0
SEQEND
  8
T45SSILL
  0
POLYLINE
  8
T45SSILL
 62
8
 66
     1
 70
     9
  0
VERTEX
  8
T45SSILL
 62
8
 10
3784.475
 20
-7017.177
 30
685.946
 70
    32
  0
VERTEX
  8
T45SSILL
 62
8
 10
3777.754
 20
-7015.333
 30
685.949
 70
    32
  0
VERTEX
  8
T45SSILL
 62
8
 10
3779.275
 20
-7009.956
 30
685.947
 70
    32
  0
VERTEX
  8
T45SSILL
 62
8
 10
3721.617
 20
-6999.144
 30
685.954
 70
    32
  0
VERTEX
  8
T45SSILL
 62
8
 10
3777.739
 20
-7075.449
 30
685.931
 70
    32
  0
VERTEX
  8
T45SSILL
 62
8
 10
3781.152
 20
-7078.303
 30
685.928
 70
    32
  0
VERTEX
  8
T45SSILL
 62
8
 10
3790.506
 20
-7081.495
 30
685.923
 70
    32
  0
VERTEX
  8
T45SSILL
 62
8
 10
3799.407
 20
-7082.284
 30
685.918
 70
    32
  0
VERTEX
  8
T45SSILL
 62
8
 10
3806.397
 20
-7079.880
 30
685.916
 70
    32
  0
VERTEX
  8
T45SSILL
 62
8
 10
3831.586
 20
-7061.135
 30
685.910
 70
    32
  0
VERTEX
  8
T45SSILL
 62
8
 10
3829.358
 20
-7048.431
 30
685.915
 70
    32
  0
VERTEX
  8
T45SSILL
 62
8
 10
3831.249
 20
-7044.303
 30
685.915
 70
    32
  0
VERTEX
  8
T45SSILL
 62
8
 10
3834.772
 20
-7020.364
 30
685.921
 70
    32
  0
VERTEX
  8
T45SSILL
 62
8
 10
3784.144
 20
-7010.869
 30
685.946
 70
    32
  0
VERTEX
  8
T45SSILL
 62
8
 10
3784.333
 20
-7014.468
 30
685.947
 70
    32
  0
SEQEND
  8
T45SSILL
  0
POLYLINE
  8
T45SSILL
 62
8
 66
     1
 70
     9
  0
VERTEX
  8
T45SSILL
 62
8
 10
3765.920
 20
-6894.122
 30
685.916
 70
    32
  0
VERTEX
  8
T45SSILL
 62
8
 10
3755.565
 20
-6902.893
 30
685.920
 70
    32
  0
VERTEX
  8
T45SSILL
 62
8
 10
3751.601
 20
-6897.661
 30
685.919
 70
    32
  0
VERTEX
  8
T45SSILL
 62
8
 10
3737.681
 20
-6908.103
 30
685.925
 70
    32
  0
VERTEX
  8
T45SSILL
 62
8
 10
3734.791
 20
-6903.183
 30
685.924
 70
    32
  0
VERTEX
  8
T45SSILL
 62
8
 10
3758.781
 20
-6884.475
 30
685.914
 70
    32
  0
VERTEX
  8
T45SSILL
 62
8
 10
3721.344
 20
-6832.057
 30
685.906
 70
    32
  0
VERTEX
  8
T45SSILL
 62
8
 10
3717.830
 20
-6824.898
 30
685.905
 70
    32
  0
VERTEX
  8
T45SSILL
 62
8
 10
3717.027
 20
-6816.511
 30
685.902
 70
    32
  0
VERTEX
  8
T45SSILL
 62
8
 10
3711.848
 20
-6815.722
 30
685.903
 70
    32
  0
VERTEX
  8
T45SSILL
 62
8
 10
3708.853
 20
-6830.406
 30
685.908
 70
    32
  0
VERTEX
  8
T45SSILL
 62
8
 10
3709.696
 20
-6832.742
 30
685.908
 70
    32
  0
VERTEX
  8
T45SSILL
 62
8
 10
3716.392
 20
-6837.232
 30
685.908
 70
    32
  0
VERTEX
  8
T45SSILL
 62
8
 10
3721.333
 20
-6844.546
 30
685.910
 70
    32
  0
VERTEX
  8
T45SSILL
 62
8
 10
3734.449
 20
-6871.904
 30
685.915
 70
    32
  0
VERTEX
  8
T45SSILL
 62
8
 10
3734.649
 20
-6882.596
 30
685.918
 70
    32
  0
VERTEX
  8
T45SSILL
 62
8
 10
3724.640
 20
-6900.248
 30
685.925
 70
    32
  0
VERTEX
  8
T45SSILL
 62
8
 10
3724.103
 20
-6912.467
 30
685.929
 70
    32
  0
VERTEX
  8
T45SSILL
 62
8
 10
3721.731
 20
-6915.197
 30
685.930
 70
    32
  0
VERTEX
  8
T45SSILL
 62
8
 10
3714.323
 20
-6917.033
 30
685.932
 70
    32
  0
VERTEX
  8
T45SSILL
 62
8
 10
3704.733
 20
-6922.006
 30
685.935
 70
    32
  0
VERTEX
  8
T45SSILL
 62
8
 10
3694.823
 20
-6934.878
 30
685.940
 70
    32
  0
VERTEX
  8
T45SSILL
 62
8
 10
3690.492
 20
-6947.150
 30
685.945
 70
    32
  0
VERTEX
  8
T45SSILL
 62
8
 10
3689.419
 20
-6952.538
 30
685.946
 70
    32
  0
VERTEX
  8
T45SSILL
 62
8
 10
3710.183
 20
-6980.621
 30
685.951
 70
    32
  0
VERTEX
  8
T45SSILL
 62
8
 10
3715.605
 20
-6985.611
 30
685.951
 70
    32
  0
VERTEX
  8
T45SSILL
 62
8
 10
3727.938
 20
-6992.852
 30
685.951
 70
    32
  0
VERTEX
  8
T45SSILL
 62
8
 10
3821.926
 20
-7009.448
 30
685.931
 70
    32
  0
VERTEX
  8
T45SSILL
 62
8
 10
3835.483
 20
-7009.664
 30
685.924
 70
    32
  0
VERTEX
  8
T45SSILL
 62
8
 10
3833.990
 20
-7000.247
 30
685.928
 70
    32
  0
VERTEX
  8
T45SSILL
 62
8
 10
3827.706
 20
-6989.322
 30
685.932
 70
    32
  0
VERTEX
  8
T45SSILL
 62
8
 10
3825.278
 20
-6979.174
 30
685.930
 70
    32
  0
VERTEX
  8
T45SSILL
 62
8
 10
3818.951
 20
-6971.019
 30
685.928
 70
    32
  0
VERTEX
  8
T45SSILL
 62
8
 10
3815.847
 20
-6961.588
 30
685.926
 70
    32
  0
SEQEND
  8
T45SSILL
  0
POLYLINE
  8
T45SSILL
 62
8
 66
     1
 70
     9
  0
VERTEX
  8
T45SSILL
 62
8
 10
3402.158
 20
-7135.381
 30
687.249
 70
    32
  0
VERTEX
  8
T45SSILL
 62
8
 10
3404.895
 20
-7128.858
 30
687.235
 70
    32
  0
VERTEX
  8
T45SSILL
 62
8
 10
3401.998
 20
-7118.136
 30
687.237
 70
    32
  0
VERTEX
  8
T45SSILL
 62
8
 10
3376.373
 20
-7047.834
 30
687.275
 70
    32
  0
VERTEX
  8
T45SSILL
 62
8
 10
3226.089
 20
-7153.400
 30
687.890
 70
    32
  0
VERTEX
  8
T45SSILL
 62
8
 10
3219.487
 20
-7162.868
 30
687.920
 70
    32
  0
VERTEX
  8
T45SSILL
 62
8
 10
3218.042
 20
-7168.809
 30
687.930
 70
    32
  0
VERTEX
  8
T45SSILL
 62
8
 10
3220.675
 20
-7186.353
 30
687.934
 70
    32
  0
VERTEX
  8
T45SSILL
 62
8
 10
3267.074
 20
-7248.740
 30
687.816
 70
    32
  0
VERTEX
  8
T45SSILL
 62
8
 10
3269.106
 20
-7236.721
 30
687.799
 70
    32
  0
VERTEX
  8
T45SSILL
 62
8
 10
3273.565
 20
-7229.243
 30
687.778
 70
    32
  0
VERTEX
  8
T45SSILL
 62
8
 10
3279.925
 20
-7222.885
 30
687.751
 70
    32
  0
VERTEX
  8
T45SSILL
 62
8
 10
3306.603
 20
-7203.943
 30
687.641
 70
    32
  0
VERTEX
  8
T45SSILL
 62
8
 10
3298.380
 20
-7190.676
 30
687.661
 70
    32
  0
VERTEX
  8
T45SSILL
 62
8
 10
3280.183
 20
-7183.132
 30
687.720
 70
    32
  0
VERTEX
  8
T45SSILL
 62
8
 10
3280.052
 20
-7176.815
 30
687.715
 70
    32
  0
VERTEX
  8
T45SSILL
 62
8
 10
3281.643
 20
-7175.115
 30
687.708
 70
    32
  0
VERTEX
  8
T45SSILL
 62
8
 10
3299.434
 20
-7160.998
 30
687.634
 70
    32
  0
VERTEX
  8
T45SSILL
 62
8
 10
3313.589
 20
-7179.739
 30
687.598
 70
    32
  0
VERTEX
  8
T45SSILL
 62
8
 10
3321.395
 20
-7186.895
 30
687.576
 70
    32
  0
VERTEX
  8
T45SSILL
 62
8
 10
3330.531
 20
-7187.651
 30
687.544
 70
    32
  0
VERTEX
  8
T45SSILL
 62
8
 10
3355.204
 20
-7169.840
 30
687.443
 70
    32
  0
VERTEX
  8
T45SSILL
 62
8
 10
3359.612
 20
-7162.291
 30
687.421
 70
    32
  0
VERTEX
  8
T45SSILL
 62
8
 10
3358.159
 20
-7159.542
 30
687.424
 70
    32
  0
VERTEX
  8
T45SSILL
 62
8
 10
3376.920
 20
-7144.068
 30
687.346
 70
    32
  0
VERTEX
  8
T45SSILL
 62
8
 10
3379.472
 20
-7147.432
 30
687.339
 70
    32
  0
VERTEX
  8
T45SSILL
 62
8
 10
3381.962
 20
-7145.623
 30
687.329
 70
    32
  0
VERTEX
  8
T45SSILL
 62
8
 10
3386.836
 20
-7147.844
 30
687.313
 70
    32
  0
VERTEX
  8
T45SSILL
 62
8
 10
3398.638
 20
-7138.925
 30
687.265
 70
    32
  0
SEQEND
  8
T45SSILL
  0
POLYLINE
  8
T45SSILL
 62
3
 66
     1
 70
     9
  0
VERTEX
  8
T45SSILL
 62
3
 10
704.041
 20
-7011.985
 30
693.018
 70
    32
  0
VERTEX
  8
T45SSILL
 62
3
 10
707.183
 20
-6991.983
 30
692.870
 70
    32
  0
VERTEX
  8
T45SSILL
 62
3
 10
717.696
 20
-6994.423
 30
692.889
 70
    32
  0
VERTEX
  8
T45SSILL
 62
3
 10
714.821
 20
-7015.527
 30
693.046
 70
    32
  0
SEQEND
  8
T45SSILL
  0
POLYLINE
  8
T45SSILL
 62
3
 66
     1
 70
     9
  0
VERTEX
  8
T45SSILL
 62
3
 10
602.681
 20
-6953.898
 30
692.568
 70
    32
  0
VERTEX
  8
T45SSILL
 62
3
 10
609.202
 20
-6941.317
 30
692.482
 70
    32
  0
VERTEX
  8
T45SSILL
 62
3
 10
612.472
 20
-6938.015
 30
692.457
 70
    32
  0
VERTEX
  8
T45SSILL
 62
3
 10
622.337
 20
-6944.048
 30
692.503
 70
    32
  0
VERTEX
  8
T45SSILL
 62
3
 10
615.667
 20
-6952.314
 30
692.564
 70
    32
  0
VERTEX
  8
T45SSILL
 62
3
 10
612.280
 20
-6961.686
 30
692.630
 70
    32
  0
SEQEND
  8
T45SSILL
  0
POLYLINE
  8
T45SSILL
 62
3
 66
     1
 70
     9
  0
VERTEX
  8
T45SSILL
 62
3
 10
448.181
 20
-6760.538
 30
691.244
 70
    32
  0
VERTEX
  8
T45SSILL
 62
3
 10
458.672
 20
-6739.600
 30
691.307
 70
    32
  0
VERTEX
  8
T45SSILL
 62
3
 10
472.459
 20
-6737.861
 30
691.317
 70
    32
  0
VERTEX
  8
T45SSILL
 62
3
 10
458.223
 20
-6766.413
 30
691.231
 70
    32
  0
SEQEND
  8
T45SSILL
  0
POLYLINE
  8
T45SSILL
 62
3
 66
     1
 70
     9
  0
VERTEX
  8
T45SSILL
 62
3
 10
435.448
 20
-6768.066
 30
691.218
 70
    32
  0
VERTEX
  8
T45SSILL
 62
3
 10
429.676
 20
-6758.644
 30
691.243
 70
    32
  0
VERTEX
  8
T45SSILL
 62
3
 10
420.160
 20
-6750.006
 30
691.264
 70
    32
  0
VERTEX
  8
T45SSILL
 62
3
 10
426.912
 20
-6742.448
 30
691.288
 70
    32
  0
VERTEX
  8
T45SSILL
 62
3
 10
442.444
 20
-6758.420
 30
691.248
 70
    32
  0
SEQEND
  8
T45SSILL
  0
POLYLINE
  8
T45SSILL
 62
3
 66
     1
 70
     9
  0
VERTEX
  8
T45SSILL
 62
3
 10
575.818
 20
-7143.523
 30
695.595
 70
    32
  0
VERTEX
  8
T45SSILL
 62
3
 10
561.458
 20
-7158.613
 30
695.450
 70
    32
  0
VERTEX
  8
T45SSILL
 62
3
 10
567.960
 20
-7166.874
 30
695.508
 70
    32
  0
VERTEX
  8
T45SSILL
 62
3
 10
584.227
 20
-7149.837
 30
695.672
 70
    32
  0
SEQEND
  8
T45SSILL
  0
TEXT
  8
T45SSILL
 62
8
 10
3489.688
 20
-6013.597
 30
696.508
 40
0.200
  1
4550
 41
 1.0 
  0
TEXT
  8
T45SSILL
 62
3
 10
471.793
 20
-6766.689
 30
694.802
 40
0.200
  1
D
 41
 1.0 
  0
TEXT
  8
T45SSILL
 62
3
 10
437.753
 20
-6750.201
 30
703.496
 40
0.200
  1
D
 41
 1.0 
  0
TEXT
  8
T45SSILL
 62
3
 10
589.116
 20
-6947.513
 30
704.253
 40
0.200
  1
D
 41
 1.0 
  0
TEXT
  8
T45SSILL
 62
3
 10
694.676
 20
-7003.714
 30
706.593
 40
0.200
  1
U
 50
81.073
 41
 1.0 
  0
TEXT
  8
T45SSILL
 62
3
 10
556.563
 20
-7148.448
 30
701.083
 40
0.200
  1
D
 41
 1.0 
  0
TEXT
  8
T45SSILL
 62
8
 10
-1116.075
 20
-7754.004
 30
704.027
 40
0.200
  1
4550
 41
 1.0 
  0
POLYLINE
  8
T45SSILL
 62
8
 66
     1
 70
     9
  0
VERTEX
  8
T45SSILL
 62
8
 10
566.704
 20
-6984.504
 30
692.736
 70
    32
  0
VERTEX
  8
T45SSILL
 62
8
 10
580.462
 20
-6984.170
 30
692.747
 70
    32
  0
VERTEX
  8
T45SSILL
 62
8
 10
587.621
 20
-6986.799
 30
692.772
 70
    32
  0
VERTEX
  8
T45SSILL
 62
8
 10
626.291
 20
-7031.656
 30
693.110
 70
    32
  0
VERTEX
  8
T45SSILL
 62
8
 10
629.846
 20
-7039.579
 30
693.285
 70
    32
  0
VERTEX
  8
T45SSILL
 62
8
 10
638.958
 20
-7049.614
 30
693.603
 70
    32
  0
VERTEX
  8
T45SSILL
 62
8
 10
678.060
 20
-7055.154
 30
693.561
 70
    32
  0
VERTEX
  8
T45SSILL
 62
8
 10
679.307
 20
-7058.356
 30
693.673
 70
    32
  0
VERTEX
  8
T45SSILL
 62
8
 10
678.231
 20
-7069.459
 30
694.096
 70
    32
  0
VERTEX
  8
T45SSILL
 62
8
 10
666.794
 20
-7071.605
 30
694.250
 70
    32
  0
VERTEX
  8
T45SSILL
 62
8
 10
660.097
 20
-7064.704
 30
694.034
 70
    32
  0
VERTEX
  8
T45SSILL
 62
8
 10
654.849
 20
-7064.063
 30
694.043
 70
    32
  0
VERTEX
  8
T45SSILL
 62
8
 10
611.388
 20
-7107.583
 30
695.954
 70
    32
  0
VERTEX
  8
T45SSILL
 62
8
 10
575.818
 20
-7143.523
 30
695.595
 70
    32
  0
VERTEX
  8
T45SSILL
 62
8
 10
584.227
 20
-7149.837
 30
695.672
 70
    32
  0
VERTEX
  8
T45SSILL
 62
8
 10
643.386
 20
-7091.643
 30
695.151
 70
    32
  0
VERTEX
  8
T45SSILL
 62
8
 10
658.345
 20
-7088.877
 30
694.952
 70
    32
  0
VERTEX
  8
T45SSILL
 62
8
 10
656.499
 20
-7094.853
 30
695.188
 70
    32
  0
VERTEX
  8
T45SSILL
 62
8
 10
663.529
 20
-7101.309
 30
695.385
 70
    32
  0
VERTEX
  8
T45SSILL
 62
8
 10
698.189
 20
-7066.972
 30
693.652
 70
    32
  0
VERTEX
  8
T45SSILL
 62
8
 10
706.662
 20
-7061.004
 30
693.172
 70
    32
  0
VERTEX
  8
T45SSILL
 62
8
 10
714.034
 20
-7060.920
 30
693.018
 70
    32
  0
VERTEX
  8
T45SSILL
 62
8
 10
720.963
 20
-7068.091
 30
693.156
 70
    32
  0
VERTEX
  8
T45SSILL
 62
8
 10
718.659
 20
-7080.044
 30
693.670
 70
    32
  0
VERTEX
  8
T45SSILL
 62
8
 10
679.130
 20
-7135.903
 30
696.582
 70
    32
  0
VERTEX
  8
T45SSILL
 62
8
 10
673.826
 20
-7151.853
 30
696.525
 70
    32
  0
VERTEX
  8
T45SSILL
 62
8
 10
673.987
 20
-7166.906
 30
696.517
 70
    32
  0
VERTEX
  8
T45SSILL
 62
8
 10
676.299
 20
-7180.899
 30
696.363
 70
    32
  0
VERTEX
  8
T45SSILL
 62
8
 10
695.006
 20
-7199.141
 30
695.430
 70
    32
  0
VERTEX
  8
T45SSILL
 62
8
 10
655.680
 20
-7275.774
 30
695.753
 70
    32
  0
VERTEX
  8
T45SSILL
 62
8
 10
663.902
 20
-7280.766
 30
695.610
 70
    32
  0
VERTEX
  8
T45SSILL
 62
8
 10
680.700
 20
-7248.035
 30
695.703
 70
    32
  0
VERTEX
  8
T45SSILL
 62
8
 10
684.862
 20
-7247.724
 30
695.656
 70
    32
  0
VERTEX
  8
T45SSILL
 62
8
 10
690.173
 20
-7252.171
 30
695.545
 70
    32
  0
VERTEX
  8
T45SSILL
 62
8
 10
691.814
 20
-7258.725
 30
695.299
 70
    32
  0
VERTEX
  8
T45SSILL
 62
8
 10
693.136
 20
-7266.672
 30
695.091
 70
    32
  0
VERTEX
  8
T45SSILL
 62
8
 10
690.741
 20
-7282.843
 30
695.268
 70
    32
  0
VERTEX
  8
T45SSILL
 62
8
 10
692.415
 20
-7285.423
 30
695.121
 70
    32
  0
VERTEX
  8
T45SSILL
 62
8
 10
687.037
 20
-7300.984
 30
695.149
 70
    32
  0
VERTEX
  8
T45SSILL
 62
8
 10
680.333
 20
-7311.376
 30
695.136
 70
    32
  0
VERTEX
  8
T45SSILL
 62
8
 10
660.794
 20
-7332.868
 30
695.176
 70
    32
  0
VERTEX
  8
T45SSILL
 62
8
 10
648.963
 20
-7330.573
 30
695.339
 70
    32
  0
VERTEX
  8
T45SSILL
 62
8
 10
637.566
 20
-7311.432
 30
695.649
 70
    32
  0
VERTEX
  8
T45SSILL
 62
8
 10
620.090
 20
-7324.776
 30
695.738
 70
    32
  0
VERTEX
  8
T45SSILL
 62
8
 10
635.355
 20
-7339.005
 30
695.426
 70
    32
  0
VERTEX
  8
T45SSILL
 62
8
 10
641.035
 20
-7349.708
 30
695.261
 70
    32
  0
VERTEX
  8
T45SSILL
 62
8
 10
640.360
 20
-7351.669
 30
695.252
 70
    32
  0
VERTEX
  8
T45SSILL
 62
8
 10
613.115
 20
-7365.243
 30
695.457
 70
    32
  0
VERTEX
  8
T45SSILL
 62
8
 10
620.040
 20
-7376.049
 30
695.276
 70
    32
  0
VERTEX
  8
T45SSILL
 62
8
 10
628.834
 20
-7372.861
 30
695.199
 70
    32
  0
VERTEX
  8
T45SSILL
 62
8
 10
637.309
 20
-7367.972
 30
695.141
 70
    32
  0
VERTEX
  8
T45SSILL
 62
8
 10
640.492
 20
-7364.387
 30
695.135
 70
    32
  0
VERTEX
  8
T45SSILL
 62
8
 10
654.016
 20
-7364.340
 30
695.025
 70
    32
  0
VERTEX
  8
T45SSILL
 62
8
 10
658.937
 20
-7361.263
 30
695.018
 70
    32
  0
VERTEX
  8
T45SSILL
 62
8
 10
660.788
 20
-7349.097
 30
695.038
 70
    32
  0
VERTEX
  8
T45SSILL
 62
8
 10
662.682
 20
-7345.655
 30
695.040
 70
    32
  0
VERTEX
  8
T45SSILL
 62
8
 10
679.304
 20
-7327.671
 30
695.031
 70
    32
  0
VERTEX
  8
T45SSILL
 62
8
 10
684.057
 20
-7326.205
 30
695.021
 70
    32
  0
VERTEX
  8
T45SSILL
 62
8
 10
703.154
 20
-7298.506
 30
694.927
 70
    32
  0
VERTEX
  8
T45SSILL
 62
8
 10
706.204
 20
-7298.750
 30
694.919
 70
    32
  0
VERTEX
  8
T45SSILL
 62
8
 10
731.788
 20
-7351.437
 30
694.843
 70
    32
  0
VERTEX
  8
T45SSILL
 62
8
 10
740.874
 20
-7346.660
 30
694.828
 70
    32
  0
VERTEX
  8
T45SSILL
 62
8
 10
713.247
 20
-7288.231
 30
694.785
 70
    32
  0
VERTEX
  8
T45SSILL
 62
8
 10
709.794
 20
-7270.546
 30
694.264
 70
    32
  0
VERTEX
  8
T45SSILL
 62
8
 10
708.703
 20
-7267.883
 30
694.166
 70
    32
  0
VERTEX
  8
T45SSILL
 62
8
 10
704.562
 20
-7264.977
 30
694.141
 70
    32
  0
VERTEX
  8
T45SSILL
 62
8
 10
698.706
 20
-7244.894
 30
694.597
 70
    32
  0
VERTEX
  8
T45SSILL
 62
8
 10
695.489
 20
-7225.231
 30
694.990
 70
    32
  0
VERTEX
  8
T45SSILL
 62
8
 10
704.538
 20
-7207.564
 30
695.087
 70
    32
  0
VERTEX
  8
T45SSILL
 62
8
 10
740.428
 20
-7245.025
 30
694.090
 70
    32
  0
VERTEX
  8
T45SSILL
 62
8
 10
747.938
 20
-7246.780
 30
694.232
 70
    32
  0
VERTEX
  8
T45SSILL
 62
8
 10
765.151
 20
-7242.798
 30
694.132
 70
    32
  0
VERTEX
  8
T45SSILL
 62
8
 10
804.001
 20
-7246.192
 30
694.037
 70
    32
  0
VERTEX
  8
T45SSILL
 62
8
 10
804.391
 20
-7237.170
 30
693.941
 70
    32
  0
VERTEX
  8
T45SSILL
 62
8
 10
811.435
 20
-7226.651
 30
693.807
 70
    32
  0
VERTEX
  8
T45SSILL
 62
8
 10
831.558
 20
-7215.750
 30
693.624
 70
    32
  0
VERTEX
  8
T45SSILL
 62
8
 10
837.422
 20
-7210.635
 30
693.551
 70
    32
  0
VERTEX
  8
T45SSILL
 62
8
 10
842.338
 20
-7199.663
 30
693.419
 70
    32
  0
VERTEX
  8
T45SSILL
 62
8
 10
854.782
 20
-7193.102
 30
693.308
 70
    32
  0
VERTEX
  8
T45SSILL
 62
8
 10
861.496
 20
-7175.765
 30
693.103
 70
    32
  0
VERTEX
  8
T45SSILL
 62
8
 10
868.121
 20
-7186.137
 30
693.190
 70
    32
  0
VERTEX
  8
T45SSILL
 62
8
 10
866.284
 20
-7188.579
 30
693.221
 70
    32
  0
VERTEX
  8
T45SSILL
 62
8
 10
866.719
 20
-7191.374
 30
693.249
 70
    32
  0
VERTEX
  8
T45SSILL
 62
8
 10
868.406
 20
-7193.199
 30
693.263
 70
    32
  0
VERTEX
  8
T45SSILL
 62
8
 10
872.840
 20
-7193.128
 30
693.247
 70
    32
  0
VERTEX
  8
T45SSILL
 62
8
 10
893.128
 20
-7227.160
 30
693.537
 70
    32
  0
VERTEX
  8
T45SSILL
 62
8
 10
890.667
 20
-7230.246
 30
693.577
 70
    32
  0
VERTEX
  8
T45SSILL
 62
8
 10
891.980
 20
-7233.076
 30
693.603
 70
    32
  0
VERTEX
  8
T45SSILL
 62
8
 10
893.961
 20
-7235.018
 30
693.617
 70
    32
  0
VERTEX
  8
T45SSILL
 62
8
 10
898.579
 20
-7234.286
 30
693.593
 70
    32
  0
VERTEX
  8
T45SSILL
 62
8
 10
918.809
 20
-7266.224
 30
693.861
 70
    32
  0
VERTEX
  8
T45SSILL
 62
8
 10
917.032
 20
-7269.371
 30
693.900
 70
    32
  0
VERTEX
  8
T45SSILL
 62
8
 10
919.458
 20
-7274.742
 30
693.948
 70
    32
  0
VERTEX
  8
T45SSILL
 62
8
 10
924.309
 20
-7274.810
 30
693.933
 70
    32
  0
VERTEX
  8
T45SSILL
 62
8
 10
948.172
 20
-7314.488
 30
694.270
 70
    32
  0
VERTEX
  8
T45SSILL
 62
8
 10
944.595
 20
-7317.811
 30
694.317
 70
    32
  0
VERTEX
  8
T45SSILL
 62
8
 10
946.606
 20
-7321.653
 30
694.327
 70
    32
  0
VERTEX
  8
T45SSILL
 62
8
 10
952.214
 20
-7320.344
 30
694.315
 70
    32
  0
VERTEX
  8
T45SSILL
 62
8
 10
972.617
 20
-7355.471
 30
694.189
 70
    32
  0
VERTEX
  8
T45SSILL
 62
8
 10
969.801
 20
-7359.123
 30
694.190
 70
    32
  0
VERTEX
  8
T45SSILL
 62
8
 10
972.167
 20
-7363.789
 30
694.174
 70
    32
  0
VERTEX
  8
T45SSILL
 62
8
 10
977.441
 20
-7362.924
 30
694.162
 70
    32
  0
VERTEX
  8
T45SSILL
 62
8
 10
998.901
 20
-7397.108
 30
694.035
 70
    32
  0
VERTEX
  8
T45SSILL
 62
8
 10
996.108
 20
-7403.733
 30
694.029
 70
    32
  0
VERTEX
  8
T45SSILL
 62
8
 10
997.760
 20
-7406.435
 30
694.019
 70
    32
  0
VERTEX
  8
T45SSILL
 62
8
 10
1003.634
 20
-7405.049
 30
694.006
 70
    32
  0
VERTEX
  8
T45SSILL
 62
8
 10
1011.650
 20
-7418.518
 30
693.958
 70
    32
  0
VERTEX
  8
T45SSILL
 62
8
 10
1019.618
 20
-7413.978
 30
693.946
 70
    32
  0
VERTEX
  8
T45SSILL
 62
8
 10
1009.698
 20
-7400.224
 30
694.000
 70
    32
  0
VERTEX
  8
T45SSILL
 62
8
 10
1012.883
 20
-7395.250
 30
694.001
 70
    32
  0
VERTEX
  8
T45SSILL
 62
8
 10
1011.076
 20
-7392.014
 30
694.013
 70
    32
  0
VERTEX
  8
T45SSILL
 62
8
 10
1007.385
 20
-7392.853
 30
694.021
 70
    32
  0
VERTEX
  8
T45SSILL
 62
8
 10
985.721
 20
-7358.063
 30
694.149
 70
    32
  0
VERTEX
  8
T45SSILL
 62
8
 10
987.021
 20
-7354.069
 30
694.154
 70
    32
  0
VERTEX
  8
T45SSILL
 62
8
 10
983.992
 20
-7350.609
 30
694.169
 70
    32
  0
VERTEX
  8
T45SSILL
 62
8
 10
981.214
 20
-7350.605
 30
694.176
 70
    32
  0
VERTEX
  8
T45SSILL
 62
8
 10
959.501
 20
-7314.353
 30
694.230
 70
    32
  0
VERTEX
  8
T45SSILL
 62
8
 10
961.318
 20
-7310.644
 30
694.185
 70
    32
  0
VERTEX
  8
T45SSILL
 62
8
 10
958.461
 20
-7307.279
 30
694.159
 70
    32
  0
VERTEX
  8
T45SSILL
 62
8
 10
955.182
 20
-7307.941
 30
694.177
 70
    32
  0
VERTEX
  8
T45SSILL
 62
8
 10
931.189
 20
-7269.314
 30
693.852
 70
    32
  0
VERTEX
  8
T45SSILL
 62
8
 10
934.278
 20
-7265.901
 30
693.805
 70
    32
  0
VERTEX
  8
T45SSILL
 62
8
 10
932.798
 20
-7263.293
 30
693.783
 70
    32
  0
VERTEX
  8
T45SSILL
 62
8
 10
931.234
 20
-7261.490
 30
693.769
 70
    32
  0
VERTEX
  8
T45SSILL
 62
8
 10
926.421
 20
-7262.250
 30
693.794
 70
    32
  0
VERTEX
  8
T45SSILL
 62
8
 10
906.038
 20
-7228.390
 30
693.506
 70
    32
  0
VERTEX
  8
T45SSILL
 62
8
 10
908.703
 20
-7225.910
 30
693.471
 70
    32
  0
VERTEX
  8
T45SSILL
 62
8
 10
905.392
 20
-7221.577
 30
693.437
 70
    32
  0
VERTEX
  8
T45SSILL
 62
8
 10
901.046
 20
-7222.549
 30
693.462
 70
    32
  0
VERTEX
  8
T45SSILL
 62
8
 10
879.509
 20
-7188.097
 30
693.172
 70
    32
  0
VERTEX
  8
T45SSILL
 62
8
 10
883.133
 20
-7183.141
 30
693.107
 70
    32
  0
VERTEX
  8
T45SSILL
 62
8
 10
880.610
 20
-7179.331
 30
693.076
 70
    32
  0
VERTEX
  8
T45SSILL
 62
8
 10
874.548
 20
-7179.673
 30
693.100
 70
    32
  0
VERTEX
  8
T45SSILL
 62
8
 10
852.744
 20
-7140.815
 30
692.765
 70
    32
  0
VERTEX
  8
T45SSILL
 62
8
 10
852.148
 20
-7126.496
 30
692.616
 70
    32
  0
VERTEX
  8
T45SSILL
 62
8
 10
875.489
 20
-7040.146
 30
692.761
 70
    32
  0
VERTEX
  8
T45SSILL
 62
8
 10
879.343
 20
-7032.766
 30
692.778
 70
    32
  0
VERTEX
  8
T45SSILL
 62
8
 10
960.472
 20
-6975.149
 30
692.729
 70
    32
  0
VERTEX
  8
T45SSILL
 62
8
 10
968.919
 20
-6974.552
 30
692.668
 70
    32
  0
VERTEX
  8
T45SSILL
 62
8
 10
971.285
 20
-6966.641
 30
692.706
 70
    32
  0
VERTEX
  8
T45SSILL
 62
8
 10
1110.299
 20
-6868.290
 30
692.521
 70
    32
  0
VERTEX
  8
T45SSILL
 62
8
 10
1114.366
 20
-6872.564
 30
692.470
 70
    32
  0
VERTEX
  8
T45SSILL
 62
8
 10
1120.026
 20
-6875.055
 30
692.453
 70
    32
  0
VERTEX
  8
T45SSILL
 62
8
 10
1131.065
 20
-6864.689
 30
692.450
 70
    32
  0
VERTEX
  8
T45SSILL
 62
8
 10
1154.623
 20
-6836.248
 30
692.453
 70
    32
  0
VERTEX
  8
T45SSILL
 62
8
 10
1303.725
 20
-6728.975
 30
692.048
 70
    32
  0
VERTEX
  8
T45SSILL
 62
8
 10
1311.508
 20
-6726.845
 30
692.039
 70
    32
  0
VERTEX
  8
T45SSILL
 62
8
 10
1315.452
 20
-6720.828
 30
692.046
 70
    32
  0
VERTEX
  8
T45SSILL
 62
8
 10
1404.570
 20
-6657.268
 30
691.984
 70
    32
  0
VERTEX
  8
T45SSILL
 62
8
 10
1414.022
 20
-6661.089
 30
691.960
 70
    32
  0
VERTEX
  8
T45SSILL
 62
8
 10
1476.889
 20
-6614.791
 30
691.923
 70
    32
  0
VERTEX
  8
T45SSILL
 62
8
 10
1494.897
 20
-6590.970
 30
691.936
 70
    32
  0
VERTEX
  8
T45SSILL
 62
8
 10
1636.947
 20
-6489.544
 30
691.991
 70
    32
  0
VERTEX
  8
T45SSILL
 62
8
 10
1633.626
 20
-6501.267
 30
691.962
 70
    32
  0
VERTEX
  8
T45SSILL
 62
8
 10
1632.576
 20
-6518.163
 30
691.913
 70
    32
  0
VERTEX
  8
T45SSILL
 62
8
 10
1637.918
 20
-6532.167
 30
691.862
 70
    32
  0
VERTEX
  8
T45SSILL
 62
8
 10
1807.856
 20
-6748.024
 30
691.065
 70
    32
  0
VERTEX
  8
T45SSILL
 62
8
 10
1814.692
 20
-6741.542
 30
691.060
 70
    32
  0
VERTEX
  8
T45SSILL
 62
8
 10
1647.077
 20
-6528.804
 30
691.857
 70
    32
  0
VERTEX
  8
T45SSILL
 62
8
 10
1642.915
 20
-6517.170
 30
691.899
 70
    32
  0
VERTEX
  8
T45SSILL
 62
8
 10
1643.628
 20
-6495.020
 30
691.964
 70
    32
  0
VERTEX
  8
T45SSILL
 62
8
 10
1649.603
 20
-6481.510
 30
691.994
 70
    32
  0
VERTEX
  8
T45SSILL
 62
8
 10
1653.863
 20
-6481.120
 30
691.988
 70
    32
  0
VERTEX
  8
T45SSILL
 62
8
 10
1653.873
 20
-6476.384
 30
692.002
 70
    32
  0
VERTEX
  8
T45SSILL
 62
8
 10
1783.021
 20
-6381.793
 30
691.903
 70
    32
  0
VERTEX
  8
T45SSILL
 62
8
 10
1786.682
 20
-6379.812
 30
691.888
 70
    32
  0
VERTEX
  8
T45SSILL
 62
8
 10
1802.903
 20
-6378.394
 30
691.832
 70
    32
  0
VERTEX
  8
T45SSILL
 62
8
 10
1820.509
 20
-6361.905
 30
691.751
 70
    32
  0
VERTEX
  8
T45SSILL
 62
8
 10
1825.353
 20
-6354.255
 30
691.725
 70
    32
  0
VERTEX
  8
T45SSILL
 62
8
 10
1825.182
 20
-6351.690
 30
691.722
 70
    32
  0
VERTEX
  8
T45SSILL
 62
8
 10
1933.171
 20
-6273.580
 30
691.614
 70
    32
  0
VERTEX
  8
T45SSILL
 62
8
 10
1940.393
 20
-6270.213
 30
691.617
 70
    32
  0
VERTEX
  8
T45SSILL
 62
8
 10
1941.147
 20
-6271.629
 30
691.614
 70
    32
  0
VERTEX
  8
T45SSILL
 62
8
 10
1952.545
 20
-6263.667
 30
691.624
 70
    32
  0
VERTEX
  8
T45SSILL
 62
8
 10
1950.892
 20
-6261.944
 30
691.628
 70
    32
  0
VERTEX
  8
T45SSILL
 62
8
 10
2111.038
 20
-6147.609
 30
691.431
 70
    32
  0
VERTEX
  8
T45SSILL
 62
8
 10
2128.192
 20
-6150.190
 30
691.365
 70
    32
  0
VERTEX
  8
T45SSILL
 62
8
 10
2154.102
 20
-6115.930
 30
691.093
 70
    32
  0
VERTEX
  8
T45SSILL
 62
8
 10
2471.500
 20
-5885.762
 30
690.489
 70
    32
  0
VERTEX
  8
T45SSILL
 62
8
 10
2481.898
 20
-5889.252
 30
690.417
 70
    32
  0
VERTEX
  8
T45SSILL
 62
8
 10
2487.307
 20
-5885.165
 30
690.425
 70
    32
  0
VERTEX
  8
T45SSILL
 62
8
 10
2511.305
 20
-5856.845
 30
690.535
 70
    32
  0
VERTEX
  8
T45SSILL
 62
8
 10
2670.763
 20
-5742.415
 30
689.865
 70
    32
  0
VERTEX
  8
T45SSILL
 62
8
 10
2674.741
 20
-5740.110
 30
689.851
 70
    32
  0
VERTEX
  8
T45SSILL
 62
8
 10
2679.764
 20
-5739.870
 30
689.827
 70
    32
  0
VERTEX
  8
T45SSILL
 62
8
 10
2686.059
 20
-5731.577
 30
689.802
 70
    32
  0
VERTEX
  8
T45SSILL
 62
8
 10
2698.903
 20
-5724.118
 30
689.757
 70
    32
  0
VERTEX
  8
T45SSILL
 62
8
 10
2713.611
 20
-5718.355
 30
689.716
 70
    32
  0
VERTEX
  8
T45SSILL
 62
8
 10
2736.536
 20
-5714.397
 30
689.549
 70
    32
  0
VERTEX
  8
T45SSILL
 62
8
 10
2752.364
 20
-5715.191
 30
689.381
 70
    32
  0
VERTEX
  8
T45SSILL
 62
8
 10
2779.146
 20
-5722.975
 30
689.117
 70
    32
  0
VERTEX
  8
T45SSILL
 62
8
 10
2793.477
 20
-5731.659
 30
688.990
 70
    32
  0
VERTEX
  8
T45SSILL
 62
8
 10
2813.308
 20
-5746.365
 30
688.822
 70
    32
  0
VERTEX
  8
T45SSILL
 62
8
 10
2817.077
 20
-5751.027
 30
688.796
 70
    32
  0
VERTEX
  8
T45SSILL
 62
8
 10
2924.368
 20
-5901.416
 30
688.237
 70
    32
  0
VERTEX
  8
T45SSILL
 62
8
 10
2910.216
 20
-5911.434
 30
688.345
 70
    32
  0
VERTEX
  8
T45SSILL
 62
8
 10
2908.187
 20
-5907.691
 30
688.353
 70
    32
  0
VERTEX
  8
T45SSILL
 62
8
 10
2901.030
 20
-5912.813
 30
688.408
 70
    32
  0
VERTEX
  8
T45SSILL
 62
8
 10
2908.128
 20
-5922.127
 30
688.329
 70
    32
  0
VERTEX
  8
T45SSILL
 62
8
 10
2928.169
 20
-5907.029
 30
688.220
 70
    32
  0
VERTEX
  8
T45SSILL
 62
8
 10
2966.582
 20
-5960.710
 30
688.113
 70
    32
  0
VERTEX
  8
T45SSILL
 62
8
 10
2966.606
 20
-5965.130
 30
688.123
 70
    32
  0
VERTEX
  8
T45SSILL
 62
8
 10
2970.935
 20
-5966.037
 30
688.107
 70
    32
  0
VERTEX
  8
T45SSILL
 62
8
 10
3525.886
 20
-6738.679
 30
685.914
 70
    32
  0
VERTEX
  8
T45SSILL
 62
8
 10
3525.368
 20
-6750.775
 30
685.949
 70
    32
  0
VERTEX
  8
T45SSILL
 62
8
 10
3534.723
 20
-6761.411
 30
685.919
 70
    32
  0
VERTEX
  8
T45SSILL
 62
8
 10
3528.899
 20
-6767.337
 30
685.979
 70
    32
  0
VERTEX
  8
T45SSILL
 62
8
 10
3534.568
 20
-6776.086
 30
685.957
 70
    32
  0
VERTEX
  8
T45SSILL
 62
8
 10
3539.417
 20
-6778.213
 30
685.923
 70
    32
  0
VERTEX
  8
T45SSILL
 62
8
 10
3544.280
 20
-6776.935
 30
685.922
 70
    32
  0
VERTEX
  8
T45SSILL
 62
8
 10
3548.878
 20
-6783.188
 30
685.923
 70
    32
  0
VERTEX
  8
T45SSILL
 62
8
 10
3560.530
 20
-6787.865
 30
685.922
 70
    32
  0
VERTEX
  8
T45SSILL
 62
8
 10
3613.870
 20
-6861.728
 30
685.934
 70
    32
  0
VERTEX
  8
T45SSILL
 62
8
 10
3617.688
 20
-6879.721
 30
685.938
 70
    32
  0
VERTEX
  8
T45SSILL
 62
8
 10
3594.657
 20
-7013.039
 30
686.298
 70
    32
  0
VERTEX
  8
T45SSILL
 62
8
 10
3627.758
 20
-7179.956
 30
686.503
 70
    32
  0
VERTEX
  8
T45SSILL
 62
8
 10
3625.596
 20
-7199.939
 30
686.531
 70
    32
  0
VERTEX
  8
T45SSILL
 62
8
 10
3622.675
 20
-7206.686
 30
686.547
 70
    32
  0
VERTEX
  8
T45SSILL
 62
8
 10
3611.789
 20
-7220.167
 30
686.595
 70
    32
  0
VERTEX
  8
T45SSILL
 62
8
 10
3539.578
 20
-7272.764
 30
686.870
 70
    32
  0
VERTEX
  8
T45SSILL
 62
8
 10
3534.778
 20
-7266.845
 30
686.878
 70
    32
  0
VERTEX
  8
T45SSILL
 62
8
 10
3526.073
 20
-7273.467
 30
686.912
 70
    32
  0
VERTEX
  8
T45SSILL
 62
8
 10
3530.331
 20
-7279.482
 30
686.905
 70
    32
  0
VERTEX
  8
T45SSILL
 62
8
 10
3449.005
 20
-7338.188
 30
687.235
 70
    32
  0
VERTEX
  8
T45SSILL
 62
8
 10
3406.181
 20
-7363.793
 30
687.407
 70
    32
  0
VERTEX
  8
T45SSILL
 62
8
 10
3393.045
 20
-7369.203
 30
687.458
 70
    32
  0
VERTEX
  8
T45SSILL
 62
8
 10
3376.498
 20
-7369.917
 30
687.517
 70
    32
  0
VERTEX
  8
T45SSILL
 62
8
 10
3361.319
 20
-7365.181
 30
687.568
 70
    32
  0
VERTEX
  8
T45SSILL
 62
8
 10
3351.463
 20
-7358.644
 30
687.598
 70
    32
  0
VERTEX
  8
T45SSILL
 62
8
 10
3344.956
 20
-7351.631
 30
687.616
 70
    32
  0
VERTEX
  8
T45SSILL
 62
8
 10
3277.677
 20
-7261.692
 30
687.788
 70
    32
  0
VERTEX
  8
T45SSILL
 62
8
 10
3275.333
 20
-7256.220
 30
687.792
 70
    32
  0
VERTEX
  8
T45SSILL
 62
8
 10
3275.536
 20
-7241.834
 30
687.780
 70
    32
  0
VERTEX
  8
T45SSILL
 62
8
 10
3281.504
 20
-7231.194
 30
687.751
 70
    32
  0
VERTEX
  8
T45SSILL
 62
8
 10
3311.817
 20
-7210.374
 30
687.628
 70
    32
  0
VERTEX
  8
T45SSILL
 62
8
 10
3327.721
 20
-7224.040
 30
687.581
 70
    32
  0
VERTEX
  8
T45SSILL
 62
8
 10
3333.441
 20
-7227.277
 30
687.563
 70
    32
  0
VERTEX
  8
T45SSILL
 62
8
 10
3345.621
 20
-7230.278
 30
687.522
 70
    32
  0
VERTEX
  8
T45SSILL
 62
8
 10
3366.069
 20
-7247.057
 30
687.462
 70
    32
  0
VERTEX
  8
T45SSILL
 62
8
 10
3368.879
 20
-7241.647
 30
687.448
 70
    32
  0
VERTEX
  8
T45SSILL
 62
8
 10
3366.465
 20
-7235.031
 30
687.452
 70
    32
  0
VERTEX
  8
T45SSILL
 62
8
 10
3340.028
 20
-7210.754
 30
687.527
 70
    32
  0
VERTEX
  8
T45SSILL
 62
8
 10
3332.589
 20
-7195.722
 30
687.543
 70
    32
  0
VERTEX
  8
T45SSILL
 62
8
 10
3350.404
 20
-7182.239
 30
687.469
 70
    32
  0
VERTEX
  8
T45SSILL
 62
8
 10
3355.499
 20
-7182.669
 30
687.451
 70
    32
  0
VERTEX
  8
T45SSILL
 62
8
 10
3373.216
 20
-7192.845
 30
687.396
 70
    32
  0
VERTEX
  8
T45SSILL
 62
8
 10
3382.584
 20
-7204.845
 30
687.371
 70
    32
  0
VERTEX
  8
T45SSILL
 62
8
 10
3376.342
 20
-7209.270
 30
687.397
 70
    32
  0
VERTEX
  8
T45SSILL
 62
8
 10
3381.872
 20
-7216.884
 30
687.383
 70
    32
  0
VERTEX
  8
T45SSILL
 62
8
 10
3387.829
 20
-7212.666
 30
687.359
 70
    32
  0
VERTEX
  8
T45SSILL
 62
8
 10
3394.451
 20
-7222.530
 30
687.342
 70
    32
  0
VERTEX
  8
T45SSILL
 62
8
 10
3401.585
 20
-7218.435
 30
687.314
 70
    32
  0
VERTEX
  8
T45SSILL
 62
8
 10
3397.146
 20
-7214.269
 30
687.327
 70
    32
  0
VERTEX
  8
T45SSILL
 62
8
 10
3400.460
 20
-7208.057
 30
687.310
 70
    32
  0
VERTEX
  8
T45SSILL
 62
8
 10
3404.258
 20
-7204.755
 30
687.294
 70
    32
  0
VERTEX
  8
T45SSILL
 62
8
 10
3413.396
 20
-7201.922
 30
687.259
 70
    32
  0
VERTEX
  8
T45SSILL
 62
8
 10
3417.000
 20
-7198.653
 30
687.244
 70
    32
  0
VERTEX
  8
T45SSILL
 62
8
 10
3414.115
 20
-7189.444
 30
687.248
 70
    32
  0
VERTEX
  8
T45SSILL
 62
8
 10
3396.134
 20
-7167.829
 30
687.295
 70
    32
  0
VERTEX
  8
T45SSILL
 62
8
 10
3394.964
 20
-7158.136
 30
687.292
 70
    32
  0
VERTEX
  8
T45SSILL
 62
8
 10
3392.948
 20
-7155.361
 30
687.297
 70
    32
  0
VERTEX
  8
T45SSILL
 62
8
 10
3405.039
 20
-7156.145
 30
687.255
 70
    32
  0
VERTEX
  8
T45SSILL
 62
8
 10
3416.312
 20
-7162.087
 30
687.219
 70
    32
  0
VERTEX
  8
T45SSILL
 62
8
 10
3425.305
 20
-7174.469
 30
687.196
 70
    32
  0
VERTEX
  8
T45SSILL
 62
8
 10
3418.628
 20
-7180.840
 30
687.225
 70
    32
  0
VERTEX
  8
T45SSILL
 62
8
 10
3423.104
 20
-7197.480
 30
687.222
 70
    32
  0
VERTEX
  8
T45SSILL
 62
8
 10
3414.727
 20
-7203.456
 30
687.256
 70
    32
  0
VERTEX
  8
T45SSILL
 62
8
 10
3421.489
 20
-7215.610
 30
687.241
 70
    32
  0
VERTEX
  8
T45SSILL
 62
8
 10
3430.502
 20
-7217.542
 30
687.210
 70
    32
  0
VERTEX
  8
T45SSILL
 62
8
 10
3431.576
 20
-7226.653
 30
687.213
 70
    32
  0
VERTEX
  8
T45SSILL
 62
8
 10
3422.344
 20
-7264.228
 30
687.275
 70
    32
  0
VERTEX
  8
T45SSILL
 62
8
 10
3423.850
 20
-7276.178
 30
687.278
 70
    32
  0
VERTEX
  8
T45SSILL
 62
8
 10
3427.593
 20
-7287.916
 30
687.274
 70
    32
  0
VERTEX
  8
T45SSILL
 62
8
 10
3441.637
 20
-7297.824
 30
687.231
 70
    32
  0
VERTEX
  8
T45SSILL
 62
8
 10
3456.686
 20
-7293.851
 30
687.175
 70
    32
  0
VERTEX
  8
T45SSILL
 62
8
 10
3457.401
 20
-7267.897
 30
687.153
 70
    32
  0
VERTEX
  8
T45SSILL
 62
8
 10
3460.533
 20
-7252.904
 30
687.130
 70
    32
  0
VERTEX
  8
T45SSILL
 62
8
 10
3466.644
 20
-7242.162
 30
687.100
 70
    32
  0
VERTEX
  8
T45SSILL
 62
8
 10
3468.182
 20
-7233.653
 30
687.088
 70
    32
  0
VERTEX
  8
T45SSILL
 62
8
 10
3475.413
 20
-7230.140
 30
687.060
 70
    32
  0
VERTEX
  8
T45SSILL
 62
8
 10
3452.756
 20
-7199.096
 30
687.117
 70
    32
  0
VERTEX
  8
T45SSILL
 62
8
 10
3449.779
 20
-7172.997
 30
687.108
 70
    32
  0
VERTEX
  8
T45SSILL
 62
8
 10
3444.850
 20
-7166.360
 30
687.121
 70
    32
  0
VERTEX
  8
T45SSILL
 62
8
 10
3440.699
 20
-7156.006
 30
687.128
 70
    32
  0
VERTEX
  8
T45SSILL
 62
8
 10
3437.566
 20
-7120.564
 30
687.112
 70
    32
  0
VERTEX
  8
T45SSILL
 62
8
 10
3498.318
 20
-7076.658
 30
686.863
 70
    32
  0
VERTEX
  8
T45SSILL
 62
8
 10
3493.670
 20
-7070.902
 30
686.870
 70
    32
  0
VERTEX
  8
T45SSILL
 62
8
 10
3431.401
 20
-7115.368
 30
687.130
 70
    32
  0
VERTEX
  8
T45SSILL
 62
8
 10
3414.535
 20
-7078.378
 30
687.162
 70
    32
  0
VERTEX
  8
T45SSILL
 62
8
 10
3398.542
 20
-7031.515
 30
687.169
 70
    32
  0
VERTEX
  8
T45SSILL
 62
8
 10
3454.829
 20
-6991.290
 30
686.836
 70
    32
  0
VERTEX
  8
T45SSILL
 62
8
 10
3449.775
 20
-6985.174
 30
686.842
 70
    32
  0
VERTEX
  8
T45SSILL
 62
8
 10
3393.237
 20
-7025.260
 30
687.175
 70
    32
  0
VERTEX
  8
T45SSILL
 62
8
 10
3391.539
 20
-7022.472
 30
687.176
 70
    32
  0
VERTEX
  8
T45SSILL
 62
8
 10
3383.042
 20
-7022.447
 30
687.211
 70
    32
  0
VERTEX
  8
T45SSILL
 62
8
 10
3374.549
 20
-7027.963
 30
687.260
 70
    32
  0
VERTEX
  8
T45SSILL
 62
8
 10
3375.553
 20
-7034.734
 30
687.268
 70
    32
  0
VERTEX
  8
T45SSILL
 62
8
 10
3373.054
 20
-7040.571
 30
687.282
 70
    32
  0
VERTEX
  8
T45SSILL
 62
8
 10
3221.657
 20
-7147.597
 30
687.901
 70
    32
  0
VERTEX
  8
T45SSILL
 62
8
 10
3213.160
 20
-7159.094
 30
687.940
 70
    32
  0
VERTEX
  8
T45SSILL
 62
8
 10
3210.145
 20
-7172.154
 30
687.961
 70
    32
  0
VERTEX
  8
T45SSILL
 62
8
 10
3165.787
 20
-7111.979
 30
688.073
 70
    32
  0
VERTEX
  8
T45SSILL
 62
8
 10
3162.269
 20
-7103.991
 30
688.080
 70
    32
  0
VERTEX
  8
T45SSILL
 62
8
 10
3162.209
 20
-7095.230
 30
688.073
 70
    32
  0
VERTEX
  8
T45SSILL
 62
8
 10
3164.044
 20
-7088.028
 30
688.062
 70
    32
  0
VERTEX
  8
T45SSILL
 62
8
 10
3172.153
 20
-7076.595
 30
688.024
 70
    32
  0
VERTEX
  8
T45SSILL
 62
8
 10
3189.780
 20
-7065.097
 30
687.953
 70
    32
  0
VERTEX
  8
T45SSILL
 62
8
 10
3198.663
 20
-7067.449
 30
687.923
 70
    32
  0
VERTEX
  8
T45SSILL
 62
8
 10
3214.528
 20
-7081.361
 30
687.877
 70
    32
  0
VERTEX
  8
T45SSILL
 62
8
 10
3220.870
 20
-7072.733
 30
687.848
 70
    32
  0
VERTEX
  8
T45SSILL
 62
8
 10
3223.424
 20
-7072.509
 30
687.838
 70
    32
  0
VERTEX
  8
T45SSILL
 62
8
 10
3233.843
 20
-7079.072
 30
687.806
 70
    32
  0
VERTEX
  8
T45SSILL
 62
8
 10
3236.561
 20
-7075.032
 30
687.794
 70
    32
  0
VERTEX
  8
T45SSILL
 62
8
 10
3229.433
 20
-7069.557
 30
687.815
 70
    32
  0
VERTEX
  8
T45SSILL
 62
8
 10
3237.120
 20
-7061.583
 30
687.781
 70
    32
  0
VERTEX
  8
T45SSILL
 62
8
 10
3231.667
 20
-7054.674
 30
687.796
 70
    32
  0
VERTEX
  8
T45SSILL
 62
8
 10
3228.609
 20
-7042.982
 30
687.798
 70
    32
  0
VERTEX
  8
T45SSILL
 62
8
 10
3229.623
 20
-7035.398
 30
687.788
 70
    32
  0
VERTEX
  8
T45SSILL
 62
8
 10
3242.702
 20
-7026.768
 30
687.735
 70
    32
  0
VERTEX
  8
T45SSILL
 62
8
 10
3246.233
 20
-7025.942
 30
687.722
 70
    32
  0
VERTEX
  8
T45SSILL
 62
8
 10
3259.625
 20
-7014.150
 30
687.666
 70
    32
  0
VERTEX
  8
T45SSILL
 62
8
 10
3255.212
 20
-7009.421
 30
687.678
 70
    32
  0
VERTEX
  8
T45SSILL
 62
8
 10
3228.609
 20
-7022.330
 30
687.782
 70
    32
  0
VERTEX
  8
T45SSILL
 62
8
 10
3225.557
 20
-7022.916
 30
687.793
 70
    32
  0
VERTEX
  8
T45SSILL
 62
8
 10
3222.849
 20
-7020.535
 30
687.801
 70
    32
  0
VERTEX
  8
T45SSILL
 62
8
 10
3219.457
 20
-7006.586
 30
687.803
 70
    32
  0
VERTEX
  8
T45SSILL
 62
8
 10
3236.098
 20
-6989.390
 30
687.731
 70
    32
  0
VERTEX
  8
T45SSILL
 62
8
 10
3232.262
 20
-6972.285
 30
687.715
 70
    32
  0
VERTEX
  8
T45SSILL
 62
8
 10
3221.687
 20
-6946.053
 30
687.694
 70
    32
  0
VERTEX
  8
T45SSILL
 62
8
 10
3220.153
 20
-6938.254
 30
687.682
 70
    32
  0
VERTEX
  8
T45SSILL
 62
8
 10
3214.294
 20
-6930.336
 30
687.686
 70
    32
  0
VERTEX
  8
T45SSILL
 62
8
 10
3298.228
 20
-6870.352
 30
687.190
 70
    32
  0
VERTEX
  8
T45SSILL
 62
8
 10
3294.623
 20
-6864.492
 30
687.191
 70
    32
  0
VERTEX
  8
T45SSILL
 62
8
 10
3234.508
 20
-6907.284
 30
687.546
 70
    32
  0
VERTEX
  8
T45SSILL
 62
8
 10
3229.133
 20
-6899.884
 30
687.550
 70
    32
  0
VERTEX
  8
T45SSILL
 62
8
 10
3217.269
 20
-6908.392
 30
687.620
 70
    32
  0
VERTEX
  8
T45SSILL
 62
8
 10
3217.035
 20
-6920.192
 30
687.650
 70
    32
  0
VERTEX
  8
T45SSILL
 62
8
 10
3203.283
 20
-6929.094
 30
687.729
 70
    32
  0
VERTEX
  8
T45SSILL
 62
8
 10
3200.005
 20
-6928.322
 30
687.741
 70
    32
  0
VERTEX
  8
T45SSILL
 62
8
 10
3198.527
 20
-6924.940
 30
687.739
 70
    32
  0
VERTEX
  8
T45SSILL
 62
8
 10
3199.874
 20
-6920.809
 30
687.723
 70
    32
  0
VERTEX
  8
T45SSILL
 62
8
 10
3198.569
 20
-6909.583
 30
687.701
 70
    32
  0
VERTEX
  8
T45SSILL
 62
8
 10
3187.877
 20
-6894.413
 30
687.708
 70
    32
  0
VERTEX
  8
T45SSILL
 62
8
 10
3189.019
 20
-6888.802
 30
687.690
 70
    32
  0
VERTEX
  8
T45SSILL
 62
8
 10
3184.145
 20
-6886.581
 30
687.704
 70
    32
  0
VERTEX
  8
T45SSILL
 62
8
 10
3182.436
 20
-6890.214
 30
687.720
 70
    32
  0
VERTEX
  8
T45SSILL
 62
8
 10
3178.756
 20
-6891.582
 30
687.739
 70
    32
  0
VERTEX
  8
T45SSILL
 62
8
 10
3152.142
 20
-6891.455
 30
687.849
 70
    32
  0
VERTEX
  8
T45SSILL
 62
8
 10
3133.771
 20
-6882.624
 30
687.904
 70
    32
  0
VERTEX
  8
T45SSILL
 62
8
 10
3121.809
 20
-6882.616
 30
687.954
 70
    32
  0
VERTEX
  8
T45SSILL
 62
8
 10
3118.326
 20
-6889.494
 30
687.985
 70
    32
  0
VERTEX
  8
T45SSILL
 62
8
 10
3137.298
 20
-6918.758
 30
687.978
 70
    32
  0
VERTEX
  8
T45SSILL
 62
8
 10
3143.140
 20
-6923.210
 30
687.965
 70
    32
  0
VERTEX
  8
T45SSILL
 62
8
 10
3152.231
 20
-6944.108
 30
687.978
 70
    32
  0
VERTEX
  8
T45SSILL
 62
8
 10
3150.827
 20
-6955.345
 30
688.009
 70
    32
  0
VERTEX
  8
T45SSILL
 62
8
 10
3152.554
 20
-6965.504
 30
688.010
 70
    32
  0
VERTEX
  8
T45SSILL
 62
8
 10
3107.601
 20
-6998.044
 30
688.195
 70
    32
  0
VERTEX
  8
T45SSILL
 62
8
 10
3026.215
 20
-6812.808
 30
689.163
 70
    32
  0
VERTEX
  8
T45SSILL
 62
8
 10
3046.384
 20
-6759.463
 30
689.504
 70
    32
  0
VERTEX
  8
T45SSILL
 62
8
 10
3068.029
 20
-6744.069
 30
689.415
 70
    32
  0
VERTEX
  8
T45SSILL
 62
8
 10
3074.493
 20
-6746.982
 30
689.307
 70
    32
  0
VERTEX
  8
T45SSILL
 62
8
 10
3081.472
 20
-6753.000
 30
689.159
 70
    32
  0
VERTEX
  8
T45SSILL
 62
8
 10
3088.929
 20
-6750.845
 30
689.095
 70
    32
  0
VERTEX
  8
T45SSILL
 62
8
 10
3098.143
 20
-6740.784
 30
689.095
 70
    32
  0
VERTEX
  8
T45SSILL
 62
8
 10
3092.837
 20
-6726.594
 30
689.311
 70
    32
  0
VERTEX
  8
T45SSILL
 62
8
 10
3119.260
 20
-6706.716
 30
689.209
 70
    32
  0
VERTEX
  8
T45SSILL
 62
8
 10
3113.538
 20
-6700.472
 30
689.240
 70
    32
  0
VERTEX
  8
T45SSILL
 62
8
 10
3099.760
 20
-6709.935
 30
689.374
 70
    32
  0
VERTEX
  8
T45SSILL
 62
8
 10
3092.822
 20
-6709.213
 30
689.428
 70
    32
  0
VERTEX
  8
T45SSILL
 62
8
 10
3089.106
 20
-6706.043
 30
689.450
 70
    32
  0
VERTEX
  8
T45SSILL
 62
8
 10
3076.488
 20
-6700.642
 30
689.538
 70
    32
  0
VERTEX
  8
T45SSILL
 62
8
 10
3039.037
 20
-6691.430
 30
689.817
 70
    32
  0
VERTEX
  8
T45SSILL
 62
8
 10
3033.527
 20
-6692.823
 30
689.864
 70
    32
  0
VERTEX
  8
T45SSILL
 62
8
 10
3024.942
 20
-6689.384
 30
689.925
 70
    32
  0
VERTEX
  8
T45SSILL
 62
8
 10
3021.538
 20
-6694.574
 30
689.965
 70
    32
  0
VERTEX
  8
T45SSILL
 62
8
 10
3021.723
 20
-6697.374
 30
689.970
 70
    32
  0
VERTEX
  8
T45SSILL
 62
8
 10
3026.713
 20
-6701.251
 30
689.940
 70
    32
  0
VERTEX
  8
T45SSILL
 62
8
 10
3044.483
 20
-6709.105
 30
689.816
 70
    32
  0
VERTEX
  8
T45SSILL
 62
8
 10
3053.931
 20
-6717.025
 30
689.760
 70
    32
  0
VERTEX
  8
T45SSILL
 62
8
 10
3055.531
 20
-6733.146
 30
689.681
 70
    32
  0
VERTEX
  8
T45SSILL
 62
8
 10
3052.192
 20
-6746.658
 30
689.574
 70
    32
  0
VERTEX
  8
T45SSILL
 62
8
 10
3039.009
 20
-6755.146
 30
689.638
 70
    32
  0
VERTEX
  8
T45SSILL
 62
8
 10
3021.708
 20
-6803.908
 30
689.313
 70
    32
  0
VERTEX
  8
T45SSILL
 62
8
 10
3005.185
 20
-6766.343
 30
689.916
 70
    32
  0
VERTEX
  8
T45SSILL
 62
8
 10
3012.328
 20
-6749.090
 30
690.018
 70
    32
  0
VERTEX
  8
T45SSILL
 62
8
 10
3011.305
 20
-6741.246
 30
690.116
 70
    32
  0
VERTEX
  8
T45SSILL
 62
8
 10
3007.026
 20
-6728.919
 30
690.166
 70
    32
  0
VERTEX
  8
T45SSILL
 62
8
 10
3001.742
 20
-6720.148
 30
690.190
 70
    32
  0
VERTEX
  8
T45SSILL
 62
8
 10
2992.528
 20
-6710.753
 30
690.224
 70
    32
  0
VERTEX
  8
T45SSILL
 62
8
 10
2978.599
 20
-6702.500
 30
690.258
 70
    32
  0
VERTEX
  8
T45SSILL
 62
8
 10
2974.037
 20
-6697.118
 30
690.261
 70
    32
  0
VERTEX
  8
T45SSILL
 62
8
 10
2972.126
 20
-6693.289
 30
690.257
 70
    32
  0
VERTEX
  8
T45SSILL
 62
8
 10
2973.062
 20
-6664.348
 30
690.165
 70
    32
  0
VERTEX
  8
T45SSILL
 62
8
 10
2965.130
 20
-6651.631
 30
690.160
 70
    32
  0
VERTEX
  8
T45SSILL
 62
8
 10
2959.276
 20
-6645.665
 30
690.166
 70
    32
  0
VERTEX
  8
T45SSILL
 62
8
 10
2947.670
 20
-6624.747
 30
690.152
 70
    32
  0
VERTEX
  8
T45SSILL
 62
8
 10
2943.838
 20
-6609.595
 30
690.122
 70
    32
  0
VERTEX
  8
T45SSILL
 62
8
 10
2938.717
 20
-6599.401
 30
690.112
 70
    32
  0
VERTEX
  8
T45SSILL
 62
8
 10
2934.693
 20
-6593.411
 30
690.111
 70
    32
  0
VERTEX
  8
T45SSILL
 62
8
 10
2926.087
 20
-6592.488
 30
690.145
 70
    32
  0
VERTEX
  8
T45SSILL
 62
8
 10
2887.560
 20
-6504.791
 30
690.041
 70
    32
  0
VERTEX
  8
T45SSILL
 62
8
 10
2880.782
 20
-6508.110
 30
690.080
 70
    32
  0
VERTEX
  8
T45SSILL
 62
8
 10
2919.246
 20
-6593.544
 30
690.177
 70
    32
  0
VERTEX
  8
T45SSILL
 62
8
 10
2913.831
 20
-6608.237
 30
690.245
 70
    32
  0
VERTEX
  8
T45SSILL
 62
8
 10
2913.392
 20
-6636.817
 30
690.334
 70
    32
  0
VERTEX
  8
T45SSILL
 62
8
 10
2922.928
 20
-6649.347
 30
690.332
 70
    32
  0
VERTEX
  8
T45SSILL
 62
8
 10
2925.026
 20
-6654.780
 30
690.339
 70
    32
  0
VERTEX
  8
T45SSILL
 62
8
 10
2935.493
 20
-6667.395
 30
690.333
 70
    32
  0
VERTEX
  8
T45SSILL
 62
8
 10
2941.176
 20
-6678.811
 30
690.342
 70
    32
  0
VERTEX
  8
T45SSILL
 62
8
 10
2946.138
 20
-6694.772
 30
690.357
 70
    32
  0
VERTEX
  8
T45SSILL
 62
8
 10
2970.580
 20
-6734.411
 30
690.355
 70
    32
  0
VERTEX
  8
T45SSILL
 62
8
 10
2977.326
 20
-6751.033
 30
690.189
 70
    32
  0
VERTEX
  8
T45SSILL
 62
8
 10
2990.126
 20
-6766.411
 30
690.055
 70
    32
  0
VERTEX
  8
T45SSILL
 62
8
 10
2998.722
 20
-6772.559
 30
689.925
 70
    32
  0
VERTEX
  8
T45SSILL
 62
8
 10
3044.046
 20
-6873.389
 30
688.296
 70
    32
  0
VERTEX
  8
T45SSILL
 62
8
 10
3117.696
 20
-7037.234
 30
688.188
 70
    32
  0
VERTEX
  8
T45SSILL
 62
8
 10
3094.358
 20
-7019.619
 30
688.258
 70
    32
  0
VERTEX
  8
T45SSILL
 62
8
 10
3089.168
 20
-7017.411
 30
688.275
 70
    32
  0
VERTEX
  8
T45SSILL
 62
8
 10
3083.612
 20
-7019.490
 30
688.286
 70
    32
  0
VERTEX
  8
T45SSILL
 62
8
 10
3051.242
 20
-7001.261
 30
688.357
 70
    32
  0
VERTEX
  8
T45SSILL
 62
8
 10
3026.861
 20
-6946.143
 30
688.430
 70
    32
  0
VERTEX
  8
T45SSILL
 62
8
 10
3030.884
 20
-6944.199
 30
688.423
 70
    32
  0
VERTEX
  8
T45SSILL
 62
8
 10
3025.712
 20
-6932.738
 30
688.437
 70
    32
  0
VERTEX
  8
T45SSILL
 62
8
 10
3021.301
 20
-6934.746
 30
688.446
 70
    32
  0
VERTEX
  8
T45SSILL
 62
8
 10
2935.083
 20
-6742.258
 30
690.130
 70
    32
  0
VERTEX
  8
T45SSILL
 62
8
 10
2928.266
 20
-6746.340
 30
690.055
 70
    32
  0
VERTEX
  8
T45SSILL
 62
8
 10
2952.654
 20
-6799.823
 30
689.514
 70
    32
  0
VERTEX
  8
T45SSILL
 62
8
 10
2951.138
 20
-6810.299
 30
689.384
 70
    32
  0
VERTEX
  8
T45SSILL
 62
8
 10
2953.305
 20
-6813.977
 30
689.349
 70
    32
  0
VERTEX
  8
T45SSILL
 62
8
 10
2959.214
 20
-6814.841
 30
689.361
 70
    32
  0
VERTEX
  8
T45SSILL
 62
8
 10
3012.379
 20
-6933.835
 30
688.463
 70
    32
  0
VERTEX
  8
T45SSILL
 62
8
 10
3002.397
 20
-6942.390
 30
688.479
 70
    32
  0
VERTEX
  8
T45SSILL
 62
8
 10
3004.268
 20
-6946.396
 30
688.473
 70
    32
  0
VERTEX
  8
T45SSILL
 62
8
 10
3013.412
 20
-6957.107
 30
688.451
 70
    32
  0
VERTEX
  8
T45SSILL
 62
8
 10
3020.838
 20
-6952.366
 30
688.439
 70
    32
  0
VERTEX
  8
T45SSILL
 62
8
 10
3044.915
 20
-7006.617
 30
688.367
 70
    32
  0
VERTEX
  8
T45SSILL
 62
8
 10
3079.133
 20
-7025.895
 30
688.292
 70
    32
  0
VERTEX
  8
T45SSILL
 62
8
 10
3064.188
 20
-7030.010
 30
688.319
 70
    32
  0
VERTEX
  8
T45SSILL
 62
8
 10
3052.287
 20
-7036.372
 30
688.339
 70
    32
  0
VERTEX
  8
T45SSILL
 62
8
 10
3043.089
 20
-7030.443
 30
688.359
 70
    32
  0
VERTEX
  8
T45SSILL
 62
8
 10
3029.258
 20
-7042.228
 30
688.381
 70
    32
  0
VERTEX
  8
T45SSILL
 62
8
 10
3033.475
 20
-7050.579
 30
688.369
 70
    32
  0
VERTEX
  8
T45SSILL
 62
8
 10
2955.874
 20
-7105.962
 30
688.493
 70
    32
  0
VERTEX
  8
T45SSILL
 62
8
 10
2960.080
 20
-7111.603
 30
688.482
 70
    32
  0
VERTEX
  8
T45SSILL
 62
8
 10
3038.857
 20
-7056.343
 30
688.356
 70
    32
  0
VERTEX
  8
T45SSILL
 62
8
 10
3043.996
 20
-7058.480
 30
688.345
 70
    32
  0
VERTEX
  8
T45SSILL
 62
8
 10
3055.049
 20
-7044.366
 30
688.330
 70
    32
  0
VERTEX
  8
T45SSILL
 62
8
 10
3066.919
 20
-7036.614
 30
688.310
 70
    32
  0
VERTEX
  8
T45SSILL
 62
8
 10
3085.233
 20
-7033.095
 30
688.277
 70
    32
  0
VERTEX
  8
T45SSILL
 62
8
 10
3098.920
 20
-7035.328
 30
688.249
 70
    32
  0
VERTEX
  8
T45SSILL
 62
8
 10
3112.623
 20
-7042.223
 30
688.210
 70
    32
  0
VERTEX
  8
T45SSILL
 62
8
 10
3118.808
 20
-7047.296
 30
688.192
 70
    32
  0
VERTEX
  8
T45SSILL
 62
8
 10
3126.342
 20
-7056.172
 30
688.172
 70
    32
  0
VERTEX
  8
T45SSILL
 62
8
 10
3141.979
 20
-7092.967
 30
688.139
 70
    32
  0
VERTEX
  8
T45SSILL
 62
8
 10
3227.626
 20
-7206.848
 30
687.921
 70
    32
  0
VERTEX
  8
T45SSILL
 62
8
 10
3227.849
 20
-7282.882
 30
687.885
 70
    32
  0
VERTEX
  8
T45SSILL
 62
8
 10
3227.202
 20
-7294.113
 30
687.881
 70
    32
  0
VERTEX
  8
T45SSILL
 62
8
 10
3224.240
 20
-7304.851
 30
687.882
 70
    32
  0
VERTEX
  8
T45SSILL
 62
8
 10
3226.950
 20
-7315.166
 30
687.872
 70
    32
  0
VERTEX
  8
T45SSILL
 62
8
 10
3226.253
 20
-7322.737
 30
687.870
 70
    32
  0
VERTEX
  8
T45SSILL
 62
8
 10
3231.507
 20
-7327.725
 30
687.857
 70
    32
  0
VERTEX
  8
T45SSILL
 62
8
 10
3245.392
 20
-7353.727
 30
687.818
 70
    32
  0
VERTEX
  8
T45SSILL
 62
8
 10
3251.837
 20
-7355.568
 30
687.805
 70
    32
  0
VERTEX
  8
T45SSILL
 62
8
 10
3270.474
 20
-7373.445
 30
687.761
 70
    32
  0
VERTEX
  8
T45SSILL
 62
8
 10
3291.222
 20
-7415.332
 30
687.701
 70
    32
  0
VERTEX
  8
T45SSILL
 62
8
 10
3303.250
 20
-7424.857
 30
687.673
 70
    32
  0
VERTEX
  8
T45SSILL
 62
8
 10
3315.480
 20
-7429.126
 30
687.648
 70
    32
  0
VERTEX
  8
T45SSILL
 62
8
 10
3229.807
 20
-7490.156
 30
687.954
 70
    32
  0
VERTEX
  8
T45SSILL
 62
8
 10
3223.776
 20
-7486.492
 30
687.967
 70
    32
  0
VERTEX
  8
T45SSILL
 62
8
 10
3216.281
 20
-7487.697
 30
687.988
 70
    32
  0
VERTEX
  8
T45SSILL
 62
8
 10
3210.956
 20
-7493.086
 30
688.005
 70
    32
  0
VERTEX
  8
T45SSILL
 62
8
 10
3213.221
 20
-7501.441
 30
688.005
 70
    32
  0
VERTEX
  8
T45SSILL
 62
8
 10
3149.247
 20
-7546.433
 30
688.203
 70
    32
  0
VERTEX
  8
T45SSILL
 62
8
 10
3153.228
 20
-7552.760
 30
688.197
 70
    32
  0
VERTEX
  8
T45SSILL
 62
8
 10
3214.153
 20
-7509.460
 30
688.008
 70
    32
  0
VERTEX
  8
T45SSILL
 62
8
 10
3226.730
 20
-7508.368
 30
687.974
 70
    32
  0
VERTEX
  8
T45SSILL
 62
8
 10
3231.667
 20
-7503.044
 30
687.957
 70
    32
  0
VERTEX
  8
T45SSILL
 62
8
 10
3233.068
 20
-7496.591
 30
687.949
 70
    32
  0
VERTEX
  8
T45SSILL
 62
8
 10
3384.263
 20
-7392.639
 30
687.507
 70
    32
  0
VERTEX
  8
T45SSILL
 62
8
 10
3381.905
 20
-7411.561
 30
687.527
 70
    32
  0
VERTEX
  8
T45SSILL
 62
8
 10
3386.531
 20
-7420.804
 30
687.514
 70
    32
  0
VERTEX
  8
T45SSILL
 62
8
 10
3439.924
 20
-7493.269
 30
687.647
 70
    32
  0
VERTEX
  8
T45SSILL
 62
8
 10
3441.957
 20
-7512.236
 30
687.411
 70
    32
  0
VERTEX
  8
T45SSILL
 62
8
 10
3438.760
 20
-7518.745
 30
687.424
 70
    32
  0
VERTEX
  8
T45SSILL
 62
8
 10
3432.154
 20
-7525.898
 30
687.446
 70
    32
  0
VERTEX
  8
T45SSILL
 62
8
 10
3409.104
 20
-7542.054
 30
687.518
 70
    32
  0
VERTEX
  8
T45SSILL
 62
8
 10
3404.224
 20
-7535.354
 30
687.526
 70
    32
  0
VERTEX
  8
T45SSILL
 62
8
 10
3401.960
 20
-7536.893
 30
687.533
 70
    32
  0
VERTEX
  8
T45SSILL
 62
8
 10
3384.342
 20
-7511.965
 30
687.562
 70
    32
  0
VERTEX
  8
T45SSILL
 62
8
 10
3373.555
 20
-7519.915
 30
687.596
 70
    32
  0
VERTEX
  8
T45SSILL
 62
8
 10
3370.241
 20
-7544.496
 30
687.621
 70
    32
  0
VERTEX
  8
T45SSILL
 62
8
 10
3367.500
 20
-7550.874
 30
687.633
 70
    32
  0
VERTEX
  8
T45SSILL
 62
8
 10
3360.228
 20
-7555.306
 30
687.655
 70
    32
  0
VERTEX
  8
T45SSILL
 62
8
 10
3354.020
 20
-7571.865
 30
687.683
 70
    32
  0
VERTEX
  8
T45SSILL
 62
8
 10
3343.526
 20
-7578.470
 30
687.715
 70
    32
  0
VERTEX
  8
T45SSILL
 62
8
 10
3326.401
 20
-7584.877
 30
687.764
 70
    32
  0
VERTEX
  8
T45SSILL
 62
8
 10
3320.410
 20
-7583.063
 30
687.779
 70
    32
  0
VERTEX
  8
T45SSILL
 62
8
 10
3313.811
 20
-7589.651
 30
687.800
 70
    32
  0
VERTEX
  8
T45SSILL
 62
8
 10
3312.076
 20
-7598.038
 30
687.811
 70
    32
  0
VERTEX
  8
T45SSILL
 62
8
 10
3294.954
 20
-7595.842
 30
687.854
 70
    32
  0
VERTEX
  8
T45SSILL
 62
8
 10
3286.078
 20
-7588.456
 30
687.872
 70
    32
  0
VERTEX
  8
T45SSILL
 62
8
 10
3279.617
 20
-7591.922
 30
687.892
 70
    32
  0
VERTEX
  8
T45SSILL
 62
8
 10
3273.035
 20
-7600.396
 30
687.915
 70
    32
  0
VERTEX
  8
T45SSILL
 62
8
 10
3297.971
 20
-7602.875
 30
687.851
 70
    32
  0
VERTEX
  8
T45SSILL
 62
8
 10
3301.529
 20
-7608.593
 30
687.845
 70
    32
  0
VERTEX
  8
T45SSILL
 62
8
 10
3307.831
 20
-7613.962
 30
687.833
 70
    32
  0
VERTEX
  8
T45SSILL
 62
8
 10
3245.967
 20
-7658.880
 30
688.026
 70
    32
  0
VERTEX
  8
T45SSILL
 62
8
 10
3249.541
 20
-7664.474
 30
688.020
 70
    32
  0
VERTEX
  8
T45SSILL
 62
8
 10
3309.357
 20
-7622.379
 30
687.834
 70
    32
  0
VERTEX
  8
T45SSILL
 62
8
 10
3318.181
 20
-7633.715
 30
687.819
 70
    32
  0
VERTEX
  8
T45SSILL
 62
8
 10
3327.860
 20
-7637.684
 30
687.796
 70
    32
  0
VERTEX
  8
T45SSILL
 62
8
 10
3329.771
 20
-7643.008
 30
687.795
 70
    32
  0
VERTEX
  8
T45SSILL
 62
8
 10
3344.434
 20
-7644.773
 30
687.757
 70
    32
  0
VERTEX
  8
T45SSILL
 62
8
 10
3357.124
 20
-7639.697
 30
687.721
 70
    32
  0
VERTEX
  8
T45SSILL
 62
8
 10
3377.262
 20
-7628.265
 30
687.660
 70
    32
  0
VERTEX
  8
T45SSILL
 62
8
 10
3381.992
 20
-7627.598
 30
687.647
 70
    32
  0
VERTEX
  8
T45SSILL
 62
8
 10
3386.360
 20
-7629.335
 30
687.637
 70
    32
  0
VERTEX
  8
T45SSILL
 62
8
 10
3393.949
 20
-7625.885
 30
687.614
 70
    32
  0
VERTEX
  8
T45SSILL
 62
8
 10
3413.465
 20
-7624.988
 30
687.563
 70
    32
  0
VERTEX
  8
T45SSILL
 62
8
 10
3421.626
 20
-7602.330
 30
687.526
 70
    32
  0
VERTEX
  8
T45SSILL
 62
8
 10
3439.808
 20
-7587.954
 30
687.468
 70
    32
  0
VERTEX
  8
T45SSILL
 62
8
 10
3415.892
 20
-7565.695
 30
687.516
 70
    32
  0
VERTEX
  8
T45SSILL
 62
8
 10
3410.413
 20
-7550.192
 30
687.520
 70
    32
  0
VERTEX
  8
T45SSILL
 62
8
 10
3435.001
 20
-7533.286
 30
687.444
 70
    32
  0
VERTEX
  8
T45SSILL
 62
8
 10
3441.430
 20
-7527.053
 30
687.423
 70
    32
  0
VERTEX
  8
T45SSILL
 62
8
 10
3446.605
 20
-7517.776
 30
687.403
 70
    32
  0
VERTEX
  8
T45SSILL
 62
8
 10
3449.583
 20
-7505.964
 30
687.791
 70
    32
  0
VERTEX
  8
T45SSILL
 62
8
 10
3524.174
 20
-7606.378
 30
688.689
 70
    32
  0
VERTEX
  8
T45SSILL
 62
8
 10
3526.819
 20
-7610.350
 30
688.705
 70
    32
  0
VERTEX
  8
T45SSILL
 62
8
 10
3528.517
 20
-7622.430
 30
688.561
 70
    32
  0
VERTEX
  8
T45SSILL
 62
8
 10
3525.205
 20
-7632.379
 30
688.300
 70
    32
  0
VERTEX
  8
T45SSILL
 62
8
 10
3520.554
 20
-7638.456
 30
687.984
 70
    32
  0
VERTEX
  8
T45SSILL
 62
8
 10
3398.086
 20
-7725.747
 30
687.671
 70
    32
  0
VERTEX
  8
T45SSILL
 62
8
 10
3402.680
 20
-7732.223
 30
687.664
 70
    32
  0
VERTEX
  8
T45SSILL
 62
8
 10
3409.957
 20
-7727.056
 30
687.641
 70
    32
  0
VERTEX
  8
T45SSILL
 62
8
 10
3416.184
 20
-7736.229
 30
687.631
 70
    32
  0
VERTEX
  8
T45SSILL
 62
8
 10
3423.533
 20
-7731.179
 30
687.608
 70
    32
  0
VERTEX
  8
T45SSILL
 62
8
 10
3416.759
 20
-7722.227
 30
687.620
 70
    32
  0
VERTEX
  8
T45SSILL
 62
8
 10
3521.794
 20
-7647.654
 30
687.836
 70
    32
  0
VERTEX
  8
T45SSILL
 62
8
 10
3530.394
 20
-7638.615
 30
688.357
 70
    32
  0
VERTEX
  8
T45SSILL
 62
8
 10
3533.452
 20
-7632.214
 30
688.553
 70
    32
  0
VERTEX
  8
T45SSILL
 62
8
 10
3535.643
 20
-7621.685
 30
688.790
 70
    32
  0
VERTEX
  8
T45SSILL
 62
8
 10
3593.738
 20
-7699.760
 30
689.293
 70
    32
  0
VERTEX
  8
T45SSILL
 62
8
 10
3592.580
 20
-7704.011
 30
689.189
 70
    32
  0
VERTEX
  8
T45SSILL
 62
8
 10
3590.393
 20
-7704.932
 30
689.108
 70
    32
  0
VERTEX
  8
T45SSILL
 62
8
 10
3593.844
 20
-7713.526
 30
689.074
 70
    32
  0
VERTEX
  8
T45SSILL
 62
8
 10
3597.862
 20
-7710.510
 30
689.244
 70
    32
  0
VERTEX
  8
T45SSILL
 62
8
 10
3603.056
 20
-7712.162
 30
689.375
 70
    32
  0
VERTEX
  8
T45SSILL
 62
8
 10
3660.233
 20
-7795.083
 30
688.637
 70
    32
  0
VERTEX
  8
T45SSILL
 62
8
 10
3659.847
 20
-7815.821
 30
688.534
 70
    32
  0
VERTEX
  8
T45SSILL
 62
8
 10
3656.558
 20
-7825.082
 30
688.519
 70
    32
  0
VERTEX
  8
T45SSILL
 62
8
 10
3647.336
 20
-7840.638
 30
688.531
 70
    32
  0
VERTEX
  8
T45SSILL
 62
8
 10
3631.719
 20
-7851.566
 30
687.994
 70
    32
  0
VERTEX
  8
T45SSILL
 62
8
 10
3614.658
 20
-7845.860
 30
687.542
 70
    32
  0
VERTEX
  8
T45SSILL
 62
8
 10
3594.353
 20
-7847.036
 30
687.238
 70
    32
  0
VERTEX
  8
T45SSILL
 62
8
 10
3585.196
 20
-7832.833
 30
687.252
 70
    32
  0
VERTEX
  8
T45SSILL
 62
8
 10
3580.055
 20
-7830.245
 30
687.264
 70
    32
  0
VERTEX
  8
T45SSILL
 62
8
 10
3573.549
 20
-7836.092
 30
687.285
 70
    32
  0
VERTEX
  8
T45SSILL
 62
8
 10
3579.050
 20
-7848.897
 30
687.279
 70
    32
  0
VERTEX
  8
T45SSILL
 62
8
 10
3579.200
 20
-7856.263
 30
687.284
 70
    32
  0
VERTEX
  8
T45SSILL
 62
8
 10
3576.861
 20
-7864.449
 30
687.296
 70
    32
  0
VERTEX
  8
T45SSILL
 62
8
 10
3577.895
 20
-7880.843
 30
687.304
 70
    32
  0
VERTEX
  8
T45SSILL
 62
8
 10
3570.072
 20
-7896.761
 30
687.335
 70
    32
  0
VERTEX
  8
T45SSILL
 62
8
 10
3546.481
 20
-7913.226
 30
687.408
 70
    32
  0
VERTEX
  8
T45SSILL
 62
8
 10
3550.031
 20
-7918.504
 30
687.403
 70
    32
  0
VERTEX
  8
T45SSILL
 62
8
 10
3567.201
 20
-7906.702
 30
687.350
 70
    32
  0
VERTEX
  8
T45SSILL
 62
8
 10
3578.416
 20
-7905.902
 30
687.320
 70
    32
  0
VERTEX
  8
T45SSILL
 62
8
 10
3585.973
 20
-7900.689
 30
687.296
 70
    32
  0
VERTEX
  8
T45SSILL
 62
8
 10
3591.484
 20
-7901.313
 30
687.282
 70
    32
  0
VERTEX
  8
T45SSILL
 62
8
 10
3594.983
 20
-7893.899
 30
687.268
 70
    32
  0
VERTEX
  8
T45SSILL
 62
8
 10
3598.730
 20
-7890.535
 30
687.256
 70
    32
  0
VERTEX
  8
T45SSILL
 62
8
 10
3620.917
 20
-7880.300
 30
687.191
 70
    32
  0
VERTEX
  8
T45SSILL
 62
8
 10
3624.976
 20
-7881.497
 30
687.209
 70
    32
  0
VERTEX
  8
T45SSILL
 62
8
 10
3636.612
 20
-7889.415
 30
687.531
 70
    32
  0
VERTEX
  8
T45SSILL
 62
8
 10
3639.957
 20
-7886.252
 30
687.683
 70
    32
  0
VERTEX
  8
T45SSILL
 62
8
 10
3631.784
 20
-7877.761
 30
687.572
 70
    32
  0
VERTEX
  8
T45SSILL
 62
8
 10
3628.928
 20
-7868.927
 30
687.628
 70
    32
  0
VERTEX
  8
T45SSILL
 62
8
 10
3635.842
 20
-7859.301
 30
687.994
 70
    32
  0
VERTEX
  8
T45SSILL
 62
8
 10
3656.610
 20
-7856.425
 30
688.359
 70
    32
  0
VERTEX
  8
T45SSILL
 62
8
 10
3657.206
 20
-7858.195
 30
688.344
 70
    32
  0
VERTEX
  8
T45SSILL
 62
8
 10
3661.944
 20
-7857.969
 30
688.298
 70
    32
  0
VERTEX
  8
T45SSILL
 62
8
 10
3668.018
 20
-7855.586
 30
688.250
 70
    32
  0
VERTEX
  8
T45SSILL
 62
8
 10
3667.519
 20
-7845.476
 30
688.307
 70
    32
  0
VERTEX
  8
T45SSILL
 62
8
 10
3661.815
 20
-7846.900
 30
688.356
 70
    32
  0
VERTEX
  8
T45SSILL
 62
8
 10
3654.618
 20
-7842.675
 30
688.449
 70
    32
  0
VERTEX
  8
T45SSILL
 62
8
 10
3659.825
 20
-7837.170
 30
688.425
 70
    32
  0
VERTEX
  8
T45SSILL
 62
8
 10
3665.779
 20
-7824.159
 30
688.433
 70
    32
  0
VERTEX
  8
T45SSILL
 62
8
 10
3668.707
 20
-7800.660
 30
688.525
 70
    32
  0
VERTEX
  8
T45SSILL
 62
8
 10
3676.124
 20
-7811.193
 30
688.398
 70
    32
  0
VERTEX
  8
T45SSILL
 62
8
 10
3673.964
 20
-7822.478
 30
688.361
 70
    32
  0
VERTEX
  8
T45SSILL
 62
8
 10
3681.069
 20
-7827.445
 30
688.266
 70
    32
  0
VERTEX
  8
T45SSILL
 62
8
 10
3685.566
 20
-7823.610
 30
688.241
 70
    32
  0
VERTEX
  8
T45SSILL
 62
8
 10
3723.368
 20
-7875.042
 30
687.605
 70
    32
  0
VERTEX
  8
T45SSILL
 62
8
 10
3725.883
 20
-7882.577
 30
687.542
 70
    32
  0
VERTEX
  8
T45SSILL
 62
8
 10
3725.362
 20
-7893.816
 30
687.490
 70
    32
  0
VERTEX
  8
T45SSILL
 62
8
 10
3723.046
 20
-7900.309
 30
687.479
 70
    32
  0
VERTEX
  8
T45SSILL
 62
8
 10
3718.450
 20
-7906.456
 30
687.493
 70
    32
  0
VERTEX
  8
T45SSILL
 62
8
 10
3677.473
 20
-7936.455
 30
687.744
 70
    32
  0
VERTEX
  8
T45SSILL
 62
8
 10
3670.461
 20
-7933.760
 30
687.826
 70
    32
  0
VERTEX
  8
T45SSILL
 62
8
 10
3664.544
 20
-7942.945
 30
687.514
 70
    32
  0
VERTEX
  8
T45SSILL
 62
8
 10
3667.930
 20
-7943.995
 30
687.600
 70
    32
  0
VERTEX
  8
T45SSILL
 62
8
 10
3655.729
 20
-7952.711
 30
687.148
 70
    32
  0
VERTEX
  8
T45SSILL
 62
8
 10
3660.384
 20
-7958.691
 30
687.140
 70
    32
  0
VERTEX
  8
T45SSILL
 62
8
 10
3672.276
 20
-7950.439
 30
687.628
 70
    32
  0
VERTEX
  8
T45SSILL
 62
8
 10
3681.036
 20
-7955.236
 30
687.612
 70
    32
  0
VERTEX
  8
T45SSILL
 62
8
 10
3683.214
 20
-7952.870
 30
687.603
 70
    32
  0
VERTEX
  8
T45SSILL
 62
8
 10
3687.173
 20
-7955.372
 30
687.551
 70
    32
  0
VERTEX
  8
T45SSILL
 62
8
 10
3692.318
 20
-7948.352
 30
687.536
 70
    32
  0
VERTEX
  8
T45SSILL
 62
8
 10
3686.525
 20
-7939.906
 30
687.637
 70
    32
  0
VERTEX
  8
T45SSILL
 62
8
 10
3716.830
 20
-7916.428
 30
687.458
 70
    32
  0
VERTEX
  8
T45SSILL
 62
8
 10
3721.731
 20
-7917.415
 30
687.405
 70
    32
  0
VERTEX
  8
T45SSILL
 62
8
 10
3703.665
 20
-8005.970
 30
687.130
 70
    32
  0
VERTEX
  8
T45SSILL
 62
8
 10
3711.240
 20
-8007.668
 30
687.046
 70
    32
  0
VERTEX
  8
T45SSILL
 62
8
 10
3716.462
 20
-7981.378
 30
687.129
 70
    32
  0
VERTEX
  8
T45SSILL
 62
8
 10
3725.213
 20
-7982.719
 30
687.036
 70
    32
  0
VERTEX
  8
T45SSILL
 62
8
 10
3729.392
 20
-7959.251
 30
687.115
 70
    32
  0
VERTEX
  8
T45SSILL
 62
8
 10
3720.627
 20
-7958.033
 30
687.208
 70
    32
  0
VERTEX
  8
T45SSILL
 62
8
 10
3726.876
 20
-7928.041
 30
687.300
 70
    32
  0
VERTEX
  8
T45SSILL
 62
8
 10
3733.836
 20
-7919.049
 30
687.277
 70
    32
  0
VERTEX
  8
T45SSILL
 62
8
 10
3734.445
 20
-7896.015
 30
687.389
 70
    32
  0
VERTEX
  8
T45SSILL
 62
8
 10
3737.559
 20
-7893.702
 30
687.370
 70
    32
  0
VERTEX
  8
T45SSILL
 62
8
 10
3748.920
 20
-7909.876
 30
687.175
 70
    32
  0
VERTEX
  8
T45SSILL
 62
8
 10
3988.221
 20
-7983.147
 30
686.392
 70
    32
  0
VERTEX
  8
T45SSILL
 62
8
 10
3990.498
 20
-7975.455
 30
686.389
 70
    32
  0
VERTEX
  8
T45SSILL
 62
8
 10
3979.877
 20
-7973.002
 30
686.416
 70
    32
  0
VERTEX
  8
T45SSILL
 62
8
 10
3978.013
 20
-7968.311
 30
686.422
 70
    32
  0
VERTEX
  8
T45SSILL
 62
8
 10
3986.189
 20
-7965.185
 30
686.403
 70
    32
  0
VERTEX
  8
T45SSILL
 62
8
 10
3983.155
 20
-7956.266
 30
686.414
 70
    32
  0
VERTEX
  8
T45SSILL
 62
8
 10
3947.873
 20
-7962.734
 30
686.498
 70
    32
  0
VERTEX
  8
T45SSILL
 62
8
 10
3754.120
 20
-7903.930
 30
687.154
 70
    32
  0
VERTEX
  8
T45SSILL
 62
8
 10
3691.795
 20
-7819.990
 30
688.198
 70
    32
  0
VERTEX
  8
T45SSILL
 62
8
 10
3703.077
 20
-7812.101
 30
688.127
 70
    32
  0
VERTEX
  8
T45SSILL
 62
8
 10
3696.055
 20
-7802.937
 30
688.243
 70
    32
  0
VERTEX
  8
T45SSILL
 62
8
 10
3687.763
 20
-7808.498
 30
688.297
 70
    32
  0
VERTEX
  8
T45SSILL
 62
8
 10
3683.535
 20
-7808.662
 30
688.337
 70
    32
  0
VERTEX
  8
T45SSILL
 62
8
 10
3609.811
 20
-7709.361
 30
689.487
 70
    32
  0
VERTEX
  8
T45SSILL
 62
8
 10
3608.673
 20
-7704.886
 30
689.460
 70
    32
  0
VERTEX
  8
T45SSILL
 62
8
 10
3614.808
 20
-7699.999
 30
689.417
 70
    32
  0
VERTEX
  8
T45SSILL
 62
8
 10
3610.886
 20
-7692.665
 30
689.388
 70
    32
  0
VERTEX
  8
T45SSILL
 62
8
 10
3595.542
 20
-7690.314
 30
689.364
 70
    32
  0
VERTEX
  8
T45SSILL
 62
8
 10
3569.542
 20
-7656.052
 30
689.142
 70
    32
  0
VERTEX
  8
T45SSILL
 62
8
 10
3584.855
 20
-7656.641
 30
689.155
 70
    32
  0
VERTEX
  8
T45SSILL
 62
8
 10
3595.288
 20
-7652.540
 30
689.137
 70
    32
  0
VERTEX
  8
T45SSILL
 62
8
 10
3687.272
 20
-7586.633
 30
688.386
 70
    32
  0
VERTEX
  8
T45SSILL
 62
8
 10
3698.144
 20
-7598.161
 30
688.381
 70
    32
  0
VERTEX
  8
T45SSILL
 62
8
 10
3706.994
 20
-7598.196
 30
688.328
 70
    32
  0
VERTEX
  8
T45SSILL
 62
8
 10
3713.037
 20
-7593.046
 30
688.265
 70
    32
  0
VERTEX
  8
T45SSILL
 62
8
 10
3710.993
 20
-7585.256
 30
688.236
 70
    32
  0
VERTEX
  8
T45SSILL
 62
8
 10
3707.381
 20
-7579.468
 30
688.228
 70
    32
  0
VERTEX
  8
T45SSILL
 62
8
 10
3709.936
 20
-7570.555
 30
688.165
 70
    32
  0
VERTEX
  8
T45SSILL
 62
8
 10
3835.580
 20
-7480.457
 30
686.936
 70
    32
  0
VERTEX
  8
T45SSILL
 62
8
 10
3832.284
 20
-7473.641
 30
686.920
 70
    32
  0
VERTEX
  8
T45SSILL
 62
8
 10
3704.098
 20
-7565.494
 30
688.174
 70
    32
  0
VERTEX
  8
T45SSILL
 62
8
 10
3695.656
 20
-7561.679
 30
688.205
 70
    32
  0
VERTEX
  8
T45SSILL
 62
8
 10
3688.928
 20
-7552.175
 30
688.196
 70
    32
  0
VERTEX
  8
T45SSILL
 62
8
 10
3683.593
 20
-7549.626
 30
688.214
 70
    32
  0
VERTEX
  8
T45SSILL
 62
8
 10
3679.456
 20
-7544.024
 30
688.210
 70
    32
  0
VERTEX
  8
T45SSILL
 62
8
 10
3669.519
 20
-7551.201
 30
688.307
 70
    32
  0
VERTEX
  8
T45SSILL
 62
8
 10
3671.024
 20
-7564.325
 30
688.367
 70
    32
  0
VERTEX
  8
T45SSILL
 62
8
 10
3676.756
 20
-7577.285
 30
688.401
 70
    32
  0
VERTEX
  8
T45SSILL
 62
8
 10
3675.191
 20
-7586.321
 30
688.457
 70
    32
  0
VERTEX
  8
T45SSILL
 62
8
 10
3591.181
 20
-7646.691
 30
689.100
 70
    32
  0
VERTEX
  8
T45SSILL
 62
8
 10
3584.836
 20
-7648.726
 30
689.108
 70
    32
  0
VERTEX
  8
T45SSILL
 62
8
 10
3571.758
 20
-7648.855
 30
689.100
 70
    32
  0
VERTEX
  8
T45SSILL
 62
8
 10
3558.467
 20
-7640.103
 30
689.039
 70
    32
  0
VERTEX
  8
T45SSILL
 62
8
 10
3509.614
 20
-7574.044
 30
688.612
 70
    32
  0
VERTEX
  8
T45SSILL
 62
8
 10
3515.835
 20
-7569.983
 30
688.592
 70
    32
  0
VERTEX
  8
T45SSILL
 62
8
 10
3501.303
 20
-7550.024
 30
688.463
 70
    32
  0
VERTEX
  8
T45SSILL
 62
8
 10
3494.735
 20
-7554.355
 30
688.485
 70
    32
  0
VERTEX
  8
T45SSILL
 62
8
 10
3391.608
 20
-7416.852
 30
687.499
 70
    32
  0
VERTEX
  8
T45SSILL
 62
8
 10
3388.258
 20
-7407.957
 30
687.504
 70
    32
  0
VERTEX
  8
T45SSILL
 62
8
 10
3389.374
 20
-7396.478
 30
687.492
 70
    32
  0
VERTEX
  8
T45SSILL
 62
8
 10
3396.743
 20
-7384.711
 30
687.457
 70
    32
  0
VERTEX
  8
T45SSILL
 62
8
 10
3709.399
 20
-7158.775
 30
686.038
 70
    32
  0
VERTEX
  8
T45SSILL
 62
8
 10
3715.206
 20
-7164.139
 30
686.031
 70
    32
  0
VERTEX
  8
T45SSILL
 62
8
 10
3717.449
 20
-7184.605
 30
686.115
 70
    32
  0
VERTEX
  8
T45SSILL
 62
8
 10
3724.303
 20
-7196.752
 30
686.134
 70
    32
  0
VERTEX
  8
T45SSILL
 62
8
 10
3735.487
 20
-7223.122
 30
686.197
 70
    32
  0
VERTEX
  8
T45SSILL
 62
8
 10
3748.114
 20
-7240.439
 30
686.208
 70
    32
  0
VERTEX
  8
T45SSILL
 62
8
 10
3755.317
 20
-7237.878
 30
686.155
 70
    32
  0
VERTEX
  8
T45SSILL
 62
8
 10
3757.106
 20
-7235.249
 30
686.133
 70
    32
  0
VERTEX
  8
T45SSILL
 62
8
 10
3759.936
 20
-7221.234
 30
686.051
 70
    32
  0
VERTEX
  8
T45SSILL
 62
8
 10
3755.325
 20
-7216.305
 30
686.053
 70
    32
  0
VERTEX
  8
T45SSILL
 62
8
 10
3754.227
 20
-7211.091
 30
686.034
 70
    32
  0
VERTEX
  8
T45SSILL
 62
8
 10
3755.481
 20
-7199.549
 30
685.973
 70
    32
  0
VERTEX
  8
T45SSILL
 62
8
 10
3754.135
 20
-7196.378
 30
685.965
 70
    32
  0
VERTEX
  8
T45SSILL
 62
8
 10
3748.051
 20
-7192.423
 30
685.981
 70
    32
  0
VERTEX
  8
T45SSILL
 62
8
 10
3745.992
 20
-7188.135
 30
685.972
 70
    32
  0
VERTEX
  8
T45SSILL
 62
8
 10
3743.683
 20
-7174.725
 30
685.921
 70
    32
  0
VERTEX
  8
T45SSILL
 62
8
 10
3745.474
 20
-7160.489
 30
685.919
 70
    32
  0
VERTEX
  8
T45SSILL
 62
8
 10
3742.410
 20
-7152.452
 30
685.923
 70
    32
  0
VERTEX
  8
T45SSILL
 62
8
 10
3752.736
 20
-7138.507
 30
685.923
 70
    32
  0
VERTEX
  8
T45SSILL
 62
8
 10
3761.767
 20
-7130.988
 30
685.921
 70
    32
  0
VERTEX
  8
T45SSILL
 62
8
 10
3760.587
 20
-7121.346
 30
685.925
 70
    32
  0
VERTEX
  8
T45SSILL
 62
8
 10
3801.584
 20
-7092.835
 30
685.914
 70
    32
  0
VERTEX
  8
T45SSILL
 62
8
 10
3804.899
 20
-7096.747
 30
685.911
 70
    32
  0
VERTEX
  8
T45SSILL
 62
8
 10
3803.452
 20
-7106.241
 30
685.909
 70
    32
  0
VERTEX
  8
T45SSILL
 62
8
 10
3803.989
 20
-7120.517
 30
685.904
 70
    32
  0
VERTEX
  8
T45SSILL
 62
8
 10
3810.070
 20
-7136.079
 30
685.896
 70
    32
  0
VERTEX
  8
T45SSILL
 62
8
 10
3866.086
 20
-7214.324
 30
685.844
 70
    32
  0
VERTEX
  8
T45SSILL
 62
8
 10
3858.166
 20
-7219.930
 30
685.846
 70
    32
  0
VERTEX
  8
T45SSILL
 62
8
 10
3862.200
 20
-7226.159
 30
685.842
 70
    32
  0
VERTEX
  8
T45SSILL
 62
8
 10
3870.760
 20
-7220.083
 30
685.840
 70
    32
  0
VERTEX
  8
T45SSILL
 62
8
 10
3886.603
 20
-7242.369
 30
685.826
 70
    32
  0
VERTEX
  8
T45SSILL
 62
8
 10
3887.500
 20
-7246.417
 30
685.824
 70
    32
  0
VERTEX
  8
T45SSILL
 62
8
 10
3882.386
 20
-7261.345
 30
685.822
 70
    32
  0
VERTEX
  8
T45SSILL
 62
8
 10
3872.459
 20
-7268.538
 30
685.824
 70
    32
  0
VERTEX
  8
T45SSILL
 62
8
 10
3850.485
 20
-7273.642
 30
685.833
 70
    32
  0
VERTEX
  8
T45SSILL
 62
8
 10
3842.978
 20
-7272.813
 30
685.837
 70
    32
  0
VERTEX
  8
T45SSILL
 62
8
 10
3837.022
 20
-7275.880
 30
685.877
 70
    32
  0
VERTEX
  8
T45SSILL
 62
8
 10
3836.003
 20
-7282.979
 30
685.917
 70
    32
  0
VERTEX
  8
T45SSILL
 62
8
 10
3837.620
 20
-7293.066
 30
685.955
 70
    32
  0
VERTEX
  8
T45SSILL
 62
8
 10
3824.551
 20
-7302.240
 30
686.072
 70
    32
  0
VERTEX
  8
T45SSILL
 62
8
 10
3807.872
 20
-7303.231
 30
686.173
 70
    32
  0
VERTEX
  8
T45SSILL
 62
8
 10
3808.248
 20
-7314.013
 30
686.228
 70
    32
  0
VERTEX
  8
T45SSILL
 62
8
 10
3791.560
 20
-7325.411
 30
686.388
 70
    32
  0
VERTEX
  8
T45SSILL
 62
8
 10
3796.946
 20
-7332.288
 30
686.392
 70
    32
  0
VERTEX
  8
T45SSILL
 62
8
 10
3821.775
 20
-7314.245
 30
686.147
 70
    32
  0
VERTEX
  8
T45SSILL
 62
8
 10
3834.059
 20
-7313.531
 30
686.072
 70
    32
  0
VERTEX
  8
T45SSILL
 62
8
 10
3833.760
 20
-7305.978
 30
686.038
 70
    32
  0
VERTEX
  8
T45SSILL
 62
8
 10
3841.571
 20
-7300.671
 30
685.969
 70
    32
  0
VERTEX
  8
T45SSILL
 62
8
 10
3847.983
 20
-7309.092
 30
685.973
 70
    32
  0
VERTEX
  8
T45SSILL
 62
8
 10
3851.042
 20
-7315.930
 30
685.988
 70
    32
  0
VERTEX
  8
T45SSILL
 62
8
 10
3850.564
 20
-7323.616
 30
686.027
 70
    32
  0
VERTEX
  8
T45SSILL
 62
8
 10
3846.378
 20
-7337.424
 30
686.121
 70
    32
  0
VERTEX
  8
T45SSILL
 62
8
 10
3852.696
 20
-7339.018
 30
686.091
 70
    32
  0
VERTEX
  8
T45SSILL
 62
8
 10
3855.750
 20
-7333.049
 30
686.043
 70
    32
  0
VERTEX
  8
T45SSILL
 62
8
 10
3858.380
 20
-7321.590
 30
685.974
 70
    32
  0
VERTEX
  8
T45SSILL
 62
8
 10
3865.660
 20
-7312.732
 30
685.891
 70
    32
  0
VERTEX
  8
T45SSILL
 62
8
 10
3865.686
 20
-7308.005
 30
685.869
 70
    32
  0
VERTEX
  8
T45SSILL
 62
8
 10
3859.896
 20
-7297.155
 30
685.850
 70
    32
  0
VERTEX
  8
T45SSILL
 62
8
 10
3861.574
 20
-7293.184
 30
685.821
 70
    32
  0
VERTEX
  8
T45SSILL
 62
8
 10
3868.703
 20
-7281.591
 30
685.822
 70
    32
  0
VERTEX
  8
T45SSILL
 62
8
 10
3898.580
 20
-7259.398
 30
685.814
 70
    32
  0
VERTEX
  8
T45SSILL
 62
8
 10
3976.562
 20
-7367.359
 30
685.743
 70
    32
  0
VERTEX
  8
T45SSILL
 62
8
 10
3969.401
 20
-7372.954
 30
685.744
 70
    32
  0
VERTEX
  8
T45SSILL
 62
8
 10
3974.018
 20
-7379.083
 30
685.740
 70
    32
  0
VERTEX
  8
T45SSILL
 62
8
 10
3981.138
 20
-7374.175
 30
685.738
 70
    32
  0
VERTEX
  8
T45SSILL
 62
8
 10
4062.436
 20
-7487.689
 30
685.663
 70
    32
  0
VERTEX
  8
T45SSILL
 62
8
 10
4068.494
 20
-7500.094
 30
685.656
 70
    32
  0
VERTEX
  8
T45SSILL
 62
8
 10
4070.118
 20
-7511.381
 30
685.686
 70
    32
  0
VERTEX
  8
T45SSILL
 62
8
 10
4065.769
 20
-7531.220
 30
685.816
 70
    32
  0
VERTEX
  8
T45SSILL
 62
8
 10
4060.567
 20
-7540.520
 30
685.897
 70
    32
  0
VERTEX
  8
T45SSILL
 62
8
 10
4039.838
 20
-7557.737
 30
686.109
 70
    32
  0
VERTEX
  8
T45SSILL
 62
8
 10
3919.355
 20
-7642.957
 30
686.861
 70
    32
  0
VERTEX
  8
T45SSILL
 62
8
 10
3911.225
 20
-7623.866
 30
687.039
 70
    32
  0
VERTEX
  8
T45SSILL
 62
8
 10
3910.346
 20
-7615.973
 30
687.088
 70
    32
  0
VERTEX
  8
T45SSILL
 62
8
 10
3905.096
 20
-7607.792
 30
687.181
 70
    32
  0
VERTEX
  8
T45SSILL
 62
8
 10
3887.562
 20
-7611.491
 30
687.311
 70
    32
  0
VERTEX
  8
T45SSILL
 62
8
 10
3882.010
 20
-7614.808
 30
687.361
 70
    32
  0
VERTEX
  8
T45SSILL
 62
8
 10
3892.278
 20
-7654.223
 30
687.070
 70
    32
  0
VERTEX
  8
T45SSILL
 62
8
 10
3883.856
 20
-7653.192
 30
687.158
 70
    32
  0
VERTEX
  8
T45SSILL
 62
8
 10
3842.924
 20
-7633.264
 30
687.664
 70
    32
  0
VERTEX
  8
T45SSILL
 62
8
 10
3838.403
 20
-7628.159
 30
687.694
 70
    32
  0
VERTEX
  8
T45SSILL
 62
8
 10
3839.234
 20
-7622.293
 30
687.658
 70
    32
  0
VERTEX
  8
T45SSILL
 62
8
 10
3835.516
 20
-7618.131
 30
687.659
 70
    32
  0
VERTEX
  8
T45SSILL
 62
8
 10
3836.503
 20
-7595.508
 30
687.534
 70
    32
  0
VERTEX
  8
T45SSILL
 62
8
 10
3834.401
 20
-7593.989
 30
687.539
 70
    32
  0
VERTEX
  8
T45SSILL
 62
8
 10
3833.238
 20
-7573.057
 30
687.436
 70
    32
  0
VERTEX
  8
T45SSILL
 62
8
 10
3828.720
 20
-7569.593
 30
687.445
 70
    32
  0
VERTEX
  8
T45SSILL
 62
8
 10
3828.093
 20
-7559.215
 30
687.394
 70
    32
  0
VERTEX
  8
T45SSILL
 62
8
 10
3823.953
 20
-7558.647
 30
687.416
 70
    32
  0
VERTEX
  8
T45SSILL
 62
8
 10
3819.402
 20
-7541.741
 30
687.355
 70
    32
  0
VERTEX
  8
T45SSILL
 62
8
 10
3816.785
 20
-7538.629
 30
687.355
 70
    32
  0
VERTEX
  8
T45SSILL
 62
8
 10
3792.037
 20
-7540.409
 30
687.513
 70
    32
  0
VERTEX
  8
T45SSILL
 62
8
 10
3776.966
 20
-7548.647
 30
687.647
 70
    32
  0
VERTEX
  8
T45SSILL
 62
8
 10
3776.691
 20
-7551.696
 30
687.665
 70
    32
  0
VERTEX
  8
T45SSILL
 62
8
 10
3783.557
 20
-7562.520
 30
687.680
 70
    32
  0
VERTEX
  8
T45SSILL
 62
8
 10
3787.519
 20
-7574.605
 30
687.720
 70
    32
  0
VERTEX
  8
T45SSILL
 62
8
 10
3788.798
 20
-7590.634
 30
687.796
 70
    32
  0
VERTEX
  8
T45SSILL
 62
8
 10
3803.721
 20
-7615.240
 30
687.835
 70
    32
  0
VERTEX
  8
T45SSILL
 62
8
 10
3810.586
 20
-7635.590
 30
687.901
 70
    32
  0
VERTEX
  8
T45SSILL
 62
8
 10
3815.147
 20
-7642.089
 30
687.892
 70
    32
  0
VERTEX
  8
T45SSILL
 62
8
 10
3814.555
 20
-7652.597
 30
687.844
 70
    32
  0
VERTEX
  8
T45SSILL
 62
8
 10
3820.054
 20
-7658.734
 30
687.759
 70
    32
  0
VERTEX
  8
T45SSILL
 62
8
 10
3822.427
 20
-7667.170
 30
687.692
 70
    32
  0
VERTEX
  8
T45SSILL
 62
8
 10
3827.203
 20
-7671.431
 30
687.623
 70
    32
  0
VERTEX
  8
T45SSILL
 62
8
 10
3828.922
 20
-7680.020
 30
687.563
 70
    32
  0
VERTEX
  8
T45SSILL
 62
8
 10
3836.151
 20
-7682.257
 30
687.480
 70
    32
  0
VERTEX
  8
T45SSILL
 62
8
 10
3852.526
 20
-7674.155
 30
687.360
 70
    32
  0
VERTEX
  8
T45SSILL
 62
8
 10
3856.030
 20
-7667.308
 30
687.360
 70
    32
  0
VERTEX
  8
T45SSILL
 62
8
 10
3844.960
 20
-7651.364
 30
687.551
 70
    32
  0
VERTEX
  8
T45SSILL
 62
8
 10
3849.505
 20
-7646.379
 30
687.532
 70
    32
  0
VERTEX
  8
T45SSILL
 62
8
 10
3883.366
 20
-7662.201
 30
687.117
 70
    32
  0
VERTEX
  8
T45SSILL
 62
8
 10
3885.735
 20
-7667.356
 30
687.067
 70
    32
  0
VERTEX
  8
T45SSILL
 62
8
 10
3868.280
 20
-7679.647
 30
687.177
 70
    32
  0
VERTEX
  8
T45SSILL
 62
8
 10
3855.629
 20
-7702.637
 30
687.184
 70
    32
  0
VERTEX
  8
T45SSILL
 62
8
 10
3848.030
 20
-7700.343
 30
687.270
 70
    32
  0
VERTEX
  8
T45SSILL
 62
8
 10
3841.818
 20
-7693.088
 30
687.369
 70
    32
  0
VERTEX
  8
T45SSILL
 62
8
 10
3835.330
 20
-7698.408
 30
687.405
 70
    32
  0
VERTEX
  8
T45SSILL
 62
8
 10
3844.050
 20
-7709.073
 30
687.265
 70
    32
  0
VERTEX
  8
T45SSILL
 62
8
 10
3846.979
 20
-7718.414
 30
687.188
 70
    32
  0
VERTEX
  8
T45SSILL
 62
8
 10
3837.976
 20
-7736.093
 30
687.186
 70
    32
  0
VERTEX
  8
T45SSILL
 62
8
 10
3844.789
 20
-7739.403
 30
687.102
 70
    32
  0
VERTEX
  8
T45SSILL
 62
8
 10
3872.628
 20
-7686.303
 30
687.100
 70
    32
  0
VERTEX
  8
T45SSILL
 62
8
 10
3896.510
 20
-7669.503
 30
686.950
 70
    32
  0
VERTEX
  8
T45SSILL
 62
8
 10
3900.310
 20
-7670.650
 30
686.907
 70
    32
  0
VERTEX
  8
T45SSILL
 62
8
 10
3903.878
 20
-7675.799
 30
686.845
 70
    32
  0
VERTEX
  8
T45SSILL
 62
8
 10
3906.687
 20
-7677.237
 30
686.810
 70
    32
  0
VERTEX
  8
T45SSILL
 62
8
 10
3911.123
 20
-7676.273
 30
686.772
 70
    32
  0
VERTEX
  8
T45SSILL
 62
8
 10
3914.935
 20
-7672.375
 30
686.754
 70
    32
  0
VERTEX
  8
T45SSILL
 62
8
 10
3916.244
 20
-7666.266
 30
686.772
 70
    32
  0
VERTEX
  8
T45SSILL
 62
8
 10
3922.001
 20
-7659.952
 30
686.748
 70
    32
  0
VERTEX
  8
T45SSILL
 62
8
 10
3923.072
 20
-7656.645
 30
686.754
 70
    32
  0
VERTEX
  8
T45SSILL
 62
8
 10
3922.106
 20
-7650.568
 30
686.795
 70
    32
  0
VERTEX
  8
T45SSILL
 62
8
 10
4049.313
 20
-7559.307
 30
686.008
 70
    32
  0
VERTEX
  8
T45SSILL
 62
8
 10
4051.491
 20
-7560.333
 30
685.981
 70
    32
  0
VERTEX
  8
T45SSILL
 62
8
 10
4054.442
 20
-7565.388
 30
685.926
 70
    32
  0
VERTEX
  8
T45SSILL
 62
8
 10
4055.437
 20
-7577.904
 30
685.852
 70
    32
  0
VERTEX
  8
T45SSILL
 62
8
 10
4061.205
 20
-7593.040
 30
685.786
 70
    32
  0
VERTEX
  8
T45SSILL
 62
8
 10
4073.490
 20
-7603.492
 30
685.778
 70
    32
  0
VERTEX
  8
T45SSILL
 62
8
 10
4084.761
 20
-7607.354
 30
685.763
 70
    32
  0
VERTEX
  8
T45SSILL
 62
8
 10
4085.735
 20
-7605.106
 30
685.758
 70
    32
  0
VERTEX
  8
T45SSILL
 62
8
 10
4092.358
 20
-7608.008
 30
685.750
 70
    32
  0
VERTEX
  8
T45SSILL
 62
8
 10
4161.398
 20
-7625.217
 30
685.646
 70
    32
  0
VERTEX
  8
T45SSILL
 62
8
 10
4308.391
 20
-7830.431
 30
685.660
 70
    32
  0
VERTEX
  8
T45SSILL
 62
8
 10
4303.206
 20
-7834.861
 30
685.671
 70
    32
  0
VERTEX
  8
T45SSILL
 62
8
 10
4307.598
 20
-7841.619
 30
685.660
 70
    32
  0
VERTEX
  8
T45SSILL
 62
8
 10
4313.613
 20
-7837.561
 30
685.663
 70
    32
  0
VERTEX
  8
T45SSILL
 62
8
 10
4325.504
 20
-7854.934
 30
685.671
 70
    32
  0
VERTEX
  8
T45SSILL
 62
8
 10
4323.054
 20
-7863.168
 30
685.670
 70
    32
  0
VERTEX
  8
T45SSILL
 62
8
 10
4325.093
 20
-7871.796
 30
685.672
 70
    32
  0
VERTEX
  8
T45SSILL
 62
8
 10
4311.163
 20
-7939.493
 30
685.670
 70
    32
  0
VERTEX
  8
T45SSILL
 62
8
 10
4305.024
 20
-7943.533
 30
685.667
 70
    32
  0
VERTEX
  8
T45SSILL
 62
8
 10
4290.746
 20
-7940.527
 30
685.664
 70
    32
  0
VERTEX
  8
T45SSILL
 62
8
 10
4283.456
 20
-7946.421
 30
685.679
 70
    32
  0
VERTEX
  8
T45SSILL
 62
8
 10
4279.638
 20
-7959.761
 30
685.684
 70
    32
  0
VERTEX
  8
T45SSILL
 62
8
 10
4285.870
 20
-7965.584
 30
685.667
 70
    32
  0
VERTEX
  8
T45SSILL
 62
8
 10
4287.133
 20
-7972.586
 30
685.661
 70
    32
  0
VERTEX
  8
T45SSILL
 62
8
 10
4301.632
 20
-7982.380
 30
685.668
 70
    32
  0
VERTEX
  8
T45SSILL
 62
8
 10
4288.843
 20
-7989.627
 30
685.662
 70
    32
  0
VERTEX
  8
T45SSILL
 62
8
 10
4279.188
 20
-7992.655
 30
685.673
 70
    32
  0
VERTEX
  8
T45SSILL
 62
8
 10
4279.610
 20
-8007.238
 30
685.667
 70
    32
  0
VERTEX
  8
T45SSILL
 62
8
 10
4277.552
 20
-8013.634
 30
685.670
 70
    32
  0
VERTEX
  8
T45SSILL
 62
8
 10
4278.851
 20
-8020.387
 30
685.664
 70
    32
  0
VERTEX
  8
T45SSILL
 62
8
 10
4275.603
 20
-8030.211
 30
685.669
 70
    32
  0
VERTEX
  8
T45SSILL
 62
8
 10
4263.237
 20
-8038.467
 30
685.696
 70
    32
  0
VERTEX
  8
T45SSILL
 62
8
 10
4262.365
 20
-8042.319
 30
685.697
 70
    32
  0
VERTEX
  8
T45SSILL
 62
8
 10
4248.477
 20
-8051.933
 30
685.728
 70
    32
  0
VERTEX
  8
T45SSILL
 62
8
 10
4252.799
 20
-8058.302
 30
685.715
 70
    32
  0
VERTEX
  8
T45SSILL
 62
8
 10
4271.147
 20
-8044.911
 30
685.674
 70
    32
  0
VERTEX
  8
T45SSILL
 62
8
 10
4275.071
 20
-8044.404
 30
685.665
 70
    32
  0
VERTEX
  8
T45SSILL
 62
8
 10
4279.451
 20
-8047.750
 30
685.661
 70
    32
  0
VERTEX
  8
T45SSILL
 62
8
 10
4285.946
 20
-8054.811
 30
685.665
 70
    32
  0
VERTEX
  8
T45SSILL
 62
8
 10
4286.981
 20
-8060.769
 30
685.666
 70
    32
  0
VERTEX
  8
T45SSILL
 62
8
 10
4293.649
 20
-8070.570
 30
685.670
 70
    32
  0
VERTEX
  8
T45SSILL
 62
8
 10
4309.913
 20
-8109.284
 30
685.680
 70
    32
  0
VERTEX
  8
T45SSILL
 62
8
 10
4314.453
 20
-8110.633
 30
685.682
 70
    32
  0
VERTEX
  8
T45SSILL
 62
8
 10
4320.417
 20
-8105.621
 30
685.686
 70
    32
  0
VERTEX
  8
T45SSILL
 62
8
 10
4365.420
 20
-8145.133
 30
685.705
 70
    32
  0
VERTEX
  8
T45SSILL
 62
8
 10
4368.534
 20
-8142.362
 30
685.707
 70
    32
  0
VERTEX
  8
T45SSILL
 62
8
 10
4391.962
 20
-8150.224
 30
685.718
 70
    32
  0
VERTEX
  8
T45SSILL
 62
8
 10
4397.708
 20
-8162.480
 30
685.720
 70
    32
  0
VERTEX
  8
T45SSILL
 62
8
 10
4409.889
 20
-8173.897
 30
685.725
 70
    32
  0
VERTEX
  8
T45SSILL
 62
8
 10
4434.404
 20
-8201.362
 30
685.735
 70
    32
  0
VERTEX
  8
T45SSILL
 62
8
 10
4441.758
 20
-8200.276
 30
685.739
 70
    32
  0
VERTEX
  8
T45SSILL
 62
8
 10
4469.706
 20
-8238.086
 30
685.749
 70
    32
  0
VERTEX
  8
T45SSILL
 62
8
 10
4475.262
 20
-8233.710
 30
685.753
 70
    32
  0
VERTEX
  8
T45SSILL
 62
8
 10
4447.388
 20
-8193.638
 30
685.742
 70
    32
  0
VERTEX
  8
T45SSILL
 62
8
 10
4445.123
 20
-8182.199
 30
685.742
 70
    32
  0
VERTEX
  8
T45SSILL
 62
8
 10
4451.819
 20
-8171.231
 30
685.747
 70
    32
  0
VERTEX
  8
T45SSILL
 62
8
 10
4440.936
 20
-8153.877
 30
685.743
 70
    32
  0
VERTEX
  8
T45SSILL
 62
8
 10
4425.530
 20
-8135.491
 30
685.737
 70
    32
  0
VERTEX
  8
T45SSILL
 62
8
 10
4418.330
 20
-8112.733
 30
685.736
 70
    32
  0
VERTEX
  8
T45SSILL
 62
8
 10
4416.121
 20
-8099.597
 30
685.735
 70
    32
  0
VERTEX
  8
T45SSILL
 62
8
 10
4405.091
 20
-8072.751
 30
685.727
 70
    32
  0
VERTEX
  8
T45SSILL
 62
8
 10
4400.274
 20
-8066.311
 30
685.724
 70
    32
  0
VERTEX
  8
T45SSILL
 62
8
 10
4400.144
 20
-8058.021
 30
685.723
 70
    32
  0
VERTEX
  8
T45SSILL
 62
8
 10
4390.504
 20
-8050.001
 30
685.718
 70
    32
  0
VERTEX
  8
T45SSILL
 62
8
 10
4383.627
 20
-8037.707
 30
685.713
 70
    32
  0
VERTEX
  8
T45SSILL
 62
8
 10
4377.563
 20
-7998.318
 30
685.708
 70
    32
  0
VERTEX
  8
T45SSILL
 62
8
 10
4371.847
 20
-7989.790
 30
685.704
 70
    32
  0
VERTEX
  8
T45SSILL
 62
8
 10
4368.116
 20
-7977.572
 30
685.701
 70
    32
  0
VERTEX
  8
T45SSILL
 62
8
 10
4375.182
 20
-7967.983
 30
685.704
 70
    32
  0
VERTEX
  8
T45SSILL
 62
8
 10
4381.798
 20
-7963.697
 30
685.707
 70
    32
  0
VERTEX
  8
T45SSILL
 62
8
 10
4389.231
 20
-7943.238
 30
685.709
 70
    32
  0
VERTEX
  8
T45SSILL
 62
8
 10
4534.663
 20
-8145.799
 30
685.793
 70
    32
  0
VERTEX
  8
T45SSILL
 62
8
 10
4540.485
 20
-8141.682
 30
685.797
 70
    32
  0
VERTEX
  8
T45SSILL
 62
8
 10
4478.787
 20
-8055.155
 30
685.763
 70
    32
  0
VERTEX
  8
T45SSILL
 62
8
 10
4492.273
 20
-8055.774
 30
685.770
 70
    32
  0
VERTEX
  8
T45SSILL
 62
8
 10
4502.918
 20
-8052.006
 30
685.775
 70
    32
  0
VERTEX
  8
T45SSILL
 62
8
 10
4638.230
 20
-7955.216
 30
685.868
 70
    32
  0
VERTEX
  8
T45SSILL
 62
8
 10
4656.280
 20
-7979.792
 30
685.878
 70
    32
  0
VERTEX
  8
T45SSILL
 62
8
 10
4652.062
 20
-7988.023
 30
685.874
 70
    32
  0
VERTEX
  8
T45SSILL
 62
8
 10
4643.605
 20
-7993.686
 30
685.868
 70
    32
  0
VERTEX
  8
T45SSILL
 62
8
 10
4648.988
 20
-7999.703
 30
685.871
 70
    32
  0
VERTEX
  8
T45SSILL
 62
8
 10
4660.997
 20
-7994.805
 30
685.880
 70
    32
  0
VERTEX
  8
T45SSILL
 62
8
 10
4663.493
 20
-7991.945
 30
685.882
 70
    32
  0
VERTEX
  8
T45SSILL
 62
8
 10
4665.278
 20
-7992.265
 30
685.883
 70
    32
  0
VERTEX
  8
T45SSILL
 62
8
 10
4693.120
 20
-8029.492
 30
685.898
 70
    32
  0
VERTEX
  8
T45SSILL
 62
8
 10
4699.011
 20
-8024.974
 30
685.902
 70
    32
  0
VERTEX
  8
T45SSILL
 62
8
 10
4643.627
 20
-7951.070
 30
685.872
 70
    32
  0
VERTEX
  8
T45SSILL
 62
8
 10
4773.631
 20
-7857.809
 30
685.969
 70
    32
  0
VERTEX
  8
T45SSILL
 62
8
 10
4644.578
 20
-7620.041
 30
686.146
 70
    32
  0
VERTEX
  8
T45SSILL
 62
8
 10
4647.305
 20
-7589.307
 30
686.201
 70
    32
  0
VERTEX
  8
T45SSILL
 62
8
 10
4633.117
 20
-7572.108
 30
686.199
 70
    32
  0
VERTEX
  8
T45SSILL
 62
8
 10
4625.198
 20
-7559.158
 30
686.199
 70
    32
  0
VERTEX
  8
T45SSILL
 62
8
 10
4619.248
 20
-7553.565
 30
686.197
 70
    32
  0
VERTEX
  8
T45SSILL
 62
8
 10
4615.218
 20
-7553.931
 30
686.192
 70
    32
  0
VERTEX
  8
T45SSILL
 62
8
 10
4612.751
 20
-7548.271
 30
686.193
 70
    32
  0
VERTEX
  8
T45SSILL
 62
8
 10
4602.619
 20
-7537.971
 30
686.189
 70
    32
  0
VERTEX
  8
T45SSILL
 62
8
 10
4591.686
 20
-7531.469
 30
686.181
 70
    32
  0
VERTEX
  8
T45SSILL
 62
8
 10
4584.793
 20
-7531.107
 30
686.174
 70
    32
  0
VERTEX
  8
T45SSILL
 62
8
 10
4578.594
 20
-7527.245
 30
686.170
 70
    32
  0
VERTEX
  8
T45SSILL
 62
8
 10
4575.978
 20
-7527.436
 30
686.167
 70
    32
  0
VERTEX
  8
T45SSILL
 62
8
 10
4554.163
 20
-7503.139
 30
686.159
 70
    32
  0
VERTEX
  8
T45SSILL
 62
8
 10
4557.123
 20
-7497.062
 30
686.167
 70
    32
  0
VERTEX
  8
T45SSILL
 62
8
 10
4567.426
 20
-7485.162
 30
686.187
 70
    32
  0
VERTEX
  8
T45SSILL
 62
8
 10
4567.523
 20
-7478.799
 30
686.191
 70
    32
  0
VERTEX
  8
T45SSILL
 62
8
 10
4589.231
 20
-7463.114
 30
686.226
 70
    32
  0
VERTEX
  8
T45SSILL
 62
8
 10
4584.661
 20
-7457.152
 30
686.225
 70
    32
  0
VERTEX
  8
T45SSILL
 62
8
 10
4564.810
 20
-7471.778
 30
686.193
 70
    32
  0
VERTEX
  8
T45SSILL
 62
8
 10
4558.239
 20
-7468.305
 30
686.188
 70
    32
  0
VERTEX
  8
T45SSILL
 62
8
 10
4544.281
 20
-7477.089
 30
686.166
 70
    32
  0
VERTEX
  8
T45SSILL
 62
8
 10
4535.859
 20
-7483.830
 30
686.152
 70
    32
  0
VERTEX
  8
T45SSILL
 62
8
 10
4531.765
 20
-7492.079
 30
686.142
 70
    32
  0
VERTEX
  8
T45SSILL
 62
8
 10
4532.131
 20
-7496.110
 30
686.140
 70
    32
  0
VERTEX
  8
T45SSILL
 62
8
 10
4478.328
 20
-7534.253
 30
686.053
 70
    32
  0
VERTEX
  8
T45SSILL
 62
8
 10
4475.978
 20
-7533.914
 30
686.050
 70
    32
  0
VERTEX
  8
T45SSILL
 62
8
 10
4466.214
 20
-7525.877
 30
686.045
 70
    32
  0
VERTEX
  8
T45SSILL
 62
8
 10
4462.748
 20
-7527.145
 30
686.040
 70
    32
  0
VERTEX
  8
T45SSILL
 62
8
 10
4462.213
 20
-7530.856
 30
686.037
 70
    32
  0
VERTEX
  8
T45SSILL
 62
8
 10
4455.099
 20
-7536.838
 30
686.025
 70
    32
  0
VERTEX
  8
T45SSILL
 62
8
 10
4458.052
 20
-7549.639
 30
686.019
 70
    32
  0
VERTEX
  8
T45SSILL
 62
8
 10
4416.067
 20
-7579.827
 30
685.951
 70
    32
  0
VERTEX
  8
T45SSILL
 62
8
 10
4395.754
 20
-7569.636
 30
685.936
 70
    32
  0
VERTEX
  8
T45SSILL
 62
8
 10
4389.432
 20
-7569.486
 30
685.929
 70
    32
  0
VERTEX
  8
T45SSILL
 62
8
 10
4363.482
 20
-7525.130
 30
685.931
 70
    32
  0
VERTEX
  8
T45SSILL
 62
8
 10
4367.984
 20
-7517.425
 30
685.941
 70
    32
  0
VERTEX
  8
T45SSILL
 62
8
 10
4358.613
 20
-7504.252
 30
685.940
 70
    32
  0
VERTEX
  8
T45SSILL
 62
8
 10
4353.118
 20
-7507.564
 30
685.932
 70
    32
  0
VERTEX
  8
T45SSILL
 62
8
 10
4268.309
 20
-7359.591
 30
685.723
 70
    32
  0
VERTEX
  8
T45SSILL
 62
8
 10
4259.994
 20
-7364.064
 30
685.713
 70
    32
  0
VERTEX
  8
T45SSILL
 62
8
 10
4283.909
 20
-7404.171
 30
685.804
 70
    32
  0
VERTEX
  8
T45SSILL
 62
8
 10
4273.006
 20
-7402.447
 30
685.782
 70
    32
  0
VERTEX
  8
T45SSILL
 62
8
 10
4262.231
 20
-7404.022
 30
685.765
 70
    32
  0
VERTEX
  8
T45SSILL
 62
8
 10
4254.641
 20
-7408.290
 30
685.756
 70
    32
  0
VERTEX
  8
T45SSILL
 62
8
 10
4190.826
 20
-7458.619
 30
685.702
 70
    32
  0
VERTEX
  8
T45SSILL
 62
8
 10
4183.503
 20
-7456.999
 30
685.687
 70
    32
  0
VERTEX
  8
T45SSILL
 62
8
 10
4180.562
 20
-7452.702
 30
685.676
 70
    32
  0
VERTEX
  8
T45SSILL
 62
8
 10
4172.696
 20
-7459.039
 30
685.670
 70
    32
  0
VERTEX
  8
T45SSILL
 62
8
 10
4174.284
 20
-7462.520
 30
685.677
 70
    32
  0
VERTEX
  8
T45SSILL
 62
8
 10
4176.733
 20
-7467.890
 30
685.687
 70
    32
  0
VERTEX
  8
T45SSILL
 62
8
 10
4146.710
 20
-7490.629
 30
685.661
 70
    32
  0
VERTEX
  8
T45SSILL
 62
8
 10
4132.251
 20
-7469.185
 30
685.636
 70
    32
  0
VERTEX
  8
T45SSILL
 62
8
 10
4134.982
 20
-7462.031
 30
685.637
 70
    32
  0
VERTEX
  8
T45SSILL
 62
8
 10
4126.936
 20
-7458.534
 30
685.642
 70
    32
  0
VERTEX
  8
T45SSILL
 62
8
 10
4130.606
 20
-7448.937
 30
685.643
 70
    32
  0
VERTEX
  8
T45SSILL
 62
8
 10
4129.730
 20
-7442.684
 30
685.645
 70
    32
  0
VERTEX
  8
T45SSILL
 62
8
 10
4122.024
 20
-7421.638
 30
685.656
 70
    32
  0
VERTEX
  8
T45SSILL
 62
8
 10
4114.737
 20
-7412.327
 30
685.662
 70
    32
  0
VERTEX
  8
T45SSILL
 62
8
 10
4110.568
 20
-7411.124
 30
685.664
 70
    32
  0
VERTEX
  8
T45SSILL
 62
8
 10
4105.634
 20
-7412.453
 30
685.666
 70
    32
  0
VERTEX
  8
T45SSILL
 62
8
 10
4102.403
 20
-7407.167
 30
685.670
 70
    32
  0
VERTEX
  8
T45SSILL
 62
8
 10
4216.608
 20
-7325.468
 30
685.641
 70
    32
  0
VERTEX
  8
T45SSILL
 62
8
 10
4212.022
 20
-7317.893
 30
685.645
 70
    32
  0
VERTEX
  8
T45SSILL
 62
8
 10
4059.334
 20
-7428.990
 30
685.683
 70
    32
  0
VERTEX
  8
T45SSILL
 62
8
 10
4052.381
 20
-7431.148
 30
685.686
 70
    32
  0
VERTEX
  8
T45SSILL
 62
8
 10
4041.309
 20
-7430.533
 30
685.692
 70
    32
  0
VERTEX
  8
T45SSILL
 62
8
 10
4021.602
 20
-7415.796
 30
685.706
 70
    32
  0
VERTEX
  8
T45SSILL
 62
8
 10
4008.501
 20
-7398.280
 30
685.718
 70
    32
  0
VERTEX
  8
T45SSILL
 62
8
 10
4017.032
 20
-7399.013
 30
685.713
 70
    32
  0
VERTEX
  8
T45SSILL
 62
8
 10
4030.935
 20
-7396.779
 30
685.707
 70
    32
  0
VERTEX
  8
T45SSILL
 62
8
 10
4048.240
 20
-7385.475
 30
685.703
 70
    32
  0
VERTEX
  8
T45SSILL
 62
8
 10
4056.567
 20
-7396.648
 30
685.695
 70
    32
  0
VERTEX
  8
T45SSILL
 62
8
 10
4063.649
 20
-7391.987
 30
685.693
 70
    32
  0
VERTEX
  8
T45SSILL
 62
8
 10
4055.179
 20
-7380.918
 30
685.701
 70
    32
  0
VERTEX
  8
T45SSILL
 62
8
 10
4239.862
 20
-7249.464
 30
685.654
 70
    32
  0
VERTEX
  8
T45SSILL
 62
8
 10
4233.968
 20
-7242.194
 30
685.659
 70
    32
  0
VERTEX
  8
T45SSILL
 62
8
 10
4042.483
 20
-7378.541
 30
685.707
 70
    32
  0
VERTEX
  8
T45SSILL
 62
8
 10
3988.359
 20
-7273.396
 30
685.767
 70
    32
  0
VERTEX
  8
T45SSILL
 62
8
 10
3997.050
 20
-7266.457
 30
685.765
 70
    32
  0
VERTEX
  8
T45SSILL
 62
8
 10
3997.760
 20
-7262.212
 30
685.766
 70
    32
  0
VERTEX
  8
T45SSILL
 62
8
 10
3984.999
 20
-7240.396
 30
685.779
 70
    32
  0
VERTEX
  8
T45SSILL
 62
8
 10
3980.313
 20
-7239.682
 30
685.781
 70
    32
  0
VERTEX
  8
T45SSILL
 62
8
 10
3976.969
 20
-7235.135
 30
685.785
 70
    32
  0
VERTEX
  8
T45SSILL
 62
8
 10
3979.057
 20
-7219.367
 30
685.789
 70
    32
  0
VERTEX
  8
T45SSILL
 62
8
 10
3972.685
 20
-7206.536
 30
685.796
 70
    32
  0
VERTEX
  8
T45SSILL
 62
8
 10
4079.719
 20
-7129.675
 30
685.769
 70
    32
  0
VERTEX
  8
T45SSILL
 62
8
 10
4087.752
 20
-7113.803
 30
685.770
 70
    32
  0
VERTEX
  8
T45SSILL
 62
8
 10
4101.694
 20
-7132.014
 30
685.757
 70
    32
  0
VERTEX
  8
T45SSILL
 62
8
 10
4109.127
 20
-7127.533
 30
685.755
 70
    32
  0
VERTEX
  8
T45SSILL
 62
8
 10
4035.411
 20
-7025.521
 30
685.823
 70
    32
  0
VERTEX
  8
T45SSILL
 62
8
 10
4050.361
 20
-7015.182
 30
685.819
 70
    32
  0
VERTEX
  8
T45SSILL
 62
8
 10
4036.921
 20
-6996.165
 30
685.832
 70
    32
  0
VERTEX
  8
T45SSILL
 62
8
 10
4028.825
 20
-7001.681
 30
685.834
 70
    32
  0
VERTEX
  8
T45SSILL
 62
8
 10
4038.232
 20
-7014.295
 30
685.825
 70
    32
  0
VERTEX
  8
T45SSILL
 62
8
 10
4031.325
 20
-7019.220
 30
685.827
 70
    32
  0
VERTEX
  8
T45SSILL
 62
8
 10
4016.223
 20
-6998.688
 30
685.841
 70
    32
  0
VERTEX
  8
T45SSILL
 62
8
 10
3999.193
 20
-6982.529
 30
685.854
 70
    32
  0
VERTEX
  8
T45SSILL
 62
8
 10
3995.679
 20
-6971.648
 30
685.859
 70
    32
  0
VERTEX
  8
T45SSILL
 62
8
 10
3995.884
 20
-6959.125
 30
685.863
 70
    32
  0
VERTEX
  8
T45SSILL
 62
8
 10
3997.676
 20
-6952.333
 30
685.864
 70
    32
  0
VERTEX
  8
T45SSILL
 62
8
 10
4003.897
 20
-6947.450
 30
685.863
 70
    32
  0
VERTEX
  8
T45SSILL
 62
8
 10
4017.197
 20
-6966.222
 30
685.851
 70
    32
  0
VERTEX
  8
T45SSILL
 62
8
 10
4025.644
 20
-6960.885
 30
685.848
 70
    32
  0
VERTEX
  8
T45SSILL
 62
8
 10
4011.354
 20
-6941.596
 30
685.861
 70
    32
  0
VERTEX
  8
T45SSILL
 62
8
 10
4013.116
 20
-6940.213
 30
685.861
 70
    32
  0
VERTEX
  8
T45SSILL
 62
8
 10
4031.561
 20
-6926.970
 30
685.856
 70
    32
  0
VERTEX
  8
T45SSILL
 62
8
 10
4042.604
 20
-6941.076
 30
685.846
 70
    32
  0
VERTEX
  8
T45SSILL
 62
8
 10
4048.426
 20
-6937.232
 30
685.845
 70
    32
  0
VERTEX
  8
T45SSILL
 62
8
 10
4037.659
 20
-6922.592
 30
685.855
 70
    32
  0
VERTEX
  8
T45SSILL
 62
8
 10
4060.423
 20
-6906.247
 30
685.849
 70
    32
  0
VERTEX
  8
T45SSILL
 62
8
 10
4071.776
 20
-6922.686
 30
685.838
 70
    32
  0
VERTEX
  8
T45SSILL
 62
8
 10
4079.487
 20
-6916.795
 30
685.836
 70
    32
  0
VERTEX
  8
T45SSILL
 62
8
 10
4067.569
 20
-6901.117
 30
685.847
 70
    32
  0
VERTEX
  8
T45SSILL
 62
8
 10
4074.072
 20
-6896.447
 30
685.846
 70
    32
  0
VERTEX
  8
T45SSILL
 62
8
 10
4077.773
 20
-6901.962
 30
685.842
 70
    32
  0
VERTEX
  8
T45SSILL
 62
8
 10
4084.874
 20
-6897.177
 30
685.840
 70
    32
  0
VERTEX
  8
T45SSILL
 62
8
 10
4080.921
 20
-6891.530
 30
685.844
 70
    32
  0
VERTEX
  8
T45SSILL
 62
8
 10
4642.048
 20
-6488.644
 30
685.811
 70
    32
  0
VERTEX
  8
T45SSILL
 62
8
 10
4647.456
 20
-6484.988
 30
685.815
 70
    32
  0
VERTEX
  8
T45SSILL
 62
8
 10
4669.320
 20
-6476.084
 30
685.820
 70
    32
  0
VERTEX
  8
T45SSILL
 62
8
 10
4692.813
 20
-6474.786
 30
685.806
 70
    32
  0
VERTEX
  8
T45SSILL
 62
8
 10
4705.781
 20
-6477.087
 30
685.791
 70
    32
  0
VERTEX
  8
T45SSILL
 62
8
 10
4716.713
 20
-6481.409
 30
685.773
 70
    32
  0
VERTEX
  8
T45SSILL
 62
8
 10
4726.159
 20
-6486.056
 30
685.755
 70
    32
  0
VERTEX
  8
T45SSILL
 62
8
 10
4739.262
 20
-6496.111
 30
685.723
 70
    32
  0
VERTEX
  8
T45SSILL
 62
8
 10
4835.026
 20
-6627.622
 30
685.871
 70
    32
  0
VERTEX
  8
T45SSILL
 62
8
 10
4819.853
 20
-6638.461
 30
685.856
 70
    32
  0
VERTEX
  8
T45SSILL
 62
8
 10
4819.754
 20
-6635.996
 30
685.853
 70
    32
  0
VERTEX
  8
T45SSILL
 62
8
 10
4806.717
 20
-6636.344
 30
685.830
 70
    32
  0
VERTEX
  8
T45SSILL
 62
8
 10
4806.197
 20
-6643.155
 30
685.837
 70
    32
  0
VERTEX
  8
T45SSILL
 62
8
 10
4800.249
 20
-6642.159
 30
685.826
 70
    32
  0
VERTEX
  8
T45SSILL
 62
8
 10
4784.606
 20
-6643.494
 30
685.799
 70
    32
  0
VERTEX
  8
T45SSILL
 62
8
 10
4785.076
 20
-6650.794
 30
685.809
 70
    32
  0
VERTEX
  8
T45SSILL
 62
8
 10
4801.364
 20
-6650.139
 30
685.837
 70
    32
  0
VERTEX
  8
T45SSILL
 62
8
 10
4792.110
 20
-6656.860
 30
685.828
 70
    32
  0
VERTEX
  8
T45SSILL
 62
8
 10
4792.031
 20
-6665.858
 30
685.839
 70
    32
  0
VERTEX
  8
T45SSILL
 62
8
 10
4792.704
 20
-6669.447
 30
685.844
 70
    32
  0
VERTEX
  8
T45SSILL
 62
8
 10
4795.719
 20
-6672.059
 30
685.853
 70
    32
  0
VERTEX
  8
T45SSILL
 62
8
 10
4796.809
 20
-6679.423
 30
685.864
 70
    32
  0
VERTEX
  8
T45SSILL
 62
8
 10
4809.924
 20
-6698.560
 30
685.910
 70
    32
  0
VERTEX
  8
T45SSILL
 62
8
 10
4834.228
 20
-6717.424
 30
685.976
 70
    32
  0
VERTEX
  8
T45SSILL
 62
8
 10
4852.116
 20
-6708.328
 30
685.997
 70
    32
  0
VERTEX
  8
T45SSILL
 62
8
 10
4866.941
 20
-6699.795
 30
686.013
 70
    32
  0
VERTEX
  8
T45SSILL
 62
8
 10
4860.236
 20
-6671.229
 30
685.968
 70
    32
  0
VERTEX
  8
T45SSILL
 62
8
 10
4863.324
 20
-6669.076
 30
685.971
 70
    32
  0
VERTEX
  8
T45SSILL
 62
8
 10
4920.991
 20
-6747.886
 30
686.167
 70
    32
  0
VERTEX
  8
T45SSILL
 62
8
 10
4902.730
 20
-6758.673
 30
686.147
 70
    32
  0
VERTEX
  8
T45SSILL
 62
8
 10
4894.114
 20
-6748.350
 30
686.120
 70
    32
  0
VERTEX
  8
T45SSILL
 62
8
 10
4880.603
 20
-6723.761
 30
686.066
 70
    32
  0
VERTEX
  8
T45SSILL
 62
8
 10
4880.362
 20
-6717.774
 30
686.059
 70
    32
  0
VERTEX
  8
T45SSILL
 62
8
 10
4859.847
 20
-6714.190
 30
686.018
 70
    32
  0
VERTEX
  8
T45SSILL
 62
8
 10
4849.365
 20
-6721.048
 30
686.007
 70
    32
  0
VERTEX
  8
T45SSILL
 62
8
 10
4847.396
 20
-6737.882
 30
686.024
 70
    32
  0
VERTEX
  8
T45SSILL
 62
8
 10
4879.864
 20
-6775.554
 30
686.126
 70
    32
  0
VERTEX
  8
T45SSILL
 62
8
 10
4838.804
 20
-6805.287
 30
686.088
 70
    32
  0
VERTEX
  8
T45SSILL
 62
8
 10
4843.816
 20
-6811.130
 30
686.104
 70
    32
  0
VERTEX
  8
T45SSILL
 62
8
 10
4884.436
 20
-6781.808
 30
686.142
 70
    32
  0
VERTEX
  8
T45SSILL
 62
8
 10
4887.293
 20
-6784.867
 30
686.151
 70
    32
  0
VERTEX
  8
T45SSILL
 62
8
 10
4894.382
 20
-6783.524
 30
686.162
 70
    32
  0
VERTEX
  8
T45SSILL
 62
8
 10
4911.234
 20
-6770.589
 30
686.177
 70
    32
  0
VERTEX
  8
T45SSILL
 62
8
 10
4907.933
 20
-6765.254
 30
686.164
 70
    32
  0
VERTEX
  8
T45SSILL
 62
8
 10
4924.640
 20
-6753.119
 30
686.180
 70
    32
  0
VERTEX
  8
T45SSILL
 62
8
 10
4941.243
 20
-6775.643
 30
686.236
 70
    32
  0
VERTEX
  8
T45SSILL
 62
8
 10
4931.662
 20
-6785.199
 30
686.231
 70
    32
  0
VERTEX
  8
T45SSILL
 62
8
 10
4932.513
 20
-6795.395
 30
686.244
 70
    32
  0
VERTEX
  8
T45SSILL
 62
8
 10
4935.104
 20
-6804.991
 30
686.260
 70
    32
  0
VERTEX
  8
T45SSILL
 62
8
 10
4939.490
 20
-6813.192
 30
686.278
 70
    32
  0
VERTEX
  8
T45SSILL
 62
8
 10
4949.818
 20
-6826.621
 30
686.312
 70
    32
  0
VERTEX
  8
T45SSILL
 62
8
 10
4952.500
 20
-6834.097
 30
686.326
 70
    32
  0
VERTEX
  8
T45SSILL
 62
8
 10
4952.115
 20
-6846.458
 30
686.340
 70
    32
  0
VERTEX
  8
T45SSILL
 62
8
 10
4956.127
 20
-6849.736
 30
686.351
 70
    32
  0
VERTEX
  8
T45SSILL
 62
8
 10
4958.139
 20
-6855.916
 30
686.362
 70
    32
  0
VERTEX
  8
T45SSILL
 62
8
 10
4963.929
 20
-6857.359
 30
686.374
 70
    32
  0
VERTEX
  8
T45SSILL
 62
8
 10
4966.154
 20
-6855.682
 30
686.376
 70
    32
  0
VERTEX
  8
T45SSILL
 62
8
 10
4971.117
 20
-6840.932
 30
686.367
 70
    32
  0
VERTEX
  8
T45SSILL
 62
8
 10
4969.907
 20
-6830.575
 30
686.353
 70
    32
  0
VERTEX
  8
T45SSILL
 62
8
 10
4972.023
 20
-6828.374
 30
686.354
 70
    32
  0
VERTEX
  8
T45SSILL
 62
8
 10
4978.439
 20
-6827.851
 30
686.365
 70
    32
  0
VERTEX
  8
T45SSILL
 62
8
 10
4997.680
 20
-6854.591
 30
686.431
 70
    32
  0
VERTEX
  8
T45SSILL
 62
8
 10
4980.812
 20
-6873.699
 30
686.424
 70
    32
  0
VERTEX
  8
T45SSILL
 62
8
 10
4986.103
 20
-6882.481
 30
686.444
 70
    32
  0
VERTEX
  8
T45SSILL
 62
8
 10
5006.582
 20
-6867.637
 30
686.463
 70
    32
  0
VERTEX
  8
T45SSILL
 62
8
 10
5288.937
 20
-7260.347
 30
687.018
 70
    32
  0
VERTEX
  8
T45SSILL
 62
8
 10
5286.644
 20
-7267.586
 30
687.004
 70
    32
  0
VERTEX
  8
T45SSILL
 62
8
 10
5275.825
 20
-7278.321
 30
686.981
 70
    32
  0
VERTEX
  8
T45SSILL
 62
8
 10
5284.199
 20
-7292.142
 30
686.960
 70
    32
  0
VERTEX
  8
T45SSILL
 62
8
 10
5296.225
 20
-7306.800
 30
686.938
 70
    32
  0
VERTEX
  8
T45SSILL
 62
8
 10
5303.160
 20
-7312.813
 30
686.930
 70
    32
  0
VERTEX
  8
T45SSILL
 62
8
 10
5306.421
 20
-7326.912
 30
686.906
 70
    32
  0
VERTEX
  8
T45SSILL
 62
8
 10
5305.475
 20
-7334.720
 30
686.892
 70
    32
  0
VERTEX
  8
T45SSILL
 62
8
 10
5301.806
 20
-7342.982
 30
686.876
 70
    32
  0
VERTEX
  8
T45SSILL
 62
8
 10
5303.848
 20
-7348.029
 30
686.867
 70
    32
  0
VERTEX
  8
T45SSILL
 62
8
 10
5311.672
 20
-7349.417
 30
686.868
 70
    32
  0
VERTEX
  8
T45SSILL
 62
8
 10
5335.460
 20
-7331.135
 30
686.909
 70
    32
  0
VERTEX
  8
T45SSILL
 62
8
 10
5332.085
 20
-7325.872
 30
686.917
 70
    32
  0
VERTEX
  8
T45SSILL
 62
8
 10
5330.941
 20
-7318.849
 30
686.929
 70
    32
  0
VERTEX
  8
T45SSILL
 62
8
 10
5362.968
 20
-7363.147
 30
686.862
 70
    32
  0
VERTEX
  8
T45SSILL
 62
8
 10
5363.040
 20
-7372.242
 30
686.846
 70
    32
  0
VERTEX
  8
T45SSILL
 62
8
 10
5263.291
 20
-7442.803
 30
686.684
 70
    32
  0
VERTEX
  8
T45SSILL
 62
8
 10
5267.420
 20
-7449.363
 30
686.674
 70
    32
  0
VERTEX
  8
T45SSILL
 62
8
 10
5330.061
 20
-7404.644
 30
686.776
 70
    32
  0
VERTEX
  8
T45SSILL
 62
8
 10
5338.996
 20
-7416.942
 30
686.757
 70
    32
  0
VERTEX
  8
T45SSILL
 62
8
 10
5344.683
 20
-7413.110
 30
686.766
 70
    32
  0
VERTEX
  8
T45SSILL
 62
8
 10
5336.003
 20
-7400.537
 30
686.785
 70
    32
  0
VERTEX
  8
T45SSILL
 62
8
 10
5371.374
 20
-7375.466
 30
686.843
 70
    32
  0
VERTEX
  8
T45SSILL
 62
8
 10
5568.853
 20
-7651.306
 30
686.488
 70
    32
  0
VERTEX
  8
T45SSILL
 62
8
 10
5575.500
 20
-7647.173
 30
686.493
 70
    32
  0
VERTEX
  8
T45SSILL
 62
8
 10
5543.333
 20
-7601.466
 30
686.509
 70
    32
  0
VERTEX
  8
T45SSILL
 62
8
 10
5544.874
 20
-7585.864
 30
686.530
 70
    32
  0
VERTEX
  8
T45SSILL
 62
8
 10
5554.273
 20
-7546.388
 30
686.590
 70
    32
  0
VERTEX
  8
T45SSILL
 62
8
 10
5556.082
 20
-7530.864
 30
686.613
 70
    32
  0
VERTEX
  8
T45SSILL
 62
8
 10
5554.203
 20
-7523.073
 30
686.621
 70
    32
  0
VERTEX
  8
T45SSILL
 62
8
 10
5538.881
 20
-7502.886
 30
686.642
 70
    32
  0
VERTEX
  8
T45SSILL
 62
8
 10
5548.165
 20
-7496.005
 30
686.653
 70
    32
  0
VERTEX
  8
T45SSILL
 62
8
 10
5542.268
 20
-7489.423
 30
686.659
 70
    32
  0
VERTEX
  8
T45SSILL
 62
8
 10
5533.945
 20
-7496.003
 30
686.655
 70
    32
  0
VERTEX
  8
T45SSILL
 62
8
 10
5520.184
 20
-7479.820
 30
686.689
 70
    32
  0
VERTEX
  8
T45SSILL
 62
8
 10
5514.183
 20
-7484.724
 30
686.686
 70
    32
  0
VERTEX
  8
T45SSILL
 62
8
 10
5522.106
 20
-7495.912
 30
686.664
 70
    32
  0
VERTEX
  8
T45SSILL
 62
8
 10
5542.656
 20
-7533.217
 30
686.599
 70
    32
  0
VERTEX
  8
T45SSILL
 62
8
 10
5540.060
 20
-7544.177
 30
686.582
 70
    32
  0
VERTEX
  8
T45SSILL
 62
8
 10
5536.380
 20
-7580.703
 30
686.532
 70
    32
  0
VERTEX
  8
T45SSILL
 62
8
 10
5533.319
 20
-7586.293
 30
686.526
 70
    32
  0
VERTEX
  8
T45SSILL
 62
8
 10
5531.657
 20
-7586.708
 30
686.525
 70
    32
  0
VERTEX
  8
T45SSILL
 62
8
 10
5332.286
 20
-7307.493
 30
686.950
 70
    32
  0
VERTEX
  8
T45SSILL
 62
8
 10
5330.476
 20
-7299.170
 30
686.964
 70
    32
  0
VERTEX
  8
T45SSILL
 62
8
 10
5321.067
 20
-7283.621
 30
686.988
 70
    32
  0
VERTEX
  8
T45SSILL
 62
8
 10
5358.591
 20
-7257.056
 30
687.049
 70
    32
  0
VERTEX
  8
T45SSILL
 62
8
 10
5363.361
 20
-7264.210
 30
687.038
 70
    32
  0
VERTEX
  8
T45SSILL
 62
8
 10
5365.974
 20
-7265.615
 30
687.036
 70
    32
  0
VERTEX
  8
T45SSILL
 62
8
 10
5372.425
 20
-7258.575
 30
687.051
 70
    32
  0
VERTEX
  8
T45SSILL
 62
8
 10
5379.671
 20
-7256.274
 30
687.058
 70
    32
  0
VERTEX
  8
T45SSILL
 62
8
 10
5380.978
 20
-7253.400
 30
687.064
 70
    32
  0
VERTEX
  8
T45SSILL
 62
8
 10
5379.922
 20
-7246.373
 30
687.076
 70
    32
  0
VERTEX
  8
T45SSILL
 62
8
 10
5382.300
 20
-7239.042
 30
687.090
 70
    32
  0
VERTEX
  8
T45SSILL
 62
8
 10
5380.098
 20
-7232.058
 30
687.101
 70
    32
  0
VERTEX
  8
T45SSILL
 62
8
 10
5361.103
 20
-7203.351
 30
687.145
 70
    32
  0
VERTEX
  8
T45SSILL
 62
8
 10
5357.502
 20
-7194.387
 30
687.160
 70
    32
  0
VERTEX
  8
T45SSILL
 62
8
 10
5375.812
 20
-7180.812
 30
687.191
 70
    32
  0
VERTEX
  8
T45SSILL
 62
8
 10
5382.656
 20
-7186.741
 30
687.183
 70
    32
  0
VERTEX
  8
T45SSILL
 62
8
 10
5394.349
 20
-7201.941
 30
687.160
 70
    32
  0
VERTEX
  8
T45SSILL
 62
8
 10
5398.854
 20
-7204.335
 30
687.157
 70
    32
  0
VERTEX
  8
T45SSILL
 62
8
 10
5407.912
 20
-7198.523
 30
687.171
 70
    32
  0
VERTEX
  8
T45SSILL
 62
8
 10
5396.145
 20
-7188.449
 30
687.185
 70
    32
  0
VERTEX
  8
T45SSILL
 62
8
 10
5384.687
 20
-7174.831
 30
687.205
 70
    32
  0
VERTEX
  8
T45SSILL
 62
8
 10
5400.517
 20
-7165.853
 30
687.226
 70
    32
  0
VERTEX
  8
T45SSILL
 62
8
 10
5412.395
 20
-7164.617
 30
687.219
 70
    32
  0
VERTEX
  8
T45SSILL
 62
8
 10
5423.084
 20
-7169.432
 30
687.204
 70
    32
  0
VERTEX
  8
T45SSILL
 62
8
 10
5431.039
 20
-7176.732
 30
687.188
 70
    32
  0
VERTEX
  8
T45SSILL
 62
8
 10
5433.120
 20
-7180.453
 30
687.181
 70
    32
  0
VERTEX
  8
T45SSILL
 62
8
 10
5428.580
 20
-7189.012
 30
687.172
 70
    32
  0
VERTEX
  8
T45SSILL
 62
8
 10
5447.369
 20
-7209.778
 30
687.129
 70
    32
  0
VERTEX
  8
T45SSILL
 62
8
 10
5500.149
 20
-7313.543
 30
686.941
 70
    32
  0
VERTEX
  8
T45SSILL
 62
8
 10
5504.821
 20
-7318.051
 30
686.932
 70
    32
  0
VERTEX
  8
T45SSILL
 62
8
 10
5512.292
 20
-7321.837
 30
686.921
 70
    32
  0
VERTEX
  8
T45SSILL
 62
8
 10
5520.756
 20
-7323.819
 30
686.912
 70
    32
  0
VERTEX
  8
T45SSILL
 62
8
 10
5533.546
 20
-7323.345
 30
686.903
 70
    32
  0
VERTEX
  8
T45SSILL
 62
8
 10
5535.473
 20
-7327.226
 30
686.896
 70
    32
  0
VERTEX
  8
T45SSILL
 62
8
 10
5543.292
 20
-7322.784
 30
686.897
 70
    32
  0
VERTEX
  8
T45SSILL
 62
8
 10
5537.495
 20
-7313.130
 30
686.915
 70
    32
  0
VERTEX
  8
T45SSILL
 62
8
 10
5531.219
 20
-7315.394
 30
686.916
 70
    32
  0
VERTEX
  8
T45SSILL
 62
8
 10
5524.255
 20
-7315.740
 30
686.921
 70
    32
  0
VERTEX
  8
T45SSILL
 62
8
 10
5512.635
 20
-7312.020
 30
686.935
 70
    32
  0
VERTEX
  8
T45SSILL
 62
8
 10
5502.393
 20
-7304.981
 30
686.952
 70
    32
  0
VERTEX
  8
T45SSILL
 62
8
 10
5462.282
 20
-7223.710
 30
687.098
 70
    32
  0
VERTEX
  8
T45SSILL
 62
8
 10
5473.017
 20
-7227.374
 30
687.085
 70
    32
  0
VERTEX
  8
T45SSILL
 62
8
 10
5487.962
 20
-7225.495
 30
687.077
 70
    32
  0
VERTEX
  8
T45SSILL
 62
8
 10
5517.675
 20
-7205.050
 30
687.084
 70
    32
  0
VERTEX
  8
T45SSILL
 62
8
 10
5513.846
 20
-7199.451
 30
687.095
 70
    32
  0
VERTEX
  8
T45SSILL
 62
8
 10
5491.431
 20
-7216.622
 30
687.087
 70
    32
  0
VERTEX
  8
T45SSILL
 62
8
 10
5481.167
 20
-7220.889
 30
687.088
 70
    32
  0
VERTEX
  8
T45SSILL
 62
8
 10
5465.003
 20
-7218.486
 30
687.103
 70
    32
  0
VERTEX
  8
T45SSILL
 62
8
 10
5453.046
 20
-7208.066
 30
687.127
 70
    32
  0
VERTEX
  8
T45SSILL
 62
8
 10
5463.725
 20
-7198.307
 30
687.133
 70
    32
  0
VERTEX
  8
T45SSILL
 62
8
 10
5479.137
 20
-7194.733
 30
687.127
 70
    32
  0
VERTEX
  8
T45SSILL
 62
8
 10
5493.488
 20
-7193.494
 30
687.118
 70
    32
  0
VERTEX
  8
T45SSILL
 62
8
 10
5500.854
 20
-7187.303
 30
687.122
 70
    32
  0
VERTEX
  8
T45SSILL
 62
8
 10
5493.957
 20
-7179.963
 30
687.137
 70
    32
  0
VERTEX
  8
T45SSILL
 62
8
 10
5494.953
 20
-7171.093
 30
687.149
 70
    32
  0
VERTEX
  8
T45SSILL
 62
8
 10
5482.075
 20
-7157.263
 30
687.179
 70
    32
  0
VERTEX
  8
T45SSILL
 62
8
 10
5481.154
 20
-7170.545
 30
687.160
 70
    32
  0
VERTEX
  8
T45SSILL
 62
8
 10
5467.199
 20
-7177.687
 30
687.160
 70
    32
  0
VERTEX
  8
T45SSILL
 62
8
 10
5438.644
 20
-7176.980
 30
687.182
 70
    32
  0
VERTEX
  8
T45SSILL
 62
8
 10
5429.827
 20
-7165.472
 30
687.205
 70
    32
  0
VERTEX
  8
T45SSILL
 62
8
 10
5425.207
 20
-7162.375
 30
687.213
 70
    32
  0
VERTEX
  8
T45SSILL
 62
8
 10
5417.847
 20
-7159.204
 30
687.223
 70
    32
  0
VERTEX
  8
T45SSILL
 62
8
 10
5409.942
 20
-7157.995
 30
687.230
 70
    32
  0
VERTEX
  8
T45SSILL
 62
8
 10
5421.371
 20
-7149.446
 30
687.234
 70
    32
  0
VERTEX
  8
T45SSILL
 62
8
 10
5442.122
 20
-7154.064
 30
687.212
 70
    32
  0
VERTEX
  8
T45SSILL
 62
8
 10
5447.225
 20
-7153.521
 30
687.210
 70
    32
  0
VERTEX
  8
T45SSILL
 62
8
 10
5464.166
 20
-7145.915
 30
687.208
 70
    32
  0
VERTEX
  8
T45SSILL
 62
8
 10
5464.375
 20
-7142.021
 30
687.213
 70
    32
  0
VERTEX
  8
T45SSILL
 62
8
 10
5469.771
 20
-7137.493
 30
687.216
 70
    32
  0
VERTEX
  8
T45SSILL
 62
8
 10
5474.266
 20
-7142.007
 30
687.206
 70
    32
  0
VERTEX
  8
T45SSILL
 62
8
 10
5477.709
 20
-7139.583
 30
687.207
 70
    32
  0
VERTEX
  8
T45SSILL
 62
8
 10
5478.327
 20
-7137.176
 30
687.210
 70
    32
  0
VERTEX
  8
T45SSILL
 62
8
 10
5465.546
 20
-7118.837
 30
687.246
 70
    32
  0
VERTEX
  8
T45SSILL
 62
8
 10
5496.265
 20
-7096.941
 30
687.255
 70
    32
  0
VERTEX
  8
T45SSILL
 62
8
 10
5491.587
 20
-7089.872
 30
687.268
 70
    32
  0
VERTEX
  8
T45SSILL
 62
8
 10
5460.616
 20
-7112.130
 30
687.259
 70
    32
  0
VERTEX
  8
T45SSILL
 62
8
 10
5448.979
 20
-7105.585
 30
687.277
 70
    32
  0
VERTEX
  8
T45SSILL
 62
8
 10
5433.558
 20
-7118.434
 30
687.270
 70
    32
  0
VERTEX
  8
T45SSILL
 62
8
 10
5431.020
 20
-7119.058
 30
687.271
 70
    32
  0
VERTEX
  8
T45SSILL
 62
8
 10
5426.586
 20
-7111.450
 30
687.285
 70
    32
  0
VERTEX
  8
T45SSILL
 62
8
 10
5418.880
 20
-7118.007
 30
687.281
 70
    32
  0
VERTEX
  8
T45SSILL
 62
8
 10
5423.804
 20
-7124.537
 30
687.268
 70
    32
  0
VERTEX
  8
T45SSILL
 62
8
 10
5422.608
 20
-7128.025
 30
687.264
 70
    32
  0
VERTEX
  8
T45SSILL
 62
8
 10
5411.564
 20
-7137.444
 30
687.259
 70
    32
  0
VERTEX
  8
T45SSILL
 62
8
 10
5413.309
 20
-7146.388
 30
687.245
 70
    32
  0
VERTEX
  8
T45SSILL
 62
8
 10
5378.186
 20
-7171.009
 30
687.209
 70
    32
  0
VERTEX
  8
T45SSILL
 62
8
 10
5366.187
 20
-7157.057
 30
687.230
 70
    32
  0
VERTEX
  8
T45SSILL
 62
8
 10
5363.661
 20
-7158.034
 30
687.227
 70
    32
  0
VERTEX
  8
T45SSILL
 62
8
 10
5361.381
 20
-7160.857
 30
687.221
 70
    32
  0
VERTEX
  8
T45SSILL
 62
8
 10
5371.872
 20
-7174.599
 30
687.200
 70
    32
  0
VERTEX
  8
T45SSILL
 62
8
 10
5355.810
 20
-7186.854
 30
687.173
 70
    32
  0
VERTEX
  8
T45SSILL
 62
8
 10
5349.756
 20
-7178.423
 30
687.186
 70
    32
  0
VERTEX
  8
T45SSILL
 62
8
 10
5349.534
 20
-7174.810
 30
687.192
 70
    32
  0
VERTEX
  8
T45SSILL
 62
8
 10
5349.754
 20
-7152.191
 30
687.232
 70
    32
  0
VERTEX
  8
T45SSILL
 62
8
 10
5356.238
 20
-7136.494
 30
687.263
 70
    32
  0
VERTEX
  8
T45SSILL
 62
8
 10
5354.741
 20
-7124.714
 30
687.283
 70
    32
  0
VERTEX
  8
T45SSILL
 62
8
 10
5352.209
 20
-7120.745
 30
687.289
 70
    32
  0
VERTEX
  8
T45SSILL
 62
8
 10
5334.137
 20
-7109.756
 30
687.302
 70
    32
  0
VERTEX
  8
T45SSILL
 62
8
 10
5326.019
 20
-7109.969
 30
687.296
 70
    32
  0
VERTEX
  8
T45SSILL
 62
8
 10
5312.449
 20
-7113.211
 30
687.279
 70
    32
  0
VERTEX
  8
T45SSILL
 62
8
 10
5301.293
 20
-7119.631
 30
687.262
 70
    32
  0
VERTEX
  8
T45SSILL
 62
8
 10
5297.802
 20
-7123.116
 30
687.256
 70
    32
  0
VERTEX
  8
T45SSILL
 62
8
 10
5297.959
 20
-7127.350
 30
687.253
 70
    32
  0
VERTEX
  8
T45SSILL
 62
8
 10
5301.863
 20
-7137.362
 30
687.241
 70
    32
  0
VERTEX
  8
T45SSILL
 62
8
 10
5314.206
 20
-7153.421
 30
687.217
 70
    32
  0
VERTEX
  8
T45SSILL
 62
8
 10
5319.035
 20
-7169.317
 30
687.191
 70
    32
  0
VERTEX
  8
T45SSILL
 62
8
 10
5320.304
 20
-7191.616
 30
687.152
 70
    32
  0
VERTEX
  8
T45SSILL
 62
8
 10
5322.620
 20
-7201.687
 30
687.134
 70
    32
  0
VERTEX
  8
T45SSILL
 62
8
 10
5320.331
 20
-7204.245
 30
687.129
 70
    32
  0
VERTEX
  8
T45SSILL
 62
8
 10
5323.601
 20
-7209.070
 30
687.122
 70
    32
  0
VERTEX
  8
T45SSILL
 62
8
 10
5306.608
 20
-7222.419
 30
687.092
 70
    32
  0
VERTEX
  8
T45SSILL
 62
8
 10
5292.970
 20
-7228.577
 30
687.076
 70
    32
  0
VERTEX
  8
T45SSILL
 62
8
 10
5279.560
 20
-7226.602
 30
687.075
 70
    32
  0
VERTEX
  8
T45SSILL
 62
8
 10
5270.262
 20
-7221.206
 30
687.081
 70
    32
  0
VERTEX
  8
T45SSILL
 62
8
 10
5232.962
 20
-7170.478
 30
687.150
 70
    32
  0
VERTEX
  8
T45SSILL
 62
8
 10
5251.240
 20
-7170.330
 30
687.165
 70
    32
  0
VERTEX
  8
T45SSILL
 62
8
 10
5262.765
 20
-7164.338
 30
687.179
 70
    32
  0
VERTEX
  8
T45SSILL
 62
8
 10
5298.165
 20
-7138.763
 30
687.238
 70
    32
  0
VERTEX
  8
T45SSILL
 62
8
 10
5292.922
 20
-7132.041
 30
687.244
 70
    32
  0
VERTEX
  8
T45SSILL
 62
8
 10
5256.626
 20
-7158.383
 30
687.185
 70
    32
  0
VERTEX
  8
T45SSILL
 62
8
 10
5244.252
 20
-7162.905
 30
687.168
 70
    32
  0
VERTEX
  8
T45SSILL
 62
8
 10
5237.032
 20
-7163.526
 30
687.160
 70
    32
  0
VERTEX
  8
T45SSILL
 62
8
 10
5229.881
 20
-7161.230
 30
687.153
 70
    32
  0
VERTEX
  8
T45SSILL
 62
8
 10
5355.653
 20
-7070.714
 30
687.329
 70
    32
  0
VERTEX
  8
T45SSILL
 62
8
 10
5379.700
 20
-7085.632
 30
687.356
 70
    32
  0
VERTEX
  8
T45SSILL
 62
8
 10
5405.625
 20
-7089.263
 30
687.332
 70
    32
  0
VERTEX
  8
T45SSILL
 62
8
 10
5419.499
 20
-7087.070
 30
687.325
 70
    32
  0
VERTEX
  8
T45SSILL
 62
8
 10
5419.509
 20
-7089.720
 30
687.321
 70
    32
  0
VERTEX
  8
T45SSILL
 62
8
 10
5423.726
 20
-7089.122
 30
687.319
 70
    32
  0
VERTEX
  8
T45SSILL
 62
8
 10
5423.997
 20
-7086.903
 30
687.322
 70
    32
  0
VERTEX
  8
T45SSILL
 62
8
 10
5430.061
 20
-7086.060
 30
687.319
 70
    32
  0
VERTEX
  8
T45SSILL
 62
8
 10
5428.766
 20
-7077.364
 30
687.332
 70
    32
  0
VERTEX
  8
T45SSILL
 62
8
 10
5421.971
 20
-7072.759
 30
687.344
 70
    32
  0
VERTEX
  8
T45SSILL
 62
8
 10
5514.030
 20
-7006.000
 30
687.368
 70
    32
  0
VERTEX
  8
T45SSILL
 62
8
 10
5509.104
 20
-7000.192
 30
687.356
 70
    32
  0
VERTEX
  8
T45SSILL
 62
8
 10
5405.458
 20
-7075.226
 30
687.352
 70
    32
  0
VERTEX
  8
T45SSILL
 62
8
 10
5400.029
 20
-7076.487
 30
687.354
 70
    32
  0
VERTEX
  8
T45SSILL
 62
8
 10
5383.234
 20
-7078.523
 30
687.364
 70
    32
  0
VERTEX
  8
T45SSILL
 62
8
 10
5361.990
 20
-7065.356
 30
687.341
 70
    32
  0
VERTEX
  8
T45SSILL
 62
8
 10
5445.733
 20
-7006.164
 30
687.318
 70
    32
  0
VERTEX
  8
T45SSILL
 62
8
 10
5433.561
 20
-7004.231
 30
687.306
 70
    32
  0
VERTEX
  8
T45SSILL
 62
8
 10
5356.096
 20
-7061.247
 30
687.323
 70
    32
  0
VERTEX
  8
T45SSILL
 62
8
 10
5320.618
 20
-7035.801
 30
687.225
 70
    32
  0
VERTEX
  8
T45SSILL
 62
8
 10
5300.965
 20
-7039.357
 30
687.194
 70
    32
  0
VERTEX
  8
T45SSILL
 62
8
 10
5214.263
 20
-7102.103
 30
687.113
 70
    32
  0
VERTEX
  8
T45SSILL
 62
8
 10
5206.965
 20
-7105.377
 30
687.104
 70
    32
  0
VERTEX
  8
T45SSILL
 62
8
 10
5201.049
 20
-7105.419
 30
687.093
 70
    32
  0
VERTEX
  8
T45SSILL
 62
8
 10
5192.562
 20
-7102.820
 30
687.075
 70
    32
  0
VERTEX
  8
T45SSILL
 62
8
 10
5175.662
 20
-7090.110
 30
687.029
 70
    32
  0
VERTEX
  8
T45SSILL
 62
8
 10
5159.032
 20
-7066.709
 30
686.972
 70
    32
  0
VERTEX
  8
T45SSILL
 62
8
 10
5169.108
 20
-7069.479
 30
686.993
 70
    32
  0
VERTEX
  8
T45SSILL
 62
8
 10
5175.626
 20
-7069.305
 30
687.005
 70
    32
  0
VERTEX
  8
T45SSILL
 62
8
 10
5187.134
 20
-7066.020
 30
687.021
 70
    32
  0
VERTEX
  8
T45SSILL
 62
8
 10
5438.364
 20
-6883.872
 30
687.136
 70
    32
  0
VERTEX
  8
T45SSILL
 62
8
 10
5434.066
 20
-6877.872
 30
687.124
 70
    32
  0
VERTEX
  8
T45SSILL
 62
8
 10
5182.988
 20
-7059.397
 30
687.006
 70
    32
  0
VERTEX
  8
T45SSILL
 62
8
 10
5172.962
 20
-7062.269
 30
686.992
 70
    32
  0
VERTEX
  8
T45SSILL
 62
8
 10
5165.909
 20
-7062.288
 30
686.979
 70
    32
  0
VERTEX
  8
T45SSILL
 62
8
 10
5159.826
 20
-7060.152
 30
686.965
 70
    32
  0
VERTEX
  8
T45SSILL
 62
8
 10
5145.047
 20
-7047.871
 30
686.924
 70
    32
  0
VERTEX
  8
T45SSILL
 62
8
 10
5034.021
 20
-6892.106
 30
686.541
 70
    32
  0
VERTEX
  8
T45SSILL
 62
8
 10
5048.518
 20
-6882.000
 30
686.555
 70
    32
  0
VERTEX
  8
T45SSILL
 62
8
 10
5044.294
 20
-6875.644
 30
686.540
 70
    32
  0
VERTEX
  8
T45SSILL
 62
8
 10
5030.238
 20
-6885.733
 30
686.526
 70
    32
  0
VERTEX
  8
T45SSILL
 62
8
 10
5015.770
 20
-6868.061
 30
686.480
 70
    32
  0
VERTEX
  8
T45SSILL
 62
8
 10
5016.272
 20
-6858.605
 30
686.469
 70
    32
  0
VERTEX
  8
T45SSILL
 62
8
 10
5023.726
 20
-6853.191
 30
686.476
 70
    32
  0
VERTEX
  8
T45SSILL
 62
8
 10
5019.696
 20
-6847.268
 30
686.462
 70
    32
  0
VERTEX
  8
T45SSILL
 62
8
 10
5012.738
 20
-6851.869
 30
686.455
 70
    32
  0
VERTEX
  8
T45SSILL
 62
8
 10
5003.997
 20
-6847.194
 30
686.434
 70
    32
  0
VERTEX
  8
T45SSILL
 62
8
 10
5002.352
 20
-6847.965
 30
686.432
 70
    32
  0
VERTEX
  8
T45SSILL
 62
8
 10
4961.260
 20
-6790.976
 30
686.291
 70
    32
  0
VERTEX
  8
T45SSILL
 62
8
 10
4964.953
 20
-6788.535
 30
686.294
 70
    32
  0
VERTEX
  8
T45SSILL
 62
8
 10
4964.956
 20
-6786.418
 30
686.292
 70
    32
  0
VERTEX
  8
T45SSILL
 62
8
 10
4959.500
 20
-6777.907
 30
686.272
 70
    32
  0
VERTEX
  8
T45SSILL
 62
8
 10
4960.143
 20
-6771.973
 30
686.266
 70
    32
  0
VERTEX
  8
T45SSILL
 62
8
 10
4956.494
 20
-6768.945
 30
686.256
 70
    32
  0
VERTEX
  8
T45SSILL
 62
8
 10
4949.140
 20
-6768.095
 30
686.242
 70
    32
  0
VERTEX
  8
T45SSILL
 62
8
 10
4940.976
 20
-6762.426
 30
686.220
 70
    32
  0
VERTEX
  8
T45SSILL
 62
8
 10
4930.468
 20
-6748.916
 30
686.185
 70
    32
  0
VERTEX
  8
T45SSILL
 62
8
 10
4939.122
 20
-6742.492
 30
686.193
 70
    32
  0
VERTEX
  8
T45SSILL
 62
8
 10
4934.674
 20
-6737.283
 30
686.179
 70
    32
  0
VERTEX
  8
T45SSILL
 62
8
 10
4926.533
 20
-6743.166
 30
686.172
 70
    32
  0
VERTEX
  8
T45SSILL
 62
8
 10
4808.677
 20
-6579.827
 30
685.767
 70
    32
  0
VERTEX
  8
T45SSILL
 62
8
 10
4806.629
 20
-6568.358
 30
685.750
 70
    32
  0
VERTEX
  8
T45SSILL
 62
8
 10
4799.579
 20
-6555.326
 30
685.724
 70
    32
  0
VERTEX
  8
T45SSILL
 62
8
 10
4780.045
 20
-6538.827
 30
685.668
 70
    32
  0
VERTEX
  8
T45SSILL
 62
8
 10
4770.209
 20
-6526.701
 30
685.641
 70
    32
  0
VERTEX
  8
T45SSILL
 62
8
 10
4769.380
 20
-6519.238
 30
685.647
 70
    32
  0
VERTEX
  8
T45SSILL
 62
8
 10
4764.723
 20
-6513.076
 30
685.665
 70
    32
  0
VERTEX
  8
T45SSILL
 62
8
 10
4764.363
 20
-6508.505
 30
685.676
 70
    32
  0
VERTEX
  8
T45SSILL
 62
8
 10
4759.927
 20
-6499.072
 30
685.701
 70
    32
  0
VERTEX
  8
T45SSILL
 62
8
 10
4752.368
 20
-6490.910
 30
685.725
 70
    32
  0
VERTEX
  8
T45SSILL
 62
8
 10
4740.146
 20
-6483.024
 30
685.752
 70
    32
  0
VERTEX
  8
T45SSILL
 62
8
 10
4731.938
 20
-6469.686
 30
685.789
 70
    32
  0
VERTEX
  8
T45SSILL
 62
8
 10
4729.082
 20
-6455.691
 30
685.824
 70
    32
  0
VERTEX
  8
T45SSILL
 62
8
 10
4728.612
 20
-6443.982
 30
685.851
 70
    32
  0
VERTEX
  8
T45SSILL
 62
8
 10
4732.088
 20
-6431.761
 30
685.877
 70
    32
  0
VERTEX
  8
T45SSILL
 62
8
 10
4741.288
 20
-6419.310
 30
685.899
 70
    32
  0
VERTEX
  8
T45SSILL
 62
8
 10
4772.693
 20
-6395.472
 30
685.931
 70
    32
  0
VERTEX
  8
T45SSILL
 62
8
 10
4782.288
 20
-6408.225
 30
685.895
 70
    32
  0
VERTEX
  8
T45SSILL
 62
8
 10
4790.708
 20
-6402.684
 30
685.901
 70
    32
  0
VERTEX
  8
T45SSILL
 62
8
 10
4781.256
 20
-6389.131
 30
685.940
 70
    32
  0
VERTEX
  8
T45SSILL
 62
8
 10
4813.651
 20
-6365.783
 30
685.972
 70
    32
  0
VERTEX
  8
T45SSILL
 62
8
 10
4846.733
 20
-6366.128
 30
685.954
 70
    32
  0
VERTEX
  8
T45SSILL
 62
8
 10
4846.854
 20
-6353.777
 30
685.959
 70
    32
  0
VERTEX
  8
T45SSILL
 62
8
 10
4808.996
 20
-6353.095
 30
686.002
 70
    32
  0
VERTEX
  8
T45SSILL
 62
8
 10
4808.208
 20
-6359.829
 30
685.995
 70
    32
  0
VERTEX
  8
T45SSILL
 62
8
 10
4704.845
 20
-6434.091
 30
685.891
 70
    32
  0
VERTEX
  8
T45SSILL
 62
8
 10
4611.702
 20
-6302.938
 30
686.271
 70
    32
  0
VERTEX
  8
T45SSILL
 62
8
 10
4605.736
 20
-6307.124
 30
686.274
 70
    32
  0
VERTEX
  8
T45SSILL
 62
8
 10
4699.331
 20
-6437.311
 30
685.888
 70
    32
  0
VERTEX
  8
T45SSILL
 62
8
 10
4687.863
 20
-6445.973
 30
685.876
 70
    32
  0
VERTEX
  8
T45SSILL
 62
8
 10
4679.290
 20
-6441.115
 30
685.894
 70
    32
  0
VERTEX
  8
T45SSILL
 62
8
 10
4667.899
 20
-6449.510
 30
685.882
 70
    32
  0
VERTEX
  8
T45SSILL
 62
8
 10
4669.595
 20
-6458.789
 30
685.860
 70
    32
  0
VERTEX
  8
T45SSILL
 62
8
 10
4608.268
 20
-6503.847
 30
685.800
 70
    32
  0
VERTEX
  8
T45SSILL
 62
8
 10
4594.998
 20
-6504.998
 30
685.807
 70
    32
  0
VERTEX
  8
T45SSILL
 62
8
 10
4579.865
 20
-6503.667
 30
685.821
 70
    32
  0
VERTEX
  8
T45SSILL
 62
8
 10
4571.368
 20
-6507.271
 30
685.819
 70
    32
  0
VERTEX
  8
T45SSILL
 62
8
 10
4571.342
 20
-6515.385
 30
685.800
 70
    32
  0
VERTEX
  8
T45SSILL
 62
8
 10
4592.377
 20
-6514.363
 30
685.787
 70
    32
  0
VERTEX
  8
T45SSILL
 62
8
 10
4013.374
 20
-6929.092
 30
685.864
 70
    32
  0
VERTEX
  8
T45SSILL
 62
8
 10
3901.505
 20
-7012.556
 30
685.891
 70
    32
  0
VERTEX
  8
T45SSILL
 62
8
 10
3892.826
 20
-7007.006
 30
685.897
 70
    32
  0
VERTEX
  8
T45SSILL
 62
8
 10
3886.386
 20
-7012.838
 30
685.899
 70
    32
  0
VERTEX
  8
T45SSILL
 62
8
 10
3863.957
 20
-7008.095
 30
685.911
 70
    32
  0
VERTEX
  8
T45SSILL
 62
8
 10
3862.441
 20
-7006.034
 30
685.912
 70
    32
  0
VERTEX
  8
T45SSILL
 62
8
 10
3863.780
 20
-6996.839
 30
685.915
 70
    32
  0
VERTEX
  8
T45SSILL
 62
8
 10
3862.320
 20
-6990.687
 30
685.917
 70
    32
  0
VERTEX
  8
T45SSILL
 62
8
 10
3857.573
 20
-6983.339
 30
685.922
 70
    32
  0
VERTEX
  8
T45SSILL
 62
8
 10
3854.056
 20
-6953.848
 30
685.917
 70
    32
  0
VERTEX
  8
T45SSILL
 62
8
 10
3851.713
 20
-6949.769
 30
685.916
 70
    32
  0
VERTEX
  8
T45SSILL
 62
8
 10
3846.175
 20
-6945.960
 30
685.916
 70
    32
  0
VERTEX
  8
T45SSILL
 62
8
 10
3903.667
 20
-6904.003
 30
685.894
 70
    32
  0
VERTEX
  8
T45SSILL
 62
8
 10
3899.008
 20
-6898.562
 30
685.893
 70
    32
  0
VERTEX
  8
T45SSILL
 62
8
 10
3852.756
 20
-6932.580
 30
685.911
 70
    32
  0
VERTEX
  8
T45SSILL
 62
8
 10
3845.161
 20
-6926.123
 30
685.911
 70
    32
  0
VERTEX
  8
T45SSILL
 62
8
 10
3842.106
 20
-6918.845
 30
685.909
 70
    32
  0
VERTEX
  8
T45SSILL
 62
8
 10
3827.985
 20
-6897.263
 30
685.906
 70
    32
  0
VERTEX
  8
T45SSILL
 62
8
 10
3821.783
 20
-6890.766
 30
685.905
 70
    32
  0
VERTEX
  8
T45SSILL
 62
8
 10
3813.630
 20
-6885.486
 30
685.905
 70
    32
  0
VERTEX
  8
T45SSILL
 62
8
 10
3802.820
 20
-6888.949
 30
685.908
 70
    32
  0
VERTEX
  8
T45SSILL
 62
8
 10
3792.974
 20
-6896.847
 30
685.912
 70
    32
  0
VERTEX
  8
T45SSILL
 62
8
 10
3790.997
 20
-6900.710
 30
685.913
 70
    32
  0
VERTEX
  8
T45SSILL
 62
8
 10
3790.185
 20
-6910.175
 30
685.916
 70
    32
  0
VERTEX
  8
T45SSILL
 62
8
 10
3791.804
 20
-6918.181
 30
685.918
 70
    32
  0
VERTEX
  8
T45SSILL
 62
8
 10
3778.125
 20
-6898.243
 30
685.915
 70
    32
  0
VERTEX
  8
T45SSILL
 62
8
 10
3777.280
 20
-6890.544
 30
685.913
 70
    32
  0
VERTEX
  8
T45SSILL
 62
8
 10
3780.031
 20
-6881.186
 30
685.910
 70
    32
  0
VERTEX
  8
T45SSILL
 62
8
 10
3791.915
 20
-6876.058
 30
685.906
 70
    32
  0
VERTEX
  8
T45SSILL
 62
8
 10
3811.613
 20
-6880.511
 30
685.904
 70
    32
  0
VERTEX
  8
T45SSILL
 62
8
 10
3822.887
 20
-6876.488
 30
685.900
 70
    32
  0
VERTEX
  8
T45SSILL
 62
8
 10
3837.902
 20
-6876.064
 30
685.898
 70
    32
  0
VERTEX
  8
T45SSILL
 62
8
 10
3848.555
 20
-6868.667
 30
685.894
 70
    32
  0
VERTEX
  8
T45SSILL
 62
8
 10
3843.698
 20
-6863.700
 30
685.893
 70
    32
  0
VERTEX
  8
T45SSILL
 62
8
 10
3837.692
 20
-6847.645
 30
685.890
 70
    32
  0
VERTEX
  8
T45SSILL
 62
8
 10
3837.757
 20
-6836.867
 30
685.886
 70
    32
  0
VERTEX
  8
T45SSILL
 62
8
 10
3844.463
 20
-6830.950
 30
685.883
 70
    32
  0
VERTEX
  8
T45SSILL
 62
8
 10
3840.193
 20
-6825.442
 30
685.883
 70
    32
  0
VERTEX
  8
T45SSILL
 62
8
 10
3820.356
 20
-6839.703
 30
685.890
 70
    32
  0
VERTEX
  8
T45SSILL
 62
8
 10
3814.568
 20
-6830.494
 30
685.889
 70
    32
  0
VERTEX
  8
T45SSILL
 62
8
 10
3808.373
 20
-6811.950
 30
685.885
 70
    32
  0
VERTEX
  8
T45SSILL
 62
8
 10
3807.139
 20
-6774.101
 30
685.874
 70
    32
  0
VERTEX
  8
T45SSILL
 62
8
 10
3804.919
 20
-6770.041
 30
685.873
 70
    32
  0
VERTEX
  8
T45SSILL
 62
8
 10
3800.907
 20
-6772.773
 30
685.875
 70
    32
  0
VERTEX
  8
T45SSILL
 62
8
 10
3793.545
 20
-6773.480
 30
685.876
 70
    32
  0
VERTEX
  8
T45SSILL
 62
8
 10
3786.155
 20
-6771.470
 30
685.877
 70
    32
  0
VERTEX
  8
T45SSILL
 62
8
 10
3773.216
 20
-6764.893
 30
685.877
 70
    32
  0
VERTEX
  8
T45SSILL
 62
8
 10
3802.521
 20
-6743.559
 30
685.866
 70
    32
  0
VERTEX
  8
T45SSILL
 62
8
 10
3797.923
 20
-6737.306
 30
685.865
 70
    32
  0
VERTEX
  8
T45SSILL
 62
8
 10
3768.941
 20
-6759.826
 30
685.877
 70
    32
  0
VERTEX
  8
T45SSILL
 62
8
 10
3745.171
 20
-6768.441
 30
685.883
 70
    32
  0
VERTEX
  8
T45SSILL
 62
8
 10
3730.661
 20
-6784.587
 30
685.891
 70
    32
  0
VERTEX
  8
T45SSILL
 62
8
 10
3719.001
 20
-6794.039
 30
685.895
 70
    32
  0
VERTEX
  8
T45SSILL
 62
8
 10
3715.113
 20
-6800.512
 30
685.898
 70
    32
  0
VERTEX
  8
T45SSILL
 62
8
 10
3708.256
 20
-6803.693
 30
685.900
 70
    32
  0
VERTEX
  8
T45SSILL
 62
8
 10
3701.939
 20
-6822.791
 30
685.907
 70
    32
  0
VERTEX
  8
T45SSILL
 62
8
 10
3699.639
 20
-6842.438
 30
685.913
 70
    32
  0
VERTEX
  8
T45SSILL
 62
8
 10
3696.801
 20
-6847.809
 30
685.915
 70
    32
  0
VERTEX
  8
T45SSILL
 62
8
 10
3694.016
 20
-6849.530
 30
685.916
 70
    32
  0
VERTEX
  8
T45SSILL
 62
8
 10
3682.329
 20
-6850.461
 30
685.918
 70
    32
  0
VERTEX
  8
T45SSILL
 62
8
 10
3680.980
 20
-6807.989
 30
685.906
 70
    32
  0
VERTEX
  8
T45SSILL
 62
8
 10
3672.200
 20
-6805.579
 30
685.907
 70
    32
  0
VERTEX
  8
T45SSILL
 62
8
 10
3674.226
 20
-6843.612
 30
685.918
 70
    32
  0
VERTEX
  8
T45SSILL
 62
8
 10
3670.155
 20
-6845.073
 30
685.919
 70
    32
  0
VERTEX
  8
T45SSILL
 62
8
 10
3668.363
 20
-6848.143
 30
685.920
 70
    32
  0
VERTEX
  8
T45SSILL
 62
8
 10
3669.189
 20
-6852.243
 30
685.921
 70
    32
  0
VERTEX
  8
T45SSILL
 62
8
 10
3674.027
 20
-6857.333
 30
685.922
 70
    32
  0
VERTEX
  8
T45SSILL
 62
8
 10
3674.052
 20
-6871.657
 30
685.926
 70
    32
  0
VERTEX
  8
T45SSILL
 62
8
 10
3671.190
 20
-6892.922
 30
685.933
 70
    32
  0
VERTEX
  8
T45SSILL
 62
8
 10
3674.294
 20
-6915.600
 30
685.938
 70
    32
  0
VERTEX
  8
T45SSILL
 62
8
 10
3670.379
 20
-6926.800
 30
685.942
 70
    32
  0
VERTEX
  8
T45SSILL
 62
8
 10
3585.228
 20
-6808.347
 30
685.924
 70
    32
  0
VERTEX
  8
T45SSILL
 62
8
 10
3582.986
 20
-6791.603
 30
685.919
 70
    32
  0
VERTEX
  8
T45SSILL
 62
8
 10
3589.230
 20
-6778.361
 30
685.914
 70
    32
  0
VERTEX
  8
T45SSILL
 62
8
 10
3769.966
 20
-6648.387
 30
685.979
 70
    32
  0
VERTEX
  8
T45SSILL
 62
8
 10
3766.078
 20
-6641.613
 30
686.010
 70
    32
  0
VERTEX
  8
T45SSILL
 62
8
 10
3586.866
 20
-6772.765
 30
685.913
 70
    32
  0
VERTEX
  8
T45SSILL
 62
8
 10
3580.414
 20
-6779.919
 30
685.916
 70
    32
  0
VERTEX
  8
T45SSILL
 62
8
 10
3576.263
 20
-6795.562
 30
685.922
 70
    32
  0
VERTEX
  8
T45SSILL
 62
8
 10
3530.356
 20
-6730.465
 30
685.911
 70
    32
  0
VERTEX
  8
T45SSILL
 62
8
 10
3528.141
 20
-6716.439
 30
685.907
 70
    32
  0
VERTEX
  8
T45SSILL
 62
8
 10
3529.239
 20
-6712.127
 30
685.923
 70
    32
  0
VERTEX
  8
T45SSILL
 62
8
 10
3533.765
 20
-6703.544
 30
685.954
 70
    32
  0
VERTEX
  8
T45SSILL
 62
8
 10
3541.076
 20
-6696.962
 30
685.974
 70
    32
  0
VERTEX
  8
T45SSILL
 62
8
 10
3654.740
 20
-6614.677
 30
686.214
 70
    32
  0
VERTEX
  8
T45SSILL
 62
8
 10
3649.996
 20
-6608.970
 30
686.241
 70
    32
  0
VERTEX
  8
T45SSILL
 62
8
 10
3534.421
 20
-6691.784
 30
686.001
 70
    32
  0
VERTEX
  8
T45SSILL
 62
8
 10
3525.969
 20
-6699.643
 30
685.976
 70
    32
  0
VERTEX
  8
T45SSILL
 62
8
 10
3522.614
 20
-6707.585
 30
685.947
 70
    32
  0
VERTEX
  8
T45SSILL
 62
8
 10
3521.194
 20
-6716.074
 30
685.913
 70
    32
  0
VERTEX
  8
T45SSILL
 62
8
 10
3137.031
 20
-6183.208
 30
688.022
 70
    32
  0
VERTEX
  8
T45SSILL
 62
8
 10
2219.386
 20
-4903.850
 30
688.848
 70
    32
  0
VERTEX
  8
T45SSILL
 62
8
 10
2183.448
 20
-4712.434
 30
688.133
 70
    32
  0
VERTEX
  8
T45SSILL
 62
8
 10
2188.457
 20
-4703.097
 30
688.031
 70
    32
  0
VERTEX
  8
T45SSILL
 62
8
 10
2196.806
 20
-4694.942
 30
687.916
 70
    32
  0
VERTEX
  8
T45SSILL
 62
8
 10
2195.706
 20
-4687.061
 30
687.891
 70
    32
  0
VERTEX
  8
T45SSILL
 62
8
 10
2204.596
 20
-4672.557
 30
687.974
 70
    32
  0
VERTEX
  8
T45SSILL
 62
8
 10
2197.758
 20
-4667.707
 30
687.930
 70
    32
  0
VERTEX
  8
T45SSILL
 62
8
 10
2182.720
 20
-4690.413
 30
688.001
 70
    32
  0
VERTEX
  8
T45SSILL
 62
8
 10
2178.911
 20
-4689.785
 30
688.031
 70
    32
  0
VERTEX
  8
T45SSILL
 62
8
 10
2178.251
 20
-4687.657
 30
688.023
 70
    32
  0
VERTEX
  8
T45SSILL
 62
8
 10
2161.462
 20
-4590.344
 30
687.755
 70
    32
  0
VERTEX
  8
T45SSILL
 62
8
 10
2164.592
 20
-4578.237
 30
687.793
 70
    32
  0
VERTEX
  8
T45SSILL
 62
8
 10
2165.759
 20
-4578.050
 30
687.802
 70
    32
  0
VERTEX
  8
T45SSILL
 62
8
 10
2164.023
 20
-4569.433
 30
687.799
 70
    32
  0
VERTEX
  8
T45SSILL
 62
8
 10
2157.653
 20
-4563.272
 30
687.760
 70
    32
  0
VERTEX
  8
T45SSILL
 62
8
 10
2155.852
 20
-4563.480
 30
687.746
 70
    32
  0
VERTEX
  8
T45SSILL
 62
8
 10
2146.468
 20
-4511.252
 30
687.740
 70
    32
  0
VERTEX
  8
T45SSILL
 62
8
 10
2150.818
 20
-4505.531
 30
687.779
 70
    32
  0
VERTEX
  8
T45SSILL
 62
8
 10
2143.487
 20
-4494.099
 30
687.739
 70
    32
  0
VERTEX
  8
T45SSILL
 62
8
 10
2118.185
 20
-4364.549
 30
687.722
 70
    32
  0
VERTEX
  8
T45SSILL
 62
8
 10
2109.573
 20
-4366.258
 30
687.736
 70
    32
  0
VERTEX
  8
T45SSILL
 62
8
 10
2135.388
 20
-4499.581
 30
687.730
 70
    32
  0
VERTEX
  8
T45SSILL
 62
8
 10
2129.423
 20
-4512.421
 30
687.742
 70
    32
  0
VERTEX
  8
T45SSILL
 62
8
 10
2139.260
 20
-4527.800
 30
687.731
 70
    32
  0
VERTEX
  8
T45SSILL
 62
8
 10
2145.773
 20
-4561.062
 30
687.729
 70
    32
  0
VERTEX
  8
T45SSILL
 62
8
 10
2143.143
 20
-4567.067
 30
687.735
 70
    32
  0
VERTEX
  8
T45SSILL
 62
8
 10
2148.536
 20
-4587.584
 30
687.732
 70
    32
  0
VERTEX
  8
T45SSILL
 62
8
 10
2150.583
 20
-4587.416
 30
687.728
 70
    32
  0
VERTEX
  8
T45SSILL
 62
8
 10
2153.564
 20
-4604.570
 30
687.728
 70
    32
  0
VERTEX
  8
T45SSILL
 62
8
 10
2155.186
 20
-4606.983
 30
687.726
 70
    32
  0
VERTEX
  8
T45SSILL
 62
8
 10
2150.243
 20
-4613.237
 30
687.735
 70
    32
  0
VERTEX
  8
T45SSILL
 62
8
 10
2145.381
 20
-4614.014
 30
687.743
 70
    32
  0
VERTEX
  8
T45SSILL
 62
8
 10
2140.555
 20
-4606.529
 30
687.748
 70
    32
  0
VERTEX
  8
T45SSILL
 62
8
 10
2125.311
 20
-4606.732
 30
687.771
 70
    32
  0
VERTEX
  8
T45SSILL
 62
8
 10
2125.417
 20
-4624.864
 30
687.776
 70
    32
  0
VERTEX
  8
T45SSILL
 62
8
 10
2139.054
 20
-4624.838
 30
687.755
 70
    32
  0
VERTEX
  8
T45SSILL
 62
8
 10
2148.070
 20
-4628.343
 30
687.743
 70
    32
  0
VERTEX
  8
T45SSILL
 62
8
 10
2154.421
 20
-4635.385
 30
687.787
 70
    32
  0
VERTEX
  8
T45SSILL
 62
8
 10
2159.832
 20
-4649.278
 30
687.862
 70
    32
  0
VERTEX
  8
T45SSILL
 62
8
 10
2204.558
 20
-4891.183
 30
688.790
 70
    32
  0
VERTEX
  8
T45SSILL
 62
8
 10
2212.481
 20
-4907.067
 30
688.851
 70
    32
  0
VERTEX
  8
T45SSILL
 62
8
 10
2266.642
 20
-4983.649
 30
689.171
 70
    32
  0
VERTEX
  8
T45SSILL
 62
8
 10
2264.465
 20
-4985.752
 30
689.175
 70
    32
  0
VERTEX
  8
T45SSILL
 62
8
 10
2272.731
 20
-4993.046
 30
689.205
 70
    32
  0
VERTEX
  8
T45SSILL
 62
8
 10
2647.936
 20
-5514.810
 30
689.042
 70
    32
  0
VERTEX
  8
T45SSILL
 62
8
 10
2634.787
 20
-5524.869
 30
689.151
 70
    32
  0
VERTEX
  8
T45SSILL
 62
8
 10
2631.715
 20
-5521.331
 30
689.158
 70
    32
  0
VERTEX
  8
T45SSILL
 62
8
 10
2623.801
 20
-5527.211
 30
689.223
 70
    32
  0
VERTEX
  8
T45SSILL
 62
8
 10
2631.513
 20
-5536.627
 30
689.208
 70
    32
  0
VERTEX
  8
T45SSILL
 62
8
 10
2652.208
 20
-5521.385
 30
689.038
 70
    32
  0
VERTEX
  8
T45SSILL
 62
8
 10
2677.448
 20
-5556.355
 30
689.041
 70
    32
  0
VERTEX
  8
T45SSILL
 62
8
 10
2674.401
 20
-5558.751
 30
689.074
 70
    32
  0
VERTEX
  8
T45SSILL
 62
8
 10
2679.020
 20
-5564.753
 30
689.084
 70
    32
  0
VERTEX
  8
T45SSILL
 62
8
 10
2682.108
 20
-5562.111
 30
689.036
 70
    32
  0
VERTEX
  8
T45SSILL
 62
8
 10
2714.365
 20
-5607.643
 30
689.042
 70
    32
  0
VERTEX
  8
T45SSILL
 62
8
 10
2721.699
 20
-5629.234
 30
689.122
 70
    32
  0
VERTEX
  8
T45SSILL
 62
8
 10
2725.364
 20
-5655.833
 30
689.271
 70
    32
  0
VERTEX
  8
T45SSILL
 62
8
 10
2723.265
 20
-5678.005
 30
689.446
 70
    32
  0
VERTEX
  8
T45SSILL
 62
8
 10
2717.059
 20
-5694.135
 30
689.609
 70
    32
  0
VERTEX
  8
T45SSILL
 62
8
 10
2697.239
 20
-5715.894
 30
689.723
 70
    32
  0
VERTEX
  8
T45SSILL
 62
8
 10
2675.744
 20
-5729.110
 30
689.803
 70
    32
  0
VERTEX
  8
T45SSILL
 62
8
 10
2052.640
 20
-6176.842
 30
691.791
 70
    32
  0
VERTEX
  8
T45SSILL
 62
8
 10
1680.236
 20
-6445.665
 30
692.050
 70
    32
  0
VERTEX
  8
T45SSILL
 62
8
 10
1666.544
 20
-6448.718
 30
692.071
 70
    32
  0
VERTEX
  8
T45SSILL
 62
8
 10
1651.412
 20
-6448.451
 30
692.107
 70
    32
  0
VERTEX
  8
T45SSILL
 62
8
 10
1636.867
 20
-6443.167
 30
692.160
 70
    32
  0
VERTEX
  8
T45SSILL
 62
8
 10
1628.476
 20
-6435.914
 30
692.206
 70
    32
  0
VERTEX
  8
T45SSILL
 62
8
 10
1584.945
 20
-6379.430
 30
692.518
 70
    32
  0
VERTEX
  8
T45SSILL
 62
8
 10
1588.306
 20
-6373.818
 30
692.531
 70
    32
  0
VERTEX
  8
T45SSILL
 62
8
 10
1604.919
 20
-6378.903
 30
692.473
 70
    32
  0
VERTEX
  8
T45SSILL
 62
8
 10
1608.233
 20
-6374.160
 30
692.483
 70
    32
  0
VERTEX
  8
T45SSILL
 62
8
 10
1607.023
 20
-6367.799
 30
692.510
 70
    32
  0
VERTEX
  8
T45SSILL
 62
8
 10
1578.854
 20
-6348.369
 30
692.647
 70
    32
  0
VERTEX
  8
T45SSILL
 62
8
 10
1574.531
 20
-6347.634
 30
692.660
 70
    32
  0
VERTEX
  8
T45SSILL
 62
8
 10
1561.085
 20
-6339.356
 30
692.722
 70
    32
  0
VERTEX
  8
T45SSILL
 62
8
 10
1550.162
 20
-6335.081
 30
692.763
 70
    32
  0
VERTEX
  8
T45SSILL
 62
8
 10
1483.659
 20
-6248.482
 30
692.514
 70
    32
  0
VERTEX
  8
T45SSILL
 62
8
 10
1476.111
 20
-6254.302
 30
692.518
 70
    32
  0
VERTEX
  8
T45SSILL
 62
8
 10
1529.747
 20
-6324.303
 30
692.850
 70
    32
  0
VERTEX
  8
T45SSILL
 62
8
 10
1528.513
 20
-6326.355
 30
692.845
 70
    32
  0
VERTEX
  8
T45SSILL
 62
8
 10
1525.150
 20
-6326.295
 30
692.856
 70
    32
  0
VERTEX
  8
T45SSILL
 62
8
 10
1496.374
 20
-6315.683
 30
692.813
 70
    32
  0
VERTEX
  8
T45SSILL
 62
8
 10
1489.557
 20
-6325.779
 30
692.836
 70
    32
  0
VERTEX
  8
T45SSILL
 62
8
 10
1532.079
 20
-6341.640
 30
692.780
 70
    32
  0
VERTEX
  8
T45SSILL
 62
8
 10
1547.271
 20
-6352.500
 30
692.704
 70
    32
  0
VERTEX
  8
T45SSILL
 62
8
 10
1550.535
 20
-6351.552
 30
692.701
 70
    32
  0
VERTEX
  8
T45SSILL
 62
8
 10
1622.983
 20
-6445.682
 30
692.182
 70
    32
  0
VERTEX
  8
T45SSILL
 62
8
 10
1631.928
 20
-6453.017
 30
692.134
 70
    32
  0
VERTEX
  8
T45SSILL
 62
8
 10
1658.445
 20
-6461.298
 30
692.043
 70
    32
  0
VERTEX
  8
T45SSILL
 62
8
 10
1394.084
 20
-6651.972
 30
692.041
 70
    32
  0
VERTEX
  8
T45SSILL
 62
8
 10
850.799
 20
-7036.440
 30
692.798
 70
    32
  0
VERTEX
  8
T45SSILL
 62
8
 10
843.800
 20
-7033.487
 30
692.814
 70
    32
  0
VERTEX
  8
T45SSILL
 62
8
 10
839.172
 20
-7035.296
 30
692.814
 70
    32
  0
VERTEX
  8
T45SSILL
 62
8
 10
823.598
 20
-7025.755
 30
692.858
 70
    32
  0
VERTEX
  8
T45SSILL
 62
8
 10
817.423
 20
-7029.810
 30
692.853
 70
    32
  0
VERTEX
  8
T45SSILL
 62
8
 10
813.294
 20
-7035.123
 30
692.842
 70
    32
  0
VERTEX
  8
T45SSILL
 62
8
 10
823.218
 20
-7045.150
 30
692.803
 70
    32
  0
VERTEX
  8
T45SSILL
 62
8
 10
818.182
 20
-7058.892
 30
692.770
 70
    32
  0
VERTEX
  8
T45SSILL
 62
8
 10
812.865
 20
-7061.713
 30
692.767
 70
    32
  0
VERTEX
  8
T45SSILL
 62
8
 10
797.222
 20
-7062.587
 30
692.782
 70
    32
  0
VERTEX
  8
T45SSILL
 62
8
 10
718.488
 20
-7050.429
 30
692.902
 70
    32
  0
VERTEX
  8
T45SSILL
 62
8
 10
713.085
 20
-7039.522
 30
693.225
 70
    32
  0
VERTEX
  8
T45SSILL
 62
8
 10
714.821
 20
-7015.527
 30
693.046
 70
    32
  0
VERTEX
  8
T45SSILL
 62
8
 10
704.041
 20
-7011.985
 30
693.018
 70
    32
  0
VERTEX
  8
T45SSILL
 62
8
 10
701.201
 20
-7033.308
 30
693.177
 70
    32
  0
VERTEX
  8
T45SSILL
 62
8
 10
695.494
 20
-7044.842
 30
693.262
 70
    32
  0
VERTEX
  8
T45SSILL
 62
8
 10
693.107
 20
-7046.492
 30
693.274
 70
    32
  0
VERTEX
  8
T45SSILL
 62
8
 10
657.740
 20
-7041.870
 30
693.210
 70
    32
  0
VERTEX
  8
T45SSILL
 62
8
 10
639.458
 20
-7032.277
 30
693.128
 70
    32
  0
VERTEX
  8
T45SSILL
 62
8
 10
610.913
 20
-6998.248
 30
692.872
 70
    32
  0
VERTEX
  8
T45SSILL
 62
8
 10
607.902
 20
-6983.229
 30
692.769
 70
    32
  0
VERTEX
  8
T45SSILL
 62
8
 10
609.690
 20
-6977.931
 30
692.736
 70
    32
  0
VERTEX
  8
T45SSILL
 62
8
 10
609.720
 20
-6966.688
 30
692.661
 70
    32
  0
VERTEX
  8
T45SSILL
 62
8
 10
612.280
 20
-6961.686
 30
692.630
 70
    32
  0
VERTEX
  8
T45SSILL
 62
8
 10
602.681
 20
-6953.898
 30
692.568
 70
    32
  0
VERTEX
  8
T45SSILL
 62
8
 10
596.623
 20
-6969.543
 30
692.666
 70
    32
  0
VERTEX
  8
T45SSILL
 62
8
 10
594.715
 20
-6970.648
 30
692.672
 70
    32
  0
VERTEX
  8
T45SSILL
 62
8
 10
586.202
 20
-6969.699
 30
692.657
 70
    32
  0
VERTEX
  8
T45SSILL
 62
8
 10
584.889
 20
-6968.185
 30
692.645
 70
    32
  0
VERTEX
  8
T45SSILL
 62
8
 10
586.041
 20
-6962.903
 30
692.611
 70
    32
  0
VERTEX
  8
T45SSILL
 62
8
 10
584.398
 20
-6960.836
 30
692.596
 70
    32
  0
VERTEX
  8
T45SSILL
 62
8
 10
581.954
 20
-6959.003
 30
692.581
 70
    32
  0
VERTEX
  8
T45SSILL
 62
8
 10
577.100
 20
-6958.623
 30
692.574
 70
    32
  0
VERTEX
  8
T45SSILL
 62
8
 10
520.433
 20
-6891.994
 30
692.072
 70
    32
  0
VERTEX
  8
T45SSILL
 62
8
 10
523.190
 20
-6886.563
 30
692.039
 70
    32
  0
VERTEX
  8
T45SSILL
 62
8
 10
515.993
 20
-6881.717
 30
691.999
 70
    32
  0
VERTEX
  8
T45SSILL
 62
8
 10
512.133
 20
-6882.465
 30
692.001
 70
    32
  0
VERTEX
  8
T45SSILL
 62
8
 10
458.415
 20
-6818.709
 30
691.521
 70
    32
  0
VERTEX
  8
T45SSILL
 62
8
 10
458.406
 20
-6812.521
 30
691.480
 70
    32
  0
VERTEX
  8
T45SSILL
 62
8
 10
456.718
 20
-6809.310
 30
691.457
 70
    32
  0
VERTEX
  8
T45SSILL
 62
8
 10
450.636
 20
-6809.780
 30
691.454
 70
    32
  0
VERTEX
  8
T45SSILL
 62
8
 10
445.228
 20
-6802.735
 30
691.401
 70
    32
  0
VERTEX
  8
T45SSILL
 62
8
 10
446.999
 20
-6789.549
 30
691.315
 70
    32
  0
VERTEX
  8
T45SSILL
 62
8
 10
458.223
 20
-6766.413
 30
691.231
 70
    32
  0
VERTEX
  8
T45SSILL
 62
8
 10
442.444
 20
-6758.420
 30
691.248
 70
    32
  0
VERTEX
  8
T45SSILL
 62
8
 10
435.448
 20
-6768.066
 30
691.218
 70
    32
  0
VERTEX
  8
T45SSILL
 62
8
 10
437.927
 20
-6777.671
 30
691.236
 70
    32
  0
VERTEX
  8
T45SSILL
 62
8
 10
435.332
 20
-6782.563
 30
691.257
 70
    32
  0
VERTEX
  8
T45SSILL
 62
8
 10
427.907
 20
-6782.931
 30
691.262
 70
    32
  0
VERTEX
  8
T45SSILL
 62
8
 10
392.204
 20
-6739.673
 30
691.284
 70
    32
  0
VERTEX
  8
T45SSILL
 62
8
 10
384.931
 20
-6745.986
 30
691.263
 70
    32
  0
VERTEX
  8
T45SSILL
 62
8
 10
420.238
 20
-6787.452
 30
691.284
 70
    32
  0
VERTEX
  8
T45SSILL
 62
8
 10
418.693
 20
-6789.695
 30
691.294
 70
    32
  0
VERTEX
  8
T45SSILL
 62
8
 10
416.454
 20
-6791.244
 30
691.302
 70
    32
  0
VERTEX
  8
T45SSILL
 62
8
 10
396.669
 20
-6792.437
 30
691.316
 70
    32
  0
VERTEX
  8
T45SSILL
 62
8
 10
383.242
 20
-6796.493
 30
691.339
 70
    32
  0
VERTEX
  8
T45SSILL
 62
8
 10
374.670
 20
-6800.928
 30
691.362
 70
    32
  0
VERTEX
  8
T45SSILL
 62
8
 10
234.084
 20
-6901.816
 30
691.847
 70
    32
  0
VERTEX
  8
T45SSILL
 62
8
 10
237.997
 20
-6909.788
 30
691.904
 70
    32
  0
VERTEX
  8
T45SSILL
 62
8
 10
260.965
 20
-6893.899
 30
691.821
 70
    32
  0
VERTEX
  8
T45SSILL
 62
8
 10
268.041
 20
-6895.945
 30
691.842
 70
    32
  0
VERTEX
  8
T45SSILL
 62
8
 10
272.729
 20
-6895.158
 30
691.842
 70
    32
  0
VERTEX
  8
T45SSILL
 62
8
 10
276.108
 20
-6889.083
 30
691.804
 70
    32
  0
VERTEX
  8
T45SSILL
 62
8
 10
277.127
 20
-6881.757
 30
691.757
 70
    32
  0
VERTEX
  8
T45SSILL
 62
8
 10
334.291
 20
-6841.356
 30
691.546
 70
    32
  0
VERTEX
  8
T45SSILL
 62
8
 10
346.586
 20
-6849.403
 30
691.612
 70
    32
  0
VERTEX
  8
T45SSILL
 62
8
 10
351.120
 20
-6846.694
 30
691.598
 70
    32
  0
VERTEX
  8
T45SSILL
 62
8
 10
350.087
 20
-6830.536
 30
691.494
 70
    32
  0
VERTEX
  8
T45SSILL
 62
8
 10
375.333
 20
-6811.148
 30
691.403
 70
    32
  0
VERTEX
  8
T45SSILL
 62
8
 10
384.044
 20
-6806.297
 30
691.379
 70
    32
  0
VERTEX
  8
T45SSILL
 62
8
 10
403.931
 20
-6801.082
 30
691.348
 70
    32
  0
VERTEX
  8
T45SSILL
 62
8
 10
414.701
 20
-6801.214
 30
691.360
 70
    32
  0
VERTEX
  8
T45SSILL
 62
8
 10
422.444
 20
-6802.372
 30
691.376
 70
    32
  0
VERTEX
  8
T45SSILL
 62
8
 10
438.849
 20
-6810.031
 30
691.444
 70
    32
  0
VERTEX
  8
T45SSILL
 62
8
 10
443.324
 20
-6815.265
 30
691.483
 70
    32
  0
VERTEX
  8
T45SSILL
 62
8
 10
442.551
 20
-6818.470
 30
691.503
 70
    32
  0
VERTEX
  8
T45SSILL
 62
8
 10
445.666
 20
-6822.509
 30
691.534
 70
    32
  0
VERTEX
  8
T45SSILL
 62
8
 10
449.987
 20
-6823.044
 30
691.542
 70
    32
  0
VERTEX
  8
T45SSILL
 62
8
 10
503.955
 20
-6887.162
 30
692.023
 70
    32
  0
VERTEX
  8
T45SSILL
 62
8
 10
501.165
 20
-6892.082
 30
692.053
 70
    32
  0
VERTEX
  8
T45SSILL
 62
8
 10
503.452
 20
-6896.160
 30
692.083
 70
    32
  0
VERTEX
  8
T45SSILL
 62
8
 10
508.300
 20
-6899.000
 30
692.107
 70
    32
  0
VERTEX
  8
T45SSILL
 62
8
 10
513.577
 20
-6898.446
 30
692.108
 70
    32
  0
VERTEX
  8
T45SSILL
 62
8
 10
563.552
 20
-6958.491
 30
692.559
 70
    32
  0
VERTEX
  8
T45SSILL
 62
8
 10
559.415
 20
-6972.887
 30
692.651
 70
    32
  0
VERTEX
  8
T45SSILL
 62
8
 10
554.694
 20
-6970.386
 30
692.629
 70
    32
  0
VERTEX
  8
T45SSILL
 62
8
 10
552.647
 20
-6964.647
 30
692.589
 70
    32
  0
VERTEX
  8
T45SSILL
 62
8
 10
548.876
 20
-6963.518
 30
692.578
 70
    32
  0
VERTEX
  8
T45SSILL
 62
8
 10
535.449
 20
-6967.574
 30
692.591
 70
    32
  0
VERTEX
  8
T45SSILL
 62
8
 10
530.114
 20
-6974.682
 30
692.633
 70
    32
  0
VERTEX
  8
T45SSILL
 62
8
 10
536.927
 20
-7015.249
 30
692.967
 70
    32
  0
VERTEX
  8
T45SSILL
 62
8
 10
547.956
 20
-7020.540
 30
693.095
 70
    32
  0
VERTEX
  8
T45SSILL
 62
8
 10
559.637
 20
-7019.828
 30
692.993
 70
    32
  0
VERTEX
  8
T45SSILL
 62
8
 10
564.522
 20
-7013.459
 30
692.926
 70
    32
  0
VERTEX
  8
T45SSILL
 62
8
 10
559.900
 20
-6999.676
 30
692.830
 70
    32
  0
VERTEX
  8
T45SSILL
 62
8
 10
562.278
 20
-6997.711
 30
692.819
 70
    32
  0
VERTEX
  8
T45SSILL
 62
8
 10
562.175
 20
-6990.307
 30
692.770
 70
    32
  0
SEQEND
  8
T45SSILL
  0
ENDSEC
  0
EOF
