999
********************************
999
*   DXF File - Entities Only   *
999
*        3D Data Format        *
999
*     Output from ENVISAGE     *
999
*     20-Dec-2007 15:30:32     *
999
********************************
  0
SECTION 
  2
HEADER
  9
$ACADVER
  1
AC1009
  9
$EXTMIN
 10
-290000.000
 20
-250000.000
 30
-4000.000
  9
$EXTMAX
 10
5000000.000
 20
600000.000
 30
6000.000
  0
ENDSEC
  0
SECTION
  2
ENTITIES
  0
POLYLINE
  8
T47SSILL
 62
2
 66
     1
 70
     9
  0
VERTEX
  8
T47SSILL
 62
2
 10
2948.136
 20
-5698.640
 30
541.194
 70
    32
  0
VERTEX
  8
T47SSILL
 62
2
 10
2938.479
 20
-5692.724
 30
541.249
 70
    32
  0
VERTEX
  8
T47SSILL
 62
2
 10
2915.414
 20
-5683.504
 30
541.395
 70
    32
  0
VERTEX
  8
T47SSILL
 62
2
 10
2886.211
 20
-5680.284
 30
541.601
 70
    32
  0
VERTEX
  8
T47SSILL
 62
2
 10
2865.593
 20
-5683.590
 30
541.764
 70
    32
  0
VERTEX
  8
T47SSILL
 62
2
 10
2878.573
 20
-5668.371
 30
541.635
 70
    32
  0
VERTEX
  8
T47SSILL
 62
2
 10
2885.972
 20
-5653.814
 30
541.552
 70
    32
  0
VERTEX
  8
T47SSILL
 62
2
 10
2891.175
 20
-5636.919
 30
541.482
 70
    32
  0
VERTEX
  8
T47SSILL
 62
2
 10
2892.229
 20
-5612.544
 30
541.435
 70
    32
  0
VERTEX
  8
T47SSILL
 62
2
 10
2917.578
 20
-5651.581
 30
541.293
 70
    32
  0
SEQEND
  8
T47SSILL
  0
POLYLINE
  8
T47SSILL
 62
2
 66
     1
 70
     9
  0
VERTEX
  8
T47SSILL
 62
2
 10
919.185
 20
-7074.620
 30
544.057
 70
    32
  0
VERTEX
  8
T47SSILL
 62
2
 10
911.375
 20
-7073.011
 30
544.047
 70
    32
  0
VERTEX
  8
T47SSILL
 62
2
 10
896.978
 20
-7076.999
 30
544.049
 70
    32
  0
VERTEX
  8
T47SSILL
 62
2
 10
873.860
 20
-7034.667
 30
543.919
 70
    32
  0
VERTEX
  8
T47SSILL
 62
2
 10
875.969
 20
-7029.857
 30
543.904
 70
    32
  0
VERTEX
  8
T47SSILL
 62
2
 10
883.994
 20
-7030.301
 30
543.913
 70
    32
  0
VERTEX
  8
T47SSILL
 62
2
 10
918.837
 20
-7041.758
 30
543.967
 70
    32
  0
VERTEX
  8
T47SSILL
 62
2
 10
957.192
 20
-7048.164
 30
544.009
 70
    32
  0
SEQEND
  8
T47SSILL
  0
POLYLINE
  8
T47SSILL
 62
2
 66
     1
 70
     9
  0
VERTEX
  8
T47SSILL
 62
2
 10
739.901
 20
-7241.218
 30
545.895
 70
    32
  0
VERTEX
  8
T47SSILL
 62
2
 10
726.413
 20
-7223.977
 30
545.819
 70
    32
  0
VERTEX
  8
T47SSILL
 62
2
 10
722.037
 20
-7201.549
 30
545.554
 70
    32
  0
VERTEX
  8
T47SSILL
 62
2
 10
724.940
 20
-7200.386
 30
545.533
 70
    32
  0
VERTEX
  8
T47SSILL
 62
2
 10
768.354
 20
-7216.707
 30
545.378
 70
    32
  0
VERTEX
  8
T47SSILL
 62
2
 10
780.993
 20
-7209.354
 30
545.188
 70
    32
  0
VERTEX
  8
T47SSILL
 62
2
 10
785.867
 20
-7210.390
 30
545.156
 70
    32
  0
VERTEX
  8
T47SSILL
 62
2
 10
803.771
 20
-7206.726
 30
544.960
 70
    32
  0
VERTEX
  8
T47SSILL
 62
2
 10
809.219
 20
-7213.405
 30
544.986
 70
    32
  0
VERTEX
  8
T47SSILL
 62
2
 10
810.124
 20
-7223.288
 30
545.086
 70
    32
  0
VERTEX
  8
T47SSILL
 62
2
 10
800.602
 20
-7226.968
 30
545.210
 70
    32
  0
VERTEX
  8
T47SSILL
 62
2
 10
793.203
 20
-7222.833
 30
545.229
 70
    32
  0
VERTEX
  8
T47SSILL
 62
2
 10
785.299
 20
-7223.762
 30
545.308
 70
    32
  0
VERTEX
  8
T47SSILL
 62
2
 10
774.887
 20
-7221.788
 30
545.377
 70
    32
  0
VERTEX
  8
T47SSILL
 62
2
 10
770.400
 20
-7227.439
 30
545.478
 70
    32
  0
VERTEX
  8
T47SSILL
 62
2
 10
780.910
 20
-7238.655
 30
545.509
 70
    32
  0
VERTEX
  8
T47SSILL
 62
2
 10
780.550
 20
-7250.349
 30
545.641
 70
    32
  0
VERTEX
  8
T47SSILL
 62
2
 10
776.170
 20
-7253.144
 30
545.710
 70
    32
  0
VERTEX
  8
T47SSILL
 62
2
 10
775.078
 20
-7255.572
 30
545.746
 70
    32
  0
SEQEND
  8
T47SSILL
  0
POLYLINE
  8
T47SSILL
 62
2
 66
     1
 70
     9
  0
VERTEX
  8
T47SSILL
 62
2
 10
713.258
 20
-7208.288
 30
545.655
 70
    32
  0
VERTEX
  8
T47SSILL
 62
2
 10
707.402
 20
-7208.682
 30
545.672
 70
    32
  0
VERTEX
  8
T47SSILL
 62
2
 10
697.100
 20
-7205.710
 30
545.657
 70
    32
  0
VERTEX
  8
T47SSILL
 62
2
 10
678.610
 20
-7188.234
 30
545.481
 70
    32
  0
VERTEX
  8
T47SSILL
 62
2
 10
670.461
 20
-7174.636
 30
545.332
 70
    32
  0
VERTEX
  8
T47SSILL
 62
2
 10
673.279
 20
-7153.990
 30
545.073
 70
    32
  0
VERTEX
  8
T47SSILL
 62
2
 10
685.949
 20
-7143.828
 30
544.922
 70
    32
  0
VERTEX
  8
T47SSILL
 62
2
 10
694.497
 20
-7146.637
 30
544.938
 70
    32
  0
VERTEX
  8
T47SSILL
 62
2
 10
703.003
 20
-7152.574
 30
544.993
 70
    32
  0
VERTEX
  8
T47SSILL
 62
2
 10
705.938
 20
-7163.070
 30
545.116
 70
    32
  0
SEQEND
  8
T47SSILL
  0
POLYLINE
  8
T47SSILL
 62
2
 66
     1
 70
     9
  0
VERTEX
  8
T47SSILL
 62
2
 10
783.838
 20
-7129.879
 30
544.292
 70
    32
  0
VERTEX
  8
T47SSILL
 62
2
 10
776.661
 20
-7139.561
 30
544.460
 70
    32
  0
VERTEX
  8
T47SSILL
 62
2
 10
775.837
 20
-7154.537
 30
544.632
 70
    32
  0
VERTEX
  8
T47SSILL
 62
2
 10
770.961
 20
-7156.190
 30
544.692
 70
    32
  0
VERTEX
  8
T47SSILL
 62
2
 10
740.501
 20
-7136.560
 30
544.719
 70
    32
  0
VERTEX
  8
T47SSILL
 62
2
 10
732.628
 20
-7126.101
 30
544.607
 70
    32
  0
VERTEX
  8
T47SSILL
 62
2
 10
733.579
 20
-7108.979
 30
544.395
 70
    32
  0
VERTEX
  8
T47SSILL
 62
2
 10
736.677
 20
-7100.564
 30
544.286
 70
    32
  0
VERTEX
  8
T47SSILL
 62
2
 10
760.177
 20
-7080.439
 30
543.972
 70
    32
  0
VERTEX
  8
T47SSILL
 62
2
 10
774.454
 20
-7073.733
 30
543.962
 70
    32
  0
VERTEX
  8
T47SSILL
 62
2
 10
784.614
 20
-7073.279
 30
543.968
 70
    32
  0
VERTEX
  8
T47SSILL
 62
2
 10
786.936
 20
-7077.226
 30
543.980
 70
    32
  0
VERTEX
  8
T47SSILL
 62
2
 10
780.689
 20
-7084.889
 30
543.997
 70
    32
  0
VERTEX
  8
T47SSILL
 62
2
 10
778.699
 20
-7092.417
 30
544.016
 70
    32
  0
VERTEX
  8
T47SSILL
 62
2
 10
777.465
 20
-7101.341
 30
544.039
 70
    32
  0
VERTEX
  8
T47SSILL
 62
2
 10
778.909
 20
-7115.130
 30
544.173
 70
    32
  0
SEQEND
  8
T47SSILL
  0
POLYLINE
  8
T47SSILL
 62
2
 66
     1
 70
     9
  0
VERTEX
  8
T47SSILL
 62
2
 10
884.565
 20
-7100.027
 30
544.104
 70
    32
  0
VERTEX
  8
T47SSILL
 62
2
 10
872.515
 20
-7104.640
 30
544.109
 70
    32
  0
VERTEX
  8
T47SSILL
 62
2
 10
869.415
 20
-7108.509
 30
544.117
 70
    32
  0
VERTEX
  8
T47SSILL
 62
2
 10
868.044
 20
-7114.520
 30
544.133
 70
    32
  0
VERTEX
  8
T47SSILL
 62
2
 10
859.160
 20
-7112.847
 30
544.123
 70
    32
  0
VERTEX
  8
T47SSILL
 62
2
 10
848.519
 20
-7107.809
 30
544.102
 70
    32
  0
VERTEX
  8
T47SSILL
 62
2
 10
843.078
 20
-7100.300
 30
544.078
 70
    32
  0
VERTEX
  8
T47SSILL
 62
2
 10
846.508
 20
-7096.125
 30
544.069
 70
    32
  0
VERTEX
  8
T47SSILL
 62
2
 10
859.435
 20
-7098.828
 30
544.085
 70
    32
  0
VERTEX
  8
T47SSILL
 62
2
 10
873.724
 20
-7091.805
 30
544.075
 70
    32
  0
VERTEX
  8
T47SSILL
 62
2
 10
885.212
 20
-7089.810
 30
544.077
 70
    32
  0
VERTEX
  8
T47SSILL
 62
2
 10
893.046
 20
-7090.785
 30
544.084
 70
    32
  0
VERTEX
  8
T47SSILL
 62
2
 10
899.831
 20
-7089.716
 30
544.086
 70
    32
  0
SEQEND
  8
T47SSILL
  0
POLYLINE
  8
T47SSILL
 62
2
 66
     1
 70
     9
  0
VERTEX
  8
T47SSILL
 62
2
 10
888.944
 20
-7211.444
 30
544.410
 70
    32
  0
VERTEX
  8
T47SSILL
 62
2
 10
898.733
 20
-7240.158
 30
544.498
 70
    32
  0
VERTEX
  8
T47SSILL
 62
2
 10
880.547
 20
-7242.858
 30
544.686
 70
    32
  0
VERTEX
  8
T47SSILL
 62
2
 10
871.945
 20
-7242.148
 30
544.753
 70
    32
  0
VERTEX
  8
T47SSILL
 62
2
 10
866.260
 20
-7245.848
 30
544.844
 70
    32
  0
VERTEX
  8
T47SSILL
 62
2
 10
867.015
 20
-7247.245
 30
544.852
 70
    32
  0
VERTEX
  8
T47SSILL
 62
2
 10
838.963
 20
-7251.046
 30
545.139
 70
    32
  0
VERTEX
  8
T47SSILL
 62
2
 10
832.518
 20
-7242.913
 30
545.106
 70
    32
  0
VERTEX
  8
T47SSILL
 62
2
 10
816.999
 20
-7199.322
 30
544.763
 70
    32
  0
VERTEX
  8
T47SSILL
 62
2
 10
829.221
 20
-7195.326
 30
544.613
 70
    32
  0
VERTEX
  8
T47SSILL
 62
2
 10
869.106
 20
-7206.092
 30
544.383
 70
    32
  0
SEQEND
  8
T47SSILL
  0
POLYLINE
  8
T47SSILL
 62
2
 66
     1
 70
     9
  0
VERTEX
  8
T47SSILL
 62
2
 10
883.719
 20
-7191.848
 30
544.353
 70
    32
  0
VERTEX
  8
T47SSILL
 62
2
 10
871.228
 20
-7167.137
 30
544.278
 70
    32
  0
VERTEX
  8
T47SSILL
 62
2
 10
824.992
 20
-7155.959
 30
544.218
 70
    32
  0
VERTEX
  8
T47SSILL
 62
2
 10
828.062
 20
-7159.966
 30
544.236
 70
    32
  0
VERTEX
  8
T47SSILL
 62
2
 10
832.252
 20
-7174.859
 30
544.362
 70
    32
  0
VERTEX
  8
T47SSILL
 62
2
 10
839.317
 20
-7187.366
 30
544.438
 70
    32
  0
VERTEX
  8
T47SSILL
 62
2
 10
879.680
 20
-7196.432
 30
544.363
 70
    32
  0
SEQEND
  8
T47SSILL
  0
POLYLINE
  8
T47SSILL
 62
2
 66
     1
 70
     9
  0
VERTEX
  8
T47SSILL
 62
2
 10
732.109
 20
-7088.481
 30
544.147
 70
    32
  0
VERTEX
  8
T47SSILL
 62
2
 10
697.529
 20
-7119.756
 30
544.603
 70
    32
  0
VERTEX
  8
T47SSILL
 62
2
 10
681.696
 20
-7129.470
 30
544.755
 70
    32
  0
VERTEX
  8
T47SSILL
 62
2
 10
674.089
 20
-7119.596
 30
544.650
 70
    32
  0
VERTEX
  8
T47SSILL
 62
2
 10
672.540
 20
-7108.595
 30
544.518
 70
    32
  0
VERTEX
  8
T47SSILL
 62
2
 10
678.128
 20
-7100.473
 30
544.407
 70
    32
  0
SEQEND
  8
T47SSILL
  0
POLYLINE
  8
T47SSILL
 62
2
 66
     1
 70
     9
  0
VERTEX
  8
T47SSILL
 62
2
 10
4306.620
 20
-7784.634
 30
536.528
 70
    32
  0
VERTEX
  8
T47SSILL
 62
2
 10
4325.156
 20
-7854.615
 30
536.497
 70
    32
  0
VERTEX
  8
T47SSILL
 62
2
 10
4328.084
 20
-7852.489
 30
536.495
 70
    32
  0
VERTEX
  8
T47SSILL
 62
2
 10
4337.902
 20
-7851.140
 30
536.487
 70
    32
  0
VERTEX
  8
T47SSILL
 62
2
 10
4345.498
 20
-7854.240
 30
536.480
 70
    32
  0
VERTEX
  8
T47SSILL
 62
2
 10
4349.212
 20
-7860.705
 30
536.476
 70
    32
  0
VERTEX
  8
T47SSILL
 62
2
 10
4360.057
 20
-7856.865
 30
536.468
 70
    32
  0
VERTEX
  8
T47SSILL
 62
2
 10
4369.821
 20
-7851.084
 30
536.462
 70
    32
  0
VERTEX
  8
T47SSILL
 62
2
 10
4375.860
 20
-7844.080
 30
536.459
 70
    32
  0
VERTEX
  8
T47SSILL
 62
2
 10
4382.013
 20
-7831.976
 30
536.457
 70
    32
  0
VERTEX
  8
T47SSILL
 62
2
 10
4384.445
 20
-7824.211
 30
536.457
 70
    32
  0
VERTEX
  8
T47SSILL
 62
2
 10
4385.127
 20
-7814.335
 30
536.459
 70
    32
  0
VERTEX
  8
T47SSILL
 62
2
 10
4382.565
 20
-7813.360
 30
536.461
 70
    32
  0
VERTEX
  8
T47SSILL
 62
2
 10
4381.717
 20
-7800.778
 30
536.465
 70
    32
  0
VERTEX
  8
T47SSILL
 62
2
 10
4366.485
 20
-7776.499
 30
536.483
 70
    32
  0
VERTEX
  8
T47SSILL
 62
2
 10
4363.100
 20
-7772.740
 30
536.486
 70
    32
  0
VERTEX
  8
T47SSILL
 62
2
 10
4356.229
 20
-7771.840
 30
536.492
 70
    32
  0
VERTEX
  8
T47SSILL
 62
2
 10
4338.330
 20
-7756.806
 30
536.510
 70
    32
  0
VERTEX
  8
T47SSILL
 62
2
 10
4336.123
 20
-7757.972
 30
536.511
 70
    32
  0
VERTEX
  8
T47SSILL
 62
2
 10
4337.161
 20
-7768.563
 30
536.508
 70
    32
  0
VERTEX
  8
T47SSILL
 62
2
 10
4343.874
 20
-7782.012
 30
536.499
 70
    32
  0
VERTEX
  8
T47SSILL
 62
2
 10
4336.051
 20
-7787.912
 30
536.504
 70
    32
  0
VERTEX
  8
T47SSILL
 62
2
 10
4324.038
 20
-7790.745
 30
536.513
 70
    32
  0
VERTEX
  8
T47SSILL
 62
2
 10
4316.493
 20
-7779.755
 30
536.521
 70
    32
  0
VERTEX
  8
T47SSILL
 62
2
 10
4309.751
 20
-7779.633
 30
536.527
 70
    32
  0
VERTEX
  8
T47SSILL
 62
2
 10
4308.730
 20
-7782.883
 30
536.527
 70
    32
  0
SEQEND
  8
T47SSILL
  0
POLYLINE
  8
T47SSILL
 62
2
 66
     1
 70
     9
  0
VERTEX
  8
T47SSILL
 62
2
 10
4538.993
 20
-8016.294
 30
536.579
 70
    32
  0
VERTEX
  8
T47SSILL
 62
2
 10
4522.620
 20
-7990.445
 30
536.528
 70
    32
  0
VERTEX
  8
T47SSILL
 62
2
 10
4507.327
 20
-7970.137
 30
536.502
 70
    32
  0
VERTEX
  8
T47SSILL
 62
2
 10
4503.051
 20
-7969.206
 30
536.502
 70
    32
  0
VERTEX
  8
T47SSILL
 62
2
 10
4500.276
 20
-7965.986
 30
536.501
 70
    32
  0
VERTEX
  8
T47SSILL
 62
2
 10
4492.440
 20
-7981.930
 30
536.537
 70
    32
  0
VERTEX
  8
T47SSILL
 62
2
 10
4492.008
 20
-7987.043
 30
536.551
 70
    32
  0
VERTEX
  8
T47SSILL
 62
2
 10
4506.872
 20
-8028.387
 30
536.644
 70
    32
  0
VERTEX
  8
T47SSILL
 62
2
 10
4515.615
 20
-8024.655
 30
536.625
 70
    32
  0
VERTEX
  8
T47SSILL
 62
2
 10
4531.815
 20
-8046.813
 30
536.666
 70
    32
  0
VERTEX
  8
T47SSILL
 62
2
 10
4533.800
 20
-8047.443
 30
536.666
 70
    32
  0
SEQEND
  8
T47SSILL
  0
POLYLINE
  8
T47SSILL
 62
2
 66
     1
 70
     9
  0
VERTEX
  8
T47SSILL
 62
2
 10
4544.946
 20
-8021.788
 30
536.588
 70
    32
  0
VERTEX
  8
T47SSILL
 62
2
 10
4539.152
 20
-8058.718
 30
536.690
 70
    32
  0
VERTEX
  8
T47SSILL
 62
2
 10
4539.752
 20
-8063.300
 30
536.701
 70
    32
  0
VERTEX
  8
T47SSILL
 62
2
 10
4552.172
 20
-8073.041
 30
536.714
 70
    32
  0
VERTEX
  8
T47SSILL
 62
2
 10
4562.787
 20
-8101.327
 30
536.777
 70
    32
  0
VERTEX
  8
T47SSILL
 62
2
 10
4555.282
 20
-8116.375
 30
536.824
 70
    32
  0
VERTEX
  8
T47SSILL
 62
2
 10
4567.801
 20
-8170.111
 30
536.952
 70
    32
  0
VERTEX
  8
T47SSILL
 62
2
 10
4601.423
 20
-8146.567
 30
536.856
 70
    32
  0
VERTEX
  8
T47SSILL
 62
2
 10
4607.839
 20
-8139.181
 30
536.830
 70
    32
  0
VERTEX
  8
T47SSILL
 62
2
 10
4610.223
 20
-8134.504
 30
536.816
 70
    32
  0
VERTEX
  8
T47SSILL
 62
2
 10
4611.840
 20
-8123.513
 30
536.785
 70
    32
  0
VERTEX
  8
T47SSILL
 62
2
 10
4609.563
 20
-8113.168
 30
536.761
 70
    32
  0
VERTEX
  8
T47SSILL
 62
2
 10
4605.299
 20
-8105.794
 30
536.746
 70
    32
  0
SEQEND
  8
T47SSILL
  0
POLYLINE
  8
T47SSILL
 62
2
 66
     1
 70
     9
  0
VERTEX
  8
T47SSILL
 62
2
 10
4584.031
 20
-7874.947
 30
536.437
 70
    32
  0
VERTEX
  8
T47SSILL
 62
2
 10
4564.659
 20
-7889.125
 30
536.448
 70
    32
  0
VERTEX
  8
T47SSILL
 62
2
 10
4565.214
 20
-7893.194
 30
536.450
 70
    32
  0
VERTEX
  8
T47SSILL
 62
2
 10
4569.843
 20
-7899.868
 30
536.453
 70
    32
  0
VERTEX
  8
T47SSILL
 62
2
 10
4598.336
 20
-7917.024
 30
536.460
 70
    32
  0
VERTEX
  8
T47SSILL
 62
2
 10
4610.307
 20
-7908.876
 30
536.454
 70
    32
  0
VERTEX
  8
T47SSILL
 62
2
 10
4612.804
 20
-7901.500
 30
536.449
 70
    32
  0
VERTEX
  8
T47SSILL
 62
2
 10
4611.932
 20
-7895.043
 30
536.445
 70
    32
  0
VERTEX
  8
T47SSILL
 62
2
 10
4606.715
 20
-7886.507
 30
536.441
 70
    32
  0
VERTEX
  8
T47SSILL
 62
2
 10
4600.937
 20
-7881.104
 30
536.439
 70
    32
  0
VERTEX
  8
T47SSILL
 62
2
 10
4591.201
 20
-7875.958
 30
536.437
 70
    32
  0
VERTEX
  8
T47SSILL
 62
2
 10
4586.613
 20
-7875.799
 30
536.437
 70
    32
  0
SEQEND
  8
T47SSILL
  0
POLYLINE
  8
T47SSILL
 62
2
 66
     1
 70
     9
  0
VERTEX
  8
T47SSILL
 62
2
 10
4641.836
 20
-7777.013
 30
536.372
 70
    32
  0
VERTEX
  8
T47SSILL
 62
2
 10
4621.990
 20
-7790.989
 30
536.383
 70
    32
  0
VERTEX
  8
T47SSILL
 62
2
 10
4630.444
 20
-7811.792
 30
536.394
 70
    32
  0
VERTEX
  8
T47SSILL
 62
2
 10
4629.515
 20
-7860.677
 30
536.423
 70
    32
  0
VERTEX
  8
T47SSILL
 62
2
 10
4631.226
 20
-7872.196
 30
536.430
 70
    32
  0
VERTEX
  8
T47SSILL
 62
2
 10
4637.912
 20
-7887.411
 30
536.438
 70
    32
  0
VERTEX
  8
T47SSILL
 62
2
 10
4639.385
 20
-7888.086
 30
536.438
 70
    32
  0
VERTEX
  8
T47SSILL
 62
2
 10
4679.253
 20
-7857.824
 30
536.415
 70
    32
  0
VERTEX
  8
T47SSILL
 62
2
 10
4683.210
 20
-7850.806
 30
536.411
 70
    32
  0
VERTEX
  8
T47SSILL
 62
2
 10
4684.369
 20
-7844.292
 30
536.407
 70
    32
  0
VERTEX
  8
T47SSILL
 62
2
 10
4683.144
 20
-7833.293
 30
536.400
 70
    32
  0
SEQEND
  8
T47SSILL
  0
POLYLINE
  8
T47SSILL
 62
2
 66
     1
 70
     9
  0
VERTEX
  8
T47SSILL
 62
2
 10
4572.855
 20
-7708.762
 30
536.341
 70
    32
  0
VERTEX
  8
T47SSILL
 62
2
 10
4561.325
 20
-7718.117
 30
536.348
 70
    32
  0
VERTEX
  8
T47SSILL
 62
2
 10
4561.856
 20
-7728.312
 30
536.354
 70
    32
  0
VERTEX
  8
T47SSILL
 62
2
 10
4565.341
 20
-7746.178
 30
536.364
 70
    32
  0
VERTEX
  8
T47SSILL
 62
2
 10
4579.099
 20
-7772.181
 30
536.377
 70
    32
  0
VERTEX
  8
T47SSILL
 62
2
 10
4587.205
 20
-7780.038
 30
536.380
 70
    32
  0
VERTEX
  8
T47SSILL
 62
2
 10
4605.161
 20
-7777.578
 30
536.377
 70
    32
  0
VERTEX
  8
T47SSILL
 62
2
 10
4608.534
 20
-7778.619
 30
536.377
 70
    32
  0
VERTEX
  8
T47SSILL
 62
2
 10
4616.900
 20
-7785.632
 30
536.380
 70
    32
  0
VERTEX
  8
T47SSILL
 62
2
 10
4625.352
 20
-7781.349
 30
536.377
 70
    32
  0
VERTEX
  8
T47SSILL
 62
2
 10
4627.307
 20
-7778.184
 30
536.374
 70
    32
  0
VERTEX
  8
T47SSILL
 62
2
 10
4623.150
 20
-7764.951
 30
536.367
 70
    32
  0
VERTEX
  8
T47SSILL
 62
2
 10
4627.477
 20
-7756.791
 30
536.362
 70
    32
  0
VERTEX
  8
T47SSILL
 62
2
 10
4601.145
 20
-7719.631
 30
536.344
 70
    32
  0
VERTEX
  8
T47SSILL
 62
2
 10
4590.522
 20
-7711.311
 30
536.340
 70
    32
  0
VERTEX
  8
T47SSILL
 62
2
 10
4577.728
 20
-7708.713
 30
536.340
 70
    32
  0
SEQEND
  8
T47SSILL
  0
POLYLINE
  8
T47SSILL
 62
2
 66
     1
 70
     9
  0
VERTEX
  8
T47SSILL
 62
2
 10
4677.114
 20
-7742.231
 30
536.347
 70
    32
  0
VERTEX
  8
T47SSILL
 62
2
 10
4674.469
 20
-7738.589
 30
536.346
 70
    32
  0
VERTEX
  8
T47SSILL
 62
2
 10
4670.758
 20
-7727.322
 30
536.340
 70
    32
  0
VERTEX
  8
T47SSILL
 62
2
 10
4660.675
 20
-7726.355
 30
536.340
 70
    32
  0
VERTEX
  8
T47SSILL
 62
2
 10
4651.070
 20
-7729.950
 30
536.344
 70
    32
  0
VERTEX
  8
T47SSILL
 62
2
 10
4650.158
 20
-7734.102
 30
536.346
 70
    32
  0
VERTEX
  8
T47SSILL
 62
2
 10
4642.968
 20
-7744.778
 30
536.353
 70
    32
  0
VERTEX
  8
T47SSILL
 62
2
 10
4636.946
 20
-7744.897
 30
536.354
 70
    32
  0
VERTEX
  8
T47SSILL
 62
2
 10
4631.935
 20
-7737.846
 30
536.350
 70
    32
  0
VERTEX
  8
T47SSILL
 62
2
 10
4636.164
 20
-7731.503
 30
536.346
 70
    32
  0
VERTEX
  8
T47SSILL
 62
2
 10
4635.459
 20
-7727.979
 30
536.344
 70
    32
  0
VERTEX
  8
T47SSILL
 62
2
 10
4624.593
 20
-7723.981
 30
536.343
 70
    32
  0
VERTEX
  8
T47SSILL
 62
2
 10
4620.985
 20
-7724.420
 30
536.344
 70
    32
  0
VERTEX
  8
T47SSILL
 62
2
 10
4617.256
 20
-7730.400
 30
536.348
 70
    32
  0
VERTEX
  8
T47SSILL
 62
2
 10
4635.214
 20
-7754.226
 30
536.360
 70
    32
  0
VERTEX
  8
T47SSILL
 62
2
 10
4643.515
 20
-7751.688
 30
536.357
 70
    32
  0
VERTEX
  8
T47SSILL
 62
2
 10
4648.436
 20
-7756.513
 30
536.359
 70
    32
  0
VERTEX
  8
T47SSILL
 62
2
 10
4656.631
 20
-7757.434
 30
536.359
 70
    32
  0
SEQEND
  8
T47SSILL
  0
POLYLINE
  8
T47SSILL
 62
2
 66
     1
 70
     9
  0
VERTEX
  8
T47SSILL
 62
2
 10
4076.847
 20
-7349.606
 30
536.555
 70
    32
  0
VERTEX
  8
T47SSILL
 62
2
 10
4073.847
 20
-7352.246
 30
536.564
 70
    32
  0
VERTEX
  8
T47SSILL
 62
2
 10
4148.976
 20
-7457.474
 30
536.491
 70
    32
  0
VERTEX
  8
T47SSILL
 62
2
 10
4155.550
 20
-7463.320
 30
536.491
 70
    32
  0
VERTEX
  8
T47SSILL
 62
2
 10
4167.315
 20
-7467.038
 30
536.527
 70
    32
  0
VERTEX
  8
T47SSILL
 62
2
 10
4182.432
 20
-7464.313
 30
536.583
 70
    32
  0
VERTEX
  8
T47SSILL
 62
2
 10
4236.364
 20
-7425.017
 30
536.671
 70
    32
  0
VERTEX
  8
T47SSILL
 62
2
 10
4114.380
 20
-7367.350
 30
536.487
 70
    32
  0
SEQEND
  8
T47SSILL
  0
POLYLINE
  8
T47SSILL
 62
2
 66
     1
 70
     9
  0
VERTEX
  8
T47SSILL
 62
2
 10
3937.885
 20
-7615.701
 30
537.108
 70
    32
  0
VERTEX
  8
T47SSILL
 62
2
 10
3923.316
 20
-7626.683
 30
537.150
 70
    32
  0
VERTEX
  8
T47SSILL
 62
2
 10
3943.370
 20
-7652.846
 30
537.129
 70
    32
  0
VERTEX
  8
T47SSILL
 62
2
 10
3963.436
 20
-7655.158
 30
537.086
 70
    32
  0
VERTEX
  8
T47SSILL
 62
2
 10
3966.313
 20
-7649.457
 30
537.075
 70
    32
  0
VERTEX
  8
T47SSILL
 62
2
 10
3962.255
 20
-7640.707
 30
537.076
 70
    32
  0
VERTEX
  8
T47SSILL
 62
2
 10
3954.211
 20
-7638.382
 30
537.092
 70
    32
  0
VERTEX
  8
T47SSILL
 62
2
 10
3950.987
 20
-7639.377
 30
537.100
 70
    32
  0
VERTEX
  8
T47SSILL
 62
2
 10
3945.324
 20
-7630.401
 30
537.104
 70
    32
  0
VERTEX
  8
T47SSILL
 62
2
 10
3941.899
 20
-7627.906
 30
537.110
 70
    32
  0
VERTEX
  8
T47SSILL
 62
2
 10
3939.361
 20
-7620.879
 30
537.109
 70
    32
  0
SEQEND
  8
T47SSILL
  0
POLYLINE
  8
T47SSILL
 62
2
 66
     1
 70
     9
  0
VERTEX
  8
T47SSILL
 62
2
 10
4002.926
 20
-8014.130
 30
537.587
 70
    32
  0
VERTEX
  8
T47SSILL
 62
2
 10
4005.759
 20
-8012.325
 30
537.576
 70
    32
  0
VERTEX
  8
T47SSILL
 62
2
 10
4007.445
 20
-8002.555
 30
537.546
 70
    32
  0
VERTEX
  8
T47SSILL
 62
2
 10
4005.811
 20
-7983.257
 30
537.498
 70
    32
  0
VERTEX
  8
T47SSILL
 62
2
 10
4009.296
 20
-7966.943
 30
537.447
 70
    32
  0
VERTEX
  8
T47SSILL
 62
2
 10
4003.102
 20
-7956.823
 30
537.435
 70
    32
  0
VERTEX
  8
T47SSILL
 62
2
 10
3997.275
 20
-7953.047
 30
537.439
 70
    32
  0
VERTEX
  8
T47SSILL
 62
2
 10
3968.620
 20
-7948.711
 30
537.497
 70
    32
  0
VERTEX
  8
T47SSILL
 62
2
 10
3966.650
 20
-7950.197
 30
537.505
 70
    32
  0
VERTEX
  8
T47SSILL
 62
2
 10
3974.273
 20
-7975.244
 30
537.553
 70
    32
  0
SEQEND
  8
T47SSILL
  0
POLYLINE
  8
T47SSILL
 62
2
 66
     1
 70
     9
  0
VERTEX
  8
T47SSILL
 62
2
 10
820.994
 20
-7142.914
 30
544.180
 70
    32
  0
VERTEX
  8
T47SSILL
 62
2
 10
807.876
 20
-7131.290
 30
544.140
 70
    32
  0
VERTEX
  8
T47SSILL
 62
2
 10
793.127
 20
-7130.855
 30
544.221
 70
    32
  0
VERTEX
  8
T47SSILL
 62
2
 10
787.219
 20
-7105.637
 30
544.057
 70
    32
  0
VERTEX
  8
T47SSILL
 62
2
 10
787.537
 20
-7097.999
 30
544.037
 70
    32
  0
VERTEX
  8
T47SSILL
 62
2
 10
789.797
 20
-7091.060
 30
544.019
 70
    32
  0
VERTEX
  8
T47SSILL
 62
2
 10
792.764
 20
-7085.850
 30
544.007
 70
    32
  0
VERTEX
  8
T47SSILL
 62
2
 10
800.034
 20
-7080.668
 30
543.997
 70
    32
  0
VERTEX
  8
T47SSILL
 62
2
 10
811.408
 20
-7084.920
 30
544.016
 70
    32
  0
VERTEX
  8
T47SSILL
 62
2
 10
822.603
 20
-7085.908
 30
544.026
 70
    32
  0
VERTEX
  8
T47SSILL
 62
2
 10
828.632
 20
-7094.622
 30
544.054
 70
    32
  0
VERTEX
  8
T47SSILL
 62
2
 10
828.444
 20
-7101.265
 30
544.072
 70
    32
  0
VERTEX
  8
T47SSILL
 62
2
 10
833.547
 20
-7104.397
 30
544.083
 70
    32
  0
VERTEX
  8
T47SSILL
 62
2
 10
856.982
 20
-7147.171
 30
544.215
 70
    32
  0
VERTEX
  8
T47SSILL
 62
2
 10
849.909
 20
-7150.330
 30
544.219
 70
    32
  0
SEQEND
  8
T47SSILL
  0
POLYLINE
  8
T47SSILL
 62
2
 66
     1
 70
     9
  0
VERTEX
  8
T47SSILL
 62
2
 10
843.470
 20
-7056.440
 30
543.959
 70
    32
  0
VERTEX
  8
T47SSILL
 62
2
 10
837.809
 20
-7059.093
 30
543.963
 70
    32
  0
VERTEX
  8
T47SSILL
 62
2
 10
837.470
 20
-7066.950
 30
543.984
 70
    32
  0
VERTEX
  8
T47SSILL
 62
2
 10
830.760
 20
-7066.628
 30
543.979
 70
    32
  0
VERTEX
  8
T47SSILL
 62
2
 10
827.621
 20
-7068.247
 30
543.981
 70
    32
  0
VERTEX
  8
T47SSILL
 62
2
 10
824.079
 20
-7067.530
 30
543.977
 70
    32
  0
VERTEX
  8
T47SSILL
 62
2
 10
816.356
 20
-7055.634
 30
543.940
 70
    32
  0
VERTEX
  8
T47SSILL
 62
2
 10
822.861
 20
-7033.756
 30
543.872
 70
    32
  0
VERTEX
  8
T47SSILL
 62
2
 10
832.466
 20
-7026.511
 30
543.856
 70
    32
  0
VERTEX
  8
T47SSILL
 62
2
 10
848.273
 20
-7027.340
 30
543.872
 70
    32
  0
VERTEX
  8
T47SSILL
 62
2
 10
858.097
 20
-7036.601
 30
543.912
 70
    32
  0
VERTEX
  8
T47SSILL
 62
2
 10
862.596
 20
-7037.867
 30
543.920
 70
    32
  0
VERTEX
  8
T47SSILL
 62
2
 10
868.213
 20
-7044.690
 30
543.943
 70
    32
  0
VERTEX
  8
T47SSILL
 62
2
 10
886.003
 20
-7078.988
 30
544.048
 70
    32
  0
VERTEX
  8
T47SSILL
 62
2
 10
868.060
 20
-7080.401
 30
544.040
 70
    32
  0
VERTEX
  8
T47SSILL
 62
2
 10
866.867
 20
-7078.964
 30
544.035
 70
    32
  0
VERTEX
  8
T47SSILL
 62
2
 10
869.535
 20
-7075.568
 30
544.028
 70
    32
  0
VERTEX
  8
T47SSILL
 62
2
 10
868.360
 20
-7072.982
 30
544.020
 70
    32
  0
VERTEX
  8
T47SSILL
 62
2
 10
857.557
 20
-7068.354
 30
544.001
 70
    32
  0
VERTEX
  8
T47SSILL
 62
2
 10
848.338
 20
-7067.817
 30
543.993
 70
    32
  0
VERTEX
  8
T47SSILL
 62
2
 10
847.254
 20
-7058.147
 30
543.966
 70
    32
  0
VERTEX
  8
T47SSILL
 62
2
 10
843.690
 20
-7056.337
 30
543.959
 70
    32
  0
SEQEND
  8
T47SSILL
  0
POLYLINE
  8
T47SSILL
 62
2
 66
     1
 70
     9
  0
VERTEX
  8
T47SSILL
 62
2
 10
3879.801
 20
-7622.401
 30
537.244
 70
    32
  0
VERTEX
  8
T47SSILL
 62
2
 10
3890.294
 20
-7624.314
 30
537.222
 70
    32
  0
VERTEX
  8
T47SSILL
 62
2
 10
3887.699
 20
-7644.152
 30
537.246
 70
    32
  0
VERTEX
  8
T47SSILL
 62
2
 10
3888.798
 20
-7646.634
 30
537.246
 70
    32
  0
VERTEX
  8
T47SSILL
 62
2
 10
3919.318
 20
-7649.344
 30
537.180
 70
    32
  0
VERTEX
  8
T47SSILL
 62
2
 10
3922.789
 20
-7648.824
 30
537.171
 70
    32
  0
VERTEX
  8
T47SSILL
 62
2
 10
3923.838
 20
-7645.384
 30
537.166
 70
    32
  0
VERTEX
  8
T47SSILL
 62
2
 10
3923.427
 20
-7642.935
 30
537.165
 70
    32
  0
VERTEX
  8
T47SSILL
 62
2
 10
3886.136
 20
-7596.544
 30
537.206
 70
    32
  0
VERTEX
  8
T47SSILL
 62
2
 10
3880.763
 20
-7597.615
 30
537.219
 70
    32
  0
VERTEX
  8
T47SSILL
 62
2
 10
3858.299
 20
-7616.426
 30
537.286
 70
    32
  0
VERTEX
  8
T47SSILL
 62
2
 10
3869.159
 20
-7631.418
 30
537.276
 70
    32
  0
VERTEX
  8
T47SSILL
 62
2
 10
3878.118
 20
-7633.052
 30
537.257
 70
    32
  0
VERTEX
  8
T47SSILL
 62
2
 10
3879.490
 20
-7631.797
 30
537.253
 70
    32
  0
VERTEX
  8
T47SSILL
 62
2
 10
3879.863
 20
-7625.997
 30
537.247
 70
    32
  0
SEQEND
  8
T47SSILL
  0
POLYLINE
  8
T47SSILL
 62
2
 66
     1
 70
     9
  0
VERTEX
  8
T47SSILL
 62
2
 10
3870.097
 20
-7747.156
 30
537.379
 70
    32
  0
VERTEX
  8
T47SSILL
 62
2
 10
3775.465
 20
-7815.185
 30
537.652
 70
    32
  0
VERTEX
  8
T47SSILL
 62
2
 10
3777.906
 20
-7825.597
 30
537.656
 70
    32
  0
VERTEX
  8
T47SSILL
 62
2
 10
3794.000
 20
-7832.890
 30
537.627
 70
    32
  0
VERTEX
  8
T47SSILL
 62
2
 10
3799.117
 20
-7842.167
 30
537.624
 70
    32
  0
VERTEX
  8
T47SSILL
 62
2
 10
3804.008
 20
-7845.433
 30
537.621
 70
    32
  0
VERTEX
  8
T47SSILL
 62
2
 10
3801.627
 20
-7859.259
 30
537.664
 70
    32
  0
VERTEX
  8
T47SSILL
 62
2
 10
3771.693
 20
-7858.205
 30
537.733
 70
    32
  0
VERTEX
  8
T47SSILL
 62
2
 10
3760.935
 20
-7848.766
 30
537.734
 70
    32
  0
VERTEX
  8
T47SSILL
 62
2
 10
3756.023
 20
-7837.126
 30
537.716
 70
    32
  0
VERTEX
  8
T47SSILL
 62
2
 10
3750.900
 20
-7832.379
 30
537.723
 70
    32
  0
VERTEX
  8
T47SSILL
 62
2
 10
3712.400
 20
-7860.519
 30
537.823
 70
    32
  0
VERTEX
  8
T47SSILL
 62
2
 10
3708.178
 20
-7878.051
 30
537.862
 70
    32
  0
VERTEX
  8
T47SSILL
 62
2
 10
3756.218
 20
-7944.705
 30
537.959
 70
    32
  0
VERTEX
  8
T47SSILL
 62
2
 10
3771.870
 20
-7958.293
 30
537.974
 70
    32
  0
VERTEX
  8
T47SSILL
 62
2
 10
3782.972
 20
-7964.382
 30
537.977
 70
    32
  0
VERTEX
  8
T47SSILL
 62
2
 10
3788.917
 20
-7965.971
 30
537.976
 70
    32
  0
VERTEX
  8
T47SSILL
 62
2
 10
3795.472
 20
-7965.003
 30
537.959
 70
    32
  0
VERTEX
  8
T47SSILL
 62
2
 10
3814.194
 20
-7951.772
 30
537.879
 70
    32
  0
VERTEX
  8
T47SSILL
 62
2
 10
3808.785
 20
-7945.475
 30
537.875
 70
    32
  0
VERTEX
  8
T47SSILL
 62
2
 10
3829.882
 20
-7930.122
 30
537.783
 70
    32
  0
VERTEX
  8
T47SSILL
 62
2
 10
3834.889
 20
-7937.495
 30
537.791
 70
    32
  0
VERTEX
  8
T47SSILL
 62
2
 10
3841.718
 20
-7933.230
 30
537.763
 70
    32
  0
VERTEX
  8
T47SSILL
 62
2
 10
3841.039
 20
-7929.548
 30
537.755
 70
    32
  0
VERTEX
  8
T47SSILL
 62
2
 10
3800.746
 20
-7916.656
 30
537.818
 70
    32
  0
VERTEX
  8
T47SSILL
 62
2
 10
3791.841
 20
-7922.266
 30
537.855
 70
    32
  0
VERTEX
  8
T47SSILL
 62
2
 10
3783.616
 20
-7910.917
 30
537.844
 70
    32
  0
VERTEX
  8
T47SSILL
 62
2
 10
3759.340
 20
-7902.727
 30
537.871
 70
    32
  0
VERTEX
  8
T47SSILL
 62
2
 10
3761.550
 20
-7896.011
 30
537.856
 70
    32
  0
VERTEX
  8
T47SSILL
 62
2
 10
3794.235
 20
-7906.995
 30
537.808
 70
    32
  0
VERTEX
  8
T47SSILL
 62
2
 10
3810.167
 20
-7898.406
 30
537.747
 70
    32
  0
VERTEX
  8
T47SSILL
 62
2
 10
3822.162
 20
-7916.074
 30
537.765
 70
    32
  0
VERTEX
  8
T47SSILL
 62
2
 10
3846.013
 20
-7923.701
 30
537.727
 70
    32
  0
VERTEX
  8
T47SSILL
 62
2
 10
3851.731
 20
-7919.280
 30
537.702
 70
    32
  0
VERTEX
  8
T47SSILL
 62
2
 10
3865.455
 20
-7916.109
 30
537.660
 70
    32
  0
VERTEX
  8
T47SSILL
 62
2
 10
3917.257
 20
-7878.382
 30
537.434
 70
    32
  0
VERTEX
  8
T47SSILL
 62
2
 10
3925.032
 20
-7871.858
 30
537.398
 70
    32
  0
VERTEX
  8
T47SSILL
 62
2
 10
3927.928
 20
-7866.915
 30
537.378
 70
    32
  0
VERTEX
  8
T47SSILL
 62
2
 10
3929.696
 20
-7861.940
 30
537.361
 70
    32
  0
VERTEX
  8
T47SSILL
 62
2
 10
3928.993
 20
-7859.598
 30
537.356
 70
    32
  0
VERTEX
  8
T47SSILL
 62
2
 10
3914.574
 20
-7848.616
 30
537.371
 70
    32
  0
VERTEX
  8
T47SSILL
 62
2
 10
3904.962
 20
-7839.085
 30
537.384
 70
    32
  0
VERTEX
  8
T47SSILL
 62
2
 10
3898.050
 20
-7802.684
 30
537.367
 70
    32
  0
VERTEX
  8
T47SSILL
 62
2
 10
3904.033
 20
-7784.266
 30
537.337
 70
    32
  0
VERTEX
  8
T47SSILL
 62
2
 10
3903.584
 20
-7780.742
 30
537.334
 70
    32
  0
VERTEX
  8
T47SSILL
 62
2
 10
3899.128
 20
-7768.097
 30
537.333
 70
    32
  0
VERTEX
  8
T47SSILL
 62
2
 10
3892.974
 20
-7758.417
 30
537.338
 70
    32
  0
VERTEX
  8
T47SSILL
 62
2
 10
3892.894
 20
-7749.286
 30
537.330
 70
    32
  0
VERTEX
  8
T47SSILL
 62
2
 10
3897.578
 20
-7740.126
 30
537.311
 70
    32
  0
VERTEX
  8
T47SSILL
 62
2
 10
3893.371
 20
-7735.130
 30
537.316
 70
    32
  0
VERTEX
  8
T47SSILL
 62
2
 10
3886.537
 20
-7737.632
 30
537.333
 70
    32
  0
VERTEX
  8
T47SSILL
 62
2
 10
3887.292
 20
-7743.465
 30
537.337
 70
    32
  0
VERTEX
  8
T47SSILL
 62
2
 10
3879.414
 20
-7751.170
 30
537.362
 70
    32
  0
VERTEX
  8
T47SSILL
 62
2
 10
3875.627
 20
-7752.149
 30
537.371
 70
    32
  0
VERTEX
  8
T47SSILL
 62
2
 10
3873.292
 20
-7749.052
 30
537.373
 70
    32
  0
SEQEND
  8
T47SSILL
  0
POLYLINE
  8
T47SSILL
 62
2
 66
     1
 70
     9
  0
VERTEX
  8
T47SSILL
 62
2
 10
3571.742
 20
-7881.741
 30
538.223
 70
    32
  0
VERTEX
  8
T47SSILL
 62
2
 10
3567.240
 20
-7884.917
 30
538.233
 70
    32
  0
VERTEX
  8
T47SSILL
 62
2
 10
3580.855
 20
-7899.201
 30
538.170
 70
    32
  0
VERTEX
  8
T47SSILL
 62
2
 10
3599.586
 20
-7932.100
 30
538.064
 70
    32
  0
VERTEX
  8
T47SSILL
 62
2
 10
3618.449
 20
-7918.763
 30
538.022
 70
    32
  0
VERTEX
  8
T47SSILL
 62
2
 10
3606.879
 20
-7916.006
 30
538.063
 70
    32
  0
VERTEX
  8
T47SSILL
 62
2
 10
3595.631
 20
-7908.260
 30
538.110
 70
    32
  0
VERTEX
  8
T47SSILL
 62
2
 10
3577.306
 20
-7882.781
 30
538.204
 70
    32
  0
SEQEND
  8
T47SSILL
  0
POLYLINE
  8
T47SSILL
 62
2
 66
     1
 70
     9
  0
VERTEX
  8
T47SSILL
 62
2
 10
4316.674
 20
-7710.739
 30
536.538
 70
    32
  0
VERTEX
  8
T47SSILL
 62
2
 10
4268.234
 20
-7640.608
 30
536.593
 70
    32
  0
VERTEX
  8
T47SSILL
 62
2
 10
4264.845
 20
-7642.851
 30
536.595
 70
    32
  0
VERTEX
  8
T47SSILL
 62
2
 10
4258.051
 20
-7690.870
 30
536.519
 70
    32
  0
VERTEX
  8
T47SSILL
 62
2
 10
4303.075
 20
-7769.539
 30
536.535
 70
    32
  0
VERTEX
  8
T47SSILL
 62
2
 10
4304.589
 20
-7775.529
 30
536.532
 70
    32
  0
VERTEX
  8
T47SSILL
 62
2
 10
4335.236
 20
-7745.637
 30
536.515
 70
    32
  0
VERTEX
  8
T47SSILL
 62
2
 10
4336.117
 20
-7738.889
 30
536.516
 70
    32
  0
VERTEX
  8
T47SSILL
 62
2
 10
4321.219
 20
-7717.319
 30
536.533
 70
    32
  0
SEQEND
  8
T47SSILL
  0
POLYLINE
  8
T47SSILL
 62
2
 66
     1
 70
     9
  0
VERTEX
  8
T47SSILL
 62
2
 10
4446.763
 20
-7784.711
 30
536.417
 70
    32
  0
VERTEX
  8
T47SSILL
 62
2
 10
4439.530
 20
-7775.699
 30
536.425
 70
    32
  0
VERTEX
  8
T47SSILL
 62
2
 10
4440.255
 20
-7767.537
 30
536.426
 70
    32
  0
VERTEX
  8
T47SSILL
 62
2
 10
4438.441
 20
-7763.837
 30
536.429
 70
    32
  0
VERTEX
  8
T47SSILL
 62
2
 10
4432.003
 20
-7756.624
 30
536.436
 70
    32
  0
VERTEX
  8
T47SSILL
 62
2
 10
4421.850
 20
-7753.307
 30
536.444
 70
    32
  0
VERTEX
  8
T47SSILL
 62
2
 10
4409.736
 20
-7743.235
 30
536.456
 70
    32
  0
VERTEX
  8
T47SSILL
 62
2
 10
4408.924
 20
-7735.208
 30
536.459
 70
    32
  0
VERTEX
  8
T47SSILL
 62
2
 10
4402.820
 20
-7731.460
 30
536.465
 70
    32
  0
VERTEX
  8
T47SSILL
 62
2
 10
4395.081
 20
-7728.463
 30
536.472
 70
    32
  0
VERTEX
  8
T47SSILL
 62
2
 10
4387.080
 20
-7729.911
 30
536.478
 70
    32
  0
VERTEX
  8
T47SSILL
 62
2
 10
4374.714
 20
-7736.164
 30
536.486
 70
    32
  0
VERTEX
  8
T47SSILL
 62
2
 10
4362.377
 20
-7748.614
 30
536.493
 70
    32
  0
VERTEX
  8
T47SSILL
 62
2
 10
4396.469
 20
-7796.609
 30
536.454
 70
    32
  0
VERTEX
  8
T47SSILL
 62
2
 10
4408.640
 20
-7807.512
 30
536.442
 70
    32
  0
VERTEX
  8
T47SSILL
 62
2
 10
4412.533
 20
-7809.267
 30
536.438
 70
    32
  0
VERTEX
  8
T47SSILL
 62
2
 10
4423.163
 20
-7806.782
 30
536.430
 70
    32
  0
VERTEX
  8
T47SSILL
 62
2
 10
4449.162
 20
-7789.322
 30
536.414
 70
    32
  0
SEQEND
  8
T47SSILL
  0
POLYLINE
  8
T47SSILL
 62
2
 66
     1
 70
     9
  0
VERTEX
  8
T47SSILL
 62
2
 10
4576.609
 20
-7807.257
 30
536.398
 70
    32
  0
VERTEX
  8
T47SSILL
 62
2
 10
4577.540
 20
-7808.563
 30
536.398
 70
    32
  0
VERTEX
  8
T47SSILL
 62
2
 10
4578.408
 20
-7805.624
 30
536.396
 70
    32
  0
VERTEX
  8
T47SSILL
 62
2
 10
4548.931
 20
-7756.023
 30
536.371
 70
    32
  0
VERTEX
  8
T47SSILL
 62
2
 10
4534.377
 20
-7737.033
 30
536.362
 70
    32
  0
VERTEX
  8
T47SSILL
 62
2
 10
4432.803
 20
-7810.144
 30
536.422
 70
    32
  0
VERTEX
  8
T47SSILL
 62
2
 10
4419.465
 20
-7815.358
 30
536.431
 70
    32
  0
VERTEX
  8
T47SSILL
 62
2
 10
4404.976
 20
-7815.082
 30
536.443
 70
    32
  0
VERTEX
  8
T47SSILL
 62
2
 10
4418.705
 20
-7834.889
 30
536.433
 70
    32
  0
VERTEX
  8
T47SSILL
 62
2
 10
4434.469
 20
-7831.512
 30
536.429
 70
    32
  0
VERTEX
  8
T47SSILL
 62
2
 10
4453.246
 20
-7823.875
 30
536.422
 70
    32
  0
VERTEX
  8
T47SSILL
 62
2
 10
4460.748
 20
-7822.790
 30
536.421
 70
    32
  0
VERTEX
  8
T47SSILL
 62
2
 10
4469.571
 20
-7825.327
 30
536.421
 70
    32
  0
VERTEX
  8
T47SSILL
 62
2
 10
4476.042
 20
-7831.535
 30
536.424
 70
    32
  0
VERTEX
  8
T47SSILL
 62
2
 10
4475.345
 20
-7845.894
 30
536.432
 70
    32
  0
VERTEX
  8
T47SSILL
 62
2
 10
4482.747
 20
-7856.988
 30
536.438
 70
    32
  0
VERTEX
  8
T47SSILL
 62
2
 10
4487.861
 20
-7856.220
 30
536.437
 70
    32
  0
VERTEX
  8
T47SSILL
 62
2
 10
4492.540
 20
-7864.165
 30
536.441
 70
    32
  0
VERTEX
  8
T47SSILL
 62
2
 10
4500.096
 20
-7869.913
 30
536.444
 70
    32
  0
VERTEX
  8
T47SSILL
 62
2
 10
4515.527
 20
-7859.470
 30
536.436
 70
    32
  0
VERTEX
  8
T47SSILL
 62
2
 10
4513.655
 20
-7854.940
 30
536.433
 70
    32
  0
VERTEX
  8
T47SSILL
 62
2
 10
4487.879
 20
-7820.648
 30
536.416
 70
    32
  0
VERTEX
  8
T47SSILL
 62
2
 10
4497.635
 20
-7816.508
 30
536.413
 70
    32
  0
VERTEX
  8
T47SSILL
 62
2
 10
4506.419
 20
-7827.253
 30
536.418
 70
    32
  0
VERTEX
  8
T47SSILL
 62
2
 10
4516.000
 20
-7832.185
 30
536.420
 70
    32
  0
VERTEX
  8
T47SSILL
 62
2
 10
4518.721
 20
-7838.935
 30
536.423
 70
    32
  0
VERTEX
  8
T47SSILL
 62
2
 10
4526.909
 20
-7849.459
 30
536.428
 70
    32
  0
VERTEX
  8
T47SSILL
 62
2
 10
4528.583
 20
-7849.661
 30
536.428
 70
    32
  0
VERTEX
  8
T47SSILL
 62
2
 10
4570.287
 20
-7819.064
 30
536.405
 70
    32
  0
VERTEX
  8
T47SSILL
 62
2
 10
4566.899
 20
-7814.309
 30
536.403
 70
    32
  0
SEQEND
  8
T47SSILL
  0
POLYLINE
  8
T47SSILL
 62
2
 66
     1
 70
     9
  0
VERTEX
  8
T47SSILL
 62
2
 10
4515.858
 20
-7925.111
 30
536.475
 70
    32
  0
VERTEX
  8
T47SSILL
 62
2
 10
4514.987
 20
-7927.816
 30
536.476
 70
    32
  0
VERTEX
  8
T47SSILL
 62
2
 10
4509.299
 20
-7932.601
 30
536.480
 70
    32
  0
VERTEX
  8
T47SSILL
 62
2
 10
4506.441
 20
-7947.439
 30
536.489
 70
    32
  0
VERTEX
  8
T47SSILL
 62
2
 10
4506.009
 20
-7952.552
 30
536.492
 70
    32
  0
VERTEX
  8
T47SSILL
 62
2
 10
4512.128
 20
-7960.978
 30
536.496
 70
    32
  0
VERTEX
  8
T47SSILL
 62
2
 10
4521.457
 20
-7963.911
 30
536.497
 70
    32
  0
VERTEX
  8
T47SSILL
 62
2
 10
4531.691
 20
-7963.133
 30
536.495
 70
    32
  0
VERTEX
  8
T47SSILL
 62
2
 10
4538.564
 20
-7960.432
 30
536.493
 70
    32
  0
VERTEX
  8
T47SSILL
 62
2
 10
4560.845
 20
-7944.251
 30
536.481
 70
    32
  0
VERTEX
  8
T47SSILL
 62
2
 10
4555.238
 20
-7926.617
 30
536.471
 70
    32
  0
VERTEX
  8
T47SSILL
 62
2
 10
4549.860
 20
-7914.707
 30
536.464
 70
    32
  0
VERTEX
  8
T47SSILL
 62
2
 10
4543.256
 20
-7904.894
 30
536.459
 70
    32
  0
SEQEND
  8
T47SSILL
  0
POLYLINE
  8
T47SSILL
 62
2
 66
     1
 70
     9
  0
VERTEX
  8
T47SSILL
 62
2
 10
4571.845
 20
-7847.803
 30
536.422
 70
    32
  0
VERTEX
  8
T47SSILL
 62
2
 10
4570.718
 20
-7844.149
 30
536.420
 70
    32
  0
VERTEX
  8
T47SSILL
 62
2
 10
4572.603
 20
-7826.087
 30
536.409
 70
    32
  0
VERTEX
  8
T47SSILL
 62
2
 10
4532.369
 20
-7854.875
 30
536.431
 70
    32
  0
VERTEX
  8
T47SSILL
 62
2
 10
4531.626
 20
-7858.359
 30
536.433
 70
    32
  0
VERTEX
  8
T47SSILL
 62
2
 10
4541.189
 20
-7870.175
 30
536.439
 70
    32
  0
VERTEX
  8
T47SSILL
 62
2
 10
4548.699
 20
-7885.772
 30
536.447
 70
    32
  0
VERTEX
  8
T47SSILL
 62
2
 10
4552.648
 20
-7889.558
 30
536.449
 70
    32
  0
VERTEX
  8
T47SSILL
 62
2
 10
4576.383
 20
-7871.776
 30
536.436
 70
    32
  0
VERTEX
  8
T47SSILL
 62
2
 10
4573.561
 20
-7852.119
 30
536.425
 70
    32
  0
SEQEND
  8
T47SSILL
  0
POLYLINE
  8
T47SSILL
 62
2
 66
     1
 70
     9
  0
VERTEX
  8
T47SSILL
 62
2
 10
4498.733
 20
-7879.301
 30
536.449
 70
    32
  0
VERTEX
  8
T47SSILL
 62
2
 10
4501.636
 20
-7885.701
 30
536.453
 70
    32
  0
VERTEX
  8
T47SSILL
 62
2
 10
4506.594
 20
-7913.405
 30
536.469
 70
    32
  0
VERTEX
  8
T47SSILL
 62
2
 10
4511.339
 20
-7919.339
 30
536.472
 70
    32
  0
VERTEX
  8
T47SSILL
 62
2
 10
4537.996
 20
-7899.872
 30
536.457
 70
    32
  0
VERTEX
  8
T47SSILL
 62
2
 10
4535.973
 20
-7897.087
 30
536.456
 70
    32
  0
VERTEX
  8
T47SSILL
 62
2
 10
4534.836
 20
-7890.714
 30
536.452
 70
    32
  0
VERTEX
  8
T47SSILL
 62
2
 10
4519.270
 20
-7865.323
 30
536.439
 70
    32
  0
SEQEND
  8
T47SSILL
  0
POLYLINE
  8
T47SSILL
 62
2
 66
     1
 70
     9
  0
VERTEX
  8
T47SSILL
 62
2
 10
4515.477
 20
-7969.345
 30
536.501
 70
    32
  0
VERTEX
  8
T47SSILL
 62
2
 10
4562.165
 20
-8033.934
 30
536.602
 70
    32
  0
VERTEX
  8
T47SSILL
 62
2
 10
4569.981
 20
-8038.838
 30
536.607
 70
    32
  0
VERTEX
  8
T47SSILL
 62
2
 10
4578.298
 20
-8040.979
 30
536.604
 70
    32
  0
VERTEX
  8
T47SSILL
 62
2
 10
4587.324
 20
-8040.641
 30
536.594
 70
    32
  0
VERTEX
  8
T47SSILL
 62
2
 10
4594.397
 20
-8038.043
 30
536.580
 70
    32
  0
VERTEX
  8
T47SSILL
 62
2
 10
4703.841
 20
-7958.969
 30
536.473
 70
    32
  0
VERTEX
  8
T47SSILL
 62
2
 10
4700.866
 20
-7953.821
 30
536.470
 70
    32
  0
VERTEX
  8
T47SSILL
 62
2
 10
4701.400
 20
-7945.611
 30
536.465
 70
    32
  0
VERTEX
  8
T47SSILL
 62
2
 10
4705.854
 20
-7943.354
 30
536.463
 70
    32
  0
VERTEX
  8
T47SSILL
 62
2
 10
4716.161
 20
-7943.041
 30
536.462
 70
    32
  0
VERTEX
  8
T47SSILL
 62
2
 10
4718.682
 20
-7947.864
 30
536.464
 70
    32
  0
VERTEX
  8
T47SSILL
 62
2
 10
4723.382
 20
-7945.323
 30
536.462
 70
    32
  0
VERTEX
  8
T47SSILL
 62
2
 10
4733.252
 20
-7925.721
 30
536.449
 70
    32
  0
VERTEX
  8
T47SSILL
 62
2
 10
4734.154
 20
-7915.249
 30
536.443
 70
    32
  0
VERTEX
  8
T47SSILL
 62
2
 10
4732.067
 20
-7902.912
 30
536.436
 70
    32
  0
VERTEX
  8
T47SSILL
 62
2
 10
4697.782
 20
-7853.749
 30
536.411
 70
    32
  0
VERTEX
  8
T47SSILL
 62
2
 10
4643.041
 20
-7893.721
 30
536.441
 70
    32
  0
VERTEX
  8
T47SSILL
 62
2
 10
4645.691
 20
-7898.122
 30
536.443
 70
    32
  0
VERTEX
  8
T47SSILL
 62
2
 10
4644.513
 20
-7903.559
 30
536.447
 70
    32
  0
VERTEX
  8
T47SSILL
 62
2
 10
4640.003
 20
-7914.470
 30
536.454
 70
    32
  0
VERTEX
  8
T47SSILL
 62
2
 10
4634.690
 20
-7921.273
 30
536.458
 70
    32
  0
VERTEX
  8
T47SSILL
 62
2
 10
4616.774
 20
-7931.448
 30
536.466
 70
    32
  0
VERTEX
  8
T47SSILL
 62
2
 10
4611.522
 20
-7915.956
 30
536.458
 70
    32
  0
VERTEX
  8
T47SSILL
 62
2
 10
4602.862
 20
-7922.355
 30
536.463
 70
    32
  0
VERTEX
  8
T47SSILL
 62
2
 10
4601.592
 20
-7947.491
 30
536.478
 70
    32
  0
VERTEX
  8
T47SSILL
 62
2
 10
4610.835
 20
-7962.921
 30
536.486
 70
    32
  0
VERTEX
  8
T47SSILL
 62
2
 10
4610.802
 20
-7973.089
 30
536.492
 70
    32
  0
VERTEX
  8
T47SSILL
 62
2
 10
4601.799
 20
-7976.464
 30
536.495
 70
    32
  0
VERTEX
  8
T47SSILL
 62
2
 10
4597.916
 20
-7971.867
 30
536.493
 70
    32
  0
VERTEX
  8
T47SSILL
 62
2
 10
4594.153
 20
-7970.891
 30
536.493
 70
    32
  0
VERTEX
  8
T47SSILL
 62
2
 10
4593.132
 20
-7954.617
 30
536.483
 70
    32
  0
VERTEX
  8
T47SSILL
 62
2
 10
4588.109
 20
-7947.248
 30
536.479
 70
    32
  0
VERTEX
  8
T47SSILL
 62
2
 10
4581.650
 20
-7941.359
 30
536.476
 70
    32
  0
VERTEX
  8
T47SSILL
 62
2
 10
4573.836
 20
-7943.215
 30
536.478
 70
    32
  0
VERTEX
  8
T47SSILL
 62
2
 10
4539.773
 20
-7966.753
 30
536.496
 70
    32
  0
VERTEX
  8
T47SSILL
 62
2
 10
4527.150
 20
-7970.248
 30
536.500
 70
    32
  0
VERTEX
  8
T47SSILL
 62
2
 10
4515.860
 20
-7969.721
 30
536.501
 70
    32
  0
SEQEND
  8
T47SSILL
  0
POLYLINE
  8
T47SSILL
 62
2
 66
     1
 70
     9
  0
VERTEX
  8
T47SSILL
 62
2
 10
4560.829
 20
-8232.206
 30
537.122
 70
    32
  0
VERTEX
  8
T47SSILL
 62
2
 10
4561.556
 20
-8250.127
 30
537.168
 70
    32
  0
VERTEX
  8
T47SSILL
 62
2
 10
4571.976
 20
-8260.120
 30
537.183
 70
    32
  0
VERTEX
  8
T47SSILL
 62
2
 10
4577.927
 20
-8269.215
 30
537.201
 70
    32
  0
VERTEX
  8
T47SSILL
 62
2
 10
4587.435
 20
-8275.399
 30
537.208
 70
    32
  0
VERTEX
  8
T47SSILL
 62
2
 10
4674.921
 20
-8212.628
 30
536.954
 70
    32
  0
VERTEX
  8
T47SSILL
 62
2
 10
4677.456
 20
-8206.206
 30
536.935
 70
    32
  0
VERTEX
  8
T47SSILL
 62
2
 10
4619.197
 20
-8126.133
 30
536.785
 70
    32
  0
VERTEX
  8
T47SSILL
 62
2
 10
4615.624
 20
-8141.490
 30
536.829
 70
    32
  0
VERTEX
  8
T47SSILL
 62
2
 10
4610.019
 20
-8148.941
 30
536.854
 70
    32
  0
VERTEX
  8
T47SSILL
 62
2
 10
4554.668
 20
-8188.375
 30
537.013
 70
    32
  0
VERTEX
  8
T47SSILL
 62
2
 10
4555.419
 20
-8193.427
 30
537.026
 70
    32
  0
VERTEX
  8
T47SSILL
 62
2
 10
4559.487
 20
-8195.949
 30
537.028
 70
    32
  0
VERTEX
  8
T47SSILL
 62
2
 10
4556.467
 20
-8200.477
 30
537.043
 70
    32
  0
VERTEX
  8
T47SSILL
 62
2
 10
4560.121
 20
-8231.347
 30
537.120
 70
    32
  0
SEQEND
  8
T47SSILL
  0
POLYLINE
  8
T47SSILL
 62
2
 66
     1
 70
     9
  0
VERTEX
  8
T47SSILL
 62
2
 10
4197.930
 20
-7486.276
 30
536.608
 70
    32
  0
VERTEX
  8
T47SSILL
 62
2
 10
4202.599
 20
-7470.334
 30
536.651
 70
    32
  0
VERTEX
  8
T47SSILL
 62
2
 10
4202.474
 20
-7466.004
 30
536.657
 70
    32
  0
VERTEX
  8
T47SSILL
 62
2
 10
4200.072
 20
-7461.652
 30
536.655
 70
    32
  0
VERTEX
  8
T47SSILL
 62
2
 10
4173.987
 20
-7480.252
 30
536.531
 70
    32
  0
VERTEX
  8
T47SSILL
 62
2
 10
4172.473
 20
-7489.933
 30
536.512
 70
    32
  0
VERTEX
  8
T47SSILL
 62
2
 10
4192.114
 20
-7517.769
 30
536.540
 70
    32
  0
VERTEX
  8
T47SSILL
 62
2
 10
4195.123
 20
-7501.478
 30
536.574
 70
    32
  0
SEQEND
  8
T47SSILL
  0
POLYLINE
  8
T47SSILL
 62
2
 66
     1
 70
     9
  0
VERTEX
  8
T47SSILL
 62
2
 10
4124.689
 20
-7476.327
 30
536.563
 70
    32
  0
VERTEX
  8
T47SSILL
 62
2
 10
4145.993
 20
-7481.978
 30
536.520
 70
    32
  0
VERTEX
  8
T47SSILL
 62
2
 10
4149.377
 20
-7482.193
 30
536.513
 70
    32
  0
VERTEX
  8
T47SSILL
 62
2
 10
4151.610
 20
-7480.305
 30
536.506
 70
    32
  0
VERTEX
  8
T47SSILL
 62
2
 10
4151.333
 20
-7473.603
 30
536.501
 70
    32
  0
VERTEX
  8
T47SSILL
 62
2
 10
4124.493
 20
-7435.296
 30
536.526
 70
    32
  0
VERTEX
  8
T47SSILL
 62
2
 10
4121.102
 20
-7434.762
 30
536.533
 70
    32
  0
VERTEX
  8
T47SSILL
 62
2
 10
4118.731
 20
-7435.993
 30
536.539
 70
    32
  0
VERTEX
  8
T47SSILL
 62
2
 10
4113.482
 20
-7452.276
 30
536.566
 70
    32
  0
VERTEX
  8
T47SSILL
 62
2
 10
4120.890
 20
-7462.605
 30
536.559
 70
    32
  0
VERTEX
  8
T47SSILL
 62
2
 10
4114.812
 20
-7467.618
 30
536.577
 70
    32
  0
VERTEX
  8
T47SSILL
 62
2
 10
4110.485
 20
-7461.443
 30
536.581
 70
    32
  0
VERTEX
  8
T47SSILL
 62
2
 10
4087.207
 20
-7532.649
 30
536.698
 70
    32
  0
VERTEX
  8
T47SSILL
 62
2
 10
4136.088
 20
-7497.215
 30
536.556
 70
    32
  0
VERTEX
  8
T47SSILL
 62
2
 10
4134.393
 20
-7489.567
 30
536.553
 70
    32
  0
VERTEX
  8
T47SSILL
 62
2
 10
4121.432
 20
-7485.370
 30
536.578
 70
    32
  0
SEQEND
  8
T47SSILL
  0
POLYLINE
  8
T47SSILL
 62
2
 66
     1
 70
     9
  0
VERTEX
  8
T47SSILL
 62
2
 10
5560.334
 20
-7302.994
 30
536.039
 70
    32
  0
VERTEX
  8
T47SSILL
 62
2
 10
5570.667
 20
-7291.942
 30
536.038
 70
    32
  0
VERTEX
  8
T47SSILL
 62
2
 10
5497.959
 20
-7343.463
 30
536.034
 70
    32
  0
VERTEX
  8
T47SSILL
 62
2
 10
5457.339
 20
-7335.936
 30
536.020
 70
    32
  0
VERTEX
  8
T47SSILL
 62
2
 10
5457.493
 20
-7341.722
 30
536.022
 70
    32
  0
VERTEX
  8
T47SSILL
 62
2
 10
5504.741
 20
-7407.501
 30
536.051
 70
    32
  0
VERTEX
  8
T47SSILL
 62
2
 10
5561.494
 20
-7415.856
 30
536.058
 70
    32
  0
VERTEX
  8
T47SSILL
 62
2
 10
5620.753
 20
-7373.121
 30
536.056
 70
    32
  0
VERTEX
  8
T47SSILL
 62
2
 10
5601.214
 20
-7343.407
 30
536.050
 70
    32
  0
VERTEX
  8
T47SSILL
 62
2
 10
5585.575
 20
-7344.647
 30
536.049
 70
    32
  0
VERTEX
  8
T47SSILL
 62
2
 10
5547.801
 20
-7334.905
 30
536.043
 70
    32
  0
VERTEX
  8
T47SSILL
 62
2
 10
5539.763
 20
-7324.998
 30
536.040
 70
    32
  0
VERTEX
  8
T47SSILL
 62
2
 10
5554.498
 20
-7309.237
 30
536.039
 70
    32
  0
SEQEND
  8
T47SSILL
  0
POLYLINE
  8
T47SSILL
 62
2
 66
     1
 70
     9
  0
VERTEX
  8
T47SSILL
 62
2
 10
754.800
 20
-7201.882
 30
545.334
 70
    32
  0
VERTEX
  8
T47SSILL
 62
2
 10
736.783
 20
-7193.419
 30
545.399
 70
    32
  0
VERTEX
  8
T47SSILL
 62
2
 10
729.224
 20
-7187.004
 30
545.360
 70
    32
  0
VERTEX
  8
T47SSILL
 62
2
 10
721.927
 20
-7176.811
 30
545.251
 70
    32
  0
VERTEX
  8
T47SSILL
 62
2
 10
714.809
 20
-7157.826
 30
545.033
 70
    32
  0
VERTEX
  8
T47SSILL
 62
2
 10
712.902
 20
-7136.051
 30
544.770
 70
    32
  0
VERTEX
  8
T47SSILL
 62
2
 10
715.742
 20
-7124.694
 30
544.625
 70
    32
  0
VERTEX
  8
T47SSILL
 62
2
 10
720.565
 20
-7125.141
 30
544.620
 70
    32
  0
VERTEX
  8
T47SSILL
 62
2
 10
722.834
 20
-7139.768
 30
544.795
 70
    32
  0
VERTEX
  8
T47SSILL
 62
2
 10
725.646
 20
-7144.344
 30
544.845
 70
    32
  0
VERTEX
  8
T47SSILL
 62
2
 10
736.750
 20
-7147.444
 30
544.860
 70
    32
  0
VERTEX
  8
T47SSILL
 62
2
 10
749.477
 20
-7155.541
 30
544.873
 70
    32
  0
VERTEX
  8
T47SSILL
 62
2
 10
756.686
 20
-7194.522
 30
545.237
 70
    32
  0
VERTEX
  8
T47SSILL
 62
2
 10
755.864
 20
-7198.231
 30
545.285
 70
    32
  0
SEQEND
  8
T47SSILL
  0
POLYLINE
  8
T47SSILL
 62
2
 66
     1
 70
     9
  0
VERTEX
  8
T47SSILL
 62
2
 10
3713.824
 20
-8020.606
 30
538.148
 70
    32
  0
VERTEX
  8
T47SSILL
 62
2
 10
3708.309
 20
-8018.938
 30
538.149
 70
    32
  0
VERTEX
  8
T47SSILL
 62
2
 10
3723.796
 20
-7971.244
 30
538.039
 70
    32
  0
VERTEX
  8
T47SSILL
 62
2
 10
3726.788
 20
-7969.209
 30
538.033
 70
    32
  0
VERTEX
  8
T47SSILL
 62
2
 10
3728.869
 20
-7962.453
 30
538.017
 70
    32
  0
VERTEX
  8
T47SSILL
 62
2
 10
3728.184
 20
-7956.126
 30
538.005
 70
    32
  0
VERTEX
  8
T47SSILL
 62
2
 10
3737.254
 20
-7931.408
 30
537.947
 70
    32
  0
VERTEX
  8
T47SSILL
 62
2
 10
3752.994
 20
-7952.434
 30
537.977
 70
    32
  0
VERTEX
  8
T47SSILL
 62
2
 10
3757.370
 20
-7961.607
 30
537.992
 70
    32
  0
VERTEX
  8
T47SSILL
 62
2
 10
3748.927
 20
-7976.029
 30
538.029
 70
    32
  0
VERTEX
  8
T47SSILL
 62
2
 10
3751.628
 20
-7991.764
 30
538.058
 70
    32
  0
VERTEX
  8
T47SSILL
 62
2
 10
3749.328
 20
-7995.595
 30
538.068
 70
    32
  0
VERTEX
  8
T47SSILL
 62
2
 10
3743.224
 20
-8000.276
 30
538.083
 70
    32
  0
VERTEX
  8
T47SSILL
 62
2
 10
3757.943
 20
-8010.186
 30
538.091
 70
    32
  0
VERTEX
  8
T47SSILL
 62
2
 10
3765.829
 20
-7996.400
 30
538.056
 70
    32
  0
VERTEX
  8
T47SSILL
 62
2
 10
3774.225
 20
-7991.285
 30
538.039
 70
    32
  0
VERTEX
  8
T47SSILL
 62
2
 10
3781.179
 20
-7980.744
 30
538.012
 70
    32
  0
VERTEX
  8
T47SSILL
 62
2
 10
3788.132
 20
-7983.671
 30
538.012
 70
    32
  0
VERTEX
  8
T47SSILL
 62
2
 10
3787.642
 20
-7992.539
 30
538.031
 70
    32
  0
VERTEX
  8
T47SSILL
 62
2
 10
3789.973
 20
-8001.047
 30
538.046
 70
    32
  0
VERTEX
  8
T47SSILL
 62
2
 10
3818.491
 20
-8042.683
 30
538.108
 70
    32
  0
VERTEX
  8
T47SSILL
 62
2
 10
3820.150
 20
-8050.594
 30
538.123
 70
    32
  0
VERTEX
  8
T47SSILL
 62
2
 10
3818.483
 20
-8061.121
 30
538.146
 70
    32
  0
VERTEX
  8
T47SSILL
 62
2
 10
3811.603
 20
-8072.931
 30
538.175
 70
    32
  0
VERTEX
  8
T47SSILL
 62
2
 10
3805.000
 20
-8068.858
 30
538.172
 70
    32
  0
VERTEX
  8
T47SSILL
 62
2
 10
3800.241
 20
-8076.308
 30
538.191
 70
    32
  0
VERTEX
  8
T47SSILL
 62
2
 10
3803.543
 20
-8078.345
 30
538.193
 70
    32
  0
VERTEX
  8
T47SSILL
 62
2
 10
3798.441
 20
-8082.412
 30
538.205
 70
    32
  0
VERTEX
  8
T47SSILL
 62
2
 10
3765.855
 20
-8071.105
 30
538.208
 70
    32
  0
VERTEX
  8
T47SSILL
 62
2
 10
3750.414
 20
-8049.743
 30
538.177
 70
    32
  0
VERTEX
  8
T47SSILL
 62
2
 10
3742.987
 20
-8054.680
 30
538.194
 70
    32
  0
VERTEX
  8
T47SSILL
 62
2
 10
3750.630
 20
-8066.136
 30
538.211
 70
    32
  0
VERTEX
  8
T47SSILL
 62
2
 10
3715.803
 20
-8053.760
 30
538.214
 70
    32
  0
VERTEX
  8
T47SSILL
 62
2
 10
3711.865
 20
-8050.879
 30
538.211
 70
    32
  0
VERTEX
  8
T47SSILL
 62
2
 10
3705.586
 20
-8042.257
 30
538.198
 70
    32
  0
VERTEX
  8
T47SSILL
 62
2
 10
3704.602
 20
-8030.354
 30
538.175
 70
    32
  0
VERTEX
  8
T47SSILL
 62
2
 10
3710.352
 20
-8032.092
 30
538.174
 70
    32
  0
SEQEND
  8
T47SSILL
  0
POLYLINE
  8
T47SSILL
 62
2
 66
     1
 70
     9
  0
VERTEX
  8
T47SSILL
 62
2
 10
585.273
 20
-6691.419
 30
542.827
 70
    32
  0
VERTEX
  8
T47SSILL
 62
2
 10
557.286
 20
-6679.282
 30
542.853
 70
    32
  0
VERTEX
  8
T47SSILL
 62
2
 10
562.674
 20
-6670.131
 30
542.796
 70
    32
  0
VERTEX
  8
T47SSILL
 62
2
 10
592.174
 20
-6683.269
 30
542.770
 70
    32
  0
SEQEND
  8
T47SSILL
  0
POLYLINE
  8
T47SSILL
 62
2
 66
     1
 70
     9
  0
VERTEX
  8
T47SSILL
 62
2
 10
727.581
 20
-6994.100
 30
543.700
 70
    32
  0
VERTEX
  8
T47SSILL
 62
2
 10
735.944
 20
-7000.952
 30
543.701
 70
    32
  0
VERTEX
  8
T47SSILL
 62
2
 10
720.117
 20
-7021.099
 30
543.840
 70
    32
  0
VERTEX
  8
T47SSILL
 62
2
 10
712.013
 20
-7015.217
 30
543.841
 70
    32
  0
SEQEND
  8
T47SSILL
  0
POLYLINE
  8
T47SSILL
 62
2
 66
     1
 70
     9
  0
VERTEX
  8
T47SSILL
 62
2
 10
868.389
 20
-7040.136
 30
543.931
 70
    32
  0
VERTEX
  8
T47SSILL
 62
2
 10
873.801
 20
-7034.602
 30
543.919
 70
    32
  0
VERTEX
  8
T47SSILL
 62
2
 10
899.253
 20
-7077.411
 30
544.052
 70
    32
  0
VERTEX
  8
T47SSILL
 62
2
 10
890.628
 20
-7083.577
 30
544.063
 70
    32
  0
SEQEND
  8
T47SSILL
  0
POLYLINE
  8
T47SSILL
 62
2
 66
     1
 70
     9
  0
VERTEX
  8
T47SSILL
 62
2
 10
711.104
 20
-6924.547
 30
543.459
 70
    32
  0
VERTEX
  8
T47SSILL
 62
2
 10
651.748
 20
-6979.383
 30
543.889
 70
    32
  0
VERTEX
  8
T47SSILL
 62
2
 10
654.699
 20
-6989.781
 30
543.924
 70
    32
  0
VERTEX
  8
T47SSILL
 62
2
 10
717.163
 20
-6930.539
 30
543.464
 70
    32
  0
SEQEND
  8
T47SSILL
  0
POLYLINE
  8
T47SSILL
 62
2
 66
     1
 70
     8
  0
VERTEX
  8
T47SSILL
 62
2
 10
2338.419
 20
-4793.988
 30
544.715
 70
    32
  0
VERTEX
  8
T47SSILL
 62
2
 10
2329.967
 20
-4783.687
 30
544.738
 70
    32
  0
VERTEX
  8
T47SSILL
 62
2
 10
2326.993
 20
-4784.035
 30
544.729
 70
    32
  0
VERTEX
  8
T47SSILL
 62
2
 10
2307.970
 20
-4811.919
 30
544.615
 70
    32
  0
VERTEX
  8
T47SSILL
 62
2
 10
2297.521
 20
-4805.664
 30
544.596
 70
    32
  0
VERTEX
  8
T47SSILL
 62
2
 10
2302.934
 20
-4799.872
 30
544.624
 70
    32
  0
VERTEX
  8
T47SSILL
 62
2
 10
2302.664
 20
-4797.166
 30
544.629
 70
    32
  0
VERTEX
  8
T47SSILL
 62
2
 10
2305.358
 20
-4796.261
 30
544.639
 70
    32
  0
VERTEX
  8
T47SSILL
 62
2
 10
2309.184
 20
-4790.498
 30
544.662
 70
    32
  0
VERTEX
  8
T47SSILL
 62
2
 10
2307.911
 20
-4787.737
 30
544.664
 70
    32
  0
VERTEX
  8
T47SSILL
 62
2
 10
2313.524
 20
-4776.982
 30
544.703
 70
    32
  0
VERTEX
  8
T47SSILL
 62
2
 10
2315.475
 20
-4767.590
 30
544.682
 70
    32
  0
SEQEND
  8
T47SSILL
  0
POLYLINE
  8
T47SSILL
 62
2
 66
     1
 70
     9
  0
VERTEX
  8
T47SSILL
 62
2
 10
1660.030
 20
-6562.915
 30
542.740
 70
    32
  0
VERTEX
  8
T47SSILL
 62
2
 10
1666.351
 20
-6563.358
 30
542.740
 70
    32
  0
VERTEX
  8
T47SSILL
 62
2
 10
1670.605
 20
-6554.511
 30
542.725
 70
    32
  0
VERTEX
  8
T47SSILL
 62
2
 10
1683.643
 20
-6536.577
 30
542.715
 70
    32
  0
VERTEX
  8
T47SSILL
 62
2
 10
1697.266
 20
-6525.944
 30
542.695
 70
    32
  0
VERTEX
  8
T47SSILL
 62
2
 10
1702.019
 20
-6525.832
 30
542.685
 70
    32
  0
VERTEX
  8
T47SSILL
 62
2
 10
1706.038
 20
-6519.216
 30
542.683
 70
    32
  0
VERTEX
  8
T47SSILL
 62
2
 10
1717.310
 20
-6513.394
 30
542.654
 70
    32
  0
VERTEX
  8
T47SSILL
 62
2
 10
1859.671
 20
-6411.520
 30
542.322
 70
    32
  0
VERTEX
  8
T47SSILL
 62
2
 10
1863.859
 20
-6414.966
 30
542.310
 70
    32
  0
VERTEX
  8
T47SSILL
 62
2
 10
1869.312
 20
-6412.458
 30
542.313
 70
    32
  0
VERTEX
  8
T47SSILL
 62
2
 10
1891.659
 20
-6395.482
 30
542.346
 70
    32
  0
VERTEX
  8
T47SSILL
 62
2
 10
1897.492
 20
-6388.328
 30
542.362
 70
    32
  0
VERTEX
  8
T47SSILL
 62
2
 10
1897.677
 20
-6384.155
 30
542.374
 70
    32
  0
VERTEX
  8
T47SSILL
 62
2
 10
2205.908
 20
-6162.788
 30
541.833
 70
    32
  0
VERTEX
  8
T47SSILL
 62
2
 10
2213.856
 20
-6162.470
 30
541.833
 70
    32
  0
VERTEX
  8
T47SSILL
 62
2
 10
2228.754
 20
-6152.971
 30
541.818
 70
    32
  0
VERTEX
  8
T47SSILL
 62
2
 10
2234.425
 20
-6146.483
 30
541.808
 70
    32
  0
VERTEX
  8
T47SSILL
 62
2
 10
2238.158
 20
-6138.702
 30
541.797
 70
    32
  0
VERTEX
  8
T47SSILL
 62
2
 10
2359.109
 20
-6052.564
 30
541.747
 70
    32
  0
VERTEX
  8
T47SSILL
 62
2
 10
2364.536
 20
-6051.494
 30
541.750
 70
    32
  0
VERTEX
  8
T47SSILL
 62
2
 10
2365.633
 20
-6047.081
 30
541.750
 70
    32
  0
VERTEX
  8
T47SSILL
 62
2
 10
2516.075
 20
-5937.699
 30
541.738
 70
    32
  0
VERTEX
  8
T47SSILL
 62
2
 10
2520.935
 20
-5937.484
 30
541.743
 70
    32
  0
VERTEX
  8
T47SSILL
 62
2
 10
2528.897
 20
-5932.027
 30
541.759
 70
    32
  0
VERTEX
  8
T47SSILL
 62
2
 10
2533.162
 20
-5931.598
 30
541.764
 70
    32
  0
VERTEX
  8
T47SSILL
 62
2
 10
2547.820
 20
-5921.185
 30
541.793
 70
    32
  0
VERTEX
  8
T47SSILL
 62
2
 10
2552.441
 20
-5911.656
 30
541.810
 70
    32
  0
VERTEX
  8
T47SSILL
 62
2
 10
2705.887
 20
-5803.973
 30
541.467
 70
    32
  0
VERTEX
  8
T47SSILL
 62
2
 10
2706.863
 20
-5805.752
 30
541.474
 70
    32
  0
VERTEX
  8
T47SSILL
 62
2
 10
2839.381
 20
-5702.257
 30
542.006
 70
    32
  0
VERTEX
  8
T47SSILL
 62
2
 10
2860.945
 20
-5693.563
 30
541.823
 70
    32
  0
VERTEX
  8
T47SSILL
 62
2
 10
2886.389
 20
-5689.254
 30
541.624
 70
    32
  0
VERTEX
  8
T47SSILL
 62
2
 10
2906.669
 20
-5690.189
 30
541.477
 70
    32
  0
VERTEX
  8
T47SSILL
 62
2
 10
2929.269
 20
-5696.973
 30
541.329
 70
    32
  0
VERTEX
  8
T47SSILL
 62
2
 10
2949.240
 20
-5708.681
 30
541.213
 70
    32
  0
VERTEX
  8
T47SSILL
 62
2
 10
2967.608
 20
-5727.801
 30
541.129
 70
    32
  0
VERTEX
  8
T47SSILL
 62
2
 10
3185.860
 20
-6056.586
 30
542.446
 70
    32
  0
VERTEX
  8
T47SSILL
 62
2
 10
3183.335
 20
-6058.494
 30
542.436
 70
    32
  0
VERTEX
  8
T47SSILL
 62
2
 10
3185.743
 20
-6062.174
 30
542.443
 70
    32
  0
VERTEX
  8
T47SSILL
 62
2
 10
3189.155
 20
-6062.872
 30
542.455
 70
    32
  0
VERTEX
  8
T47SSILL
 62
2
 10
3350.344
 20
-6307.227
 30
542.881
 70
    32
  0
VERTEX
  8
T47SSILL
 62
2
 10
3355.743
 20
-6315.410
 30
542.759
 70
    32
  0
VERTEX
  8
T47SSILL
 62
2
 10
3354.106
 20
-6317.657
 30
542.803
 70
    32
  0
VERTEX
  8
T47SSILL
 62
2
 10
3356.698
 20
-6321.746
 30
542.745
 70
    32
  0
VERTEX
  8
T47SSILL
 62
2
 10
3360.784
 20
-6322.934
 30
542.645
 70
    32
  0
VERTEX
  8
T47SSILL
 62
2
 10
3547.136
 20
-6607.580
 30
538.437
 70
    32
  0
VERTEX
  8
T47SSILL
 62
2
 10
3545.745
 20
-6609.867
 30
538.475
 70
    32
  0
VERTEX
  8
T47SSILL
 62
2
 10
3547.102
 20
-6612.678
 30
538.445
 70
    32
  0
VERTEX
  8
T47SSILL
 62
2
 10
3550.564
 20
-6613.447
 30
538.361
 70
    32
  0
VERTEX
  8
T47SSILL
 62
2
 10
3729.407
 20
-6885.711
 30
537.943
 70
    32
  0
VERTEX
  8
T47SSILL
 62
2
 10
3812.999
 20
-7002.250
 30
537.961
 70
    32
  0
VERTEX
  8
T47SSILL
 62
2
 10
3763.846
 20
-6994.232
 30
538.369
 70
    32
  0
VERTEX
  8
T47SSILL
 62
2
 10
3683.721
 20
-7052.742
 30
538.600
 70
    32
  0
VERTEX
  8
T47SSILL
 62
2
 10
3687.866
 20
-7058.351
 30
538.556
 70
    32
  0
VERTEX
  8
T47SSILL
 62
2
 10
3766.511
 20
-7002.494
 30
538.323
 70
    32
  0
VERTEX
  8
T47SSILL
 62
2
 10
3818.433
 20
-7011.697
 30
537.980
 70
    32
  0
VERTEX
  8
T47SSILL
 62
2
 10
3807.288
 20
-7019.937
 30
538.031
 70
    32
  0
VERTEX
  8
T47SSILL
 62
2
 10
3812.402
 20
-7027.237
 30
537.975
 70
    32
  0
VERTEX
  8
T47SSILL
 62
2
 10
3824.364
 20
-7018.317
 30
537.942
 70
    32
  0
VERTEX
  8
T47SSILL
 62
2
 10
3829.602
 20
-7025.639
 30
537.885
 70
    32
  0
VERTEX
  8
T47SSILL
 62
2
 10
3828.363
 20
-7036.636
 30
537.852
 70
    32
  0
VERTEX
  8
T47SSILL
 62
2
 10
3820.645
 20
-7045.923
 30
537.860
 70
    32
  0
VERTEX
  8
T47SSILL
 62
2
 10
3819.697
 20
-7059.949
 30
537.814
 70
    32
  0
VERTEX
  8
T47SSILL
 62
2
 10
3820.949
 20
-7063.274
 30
537.794
 70
    32
  0
VERTEX
  8
T47SSILL
 62
2
 10
3819.529
 20
-7071.705
 30
537.771
 70
    32
  0
VERTEX
  8
T47SSILL
 62
2
 10
3700.344
 20
-7157.366
 30
538.298
 70
    32
  0
VERTEX
  8
T47SSILL
 62
2
 10
3655.425
 20
-7156.620
 30
538.565
 70
    32
  0
VERTEX
  8
T47SSILL
 62
2
 10
3460.960
 20
-7158.901
 30
539.709
 70
    32
  0
VERTEX
  8
T47SSILL
 62
2
 10
3452.564
 20
-7156.842
 30
539.762
 70
    32
  0
VERTEX
  8
T47SSILL
 62
2
 10
3441.167
 20
-7160.025
 30
539.825
 70
    32
  0
VERTEX
  8
T47SSILL
 62
2
 10
3384.442
 20
-7159.160
 30
540.161
 70
    32
  0
VERTEX
  8
T47SSILL
 62
2
 10
3384.461
 20
-7167.675
 30
540.149
 70
    32
  0
VERTEX
  8
T47SSILL
 62
2
 10
3438.258
 20
-7166.854
 30
539.833
 70
    32
  0
VERTEX
  8
T47SSILL
 62
2
 10
3439.732
 20
-7171.592
 30
539.818
 70
    32
  0
VERTEX
  8
T47SSILL
 62
2
 10
3444.327
 20
-7176.076
 30
539.785
 70
    32
  0
VERTEX
  8
T47SSILL
 62
2
 10
3458.655
 20
-7174.877
 30
539.702
 70
    32
  0
VERTEX
  8
T47SSILL
 62
2
 10
3458.873
 20
-7170.629
 30
539.706
 70
    32
  0
VERTEX
  8
T47SSILL
 62
2
 10
3461.456
 20
-7167.026
 30
539.696
 70
    32
  0
VERTEX
  8
T47SSILL
 62
2
 10
3659.376
 20
-7164.412
 30
538.531
 70
    32
  0
VERTEX
  8
T47SSILL
 62
2
 10
3702.365
 20
-7165.326
 30
538.276
 70
    32
  0
VERTEX
  8
T47SSILL
 62
2
 10
3825.170
 20
-7076.373
 30
537.722
 70
    32
  0
VERTEX
  8
T47SSILL
 62
2
 10
3837.559
 20
-7068.986
 30
537.681
 70
    32
  0
VERTEX
  8
T47SSILL
 62
2
 10
3844.261
 20
-7067.631
 30
537.648
 70
    32
  0
VERTEX
  8
T47SSILL
 62
2
 10
3854.875
 20
-7069.246
 30
537.583
 70
    32
  0
VERTEX
  8
T47SSILL
 62
2
 10
3866.243
 20
-7075.936
 30
537.495
 70
    32
  0
VERTEX
  8
T47SSILL
 62
2
 10
3909.896
 20
-7138.239
 30
537.087
 70
    32
  0
VERTEX
  8
T47SSILL
 62
2
 10
3895.689
 20
-7139.033
 30
537.170
 70
    32
  0
VERTEX
  8
T47SSILL
 62
2
 10
3884.933
 20
-7142.906
 30
537.228
 70
    32
  0
VERTEX
  8
T47SSILL
 62
2
 10
3862.028
 20
-7158.200
 30
537.343
 70
    32
  0
VERTEX
  8
T47SSILL
 62
2
 10
3855.071
 20
-7153.807
 30
537.390
 70
    32
  0
VERTEX
  8
T47SSILL
 62
2
 10
3844.105
 20
-7143.386
 30
537.468
 70
    32
  0
VERTEX
  8
T47SSILL
 62
2
 10
3833.216
 20
-7140.456
 30
537.537
 70
    32
  0
VERTEX
  8
T47SSILL
 62
2
 10
3822.642
 20
-7131.054
 30
537.611
 70
    32
  0
VERTEX
  8
T47SSILL
 62
2
 10
3815.110
 20
-7135.685
 30
537.650
 70
    32
  0
VERTEX
  8
T47SSILL
 62
2
 10
3819.061
 20
-7142.400
 30
537.618
 70
    32
  0
VERTEX
  8
T47SSILL
 62
2
 10
3822.140
 20
-7158.022
 30
537.579
 70
    32
  0
VERTEX
  8
T47SSILL
 62
2
 10
3817.863
 20
-7165.760
 30
537.594
 70
    32
  0
VERTEX
  8
T47SSILL
 62
2
 10
3822.207
 20
-7178.880
 30
537.551
 70
    32
  0
VERTEX
  8
T47SSILL
 62
2
 10
3821.661
 20
-7187.022
 30
537.543
 70
    32
  0
VERTEX
  8
T47SSILL
 62
2
 10
3774.558
 20
-7219.916
 30
537.778
 70
    32
  0
VERTEX
  8
T47SSILL
 62
2
 10
3780.453
 20
-7226.023
 30
537.735
 70
    32
  0
VERTEX
  8
T47SSILL
 62
2
 10
3828.922
 20
-7191.848
 30
537.494
 70
    32
  0
VERTEX
  8
T47SSILL
 62
2
 10
3836.348
 20
-7194.296
 30
537.447
 70
    32
  0
VERTEX
  8
T47SSILL
 62
2
 10
3845.528
 20
-7205.860
 30
537.378
 70
    32
  0
VERTEX
  8
T47SSILL
 62
2
 10
3859.850
 20
-7187.851
 30
537.317
 70
    32
  0
VERTEX
  8
T47SSILL
 62
2
 10
3859.240
 20
-7181.597
 30
537.329
 70
    32
  0
VERTEX
  8
T47SSILL
 62
2
 10
3865.621
 20
-7175.941
 30
537.299
 70
    32
  0
VERTEX
  8
T47SSILL
 62
2
 10
3863.811
 20
-7169.666
 30
537.317
 70
    32
  0
VERTEX
  8
T47SSILL
 62
2
 10
3864.684
 20
-7166.145
 30
537.317
 70
    32
  0
VERTEX
  8
T47SSILL
 62
2
 10
3886.613
 20
-7149.918
 30
537.209
 70
    32
  0
VERTEX
  8
T47SSILL
 62
2
 10
3892.743
 20
-7147.132
 30
537.176
 70
    32
  0
VERTEX
  8
T47SSILL
 62
2
 10
3907.209
 20
-7145.940
 30
537.093
 70
    32
  0
VERTEX
  8
T47SSILL
 62
2
 10
3916.682
 20
-7150.079
 30
537.031
 70
    32
  0
VERTEX
  8
T47SSILL
 62
2
 10
3966.012
 20
-7216.486
 30
536.714
 70
    32
  0
VERTEX
  8
T47SSILL
 62
2
 10
3958.492
 20
-7215.289
 30
536.750
 70
    32
  0
VERTEX
  8
T47SSILL
 62
2
 10
3947.337
 20
-7216.747
 30
536.803
 70
    32
  0
VERTEX
  8
T47SSILL
 62
2
 10
3934.703
 20
-7224.091
 30
536.863
 70
    32
  0
VERTEX
  8
T47SSILL
 62
2
 10
3915.144
 20
-7204.174
 30
536.969
 70
    32
  0
VERTEX
  8
T47SSILL
 62
2
 10
3907.288
 20
-7193.730
 30
537.029
 70
    32
  0
VERTEX
  8
T47SSILL
 62
2
 10
3893.785
 20
-7199.527
 30
537.101
 70
    32
  0
VERTEX
  8
T47SSILL
 62
2
 10
3884.049
 20
-7205.163
 30
537.151
 70
    32
  0
VERTEX
  8
T47SSILL
 62
2
 10
3881.464
 20
-7214.086
 30
537.155
 70
    32
  0
VERTEX
  8
T47SSILL
 62
2
 10
3875.554
 20
-7222.107
 30
537.179
 70
    32
  0
VERTEX
  8
T47SSILL
 62
2
 10
3889.434
 20
-7236.843
 30
537.079
 70
    32
  0
VERTEX
  8
T47SSILL
 62
2
 10
3898.499
 20
-7249.780
 30
537.035
 70
    32
  0
VERTEX
  8
T47SSILL
 62
2
 10
3859.050
 20
-7278.066
 30
537.222
 70
    32
  0
VERTEX
  8
T47SSILL
 62
2
 10
3863.506
 20
-7283.349
 30
537.200
 70
    32
  0
VERTEX
  8
T47SSILL
 62
2
 10
3903.765
 20
-7255.142
 30
537.009
 70
    32
  0
VERTEX
  8
T47SSILL
 62
2
 10
3915.091
 20
-7265.310
 30
536.954
 70
    32
  0
VERTEX
  8
T47SSILL
 62
2
 10
3914.002
 20
-7272.215
 30
536.959
 70
    32
  0
VERTEX
  8
T47SSILL
 62
2
 10
3917.193
 20
-7276.769
 30
536.943
 70
    32
  0
VERTEX
  8
T47SSILL
 62
2
 10
3941.566
 20
-7263.571
 30
536.828
 70
    32
  0
VERTEX
  8
T47SSILL
 62
2
 10
3933.637
 20
-7251.023
 30
536.866
 70
    32
  0
VERTEX
  8
T47SSILL
 62
2
 10
3929.372
 20
-7236.015
 30
536.888
 70
    32
  0
VERTEX
  8
T47SSILL
 62
2
 10
3944.167
 20
-7225.757
 30
536.818
 70
    32
  0
VERTEX
  8
T47SSILL
 62
2
 10
3950.933
 20
-7222.956
 30
536.786
 70
    32
  0
VERTEX
  8
T47SSILL
 62
2
 10
3958.091
 20
-7222.252
 30
536.751
 70
    32
  0
VERTEX
  8
T47SSILL
 62
2
 10
3969.847
 20
-7224.575
 30
536.695
 70
    32
  0
VERTEX
  8
T47SSILL
 62
2
 10
3974.100
 20
-7227.414
 30
536.674
 70
    32
  0
VERTEX
  8
T47SSILL
 62
2
 10
3986.174
 20
-7244.493
 30
536.662
 70
    32
  0
VERTEX
  8
T47SSILL
 62
2
 10
3976.316
 20
-7252.262
 30
536.691
 70
    32
  0
VERTEX
  8
T47SSILL
 62
2
 10
3980.187
 20
-7258.710
 30
536.689
 70
    32
  0
VERTEX
  8
T47SSILL
 62
2
 10
3991.122
 20
-7250.940
 30
536.657
 70
    32
  0
VERTEX
  8
T47SSILL
 62
2
 10
4015.458
 20
-7284.751
 30
536.633
 70
    32
  0
VERTEX
  8
T47SSILL
 62
2
 10
4013.899
 20
-7291.447
 30
536.643
 70
    32
  0
VERTEX
  8
T47SSILL
 62
2
 10
4005.649
 20
-7289.361
 30
536.659
 70
    32
  0
VERTEX
  8
T47SSILL
 62
2
 10
4002.581
 20
-7282.675
 30
536.660
 70
    32
  0
VERTEX
  8
T47SSILL
 62
2
 10
3948.559
 20
-7267.399
 30
536.794
 70
    32
  0
VERTEX
  8
T47SSILL
 62
2
 10
3935.295
 20
-7273.999
 30
536.857
 70
    32
  0
VERTEX
  8
T47SSILL
 62
2
 10
3934.161
 20
-7276.841
 30
536.862
 70
    32
  0
VERTEX
  8
T47SSILL
 62
2
 10
3935.262
 20
-7279.949
 30
536.857
 70
    32
  0
VERTEX
  8
T47SSILL
 62
2
 10
3939.942
 20
-7285.398
 30
536.834
 70
    32
  0
VERTEX
  8
T47SSILL
 62
2
 10
3959.777
 20
-7292.945
 30
536.765
 70
    32
  0
VERTEX
  8
T47SSILL
 62
2
 10
3967.021
 20
-7292.826
 30
536.749
 70
    32
  0
VERTEX
  8
T47SSILL
 62
2
 10
3976.509
 20
-7298.678
 30
536.733
 70
    32
  0
VERTEX
  8
T47SSILL
 62
2
 10
3986.697
 20
-7299.838
 30
536.711
 70
    32
  0
VERTEX
  8
T47SSILL
 62
2
 10
3985.702
 20
-7305.492
 30
536.719
 70
    32
  0
VERTEX
  8
T47SSILL
 62
2
 10
3960.426
 20
-7323.094
 30
536.791
 70
    32
  0
VERTEX
  8
T47SSILL
 62
2
 10
3955.473
 20
-7321.715
 30
536.801
 70
    32
  0
VERTEX
  8
T47SSILL
 62
2
 10
3951.307
 20
-7318.384
 30
536.807
 70
    32
  0
VERTEX
  8
T47SSILL
 62
2
 10
3942.336
 20
-7305.272
 30
536.821
 70
    32
  0
VERTEX
  8
T47SSILL
 62
2
 10
3934.989
 20
-7300.938
 30
536.856
 70
    32
  0
VERTEX
  8
T47SSILL
 62
2
 10
3921.267
 20
-7302.578
 30
536.922
 70
    32
  0
VERTEX
  8
T47SSILL
 62
2
 10
3908.888
 20
-7299.828
 30
536.981
 70
    32
  0
VERTEX
  8
T47SSILL
 62
2
 10
3891.656
 20
-7275.695
 30
537.066
 70
    32
  0
VERTEX
  8
T47SSILL
 62
2
 10
3885.267
 20
-7281.034
 30
537.096
 70
    32
  0
VERTEX
  8
T47SSILL
 62
2
 10
3903.288
 20
-7305.369
 30
537.008
 70
    32
  0
VERTEX
  8
T47SSILL
 62
2
 10
3902.830
 20
-7334.245
 30
537.008
 70
    32
  0
VERTEX
  8
T47SSILL
 62
2
 10
3927.097
 20
-7340.735
 30
536.891
 70
    32
  0
VERTEX
  8
T47SSILL
 62
2
 10
3924.750
 20
-7347.228
 30
536.902
 70
    32
  0
VERTEX
  8
T47SSILL
 62
2
 10
3927.372
 20
-7357.891
 30
536.897
 70
    32
  0
VERTEX
  8
T47SSILL
 62
2
 10
3933.490
 20
-7363.087
 30
536.888
 70
    32
  0
VERTEX
  8
T47SSILL
 62
2
 10
3939.766
 20
-7362.354
 30
536.873
 70
    32
  0
VERTEX
  8
T47SSILL
 62
2
 10
3944.240
 20
-7359.973
 30
536.861
 70
    32
  0
VERTEX
  8
T47SSILL
 62
2
 10
3960.368
 20
-7339.621
 30
536.806
 70
    32
  0
VERTEX
  8
T47SSILL
 62
2
 10
3961.413
 20
-7330.808
 30
536.796
 70
    32
  0
VERTEX
  8
T47SSILL
 62
2
 10
4002.069
 20
-7301.783
 30
536.679
 70
    32
  0
VERTEX
  8
T47SSILL
 62
2
 10
4010.201
 20
-7299.857
 30
536.659
 70
    32
  0
VERTEX
  8
T47SSILL
 62
2
 10
4030.397
 20
-7304.996
 30
536.618
 70
    32
  0
VERTEX
  8
T47SSILL
 62
2
 10
4062.431
 20
-7350.870
 30
536.588
 70
    32
  0
VERTEX
  8
T47SSILL
 62
2
 10
4049.887
 20
-7350.500
 30
536.616
 70
    32
  0
VERTEX
  8
T47SSILL
 62
2
 10
4037.923
 20
-7354.033
 30
536.646
 70
    32
  0
VERTEX
  8
T47SSILL
 62
2
 10
3968.725
 20
-7404.456
 30
536.847
 70
    32
  0
VERTEX
  8
T47SSILL
 62
2
 10
3957.591
 20
-7403.636
 30
536.871
 70
    32
  0
VERTEX
  8
T47SSILL
 62
2
 10
3952.572
 20
-7400.472
 30
536.879
 70
    32
  0
VERTEX
  8
T47SSILL
 62
2
 10
3945.368
 20
-7409.722
 30
536.904
 70
    32
  0
VERTEX
  8
T47SSILL
 62
2
 10
3947.995
 20
-7417.471
 30
536.905
 70
    32
  0
VERTEX
  8
T47SSILL
 62
2
 10
3944.715
 20
-7422.787
 30
536.917
 70
    32
  0
VERTEX
  8
T47SSILL
 62
2
 10
3944.862
 20
-7426.994
 30
536.920
 70
    32
  0
VERTEX
  8
T47SSILL
 62
2
 10
3948.500
 20
-7430.803
 30
536.916
 70
    32
  0
VERTEX
  8
T47SSILL
 62
2
 10
3945.928
 20
-7433.899
 30
536.924
 70
    32
  0
VERTEX
  8
T47SSILL
 62
2
 10
3950.037
 20
-7440.071
 30
536.921
 70
    32
  0
VERTEX
  8
T47SSILL
 62
2
 10
3950.270
 20
-7443.787
 30
536.924
 70
    32
  0
VERTEX
  8
T47SSILL
 62
2
 10
3953.589
 20
-7445.449
 30
536.918
 70
    32
  0
VERTEX
  8
T47SSILL
 62
2
 10
3958.719
 20
-7437.544
 30
536.899
 70
    32
  0
VERTEX
  8
T47SSILL
 62
2
 10
3968.652
 20
-7436.188
 30
536.876
 70
    32
  0
VERTEX
  8
T47SSILL
 62
2
 10
3973.686
 20
-7423.071
 30
536.852
 70
    32
  0
VERTEX
  8
T47SSILL
 62
2
 10
3981.454
 20
-7413.856
 30
536.827
 70
    32
  0
VERTEX
  8
T47SSILL
 62
2
 10
3978.942
 20
-7405.810
 30
536.825
 70
    32
  0
VERTEX
  8
T47SSILL
 62
2
 10
4037.175
 20
-7362.962
 30
536.656
 70
    32
  0
VERTEX
  8
T47SSILL
 62
2
 10
4049.904
 20
-7357.599
 30
536.622
 70
    32
  0
VERTEX
  8
T47SSILL
 62
2
 10
4064.379
 20
-7358.880
 30
536.591
 70
    32
  0
VERTEX
  8
T47SSILL
 62
2
 10
4071.357
 20
-7362.073
 30
536.578
 70
    32
  0
VERTEX
  8
T47SSILL
 62
2
 10
4108.223
 20
-7413.613
 30
536.543
 70
    32
  0
VERTEX
  8
T47SSILL
 62
2
 10
4110.174
 20
-7425.932
 30
536.550
 70
    32
  0
VERTEX
  8
T47SSILL
 62
2
 10
4109.920
 20
-7440.334
 30
536.563
 70
    32
  0
VERTEX
  8
T47SSILL
 62
2
 10
4078.446
 20
-7537.063
 30
536.722
 70
    32
  0
VERTEX
  8
T47SSILL
 62
2
 10
4058.148
 20
-7527.470
 30
536.758
 70
    32
  0
VERTEX
  8
T47SSILL
 62
2
 10
4055.860
 20
-7536.509
 30
536.772
 70
    32
  0
VERTEX
  8
T47SSILL
 62
2
 10
4076.151
 20
-7545.783
 30
536.735
 70
    32
  0
VERTEX
  8
T47SSILL
 62
2
 10
4045.178
 20
-7612.312
 30
536.864
 70
    32
  0
VERTEX
  8
T47SSILL
 62
2
 10
4018.811
 20
-7630.355
 30
536.940
 70
    32
  0
VERTEX
  8
T47SSILL
 62
2
 10
3994.552
 20
-7649.582
 30
537.012
 70
    32
  0
VERTEX
  8
T47SSILL
 62
2
 10
3981.088
 20
-7650.902
 30
537.043
 70
    32
  0
VERTEX
  8
T47SSILL
 62
2
 10
3976.268
 20
-7647.582
 30
537.051
 70
    32
  0
VERTEX
  8
T47SSILL
 62
2
 10
3964.728
 20
-7621.733
 30
537.053
 70
    32
  0
VERTEX
  8
T47SSILL
 62
2
 10
3964.522
 20
-7616.481
 30
537.049
 70
    32
  0
VERTEX
  8
T47SSILL
 62
2
 10
3953.817
 20
-7586.030
 30
537.045
 70
    32
  0
VERTEX
  8
T47SSILL
 62
2
 10
3949.580
 20
-7576.310
 30
537.046
 70
    32
  0
VERTEX
  8
T47SSILL
 62
2
 10
3945.463
 20
-7572.460
 30
537.051
 70
    32
  0
VERTEX
  8
T47SSILL
 62
2
 10
3937.227
 20
-7577.786
 30
537.075
 70
    32
  0
VERTEX
  8
T47SSILL
 62
2
 10
3933.069
 20
-7578.713
 30
537.085
 70
    32
  0
VERTEX
  8
T47SSILL
 62
2
 10
3927.022
 20
-7585.479
 30
537.104
 70
    32
  0
VERTEX
  8
T47SSILL
 62
2
 10
3932.370
 20
-7595.355
 30
537.101
 70
    32
  0
VERTEX
  8
T47SSILL
 62
2
 10
3934.210
 20
-7605.116
 30
537.106
 70
    32
  0
VERTEX
  8
T47SSILL
 62
2
 10
3917.551
 20
-7618.888
 30
537.156
 70
    32
  0
VERTEX
  8
T47SSILL
 62
2
 10
3875.968
 20
-7569.000
 30
537.204
 70
    32
  0
VERTEX
  8
T47SSILL
 62
2
 10
3868.826
 20
-7575.046
 30
537.225
 70
    32
  0
VERTEX
  8
T47SSILL
 62
2
 10
3876.112
 20
-7584.565
 30
537.218
 70
    32
  0
VERTEX
  8
T47SSILL
 62
2
 10
3874.343
 20
-7589.099
 30
537.226
 70
    32
  0
VERTEX
  8
T47SSILL
 62
2
 10
3851.930
 20
-7607.099
 30
537.292
 70
    32
  0
VERTEX
  8
T47SSILL
 62
2
 10
3843.061
 20
-7598.995
 30
537.305
 70
    32
  0
VERTEX
  8
T47SSILL
 62
2
 10
3829.042
 20
-7610.998
 30
537.347
 70
    32
  0
VERTEX
  8
T47SSILL
 62
2
 10
3843.182
 20
-7633.562
 30
537.336
 70
    32
  0
VERTEX
  8
T47SSILL
 62
2
 10
3841.968
 20
-7641.761
 30
537.346
 70
    32
  0
VERTEX
  8
T47SSILL
 62
2
 10
3798.367
 20
-7638.097
 30
537.486
 70
    32
  0
VERTEX
  8
T47SSILL
 62
2
 10
3796.238
 20
-7646.986
 30
537.495
 70
    32
  0
VERTEX
  8
T47SSILL
 62
2
 10
3858.034
 20
-7651.946
 30
537.319
 70
    32
  0
VERTEX
  8
T47SSILL
 62
2
 10
3865.211
 20
-7660.001
 30
537.311
 70
    32
  0
VERTEX
  8
T47SSILL
 62
2
 10
3873.373
 20
-7653.406
 30
537.286
 70
    32
  0
VERTEX
  8
T47SSILL
 62
2
 10
3968.236
 20
-7664.453
 30
537.084
 70
    32
  0
VERTEX
  8
T47SSILL
 62
2
 10
3968.629
 20
-7666.585
 30
537.085
 70
    32
  0
VERTEX
  8
T47SSILL
 62
2
 10
3951.780
 20
-7679.828
 30
537.135
 70
    32
  0
VERTEX
  8
T47SSILL
 62
2
 10
3944.972
 20
-7671.775
 30
537.143
 70
    32
  0
VERTEX
  8
T47SSILL
 62
2
 10
3940.877
 20
-7674.574
 30
537.154
 70
    32
  0
VERTEX
  8
T47SSILL
 62
2
 10
3946.740
 20
-7682.645
 30
537.149
 70
    32
  0
VERTEX
  8
T47SSILL
 62
2
 10
3895.381
 20
-7721.252
 30
537.299
 70
    32
  0
VERTEX
  8
T47SSILL
 62
2
 10
3874.820
 20
-7725.163
 30
537.348
 70
    32
  0
VERTEX
  8
T47SSILL
 62
2
 10
3821.018
 20
-7716.606
 30
537.461
 70
    32
  0
VERTEX
  8
T47SSILL
 62
2
 10
3813.450
 20
-7721.648
 30
537.482
 70
    32
  0
VERTEX
  8
T47SSILL
 62
2
 10
3799.827
 20
-7722.757
 30
537.514
 70
    32
  0
VERTEX
  8
T47SSILL
 62
2
 10
3762.559
 20
-7742.574
 30
537.650
 70
    32
  0
VERTEX
  8
T47SSILL
 62
2
 10
3762.088
 20
-7751.759
 30
537.651
 70
    32
  0
VERTEX
  8
T47SSILL
 62
2
 10
3712.553
 20
-7779.609
 30
537.887
 70
    32
  0
VERTEX
  8
T47SSILL
 62
2
 10
3694.458
 20
-7782.986
 30
537.969
 70
    32
  0
VERTEX
  8
T47SSILL
 62
2
 10
3687.243
 20
-7780.589
 30
537.996
 70
    32
  0
VERTEX
  8
T47SSILL
 62
2
 10
3666.662
 20
-7769.393
 30
538.077
 70
    32
  0
VERTEX
  8
T47SSILL
 62
2
 10
3655.740
 20
-7757.980
 30
538.128
 70
    32
  0
VERTEX
  8
T47SSILL
 62
2
 10
3617.953
 20
-7703.464
 30
538.324
 70
    32
  0
VERTEX
  8
T47SSILL
 62
2
 10
3620.001
 20
-7697.395
 30
538.326
 70
    32
  0
VERTEX
  8
T47SSILL
 62
2
 10
3617.973
 20
-7689.873
 30
538.343
 70
    32
  0
VERTEX
  8
T47SSILL
 62
2
 10
3612.463
 20
-7686.079
 30
538.366
 70
    32
  0
VERTEX
  8
T47SSILL
 62
2
 10
3605.253
 20
-7685.885
 30
538.389
 70
    32
  0
VERTEX
  8
T47SSILL
 62
2
 10
3526.349
 20
-7576.826
 30
538.793
 70
    32
  0
VERTEX
  8
T47SSILL
 62
2
 10
3522.009
 20
-7561.113
 30
538.819
 70
    32
  0
VERTEX
  8
T47SSILL
 62
2
 10
3516.923
 20
-7550.267
 30
538.863
 70
    32
  0
VERTEX
  8
T47SSILL
 62
2
 10
3509.323
 20
-7542.089
 30
538.919
 70
    32
  0
VERTEX
  8
T47SSILL
 62
2
 10
3496.007
 20
-7532.039
 30
539.013
 70
    32
  0
VERTEX
  8
T47SSILL
 62
2
 10
3477.202
 20
-7504.604
 30
539.162
 70
    32
  0
VERTEX
  8
T47SSILL
 62
2
 10
3481.652
 20
-7500.697
 30
539.139
 70
    32
  0
VERTEX
  8
T47SSILL
 62
2
 10
3476.011
 20
-7493.801
 30
539.182
 70
    32
  0
VERTEX
  8
T47SSILL
 62
2
 10
3471.347
 20
-7496.545
 30
539.208
 70
    32
  0
VERTEX
  8
T47SSILL
 62
2
 10
3469.675
 20
-7490.521
 30
539.225
 70
    32
  0
VERTEX
  8
T47SSILL
 62
2
 10
3464.713
 20
-7486.867
 30
539.260
 70
    32
  0
VERTEX
  8
T47SSILL
 62
2
 10
3327.794
 20
-7298.363
 30
540.333
 70
    32
  0
VERTEX
  8
T47SSILL
 62
2
 10
3322.376
 20
-7302.889
 30
540.362
 70
    32
  0
VERTEX
  8
T47SSILL
 62
2
 10
3465.434
 20
-7500.561
 30
539.240
 70
    32
  0
VERTEX
  8
T47SSILL
 62
2
 10
3462.478
 20
-7502.790
 30
539.256
 70
    32
  0
VERTEX
  8
T47SSILL
 62
2
 10
3467.170
 20
-7511.063
 30
539.217
 70
    32
  0
VERTEX
  8
T47SSILL
 62
2
 10
3471.146
 20
-7507.845
 30
539.196
 70
    32
  0
VERTEX
  8
T47SSILL
 62
2
 10
3507.320
 20
-7559.051
 30
538.911
 70
    32
  0
VERTEX
  8
T47SSILL
 62
2
 10
3507.454
 20
-7565.341
 30
538.903
 70
    32
  0
VERTEX
  8
T47SSILL
 62
2
 10
3599.947
 20
-7692.755
 30
538.396
 70
    32
  0
VERTEX
  8
T47SSILL
 62
2
 10
3598.540
 20
-7701.431
 30
538.389
 70
    32
  0
VERTEX
  8
T47SSILL
 62
2
 10
3604.052
 20
-7706.107
 30
538.365
 70
    32
  0
VERTEX
  8
T47SSILL
 62
2
 10
3610.400
 20
-7707.061
 30
538.343
 70
    32
  0
VERTEX
  8
T47SSILL
 62
2
 10
3659.946
 20
-7776.884
 30
538.088
 70
    32
  0
VERTEX
  8
T47SSILL
 62
2
 10
3692.387
 20
-7793.708
 30
537.961
 70
    32
  0
VERTEX
  8
T47SSILL
 62
2
 10
3708.703
 20
-7790.900
 30
537.904
 70
    32
  0
VERTEX
  8
T47SSILL
 62
2
 10
3756.195
 20
-7763.708
 30
537.679
 70
    32
  0
VERTEX
  8
T47SSILL
 62
2
 10
3759.093
 20
-7766.820
 30
537.665
 70
    32
  0
VERTEX
  8
T47SSILL
 62
2
 10
3765.652
 20
-7767.615
 30
537.633
 70
    32
  0
VERTEX
  8
T47SSILL
 62
2
 10
3791.710
 20
-7755.035
 30
537.561
 70
    32
  0
VERTEX
  8
T47SSILL
 62
2
 10
3797.990
 20
-7749.749
 30
537.543
 70
    32
  0
VERTEX
  8
T47SSILL
 62
2
 10
3810.904
 20
-7732.619
 30
537.498
 70
    32
  0
VERTEX
  8
T47SSILL
 62
2
 10
3824.580
 20
-7724.406
 30
537.460
 70
    32
  0
VERTEX
  8
T47SSILL
 62
2
 10
3868.931
 20
-7731.700
 30
537.367
 70
    32
  0
VERTEX
  8
T47SSILL
 62
2
 10
3871.535
 20
-7736.911
 30
537.366
 70
    32
  0
VERTEX
  8
T47SSILL
 62
2
 10
3777.431
 20
-7804.762
 30
537.639
 70
    32
  0
VERTEX
  8
T47SSILL
 62
2
 10
3770.442
 20
-7794.027
 30
537.644
 70
    32
  0
VERTEX
  8
T47SSILL
 62
2
 10
3762.937
 20
-7788.757
 30
537.656
 70
    32
  0
VERTEX
  8
T47SSILL
 62
2
 10
3749.435
 20
-7781.828
 30
537.710
 70
    32
  0
VERTEX
  8
T47SSILL
 62
2
 10
3741.702
 20
-7784.015
 30
537.747
 70
    32
  0
VERTEX
  8
T47SSILL
 62
2
 10
3737.403
 20
-7791.781
 30
537.767
 70
    32
  0
VERTEX
  8
T47SSILL
 62
2
 10
3737.696
 20
-7796.417
 30
537.765
 70
    32
  0
VERTEX
  8
T47SSILL
 62
2
 10
3747.386
 20
-7815.712
 30
537.717
 70
    32
  0
VERTEX
  8
T47SSILL
 62
2
 10
3748.150
 20
-7825.511
 30
537.723
 70
    32
  0
VERTEX
  8
T47SSILL
 62
2
 10
3634.075
 20
-7907.866
 30
537.988
 70
    32
  0
VERTEX
  8
T47SSILL
 62
2
 10
3626.135
 20
-7911.534
 30
538.008
 70
    32
  0
VERTEX
  8
T47SSILL
 62
2
 10
3610.531
 20
-7910.163
 30
538.060
 70
    32
  0
VERTEX
  8
T47SSILL
 62
2
 10
3598.465
 20
-7899.281
 30
538.113
 70
    32
  0
VERTEX
  8
T47SSILL
 62
2
 10
3536.224
 20
-7814.083
 30
538.430
 70
    32
  0
VERTEX
  8
T47SSILL
 62
2
 10
3526.399
 20
-7789.923
 30
538.495
 70
    32
  0
VERTEX
  8
T47SSILL
 62
2
 10
3508.724
 20
-7763.842
 30
538.634
 70
    32
  0
VERTEX
  8
T47SSILL
 62
2
 10
3502.131
 20
-7749.387
 30
538.695
 70
    32
  0
VERTEX
  8
T47SSILL
 62
2
 10
3486.833
 20
-7743.149
 30
538.801
 70
    32
  0
VERTEX
  8
T47SSILL
 62
2
 10
3379.661
 20
-7591.421
 30
539.671
 70
    32
  0
VERTEX
  8
T47SSILL
 62
2
 10
3382.259
 20
-7589.644
 30
539.656
 70
    32
  0
VERTEX
  8
T47SSILL
 62
2
 10
3376.365
 20
-7580.069
 30
539.704
 70
    32
  0
VERTEX
  8
T47SSILL
 62
2
 10
3373.203
 20
-7582.279
 30
539.722
 70
    32
  0
VERTEX
  8
T47SSILL
 62
2
 10
3349.017
 20
-7548.037
 30
539.912
 70
    32
  0
VERTEX
  8
T47SSILL
 62
2
 10
3342.540
 20
-7552.037
 30
539.948
 70
    32
  0
VERTEX
  8
T47SSILL
 62
2
 10
3366.950
 20
-7586.649
 30
539.756
 70
    32
  0
VERTEX
  8
T47SSILL
 62
2
 10
3358.293
 20
-7592.699
 30
539.803
 70
    32
  0
VERTEX
  8
T47SSILL
 62
2
 10
3364.855
 20
-7601.550
 30
539.751
 70
    32
  0
VERTEX
  8
T47SSILL
 62
2
 10
3373.357
 20
-7595.734
 30
539.705
 70
    32
  0
VERTEX
  8
T47SSILL
 62
2
 10
3467.408
 20
-7729.095
 30
538.942
 70
    32
  0
VERTEX
  8
T47SSILL
 62
2
 10
3464.565
 20
-7734.108
 30
538.954
 70
    32
  0
VERTEX
  8
T47SSILL
 62
2
 10
3465.996
 20
-7735.568
 30
538.943
 70
    32
  0
VERTEX
  8
T47SSILL
 62
2
 10
3465.476
 20
-7738.830
 30
538.942
 70
    32
  0
VERTEX
  8
T47SSILL
 62
2
 10
3480.565
 20
-7760.457
 30
538.818
 70
    32
  0
VERTEX
  8
T47SSILL
 62
2
 10
3482.563
 20
-7777.163
 30
538.783
 70
    32
  0
VERTEX
  8
T47SSILL
 62
2
 10
3482.258
 20
-7789.203
 30
538.769
 70
    32
  0
VERTEX
  8
T47SSILL
 62
2
 10
3493.647
 20
-7811.191
 30
538.668
 70
    32
  0
VERTEX
  8
T47SSILL
 62
2
 10
3509.439
 20
-7824.673
 30
538.550
 70
    32
  0
VERTEX
  8
T47SSILL
 62
2
 10
3518.036
 20
-7851.304
 30
538.460
 70
    32
  0
VERTEX
  8
T47SSILL
 62
2
 10
3522.144
 20
-7858.803
 30
538.424
 70
    32
  0
VERTEX
  8
T47SSILL
 62
2
 10
3528.786
 20
-7864.392
 30
538.384
 70
    32
  0
VERTEX
  8
T47SSILL
 62
2
 10
3534.904
 20
-7872.362
 30
538.353
 70
    32
  0
VERTEX
  8
T47SSILL
 62
2
 10
3541.867
 20
-7872.081
 30
538.332
 70
    32
  0
VERTEX
  8
T47SSILL
 62
2
 10
3546.701
 20
-7873.955
 30
538.314
 70
    32
  0
VERTEX
  8
T47SSILL
 62
2
 10
3555.118
 20
-7881.606
 30
538.276
 70
    32
  0
VERTEX
  8
T47SSILL
 62
2
 10
3541.545
 20
-7884.685
 30
538.315
 70
    32
  0
VERTEX
  8
T47SSILL
 62
2
 10
3534.488
 20
-7889.233
 30
538.331
 70
    32
  0
VERTEX
  8
T47SSILL
 62
2
 10
3518.522
 20
-7905.242
 30
538.386
 70
    32
  0
VERTEX
  8
T47SSILL
 62
2
 10
3525.663
 20
-7920.279
 30
538.321
 70
    32
  0
VERTEX
  8
T47SSILL
 62
2
 10
3536.012
 20
-7949.673
 30
538.242
 70
    32
  0
VERTEX
  8
T47SSILL
 62
2
 10
3546.004
 20
-7969.955
 30
538.182
 70
    32
  0
VERTEX
  8
T47SSILL
 62
2
 10
3526.987
 20
-7978.551
 30
538.235
 70
    32
  0
VERTEX
  8
T47SSILL
 62
2
 10
3516.586
 20
-7978.225
 30
538.324
 70
    32
  0
VERTEX
  8
T47SSILL
 62
2
 10
3499.990
 20
-7974.511
 30
538.488
 70
    32
  0
VERTEX
  8
T47SSILL
 62
2
 10
3487.351
 20
-7967.262
 30
538.575
 70
    32
  0
VERTEX
  8
T47SSILL
 62
2
 10
3481.290
 20
-7961.125
 30
538.594
 70
    32
  0
VERTEX
  8
T47SSILL
 62
2
 10
3478.207
 20
-7954.840
 30
538.577
 70
    32
  0
VERTEX
  8
T47SSILL
 62
2
 10
3358.203
 20
-7784.820
 30
539.562
 70
    32
  0
VERTEX
  8
T47SSILL
 62
2
 10
3362.464
 20
-7775.538
 30
539.547
 70
    32
  0
VERTEX
  8
T47SSILL
 62
2
 10
3352.950
 20
-7770.238
 30
539.614
 70
    32
  0
VERTEX
  8
T47SSILL
 62
2
 10
3346.247
 20
-7768.668
 30
539.659
 70
    32
  0
VERTEX
  8
T47SSILL
 62
2
 10
3329.851
 20
-7746.040
 30
539.793
 70
    32
  0
VERTEX
  8
T47SSILL
 62
2
 10
3322.775
 20
-7750.270
 30
539.832
 70
    32
  0
VERTEX
  8
T47SSILL
 62
2
 10
3358.365
 20
-7800.261
 30
539.540
 70
    32
  0
VERTEX
  8
T47SSILL
 62
2
 10
3351.380
 20
-7819.986
 30
539.559
 70
    32
  0
VERTEX
  8
T47SSILL
 62
2
 10
3340.147
 20
-7861.015
 30
539.576
 70
    32
  0
VERTEX
  8
T47SSILL
 62
2
 10
3340.811
 20
-7865.702
 30
539.565
 70
    32
  0
VERTEX
  8
T47SSILL
 62
2
 10
3351.735
 20
-7877.997
 30
539.480
 70
    32
  0
VERTEX
  8
T47SSILL
 62
2
 10
3365.320
 20
-7882.987
 30
539.387
 70
    32
  0
VERTEX
  8
T47SSILL
 62
2
 10
3380.886
 20
-7883.284
 30
539.288
 70
    32
  0
VERTEX
  8
T47SSILL
 62
2
 10
3385.888
 20
-7874.546
 30
539.268
 70
    32
  0
VERTEX
  8
T47SSILL
 62
2
 10
3390.820
 20
-7873.035
 30
539.238
 70
    32
  0
VERTEX
  8
T47SSILL
 62
2
 10
3398.134
 20
-7872.488
 30
539.193
 70
    32
  0
VERTEX
  8
T47SSILL
 62
2
 10
3412.563
 20
-7876.401
 30
539.096
 70
    32
  0
VERTEX
  8
T47SSILL
 62
2
 10
3480.081
 20
-7971.528
 30
538.698
 70
    32
  0
VERTEX
  8
T47SSILL
 62
2
 10
3486.775
 20
-7976.747
 30
538.664
 70
    32
  0
VERTEX
  8
T47SSILL
 62
2
 10
3499.359
 20
-7983.044
 30
538.569
 70
    32
  0
VERTEX
  8
T47SSILL
 62
2
 10
3515.885
 20
-7986.811
 30
538.406
 70
    32
  0
VERTEX
  8
T47SSILL
 62
2
 10
3533.013
 20
-7984.495
 30
538.220
 70
    32
  0
VERTEX
  8
T47SSILL
 62
2
 10
3550.129
 20
-7977.331
 30
538.192
 70
    32
  0
VERTEX
  8
T47SSILL
 62
2
 10
3559.111
 20
-7995.394
 30
538.221
 70
    32
  0
VERTEX
  8
T47SSILL
 62
2
 10
3565.343
 20
-7999.416
 30
538.225
 70
    32
  0
VERTEX
  8
T47SSILL
 62
2
 10
3582.898
 20
-8034.416
 30
538.258
 70
    32
  0
VERTEX
  8
T47SSILL
 62
2
 10
3595.237
 20
-8041.559
 30
538.266
 70
    32
  0
VERTEX
  8
T47SSILL
 62
2
 10
3601.234
 20
-8042.779
 30
538.270
 70
    32
  0
VERTEX
  8
T47SSILL
 62
2
 10
3617.437
 20
-8037.186
 30
538.259
 70
    32
  0
VERTEX
  8
T47SSILL
 62
2
 10
3631.958
 20
-8028.336
 30
538.230
 70
    32
  0
VERTEX
  8
T47SSILL
 62
2
 10
3639.136
 20
-8022.925
 30
538.213
 70
    32
  0
VERTEX
  8
T47SSILL
 62
2
 10
3644.161
 20
-8016.267
 30
538.195
 70
    32
  0
VERTEX
  8
T47SSILL
 62
2
 10
3644.399
 20
-8012.335
 30
538.187
 70
    32
  0
VERTEX
  8
T47SSILL
 62
2
 10
3627.807
 20
-7982.128
 30
538.139
 70
    32
  0
VERTEX
  8
T47SSILL
 62
2
 10
3617.441
 20
-7967.205
 30
538.117
 70
    32
  0
VERTEX
  8
T47SSILL
 62
2
 10
3603.831
 20
-7938.171
 30
538.069
 70
    32
  0
VERTEX
  8
T47SSILL
 62
2
 10
3695.491
 20
-7872.936
 30
537.862
 70
    32
  0
VERTEX
  8
T47SSILL
 62
2
 10
3727.294
 20
-7917.172
 30
537.926
 70
    32
  0
VERTEX
  8
T47SSILL
 62
2
 10
3729.322
 20
-7931.868
 30
537.955
 70
    32
  0
VERTEX
  8
T47SSILL
 62
2
 10
3722.163
 20
-7952.387
 30
538.002
 70
    32
  0
VERTEX
  8
T47SSILL
 62
2
 10
3715.357
 20
-7951.557
 30
538.006
 70
    32
  0
VERTEX
  8
T47SSILL
 62
2
 10
3713.035
 20
-7953.308
 30
538.011
 70
    32
  0
VERTEX
  8
T47SSILL
 62
2
 10
3709.343
 20
-7964.370
 30
538.037
 70
    32
  0
VERTEX
  8
T47SSILL
 62
2
 10
3714.866
 20
-7973.892
 30
538.052
 70
    32
  0
VERTEX
  8
T47SSILL
 62
2
 10
3702.184
 20
-8013.585
 30
538.143
 70
    32
  0
VERTEX
  8
T47SSILL
 62
2
 10
3699.459
 20
-8016.412
 30
538.151
 70
    32
  0
VERTEX
  8
T47SSILL
 62
2
 10
3695.415
 20
-8027.739
 30
538.177
 70
    32
  0
VERTEX
  8
T47SSILL
 62
2
 10
3695.534
 20
-8033.168
 30
538.188
 70
    32
  0
VERTEX
  8
T47SSILL
 62
2
 10
3673.078
 20
-8097.895
 30
538.318
 70
    32
  0
VERTEX
  8
T47SSILL
 62
2
 10
3680.824
 20
-8101.211
 30
538.323
 70
    32
  0
VERTEX
  8
T47SSILL
 62
2
 10
3699.180
 20
-8046.203
 30
538.212
 70
    32
  0
VERTEX
  8
T47SSILL
 62
2
 10
3707.135
 20
-8055.438
 30
538.224
 70
    32
  0
VERTEX
  8
T47SSILL
 62
2
 10
3717.924
 20
-8062.868
 30
538.230
 70
    32
  0
VERTEX
  8
T47SSILL
 62
2
 10
3789.462
 20
-8087.193
 30
538.222
 70
    32
  0
VERTEX
  8
T47SSILL
 62
2
 10
3786.172
 20
-8089.563
 30
538.230
 70
    32
  0
VERTEX
  8
T47SSILL
 62
2
 10
3789.310
 20
-8096.801
 30
538.242
 70
    32
  0
VERTEX
  8
T47SSILL
 62
2
 10
3809.385
 20
-8081.556
 30
538.195
 70
    32
  0
VERTEX
  8
T47SSILL
 62
2
 10
3823.067
 20
-8089.895
 30
538.200
 70
    32
  0
VERTEX
  8
T47SSILL
 62
2
 10
3828.617
 20
-8081.738
 30
538.179
 70
    32
  0
VERTEX
  8
T47SSILL
 62
2
 10
3818.078
 20
-8075.665
 30
538.176
 70
    32
  0
VERTEX
  8
T47SSILL
 62
2
 10
3823.699
 20
-8067.454
 30
538.154
 70
    32
  0
VERTEX
  8
T47SSILL
 62
2
 10
3826.910
 20
-8054.437
 30
538.120
 70
    32
  0
VERTEX
  8
T47SSILL
 62
2
 10
3890.076
 20
-8142.912
 30
538.202
 70
    32
  0
VERTEX
  8
T47SSILL
 62
2
 10
3895.012
 20
-8157.513
 30
538.229
 70
    32
  0
VERTEX
  8
T47SSILL
 62
2
 10
3891.740
 20
-8174.549
 30
538.282
 70
    32
  0
VERTEX
  8
T47SSILL
 62
2
 10
3885.507
 20
-8184.436
 30
538.323
 70
    32
  0
VERTEX
  8
T47SSILL
 62
2
 10
3877.173
 20
-8193.146
 30
538.367
 70
    32
  0
VERTEX
  8
T47SSILL
 62
2
 10
3764.346
 20
-8273.788
 30
538.389
 70
    32
  0
VERTEX
  8
T47SSILL
 62
2
 10
3768.858
 20
-8280.652
 30
538.393
 70
    32
  0
VERTEX
  8
T47SSILL
 62
2
 10
3894.439
 20
-8189.402
 30
538.315
 70
    32
  0
VERTEX
  8
T47SSILL
 62
2
 10
3895.693
 20
-8190.333
 30
538.314
 70
    32
  0
VERTEX
  8
T47SSILL
 62
2
 10
3897.123
 20
-8412.875
 30
538.363
 70
    32
  0
VERTEX
  8
T47SSILL
 62
2
 10
3904.518
 20
-8409.508
 30
538.327
 70
    32
  0
VERTEX
  8
T47SSILL
 62
2
 10
3903.277
 20
-8163.644
 30
538.225
 70
    32
  0
VERTEX
  8
T47SSILL
 62
2
 10
3905.655
 20
-8148.497
 30
538.179
 70
    32
  0
VERTEX
  8
T47SSILL
 62
2
 10
3898.943
 20
-8142.960
 30
538.181
 70
    32
  0
VERTEX
  8
T47SSILL
 62
2
 10
3801.797
 20
-8006.923
 30
538.049
 70
    32
  0
VERTEX
  8
T47SSILL
 62
2
 10
3794.904
 20
-7992.362
 30
538.025
 70
    32
  0
VERTEX
  8
T47SSILL
 62
2
 10
3796.427
 20
-7980.619
 30
537.998
 70
    32
  0
VERTEX
  8
T47SSILL
 62
2
 10
3798.392
 20
-7976.930
 30
537.984
 70
    32
  0
VERTEX
  8
T47SSILL
 62
2
 10
3911.446
 20
-7895.124
 30
537.493
 70
    32
  0
VERTEX
  8
T47SSILL
 62
2
 10
3924.063
 20
-7900.734
 30
537.477
 70
    32
  0
VERTEX
  8
T47SSILL
 62
2
 10
3927.318
 20
-7905.344
 30
537.482
 70
    32
  0
VERTEX
  8
T47SSILL
 62
2
 10
3935.923
 20
-7906.363
 30
537.464
 70
    32
  0
VERTEX
  8
T47SSILL
 62
2
 10
3944.147
 20
-7910.538
 30
537.455
 70
    32
  0
VERTEX
  8
T47SSILL
 62
2
 10
3957.069
 20
-7953.887
 30
537.538
 70
    32
  0
VERTEX
  8
T47SSILL
 62
2
 10
3956.236
 20
-7958.930
 30
537.554
 70
    32
  0
VERTEX
  8
T47SSILL
 62
2
 10
3952.181
 20
-7965.850
 30
537.582
 70
    32
  0
VERTEX
  8
T47SSILL
 62
2
 10
3945.494
 20
-7970.450
 30
537.610
 70
    32
  0
VERTEX
  8
T47SSILL
 62
2
 10
3942.310
 20
-7966.227
 30
537.607
 70
    32
  0
VERTEX
  8
T47SSILL
 62
2
 10
3921.386
 20
-7980.346
 30
537.695
 70
    32
  0
VERTEX
  8
T47SSILL
 62
2
 10
3925.011
 20
-7985.008
 30
537.699
 70
    32
  0
VERTEX
  8
T47SSILL
 62
2
 10
3909.809
 20
-7996.027
 30
537.765
 70
    32
  0
VERTEX
  8
T47SSILL
 62
2
 10
3913.738
 20
-8002.557
 30
537.772
 70
    32
  0
VERTEX
  8
T47SSILL
 62
2
 10
3951.184
 20
-7976.094
 30
537.612
 70
    32
  0
VERTEX
  8
T47SSILL
 62
2
 10
3958.563
 20
-7973.291
 30
537.586
 70
    32
  0
VERTEX
  8
T47SSILL
 62
2
 10
3966.168
 20
-7976.498
 30
537.576
 70
    32
  0
VERTEX
  8
T47SSILL
 62
2
 10
3966.620
 20
-7980.904
 30
537.587
 70
    32
  0
VERTEX
  8
T47SSILL
 62
2
 10
4012.129
 20
-8043.615
 30
537.643
 70
    32
  0
VERTEX
  8
T47SSILL
 62
2
 10
4019.640
 20
-8037.181
 30
537.608
 70
    32
  0
VERTEX
  8
T47SSILL
 62
2
 10
4014.796
 20
-8031.340
 30
537.604
 70
    32
  0
VERTEX
  8
T47SSILL
 62
2
 10
4016.761
 20
-8027.651
 30
537.590
 70
    32
  0
VERTEX
  8
T47SSILL
 62
2
 10
4019.823
 20
-8025.564
 30
537.577
 70
    32
  0
VERTEX
  8
T47SSILL
 62
2
 10
4023.086
 20
-8026.084
 30
537.570
 70
    32
  0
VERTEX
  8
T47SSILL
 62
2
 10
4026.868
 20
-8030.076
 30
537.572
 70
    32
  0
VERTEX
  8
T47SSILL
 62
2
 10
4039.068
 20
-8023.859
 30
537.525
 70
    32
  0
VERTEX
  8
T47SSILL
 62
2
 10
4038.938
 20
-8006.849
 30
537.481
 70
    32
  0
VERTEX
  8
T47SSILL
 62
2
 10
4044.198
 20
-8002.553
 30
537.457
 70
    32
  0
VERTEX
  8
T47SSILL
 62
2
 10
4037.264
 20
-7992.769
 30
537.447
 70
    32
  0
VERTEX
  8
T47SSILL
 62
2
 10
4041.233
 20
-7979.733
 30
537.403
 70
    32
  0
VERTEX
  8
T47SSILL
 62
2
 10
4027.522
 20
-7973.844
 30
537.421
 70
    32
  0
VERTEX
  8
T47SSILL
 62
2
 10
4025.532
 20
-7967.397
 30
537.408
 70
    32
  0
VERTEX
  8
T47SSILL
 62
2
 10
4027.508
 20
-7953.766
 30
537.368
 70
    32
  0
VERTEX
  8
T47SSILL
 62
2
 10
4030.775
 20
-7948.875
 30
537.347
 70
    32
  0
VERTEX
  8
T47SSILL
 62
2
 10
4031.188
 20
-7945.031
 30
537.335
 70
    32
  0
VERTEX
  8
T47SSILL
 62
2
 10
4061.579
 20
-7923.998
 30
537.206
 70
    32
  0
VERTEX
  8
T47SSILL
 62
2
 10
4057.115
 20
-7915.442
 30
537.194
 70
    32
  0
VERTEX
  8
T47SSILL
 62
2
 10
4026.075
 20
-7937.517
 30
537.328
 70
    32
  0
VERTEX
  8
T47SSILL
 62
2
 10
4017.114
 20
-7942.175
 30
537.362
 70
    32
  0
VERTEX
  8
T47SSILL
 62
2
 10
3999.579
 20
-7943.805
 30
537.409
 70
    32
  0
VERTEX
  8
T47SSILL
 62
2
 10
3980.215
 20
-7940.081
 30
537.446
 70
    32
  0
VERTEX
  8
T47SSILL
 62
2
 10
3960.495
 20
-7927.684
 30
537.461
 70
    32
  0
VERTEX
  8
T47SSILL
 62
2
 10
3941.032
 20
-7862.335
 30
537.334
 70
    32
  0
VERTEX
  8
T47SSILL
 62
2
 10
3941.418
 20
-7840.300
 30
537.304
 70
    32
  0
VERTEX
  8
T47SSILL
 62
2
 10
3951.824
 20
-7828.481
 30
537.270
 70
    32
  0
VERTEX
  8
T47SSILL
 62
2
 10
3952.343
 20
-7824.338
 30
537.265
 70
    32
  0
VERTEX
  8
T47SSILL
 62
2
 10
3945.820
 20
-7809.829
 30
537.266
 70
    32
  0
VERTEX
  8
T47SSILL
 62
2
 10
3935.448
 20
-7749.657
 30
537.235
 70
    32
  0
VERTEX
  8
T47SSILL
 62
2
 10
3931.161
 20
-7741.189
 30
537.237
 70
    32
  0
VERTEX
  8
T47SSILL
 62
2
 10
3925.196
 20
-7738.401
 30
537.247
 70
    32
  0
VERTEX
  8
T47SSILL
 62
2
 10
3920.193
 20
-7739.524
 30
537.260
 70
    32
  0
VERTEX
  8
T47SSILL
 62
2
 10
3905.706
 20
-7747.686
 30
537.300
 70
    32
  0
VERTEX
  8
T47SSILL
 62
2
 10
3903.747
 20
-7739.670
 30
537.297
 70
    32
  0
VERTEX
  8
T47SSILL
 62
2
 10
3904.955
 20
-7729.267
 30
537.285
 70
    32
  0
VERTEX
  8
T47SSILL
 62
2
 10
3906.512
 20
-7724.451
 30
537.277
 70
    32
  0
VERTEX
  8
T47SSILL
 62
2
 10
3913.382
 20
-7715.409
 30
537.253
 70
    32
  0
VERTEX
  8
T47SSILL
 62
2
 10
4019.206
 20
-7640.159
 30
536.948
 70
    32
  0
VERTEX
  8
T47SSILL
 62
2
 10
4024.513
 20
-7647.304
 30
536.942
 70
    32
  0
VERTEX
  8
T47SSILL
 62
2
 10
4048.901
 20
-7629.581
 30
536.872
 70
    32
  0
VERTEX
  8
T47SSILL
 62
2
 10
4043.922
 20
-7622.560
 30
536.876
 70
    32
  0
VERTEX
  8
T47SSILL
 62
2
 10
4052.496
 20
-7616.451
 30
536.852
 70
    32
  0
VERTEX
  8
T47SSILL
 62
2
 10
4083.424
 20
-7544.782
 30
536.717
 70
    32
  0
VERTEX
  8
T47SSILL
 62
2
 10
4126.255
 20
-7513.480
 30
536.593
 70
    32
  0
VERTEX
  8
T47SSILL
 62
2
 10
4130.485
 20
-7514.288
 30
536.584
 70
    32
  0
VERTEX
  8
T47SSILL
 62
2
 10
4135.885
 20
-7512.767
 30
536.571
 70
    32
  0
VERTEX
  8
T47SSILL
 62
2
 10
4148.252
 20
-7506.580
 30
536.538
 70
    32
  0
VERTEX
  8
T47SSILL
 62
2
 10
4150.274
 20
-7499.776
 30
536.527
 70
    32
  0
VERTEX
  8
T47SSILL
 62
2
 10
4156.129
 20
-7496.751
 30
536.511
 70
    32
  0
VERTEX
  8
T47SSILL
 62
2
 10
4163.098
 20
-7496.394
 30
536.495
 70
    32
  0
VERTEX
  8
T47SSILL
 62
2
 10
4176.963
 20
-7507.720
 30
536.502
 70
    32
  0
VERTEX
  8
T47SSILL
 62
2
 10
4174.029
 20
-7519.450
 30
536.492
 70
    32
  0
VERTEX
  8
T47SSILL
 62
2
 10
4156.533
 20
-7532.156
 30
536.542
 70
    32
  0
VERTEX
  8
T47SSILL
 62
2
 10
4152.850
 20
-7527.522
 30
536.546
 70
    32
  0
VERTEX
  8
T47SSILL
 62
2
 10
4134.310
 20
-7540.005
 30
536.599
 70
    32
  0
VERTEX
  8
T47SSILL
 62
2
 10
4129.435
 20
-7533.292
 30
536.604
 70
    32
  0
VERTEX
  8
T47SSILL
 62
2
 10
4126.379
 20
-7532.239
 30
536.610
 70
    32
  0
VERTEX
  8
T47SSILL
 62
2
 10
4123.510
 20
-7533.995
 30
536.618
 70
    32
  0
VERTEX
  8
T47SSILL
 62
2
 10
4121.503
 20
-7537.089
 30
536.625
 70
    32
  0
VERTEX
  8
T47SSILL
 62
2
 10
4124.832
 20
-7546.779
 30
536.627
 70
    32
  0
VERTEX
  8
T47SSILL
 62
2
 10
4121.441
 20
-7551.423
 30
536.638
 70
    32
  0
VERTEX
  8
T47SSILL
 62
2
 10
4122.911
 20
-7555.700
 30
536.639
 70
    32
  0
VERTEX
  8
T47SSILL
 62
2
 10
4102.266
 20
-7571.129
 30
536.699
 70
    32
  0
VERTEX
  8
T47SSILL
 62
2
 10
4106.525
 20
-7577.744
 30
536.696
 70
    32
  0
VERTEX
  8
T47SSILL
 62
2
 10
4127.286
 20
-7562.776
 30
536.636
 70
    32
  0
VERTEX
  8
T47SSILL
 62
2
 10
4126.972
 20
-7567.149
 30
536.640
 70
    32
  0
VERTEX
  8
T47SSILL
 62
2
 10
4134.141
 20
-7568.160
 30
536.625
 70
    32
  0
VERTEX
  8
T47SSILL
 62
2
 10
4136.748
 20
-7561.686
 30
536.613
 70
    32
  0
VERTEX
  8
T47SSILL
 62
2
 10
4137.141
 20
-7555.619
 30
536.607
 70
    32
  0
VERTEX
  8
T47SSILL
 62
2
 10
4149.762
 20
-7546.563
 30
536.571
 70
    32
  0
VERTEX
  8
T47SSILL
 62
2
 10
4163.869
 20
-7573.949
 30
536.564
 70
    32
  0
VERTEX
  8
T47SSILL
 62
2
 10
4165.548
 20
-7585.273
 30
536.570
 70
    32
  0
VERTEX
  8
T47SSILL
 62
2
 10
4179.836
 20
-7605.547
 30
536.557
 70
    32
  0
VERTEX
  8
T47SSILL
 62
2
 10
4181.181
 20
-7611.005
 30
536.559
 70
    32
  0
VERTEX
  8
T47SSILL
 62
2
 10
4188.527
 20
-7610.906
 30
536.542
 70
    32
  0
VERTEX
  8
T47SSILL
 62
2
 10
4189.313
 20
-7609.135
 30
536.539
 70
    32
  0
VERTEX
  8
T47SSILL
 62
2
 10
4186.833
 20
-7601.665
 30
536.538
 70
    32
  0
VERTEX
  8
T47SSILL
 62
2
 10
4188.793
 20
-7591.297
 30
536.524
 70
    32
  0
VERTEX
  8
T47SSILL
 62
2
 10
4186.032
 20
-7568.870
 30
536.510
 70
    32
  0
VERTEX
  8
T47SSILL
 62
2
 10
4181.993
 20
-7562.859
 30
536.513
 70
    32
  0
VERTEX
  8
T47SSILL
 62
2
 10
4172.575
 20
-7557.700
 30
536.530
 70
    32
  0
VERTEX
  8
T47SSILL
 62
2
 10
4165.680
 20
-7535.439
 30
536.525
 70
    32
  0
VERTEX
  8
T47SSILL
 62
2
 10
4185.682
 20
-7520.477
 30
536.514
 70
    32
  0
VERTEX
  8
T47SSILL
 62
2
 10
4253.619
 20
-7616.428
 30
536.611
 70
    32
  0
VERTEX
  8
T47SSILL
 62
2
 10
4259.621
 20
-7634.756
 30
536.601
 70
    32
  0
VERTEX
  8
T47SSILL
 62
2
 10
4249.427
 20
-7691.461
 30
536.488
 70
    32
  0
VERTEX
  8
T47SSILL
 62
2
 10
4257.679
 20
-7703.575
 30
536.499
 70
    32
  0
VERTEX
  8
T47SSILL
 62
2
 10
4235.016
 20
-7719.379
 30
536.537
 70
    32
  0
VERTEX
  8
T47SSILL
 62
2
 10
4240.959
 20
-7728.915
 30
536.532
 70
    32
  0
VERTEX
  8
T47SSILL
 62
2
 10
4251.184
 20
-7721.817
 30
536.503
 70
    32
  0
VERTEX
  8
T47SSILL
 62
2
 10
4269.208
 20
-7725.307
 30
536.508
 70
    32
  0
VERTEX
  8
T47SSILL
 62
2
 10
4296.861
 20
-7775.251
 30
536.534
 70
    32
  0
VERTEX
  8
T47SSILL
 62
2
 10
4312.001
 20
-7829.592
 30
536.507
 70
    32
  0
VERTEX
  8
T47SSILL
 62
2
 10
4310.727
 20
-7832.044
 30
536.499
 70
    32
  0
VERTEX
  8
T47SSILL
 62
2
 10
4297.001
 20
-7836.122
 30
536.504
 70
    32
  0
VERTEX
  8
T47SSILL
 62
2
 10
4296.402
 20
-7838.302
 30
536.507
 70
    32
  0
VERTEX
  8
T47SSILL
 62
2
 10
4300.613
 20
-7848.006
 30
536.507
 70
    32
  0
VERTEX
  8
T47SSILL
 62
2
 10
4307.349
 20
-7847.368
 30
536.491
 70
    32
  0
VERTEX
  8
T47SSILL
 62
2
 10
4313.574
 20
-7862.699
 30
536.491
 70
    32
  0
VERTEX
  8
T47SSILL
 62
2
 10
4320.742
 20
-7866.110
 30
536.484
 70
    32
  0
VERTEX
  8
T47SSILL
 62
2
 10
4336.547
 20
-7925.422
 30
536.548
 70
    32
  0
VERTEX
  8
T47SSILL
 62
2
 10
4326.615
 20
-7931.872
 30
536.575
 70
    32
  0
VERTEX
  8
T47SSILL
 62
2
 10
4325.306
 20
-7942.239
 30
536.604
 70
    32
  0
VERTEX
  8
T47SSILL
 62
2
 10
4327.687
 20
-7946.312
 30
536.612
 70
    32
  0
VERTEX
  8
T47SSILL
 62
2
 10
4337.703
 20
-7943.235
 30
536.594
 70
    32
  0
VERTEX
  8
T47SSILL
 62
2
 10
4340.908
 20
-7943.743
 30
536.592
 70
    32
  0
VERTEX
  8
T47SSILL
 62
2
 10
4355.818
 20
-8001.523
 30
536.728
 70
    32
  0
VERTEX
  8
T47SSILL
 62
2
 10
4362.853
 20
-7999.795
 30
536.716
 70
    32
  0
VERTEX
  8
T47SSILL
 62
2
 10
4329.814
 20
-7874.247
 30
536.488
 70
    32
  0
VERTEX
  8
T47SSILL
 62
2
 10
4336.339
 20
-7878.125
 30
536.482
 70
    32
  0
VERTEX
  8
T47SSILL
 62
2
 10
4350.065
 20
-7875.247
 30
536.472
 70
    32
  0
VERTEX
  8
T47SSILL
 62
2
 10
4352.701
 20
-7873.770
 30
536.470
 70
    32
  0
VERTEX
  8
T47SSILL
 62
2
 10
4353.301
 20
-7869.189
 30
536.471
 70
    32
  0
VERTEX
  8
T47SSILL
 62
2
 10
4362.737
 20
-7866.263
 30
536.464
 70
    32
  0
VERTEX
  8
T47SSILL
 62
2
 10
4376.746
 20
-7857.616
 30
536.455
 70
    32
  0
VERTEX
  8
T47SSILL
 62
2
 10
4382.083
 20
-7852.649
 30
536.452
 70
    32
  0
VERTEX
  8
T47SSILL
 62
2
 10
4388.872
 20
-7841.720
 30
536.449
 70
    32
  0
VERTEX
  8
T47SSILL
 62
2
 10
4393.131
 20
-7828.811
 30
536.449
 70
    32
  0
VERTEX
  8
T47SSILL
 62
2
 10
4393.760
 20
-7818.864
 30
536.451
 70
    32
  0
VERTEX
  8
T47SSILL
 62
2
 10
4405.694
 20
-7826.886
 30
536.439
 70
    32
  0
VERTEX
  8
T47SSILL
 62
2
 10
4416.319
 20
-7841.966
 30
536.437
 70
    32
  0
VERTEX
  8
T47SSILL
 62
2
 10
4418.344
 20
-7850.312
 30
536.442
 70
    32
  0
VERTEX
  8
T47SSILL
 62
2
 10
4429.930
 20
-7863.713
 30
536.448
 70
    32
  0
VERTEX
  8
T47SSILL
 62
2
 10
4451.561
 20
-7896.652
 30
536.465
 70
    32
  0
VERTEX
  8
T47SSILL
 62
2
 10
4421.321
 20
-7918.395
 30
536.482
 70
    32
  0
VERTEX
  8
T47SSILL
 62
2
 10
4424.848
 20
-7923.251
 30
536.484
 70
    32
  0
VERTEX
  8
T47SSILL
 62
2
 10
4454.620
 20
-7902.066
 30
536.468
 70
    32
  0
VERTEX
  8
T47SSILL
 62
2
 10
4459.982
 20
-7908.098
 30
536.471
 70
    32
  0
VERTEX
  8
T47SSILL
 62
2
 10
4464.945
 20
-7919.437
 30
536.477
 70
    32
  0
VERTEX
  8
T47SSILL
 62
2
 10
4469.930
 20
-7925.851
 30
536.480
 70
    32
  0
VERTEX
  8
T47SSILL
 62
2
 10
4469.043
 20
-7933.040
 30
536.485
 70
    32
  0
VERTEX
  8
T47SSILL
 62
2
 10
4462.277
 20
-7939.044
 30
536.489
 70
    32
  0
VERTEX
  8
T47SSILL
 62
2
 10
4463.150
 20
-7943.100
 30
536.491
 70
    32
  0
VERTEX
  8
T47SSILL
 62
2
 10
4461.514
 20
-7945.052
 30
536.493
 70
    32
  0
VERTEX
  8
T47SSILL
 62
2
 10
4458.832
 20
-7957.580
 30
536.508
 70
    32
  0
VERTEX
  8
T47SSILL
 62
2
 10
4467.330
 20
-7969.733
 30
536.531
 70
    32
  0
VERTEX
  8
T47SSILL
 62
2
 10
4476.462
 20
-7976.300
 30
536.539
 70
    32
  0
VERTEX
  8
T47SSILL
 62
2
 10
4482.661
 20
-7983.033
 30
536.550
 70
    32
  0
VERTEX
  8
T47SSILL
 62
2
 10
4484.423
 20
-7986.661
 30
536.557
 70
    32
  0
VERTEX
  8
T47SSILL
 62
2
 10
4482.740
 20
-7999.664
 30
536.593
 70
    32
  0
VERTEX
  8
T47SSILL
 62
2
 10
4405.259
 20
-8054.733
 30
536.816
 70
    32
  0
VERTEX
  8
T47SSILL
 62
2
 10
4409.323
 20
-8060.180
 30
536.826
 70
    32
  0
VERTEX
  8
T47SSILL
 62
2
 10
4488.552
 20
-8002.860
 30
536.596
 70
    32
  0
VERTEX
  8
T47SSILL
 62
2
 10
4500.399
 20
-8033.742
 30
536.664
 70
    32
  0
VERTEX
  8
T47SSILL
 62
2
 10
4493.073
 20
-8042.880
 30
536.696
 70
    32
  0
VERTEX
  8
T47SSILL
 62
2
 10
4509.161
 20
-8058.574
 30
536.720
 70
    32
  0
VERTEX
  8
T47SSILL
 62
2
 10
4505.793
 20
-8068.655
 30
536.750
 70
    32
  0
VERTEX
  8
T47SSILL
 62
2
 10
4512.178
 20
-8078.198
 30
536.769
 70
    32
  0
VERTEX
  8
T47SSILL
 62
2
 10
4514.106
 20
-8104.285
 30
536.835
 70
    32
  0
VERTEX
  8
T47SSILL
 62
2
 10
4503.730
 20
-8114.329
 30
536.872
 70
    32
  0
VERTEX
  8
T47SSILL
 62
2
 10
4505.883
 20
-8116.692
 30
536.876
 70
    32
  0
VERTEX
  8
T47SSILL
 62
2
 10
4506.087
 20
-8140.104
 30
536.937
 70
    32
  0
VERTEX
  8
T47SSILL
 62
2
 10
4520.603
 20
-8168.502
 30
536.996
 70
    32
  0
VERTEX
  8
T47SSILL
 62
2
 10
4507.486
 20
-8173.120
 30
537.022
 70
    32
  0
VERTEX
  8
T47SSILL
 62
2
 10
4509.518
 20
-8181.024
 30
537.040
 70
    32
  0
VERTEX
  8
T47SSILL
 62
2
 10
4522.920
 20
-8176.199
 30
537.014
 70
    32
  0
VERTEX
  8
T47SSILL
 62
2
 10
4525.225
 20
-8184.779
 30
537.034
 70
    32
  0
VERTEX
  8
T47SSILL
 62
2
 10
4525.954
 20
-8200.502
 30
537.074
 70
    32
  0
VERTEX
  8
T47SSILL
 62
2
 10
4500.732
 20
-8218.491
 30
537.147
 70
    32
  0
VERTEX
  8
T47SSILL
 62
2
 10
4504.563
 20
-8224.217
 30
537.158
 70
    32
  0
VERTEX
  8
T47SSILL
 62
2
 10
4518.890
 20
-8215.558
 30
537.121
 70
    32
  0
VERTEX
  8
T47SSILL
 62
2
 10
4519.924
 20
-8221.787
 30
537.136
 70
    32
  0
VERTEX
  8
T47SSILL
 62
2
 10
4527.511
 20
-8219.768
 30
537.123
 70
    32
  0
VERTEX
  8
T47SSILL
 62
2
 10
4530.760
 20
-8221.990
 30
537.126
 70
    32
  0
VERTEX
  8
T47SSILL
 62
2
 10
4533.186
 20
-8242.152
 30
537.176
 70
    32
  0
VERTEX
  8
T47SSILL
 62
2
 10
4522.017
 20
-8244.045
 30
537.192
 70
    32
  0
VERTEX
  8
T47SSILL
 62
2
 10
4522.798
 20
-8250.678
 30
537.209
 70
    32
  0
VERTEX
  8
T47SSILL
 62
2
 10
4534.388
 20
-8248.914
 30
537.192
 70
    32
  0
VERTEX
  8
T47SSILL
 62
2
 10
4533.759
 20
-8257.661
 30
537.216
 70
    32
  0
VERTEX
  8
T47SSILL
 62
2
 10
4535.665
 20
-8269.147
 30
537.244
 70
    32
  0
VERTEX
  8
T47SSILL
 62
2
 10
4540.347
 20
-8274.692
 30
537.254
 70
    32
  0
VERTEX
  8
T47SSILL
 62
2
 10
4540.105
 20
-8276.612
 30
537.259
 70
    32
  0
VERTEX
  8
T47SSILL
 62
2
 10
4525.757
 20
-8278.633
 30
537.279
 70
    32
  0
VERTEX
  8
T47SSILL
 62
2
 10
4526.595
 20
-8286.096
 30
537.298
 70
    32
  0
VERTEX
  8
T47SSILL
 62
2
 10
4540.210
 20
-8284.717
 30
537.280
 70
    32
  0
VERTEX
  8
T47SSILL
 62
2
 10
4540.713
 20
-8288.714
 30
537.290
 70
    32
  0
VERTEX
  8
T47SSILL
 62
2
 10
4552.898
 20
-8299.935
 30
537.307
 70
    32
  0
VERTEX
  8
T47SSILL
 62
2
 10
4573.110
 20
-8310.344
 30
537.314
 70
    32
  0
VERTEX
  8
T47SSILL
 62
2
 10
4584.920
 20
-8309.184
 30
537.299
 70
    32
  0
VERTEX
  8
T47SSILL
 62
2
 10
4595.915
 20
-8304.799
 30
537.276
 70
    32
  0
VERTEX
  8
T47SSILL
 62
2
 10
4592.666
 20
-8293.415
 30
537.249
 70
    32
  0
VERTEX
  8
T47SSILL
 62
2
 10
4587.773
 20
-8284.425
 30
537.231
 70
    32
  0
VERTEX
  8
T47SSILL
 62
2
 10
4683.660
 20
-8214.899
 30
536.951
 70
    32
  0
VERTEX
  8
T47SSILL
 62
2
 10
4774.376
 20
-8342.518
 30
537.192
 70
    32
  0
VERTEX
  8
T47SSILL
 62
2
 10
4780.732
 20
-8337.902
 30
537.174
 70
    32
  0
VERTEX
  8
T47SSILL
 62
2
 10
4571.617
 20
-8047.249
 30
536.627
 70
    32
  0
VERTEX
  8
T47SSILL
 62
2
 10
4587.494
 20
-8047.934
 30
536.613
 70
    32
  0
VERTEX
  8
T47SSILL
 62
2
 10
4600.021
 20
-8042.655
 30
536.586
 70
    32
  0
VERTEX
  8
T47SSILL
 62
2
 10
4796.548
 20
-7899.933
 30
536.427
 70
    32
  0
VERTEX
  8
T47SSILL
 62
2
 10
4793.035
 20
-7894.194
 30
536.424
 70
    32
  0
VERTEX
  8
T47SSILL
 62
2
 10
4743.702
 20
-7930.348
 30
536.451
 70
    32
  0
VERTEX
  8
T47SSILL
 62
2
 10
4745.404
 20
-7917.223
 30
536.443
 70
    32
  0
VERTEX
  8
T47SSILL
 62
2
 10
4741.516
 20
-7900.304
 30
536.433
 70
    32
  0
VERTEX
  8
T47SSILL
 62
2
 10
4705.072
 20
-7849.218
 30
536.407
 70
    32
  0
VERTEX
  8
T47SSILL
 62
2
 10
4801.750
 20
-7779.881
 30
536.355
 70
    32
  0
VERTEX
  8
T47SSILL
 62
2
 10
4808.895
 20
-7788.217
 30
536.359
 70
    32
  0
VERTEX
  8
T47SSILL
 62
2
 10
4813.535
 20
-7787.247
 30
536.358
 70
    32
  0
VERTEX
  8
T47SSILL
 62
2
 10
4817.347
 20
-7782.734
 30
536.355
 70
    32
  0
VERTEX
  8
T47SSILL
 62
2
 10
4816.264
 20
-7781.993
 30
536.354
 70
    32
  0
VERTEX
  8
T47SSILL
 62
2
 10
4816.857
 20
-7768.692
 30
536.346
 70
    32
  0
VERTEX
  8
T47SSILL
 62
2
 10
4834.080
 20
-7756.511
 30
536.337
 70
    32
  0
VERTEX
  8
T47SSILL
 62
2
 10
4829.841
 20
-7749.773
 30
536.334
 70
    32
  0
VERTEX
  8
T47SSILL
 62
2
 10
4809.469
 20
-7764.676
 30
536.345
 70
    32
  0
VERTEX
  8
T47SSILL
 62
2
 10
4802.033
 20
-7755.788
 30
536.341
 70
    32
  0
VERTEX
  8
T47SSILL
 62
2
 10
4796.418
 20
-7759.321
 30
536.343
 70
    32
  0
VERTEX
  8
T47SSILL
 62
2
 10
4801.036
 20
-7771.237
 30
536.350
 70
    32
  0
VERTEX
  8
T47SSILL
 62
2
 10
4710.381
 20
-7836.854
 30
536.399
 70
    32
  0
VERTEX
  8
T47SSILL
 62
2
 10
4690.535
 20
-7832.506
 30
536.399
 70
    32
  0
VERTEX
  8
T47SSILL
 62
2
 10
4648.354
 20
-7772.170
 30
536.368
 70
    32
  0
VERTEX
  8
T47SSILL
 62
2
 10
4691.013
 20
-7741.845
 30
536.345
 70
    32
  0
VERTEX
  8
T47SSILL
 62
2
 10
4699.097
 20
-7743.064
 30
536.345
 70
    32
  0
VERTEX
  8
T47SSILL
 62
2
 10
4719.222
 20
-7729.322
 30
536.335
 70
    32
  0
VERTEX
  8
T47SSILL
 62
2
 10
4711.759
 20
-7720.998
 30
536.331
 70
    32
  0
VERTEX
  8
T47SSILL
 62
2
 10
4701.251
 20
-7724.702
 30
536.334
 70
    32
  0
VERTEX
  8
T47SSILL
 62
2
 10
4699.368
 20
-7716.253
 30
536.330
 70
    32
  0
VERTEX
  8
T47SSILL
 62
2
 10
4691.108
 20
-7717.344
 30
536.331
 70
    32
  0
VERTEX
  8
T47SSILL
 62
2
 10
4672.318
 20
-7686.814
 30
536.316
 70
    32
  0
VERTEX
  8
T47SSILL
 62
2
 10
4657.890
 20
-7691.729
 30
536.321
 70
    32
  0
VERTEX
  8
T47SSILL
 62
2
 10
4650.338
 20
-7699.504
 30
536.326
 70
    32
  0
VERTEX
  8
T47SSILL
 62
2
 10
4639.549
 20
-7705.375
 30
536.331
 70
    32
  0
VERTEX
  8
T47SSILL
 62
2
 10
4632.145
 20
-7716.206
 30
536.338
 70
    32
  0
VERTEX
  8
T47SSILL
 62
2
 10
4616.856
 20
-7717.383
 30
536.341
 70
    32
  0
VERTEX
  8
T47SSILL
 62
2
 10
4612.246
 20
-7712.987
 30
536.339
 70
    32
  0
VERTEX
  8
T47SSILL
 62
2
 10
4608.678
 20
-7711.979
 30
536.338
 70
    32
  0
VERTEX
  8
T47SSILL
 62
2
 10
4605.373
 20
-7714.488
 30
536.340
 70
    32
  0
VERTEX
  8
T47SSILL
 62
2
 10
4586.663
 20
-7699.389
 30
536.334
 70
    32
  0
VERTEX
  8
T47SSILL
 62
2
 10
4604.458
 20
-7686.793
 30
536.324
 70
    32
  0
VERTEX
  8
T47SSILL
 62
2
 10
4622.041
 20
-7689.076
 30
536.324
 70
    32
  0
VERTEX
  8
T47SSILL
 62
2
 10
4631.460
 20
-7702.197
 30
536.330
 70
    32
  0
VERTEX
  8
T47SSILL
 62
2
 10
4637.803
 20
-7697.263
 30
536.326
 70
    32
  0
VERTEX
  8
T47SSILL
 62
2
 10
4625.129
 20
-7679.962
 30
536.318
 70
    32
  0
VERTEX
  8
T47SSILL
 62
2
 10
4622.389
 20
-7673.335
 30
536.314
 70
    32
  0
VERTEX
  8
T47SSILL
 62
2
 10
4631.725
 20
-7666.664
 30
536.309
 70
    32
  0
VERTEX
  8
T47SSILL
 62
2
 10
4636.382
 20
-7669.172
 30
536.310
 70
    32
  0
VERTEX
  8
T47SSILL
 62
2
 10
4652.690
 20
-7685.470
 30
536.318
 70
    32
  0
VERTEX
  8
T47SSILL
 62
2
 10
4658.714
 20
-7681.750
 30
536.315
 70
    32
  0
VERTEX
  8
T47SSILL
 62
2
 10
4649.775
 20
-7668.390
 30
536.308
 70
    32
  0
VERTEX
  8
T47SSILL
 62
2
 10
4656.239
 20
-7657.915
 30
536.301
 70
    32
  0
VERTEX
  8
T47SSILL
 62
2
 10
4660.809
 20
-7654.596
 30
536.299
 70
    32
  0
VERTEX
  8
T47SSILL
 62
2
 10
4657.491
 20
-7648.825
 30
536.296
 70
    32
  0
VERTEX
  8
T47SSILL
 62
2
 10
4684.491
 20
-7628.780
 30
536.281
 70
    32
  0
VERTEX
  8
T47SSILL
 62
2
 10
4680.511
 20
-7623.599
 30
536.278
 70
    32
  0
VERTEX
  8
T47SSILL
 62
2
 10
4558.040
 20
-7711.341
 30
536.347
 70
    32
  0
VERTEX
  8
T47SSILL
 62
2
 10
4543.301
 20
-7705.465
 30
536.360
 70
    32
  0
VERTEX
  8
T47SSILL
 62
2
 10
4535.609
 20
-7700.580
 30
536.367
 70
    32
  0
VERTEX
  8
T47SSILL
 62
2
 10
4510.069
 20
-7671.570
 30
536.394
 70
    32
  0
VERTEX
  8
T47SSILL
 62
2
 10
4503.301
 20
-7672.014
 30
536.399
 70
    32
  0
VERTEX
  8
T47SSILL
 62
2
 10
4501.729
 20
-7675.555
 30
536.400
 70
    32
  0
VERTEX
  8
T47SSILL
 62
2
 10
4502.538
 20
-7678.022
 30
536.399
 70
    32
  0
VERTEX
  8
T47SSILL
 62
2
 10
4520.116
 20
-7707.032
 30
536.378
 70
    32
  0
VERTEX
  8
T47SSILL
 62
2
 10
4524.919
 20
-7722.959
 30
536.370
 70
    32
  0
VERTEX
  8
T47SSILL
 62
2
 10
4530.221
 20
-7731.761
 30
536.364
 70
    32
  0
VERTEX
  8
T47SSILL
 62
2
 10
4471.456
 20
-7774.002
 30
536.400
 70
    32
  0
VERTEX
  8
T47SSILL
 62
2
 10
4467.124
 20
-7769.840
 30
536.404
 70
    32
  0
VERTEX
  8
T47SSILL
 62
2
 10
4461.110
 20
-7759.155
 30
536.412
 70
    32
  0
VERTEX
  8
T47SSILL
 62
2
 10
4460.469
 20
-7746.858
 30
536.415
 70
    32
  0
VERTEX
  8
T47SSILL
 62
2
 10
4448.132
 20
-7739.783
 30
536.427
 70
    32
  0
VERTEX
  8
T47SSILL
 62
2
 10
4437.315
 20
-7722.334
 30
536.440
 70
    32
  0
VERTEX
  8
T47SSILL
 62
2
 10
4432.905
 20
-7718.665
 30
536.444
 70
    32
  0
VERTEX
  8
T47SSILL
 62
2
 10
4419.359
 20
-7714.431
 30
536.456
 70
    32
  0
VERTEX
  8
T47SSILL
 62
2
 10
4404.812
 20
-7722.487
 30
536.465
 70
    32
  0
VERTEX
  8
T47SSILL
 62
2
 10
4400.526
 20
-7718.837
 30
536.470
 70
    32
  0
VERTEX
  8
T47SSILL
 62
2
 10
4401.541
 20
-7714.828
 30
536.470
 70
    32
  0
VERTEX
  8
T47SSILL
 62
2
 10
4556.329
 20
-7604.599
 30
536.374
 70
    32
  0
VERTEX
  8
T47SSILL
 62
2
 10
4599.381
 20
-7624.381
 30
536.335
 70
    32
  0
VERTEX
  8
T47SSILL
 62
2
 10
4600.992
 20
-7630.955
 30
536.332
 70
    32
  0
VERTEX
  8
T47SSILL
 62
2
 10
4604.826
 20
-7633.079
 30
536.328
 70
    32
  0
VERTEX
  8
T47SSILL
 62
2
 10
4611.869
 20
-7648.034
 30
536.319
 70
    32
  0
VERTEX
  8
T47SSILL
 62
2
 10
4617.762
 20
-7655.098
 30
536.313
 70
    32
  0
VERTEX
  8
T47SSILL
 62
2
 10
4624.090
 20
-7653.448
 30
536.308
 70
    32
  0
VERTEX
  8
T47SSILL
 62
2
 10
4624.665
 20
-7657.393
 30
536.307
 70
    32
  0
VERTEX
  8
T47SSILL
 62
2
 10
4626.429
 20
-7658.621
 30
536.305
 70
    32
  0
VERTEX
  8
T47SSILL
 62
2
 10
4635.525
 20
-7650.270
 30
536.300
 70
    32
  0
VERTEX
  8
T47SSILL
 62
2
 10
4635.648
 20
-7642.328
 30
536.302
 70
    32
  0
VERTEX
  8
T47SSILL
 62
2
 10
4631.788
 20
-7631.605
 30
536.307
 70
    32
  0
VERTEX
  8
T47SSILL
 62
2
 10
4626.887
 20
-7624.257
 30
536.313
 70
    32
  0
VERTEX
  8
T47SSILL
 62
2
 10
4632.537
 20
-7617.318
 30
536.310
 70
    32
  0
VERTEX
  8
T47SSILL
 62
2
 10
4642.727
 20
-7613.626
 30
536.303
 70
    32
  0
VERTEX
  8
T47SSILL
 62
2
 10
4638.268
 20
-7606.284
 30
536.308
 70
    32
  0
VERTEX
  8
T47SSILL
 62
2
 10
4612.387
 20
-7621.262
 30
536.325
 70
    32
  0
VERTEX
  8
T47SSILL
 62
2
 10
4597.597
 20
-7614.114
 30
536.339
 70
    32
  0
VERTEX
  8
T47SSILL
 62
2
 10
4592.778
 20
-7592.308
 30
536.348
 70
    32
  0
VERTEX
  8
T47SSILL
 62
2
 10
4585.678
 20
-7593.647
 30
536.353
 70
    32
  0
VERTEX
  8
T47SSILL
 62
2
 10
4587.023
 20
-7601.506
 30
536.350
 70
    32
  0
VERTEX
  8
T47SSILL
 62
2
 10
4582.424
 20
-7607.790
 30
536.352
 70
    32
  0
VERTEX
  8
T47SSILL
 62
2
 10
4563.898
 20
-7599.102
 30
536.369
 70
    32
  0
VERTEX
  8
T47SSILL
 62
2
 10
4588.113
 20
-7582.280
 30
536.354
 70
    32
  0
VERTEX
  8
T47SSILL
 62
2
 10
4599.643
 20
-7583.287
 30
536.345
 70
    32
  0
VERTEX
  8
T47SSILL
 62
2
 10
4605.932
 20
-7581.883
 30
536.340
 70
    32
  0
VERTEX
  8
T47SSILL
 62
2
 10
4609.122
 20
-7575.313
 30
536.339
 70
    32
  0
VERTEX
  8
T47SSILL
 62
2
 10
4616.235
 20
-7573.092
 30
536.334
 70
    32
  0
VERTEX
  8
T47SSILL
 62
2
 10
4621.806
 20
-7567.846
 30
536.331
 70
    32
  0
VERTEX
  8
T47SSILL
 62
2
 10
4629.143
 20
-7552.265
 30
536.329
 70
    32
  0
VERTEX
  8
T47SSILL
 62
2
 10
4667.530
 20
-7525.370
 30
536.305
 70
    32
  0
VERTEX
  8
T47SSILL
 62
2
 10
4663.251
 20
-7518.878
 30
536.310
 70
    32
  0
VERTEX
  8
T47SSILL
 62
2
 10
4627.974
 20
-7544.497
 30
536.331
 70
    32
  0
VERTEX
  8
T47SSILL
 62
2
 10
4623.916
 20
-7538.609
 30
536.336
 70
    32
  0
VERTEX
  8
T47SSILL
 62
2
 10
4618.363
 20
-7535.770
 30
536.341
 70
    32
  0
VERTEX
  8
T47SSILL
 62
2
 10
4606.277
 20
-7542.257
 30
536.349
 70
    32
  0
VERTEX
  8
T47SSILL
 62
2
 10
4603.357
 20
-7550.703
 30
536.349
 70
    32
  0
VERTEX
  8
T47SSILL
 62
2
 10
4598.446
 20
-7556.636
 30
536.352
 70
    32
  0
VERTEX
  8
T47SSILL
 62
2
 10
4598.300
 20
-7563.865
 30
536.350
 70
    32
  0
VERTEX
  8
T47SSILL
 62
2
 10
4594.676
 20
-7568.788
 30
536.352
 70
    32
  0
VERTEX
  8
T47SSILL
 62
2
 10
4368.587
 20
-7729.379
 30
536.492
 70
    32
  0
VERTEX
  8
T47SSILL
 62
2
 10
4354.298
 20
-7731.030
 30
536.503
 70
    32
  0
VERTEX
  8
T47SSILL
 62
2
 10
4349.406
 20
-7730.002
 30
536.507
 70
    32
  0
VERTEX
  8
T47SSILL
 62
2
 10
4304.166
 20
-7673.414
 30
536.557
 70
    32
  0
VERTEX
  8
T47SSILL
 62
2
 10
4307.313
 20
-7663.930
 30
536.557
 70
    32
  0
VERTEX
  8
T47SSILL
 62
2
 10
4318.727
 20
-7663.276
 30
536.548
 70
    32
  0
VERTEX
  8
T47SSILL
 62
2
 10
4331.937
 20
-7674.407
 30
536.535
 70
    32
  0
VERTEX
  8
T47SSILL
 62
2
 10
4335.071
 20
-7674.967
 30
536.532
 70
    32
  0
VERTEX
  8
T47SSILL
 62
2
 10
4338.206
 20
-7673.126
 30
536.530
 70
    32
  0
VERTEX
  8
T47SSILL
 62
2
 10
4341.927
 20
-7668.788
 30
536.528
 70
    32
  0
VERTEX
  8
T47SSILL
 62
2
 10
4328.711
 20
-7658.098
 30
536.541
 70
    32
  0
VERTEX
  8
T47SSILL
 62
2
 10
4327.041
 20
-7651.894
 30
536.544
 70
    32
  0
VERTEX
  8
T47SSILL
 62
2
 10
4666.105
 20
-7408.058
 30
536.334
 70
    32
  0
VERTEX
  8
T47SSILL
 62
2
 10
4661.786
 20
-7404.213
 30
536.338
 70
    32
  0
VERTEX
  8
T47SSILL
 62
2
 10
4318.691
 20
-7649.559
 30
536.551
 70
    32
  0
VERTEX
  8
T47SSILL
 62
2
 10
4309.075
 20
-7649.234
 30
536.559
 70
    32
  0
VERTEX
  8
T47SSILL
 62
2
 10
4303.802
 20
-7646.628
 30
536.564
 70
    32
  0
VERTEX
  8
T47SSILL
 62
2
 10
4295.719
 20
-7652.171
 30
536.569
 70
    32
  0
VERTEX
  8
T47SSILL
 62
2
 10
4284.006
 20
-7644.753
 30
536.580
 70
    32
  0
VERTEX
  8
T47SSILL
 62
2
 10
4223.944
 20
-7561.298
 30
536.590
 70
    32
  0
VERTEX
  8
T47SSILL
 62
2
 10
4234.291
 20
-7555.420
 30
536.639
 70
    32
  0
VERTEX
  8
T47SSILL
 62
2
 10
4251.462
 20
-7553.530
 30
536.628
 70
    32
  0
VERTEX
  8
T47SSILL
 62
2
 10
4255.535
 20
-7556.135
 30
536.624
 70
    32
  0
VERTEX
  8
T47SSILL
 62
2
 10
4254.914
 20
-7563.240
 30
536.622
 70
    32
  0
VERTEX
  8
T47SSILL
 62
2
 10
4272.717
 20
-7576.489
 30
536.605
 70
    32
  0
VERTEX
  8
T47SSILL
 62
2
 10
4283.346
 20
-7575.205
 30
536.597
 70
    32
  0
VERTEX
  8
T47SSILL
 62
2
 10
4294.152
 20
-7571.611
 30
536.589
 70
    32
  0
VERTEX
  8
T47SSILL
 62
2
 10
4300.073
 20
-7567.748
 30
536.586
 70
    32
  0
VERTEX
  8
T47SSILL
 62
2
 10
4325.091
 20
-7543.471
 30
536.572
 70
    32
  0
VERTEX
  8
T47SSILL
 62
2
 10
4325.847
 20
-7537.905
 30
536.572
 70
    32
  0
VERTEX
  8
T47SSILL
 62
2
 10
4319.086
 20
-7518.382
 30
536.582
 70
    32
  0
VERTEX
  8
T47SSILL
 62
2
 10
4309.513
 20
-7503.847
 30
536.594
 70
    32
  0
VERTEX
  8
T47SSILL
 62
2
 10
4303.191
 20
-7497.094
 30
536.600
 70
    32
  0
VERTEX
  8
T47SSILL
 62
2
 10
4284.892
 20
-7488.568
 30
536.617
 70
    32
  0
VERTEX
  8
T47SSILL
 62
2
 10
4277.515
 20
-7487.272
 30
536.623
 70
    32
  0
VERTEX
  8
T47SSILL
 62
2
 10
4270.493
 20
-7488.117
 30
536.628
 70
    32
  0
VERTEX
  8
T47SSILL
 62
2
 10
4264.604
 20
-7493.375
 30
536.632
 70
    32
  0
VERTEX
  8
T47SSILL
 62
2
 10
4257.960
 20
-7521.324
 30
536.630
 70
    32
  0
VERTEX
  8
T47SSILL
 62
2
 10
4250.127
 20
-7532.467
 30
536.634
 70
    32
  0
VERTEX
  8
T47SSILL
 62
2
 10
4232.826
 20
-7543.940
 30
536.645
 70
    32
  0
VERTEX
  8
T47SSILL
 62
2
 10
4226.245
 20
-7545.992
 30
536.623
 70
    32
  0
VERTEX
  8
T47SSILL
 62
2
 10
4211.621
 20
-7544.178
 30
536.570
 70
    32
  0
VERTEX
  8
T47SSILL
 62
2
 10
4200.892
 20
-7530.155
 30
536.552
 70
    32
  0
VERTEX
  8
T47SSILL
 62
2
 10
4200.507
 20
-7523.017
 30
536.561
 70
    32
  0
VERTEX
  8
T47SSILL
 62
2
 10
4212.253
 20
-7460.122
 30
536.681
 70
    32
  0
VERTEX
  8
T47SSILL
 62
2
 10
4213.394
 20
-7456.521
 30
536.681
 70
    32
  0
VERTEX
  8
T47SSILL
 62
2
 10
4220.903
 20
-7449.859
 30
536.677
 70
    32
  0
VERTEX
  8
T47SSILL
 62
2
 10
4222.755
 20
-7452.656
 30
536.675
 70
    32
  0
VERTEX
  8
T47SSILL
 62
2
 10
4239.957
 20
-7440.603
 30
536.664
 70
    32
  0
VERTEX
  8
T47SSILL
 62
2
 10
4236.506
 20
-7435.370
 30
536.668
 70
    32
  0
VERTEX
  8
T47SSILL
 62
2
 10
4242.990
 20
-7430.936
 30
536.664
 70
    32
  0
VERTEX
  8
T47SSILL
 62
2
 10
4272.324
 20
-7436.353
 30
536.639
 70
    32
  0
VERTEX
  8
T47SSILL
 62
2
 10
4273.649
 20
-7441.782
 30
536.637
 70
    32
  0
VERTEX
  8
T47SSILL
 62
2
 10
4283.563
 20
-7445.935
 30
536.628
 70
    32
  0
VERTEX
  8
T47SSILL
 62
2
 10
4287.915
 20
-7445.687
 30
536.625
 70
    32
  0
VERTEX
  8
T47SSILL
 62
2
 10
4290.183
 20
-7440.003
 30
536.624
 70
    32
  0
VERTEX
  8
T47SSILL
 62
2
 10
4323.624
 20
-7445.129
 30
536.597
 70
    32
  0
VERTEX
  8
T47SSILL
 62
2
 10
4331.523
 20
-7438.409
 30
536.592
 70
    32
  0
VERTEX
  8
T47SSILL
 62
2
 10
4291.799
 20
-7431.543
 30
536.625
 70
    32
  0
VERTEX
  8
T47SSILL
 62
2
 10
4290.967
 20
-7429.433
 30
536.626
 70
    32
  0
VERTEX
  8
T47SSILL
 62
2
 10
4280.497
 20
-7427.716
 30
536.635
 70
    32
  0
VERTEX
  8
T47SSILL
 62
2
 10
4277.612
 20
-7427.906
 30
536.637
 70
    32
  0
VERTEX
  8
T47SSILL
 62
2
 10
4276.579
 20
-7429.815
 30
536.637
 70
    32
  0
VERTEX
  8
T47SSILL
 62
2
 10
4250.745
 20
-7425.394
 30
536.659
 70
    32
  0
VERTEX
  8
T47SSILL
 62
2
 10
4287.772
 20
-7398.266
 30
536.636
 70
    32
  0
VERTEX
  8
T47SSILL
 62
2
 10
4291.563
 20
-7403.368
 30
536.632
 70
    32
  0
VERTEX
  8
T47SSILL
 62
2
 10
4297.836
 20
-7398.326
 30
536.628
 70
    32
  0
VERTEX
  8
T47SSILL
 62
2
 10
4294.060
 20
-7393.860
 30
536.632
 70
    32
  0
VERTEX
  8
T47SSILL
 62
2
 10
4308.855
 20
-7383.602
 30
536.623
 70
    32
  0
VERTEX
  8
T47SSILL
 62
2
 10
4323.440
 20
-7404.417
 30
536.606
 70
    32
  0
VERTEX
  8
T47SSILL
 62
2
 10
4331.289
 20
-7398.702
 30
536.602
 70
    32
  0
VERTEX
  8
T47SSILL
 62
2
 10
4316.661
 20
-7377.055
 30
536.618
 70
    32
  0
VERTEX
  8
T47SSILL
 62
2
 10
4338.865
 20
-7362.145
 30
536.604
 70
    32
  0
VERTEX
  8
T47SSILL
 62
2
 10
4346.707
 20
-7373.029
 30
536.596
 70
    32
  0
VERTEX
  8
T47SSILL
 62
2
 10
4352.344
 20
-7369.079
 30
536.592
 70
    32
  0
VERTEX
  8
T47SSILL
 62
2
 10
4344.770
 20
-7358.115
 30
536.601
 70
    32
  0
VERTEX
  8
T47SSILL
 62
2
 10
4982.214
 20
-6900.177
 30
536.031
 70
    32
  0
VERTEX
  8
T47SSILL
 62
2
 10
4994.777
 20
-6893.961
 30
536.017
 70
    32
  0
VERTEX
  8
T47SSILL
 62
2
 10
5002.362
 20
-6910.630
 30
536.021
 70
    32
  0
VERTEX
  8
T47SSILL
 62
2
 10
5014.621
 20
-6903.980
 30
536.007
 70
    32
  0
VERTEX
  8
T47SSILL
 62
2
 10
5019.796
 20
-6900.139
 30
536.000
 70
    32
  0
VERTEX
  8
T47SSILL
 62
2
 10
5015.260
 20
-6894.588
 30
536.001
 70
    32
  0
VERTEX
  8
T47SSILL
 62
2
 10
5006.326
 20
-6899.986
 30
536.011
 70
    32
  0
VERTEX
  8
T47SSILL
 62
2
 10
5005.380
 20
-6885.562
 30
536.003
 70
    32
  0
VERTEX
  8
T47SSILL
 62
2
 10
5012.853
 20
-6878.387
 30
535.993
 70
    32
  0
VERTEX
  8
T47SSILL
 62
2
 10
5073.789
 20
-6833.860
 30
535.915
 70
    32
  0
VERTEX
  8
T47SSILL
 62
2
 10
5082.884
 20
-6834.384
 30
535.907
 70
    32
  0
VERTEX
  8
T47SSILL
 62
2
 10
5085.726
 20
-6835.518
 30
535.906
 70
    32
  0
VERTEX
  8
T47SSILL
 62
2
 10
5114.547
 20
-6874.808
 30
535.906
 70
    32
  0
VERTEX
  8
T47SSILL
 62
2
 10
5210.541
 20
-7008.641
 30
535.909
 70
    32
  0
VERTEX
  8
T47SSILL
 62
2
 10
5214.067
 20
-7022.648
 30
535.915
 70
    32
  0
VERTEX
  8
T47SSILL
 62
2
 10
5212.067
 20
-7036.126
 30
535.925
 70
    32
  0
VERTEX
  8
T47SSILL
 62
2
 10
5203.602
 20
-7047.166
 30
535.939
 70
    32
  0
VERTEX
  8
T47SSILL
 62
2
 10
5107.700
 20
-7115.720
 30
536.055
 70
    32
  0
VERTEX
  8
T47SSILL
 62
2
 10
5109.929
 20
-7121.453
 30
536.052
 70
    32
  0
VERTEX
  8
T47SSILL
 62
2
 10
5141.155
 20
-7099.846
 30
536.023
 70
    32
  0
VERTEX
  8
T47SSILL
 62
2
 10
5142.850
 20
-7118.363
 30
536.026
 70
    32
  0
VERTEX
  8
T47SSILL
 62
2
 10
5145.851
 20
-7123.942
 30
536.023
 70
    32
  0
VERTEX
  8
T47SSILL
 62
2
 10
5205.511
 20
-7208.262
 30
535.973
 70
    32
  0
VERTEX
  8
T47SSILL
 62
2
 10
5211.522
 20
-7203.811
 30
535.970
 70
    32
  0
VERTEX
  8
T47SSILL
 62
2
 10
5152.471
 20
-7122.137
 30
536.018
 70
    32
  0
VERTEX
  8
T47SSILL
 62
2
 10
5148.152
 20
-7106.552
 30
536.022
 70
    32
  0
VERTEX
  8
T47SSILL
 62
2
 10
5152.297
 20
-7093.968
 30
536.010
 70
    32
  0
VERTEX
  8
T47SSILL
 62
2
 10
5157.205
 20
-7087.812
 30
536.003
 70
    32
  0
VERTEX
  8
T47SSILL
 62
2
 10
5214.427
 20
-7046.326
 30
535.929
 70
    32
  0
VERTEX
  8
T47SSILL
 62
2
 10
5217.907
 20
-7042.060
 30
535.924
 70
    32
  0
VERTEX
  8
T47SSILL
 62
2
 10
5223.590
 20
-7026.833
 30
535.910
 70
    32
  0
VERTEX
  8
T47SSILL
 62
2
 10
5348.075
 20
-7203.157
 30
535.953
 70
    32
  0
VERTEX
  8
T47SSILL
 62
2
 10
5337.745
 20
-7263.675
 30
535.989
 70
    32
  0
VERTEX
  8
T47SSILL
 62
2
 10
5272.992
 20
-7310.236
 30
536.024
 70
    32
  0
VERTEX
  8
T47SSILL
 62
2
 10
5276.471
 20
-7316.000
 30
536.027
 70
    32
  0
VERTEX
  8
T47SSILL
 62
2
 10
5343.770
 20
-7268.127
 30
535.991
 70
    32
  0
VERTEX
  8
T47SSILL
 62
2
 10
5353.629
 20
-7210.873
 30
535.957
 70
    32
  0
VERTEX
  8
T47SSILL
 62
2
 10
5368.186
 20
-7231.313
 30
535.967
 70
    32
  0
VERTEX
  8
T47SSILL
 62
2
 10
5365.878
 20
-7236.227
 30
535.970
 70
    32
  0
VERTEX
  8
T47SSILL
 62
2
 10
5370.019
 20
-7237.981
 30
535.970
 70
    32
  0
VERTEX
  8
T47SSILL
 62
2
 10
5367.309
 20
-7239.942
 30
535.972
 70
    32
  0
VERTEX
  8
T47SSILL
 62
2
 10
5373.912
 20
-7249.976
 30
535.977
 70
    32
  0
VERTEX
  8
T47SSILL
 62
2
 10
5375.244
 20
-7249.013
 30
535.976
 70
    32
  0
VERTEX
  8
T47SSILL
 62
2
 10
5374.389
 20
-7291.454
 30
536.001
 70
    32
  0
VERTEX
  8
T47SSILL
 62
2
 10
5359.412
 20
-7303.434
 30
536.009
 70
    32
  0
VERTEX
  8
T47SSILL
 62
2
 10
5341.333
 20
-7322.173
 30
536.022
 70
    32
  0
VERTEX
  8
T47SSILL
 62
2
 10
5338.184
 20
-7333.313
 30
536.029
 70
    32
  0
VERTEX
  8
T47SSILL
 62
2
 10
5339.208
 20
-7344.663
 30
536.036
 70
    32
  0
VERTEX
  8
T47SSILL
 62
2
 10
5352.871
 20
-7353.205
 30
536.039
 70
    32
  0
VERTEX
  8
T47SSILL
 62
2
 10
5355.865
 20
-7354.332
 30
536.039
 70
    32
  0
VERTEX
  8
T47SSILL
 62
2
 10
5359.545
 20
-7352.473
 30
536.038
 70
    32
  0
VERTEX
  8
T47SSILL
 62
2
 10
5369.937
 20
-7359.102
 30
536.040
 70
    32
  0
VERTEX
  8
T47SSILL
 62
2
 10
5373.540
 20
-7359.866
 30
536.040
 70
    32
  0
VERTEX
  8
T47SSILL
 62
2
 10
5392.049
 20
-7359.737
 30
536.038
 70
    32
  0
VERTEX
  8
T47SSILL
 62
2
 10
5398.322
 20
-7357.200
 30
536.036
 70
    32
  0
VERTEX
  8
T47SSILL
 62
2
 10
5397.321
 20
-7339.146
 30
536.025
 70
    32
  0
VERTEX
  8
T47SSILL
 62
2
 10
5401.720
 20
-7333.051
 30
536.021
 70
    32
  0
VERTEX
  8
T47SSILL
 62
2
 10
5402.715
 20
-7328.600
 30
536.018
 70
    32
  0
VERTEX
  8
T47SSILL
 62
2
 10
5406.276
 20
-7293.626
 30
535.998
 70
    32
  0
VERTEX
  8
T47SSILL
 62
2
 10
5408.399
 20
-7287.184
 30
535.994
 70
    32
  0
VERTEX
  8
T47SSILL
 62
2
 10
5414.431
 20
-7295.086
 30
535.998
 70
    32
  0
VERTEX
  8
T47SSILL
 62
2
 10
5411.831
 20
-7300.339
 30
536.001
 70
    32
  0
VERTEX
  8
T47SSILL
 62
2
 10
5418.425
 20
-7317.275
 30
536.010
 70
    32
  0
VERTEX
  8
T47SSILL
 62
2
 10
5415.439
 20
-7318.594
 30
536.011
 70
    32
  0
VERTEX
  8
T47SSILL
 62
2
 10
5409.505
 20
-7326.440
 30
536.016
 70
    32
  0
VERTEX
  8
T47SSILL
 62
2
 10
5413.740
 20
-7337.188
 30
536.022
 70
    32
  0
VERTEX
  8
T47SSILL
 62
2
 10
5420.898
 20
-7347.111
 30
536.027
 70
    32
  0
VERTEX
  8
T47SSILL
 62
2
 10
5435.796
 20
-7350.793
 30
536.027
 70
    32
  0
VERTEX
  8
T47SSILL
 62
2
 10
5445.225
 20
-7345.579
 30
536.023
 70
    32
  0
VERTEX
  8
T47SSILL
 62
2
 10
5449.684
 20
-7346.011
 30
536.023
 70
    32
  0
VERTEX
  8
T47SSILL
 62
2
 10
5451.011
 20
-7349.437
 30
536.025
 70
    32
  0
VERTEX
  8
T47SSILL
 62
2
 10
5452.013
 20
-7354.452
 30
536.027
 70
    32
  0
VERTEX
  8
T47SSILL
 62
2
 10
5450.700
 20
-7363.942
 30
536.033
 70
    32
  0
VERTEX
  8
T47SSILL
 62
2
 10
5442.150
 20
-7376.162
 30
536.041
 70
    32
  0
VERTEX
  8
T47SSILL
 62
2
 10
5305.253
 20
-7474.253
 30
536.115
 70
    32
  0
VERTEX
  8
T47SSILL
 62
2
 10
5310.082
 20
-7480.750
 30
536.118
 70
    32
  0
VERTEX
  8
T47SSILL
 62
2
 10
5362.267
 20
-7442.685
 30
536.089
 70
    32
  0
VERTEX
  8
T47SSILL
 62
2
 10
5365.981
 20
-7447.854
 30
536.092
 70
    32
  0
VERTEX
  8
T47SSILL
 62
2
 10
5375.661
 20
-7440.760
 30
536.087
 70
    32
  0
VERTEX
  8
T47SSILL
 62
2
 10
5371.963
 20
-7435.613
 30
536.084
 70
    32
  0
VERTEX
  8
T47SSILL
 62
2
 10
5376.810
 20
-7432.077
 30
536.081
 70
    32
  0
VERTEX
  8
T47SSILL
 62
2
 10
5380.501
 20
-7437.214
 30
536.084
 70
    32
  0
VERTEX
  8
T47SSILL
 62
2
 10
5390.180
 20
-7430.120
 30
536.079
 70
    32
  0
VERTEX
  8
T47SSILL
 62
2
 10
5386.505
 20
-7425.005
 30
536.076
 70
    32
  0
VERTEX
  8
T47SSILL
 62
2
 10
5449.387
 20
-7379.449
 30
536.042
 70
    32
  0
VERTEX
  8
T47SSILL
 62
2
 10
5455.745
 20
-7369.713
 30
536.036
 70
    32
  0
VERTEX
  8
T47SSILL
 62
2
 10
5459.312
 20
-7357.246
 30
536.028
 70
    32
  0
VERTEX
  8
T47SSILL
 62
2
 10
5509.198
 20
-7425.988
 30
536.055
 70
    32
  0
VERTEX
  8
T47SSILL
 62
2
 10
5512.052
 20
-7436.250
 30
536.057
 70
    32
  0
VERTEX
  8
T47SSILL
 62
2
 10
5509.187
 20
-7449.620
 30
536.067
 70
    32
  0
VERTEX
  8
T47SSILL
 62
2
 10
5501.440
 20
-7459.433
 30
536.083
 70
    32
  0
VERTEX
  8
T47SSILL
 62
2
 10
5375.777
 20
-7550.906
 30
536.152
 70
    32
  0
VERTEX
  8
T47SSILL
 62
2
 10
5378.754
 20
-7555.165
 30
536.154
 70
    32
  0
VERTEX
  8
T47SSILL
 62
2
 10
5507.866
 20
-7463.685
 30
536.083
 70
    32
  0
VERTEX
  8
T47SSILL
 62
2
 10
5514.371
 20
-7456.287
 30
536.063
 70
    32
  0
VERTEX
  8
T47SSILL
 62
2
 10
5519.404
 20
-7440.116
 30
536.058
 70
    32
  0
VERTEX
  8
T47SSILL
 62
2
 10
5618.783
 20
-7578.240
 30
536.088
 70
    32
  0
VERTEX
  8
T47SSILL
 62
2
 10
5639.590
 20
-7650.428
 30
536.102
 70
    32
  0
VERTEX
  8
T47SSILL
 62
2
 10
5605.510
 20
-7602.156
 30
536.091
 70
    32
  0
VERTEX
  8
T47SSILL
 62
2
 10
5599.684
 20
-7606.129
 30
536.091
 70
    32
  0
VERTEX
  8
T47SSILL
 62
2
 10
5608.941
 20
-7619.323
 30
536.094
 70
    32
  0
VERTEX
  8
T47SSILL
 62
2
 10
5600.052
 20
-7626.235
 30
536.094
 70
    32
  0
VERTEX
  8
T47SSILL
 62
2
 10
5602.899
 20
-7631.042
 30
536.095
 70
    32
  0
VERTEX
  8
T47SSILL
 62
2
 10
5612.706
 20
-7624.308
 30
536.095
 70
    32
  0
VERTEX
  8
T47SSILL
 62
2
 10
5645.351
 20
-7671.021
 30
536.105
 70
    32
  0
VERTEX
  8
T47SSILL
 62
2
 10
5851.072
 20
-8382.038
 30
536.288
 70
    32
  0
VERTEX
  8
T47SSILL
 62
2
 10
5814.392
 20
-8447.329
 30
536.421
 70
    32
  0
VERTEX
  8
T47SSILL
 62
2
 10
5878.874
 20
-8612.311
 30
536.491
 70
    32
  0
VERTEX
  8
T47SSILL
 62
2
 10
5877.845
 20
-8626.647
 30
536.492
 70
    32
  0
VERTEX
  8
T47SSILL
 62
2
 10
5878.995
 20
-8635.546
 30
536.491
 70
    32
  0
VERTEX
  8
T47SSILL
 62
2
 10
5871.599
 20
-8641.995
 30
536.498
 70
    32
  0
VERTEX
  8
T47SSILL
 62
2
 10
5870.806
 20
-8644.827
 30
536.498
 70
    32
  0
VERTEX
  8
T47SSILL
 62
2
 10
5873.405
 20
-8655.610
 30
536.496
 70
    32
  0
VERTEX
  8
T47SSILL
 62
2
 10
5876.376
 20
-8657.815
 30
536.493
 70
    32
  0
VERTEX
  8
T47SSILL
 62
2
 10
5890.783
 20
-8653.935
 30
536.479
 70
    32
  0
VERTEX
  8
T47SSILL
 62
2
 10
5896.828
 20
-8658.486
 30
536.473
 70
    32
  0
VERTEX
  8
T47SSILL
 62
2
 10
5927.008
 20
-8735.804
 30
536.441
 70
    32
  0
VERTEX
  8
T47SSILL
 62
2
 10
5933.608
 20
-8733.699
 30
536.435
 70
    32
  0
VERTEX
  8
T47SSILL
 62
2
 10
5822.683
 20
-8448.663
 30
536.410
 70
    32
  0
VERTEX
  8
T47SSILL
 62
2
 10
5853.989
 20
-8392.055
 30
536.296
 70
    32
  0
VERTEX
  8
T47SSILL
 62
2
 10
5874.708
 20
-8464.119
 30
536.348
 70
    32
  0
VERTEX
  8
T47SSILL
 62
2
 10
5881.490
 20
-8462.538
 30
536.336
 70
    32
  0
VERTEX
  8
T47SSILL
 62
2
 10
5879.807
 20
-8456.712
 30
536.331
 70
    32
  0
VERTEX
  8
T47SSILL
 62
2
 10
5885.539
 20
-8452.634
 30
536.318
 70
    32
  0
VERTEX
  8
T47SSILL
 62
2
 10
5878.389
 20
-8442.282
 30
536.317
 70
    32
  0
VERTEX
  8
T47SSILL
 62
2
 10
5876.124
 20
-8443.955
 30
536.322
 70
    32
  0
VERTEX
  8
T47SSILL
 62
2
 10
5624.031
 20
-7572.377
 30
536.088
 70
    32
  0
VERTEX
  8
T47SSILL
 62
2
 10
5621.423
 20
-7569.168
 30
536.087
 70
    32
  0
VERTEX
  8
T47SSILL
 62
2
 10
5657.943
 20
-7543.333
 30
536.086
 70
    32
  0
VERTEX
  8
T47SSILL
 62
2
 10
5653.214
 20
-7536.536
 30
536.085
 70
    32
  0
VERTEX
  8
T47SSILL
 62
2
 10
5617.551
 20
-7563.041
 30
536.086
 70
    32
  0
VERTEX
  8
T47SSILL
 62
2
 10
5555.323
 20
-7477.774
 30
536.067
 70
    32
  0
VERTEX
  8
T47SSILL
 62
2
 10
5567.741
 20
-7478.791
 30
536.068
 70
    32
  0
VERTEX
  8
T47SSILL
 62
2
 10
5582.958
 20
-7472.942
 30
536.069
 70
    32
  0
VERTEX
  8
T47SSILL
 62
2
 10
5630.242
 20
-7438.929
 30
536.068
 70
    32
  0
VERTEX
  8
T47SSILL
 62
2
 10
5626.089
 20
-7432.688
 30
536.066
 70
    32
  0
VERTEX
  8
T47SSILL
 62
2
 10
5577.576
 20
-7468.201
 30
536.067
 70
    32
  0
VERTEX
  8
T47SSILL
 62
2
 10
5568.428
 20
-7471.657
 30
536.067
 70
    32
  0
VERTEX
  8
T47SSILL
 62
2
 10
5558.655
 20
-7471.505
 30
536.066
 70
    32
  0
VERTEX
  8
T47SSILL
 62
2
 10
5549.488
 20
-7467.390
 30
536.065
 70
    32
  0
VERTEX
  8
T47SSILL
 62
2
 10
5543.928
 20
-7462.160
 30
536.064
 70
    32
  0
VERTEX
  8
T47SSILL
 62
2
 10
5510.310
 20
-7416.097
 30
536.053
 70
    32
  0
VERTEX
  8
T47SSILL
 62
2
 10
5562.457
 20
-7424.691
 30
536.059
 70
    32
  0
VERTEX
  8
T47SSILL
 62
2
 10
5623.491
 20
-7379.795
 30
536.058
 70
    32
  0
VERTEX
  8
T47SSILL
 62
2
 10
5630.534
 20
-7391.145
 30
536.060
 70
    32
  0
VERTEX
  8
T47SSILL
 62
2
 10
5641.922
 20
-7386.301
 30
536.060
 70
    32
  0
VERTEX
  8
T47SSILL
 62
2
 10
5644.718
 20
-7364.961
 30
536.057
 70
    32
  0
VERTEX
  8
T47SSILL
 62
2
 10
5719.170
 20
-7311.526
 30
536.055
 70
    32
  0
VERTEX
  8
T47SSILL
 62
2
 10
5727.956
 20
-7322.969
 30
536.058
 70
    32
  0
VERTEX
  8
T47SSILL
 62
2
 10
5733.188
 20
-7318.232
 30
536.058
 70
    32
  0
VERTEX
  8
T47SSILL
 62
2
 10
5729.886
 20
-7313.556
 30
536.057
 70
    32
  0
VERTEX
  8
T47SSILL
 62
2
 10
5721.755
 20
-7309.405
 30
536.055
 70
    32
  0
VERTEX
  8
T47SSILL
 62
2
 10
5716.841
 20
-7304.088
 30
536.054
 70
    32
  0
VERTEX
  8
T47SSILL
 62
2
 10
5645.197
 20
-7355.116
 30
536.056
 70
    32
  0
VERTEX
  8
T47SSILL
 62
2
 10
5645.861
 20
-7351.814
 30
536.055
 70
    32
  0
VERTEX
  8
T47SSILL
 62
2
 10
5643.485
 20
-7349.762
 30
536.055
 70
    32
  0
VERTEX
  8
T47SSILL
 62
2
 10
5644.119
 20
-7339.685
 30
536.053
 70
    32
  0
VERTEX
  8
T47SSILL
 62
2
 10
5647.460
 20
-7336.530
 30
536.053
 70
    32
  0
VERTEX
  8
T47SSILL
 62
2
 10
5635.567
 20
-7304.325
 30
536.046
 70
    32
  0
VERTEX
  8
T47SSILL
 62
2
 10
5634.975
 20
-7290.522
 30
536.044
 70
    32
  0
VERTEX
  8
T47SSILL
 62
2
 10
5619.795
 20
-7256.527
 30
536.036
 70
    32
  0
VERTEX
  8
T47SSILL
 62
2
 10
5636.107
 20
-7245.403
 30
536.036
 70
    32
  0
VERTEX
  8
T47SSILL
 62
2
 10
5660.630
 20
-7280.380
 30
536.045
 70
    32
  0
VERTEX
  8
T47SSILL
 62
2
 10
5666.826
 20
-7275.450
 30
536.044
 70
    32
  0
VERTEX
  8
T47SSILL
 62
2
 10
5642.642
 20
-7240.767
 30
536.036
 70
    32
  0
VERTEX
  8
T47SSILL
 62
2
 10
5674.504
 20
-7217.753
 30
536.035
 70
    32
  0
VERTEX
  8
T47SSILL
 62
2
 10
5681.869
 20
-7226.869
 30
536.037
 70
    32
  0
VERTEX
  8
T47SSILL
 62
2
 10
5689.276
 20
-7221.778
 30
536.037
 70
    32
  0
VERTEX
  8
T47SSILL
 62
2
 10
5675.915
 20
-7207.317
 30
536.033
 70
    32
  0
VERTEX
  8
T47SSILL
 62
2
 10
5615.699
 20
-7249.683
 30
536.035
 70
    32
  0
VERTEX
  8
T47SSILL
 62
2
 10
5601.706
 20
-7229.251
 30
536.030
 70
    32
  0
VERTEX
  8
T47SSILL
 62
2
 10
5570.819
 20
-7250.148
 30
536.030
 70
    32
  0
VERTEX
  8
T47SSILL
 62
2
 10
5559.415
 20
-7254.112
 30
536.028
 70
    32
  0
VERTEX
  8
T47SSILL
 62
2
 10
5552.832
 20
-7271.154
 30
536.031
 70
    32
  0
VERTEX
  8
T47SSILL
 62
2
 10
5566.224
 20
-7285.368
 30
536.036
 70
    32
  0
VERTEX
  8
T47SSILL
 62
2
 10
5496.163
 20
-7335.277
 30
536.031
 70
    32
  0
VERTEX
  8
T47SSILL
 62
2
 10
5456.885
 20
-7328.043
 30
536.018
 70
    32
  0
VERTEX
  8
T47SSILL
 62
2
 10
5455.620
 20
-7322.117
 30
536.016
 70
    32
  0
VERTEX
  8
T47SSILL
 62
2
 10
5459.031
 20
-7315.899
 30
536.015
 70
    32
  0
VERTEX
  8
T47SSILL
 62
2
 10
5438.998
 20
-7287.126
 30
536.001
 70
    32
  0
VERTEX
  8
T47SSILL
 62
2
 10
5420.944
 20
-7291.136
 30
535.997
 70
    32
  0
VERTEX
  8
T47SSILL
 62
2
 10
5412.921
 20
-7280.102
 30
535.991
 70
    32
  0
VERTEX
  8
T47SSILL
 62
2
 10
5629.232
 20
-7123.492
 30
536.013
 70
    32
  0
VERTEX
  8
T47SSILL
 62
2
 10
5625.961
 20
-7117.566
 30
536.010
 70
    32
  0
VERTEX
  8
T47SSILL
 62
2
 10
5420.584
 20
-7263.446
 30
535.989
 70
    32
  0
VERTEX
  8
T47SSILL
 62
2
 10
5410.277
 20
-7262.658
 30
535.986
 70
    32
  0
VERTEX
  8
T47SSILL
 62
2
 10
5411.358
 20
-7254.016
 30
535.984
 70
    32
  0
VERTEX
  8
T47SSILL
 62
2
 10
5415.502
 20
-7246.448
 30
535.983
 70
    32
  0
VERTEX
  8
T47SSILL
 62
2
 10
5425.410
 20
-7235.401
 30
535.983
 70
    32
  0
VERTEX
  8
T47SSILL
 62
2
 10
5429.979
 20
-7219.925
 30
535.980
 70
    32
  0
VERTEX
  8
T47SSILL
 62
2
 10
5427.082
 20
-7193.985
 30
535.972
 70
    32
  0
VERTEX
  8
T47SSILL
 62
2
 10
5427.630
 20
-7186.093
 30
535.970
 70
    32
  0
VERTEX
  8
T47SSILL
 62
2
 10
5416.103
 20
-7189.038
 30
535.967
 70
    32
  0
VERTEX
  8
T47SSILL
 62
2
 10
5399.607
 20
-7198.634
 30
535.965
 70
    32
  0
VERTEX
  8
T47SSILL
 62
2
 10
5391.458
 20
-7211.657
 30
535.966
 70
    32
  0
VERTEX
  8
T47SSILL
 62
2
 10
5376.565
 20
-7229.477
 30
535.967
 70
    32
  0
VERTEX
  8
T47SSILL
 62
2
 10
5346.604
 20
-7187.363
 30
535.946
 70
    32
  0
VERTEX
  8
T47SSILL
 62
2
 10
5363.601
 20
-7187.296
 30
535.951
 70
    32
  0
VERTEX
  8
T47SSILL
 62
2
 10
5373.716
 20
-7183.108
 30
535.953
 70
    32
  0
VERTEX
  8
T47SSILL
 62
2
 10
5505.429
 20
-7087.377
 30
535.974
 70
    32
  0
VERTEX
  8
T47SSILL
 62
2
 10
5501.093
 20
-7081.945
 30
535.972
 70
    32
  0
VERTEX
  8
T47SSILL
 62
2
 10
5365.284
 20
-7178.856
 30
535.949
 70
    32
  0
VERTEX
  8
T47SSILL
 62
2
 10
5354.196
 20
-7180.791
 30
535.947
 70
    32
  0
VERTEX
  8
T47SSILL
 62
2
 10
5342.199
 20
-7177.973
 30
535.942
 70
    32
  0
VERTEX
  8
T47SSILL
 62
2
 10
5335.989
 20
-7172.996
 30
535.939
 70
    32
  0
VERTEX
  8
T47SSILL
 62
2
 10
5326.555
 20
-7159.717
 30
535.933
 70
    32
  0
VERTEX
  8
T47SSILL
 62
2
 10
5339.116
 20
-7159.533
 30
535.936
 70
    32
  0
VERTEX
  8
T47SSILL
 62
2
 10
5352.101
 20
-7155.453
 30
535.939
 70
    32
  0
VERTEX
  8
T47SSILL
 62
2
 10
5365.140
 20
-7155.455
 30
535.943
 70
    32
  0
VERTEX
  8
T47SSILL
 62
2
 10
5365.233
 20
-7148.696
 30
535.941
 70
    32
  0
VERTEX
  8
T47SSILL
 62
2
 10
5527.536
 20
-7061.495
 30
535.980
 70
    32
  0
VERTEX
  8
T47SSILL
 62
2
 10
5522.854
 20
-7056.332
 30
535.979
 70
    32
  0
VERTEX
  8
T47SSILL
 62
2
 10
5342.851
 20
-7151.726
 30
535.935
 70
    32
  0
VERTEX
  8
T47SSILL
 62
2
 10
5336.439
 20
-7153.368
 30
535.934
 70
    32
  0
VERTEX
  8
T47SSILL
 62
2
 10
5320.523
 20
-7150.813
 30
535.928
 70
    32
  0
VERTEX
  8
T47SSILL
 62
2
 10
4840.347
 20
-6478.994
 30
535.961
 70
    32
  0
VERTEX
  8
T47SSILL
 62
2
 10
4841.756
 20
-6476.391
 30
535.961
 70
    32
  0
VERTEX
  8
T47SSILL
 62
2
 10
4865.260
 20
-6476.409
 30
535.959
 70
    32
  0
VERTEX
  8
T47SSILL
 62
2
 10
4865.047
 20
-6468.261
 30
535.960
 70
    32
  0
VERTEX
  8
T47SSILL
 62
2
 10
4832.425
 20
-6467.842
 30
535.962
 70
    32
  0
VERTEX
  8
T47SSILL
 62
2
 10
4798.402
 20
-6420.667
 30
535.981
 70
    32
  0
VERTEX
  8
T47SSILL
 62
2
 10
4793.928
 20
-6406.129
 30
536.020
 70
    32
  0
VERTEX
  8
T47SSILL
 62
2
 10
4795.223
 20
-6392.291
 30
536.046
 70
    32
  0
VERTEX
  8
T47SSILL
 62
2
 10
4812.362
 20
-6400.757
 30
535.993
 70
    32
  0
VERTEX
  8
T47SSILL
 62
2
 10
4815.807
 20
-6393.063
 30
536.001
 70
    32
  0
VERTEX
  8
T47SSILL
 62
2
 10
4809.321
 20
-6389.956
 30
536.021
 70
    32
  0
VERTEX
  8
T47SSILL
 62
2
 10
4800.930
 20
-6379.672
 30
536.060
 70
    32
  0
VERTEX
  8
T47SSILL
 62
2
 10
4802.425
 20
-6376.577
 30
536.063
 70
    32
  0
VERTEX
  8
T47SSILL
 62
2
 10
4814.003
 20
-6366.956
 30
536.059
 70
    32
  0
VERTEX
  8
T47SSILL
 62
2
 10
4847.875
 20
-6366.392
 30
535.989
 70
    32
  0
VERTEX
  8
T47SSILL
 62
2
 10
4847.552
 20
-6354.549
 30
536.014
 70
    32
  0
VERTEX
  8
T47SSILL
 62
2
 10
4816.593
 20
-6354.042
 30
536.080
 70
    32
  0
VERTEX
  8
T47SSILL
 62
2
 10
4798.085
 20
-6370.997
 30
536.084
 70
    32
  0
VERTEX
  8
T47SSILL
 62
2
 10
4789.285
 20
-6386.430
 30
536.070
 70
    32
  0
VERTEX
  8
T47SSILL
 62
2
 10
4786.683
 20
-6405.171
 30
536.037
 70
    32
  0
VERTEX
  8
T47SSILL
 62
2
 10
4788.618
 20
-6415.776
 30
536.012
 70
    32
  0
VERTEX
  8
T47SSILL
 62
2
 10
4793.677
 20
-6426.995
 30
535.979
 70
    32
  0
VERTEX
  8
T47SSILL
 62
2
 10
4913.261
 20
-6595.364
 30
535.946
 70
    32
  0
VERTEX
  8
T47SSILL
 62
2
 10
4912.475
 20
-6618.544
 30
535.957
 70
    32
  0
VERTEX
  8
T47SSILL
 62
2
 10
4920.890
 20
-6631.937
 30
535.956
 70
    32
  0
VERTEX
  8
T47SSILL
 62
2
 10
4946.010
 20
-6640.414
 30
535.938
 70
    32
  0
VERTEX
  8
T47SSILL
 62
2
 10
5070.672
 20
-6814.493
 30
535.909
 70
    32
  0
VERTEX
  8
T47SSILL
 62
2
 10
5070.885
 20
-6822.641
 30
535.912
 70
    32
  0
VERTEX
  8
T47SSILL
 62
2
 10
5068.205
 20
-6829.583
 30
535.918
 70
    32
  0
VERTEX
  8
T47SSILL
 62
2
 10
5029.320
 20
-6856.828
 30
535.966
 70
    32
  0
VERTEX
  8
T47SSILL
 62
2
 10
5017.948
 20
-6858.437
 30
535.976
 70
    32
  0
VERTEX
  8
T47SSILL
 62
2
 10
5012.877
 20
-6851.969
 30
535.976
 70
    32
  0
VERTEX
  8
T47SSILL
 62
2
 10
5006.893
 20
-6856.808
 30
535.984
 70
    32
  0
VERTEX
  8
T47SSILL
 62
2
 10
5010.445
 20
-6862.018
 30
535.984
 70
    32
  0
VERTEX
  8
T47SSILL
 62
2
 10
5005.028
 20
-6874.602
 30
535.997
 70
    32
  0
VERTEX
  8
T47SSILL
 62
2
 10
4963.115
 20
-6905.369
 30
536.051
 70
    32
  0
VERTEX
  8
T47SSILL
 62
2
 10
4957.695
 20
-6894.404
 30
536.048
 70
    32
  0
VERTEX
  8
T47SSILL
 62
2
 10
4949.112
 20
-6895.788
 30
536.056
 70
    32
  0
VERTEX
  8
T47SSILL
 62
2
 10
4945.443
 20
-6900.294
 30
536.062
 70
    32
  0
VERTEX
  8
T47SSILL
 62
2
 10
4950.690
 20
-6913.320
 30
536.066
 70
    32
  0
VERTEX
  8
T47SSILL
 62
2
 10
4246.642
 20
-7417.385
 30
536.664
 70
    32
  0
VERTEX
  8
T47SSILL
 62
2
 10
4233.895
 20
-7416.725
 30
536.674
 70
    32
  0
VERTEX
  8
T47SSILL
 62
2
 10
4058.352
 20
-7331.207
 30
536.579
 70
    32
  0
VERTEX
  8
T47SSILL
 62
2
 10
3996.709
 20
-7245.841
 30
536.640
 70
    32
  0
VERTEX
  8
T47SSILL
 62
2
 10
3999.889
 20
-7243.612
 30
536.631
 70
    32
  0
VERTEX
  8
T47SSILL
 62
2
 10
3993.073
 20
-7232.655
 30
536.636
 70
    32
  0
VERTEX
  8
T47SSILL
 62
2
 10
3990.493
 20
-7217.437
 30
536.628
 70
    32
  0
VERTEX
  8
T47SSILL
 62
2
 10
3992.945
 20
-7203.865
 30
536.610
 70
    32
  0
VERTEX
  8
T47SSILL
 62
2
 10
4004.150
 20
-7183.407
 30
536.566
 70
    32
  0
VERTEX
  8
T47SSILL
 62
2
 10
4065.795
 20
-7139.892
 30
536.647
 70
    32
  0
VERTEX
  8
T47SSILL
 62
2
 10
4060.977
 20
-7133.785
 30
536.639
 70
    32
  0
VERTEX
  8
T47SSILL
 62
2
 10
3995.140
 20
-7180.237
 30
536.584
 70
    32
  0
VERTEX
  8
T47SSILL
 62
2
 10
3989.331
 20
-7189.479
 30
536.605
 70
    32
  0
VERTEX
  8
T47SSILL
 62
2
 10
3983.734
 20
-7203.638
 30
536.631
 70
    32
  0
VERTEX
  8
T47SSILL
 62
2
 10
3981.567
 20
-7224.230
 30
536.654
 70
    32
  0
VERTEX
  8
T47SSILL
 62
2
 10
3971.193
 20
-7209.731
 30
536.690
 70
    32
  0
VERTEX
  8
T47SSILL
 62
2
 10
3967.292
 20
-7200.934
 30
536.709
 70
    32
  0
VERTEX
  8
T47SSILL
 62
2
 10
3964.830
 20
-7191.883
 30
536.721
 70
    32
  0
VERTEX
  8
T47SSILL
 62
2
 10
3966.421
 20
-7174.928
 30
536.715
 70
    32
  0
VERTEX
  8
T47SSILL
 62
2
 10
3971.390
 20
-7163.257
 30
536.692
 70
    32
  0
VERTEX
  8
T47SSILL
 62
2
 10
3983.024
 20
-7150.795
 30
536.639
 70
    32
  0
VERTEX
  8
T47SSILL
 62
2
 10
4082.814
 20
-7078.613
 30
536.806
 70
    32
  0
VERTEX
  8
T47SSILL
 62
2
 10
4084.126
 20
-7080.389
 30
536.808
 70
    32
  0
VERTEX
  8
T47SSILL
 62
2
 10
4090.053
 20
-7076.237
 30
536.837
 70
    32
  0
VERTEX
  8
T47SSILL
 62
2
 10
4088.717
 20
-7074.329
 30
536.835
 70
    32
  0
VERTEX
  8
T47SSILL
 62
2
 10
4194.657
 20
-6997.450
 30
536.752
 70
    32
  0
VERTEX
  8
T47SSILL
 62
2
 10
4189.197
 20
-6992.117
 30
536.754
 70
    32
  0
VERTEX
  8
T47SSILL
 62
2
 10
4084.191
 20
-7067.870
 30
536.835
 70
    32
  0
VERTEX
  8
T47SSILL
 62
2
 10
4073.898
 20
-7053.180
 30
536.856
 70
    32
  0
VERTEX
  8
T47SSILL
 62
2
 10
4067.393
 20
-7057.738
 30
536.825
 70
    32
  0
VERTEX
  8
T47SSILL
 62
2
 10
4078.116
 20
-7072.253
 30
536.806
 70
    32
  0
VERTEX
  8
T47SSILL
 62
2
 10
3976.537
 20
-7145.534
 30
536.684
 70
    32
  0
VERTEX
  8
T47SSILL
 62
2
 10
3966.854
 20
-7157.706
 30
536.725
 70
    32
  0
VERTEX
  8
T47SSILL
 62
2
 10
3960.245
 20
-7171.497
 30
536.746
 70
    32
  0
VERTEX
  8
T47SSILL
 62
2
 10
3958.259
 20
-7177.737
 30
536.754
 70
    32
  0
VERTEX
  8
T47SSILL
 62
2
 10
3957.861
 20
-7192.240
 30
536.755
 70
    32
  0
VERTEX
  8
T47SSILL
 62
2
 10
3871.468
 20
-7071.090
 30
537.483
 70
    32
  0
VERTEX
  8
T47SSILL
 62
2
 10
3867.869
 20
-7057.340
 30
537.554
 70
    32
  0
VERTEX
  8
T47SSILL
 62
2
 10
3872.188
 20
-7046.125
 30
537.572
 70
    32
  0
VERTEX
  8
T47SSILL
 62
2
 10
3881.466
 20
-7035.529
 30
537.383
 70
    32
  0
VERTEX
  8
T47SSILL
 62
2
 10
4018.488
 20
-6936.723
 30
537.090
 70
    32
  0
VERTEX
  8
T47SSILL
 62
2
 10
4013.866
 20
-6931.664
 30
537.095
 70
    32
  0
VERTEX
  8
T47SSILL
 62
2
 10
3877.357
 20
-7029.356
 30
537.377
 70
    32
  0
VERTEX
  8
T47SSILL
 62
2
 10
3863.894
 20
-7044.284
 30
537.625
 70
    32
  0
VERTEX
  8
T47SSILL
 62
2
 10
3861.340
 20
-7056.634
 30
537.593
 70
    32
  0
VERTEX
  8
T47SSILL
 62
2
 10
3830.421
 20
-7013.427
 30
537.840
 70
    32
  0
VERTEX
  8
T47SSILL
 62
2
 10
3834.324
 20
-7010.693
 30
537.763
 70
    32
  0
VERTEX
  8
T47SSILL
 62
2
 10
3829.339
 20
-7003.732
 30
537.761
 70
    32
  0
VERTEX
  8
T47SSILL
 62
2
 10
3825.169
 20
-7006.547
 30
537.843
 70
    32
  0
VERTEX
  8
T47SSILL
 62
2
 10
3815.691
 20
-6991.635
 30
537.825
 70
    32
  0
VERTEX
  8
T47SSILL
 62
2
 10
3813.980
 20
-6981.196
 30
537.747
 70
    32
  0
VERTEX
  8
T47SSILL
 62
2
 10
3816.427
 20
-6970.538
 30
537.614
 70
    32
  0
VERTEX
  8
T47SSILL
 62
2
 10
3821.817
 20
-6963.313
 30
537.474
 70
    32
  0
VERTEX
  8
T47SSILL
 62
2
 10
3931.237
 20
-6885.248
 30
537.107
 70
    32
  0
VERTEX
  8
T47SSILL
 62
2
 10
3926.542
 20
-6879.162
 30
537.127
 70
    32
  0
VERTEX
  8
T47SSILL
 62
2
 10
3819.652
 20
-6955.455
 30
537.428
 70
    32
  0
VERTEX
  8
T47SSILL
 62
2
 10
3811.197
 20
-6964.612
 30
537.626
 70
    32
  0
VERTEX
  8
T47SSILL
 62
2
 10
3807.917
 20
-6971.005
 30
537.730
 70
    32
  0
VERTEX
  8
T47SSILL
 62
2
 10
3806.012
 20
-6979.667
 30
537.837
 70
    32
  0
VERTEX
  8
T47SSILL
 62
2
 10
3758.439
 20
-6912.999
 30
537.824
 70
    32
  0
VERTEX
  8
T47SSILL
 62
2
 10
3757.271
 20
-6902.718
 30
537.741
 70
    32
  0
VERTEX
  8
T47SSILL
 62
2
 10
3759.429
 20
-6894.417
 30
537.634
 70
    32
  0
VERTEX
  8
T47SSILL
 62
2
 10
3768.028
 20
-6884.082
 30
537.422
 70
    32
  0
VERTEX
  8
T47SSILL
 62
2
 10
3878.843
 20
-6804.931
 30
537.349
 70
    32
  0
VERTEX
  8
T47SSILL
 62
2
 10
3874.618
 20
-6799.055
 30
537.367
 70
    32
  0
VERTEX
  8
T47SSILL
 62
2
 10
3761.028
 20
-6879.935
 30
537.474
 70
    32
  0
VERTEX
  8
T47SSILL
 62
2
 10
3753.051
 20
-6890.697
 30
537.682
 70
    32
  0
VERTEX
  8
T47SSILL
 62
2
 10
3750.474
 20
-6902.092
 30
537.824
 70
    32
  0
VERTEX
  8
T47SSILL
 62
2
 10
3735.803
 20
-6881.768
 30
537.822
 70
    32
  0
VERTEX
  8
T47SSILL
 62
2
 10
3571.810
 20
-6631.781
 30
538.002
 70
    32
  0
VERTEX
  8
T47SSILL
 62
2
 10
3357.150
 20
-6304.534
 30
542.833
 70
    32
  0
VERTEX
  8
T47SSILL
 62
2
 10
3127.370
 20
-5954.893
 30
542.187
 70
    32
  0
VERTEX
  8
T47SSILL
 62
2
 10
3034.118
 20
-5815.376
 30
540.886
 70
    32
  0
VERTEX
  8
T47SSILL
 62
2
 10
2421.047
 20
-4882.973
 30
544.430
 70
    32
  0
VERTEX
  8
T47SSILL
 62
2
 10
2177.314
 20
-4587.789
 30
544.292
 70
    32
  0
VERTEX
  8
T47SSILL
 62
2
 10
2175.488
 20
-4582.839
 30
544.295
 70
    32
  0
VERTEX
  8
T47SSILL
 62
2
 10
2180.351
 20
-4579.036
 30
544.289
 70
    32
  0
VERTEX
  8
T47SSILL
 62
2
 10
2175.801
 20
-4573.405
 30
544.297
 70
    32
  0
VERTEX
  8
T47SSILL
 62
2
 10
2169.842
 20
-4578.719
 30
544.290
 70
    32
  0
VERTEX
  8
T47SSILL
 62
2
 10
2042.296
 20
-4424.563
 30
544.189
 70
    32
  0
VERTEX
  8
T47SSILL
 62
2
 10
2035.391
 20
-4430.212
 30
544.182
 70
    32
  0
VERTEX
  8
T47SSILL
 62
2
 10
2187.389
 20
-4613.274
 30
544.242
 70
    32
  0
VERTEX
  8
T47SSILL
 62
2
 10
2186.204
 20
-4615.275
 30
544.243
 70
    32
  0
VERTEX
  8
T47SSILL
 62
2
 10
2149.970
 20
-4614.801
 30
544.237
 70
    32
  0
VERTEX
  8
T47SSILL
 62
2
 10
2143.742
 20
-4608.297
 30
544.213
 70
    32
  0
VERTEX
  8
T47SSILL
 62
2
 10
2144.037
 20
-4603.971
 30
544.212
 70
    32
  0
VERTEX
  8
T47SSILL
 62
2
 10
2124.907
 20
-4604.679
 30
544.175
 70
    32
  0
VERTEX
  8
T47SSILL
 62
2
 10
2124.434
 20
-4627.104
 30
544.165
 70
    32
  0
VERTEX
  8
T47SSILL
 62
2
 10
2177.656
 20
-4625.815
 30
544.270
 70
    32
  0
VERTEX
  8
T47SSILL
 62
2
 10
2199.111
 20
-4632.793
 30
544.161
 70
    32
  0
VERTEX
  8
T47SSILL
 62
2
 10
2254.642
 20
-4700.155
 30
544.384
 70
    32
  0
VERTEX
  8
T47SSILL
 62
2
 10
2252.657
 20
-4703.783
 30
544.396
 70
    32
  0
VERTEX
  8
T47SSILL
 62
2
 10
2246.821
 20
-4703.867
 30
544.393
 70
    32
  0
VERTEX
  8
T47SSILL
 62
2
 10
2235.257
 20
-4707.283
 30
544.398
 70
    32
  0
VERTEX
  8
T47SSILL
 62
2
 10
2189.765
 20
-4731.775
 30
544.424
 70
    32
  0
VERTEX
  8
T47SSILL
 62
2
 10
2180.249
 20
-4733.662
 30
544.391
 70
    32
  0
VERTEX
  8
T47SSILL
 62
2
 10
2172.089
 20
-4732.250
 30
544.370
 70
    32
  0
VERTEX
  8
T47SSILL
 62
2
 10
2173.136
 20
-4721.556
 30
544.395
 70
    32
  0
VERTEX
  8
T47SSILL
 62
2
 10
2171.231
 20
-4716.340
 30
544.391
 70
    32
  0
VERTEX
  8
T47SSILL
 62
2
 10
2162.796
 20
-4713.297
 30
544.374
 70
    32
  0
VERTEX
  8
T47SSILL
 62
2
 10
2153.956
 20
-4727.898
 30
544.324
 70
    32
  0
VERTEX
  8
T47SSILL
 62
2
 10
2139.355
 20
-4724.310
 30
544.288
 70
    32
  0
VERTEX
  8
T47SSILL
 62
2
 10
2137.904
 20
-4731.641
 30
544.268
 70
    32
  0
VERTEX
  8
T47SSILL
 62
2
 10
2151.902
 20
-4734.361
 30
544.305
 70
    32
  0
VERTEX
  8
T47SSILL
 62
2
 10
2158.632
 20
-4741.588
 30
544.310
 70
    32
  0
VERTEX
  8
T47SSILL
 62
2
 10
2183.938
 20
-4740.213
 30
544.389
 70
    32
  0
VERTEX
  8
T47SSILL
 62
2
 10
2201.369
 20
-4734.441
 30
544.453
 70
    32
  0
VERTEX
  8
T47SSILL
 62
2
 10
2241.774
 20
-4713.586
 30
544.427
 70
    32
  0
VERTEX
  8
T47SSILL
 62
2
 10
2252.966
 20
-4711.179
 30
544.425
 70
    32
  0
VERTEX
  8
T47SSILL
 62
2
 10
2267.230
 20
-4722.932
 30
544.479
 70
    32
  0
VERTEX
  8
T47SSILL
 62
2
 10
2274.148
 20
-4723.169
 30
544.485
 70
    32
  0
VERTEX
  8
T47SSILL
 62
2
 10
2302.973
 20
-4758.687
 30
544.639
 70
    32
  0
VERTEX
  8
T47SSILL
 62
2
 10
2312.965
 20
-4763.973
 30
544.666
 70
    32
  0
VERTEX
  8
T47SSILL
 62
2
 10
2315.475
 20
-4767.590
 30
544.682
 70
    32
  0
VERTEX
  8
T47SSILL
 62
2
 10
2323.000
 20
-4778.000
 30
544.682
 70
    32
  0
VERTEX
  8
T47SSILL
 62
2
 10
2321.050
 20
-4787.392
 30
544.703
 70
    32
  0
VERTEX
  8
T47SSILL
 62
2
 10
2315.436
 20
-4798.147
 30
544.664
 70
    32
  0
VERTEX
  8
T47SSILL
 62
2
 10
2316.709
 20
-4800.908
 30
544.662
 70
    32
  0
VERTEX
  8
T47SSILL
 62
2
 10
2312.883
 20
-4806.670
 30
544.639
 70
    32
  0
VERTEX
  8
T47SSILL
 62
2
 10
2310.189
 20
-4807.576
 30
544.629
 70
    32
  0
VERTEX
  8
T47SSILL
 62
2
 10
2310.459
 20
-4810.282
 30
544.624
 70
    32
  0
VERTEX
  8
T47SSILL
 62
2
 10
2305.046
 20
-4816.074
 30
544.596
 70
    32
  0
VERTEX
  8
T47SSILL
 62
2
 10
2315.495
 20
-4822.328
 30
544.615
 70
    32
  0
VERTEX
  8
T47SSILL
 62
2
 10
2334.518
 20
-4794.445
 30
544.729
 70
    32
  0
VERTEX
  8
T47SSILL
 62
2
 10
2338.419
 20
-4793.988
 30
544.715
 70
    32
  0
VERTEX
  8
T47SSILL
 62
2
 10
2366.783
 20
-4828.558
 30
544.636
 70
    32
  0
VERTEX
  8
T47SSILL
 62
2
 10
2364.313
 20
-4831.022
 30
544.636
 70
    32
  0
VERTEX
  8
T47SSILL
 62
2
 10
2368.289
 20
-4835.980
 30
544.623
 70
    32
  0
VERTEX
  8
T47SSILL
 62
2
 10
2371.083
 20
-4833.828
 30
544.622
 70
    32
  0
VERTEX
  8
T47SSILL
 62
2
 10
2414.669
 20
-4886.756
 30
544.477
 70
    32
  0
VERTEX
  8
T47SSILL
 62
2
 10
2524.524
 20
-5053.425
 30
544.191
 70
    32
  0
VERTEX
  8
T47SSILL
 62
2
 10
2523.562
 20
-5054.434
 30
544.190
 70
    32
  0
VERTEX
  8
T47SSILL
 62
2
 10
2528.885
 20
-5060.038
 30
544.182
 70
    32
  0
VERTEX
  8
T47SSILL
 62
2
 10
2695.962
 20
-5313.402
 30
543.079
 70
    32
  0
VERTEX
  8
T47SSILL
 62
2
 10
2694.501
 20
-5315.328
 30
543.076
 70
    32
  0
VERTEX
  8
T47SSILL
 62
2
 10
2699.573
 20
-5318.810
 30
543.049
 70
    32
  0
VERTEX
  8
T47SSILL
 62
2
 10
2853.039
 20
-5553.222
 30
541.661
 70
    32
  0
VERTEX
  8
T47SSILL
 62
2
 10
2852.434
 20
-5557.854
 30
541.671
 70
    32
  0
VERTEX
  8
T47SSILL
 62
2
 10
2856.993
 20
-5559.142
 30
541.633
 70
    32
  0
VERTEX
  8
T47SSILL
 62
2
 10
2875.344
 20
-5588.841
 30
541.533
 70
    32
  0
VERTEX
  8
T47SSILL
 62
2
 10
2882.815
 20
-5605.409
 30
541.499
 70
    32
  0
VERTEX
  8
T47SSILL
 62
2
 10
2885.343
 20
-5628.027
 30
541.515
 70
    32
  0
VERTEX
  8
T47SSILL
 62
2
 10
2876.100
 20
-5653.432
 30
541.631
 70
    32
  0
VERTEX
  8
T47SSILL
 62
2
 10
2862.101
 20
-5675.038
 30
541.779
 70
    32
  0
VERTEX
  8
T47SSILL
 62
2
 10
2631.017
 20
-5846.782
 30
541.621
 70
    32
  0
VERTEX
  8
T47SSILL
 62
2
 10
1733.940
 20
-6488.974
 30
542.618
 70
    32
  0
VERTEX
  8
T47SSILL
 62
2
 10
1720.786
 20
-6492.359
 30
542.642
 70
    32
  0
VERTEX
  8
T47SSILL
 62
2
 10
1698.398
 20
-6491.131
 30
542.642
 70
    32
  0
VERTEX
  8
T47SSILL
 62
2
 10
1691.539
 20
-6490.697
 30
542.657
 70
    32
  0
VERTEX
  8
T47SSILL
 62
2
 10
1690.419
 20
-6497.445
 30
542.657
 70
    32
  0
VERTEX
  8
T47SSILL
 62
2
 10
1703.993
 20
-6501.154
 30
542.661
 70
    32
  0
VERTEX
  8
T47SSILL
 62
2
 10
1716.364
 20
-6501.552
 30
542.659
 70
    32
  0
VERTEX
  8
T47SSILL
 62
2
 10
1534.708
 20
-6632.313
 30
542.898
 70
    32
  0
VERTEX
  8
T47SSILL
 62
2
 10
1532.645
 20
-6630.032
 30
542.896
 70
    32
  0
VERTEX
  8
T47SSILL
 62
2
 10
1529.693
 20
-6631.959
 30
542.898
 70
    32
  0
VERTEX
  8
T47SSILL
 62
2
 10
1531.303
 20
-6634.379
 30
542.900
 70
    32
  0
VERTEX
  8
T47SSILL
 62
2
 10
1507.701
 20
-6651.360
 30
542.915
 70
    32
  0
VERTEX
  8
T47SSILL
 62
2
 10
1506.314
 20
-6650.338
 30
542.914
 70
    32
  0
VERTEX
  8
T47SSILL
 62
2
 10
1499.003
 20
-6655.663
 30
542.919
 70
    32
  0
VERTEX
  8
T47SSILL
 62
2
 10
1499.638
 20
-6657.291
 30
542.920
 70
    32
  0
VERTEX
  8
T47SSILL
 62
2
 10
969.406
 20
-7039.109
 30
543.992
 70
    32
  0
VERTEX
  8
T47SSILL
 62
2
 10
965.512
 20
-7039.332
 30
543.990
 70
    32
  0
VERTEX
  8
T47SSILL
 62
2
 10
940.242
 20
-7032.017
 30
543.954
 70
    32
  0
VERTEX
  8
T47SSILL
 62
2
 10
935.693
 20
-7027.473
 30
543.939
 70
    32
  0
VERTEX
  8
T47SSILL
 62
2
 10
922.778
 20
-7024.453
 30
543.922
 70
    32
  0
VERTEX
  8
T47SSILL
 62
2
 10
913.419
 20
-7026.380
 30
543.922
 70
    32
  0
VERTEX
  8
T47SSILL
 62
2
 10
884.543
 20
-7019.420
 30
543.877
 70
    32
  0
VERTEX
  8
T47SSILL
 62
2
 10
832.143
 20
-7017.407
 30
543.825
 70
    32
  0
VERTEX
  8
T47SSILL
 62
2
 10
832.481
 20
-7003.659
 30
543.779
 70
    32
  0
VERTEX
  8
T47SSILL
 62
2
 10
828.321
 20
-6995.879
 30
543.749
 70
    32
  0
VERTEX
  8
T47SSILL
 62
2
 10
819.428
 20
-6990.491
 30
543.724
 70
    32
  0
VERTEX
  8
T47SSILL
 62
2
 10
814.761
 20
-6990.465
 30
543.720
 70
    32
  0
VERTEX
  8
T47SSILL
 62
2
 10
808.072
 20
-6993.541
 30
543.724
 70
    32
  0
VERTEX
  8
T47SSILL
 62
2
 10
809.196
 20
-7004.117
 30
543.761
 70
    32
  0
VERTEX
  8
T47SSILL
 62
2
 10
807.175
 20
-7032.955
 30
543.856
 70
    32
  0
VERTEX
  8
T47SSILL
 62
2
 10
802.404
 20
-7033.096
 30
543.852
 70
    32
  0
VERTEX
  8
T47SSILL
 62
2
 10
790.020
 20
-7011.765
 30
543.770
 70
    32
  0
VERTEX
  8
T47SSILL
 62
2
 10
790.041
 20
-7006.585
 30
543.752
 70
    32
  0
VERTEX
  8
T47SSILL
 62
2
 10
784.983
 20
-7003.904
 30
543.739
 70
    32
  0
VERTEX
  8
T47SSILL
 62
2
 10
763.955
 20
-6967.833
 30
543.600
 70
    32
  0
VERTEX
  8
T47SSILL
 62
2
 10
764.074
 20
-6963.316
 30
543.585
 70
    32
  0
VERTEX
  8
T47SSILL
 62
2
 10
757.753
 20
-6959.758
 30
543.568
 70
    32
  0
VERTEX
  8
T47SSILL
 62
2
 10
732.841
 20
-6917.701
 30
543.405
 70
    32
  0
VERTEX
  8
T47SSILL
 62
2
 10
737.201
 20
-6911.508
 30
543.388
 70
    32
  0
VERTEX
  8
T47SSILL
 62
2
 10
741.777
 20
-6910.040
 30
543.387
 70
    32
  0
VERTEX
  8
T47SSILL
 62
2
 10
762.290
 20
-6894.644
 30
543.353
 70
    32
  0
VERTEX
  8
T47SSILL
 62
2
 10
771.209
 20
-6895.366
 30
543.363
 70
    32
  0
VERTEX
  8
T47SSILL
 62
2
 10
777.585
 20
-6885.556
 30
543.336
 70
    32
  0
VERTEX
  8
T47SSILL
 62
2
 10
777.880
 20
-6866.357
 30
543.271
 70
    32
  0
VERTEX
  8
T47SSILL
 62
2
 10
785.462
 20
-6856.323
 30
543.244
 70
    32
  0
VERTEX
  8
T47SSILL
 62
2
 10
778.283
 20
-6850.192
 30
543.218
 70
    32
  0
VERTEX
  8
T47SSILL
 62
2
 10
768.512
 20
-6847.410
 30
543.200
 70
    32
  0
VERTEX
  8
T47SSILL
 62
2
 10
762.249
 20
-6843.610
 30
543.182
 70
    32
  0
VERTEX
  8
T47SSILL
 62
2
 10
753.360
 20
-6851.346
 30
543.200
 70
    32
  0
VERTEX
  8
T47SSILL
 62
2
 10
748.339
 20
-6853.605
 30
543.203
 70
    32
  0
VERTEX
  8
T47SSILL
 62
2
 10
741.133
 20
-6862.063
 30
543.225
 70
    32
  0
VERTEX
  8
T47SSILL
 62
2
 10
740.993
 20
-6873.105
 30
543.262
 70
    32
  0
VERTEX
  8
T47SSILL
 62
2
 10
744.561
 20
-6879.079
 30
543.285
 70
    32
  0
VERTEX
  8
T47SSILL
 62
2
 10
740.026
 20
-6887.343
 30
543.309
 70
    32
  0
VERTEX
  8
T47SSILL
 62
2
 10
740.294
 20
-6892.657
 30
543.327
 70
    32
  0
VERTEX
  8
T47SSILL
 62
2
 10
738.406
 20
-6894.126
 30
543.331
 70
    32
  0
VERTEX
  8
T47SSILL
 62
2
 10
725.539
 20
-6892.395
 30
543.314
 70
    32
  0
VERTEX
  8
T47SSILL
 62
2
 10
720.812
 20
-6875.255
 30
543.252
 70
    32
  0
VERTEX
  8
T47SSILL
 62
2
 10
723.592
 20
-6868.535
 30
543.232
 70
    32
  0
VERTEX
  8
T47SSILL
 62
2
 10
718.783
 20
-6866.016
 30
543.219
 70
    32
  0
VERTEX
  8
T47SSILL
 62
2
 10
708.914
 20
-6823.401
 30
543.068
 70
    32
  0
VERTEX
  8
T47SSILL
 62
2
 10
710.463
 20
-6817.987
 30
543.051
 70
    32
  0
VERTEX
  8
T47SSILL
 62
2
 10
709.784
 20
-6815.664
 30
543.043
 70
    32
  0
VERTEX
  8
T47SSILL
 62
2
 10
706.107
 20
-6814.283
 30
543.035
 70
    32
  0
VERTEX
  8
T47SSILL
 62
2
 10
696.356
 20
-6773.202
 30
542.889
 70
    32
  0
VERTEX
  8
T47SSILL
 62
2
 10
697.446
 20
-6763.799
 30
542.858
 70
    32
  0
VERTEX
  8
T47SSILL
 62
2
 10
696.878
 20
-6761.936
 30
542.851
 70
    32
  0
VERTEX
  8
T47SSILL
 62
2
 10
692.650
 20
-6760.084
 30
542.842
 70
    32
  0
VERTEX
  8
T47SSILL
 62
2
 10
682.853
 20
-6720.761
 30
542.755
 70
    32
  0
VERTEX
  8
T47SSILL
 62
2
 10
684.055
 20
-6711.818
 30
542.744
 70
    32
  0
VERTEX
  8
T47SSILL
 62
2
 10
680.064
 20
-6705.590
 30
542.730
 70
    32
  0
VERTEX
  8
T47SSILL
 62
2
 10
673.796
 20
-6676.707
 30
542.681
 70
    32
  0
VERTEX
  8
T47SSILL
 62
2
 10
677.318
 20
-6667.842
 30
542.672
 70
    32
  0
VERTEX
  8
T47SSILL
 62
2
 10
676.644
 20
-6664.006
 30
542.666
 70
    32
  0
VERTEX
  8
T47SSILL
 62
2
 10
671.217
 20
-6662.896
 30
542.658
 70
    32
  0
VERTEX
  8
T47SSILL
 62
2
 10
661.325
 20
-6621.161
 30
542.585
 70
    32
  0
VERTEX
  8
T47SSILL
 62
2
 10
662.247
 20
-6616.838
 30
542.580
 70
    32
  0
VERTEX
  8
T47SSILL
 62
2
 10
658.497
 20
-6612.165
 30
542.569
 70
    32
  0
VERTEX
  8
T47SSILL
 62
2
 10
656.201
 20
-6588.876
 30
542.532
 70
    32
  0
VERTEX
  8
T47SSILL
 62
2
 10
651.944
 20
-6573.469
 30
542.505
 70
    32
  0
VERTEX
  8
T47SSILL
 62
2
 10
652.669
 20
-6565.063
 30
542.511
 70
    32
  0
VERTEX
  8
T47SSILL
 62
2
 10
648.068
 20
-6561.318
 30
542.511
 70
    32
  0
VERTEX
  8
T47SSILL
 62
2
 10
637.025
 20
-6517.810
 30
542.541
 70
    32
  0
VERTEX
  8
T47SSILL
 62
2
 10
638.836
 20
-6513.827
 30
542.544
 70
    32
  0
VERTEX
  8
T47SSILL
 62
2
 10
634.934
 20
-6508.939
 30
542.547
 70
    32
  0
VERTEX
  8
T47SSILL
 62
2
 10
612.176
 20
-6419.729
 30
542.607
 70
    32
  0
VERTEX
  8
T47SSILL
 62
2
 10
601.795
 20
-6422.005
 30
542.603
 70
    32
  0
VERTEX
  8
T47SSILL
 62
2
 10
643.554
 20
-6592.031
 30
542.531
 70
    32
  0
VERTEX
  8
T47SSILL
 62
2
 10
644.171
 20
-6608.853
 30
542.562
 70
    32
  0
VERTEX
  8
T47SSILL
 62
2
 10
657.790
 20
-6652.797
 30
542.636
 70
    32
  0
VERTEX
  8
T47SSILL
 62
2
 10
673.251
 20
-6721.215
 30
542.754
 70
    32
  0
VERTEX
  8
T47SSILL
 62
2
 10
669.702
 20
-6721.685
 30
542.757
 70
    32
  0
VERTEX
  8
T47SSILL
 62
2
 10
628.632
 20
-6698.635
 30
542.736
 70
    32
  0
VERTEX
  8
T47SSILL
 62
2
 10
623.715
 20
-6698.243
 30
542.747
 70
    32
  0
VERTEX
  8
T47SSILL
 62
2
 10
617.787
 20
-6690.046
 30
542.727
 70
    32
  0
VERTEX
  8
T47SSILL
 62
2
 10
613.599
 20
-6692.049
 30
542.748
 70
    32
  0
VERTEX
  8
T47SSILL
 62
2
 10
592.432
 20
-6682.781
 30
542.767
 70
    32
  0
VERTEX
  8
T47SSILL
 62
2
 10
585.176
 20
-6691.377
 30
542.827
 70
    32
  0
VERTEX
  8
T47SSILL
 62
2
 10
594.071
 20
-6695.235
 30
542.819
 70
    32
  0
VERTEX
  8
T47SSILL
 62
2
 10
596.611
 20
-6704.434
 30
542.853
 70
    32
  0
VERTEX
  8
T47SSILL
 62
2
 10
583.598
 20
-6706.770
 30
542.902
 70
    32
  0
VERTEX
  8
T47SSILL
 62
2
 10
581.688
 20
-6709.852
 30
542.921
 70
    32
  0
VERTEX
  8
T47SSILL
 62
2
 10
532.206
 20
-6732.688
 30
543.169
 70
    32
  0
VERTEX
  8
T47SSILL
 62
2
 10
536.968
 20
-6741.053
 30
543.193
 70
    32
  0
VERTEX
  8
T47SSILL
 62
2
 10
585.179
 20
-6719.024
 30
542.953
 70
    32
  0
VERTEX
  8
T47SSILL
 62
2
 10
626.934
 20
-6709.765
 30
542.790
 70
    32
  0
VERTEX
  8
T47SSILL
 62
2
 10
661.744
 20
-6729.925
 30
542.780
 70
    32
  0
VERTEX
  8
T47SSILL
 62
2
 10
663.626
 20
-6733.335
 30
542.790
 70
    32
  0
VERTEX
  8
T47SSILL
 62
2
 10
674.012
 20
-6741.278
 30
542.796
 70
    32
  0
VERTEX
  8
T47SSILL
 62
2
 10
679.696
 20
-6752.777
 30
542.832
 70
    32
  0
VERTEX
  8
T47SSILL
 62
2
 10
716.569
 20
-6904.341
 30
543.355
 70
    32
  0
VERTEX
  8
T47SSILL
 62
2
 10
713.433
 20
-6909.162
 30
543.386
 70
    32
  0
VERTEX
  8
T47SSILL
 62
2
 10
695.746
 20
-6887.863
 30
543.354
 70
    32
  0
VERTEX
  8
T47SSILL
 62
2
 10
689.626
 20
-6893.064
 30
543.397
 70
    32
  0
VERTEX
  8
T47SSILL
 62
2
 10
711.349
 20
-6920.572
 30
543.441
 70
    32
  0
VERTEX
  8
T47SSILL
 62
2
 10
711.104
 20
-6924.547
 30
543.459
 70
    32
  0
VERTEX
  8
T47SSILL
 62
2
 10
717.163
 20
-6930.539
 30
543.464
 70
    32
  0
VERTEX
  8
T47SSILL
 62
2
 10
727.328
 20
-6930.598
 30
543.443
 70
    32
  0
VERTEX
  8
T47SSILL
 62
2
 10
731.745
 20
-6934.085
 30
543.459
 70
    32
  0
VERTEX
  8
T47SSILL
 62
2
 10
745.623
 20
-6955.325
 30
543.542
 70
    32
  0
VERTEX
  8
T47SSILL
 62
2
 10
743.663
 20
-6962.731
 30
543.565
 70
    32
  0
VERTEX
  8
T47SSILL
 62
2
 10
744.806
 20
-6969.470
 30
543.589
 70
    32
  0
VERTEX
  8
T47SSILL
 62
2
 10
734.881
 20
-6982.081
 30
543.625
 70
    32
  0
VERTEX
  8
T47SSILL
 62
2
 10
736.684
 20
-6985.521
 30
543.636
 70
    32
  0
VERTEX
  8
T47SSILL
 62
2
 10
727.485
 20
-6994.021
 30
543.700
 70
    32
  0
VERTEX
  8
T47SSILL
 62
2
 10
735.897
 20
-7000.994
 30
543.702
 70
    32
  0
VERTEX
  8
T47SSILL
 62
2
 10
754.287
 20
-6984.730
 30
543.648
 70
    32
  0
VERTEX
  8
T47SSILL
 62
2
 10
762.763
 20
-6982.209
 30
543.647
 70
    32
  0
VERTEX
  8
T47SSILL
 62
2
 10
777.573
 20
-7007.321
 30
543.744
 70
    32
  0
VERTEX
  8
T47SSILL
 62
2
 10
777.746
 20
-7016.517
 30
543.775
 70
    32
  0
VERTEX
  8
T47SSILL
 62
2
 10
785.122
 20
-7019.943
 30
543.793
 70
    32
  0
VERTEX
  8
T47SSILL
 62
2
 10
792.343
 20
-7032.871
 30
543.843
 70
    32
  0
VERTEX
  8
T47SSILL
 62
2
 10
789.459
 20
-7040.121
 30
543.864
 70
    32
  0
VERTEX
  8
T47SSILL
 62
2
 10
776.642
 20
-7046.343
 30
543.874
 70
    32
  0
VERTEX
  8
T47SSILL
 62
2
 10
777.203
 20
-7052.303
 30
543.895
 70
    32
  0
VERTEX
  8
T47SSILL
 62
2
 10
779.883
 20
-7055.824
 30
543.909
 70
    32
  0
VERTEX
  8
T47SSILL
 62
2
 10
796.642
 20
-7048.110
 30
543.897
 70
    32
  0
VERTEX
  8
T47SSILL
 62
2
 10
801.591
 20
-7050.444
 30
543.910
 70
    32
  0
VERTEX
  8
T47SSILL
 62
2
 10
803.312
 20
-7056.105
 30
543.930
 70
    32
  0
VERTEX
  8
T47SSILL
 62
2
 10
800.989
 20
-7062.080
 30
543.947
 70
    32
  0
VERTEX
  8
T47SSILL
 62
2
 10
796.642
 20
-7065.267
 30
543.953
 70
    32
  0
VERTEX
  8
T47SSILL
 62
2
 10
783.622
 20
-7063.759
 30
543.939
 70
    32
  0
VERTEX
  8
T47SSILL
 62
2
 10
759.397
 20
-7065.208
 30
543.923
 70
    32
  0
VERTEX
  8
T47SSILL
 62
2
 10
735.438
 20
-7073.315
 30
544.011
 70
    32
  0
VERTEX
  8
T47SSILL
 62
2
 10
733.901
 20
-7076.533
 30
544.029
 70
    32
  0
VERTEX
  8
T47SSILL
 62
2
 10
464.602
 20
-7136.169
 30
545.291
 70
    32
  0
VERTEX
  8
T47SSILL
 62
2
 10
467.226
 20
-7147.167
 30
545.420
 70
    32
  0
VERTEX
  8
T47SSILL
 62
2
 10
546.892
 20
-7129.636
 30
545.039
 70
    32
  0
VERTEX
  8
T47SSILL
 62
2
 10
549.680
 20
-7136.191
 30
545.113
 70
    32
  0
VERTEX
  8
T47SSILL
 62
2
 10
552.454
 20
-7138.518
 30
545.136
 70
    32
  0
VERTEX
  8
T47SSILL
 62
2
 10
571.991
 20
-7134.989
 30
545.052
 70
    32
  0
VERTEX
  8
T47SSILL
 62
2
 10
578.040
 20
-7130.031
 30
544.979
 70
    32
  0
VERTEX
  8
T47SSILL
 62
2
 10
576.434
 20
-7123.886
 30
544.907
 70
    32
  0
VERTEX
  8
T47SSILL
 62
2
 10
577.768
 20
-7122.860
 30
544.891
 70
    32
  0
VERTEX
  8
T47SSILL
 62
2
 10
661.866
 20
-7104.466
 30
544.490
 70
    32
  0
VERTEX
  8
T47SSILL
 62
2
 10
660.613
 20
-7114.538
 30
544.616
 70
    32
  0
VERTEX
  8
T47SSILL
 62
2
 10
654.152
 20
-7130.601
 30
544.826
 70
    32
  0
VERTEX
  8
T47SSILL
 62
2
 10
660.240
 20
-7137.817
 30
544.902
 70
    32
  0
VERTEX
  8
T47SSILL
 62
2
 10
637.068
 20
-7150.401
 30
545.105
 70
    32
  0
VERTEX
  8
T47SSILL
 62
2
 10
622.642
 20
-7154.511
 30
545.185
 70
    32
  0
VERTEX
  8
T47SSILL
 62
2
 10
604.483
 20
-7168.356
 30
545.393
 70
    32
  0
VERTEX
  8
T47SSILL
 62
2
 10
602.544
 20
-7179.161
 30
545.529
 70
    32
  0
VERTEX
  8
T47SSILL
 62
2
 10
584.795
 20
-7200.402
 30
545.827
 70
    32
  0
VERTEX
  8
T47SSILL
 62
2
 10
578.051
 20
-7199.688
 30
545.832
 70
    32
  0
VERTEX
  8
T47SSILL
 62
2
 10
557.914
 20
-7169.271
 30
545.501
 70
    32
  0
VERTEX
  8
T47SSILL
 62
2
 10
554.314
 20
-7168.796
 30
545.503
 70
    32
  0
VERTEX
  8
T47SSILL
 62
2
 10
549.293
 20
-7163.820
 30
545.453
 70
    32
  0
VERTEX
  8
T47SSILL
 62
2
 10
539.992
 20
-7165.504
 30
545.493
 70
    32
  0
VERTEX
  8
T47SSILL
 62
2
 10
535.315
 20
-7163.106
 30
545.473
 70
    32
  0
VERTEX
  8
T47SSILL
 62
2
 10
524.625
 20
-7136.290
 30
545.167
 70
    32
  0
VERTEX
  8
T47SSILL
 62
2
 10
514.769
 20
-7139.762
 30
545.230
 70
    32
  0
VERTEX
  8
T47SSILL
 62
2
 10
521.930
 20
-7154.277
 30
545.393
 70
    32
  0
VERTEX
  8
T47SSILL
 62
2
 10
524.789
 20
-7167.507
 30
545.549
 70
    32
  0
VERTEX
  8
T47SSILL
 62
2
 10
523.198
 20
-7174.169
 30
545.634
 70
    32
  0
VERTEX
  8
T47SSILL
 62
2
 10
524.568
 20
-7178.082
 30
545.679
 70
    32
  0
VERTEX
  8
T47SSILL
 62
2
 10
523.799
 20
-7181.035
 30
545.717
 70
    32
  0
VERTEX
  8
T47SSILL
 62
2
 10
518.205
 20
-7186.230
 30
545.792
 70
    32
  0
VERTEX
  8
T47SSILL
 62
2
 10
533.306
 20
-7207.441
 30
545.921
 70
    32
  0
VERTEX
  8
T47SSILL
 62
2
 10
532.068
 20
-7213.163
 30
545.940
 70
    32
  0
VERTEX
  8
T47SSILL
 62
2
 10
548.070
 20
-7244.356
 30
546.105
 70
    32
  0
VERTEX
  8
T47SSILL
 62
2
 10
558.096
 20
-7246.397
 30
546.140
 70
    32
  0
VERTEX
  8
T47SSILL
 62
2
 10
571.098
 20
-7244.891
 30
546.168
 70
    32
  0
VERTEX
  8
T47SSILL
 62
2
 10
581.079
 20
-7253.228
 30
546.227
 70
    32
  0
VERTEX
  8
T47SSILL
 62
2
 10
592.558
 20
-7247.519
 30
546.235
 70
    32
  0
VERTEX
  8
T47SSILL
 62
2
 10
588.363
 20
-7239.347
 30
546.192
 70
    32
  0
VERTEX
  8
T47SSILL
 62
2
 10
591.931
 20
-7235.397
 30
546.186
 70
    32
  0
VERTEX
  8
T47SSILL
 62
2
 10
591.096
 20
-7224.954
 30
546.114
 70
    32
  0
VERTEX
  8
T47SSILL
 62
2
 10
597.903
 20
-7217.361
 30
546.007
 70
    32
  0
VERTEX
  8
T47SSILL
 62
2
 10
592.497
 20
-7208.900
 30
545.915
 70
    32
  0
VERTEX
  8
T47SSILL
 62
2
 10
628.151
 20
-7164.149
 30
545.292
 70
    32
  0
VERTEX
  8
T47SSILL
 62
2
 10
635.417
 20
-7161.338
 30
545.242
 70
    32
  0
VERTEX
  8
T47SSILL
 62
2
 10
638.196
 20
-7164.179
 30
545.271
 70
    32
  0
VERTEX
  8
T47SSILL
 62
2
 10
637.792
 20
-7173.109
 30
545.381
 70
    32
  0
VERTEX
  8
T47SSILL
 62
2
 10
667.565
 20
-7192.127
 30
545.552
 70
    32
  0
VERTEX
  8
T47SSILL
 62
2
 10
675.173
 20
-7203.162
 30
545.671
 70
    32
  0
VERTEX
  8
T47SSILL
 62
2
 10
688.320
 20
-7213.792
 30
545.774
 70
    32
  0
VERTEX
  8
T47SSILL
 62
2
 10
700.735
 20
-7222.391
 30
545.854
 70
    32
  0
VERTEX
  8
T47SSILL
 62
2
 10
716.906
 20
-7230.542
 30
545.920
 70
    32
  0
VERTEX
  8
T47SSILL
 62
2
 10
719.836
 20
-7240.524
 30
546.036
 70
    32
  0
VERTEX
  8
T47SSILL
 62
2
 10
719.578
 20
-7264.662
 30
546.330
 70
    32
  0
VERTEX
  8
T47SSILL
 62
2
 10
712.656
 20
-7279.975
 30
546.534
 70
    32
  0
VERTEX
  8
T47SSILL
 62
2
 10
704.948
 20
-7289.466
 30
546.667
 70
    32
  0
VERTEX
  8
T47SSILL
 62
2
 10
672.421
 20
-7298.600
 30
546.647
 70
    32
  0
VERTEX
  8
T47SSILL
 62
2
 10
649.561
 20
-7294.869
 30
546.572
 70
    32
  0
VERTEX
  8
T47SSILL
 62
2
 10
645.624
 20
-7298.219
 30
546.575
 70
    32
  0
VERTEX
  8
T47SSILL
 62
2
 10
637.232
 20
-7298.472
 30
546.554
 70
    32
  0
VERTEX
  8
T47SSILL
 62
2
 10
637.320
 20
-7309.936
 30
546.599
 70
    32
  0
VERTEX
  8
T47SSILL
 62
2
 10
660.675
 20
-7307.575
 30
546.651
 70
    32
  0
VERTEX
  8
T47SSILL
 62
2
 10
671.301
 20
-7309.728
 30
546.688
 70
    32
  0
VERTEX
  8
T47SSILL
 62
2
 10
680.059
 20
-7308.170
 30
546.705
 70
    32
  0
VERTEX
  8
T47SSILL
 62
2
 10
686.363
 20
-7320.111
 30
546.748
 70
    32
  0
VERTEX
  8
T47SSILL
 62
2
 10
705.814
 20
-7304.728
 30
546.749
 70
    32
  0
VERTEX
  8
T47SSILL
 62
2
 10
709.597
 20
-7320.327
 30
546.741
 70
    32
  0
VERTEX
  8
T47SSILL
 62
2
 10
715.893
 20
-7318.952
 30
546.740
 70
    32
  0
VERTEX
  8
T47SSILL
 62
2
 10
712.611
 20
-7304.292
 30
546.747
 70
    32
  0
VERTEX
  8
T47SSILL
 62
2
 10
717.839
 20
-7294.465
 30
546.672
 70
    32
  0
VERTEX
  8
T47SSILL
 62
2
 10
726.373
 20
-7284.467
 30
546.488
 70
    32
  0
VERTEX
  8
T47SSILL
 62
2
 10
730.318
 20
-7284.833
 30
546.457
 70
    32
  0
VERTEX
  8
T47SSILL
 62
2
 10
798.252
 20
-7378.904
 30
546.510
 70
    32
  0
VERTEX
  8
T47SSILL
 62
2
 10
780.451
 20
-7495.268
 30
546.645
 70
    32
  0
VERTEX
  8
T47SSILL
 62
2
 10
766.466
 20
-7505.308
 30
546.645
 70
    32
  0
VERTEX
  8
T47SSILL
 62
2
 10
772.264
 20
-7513.735
 30
546.639
 70
    32
  0
VERTEX
  8
T47SSILL
 62
2
 10
777.978
 20
-7509.914
 30
546.639
 70
    32
  0
VERTEX
  8
T47SSILL
 62
2
 10
775.677
 20
-7525.985
 30
546.633
 70
    32
  0
VERTEX
  8
T47SSILL
 62
2
 10
786.759
 20
-7527.568
 30
546.629
 70
    32
  0
VERTEX
  8
T47SSILL
 62
2
 10
790.838
 20
-7500.565
 30
546.640
 70
    32
  0
VERTEX
  8
T47SSILL
 62
2
 10
793.713
 20
-7498.179
 30
546.640
 70
    32
  0
VERTEX
  8
T47SSILL
 62
2
 10
791.356
 20
-7493.839
 30
546.642
 70
    32
  0
VERTEX
  8
T47SSILL
 62
2
 10
811.488
 20
-7358.057
 30
546.346
 70
    32
  0
VERTEX
  8
T47SSILL
 62
2
 10
879.903
 20
-7274.778
 30
545.042
 70
    32
  0
VERTEX
  8
T47SSILL
 62
2
 10
888.048
 20
-7275.251
 30
544.976
 70
    32
  0
VERTEX
  8
T47SSILL
 62
2
 10
904.104
 20
-7258.150
 30
544.648
 70
    32
  0
VERTEX
  8
T47SSILL
 62
2
 10
921.539
 20
-7257.256
 30
544.556
 70
    32
  0
VERTEX
  8
T47SSILL
 62
2
 10
945.128
 20
-7292.787
 30
544.670
 70
    32
  0
VERTEX
  8
T47SSILL
 62
2
 10
949.115
 20
-7292.714
 30
544.670
 70
    32
  0
VERTEX
  8
T47SSILL
 62
2
 10
958.341
 20
-7308.234
 30
544.724
 70
    32
  0
VERTEX
  8
T47SSILL
 62
2
 10
960.170
 20
-7316.929
 30
544.803
 70
    32
  0
VERTEX
  8
T47SSILL
 62
2
 10
966.404
 20
-7320.851
 30
544.791
 70
    32
  0
VERTEX
  8
T47SSILL
 62
2
 10
983.444
 20
-7349.760
 30
544.954
 70
    32
  0
VERTEX
  8
T47SSILL
 62
2
 10
984.258
 20
-7358.149
 30
545.037
 70
    32
  0
VERTEX
  8
T47SSILL
 62
2
 10
990.400
 20
-7360.576
 30
545.010
 70
    32
  0
VERTEX
  8
T47SSILL
 62
2
 10
1011.226
 20
-7396.151
 30
545.212
 70
    32
  0
VERTEX
  8
T47SSILL
 62
2
 10
1011.875
 20
-7401.747
 30
545.229
 70
    32
  0
VERTEX
  8
T47SSILL
 62
2
 10
1017.025
 20
-7404.578
 30
545.217
 70
    32
  0
VERTEX
  8
T47SSILL
 62
2
 10
1034.405
 20
-7434.208
 30
545.677
 70
    32
  0
VERTEX
  8
T47SSILL
 62
2
 10
1033.985
 20
-7441.598
 30
545.717
 70
    32
  0
VERTEX
  8
T47SSILL
 62
2
 10
1039.736
 20
-7442.715
 30
545.815
 70
    32
  0
VERTEX
  8
T47SSILL
 62
2
 10
1061.069
 20
-7479.116
 30
546.381
 70
    32
  0
VERTEX
  8
T47SSILL
 62
2
 10
1062.080
 20
-7486.143
 30
546.441
 70
    32
  0
VERTEX
  8
T47SSILL
 62
2
 10
1067.184
 20
-7488.899
 30
546.495
 70
    32
  0
VERTEX
  8
T47SSILL
 62
2
 10
1087.515
 20
-7521.987
 30
546.423
 70
    32
  0
VERTEX
  8
T47SSILL
 62
2
 10
1085.872
 20
-7529.405
 30
546.420
 70
    32
  0
VERTEX
  8
T47SSILL
 62
2
 10
1093.116
 20
-7531.775
 30
546.402
 70
    32
  0
VERTEX
  8
T47SSILL
 62
2
 10
1113.286
 20
-7565.273
 30
546.330
 70
    32
  0
VERTEX
  8
T47SSILL
 62
2
 10
1114.145
 20
-7575.081
 30
546.320
 70
    32
  0
VERTEX
  8
T47SSILL
 62
2
 10
1120.565
 20
-7576.614
 30
546.305
 70
    32
  0
VERTEX
  8
T47SSILL
 62
2
 10
1131.249
 20
-7595.682
 30
546.265
 70
    32
  0
VERTEX
  8
T47SSILL
 62
2
 10
1138.735
 20
-7590.876
 30
546.200
 70
    32
  0
VERTEX
  8
T47SSILL
 62
2
 10
1128.593
 20
-7573.025
 30
546.237
 70
    32
  0
VERTEX
  8
T47SSILL
 62
2
 10
1126.840
 20
-7562.939
 30
546.226
 70
    32
  0
VERTEX
  8
T47SSILL
 62
2
 10
1121.221
 20
-7561.534
 30
546.267
 70
    32
  0
VERTEX
  8
T47SSILL
 62
2
 10
1100.377
 20
-7527.107
 30
546.349
 70
    32
  0
VERTEX
  8
T47SSILL
 62
2
 10
1100.486
 20
-7520.218
 30
546.331
 70
    32
  0
VERTEX
  8
T47SSILL
 62
2
 10
1094.845
 20
-7518.103
 30
546.370
 70
    32
  0
VERTEX
  8
T47SSILL
 62
2
 10
1074.179
 20
-7483.463
 30
546.450
 70
    32
  0
VERTEX
  8
T47SSILL
 62
2
 10
1075.320
 20
-7477.077
 30
546.425
 70
    32
  0
VERTEX
  8
T47SSILL
 62
2
 10
1067.973
 20
-7473.530
 30
546.449
 70
    32
  0
VERTEX
  8
T47SSILL
 62
2
 10
1050.056
 20
-7443.195
 30
545.975
 70
    32
  0
VERTEX
  8
T47SSILL
 62
2
 10
1051.141
 20
-7434.363
 30
545.929
 70
    32
  0
VERTEX
  8
T47SSILL
 62
2
 10
1042.219
 20
-7430.440
 30
545.771
 70
    32
  0
VERTEX
  8
T47SSILL
 62
2
 10
1024.631
 20
-7401.144
 30
545.309
 70
    32
  0
VERTEX
  8
T47SSILL
 62
2
 10
1025.737
 20
-7394.366
 30
545.278
 70
    32
  0
VERTEX
  8
T47SSILL
 62
2
 10
1019.323
 20
-7392.002
 30
545.168
 70
    32
  0
VERTEX
  8
T47SSILL
 62
2
 10
998.785
 20
-7357.904
 30
544.987
 70
    32
  0
VERTEX
  8
T47SSILL
 62
2
 10
996.599
 20
-7348.292
 30
544.947
 70
    32
  0
VERTEX
  8
T47SSILL
 62
2
 10
995.233
 20
-7346.237
 30
544.936
 70
    32
  0
VERTEX
  8
T47SSILL
 62
2
 10
991.627
 20
-7346.592
 30
544.927
 70
    32
  0
VERTEX
  8
T47SSILL
 62
2
 10
974.679
 20
-7317.833
 30
544.779
 70
    32
  0
VERTEX
  8
T47SSILL
 62
2
 10
978.536
 20
-7304.093
 30
544.742
 70
    32
  0
VERTEX
  8
T47SSILL
 62
2
 10
988.576
 20
-7302.265
 30
544.764
 70
    32
  0
VERTEX
  8
T47SSILL
 62
2
 10
998.887
 20
-7273.294
 30
544.692
 70
    32
  0
VERTEX
  8
T47SSILL
 62
2
 10
999.013
 20
-7265.257
 30
544.665
 70
    32
  0
VERTEX
  8
T47SSILL
 62
2
 10
1002.639
 20
-7252.487
 30
544.630
 70
    32
  0
VERTEX
  8
T47SSILL
 62
2
 10
1004.210
 20
-7249.661
 30
544.625
 70
    32
  0
VERTEX
  8
T47SSILL
 62
2
 10
1007.938
 20
-7247.990
 30
544.630
 70
    32
  0
VERTEX
  8
T47SSILL
 62
2
 10
1007.951
 20
-7237.750
 30
544.594
 70
    32
  0
VERTEX
  8
T47SSILL
 62
2
 10
1018.184
 20
-7222.780
 30
544.571
 70
    32
  0
VERTEX
  8
T47SSILL
 62
2
 10
1017.348
 20
-7220.916
 30
544.562
 70
    32
  0
VERTEX
  8
T47SSILL
 62
2
 10
1009.955
 20
-7217.294
 30
544.528
 70
    32
  0
VERTEX
  8
T47SSILL
 62
2
 10
994.300
 20
-7239.420
 30
544.561
 70
    32
  0
VERTEX
  8
T47SSILL
 62
2
 10
969.411
 20
-7292.439
 30
544.682
 70
    32
  0
VERTEX
  8
T47SSILL
 62
2
 10
961.452
 20
-7288.234
 30
544.665
 70
    32
  0
VERTEX
  8
T47SSILL
 62
2
 10
956.208
 20
-7287.942
 30
544.661
 70
    32
  0
VERTEX
  8
T47SSILL
 62
2
 10
945.703
 20
-7270.005
 30
544.606
 70
    32
  0
VERTEX
  8
T47SSILL
 62
2
 10
945.671
 20
-7265.580
 30
544.594
 70
    32
  0
VERTEX
  8
T47SSILL
 62
2
 10
941.952
 20
-7263.731
 30
544.586
 70
    32
  0
VERTEX
  8
T47SSILL
 62
2
 10
919.805
 20
-7227.521
 30
544.474
 70
    32
  0
VERTEX
  8
T47SSILL
 62
2
 10
918.967
 20
-7219.766
 30
544.452
 70
    32
  0
VERTEX
  8
T47SSILL
 62
2
 10
916.552
 20
-7217.013
 30
544.443
 70
    32
  0
VERTEX
  8
T47SSILL
 62
2
 10
907.999
 20
-7195.188
 30
544.378
 70
    32
  0
VERTEX
  8
T47SSILL
 62
2
 10
902.642
 20
-7191.348
 30
544.364
 70
    32
  0
VERTEX
  8
T47SSILL
 62
2
 10
881.662
 20
-7161.242
 30
544.269
 70
    32
  0
VERTEX
  8
T47SSILL
 62
2
 10
880.129
 20
-7150.505
 30
544.239
 70
    32
  0
VERTEX
  8
T47SSILL
 62
2
 10
873.498
 20
-7136.181
 30
544.195
 70
    32
  0
VERTEX
  8
T47SSILL
 62
2
 10
889.140
 20
-7108.482
 30
544.130
 70
    32
  0
VERTEX
  8
T47SSILL
 62
2
 10
935.870
 20
-7074.187
 30
544.066
 70
    32
  0
VERTEX
  8
T47SSILL
 62
2
 10
942.649
 20
-7073.949
 30
544.070
 70
    32
  0
VERTEX
  8
T47SSILL
 62
2
 10
956.893
 20
-7064.162
 30
544.052
 70
    32
  0
VERTEX
  8
T47SSILL
 62
2
 10
965.980
 20
-7063.643
 30
544.057
 70
    32
  0
VERTEX
  8
T47SSILL
 62
2
 10
969.709
 20
-7060.628
 30
544.051
 70
    32
  0
VERTEX
  8
T47SSILL
 62
2
 10
970.831
 20
-7048.156
 30
544.018
 70
    32
  0
VERTEX
  8
T47SSILL
 62
2
 10
1040.780
 20
-6998.663
 30
543.927
 70
    32
  0
VERTEX
  8
T47SSILL
 62
2
 10
1048.657
 20
-6996.510
 30
543.926
 70
    32
  0
VERTEX
  8
T47SSILL
 62
2
 10
1054.102
 20
-6988.720
 30
543.909
 70
    32
  0
VERTEX
  8
T47SSILL
 62
2
 10
1184.353
 20
-6894.919
 30
543.868
 70
    32
  0
VERTEX
  8
T47SSILL
 62
2
 10
1224.326
 20
-6868.661
 30
543.653
 70
    32
  0
VERTEX
  8
T47SSILL
 62
2
 10
1233.532
 20
-6872.960
 30
543.644
 70
    32
  0
VERTEX
  8
T47SSILL
 62
2
 10
1240.402
 20
-6887.362
 30
543.681
 70
    32
  0
VERTEX
  8
T47SSILL
 62
2
 10
1249.269
 20
-6880.333
 30
543.605
 70
    32
  0
VERTEX
  8
T47SSILL
 62
2
 10
1243.586
 20
-6868.242
 30
543.597
 70
    32
  0
VERTEX
  8
T47SSILL
 62
2
 10
1244.018
 20
-6866.542
 30
543.589
 70
    32
  0
VERTEX
  8
T47SSILL
 62
2
 10
1248.804
 20
-6863.814
 30
543.565
 70
    32
  0
VERTEX
  8
T47SSILL
 62
2
 10
1251.000
 20
-6856.752
 30
543.531
 70
    32
  0
VERTEX
  8
T47SSILL
 62
2
 10
1257.462
 20
-6851.210
 30
543.497
 70
    32
  0
VERTEX
  8
T47SSILL
 62
2
 10
1265.939
 20
-6854.744
 30
543.501
 70
    32
  0
VERTEX
  8
T47SSILL
 62
2
 10
1273.469
 20
-6849.130
 30
543.476
 70
    32
  0
VERTEX
  8
T47SSILL
 62
2
 10
1263.553
 20
-6841.573
 30
543.459
 70
    32
  0
VERTEX
  8
T47SSILL
 62
2
 10
1263.438
 20
-6839.752
 30
543.453
 70
    32
  0
VERTEX
  8
T47SSILL
 62
2
 10
1380.571
 20
-6754.312
 30
543.150
 70
    32
  0
VERTEX
  8
T47SSILL
 62
2
 10
1387.428
 20
-6752.619
 30
543.151
 70
    32
  0
VERTEX
  8
T47SSILL
 62
2
 10
1390.601
 20
-6746.909
 30
543.133
 70
    32
  0
VERTEX
  8
T47SSILL
 62
2
 10
1545.692
 20
-6635.743
 30
542.870
 70
    32
  0
VERTEX
  8
T47SSILL
 62
2
 10
1548.369
 20
-6637.528
 30
542.877
 70
    32
  0
VERTEX
  8
T47SSILL
 62
2
 10
1553.875
 20
-6637.373
 30
542.882
 70
    32
  0
VERTEX
  8
T47SSILL
 62
2
 10
1566.134
 20
-6628.402
 30
542.862
 70
    32
  0
VERTEX
  8
T47SSILL
 62
2
 10
1578.983
 20
-6611.633
 30
542.854
 70
    32
  0
VERTEX
  8
T47SSILL
 62
2
 10
1663.783
 20
-6550.095
 30
542.745
 70
    32
  0
SEQEND
  8
T47SSILL
  0
TEXT
  8
T47SSILL
 62
2
 10
3781.057
 20
-6169.880
 30
546.434
 40
0.200
  1
4700
 50
111.264
 41
 1.0 
  0
TEXT
  8
T47SSILL
 62
2
 10
581.682
 20
-6668.737
 30
561.719
 40
0.200
  1
U
 41
 1.0 
  0
TEXT
  8
T47SSILL
 62
2
 10
714.224
 20
-6999.066
 30
556.838
 40
0.200
  1
U
 41
 1.0 
  0
TEXT
  8
T47SSILL
 62
2
 10
891.587
 20
-7052.826
 30
556.611
 40
0.200
  1
U
 41
 1.0 
  0
TEXT
  8
T47SSILL
 62
2
 10
672.608
 20
-6948.558
 30
538.789
 40
0.200
  1
D
 41
 1.0 
  0
TEXT
  8
T47SSILL
 62
2
 10
-704.274
 20
-7494.013
 30
556.201
 40
0.200
  1
4700
 50
111.264
 41
 1.0 
  0
ENDSEC
  0
EOF
