999
********************************
999
*   DXF File - Entities Only   *
999
*        3D Data Format        *
999
*     Output from ENVISAGE     *
999
*     20-Dec-2007 15:31:18     *
999
********************************
  0
SECTION 
  2
HEADER
  9
$ACADVER
  1
AC1009
  9
$EXTMIN
 10
-290000.000
 20
-250000.000
 30
-4000.000
  9
$EXTMAX
 10
5000000.000
 20
600000.000
 30
6000.000
  0
ENDSEC
  0
SECTION
  2
ENTITIES
  0
POLYLINE
  8
T50SSILL
 62
13
 66
     1
 70
     9
  0
VERTEX
  8
T50SSILL
 62
13
 10
645.246
 20
-6902.655
 30
253.063
 70
    32
  0
VERTEX
  8
T50SSILL
 62
13
 10
643.912
 20
-6911.940
 30
252.254
 70
    32
  0
SEQEND
  8
T50SSILL
  0
POLYLINE
  8
T50SSILL
 62
13
 66
     1
 70
     9
  0
VERTEX
  8
T50SSILL
 62
13
 10
4220.254
 20
-8023.018
 30
238.010
 70
    32
  0
VERTEX
  8
T50SSILL
 62
13
 10
4220.236
 20
-8023.042
 30
238.010
 70
    32
  0
SEQEND
  8
T50SSILL
  0
POLYLINE
  8
T50SSILL
 62
13
 66
     1
 70
     9
  0
VERTEX
  8
T50SSILL
 62
13
 10
2152.961
 20
-4791.799
 30
237.951
 70
    32
  0
VERTEX
  8
T50SSILL
 62
13
 10
2139.671
 20
-4787.738
 30
237.942
 70
    32
  0
VERTEX
  8
T50SSILL
 62
13
 10
2135.475
 20
-4804.769
 30
237.954
 70
    32
  0
VERTEX
  8
T50SSILL
 62
13
 10
2148.039
 20
-4809.193
 30
237.964
 70
    32
  0
SEQEND
  8
T50SSILL
  0
POLYLINE
  8
T50SSILL
 62
13
 66
     1
 70
     9
  0
VERTEX
  8
T50SSILL
 62
13
 10
245.727
 20
-6124.201
 30
259.694
 70
    32
  0
VERTEX
  8
T50SSILL
 62
13
 10
248.739
 20
-6121.628
 30
259.703
 70
    32
  0
VERTEX
  8
T50SSILL
 62
13
 10
253.445
 20
-6122.179
 30
259.691
 70
    32
  0
VERTEX
  8
T50SSILL
 62
13
 10
259.104
 20
-6130.908
 30
259.630
 70
    32
  0
VERTEX
  8
T50SSILL
 62
13
 10
256.759
 20
-6135.596
 30
259.607
 70
    32
  0
VERTEX
  8
T50SSILL
 62
13
 10
253.224
 20
-6137.995
 30
259.599
 70
    32
  0
VERTEX
  8
T50SSILL
 62
13
 10
250.559
 20
-6137.611
 30
259.606
 70
    32
  0
SEQEND
  8
T50SSILL
  0
POLYLINE
  8
T50SSILL
 62
13
 66
     1
 70
     9
  0
VERTEX
  8
T50SSILL
 62
13
 10
245.727
 20
-6124.201
 30
259.694
 70
    32
  0
VERTEX
  8
T50SSILL
 62
13
 10
248.739
 20
-6121.628
 30
259.703
 70
    32
  0
VERTEX
  8
T50SSILL
 62
13
 10
253.445
 20
-6122.179
 30
259.691
 70
    32
  0
VERTEX
  8
T50SSILL
 62
13
 10
259.104
 20
-6130.908
 30
259.630
 70
    32
  0
VERTEX
  8
T50SSILL
 62
13
 10
256.759
 20
-6135.596
 30
259.607
 70
    32
  0
VERTEX
  8
T50SSILL
 62
13
 10
253.224
 20
-6137.995
 30
259.599
 70
    32
  0
VERTEX
  8
T50SSILL
 62
13
 10
250.559
 20
-6137.611
 30
259.606
 70
    32
  0
SEQEND
  8
T50SSILL
  0
POLYLINE
  8
T50SSILL
 62
13
 66
     1
 70
     9
  0
VERTEX
  8
T50SSILL
 62
13
 10
5896.256
 20
-8477.487
 30
239.233
 70
    32
  0
VERTEX
  8
T50SSILL
 62
13
 10
5896.256
 20
-8483.827
 30
239.234
 70
    32
  0
VERTEX
  8
T50SSILL
 62
13
 10
5906.614
 20
-8476.498
 30
239.250
 70
    32
  0
VERTEX
  8
T50SSILL
 62
13
 10
5895.943
 20
-8473.915
 30
239.232
 70
    32
  0
SEQEND
  8
T50SSILL
  0
POLYLINE
  8
T50SSILL
 62
13
 66
     1
 70
     9
  0
VERTEX
  8
T50SSILL
 62
13
 10
4235.465
 20
-7442.130
 30
237.619
 70
    32
  0
VERTEX
  8
T50SSILL
 62
13
 10
4236.076
 20
-7433.412
 30
237.608
 70
    32
  0
VERTEX
  8
T50SSILL
 62
13
 10
4244.490
 20
-7418.066
 30
237.581
 70
    32
  0
VERTEX
  8
T50SSILL
 62
13
 10
4225.577
 20
-7417.827
 30
237.605
 70
    32
  0
VERTEX
  8
T50SSILL
 62
13
 10
4215.980
 20
-7414.057
 30
237.613
 70
    32
  0
SEQEND
  8
T50SSILL
  0
POLYLINE
  8
T50SSILL
 62
13
 66
     1
 70
     9
  0
VERTEX
  8
T50SSILL
 62
13
 10
4261.564
 20
-7491.486
 30
237.639
 70
    32
  0
VERTEX
  8
T50SSILL
 62
13
 10
4229.345
 20
-7486.296
 30
237.674
 70
    32
  0
VERTEX
  8
T50SSILL
 62
13
 10
4214.742
 20
-7497.017
 30
237.705
 70
    32
  0
VERTEX
  8
T50SSILL
 62
13
 10
4210.206
 20
-7520.710
 30
237.736
 70
    32
  0
VERTEX
  8
T50SSILL
 62
13
 10
4233.455
 20
-7591.919
 30
237.784
 70
    32
  0
VERTEX
  8
T50SSILL
 62
13
 10
4286.145
 20
-7555.553
 30
237.677
 70
    32
  0
VERTEX
  8
T50SSILL
 62
13
 10
4295.357
 20
-7553.705
 30
237.663
 70
    32
  0
VERTEX
  8
T50SSILL
 62
13
 10
4306.212
 20
-7554.276
 30
237.649
 70
    32
  0
SEQEND
  8
T50SSILL
  0
POLYLINE
  8
T50SSILL
 62
13
 66
     1
 70
     9
  0
VERTEX
  8
T50SSILL
 62
13
 10
2155.859
 20
-4576.737
 30
237.769
 70
    32
  0
VERTEX
  8
T50SSILL
 62
13
 10
2137.325
 20
-4589.633
 30
237.781
 70
    32
  0
VERTEX
  8
T50SSILL
 62
13
 10
2134.626
 20
-4594.409
 30
237.782
 70
    32
  0
VERTEX
  8
T50SSILL
 62
13
 10
2139.416
 20
-4604.477
 30
237.784
 70
    32
  0
VERTEX
  8
T50SSILL
 62
13
 10
2148.901
 20
-4603.318
 30
237.788
 70
    32
  0
VERTEX
  8
T50SSILL
 62
13
 10
2151.750
 20
-4618.145
 30
237.802
 70
    32
  0
VERTEX
  8
T50SSILL
 62
13
 10
2193.496
 20
-4618.587
 30
237.822
 70
    32
  0
VERTEX
  8
T50SSILL
 62
13
 10
2164.584
 20
-4578.680
 30
237.774
 70
    32
  0
VERTEX
  8
T50SSILL
 62
13
 10
2156.792
 20
-4576.945
 30
237.769
 70
    32
  0
SEQEND
  8
T50SSILL
  0
POLYLINE
  8
T50SSILL
 62
13
 66
     1
 70
     9
  0
VERTEX
  8
T50SSILL
 62
13
 10
5003.211
 20
-6614.792
 30
236.223
 70
    32
  0
VERTEX
  8
T50SSILL
 62
13
 10
5018.241
 20
-6667.092
 30
236.248
 70
    32
  0
VERTEX
  8
T50SSILL
 62
13
 10
5035.513
 20
-6682.201
 30
236.247
 70
    32
  0
VERTEX
  8
T50SSILL
 62
13
 10
5013.150
 20
-6598.389
 30
236.222
 70
    32
  0
SEQEND
  8
T50SSILL
  0
POLYLINE
  8
T50SSILL
 62
13
 66
     1
 70
     9
  0
VERTEX
  8
T50SSILL
 62
13
 10
4973.731
 20
-8486.604
 30
238.631
 70
    32
  0
VERTEX
  8
T50SSILL
 62
13
 10
4965.905
 20
-8492.618
 30
238.629
 70
    32
  0
VERTEX
  8
T50SSILL
 62
13
 10
4980.195
 20
-8531.550
 30
238.653
 70
    32
  0
VERTEX
  8
T50SSILL
 62
13
 10
4989.173
 20
-8546.204
 30
238.664
 70
    32
  0
VERTEX
  8
T50SSILL
 62
13
 10
4988.995
 20
-8559.712
 30
238.669
 70
    32
  0
VERTEX
  8
T50SSILL
 62
13
 10
4992.535
 20
-8567.757
 30
238.674
 70
    32
  0
VERTEX
  8
T50SSILL
 62
13
 10
5001.607
 20
-8560.898
 30
238.677
 70
    32
  0
VERTEX
  8
T50SSILL
 62
13
 10
5011.750
 20
-8557.209
 30
238.681
 70
    32
  0
VERTEX
  8
T50SSILL
 62
13
 10
5024.846
 20
-8557.882
 30
238.689
 70
    32
  0
SEQEND
  8
T50SSILL
  0
POLYLINE
  8
T50SSILL
 62
13
 66
     1
 70
     9
  0
VERTEX
  8
T50SSILL
 62
13
 10
4975.822
 20
-8476.901
 30
238.629
 70
    32
  0
VERTEX
  8
T50SSILL
 62
13
 10
4980.741
 20
-8461.951
 30
238.626
 70
    32
  0
VERTEX
  8
T50SSILL
 62
13
 10
4983.844
 20
-8457.284
 30
238.626
 70
    32
  0
VERTEX
  8
T50SSILL
 62
13
 10
5054.338
 20
-8405.651
 30
238.660
 70
    32
  0
VERTEX
  8
T50SSILL
 62
13
 10
5051.923
 20
-8401.287
 30
238.658
 70
    32
  0
VERTEX
  8
T50SSILL
 62
13
 10
5057.337
 20
-8396.752
 30
238.661
 70
    32
  0
VERTEX
  8
T50SSILL
 62
13
 10
5055.382
 20
-8392.704
 30
238.659
 70
    32
  0
VERTEX
  8
T50SSILL
 62
13
 10
5052.873
 20
-8391.285
 30
238.657
 70
    32
  0
VERTEX
  8
T50SSILL
 62
13
 10
5049.634
 20
-8392.849
 30
238.655
 70
    32
  0
VERTEX
  8
T50SSILL
 62
13
 10
5032.813
 20
-8388.435
 30
238.644
 70
    32
  0
VERTEX
  8
T50SSILL
 62
13
 10
5023.086
 20
-8362.410
 30
238.633
 70
    32
  0
VERTEX
  8
T50SSILL
 62
13
 10
5018.525
 20
-8345.412
 30
238.628
 70
    32
  0
VERTEX
  8
T50SSILL
 62
13
 10
5014.354
 20
-8342.818
 30
238.625
 70
    32
  0
VERTEX
  8
T50SSILL
 62
13
 10
5011.227
 20
-8345.845
 30
238.623
 70
    32
  0
VERTEX
  8
T50SSILL
 62
13
 10
5010.226
 20
-8356.217
 30
238.624
 70
    32
  0
VERTEX
  8
T50SSILL
 62
13
 10
5003.650
 20
-8356.436
 30
238.620
 70
    32
  0
VERTEX
  8
T50SSILL
 62
13
 10
4993.757
 20
-8347.005
 30
238.612
 70
    32
  0
VERTEX
  8
T50SSILL
 62
13
 10
4938.108
 20
-8388.743
 30
238.581
 70
    32
  0
VERTEX
  8
T50SSILL
 62
13
 10
4934.023
 20
-8395.035
 30
238.579
 70
    32
  0
VERTEX
  8
T50SSILL
 62
13
 10
4931.010
 20
-8404.939
 30
238.579
 70
    32
  0
VERTEX
  8
T50SSILL
 62
13
 10
4938.214
 20
-8424.459
 30
238.586
 70
    32
  0
SEQEND
  8
T50SSILL
  0
POLYLINE
  8
T50SSILL
 62
13
 66
     1
 70
     9
  0
VERTEX
  8
T50SSILL
 62
13
 10
4836.114
 20
-8205.409
 30
238.367
 70
    32
  0
VERTEX
  8
T50SSILL
 62
13
 10
4846.093
 20
-8198.924
 30
238.364
 70
    32
  0
VERTEX
  8
T50SSILL
 62
13
 10
4848.071
 20
-8201.753
 30
238.369
 70
    32
  0
VERTEX
  8
T50SSILL
 62
13
 10
4853.238
 20
-8197.059
 30
238.366
 70
    32
  0
VERTEX
  8
T50SSILL
 62
13
 10
4858.730
 20
-8183.995
 30
238.352
 70
    32
  0
VERTEX
  8
T50SSILL
 62
13
 10
4855.567
 20
-8160.796
 30
238.322
 70
    32
  0
VERTEX
  8
T50SSILL
 62
13
 10
4848.812
 20
-8144.766
 30
238.298
 70
    32
  0
VERTEX
  8
T50SSILL
 62
13
 10
4844.595
 20
-8139.208
 30
238.289
 70
    32
  0
VERTEX
  8
T50SSILL
 62
13
 10
4837.612
 20
-8135.006
 30
238.281
 70
    32
  0
VERTEX
  8
T50SSILL
 62
13
 10
4805.322
 20
-8127.363
 30
238.254
 70
    32
  0
VERTEX
  8
T50SSILL
 62
13
 10
4770.600
 20
-8153.215
 30
238.268
 70
    32
  0
VERTEX
  8
T50SSILL
 62
13
 10
4763.969
 20
-8168.925
 30
238.284
 70
    32
  0
VERTEX
  8
T50SSILL
 62
13
 10
4767.028
 20
-8183.649
 30
238.304
 70
    32
  0
VERTEX
  8
T50SSILL
 62
13
 10
4812.495
 20
-8245.767
 30
238.405
 70
    32
  0
VERTEX
  8
T50SSILL
 62
13
 10
4814.334
 20
-8236.042
 30
238.394
 70
    32
  0
VERTEX
  8
T50SSILL
 62
13
 10
4820.284
 20
-8226.597
 30
238.385
 70
    32
  0
VERTEX
  8
T50SSILL
 62
13
 10
4828.278
 20
-8218.671
 30
238.379
 70
    32
  0
VERTEX
  8
T50SSILL
 62
13
 10
4839.819
 20
-8211.045
 30
238.376
 70
    32
  0
SEQEND
  8
T50SSILL
  0
POLYLINE
  8
T50SSILL
 62
13
 66
     1
 70
     9
  0
VERTEX
  8
T50SSILL
 62
13
 10
4157.918
 20
-7992.719
 30
237.962
 70
    32
  0
VERTEX
  8
T50SSILL
 62
13
 10
4155.303
 20
-7997.602
 30
237.962
 70
    32
  0
VERTEX
  8
T50SSILL
 62
13
 10
4175.648
 20
-8043.004
 30
237.992
 70
    32
  0
VERTEX
  8
T50SSILL
 62
13
 10
4181.839
 20
-8038.725
 30
237.994
 70
    32
  0
VERTEX
  8
T50SSILL
 62
13
 10
4186.087
 20
-8044.599
 30
237.999
 70
    32
  0
VERTEX
  8
T50SSILL
 62
13
 10
4177.990
 20
-8049.756
 30
237.996
 70
    32
  0
VERTEX
  8
T50SSILL
 62
13
 10
4232.910
 20
-8178.647
 30
238.079
 70
    32
  0
VERTEX
  8
T50SSILL
 62
13
 10
4373.093
 20
-8074.178
 30
238.114
 70
    32
  0
VERTEX
  8
T50SSILL
 62
13
 10
4369.337
 20
-8069.042
 30
238.110
 70
    32
  0
VERTEX
  8
T50SSILL
 62
13
 10
4367.690
 20
-8051.447
 30
238.101
 70
    32
  0
VERTEX
  8
T50SSILL
 62
13
 10
4369.414
 20
-8044.783
 30
238.099
 70
    32
  0
VERTEX
  8
T50SSILL
 62
13
 10
4365.879
 20
-8037.411
 30
238.094
 70
    32
  0
VERTEX
  8
T50SSILL
 62
13
 10
4365.108
 20
-8030.625
 30
238.090
 70
    32
  0
VERTEX
  8
T50SSILL
 62
13
 10
4366.488
 20
-8021.732
 30
238.079
 70
    32
  0
VERTEX
  8
T50SSILL
 62
13
 10
4362.291
 20
-8016.615
 30
238.079
 70
    32
  0
VERTEX
  8
T50SSILL
 62
13
 10
4361.888
 20
-8011.809
 30
238.074
 70
    32
  0
VERTEX
  8
T50SSILL
 62
13
 10
4364.490
 20
-8007.050
 30
238.066
 70
    32
  0
VERTEX
  8
T50SSILL
 62
13
 10
4374.284
 20
-7998.675
 30
238.044
 70
    32
  0
VERTEX
  8
T50SSILL
 62
13
 10
4377.209
 20
-7998.902
 30
238.040
 70
    32
  0
VERTEX
  8
T50SSILL
 62
13
 10
4379.125
 20
-7996.645
 30
238.036
 70
    32
  0
VERTEX
  8
T50SSILL
 62
13
 10
4379.464
 20
-7989.405
 30
238.027
 70
    32
  0
VERTEX
  8
T50SSILL
 62
13
 10
4375.104
 20
-7977.688
 30
238.020
 70
    32
  0
VERTEX
  8
T50SSILL
 62
13
 10
4383.590
 20
-7976.206
 30
238.008
 70
    32
  0
VERTEX
  8
T50SSILL
 62
13
 10
4393.539
 20
-7982.770
 30
238.002
 70
    32
  0
VERTEX
  8
T50SSILL
 62
13
 10
4393.965
 20
-7991.779
 30
238.011
 70
    32
  0
VERTEX
  8
T50SSILL
 62
13
 10
4389.554
 20
-8005.326
 30
238.032
 70
    32
  0
VERTEX
  8
T50SSILL
 62
13
 10
4396.706
 20
-8025.596
 30
238.044
 70
    32
  0
VERTEX
  8
T50SSILL
 62
13
 10
4393.185
 20
-8030.766
 30
238.054
 70
    32
  0
VERTEX
  8
T50SSILL
 62
13
 10
4392.533
 20
-8051.958
 30
238.078
 70
    32
  0
VERTEX
  8
T50SSILL
 62
13
 10
4390.085
 20
-8055.792
 30
238.086
 70
    32
  0
VERTEX
  8
T50SSILL
 62
13
 10
4392.202
 20
-8061.018
 30
238.089
 70
    32
  0
VERTEX
  8
T50SSILL
 62
13
 10
4504.962
 20
-7979.610
 30
237.874
 70
    32
  0
VERTEX
  8
T50SSILL
 62
13
 10
4512.588
 20
-7975.410
 30
237.874
 70
    32
  0
VERTEX
  8
T50SSILL
 62
13
 10
4531.360
 20
-7971.998
 30
237.882
 70
    32
  0
VERTEX
  8
T50SSILL
 62
13
 10
4541.668
 20
-7973.017
 30
237.890
 70
    32
  0
VERTEX
  8
T50SSILL
 62
13
 10
4555.320
 20
-7976.999
 30
237.905
 70
    32
  0
VERTEX
  8
T50SSILL
 62
13
 10
4627.059
 20
-8030.239
 30
238.029
 70
    32
  0
VERTEX
  8
T50SSILL
 62
13
 10
4655.248
 20
-8040.674
 30
238.063
 70
    32
  0
VERTEX
  8
T50SSILL
 62
13
 10
4626.896
 20
-8002.068
 30
237.989
 70
    32
  0
VERTEX
  8
T50SSILL
 62
13
 10
4599.677
 20
-7981.822
 30
237.942
 70
    32
  0
VERTEX
  8
T50SSILL
 62
13
 10
4594.419
 20
-7982.368
 30
237.939
 70
    32
  0
VERTEX
  8
T50SSILL
 62
13
 10
4588.343
 20
-7974.682
 30
237.924
 70
    32
  0
VERTEX
  8
T50SSILL
 62
13
 10
4589.757
 20
-7967.360
 30
237.915
 70
    32
  0
VERTEX
  8
T50SSILL
 62
13
 10
4591.841
 20
-7965.309
 30
237.913
 70
    32
  0
VERTEX
  8
T50SSILL
 62
13
 10
4585.302
 20
-7943.280
 30
237.878
 70
    32
  0
VERTEX
  8
T50SSILL
 62
13
 10
4551.340
 20
-7896.721
 30
237.789
 70
    32
  0
VERTEX
  8
T50SSILL
 62
13
 10
4543.467
 20
-7902.151
 30
237.791
 70
    32
  0
VERTEX
  8
T50SSILL
 62
13
 10
4539.468
 20
-7896.301
 30
237.780
 70
    32
  0
VERTEX
  8
T50SSILL
 62
13
 10
4547.073
 20
-7890.406
 30
237.777
 70
    32
  0
VERTEX
  8
T50SSILL
 62
13
 10
4540.031
 20
-7879.175
 30
237.756
 70
    32
  0
VERTEX
  8
T50SSILL
 62
13
 10
4533.959
 20
-7873.998
 30
237.745
 70
    32
  0
VERTEX
  8
T50SSILL
 62
13
 10
4526.337
 20
-7870.548
 30
237.735
 70
    32
  0
VERTEX
  8
T50SSILL
 62
13
 10
4513.819
 20
-7870.315
 30
237.726
 70
    32
  0
VERTEX
  8
T50SSILL
 62
13
 10
4504.299
 20
-7874.014
 30
237.742
 70
    32
  0
VERTEX
  8
T50SSILL
 62
13
 10
4383.753
 20
-7961.236
 30
237.991
 70
    32
  0
VERTEX
  8
T50SSILL
 62
13
 10
4392.539
 20
-7973.366
 30
237.993
 70
    32
  0
VERTEX
  8
T50SSILL
 62
13
 10
4386.630
 20
-7977.169
 30
238.005
 70
    32
  0
VERTEX
  8
T50SSILL
 62
13
 10
4383.729
 20
-7972.897
 30
238.004
 70
    32
  0
VERTEX
  8
T50SSILL
 62
13
 10
4374.906
 20
-7967.008
 30
238.009
 70
    32
  0
VERTEX
  8
T50SSILL
 62
13
 10
4349.042
 20
-7985.709
 30
238.062
 70
    32
  0
VERTEX
  8
T50SSILL
 62
13
 10
4344.677
 20
-7980.387
 30
238.058
 70
    32
  0
VERTEX
  8
T50SSILL
 62
13
 10
4500.207
 20
-7868.468
 30
237.741
 70
    32
  0
VERTEX
  8
T50SSILL
 62
13
 10
4512.587
 20
-7863.107
 30
237.720
 70
    32
  0
VERTEX
  8
T50SSILL
 62
13
 10
4522.794
 20
-7862.611
 30
237.721
 70
    32
  0
VERTEX
  8
T50SSILL
 62
13
 10
4529.055
 20
-7863.982
 30
237.727
 70
    32
  0
VERTEX
  8
T50SSILL
 62
13
 10
4497.462
 20
-7820.730
 30
237.693
 70
    32
  0
VERTEX
  8
T50SSILL
 62
13
 10
4488.454
 20
-7826.863
 30
237.711
 70
    32
  0
VERTEX
  8
T50SSILL
 62
13
 10
4483.542
 20
-7820.734
 30
237.711
 70
    32
  0
VERTEX
  8
T50SSILL
 62
13
 10
4492.916
 20
-7814.073
 30
237.692
 70
    32
  0
VERTEX
  8
T50SSILL
 62
13
 10
4483.735
 20
-7800.374
 30
237.689
 70
    32
  0
VERTEX
  8
T50SSILL
 62
13
 10
4473.974
 20
-7794.456
 30
237.695
 70
    32
  0
VERTEX
  8
T50SSILL
 62
13
 10
4456.674
 20
-7793.123
 30
237.715
 70
    32
  0
VERTEX
  8
T50SSILL
 62
13
 10
4447.708
 20
-7798.193
 30
237.732
 70
    32
  0
VERTEX
  8
T50SSILL
 62
13
 10
4361.487
 20
-7859.776
 30
237.910
 70
    32
  0
VERTEX
  8
T50SSILL
 62
13
 10
4363.805
 20
-7872.483
 30
237.921
 70
    32
  0
VERTEX
  8
T50SSILL
 62
13
 10
4370.469
 20
-7884.365
 30
237.925
 70
    32
  0
VERTEX
  8
T50SSILL
 62
13
 10
4375.778
 20
-7906.147
 30
237.942
 70
    32
  0
VERTEX
  8
T50SSILL
 62
13
 10
4370.183
 20
-7910.735
 30
237.954
 70
    32
  0
VERTEX
  8
T50SSILL
 62
13
 10
4358.168
 20
-7915.568
 30
237.975
 70
    32
  0
VERTEX
  8
T50SSILL
 62
13
 10
4346.313
 20
-7924.491
 30
237.999
 70
    32
  0
VERTEX
  8
T50SSILL
 62
13
 10
4331.989
 20
-7913.984
 30
238.006
 70
    32
  0
VERTEX
  8
T50SSILL
 62
13
 10
4320.318
 20
-7899.475
 30
238.006
 70
    32
  0
VERTEX
  8
T50SSILL
 62
13
 10
4312.327
 20
-7894.045
 30
238.002
 70
    32
  0
VERTEX
  8
T50SSILL
 62
13
 10
4270.626
 20
-7925.163
 30
237.997
 70
    32
  0
VERTEX
  8
T50SSILL
 62
13
 10
4266.210
 20
-7919.084
 30
237.992
 70
    32
  0
VERTEX
  8
T50SSILL
 62
13
 10
4306.845
 20
-7889.866
 30
237.998
 70
    32
  0
VERTEX
  8
T50SSILL
 62
13
 10
4294.388
 20
-7877.599
 30
237.986
 70
    32
  0
VERTEX
  8
T50SSILL
 62
13
 10
4288.039
 20
-7868.883
 30
237.979
 70
    32
  0
VERTEX
  8
T50SSILL
 62
13
 10
4286.785
 20
-7864.433
 30
237.976
 70
    32
  0
VERTEX
  8
T50SSILL
 62
13
 10
4289.311
 20
-7857.910
 30
237.975
 70
    32
  0
VERTEX
  8
T50SSILL
 62
13
 10
4300.165
 20
-7852.775
 30
237.977
 70
    32
  0
VERTEX
  8
T50SSILL
 62
13
 10
4325.570
 20
-7834.907
 30
237.929
 70
    32
  0
VERTEX
  8
T50SSILL
 62
13
 10
4337.336
 20
-7824.344
 30
237.902
 70
    32
  0
VERTEX
  8
T50SSILL
 62
13
 10
4345.036
 20
-7819.399
 30
237.887
 70
    32
  0
VERTEX
  8
T50SSILL
 62
13
 10
4353.423
 20
-7829.069
 30
237.887
 70
    32
  0
VERTEX
  8
T50SSILL
 62
13
 10
4354.944
 20
-7833.985
 30
237.890
 70
    32
  0
VERTEX
  8
T50SSILL
 62
13
 10
4358.462
 20
-7837.719
 30
237.890
 70
    32
  0
VERTEX
  8
T50SSILL
 62
13
 10
4361.297
 20
-7850.916
 30
237.900
 70
    32
  0
VERTEX
  8
T50SSILL
 62
13
 10
4448.100
 20
-7788.513
 30
237.721
 70
    32
  0
VERTEX
  8
T50SSILL
 62
13
 10
4463.295
 20
-7784.497
 30
237.698
 70
    32
  0
VERTEX
  8
T50SSILL
 62
13
 10
4472.200
 20
-7785.753
 30
237.688
 70
    32
  0
VERTEX
  8
T50SSILL
 62
13
 10
4444.059
 20
-7746.290
 30
237.681
 70
    32
  0
VERTEX
  8
T50SSILL
 62
13
 10
4438.042
 20
-7751.339
 30
237.694
 70
    32
  0
VERTEX
  8
T50SSILL
 62
13
 10
4431.393
 20
-7741.841
 30
237.692
 70
    32
  0
VERTEX
  8
T50SSILL
 62
13
 10
4437.714
 20
-7736.885
 30
237.679
 70
    32
  0
VERTEX
  8
T50SSILL
 62
13
 10
4426.725
 20
-7721.816
 30
237.677
 70
    32
  0
VERTEX
  8
T50SSILL
 62
13
 10
4419.381
 20
-7717.453
 30
237.681
 70
    32
  0
VERTEX
  8
T50SSILL
 62
13
 10
4413.233
 20
-7716.219
 30
237.688
 70
    32
  0
VERTEX
  8
T50SSILL
 62
13
 10
4400.010
 20
-7718.047
 30
237.707
 70
    32
  0
VERTEX
  8
T50SSILL
 62
13
 10
4328.343
 20
-7769.405
 30
237.854
 70
    32
  0
VERTEX
  8
T50SSILL
 62
13
 10
4336.710
 20
-7793.244
 30
237.869
 70
    32
  0
VERTEX
  8
T50SSILL
 62
13
 10
4339.356
 20
-7810.247
 30
237.884
 70
    32
  0
VERTEX
  8
T50SSILL
 62
13
 10
4337.579
 20
-7814.900
 30
237.892
 70
    32
  0
VERTEX
  8
T50SSILL
 62
13
 10
4304.262
 20
-7841.768
 30
237.964
 70
    32
  0
VERTEX
  8
T50SSILL
 62
13
 10
4299.791
 20
-7841.326
 30
237.969
 70
    32
  0
VERTEX
  8
T50SSILL
 62
13
 10
4281.546
 20
-7817.828
 30
237.952
 70
    32
  0
VERTEX
  8
T50SSILL
 62
13
 10
4280.906
 20
-7811.619
 30
237.949
 70
    32
  0
VERTEX
  8
T50SSILL
 62
13
 10
4275.032
 20
-7805.709
 30
237.944
 70
    32
  0
VERTEX
  8
T50SSILL
 62
13
 10
4121.644
 20
-7916.366
 30
237.910
 70
    32
  0
VERTEX
  8
T50SSILL
 62
13
 10
4119.476
 20
-7942.975
 30
237.920
 70
    32
  0
VERTEX
  8
T50SSILL
 62
13
 10
4140.359
 20
-7971.169
 30
237.943
 70
    32
  0
VERTEX
  8
T50SSILL
 62
13
 10
4186.572
 20
-8002.887
 30
237.982
 70
    32
  0
VERTEX
  8
T50SSILL
 62
13
 10
4192.661
 20
-7995.839
 30
237.983
 70
    32
  0
VERTEX
  8
T50SSILL
 62
13
 10
4198.524
 20
-7991.715
 30
237.985
 70
    32
  0
VERTEX
  8
T50SSILL
 62
13
 10
4200.313
 20
-7992.644
 30
237.986
 70
    32
  0
VERTEX
  8
T50SSILL
 62
13
 10
4202.160
 20
-7994.896
 30
237.988
 70
    32
  0
VERTEX
  8
T50SSILL
 62
13
 10
4200.891
 20
-7998.219
 30
237.989
 70
    32
  0
VERTEX
  8
T50SSILL
 62
13
 10
4202.375
 20
-8003.508
 30
237.992
 70
    32
  0
VERTEX
  8
T50SSILL
 62
13
 10
4219.198
 20
-8022.351
 30
238.009
 70
    32
  0
VERTEX
  8
T50SSILL
 62
13
 10
4224.660
 20
-8026.089
 30
238.014
 70
    32
  0
VERTEX
  8
T50SSILL
 62
13
 10
4226.255
 20
-8030.259
 30
238.016
 70
    32
  0
VERTEX
  8
T50SSILL
 62
13
 10
4273.032
 20
-8060.716
 30
238.056
 70
    32
  0
VERTEX
  8
T50SSILL
 62
13
 10
4268.587
 20
-8066.986
 30
238.055
 70
    32
  0
VERTEX
  8
T50SSILL
 62
13
 10
4230.578
 20
-8042.350
 30
238.024
 70
    32
  0
VERTEX
  8
T50SSILL
 62
13
 10
4226.540
 20
-8045.775
 30
238.023
 70
    32
  0
VERTEX
  8
T50SSILL
 62
13
 10
4225.880
 20
-8049.284
 30
238.024
 70
    32
  0
VERTEX
  8
T50SSILL
 62
13
 10
4221.642
 20
-8052.189
 30
238.022
 70
    32
  0
VERTEX
  8
T50SSILL
 62
13
 10
4210.607
 20
-8034.419
 30
238.009
 70
    32
  0
VERTEX
  8
T50SSILL
 62
13
 10
4198.090
 20
-8029.734
 30
238.000
 70
    32
  0
VERTEX
  8
T50SSILL
 62
13
 10
4189.027
 20
-8031.346
 30
237.995
 70
    32
  0
VERTEX
  8
T50SSILL
 62
13
 10
4179.244
 20
-8018.027
 30
237.984
 70
    32
  0
VERTEX
  8
T50SSILL
 62
13
 10
4179.589
 20
-8010.097
 30
237.981
 70
    32
  0
VERTEX
  8
T50SSILL
 62
13
 10
4181.052
 20
-8007.985
 30
237.981
 70
    32
  0
VERTEX
  8
T50SSILL
 62
13
 10
4165.926
 20
-7998.003
 30
237.968
 70
    32
  0
SEQEND
  8
T50SSILL
  0
POLYLINE
  8
T50SSILL
 62
13
 66
     1
 70
     9
  0
VERTEX
  8
T50SSILL
 62
13
 10
2012.048
 20
-4599.952
 30
237.850
 70
    32
  0
VERTEX
  8
T50SSILL
 62
13
 10
1979.352
 20
-4600.777
 30
237.868
 70
    32
  0
VERTEX
  8
T50SSILL
 62
13
 10
1977.646
 20
-4597.284
 30
237.868
 70
    32
  0
VERTEX
  8
T50SSILL
 62
13
 10
1977.126
 20
-4588.968
 30
237.868
 70
    32
  0
VERTEX
  8
T50SSILL
 62
13
 10
1972.246
 20
-4584.083
 30
237.870
 70
    32
  0
VERTEX
  8
T50SSILL
 62
13
 10
1974.144
 20
-4579.021
 30
237.868
 70
    32
  0
VERTEX
  8
T50SSILL
 62
13
 10
1973.543
 20
-4570.885
 30
237.868
 70
    32
  0
VERTEX
  8
T50SSILL
 62
13
 10
1975.343
 20
-4563.746
 30
237.866
 70
    32
  0
VERTEX
  8
T50SSILL
 62
13
 10
1978.988
 20
-4558.739
 30
237.864
 70
    32
  0
VERTEX
  8
T50SSILL
 62
13
 10
1976.655
 20
-4452.590
 30
237.856
 70
    32
  0
VERTEX
  8
T50SSILL
 62
13
 10
1979.348
 20
-4436.781
 30
237.853
 70
    32
  0
VERTEX
  8
T50SSILL
 62
13
 10
1982.937
 20
-4429.889
 30
237.850
 70
    32
  0
VERTEX
  8
T50SSILL
 62
13
 10
1992.919
 20
-4419.275
 30
237.844
 70
    32
  0
VERTEX
  8
T50SSILL
 62
13
 10
2007.079
 20
-4411.846
 30
237.835
 70
    32
  0
VERTEX
  8
T50SSILL
 62
13
 10
2022.195
 20
-4410.336
 30
237.827
 70
    32
  0
VERTEX
  8
T50SSILL
 62
13
 10
2035.404
 20
-4414.577
 30
237.820
 70
    32
  0
VERTEX
  8
T50SSILL
 62
13
 10
2043.880
 20
-4420.395
 30
237.816
 70
    32
  0
VERTEX
  8
T50SSILL
 62
13
 10
2051.700
 20
-4428.336
 30
237.813
 70
    32
  0
VERTEX
  8
T50SSILL
 62
13
 10
2058.984
 20
-4431.152
 30
237.809
 70
    32
  0
VERTEX
  8
T50SSILL
 62
13
 10
2060.171
 20
-4429.960
 30
237.808
 70
    32
  0
VERTEX
  8
T50SSILL
 62
13
 10
2089.178
 20
-4476.134
 30
237.796
 70
    32
  0
VERTEX
  8
T50SSILL
 62
13
 10
2156.339
 20
-4567.235
 30
237.768
 70
    32
  0
VERTEX
  8
T50SSILL
 62
13
 10
2125.250
 20
-4588.658
 30
237.787
 70
    32
  0
VERTEX
  8
T50SSILL
 62
13
 10
2125.282
 20
-4594.141
 30
237.788
 70
    32
  0
VERTEX
  8
T50SSILL
 62
13
 10
2118.210
 20
-4601.313
 30
237.792
 70
    32
  0
VERTEX
  8
T50SSILL
 62
13
 10
2091.220
 20
-4602.041
 30
237.807
 70
    32
  0
VERTEX
  8
T50SSILL
 62
13
 10
2088.913
 20
-4597.051
 30
237.808
 70
    32
  0
VERTEX
  8
T50SSILL
 62
13
 10
2066.983
 20
-4594.979
 30
237.819
 70
    32
  0
VERTEX
  8
T50SSILL
 62
13
 10
2057.675
 20
-4595.345
 30
237.824
 70
    32
  0
VERTEX
  8
T50SSILL
 62
13
 10
2042.729
 20
-4599.858
 30
237.833
 70
    32
  0
SEQEND
  8
T50SSILL
  0
POLYLINE
  8
T50SSILL
 62
13
 66
     1
 70
     9
  0
VERTEX
  8
T50SSILL
 62
13
 10
5883.702
 20
-8433.899
 30
239.202
 70
    32
  0
VERTEX
  8
T50SSILL
 62
13
 10
5889.761
 20
-8433.246
 30
239.207
 70
    32
  0
VERTEX
  8
T50SSILL
 62
13
 10
5894.281
 20
-8447.233
 30
239.249
 70
    32
  0
VERTEX
  8
T50SSILL
 62
13
 10
5889.858
 20
-8455.080
 30
239.235
 70
    32
  0
VERTEX
  8
T50SSILL
 62
13
 10
5897.132
 20
-8466.283
 30
239.240
 70
    32
  0
VERTEX
  8
T50SSILL
 62
13
 10
5903.943
 20
-8469.501
 30
239.250
 70
    32
  0
VERTEX
  8
T50SSILL
 62
13
 10
5908.352
 20
-8469.450
 30
239.258
 70
    32
  0
VERTEX
  8
T50SSILL
 62
13
 10
5915.734
 20
-8468.781
 30
239.273
 70
    32
  0
VERTEX
  8
T50SSILL
 62
13
 10
5922.913
 20
-8465.822
 30
239.288
 70
    32
  0
VERTEX
  8
T50SSILL
 62
13
 10
5971.345
 20
-8431.162
 30
239.391
 70
    32
  0
VERTEX
  8
T50SSILL
 62
13
 10
5975.234
 20
-8425.949
 30
239.382
 70
    32
  0
VERTEX
  8
T50SSILL
 62
13
 10
5981.602
 20
-8421.500
 30
239.382
 70
    32
  0
VERTEX
  8
T50SSILL
 62
13
 10
5988.243
 20
-8419.288
 30
239.391
 70
    32
  0
VERTEX
  8
T50SSILL
 62
13
 10
6149.125
 20
-8302.885
 30
239.118
 70
    32
  0
VERTEX
  8
T50SSILL
 62
13
 10
6154.613
 20
-8295.554
 30
239.150
 70
    32
  0
VERTEX
  8
T50SSILL
 62
13
 10
6160.212
 20
-8281.132
 30
239.203
 70
    32
  0
VERTEX
  8
T50SSILL
 62
13
 10
6160.787
 20
-8259.449
 30
239.272
 70
    32
  0
VERTEX
  8
T50SSILL
 62
13
 10
6158.516
 20
-8252.297
 30
239.262
 70
    32
  0
VERTEX
  8
T50SSILL
 62
13
 10
6153.509
 20
-8243.467
 30
239.248
 70
    32
  0
VERTEX
  8
T50SSILL
 62
13
 10
5924.722
 20
-7926.064
 30
238.684
 70
    32
  0
VERTEX
  8
T50SSILL
 62
13
 10
5913.927
 20
-7924.462
 30
238.672
 70
    32
  0
VERTEX
  8
T50SSILL
 62
13
 10
5875.752
 20
-7952.353
 30
238.667
 70
    32
  0
VERTEX
  8
T50SSILL
 62
13
 10
5870.538
 20
-7944.935
 30
238.654
 70
    32
  0
VERTEX
  8
T50SSILL
 62
13
 10
5915.486
 20
-7913.033
 30
238.661
 70
    32
  0
VERTEX
  8
T50SSILL
 62
13
 10
5871.523
 20
-7852.391
 30
238.553
 70
    32
  0
VERTEX
  8
T50SSILL
 62
13
 10
5863.872
 20
-7847.623
 30
238.541
 70
    32
  0
VERTEX
  8
T50SSILL
 62
13
 10
5855.857
 20
-7845.636
 30
238.531
 70
    32
  0
VERTEX
  8
T50SSILL
 62
13
 10
5848.042
 20
-7846.453
 30
238.524
 70
    32
  0
VERTEX
  8
T50SSILL
 62
13
 10
5838.585
 20
-7850.989
 30
238.521
 70
    32
  0
VERTEX
  8
T50SSILL
 62
13
 10
5763.293
 20
-7906.239
 30
238.510
 70
    32
  0
VERTEX
  8
T50SSILL
 62
13
 10
5758.914
 20
-7900.272
 30
238.499
 70
    32
  0
VERTEX
  8
T50SSILL
 62
13
 10
5843.076
 20
-7839.388
 30
238.512
 70
    32
  0
VERTEX
  8
T50SSILL
 62
13
 10
5849.205
 20
-7838.060
 30
238.516
 70
    32
  0
VERTEX
  8
T50SSILL
 62
13
 10
5863.637
 20
-7839.709
 30
238.532
 70
    32
  0
VERTEX
  8
T50SSILL
 62
13
 10
5825.768
 20
-7787.506
 30
238.439
 70
    32
  0
VERTEX
  8
T50SSILL
 62
13
 10
5766.674
 20
-7778.307
 30
238.373
 70
    32
  0
VERTEX
  8
T50SSILL
 62
13
 10
5688.928
 20
-7833.936
 30
238.361
 70
    32
  0
VERTEX
  8
T50SSILL
 62
13
 10
5684.810
 20
-7828.325
 30
238.351
 70
    32
  0
VERTEX
  8
T50SSILL
 62
13
 10
5764.639
 20
-7770.620
 30
238.363
 70
    32
  0
VERTEX
  8
T50SSILL
 62
13
 10
5819.494
 20
-7779.106
 30
238.424
 70
    32
  0
VERTEX
  8
T50SSILL
 62
13
 10
5763.282
 20
-7699.821
 30
238.284
 70
    32
  0
VERTEX
  8
T50SSILL
 62
13
 10
5711.870
 20
-7690.667
 30
238.225
 70
    32
  0
VERTEX
  8
T50SSILL
 62
13
 10
5631.568
 20
-7748.172
 30
238.214
 70
    32
  0
VERTEX
  8
T50SSILL
 62
13
 10
5627.962
 20
-7742.513
 30
238.205
 70
    32
  0
VERTEX
  8
T50SSILL
 62
13
 10
5710.433
 20
-7683.198
 30
238.216
 70
    32
  0
VERTEX
  8
T50SSILL
 62
13
 10
5756.867
 20
-7691.524
 30
238.269
 70
    32
  0
VERTEX
  8
T50SSILL
 62
13
 10
5706.469
 20
-7620.759
 30
238.144
 70
    32
  0
VERTEX
  8
T50SSILL
 62
13
 10
5680.332
 20
-7616.115
 30
238.114
 70
    32
  0
VERTEX
  8
T50SSILL
 62
13
 10
5631.382
 20
-7651.270
 30
238.106
 70
    32
  0
VERTEX
  8
T50SSILL
 62
13
 10
5627.558
 20
-7646.208
 30
238.097
 70
    32
  0
VERTEX
  8
T50SSILL
 62
13
 10
5678.980
 20
-7608.912
 30
238.105
 70
    32
  0
VERTEX
  8
T50SSILL
 62
13
 10
5700.389
 20
-7612.325
 30
238.129
 70
    32
  0
VERTEX
  8
T50SSILL
 62
13
 10
5629.986
 20
-7515.041
 30
237.956
 70
    32
  0
VERTEX
  8
T50SSILL
 62
13
 10
5606.959
 20
-7518.061
 30
237.937
 70
    32
  0
VERTEX
  8
T50SSILL
 62
13
 10
5601.380
 20
-7520.734
 30
237.935
 70
    32
  0
VERTEX
  8
T50SSILL
 62
13
 10
5495.335
 20
-7596.473
 30
237.955
 70
    32
  0
VERTEX
  8
T50SSILL
 62
13
 10
5491.322
 20
-7591.003
 30
237.946
 70
    32
  0
VERTEX
  8
T50SSILL
 62
13
 10
5596.694
 20
-7515.539
 30
237.925
 70
    32
  0
VERTEX
  8
T50SSILL
 62
13
 10
5612.440
 20
-7507.809
 30
237.931
 70
    32
  0
VERTEX
  8
T50SSILL
 62
13
 10
5623.892
 20
-7506.290
 30
237.940
 70
    32
  0
VERTEX
  8
T50SSILL
 62
13
 10
5576.188
 20
-7440.050
 30
237.823
 70
    32
  0
VERTEX
  8
T50SSILL
 62
13
 10
5565.114
 20
-7434.789
 30
237.806
 70
    32
  0
VERTEX
  8
T50SSILL
 62
13
 10
5555.698
 20
-7434.339
 30
237.797
 70
    32
  0
VERTEX
  8
T50SSILL
 62
13
 10
5548.967
 20
-7436.232
 30
237.793
 70
    32
  0
VERTEX
  8
T50SSILL
 62
13
 10
5479.832
 20
-7485.158
 30
237.809
 70
    32
  0
VERTEX
  8
T50SSILL
 62
13
 10
5475.011
 20
-7479.515
 30
237.799
 70
    32
  0
VERTEX
  8
T50SSILL
 62
13
 10
5541.191
 20
-7433.084
 30
237.782
 70
    32
  0
VERTEX
  8
T50SSILL
 62
13
 10
5556.012
 20
-7427.387
 30
237.790
 70
    32
  0
VERTEX
  8
T50SSILL
 62
13
 10
5567.455
 20
-7427.924
 30
237.801
 70
    32
  0
VERTEX
  8
T50SSILL
 62
13
 10
5140.802
 20
-6835.495
 30
236.651
 70
    32
  0
VERTEX
  8
T50SSILL
 62
13
 10
5124.443
 20
-6824.072
 30
236.616
 70
    32
  0
VERTEX
  8
T50SSILL
 62
13
 10
5112.279
 20
-6821.359
 30
236.591
 70
    32
  0
VERTEX
  8
T50SSILL
 62
13
 10
5103.666
 20
-6821.052
 30
236.577
 70
    32
  0
VERTEX
  8
T50SSILL
 62
13
 10
5092.194
 20
-6823.335
 30
236.563
 70
    32
  0
VERTEX
  8
T50SSILL
 62
13
 10
5075.182
 20
-6832.565
 30
236.553
 70
    32
  0
VERTEX
  8
T50SSILL
 62
13
 10
4255.549
 20
-7418.469
 30
237.567
 70
    32
  0
VERTEX
  8
T50SSILL
 62
13
 10
4250.835
 20
-7423.020
 30
237.578
 70
    32
  0
VERTEX
  8
T50SSILL
 62
13
 10
4244.969
 20
-7434.793
 30
237.598
 70
    32
  0
VERTEX
  8
T50SSILL
 62
13
 10
4245.616
 20
-7451.724
 30
237.616
 70
    32
  0
VERTEX
  8
T50SSILL
 62
13
 10
4248.205
 20
-7457.247
 30
237.619
 70
    32
  0
VERTEX
  8
T50SSILL
 62
13
 10
4333.092
 20
-7577.311
 30
237.640
 70
    32
  0
VERTEX
  8
T50SSILL
 62
13
 10
4340.990
 20
-7571.633
 30
237.624
 70
    32
  0
VERTEX
  8
T50SSILL
 62
13
 10
4345.014
 20
-7577.235
 30
237.625
 70
    32
  0
VERTEX
  8
T50SSILL
 62
13
 10
4336.948
 20
-7582.708
 30
237.641
 70
    32
  0
VERTEX
  8
T50SSILL
 62
13
 10
4443.974
 20
-7732.550
 30
237.666
 70
    32
  0
VERTEX
  8
T50SSILL
 62
13
 10
4450.619
 20
-7728.127
 30
237.653
 70
    32
  0
VERTEX
  8
T50SSILL
 62
13
 10
4457.304
 20
-7737.253
 30
237.654
 70
    32
  0
VERTEX
  8
T50SSILL
 62
13
 10
4451.144
 20
-7741.849
 30
237.667
 70
    32
  0
VERTEX
  8
T50SSILL
 62
13
 10
4549.725
 20
-7880.698
 30
237.765
 70
    32
  0
VERTEX
  8
T50SSILL
 62
13
 10
4555.024
 20
-7882.287
 30
237.771
 70
    32
  0
VERTEX
  8
T50SSILL
 62
13
 10
4567.059
 20
-7820.146
 30
237.691
 70
    32
  0
VERTEX
  8
T50SSILL
 62
13
 10
4762.432
 20
-7678.758
 30
237.624
 70
    32
  0
VERTEX
  8
T50SSILL
 62
13
 10
4767.278
 20
-7684.928
 30
237.636
 70
    32
  0
VERTEX
  8
T50SSILL
 62
13
 10
4573.719
 20
-7823.814
 30
237.701
 70
    32
  0
VERTEX
  8
T50SSILL
 62
13
 10
4563.620
 20
-7879.688
 30
237.773
 70
    32
  0
VERTEX
  8
T50SSILL
 62
13
 10
4744.136
 20
-7750.495
 30
237.713
 70
    32
  0
VERTEX
  8
T50SSILL
 62
13
 10
4748.735
 20
-7757.086
 30
237.726
 70
    32
  0
VERTEX
  8
T50SSILL
 62
13
 10
4591.696
 20
-7868.417
 30
237.776
 70
    32
  0
VERTEX
  8
T50SSILL
 62
13
 10
4593.504
 20
-7874.239
 30
237.786
 70
    32
  0
VERTEX
  8
T50SSILL
 62
13
 10
4577.368
 20
-7885.875
 30
237.791
 70
    32
  0
VERTEX
  8
T50SSILL
 62
13
 10
4570.100
 20
-7883.276
 30
237.783
 70
    32
  0
VERTEX
  8
T50SSILL
 62
13
 10
4559.851
 20
-7890.540
 30
237.786
 70
    32
  0
VERTEX
  8
T50SSILL
 62
13
 10
4559.272
 20
-7893.868
 30
237.790
 70
    32
  0
VERTEX
  8
T50SSILL
 62
13
 10
4582.904
 20
-7926.301
 30
237.852
 70
    32
  0
VERTEX
  8
T50SSILL
 62
13
 10
4792.207
 20
-7775.438
 30
237.781
 70
    32
  0
VERTEX
  8
T50SSILL
 62
13
 10
4797.499
 20
-7782.033
 30
237.794
 70
    32
  0
VERTEX
  8
T50SSILL
 62
13
 10
4595.930
 20
-7926.460
 30
237.861
 70
    32
  0
VERTEX
  8
T50SSILL
 62
13
 10
4592.630
 20
-7939.553
 30
237.878
 70
    32
  0
VERTEX
  8
T50SSILL
 62
13
 10
4645.238
 20
-8013.161
 30
238.017
 70
    32
  0
VERTEX
  8
T50SSILL
 62
13
 10
4648.622
 20
-8002.397
 30
238.004
 70
    32
  0
VERTEX
  8
T50SSILL
 62
13
 10
4668.286
 20
-7906.836
 30
237.883
 70
    32
  0
VERTEX
  8
T50SSILL
 62
13
 10
4676.076
 20
-7899.078
 30
237.877
 70
    32
  0
VERTEX
  8
T50SSILL
 62
13
 10
4759.034
 20
-7840.058
 30
237.850
 70
    32
  0
VERTEX
  8
T50SSILL
 62
13
 10
4763.816
 20
-7846.863
 30
237.863
 70
    32
  0
VERTEX
  8
T50SSILL
 62
13
 10
4677.602
 20
-7909.011
 30
237.892
 70
    32
  0
VERTEX
  8
T50SSILL
 62
13
 10
4659.950
 20
-7988.656
 30
237.993
 70
    32
  0
VERTEX
  8
T50SSILL
 62
13
 10
4685.945
 20
-7969.931
 30
237.984
 70
    32
  0
VERTEX
  8
T50SSILL
 62
13
 10
4681.982
 20
-7964.016
 30
237.973
 70
    32
  0
VERTEX
  8
T50SSILL
 62
13
 10
4691.952
 20
-7957.337
 30
237.970
 70
    32
  0
VERTEX
  8
T50SSILL
 62
13
 10
4695.688
 20
-7962.913
 30
237.981
 70
    32
  0
VERTEX
  8
T50SSILL
 62
13
 10
4735.389
 20
-7934.315
 30
237.967
 70
    32
  0
VERTEX
  8
T50SSILL
 62
13
 10
4730.978
 20
-7928.441
 30
237.956
 70
    32
  0
VERTEX
  8
T50SSILL
 62
13
 10
4740.574
 20
-7921.235
 30
237.952
 70
    32
  0
VERTEX
  8
T50SSILL
 62
13
 10
4745.128
 20
-7927.300
 30
237.964
 70
    32
  0
VERTEX
  8
T50SSILL
 62
13
 10
4804.014
 20
-7884.884
 30
237.944
 70
    32
  0
VERTEX
  8
T50SSILL
 62
13
 10
4808.538
 20
-7877.179
 30
237.936
 70
    32
  0
VERTEX
  8
T50SSILL
 62
13
 10
4817.799
 20
-7874.834
 30
237.939
 70
    32
  0
VERTEX
  8
T50SSILL
 62
13
 10
4876.829
 20
-7832.699
 30
237.920
 70
    32
  0
VERTEX
  8
T50SSILL
 62
13
 10
4881.517
 20
-7838.555
 30
237.931
 70
    32
  0
VERTEX
  8
T50SSILL
 62
13
 10
4666.120
 20
-7992.840
 30
238.003
 70
    32
  0
VERTEX
  8
T50SSILL
 62
13
 10
4656.278
 20
-8002.966
 30
238.011
 70
    32
  0
VERTEX
  8
T50SSILL
 62
13
 10
4652.571
 20
-8013.196
 30
238.022
 70
    32
  0
VERTEX
  8
T50SSILL
 62
13
 10
4652.888
 20
-8018.871
 30
238.031
 70
    32
  0
VERTEX
  8
T50SSILL
 62
13
 10
4656.115
 20
-8028.094
 30
238.046
 70
    32
  0
VERTEX
  8
T50SSILL
 62
13
 10
4665.593
 20
-8041.320
 30
238.071
 70
    32
  0
VERTEX
  8
T50SSILL
 62
13
 10
4672.579
 20
-8036.618
 30
238.069
 70
    32
  0
VERTEX
  8
T50SSILL
 62
13
 10
4677.050
 20
-8042.766
 30
238.081
 70
    32
  0
VERTEX
  8
T50SSILL
 62
13
 10
4670.301
 20
-8047.617
 30
238.083
 70
    32
  0
VERTEX
  8
T50SSILL
 62
13
 10
4701.228
 20
-8090.615
 30
238.154
 70
    32
  0
VERTEX
  8
T50SSILL
 62
13
 10
4702.652
 20
-8081.915
 30
238.144
 70
    32
  0
VERTEX
  8
T50SSILL
 62
13
 10
4710.951
 20
-8068.376
 30
238.132
 70
    32
  0
VERTEX
  8
T50SSILL
 62
13
 10
4740.257
 20
-8047.194
 30
238.121
 70
    32
  0
VERTEX
  8
T50SSILL
 62
13
 10
4739.932
 20
-8045.406
 30
238.119
 70
    32
  0
VERTEX
  8
T50SSILL
 62
13
 10
4751.558
 20
-8036.898
 30
238.114
 70
    32
  0
VERTEX
  8
T50SSILL
 62
13
 10
4751.758
 20
-8027.262
 30
238.102
 70
    32
  0
VERTEX
  8
T50SSILL
 62
13
 10
4746.589
 20
-8009.131
 30
238.077
 70
    32
  0
VERTEX
  8
T50SSILL
 62
13
 10
4747.210
 20
-8003.487
 30
238.070
 70
    32
  0
VERTEX
  8
T50SSILL
 62
13
 10
4752.445
 20
-7998.737
 30
238.067
 70
    32
  0
VERTEX
  8
T50SSILL
 62
13
 10
4782.601
 20
-7981.652
 30
238.062
 70
    32
  0
VERTEX
  8
T50SSILL
 62
13
 10
4795.091
 20
-7979.625
 30
238.066
 70
    32
  0
VERTEX
  8
T50SSILL
 62
13
 10
4801.582
 20
-8003.404
 30
238.099
 70
    32
  0
VERTEX
  8
T50SSILL
 62
13
 10
4927.681
 20
-7912.655
 30
238.052
 70
    32
  0
VERTEX
  8
T50SSILL
 62
13
 10
4930.954
 20
-7918.873
 30
238.061
 70
    32
  0
VERTEX
  8
T50SSILL
 62
13
 10
4802.095
 20
-8011.544
 30
238.109
 70
    32
  0
VERTEX
  8
T50SSILL
 62
13
 10
4805.375
 20
-8039.897
 30
238.146
 70
    32
  0
VERTEX
  8
T50SSILL
 62
13
 10
4811.197
 20
-8059.659
 30
238.173
 70
    32
  0
VERTEX
  8
T50SSILL
 62
13
 10
4781.664
 20
-8083.766
 30
238.188
 70
    32
  0
VERTEX
  8
T50SSILL
 62
13
 10
4761.481
 20
-8064.026
 30
238.153
 70
    32
  0
VERTEX
  8
T50SSILL
 62
13
 10
4749.214
 20
-8060.620
 30
238.142
 70
    32
  0
VERTEX
  8
T50SSILL
 62
13
 10
4745.585
 20
-8058.004
 30
238.137
 70
    32
  0
VERTEX
  8
T50SSILL
 62
13
 10
4743.413
 20
-8053.964
 30
238.131
 70
    32
  0
VERTEX
  8
T50SSILL
 62
13
 10
4714.888
 20
-8074.847
 30
238.142
 70
    32
  0
VERTEX
  8
T50SSILL
 62
13
 10
4708.933
 20
-8084.981
 30
238.152
 70
    32
  0
VERTEX
  8
T50SSILL
 62
13
 10
4707.887
 20
-8093.029
 30
238.161
 70
    32
  0
VERTEX
  8
T50SSILL
 62
13
 10
4712.548
 20
-8106.783
 30
238.180
 70
    32
  0
VERTEX
  8
T50SSILL
 62
13
 10
4756.281
 20
-8168.040
 30
238.279
 70
    32
  0
VERTEX
  8
T50SSILL
 62
13
 10
4758.445
 20
-8160.102
 30
238.270
 70
    32
  0
VERTEX
  8
T50SSILL
 62
13
 10
4763.259
 20
-8151.360
 30
238.262
 70
    32
  0
VERTEX
  8
T50SSILL
 62
13
 10
4790.454
 20
-8129.970
 30
238.250
 70
    32
  0
VERTEX
  8
T50SSILL
 62
13
 10
4782.268
 20
-8116.369
 30
238.229
 70
    32
  0
VERTEX
  8
T50SSILL
 62
13
 10
4776.612
 20
-8111.421
 30
238.220
 70
    32
  0
VERTEX
  8
T50SSILL
 62
13
 10
4762.708
 20
-8104.905
 30
238.204
 70
    32
  0
VERTEX
  8
T50SSILL
 62
13
 10
4752.036
 20
-8095.511
 30
238.187
 70
    32
  0
VERTEX
  8
T50SSILL
 62
13
 10
4742.362
 20
-8074.114
 30
238.155
 70
    32
  0
VERTEX
  8
T50SSILL
 62
13
 10
4744.700
 20
-8071.398
 30
238.153
 70
    32
  0
VERTEX
  8
T50SSILL
 62
13
 10
4747.846
 20
-8069.388
 30
238.152
 70
    32
  0
VERTEX
  8
T50SSILL
 62
13
 10
4751.099
 20
-8069.459
 30
238.154
 70
    32
  0
VERTEX
  8
T50SSILL
 62
13
 10
4764.267
 20
-8078.975
 30
238.173
 70
    32
  0
VERTEX
  8
T50SSILL
 62
13
 10
4793.139
 20
-8110.421
 30
238.227
 70
    32
  0
VERTEX
  8
T50SSILL
 62
13
 10
4810.435
 20
-8097.833
 30
238.220
 70
    32
  0
VERTEX
  8
T50SSILL
 62
13
 10
4813.631
 20
-8090.875
 30
238.213
 70
    32
  0
VERTEX
  8
T50SSILL
 62
13
 10
4825.155
 20
-8096.717
 30
238.227
 70
    32
  0
VERTEX
  8
T50SSILL
 62
13
 10
4829.414
 20
-8101.214
 30
238.234
 70
    32
  0
VERTEX
  8
T50SSILL
 62
13
 10
4937.576
 20
-8024.592
 30
238.196
 70
    32
  0
VERTEX
  8
T50SSILL
 62
13
 10
4941.764
 20
-8030.300
 30
238.205
 70
    32
  0
VERTEX
  8
T50SSILL
 62
13
 10
4835.020
 20
-8106.659
 30
238.244
 70
    32
  0
VERTEX
  8
T50SSILL
 62
13
 10
4854.663
 20
-8120.451
 30
238.271
 70
    32
  0
VERTEX
  8
T50SSILL
 62
13
 10
4856.899
 20
-8126.378
 30
238.280
 70
    32
  0
VERTEX
  8
T50SSILL
 62
13
 10
4859.896
 20
-8146.175
 30
238.306
 70
    32
  0
VERTEX
  8
T50SSILL
 62
13
 10
4863.553
 20
-8156.757
 30
238.321
 70
    32
  0
VERTEX
  8
T50SSILL
 62
13
 10
4873.342
 20
-8175.093
 30
238.349
 70
    32
  0
VERTEX
  8
T50SSILL
 62
13
 10
4880.806
 20
-8181.411
 30
238.361
 70
    32
  0
VERTEX
  8
T50SSILL
 62
13
 10
4939.456
 20
-8139.930
 30
238.340
 70
    32
  0
VERTEX
  8
T50SSILL
 62
13
 10
4935.308
 20
-8133.678
 30
238.330
 70
    32
  0
VERTEX
  8
T50SSILL
 62
13
 10
4938.902
 20
-8131.284
 30
238.329
 70
    32
  0
VERTEX
  8
T50SSILL
 62
13
 10
4933.428
 20
-8117.826
 30
238.309
 70
    32
  0
VERTEX
  8
T50SSILL
 62
13
 10
4928.414
 20
-8098.770
 30
238.283
 70
    32
  0
VERTEX
  8
T50SSILL
 62
13
 10
4925.917
 20
-8092.942
 30
238.274
 70
    32
  0
VERTEX
  8
T50SSILL
 62
13
 10
4915.395
 20
-8078.860
 30
238.251
 70
    32
  0
VERTEX
  8
T50SSILL
 62
13
 10
4928.269
 20
-8071.040
 30
238.248
 70
    32
  0
VERTEX
  8
T50SSILL
 62
13
 10
4950.735
 20
-8131.136
 30
238.335
 70
    32
  0
VERTEX
  8
T50SSILL
 62
13
 10
4984.719
 20
-8106.843
 30
238.322
 70
    32
  0
VERTEX
  8
T50SSILL
 62
13
 10
4989.421
 20
-8112.762
 30
238.332
 70
    32
  0
VERTEX
  8
T50SSILL
 62
13
 10
4955.102
 20
-8137.713
 30
238.345
 70
    32
  0
VERTEX
  8
T50SSILL
 62
13
 10
4956.633
 20
-8151.408
 30
238.363
 70
    32
  0
VERTEX
  8
T50SSILL
 62
13
 10
4962.041
 20
-8167.744
 30
238.386
 70
    32
  0
VERTEX
  8
T50SSILL
 62
13
 10
4957.692
 20
-8170.512
 30
238.387
 70
    32
  0
VERTEX
  8
T50SSILL
 62
13
 10
4954.550
 20
-8170.578
 30
238.386
 70
    32
  0
VERTEX
  8
T50SSILL
 62
13
 10
4947.306
 20
-8150.612
 30
238.357
 70
    32
  0
VERTEX
  8
T50SSILL
 62
13
 10
4942.992
 20
-8146.047
 30
238.349
 70
    32
  0
VERTEX
  8
T50SSILL
 62
13
 10
4886.723
 20
-8186.260
 30
238.370
 70
    32
  0
VERTEX
  8
T50SSILL
 62
13
 10
4889.488
 20
-8193.807
 30
238.380
 70
    32
  0
VERTEX
  8
T50SSILL
 62
13
 10
4877.411
 20
-8203.712
 30
238.386
 70
    32
  0
VERTEX
  8
T50SSILL
 62
13
 10
4876.005
 20
-8217.305
 30
238.403
 70
    32
  0
VERTEX
  8
T50SSILL
 62
13
 10
4868.849
 20
-8230.706
 30
238.415
 70
    32
  0
VERTEX
  8
T50SSILL
 62
13
 10
4849.378
 20
-8246.904
 30
238.425
 70
    32
  0
VERTEX
  8
T50SSILL
 62
13
 10
4847.092
 20
-8245.925
 30
238.423
 70
    32
  0
VERTEX
  8
T50SSILL
 62
13
 10
4844.515
 20
-8240.278
 30
238.415
 70
    32
  0
VERTEX
  8
T50SSILL
 62
13
 10
4849.339
 20
-8234.610
 30
238.410
 70
    32
  0
VERTEX
  8
T50SSILL
 62
13
 10
4848.719
 20
-8230.097
 30
238.404
 70
    32
  0
VERTEX
  8
T50SSILL
 62
13
 10
4841.385
 20
-8218.650
 30
238.386
 70
    32
  0
VERTEX
  8
T50SSILL
 62
13
 10
4824.232
 20
-8231.690
 30
238.393
 70
    32
  0
VERTEX
  8
T50SSILL
 62
13
 10
4819.809
 20
-8245.361
 30
238.408
 70
    32
  0
VERTEX
  8
T50SSILL
 62
13
 10
4819.529
 20
-8250.726
 30
238.415
 70
    32
  0
VERTEX
  8
T50SSILL
 62
13
 10
4822.602
 20
-8260.874
 30
238.429
 70
    32
  0
VERTEX
  8
T50SSILL
 62
13
 10
4866.528
 20
-8322.087
 30
238.524
 70
    32
  0
VERTEX
  8
T50SSILL
 62
13
 10
4869.736
 20
-8309.299
 30
238.513
 70
    32
  0
VERTEX
  8
T50SSILL
 62
13
 10
4875.482
 20
-8301.277
 30
238.506
 70
    32
  0
VERTEX
  8
T50SSILL
 62
13
 10
4961.361
 20
-8239.797
 30
238.475
 70
    32
  0
VERTEX
  8
T50SSILL
 62
13
 10
4957.567
 20
-8234.556
 30
238.466
 70
    32
  0
VERTEX
  8
T50SSILL
 62
13
 10
4967.288
 20
-8227.520
 30
238.463
 70
    32
  0
VERTEX
  8
T50SSILL
 62
13
 10
4971.118
 20
-8232.811
 30
238.471
 70
    32
  0
VERTEX
  8
T50SSILL
 62
13
 10
4995.512
 20
-8215.348
 30
238.462
 70
    32
  0
VERTEX
  8
T50SSILL
 62
13
 10
4999.905
 20
-8221.416
 30
238.472
 70
    32
  0
VERTEX
  8
T50SSILL
 62
13
 10
4886.584
 20
-8301.872
 30
238.513
 70
    32
  0
VERTEX
  8
T50SSILL
 62
13
 10
4880.853
 20
-8306.573
 30
238.516
 70
    32
  0
VERTEX
  8
T50SSILL
 62
13
 10
4874.520
 20
-8317.359
 30
238.526
 70
    32
  0
VERTEX
  8
T50SSILL
 62
13
 10
4876.152
 20
-8337.919
 30
238.532
 70
    32
  0
VERTEX
  8
T50SSILL
 62
13
 10
4923.859
 20
-8404.443
 30
238.574
 70
    32
  0
VERTEX
  8
T50SSILL
 62
13
 10
4928.936
 20
-8388.160
 30
238.575
 70
    32
  0
VERTEX
  8
T50SSILL
 62
13
 10
4934.765
 20
-8381.543
 30
238.578
 70
    32
  0
VERTEX
  8
T50SSILL
 62
13
 10
4989.703
 20
-8342.665
 30
238.608
 70
    32
  0
VERTEX
  8
T50SSILL
 62
13
 10
4981.336
 20
-8317.270
 30
238.581
 70
    32
  0
VERTEX
  8
T50SSILL
 62
13
 10
4979.048
 20
-8295.238
 30
238.553
 70
    32
  0
VERTEX
  8
T50SSILL
 62
13
 10
4981.466
 20
-8286.447
 30
238.543
 70
    32
  0
VERTEX
  8
T50SSILL
 62
13
 10
4990.209
 20
-8281.054
 30
238.541
 70
    32
  0
VERTEX
  8
T50SSILL
 62
13
 10
5003.837
 20
-8289.871
 30
238.559
 70
    32
  0
VERTEX
  8
T50SSILL
 62
13
 10
5012.930
 20
-8306.870
 30
238.585
 70
    32
  0
VERTEX
  8
T50SSILL
 62
13
 10
5018.452
 20
-8321.484
 30
238.606
 70
    32
  0
VERTEX
  8
T50SSILL
 62
13
 10
5035.017
 20
-8309.625
 30
238.600
 70
    32
  0
VERTEX
  8
T50SSILL
 62
13
 10
5038.618
 20
-8315.304
 30
238.609
 70
    32
  0
VERTEX
  8
T50SSILL
 62
13
 10
5031.550
 20
-8320.535
 30
238.612
 70
    32
  0
VERTEX
  8
T50SSILL
 62
13
 10
5045.894
 20
-8341.411
 30
238.645
 70
    32
  0
VERTEX
  8
T50SSILL
 62
13
 10
5047.295
 20
-8348.088
 30
238.647
 70
    32
  0
VERTEX
  8
T50SSILL
 62
13
 10
5050.392
 20
-8351.162
 30
238.650
 70
    32
  0
VERTEX
  8
T50SSILL
 62
13
 10
5062.174
 20
-8356.513
 30
238.658
 70
    32
  0
VERTEX
  8
T50SSILL
 62
13
 10
5065.680
 20
-8360.273
 30
238.661
 70
    32
  0
VERTEX
  8
T50SSILL
 62
13
 10
5072.639
 20
-8372.696
 30
238.668
 70
    32
  0
VERTEX
  8
T50SSILL
 62
13
 10
5078.799
 20
-8388.154
 30
238.674
 70
    32
  0
VERTEX
  8
T50SSILL
 62
13
 10
5142.899
 20
-8343.122
 30
238.698
 70
    32
  0
VERTEX
  8
T50SSILL
 62
13
 10
5149.625
 20
-8340.469
 30
238.698
 70
    32
  0
VERTEX
  8
T50SSILL
 62
13
 10
5162.721
 20
-8339.079
 30
238.703
 70
    32
  0
VERTEX
  8
T50SSILL
 62
13
 10
5174.280
 20
-8341.504
 30
238.712
 70
    32
  0
VERTEX
  8
T50SSILL
 62
13
 10
5185.651
 20
-8350.259
 30
238.729
 70
    32
  0
VERTEX
  8
T50SSILL
 62
13
 10
5211.780
 20
-8386.431
 30
238.762
 70
    32
  0
VERTEX
  8
T50SSILL
 62
13
 10
5217.687
 20
-8391.028
 30
238.766
 70
    32
  0
VERTEX
  8
T50SSILL
 62
13
 10
5226.409
 20
-8393.939
 30
238.773
 70
    32
  0
VERTEX
  8
T50SSILL
 62
13
 10
5238.589
 20
-8392.800
 30
238.781
 70
    32
  0
VERTEX
  8
T50SSILL
 62
13
 10
5321.471
 20
-8334.454
 30
238.780
 70
    32
  0
VERTEX
  8
T50SSILL
 62
13
 10
5325.837
 20
-8340.716
 30
238.790
 70
    32
  0
VERTEX
  8
T50SSILL
 62
13
 10
5247.190
 20
-8396.576
 30
238.787
 70
    32
  0
VERTEX
  8
T50SSILL
 62
13
 10
5237.171
 20
-8400.282
 30
238.781
 70
    32
  0
VERTEX
  8
T50SSILL
 62
13
 10
5221.724
 20
-8400.023
 30
238.770
 70
    32
  0
VERTEX
  8
T50SSILL
 62
13
 10
5254.058
 20
-8444.987
 30
238.799
 70
    32
  0
VERTEX
  8
T50SSILL
 62
13
 10
5279.251
 20
-8471.588
 30
238.819
 70
    32
  0
VERTEX
  8
T50SSILL
 62
13
 10
5292.847
 20
-8472.030
 30
238.828
 70
    32
  0
VERTEX
  8
T50SSILL
 62
13
 10
5331.741
 20
-8443.069
 30
238.850
 70
    32
  0
VERTEX
  8
T50SSILL
 62
13
 10
5336.212
 20
-8449.186
 30
238.854
 70
    32
  0
VERTEX
  8
T50SSILL
 62
13
 10
5289.963
 20
-8483.273
 30
238.828
 70
    32
  0
VERTEX
  8
T50SSILL
 62
13
 10
5337.728
 20
-8533.592
 30
238.867
 70
    32
  0
VERTEX
  8
T50SSILL
 62
13
 10
5342.572
 20
-8536.782
 30
238.871
 70
    32
  0
VERTEX
  8
T50SSILL
 62
13
 10
5351.766
 20
-8538.564
 30
238.877
 70
    32
  0
VERTEX
  8
T50SSILL
 62
13
 10
5362.042
 20
-8537.537
 30
238.884
 70
    32
  0
VERTEX
  8
T50SSILL
 62
13
 10
5385.151
 20
-8521.615
 30
238.897
 70
    32
  0
VERTEX
  8
T50SSILL
 62
13
 10
5389.242
 20
-8527.494
 30
238.900
 70
    32
  0
VERTEX
  8
T50SSILL
 62
13
 10
5365.326
 20
-8543.343
 30
238.887
 70
    32
  0
VERTEX
  8
T50SSILL
 62
13
 10
5352.938
 20
-8545.524
 30
238.879
 70
    32
  0
VERTEX
  8
T50SSILL
 62
13
 10
5335.352
 20
-8539.367
 30
238.867
 70
    32
  0
VERTEX
  8
T50SSILL
 62
13
 10
5284.176
 20
-8486.874
 30
238.825
 70
    32
  0
VERTEX
  8
T50SSILL
 62
13
 10
5270.722
 20
-8496.271
 30
238.817
 70
    32
  0
VERTEX
  8
T50SSILL
 62
13
 10
5274.962
 20
-8502.903
 30
238.821
 70
    32
  0
VERTEX
  8
T50SSILL
 62
13
 10
5254.474
 20
-8517.175
 30
238.810
 70
    32
  0
VERTEX
  8
T50SSILL
 62
13
 10
5250.570
 20
-8510.842
 30
238.806
 70
    32
  0
VERTEX
  8
T50SSILL
 62
13
 10
5249.445
 20
-8511.693
 30
238.805
 70
    32
  0
VERTEX
  8
T50SSILL
 62
13
 10
5244.007
 20
-8505.083
 30
238.801
 70
    32
  0
VERTEX
  8
T50SSILL
 62
13
 10
5267.536
 20
-8488.401
 30
238.814
 70
    32
  0
VERTEX
  8
T50SSILL
 62
13
 10
5272.966
 20
-8474.239
 30
238.815
 70
    32
  0
VERTEX
  8
T50SSILL
 62
13
 10
5248.502
 20
-8449.188
 30
238.796
 70
    32
  0
VERTEX
  8
T50SSILL
 62
13
 10
5179.478
 20
-8354.374
 30
238.731
 70
    32
  0
VERTEX
  8
T50SSILL
 62
13
 10
5170.761
 20
-8348.253
 30
238.718
 70
    32
  0
VERTEX
  8
T50SSILL
 62
13
 10
5160.489
 20
-8345.629
 30
238.710
 70
    32
  0
VERTEX
  8
T50SSILL
 62
13
 10
5145.079
 20
-8350.537
 30
238.708
 70
    32
  0
VERTEX
  8
T50SSILL
 62
13
 10
5087.361
 20
-8390.854
 30
238.680
 70
    32
  0
VERTEX
  8
T50SSILL
 62
13
 10
5086.968
 20
-8412.703
 30
238.683
 70
    32
  0
VERTEX
  8
T50SSILL
 62
13
 10
5091.618
 20
-8434.497
 30
238.689
 70
    32
  0
VERTEX
  8
T50SSILL
 62
13
 10
5085.390
 20
-8433.569
 30
238.685
 70
    32
  0
VERTEX
  8
T50SSILL
 62
13
 10
5069.268
 20
-8418.237
 30
238.672
 70
    32
  0
VERTEX
  8
T50SSILL
 62
13
 10
5058.038
 20
-8418.879
 30
238.665
 70
    32
  0
VERTEX
  8
T50SSILL
 62
13
 10
5051.644
 20
-8415.976
 30
238.660
 70
    32
  0
VERTEX
  8
T50SSILL
 62
13
 10
4994.318
 20
-8457.103
 30
238.632
 70
    32
  0
VERTEX
  8
T50SSILL
 62
13
 10
4986.854
 20
-8465.066
 30
238.631
 70
    32
  0
VERTEX
  8
T50SSILL
 62
13
 10
4984.276
 20
-8478.177
 30
238.634
 70
    32
  0
VERTEX
  8
T50SSILL
 62
13
 10
4986.894
 20
-8492.341
 30
238.641
 70
    32
  0
VERTEX
  8
T50SSILL
 62
13
 10
5221.689
 20
-8819.743
 30
238.907
 70
    32
  0
VERTEX
  8
T50SSILL
 62
13
 10
5242.338
 20
-8846.469
 30
238.930
 70
    32
  0
VERTEX
  8
T50SSILL
 62
13
 10
5255.267
 20
-8858.663
 30
238.942
 70
    32
  0
VERTEX
  8
T50SSILL
 62
13
 10
5263.136
 20
-8863.404
 30
238.949
 70
    32
  0
VERTEX
  8
T50SSILL
 62
13
 10
5275.402
 20
-8870.104
 30
238.958
 70
    32
  0
VERTEX
  8
T50SSILL
 62
13
 10
5292.824
 20
-8875.843
 30
238.971
 70
    32
  0
VERTEX
  8
T50SSILL
 62
13
 10
5318.200
 20
-8878.474
 30
238.987
 70
    32
  0
VERTEX
  8
T50SSILL
 62
13
 10
5331.325
 20
-8877.174
 30
238.994
 70
    32
  0
VERTEX
  8
T50SSILL
 62
13
 10
5353.662
 20
-8870.351
 30
239.004
 70
    32
  0
VERTEX
  8
T50SSILL
 62
13
 10
5377.739
 20
-8855.518
 30
239.012
 70
    32
  0
VERTEX
  8
T50SSILL
 62
13
 10
5885.076
 20
-8492.563
 30
239.227
 70
    32
  0
VERTEX
  8
T50SSILL
 62
13
 10
5887.974
 20
-8482.440
 30
239.227
 70
    32
  0
VERTEX
  8
T50SSILL
 62
13
 10
5886.765
 20
-8469.579
 30
239.224
 70
    32
  0
VERTEX
  8
T50SSILL
 62
13
 10
5867.760
 20
-8444.704
 30
239.201
 70
    32
  0
VERTEX
  8
T50SSILL
 62
13
 10
5878.480
 20
-8436.800
 30
239.201
 70
    32
  0
SEQEND
  8
T50SSILL
  0
POLYLINE
  8
T50SSILL
 62
13
 66
     1
 70
     9
  0
VERTEX
  8
T50SSILL
 62
13
 10
1010.135
 20
-7518.197
 30
241.672
 70
    32
  0
VERTEX
  8
T50SSILL
 62
13
 10
966.356
 20
-7549.514
 30
241.576
 70
    32
  0
VERTEX
  8
T50SSILL
 62
13
 10
957.876
 20
-7560.682
 30
241.604
 70
    32
  0
VERTEX
  8
T50SSILL
 62
13
 10
953.536
 20
-7562.748
 30
241.585
 70
    32
  0
VERTEX
  8
T50SSILL
 62
13
 10
947.851
 20
-7558.900
 30
241.500
 70
    32
  0
VERTEX
  8
T50SSILL
 62
13
 10
936.471
 20
-7516.835
 30
241.016
 70
    32
  0
VERTEX
  8
T50SSILL
 62
13
 10
937.372
 20
-7515.671
 30
241.013
 70
    32
  0
VERTEX
  8
T50SSILL
 62
13
 10
1005.489
 20
-7511.696
 30
241.572
 70
    32
  0
SEQEND
  8
T50SSILL
  0
POLYLINE
  8
T50SSILL
 62
13
 66
     1
 70
     9
  0
VERTEX
  8
T50SSILL
 62
13
 10
3889.812
 20
-8467.766
 30
238.053
 70
    32
  0
VERTEX
  8
T50SSILL
 62
13
 10
3892.533
 20
-8461.259
 30
238.053
 70
    32
  0
VERTEX
  8
T50SSILL
 62
13
 10
3905.018
 20
-8456.256
 30
238.053
 70
    32
  0
VERTEX
  8
T50SSILL
 62
13
 10
3910.496
 20
-8479.553
 30
238.053
 70
    32
  0
VERTEX
  8
T50SSILL
 62
13
 10
3901.498
 20
-8483.060
 30
238.053
 70
    32
  0
VERTEX
  8
T50SSILL
 62
13
 10
3895.799
 20
-8476.565
 30
238.053
 70
    32
  0
VERTEX
  8
T50SSILL
 62
13
 10
3893.659
 20
-8471.915
 30
238.053
 70
    32
  0
SEQEND
  8
T50SSILL
  0
POLYLINE
  8
T50SSILL
 62
13
 66
     1
 70
     9
  0
VERTEX
  8
T50SSILL
 62
13
 10
3913.035
 20
-8396.888
 30
238.053
 70
    32
  0
VERTEX
  8
T50SSILL
 62
13
 10
3916.486
 20
-8406.694
 30
238.053
 70
    32
  0
VERTEX
  8
T50SSILL
 62
13
 10
3943.080
 20
-8387.418
 30
238.053
 70
    32
  0
VERTEX
  8
T50SSILL
 62
13
 10
3953.559
 20
-8379.822
 30
238.053
 70
    32
  0
VERTEX
  8
T50SSILL
 62
13
 10
3950.663
 20
-8379.018
 30
238.053
 70
    32
  0
VERTEX
  8
T50SSILL
 62
13
 10
3946.940
 20
-8378.279
 30
238.053
 70
    32
  0
VERTEX
  8
T50SSILL
 62
13
 10
3943.730
 20
-8377.051
 30
238.053
 70
    32
  0
VERTEX
  8
T50SSILL
 62
13
 10
3938.627
 20
-8374.601
 30
238.053
 70
    32
  0
VERTEX
  8
T50SSILL
 62
13
 10
3935.701
 20
-8372.724
 30
238.053
 70
    32
  0
VERTEX
  8
T50SSILL
 62
13
 10
3932.986
 20
-8370.690
 30
238.053
 70
    32
  0
VERTEX
  8
T50SSILL
 62
13
 10
3930.993
 20
-8368.448
 30
238.053
 70
    32
  0
VERTEX
  8
T50SSILL
 62
13
 10
3928.895
 20
-8366.065
 30
238.053
 70
    32
  0
VERTEX
  8
T50SSILL
 62
13
 10
3915.695
 20
-8347.846
 30
238.053
 70
    32
  0
VERTEX
  8
T50SSILL
 62
13
 10
3902.280
 20
-8348.486
 30
238.053
 70
    32
  0
VERTEX
  8
T50SSILL
 62
13
 10
3899.943
 20
-8348.597
 30
238.053
 70
    32
  0
VERTEX
  8
T50SSILL
 62
13
 10
3899.804
 20
-8363.149
 30
238.053
 70
    32
  0
VERTEX
  8
T50SSILL
 62
13
 10
3901.812
 20
-8369.539
 30
238.053
 70
    32
  0
VERTEX
  8
T50SSILL
 62
13
 10
3904.072
 20
-8374.647
 30
238.053
 70
    32
  0
VERTEX
  8
T50SSILL
 62
13
 10
3908.013
 20
-8384.965
 30
238.053
 70
    32
  0
VERTEX
  8
T50SSILL
 62
13
 10
3910.277
 20
-8389.194
 30
238.053
 70
    32
  0
SEQEND
  8
T50SSILL
  0
POLYLINE
  8
T50SSILL
 62
13
 66
     1
 70
     9
  0
VERTEX
  8
T50SSILL
 62
13
 10
3882.100
 20
-8452.368
 30
238.053
 70
    32
  0
VERTEX
  8
T50SSILL
 62
13
 10
3878.454
 20
-8443.035
 30
238.053
 70
    32
  0
VERTEX
  8
T50SSILL
 62
13
 10
3892.881
 20
-8432.541
 30
238.053
 70
    32
  0
VERTEX
  8
T50SSILL
 62
13
 10
3901.807
 20
-8436.749
 30
238.053
 70
    32
  0
VERTEX
  8
T50SSILL
 62
13
 10
3906.367
 20
-8442.448
 30
238.053
 70
    32
  0
VERTEX
  8
T50SSILL
 62
13
 10
3903.069
 20
-8444.788
 30
238.053
 70
    32
  0
VERTEX
  8
T50SSILL
 62
13
 10
3903.820
 20
-8449.484
 30
238.053
 70
    32
  0
VERTEX
  8
T50SSILL
 62
13
 10
3887.745
 20
-8455.400
 30
238.053
 70
    32
  0
SEQEND
  8
T50SSILL
  0
POLYLINE
  8
T50SSILL
 62
13
 66
     1
 70
     9
  0
VERTEX
  8
T50SSILL
 62
13
 10
3881.195
 20
-8432.134
 30
238.053
 70
    32
  0
VERTEX
  8
T50SSILL
 62
13
 10
3875.550
 20
-8436.325
 30
238.053
 70
    32
  0
VERTEX
  8
T50SSILL
 62
13
 10
3870.808
 20
-8424.632
 30
238.053
 70
    32
  0
VERTEX
  8
T50SSILL
 62
13
 10
3876.909
 20
-8416.928
 30
238.053
 70
    32
  0
VERTEX
  8
T50SSILL
 62
13
 10
3879.920
 20
-8415.677
 30
238.053
 70
    32
  0
SEQEND
  8
T50SSILL
  0
POLYLINE
  8
T50SSILL
 62
13
 66
     1
 70
     9
  0
VERTEX
  8
T50SSILL
 62
13
 10
4888.953
 20
-6302.431
 30
236.133
 70
    32
  0
VERTEX
  8
T50SSILL
 62
13
 10
4885.395
 20
-6308.968
 30
236.133
 70
    32
  0
VERTEX
  8
T50SSILL
 62
13
 10
4946.204
 20
-6344.845
 30
236.150
 70
    32
  0
VERTEX
  8
T50SSILL
 62
13
 10
4947.566
 20
-6353.520
 30
236.152
 70
    32
  0
VERTEX
  8
T50SSILL
 62
13
 10
4909.262
 20
-6353.227
 30
236.143
 70
    32
  0
VERTEX
  8
T50SSILL
 62
13
 10
4910.164
 20
-6337.490
 30
236.140
 70
    32
  0
VERTEX
  8
T50SSILL
 62
13
 10
4899.097
 20
-6337.571
 30
236.138
 70
    32
  0
VERTEX
  8
T50SSILL
 62
13
 10
4898.912
 20
-6354.176
 30
236.141
 70
    32
  0
VERTEX
  8
T50SSILL
 62
13
 10
4862.188
 20
-6353.859
 30
236.132
 70
    32
  0
VERTEX
  8
T50SSILL
 62
13
 10
4859.226
 20
-6349.688
 30
236.131
 70
    32
  0
VERTEX
  8
T50SSILL
 62
13
 10
4842.890
 20
-6349.850
 30
236.149
 70
    32
  0
VERTEX
  8
T50SSILL
 62
13
 10
4842.652
 20
-6363.030
 30
236.148
 70
    32
  0
VERTEX
  8
T50SSILL
 62
13
 10
4950.181
 20
-6363.670
 30
236.155
 70
    32
  0
VERTEX
  8
T50SSILL
 62
13
 10
5010.100
 20
-6588.510
 30
236.219
 70
    32
  0
VERTEX
  8
T50SSILL
 62
13
 10
4995.887
 20
-6612.620
 30
236.223
 70
    32
  0
VERTEX
  8
T50SSILL
 62
13
 10
5011.824
 20
-6672.549
 30
236.258
 70
    32
  0
VERTEX
  8
T50SSILL
 62
13
 10
5040.471
 20
-6696.180
 30
236.254
 70
    32
  0
VERTEX
  8
T50SSILL
 62
13
 10
5128.954
 20
-6819.043
 30
236.614
 70
    32
  0
VERTEX
  8
T50SSILL
 62
13
 10
5115.610
 20
-6815.160
 30
236.585
 70
    32
  0
VERTEX
  8
T50SSILL
 62
13
 10
5103.472
 20
-6814.115
 30
236.564
 70
    32
  0
VERTEX
  8
T50SSILL
 62
13
 10
5089.372
 20
-6816.878
 30
236.547
 70
    32
  0
VERTEX
  8
T50SSILL
 62
13
 10
5080.127
 20
-6821.236
 30
236.540
 70
    32
  0
VERTEX
  8
T50SSILL
 62
13
 10
5062.130
 20
-6833.458
 30
236.534
 70
    32
  0
VERTEX
  8
T50SSILL
 62
13
 10
4267.574
 20
-7400.846
 30
237.448
 70
    32
  0
VERTEX
  8
T50SSILL
 62
13
 10
4257.001
 20
-7407.577
 30
237.467
 70
    32
  0
VERTEX
  8
T50SSILL
 62
13
 10
4237.398
 20
-7411.785
 30
237.496
 70
    32
  0
VERTEX
  8
T50SSILL
 62
13
 10
4230.375
 20
-7411.153
 30
237.505
 70
    32
  0
VERTEX
  8
T50SSILL
 62
13
 10
4224.195
 20
-7409.602
 30
237.513
 70
    32
  0
VERTEX
  8
T50SSILL
 62
13
 10
4218.909
 20
-7407.888
 30
237.519
 70
    32
  0
VERTEX
  8
T50SSILL
 62
13
 10
4213.162
 20
-7404.499
 30
237.524
 70
    32
  0
VERTEX
  8
T50SSILL
 62
13
 10
4205.848
 20
-7399.198
 30
237.531
 70
    32
  0
VERTEX
  8
T50SSILL
 62
13
 10
4196.651
 20
-7387.567
 30
237.536
 70
    32
  0
VERTEX
  8
T50SSILL
 62
13
 10
4081.212
 20
-7227.050
 30
237.587
 70
    32
  0
VERTEX
  8
T50SSILL
 62
13
 10
4000.384
 20
-7125.808
 30
237.623
 70
    32
  0
VERTEX
  8
T50SSILL
 62
13
 10
4013.423
 20
-7116.902
 30
237.601
 70
    32
  0
VERTEX
  8
T50SSILL
 62
13
 10
4008.211
 20
-7111.400
 30
237.605
 70
    32
  0
VERTEX
  8
T50SSILL
 62
13
 10
3996.378
 20
-7120.005
 30
237.625
 70
    32
  0
VERTEX
  8
T50SSILL
 62
13
 10
3561.527
 20
-6514.349
 30
237.783
 70
    32
  0
VERTEX
  8
T50SSILL
 62
13
 10
3559.879
 20
-6507.817
 30
237.781
 70
    32
  0
VERTEX
  8
T50SSILL
 62
13
 10
3574.052
 20
-6498.028
 30
237.763
 70
    32
  0
VERTEX
  8
T50SSILL
 62
13
 10
3569.987
 20
-6492.512
 30
237.764
 70
    32
  0
VERTEX
  8
T50SSILL
 62
13
 10
3556.618
 20
-6500.726
 30
237.781
 70
    32
  0
VERTEX
  8
T50SSILL
 62
13
 10
3550.417
 20
-6497.963
 30
237.786
 70
    32
  0
VERTEX
  8
T50SSILL
 62
13
 10
2777.807
 20
-5417.662
 30
238.039
 70
    32
  0
VERTEX
  8
T50SSILL
 62
13
 10
2132.564
 20
-4520.414
 30
237.777
 70
    32
  0
VERTEX
  8
T50SSILL
 62
13
 10
2135.995
 20
-4492.917
 30
237.773
 70
    32
  0
VERTEX
  8
T50SSILL
 62
13
 10
2139.334
 20
-4489.068
 30
237.770
 70
    32
  0
VERTEX
  8
T50SSILL
 62
13
 10
2258.959
 20
-4403.934
 30
237.697
 70
    32
  0
VERTEX
  8
T50SSILL
 62
13
 10
2254.809
 20
-4397.435
 30
237.699
 70
    32
  0
VERTEX
  8
T50SSILL
 62
13
 10
2133.689
 20
-4483.103
 30
237.773
 70
    32
  0
VERTEX
  8
T50SSILL
 62
13
 10
2129.552
 20
-4488.623
 30
237.776
 70
    32
  0
VERTEX
  8
T50SSILL
 62
13
 10
2122.437
 20
-4506.309
 30
237.781
 70
    32
  0
VERTEX
  8
T50SSILL
 62
13
 10
2111.364
 20
-4490.885
 30
237.786
 70
    32
  0
VERTEX
  8
T50SSILL
 62
13
 10
2112.644
 20
-4461.969
 30
237.782
 70
    32
  0
VERTEX
  8
T50SSILL
 62
13
 10
2107.143
 20
-4453.390
 30
237.785
 70
    32
  0
VERTEX
  8
T50SSILL
 62
13
 10
2098.413
 20
-4443.352
 30
237.788
 70
    32
  0
VERTEX
  8
T50SSILL
 62
13
 10
2093.176
 20
-4441.936
 30
237.791
 70
    32
  0
VERTEX
  8
T50SSILL
 62
13
 10
2085.908
 20
-4446.257
 30
237.796
 70
    32
  0
VERTEX
  8
T50SSILL
 62
13
 10
2079.231
 20
-4445.444
 30
237.799
 70
    32
  0
VERTEX
  8
T50SSILL
 62
13
 10
2066.345
 20
-4426.528
 30
237.804
 70
    32
  0
VERTEX
  8
T50SSILL
 62
13
 10
2065.193
 20
-4418.272
 30
237.804
 70
    32
  0
VERTEX
  8
T50SSILL
 62
13
 10
2058.838
 20
-4409.480
 30
237.807
 70
    32
  0
VERTEX
  8
T50SSILL
 62
13
 10
2048.284
 20
-4400.130
 30
237.812
 70
    32
  0
VERTEX
  8
T50SSILL
 62
13
 10
2033.388
 20
-4394.652
 30
237.819
 70
    32
  0
VERTEX
  8
T50SSILL
 62
13
 10
2017.886
 20
-4392.616
 30
237.828
 70
    32
  0
VERTEX
  8
T50SSILL
 62
13
 10
2010.868
 20
-4392.081
 30
237.831
 70
    32
  0
VERTEX
  8
T50SSILL
 62
13
 10
1994.754
 20
-4395.992
 30
237.841
 70
    32
  0
VERTEX
  8
T50SSILL
 62
13
 10
1987.456
 20
-4399.997
 30
237.845
 70
    32
  0
VERTEX
  8
T50SSILL
 62
13
 10
1973.515
 20
-4410.767
 30
237.853
 70
    32
  0
VERTEX
  8
T50SSILL
 62
13
 10
1969.891
 20
-4414.962
 30
237.856
 70
    32
  0
VERTEX
  8
T50SSILL
 62
13
 10
1962.489
 20
-4426.656
 30
237.861
 70
    32
  0
VERTEX
  8
T50SSILL
 62
13
 10
1960.164
 20
-4433.427
 30
237.863
 70
    32
  0
VERTEX
  8
T50SSILL
 62
13
 10
1958.894
 20
-4441.496
 30
237.864
 70
    32
  0
VERTEX
  8
T50SSILL
 62
13
 10
1958.386
 20
-4462.225
 30
237.866
 70
    32
  0
VERTEX
  8
T50SSILL
 62
13
 10
1959.020
 20
-4569.075
 30
237.876
 70
    32
  0
VERTEX
  8
T50SSILL
 62
13
 10
1963.097
 20
-4575.066
 30
237.874
 70
    32
  0
VERTEX
  8
T50SSILL
 62
13
 10
1962.675
 20
-4628.979
 30
237.879
 70
    32
  0
VERTEX
  8
T50SSILL
 62
13
 10
1958.953
 20
-4634.729
 30
237.882
 70
    32
  0
VERTEX
  8
T50SSILL
 62
13
 10
1959.799
 20
-4995.295
 30
238.029
 70
    32
  0
VERTEX
  8
T50SSILL
 62
13
 10
1978.233
 20
-4994.377
 30
238.035
 70
    32
  0
VERTEX
  8
T50SSILL
 62
13
 10
1977.469
 20
-4747.240
 30
237.882
 70
    32
  0
VERTEX
  8
T50SSILL
 62
13
 10
2087.193
 20
-4786.149
 30
237.916
 70
    32
  0
VERTEX
  8
T50SSILL
 62
13
 10
2099.233
 20
-4783.509
 30
237.919
 70
    32
  0
VERTEX
  8
T50SSILL
 62
13
 10
2113.548
 20
-4788.552
 30
237.930
 70
    32
  0
VERTEX
  8
T50SSILL
 62
13
 10
2115.250
 20
-4782.968
 30
237.926
 70
    32
  0
VERTEX
  8
T50SSILL
 62
13
 10
2101.140
 20
-4777.759
 30
237.915
 70
    32
  0
VERTEX
  8
T50SSILL
 62
13
 10
2092.260
 20
-4767.956
 30
237.903
 70
    32
  0
VERTEX
  8
T50SSILL
 62
13
 10
1977.110
 20
-4726.422
 30
237.880
 70
    32
  0
VERTEX
  8
T50SSILL
 62
13
 10
1977.846
 20
-4636.050
 30
237.872
 70
    32
  0
VERTEX
  8
T50SSILL
 62
13
 10
1972.961
 20
-4628.786
 30
237.874
 70
    32
  0
VERTEX
  8
T50SSILL
 62
13
 10
1973.180
 20
-4623.614
 30
237.873
 70
    32
  0
VERTEX
  8
T50SSILL
 62
13
 10
1976.847
 20
-4617.795
 30
237.870
 70
    32
  0
VERTEX
  8
T50SSILL
 62
13
 10
1978.031
 20
-4609.341
 30
237.869
 70
    32
  0
VERTEX
  8
T50SSILL
 62
13
 10
2011.134
 20
-4609.435
 30
237.851
 70
    32
  0
VERTEX
  8
T50SSILL
 62
13
 10
2014.599
 20
-4612.859
 30
237.849
 70
    32
  0
VERTEX
  8
T50SSILL
 62
13
 10
2043.093
 20
-4612.727
 30
237.834
 70
    32
  0
VERTEX
  8
T50SSILL
 62
13
 10
2047.133
 20
-4613.430
 30
237.832
 70
    32
  0
VERTEX
  8
T50SSILL
 62
13
 10
2050.634
 20
-4612.407
 30
237.830
 70
    32
  0
VERTEX
  8
T50SSILL
 62
13
 10
2075.790
 20
-4613.052
 30
237.816
 70
    32
  0
VERTEX
  8
T50SSILL
 62
13
 10
2082.030
 20
-4614.324
 30
237.813
 70
    32
  0
VERTEX
  8
T50SSILL
 62
13
 10
2119.775
 20
-4610.604
 30
237.792
 70
    32
  0
VERTEX
  8
T50SSILL
 62
13
 10
2123.528
 20
-4614.731
 30
237.790
 70
    32
  0
VERTEX
  8
T50SSILL
 62
13
 10
2115.488
 20
-4618.112
 30
237.795
 70
    32
  0
VERTEX
  8
T50SSILL
 62
13
 10
2115.872
 20
-4625.534
 30
237.796
 70
    32
  0
VERTEX
  8
T50SSILL
 62
13
 10
2190.390
 20
-4626.201
 30
237.827
 70
    32
  0
VERTEX
  8
T50SSILL
 62
13
 10
2195.220
 20
-4626.767
 30
237.830
 70
    32
  0
VERTEX
  8
T50SSILL
 62
13
 10
2201.899
 20
-4630.243
 30
237.836
 70
    32
  0
VERTEX
  8
T50SSILL
 62
13
 10
2203.996
 20
-4632.307
 30
237.838
 70
    32
  0
VERTEX
  8
T50SSILL
 62
13
 10
2250.156
 20
-4695.967
 30
237.915
 70
    32
  0
VERTEX
  8
T50SSILL
 62
13
 10
2255.400
 20
-4717.812
 30
237.936
 70
    32
  0
VERTEX
  8
T50SSILL
 62
13
 10
2255.361
 20
-4726.433
 30
237.943
 70
    32
  0
VERTEX
  8
T50SSILL
 62
13
 10
2253.630
 20
-4733.677
 30
237.949
 70
    32
  0
VERTEX
  8
T50SSILL
 62
13
 10
2248.830
 20
-4744.323
 30
237.956
 70
    32
  0
VERTEX
  8
T50SSILL
 62
13
 10
2243.538
 20
-4751.372
 30
237.959
 70
    32
  0
VERTEX
  8
T50SSILL
 62
13
 10
2237.066
 20
-4757.434
 30
237.961
 70
    32
  0
VERTEX
  8
T50SSILL
 62
13
 10
2231.494
 20
-4760.287
 30
237.961
 70
    32
  0
VERTEX
  8
T50SSILL
 62
13
 10
2229.327
 20
-4756.514
 30
237.957
 70
    32
  0
VERTEX
  8
T50SSILL
 62
13
 10
2230.457
 20
-4753.464
 30
237.955
 70
    32
  0
VERTEX
  8
T50SSILL
 62
13
 10
2221.149
 20
-4752.508
 30
237.950
 70
    32
  0
VERTEX
  8
T50SSILL
 62
13
 10
2217.565
 20
-4763.895
 30
237.958
 70
    32
  0
VERTEX
  8
T50SSILL
 62
13
 10
2212.874
 20
-4769.393
 30
237.960
 70
    32
  0
VERTEX
  8
T50SSILL
 62
13
 10
2208.324
 20
-4772.141
 30
237.960
 70
    32
  0
VERTEX
  8
T50SSILL
 62
13
 10
2210.438
 20
-4775.844
 30
237.965
 70
    32
  0
VERTEX
  8
T50SSILL
 62
13
 10
2173.177
 20
-4801.231
 30
237.969
 70
    32
  0
VERTEX
  8
T50SSILL
 62
13
 10
2163.324
 20
-4797.930
 30
237.962
 70
    32
  0
VERTEX
  8
T50SSILL
 62
13
 10
2161.299
 20
-4792.729
 30
237.956
 70
    32
  0
VERTEX
  8
T50SSILL
 62
13
 10
2159.008
 20
-4789.819
 30
237.953
 70
    32
  0
VERTEX
  8
T50SSILL
 62
13
 10
2156.453
 20
-4788.760
 30
237.951
 70
    32
  0
VERTEX
  8
T50SSILL
 62
13
 10
2146.018
 20
-4785.565
 30
237.943
 70
    32
  0
VERTEX
  8
T50SSILL
 62
13
 10
2137.081
 20
-4784.221
 30
237.938
 70
    32
  0
VERTEX
  8
T50SSILL
 62
13
 10
2134.365
 20
-4786.917
 30
237.939
 70
    32
  0
VERTEX
  8
T50SSILL
 62
13
 10
2126.961
 20
-4785.415
 30
237.934
 70
    32
  0
VERTEX
  8
T50SSILL
 62
13
 10
2126.079
 20
-4786.296
 30
237.934
 70
    32
  0
VERTEX
  8
T50SSILL
 62
13
 10
2126.606
 20
-4790.968
 30
237.938
 70
    32
  0
VERTEX
  8
T50SSILL
 62
13
 10
2117.943
 20
-4807.923
 30
237.949
 70
    32
  0
VERTEX
  8
T50SSILL
 62
13
 10
2119.454
 20
-4819.347
 30
237.960
 70
    32
  0
VERTEX
  8
T50SSILL
 62
13
 10
2131.317
 20
-4822.244
 30
237.968
 70
    32
  0
VERTEX
  8
T50SSILL
 62
13
 10
2146.126
 20
-4820.840
 30
237.973
 70
    32
  0
VERTEX
  8
T50SSILL
 62
13
 10
2156.105
 20
-4818.429
 30
237.976
 70
    32
  0
VERTEX
  8
T50SSILL
 62
13
 10
2183.713
 20
-4814.704
 30
237.986
 70
    32
  0
VERTEX
  8
T50SSILL
 62
13
 10
2198.455
 20
-4805.861
 30
237.985
 70
    32
  0
VERTEX
  8
T50SSILL
 62
13
 10
2237.851
 20
-4777.002
 30
237.978
 70
    32
  0
VERTEX
  8
T50SSILL
 62
13
 10
2254.375
 20
-4763.188
 30
237.974
 70
    32
  0
VERTEX
  8
T50SSILL
 62
13
 10
2262.012
 20
-4755.594
 30
237.971
 70
    32
  0
VERTEX
  8
T50SSILL
 62
13
 10
2263.919
 20
-4748.878
 30
237.966
 70
    32
  0
VERTEX
  8
T50SSILL
 62
13
 10
2265.246
 20
-4736.979
 30
237.957
 70
    32
  0
VERTEX
  8
T50SSILL
 62
13
 10
2263.874
 20
-4728.975
 30
237.949
 70
    32
  0
VERTEX
  8
T50SSILL
 62
13
 10
2262.606
 20
-4726.841
 30
237.947
 70
    32
  0
VERTEX
  8
T50SSILL
 62
13
 10
2263.105
 20
-4715.012
 30
237.937
 70
    32
  0
VERTEX
  8
T50SSILL
 62
13
 10
2768.901
 20
-5424.190
 30
238.045
 70
    32
  0
VERTEX
  8
T50SSILL
 62
13
 10
3553.259
 20
-6514.472
 30
237.788
 70
    32
  0
VERTEX
  8
T50SSILL
 62
13
 10
3989.991
 20
-7124.101
 30
237.625
 70
    32
  0
VERTEX
  8
T50SSILL
 62
13
 10
3987.279
 20
-7125.915
 30
237.625
 70
    32
  0
VERTEX
  8
T50SSILL
 62
13
 10
3994.848
 20
-7129.733
 30
237.623
 70
    32
  0
VERTEX
  8
T50SSILL
 62
13
 10
4069.013
 20
-7223.587
 30
237.595
 70
    32
  0
VERTEX
  8
T50SSILL
 62
13
 10
4255.104
 20
-7483.888
 30
237.519
 70
    32
  0
VERTEX
  8
T50SSILL
 62
13
 10
4095.194
 20
-7455.482
 30
237.717
 70
    32
  0
VERTEX
  8
T50SSILL
 62
13
 10
3995.759
 20
-7528.238
 30
237.808
 70
    32
  0
VERTEX
  8
T50SSILL
 62
13
 10
3999.005
 20
-7534.266
 30
237.818
 70
    32
  0
VERTEX
  8
T50SSILL
 62
13
 10
4097.227
 20
-7462.831
 30
237.719
 70
    32
  0
VERTEX
  8
T50SSILL
 62
13
 10
4218.981
 20
-7485.209
 30
237.569
 70
    32
  0
VERTEX
  8
T50SSILL
 62
13
 10
4107.771
 20
-7564.889
 30
237.772
 70
    32
  0
VERTEX
  8
T50SSILL
 62
13
 10
4112.329
 20
-7570.167
 30
237.769
 70
    32
  0
VERTEX
  8
T50SSILL
 62
13
 10
4186.546
 20
-7517.745
 30
237.634
 70
    32
  0
VERTEX
  8
T50SSILL
 62
13
 10
4182.495
 20
-7525.747
 30
237.645
 70
    32
  0
VERTEX
  8
T50SSILL
 62
13
 10
4189.402
 20
-7533.891
 30
237.641
 70
    32
  0
VERTEX
  8
T50SSILL
 62
13
 10
4178.164
 20
-7554.978
 30
237.670
 70
    32
  0
VERTEX
  8
T50SSILL
 62
13
 10
4169.747
 20
-7578.602
 30
237.697
 70
    32
  0
VERTEX
  8
T50SSILL
 62
13
 10
4177.294
 20
-7580.914
 30
237.688
 70
    32
  0
VERTEX
  8
T50SSILL
 62
13
 10
4184.217
 20
-7559.714
 30
237.665
 70
    32
  0
VERTEX
  8
T50SSILL
 62
13
 10
4199.440
 20
-7531.936
 30
237.626
 70
    32
  0
VERTEX
  8
T50SSILL
 62
13
 10
4206.784
 20
-7536.299
 30
237.619
 70
    32
  0
VERTEX
  8
T50SSILL
 62
13
 10
4226.829
 20
-7596.782
 30
237.663
 70
    32
  0
VERTEX
  8
T50SSILL
 62
13
 10
4166.111
 20
-7640.480
 30
237.767
 70
    32
  0
VERTEX
  8
T50SSILL
 62
13
 10
4170.521
 20
-7646.272
 30
237.770
 70
    32
  0
VERTEX
  8
T50SSILL
 62
13
 10
4228.428
 20
-7604.715
 30
237.671
 70
    32
  0
VERTEX
  8
T50SSILL
 62
13
 10
4232.412
 20
-7613.888
 30
237.678
 70
    32
  0
VERTEX
  8
T50SSILL
 62
13
 10
4234.029
 20
-7626.714
 30
237.691
 70
    32
  0
VERTEX
  8
T50SSILL
 62
13
 10
4237.032
 20
-7635.664
 30
237.699
 70
    32
  0
VERTEX
  8
T50SSILL
 62
13
 10
4239.907
 20
-7640.839
 30
237.702
 70
    32
  0
VERTEX
  8
T50SSILL
 62
13
 10
4250.368
 20
-7671.406
 30
237.728
 70
    32
  0
VERTEX
  8
T50SSILL
 62
13
 10
4253.841
 20
-7673.693
 30
237.728
 70
    32
  0
VERTEX
  8
T50SSILL
 62
13
 10
4255.876
 20
-7672.138
 30
237.724
 70
    32
  0
VERTEX
  8
T50SSILL
 62
13
 10
4257.834
 20
-7668.820
 30
237.719
 70
    32
  0
VERTEX
  8
T50SSILL
 62
13
 10
4256.652
 20
-7661.116
 30
237.711
 70
    32
  0
VERTEX
  8
T50SSILL
 62
13
 10
4258.308
 20
-7654.508
 30
237.702
 70
    32
  0
VERTEX
  8
T50SSILL
 62
13
 10
4258.213
 20
-7647.852
 30
237.694
 70
    32
  0
VERTEX
  8
T50SSILL
 62
13
 10
4254.637
 20
-7637.090
 30
237.685
 70
    32
  0
VERTEX
  8
T50SSILL
 62
13
 10
4252.942
 20
-7626.952
 30
237.675
 70
    32
  0
VERTEX
  8
T50SSILL
 62
13
 10
4247.183
 20
-7613.529
 30
237.664
 70
    32
  0
VERTEX
  8
T50SSILL
 62
13
 10
4239.209
 20
-7611.738
 30
237.669
 70
    32
  0
VERTEX
  8
T50SSILL
 62
13
 10
4235.606
 20
-7599.970
 30
237.659
 70
    32
  0
VERTEX
  8
T50SSILL
 62
13
 10
4282.636
 20
-7565.051
 30
237.577
 70
    32
  0
VERTEX
  8
T50SSILL
 62
13
 10
4288.978
 20
-7561.790
 30
237.568
 70
    32
  0
VERTEX
  8
T50SSILL
 62
13
 10
4294.788
 20
-7560.107
 30
237.561
 70
    32
  0
VERTEX
  8
T50SSILL
 62
13
 10
4304.667
 20
-7561.021
 30
237.553
 70
    32
  0
VERTEX
  8
T50SSILL
 62
13
 10
4310.308
 20
-7563.584
 30
237.551
 70
    32
  0
VERTEX
  8
T50SSILL
 62
13
 10
4317.853
 20
-7569.723
 30
237.552
 70
    32
  0
VERTEX
  8
T50SSILL
 62
13
 10
4326.710
 20
-7582.888
 30
237.559
 70
    32
  0
VERTEX
  8
T50SSILL
 62
13
 10
4320.189
 20
-7587.322
 30
237.570
 70
    32
  0
VERTEX
  8
T50SSILL
 62
13
 10
4324.201
 20
-7593.049
 30
237.573
 70
    32
  0
VERTEX
  8
T50SSILL
 62
13
 10
4330.695
 20
-7587.608
 30
237.561
 70
    32
  0
VERTEX
  8
T50SSILL
 62
13
 10
4361.997
 20
-7631.898
 30
237.585
 70
    32
  0
VERTEX
  8
T50SSILL
 62
13
 10
4350.826
 20
-7631.358
 30
237.594
 70
    32
  0
VERTEX
  8
T50SSILL
 62
13
 10
4344.991
 20
-7632.036
 30
237.600
 70
    32
  0
VERTEX
  8
T50SSILL
 62
13
 10
4338.815
 20
-7634.247
 30
237.608
 70
    32
  0
VERTEX
  8
T50SSILL
 62
13
 10
4289.113
 20
-7669.664
 30
237.692
 70
    32
  0
VERTEX
  8
T50SSILL
 62
13
 10
4284.856
 20
-7663.778
 30
237.689
 70
    32
  0
VERTEX
  8
T50SSILL
 62
13
 10
4272.214
 20
-7673.690
 30
237.712
 70
    32
  0
VERTEX
  8
T50SSILL
 62
13
 10
4275.699
 20
-7679.294
 30
237.715
 70
    32
  0
VERTEX
  8
T50SSILL
 62
13
 10
4246.442
 20
-7700.297
 30
237.765
 70
    32
  0
VERTEX
  8
T50SSILL
 62
13
 10
4241.317
 20
-7694.464
 30
237.763
 70
    32
  0
VERTEX
  8
T50SSILL
 62
13
 10
4232.097
 20
-7700.721
 30
237.778
 70
    32
  0
VERTEX
  8
T50SSILL
 62
13
 10
4236.690
 20
-7707.298
 30
237.782
 70
    32
  0
VERTEX
  8
T50SSILL
 62
13
 10
4171.581
 20
-7754.038
 30
237.893
 70
    32
  0
VERTEX
  8
T50SSILL
 62
13
 10
4176.123
 20
-7759.002
 30
237.894
 70
    32
  0
VERTEX
  8
T50SSILL
 62
13
 10
4337.230
 20
-7643.308
 30
237.620
 70
    32
  0
VERTEX
  8
T50SSILL
 62
13
 10
4345.085
 20
-7638.692
 30
237.607
 70
    32
  0
VERTEX
  8
T50SSILL
 62
13
 10
4351.827
 20
-7637.728
 30
237.600
 70
    32
  0
VERTEX
  8
T50SSILL
 62
13
 10
4361.086
 20
-7638.580
 30
237.593
 70
    32
  0
VERTEX
  8
T50SSILL
 62
13
 10
4369.597
 20
-7642.556
 30
237.590
 70
    32
  0
VERTEX
  8
T50SSILL
 62
13
 10
4417.901
 20
-7710.222
 30
237.626
 70
    32
  0
VERTEX
  8
T50SSILL
 62
13
 10
4409.729
 20
-7709.163
 30
237.632
 70
    32
  0
VERTEX
  8
T50SSILL
 62
13
 10
4397.996
 20
-7711.139
 30
237.644
 70
    32
  0
VERTEX
  8
T50SSILL
 62
13
 10
4390.458
 20
-7715.724
 30
237.656
 70
    32
  0
VERTEX
  8
T50SSILL
 62
13
 10
4326.092
 20
-7761.094
 30
237.765
 70
    32
  0
VERTEX
  8
T50SSILL
 62
13
 10
4312.416
 20
-7741.495
 30
237.755
 70
    32
  0
VERTEX
  8
T50SSILL
 62
13
 10
4302.281
 20
-7724.128
 30
237.743
 70
    32
  0
VERTEX
  8
T50SSILL
 62
13
 10
4297.421
 20
-7720.011
 30
237.743
 70
    32
  0
VERTEX
  8
T50SSILL
 62
13
 10
4294.657
 20
-7719.424
 30
237.745
 70
    32
  0
VERTEX
  8
T50SSILL
 62
13
 10
4285.837
 20
-7711.593
 30
237.743
 70
    32
  0
VERTEX
  8
T50SSILL
 62
13
 10
4282.882
 20
-7712.304
 30
237.747
 70
    32
  0
VERTEX
  8
T50SSILL
 62
13
 10
4270.853
 20
-7720.458
 30
237.767
 70
    32
  0
VERTEX
  8
T50SSILL
 62
13
 10
4265.600
 20
-7726.021
 30
237.778
 70
    32
  0
VERTEX
  8
T50SSILL
 62
13
 10
4251.600
 20
-7737.617
 30
237.803
 70
    32
  0
VERTEX
  8
T50SSILL
 62
13
 10
4266.277
 20
-7773.743
 30
237.832
 70
    32
  0
VERTEX
  8
T50SSILL
 62
13
 10
4270.220
 20
-7785.231
 30
237.842
 70
    32
  0
VERTEX
  8
T50SSILL
 62
13
 10
4275.064
 20
-7791.416
 30
237.845
 70
    32
  0
VERTEX
  8
T50SSILL
 62
13
 10
4278.774
 20
-7793.852
 30
237.844
 70
    32
  0
VERTEX
  8
T50SSILL
 62
13
 10
4277.677
 20
-7795.436
 30
237.847
 70
    32
  0
VERTEX
  8
T50SSILL
 62
13
 10
4131.430
 20
-7899.215
 30
238.095
 70
    32
  0
VERTEX
  8
T50SSILL
 62
13
 10
4128.097
 20
-7894.679
 30
238.093
 70
    32
  0
VERTEX
  8
T50SSILL
 62
13
 10
4117.788
 20
-7902.089
 30
238.103
 70
    32
  0
VERTEX
  8
T50SSILL
 62
13
 10
4121.217
 20
-7906.463
 30
238.104
 70
    32
  0
VERTEX
  8
T50SSILL
 62
13
 10
4096.958
 20
-7923.677
 30
238.089
 70
    32
  0
VERTEX
  8
T50SSILL
 62
13
 10
4089.170
 20
-7922.532
 30
238.085
 70
    32
  0
VERTEX
  8
T50SSILL
 62
13
 10
4083.250
 20
-7919.626
 30
238.082
 70
    32
  0
VERTEX
  8
T50SSILL
 62
13
 10
4078.893
 20
-7916.123
 30
238.080
 70
    32
  0
VERTEX
  8
T50SSILL
 62
13
 10
4007.334
 20
-7815.336
 30
238.054
 70
    32
  0
VERTEX
  8
T50SSILL
 62
13
 10
4001.503
 20
-7819.812
 30
238.053
 70
    32
  0
VERTEX
  8
T50SSILL
 62
13
 10
4047.842
 20
-7884.525
 30
238.067
 70
    32
  0
VERTEX
  8
T50SSILL
 62
13
 10
4030.209
 20
-7889.742
 30
238.057
 70
    32
  0
VERTEX
  8
T50SSILL
 62
13
 10
4025.724
 20
-7888.170
 30
238.055
 70
    32
  0
VERTEX
  8
T50SSILL
 62
13
 10
4010.384
 20
-7890.479
 30
238.053
 70
    32
  0
VERTEX
  8
T50SSILL
 62
13
 10
4006.518
 20
-7892.167
 30
238.053
 70
    32
  0
VERTEX
  8
T50SSILL
 62
13
 10
4002.517
 20
-7895.220
 30
238.053
 70
    32
  0
VERTEX
  8
T50SSILL
 62
13
 10
4000.415
 20
-7898.085
 30
238.053
 70
    32
  0
VERTEX
  8
T50SSILL
 62
13
 10
3999.074
 20
-7903.407
 30
238.053
 70
    32
  0
VERTEX
  8
T50SSILL
 62
13
 10
3999.701
 20
-7908.486
 30
238.053
 70
    32
  0
VERTEX
  8
T50SSILL
 62
13
 10
4009.507
 20
-7915.850
 30
238.053
 70
    32
  0
VERTEX
  8
T50SSILL
 62
13
 10
4008.648
 20
-7924.544
 30
238.053
 70
    32
  0
VERTEX
  8
T50SSILL
 62
13
 10
4004.634
 20
-7943.586
 30
238.053
 70
    32
  0
VERTEX
  8
T50SSILL
 62
13
 10
4005.215
 20
-7945.963
 30
238.053
 70
    32
  0
VERTEX
  8
T50SSILL
 62
13
 10
4013.726
 20
-7955.645
 30
238.053
 70
    32
  0
VERTEX
  8
T50SSILL
 62
13
 10
4023.721
 20
-7980.774
 30
238.053
 70
    32
  0
VERTEX
  8
T50SSILL
 62
13
 10
4030.384
 20
-7981.244
 30
238.053
 70
    32
  0
VERTEX
  8
T50SSILL
 62
13
 10
4035.328
 20
-7983.238
 30
238.053
 70
    32
  0
VERTEX
  8
T50SSILL
 62
13
 10
4039.349
 20
-7986.331
 30
238.053
 70
    32
  0
VERTEX
  8
T50SSILL
 62
13
 10
4041.540
 20
-7985.106
 30
238.053
 70
    32
  0
VERTEX
  8
T50SSILL
 62
13
 10
4044.560
 20
-7981.830
 30
238.054
 70
    32
  0
VERTEX
  8
T50SSILL
 62
13
 10
4047.153
 20
-7975.252
 30
238.056
 70
    32
  0
VERTEX
  8
T50SSILL
 62
13
 10
4036.313
 20
-7954.241
 30
238.053
 70
    32
  0
VERTEX
  8
T50SSILL
 62
13
 10
4031.168
 20
-7946.020
 30
238.053
 70
    32
  0
VERTEX
  8
T50SSILL
 62
13
 10
4031.160
 20
-7938.494
 30
238.053
 70
    32
  0
VERTEX
  8
T50SSILL
 62
13
 10
4027.695
 20
-7933.575
 30
238.053
 70
    32
  0
VERTEX
  8
T50SSILL
 62
13
 10
4030.610
 20
-7930.727
 30
238.053
 70
    32
  0
VERTEX
  8
T50SSILL
 62
13
 10
4026.236
 20
-7928.038
 30
238.053
 70
    32
  0
VERTEX
  8
T50SSILL
 62
13
 10
4024.684
 20
-7922.805
 30
238.053
 70
    32
  0
VERTEX
  8
T50SSILL
 62
13
 10
4024.439
 20
-7915.131
 30
238.053
 70
    32
  0
VERTEX
  8
T50SSILL
 62
13
 10
4026.710
 20
-7913.726
 30
238.053
 70
    32
  0
VERTEX
  8
T50SSILL
 62
13
 10
4028.482
 20
-7905.310
 30
238.054
 70
    32
  0
VERTEX
  8
T50SSILL
 62
13
 10
4031.212
 20
-7898.620
 30
238.056
 70
    32
  0
VERTEX
  8
T50SSILL
 62
13
 10
4050.062
 20
-7892.519
 30
238.067
 70
    32
  0
VERTEX
  8
T50SSILL
 62
13
 10
4056.312
 20
-7895.269
 30
238.070
 70
    32
  0
VERTEX
  8
T50SSILL
 62
13
 10
4082.608
 20
-7933.734
 30
238.080
 70
    32
  0
VERTEX
  8
T50SSILL
 62
13
 10
4058.358
 20
-7951.340
 30
238.065
 70
    32
  0
VERTEX
  8
T50SSILL
 62
13
 10
4063.258
 20
-7957.593
 30
238.067
 70
    32
  0
VERTEX
  8
T50SSILL
 62
13
 10
4102.143
 20
-7929.582
 30
238.091
 70
    32
  0
VERTEX
  8
T50SSILL
 62
13
 10
4120.851
 20
-7956.011
 30
238.098
 70
    32
  0
VERTEX
  8
T50SSILL
 62
13
 10
4122.001
 20
-7967.850
 30
238.097
 70
    32
  0
VERTEX
  8
T50SSILL
 62
13
 10
4120.585
 20
-7972.664
 30
238.096
 70
    32
  0
VERTEX
  8
T50SSILL
 62
13
 10
4117.970
 20
-7977.547
 30
238.094
 70
    32
  0
VERTEX
  8
T50SSILL
 62
13
 10
4114.170
 20
-7982.376
 30
238.091
 70
    32
  0
VERTEX
  8
T50SSILL
 62
13
 10
4059.656
 20
-8020.693
 30
238.057
 70
    32
  0
VERTEX
  8
T50SSILL
 62
13
 10
4057.094
 20
-8017.430
 30
238.056
 70
    32
  0
VERTEX
  8
T50SSILL
 62
13
 10
4054.006
 20
-8016.310
 30
238.054
 70
    32
  0
VERTEX
  8
T50SSILL
 62
13
 10
4031.697
 20
-8021.254
 30
238.053
 70
    32
  0
VERTEX
  8
T50SSILL
 62
13
 10
4034.300
 20
-8038.065
 30
238.053
 70
    32
  0
VERTEX
  8
T50SSILL
 62
13
 10
4018.266
 20
-8049.182
 30
238.053
 70
    32
  0
VERTEX
  8
T50SSILL
 62
13
 10
4023.728
 20
-8056.207
 30
238.053
 70
    32
  0
VERTEX
  8
T50SSILL
 62
13
 10
4108.945
 20
-7995.905
 30
238.087
 70
    32
  0
VERTEX
  8
T50SSILL
 62
13
 10
4119.218
 20
-7988.393
 30
238.093
 70
    32
  0
VERTEX
  8
T50SSILL
 62
13
 10
4124.807
 20
-7983.239
 30
238.097
 70
    32
  0
VERTEX
  8
T50SSILL
 62
13
 10
4127.922
 20
-7976.461
 30
238.099
 70
    32
  0
VERTEX
  8
T50SSILL
 62
13
 10
4129.241
 20
-7968.189
 30
238.101
 70
    32
  0
VERTEX
  8
T50SSILL
 62
13
 10
4141.965
 20
-7985.373
 30
238.106
 70
    32
  0
VERTEX
  8
T50SSILL
 62
13
 10
4163.399
 20
-8034.331
 30
238.111
 70
    32
  0
VERTEX
  8
T50SSILL
 62
13
 10
4162.701
 20
-8042.665
 30
238.110
 70
    32
  0
VERTEX
  8
T50SSILL
 62
13
 10
4160.648
 20
-8049.485
 30
238.108
 70
    32
  0
VERTEX
  8
T50SSILL
 62
13
 10
4157.078
 20
-8055.151
 30
238.106
 70
    32
  0
VERTEX
  8
T50SSILL
 62
13
 10
4078.601
 20
-8110.881
 30
238.056
 70
    32
  0
VERTEX
  8
T50SSILL
 62
13
 10
3993.865
 20
-8172.900
 30
238.053
 70
    32
  0
VERTEX
  8
T50SSILL
 62
13
 10
3989.905
 20
-8170.368
 30
238.053
 70
    32
  0
VERTEX
  8
T50SSILL
 62
13
 10
3985.273
 20
-8172.385
 30
238.053
 70
    32
  0
VERTEX
  8
T50SSILL
 62
13
 10
3983.164
 20
-8176.030
 30
238.053
 70
    32
  0
VERTEX
  8
T50SSILL
 62
13
 10
3984.482
 20
-8179.868
 30
238.053
 70
    32
  0
VERTEX
  8
T50SSILL
 62
13
 10
3973.953
 20
-8187.358
 30
238.053
 70
    32
  0
VERTEX
  8
T50SSILL
 62
13
 10
3963.459
 20
-8191.210
 30
238.053
 70
    32
  0
VERTEX
  8
T50SSILL
 62
13
 10
3952.114
 20
-8193.177
 30
238.053
 70
    32
  0
VERTEX
  8
T50SSILL
 62
13
 10
3945.527
 20
-8192.266
 30
238.053
 70
    32
  0
VERTEX
  8
T50SSILL
 62
13
 10
3933.191
 20
-8188.182
 30
238.053
 70
    32
  0
VERTEX
  8
T50SSILL
 62
13
 10
3926.302
 20
-8184.212
 30
238.053
 70
    32
  0
VERTEX
  8
T50SSILL
 62
13
 10
3866.649
 20
-8136.455
 30
238.053
 70
    32
  0
VERTEX
  8
T50SSILL
 62
13
 10
3855.581
 20
-8131.867
 30
238.053
 70
    32
  0
VERTEX
  8
T50SSILL
 62
13
 10
3845.532
 20
-8131.011
 30
238.053
 70
    32
  0
VERTEX
  8
T50SSILL
 62
13
 10
3787.110
 20
-8134.440
 30
238.053
 70
    32
  0
VERTEX
  8
T50SSILL
 62
13
 10
3781.842
 20
-8133.536
 30
238.053
 70
    32
  0
VERTEX
  8
T50SSILL
 62
13
 10
3774.913
 20
-8130.691
 30
238.053
 70
    32
  0
VERTEX
  8
T50SSILL
 62
13
 10
3769.113
 20
-8127.007
 30
238.053
 70
    32
  0
VERTEX
  8
T50SSILL
 62
13
 10
3769.594
 20
-8122.053
 30
238.053
 70
    32
  0
VERTEX
  8
T50SSILL
 62
13
 10
3764.004
 20
-8114.820
 30
238.053
 70
    32
  0
VERTEX
  8
T50SSILL
 62
13
 10
3757.655
 20
-8115.704
 30
238.053
 70
    32
  0
VERTEX
  8
T50SSILL
 62
13
 10
3702.525
 20
-8037.333
 30
238.053
 70
    32
  0
VERTEX
  8
T50SSILL
 62
13
 10
3696.634
 20
-8041.488
 30
238.053
 70
    32
  0
VERTEX
  8
T50SSILL
 62
13
 10
3751.942
 20
-8119.508
 30
238.053
 70
    32
  0
VERTEX
  8
T50SSILL
 62
13
 10
3744.088
 20
-8126.325
 30
238.053
 70
    32
  0
VERTEX
  8
T50SSILL
 62
13
 10
3751.732
 20
-8130.281
 30
238.053
 70
    32
  0
VERTEX
  8
T50SSILL
 62
13
 10
3754.033
 20
-8134.264
 30
238.053
 70
    32
  0
VERTEX
  8
T50SSILL
 62
13
 10
3755.488
 20
-8135.045
 30
238.053
 70
    32
  0
VERTEX
  8
T50SSILL
 62
13
 10
3756.902
 20
-8133.557
 30
238.053
 70
    32
  0
VERTEX
  8
T50SSILL
 62
13
 10
3761.245
 20
-8133.068
 30
238.053
 70
    32
  0
VERTEX
  8
T50SSILL
 62
13
 10
3778.202
 20
-8156.051
 30
238.053
 70
    32
  0
VERTEX
  8
T50SSILL
 62
13
 10
3765.570
 20
-8165.868
 30
238.053
 70
    32
  0
VERTEX
  8
T50SSILL
 62
13
 10
3761.130
 20
-8168.290
 30
238.053
 70
    32
  0
VERTEX
  8
T50SSILL
 62
13
 10
3825.009
 20
-8328.167
 30
238.053
 70
    32
  0
VERTEX
  8
T50SSILL
 62
13
 10
3819.179
 20
-8334.467
 30
238.053
 70
    32
  0
VERTEX
  8
T50SSILL
 62
13
 10
3808.969
 20
-8341.501
 30
238.053
 70
    32
  0
VERTEX
  8
T50SSILL
 62
13
 10
3813.142
 20
-8347.268
 30
238.053
 70
    32
  0
VERTEX
  8
T50SSILL
 62
13
 10
3818.416
 20
-8343.462
 30
238.053
 70
    32
  0
VERTEX
  8
T50SSILL
 62
13
 10
3830.639
 20
-8360.217
 30
238.053
 70
    32
  0
VERTEX
  8
T50SSILL
 62
13
 10
3836.071
 20
-8356.183
 30
238.053
 70
    32
  0
VERTEX
  8
T50SSILL
 62
13
 10
3870.047
 20
-8440.412
 30
238.053
 70
    32
  0
VERTEX
  8
T50SSILL
 62
13
 10
3859.289
 20
-8448.181
 30
238.053
 70
    32
  0
VERTEX
  8
T50SSILL
 62
13
 10
3863.762
 20
-8453.616
 30
238.053
 70
    32
  0
VERTEX
  8
T50SSILL
 62
13
 10
3872.579
 20
-8447.507
 30
238.053
 70
    32
  0
VERTEX
  8
T50SSILL
 62
13
 10
3903.900
 20
-8524.621
 30
238.053
 70
    32
  0
VERTEX
  8
T50SSILL
 62
13
 10
3907.593
 20
-8531.511
 30
238.053
 70
    32
  0
VERTEX
  8
T50SSILL
 62
13
 10
3914.467
 20
-8538.557
 30
238.053
 70
    32
  0
VERTEX
  8
T50SSILL
 62
13
 10
3922.551
 20
-8542.515
 30
238.053
 70
    32
  0
VERTEX
  8
T50SSILL
 62
13
 10
3949.345
 20
-8551.624
 30
238.053
 70
    32
  0
VERTEX
  8
T50SSILL
 62
13
 10
3963.996
 20
-8553.224
 30
238.053
 70
    32
  0
VERTEX
  8
T50SSILL
 62
13
 10
3971.930
 20
-8551.820
 30
238.053
 70
    32
  0
VERTEX
  8
T50SSILL
 62
13
 10
3978.289
 20
-8548.740
 30
238.053
 70
    32
  0
VERTEX
  8
T50SSILL
 62
13
 10
4005.332
 20
-8528.112
 30
238.053
 70
    32
  0
VERTEX
  8
T50SSILL
 62
13
 10
4009.025
 20
-8523.946
 30
238.053
 70
    32
  0
VERTEX
  8
T50SSILL
 62
13
 10
4013.295
 20
-8516.726
 30
238.053
 70
    32
  0
VERTEX
  8
T50SSILL
 62
13
 10
4015.754
 20
-8509.865
 30
238.053
 70
    32
  0
VERTEX
  8
T50SSILL
 62
13
 10
4016.085
 20
-8506.773
 30
238.053
 70
    32
  0
VERTEX
  8
T50SSILL
 62
13
 10
4072.140
 20
-8586.537
 30
238.053
 70
    32
  0
VERTEX
  8
T50SSILL
 62
13
 10
4065.818
 20
-8592.764
 30
238.053
 70
    32
  0
VERTEX
  8
T50SSILL
 62
13
 10
4073.596
 20
-8601.765
 30
238.053
 70
    32
  0
VERTEX
  8
T50SSILL
 62
13
 10
4072.390
 20
-8603.974
 30
238.053
 70
    32
  0
VERTEX
  8
T50SSILL
 62
13
 10
4077.974
 20
-8608.693
 30
238.053
 70
    32
  0
VERTEX
  8
T50SSILL
 62
13
 10
4079.593
 20
-8608.367
 30
238.053
 70
    32
  0
VERTEX
  8
T50SSILL
 62
13
 10
4081.991
 20
-8610.417
 30
238.053
 70
    32
  0
VERTEX
  8
T50SSILL
 62
13
 10
4086.474
 20
-8606.431
 30
238.053
 70
    32
  0
VERTEX
  8
T50SSILL
 62
13
 10
4102.518
 20
-8629.216
 30
238.053
 70
    32
  0
VERTEX
  8
T50SSILL
 62
13
 10
4109.232
 20
-8625.434
 30
238.053
 70
    32
  0
VERTEX
  8
T50SSILL
 62
13
 10
4060.731
 20
-8557.465
 30
238.053
 70
    32
  0
VERTEX
  8
T50SSILL
 62
13
 10
4103.517
 20
-8559.954
 30
238.053
 70
    32
  0
VERTEX
  8
T50SSILL
 62
13
 10
4103.726
 20
-8553.013
 30
238.053
 70
    32
  0
VERTEX
  8
T50SSILL
 62
13
 10
4091.479
 20
-8552.146
 30
238.053
 70
    32
  0
VERTEX
  8
T50SSILL
 62
13
 10
4086.256
 20
-8549.238
 30
238.053
 70
    32
  0
VERTEX
  8
T50SSILL
 62
13
 10
4086.115
 20
-8545.512
 30
238.053
 70
    32
  0
VERTEX
  8
T50SSILL
 62
13
 10
4061.554
 20
-8543.390
 30
238.053
 70
    32
  0
VERTEX
  8
T50SSILL
 62
13
 10
4060.707
 20
-8547.851
 30
238.053
 70
    32
  0
VERTEX
  8
T50SSILL
 62
13
 10
4048.581
 20
-8540.217
 30
238.053
 70
    32
  0
VERTEX
  8
T50SSILL
 62
13
 10
3993.549
 20
-8463.306
 30
238.053
 70
    32
  0
VERTEX
  8
T50SSILL
 62
13
 10
3987.765
 20
-8452.715
 30
238.053
 70
    32
  0
VERTEX
  8
T50SSILL
 62
13
 10
3984.964
 20
-8439.361
 30
238.053
 70
    32
  0
VERTEX
  8
T50SSILL
 62
13
 10
3985.034
 20
-8428.254
 30
238.053
 70
    32
  0
VERTEX
  8
T50SSILL
 62
13
 10
3994.266
 20
-8372.143
 30
238.053
 70
    32
  0
VERTEX
  8
T50SSILL
 62
13
 10
3996.158
 20
-8366.141
 30
238.053
 70
    32
  0
VERTEX
  8
T50SSILL
 62
13
 10
4000.291
 20
-8358.146
 30
238.053
 70
    32
  0
VERTEX
  8
T50SSILL
 62
13
 10
4006.231
 20
-8351.109
 30
238.053
 70
    32
  0
VERTEX
  8
T50SSILL
 62
13
 10
4049.476
 20
-8319.872
 30
238.053
 70
    32
  0
VERTEX
  8
T50SSILL
 62
13
 10
4054.381
 20
-8323.235
 30
238.053
 70
    32
  0
VERTEX
  8
T50SSILL
 62
13
 10
4055.935
 20
-8325.475
 30
238.053
 70
    32
  0
VERTEX
  8
T50SSILL
 62
13
 10
4060.560
 20
-8339.663
 30
238.053
 70
    32
  0
VERTEX
  8
T50SSILL
 62
13
 10
4065.518
 20
-8350.320
 30
238.053
 70
    32
  0
VERTEX
  8
T50SSILL
 62
13
 10
4068.757
 20
-8360.284
 30
238.053
 70
    32
  0
VERTEX
  8
T50SSILL
 62
13
 10
4073.685
 20
-8362.645
 30
238.053
 70
    32
  0
VERTEX
  8
T50SSILL
 62
13
 10
4075.845
 20
-8362.901
 30
238.053
 70
    32
  0
VERTEX
  8
T50SSILL
 62
13
 10
4081.687
 20
-8361.629
 30
238.053
 70
    32
  0
VERTEX
  8
T50SSILL
 62
13
 10
4088.845
 20
-8364.194
 30
238.053
 70
    32
  0
VERTEX
  8
T50SSILL
 62
13
 10
4097.069
 20
-8364.655
 30
238.053
 70
    32
  0
VERTEX
  8
T50SSILL
 62
13
 10
4100.579
 20
-8365.550
 30
238.053
 70
    32
  0
VERTEX
  8
T50SSILL
 62
13
 10
4102.980
 20
-8367.161
 30
238.053
 70
    32
  0
VERTEX
  8
T50SSILL
 62
13
 10
4103.902
 20
-8368.994
 30
238.053
 70
    32
  0
VERTEX
  8
T50SSILL
 62
13
 10
4100.811
 20
-8375.886
 30
238.053
 70
    32
  0
VERTEX
  8
T50SSILL
 62
13
 10
4091.699
 20
-8384.842
 30
238.053
 70
    32
  0
VERTEX
  8
T50SSILL
 62
13
 10
4092.615
 20
-8391.824
 30
238.053
 70
    32
  0
VERTEX
  8
T50SSILL
 62
13
 10
4088.797
 20
-8403.634
 30
238.053
 70
    32
  0
VERTEX
  8
T50SSILL
 62
13
 10
4087.863
 20
-8411.662
 30
238.053
 70
    32
  0
VERTEX
  8
T50SSILL
 62
13
 10
4088.172
 20
-8416.795
 30
238.053
 70
    32
  0
VERTEX
  8
T50SSILL
 62
13
 10
4089.938
 20
-8426.101
 30
238.053
 70
    32
  0
VERTEX
  8
T50SSILL
 62
13
 10
4094.106
 20
-8436.579
 30
238.053
 70
    32
  0
VERTEX
  8
T50SSILL
 62
13
 10
4111.048
 20
-8447.750
 30
238.053
 70
    32
  0
VERTEX
  8
T50SSILL
 62
13
 10
4112.209
 20
-8447.545
 30
238.053
 70
    32
  0
VERTEX
  8
T50SSILL
 62
13
 10
4115.602
 20
-8443.712
 30
238.053
 70
    32
  0
VERTEX
  8
T50SSILL
 62
13
 10
4121.587
 20
-8441.895
 30
238.053
 70
    32
  0
VERTEX
  8
T50SSILL
 62
13
 10
4124.814
 20
-8439.608
 30
238.053
 70
    32
  0
VERTEX
  8
T50SSILL
 62
13
 10
4125.904
 20
-8432.232
 30
238.053
 70
    32
  0
VERTEX
  8
T50SSILL
 62
13
 10
4131.916
 20
-8424.703
 30
238.053
 70
    32
  0
VERTEX
  8
T50SSILL
 62
13
 10
4137.193
 20
-8420.018
 30
238.053
 70
    32
  0
VERTEX
  8
T50SSILL
 62
13
 10
4154.819
 20
-8409.556
 30
238.061
 70
    32
  0
VERTEX
  8
T50SSILL
 62
13
 10
4163.392
 20
-8406.803
 30
238.066
 70
    32
  0
VERTEX
  8
T50SSILL
 62
13
 10
4170.003
 20
-8406.272
 30
238.070
 70
    32
  0
VERTEX
  8
T50SSILL
 62
13
 10
4206.511
 20
-8457.206
 30
238.083
 70
    32
  0
VERTEX
  8
T50SSILL
 62
13
 10
4212.581
 20
-8452.261
 30
238.087
 70
    32
  0
VERTEX
  8
T50SSILL
 62
13
 10
4202.262
 20
-8437.922
 30
238.083
 70
    32
  0
VERTEX
  8
T50SSILL
 62
13
 10
4208.912
 20
-8432.874
 30
238.088
 70
    32
  0
VERTEX
  8
T50SSILL
 62
13
 10
4192.635
 20
-8411.249
 30
238.081
 70
    32
  0
VERTEX
  8
T50SSILL
 62
13
 10
4186.182
 20
-8415.383
 30
238.077
 70
    32
  0
VERTEX
  8
T50SSILL
 62
13
 10
4169.383
 20
-8392.612
 30
238.071
 70
    32
  0
VERTEX
  8
T50SSILL
 62
13
 10
4168.457
 20
-8383.996
 30
238.072
 70
    32
  0
VERTEX
  8
T50SSILL
 62
13
 10
4170.512
 20
-8380.719
 30
238.073
 70
    32
  0
VERTEX
  8
T50SSILL
 62
13
 10
4184.790
 20
-8372.087
 30
238.082
 70
    32
  0
VERTEX
  8
T50SSILL
 62
13
 10
4189.981
 20
-8367.138
 30
238.085
 70
    32
  0
VERTEX
  8
T50SSILL
 62
13
 10
4191.967
 20
-8363.474
 30
238.087
 70
    32
  0
VERTEX
  8
T50SSILL
 62
13
 10
4192.516
 20
-8358.907
 30
238.088
 70
    32
  0
VERTEX
  8
T50SSILL
 62
13
 10
4191.546
 20
-8352.294
 30
238.088
 70
    32
  0
VERTEX
  8
T50SSILL
 62
13
 10
4188.915
 20
-8343.739
 30
238.088
 70
    32
  0
VERTEX
  8
T50SSILL
 62
13
 10
4186.110
 20
-8338.488
 30
238.087
 70
    32
  0
VERTEX
  8
T50SSILL
 62
13
 10
4178.271
 20
-8331.174
 30
238.083
 70
    32
  0
VERTEX
  8
T50SSILL
 62
13
 10
4173.819
 20
-8328.569
 30
238.081
 70
    32
  0
VERTEX
  8
T50SSILL
 62
13
 10
4170.133
 20
-8327.585
 30
238.079
 70
    32
  0
VERTEX
  8
T50SSILL
 62
13
 10
4165.241
 20
-8328.810
 30
238.077
 70
    32
  0
VERTEX
  8
T50SSILL
 62
13
 10
4150.305
 20
-8335.522
 30
238.068
 70
    32
  0
VERTEX
  8
T50SSILL
 62
13
 10
4143.317
 20
-8333.925
 30
238.064
 70
    32
  0
VERTEX
  8
T50SSILL
 62
13
 10
4139.053
 20
-8328.772
 30
238.062
 70
    32
  0
VERTEX
  8
T50SSILL
 62
13
 10
4136.441
 20
-8327.318
 30
238.061
 70
    32
  0
VERTEX
  8
T50SSILL
 62
13
 10
4126.148
 20
-8325.986
 30
238.056
 70
    32
  0
VERTEX
  8
T50SSILL
 62
13
 10
4121.770
 20
-8326.282
 30
238.053
 70
    32
  0
VERTEX
  8
T50SSILL
 62
13
 10
4108.693
 20
-8308.081
 30
238.053
 70
    32
  0
VERTEX
  8
T50SSILL
 62
13
 10
4106.797
 20
-8303.906
 30
238.053
 70
    32
  0
VERTEX
  8
T50SSILL
 62
13
 10
4105.527
 20
-8297.626
 30
238.053
 70
    32
  0
VERTEX
  8
T50SSILL
 62
13
 10
4111.318
 20
-8295.843
 30
238.053
 70
    32
  0
VERTEX
  8
T50SSILL
 62
13
 10
4118.246
 20
-8291.464
 30
238.056
 70
    32
  0
VERTEX
  8
T50SSILL
 62
13
 10
4122.294
 20
-8286.598
 30
238.058
 70
    32
  0
VERTEX
  8
T50SSILL
 62
13
 10
4127.256
 20
-8278.097
 30
238.062
 70
    32
  0
VERTEX
  8
T50SSILL
 62
13
 10
4132.767
 20
-8276.085
 30
238.065
 70
    32
  0
VERTEX
  8
T50SSILL
 62
13
 10
4141.159
 20
-8270.729
 30
238.071
 70
    32
  0
VERTEX
  8
T50SSILL
 62
13
 10
4143.269
 20
-8270.475
 30
238.072
 70
    32
  0
VERTEX
  8
T50SSILL
 62
13
 10
4145.034
 20
-8272.558
 30
238.073
 70
    32
  0
VERTEX
  8
T50SSILL
 62
13
 10
4147.086
 20
-8273.552
 30
238.073
 70
    32
  0
VERTEX
  8
T50SSILL
 62
13
 10
4151.883
 20
-8269.989
 30
238.077
 70
    32
  0
VERTEX
  8
T50SSILL
 62
13
 10
4153.799
 20
-8266.378
 30
238.078
 70
    32
  0
VERTEX
  8
T50SSILL
 62
13
 10
4152.899
 20
-8259.712
 30
238.078
 70
    32
  0
VERTEX
  8
T50SSILL
 62
13
 10
4150.179
 20
-8255.165
 30
238.077
 70
    32
  0
VERTEX
  8
T50SSILL
 62
13
 10
4145.764
 20
-8252.314
 30
238.075
 70
    32
  0
VERTEX
  8
T50SSILL
 62
13
 10
4144.962
 20
-8250.939
 30
238.075
 70
    32
  0
VERTEX
  8
T50SSILL
 62
13
 10
4218.939
 20
-8199.464
 30
238.121
 70
    32
  0
VERTEX
  8
T50SSILL
 62
13
 10
4222.301
 20
-8195.908
 30
238.124
 70
    32
  0
VERTEX
  8
T50SSILL
 62
13
 10
4226.708
 20
-8184.305
 30
238.127
 70
    32
  0
VERTEX
  8
T50SSILL
 62
13
 10
4233.321
 20
-8202.020
 30
238.129
 70
    32
  0
VERTEX
  8
T50SSILL
 62
13
 10
4240.688
 20
-8198.290
 30
238.133
 70
    32
  0
VERTEX
  8
T50SSILL
 62
13
 10
4235.942
 20
-8185.405
 30
238.132
 70
    32
  0
VERTEX
  8
T50SSILL
 62
13
 10
4377.616
 20
-8081.084
 30
238.088
 70
    32
  0
VERTEX
  8
T50SSILL
 62
13
 10
4381.035
 20
-8084.557
 30
238.089
 70
    32
  0
VERTEX
  8
T50SSILL
 62
13
 10
4382.960
 20
-8095.532
 30
238.100
 70
    32
  0
VERTEX
  8
T50SSILL
 62
13
 10
4386.754
 20
-8095.844
 30
238.097
 70
    32
  0
VERTEX
  8
T50SSILL
 62
13
 10
4390.353
 20
-8099.398
 30
238.098
 70
    32
  0
VERTEX
  8
T50SSILL
 62
13
 10
4392.627
 20
-8100.500
 30
238.098
 70
    32
  0
VERTEX
  8
T50SSILL
 62
13
 10
4394.334
 20
-8100.356
 30
238.096
 70
    32
  0
VERTEX
  8
T50SSILL
 62
13
 10
4398.975
 20
-8097.804
 30
238.089
 70
    32
  0
VERTEX
  8
T50SSILL
 62
13
 10
4397.206
 20
-8087.158
 30
238.078
 70
    32
  0
VERTEX
  8
T50SSILL
 62
13
 10
4393.708
 20
-8074.961
 30
238.067
 70
    32
  0
VERTEX
  8
T50SSILL
 62
13
 10
4395.253
 20
-8068.217
 30
238.058
 70
    32
  0
VERTEX
  8
T50SSILL
 62
13
 10
4508.447
 20
-7986.225
 30
237.886
 70
    32
  0
VERTEX
  8
T50SSILL
 62
13
 10
4516.087
 20
-7983.155
 30
237.887
 70
    32
  0
VERTEX
  8
T50SSILL
 62
13
 10
4532.215
 20
-7981.112
 30
237.895
 70
    32
  0
VERTEX
  8
T50SSILL
 62
13
 10
4539.816
 20
-7981.612
 30
237.901
 70
    32
  0
VERTEX
  8
T50SSILL
 62
13
 10
4548.350
 20
-7984.086
 30
237.910
 70
    32
  0
VERTEX
  8
T50SSILL
 62
13
 10
4559.092
 20
-7990.226
 30
237.926
 70
    32
  0
VERTEX
  8
T50SSILL
 62
13
 10
4610.337
 20
-8028.774
 30
238.016
 70
    32
  0
VERTEX
  8
T50SSILL
 62
13
 10
4600.071
 20
-8032.400
 30
238.014
 70
    32
  0
VERTEX
  8
T50SSILL
 62
13
 10
4433.750
 20
-8151.170
 30
238.120
 70
    32
  0
VERTEX
  8
T50SSILL
 62
13
 10
4438.074
 20
-8156.471
 30
238.122
 70
    32
  0
VERTEX
  8
T50SSILL
 62
13
 10
4597.842
 20
-8042.902
 30
238.027
 70
    32
  0
VERTEX
  8
T50SSILL
 62
13
 10
4605.257
 20
-8038.305
 30
238.026
 70
    32
  0
VERTEX
  8
T50SSILL
 62
13
 10
4609.495
 20
-8036.654
 30
238.026
 70
    32
  0
VERTEX
  8
T50SSILL
 62
13
 10
4618.417
 20
-8035.843
 30
238.031
 70
    32
  0
VERTEX
  8
T50SSILL
 62
13
 10
4624.969
 20
-8037.431
 30
238.038
 70
    32
  0
VERTEX
  8
T50SSILL
 62
13
 10
4653.539
 20
-8049.723
 30
238.075
 70
    32
  0
VERTEX
  8
T50SSILL
 62
13
 10
4657.905
 20
-8056.299
 30
238.087
 70
    32
  0
VERTEX
  8
T50SSILL
 62
13
 10
4663.135
 20
-8052.239
 30
238.085
 70
    32
  0
VERTEX
  8
T50SSILL
 62
13
 10
4687.608
 20
-8086.949
 30
238.143
 70
    32
  0
VERTEX
  8
T50SSILL
 62
13
 10
4616.499
 20
-8137.735
 30
238.169
 70
    32
  0
VERTEX
  8
T50SSILL
 62
13
 10
4621.462
 20
-8144.622
 30
238.180
 70
    32
  0
VERTEX
  8
T50SSILL
 62
13
 10
4637.554
 20
-8132.793
 30
238.174
 70
    32
  0
VERTEX
  8
T50SSILL
 62
13
 10
4647.711
 20
-8137.246
 30
238.184
 70
    32
  0
VERTEX
  8
T50SSILL
 62
13
 10
4653.889
 20
-8147.701
 30
238.201
 70
    32
  0
VERTEX
  8
T50SSILL
 62
13
 10
4662.865
 20
-8139.997
 30
238.196
 70
    32
  0
VERTEX
  8
T50SSILL
 62
13
 10
4664.364
 20
-8137.512
 30
238.193
 70
    32
  0
VERTEX
  8
T50SSILL
 62
13
 10
4663.081
 20
-8133.999
 30
238.188
 70
    32
  0
VERTEX
  8
T50SSILL
 62
13
 10
4659.498
 20
-8128.378
 30
238.180
 70
    32
  0
VERTEX
  8
T50SSILL
 62
13
 10
4668.895
 20
-8120.214
 30
238.174
 70
    32
  0
VERTEX
  8
T50SSILL
 62
13
 10
4675.411
 20
-8122.175
 30
238.180
 70
    32
  0
VERTEX
  8
T50SSILL
 62
13
 10
4675.762
 20
-8114.811
 30
238.171
 70
    32
  0
VERTEX
  8
T50SSILL
 62
13
 10
4679.043
 20
-8111.435
 30
238.169
 70
    32
  0
VERTEX
  8
T50SSILL
 62
13
 10
4686.423
 20
-8098.307
 30
238.156
 70
    32
  0
VERTEX
  8
T50SSILL
 62
13
 10
4695.388
 20
-8097.688
 30
238.160
 70
    32
  0
VERTEX
  8
T50SSILL
 62
13
 10
4761.671
 20
-8189.641
 30
238.309
 70
    32
  0
VERTEX
  8
T50SSILL
 62
13
 10
4689.501
 20
-8176.928
 30
238.255
 70
    32
  0
VERTEX
  8
T50SSILL
 62
13
 10
4688.915
 20
-8185.398
 30
238.266
 70
    32
  0
VERTEX
  8
T50SSILL
 62
13
 10
4706.148
 20
-8188.042
 30
238.278
 70
    32
  0
VERTEX
  8
T50SSILL
 62
13
 10
4638.787
 20
-8236.439
 30
238.303
 70
    32
  0
VERTEX
  8
T50SSILL
 62
13
 10
4643.320
 20
-8241.966
 30
238.312
 70
    32
  0
VERTEX
  8
T50SSILL
 62
13
 10
4717.028
 20
-8189.619
 30
238.285
 70
    32
  0
VERTEX
  8
T50SSILL
 62
13
 10
4768.139
 20
-8199.059
 30
238.324
 70
    32
  0
VERTEX
  8
T50SSILL
 62
13
 10
4818.110
 20
-8268.895
 30
238.436
 70
    32
  0
VERTEX
  8
T50SSILL
 62
13
 10
4770.763
 20
-8260.705
 30
238.402
 70
    32
  0
VERTEX
  8
T50SSILL
 62
13
 10
4652.087
 20
-8345.011
 30
238.388
 70
    32
  0
VERTEX
  8
T50SSILL
 62
13
 10
4656.486
 20
-8351.118
 30
238.393
 70
    32
  0
VERTEX
  8
T50SSILL
 62
13
 10
4772.586
 20
-8268.911
 30
238.413
 70
    32
  0
VERTEX
  8
T50SSILL
 62
13
 10
4824.428
 20
-8277.295
 30
238.450
 70
    32
  0
VERTEX
  8
T50SSILL
 62
13
 10
4872.812
 20
-8342.479
 30
238.531
 70
    32
  0
VERTEX
  8
T50SSILL
 62
13
 10
4828.250
 20
-8335.780
 30
238.500
 70
    32
  0
VERTEX
  8
T50SSILL
 62
13
 10
4792.775
 20
-8361.024
 30
238.480
 70
    32
  0
VERTEX
  8
T50SSILL
 62
13
 10
4789.642
 20
-8356.546
 30
238.478
 70
    32
  0
VERTEX
  8
T50SSILL
 62
13
 10
4780.036
 20
-8363.717
 30
238.472
 70
    32
  0
VERTEX
  8
T50SSILL
 62
13
 10
4783.304
 20
-8368.532
 30
238.475
 70
    32
  0
VERTEX
  8
T50SSILL
 62
13
 10
4767.826
 20
-8378.865
 30
238.469
 70
    32
  0
VERTEX
  8
T50SSILL
 62
13
 10
4763.576
 20
-8372.694
 30
238.464
 70
    32
  0
VERTEX
  8
T50SSILL
 62
13
 10
4746.587
 20
-8383.794
 30
238.459
 70
    32
  0
VERTEX
  8
T50SSILL
 62
13
 10
4749.983
 20
-8392.543
 30
238.464
 70
    32
  0
VERTEX
  8
T50SSILL
 62
13
 10
4700.123
 20
-8427.102
 30
238.449
 70
    32
  0
VERTEX
  8
T50SSILL
 62
13
 10
4704.863
 20
-8433.473
 30
238.454
 70
    32
  0
VERTEX
  8
T50SSILL
 62
13
 10
4753.566
 20
-8398.545
 30
238.469
 70
    32
  0
VERTEX
  8
T50SSILL
 62
13
 10
4764.392
 20
-8396.366
 30
238.474
 70
    32
  0
VERTEX
  8
T50SSILL
 62
13
 10
4767.774
 20
-8393.374
 30
238.475
 70
    32
  0
VERTEX
  8
T50SSILL
 62
13
 10
4771.493
 20
-8385.133
 30
238.474
 70
    32
  0
VERTEX
  8
T50SSILL
 62
13
 10
4829.560
 20
-8343.753
 30
238.502
 70
    32
  0
VERTEX
  8
T50SSILL
 62
13
 10
4878.990
 20
-8351.062
 30
238.536
 70
    32
  0
VERTEX
  8
T50SSILL
 62
13
 10
4924.806
 20
-8414.714
 30
238.576
 70
    32
  0
VERTEX
  8
T50SSILL
 62
13
 10
4890.191
 20
-8409.714
 30
238.552
 70
    32
  0
VERTEX
  8
T50SSILL
 62
13
 10
4794.279
 20
-8477.720
 30
238.523
 70
    32
  0
VERTEX
  8
T50SSILL
 62
13
 10
4798.995
 20
-8484.402
 30
238.529
 70
    32
  0
VERTEX
  8
T50SSILL
 62
13
 10
4891.686
 20
-8417.978
 30
238.557
 70
    32
  0
VERTEX
  8
T50SSILL
 62
13
 10
4929.007
 20
-8424.238
 30
238.581
 70
    32
  0
VERTEX
  8
T50SSILL
 62
13
 10
4969.911
 20
-8481.278
 30
238.627
 70
    32
  0
VERTEX
  8
T50SSILL
 62
13
 10
4961.545
 20
-8486.851
 30
238.624
 70
    32
  0
VERTEX
  8
T50SSILL
 62
13
 10
4959.204
 20
-8483.316
 30
238.622
 70
    32
  0
VERTEX
  8
T50SSILL
 62
13
 10
4954.825
 20
-8472.259
 30
238.615
 70
    32
  0
VERTEX
  8
T50SSILL
 62
13
 10
4943.187
 20
-8463.152
 30
238.604
 70
    32
  0
VERTEX
  8
T50SSILL
 62
13
 10
4941.160
 20
-8458.716
 30
238.601
 70
    32
  0
VERTEX
  8
T50SSILL
 62
13
 10
4933.335
 20
-8459.769
 30
238.597
 70
    32
  0
VERTEX
  8
T50SSILL
 62
13
 10
4930.476
 20
-8459.057
 30
238.595
 70
    32
  0
VERTEX
  8
T50SSILL
 62
13
 10
4926.862
 20
-8454.715
 30
238.592
 70
    32
  0
VERTEX
  8
T50SSILL
 62
13
 10
4921.884
 20
-8457.926
 30
238.590
 70
    32
  0
VERTEX
  8
T50SSILL
 62
13
 10
4931.592
 20
-8469.597
 30
238.600
 70
    32
  0
VERTEX
  8
T50SSILL
 62
13
 10
4943.642
 20
-8480.713
 30
238.612
 70
    32
  0
VERTEX
  8
T50SSILL
 62
13
 10
4944.707
 20
-8487.092
 30
238.615
 70
    32
  0
VERTEX
  8
T50SSILL
 62
13
 10
4947.322
 20
-8493.183
 30
238.619
 70
    32
  0
VERTEX
  8
T50SSILL
 62
13
 10
4951.749
 20
-8498.015
 30
238.623
 70
    32
  0
VERTEX
  8
T50SSILL
 62
13
 10
4958.896
 20
-8518.142
 30
238.635
 70
    32
  0
VERTEX
  8
T50SSILL
 62
13
 10
4974.737
 20
-8552.254
 30
238.658
 70
    32
  0
VERTEX
  8
T50SSILL
 62
13
 10
4977.306
 20
-8578.606
 30
238.670
 70
    32
  0
VERTEX
  8
T50SSILL
 62
13
 10
4952.828
 20
-8596.226
 30
238.663
 70
    32
  0
VERTEX
  8
T50SSILL
 62
13
 10
4950.350
 20
-8593.679
 30
238.660
 70
    32
  0
VERTEX
  8
T50SSILL
 62
13
 10
4943.552
 20
-8595.944
 30
238.657
 70
    32
  0
VERTEX
  8
T50SSILL
 62
13
 10
4933.662
 20
-8591.926
 30
238.650
 70
    32
  0
VERTEX
  8
T50SSILL
 62
13
 10
4926.922
 20
-8586.080
 30
238.643
 70
    32
  0
VERTEX
  8
T50SSILL
 62
13
 10
4932.004
 20
-8582.570
 30
238.645
 70
    32
  0
VERTEX
  8
T50SSILL
 62
13
 10
4924.666
 20
-8572.423
 30
238.637
 70
    32
  0
VERTEX
  8
T50SSILL
 62
13
 10
4919.110
 20
-8576.624
 30
238.635
 70
    32
  0
VERTEX
  8
T50SSILL
 62
13
 10
4872.931
 20
-8512.498
 30
238.583
 70
    32
  0
VERTEX
  8
T50SSILL
 62
13
 10
4867.232
 20
-8516.040
 30
238.581
 70
    32
  0
VERTEX
  8
T50SSILL
 62
13
 10
4917.383
 20
-8586.328
 30
238.638
 70
    32
  0
VERTEX
  8
T50SSILL
 62
13
 10
4909.546
 20
-8593.358
 30
238.636
 70
    32
  0
VERTEX
  8
T50SSILL
 62
13
 10
4924.766
 20
-8607.936
 30
238.651
 70
    32
  0
VERTEX
  8
T50SSILL
 62
13
 10
4934.575
 20
-8609.362
 30
238.657
 70
    32
  0
VERTEX
  8
T50SSILL
 62
13
 10
4842.624
 20
-8675.448
 30
238.630
 70
    32
  0
VERTEX
  8
T50SSILL
 62
13
 10
4846.593
 20
-8680.405
 30
238.634
 70
    32
  0
VERTEX
  8
T50SSILL
 62
13
 10
4982.667
 20
-8583.505
 30
238.675
 70
    32
  0
VERTEX
  8
T50SSILL
 62
13
 10
4983.719
 20
-8586.358
 30
238.677
 70
    32
  0
VERTEX
  8
T50SSILL
 62
13
 10
4983.501
 20
-8589.286
 30
238.678
 70
    32
  0
VERTEX
  8
T50SSILL
 62
13
 10
4993.255
 20
-8608.768
 30
238.691
 70
    32
  0
VERTEX
  8
T50SSILL
 62
13
 10
4995.810
 20
-8617.557
 30
238.696
 70
    32
  0
VERTEX
  8
T50SSILL
 62
13
 10
4998.001
 20
-8618.554
 30
238.698
 70
    32
  0
VERTEX
  8
T50SSILL
 62
13
 10
5006.294
 20
-8615.489
 30
238.701
 70
    32
  0
VERTEX
  8
T50SSILL
 62
13
 10
5009.313
 20
-8611.881
 30
238.702
 70
    32
  0
VERTEX
  8
T50SSILL
 62
13
 10
5006.204
 20
-8601.190
 30
238.696
 70
    32
  0
VERTEX
  8
T50SSILL
 62
13
 10
5006.385
 20
-8597.627
 30
238.694
 70
    32
  0
VERTEX
  8
T50SSILL
 62
13
 10
5007.946
 20
-8595.452
 30
238.694
 70
    32
  0
VERTEX
  8
T50SSILL
 62
13
 10
5005.298
 20
-8590.049
 30
238.691
 70
    32
  0
VERTEX
  8
T50SSILL
 62
13
 10
5000.194
 20
-8583.297
 30
238.685
 70
    32
  0
VERTEX
  8
T50SSILL
 62
13
 10
4996.346
 20
-8572.944
 30
238.679
 70
    32
  0
VERTEX
  8
T50SSILL
 62
13
 10
5007.147
 20
-8566.326
 30
238.682
 70
    32
  0
VERTEX
  8
T50SSILL
 62
13
 10
5012.626
 20
-8564.947
 30
238.685
 70
    32
  0
VERTEX
  8
T50SSILL
 62
13
 10
5023.982
 20
-8565.203
 30
238.692
 70
    32
  0
VERTEX
  8
T50SSILL
 62
13
 10
5029.702
 20
-8567.068
 30
238.696
 70
    32
  0
VERTEX
  8
T50SSILL
 62
13
 10
5033.005
 20
-8569.259
 30
238.699
 70
    32
  0
VERTEX
  8
T50SSILL
 62
13
 10
5078.858
 20
-8633.199
 30
238.750
 70
    32
  0
VERTEX
  8
T50SSILL
 62
13
 10
5069.467
 20
-8632.388
 30
238.745
 70
    32
  0
VERTEX
  8
T50SSILL
 62
13
 10
5062.347
 20
-8633.350
 30
238.741
 70
    32
  0
VERTEX
  8
T50SSILL
 62
13
 10
5058.438
 20
-8634.758
 30
238.739
 70
    32
  0
VERTEX
  8
T50SSILL
 62
13
 10
5022.773
 20
-8659.407
 30
238.728
 70
    32
  0
VERTEX
  8
T50SSILL
 62
13
 10
5016.713
 20
-8651.932
 30
238.722
 70
    32
  0
VERTEX
  8
T50SSILL
 62
13
 10
4996.878
 20
-8666.485
 30
238.716
 70
    32
  0
VERTEX
  8
T50SSILL
 62
13
 10
5001.802
 20
-8674.318
 30
238.722
 70
    32
  0
VERTEX
  8
T50SSILL
 62
13
 10
4892.324
 20
-8752.156
 30
238.689
 70
    32
  0
VERTEX
  8
T50SSILL
 62
13
 10
4897.797
 20
-8758.518
 30
238.695
 70
    32
  0
VERTEX
  8
T50SSILL
 62
13
 10
5060.830
 20
-8642.454
 30
238.744
 70
    32
  0
VERTEX
  8
T50SSILL
 62
13
 10
5071.046
 20
-8639.594
 30
238.748
 70
    32
  0
VERTEX
  8
T50SSILL
 62
13
 10
5079.090
 20
-8640.586
 30
238.754
 70
    32
  0
VERTEX
  8
T50SSILL
 62
13
 10
5087.152
 20
-8644.765
 30
238.760
 70
    32
  0
VERTEX
  8
T50SSILL
 62
13
 10
5137.610
 20
-8715.125
 30
238.817
 70
    32
  0
VERTEX
  8
T50SSILL
 62
13
 10
5126.380
 20
-8714.253
 30
238.810
 70
    32
  0
VERTEX
  8
T50SSILL
 62
13
 10
5118.241
 20
-8716.206
 30
238.806
 70
    32
  0
VERTEX
  8
T50SSILL
 62
13
 10
5030.114
 20
-8758.402
 30
238.772
 70
    32
  0
VERTEX
  8
T50SSILL
 62
13
 10
5024.355
 20
-8746.398
 30
238.763
 70
    32
  0
VERTEX
  8
T50SSILL
 62
13
 10
5021.679
 20
-8747.537
 30
238.762
 70
    32
  0
VERTEX
  8
T50SSILL
 62
13
 10
5017.026
 20
-8747.960
 30
238.760
 70
    32
  0
VERTEX
  8
T50SSILL
 62
13
 10
5011.832
 20
-8745.476
 30
238.756
 70
    32
  0
VERTEX
  8
T50SSILL
 62
13
 10
5007.544
 20
-8740.097
 30
238.751
 70
    32
  0
VERTEX
  8
T50SSILL
 62
13
 10
5004.272
 20
-8737.376
 30
238.748
 70
    32
  0
VERTEX
  8
T50SSILL
 62
13
 10
4993.791
 20
-8730.821
 30
238.739
 70
    32
  0
VERTEX
  8
T50SSILL
 62
13
 10
4987.050
 20
-8734.039
 30
238.737
 70
    32
  0
VERTEX
  8
T50SSILL
 62
13
 10
4975.483
 20
-8743.446
 30
238.734
 70
    32
  0
VERTEX
  8
T50SSILL
 62
13
 10
4964.692
 20
-8729.610
 30
238.722
 70
    32
  0
VERTEX
  8
T50SSILL
 62
13
 10
4955.240
 20
-8734.213
 30
238.718
 70
    32
  0
VERTEX
  8
T50SSILL
 62
13
 10
4967.083
 20
-8750.901
 30
238.732
 70
    32
  0
VERTEX
  8
T50SSILL
 62
13
 10
4966.165
 20
-8755.242
 30
238.733
 70
    32
  0
VERTEX
  8
T50SSILL
 62
13
 10
4968.936
 20
-8765.194
 30
238.739
 70
    32
  0
VERTEX
  8
T50SSILL
 62
13
 10
4977.027
 20
-8778.529
 30
238.749
 70
    32
  0
VERTEX
  8
T50SSILL
 62
13
 10
4982.769
 20
-8786.125
 30
238.755
 70
    32
  0
VERTEX
  8
T50SSILL
 62
13
 10
4992.247
 20
-8793.107
 30
238.763
 70
    32
  0
VERTEX
  8
T50SSILL
 62
13
 10
4997.729
 20
-8792.610
 30
238.766
 70
    32
  0
VERTEX
  8
T50SSILL
 62
13
 10
5014.219
 20
-8793.517
 30
238.776
 70
    32
  0
VERTEX
  8
T50SSILL
 62
13
 10
5021.520
 20
-8788.993
 30
238.779
 70
    32
  0
VERTEX
  8
T50SSILL
 62
13
 10
5026.274
 20
-8777.883
 30
238.777
 70
    32
  0
VERTEX
  8
T50SSILL
 62
13
 10
5036.461
 20
-8772.061
 30
238.781
 70
    32
  0
VERTEX
  8
T50SSILL
 62
13
 10
5035.092
 20
-8769.227
 30
238.779
 70
    32
  0
VERTEX
  8
T50SSILL
 62
13
 10
5036.585
 20
-8763.015
 30
238.777
 70
    32
  0
VERTEX
  8
T50SSILL
 62
13
 10
5090.777
 20
-8736.747
 30
238.798
 70
    32
  0
VERTEX
  8
T50SSILL
 62
13
 10
5123.800
 20
-8721.951
 30
238.812
 70
    32
  0
VERTEX
  8
T50SSILL
 62
13
 10
5129.582
 20
-8721.558
 30
238.815
 70
    32
  0
VERTEX
  8
T50SSILL
 62
13
 10
5134.573
 20
-8721.874
 30
238.818
 70
    32
  0
VERTEX
  8
T50SSILL
 62
13
 10
5147.902
 20
-8729.477
 30
238.829
 70
    32
  0
VERTEX
  8
T50SSILL
 62
13
 10
5188.969
 20
-8786.743
 30
238.875
 70
    32
  0
VERTEX
  8
T50SSILL
 62
13
 10
5180.053
 20
-8787.736
 30
238.870
 70
    32
  0
VERTEX
  8
T50SSILL
 62
13
 10
5167.109
 20
-8792.106
 30
238.865
 70
    32
  0
VERTEX
  8
T50SSILL
 62
13
 10
5016.224
 20
-8900.187
 30
238.819
 70
    32
  0
VERTEX
  8
T50SSILL
 62
13
 10
5021.071
 20
-8907.259
 30
238.825
 70
    32
  0
VERTEX
  8
T50SSILL
 62
13
 10
5170.505
 20
-8799.375
 30
238.869
 70
    32
  0
VERTEX
  8
T50SSILL
 62
13
 10
5174.061
 20
-8797.792
 30
238.871
 70
    32
  0
VERTEX
  8
T50SSILL
 62
13
 10
5178.572
 20
-8797.035
 30
238.873
 70
    32
  0
VERTEX
  8
T50SSILL
 62
13
 10
5188.218
 20
-8797.368
 30
238.879
 70
    32
  0
VERTEX
  8
T50SSILL
 62
13
 10
5193.036
 20
-8798.478
 30
238.882
 70
    32
  0
VERTEX
  8
T50SSILL
 62
13
 10
5199.098
 20
-8801.118
 30
238.887
 70
    32
  0
VERTEX
  8
T50SSILL
 62
13
 10
5231.520
 20
-8847.442
 30
238.924
 70
    32
  0
VERTEX
  8
T50SSILL
 62
13
 10
5239.500
 20
-8855.656
 30
238.932
 70
    32
  0
VERTEX
  8
T50SSILL
 62
13
 10
5248.195
 20
-8863.209
 30
238.940
 70
    32
  0
VERTEX
  8
T50SSILL
 62
13
 10
5263.395
 20
-8873.437
 30
238.953
 70
    32
  0
VERTEX
  8
T50SSILL
 62
13
 10
5279.263
 20
-8880.482
 30
238.965
 70
    32
  0
VERTEX
  8
T50SSILL
 62
13
 10
5287.832
 20
-8883.239
 30
238.971
 70
    32
  0
VERTEX
  8
T50SSILL
 62
13
 10
5297.874
 20
-8885.308
 30
238.977
 70
    32
  0
VERTEX
  8
T50SSILL
 62
13
 10
5312.648
 20
-8886.299
 30
238.986
 70
    32
  0
VERTEX
  8
T50SSILL
 62
13
 10
5336.950
 20
-8884.639
 30
239.000
 70
    32
  0
VERTEX
  8
T50SSILL
 62
13
 10
5345.758
 20
-8882.208
 30
239.004
 70
    32
  0
VERTEX
  8
T50SSILL
 62
13
 10
5357.131
 20
-8877.471
 30
239.009
 70
    32
  0
VERTEX
  8
T50SSILL
 62
13
 10
5377.799
 20
-8865.148
 30
239.016
 70
    32
  0
VERTEX
  8
T50SSILL
 62
13
 10
5261.262
 20
-9102.500
 30
239.042
 70
    32
  0
VERTEX
  8
T50SSILL
 62
13
 10
5267.323
 20
-9105.903
 30
239.047
 70
    32
  0
VERTEX
  8
T50SSILL
 62
13
 10
5390.234
 20
-8856.148
 30
239.020
 70
    32
  0
VERTEX
  8
T50SSILL
 62
13
 10
5824.641
 20
-8544.454
 30
239.191
 70
    32
  0
VERTEX
  8
T50SSILL
 62
13
 10
5872.234
 20
-8609.860
 30
239.238
 70
    32
  0
VERTEX
  8
T50SSILL
 62
13
 10
5871.119
 20
-8614.053
 30
239.237
 70
    32
  0
VERTEX
  8
T50SSILL
 62
13
 10
5873.651
 20
-8626.899
 30
239.242
 70
    32
  0
VERTEX
  8
T50SSILL
 62
13
 10
5870.977
 20
-8642.521
 30
239.242
 70
    32
  0
VERTEX
  8
T50SSILL
 62
13
 10
5874.371
 20
-8649.254
 30
239.246
 70
    32
  0
VERTEX
  8
T50SSILL
 62
13
 10
5877.666
 20
-8651.949
 30
239.249
 70
    32
  0
VERTEX
  8
T50SSILL
 62
13
 10
5883.192
 20
-8653.931
 30
239.254
 70
    32
  0
VERTEX
  8
T50SSILL
 62
13
 10
5898.448
 20
-8646.433
 30
239.265
 70
    32
  0
VERTEX
  8
T50SSILL
 62
13
 10
5906.556
 20
-8657.996
 30
239.274
 70
    32
  0
VERTEX
  8
T50SSILL
 62
13
 10
5913.844
 20
-8652.284
 30
239.279
 70
    32
  0
VERTEX
  8
T50SSILL
 62
13
 10
5836.727
 20
-8546.288
 30
239.200
 70
    32
  0
VERTEX
  8
T50SSILL
 62
13
 10
5838.028
 20
-8535.390
 30
239.199
 70
    32
  0
VERTEX
  8
T50SSILL
 62
13
 10
5911.196
 20
-8482.971
 30
239.253
 70
    32
  0
VERTEX
  8
T50SSILL
 62
13
 10
5923.687
 20
-8499.629
 30
239.264
 70
    32
  0
VERTEX
  8
T50SSILL
 62
13
 10
5930.933
 20
-8494.757
 30
239.281
 70
    32
  0
VERTEX
  8
T50SSILL
 62
13
 10
5918.219
 20
-8477.940
 30
239.270
 70
    32
  0
VERTEX
  8
T50SSILL
 62
13
 10
6148.852
 20
-8312.659
 30
239.090
 70
    32
  0
VERTEX
  8
T50SSILL
 62
13
 10
6155.290
 20
-8306.711
 30
239.120
 70
    32
  0
VERTEX
  8
T50SSILL
 62
13
 10
6159.045
 20
-8302.046
 30
239.141
 70
    32
  0
VERTEX
  8
T50SSILL
 62
13
 10
6163.420
 20
-8294.569
 30
239.172
 70
    32
  0
VERTEX
  8
T50SSILL
 62
13
 10
6166.801
 20
-8285.076
 30
239.207
 70
    32
  0
VERTEX
  8
T50SSILL
 62
13
 10
6168.865
 20
-8276.039
 30
239.237
 70
    32
  0
VERTEX
  8
T50SSILL
 62
13
 10
6168.772
 20
-8268.104
 30
239.259
 70
    32
  0
VERTEX
  8
T50SSILL
 62
13
 10
6170.691
 20
-8267.852
 30
239.264
 70
    32
  0
VERTEX
  8
T50SSILL
 62
13
 10
6188.927
 20
-8293.318
 30
239.234
 70
    32
  0
VERTEX
  8
T50SSILL
 62
13
 10
6195.152
 20
-8288.770
 30
239.254
 70
    32
  0
VERTEX
  8
T50SSILL
 62
13
 10
6124.260
 20
-8190.209
 30
239.161
 70
    32
  0
VERTEX
  8
T50SSILL
 62
13
 10
6135.834
 20
-8181.537
 30
239.159
 70
    32
  0
VERTEX
  8
T50SSILL
 62
13
 10
6130.870
 20
-8174.788
 30
239.147
 70
    32
  0
VERTEX
  8
T50SSILL
 62
13
 10
6118.973
 20
-8183.040
 30
239.148
 70
    32
  0
VERTEX
  8
T50SSILL
 62
13
 10
6110.780
 20
-8171.654
 30
239.128
 70
    32
  0
VERTEX
  8
T50SSILL
 62
13
 10
6118.513
 20
-8122.673
 30
239.075
 70
    32
  0
VERTEX
  8
T50SSILL
 62
13
 10
6108.315
 20
-8120.835
 30
239.064
 70
    32
  0
VERTEX
  8
T50SSILL
 62
13
 10
6102.156
 20
-8159.709
 30
239.107
 70
    32
  0
VERTEX
  8
T50SSILL
 62
13
 10
6089.423
 20
-8141.691
 30
239.075
 70
    32
  0
VERTEX
  8
T50SSILL
 62
13
 10
6094.699
 20
-8137.414
 30
239.074
 70
    32
  0
VERTEX
  8
T50SSILL
 62
13
 10
6089.020
 20
-8128.433
 30
239.058
 70
    32
  0
VERTEX
  8
T50SSILL
 62
13
 10
6082.900
 20
-8132.914
 30
239.059
 70
    32
  0
VERTEX
  8
T50SSILL
 62
13
 10
5913.803
 20
-7898.538
 30
238.643
 70
    32
  0
VERTEX
  8
T50SSILL
 62
13
 10
5819.495
 20
-7765.555
 30
238.408
 70
    32
  0
VERTEX
  8
T50SSILL
 62
13
 10
5816.949
 20
-7757.916
 30
238.397
 70
    32
  0
VERTEX
  8
T50SSILL
 62
13
 10
5817.340
 20
-7750.853
 30
238.389
 70
    32
  0
VERTEX
  8
T50SSILL
 62
13
 10
5820.132
 20
-7743.341
 30
238.382
 70
    32
  0
VERTEX
  8
T50SSILL
 62
13
 10
5827.026
 20
-7734.567
 30
238.376
 70
    32
  0
VERTEX
  8
T50SSILL
 62
13
 10
5876.151
 20
-7699.502
 30
238.373
 70
    32
  0
VERTEX
  8
T50SSILL
 62
13
 10
5871.934
 20
-7693.308
 30
238.362
 70
    32
  0
VERTEX
  8
T50SSILL
 62
13
 10
5821.791
 20
-7729.666
 30
238.366
 70
    32
  0
VERTEX
  8
T50SSILL
 62
13
 10
5815.551
 20
-7738.288
 30
238.372
 70
    32
  0
VERTEX
  8
T50SSILL
 62
13
 10
5812.588
 20
-7745.271
 30
238.378
 70
    32
  0
VERTEX
  8
T50SSILL
 62
13
 10
5811.222
 20
-7754.578
 30
238.388
 70
    32
  0
VERTEX
  8
T50SSILL
 62
13
 10
5781.626
 20
-7713.352
 30
238.315
 70
    32
  0
VERTEX
  8
T50SSILL
 62
13
 10
5783.035
 20
-7704.996
 30
238.306
 70
    32
  0
VERTEX
  8
T50SSILL
 62
13
 10
5822.784
 20
-7676.812
 30
238.303
 70
    32
  0
VERTEX
  8
T50SSILL
 62
13
 10
5817.965
 20
-7670.841
 30
238.292
 70
    32
  0
VERTEX
  8
T50SSILL
 62
13
 10
5774.196
 20
-7702.631
 30
238.296
 70
    32
  0
VERTEX
  8
T50SSILL
 62
13
 10
5758.839
 20
-7681.554
 30
238.259
 70
    32
  0
VERTEX
  8
T50SSILL
 62
13
 10
5756.875
 20
-7672.176
 30
238.246
 70
    32
  0
VERTEX
  8
T50SSILL
 62
13
 10
5757.972
 20
-7665.033
 30
238.238
 70
    32
  0
VERTEX
  8
T50SSILL
 62
13
 10
5761.716
 20
-7657.478
 30
238.232
 70
    32
  0
VERTEX
  8
T50SSILL
 62
13
 10
5769.282
 20
-7650.068
 30
238.229
 70
    32
  0
VERTEX
  8
T50SSILL
 62
13
 10
5865.023
 20
-7582.327
 30
238.222
 70
    32
  0
VERTEX
  8
T50SSILL
 62
13
 10
5860.872
 20
-7576.521
 30
238.212
 70
    32
  0
VERTEX
  8
T50SSILL
 62
13
 10
5858.780
 20
-7578.008
 30
238.212
 70
    32
  0
VERTEX
  8
T50SSILL
 62
13
 10
5857.194
 20
-7577.368
 30
238.210
 70
    32
  0
VERTEX
  8
T50SSILL
 62
13
 10
5853.098
 20
-7579.665
 30
238.210
 70
    32
  0
VERTEX
  8
T50SSILL
 62
13
 10
5849.830
 20
-7580.129
 30
238.208
 70
    32
  0
VERTEX
  8
T50SSILL
 62
13
 10
5844.584
 20
-7573.684
 30
238.196
 70
    32
  0
VERTEX
  8
T50SSILL
 62
13
 10
5840.623
 20
-7564.622
 30
238.182
 70
    32
  0
VERTEX
  8
T50SSILL
 62
13
 10
5840.201
 20
-7545.854
 30
238.159
 70
    32
  0
VERTEX
  8
T50SSILL
 62
13
 10
5836.012
 20
-7539.430
 30
238.148
 70
    32
  0
VERTEX
  8
T50SSILL
 62
13
 10
5838.617
 20
-7527.944
 30
238.136
 70
    32
  0
VERTEX
  8
T50SSILL
 62
13
 10
5841.428
 20
-7523.860
 30
238.133
 70
    32
  0
VERTEX
  8
T50SSILL
 62
13
 10
5832.425
 20
-7524.827
 30
238.127
 70
    32
  0
VERTEX
  8
T50SSILL
 62
13
 10
5827.268
 20
-7527.279
 30
238.126
 70
    32
  0
VERTEX
  8
T50SSILL
 62
13
 10
5823.056
 20
-7530.984
 30
238.127
 70
    32
  0
VERTEX
  8
T50SSILL
 62
13
 10
5820.571
 20
-7536.395
 30
238.132
 70
    32
  0
VERTEX
  8
T50SSILL
 62
13
 10
5819.165
 20
-7545.175
 30
238.141
 70
    32
  0
VERTEX
  8
T50SSILL
 62
13
 10
5819.494
 20
-7550.818
 30
238.149
 70
    32
  0
VERTEX
  8
T50SSILL
 62
13
 10
5817.313
 20
-7554.210
 30
238.151
 70
    32
  0
VERTEX
  8
T50SSILL
 62
13
 10
5810.583
 20
-7560.507
 30
238.153
 70
    32
  0
VERTEX
  8
T50SSILL
 62
13
 10
5811.723
 20
-7569.689
 30
238.165
 70
    32
  0
VERTEX
  8
T50SSILL
 62
13
 10
5809.541
 20
-7582.064
 30
238.178
 70
    32
  0
VERTEX
  8
T50SSILL
 62
13
 10
5810.207
 20
-7588.507
 30
238.187
 70
    32
  0
VERTEX
  8
T50SSILL
 62
13
 10
5818.461
 20
-7598.710
 30
238.206
 70
    32
  0
VERTEX
  8
T50SSILL
 62
13
 10
5819.638
 20
-7601.552
 30
238.210
 70
    32
  0
VERTEX
  8
T50SSILL
 62
13
 10
5818.439
 20
-7606.679
 30
238.215
 70
    32
  0
VERTEX
  8
T50SSILL
 62
13
 10
5762.788
 20
-7645.982
 30
238.219
 70
    32
  0
VERTEX
  8
T50SSILL
 62
13
 10
5755.198
 20
-7653.956
 30
238.223
 70
    32
  0
VERTEX
  8
T50SSILL
 62
13
 10
5751.567
 20
-7662.411
 30
238.230
 70
    32
  0
VERTEX
  8
T50SSILL
 62
13
 10
5750.656
 20
-7670.402
 30
238.239
 70
    32
  0
VERTEX
  8
T50SSILL
 62
13
 10
5700.812
 20
-7600.541
 30
238.115
 70
    32
  0
VERTEX
  8
T50SSILL
 62
13
 10
5698.384
 20
-7590.083
 30
238.101
 70
    32
  0
VERTEX
  8
T50SSILL
 62
13
 10
5699.546
 20
-7581.690
 30
238.091
 70
    32
  0
VERTEX
  8
T50SSILL
 62
13
 10
5702.864
 20
-7574.447
 30
238.085
 70
    32
  0
VERTEX
  8
T50SSILL
 62
13
 10
5709.190
 20
-7567.729
 30
238.082
 70
    32
  0
VERTEX
  8
T50SSILL
 62
13
 10
5777.903
 20
-7518.319
 30
238.077
 70
    32
  0
VERTEX
  8
T50SSILL
 62
13
 10
5795.288
 20
-7534.988
 30
238.110
 70
    32
  0
VERTEX
  8
T50SSILL
 62
13
 10
5813.736
 20
-7528.482
 30
238.117
 70
    32
  0
VERTEX
  8
T50SSILL
 62
13
 10
5816.678
 20
-7526.691
 30
238.117
 70
    32
  0
VERTEX
  8
T50SSILL
 62
13
 10
5835.250
 20
-7522.829
 30
238.127
 70
    32
  0
VERTEX
  8
T50SSILL
 62
13
 10
5838.739
 20
-7515.588
 30
238.121
 70
    32
  0
VERTEX
  8
T50SSILL
 62
13
 10
5834.741
 20
-7503.971
 30
238.104
 70
    32
  0
VERTEX
  8
T50SSILL
 62
13
 10
5832.150
 20
-7492.471
 30
238.088
 70
    32
  0
VERTEX
  8
T50SSILL
 62
13
 10
5827.589
 20
-7487.008
 30
238.078
 70
    32
  0
VERTEX
  8
T50SSILL
 62
13
 10
5823.938
 20
-7485.216
 30
238.073
 70
    32
  0
VERTEX
  8
T50SSILL
 62
13
 10
6065.566
 20
-7311.466
 30
238.053
 70
    32
  0
VERTEX
  8
T50SSILL
 62
13
 10
6061.221
 20
-7305.694
 30
238.043
 70
    32
  0
VERTEX
  8
T50SSILL
 62
13
 10
6017.045
 20
-7337.673
 30
238.047
 70
    32
  0
VERTEX
  8
T50SSILL
 62
13
 10
6004.571
 20
-7329.014
 30
238.026
 70
    32
  0
VERTEX
  8
T50SSILL
 62
13
 10
5965.187
 20
-7295.298
 30
237.955
 70
    32
  0
VERTEX
  8
T50SSILL
 62
13
 10
5959.308
 20
-7291.307
 30
237.945
 70
    32
  0
VERTEX
  8
T50SSILL
 62
13
 10
5955.798
 20
-7291.587
 30
237.943
 70
    32
  0
VERTEX
  8
T50SSILL
 62
13
 10
5953.412
 20
-7295.633
 30
237.946
 70
    32
  0
VERTEX
  8
T50SSILL
 62
13
 10
5954.052
 20
-7296.803
 30
237.948
 70
    32
  0
VERTEX
  8
T50SSILL
 62
13
 10
5969.880
 20
-7309.885
 30
237.976
 70
    32
  0
VERTEX
  8
T50SSILL
 62
13
 10
5972.657
 20
-7313.967
 30
237.983
 70
    32
  0
VERTEX
  8
T50SSILL
 62
13
 10
5988.873
 20
-7325.343
 30
238.009
 70
    32
  0
VERTEX
  8
T50SSILL
 62
13
 10
6008.237
 20
-7344.136
 30
238.047
 70
    32
  0
VERTEX
  8
T50SSILL
 62
13
 10
5940.393
 20
-7393.155
 30
238.053
 70
    32
  0
VERTEX
  8
T50SSILL
 62
13
 10
5928.570
 20
-7376.150
 30
238.023
 70
    32
  0
VERTEX
  8
T50SSILL
 62
13
 10
5929.266
 20
-7373.673
 30
238.021
 70
    32
  0
VERTEX
  8
T50SSILL
 62
13
 10
5937.241
 20
-7369.351
 30
238.022
 70
    32
  0
VERTEX
  8
T50SSILL
 62
13
 10
5936.681
 20
-7367.248
 30
238.019
 70
    32
  0
VERTEX
  8
T50SSILL
 62
13
 10
5927.434
 20
-7360.156
 30
238.003
 70
    32
  0
VERTEX
  8
T50SSILL
 62
13
 10
5923.615
 20
-7357.931
 30
237.997
 70
    32
  0
VERTEX
  8
T50SSILL
 62
13
 10
5921.010
 20
-7357.657
 30
237.995
 70
    32
  0
VERTEX
  8
T50SSILL
 62
13
 10
5915.396
 20
-7353.580
 30
237.986
 70
    32
  0
VERTEX
  8
T50SSILL
 62
13
 10
5914.428
 20
-7346.751
 30
237.977
 70
    32
  0
VERTEX
  8
T50SSILL
 62
13
 10
5906.100
 20
-7327.509
 30
237.947
 70
    32
  0
VERTEX
  8
T50SSILL
 62
13
 10
5899.550
 20
-7328.709
 30
237.943
 70
    32
  0
VERTEX
  8
T50SSILL
 62
13
 10
5902.427
 20
-7335.013
 30
237.953
 70
    32
  0
VERTEX
  8
T50SSILL
 62
13
 10
5904.091
 20
-7341.004
 30
237.962
 70
    32
  0
VERTEX
  8
T50SSILL
 62
13
 10
5906.910
 20
-7359.589
 30
237.986
 70
    32
  0
VERTEX
  8
T50SSILL
 62
13
 10
5905.372
 20
-7363.449
 30
237.990
 70
    32
  0
VERTEX
  8
T50SSILL
 62
13
 10
5902.276
 20
-7366.377
 30
237.991
 70
    32
  0
VERTEX
  8
T50SSILL
 62
13
 10
5900.283
 20
-7369.916
 30
237.994
 70
    32
  0
VERTEX
  8
T50SSILL
 62
13
 10
5917.592
 20
-7394.697
 30
238.037
 70
    32
  0
VERTEX
  8
T50SSILL
 62
13
 10
5919.721
 20
-7400.129
 30
238.045
 70
    32
  0
VERTEX
  8
T50SSILL
 62
13
 10
5916.853
 20
-7409.773
 30
238.055
 70
    32
  0
VERTEX
  8
T50SSILL
 62
13
 10
5830.886
 20
-7471.721
 30
238.062
 70
    32
  0
VERTEX
  8
T50SSILL
 62
13
 10
5813.706
 20
-7462.409
 30
238.037
 70
    32
  0
VERTEX
  8
T50SSILL
 62
13
 10
5795.856
 20
-7460.912
 30
238.021
 70
    32
  0
VERTEX
  8
T50SSILL
 62
13
 10
5793.203
 20
-7461.476
 30
238.020
 70
    32
  0
VERTEX
  8
T50SSILL
 62
13
 10
5791.024
 20
-7469.905
 30
238.028
 70
    32
  0
VERTEX
  8
T50SSILL
 62
13
 10
5791.151
 20
-7472.373
 30
238.031
 70
    32
  0
VERTEX
  8
T50SSILL
 62
13
 10
5793.198
 20
-7475.761
 30
238.037
 70
    32
  0
VERTEX
  8
T50SSILL
 62
13
 10
5785.829
 20
-7483.190
 30
238.040
 70
    32
  0
VERTEX
  8
T50SSILL
 62
13
 10
5782.202
 20
-7488.491
 30
238.044
 70
    32
  0
VERTEX
  8
T50SSILL
 62
13
 10
5776.806
 20
-7493.476
 30
238.046
 70
    32
  0
VERTEX
  8
T50SSILL
 62
13
 10
5778.380
 20
-7498.527
 30
238.053
 70
    32
  0
VERTEX
  8
T50SSILL
 62
13
 10
5777.724
 20
-7510.029
 30
238.066
 70
    32
  0
VERTEX
  8
T50SSILL
 62
13
 10
5718.209
 20
-7552.915
 30
238.071
 70
    32
  0
VERTEX
  8
T50SSILL
 62
13
 10
5733.753
 20
-7456.600
 30
237.967
 70
    32
  0
VERTEX
  8
T50SSILL
 62
13
 10
5776.125
 20
-7394.910
 30
237.926
 70
    32
  0
VERTEX
  8
T50SSILL
 62
13
 10
5903.346
 20
-7304.396
 30
237.917
 70
    32
  0
VERTEX
  8
T50SSILL
 62
13
 10
5898.290
 20
-7297.506
 30
237.905
 70
    32
  0
VERTEX
  8
T50SSILL
 62
13
 10
5773.077
 20
-7386.437
 30
237.913
 70
    32
  0
VERTEX
  8
T50SSILL
 62
13
 10
5736.935
 20
-7438.748
 30
237.948
 70
    32
  0
VERTEX
  8
T50SSILL
 62
13
 10
5748.362
 20
-7368.840
 30
237.873
 70
    32
  0
VERTEX
  8
T50SSILL
 62
13
 10
5739.443
 20
-7367.407
 30
237.864
 70
    32
  0
VERTEX
  8
T50SSILL
 62
13
 10
5707.256
 20
-7560.625
 30
238.072
 70
    32
  0
VERTEX
  8
T50SSILL
 62
13
 10
5702.762
 20
-7564.032
 30
238.073
 70
    32
  0
VERTEX
  8
T50SSILL
 62
13
 10
5697.430
 20
-7570.020
 30
238.076
 70
    32
  0
VERTEX
  8
T50SSILL
 62
13
 10
5693.388
 20
-7577.467
 30
238.081
 70
    32
  0
VERTEX
  8
T50SSILL
 62
13
 10
5691.582
 20
-7588.409
 30
238.093
 70
    32
  0
VERTEX
  8
T50SSILL
 62
13
 10
5046.740
 20
-6691.470
 30
236.260
 70
    32
  0
VERTEX
  8
T50SSILL
 62
13
 10
4954.684
 20
-6353.675
 30
236.154
 70
    32
  0
VERTEX
  8
T50SSILL
 62
13
 10
4994.731
 20
-6284.106
 30
236.148
 70
    32
  0
VERTEX
  8
T50SSILL
 62
13
 10
4987.906
 20
-6280.082
 30
236.146
 70
    32
  0
VERTEX
  8
T50SSILL
 62
13
 10
4952.700
 20
-6344.570
 30
236.152
 70
    32
  0
VERTEX
  8
T50SSILL
 62
13
 10
4916.500
 20
-6206.323
 30
236.153
 70
    32
  0
VERTEX
  8
T50SSILL
 62
13
 10
4868.168
 20
-6028.692
 30
236.275
 70
    32
  0
VERTEX
  8
T50SSILL
 62
13
 10
4861.025
 20
-6031.031
 30
236.283
 70
    32
  0
VERTEX
  8
T50SSILL
 62
13
 10
4939.567
 20
-6318.681
 30
236.143
 70
    32
  0
VERTEX
  8
T50SSILL
 62
13
 10
4919.187
 20
-6307.134
 30
236.136
 70
    32
  0
VERTEX
  8
T50SSILL
 62
13
 10
4913.892
 20
-6317.053
 30
236.136
 70
    32
  0
VERTEX
  8
T50SSILL
 62
13
 10
4896.048
 20
-6306.591
 30
236.130
 70
    32
  0
SEQEND
  8
T50SSILL
  0
POLYLINE
  8
T50SSILL
 62
13
 66
     1
 70
     9
  0
VERTEX
  8
T50SSILL
 62
13
 10
3856.310
 20
-8269.789
 30
238.053
 70
    32
  0
VERTEX
  8
T50SSILL
 62
13
 10
3865.717
 20
-8291.154
 30
238.053
 70
    32
  0
VERTEX
  8
T50SSILL
 62
13
 10
3878.739
 20
-8302.500
 30
238.053
 70
    32
  0
VERTEX
  8
T50SSILL
 62
13
 10
3873.535
 20
-8321.140
 30
238.053
 70
    32
  0
VERTEX
  8
T50SSILL
 62
13
 10
3868.301
 20
-8331.485
 30
238.053
 70
    32
  0
VERTEX
  8
T50SSILL
 62
13
 10
3871.841
 20
-8344.508
 30
238.053
 70
    32
  0
VERTEX
  8
T50SSILL
 62
13
 10
3887.235
 20
-8381.896
 30
238.053
 70
    32
  0
VERTEX
  8
T50SSILL
 62
13
 10
3878.757
 20
-8386.987
 30
238.053
 70
    32
  0
VERTEX
  8
T50SSILL
 62
13
 10
3878.011
 20
-8395.859
 30
238.053
 70
    32
  0
VERTEX
  8
T50SSILL
 62
13
 10
3879.020
 20
-8409.011
 30
238.053
 70
    32
  0
VERTEX
  8
T50SSILL
 62
13
 10
3870.198
 20
-8412.607
 30
238.053
 70
    32
  0
VERTEX
  8
T50SSILL
 62
13
 10
3865.236
 20
-8410.052
 30
238.053
 70
    32
  0
VERTEX
  8
T50SSILL
 62
13
 10
3860.302
 20
-8397.954
 30
238.053
 70
    32
  0
VERTEX
  8
T50SSILL
 62
13
 10
3865.012
 20
-8390.735
 30
238.053
 70
    32
  0
VERTEX
  8
T50SSILL
 62
13
 10
3877.427
 20
-8385.786
 30
238.053
 70
    32
  0
VERTEX
  8
T50SSILL
 62
13
 10
3874.995
 20
-8379.710
 30
238.053
 70
    32
  0
VERTEX
  8
T50SSILL
 62
13
 10
3862.476
 20
-8384.519
 30
238.053
 70
    32
  0
VERTEX
  8
T50SSILL
 62
13
 10
3854.643
 20
-8383.111
 30
238.053
 70
    32
  0
VERTEX
  8
T50SSILL
 62
13
 10
3847.713
 20
-8365.818
 30
238.053
 70
    32
  0
VERTEX
  8
T50SSILL
 62
13
 10
3850.437
 20
-8362.263
 30
238.053
 70
    32
  0
VERTEX
  8
T50SSILL
 62
13
 10
3866.164
 20
-8355.730
 30
238.053
 70
    32
  0
VERTEX
  8
T50SSILL
 62
13
 10
3862.809
 20
-8347.822
 30
238.053
 70
    32
  0
VERTEX
  8
T50SSILL
 62
13
 10
3848.473
 20
-8353.870
 30
238.053
 70
    32
  0
VERTEX
  8
T50SSILL
 62
13
 10
3842.123
 20
-8351.361
 30
238.053
 70
    32
  0
VERTEX
  8
T50SSILL
 62
13
 10
3834.842
 20
-8333.891
 30
238.053
 70
    32
  0
VERTEX
  8
T50SSILL
 62
13
 10
3839.364
 20
-8329.220
 30
238.053
 70
    32
  0
VERTEX
  8
T50SSILL
 62
13
 10
3837.589
 20
-8325.503
 30
238.053
 70
    32
  0
VERTEX
  8
T50SSILL
 62
13
 10
3831.004
 20
-8324.153
 30
238.053
 70
    32
  0
VERTEX
  8
T50SSILL
 62
13
 10
3822.253
 20
-8301.755
 30
238.053
 70
    32
  0
VERTEX
  8
T50SSILL
 62
13
 10
3826.793
 20
-8296.961
 30
238.053
 70
    32
  0
VERTEX
  8
T50SSILL
 62
13
 10
3839.875
 20
-8292.172
 30
238.053
 70
    32
  0
VERTEX
  8
T50SSILL
 62
13
 10
3837.204
 20
-8284.743
 30
238.053
 70
    32
  0
VERTEX
  8
T50SSILL
 62
13
 10
3820.917
 20
-8290.816
 30
238.053
 70
    32
  0
VERTEX
  8
T50SSILL
 62
13
 10
3817.549
 20
-8289.377
 30
238.053
 70
    32
  0
VERTEX
  8
T50SSILL
 62
13
 10
3808.933
 20
-8268.192
 30
238.053
 70
    32
  0
VERTEX
  8
T50SSILL
 62
13
 10
3812.026
 20
-8264.691
 30
238.053
 70
    32
  0
VERTEX
  8
T50SSILL
 62
13
 10
3826.486
 20
-8258.222
 30
238.053
 70
    32
  0
VERTEX
  8
T50SSILL
 62
13
 10
3823.617
 20
-8251.705
 30
238.053
 70
    32
  0
VERTEX
  8
T50SSILL
 62
13
 10
3809.350
 20
-8258.140
 30
238.053
 70
    32
  0
VERTEX
  8
T50SSILL
 62
13
 10
3804.592
 20
-8257.186
 30
238.053
 70
    32
  0
VERTEX
  8
T50SSILL
 62
13
 10
3798.163
 20
-8241.600
 30
238.053
 70
    32
  0
VERTEX
  8
T50SSILL
 62
13
 10
3805.179
 20
-8229.823
 30
238.053
 70
    32
  0
VERTEX
  8
T50SSILL
 62
13
 10
3816.099
 20
-8225.218
 30
238.053
 70
    32
  0
VERTEX
  8
T50SSILL
 62
13
 10
3813.369
 20
-8219.035
 30
238.053
 70
    32
  0
VERTEX
  8
T50SSILL
 62
13
 10
3798.505
 20
-8225.256
 30
238.053
 70
    32
  0
VERTEX
  8
T50SSILL
 62
13
 10
3791.415
 20
-8223.078
 30
238.053
 70
    32
  0
VERTEX
  8
T50SSILL
 62
13
 10
3786.169
 20
-8210.117
 30
238.053
 70
    32
  0
VERTEX
  8
T50SSILL
 62
13
 10
3796.267
 20
-8197.036
 30
238.053
 70
    32
  0
VERTEX
  8
T50SSILL
 62
13
 10
3801.250
 20
-8195.197
 30
238.053
 70
    32
  0
VERTEX
  8
T50SSILL
 62
13
 10
3837.349
 20
-8243.370
 30
238.053
 70
    32
  0
VERTEX
  8
T50SSILL
 62
13
 10
3847.384
 20
-8254.526
 30
238.053
 70
    32
  0
VERTEX
  8
T50SSILL
 62
13
 10
3854.501
 20
-8265.879
 30
238.053
 70
    32
  0
SEQEND
  8
T50SSILL
  0
POLYLINE
  8
T50SSILL
 62
13
 66
     1
 70
     9
  0
VERTEX
  8
T50SSILL
 62
13
 10
3793.460
 20
-8185.001
 30
238.053
 70
    32
  0
VERTEX
  8
T50SSILL
 62
13
 10
3796.742
 20
-8189.569
 30
238.053
 70
    32
  0
VERTEX
  8
T50SSILL
 62
13
 10
3787.425
 20
-8193.532
 30
238.053
 70
    32
  0
VERTEX
  8
T50SSILL
 62
13
 10
3779.225
 20
-8192.069
 30
238.053
 70
    32
  0
VERTEX
  8
T50SSILL
 62
13
 10
3774.980
 20
-8182.962
 30
238.053
 70
    32
  0
VERTEX
  8
T50SSILL
 62
13
 10
3776.232
 20
-8178.310
 30
238.053
 70
    32
  0
VERTEX
  8
T50SSILL
 62
13
 10
3775.840
 20
-8175.865
 30
238.053
 70
    32
  0
VERTEX
  8
T50SSILL
 62
13
 10
3777.951
 20
-8171.780
 30
238.053
 70
    32
  0
VERTEX
  8
T50SSILL
 62
13
 10
3777.871
 20
-8166.366
 30
238.053
 70
    32
  0
VERTEX
  8
T50SSILL
 62
13
 10
3782.899
 20
-8162.524
 30
238.053
 70
    32
  0
VERTEX
  8
T50SSILL
 62
13
 10
3784.785
 20
-8165.064
 30
238.053
 70
    32
  0
VERTEX
  8
T50SSILL
 62
13
 10
3786.800
 20
-8177.359
 30
238.053
 70
    32
  0
VERTEX
  8
T50SSILL
 62
13
 10
3787.845
 20
-8179.209
 30
238.053
 70
    32
  0
VERTEX
  8
T50SSILL
 62
13
 10
3788.581
 20
-8179.758
 30
238.053
 70
    32
  0
VERTEX
  8
T50SSILL
 62
13
 10
3788.837
 20
-8170.373
 30
238.053
 70
    32
  0
VERTEX
  8
T50SSILL
 62
13
 10
3792.427
 20
-8176.683
 30
238.053
 70
    32
  0
SEQEND
  8
T50SSILL
  0
POLYLINE
  8
T50SSILL
 62
13
 66
     1
 70
     9
  0
VERTEX
  8
T50SSILL
 62
13
 10
4103.019
 20
-8244.868
 30
238.053
 70
    32
  0
VERTEX
  8
T50SSILL
 62
13
 10
4088.715
 20
-8255.381
 30
238.053
 70
    32
  0
VERTEX
  8
T50SSILL
 62
13
 10
4088.550
 20
-8256.926
 30
238.053
 70
    32
  0
VERTEX
  8
T50SSILL
 62
13
 10
4090.111
 20
-8261.240
 30
238.053
 70
    32
  0
VERTEX
  8
T50SSILL
 62
13
 10
4089.627
 20
-8263.241
 30
238.053
 70
    32
  0
VERTEX
  8
T50SSILL
 62
13
 10
4091.261
 20
-8267.063
 30
238.053
 70
    32
  0
VERTEX
  8
T50SSILL
 62
13
 10
4093.419
 20
-8278.814
 30
238.053
 70
    32
  0
VERTEX
  8
T50SSILL
 62
13
 10
3967.615
 20
-8369.713
 30
238.053
 70
    32
  0
VERTEX
  8
T50SSILL
 62
13
 10
3962.491
 20
-8371.657
 30
238.053
 70
    32
  0
VERTEX
  8
T50SSILL
 62
13
 10
3957.549
 20
-8372.372
 30
238.053
 70
    32
  0
VERTEX
  8
T50SSILL
 62
13
 10
3947.294
 20
-8370.354
 30
238.053
 70
    32
  0
VERTEX
  8
T50SSILL
 62
13
 10
3940.930
 20
-8367.090
 30
238.053
 70
    32
  0
VERTEX
  8
T50SSILL
 62
13
 10
3936.694
 20
-8363.449
 30
238.053
 70
    32
  0
VERTEX
  8
T50SSILL
 62
13
 10
3925.954
 20
-8348.985
 30
238.053
 70
    32
  0
VERTEX
  8
T50SSILL
 62
13
 10
3924.620
 20
-8344.831
 30
238.053
 70
    32
  0
VERTEX
  8
T50SSILL
 62
13
 10
3919.937
 20
-8339.114
 30
238.053
 70
    32
  0
VERTEX
  8
T50SSILL
 62
13
 10
3918.437
 20
-8333.113
 30
238.053
 70
    32
  0
VERTEX
  8
T50SSILL
 62
13
 10
3913.436
 20
-8324.020
 30
238.053
 70
    32
  0
VERTEX
  8
T50SSILL
 62
13
 10
3913.850
 20
-8322.071
 30
238.053
 70
    32
  0
VERTEX
  8
T50SSILL
 62
13
 10
3910.595
 20
-8307.960
 30
238.053
 70
    32
  0
VERTEX
  8
T50SSILL
 62
13
 10
3916.368
 20
-8299.076
 30
238.053
 70
    32
  0
VERTEX
  8
T50SSILL
 62
13
 10
3915.929
 20
-8295.243
 30
238.053
 70
    32
  0
VERTEX
  8
T50SSILL
 62
13
 10
3914.500
 20
-8292.582
 30
238.053
 70
    32
  0
VERTEX
  8
T50SSILL
 62
13
 10
3909.307
 20
-8286.915
 30
238.053
 70
    32
  0
VERTEX
  8
T50SSILL
 62
13
 10
3906.994
 20
-8285.568
 30
238.053
 70
    32
  0
VERTEX
  8
T50SSILL
 62
13
 10
3900.289
 20
-8283.761
 30
238.053
 70
    32
  0
VERTEX
  8
T50SSILL
 62
13
 10
3888.625
 20
-8282.352
 30
238.053
 70
    32
  0
VERTEX
  8
T50SSILL
 62
13
 10
3884.854
 20
-8280.664
 30
238.053
 70
    32
  0
VERTEX
  8
T50SSILL
 62
13
 10
3880.602
 20
-8276.707
 30
238.053
 70
    32
  0
VERTEX
  8
T50SSILL
 62
13
 10
3873.112
 20
-8266.178
 30
238.053
 70
    32
  0
VERTEX
  8
T50SSILL
 62
13
 10
3864.640
 20
-8258.897
 30
238.053
 70
    32
  0
VERTEX
  8
T50SSILL
 62
13
 10
3858.757
 20
-8250.678
 30
238.053
 70
    32
  0
VERTEX
  8
T50SSILL
 62
13
 10
3854.282
 20
-8241.851
 30
238.053
 70
    32
  0
VERTEX
  8
T50SSILL
 62
13
 10
3864.882
 20
-8241.533
 30
238.053
 70
    32
  0
VERTEX
  8
T50SSILL
 62
13
 10
3878.572
 20
-8245.377
 30
238.053
 70
    32
  0
VERTEX
  8
T50SSILL
 62
13
 10
3883.717
 20
-8250.094
 30
238.053
 70
    32
  0
VERTEX
  8
T50SSILL
 62
13
 10
3885.654
 20
-8253.144
 30
238.053
 70
    32
  0
VERTEX
  8
T50SSILL
 62
13
 10
3888.804
 20
-8252.228
 30
238.053
 70
    32
  0
VERTEX
  8
T50SSILL
 62
13
 10
3892.946
 20
-8249.699
 30
238.053
 70
    32
  0
VERTEX
  8
T50SSILL
 62
13
 10
3891.955
 20
-8247.480
 30
238.053
 70
    32
  0
VERTEX
  8
T50SSILL
 62
13
 10
3877.352
 20
-8232.383
 30
238.053
 70
    32
  0
VERTEX
  8
T50SSILL
 62
13
 10
3874.226
 20
-8228.026
 30
238.053
 70
    32
  0
VERTEX
  8
T50SSILL
 62
13
 10
3871.649
 20
-8222.935
 30
238.053
 70
    32
  0
VERTEX
  8
T50SSILL
 62
13
 10
3871.211
 20
-8219.101
 30
238.053
 70
    32
  0
VERTEX
  8
T50SSILL
 62
13
 10
3868.698
 20
-8215.275
 30
238.053
 70
    32
  0
VERTEX
  8
T50SSILL
 62
13
 10
3862.040
 20
-8207.193
 30
238.053
 70
    32
  0
VERTEX
  8
T50SSILL
 62
13
 10
3849.913
 20
-8196.168
 30
238.053
 70
    32
  0
VERTEX
  8
T50SSILL
 62
13
 10
3829.053
 20
-8180.900
 30
238.053
 70
    32
  0
VERTEX
  8
T50SSILL
 62
13
 10
3817.103
 20
-8169.524
 30
238.053
 70
    32
  0
VERTEX
  8
T50SSILL
 62
13
 10
3805.068
 20
-8161.276
 30
238.053
 70
    32
  0
VERTEX
  8
T50SSILL
 62
13
 10
3800.549
 20
-8161.677
 30
238.053
 70
    32
  0
VERTEX
  8
T50SSILL
 62
13
 10
3793.675
 20
-8165.686
 30
238.053
 70
    32
  0
VERTEX
  8
T50SSILL
 62
13
 10
3786.495
 20
-8156.460
 30
238.053
 70
    32
  0
VERTEX
  8
T50SSILL
 62
13
 10
3786.718
 20
-8154.106
 30
238.053
 70
    32
  0
VERTEX
  8
T50SSILL
 62
13
 10
3785.499
 20
-8151.727
 30
238.053
 70
    32
  0
VERTEX
  8
T50SSILL
 62
13
 10
3781.150
 20
-8145.871
 30
238.053
 70
    32
  0
VERTEX
  8
T50SSILL
 62
13
 10
3776.144
 20
-8141.488
 30
238.053
 70
    32
  0
VERTEX
  8
T50SSILL
 62
13
 10
3775.187
 20
-8139.462
 30
238.053
 70
    32
  0
VERTEX
  8
T50SSILL
 62
13
 10
3791.473
 20
-8141.052
 30
238.053
 70
    32
  0
VERTEX
  8
T50SSILL
 62
13
 10
3846.111
 20
-8138.571
 30
238.053
 70
    32
  0
VERTEX
  8
T50SSILL
 62
13
 10
3858.719
 20
-8140.811
 30
238.053
 70
    32
  0
VERTEX
  8
T50SSILL
 62
13
 10
3863.629
 20
-8143.295
 30
238.053
 70
    32
  0
VERTEX
  8
T50SSILL
 62
13
 10
3925.470
 20
-8192.821
 30
238.053
 70
    32
  0
VERTEX
  8
T50SSILL
 62
13
 10
3937.450
 20
-8198.045
 30
238.053
 70
    32
  0
VERTEX
  8
T50SSILL
 62
13
 10
3945.405
 20
-8199.472
 30
238.053
 70
    32
  0
VERTEX
  8
T50SSILL
 62
13
 10
3957.885
 20
-8199.180
 30
238.053
 70
    32
  0
VERTEX
  8
T50SSILL
 62
13
 10
3896.914
 20
-8243.250
 30
238.053
 70
    32
  0
VERTEX
  8
T50SSILL
 62
13
 10
3901.158
 20
-8248.965
 30
238.053
 70
    32
  0
VERTEX
  8
T50SSILL
 62
13
 10
3988.709
 20
-8185.267
 30
238.053
 70
    32
  0
VERTEX
  8
T50SSILL
 62
13
 10
3992.899
 20
-8187.519
 30
238.053
 70
    32
  0
VERTEX
  8
T50SSILL
 62
13
 10
3997.386
 20
-8186.486
 30
238.053
 70
    32
  0
VERTEX
  8
T50SSILL
 62
13
 10
4000.597
 20
-8183.882
 30
238.053
 70
    32
  0
VERTEX
  8
T50SSILL
 62
13
 10
4002.704
 20
-8180.676
 30
238.053
 70
    32
  0
VERTEX
  8
T50SSILL
 62
13
 10
4002.721
 20
-8177.161
 30
238.053
 70
    32
  0
VERTEX
  8
T50SSILL
 62
13
 10
4001.848
 20
-8175.838
 30
238.053
 70
    32
  0
VERTEX
  8
T50SSILL
 62
13
 10
4082.642
 20
-8116.770
 30
238.058
 70
    32
  0
VERTEX
  8
T50SSILL
 62
13
 10
4171.606
 20
-8054.079
 30
238.114
 70
    32
  0
VERTEX
  8
T50SSILL
 62
13
 10
4214.997
 20
-8157.502
 30
238.124
 70
    32
  0
VERTEX
  8
T50SSILL
 62
13
 10
4219.632
 20
-8170.250
 30
238.125
 70
    32
  0
VERTEX
  8
T50SSILL
 62
13
 10
4219.512
 20
-8179.706
 30
238.124
 70
    32
  0
VERTEX
  8
T50SSILL
 62
13
 10
4216.096
 20
-8188.899
 30
238.121
 70
    32
  0
VERTEX
  8
T50SSILL
 62
13
 10
4210.682
 20
-8194.823
 30
238.118
 70
    32
  0
VERTEX
  8
T50SSILL
 62
13
 10
4139.097
 20
-8245.990
 30
238.073
 70
    32
  0
VERTEX
  8
T50SSILL
 62
13
 10
4130.806
 20
-8241.310
 30
238.069
 70
    32
  0
VERTEX
  8
T50SSILL
 62
13
 10
4125.976
 20
-8237.016
 30
238.067
 70
    32
  0
VERTEX
  8
T50SSILL
 62
13
 10
4122.219
 20
-8236.084
 30
238.065
 70
    32
  0
VERTEX
  8
T50SSILL
 62
13
 10
4115.481
 20
-8237.476
 30
238.061
 70
    32
  0
VERTEX
  8
T50SSILL
 62
13
 10
4109.452
 20
-8241.296
 30
238.057
 70
    32
  0
SEQEND
  8
T50SSILL
  0
POLYLINE
  8
T50SSILL
 62
13
 66
     1
 70
     9
  0
VERTEX
  8
T50SSILL
 62
13
 10
3931.079
 20
-8453.323
 30
238.053
 70
    32
  0
VERTEX
  8
T50SSILL
 62
13
 10
3929.251
 20
-8446.143
 30
238.053
 70
    32
  0
VERTEX
  8
T50SSILL
 62
13
 10
3918.685
 20
-8424.544
 30
238.053
 70
    32
  0
VERTEX
  8
T50SSILL
 62
13
 10
3920.324
 20
-8412.601
 30
238.053
 70
    32
  0
VERTEX
  8
T50SSILL
 62
13
 10
3989.388
 20
-8363.068
 30
238.053
 70
    32
  0
VERTEX
  8
T50SSILL
 62
13
 10
3986.395
 20
-8375.251
 30
238.053
 70
    32
  0
VERTEX
  8
T50SSILL
 62
13
 10
3978.122
 20
-8425.725
 30
238.053
 70
    32
  0
VERTEX
  8
T50SSILL
 62
13
 10
3977.387
 20
-8432.400
 30
238.053
 70
    32
  0
VERTEX
  8
T50SSILL
 62
13
 10
3978.299
 20
-8443.653
 30
238.053
 70
    32
  0
VERTEX
  8
T50SSILL
 62
13
 10
3980.976
 20
-8453.596
 30
238.053
 70
    32
  0
VERTEX
  8
T50SSILL
 62
13
 10
3985.552
 20
-8463.443
 30
238.053
 70
    32
  0
VERTEX
  8
T50SSILL
 62
13
 10
4005.871
 20
-8492.576
 30
238.053
 70
    32
  0
VERTEX
  8
T50SSILL
 62
13
 10
4007.384
 20
-8495.940
 30
238.053
 70
    32
  0
VERTEX
  8
T50SSILL
 62
13
 10
4008.314
 20
-8499.846
 30
238.053
 70
    32
  0
VERTEX
  8
T50SSILL
 62
13
 10
4008.460
 20
-8506.087
 30
238.053
 70
    32
  0
VERTEX
  8
T50SSILL
 62
13
 10
4003.768
 20
-8517.014
 30
238.053
 70
    32
  0
VERTEX
  8
T50SSILL
 62
13
 10
4000.070
 20
-8522.058
 30
238.053
 70
    32
  0
VERTEX
  8
T50SSILL
 62
13
 10
3974.915
 20
-8541.394
 30
238.053
 70
    32
  0
VERTEX
  8
T50SSILL
 62
13
 10
3971.566
 20
-8543.224
 30
238.053
 70
    32
  0
VERTEX
  8
T50SSILL
 62
13
 10
3964.264
 20
-8545.034
 30
238.053
 70
    32
  0
VERTEX
  8
T50SSILL
 62
13
 10
3953.069
 20
-8544.700
 30
238.053
 70
    32
  0
VERTEX
  8
T50SSILL
 62
13
 10
3924.638
 20
-8536.039
 30
238.053
 70
    32
  0
VERTEX
  8
T50SSILL
 62
13
 10
3919.765
 20
-8533.309
 30
238.053
 70
    32
  0
VERTEX
  8
T50SSILL
 62
13
 10
3915.301
 20
-8529.509
 30
238.053
 70
    32
  0
VERTEX
  8
T50SSILL
 62
13
 10
3911.477
 20
-8524.359
 30
238.053
 70
    32
  0
VERTEX
  8
T50SSILL
 62
13
 10
3898.724
 20
-8493.329
 30
238.053
 70
    32
  0
VERTEX
  8
T50SSILL
 62
13
 10
3913.026
 20
-8487.088
 30
238.053
 70
    32
  0
VERTEX
  8
T50SSILL
 62
13
 10
3932.623
 20
-8516.428
 30
238.053
 70
    32
  0
VERTEX
  8
T50SSILL
 62
13
 10
3943.329
 20
-8519.643
 30
238.053
 70
    32
  0
VERTEX
  8
T50SSILL
 62
13
 10
3947.207
 20
-8528.256
 30
238.053
 70
    32
  0
VERTEX
  8
T50SSILL
 62
13
 10
3957.925
 20
-8525.442
 30
238.053
 70
    32
  0
VERTEX
  8
T50SSILL
 62
13
 10
3955.019
 20
-8519.171
 30
238.053
 70
    32
  0
VERTEX
  8
T50SSILL
 62
13
 10
3956.571
 20
-8510.795
 30
238.053
 70
    32
  0
VERTEX
  8
T50SSILL
 62
13
 10
3937.340
 20
-8474.725
 30
238.053
 70
    32
  0
VERTEX
  8
T50SSILL
 62
13
 10
3936.409
 20
-8470.819
 30
238.053
 70
    32
  0
VERTEX
  8
T50SSILL
 62
13
 10
3933.772
 20
-8467.414
 30
238.053
 70
    32
  0
VERTEX
  8
T50SSILL
 62
13
 10
3934.034
 20
-8463.935
 30
238.053
 70
    32
  0
SEQEND
  8
T50SSILL
  0
POLYLINE
  8
T50SSILL
 62
13
 66
     1
 70
     9
  0
VERTEX
  8
T50SSILL
 62
13
 10
401.854
 20
-6604.519
 30
254.996
 70
    32
  0
VERTEX
  8
T50SSILL
 62
13
 10
408.750
 20
-6598.542
 30
258.583
 70
    32
  0
VERTEX
  8
T50SSILL
 62
13
 10
432.508
 20
-6582.066
 30
264.364
 70
    32
  0
VERTEX
  8
T50SSILL
 62
13
 10
429.054
 20
-6596.986
 30
263.790
 70
    32
  0
VERTEX
  8
T50SSILL
 62
13
 10
410.699
 20
-6612.654
 30
257.499
 70
    32
  0
VERTEX
  8
T50SSILL
 62
13
 10
406.378
 20
-6619.752
 30
254.724
 70
    32
  0
SEQEND
  8
T50SSILL
  0
POLYLINE
  8
T50SSILL
 62
13
 66
     1
 70
     9
  0
VERTEX
  8
T50SSILL
 62
13
 10
1105.865
 20
-7449.321
 30
242.089
 70
    32
  0
VERTEX
  8
T50SSILL
 62
13
 10
1117.850
 20
-7439.453
 30
246.360
 70
    32
  0
VERTEX
  8
T50SSILL
 62
13
 10
1123.863
 20
-7446.233
 30
246.160
 70
    32
  0
VERTEX
  8
T50SSILL
 62
13
 10
1110.800
 20
-7455.621
 30
242.073
 70
    32
  0
SEQEND
  8
T50SSILL
  0
POLYLINE
  8
T50SSILL
 62
13
 66
     1
 70
     9
  0
VERTEX
  8
T50SSILL
 62
13
 10
903.607
 20
-7507.646
 30
241.727
 70
    32
  0
VERTEX
  8
T50SSILL
 62
13
 10
886.897
 20
-7489.353
 30
237.146
 70
    32
  0
VERTEX
  8
T50SSILL
 62
13
 10
894.501
 20
-7482.603
 30
236.879
 70
    32
  0
VERTEX
  8
T50SSILL
 62
13
 10
910.654
 20
-7500.099
 30
241.381
 70
    32
  0
SEQEND
  8
T50SSILL
  0
POLYLINE
  8
T50SSILL
 62
13
 66
     1
 70
     9
  0
VERTEX
  8
T50SSILL
 62
13
 10
1174.428
 20
-8019.908
 30
238.642
 70
    32
  0
VERTEX
  8
T50SSILL
 62
13
 10
1161.674
 20
-8029.057
 30
238.430
 70
    32
  0
VERTEX
  8
T50SSILL
 62
13
 10
1158.735
 20
-8020.480
 30
238.445
 70
    32
  0
VERTEX
  8
T50SSILL
 62
13
 10
1152.739
 20
-8001.729
 30
238.477
 70
    32
  0
VERTEX
  8
T50SSILL
 62
13
 10
1144.687
 20
-7985.290
 30
238.524
 70
    32
  0
VERTEX
  8
T50SSILL
 62
13
 10
1143.259
 20
-7976.649
 30
238.667
 70
    32
  0
SEQEND
  8
T50SSILL
  0
POLYLINE
  8
T50SSILL
 62
13
 66
     1
 70
     9
  0
VERTEX
  8
T50SSILL
 62
13
 10
919.545
 20
-7239.833
 30
242.833
 70
    32
  0
VERTEX
  8
T50SSILL
 62
13
 10
913.678
 20
-7270.222
 30
242.512
 70
    32
  0
VERTEX
  8
T50SSILL
 62
13
 10
892.173
 20
-7295.570
 30
242.216
 70
    32
  0
VERTEX
  8
T50SSILL
 62
13
 10
885.957
 20
-7296.483
 30
242.182
 70
    32
  0
VERTEX
  8
T50SSILL
 62
13
 10
877.939
 20
-7288.374
 30
242.215
 70
    32
  0
VERTEX
  8
T50SSILL
 62
13
 10
879.199
 20
-7281.283
 30
242.278
 70
    32
  0
VERTEX
  8
T50SSILL
 62
13
 10
872.319
 20
-7254.710
 30
242.466
 70
    32
  0
VERTEX
  8
T50SSILL
 62
13
 10
878.529
 20
-7246.733
 30
242.557
 70
    32
  0
VERTEX
  8
T50SSILL
 62
13
 10
878.121
 20
-7244.769
 30
242.571
 70
    32
  0
VERTEX
  8
T50SSILL
 62
13
 10
892.160
 20
-7228.220
 30
242.825
 70
    32
  0
VERTEX
  8
T50SSILL
 62
13
 10
909.821
 20
-7227.133
 30
242.935
 70
    32
  0
SEQEND
  8
T50SSILL
  0
POLYLINE
  8
T50SSILL
 62
13
 66
     1
 70
     9
  0
VERTEX
  8
T50SSILL
 62
13
 10
885.300
 20
-7220.695
 30
242.880
 70
    32
  0
VERTEX
  8
T50SSILL
 62
13
 10
870.972
 20
-7237.445
 30
242.601
 70
    32
  0
VERTEX
  8
T50SSILL
 62
13
 10
869.604
 20
-7235.874
 30
242.608
 70
    32
  0
VERTEX
  8
T50SSILL
 62
13
 10
865.578
 20
-7231.252
 30
242.643
 70
    32
  0
VERTEX
  8
T50SSILL
 62
13
 10
852.970
 20
-7187.582
 30
243.109
 70
    32
  0
VERTEX
  8
T50SSILL
 62
13
 10
854.863
 20
-7186.152
 30
243.137
 70
    32
  0
VERTEX
  8
T50SSILL
 62
13
 10
881.137
 20
-7200.469
 30
243.105
 70
    32
  0
VERTEX
  8
T50SSILL
 62
13
 10
886.309
 20
-7206.496
 30
243.060
 70
    32
  0
SEQEND
  8
T50SSILL
  0
POLYLINE
  8
T50SSILL
 62
13
 66
     1
 70
     9
  0
VERTEX
  8
T50SSILL
 62
13
 10
931.457
 20
-7312.262
 30
242.244
 70
    32
  0
VERTEX
  8
T50SSILL
 62
13
 10
904.354
 20
-7342.002
 30
241.888
 70
    32
  0
VERTEX
  8
T50SSILL
 62
13
 10
897.942
 20
-7344.016
 30
241.844
 70
    32
  0
VERTEX
  8
T50SSILL
 62
13
 10
894.350
 20
-7327.676
 30
241.963
 70
    32
  0
VERTEX
  8
T50SSILL
 62
13
 10
890.047
 20
-7311.083
 30
242.080
 70
    32
  0
VERTEX
  8
T50SSILL
 62
13
 10
914.804
 20
-7283.196
 30
242.411
 70
    32
  0
VERTEX
  8
T50SSILL
 62
13
 10
934.148
 20
-7287.894
 30
242.454
 70
    32
  0
VERTEX
  8
T50SSILL
 62
13
 10
935.001
 20
-7290.190
 30
242.439
 70
    32
  0
SEQEND
  8
T50SSILL
  0
POLYLINE
  8
T50SSILL
 62
13
 66
     1
 70
     9
  0
VERTEX
  8
T50SSILL
 62
13
 10
971.830
 20
-7266.403
 30
242.794
 70
    32
  0
VERTEX
  8
T50SSILL
 62
13
 10
960.266
 20
-7251.988
 30
242.907
 70
    32
  0
VERTEX
  8
T50SSILL
 62
13
 10
958.855
 20
-7253.188
 30
242.884
 70
    32
  0
VERTEX
  8
T50SSILL
 62
13
 10
948.133
 20
-7250.715
 30
242.856
 70
    32
  0
VERTEX
  8
T50SSILL
 62
13
 10
946.219
 20
-7251.195
 30
242.840
 70
    32
  0
VERTEX
  8
T50SSILL
 62
13
 10
929.558
 20
-7270.431
 30
242.577
 70
    32
  0
VERTEX
  8
T50SSILL
 62
13
 10
929.717
 20
-7275.567
 30
242.536
 70
    32
  0
VERTEX
  8
T50SSILL
 62
13
 10
947.364
 20
-7286.270
 30
242.523
 70
    32
  0
VERTEX
  8
T50SSILL
 62
13
 10
959.427
 20
-7279.775
 30
242.626
 70
    32
  0
SEQEND
  8
T50SSILL
  0
POLYLINE
  8
T50SSILL
 62
13
 66
     1
 70
     9
  0
VERTEX
  8
T50SSILL
 62
13
 10
963.959
 20
-7334.118
 30
242.202
 70
    32
  0
VERTEX
  8
T50SSILL
 62
13
 10
965.347
 20
-7357.886
 30
242.014
 70
    32
  0
VERTEX
  8
T50SSILL
 62
13
 10
963.774
 20
-7368.515
 30
241.920
 70
    32
  0
VERTEX
  8
T50SSILL
 62
13
 10
912.278
 20
-7404.578
 30
241.410
 70
    32
  0
VERTEX
  8
T50SSILL
 62
13
 10
901.486
 20
-7363.816
 30
241.698
 70
    32
  0
VERTEX
  8
T50SSILL
 62
13
 10
902.788
 20
-7357.552
 30
241.754
 70
    32
  0
VERTEX
  8
T50SSILL
 62
13
 10
930.403
 20
-7327.776
 30
242.113
 70
    32
  0
VERTEX
  8
T50SSILL
 62
13
 10
937.893
 20
-7326.080
 30
242.158
 70
    32
  0
VERTEX
  8
T50SSILL
 62
13
 10
948.976
 20
-7327.230
 30
242.195
 70
    32
  0
VERTEX
  8
T50SSILL
 62
13
 10
956.438
 20
-7331.015
 30
242.196
 70
    32
  0
VERTEX
  8
T50SSILL
 62
13
 10
960.050
 20
-7330.207
 30
242.217
 70
    32
  0
SEQEND
  8
T50SSILL
  0
POLYLINE
  8
T50SSILL
 62
13
 66
     1
 70
     9
  0
VERTEX
  8
T50SSILL
 62
13
 10
1005.516
 20
-7331.980
 30
242.393
 70
    32
  0
VERTEX
  8
T50SSILL
 62
13
 10
994.353
 20
-7337.312
 30
242.303
 70
    32
  0
VERTEX
  8
T50SSILL
 62
13
 10
995.134
 20
-7346.405
 30
242.232
 70
    32
  0
VERTEX
  8
T50SSILL
 62
13
 10
981.988
 20
-7355.798
 30
242.100
 70
    32
  0
VERTEX
  8
T50SSILL
 62
13
 10
975.625
 20
-7353.280
 30
242.094
 70
    32
  0
VERTEX
  8
T50SSILL
 62
13
 10
974.377
 20
-7343.977
 30
242.165
 70
    32
  0
VERTEX
  8
T50SSILL
 62
13
 10
976.268
 20
-7339.016
 30
242.213
 70
    32
  0
VERTEX
  8
T50SSILL
 62
13
 10
976.077
 20
-7330.154
 30
242.285
 70
    32
  0
VERTEX
  8
T50SSILL
 62
13
 10
977.821
 20
-7327.437
 30
242.314
 70
    32
  0
VERTEX
  8
T50SSILL
 62
13
 10
996.379
 20
-7315.979
 30
242.486
 70
    32
  0
SEQEND
  8
T50SSILL
  0
POLYLINE
  8
T50SSILL
 62
13
 66
     1
 70
     9
  0
VERTEX
  8
T50SSILL
 62
13
 10
984.254
 20
-7783.430
 30
239.428
 70
    32
  0
VERTEX
  8
T50SSILL
 62
13
 10
997.572
 20
-7774.130
 30
239.317
 70
    32
  0
VERTEX
  8
T50SSILL
 62
13
 10
993.975
 20
-7768.825
 30
239.358
 70
    32
  0
VERTEX
  8
T50SSILL
 62
13
 10
991.768
 20
-7760.293
 30
239.391
 70
    32
  0
VERTEX
  8
T50SSILL
 62
13
 10
977.714
 20
-7705.965
 30
239.670
 70
    32
  0
VERTEX
  8
T50SSILL
 62
13
 10
947.925
 20
-7755.786
 30
239.806
 70
    32
  0
VERTEX
  8
T50SSILL
 62
13
 10
959.166
 20
-7763.144
 30
239.691
 70
    32
  0
VERTEX
  8
T50SSILL
 62
13
 10
964.876
 20
-7770.401
 30
239.627
 70
    32
  0
VERTEX
  8
T50SSILL
 62
13
 10
977.881
 20
-7777.063
 30
239.497
 70
    32
  0
SEQEND
  8
T50SSILL
  0
POLYLINE
  8
T50SSILL
 62
13
 66
     1
 70
     8
  0
VERTEX
  8
T50SSILL
 62
13
 10
695.769
 20
-7059.857
 30
246.356
 70
    32
  0
VERTEX
  8
T50SSILL
 62
13
 10
700.097
 20
-7045.624
 30
247.481
 70
    32
  0
VERTEX
  8
T50SSILL
 62
13
 10
710.693
 20
-7045.353
 30
249.107
 70
    32
  0
VERTEX
  8
T50SSILL
 62
13
 10
706.796
 20
-7057.978
 30
246.218
 70
    32
  0
SEQEND
  8
T50SSILL
  0
POLYLINE
  8
T50SSILL
 62
13
 66
     1
 70
     9
  0
VERTEX
  8
T50SSILL
 62
13
 10
985.906
 20
-7791.164
 30
239.716
 70
    32
  0
VERTEX
  8
T50SSILL
 62
13
 10
1001.666
 20
-7779.839
 30
239.353
 70
    32
  0
VERTEX
  8
T50SSILL
 62
13
 10
1055.683
 20
-7855.210
 30
239.007
 70
    32
  0
VERTEX
  8
T50SSILL
 62
13
 10
1022.394
 20
-7878.239
 30
239.717
 70
    32
  0
VERTEX
  8
T50SSILL
 62
13
 10
1012.681
 20
-7873.990
 30
239.853
 70
    32
  0
VERTEX
  8
T50SSILL
 62
13
 10
1011.945
 20
-7876.003
 30
239.878
 70
    32
  0
VERTEX
  8
T50SSILL
 62
13
 10
1007.389
 20
-7878.221
 30
239.968
 70
    32
  0
VERTEX
  8
T50SSILL
 62
13
 10
992.816
 20
-7883.577
 30
240.246
 70
    32
  0
VERTEX
  8
T50SSILL
 62
13
 10
989.828
 20
-7886.198
 30
240.313
 70
    32
  0
VERTEX
  8
T50SSILL
 62
13
 10
987.151
 20
-7893.101
 30
240.402
 70
    32
  0
VERTEX
  8
T50SSILL
 62
13
 10
988.535
 20
-7903.058
 30
240.441
 70
    32
  0
VERTEX
  8
T50SSILL
 62
13
 10
993.599
 20
-7908.624
 30
240.391
 70
    32
  0
VERTEX
  8
T50SSILL
 62
13
 10
1002.463
 20
-7913.037
 30
240.270
 70
    32
  0
VERTEX
  8
T50SSILL
 62
13
 10
1009.162
 20
-7923.245
 30
240.222
 70
    32
  0
VERTEX
  8
T50SSILL
 62
13
 10
1010.377
 20
-7929.893
 30
240.244
 70
    32
  0
VERTEX
  8
T50SSILL
 62
13
 10
1013.954
 20
-7934.249
 30
240.211
 70
    32
  0
VERTEX
  8
T50SSILL
 62
13
 10
1017.111
 20
-7934.936
 30
240.162
 70
    32
  0
VERTEX
  8
T50SSILL
 62
13
 10
1022.145
 20
-7930.029
 30
240.047
 70
    32
  0
VERTEX
  8
T50SSILL
 62
13
 10
1029.882
 20
-7926.233
 30
239.893
 70
    32
  0
VERTEX
  8
T50SSILL
 62
13
 10
1030.670
 20
-7923.220
 30
239.861
 70
    32
  0
VERTEX
  8
T50SSILL
 62
13
 10
1027.626
 20
-7900.608
 30
239.770
 70
    32
  0
VERTEX
  8
T50SSILL
 62
13
 10
1027.516
 20
-7884.193
 30
239.668
 70
    32
  0
VERTEX
  8
T50SSILL
 62
13
 10
1060.337
 20
-7860.955
 30
238.971
 70
    32
  0
VERTEX
  8
T50SSILL
 62
13
 10
1103.051
 20
-7920.444
 30
238.710
 70
    32
  0
VERTEX
  8
T50SSILL
 62
13
 10
1063.412
 20
-7948.335
 30
239.470
 70
    32
  0
VERTEX
  8
T50SSILL
 62
13
 10
1060.628
 20
-7936.679
 30
239.443
 70
    32
  0
VERTEX
  8
T50SSILL
 62
13
 10
1052.129
 20
-7927.727
 30
239.529
 70
    32
  0
VERTEX
  8
T50SSILL
 62
13
 10
1046.504
 20
-7933.475
 30
239.660
 70
    32
  0
VERTEX
  8
T50SSILL
 62
13
 10
1055.201
 20
-7945.930
 30
239.593
 70
    32
  0
VERTEX
  8
T50SSILL
 62
13
 10
1055.875
 20
-7953.491
 30
239.629
 70
    32
  0
VERTEX
  8
T50SSILL
 62
13
 10
1048.560
 20
-7958.812
 30
239.785
 70
    32
  0
VERTEX
  8
T50SSILL
 62
13
 10
1054.026
 20
-7966.026
 30
239.739
 70
    32
  0
VERTEX
  8
T50SSILL
 62
13
 10
1052.563
 20
-7973.901
 30
239.813
 70
    32
  0
VERTEX
  8
T50SSILL
 62
13
 10
1053.482
 20
-7987.181
 30
239.881
 70
    32
  0
VERTEX
  8
T50SSILL
 62
13
 10
1051.692
 20
-7992.286
 30
239.944
 70
    32
  0
VERTEX
  8
T50SSILL
 62
13
 10
1059.478
 20
-8002.056
 30
239.874
 70
    32
  0
VERTEX
  8
T50SSILL
 62
13
 10
1059.682
 20
-8005.876
 30
239.895
 70
    32
  0
VERTEX
  8
T50SSILL
 62
13
 10
1061.083
 20
-8007.575
 30
239.882
 70
    32
  0
VERTEX
  8
T50SSILL
 62
13
 10
1069.255
 20
-8007.010
 30
239.742
 70
    32
  0
VERTEX
  8
T50SSILL
 62
13
 10
1074.890
 20
-8010.786
 30
239.671
 70
    32
  0
VERTEX
  8
T50SSILL
 62
13
 10
1082.604
 20
-8020.606
 30
239.603
 70
    32
  0
VERTEX
  8
T50SSILL
 62
13
 10
1087.571
 20
-8017.138
 30
239.498
 70
    32
  0
VERTEX
  8
T50SSILL
 62
13
 10
1081.398
 20
-8006.456
 30
239.534
 70
    32
  0
VERTEX
  8
T50SSILL
 62
13
 10
1086.819
 20
-7996.888
 30
239.383
 70
    32
  0
VERTEX
  8
T50SSILL
 62
13
 10
1086.134
 20
-7992.226
 30
239.365
 70
    32
  0
VERTEX
  8
T50SSILL
 62
13
 10
1074.338
 20
-7979.473
 30
239.483
 70
    32
  0
VERTEX
  8
T50SSILL
 62
13
 10
1072.393
 20
-7963.804
 30
239.417
 70
    32
  0
VERTEX
  8
T50SSILL
 62
13
 10
1068.417
 20
-7955.656
 30
239.432
 70
    32
  0
VERTEX
  8
T50SSILL
 62
13
 10
1103.412
 20
-7931.543
 30
238.765
 70
    32
  0
VERTEX
  8
T50SSILL
 62
13
 10
1112.071
 20
-7933.208
 30
238.677
 70
    32
  0
VERTEX
  8
T50SSILL
 62
13
 10
1135.389
 20
-7965.224
 30
238.601
 70
    32
  0
VERTEX
  8
T50SSILL
 62
13
 10
1123.425
 20
-7984.286
 30
238.787
 70
    32
  0
VERTEX
  8
T50SSILL
 62
13
 10
1123.566
 20
-7987.401
 30
238.802
 70
    32
  0
VERTEX
  8
T50SSILL
 62
13
 10
1129.156
 20
-8010.592
 30
238.854
 70
    32
  0
VERTEX
  8
T50SSILL
 62
13
 10
1132.450
 20
-8040.250
 30
238.971
 70
    32
  0
VERTEX
  8
T50SSILL
 62
13
 10
1135.129
 20
-8048.948
 30
238.983
 70
    32
  0
VERTEX
  8
T50SSILL
 62
13
 10
1139.572
 20
-8078.597
 30
239.084
 70
    32
  0
VERTEX
  8
T50SSILL
 62
13
 10
1146.787
 20
-8103.197
 30
239.122
 70
    32
  0
VERTEX
  8
T50SSILL
 62
13
 10
1171.927
 20
-8089.498
 30
238.718
 70
    32
  0
VERTEX
  8
T50SSILL
 62
13
 10
1165.251
 20
-8056.457
 30
238.627
 70
    32
  0
VERTEX
  8
T50SSILL
 62
13
 10
1164.576
 20
-8037.800
 30
238.535
 70
    32
  0
VERTEX
  8
T50SSILL
 62
13
 10
1179.644
 20
-8027.129
 30
238.448
 70
    32
  0
VERTEX
  8
T50SSILL
 62
13
 10
1238.599
 20
-8110.101
 30
238.240
 70
    32
  0
VERTEX
  8
T50SSILL
 62
13
 10
1209.619
 20
-8130.382
 30
238.443
 70
    32
  0
VERTEX
  8
T50SSILL
 62
13
 10
1205.722
 20
-8124.384
 30
238.462
 70
    32
  0
VERTEX
  8
T50SSILL
 62
13
 10
1200.093
 20
-8128.341
 30
238.557
 70
    32
  0
VERTEX
  8
T50SSILL
 62
13
 10
1204.411
 20
-8134.470
 30
238.534
 70
    32
  0
VERTEX
  8
T50SSILL
 62
13
 10
1192.666
 20
-8143.063
 30
238.734
 70
    32
  0
VERTEX
  8
T50SSILL
 62
13
 10
1188.090
 20
-8136.576
 30
238.760
 70
    32
  0
VERTEX
  8
T50SSILL
 62
13
 10
1181.714
 20
-8140.855
 30
238.866
 70
    32
  0
VERTEX
  8
T50SSILL
 62
13
 10
1186.188
 20
-8147.198
 30
238.842
 70
    32
  0
VERTEX
  8
T50SSILL
 62
13
 10
1012.620
 20
-8270.070
 30
239.289
 70
    32
  0
VERTEX
  8
T50SSILL
 62
13
 10
998.027
 20
-8273.213
 30
239.319
 70
    32
  0
VERTEX
  8
T50SSILL
 62
13
 10
986.332
 20
-8272.086
 30
239.358
 70
    32
  0
VERTEX
  8
T50SSILL
 62
13
 10
973.786
 20
-8267.992
 30
239.410
 70
    32
  0
VERTEX
  8
T50SSILL
 62
13
 10
970.443
 20
-8276.600
 30
239.386
 70
    32
  0
VERTEX
  8
T50SSILL
 62
13
 10
989.264
 20
-8281.718
 30
239.312
 70
    32
  0
VERTEX
  8
T50SSILL
 62
13
 10
990.087
 20
-8286.020
 30
239.292
 70
    32
  0
VERTEX
  8
T50SSILL
 62
13
 10
971.212
 20
-8299.655
 30
239.294
 70
    32
  0
VERTEX
  8
T50SSILL
 62
13
 10
962.449
 20
-8296.410
 30
239.332
 70
    32
  0
VERTEX
  8
T50SSILL
 62
13
 10
937.572
 20
-8313.183
 30
239.339
 70
    32
  0
VERTEX
  8
T50SSILL
 62
13
 10
931.133
 20
-8324.905
 30
239.312
 70
    32
  0
VERTEX
  8
T50SSILL
 62
13
 10
941.740
 20
-8339.439
 30
239.224
 70
    32
  0
VERTEX
  8
T50SSILL
 62
13
 10
945.745
 20
-8340.464
 30
239.208
 70
    32
  0
VERTEX
  8
T50SSILL
 62
13
 10
952.307
 20
-8338.553
 30
239.197
 70
    32
  0
VERTEX
  8
T50SSILL
 62
13
 10
951.817
 20
-8329.440
 30
239.234
 70
    32
  0
VERTEX
  8
T50SSILL
 62
13
 10
970.430
 20
-8316.648
 30
239.230
 70
    32
  0
VERTEX
  8
T50SSILL
 62
13
 10
974.418
 20
-8306.804
 30
239.257
 70
    32
  0
VERTEX
  8
T50SSILL
 62
13
 10
1154.674
 20
-8178.884
 30
239.232
 70
    32
  0
VERTEX
  8
T50SSILL
 62
13
 10
1163.156
 20
-8190.927
 30
239.160
 70
    32
  0
VERTEX
  8
T50SSILL
 62
13
 10
1166.609
 20
-8207.908
 30
239.084
 70
    32
  0
VERTEX
  8
T50SSILL
 62
13
 10
1171.134
 20
-8218.240
 30
239.030
 70
    32
  0
VERTEX
  8
T50SSILL
 62
13
 10
1199.570
 20
-8255.799
 30
238.800
 70
    32
  0
VERTEX
  8
T50SSILL
 62
13
 10
1198.252
 20
-8260.451
 30
238.786
 70
    32
  0
VERTEX
  8
T50SSILL
 62
13
 10
1189.207
 20
-8264.047
 30
238.798
 70
    32
  0
VERTEX
  8
T50SSILL
 62
13
 10
1194.186
 20
-8280.579
 30
238.719
 70
    32
  0
VERTEX
  8
T50SSILL
 62
13
 10
1205.659
 20
-8290.135
 30
238.648
 70
    32
  0
VERTEX
  8
T50SSILL
 62
13
 10
1221.515
 20
-8283.469
 30
238.628
 70
    32
  0
VERTEX
  8
T50SSILL
 62
13
 10
1289.821
 20
-8368.391
 30
238.083
 70
    32
  0
VERTEX
  8
T50SSILL
 62
13
 10
1296.173
 20
-8364.199
 30
238.061
 70
    32
  0
VERTEX
  8
T50SSILL
 62
13
 10
1180.906
 20
-8216.404
 30
239.009
 70
    32
  0
VERTEX
  8
T50SSILL
 62
13
 10
1173.524
 20
-8201.063
 30
239.090
 70
    32
  0
VERTEX
  8
T50SSILL
 62
13
 10
1171.489
 20
-8190.565
 30
239.133
 70
    32
  0
VERTEX
  8
T50SSILL
 62
13
 10
1174.170
 20
-8175.899
 30
239.155
 70
    32
  0
VERTEX
  8
T50SSILL
 62
13
 10
1181.275
 20
-8162.389
 30
238.989
 70
    32
  0
VERTEX
  8
T50SSILL
 62
13
 10
1189.668
 20
-8153.824
 30
238.832
 70
    32
  0
VERTEX
  8
T50SSILL
 62
13
 10
1226.830
 20
-8127.850
 30
238.203
 70
    32
  0
VERTEX
  8
T50SSILL
 62
13
 10
1241.448
 20
-8125.343
 30
238.151
 70
    32
  0
VERTEX
  8
T50SSILL
 62
13
 10
1251.137
 20
-8131.074
 30
238.173
 70
    32
  0
VERTEX
  8
T50SSILL
 62
13
 10
1282.101
 20
-8185.087
 30
237.990
 70
    32
  0
VERTEX
  8
T50SSILL
 62
13
 10
1274.449
 20
-8190.722
 30
237.917
 70
    32
  0
VERTEX
  8
T50SSILL
 62
13
 10
1278.773
 20
-8197.500
 30
237.896
 70
    32
  0
VERTEX
  8
T50SSILL
 62
13
 10
1286.300
 20
-8191.954
 30
237.968
 70
    32
  0
VERTEX
  8
T50SSILL
 62
13
 10
1428.499
 20
-8440.779
 30
237.206
 70
    32
  0
VERTEX
  8
T50SSILL
 62
13
 10
1428.992
 20
-8448.692
 30
237.226
 70
    32
  0
VERTEX
  8
T50SSILL
 62
13
 10
1422.537
 20
-8453.463
 30
237.288
 70
    32
  0
VERTEX
  8
T50SSILL
 62
13
 10
1421.219
 20
-8456.156
 30
237.306
 70
    32
  0
VERTEX
  8
T50SSILL
 62
13
 10
1428.353
 20
-8463.623
 30
237.278
 70
    32
  0
VERTEX
  8
T50SSILL
 62
13
 10
1434.101
 20
-8458.928
 30
237.244
 70
    32
  0
VERTEX
  8
T50SSILL
 62
13
 10
1436.937
 20
-8460.143
 30
237.243
 70
    32
  0
VERTEX
  8
T50SSILL
 62
13
 10
1445.609
 20
-8471.396
 30
237.245
 70
    32
  0
VERTEX
  8
T50SSILL
 62
13
 10
1448.088
 20
-8470.911
 30
237.241
 70
    32
  0
VERTEX
  8
T50SSILL
 62
13
 10
1451.691
 20
-8465.806
 30
237.238
 70
    32
  0
VERTEX
  8
T50SSILL
 62
13
 10
1432.557
 20
-8426.967
 30
237.254
 70
    32
  0
VERTEX
  8
T50SSILL
 62
13
 10
1428.934
 20
-8426.320
 30
237.228
 70
    32
  0
VERTEX
  8
T50SSILL
 62
13
 10
1318.499
 20
-8233.216
 30
237.884
 70
    32
  0
VERTEX
  8
T50SSILL
 62
13
 10
1332.608
 20
-8225.636
 30
238.029
 70
    32
  0
VERTEX
  8
T50SSILL
 62
13
 10
1328.182
 20
-8218.605
 30
238.050
 70
    32
  0
VERTEX
  8
T50SSILL
 62
13
 10
1314.816
 20
-8227.063
 30
237.904
 70
    32
  0
VERTEX
  8
T50SSILL
 62
13
 10
1305.587
 20
-8211.425
 30
237.955
 70
    32
  0
VERTEX
  8
T50SSILL
 62
13
 10
1319.787
 20
-8203.670
 30
238.102
 70
    32
  0
VERTEX
  8
T50SSILL
 62
13
 10
1315.799
 20
-8197.847
 30
238.118
 70
    32
  0
VERTEX
  8
T50SSILL
 62
13
 10
1302.174
 20
-8205.948
 30
237.972
 70
    32
  0
VERTEX
  8
T50SSILL
 62
13
 10
1291.948
 20
-8187.874
 30
238.034
 70
    32
  0
VERTEX
  8
T50SSILL
 62
13
 10
1327.653
 20
-8161.540
 30
238.452
 70
    32
  0
VERTEX
  8
T50SSILL
 62
13
 10
1326.815
 20
-8156.161
 30
238.485
 70
    32
  0
VERTEX
  8
T50SSILL
 62
13
 10
1331.299
 20
-8153.031
 30
238.537
 70
    32
  0
VERTEX
  8
T50SSILL
 62
13
 10
1327.529
 20
-8147.811
 30
238.549
 70
    32
  0
VERTEX
  8
T50SSILL
 62
13
 10
1315.279
 20
-8154.049
 30
238.425
 70
    32
  0
VERTEX
  8
T50SSILL
 62
13
 10
1304.769
 20
-8167.516
 30
238.262
 70
    32
  0
VERTEX
  8
T50SSILL
 62
13
 10
1287.745
 20
-8180.248
 30
238.061
 70
    32
  0
VERTEX
  8
T50SSILL
 62
13
 10
1242.024
 20
-8102.819
 30
238.314
 70
    32
  0
VERTEX
  8
T50SSILL
 62
13
 10
1188.195
 20
-8021.907
 30
238.540
 70
    32
  0
VERTEX
  8
T50SSILL
 62
13
 10
1200.462
 20
-8010.460
 30
238.701
 70
    32
  0
VERTEX
  8
T50SSILL
 62
13
 10
1230.407
 20
-8038.661
 30
238.695
 70
    32
  0
VERTEX
  8
T50SSILL
 62
13
 10
1250.382
 20
-8021.729
 30
238.945
 70
    32
  0
VERTEX
  8
T50SSILL
 62
13
 10
1248.685
 20
-8009.137
 30
239.023
 70
    32
  0
VERTEX
  8
T50SSILL
 62
13
 10
1233.664
 20
-7989.849
 30
239.063
 70
    32
  0
VERTEX
  8
T50SSILL
 62
13
 10
1202.814
 20
-7966.872
 30
239.026
 70
    32
  0
VERTEX
  8
T50SSILL
 62
13
 10
1188.467
 20
-7977.888
 30
238.855
 70
    32
  0
VERTEX
  8
T50SSILL
 62
13
 10
1179.522
 20
-7990.660
 30
238.706
 70
    32
  0
VERTEX
  8
T50SSILL
 62
13
 10
1194.987
 20
-8004.839
 30
238.706
 70
    32
  0
VERTEX
  8
T50SSILL
 62
13
 10
1181.240
 20
-8014.878
 30
238.545
 70
    32
  0
VERTEX
  8
T50SSILL
 62
13
 10
1115.427
 20
-7923.904
 30
238.765
 70
    32
  0
VERTEX
  8
T50SSILL
 62
13
 10
1121.827
 20
-7919.114
 30
238.840
 70
    32
  0
VERTEX
  8
T50SSILL
 62
13
 10
1116.132
 20
-7911.418
 30
238.858
 70
    32
  0
VERTEX
  8
T50SSILL
 62
13
 10
1109.495
 20
-7915.409
 30
238.787
 70
    32
  0
VERTEX
  8
T50SSILL
 62
13
 10
1068.433
 20
-7857.980
 30
238.928
 70
    32
  0
VERTEX
  8
T50SSILL
 62
13
 10
1067.890
 20
-7855.361
 30
238.943
 70
    32
  0
VERTEX
  8
T50SSILL
 62
13
 10
1073.635
 20
-7850.707
 30
239.014
 70
    32
  0
VERTEX
  8
T50SSILL
 62
13
 10
1068.534
 20
-7845.701
 30
239.017
 70
    32
  0
VERTEX
  8
T50SSILL
 62
13
 10
1065.864
 20
-7847.245
 30
238.992
 70
    32
  0
VERTEX
  8
T50SSILL
 62
13
 10
1055.527
 20
-7828.760
 30
239.074
 70
    32
  0
VERTEX
  8
T50SSILL
 62
13
 10
1019.335
 20
-7783.673
 30
239.216
 70
    32
  0
VERTEX
  8
T50SSILL
 62
13
 10
1012.069
 20
-7772.040
 30
239.264
 70
    32
  0
VERTEX
  8
T50SSILL
 62
13
 10
1017.008
 20
-7768.377
 30
239.316
 70
    32
  0
VERTEX
  8
T50SSILL
 62
13
 10
1011.698
 20
-7763.839
 30
239.352
 70
    32
  0
VERTEX
  8
T50SSILL
 62
13
 10
1006.918
 20
-7766.963
 30
239.364
 70
    32
  0
VERTEX
  8
T50SSILL
 62
13
 10
1001.671
 20
-7763.130
 30
239.474
 70
    32
  0
VERTEX
  8
T50SSILL
 62
13
 10
1000.745
 20
-7749.533
 30
239.667
 70
    32
  0
VERTEX
  8
T50SSILL
 62
13
 10
997.550
 20
-7750.479
 30
239.690
 70
    32
  0
VERTEX
  8
T50SSILL
 62
13
 10
978.614
 20
-7675.352
 30
240.911
 70
    32
  0
VERTEX
  8
T50SSILL
 62
13
 10
981.807
 20
-7669.803
 30
240.950
 70
    32
  0
VERTEX
  8
T50SSILL
 62
13
 10
979.847
 20
-7666.995
 30
241.009
 70
    32
  0
VERTEX
  8
T50SSILL
 62
13
 10
983.778
 20
-7664.036
 30
241.005
 70
    32
  0
VERTEX
  8
T50SSILL
 62
13
 10
1017.630
 20
-7675.097
 30
240.476
 70
    32
  0
VERTEX
  8
T50SSILL
 62
13
 10
1021.363
 20
-7669.706
 30
240.506
 70
    32
  0
VERTEX
  8
T50SSILL
 62
13
 10
1040.320
 20
-7655.292
 30
240.486
 70
    32
  0
VERTEX
  8
T50SSILL
 62
13
 10
1043.763
 20
-7656.850
 30
240.426
 70
    32
  0
VERTEX
  8
T50SSILL
 62
13
 10
1058.648
 20
-7649.027
 30
240.403
 70
    32
  0
VERTEX
  8
T50SSILL
 62
13
 10
1061.998
 20
-7645.082
 30
240.449
 70
    32
  0
VERTEX
  8
T50SSILL
 62
13
 10
1064.065
 20
-7636.999
 30
240.518
 70
    32
  0
VERTEX
  8
T50SSILL
 62
13
 10
1071.761
 20
-7631.304
 30
240.600
 70
    32
  0
VERTEX
  8
T50SSILL
 62
13
 10
1066.067
 20
-7623.432
 30
240.628
 70
    32
  0
VERTEX
  8
T50SSILL
 62
13
 10
1017.527
 20
-7658.998
 30
240.693
 70
    32
  0
VERTEX
  8
T50SSILL
 62
13
 10
1013.404
 20
-7659.842
 30
240.728
 70
    32
  0
VERTEX
  8
T50SSILL
 62
13
 10
1008.283
 20
-7659.562
 30
240.789
 70
    32
  0
VERTEX
  8
T50SSILL
 62
13
 10
979.428
 20
-7649.832
 30
241.244
 70
    32
  0
VERTEX
  8
T50SSILL
 62
13
 10
973.530
 20
-7643.991
 30
241.389
 70
    32
  0
VERTEX
  8
T50SSILL
 62
13
 10
960.058
 20
-7588.501
 30
241.877
 70
    32
  0
VERTEX
  8
T50SSILL
 62
13
 10
957.588
 20
-7584.657
 30
241.820
 70
    32
  0
VERTEX
  8
T50SSILL
 62
13
 10
958.202
 20
-7576.946
 30
241.755
 70
    32
  0
VERTEX
  8
T50SSILL
 62
13
 10
963.531
 20
-7565.407
 30
241.696
 70
    32
  0
VERTEX
  8
T50SSILL
 62
13
 10
979.655
 20
-7586.812
 30
242.033
 70
    32
  0
VERTEX
  8
T50SSILL
 62
13
 10
983.751
 20
-7583.630
 30
242.039
 70
    32
  0
VERTEX
  8
T50SSILL
 62
13
 10
986.309
 20
-7585.914
 30
242.024
 70
    32
  0
VERTEX
  8
T50SSILL
 62
13
 10
988.750
 20
-7583.888
 30
242.024
 70
    32
  0
VERTEX
  8
T50SSILL
 62
13
 10
993.063
 20
-7574.880
 30
242.041
 70
    32
  0
VERTEX
  8
T50SSILL
 62
13
 10
988.660
 20
-7569.494
 30
241.953
 70
    32
  0
VERTEX
  8
T50SSILL
 62
13
 10
978.580
 20
-7565.181
 30
241.826
 70
    32
  0
VERTEX
  8
T50SSILL
 62
13
 10
972.047
 20
-7554.750
 30
241.673
 70
    32
  0
VERTEX
  8
T50SSILL
 62
13
 10
1015.257
 20
-7524.151
 30
241.771
 70
    32
  0
VERTEX
  8
T50SSILL
 62
13
 10
1019.508
 20
-7530.393
 30
241.865
 70
    32
  0
VERTEX
  8
T50SSILL
 62
13
 10
1026.822
 20
-7525.072
 30
241.880
 70
    32
  0
VERTEX
  8
T50SSILL
 62
13
 10
1022.067
 20
-7519.182
 30
241.785
 70
    32
  0
VERTEX
  8
T50SSILL
 62
13
 10
1110.800
 20
-7455.621
 30
242.073
 70
    32
  0
VERTEX
  8
T50SSILL
 62
13
 10
1105.865
 20
-7449.321
 30
242.089
 70
    32
  0
VERTEX
  8
T50SSILL
 62
13
 10
1037.514
 20
-7498.973
 30
241.735
 70
    32
  0
VERTEX
  8
T50SSILL
 62
13
 10
998.941
 20
-7494.956
 30
241.361
 70
    32
  0
VERTEX
  8
T50SSILL
 62
13
 10
995.422
 20
-7502.340
 30
241.398
 70
    32
  0
VERTEX
  8
T50SSILL
 62
13
 10
933.585
 20
-7506.107
 30
240.893
 70
    32
  0
VERTEX
  8
T50SSILL
 62
13
 10
923.237
 20
-7467.819
 30
240.940
 70
    32
  0
VERTEX
  8
T50SSILL
 62
13
 10
927.359
 20
-7461.300
 30
241.011
 70
    32
  0
VERTEX
  8
T50SSILL
 62
13
 10
924.988
 20
-7458.672
 30
241.022
 70
    32
  0
VERTEX
  8
T50SSILL
 62
13
 10
915.933
 20
-7421.623
 30
241.286
 70
    32
  0
VERTEX
  8
T50SSILL
 62
13
 10
926.610
 20
-7407.314
 30
241.448
 70
    32
  0
VERTEX
  8
T50SSILL
 62
13
 10
1057.459
 20
-7313.275
 30
242.764
 70
    32
  0
VERTEX
  8
T50SSILL
 62
13
 10
1052.439
 20
-7306.393
 30
242.799
 70
    32
  0
VERTEX
  8
T50SSILL
 62
13
 10
1018.841
 20
-7329.745
 30
242.467
 70
    32
  0
VERTEX
  8
T50SSILL
 62
13
 10
1015.483
 20
-7328.770
 30
242.461
 70
    32
  0
VERTEX
  8
T50SSILL
 62
13
 10
1009.166
 20
-7305.766
 30
242.623
 70
    32
  0
VERTEX
  8
T50SSILL
 62
13
 10
1015.736
 20
-7303.213
 30
242.671
 70
    32
  0
VERTEX
  8
T50SSILL
 62
13
 10
1022.543
 20
-7295.783
 30
242.760
 70
    32
  0
VERTEX
  8
T50SSILL
 62
13
 10
1019.659
 20
-7282.911
 30
242.853
 70
    32
  0
VERTEX
  8
T50SSILL
 62
13
 10
1021.468
 20
-7279.827
 30
242.901
 70
    32
  0
VERTEX
  8
T50SSILL
 62
13
 10
1016.520
 20
-7267.219
 30
243.028
 70
    32
  0
VERTEX
  8
T50SSILL
 62
13
 10
1017.796
 20
-7265.364
 30
243.058
 70
    32
  0
VERTEX
  8
T50SSILL
 62
13
 10
1012.912
 20
-7259.136
 30
243.107
 70
    32
  0
VERTEX
  8
T50SSILL
 62
13
 10
994.842
 20
-7259.331
 30
243.006
 70
    32
  0
VERTEX
  8
T50SSILL
 62
13
 10
982.982
 20
-7263.970
 30
242.884
 70
    32
  0
VERTEX
  8
T50SSILL
 62
13
 10
981.257
 20
-7263.033
 30
242.886
 70
    32
  0
VERTEX
  8
T50SSILL
 62
13
 10
968.266
 20
-7244.582
 30
243.041
 70
    32
  0
VERTEX
  8
T50SSILL
 62
13
 10
973.475
 20
-7237.625
 30
243.155
 70
    32
  0
VERTEX
  8
T50SSILL
 62
13
 10
962.698
 20
-7226.944
 30
243.227
 70
    32
  0
VERTEX
  8
T50SSILL
 62
13
 10
951.347
 20
-7226.945
 30
243.165
 70
    32
  0
VERTEX
  8
T50SSILL
 62
13
 10
940.148
 20
-7232.837
 30
243.031
 70
    32
  0
VERTEX
  8
T50SSILL
 62
13
 10
940.393
 20
-7244.232
 30
242.893
 70
    32
  0
VERTEX
  8
T50SSILL
 62
13
 10
930.290
 20
-7253.535
 30
242.724
 70
    32
  0
VERTEX
  8
T50SSILL
 62
13
 10
927.659
 20
-7252.374
 30
242.724
 70
    32
  0
VERTEX
  8
T50SSILL
 62
13
 10
932.078
 20
-7225.728
 30
243.074
 70
    32
  0
VERTEX
  8
T50SSILL
 62
13
 10
940.590
 20
-7218.286
 30
243.212
 70
    32
  0
VERTEX
  8
T50SSILL
 62
13
 10
934.876
 20
-7201.821
 30
243.383
 70
    32
  0
VERTEX
  8
T50SSILL
 62
13
 10
925.842
 20
-7189.496
 30
243.484
 70
    32
  0
VERTEX
  8
T50SSILL
 62
13
 10
917.874
 20
-7181.459
 30
243.539
 70
    32
  0
VERTEX
  8
T50SSILL
 62
13
 10
902.667
 20
-7182.224
 30
243.447
 70
    32
  0
VERTEX
  8
T50SSILL
 62
13
 10
890.536
 20
-7191.230
 30
243.270
 70
    32
  0
VERTEX
  8
T50SSILL
 62
13
 10
885.198
 20
-7191.102
 30
243.242
 70
    32
  0
VERTEX
  8
T50SSILL
 62
13
 10
861.671
 20
-7177.651
 30
243.278
 70
    32
  0
VERTEX
  8
T50SSILL
 62
13
 10
847.512
 20
-7173.937
 30
243.246
 70
    32
  0
VERTEX
  8
T50SSILL
 62
13
 10
843.716
 20
-7160.524
 30
243.470
 70
    32
  0
VERTEX
  8
T50SSILL
 62
13
 10
847.088
 20
-7155.385
 30
243.548
 70
    32
  0
VERTEX
  8
T50SSILL
 62
13
 10
843.542
 20
-7149.079
 30
243.696
 70
    32
  0
VERTEX
  8
T50SSILL
 62
13
 10
840.399
 20
-7149.025
 30
243.719
 70
    32
  0
VERTEX
  8
T50SSILL
 62
13
 10
833.426
 20
-7121.553
 30
244.171
 70
    32
  0
VERTEX
  8
T50SSILL
 62
13
 10
824.812
 20
-7124.248
 30
244.171
 70
    32
  0
VERTEX
  8
T50SSILL
 62
13
 10
831.818
 20
-7148.699
 30
243.785
 70
    32
  0
VERTEX
  8
T50SSILL
 62
13
 10
830.529
 20
-7149.920
 30
243.770
 70
    32
  0
VERTEX
  8
T50SSILL
 62
13
 10
830.424
 20
-7159.739
 30
243.578
 70
    32
  0
VERTEX
  8
T50SSILL
 62
13
 10
835.095
 20
-7162.902
 30
243.484
 70
    32
  0
VERTEX
  8
T50SSILL
 62
13
 10
856.496
 20
-7246.160
 30
242.469
 70
    32
  0
VERTEX
  8
T50SSILL
 62
13
 10
851.516
 20
-7254.671
 30
242.379
 70
    32
  0
VERTEX
  8
T50SSILL
 62
13
 10
861.259
 20
-7263.717
 30
242.346
 70
    32
  0
VERTEX
  8
T50SSILL
 62
13
 10
885.119
 20
-7353.718
 30
241.711
 70
    32
  0
VERTEX
  8
T50SSILL
 62
13
 10
882.784
 20
-7364.023
 30
241.618
 70
    32
  0
VERTEX
  8
T50SSILL
 62
13
 10
886.166
 20
-7368.408
 30
241.596
 70
    32
  0
VERTEX
  8
T50SSILL
 62
13
 10
884.273
 20
-7369.837
 30
241.576
 70
    32
  0
VERTEX
  8
T50SSILL
 62
13
 10
867.382
 20
-7359.142
 30
241.750
 70
    32
  0
VERTEX
  8
T50SSILL
 62
13
 10
860.943
 20
-7347.467
 30
241.880
 70
    32
  0
VERTEX
  8
T50SSILL
 62
13
 10
851.589
 20
-7307.843
 30
241.945
 70
    32
  0
VERTEX
  8
T50SSILL
 62
13
 10
844.077
 20
-7291.563
 30
242.071
 70
    32
  0
VERTEX
  8
T50SSILL
 62
13
 10
796.163
 20
-7141.038
 30
244.088
 70
    32
  0
VERTEX
  8
T50SSILL
 62
13
 10
795.540
 20
-7132.478
 30
244.179
 70
    32
  0
VERTEX
  8
T50SSILL
 62
13
 10
798.262
 20
-7124.259
 30
244.257
 70
    32
  0
VERTEX
  8
T50SSILL
 62
13
 10
803.380
 20
-7115.331
 30
244.333
 70
    32
  0
VERTEX
  8
T50SSILL
 62
13
 10
809.746
 20
-7108.959
 30
244.379
 70
    32
  0
VERTEX
  8
T50SSILL
 62
13
 10
822.926
 20
-7103.659
 30
244.392
 70
    32
  0
VERTEX
  8
T50SSILL
 62
13
 10
846.516
 20
-7108.852
 30
244.262
 70
    32
  0
VERTEX
  8
T50SSILL
 62
13
 10
852.854
 20
-7095.843
 30
244.562
 70
    32
  0
VERTEX
  8
T50SSILL
 62
13
 10
830.457
 20
-7096.308
 30
244.480
 70
    32
  0
VERTEX
  8
T50SSILL
 62
13
 10
822.157
 20
-7092.139
 30
244.554
 70
    32
  0
VERTEX
  8
T50SSILL
 62
13
 10
806.977
 20
-7096.863
 30
244.515
 70
    32
  0
VERTEX
  8
T50SSILL
 62
13
 10
798.107
 20
-7103.485
 30
244.474
 70
    32
  0
VERTEX
  8
T50SSILL
 62
13
 10
789.460
 20
-7115.948
 30
244.372
 70
    32
  0
VERTEX
  8
T50SSILL
 62
13
 10
786.172
 20
-7140.839
 30
244.122
 70
    32
  0
VERTEX
  8
T50SSILL
 62
13
 10
788.911
 20
-7153.812
 30
243.954
 70
    32
  0
VERTEX
  8
T50SSILL
 62
13
 10
785.046
 20
-7156.404
 30
244.011
 70
    32
  0
VERTEX
  8
T50SSILL
 62
13
 10
776.563
 20
-7151.618
 30
244.289
 70
    32
  0
VERTEX
  8
T50SSILL
 62
13
 10
768.669
 20
-7142.459
 30
244.138
 70
    32
  0
VERTEX
  8
T50SSILL
 62
13
 10
737.127
 20
-7130.106
 30
243.906
 70
    32
  0
VERTEX
  8
T50SSILL
 62
13
 10
729.805
 20
-7123.760
 30
243.967
 70
    32
  0
VERTEX
  8
T50SSILL
 62
13
 10
712.137
 20
-7095.081
 30
244.623
 70
    32
  0
VERTEX
  8
T50SSILL
 62
13
 10
708.033
 20
-7085.524
 30
244.845
 70
    32
  0
VERTEX
  8
T50SSILL
 62
13
 10
706.431
 20
-7077.861
 30
244.984
 70
    32
  0
VERTEX
  8
T50SSILL
 62
13
 10
708.022
 20
-7058.974
 30
245.196
 70
    32
  0
VERTEX
  8
T50SSILL
 62
13
 10
715.925
 20
-7042.532
 30
245.427
 70
    32
  0
VERTEX
  8
T50SSILL
 62
13
 10
719.935
 20
-7020.832
 30
245.903
 70
    32
  0
VERTEX
  8
T50SSILL
 62
13
 10
757.849
 20
-6972.985
 30
246.946
 70
    32
  0
VERTEX
  8
T50SSILL
 62
13
 10
748.635
 20
-6968.266
 30
247.201
 70
    32
  0
VERTEX
  8
T50SSILL
 62
13
 10
726.686
 20
-6996.532
 30
246.440
 70
    32
  0
VERTEX
  8
T50SSILL
 62
13
 10
722.588
 20
-6994.714
 30
246.471
 70
    32
  0
VERTEX
  8
T50SSILL
 62
13
 10
720.638
 20
-6987.625
 30
246.621
 70
    32
  0
VERTEX
  8
T50SSILL
 62
13
 10
658.362
 20
-6881.677
 30
249.099
 70
    32
  0
VERTEX
  8
T50SSILL
 62
13
 10
649.906
 20
-6886.016
 30
249.075
 70
    32
  0
VERTEX
  8
T50SSILL
 62
13
 10
660.644
 20
-6905.076
 30
248.635
 70
    32
  0
VERTEX
  8
T50SSILL
 62
13
 10
645.246
 20
-6902.655
 30
248.314
 70
    32
  0
VERTEX
  8
T50SSILL
 62
13
 10
643.912
 20
-6911.940
 30
248.111
 70
    32
  0
VERTEX
  8
T50SSILL
 62
13
 10
665.978
 20
-6914.095
 30
248.199
 70
    32
  0
VERTEX
  8
T50SSILL
 62
13
 10
707.149
 20
-6989.012
 30
246.566
 70
    32
  0
VERTEX
  8
T50SSILL
 62
13
 10
709.606
 20
-7009.249
 30
246.133
 70
    32
  0
VERTEX
  8
T50SSILL
 62
13
 10
704.084
 20
-7037.843
 30
245.506
 70
    32
  0
VERTEX
  8
T50SSILL
 62
13
 10
696.033
 20
-7057.600
 30
245.381
 70
    32
  0
VERTEX
  8
T50SSILL
 62
13
 10
693.932
 20
-7069.776
 30
245.312
 70
    32
  0
VERTEX
  8
T50SSILL
 62
13
 10
701.106
 20
-7097.535
 30
244.850
 70
    32
  0
VERTEX
  8
T50SSILL
 62
13
 10
708.330
 20
-7114.017
 30
244.463
 70
    32
  0
VERTEX
  8
T50SSILL
 62
13
 10
724.706
 20
-7134.709
 30
243.874
 70
    32
  0
VERTEX
  8
T50SSILL
 62
13
 10
751.637
 20
-7146.747
 30
244.381
 70
    32
  0
VERTEX
  8
T50SSILL
 62
13
 10
749.468
 20
-7150.082
 30
244.295
 70
    32
  0
VERTEX
  8
T50SSILL
 62
13
 10
682.739
 20
-7154.052
 30
244.537
 70
    32
  0
VERTEX
  8
T50SSILL
 62
13
 10
631.671
 20
-7172.765
 30
244.842
 70
    32
  0
VERTEX
  8
T50SSILL
 62
13
 10
608.038
 20
-7162.460
 30
244.990
 70
    32
  0
VERTEX
  8
T50SSILL
 62
13
 10
596.438
 20
-7152.156
 30
245.121
 70
    32
  0
VERTEX
  8
T50SSILL
 62
13
 10
580.666
 20
-7132.448
 30
245.364
 70
    32
  0
VERTEX
  8
T50SSILL
 62
13
 10
572.602
 20
-7097.798
 30
245.766
 70
    32
  0
VERTEX
  8
T50SSILL
 62
13
 10
473.566
 20
-6839.646
 30
248.562
 70
    32
  0
VERTEX
  8
T50SSILL
 62
13
 10
399.598
 20
-6646.840
 30
253.901
 70
    32
  0
VERTEX
  8
T50SSILL
 62
13
 10
406.378
 20
-6619.752
 30
254.724
 70
    32
  0
VERTEX
  8
T50SSILL
 62
13
 10
401.854
 20
-6604.519
 30
254.996
 70
    32
  0
VERTEX
  8
T50SSILL
 62
13
 10
394.132
 20
-6622.878
 30
254.741
 70
    32
  0
VERTEX
  8
T50SSILL
 62
13
 10
390.956
 20
-6622.593
 30
254.763
 70
    32
  0
VERTEX
  8
T50SSILL
 62
13
 10
363.907
 20
-6549.766
 30
256.091
 70
    32
  0
VERTEX
  8
T50SSILL
 62
13
 10
363.404
 20
-6540.139
 30
256.249
 70
    32
  0
VERTEX
  8
T50SSILL
 62
13
 10
367.096
 20
-6530.516
 30
256.384
 70
    32
  0
VERTEX
  8
T50SSILL
 62
13
 10
358.739
 20
-6522.558
 30
256.559
 70
    32
  0
VERTEX
  8
T50SSILL
 62
13
 10
354.234
 20
-6520.519
 30
256.617
 70
    32
  0
VERTEX
  8
T50SSILL
 62
13
 10
287.282
 20
-6345.845
 30
258.275
 70
    32
  0
VERTEX
  8
T50SSILL
 62
13
 10
289.400
 20
-6334.600
 30
258.093
 70
    32
  0
VERTEX
  8
T50SSILL
 62
13
 10
301.000
 20
-6329.200
 30
257.619
 70
    32
  0
VERTEX
  8
T50SSILL
 62
13
 10
298.700
 20
-6321.700
 30
257.634
 70
    32
  0
VERTEX
  8
T50SSILL
 62
13
 10
294.200
 20
-6310.700
 30
257.696
 70
    32
  0
VERTEX
  8
T50SSILL
 62
13
 10
290.600
 20
-6311.400
 30
257.833
 70
    32
  0
VERTEX
  8
T50SSILL
 62
13
 10
286.000
 20
-6309.900
 30
257.988
 70
    32
  0
VERTEX
  8
T50SSILL
 62
13
 10
279.600
 20
-6301.100
 30
258.142
 70
    32
  0
VERTEX
  8
T50SSILL
 62
13
 10
268.320
 20
-6296.376
 30
258.513
 70
    32
  0
VERTEX
  8
T50SSILL
 62
13
 10
265.468
 20
-6289.815
 30
258.551
 70
    32
  0
VERTEX
  8
T50SSILL
 62
13
 10
265.597
 20
-6288.777
 30
259.000
 70
    32
  0
VERTEX
  8
T50SSILL
 62
13
 10
268.115
 20
-6275.631
 30
259.000
 70
    32
  0
VERTEX
  8
T50SSILL
 62
13
 10
268.986
 20
-6265.478
 30
259.000
 70
    32
  0
VERTEX
  8
T50SSILL
 62
13
 10
273.367
 20
-6252.891
 30
260.000
 70
    32
  0
VERTEX
  8
T50SSILL
 62
13
 10
286.458
 20
-6234.700
 30
260.000
 70
    32
  0
VERTEX
  8
T50SSILL
 62
13
 10
295.345
 20
-6225.112
 30
260.000
 70
    32
  0
VERTEX
  8
T50SSILL
 62
13
 10
295.579
 20
-6224.785
 30
260.349
 70
    32
  0
VERTEX
  8
T50SSILL
 62
13
 10
307.697
 20
-6215.896
 30
260.349
 70
    32
  0
VERTEX
  8
T50SSILL
 62
13
 10
309.278
 20
-6215.427
 30
260.349
 70
    32
  0
VERTEX
  8
T50SSILL
 62
13
 10
318.304
 20
-6214.312
 30
265.000
 70
    32
  0
VERTEX
  8
T50SSILL
 62
13
 10
325.964
 20
-6211.606
 30
270.000
 70
    32
  0
VERTEX
  8
T50SSILL
 62
13
 10
332.375
 20
-6208.912
 30
270.000
 70
    32
  0
VERTEX
  8
T50SSILL
 62
13
 10
341.063
 20
-6203.653
 30
271.000
 70
    32
  0
VERTEX
  8
T50SSILL
 62
13
 10
343.651
 20
-6202.646
 30
271.000
 70
    32
  0
VERTEX
  8
T50SSILL
 62
13
 10
341.769
 20
-6194.353
 30
271.000
 70
    32
  0
VERTEX
  8
T50SSILL
 62
13
 10
333.332
 20
-6186.477
 30
271.000
 70
    32
  0
VERTEX
  8
T50SSILL
 62
13
 10
330.316
 20
-6190.229
 30
271.000
 70
    32
  0
VERTEX
  8
T50SSILL
 62
13
 10
319.504
 20
-6197.985
 30
270.000
 70
    32
  0
VERTEX
  8
T50SSILL
 62
13
 10
316.010
 20
-6199.583
 30
267.000
 70
    32
  0
VERTEX
  8
T50SSILL
 62
13
 10
310.192
 20
-6201.160
 30
262.474
 70
    32
  0
VERTEX
  8
T50SSILL
 62
13
 10
306.237
 20
-6204.984
 30
260.362
 70
    32
  0
VERTEX
  8
T50SSILL
 62
13
 10
299.846
 20
-6207.619
 30
260.400
 70
    32
  0
VERTEX
  8
T50SSILL
 62
13
 10
296.122
 20
-6211.248
 30
260.400
 70
    32
  0
VERTEX
  8
T50SSILL
 62
13
 10
292.888
 20
-6211.587
 30
260.400
 70
    32
  0
VERTEX
  8
T50SSILL
 62
13
 10
288.045
 20
-6218.056
 30
260.400
 70
    32
  0
VERTEX
  8
T50SSILL
 62
13
 10
284.753
 20
-6218.682
 30
260.400
 70
    32
  0
VERTEX
  8
T50SSILL
 62
13
 10
284.086
 20
-6219.073
 30
260.000
 70
    32
  0
VERTEX
  8
T50SSILL
 62
13
 10
274.955
 20
-6231.019
 30
260.000
 70
    32
  0
VERTEX
  8
T50SSILL
 62
13
 10
267.098
 20
-6244.276
 30
260.000
 70
    32
  0
VERTEX
  8
T50SSILL
 62
13
 10
261.077
 20
-6254.516
 30
260.000
 70
    32
  0
VERTEX
  8
T50SSILL
 62
13
 10
253.646
 20
-6255.993
 30
259.000
 70
    32
  0
VERTEX
  8
T50SSILL
 62
13
 10
252.840
 20
-6256.134
 30
258.746
 70
    32
  0
VERTEX
  8
T50SSILL
 62
13
 10
212.017
 20
-6149.484
 30
259.362
 70
    32
  0
VERTEX
  8
T50SSILL
 62
13
 10
216.969
 20
-6132.373
 30
259.501
 70
    32
  0
VERTEX
  8
T50SSILL
 62
13
 10
232.317
 20
-6109.222
 30
259.625
 70
    32
  0
VERTEX
  8
T50SSILL
 62
13
 10
236.588
 20
-6117.048
 30
259.506
 70
    32
  0
VERTEX
  8
T50SSILL
 62
13
 10
233.107
 20
-6139.757
 30
259.144
 70
    32
  0
VERTEX
  8
T50SSILL
 62
13
 10
236.913
 20
-6140.987
 30
259.069
 70
    32
  0
VERTEX
  8
T50SSILL
 62
13
 10
239.540
 20
-6145.874
 30
258.945
 70
    32
  0
VERTEX
  8
T50SSILL
 62
13
 10
252.157
 20
-6150.599
 30
258.685
 70
    32
  0
VERTEX
  8
T50SSILL
 62
13
 10
256.935
 20
-6171.551
 30
258.240
 70
    32
  0
VERTEX
  8
T50SSILL
 62
13
 10
261.978
 20
-6175.864
 30
258.092
 70
    32
  0
VERTEX
  8
T50SSILL
 62
13
 10
269.245
 20
-6176.289
 30
257.984
 70
    32
  0
VERTEX
  8
T50SSILL
 62
13
 10
273.275
 20
-6174.762
 30
257.956
 70
    32
  0
VERTEX
  8
T50SSILL
 62
13
 10
269.941
 20
-6133.371
 30
258.749
 70
    32
  0
VERTEX
  8
T50SSILL
 62
13
 10
278.531
 20
-6124.402
 30
258.792
 70
    32
  0
VERTEX
  8
T50SSILL
 62
13
 10
271.278
 20
-6118.698
 30
258.996
 70
    32
  0
VERTEX
  8
T50SSILL
 62
13
 10
257.436
 20
-6100.661
 30
259.459
 70
    32
  0
VERTEX
  8
T50SSILL
 62
13
 10
257.189
 20
-6095.473
 30
259.506
 70
    32
  0
VERTEX
  8
T50SSILL
 62
13
 10
435.338
 20
-5996.994
 30
258.657
 70
    32
  0
VERTEX
  8
T50SSILL
 62
13
 10
429.500
 20
-5989.281
 30
258.779
 70
    32
  0
VERTEX
  8
T50SSILL
 62
13
 10
278.197
 20
-6075.428
 30
259.479
 70
    32
  0
VERTEX
  8
T50SSILL
 62
13
 10
257.001
 20
-6083.949
 30
259.607
 70
    32
  0
VERTEX
  8
T50SSILL
 62
13
 10
255.186
 20
-6080.212
 30
259.624
 70
    32
  0
VERTEX
  8
T50SSILL
 62
13
 10
259.474
 20
-6062.216
 30
259.608
 70
    32
  0
VERTEX
  8
T50SSILL
 62
13
 10
253.913
 20
-6058.850
 30
259.614
 70
    32
  0
VERTEX
  8
T50SSILL
 62
13
 10
249.071
 20
-6059.835
 30
259.621
 70
    32
  0
VERTEX
  8
T50SSILL
 62
13
 10
242.153
 20
-6074.435
 30
259.639
 70
    32
  0
VERTEX
  8
T50SSILL
 62
13
 10
244.736
 20
-6079.527
 30
259.638
 70
    32
  0
VERTEX
  8
T50SSILL
 62
13
 10
240.926
 20
-6089.382
 30
259.649
 70
    32
  0
VERTEX
  8
T50SSILL
 62
13
 10
225.406
 20
-6100.216
 30
259.677
 70
    32
  0
VERTEX
  8
T50SSILL
 62
13
 10
208.776
 20
-6123.474
 30
259.713
 70
    32
  0
VERTEX
  8
T50SSILL
 62
13
 10
205.183
 20
-6125.390
 30
259.719
 70
    32
  0
VERTEX
  8
T50SSILL
 62
13
 10
201.839
 20
-6120.640
 30
259.721
 70
    32
  0
VERTEX
  8
T50SSILL
 62
13
 10
180.790
 20
-6066.620
 30
259.722
 70
    32
  0
VERTEX
  8
T50SSILL
 62
13
 10
179.707
 20
-6064.831
 30
259.790
 70
    32
  0
VERTEX
  8
T50SSILL
 62
13
 10
176.432
 20
-6057.822
 30
259.790
 70
    32
  0
VERTEX
  8
T50SSILL
 62
13
 10
172.102
 20
-6054.089
 30
259.790
 70
    32
  0
VERTEX
  8
T50SSILL
 62
13
 10
152.435
 20
-6026.685
 30
259.790
 70
    32
  0
VERTEX
  8
T50SSILL
 62
13
 10
136.526
 20
-5997.292
 30
260.000
 70
    32
  0
VERTEX
  8
T50SSILL
 62
13
 10
126.520
 20
-6003.058
 30
260.000
 70
    32
  0
VERTEX
  8
T50SSILL
 62
13
 10
142.341
 20
-6032.986
 30
259.790
 70
    32
  0
VERTEX
  8
T50SSILL
 62
13
 10
163.365
 20
-6059.652
 30
259.790
 70
    32
  0
VERTEX
  8
T50SSILL
 62
13
 10
166.474
 20
-6064.969
 30
259.790
 70
    32
  0
VERTEX
  8
T50SSILL
 62
13
 10
169.618
 20
-6069.027
 30
259.790
 70
    32
  0
VERTEX
  8
T50SSILL
 62
13
 10
171.253
 20
-6070.504
 30
259.718
 70
    32
  0
VERTEX
  8
T50SSILL
 62
13
 10
220.777
 20
-6199.846
 30
259.115
 70
    32
  0
VERTEX
  8
T50SSILL
 62
13
 10
218.260
 20
-6204.435
 30
259.198
 70
    32
  0
VERTEX
  8
T50SSILL
 62
13
 10
224.617
 20
-6210.326
 30
258.999
 70
    32
  0
VERTEX
  8
T50SSILL
 62
13
 10
289.204
 20
-6379.500
 30
258.365
 70
    32
  0
VERTEX
  8
T50SSILL
 62
13
 10
285.653
 20
-6385.540
 30
258.203
 70
    32
  0
VERTEX
  8
T50SSILL
 62
13
 10
293.316
 20
-6390.222
 30
258.313
 70
    32
  0
VERTEX
  8
T50SSILL
 62
13
 10
418.550
 20
-6721.230
 30
252.711
 70
    32
  0
VERTEX
  8
T50SSILL
 62
13
 10
432.103
 20
-6757.052
 30
251.207
 70
    32
  0
VERTEX
  8
T50SSILL
 62
13
 10
432.615
 20
-6766.712
 30
251.692
 70
    32
  0
VERTEX
  8
T50SSILL
 62
13
 10
438.110
 20
-6771.807
 30
250.785
 70
    32
  0
VERTEX
  8
T50SSILL
 62
13
 10
483.989
 20
-6893.990
 30
248.046
 70
    32
  0
VERTEX
  8
T50SSILL
 62
13
 10
486.227
 20
-6902.900
 30
247.957
 70
    32
  0
VERTEX
  8
T50SSILL
 62
13
 10
483.760
 20
-6907.562
 30
248.022
 70
    32
  0
VERTEX
  8
T50SSILL
 62
13
 10
493.129
 20
-6921.624
 30
247.766
 70
    32
  0
VERTEX
  8
T50SSILL
 62
13
 10
540.752
 20
-7047.304
 30
246.377
 70
    32
  0
VERTEX
  8
T50SSILL
 62
13
 10
538.803
 20
-7054.914
 30
246.298
 70
    32
  0
VERTEX
  8
T50SSILL
 62
13
 10
551.151
 20
-7071.630
 30
246.089
 70
    32
  0
VERTEX
  8
T50SSILL
 62
13
 10
562.422
 20
-7102.392
 30
245.732
 70
    32
  0
VERTEX
  8
T50SSILL
 62
13
 10
567.430
 20
-7134.120
 30
245.435
 70
    32
  0
VERTEX
  8
T50SSILL
 62
13
 10
584.044
 20
-7155.064
 30
245.139
 70
    32
  0
VERTEX
  8
T50SSILL
 62
13
 10
600.973
 20
-7171.001
 30
244.903
 70
    32
  0
VERTEX
  8
T50SSILL
 62
13
 10
611.197
 20
-7175.535
 30
244.838
 70
    32
  0
VERTEX
  8
T50SSILL
 62
13
 10
612.187
 20
-7181.676
 30
244.767
 70
    32
  0
VERTEX
  8
T50SSILL
 62
13
 10
574.161
 20
-7227.605
 30
244.626
 70
    32
  0
VERTEX
  8
T50SSILL
 62
13
 10
564.130
 20
-7230.075
 30
244.677
 70
    32
  0
VERTEX
  8
T50SSILL
 62
13
 10
545.204
 20
-7241.054
 30
244.730
 70
    32
  0
VERTEX
  8
T50SSILL
 62
13
 10
552.609
 20
-7256.454
 30
244.594
 70
    32
  0
VERTEX
  8
T50SSILL
 62
13
 10
572.984
 20
-7265.571
 30
244.493
 70
    32
  0
VERTEX
  8
T50SSILL
 62
13
 10
582.532
 20
-7285.366
 30
244.390
 70
    32
  0
VERTEX
  8
T50SSILL
 62
13
 10
595.293
 20
-7282.528
 30
244.360
 70
    32
  0
VERTEX
  8
T50SSILL
 62
13
 10
593.125
 20
-7270.908
 30
244.407
 70
    32
  0
VERTEX
  8
T50SSILL
 62
13
 10
594.500
 20
-7259.642
 30
244.443
 70
    32
  0
VERTEX
  8
T50SSILL
 62
13
 10
590.307
 20
-7245.674
 30
244.507
 70
    32
  0
VERTEX
  8
T50SSILL
 62
13
 10
581.732
 20
-7240.123
 30
244.556
 70
    32
  0
VERTEX
  8
T50SSILL
 62
13
 10
581.070
 20
-7232.588
 30
244.585
 70
    32
  0
VERTEX
  8
T50SSILL
 62
13
 10
623.589
 20
-7189.346
 30
244.664
 70
    32
  0
VERTEX
  8
T50SSILL
 62
13
 10
684.755
 20
-7165.067
 30
244.592
 70
    32
  0
VERTEX
  8
T50SSILL
 62
13
 10
768.741
 20
-7160.506
 30
244.414
 70
    32
  0
VERTEX
  8
T50SSILL
 62
13
 10
784.951
 20
-7168.999
 30
243.896
 70
    32
  0
VERTEX
  8
T50SSILL
 62
13
 10
798.830
 20
-7184.582
 30
243.340
 70
    32
  0
VERTEX
  8
T50SSILL
 62
13
 10
833.896
 20
-7293.853
 30
242.400
 70
    32
  0
VERTEX
  8
T50SSILL
 62
13
 10
832.720
 20
-7302.598
 30
242.488
 70
    32
  0
VERTEX
  8
T50SSILL
 62
13
 10
839.736
 20
-7312.800
 30
242.331
 70
    32
  0
VERTEX
  8
T50SSILL
 62
13
 10
849.217
 20
-7342.483
 30
242.214
 70
    32
  0
VERTEX
  8
T50SSILL
 62
13
 10
849.536
 20
-7358.431
 30
242.298
 70
    32
  0
VERTEX
  8
T50SSILL
 62
13
 10
860.069
 20
-7369.068
 30
242.035
 70
    32
  0
VERTEX
  8
T50SSILL
 62
13
 10
884.905
 20
-7382.246
 30
241.478
 70
    32
  0
VERTEX
  8
T50SSILL
 62
13
 10
894.381
 20
-7392.443
 30
241.434
 70
    32
  0
VERTEX
  8
T50SSILL
 62
13
 10
897.038
 20
-7402.690
 30
241.362
 70
    32
  0
VERTEX
  8
T50SSILL
 62
13
 10
885.238
 20
-7404.503
 30
241.466
 70
    32
  0
VERTEX
  8
T50SSILL
 62
13
 10
877.802
 20
-7397.380
 30
241.654
 70
    32
  0
VERTEX
  8
T50SSILL
 62
13
 10
869.187
 20
-7401.146
 30
241.959
 70
    32
  0
VERTEX
  8
T50SSILL
 62
13
 10
870.102
 20
-7406.290
 30
241.977
 70
    32
  0
VERTEX
  8
T50SSILL
 62
13
 10
867.322
 20
-7415.192
 30
242.174
 70
    32
  0
VERTEX
  8
T50SSILL
 62
13
 10
877.696
 20
-7437.719
 30
242.006
 70
    32
  0
VERTEX
  8
T50SSILL
 62
13
 10
896.179
 20
-7435.202
 30
241.309
 70
    32
  0
VERTEX
  8
T50SSILL
 62
13
 10
906.306
 20
-7436.056
 30
241.128
 70
    32
  0
VERTEX
  8
T50SSILL
 62
13
 10
911.559
 20
-7458.303
 30
240.970
 70
    32
  0
VERTEX
  8
T50SSILL
 62
13
 10
910.635
 20
-7467.409
 30
241.053
 70
    32
  0
VERTEX
  8
T50SSILL
 62
13
 10
914.537
 20
-7469.931
 30
240.947
 70
    32
  0
VERTEX
  8
T50SSILL
 62
13
 10
922.615
 20
-7500.059
 30
240.923
 70
    32
  0
VERTEX
  8
T50SSILL
 62
13
 10
919.282
 20
-7508.169
 30
241.133
 70
    32
  0
VERTEX
  8
T50SSILL
 62
13
 10
910.654
 20
-7500.099
 30
241.381
 70
    32
  0
VERTEX
  8
T50SSILL
 62
13
 10
903.607
 20
-7507.646
 30
241.727
 70
    32
  0
VERTEX
  8
T50SSILL
 62
13
 10
915.613
 20
-7521.011
 30
241.404
 70
    32
  0
VERTEX
  8
T50SSILL
 62
13
 10
921.898
 20
-7552.712
 30
241.486
 70
    32
  0
VERTEX
  8
T50SSILL
 62
13
 10
925.202
 20
-7556.831
 30
241.402
 70
    32
  0
VERTEX
  8
T50SSILL
 62
13
 10
937.298
 20
-7565.412
 30
241.467
 70
    32
  0
VERTEX
  8
T50SSILL
 62
13
 10
937.645
 20
-7570.203
 30
241.514
 70
    32
  0
VERTEX
  8
T50SSILL
 62
13
 10
944.175
 20
-7577.102
 30
241.634
 70
    32
  0
VERTEX
  8
T50SSILL
 62
13
 10
949.902
 20
-7599.875
 30
241.893
 70
    32
  0
VERTEX
  8
T50SSILL
 62
13
 10
949.162
 20
-7611.851
 30
241.996
 70
    32
  0
VERTEX
  8
T50SSILL
 62
13
 10
951.170
 20
-7616.875
 30
242.004
 70
    32
  0
VERTEX
  8
T50SSILL
 62
13
 10
951.106
 20
-7621.845
 30
241.938
 70
    32
  0
VERTEX
  8
T50SSILL
 62
13
 10
960.657
 20
-7653.622
 30
241.404
 70
    32
  0
VERTEX
  8
T50SSILL
 62
13
 10
967.265
 20
-7667.534
 30
241.144
 70
    32
  0
VERTEX
  8
T50SSILL
 62
13
 10
964.724
 20
-7675.091
 30
241.071
 70
    32
  0
VERTEX
  8
T50SSILL
 62
13
 10
970.044
 20
-7677.802
 30
240.975
 70
    32
  0
VERTEX
  8
T50SSILL
 62
13
 10
974.221
 20
-7691.913
 30
240.738
 70
    32
  0
VERTEX
  8
T50SSILL
 62
13
 10
966.984
 20
-7709.923
 30
240.617
 70
    32
  0
VERTEX
  8
T50SSILL
 62
13
 10
910.206
 20
-7808.359
 30
241.159
 70
    32
  0
VERTEX
  8
T50SSILL
 62
13
 10
916.283
 20
-7811.303
 30
241.075
 70
    32
  0
VERTEX
  8
T50SSILL
 62
13
 10
937.839
 20
-7774.929
 30
240.623
 70
    32
  0
VERTEX
  8
T50SSILL
 62
13
 10
943.761
 20
-7779.576
 30
240.466
 70
    32
  0
VERTEX
  8
T50SSILL
 62
13
 10
947.634
 20
-7788.651
 30
240.360
 70
    32
  0
VERTEX
  8
T50SSILL
 62
13
 10
971.532
 20
-7822.725
 30
240.212
 70
    32
  0
VERTEX
  8
T50SSILL
 62
13
 10
973.999
 20
-7823.038
 30
240.172
 70
    32
  0
VERTEX
  8
T50SSILL
 62
13
 10
994.350
 20
-7840.527
 30
239.949
 70
    32
  0
VERTEX
  8
T50SSILL
 62
13
 10
1005.316
 20
-7843.043
 30
239.781
 70
    32
  0
VERTEX
  8
T50SSILL
 62
13
 10
1007.534
 20
-7840.852
 30
239.730
 70
    32
  0
VERTEX
  8
T50SSILL
 62
13
 10
1004.851
 20
-7829.340
 30
239.686
 70
    32
  0
SEQEND
  8
T50SSILL
  0
TEXT
  8
T50SSILL
 62
13
 10
3910.071
 20
-9525.327
 30
239.235
 40
0.200
  1
5000
 50
-54.274
 41
 1.0 
  0
TEXT
  8
T50SSILL
 62
13
 10
408.931
 20
-6588.353
 30
258.583
 40
0.200
  1
U
 41
 1.0 
  0
TEXT
  8
T50SSILL
 62
13
 10
1106.668
 20
-7439.453
 30
246.360
 40
0.200
  1
U
 41
 1.0 
  0
TEXT
  8
T50SSILL
 62
13
 10
879.816
 20
-7511.004
 30
237.146
 40
0.200
  1
D
 41
 1.0 
  0
TEXT
  8
T50SSILL
 62
13
 10
1314.596
 20
-6814.694
 30
237.237
 40
0.200
  1
5000
 50
-54.274
 41
 1.0 
  0
TEXT
  8
T50SSILL
 62
13
 10
689.747
 20
-7048.507
 30
246.360
 40
0.200
  1
U
 41
 1.0 
  0
ENDSEC
  0
EOF
