999
********************************
999
*   DXF File - Entities Only   *
999
*        3D Data Format        *
999
*     Output from ENVISAGE     *
999
*     20-Dec-2007 09:07:33     *
999
********************************
  0
SECTION 
  2
HEADER
  9
$ACADVER
  1
AC1009
  9
$EXTMIN
 10
-290000.000
 20
-250000.000
 30
-4000.000
  9
$EXTMAX
 10
5000000.000
 20
600000.000
 30
6000.000
  0
ENDSEC
  0
SECTION
  2
ENTITIES
  0
POLYLINE
  8
T05SSILL
 62
13
 66
     1
 70
     9
  0
VERTEX
  8
T05SSILL
 62
13
 10
-733.329
 20
327.143
 30
4729.320
 70
    32
  0
VERTEX
  8
T05SSILL
 62
13
 10
-728.144
 20
324.586
 30
4729.320
 70
    32
  0
VERTEX
  8
T05SSILL
 62
13
 10
-712.614
 20
296.780
 30
4729.320
 70
    32
  0
VERTEX
  8
T05SSILL
 62
13
 10
-712.794
 20
292.999
 30
4729.320
 70
    32
  0
VERTEX
  8
T05SSILL
 62
13
 10
-725.727
 20
287.738
 30
4729.320
 70
    32
  0
VERTEX
  8
T05SSILL
 62
13
 10
-728.452
 20
288.445
 30
4729.320
 70
    32
  0
VERTEX
  8
T05SSILL
 62
13
 10
-744.945
 20
320.034
 30
4729.320
 70
    32
  0
VERTEX
  8
T05SSILL
 62
13
 10
-744.238
 20
322.935
 30
4729.320
 70
    32
  0
SEQEND
  8
T05SSILL
  0
POLYLINE
  8
T05SSILL
 62
13
 66
     1
 70
     9
  0
VERTEX
  8
T05SSILL
 62
13
 10
-709.900
 20
287.015
 30
4729.320
 70
    32
  0
VERTEX
  8
T05SSILL
 62
13
 10
-705.857
 20
285.515
 30
4729.320
 70
    32
  0
VERTEX
  8
T05SSILL
 62
13
 10
-687.858
 20
262.454
 30
4729.320
 70
    32
  0
VERTEX
  8
T05SSILL
 62
13
 10
-687.600
 20
257.969
 30
4729.320
 70
    32
  0
VERTEX
  8
T05SSILL
 62
13
 10
-690.154
 20
254.983
 30
4729.320
 70
    32
  0
VERTEX
  8
T05SSILL
 62
13
 10
-704.319
 20
249.284
 30
4729.320
 70
    32
  0
VERTEX
  8
T05SSILL
 62
13
 10
-707.747
 20
250.168
 30
4729.320
 70
    32
  0
VERTEX
  8
T05SSILL
 62
13
 10
-722.924
 20
279.029
 30
4729.320
 70
    32
  0
VERTEX
  8
T05SSILL
 62
13
 10
-721.512
 20
282.897
 30
4729.320
 70
    32
  0
SEQEND
  8
T05SSILL
  0
POLYLINE
  8
T05SSILL
 62
13
 66
     1
 70
     9
  0
VERTEX
  8
T05SSILL
 62
13
 10
-634.997
 20
129.783
 30
4729.320
 70
    32
  0
VERTEX
  8
T05SSILL
 62
13
 10
-632.273
 20
128.197
 30
4729.320
 70
    32
  0
VERTEX
  8
T05SSILL
 62
13
 10
-620.614
 20
98.196
 30
4729.320
 70
    32
  0
VERTEX
  8
T05SSILL
 62
13
 10
-621.587
 20
93.801
 30
4729.320
 70
    32
  0
VERTEX
  8
T05SSILL
 62
13
 10
-630.206
 20
92.404
 30
4729.320
 70
    32
  0
VERTEX
  8
T05SSILL
 62
13
 10
-632.929
 20
95.398
 30
4729.320
 70
    32
  0
VERTEX
  8
T05SSILL
 62
13
 10
-646.345
 20
126.103
 30
4729.320
 70
    32
  0
VERTEX
  8
T05SSILL
 62
13
 10
-642.737
 20
128.473
 30
4729.320
 70
    32
  0
SEQEND
  8
T05SSILL
  0
POLYLINE
  8
T05SSILL
 62
13
 66
     1
 70
     9
  0
VERTEX
  8
T05SSILL
 62
13
 10
-688.715
 20
181.210
 30
4729.320
 70
    32
  0
VERTEX
  8
T05SSILL
 62
13
 10
-685.200
 20
182.366
 30
4729.320
 70
    32
  0
VERTEX
  8
T05SSILL
 62
13
 10
-682.105
 20
178.066
 30
4729.320
 70
    32
  0
VERTEX
  8
T05SSILL
 62
13
 10
-675.936
 20
175.448
 30
4729.320
 70
    32
  0
VERTEX
  8
T05SSILL
 62
13
 10
-642.173
 20
107.375
 30
4729.320
 70
    32
  0
VERTEX
  8
T05SSILL
 62
13
 10
-625.065
 20
21.469
 30
4729.320
 70
    32
  0
VERTEX
  8
T05SSILL
 62
13
 10
-494.868
 20
-295.626
 30
4729.320
 70
    32
  0
VERTEX
  8
T05SSILL
 62
13
 10
-506.026
 20
-300.241
 30
4729.320
 70
    32
  0
VERTEX
  8
T05SSILL
 62
13
 10
-503.808
 20
-305.689
 30
4729.320
 70
    32
  0
VERTEX
  8
T05SSILL
 62
13
 10
-492.472
 20
-301.513
 30
4729.320
 70
    32
  0
VERTEX
  8
T05SSILL
 62
13
 10
-462.832
 20
-372.768
 30
4729.320
 70
    32
  0
VERTEX
  8
T05SSILL
 62
13
 10
-466.685
 20
-378.061
 30
4729.320
 70
    32
  0
VERTEX
  8
T05SSILL
 62
13
 10
-532.329
 20
-351.984
 30
4729.320
 70
    32
  0
VERTEX
  8
T05SSILL
 62
13
 10
-658.181
 20
-44.199
 30
4729.320
 70
    32
  0
VERTEX
  8
T05SSILL
 62
13
 10
-711.712
 20
90.236
 30
4729.320
 70
    32
  0
SEQEND
  8
T05SSILL
  0
POLYLINE
  8
T05SSILL
 62
13
 66
     1
 70
     9
  0
VERTEX
  8
T05SSILL
 62
13
 10
-475.495
 20
-324.947
 30
4729.320
 70
    32
  0
VERTEX
  8
T05SSILL
 62
13
 10
-514.727
 20
-228.296
 30
4729.320
 70
    32
  0
VERTEX
  8
T05SSILL
 62
13
 10
-514.063
 20
-216.943
 30
4729.320
 70
    32
  0
VERTEX
  8
T05SSILL
 62
13
 10
-472.243
 20
-199.022
 30
4729.320
 70
    32
  0
VERTEX
  8
T05SSILL
 62
13
 10
-467.157
 20
-219.154
 30
4729.320
 70
    32
  0
VERTEX
  8
T05SSILL
 62
13
 10
-459.437
 20
-237.341
 30
4729.320
 70
    32
  0
VERTEX
  8
T05SSILL
 62
13
 10
-455.284
 20
-242.517
 30
4729.320
 70
    32
  0
VERTEX
  8
T05SSILL
 62
13
 10
-447.446
 20
-244.338
 30
4729.320
 70
    32
  0
VERTEX
  8
T05SSILL
 62
13
 10
-438.180
 20
-277.213
 30
4729.320
 70
    32
  0
VERTEX
  8
T05SSILL
 62
13
 10
-435.794
 20
-305.009
 30
4729.320
 70
    32
  0
VERTEX
  8
T05SSILL
 62
13
 10
-435.047
 20
-342.138
 30
4729.320
 70
    32
  0
SEQEND
  8
T05SSILL
  0
POLYLINE
  8
T05SSILL
 62
13
 66
     1
 70
     9
  0
VERTEX
  8
T05SSILL
 62
13
 10
-344.319
 20
-195.229
 30
4729.320
 70
    32
  0
VERTEX
  8
T05SSILL
 62
13
 10
-396.855
 20
-93.434
 30
4729.320
 70
    32
  0
VERTEX
  8
T05SSILL
 62
13
 10
-320.247
 20
-34.827
 30
4729.320
 70
    32
  0
VERTEX
  8
T05SSILL
 62
13
 10
-251.306
 20
-122.750
 30
4729.320
 70
    32
  0
SEQEND
  8
T05SSILL
  0
POLYLINE
  8
T05SSILL
 62
13
 66
     1
 70
     9
  0
VERTEX
  8
T05SSILL
 62
13
 10
-423.820
 20
-157.057
 30
4729.320
 70
    32
  0
VERTEX
  8
T05SSILL
 62
13
 10
-436.958
 20
-124.283
 30
4729.320
 70
    32
  0
VERTEX
  8
T05SSILL
 62
13
 10
-401.768
 20
-97.762
 30
4729.320
 70
    32
  0
VERTEX
  8
T05SSILL
 62
13
 10
-386.180
 20
-126.744
 30
4729.320
 70
    32
  0
SEQEND
  8
T05SSILL
  0
POLYLINE
  8
T05SSILL
 62
13
 66
     1
 70
     9
  0
VERTEX
  8
T05SSILL
 62
13
 10
-420.633
 20
-162.765
 30
4729.320
 70
    32
  0
VERTEX
  8
T05SSILL
 62
13
 10
-383.516
 20
-133.510
 30
4729.320
 70
    32
  0
VERTEX
  8
T05SSILL
 62
13
 10
-368.188
 20
-163.460
 30
4729.320
 70
    32
  0
VERTEX
  8
T05SSILL
 62
13
 10
-407.848
 20
-195.100
 30
4729.320
 70
    32
  0
SEQEND
  8
T05SSILL
  0
POLYLINE
  8
T05SSILL
 62
13
 66
     1
 70
     9
  0
VERTEX
  8
T05SSILL
 62
13
 10
-349.936
 20
-199.472
 30
4729.320
 70
    32
  0
VERTEX
  8
T05SSILL
 62
13
 10
-387.055
 20
-227.935
 30
4729.320
 70
    32
  0
VERTEX
  8
T05SSILL
 62
13
 10
-405.100
 20
-200.898
 30
4729.320
 70
    32
  0
VERTEX
  8
T05SSILL
 62
13
 10
-365.173
 20
-170.137
 30
4729.320
 70
    32
  0
SEQEND
  8
T05SSILL
  0
POLYLINE
  8
T05SSILL
 62
13
 66
     1
 70
     9
  0
VERTEX
  8
T05SSILL
 62
13
 10
-449.072
 20
-407.476
 30
4729.320
 70
    32
  0
VERTEX
  8
T05SSILL
 62
13
 10
-457.859
 20
-385.861
 30
4729.320
 70
    32
  0
VERTEX
  8
T05SSILL
 62
13
 10
-460.059
 20
-385.781
 30
4729.320
 70
    32
  0
VERTEX
  8
T05SSILL
 62
13
 10
-473.206
 20
-400.434
 30
4729.320
 70
    32
  0
VERTEX
  8
T05SSILL
 62
13
 10
-471.076
 20
-405.530
 30
4729.320
 70
    32
  0
VERTEX
  8
T05SSILL
 62
13
 10
-464.915
 20
-405.948
 30
4729.320
 70
    32
  0
SEQEND
  8
T05SSILL
  0
POLYLINE
  8
T05SSILL
 62
13
 66
     1
 70
     9
  0
VERTEX
  8
T05SSILL
 62
13
 10
-102.726
 20
-312.988
 30
4729.320
 70
    32
  0
VERTEX
  8
T05SSILL
 62
13
 10
-111.774
 20
-342.232
 30
4729.320
 70
    32
  0
VERTEX
  8
T05SSILL
 62
13
 10
-79.835
 20
-341.768
 30
4729.320
 70
    32
  0
SEQEND
  8
T05SSILL
  0
POLYLINE
  8
T05SSILL
 62
13
 66
     1
 70
     9
  0
VERTEX
  8
T05SSILL
 62
13
 10
1032.928
 20
352.218
 30
4729.320
 70
    32
  0
VERTEX
  8
T05SSILL
 62
13
 10
1041.478
 20
355.532
 30
4729.320
 70
    32
  0
VERTEX
  8
T05SSILL
 62
13
 10
1047.874
 20
356.436
 30
4729.320
 70
    32
  0
VERTEX
  8
T05SSILL
 62
13
 10
1052.049
 20
343.949
 30
4729.320
 70
    32
  0
VERTEX
  8
T05SSILL
 62
13
 10
1044.893
 20
341.274
 30
4729.320
 70
    32
  0
VERTEX
  8
T05SSILL
 62
13
 10
1040.130
 20
337.413
 30
4729.320
 70
    32
  0
VERTEX
  8
T05SSILL
 62
13
 10
1038.585
 20
330.446
 30
4729.320
 70
    32
  0
VERTEX
  8
T05SSILL
 62
13
 10
1036.199
 20
326.275
 30
4729.320
 70
    32
  0
VERTEX
  8
T05SSILL
 62
13
 10
1024.981
 20
329.765
 30
4729.320
 70
    32
  0
SEQEND
  8
T05SSILL
  0
POLYLINE
  8
T05SSILL
 62
13
 66
     1
 70
     9
  0
VERTEX
  8
T05SSILL
 62
13
 10
1062.380
 20
306.272
 30
4729.320
 70
    32
  0
VERTEX
  8
T05SSILL
 62
13
 10
1057.292
 20
310.837
 30
4729.320
 70
    32
  0
VERTEX
  8
T05SSILL
 62
13
 10
1045.076
 20
311.148
 30
4729.320
 70
    32
  0
VERTEX
  8
T05SSILL
 62
13
 10
1037.593
 20
307.150
 30
4729.320
 70
    32
  0
VERTEX
  8
T05SSILL
 62
13
 10
1036.422
 20
298.872
 30
4729.320
 70
    32
  0
VERTEX
  8
T05SSILL
 62
13
 10
1037.910
 20
294.243
 30
4729.320
 70
    32
  0
VERTEX
  8
T05SSILL
 62
13
 10
1054.583
 20
290.234
 30
4729.320
 70
    32
  0
VERTEX
  8
T05SSILL
 62
13
 10
1057.803
 20
291.960
 30
4729.320
 70
    32
  0
SEQEND
  8
T05SSILL
  0
POLYLINE
  8
T05SSILL
 62
13
 66
     1
 70
     9
  0
VERTEX
  8
T05SSILL
 62
13
 10
983.536
 20
210.003
 30
4729.320
 70
    32
  0
VERTEX
  8
T05SSILL
 62
13
 10
989.394
 20
211.600
 30
4729.320
 70
    32
  0
VERTEX
  8
T05SSILL
 62
13
 10
1011.289
 20
210.320
 30
4729.320
 70
    32
  0
VERTEX
  8
T05SSILL
 62
13
 10
993.317
 20
139.024
 30
4729.320
 70
    32
  0
VERTEX
  8
T05SSILL
 62
13
 10
972.485
 20
129.870
 30
4729.320
 70
    32
  0
VERTEX
  8
T05SSILL
 62
13
 10
965.000
 20
130.879
 30
4729.320
 70
    32
  0
VERTEX
  8
T05SSILL
 62
13
 10
958.568
 20
136.914
 30
4729.320
 70
    32
  0
SEQEND
  8
T05SSILL
  0
POLYLINE
  8
T05SSILL
 62
13
 66
     1
 70
     9
  0
VERTEX
  8
T05SSILL
 62
13
 10
-298.856
 20
-577.267
 30
4729.320
 70
    32
  0
VERTEX
  8
T05SSILL
 62
13
 10
-307.158
 20
-565.993
 30
4729.320
 70
    32
  0
VERTEX
  8
T05SSILL
 62
13
 10
-301.405
 20
-563.334
 30
4729.320
 70
    32
  0
VERTEX
  8
T05SSILL
 62
13
 10
-304.082
 20
-556.615
 30
4729.320
 70
    32
  0
VERTEX
  8
T05SSILL
 62
13
 10
-296.822
 20
-549.971
 30
4729.320
 70
    32
  0
VERTEX
  8
T05SSILL
 62
13
 10
-288.562
 20
-545.066
 30
4729.320
 70
    32
  0
VERTEX
  8
T05SSILL
 62
13
 10
-284.900
 20
-548.075
 30
4729.320
 70
    32
  0
VERTEX
  8
T05SSILL
 62
13
 10
-283.009
 20
-555.073
 30
4729.320
 70
    32
  0
VERTEX
  8
T05SSILL
 62
13
 10
-283.838
 20
-567.047
 30
4729.320
 70
    32
  0
SEQEND
  8
T05SSILL
  0
POLYLINE
  8
T05SSILL
 62
13
 66
     1
 70
     9
  0
VERTEX
  8
T05SSILL
 62
13
 10
-99.058
 20
-574.017
 30
4729.320
 70
    32
  0
VERTEX
  8
T05SSILL
 62
13
 10
-100.849
 20
-576.953
 30
4729.320
 70
    32
  0
VERTEX
  8
T05SSILL
 62
13
 10
-106.816
 20
-572.933
 30
4729.320
 70
    32
  0
VERTEX
  8
T05SSILL
 62
13
 10
-108.105
 20
-569.880
 30
4729.320
 70
    32
  0
SEQEND
  8
T05SSILL
  0
POLYLINE
  8
T05SSILL
 62
13
 66
     1
 70
     9
  0
VERTEX
  8
T05SSILL
 62
13
 10
-115.078
 20
-587.070
 30
4729.320
 70
    32
  0
VERTEX
  8
T05SSILL
 62
13
 10
-107.532
 20
-581.563
 30
4729.320
 70
    32
  0
VERTEX
  8
T05SSILL
 62
13
 10
-111.319
 20
-576.623
 30
4729.320
 70
    32
  0
VERTEX
  8
T05SSILL
 62
13
 10
-123.284
 20
-566.913
 30
4729.320
 70
    32
  0
VERTEX
  8
T05SSILL
 62
13
 10
-130.754
 20
-562.482
 30
4729.320
 70
    32
  0
VERTEX
  8
T05SSILL
 62
13
 10
-135.104
 20
-564.939
 30
4729.320
 70
    32
  0
VERTEX
  8
T05SSILL
 62
13
 10
-131.843
 20
-569.977
 30
4729.320
 70
    32
  0
VERTEX
  8
T05SSILL
 62
13
 10
-134.961
 20
-572.498
 30
4729.320
 70
    32
  0
VERTEX
  8
T05SSILL
 62
13
 10
-121.511
 20
-590.972
 30
4729.320
 70
    32
  0
SEQEND
  8
T05SSILL
  0
POLYLINE
  8
T05SSILL
 62
13
 66
     1
 70
     9
  0
VERTEX
  8
T05SSILL
 62
13
 10
-288.007
 20
-690.664
 30
4729.320
 70
    32
  0
VERTEX
  8
T05SSILL
 62
13
 10
-284.865
 20
-684.801
 30
4729.320
 70
    32
  0
VERTEX
  8
T05SSILL
 62
13
 10
-258.387
 20
-680.784
 30
4729.320
 70
    32
  0
VERTEX
  8
T05SSILL
 62
13
 10
-245.640
 20
-685.291
 30
4729.320
 70
    32
  0
VERTEX
  8
T05SSILL
 62
13
 10
-254.227
 20
-691.520
 30
4729.320
 70
    32
  0
VERTEX
  8
T05SSILL
 62
13
 10
-237.061
 20
-715.815
 30
4729.320
 70
    32
  0
VERTEX
  8
T05SSILL
 62
13
 10
-242.176
 20
-719.693
 30
4729.320
 70
    32
  0
VERTEX
  8
T05SSILL
 62
13
 10
-235.136
 20
-729.320
 30
4729.320
 70
    32
  0
VERTEX
  8
T05SSILL
 62
13
 10
-240.252
 20
-733.109
 30
4729.320
 70
    32
  0
VERTEX
  8
T05SSILL
 62
13
 10
-229.422
 20
-747.852
 30
4729.320
 70
    32
  0
VERTEX
  8
T05SSILL
 62
13
 10
-234.194
 20
-751.196
 30
4729.320
 70
    32
  0
VERTEX
  8
T05SSILL
 62
13
 10
-230.411
 20
-755.960
 30
4729.320
 70
    32
  0
VERTEX
  8
T05SSILL
 62
13
 10
-235.967
 20
-759.758
 30
4729.320
 70
    32
  0
VERTEX
  8
T05SSILL
 62
13
 10
-231.250
 20
-767.407
 30
4729.320
 70
    32
  0
VERTEX
  8
T05SSILL
 62
13
 10
-236.197
 20
-775.502
 30
4729.320
 70
    32
  0
VERTEX
  8
T05SSILL
 62
13
 10
-240.850
 20
-775.854
 30
4729.320
 70
    32
  0
SEQEND
  8
T05SSILL
  0
POLYLINE
  8
T05SSILL
 62
13
 66
     1
 70
     9
  0
VERTEX
  8
T05SSILL
 62
13
 10
126.511
 20
-854.902
 30
4729.320
 70
    32
  0
VERTEX
  8
T05SSILL
 62
13
 10
135.302
 20
-864.144
 30
4729.320
 70
    32
  0
VERTEX
  8
T05SSILL
 62
13
 10
202.468
 20
-914.752
 30
4729.320
 70
    32
  0
VERTEX
  8
T05SSILL
 62
13
 10
245.193
 20
-928.276
 30
4729.320
 70
    32
  0
VERTEX
  8
T05SSILL
 62
13
 10
265.386
 20
-926.663
 30
4729.320
 70
    32
  0
VERTEX
  8
T05SSILL
 62
13
 10
300.004
 20
-902.093
 30
4729.320
 70
    32
  0
VERTEX
  8
T05SSILL
 62
13
 10
304.289
 20
-891.548
 30
4729.320
 70
    32
  0
VERTEX
  8
T05SSILL
 62
13
 10
256.649
 20
-822.634
 30
4729.320
 70
    32
  0
VERTEX
  8
T05SSILL
 62
13
 10
225.849
 20
-821.282
 30
4729.320
 70
    32
  0
VERTEX
  8
T05SSILL
 62
13
 10
225.362
 20
-814.169
 30
4729.320
 70
    32
  0
VERTEX
  8
T05SSILL
 62
13
 10
240.326
 20
-815.029
 30
4729.320
 70
    32
  0
VERTEX
  8
T05SSILL
 62
13
 10
245.651
 20
-808.334
 30
4729.320
 70
    32
  0
VERTEX
  8
T05SSILL
 62
13
 10
227.973
 20
-784.840
 30
4729.320
 70
    32
  0
VERTEX
  8
T05SSILL
 62
13
 10
185.788
 20
-813.774
 30
4729.320
 70
    32
  0
SEQEND
  8
T05SSILL
  0
POLYLINE
  8
T05SSILL
 62
13
 66
     1
 70
     9
  0
VERTEX
  8
T05SSILL
 62
13
 10
339.517
 20
-843.401
 30
4729.320
 70
    32
  0
VERTEX
  8
T05SSILL
 62
13
 10
333.559
 20
-849.141
 30
4729.320
 70
    32
  0
VERTEX
  8
T05SSILL
 62
13
 10
331.867
 20
-852.690
 30
4729.320
 70
    32
  0
VERTEX
  8
T05SSILL
 62
13
 10
340.991
 20
-856.211
 30
4729.320
 70
    32
  0
VERTEX
  8
T05SSILL
 62
13
 10
345.739
 20
-856.209
 30
4729.320
 70
    32
  0
VERTEX
  8
T05SSILL
 62
13
 10
348.428
 20
-849.652
 30
4729.320
 70
    32
  0
SEQEND
  8
T05SSILL
  0
POLYLINE
  8
T05SSILL
 62
13
 66
     1
 70
     9
  0
VERTEX
  8
T05SSILL
 62
13
 10
891.448
 20
-308.215
 30
4729.320
 70
    32
  0
VERTEX
  8
T05SSILL
 62
13
 10
902.566
 20
-311.616
 30
4729.320
 70
    32
  0
VERTEX
  8
T05SSILL
 62
13
 10
914.420
 20
-309.706
 30
4729.320
 70
    32
  0
VERTEX
  8
T05SSILL
 62
13
 10
921.194
 20
-305.817
 30
4729.320
 70
    32
  0
VERTEX
  8
T05SSILL
 62
13
 10
922.821
 20
-297.570
 30
4729.320
 70
    32
  0
VERTEX
  8
T05SSILL
 62
13
 10
921.030
 20
-286.859
 30
4729.320
 70
    32
  0
VERTEX
  8
T05SSILL
 62
13
 10
915.422
 20
-281.719
 30
4729.320
 70
    32
  0
VERTEX
  8
T05SSILL
 62
13
 10
912.624
 20
-276.151
 30
4729.320
 70
    32
  0
VERTEX
  8
T05SSILL
 62
13
 10
905.046
 20
-273.182
 30
4729.320
 70
    32
  0
VERTEX
  8
T05SSILL
 62
13
 10
893.860
 20
-273.752
 30
4729.320
 70
    32
  0
VERTEX
  8
T05SSILL
 62
13
 10
888.435
 20
-278.574
 30
4729.320
 70
    32
  0
VERTEX
  8
T05SSILL
 62
13
 10
885.689
 20
-287.822
 30
4729.320
 70
    32
  0
VERTEX
  8
T05SSILL
 62
13
 10
886.319
 20
-294.772
 30
4729.320
 70
    32
  0
SEQEND
  8
T05SSILL
  0
POLYLINE
  8
T05SSILL
 62
13
 66
     1
 70
     9
  0
VERTEX
  8
T05SSILL
 62
13
 10
933.704
 20
-305.299
 30
4729.320
 70
    32
  0
VERTEX
  8
T05SSILL
 62
13
 10
945.304
 20
-303.749
 30
4729.320
 70
    32
  0
VERTEX
  8
T05SSILL
 62
13
 10
943.566
 20
-294.976
 30
4729.320
 70
    32
  0
VERTEX
  8
T05SSILL
 62
13
 10
938.496
 20
-290.175
 30
4729.320
 70
    32
  0
VERTEX
  8
T05SSILL
 62
13
 10
932.712
 20
-288.304
 30
4729.320
 70
    32
  0
VERTEX
  8
T05SSILL
 62
13
 10
930.297
 20
-290.310
 30
4729.320
 70
    32
  0
SEQEND
  8
T05SSILL
  0
POLYLINE
  8
T05SSILL
 62
13
 66
     1
 70
     9
  0
VERTEX
  8
T05SSILL
 62
13
 10
1229.918
 20
-167.662
 30
4729.320
 70
    32
  0
VERTEX
  8
T05SSILL
 62
13
 10
1148.457
 20
-162.474
 30
4729.320
 70
    32
  0
VERTEX
  8
T05SSILL
 62
13
 10
1125.642
 20
-131.167
 30
4729.320
 70
    32
  0
VERTEX
  8
T05SSILL
 62
13
 10
1128.806
 20
-111.325
 30
4729.320
 70
    32
  0
VERTEX
  8
T05SSILL
 62
13
 10
1143.055
 20
-113.141
 30
4729.320
 70
    32
  0
VERTEX
  8
T05SSILL
 62
13
 10
1157.552
 20
-111.070
 30
4729.320
 70
    32
  0
VERTEX
  8
T05SSILL
 62
13
 10
1171.622
 20
-119.242
 30
4729.320
 70
    32
  0
VERTEX
  8
T05SSILL
 62
13
 10
1175.059
 20
-119.149
 30
4729.320
 70
    32
  0
VERTEX
  8
T05SSILL
 62
13
 10
1181.048
 20
-112.370
 30
4729.320
 70
    32
  0
VERTEX
  8
T05SSILL
 62
13
 10
1193.661
 20
-115.643
 30
4729.320
 70
    32
  0
VERTEX
  8
T05SSILL
 62
13
 10
1199.422
 20
-106.931
 30
4729.320
 70
    32
  0
VERTEX
  8
T05SSILL
 62
13
 10
1210.696
 20
-109.622
 30
4729.320
 70
    32
  0
VERTEX
  8
T05SSILL
 62
13
 10
1218.689
 20
-105.171
 30
4729.320
 70
    32
  0
VERTEX
  8
T05SSILL
 62
13
 10
1227.503
 20
-104.930
 30
4729.320
 70
    32
  0
VERTEX
  8
T05SSILL
 62
13
 10
1238.017
 20
-95.912
 30
4729.320
 70
    32
  0
VERTEX
  8
T05SSILL
 62
13
 10
1238.504
 20
-81.434
 30
4729.320
 70
    32
  0
VERTEX
  8
T05SSILL
 62
13
 10
1241.685
 20
-71.910
 30
4729.320
 70
    32
  0
VERTEX
  8
T05SSILL
 62
13
 10
1252.439
 20
-68.442
 30
4729.320
 70
    32
  0
VERTEX
  8
T05SSILL
 62
13
 10
1255.031
 20
-59.993
 30
4729.320
 70
    32
  0
VERTEX
  8
T05SSILL
 62
13
 10
1267.345
 20
-58.775
 30
4729.320
 70
    32
  0
SEQEND
  8
T05SSILL
  0
POLYLINE
  8
T05SSILL
 62
13
 66
     1
 70
     9
  0
VERTEX
  8
T05SSILL
 62
13
 10
1131.541
 20
-82.233
 30
4729.320
 70
    32
  0
VERTEX
  8
T05SSILL
 62
13
 10
1133.894
 20
-71.496
 30
4729.320
 70
    32
  0
VERTEX
  8
T05SSILL
 62
13
 10
1139.570
 20
-59.699
 30
4729.320
 70
    32
  0
VERTEX
  8
T05SSILL
 62
13
 10
1144.657
 20
-55.415
 30
4729.320
 70
    32
  0
VERTEX
  8
T05SSILL
 62
13
 10
1149.654
 20
-54.309
 30
4729.320
 70
    32
  0
VERTEX
  8
T05SSILL
 62
13
 10
1155.858
 20
-58.638
 30
4729.320
 70
    32
  0
VERTEX
  8
T05SSILL
 62
13
 10
1164.242
 20
-74.991
 30
4729.320
 70
    32
  0
VERTEX
  8
T05SSILL
 62
13
 10
1151.804
 20
-78.152
 30
4729.320
 70
    32
  0
SEQEND
  8
T05SSILL
  0
POLYLINE
  8
T05SSILL
 62
13
 66
     1
 70
     9
  0
VERTEX
  8
T05SSILL
 62
13
 10
987.972
 20
-70.005
 30
4729.320
 70
    32
  0
VERTEX
  8
T05SSILL
 62
13
 10
962.514
 20
-51.736
 30
4729.320
 70
    32
  0
VERTEX
  8
T05SSILL
 62
13
 10
958.924
 20
-39.751
 30
4729.320
 70
    32
  0
VERTEX
  8
T05SSILL
 62
13
 10
952.157
 20
-27.675
 30
4729.320
 70
    32
  0
VERTEX
  8
T05SSILL
 62
13
 10
951.118
 20
-15.444
 30
4729.320
 70
    32
  0
VERTEX
  8
T05SSILL
 62
13
 10
948.305
 20
-6.083
 30
4729.320
 70
    32
  0
VERTEX
  8
T05SSILL
 62
13
 10
1024.325
 20
-9.039
 30
4729.320
 70
    32
  0
VERTEX
  8
T05SSILL
 62
13
 10
1032.362
 20
-22.403
 30
4729.320
 70
    32
  0
VERTEX
  8
T05SSILL
 62
13
 10
1040.649
 20
-31.967
 30
4729.320
 70
    32
  0
VERTEX
  8
T05SSILL
 62
13
 10
1044.726
 20
-39.176
 30
4729.320
 70
    32
  0
VERTEX
  8
T05SSILL
 62
13
 10
1029.491
 20
-49.734
 30
4729.320
 70
    32
  0
VERTEX
  8
T05SSILL
 62
13
 10
1007.413
 20
-51.924
 30
4729.320
 70
    32
  0
SEQEND
  8
T05SSILL
  0
POLYLINE
  8
T05SSILL
 62
13
 66
     1
 70
     9
  0
VERTEX
  8
T05SSILL
 62
13
 10
1182.147
 20
-52.365
 30
4729.320
 70
    32
  0
VERTEX
  8
T05SSILL
 62
13
 10
1216.492
 20
-56.898
 30
4729.320
 70
    32
  0
VERTEX
  8
T05SSILL
 62
13
 10
1268.252
 20
-53.194
 30
4729.320
 70
    32
  0
VERTEX
  8
T05SSILL
 62
13
 10
1247.822
 20
-5.858
 30
4729.320
 70
    32
  0
VERTEX
  8
T05SSILL
 62
13
 10
1212.823
 20
6.506
 30
4729.320
 70
    32
  0
VERTEX
  8
T05SSILL
 62
13
 10
1198.927
 20
5.069
 30
4729.320
 70
    32
  0
VERTEX
  8
T05SSILL
 62
13
 10
1191.058
 20
-0.702
 30
4729.320
 70
    32
  0
VERTEX
  8
T05SSILL
 62
13
 10
1180.171
 20
-5.762
 30
4729.320
 70
    32
  0
SEQEND
  8
T05SSILL
  0
POLYLINE
  8
T05SSILL
 62
13
 66
     1
 70
     9
  0
VERTEX
  8
T05SSILL
 62
13
 10
1174.200
 20
-52.053
 30
4729.320
 70
    32
  0
VERTEX
  8
T05SSILL
 62
13
 10
1173.459
 20
-8.679
 30
4729.320
 70
    32
  0
VERTEX
  8
T05SSILL
 62
13
 10
1160.946
 20
-15.547
 30
4729.320
 70
    32
  0
VERTEX
  8
T05SSILL
 62
13
 10
1135.154
 20
-17.396
 30
4729.320
 70
    32
  0
VERTEX
  8
T05SSILL
 62
13
 10
1142.974
 20
-48.670
 30
4729.320
 70
    32
  0
SEQEND
  8
T05SSILL
  0
POLYLINE
  8
T05SSILL
 62
13
 66
     1
 70
     9
  0
VERTEX
  8
T05SSILL
 62
13
 10
1106.659
 20
-20.378
 30
4729.320
 70
    32
  0
VERTEX
  8
T05SSILL
 62
13
 10
1130.802
 20
-16.280
 30
4729.320
 70
    32
  0
VERTEX
  8
T05SSILL
 62
13
 10
1119.688
 20
-9.792
 30
4729.320
 70
    32
  0
VERTEX
  8
T05SSILL
 62
13
 10
1107.040
 20
-8.460
 30
4729.320
 70
    32
  0
VERTEX
  8
T05SSILL
 62
13
 10
1101.644
 20
-17.604
 30
4729.320
 70
    32
  0
VERTEX
  8
T05SSILL
 62
13
 10
1094.721
 20
-22.467
 30
4729.320
 70
    32
  0
VERTEX
  8
T05SSILL
 62
13
 10
1098.170
 20
-32.516
 30
4729.320
 70
    32
  0
VERTEX
  8
T05SSILL
 62
13
 10
1106.306
 20
-39.791
 30
4729.320
 70
    32
  0
SEQEND
  8
T05SSILL
  0
POLYLINE
  8
T05SSILL
 62
13
 66
     1
 70
     9
  0
VERTEX
  8
T05SSILL
 62
13
 10
1094.410
 20
-40.203
 30
4729.320
 70
    32
  0
VERTEX
  8
T05SSILL
 62
13
 10
1091.408
 20
-27.144
 30
4729.320
 70
    32
  0
VERTEX
  8
T05SSILL
 62
13
 10
1081.030
 20
-28.220
 30
4729.320
 70
    32
  0
VERTEX
  8
T05SSILL
 62
13
 10
1074.279
 20
-26.464
 30
4729.320
 70
    32
  0
VERTEX
  8
T05SSILL
 62
13
 10
1073.326
 20
-33.546
 30
4729.320
 70
    32
  0
VERTEX
  8
T05SSILL
 62
13
 10
1077.050
 20
-37.501
 30
4729.320
 70
    32
  0
SEQEND
  8
T05SSILL
  0
POLYLINE
  8
T05SSILL
 62
13
 66
     1
 70
     9
  0
VERTEX
  8
T05SSILL
 62
13
 10
991.855
 20
4.364
 30
4729.320
 70
    32
  0
VERTEX
  8
T05SSILL
 62
13
 10
994.653
 20
-1.204
 30
4729.320
 70
    32
  0
VERTEX
  8
T05SSILL
 62
13
 10
1016.517
 20
-0.873
 30
4729.320
 70
    32
  0
VERTEX
  8
T05SSILL
 62
13
 10
1019.272
 20
1.584
 30
4729.320
 70
    32
  0
VERTEX
  8
T05SSILL
 62
13
 10
1014.166
 20
10.970
 30
4729.320
 70
    32
  0
VERTEX
  8
T05SSILL
 62
13
 10
1011.012
 20
19.880
 30
4729.320
 70
    32
  0
SEQEND
  8
T05SSILL
  0
POLYLINE
  8
T05SSILL
 62
13
 66
     1
 70
     9
  0
VERTEX
  8
T05SSILL
 62
13
 10
954.220
 20
126.376
 30
4729.320
 70
    32
  0
VERTEX
  8
T05SSILL
 62
13
 10
940.081
 20
7.628
 30
4729.320
 70
    32
  0
VERTEX
  8
T05SSILL
 62
13
 10
946.619
 20
0.750
 30
4729.320
 70
    32
  0
VERTEX
  8
T05SSILL
 62
13
 10
976.025
 20
-0.565
 30
4729.320
 70
    32
  0
VERTEX
  8
T05SSILL
 62
13
 10
1014.016
 20
29.399
 30
4729.320
 70
    32
  0
VERTEX
  8
T05SSILL
 62
13
 10
1018.350
 20
35.427
 30
4729.320
 70
    32
  0
VERTEX
  8
T05SSILL
 62
13
 10
1017.719
 20
45.641
 30
4729.320
 70
    32
  0
VERTEX
  8
T05SSILL
 62
13
 10
1024.754
 20
52.888
 30
4729.320
 70
    32
  0
VERTEX
  8
T05SSILL
 62
13
 10
1020.079
 20
59.376
 30
4729.320
 70
    32
  0
VERTEX
  8
T05SSILL
 62
13
 10
989.068
 20
90.459
 30
4729.320
 70
    32
  0
VERTEX
  8
T05SSILL
 62
13
 10
981.460
 20
68.643
 30
4729.320
 70
    32
  0
VERTEX
  8
T05SSILL
 62
13
 10
973.270
 20
68.155
 30
4729.320
 70
    32
  0
VERTEX
  8
T05SSILL
 62
13
 10
969.582
 20
74.052
 30
4729.320
 70
    32
  0
VERTEX
  8
T05SSILL
 62
13
 10
964.469
 20
77.176
 30
4729.320
 70
    32
  0
VERTEX
  8
T05SSILL
 62
13
 10
968.942
 20
91.057
 30
4729.320
 70
    32
  0
VERTEX
  8
T05SSILL
 62
13
 10
968.732
 20
111.690
 30
4729.320
 70
    32
  0
SEQEND
  8
T05SSILL
  0
POLYLINE
  8
T05SSILL
 62
13
 66
     1
 70
     9
  0
VERTEX
  8
T05SSILL
 62
13
 10
1070.047
 20
44.686
 30
4729.320
 70
    32
  0
VERTEX
  8
T05SSILL
 62
13
 10
1074.444
 20
22.491
 30
4729.320
 70
    32
  0
VERTEX
  8
T05SSILL
 62
13
 10
1073.183
 20
16.988
 30
4729.320
 70
    32
  0
VERTEX
  8
T05SSILL
 62
13
 10
1078.530
 20
18.192
 30
4729.320
 70
    32
  0
VERTEX
  8
T05SSILL
 62
13
 10
1082.501
 20
27.826
 30
4729.320
 70
    32
  0
VERTEX
  8
T05SSILL
 62
13
 10
1084.669
 20
48.612
 30
4729.320
 70
    32
  0
SEQEND
  8
T05SSILL
  0
POLYLINE
  8
T05SSILL
 62
13
 66
     1
 70
     9
  0
VERTEX
  8
T05SSILL
 62
13
 10
1120.887
 20
49.775
 30
4729.320
 70
    32
  0
VERTEX
  8
T05SSILL
 62
13
 10
1124.963
 20
39.391
 30
4729.320
 70
    32
  0
VERTEX
  8
T05SSILL
 62
13
 10
1134.164
 20
41.582
 30
4729.320
 70
    32
  0
VERTEX
  8
T05SSILL
 62
13
 10
1136.096
 20
32.197
 30
4729.320
 70
    32
  0
VERTEX
  8
T05SSILL
 62
13
 10
1132.475
 20
19.398
 30
4729.320
 70
    32
  0
VERTEX
  8
T05SSILL
 62
13
 10
1126.401
 20
18.968
 30
4729.320
 70
    32
  0
VERTEX
  8
T05SSILL
 62
13
 10
1112.265
 20
13.379
 30
4729.320
 70
    32
  0
SEQEND
  8
T05SSILL
  0
POLYLINE
  8
T05SSILL
 62
13
 66
     1
 70
     9
  0
VERTEX
  8
T05SSILL
 62
13
 10
-23.467
 20
-1164.868
 30
4729.320
 70
    32
  0
VERTEX
  8
T05SSILL
 62
13
 10
-20.668
 20
-1157.809
 30
4729.320
 70
    32
  0
VERTEX
  8
T05SSILL
 62
13
 10
19.902
 20
-1139.443
 30
4729.320
 70
    32
  0
VERTEX
  8
T05SSILL
 62
13
 10
16.213
 20
-1143.420
 30
4729.320
 70
    32
  0
VERTEX
  8
T05SSILL
 62
13
 10
30.636
 20
-1162.500
 30
4729.320
 70
    32
  0
VERTEX
  8
T05SSILL
 62
13
 10
16.130
 20
-1173.912
 30
4729.320
 70
    32
  0
VERTEX
  8
T05SSILL
 62
13
 10
44.004
 20
-1211.369
 30
4729.320
 70
    32
  0
VERTEX
  8
T05SSILL
 62
13
 10
20.002
 20
-1230.037
 30
4729.320
 70
    32
  0
VERTEX
  8
T05SSILL
 62
13
 10
14.624
 20
-1229.260
 30
4729.320
 70
    32
  0
SEQEND
  8
T05SSILL
  0
POLYLINE
  8
T05SSILL
 62
13
 66
     1
 70
     9
  0
VERTEX
  8
T05SSILL
 62
13
 10
21.006
 20
-1241.138
 30
4729.320
 70
    32
  0
VERTEX
  8
T05SSILL
 62
13
 10
22.049
 20
-1236.464
 30
4729.320
 70
    32
  0
VERTEX
  8
T05SSILL
 62
13
 10
43.859
 20
-1221.504
 30
4729.320
 70
    32
  0
VERTEX
  8
T05SSILL
 62
13
 10
46.426
 20
-1225.197
 30
4729.320
 70
    32
  0
VERTEX
  8
T05SSILL
 62
13
 10
51.262
 20
-1221.658
 30
4729.320
 70
    32
  0
VERTEX
  8
T05SSILL
 62
13
 10
73.117
 20
-1250.320
 30
4729.320
 70
    32
  0
VERTEX
  8
T05SSILL
 62
13
 10
68.367
 20
-1253.507
 30
4729.320
 70
    32
  0
VERTEX
  8
T05SSILL
 62
13
 10
75.712
 20
-1263.355
 30
4729.320
 70
    32
  0
VERTEX
  8
T05SSILL
 62
13
 10
80.900
 20
-1259.726
 30
4729.320
 70
    32
  0
VERTEX
  8
T05SSILL
 62
13
 10
101.873
 20
-1288.215
 30
4729.320
 70
    32
  0
VERTEX
  8
T05SSILL
 62
13
 10
97.126
 20
-1292.019
 30
4729.320
 70
    32
  0
VERTEX
  8
T05SSILL
 62
13
 10
111.110
 20
-1311.452
 30
4729.320
 70
    32
  0
VERTEX
  8
T05SSILL
 62
13
 10
65.001
 20
-1305.424
 30
4729.320
 70
    32
  0
VERTEX
  8
T05SSILL
 62
13
 10
58.738
 20
-1303.416
 30
4729.320
 70
    32
  0
VERTEX
  8
T05SSILL
 62
13
 10
54.847
 20
-1299.022
 30
4729.320
 70
    32
  0
SEQEND
  8
T05SSILL
  0
POLYLINE
  8
T05SSILL
 62
13
 66
     1
 70
     9
  0
VERTEX
  8
T05SSILL
 62
13
 10
97.731
 20
-1317.045
 30
4729.320
 70
    32
  0
VERTEX
  8
T05SSILL
 62
13
 10
110.075
 20
-1319.034
 30
4729.320
 70
    32
  0
VERTEX
  8
T05SSILL
 62
13
 10
133.550
 20
-1301.073
 30
4729.320
 70
    32
  0
VERTEX
  8
T05SSILL
 62
13
 10
137.179
 20
-1306.173
 30
4729.320
 70
    32
  0
VERTEX
  8
T05SSILL
 62
13
 10
142.279
 20
-1302.544
 30
4729.320
 70
    32
  0
VERTEX
  8
T05SSILL
 62
13
 10
145.555
 20
-1307.557
 30
4729.320
 70
    32
  0
VERTEX
  8
T05SSILL
 62
13
 10
150.743
 20
-1303.664
 30
4729.320
 70
    32
  0
VERTEX
  8
T05SSILL
 62
13
 10
154.460
 20
-1308.764
 30
4729.320
 70
    32
  0
VERTEX
  8
T05SSILL
 62
13
 10
156.659
 20
-1307.700
 30
4729.320
 70
    32
  0
VERTEX
  8
T05SSILL
 62
13
 10
158.521
 20
-1311.131
 30
4729.320
 70
    32
  0
VERTEX
  8
T05SSILL
 62
13
 10
137.317
 20
-1322.476
 30
4729.320
 70
    32
  0
VERTEX
  8
T05SSILL
 62
13
 10
138.116
 20
-1324.588
 30
4729.320
 70
    32
  0
VERTEX
  8
T05SSILL
 62
13
 10
117.687
 20
-1329.762
 30
4729.320
 70
    32
  0
VERTEX
  8
T05SSILL
 62
13
 10
118.407
 20
-1334.695
 30
4729.320
 70
    32
  0
VERTEX
  8
T05SSILL
 62
13
 10
115.594
 20
-1336.907
 30
4729.320
 70
    32
  0
VERTEX
  8
T05SSILL
 62
13
 10
110.299
 20
-1334.632
 30
4729.320
 70
    32
  0
SEQEND
  8
T05SSILL
  0
POLYLINE
  8
T05SSILL
 62
13
 66
     1
 70
     9
  0
VERTEX
  8
T05SSILL
 62
13
 10
349.266
 20
-1064.499
 30
4729.320
 70
    32
  0
VERTEX
  8
T05SSILL
 62
13
 10
362.193
 20
-1055.559
 30
4729.320
 70
    32
  0
VERTEX
  8
T05SSILL
 62
13
 10
385.353
 20
-1049.848
 30
4729.320
 70
    32
  0
VERTEX
  8
T05SSILL
 62
13
 10
390.651
 20
-1053.445
 30
4729.320
 70
    32
  0
VERTEX
  8
T05SSILL
 62
13
 10
399.600
 20
-1068.928
 30
4729.320
 70
    32
  0
VERTEX
  8
T05SSILL
 62
13
 10
359.575
 20
-1092.932
 30
4729.320
 70
    32
  0
VERTEX
  8
T05SSILL
 62
13
 10
355.949
 20
-1088.625
 30
4729.320
 70
    32
  0
SEQEND
  8
T05SSILL
  0
POLYLINE
  8
T05SSILL
 62
13
 66
     1
 70
     9
  0
VERTEX
  8
T05SSILL
 62
13
 10
311.379
 20
-1297.885
 30
4729.320
 70
    32
  0
VERTEX
  8
T05SSILL
 62
13
 10
333.981
 20
-1282.394
 30
4729.320
 70
    32
  0
VERTEX
  8
T05SSILL
 62
13
 10
338.826
 20
-1281.939
 30
4729.320
 70
    32
  0
VERTEX
  8
T05SSILL
 62
13
 10
346.259
 20
-1291.698
 30
4729.320
 70
    32
  0
VERTEX
  8
T05SSILL
 62
13
 10
342.843
 20
-1298.582
 30
4729.320
 70
    32
  0
VERTEX
  8
T05SSILL
 62
13
 10
321.202
 20
-1310.986
 30
4729.320
 70
    32
  0
VERTEX
  8
T05SSILL
 62
13
 10
317.672
 20
-1309.499
 30
4729.320
 70
    32
  0
SEQEND
  8
T05SSILL
  0
POLYLINE
  8
T05SSILL
 62
13
 66
     1
 70
     9
  0
VERTEX
  8
T05SSILL
 62
13
 10
323.348
 20
-1321.114
 30
4729.320
 70
    32
  0
VERTEX
  8
T05SSILL
 62
13
 10
325.188
 20
-1317.760
 30
4729.320
 70
    32
  0
VERTEX
  8
T05SSILL
 62
13
 10
349.032
 20
-1305.173
 30
4729.320
 70
    32
  0
VERTEX
  8
T05SSILL
 62
13
 10
352.130
 20
-1309.834
 30
4729.320
 70
    32
  0
VERTEX
  8
T05SSILL
 62
13
 10
347.207
 20
-1313.551
 30
4729.320
 70
    32
  0
VERTEX
  8
T05SSILL
 62
13
 10
350.220
 20
-1319.270
 30
4729.320
 70
    32
  0
VERTEX
  8
T05SSILL
 62
13
 10
345.472
 20
-1322.721
 30
4729.320
 70
    32
  0
VERTEX
  8
T05SSILL
 62
13
 10
348.221
 20
-1328.265
 30
4729.320
 70
    32
  0
VERTEX
  8
T05SSILL
 62
13
 10
344.175
 20
-1330.921
 30
4729.320
 70
    32
  0
VERTEX
  8
T05SSILL
 62
13
 10
346.747
 20
-1336.112
 30
4729.320
 70
    32
  0
VERTEX
  8
T05SSILL
 62
13
 10
292.043
 20
-1372.323
 30
4729.320
 70
    32
  0
VERTEX
  8
T05SSILL
 62
13
 10
270.697
 20
-1337.314
 30
4729.320
 70
    32
  0
VERTEX
  8
T05SSILL
 62
13
 10
269.710
 20
-1331.501
 30
4729.320
 70
    32
  0
VERTEX
  8
T05SSILL
 62
13
 10
270.755
 20
-1327.179
 30
4729.320
 70
    32
  0
VERTEX
  8
T05SSILL
 62
13
 10
277.437
 20
-1322.312
 30
4729.320
 70
    32
  0
VERTEX
  8
T05SSILL
 62
13
 10
294.459
 20
-1355.484
 30
4729.320
 70
    32
  0
VERTEX
  8
T05SSILL
 62
13
 10
331.851
 20
-1335.277
 30
4729.320
 70
    32
  0
SEQEND
  8
T05SSILL
  0
POLYLINE
  8
T05SSILL
 62
13
 66
     1
 70
     9
  0
VERTEX
  8
T05SSILL
 62
13
 10
580.677
 20
-1090.318
 30
4729.320
 70
    32
  0
VERTEX
  8
T05SSILL
 62
13
 10
577.733
 20
-1107.512
 30
4729.320
 70
    32
  0
VERTEX
  8
T05SSILL
 62
13
 10
570.832
 20
-1127.626
 30
4729.320
 70
    32
  0
VERTEX
  8
T05SSILL
 62
13
 10
592.382
 20
-1114.165
 30
4729.320
 70
    32
  0
SEQEND
  8
T05SSILL
  0
POLYLINE
  8
T05SSILL
 62
13
 66
     1
 70
     9
  0
VERTEX
  8
T05SSILL
 62
13
 10
670.248
 20
-1303.663
 30
4729.320
 70
    32
  0
VERTEX
  8
T05SSILL
 62
13
 10
666.371
 20
-1303.763
 30
4729.320
 70
    32
  0
VERTEX
  8
T05SSILL
 62
13
 10
665.588
 20
-1307.114
 30
4729.320
 70
    32
  0
VERTEX
  8
T05SSILL
 62
13
 10
675.680
 20
-1322.241
 30
4729.320
 70
    32
  0
VERTEX
  8
T05SSILL
 62
13
 10
683.441
 20
-1324.156
 30
4729.320
 70
    32
  0
VERTEX
  8
T05SSILL
 62
13
 10
692.157
 20
-1321.133
 30
4729.320
 70
    32
  0
VERTEX
  8
T05SSILL
 62
13
 10
719.519
 20
-1306.244
 30
4729.320
 70
    32
  0
VERTEX
  8
T05SSILL
 62
13
 10
718.544
 20
-1304.661
 30
4729.320
 70
    32
  0
SEQEND
  8
T05SSILL
  0
POLYLINE
  8
T05SSILL
 62
13
 66
     1
 70
     9
  0
VERTEX
  8
T05SSILL
 62
13
 10
439.696
 20
-1472.424
 30
4729.320
 70
    32
  0
VERTEX
  8
T05SSILL
 62
13
 10
443.063
 20
-1478.495
 30
4729.320
 70
    32
  0
VERTEX
  8
T05SSILL
 62
13
 10
435.047
 20
-1508.306
 30
4729.320
 70
    32
  0
VERTEX
  8
T05SSILL
 62
13
 10
430.398
 20
-1515.459
 30
4729.320
 70
    32
  0
VERTEX
  8
T05SSILL
 62
13
 10
418.753
 20
-1511.528
 30
4729.320
 70
    32
  0
VERTEX
  8
T05SSILL
 62
13
 10
414.277
 20
-1517.535
 30
4729.320
 70
    32
  0
VERTEX
  8
T05SSILL
 62
13
 10
417.388
 20
-1526.250
 30
4729.320
 70
    32
  0
VERTEX
  8
T05SSILL
 62
13
 10
415.028
 20
-1532.602
 30
4729.320
 70
    32
  0
VERTEX
  8
T05SSILL
 62
13
 10
411.080
 20
-1538.430
 30
4729.320
 70
    32
  0
VERTEX
  8
T05SSILL
 62
13
 10
405.272
 20
-1541.004
 30
4729.320
 70
    32
  0
VERTEX
  8
T05SSILL
 62
13
 10
399.624
 20
-1538.377
 30
4729.320
 70
    32
  0
VERTEX
  8
T05SSILL
 62
13
 10
382.983
 20
-1514.546
 30
4729.320
 70
    32
  0
VERTEX
  8
T05SSILL
 62
13
 10
388.084
 20
-1511.005
 30
4729.320
 70
    32
  0
VERTEX
  8
T05SSILL
 62
13
 10
368.339
 20
-1480.662
 30
4729.320
 70
    32
  0
VERTEX
  8
T05SSILL
 62
13
 10
373.529
 20
-1477.562
 30
4729.320
 70
    32
  0
VERTEX
  8
T05SSILL
 62
13
 10
370.076
 20
-1472.285
 30
4729.320
 70
    32
  0
VERTEX
  8
T05SSILL
 62
13
 10
374.736
 20
-1468.745
 30
4729.320
 70
    32
  0
VERTEX
  8
T05SSILL
 62
13
 10
368.270
 20
-1458.102
 30
4729.320
 70
    32
  0
VERTEX
  8
T05SSILL
 62
13
 10
378.913
 20
-1451.460
 30
4729.320
 70
    32
  0
VERTEX
  8
T05SSILL
 62
13
 10
383.674
 20
-1452.238
 30
4729.320
 70
    32
  0
SEQEND
  8
T05SSILL
  0
POLYLINE
  8
T05SSILL
 62
13
 66
     1
 70
     9
  0
VERTEX
  8
T05SSILL
 62
13
 10
584.249
 20
-1394.343
 30
4729.320
 70
    32
  0
VERTEX
  8
T05SSILL
 62
13
 10
577.809
 20
-1392.160
 30
4729.320
 70
    32
  0
VERTEX
  8
T05SSILL
 62
13
 10
561.538
 20
-1402.697
 30
4729.320
 70
    32
  0
VERTEX
  8
T05SSILL
 62
13
 10
559.259
 20
-1406.669
 30
4729.320
 70
    32
  0
VERTEX
  8
T05SSILL
 62
13
 10
559.007
 20
-1410.636
 30
4729.320
 70
    32
  0
VERTEX
  8
T05SSILL
 62
13
 10
580.167
 20
-1442.825
 30
4729.320
 70
    32
  0
VERTEX
  8
T05SSILL
 62
13
 10
585.105
 20
-1443.603
 30
4729.320
 70
    32
  0
VERTEX
  8
T05SSILL
 62
13
 10
604.187
 20
-1430.062
 30
4729.320
 70
    32
  0
VERTEX
  8
T05SSILL
 62
13
 10
605.754
 20
-1423.712
 30
4729.320
 70
    32
  0
SEQEND
  8
T05SSILL
  0
POLYLINE
  8
T05SSILL
 62
13
 66
     1
 70
     9
  0
VERTEX
  8
T05SSILL
 62
13
 10
992.874
 20
-1561.593
 30
4729.320
 70
    32
  0
VERTEX
  8
T05SSILL
 62
13
 10
1079.521
 20
-1567.673
 30
4729.320
 70
    32
  0
VERTEX
  8
T05SSILL
 62
13
 10
1084.649
 20
-1573.386
 30
4729.320
 70
    32
  0
VERTEX
  8
T05SSILL
 62
13
 10
1083.703
 20
-1581.056
 30
4729.320
 70
    32
  0
VERTEX
  8
T05SSILL
 62
13
 10
1076.493
 20
-1586.189
 30
4729.320
 70
    32
  0
VERTEX
  8
T05SSILL
 62
13
 10
1033.302
 20
-1583.325
 30
4729.320
 70
    32
  0
VERTEX
  8
T05SSILL
 62
13
 10
1033.548
 20
-1577.419
 30
4729.320
 70
    32
  0
VERTEX
  8
T05SSILL
 62
13
 10
992.207
 20
-1574.109
 30
4729.320
 70
    32
  0
SEQEND
  8
T05SSILL
  0
POLYLINE
  8
T05SSILL
 62
13
 66
     1
 70
     9
  0
VERTEX
  8
T05SSILL
 62
13
 10
1061.464
 20
-1138.024
 30
4729.320
 70
    32
  0
VERTEX
  8
T05SSILL
 62
13
 10
1107.217
 20
-1114.178
 30
4729.320
 70
    32
  0
VERTEX
  8
T05SSILL
 62
13
 10
1115.367
 20
-1128.077
 30
4729.320
 70
    32
  0
VERTEX
  8
T05SSILL
 62
13
 10
1135.769
 20
-1142.820
 30
4729.320
 70
    32
  0
VERTEX
  8
T05SSILL
 62
13
 10
1125.682
 20
-1158.185
 30
4729.320
 70
    32
  0
VERTEX
  8
T05SSILL
 62
13
 10
1119.590
 20
-1154.502
 30
4729.320
 70
    32
  0
VERTEX
  8
T05SSILL
 62
13
 10
1109.677
 20
-1169.514
 30
4729.320
 70
    32
  0
SEQEND
  8
T05SSILL
  0
POLYLINE
  8
T05SSILL
 62
13
 66
     1
 70
     9
  0
VERTEX
  8
T05SSILL
 62
13
 10
1146.727
 20
-1123.928
 30
4729.320
 70
    32
  0
VERTEX
  8
T05SSILL
 62
13
 10
1126.516
 20
-1114.031
 30
4729.320
 70
    32
  0
VERTEX
  8
T05SSILL
 62
13
 10
1114.702
 20
-1112.305
 30
4729.320
 70
    32
  0
VERTEX
  8
T05SSILL
 62
13
 10
1118.878
 20
-1123.660
 30
4729.320
 70
    32
  0
VERTEX
  8
T05SSILL
 62
13
 10
1139.541
 20
-1136.904
 30
4729.320
 70
    32
  0
SEQEND
  8
T05SSILL
  0
POLYLINE
  8
T05SSILL
 62
13
 66
     1
 70
     9
  0
VERTEX
  8
T05SSILL
 62
13
 10
980.148
 20
-3102.546
 30
4729.320
 70
    32
  0
VERTEX
  8
T05SSILL
 62
13
 10
984.946
 20
-3109.188
 30
4729.320
 70
    32
  0
VERTEX
  8
T05SSILL
 62
13
 10
990.784
 20
-3113.888
 30
4729.320
 70
    32
  0
VERTEX
  8
T05SSILL
 62
13
 10
995.031
 20
-3095.047
 30
4729.320
 70
    32
  0
VERTEX
  8
T05SSILL
 62
13
 10
995.040
 20
-3085.027
 30
4729.320
 70
    32
  0
VERTEX
  8
T05SSILL
 62
13
 10
990.203
 20
-3073.376
 30
4729.320
 70
    32
  0
VERTEX
  8
T05SSILL
 62
13
 10
985.549
 20
-3085.102
 30
4729.320
 70
    32
  0
SEQEND
  8
T05SSILL
  0
POLYLINE
  8
T05SSILL
 62
13
 66
     1
 70
     9
  0
VERTEX
  8
T05SSILL
 62
13
 10
939.490
 20
-3028.246
 30
4729.320
 70
    32
  0
VERTEX
  8
T05SSILL
 62
13
 10
946.671
 20
-3036.188
 30
4729.320
 70
    32
  0
VERTEX
  8
T05SSILL
 62
13
 10
954.188
 20
-3042.193
 30
4729.320
 70
    32
  0
VERTEX
  8
T05SSILL
 62
13
 10
954.324
 20
-3048.345
 30
4729.320
 70
    32
  0
VERTEX
  8
T05SSILL
 62
13
 10
950.405
 20
-3052.858
 30
4729.320
 70
    32
  0
VERTEX
  8
T05SSILL
 62
13
 10
946.365
 20
-3053.329
 30
4729.320
 70
    32
  0
VERTEX
  8
T05SSILL
 62
13
 10
940.334
 20
-3046.257
 30
4729.320
 70
    32
  0
VERTEX
  8
T05SSILL
 62
13
 10
942.144
 20
-3041.672
 30
4729.320
 70
    32
  0
VERTEX
  8
T05SSILL
 62
13
 10
931.361
 20
-3033.935
 30
4729.320
 70
    32
  0
SEQEND
  8
T05SSILL
  0
POLYLINE
  8
T05SSILL
 62
13
 66
     1
 70
     9
  0
VERTEX
  8
T05SSILL
 62
13
 10
899.821
 20
-2979.339
 30
4729.320
 70
    32
  0
VERTEX
  8
T05SSILL
 62
13
 10
909.045
 20
-2978.827
 30
4729.320
 70
    32
  0
VERTEX
  8
T05SSILL
 62
13
 10
918.311
 20
-2972.427
 30
4729.320
 70
    32
  0
VERTEX
  8
T05SSILL
 62
13
 10
920.211
 20
-2968.105
 30
4729.320
 70
    32
  0
VERTEX
  8
T05SSILL
 62
13
 10
913.193
 20
-2958.492
 30
4729.320
 70
    32
  0
VERTEX
  8
T05SSILL
 62
13
 10
903.711
 20
-2948.547
 30
4729.320
 70
    32
  0
VERTEX
  8
T05SSILL
 62
13
 10
895.120
 20
-2951.427
 30
4729.320
 70
    32
  0
VERTEX
  8
T05SSILL
 62
13
 10
895.558
 20
-2962.410
 30
4729.320
 70
    32
  0
VERTEX
  8
T05SSILL
 62
13
 10
901.052
 20
-2968.167
 30
4729.320
 70
    32
  0
SEQEND
  8
T05SSILL
  0
POLYLINE
  8
T05SSILL
 62
13
 66
     1
 70
     9
  0
VERTEX
  8
T05SSILL
 62
13
 10
892.666
 20
-2884.826
 30
4729.320
 70
    32
  0
VERTEX
  8
T05SSILL
 62
13
 10
897.301
 20
-2893.139
 30
4729.320
 70
    32
  0
VERTEX
  8
T05SSILL
 62
13
 10
897.804
 20
-2901.221
 30
4729.320
 70
    32
  0
VERTEX
  8
T05SSILL
 62
13
 10
894.619
 20
-2909.771
 30
4729.320
 70
    32
  0
VERTEX
  8
T05SSILL
 62
13
 10
890.945
 20
-2912.085
 30
4729.320
 70
    32
  0
SEQEND
  8
T05SSILL
  0
POLYLINE
  8
T05SSILL
 62
13
 66
     1
 70
     9
  0
VERTEX
  8
T05SSILL
 62
13
 10
1322.375
 20
-2404.316
 30
4729.320
 70
    32
  0
VERTEX
  8
T05SSILL
 62
13
 10
1317.621
 20
-2425.798
 30
4729.320
 70
    32
  0
VERTEX
  8
T05SSILL
 62
13
 10
1318.961
 20
-2428.512
 30
4729.320
 70
    32
  0
VERTEX
  8
T05SSILL
 62
13
 10
1332.856
 20
-2418.384
 30
4729.320
 70
    32
  0
SEQEND
  8
T05SSILL
  0
POLYLINE
  8
T05SSILL
 62
13
 66
     1
 70
     9
  0
VERTEX
  8
T05SSILL
 62
13
 10
1280.353
 20
-2436.636
 30
4729.320
 70
    32
  0
VERTEX
  8
T05SSILL
 62
13
 10
1286.385
 20
-2432.458
 30
4729.320
 70
    32
  0
VERTEX
  8
T05SSILL
 62
13
 10
1290.605
 20
-2432.601
 30
4729.320
 70
    32
  0
VERTEX
  8
T05SSILL
 62
13
 10
1296.795
 20
-2437.475
 30
4729.320
 70
    32
  0
VERTEX
  8
T05SSILL
 62
13
 10
1298.763
 20
-2441.854
 30
4729.320
 70
    32
  0
VERTEX
  8
T05SSILL
 62
13
 10
1292.201
 20
-2445.684
 30
4729.320
 70
    32
  0
VERTEX
  8
T05SSILL
 62
13
 10
1288.416
 20
-2444.923
 30
4729.320
 70
    32
  0
SEQEND
  8
T05SSILL
  0
POLYLINE
  8
T05SSILL
 62
13
 66
     1
 70
     9
  0
VERTEX
  8
T05SSILL
 62
13
 10
-613.439
 20
69.169
 30
4729.320
 70
    32
  0
VERTEX
  8
T05SSILL
 62
13
 10
-617.289
 20
85.266
 30
4729.320
 70
    32
  0
VERTEX
  8
T05SSILL
 62
13
 10
-620.978
 20
88.084
 30
4729.320
 70
    32
  0
VERTEX
  8
T05SSILL
 62
13
 10
-628.278
 20
87.654
 30
4729.320
 70
    32
  0
VERTEX
  8
T05SSILL
 62
13
 10
-630.567
 20
85.546
 30
4729.320
 70
    32
  0
VERTEX
  8
T05SSILL
 62
13
 10
-616.199
 20
52.561
 30
4729.320
 70
    32
  0
VERTEX
  8
T05SSILL
 62
13
 10
-611.395
 20
37.619
 30
4729.320
 70
    32
  0
VERTEX
  8
T05SSILL
 62
13
 10
-604.455
 20
40.723
 30
4729.320
 70
    32
  0
VERTEX
  8
T05SSILL
 62
13
 10
-601.655
 20
45.309
 30
4729.320
 70
    32
  0
VERTEX
  8
T05SSILL
 62
13
 10
-603.254
 20
49.615
 30
4729.320
 70
    32
  0
VERTEX
  8
T05SSILL
 62
13
 10
-608.377
 20
55.228
 30
4729.320
 70
    32
  0
SEQEND
  8
T05SSILL
  0
POLYLINE
  8
T05SSILL
 62
13
 66
     1
 70
     9
  0
VERTEX
  8
T05SSILL
 62
13
 10
-324.045
 20
-430.793
 30
4729.320
 70
    32
  0
VERTEX
  8
T05SSILL
 62
13
 10
-351.291
 20
-364.369
 30
4729.320
 70
    32
  0
VERTEX
  8
T05SSILL
 62
13
 10
-349.459
 20
-359.963
 30
4729.320
 70
    32
  0
VERTEX
  8
T05SSILL
 62
13
 10
-169.354
 20
-357.393
 30
4729.320
 70
    32
  0
VERTEX
  8
T05SSILL
 62
13
 10
-167.323
 20
-363.070
 30
4729.320
 70
    32
  0
VERTEX
  8
T05SSILL
 62
13
 10
-310.719
 20
-465.999
 30
4729.320
 70
    32
  0
VERTEX
  8
T05SSILL
 62
13
 10
-317.516
 20
-450.652
 30
4729.320
 70
    32
  0
SEQEND
  8
T05SSILL
  0
POLYLINE
  8
T05SSILL
 62
13
 66
     1
 70
     9
  0
VERTEX
  8
T05SSILL
 62
13
 10
-102.844
 20
-1024.893
 30
4729.320
 70
    32
  0
VERTEX
  8
T05SSILL
 62
13
 10
-127.314
 20
-981.656
 30
4729.320
 70
    32
  0
VERTEX
  8
T05SSILL
 62
13
 10
-124.198
 20
-979.047
 30
4729.320
 70
    32
  0
VERTEX
  8
T05SSILL
 62
13
 10
-99.993
 20
-980.348
 30
4729.320
 70
    32
  0
VERTEX
  8
T05SSILL
 62
13
 10
-66.927
 20
-966.710
 30
4729.320
 70
    32
  0
VERTEX
  8
T05SSILL
 62
13
 10
-70.038
 20
-960.262
 30
4729.320
 70
    32
  0
VERTEX
  8
T05SSILL
 62
13
 10
-99.422
 20
-973.391
 30
4729.320
 70
    32
  0
VERTEX
  8
T05SSILL
 62
13
 10
-132.874
 20
-971.298
 30
4729.320
 70
    32
  0
VERTEX
  8
T05SSILL
 62
13
 10
-159.065
 20
-925.367
 30
4729.320
 70
    32
  0
VERTEX
  8
T05SSILL
 62
13
 10
-157.525
 20
-918.480
 30
4729.320
 70
    32
  0
VERTEX
  8
T05SSILL
 62
13
 10
-128.281
 20
-897.967
 30
4729.320
 70
    32
  0
VERTEX
  8
T05SSILL
 62
13
 10
-116.844
 20
-898.279
 30
4729.320
 70
    32
  0
VERTEX
  8
T05SSILL
 62
13
 10
-83.931
 20
-946.280
 30
4729.320
 70
    32
  0
VERTEX
  8
T05SSILL
 62
13
 10
-73.867
 20
-939.144
 30
4729.320
 70
    32
  0
VERTEX
  8
T05SSILL
 62
13
 10
-70.609
 20
-944.006
 30
4729.320
 70
    32
  0
VERTEX
  8
T05SSILL
 62
13
 10
-61.757
 20
-937.860
 30
4729.320
 70
    32
  0
VERTEX
  8
T05SSILL
 62
13
 10
-47.340
 20
-956.316
 30
4729.320
 70
    32
  0
VERTEX
  8
T05SSILL
 62
13
 10
-51.761
 20
-959.653
 30
4729.320
 70
    32
  0
VERTEX
  8
T05SSILL
 62
13
 10
-48.324
 20
-964.687
 30
4729.320
 70
    32
  0
VERTEX
  8
T05SSILL
 62
13
 10
-53.439
 20
-968.565
 30
4729.320
 70
    32
  0
VERTEX
  8
T05SSILL
 62
13
 10
-46.319
 20
-977.751
 30
4729.320
 70
    32
  0
VERTEX
  8
T05SSILL
 62
13
 10
-51.607
 20
-981.719
 30
4729.320
 70
    32
  0
VERTEX
  8
T05SSILL
 62
13
 10
-37.439
 20
-1000.972
 30
4729.320
 70
    32
  0
VERTEX
  8
T05SSILL
 62
13
 10
-41.855
 20
-1004.572
 30
4729.320
 70
    32
  0
VERTEX
  8
T05SSILL
 62
13
 10
-31.393
 20
-1018.443
 30
4729.320
 70
    32
  0
VERTEX
  8
T05SSILL
 62
13
 10
-21.324
 20
-1011.570
 30
4729.320
 70
    32
  0
VERTEX
  8
T05SSILL
 62
13
 10
-18.169
 20
-1015.643
 30
4729.320
 70
    32
  0
VERTEX
  8
T05SSILL
 62
13
 10
5.317
 20
-997.525
 30
4729.320
 70
    32
  0
VERTEX
  8
T05SSILL
 62
13
 10
9.501
 20
-1004.920
 30
4729.320
 70
    32
  0
VERTEX
  8
T05SSILL
 62
13
 10
-12.119
 20
-1019.397
 30
4729.320
 70
    32
  0
VERTEX
  8
T05SSILL
 62
13
 10
-15.174
 20
-1015.938
 30
4729.320
 70
    32
  0
VERTEX
  8
T05SSILL
 62
13
 10
-30.295
 20
-1025.368
 30
4729.320
 70
    32
  0
VERTEX
  8
T05SSILL
 62
13
 10
-25.993
 20
-1030.395
 30
4729.320
 70
    32
  0
VERTEX
  8
T05SSILL
 62
13
 10
-18.252
 20
-1054.430
 30
4729.320
 70
    32
  0
VERTEX
  8
T05SSILL
 62
13
 10
-24.223
 20
-1061.498
 30
4729.320
 70
    32
  0
VERTEX
  8
T05SSILL
 62
13
 10
-61.516
 20
-1085.318
 30
4729.320
 70
    32
  0
VERTEX
  8
T05SSILL
 62
13
 10
-69.184
 20
-1084.989
 30
4729.320
 70
    32
  0
SEQEND
  8
T05SSILL
  0
POLYLINE
  8
T05SSILL
 62
13
 66
     1
 70
     9
  0
VERTEX
  8
T05SSILL
 62
13
 10
1002.496
 20
92.015
 30
4729.320
 70
    32
  0
VERTEX
  8
T05SSILL
 62
13
 10
1017.118
 20
70.937
 30
4729.320
 70
    32
  0
VERTEX
  8
T05SSILL
 62
13
 10
1029.443
 20
58.837
 30
4729.320
 70
    32
  0
VERTEX
  8
T05SSILL
 62
13
 10
1039.902
 20
60.181
 30
4729.320
 70
    32
  0
VERTEX
  8
T05SSILL
 62
13
 10
1048.340
 20
87.135
 30
4729.320
 70
    32
  0
VERTEX
  8
T05SSILL
 62
13
 10
1057.930
 20
94.452
 30
4729.320
 70
    32
  0
VERTEX
  8
T05SSILL
 62
13
 10
1061.616
 20
91.907
 30
4729.320
 70
    32
  0
VERTEX
  8
T05SSILL
 62
13
 10
1065.918
 20
92.641
 30
4729.320
 70
    32
  0
VERTEX
  8
T05SSILL
 62
13
 10
1069.548
 20
82.421
 30
4729.320
 70
    32
  0
VERTEX
  8
T05SSILL
 62
13
 10
1073.408
 20
76.705
 30
4729.320
 70
    32
  0
VERTEX
  8
T05SSILL
 62
13
 10
1081.059
 20
77.531
 30
4729.320
 70
    32
  0
VERTEX
  8
T05SSILL
 62
13
 10
1083.559
 20
82.891
 30
4729.320
 70
    32
  0
VERTEX
  8
T05SSILL
 62
13
 10
1080.881
 20
93.755
 30
4729.320
 70
    32
  0
VERTEX
  8
T05SSILL
 62
13
 10
1081.603
 20
102.859
 30
4729.320
 70
    32
  0
VERTEX
  8
T05SSILL
 62
13
 10
1087.688
 20
128.779
 30
4729.320
 70
    32
  0
VERTEX
  8
T05SSILL
 62
13
 10
1088.485
 20
144.853
 30
4729.320
 70
    32
  0
VERTEX
  8
T05SSILL
 62
13
 10
1074.238
 20
152.846
 30
4729.320
 70
    32
  0
VERTEX
  8
T05SSILL
 62
13
 10
1067.810
 20
153.698
 30
4729.320
 70
    32
  0
SEQEND
  8
T05SSILL
  0
POLYLINE
  8
T05SSILL
 62
13
 66
     1
 70
     9
  0
VERTEX
  8
T05SSILL
 62
13
 10
-760.870
 20
384.510
 30
4729.320
 70
    32
  0
VERTEX
  8
T05SSILL
 62
13
 10
-756.916
 20
382.483
 30
4729.320
 70
    32
  0
VERTEX
  8
T05SSILL
 62
13
 10
-734.900
 20
336.730
 30
4729.320
 70
    32
  0
VERTEX
  8
T05SSILL
 62
13
 10
-735.696
 20
333.125
 30
4729.320
 70
    32
  0
VERTEX
  8
T05SSILL
 62
13
 10
-746.957
 20
328.742
 30
4729.320
 70
    32
  0
VERTEX
  8
T05SSILL
 62
13
 10
-750.736
 20
330.506
 30
4729.320
 70
    32
  0
VERTEX
  8
T05SSILL
 62
13
 10
-773.104
 20
375.732
 30
4729.320
 70
    32
  0
VERTEX
  8
T05SSILL
 62
13
 10
-772.572
 20
379.425
 30
4729.320
 70
    32
  0
VERTEX
  8
T05SSILL
 62
13
 10
-769.052
 20
381.179
 30
4729.320
 70
    32
  0
SEQEND
  8
T05SSILL
  0
POLYLINE
  8
T05SSILL
 62
13
 66
     1
 70
     9
  0
VERTEX
  8
T05SSILL
 62
13
 10
-702.658
 20
240.752
 30
4729.320
 70
    32
  0
VERTEX
  8
T05SSILL
 62
13
 10
-699.752
 20
244.090
 30
4729.320
 70
    32
  0
VERTEX
  8
T05SSILL
 62
13
 10
-686.907
 20
249.439
 30
4729.320
 70
    32
  0
VERTEX
  8
T05SSILL
 62
13
 10
-680.841
 20
248.464
 30
4729.320
 70
    32
  0
VERTEX
  8
T05SSILL
 62
13
 10
-669.525
 20
225.587
 30
4729.320
 70
    32
  0
VERTEX
  8
T05SSILL
 62
13
 10
-670.852
 20
219.521
 30
4729.320
 70
    32
  0
VERTEX
  8
T05SSILL
 62
13
 10
-684.049
 20
213.558
 30
4729.320
 70
    32
  0
VERTEX
  8
T05SSILL
 62
13
 10
-689.236
 20
215.059
 30
4729.320
 70
    32
  0
SEQEND
  8
T05SSILL
  0
POLYLINE
  8
T05SSILL
 62
13
 66
     1
 70
     9
  0
VERTEX
  8
T05SSILL
 62
13
 10
-683.797
 20
203.972
 30
4729.320
 70
    32
  0
VERTEX
  8
T05SSILL
 62
13
 10
-682.563
 20
206.521
 30
4729.320
 70
    32
  0
VERTEX
  8
T05SSILL
 62
13
 10
-669.191
 20
211.605
 30
4729.320
 70
    32
  0
VERTEX
  8
T05SSILL
 62
13
 10
-664.181
 20
209.224
 30
4729.320
 70
    32
  0
VERTEX
  8
T05SSILL
 62
13
 10
-654.623
 20
187.580
 30
4729.320
 70
    32
  0
VERTEX
  8
T05SSILL
 62
13
 10
-646.547
 20
176.139
 30
4729.320
 70
    32
  0
VERTEX
  8
T05SSILL
 62
13
 10
-647.429
 20
173.942
 30
4729.320
 70
    32
  0
VERTEX
  8
T05SSILL
 62
13
 10
-668.972
 20
175.375
 30
4729.320
 70
    32
  0
VERTEX
  8
T05SSILL
 62
13
 10
-675.990
 20
189.014
 30
4729.320
 70
    32
  0
SEQEND
  8
T05SSILL
  0
POLYLINE
  8
T05SSILL
 62
13
 66
     1
 70
     9
  0
VERTEX
  8
T05SSILL
 62
13
 10
-647.088
 20
165.060
 30
4729.320
 70
    32
  0
VERTEX
  8
T05SSILL
 62
13
 10
-638.416
 20
138.229
 30
4729.320
 70
    32
  0
VERTEX
  8
T05SSILL
 62
13
 10
-640.443
 20
134.538
 30
4729.320
 70
    32
  0
VERTEX
  8
T05SSILL
 62
13
 10
-648.975
 20
132.966
 30
4729.320
 70
    32
  0
VERTEX
  8
T05SSILL
 62
13
 10
-651.347
 20
134.376
 30
4729.320
 70
    32
  0
VERTEX
  8
T05SSILL
 62
13
 10
-663.006
 20
163.584
 30
4729.320
 70
    32
  0
VERTEX
  8
T05SSILL
 62
13
 10
-662.211
 20
166.837
 30
4729.320
 70
    32
  0
VERTEX
  8
T05SSILL
 62
13
 10
-657.287
 20
166.567
 30
4729.320
 70
    32
  0
SEQEND
  8
T05SSILL
  0
POLYLINE
  8
T05SSILL
 62
13
 66
     1
 70
     9
  0
VERTEX
  8
T05SSILL
 62
13
 10
-521.029
 20
-212.657
 30
4729.320
 70
    32
  0
VERTEX
  8
T05SSILL
 62
13
 10
-472.790
 20
-193.657
 30
4729.320
 70
    32
  0
VERTEX
  8
T05SSILL
 62
13
 10
-469.410
 20
-178.951
 30
4729.320
 70
    32
  0
VERTEX
  8
T05SSILL
 62
13
 10
-614.622
 20
29.425
 30
4729.320
 70
    32
  0
VERTEX
  8
T05SSILL
 62
13
 10
-616.082
 20
19.213
 30
4729.320
 70
    32
  0
SEQEND
  8
T05SSILL
  0
POLYLINE
  8
T05SSILL
 62
13
 66
     1
 70
     9
  0
VERTEX
  8
T05SSILL
 62
13
 10
-246.975
 20
-128.102
 30
4729.320
 70
    32
  0
VERTEX
  8
T05SSILL
 62
13
 10
-113.245
 20
-299.299
 30
4729.320
 70
    32
  0
VERTEX
  8
T05SSILL
 62
13
 10
-113.022
 20
-312.760
 30
4729.320
 70
    32
  0
VERTEX
  8
T05SSILL
 62
13
 10
-119.812
 20
-333.374
 30
4729.320
 70
    32
  0
VERTEX
  8
T05SSILL
 62
13
 10
-125.519
 20
-336.825
 30
4729.320
 70
    32
  0
VERTEX
  8
T05SSILL
 62
13
 10
-187.445
 20
-342.059
 30
4729.320
 70
    32
  0
VERTEX
  8
T05SSILL
 62
13
 10
-189.168
 20
-327.635
 30
4729.320
 70
    32
  0
VERTEX
  8
T05SSILL
 62
13
 10
-207.896
 20
-331.484
 30
4729.320
 70
    32
  0
VERTEX
  8
T05SSILL
 62
13
 10
-206.798
 20
-343.535
 30
4729.320
 70
    32
  0
VERTEX
  8
T05SSILL
 62
13
 10
-331.475
 20
-344.677
 30
4729.320
 70
    32
  0
VERTEX
  8
T05SSILL
 62
13
 10
-349.065
 20
-346.939
 30
4729.320
 70
    32
  0
VERTEX
  8
T05SSILL
 62
13
 10
-395.399
 20
-357.133
 30
4729.320
 70
    32
  0
VERTEX
  8
T05SSILL
 62
13
 10
-417.574
 20
-331.870
 30
4729.320
 70
    32
  0
VERTEX
  8
T05SSILL
 62
13
 10
-399.900
 20
-328.552
 30
4729.320
 70
    32
  0
VERTEX
  8
T05SSILL
 62
13
 10
-382.767
 20
-321.365
 30
4729.320
 70
    32
  0
VERTEX
  8
T05SSILL
 62
13
 10
-364.744
 20
-317.078
 30
4729.320
 70
    32
  0
VERTEX
  8
T05SSILL
 62
13
 10
-370.153
 20
-305.394
 30
4729.320
 70
    32
  0
VERTEX
  8
T05SSILL
 62
13
 10
-382.014
 20
-285.286
 30
4729.320
 70
    32
  0
VERTEX
  8
T05SSILL
 62
13
 10
-379.367
 20
-262.488
 30
4729.320
 70
    32
  0
VERTEX
  8
T05SSILL
 62
13
 10
-380.307
 20
-245.157
 30
4729.320
 70
    32
  0
VERTEX
  8
T05SSILL
 62
13
 10
-383.776
 20
-234.699
 30
4729.320
 70
    32
  0
VERTEX
  8
T05SSILL
 62
13
 10
-340.077
 20
-200.757
 30
4729.320
 70
    32
  0
SEQEND
  8
T05SSILL
  0
POLYLINE
  8
T05SSILL
 62
13
 66
     1
 70
     9
  0
VERTEX
  8
T05SSILL
 62
13
 10
-441.242
 20
-407.096
 30
4729.320
 70
    32
  0
VERTEX
  8
T05SSILL
 62
13
 10
-431.588
 20
-400.111
 30
4729.320
 70
    32
  0
VERTEX
  8
T05SSILL
 62
13
 10
-423.282
 20
-385.036
 30
4729.320
 70
    32
  0
VERTEX
  8
T05SSILL
 62
13
 10
-422.896
 20
-369.724
 30
4729.320
 70
    32
  0
VERTEX
  8
T05SSILL
 62
13
 10
-430.875
 20
-352.770
 30
4729.320
 70
    32
  0
VERTEX
  8
T05SSILL
 62
13
 10
-462.860
 20
-339.860
 30
4729.320
 70
    32
  0
VERTEX
  8
T05SSILL
 62
13
 10
-467.165
 20
-341.811
 30
4729.320
 70
    32
  0
VERTEX
  8
T05SSILL
 62
13
 10
-465.469
 20
-348.493
 30
4729.320
 70
    32
  0
SEQEND
  8
T05SSILL
  0
POLYLINE
  8
T05SSILL
 62
13
 66
     1
 70
     9
  0
VERTEX
  8
T05SSILL
 62
13
 10
1238.808
 20
403.043
 30
4729.320
 70
    32
  0
VERTEX
  8
T05SSILL
 62
13
 10
1245.112
 20
409.128
 30
4729.320
 70
    32
  0
VERTEX
  8
T05SSILL
 62
13
 10
1240.952
 20
420.825
 30
4729.320
 70
    32
  0
VERTEX
  8
T05SSILL
 62
13
 10
1234.329
 20
427.735
 30
4729.320
 70
    32
  0
VERTEX
  8
T05SSILL
 62
13
 10
1224.672
 20
427.388
 30
4729.320
 70
    32
  0
VERTEX
  8
T05SSILL
 62
13
 10
1209.030
 20
412.880
 30
4729.320
 70
    32
  0
VERTEX
  8
T05SSILL
 62
13
 10
1195.434
 20
406.841
 30
4729.320
 70
    32
  0
VERTEX
  8
T05SSILL
 62
13
 10
1189.718
 20
407.179
 30
4729.320
 70
    32
  0
VERTEX
  8
T05SSILL
 62
13
 10
1164.505
 20
417.185
 30
4729.320
 70
    32
  0
VERTEX
  8
T05SSILL
 62
13
 10
1157.136
 20
406.776
 30
4729.320
 70
    32
  0
VERTEX
  8
T05SSILL
 62
13
 10
1164.428
 20
401.723
 30
4729.320
 70
    32
  0
VERTEX
  8
T05SSILL
 62
13
 10
1159.993
 20
394.266
 30
4729.320
 70
    32
  0
VERTEX
  8
T05SSILL
 62
13
 10
1138.748
 20
398.456
 30
4729.320
 70
    32
  0
VERTEX
  8
T05SSILL
 62
13
 10
1119.561
 20
400.575
 30
4729.320
 70
    32
  0
VERTEX
  8
T05SSILL
 62
13
 10
1099.702
 20
396.007
 30
4729.320
 70
    32
  0
VERTEX
  8
T05SSILL
 62
13
 10
1091.709
 20
381.107
 30
4729.320
 70
    32
  0
VERTEX
  8
T05SSILL
 62
13
 10
1100.153
 20
375.547
 30
4729.320
 70
    32
  0
VERTEX
  8
T05SSILL
 62
13
 10
1130.544
 20
380.654
 30
4729.320
 70
    32
  0
SEQEND
  8
T05SSILL
  0
POLYLINE
  8
T05SSILL
 62
13
 66
     1
 70
     9
  0
VERTEX
  8
T05SSILL
 62
13
 10
1049.120
 20
400.116
 30
4729.320
 70
    32
  0
VERTEX
  8
T05SSILL
 62
13
 10
1072.570
 20
405.276
 30
4729.320
 70
    32
  0
VERTEX
  8
T05SSILL
 62
13
 10
1066.456
 20
398.316
 30
4729.320
 70
    32
  0
VERTEX
  8
T05SSILL
 62
13
 10
1057.759
 20
378.572
 30
4729.320
 70
    32
  0
VERTEX
  8
T05SSILL
 62
13
 10
1051.824
 20
371.440
 30
4729.320
 70
    32
  0
VERTEX
  8
T05SSILL
 62
13
 10
1051.679
 20
364.761
 30
4729.320
 70
    32
  0
VERTEX
  8
T05SSILL
 62
13
 10
1038.723
 20
362.247
 30
4729.320
 70
    32
  0
VERTEX
  8
T05SSILL
 62
13
 10
1036.752
 20
364.408
 30
4729.320
 70
    32
  0
SEQEND
  8
T05SSILL
  0
POLYLINE
  8
T05SSILL
 62
13
 66
     1
 70
     9
  0
VERTEX
  8
T05SSILL
 62
13
 10
1012.955
 20
294.678
 30
4729.320
 70
    32
  0
VERTEX
  8
T05SSILL
 62
13
 10
1018.614
 20
292.583
 30
4729.320
 70
    32
  0
VERTEX
  8
T05SSILL
 62
13
 10
1017.286
 20
283.248
 30
4729.320
 70
    32
  0
VERTEX
  8
T05SSILL
 62
13
 10
1009.250
 20
260.881
 30
4729.320
 70
    32
  0
VERTEX
  8
T05SSILL
 62
13
 10
1009.307
 20
227.941
 30
4729.320
 70
    32
  0
VERTEX
  8
T05SSILL
 62
13
 10
1003.435
 20
217.296
 30
4729.320
 70
    32
  0
VERTEX
  8
T05SSILL
 62
13
 10
988.203
 20
219.309
 30
4729.320
 70
    32
  0
VERTEX
  8
T05SSILL
 62
13
 10
987.377
 20
221.315
 30
4729.320
 70
    32
  0
SEQEND
  8
T05SSILL
  0
POLYLINE
  8
T05SSILL
 62
13
 66
     1
 70
     9
  0
VERTEX
  8
T05SSILL
 62
13
 10
1060.635
 20
266.009
 30
4729.320
 70
    32
  0
VERTEX
  8
T05SSILL
 62
13
 10
1055.091
 20
261.606
 30
4729.320
 70
    32
  0
VERTEX
  8
T05SSILL
 62
13
 10
1052.747
 20
255.065
 30
4729.320
 70
    32
  0
VERTEX
  8
T05SSILL
 62
13
 10
1055.029
 20
215.576
 30
4729.320
 70
    32
  0
VERTEX
  8
T05SSILL
 62
13
 10
1060.984
 20
216.648
 30
4729.320
 70
    32
  0
VERTEX
  8
T05SSILL
 62
13
 10
1079.117
 20
239.282
 30
4729.320
 70
    32
  0
VERTEX
  8
T05SSILL
 62
13
 10
1080.008
 20
243.514
 30
4729.320
 70
    32
  0
VERTEX
  8
T05SSILL
 62
13
 10
1076.248
 20
247.488
 30
4729.320
 70
    32
  0
SEQEND
  8
T05SSILL
  0
POLYLINE
  8
T05SSILL
 62
13
 66
     1
 70
     9
  0
VERTEX
  8
T05SSILL
 62
13
 10
974.767
 20
120.072
 30
4729.320
 70
    32
  0
VERTEX
  8
T05SSILL
 62
13
 10
998.678
 20
133.936
 30
4729.320
 70
    32
  0
VERTEX
  8
T05SSILL
 62
13
 10
1018.586
 20
210.010
 30
4729.320
 70
    32
  0
VERTEX
  8
T05SSILL
 62
13
 10
1032.653
 20
209.293
 30
4729.320
 70
    32
  0
VERTEX
  8
T05SSILL
 62
13
 10
1044.052
 20
195.617
 30
4729.320
 70
    32
  0
VERTEX
  8
T05SSILL
 62
13
 10
1049.859
 20
200.024
 30
4729.320
 70
    32
  0
VERTEX
  8
T05SSILL
 62
13
 10
1041.527
 20
209.187
 30
4729.320
 70
    32
  0
VERTEX
  8
T05SSILL
 62
13
 10
1058.585
 20
208.260
 30
4729.320
 70
    32
  0
VERTEX
  8
T05SSILL
 62
13
 10
1066.434
 20
211.474
 30
4729.320
 70
    32
  0
VERTEX
  8
T05SSILL
 62
13
 10
1086.745
 20
235.113
 30
4729.320
 70
    32
  0
VERTEX
  8
T05SSILL
 62
13
 10
1091.023
 20
231.675
 30
4729.320
 70
    32
  0
VERTEX
  8
T05SSILL
 62
13
 10
1116.554
 20
183.902
 30
4729.320
 70
    32
  0
VERTEX
  8
T05SSILL
 62
13
 10
1116.860
 20
171.610
 30
4729.320
 70
    32
  0
VERTEX
  8
T05SSILL
 62
13
 10
1111.977
 20
159.664
 30
4729.320
 70
    32
  0
VERTEX
  8
T05SSILL
 62
13
 10
1091.976
 20
158.168
 30
4729.320
 70
    32
  0
VERTEX
  8
T05SSILL
 62
13
 10
1079.009
 20
161.188
 30
4729.320
 70
    32
  0
VERTEX
  8
T05SSILL
 62
13
 10
1064.410
 20
162.158
 30
4729.320
 70
    32
  0
VERTEX
  8
T05SSILL
 62
13
 10
1042.945
 20
144.121
 30
4729.320
 70
    32
  0
VERTEX
  8
T05SSILL
 62
13
 10
1001.691
 20
102.718
 30
4729.320
 70
    32
  0
VERTEX
  8
T05SSILL
 62
13
 10
990.706
 20
102.962
 30
4729.320
 70
    32
  0
SEQEND
  8
T05SSILL
  0
POLYLINE
  8
T05SSILL
 62
13
 66
     1
 70
     9
  0
VERTEX
  8
T05SSILL
 62
13
 10
-177.758
 20
-485.379
 30
4729.320
 70
    32
  0
VERTEX
  8
T05SSILL
 62
13
 10
-158.415
 20
-471.385
 30
4729.320
 70
    32
  0
VERTEX
  8
T05SSILL
 62
13
 10
-150.859
 20
-471.066
 30
4729.320
 70
    32
  0
VERTEX
  8
T05SSILL
 62
13
 10
-146.411
 20
-473.796
 30
4729.320
 70
    32
  0
VERTEX
  8
T05SSILL
 62
13
 10
-145.283
 20
-477.643
 30
4729.320
 70
    32
  0
VERTEX
  8
T05SSILL
 62
13
 10
-153.225
 20
-480.783
 30
4729.320
 70
    32
  0
VERTEX
  8
T05SSILL
 62
13
 10
-160.066
 20
-486.364
 30
4729.320
 70
    32
  0
VERTEX
  8
T05SSILL
 62
13
 10
-169.706
 20
-502.021
 30
4729.320
 70
    32
  0
VERTEX
  8
T05SSILL
 62
13
 10
-172.779
 20
-497.595
 30
4729.320
 70
    32
  0
VERTEX
  8
T05SSILL
 62
13
 10
-170.781
 20
-496.326
 30
4729.320
 70
    32
  0
SEQEND
  8
T05SSILL
  0
POLYLINE
  8
T05SSILL
 62
13
 66
     1
 70
     9
  0
VERTEX
  8
T05SSILL
 62
13
 10
-161.836
 20
-513.655
 30
4729.320
 70
    32
  0
VERTEX
  8
T05SSILL
 62
13
 10
-159.079
 20
-501.381
 30
4729.320
 70
    32
  0
VERTEX
  8
T05SSILL
 62
13
 10
-156.047
 20
-494.289
 30
4729.320
 70
    32
  0
VERTEX
  8
T05SSILL
 62
13
 10
-149.560
 20
-488.627
 30
4729.320
 70
    32
  0
VERTEX
  8
T05SSILL
 62
13
 10
-134.747
 20
-481.489
 30
4729.320
 70
    32
  0
VERTEX
  8
T05SSILL
 62
13
 10
-127.923
 20
-479.689
 30
4729.320
 70
    32
  0
VERTEX
  8
T05SSILL
 62
13
 10
-99.926
 20
-560.669
 30
4729.320
 70
    32
  0
VERTEX
  8
T05SSILL
 62
13
 10
-101.987
 20
-563.257
 30
4729.320
 70
    32
  0
VERTEX
  8
T05SSILL
 62
13
 10
-139.554
 20
-548.141
 30
4729.320
 70
    32
  0
SEQEND
  8
T05SSILL
  0
POLYLINE
  8
T05SSILL
 62
13
 66
     1
 70
     9
  0
VERTEX
  8
T05SSILL
 62
13
 10
-269.168
 20
-557.010
 30
4729.320
 70
    32
  0
VERTEX
  8
T05SSILL
 62
13
 10
-263.669
 20
-550.223
 30
4729.320
 70
    32
  0
VERTEX
  8
T05SSILL
 62
13
 10
-202.437
 20
-528.754
 30
4729.320
 70
    32
  0
VERTEX
  8
T05SSILL
 62
13
 10
-186.632
 20
-550.877
 30
4729.320
 70
    32
  0
VERTEX
  8
T05SSILL
 62
13
 10
-191.693
 20
-566.888
 30
4729.320
 70
    32
  0
VERTEX
  8
T05SSILL
 62
13
 10
-171.411
 20
-597.894
 30
4729.320
 70
    32
  0
VERTEX
  8
T05SSILL
 62
13
 10
-178.011
 20
-602.240
 30
4729.320
 70
    32
  0
VERTEX
  8
T05SSILL
 62
13
 10
-174.921
 20
-607.545
 30
4729.320
 70
    32
  0
VERTEX
  8
T05SSILL
 62
13
 10
-180.034
 20
-611.510
 30
4729.320
 70
    32
  0
VERTEX
  8
T05SSILL
 62
13
 10
-172.833
 20
-620.343
 30
4729.320
 70
    32
  0
VERTEX
  8
T05SSILL
 62
13
 10
-177.687
 20
-624.040
 30
4729.320
 70
    32
  0
VERTEX
  8
T05SSILL
 62
13
 10
-176.678
 20
-626.219
 30
4729.320
 70
    32
  0
VERTEX
  8
T05SSILL
 62
13
 10
-181.020
 20
-629.115
 30
4729.320
 70
    32
  0
VERTEX
  8
T05SSILL
 62
13
 10
-174.592
 20
-638.929
 30
4729.320
 70
    32
  0
VERTEX
  8
T05SSILL
 62
13
 10
-178.577
 20
-642.082
 30
4729.320
 70
    32
  0
VERTEX
  8
T05SSILL
 62
13
 10
-176.120
 20
-646.432
 30
4729.320
 70
    32
  0
VERTEX
  8
T05SSILL
 62
13
 10
-166.109
 20
-641.142
 30
4729.320
 70
    32
  0
VERTEX
  8
T05SSILL
 62
13
 10
-149.653
 20
-665.099
 30
4729.320
 70
    32
  0
VERTEX
  8
T05SSILL
 62
13
 10
-186.154
 20
-692.431
 30
4729.320
 70
    32
  0
VERTEX
  8
T05SSILL
 62
13
 10
-174.680
 20
-708.657
 30
4729.320
 70
    32
  0
VERTEX
  8
T05SSILL
 62
13
 10
-201.310
 20
-727.889
 30
4729.320
 70
    32
  0
VERTEX
  8
T05SSILL
 62
13
 10
-211.535
 20
-712.607
 30
4729.320
 70
    32
  0
VERTEX
  8
T05SSILL
 62
13
 10
-196.696
 20
-702.215
 30
4729.320
 70
    32
  0
VERTEX
  8
T05SSILL
 62
13
 10
-203.385
 20
-692.581
 30
4729.320
 70
    32
  0
VERTEX
  8
T05SSILL
 62
13
 10
-198.615
 20
-689.062
 30
4729.320
 70
    32
  0
VERTEX
  8
T05SSILL
 62
13
 10
-202.058
 20
-683.676
 30
4729.320
 70
    32
  0
VERTEX
  8
T05SSILL
 62
13
 10
-197.639
 20
-680.251
 30
4729.320
 70
    32
  0
VERTEX
  8
T05SSILL
 62
13
 10
-234.337
 20
-627.397
 30
4729.320
 70
    32
  0
VERTEX
  8
T05SSILL
 62
13
 10
-229.555
 20
-624.493
 30
4729.320
 70
    32
  0
VERTEX
  8
T05SSILL
 62
13
 10
-253.595
 20
-590.040
 30
4729.320
 70
    32
  0
VERTEX
  8
T05SSILL
 62
13
 10
-248.304
 20
-586.247
 30
4729.320
 70
    32
  0
SEQEND
  8
T05SSILL
  0
POLYLINE
  8
T05SSILL
 62
13
 66
     1
 70
     9
  0
VERTEX
  8
T05SSILL
 62
13
 10
-111.210
 20
-591.657
 30
4729.320
 70
    32
  0
VERTEX
  8
T05SSILL
 62
13
 10
-97.240
 20
-581.808
 30
4729.320
 70
    32
  0
VERTEX
  8
T05SSILL
 62
13
 10
-93.398
 20
-580.417
 30
4729.320
 70
    32
  0
VERTEX
  8
T05SSILL
 62
13
 10
-83.589
 20
-592.277
 30
4729.320
 70
    32
  0
VERTEX
  8
T05SSILL
 62
13
 10
-56.113
 20
-631.765
 30
4729.320
 70
    32
  0
VERTEX
  8
T05SSILL
 62
13
 10
-45.857
 20
-644.057
 30
4729.320
 70
    32
  0
VERTEX
  8
T05SSILL
 62
13
 10
-31.426
 20
-658.556
 30
4729.320
 70
    32
  0
VERTEX
  8
T05SSILL
 62
13
 10
85.632
 20
-725.102
 30
4729.320
 70
    32
  0
VERTEX
  8
T05SSILL
 62
13
 10
89.593
 20
-729.951
 30
4729.320
 70
    32
  0
VERTEX
  8
T05SSILL
 62
13
 10
88.089
 20
-734.112
 30
4729.320
 70
    32
  0
VERTEX
  8
T05SSILL
 62
13
 10
11.926
 20
-789.012
 30
4729.320
 70
    32
  0
VERTEX
  8
T05SSILL
 62
13
 10
-0.028
 20
-789.238
 30
4729.320
 70
    32
  0
VERTEX
  8
T05SSILL
 62
13
 10
-7.169
 20
-778.910
 30
4729.320
 70
    32
  0
VERTEX
  8
T05SSILL
 62
13
 10
-17.202
 20
-750.523
 30
4729.320
 70
    32
  0
VERTEX
  8
T05SSILL
 62
13
 10
-19.772
 20
-716.895
 30
4729.320
 70
    32
  0
VERTEX
  8
T05SSILL
 62
13
 10
-25.378
 20
-708.736
 30
4729.320
 70
    32
  0
VERTEX
  8
T05SSILL
 62
13
 10
-10.174
 20
-699.040
 30
4729.320
 70
    32
  0
VERTEX
  8
T05SSILL
 62
13
 10
-45.331
 20
-648.619
 30
4729.320
 70
    32
  0
VERTEX
  8
T05SSILL
 62
13
 10
-59.842
 20
-657.774
 30
4729.320
 70
    32
  0
VERTEX
  8
T05SSILL
 62
13
 10
-93.416
 20
-611.983
 30
4729.320
 70
    32
  0
VERTEX
  8
T05SSILL
 62
13
 10
-98.456
 20
-615.156
 30
4729.320
 70
    32
  0
VERTEX
  8
T05SSILL
 62
13
 10
-99.997
 20
-612.723
 30
4729.320
 70
    32
  0
VERTEX
  8
T05SSILL
 62
13
 10
-104.327
 20
-616.234
 30
4729.320
 70
    32
  0
VERTEX
  8
T05SSILL
 62
13
 10
-110.021
 20
-608.077
 30
4729.320
 70
    32
  0
VERTEX
  8
T05SSILL
 62
13
 10
-101.523
 20
-601.761
 30
4729.320
 70
    32
  0
SEQEND
  8
T05SSILL
  0
POLYLINE
  8
T05SSILL
 62
13
 66
     1
 70
     9
  0
VERTEX
  8
T05SSILL
 62
13
 10
-234.571
 20
-787.078
 30
4729.320
 70
    32
  0
VERTEX
  8
T05SSILL
 62
13
 10
-231.681
 20
-781.835
 30
4729.320
 70
    32
  0
VERTEX
  8
T05SSILL
 62
13
 10
-223.127
 20
-778.508
 30
4729.320
 70
    32
  0
VERTEX
  8
T05SSILL
 62
13
 10
-198.986
 20
-813.662
 30
4729.320
 70
    32
  0
VERTEX
  8
T05SSILL
 62
13
 10
-193.432
 20
-809.776
 30
4729.320
 70
    32
  0
VERTEX
  8
T05SSILL
 62
13
 10
-139.033
 20
-887.355
 30
4729.320
 70
    32
  0
VERTEX
  8
T05SSILL
 62
13
 10
-142.084
 20
-898.052
 30
4729.320
 70
    32
  0
VERTEX
  8
T05SSILL
 62
13
 10
-160.568
 20
-910.975
 30
4729.320
 70
    32
  0
VERTEX
  8
T05SSILL
 62
13
 10
-166.144
 20
-909.058
 30
4729.320
 70
    32
  0
SEQEND
  8
T05SSILL
  0
POLYLINE
  8
T05SSILL
 62
13
 66
     1
 70
     9
  0
VERTEX
  8
T05SSILL
 62
13
 10
111.511
 20
-735.868
 30
4729.320
 70
    32
  0
VERTEX
  8
T05SSILL
 62
13
 10
152.713
 20
-706.073
 30
4729.320
 70
    32
  0
VERTEX
  8
T05SSILL
 62
13
 10
168.234
 20
-699.185
 30
4729.320
 70
    32
  0
VERTEX
  8
T05SSILL
 62
13
 10
216.833
 20
-767.641
 30
4729.320
 70
    32
  0
VERTEX
  8
T05SSILL
 62
13
 10
215.830
 20
-779.706
 30
4729.320
 70
    32
  0
VERTEX
  8
T05SSILL
 62
13
 10
160.984
 20
-818.024
 30
4729.320
 70
    32
  0
VERTEX
  8
T05SSILL
 62
13
 10
152.465
 20
-809.217
 30
4729.320
 70
    32
  0
VERTEX
  8
T05SSILL
 62
13
 10
125.562
 20
-767.520
 30
4729.320
 70
    32
  0
SEQEND
  8
T05SSILL
  0
POLYLINE
  8
T05SSILL
 62
13
 66
     1
 70
     9
  0
VERTEX
  8
T05SSILL
 62
13
 10
122.029
 20
-845.754
 30
4729.320
 70
    32
  0
VERTEX
  8
T05SSILL
 62
13
 10
81.867
 20
-837.545
 30
4729.320
 70
    32
  0
VERTEX
  8
T05SSILL
 62
13
 10
31.874
 20
-783.711
 30
4729.320
 70
    32
  0
VERTEX
  8
T05SSILL
 62
13
 10
76.706
 20
-750.594
 30
4729.320
 70
    32
  0
VERTEX
  8
T05SSILL
 62
13
 10
93.872
 20
-742.356
 30
4729.320
 70
    32
  0
VERTEX
  8
T05SSILL
 62
13
 10
102.287
 20
-745.626
 30
4729.320
 70
    32
  0
VERTEX
  8
T05SSILL
 62
13
 10
105.078
 20
-753.751
 30
4729.320
 70
    32
  0
VERTEX
  8
T05SSILL
 62
13
 10
137.942
 20
-808.436
 30
4729.320
 70
    32
  0
VERTEX
  8
T05SSILL
 62
13
 10
146.977
 20
-816.618
 30
4729.320
 70
    32
  0
VERTEX
  8
T05SSILL
 62
13
 10
151.933
 20
-822.943
 30
4729.320
 70
    32
  0
VERTEX
  8
T05SSILL
 62
13
 10
140.243
 20
-832.485
 30
4729.320
 70
    32
  0
SEQEND
  8
T05SSILL
  0
POLYLINE
  8
T05SSILL
 62
13
 66
     1
 70
     9
  0
VERTEX
  8
T05SSILL
 62
13
 10
217.952
 20
-757.069
 30
4729.320
 70
    32
  0
VERTEX
  8
T05SSILL
 62
13
 10
216.134
 20
-753.937
 30
4729.320
 70
    32
  0
VERTEX
  8
T05SSILL
 62
13
 10
217.612
 20
-753.030
 30
4729.320
 70
    32
  0
VERTEX
  8
T05SSILL
 62
13
 10
323.724
 20
-831.214
 30
4729.320
 70
    32
  0
VERTEX
  8
T05SSILL
 62
13
 10
327.910
 20
-838.697
 30
4729.320
 70
    32
  0
VERTEX
  8
T05SSILL
 62
13
 10
324.846
 20
-848.691
 30
4729.320
 70
    32
  0
VERTEX
  8
T05SSILL
 62
13
 10
314.478
 20
-863.043
 30
4729.320
 70
    32
  0
VERTEX
  8
T05SSILL
 62
13
 10
305.713
 20
-869.188
 30
4729.320
 70
    32
  0
VERTEX
  8
T05SSILL
 62
13
 10
299.600
 20
-871.414
 30
4729.320
 70
    32
  0
VERTEX
  8
T05SSILL
 62
13
 10
286.418
 20
-853.198
 30
4729.320
 70
    32
  0
SEQEND
  8
T05SSILL
  0
POLYLINE
  8
T05SSILL
 62
13
 66
     1
 70
     9
  0
VERTEX
  8
T05SSILL
 62
13
 10
739.986
 20
-278.210
 30
4729.320
 70
    32
  0
VERTEX
  8
T05SSILL
 62
13
 10
738.280
 20
-283.548
 30
4729.320
 70
    32
  0
VERTEX
  8
T05SSILL
 62
13
 10
740.356
 20
-288.519
 30
4729.320
 70
    32
  0
VERTEX
  8
T05SSILL
 62
13
 10
823.499
 20
-403.999
 30
4729.320
 70
    32
  0
VERTEX
  8
T05SSILL
 62
13
 10
886.385
 20
-416.926
 30
4729.320
 70
    32
  0
VERTEX
  8
T05SSILL
 62
13
 10
882.756
 20
-403.530
 30
4729.320
 70
    32
  0
VERTEX
  8
T05SSILL
 62
13
 10
877.205
 20
-397.243
 30
4729.320
 70
    32
  0
VERTEX
  8
T05SSILL
 62
13
 10
868.181
 20
-392.991
 30
4729.320
 70
    32
  0
VERTEX
  8
T05SSILL
 62
13
 10
860.065
 20
-392.948
 30
4729.320
 70
    32
  0
VERTEX
  8
T05SSILL
 62
13
 10
854.343
 20
-390.105
 30
4729.320
 70
    32
  0
VERTEX
  8
T05SSILL
 62
13
 10
850.387
 20
-380.864
 30
4729.320
 70
    32
  0
VERTEX
  8
T05SSILL
 62
13
 10
848.160
 20
-350.937
 30
4729.320
 70
    32
  0
VERTEX
  8
T05SSILL
 62
13
 10
842.675
 20
-334.152
 30
4729.320
 70
    32
  0
VERTEX
  8
T05SSILL
 62
13
 10
853.149
 20
-313.933
 30
4729.320
 70
    32
  0
VERTEX
  8
T05SSILL
 62
13
 10
857.610
 20
-309.314
 30
4729.320
 70
    32
  0
VERTEX
  8
T05SSILL
 62
13
 10
857.671
 20
-305.078
 30
4729.320
 70
    32
  0
VERTEX
  8
T05SSILL
 62
13
 10
846.482
 20
-292.595
 30
4729.320
 70
    32
  0
VERTEX
  8
T05SSILL
 62
13
 10
832.917
 20
-296.492
 30
4729.320
 70
    32
  0
VERTEX
  8
T05SSILL
 62
13
 10
827.178
 20
-283.331
 30
4729.320
 70
    32
  0
VERTEX
  8
T05SSILL
 62
13
 10
826.499
 20
-238.985
 30
4729.320
 70
    32
  0
VERTEX
  8
T05SSILL
 62
13
 10
836.292
 20
-232.632
 30
4729.320
 70
    32
  0
VERTEX
  8
T05SSILL
 62
13
 10
841.523
 20
-220.671
 30
4729.320
 70
    32
  0
VERTEX
  8
T05SSILL
 62
13
 10
860.900
 20
-216.439
 30
4729.320
 70
    32
  0
VERTEX
  8
T05SSILL
 62
13
 10
864.333
 20
-209.730
 30
4729.320
 70
    32
  0
VERTEX
  8
T05SSILL
 62
13
 10
869.346
 20
-205.977
 30
4729.320
 70
    32
  0
VERTEX
  8
T05SSILL
 62
13
 10
876.924
 20
-189.542
 30
4729.320
 70
    32
  0
VERTEX
  8
T05SSILL
 62
13
 10
871.128
 20
-183.967
 30
4729.320
 70
    32
  0
VERTEX
  8
T05SSILL
 62
13
 10
840.760
 20
-205.610
 30
4729.320
 70
    32
  0
SEQEND
  8
T05SSILL
  0
POLYLINE
  8
T05SSILL
 62
13
 66
     1
 70
     9
  0
VERTEX
  8
T05SSILL
 62
13
 10
897.866
 20
-333.353
 30
4729.320
 70
    32
  0
VERTEX
  8
T05SSILL
 62
13
 10
908.292
 20
-330.776
 30
4729.320
 70
    32
  0
VERTEX
  8
T05SSILL
 62
13
 10
923.268
 20
-333.367
 30
4729.320
 70
    32
  0
VERTEX
  8
T05SSILL
 62
13
 10
932.795
 20
-359.302
 30
4729.320
 70
    32
  0
VERTEX
  8
T05SSILL
 62
13
 10
947.747
 20
-361.011
 30
4729.320
 70
    32
  0
VERTEX
  8
T05SSILL
 62
13
 10
954.717
 20
-364.349
 30
4729.320
 70
    32
  0
VERTEX
  8
T05SSILL
 62
13
 10
964.559
 20
-359.759
 30
4729.320
 70
    32
  0
VERTEX
  8
T05SSILL
 62
13
 10
969.823
 20
-349.032
 30
4729.320
 70
    32
  0
VERTEX
  8
T05SSILL
 62
13
 10
995.910
 20
-348.321
 30
4729.320
 70
    32
  0
VERTEX
  8
T05SSILL
 62
13
 10
1010.216
 20
-345.726
 30
4729.320
 70
    32
  0
VERTEX
  8
T05SSILL
 62
13
 10
1017.186
 20
-345.801
 30
4729.320
 70
    32
  0
VERTEX
  8
T05SSILL
 62
13
 10
1020.993
 20
-359.280
 30
4729.320
 70
    32
  0
VERTEX
  8
T05SSILL
 62
13
 10
1020.119
 20
-369.270
 30
4729.320
 70
    32
  0
VERTEX
  8
T05SSILL
 62
13
 10
1023.262
 20
-377.828
 30
4729.320
 70
    32
  0
VERTEX
  8
T05SSILL
 62
13
 10
1016.025
 20
-397.076
 30
4729.320
 70
    32
  0
VERTEX
  8
T05SSILL
 62
13
 10
1009.036
 20
-396.296
 30
4729.320
 70
    32
  0
VERTEX
  8
T05SSILL
 62
13
 10
976.510
 20
-406.708
 30
4729.320
 70
    32
  0
VERTEX
  8
T05SSILL
 62
13
 10
945.845
 20
-407.720
 30
4729.320
 70
    32
  0
VERTEX
  8
T05SSILL
 62
13
 10
935.063
 20
-406.956
 30
4729.320
 70
    32
  0
VERTEX
  8
T05SSILL
 62
13
 10
921.820
 20
-396.733
 30
4729.320
 70
    32
  0
VERTEX
  8
T05SSILL
 62
13
 10
918.227
 20
-384.659
 30
4729.320
 70
    32
  0
VERTEX
  8
T05SSILL
 62
13
 10
909.512
 20
-375.548
 30
4729.320
 70
    32
  0
VERTEX
  8
T05SSILL
 62
13
 10
909.439
 20
-369.640
 30
4729.320
 70
    32
  0
VERTEX
  8
T05SSILL
 62
13
 10
904.996
 20
-358.737
 30
4729.320
 70
    32
  0
SEQEND
  8
T05SSILL
  0
POLYLINE
  8
T05SSILL
 62
13
 66
     1
 70
     9
  0
VERTEX
  8
T05SSILL
 62
13
 10
1000.171
 20
-291.052
 30
4729.320
 70
    32
  0
VERTEX
  8
T05SSILL
 62
13
 10
980.725
 20
-295.992
 30
4729.320
 70
    32
  0
VERTEX
  8
T05SSILL
 62
13
 10
975.697
 20
-295.953
 30
4729.320
 70
    32
  0
VERTEX
  8
T05SSILL
 62
13
 10
974.311
 20
-287.170
 30
4729.320
 70
    32
  0
VERTEX
  8
T05SSILL
 62
13
 10
980.226
 20
-277.660
 30
4729.320
 70
    32
  0
VERTEX
  8
T05SSILL
 62
13
 10
985.675
 20
-273.719
 30
4729.320
 70
    32
  0
VERTEX
  8
T05SSILL
 62
13
 10
994.724
 20
-272.414
 30
4729.320
 70
    32
  0
VERTEX
  8
T05SSILL
 62
13
 10
996.516
 20
-276.687
 30
4729.320
 70
    32
  0
SEQEND
  8
T05SSILL
  0
POLYLINE
  8
T05SSILL
 62
13
 66
     1
 70
     9
  0
VERTEX
  8
T05SSILL
 62
13
 10
1082.575
 20
-275.841
 30
4729.320
 70
    32
  0
VERTEX
  8
T05SSILL
 62
13
 10
1078.598
 20
-249.666
 30
4729.320
 70
    32
  0
VERTEX
  8
T05SSILL
 62
13
 10
1080.381
 20
-243.884
 30
4729.320
 70
    32
  0
VERTEX
  8
T05SSILL
 62
13
 10
1085.239
 20
-237.666
 30
4729.320
 70
    32
  0
VERTEX
  8
T05SSILL
 62
13
 10
1090.191
 20
-225.184
 30
4729.320
 70
    32
  0
VERTEX
  8
T05SSILL
 62
13
 10
1097.929
 20
-211.390
 30
4729.320
 70
    32
  0
VERTEX
  8
T05SSILL
 62
13
 10
1103.428
 20
-206.036
 30
4729.320
 70
    32
  0
VERTEX
  8
T05SSILL
 62
13
 10
1110.190
 20
-214.672
 30
4729.320
 70
    32
  0
VERTEX
  8
T05SSILL
 62
13
 10
1109.754
 20
-237.527
 30
4729.320
 70
    32
  0
VERTEX
  8
T05SSILL
 62
13
 10
1110.987
 20
-243.932
 30
4729.320
 70
    32
  0
VERTEX
  8
T05SSILL
 62
13
 10
1106.042
 20
-253.416
 30
4729.320
 70
    32
  0
VERTEX
  8
T05SSILL
 62
13
 10
1100.286
 20
-259.041
 30
4729.320
 70
    32
  0
SEQEND
  8
T05SSILL
  0
POLYLINE
  8
T05SSILL
 62
13
 66
     1
 70
     9
  0
VERTEX
  8
T05SSILL
 62
13
 10
1087.671
 20
-152.135
 30
4729.320
 70
    32
  0
VERTEX
  8
T05SSILL
 62
13
 10
1092.164
 20
-168.153
 30
4729.320
 70
    32
  0
VERTEX
  8
T05SSILL
 62
13
 10
1091.728
 20
-178.043
 30
4729.320
 70
    32
  0
VERTEX
  8
T05SSILL
 62
13
 10
1083.942
 20
-203.039
 30
4729.320
 70
    32
  0
VERTEX
  8
T05SSILL
 62
13
 10
1084.691
 20
-214.309
 30
4729.320
 70
    32
  0
VERTEX
  8
T05SSILL
 62
13
 10
1078.925
 20
-219.581
 30
4729.320
 70
    32
  0
VERTEX
  8
T05SSILL
 62
13
 10
1078.213
 20
-232.301
 30
4729.320
 70
    32
  0
VERTEX
  8
T05SSILL
 62
13
 10
1075.772
 20
-243.040
 30
4729.320
 70
    32
  0
VERTEX
  8
T05SSILL
 62
13
 10
1072.427
 20
-243.307
 30
4729.320
 70
    32
  0
VERTEX
  8
T05SSILL
 62
13
 10
1068.069
 20
-235.488
 30
4729.320
 70
    32
  0
VERTEX
  8
T05SSILL
 62
13
 10
1066.516
 20
-227.064
 30
4729.320
 70
    32
  0
VERTEX
  8
T05SSILL
 62
13
 10
1057.067
 20
-216.914
 30
4729.320
 70
    32
  0
VERTEX
  8
T05SSILL
 62
13
 10
1054.008
 20
-205.002
 30
4729.320
 70
    32
  0
VERTEX
  8
T05SSILL
 62
13
 10
1036.428
 20
-181.314
 30
4729.320
 70
    32
  0
VERTEX
  8
T05SSILL
 62
13
 10
1032.219
 20
-169.258
 30
4729.320
 70
    32
  0
VERTEX
  8
T05SSILL
 62
13
 10
1034.407
 20
-162.142
 30
4729.320
 70
    32
  0
VERTEX
  8
T05SSILL
 62
13
 10
1040.387
 20
-158.275
 30
4729.320
 70
    32
  0
VERTEX
  8
T05SSILL
 62
13
 10
1064.721
 20
-154.701
 30
4729.320
 70
    32
  0
SEQEND
  8
T05SSILL
  0
POLYLINE
  8
T05SSILL
 62
13
 66
     1
 70
     9
  0
VERTEX
  8
T05SSILL
 62
13
 10
1141.647
 20
-165.041
 30
4729.320
 70
    32
  0
VERTEX
  8
T05SSILL
 62
13
 10
1131.010
 20
-166.301
 30
4729.320
 70
    32
  0
VERTEX
  8
T05SSILL
 62
13
 10
1123.106
 20
-164.311
 30
4729.320
 70
    32
  0
VERTEX
  8
T05SSILL
 62
13
 10
1120.265
 20
-160.420
 30
4729.320
 70
    32
  0
VERTEX
  8
T05SSILL
 62
13
 10
1128.978
 20
-146.776
 30
4729.320
 70
    32
  0
VERTEX
  8
T05SSILL
 62
13
 10
1132.878
 20
-150.727
 30
4729.320
 70
    32
  0
SEQEND
  8
T05SSILL
  0
POLYLINE
  8
T05SSILL
 62
13
 66
     1
 70
     9
  0
VERTEX
  8
T05SSILL
 62
13
 10
1008.588
 20
-182.426
 30
4729.320
 70
    32
  0
VERTEX
  8
T05SSILL
 62
13
 10
993.400
 20
-191.483
 30
4729.320
 70
    32
  0
VERTEX
  8
T05SSILL
 62
13
 10
978.850
 20
-198.054
 30
4729.320
 70
    32
  0
VERTEX
  8
T05SSILL
 62
13
 10
971.838
 20
-199.656
 30
4729.320
 70
    32
  0
VERTEX
  8
T05SSILL
 62
13
 10
963.466
 20
-193.446
 30
4729.320
 70
    32
  0
VERTEX
  8
T05SSILL
 62
13
 10
960.944
 20
-185.047
 30
4729.320
 70
    32
  0
VERTEX
  8
T05SSILL
 62
13
 10
963.420
 20
-172.368
 30
4729.320
 70
    32
  0
VERTEX
  8
T05SSILL
 62
13
 10
955.357
 20
-161.298
 30
4729.320
 70
    32
  0
VERTEX
  8
T05SSILL
 62
13
 10
950.085
 20
-145.830
 30
4729.320
 70
    32
  0
VERTEX
  8
T05SSILL
 62
13
 10
949.499
 20
-137.291
 30
4729.320
 70
    32
  0
VERTEX
  8
T05SSILL
 62
13
 10
960.070
 20
-133.563
 30
4729.320
 70
    32
  0
VERTEX
  8
T05SSILL
 62
13
 10
968.319
 20
-135.279
 30
4729.320
 70
    32
  0
VERTEX
  8
T05SSILL
 62
13
 10
971.187
 20
-136.964
 30
4729.320
 70
    32
  0
VERTEX
  8
T05SSILL
 62
13
 10
973.005
 20
-148.645
 30
4729.320
 70
    32
  0
VERTEX
  8
T05SSILL
 62
13
 10
974.885
 20
-152.916
 30
4729.320
 70
    32
  0
VERTEX
  8
T05SSILL
 62
13
 10
1004.359
 20
-169.664
 30
4729.320
 70
    32
  0
VERTEX
  8
T05SSILL
 62
13
 10
1026.116
 20
-178.332
 30
4729.320
 70
    32
  0
VERTEX
  8
T05SSILL
 62
13
 10
1026.913
 20
-184.925
 30
4729.320
 70
    32
  0
VERTEX
  8
T05SSILL
 62
13
 10
1021.178
 20
-188.080
 30
4729.320
 70
    32
  0
SEQEND
  8
T05SSILL
  0
POLYLINE
  8
T05SSILL
 62
13
 66
     1
 70
     9
  0
VERTEX
  8
T05SSILL
 62
13
 10
914.086
 20
-210.050
 30
4729.320
 70
    32
  0
VERTEX
  8
T05SSILL
 62
13
 10
901.041
 20
-207.142
 30
4729.320
 70
    32
  0
VERTEX
  8
T05SSILL
 62
13
 10
895.734
 20
-183.914
 30
4729.320
 70
    32
  0
VERTEX
  8
T05SSILL
 62
13
 10
895.942
 20
-178.616
 30
4729.320
 70
    32
  0
VERTEX
  8
T05SSILL
 62
13
 10
900.939
 20
-174.247
 30
4729.320
 70
    32
  0
VERTEX
  8
T05SSILL
 62
13
 10
921.795
 20
-162.830
 30
4729.320
 70
    32
  0
VERTEX
  8
T05SSILL
 62
13
 10
930.735
 20
-163.997
 30
4729.320
 70
    32
  0
VERTEX
  8
T05SSILL
 62
13
 10
935.195
 20
-188.483
 30
4729.320
 70
    32
  0
VERTEX
  8
T05SSILL
 62
13
 10
938.651
 20
-195.533
 30
4729.320
 70
    32
  0
VERTEX
  8
T05SSILL
 62
13
 10
937.324
 20
-198.656
 30
4729.320
 70
    32
  0
SEQEND
  8
T05SSILL
  0
POLYLINE
  8
T05SSILL
 62
13
 66
     1
 70
     9
  0
VERTEX
  8
T05SSILL
 62
13
 10
847.893
 20
-192.274
 30
4729.320
 70
    32
  0
VERTEX
  8
T05SSILL
 62
13
 10
866.190
 20
-164.610
 30
4729.320
 70
    32
  0
VERTEX
  8
T05SSILL
 62
13
 10
865.746
 20
-158.007
 30
4729.320
 70
    32
  0
VERTEX
  8
T05SSILL
 62
13
 10
876.195
 20
-143.346
 30
4729.320
 70
    32
  0
VERTEX
  8
T05SSILL
 62
13
 10
892.973
 20
-108.491
 30
4729.320
 70
    32
  0
VERTEX
  8
T05SSILL
 62
13
 10
893.309
 20
-88.461
 30
4729.320
 70
    32
  0
VERTEX
  8
T05SSILL
 62
13
 10
895.284
 20
-80.028
 30
4729.320
 70
    32
  0
VERTEX
  8
T05SSILL
 62
13
 10
904.696
 20
-72.627
 30
4729.320
 70
    32
  0
VERTEX
  8
T05SSILL
 62
13
 10
918.093
 20
-33.455
 30
4729.320
 70
    32
  0
VERTEX
  8
T05SSILL
 62
13
 10
917.915
 20
-26.933
 30
4729.320
 70
    32
  0
VERTEX
  8
T05SSILL
 62
13
 10
915.575
 20
-21.969
 30
4729.320
 70
    32
  0
VERTEX
  8
T05SSILL
 62
13
 10
861.009
 20
-87.753
 30
4729.320
 70
    32
  0
VERTEX
  8
T05SSILL
 62
13
 10
847.714
 20
-117.751
 30
4729.320
 70
    32
  0
VERTEX
  8
T05SSILL
 62
13
 10
849.069
 20
-125.387
 30
4729.320
 70
    32
  0
VERTEX
  8
T05SSILL
 62
13
 10
848.423
 20
-134.048
 30
4729.320
 70
    32
  0
VERTEX
  8
T05SSILL
 62
13
 10
844.945
 20
-142.345
 30
4729.320
 70
    32
  0
VERTEX
  8
T05SSILL
 62
13
 10
836.684
 20
-153.154
 30
4729.320
 70
    32
  0
VERTEX
  8
T05SSILL
 62
13
 10
832.293
 20
-157.067
 30
4729.320
 70
    32
  0
VERTEX
  8
T05SSILL
 62
13
 10
807.027
 20
-220.288
 30
4729.320
 70
    32
  0
VERTEX
  8
T05SSILL
 62
13
 10
807.849
 20
-221.324
 30
4729.320
 70
    32
  0
VERTEX
  8
T05SSILL
 62
13
 10
822.634
 20
-210.426
 30
4729.320
 70
    32
  0
SEQEND
  8
T05SSILL
  0
POLYLINE
  8
T05SSILL
 62
13
 66
     1
 70
     9
  0
VERTEX
  8
T05SSILL
 62
13
 10
981.935
 20
-75.020
 30
4729.320
 70
    32
  0
VERTEX
  8
T05SSILL
 62
13
 10
964.829
 20
-91.362
 30
4729.320
 70
    32
  0
VERTEX
  8
T05SSILL
 62
13
 10
953.274
 20
-113.992
 30
4729.320
 70
    32
  0
VERTEX
  8
T05SSILL
 62
13
 10
949.880
 20
-112.408
 30
4729.320
 70
    32
  0
VERTEX
  8
T05SSILL
 62
13
 10
933.797
 20
-117.786
 30
4729.320
 70
    32
  0
VERTEX
  8
T05SSILL
 62
13
 10
929.274
 20
-116.851
 30
4729.320
 70
    32
  0
VERTEX
  8
T05SSILL
 62
13
 10
923.246
 20
-109.254
 30
4729.320
 70
    32
  0
VERTEX
  8
T05SSILL
 62
13
 10
919.539
 20
-99.476
 30
4729.320
 70
    32
  0
VERTEX
  8
T05SSILL
 62
13
 10
963.133
 20
-61.509
 30
4729.320
 70
    32
  0
SEQEND
  8
T05SSILL
  0
POLYLINE
  8
T05SSILL
 62
13
 66
     1
 70
     9
  0
VERTEX
  8
T05SSILL
 62
13
 10
1021.171
 20
-155.447
 30
4729.320
 70
    32
  0
VERTEX
  8
T05SSILL
 62
13
 10
1033.761
 20
-151.400
 30
4729.320
 70
    32
  0
VERTEX
  8
T05SSILL
 62
13
 10
1043.701
 20
-150.423
 30
4729.320
 70
    32
  0
VERTEX
  8
T05SSILL
 62
13
 10
1046.909
 20
-138.693
 30
4729.320
 70
    32
  0
VERTEX
  8
T05SSILL
 62
13
 10
1047.348
 20
-128.891
 30
4729.320
 70
    32
  0
VERTEX
  8
T05SSILL
 62
13
 10
1033.325
 20
-128.921
 30
4729.320
 70
    32
  0
VERTEX
  8
T05SSILL
 62
13
 10
1030.907
 20
-117.874
 30
4729.320
 70
    32
  0
VERTEX
  8
T05SSILL
 62
13
 10
1032.932
 20
-108.028
 30
4729.320
 70
    32
  0
VERTEX
  8
T05SSILL
 62
13
 10
1037.808
 20
-99.252
 30
4729.320
 70
    32
  0
VERTEX
  8
T05SSILL
 62
13
 10
1033.858
 20
-96.714
 30
4729.320
 70
    32
  0
VERTEX
  8
T05SSILL
 62
13
 10
1037.813
 20
-67.059
 30
4729.320
 70
    32
  0
VERTEX
  8
T05SSILL
 62
13
 10
1032.294
 20
-58.742
 30
4729.320
 70
    32
  0
VERTEX
  8
T05SSILL
 62
13
 10
1018.278
 20
-65.475
 30
4729.320
 70
    32
  0
VERTEX
  8
T05SSILL
 62
13
 10
997.665
 20
-79.355
 30
4729.320
 70
    32
  0
VERTEX
  8
T05SSILL
 62
13
 10
966.251
 20
-111.169
 30
4729.320
 70
    32
  0
VERTEX
  8
T05SSILL
 62
13
 10
966.792
 20
-124.560
 30
4729.320
 70
    32
  0
VERTEX
  8
T05SSILL
 62
13
 10
993.052
 20
-139.897
 30
4729.320
 70
    32
  0
SEQEND
  8
T05SSILL
  0
POLYLINE
  8
T05SSILL
 62
13
 66
     1
 70
     9
  0
VERTEX
  8
T05SSILL
 62
13
 10
1089.222
 20
-144.331
 30
4729.320
 70
    32
  0
VERTEX
  8
T05SSILL
 62
13
 10
1087.608
 20
-136.879
 30
4729.320
 70
    32
  0
VERTEX
  8
T05SSILL
 62
13
 10
1091.360
 20
-99.821
 30
4729.320
 70
    32
  0
VERTEX
  8
T05SSILL
 62
13
 10
1090.860
 20
-87.928
 30
4729.320
 70
    32
  0
VERTEX
  8
T05SSILL
 62
13
 10
1098.394
 20
-76.345
 30
4729.320
 70
    32
  0
VERTEX
  8
T05SSILL
 62
13
 10
1099.944
 20
-71.716
 30
4729.320
 70
    32
  0
VERTEX
  8
T05SSILL
 62
13
 10
1097.002
 20
-64.123
 30
4729.320
 70
    32
  0
VERTEX
  8
T05SSILL
 62
13
 10
1092.331
 20
-64.250
 30
4729.320
 70
    32
  0
VERTEX
  8
T05SSILL
 62
13
 10
1084.141
 20
-67.913
 30
4729.320
 70
    32
  0
VERTEX
  8
T05SSILL
 62
13
 10
1077.731
 20
-68.970
 30
4729.320
 70
    32
  0
VERTEX
  8
T05SSILL
 62
13
 10
1068.576
 20
-56.695
 30
4729.320
 70
    32
  0
VERTEX
  8
T05SSILL
 62
13
 10
1051.998
 20
-47.092
 30
4729.320
 70
    32
  0
VERTEX
  8
T05SSILL
 62
13
 10
1043.836
 20
-51.813
 30
4729.320
 70
    32
  0
VERTEX
  8
T05SSILL
 62
13
 10
1042.229
 20
-57.590
 30
4729.320
 70
    32
  0
VERTEX
  8
T05SSILL
 62
13
 10
1046.137
 20
-65.068
 30
4729.320
 70
    32
  0
VERTEX
  8
T05SSILL
 62
13
 10
1043.854
 20
-91.326
 30
4729.320
 70
    32
  0
VERTEX
  8
T05SSILL
 62
13
 10
1049.206
 20
-100.000
 30
4729.320
 70
    32
  0
VERTEX
  8
T05SSILL
 62
13
 10
1070.083
 20
-115.218
 30
4729.320
 70
    32
  0
VERTEX
  8
T05SSILL
 62
13
 10
1073.679
 20
-120.941
 30
4729.320
 70
    32
  0
VERTEX
  8
T05SSILL
 62
13
 10
1055.961
 20
-127.775
 30
4729.320
 70
    32
  0
VERTEX
  8
T05SSILL
 62
13
 10
1054.017
 20
-137.353
 30
4729.320
 70
    32
  0
VERTEX
  8
T05SSILL
 62
13
 10
1055.913
 20
-148.679
 30
4729.320
 70
    32
  0
SEQEND
  8
T05SSILL
  0
POLYLINE
  8
T05SSILL
 62
13
 66
     1
 70
     9
  0
VERTEX
  8
T05SSILL
 62
13
 10
1060.838
 20
46.022
 30
4729.320
 70
    32
  0
VERTEX
  8
T05SSILL
 62
13
 10
1068.659
 20
21.187
 30
4729.320
 70
    32
  0
VERTEX
  8
T05SSILL
 62
13
 10
1067.662
 20
15.691
 30
4729.320
 70
    32
  0
VERTEX
  8
T05SSILL
 62
13
 10
1060.335
 20
15.933
 30
4729.320
 70
    32
  0
VERTEX
  8
T05SSILL
 62
13
 10
1057.673
 20
19.741
 30
4729.320
 70
    32
  0
VERTEX
  8
T05SSILL
 62
13
 10
1049.129
 20
19.332
 30
4729.320
 70
    32
  0
VERTEX
  8
T05SSILL
 62
13
 10
1044.975
 20
29.361
 30
4729.320
 70
    32
  0
VERTEX
  8
T05SSILL
 62
13
 10
1045.905
 20
37.324
 30
4729.320
 70
    32
  0
SEQEND
  8
T05SSILL
  0
POLYLINE
  8
T05SSILL
 62
13
 66
     1
 70
     9
  0
VERTEX
  8
T05SSILL
 62
13
 10
-31.619
 20
-1150.176
 30
4729.320
 70
    32
  0
VERTEX
  8
T05SSILL
 62
13
 10
-23.507
 20
-1151.826
 30
4729.320
 70
    32
  0
VERTEX
  8
T05SSILL
 62
13
 10
15.389
 20
-1133.376
 30
4729.320
 70
    32
  0
VERTEX
  8
T05SSILL
 62
13
 10
6.538
 20
-1120.889
 30
4729.320
 70
    32
  0
VERTEX
  8
T05SSILL
 62
13
 10
45.050
 20
-1092.219
 30
4729.320
 70
    32
  0
VERTEX
  8
T05SSILL
 62
13
 10
41.419
 20
-1086.414
 30
4729.320
 70
    32
  0
VERTEX
  8
T05SSILL
 62
13
 10
46.872
 20
-1082.696
 30
4729.320
 70
    32
  0
VERTEX
  8
T05SSILL
 62
13
 10
39.531
 20
-1074.170
 30
4729.320
 70
    32
  0
VERTEX
  8
T05SSILL
 62
13
 10
17.197
 20
-1090.453
 30
4729.320
 70
    32
  0
VERTEX
  8
T05SSILL
 62
13
 10
23.853
 20
-1105.679
 30
4729.320
 70
    32
  0
VERTEX
  8
T05SSILL
 62
13
 10
-2.102
 20
-1119.594
 30
4729.320
 70
    32
  0
VERTEX
  8
T05SSILL
 62
13
 10
-10.345
 20
-1104.197
 30
4729.320
 70
    32
  0
VERTEX
  8
T05SSILL
 62
13
 10
-0.581
 20
-1098.351
 30
4729.320
 70
    32
  0
VERTEX
  8
T05SSILL
 62
13
 10
-2.977
 20
-1092.894
 30
4729.320
 70
    32
  0
VERTEX
  8
T05SSILL
 62
13
 10
-0.955
 20
-1091.390
 30
4729.320
 70
    32
  0
VERTEX
  8
T05SSILL
 62
13
 10
-18.743
 20
-1066.945
 30
4729.320
 70
    32
  0
VERTEX
  8
T05SSILL
 62
13
 10
-61.846
 20
-1092.545
 30
4729.320
 70
    32
  0
VERTEX
  8
T05SSILL
 62
13
 10
-62.273
 20
-1097.129
 30
4729.320
 70
    32
  0
SEQEND
  8
T05SSILL
  0
POLYLINE
  8
T05SSILL
 62
13
 66
     1
 70
     9
  0
VERTEX
  8
T05SSILL
 62
13
 10
223.828
 20
-966.709
 30
4729.320
 70
    32
  0
VERTEX
  8
T05SSILL
 62
13
 10
307.548
 20
-909.083
 30
4729.320
 70
    32
  0
VERTEX
  8
T05SSILL
 62
13
 10
315.385
 20
-907.209
 30
4729.320
 70
    32
  0
VERTEX
  8
T05SSILL
 62
13
 10
329.449
 20
-924.174
 30
4729.320
 70
    32
  0
VERTEX
  8
T05SSILL
 62
13
 10
328.675
 20
-930.169
 30
4729.320
 70
    32
  0
VERTEX
  8
T05SSILL
 62
13
 10
300.515
 20
-972.380
 30
4729.320
 70
    32
  0
VERTEX
  8
T05SSILL
 62
13
 10
305.638
 20
-976.153
 30
4729.320
 70
    32
  0
VERTEX
  8
T05SSILL
 62
13
 10
331.869
 20
-937.474
 30
4729.320
 70
    32
  0
VERTEX
  8
T05SSILL
 62
13
 10
336.445
 20
-935.169
 30
4729.320
 70
    32
  0
VERTEX
  8
T05SSILL
 62
13
 10
382.029
 20
-1000.331
 30
4729.320
 70
    32
  0
VERTEX
  8
T05SSILL
 62
13
 10
386.235
 20
-1021.116
 30
4729.320
 70
    32
  0
VERTEX
  8
T05SSILL
 62
13
 10
377.694
 20
-1023.786
 30
4729.320
 70
    32
  0
VERTEX
  8
T05SSILL
 62
13
 10
373.286
 20
-1023.182
 30
4729.320
 70
    32
  0
VERTEX
  8
T05SSILL
 62
13
 10
364.347
 20
-1010.696
 30
4729.320
 70
    32
  0
VERTEX
  8
T05SSILL
 62
13
 10
360.717
 20
-1004.979
 30
4729.320
 70
    32
  0
VERTEX
  8
T05SSILL
 62
13
 10
362.724
 20
-998.451
 30
4729.320
 70
    32
  0
VERTEX
  8
T05SSILL
 62
13
 10
369.930
 20
-991.908
 30
4729.320
 70
    32
  0
VERTEX
  8
T05SSILL
 62
13
 10
363.746
 20
-987.080
 30
4729.320
 70
    32
  0
VERTEX
  8
T05SSILL
 62
13
 10
359.628
 20
-994.759
 30
4729.320
 70
    32
  0
VERTEX
  8
T05SSILL
 62
13
 10
343.888
 20
-1006.264
 30
4729.320
 70
    32
  0
VERTEX
  8
T05SSILL
 62
13
 10
334.997
 20
-1009.375
 30
4729.320
 70
    32
  0
SEQEND
  8
T05SSILL
  0
POLYLINE
  8
T05SSILL
 62
13
 66
     1
 70
     9
  0
VERTEX
  8
T05SSILL
 62
13
 10
336.606
 20
-1016.773
 30
4729.320
 70
    32
  0
VERTEX
  8
T05SSILL
 62
13
 10
347.169
 20
-1012.599
 30
4729.320
 70
    32
  0
VERTEX
  8
T05SSILL
 62
13
 10
354.555
 20
-1007.377
 30
4729.320
 70
    32
  0
VERTEX
  8
T05SSILL
 62
13
 10
368.196
 20
-1029.984
 30
4729.320
 70
    32
  0
VERTEX
  8
T05SSILL
 62
13
 10
353.922
 20
-1030.997
 30
4729.320
 70
    32
  0
VERTEX
  8
T05SSILL
 62
13
 10
351.990
 20
-1033.030
 30
4729.320
 70
    32
  0
VERTEX
  8
T05SSILL
 62
13
 10
341.334
 20
-1035.618
 30
4729.320
 70
    32
  0
SEQEND
  8
T05SSILL
  0
POLYLINE
  8
T05SSILL
 62
13
 66
     1
 70
     9
  0
VERTEX
  8
T05SSILL
 62
13
 10
63.698
 20
-1311.509
 30
4729.320
 70
    32
  0
VERTEX
  8
T05SSILL
 62
13
 10
88.033
 20
-1315.576
 30
4729.320
 70
    32
  0
VERTEX
  8
T05SSILL
 62
13
 10
108.472
 20
-1342.480
 30
4729.320
 70
    32
  0
VERTEX
  8
T05SSILL
 62
13
 10
121.081
 20
-1344.469
 30
4729.320
 70
    32
  0
VERTEX
  8
T05SSILL
 62
13
 10
121.793
 20
-1346.758
 30
4729.320
 70
    32
  0
VERTEX
  8
T05SSILL
 62
13
 10
146.361
 20
-1340.690
 30
4729.320
 70
    32
  0
VERTEX
  8
T05SSILL
 62
13
 10
148.044
 20
-1343.241
 30
4729.320
 70
    32
  0
VERTEX
  8
T05SSILL
 62
13
 10
153.322
 20
-1340.405
 30
4729.320
 70
    32
  0
VERTEX
  8
T05SSILL
 62
13
 10
156.248
 20
-1345.948
 30
4729.320
 70
    32
  0
VERTEX
  8
T05SSILL
 62
13
 10
166.630
 20
-1340.540
 30
4729.320
 70
    32
  0
VERTEX
  8
T05SSILL
 62
13
 10
169.112
 20
-1345.291
 30
4729.320
 70
    32
  0
VERTEX
  8
T05SSILL
 62
13
 10
174.305
 20
-1343.161
 30
4729.320
 70
    32
  0
VERTEX
  8
T05SSILL
 62
13
 10
190.351
 20
-1374.396
 30
4729.320
 70
    32
  0
VERTEX
  8
T05SSILL
 62
13
 10
170.557
 20
-1385.737
 30
4729.320
 70
    32
  0
VERTEX
  8
T05SSILL
 62
13
 10
163.500
 20
-1383.467
 30
4729.320
 70
    32
  0
VERTEX
  8
T05SSILL
 62
13
 10
155.391
 20
-1382.875
 30
4729.320
 70
    32
  0
VERTEX
  8
T05SSILL
 62
13
 10
149.237
 20
-1387.653
 30
4729.320
 70
    32
  0
VERTEX
  8
T05SSILL
 62
13
 10
143.265
 20
-1394.457
 30
4729.320
 70
    32
  0
VERTEX
  8
T05SSILL
 62
13
 10
142.933
 20
-1401.067
 30
4729.320
 70
    32
  0
VERTEX
  8
T05SSILL
 62
13
 10
140.648
 20
-1403.101
 30
4729.320
 70
    32
  0
VERTEX
  8
T05SSILL
 62
13
 10
136.681
 20
-1402.849
 30
4729.320
 70
    32
  0
VERTEX
  8
T05SSILL
 62
13
 10
111.378
 20
-1370.496
 30
4729.320
 70
    32
  0
VERTEX
  8
T05SSILL
 62
13
 10
106.708
 20
-1370.774
 30
4729.320
 70
    32
  0
SEQEND
  8
T05SSILL
  0
POLYLINE
  8
T05SSILL
 62
13
 66
     1
 70
     9
  0
VERTEX
  8
T05SSILL
 62
13
 10
450.534
 20
-923.981
 30
4729.320
 70
    32
  0
VERTEX
  8
T05SSILL
 62
13
 10
447.894
 20
-924.958
 30
4729.320
 70
    32
  0
VERTEX
  8
T05SSILL
 62
13
 10
441.336
 20
-942.075
 30
4729.320
 70
    32
  0
VERTEX
  8
T05SSILL
 62
13
 10
422.801
 20
-961.431
 30
4729.320
 70
    32
  0
VERTEX
  8
T05SSILL
 62
13
 10
407.273
 20
-984.656
 30
4729.320
 70
    32
  0
VERTEX
  8
T05SSILL
 62
13
 10
392.060
 20
-995.365
 30
4729.320
 70
    32
  0
VERTEX
  8
T05SSILL
 62
13
 10
400.512
 20
-1021.601
 30
4729.320
 70
    32
  0
VERTEX
  8
T05SSILL
 62
13
 10
406.605
 20
-1025.372
 30
4729.320
 70
    32
  0
VERTEX
  8
T05SSILL
 62
13
 10
466.321
 20
-1043.255
 30
4729.320
 70
    32
  0
VERTEX
  8
T05SSILL
 62
13
 10
502.560
 20
-1078.483
 30
4729.320
 70
    32
  0
VERTEX
  8
T05SSILL
 62
13
 10
545.753
 20
-1139.776
 30
4729.320
 70
    32
  0
VERTEX
  8
T05SSILL
 62
13
 10
558.513
 20
-1133.568
 30
4729.320
 70
    32
  0
VERTEX
  8
T05SSILL
 62
13
 10
566.664
 20
-1119.090
 30
4729.320
 70
    32
  0
VERTEX
  8
T05SSILL
 62
13
 10
571.598
 20
-1089.817
 30
4729.320
 70
    32
  0
VERTEX
  8
T05SSILL
 62
13
 10
574.148
 20
-1030.148
 30
4729.320
 70
    32
  0
VERTEX
  8
T05SSILL
 62
13
 10
565.534
 20
-1008.759
 30
4729.320
 70
    32
  0
SEQEND
  8
T05SSILL
  0
POLYLINE
  8
T05SSILL
 62
13
 66
     1
 70
     9
  0
VERTEX
  8
T05SSILL
 62
13
 10
432.658
 20
-1043.711
 30
4729.320
 70
    32
  0
VERTEX
  8
T05SSILL
 62
13
 10
417.141
 20
-1041.379
 30
4729.320
 70
    32
  0
VERTEX
  8
T05SSILL
 62
13
 10
411.778
 20
-1045.625
 30
4729.320
 70
    32
  0
VERTEX
  8
T05SSILL
 62
13
 10
413.064
 20
-1062.806
 30
4729.320
 70
    32
  0
SEQEND
  8
T05SSILL
  0
POLYLINE
  8
T05SSILL
 62
13
 66
     1
 70
     9
  0
VERTEX
  8
T05SSILL
 62
13
 10
559.155
 20
-1170.667
 30
4729.320
 70
    32
  0
VERTEX
  8
T05SSILL
 62
13
 10
555.158
 20
-1189.186
 30
4729.320
 70
    32
  0
VERTEX
  8
T05SSILL
 62
13
 10
538.766
 20
-1218.053
 30
4729.320
 70
    32
  0
VERTEX
  8
T05SSILL
 62
13
 10
517.422
 20
-1241.119
 30
4729.320
 70
    32
  0
VERTEX
  8
T05SSILL
 62
13
 10
506.341
 20
-1219.650
 30
4729.320
 70
    32
  0
VERTEX
  8
T05SSILL
 62
13
 10
495.634
 20
-1205.583
 30
4729.320
 70
    32
  0
VERTEX
  8
T05SSILL
 62
13
 10
500.823
 20
-1202.130
 30
4729.320
 70
    32
  0
VERTEX
  8
T05SSILL
 62
13
 10
497.371
 20
-1197.117
 30
4729.320
 70
    32
  0
VERTEX
  8
T05SSILL
 62
13
 10
502.735
 20
-1193.400
 30
4729.320
 70
    32
  0
VERTEX
  8
T05SSILL
 62
13
 10
418.731
 20
-1071.601
 30
4729.320
 70
    32
  0
VERTEX
  8
T05SSILL
 62
13
 10
427.325
 20
-1057.827
 30
4729.320
 70
    32
  0
VERTEX
  8
T05SSILL
 62
13
 10
447.645
 20
-1045.339
 30
4729.320
 70
    32
  0
VERTEX
  8
T05SSILL
 62
13
 10
463.168
 20
-1049.698
 30
4729.320
 70
    32
  0
VERTEX
  8
T05SSILL
 62
13
 10
496.936
 20
-1083.612
 30
4729.320
 70
    32
  0
VERTEX
  8
T05SSILL
 62
13
 10
527.384
 20
-1127.053
 30
4729.320
 70
    32
  0
SEQEND
  8
T05SSILL
  0
POLYLINE
  8
T05SSILL
 62
13
 66
     1
 70
     9
  0
VERTEX
  8
T05SSILL
 62
13
 10
390.877
 20
-1242.564
 30
4729.320
 70
    32
  0
VERTEX
  8
T05SSILL
 62
13
 10
418.403
 20
-1281.608
 30
4729.320
 70
    32
  0
VERTEX
  8
T05SSILL
 62
13
 10
414.361
 20
-1285.233
 30
4729.320
 70
    32
  0
VERTEX
  8
T05SSILL
 62
13
 10
421.266
 20
-1295.435
 30
4729.320
 70
    32
  0
VERTEX
  8
T05SSILL
 62
13
 10
415.990
 20
-1299.240
 30
4729.320
 70
    32
  0
VERTEX
  8
T05SSILL
 62
13
 10
418.825
 20
-1304.167
 30
4729.320
 70
    32
  0
VERTEX
  8
T05SSILL
 62
13
 10
414.516
 20
-1307.264
 30
4729.320
 70
    32
  0
VERTEX
  8
T05SSILL
 62
13
 10
412.397
 20
-1305.861
 30
4729.320
 70
    32
  0
VERTEX
  8
T05SSILL
 62
13
 10
408.451
 20
-1312.482
 30
4729.320
 70
    32
  0
VERTEX
  8
T05SSILL
 62
13
 10
392.356
 20
-1322.930
 30
4729.320
 70
    32
  0
VERTEX
  8
T05SSILL
 62
13
 10
384.430
 20
-1324.629
 30
4729.320
 70
    32
  0
VERTEX
  8
T05SSILL
 62
13
 10
380.188
 20
-1320.764
 30
4729.320
 70
    32
  0
VERTEX
  8
T05SSILL
 62
13
 10
374.254
 20
-1311.089
 30
4729.320
 70
    32
  0
VERTEX
  8
T05SSILL
 62
13
 10
378.828
 20
-1308.343
 30
4729.320
 70
    32
  0
VERTEX
  8
T05SSILL
 62
13
 10
368.558
 20
-1292.688
 30
4729.320
 70
    32
  0
VERTEX
  8
T05SSILL
 62
13
 10
351.401
 20
-1273.000
 30
4729.320
 70
    32
  0
VERTEX
  8
T05SSILL
 62
13
 10
353.238
 20
-1268.588
 30
4729.320
 70
    32
  0
VERTEX
  8
T05SSILL
 62
13
 10
368.362
 20
-1257.614
 30
4729.320
 70
    32
  0
SEQEND
  8
T05SSILL
  0
POLYLINE
  8
T05SSILL
 62
13
 66
     1
 70
     9
  0
VERTEX
  8
T05SSILL
 62
13
 10
193.280
 20
-1380.997
 30
4729.320
 70
    32
  0
VERTEX
  8
T05SSILL
 62
13
 10
174.280
 20
-1392.688
 30
4729.320
 70
    32
  0
VERTEX
  8
T05SSILL
 62
13
 10
167.083
 20
-1402.227
 30
4729.320
 70
    32
  0
VERTEX
  8
T05SSILL
 62
13
 10
167.457
 20
-1409.364
 30
4729.320
 70
    32
  0
VERTEX
  8
T05SSILL
 62
13
 10
157.599
 20
-1413.184
 30
4729.320
 70
    32
  0
VERTEX
  8
T05SSILL
 62
13
 10
150.005
 20
-1408.448
 30
4729.320
 70
    32
  0
VERTEX
  8
T05SSILL
 62
13
 10
145.335
 20
-1408.727
 30
4729.320
 70
    32
  0
VERTEX
  8
T05SSILL
 62
13
 10
139.811
 20
-1417.645
 30
4729.320
 70
    32
  0
VERTEX
  8
T05SSILL
 62
13
 10
169.103
 20
-1457.653
 30
4729.320
 70
    32
  0
VERTEX
  8
T05SSILL
 62
13
 10
172.284
 20
-1460.375
 30
4729.320
 70
    32
  0
VERTEX
  8
T05SSILL
 62
13
 10
177.130
 20
-1460.184
 30
4729.320
 70
    32
  0
VERTEX
  8
T05SSILL
 62
13
 10
226.662
 20
-1432.801
 30
4729.320
 70
    32
  0
VERTEX
  8
T05SSILL
 62
13
 10
220.633
 20
-1421.011
 30
4729.320
 70
    32
  0
VERTEX
  8
T05SSILL
 62
13
 10
215.442
 20
-1423.759
 30
4729.320
 70
    32
  0
SEQEND
  8
T05SSILL
  0
POLYLINE
  8
T05SSILL
 62
13
 66
     1
 70
     9
  0
VERTEX
  8
T05SSILL
 62
13
 10
718.169
 20
-1124.003
 30
4729.320
 70
    32
  0
VERTEX
  8
T05SSILL
 62
13
 10
649.483
 20
-1170.127
 30
4729.320
 70
    32
  0
VERTEX
  8
T05SSILL
 62
13
 10
640.964
 20
-1150.765
 30
4729.320
 70
    32
  0
VERTEX
  8
T05SSILL
 62
13
 10
635.029
 20
-1140.913
 30
4729.320
 70
    32
  0
VERTEX
  8
T05SSILL
 62
13
 10
627.957
 20
-1133.708
 30
4729.320
 70
    32
  0
VERTEX
  8
T05SSILL
 62
13
 10
620.555
 20
-1133.995
 30
4729.320
 70
    32
  0
VERTEX
  8
T05SSILL
 62
13
 10
615.553
 20
-1140.796
 30
4729.320
 70
    32
  0
VERTEX
  8
T05SSILL
 62
13
 10
615.835
 20
-1146.524
 30
4729.320
 70
    32
  0
VERTEX
  8
T05SSILL
 62
13
 10
632.101
 20
-1163.130
 30
4729.320
 70
    32
  0
VERTEX
  8
T05SSILL
 62
13
 10
629.309
 20
-1172.568
 30
4729.320
 70
    32
  0
VERTEX
  8
T05SSILL
 62
13
 10
634.884
 20
-1179.953
 30
4729.320
 70
    32
  0
VERTEX
  8
T05SSILL
 62
13
 10
638.356
 20
-1191.575
 30
4729.320
 70
    32
  0
VERTEX
  8
T05SSILL
 62
13
 10
637.761
 20
-1198.804
 30
4729.320
 70
    32
  0
VERTEX
  8
T05SSILL
 62
13
 10
629.569
 20
-1199.886
 30
4729.320
 70
    32
  0
VERTEX
  8
T05SSILL
 62
13
 10
627.302
 20
-1207.824
 30
4729.320
 70
    32
  0
VERTEX
  8
T05SSILL
 62
13
 10
623.176
 20
-1213.037
 30
4729.320
 70
    32
  0
VERTEX
  8
T05SSILL
 62
13
 10
623.289
 20
-1221.320
 30
4729.320
 70
    32
  0
VERTEX
  8
T05SSILL
 62
13
 10
630.191
 20
-1230.288
 30
4729.320
 70
    32
  0
VERTEX
  8
T05SSILL
 62
13
 10
618.244
 20
-1242.750
 30
4729.320
 70
    32
  0
VERTEX
  8
T05SSILL
 62
13
 10
562.748
 20
-1164.223
 30
4729.320
 70
    32
  0
VERTEX
  8
T05SSILL
 62
13
 10
560.143
 20
-1147.839
 30
4729.320
 70
    32
  0
VERTEX
  8
T05SSILL
 62
13
 10
566.276
 20
-1136.100
 30
4729.320
 70
    32
  0
VERTEX
  8
T05SSILL
 62
13
 10
606.832
 20
-1113.327
 30
4729.320
 70
    32
  0
VERTEX
  8
T05SSILL
 62
13
 10
596.739
 20
-1098.024
 30
4729.320
 70
    32
  0
VERTEX
  8
T05SSILL
 62
13
 10
589.763
 20
-1093.287
 30
4729.320
 70
    32
  0
VERTEX
  8
T05SSILL
 62
13
 10
579.126
 20
-1073.050
 30
4729.320
 70
    32
  0
VERTEX
  8
T05SSILL
 62
13
 10
581.111
 20
-1030.479
 30
4729.320
 70
    32
  0
VERTEX
  8
T05SSILL
 62
13
 10
585.147
 20
-1024.650
 30
4729.320
 70
    32
  0
SEQEND
  8
T05SSILL
  0
POLYLINE
  8
T05SSILL
 62
13
 66
     1
 70
     9
  0
VERTEX
  8
T05SSILL
 62
13
 10
520.258
 20
-1246.398
 30
4729.320
 70
    32
  0
VERTEX
  8
T05SSILL
 62
13
 10
534.583
 20
-1233.312
 30
4729.320
 70
    32
  0
VERTEX
  8
T05SSILL
 62
13
 10
550.560
 20
-1213.258
 30
4729.320
 70
    32
  0
VERTEX
  8
T05SSILL
 62
13
 10
560.722
 20
-1193.223
 30
4729.320
 70
    32
  0
VERTEX
  8
T05SSILL
 62
13
 10
564.125
 20
-1182.108
 30
4729.320
 70
    32
  0
VERTEX
  8
T05SSILL
 62
13
 10
566.680
 20
-1181.836
 30
4729.320
 70
    32
  0
VERTEX
  8
T05SSILL
 62
13
 10
649.344
 20
-1297.822
 30
4729.320
 70
    32
  0
VERTEX
  8
T05SSILL
 62
13
 10
648.829
 20
-1302.230
 30
4729.320
 70
    32
  0
VERTEX
  8
T05SSILL
 62
13
 10
651.573
 20
-1306.364
 30
4729.320
 70
    32
  0
VERTEX
  8
T05SSILL
 62
13
 10
657.400
 20
-1309.783
 30
4729.320
 70
    32
  0
VERTEX
  8
T05SSILL
 62
13
 10
669.967
 20
-1327.017
 30
4729.320
 70
    32
  0
VERTEX
  8
T05SSILL
 62
13
 10
668.839
 20
-1332.749
 30
4729.320
 70
    32
  0
VERTEX
  8
T05SSILL
 62
13
 10
619.041
 20
-1359.603
 30
4729.320
 70
    32
  0
VERTEX
  8
T05SSILL
 62
13
 10
613.228
 20
-1360.679
 30
4729.320
 70
    32
  0
VERTEX
  8
T05SSILL
 62
13
 10
604.848
 20
-1357.884
 30
4729.320
 70
    32
  0
VERTEX
  8
T05SSILL
 62
13
 10
526.194
 20
-1256.779
 30
4729.320
 70
    32
  0
SEQEND
  8
T05SSILL
  0
POLYLINE
  8
T05SSILL
 62
13
 66
     1
 70
     9
  0
VERTEX
  8
T05SSILL
 62
13
 10
622.579
 20
-1248.553
 30
4729.320
 70
    32
  0
VERTEX
  8
T05SSILL
 62
13
 10
642.430
 20
-1226.814
 30
4729.320
 70
    32
  0
VERTEX
  8
T05SSILL
 62
13
 10
645.866
 20
-1197.721
 30
4729.320
 70
    32
  0
VERTEX
  8
T05SSILL
 62
13
 10
652.421
 20
-1179.900
 30
4729.320
 70
    32
  0
VERTEX
  8
T05SSILL
 62
13
 10
651.529
 20
-1176.377
 30
4729.320
 70
    32
  0
VERTEX
  8
T05SSILL
 62
13
 10
724.351
 20
-1128.390
 30
4729.320
 70
    32
  0
VERTEX
  8
T05SSILL
 62
13
 10
854.467
 20
-1228.545
 30
4729.320
 70
    32
  0
VERTEX
  8
T05SSILL
 62
13
 10
854.053
 20
-1237.183
 30
4729.320
 70
    32
  0
VERTEX
  8
T05SSILL
 62
13
 10
735.003
 20
-1297.825
 30
4729.320
 70
    32
  0
VERTEX
  8
T05SSILL
 62
13
 10
660.001
 20
-1295.763
 30
4729.320
 70
    32
  0
VERTEX
  8
T05SSILL
 62
13
 10
654.088
 20
-1292.873
 30
4729.320
 70
    32
  0
SEQEND
  8
T05SSILL
  0
POLYLINE
  8
T05SSILL
 62
13
 66
     1
 70
     9
  0
VERTEX
  8
T05SSILL
 62
13
 10
381.712
 20
-1444.665
 30
4729.320
 70
    32
  0
VERTEX
  8
T05SSILL
 62
13
 10
364.447
 20
-1418.457
 30
4729.320
 70
    32
  0
VERTEX
  8
T05SSILL
 62
13
 10
369.372
 20
-1415.093
 30
4729.320
 70
    32
  0
VERTEX
  8
T05SSILL
 62
13
 10
366.184
 20
-1409.815
 30
4729.320
 70
    32
  0
VERTEX
  8
T05SSILL
 62
13
 10
371.373
 20
-1406.538
 30
4729.320
 70
    32
  0
VERTEX
  8
T05SSILL
 62
13
 10
368.274
 20
-1401.701
 30
4729.320
 70
    32
  0
VERTEX
  8
T05SSILL
 62
13
 10
373.287
 20
-1398.337
 30
4729.320
 70
    32
  0
VERTEX
  8
T05SSILL
 62
13
 10
366.381
 20
-1388.047
 30
4729.320
 70
    32
  0
VERTEX
  8
T05SSILL
 62
13
 10
371.307
 20
-1384.859
 30
4729.320
 70
    32
  0
VERTEX
  8
T05SSILL
 62
13
 10
368.207
 20
-1379.934
 30
4729.320
 70
    32
  0
VERTEX
  8
T05SSILL
 62
13
 10
373.307
 20
-1376.041
 30
4729.320
 70
    32
  0
VERTEX
  8
T05SSILL
 62
13
 10
370.296
 20
-1371.467
 30
4729.320
 70
    32
  0
VERTEX
  8
T05SSILL
 62
13
 10
379.883
 20
-1365.181
 30
4729.320
 70
    32
  0
VERTEX
  8
T05SSILL
 62
13
 10
372.977
 20
-1354.627
 30
4729.320
 70
    32
  0
VERTEX
  8
T05SSILL
 62
13
 10
378.078
 20
-1351.351
 30
4729.320
 70
    32
  0
VERTEX
  8
T05SSILL
 62
13
 10
375.069
 20
-1346.954
 30
4729.320
 70
    32
  0
VERTEX
  8
T05SSILL
 62
13
 10
385.277
 20
-1342.428
 30
4729.320
 70
    32
  0
VERTEX
  8
T05SSILL
 62
13
 10
394.063
 20
-1333.677
 30
4729.320
 70
    32
  0
VERTEX
  8
T05SSILL
 62
13
 10
418.077
 20
-1318.886
 30
4729.320
 70
    32
  0
VERTEX
  8
T05SSILL
 62
13
 10
422.221
 20
-1319.755
 30
4729.320
 70
    32
  0
VERTEX
  8
T05SSILL
 62
13
 10
515.541
 20
-1260.072
 30
4729.320
 70
    32
  0
VERTEX
  8
T05SSILL
 62
13
 10
522.163
 20
-1264.194
 30
4729.320
 70
    32
  0
VERTEX
  8
T05SSILL
 62
13
 10
590.284
 20
-1350.614
 30
4729.320
 70
    32
  0
VERTEX
  8
T05SSILL
 62
13
 10
593.030
 20
-1354.924
 30
4729.320
 70
    32
  0
VERTEX
  8
T05SSILL
 62
13
 10
592.963
 20
-1361.974
 30
4729.320
 70
    32
  0
VERTEX
  8
T05SSILL
 62
13
 10
585.134
 20
-1366.493
 30
4729.320
 70
    32
  0
VERTEX
  8
T05SSILL
 62
13
 10
574.570
 20
-1370.314
 30
4729.320
 70
    32
  0
VERTEX
  8
T05SSILL
 62
13
 10
564.681
 20
-1364.176
 30
4729.320
 70
    32
  0
VERTEX
  8
T05SSILL
 62
13
 10
535.072
 20
-1393.436
 30
4729.320
 70
    32
  0
VERTEX
  8
T05SSILL
 62
13
 10
534.214
 20
-1401.106
 30
4729.320
 70
    32
  0
VERTEX
  8
T05SSILL
 62
13
 10
525.513
 20
-1408.711
 30
4729.320
 70
    32
  0
VERTEX
  8
T05SSILL
 62
13
 10
521.635
 20
-1408.635
 30
4729.320
 70
    32
  0
VERTEX
  8
T05SSILL
 62
13
 10
515.633
 20
-1405.481
 30
4729.320
 70
    32
  0
VERTEX
  8
T05SSILL
 62
13
 10
507.451
 20
-1410.176
 30
4729.320
 70
    32
  0
VERTEX
  8
T05SSILL
 62
13
 10
506.521
 20
-1422.869
 30
4729.320
 70
    32
  0
VERTEX
  8
T05SSILL
 62
13
 10
496.852
 20
-1431.007
 30
4729.320
 70
    32
  0
VERTEX
  8
T05SSILL
 62
13
 10
449.721
 20
-1465.520
 30
4729.320
 70
    32
  0
VERTEX
  8
T05SSILL
 62
13
 10
444.525
 20
-1466.417
 30
4729.320
 70
    32
  0
VERTEX
  8
T05SSILL
 62
13
 10
436.938
 20
-1463.885
 30
4729.320
 70
    32
  0
SEQEND
  8
T05SSILL
  0
POLYLINE
  8
T05SSILL
 62
13
 66
     1
 70
     9
  0
VERTEX
  8
T05SSILL
 62
13
 10
337.749
 20
-1679.216
 30
4729.320
 70
    32
  0
VERTEX
  8
T05SSILL
 62
13
 10
187.914
 20
-1499.543
 30
4729.320
 70
    32
  0
VERTEX
  8
T05SSILL
 62
13
 10
187.714
 20
-1491.877
 30
4729.320
 70
    32
  0
VERTEX
  8
T05SSILL
 62
13
 10
177.255
 20
-1472.345
 30
4729.320
 70
    32
  0
VERTEX
  8
T05SSILL
 62
13
 10
178.209
 20
-1467.231
 30
4729.320
 70
    32
  0
VERTEX
  8
T05SSILL
 62
13
 10
255.455
 20
-1425.046
 30
4729.320
 70
    32
  0
VERTEX
  8
T05SSILL
 62
13
 10
262.777
 20
-1427.315
 30
4729.320
 70
    32
  0
VERTEX
  8
T05SSILL
 62
13
 10
301.209
 20
-1488.005
 30
4729.320
 70
    32
  0
VERTEX
  8
T05SSILL
 62
13
 10
310.527
 20
-1538.033
 30
4729.320
 70
    32
  0
VERTEX
  8
T05SSILL
 62
13
 10
317.943
 20
-1542.592
 30
4729.320
 70
    32
  0
VERTEX
  8
T05SSILL
 62
13
 10
317.953
 20
-1545.765
 30
4729.320
 70
    32
  0
VERTEX
  8
T05SSILL
 62
13
 10
296.617
 20
-1571.475
 30
4729.320
 70
    32
  0
VERTEX
  8
T05SSILL
 62
13
 10
301.386
 20
-1574.897
 30
4729.320
 70
    32
  0
VERTEX
  8
T05SSILL
 62
13
 10
321.317
 20
-1550.602
 30
4729.320
 70
    32
  0
VERTEX
  8
T05SSILL
 62
13
 10
323.697
 20
-1550.947
 30
4729.320
 70
    32
  0
VERTEX
  8
T05SSILL
 62
13
 10
326.553
 20
-1562.659
 30
4729.320
 70
    32
  0
VERTEX
  8
T05SSILL
 62
13
 10
317.384
 20
-1590.359
 30
4729.320
 70
    32
  0
VERTEX
  8
T05SSILL
 62
13
 10
344.169
 20
-1646.061
 30
4729.320
 70
    32
  0
VERTEX
  8
T05SSILL
 62
13
 10
346.293
 20
-1648.963
 30
4729.320
 70
    32
  0
VERTEX
  8
T05SSILL
 62
13
 10
359.526
 20
-1653.769
 30
4729.320
 70
    32
  0
VERTEX
  8
T05SSILL
 62
13
 10
372.190
 20
-1673.911
 30
4729.320
 70
    32
  0
SEQEND
  8
T05SSILL
  0
POLYLINE
  8
T05SSILL
 62
13
 66
     1
 70
     9
  0
VERTEX
  8
T05SSILL
 62
13
 10
359.674
 20
-1644.515
 30
4729.320
 70
    32
  0
VERTEX
  8
T05SSILL
 62
13
 10
354.473
 20
-1643.914
 30
4729.320
 70
    32
  0
VERTEX
  8
T05SSILL
 62
13
 10
350.412
 20
-1641.636
 30
4729.320
 70
    32
  0
VERTEX
  8
T05SSILL
 62
13
 10
326.381
 20
-1592.799
 30
4729.320
 70
    32
  0
VERTEX
  8
T05SSILL
 62
13
 10
325.308
 20
-1587.779
 30
4729.320
 70
    32
  0
VERTEX
  8
T05SSILL
 62
13
 10
333.713
 20
-1569.687
 30
4729.320
 70
    32
  0
VERTEX
  8
T05SSILL
 62
13
 10
333.597
 20
-1560.787
 30
4729.320
 70
    32
  0
VERTEX
  8
T05SSILL
 62
13
 10
334.995
 20
-1556.729
 30
4729.320
 70
    32
  0
VERTEX
  8
T05SSILL
 62
13
 10
340.729
 20
-1558.650
 30
4729.320
 70
    32
  0
VERTEX
  8
T05SSILL
 62
13
 10
343.828
 20
-1563.399
 30
4729.320
 70
    32
  0
VERTEX
  8
T05SSILL
 62
13
 10
338.551
 20
-1566.764
 30
4729.320
 70
    32
  0
VERTEX
  8
T05SSILL
 62
13
 10
344.839
 20
-1577.144
 30
4729.320
 70
    32
  0
VERTEX
  8
T05SSILL
 62
13
 10
340.617
 20
-1579.713
 30
4729.320
 70
    32
  0
VERTEX
  8
T05SSILL
 62
13
 10
356.823
 20
-1605.308
 30
4729.320
 70
    32
  0
VERTEX
  8
T05SSILL
 62
13
 10
346.533
 20
-1612.389
 30
4729.320
 70
    32
  0
VERTEX
  8
T05SSILL
 62
13
 10
352.733
 20
-1622.593
 30
4729.320
 70
    32
  0
VERTEX
  8
T05SSILL
 62
13
 10
347.633
 20
-1626.134
 30
4729.320
 70
    32
  0
SEQEND
  8
T05SSILL
  0
POLYLINE
  8
T05SSILL
 62
13
 66
     1
 70
     9
  0
VERTEX
  8
T05SSILL
 62
13
 10
343.233
 20
-1685.897
 30
4729.320
 70
    32
  0
VERTEX
  8
T05SSILL
 62
13
 10
376.528
 20
-1680.420
 30
4729.320
 70
    32
  0
VERTEX
  8
T05SSILL
 62
13
 10
398.574
 20
-1714.105
 30
4729.320
 70
    32
  0
VERTEX
  8
T05SSILL
 62
13
 10
408.637
 20
-1719.538
 30
4729.320
 70
    32
  0
VERTEX
  8
T05SSILL
 62
13
 10
430.259
 20
-1758.424
 30
4729.320
 70
    32
  0
VERTEX
  8
T05SSILL
 62
13
 10
415.744
 20
-1767.016
 30
4729.320
 70
    32
  0
VERTEX
  8
T05SSILL
 62
13
 10
384.347
 20
-1730.099
 30
4729.320
 70
    32
  0
VERTEX
  8
T05SSILL
 62
13
 10
378.438
 20
-1728.707
 30
4729.320
 70
    32
  0
SEQEND
  8
T05SSILL
  0
POLYLINE
  8
T05SSILL
 62
13
 66
     1
 70
     9
  0
VERTEX
  8
T05SSILL
 62
13
 10
610.379
 20
-1495.345
 30
4729.320
 70
    32
  0
VERTEX
  8
T05SSILL
 62
13
 10
614.047
 20
-1484.582
 30
4729.320
 70
    32
  0
VERTEX
  8
T05SSILL
 62
13
 10
634.628
 20
-1471.300
 30
4729.320
 70
    32
  0
VERTEX
  8
T05SSILL
 62
13
 10
640.275
 20
-1473.398
 30
4729.320
 70
    32
  0
VERTEX
  8
T05SSILL
 62
13
 10
647.799
 20
-1484.391
 30
4729.320
 70
    32
  0
VERTEX
  8
T05SSILL
 62
13
 10
644.474
 20
-1492.068
 30
4729.320
 70
    32
  0
VERTEX
  8
T05SSILL
 62
13
 10
648.633
 20
-1497.783
 30
4729.320
 70
    32
  0
VERTEX
  8
T05SSILL
 62
13
 10
654.800
 20
-1496.971
 30
4729.320
 70
    32
  0
VERTEX
  8
T05SSILL
 62
13
 10
659.038
 20
-1499.867
 30
4729.320
 70
    32
  0
VERTEX
  8
T05SSILL
 62
13
 10
686.489
 20
-1542.877
 30
4729.320
 70
    32
  0
VERTEX
  8
T05SSILL
 62
13
 10
652.333
 20
-1554.878
 30
4729.320
 70
    32
  0
VERTEX
  8
T05SSILL
 62
13
 10
653.408
 20
-1560.867
 30
4729.320
 70
    32
  0
VERTEX
  8
T05SSILL
 62
13
 10
687.036
 20
-1548.691
 30
4729.320
 70
    32
  0
VERTEX
  8
T05SSILL
 62
13
 10
691.884
 20
-1549.293
 30
4729.320
 70
    32
  0
VERTEX
  8
T05SSILL
 62
13
 10
725.699
 20
-1598.629
 30
4729.320
 70
    32
  0
VERTEX
  8
T05SSILL
 62
13
 10
725.896
 20
-1605.238
 30
4729.320
 70
    32
  0
VERTEX
  8
T05SSILL
 62
13
 10
721.854
 20
-1609.216
 30
4729.320
 70
    32
  0
VERTEX
  8
T05SSILL
 62
13
 10
662.432
 20
-1630.019
 30
4729.320
 70
    32
  0
VERTEX
  8
T05SSILL
 62
13
 10
656.696
 20
-1627.305
 30
4729.320
 70
    32
  0
VERTEX
  8
T05SSILL
 62
13
 10
641.375
 20
-1602.852
 30
4729.320
 70
    32
  0
VERTEX
  8
T05SSILL
 62
13
 10
643.029
 20
-1596.238
 30
4729.320
 70
    32
  0
VERTEX
  8
T05SSILL
 62
13
 10
654.633
 20
-1586.685
 30
4729.320
 70
    32
  0
VERTEX
  8
T05SSILL
 62
13
 10
651.531
 20
-1581.054
 30
4729.320
 70
    32
  0
VERTEX
  8
T05SSILL
 62
13
 10
637.801
 20
-1586.824
 30
4729.320
 70
    32
  0
VERTEX
  8
T05SSILL
 62
13
 10
623.366
 20
-1563.691
 30
4729.320
 70
    32
  0
VERTEX
  8
T05SSILL
 62
13
 10
628.115
 20
-1560.504
 30
4729.320
 70
    32
  0
VERTEX
  8
T05SSILL
 62
13
 10
621.914
 20
-1550.124
 30
4729.320
 70
    32
  0
VERTEX
  8
T05SSILL
 62
13
 10
627.368
 20
-1546.759
 30
4729.320
 70
    32
  0
VERTEX
  8
T05SSILL
 62
13
 10
620.726
 20
-1536.204
 30
4729.320
 70
    32
  0
VERTEX
  8
T05SSILL
 62
13
 10
626.358
 20
-1533.366
 30
4729.320
 70
    32
  0
VERTEX
  8
T05SSILL
 62
13
 10
619.891
 20
-1522.547
 30
4729.320
 70
    32
  0
VERTEX
  8
T05SSILL
 62
13
 10
624.552
 20
-1519.360
 30
4729.320
 70
    32
  0
SEQEND
  8
T05SSILL
  0
POLYLINE
  8
T05SSILL
 62
13
 66
     1
 70
     9
  0
VERTEX
  8
T05SSILL
 62
13
 10
614.165
 20
-1436.465
 30
4729.320
 70
    32
  0
VERTEX
  8
T05SSILL
 62
13
 10
609.311
 20
-1434.188
 30
4729.320
 70
    32
  0
VERTEX
  8
T05SSILL
 62
13
 10
588.910
 20
-1448.879
 30
4729.320
 70
    32
  0
VERTEX
  8
T05SSILL
 62
13
 10
587.251
 20
-1453.996
 30
4729.320
 70
    32
  0
VERTEX
  8
T05SSILL
 62
13
 10
599.651
 20
-1474.315
 30
4729.320
 70
    32
  0
VERTEX
  8
T05SSILL
 62
13
 10
604.245
 20
-1478.091
 30
4729.320
 70
    32
  0
VERTEX
  8
T05SSILL
 62
13
 10
611.645
 20
-1477.099
 30
4729.320
 70
    32
  0
VERTEX
  8
T05SSILL
 62
13
 10
630.551
 20
-1463.734
 30
4729.320
 70
    32
  0
VERTEX
  8
T05SSILL
 62
13
 10
630.980
 20
-1459.767
 30
4729.320
 70
    32
  0
SEQEND
  8
T05SSILL
  0
POLYLINE
  8
T05SSILL
 62
13
 66
     1
 70
     9
  0
VERTEX
  8
T05SSILL
 62
13
 10
668.957
 20
-1342.619
 30
4729.320
 70
    32
  0
VERTEX
  8
T05SSILL
 62
13
 10
727.470
 20
-1457.181
 30
4729.320
 70
    32
  0
VERTEX
  8
T05SSILL
 62
13
 10
724.158
 20
-1469.176
 30
4729.320
 70
    32
  0
VERTEX
  8
T05SSILL
 62
13
 10
710.362
 20
-1482.085
 30
4729.320
 70
    32
  0
VERTEX
  8
T05SSILL
 62
13
 10
700.688
 20
-1488.724
 30
4729.320
 70
    32
  0
VERTEX
  8
T05SSILL
 62
13
 10
696.900
 20
-1489.264
 30
4729.320
 70
    32
  0
VERTEX
  8
T05SSILL
 62
13
 10
694.382
 20
-1472.616
 30
4729.320
 70
    32
  0
VERTEX
  8
T05SSILL
 62
13
 10
687.627
 20
-1482.595
 30
4729.320
 70
    32
  0
VERTEX
  8
T05SSILL
 62
13
 10
690.995
 20
-1489.106
 30
4729.320
 70
    32
  0
VERTEX
  8
T05SSILL
 62
13
 10
690.658
 20
-1522.947
 30
4729.320
 70
    32
  0
VERTEX
  8
T05SSILL
 62
13
 10
695.631
 20
-1535.446
 30
4729.320
 70
    32
  0
VERTEX
  8
T05SSILL
 62
13
 10
695.475
 20
-1541.792
 30
4729.320
 70
    32
  0
VERTEX
  8
T05SSILL
 62
13
 10
588.196
 20
-1388.074
 30
4729.320
 70
    32
  0
VERTEX
  8
T05SSILL
 62
13
 10
590.648
 20
-1382.956
 30
4729.320
 70
    32
  0
VERTEX
  8
T05SSILL
 62
13
 10
606.046
 20
-1375.330
 30
4729.320
 70
    32
  0
SEQEND
  8
T05SSILL
  0
POLYLINE
  8
T05SSILL
 62
13
 66
     1
 70
     9
  0
VERTEX
  8
T05SSILL
 62
13
 10
702.781
 20
-1539.037
 30
4729.320
 70
    32
  0
VERTEX
  8
T05SSILL
 62
13
 10
697.880
 20
-1521.603
 30
4729.320
 70
    32
  0
VERTEX
  8
T05SSILL
 62
13
 10
697.744
 20
-1505.829
 30
4729.320
 70
    32
  0
VERTEX
  8
T05SSILL
 62
13
 10
700.893
 20
-1498.152
 30
4729.320
 70
    32
  0
VERTEX
  8
T05SSILL
 62
13
 10
717.770
 20
-1484.001
 30
4729.320
 70
    32
  0
VERTEX
  8
T05SSILL
 62
13
 10
727.530
 20
-1476.745
 30
4729.320
 70
    32
  0
VERTEX
  8
T05SSILL
 62
13
 10
732.547
 20
-1474.614
 30
4729.320
 70
    32
  0
VERTEX
  8
T05SSILL
 62
13
 10
737.402
 20
-1477.419
 30
4729.320
 70
    32
  0
VERTEX
  8
T05SSILL
 62
13
 10
777.839
 20
-1559.518
 30
4729.320
 70
    32
  0
VERTEX
  8
T05SSILL
 62
13
 10
776.798
 20
-1564.897
 30
4729.320
 70
    32
  0
VERTEX
  8
T05SSILL
 62
13
 10
753.130
 20
-1577.571
 30
4729.320
 70
    32
  0
VERTEX
  8
T05SSILL
 62
13
 10
737.942
 20
-1596.388
 30
4729.320
 70
    32
  0
VERTEX
  8
T05SSILL
 62
13
 10
732.650
 20
-1594.995
 30
4729.320
 70
    32
  0
VERTEX
  8
T05SSILL
 62
13
 10
700.430
 20
-1548.474
 30
4729.320
 70
    32
  0
SEQEND
  8
T05SSILL
  0
POLYLINE
  8
T05SSILL
 62
13
 66
     1
 70
     9
  0
VERTEX
  8
T05SSILL
 62
13
 10
741.506
 20
-1609.156
 30
4729.320
 70
    32
  0
VERTEX
  8
T05SSILL
 62
13
 10
740.783
 20
-1603.342
 30
4729.320
 70
    32
  0
VERTEX
  8
T05SSILL
 62
13
 10
759.224
 20
-1581.694
 30
4729.320
 70
    32
  0
VERTEX
  8
T05SSILL
 62
13
 10
781.135
 20
-1571.140
 30
4729.320
 70
    32
  0
VERTEX
  8
T05SSILL
 62
13
 10
786.441
 20
-1577.117
 30
4729.320
 70
    32
  0
VERTEX
  8
T05SSILL
 62
13
 10
863.579
 20
-1730.486
 30
4729.320
 70
    32
  0
VERTEX
  8
T05SSILL
 62
13
 10
873.680
 20
-1748.168
 30
4729.320
 70
    32
  0
VERTEX
  8
T05SSILL
 62
13
 10
881.949
 20
-1772.201
 30
4729.320
 70
    32
  0
VERTEX
  8
T05SSILL
 62
13
 10
880.116
 20
-1778.111
 30
4729.320
 70
    32
  0
VERTEX
  8
T05SSILL
 62
13
 10
890.935
 20
-1800.022
 30
4729.320
 70
    32
  0
VERTEX
  8
T05SSILL
 62
13
 10
907.367
 20
-1813.367
 30
4729.320
 70
    32
  0
VERTEX
  8
T05SSILL
 62
13
 10
910.378
 20
-1818.028
 30
4729.320
 70
    32
  0
VERTEX
  8
T05SSILL
 62
13
 10
907.399
 20
-1823.942
 30
4729.320
 70
    32
  0
VERTEX
  8
T05SSILL
 62
13
 10
874.028
 20
-1862.203
 30
4729.320
 70
    32
  0
VERTEX
  8
T05SSILL
 62
13
 10
869.526
 20
-1859.661
 30
4729.320
 70
    32
  0
VERTEX
  8
T05SSILL
 62
13
 10
814.821
 20
-1722.527
 30
4729.320
 70
    32
  0
VERTEX
  8
T05SSILL
 62
13
 10
806.572
 20
-1704.927
 30
4729.320
 70
    32
  0
VERTEX
  8
T05SSILL
 62
13
 10
782.847
 20
-1670.013
 30
4729.320
 70
    32
  0
SEQEND
  8
T05SSILL
  0
POLYLINE
  8
T05SSILL
 62
13
 66
     1
 70
     9
  0
VERTEX
  8
T05SSILL
 62
13
 10
703.008
 20
-1324.978
 30
4729.320
 70
    32
  0
VERTEX
  8
T05SSILL
 62
13
 10
694.237
 20
-1338.488
 30
4729.320
 70
    32
  0
VERTEX
  8
T05SSILL
 62
13
 10
686.357
 20
-1355.520
 30
4729.320
 70
    32
  0
VERTEX
  8
T05SSILL
 62
13
 10
685.671
 20
-1361.515
 30
4729.320
 70
    32
  0
VERTEX
  8
T05SSILL
 62
13
 10
757.045
 20
-1503.004
 30
4729.320
 70
    32
  0
VERTEX
  8
T05SSILL
 62
13
 10
866.245
 20
-1506.989
 30
4729.320
 70
    32
  0
VERTEX
  8
T05SSILL
 62
13
 10
936.678
 20
-1513.471
 30
4729.320
 70
    32
  0
VERTEX
  8
T05SSILL
 62
13
 10
941.163
 20
-1510.373
 30
4729.320
 70
    32
  0
VERTEX
  8
T05SSILL
 62
13
 10
947.256
 20
-1514.232
 30
4729.320
 70
    32
  0
VERTEX
  8
T05SSILL
 62
13
 10
964.622
 20
-1515.853
 30
4729.320
 70
    32
  0
VERTEX
  8
T05SSILL
 62
13
 10
973.572
 20
-1503.400
 30
4729.320
 70
    32
  0
VERTEX
  8
T05SSILL
 62
13
 10
974.515
 20
-1494.585
 30
4729.320
 70
    32
  0
VERTEX
  8
T05SSILL
 62
13
 10
968.256
 20
-1493.811
 30
4729.320
 70
    32
  0
VERTEX
  8
T05SSILL
 62
13
 10
969.012
 20
-1481.735
 30
4729.320
 70
    32
  0
VERTEX
  8
T05SSILL
 62
13
 10
963.017
 20
-1480.960
 30
4729.320
 70
    32
  0
VERTEX
  8
T05SSILL
 62
13
 10
963.617
 20
-1475.406
 30
4729.320
 70
    32
  0
VERTEX
  8
T05SSILL
 62
13
 10
957.446
 20
-1474.808
 30
4729.320
 70
    32
  0
VERTEX
  8
T05SSILL
 62
13
 10
957.781
 20
-1468.991
 30
4729.320
 70
    32
  0
VERTEX
  8
T05SSILL
 62
13
 10
952.051
 20
-1468.568
 30
4729.320
 70
    32
  0
VERTEX
  8
T05SSILL
 62
13
 10
952.208
 20
-1462.046
 30
4729.320
 70
    32
  0
VERTEX
  8
T05SSILL
 62
13
 10
945.772
 20
-1461.096
 30
4729.320
 70
    32
  0
VERTEX
  8
T05SSILL
 62
13
 10
947.856
 20
-1422.226
 30
4729.320
 70
    32
  0
VERTEX
  8
T05SSILL
 62
13
 10
940.774
 20
-1411.849
 30
4729.320
 70
    32
  0
VERTEX
  8
T05SSILL
 62
13
 10
922.383
 20
-1391.900
 30
4729.320
 70
    32
  0
VERTEX
  8
T05SSILL
 62
13
 10
915.239
 20
-1389.895
 30
4729.320
 70
    32
  0
VERTEX
  8
T05SSILL
 62
13
 10
902.991
 20
-1390.726
 30
4729.320
 70
    32
  0
VERTEX
  8
T05SSILL
 62
13
 10
900.672
 20
-1381.568
 30
4729.320
 70
    32
  0
VERTEX
  8
T05SSILL
 62
13
 10
882.846
 20
-1373.603
 30
4729.320
 70
    32
  0
VERTEX
  8
T05SSILL
 62
13
 10
878.792
 20
-1373.439
 30
4729.320
 70
    32
  0
VERTEX
  8
T05SSILL
 62
13
 10
845.718
 20
-1393.456
 30
4729.320
 70
    32
  0
VERTEX
  8
T05SSILL
 62
13
 10
842.883
 20
-1388.618
 30
4729.320
 70
    32
  0
VERTEX
  8
T05SSILL
 62
13
 10
877.539
 20
-1367.186
 30
4729.320
 70
    32
  0
VERTEX
  8
T05SSILL
 62
13
 10
883.093
 20
-1367.786
 30
4729.320
 70
    32
  0
VERTEX
  8
T05SSILL
 62
13
 10
924.655
 20
-1385.725
 30
4729.320
 70
    32
  0
VERTEX
  8
T05SSILL
 62
13
 10
951.178
 20
-1413.403
 30
4729.320
 70
    32
  0
VERTEX
  8
T05SSILL
 62
13
 10
979.915
 20
-1415.959
 30
4729.320
 70
    32
  0
VERTEX
  8
T05SSILL
 62
13
 10
979.296
 20
-1444.074
 30
4729.320
 70
    32
  0
VERTEX
  8
T05SSILL
 62
13
 10
987.207
 20
-1466.345
 30
4729.320
 70
    32
  0
VERTEX
  8
T05SSILL
 62
13
 10
992.334
 20
-1471.353
 30
4729.320
 70
    32
  0
VERTEX
  8
T05SSILL
 62
13
 10
1017.897
 20
-1473.478
 30
4729.320
 70
    32
  0
VERTEX
  8
T05SSILL
 62
13
 10
1017.650
 20
-1479.383
 30
4729.320
 70
    32
  0
VERTEX
  8
T05SSILL
 62
13
 10
1023.734
 20
-1480.158
 30
4729.320
 70
    32
  0
VERTEX
  8
T05SSILL
 62
13
 10
1022.958
 20
-1485.977
 30
4729.320
 70
    32
  0
VERTEX
  8
T05SSILL
 62
13
 10
1028.863
 20
-1486.223
 30
4729.320
 70
    32
  0
VERTEX
  8
T05SSILL
 62
13
 10
1027.842
 20
-1497.947
 30
4729.320
 70
    32
  0
VERTEX
  8
T05SSILL
 62
13
 10
1034.102
 20
-1499.073
 30
4729.320
 70
    32
  0
VERTEX
  8
T05SSILL
 62
13
 10
1033.326
 20
-1504.540
 30
4729.320
 70
    32
  0
VERTEX
  8
T05SSILL
 62
13
 10
1039.145
 20
-1505.491
 30
4729.320
 70
    32
  0
VERTEX
  8
T05SSILL
 62
13
 10
1038.388
 20
-1517.391
 30
4729.320
 70
    32
  0
VERTEX
  8
T05SSILL
 62
13
 10
1045.088
 20
-1518.163
 30
4729.320
 70
    32
  0
VERTEX
  8
T05SSILL
 62
13
 10
1044.665
 20
-1523.805
 30
4729.320
 70
    32
  0
VERTEX
  8
T05SSILL
 62
13
 10
1050.131
 20
-1524.493
 30
4729.320
 70
    32
  0
VERTEX
  8
T05SSILL
 62
13
 10
1048.933
 20
-1536.217
 30
4729.320
 70
    32
  0
VERTEX
  8
T05SSILL
 62
13
 10
1055.719
 20
-1536.549
 30
4729.320
 70
    32
  0
VERTEX
  8
T05SSILL
 62
13
 10
1054.522
 20
-1548.538
 30
4729.320
 70
    32
  0
VERTEX
  8
T05SSILL
 62
13
 10
1048.176
 20
-1548.029
 30
4729.320
 70
    32
  0
VERTEX
  8
T05SSILL
 62
13
 10
1047.327
 20
-1558.783
 30
4729.320
 70
    32
  0
VERTEX
  8
T05SSILL
 62
13
 10
1083.642
 20
-1560.963
 30
4729.320
 70
    32
  0
VERTEX
  8
T05SSILL
 62
13
 10
1087.789
 20
-1562.537
 30
4729.320
 70
    32
  0
VERTEX
  8
T05SSILL
 62
13
 10
1314.819
 20
-1452.742
 30
4729.320
 70
    32
  0
VERTEX
  8
T05SSILL
 62
13
 10
1279.789
 20
-1380.586
 30
4729.320
 70
    32
  0
VERTEX
  8
T05SSILL
 62
13
 10
1151.648
 20
-1378.862
 30
4729.320
 70
    32
  0
VERTEX
  8
T05SSILL
 62
13
 10
1152.865
 20
-1373.395
 30
4729.320
 70
    32
  0
VERTEX
  8
T05SSILL
 62
13
 10
1275.890
 20
-1373.459
 30
4729.320
 70
    32
  0
VERTEX
  8
T05SSILL
 62
13
 10
1178.957
 20
-1173.620
 30
4729.320
 70
    32
  0
VERTEX
  8
T05SSILL
 62
13
 10
1175.949
 20
-1169.752
 30
4729.320
 70
    32
  0
VERTEX
  8
T05SSILL
 62
13
 10
1141.067
 20
-1146.329
 30
4729.320
 70
    32
  0
VERTEX
  8
T05SSILL
 62
13
 10
1131.862
 20
-1162.044
 30
4729.320
 70
    32
  0
VERTEX
  8
T05SSILL
 62
13
 10
1138.398
 20
-1166.694
 30
4729.320
 70
    32
  0
VERTEX
  8
T05SSILL
 62
13
 10
1125.503
 20
-1186.298
 30
4729.320
 70
    32
  0
VERTEX
  8
T05SSILL
 62
13
 10
1054.425
 20
-1141.835
 30
4729.320
 70
    32
  0
VERTEX
  8
T05SSILL
 62
13
 10
907.576
 20
-1218.160
 30
4729.320
 70
    32
  0
VERTEX
  8
T05SSILL
 62
13
 10
905.735
 20
-1221.603
 30
4729.320
 70
    32
  0
VERTEX
  8
T05SSILL
 62
13
 10
910.524
 20
-1231.282
 30
4729.320
 70
    32
  0
VERTEX
  8
T05SSILL
 62
13
 10
903.481
 20
-1233.771
 30
4729.320
 70
    32
  0
VERTEX
  8
T05SSILL
 62
13
 10
898.872
 20
-1224.973
 30
4729.320
 70
    32
  0
VERTEX
  8
T05SSILL
 62
13
 10
896.492
 20
-1224.715
 30
4729.320
 70
    32
  0
VERTEX
  8
T05SSILL
 62
13
 10
740.226
 20
-1305.564
 30
4729.320
 70
    32
  0
SEQEND
  8
T05SSILL
  0
POLYLINE
  8
T05SSILL
 62
13
 66
     1
 70
     9
  0
VERTEX
  8
T05SSILL
 62
13
 10
760.505
 20
-1510.661
 30
4729.320
 70
    32
  0
VERTEX
  8
T05SSILL
 62
13
 10
800.310
 20
-1587.914
 30
4729.320
 70
    32
  0
VERTEX
  8
T05SSILL
 62
13
 10
814.963
 20
-1595.801
 30
4729.320
 70
    32
  0
VERTEX
  8
T05SSILL
 62
13
 10
827.035
 20
-1624.140
 30
4729.320
 70
    32
  0
VERTEX
  8
T05SSILL
 62
13
 10
841.299
 20
-1620.219
 30
4729.320
 70
    32
  0
VERTEX
  8
T05SSILL
 62
13
 10
843.788
 20
-1627.086
 30
4729.320
 70
    32
  0
VERTEX
  8
T05SSILL
 62
13
 10
827.147
 20
-1631.983
 30
4729.320
 70
    32
  0
VERTEX
  8
T05SSILL
 62
13
 10
825.315
 20
-1638.158
 30
4729.320
 70
    32
  0
VERTEX
  8
T05SSILL
 62
13
 10
859.709
 20
-1704.059
 30
4729.320
 70
    32
  0
VERTEX
  8
T05SSILL
 62
13
 10
867.822
 20
-1705.621
 30
4729.320
 70
    32
  0
VERTEX
  8
T05SSILL
 62
13
 10
903.848
 20
-1700.047
 30
4729.320
 70
    32
  0
VERTEX
  8
T05SSILL
 62
13
 10
984.015
 20
-1690.725
 30
4729.320
 70
    32
  0
VERTEX
  8
T05SSILL
 62
13
 10
988.942
 20
-1688.242
 30
4729.320
 70
    32
  0
VERTEX
  8
T05SSILL
 62
13
 10
990.467
 20
-1668.057
 30
4729.320
 70
    32
  0
VERTEX
  8
T05SSILL
 62
13
 10
990.045
 20
-1645.233
 30
4729.320
 70
    32
  0
VERTEX
  8
T05SSILL
 62
13
 10
987.807
 20
-1634.048
 30
4729.320
 70
    32
  0
VERTEX
  8
T05SSILL
 62
13
 10
982.571
 20
-1621.815
 30
4729.320
 70
    32
  0
VERTEX
  8
T05SSILL
 62
13
 10
976.223
 20
-1621.129
 30
4729.320
 70
    32
  0
VERTEX
  8
T05SSILL
 62
13
 10
978.531
 20
-1597.768
 30
4729.320
 70
    32
  0
VERTEX
  8
T05SSILL
 62
13
 10
972.006
 20
-1596.290
 30
4729.320
 70
    32
  0
VERTEX
  8
T05SSILL
 62
13
 10
974.806
 20
-1561.119
 30
4729.320
 70
    32
  0
VERTEX
  8
T05SSILL
 62
13
 10
948.247
 20
-1550.361
 30
4729.320
 70
    32
  0
VERTEX
  8
T05SSILL
 62
13
 10
942.518
 20
-1550.114
 30
4729.320
 70
    32
  0
VERTEX
  8
T05SSILL
 62
13
 10
938.017
 20
-1547.925
 30
4729.320
 70
    32
  0
VERTEX
  8
T05SSILL
 62
13
 10
937.518
 20
-1528.714
 30
4729.320
 70
    32
  0
VERTEX
  8
T05SSILL
 62
13
 10
936.358
 20
-1524.047
 30
4729.320
 70
    32
  0
VERTEX
  8
T05SSILL
 62
13
 10
931.850
 20
-1519.479
 30
4729.320
 70
    32
  0
VERTEX
  8
T05SSILL
 62
13
 10
843.259
 20
-1511.730
 30
4729.320
 70
    32
  0
VERTEX
  8
T05SSILL
 62
13
 10
807.746
 20
-1512.279
 30
4729.320
 70
    32
  0
SEQEND
  8
T05SSILL
  0
POLYLINE
  8
T05SSILL
 62
13
 66
     1
 70
     9
  0
VERTEX
  8
T05SSILL
 62
13
 10
975.227
 20
-1554.685
 30
4729.320
 70
    32
  0
VERTEX
  8
T05SSILL
 62
13
 10
977.361
 20
-1531.853
 30
4729.320
 70
    32
  0
VERTEX
  8
T05SSILL
 62
13
 10
971.797
 20
-1527.905
 30
4729.320
 70
    32
  0
VERTEX
  8
T05SSILL
 62
13
 10
968.523
 20
-1523.685
 30
4729.320
 70
    32
  0
VERTEX
  8
T05SSILL
 62
13
 10
947.364
 20
-1520.753
 30
4729.320
 70
    32
  0
VERTEX
  8
T05SSILL
 62
13
 10
945.873
 20
-1523.225
 30
4729.320
 70
    32
  0
VERTEX
  8
T05SSILL
 62
13
 10
947.962
 20
-1543.576
 30
4729.320
 70
    32
  0
SEQEND
  8
T05SSILL
  0
POLYLINE
  8
T05SSILL
 62
13
 66
     1
 70
     9
  0
VERTEX
  8
T05SSILL
 62
13
 10
1010.516
 20
-1653.807
 30
4729.320
 70
    32
  0
VERTEX
  8
T05SSILL
 62
13
 10
1016.236
 20
-1679.963
 30
4729.320
 70
    32
  0
VERTEX
  8
T05SSILL
 62
13
 10
1018.355
 20
-1681.191
 30
4729.320
 70
    32
  0
VERTEX
  8
T05SSILL
 62
13
 10
1027.515
 20
-1679.400
 30
4729.320
 70
    32
  0
VERTEX
  8
T05SSILL
 62
13
 10
1031.281
 20
-1671.722
 30
4729.320
 70
    32
  0
VERTEX
  8
T05SSILL
 62
13
 10
1034.403
 20
-1655.321
 30
4729.320
 70
    32
  0
SEQEND
  8
T05SSILL
  0
POLYLINE
  8
T05SSILL
 62
13
 66
     1
 70
     9
  0
VERTEX
  8
T05SSILL
 62
13
 10
1119.306
 20
-1667.399
 30
4729.320
 70
    32
  0
VERTEX
  8
T05SSILL
 62
13
 10
1121.266
 20
-1674.443
 30
4729.320
 70
    32
  0
VERTEX
  8
T05SSILL
 62
13
 10
1118.636
 20
-1678.769
 30
4729.320
 70
    32
  0
VERTEX
  8
T05SSILL
 62
13
 10
1062.608
 20
-1685.550
 30
4729.320
 70
    32
  0
VERTEX
  8
T05SSILL
 62
13
 10
1057.596
 20
-1689.355
 30
4729.320
 70
    32
  0
VERTEX
  8
T05SSILL
 62
13
 10
1054.419
 20
-1687.866
 30
4729.320
 70
    32
  0
VERTEX
  8
T05SSILL
 62
13
 10
1057.458
 20
-1672.964
 30
4729.320
 70
    32
  0
VERTEX
  8
T05SSILL
 62
13
 10
1074.884
 20
-1665.331
 30
4729.320
 70
    32
  0
VERTEX
  8
T05SSILL
 62
13
 10
1079.209
 20
-1667.786
 30
4729.320
 70
    32
  0
VERTEX
  8
T05SSILL
 62
13
 10
1085.811
 20
-1665.298
 30
4729.320
 70
    32
  0
SEQEND
  8
T05SSILL
  0
POLYLINE
  8
T05SSILL
 62
13
 66
     1
 70
     9
  0
VERTEX
  8
T05SSILL
 62
13
 10
1030.289
 20
-1145.257
 30
4729.320
 70
    32
  0
VERTEX
  8
T05SSILL
 62
13
 10
1024.555
 20
-1143.160
 30
4729.320
 70
    32
  0
VERTEX
  8
T05SSILL
 62
13
 10
1033.570
 20
-1122.951
 30
4729.320
 70
    32
  0
VERTEX
  8
T05SSILL
 62
13
 10
1049.545
 20
-1102.017
 30
4729.320
 70
    32
  0
VERTEX
  8
T05SSILL
 62
13
 10
1071.970
 20
-1086.438
 30
4729.320
 70
    32
  0
VERTEX
  8
T05SSILL
 62
13
 10
1083.236
 20
-1081.821
 30
4729.320
 70
    32
  0
VERTEX
  8
T05SSILL
 62
13
 10
1092.471
 20
-1075.888
 30
4729.320
 70
    32
  0
VERTEX
  8
T05SSILL
 62
13
 10
1095.260
 20
-1065.921
 30
4729.320
 70
    32
  0
VERTEX
  8
T05SSILL
 62
13
 10
1099.209
 20
-1060.181
 30
4729.320
 70
    32
  0
VERTEX
  8
T05SSILL
 62
13
 10
1125.414
 20
-1041.771
 30
4729.320
 70
    32
  0
VERTEX
  8
T05SSILL
 62
13
 10
1142.161
 20
-1042.865
 30
4729.320
 70
    32
  0
VERTEX
  8
T05SSILL
 62
13
 10
1152.494
 20
-1049.884
 30
4729.320
 70
    32
  0
VERTEX
  8
T05SSILL
 62
13
 10
1164.496
 20
-1055.575
 30
4729.320
 70
    32
  0
VERTEX
  8
T05SSILL
 62
13
 10
1164.861
 20
-1059.452
 30
4729.320
 70
    32
  0
VERTEX
  8
T05SSILL
 62
13
 10
1168.491
 20
-1065.169
 30
4729.320
 70
    32
  0
VERTEX
  8
T05SSILL
 62
13
 10
1105.780
 20
-1105.458
 30
4729.320
 70
    32
  0
SEQEND
  8
T05SSILL
  0
POLYLINE
  8
T05SSILL
 62
13
 66
     1
 70
     9
  0
VERTEX
  8
T05SSILL
 62
13
 10
975.361
 20
-3097.310
 30
4729.320
 70
    32
  0
VERTEX
  8
T05SSILL
 62
13
 10
951.424
 20
-3070.779
 30
4729.320
 70
    32
  0
VERTEX
  8
T05SSILL
 62
13
 10
951.470
 20
-3065.417
 30
4729.320
 70
    32
  0
VERTEX
  8
T05SSILL
 62
13
 10
953.790
 20
-3058.632
 30
4729.320
 70
    32
  0
VERTEX
  8
T05SSILL
 62
13
 10
964.887
 20
-3050.371
 30
4729.320
 70
    32
  0
VERTEX
  8
T05SSILL
 62
13
 10
980.571
 20
-3066.684
 30
4729.320
 70
    32
  0
VERTEX
  8
T05SSILL
 62
13
 10
980.372
 20
-3074.947
 30
4729.320
 70
    32
  0
SEQEND
  8
T05SSILL
  0
POLYLINE
  8
T05SSILL
 62
13
 66
     1
 70
     9
  0
VERTEX
  8
T05SSILL
 62
13
 10
929.960
 20
-2989.738
 30
4729.320
 70
    32
  0
VERTEX
  8
T05SSILL
 62
13
 10
926.516
 20
-2987.655
 30
4729.320
 70
    32
  0
VERTEX
  8
T05SSILL
 62
13
 10
917.532
 20
-2996.339
 30
4729.320
 70
    32
  0
VERTEX
  8
T05SSILL
 62
13
 10
919.263
 20
-3004.235
 30
4729.320
 70
    32
  0
VERTEX
  8
T05SSILL
 62
13
 10
926.430
 20
-3010.331
 30
4729.320
 70
    32
  0
VERTEX
  8
T05SSILL
 62
13
 10
932.864
 20
-3012.654
 30
4729.320
 70
    32
  0
VERTEX
  8
T05SSILL
 62
13
 10
934.745
 20
-3005.960
 30
4729.320
 70
    32
  0
SEQEND
  8
T05SSILL
  0
POLYLINE
  8
T05SSILL
 62
13
 66
     1
 70
     9
  0
VERTEX
  8
T05SSILL
 62
13
 10
891.180
 20
-2919.642
 30
4729.320
 70
    32
  0
VERTEX
  8
T05SSILL
 62
13
 10
895.761
 20
-2921.012
 30
4729.320
 70
    32
  0
VERTEX
  8
T05SSILL
 62
13
 10
900.039
 20
-2939.787
 30
4729.320
 70
    32
  0
VERTEX
  8
T05SSILL
 62
13
 10
894.177
 20
-2943.261
 30
4729.320
 70
    32
  0
VERTEX
  8
T05SSILL
 62
13
 10
892.133
 20
-2940.288
 30
4729.320
 70
    32
  0
SEQEND
  8
T05SSILL
  0
POLYLINE
  8
T05SSILL
 62
13
 66
     1
 70
     9
  0
VERTEX
  8
T05SSILL
 62
13
 10
1336.496
 20
-2423.102
 30
4729.320
 70
    32
  0
VERTEX
  8
T05SSILL
 62
13
 10
1386.861
 20
-2490.997
 30
4729.320
 70
    32
  0
VERTEX
  8
T05SSILL
 62
13
 10
1383.656
 20
-2497.087
 30
4729.320
 70
    32
  0
VERTEX
  8
T05SSILL
 62
13
 10
1374.634
 20
-2500.937
 30
4729.320
 70
    32
  0
VERTEX
  8
T05SSILL
 62
13
 10
1364.410
 20
-2508.487
 30
4729.320
 70
    32
  0
VERTEX
  8
T05SSILL
 62
13
 10
1343.258
 20
-2512.256
 30
4729.320
 70
    32
  0
VERTEX
  8
T05SSILL
 62
13
 10
1336.343
 20
-2515.914
 30
4729.320
 70
    32
  0
VERTEX
  8
T05SSILL
 62
13
 10
1320.708
 20
-2517.003
 30
4729.320
 70
    32
  0
VERTEX
  8
T05SSILL
 62
13
 10
1299.579
 20
-2523.672
 30
4729.320
 70
    32
  0
VERTEX
  8
T05SSILL
 62
13
 10
1278.053
 20
-2513.381
 30
4729.320
 70
    32
  0
VERTEX
  8
T05SSILL
 62
13
 10
1266.569
 20
-2517.163
 30
4729.320
 70
    32
  0
VERTEX
  8
T05SSILL
 62
13
 10
1268.738
 20
-2513.454
 30
4729.320
 70
    32
  0
VERTEX
  8
T05SSILL
 62
13
 10
1307.289
 20
-2486.874
 30
4729.320
 70
    32
  0
VERTEX
  8
T05SSILL
 62
13
 10
1315.286
 20
-2441.812
 30
4729.320
 70
    32
  0
VERTEX
  8
T05SSILL
 62
13
 10
1318.319
 20
-2436.339
 30
4729.320
 70
    32
  0
SEQEND
  8
T05SSILL
  0
POLYLINE
  8
T05SSILL
 62
13
 66
     1
 70
     9
  0
VERTEX
  8
T05SSILL
 62
13
 10
1300.318
 20
-2483.413
 30
4729.320
 70
    32
  0
VERTEX
  8
T05SSILL
 62
13
 10
1305.658
 20
-2458.147
 30
4729.320
 70
    32
  0
VERTEX
  8
T05SSILL
 62
13
 10
1306.348
 20
-2445.222
 30
4729.320
 70
    32
  0
VERTEX
  8
T05SSILL
 62
13
 10
1287.122
 20
-2459.259
 30
4729.320
 70
    32
  0
VERTEX
  8
T05SSILL
 62
13
 10
1281.726
 20
-2466.068
 30
4729.320
 70
    32
  0
VERTEX
  8
T05SSILL
 62
13
 10
1258.656
 20
-2483.036
 30
4729.320
 70
    32
  0
VERTEX
  8
T05SSILL
 62
13
 10
1247.834
 20
-2492.700
 30
4729.320
 70
    32
  0
VERTEX
  8
T05SSILL
 62
13
 10
1246.155
 20
-2502.821
 30
4729.320
 70
    32
  0
VERTEX
  8
T05SSILL
 62
13
 10
1247.183
 20
-2510.635
 30
4729.320
 70
    32
  0
VERTEX
  8
T05SSILL
 62
13
 10
1255.921
 20
-2515.400
 30
4729.320
 70
    32
  0
VERTEX
  8
T05SSILL
 62
13
 10
1262.996
 20
-2509.808
 30
4729.320
 70
    32
  0
SEQEND
  8
T05SSILL
  0
POLYLINE
  8
T05SSILL
 62
13
 66
     1
 70
     9
  0
VERTEX
  8
T05SSILL
 62
13
 10
957.596
 20
-1952.030
 30
4729.320
 70
    32
  0
VERTEX
  8
T05SSILL
 62
13
 10
960.191
 20
-1954.363
 30
4729.320
 70
    32
  0
VERTEX
  8
T05SSILL
 62
13
 10
983.118
 20
-1950.883
 30
4729.320
 70
    32
  0
VERTEX
  8
T05SSILL
 62
13
 10
987.097
 20
-1951.783
 30
4729.320
 70
    32
  0
VERTEX
  8
T05SSILL
 62
13
 10
989.589
 20
-1948.217
 30
4729.320
 70
    32
  0
VERTEX
  8
T05SSILL
 62
13
 10
976.236
 20
-1929.864
 30
4729.320
 70
    32
  0
VERTEX
  8
T05SSILL
 62
13
 10
973.502
 20
-1929.648
 30
4729.320
 70
    32
  0
SEQEND
  8
T05SSILL
  0
POLYLINE
  8
T05SSILL
 62
13
 66
     1
 70
     9
  0
VERTEX
  8
T05SSILL
 62
13
 10
-470.931
 20
112.521
 30
4729.320
 70
    32
  0
VERTEX
  8
T05SSILL
 62
13
 10
-586.861
 20
87.440
 30
4729.320
 70
    32
  0
VERTEX
  8
T05SSILL
 62
13
 10
-587.339
 20
77.563
 30
4729.320
 70
    32
  0
VERTEX
  8
T05SSILL
 62
13
 10
-591.363
 20
71.038
 30
4729.320
 70
    32
  0
VERTEX
  8
T05SSILL
 62
13
 10
-593.787
 20
59.855
 30
4729.320
 70
    32
  0
VERTEX
  8
T05SSILL
 62
13
 10
-591.557
 20
51.240
 30
4729.320
 70
    32
  0
VERTEX
  8
T05SSILL
 62
13
 10
-585.213
 20
48.710
 30
4729.320
 70
    32
  0
VERTEX
  8
T05SSILL
 62
13
 10
-559.998
 20
59.446
 30
4729.320
 70
    32
  0
VERTEX
  8
T05SSILL
 62
13
 10
-556.904
 20
55.233
 30
4729.320
 70
    32
  0
VERTEX
  8
T05SSILL
 62
13
 10
-578.867
 20
45.477
 30
4729.320
 70
    32
  0
VERTEX
  8
T05SSILL
 62
13
 10
-580.262
 20
42.040
 30
4729.320
 70
    32
  0
VERTEX
  8
T05SSILL
 62
13
 10
-573.715
 20
31.857
 30
4729.320
 70
    32
  0
VERTEX
  8
T05SSILL
 62
13
 10
-575.549
 20
27.979
 30
4729.320
 70
    32
  0
VERTEX
  8
T05SSILL
 62
13
 10
-580.727
 20
24.177
 30
4729.320
 70
    32
  0
VERTEX
  8
T05SSILL
 62
13
 10
-585.387
 20
23.193
 30
4729.320
 70
    32
  0
VERTEX
  8
T05SSILL
 62
13
 10
-595.979
 20
32.570
 30
4729.320
 70
    32
  0
VERTEX
  8
T05SSILL
 62
13
 10
-600.911
 20
33.961
 30
4729.320
 70
    32
  0
VERTEX
  8
T05SSILL
 62
13
 10
-608.030
 20
31.560
 30
4729.320
 70
    32
  0
VERTEX
  8
T05SSILL
 62
13
 10
-607.934
 20
29.361
 30
4729.320
 70
    32
  0
VERTEX
  8
T05SSILL
 62
13
 10
-497.128
 20
-128.630
 30
4729.320
 70
    32
  0
VERTEX
  8
T05SSILL
 62
13
 10
-485.428
 20
-127.885
 30
4729.320
 70
    32
  0
VERTEX
  8
T05SSILL
 62
13
 10
-472.434
 20
-119.745
 30
4729.320
 70
    32
  0
VERTEX
  8
T05SSILL
 62
13
 10
-455.032
 20
-114.140
 30
4729.320
 70
    32
  0
VERTEX
  8
T05SSILL
 62
13
 10
-440.497
 20
-118.840
 30
4729.320
 70
    32
  0
VERTEX
  8
T05SSILL
 62
13
 10
-325.281
 20
-29.477
 30
4729.320
 70
    32
  0
VERTEX
  8
T05SSILL
 62
13
 10
-697.099
 20
445.524
 30
4729.320
 70
    32
  0
VERTEX
  8
T05SSILL
 62
13
 10
-738.250
 20
401.278
 30
4729.320
 70
    32
  0
VERTEX
  8
T05SSILL
 62
13
 10
-746.442
 20
389.857
 30
4729.320
 70
    32
  0
VERTEX
  8
T05SSILL
 62
13
 10
-748.385
 20
383.440
 30
4729.320
 70
    32
  0
VERTEX
  8
T05SSILL
 62
13
 10
-736.437
 20
374.104
 30
4729.320
 70
    32
  0
VERTEX
  8
T05SSILL
 62
13
 10
-675.886
 20
273.256
 30
4729.320
 70
    32
  0
VERTEX
  8
T05SSILL
 62
13
 10
-654.293
 20
241.748
 30
4729.320
 70
    32
  0
VERTEX
  8
T05SSILL
 62
13
 10
-639.381
 20
211.040
 30
4729.320
 70
    32
  0
VERTEX
  8
T05SSILL
 62
13
 10
-633.685
 20
195.117
 30
4729.320
 70
    32
  0
VERTEX
  8
T05SSILL
 62
13
 10
-624.902
 20
187.104
 30
4729.320
 70
    32
  0
VERTEX
  8
T05SSILL
 62
13
 10
-616.903
 20
183.929
 30
4729.320
 70
    32
  0
VERTEX
  8
T05SSILL
 62
13
 10
-610.673
 20
173.545
 30
4729.320
 70
    32
  0
VERTEX
  8
T05SSILL
 62
13
 10
-609.019
 20
160.001
 30
4729.320
 70
    32
  0
VERTEX
  8
T05SSILL
 62
13
 10
-608.622
 20
125.178
 30
4729.320
 70
    32
  0
VERTEX
  8
T05SSILL
 62
13
 10
-606.169
 20
117.612
 30
4729.320
 70
    32
  0
VERTEX
  8
T05SSILL
 62
13
 10
-595.551
 20
99.221
 30
4729.320
 70
    32
  0
VERTEX
  8
T05SSILL
 62
13
 10
-590.634
 20
93.675
 30
4729.320
 70
    32
  0
VERTEX
  8
T05SSILL
 62
13
 10
-536.717
 20
103.897
 30
4729.320
 70
    32
  0
VERTEX
  8
T05SSILL
 62
13
 10
-526.859
 20
111.095
 30
4729.320
 70
    32
  0
VERTEX
  8
T05SSILL
 62
13
 10
-515.247
 20
115.302
 30
4729.320
 70
    32
  0
VERTEX
  8
T05SSILL
 62
13
 10
-493.353
 20
113.692
 30
4729.320
 70
    32
  0
VERTEX
  8
T05SSILL
 62
13
 10
-472.155
 20
118.415
 30
4729.320
 70
    32
  0
SEQEND
  8
T05SSILL
  0
POLYLINE
  8
T05SSILL
 62
13
 66
     1
 70
     9
  0
VERTEX
  8
T05SSILL
 62
13
 10
-391.595
 20
-412.993
 30
4729.320
 70
    32
  0
VERTEX
  8
T05SSILL
 62
13
 10
-405.124
 20
-394.035
 30
4729.320
 70
    32
  0
VERTEX
  8
T05SSILL
 62
13
 10
-410.225
 20
-394.933
 30
4729.320
 70
    32
  0
VERTEX
  8
T05SSILL
 62
13
 10
-433.391
 20
-412.788
 30
4729.320
 70
    32
  0
VERTEX
  8
T05SSILL
 62
13
 10
-434.776
 20
-419.304
 30
4729.320
 70
    32
  0
VERTEX
  8
T05SSILL
 62
13
 10
-410.410
 20
-467.004
 30
4729.320
 70
    32
  0
VERTEX
  8
T05SSILL
 62
13
 10
-295.542
 20
-678.145
 30
4729.320
 70
    32
  0
VERTEX
  8
T05SSILL
 62
13
 10
-286.892
 20
-679.916
 30
4729.320
 70
    32
  0
VERTEX
  8
T05SSILL
 62
13
 10
-266.926
 20
-675.582
 30
4729.320
 70
    32
  0
VERTEX
  8
T05SSILL
 62
13
 10
-255.520
 20
-669.651
 30
4729.320
 70
    32
  0
VERTEX
  8
T05SSILL
 62
13
 10
-310.824
 20
-586.022
 30
4729.320
 70
    32
  0
VERTEX
  8
T05SSILL
 62
13
 10
-325.055
 20
-558.858
 30
4729.320
 70
    32
  0
VERTEX
  8
T05SSILL
 62
13
 10
-327.791
 20
-548.973
 30
4729.320
 70
    32
  0
VERTEX
  8
T05SSILL
 62
13
 10
-327.081
 20
-526.099
 30
4729.320
 70
    32
  0
VERTEX
  8
T05SSILL
 62
13
 10
-377.594
 20
-435.433
 30
4729.320
 70
    32
  0
SEQEND
  8
T05SSILL
  0
POLYLINE
  8
T05SSILL
 62
13
 66
     1
 70
     9
  0
VERTEX
  8
T05SSILL
 62
13
 10
-331.349
 20
-430.555
 30
4729.320
 70
    32
  0
VERTEX
  8
T05SSILL
 62
13
 10
-349.275
 20
-387.151
 30
4729.320
 70
    32
  0
VERTEX
  8
T05SSILL
 62
13
 10
-356.751
 20
-388.233
 30
4729.320
 70
    32
  0
VERTEX
  8
T05SSILL
 62
13
 10
-358.525
 20
-384.016
 30
4729.320
 70
    32
  0
VERTEX
  8
T05SSILL
 62
13
 10
-351.767
 20
-379.329
 30
4729.320
 70
    32
  0
VERTEX
  8
T05SSILL
 62
13
 10
-357.182
 20
-365.621
 30
4729.320
 70
    32
  0
VERTEX
  8
T05SSILL
 62
13
 10
-361.499
 20
-364.141
 30
4729.320
 70
    32
  0
VERTEX
  8
T05SSILL
 62
13
 10
-397.851
 20
-385.562
 30
4729.320
 70
    32
  0
VERTEX
  8
T05SSILL
 62
13
 10
-398.978
 20
-390.494
 30
4729.320
 70
    32
  0
VERTEX
  8
T05SSILL
 62
13
 10
-381.678
 20
-414.760
 30
4729.320
 70
    32
  0
VERTEX
  8
T05SSILL
 62
13
 10
-309.847
 20
-544.677
 30
4729.320
 70
    32
  0
VERTEX
  8
T05SSILL
 62
13
 10
-306.142
 20
-545.311
 30
4729.320
 70
    32
  0
VERTEX
  8
T05SSILL
 62
13
 10
-291.797
 20
-536.687
 30
4729.320
 70
    32
  0
VERTEX
  8
T05SSILL
 62
13
 10
-290.539
 20
-533.497
 30
4729.320
 70
    32
  0
VERTEX
  8
T05SSILL
 62
13
 10
-313.775
 20
-476.432
 30
4729.320
 70
    32
  0
SEQEND
  8
T05SSILL
  0
POLYLINE
  8
T05SSILL
 62
13
 66
     1
 70
     9
  0
VERTEX
  8
T05SSILL
 62
13
 10
-133.555
 20
-428.715
 30
4729.320
 70
    32
  0
VERTEX
  8
T05SSILL
 62
13
 10
-160.292
 20
-356.921
 30
4729.320
 70
    32
  0
VERTEX
  8
T05SSILL
 62
13
 10
-75.913
 20
-356.184
 30
4729.320
 70
    32
  0
VERTEX
  8
T05SSILL
 62
13
 10
-66.484
 20
-360.287
 30
4729.320
 70
    32
  0
VERTEX
  8
T05SSILL
 62
13
 10
-18.284
 20
-430.157
 30
4729.320
 70
    32
  0
VERTEX
  8
T05SSILL
 62
13
 10
3.269
 20
-465.954
 30
4729.320
 70
    32
  0
VERTEX
  8
T05SSILL
 62
13
 10
154.798
 20
-681.502
 30
4729.320
 70
    32
  0
VERTEX
  8
T05SSILL
 62
13
 10
154.119
 20
-687.406
 30
4729.320
 70
    32
  0
VERTEX
  8
T05SSILL
 62
13
 10
104.578
 20
-722.634
 30
4729.320
 70
    32
  0
VERTEX
  8
T05SSILL
 62
13
 10
-31.425
 20
-644.663
 30
4729.320
 70
    32
  0
VERTEX
  8
T05SSILL
 62
13
 10
-44.641
 20
-633.922
 30
4729.320
 70
    32
  0
VERTEX
  8
T05SSILL
 62
13
 10
-53.398
 20
-621.866
 30
4729.320
 70
    32
  0
VERTEX
  8
T05SSILL
 62
13
 10
-55.047
 20
-613.720
 30
4729.320
 70
    32
  0
VERTEX
  8
T05SSILL
 62
13
 10
-60.588
 20
-604.328
 30
4729.320
 70
    32
  0
VERTEX
  8
T05SSILL
 62
13
 10
-83.245
 20
-577.939
 30
4729.320
 70
    32
  0
VERTEX
  8
T05SSILL
 62
13
 10
-88.257
 20
-568.625
 30
4729.320
 70
    32
  0
VERTEX
  8
T05SSILL
 62
13
 10
-130.807
 20
-443.429
 30
4729.320
 70
    32
  0
SEQEND
  8
T05SSILL
  0
POLYLINE
  8
T05SSILL
 62
13
 66
     1
 70
     9
  0
VERTEX
  8
T05SSILL
 62
13
 10
-143.139
 20
-430.684
 30
4729.320
 70
    32
  0
VERTEX
  8
T05SSILL
 62
13
 10
-135.727
 20
-457.591
 30
4729.320
 70
    32
  0
VERTEX
  8
T05SSILL
 62
13
 10
-138.657
 20
-465.384
 30
4729.320
 70
    32
  0
VERTEX
  8
T05SSILL
 62
13
 10
-155.301
 20
-464.028
 30
4729.320
 70
    32
  0
VERTEX
  8
T05SSILL
 62
13
 10
-160.870
 20
-462.463
 30
4729.320
 70
    32
  0
VERTEX
  8
T05SSILL
 62
13
 10
-181.458
 20
-480.349
 30
4729.320
 70
    32
  0
VERTEX
  8
T05SSILL
 62
13
 10
-206.566
 20
-445.213
 30
4729.320
 70
    32
  0
VERTEX
  8
T05SSILL
 62
13
 10
-221.230
 20
-455.602
 30
4729.320
 70
    32
  0
VERTEX
  8
T05SSILL
 62
13
 10
-227.908
 20
-446.496
 30
4729.320
 70
    32
  0
VERTEX
  8
T05SSILL
 62
13
 10
-241.862
 20
-457.223
 30
4729.320
 70
    32
  0
VERTEX
  8
T05SSILL
 62
13
 10
-227.783
 20
-476.389
 30
4729.320
 70
    32
  0
VERTEX
  8
T05SSILL
 62
13
 10
-213.118
 20
-466.088
 30
4729.320
 70
    32
  0
VERTEX
  8
T05SSILL
 62
13
 10
-209.763
 20
-471.476
 30
4729.320
 70
    32
  0
VERTEX
  8
T05SSILL
 62
13
 10
-214.020
 20
-474.195
 30
4729.320
 70
    32
  0
VERTEX
  8
T05SSILL
 62
13
 10
-210.239
 20
-478.871
 30
4729.320
 70
    32
  0
VERTEX
  8
T05SSILL
 62
13
 10
-220.746
 20
-485.840
 30
4729.320
 70
    32
  0
VERTEX
  8
T05SSILL
 62
13
 10
-213.525
 20
-495.727
 30
4729.320
 70
    32
  0
VERTEX
  8
T05SSILL
 62
13
 10
-218.823
 20
-499.169
 30
4729.320
 70
    32
  0
VERTEX
  8
T05SSILL
 62
13
 10
-208.781
 20
-514.103
 30
4729.320
 70
    32
  0
VERTEX
  8
T05SSILL
 62
13
 10
-203.748
 20
-510.578
 30
4729.320
 70
    32
  0
VERTEX
  8
T05SSILL
 62
13
 10
-200.310
 20
-515.701
 30
4729.320
 70
    32
  0
VERTEX
  8
T05SSILL
 62
13
 10
-212.185
 20
-524.718
 30
4729.320
 70
    32
  0
VERTEX
  8
T05SSILL
 62
13
 10
-248.957
 20
-537.723
 30
4729.320
 70
    32
  0
VERTEX
  8
T05SSILL
 62
13
 10
-260.601
 20
-540.405
 30
4729.320
 70
    32
  0
VERTEX
  8
T05SSILL
 62
13
 10
-267.488
 20
-538.865
 30
4729.320
 70
    32
  0
VERTEX
  8
T05SSILL
 62
13
 10
-289.438
 20
-521.958
 30
4729.320
 70
    32
  0
VERTEX
  8
T05SSILL
 62
13
 10
-308.095
 20
-474.566
 30
4729.320
 70
    32
  0
VERTEX
  8
T05SSILL
 62
13
 10
-306.135
 20
-471.276
 30
4729.320
 70
    32
  0
VERTEX
  8
T05SSILL
 62
13
 10
-251.876
 20
-434.464
 30
4729.320
 70
    32
  0
VERTEX
  8
T05SSILL
 62
13
 10
-171.968
 20
-377.734
 30
4729.320
 70
    32
  0
VERTEX
  8
T05SSILL
 62
13
 10
-163.329
 20
-374.237
 30
4729.320
 70
    32
  0
SEQEND
  8
T05SSILL
  0
POLYLINE
  8
T05SSILL
 62
13
 66
     1
 70
     9
  0
VERTEX
  8
T05SSILL
 62
13
 10
121.131
 20
-1012.218
 30
4729.320
 70
    32
  0
VERTEX
  8
T05SSILL
 62
13
 10
107.598
 20
-994.009
 30
4729.320
 70
    32
  0
VERTEX
  8
T05SSILL
 62
13
 10
127.739
 20
-975.691
 30
4729.320
 70
    32
  0
VERTEX
  8
T05SSILL
 62
13
 10
123.775
 20
-970.666
 30
4729.320
 70
    32
  0
VERTEX
  8
T05SSILL
 62
13
 10
104.216
 20
-987.215
 30
4729.320
 70
    32
  0
VERTEX
  8
T05SSILL
 62
13
 10
86.865
 20
-967.056
 30
4729.320
 70
    32
  0
VERTEX
  8
T05SSILL
 62
13
 10
72.083
 20
-938.583
 30
4729.320
 70
    32
  0
VERTEX
  8
T05SSILL
 62
13
 10
68.443
 20
-899.524
 30
4729.320
 70
    32
  0
VERTEX
  8
T05SSILL
 62
13
 10
69.949
 20
-876.898
 30
4729.320
 70
    32
  0
VERTEX
  8
T05SSILL
 62
13
 10
82.086
 20
-849.147
 30
4729.320
 70
    32
  0
VERTEX
  8
T05SSILL
 62
13
 10
88.166
 20
-845.163
 30
4729.320
 70
    32
  0
VERTEX
  8
T05SSILL
 62
13
 10
112.621
 20
-850.416
 30
4729.320
 70
    32
  0
VERTEX
  8
T05SSILL
 62
13
 10
128.042
 20
-866.128
 30
4729.320
 70
    32
  0
VERTEX
  8
T05SSILL
 62
13
 10
188.569
 20
-914.399
 30
4729.320
 70
    32
  0
VERTEX
  8
T05SSILL
 62
13
 10
201.381
 20
-922.334
 30
4729.320
 70
    32
  0
VERTEX
  8
T05SSILL
 62
13
 10
249.679
 20
-937.687
 30
4729.320
 70
    32
  0
VERTEX
  8
T05SSILL
 62
13
 10
145.084
 20
-1014.139
 30
4729.320
 70
    32
  0
VERTEX
  8
T05SSILL
 62
13
 10
133.047
 20
-1021.008
 30
4729.320
 70
    32
  0
VERTEX
  8
T05SSILL
 62
13
 10
129.778
 20
-1018.286
 30
4729.320
 70
    32
  0
SEQEND
  8
T05SSILL
  0
POLYLINE
  8
T05SSILL
 62
13
 66
     1
 70
     9
  0
VERTEX
  8
T05SSILL
 62
13
 10
378.745
 20
-871.940
 30
4729.320
 70
    32
  0
VERTEX
  8
T05SSILL
 62
13
 10
371.786
 20
-866.620
 30
4729.320
 70
    32
  0
VERTEX
  8
T05SSILL
 62
13
 10
347.270
 20
-862.775
 30
4729.320
 70
    32
  0
VERTEX
  8
T05SSILL
 62
13
 10
324.004
 20
-864.621
 30
4729.320
 70
    32
  0
VERTEX
  8
T05SSILL
 62
13
 10
304.387
 20
-878.093
 30
4729.320
 70
    32
  0
VERTEX
  8
T05SSILL
 62
13
 10
318.413
 20
-899.107
 30
4729.320
 70
    32
  0
VERTEX
  8
T05SSILL
 62
13
 10
326.584
 20
-903.437
 30
4729.320
 70
    32
  0
VERTEX
  8
T05SSILL
 62
13
 10
364.628
 20
-957.760
 30
4729.320
 70
    32
  0
VERTEX
  8
T05SSILL
 62
13
 10
373.592
 20
-966.823
 30
4729.320
 70
    32
  0
VERTEX
  8
T05SSILL
 62
13
 10
389.348
 20
-972.989
 30
4729.320
 70
    32
  0
VERTEX
  8
T05SSILL
 62
13
 10
407.377
 20
-960.861
 30
4729.320
 70
    32
  0
VERTEX
  8
T05SSILL
 62
13
 10
426.265
 20
-941.592
 30
4729.320
 70
    32
  0
VERTEX
  8
T05SSILL
 62
13
 10
433.865
 20
-919.537
 30
4729.320
 70
    32
  0
VERTEX
  8
T05SSILL
 62
13
 10
428.541
 20
-907.656
 30
4729.320
 70
    32
  0
SEQEND
  8
T05SSILL
  0
POLYLINE
  8
T05SSILL
 62
13
 66
     1
 70
     9
  0
VERTEX
  8
T05SSILL
 62
13
 10
975.530
 20
-1913.535
 30
4729.320
 70
    32
  0
VERTEX
  8
T05SSILL
 62
13
 10
969.591
 20
-1902.096
 30
4729.320
 70
    32
  0
VERTEX
  8
T05SSILL
 62
13
 10
974.693
 20
-1899.173
 30
4729.320
 70
    32
  0
VERTEX
  8
T05SSILL
 62
13
 10
958.912
 20
-1867.936
 30
4729.320
 70
    32
  0
VERTEX
  8
T05SSILL
 62
13
 10
974.218
 20
-1858.988
 30
4729.320
 70
    32
  0
VERTEX
  8
T05SSILL
 62
13
 10
966.502
 20
-1842.885
 30
4729.320
 70
    32
  0
VERTEX
  8
T05SSILL
 62
13
 10
971.781
 20
-1840.225
 30
4729.320
 70
    32
  0
VERTEX
  8
T05SSILL
 62
13
 10
947.400
 20
-1792.182
 30
4729.320
 70
    32
  0
VERTEX
  8
T05SSILL
 62
13
 10
951.885
 20
-1789.172
 30
4729.320
 70
    32
  0
VERTEX
  8
T05SSILL
 62
13
 10
949.048
 20
-1783.541
 30
4729.320
 70
    32
  0
VERTEX
  8
T05SSILL
 62
13
 10
939.987
 20
-1788.768
 30
4729.320
 70
    32
  0
VERTEX
  8
T05SSILL
 62
13
 10
947.529
 20
-1805.489
 30
4729.320
 70
    32
  0
VERTEX
  8
T05SSILL
 62
13
 10
926.588
 20
-1816.304
 30
4729.320
 70
    32
  0
VERTEX
  8
T05SSILL
 62
13
 10
934.128
 20
-1832.497
 30
4729.320
 70
    32
  0
VERTEX
  8
T05SSILL
 62
13
 10
929.015
 20
-1831.984
 30
4729.320
 70
    32
  0
VERTEX
  8
T05SSILL
 62
13
 10
913.857
 20
-1803.124
 30
4729.320
 70
    32
  0
VERTEX
  8
T05SSILL
 62
13
 10
914.625
 20
-1794.838
 30
4729.320
 70
    32
  0
VERTEX
  8
T05SSILL
 62
13
 10
919.817
 20
-1792.267
 30
4729.320
 70
    32
  0
VERTEX
  8
T05SSILL
 62
13
 10
909.793
 20
-1770.794
 30
4729.320
 70
    32
  0
VERTEX
  8
T05SSILL
 62
13
 10
897.538
 20
-1769.157
 30
4729.320
 70
    32
  0
VERTEX
  8
T05SSILL
 62
13
 10
895.240
 20
-1766.873
 30
4729.320
 70
    32
  0
VERTEX
  8
T05SSILL
 62
13
 10
869.815
 20
-1723.504
 30
4729.320
 70
    32
  0
VERTEX
  8
T05SSILL
 62
13
 10
867.949
 20
-1718.487
 30
4729.320
 70
    32
  0
VERTEX
  8
T05SSILL
 62
13
 10
870.754
 20
-1713.543
 30
4729.320
 70
    32
  0
VERTEX
  8
T05SSILL
 62
13
 10
985.355
 20
-1696.537
 30
4729.320
 70
    32
  0
VERTEX
  8
T05SSILL
 62
13
 10
988.721
 20
-1702.255
 30
4729.320
 70
    32
  0
VERTEX
  8
T05SSILL
 62
13
 10
989.373
 20
-1713.798
 30
4729.320
 70
    32
  0
VERTEX
  8
T05SSILL
 62
13
 10
993.176
 20
-1718.281
 30
4729.320
 70
    32
  0
VERTEX
  8
T05SSILL
 62
13
 10
998.382
 20
-1720.468
 30
4729.320
 70
    32
  0
VERTEX
  8
T05SSILL
 62
13
 10
1051.047
 20
-1824.296
 30
4729.320
 70
    32
  0
VERTEX
  8
T05SSILL
 62
13
 10
1057.419
 20
-1833.089
 30
4729.320
 70
    32
  0
VERTEX
  8
T05SSILL
 62
13
 10
1077.551
 20
-1845.982
 30
4729.320
 70
    32
  0
VERTEX
  8
T05SSILL
 62
13
 10
1088.395
 20
-1847.624
 30
4729.320
 70
    32
  0
VERTEX
  8
T05SSILL
 62
13
 10
1094.579
 20
-1852.364
 30
4729.320
 70
    32
  0
VERTEX
  8
T05SSILL
 62
13
 10
1108.871
 20
-1857.608
 30
4729.320
 70
    32
  0
VERTEX
  8
T05SSILL
 62
13
 10
1110.671
 20
-1869.852
 30
4729.320
 70
    32
  0
VERTEX
  8
T05SSILL
 62
13
 10
1108.865
 20
-1884.574
 30
4729.320
 70
    32
  0
VERTEX
  8
T05SSILL
 62
13
 10
1115.400
 20
-1888.873
 30
4729.320
 70
    32
  0
VERTEX
  8
T05SSILL
 62
13
 10
1119.941
 20
-1904.016
 30
4729.320
 70
    32
  0
VERTEX
  8
T05SSILL
 62
13
 10
1125.523
 20
-1913.958
 30
4729.320
 70
    32
  0
VERTEX
  8
T05SSILL
 62
13
 10
1140.291
 20
-1930.745
 30
4729.320
 70
    32
  0
VERTEX
  8
T05SSILL
 62
13
 10
1164.433
 20
-1929.173
 30
4729.320
 70
    32
  0
VERTEX
  8
T05SSILL
 62
13
 10
1178.155
 20
-1920.759
 30
4729.320
 70
    32
  0
VERTEX
  8
T05SSILL
 62
13
 10
1185.622
 20
-1913.069
 30
4729.320
 70
    32
  0
VERTEX
  8
T05SSILL
 62
13
 10
1190.688
 20
-1897.984
 30
4729.320
 70
    32
  0
VERTEX
  8
T05SSILL
 62
13
 10
1186.061
 20
-1883.545
 30
4729.320
 70
    32
  0
VERTEX
  8
T05SSILL
 62
13
 10
1177.465
 20
-1867.973
 30
4729.320
 70
    32
  0
VERTEX
  8
T05SSILL
 62
13
 10
1172.744
 20
-1851.508
 30
4729.320
 70
    32
  0
VERTEX
  8
T05SSILL
 62
13
 10
1163.957
 20
-1831.089
 30
4729.320
 70
    32
  0
VERTEX
  8
T05SSILL
 62
13
 10
1148.576
 20
-1815.714
 30
4729.320
 70
    32
  0
VERTEX
  8
T05SSILL
 62
13
 10
1142.730
 20
-1805.950
 30
4729.320
 70
    32
  0
VERTEX
  8
T05SSILL
 62
13
 10
1136.905
 20
-1803.060
 30
4729.320
 70
    32
  0
VERTEX
  8
T05SSILL
 62
13
 10
1124.396
 20
-1804.596
 30
4729.320
 70
    32
  0
VERTEX
  8
T05SSILL
 62
13
 10
1107.943
 20
-1813.371
 30
4729.320
 70
    32
  0
VERTEX
  8
T05SSILL
 62
13
 10
1106.031
 20
-1822.278
 30
4729.320
 70
    32
  0
VERTEX
  8
T05SSILL
 62
13
 10
1099.183
 20
-1830.759
 30
4729.320
 70
    32
  0
VERTEX
  8
T05SSILL
 62
13
 10
1092.149
 20
-1835.803
 30
4729.320
 70
    32
  0
VERTEX
  8
T05SSILL
 62
13
 10
1082.814
 20
-1838.035
 30
4729.320
 70
    32
  0
VERTEX
  8
T05SSILL
 62
13
 10
1074.701
 20
-1836.121
 30
4729.320
 70
    32
  0
VERTEX
  8
T05SSILL
 62
13
 10
1067.196
 20
-1831.473
 30
4729.320
 70
    32
  0
VERTEX
  8
T05SSILL
 62
13
 10
1059.774
 20
-1825.415
 30
4729.320
 70
    32
  0
VERTEX
  8
T05SSILL
 62
13
 10
1004.541
 20
-1717.100
 30
4729.320
 70
    32
  0
VERTEX
  8
T05SSILL
 62
13
 10
1014.706
 20
-1698.298
 30
4729.320
 70
    32
  0
VERTEX
  8
T05SSILL
 62
13
 10
1027.017
 20
-1689.448
 30
4729.320
 70
    32
  0
VERTEX
  8
T05SSILL
 62
13
 10
1032.041
 20
-1689.961
 30
4729.320
 70
    32
  0
VERTEX
  8
T05SSILL
 62
13
 10
1039.995
 20
-1697.164
 30
4729.320
 70
    32
  0
VERTEX
  8
T05SSILL
 62
13
 10
1046.525
 20
-1700.052
 30
4729.320
 70
    32
  0
VERTEX
  8
T05SSILL
 62
13
 10
1051.717
 20
-1697.656
 30
4729.320
 70
    32
  0
VERTEX
  8
T05SSILL
 62
13
 10
1053.996
 20
-1693.419
 30
4729.320
 70
    32
  0
VERTEX
  8
T05SSILL
 62
13
 10
1060.791
 20
-1696.747
 30
4729.320
 70
    32
  0
VERTEX
  8
T05SSILL
 62
13
 10
1063.025
 20
-1706.611
 30
4729.320
 70
    32
  0
VERTEX
  8
T05SSILL
 62
13
 10
1065.864
 20
-1712.947
 30
4729.320
 70
    32
  0
VERTEX
  8
T05SSILL
 62
13
 10
1062.754
 20
-1762.219
 30
4729.320
 70
    32
  0
VERTEX
  8
T05SSILL
 62
13
 10
1074.126
 20
-1763.507
 30
4729.320
 70
    32
  0
VERTEX
  8
T05SSILL
 62
13
 10
1098.075
 20
-1756.295
 30
4729.320
 70
    32
  0
VERTEX
  8
T05SSILL
 62
13
 10
1121.122
 20
-1742.565
 30
4729.320
 70
    32
  0
VERTEX
  8
T05SSILL
 62
13
 10
1143.891
 20
-1724.430
 30
4729.320
 70
    32
  0
VERTEX
  8
T05SSILL
 62
13
 10
1152.853
 20
-1715.590
 30
4729.320
 70
    32
  0
VERTEX
  8
T05SSILL
 62
13
 10
1156.255
 20
-1704.211
 30
4729.320
 70
    32
  0
VERTEX
  8
T05SSILL
 62
13
 10
1152.526
 20
-1694.969
 30
4729.320
 70
    32
  0
VERTEX
  8
T05SSILL
 62
13
 10
1136.704
 20
-1679.507
 30
4729.320
 70
    32
  0
VERTEX
  8
T05SSILL
 62
13
 10
1135.705
 20
-1669.816
 30
4729.320
 70
    32
  0
VERTEX
  8
T05SSILL
 62
13
 10
1140.266
 20
-1662.840
 30
4729.320
 70
    32
  0
VERTEX
  8
T05SSILL
 62
13
 10
1156.483
 20
-1663.496
 30
4729.320
 70
    32
  0
VERTEX
  8
T05SSILL
 62
13
 10
1158.330
 20
-1633.351
 30
4729.320
 70
    32
  0
VERTEX
  8
T05SSILL
 62
13
 10
1140.349
 20
-1632.172
 30
4729.320
 70
    32
  0
VERTEX
  8
T05SSILL
 62
13
 10
1141.124
 20
-1626.442
 30
4729.320
 70
    32
  0
VERTEX
  8
T05SSILL
 62
13
 10
1135.395
 20
-1626.195
 30
4729.320
 70
    32
  0
VERTEX
  8
T05SSILL
 62
13
 10
1134.532
 20
-1632.102
 30
4729.320
 70
    32
  0
VERTEX
  8
T05SSILL
 62
13
 10
1098.657
 20
-1629.744
 30
4729.320
 70
    32
  0
VERTEX
  8
T05SSILL
 62
13
 10
1100.908
 20
-1587.524
 30
4729.320
 70
    32
  0
VERTEX
  8
T05SSILL
 62
13
 10
1095.952
 20
-1580.666
 30
4729.320
 70
    32
  0
VERTEX
  8
T05SSILL
 62
13
 10
1091.769
 20
-1567.459
 30
4729.320
 70
    32
  0
VERTEX
  8
T05SSILL
 62
13
 10
1317.570
 20
-1458.815
 30
4729.320
 70
    32
  0
VERTEX
  8
T05SSILL
 62
13
 10
1464.121
 20
-1755.879
 30
4729.320
 70
    32
  0
VERTEX
  8
T05SSILL
 62
13
 10
1688.196
 20
-2218.524
 30
4729.320
 70
    32
  0
VERTEX
  8
T05SSILL
 62
13
 10
1813.843
 20
-2481.905
 30
4729.320
 70
    32
  0
VERTEX
  8
T05SSILL
 62
13
 10
1815.776
 20
-2610.660
 30
4729.320
 70
    32
  0
VERTEX
  8
T05SSILL
 62
13
 10
1808.865
 20
-2625.411
 30
4729.320
 70
    32
  0
VERTEX
  8
T05SSILL
 62
13
 10
1812.496
 20
-2643.715
 30
4729.320
 70
    32
  0
VERTEX
  8
T05SSILL
 62
13
 10
1812.620
 20
-2684.521
 30
4729.320
 70
    32
  0
VERTEX
  8
T05SSILL
 62
13
 10
1816.796
 20
-2697.903
 30
4729.320
 70
    32
  0
VERTEX
  8
T05SSILL
 62
13
 10
1809.225
 20
-2699.988
 30
4729.320
 70
    32
  0
VERTEX
  8
T05SSILL
 62
13
 10
1801.221
 20
-2700.400
 30
4729.320
 70
    32
  0
VERTEX
  8
T05SSILL
 62
13
 10
1330.428
 20
-2402.681
 30
4729.320
 70
    32
  0
VERTEX
  8
T05SSILL
 62
13
 10
980.844
 20
-1921.329
 30
4729.320
 70
    32
  0
SEQEND
  8
T05SSILL
  0
POLYLINE
  8
T05SSILL
 62
13
 66
     1
 70
     9
  0
VERTEX
  8
T05SSILL
 62
13
 10
876.098
 20
-1876.120
 30
4729.320
 70
    32
  0
VERTEX
  8
T05SSILL
 62
13
 10
876.778
 20
-1868.187
 30
4729.320
 70
    32
  0
VERTEX
  8
T05SSILL
 62
13
 10
916.219
 20
-1826.118
 30
4729.320
 70
    32
  0
VERTEX
  8
T05SSILL
 62
13
 10
926.867
 20
-1849.968
 30
4729.320
 70
    32
  0
VERTEX
  8
T05SSILL
 62
13
 10
923.435
 20
-1851.741
 30
4729.320
 70
    32
  0
VERTEX
  8
T05SSILL
 62
13
 10
947.906
 20
-1900.312
 30
4729.320
 70
    32
  0
VERTEX
  8
T05SSILL
 62
13
 10
937.613
 20
-1906.072
 30
4729.320
 70
    32
  0
VERTEX
  8
T05SSILL
 62
13
 10
950.735
 20
-1931.941
 30
4729.320
 70
    32
  0
VERTEX
  8
T05SSILL
 62
13
 10
967.457
 20
-1924.575
 30
4729.320
 70
    32
  0
VERTEX
  8
T05SSILL
 62
13
 10
967.419
 20
-1929.313
 30
4729.320
 70
    32
  0
VERTEX
  8
T05SSILL
 62
13
 10
950.168
 20
-1950.310
 30
4729.320
 70
    32
  0
VERTEX
  8
T05SSILL
 62
13
 10
943.733
 20
-1949.981
 30
4729.320
 70
    32
  0
VERTEX
  8
T05SSILL
 62
13
 10
925.060
 20
-1944.844
 30
4729.320
 70
    32
  0
VERTEX
  8
T05SSILL
 62
13
 10
908.085
 20
-1930.959
 30
4729.320
 70
    32
  0
VERTEX
  8
T05SSILL
 62
13
 10
908.188
 20
-1926.730
 30
4729.320
 70
    32
  0
VERTEX
  8
T05SSILL
 62
13
 10
918.663
 20
-1916.243
 30
4729.320
 70
    32
  0
VERTEX
  8
T05SSILL
 62
13
 10
915.590
 20
-1911.716
 30
4729.320
 70
    32
  0
VERTEX
  8
T05SSILL
 62
13
 10
903.195
 20
-1923.205
 30
4729.320
 70
    32
  0
VERTEX
  8
T05SSILL
 62
13
 10
899.157
 20
-1923.980
 30
4729.320
 70
    32
  0
VERTEX
  8
T05SSILL
 62
13
 10
888.996
 20
-1896.765
 30
4729.320
 70
    32
  0
SEQEND
  8
T05SSILL
  0
POLYLINE
  8
T05SSILL
 62
13
 66
     1
 70
     9
  0
VERTEX
  8
T05SSILL
 62
13
 10
1765.541
 20
420.523
 30
4729.320
 70
    32
  0
VERTEX
  8
T05SSILL
 62
13
 10
1741.311
 20
370.676
 30
4729.320
 70
    32
  0
VERTEX
  8
T05SSILL
 62
13
 10
1316.443
 20
55.546
 30
4729.320
 70
    32
  0
VERTEX
  8
T05SSILL
 62
13
 10
1255.813
 20
8.383
 30
4729.320
 70
    32
  0
VERTEX
  8
T05SSILL
 62
13
 10
1259.884
 20
62.913
 30
4729.320
 70
    32
  0
VERTEX
  8
T05SSILL
 62
13
 10
1252.726
 20
63.423
 30
4729.320
 70
    32
  0
VERTEX
  8
T05SSILL
 62
13
 10
1247.273
 20
1.359
 30
4729.320
 70
    32
  0
VERTEX
  8
T05SSILL
 62
13
 10
1217.188
 20
11.387
 30
4729.320
 70
    32
  0
VERTEX
  8
T05SSILL
 62
13
 10
1216.830
 20
18.081
 30
4729.320
 70
    32
  0
VERTEX
  8
T05SSILL
 62
13
 10
1213.108
 20
21.948
 30
4729.320
 70
    32
  0
VERTEX
  8
T05SSILL
 62
13
 10
1194.156
 20
15.082
 30
4729.320
 70
    32
  0
VERTEX
  8
T05SSILL
 62
13
 10
1187.166
 20
32.090
 30
4729.320
 70
    32
  0
VERTEX
  8
T05SSILL
 62
13
 10
1188.110
 20
39.524
 30
4729.320
 70
    32
  0
VERTEX
  8
T05SSILL
 62
13
 10
1191.512
 20
47.378
 30
4729.320
 70
    32
  0
VERTEX
  8
T05SSILL
 62
13
 10
1189.663
 20
60.205
 30
4729.320
 70
    32
  0
VERTEX
  8
T05SSILL
 62
13
 10
1192.609
 20
71.839
 30
4729.320
 70
    32
  0
VERTEX
  8
T05SSILL
 62
13
 10
1206.058
 20
83.231
 30
4729.320
 70
    32
  0
VERTEX
  8
T05SSILL
 62
13
 10
1220.134
 20
91.023
 30
4729.320
 70
    32
  0
VERTEX
  8
T05SSILL
 62
13
 10
1212.802
 20
126.053
 30
4729.320
 70
    32
  0
VERTEX
  8
T05SSILL
 62
13
 10
1212.012
 20
140.884
 30
4729.320
 70
    32
  0
VERTEX
  8
T05SSILL
 62
13
 10
1197.344
 20
145.719
 30
4729.320
 70
    32
  0
VERTEX
  8
T05SSILL
 62
13
 10
1178.405
 20
148.721
 30
4729.320
 70
    32
  0
VERTEX
  8
T05SSILL
 62
13
 10
1146.818
 20
146.667
 30
4729.320
 70
    32
  0
VERTEX
  8
T05SSILL
 62
13
 10
1141.738
 20
155.712
 30
4729.320
 70
    32
  0
VERTEX
  8
T05SSILL
 62
13
 10
1147.150
 20
182.425
 30
4729.320
 70
    32
  0
VERTEX
  8
T05SSILL
 62
13
 10
1156.697
 20
198.845
 30
4729.320
 70
    32
  0
VERTEX
  8
T05SSILL
 62
13
 10
1167.555
 20
205.714
 30
4729.320
 70
    32
  0
VERTEX
  8
T05SSILL
 62
13
 10
1182.162
 20
209.223
 30
4729.320
 70
    32
  0
VERTEX
  8
T05SSILL
 62
13
 10
1218.031
 20
202.657
 30
4729.320
 70
    32
  0
VERTEX
  8
T05SSILL
 62
13
 10
1222.761
 20
233.134
 30
4729.320
 70
    32
  0
VERTEX
  8
T05SSILL
 62
13
 10
1215.531
 20
239.594
 30
4729.320
 70
    32
  0
VERTEX
  8
T05SSILL
 62
13
 10
1196.630
 20
250.327
 30
4729.320
 70
    32
  0
VERTEX
  8
T05SSILL
 62
13
 10
1180.554
 20
265.238
 30
4729.320
 70
    32
  0
VERTEX
  8
T05SSILL
 62
13
 10
1174.832
 20
280.773
 30
4729.320
 70
    32
  0
VERTEX
  8
T05SSILL
 62
13
 10
1155.443
 20
304.146
 30
4729.320
 70
    32
  0
VERTEX
  8
T05SSILL
 62
13
 10
1147.969
 20
329.312
 30
4729.320
 70
    32
  0
VERTEX
  8
T05SSILL
 62
13
 10
1131.280
 20
344.125
 30
4729.320
 70
    32
  0
VERTEX
  8
T05SSILL
 62
13
 10
1115.937
 20
332.521
 30
4729.320
 70
    32
  0
VERTEX
  8
T05SSILL
 62
13
 10
1088.819
 20
326.154
 30
4729.320
 70
    32
  0
VERTEX
  8
T05SSILL
 62
13
 10
1080.491
 20
325.216
 30
4729.320
 70
    32
  0
VERTEX
  8
T05SSILL
 62
13
 10
1067.065
 20
344.215
 30
4729.320
 70
    32
  0
VERTEX
  8
T05SSILL
 62
13
 10
1067.688
 20
348.706
 30
4729.320
 70
    32
  0
VERTEX
  8
T05SSILL
 62
13
 10
1104.202
 20
360.247
 30
4729.320
 70
    32
  0
VERTEX
  8
T05SSILL
 62
13
 10
1103.810
 20
367.443
 30
4729.320
 70
    32
  0
VERTEX
  8
T05SSILL
 62
13
 10
1244.981
 20
396.740
 30
4729.320
 70
    32
  0
VERTEX
  8
T05SSILL
 62
13
 10
1252.653
 20
380.186
 30
4729.320
 70
    32
  0
VERTEX
  8
T05SSILL
 62
13
 10
1266.525
 20
380.608
 30
4729.320
 70
    32
  0
VERTEX
  8
T05SSILL
 62
13
 10
1270.430
 20
383.312
 30
4729.320
 70
    32
  0
VERTEX
  8
T05SSILL
 62
13
 10
1270.499
 20
399.213
 30
4729.320
 70
    32
  0
VERTEX
  8
T05SSILL
 62
13
 10
1273.603
 20
402.518
 30
4729.320
 70
    32
  0
VERTEX
  8
T05SSILL
 62
13
 10
1284.955
 20
406.321
 30
4729.320
 70
    32
  0
VERTEX
  8
T05SSILL
 62
13
 10
1284.231
 20
412.457
 30
4729.320
 70
    32
  0
VERTEX
  8
T05SSILL
 62
13
 10
1275.916
 20
410.729
 30
4729.320
 70
    32
  0
VERTEX
  8
T05SSILL
 62
13
 10
1267.638
 20
411.899
 30
4729.320
 70
    32
  0
VERTEX
  8
T05SSILL
 62
13
 10
1261.659
 20
422.159
 30
4729.320
 70
    32
  0
VERTEX
  8
T05SSILL
 62
13
 10
1260.270
 20
441.020
 30
4729.320
 70
    32
  0
VERTEX
  8
T05SSILL
 62
13
 10
1261.039
 20
457.109
 30
4729.320
 70
    32
  0
VERTEX
  8
T05SSILL
 62
13
 10
1253.772
 20
470.596
 30
4729.320
 70
    32
  0
VERTEX
  8
T05SSILL
 62
13
 10
1238.897
 20
462.338
 30
4729.320
 70
    32
  0
VERTEX
  8
T05SSILL
 62
13
 10
1231.424
 20
462.733
 30
4729.320
 70
    32
  0
VERTEX
  8
T05SSILL
 62
13
 10
1230.391
 20
456.565
 30
4729.320
 70
    32
  0
VERTEX
  8
T05SSILL
 62
13
 10
1227.545
 20
453.616
 30
4729.320
 70
    32
  0
VERTEX
  8
T05SSILL
 62
13
 10
1198.167
 20
445.892
 30
4729.320
 70
    32
  0
VERTEX
  8
T05SSILL
 62
13
 10
1158.409
 20
518.183
 30
4729.320
 70
    32
  0
VERTEX
  8
T05SSILL
 62
13
 10
1152.152
 20
514.383
 30
4729.320
 70
    32
  0
VERTEX
  8
T05SSILL
 62
13
 10
1192.579
 20
443.948
 30
4729.320
 70
    32
  0
VERTEX
  8
T05SSILL
 62
13
 10
1163.769
 20
438.869
 30
4729.320
 70
    32
  0
VERTEX
  8
T05SSILL
 62
13
 10
1141.168
 20
440.312
 30
4729.320
 70
    32
  0
VERTEX
  8
T05SSILL
 62
13
 10
1107.905
 20
423.823
 30
4729.320
 70
    32
  0
VERTEX
  8
T05SSILL
 62
13
 10
1092.319
 20
420.999
 30
4729.320
 70
    32
  0
VERTEX
  8
T05SSILL
 62
13
 10
1082.070
 20
414.404
 30
4729.320
 70
    32
  0
VERTEX
  8
T05SSILL
 62
13
 10
1052.053
 20
408.074
 30
4729.320
 70
    32
  0
VERTEX
  8
T05SSILL
 62
13
 10
1062.155
 20
437.768
 30
4729.320
 70
    32
  0
VERTEX
  8
T05SSILL
 62
13
 10
1054.678
 20
438.338
 30
4729.320
 70
    32
  0
VERTEX
  8
T05SSILL
 62
13
 10
1032.548
 20
373.645
 30
4729.320
 70
    32
  0
VERTEX
  8
T05SSILL
 62
13
 10
1027.517
 20
370.042
 30
4729.320
 70
    32
  0
VERTEX
  8
T05SSILL
 62
13
 10
1021.076
 20
351.832
 30
4729.320
 70
    32
  0
VERTEX
  8
T05SSILL
 62
13
 10
1011.824
 20
338.579
 30
4729.320
 70
    32
  0
VERTEX
  8
T05SSILL
 62
13
 10
1009.458
 20
328.348
 30
4729.320
 70
    32
  0
VERTEX
  8
T05SSILL
 62
13
 10
1009.451
 20
318.861
 30
4729.320
 70
    32
  0
VERTEX
  8
T05SSILL
 62
13
 10
1003.740
 20
304.090
 30
4729.320
 70
    32
  0
VERTEX
  8
T05SSILL
 62
13
 10
351.053
 20
493.141
 30
4729.320
 70
    32
  0
VERTEX
  8
T05SSILL
 62
13
 10
351.446
 20
485.857
 30
4729.320
 70
    32
  0
VERTEX
  8
T05SSILL
 62
13
 10
996.973
 20
299.314
 30
4729.320
 70
    32
  0
VERTEX
  8
T05SSILL
 62
13
 10
994.342
 20
294.084
 30
4729.320
 70
    32
  0
VERTEX
  8
T05SSILL
 62
13
 10
983.823
 20
287.924
 30
4729.320
 70
    32
  0
VERTEX
  8
T05SSILL
 62
13
 10
982.425
 20
272.615
 30
4729.320
 70
    32
  0
VERTEX
  8
T05SSILL
 62
13
 10
984.632
 20
262.113
 30
4729.320
 70
    32
  0
VERTEX
  8
T05SSILL
 62
13
 10
984.386
 20
246.297
 30
4729.320
 70
    32
  0
VERTEX
  8
T05SSILL
 62
13
 10
986.527
 20
239.483
 30
4729.320
 70
    32
  0
VERTEX
  8
T05SSILL
 62
13
 10
950.957
 20
135.198
 30
4729.320
 70
    32
  0
VERTEX
  8
T05SSILL
 62
13
 10
945.891
 20
88.991
 30
4729.320
 70
    32
  0
VERTEX
  8
T05SSILL
 62
13
 10
933.076
 20
9.025
 30
4729.320
 70
    32
  0
VERTEX
  8
T05SSILL
 62
13
 10
927.707
 20
5.350
 30
4729.320
 70
    32
  0
VERTEX
  8
T05SSILL
 62
13
 10
877.013
 20
-56.889
 30
4729.320
 70
    32
  0
VERTEX
  8
T05SSILL
 62
13
 10
862.402
 20
-45.027
 30
4729.320
 70
    32
  0
VERTEX
  8
T05SSILL
 62
13
 10
857.427
 20
-50.190
 30
4729.320
 70
    32
  0
VERTEX
  8
T05SSILL
 62
13
 10
872.501
 20
-62.833
 30
4729.320
 70
    32
  0
VERTEX
  8
T05SSILL
 62
13
 10
853.210
 20
-86.378
 30
4729.320
 70
    32
  0
VERTEX
  8
T05SSILL
 62
13
 10
795.157
 20
-231.372
 30
4729.320
 70
    32
  0
VERTEX
  8
T05SSILL
 62
13
 10
167.562
 20
-677.567
 30
4729.320
 70
    32
  0
VERTEX
  8
T05SSILL
 62
13
 10
160.331
 20
-676.473
 30
4729.320
 70
    32
  0
VERTEX
  8
T05SSILL
 62
13
 10
0.764
 20
-449.735
 30
4729.320
 70
    32
  0
VERTEX
  8
T05SSILL
 62
13
 10
-10.099
 20
-430.568
 30
4729.320
 70
    32
  0
VERTEX
  8
T05SSILL
 62
13
 10
-65.377
 20
-349.812
 30
4729.320
 70
    32
  0
VERTEX
  8
T05SSILL
 62
13
 10
3.715
 20
-305.398
 30
4729.320
 70
    32
  0
VERTEX
  8
T05SSILL
 62
13
 10
7.500
 20
-306.001
 30
4729.320
 70
    32
  0
VERTEX
  8
T05SSILL
 62
13
 10
15.304
 20
-298.230
 30
4729.320
 70
    32
  0
VERTEX
  8
T05SSILL
 62
13
 10
19.710
 20
-300.239
 30
4729.320
 70
    32
  0
VERTEX
  8
T05SSILL
 62
13
 10
23.987
 20
-315.270
 30
4729.320
 70
    32
  0
VERTEX
  8
T05SSILL
 62
13
 10
29.786
 20
-312.962
 30
4729.320
 70
    32
  0
VERTEX
  8
T05SSILL
 62
13
 10
23.910
 20
-293.361
 30
4729.320
 70
    32
  0
VERTEX
  8
T05SSILL
 62
13
 10
20.013
 20
-286.071
 30
4729.320
 70
    32
  0
VERTEX
  8
T05SSILL
 62
13
 10
-67.780
 20
-342.078
 30
4729.320
 70
    32
  0
VERTEX
  8
T05SSILL
 62
13
 10
-71.302
 20
-341.298
 30
4729.320
 70
    32
  0
VERTEX
  8
T05SSILL
 62
13
 10
-689.478
 20
447.815
 30
4729.320
 70
    32
  0
VERTEX
  8
T05SSILL
 62
13
 10
-688.575
 20
454.690
 30
4729.320
 70
    32
  0
VERTEX
  8
T05SSILL
 62
13
 10
-501.743
 20
655.296
 30
4729.320
 70
    32
  0
VERTEX
  8
T05SSILL
 62
13
 10
-494.085
 20
661.442
 30
4729.320
 70
    32
  0
VERTEX
  8
T05SSILL
 62
13
 10
-472.263
 20
673.550
 30
4729.320
 70
    32
  0
VERTEX
  8
T05SSILL
 62
13
 10
-467.331
 20
679.787
 30
4729.320
 70
    32
  0
VERTEX
  8
T05SSILL
 62
13
 10
-465.381
 20
691.656
 30
4729.320
 70
    32
  0
VERTEX
  8
T05SSILL
 62
13
 10
-442.844
 20
712.557
 30
4729.320
 70
    32
  0
VERTEX
  8
T05SSILL
 62
13
 10
-437.832
 20
712.727
 30
4729.320
 70
    32
  0
VERTEX
  8
T05SSILL
 62
13
 10
-325.316
 20
678.645
 30
4729.320
 70
    32
  0
VERTEX
  8
T05SSILL
 62
13
 10
-323.199
 20
684.534
 30
4729.320
 70
    32
  0
VERTEX
  8
T05SSILL
 62
13
 10
-440.901
 20
719.941
 30
4729.320
 70
    32
  0
VERTEX
  8
T05SSILL
 62
13
 10
-445.034
 20
719.331
 30
4729.320
 70
    32
  0
VERTEX
  8
T05SSILL
 62
13
 10
-471.798
 20
693.687
 30
4729.320
 70
    32
  0
VERTEX
  8
T05SSILL
 62
13
 10
-479.184
 20
694.311
 30
4729.320
 70
    32
  0
VERTEX
  8
T05SSILL
 62
13
 10
-486.577
 20
688.693
 30
4729.320
 70
    32
  0
VERTEX
  8
T05SSILL
 62
13
 10
-500.933
 20
670.859
 30
4729.320
 70
    32
  0
VERTEX
  8
T05SSILL
 62
13
 10
-528.406
 20
640.731
 30
4729.320
 70
    32
  0
VERTEX
  8
T05SSILL
 62
13
 10
-747.920
 20
404.016
 30
4729.320
 70
    32
  0
VERTEX
  8
T05SSILL
 62
13
 10
-751.700
 20
404.724
 30
4729.320
 70
    32
  0
VERTEX
  8
T05SSILL
 62
13
 10
-775.388
 20
449.425
 30
4729.320
 70
    32
  0
VERTEX
  8
T05SSILL
 62
13
 10
-780.381
 20
464.907
 30
4729.320
 70
    32
  0
VERTEX
  8
T05SSILL
 62
13
 10
-790.867
 20
518.912
 30
4729.320
 70
    32
  0
VERTEX
  8
T05SSILL
 62
13
 10
-802.528
 20
546.626
 30
4729.320
 70
    32
  0
VERTEX
  8
T05SSILL
 62
13
 10
-830.362
 20
580.340
 30
4729.320
 70
    32
  0
VERTEX
  8
T05SSILL
 62
13
 10
-833.694
 20
587.818
 30
4729.320
 70
    32
  0
VERTEX
  8
T05SSILL
 62
13
 10
-836.493
 20
600.045
 30
4729.320
 70
    32
  0
VERTEX
  8
T05SSILL
 62
13
 10
-845.081
 20
624.150
 30
4729.320
 70
    32
  0
VERTEX
  8
T05SSILL
 62
13
 10
-907.106
 20
741.971
 30
4729.320
 70
    32
  0
VERTEX
  8
T05SSILL
 62
13
 10
-927.378
 20
775.764
 30
4729.320
 70
    32
  0
VERTEX
  8
T05SSILL
 62
13
 10
-937.040
 20
784.569
 30
4729.320
 70
    32
  0
VERTEX
  8
T05SSILL
 62
13
 10
-949.788
 20
786.343
 30
4729.320
 70
    32
  0
VERTEX
  8
T05SSILL
 62
13
 10
-956.644
 20
788.550
 30
4729.320
 70
    32
  0
VERTEX
  8
T05SSILL
 62
13
 10
-977.340
 20
834.566
 30
4729.320
 70
    32
  0
VERTEX
  8
T05SSILL
 62
13
 10
-976.191
 20
839.313
 30
4729.320
 70
    32
  0
VERTEX
  8
T05SSILL
 62
13
 10
-972.407
 20
841.683
 30
4729.320
 70
    32
  0
VERTEX
  8
T05SSILL
 62
13
 10
-971.963
 20
845.727
 30
4729.320
 70
    32
  0
VERTEX
  8
T05SSILL
 62
13
 10
-987.226
 20
875.996
 30
4729.320
 70
    32
  0
VERTEX
  8
T05SSILL
 62
13
 10
-983.520
 20
886.367
 30
4729.320
 70
    32
  0
VERTEX
  8
T05SSILL
 62
13
 10
-952.104
 20
904.883
 30
4729.320
 70
    32
  0
VERTEX
  8
T05SSILL
 62
13
 10
-956.055
 20
910.164
 30
4729.320
 70
    32
  0
VERTEX
  8
T05SSILL
 62
13
 10
-1000.761
 20
881.904
 30
4729.320
 70
    32
  0
VERTEX
  8
T05SSILL
 62
13
 10
-1006.297
 20
885.340
 30
4729.320
 70
    32
  0
VERTEX
  8
T05SSILL
 62
13
 10
-1030.864
 20
929.250
 30
4729.320
 70
    32
  0
VERTEX
  8
T05SSILL
 62
13
 10
-1037.901
 20
927.588
 30
4729.320
 70
    32
  0
VERTEX
  8
T05SSILL
 62
13
 10
-971.575
 20
803.869
 30
4729.320
 70
    32
  0
VERTEX
  8
T05SSILL
 62
13
 10
-931.660
 20
725.822
 30
4729.320
 70
    32
  0
VERTEX
  8
T05SSILL
 62
13
 10
-922.014
 20
703.738
 30
4729.320
 70
    32
  0
VERTEX
  8
T05SSILL
 62
13
 10
-909.659
 20
668.197
 30
4729.320
 70
    32
  0
VERTEX
  8
T05SSILL
 62
13
 10
-863.677
 20
590.406
 30
4729.320
 70
    32
  0
VERTEX
  8
T05SSILL
 62
13
 10
-831.127
 20
530.218
 30
4729.320
 70
    32
  0
VERTEX
  8
T05SSILL
 62
13
 10
-758.300
 20
400.863
 30
4729.320
 70
    32
  0
VERTEX
  8
T05SSILL
 62
13
 10
-759.801
 20
395.853
 30
4729.320
 70
    32
  0
VERTEX
  8
T05SSILL
 62
13
 10
-766.049
 20
392.079
 30
4729.320
 70
    32
  0
VERTEX
  8
T05SSILL
 62
13
 10
-770.799
 20
390.942
 30
4729.320
 70
    32
  0
VERTEX
  8
T05SSILL
 62
13
 10
-866.895
 20
333.287
 30
4729.320
 70
    32
  0
VERTEX
  8
T05SSILL
 62
13
 10
-1109.388
 20
145.843
 30
4729.320
 70
    32
  0
VERTEX
  8
T05SSILL
 62
13
 10
-1105.571
 20
141.267
 30
4729.320
 70
    32
  0
VERTEX
  8
T05SSILL
 62
13
 10
-869.194
 20
323.177
 30
4729.320
 70
    32
  0
VERTEX
  8
T05SSILL
 62
13
 10
-794.657
 20
368.372
 30
4729.320
 70
    32
  0
VERTEX
  8
T05SSILL
 62
13
 10
-787.090
 20
372.583
 30
4729.320
 70
    32
  0
VERTEX
  8
T05SSILL
 62
13
 10
-785.091
 20
371.756
 30
4729.320
 70
    32
  0
VERTEX
  8
T05SSILL
 62
13
 10
-772.275
 20
347.656
 30
4729.320
 70
    32
  0
VERTEX
  8
T05SSILL
 62
13
 10
-771.540
 20
338.860
 30
4729.320
 70
    32
  0
VERTEX
  8
T05SSILL
 62
13
 10
-761.198
 20
325.434
 30
4729.320
 70
    32
  0
VERTEX
  8
T05SSILL
 62
13
 10
-703.261
 20
213.891
 30
4729.320
 70
    32
  0
VERTEX
  8
T05SSILL
 62
13
 10
-695.575
 20
205.383
 30
4729.320
 70
    32
  0
VERTEX
  8
T05SSILL
 62
13
 10
-696.788
 20
199.835
 30
4729.320
 70
    32
  0
VERTEX
  8
T05SSILL
 62
13
 10
-693.689
 20
194.303
 30
4729.320
 70
    32
  0
VERTEX
  8
T05SSILL
 62
13
 10
-720.332
 20
89.414
 30
4729.320
 70
    32
  0
VERTEX
  8
T05SSILL
 62
13
 10
-537.234
 20
-358.424
 30
4729.320
 70
    32
  0
VERTEX
  8
T05SSILL
 62
13
 10
-471.153
 20
-383.708
 30
4729.320
 70
    32
  0
VERTEX
  8
T05SSILL
 62
13
 10
-488.328
 20
-403.830
 30
4729.320
 70
    32
  0
VERTEX
  8
T05SSILL
 62
13
 10
-661.827
 20
-383.324
 30
4729.320
 70
    32
  0
VERTEX
  8
T05SSILL
 62
13
 10
-689.916
 20
-377.615
 30
4729.320
 70
    32
  0
VERTEX
  8
T05SSILL
 62
13
 10
-693.974
 20
-399.627
 30
4729.320
 70
    32
  0
VERTEX
  8
T05SSILL
 62
13
 10
-657.998
 20
-396.245
 30
4729.320
 70
    32
  0
VERTEX
  8
T05SSILL
 62
13
 10
-452.110
 20
-419.277
 30
4729.320
 70
    32
  0
VERTEX
  8
T05SSILL
 62
13
 10
-443.910
 20
-424.000
 30
4729.320
 70
    32
  0
VERTEX
  8
T05SSILL
 62
13
 10
-424.232
 20
-461.462
 30
4729.320
 70
    32
  0
VERTEX
  8
T05SSILL
 62
13
 10
-252.163
 20
-772.814
 30
4729.320
 70
    32
  0
VERTEX
  8
T05SSILL
 62
13
 10
-172.281
 20
-914.626
 30
4729.320
 70
    32
  0
VERTEX
  8
T05SSILL
 62
13
 10
-172.576
 20
-917.621
 30
4729.320
 70
    32
  0
VERTEX
  8
T05SSILL
 62
13
 10
-175.825
 20
-922.518
 30
4729.320
 70
    32
  0
VERTEX
  8
T05SSILL
 62
13
 10
-220.153
 20
-954.395
 30
4729.320
 70
    32
  0
VERTEX
  8
T05SSILL
 62
13
 10
-224.562
 20
-953.775
 30
4729.320
 70
    32
  0
VERTEX
  8
T05SSILL
 62
13
 10
-227.963
 20
-950.586
 30
4729.320
 70
    32
  0
VERTEX
  8
T05SSILL
 62
13
 10
-240.260
 20
-923.385
 30
4729.320
 70
    32
  0
VERTEX
  8
T05SSILL
 62
13
 10
-246.634
 20
-925.704
 30
4729.320
 70
    32
  0
VERTEX
  8
T05SSILL
 62
13
 10
-232.409
 20
-957.264
 30
4729.320
 70
    32
  0
VERTEX
  8
T05SSILL
 62
13
 10
-233.364
 20
-962.558
 30
4729.320
 70
    32
  0
VERTEX
  8
T05SSILL
 62
13
 10
-236.900
 20
-966.230
 30
4729.320
 70
    32
  0
VERTEX
  8
T05SSILL
 62
13
 10
-573.743
 20
-1207.424
 30
4729.320
 70
    32
  0
VERTEX
  8
T05SSILL
 62
13
 10
-568.972
 20
-1213.580
 30
4729.320
 70
    32
  0
VERTEX
  8
T05SSILL
 62
13
 10
-226.057
 20
-967.696
 30
4729.320
 70
    32
  0
VERTEX
  8
T05SSILL
 62
13
 10
-223.063
 20
-972.563
 30
4729.320
 70
    32
  0
VERTEX
  8
T05SSILL
 62
13
 10
-219.262
 20
-982.954
 30
4729.320
 70
    32
  0
VERTEX
  8
T05SSILL
 62
13
 10
-206.379
 20
-999.329
 30
4729.320
 70
    32
  0
VERTEX
  8
T05SSILL
 62
13
 10
-192.393
 20
-1013.573
 30
4729.320
 70
    32
  0
VERTEX
  8
T05SSILL
 62
13
 10
-185.676
 20
-1024.701
 30
4729.320
 70
    32
  0
VERTEX
  8
T05SSILL
 62
13
 10
-170.891
 20
-1053.310
 30
4729.320
 70
    32
  0
VERTEX
  8
T05SSILL
 62
13
 10
-174.497
 20
-1055.612
 30
4729.320
 70
    32
  0
VERTEX
  8
T05SSILL
 62
13
 10
-171.207
 20
-1065.120
 30
4729.320
 70
    32
  0
VERTEX
  8
T05SSILL
 62
13
 10
-170.654
 20
-1073.138
 30
4729.320
 70
    32
  0
VERTEX
  8
T05SSILL
 62
13
 10
-165.512
 20
-1083.080
 30
4729.320
 70
    32
  0
VERTEX
  8
T05SSILL
 62
13
 10
-162.061
 20
-1087.652
 30
4729.320
 70
    32
  0
VERTEX
  8
T05SSILL
 62
13
 10
-144.524
 20
-1087.510
 30
4729.320
 70
    32
  0
VERTEX
  8
T05SSILL
 62
13
 10
-134.589
 20
-1080.077
 30
4729.320
 70
    32
  0
VERTEX
  8
T05SSILL
 62
13
 10
-136.362
 20
-1076.558
 30
4729.320
 70
    32
  0
VERTEX
  8
T05SSILL
 62
13
 10
-142.542
 20
-1072.964
 30
4729.320
 70
    32
  0
VERTEX
  8
T05SSILL
 62
13
 10
-149.705
 20
-1064.790
 30
4729.320
 70
    32
  0
VERTEX
  8
T05SSILL
 62
13
 10
-159.803
 20
-1047.900
 30
4729.320
 70
    32
  0
VERTEX
  8
T05SSILL
 62
13
 10
-166.678
 20
-1047.657
 30
4729.320
 70
    32
  0
VERTEX
  8
T05SSILL
 62
13
 10
-182.926
 20
-1011.987
 30
4729.320
 70
    32
  0
VERTEX
  8
T05SSILL
 62
13
 10
-189.794
 20
-1006.841
 30
4729.320
 70
    32
  0
VERTEX
  8
T05SSILL
 62
13
 10
-208.011
 20
-987.402
 30
4729.320
 70
    32
  0
VERTEX
  8
T05SSILL
 62
13
 10
-215.033
 20
-974.082
 30
4729.320
 70
    32
  0
VERTEX
  8
T05SSILL
 62
13
 10
-218.952
 20
-962.110
 30
4729.320
 70
    32
  0
VERTEX
  8
T05SSILL
 62
13
 10
-170.277
 20
-927.601
 30
4729.320
 70
    32
  0
VERTEX
  8
T05SSILL
 62
13
 10
-164.438
 20
-929.513
 30
4729.320
 70
    32
  0
VERTEX
  8
T05SSILL
 62
13
 10
-83.231
 20
-1073.487
 30
4729.320
 70
    32
  0
VERTEX
  8
T05SSILL
 62
13
 10
53.466
 20
-1308.632
 30
4729.320
 70
    32
  0
VERTEX
  8
T05SSILL
 62
13
 10
166.659
 20
-1465.415
 30
4729.320
 70
    32
  0
VERTEX
  8
T05SSILL
 62
13
 10
167.194
 20
-1467.617
 30
4729.320
 70
    32
  0
VERTEX
  8
T05SSILL
 62
13
 10
163.589
 20
-1470.007
 30
4729.320
 70
    32
  0
VERTEX
  8
T05SSILL
 62
13
 10
177.245
 20
-1497.813
 30
4729.320
 70
    32
  0
VERTEX
  8
T05SSILL
 62
13
 10
410.844
 20
-1778.223
 30
4729.320
 70
    32
  0
VERTEX
  8
T05SSILL
 62
13
 10
434.154
 20
-1764.052
 30
4729.320
 70
    32
  0
VERTEX
  8
T05SSILL
 62
13
 10
443.577
 20
-1762.084
 30
4729.320
 70
    32
  0
VERTEX
  8
T05SSILL
 62
13
 10
446.757
 20
-1764.454
 30
4729.320
 70
    32
  0
VERTEX
  8
T05SSILL
 62
13
 10
449.330
 20
-1769.998
 30
4729.320
 70
    32
  0
VERTEX
  8
T05SSILL
 62
13
 10
460.542
 20
-1776.749
 30
4729.320
 70
    32
  0
VERTEX
  8
T05SSILL
 62
13
 10
497.762
 20
-1815.499
 30
4729.320
 70
    32
  0
VERTEX
  8
T05SSILL
 62
13
 10
524.204
 20
-1845.558
 30
4729.320
 70
    32
  0
VERTEX
  8
T05SSILL
 62
13
 10
532.853
 20
-1849.938
 30
4729.320
 70
    32
  0
VERTEX
  8
T05SSILL
 62
13
 10
540.059
 20
-1843.130
 30
4729.320
 70
    32
  0
VERTEX
  8
T05SSILL
 62
13
 10
541.888
 20
-1835.986
 30
4729.320
 70
    32
  0
VERTEX
  8
T05SSILL
 62
13
 10
528.358
 20
-1820.870
 30
4729.320
 70
    32
  0
VERTEX
  8
T05SSILL
 62
13
 10
518.023
 20
-1812.794
 30
4729.320
 70
    32
  0
VERTEX
  8
T05SSILL
 62
13
 10
511.050
 20
-1809.202
 30
4729.320
 70
    32
  0
VERTEX
  8
T05SSILL
 62
13
 10
497.512
 20
-1791.530
 30
4729.320
 70
    32
  0
VERTEX
  8
T05SSILL
 62
13
 10
489.469
 20
-1783.799
 30
4729.320
 70
    32
  0
VERTEX
  8
T05SSILL
 62
13
 10
473.404
 20
-1775.036
 30
4729.320
 70
    32
  0
VERTEX
  8
T05SSILL
 62
13
 10
463.407
 20
-1762.640
 30
4729.320
 70
    32
  0
VERTEX
  8
T05SSILL
 62
13
 10
456.001
 20
-1761.253
 30
4729.320
 70
    32
  0
VERTEX
  8
T05SSILL
 62
13
 10
444.943
 20
-1747.451
 30
4729.320
 70
    32
  0
VERTEX
  8
T05SSILL
 62
13
 10
450.831
 20
-1742.322
 30
4729.320
 70
    32
  0
VERTEX
  8
T05SSILL
 62
13
 10
452.654
 20
-1733.239
 30
4729.320
 70
    32
  0
VERTEX
  8
T05SSILL
 62
13
 10
449.953
 20
-1714.300
 30
4729.320
 70
    32
  0
VERTEX
  8
T05SSILL
 62
13
 10
444.885
 20
-1699.687
 30
4729.320
 70
    32
  0
VERTEX
  8
T05SSILL
 62
13
 10
445.342
 20
-1676.420
 30
4729.320
 70
    32
  0
VERTEX
  8
T05SSILL
 62
13
 10
442.417
 20
-1670.612
 30
4729.320
 70
    32
  0
VERTEX
  8
T05SSILL
 62
13
 10
447.078
 20
-1667.602
 30
4729.320
 70
    32
  0
VERTEX
  8
T05SSILL
 62
13
 10
441.144
 20
-1658.014
 30
4729.320
 70
    32
  0
VERTEX
  8
T05SSILL
 62
13
 10
446.069
 20
-1654.739
 30
4729.320
 70
    32
  0
VERTEX
  8
T05SSILL
 62
13
 10
422.872
 20
-1619.471
 30
4729.320
 70
    32
  0
VERTEX
  8
T05SSILL
 62
13
 10
427.796
 20
-1615.754
 30
4729.320
 70
    32
  0
VERTEX
  8
T05SSILL
 62
13
 10
422.037
 20
-1605.461
 30
4729.320
 70
    32
  0
VERTEX
  8
T05SSILL
 62
13
 10
437.339
 20
-1595.280
 30
4729.320
 70
    32
  0
VERTEX
  8
T05SSILL
 62
13
 10
440.703
 20
-1600.117
 30
4729.320
 70
    32
  0
VERTEX
  8
T05SSILL
 62
13
 10
450.114
 20
-1594.095
 30
4729.320
 70
    32
  0
VERTEX
  8
T05SSILL
 62
13
 10
436.835
 20
-1574.395
 30
4729.320
 70
    32
  0
VERTEX
  8
T05SSILL
 62
13
 10
432.879
 20
-1577.404
 30
4729.320
 70
    32
  0
VERTEX
  8
T05SSILL
 62
13
 10
422.610
 20
-1562.277
 30
4729.320
 70
    32
  0
VERTEX
  8
T05SSILL
 62
13
 10
417.596
 20
-1565.553
 30
4729.320
 70
    32
  0
VERTEX
  8
T05SSILL
 62
13
 10
413.503
 20
-1552.699
 30
4729.320
 70
    32
  0
VERTEX
  8
T05SSILL
 62
13
 10
414.626
 20
-1545.205
 30
4729.320
 70
    32
  0
VERTEX
  8
T05SSILL
 62
13
 10
422.614
 20
-1534.958
 30
4729.320
 70
    32
  0
VERTEX
  8
T05SSILL
 62
13
 10
438.427
 20
-1518.518
 30
4729.320
 70
    32
  0
VERTEX
  8
T05SSILL
 62
13
 10
442.902
 20
-1512.072
 30
4729.320
 70
    32
  0
VERTEX
  8
T05SSILL
 62
13
 10
452.650
 20
-1472.297
 30
4729.320
 70
    32
  0
VERTEX
  8
T05SSILL
 62
13
 10
507.343
 20
-1432.561
 30
4729.320
 70
    32
  0
VERTEX
  8
T05SSILL
 62
13
 10
517.567
 20
-1432.706
 30
4729.320
 70
    32
  0
VERTEX
  8
T05SSILL
 62
13
 10
525.310
 20
-1428.717
 30
4729.320
 70
    32
  0
VERTEX
  8
T05SSILL
 62
13
 10
530.030
 20
-1416.100
 30
4729.320
 70
    32
  0
VERTEX
  8
T05SSILL
 62
13
 10
536.272
 20
-1411.146
 30
4729.320
 70
    32
  0
VERTEX
  8
T05SSILL
 62
13
 10
541.031
 20
-1411.219
 30
4729.320
 70
    32
  0
VERTEX
  8
T05SSILL
 62
13
 10
568.913
 20
-1451.232
 30
4729.320
 70
    32
  0
VERTEX
  8
T05SSILL
 62
13
 10
567.693
 20
-1455.818
 30
4729.320
 70
    32
  0
VERTEX
  8
T05SSILL
 62
13
 10
556.082
 20
-1462.992
 30
4729.320
 70
    32
  0
VERTEX
  8
T05SSILL
 62
13
 10
559.360
 20
-1468.622
 30
4729.320
 70
    32
  0
VERTEX
  8
T05SSILL
 62
13
 10
553.378
 20
-1471.901
 30
4729.320
 70
    32
  0
VERTEX
  8
T05SSILL
 62
13
 10
582.073
 20
-1518.432
 30
4729.320
 70
    32
  0
VERTEX
  8
T05SSILL
 62
13
 10
576.970
 20
-1521.356
 30
4729.320
 70
    32
  0
VERTEX
  8
T05SSILL
 62
13
 10
585.653
 20
-1536.487
 30
4729.320
 70
    32
  0
VERTEX
  8
T05SSILL
 62
13
 10
580.818
 20
-1540.379
 30
4729.320
 70
    32
  0
VERTEX
  8
T05SSILL
 62
13
 10
602.960
 20
-1576.532
 30
4729.320
 70
    32
  0
VERTEX
  8
T05SSILL
 62
13
 10
597.595
 20
-1579.985
 30
4729.320
 70
    32
  0
VERTEX
  8
T05SSILL
 62
13
 10
603.616
 20
-1589.220
 30
4729.320
 70
    32
  0
VERTEX
  8
T05SSILL
 62
13
 10
597.986
 20
-1592.586
 30
4729.320
 70
    32
  0
VERTEX
  8
T05SSILL
 62
13
 10
611.092
 20
-1613.256
 30
4729.320
 70
    32
  0
VERTEX
  8
T05SSILL
 62
13
 10
605.637
 20
-1616.357
 30
4729.320
 70
    32
  0
VERTEX
  8
T05SSILL
 62
13
 10
609.089
 20
-1621.369
 30
4729.320
 70
    32
  0
VERTEX
  8
T05SSILL
 62
13
 10
603.460
 20
-1624.823
 30
4729.320
 70
    32
  0
VERTEX
  8
T05SSILL
 62
13
 10
606.736
 20
-1630.013
 30
4729.320
 70
    32
  0
VERTEX
  8
T05SSILL
 62
13
 10
601.722
 20
-1633.025
 30
4729.320
 70
    32
  0
VERTEX
  8
T05SSILL
 62
13
 10
604.557
 20
-1637.863
 30
4729.320
 70
    32
  0
VERTEX
  8
T05SSILL
 62
13
 10
594.353
 20
-1643.887
 30
4729.320
 70
    32
  0
VERTEX
  8
T05SSILL
 62
13
 10
597.367
 20
-1649.606
 30
4729.320
 70
    32
  0
VERTEX
  8
T05SSILL
 62
13
 10
592.528
 20
-1652.352
 30
4729.320
 70
    32
  0
VERTEX
  8
T05SSILL
 62
13
 10
595.452
 20
-1657.367
 30
4729.320
 70
    32
  0
VERTEX
  8
T05SSILL
 62
13
 10
590.526
 20
-1660.290
 30
4729.320
 70
    32
  0
VERTEX
  8
T05SSILL
 62
13
 10
637.734
 20
-1738.049
 30
4729.320
 70
    32
  0
VERTEX
  8
T05SSILL
 62
13
 10
643.014
 20
-1735.566
 30
4729.320
 70
    32
  0
VERTEX
  8
T05SSILL
 62
13
 10
645.850
 20
-1740.492
 30
4729.320
 70
    32
  0
VERTEX
  8
T05SSILL
 62
13
 10
651.040
 20
-1737.568
 30
4729.320
 70
    32
  0
VERTEX
  8
T05SSILL
 62
13
 10
666.804
 20
-1762.900
 30
4729.320
 70
    32
  0
VERTEX
  8
T05SSILL
 62
13
 10
676.568
 20
-1756.878
 30
4729.320
 70
    32
  0
VERTEX
  8
T05SSILL
 62
13
 10
673.645
 20
-1752.128
 30
4729.320
 70
    32
  0
VERTEX
  8
T05SSILL
 62
13
 10
678.834
 20
-1748.763
 30
4729.320
 70
    32
  0
VERTEX
  8
T05SSILL
 62
13
 10
675.557
 20
-1743.398
 30
4729.320
 70
    32
  0
VERTEX
  8
T05SSILL
 62
13
 10
680.748
 20
-1740.738
 30
4729.320
 70
    32
  0
VERTEX
  8
T05SSILL
 62
13
 10
677.736
 20
-1735.460
 30
4729.320
 70
    32
  0
VERTEX
  8
T05SSILL
 62
13
 10
682.838
 20
-1732.448
 30
4729.320
 70
    32
  0
VERTEX
  8
T05SSILL
 62
13
 10
679.739
 20
-1727.610
 30
4729.320
 70
    32
  0
VERTEX
  8
T05SSILL
 62
13
 10
685.810
 20
-1724.331
 30
4729.320
 70
    32
  0
VERTEX
  8
T05SSILL
 62
13
 10
681.562
 20
-1718.616
 30
4729.320
 70
    32
  0
VERTEX
  8
T05SSILL
 62
13
 10
687.192
 20
-1715.426
 30
4729.320
 70
    32
  0
VERTEX
  8
T05SSILL
 62
13
 10
684.181
 20
-1710.500
 30
4729.320
 70
    32
  0
VERTEX
  8
T05SSILL
 62
13
 10
689.459
 20
-1707.488
 30
4729.320
 70
    32
  0
VERTEX
  8
T05SSILL
 62
13
 10
647.833
 20
-1639.758
 30
4729.320
 70
    32
  0
VERTEX
  8
T05SSILL
 62
13
 10
663.773
 20
-1636.272
 30
4729.320
 70
    32
  0
VERTEX
  8
T05SSILL
 62
13
 10
729.798
 20
-1613.334
 30
4729.320
 70
    32
  0
VERTEX
  8
T05SSILL
 62
13
 10
738.535
 20
-1617.273
 30
4729.320
 70
    32
  0
VERTEX
  8
T05SSILL
 62
13
 10
740.482
 20
-1619.999
 30
4729.320
 70
    32
  0
VERTEX
  8
T05SSILL
 62
13
 10
736.172
 20
-1622.832
 30
4729.320
 70
    32
  0
VERTEX
  8
T05SSILL
 62
13
 10
742.194
 20
-1632.419
 30
4729.320
 70
    32
  0
VERTEX
  8
T05SSILL
 62
13
 10
681.434
 20
-1676.756
 30
4729.320
 70
    32
  0
VERTEX
  8
T05SSILL
 62
13
 10
685.326
 20
-1681.415
 30
4729.320
 70
    32
  0
VERTEX
  8
T05SSILL
 62
13
 10
736.065
 20
-1645.304
 30
4729.320
 70
    32
  0
VERTEX
  8
T05SSILL
 62
13
 10
745.273
 20
-1659.465
 30
4729.320
 70
    32
  0
VERTEX
  8
T05SSILL
 62
13
 10
760.490
 20
-1649.989
 30
4729.320
 70
    32
  0
VERTEX
  8
T05SSILL
 62
13
 10
800.590
 20
-1708.646
 30
4729.320
 70
    32
  0
VERTEX
  8
T05SSILL
 62
13
 10
784.764
 20
-1720.504
 30
4729.320
 70
    32
  0
VERTEX
  8
T05SSILL
 62
13
 10
765.202
 20
-1721.357
 30
4729.320
 70
    32
  0
VERTEX
  8
T05SSILL
 62
13
 10
759.030
 20
-1720.142
 30
4729.320
 70
    32
  0
VERTEX
  8
T05SSILL
 62
13
 10
758.785
 20
-1726.664
 30
4729.320
 70
    32
  0
VERTEX
  8
T05SSILL
 62
13
 10
763.814
 20
-1728.323
 30
4729.320
 70
    32
  0
VERTEX
  8
T05SSILL
 62
13
 10
785.140
 20
-1728.258
 30
4729.320
 70
    32
  0
VERTEX
  8
T05SSILL
 62
13
 10
804.309
 20
-1714.275
 30
4729.320
 70
    32
  0
VERTEX
  8
T05SSILL
 62
13
 10
881.748
 20
-1909.929
 30
4729.320
 70
    32
  0
VERTEX
  8
T05SSILL
 62
13
 10
893.048
 20
-1927.256
 30
4729.320
 70
    32
  0
VERTEX
  8
T05SSILL
 62
13
 10
920.479
 20
-1949.856
 30
4729.320
 70
    32
  0
VERTEX
  8
T05SSILL
 62
13
 10
965.208
 20
-1964.317
 30
4729.320
 70
    32
  0
VERTEX
  8
T05SSILL
 62
13
 10
967.202
 20
-1972.649
 30
4729.320
 70
    32
  0
VERTEX
  8
T05SSILL
 62
13
 10
975.843
 20
-1988.441
 30
4729.320
 70
    32
  0
VERTEX
  8
T05SSILL
 62
13
 10
982.419
 20
-1996.870
 30
4729.320
 70
    32
  0
VERTEX
  8
T05SSILL
 62
13
 10
988.045
 20
-2001.352
 30
4729.320
 70
    32
  0
VERTEX
  8
T05SSILL
 62
13
 10
992.723
 20
-2001.888
 30
4729.320
 70
    32
  0
VERTEX
  8
T05SSILL
 62
13
 10
996.056
 20
-1996.017
 30
4729.320
 70
    32
  0
VERTEX
  8
T05SSILL
 62
13
 10
987.851
 20
-1959.696
 30
4729.320
 70
    32
  0
VERTEX
  8
T05SSILL
 62
13
 10
990.794
 20
-1956.739
 30
4729.320
 70
    32
  0
VERTEX
  8
T05SSILL
 62
13
 10
995.725
 20
-1956.653
 30
4729.320
 70
    32
  0
VERTEX
  8
T05SSILL
 62
13
 10
1218.169
 20
-2261.499
 30
4729.320
 70
    32
  0
VERTEX
  8
T05SSILL
 62
13
 10
1220.600
 20
-2270.566
 30
4729.320
 70
    32
  0
VERTEX
  8
T05SSILL
 62
13
 10
1218.469
 20
-2276.627
 30
4729.320
 70
    32
  0
VERTEX
  8
T05SSILL
 62
13
 10
1106.763
 20
-2358.822
 30
4729.320
 70
    32
  0
VERTEX
  8
T05SSILL
 62
13
 10
1107.267
 20
-2365.771
 30
4729.320
 70
    32
  0
VERTEX
  8
T05SSILL
 62
13
 10
887.563
 20
-2859.609
 30
4729.320
 70
    32
  0
VERTEX
  8
T05SSILL
 62
13
 10
880.160
 20
-2863.981
 30
4729.320
 70
    32
  0
VERTEX
  8
T05SSILL
 62
13
 10
873.257
 20
-2876.709
 30
4729.320
 70
    32
  0
VERTEX
  8
T05SSILL
 62
13
 10
865.342
 20
-2876.770
 30
4729.320
 70
    32
  0
VERTEX
  8
T05SSILL
 62
13
 10
859.734
 20
-2870.946
 30
4729.320
 70
    32
  0
VERTEX
  8
T05SSILL
 62
13
 10
857.659
 20
-2860.386
 30
4729.320
 70
    32
  0
VERTEX
  8
T05SSILL
 62
13
 10
848.785
 20
-2857.981
 30
4729.320
 70
    32
  0
VERTEX
  8
T05SSILL
 62
13
 10
839.898
 20
-2859.446
 30
4729.320
 70
    32
  0
VERTEX
  8
T05SSILL
 62
13
 10
837.760
 20
-2867.441
 30
4729.320
 70
    32
  0
VERTEX
  8
T05SSILL
 62
13
 10
835.016
 20
-2872.708
 30
4729.320
 70
    32
  0
VERTEX
  8
T05SSILL
 62
13
 10
838.499
 20
-2882.834
 30
4729.320
 70
    32
  0
VERTEX
  8
T05SSILL
 62
13
 10
853.863
 20
-2890.362
 30
4729.320
 70
    32
  0
VERTEX
  8
T05SSILL
 62
13
 10
863.946
 20
-2899.102
 30
4729.320
 70
    32
  0
VERTEX
  8
T05SSILL
 62
13
 10
862.256
 20
-2904.725
 30
4729.320
 70
    32
  0
VERTEX
  8
T05SSILL
 62
13
 10
867.831
 20
-2920.310
 30
4729.320
 70
    32
  0
VERTEX
  8
T05SSILL
 62
13
 10
859.922
 20
-2944.291
 30
4729.320
 70
    32
  0
VERTEX
  8
T05SSILL
 62
13
 10
859.616
 20
-2956.690
 30
4729.320
 70
    32
  0
VERTEX
  8
T05SSILL
 62
13
 10
873.813
 20
-2996.753
 30
4729.320
 70
    32
  0
VERTEX
  8
T05SSILL
 62
13
 10
870.352
 20
-3005.799
 30
4729.320
 70
    32
  0
VERTEX
  8
T05SSILL
 62
13
 10
876.986
 20
-3020.245
 30
4729.320
 70
    32
  0
VERTEX
  8
T05SSILL
 62
13
 10
883.060
 20
-3018.595
 30
4729.320
 70
    32
  0
VERTEX
  8
T05SSILL
 62
13
 10
888.489
 20
-3025.561
 30
4729.320
 70
    32
  0
VERTEX
  8
T05SSILL
 62
13
 10
895.514
 20
-3028.487
 30
4729.320
 70
    32
  0
VERTEX
  8
T05SSILL
 62
13
 10
904.371
 20
-3035.817
 30
4729.320
 70
    32
  0
VERTEX
  8
T05SSILL
 62
13
 10
912.806
 20
-3038.132
 30
4729.320
 70
    32
  0
VERTEX
  8
T05SSILL
 62
13
 10
918.394
 20
-3049.936
 30
4729.320
 70
    32
  0
VERTEX
  8
T05SSILL
 62
13
 10
925.758
 20
-3056.469
 30
4729.320
 70
    32
  0
VERTEX
  8
T05SSILL
 62
13
 10
927.927
 20
-3065.094
 30
4729.320
 70
    32
  0
VERTEX
  8
T05SSILL
 62
13
 10
913.209
 20
-3074.278
 30
4729.320
 70
    32
  0
VERTEX
  8
T05SSILL
 62
13
 10
915.655
 20
-3079.035
 30
4729.320
 70
    32
  0
VERTEX
  8
T05SSILL
 62
13
 10
930.542
 20
-3071.963
 30
4729.320
 70
    32
  0
VERTEX
  8
T05SSILL
 62
13
 10
934.933
 20
-3073.737
 30
4729.320
 70
    32
  0
VERTEX
  8
T05SSILL
 62
13
 10
941.497
 20
-3082.905
 30
4729.320
 70
    32
  0
VERTEX
  8
T05SSILL
 62
13
 10
942.871
 20
-3092.672
 30
4729.320
 70
    32
  0
VERTEX
  8
T05SSILL
 62
13
 10
933.960
 20
-3101.172
 30
4729.320
 70
    32
  0
VERTEX
  8
T05SSILL
 62
13
 10
944.559
 20
-3113.256
 30
4729.320
 70
    32
  0
VERTEX
  8
T05SSILL
 62
13
 10
944.985
 20
-3117.391
 30
4729.320
 70
    32
  0
VERTEX
  8
T05SSILL
 62
13
 10
954.629
 20
-3126.131
 30
4729.320
 70
    32
  0
VERTEX
  8
T05SSILL
 62
13
 10
960.956
 20
-3127.471
 30
4729.320
 70
    32
  0
VERTEX
  8
T05SSILL
 62
13
 10
967.595
 20
-3140.334
 30
4729.320
 70
    32
  0
VERTEX
  8
T05SSILL
 62
13
 10
975.159
 20
-3140.272
 30
4729.320
 70
    32
  0
VERTEX
  8
T05SSILL
 62
13
 10
980.127
 20
-3153.304
 30
4729.320
 70
    32
  0
VERTEX
  8
T05SSILL
 62
13
 10
985.985
 20
-3163.086
 30
4729.320
 70
    32
  0
VERTEX
  8
T05SSILL
 62
13
 10
999.316
 20
-3173.685
 30
4729.320
 70
    32
  0
VERTEX
  8
T05SSILL
 62
13
 10
1012.680
 20
-3174.786
 30
4729.320
 70
    32
  0
VERTEX
  8
T05SSILL
 62
13
 10
1021.941
 20
-3166.991
 30
4729.320
 70
    32
  0
VERTEX
  8
T05SSILL
 62
13
 10
1021.012
 20
-3155.643
 30
4729.320
 70
    32
  0
VERTEX
  8
T05SSILL
 62
13
 10
1013.295
 20
-3149.373
 30
4729.320
 70
    32
  0
VERTEX
  8
T05SSILL
 62
13
 10
1007.779
 20
-3142.231
 30
4729.320
 70
    32
  0
VERTEX
  8
T05SSILL
 62
13
 10
1004.571
 20
-3128.676
 30
4729.320
 70
    32
  0
VERTEX
  8
T05SSILL
 62
13
 10
998.530
 20
-3121.005
 30
4729.320
 70
    32
  0
VERTEX
  8
T05SSILL
 62
13
 10
996.176
 20
-3114.840
 30
4729.320
 70
    32
  0
VERTEX
  8
T05SSILL
 62
13
 10
1000.510
 20
-3107.644
 30
4729.320
 70
    32
  0
VERTEX
  8
T05SSILL
 62
13
 10
1002.565
 20
-3098.417
 30
4729.320
 70
    32
  0
VERTEX
  8
T05SSILL
 62
13
 10
1000.900
 20
-3071.061
 30
4729.320
 70
    32
  0
VERTEX
  8
T05SSILL
 62
13
 10
979.576
 20
-3057.445
 30
4729.320
 70
    32
  0
VERTEX
  8
T05SSILL
 62
13
 10
971.167
 20
-3047.654
 30
4729.320
 70
    32
  0
VERTEX
  8
T05SSILL
 62
13
 10
975.042
 20
-3046.172
 30
4729.320
 70
    32
  0
VERTEX
  8
T05SSILL
 62
13
 10
972.687
 20
-3040.360
 30
4729.320
 70
    32
  0
VERTEX
  8
T05SSILL
 62
13
 10
962.487
 20
-3040.061
 30
4729.320
 70
    32
  0
VERTEX
  8
T05SSILL
 62
13
 10
947.508
 20
-3022.773
 30
4729.320
 70
    32
  0
VERTEX
  8
T05SSILL
 62
13
 10
941.744
 20
-3010.881
 30
4729.320
 70
    32
  0
VERTEX
  8
T05SSILL
 62
13
 10
935.159
 20
-2982.101
 30
4729.320
 70
    32
  0
VERTEX
  8
T05SSILL
 62
13
 10
931.491
 20
-2974.701
 30
4729.320
 70
    32
  0
VERTEX
  8
T05SSILL
 62
13
 10
925.015
 20
-2965.621
 30
4729.320
 70
    32
  0
VERTEX
  8
T05SSILL
 62
13
 10
914.030
 20
-2937.529
 30
4729.320
 70
    32
  0
VERTEX
  8
T05SSILL
 62
13
 10
909.312
 20
-2928.455
 30
4729.320
 70
    32
  0
VERTEX
  8
T05SSILL
 62
13
 10
906.271
 20
-2917.804
 30
4729.320
 70
    32
  0
VERTEX
  8
T05SSILL
 62
13
 10
906.161
 20
-2898.544
 30
4729.320
 70
    32
  0
VERTEX
  8
T05SSILL
 62
13
 10
897.957
 20
-2880.223
 30
4729.320
 70
    32
  0
VERTEX
  8
T05SSILL
 62
13
 10
895.482
 20
-2858.317
 30
4729.320
 70
    32
  0
VERTEX
  8
T05SSILL
 62
13
 10
1117.932
 20
-2358.860
 30
4729.320
 70
    32
  0
VERTEX
  8
T05SSILL
 62
13
 10
1221.526
 20
-2282.705
 30
4729.320
 70
    32
  0
VERTEX
  8
T05SSILL
 62
13
 10
1227.507
 20
-2282.374
 30
4729.320
 70
    32
  0
VERTEX
  8
T05SSILL
 62
13
 10
1236.468
 20
-2285.131
 30
4729.320
 70
    32
  0
VERTEX
  8
T05SSILL
 62
13
 10
1316.206
 20
-2395.333
 30
4729.320
 70
    32
  0
VERTEX
  8
T05SSILL
 62
13
 10
1310.550
 20
-2429.260
 30
4729.320
 70
    32
  0
VERTEX
  8
T05SSILL
 62
13
 10
1296.918
 20
-2429.301
 30
4729.320
 70
    32
  0
VERTEX
  8
T05SSILL
 62
13
 10
1285.316
 20
-2427.414
 30
4729.320
 70
    32
  0
VERTEX
  8
T05SSILL
 62
13
 10
1278.356
 20
-2431.084
 30
4729.320
 70
    32
  0
VERTEX
  8
T05SSILL
 62
13
 10
1269.469
 20
-2432.461
 30
4729.320
 70
    32
  0
VERTEX
  8
T05SSILL
 62
13
 10
1261.257
 20
-2442.106
 30
4729.320
 70
    32
  0
VERTEX
  8
T05SSILL
 62
13
 10
1251.028
 20
-2450.250
 30
4729.320
 70
    32
  0
VERTEX
  8
T05SSILL
 62
13
 10
1223.010
 20
-2465.368
 30
4729.320
 70
    32
  0
VERTEX
  8
T05SSILL
 62
13
 10
1221.094
 20
-2460.085
 30
4729.320
 70
    32
  0
VERTEX
  8
T05SSILL
 62
13
 10
1228.421
 20
-2451.843
 30
4729.320
 70
    32
  0
VERTEX
  8
T05SSILL
 62
13
 10
1233.024
 20
-2443.153
 30
4729.320
 70
    32
  0
VERTEX
  8
T05SSILL
 62
13
 10
1237.873
 20
-2439.564
 30
4729.320
 70
    32
  0
VERTEX
  8
T05SSILL
 62
13
 10
1240.934
 20
-2444.587
 30
4729.320
 70
    32
  0
VERTEX
  8
T05SSILL
 62
13
 10
1251.599
 20
-2437.764
 30
4729.320
 70
    32
  0
VERTEX
  8
T05SSILL
 62
13
 10
1241.358
 20
-2423.482
 30
4729.320
 70
    32
  0
VERTEX
  8
T05SSILL
 62
13
 10
1236.685
 20
-2427.160
 30
4729.320
 70
    32
  0
VERTEX
  8
T05SSILL
 62
13
 10
1232.921
 20
-2421.958
 30
4729.320
 70
    32
  0
VERTEX
  8
T05SSILL
 62
13
 10
1228.162
 20
-2424.932
 30
4729.320
 70
    32
  0
VERTEX
  8
T05SSILL
 62
13
 10
1221.071
 20
-2415.410
 30
4729.320
 70
    32
  0
VERTEX
  8
T05SSILL
 62
13
 10
1215.517
 20
-2419.260
 30
4729.320
 70
    32
  0
VERTEX
  8
T05SSILL
 62
13
 10
1201.953
 20
-2399.690
 30
4729.320
 70
    32
  0
VERTEX
  8
T05SSILL
 62
13
 10
1197.107
 20
-2402.576
 30
4729.320
 70
    32
  0
VERTEX
  8
T05SSILL
 62
13
 10
1190.017
 20
-2392.878
 30
4729.320
 70
    32
  0
VERTEX
  8
T05SSILL
 62
13
 10
1184.991
 20
-2396.466
 30
4729.320
 70
    32
  0
VERTEX
  8
T05SSILL
 62
13
 10
1157.865
 20
-2356.887
 30
4729.320
 70
    32
  0
VERTEX
  8
T05SSILL
 62
13
 10
1152.577
 20
-2360.034
 30
4729.320
 70
    32
  0
VERTEX
  8
T05SSILL
 62
13
 10
1166.229
 20
-2379.868
 30
4729.320
 70
    32
  0
VERTEX
  8
T05SSILL
 62
13
 10
1161.558
 20
-2382.666
 30
4729.320
 70
    32
  0
VERTEX
  8
T05SSILL
 62
13
 10
1175.470
 20
-2403.381
 30
4729.320
 70
    32
  0
VERTEX
  8
T05SSILL
 62
13
 10
1170.359
 20
-2406.353
 30
4729.320
 70
    32
  0
VERTEX
  8
T05SSILL
 62
13
 10
1207.465
 20
-2459.510
 30
4729.320
 70
    32
  0
VERTEX
  8
T05SSILL
 62
13
 10
1218.466
 20
-2482.589
 30
4729.320
 70
    32
  0
VERTEX
  8
T05SSILL
 62
13
 10
1243.300
 20
-2524.007
 30
4729.320
 70
    32
  0
VERTEX
  8
T05SSILL
 62
13
 10
1245.481
 20
-2529.116
 30
4729.320
 70
    32
  0
VERTEX
  8
T05SSILL
 62
13
 10
1245.964
 20
-2542.221
 30
4729.320
 70
    32
  0
VERTEX
  8
T05SSILL
 62
13
 10
1252.173
 20
-2552.443
 30
4729.320
 70
    32
  0
VERTEX
  8
T05SSILL
 62
13
 10
1257.530
 20
-2554.397
 30
4729.320
 70
    32
  0
VERTEX
  8
T05SSILL
 62
13
 10
1262.549
 20
-2552.831
 30
4729.320
 70
    32
  0
VERTEX
  8
T05SSILL
 62
13
 10
1270.377
 20
-2552.506
 30
4729.320
 70
    32
  0
VERTEX
  8
T05SSILL
 62
13
 10
1282.843
 20
-2558.881
 30
4729.320
 70
    32
  0
VERTEX
  8
T05SSILL
 62
13
 10
1302.848
 20
-2572.141
 30
4729.320
 70
    32
  0
VERTEX
  8
T05SSILL
 62
13
 10
1305.837
 20
-2572.503
 30
4729.320
 70
    32
  0
VERTEX
  8
T05SSILL
 62
13
 10
1308.805
 20
-2578.933
 30
4729.320
 70
    32
  0
VERTEX
  8
T05SSILL
 62
13
 10
1315.380
 20
-2584.847
 30
4729.320
 70
    32
  0
VERTEX
  8
T05SSILL
 62
13
 10
1323.116
 20
-2585.929
 30
4729.320
 70
    32
  0
VERTEX
  8
T05SSILL
 62
13
 10
1334.123
 20
-2581.658
 30
4729.320
 70
    32
  0
VERTEX
  8
T05SSILL
 62
13
 10
1344.787
 20
-2575.187
 30
4729.320
 70
    32
  0
VERTEX
  8
T05SSILL
 62
13
 10
1351.904
 20
-2576.794
 30
4729.320
 70
    32
  0
VERTEX
  8
T05SSILL
 62
13
 10
1376.433
 20
-2553.309
 30
4729.320
 70
    32
  0
VERTEX
  8
T05SSILL
 62
13
 10
1376.352
 20
-2551.286
 30
4729.320
 70
    32
  0
VERTEX
  8
T05SSILL
 62
13
 10
1390.555
 20
-2538.583
 30
4729.320
 70
    32
  0
VERTEX
  8
T05SSILL
 62
13
 10
1395.130
 20
-2537.896
 30
4729.320
 70
    32
  0
VERTEX
  8
T05SSILL
 62
13
 10
1399.623
 20
-2535.449
 30
4729.320
 70
    32
  0
VERTEX
  8
T05SSILL
 62
13
 10
1402.276
 20
-2531.324
 30
4729.320
 70
    32
  0
VERTEX
  8
T05SSILL
 62
13
 10
1393.016
 20
-2513.264
 30
4729.320
 70
    32
  0
VERTEX
  8
T05SSILL
 62
13
 10
1384.582
 20
-2510.685
 30
4729.320
 70
    32
  0
VERTEX
  8
T05SSILL
 62
13
 10
1383.803
 20
-2507.165
 30
4729.320
 70
    32
  0
VERTEX
  8
T05SSILL
 62
13
 10
1386.895
 20
-2503.042
 30
4729.320
 70
    32
  0
VERTEX
  8
T05SSILL
 62
13
 10
1392.623
 20
-2499.456
 30
4729.320
 70
    32
  0
VERTEX
  8
T05SSILL
 62
13
 10
1418.886
 20
-2534.635
 30
4729.320
 70
    32
  0
VERTEX
  8
T05SSILL
 62
13
 10
1418.865
 20
-2540.527
 30
4729.320
 70
    32
  0
VERTEX
  8
T05SSILL
 62
13
 10
1416.832
 20
-2543.686
 30
4729.320
 70
    32
  0
VERTEX
  8
T05SSILL
 62
13
 10
1381.030
 20
-2571.881
 30
4729.320
 70
    32
  0
VERTEX
  8
T05SSILL
 62
13
 10
1370.708
 20
-2581.432
 30
4729.320
 70
    32
  0
VERTEX
  8
T05SSILL
 62
13
 10
1388.287
 20
-2609.897
 30
4729.320
 70
    32
  0
VERTEX
  8
T05SSILL
 62
13
 10
1402.587
 20
-2620.060
 30
4729.320
 70
    32
  0
VERTEX
  8
T05SSILL
 62
13
 10
1423.145
 20
-2626.023
 30
4729.320
 70
    32
  0
VERTEX
  8
T05SSILL
 62
13
 10
1448.897
 20
-2630.684
 30
4729.320
 70
    32
  0
VERTEX
  8
T05SSILL
 62
13
 10
1468.219
 20
-2638.049
 30
4729.320
 70
    32
  0
VERTEX
  8
T05SSILL
 62
13
 10
1454.193
 20
-2650.489
 30
4729.320
 70
    32
  0
VERTEX
  8
T05SSILL
 62
13
 10
1475.826
 20
-2676.419
 30
4729.320
 70
    32
  0
VERTEX
  8
T05SSILL
 62
13
 10
1476.838
 20
-2689.174
 30
4729.320
 70
    32
  0
VERTEX
  8
T05SSILL
 62
13
 10
1482.956
 20
-2700.188
 30
4729.320
 70
    32
  0
VERTEX
  8
T05SSILL
 62
13
 10
1500.153
 20
-2711.855
 30
4729.320
 70
    32
  0
VERTEX
  8
T05SSILL
 62
13
 10
1507.633
 20
-2736.065
 30
4729.320
 70
    32
  0
VERTEX
  8
T05SSILL
 62
13
 10
1516.758
 20
-2742.165
 30
4729.320
 70
    32
  0
VERTEX
  8
T05SSILL
 62
13
 10
1521.593
 20
-2742.709
 30
4729.320
 70
    32
  0
VERTEX
  8
T05SSILL
 62
13
 10
1538.961
 20
-2730.017
 30
4729.320
 70
    32
  0
VERTEX
  8
T05SSILL
 62
13
 10
1540.386
 20
-2724.833
 30
4729.320
 70
    32
  0
VERTEX
  8
T05SSILL
 62
13
 10
1531.632
 20
-2713.282
 30
4729.320
 70
    32
  0
VERTEX
  8
T05SSILL
 62
13
 10
1526.825
 20
-2704.296
 30
4729.320
 70
    32
  0
VERTEX
  8
T05SSILL
 62
13
 10
1525.997
 20
-2689.343
 30
4729.320
 70
    32
  0
VERTEX
  8
T05SSILL
 62
13
 10
1518.296
 20
-2678.235
 30
4729.320
 70
    32
  0
VERTEX
  8
T05SSILL
 62
13
 10
1515.001
 20
-2664.769
 30
4729.320
 70
    32
  0
VERTEX
  8
T05SSILL
 62
13
 10
1506.553
 20
-2640.643
 30
4729.320
 70
    32
  0
VERTEX
  8
T05SSILL
 62
13
 10
1491.316
 20
-2621.771
 30
4729.320
 70
    32
  0
VERTEX
  8
T05SSILL
 62
13
 10
1346.272
 20
-2424.106
 30
4729.320
 70
    32
  0
VERTEX
  8
T05SSILL
 62
13
 10
1347.859
 20
-2422.880
 30
4729.320
 70
    32
  0
VERTEX
  8
T05SSILL
 62
13
 10
1800.496
 20
-2706.553
 30
4729.320
 70
    32
  0
VERTEX
  8
T05SSILL
 62
13
 10
1825.012
 20
-2712.618
 30
4729.320
 70
    32
  0
VERTEX
  8
T05SSILL
 62
13
 10
1822.541
 20
-2715.072
 30
4729.320
 70
    32
  0
VERTEX
  8
T05SSILL
 62
13
 10
1824.981
 20
-2721.500
 30
4729.320
 70
    32
  0
VERTEX
  8
T05SSILL
 62
13
 10
1837.577
 20
-2715.739
 30
4729.320
 70
    32
  0
VERTEX
  8
T05SSILL
 62
13
 10
1846.018
 20
-2716.119
 30
4729.320
 70
    32
  0
VERTEX
  8
T05SSILL
 62
13
 10
1852.622
 20
-2713.856
 30
4729.320
 70
    32
  0
VERTEX
  8
T05SSILL
 62
13
 10
1866.515
 20
-2714.343
 30
4729.320
 70
    32
  0
VERTEX
  8
T05SSILL
 62
13
 10
1876.735
 20
-2708.926
 30
4729.320
 70
    32
  0
VERTEX
  8
T05SSILL
 62
13
 10
1914.596
 20
-2695.688
 30
4729.320
 70
    32
  0
VERTEX
  8
T05SSILL
 62
13
 10
1924.462
 20
-2690.709
 30
4729.320
 70
    32
  0
VERTEX
  8
T05SSILL
 62
13
 10
2734.295
 20
-1777.648
 30
4729.320
 70
    32
  0
VERTEX
  8
T05SSILL
 62
13
 10
2768.453
 20
-1719.892
 30
4729.320
 70
    32
  0
VERTEX
  8
T05SSILL
 62
13
 10
2857.622
 20
-1617.815
 30
4729.320
 70
    32
  0
VERTEX
  8
T05SSILL
 62
13
 10
2852.041
 20
-1613.118
 30
4729.320
 70
    32
  0
VERTEX
  8
T05SSILL
 62
13
 10
2764.595
 20
-1713.742
 30
4729.320
 70
    32
  0
VERTEX
  8
T05SSILL
 62
13
 10
2729.822
 20
-1771.348
 30
4729.320
 70
    32
  0
VERTEX
  8
T05SSILL
 62
13
 10
2724.363
 20
-1776.207
 30
4729.320
 70
    32
  0
VERTEX
  8
T05SSILL
 62
13
 10
2109.371
 20
-2470.431
 30
4729.320
 70
    32
  0
VERTEX
  8
T05SSILL
 62
13
 10
1967.228
 20
-2632.198
 30
4729.320
 70
    32
  0
VERTEX
  8
T05SSILL
 62
13
 10
1918.676
 20
-2685.589
 30
4729.320
 70
    32
  0
VERTEX
  8
T05SSILL
 62
13
 10
1905.985
 20
-2667.869
 30
4729.320
 70
    32
  0
VERTEX
  8
T05SSILL
 62
13
 10
1894.093
 20
-2673.544
 30
4729.320
 70
    32
  0
VERTEX
  8
T05SSILL
 62
13
 10
1884.125
 20
-2682.304
 30
4729.320
 70
    32
  0
VERTEX
  8
T05SSILL
 62
13
 10
1870.651
 20
-2687.798
 30
4729.320
 70
    32
  0
VERTEX
  8
T05SSILL
 62
13
 10
1872.126
 20
-2693.608
 30
4729.320
 70
    32
  0
VERTEX
  8
T05SSILL
 62
13
 10
1844.546
 20
-2709.519
 30
4729.320
 70
    32
  0
VERTEX
  8
T05SSILL
 62
13
 10
1838.043
 20
-2707.913
 30
4729.320
 70
    32
  0
VERTEX
  8
T05SSILL
 62
13
 10
1829.271
 20
-2701.551
 30
4729.320
 70
    32
  0
VERTEX
  8
T05SSILL
 62
13
 10
1824.810
 20
-2694.501
 30
4729.320
 70
    32
  0
VERTEX
  8
T05SSILL
 62
13
 10
1820.887
 20
-2479.291
 30
4729.320
 70
    32
  0
VERTEX
  8
T05SSILL
 62
13
 10
1729.543
 20
-2291.483
 30
4729.320
 70
    32
  0
VERTEX
  8
T05SSILL
 62
13
 10
1689.822
 20
-2205.866
 30
4729.320
 70
    32
  0
VERTEX
  8
T05SSILL
 62
13
 10
1615.513
 20
-2051.359
 30
4729.320
 70
    32
  0
VERTEX
  8
T05SSILL
 62
13
 10
1715.396
 20
-2005.971
 30
4729.320
 70
    32
  0
VERTEX
  8
T05SSILL
 62
13
 10
1718.934
 20
-2000.091
 30
4729.320
 70
    32
  0
VERTEX
  8
T05SSILL
 62
13
 10
1717.287
 20
-1992.962
 30
4729.320
 70
    32
  0
VERTEX
  8
T05SSILL
 62
13
 10
1724.591
 20
-1966.077
 30
4729.320
 70
    32
  0
VERTEX
  8
T05SSILL
 62
13
 10
1718.001
 20
-1964.471
 30
4729.320
 70
    32
  0
VERTEX
  8
T05SSILL
 62
13
 10
1710.879
 20
-1989.686
 30
4729.320
 70
    32
  0
VERTEX
  8
T05SSILL
 62
13
 10
1703.718
 20
-2000.479
 30
4729.320
 70
    32
  0
VERTEX
  8
T05SSILL
 62
13
 10
1611.146
 20
-2042.462
 30
4729.320
 70
    32
  0
VERTEX
  8
T05SSILL
 62
13
 10
1466.449
 20
-1743.839
 30
4729.320
 70
    32
  0
VERTEX
  8
T05SSILL
 62
13
 10
1358.669
 20
-1527.163
 30
4729.320
 70
    32
  0
VERTEX
  8
T05SSILL
 62
13
 10
1185.551
 20
-1168.401
 30
4729.320
 70
    32
  0
VERTEX
  8
T05SSILL
 62
13
 10
1144.401
 20
-1141.384
 30
4729.320
 70
    32
  0
VERTEX
  8
T05SSILL
 62
13
 10
1162.818
 20
-1111.893
 30
4729.320
 70
    32
  0
VERTEX
  8
T05SSILL
 62
13
 10
1157.248
 20
-1106.006
 30
4729.320
 70
    32
  0
VERTEX
  8
T05SSILL
 62
13
 10
1135.096
 20
-1095.586
 30
4729.320
 70
    32
  0
VERTEX
  8
T05SSILL
 62
13
 10
1201.493
 20
-1050.087
 30
4729.320
 70
    32
  0
VERTEX
  8
T05SSILL
 62
13
 10
1688.508
 20
-828.723
 30
4729.320
 70
    32
  0
VERTEX
  8
T05SSILL
 62
13
 10
1687.954
 20
-820.353
 30
4729.320
 70
    32
  0
VERTEX
  8
T05SSILL
 62
13
 10
1714.367
 20
-754.530
 30
4729.320
 70
    32
  0
VERTEX
  8
T05SSILL
 62
13
 10
1707.837
 20
-751.818
 30
4729.320
 70
    32
  0
VERTEX
  8
T05SSILL
 62
13
 10
1686.415
 20
-806.962
 30
4729.320
 70
    32
  0
VERTEX
  8
T05SSILL
 62
13
 10
1680.460
 20
-819.406
 30
4729.320
 70
    32
  0
VERTEX
  8
T05SSILL
 62
13
 10
1670.617
 20
-828.249
 30
4729.320
 70
    32
  0
VERTEX
  8
T05SSILL
 62
13
 10
1194.077
 20
-1045.967
 30
4729.320
 70
    32
  0
VERTEX
  8
T05SSILL
 62
13
 10
1176.155
 20
-1035.271
 30
4729.320
 70
    32
  0
VERTEX
  8
T05SSILL
 62
13
 10
1171.850
 20
-1039.602
 30
4729.320
 70
    32
  0
VERTEX
  8
T05SSILL
 62
13
 10
1166.913
 20
-1039.088
 30
4729.320
 70
    32
  0
VERTEX
  8
T05SSILL
 62
13
 10
1159.671
 20
-1033.999
 30
4729.320
 70
    32
  0
VERTEX
  8
T05SSILL
 62
13
 10
1148.354
 20
-1021.784
 30
4729.320
 70
    32
  0
VERTEX
  8
T05SSILL
 62
13
 10
1141.932
 20
-1025.329
 30
4729.320
 70
    32
  0
VERTEX
  8
T05SSILL
 62
13
 10
1141.062
 20
-1029.121
 30
4729.320
 70
    32
  0
VERTEX
  8
T05SSILL
 62
13
 10
1120.112
 20
-1037.116
 30
4729.320
 70
    32
  0
VERTEX
  8
T05SSILL
 62
13
 10
1064.719
 20
-1078.352
 30
4729.320
 70
    32
  0
VERTEX
  8
T05SSILL
 62
13
 10
1038.084
 20
-1100.377
 30
4729.320
 70
    32
  0
VERTEX
  8
T05SSILL
 62
13
 10
1028.075
 20
-1112.922
 30
4729.320
 70
    32
  0
VERTEX
  8
T05SSILL
 62
13
 10
1015.377
 20
-1138.958
 30
4729.320
 70
    32
  0
VERTEX
  8
T05SSILL
 62
13
 10
1007.828
 20
-1148.851
 30
4729.320
 70
    32
  0
VERTEX
  8
T05SSILL
 62
13
 10
1001.411
 20
-1154.246
 30
4729.320
 70
    32
  0
VERTEX
  8
T05SSILL
 62
13
 10
956.279
 20
-1179.236
 30
4729.320
 70
    32
  0
VERTEX
  8
T05SSILL
 62
13
 10
947.934
 20
-1188.074
 30
4729.320
 70
    32
  0
VERTEX
  8
T05SSILL
 62
13
 10
875.345
 20
-1225.838
 30
4729.320
 70
    32
  0
VERTEX
  8
T05SSILL
 62
13
 10
857.177
 20
-1221.311
 30
4729.320
 70
    32
  0
VERTEX
  8
T05SSILL
 62
13
 10
827.576
 20
-1195.756
 30
4729.320
 70
    32
  0
VERTEX
  8
T05SSILL
 62
13
 10
588.740
 20
-1018.030
 30
4729.320
 70
    32
  0
VERTEX
  8
T05SSILL
 62
13
 10
589.964
 20
-1014.942
 30
4729.320
 70
    32
  0
VERTEX
  8
T05SSILL
 62
13
 10
616.712
 20
-1001.024
 30
4729.320
 70
    32
  0
VERTEX
  8
T05SSILL
 62
13
 10
612.198
 20
-994.693
 30
4729.320
 70
    32
  0
VERTEX
  8
T05SSILL
 62
13
 10
585.185
 20
-1008.259
 30
4729.320
 70
    32
  0
VERTEX
  8
T05SSILL
 62
13
 10
582.817
 20
-1012.232
 30
4729.320
 70
    32
  0
VERTEX
  8
T05SSILL
 62
13
 10
345.758
 20
-838.623
 30
4729.320
 70
    32
  0
VERTEX
  8
T05SSILL
 62
13
 10
343.930
 20
-834.965
 30
4729.320
 70
    32
  0
VERTEX
  8
T05SSILL
 62
13
 10
378.627
 20
-786.652
 30
4729.320
 70
    32
  0
VERTEX
  8
T05SSILL
 62
13
 10
422.099
 20
-731.776
 30
4729.320
 70
    32
  0
VERTEX
  8
T05SSILL
 62
13
 10
416.007
 20
-728.005
 30
4729.320
 70
    32
  0
VERTEX
  8
T05SSILL
 62
13
 10
377.367
 20
-775.773
 30
4729.320
 70
    32
  0
VERTEX
  8
T05SSILL
 62
13
 10
338.575
 20
-830.758
 30
4729.320
 70
    32
  0
VERTEX
  8
T05SSILL
 62
13
 10
333.197
 20
-829.980
 30
4729.320
 70
    32
  0
VERTEX
  8
T05SSILL
 62
13
 10
200.866
 20
-732.332
 30
4729.320
 70
    32
  0
VERTEX
  8
T05SSILL
 62
13
 10
169.897
 20
-689.481
 30
4729.320
 70
    32
  0
VERTEX
  8
T05SSILL
 62
13
 10
173.280
 20
-682.383
 30
4729.320
 70
    32
  0
VERTEX
  8
T05SSILL
 62
13
 10
723.203
 20
-290.221
 30
4729.320
 70
    32
  0
VERTEX
  8
T05SSILL
 62
13
 10
729.101
 20
-289.796
 30
4729.320
 70
    32
  0
VERTEX
  8
T05SSILL
 62
13
 10
732.760
 20
-291.372
 30
4729.320
 70
    32
  0
VERTEX
  8
T05SSILL
 62
13
 10
794.709
 20
-376.736
 30
4729.320
 70
    32
  0
VERTEX
  8
T05SSILL
 62
13
 10
788.108
 20
-393.409
 30
4729.320
 70
    32
  0
VERTEX
  8
T05SSILL
 62
13
 10
793.463
 20
-395.733
 30
4729.320
 70
    32
  0
VERTEX
  8
T05SSILL
 62
13
 10
800.011
 20
-383.559
 30
4729.320
 70
    32
  0
VERTEX
  8
T05SSILL
 62
13
 10
832.292
 20
-428.896
 30
4729.320
 70
    32
  0
VERTEX
  8
T05SSILL
 62
13
 10
832.983
 20
-460.717
 30
4729.320
 70
    32
  0
VERTEX
  8
T05SSILL
 62
13
 10
834.750
 20
-467.284
 30
4729.320
 70
    32
  0
VERTEX
  8
T05SSILL
 62
13
 10
839.857
 20
-470.231
 30
4729.320
 70
    32
  0
VERTEX
  8
T05SSILL
 62
13
 10
854.799
 20
-468.325
 30
4729.320
 70
    32
  0
VERTEX
  8
T05SSILL
 62
13
 10
864.467
 20
-463.828
 30
4729.320
 70
    32
  0
VERTEX
  8
T05SSILL
 62
13
 10
869.901
 20
-456.095
 30
4729.320
 70
    32
  0
VERTEX
  8
T05SSILL
 62
13
 10
865.501
 20
-446.777
 30
4729.320
 70
    32
  0
VERTEX
  8
T05SSILL
 62
13
 10
849.932
 20
-435.383
 30
4729.320
 70
    32
  0
VERTEX
  8
T05SSILL
 62
13
 10
844.878
 20
-427.935
 30
4729.320
 70
    32
  0
VERTEX
  8
T05SSILL
 62
13
 10
835.642
 20
-422.366
 30
4729.320
 70
    32
  0
VERTEX
  8
T05SSILL
 62
13
 10
829.592
 20
-413.976
 30
4729.320
 70
    32
  0
VERTEX
  8
T05SSILL
 62
13
 10
883.862
 20
-424.668
 30
4729.320
 70
    32
  0
VERTEX
  8
T05SSILL
 62
13
 10
890.903
 20
-427.387
 30
4729.320
 70
    32
  0
VERTEX
  8
T05SSILL
 62
13
 10
895.162
 20
-434.768
 30
4729.320
 70
    32
  0
VERTEX
  8
T05SSILL
 62
13
 10
902.318
 20
-457.857
 30
4729.320
 70
    32
  0
VERTEX
  8
T05SSILL
 62
13
 10
903.902
 20
-490.095
 30
4729.320
 70
    32
  0
VERTEX
  8
T05SSILL
 62
13
 10
909.933
 20
-491.342
 30
4729.320
 70
    32
  0
VERTEX
  8
T05SSILL
 62
13
 10
915.450
 20
-499.570
 30
4729.320
 70
    32
  0
VERTEX
  8
T05SSILL
 62
13
 10
917.517
 20
-510.715
 30
4729.320
 70
    32
  0
VERTEX
  8
T05SSILL
 62
13
 10
919.481
 20
-514.807
 30
4729.320
 70
    32
  0
VERTEX
  8
T05SSILL
 62
13
 10
937.801
 20
-526.832
 30
4729.320
 70
    32
  0
VERTEX
  8
T05SSILL
 62
13
 10
964.689
 20
-493.995
 30
4729.320
 70
    32
  0
VERTEX
  8
T05SSILL
 62
13
 10
972.092
 20
-490.530
 30
4729.320
 70
    32
  0
VERTEX
  8
T05SSILL
 62
13
 10
969.778
 20
-486.535
 30
4729.320
 70
    32
  0
VERTEX
  8
T05SSILL
 62
13
 10
973.182
 20
-478.769
 30
4729.320
 70
    32
  0
VERTEX
  8
T05SSILL
 62
13
 10
987.165
 20
-461.101
 30
4729.320
 70
    32
  0
VERTEX
  8
T05SSILL
 62
13
 10
991.723
 20
-476.235
 30
4729.320
 70
    32
  0
VERTEX
  8
T05SSILL
 62
13
 10
988.677
 20
-490.695
 30
4729.320
 70
    32
  0
VERTEX
  8
T05SSILL
 62
13
 10
988.286
 20
-498.996
 30
4729.320
 70
    32
  0
VERTEX
  8
T05SSILL
 62
13
 10
998.269
 20
-499.606
 30
4729.320
 70
    32
  0
VERTEX
  8
T05SSILL
 62
13
 10
1013.889
 20
-483.746
 30
4729.320
 70
    32
  0
VERTEX
  8
T05SSILL
 62
13
 10
1013.890
 20
-474.044
 30
4729.320
 70
    32
  0
VERTEX
  8
T05SSILL
 62
13
 10
1017.061
 20
-467.431
 30
4729.320
 70
    32
  0
VERTEX
  8
T05SSILL
 62
13
 10
1031.916
 20
-449.386
 30
4729.320
 70
    32
  0
VERTEX
  8
T05SSILL
 62
13
 10
1027.717
 20
-431.243
 30
4729.320
 70
    32
  0
VERTEX
  8
T05SSILL
 62
13
 10
1027.518
 20
-417.490
 30
4729.320
 70
    32
  0
VERTEX
  8
T05SSILL
 62
13
 10
1034.126
 20
-407.519
 30
4729.320
 70
    32
  0
VERTEX
  8
T05SSILL
 62
13
 10
1063.499
 20
-378.495
 30
4729.320
 70
    32
  0
VERTEX
  8
T05SSILL
 62
13
 10
1071.157
 20
-377.934
 30
4729.320
 70
    32
  0
VERTEX
  8
T05SSILL
 62
13
 10
1077.211
 20
-383.237
 30
4729.320
 70
    32
  0
VERTEX
  8
T05SSILL
 62
13
 10
1082.518
 20
-383.798
 30
4729.320
 70
    32
  0
VERTEX
  8
T05SSILL
 62
13
 10
1092.210
 20
-380.182
 30
4729.320
 70
    32
  0
VERTEX
  8
T05SSILL
 62
13
 10
1096.577
 20
-375.389
 30
4729.320
 70
    32
  0
VERTEX
  8
T05SSILL
 62
13
 10
1093.418
 20
-369.477
 30
4729.320
 70
    32
  0
VERTEX
  8
T05SSILL
 62
13
 10
1082.432
 20
-357.958
 30
4729.320
 70
    32
  0
VERTEX
  8
T05SSILL
 62
13
 10
1078.949
 20
-346.675
 30
4729.320
 70
    32
  0
VERTEX
  8
T05SSILL
 62
13
 10
1087.047
 20
-313.733
 30
4729.320
 70
    32
  0
VERTEX
  8
T05SSILL
 62
13
 10
1095.413
 20
-303.538
 30
4729.320
 70
    32
  0
VERTEX
  8
T05SSILL
 62
13
 10
1110.989
 20
-292.530
 30
4729.320
 70
    32
  0
VERTEX
  8
T05SSILL
 62
13
 10
1124.350
 20
-284.404
 30
4729.320
 70
    32
  0
VERTEX
  8
T05SSILL
 62
13
 10
1139.849
 20
-280.278
 30
4729.320
 70
    32
  0
VERTEX
  8
T05SSILL
 62
13
 10
1143.066
 20
-275.339
 30
4729.320
 70
    32
  0
VERTEX
  8
T05SSILL
 62
13
 10
1137.876
 20
-246.727
 30
4729.320
 70
    32
  0
VERTEX
  8
T05SSILL
 62
13
 10
1141.028
 20
-239.409
 30
4729.320
 70
    32
  0
VERTEX
  8
T05SSILL
 62
13
 10
1144.767
 20
-237.455
 30
4729.320
 70
    32
  0
VERTEX
  8
T05SSILL
 62
13
 10
1144.011
 20
-232.360
 30
4729.320
 70
    32
  0
VERTEX
  8
T05SSILL
 62
13
 10
1142.541
 20
-230.195
 30
4729.320
 70
    32
  0
VERTEX
  8
T05SSILL
 62
13
 10
1142.743
 20
-218.195
 30
4729.320
 70
    32
  0
VERTEX
  8
T05SSILL
 62
13
 10
1134.458
 20
-186.052
 30
4729.320
 70
    32
  0
VERTEX
  8
T05SSILL
 62
13
 10
1134.188
 20
-179.356
 30
4729.320
 70
    32
  0
VERTEX
  8
T05SSILL
 62
13
 10
1139.409
 20
-176.744
 30
4729.320
 70
    32
  0
VERTEX
  8
T05SSILL
 62
13
 10
1155.398
 20
-174.456
 30
4729.320
 70
    32
  0
VERTEX
  8
T05SSILL
 62
13
 10
1357.538
 20
-186.940
 30
4729.320
 70
    32
  0
VERTEX
  8
T05SSILL
 62
13
 10
1356.878
 20
-175.668
 30
4729.320
 70
    32
  0
VERTEX
  8
T05SSILL
 62
13
 10
1237.445
 20
-168.780
 30
4729.320
 70
    32
  0
VERTEX
  8
T05SSILL
 62
13
 10
1276.342
 20
-58.794
 30
4729.320
 70
    32
  0
VERTEX
  8
T05SSILL
 62
13
 10
1279.434
 20
-58.975
 30
4729.320
 70
    32
  0
VERTEX
  8
T05SSILL
 62
13
 10
1254.743
 20
-0.907
 30
4729.320
 70
    32
  0
VERTEX
  8
T05SSILL
 62
13
 10
1746.672
 20
366.010
 30
4729.320
 70
    32
  0
VERTEX
  8
T05SSILL
 62
13
 10
1772.487
 20
417.702
 30
4729.320
 70
    32
  0
SEQEND
  8
T05SSILL
  0
TEXT
  8
T05SSILL
 62
13
 10
1542.741
 20
-471.994
 30
4729.320
 40
8.202
  1
500
 41
 1.0 
  0
ENDSEC
  0
EOF
