999
********************************
999
*   DXF File - Entities Only   *
999
*        3D Data Format        *
999
*     Output from ENVISAGE     *
999
*     20-Dec-2007 09:08:00     *
999
********************************
  0
SECTION 
  2
HEADER
  9
$ACADVER
  1
AC1009
  9
$EXTMIN
 10
-290000.000
 20
-250000.000
 30
-4000.000
  9
$EXTMAX
 10
5000000.000
 20
600000.000
 30
6000.000
  0
ENDSEC
  0
SECTION
  2
ENTITIES
  0
POLYLINE
  8
T06SSILL
 62
8
 66
     1
 70
     9
  0
VERTEX
  8
T06SSILL
 62
8
 10
-840.644
 20
645.144
 30
4632.280
 70
    32
  0
VERTEX
  8
T06SSILL
 62
8
 10
-832.498
 20
647.337
 30
4632.280
 70
    32
  0
VERTEX
  8
T06SSILL
 62
8
 10
-801.408
 20
595.656
 30
4632.280
 70
    32
  0
VERTEX
  8
T06SSILL
 62
8
 10
-809.091
 20
579.381
 30
4632.280
 70
    32
  0
SEQEND
  8
T06SSILL
  0
POLYLINE
  8
T06SSILL
 62
8
 66
     1
 70
     9
  0
VERTEX
  8
T06SSILL
 62
8
 10
-664.676
 20
279.003
 30
4632.280
 70
    32
  0
VERTEX
  8
T06SSILL
 62
8
 10
-611.238
 20
189.642
 30
4632.280
 70
    32
  0
VERTEX
  8
T06SSILL
 62
8
 10
-605.117
 20
144.408
 30
4632.280
 70
    32
  0
VERTEX
  8
T06SSILL
 62
8
 10
-600.482
 20
137.369
 30
4632.280
 70
    32
  0
VERTEX
  8
T06SSILL
 62
8
 10
-641.703
 20
120.233
 30
4632.280
 70
    32
  0
VERTEX
  8
T06SSILL
 62
8
 10
-679.819
 20
226.993
 30
4632.280
 70
    32
  0
SEQEND
  8
T06SSILL
  0
POLYLINE
  8
T06SSILL
 62
8
 66
     1
 70
     9
  0
VERTEX
  8
T06SSILL
 62
8
 10
-401.320
 20
-145.220
 30
4632.280
 70
    32
  0
VERTEX
  8
T06SSILL
 62
8
 10
-439.018
 20
-172.477
 30
4632.280
 70
    32
  0
VERTEX
  8
T06SSILL
 62
8
 10
-446.200
 20
-164.000
 30
4632.280
 70
    32
  0
VERTEX
  8
T06SSILL
 62
8
 10
-462.754
 20
-98.180
 30
4632.280
 70
    32
  0
VERTEX
  8
T06SSILL
 62
8
 10
-459.802
 20
-92.972
 30
4632.280
 70
    32
  0
VERTEX
  8
T06SSILL
 62
8
 10
-454.361
 20
-91.527
 30
4632.280
 70
    32
  0
SEQEND
  8
T06SSILL
  0
POLYLINE
  8
T06SSILL
 62
8
 66
     1
 70
     9
  0
VERTEX
  8
T06SSILL
 62
8
 10
-396.274
 20
-150.108
 30
4632.280
 70
    32
  0
VERTEX
  8
T06SSILL
 62
8
 10
-291.168
 20
-256.006
 30
4632.280
 70
    32
  0
VERTEX
  8
T06SSILL
 62
8
 10
-291.847
 20
-259.439
 30
4632.280
 70
    32
  0
VERTEX
  8
T06SSILL
 62
8
 10
-335.815
 20
-295.269
 30
4632.280
 70
    32
  0
VERTEX
  8
T06SSILL
 62
8
 10
-341.006
 20
-294.778
 30
4632.280
 70
    32
  0
VERTEX
  8
T06SSILL
 62
8
 10
-361.473
 20
-284.812
 30
4632.280
 70
    32
  0
VERTEX
  8
T06SSILL
 62
8
 10
-390.997
 20
-249.767
 30
4632.280
 70
    32
  0
VERTEX
  8
T06SSILL
 62
8
 10
-386.362
 20
-246.218
 30
4632.280
 70
    32
  0
VERTEX
  8
T06SSILL
 62
8
 10
-431.857
 20
-190.537
 30
4632.280
 70
    32
  0
VERTEX
  8
T06SSILL
 62
8
 10
-427.051
 20
-186.459
 30
4632.280
 70
    32
  0
VERTEX
  8
T06SSILL
 62
8
 10
-434.938
 20
-177.547
 30
4632.280
 70
    32
  0
SEQEND
  8
T06SSILL
  0
POLYLINE
  8
T06SSILL
 62
8
 66
     1
 70
     9
  0
VERTEX
  8
T06SSILL
 62
8
 10
-344.555
 20
-302.628
 30
4632.280
 70
    32
  0
VERTEX
  8
T06SSILL
 62
8
 10
-345.012
 20
-300.081
 30
4632.280
 70
    32
  0
VERTEX
  8
T06SSILL
 62
8
 10
-365.124
 20
-290.641
 30
4632.280
 70
    32
  0
VERTEX
  8
T06SSILL
 62
8
 10
-383.485
 20
-304.925
 30
4632.280
 70
    32
  0
VERTEX
  8
T06SSILL
 62
8
 10
-371.341
 20
-318.994
 30
4632.280
 70
    32
  0
VERTEX
  8
T06SSILL
 62
8
 10
-358.581
 20
-308.265
 30
4632.280
 70
    32
  0
VERTEX
  8
T06SSILL
 62
8
 10
-355.396
 20
-311.144
 30
4632.280
 70
    32
  0
SEQEND
  8
T06SSILL
  0
POLYLINE
  8
T06SSILL
 62
8
 66
     1
 70
     9
  0
VERTEX
  8
T06SSILL
 62
8
 10
-264.751
 20
-535.216
 30
4632.280
 70
    32
  0
VERTEX
  8
T06SSILL
 62
8
 10
-279.145
 20
-538.746
 30
4632.280
 70
    32
  0
VERTEX
  8
T06SSILL
 62
8
 10
-282.961
 20
-533.674
 30
4632.280
 70
    32
  0
VERTEX
  8
T06SSILL
 62
8
 10
-287.947
 20
-537.226
 30
4632.280
 70
    32
  0
VERTEX
  8
T06SSILL
 62
8
 10
-301.711
 20
-517.806
 30
4632.280
 70
    32
  0
VERTEX
  8
T06SSILL
 62
8
 10
-294.794
 20
-513.801
 30
4632.280
 70
    32
  0
SEQEND
  8
T06SSILL
  0
POLYLINE
  8
T06SSILL
 62
8
 66
     1
 70
     9
  0
VERTEX
  8
T06SSILL
 62
8
 10
51.620
 20
-778.350
 30
4632.280
 70
    32
  0
VERTEX
  8
T06SSILL
 62
8
 10
40.460
 20
-779.045
 30
4632.280
 70
    32
  0
VERTEX
  8
T06SSILL
 62
8
 10
39.271
 20
-797.340
 30
4632.280
 70
    32
  0
VERTEX
  8
T06SSILL
 62
8
 10
47.052
 20
-816.098
 30
4632.280
 70
    32
  0
VERTEX
  8
T06SSILL
 62
8
 10
64.409
 20
-833.735
 30
4632.280
 70
    32
  0
VERTEX
  8
T06SSILL
 62
8
 10
72.055
 20
-833.417
 30
4632.280
 70
    32
  0
VERTEX
  8
T06SSILL
 62
8
 10
91.895
 20
-816.924
 30
4632.280
 70
    32
  0
VERTEX
  8
T06SSILL
 62
8
 10
92.614
 20
-806.721
 30
4632.280
 70
    32
  0
SEQEND
  8
T06SSILL
  0
POLYLINE
  8
T06SSILL
 62
8
 66
     1
 70
     9
  0
VERTEX
  8
T06SSILL
 62
8
 10
177.286
 20
-919.709
 30
4632.280
 70
    32
  0
VERTEX
  8
T06SSILL
 62
8
 10
173.365
 20
-924.748
 30
4632.280
 70
    32
  0
VERTEX
  8
T06SSILL
 62
8
 10
159.014
 20
-934.168
 30
4632.280
 70
    32
  0
VERTEX
  8
T06SSILL
 62
8
 10
155.729
 20
-929.708
 30
4632.280
 70
    32
  0
VERTEX
  8
T06SSILL
 62
8
 10
143.458
 20
-922.586
 30
4632.280
 70
    32
  0
VERTEX
  8
T06SSILL
 62
8
 10
146.291
 20
-912.895
 30
4632.280
 70
    32
  0
VERTEX
  8
T06SSILL
 62
8
 10
156.693
 20
-904.381
 30
4632.280
 70
    32
  0
VERTEX
  8
T06SSILL
 62
8
 10
165.017
 20
-900.454
 30
4632.280
 70
    32
  0
VERTEX
  8
T06SSILL
 62
8
 10
171.001
 20
-901.203
 30
4632.280
 70
    32
  0
SEQEND
  8
T06SSILL
  0
POLYLINE
  8
T06SSILL
 62
8
 66
     1
 70
     9
  0
VERTEX
  8
T06SSILL
 62
8
 10
186.076
 20
-919.559
 30
4632.280
 70
    32
  0
VERTEX
  8
T06SSILL
 62
8
 10
196.410
 20
-926.255
 30
4632.280
 70
    32
  0
VERTEX
  8
T06SSILL
 62
8
 10
203.372
 20
-953.460
 30
4632.280
 70
    32
  0
VERTEX
  8
T06SSILL
 62
8
 10
201.069
 20
-963.499
 30
4632.280
 70
    32
  0
VERTEX
  8
T06SSILL
 62
8
 10
181.083
 20
-934.452
 30
4632.280
 70
    32
  0
SEQEND
  8
T06SSILL
  0
POLYLINE
  8
T06SSILL
 62
8
 66
     1
 70
     9
  0
VERTEX
  8
T06SSILL
 62
8
 10
178.686
 20
-993.285
 30
4632.280
 70
    32
  0
VERTEX
  8
T06SSILL
 62
8
 10
197.789
 20
-984.446
 30
4632.280
 70
    32
  0
VERTEX
  8
T06SSILL
 62
8
 10
204.176
 20
-980.181
 30
4632.280
 70
    32
  0
VERTEX
  8
T06SSILL
 62
8
 10
203.713
 20
-976.755
 30
4632.280
 70
    32
  0
VERTEX
  8
T06SSILL
 62
8
 10
194.600
 20
-968.731
 30
4632.280
 70
    32
  0
VERTEX
  8
T06SSILL
 62
8
 10
172.555
 20
-984.185
 30
4632.280
 70
    32
  0
SEQEND
  8
T06SSILL
  0
POLYLINE
  8
T06SSILL
 62
8
 66
     1
 70
     9
  0
VERTEX
  8
T06SSILL
 62
8
 10
250.675
 20
-1016.161
 30
4632.280
 70
    32
  0
VERTEX
  8
T06SSILL
 62
8
 10
255.599
 20
-1016.302
 30
4632.280
 70
    32
  0
VERTEX
  8
T06SSILL
 62
8
 10
257.200
 20
-1018.840
 30
4632.280
 70
    32
  0
VERTEX
  8
T06SSILL
 62
8
 10
253.706
 20
-1022.118
 30
4632.280
 70
    32
  0
VERTEX
  8
T06SSILL
 62
8
 10
247.829
 20
-1023.918
 30
4632.280
 70
    32
  0
VERTEX
  8
T06SSILL
 62
8
 10
248.062
 20
-1019.696
 30
4632.280
 70
    32
  0
SEQEND
  8
T06SSILL
  0
POLYLINE
  8
T06SSILL
 62
8
 66
     1
 70
     9
  0
VERTEX
  8
T06SSILL
 62
8
 10
78.232
 20
-1200.839
 30
4632.280
 70
    32
  0
VERTEX
  8
T06SSILL
 62
8
 10
83.671
 20
-1210.309
 30
4632.280
 70
    32
  0
VERTEX
  8
T06SSILL
 62
8
 10
61.485
 20
-1212.445
 30
4632.280
 70
    32
  0
SEQEND
  8
T06SSILL
  0
POLYLINE
  8
T06SSILL
 62
8
 66
     1
 70
     9
  0
VERTEX
  8
T06SSILL
 62
8
 10
477.408
 20
-1105.474
 30
4632.280
 70
    32
  0
VERTEX
  8
T06SSILL
 62
8
 10
492.701
 20
-1106.430
 30
4632.280
 70
    32
  0
VERTEX
  8
T06SSILL
 62
8
 10
487.302
 20
-1117.806
 30
4632.280
 70
    32
  0
VERTEX
  8
T06SSILL
 62
8
 10
478.241
 20
-1126.240
 30
4632.280
 70
    32
  0
VERTEX
  8
T06SSILL
 62
8
 10
471.539
 20
-1127.839
 30
4632.280
 70
    32
  0
VERTEX
  8
T06SSILL
 62
8
 10
465.564
 20
-1119.156
 30
4632.280
 70
    32
  0
VERTEX
  8
T06SSILL
 62
8
 10
469.133
 20
-1114.445
 30
4632.280
 70
    32
  0
SEQEND
  8
T06SSILL
  0
POLYLINE
  8
T06SSILL
 62
8
 66
     1
 70
     9
  0
VERTEX
  8
T06SSILL
 62
8
 10
471.063
 20
-1164.069
 30
4632.280
 70
    32
  0
VERTEX
  8
T06SSILL
 62
8
 10
473.786
 20
-1172.542
 30
4632.280
 70
    32
  0
VERTEX
  8
T06SSILL
 62
8
 10
483.397
 20
-1178.450
 30
4632.280
 70
    32
  0
VERTEX
  8
T06SSILL
 62
8
 10
489.106
 20
-1179.215
 30
4632.280
 70
    32
  0
VERTEX
  8
T06SSILL
 62
8
 10
496.726
 20
-1174.019
 30
4632.280
 70
    32
  0
VERTEX
  8
T06SSILL
 62
8
 10
496.968
 20
-1167.777
 30
4632.280
 70
    32
  0
VERTEX
  8
T06SSILL
 62
8
 10
490.502
 20
-1155.659
 30
4632.280
 70
    32
  0
VERTEX
  8
T06SSILL
 62
8
 10
485.664
 20
-1155.783
 30
4632.280
 70
    32
  0
SEQEND
  8
T06SSILL
  0
POLYLINE
  8
T06SSILL
 62
8
 66
     1
 70
     9
  0
VERTEX
  8
T06SSILL
 62
8
 10
789.929
 20
-1577.957
 30
4632.280
 70
    32
  0
VERTEX
  8
T06SSILL
 62
8
 10
759.896
 20
-1590.036
 30
4632.280
 70
    32
  0
VERTEX
  8
T06SSILL
 62
8
 10
756.647
 20
-1597.741
 30
4632.280
 70
    32
  0
VERTEX
  8
T06SSILL
 62
8
 10
861.819
 20
-1804.234
 30
4632.280
 70
    32
  0
VERTEX
  8
T06SSILL
 62
8
 10
876.829
 20
-1798.766
 30
4632.280
 70
    32
  0
VERTEX
  8
T06SSILL
 62
8
 10
887.025
 20
-1766.598
 30
4632.280
 70
    32
  0
SEQEND
  8
T06SSILL
  0
POLYLINE
  8
T06SSILL
 62
8
 66
     1
 70
     9
  0
VERTEX
  8
T06SSILL
 62
8
 10
1146.579
 20
-1126.199
 30
4632.280
 70
    32
  0
VERTEX
  8
T06SSILL
 62
8
 10
1173.202
 20
-1145.042
 30
4632.280
 70
    32
  0
VERTEX
  8
T06SSILL
 62
8
 10
1167.136
 20
-1152.981
 30
4632.280
 70
    32
  0
VERTEX
  8
T06SSILL
 62
8
 10
1199.089
 20
-1175.047
 30
4632.280
 70
    32
  0
VERTEX
  8
T06SSILL
 62
8
 10
1190.520
 20
-1186.829
 30
4632.280
 70
    32
  0
VERTEX
  8
T06SSILL
 62
8
 10
1187.095
 20
-1186.352
 30
4632.280
 70
    32
  0
VERTEX
  8
T06SSILL
 62
8
 10
1131.283
 20
-1150.133
 30
4632.280
 70
    32
  0
SEQEND
  8
T06SSILL
  0
POLYLINE
  8
T06SSILL
 62
8
 66
     1
 70
     9
  0
VERTEX
  8
T06SSILL
 62
8
 10
1058.259
 20
-1136.069
 30
4632.280
 70
    32
  0
VERTEX
  8
T06SSILL
 62
8
 10
1058.392
 20
-1140.028
 30
4632.280
 70
    32
  0
VERTEX
  8
T06SSILL
 62
8
 10
1129.777
 20
-1159.264
 30
4632.280
 70
    32
  0
VERTEX
  8
T06SSILL
 62
8
 10
1131.293
 20
-1157.345
 30
4632.280
 70
    32
  0
VERTEX
  8
T06SSILL
 62
8
 10
1117.590
 20
-1147.524
 30
4632.280
 70
    32
  0
VERTEX
  8
T06SSILL
 62
8
 10
1094.014
 20
-1123.436
 30
4632.280
 70
    32
  0
VERTEX
  8
T06SSILL
 62
8
 10
1085.292
 20
-1124.838
 30
4632.280
 70
    32
  0
SEQEND
  8
T06SSILL
  0
POLYLINE
  8
T06SSILL
 62
8
 66
     1
 70
     9
  0
VERTEX
  8
T06SSILL
 62
8
 10
891.846
 20
-1776.324
 30
4632.280
 70
    32
  0
VERTEX
  8
T06SSILL
 62
8
 10
899.085
 20
-1790.210
 30
4632.280
 70
    32
  0
VERTEX
  8
T06SSILL
 62
8
 10
885.312
 20
-1795.075
 30
4632.280
 70
    32
  0
SEQEND
  8
T06SSILL
  0
POLYLINE
  8
T06SSILL
 62
8
 66
     1
 70
     9
  0
VERTEX
  8
T06SSILL
 62
8
 10
895.564
 20
-1765.898
 30
4632.280
 70
    32
  0
VERTEX
  8
T06SSILL
 62
8
 10
925.138
 20
-1780.199
 30
4632.280
 70
    32
  0
VERTEX
  8
T06SSILL
 62
8
 10
906.062
 20
-1787.471
 30
4632.280
 70
    32
  0
SEQEND
  8
T06SSILL
  0
POLYLINE
  8
T06SSILL
 62
8
 66
     1
 70
     9
  0
VERTEX
  8
T06SSILL
 62
8
 10
1063.419
 20
-1720.733
 30
4632.280
 70
    32
  0
VERTEX
  8
T06SSILL
 62
8
 10
1073.216
 20
-1717.496
 30
4632.280
 70
    32
  0
VERTEX
  8
T06SSILL
 62
8
 10
1078.958
 20
-1723.363
 30
4632.280
 70
    32
  0
VERTEX
  8
T06SSILL
 62
8
 10
1081.262
 20
-1729.896
 30
4632.280
 70
    32
  0
VERTEX
  8
T06SSILL
 62
8
 10
1075.159
 20
-1733.172
 30
4632.280
 70
    32
  0
VERTEX
  8
T06SSILL
 62
8
 10
1067.736
 20
-1728.167
 30
4632.280
 70
    32
  0
SEQEND
  8
T06SSILL
  0
POLYLINE
  8
T06SSILL
 62
8
 66
     1
 70
     9
  0
VERTEX
  8
T06SSILL
 62
8
 10
1084.701
 20
-1737.320
 30
4632.280
 70
    32
  0
VERTEX
  8
T06SSILL
 62
8
 10
1092.549
 20
-1743.561
 30
4632.280
 70
    32
  0
VERTEX
  8
T06SSILL
 62
8
 10
1090.747
 20
-1747.588
 30
4632.280
 70
    32
  0
VERTEX
  8
T06SSILL
 62
8
 10
1086.796
 20
-1746.930
 30
4632.280
 70
    32
  0
VERTEX
  8
T06SSILL
 62
8
 10
1081.906
 20
-1743.711
 30
4632.280
 70
    32
  0
VERTEX
  8
T06SSILL
 62
8
 10
1080.197
 20
-1739.031
 30
4632.280
 70
    32
  0
SEQEND
  8
T06SSILL
  0
POLYLINE
  8
T06SSILL
 62
8
 66
     1
 70
     9
  0
VERTEX
  8
T06SSILL
 62
8
 10
1106.284
 20
-1750.393
 30
4632.280
 70
    32
  0
VERTEX
  8
T06SSILL
 62
8
 10
1114.263
 20
-1760.945
 30
4632.280
 70
    32
  0
VERTEX
  8
T06SSILL
 62
8
 10
1122.828
 20
-1757.782
 30
4632.280
 70
    32
  0
VERTEX
  8
T06SSILL
 62
8
 10
1125.877
 20
-1752.274
 30
4632.280
 70
    32
  0
VERTEX
  8
T06SSILL
 62
8
 10
1119.885
 20
-1745.174
 30
4632.280
 70
    32
  0
SEQEND
  8
T06SSILL
  0
POLYLINE
  8
T06SSILL
 62
8
 66
     1
 70
     9
  0
VERTEX
  8
T06SSILL
 62
8
 10
998.705
 20
-354.427
 30
4632.280
 70
    32
  0
VERTEX
  8
T06SSILL
 62
8
 10
980.928
 20
-347.031
 30
4632.280
 70
    32
  0
VERTEX
  8
T06SSILL
 62
8
 10
981.721
 20
-342.718
 30
4632.280
 70
    32
  0
VERTEX
  8
T06SSILL
 62
8
 10
987.970
 20
-342.719
 30
4632.280
 70
    32
  0
VERTEX
  8
T06SSILL
 62
8
 10
989.205
 20
-326.701
 30
4632.280
 70
    32
  0
VERTEX
  8
T06SSILL
 62
8
 10
993.607
 20
-321.421
 30
4632.280
 70
    32
  0
VERTEX
  8
T06SSILL
 62
8
 10
1002.408
 20
-318.518
 30
4632.280
 70
    32
  0
VERTEX
  8
T06SSILL
 62
8
 10
1032.508
 20
-320.372
 30
4632.280
 70
    32
  0
VERTEX
  8
T06SSILL
 62
8
 10
1035.940
 20
-326.181
 30
4632.280
 70
    32
  0
VERTEX
  8
T06SSILL
 62
8
 10
1035.761
 20
-339.295
 30
4632.280
 70
    32
  0
VERTEX
  8
T06SSILL
 62
8
 10
1041.658
 20
-339.560
 30
4632.280
 70
    32
  0
VERTEX
  8
T06SSILL
 62
8
 10
1041.391
 20
-355.667
 30
4632.280
 70
    32
  0
SEQEND
  8
T06SSILL
  0
POLYLINE
  8
T06SSILL
 62
8
 66
     1
 70
     9
  0
VERTEX
  8
T06SSILL
 62
8
 10
1095.875
 20
-336.401
 30
4632.280
 70
    32
  0
VERTEX
  8
T06SSILL
 62
8
 10
1067.707
 20
-356.727
 30
4632.280
 70
    32
  0
VERTEX
  8
T06SSILL
 62
8
 10
1053.185
 20
-356.021
 30
4632.280
 70
    32
  0
VERTEX
  8
T06SSILL
 62
8
 10
1053.892
 20
-340.002
 30
4632.280
 70
    32
  0
VERTEX
  8
T06SSILL
 62
8
 10
1059.789
 20
-340.003
 30
4632.280
 70
    32
  0
VERTEX
  8
T06SSILL
 62
8
 10
1060.585
 20
-316.064
 30
4632.280
 70
    32
  0
VERTEX
  8
T06SSILL
 62
8
 10
1147.277
 20
-320.744
 30
4632.280
 70
    32
  0
VERTEX
  8
T06SSILL
 62
8
 10
1150.444
 20
-325.145
 30
4632.280
 70
    32
  0
VERTEX
  8
T06SSILL
 62
8
 10
1146.923
 20
-331.218
 30
4632.280
 70
    32
  0
VERTEX
  8
T06SSILL
 62
8
 10
1144.369
 20
-338.962
 30
4632.280
 70
    32
  0
SEQEND
  8
T06SSILL
  0
POLYLINE
  8
T06SSILL
 62
8
 66
     1
 70
     9
  0
VERTEX
  8
T06SSILL
 62
8
 10
1141.287
 20
-346.179
 30
4632.280
 70
    32
  0
VERTEX
  8
T06SSILL
 62
8
 10
1135.653
 20
-355.771
 30
4632.280
 70
    32
  0
VERTEX
  8
T06SSILL
 62
8
 10
1125.443
 20
-361.138
 30
4632.280
 70
    32
  0
VERTEX
  8
T06SSILL
 62
8
 10
1075.100
 20
-359.017
 30
4632.280
 70
    32
  0
VERTEX
  8
T06SSILL
 62
8
 10
1097.282
 20
-343.003
 30
4632.280
 70
    32
  0
SEQEND
  8
T06SSILL
  0
POLYLINE
  8
T06SSILL
 62
8
 66
     1
 70
     9
  0
VERTEX
  8
T06SSILL
 62
8
 10
1046.716
 20
-103.687
 30
4632.280
 70
    32
  0
VERTEX
  8
T06SSILL
 62
8
 10
1021.721
 20
-102.803
 30
4632.280
 70
    32
  0
VERTEX
  8
T06SSILL
 62
8
 10
1010.982
 20
-109.314
 30
4632.280
 70
    32
  0
VERTEX
  8
T06SSILL
 62
8
 10
1018.378
 20
-92.593
 30
4632.280
 70
    32
  0
VERTEX
  8
T06SSILL
 62
8
 10
1048.922
 20
-73.763
 30
4632.280
 70
    32
  0
SEQEND
  8
T06SSILL
  0
POLYLINE
  8
T06SSILL
 62
8
 66
     1
 70
     9
  0
VERTEX
  8
T06SSILL
 62
8
 10
1315.315
 20
-192.891
 30
4632.280
 70
    32
  0
VERTEX
  8
T06SSILL
 62
8
 10
1323.062
 20
-186.732
 30
4632.280
 70
    32
  0
VERTEX
  8
T06SSILL
 62
8
 10
1331.160
 20
-182.861
 30
4632.280
 70
    32
  0
VERTEX
  8
T06SSILL
 62
8
 10
1333.358
 20
-190.958
 30
4632.280
 70
    32
  0
VERTEX
  8
T06SSILL
 62
8
 10
1330.013
 20
-197.118
 30
4632.280
 70
    32
  0
SEQEND
  8
T06SSILL
  0
POLYLINE
  8
T06SSILL
 62
8
 66
     1
 70
     9
  0
VERTEX
  8
T06SSILL
 62
8
 10
1054.213
 20
-82.405
 30
4632.280
 70
    32
  0
VERTEX
  8
T06SSILL
 62
8
 10
1055.660
 20
-60.752
 30
4632.280
 70
    32
  0
VERTEX
  8
T06SSILL
 62
8
 10
1069.092
 20
-83.597
 30
4632.280
 70
    32
  0
SEQEND
  8
T06SSILL
  0
POLYLINE
  8
T06SSILL
 62
8
 66
     1
 70
     9
  0
VERTEX
  8
T06SSILL
 62
8
 10
1122.549
 20
81.525
 30
4632.280
 70
    32
  0
VERTEX
  8
T06SSILL
 62
8
 10
1129.482
 20
82.504
 30
4632.280
 70
    32
  0
VERTEX
  8
T06SSILL
 62
8
 10
1136.007
 20
81.279
 30
4632.280
 70
    32
  0
VERTEX
  8
T06SSILL
 62
8
 10
1139.020
 20
73.584
 30
4632.280
 70
    32
  0
VERTEX
  8
T06SSILL
 62
8
 10
1139.821
 20
66.825
 30
4632.280
 70
    32
  0
VERTEX
  8
T06SSILL
 62
8
 10
1138.045
 20
61.875
 30
4632.280
 70
    32
  0
VERTEX
  8
T06SSILL
 62
8
 10
1132.868
 20
55.029
 30
4632.280
 70
    32
  0
VERTEX
  8
T06SSILL
 62
8
 10
1122.975
 20
51.985
 30
4632.280
 70
    32
  0
SEQEND
  8
T06SSILL
  0
POLYLINE
  8
T06SSILL
 62
8
 66
     1
 70
     9
  0
VERTEX
  8
T06SSILL
 62
8
 10
1276.757
 20
-62.004
 30
4632.280
 70
    32
  0
VERTEX
  8
T06SSILL
 62
8
 10
1276.525
 20
-60.689
 30
4632.280
 70
    32
  0
SEQEND
  8
T06SSILL
  0
POLYLINE
  8
T06SSILL
 62
8
 66
     1
 70
     9
  0
VERTEX
  8
T06SSILL
 62
8
 10
975.568
 20
-1976.767
 30
4632.280
 70
    32
  0
VERTEX
  8
T06SSILL
 62
8
 10
971.978
 20
-1977.711
 30
4632.280
 70
    32
  0
VERTEX
  8
T06SSILL
 62
8
 10
969.131
 20
-1990.783
 30
4632.280
 70
    32
  0
VERTEX
  8
T06SSILL
 62
8
 10
970.412
 20
-2013.371
 30
4632.280
 70
    32
  0
VERTEX
  8
T06SSILL
 62
8
 10
1016.575
 20
-2066.308
 30
4632.280
 70
    32
  0
VERTEX
  8
T06SSILL
 62
8
 10
1042.468
 20
-2082.652
 30
4632.280
 70
    32
  0
VERTEX
  8
T06SSILL
 62
8
 10
1062.444
 20
-2087.840
 30
4632.280
 70
    32
  0
VERTEX
  8
T06SSILL
 62
8
 10
1065.137
 20
-2085.856
 30
4632.280
 70
    32
  0
VERTEX
  8
T06SSILL
 62
8
 10
1039.058
 20
-2054.118
 30
4632.280
 70
    32
  0
SEQEND
  8
T06SSILL
  0
POLYLINE
  8
T06SSILL
 62
8
 66
     1
 70
     9
  0
VERTEX
  8
T06SSILL
 62
8
 10
1150.578
 20
-63.748
 30
4632.280
 70
    32
  0
VERTEX
  8
T06SSILL
 62
8
 10
1145.724
 20
-55.936
 30
4632.280
 70
    32
  0
VERTEX
  8
T06SSILL
 62
8
 10
1140.487
 20
-52.582
 30
4632.280
 70
    32
  0
VERTEX
  8
T06SSILL
 62
8
 10
1135.474
 20
-46.411
 30
4632.280
 70
    32
  0
VERTEX
  8
T06SSILL
 62
8
 10
1133.561
 20
-41.778
 30
4632.280
 70
    32
  0
VERTEX
  8
T06SSILL
 62
8
 10
1179.691
 20
-45.421
 30
4632.280
 70
    32
  0
VERTEX
  8
T06SSILL
 62
8
 10
1181.223
 20
-54.105
 30
4632.280
 70
    32
  0
VERTEX
  8
T06SSILL
 62
8
 10
1185.520
 20
-61.730
 30
4632.280
 70
    32
  0
VERTEX
  8
T06SSILL
 62
8
 10
1219.748
 20
-112.519
 30
4632.280
 70
    32
  0
VERTEX
  8
T06SSILL
 62
8
 10
1183.134
 20
-113.217
 30
4632.280
 70
    32
  0
VERTEX
  8
T06SSILL
 62
8
 10
1172.397
 20
-112.247
 30
4632.280
 70
    32
  0
VERTEX
  8
T06SSILL
 62
8
 10
1172.662
 20
-105.910
 30
4632.280
 70
    32
  0
VERTEX
  8
T06SSILL
 62
8
 10
1167.470
 20
-105.029
 30
4632.280
 70
    32
  0
VERTEX
  8
T06SSILL
 62
8
 10
1166.855
 20
-98.780
 30
4632.280
 70
    32
  0
VERTEX
  8
T06SSILL
 62
8
 10
1161.134
 20
-98.427
 30
4632.280
 70
    32
  0
VERTEX
  8
T06SSILL
 62
8
 10
1161.136
 20
-86.369
 30
4632.280
 70
    32
  0
VERTEX
  8
T06SSILL
 62
8
 10
1155.327
 20
-86.632
 30
4632.280
 70
    32
  0
VERTEX
  8
T06SSILL
 62
8
 10
1156.032
 20
-80.471
 30
4632.280
 70
    32
  0
VERTEX
  8
T06SSILL
 62
8
 10
1150.311
 20
-80.646
 30
4632.280
 70
    32
  0
SEQEND
  8
T06SSILL
  0
POLYLINE
  8
T06SSILL
 62
8
 66
     1
 70
     9
  0
VERTEX
  8
T06SSILL
 62
8
 10
-805.062
 20
571.889
 30
4632.280
 70
    32
  0
VERTEX
  8
T06SSILL
 62
8
 10
-796.155
 20
588.541
 30
4632.280
 70
    32
  0
VERTEX
  8
T06SSILL
 62
8
 10
-712.433
 20
452.415
 30
4632.280
 70
    32
  0
VERTEX
  8
T06SSILL
 62
8
 10
-713.457
 20
446.493
 30
4632.280
 70
    32
  0
VERTEX
  8
T06SSILL
 62
8
 10
-728.552
 20
430.947
 30
4632.280
 70
    32
  0
VERTEX
  8
T06SSILL
 62
8
 10
-731.199
 20
431.157
 30
4632.280
 70
    32
  0
VERTEX
  8
T06SSILL
 62
8
 10
-736.176
 20
441.977
 30
4632.280
 70
    32
  0
VERTEX
  8
T06SSILL
 62
8
 10
-741.503
 20
439.754
 30
4632.280
 70
    32
  0
SEQEND
  8
T06SSILL
  0
POLYLINE
  8
T06SSILL
 62
8
 66
     1
 70
     9
  0
VERTEX
  8
T06SSILL
 62
8
 10
-566.152
 20
-47.305
 30
4632.280
 70
    32
  0
VERTEX
  8
T06SSILL
 62
8
 10
-507.946
 20
-10.760
 30
4632.280
 70
    32
  0
VERTEX
  8
T06SSILL
 62
8
 10
-506.399
 20
-18.134
 30
4632.280
 70
    32
  0
VERTEX
  8
T06SSILL
 62
8
 10
-511.878
 20
-26.613
 30
4632.280
 70
    32
  0
VERTEX
  8
T06SSILL
 62
8
 10
-519.401
 20
-32.029
 30
4632.280
 70
    32
  0
VERTEX
  8
T06SSILL
 62
8
 10
-533.454
 20
-46.371
 30
4632.280
 70
    32
  0
VERTEX
  8
T06SSILL
 62
8
 10
-528.747
 20
-53.019
 30
4632.280
 70
    32
  0
VERTEX
  8
T06SSILL
 62
8
 10
-527.013
 20
-62.062
 30
4632.280
 70
    32
  0
VERTEX
  8
T06SSILL
 62
8
 10
-521.886
 20
-65.982
 30
4632.280
 70
    32
  0
VERTEX
  8
T06SSILL
 62
8
 10
-552.510
 20
-86.683
 30
4632.280
 70
    32
  0
VERTEX
  8
T06SSILL
 62
8
 10
-558.332
 20
-83.823
 30
4632.280
 70
    32
  0
VERTEX
  8
T06SSILL
 62
8
 10
-569.933
 20
-59.552
 30
4632.280
 70
    32
  0
SEQEND
  8
T06SSILL
  0
POLYLINE
  8
T06SSILL
 62
8
 66
     1
 70
     9
  0
VERTEX
  8
T06SSILL
 62
8
 10
-500.978
 20
-100.912
 30
4632.280
 70
    32
  0
VERTEX
  8
T06SSILL
 62
8
 10
-500.688
 20
-92.295
 30
4632.280
 70
    32
  0
VERTEX
  8
T06SSILL
 62
8
 10
-504.513
 20
-85.992
 30
4632.280
 70
    32
  0
VERTEX
  8
T06SSILL
 62
8
 10
-518.341
 20
-70.001
 30
4632.280
 70
    32
  0
VERTEX
  8
T06SSILL
 62
8
 10
-545.542
 20
-89.887
 30
4632.280
 70
    32
  0
VERTEX
  8
T06SSILL
 62
8
 10
-548.567
 20
-97.205
 30
4632.280
 70
    32
  0
VERTEX
  8
T06SSILL
 62
8
 10
-547.020
 20
-104.579
 30
4632.280
 70
    32
  0
VERTEX
  8
T06SSILL
 62
8
 10
-529.842
 20
-109.469
 30
4632.280
 70
    32
  0
SEQEND
  8
T06SSILL
  0
POLYLINE
  8
T06SSILL
 62
8
 66
     1
 70
     9
  0
VERTEX
  8
T06SSILL
 62
8
 10
-483.712
 20
-80.921
 30
4632.280
 70
    32
  0
VERTEX
  8
T06SSILL
 62
8
 10
-477.391
 20
-79.646
 30
4632.280
 70
    32
  0
VERTEX
  8
T06SSILL
 62
8
 10
-477.691
 20
-86.945
 30
4632.280
 70
    32
  0
VERTEX
  8
T06SSILL
 62
8
 10
-480.993
 20
-92.419
 30
4632.280
 70
    32
  0
VERTEX
  8
T06SSILL
 62
8
 10
-493.007
 20
-96.724
 30
4632.280
 70
    32
  0
VERTEX
  8
T06SSILL
 62
8
 10
-494.794
 20
-92.780
 30
4632.280
 70
    32
  0
VERTEX
  8
T06SSILL
 62
8
 10
-492.288
 20
-86.521
 30
4632.280
 70
    32
  0
SEQEND
  8
T06SSILL
  0
POLYLINE
  8
T06SSILL
 62
8
 66
     1
 70
     9
  0
VERTEX
  8
T06SSILL
 62
8
 10
-538.217
 20
-118.671
 30
4632.280
 70
    32
  0
VERTEX
  8
T06SSILL
 62
8
 10
-493.473
 20
-105.519
 30
4632.280
 70
    32
  0
VERTEX
  8
T06SSILL
 62
8
 10
-482.824
 20
-119.422
 30
4632.280
 70
    32
  0
VERTEX
  8
T06SSILL
 62
8
 10
-476.594
 20
-130.192
 30
4632.280
 70
    32
  0
VERTEX
  8
T06SSILL
 62
8
 10
-479.735
 20
-133.555
 30
4632.280
 70
    32
  0
VERTEX
  8
T06SSILL
 62
8
 10
-485.807
 20
-132.719
 30
4632.280
 70
    32
  0
VERTEX
  8
T06SSILL
 62
8
 10
-494.012
 20
-128.733
 30
4632.280
 70
    32
  0
VERTEX
  8
T06SSILL
 62
8
 10
-496.974
 20
-132.534
 30
4632.280
 70
    32
  0
VERTEX
  8
T06SSILL
 62
8
 10
-496.386
 20
-141.145
 30
4632.280
 70
    32
  0
VERTEX
  8
T06SSILL
 62
8
 10
-477.708
 20
-171.608
 30
4632.280
 70
    32
  0
VERTEX
  8
T06SSILL
 62
8
 10
-468.673
 20
-193.523
 30
4632.280
 70
    32
  0
VERTEX
  8
T06SSILL
 62
8
 10
-478.696
 20
-193.418
 30
4632.280
 70
    32
  0
VERTEX
  8
T06SSILL
 62
8
 10
-485.504
 20
-188.016
 30
4632.280
 70
    32
  0
VERTEX
  8
T06SSILL
 62
8
 10
-511.944
 20
-153.915
 30
4632.280
 70
    32
  0
SEQEND
  8
T06SSILL
  0
POLYLINE
  8
T06SSILL
 62
8
 66
     1
 70
     9
  0
VERTEX
  8
T06SSILL
 62
8
 10
-478.290
 20
-138.995
 30
4632.280
 70
    32
  0
VERTEX
  8
T06SSILL
 62
8
 10
-476.109
 20
-136.606
 30
4632.280
 70
    32
  0
VERTEX
  8
T06SSILL
 62
8
 10
-473.557
 20
-137.028
 30
4632.280
 70
    32
  0
VERTEX
  8
T06SSILL
 62
8
 10
-464.998
 20
-153.847
 30
4632.280
 70
    32
  0
VERTEX
  8
T06SSILL
 62
8
 10
-457.095
 20
-164.868
 30
4632.280
 70
    32
  0
VERTEX
  8
T06SSILL
 62
8
 10
-461.734
 20
-167.803
 30
4632.280
 70
    32
  0
VERTEX
  8
T06SSILL
 62
8
 10
-470.449
 20
-153.798
 30
4632.280
 70
    32
  0
SEQEND
  8
T06SSILL
  0
POLYLINE
  8
T06SSILL
 62
8
 66
     1
 70
     9
  0
VERTEX
  8
T06SSILL
 62
8
 10
-475.451
 20
-415.910
 30
4632.280
 70
    32
  0
VERTEX
  8
T06SSILL
 62
8
 10
-478.111
 20
-425.160
 30
4632.280
 70
    32
  0
VERTEX
  8
T06SSILL
 62
8
 10
-454.986
 20
-450.492
 30
4632.280
 70
    32
  0
VERTEX
  8
T06SSILL
 62
8
 10
-230.125
 20
-843.995
 30
4632.280
 70
    32
  0
VERTEX
  8
T06SSILL
 62
8
 10
-224.587
 20
-843.956
 30
4632.280
 70
    32
  0
VERTEX
  8
T06SSILL
 62
8
 10
-188.905
 20
-817.329
 30
4632.280
 70
    32
  0
VERTEX
  8
T06SSILL
 62
8
 10
-215.799
 20
-781.298
 30
4632.280
 70
    32
  0
VERTEX
  8
T06SSILL
 62
8
 10
-210.461
 20
-777.831
 30
4632.280
 70
    32
  0
VERTEX
  8
T06SSILL
 62
8
 10
-221.026
 20
-763.224
 30
4632.280
 70
    32
  0
VERTEX
  8
T06SSILL
 62
8
 10
-216.127
 20
-759.849
 30
4632.280
 70
    32
  0
VERTEX
  8
T06SSILL
 62
8
 10
-223.403
 20
-750.317
 30
4632.280
 70
    32
  0
VERTEX
  8
T06SSILL
 62
8
 10
-218.417
 20
-746.765
 30
4632.280
 70
    32
  0
VERTEX
  8
T06SSILL
 62
8
 10
-225.697
 20
-736.707
 30
4632.280
 70
    32
  0
VERTEX
  8
T06SSILL
 62
8
 10
-220.798
 20
-733.331
 30
4632.280
 70
    32
  0
VERTEX
  8
T06SSILL
 62
8
 10
-227.546
 20
-723.972
 30
4632.280
 70
    32
  0
VERTEX
  8
T06SSILL
 62
8
 10
-223.347
 20
-720.953
 30
4632.280
 70
    32
  0
VERTEX
  8
T06SSILL
 62
8
 10
-251.233
 20
-681.324
 30
4632.280
 70
    32
  0
VERTEX
  8
T06SSILL
 62
8
 10
-245.721
 20
-677.593
 30
4632.280
 70
    32
  0
VERTEX
  8
T06SSILL
 62
8
 10
-259.752
 20
-657.823
 30
4632.280
 70
    32
  0
VERTEX
  8
T06SSILL
 62
8
 10
-265.001
 20
-661.465
 30
4632.280
 70
    32
  0
VERTEX
  8
T06SSILL
 62
8
 10
-300.334
 20
-613.010
 30
4632.280
 70
    32
  0
VERTEX
  8
T06SSILL
 62
8
 10
-294.472
 20
-609.012
 30
4632.280
 70
    32
  0
VERTEX
  8
T06SSILL
 62
8
 10
-305.568
 20
-593.969
 30
4632.280
 70
    32
  0
VERTEX
  8
T06SSILL
 62
8
 10
-299.963
 20
-590.940
 30
4632.280
 70
    32
  0
VERTEX
  8
T06SSILL
 62
8
 10
-317.368
 20
-566.447
 30
4632.280
 70
    32
  0
VERTEX
  8
T06SSILL
 62
8
 10
-312.116
 20
-563.157
 30
4632.280
 70
    32
  0
VERTEX
  8
T06SSILL
 62
8
 10
-319.663
 20
-552.748
 30
4632.280
 70
    32
  0
VERTEX
  8
T06SSILL
 62
8
 10
-314.935
 20
-549.901
 30
4632.280
 70
    32
  0
VERTEX
  8
T06SSILL
 62
8
 10
-321.776
 20
-539.839
 30
4632.280
 70
    32
  0
VERTEX
  8
T06SSILL
 62
8
 10
-316.698
 20
-536.814
 30
4632.280
 70
    32
  0
VERTEX
  8
T06SSILL
 62
8
 10
-327.176
 20
-522.206
 30
4632.280
 70
    32
  0
VERTEX
  8
T06SSILL
 62
8
 10
-322.451
 20
-519.008
 30
4632.280
 70
    32
  0
VERTEX
  8
T06SSILL
 62
8
 10
-364.983
 20
-459.614
 30
4632.280
 70
    32
  0
VERTEX
  8
T06SSILL
 62
8
 10
-345.472
 20
-446.289
 30
4632.280
 70
    32
  0
VERTEX
  8
T06SSILL
 62
8
 10
-362.535
 20
-420.474
 30
4632.280
 70
    32
  0
VERTEX
  8
T06SSILL
 62
8
 10
-373.297
 20
-427.759
 30
4632.280
 70
    32
  0
VERTEX
  8
T06SSILL
 62
8
 10
-376.498
 20
-422.683
 30
4632.280
 70
    32
  0
VERTEX
  8
T06SSILL
 62
8
 10
-381.221
 20
-426.057
 30
4632.280
 70
    32
  0
VERTEX
  8
T06SSILL
 62
8
 10
-387.884
 20
-416.346
 30
4632.280
 70
    32
  0
VERTEX
  8
T06SSILL
 62
8
 10
-383.334
 20
-413.236
 30
4632.280
 70
    32
  0
VERTEX
  8
T06SSILL
 62
8
 10
-390.706
 20
-402.651
 30
4632.280
 70
    32
  0
VERTEX
  8
T06SSILL
 62
8
 10
-385.713
 20
-400.066
 30
4632.280
 70
    32
  0
VERTEX
  8
T06SSILL
 62
8
 10
-395.672
 20
-384.224
 30
4632.280
 70
    32
  0
VERTEX
  8
T06SSILL
 62
8
 10
-381.150
 20
-374.011
 30
4632.280
 70
    32
  0
VERTEX
  8
T06SSILL
 62
8
 10
-393.387
 20
-359.239
 30
4632.280
 70
    32
  0
VERTEX
  8
T06SSILL
 62
8
 10
-402.917
 20
-366.692
 30
4632.280
 70
    32
  0
VERTEX
  8
T06SSILL
 62
8
 10
-407.003
 20
-360.830
 30
4632.280
 70
    32
  0
SEQEND
  8
T06SSILL
  0
POLYLINE
  8
T06SSILL
 62
8
 66
     1
 70
     9
  0
VERTEX
  8
T06SSILL
 62
8
 10
-122.650
 20
-489.725
 30
4632.280
 70
    32
  0
VERTEX
  8
T06SSILL
 62
8
 10
-146.749
 20
-488.313
 30
4632.280
 70
    32
  0
VERTEX
  8
T06SSILL
 62
8
 10
-166.612
 20
-489.157
 30
4632.280
 70
    32
  0
VERTEX
  8
T06SSILL
 62
8
 10
-188.195
 20
-495.376
 30
4632.280
 70
    32
  0
VERTEX
  8
T06SSILL
 62
8
 10
-225.616
 20
-512.169
 30
4632.280
 70
    32
  0
VERTEX
  8
T06SSILL
 62
8
 10
-241.283
 20
-522.038
 30
4632.280
 70
    32
  0
VERTEX
  8
T06SSILL
 62
8
 10
-249.321
 20
-529.128
 30
4632.280
 70
    32
  0
VERTEX
  8
T06SSILL
 62
8
 10
-256.862
 20
-531.995
 30
4632.280
 70
    32
  0
VERTEX
  8
T06SSILL
 62
8
 10
-298.307
 20
-501.957
 30
4632.280
 70
    32
  0
VERTEX
  8
T06SSILL
 62
8
 10
-302.304
 20
-496.183
 30
4632.280
 70
    32
  0
VERTEX
  8
T06SSILL
 62
8
 10
-282.622
 20
-482.153
 30
4632.280
 70
    32
  0
VERTEX
  8
T06SSILL
 62
8
 10
-286.259
 20
-477.607
 30
4632.280
 70
    32
  0
VERTEX
  8
T06SSILL
 62
8
 10
-281.359
 20
-474.320
 30
4632.280
 70
    32
  0
VERTEX
  8
T06SSILL
 62
8
 10
-288.112
 20
-464.257
 30
4632.280
 70
    32
  0
VERTEX
  8
T06SSILL
 62
8
 10
-283.300
 20
-460.882
 30
4632.280
 70
    32
  0
VERTEX
  8
T06SSILL
 62
8
 10
-296.629
 20
-440.932
 30
4632.280
 70
    32
  0
VERTEX
  8
T06SSILL
 62
8
 10
-292.077
 20
-438.086
 30
4632.280
 70
    32
  0
VERTEX
  8
T06SSILL
 62
8
 10
-307.078
 20
-417.884
 30
4632.280
 70
    32
  0
VERTEX
  8
T06SSILL
 62
8
 10
-315.820
 20
-424.979
 30
4632.280
 70
    32
  0
VERTEX
  8
T06SSILL
 62
8
 10
-336.870
 20
-394.709
 30
4632.280
 70
    32
  0
VERTEX
  8
T06SSILL
 62
8
 10
-317.098
 20
-380.942
 30
4632.280
 70
    32
  0
VERTEX
  8
T06SSILL
 62
8
 10
-320.822
 20
-376.485
 30
4632.280
 70
    32
  0
VERTEX
  8
T06SSILL
 62
8
 10
-315.922
 20
-373.285
 30
4632.280
 70
    32
  0
VERTEX
  8
T06SSILL
 62
8
 10
-326.757
 20
-357.801
 30
4632.280
 70
    32
  0
VERTEX
  8
T06SSILL
 62
8
 10
-316.340
 20
-351.397
 30
4632.280
 70
    32
  0
VERTEX
  8
T06SSILL
 62
8
 10
-330.632
 20
-331.981
 30
4632.280
 70
    32
  0
VERTEX
  8
T06SSILL
 62
8
 10
-340.254
 20
-338.906
 30
4632.280
 70
    32
  0
VERTEX
  8
T06SSILL
 62
8
 10
-337.317
 20
-343.985
 30
4632.280
 70
    32
  0
VERTEX
  8
T06SSILL
 62
8
 10
-366.541
 20
-363.709
 30
4632.280
 70
    32
  0
VERTEX
  8
T06SSILL
 62
8
 10
-371.862
 20
-357.153
 30
4632.280
 70
    32
  0
VERTEX
  8
T06SSILL
 62
8
 10
-367.229
 20
-353.515
 30
4632.280
 70
    32
  0
VERTEX
  8
T06SSILL
 62
8
 10
-370.686
 20
-349.496
 30
4632.280
 70
    32
  0
VERTEX
  8
T06SSILL
 62
8
 10
-347.525
 20
-330.078
 30
4632.280
 70
    32
  0
VERTEX
  8
T06SSILL
 62
8
 10
-351.692
 20
-325.185
 30
4632.280
 70
    32
  0
VERTEX
  8
T06SSILL
 62
8
 10
-347.148
 20
-321.284
 30
4632.280
 70
    32
  0
VERTEX
  8
T06SSILL
 62
8
 10
-346.508
 20
-312.312
 30
4632.280
 70
    32
  0
VERTEX
  8
T06SSILL
 62
8
 10
-287.939
 20
-265.126
 30
4632.280
 70
    32
  0
VERTEX
  8
T06SSILL
 62
8
 10
-283.112
 20
-263.861
 30
4632.280
 70
    32
  0
VERTEX
  8
T06SSILL
 62
8
 10
-258.316
 20
-289.269
 30
4632.280
 70
    32
  0
VERTEX
  8
T06SSILL
 62
8
 10
-180.587
 20
-377.866
 30
4632.280
 70
    32
  0
VERTEX
  8
T06SSILL
 62
8
 10
-145.291
 20
-445.751
 30
4632.280
 70
    32
  0
SEQEND
  8
T06SSILL
  0
POLYLINE
  8
T06SSILL
 62
8
 66
     1
 70
     9
  0
VERTEX
  8
T06SSILL
 62
8
 10
-235.712
 20
-650.796
 30
4632.280
 70
    32
  0
VERTEX
  8
T06SSILL
 62
8
 10
-244.499
 20
-639.077
 30
4632.280
 70
    32
  0
VERTEX
  8
T06SSILL
 62
8
 10
-239.336
 20
-635.700
 30
4632.280
 70
    32
  0
VERTEX
  8
T06SSILL
 62
8
 10
-249.901
 20
-621.093
 30
4632.280
 70
    32
  0
VERTEX
  8
T06SSILL
 62
8
 10
-235.644
 20
-610.705
 30
4632.280
 70
    32
  0
VERTEX
  8
T06SSILL
 62
8
 10
-242.836
 20
-600.822
 30
4632.280
 70
    32
  0
VERTEX
  8
T06SSILL
 62
8
 10
-252.459
 20
-607.572
 30
4632.280
 70
    32
  0
VERTEX
  8
T06SSILL
 62
8
 10
-258.860
 20
-597.419
 30
4632.280
 70
    32
  0
VERTEX
  8
T06SSILL
 62
8
 10
-244.513
 20
-587.383
 30
4632.280
 70
    32
  0
VERTEX
  8
T06SSILL
 62
8
 10
-274.171
 20
-545.920
 30
4632.280
 70
    32
  0
VERTEX
  8
T06SSILL
 62
8
 10
-149.858
 20
-496.159
 30
4632.280
 70
    32
  0
VERTEX
  8
T06SSILL
 62
8
 10
-145.464
 20
-495.952
 30
4632.280
 70
    32
  0
VERTEX
  8
T06SSILL
 62
8
 10
-135.377
 20
-505.024
 30
4632.280
 70
    32
  0
VERTEX
  8
T06SSILL
 62
8
 10
-129.333
 20
-514.301
 30
4632.280
 70
    32
  0
VERTEX
  8
T06SSILL
 62
8
 10
-120.485
 20
-534.634
 30
4632.280
 70
    32
  0
VERTEX
  8
T06SSILL
 62
8
 10
-121.779
 20
-550.556
 30
4632.280
 70
    32
  0
VERTEX
  8
T06SSILL
 62
8
 10
-124.696
 20
-560.775
 30
4632.280
 70
    32
  0
VERTEX
  8
T06SSILL
 62
8
 10
-141.044
 20
-586.211
 30
4632.280
 70
    32
  0
VERTEX
  8
T06SSILL
 62
8
 10
-147.531
 20
-588.894
 30
4632.280
 70
    32
  0
VERTEX
  8
T06SSILL
 62
8
 10
-150.486
 20
-568.958
 30
4632.280
 70
    32
  0
VERTEX
  8
T06SSILL
 62
8
 10
-155.396
 20
-570.839
 30
4632.280
 70
    32
  0
VERTEX
  8
T06SSILL
 62
8
 10
-179.905
 20
-523.890
 30
4632.280
 70
    32
  0
VERTEX
  8
T06SSILL
 62
8
 10
-185.758
 20
-529.206
 30
4632.280
 70
    32
  0
VERTEX
  8
T06SSILL
 62
8
 10
-168.778
 20
-580.605
 30
4632.280
 70
    32
  0
VERTEX
  8
T06SSILL
 62
8
 10
-164.637
 20
-606.686
 30
4632.280
 70
    32
  0
SEQEND
  8
T06SSILL
  0
POLYLINE
  8
T06SSILL
 62
8
 66
     1
 70
     9
  0
VERTEX
  8
T06SSILL
 62
8
 10
-113.108
 20
-508.735
 30
4632.280
 70
    32
  0
VERTEX
  8
T06SSILL
 62
8
 10
-113.765
 20
-527.641
 30
4632.280
 70
    32
  0
VERTEX
  8
T06SSILL
 62
8
 10
-103.340
 20
-534.953
 30
4632.280
 70
    32
  0
VERTEX
  8
T06SSILL
 62
8
 10
-99.128
 20
-533.780
 30
4632.280
 70
    32
  0
SEQEND
  8
T06SSILL
  0
POLYLINE
  8
T06SSILL
 62
8
 66
     1
 70
     9
  0
VERTEX
  8
T06SSILL
 62
8
 10
-114.491
 20
-536.966
 30
4632.280
 70
    32
  0
VERTEX
  8
T06SSILL
 62
8
 10
-114.394
 20
-550.680
 30
4632.280
 70
    32
  0
VERTEX
  8
T06SSILL
 62
8
 10
-118.443
 20
-562.313
 30
4632.280
 70
    32
  0
VERTEX
  8
T06SSILL
 62
8
 10
-135.729
 20
-591.888
 30
4632.280
 70
    32
  0
VERTEX
  8
T06SSILL
 62
8
 10
-129.165
 20
-612.589
 30
4632.280
 70
    32
  0
VERTEX
  8
T06SSILL
 62
8
 10
-121.716
 20
-621.592
 30
4632.280
 70
    32
  0
VERTEX
  8
T06SSILL
 62
8
 10
-114.957
 20
-632.534
 30
4632.280
 70
    32
  0
VERTEX
  8
T06SSILL
 62
8
 10
-106.824
 20
-638.894
 30
4632.280
 70
    32
  0
VERTEX
  8
T06SSILL
 62
8
 10
-99.506
 20
-641.831
 30
4632.280
 70
    32
  0
VERTEX
  8
T06SSILL
 62
8
 10
-89.521
 20
-636.574
 30
4632.280
 70
    32
  0
VERTEX
  8
T06SSILL
 62
8
 10
-58.433
 20
-681.367
 30
4632.280
 70
    32
  0
VERTEX
  8
T06SSILL
 62
8
 10
-61.818
 20
-687.545
 30
4632.280
 70
    32
  0
VERTEX
  8
T06SSILL
 62
8
 10
-80.160
 20
-704.642
 30
4632.280
 70
    32
  0
VERTEX
  8
T06SSILL
 62
8
 10
-68.019
 20
-730.667
 30
4632.280
 70
    32
  0
VERTEX
  8
T06SSILL
 62
8
 10
-46.237
 20
-715.304
 30
4632.280
 70
    32
  0
VERTEX
  8
T06SSILL
 62
8
 10
-54.495
 20
-703.669
 30
4632.280
 70
    32
  0
VERTEX
  8
T06SSILL
 62
8
 10
-45.917
 20
-698.334
 30
4632.280
 70
    32
  0
VERTEX
  8
T06SSILL
 62
8
 10
-25.529
 20
-697.134
 30
4632.280
 70
    32
  0
VERTEX
  8
T06SSILL
 62
8
 10
-19.581
 20
-692.872
 30
4632.280
 70
    32
  0
VERTEX
  8
T06SSILL
 62
8
 10
-15.935
 20
-686.253
 30
4632.280
 70
    32
  0
VERTEX
  8
T06SSILL
 62
8
 10
-89.586
 20
-552.790
 30
4632.280
 70
    32
  0
SEQEND
  8
T06SSILL
  0
POLYLINE
  8
T06SSILL
 62
8
 66
     1
 70
     9
  0
VERTEX
  8
T06SSILL
 62
8
 10
-231.889
 20
-656.923
 30
4632.280
 70
    32
  0
VERTEX
  8
T06SSILL
 62
8
 10
-223.366
 20
-668.643
 30
4632.280
 70
    32
  0
VERTEX
  8
T06SSILL
 62
8
 10
-227.998
 20
-672.456
 30
4632.280
 70
    32
  0
VERTEX
  8
T06SSILL
 62
8
 10
-217.258
 20
-686.886
 30
4632.280
 70
    32
  0
VERTEX
  8
T06SSILL
 62
8
 10
-221.541
 20
-690.521
 30
4632.280
 70
    32
  0
VERTEX
  8
T06SSILL
 62
8
 10
-197.475
 20
-724.462
 30
4632.280
 70
    32
  0
VERTEX
  8
T06SSILL
 62
8
 10
-202.375
 20
-727.838
 30
4632.280
 70
    32
  0
VERTEX
  8
T06SSILL
 62
8
 10
-198.821
 20
-733.000
 30
4632.280
 70
    32
  0
VERTEX
  8
T06SSILL
 62
8
 10
-203.720
 20
-736.463
 30
4632.280
 70
    32
  0
VERTEX
  8
T06SSILL
 62
8
 10
-193.417
 20
-751.248
 30
4632.280
 70
    32
  0
VERTEX
  8
T06SSILL
 62
8
 10
-198.667
 20
-754.802
 30
4632.280
 70
    32
  0
VERTEX
  8
T06SSILL
 62
8
 10
-165.276
 20
-802.128
 30
4632.280
 70
    32
  0
VERTEX
  8
T06SSILL
 62
8
 10
-92.157
 20
-748.509
 30
4632.280
 70
    32
  0
VERTEX
  8
T06SSILL
 62
8
 10
-104.921
 20
-721.434
 30
4632.280
 70
    32
  0
VERTEX
  8
T06SSILL
 62
8
 10
-110.394
 20
-718.307
 30
4632.280
 70
    32
  0
VERTEX
  8
T06SSILL
 62
8
 10
-125.532
 20
-691.073
 30
4632.280
 70
    32
  0
VERTEX
  8
T06SSILL
 62
8
 10
-131.272
 20
-675.113
 30
4632.280
 70
    32
  0
VERTEX
  8
T06SSILL
 62
8
 10
-144.283
 20
-650.412
 30
4632.280
 70
    32
  0
VERTEX
  8
T06SSILL
 62
8
 10
-149.883
 20
-641.748
 30
4632.280
 70
    32
  0
VERTEX
  8
T06SSILL
 62
8
 10
-154.133
 20
-637.383
 30
4632.280
 70
    32
  0
VERTEX
  8
T06SSILL
 62
8
 10
-163.614
 20
-614.591
 30
4632.280
 70
    32
  0
SEQEND
  8
T06SSILL
  0
POLYLINE
  8
T06SSILL
 62
8
 66
     1
 70
     9
  0
VERTEX
  8
T06SSILL
 62
8
 10
-66.266
 20
-568.450
 30
4632.280
 70
    32
  0
VERTEX
  8
T06SSILL
 62
8
 10
-69.438
 20
-567.417
 30
4632.280
 70
    32
  0
VERTEX
  8
T06SSILL
 62
8
 10
-72.741
 20
-572.804
 30
4632.280
 70
    32
  0
VERTEX
  8
T06SSILL
 62
8
 10
-33.351
 20
-647.869
 30
4632.280
 70
    32
  0
VERTEX
  8
T06SSILL
 62
8
 10
24.552
 20
-742.496
 30
4632.280
 70
    32
  0
VERTEX
  8
T06SSILL
 62
8
 10
42.537
 20
-761.886
 30
4632.280
 70
    32
  0
VERTEX
  8
T06SSILL
 62
8
 10
53.533
 20
-762.863
 30
4632.280
 70
    32
  0
VERTEX
  8
T06SSILL
 62
8
 10
109.254
 20
-723.083
 30
4632.280
 70
    32
  0
VERTEX
  8
T06SSILL
 62
8
 10
112.719
 20
-728.157
 30
4632.280
 70
    32
  0
VERTEX
  8
T06SSILL
 62
8
 10
58.572
 20
-766.784
 30
4632.280
 70
    32
  0
VERTEX
  8
T06SSILL
 62
8
 10
58.722
 20
-775.575
 30
4632.280
 70
    32
  0
VERTEX
  8
T06SSILL
 62
8
 10
190.912
 20
-869.940
 30
4632.280
 70
    32
  0
VERTEX
  8
T06SSILL
 62
8
 10
208.000
 20
-849.598
 30
4632.280
 70
    32
  0
VERTEX
  8
T06SSILL
 62
8
 10
256.838
 20
-781.382
 30
4632.280
 70
    32
  0
VERTEX
  8
T06SSILL
 62
8
 10
15.170
 20
-621.766
 30
4632.280
 70
    32
  0
SEQEND
  8
T06SSILL
  0
POLYLINE
  8
T06SSILL
 62
8
 66
     1
 70
     9
  0
VERTEX
  8
T06SSILL
 62
8
 10
19.932
 20
-785.256
 30
4632.280
 70
    32
  0
VERTEX
  8
T06SSILL
 62
8
 10
11.571
 20
-771.600
 30
4632.280
 70
    32
  0
VERTEX
  8
T06SSILL
 62
8
 10
11.275
 20
-767.031
 30
4632.280
 70
    32
  0
VERTEX
  8
T06SSILL
 62
8
 10
15.485
 20
-765.594
 30
4632.280
 70
    32
  0
VERTEX
  8
T06SSILL
 62
8
 10
24.834
 20
-769.836
 30
4632.280
 70
    32
  0
VERTEX
  8
T06SSILL
 62
8
 10
27.110
 20
-768.413
 30
4632.280
 70
    32
  0
VERTEX
  8
T06SSILL
 62
8
 10
20.802
 20
-746.743
 30
4632.280
 70
    32
  0
VERTEX
  8
T06SSILL
 62
8
 10
8.262
 20
-726.435
 30
4632.280
 70
    32
  0
VERTEX
  8
T06SSILL
 62
8
 10
-7.407
 20
-711.161
 30
4632.280
 70
    32
  0
VERTEX
  8
T06SSILL
 62
8
 10
-17.194
 20
-707.186
 30
4632.280
 70
    32
  0
VERTEX
  8
T06SSILL
 62
8
 10
-25.365
 20
-707.859
 30
4632.280
 70
    32
  0
VERTEX
  8
T06SSILL
 62
8
 10
-62.713
 20
-735.113
 30
4632.280
 70
    32
  0
VERTEX
  8
T06SSILL
 62
8
 10
-62.851
 20
-740.389
 30
4632.280
 70
    32
  0
VERTEX
  8
T06SSILL
 62
8
 10
-55.099
 20
-755.017
 30
4632.280
 70
    32
  0
VERTEX
  8
T06SSILL
 62
8
 10
-44.709
 20
-782.021
 30
4632.280
 70
    32
  0
VERTEX
  8
T06SSILL
 62
8
 10
-34.305
 20
-798.739
 30
4632.280
 70
    32
  0
VERTEX
  8
T06SSILL
 62
8
 10
-21.003
 20
-814.910
 30
4632.280
 70
    32
  0
SEQEND
  8
T06SSILL
  0
POLYLINE
  8
T06SSILL
 62
8
 66
     1
 70
     9
  0
VERTEX
  8
T06SSILL
 62
8
 10
-70.339
 20
-850.074
 30
4632.280
 70
    32
  0
VERTEX
  8
T06SSILL
 62
8
 10
-41.903
 20
-830.707
 30
4632.280
 70
    32
  0
VERTEX
  8
T06SSILL
 62
8
 10
-51.627
 20
-810.819
 30
4632.280
 70
    32
  0
VERTEX
  8
T06SSILL
 62
8
 10
-62.099
 20
-796.914
 30
4632.280
 70
    32
  0
VERTEX
  8
T06SSILL
 62
8
 10
-76.361
 20
-769.409
 30
4632.280
 70
    32
  0
VERTEX
  8
T06SSILL
 62
8
 10
-84.537
 20
-756.983
 30
4632.280
 70
    32
  0
VERTEX
  8
T06SSILL
 62
8
 10
-87.634
 20
-754.192
 30
4632.280
 70
    32
  0
VERTEX
  8
T06SSILL
 62
8
 10
-161.103
 20
-807.813
 30
4632.280
 70
    32
  0
VERTEX
  8
T06SSILL
 62
8
 10
-157.108
 20
-813.411
 30
4632.280
 70
    32
  0
VERTEX
  8
T06SSILL
 62
8
 10
-151.514
 20
-808.800
 30
4632.280
 70
    32
  0
VERTEX
  8
T06SSILL
 62
8
 10
-148.314
 20
-813.701
 30
4632.280
 70
    32
  0
VERTEX
  8
T06SSILL
 62
8
 10
-138.258
 20
-805.981
 30
4632.280
 70
    32
  0
VERTEX
  8
T06SSILL
 62
8
 10
-130.975
 20
-816.391
 30
4632.280
 70
    32
  0
VERTEX
  8
T06SSILL
 62
8
 10
-126.166
 20
-812.665
 30
4632.280
 70
    32
  0
VERTEX
  8
T06SSILL
 62
8
 10
-119.147
 20
-823.077
 30
4632.280
 70
    32
  0
VERTEX
  8
T06SSILL
 62
8
 10
-104.547
 20
-811.545
 30
4632.280
 70
    32
  0
VERTEX
  8
T06SSILL
 62
8
 10
-90.952
 20
-831.845
 30
4632.280
 70
    32
  0
VERTEX
  8
T06SSILL
 62
8
 10
-85.530
 20
-827.763
 30
4632.280
 70
    32
  0
SEQEND
  8
T06SSILL
  0
POLYLINE
  8
T06SSILL
 62
8
 66
     1
 70
     9
  0
VERTEX
  8
T06SSILL
 62
8
 10
-220.863
 20
-848.326
 30
4632.280
 70
    32
  0
VERTEX
  8
T06SSILL
 62
8
 10
-184.212
 20
-822.131
 30
4632.280
 70
    32
  0
VERTEX
  8
T06SSILL
 62
8
 10
-178.557
 20
-826.135
 30
4632.280
 70
    32
  0
VERTEX
  8
T06SSILL
 62
8
 10
-168.472
 20
-847.427
 30
4632.280
 70
    32
  0
VERTEX
  8
T06SSILL
 62
8
 10
-138.379
 20
-888.271
 30
4632.280
 70
    32
  0
VERTEX
  8
T06SSILL
 62
8
 10
-143.362
 20
-892.350
 30
4632.280
 70
    32
  0
VERTEX
  8
T06SSILL
 62
8
 10
-139.549
 20
-896.895
 30
4632.280
 70
    32
  0
VERTEX
  8
T06SSILL
 62
8
 10
-144.186
 20
-900.093
 30
4632.280
 70
    32
  0
VERTEX
  8
T06SSILL
 62
8
 10
-140.900
 20
-904.817
 30
4632.280
 70
    32
  0
VERTEX
  8
T06SSILL
 62
8
 10
-139.989
 20
-909.206
 30
4632.280
 70
    32
  0
VERTEX
  8
T06SSILL
 62
8
 10
-153.536
 20
-920.556
 30
4632.280
 70
    32
  0
VERTEX
  8
T06SSILL
 62
8
 10
-165.310
 20
-921.518
 30
4632.280
 70
    32
  0
VERTEX
  8
T06SSILL
 62
8
 10
-180.892
 20
-918.551
 30
4632.280
 70
    32
  0
VERTEX
  8
T06SSILL
 62
8
 10
-202.434
 20
-880.988
 30
4632.280
 70
    32
  0
SEQEND
  8
T06SSILL
  0
POLYLINE
  8
T06SSILL
 62
8
 66
     1
 70
     9
  0
VERTEX
  8
T06SSILL
 62
8
 10
5.906
 20
-803.466
 30
4632.280
 70
    32
  0
VERTEX
  8
T06SSILL
 62
8
 10
-19.370
 20
-822.107
 30
4632.280
 70
    32
  0
VERTEX
  8
T06SSILL
 62
8
 10
-18.173
 20
-829.747
 30
4632.280
 70
    32
  0
VERTEX
  8
T06SSILL
 62
8
 10
-9.616
 20
-846.215
 30
4632.280
 70
    32
  0
VERTEX
  8
T06SSILL
 62
8
 10
13.562
 20
-879.020
 30
4632.280
 70
    32
  0
VERTEX
  8
T06SSILL
 62
8
 10
17.267
 20
-880.752
 30
4632.280
 70
    32
  0
VERTEX
  8
T06SSILL
 62
8
 10
21.818
 20
-877.906
 30
4632.280
 70
    32
  0
VERTEX
  8
T06SSILL
 62
8
 10
48.571
 20
-856.793
 30
4632.280
 70
    32
  0
VERTEX
  8
T06SSILL
 62
8
 10
45.174
 20
-848.904
 30
4632.280
 70
    32
  0
VERTEX
  8
T06SSILL
 62
8
 10
14.162
 20
-814.661
 30
4632.280
 70
    32
  0
SEQEND
  8
T06SSILL
  0
POLYLINE
  8
T06SSILL
 62
8
 66
     1
 70
     9
  0
VERTEX
  8
T06SSILL
 62
8
 10
-9.880
 20
-883.493
 30
4632.280
 70
    32
  0
VERTEX
  8
T06SSILL
 62
8
 10
-15.981
 20
-890.921
 30
4632.280
 70
    32
  0
VERTEX
  8
T06SSILL
 62
8
 10
-40.371
 20
-910.611
 30
4632.280
 70
    32
  0
VERTEX
  8
T06SSILL
 62
8
 10
-65.747
 20
-927.407
 30
4632.280
 70
    32
  0
VERTEX
  8
T06SSILL
 62
8
 10
-74.947
 20
-931.868
 30
4632.280
 70
    32
  0
VERTEX
  8
T06SSILL
 62
8
 10
-79.699
 20
-931.286
 30
4632.280
 70
    32
  0
VERTEX
  8
T06SSILL
 62
8
 10
-100.058
 20
-911.737
 30
4632.280
 70
    32
  0
VERTEX
  8
T06SSILL
 62
8
 10
-98.946
 20
-907.334
 30
4632.280
 70
    32
  0
VERTEX
  8
T06SSILL
 62
8
 10
-58.913
 20
-874.521
 30
4632.280
 70
    32
  0
VERTEX
  8
T06SSILL
 62
8
 10
-57.462
 20
-868.357
 30
4632.280
 70
    32
  0
VERTEX
  8
T06SSILL
 62
8
 10
-62.178
 20
-860.302
 30
4632.280
 70
    32
  0
VERTEX
  8
T06SSILL
 62
8
 10
-61.167
 20
-854.053
 30
4632.280
 70
    32
  0
VERTEX
  8
T06SSILL
 62
8
 10
-56.902
 20
-848.044
 30
4632.280
 70
    32
  0
VERTEX
  8
T06SSILL
 62
8
 10
-40.015
 20
-836.672
 30
4632.280
 70
    32
  0
VERTEX
  8
T06SSILL
 62
8
 10
-36.742
 20
-839.550
 30
4632.280
 70
    32
  0
VERTEX
  8
T06SSILL
 62
8
 10
-23.826
 20
-863.196
 30
4632.280
 70
    32
  0
SEQEND
  8
T06SSILL
  0
POLYLINE
  8
T06SSILL
 62
8
 66
     1
 70
     9
  0
VERTEX
  8
T06SSILL
 62
8
 10
-61.652
 20
-984.348
 30
4632.280
 70
    32
  0
VERTEX
  8
T06SSILL
 62
8
 10
-114.662
 20
-935.050
 30
4632.280
 70
    32
  0
VERTEX
  8
T06SSILL
 62
8
 10
-122.412
 20
-933.259
 30
4632.280
 70
    32
  0
VERTEX
  8
T06SSILL
 62
8
 10
-145.021
 20
-931.221
 30
4632.280
 70
    32
  0
VERTEX
  8
T06SSILL
 62
8
 10
-160.908
 20
-934.762
 30
4632.280
 70
    32
  0
VERTEX
  8
T06SSILL
 62
8
 10
-166.757
 20
-940.606
 30
4632.280
 70
    32
  0
VERTEX
  8
T06SSILL
 62
8
 10
-119.574
 20
-1023.704
 30
4632.280
 70
    32
  0
VERTEX
  8
T06SSILL
 62
8
 10
-94.706
 20
-1009.550
 30
4632.280
 70
    32
  0
SEQEND
  8
T06SSILL
  0
POLYLINE
  8
T06SSILL
 62
8
 66
     1
 70
     9
  0
VERTEX
  8
T06SSILL
 62
8
 10
140.776
 20
-841.634
 30
4632.280
 70
    32
  0
VERTEX
  8
T06SSILL
 62
8
 10
138.626
 20
-848.507
 30
4632.280
 70
    32
  0
VERTEX
  8
T06SSILL
 62
8
 10
86.833
 20
-884.303
 30
4632.280
 70
    32
  0
VERTEX
  8
T06SSILL
 62
8
 10
74.341
 20
-870.765
 30
4632.280
 70
    32
  0
VERTEX
  8
T06SSILL
 62
8
 10
74.355
 20
-860.303
 30
4632.280
 70
    32
  0
VERTEX
  8
T06SSILL
 62
8
 10
78.356
 20
-854.208
 30
4632.280
 70
    32
  0
VERTEX
  8
T06SSILL
 62
8
 10
76.473
 20
-849.035
 30
4632.280
 70
    32
  0
VERTEX
  8
T06SSILL
 62
8
 10
79.081
 20
-844.796
 30
4632.280
 70
    32
  0
VERTEX
  8
T06SSILL
 62
8
 10
92.126
 20
-837.055
 30
4632.280
 70
    32
  0
VERTEX
  8
T06SSILL
 62
8
 10
109.262
 20
-823.659
 30
4632.280
 70
    32
  0
VERTEX
  8
T06SSILL
 62
8
 10
117.442
 20
-824.128
 30
4632.280
 70
    32
  0
SEQEND
  8
T06SSILL
  0
POLYLINE
  8
T06SSILL
 62
8
 66
     1
 70
     9
  0
VERTEX
  8
T06SSILL
 62
8
 10
182.838
 20
-871.931
 30
4632.280
 70
    32
  0
VERTEX
  8
T06SSILL
 62
8
 10
183.413
 20
-878.697
 30
4632.280
 70
    32
  0
VERTEX
  8
T06SSILL
 62
8
 10
181.258
 20
-884.690
 30
4632.280
 70
    32
  0
VERTEX
  8
T06SSILL
 62
8
 10
167.003
 20
-895.341
 30
4632.280
 70
    32
  0
VERTEX
  8
T06SSILL
 62
8
 10
157.255
 20
-896.905
 30
4632.280
 70
    32
  0
VERTEX
  8
T06SSILL
 62
8
 10
147.712
 20
-902.511
 30
4632.280
 70
    32
  0
VERTEX
  8
T06SSILL
 62
8
 10
140.722
 20
-908.539
 30
4632.280
 70
    32
  0
VERTEX
  8
T06SSILL
 62
8
 10
127.309
 20
-901.600
 30
4632.280
 70
    32
  0
VERTEX
  8
T06SSILL
 62
8
 10
120.755
 20
-894.701
 30
4632.280
 70
    32
  0
VERTEX
  8
T06SSILL
 62
8
 10
100.982
 20
-908.380
 30
4632.280
 70
    32
  0
VERTEX
  8
T06SSILL
 62
8
 10
94.579
 20
-897.964
 30
4632.280
 70
    32
  0
VERTEX
  8
T06SSILL
 62
8
 10
107.572
 20
-883.014
 30
4632.280
 70
    32
  0
VERTEX
  8
T06SSILL
 62
8
 10
137.985
 20
-857.303
 30
4632.280
 70
    32
  0
VERTEX
  8
T06SSILL
 62
8
 10
148.240
 20
-852.835
 30
4632.280
 70
    32
  0
VERTEX
  8
T06SSILL
 62
8
 10
157.474
 20
-853.297
 30
4632.280
 70
    32
  0
SEQEND
  8
T06SSILL
  0
POLYLINE
  8
T06SSILL
 62
8
 66
     1
 70
     9
  0
VERTEX
  8
T06SSILL
 62
8
 10
194.763
 20
-879.935
 30
4632.280
 70
    32
  0
VERTEX
  8
T06SSILL
 62
8
 10
187.517
 20
-899.504
 30
4632.280
 70
    32
  0
VERTEX
  8
T06SSILL
 62
8
 10
203.870
 20
-924.532
 30
4632.280
 70
    32
  0
VERTEX
  8
T06SSILL
 62
8
 10
211.714
 20
-951.994
 30
4632.280
 70
    32
  0
VERTEX
  8
T06SSILL
 62
8
 10
221.515
 20
-958.079
 30
4632.280
 70
    32
  0
VERTEX
  8
T06SSILL
 62
8
 10
232.580
 20
-956.242
 30
4632.280
 70
    32
  0
VERTEX
  8
T06SSILL
 62
8
 10
256.382
 20
-940.601
 30
4632.280
 70
    32
  0
VERTEX
  8
T06SSILL
 62
8
 10
262.436
 20
-938.799
 30
4632.280
 70
    32
  0
VERTEX
  8
T06SSILL
 62
8
 10
268.558
 20
-934.272
 30
4632.280
 70
    32
  0
SEQEND
  8
T06SSILL
  0
POLYLINE
  8
T06SSILL
 62
8
 66
     1
 70
     9
  0
VERTEX
  8
T06SSILL
 62
8
 10
320.056
 20
-981.119
 30
4632.280
 70
    32
  0
VERTEX
  8
T06SSILL
 62
8
 10
315.599
 20
-997.239
 30
4632.280
 70
    32
  0
VERTEX
  8
T06SSILL
 62
8
 10
284.681
 20
-1013.722
 30
4632.280
 70
    32
  0
VERTEX
  8
T06SSILL
 62
8
 10
275.372
 20
-1015.107
 30
4632.280
 70
    32
  0
VERTEX
  8
T06SSILL
 62
8
 10
262.178
 20
-1014.233
 30
4632.280
 70
    32
  0
VERTEX
  8
T06SSILL
 62
8
 10
249.733
 20
-1007.288
 30
4632.280
 70
    32
  0
VERTEX
  8
T06SSILL
 62
8
 10
228.139
 20
-987.132
 30
4632.280
 70
    32
  0
VERTEX
  8
T06SSILL
 62
8
 10
222.975
 20
-978.025
 30
4632.280
 70
    32
  0
VERTEX
  8
T06SSILL
 62
8
 10
252.814
 20
-958.121
 30
4632.280
 70
    32
  0
VERTEX
  8
T06SSILL
 62
8
 10
261.726
 20
-950.321
 30
4632.280
 70
    32
  0
VERTEX
  8
T06SSILL
 62
8
 10
269.089
 20
-947.192
 30
4632.280
 70
    32
  0
VERTEX
  8
T06SSILL
 62
8
 10
276.590
 20
-951.183
 30
4632.280
 70
    32
  0
SEQEND
  8
T06SSILL
  0
POLYLINE
  8
T06SSILL
 62
8
 66
     1
 70
     9
  0
VERTEX
  8
T06SSILL
 62
8
 10
-23.007
 20
-978.975
 30
4632.280
 70
    32
  0
VERTEX
  8
T06SSILL
 62
8
 10
-25.359
 20
-982.069
 30
4632.280
 70
    32
  0
VERTEX
  8
T06SSILL
 62
8
 10
-23.303
 20
-986.802
 30
4632.280
 70
    32
  0
VERTEX
  8
T06SSILL
 62
8
 10
-10.727
 20
-999.812
 30
4632.280
 70
    32
  0
VERTEX
  8
T06SSILL
 62
8
 10
-0.996
 20
-1008.271
 30
4632.280
 70
    32
  0
VERTEX
  8
T06SSILL
 62
8
 10
14.996
 20
-1019.587
 30
4632.280
 70
    32
  0
VERTEX
  8
T06SSILL
 62
8
 10
27.529
 20
-1026.444
 30
4632.280
 70
    32
  0
VERTEX
  8
T06SSILL
 62
8
 10
38.696
 20
-1026.716
 30
4632.280
 70
    32
  0
VERTEX
  8
T06SSILL
 62
8
 10
50.417
 20
-1018.193
 30
4632.280
 70
    32
  0
VERTEX
  8
T06SSILL
 62
8
 10
66.390
 20
-1001.904
 30
4632.280
 70
    32
  0
VERTEX
  8
T06SSILL
 62
8
 10
62.847
 20
-985.752
 30
4632.280
 70
    32
  0
VERTEX
  8
T06SSILL
 62
8
 10
33.265
 20
-942.531
 30
4632.280
 70
    32
  0
VERTEX
  8
T06SSILL
 62
8
 10
27.789
 20
-938.965
 30
4632.280
 70
    32
  0
VERTEX
  8
T06SSILL
 62
8
 10
1.393
 20
-960.868
 30
4632.280
 70
    32
  0
SEQEND
  8
T06SSILL
  0
POLYLINE
  8
T06SSILL
 62
8
 66
     1
 70
     9
  0
VERTEX
  8
T06SSILL
 62
8
 10
-8.913
 20
-995.316
 30
4632.280
 70
    32
  0
VERTEX
  8
T06SSILL
 62
8
 10
2.091
 20
-984.864
 30
4632.280
 70
    32
  0
VERTEX
  8
T06SSILL
 62
8
 10
20.743
 20
-974.358
 30
4632.280
 70
    32
  0
VERTEX
  8
T06SSILL
 62
8
 10
24.521
 20
-974.067
 30
4632.280
 70
    32
  0
VERTEX
  8
T06SSILL
 62
8
 10
26.252
 20
-982.671
 30
4632.280
 70
    32
  0
VERTEX
  8
T06SSILL
 62
8
 10
9.817
 20
-995.798
 30
4632.280
 70
    32
  0
VERTEX
  8
T06SSILL
 62
8
 10
-5.267
 20
-1001.180
 30
4632.280
 70
    32
  0
SEQEND
  8
T06SSILL
  0
POLYLINE
  8
T06SSILL
 62
8
 66
     1
 70
     9
  0
VERTEX
  8
T06SSILL
 62
8
 10
266.998
 20
-788.431
 30
4632.280
 70
    32
  0
VERTEX
  8
T06SSILL
 62
8
 10
256.584
 20
-795.186
 30
4632.280
 70
    32
  0
VERTEX
  8
T06SSILL
 62
8
 10
249.175
 20
-804.206
 30
4632.280
 70
    32
  0
VERTEX
  8
T06SSILL
 62
8
 10
244.051
 20
-813.210
 30
4632.280
 70
    32
  0
VERTEX
  8
T06SSILL
 62
8
 10
226.464
 20
-837.423
 30
4632.280
 70
    32
  0
VERTEX
  8
T06SSILL
 62
8
 10
224.421
 20
-846.933
 30
4632.280
 70
    32
  0
VERTEX
  8
T06SSILL
 62
8
 10
218.251
 20
-857.087
 30
4632.280
 70
    32
  0
VERTEX
  8
T06SSILL
 62
8
 10
211.849
 20
-859.330
 30
4632.280
 70
    32
  0
VERTEX
  8
T06SSILL
 62
8
 10
206.880
 20
-865.255
 30
4632.280
 70
    32
  0
VERTEX
  8
T06SSILL
 62
8
 10
210.030
 20
-875.607
 30
4632.280
 70
    32
  0
VERTEX
  8
T06SSILL
 62
8
 10
215.450
 20
-883.657
 30
4632.280
 70
    32
  0
VERTEX
  8
T06SSILL
 62
8
 10
239.687
 20
-904.585
 30
4632.280
 70
    32
  0
VERTEX
  8
T06SSILL
 62
8
 10
244.762
 20
-901.209
 30
4632.280
 70
    32
  0
VERTEX
  8
T06SSILL
 62
8
 10
259.502
 20
-884.576
 30
4632.280
 70
    32
  0
VERTEX
  8
T06SSILL
 62
8
 10
278.805
 20
-854.196
 30
4632.280
 70
    32
  0
VERTEX
  8
T06SSILL
 62
8
 10
301.910
 20
-826.955
 30
4632.280
 70
    32
  0
VERTEX
  8
T06SSILL
 62
8
 10
316.037
 20
-823.162
 30
4632.280
 70
    32
  0
VERTEX
  8
T06SSILL
 62
8
 10
316.287
 20
-821.226
 30
4632.280
 70
    32
  0
SEQEND
  8
T06SSILL
  0
POLYLINE
  8
T06SSILL
 62
8
 66
     1
 70
     9
  0
VERTEX
  8
T06SSILL
 62
8
 10
324.677
 20
-826.618
 30
4632.280
 70
    32
  0
VERTEX
  8
T06SSILL
 62
8
 10
306.351
 20
-833.341
 30
4632.280
 70
    32
  0
VERTEX
  8
T06SSILL
 62
8
 10
276.473
 20
-872.587
 30
4632.280
 70
    32
  0
VERTEX
  8
T06SSILL
 62
8
 10
275.489
 20
-882.617
 30
4632.280
 70
    32
  0
VERTEX
  8
T06SSILL
 62
8
 10
269.670
 20
-892.680
 30
4632.280
 70
    32
  0
VERTEX
  8
T06SSILL
 62
8
 10
259.760
 20
-896.091
 30
4632.280
 70
    32
  0
VERTEX
  8
T06SSILL
 62
8
 10
252.702
 20
-905.109
 30
4632.280
 70
    32
  0
VERTEX
  8
T06SSILL
 62
8
 10
254.011
 20
-916.089
 30
4632.280
 70
    32
  0
VERTEX
  8
T06SSILL
 62
8
 10
273.893
 20
-930.454
 30
4632.280
 70
    32
  0
VERTEX
  8
T06SSILL
 62
8
 10
279.655
 20
-924.699
 30
4632.280
 70
    32
  0
VERTEX
  8
T06SSILL
 62
8
 10
285.137
 20
-929.056
 30
4632.280
 70
    32
  0
VERTEX
  8
T06SSILL
 62
8
 10
282.365
 20
-934.966
 30
4632.280
 70
    32
  0
VERTEX
  8
T06SSILL
 62
8
 10
294.191
 20
-928.904
 30
4632.280
 70
    32
  0
VERTEX
  8
T06SSILL
 62
8
 10
301.442
 20
-922.347
 30
4632.280
 70
    32
  0
VERTEX
  8
T06SSILL
 62
8
 10
333.479
 20
-877.723
 30
4632.280
 70
    32
  0
VERTEX
  8
T06SSILL
 62
8
 10
343.203
 20
-860.334
 30
4632.280
 70
    32
  0
VERTEX
  8
T06SSILL
 62
8
 10
347.428
 20
-848.699
 30
4632.280
 70
    32
  0
VERTEX
  8
T06SSILL
 62
8
 10
345.084
 20
-840.540
 30
4632.280
 70
    32
  0
SEQEND
  8
T06SSILL
  0
POLYLINE
  8
T06SSILL
 62
8
 66
     1
 70
     9
  0
VERTEX
  8
T06SSILL
 62
8
 10
46.072
 20
-1214.479
 30
4632.280
 70
    32
  0
VERTEX
  8
T06SSILL
 62
8
 10
38.330
 20
-1214.659
 30
4632.280
 70
    32
  0
VERTEX
  8
T06SSILL
 62
8
 10
8.906
 20
-1235.540
 30
4632.280
 70
    32
  0
VERTEX
  8
T06SSILL
 62
8
 10
-9.458
 20
-1225.756
 30
4632.280
 70
    32
  0
VERTEX
  8
T06SSILL
 62
8
 10
-35.983
 20
-1181.320
 30
4632.280
 70
    32
  0
VERTEX
  8
T06SSILL
 62
8
 10
-31.890
 20
-1168.787
 30
4632.280
 70
    32
  0
VERTEX
  8
T06SSILL
 62
8
 10
-26.482
 20
-1164.799
 30
4632.280
 70
    32
  0
VERTEX
  8
T06SSILL
 62
8
 10
1.467
 20
-1150.148
 30
4632.280
 70
    32
  0
VERTEX
  8
T06SSILL
 62
8
 10
16.449
 20
-1139.139
 30
4632.280
 70
    32
  0
VERTEX
  8
T06SSILL
 62
8
 10
25.186
 20
-1128.151
 30
4632.280
 70
    32
  0
VERTEX
  8
T06SSILL
 62
8
 10
43.353
 20
-1115.417
 30
4632.280
 70
    32
  0
VERTEX
  8
T06SSILL
 62
8
 10
75.851
 20
-1193.250
 30
4632.280
 70
    32
  0
SEQEND
  8
T06SSILL
  0
POLYLINE
  8
T06SSILL
 62
8
 66
     1
 70
     9
  0
VERTEX
  8
T06SSILL
 62
8
 10
276.405
 20
-1026.800
 30
4632.280
 70
    32
  0
VERTEX
  8
T06SSILL
 62
8
 10
282.646
 20
-1035.399
 30
4632.280
 70
    32
  0
VERTEX
  8
T06SSILL
 62
8
 10
285.591
 20
-1056.011
 30
4632.280
 70
    32
  0
VERTEX
  8
T06SSILL
 62
8
 10
292.216
 20
-1069.714
 30
4632.280
 70
    32
  0
VERTEX
  8
T06SSILL
 62
8
 10
301.312
 20
-1082.653
 30
4632.280
 70
    32
  0
VERTEX
  8
T06SSILL
 62
8
 10
307.360
 20
-1084.564
 30
4632.280
 70
    32
  0
VERTEX
  8
T06SSILL
 62
8
 10
371.688
 20
-1032.044
 30
4632.280
 70
    32
  0
VERTEX
  8
T06SSILL
 62
8
 10
372.978
 20
-1026.517
 30
4632.280
 70
    32
  0
VERTEX
  8
T06SSILL
 62
8
 10
370.355
 20
-1016.903
 30
4632.280
 70
    32
  0
VERTEX
  8
T06SSILL
 62
8
 10
341.752
 20
-1002.260
 30
4632.280
 70
    32
  0
VERTEX
  8
T06SSILL
 62
8
 10
332.448
 20
-1000.577
 30
4632.280
 70
    32
  0
VERTEX
  8
T06SSILL
 62
8
 10
288.713
 20
-1019.105
 30
4632.280
 70
    32
  0
SEQEND
  8
T06SSILL
  0
POLYLINE
  8
T06SSILL
 62
8
 66
     1
 70
     9
  0
VERTEX
  8
T06SSILL
 62
8
 10
284.416
 20
-1099.886
 30
4632.280
 70
    32
  0
VERTEX
  8
T06SSILL
 62
8
 10
214.976
 20
-1153.494
 30
4632.280
 70
    32
  0
VERTEX
  8
T06SSILL
 62
8
 10
191.986
 20
-1173.124
 30
4632.280
 70
    32
  0
VERTEX
  8
T06SSILL
 62
8
 10
176.173
 20
-1179.639
 30
4632.280
 70
    32
  0
VERTEX
  8
T06SSILL
 62
8
 10
161.403
 20
-1162.682
 30
4632.280
 70
    32
  0
VERTEX
  8
T06SSILL
 62
8
 10
152.733
 20
-1142.800
 30
4632.280
 70
    32
  0
VERTEX
  8
T06SSILL
 62
8
 10
155.718
 20
-1135.092
 30
4632.280
 70
    32
  0
VERTEX
  8
T06SSILL
 62
8
 10
212.944
 20
-1105.099
 30
4632.280
 70
    32
  0
VERTEX
  8
T06SSILL
 62
8
 10
218.303
 20
-1097.505
 30
4632.280
 70
    32
  0
VERTEX
  8
T06SSILL
 62
8
 10
214.800
 20
-1087.881
 30
4632.280
 70
    32
  0
VERTEX
  8
T06SSILL
 62
8
 10
206.389
 20
-1084.888
 30
4632.280
 70
    32
  0
VERTEX
  8
T06SSILL
 62
8
 10
163.890
 20
-1103.078
 30
4632.280
 70
    32
  0
VERTEX
  8
T06SSILL
 62
8
 10
151.507
 20
-1109.541
 30
4632.280
 70
    32
  0
VERTEX
  8
T06SSILL
 62
8
 10
139.476
 20
-1107.829
 30
4632.280
 70
    32
  0
VERTEX
  8
T06SSILL
 62
8
 10
125.904
 20
-1069.425
 30
4632.280
 70
    32
  0
VERTEX
  8
T06SSILL
 62
8
 10
137.245
 20
-1061.631
 30
4632.280
 70
    32
  0
VERTEX
  8
T06SSILL
 62
8
 10
139.875
 20
-1054.271
 30
4632.280
 70
    32
  0
VERTEX
  8
T06SSILL
 62
8
 10
135.653
 20
-1046.135
 30
4632.280
 70
    32
  0
VERTEX
  8
T06SSILL
 62
8
 10
137.477
 20
-1031.818
 30
4632.280
 70
    32
  0
VERTEX
  8
T06SSILL
 62
8
 10
156.989
 20
-1016.724
 30
4632.280
 70
    32
  0
VERTEX
  8
T06SSILL
 62
8
 10
213.264
 20
-985.138
 30
4632.280
 70
    32
  0
VERTEX
  8
T06SSILL
 62
8
 10
239.330
 20
-1006.702
 30
4632.280
 70
    32
  0
VERTEX
  8
T06SSILL
 62
8
 10
244.373
 20
-1036.747
 30
4632.280
 70
    32
  0
VERTEX
  8
T06SSILL
 62
8
 10
216.647
 20
-1055.095
 30
4632.280
 70
    32
  0
VERTEX
  8
T06SSILL
 62
8
 10
224.099
 20
-1065.553
 30
4632.280
 70
    32
  0
VERTEX
  8
T06SSILL
 62
8
 10
248.657
 20
-1047.259
 30
4632.280
 70
    32
  0
SEQEND
  8
T06SSILL
  0
POLYLINE
  8
T06SSILL
 62
8
 66
     1
 70
     9
  0
VERTEX
  8
T06SSILL
 62
8
 10
89.431
 20
-1165.340
 30
4632.280
 70
    32
  0
VERTEX
  8
T06SSILL
 62
8
 10
89.122
 20
-1161.290
 30
4632.280
 70
    32
  0
VERTEX
  8
T06SSILL
 62
8
 10
91.442
 20
-1158.237
 30
4632.280
 70
    32
  0
VERTEX
  8
T06SSILL
 62
8
 10
125.668
 20
-1148.842
 30
4632.280
 70
    32
  0
VERTEX
  8
T06SSILL
 62
8
 10
133.057
 20
-1148.745
 30
4632.280
 70
    32
  0
VERTEX
  8
T06SSILL
 62
8
 10
136.562
 20
-1149.926
 30
4632.280
 70
    32
  0
VERTEX
  8
T06SSILL
 62
8
 10
151.617
 20
-1197.669
 30
4632.280
 70
    32
  0
VERTEX
  8
T06SSILL
 62
8
 10
150.138
 20
-1204.337
 30
4632.280
 70
    32
  0
VERTEX
  8
T06SSILL
 62
8
 10
126.710
 20
-1223.875
 30
4632.280
 70
    32
  0
VERTEX
  8
T06SSILL
 62
8
 10
119.012
 20
-1228.190
 30
4632.280
 70
    32
  0
VERTEX
  8
T06SSILL
 62
8
 10
114.462
 20
-1225.942
 30
4632.280
 70
    32
  0
VERTEX
  8
T06SSILL
 62
8
 10
103.546
 20
-1202.342
 30
4632.280
 70
    32
  0
VERTEX
  8
T06SSILL
 62
8
 10
93.874
 20
-1177.524
 30
4632.280
 70
    32
  0
SEQEND
  8
T06SSILL
  0
POLYLINE
  8
T06SSILL
 62
8
 66
     1
 70
     9
  0
VERTEX
  8
T06SSILL
 62
8
 10
48.547
 20
-1221.453
 30
4632.280
 70
    32
  0
VERTEX
  8
T06SSILL
 62
8
 10
15.317
 20
-1244.667
 30
4632.280
 70
    32
  0
VERTEX
  8
T06SSILL
 62
8
 10
8.657
 20
-1258.756
 30
4632.280
 70
    32
  0
VERTEX
  8
T06SSILL
 62
8
 10
76.087
 20
-1376.190
 30
4632.280
 70
    32
  0
VERTEX
  8
T06SSILL
 62
8
 10
84.929
 20
-1379.979
 30
4632.280
 70
    32
  0
VERTEX
  8
T06SSILL
 62
8
 10
95.587
 20
-1378.510
 30
4632.280
 70
    32
  0
VERTEX
  8
T06SSILL
 62
8
 10
108.334
 20
-1370.819
 30
4632.280
 70
    32
  0
VERTEX
  8
T06SSILL
 62
8
 10
130.158
 20
-1353.288
 30
4632.280
 70
    32
  0
VERTEX
  8
T06SSILL
 62
8
 10
132.698
 20
-1346.103
 30
4632.280
 70
    32
  0
VERTEX
  8
T06SSILL
 62
8
 10
113.861
 20
-1290.140
 30
4632.280
 70
    32
  0
VERTEX
  8
T06SSILL
 62
8
 10
86.150
 20
-1217.019
 30
4632.280
 70
    32
  0
SEQEND
  8
T06SSILL
  0
POLYLINE
  8
T06SSILL
 62
8
 66
     1
 70
     9
  0
VERTEX
  8
T06SSILL
 62
8
 10
133.136
 20
-1264.313
 30
4632.280
 70
    32
  0
VERTEX
  8
T06SSILL
 62
8
 10
133.359
 20
-1251.739
 30
4632.280
 70
    32
  0
VERTEX
  8
T06SSILL
 62
8
 10
142.548
 20
-1239.612
 30
4632.280
 70
    32
  0
VERTEX
  8
T06SSILL
 62
8
 10
193.534
 20
-1192.754
 30
4632.280
 70
    32
  0
VERTEX
  8
T06SSILL
 62
8
 10
227.584
 20
-1166.998
 30
4632.280
 70
    32
  0
VERTEX
  8
T06SSILL
 62
8
 10
263.704
 20
-1136.779
 30
4632.280
 70
    32
  0
VERTEX
  8
T06SSILL
 62
8
 10
349.130
 20
-1068.742
 30
4632.280
 70
    32
  0
VERTEX
  8
T06SSILL
 62
8
 10
357.720
 20
-1063.293
 30
4632.280
 70
    32
  0
VERTEX
  8
T06SSILL
 62
8
 10
368.624
 20
-1079.857
 30
4632.280
 70
    32
  0
VERTEX
  8
T06SSILL
 62
8
 10
365.985
 20
-1088.096
 30
4632.280
 70
    32
  0
VERTEX
  8
T06SSILL
 62
8
 10
326.280
 20
-1116.342
 30
4632.280
 70
    32
  0
VERTEX
  8
T06SSILL
 62
8
 10
302.665
 20
-1136.845
 30
4632.280
 70
    32
  0
VERTEX
  8
T06SSILL
 62
8
 10
274.129
 20
-1165.211
 30
4632.280
 70
    32
  0
VERTEX
  8
T06SSILL
 62
8
 10
270.850
 20
-1175.729
 30
4632.280
 70
    32
  0
VERTEX
  8
T06SSILL
 62
8
 10
272.264
 20
-1183.220
 30
4632.280
 70
    32
  0
VERTEX
  8
T06SSILL
 62
8
 10
278.921
 20
-1194.022
 30
4632.280
 70
    32
  0
VERTEX
  8
T06SSILL
 62
8
 10
280.529
 20
-1199.844
 30
4632.280
 70
    32
  0
VERTEX
  8
T06SSILL
 62
8
 10
277.280
 20
-1207.549
 30
4632.280
 70
    32
  0
VERTEX
  8
T06SSILL
 62
8
 10
196.025
 20
-1239.307
 30
4632.280
 70
    32
  0
VERTEX
  8
T06SSILL
 62
8
 10
170.040
 20
-1251.165
 30
4632.280
 70
    32
  0
SEQEND
  8
T06SSILL
  0
POLYLINE
  8
T06SSILL
 62
8
 66
     1
 70
     9
  0
VERTEX
  8
T06SSILL
 62
8
 10
371.468
 20
-1052.535
 30
4632.280
 70
    32
  0
VERTEX
  8
T06SSILL
 62
8
 10
376.483
 20
-1060.592
 30
4632.280
 70
    32
  0
VERTEX
  8
T06SSILL
 62
8
 10
392.115
 20
-1070.962
 30
4632.280
 70
    32
  0
VERTEX
  8
T06SSILL
 62
8
 10
403.499
 20
-1059.123
 30
4632.280
 70
    32
  0
VERTEX
  8
T06SSILL
 62
8
 10
409.379
 20
-1060.329
 30
4632.280
 70
    32
  0
VERTEX
  8
T06SSILL
 62
8
 10
412.956
 20
-1054.827
 30
4632.280
 70
    32
  0
VERTEX
  8
T06SSILL
 62
8
 10
411.525
 20
-1048.831
 30
4632.280
 70
    32
  0
VERTEX
  8
T06SSILL
 62
8
 10
403.008
 20
-1039.329
 30
4632.280
 70
    32
  0
VERTEX
  8
T06SSILL
 62
8
 10
394.890
 20
-1033.613
 30
4632.280
 70
    32
  0
SEQEND
  8
T06SSILL
  0
POLYLINE
  8
T06SSILL
 62
8
 66
     1
 70
     9
  0
VERTEX
  8
T06SSILL
 62
8
 10
465.322
 20
-1084.324
 30
4632.280
 70
    32
  0
VERTEX
  8
T06SSILL
 62
8
 10
469.650
 20
-1098.971
 30
4632.280
 70
    32
  0
VERTEX
  8
T06SSILL
 62
8
 10
430.996
 20
-1127.668
 30
4632.280
 70
    32
  0
VERTEX
  8
T06SSILL
 62
8
 10
426.725
 20
-1124.104
 30
4632.280
 70
    32
  0
VERTEX
  8
T06SSILL
 62
8
 10
430.367
 20
-1120.713
 30
4632.280
 70
    32
  0
VERTEX
  8
T06SSILL
 62
8
 10
418.634
 20
-1107.658
 30
4632.280
 70
    32
  0
VERTEX
  8
T06SSILL
 62
8
 10
422.527
 20
-1105.501
 30
4632.280
 70
    32
  0
VERTEX
  8
T06SSILL
 62
8
 10
401.465
 20
-1076.603
 30
4632.280
 70
    32
  0
VERTEX
  8
T06SSILL
 62
8
 10
420.156
 20
-1055.959
 30
4632.280
 70
    32
  0
VERTEX
  8
T06SSILL
 62
8
 10
426.747
 20
-1056.470
 30
4632.280
 70
    32
  0
VERTEX
  8
T06SSILL
 62
8
 10
442.538
 20
-1068.425
 30
4632.280
 70
    32
  0
SEQEND
  8
T06SSILL
  0
POLYLINE
  8
T06SSILL
 62
8
 66
     1
 70
     9
  0
VERTEX
  8
T06SSILL
 62
8
 10
466.573
 20
-1131.655
 30
4632.280
 70
    32
  0
VERTEX
  8
T06SSILL
 62
8
 10
461.634
 20
-1124.742
 30
4632.280
 70
    32
  0
VERTEX
  8
T06SSILL
 62
8
 10
452.682
 20
-1122.975
 30
4632.280
 70
    32
  0
VERTEX
  8
T06SSILL
 62
8
 10
424.656
 20
-1144.750
 30
4632.280
 70
    32
  0
VERTEX
  8
T06SSILL
 62
8
 10
424.873
 20
-1149.150
 30
4632.280
 70
    32
  0
VERTEX
  8
T06SSILL
 62
8
 10
435.284
 20
-1154.275
 30
4632.280
 70
    32
  0
VERTEX
  8
T06SSILL
 62
8
 10
440.028
 20
-1154.765
 30
4632.280
 70
    32
  0
VERTEX
  8
T06SSILL
 62
8
 10
453.407
 20
-1145.586
 30
4632.280
 70
    32
  0
SEQEND
  8
T06SSILL
  0
POLYLINE
  8
T06SSILL
 62
8
 66
     1
 70
     9
  0
VERTEX
  8
T06SSILL
 62
8
 10
522.837
 20
-1166.736
 30
4632.280
 70
    32
  0
VERTEX
  8
T06SSILL
 62
8
 10
522.262
 20
-1154.768
 30
4632.280
 70
    32
  0
VERTEX
  8
T06SSILL
 62
8
 10
519.431
 20
-1139.874
 30
4632.280
 70
    32
  0
VERTEX
  8
T06SSILL
 62
8
 10
514.156
 20
-1131.550
 30
4632.280
 70
    32
  0
VERTEX
  8
T06SSILL
 62
8
 10
510.913
 20
-1130.460
 30
4632.280
 70
    32
  0
VERTEX
  8
T06SSILL
 62
8
 10
506.560
 20
-1134.547
 30
4632.280
 70
    32
  0
VERTEX
  8
T06SSILL
 62
8
 10
505.144
 20
-1143.503
 30
4632.280
 70
    32
  0
VERTEX
  8
T06SSILL
 62
8
 10
502.365
 20
-1148.486
 30
4632.280
 70
    32
  0
VERTEX
  8
T06SSILL
 62
8
 10
497.511
 20
-1150.017
 30
4632.280
 70
    32
  0
VERTEX
  8
T06SSILL
 62
8
 10
506.181
 20
-1169.899
 30
4632.280
 70
    32
  0
VERTEX
  8
T06SSILL
 62
8
 10
511.784
 20
-1172.246
 30
4632.280
 70
    32
  0
SEQEND
  8
T06SSILL
  0
POLYLINE
  8
T06SSILL
 62
8
 66
     1
 70
     9
  0
VERTEX
  8
T06SSILL
 62
8
 10
138.793
 20
-1286.274
 30
4632.280
 70
    32
  0
VERTEX
  8
T06SSILL
 62
8
 10
150.675
 20
-1277.254
 30
4632.280
 70
    32
  0
VERTEX
  8
T06SSILL
 62
8
 10
218.351
 20
-1256.960
 30
4632.280
 70
    32
  0
VERTEX
  8
T06SSILL
 62
8
 10
231.608
 20
-1250.946
 30
4632.280
 70
    32
  0
VERTEX
  8
T06SSILL
 62
8
 10
236.049
 20
-1255.127
 30
4632.280
 70
    32
  0
VERTEX
  8
T06SSILL
 62
8
 10
238.585
 20
-1272.833
 30
4632.280
 70
    32
  0
VERTEX
  8
T06SSILL
 62
8
 10
252.193
 20
-1307.895
 30
4632.280
 70
    32
  0
VERTEX
  8
T06SSILL
 62
8
 10
262.734
 20
-1341.957
 30
4632.280
 70
    32
  0
VERTEX
  8
T06SSILL
 62
8
 10
259.965
 20
-1345.885
 30
4632.280
 70
    32
  0
VERTEX
  8
T06SSILL
 62
8
 10
224.276
 20
-1352.275
 30
4632.280
 70
    32
  0
VERTEX
  8
T06SSILL
 62
8
 10
188.812
 20
-1370.540
 30
4632.280
 70
    32
  0
VERTEX
  8
T06SSILL
 62
8
 10
174.874
 20
-1374.436
 30
4632.280
 70
    32
  0
VERTEX
  8
T06SSILL
 62
8
 10
166.023
 20
-1363.259
 30
4632.280
 70
    32
  0
VERTEX
  8
T06SSILL
 62
8
 10
160.588
 20
-1345.171
 30
4632.280
 70
    32
  0
VERTEX
  8
T06SSILL
 62
8
 10
148.179
 20
-1313.112
 30
4632.280
 70
    32
  0
SEQEND
  8
T06SSILL
  0
POLYLINE
  8
T06SSILL
 62
8
 66
     1
 70
     9
  0
VERTEX
  8
T06SSILL
 62
8
 10
382.125
 20
-1100.318
 30
4632.280
 70
    32
  0
VERTEX
  8
T06SSILL
 62
8
 10
376.008
 20
-1096.647
 30
4632.280
 70
    32
  0
VERTEX
  8
T06SSILL
 62
8
 10
363.040
 20
-1108.469
 30
4632.280
 70
    32
  0
VERTEX
  8
T06SSILL
 62
8
 10
355.079
 20
-1120.960
 30
4632.280
 70
    32
  0
VERTEX
  8
T06SSILL
 62
8
 10
348.301
 20
-1137.862
 30
4632.280
 70
    32
  0
VERTEX
  8
T06SSILL
 62
8
 10
389.166
 20
-1190.016
 30
4632.280
 70
    32
  0
VERTEX
  8
T06SSILL
 62
8
 10
403.236
 20
-1190.255
 30
4632.280
 70
    32
  0
VERTEX
  8
T06SSILL
 62
8
 10
417.985
 20
-1184.520
 30
4632.280
 70
    32
  0
VERTEX
  8
T06SSILL
 62
8
 10
422.394
 20
-1175.245
 30
4632.280
 70
    32
  0
VERTEX
  8
T06SSILL
 62
8
 10
400.234
 20
-1142.113
 30
4632.280
 70
    32
  0
VERTEX
  8
T06SSILL
 62
8
 10
391.164
 20
-1118.533
 30
4632.280
 70
    32
  0
SEQEND
  8
T06SSILL
  0
POLYLINE
  8
T06SSILL
 62
8
 66
     1
 70
     9
  0
VERTEX
  8
T06SSILL
 62
8
 10
285.823
 20
-1337.632
 30
4632.280
 70
    32
  0
VERTEX
  8
T06SSILL
 62
8
 10
281.293
 20
-1308.999
 30
4632.280
 70
    32
  0
VERTEX
  8
T06SSILL
 62
8
 10
273.881
 20
-1286.668
 30
4632.280
 70
    32
  0
VERTEX
  8
T06SSILL
 62
8
 10
265.732
 20
-1267.407
 30
4632.280
 70
    32
  0
VERTEX
  8
T06SSILL
 62
8
 10
250.687
 20
-1243.323
 30
4632.280
 70
    32
  0
VERTEX
  8
T06SSILL
 62
8
 10
284.187
 20
-1227.851
 30
4632.280
 70
    32
  0
VERTEX
  8
T06SSILL
 62
8
 10
296.277
 20
-1224.023
 30
4632.280
 70
    32
  0
VERTEX
  8
T06SSILL
 62
8
 10
309.286
 20
-1216.511
 30
4632.280
 70
    32
  0
VERTEX
  8
T06SSILL
 62
8
 10
315.586
 20
-1203.210
 30
4632.280
 70
    32
  0
VERTEX
  8
T06SSILL
 62
8
 10
308.263
 20
-1188.972
 30
4632.280
 70
    32
  0
VERTEX
  8
T06SSILL
 62
8
 10
301.390
 20
-1181.950
 30
4632.280
 70
    32
  0
VERTEX
  8
T06SSILL
 62
8
 10
304.206
 20
-1173.625
 30
4632.280
 70
    32
  0
VERTEX
  8
T06SSILL
 62
8
 10
327.114
 20
-1145.199
 30
4632.280
 70
    32
  0
VERTEX
  8
T06SSILL
 62
8
 10
353.433
 20
-1184.179
 30
4632.280
 70
    32
  0
VERTEX
  8
T06SSILL
 62
8
 10
358.988
 20
-1199.191
 30
4632.280
 70
    32
  0
VERTEX
  8
T06SSILL
 62
8
 10
361.414
 20
-1219.006
 30
4632.280
 70
    32
  0
VERTEX
  8
T06SSILL
 62
8
 10
359.551
 20
-1228.748
 30
4632.280
 70
    32
  0
VERTEX
  8
T06SSILL
 62
8
 10
333.595
 20
-1237.880
 30
4632.280
 70
    32
  0
VERTEX
  8
T06SSILL
 62
8
 10
290.795
 20
-1267.676
 30
4632.280
 70
    32
  0
VERTEX
  8
T06SSILL
 62
8
 10
298.635
 20
-1315.693
 30
4632.280
 70
    32
  0
VERTEX
  8
T06SSILL
 62
8
 10
302.106
 20
-1320.128
 30
4632.280
 70
    32
  0
VERTEX
  8
T06SSILL
 62
8
 10
328.287
 20
-1314.604
 30
4632.280
 70
    32
  0
VERTEX
  8
T06SSILL
 62
8
 10
331.429
 20
-1316.837
 30
4632.280
 70
    32
  0
VERTEX
  8
T06SSILL
 62
8
 10
331.625
 20
-1323.171
 30
4632.280
 70
    32
  0
VERTEX
  8
T06SSILL
 62
8
 10
328.070
 20
-1326.563
 30
4632.280
 70
    32
  0
SEQEND
  8
T06SSILL
  0
POLYLINE
  8
T06SSILL
 62
8
 66
     1
 70
     9
  0
VERTEX
  8
T06SSILL
 62
8
 10
459.977
 20
-1238.181
 30
4632.280
 70
    32
  0
VERTEX
  8
T06SSILL
 62
8
 10
451.263
 20
-1222.432
 30
4632.280
 70
    32
  0
VERTEX
  8
T06SSILL
 62
8
 10
446.625
 20
-1220.272
 30
4632.280
 70
    32
  0
VERTEX
  8
T06SSILL
 62
8
 10
436.909
 20
-1224.125
 30
4632.280
 70
    32
  0
VERTEX
  8
T06SSILL
 62
8
 10
422.534
 20
-1235.932
 30
4632.280
 70
    32
  0
VERTEX
  8
T06SSILL
 62
8
 10
409.265
 20
-1243.090
 30
4632.280
 70
    32
  0
VERTEX
  8
T06SSILL
 62
8
 10
397.617
 20
-1246.659
 30
4632.280
 70
    32
  0
VERTEX
  8
T06SSILL
 62
8
 10
383.609
 20
-1248.883
 30
4632.280
 70
    32
  0
VERTEX
  8
T06SSILL
 62
8
 10
366.322
 20
-1261.626
 30
4632.280
 70
    32
  0
VERTEX
  8
T06SSILL
 62
8
 10
342.332
 20
-1276.145
 30
4632.280
 70
    32
  0
VERTEX
  8
T06SSILL
 62
8
 10
338.412
 20
-1280.764
 30
4632.280
 70
    32
  0
VERTEX
  8
T06SSILL
 62
8
 10
341.358
 20
-1284.929
 30
4632.280
 70
    32
  0
VERTEX
  8
T06SSILL
 62
8
 10
374.213
 20
-1272.089
 30
4632.280
 70
    32
  0
VERTEX
  8
T06SSILL
 62
8
 10
403.668
 20
-1256.486
 30
4632.280
 70
    32
  0
VERTEX
  8
T06SSILL
 62
8
 10
419.467
 20
-1251.291
 30
4632.280
 70
    32
  0
VERTEX
  8
T06SSILL
 62
8
 10
437.167
 20
-1249.282
 30
4632.280
 70
    32
  0
VERTEX
  8
T06SSILL
 62
8
 10
452.560
 20
-1249.095
 30
4632.280
 70
    32
  0
VERTEX
  8
T06SSILL
 62
8
 10
456.094
 20
-1247.638
 30
4632.280
 70
    32
  0
SEQEND
  8
T06SSILL
  0
POLYLINE
  8
T06SSILL
 62
8
 66
     1
 70
     9
  0
VERTEX
  8
T06SSILL
 62
8
 10
538.608
 20
-1172.358
 30
4632.280
 70
    32
  0
VERTEX
  8
T06SSILL
 62
8
 10
532.009
 20
-1172.639
 30
4632.280
 70
    32
  0
VERTEX
  8
T06SSILL
 62
8
 10
504.202
 20
-1182.191
 30
4632.280
 70
    32
  0
VERTEX
  8
T06SSILL
 62
8
 10
471.504
 20
-1196.704
 30
4632.280
 70
    32
  0
VERTEX
  8
T06SSILL
 62
8
 10
486.671
 20
-1217.623
 30
4632.280
 70
    32
  0
VERTEX
  8
T06SSILL
 62
8
 10
503.295
 20
-1233.896
 30
4632.280
 70
    32
  0
VERTEX
  8
T06SSILL
 62
8
 10
556.361
 20
-1222.768
 30
4632.280
 70
    32
  0
VERTEX
  8
T06SSILL
 62
8
 10
557.725
 20
-1218.561
 30
4632.280
 70
    32
  0
VERTEX
  8
T06SSILL
 62
8
 10
554.721
 20
-1211.669
 30
4632.280
 70
    32
  0
SEQEND
  8
T06SSILL
  0
POLYLINE
  8
T06SSILL
 62
8
 66
     1
 70
     9
  0
VERTEX
  8
T06SSILL
 62
8
 10
526.202
 20
-1123.676
 30
4632.280
 70
    32
  0
VERTEX
  8
T06SSILL
 62
8
 10
565.113
 20
-1218.553
 30
4632.280
 70
    32
  0
VERTEX
  8
T06SSILL
 62
8
 10
569.927
 20
-1245.341
 30
4632.280
 70
    32
  0
VERTEX
  8
T06SSILL
 62
8
 10
567.764
 20
-1250.155
 30
4632.280
 70
    32
  0
VERTEX
  8
T06SSILL
 62
8
 10
591.252
 20
-1356.300
 30
4632.280
 70
    32
  0
VERTEX
  8
T06SSILL
 62
8
 10
599.300
 20
-1360.344
 30
4632.280
 70
    32
  0
VERTEX
  8
T06SSILL
 62
8
 10
657.513
 20
-1328.515
 30
4632.280
 70
    32
  0
VERTEX
  8
T06SSILL
 62
8
 10
659.708
 20
-1320.623
 30
4632.280
 70
    32
  0
VERTEX
  8
T06SSILL
 62
8
 10
655.879
 20
-1316.888
 30
4632.280
 70
    32
  0
VERTEX
  8
T06SSILL
 62
8
 10
651.059
 20
-1307.074
 30
4632.280
 70
    32
  0
VERTEX
  8
T06SSILL
 62
8
 10
592.838
 20
-1175.666
 30
4632.280
 70
    32
  0
SEQEND
  8
T06SSILL
  0
POLYLINE
  8
T06SSILL
 62
8
 66
     1
 70
     9
  0
VERTEX
  8
T06SSILL
 62
8
 10
562.870
 20
-1337.438
 30
4632.280
 70
    32
  0
VERTEX
  8
T06SSILL
 62
8
 10
563.775
 20
-1343.252
 30
4632.280
 70
    32
  0
VERTEX
  8
T06SSILL
 62
8
 10
570.122
 20
-1341.913
 30
4632.280
 70
    32
  0
VERTEX
  8
T06SSILL
 62
8
 10
574.826
 20
-1362.544
 30
4632.280
 70
    32
  0
VERTEX
  8
T06SSILL
 62
8
 10
571.077
 20
-1367.693
 30
4632.280
 70
    32
  0
VERTEX
  8
T06SSILL
 62
8
 10
553.492
 20
-1375.332
 30
4632.280
 70
    32
  0
VERTEX
  8
T06SSILL
 62
8
 10
549.412
 20
-1378.543
 30
4632.280
 70
    32
  0
VERTEX
  8
T06SSILL
 62
8
 10
546.110
 20
-1374.813
 30
4632.280
 70
    32
  0
VERTEX
  8
T06SSILL
 62
8
 10
544.659
 20
-1370.752
 30
4632.280
 70
    32
  0
VERTEX
  8
T06SSILL
 62
8
 10
550.606
 20
-1365.627
 30
4632.280
 70
    32
  0
VERTEX
  8
T06SSILL
 62
8
 10
547.869
 20
-1358.473
 30
4632.280
 70
    32
  0
VERTEX
  8
T06SSILL
 62
8
 10
543.966
 20
-1353.330
 30
4632.280
 70
    32
  0
VERTEX
  8
T06SSILL
 62
8
 10
537.481
 20
-1351.150
 30
4632.280
 70
    32
  0
VERTEX
  8
T06SSILL
 62
8
 10
532.022
 20
-1351.707
 30
4632.280
 70
    32
  0
VERTEX
  8
T06SSILL
 62
8
 10
529.060
 20
-1349.037
 30
4632.280
 70
    32
  0
VERTEX
  8
T06SSILL
 62
8
 10
530.157
 20
-1345.178
 30
4632.280
 70
    32
  0
SEQEND
  8
T06SSILL
  0
POLYLINE
  8
T06SSILL
 62
8
 66
     1
 70
     9
  0
VERTEX
  8
T06SSILL
 62
8
 10
510.676
 20
-1349.279
 30
4632.280
 70
    32
  0
VERTEX
  8
T06SSILL
 62
8
 10
511.578
 20
-1355.357
 30
4632.280
 70
    32
  0
VERTEX
  8
T06SSILL
 62
8
 10
506.191
 20
-1357.410
 30
4632.280
 70
    32
  0
VERTEX
  8
T06SSILL
 62
8
 10
508.192
 20
-1367.634
 30
4632.280
 70
    32
  0
VERTEX
  8
T06SSILL
 62
8
 10
502.637
 20
-1368.982
 30
4632.280
 70
    32
  0
VERTEX
  8
T06SSILL
 62
8
 10
504.059
 20
-1375.769
 30
4632.280
 70
    32
  0
VERTEX
  8
T06SSILL
 62
8
 10
498.328
 20
-1377.115
 30
4632.280
 70
    32
  0
VERTEX
  8
T06SSILL
 62
8
 10
501.634
 20
-1388.672
 30
4632.280
 70
    32
  0
VERTEX
  8
T06SSILL
 62
8
 10
507.706
 20
-1396.565
 30
4632.280
 70
    32
  0
VERTEX
  8
T06SSILL
 62
8
 10
516.357
 20
-1401.847
 30
4632.280
 70
    32
  0
VERTEX
  8
T06SSILL
 62
8
 10
523.729
 20
-1403.245
 30
4632.280
 70
    32
  0
VERTEX
  8
T06SSILL
 62
8
 10
531.354
 20
-1397.610
 30
4632.280
 70
    32
  0
VERTEX
  8
T06SSILL
 62
8
 10
543.629
 20
-1384.725
 30
4632.280
 70
    32
  0
VERTEX
  8
T06SSILL
 62
8
 10
539.564
 20
-1378.349
 30
4632.280
 70
    32
  0
VERTEX
  8
T06SSILL
 62
8
 10
533.019
 20
-1381.709
 30
4632.280
 70
    32
  0
VERTEX
  8
T06SSILL
 62
8
 10
527.926
 20
-1381.038
 30
4632.280
 70
    32
  0
VERTEX
  8
T06SSILL
 62
8
 10
519.895
 20
-1367.144
 30
4632.280
 70
    32
  0
VERTEX
  8
T06SSILL
 62
8
 10
525.934
 20
-1353.488
 30
4632.280
 70
    32
  0
VERTEX
  8
T06SSILL
 62
8
 10
517.907
 20
-1347.510
 30
4632.280
 70
    32
  0
SEQEND
  8
T06SSILL
  0
POLYLINE
  8
T06SSILL
 62
8
 66
     1
 70
     9
  0
VERTEX
  8
T06SSILL
 62
8
 10
378.153
 20
-1298.341
 30
4632.280
 70
    32
  0
VERTEX
  8
T06SSILL
 62
8
 10
371.301
 20
-1297.564
 30
4632.280
 70
    32
  0
VERTEX
  8
T06SSILL
 62
8
 10
353.734
 20
-1303.620
 30
4632.280
 70
    32
  0
VERTEX
  8
T06SSILL
 62
8
 10
342.324
 20
-1309.654
 30
4632.280
 70
    32
  0
VERTEX
  8
T06SSILL
 62
8
 10
338.470
 20
-1316.385
 30
4632.280
 70
    32
  0
VERTEX
  8
T06SSILL
 62
8
 10
343.968
 20
-1320.401
 30
4632.280
 70
    32
  0
VERTEX
  8
T06SSILL
 62
8
 10
366.110
 20
-1314.131
 30
4632.280
 70
    32
  0
VERTEX
  8
T06SSILL
 62
8
 10
378.528
 20
-1312.593
 30
4632.280
 70
    32
  0
SEQEND
  8
T06SSILL
  0
POLYLINE
  8
T06SSILL
 62
8
 66
     1
 70
     9
  0
VERTEX
  8
T06SSILL
 62
8
 10
459.845
 20
-1307.924
 30
4632.280
 70
    32
  0
VERTEX
  8
T06SSILL
 62
8
 10
456.011
 20
-1304.541
 30
4632.280
 70
    32
  0
VERTEX
  8
T06SSILL
 62
8
 10
431.043
 20
-1303.658
 30
4632.280
 70
    32
  0
VERTEX
  8
T06SSILL
 62
8
 10
402.140
 20
-1325.159
 30
4632.280
 70
    32
  0
VERTEX
  8
T06SSILL
 62
8
 10
389.578
 20
-1331.973
 30
4632.280
 70
    32
  0
VERTEX
  8
T06SSILL
 62
8
 10
384.141
 20
-1330.507
 30
4632.280
 70
    32
  0
VERTEX
  8
T06SSILL
 62
8
 10
380.674
 20
-1333.900
 30
4632.280
 70
    32
  0
VERTEX
  8
T06SSILL
 62
8
 10
362.067
 20
-1338.538
 30
4632.280
 70
    32
  0
VERTEX
  8
T06SSILL
 62
8
 10
357.644
 20
-1340.865
 30
4632.280
 70
    32
  0
VERTEX
  8
T06SSILL
 62
8
 10
355.132
 20
-1345.499
 30
4632.280
 70
    32
  0
VERTEX
  8
T06SSILL
 62
8
 10
361.113
 20
-1361.834
 30
4632.280
 70
    32
  0
VERTEX
  8
T06SSILL
 62
8
 10
366.779
 20
-1366.556
 30
4632.280
 70
    32
  0
VERTEX
  8
T06SSILL
 62
8
 10
458.091
 20
-1348.363
 30
4632.280
 70
    32
  0
VERTEX
  8
T06SSILL
 62
8
 10
464.156
 20
-1340.512
 30
4632.280
 70
    32
  0
VERTEX
  8
T06SSILL
 62
8
 10
462.133
 20
-1332.399
 30
4632.280
 70
    32
  0
SEQEND
  8
T06SSILL
  0
POLYLINE
  8
T06SSILL
 62
8
 66
     1
 70
     9
  0
VERTEX
  8
T06SSILL
 62
8
 10
344.028
 20
-1363.938
 30
4632.280
 70
    32
  0
VERTEX
  8
T06SSILL
 62
8
 10
341.058
 20
-1370.238
 30
4632.280
 70
    32
  0
VERTEX
  8
T06SSILL
 62
8
 10
333.626
 20
-1374.380
 30
4632.280
 70
    32
  0
VERTEX
  8
T06SSILL
 62
8
 10
308.968
 20
-1377.370
 30
4632.280
 70
    32
  0
VERTEX
  8
T06SSILL
 62
8
 10
293.094
 20
-1381.333
 30
4632.280
 70
    32
  0
VERTEX
  8
T06SSILL
 62
8
 10
265.256
 20
-1393.787
 30
4632.280
 70
    32
  0
VERTEX
  8
T06SSILL
 62
8
 10
259.083
 20
-1395.304
 30
4632.280
 70
    32
  0
VERTEX
  8
T06SSILL
 62
8
 10
254.732
 20
-1390.948
 30
4632.280
 70
    32
  0
VERTEX
  8
T06SSILL
 62
8
 10
250.377
 20
-1378.764
 30
4632.280
 70
    32
  0
VERTEX
  8
T06SSILL
 62
8
 10
252.715
 20
-1374.040
 30
4632.280
 70
    32
  0
VERTEX
  8
T06SSILL
 62
8
 10
293.458
 20
-1363.747
 30
4632.280
 70
    32
  0
VERTEX
  8
T06SSILL
 62
8
 10
326.460
 20
-1353.723
 30
4632.280
 70
    32
  0
VERTEX
  8
T06SSILL
 62
8
 10
335.031
 20
-1349.945
 30
4632.280
 70
    32
  0
VERTEX
  8
T06SSILL
 62
8
 10
339.749
 20
-1352.898
 30
4632.280
 70
    32
  0
SEQEND
  8
T06SSILL
  0
POLYLINE
  8
T06SSILL
 62
8
 66
     1
 70
     9
  0
VERTEX
  8
T06SSILL
 62
8
 10
241.346
 20
-1474.533
 30
4632.280
 70
    32
  0
VERTEX
  8
T06SSILL
 62
8
 10
240.406
 20
-1480.240
 30
4632.280
 70
    32
  0
VERTEX
  8
T06SSILL
 62
8
 10
233.955
 20
-1491.253
 30
4632.280
 70
    32
  0
VERTEX
  8
T06SSILL
 62
8
 10
231.708
 20
-1503.893
 30
4632.280
 70
    32
  0
VERTEX
  8
T06SSILL
 62
8
 10
229.381
 20
-1507.650
 30
4632.280
 70
    32
  0
VERTEX
  8
T06SSILL
 62
8
 10
222.807
 20
-1513.824
 30
4632.280
 70
    32
  0
VERTEX
  8
T06SSILL
 62
8
 10
218.741
 20
-1515.716
 30
4632.280
 70
    32
  0
VERTEX
  8
T06SSILL
 62
8
 10
213.590
 20
-1512.142
 30
4632.280
 70
    32
  0
VERTEX
  8
T06SSILL
 62
8
 10
199.992
 20
-1476.112
 30
4632.280
 70
    32
  0
VERTEX
  8
T06SSILL
 62
8
 10
186.409
 20
-1430.584
 30
4632.280
 70
    32
  0
VERTEX
  8
T06SSILL
 62
8
 10
181.504
 20
-1412.326
 30
4632.280
 70
    32
  0
VERTEX
  8
T06SSILL
 62
8
 10
179.947
 20
-1401.667
 30
4632.280
 70
    32
  0
VERTEX
  8
T06SSILL
 62
8
 10
184.769
 20
-1394.859
 30
4632.280
 70
    32
  0
VERTEX
  8
T06SSILL
 62
8
 10
206.200
 20
-1389.372
 30
4632.280
 70
    32
  0
VERTEX
  8
T06SSILL
 62
8
 10
222.724
 20
-1382.161
 30
4632.280
 70
    32
  0
VERTEX
  8
T06SSILL
 62
8
 10
235.011
 20
-1384.668
 30
4632.280
 70
    32
  0
VERTEX
  8
T06SSILL
 62
8
 10
235.106
 20
-1400.324
 30
4632.280
 70
    32
  0
SEQEND
  8
T06SSILL
  0
POLYLINE
  8
T06SSILL
 62
8
 66
     1
 70
     9
  0
VERTEX
  8
T06SSILL
 62
8
 10
344.961
 20
-1408.099
 30
4632.280
 70
    32
  0
VERTEX
  8
T06SSILL
 62
8
 10
348.343
 20
-1404.441
 30
4632.280
 70
    32
  0
VERTEX
  8
T06SSILL
 62
8
 10
347.219
 20
-1402.582
 30
4632.280
 70
    32
  0
VERTEX
  8
T06SSILL
 62
8
 10
284.490
 20
-1412.727
 30
4632.280
 70
    32
  0
VERTEX
  8
T06SSILL
 62
8
 10
273.811
 20
-1416.131
 30
4632.280
 70
    32
  0
VERTEX
  8
T06SSILL
 62
8
 10
269.250
 20
-1423.206
 30
4632.280
 70
    32
  0
VERTEX
  8
T06SSILL
 62
8
 10
270.380
 20
-1432.629
 30
4632.280
 70
    32
  0
VERTEX
  8
T06SSILL
 62
8
 10
273.668
 20
-1437.677
 30
4632.280
 70
    32
  0
VERTEX
  8
T06SSILL
 62
8
 10
292.516
 20
-1451.600
 30
4632.280
 70
    32
  0
VERTEX
  8
T06SSILL
 62
8
 10
302.711
 20
-1444.057
 30
4632.280
 70
    32
  0
SEQEND
  8
T06SSILL
  0
POLYLINE
  8
T06SSILL
 62
8
 66
     1
 70
     9
  0
VERTEX
  8
T06SSILL
 62
8
 10
207.740
 20
-1606.539
 30
4632.280
 70
    32
  0
VERTEX
  8
T06SSILL
 62
8
 10
87.061
 20
-1394.426
 30
4632.280
 70
    32
  0
VERTEX
  8
T06SSILL
 62
8
 10
89.371
 20
-1392.252
 30
4632.280
 70
    32
  0
VERTEX
  8
T06SSILL
 62
8
 10
106.782
 20
-1384.347
 30
4632.280
 70
    32
  0
VERTEX
  8
T06SSILL
 62
8
 10
119.372
 20
-1374.896
 30
4632.280
 70
    32
  0
VERTEX
  8
T06SSILL
 62
8
 10
124.189
 20
-1368.615
 30
4632.280
 70
    32
  0
VERTEX
  8
T06SSILL
 62
8
 10
129.149
 20
-1365.414
 30
4632.280
 70
    32
  0
VERTEX
  8
T06SSILL
 62
8
 10
134.808
 20
-1354.393
 30
4632.280
 70
    32
  0
VERTEX
  8
T06SSILL
 62
8
 10
146.928
 20
-1388.736
 30
4632.280
 70
    32
  0
VERTEX
  8
T06SSILL
 62
8
 10
158.155
 20
-1432.568
 30
4632.280
 70
    32
  0
VERTEX
  8
T06SSILL
 62
8
 10
179.384
 20
-1495.153
 30
4632.280
 70
    32
  0
VERTEX
  8
T06SSILL
 62
8
 10
190.900
 20
-1520.254
 30
4632.280
 70
    32
  0
VERTEX
  8
T06SSILL
 62
8
 10
203.535
 20
-1539.387
 30
4632.280
 70
    32
  0
VERTEX
  8
T06SSILL
 62
8
 10
216.216
 20
-1554.299
 30
4632.280
 70
    32
  0
VERTEX
  8
T06SSILL
 62
8
 10
233.728
 20
-1586.149
 30
4632.280
 70
    32
  0
VERTEX
  8
T06SSILL
 62
8
 10
234.925
 20
-1589.328
 30
4632.280
 70
    32
  0
VERTEX
  8
T06SSILL
 62
8
 10
229.886
 20
-1591.737
 30
4632.280
 70
    32
  0
SEQEND
  8
T06SSILL
  0
POLYLINE
  8
T06SSILL
 62
8
 66
     1
 70
     9
  0
VERTEX
  8
T06SSILL
 62
8
 10
470.344
 20
-1378.574
 30
4632.280
 70
    32
  0
VERTEX
  8
T06SSILL
 62
8
 10
466.520
 20
-1374.311
 30
4632.280
 70
    32
  0
VERTEX
  8
T06SSILL
 62
8
 10
461.685
 20
-1374.083
 30
4632.280
 70
    32
  0
VERTEX
  8
T06SSILL
 62
8
 10
369.457
 20
-1420.323
 30
4632.280
 70
    32
  0
VERTEX
  8
T06SSILL
 62
8
 10
343.167
 20
-1444.227
 30
4632.280
 70
    32
  0
VERTEX
  8
T06SSILL
 62
8
 10
310.626
 20
-1476.860
 30
4632.280
 70
    32
  0
VERTEX
  8
T06SSILL
 62
8
 10
307.956
 20
-1488.001
 30
4632.280
 70
    32
  0
VERTEX
  8
T06SSILL
 62
8
 10
329.456
 20
-1517.079
 30
4632.280
 70
    32
  0
VERTEX
  8
T06SSILL
 62
8
 10
340.958
 20
-1527.141
 30
4632.280
 70
    32
  0
VERTEX
  8
T06SSILL
 62
8
 10
348.381
 20
-1532.058
 30
4632.280
 70
    32
  0
VERTEX
  8
T06SSILL
 62
8
 10
355.119
 20
-1527.029
 30
4632.280
 70
    32
  0
VERTEX
  8
T06SSILL
 62
8
 10
350.044
 20
-1516.421
 30
4632.280
 70
    32
  0
VERTEX
  8
T06SSILL
 62
8
 10
367.607
 20
-1502.537
 30
4632.280
 70
    32
  0
VERTEX
  8
T06SSILL
 62
8
 10
373.301
 20
-1504.621
 30
4632.280
 70
    32
  0
VERTEX
  8
T06SSILL
 62
8
 10
376.758
 20
-1510.375
 30
4632.280
 70
    32
  0
VERTEX
  8
T06SSILL
 62
8
 10
398.005
 20
-1497.410
 30
4632.280
 70
    32
  0
VERTEX
  8
T06SSILL
 62
8
 10
407.455
 20
-1485.551
 30
4632.280
 70
    32
  0
VERTEX
  8
T06SSILL
 62
8
 10
419.175
 20
-1475.210
 30
4632.280
 70
    32
  0
VERTEX
  8
T06SSILL
 62
8
 10
442.406
 20
-1465.961
 30
4632.280
 70
    32
  0
VERTEX
  8
T06SSILL
 62
8
 10
471.069
 20
-1450.349
 30
4632.280
 70
    32
  0
VERTEX
  8
T06SSILL
 62
8
 10
482.503
 20
-1442.117
 30
4632.280
 70
    32
  0
VERTEX
  8
T06SSILL
 62
8
 10
484.123
 20
-1430.524
 30
4632.280
 70
    32
  0
VERTEX
  8
T06SSILL
 62
8
 10
479.761
 20
-1410.777
 30
4632.280
 70
    32
  0
SEQEND
  8
T06SSILL
  0
POLYLINE
  8
T06SSILL
 62
8
 66
     1
 70
     9
  0
VERTEX
  8
T06SSILL
 62
8
 10
266.606
 20
-1513.855
 30
4632.280
 70
    32
  0
VERTEX
  8
T06SSILL
 62
8
 10
265.517
 20
-1508.742
 30
4632.280
 70
    32
  0
VERTEX
  8
T06SSILL
 62
8
 10
271.922
 20
-1502.038
 30
4632.280
 70
    32
  0
VERTEX
  8
T06SSILL
 62
8
 10
282.023
 20
-1495.111
 30
4632.280
 70
    32
  0
VERTEX
  8
T06SSILL
 62
8
 10
287.624
 20
-1497.633
 30
4632.280
 70
    32
  0
VERTEX
  8
T06SSILL
 62
8
 10
306.332
 20
-1516.480
 30
4632.280
 70
    32
  0
VERTEX
  8
T06SSILL
 62
8
 10
332.029
 20
-1539.622
 30
4632.280
 70
    32
  0
VERTEX
  8
T06SSILL
 62
8
 10
330.993
 20
-1545.944
 30
4632.280
 70
    32
  0
VERTEX
  8
T06SSILL
 62
8
 10
318.245
 20
-1553.723
 30
4632.280
 70
    32
  0
VERTEX
  8
T06SSILL
 62
8
 10
309.634
 20
-1561.194
 30
4632.280
 70
    32
  0
VERTEX
  8
T06SSILL
 62
8
 10
303.753
 20
-1560.075
 30
4632.280
 70
    32
  0
VERTEX
  8
T06SSILL
 62
8
 10
294.952
 20
-1552.417
 30
4632.280
 70
    32
  0
SEQEND
  8
T06SSILL
  0
POLYLINE
  8
T06SSILL
 62
8
 66
     1
 70
     9
  0
VERTEX
  8
T06SSILL
 62
8
 10
254.268
 20
-1532.544
 30
4632.280
 70
    32
  0
VERTEX
  8
T06SSILL
 62
8
 10
248.506
 20
-1528.612
 30
4632.280
 70
    32
  0
VERTEX
  8
T06SSILL
 62
8
 10
241.999
 20
-1528.454
 30
4632.280
 70
    32
  0
VERTEX
  8
T06SSILL
 62
8
 10
230.389
 20
-1536.685
 30
4632.280
 70
    32
  0
VERTEX
  8
T06SSILL
 62
8
 10
262.652
 20
-1587.251
 30
4632.280
 70
    32
  0
VERTEX
  8
T06SSILL
 62
8
 10
264.534
 20
-1592.196
 30
4632.280
 70
    32
  0
VERTEX
  8
T06SSILL
 62
8
 10
286.766
 20
-1577.659
 30
4632.280
 70
    32
  0
VERTEX
  8
T06SSILL
 62
8
 10
286.906
 20
-1572.823
 30
4632.280
 70
    32
  0
VERTEX
  8
T06SSILL
 62
8
 10
277.009
 20
-1560.756
 30
4632.280
 70
    32
  0
SEQEND
  8
T06SSILL
  0
POLYLINE
  8
T06SSILL
 62
8
 66
     1
 70
     9
  0
VERTEX
  8
T06SSILL
 62
8
 10
298.267
 20
-1595.900
 30
4632.280
 70
    32
  0
VERTEX
  8
T06SSILL
 62
8
 10
295.735
 20
-1594.202
 30
4632.280
 70
    32
  0
VERTEX
  8
T06SSILL
 62
8
 10
279.780
 20
-1605.729
 30
4632.280
 70
    32
  0
VERTEX
  8
T06SSILL
 62
8
 10
281.759
 20
-1609.795
 30
4632.280
 70
    32
  0
VERTEX
  8
T06SSILL
 62
8
 10
291.811
 20
-1623.800
 30
4632.280
 70
    32
  0
VERTEX
  8
T06SSILL
 62
8
 10
297.090
 20
-1623.680
 30
4632.280
 70
    32
  0
VERTEX
  8
T06SSILL
 62
8
 10
308.459
 20
-1621.516
 30
4632.280
 70
    32
  0
VERTEX
  8
T06SSILL
 62
8
 10
310.839
 20
-1612.834
 30
4632.280
 70
    32
  0
VERTEX
  8
T06SSILL
 62
8
 10
306.753
 20
-1608.305
 30
4632.280
 70
    32
  0
SEQEND
  8
T06SSILL
  0
POLYLINE
  8
T06SSILL
 62
8
 66
     1
 70
     9
  0
VERTEX
  8
T06SSILL
 62
8
 10
340.935
 20
-1562.058
 30
4632.280
 70
    32
  0
VERTEX
  8
T06SSILL
 62
8
 10
317.006
 20
-1579.039
 30
4632.280
 70
    32
  0
VERTEX
  8
T06SSILL
 62
8
 10
332.409
 20
-1602.511
 30
4632.280
 70
    32
  0
VERTEX
  8
T06SSILL
 62
8
 10
342.588
 20
-1604.731
 30
4632.280
 70
    32
  0
VERTEX
  8
T06SSILL
 62
8
 10
360.265
 20
-1604.833
 30
4632.280
 70
    32
  0
VERTEX
  8
T06SSILL
 62
8
 10
368.916
 20
-1601.848
 30
4632.280
 70
    32
  0
VERTEX
  8
T06SSILL
 62
8
 10
364.155
 20
-1594.760
 30
4632.280
 70
    32
  0
SEQEND
  8
T06SSILL
  0
POLYLINE
  8
T06SSILL
 62
8
 66
     1
 70
     9
  0
VERTEX
  8
T06SSILL
 62
8
 10
665.506
 20
-1337.660
 30
4632.280
 70
    32
  0
VERTEX
  8
T06SSILL
 62
8
 10
657.503
 20
-1337.662
 30
4632.280
 70
    32
  0
VERTEX
  8
T06SSILL
 62
8
 10
639.493
 20
-1352.156
 30
4632.280
 70
    32
  0
VERTEX
  8
T06SSILL
 62
8
 10
635.354
 20
-1360.819
 30
4632.280
 70
    32
  0
VERTEX
  8
T06SSILL
 62
8
 10
748.478
 20
-1580.415
 30
4632.280
 70
    32
  0
VERTEX
  8
T06SSILL
 62
8
 10
751.242
 20
-1585.106
 30
4632.280
 70
    32
  0
VERTEX
  8
T06SSILL
 62
8
 10
755.731
 20
-1584.714
 30
4632.280
 70
    32
  0
VERTEX
  8
T06SSILL
 62
8
 10
782.316
 20
-1574.357
 30
4632.280
 70
    32
  0
VERTEX
  8
T06SSILL
 62
8
 10
785.439
 20
-1570.169
 30
4632.280
 70
    32
  0
SEQEND
  8
T06SSILL
  0
POLYLINE
  8
T06SSILL
 62
8
 66
     1
 70
     9
  0
VERTEX
  8
T06SSILL
 62
8
 10
847.840
 20
-1844.717
 30
4632.280
 70
    32
  0
VERTEX
  8
T06SSILL
 62
8
 10
854.208
 20
-1841.444
 30
4632.280
 70
    32
  0
VERTEX
  8
T06SSILL
 62
8
 10
860.219
 20
-1830.426
 30
4632.280
 70
    32
  0
VERTEX
  8
T06SSILL
 62
8
 10
859.163
 20
-1822.236
 30
4632.280
 70
    32
  0
VERTEX
  8
T06SSILL
 62
8
 10
850.735
 20
-1812.646
 30
4632.280
 70
    32
  0
VERTEX
  8
T06SSILL
 62
8
 10
849.674
 20
-1804.983
 30
4632.280
 70
    32
  0
VERTEX
  8
T06SSILL
 62
8
 10
838.055
 20
-1789.467
 30
4632.280
 70
    32
  0
VERTEX
  8
T06SSILL
 62
8
 10
820.376
 20
-1756.736
 30
4632.280
 70
    32
  0
VERTEX
  8
T06SSILL
 62
8
 10
817.047
 20
-1755.557
 30
4632.280
 70
    32
  0
VERTEX
  8
T06SSILL
 62
8
 10
813.400
 20
-1751.208
 30
4632.280
 70
    32
  0
VERTEX
  8
T06SSILL
 62
8
 10
817.014
 20
-1750.455
 30
4632.280
 70
    32
  0
VERTEX
  8
T06SSILL
 62
8
 10
807.914
 20
-1721.422
 30
4632.280
 70
    32
  0
VERTEX
  8
T06SSILL
 62
8
 10
803.098
 20
-1711.256
 30
4632.280
 70
    32
  0
VERTEX
  8
T06SSILL
 62
8
 10
802.574
 20
-1702.719
 30
4632.280
 70
    32
  0
VERTEX
  8
T06SSILL
 62
8
 10
730.380
 20
-1562.103
 30
4632.280
 70
    32
  0
VERTEX
  8
T06SSILL
 62
8
 10
723.536
 20
-1560.622
 30
4632.280
 70
    32
  0
VERTEX
  8
T06SSILL
 62
8
 10
707.494
 20
-1572.059
 30
4632.280
 70
    32
  0
VERTEX
  8
T06SSILL
 62
8
 10
702.548
 20
-1565.850
 30
4632.280
 70
    32
  0
VERTEX
  8
T06SSILL
 62
8
 10
721.248
 20
-1552.506
 30
4632.280
 70
    32
  0
VERTEX
  8
T06SSILL
 62
8
 10
722.030
 20
-1545.214
 30
4632.280
 70
    32
  0
VERTEX
  8
T06SSILL
 62
8
 10
718.677
 20
-1538.054
 30
4632.280
 70
    32
  0
VERTEX
  8
T06SSILL
 62
8
 10
713.032
 20
-1539.577
 30
4632.280
 70
    32
  0
VERTEX
  8
T06SSILL
 62
8
 10
709.285
 20
-1544.462
 30
4632.280
 70
    32
  0
VERTEX
  8
T06SSILL
 62
8
 10
703.819
 20
-1537.543
 30
4632.280
 70
    32
  0
VERTEX
  8
T06SSILL
 62
8
 10
710.989
 20
-1525.043
 30
4632.280
 70
    32
  0
VERTEX
  8
T06SSILL
 62
8
 10
706.733
 20
-1511.893
 30
4632.280
 70
    32
  0
VERTEX
  8
T06SSILL
 62
8
 10
701.793
 20
-1505.068
 30
4632.280
 70
    32
  0
VERTEX
  8
T06SSILL
 62
8
 10
694.794
 20
-1501.562
 30
4632.280
 70
    32
  0
VERTEX
  8
T06SSILL
 62
8
 10
674.400
 20
-1516.999
 30
4632.280
 70
    32
  0
VERTEX
  8
T06SSILL
 62
8
 10
669.988
 20
-1510.179
 30
4632.280
 70
    32
  0
VERTEX
  8
T06SSILL
 62
8
 10
690.440
 20
-1497.558
 30
4632.280
 70
    32
  0
VERTEX
  8
T06SSILL
 62
8
 10
691.819
 20
-1483.764
 30
4632.280
 70
    32
  0
VERTEX
  8
T06SSILL
 62
8
 10
664.864
 20
-1430.265
 30
4632.280
 70
    32
  0
VERTEX
  8
T06SSILL
 62
8
 10
657.026
 20
-1431.236
 30
4632.280
 70
    32
  0
VERTEX
  8
T06SSILL
 62
8
 10
653.827
 20
-1426.101
 30
4632.280
 70
    32
  0
VERTEX
  8
T06SSILL
 62
8
 10
658.510
 20
-1424.128
 30
4632.280
 70
    32
  0
VERTEX
  8
T06SSILL
 62
8
 10
660.128
 20
-1420.891
 30
4632.280
 70
    32
  0
VERTEX
  8
T06SSILL
 62
8
 10
646.855
 20
-1395.595
 30
4632.280
 70
    32
  0
VERTEX
  8
T06SSILL
 62
8
 10
643.632
 20
-1392.658
 30
4632.280
 70
    32
  0
VERTEX
  8
T06SSILL
 62
8
 10
639.928
 20
-1393.586
 30
4632.280
 70
    32
  0
VERTEX
  8
T06SSILL
 62
8
 10
628.677
 20
-1409.384
 30
4632.280
 70
    32
  0
VERTEX
  8
T06SSILL
 62
8
 10
626.948
 20
-1406.551
 30
4632.280
 70
    32
  0
VERTEX
  8
T06SSILL
 62
8
 10
622.165
 20
-1409.666
 30
4632.280
 70
    32
  0
VERTEX
  8
T06SSILL
 62
8
 10
616.371
 20
-1400.545
 30
4632.280
 70
    32
  0
VERTEX
  8
T06SSILL
 62
8
 10
625.963
 20
-1400.032
 30
4632.280
 70
    32
  0
VERTEX
  8
T06SSILL
 62
8
 10
633.257
 20
-1392.371
 30
4632.280
 70
    32
  0
VERTEX
  8
T06SSILL
 62
8
 10
638.091
 20
-1384.507
 30
4632.280
 70
    32
  0
VERTEX
  8
T06SSILL
 62
8
 10
638.509
 20
-1378.267
 30
4632.280
 70
    32
  0
VERTEX
  8
T06SSILL
 62
8
 10
630.251
 20
-1361.028
 30
4632.280
 70
    32
  0
VERTEX
  8
T06SSILL
 62
8
 10
621.905
 20
-1360.147
 30
4632.280
 70
    32
  0
VERTEX
  8
T06SSILL
 62
8
 10
595.622
 20
-1375.256
 30
4632.280
 70
    32
  0
VERTEX
  8
T06SSILL
 62
8
 10
593.847
 20
-1384.912
 30
4632.280
 70
    32
  0
VERTEX
  8
T06SSILL
 62
8
 10
567.425
 20
-1396.502
 30
4632.280
 70
    32
  0
VERTEX
  8
T06SSILL
 62
8
 10
545.098
 20
-1411.742
 30
4632.280
 70
    32
  0
VERTEX
  8
T06SSILL
 62
8
 10
543.675
 20
-1421.401
 30
4632.280
 70
    32
  0
VERTEX
  8
T06SSILL
 62
8
 10
546.888
 20
-1441.664
 30
4632.280
 70
    32
  0
VERTEX
  8
T06SSILL
 62
8
 10
537.265
 20
-1453.258
 30
4632.280
 70
    32
  0
VERTEX
  8
T06SSILL
 62
8
 10
515.401
 20
-1466.304
 30
4632.280
 70
    32
  0
VERTEX
  8
T06SSILL
 62
8
 10
506.406
 20
-1460.315
 30
4632.280
 70
    32
  0
VERTEX
  8
T06SSILL
 62
8
 10
496.830
 20
-1451.153
 30
4632.280
 70
    32
  0
VERTEX
  8
T06SSILL
 62
8
 10
490.260
 20
-1448.708
 30
4632.280
 70
    32
  0
VERTEX
  8
T06SSILL
 62
8
 10
461.712
 20
-1469.950
 30
4632.280
 70
    32
  0
VERTEX
  8
T06SSILL
 62
8
 10
456.662
 20
-1481.593
 30
4632.280
 70
    32
  0
VERTEX
  8
T06SSILL
 62
8
 10
447.100
 20
-1487.471
 30
4632.280
 70
    32
  0
VERTEX
  8
T06SSILL
 62
8
 10
482.114
 20
-1535.780
 30
4632.280
 70
    32
  0
VERTEX
  8
T06SSILL
 62
8
 10
487.080
 20
-1531.963
 30
4632.280
 70
    32
  0
VERTEX
  8
T06SSILL
 62
8
 10
497.222
 20
-1545.793
 30
4632.280
 70
    32
  0
VERTEX
  8
T06SSILL
 62
8
 10
500.229
 20
-1544.242
 30
4632.280
 70
    32
  0
VERTEX
  8
T06SSILL
 62
8
 10
513.101
 20
-1557.748
 30
4632.280
 70
    32
  0
VERTEX
  8
T06SSILL
 62
8
 10
517.622
 20
-1554.455
 30
4632.280
 70
    32
  0
VERTEX
  8
T06SSILL
 62
8
 10
528.112
 20
-1568.551
 30
4632.280
 70
    32
  0
VERTEX
  8
T06SSILL
 62
8
 10
546.285
 20
-1579.828
 30
4632.280
 70
    32
  0
VERTEX
  8
T06SSILL
 62
8
 10
551.639
 20
-1597.212
 30
4632.280
 70
    32
  0
VERTEX
  8
T06SSILL
 62
8
 10
557.757
 20
-1600.884
 30
4632.280
 70
    32
  0
VERTEX
  8
T06SSILL
 62
8
 10
560.935
 20
-1607.954
 30
4632.280
 70
    32
  0
VERTEX
  8
T06SSILL
 62
8
 10
713.680
 20
-1733.251
 30
4632.280
 70
    32
  0
VERTEX
  8
T06SSILL
 62
8
 10
729.042
 20
-1719.608
 30
4632.280
 70
    32
  0
VERTEX
  8
T06SSILL
 62
8
 10
744.172
 20
-1743.957
 30
4632.280
 70
    32
  0
VERTEX
  8
T06SSILL
 62
8
 10
747.571
 20
-1763.255
 30
4632.280
 70
    32
  0
VERTEX
  8
T06SSILL
 62
8
 10
802.594
 20
-1807.468
 30
4632.280
 70
    32
  0
SEQEND
  8
T06SSILL
  0
POLYLINE
  8
T06SSILL
 62
8
 66
     1
 70
     9
  0
VERTEX
  8
T06SSILL
 62
8
 10
435.292
 20
-1637.125
 30
4632.280
 70
    32
  0
VERTEX
  8
T06SSILL
 62
8
 10
466.487
 20
-1647.925
 30
4632.280
 70
    32
  0
VERTEX
  8
T06SSILL
 62
8
 10
480.927
 20
-1646.409
 30
4632.280
 70
    32
  0
VERTEX
  8
T06SSILL
 62
8
 10
506.737
 20
-1626.194
 30
4632.280
 70
    32
  0
VERTEX
  8
T06SSILL
 62
8
 10
522.422
 20
-1607.101
 30
4632.280
 70
    32
  0
VERTEX
  8
T06SSILL
 62
8
 10
522.287
 20
-1595.050
 30
4632.280
 70
    32
  0
VERTEX
  8
T06SSILL
 62
8
 10
488.651
 20
-1565.929
 30
4632.280
 70
    32
  0
VERTEX
  8
T06SSILL
 62
8
 10
480.031
 20
-1565.925
 30
4632.280
 70
    32
  0
VERTEX
  8
T06SSILL
 62
8
 10
472.858
 20
-1578.689
 30
4632.280
 70
    32
  0
SEQEND
  8
T06SSILL
  0
POLYLINE
  8
T06SSILL
 62
8
 66
     1
 70
     9
  0
VERTEX
  8
T06SSILL
 62
8
 10
1141.514
 20
-1122.803
 30
4632.280
 70
    32
  0
VERTEX
  8
T06SSILL
 62
8
 10
1135.782
 20
-1116.057
 30
4632.280
 70
    32
  0
VERTEX
  8
T06SSILL
 62
8
 10
1124.653
 20
-1112.243
 30
4632.280
 70
    32
  0
VERTEX
  8
T06SSILL
 62
8
 10
1114.803
 20
-1112.226
 30
4632.280
 70
    32
  0
VERTEX
  8
T06SSILL
 62
8
 10
1102.183
 20
-1116.224
 30
4632.280
 70
    32
  0
VERTEX
  8
T06SSILL
 62
8
 10
1102.930
 20
-1120.366
 30
4632.280
 70
    32
  0
VERTEX
  8
T06SSILL
 62
8
 10
1123.362
 20
-1142.397
 30
4632.280
 70
    32
  0
VERTEX
  8
T06SSILL
 62
8
 10
1125.608
 20
-1146.203
 30
4632.280
 70
    32
  0
SEQEND
  8
T06SSILL
  0
POLYLINE
  8
T06SSILL
 62
8
 66
     1
 70
     9
  0
VERTEX
  8
T06SSILL
 62
8
 10
1120.258
 20
-1054.676
 30
4632.280
 70
    32
  0
VERTEX
  8
T06SSILL
 62
8
 10
1114.942
 20
-1058.313
 30
4632.280
 70
    32
  0
VERTEX
  8
T06SSILL
 62
8
 10
1090.820
 20
-1101.414
 30
4632.280
 70
    32
  0
VERTEX
  8
T06SSILL
 62
8
 10
1088.186
 20
-1109.214
 30
4632.280
 70
    32
  0
VERTEX
  8
T06SSILL
 62
8
 10
1124.683
 20
-1093.070
 30
4632.280
 70
    32
  0
SEQEND
  8
T06SSILL
  0
POLYLINE
  8
T06SSILL
 62
8
 66
     1
 70
     9
  0
VERTEX
  8
T06SSILL
 62
8
 10
854.900
 20
-1219.551
 30
4632.280
 70
    32
  0
VERTEX
  8
T06SSILL
 62
8
 10
851.790
 20
-1214.329
 30
4632.280
 70
    32
  0
VERTEX
  8
T06SSILL
 62
8
 10
854.451
 20
-1187.620
 30
4632.280
 70
    32
  0
VERTEX
  8
T06SSILL
 62
8
 10
857.200
 20
-1185.539
 30
4632.280
 70
    32
  0
VERTEX
  8
T06SSILL
 62
8
 10
881.049
 20
-1200.571
 30
4632.280
 70
    32
  0
VERTEX
  8
T06SSILL
 62
8
 10
881.801
 20
-1204.273
 30
4632.280
 70
    32
  0
SEQEND
  8
T06SSILL
  0
POLYLINE
  8
T06SSILL
 62
8
 66
     1
 70
     9
  0
VERTEX
  8
T06SSILL
 62
8
 10
796.111
 20
-1575.561
 30
4632.280
 70
    32
  0
VERTEX
  8
T06SSILL
 62
8
 10
834.173
 20
-1561.105
 30
4632.280
 70
    32
  0
VERTEX
  8
T06SSILL
 62
8
 10
869.770
 20
-1628.770
 30
4632.280
 70
    32
  0
VERTEX
  8
T06SSILL
 62
8
 10
882.492
 20
-1631.721
 30
4632.280
 70
    32
  0
VERTEX
  8
T06SSILL
 62
8
 10
886.816
 20
-1638.539
 30
4632.280
 70
    32
  0
VERTEX
  8
T06SSILL
 62
8
 10
885.871
 20
-1652.865
 30
4632.280
 70
    32
  0
VERTEX
  8
T06SSILL
 62
8
 10
900.363
 20
-1671.051
 30
4632.280
 70
    32
  0
VERTEX
  8
T06SSILL
 62
8
 10
907.760
 20
-1678.430
 30
4632.280
 70
    32
  0
VERTEX
  8
T06SSILL
 62
8
 10
912.931
 20
-1680.156
 30
4632.280
 70
    32
  0
VERTEX
  8
T06SSILL
 62
8
 10
919.538
 20
-1679.084
 30
4632.280
 70
    32
  0
VERTEX
  8
T06SSILL
 62
8
 10
921.760
 20
-1668.730
 30
4632.280
 70
    32
  0
VERTEX
  8
T06SSILL
 62
8
 10
901.885
 20
-1643.978
 30
4632.280
 70
    32
  0
VERTEX
  8
T06SSILL
 62
8
 10
882.300
 20
-1616.767
 30
4632.280
 70
    32
  0
VERTEX
  8
T06SSILL
 62
8
 10
885.212
 20
-1607.739
 30
4632.280
 70
    32
  0
VERTEX
  8
T06SSILL
 62
8
 10
884.374
 20
-1603.860
 30
4632.280
 70
    32
  0
VERTEX
  8
T06SSILL
 62
8
 10
871.691
 20
-1589.125
 30
4632.280
 70
    32
  0
VERTEX
  8
T06SSILL
 62
8
 10
862.056
 20
-1593.595
 30
4632.280
 70
    32
  0
VERTEX
  8
T06SSILL
 62
8
 10
858.472
 20
-1591.621
 30
4632.280
 70
    32
  0
VERTEX
  8
T06SSILL
 62
8
 10
840.709
 20
-1558.537
 30
4632.280
 70
    32
  0
VERTEX
  8
T06SSILL
 62
8
 10
916.303
 20
-1529.797
 30
4632.280
 70
    32
  0
VERTEX
  8
T06SSILL
 62
8
 10
932.502
 20
-1528.299
 30
4632.280
 70
    32
  0
VERTEX
  8
T06SSILL
 62
8
 10
967.363
 20
-1517.064
 30
4632.280
 70
    32
  0
VERTEX
  8
T06SSILL
 62
8
 10
984.864
 20
-1508.984
 30
4632.280
 70
    32
  0
VERTEX
  8
T06SSILL
 62
8
 10
999.077
 20
-1504.036
 30
4632.280
 70
    32
  0
VERTEX
  8
T06SSILL
 62
8
 10
1004.522
 20
-1521.157
 30
4632.280
 70
    32
  0
VERTEX
  8
T06SSILL
 62
8
 10
1005.074
 20
-1535.323
 30
4632.280
 70
    32
  0
VERTEX
  8
T06SSILL
 62
8
 10
1008.004
 20
-1557.342
 30
4632.280
 70
    32
  0
VERTEX
  8
T06SSILL
 62
8
 10
1008.121
 20
-1570.975
 30
4632.280
 70
    32
  0
VERTEX
  8
T06SSILL
 62
8
 10
1012.843
 20
-1581.756
 30
4632.280
 70
    32
  0
VERTEX
  8
T06SSILL
 62
8
 10
1024.750
 20
-1586.809
 30
4632.280
 70
    32
  0
VERTEX
  8
T06SSILL
 62
8
 10
1023.968
 20
-1626.906
 30
4632.280
 70
    32
  0
VERTEX
  8
T06SSILL
 62
8
 10
1025.917
 20
-1633.787
 30
4632.280
 70
    32
  0
VERTEX
  8
T06SSILL
 62
8
 10
1017.922
 20
-1641.177
 30
4632.280
 70
    32
  0
VERTEX
  8
T06SSILL
 62
8
 10
1019.108
 20
-1653.591
 30
4632.280
 70
    32
  0
VERTEX
  8
T06SSILL
 62
8
 10
1023.333
 20
-1661.552
 30
4632.280
 70
    32
  0
VERTEX
  8
T06SSILL
 62
8
 10
1044.436
 20
-1670.222
 30
4632.280
 70
    32
  0
VERTEX
  8
T06SSILL
 62
8
 10
1058.410
 20
-1679.343
 30
4632.280
 70
    32
  0
VERTEX
  8
T06SSILL
 62
8
 10
1065.937
 20
-1690.945
 30
4632.280
 70
    32
  0
VERTEX
  8
T06SSILL
 62
8
 10
1069.745
 20
-1704.882
 30
4632.280
 70
    32
  0
VERTEX
  8
T06SSILL
 62
8
 10
1066.065
 20
-1711.791
 30
4632.280
 70
    32
  0
VERTEX
  8
T06SSILL
 62
8
 10
1058.512
 20
-1719.010
 30
4632.280
 70
    32
  0
VERTEX
  8
T06SSILL
 62
8
 10
1050.393
 20
-1721.561
 30
4632.280
 70
    32
  0
VERTEX
  8
T06SSILL
 62
8
 10
1037.554
 20
-1696.797
 30
4632.280
 70
    32
  0
VERTEX
  8
T06SSILL
 62
8
 10
1029.783
 20
-1699.704
 30
4632.280
 70
    32
  0
VERTEX
  8
T06SSILL
 62
8
 10
1027.762
 20
-1707.774
 30
4632.280
 70
    32
  0
VERTEX
  8
T06SSILL
 62
8
 10
1021.038
 20
-1711.483
 30
4632.280
 70
    32
  0
VERTEX
  8
T06SSILL
 62
8
 10
1019.531
 20
-1720.790
 30
4632.280
 70
    32
  0
VERTEX
  8
T06SSILL
 62
8
 10
1023.768
 20
-1743.879
 30
4632.280
 70
    32
  0
VERTEX
  8
T06SSILL
 62
8
 10
997.436
 20
-1755.381
 30
4632.280
 70
    32
  0
VERTEX
  8
T06SSILL
 62
8
 10
992.864
 20
-1747.065
 30
4632.280
 70
    32
  0
VERTEX
  8
T06SSILL
 62
8
 10
988.342
 20
-1734.000
 30
4632.280
 70
    32
  0
VERTEX
  8
T06SSILL
 62
8
 10
984.000
 20
-1728.852
 30
4632.280
 70
    32
  0
VERTEX
  8
T06SSILL
 62
8
 10
978.206
 20
-1662.299
 30
4632.280
 70
    32
  0
VERTEX
  8
T06SSILL
 62
8
 10
970.995
 20
-1662.222
 30
4632.280
 70
    32
  0
VERTEX
  8
T06SSILL
 62
8
 10
977.402
 20
-1729.045
 30
4632.280
 70
    32
  0
VERTEX
  8
T06SSILL
 62
8
 10
937.111
 20
-1721.665
 30
4632.280
 70
    32
  0
VERTEX
  8
T06SSILL
 62
8
 10
935.631
 20
-1728.509
 30
4632.280
 70
    32
  0
VERTEX
  8
T06SSILL
 62
8
 10
976.617
 20
-1736.600
 30
4632.280
 70
    32
  0
VERTEX
  8
T06SSILL
 62
8
 10
970.570
 20
-1742.780
 30
4632.280
 70
    32
  0
VERTEX
  8
T06SSILL
 62
8
 10
969.182
 20
-1749.186
 30
4632.280
 70
    32
  0
VERTEX
  8
T06SSILL
 62
8
 10
969.285
 20
-1755.959
 30
4632.280
 70
    32
  0
VERTEX
  8
T06SSILL
 62
8
 10
961.691
 20
-1766.959
 30
4632.280
 70
    32
  0
VERTEX
  8
T06SSILL
 62
8
 10
941.563
 20
-1774.043
 30
4632.280
 70
    32
  0
VERTEX
  8
T06SSILL
 62
8
 10
931.784
 20
-1775.521
 30
4632.280
 70
    32
  0
VERTEX
  8
T06SSILL
 62
8
 10
888.744
 20
-1753.951
 30
4632.280
 70
    32
  0
SEQEND
  8
T06SSILL
  0
POLYLINE
  8
T06SSILL
 62
8
 66
     1
 70
     9
  0
VERTEX
  8
T06SSILL
 62
8
 10
869.330
 20
-1833.778
 30
4632.280
 70
    32
  0
VERTEX
  8
T06SSILL
 62
8
 10
862.716
 20
-1843.558
 30
4632.280
 70
    32
  0
VERTEX
  8
T06SSILL
 62
8
 10
864.410
 20
-1857.824
 30
4632.280
 70
    32
  0
VERTEX
  8
T06SSILL
 62
8
 10
877.845
 20
-1868.082
 30
4632.280
 70
    32
  0
VERTEX
  8
T06SSILL
 62
8
 10
890.178
 20
-1874.371
 30
4632.280
 70
    32
  0
SEQEND
  8
T06SSILL
  0
POLYLINE
  8
T06SSILL
 62
8
 66
     1
 70
     9
  0
VERTEX
  8
T06SSILL
 62
8
 10
1094.687
 20
-1732.854
 30
4632.280
 70
    32
  0
VERTEX
  8
T06SSILL
 62
8
 10
1109.476
 20
-1731.606
 30
4632.280
 70
    32
  0
VERTEX
  8
T06SSILL
 62
8
 10
1114.858
 20
-1738.260
 30
4632.280
 70
    32
  0
VERTEX
  8
T06SSILL
 62
8
 10
1101.341
 20
-1743.831
 30
4632.280
 70
    32
  0
SEQEND
  8
T06SSILL
  0
POLYLINE
  8
T06SSILL
 62
8
 66
     1
 70
     9
  0
VERTEX
  8
T06SSILL
 62
8
 10
1060.282
 20
-540.056
 30
4632.280
 70
    32
  0
VERTEX
  8
T06SSILL
 62
8
 10
1057.641
 20
-541.904
 30
4632.280
 70
    32
  0
VERTEX
  8
T06SSILL
 62
8
 10
969.903
 20
-483.888
 30
4632.280
 70
    32
  0
VERTEX
  8
T06SSILL
 62
8
 10
972.193
 20
-473.943
 30
4632.280
 70
    32
  0
VERTEX
  8
T06SSILL
 62
8
 10
977.739
 20
-462.767
 30
4632.280
 70
    32
  0
VERTEX
  8
T06SSILL
 62
8
 10
978.624
 20
-434.955
 30
4632.280
 70
    32
  0
VERTEX
  8
T06SSILL
 62
8
 10
974.576
 20
-431.170
 30
4632.280
 70
    32
  0
VERTEX
  8
T06SSILL
 62
8
 10
966.480
 20
-429.232
 30
4632.280
 70
    32
  0
VERTEX
  8
T06SSILL
 62
8
 10
958.735
 20
-425.622
 30
4632.280
 70
    32
  0
VERTEX
  8
T06SSILL
 62
8
 10
952.750
 20
-428.261
 30
4632.280
 70
    32
  0
VERTEX
  8
T06SSILL
 62
8
 10
946.763
 20
-438.910
 30
4632.280
 70
    32
  0
VERTEX
  8
T06SSILL
 62
8
 10
944.471
 20
-462.497
 30
4632.280
 70
    32
  0
VERTEX
  8
T06SSILL
 62
8
 10
943.062
 20
-466.545
 30
4632.280
 70
    32
  0
VERTEX
  8
T06SSILL
 62
8
 10
932.853
 20
-459.678
 30
4632.280
 70
    32
  0
VERTEX
  8
T06SSILL
 62
8
 10
931.358
 20
-454.221
 30
4632.280
 70
    32
  0
VERTEX
  8
T06SSILL
 62
8
 10
938.316
 20
-426.323
 30
4632.280
 70
    32
  0
VERTEX
  8
T06SSILL
 62
8
 10
937.173
 20
-420.513
 30
4632.280
 70
    32
  0
VERTEX
  8
T06SSILL
 62
8
 10
925.998
 20
-405.461
 30
4632.280
 70
    32
  0
VERTEX
  8
T06SSILL
 62
8
 10
920.638
 20
-354.061
 30
4632.280
 70
    32
  0
VERTEX
  8
T06SSILL
 62
8
 10
924.512
 20
-349.397
 30
4632.280
 70
    32
  0
VERTEX
  8
T06SSILL
 62
8
 10
960.685
 20
-346.499
 30
4632.280
 70
    32
  0
VERTEX
  8
T06SSILL
 62
8
 10
957.251
 20
-359.260
 30
4632.280
 70
    32
  0
VERTEX
  8
T06SSILL
 62
8
 10
956.809
 20
-366.565
 30
4632.280
 70
    32
  0
VERTEX
  8
T06SSILL
 62
8
 10
966.662
 20
-392.267
 30
4632.280
 70
    32
  0
VERTEX
  8
T06SSILL
 62
8
 10
970.886
 20
-396.844
 30
4632.280
 70
    32
  0
VERTEX
  8
T06SSILL
 62
8
 10
978.980
 20
-411.984
 30
4632.280
 70
    32
  0
VERTEX
  8
T06SSILL
 62
8
 10
1001.859
 20
-440.680
 30
4632.280
 70
    32
  0
VERTEX
  8
T06SSILL
 62
8
 10
1005.819
 20
-444.817
 30
4632.280
 70
    32
  0
VERTEX
  8
T06SSILL
 62
8
 10
1010.747
 20
-444.642
 30
4632.280
 70
    32
  0
VERTEX
  8
T06SSILL
 62
8
 10
1015.589
 20
-441.122
 30
4632.280
 70
    32
  0
VERTEX
  8
T06SSILL
 62
8
 10
1016.823
 20
-427.481
 30
4632.280
 70
    32
  0
VERTEX
  8
T06SSILL
 62
8
 10
1022.368
 20
-425.193
 30
4632.280
 70
    32
  0
VERTEX
  8
T06SSILL
 62
8
 10
1032.842
 20
-425.459
 30
4632.280
 70
    32
  0
VERTEX
  8
T06SSILL
 62
8
 10
1049.296
 20
-448.961
 30
4632.280
 70
    32
  0
VERTEX
  8
T06SSILL
 62
8
 10
1051.494
 20
-460.315
 30
4632.280
 70
    32
  0
SEQEND
  8
T06SSILL
  0
POLYLINE
  8
T06SSILL
 62
8
 66
     1
 70
     9
  0
VERTEX
  8
T06SSILL
 62
8
 10
917.563
 20
-322.904
 30
4632.280
 70
    32
  0
VERTEX
  8
T06SSILL
 62
8
 10
918.881
 20
-339.803
 30
4632.280
 70
    32
  0
VERTEX
  8
T06SSILL
 62
8
 10
922.753
 20
-341.916
 30
4632.280
 70
    32
  0
VERTEX
  8
T06SSILL
 62
8
 10
963.327
 20
-338.754
 30
4632.280
 70
    32
  0
VERTEX
  8
T06SSILL
 62
8
 10
965.531
 20
-318.952
 30
4632.280
 70
    32
  0
VERTEX
  8
T06SSILL
 62
8
 10
961.658
 20
-319.303
 30
4632.280
 70
    32
  0
VERTEX
  8
T06SSILL
 62
8
 10
960.867
 20
-311.998
 30
4632.280
 70
    32
  0
VERTEX
  8
T06SSILL
 62
8
 10
963.508
 20
-311.646
 30
4632.280
 70
    32
  0
VERTEX
  8
T06SSILL
 62
8
 10
963.862
 20
-298.445
 30
4632.280
 70
    32
  0
VERTEX
  8
T06SSILL
 62
8
 10
956.298
 20
-272.039
 30
4632.280
 70
    32
  0
VERTEX
  8
T06SSILL
 62
8
 10
958.589
 20
-258.398
 30
4632.280
 70
    32
  0
VERTEX
  8
T06SSILL
 62
8
 10
962.639
 20
-249.949
 30
4632.280
 70
    32
  0
VERTEX
  8
T06SSILL
 62
8
 10
972.936
 20
-249.687
 30
4632.280
 70
    32
  0
VERTEX
  8
T06SSILL
 62
8
 10
960.619
 20
-223.809
 30
4632.280
 70
    32
  0
VERTEX
  8
T06SSILL
 62
8
 10
951.374
 20
-245.283
 30
4632.280
 70
    32
  0
SEQEND
  8
T06SSILL
  0
POLYLINE
  8
T06SSILL
 62
8
 66
     1
 70
     9
  0
VERTEX
  8
T06SSILL
 62
8
 10
1174.909
 20
-340.376
 30
4632.280
 70
    32
  0
VERTEX
  8
T06SSILL
 62
8
 10
1172.358
 20
-331.926
 30
4632.280
 70
    32
  0
VERTEX
  8
T06SSILL
 62
8
 10
1172.272
 20
-324.269
 30
4632.280
 70
    32
  0
VERTEX
  8
T06SSILL
 62
8
 10
1176.585
 20
-320.309
 30
4632.280
 70
    32
  0
VERTEX
  8
T06SSILL
 62
8
 10
1243.827
 20
-321.201
 30
4632.280
 70
    32
  0
VERTEX
  8
T06SSILL
 62
8
 10
1241.712
 20
-334.931
 30
4632.280
 70
    32
  0
VERTEX
  8
T06SSILL
 62
8
 10
1243.470
 20
-346.109
 30
4632.280
 70
    32
  0
VERTEX
  8
T06SSILL
 62
8
 10
1192.424
 20
-341.787
 30
4632.280
 70
    32
  0
SEQEND
  8
T06SSILL
  0
POLYLINE
  8
T06SSILL
 62
8
 66
     1
 70
     9
  0
VERTEX
  8
T06SSILL
 62
8
 10
1173.233
 20
-363.699
 30
4632.280
 70
    32
  0
VERTEX
  8
T06SSILL
 62
8
 10
1173.763
 20
-352.081
 30
4632.280
 70
    32
  0
VERTEX
  8
T06SSILL
 62
8
 10
1167.426
 20
-350.936
 30
4632.280
 70
    32
  0
VERTEX
  8
T06SSILL
 62
8
 10
1167.867
 20
-346.447
 30
4632.280
 70
    32
  0
VERTEX
  8
T06SSILL
 62
8
 10
1246.021
 20
-351.918
 30
4632.280
 70
    32
  0
VERTEX
  8
T06SSILL
 62
8
 10
1245.403
 20
-366.880
 30
4632.280
 70
    32
  0
SEQEND
  8
T06SSILL
  0
POLYLINE
  8
T06SSILL
 62
8
 66
     1
 70
     9
  0
VERTEX
  8
T06SSILL
 62
8
 10
973.115
 20
-233.405
 30
4632.280
 70
    32
  0
VERTEX
  8
T06SSILL
 62
8
 10
1040.004
 20
-237.641
 30
4632.280
 70
    32
  0
VERTEX
  8
T06SSILL
 62
8
 10
1036.922
 20
-246.442
 30
4632.280
 70
    32
  0
VERTEX
  8
T06SSILL
 62
8
 10
1032.608
 20
-252.074
 30
4632.280
 70
    32
  0
VERTEX
  8
T06SSILL
 62
8
 10
980.857
 20
-249.953
 30
4632.280
 70
    32
  0
SEQEND
  8
T06SSILL
  0
POLYLINE
  8
T06SSILL
 62
8
 66
     1
 70
     9
  0
VERTEX
  8
T06SSILL
 62
8
 10
1064.207
 20
-238.702
 30
4632.280
 70
    32
  0
VERTEX
  8
T06SSILL
 62
8
 10
1118.247
 20
-241.440
 30
4632.280
 70
    32
  0
VERTEX
  8
T06SSILL
 62
8
 10
1137.081
 20
-244.699
 30
4632.280
 70
    32
  0
VERTEX
  8
T06SSILL
 62
8
 10
1162.867
 20
-254.209
 30
4632.280
 70
    32
  0
VERTEX
  8
T06SSILL
 62
8
 10
1195.696
 20
-253.159
 30
4632.280
 70
    32
  0
VERTEX
  8
T06SSILL
 62
8
 10
1206.168
 20
-256.769
 30
4632.280
 70
    32
  0
VERTEX
  8
T06SSILL
 62
8
 10
1221.396
 20
-251.579
 30
4632.280
 70
    32
  0
VERTEX
  8
T06SSILL
 62
8
 10
1247.628
 20
-226.148
 30
4632.280
 70
    32
  0
VERTEX
  8
T06SSILL
 62
8
 10
1254.578
 20
-244.456
 30
4632.280
 70
    32
  0
VERTEX
  8
T06SSILL
 62
8
 10
1250.263
 20
-253.873
 30
4632.280
 70
    32
  0
VERTEX
  8
T06SSILL
 62
8
 10
1240.931
 20
-268.657
 30
4632.280
 70
    32
  0
VERTEX
  8
T06SSILL
 62
8
 10
1230.193
 20
-274.816
 30
4632.280
 70
    32
  0
VERTEX
  8
T06SSILL
 62
8
 10
1226.495
 20
-281.856
 30
4632.280
 70
    32
  0
VERTEX
  8
T06SSILL
 62
8
 10
1208.890
 20
-295.583
 30
4632.280
 70
    32
  0
VERTEX
  8
T06SSILL
 62
8
 10
1185.303
 20
-294.787
 30
4632.280
 70
    32
  0
VERTEX
  8
T06SSILL
 62
8
 10
1186.981
 20
-262.839
 30
4632.280
 70
    32
  0
VERTEX
  8
T06SSILL
 62
8
 10
1063.324
 20
-257.096
 30
4632.280
 70
    32
  0
SEQEND
  8
T06SSILL
  0
POLYLINE
  8
T06SSILL
 62
8
 66
     1
 70
     9
  0
VERTEX
  8
T06SSILL
 62
8
 10
969.332
 20
-225.395
 30
4632.280
 70
    32
  0
VERTEX
  8
T06SSILL
 62
8
 10
965.725
 20
-216.329
 30
4632.280
 70
    32
  0
VERTEX
  8
T06SSILL
 62
8
 10
971.009
 20
-200.488
 30
4632.280
 70
    32
  0
VERTEX
  8
T06SSILL
 62
8
 10
997.071
 20
-141.612
 30
4632.280
 70
    32
  0
VERTEX
  8
T06SSILL
 62
8
 10
1005.520
 20
-140.381
 30
4632.280
 70
    32
  0
VERTEX
  8
T06SSILL
 62
8
 10
1192.281
 20
-149.655
 30
4632.280
 70
    32
  0
VERTEX
  8
T06SSILL
 62
8
 10
1192.019
 20
-142.878
 30
4632.280
 70
    32
  0
VERTEX
  8
T06SSILL
 62
8
 10
1000.593
 20
-133.339
 30
4632.280
 70
    32
  0
VERTEX
  8
T06SSILL
 62
8
 10
1007.372
 20
-117.586
 30
4632.280
 70
    32
  0
VERTEX
  8
T06SSILL
 62
8
 10
1022.424
 20
-109.316
 30
4632.280
 70
    32
  0
VERTEX
  8
T06SSILL
 62
8
 10
1221.683
 20
-121.144
 30
4632.280
 70
    32
  0
VERTEX
  8
T06SSILL
 62
8
 10
1228.107
 20
-126.338
 30
4632.280
 70
    32
  0
VERTEX
  8
T06SSILL
 62
8
 10
1236.113
 20
-141.214
 30
4632.280
 70
    32
  0
VERTEX
  8
T06SSILL
 62
8
 10
1243.238
 20
-165.067
 30
4632.280
 70
    32
  0
VERTEX
  8
T06SSILL
 62
8
 10
1242.971
 20
-179.765
 30
4632.280
 70
    32
  0
VERTEX
  8
T06SSILL
 62
8
 10
1238.569
 20
-189.973
 30
4632.280
 70
    32
  0
VERTEX
  8
T06SSILL
 62
8
 10
1234.433
 20
-188.300
 30
4632.280
 70
    32
  0
VERTEX
  8
T06SSILL
 62
8
 10
1234.607
 20
-200.006
 30
4632.280
 70
    32
  0
VERTEX
  8
T06SSILL
 62
8
 10
1239.712
 20
-197.631
 30
4632.280
 70
    32
  0
VERTEX
  8
T06SSILL
 62
8
 10
1244.197
 20
-219.019
 30
4632.280
 70
    32
  0
VERTEX
  8
T06SSILL
 62
8
 10
1224.478
 20
-237.850
 30
4632.280
 70
    32
  0
VERTEX
  8
T06SSILL
 62
8
 10
1211.979
 20
-246.385
 30
4632.280
 70
    32
  0
VERTEX
  8
T06SSILL
 62
8
 10
1165.684
 20
-248.049
 30
4632.280
 70
    32
  0
VERTEX
  8
T06SSILL
 62
8
 10
1123.881
 20
-233.607
 30
4632.280
 70
    32
  0
VERTEX
  8
T06SSILL
 62
8
 10
1039.301
 20
-230.072
 30
4632.280
 70
    32
  0
SEQEND
  8
T06SSILL
  0
POLYLINE
  8
T06SSILL
 62
8
 66
     1
 70
     9
  0
VERTEX
  8
T06SSILL
 62
8
 10
1075.511
 20
-83.593
 30
4632.280
 70
    32
  0
VERTEX
  8
T06SSILL
 62
8
 10
1064.325
 20
-64.057
 30
4632.280
 70
    32
  0
VERTEX
  8
T06SSILL
 62
8
 10
1079.854
 20
-55.479
 30
4632.280
 70
    32
  0
VERTEX
  8
T06SSILL
 62
8
 10
1083.031
 20
-50.157
 30
4632.280
 70
    32
  0
VERTEX
  8
T06SSILL
 62
8
 10
1092.063
 20
-42.288
 30
4632.280
 70
    32
  0
VERTEX
  8
T06SSILL
 62
8
 10
1100.795
 20
-38.029
 30
4632.280
 70
    32
  0
VERTEX
  8
T06SSILL
 62
8
 10
1097.392
 20
-33.770
 30
4632.280
 70
    32
  0
VERTEX
  8
T06SSILL
 62
8
 10
1085.137
 20
-37.640
 30
4632.280
 70
    32
  0
VERTEX
  8
T06SSILL
 62
8
 10
1073.314
 20
-47.131
 30
4632.280
 70
    32
  0
VERTEX
  8
T06SSILL
 62
8
 10
1058.476
 20
-54.820
 30
4632.280
 70
    32
  0
VERTEX
  8
T06SSILL
 62
8
 10
1055.862
 20
-50.373
 30
4632.280
 70
    32
  0
VERTEX
  8
T06SSILL
 62
8
 10
1059.179
 20
-6.006
 30
4632.280
 70
    32
  0
VERTEX
  8
T06SSILL
 62
8
 10
1090.689
 20
22.500
 30
4632.280
 70
    32
  0
VERTEX
  8
T06SSILL
 62
8
 10
1095.641
 20
20.549
 30
4632.280
 70
    32
  0
VERTEX
  8
T06SSILL
 62
8
 10
1100.053
 20
13.402
 30
4632.280
 70
    32
  0
VERTEX
  8
T06SSILL
 62
8
 10
1115.993
 20
-18.728
 30
4632.280
 70
    32
  0
VERTEX
  8
T06SSILL
 62
8
 10
1100.758
 20
-29.412
 30
4632.280
 70
    32
  0
VERTEX
  8
T06SSILL
 62
8
 10
1109.277
 20
-40.809
 30
4632.280
 70
    32
  0
VERTEX
  8
T06SSILL
 62
8
 10
1108.344
 20
-55.420
 30
4632.280
 70
    32
  0
VERTEX
  8
T06SSILL
 62
8
 10
1084.937
 20
-54.262
 30
4632.280
 70
    32
  0
VERTEX
  8
T06SSILL
 62
8
 10
1083.521
 20
-84.181
 30
4632.280
 70
    32
  0
SEQEND
  8
T06SSILL
  0
POLYLINE
  8
T06SSILL
 62
8
 66
     1
 70
     9
  0
VERTEX
  8
T06SSILL
 62
8
 10
1059.730
 20
4.555
 30
4632.280
 70
    32
  0
VERTEX
  8
T06SSILL
 62
8
 10
1069.240
 20
156.116
 30
4632.280
 70
    32
  0
VERTEX
  8
T06SSILL
 62
8
 10
1095.949
 20
169.956
 30
4632.280
 70
    32
  0
VERTEX
  8
T06SSILL
 62
8
 10
1091.895
 20
158.378
 30
4632.280
 70
    32
  0
VERTEX
  8
T06SSILL
 62
8
 10
1090.294
 20
129.160
 30
4632.280
 70
    32
  0
VERTEX
  8
T06SSILL
 62
8
 10
1089.372
 20
71.109
 30
4632.280
 70
    32
  0
VERTEX
  8
T06SSILL
 62
8
 10
1090.535
 20
33.138
 30
4632.280
 70
    32
  0
VERTEX
  8
T06SSILL
 62
8
 10
1085.004
 20
26.463
 30
4632.280
 70
    32
  0
SEQEND
  8
T06SSILL
  0
POLYLINE
  8
T06SSILL
 62
8
 66
     1
 70
     9
  0
VERTEX
  8
T06SSILL
 62
8
 10
1174.265
 20
-22.812
 30
4632.280
 70
    32
  0
VERTEX
  8
T06SSILL
 62
8
 10
1178.520
 20
-37.348
 30
4632.280
 70
    32
  0
VERTEX
  8
T06SSILL
 62
8
 10
1127.914
 20
-34.385
 30
4632.280
 70
    32
  0
VERTEX
  8
T06SSILL
 62
8
 10
1124.936
 20
-22.996
 30
4632.280
 70
    32
  0
VERTEX
  8
T06SSILL
 62
8
 10
1126.303
 20
-20.250
 30
4632.280
 70
    32
  0
VERTEX
  8
T06SSILL
 62
8
 10
1152.798
 20
-22.067
 30
4632.280
 70
    32
  0
SEQEND
  8
T06SSILL
  0
POLYLINE
  8
T06SSILL
 62
8
 66
     1
 70
     9
  0
VERTEX
  8
T06SSILL
 62
8
 10
1148.575
 20
-15.796
 30
4632.280
 70
    32
  0
VERTEX
  8
T06SSILL
 62
8
 10
1144.064
 20
-1.792
 30
4632.280
 70
    32
  0
VERTEX
  8
T06SSILL
 62
8
 10
1138.262
 20
10.260
 30
4632.280
 70
    32
  0
VERTEX
  8
T06SSILL
 62
8
 10
1130.517
 20
16.831
 30
4632.280
 70
    32
  0
VERTEX
  8
T06SSILL
 62
8
 10
1105.686
 20
19.111
 30
4632.280
 70
    32
  0
VERTEX
  8
T06SSILL
 62
8
 10
1110.752
 20
9.335
 30
4632.280
 70
    32
  0
VERTEX
  8
T06SSILL
 62
8
 10
1123.595
 20
-9.297
 30
4632.280
 70
    32
  0
VERTEX
  8
T06SSILL
 62
8
 10
1135.201
 20
-15.286
 30
4632.280
 70
    32
  0
SEQEND
  8
T06SSILL
  0
POLYLINE
  8
T06SSILL
 62
8
 66
     1
 70
     9
  0
VERTEX
  8
T06SSILL
 62
8
 10
1206.343
 20
-39.849
 30
4632.280
 70
    32
  0
VERTEX
  8
T06SSILL
 62
8
 10
1202.781
 20
-24.511
 30
4632.280
 70
    32
  0
VERTEX
  8
T06SSILL
 62
8
 10
1273.690
 20
-26.830
 30
4632.280
 70
    32
  0
VERTEX
  8
T06SSILL
 62
8
 10
1279.785
 20
-28.765
 30
4632.280
 70
    32
  0
VERTEX
  8
T06SSILL
 62
8
 10
1281.809
 20
-34.979
 30
4632.280
 70
    32
  0
VERTEX
  8
T06SSILL
 62
8
 10
1279.110
 20
-42.932
 30
4632.280
 70
    32
  0
VERTEX
  8
T06SSILL
 62
8
 10
1275.454
 20
-45.535
 30
4632.280
 70
    32
  0
VERTEX
  8
T06SSILL
 62
8
 10
1240.065
 20
-42.792
 30
4632.280
 70
    32
  0
SEQEND
  8
T06SSILL
  0
POLYLINE
  8
T06SSILL
 62
8
 66
     1
 70
     9
  0
VERTEX
  8
T06SSILL
 62
8
 10
1172.511
 20
-17.034
 30
4632.280
 70
    32
  0
VERTEX
  8
T06SSILL
 62
8
 10
1160.927
 20
11.818
 30
4632.280
 70
    32
  0
VERTEX
  8
T06SSILL
 62
8
 10
1159.842
 20
19.980
 30
4632.280
 70
    32
  0
VERTEX
  8
T06SSILL
 62
8
 10
1163.423
 20
27.770
 30
4632.280
 70
    32
  0
VERTEX
  8
T06SSILL
 62
8
 10
1169.291
 20
35.505
 30
4632.280
 70
    32
  0
VERTEX
  8
T06SSILL
 62
8
 10
1182.838
 20
22.950
 30
4632.280
 70
    32
  0
VERTEX
  8
T06SSILL
 62
8
 10
1191.339
 20
18.852
 30
4632.280
 70
    32
  0
VERTEX
  8
T06SSILL
 62
8
 10
1195.732
 20
13.023
 30
4632.280
 70
    32
  0
VERTEX
  8
T06SSILL
 62
8
 10
1197.432
 20
-7.265
 30
4632.280
 70
    32
  0
VERTEX
  8
T06SSILL
 62
8
 10
1200.926
 20
-17.855
 30
4632.280
 70
    32
  0
SEQEND
  8
T06SSILL
  0
POLYLINE
  8
T06SSILL
 62
8
 66
     1
 70
     9
  0
VERTEX
  8
T06SSILL
 62
8
 10
1290.932
 20
-63.866
 30
4632.280
 70
    32
  0
VERTEX
  8
T06SSILL
 62
8
 10
1289.365
 20
-52.809
 30
4632.280
 70
    32
  0
VERTEX
  8
T06SSILL
 62
8
 10
1291.602
 20
-37.212
 30
4632.280
 70
    32
  0
VERTEX
  8
T06SSILL
 62
8
 10
1295.169
 20
-34.523
 30
4632.280
 70
    32
  0
VERTEX
  8
T06SSILL
 62
8
 10
1292.248
 20
-27.090
 30
4632.280
 70
    32
  0
VERTEX
  8
T06SSILL
 62
8
 10
1291.510
 20
-6.436
 30
4632.280
 70
    32
  0
VERTEX
  8
T06SSILL
 62
8
 10
1293.154
 20
7.657
 30
4632.280
 70
    32
  0
VERTEX
  8
T06SSILL
 62
8
 10
1291.958
 20
23.468
 30
4632.280
 70
    32
  0
VERTEX
  8
T06SSILL
 62
8
 10
1285.215
 20
39.815
 30
4632.280
 70
    32
  0
VERTEX
  8
T06SSILL
 62
8
 10
1278.243
 20
47.716
 30
4632.280
 70
    32
  0
VERTEX
  8
T06SSILL
 62
8
 10
1278.475
 20
49.918
 30
4632.280
 70
    32
  0
VERTEX
  8
T06SSILL
 62
8
 10
1339.752
 20
69.180
 30
4632.280
 70
    32
  0
VERTEX
  8
T06SSILL
 62
8
 10
1351.559
 20
36.990
 30
4632.280
 70
    32
  0
VERTEX
  8
T06SSILL
 62
8
 10
1343.431
 20
-9.117
 30
4632.280
 70
    32
  0
VERTEX
  8
T06SSILL
 62
8
 10
1345.749
 20
-17.437
 30
4632.280
 70
    32
  0
VERTEX
  8
T06SSILL
 62
8
 10
1336.693
 20
-60.217
 30
4632.280
 70
    32
  0
SEQEND
  8
T06SSILL
  0
POLYLINE
  8
T06SSILL
 62
8
 66
     1
 70
     9
  0
VERTEX
  8
T06SSILL
 62
8
 10
1247.323
 20
75.850
 30
4632.280
 70
    32
  0
VERTEX
  8
T06SSILL
 62
8
 10
1231.208
 20
77.464
 30
4632.280
 70
    32
  0
VERTEX
  8
T06SSILL
 62
8
 10
1172.813
 20
77.853
 30
4632.280
 70
    32
  0
VERTEX
  8
T06SSILL
 62
8
 10
1167.438
 20
72.499
 30
4632.280
 70
    32
  0
VERTEX
  8
T06SSILL
 62
8
 10
1165.319
 20
67.017
 30
4632.280
 70
    32
  0
VERTEX
  8
T06SSILL
 62
8
 10
1168.508
 20
59.324
 30
4632.280
 70
    32
  0
VERTEX
  8
T06SSILL
 62
8
 10
1177.649
 20
47.409
 30
4632.280
 70
    32
  0
VERTEX
  8
T06SSILL
 62
8
 10
1214.801
 20
44.427
 30
4632.280
 70
    32
  0
VERTEX
  8
T06SSILL
 62
8
 10
1227.160
 20
41.088
 30
4632.280
 70
    32
  0
VERTEX
  8
T06SSILL
 62
8
 10
1241.400
 20
41.469
 30
4632.280
 70
    32
  0
VERTEX
  8
T06SSILL
 62
8
 10
1249.900
 20
43.527
 30
4632.280
 70
    32
  0
VERTEX
  8
T06SSILL
 62
8
 10
1249.675
 20
53.020
 30
4632.280
 70
    32
  0
VERTEX
  8
T06SSILL
 62
8
 10
1247.284
 20
54.217
 30
4632.280
 70
    32
  0
VERTEX
  8
T06SSILL
 62
8
 10
1242.923
 20
51.692
 30
4632.280
 70
    32
  0
VERTEX
  8
T06SSILL
 62
8
 10
1237.888
 20
53.290
 30
4632.280
 70
    32
  0
VERTEX
  8
T06SSILL
 62
8
 10
1231.256
 20
61.900
 30
4632.280
 70
    32
  0
VERTEX
  8
T06SSILL
 62
8
 10
1223.999
 20
65.137
 30
4632.280
 70
    32
  0
VERTEX
  8
T06SSILL
 62
8
 10
1227.230
 20
72.834
 30
4632.280
 70
    32
  0
VERTEX
  8
T06SSILL
 62
8
 10
1250.209
 20
58.656
 30
4632.280
 70
    32
  0
VERTEX
  8
T06SSILL
 62
8
 10
1254.601
 20
58.983
 30
4632.280
 70
    32
  0
SEQEND
  8
T06SSILL
  0
POLYLINE
  8
T06SSILL
 62
8
 66
     1
 70
     9
  0
VERTEX
  8
T06SSILL
 62
8
 10
1319.405
 20
126.397
 30
4632.280
 70
    32
  0
VERTEX
  8
T06SSILL
 62
8
 10
1272.030
 20
143.125
 30
4632.280
 70
    32
  0
VERTEX
  8
T06SSILL
 62
8
 10
1272.925
 20
117.636
 30
4632.280
 70
    32
  0
VERTEX
  8
T06SSILL
 62
8
 10
1268.752
 20
108.255
 30
4632.280
 70
    32
  0
VERTEX
  8
T06SSILL
 62
8
 10
1268.827
 20
103.068
 30
4632.280
 70
    32
  0
VERTEX
  8
T06SSILL
 62
8
 10
1272.614
 20
90.460
 30
4632.280
 70
    32
  0
VERTEX
  8
T06SSILL
 62
8
 10
1277.233
 20
81.117
 30
4632.280
 70
    32
  0
VERTEX
  8
T06SSILL
 62
8
 10
1279.655
 20
71.743
 30
4632.280
 70
    32
  0
VERTEX
  8
T06SSILL
 62
8
 10
1273.438
 20
63.827
 30
4632.280
 70
    32
  0
VERTEX
  8
T06SSILL
 62
8
 10
1271.070
 20
57.286
 30
4632.280
 70
    32
  0
VERTEX
  8
T06SSILL
 62
8
 10
1274.604
 20
56.106
 30
4632.280
 70
    32
  0
VERTEX
  8
T06SSILL
 62
8
 10
1337.469
 20
75.039
 30
4632.280
 70
    32
  0
SEQEND
  8
T06SSILL
  0
POLYLINE
  8
T06SSILL
 62
8
 66
     1
 70
     9
  0
VERTEX
  8
T06SSILL
 62
8
 10
1325.102
 20
127.710
 30
4632.280
 70
    32
  0
VERTEX
  8
T06SSILL
 62
8
 10
1332.045
 20
146.276
 30
4632.280
 70
    32
  0
VERTEX
  8
T06SSILL
 62
8
 10
1338.417
 20
137.311
 30
4632.280
 70
    32
  0
VERTEX
  8
T06SSILL
 62
8
 10
1343.745
 20
115.404
 30
4632.280
 70
    32
  0
VERTEX
  8
T06SSILL
 62
8
 10
1341.727
 20
109.044
 30
4632.280
 70
    32
  0
VERTEX
  8
T06SSILL
 62
8
 10
1344.523
 20
104.159
 30
4632.280
 70
    32
  0
VERTEX
  8
T06SSILL
 62
8
 10
1343.095
 20
99.566
 30
4632.280
 70
    32
  0
VERTEX
  8
T06SSILL
 62
8
 10
1336.162
 20
98.587
 30
4632.280
 70
    32
  0
SEQEND
  8
T06SSILL
  0
POLYLINE
  8
T06SSILL
 62
8
 66
     1
 70
     9
  0
VERTEX
  8
T06SSILL
 62
8
 10
1070.191
 20
163.341
 30
4632.280
 70
    32
  0
VERTEX
  8
T06SSILL
 62
8
 10
1069.256
 20
173.264
 30
4632.280
 70
    32
  0
VERTEX
  8
T06SSILL
 62
8
 10
1098.580
 20
188.724
 30
4632.280
 70
    32
  0
VERTEX
  8
T06SSILL
 62
8
 10
1100.366
 20
186.815
 30
4632.280
 70
    32
  0
VERTEX
  8
T06SSILL
 62
8
 10
1099.355
 20
177.655
 30
4632.280
 70
    32
  0
VERTEX
  8
T06SSILL
 62
8
 10
1092.781
 20
176.153
 30
4632.280
 70
    32
  0
SEQEND
  8
T06SSILL
  0
POLYLINE
  8
T06SSILL
 62
8
 66
     1
 70
     9
  0
VERTEX
  8
T06SSILL
 62
8
 10
1183.230
 20
172.621
 30
4632.280
 70
    32
  0
VERTEX
  8
T06SSILL
 62
8
 10
1182.967
 20
166.462
 30
4632.280
 70
    32
  0
VERTEX
  8
T06SSILL
 62
8
 10
1126.219
 20
168.546
 30
4632.280
 70
    32
  0
VERTEX
  8
T06SSILL
 62
8
 10
1124.095
 20
157.259
 30
4632.280
 70
    32
  0
VERTEX
  8
T06SSILL
 62
8
 10
1210.879
 20
151.740
 30
4632.280
 70
    32
  0
VERTEX
  8
T06SSILL
 62
8
 10
1222.736
 20
152.702
 30
4632.280
 70
    32
  0
VERTEX
  8
T06SSILL
 62
8
 10
1247.688
 20
148.138
 30
4632.280
 70
    32
  0
VERTEX
  8
T06SSILL
 62
8
 10
1251.268
 20
162.083
 30
4632.280
 70
    32
  0
VERTEX
  8
T06SSILL
 62
8
 10
1243.747
 20
165.316
 30
4632.280
 70
    32
  0
VERTEX
  8
T06SSILL
 62
8
 10
1218.949
 20
165.310
 30
4632.280
 70
    32
  0
VERTEX
  8
T06SSILL
 62
8
 10
1219.297
 20
171.647
 30
4632.280
 70
    32
  0
VERTEX
  8
T06SSILL
 62
8
 10
1240.070
 20
170.275
 30
4632.280
 70
    32
  0
VERTEX
  8
T06SSILL
 62
8
 10
1246.290
 20
171.860
 30
4632.280
 70
    32
  0
VERTEX
  8
T06SSILL
 62
8
 10
1251.239
 20
170.173
 30
4632.280
 70
    32
  0
VERTEX
  8
T06SSILL
 62
8
 10
1250.270
 20
176.402
 30
4632.280
 70
    32
  0
VERTEX
  8
T06SSILL
 62
8
 10
1241.359
 20
178.472
 30
4632.280
 70
    32
  0
VERTEX
  8
T06SSILL
 62
8
 10
1233.542
 20
177.832
 30
4632.280
 70
    32
  0
VERTEX
  8
T06SSILL
 62
8
 10
1211.700
 20
180.155
 30
4632.280
 70
    32
  0
VERTEX
  8
T06SSILL
 62
8
 10
1197.571
 20
178.192
 30
4632.280
 70
    32
  0
VERTEX
  8
T06SSILL
 62
8
 10
1187.793
 20
179.370
 30
4632.280
 70
    32
  0
VERTEX
  8
T06SSILL
 62
8
 10
1175.338
 20
183.236
 30
4632.280
 70
    32
  0
VERTEX
  8
T06SSILL
 62
8
 10
1154.194
 20
186.008
 30
4632.280
 70
    32
  0
VERTEX
  8
T06SSILL
 62
8
 10
1140.917
 20
185.905
 30
4632.280
 70
    32
  0
VERTEX
  8
T06SSILL
 62
8
 10
1128.668
 20
175.528
 30
4632.280
 70
    32
  0
VERTEX
  8
T06SSILL
 62
8
 10
1127.645
 20
173.315
 30
4632.280
 70
    32
  0
VERTEX
  8
T06SSILL
 62
8
 10
1157.458
 20
173.129
 30
4632.280
 70
    32
  0
SEQEND
  8
T06SSILL
  0
POLYLINE
  8
T06SSILL
 62
8
 66
     1
 70
     9
  0
VERTEX
  8
T06SSILL
 62
8
 10
1319.553
 20
134.401
 30
4632.280
 70
    32
  0
VERTEX
  8
T06SSILL
 62
8
 10
1326.069
 20
152.082
 30
4632.280
 70
    32
  0
VERTEX
  8
T06SSILL
 62
8
 10
1324.417
 20
175.185
 30
4632.280
 70
    32
  0
VERTEX
  8
T06SSILL
 62
8
 10
1321.700
 20
192.821
 30
4632.280
 70
    32
  0
VERTEX
  8
T06SSILL
 62
8
 10
1321.861
 20
199.946
 30
4632.280
 70
    32
  0
VERTEX
  8
T06SSILL
 62
8
 10
1329.977
 20
295.737
 30
4632.280
 70
    32
  0
VERTEX
  8
T06SSILL
 62
8
 10
1334.425
 20
298.263
 30
4632.280
 70
    32
  0
VERTEX
  8
T06SSILL
 62
8
 10
1336.907
 20
327.405
 30
4632.280
 70
    32
  0
VERTEX
  8
T06SSILL
 62
8
 10
1330.574
 20
333.645
 30
4632.280
 70
    32
  0
VERTEX
  8
T06SSILL
 62
8
 10
1315.649
 20
325.868
 30
4632.280
 70
    32
  0
VERTEX
  8
T06SSILL
 62
8
 10
1304.766
 20
324.392
 30
4632.280
 70
    32
  0
VERTEX
  8
T06SSILL
 62
8
 10
1300.654
 20
335.148
 30
4632.280
 70
    32
  0
VERTEX
  8
T06SSILL
 62
8
 10
1295.962
 20
343.435
 30
4632.280
 70
    32
  0
VERTEX
  8
T06SSILL
 62
8
 10
1287.982
 20
347.980
 30
4632.280
 70
    32
  0
VERTEX
  8
T06SSILL
 62
8
 10
1289.909
 20
330.245
 30
4632.280
 70
    32
  0
VERTEX
  8
T06SSILL
 62
8
 10
1287.421
 20
325.900
 30
4632.280
 70
    32
  0
VERTEX
  8
T06SSILL
 62
8
 10
1288.204
 20
320.372
 30
4632.280
 70
    32
  0
VERTEX
  8
T06SSILL
 62
8
 10
1280.269
 20
321.840
 30
4632.280
 70
    32
  0
VERTEX
  8
T06SSILL
 62
8
 10
1278.470
 20
324.628
 30
4632.280
 70
    32
  0
VERTEX
  8
T06SSILL
 62
8
 10
1281.922
 20
329.162
 30
4632.280
 70
    32
  0
VERTEX
  8
T06SSILL
 62
8
 10
1282.494
 20
350.451
 30
4632.280
 70
    32
  0
VERTEX
  8
T06SSILL
 62
8
 10
1266.709
 20
359.632
 30
4632.280
 70
    32
  0
VERTEX
  8
T06SSILL
 62
8
 10
1259.051
 20
360.225
 30
4632.280
 70
    32
  0
VERTEX
  8
T06SSILL
 62
8
 10
1254.039
 20
341.863
 30
4632.280
 70
    32
  0
VERTEX
  8
T06SSILL
 62
8
 10
1252.302
 20
328.208
 30
4632.280
 70
    32
  0
VERTEX
  8
T06SSILL
 62
8
 10
1264.917
 20
325.400
 30
4632.280
 70
    32
  0
VERTEX
  8
T06SSILL
 62
8
 10
1276.978
 20
318.363
 30
4632.280
 70
    32
  0
VERTEX
  8
T06SSILL
 62
8
 10
1287.242
 20
313.938
 30
4632.280
 70
    32
  0
VERTEX
  8
T06SSILL
 62
8
 10
1324.715
 20
313.072
 30
4632.280
 70
    32
  0
VERTEX
  8
T06SSILL
 62
8
 10
1329.377
 20
300.740
 30
4632.280
 70
    32
  0
VERTEX
  8
T06SSILL
 62
8
 10
1322.804
 20
287.015
 30
4632.280
 70
    32
  0
VERTEX
  8
T06SSILL
 62
8
 10
1309.471
 20
284.713
 30
4632.280
 70
    32
  0
VERTEX
  8
T06SSILL
 62
8
 10
1285.420
 20
293.951
 30
4632.280
 70
    32
  0
VERTEX
  8
T06SSILL
 62
8
 10
1281.410
 20
297.586
 30
4632.280
 70
    32
  0
VERTEX
  8
T06SSILL
 62
8
 10
1260.605
 20
295.088
 30
4632.280
 70
    32
  0
VERTEX
  8
T06SSILL
 62
8
 10
1263.945
 20
276.933
 30
4632.280
 70
    32
  0
VERTEX
  8
T06SSILL
 62
8
 10
1252.192
 20
280.897
 30
4632.280
 70
    32
  0
VERTEX
  8
T06SSILL
 62
8
 10
1245.154
 20
281.147
 30
4632.280
 70
    32
  0
VERTEX
  8
T06SSILL
 62
8
 10
1243.296
 20
269.777
 30
4632.280
 70
    32
  0
VERTEX
  8
T06SSILL
 62
8
 10
1244.104
 20
256.422
 30
4632.280
 70
    32
  0
VERTEX
  8
T06SSILL
 62
8
 10
1241.863
 20
241.089
 30
4632.280
 70
    32
  0
VERTEX
  8
T06SSILL
 62
8
 10
1257.559
 20
225.839
 30
4632.280
 70
    32
  0
VERTEX
  8
T06SSILL
 62
8
 10
1267.947
 20
218.954
 30
4632.280
 70
    32
  0
VERTEX
  8
T06SSILL
 62
8
 10
1273.213
 20
213.578
 30
4632.280
 70
    32
  0
VERTEX
  8
T06SSILL
 62
8
 10
1278.022
 20
184.980
 30
4632.280
 70
    32
  0
VERTEX
  8
T06SSILL
 62
8
 10
1282.214
 20
174.752
 30
4632.280
 70
    32
  0
VERTEX
  8
T06SSILL
 62
8
 10
1284.251
 20
161.591
 30
4632.280
 70
    32
  0
VERTEX
  8
T06SSILL
 62
8
 10
1283.500
 20
152.699
 30
4632.280
 70
    32
  0
VERTEX
  8
T06SSILL
 62
8
 10
1278.025
 20
148.135
 30
4632.280
 70
    32
  0
VERTEX
  8
T06SSILL
 62
8
 10
1294.189
 20
143.180
 30
4632.280
 70
    32
  0
SEQEND
  8
T06SSILL
  0
POLYLINE
  8
T06SSILL
 62
8
 66
     1
 70
     9
  0
VERTEX
  8
T06SSILL
 62
8
 10
1134.421
 20
246.135
 30
4632.280
 70
    32
  0
VERTEX
  8
T06SSILL
 62
8
 10
1134.245
 20
240.065
 30
4632.280
 70
    32
  0
VERTEX
  8
T06SSILL
 62
8
 10
1131.259
 20
233.690
 30
4632.280
 70
    32
  0
VERTEX
  8
T06SSILL
 62
8
 10
1124.513
 20
225.855
 30
4632.280
 70
    32
  0
VERTEX
  8
T06SSILL
 62
8
 10
1126.987
 20
218.944
 30
4632.280
 70
    32
  0
VERTEX
  8
T06SSILL
 62
8
 10
1132.934
 20
215.072
 30
4632.280
 70
    32
  0
VERTEX
  8
T06SSILL
 62
8
 10
1145.260
 20
214.019
 30
4632.280
 70
    32
  0
VERTEX
  8
T06SSILL
 62
8
 10
1155.863
 20
216.634
 30
4632.280
 70
    32
  0
VERTEX
  8
T06SSILL
 62
8
 10
1174.844
 20
217.523
 30
4632.280
 70
    32
  0
VERTEX
  8
T06SSILL
 62
8
 10
1177.042
 20
223.622
 30
4632.280
 70
    32
  0
VERTEX
  8
T06SSILL
 62
8
 10
1152.954
 20
241.478
 30
4632.280
 70
    32
  0
SEQEND
  8
T06SSILL
  0
POLYLINE
  8
T06SSILL
 62
8
 66
     1
 70
     9
  0
VERTEX
  8
T06SSILL
 62
8
 10
1177.102
 20
280.430
 30
4632.280
 70
    32
  0
VERTEX
  8
T06SSILL
 62
8
 10
1175.820
 20
271.793
 30
4632.280
 70
    32
  0
VERTEX
  8
T06SSILL
 62
8
 10
1178.301
 20
258.287
 30
4632.280
 70
    32
  0
VERTEX
  8
T06SSILL
 62
8
 10
1172.905
 20
254.428
 30
4632.280
 70
    32
  0
VERTEX
  8
T06SSILL
 62
8
 10
1145.224
 20
259.217
 30
4632.280
 70
    32
  0
VERTEX
  8
T06SSILL
 62
8
 10
1146.950
 20
267.596
 30
4632.280
 70
    32
  0
VERTEX
  8
T06SSILL
 62
8
 10
1154.021
 20
277.283
 30
4632.280
 70
    32
  0
VERTEX
  8
T06SSILL
 62
8
 10
1165.478
 20
281.581
 30
4632.280
 70
    32
  0
SEQEND
  8
T06SSILL
  0
POLYLINE
  8
T06SSILL
 62
8
 66
     1
 70
     9
  0
VERTEX
  8
T06SSILL
 62
8
 10
1209.938
 20
247.488
 30
4632.280
 70
    32
  0
VERTEX
  8
T06SSILL
 62
8
 10
1213.023
 20
222.559
 30
4632.280
 70
    32
  0
VERTEX
  8
T06SSILL
 62
8
 10
1218.233
 20
214.983
 30
4632.280
 70
    32
  0
VERTEX
  8
T06SSILL
 62
8
 10
1231.794
 20
213.684
 30
4632.280
 70
    32
  0
VERTEX
  8
T06SSILL
 62
8
 10
1240.315
 20
214.247
 30
4632.280
 70
    32
  0
VERTEX
  8
T06SSILL
 62
8
 10
1243.323
 20
212.971
 30
4632.280
 70
    32
  0
VERTEX
  8
T06SSILL
 62
8
 10
1244.793
 20
208.595
 30
4632.280
 70
    32
  0
VERTEX
  8
T06SSILL
 62
8
 10
1247.943
 20
209.696
 30
4632.280
 70
    32
  0
VERTEX
  8
T06SSILL
 62
8
 10
1249.100
 20
214.813
 30
4632.280
 70
    32
  0
VERTEX
  8
T06SSILL
 62
8
 10
1247.792
 20
220.158
 30
4632.280
 70
    32
  0
VERTEX
  8
T06SSILL
 62
8
 10
1249.487
 20
224.579
 30
4632.280
 70
    32
  0
VERTEX
  8
T06SSILL
 62
8
 10
1232.789
 20
242.189
 30
4632.280
 70
    32
  0
VERTEX
  8
T06SSILL
 62
8
 10
1228.614
 20
245.119
 30
4632.280
 70
    32
  0
VERTEX
  8
T06SSILL
 62
8
 10
1221.905
 20
246.957
 30
4632.280
 70
    32
  0
SEQEND
  8
T06SSILL
  0
POLYLINE
  8
T06SSILL
 62
8
 66
     1
 70
     9
  0
VERTEX
  8
T06SSILL
 62
8
 10
1209.094
 20
257.236
 30
4632.280
 70
    32
  0
VERTEX
  8
T06SSILL
 62
8
 10
1226.018
 20
254.403
 30
4632.280
 70
    32
  0
VERTEX
  8
T06SSILL
 62
8
 10
1235.119
 20
251.368
 30
4632.280
 70
    32
  0
VERTEX
  8
T06SSILL
 62
8
 10
1237.180
 20
254.827
 30
4632.280
 70
    32
  0
VERTEX
  8
T06SSILL
 62
8
 10
1237.366
 20
272.417
 30
4632.280
 70
    32
  0
VERTEX
  8
T06SSILL
 62
8
 10
1226.257
 20
280.523
 30
4632.280
 70
    32
  0
VERTEX
  8
T06SSILL
 62
8
 10
1215.229
 20
283.002
 30
4632.280
 70
    32
  0
VERTEX
  8
T06SSILL
 62
8
 10
1208.409
 20
280.353
 30
4632.280
 70
    32
  0
SEQEND
  8
T06SSILL
  0
POLYLINE
  8
T06SSILL
 62
8
 66
     1
 70
     9
  0
VERTEX
  8
T06SSILL
 62
8
 10
1067.925
 20
180.192
 30
4632.280
 70
    32
  0
VERTEX
  8
T06SSILL
 62
8
 10
1098.556
 20
196.462
 30
4632.280
 70
    32
  0
VERTEX
  8
T06SSILL
 62
8
 10
1102.630
 20
212.789
 30
4632.280
 70
    32
  0
VERTEX
  8
T06SSILL
 62
8
 10
1104.699
 20
252.213
 30
4632.280
 70
    32
  0
VERTEX
  8
T06SSILL
 62
8
 10
1117.451
 20
270.424
 30
4632.280
 70
    32
  0
VERTEX
  8
T06SSILL
 62
8
 10
1116.201
 20
277.793
 30
4632.280
 70
    32
  0
VERTEX
  8
T06SSILL
 62
8
 10
1120.340
 20
283.480
 30
4632.280
 70
    32
  0
VERTEX
  8
T06SSILL
 62
8
 10
1148.581
 20
294.703
 30
4632.280
 70
    32
  0
VERTEX
  8
T06SSILL
 62
8
 10
1153.832
 20
302.605
 30
4632.280
 70
    32
  0
VERTEX
  8
T06SSILL
 62
8
 10
1142.739
 20
303.501
 30
4632.280
 70
    32
  0
VERTEX
  8
T06SSILL
 62
8
 10
1145.587
 20
325.526
 30
4632.280
 70
    32
  0
VERTEX
  8
T06SSILL
 62
8
 10
1139.800
 20
336.522
 30
4632.280
 70
    32
  0
VERTEX
  8
T06SSILL
 62
8
 10
1133.901
 20
337.052
 30
4632.280
 70
    32
  0
VERTEX
  8
T06SSILL
 62
8
 10
1127.621
 20
327.377
 30
4632.280
 70
    32
  0
VERTEX
  8
T06SSILL
 62
8
 10
1087.779
 20
279.141
 30
4632.280
 70
    32
  0
VERTEX
  8
T06SSILL
 62
8
 10
1052.815
 20
234.054
 30
4632.280
 70
    32
  0
VERTEX
  8
T06SSILL
 62
8
 10
1064.201
 20
212.850
 30
4632.280
 70
    32
  0
SEQEND
  8
T06SSILL
  0
POLYLINE
  8
T06SSILL
 62
8
 66
     1
 70
     9
  0
VERTEX
  8
T06SSILL
 62
8
 10
1190.346
 20
368.204
 30
4632.280
 70
    32
  0
VERTEX
  8
T06SSILL
 62
8
 10
1179.020
 20
373.053
 30
4632.280
 70
    32
  0
VERTEX
  8
T06SSILL
 62
8
 10
1171.805
 20
373.389
 30
4632.280
 70
    32
  0
VERTEX
  8
T06SSILL
 62
8
 10
1162.460
 20
368.945
 30
4632.280
 70
    32
  0
VERTEX
  8
T06SSILL
 62
8
 10
1153.237
 20
362.129
 30
4632.280
 70
    32
  0
VERTEX
  8
T06SSILL
 62
8
 10
1142.231
 20
344.823
 30
4632.280
 70
    32
  0
VERTEX
  8
T06SSILL
 62
8
 10
1144.677
 20
339.846
 30
4632.280
 70
    32
  0
VERTEX
  8
T06SSILL
 62
8
 10
1153.198
 20
334.341
 30
4632.280
 70
    32
  0
VERTEX
  8
T06SSILL
 62
8
 10
1151.938
 20
324.122
 30
4632.280
 70
    32
  0
VERTEX
  8
T06SSILL
 62
8
 10
1152.079
 20
308.296
 30
4632.280
 70
    32
  0
VERTEX
  8
T06SSILL
 62
8
 10
1158.429
 20
306.981
 30
4632.280
 70
    32
  0
VERTEX
  8
T06SSILL
 62
8
 10
1178.344
 20
316.325
 30
4632.280
 70
    32
  0
VERTEX
  8
T06SSILL
 62
8
 10
1186.003
 20
321.800
 30
4632.280
 70
    32
  0
VERTEX
  8
T06SSILL
 62
8
 10
1189.055
 20
341.893
 30
4632.280
 70
    32
  0
SEQEND
  8
T06SSILL
  0
POLYLINE
  8
T06SSILL
 62
8
 66
     1
 70
     9
  0
VERTEX
  8
T06SSILL
 62
8
 10
1194.358
 20
327.812
 30
4632.280
 70
    32
  0
VERTEX
  8
T06SSILL
 62
8
 10
1197.909
 20
325.489
 30
4632.280
 70
    32
  0
VERTEX
  8
T06SSILL
 62
8
 10
1219.110
 20
330.983
 30
4632.280
 70
    32
  0
VERTEX
  8
T06SSILL
 62
8
 10
1235.963
 20
333.072
 30
4632.280
 70
    32
  0
VERTEX
  8
T06SSILL
 62
8
 10
1242.846
 20
331.413
 30
4632.280
 70
    32
  0
VERTEX
  8
T06SSILL
 62
8
 10
1248.624
 20
345.390
 30
4632.280
 70
    32
  0
VERTEX
  8
T06SSILL
 62
8
 10
1249.958
 20
356.577
 30
4632.280
 70
    32
  0
VERTEX
  8
T06SSILL
 62
8
 10
1247.648
 20
364.282
 30
4632.280
 70
    32
  0
VERTEX
  8
T06SSILL
 62
8
 10
1231.271
 20
371.872
 30
4632.280
 70
    32
  0
VERTEX
  8
T06SSILL
 62
8
 10
1219.722
 20
373.904
 30
4632.280
 70
    32
  0
VERTEX
  8
T06SSILL
 62
8
 10
1204.378
 20
370.781
 30
4632.280
 70
    32
  0
VERTEX
  8
T06SSILL
 62
8
 10
1198.070
 20
363.127
 30
4632.280
 70
    32
  0
VERTEX
  8
T06SSILL
 62
8
 10
1195.895
 20
349.290
 30
4632.280
 70
    32
  0
SEQEND
  8
T06SSILL
  0
POLYLINE
  8
T06SSILL
 62
8
 66
     1
 70
     9
  0
VERTEX
  8
T06SSILL
 62
8
 10
904.196
 20
-1891.550
 30
4632.280
 70
    32
  0
VERTEX
  8
T06SSILL
 62
8
 10
890.110
 20
-1886.081
 30
4632.280
 70
    32
  0
VERTEX
  8
T06SSILL
 62
8
 10
881.595
 20
-1887.200
 30
4632.280
 70
    32
  0
VERTEX
  8
T06SSILL
 62
8
 10
881.862
 20
-1892.298
 30
4632.280
 70
    32
  0
VERTEX
  8
T06SSILL
 62
8
 10
896.459
 20
-1911.659
 30
4632.280
 70
    32
  0
VERTEX
  8
T06SSILL
 62
8
 10
898.741
 20
-1916.281
 30
4632.280
 70
    32
  0
VERTEX
  8
T06SSILL
 62
8
 10
902.557
 20
-1918.149
 30
4632.280
 70
    32
  0
VERTEX
  8
T06SSILL
 62
8
 10
908.347
 20
-1927.108
 30
4632.280
 70
    32
  0
VERTEX
  8
T06SSILL
 62
8
 10
936.166
 20
-1942.891
 30
4632.280
 70
    32
  0
VERTEX
  8
T06SSILL
 62
8
 10
940.639
 20
-1942.107
 30
4632.280
 70
    32
  0
VERTEX
  8
T06SSILL
 62
8
 10
936.817
 20
-1930.034
 30
4632.280
 70
    32
  0
VERTEX
  8
T06SSILL
 62
8
 10
924.329
 20
-1915.475
 30
4632.280
 70
    32
  0
SEQEND
  8
T06SSILL
  0
POLYLINE
  8
T06SSILL
 62
8
 66
     1
 70
     9
  0
VERTEX
  8
T06SSILL
 62
8
 10
1574.580
 20
-2681.588
 30
4632.280
 70
    32
  0
VERTEX
  8
T06SSILL
 62
8
 10
1565.312
 20
-2679.906
 30
4632.280
 70
    32
  0
VERTEX
  8
T06SSILL
 62
8
 10
1560.116
 20
-2674.631
 30
4632.280
 70
    32
  0
VERTEX
  8
T06SSILL
 62
8
 10
1530.383
 20
-2694.691
 30
4632.280
 70
    32
  0
VERTEX
  8
T06SSILL
 62
8
 10
1520.880
 20
-2679.815
 30
4632.280
 70
    32
  0
VERTEX
  8
T06SSILL
 62
8
 10
1555.756
 20
-2657.024
 30
4632.280
 70
    32
  0
VERTEX
  8
T06SSILL
 62
8
 10
1542.197
 20
-2636.677
 30
4632.280
 70
    32
  0
VERTEX
  8
T06SSILL
 62
8
 10
1537.406
 20
-2639.402
 30
4632.280
 70
    32
  0
VERTEX
  8
T06SSILL
 62
8
 10
1517.611
 20
-2609.752
 30
4632.280
 70
    32
  0
VERTEX
  8
T06SSILL
 62
8
 10
1512.921
 20
-2613.179
 30
4632.280
 70
    32
  0
VERTEX
  8
T06SSILL
 62
8
 10
1506.325
 20
-2603.442
 30
4632.280
 70
    32
  0
VERTEX
  8
T06SSILL
 62
8
 10
1501.459
 20
-2606.872
 30
4632.280
 70
    32
  0
VERTEX
  8
T06SSILL
 62
8
 10
1494.666
 20
-2595.907
 30
4632.280
 70
    32
  0
VERTEX
  8
T06SSILL
 62
8
 10
1489.024
 20
-2600.230
 30
4632.280
 70
    32
  0
VERTEX
  8
T06SSILL
 62
8
 10
1474.331
 20
-2605.154
 30
4632.280
 70
    32
  0
VERTEX
  8
T06SSILL
 62
8
 10
1473.300
 20
-2591.712
 30
4632.280
 70
    32
  0
VERTEX
  8
T06SSILL
 62
8
 10
1474.090
 20
-2566.887
 30
4632.280
 70
    32
  0
VERTEX
  8
T06SSILL
 62
8
 10
1472.118
 20
-2564.810
 30
4632.280
 70
    32
  0
VERTEX
  8
T06SSILL
 62
8
 10
1462.913
 20
-2561.718
 30
4632.280
 70
    32
  0
VERTEX
  8
T06SSILL
 62
8
 10
1460.468
 20
-2557.803
 30
4632.280
 70
    32
  0
VERTEX
  8
T06SSILL
 62
8
 10
1462.408
 20
-2553.105
 30
4632.280
 70
    32
  0
VERTEX
  8
T06SSILL
 62
8
 10
1485.748
 20
-2524.800
 30
4632.280
 70
    32
  0
VERTEX
  8
T06SSILL
 62
8
 10
1489.795
 20
-2524.816
 30
4632.280
 70
    32
  0
VERTEX
  8
T06SSILL
 62
8
 10
1643.257
 20
-2634.969
 30
4632.280
 70
    32
  0
VERTEX
  8
T06SSILL
 62
8
 10
1644.112
 20
-2638.473
 30
4632.280
 70
    32
  0
VERTEX
  8
T06SSILL
 62
8
 10
1642.421
 20
-2642.375
 30
4632.280
 70
    32
  0
VERTEX
  8
T06SSILL
 62
8
 10
1633.618
 20
-2647.018
 30
4632.280
 70
    32
  0
SEQEND
  8
T06SSILL
  0
POLYLINE
  8
T06SSILL
 62
8
 66
     1
 70
     9
  0
VERTEX
  8
T06SSILL
 62
8
 10
1390.693
 20
-2453.553
 30
4632.280
 70
    32
  0
VERTEX
  8
T06SSILL
 62
8
 10
1367.473
 20
-2453.965
 30
4632.280
 70
    32
  0
VERTEX
  8
T06SSILL
 62
8
 10
1342.601
 20
-2460.390
 30
4632.280
 70
    32
  0
VERTEX
  8
T06SSILL
 62
8
 10
1295.596
 20
-2473.983
 30
4632.280
 70
    32
  0
VERTEX
  8
T06SSILL
 62
8
 10
1292.789
 20
-2479.400
 30
4632.280
 70
    32
  0
VERTEX
  8
T06SSILL
 62
8
 10
1293.600
 20
-2505.252
 30
4632.280
 70
    32
  0
VERTEX
  8
T06SSILL
 62
8
 10
1300.440
 20
-2503.987
 30
4632.280
 70
    32
  0
VERTEX
  8
T06SSILL
 62
8
 10
1306.829
 20
-2511.967
 30
4632.280
 70
    32
  0
VERTEX
  8
T06SSILL
 62
8
 10
1309.741
 20
-2522.385
 30
4632.280
 70
    32
  0
VERTEX
  8
T06SSILL
 62
8
 10
1310.492
 20
-2529.938
 30
4632.280
 70
    32
  0
VERTEX
  8
T06SSILL
 62
8
 10
1317.111
 20
-2536.068
 30
4632.280
 70
    32
  0
VERTEX
  8
T06SSILL
 62
8
 10
1324.471
 20
-2539.280
 30
4632.280
 70
    32
  0
VERTEX
  8
T06SSILL
 62
8
 10
1340.752
 20
-2539.519
 30
4632.280
 70
    32
  0
VERTEX
  8
T06SSILL
 62
8
 10
1352.956
 20
-2548.012
 30
4632.280
 70
    32
  0
VERTEX
  8
T06SSILL
 62
8
 10
1354.018
 20
-2563.214
 30
4632.280
 70
    32
  0
VERTEX
  8
T06SSILL
 62
8
 10
1362.244
 20
-2570.634
 30
4632.280
 70
    32
  0
VERTEX
  8
T06SSILL
 62
8
 10
1372.470
 20
-2576.699
 30
4632.280
 70
    32
  0
VERTEX
  8
T06SSILL
 62
8
 10
1378.601
 20
-2585.036
 30
4632.280
 70
    32
  0
VERTEX
  8
T06SSILL
 62
8
 10
1384.223
 20
-2589.511
 30
4632.280
 70
    32
  0
VERTEX
  8
T06SSILL
 62
8
 10
1406.991
 20
-2583.476
 30
4632.280
 70
    32
  0
VERTEX
  8
T06SSILL
 62
8
 10
1428.281
 20
-2583.362
 30
4632.280
 70
    32
  0
VERTEX
  8
T06SSILL
 62
8
 10
1440.274
 20
-2584.908
 30
4632.280
 70
    32
  0
VERTEX
  8
T06SSILL
 62
8
 10
1448.036
 20
-2581.075
 30
4632.280
 70
    32
  0
VERTEX
  8
T06SSILL
 62
8
 10
1452.326
 20
-2570.001
 30
4632.280
 70
    32
  0
VERTEX
  8
T06SSILL
 62
8
 10
1455.167
 20
-2551.650
 30
4632.280
 70
    32
  0
VERTEX
  8
T06SSILL
 62
8
 10
1480.925
 20
-2520.751
 30
4632.280
 70
    32
  0
VERTEX
  8
T06SSILL
 62
8
 10
1480.520
 20
-2517.767
 30
4632.280
 70
    32
  0
SEQEND
  8
T06SSILL
  0
POLYLINE
  8
T06SSILL
 62
8
 66
     1
 70
     9
  0
VERTEX
  8
T06SSILL
 62
8
 10
1907.028
 20
-2695.813
 30
4632.280
 70
    32
  0
VERTEX
  8
T06SSILL
 62
8
 10
1914.589
 20
-2705.282
 30
4632.280
 70
    32
  0
VERTEX
  8
T06SSILL
 62
8
 10
1911.661
 20
-2707.562
 30
4632.280
 70
    32
  0
VERTEX
  8
T06SSILL
 62
8
 10
1896.467
 20
-2705.252
 30
4632.280
 70
    32
  0
VERTEX
  8
T06SSILL
 62
8
 10
1891.040
 20
-2703.026
 30
4632.280
 70
    32
  0
VERTEX
  8
T06SSILL
 62
8
 10
1891.447
 20
-2698.616
 30
4632.280
 70
    32
  0
SEQEND
  8
T06SSILL
  0
POLYLINE
  8
T06SSILL
 62
8
 66
     1
 70
     9
  0
VERTEX
  8
T06SSILL
 62
8
 10
1940.301
 20
-2720.731
 30
4632.280
 70
    32
  0
VERTEX
  8
T06SSILL
 62
8
 10
1937.815
 20
-2714.730
 30
4632.280
 70
    32
  0
VERTEX
  8
T06SSILL
 62
8
 10
1931.814
 20
-2712.245
 30
4632.280
 70
    32
  0
VERTEX
  8
T06SSILL
 62
8
 10
1925.813
 20
-2714.731
 30
4632.280
 70
    32
  0
VERTEX
  8
T06SSILL
 62
8
 10
1923.328
 20
-2720.732
 30
4632.280
 70
    32
  0
VERTEX
  8
T06SSILL
 62
8
 10
1925.815
 20
-2726.733
 30
4632.280
 70
    32
  0
VERTEX
  8
T06SSILL
 62
8
 10
1931.816
 20
-2729.218
 30
4632.280
 70
    32
  0
VERTEX
  8
T06SSILL
 62
8
 10
1937.271
 20
-2727.231
 30
4632.280
 70
    32
  0
VERTEX
  8
T06SSILL
 62
8
 10
1940.269
 20
-2721.469
 30
4632.280
 70
    32
  0
SEQEND
  8
T06SSILL
  0
POLYLINE
  8
T06SSILL
 62
8
 66
     1
 70
     9
  0
VERTEX
  8
T06SSILL
 62
8
 10
-620.015
 20
58.848
 30
4632.280
 70
    32
  0
VERTEX
  8
T06SSILL
 62
8
 10
-608.416
 20
23.959
 30
4632.280
 70
    32
  0
VERTEX
  8
T06SSILL
 62
8
 10
-584.987
 20
30.191
 30
4632.280
 70
    32
  0
VERTEX
  8
T06SSILL
 62
8
 10
-582.599
 20
15.790
 30
4632.280
 70
    32
  0
VERTEX
  8
T06SSILL
 62
8
 10
-589.271
 20
14.512
 30
4632.280
 70
    32
  0
VERTEX
  8
T06SSILL
 62
8
 10
-594.406
 20
19.487
 30
4632.280
 70
    32
  0
VERTEX
  8
T06SSILL
 62
8
 10
-602.470
 20
16.089
 30
4632.280
 70
    32
  0
VERTEX
  8
T06SSILL
 62
8
 10
-604.556
 20
12.733
 30
4632.280
 70
    32
  0
VERTEX
  8
T06SSILL
 62
8
 10
-593.796
 20
-16.994
 30
4632.280
 70
    32
  0
VERTEX
  8
T06SSILL
 62
8
 10
-576.094
 20
-46.145
 30
4632.280
 70
    32
  0
VERTEX
  8
T06SSILL
 62
8
 10
-552.898
 20
-31.826
 30
4632.280
 70
    32
  0
VERTEX
  8
T06SSILL
 62
8
 10
-561.078
 20
6.008
 30
4632.280
 70
    32
  0
VERTEX
  8
T06SSILL
 62
8
 10
-554.923
 20
30.756
 30
4632.280
 70
    32
  0
VERTEX
  8
T06SSILL
 62
8
 10
-556.757
 20
57.850
 30
4632.280
 70
    32
  0
VERTEX
  8
T06SSILL
 62
8
 10
-571.881
 20
95.413
 30
4632.280
 70
    32
  0
VERTEX
  8
T06SSILL
 62
8
 10
-596.854
 20
132.247
 30
4632.280
 70
    32
  0
VERTEX
  8
T06SSILL
 62
8
 10
-639.725
 20
113.932
 30
4632.280
 70
    32
  0
SEQEND
  8
T06SSILL
  0
POLYLINE
  8
T06SSILL
 62
8
 66
     1
 70
     9
  0
VERTEX
  8
T06SSILL
 62
8
 10
-109.436
 20
-1052.381
 30
4632.280
 70
    32
  0
VERTEX
  8
T06SSILL
 62
8
 10
-118.336
 20
-1037.147
 30
4632.280
 70
    32
  0
VERTEX
  8
T06SSILL
 62
8
 10
-117.673
 20
-1031.340
 30
4632.280
 70
    32
  0
VERTEX
  8
T06SSILL
 62
8
 10
-89.558
 20
-1016.459
 30
4632.280
 70
    32
  0
VERTEX
  8
T06SSILL
 62
8
 10
-57.029
 20
-991.612
 30
4632.280
 70
    32
  0
VERTEX
  8
T06SSILL
 62
8
 10
-54.662
 20
-990.628
 30
4632.280
 70
    32
  0
VERTEX
  8
T06SSILL
 62
8
 10
-35.421
 20
-1007.972
 30
4632.280
 70
    32
  0
VERTEX
  8
T06SSILL
 62
8
 10
-36.173
 20
-1018.785
 30
4632.280
 70
    32
  0
VERTEX
  8
T06SSILL
 62
8
 10
-39.493
 20
-1033.085
 30
4632.280
 70
    32
  0
VERTEX
  8
T06SSILL
 62
8
 10
-44.102
 20
-1044.558
 30
4632.280
 70
    32
  0
VERTEX
  8
T06SSILL
 62
8
 10
-51.607
 20
-1047.291
 30
4632.280
 70
    32
  0
VERTEX
  8
T06SSILL
 62
8
 10
-59.139
 20
-1052.576
 30
4632.280
 70
    32
  0
VERTEX
  8
T06SSILL
 62
8
 10
-96.233
 20
-1066.953
 30
4632.280
 70
    32
  0
VERTEX
  8
T06SSILL
 62
8
 10
-104.175
 20
-1061.239
 30
4632.280
 70
    32
  0
SEQEND
  8
T06SSILL
  0
POLYLINE
  8
T06SSILL
 62
8
 66
     1
 70
     9
  0
VERTEX
  8
T06SSILL
 62
8
 10
-20.293
 20
-1021.483
 30
4632.280
 70
    32
  0
VERTEX
  8
T06SSILL
 62
8
 10
-4.766
 20
-1034.585
 30
4632.280
 70
    32
  0
VERTEX
  8
T06SSILL
 62
8
 10
10.305
 20
-1052.413
 30
4632.280
 70
    32
  0
VERTEX
  8
T06SSILL
 62
8
 10
21.691
 20
-1060.479
 30
4632.280
 70
    32
  0
VERTEX
  8
T06SSILL
 62
8
 10
36.753
 20
-1099.339
 30
4632.280
 70
    32
  0
VERTEX
  8
T06SSILL
 62
8
 10
37.909
 20
-1106.387
 30
4632.280
 70
    32
  0
VERTEX
  8
T06SSILL
 62
8
 10
-29.046
 20
-1157.824
 30
4632.280
 70
    32
  0
VERTEX
  8
T06SSILL
 62
8
 10
-47.463
 20
-1161.056
 30
4632.280
 70
    32
  0
VERTEX
  8
T06SSILL
 62
8
 10
-90.539
 20
-1085.484
 30
4632.280
 70
    32
  0
VERTEX
  8
T06SSILL
 62
8
 10
-83.715
 20
-1072.453
 30
4632.280
 70
    32
  0
VERTEX
  8
T06SSILL
 62
8
 10
-33.122
 20
-1054.086
 30
4632.280
 70
    32
  0
VERTEX
  8
T06SSILL
 62
8
 10
-32.817
 20
-1058.399
 30
4632.280
 70
    32
  0
VERTEX
  8
T06SSILL
 62
8
 10
-27.478
 20
-1060.831
 30
4632.280
 70
    32
  0
VERTEX
  8
T06SSILL
 62
8
 10
-24.200
 20
-1050.400
 30
4632.280
 70
    32
  0
VERTEX
  8
T06SSILL
 62
8
 10
-26.830
 20
-1033.221
 30
4632.280
 70
    32
  0
SEQEND
  8
T06SSILL
  0
POLYLINE
  8
T06SSILL
 62
8
 66
     1
 70
     9
  0
VERTEX
  8
T06SSILL
 62
8
 10
36.856
 20
-1052.401
 30
4632.280
 70
    32
  0
VERTEX
  8
T06SSILL
 62
8
 10
42.589
 20
-1042.602
 30
4632.280
 70
    32
  0
VERTEX
  8
T06SSILL
 62
8
 10
50.545
 20
-1036.303
 30
4632.280
 70
    32
  0
VERTEX
  8
T06SSILL
 62
8
 10
61.074
 20
-1033.415
 30
4632.280
 70
    32
  0
VERTEX
  8
T06SSILL
 62
8
 10
71.840
 20
-1026.570
 30
4632.280
 70
    32
  0
VERTEX
  8
T06SSILL
 62
8
 10
90.264
 20
-1021.164
 30
4632.280
 70
    32
  0
VERTEX
  8
T06SSILL
 62
8
 10
97.112
 20
-1032.369
 30
4632.280
 70
    32
  0
VERTEX
  8
T06SSILL
 62
8
 10
100.362
 20
-1044.303
 30
4632.280
 70
    32
  0
VERTEX
  8
T06SSILL
 62
8
 10
101.826
 20
-1052.381
 30
4632.280
 70
    32
  0
VERTEX
  8
T06SSILL
 62
8
 10
98.254
 20
-1056.199
 30
4632.280
 70
    32
  0
VERTEX
  8
T06SSILL
 62
8
 10
100.489
 20
-1069.152
 30
4632.280
 70
    32
  0
VERTEX
  8
T06SSILL
 62
8
 10
115.061
 20
-1104.577
 30
4632.280
 70
    32
  0
VERTEX
  8
T06SSILL
 62
8
 10
118.958
 20
-1118.427
 30
4632.280
 70
    32
  0
VERTEX
  8
T06SSILL
 62
8
 10
114.604
 20
-1130.781
 30
4632.280
 70
    32
  0
VERTEX
  8
T06SSILL
 62
8
 10
87.645
 20
-1143.245
 30
4632.280
 70
    32
  0
VERTEX
  8
T06SSILL
 62
8
 10
80.349
 20
-1142.903
 30
4632.280
 70
    32
  0
VERTEX
  8
T06SSILL
 62
8
 10
76.253
 20
-1139.341
 30
4632.280
 70
    32
  0
VERTEX
  8
T06SSILL
 62
8
 10
59.953
 20
-1101.083
 30
4632.280
 70
    32
  0
VERTEX
  8
T06SSILL
 62
8
 10
48.331
 20
-1085.831
 30
4632.280
 70
    32
  0
VERTEX
  8
T06SSILL
 62
8
 10
40.845
 20
-1070.447
 30
4632.280
 70
    32
  0
SEQEND
  8
T06SSILL
  0
POLYLINE
  8
T06SSILL
 62
8
 66
     1
 70
     9
  0
VERTEX
  8
T06SSILL
 62
8
 10
439.081
 20
-1882.372
 30
4632.280
 70
    32
  0
VERTEX
  8
T06SSILL
 62
8
 10
289.104
 20
-1761.413
 30
4632.280
 70
    32
  0
VERTEX
  8
T06SSILL
 62
8
 10
210.738
 20
-1614.047
 30
4632.280
 70
    32
  0
VERTEX
  8
T06SSILL
 62
8
 10
236.960
 20
-1596.474
 30
4632.280
 70
    32
  0
VERTEX
  8
T06SSILL
 62
8
 10
247.096
 20
-1610.831
 30
4632.280
 70
    32
  0
VERTEX
  8
T06SSILL
 62
8
 10
263.642
 20
-1642.583
 30
4632.280
 70
    32
  0
VERTEX
  8
T06SSILL
 62
8
 10
273.602
 20
-1648.758
 30
4632.280
 70
    32
  0
VERTEX
  8
T06SSILL
 62
8
 10
291.119
 20
-1655.542
 30
4632.280
 70
    32
  0
VERTEX
  8
T06SSILL
 62
8
 10
350.361
 20
-1658.992
 30
4632.280
 70
    32
  0
VERTEX
  8
T06SSILL
 62
8
 10
364.868
 20
-1675.859
 30
4632.280
 70
    32
  0
VERTEX
  8
T06SSILL
 62
8
 10
419.301
 20
-1651.993
 30
4632.280
 70
    32
  0
VERTEX
  8
T06SSILL
 62
8
 10
442.587
 20
-1662.181
 30
4632.280
 70
    32
  0
VERTEX
  8
T06SSILL
 62
8
 10
455.760
 20
-1672.173
 30
4632.280
 70
    32
  0
VERTEX
  8
T06SSILL
 62
8
 10
430.307
 20
-1700.044
 30
4632.280
 70
    32
  0
VERTEX
  8
T06SSILL
 62
8
 10
427.623
 20
-1712.504
 30
4632.280
 70
    32
  0
VERTEX
  8
T06SSILL
 62
8
 10
433.790
 20
-1719.694
 30
4632.280
 70
    32
  0
VERTEX
  8
T06SSILL
 62
8
 10
453.924
 20
-1736.797
 30
4632.280
 70
    32
  0
VERTEX
  8
T06SSILL
 62
8
 10
464.969
 20
-1740.169
 30
4632.280
 70
    32
  0
VERTEX
  8
T06SSILL
 62
8
 10
475.387
 20
-1736.499
 30
4632.280
 70
    32
  0
VERTEX
  8
T06SSILL
 62
8
 10
488.644
 20
-1738.664
 30
4632.280
 70
    32
  0
VERTEX
  8
T06SSILL
 62
8
 10
486.990
 20
-1761.690
 30
4632.280
 70
    32
  0
VERTEX
  8
T06SSILL
 62
8
 10
491.513
 20
-1782.759
 30
4632.280
 70
    32
  0
VERTEX
  8
T06SSILL
 62
8
 10
508.863
 20
-1805.108
 30
4632.280
 70
    32
  0
VERTEX
  8
T06SSILL
 62
8
 10
525.397
 20
-1821.645
 30
4632.280
 70
    32
  0
VERTEX
  8
T06SSILL
 62
8
 10
534.440
 20
-1839.508
 30
4632.280
 70
    32
  0
VERTEX
  8
T06SSILL
 62
8
 10
551.242
 20
-1880.145
 30
4632.280
 70
    32
  0
VERTEX
  8
T06SSILL
 62
8
 10
557.922
 20
-1892.777
 30
4632.280
 70
    32
  0
VERTEX
  8
T06SSILL
 62
8
 10
591.273
 20
-1898.079
 30
4632.280
 70
    32
  0
VERTEX
  8
T06SSILL
 62
8
 10
613.728
 20
-1904.102
 30
4632.280
 70
    32
  0
VERTEX
  8
T06SSILL
 62
8
 10
611.711
 20
-1909.417
 30
4632.280
 70
    32
  0
VERTEX
  8
T06SSILL
 62
8
 10
604.494
 20
-1919.223
 30
4632.280
 70
    32
  0
VERTEX
  8
T06SSILL
 62
8
 10
595.342
 20
-1919.122
 30
4632.280
 70
    32
  0
VERTEX
  8
T06SSILL
 62
8
 10
581.805
 20
-1924.729
 30
4632.280
 70
    32
  0
VERTEX
  8
T06SSILL
 62
8
 10
577.914
 20
-1928.582
 30
4632.280
 70
    32
  0
VERTEX
  8
T06SSILL
 62
8
 10
580.540
 20
-1932.758
 30
4632.280
 70
    32
  0
VERTEX
  8
T06SSILL
 62
8
 10
512.697
 20
-1942.146
 30
4632.280
 70
    32
  0
SEQEND
  8
T06SSILL
  0
POLYLINE
  8
T06SSILL
 62
8
 66
     1
 70
     9
  0
VERTEX
  8
T06SSILL
 62
8
 10
852.460
 20
-1855.341
 30
4632.280
 70
    32
  0
VERTEX
  8
T06SSILL
 62
8
 10
749.851
 20
-1772.074
 30
4632.280
 70
    32
  0
VERTEX
  8
T06SSILL
 62
8
 10
751.851
 20
-1782.386
 30
4632.280
 70
    32
  0
VERTEX
  8
T06SSILL
 62
8
 10
752.347
 20
-1793.561
 30
4632.280
 70
    32
  0
VERTEX
  8
T06SSILL
 62
8
 10
743.912
 20
-1800.946
 30
4632.280
 70
    32
  0
VERTEX
  8
T06SSILL
 62
8
 10
733.859
 20
-1803.477
 30
4632.280
 70
    32
  0
VERTEX
  8
T06SSILL
 62
8
 10
721.928
 20
-1784.263
 30
4632.280
 70
    32
  0
VERTEX
  8
T06SSILL
 62
8
 10
717.501
 20
-1770.584
 30
4632.280
 70
    32
  0
VERTEX
  8
T06SSILL
 62
8
 10
707.113
 20
-1746.901
 30
4632.280
 70
    32
  0
VERTEX
  8
T06SSILL
 62
8
 10
708.259
 20
-1738.470
 30
4632.280
 70
    32
  0
VERTEX
  8
T06SSILL
 62
8
 10
599.648
 20
-1647.595
 30
4632.280
 70
    32
  0
VERTEX
  8
T06SSILL
 62
8
 10
593.991
 20
-1650.173
 30
4632.280
 70
    32
  0
VERTEX
  8
T06SSILL
 62
8
 10
583.369
 20
-1664.747
 30
4632.280
 70
    32
  0
VERTEX
  8
T06SSILL
 62
8
 10
575.065
 20
-1668.088
 30
4632.280
 70
    32
  0
VERTEX
  8
T06SSILL
 62
8
 10
542.704
 20
-1692.279
 30
4632.280
 70
    32
  0
VERTEX
  8
T06SSILL
 62
8
 10
538.280
 20
-1686.515
 30
4632.280
 70
    32
  0
VERTEX
  8
T06SSILL
 62
8
 10
586.422
 20
-1650.707
 30
4632.280
 70
    32
  0
VERTEX
  8
T06SSILL
 62
8
 10
585.969
 20
-1643.754
 30
4632.280
 70
    32
  0
VERTEX
  8
T06SSILL
 62
8
 10
583.903
 20
-1639.511
 30
4632.280
 70
    32
  0
VERTEX
  8
T06SSILL
 62
8
 10
551.131
 20
-1611.806
 30
4632.280
 70
    32
  0
VERTEX
  8
T06SSILL
 62
8
 10
541.930
 20
-1616.897
 30
4632.280
 70
    32
  0
VERTEX
  8
T06SSILL
 62
8
 10
540.188
 20
-1623.474
 30
4632.280
 70
    32
  0
VERTEX
  8
T06SSILL
 62
8
 10
547.000
 20
-1636.124
 30
4632.280
 70
    32
  0
VERTEX
  8
T06SSILL
 62
8
 10
547.888
 20
-1651.789
 30
4632.280
 70
    32
  0
VERTEX
  8
T06SSILL
 62
8
 10
545.657
 20
-1662.935
 30
4632.280
 70
    32
  0
VERTEX
  8
T06SSILL
 62
8
 10
531.961
 20
-1677.036
 30
4632.280
 70
    32
  0
VERTEX
  8
T06SSILL
 62
8
 10
525.920
 20
-1690.867
 30
4632.280
 70
    32
  0
VERTEX
  8
T06SSILL
 62
8
 10
518.936
 20
-1727.028
 30
4632.280
 70
    32
  0
VERTEX
  8
T06SSILL
 62
8
 10
512.469
 20
-1747.803
 30
4632.280
 70
    32
  0
VERTEX
  8
T06SSILL
 62
8
 10
515.289
 20
-1780.023
 30
4632.280
 70
    32
  0
VERTEX
  8
T06SSILL
 62
8
 10
542.862
 20
-1808.727
 30
4632.280
 70
    32
  0
VERTEX
  8
T06SSILL
 62
8
 10
582.052
 20
-1844.856
 30
4632.280
 70
    32
  0
VERTEX
  8
T06SSILL
 62
8
 10
587.941
 20
-1853.362
 30
4632.280
 70
    32
  0
VERTEX
  8
T06SSILL
 62
8
 10
628.422
 20
-1875.784
 30
4632.280
 70
    32
  0
VERTEX
  8
T06SSILL
 62
8
 10
629.192
 20
-1883.152
 30
4632.280
 70
    32
  0
VERTEX
  8
T06SSILL
 62
8
 10
621.209
 20
-1899.306
 30
4632.280
 70
    32
  0
VERTEX
  8
T06SSILL
 62
8
 10
624.538
 20
-1903.470
 30
4632.280
 70
    32
  0
VERTEX
  8
T06SSILL
 62
8
 10
621.268
 20
-1907.576
 30
4632.280
 70
    32
  0
VERTEX
  8
T06SSILL
 62
8
 10
618.802
 20
-1907.443
 30
4632.280
 70
    32
  0
VERTEX
  8
T06SSILL
 62
8
 10
614.209
 20
-1916.323
 30
4632.280
 70
    32
  0
VERTEX
  8
T06SSILL
 62
8
 10
621.555
 20
-1928.686
 30
4632.280
 70
    32
  0
VERTEX
  8
T06SSILL
 62
8
 10
625.269
 20
-1939.618
 30
4632.280
 70
    32
  0
VERTEX
  8
T06SSILL
 62
8
 10
622.092
 20
-1949.000
 30
4632.280
 70
    32
  0
VERTEX
  8
T06SSILL
 62
8
 10
618.303
 20
-1953.643
 30
4632.280
 70
    32
  0
VERTEX
  8
T06SSILL
 62
8
 10
604.123
 20
-1947.824
 30
4632.280
 70
    32
  0
VERTEX
  8
T06SSILL
 62
8
 10
590.264
 20
-1945.255
 30
4632.280
 70
    32
  0
VERTEX
  8
T06SSILL
 62
8
 10
585.955
 20
-1940.404
 30
4632.280
 70
    32
  0
VERTEX
  8
T06SSILL
 62
8
 10
517.479
 20
-1948.836
 30
4632.280
 70
    32
  0
VERTEX
  8
T06SSILL
 62
8
 10
583.957
 20
-2045.842
 30
4632.280
 70
    32
  0
VERTEX
  8
T06SSILL
 62
8
 10
649.947
 20
-2001.470
 30
4632.280
 70
    32
  0
VERTEX
  8
T06SSILL
 62
8
 10
653.904
 20
-2006.327
 30
4632.280
 70
    32
  0
VERTEX
  8
T06SSILL
 62
8
 10
588.383
 20
-2052.274
 30
4632.280
 70
    32
  0
VERTEX
  8
T06SSILL
 62
8
 10
686.851
 20
-2196.750
 30
4632.280
 70
    32
  0
VERTEX
  8
T06SSILL
 62
8
 10
694.224
 20
-2200.754
 30
4632.280
 70
    32
  0
VERTEX
  8
T06SSILL
 62
8
 10
702.148
 20
-2201.053
 30
4632.280
 70
    32
  0
VERTEX
  8
T06SSILL
 62
8
 10
1030.564
 20
-2086.119
 30
4632.280
 70
    32
  0
VERTEX
  8
T06SSILL
 62
8
 10
1013.193
 20
-2074.022
 30
4632.280
 70
    32
  0
VERTEX
  8
T06SSILL
 62
8
 10
964.225
 20
-2016.736
 30
4632.280
 70
    32
  0
VERTEX
  8
T06SSILL
 62
8
 10
962.446
 20
-1990.901
 30
4632.280
 70
    32
  0
VERTEX
  8
T06SSILL
 62
8
 10
966.949
 20
-1967.066
 30
4632.280
 70
    32
  0
VERTEX
  8
T06SSILL
 62
8
 10
956.787
 20
-1954.666
 30
4632.280
 70
    32
  0
VERTEX
  8
T06SSILL
 62
8
 10
947.106
 20
-1949.559
 30
4632.280
 70
    32
  0
VERTEX
  8
T06SSILL
 62
8
 10
942.030
 20
-1951.057
 30
4632.280
 70
    32
  0
VERTEX
  8
T06SSILL
 62
8
 10
934.126
 20
-1961.755
 30
4632.280
 70
    32
  0
VERTEX
  8
T06SSILL
 62
8
 10
929.349
 20
-1965.271
 30
4632.280
 70
    32
  0
VERTEX
  8
T06SSILL
 62
8
 10
904.139
 20
-1957.625
 30
4632.280
 70
    32
  0
VERTEX
  8
T06SSILL
 62
8
 10
889.236
 20
-1950.763
 30
4632.280
 70
    32
  0
VERTEX
  8
T06SSILL
 62
8
 10
869.013
 20
-1926.752
 30
4632.280
 70
    32
  0
VERTEX
  8
T06SSILL
 62
8
 10
853.319
 20
-1914.977
 30
4632.280
 70
    32
  0
VERTEX
  8
T06SSILL
 62
8
 10
848.436
 20
-1902.570
 30
4632.280
 70
    32
  0
VERTEX
  8
T06SSILL
 62
8
 10
847.684
 20
-1875.134
 30
4632.280
 70
    32
  0
VERTEX
  8
T06SSILL
 62
8
 10
853.262
 20
-1867.204
 30
4632.280
 70
    32
  0
SEQEND
  8
T06SSILL
  0
POLYLINE
  8
T06SSILL
 62
8
 66
     1
 70
     9
  0
VERTEX
  8
T06SSILL
 62
8
 10
1276.757
 20
-62.004
 30
4632.280
 70
    32
  0
VERTEX
  8
T06SSILL
 62
8
 10
1265.292
 20
-68.273
 30
4632.280
 70
    32
  0
VERTEX
  8
T06SSILL
 62
8
 10
1246.493
 20
-75.181
 30
4632.280
 70
    32
  0
VERTEX
  8
T06SSILL
 62
8
 10
1246.035
 20
-79.411
 30
4632.280
 70
    32
  0
VERTEX
  8
T06SSILL
 62
8
 10
1254.665
 20
-101.260
 30
4632.280
 70
    32
  0
VERTEX
  8
T06SSILL
 62
8
 10
1257.532
 20
-104.379
 30
4632.280
 70
    32
  0
VERTEX
  8
T06SSILL
 62
8
 10
1274.881
 20
-116.232
 30
4632.280
 70
    32
  0
VERTEX
  8
T06SSILL
 62
8
 10
1293.943
 20
-125.241
 30
4632.280
 70
    32
  0
VERTEX
  8
T06SSILL
 62
8
 10
1290.254
 20
-93.634
 30
4632.280
 70
    32
  0
VERTEX
  8
T06SSILL
 62
8
 10
1296.341
 20
-94.237
 30
4632.280
 70
    32
  0
VERTEX
  8
T06SSILL
 62
8
 10
1307.410
 20
-103.117
 30
4632.280
 70
    32
  0
VERTEX
  8
T06SSILL
 62
8
 10
1312.161
 20
-112.007
 30
4632.280
 70
    32
  0
VERTEX
  8
T06SSILL
 62
8
 10
1328.609
 20
-172.387
 30
4632.280
 70
    32
  0
VERTEX
  8
T06SSILL
 62
8
 10
1319.542
 20
-179.162
 30
4632.280
 70
    32
  0
VERTEX
  8
T06SSILL
 62
8
 10
1300.618
 20
-188.928
 30
4632.280
 70
    32
  0
VERTEX
  8
T06SSILL
 62
8
 10
1286.008
 20
-185.845
 30
4632.280
 70
    32
  0
VERTEX
  8
T06SSILL
 62
8
 10
1285.129
 20
-182.676
 30
4632.280
 70
    32
  0
VERTEX
  8
T06SSILL
 62
8
 10
1274.479
 20
-184.963
 30
4632.280
 70
    32
  0
VERTEX
  8
T06SSILL
 62
8
 10
1264.710
 20
-181.265
 30
4632.280
 70
    32
  0
VERTEX
  8
T06SSILL
 62
8
 10
1263.570
 20
-157.149
 30
4632.280
 70
    32
  0
VERTEX
  8
T06SSILL
 62
8
 10
1256.358
 20
-129.512
 30
4632.280
 70
    32
  0
VERTEX
  8
T06SSILL
 62
8
 10
1238.673
 20
-99.144
 30
4632.280
 70
    32
  0
VERTEX
  8
T06SSILL
 62
8
 10
1215.180
 20
-64.023
 30
4632.280
 70
    32
  0
VERTEX
  8
T06SSILL
 62
8
 10
1209.639
 20
-48.859
 30
4632.280
 70
    32
  0
VERTEX
  8
T06SSILL
 62
8
 10
1274.679
 20
-52.757
 30
4632.280
 70
    32
  0
VERTEX
  8
T06SSILL
 62
8
 10
1276.525
 20
-60.689
 30
4632.280
 70
    32
  0
SEQEND
  8
T06SSILL
  0
POLYLINE
  8
T06SSILL
 62
8
 66
     1
 70
     9
  0
VERTEX
  8
T06SSILL
 62
8
 10
412.162
 20
-802.965
 30
4632.280
 70
    32
  0
VERTEX
  8
T06SSILL
 62
8
 10
422.849
 20
-794.917
 30
4632.280
 70
    32
  0
VERTEX
  8
T06SSILL
 62
8
 10
422.851
 20
-782.859
 30
4632.280
 70
    32
  0
VERTEX
  8
T06SSILL
 62
8
 10
430.863
 20
-768.867
 30
4632.280
 70
    32
  0
VERTEX
  8
T06SSILL
 62
8
 10
447.236
 20
-751.619
 30
4632.280
 70
    32
  0
VERTEX
  8
T06SSILL
 62
8
 10
473.559
 20
-712.018
 30
4632.280
 70
    32
  0
VERTEX
  8
T06SSILL
 62
8
 10
480.779
 20
-696.969
 30
4632.280
 70
    32
  0
VERTEX
  8
T06SSILL
 62
8
 10
475.498
 20
-693.184
 30
4632.280
 70
    32
  0
VERTEX
  8
T06SSILL
 62
8
 10
457.012
 20
-712.631
 30
4632.280
 70
    32
  0
VERTEX
  8
T06SSILL
 62
8
 10
447.504
 20
-730.584
 30
4632.280
 70
    32
  0
VERTEX
  8
T06SSILL
 62
8
 10
424.439
 20
-763.849
 30
4632.280
 70
    32
  0
VERTEX
  8
T06SSILL
 62
8
 10
404.723
 20
-771.326
 30
4632.280
 70
    32
  0
VERTEX
  8
T06SSILL
 62
8
 10
408.858
 20
-776.696
 30
4632.280
 70
    32
  0
VERTEX
  8
T06SSILL
 62
8
 10
403.224
 20
-784.792
 30
4632.280
 70
    32
  0
VERTEX
  8
T06SSILL
 62
8
 10
389.233
 20
-767.627
 30
4632.280
 70
    32
  0
VERTEX
  8
T06SSILL
 62
8
 10
385.184
 20
-771.763
 30
4632.280
 70
    32
  0
VERTEX
  8
T06SSILL
 62
8
 10
399.702
 20
-791.392
 30
4632.280
 70
    32
  0
VERTEX
  8
T06SSILL
 62
8
 10
399.878
 20
-795.265
 30
4632.280
 70
    32
  0
VERTEX
  8
T06SSILL
 62
8
 10
392.749
 20
-790.335
 30
4632.280
 70
    32
  0
VERTEX
  8
T06SSILL
 62
8
 10
373.118
 20
-818.672
 30
4632.280
 70
    32
  0
VERTEX
  8
T06SSILL
 62
8
 10
364.083
 20
-825.897
 30
4632.280
 70
    32
  0
VERTEX
  8
T06SSILL
 62
8
 10
357.867
 20
-833.064
 30
4632.280
 70
    32
  0
VERTEX
  8
T06SSILL
 62
8
 10
351.646
 20
-836.010
 30
4632.280
 70
    32
  0
VERTEX
  8
T06SSILL
 62
8
 10
-84.424
 20
-549.237
 30
4632.280
 70
    32
  0
VERTEX
  8
T06SSILL
 62
8
 10
-135.672
 20
-450.958
 30
4632.280
 70
    32
  0
VERTEX
  8
T06SSILL
 62
8
 10
-134.592
 20
-442.071
 30
4632.280
 70
    32
  0
VERTEX
  8
T06SSILL
 62
8
 10
-130.446
 20
-431.579
 30
4632.280
 70
    32
  0
VERTEX
  8
T06SSILL
 62
8
 10
-72.964
 20
-392.138
 30
4632.280
 70
    32
  0
VERTEX
  8
T06SSILL
 62
8
 10
-67.767
 20
-393.596
 30
4632.280
 70
    32
  0
VERTEX
  8
T06SSILL
 62
8
 10
-14.832
 20
-357.703
 30
4632.280
 70
    32
  0
VERTEX
  8
T06SSILL
 62
8
 10
-16.968
 20
-354.026
 30
4632.280
 70
    32
  0
VERTEX
  8
T06SSILL
 62
8
 10
37.540
 20
-316.715
 30
4632.280
 70
    32
  0
VERTEX
  8
T06SSILL
 62
8
 10
34.510
 20
-310.934
 30
4632.280
 70
    32
  0
VERTEX
  8
T06SSILL
 62
8
 10
22.438
 20
-319.460
 30
4632.280
 70
    32
  0
VERTEX
  8
T06SSILL
 62
8
 10
12.591
 20
-307.045
 30
4632.280
 70
    32
  0
VERTEX
  8
T06SSILL
 62
8
 10
8.305
 20
-310.153
 30
4632.280
 70
    32
  0
VERTEX
  8
T06SSILL
 62
8
 10
12.469
 20
-327.003
 30
4632.280
 70
    32
  0
VERTEX
  8
T06SSILL
 62
8
 10
-17.897
 20
-346.911
 30
4632.280
 70
    32
  0
VERTEX
  8
T06SSILL
 62
8
 10
-22.288
 20
-347.646
 30
4632.280
 70
    32
  0
VERTEX
  8
T06SSILL
 62
8
 10
-29.766
 20
-334.423
 30
4632.280
 70
    32
  0
VERTEX
  8
T06SSILL
 62
8
 10
-35.985
 20
-337.720
 30
4632.280
 70
    32
  0
VERTEX
  8
T06SSILL
 62
8
 10
-31.252
 20
-348.061
 30
4632.280
 70
    32
  0
VERTEX
  8
T06SSILL
 62
8
 10
-30.410
 20
-355.352
 30
4632.280
 70
    32
  0
VERTEX
  8
T06SSILL
 62
8
 10
-134.089
 20
-426.154
 30
4632.280
 70
    32
  0
VERTEX
  8
T06SSILL
 62
8
 10
-141.730
 20
-427.264
 30
4632.280
 70
    32
  0
VERTEX
  8
T06SSILL
 62
8
 10
-147.058
 20
-419.740
 30
4632.280
 70
    32
  0
VERTEX
  8
T06SSILL
 62
8
 10
-191.058
 20
-339.257
 30
4632.280
 70
    32
  0
VERTEX
  8
T06SSILL
 62
8
 10
-190.857
 20
-330.464
 30
4632.280
 70
    32
  0
VERTEX
  8
T06SSILL
 62
8
 10
-199.090
 20
-322.346
 30
4632.280
 70
    32
  0
VERTEX
  8
T06SSILL
 62
8
 10
-207.694
 20
-324.077
 30
4632.280
 70
    32
  0
VERTEX
  8
T06SSILL
 62
8
 10
-265.133
 20
-270.064
 30
4632.280
 70
    32
  0
VERTEX
  8
T06SSILL
 62
8
 10
-272.191
 20
-266.597
 30
4632.280
 70
    32
  0
VERTEX
  8
T06SSILL
 62
8
 10
-296.100
 20
-242.326
 30
4632.280
 70
    32
  0
VERTEX
  8
T06SSILL
 62
8
 10
-299.074
 20
-232.149
 30
4632.280
 70
    32
  0
VERTEX
  8
T06SSILL
 62
8
 10
-383.825
 20
-145.184
 30
4632.280
 70
    32
  0
VERTEX
  8
T06SSILL
 62
8
 10
-391.641
 20
-133.898
 30
4632.280
 70
    32
  0
VERTEX
  8
T06SSILL
 62
8
 10
-399.661
 20
-131.142
 30
4632.280
 70
    32
  0
VERTEX
  8
T06SSILL
 62
8
 10
-437.475
 20
-92.463
 30
4632.280
 70
    32
  0
VERTEX
  8
T06SSILL
 62
8
 10
-444.510
 20
-92.249
 30
4632.280
 70
    32
  0
VERTEX
  8
T06SSILL
 62
8
 10
-460.021
 20
-74.424
 30
4632.280
 70
    32
  0
VERTEX
  8
T06SSILL
 62
8
 10
-461.377
 20
-44.366
 30
4632.280
 70
    32
  0
VERTEX
  8
T06SSILL
 62
8
 10
-467.331
 20
-22.869
 30
4632.280
 70
    32
  0
VERTEX
  8
T06SSILL
 62
8
 10
-473.123
 20
-12.008
 30
4632.280
 70
    32
  0
VERTEX
  8
T06SSILL
 62
8
 10
-486.887
 20
-17.468
 30
4632.280
 70
    32
  0
VERTEX
  8
T06SSILL
 62
8
 10
-493.367
 20
3.761
 30
4632.280
 70
    32
  0
VERTEX
  8
T06SSILL
 62
8
 10
-489.270
 20
8.714
 30
4632.280
 70
    32
  0
VERTEX
  8
T06SSILL
 62
8
 10
-492.982
 20
36.293
 30
4632.280
 70
    32
  0
VERTEX
  8
T06SSILL
 62
8
 10
-508.522
 20
58.162
 30
4632.280
 70
    32
  0
VERTEX
  8
T06SSILL
 62
8
 10
-493.997
 20
80.420
 30
4632.280
 70
    32
  0
VERTEX
  8
T06SSILL
 62
8
 10
-494.123
 20
85.782
 30
4632.280
 70
    32
  0
VERTEX
  8
T06SSILL
 62
8
 10
-462.502
 20
136.223
 30
4632.280
 70
    32
  0
VERTEX
  8
T06SSILL
 62
8
 10
-467.864
 20
139.420
 30
4632.280
 70
    32
  0
VERTEX
  8
T06SSILL
 62
8
 10
-499.940
 20
87.763
 30
4632.280
 70
    32
  0
VERTEX
  8
T06SSILL
 62
8
 10
-509.459
 20
78.728
 30
4632.280
 70
    32
  0
VERTEX
  8
T06SSILL
 62
8
 10
-519.183
 20
49.031
 30
4632.280
 70
    32
  0
VERTEX
  8
T06SSILL
 62
8
 10
-523.438
 20
41.528
 30
4632.280
 70
    32
  0
VERTEX
  8
T06SSILL
 62
8
 10
-528.869
 20
38.764
 30
4632.280
 70
    32
  0
VERTEX
  8
T06SSILL
 62
8
 10
-534.429
 20
41.802
 30
4632.280
 70
    32
  0
VERTEX
  8
T06SSILL
 62
8
 10
-536.843
 20
47.500
 30
4632.280
 70
    32
  0
VERTEX
  8
T06SSILL
 62
8
 10
-540.656
 20
52.132
 30
4632.280
 70
    32
  0
VERTEX
  8
T06SSILL
 62
8
 10
-548.370
 20
56.877
 30
4632.280
 70
    32
  0
VERTEX
  8
T06SSILL
 62
8
 10
-563.812
 20
97.076
 30
4632.280
 70
    32
  0
VERTEX
  8
T06SSILL
 62
8
 10
-598.112
 20
146.401
 30
4632.280
 70
    32
  0
VERTEX
  8
T06SSILL
 62
8
 10
-603.875
 20
191.378
 30
4632.280
 70
    32
  0
VERTEX
  8
T06SSILL
 62
8
 10
-715.151
 20
395.815
 30
4632.280
 70
    32
  0
VERTEX
  8
T06SSILL
 62
8
 10
-714.048
 20
402.179
 30
4632.280
 70
    32
  0
VERTEX
  8
T06SSILL
 62
8
 10
-722.089
 20
416.371
 30
4632.280
 70
    32
  0
VERTEX
  8
T06SSILL
 62
8
 10
-721.234
 20
421.937
 30
4632.280
 70
    32
  0
VERTEX
  8
T06SSILL
 62
8
 10
-495.209
 20
662.067
 30
4632.280
 70
    32
  0
VERTEX
  8
T06SSILL
 62
8
 10
-491.152
 20
666.114
 30
4632.280
 70
    32
  0
VERTEX
  8
T06SSILL
 62
8
 10
-472.091
 20
677.248
 30
4632.280
 70
    32
  0
VERTEX
  8
T06SSILL
 62
8
 10
-483.520
 20
689.169
 30
4632.280
 70
    32
  0
VERTEX
  8
T06SSILL
 62
8
 10
-704.024
 20
454.700
 30
4632.280
 70
    32
  0
VERTEX
  8
T06SSILL
 62
8
 10
-832.863
 20
660.893
 30
4632.280
 70
    32
  0
VERTEX
  8
T06SSILL
 62
8
 10
-842.710
 20
690.197
 30
4632.280
 70
    32
  0
VERTEX
  8
T06SSILL
 62
8
 10
-848.132
 20
688.324
 30
4632.280
 70
    32
  0
VERTEX
  8
T06SSILL
 62
8
 10
-857.774
 20
716.223
 30
4632.280
 70
    32
  0
VERTEX
  8
T06SSILL
 62
8
 10
-862.718
 20
721.142
 30
4632.280
 70
    32
  0
VERTEX
  8
T06SSILL
 62
8
 10
-1045.595
 20
1015.891
 30
4632.280
 70
    32
  0
VERTEX
  8
T06SSILL
 62
8
 10
-1051.171
 20
1012.584
 30
4632.280
 70
    32
  0
VERTEX
  8
T06SSILL
 62
8
 10
-916.373
 20
786.630
 30
4632.280
 70
    32
  0
VERTEX
  8
T06SSILL
 62
8
 10
-929.057
 20
778.092
 30
4632.280
 70
    32
  0
VERTEX
  8
T06SSILL
 62
8
 10
-925.865
 20
772.697
 30
4632.280
 70
    32
  0
VERTEX
  8
T06SSILL
 62
8
 10
-930.649
 20
769.781
 30
4632.280
 70
    32
  0
VERTEX
  8
T06SSILL
 62
8
 10
-904.650
 20
730.150
 30
4632.280
 70
    32
  0
VERTEX
  8
T06SSILL
 62
8
 10
-887.965
 20
702.395
 30
4632.280
 70
    32
  0
VERTEX
  8
T06SSILL
 62
8
 10
-1325.835
 20
528.132
 30
4632.280
 70
    32
  0
VERTEX
  8
T06SSILL
 62
8
 10
-1322.967
 20
521.408
 30
4632.280
 70
    32
  0
VERTEX
  8
T06SSILL
 62
8
 10
-885.852
 20
693.807
 30
4632.280
 70
    32
  0
VERTEX
  8
T06SSILL
 62
8
 10
-870.516
 20
637.224
 30
4632.280
 70
    32
  0
VERTEX
  8
T06SSILL
 62
8
 10
-867.312
 20
631.300
 30
4632.280
 70
    32
  0
VERTEX
  8
T06SSILL
 62
8
 10
-862.260
 20
634.046
 30
4632.280
 70
    32
  0
VERTEX
  8
T06SSILL
 62
8
 10
-799.904
 20
504.793
 30
4632.280
 70
    32
  0
VERTEX
  8
T06SSILL
 62
8
 10
-793.794
 20
507.472
 30
4632.280
 70
    32
  0
VERTEX
  8
T06SSILL
 62
8
 10
-786.235
 20
490.981
 30
4632.280
 70
    32
  0
VERTEX
  8
T06SSILL
 62
8
 10
-780.649
 20
493.473
 30
4632.280
 70
    32
  0
VERTEX
  8
T06SSILL
 62
8
 10
-746.982
 20
423.437
 30
4632.280
 70
    32
  0
VERTEX
  8
T06SSILL
 62
8
 10
-746.506
 20
413.054
 30
4632.280
 70
    32
  0
VERTEX
  8
T06SSILL
 62
8
 10
-753.658
 20
405.333
 30
4632.280
 70
    32
  0
VERTEX
  8
T06SSILL
 62
8
 10
-745.611
 20
395.105
 30
4632.280
 70
    32
  0
VERTEX
  8
T06SSILL
 62
8
 10
-739.606
 20
398.662
 30
4632.280
 70
    32
  0
VERTEX
  8
T06SSILL
 62
8
 10
-735.745
 20
399.358
 30
4632.280
 70
    32
  0
VERTEX
  8
T06SSILL
 62
8
 10
-670.508
 20
288.572
 30
4632.280
 70
    32
  0
VERTEX
  8
T06SSILL
 62
8
 10
-688.384
 20
228.051
 30
4632.280
 70
    32
  0
VERTEX
  8
T06SSILL
 62
8
 10
-598.675
 20
-23.271
 30
4632.280
 70
    32
  0
VERTEX
  8
T06SSILL
 62
8
 10
-580.901
 20
-50.223
 30
4632.280
 70
    32
  0
VERTEX
  8
T06SSILL
 62
8
 10
-583.616
 20
-51.649
 30
4632.280
 70
    32
  0
VERTEX
  8
T06SSILL
 62
8
 10
-581.919
 20
-55.417
 30
4632.280
 70
    32
  0
VERTEX
  8
T06SSILL
 62
8
 10
-579.193
 20
-55.574
 30
4632.280
 70
    32
  0
VERTEX
  8
T06SSILL
 62
8
 10
-545.593
 20
-119.866
 30
4632.280
 70
    32
  0
VERTEX
  8
T06SSILL
 62
8
 10
-495.718
 20
-185.802
 30
4632.280
 70
    32
  0
VERTEX
  8
T06SSILL
 62
8
 10
-487.833
 20
-194.274
 30
4632.280
 70
    32
  0
VERTEX
  8
T06SSILL
 62
8
 10
-478.915
 20
-199.838
 30
4632.280
 70
    32
  0
VERTEX
  8
T06SSILL
 62
8
 10
-463.444
 20
-199.464
 30
4632.280
 70
    32
  0
VERTEX
  8
T06SSILL
 62
8
 10
-461.227
 20
-202.174
 30
4632.280
 70
    32
  0
VERTEX
  8
T06SSILL
 62
8
 10
-457.072
 20
-217.882
 30
4632.280
 70
    32
  0
VERTEX
  8
T06SSILL
 62
8
 10
-424.896
 20
-254.842
 30
4632.280
 70
    32
  0
VERTEX
  8
T06SSILL
 62
8
 10
-429.969
 20
-258.571
 30
4632.280
 70
    32
  0
VERTEX
  8
T06SSILL
 62
8
 10
-413.122
 20
-278.848
 30
4632.280
 70
    32
  0
VERTEX
  8
T06SSILL
 62
8
 10
-411.939
 20
-309.259
 30
4632.280
 70
    32
  0
VERTEX
  8
T06SSILL
 62
8
 10
-406.348
 20
-316.692
 30
4632.280
 70
    32
  0
VERTEX
  8
T06SSILL
 62
8
 10
-410.802
 20
-320.943
 30
4632.280
 70
    32
  0
VERTEX
  8
T06SSILL
 62
8
 10
-399.627
 20
-334.667
 30
4632.280
 70
    32
  0
VERTEX
  8
T06SSILL
 62
8
 10
-407.578
 20
-341.669
 30
4632.280
 70
    32
  0
VERTEX
  8
T06SSILL
 62
8
 10
-405.259
 20
-346.312
 30
4632.280
 70
    32
  0
VERTEX
  8
T06SSILL
 62
8
 10
-413.380
 20
-354.194
 30
4632.280
 70
    32
  0
VERTEX
  8
T06SSILL
 62
8
 10
-415.451
 20
-359.659
 30
4632.280
 70
    32
  0
VERTEX
  8
T06SSILL
 62
8
 10
-482.064
 20
-413.144
 30
4632.280
 70
    32
  0
VERTEX
  8
T06SSILL
 62
8
 10
-489.169
 20
-415.480
 30
4632.280
 70
    32
  0
VERTEX
  8
T06SSILL
 62
8
 10
-529.720
 20
-399.942
 30
4632.280
 70
    32
  0
VERTEX
  8
T06SSILL
 62
8
 10
-674.890
 20
-384.617
 30
4632.280
 70
    32
  0
VERTEX
  8
T06SSILL
 62
8
 10
-691.452
 20
-379.811
 30
4632.280
 70
    32
  0
VERTEX
  8
T06SSILL
 62
8
 10
-705.968
 20
-378.419
 30
4632.280
 70
    32
  0
VERTEX
  8
T06SSILL
 62
8
 10
-714.038
 20
-381.026
 30
4632.280
 70
    32
  0
VERTEX
  8
T06SSILL
 62
8
 10
-862.463
 20
-365.372
 30
4632.280
 70
    32
  0
VERTEX
  8
T06SSILL
 62
8
 10
-863.296
 20
-371.972
 30
4632.280
 70
    32
  0
VERTEX
  8
T06SSILL
 62
8
 10
-718.743
 20
-387.038
 30
4632.280
 70
    32
  0
VERTEX
  8
T06SSILL
 62
8
 10
-707.721
 20
-391.707
 30
4632.280
 70
    32
  0
VERTEX
  8
T06SSILL
 62
8
 10
-692.583
 20
-393.974
 30
4632.280
 70
    32
  0
VERTEX
  8
T06SSILL
 62
8
 10
-674.314
 20
-391.471
 30
4632.280
 70
    32
  0
VERTEX
  8
T06SSILL
 62
8
 10
-528.088
 20
-407.052
 30
4632.280
 70
    32
  0
VERTEX
  8
T06SSILL
 62
8
 10
-489.467
 20
-423.043
 30
4632.280
 70
    32
  0
VERTEX
  8
T06SSILL
 62
8
 10
-461.305
 20
-451.944
 30
4632.280
 70
    32
  0
VERTEX
  8
T06SSILL
 62
8
 10
-180.102
 20
-943.162
 30
4632.280
 70
    32
  0
VERTEX
  8
T06SSILL
 62
8
 10
-184.294
 20
-947.236
 30
4632.280
 70
    32
  0
VERTEX
  8
T06SSILL
 62
8
 10
-198.884
 20
-935.295
 30
4632.280
 70
    32
  0
VERTEX
  8
T06SSILL
 62
8
 10
-208.844
 20
-944.157
 30
4632.280
 70
    32
  0
VERTEX
  8
T06SSILL
 62
8
 10
-198.688
 20
-963.075
 30
4632.280
 70
    32
  0
VERTEX
  8
T06SSILL
 62
8
 10
-238.619
 20
-992.101
 30
4632.280
 70
    32
  0
VERTEX
  8
T06SSILL
 62
8
 10
-234.841
 20
-997.530
 30
4632.280
 70
    32
  0
VERTEX
  8
T06SSILL
 62
8
 10
-195.310
 20
-968.326
 30
4632.280
 70
    32
  0
VERTEX
  8
T06SSILL
 62
8
 10
-186.086
 20
-979.690
 30
4632.280
 70
    32
  0
VERTEX
  8
T06SSILL
 62
8
 10
-175.221
 20
-974.514
 30
4632.280
 70
    32
  0
VERTEX
  8
T06SSILL
 62
8
 10
-180.459
 20
-954.858
 30
4632.280
 70
    32
  0
VERTEX
  8
T06SSILL
 62
8
 10
-176.805
 20
-949.469
 30
4632.280
 70
    32
  0
VERTEX
  8
T06SSILL
 62
8
 10
197.213
 20
-1603.963
 30
4632.280
 70
    32
  0
VERTEX
  8
T06SSILL
 62
8
 10
188.852
 20
-1612.756
 30
4632.280
 70
    32
  0
VERTEX
  8
T06SSILL
 62
8
 10
196.481
 20
-1623.041
 30
4632.280
 70
    32
  0
VERTEX
  8
T06SSILL
 62
8
 10
204.097
 20
-1618.197
 30
4632.280
 70
    32
  0
VERTEX
  8
T06SSILL
 62
8
 10
283.077
 20
-1765.658
 30
4632.280
 70
    32
  0
VERTEX
  8
T06SSILL
 62
8
 10
509.213
 20
-1949.071
 30
4632.280
 70
    32
  0
VERTEX
  8
T06SSILL
 62
8
 10
682.909
 20
-2202.714
 30
4632.280
 70
    32
  0
VERTEX
  8
T06SSILL
 62
8
 10
690.468
 20
-2207.243
 30
4632.280
 70
    32
  0
VERTEX
  8
T06SSILL
 62
8
 10
701.926
 20
-2208.359
 30
4632.280
 70
    32
  0
VERTEX
  8
T06SSILL
 62
8
 10
1039.779
 20
-2089.738
 30
4632.280
 70
    32
  0
VERTEX
  8
T06SSILL
 62
8
 10
1074.845
 20
-2097.473
 30
4632.280
 70
    32
  0
VERTEX
  8
T06SSILL
 62
8
 10
1333.976
 20
-2410.746
 30
4632.280
 70
    32
  0
VERTEX
  8
T06SSILL
 62
8
 10
1340.346
 20
-2417.671
 30
4632.280
 70
    32
  0
VERTEX
  8
T06SSILL
 62
8
 10
1376.172
 20
-2443.429
 30
4632.280
 70
    32
  0
VERTEX
  8
T06SSILL
 62
8
 10
1359.819
 20
-2444.071
 30
4632.280
 70
    32
  0
VERTEX
  8
T06SSILL
 62
8
 10
1336.451
 20
-2450.997
 30
4632.280
 70
    32
  0
VERTEX
  8
T06SSILL
 62
8
 10
1331.274
 20
-2431.997
 30
4632.280
 70
    32
  0
VERTEX
  8
T06SSILL
 62
8
 10
1324.004
 20
-2433.798
 30
4632.280
 70
    32
  0
VERTEX
  8
T06SSILL
 62
8
 10
1330.129
 20
-2456.653
 30
4632.280
 70
    32
  0
VERTEX
  8
T06SSILL
 62
8
 10
1288.645
 20
-2469.003
 30
4632.280
 70
    32
  0
VERTEX
  8
T06SSILL
 62
8
 10
1284.514
 20
-2469.253
 30
4632.280
 70
    32
  0
VERTEX
  8
T06SSILL
 62
8
 10
1279.635
 20
-2466.964
 30
4632.280
 70
    32
  0
VERTEX
  8
T06SSILL
 62
8
 10
1274.422
 20
-2460.810
 30
4632.280
 70
    32
  0
VERTEX
  8
T06SSILL
 62
8
 10
1267.350
 20
-2458.912
 30
4632.280
 70
    32
  0
VERTEX
  8
T06SSILL
 62
8
 10
1261.260
 20
-2452.862
 30
4632.280
 70
    32
  0
VERTEX
  8
T06SSILL
 62
8
 10
1256.922
 20
-2451.355
 30
4632.280
 70
    32
  0
VERTEX
  8
T06SSILL
 62
8
 10
1251.597
 20
-2453.737
 30
4632.280
 70
    32
  0
VERTEX
  8
T06SSILL
 62
8
 10
1252.506
 20
-2460.320
 30
4632.280
 70
    32
  0
VERTEX
  8
T06SSILL
 62
8
 10
1258.774
 20
-2481.324
 30
4632.280
 70
    32
  0
VERTEX
  8
T06SSILL
 62
8
 10
1262.922
 20
-2486.969
 30
4632.280
 70
    32
  0
VERTEX
  8
T06SSILL
 62
8
 10
1262.362
 20
-2490.146
 30
4632.280
 70
    32
  0
VERTEX
  8
T06SSILL
 62
8
 10
1271.153
 20
-2504.595
 30
4632.280
 70
    32
  0
VERTEX
  8
T06SSILL
 62
8
 10
1285.029
 20
-2542.796
 30
4632.280
 70
    32
  0
VERTEX
  8
T06SSILL
 62
8
 10
1290.790
 20
-2550.085
 30
4632.280
 70
    32
  0
VERTEX
  8
T06SSILL
 62
8
 10
1294.977
 20
-2553.001
 30
4632.280
 70
    32
  0
VERTEX
  8
T06SSILL
 62
8
 10
1310.444
 20
-2576.746
 30
4632.280
 70
    32
  0
VERTEX
  8
T06SSILL
 62
8
 10
1330.467
 20
-2604.368
 30
4632.280
 70
    32
  0
VERTEX
  8
T06SSILL
 62
8
 10
1339.887
 20
-2604.728
 30
4632.280
 70
    32
  0
VERTEX
  8
T06SSILL
 62
8
 10
1353.958
 20
-2599.463
 30
4632.280
 70
    32
  0
VERTEX
  8
T06SSILL
 62
8
 10
1366.594
 20
-2597.567
 30
4632.280
 70
    32
  0
VERTEX
  8
T06SSILL
 62
8
 10
1370.966
 20
-2601.009
 30
4632.280
 70
    32
  0
VERTEX
  8
T06SSILL
 62
8
 10
1381.315
 20
-2618.949
 30
4632.280
 70
    32
  0
VERTEX
  8
T06SSILL
 62
8
 10
1405.417
 20
-2608.755
 30
4632.280
 70
    32
  0
VERTEX
  8
T06SSILL
 62
8
 10
1421.993
 20
-2610.748
 30
4632.280
 70
    32
  0
VERTEX
  8
T06SSILL
 62
8
 10
1444.787
 20
-2616.061
 30
4632.280
 70
    32
  0
VERTEX
  8
T06SSILL
 62
8
 10
1451.001
 20
-2619.206
 30
4632.280
 70
    32
  0
VERTEX
  8
T06SSILL
 62
8
 10
1486.294
 20
-2659.490
 30
4632.280
 70
    32
  0
VERTEX
  8
T06SSILL
 62
8
 10
1509.991
 20
-2695.846
 30
4632.280
 70
    32
  0
VERTEX
  8
T06SSILL
 62
8
 10
1511.016
 20
-2708.937
 30
4632.280
 70
    32
  0
VERTEX
  8
T06SSILL
 62
8
 10
1366.739
 20
-2782.334
 30
4632.280
 70
    32
  0
VERTEX
  8
T06SSILL
 62
8
 10
906.568
 20
-3022.005
 30
4632.280
 70
    32
  0
VERTEX
  8
T06SSILL
 62
8
 10
900.698
 20
-3022.870
 30
4632.280
 70
    32
  0
VERTEX
  8
T06SSILL
 62
8
 10
890.897
 20
-3015.134
 30
4632.280
 70
    32
  0
VERTEX
  8
T06SSILL
 62
8
 10
881.548
 20
-3017.414
 30
4632.280
 70
    32
  0
VERTEX
  8
T06SSILL
 62
8
 10
876.960
 20
-3016.924
 30
4632.280
 70
    32
  0
VERTEX
  8
T06SSILL
 62
8
 10
875.691
 20
-3021.973
 30
4632.280
 70
    32
  0
VERTEX
  8
T06SSILL
 62
8
 10
871.981
 20
-3024.625
 30
4632.280
 70
    32
  0
VERTEX
  8
T06SSILL
 62
8
 10
882.612
 20
-3033.746
 30
4632.280
 70
    32
  0
VERTEX
  8
T06SSILL
 62
8
 10
877.420
 20
-3036.879
 30
4632.280
 70
    32
  0
VERTEX
  8
T06SSILL
 62
8
 10
436.786
 20
-3264.210
 30
4632.280
 70
    32
  0
VERTEX
  8
T06SSILL
 62
8
 10
437.022
 20
-3272.551
 30
4632.280
 70
    32
  0
VERTEX
  8
T06SSILL
 62
8
 10
770.489
 20
-3099.103
 30
4632.280
 70
    32
  0
VERTEX
  8
T06SSILL
 62
8
 10
888.741
 20
-3039.120
 30
4632.280
 70
    32
  0
VERTEX
  8
T06SSILL
 62
8
 10
892.476
 20
-3040.601
 30
4632.280
 70
    32
  0
VERTEX
  8
T06SSILL
 62
8
 10
903.936
 20
-3051.106
 30
4632.280
 70
    32
  0
VERTEX
  8
T06SSILL
 62
8
 10
911.622
 20
-3068.312
 30
4632.280
 70
    32
  0
VERTEX
  8
T06SSILL
 62
8
 10
924.918
 20
-3078.415
 30
4632.280
 70
    32
  0
VERTEX
  8
T06SSILL
 62
8
 10
953.125
 20
-3102.975
 30
4632.280
 70
    32
  0
VERTEX
  8
T06SSILL
 62
8
 10
982.440
 20
-3132.607
 30
4632.280
 70
    32
  0
VERTEX
  8
T06SSILL
 62
8
 10
1033.577
 20
-3178.530
 30
4632.280
 70
    32
  0
VERTEX
  8
T06SSILL
 62
8
 10
1041.405
 20
-3191.334
 30
4632.280
 70
    32
  0
VERTEX
  8
T06SSILL
 62
8
 10
1042.262
 20
-3200.107
 30
4632.280
 70
    32
  0
VERTEX
  8
T06SSILL
 62
8
 10
1040.309
 20
-3228.310
 30
4632.280
 70
    32
  0
VERTEX
  8
T06SSILL
 62
8
 10
1041.325
 20
-3244.787
 30
4632.280
 70
    32
  0
VERTEX
  8
T06SSILL
 62
8
 10
1051.366
 20
-3271.049
 30
4632.280
 70
    32
  0
VERTEX
  8
T06SSILL
 62
8
 10
1057.461
 20
-3292.726
 30
4632.280
 70
    32
  0
VERTEX
  8
T06SSILL
 62
8
 10
1059.234
 20
-3303.587
 30
4632.280
 70
    32
  0
VERTEX
  8
T06SSILL
 62
8
 10
1063.961
 20
-3381.859
 30
4632.280
 70
    32
  0
VERTEX
  8
T06SSILL
 62
8
 10
1070.714
 20
-3381.212
 30
4632.280
 70
    32
  0
VERTEX
  8
T06SSILL
 62
8
 10
1064.021
 20
-3281.278
 30
4632.280
 70
    32
  0
VERTEX
  8
T06SSILL
 62
8
 10
1061.755
 20
-3267.439
 30
4632.280
 70
    32
  0
VERTEX
  8
T06SSILL
 62
8
 10
1051.178
 20
-3240.659
 30
4632.280
 70
    32
  0
VERTEX
  8
T06SSILL
 62
8
 10
1048.430
 20
-3229.318
 30
4632.280
 70
    32
  0
VERTEX
  8
T06SSILL
 62
8
 10
1049.526
 20
-3201.247
 30
4632.280
 70
    32
  0
VERTEX
  8
T06SSILL
 62
8
 10
1054.087
 20
-3196.686
 30
4632.280
 70
    32
  0
VERTEX
  8
T06SSILL
 62
8
 10
1060.062
 20
-3196.756
 30
4632.280
 70
    32
  0
VERTEX
  8
T06SSILL
 62
8
 10
1076.341
 20
-3203.319
 30
4632.280
 70
    32
  0
VERTEX
  8
T06SSILL
 62
8
 10
1093.291
 20
-3208.025
 30
4632.280
 70
    32
  0
VERTEX
  8
T06SSILL
 62
8
 10
1115.768
 20
-3212.370
 30
4632.280
 70
    32
  0
VERTEX
  8
T06SSILL
 62
8
 10
1130.884
 20
-3217.723
 30
4632.280
 70
    32
  0
VERTEX
  8
T06SSILL
 62
8
 10
1456.544
 20
-3377.704
 30
4632.280
 70
    32
  0
VERTEX
  8
T06SSILL
 62
8
 10
1740.725
 20
-3769.358
 30
4632.280
 70
    32
  0
VERTEX
  8
T06SSILL
 62
8
 10
1697.440
 20
-3800.256
 30
4632.280
 70
    32
  0
VERTEX
  8
T06SSILL
 62
8
 10
1702.554
 20
-3806.314
 30
4632.280
 70
    32
  0
VERTEX
  8
T06SSILL
 62
8
 10
1744.359
 20
-3776.145
 30
4632.280
 70
    32
  0
VERTEX
  8
T06SSILL
 62
8
 10
1753.238
 20
-3786.441
 30
4632.280
 70
    32
  0
VERTEX
  8
T06SSILL
 62
8
 10
1759.147
 20
-3782.823
 30
4632.280
 70
    32
  0
VERTEX
  8
T06SSILL
 62
8
 10
1751.392
 20
-3771.541
 30
4632.280
 70
    32
  0
VERTEX
  8
T06SSILL
 62
8
 10
1824.413
 20
-3718.418
 30
4632.280
 70
    32
  0
VERTEX
  8
T06SSILL
 62
8
 10
1820.442
 20
-3712.427
 30
4632.280
 70
    32
  0
VERTEX
  8
T06SSILL
 62
8
 10
1746.973
 20
-3765.031
 30
4632.280
 70
    32
  0
VERTEX
  8
T06SSILL
 62
8
 10
1471.169
 20
-3385.086
 30
4632.280
 70
    32
  0
VERTEX
  8
T06SSILL
 62
8
 10
1613.303
 20
-3454.683
 30
4632.280
 70
    32
  0
VERTEX
  8
T06SSILL
 62
8
 10
1616.265
 20
-3448.306
 30
4632.280
 70
    32
  0
VERTEX
  8
T06SSILL
 62
8
 10
1135.714
 20
-3212.718
 30
4632.280
 70
    32
  0
VERTEX
  8
T06SSILL
 62
8
 10
1119.179
 20
-3206.599
 30
4632.280
 70
    32
  0
VERTEX
  8
T06SSILL
 62
8
 10
1071.994
 20
-3195.929
 30
4632.280
 70
    32
  0
VERTEX
  8
T06SSILL
 62
8
 10
1054.974
 20
-3188.938
 30
4632.280
 70
    32
  0
VERTEX
  8
T06SSILL
 62
8
 10
1046.226
 20
-3174.664
 30
4632.280
 70
    32
  0
VERTEX
  8
T06SSILL
 62
8
 10
1034.071
 20
-3167.696
 30
4632.280
 70
    32
  0
VERTEX
  8
T06SSILL
 62
8
 10
999.956
 20
-3139.428
 30
4632.280
 70
    32
  0
VERTEX
  8
T06SSILL
 62
8
 10
960.335
 20
-3096.444
 30
4632.280
 70
    32
  0
VERTEX
  8
T06SSILL
 62
8
 10
953.763
 20
-3094.161
 30
4632.280
 70
    32
  0
VERTEX
  8
T06SSILL
 62
8
 10
917.296
 20
-3060.328
 30
4632.280
 70
    32
  0
VERTEX
  8
T06SSILL
 62
8
 10
912.074
 20
-3052.730
 30
4632.280
 70
    32
  0
VERTEX
  8
T06SSILL
 62
8
 10
910.702
 20
-3044.411
 30
4632.280
 70
    32
  0
VERTEX
  8
T06SSILL
 62
8
 10
913.948
 20
-3040.891
 30
4632.280
 70
    32
  0
VERTEX
  8
T06SSILL
 62
8
 10
912.099
 20
-3028.011
 30
4632.280
 70
    32
  0
VERTEX
  8
T06SSILL
 62
8
 10
914.300
 20
-3024.871
 30
4632.280
 70
    32
  0
VERTEX
  8
T06SSILL
 62
8
 10
1478.344
 20
-2731.953
 30
4632.280
 70
    32
  0
VERTEX
  8
T06SSILL
 62
8
 10
1508.987
 20
-2716.963
 30
4632.280
 70
    32
  0
VERTEX
  8
T06SSILL
 62
8
 10
1515.002
 20
-2719.680
 30
4632.280
 70
    32
  0
VERTEX
  8
T06SSILL
 62
8
 10
1519.680
 20
-2726.677
 30
4632.280
 70
    32
  0
VERTEX
  8
T06SSILL
 62
8
 10
1521.289
 20
-2734.022
 30
4632.280
 70
    32
  0
VERTEX
  8
T06SSILL
 62
8
 10
1529.549
 20
-2743.295
 30
4632.280
 70
    32
  0
VERTEX
  8
T06SSILL
 62
8
 10
1534.243
 20
-2754.074
 30
4632.280
 70
    32
  0
VERTEX
  8
T06SSILL
 62
8
 10
1547.910
 20
-2764.871
 30
4632.280
 70
    32
  0
VERTEX
  8
T06SSILL
 62
8
 10
1550.149
 20
-2772.726
 30
4632.280
 70
    32
  0
VERTEX
  8
T06SSILL
 62
8
 10
1573.378
 20
-2788.978
 30
4632.280
 70
    32
  0
VERTEX
  8
T06SSILL
 62
8
 10
1580.917
 20
-2797.656
 30
4632.280
 70
    32
  0
VERTEX
  8
T06SSILL
 62
8
 10
1583.795
 20
-2809.540
 30
4632.280
 70
    32
  0
VERTEX
  8
T06SSILL
 62
8
 10
1589.106
 20
-2820.390
 30
4632.280
 70
    32
  0
VERTEX
  8
T06SSILL
 62
8
 10
1593.795
 20
-2824.572
 30
4632.280
 70
    32
  0
VERTEX
  8
T06SSILL
 62
8
 10
1601.409
 20
-2816.710
 30
4632.280
 70
    32
  0
VERTEX
  8
T06SSILL
 62
8
 10
1604.661
 20
-2816.621
 30
4632.280
 70
    32
  0
VERTEX
  8
T06SSILL
 62
8
 10
1611.201
 20
-2811.339
 30
4632.280
 70
    32
  0
VERTEX
  8
T06SSILL
 62
8
 10
1611.284
 20
-2804.740
 30
4632.280
 70
    32
  0
VERTEX
  8
T06SSILL
 62
8
 10
1604.720
 20
-2799.554
 30
4632.280
 70
    32
  0
VERTEX
  8
T06SSILL
 62
8
 10
1605.325
 20
-2795.931
 30
4632.280
 70
    32
  0
VERTEX
  8
T06SSILL
 62
8
 10
1608.338
 20
-2793.561
 30
4632.280
 70
    32
  0
VERTEX
  8
T06SSILL
 62
8
 10
1610.812
 20
-2784.344
 30
4632.280
 70
    32
  0
VERTEX
  8
T06SSILL
 62
8
 10
1606.088
 20
-2769.256
 30
4632.280
 70
    32
  0
VERTEX
  8
T06SSILL
 62
8
 10
1612.286
 20
-2757.914
 30
4632.280
 70
    32
  0
VERTEX
  8
T06SSILL
 62
8
 10
1610.203
 20
-2752.517
 30
4632.280
 70
    32
  0
VERTEX
  8
T06SSILL
 62
8
 10
1601.729
 20
-2741.842
 30
4632.280
 70
    32
  0
VERTEX
  8
T06SSILL
 62
8
 10
1587.047
 20
-2729.314
 30
4632.280
 70
    32
  0
VERTEX
  8
T06SSILL
 62
8
 10
1588.697
 20
-2722.143
 30
4632.280
 70
    32
  0
VERTEX
  8
T06SSILL
 62
8
 10
1579.893
 20
-2705.847
 30
4632.280
 70
    32
  0
VERTEX
  8
T06SSILL
 62
8
 10
1575.056
 20
-2699.471
 30
4632.280
 70
    32
  0
VERTEX
  8
T06SSILL
 62
8
 10
1573.060
 20
-2694.072
 30
4632.280
 70
    32
  0
VERTEX
  8
T06SSILL
 62
8
 10
1573.435
 20
-2691.375
 30
4632.280
 70
    32
  0
VERTEX
  8
T06SSILL
 62
8
 10
1579.045
 20
-2685.292
 30
4632.280
 70
    32
  0
VERTEX
  8
T06SSILL
 62
8
 10
1647.412
 20
-2645.981
 30
4632.280
 70
    32
  0
VERTEX
  8
T06SSILL
 62
8
 10
1655.953
 20
-2646.357
 30
4632.280
 70
    32
  0
VERTEX
  8
T06SSILL
 62
8
 10
1662.154
 20
-2648.711
 30
4632.280
 70
    32
  0
VERTEX
  8
T06SSILL
 62
8
 10
1775.081
 20
-2730.550
 30
4632.280
 70
    32
  0
VERTEX
  8
T06SSILL
 62
8
 10
1777.342
 20
-2734.029
 30
4632.280
 70
    32
  0
VERTEX
  8
T06SSILL
 62
8
 10
1794.127
 20
-2745.622
 30
4632.280
 70
    32
  0
VERTEX
  8
T06SSILL
 62
8
 10
1799.896
 20
-2747.487
 30
4632.280
 70
    32
  0
VERTEX
  8
T06SSILL
 62
8
 10
1818.645
 20
-2747.940
 30
4632.280
 70
    32
  0
VERTEX
  8
T06SSILL
 62
8
 10
1832.946
 20
-2740.158
 30
4632.280
 70
    32
  0
VERTEX
  8
T06SSILL
 62
8
 10
1838.495
 20
-2734.024
 30
4632.280
 70
    32
  0
VERTEX
  8
T06SSILL
 62
8
 10
1877.526
 20
-2710.610
 30
4632.280
 70
    32
  0
VERTEX
  8
T06SSILL
 62
8
 10
1884.224
 20
-2707.875
 30
4632.280
 70
    32
  0
VERTEX
  8
T06SSILL
 62
8
 10
1899.968
 20
-2714.216
 30
4632.280
 70
    32
  0
VERTEX
  8
T06SSILL
 62
8
 10
1916.391
 20
-2713.238
 30
4632.280
 70
    32
  0
VERTEX
  8
T06SSILL
 62
8
 10
1919.369
 20
-2715.971
 30
4632.280
 70
    32
  0
VERTEX
  8
T06SSILL
 62
8
 10
1916.956
 20
-2717.796
 30
4632.280
 70
    32
  0
VERTEX
  8
T06SSILL
 62
8
 10
1921.266
 20
-2724.188
 30
4632.280
 70
    32
  0
VERTEX
  8
T06SSILL
 62
8
 10
1928.577
 20
-2734.191
 30
4632.280
 70
    32
  0
VERTEX
  8
T06SSILL
 62
8
 10
1931.956
 20
-2735.506
 30
4632.280
 70
    32
  0
VERTEX
  8
T06SSILL
 62
8
 10
1938.801
 20
-2731.711
 30
4632.280
 70
    32
  0
VERTEX
  8
T06SSILL
 62
8
 10
1945.931
 20
-2725.446
 30
4632.280
 70
    32
  0
VERTEX
  8
T06SSILL
 62
8
 10
1946.437
 20
-2721.474
 30
4632.280
 70
    32
  0
VERTEX
  8
T06SSILL
 62
8
 10
1936.760
 20
-2708.632
 30
4632.280
 70
    32
  0
VERTEX
  8
T06SSILL
 62
8
 10
1933.372
 20
-2706.966
 30
4632.280
 70
    32
  0
VERTEX
  8
T06SSILL
 62
8
 10
1926.778
 20
-2710.314
 30
4632.280
 70
    32
  0
VERTEX
  8
T06SSILL
 62
8
 10
1917.276
 20
-2700.634
 30
4632.280
 70
    32
  0
VERTEX
  8
T06SSILL
 62
8
 10
1917.505
 20
-2696.142
 30
4632.280
 70
    32
  0
VERTEX
  8
T06SSILL
 62
8
 10
1928.237
 20
-2686.523
 30
4632.280
 70
    32
  0
VERTEX
  8
T06SSILL
 62
8
 10
1969.450
 20
-2656.099
 30
4632.280
 70
    32
  0
VERTEX
  8
T06SSILL
 62
8
 10
1964.004
 20
-2650.003
 30
4632.280
 70
    32
  0
VERTEX
  8
T06SSILL
 62
8
 10
1856.348
 20
-2384.484
 30
4632.280
 70
    32
  0
VERTEX
  8
T06SSILL
 62
8
 10
1821.029
 20
-2301.087
 30
4632.280
 70
    32
  0
VERTEX
  8
T06SSILL
 62
8
 10
1670.488
 20
-1924.078
 30
4632.280
 70
    32
  0
VERTEX
  8
T06SSILL
 62
8
 10
1454.447
 20
-1398.894
 30
4632.280
 70
    32
  0
VERTEX
  8
T06SSILL
 62
8
 10
1455.409
 20
-1390.455
 30
4632.280
 70
    32
  0
VERTEX
  8
T06SSILL
 62
8
 10
1443.530
 20
-1370.244
 30
4632.280
 70
    32
  0
VERTEX
  8
T06SSILL
 62
8
 10
1431.829
 20
-1355.044
 30
4632.280
 70
    32
  0
VERTEX
  8
T06SSILL
 62
8
 10
1418.022
 20
-1345.471
 30
4632.280
 70
    32
  0
VERTEX
  8
T06SSILL
 62
8
 10
1412.129
 20
-1339.673
 30
4632.280
 70
    32
  0
VERTEX
  8
T06SSILL
 62
8
 10
1407.293
 20
-1338.621
 30
4632.280
 70
    32
  0
VERTEX
  8
T06SSILL
 62
8
 10
1405.006
 20
-1334.842
 30
4632.280
 70
    32
  0
VERTEX
  8
T06SSILL
 62
8
 10
1397.092
 20
-1331.155
 30
4632.280
 70
    32
  0
VERTEX
  8
T06SSILL
 62
8
 10
1371.930
 20
-1295.833
 30
4632.280
 70
    32
  0
VERTEX
  8
T06SSILL
 62
8
 10
1370.783
 20
-1290.208
 30
4632.280
 70
    32
  0
VERTEX
  8
T06SSILL
 62
8
 10
1344.232
 20
-1282.840
 30
4632.280
 70
    32
  0
VERTEX
  8
T06SSILL
 62
8
 10
1330.866
 20
-1275.377
 30
4632.280
 70
    32
  0
VERTEX
  8
T06SSILL
 62
8
 10
1314.065
 20
-1258.421
 30
4632.280
 70
    32
  0
VERTEX
  8
T06SSILL
 62
8
 10
1309.758
 20
-1258.864
 30
4632.280
 70
    32
  0
VERTEX
  8
T06SSILL
 62
8
 10
1306.064
 20
-1255.350
 30
4632.280
 70
    32
  0
VERTEX
  8
T06SSILL
 62
8
 10
1294.727
 20
-1259.752
 30
4632.280
 70
    32
  0
VERTEX
  8
T06SSILL
 62
8
 10
1291.122
 20
-1257.908
 30
4632.280
 70
    32
  0
VERTEX
  8
T06SSILL
 62
8
 10
1234.423
 20
-1218.083
 30
4632.280
 70
    32
  0
VERTEX
  8
T06SSILL
 62
8
 10
1198.266
 20
-1194.388
 30
4632.280
 70
    32
  0
VERTEX
  8
T06SSILL
 62
8
 10
1222.089
 20
-1154.538
 30
4632.280
 70
    32
  0
VERTEX
  8
T06SSILL
 62
8
 10
1185.785
 20
-1128.027
 30
4632.280
 70
    32
  0
VERTEX
  8
T06SSILL
 62
8
 10
1179.111
 20
-1135.343
 30
4632.280
 70
    32
  0
VERTEX
  8
T06SSILL
 62
8
 10
1152.561
 20
-1117.908
 30
4632.280
 70
    32
  0
VERTEX
  8
T06SSILL
 62
8
 10
1158.720
 20
-1109.443
 30
4632.280
 70
    32
  0
VERTEX
  8
T06SSILL
 62
8
 10
1157.210
 20
-1102.654
 30
4632.280
 70
    32
  0
VERTEX
  8
T06SSILL
 62
8
 10
1143.743
 20
-1095.386
 30
4632.280
 70
    32
  0
VERTEX
  8
T06SSILL
 62
8
 10
1132.412
 20
-1085.853
 30
4632.280
 70
    32
  0
VERTEX
  8
T06SSILL
 62
8
 10
1130.028
 20
-1078.528
 30
4632.280
 70
    32
  0
VERTEX
  8
T06SSILL
 62
8
 10
1125.218
 20
-1041.674
 30
4632.280
 70
    32
  0
VERTEX
  8
T06SSILL
 62
8
 10
1244.969
 20
-999.900
 30
4632.280
 70
    32
  0
VERTEX
  8
T06SSILL
 62
8
 10
1673.763
 20
-854.722
 30
4632.280
 70
    32
  0
VERTEX
  8
T06SSILL
 62
8
 10
1692.517
 20
-811.071
 30
4632.280
 70
    32
  0
VERTEX
  8
T06SSILL
 62
8
 10
1685.476
 20
-808.341
 30
4632.280
 70
    32
  0
VERTEX
  8
T06SSILL
 62
8
 10
1667.162
 20
-850.408
 30
4632.280
 70
    32
  0
VERTEX
  8
T06SSILL
 62
8
 10
1124.191
 20
-1033.810
 30
4632.280
 70
    32
  0
VERTEX
  8
T06SSILL
 62
8
 10
1117.187
 20
-980.149
 30
4632.280
 70
    32
  0
VERTEX
  8
T06SSILL
 62
8
 10
1117.652
 20
-947.995
 30
4632.280
 70
    32
  0
VERTEX
  8
T06SSILL
 62
8
 10
1063.367
 20
-502.415
 30
4632.280
 70
    32
  0
VERTEX
  8
T06SSILL
 62
8
 10
1069.075
 20
-491.849
 30
4632.280
 70
    32
  0
VERTEX
  8
T06SSILL
 62
8
 10
1070.514
 20
-473.442
 30
4632.280
 70
    32
  0
VERTEX
  8
T06SSILL
 62
8
 10
1065.695
 20
-439.137
 30
4632.280
 70
    32
  0
VERTEX
  8
T06SSILL
 62
8
 10
1074.934
 20
-419.188
 30
4632.280
 70
    32
  0
VERTEX
  8
T06SSILL
 62
8
 10
1194.641
 20
-424.579
 30
4632.280
 70
    32
  0
VERTEX
  8
T06SSILL
 62
8
 10
1195.161
 20
-419.117
 30
4632.280
 70
    32
  0
VERTEX
  8
T06SSILL
 62
8
 10
1207.310
 20
-419.785
 30
4632.280
 70
    32
  0
VERTEX
  8
T06SSILL
 62
8
 10
1207.728
 20
-413.445
 30
4632.280
 70
    32
  0
VERTEX
  8
T06SSILL
 62
8
 10
1219.088
 20
-414.303
 30
4632.280
 70
    32
  0
VERTEX
  8
T06SSILL
 62
8
 10
1219.607
 20
-408.753
 30
4632.280
 70
    32
  0
VERTEX
  8
T06SSILL
 62
8
 10
1231.835
 20
-408.892
 30
4632.280
 70
    32
  0
VERTEX
  8
T06SSILL
 62
8
 10
1232.151
 20
-396.749
 30
4632.280
 70
    32
  0
VERTEX
  8
T06SSILL
 62
8
 10
1237.787
 20
-397.178
 30
4632.280
 70
    32
  0
VERTEX
  8
T06SSILL
 62
8
 10
1238.297
 20
-391.101
 30
4632.280
 70
    32
  0
VERTEX
  8
T06SSILL
 62
8
 10
1250.796
 20
-391.675
 30
4632.280
 70
    32
  0
VERTEX
  8
T06SSILL
 62
8
 10
1251.658
 20
-385.591
 30
4632.280
 70
    32
  0
VERTEX
  8
T06SSILL
 62
8
 10
1262.741
 20
-385.662
 30
4632.280
 70
    32
  0
VERTEX
  8
T06SSILL
 62
8
 10
1264.137
 20
-349.666
 30
4632.280
 70
    32
  0
VERTEX
  8
T06SSILL
 62
8
 10
1268.179
 20
-344.406
 30
4632.280
 70
    32
  0
VERTEX
  8
T06SSILL
 62
8
 10
1273.856
 20
-326.981
 30
4632.280
 70
    32
  0
VERTEX
  8
T06SSILL
 62
8
 10
1276.675
 20
-322.183
 30
4632.280
 70
    32
  0
VERTEX
  8
T06SSILL
 62
8
 10
1280.706
 20
-321.321
 30
4632.280
 70
    32
  0
VERTEX
  8
T06SSILL
 62
8
 10
1280.896
 20
-317.096
 30
4632.280
 70
    32
  0
VERTEX
  8
T06SSILL
 62
8
 10
1276.262
 20
-313.659
 30
4632.280
 70
    32
  0
VERTEX
  8
T06SSILL
 62
8
 10
1281.254
 20
-292.200
 30
4632.280
 70
    32
  0
VERTEX
  8
T06SSILL
 62
8
 10
1278.924
 20
-274.562
 30
4632.280
 70
    32
  0
VERTEX
  8
T06SSILL
 62
8
 10
1274.946
 20
-263.286
 30
4632.280
 70
    32
  0
VERTEX
  8
T06SSILL
 62
8
 10
1273.540
 20
-233.055
 30
4632.280
 70
    32
  0
VERTEX
  8
T06SSILL
 62
8
 10
1262.444
 20
-207.039
 30
4632.280
 70
    32
  0
VERTEX
  8
T06SSILL
 62
8
 10
1273.085
 20
-201.929
 30
4632.280
 70
    32
  0
VERTEX
  8
T06SSILL
 62
8
 10
1279.216
 20
-200.415
 30
4632.280
 70
    32
  0
VERTEX
  8
T06SSILL
 62
8
 10
1286.191
 20
-201.964
 30
4632.280
 70
    32
  0
VERTEX
  8
T06SSILL
 62
8
 10
1288.698
 20
-199.458
 30
4632.280
 70
    32
  0
VERTEX
  8
T06SSILL
 62
8
 10
1362.509
 20
-220.864
 30
4632.280
 70
    32
  0
VERTEX
  8
T06SSILL
 62
8
 10
1365.285
 20
-213.604
 30
4632.280
 70
    32
  0
VERTEX
  8
T06SSILL
 62
8
 10
1360.273
 20
-208.590
 30
4632.280
 70
    32
  0
VERTEX
  8
T06SSILL
 62
8
 10
1349.813
 20
-203.935
 30
4632.280
 70
    32
  0
VERTEX
  8
T06SSILL
 62
8
 10
1341.814
 20
-189.034
 30
4632.280
 70
    32
  0
VERTEX
  8
T06SSILL
 62
8
 10
1358.977
 20
-184.690
 30
4632.280
 70
    32
  0
VERTEX
  8
T06SSILL
 62
8
 10
1357.471
 20
-178.999
 30
4632.280
 70
    32
  0
VERTEX
  8
T06SSILL
 62
8
 10
1340.270
 20
-181.146
 30
4632.280
 70
    32
  0
VERTEX
  8
T06SSILL
 62
8
 10
1337.105
 20
-166.073
 30
4632.280
 70
    32
  0
VERTEX
  8
T06SSILL
 62
8
 10
1335.330
 20
-134.882
 30
4632.280
 70
    32
  0
VERTEX
  8
T06SSILL
 62
8
 10
1332.801
 20
-131.056
 30
4632.280
 70
    32
  0
VERTEX
  8
T06SSILL
 62
8
 10
1328.557
 20
-114.595
 30
4632.280
 70
    32
  0
VERTEX
  8
T06SSILL
 62
8
 10
1320.887
 20
-103.471
 30
4632.280
 70
    32
  0
VERTEX
  8
T06SSILL
 62
8
 10
1306.342
 20
-86.398
 30
4632.280
 70
    32
  0
VERTEX
  8
T06SSILL
 62
8
 10
1293.365
 20
-73.519
 30
4632.280
 70
    32
  0
VERTEX
  8
T06SSILL
 62
8
 10
1292.974
 20
-71.015
 30
4632.280
 70
    32
  0
VERTEX
  8
T06SSILL
 62
8
 10
1578.390
 20
-51.543
 30
4632.280
 70
    32
  0
VERTEX
  8
T06SSILL
 62
8
 10
1577.501
 20
-44.785
 30
4632.280
 70
    32
  0
VERTEX
  8
T06SSILL
 62
8
 10
1537.175
 20
-47.301
 30
4632.280
 70
    32
  0
VERTEX
  8
T06SSILL
 62
8
 10
1534.730
 20
146.649
 30
4632.280
 70
    32
  0
VERTEX
  8
T06SSILL
 62
8
 10
1526.998
 20
146.186
 30
4632.280
 70
    32
  0
VERTEX
  8
T06SSILL
 62
8
 10
1530.754
 20
-47.129
 30
4632.280
 70
    32
  0
VERTEX
  8
T06SSILL
 62
8
 10
1347.410
 20
-59.446
 30
4632.280
 70
    32
  0
VERTEX
  8
T06SSILL
 62
8
 10
1346.337
 20
-52.075
 30
4632.280
 70
    32
  0
VERTEX
  8
T06SSILL
 62
8
 10
1350.441
 20
-25.723
 30
4632.280
 70
    32
  0
VERTEX
  8
T06SSILL
 62
8
 10
1356.770
 20
-13.321
 30
4632.280
 70
    32
  0
VERTEX
  8
T06SSILL
 62
8
 10
1366.366
 20
-7.995
 30
4632.280
 70
    32
  0
VERTEX
  8
T06SSILL
 62
8
 10
1377.479
 20
7.994
 30
4632.280
 70
    32
  0
VERTEX
  8
T06SSILL
 62
8
 10
1379.270
 20
17.956
 30
4632.280
 70
    32
  0
VERTEX
  8
T06SSILL
 62
8
 10
1373.657
 20
29.131
 30
4632.280
 70
    32
  0
VERTEX
  8
T06SSILL
 62
8
 10
1364.878
 20
40.260
 30
4632.280
 70
    32
  0
VERTEX
  8
T06SSILL
 62
8
 10
1366.778
 20
60.952
 30
4632.280
 70
    32
  0
VERTEX
  8
T06SSILL
 62
8
 10
1365.925
 20
83.540
 30
4632.280
 70
    32
  0
VERTEX
  8
T06SSILL
 62
8
 10
1350.869
 20
115.331
 30
4632.280
 70
    32
  0
VERTEX
  8
T06SSILL
 62
8
 10
1347.379
 20
131.724
 30
4632.280
 70
    32
  0
VERTEX
  8
T06SSILL
 62
8
 10
1346.496
 20
131.976
 30
4632.280
 70
    32
  0
VERTEX
  8
T06SSILL
 62
8
 10
1348.674
 20
139.481
 30
4632.280
 70
    32
  0
VERTEX
  8
T06SSILL
 62
8
 10
1348.830
 20
153.114
 30
4632.280
 70
    32
  0
VERTEX
  8
T06SSILL
 62
8
 10
1346.790
 20
172.606
 30
4632.280
 70
    32
  0
VERTEX
  8
T06SSILL
 62
8
 10
1342.502
 20
183.360
 30
4632.280
 70
    32
  0
VERTEX
  8
T06SSILL
 62
8
 10
1335.167
 20
185.892
 30
4632.280
 70
    32
  0
VERTEX
  8
T06SSILL
 62
8
 10
1330.471
 20
182.219
 30
4632.280
 70
    32
  0
VERTEX
  8
T06SSILL
 62
8
 10
1328.260
 20
195.290
 30
4632.280
 70
    32
  0
VERTEX
  8
T06SSILL
 62
8
 10
1333.932
 20
253.233
 30
4632.280
 70
    32
  0
VERTEX
  8
T06SSILL
 62
8
 10
1334.621
 20
272.501
 30
4632.280
 70
    32
  0
VERTEX
  8
T06SSILL
 62
8
 10
1340.672
 20
291.934
 30
4632.280
 70
    32
  0
VERTEX
  8
T06SSILL
 62
8
 10
1343.270
 20
331.278
 30
4632.280
 70
    32
  0
VERTEX
  8
T06SSILL
 62
8
 10
1334.474
 20
337.571
 30
4632.280
 70
    32
  0
VERTEX
  8
T06SSILL
 62
8
 10
1290.001
 20
354.340
 30
4632.280
 70
    32
  0
VERTEX
  8
T06SSILL
 62
8
 10
1276.948
 20
363.122
 30
4632.280
 70
    32
  0
VERTEX
  8
T06SSILL
 62
8
 10
1267.868
 20
364.661
 30
4632.280
 70
    32
  0
VERTEX
  8
T06SSILL
 62
8
 10
1248.520
 20
370.890
 30
4632.280
 70
    32
  0
VERTEX
  8
T06SSILL
 62
8
 10
1230.824
 20
378.461
 30
4632.280
 70
    32
  0
VERTEX
  8
T06SSILL
 62
8
 10
1221.216
 20
380.081
 30
4632.280
 70
    32
  0
VERTEX
  8
T06SSILL
 62
8
 10
1193.058
 20
375.278
 30
4632.280
 70
    32
  0
VERTEX
  8
T06SSILL
 62
8
 10
1177.227
 20
381.557
 30
4632.280
 70
    32
  0
VERTEX
  8
T06SSILL
 62
8
 10
1162.167
 20
377.031
 30
4632.280
 70
    32
  0
VERTEX
  8
T06SSILL
 62
8
 10
1149.048
 20
366.026
 30
4632.280
 70
    32
  0
VERTEX
  8
T06SSILL
 62
8
 10
1049.460
 20
241.128
 30
4632.280
 70
    32
  0
VERTEX
  8
T06SSILL
 62
8
 10
874.000
 20
578.468
 30
4632.280
 70
    32
  0
VERTEX
  8
T06SSILL
 62
8
 10
874.041
 20
636.594
 30
4632.280
 70
    32
  0
VERTEX
  8
T06SSILL
 62
8
 10
877.561
 20
642.536
 30
4632.280
 70
    32
  0
VERTEX
  8
T06SSILL
 62
8
 10
886.282
 20
647.586
 30
4632.280
 70
    32
  0
VERTEX
  8
T06SSILL
 62
8
 10
884.177
 20
653.272
 30
4632.280
 70
    32
  0
VERTEX
  8
T06SSILL
 62
8
 10
878.055
 20
650.985
 30
4632.280
 70
    32
  0
VERTEX
  8
T06SSILL
 62
8
 10
873.528
 20
653.909
 30
4632.280
 70
    32
  0
VERTEX
  8
T06SSILL
 62
8
 10
869.584
 20
665.196
 30
4632.280
 70
    32
  0
VERTEX
  8
T06SSILL
 62
8
 10
854.218
 20
651.433
 30
4632.280
 70
    32
  0
VERTEX
  8
T06SSILL
 62
8
 10
865.689
 20
636.473
 30
4632.280
 70
    32
  0
VERTEX
  8
T06SSILL
 62
8
 10
867.530
 20
630.784
 30
4632.280
 70
    32
  0
VERTEX
  8
T06SSILL
 62
8
 10
867.263
 20
588.307
 30
4632.280
 70
    32
  0
VERTEX
  8
T06SSILL
 62
8
 10
867.730
 20
580.312
 30
4632.280
 70
    32
  0
VERTEX
  8
T06SSILL
 62
8
 10
870.293
 20
573.314
 30
4632.280
 70
    32
  0
VERTEX
  8
T06SSILL
 62
8
 10
1058.529
 20
209.778
 30
4632.280
 70
    32
  0
VERTEX
  8
T06SSILL
 62
8
 10
1063.763
 20
170.019
 30
4632.280
 70
    32
  0
VERTEX
  8
T06SSILL
 62
8
 10
1049.452
 20
-65.490
 30
4632.280
 70
    32
  0
VERTEX
  8
T06SSILL
 62
8
 10
1013.363
 20
-86.783
 30
4632.280
 70
    32
  0
VERTEX
  8
T06SSILL
 62
8
 10
995.224
 20
-129.642
 30
4632.280
 70
    32
  0
VERTEX
  8
T06SSILL
 62
8
 10
989.856
 20
-130.609
 30
4632.280
 70
    32
  0
VERTEX
  8
T06SSILL
 62
8
 10
990.031
 20
-135.802
 30
4632.280
 70
    32
  0
VERTEX
  8
T06SSILL
 62
8
 10
992.671
 20
-136.418
 30
4632.280
 70
    32
  0
VERTEX
  8
T06SSILL
 62
8
 10
962.031
 20
-203.567
 30
4632.280
 70
    32
  0
VERTEX
  8
T06SSILL
 62
8
 10
955.166
 20
-199.517
 30
4632.280
 70
    32
  0
VERTEX
  8
T06SSILL
 62
8
 10
939.946
 20
-169.590
 30
4632.280
 70
    32
  0
VERTEX
  8
T06SSILL
 62
8
 10
951.043
 20
-126.554
 30
4632.280
 70
    32
  0
VERTEX
  8
T06SSILL
 62
8
 10
920.069
 20
-86.062
 30
4632.280
 70
    32
  0
VERTEX
  8
T06SSILL
 62
8
 10
926.672
 20
-76.822
 30
4632.280
 70
    32
  0
VERTEX
  8
T06SSILL
 62
8
 10
919.543
 20
-76.117
 30
4632.280
 70
    32
  0
VERTEX
  8
T06SSILL
 62
8
 10
914.437
 20
-82.717
 30
4632.280
 70
    32
  0
VERTEX
  8
T06SSILL
 62
8
 10
905.547
 20
-85.796
 30
4632.280
 70
    32
  0
VERTEX
  8
T06SSILL
 62
8
 10
896.923
 20
-82.802
 30
4632.280
 70
    32
  0
VERTEX
  8
T06SSILL
 62
8
 10
885.483
 20
-71.622
 30
4632.280
 70
    32
  0
VERTEX
  8
T06SSILL
 62
8
 10
874.814
 20
-71.775
 30
4632.280
 70
    32
  0
VERTEX
  8
T06SSILL
 62
8
 10
884.903
 20
-82.567
 30
4632.280
 70
    32
  0
VERTEX
  8
T06SSILL
 62
8
 10
898.876
 20
-91.998
 30
4632.280
 70
    32
  0
VERTEX
  8
T06SSILL
 62
8
 10
906.019
 20
-93.105
 30
4632.280
 70
    32
  0
VERTEX
  8
T06SSILL
 62
8
 10
908.415
 20
-99.396
 30
4632.280
 70
    32
  0
VERTEX
  8
T06SSILL
 62
8
 10
922.418
 20
-100.472
 30
4632.280
 70
    32
  0
VERTEX
  8
T06SSILL
 62
8
 10
943.394
 20
-128.250
 30
4632.280
 70
    32
  0
VERTEX
  8
T06SSILL
 62
8
 10
933.575
 20
-170.462
 30
4632.280
 70
    32
  0
VERTEX
  8
T06SSILL
 62
8
 10
944.776
 20
-192.430
 30
4632.280
 70
    32
  0
VERTEX
  8
T06SSILL
 62
8
 10
936.078
 20
-198.035
 30
4632.280
 70
    32
  0
VERTEX
  8
T06SSILL
 62
8
 10
938.708
 20
-202.563
 30
4632.280
 70
    32
  0
VERTEX
  8
T06SSILL
 62
8
 10
947.169
 20
-198.545
 30
4632.280
 70
    32
  0
VERTEX
  8
T06SSILL
 62
8
 10
958.071
 20
-218.496
 30
4632.280
 70
    32
  0
VERTEX
  8
T06SSILL
 62
8
 10
910.675
 20
-325.126
 30
4632.280
 70
    32
  0
VERTEX
  8
T06SSILL
 62
8
 10
925.238
 20
-464.451
 30
4632.280
 70
    32
  0
VERTEX
  8
T06SSILL
 62
8
 10
935.725
 20
-470.688
 30
4632.280
 70
    32
  0
VERTEX
  8
T06SSILL
 62
8
 10
924.656
 20
-481.523
 30
4632.280
 70
    32
  0
VERTEX
  8
T06SSILL
 62
8
 10
934.408
 20
-491.028
 30
4632.280
 70
    32
  0
VERTEX
  8
T06SSILL
 62
8
 10
932.344
 20
-493.702
 30
4632.280
 70
    32
  0
VERTEX
  8
T06SSILL
 62
8
 10
930.935
 20
-498.652
 30
4632.280
 70
    32
  0
VERTEX
  8
T06SSILL
 62
8
 10
938.927
 20
-523.227
 30
4632.280
 70
    32
  0
VERTEX
  8
T06SSILL
 62
8
 10
966.168
 20
-511.759
 30
4632.280
 70
    32
  0
VERTEX
  8
T06SSILL
 62
8
 10
962.108
 20
-495.823
 30
4632.280
 70
    32
  0
VERTEX
  8
T06SSILL
 62
8
 10
964.546
 20
-489.360
 30
4632.280
 70
    32
  0
VERTEX
  8
T06SSILL
 62
8
 10
1055.093
 20
-547.501
 30
4632.280
 70
    32
  0
VERTEX
  8
T06SSILL
 62
8
 10
1063.951
 20
-561.243
 30
4632.280
 70
    32
  0
VERTEX
  8
T06SSILL
 62
8
 10
1111.461
 20
-956.106
 30
4632.280
 70
    32
  0
VERTEX
  8
T06SSILL
 62
8
 10
1109.800
 20
-980.158
 30
4632.280
 70
    32
  0
VERTEX
  8
T06SSILL
 62
8
 10
1116.885
 20
-1032.916
 30
4632.280
 70
    32
  0
VERTEX
  8
T06SSILL
 62
8
 10
1103.066
 20
-1058.538
 30
4632.280
 70
    32
  0
VERTEX
  8
T06SSILL
 62
8
 10
1095.806
 20
-1063.033
 30
4632.280
 70
    32
  0
VERTEX
  8
T06SSILL
 62
8
 10
1089.395
 20
-1062.085
 30
4632.280
 70
    32
  0
VERTEX
  8
T06SSILL
 62
8
 10
1082.299
 20
-1067.726
 30
4632.280
 70
    32
  0
VERTEX
  8
T06SSILL
 62
8
 10
1088.703
 20
-1077.469
 30
4632.280
 70
    32
  0
VERTEX
  8
T06SSILL
 62
8
 10
1087.313
 20
-1084.050
 30
4632.280
 70
    32
  0
VERTEX
  8
T06SSILL
 62
8
 10
1074.927
 20
-1107.224
 30
4632.280
 70
    32
  0
VERTEX
  8
T06SSILL
 62
8
 10
1064.232
 20
-1120.302
 30
4632.280
 70
    32
  0
VERTEX
  8
T06SSILL
 62
8
 10
944.669
 20
-1173.021
 30
4632.280
 70
    32
  0
VERTEX
  8
T06SSILL
 62
8
 10
939.504
 20
-1170.855
 30
4632.280
 70
    32
  0
VERTEX
  8
T06SSILL
 62
8
 10
931.490
 20
-1155.377
 30
4632.280
 70
    32
  0
VERTEX
  8
T06SSILL
 62
8
 10
924.863
 20
-1158.297
 30
4632.280
 70
    32
  0
VERTEX
  8
T06SSILL
 62
8
 10
931.924
 20
-1172.357
 30
4632.280
 70
    32
  0
VERTEX
  8
T06SSILL
 62
8
 10
930.631
 20
-1178.060
 30
4632.280
 70
    32
  0
VERTEX
  8
T06SSILL
 62
8
 10
911.435
 20
-1188.408
 30
4632.280
 70
    32
  0
VERTEX
  8
T06SSILL
 62
8
 10
895.316
 20
-1190.609
 30
4632.280
 70
    32
  0
VERTEX
  8
T06SSILL
 62
8
 10
876.777
 20
-1188.915
 30
4632.280
 70
    32
  0
VERTEX
  8
T06SSILL
 62
8
 10
565.455
 20
-981.793
 30
4632.280
 70
    32
  0
VERTEX
  8
T06SSILL
 62
8
 10
561.016
 20
-987.674
 30
4632.280
 70
    32
  0
VERTEX
  8
T06SSILL
 62
8
 10
835.458
 20
-1170.882
 30
4632.280
 70
    32
  0
VERTEX
  8
T06SSILL
 62
8
 10
843.733
 20
-1178.358
 30
4632.280
 70
    32
  0
VERTEX
  8
T06SSILL
 62
8
 10
846.920
 20
-1184.549
 30
4632.280
 70
    32
  0
VERTEX
  8
T06SSILL
 62
8
 10
844.829
 20
-1215.485
 30
4632.280
 70
    32
  0
VERTEX
  8
T06SSILL
 62
8
 10
834.728
 20
-1230.680
 30
4632.280
 70
    32
  0
VERTEX
  8
T06SSILL
 62
8
 10
679.272
 20
-1317.051
 30
4632.280
 70
    32
  0
VERTEX
  8
T06SSILL
 62
8
 10
671.517
 20
-1318.463
 30
4632.280
 70
    32
  0
VERTEX
  8
T06SSILL
 62
8
 10
665.104
 20
-1317.779
 30
4632.280
 70
    32
  0
VERTEX
  8
T06SSILL
 62
8
 10
599.739
 20
-1171.871
 30
4632.280
 70
    32
  0
VERTEX
  8
T06SSILL
 62
8
 10
411.043
 20
-1029.972
 30
4632.280
 70
    32
  0
VERTEX
  8
T06SSILL
 62
8
 10
304.822
 20
-952.830
 30
4632.280
 70
    32
  0
VERTEX
  8
T06SSILL
 62
8
 10
301.743
 20
-940.016
 30
4632.280
 70
    32
  0
VERTEX
  8
T06SSILL
 62
8
 10
339.174
 20
-887.353
 30
4632.280
 70
    32
  0
VERTEX
  8
T06SSILL
 62
8
 10
369.833
 20
-859.179
 30
4632.280
 70
    32
  0
VERTEX
  8
T06SSILL
 62
8
 10
386.023
 20
-836.294
 30
4632.280
 70
    32
  0
VERTEX
  8
T06SSILL
 62
8
 10
397.980
 20
-823.901
 30
4632.280
 70
    32
  0
VERTEX
  8
T06SSILL
 62
8
 10
409.123
 20
-808.261
 30
4632.280
 70
    32
  0
SEQEND
  8
T06SSILL
  0
POLYLINE
  8
T06SSILL
 62
8
 66
     1
 70
     9
  0
VERTEX
  8
T06SSILL
 62
8
 10
1236.984
 20
-1233.502
 30
4632.280
 70
    32
  0
VERTEX
  8
T06SSILL
 62
8
 10
1141.710
 20
-1170.122
 30
4632.280
 70
    32
  0
VERTEX
  8
T06SSILL
 62
8
 10
1049.446
 20
-1145.913
 30
4632.280
 70
    32
  0
VERTEX
  8
T06SSILL
 62
8
 10
1038.461
 20
-1145.092
 30
4632.280
 70
    32
  0
VERTEX
  8
T06SSILL
 62
8
 10
671.007
 20
-1333.233
 30
4632.280
 70
    32
  0
VERTEX
  8
T06SSILL
 62
8
 10
759.840
 20
-1505.075
 30
4632.280
 70
    32
  0
VERTEX
  8
T06SSILL
 62
8
 10
767.798
 20
-1509.294
 30
4632.280
 70
    32
  0
VERTEX
  8
T06SSILL
 62
8
 10
776.331
 20
-1509.122
 30
4632.280
 70
    32
  0
VERTEX
  8
T06SSILL
 62
8
 10
795.945
 20
-1492.621
 30
4632.280
 70
    32
  0
VERTEX
  8
T06SSILL
 62
8
 10
800.387
 20
-1496.715
 30
4632.280
 70
    32
  0
VERTEX
  8
T06SSILL
 62
8
 10
780.764
 20
-1514.006
 30
4632.280
 70
    32
  0
VERTEX
  8
T06SSILL
 62
8
 10
773.703
 20
-1516.393
 30
4632.280
 70
    32
  0
VERTEX
  8
T06SSILL
 62
8
 10
769.230
 20
-1523.381
 30
4632.280
 70
    32
  0
VERTEX
  8
T06SSILL
 62
8
 10
793.179
 20
-1570.076
 30
4632.280
 70
    32
  0
VERTEX
  8
T06SSILL
 62
8
 10
992.589
 20
-1493.940
 30
4632.280
 70
    32
  0
VERTEX
  8
T06SSILL
 62
8
 10
994.697
 20
-1486.047
 30
4632.280
 70
    32
  0
VERTEX
  8
T06SSILL
 62
8
 10
992.956
 20
-1451.552
 30
4632.280
 70
    32
  0
VERTEX
  8
T06SSILL
 62
8
 10
997.352
 20
-1443.507
 30
4632.280
 70
    32
  0
VERTEX
  8
T06SSILL
 62
8
 10
1003.384
 20
-1438.735
 30
4632.280
 70
    32
  0
VERTEX
  8
T06SSILL
 62
8
 10
1011.239
 20
-1436.180
 30
4632.280
 70
    32
  0
VERTEX
  8
T06SSILL
 62
8
 10
1026.632
 20
-1444.173
 30
4632.280
 70
    32
  0
VERTEX
  8
T06SSILL
 62
8
 10
1015.380
 20
-1476.506
 30
4632.280
 70
    32
  0
VERTEX
  8
T06SSILL
 62
8
 10
1018.718
 20
-1485.073
 30
4632.280
 70
    32
  0
VERTEX
  8
T06SSILL
 62
8
 10
1038.978
 20
-1490.304
 30
4632.280
 70
    32
  0
VERTEX
  8
T06SSILL
 62
8
 10
1044.133
 20
-1501.705
 30
4632.280
 70
    32
  0
VERTEX
  8
T06SSILL
 62
8
 10
1031.352
 20
-1520.741
 30
4632.280
 70
    32
  0
VERTEX
  8
T06SSILL
 62
8
 10
1030.296
 20
-1537.176
 30
4632.280
 70
    32
  0
VERTEX
  8
T06SSILL
 62
8
 10
1033.840
 20
-1551.111
 30
4632.280
 70
    32
  0
VERTEX
  8
T06SSILL
 62
8
 10
1044.013
 20
-1553.858
 30
4632.280
 70
    32
  0
VERTEX
  8
T06SSILL
 62
8
 10
1045.102
 20
-1558.971
 30
4632.280
 70
    32
  0
VERTEX
  8
T06SSILL
 62
8
 10
1049.082
 20
-1565.082
 30
4632.280
 70
    32
  0
VERTEX
  8
T06SSILL
 62
8
 10
1030.723
 20
-1587.577
 30
4632.280
 70
    32
  0
VERTEX
  8
T06SSILL
 62
8
 10
1032.715
 20
-1631.398
 30
4632.280
 70
    32
  0
VERTEX
  8
T06SSILL
 62
8
 10
1052.644
 20
-1634.778
 30
4632.280
 70
    32
  0
VERTEX
  8
T06SSILL
 62
8
 10
1064.954
 20
-1643.177
 30
4632.280
 70
    32
  0
VERTEX
  8
T06SSILL
 62
8
 10
1077.458
 20
-1658.175
 30
4632.280
 70
    32
  0
VERTEX
  8
T06SSILL
 62
8
 10
1088.831
 20
-1663.838
 30
4632.280
 70
    32
  0
VERTEX
  8
T06SSILL
 62
8
 10
1104.603
 20
-1653.013
 30
4632.280
 70
    32
  0
VERTEX
  8
T06SSILL
 62
8
 10
1111.076
 20
-1656.249
 30
4632.280
 70
    32
  0
VERTEX
  8
T06SSILL
 62
8
 10
1143.711
 20
-1647.628
 30
4632.280
 70
    32
  0
VERTEX
  8
T06SSILL
 62
8
 10
1168.569
 20
-1634.175
 30
4632.280
 70
    32
  0
VERTEX
  8
T06SSILL
 62
8
 10
1198.668
 20
-1615.940
 30
4632.280
 70
    32
  0
VERTEX
  8
T06SSILL
 62
8
 10
1202.660
 20
-1620.908
 30
4632.280
 70
    32
  0
VERTEX
  8
T06SSILL
 62
8
 10
1176.266
 20
-1638.127
 30
4632.280
 70
    32
  0
VERTEX
  8
T06SSILL
 62
8
 10
1179.504
 20
-1656.104
 30
4632.280
 70
    32
  0
VERTEX
  8
T06SSILL
 62
8
 10
1173.797
 20
-1671.522
 30
4632.280
 70
    32
  0
VERTEX
  8
T06SSILL
 62
8
 10
1158.603
 20
-1677.691
 30
4632.280
 70
    32
  0
VERTEX
  8
T06SSILL
 62
8
 10
1124.024
 20
-1711.885
 30
4632.280
 70
    32
  0
VERTEX
  8
T06SSILL
 62
8
 10
1121.957
 20
-1724.176
 30
4632.280
 70
    32
  0
VERTEX
  8
T06SSILL
 62
8
 10
1128.354
 20
-1734.535
 30
4632.280
 70
    32
  0
VERTEX
  8
T06SSILL
 62
8
 10
1506.069
 20
-1577.396
 30
4632.280
 70
    32
  0
VERTEX
  8
T06SSILL
 62
8
 10
1512.651
 20
-1559.723
 30
4632.280
 70
    32
  0
VERTEX
  8
T06SSILL
 62
8
 10
1458.686
 20
-1430.537
 30
4632.280
 70
    32
  0
VERTEX
  8
T06SSILL
 62
8
 10
1447.353
 20
-1440.829
 30
4632.280
 70
    32
  0
VERTEX
  8
T06SSILL
 62
8
 10
1440.316
 20
-1433.185
 30
4632.280
 70
    32
  0
VERTEX
  8
T06SSILL
 62
8
 10
1449.454
 20
-1426.675
 30
4632.280
 70
    32
  0
VERTEX
  8
T06SSILL
 62
8
 10
1452.879
 20
-1420.959
 30
4632.280
 70
    32
  0
VERTEX
  8
T06SSILL
 62
8
 10
1453.139
 20
-1415.597
 30
4632.280
 70
    32
  0
VERTEX
  8
T06SSILL
 62
8
 10
1447.946
 20
-1405.491
 30
4632.280
 70
    32
  0
VERTEX
  8
T06SSILL
 62
8
 10
1441.443
 20
-1407.693
 30
4632.280
 70
    32
  0
VERTEX
  8
T06SSILL
 62
8
 10
1436.696
 20
-1407.256
 30
4632.280
 70
    32
  0
VERTEX
  8
T06SSILL
 62
8
 10
1433.794
 20
-1405.500
 30
4632.280
 70
    32
  0
VERTEX
  8
T06SSILL
 62
8
 10
1419.467
 20
-1407.442
 30
4632.280
 70
    32
  0
VERTEX
  8
T06SSILL
 62
8
 10
1409.608
 20
-1386.263
 30
4632.280
 70
    32
  0
VERTEX
  8
T06SSILL
 62
8
 10
1402.739
 20
-1365.786
 30
4632.280
 70
    32
  0
VERTEX
  8
T06SSILL
 62
8
 10
1393.590
 20
-1354.716
 30
4632.280
 70
    32
  0
VERTEX
  8
T06SSILL
 62
8
 10
1386.374
 20
-1340.831
 30
4632.280
 70
    32
  0
VERTEX
  8
T06SSILL
 62
8
 10
1377.842
 20
-1333.452
 30
4632.280
 70
    32
  0
VERTEX
  8
T06SSILL
 62
8
 10
1365.527
 20
-1319.044
 30
4632.280
 70
    32
  0
VERTEX
  8
T06SSILL
 62
8
 10
1351.985
 20
-1312.020
 30
4632.280
 70
    32
  0
VERTEX
  8
T06SSILL
 62
8
 10
1343.545
 20
-1309.388
 30
4632.280
 70
    32
  0
VERTEX
  8
T06SSILL
 62
8
 10
1327.976
 20
-1293.662
 30
4632.280
 70
    32
  0
VERTEX
  8
T06SSILL
 62
8
 10
1266.240
 20
-1249.924
 30
4632.280
 70
    32
  0
VERTEX
  8
T06SSILL
 62
8
 10
1242.585
 20
-1235.610
 30
4632.280
 70
    32
  0
SEQEND
  8
T06SSILL
  0
POLYLINE
  8
T06SSILL
 62
8
 66
     1
 70
     9
  0
VERTEX
  8
T06SSILL
 62
8
 10
895.418
 20
-1869.678
 30
4632.280
 70
    32
  0
VERTEX
  8
T06SSILL
 62
8
 10
869.398
 20
-1819.179
 30
4632.280
 70
    32
  0
VERTEX
  8
T06SSILL
 62
8
 10
874.551
 20
-1806.218
 30
4632.280
 70
    32
  0
VERTEX
  8
T06SSILL
 62
8
 10
955.257
 20
-1776.477
 30
4632.280
 70
    32
  0
VERTEX
  8
T06SSILL
 62
8
 10
966.786
 20
-1775.809
 30
4632.280
 70
    32
  0
VERTEX
  8
T06SSILL
 62
8
 10
981.222
 20
-1791.003
 30
4632.280
 70
    32
  0
VERTEX
  8
T06SSILL
 62
8
 10
981.353
 20
-1795.226
 30
4632.280
 70
    32
  0
VERTEX
  8
T06SSILL
 62
8
 10
976.965
 20
-1802.479
 30
4632.280
 70
    32
  0
VERTEX
  8
T06SSILL
 62
8
 10
976.456
 20
-1825.341
 30
4632.280
 70
    32
  0
VERTEX
  8
T06SSILL
 62
8
 10
976.835
 20
-1839.241
 30
4632.280
 70
    32
  0
VERTEX
  8
T06SSILL
 62
8
 10
987.518
 20
-1876.383
 30
4632.280
 70
    32
  0
VERTEX
  8
T06SSILL
 62
8
 10
982.988
 20
-1914.080
 30
4632.280
 70
    32
  0
VERTEX
  8
T06SSILL
 62
8
 10
989.557
 20
-1912.380
 30
4632.280
 70
    32
  0
VERTEX
  8
T06SSILL
 62
8
 10
1018.224
 20
-1990.790
 30
4632.280
 70
    32
  0
VERTEX
  8
T06SSILL
 62
8
 10
1000.303
 20
-1997.267
 30
4632.280
 70
    32
  0
VERTEX
  8
T06SSILL
 62
8
 10
900.967
 20
-1878.146
 30
4632.280
 70
    32
  0
SEQEND
  8
T06SSILL
  0
POLYLINE
  8
T06SSILL
 62
8
 66
     1
 70
     9
  0
VERTEX
  8
T06SSILL
 62
8
 10
1821.141
 20
-2322.200
 30
4632.280
 70
    32
  0
VERTEX
  8
T06SSILL
 62
8
 10
1661.805
 20
-1924.082
 30
4632.280
 70
    32
  0
VERTEX
  8
T06SSILL
 62
8
 10
1523.414
 20
-1588.687
 30
4632.280
 70
    32
  0
VERTEX
  8
T06SSILL
 62
8
 10
1510.578
 20
-1582.978
 30
4632.280
 70
    32
  0
VERTEX
  8
T06SSILL
 62
8
 10
1246.288
 20
-1694.182
 30
4632.280
 70
    32
  0
VERTEX
  8
T06SSILL
 62
8
 10
1220.219
 20
-1803.896
 30
4632.280
 70
    32
  0
VERTEX
  8
T06SSILL
 62
8
 10
1212.835
 20
-1802.844
 30
4632.280
 70
    32
  0
VERTEX
  8
T06SSILL
 62
8
 10
1237.763
 20
-1697.701
 30
4632.280
 70
    32
  0
VERTEX
  8
T06SSILL
 62
8
 10
1136.675
 20
-1737.790
 30
4632.280
 70
    32
  0
VERTEX
  8
T06SSILL
 62
8
 10
1148.639
 20
-1745.658
 30
4632.280
 70
    32
  0
VERTEX
  8
T06SSILL
 62
8
 10
1154.736
 20
-1751.265
 30
4632.280
 70
    32
  0
VERTEX
  8
T06SSILL
 62
8
 10
1159.903
 20
-1761.522
 30
4632.280
 70
    32
  0
VERTEX
  8
T06SSILL
 62
8
 10
1164.976
 20
-1764.127
 30
4632.280
 70
    32
  0
VERTEX
  8
T06SSILL
 62
8
 10
1182.661
 20
-1755.258
 30
4632.280
 70
    32
  0
VERTEX
  8
T06SSILL
 62
8
 10
1186.309
 20
-1759.607
 30
4632.280
 70
    32
  0
VERTEX
  8
T06SSILL
 62
8
 10
1188.980
 20
-1772.916
 30
4632.280
 70
    32
  0
VERTEX
  8
T06SSILL
 62
8
 10
1183.292
 20
-1786.663
 30
4632.280
 70
    32
  0
VERTEX
  8
T06SSILL
 62
8
 10
1238.851
 20
-1879.168
 30
4632.280
 70
    32
  0
VERTEX
  8
T06SSILL
 62
8
 10
1261.024
 20
-1885.120
 30
4632.280
 70
    32
  0
VERTEX
  8
T06SSILL
 62
8
 10
1264.652
 20
-1896.229
 30
4632.280
 70
    32
  0
VERTEX
  8
T06SSILL
 62
8
 10
1263.718
 20
-1908.035
 30
4632.280
 70
    32
  0
VERTEX
  8
T06SSILL
 62
8
 10
1247.304
 20
-1910.175
 30
4632.280
 70
    32
  0
VERTEX
  8
T06SSILL
 62
8
 10
1233.308
 20
-1914.734
 30
4632.280
 70
    32
  0
VERTEX
  8
T06SSILL
 62
8
 10
1219.301
 20
-1903.810
 30
4632.280
 70
    32
  0
VERTEX
  8
T06SSILL
 62
8
 10
1213.888
 20
-1906.193
 30
4632.280
 70
    32
  0
VERTEX
  8
T06SSILL
 62
8
 10
1204.487
 20
-1897.034
 30
4632.280
 70
    32
  0
VERTEX
  8
T06SSILL
 62
8
 10
1196.658
 20
-1897.086
 30
4632.280
 70
    32
  0
VERTEX
  8
T06SSILL
 62
8
 10
1169.750
 20
-1912.785
 30
4632.280
 70
    32
  0
VERTEX
  8
T06SSILL
 62
8
 10
1163.284
 20
-1910.348
 30
4632.280
 70
    32
  0
VERTEX
  8
T06SSILL
 62
8
 10
1155.850
 20
-1902.914
 30
4632.280
 70
    32
  0
VERTEX
  8
T06SSILL
 62
8
 10
1151.453
 20
-1893.138
 30
4632.280
 70
    32
  0
VERTEX
  8
T06SSILL
 62
8
 10
1146.671
 20
-1879.938
 30
4632.280
 70
    32
  0
VERTEX
  8
T06SSILL
 62
8
 10
1134.242
 20
-1833.367
 30
4632.280
 70
    32
  0
VERTEX
  8
T06SSILL
 62
8
 10
1124.575
 20
-1816.288
 30
4632.280
 70
    32
  0
VERTEX
  8
T06SSILL
 62
8
 10
1117.615
 20
-1792.731
 30
4632.280
 70
    32
  0
VERTEX
  8
T06SSILL
 62
8
 10
1110.341
 20
-1782.187
 30
4632.280
 70
    32
  0
VERTEX
  8
T06SSILL
 62
8
 10
1105.776
 20
-1764.987
 30
4632.280
 70
    32
  0
VERTEX
  8
T06SSILL
 62
8
 10
1064.713
 20
-1739.481
 30
4632.280
 70
    32
  0
VERTEX
  8
T06SSILL
 62
8
 10
1053.717
 20
-1747.806
 30
4632.280
 70
    32
  0
VERTEX
  8
T06SSILL
 62
8
 10
1037.792
 20
-1756.606
 30
4632.280
 70
    32
  0
VERTEX
  8
T06SSILL
 62
8
 10
1027.119
 20
-1751.302
 30
4632.280
 70
    32
  0
VERTEX
  8
T06SSILL
 62
8
 10
1001.867
 20
-1760.442
 30
4632.280
 70
    32
  0
VERTEX
  8
T06SSILL
 62
8
 10
998.037
 20
-1773.066
 30
4632.280
 70
    32
  0
VERTEX
  8
T06SSILL
 62
8
 10
996.832
 20
-1787.037
 30
4632.280
 70
    32
  0
VERTEX
  8
T06SSILL
 62
8
 10
1012.472
 20
-1854.048
 30
4632.280
 70
    32
  0
VERTEX
  8
T06SSILL
 62
8
 10
1021.184
 20
-1878.152
 30
4632.280
 70
    32
  0
VERTEX
  8
T06SSILL
 62
8
 10
1022.234
 20
-1899.570
 30
4632.280
 70
    32
  0
VERTEX
  8
T06SSILL
 62
8
 10
1070.643
 20
-2029.362
 30
4632.280
 70
    32
  0
VERTEX
  8
T06SSILL
 62
8
 10
1065.138
 20
-2031.484
 30
4632.280
 70
    32
  0
VERTEX
  8
T06SSILL
 62
8
 10
1068.933
 20
-2042.062
 30
4632.280
 70
    32
  0
VERTEX
  8
T06SSILL
 62
8
 10
1044.899
 20
-2051.111
 30
4632.280
 70
    32
  0
VERTEX
  8
T06SSILL
 62
8
 10
1323.631
 20
-2388.054
 30
4632.280
 70
    32
  0
VERTEX
  8
T06SSILL
 62
8
 10
1344.633
 20
-2401.494
 30
4632.280
 70
    32
  0
VERTEX
  8
T06SSILL
 62
8
 10
1377.803
 20
-2436.185
 30
4632.280
 70
    32
  0
VERTEX
  8
T06SSILL
 62
8
 10
1780.464
 20
-2726.495
 30
4632.280
 70
    32
  0
VERTEX
  8
T06SSILL
 62
8
 10
1795.202
 20
-2733.976
 30
4632.280
 70
    32
  0
VERTEX
  8
T06SSILL
 62
8
 10
1820.838
 20
-2731.694
 30
4632.280
 70
    32
  0
VERTEX
  8
T06SSILL
 62
8
 10
1905.220
 20
-2668.418
 30
4632.280
 70
    32
  0
VERTEX
  8
T06SSILL
 62
8
 10
1918.424
 20
-2684.769
 30
4632.280
 70
    32
  0
VERTEX
  8
T06SSILL
 62
8
 10
1958.770
 20
-2654.809
 30
4632.280
 70
    32
  0
VERTEX
  8
T06SSILL
 62
8
 10
1920.978
 20
-2559.875
 30
4632.280
 70
    32
  0
VERTEX
  8
T06SSILL
 62
8
 10
1854.363
 20
-2398.702
 30
4632.280
 70
    32
  0
SEQEND
  8
T06SSILL
  0
TEXT
  8
T06SSILL
 62
8
 10
292.422
 20
307.624
 30
4632.280
 40
8.202
  1
600
 50
66.474
 41
 1.0 
  0
ENDSEC
  0
EOF
