999
********************************
999
*   DXF File - Entities Only   *
999
*        3D Data Format        *
999
*     Output from ENVISAGE     *
999
*     20-Dec-2007 09:08:58     *
999
********************************
  0
SECTION 
  2
HEADER
  9
$ACADVER
  1
AC1009
  9
$EXTMIN
 10
-290000.000
 20
-250000.000
 30
-4000.000
  9
$EXTMAX
 10
5000000.000
 20
600000.000
 30
6000.000
  0
ENDSEC
  0
SECTION
  2
ENTITIES
  0
POLYLINE
  8
T07SSILL
 62
2
 66
     1
 70
     9
  0
VERTEX
  8
T07SSILL
 62
2
 10
1095.597
 20
-363.067
 30
4535.150
 70
    32
  0
VERTEX
  8
T07SSILL
 62
2
 10
1087.235
 20
-343.912
 30
4535.150
 70
    32
  0
VERTEX
  8
T07SSILL
 62
2
 10
1211.314
 20
-350.459
 30
4535.150
 70
    32
  0
VERTEX
  8
T07SSILL
 62
2
 10
1211.946
 20
-357.930
 30
4535.150
 70
    32
  0
VERTEX
  8
T07SSILL
 62
2
 10
1209.705
 20
-361.305
 30
4535.150
 70
    32
  0
VERTEX
  8
T07SSILL
 62
2
 10
1199.411
 20
-367.784
 30
4535.150
 70
    32
  0
SEQEND
  8
T07SSILL
  0
POLYLINE
  8
T07SSILL
 62
2
 66
     1
 70
     9
  0
VERTEX
  8
T07SSILL
 62
2
 10
1220.911
 20
-350.853
 30
4535.150
 70
    32
  0
VERTEX
  8
T07SSILL
 62
2
 10
1221.247
 20
-356.040
 30
4535.150
 70
    32
  0
VERTEX
  8
T07SSILL
 62
2
 10
1219.810
 20
-360.284
 30
4535.150
 70
    32
  0
VERTEX
  8
T07SSILL
 62
2
 10
1221.069
 20
-362.203
 30
4535.150
 70
    32
  0
VERTEX
  8
T07SSILL
 62
2
 10
1224.774
 20
-362.855
 30
4535.150
 70
    32
  0
VERTEX
  8
T07SSILL
 62
2
 10
1227.087
 20
-358.335
 30
4535.150
 70
    32
  0
VERTEX
  8
T07SSILL
 62
2
 10
1227.692
 20
-351.199
 30
4535.150
 70
    32
  0
SEQEND
  8
T07SSILL
  0
POLYLINE
  8
T07SSILL
 62
2
 66
     1
 70
     9
  0
VERTEX
  8
T07SSILL
 62
2
 10
1290.639
 20
-346.980
 30
4535.150
 70
    32
  0
VERTEX
  8
T07SSILL
 62
2
 10
1292.852
 20
-341.581
 30
4535.150
 70
    32
  0
VERTEX
  8
T07SSILL
 62
2
 10
1295.549
 20
-339.344
 30
4535.150
 70
    32
  0
VERTEX
  8
T07SSILL
 62
2
 10
1300.317
 20
-340.509
 30
4535.150
 70
    32
  0
VERTEX
  8
T07SSILL
 62
2
 10
1303.088
 20
-343.639
 30
4535.150
 70
    32
  0
VERTEX
  8
T07SSILL
 62
2
 10
1304.202
 20
-347.759
 30
4535.150
 70
    32
  0
SEQEND
  8
T07SSILL
  0
POLYLINE
  8
T07SSILL
 62
2
 66
     1
 70
     9
  0
VERTEX
  8
T07SSILL
 62
2
 10
1309.926
 20
-348.120
 30
4535.150
 70
    32
  0
VERTEX
  8
T07SSILL
 62
2
 10
1309.479
 20
-341.262
 30
4535.150
 70
    32
  0
VERTEX
  8
T07SSILL
 62
2
 10
1311.328
 20
-334.989
 30
4535.150
 70
    32
  0
VERTEX
  8
T07SSILL
 62
2
 10
1315.245
 20
-331.942
 30
4535.150
 70
    32
  0
VERTEX
  8
T07SSILL
 62
2
 10
1318.062
 20
-331.991
 30
4535.150
 70
    32
  0
VERTEX
  8
T07SSILL
 62
2
 10
1328.143
 20
-335.547
 30
4535.150
 70
    32
  0
VERTEX
  8
T07SSILL
 62
2
 10
1327.163
 20
-341.016
 30
4535.150
 70
    32
  0
VERTEX
  8
T07SSILL
 62
2
 10
1328.064
 20
-348.835
 30
4535.150
 70
    32
  0
SEQEND
  8
T07SSILL
  0
POLYLINE
  8
T07SSILL
 62
2
 66
     1
 70
     9
  0
VERTEX
  8
T07SSILL
 62
2
 10
1297.803
 20
-45.754
 30
4535.150
 70
    32
  0
VERTEX
  8
T07SSILL
 62
2
 10
1294.609
 20
-50.198
 30
4535.150
 70
    32
  0
VERTEX
  8
T07SSILL
 62
2
 10
1294.237
 20
-55.131
 30
4535.150
 70
    32
  0
VERTEX
  8
T07SSILL
 62
2
 10
1299.313
 20
-59.460
 30
4535.150
 70
    32
  0
VERTEX
  8
T07SSILL
 62
2
 10
1305.669
 20
-60.868
 30
4535.150
 70
    32
  0
VERTEX
  8
T07SSILL
 62
2
 10
1312.887
 20
-61.032
 30
4535.150
 70
    32
  0
VERTEX
  8
T07SSILL
 62
2
 10
1316.381
 20
-59.223
 30
4535.150
 70
    32
  0
VERTEX
  8
T07SSILL
 62
2
 10
1317.883
 20
-53.306
 30
4535.150
 70
    32
  0
VERTEX
  8
T07SSILL
 62
2
 10
1315.270
 20
-48.943
 30
4535.150
 70
    32
  0
VERTEX
  8
T07SSILL
 62
2
 10
1310.748
 20
-46.454
 30
4535.150
 70
    32
  0
SEQEND
  8
T07SSILL
  0
POLYLINE
  8
T07SSILL
 62
2
 66
     1
 70
     9
  0
VERTEX
  8
T07SSILL
 62
2
 10
1324.142
 20
-60.435
 30
4535.150
 70
    32
  0
VERTEX
  8
T07SSILL
 62
2
 10
1323.111
 20
-55.874
 30
4535.150
 70
    32
  0
VERTEX
  8
T07SSILL
 62
2
 10
1325.664
 20
-49.678
 30
4535.150
 70
    32
  0
VERTEX
  8
T07SSILL
 62
2
 10
1329.150
 20
-47.254
 30
4535.150
 70
    32
  0
VERTEX
  8
T07SSILL
 62
2
 10
1337.516
 20
-47.666
 30
4535.150
 70
    32
  0
VERTEX
  8
T07SSILL
 62
2
 10
1344.565
 20
-48.360
 30
4535.150
 70
    32
  0
VERTEX
  8
T07SSILL
 62
2
 10
1345.856
 20
-52.566
 30
4535.150
 70
    32
  0
VERTEX
  8
T07SSILL
 62
2
 10
1344.265
 20
-58.395
 30
4535.150
 70
    32
  0
VERTEX
  8
T07SSILL
 62
2
 10
1340.438
 20
-61.617
 30
4535.150
 70
    32
  0
SEQEND
  8
T07SSILL
  0
POLYLINE
  8
T07SSILL
 62
2
 66
     1
 70
     9
  0
VERTEX
  8
T07SSILL
 62
2
 10
1357.325
 20
-48.358
 30
4535.150
 70
    32
  0
VERTEX
  8
T07SSILL
 62
2
 10
1354.552
 20
-51.477
 30
4535.150
 70
    32
  0
VERTEX
  8
T07SSILL
 62
2
 10
1354.187
 20
-56.850
 30
4535.150
 70
    32
  0
VERTEX
  8
T07SSILL
 62
2
 10
1356.348
 20
-60.339
 30
4535.150
 70
    32
  0
VERTEX
  8
T07SSILL
 62
2
 10
1361.191
 20
-60.624
 30
4535.150
 70
    32
  0
VERTEX
  8
T07SSILL
 62
2
 10
1366.462
 20
-59.935
 30
4535.150
 70
    32
  0
VERTEX
  8
T07SSILL
 62
2
 10
1369.670
 20
-56.546
 30
4535.150
 70
    32
  0
VERTEX
  8
T07SSILL
 62
2
 10
1367.273
 20
-48.660
 30
4535.150
 70
    32
  0
SEQEND
  8
T07SSILL
  0
POLYLINE
  8
T07SSILL
 62
2
 66
     1
 70
     9
  0
VERTEX
  8
T07SSILL
 62
2
 10
1378.377
 20
-49.825
 30
4535.150
 70
    32
  0
VERTEX
  8
T07SSILL
 62
2
 10
1377.015
 20
-53.188
 30
4535.150
 70
    32
  0
VERTEX
  8
T07SSILL
 62
2
 10
1378.439
 20
-60.648
 30
4535.150
 70
    32
  0
VERTEX
  8
T07SSILL
 62
2
 10
1381.014
 20
-62.284
 30
4535.150
 70
    32
  0
VERTEX
  8
T07SSILL
 62
2
 10
1388.067
 20
-63.242
 30
4535.150
 70
    32
  0
VERTEX
  8
T07SSILL
 62
2
 10
1392.799
 20
-61.857
 30
4535.150
 70
    32
  0
VERTEX
  8
T07SSILL
 62
2
 10
1395.717
 20
-56.536
 30
4535.150
 70
    32
  0
VERTEX
  8
T07SSILL
 62
2
 10
1392.578
 20
-52.268
 30
4535.150
 70
    32
  0
VERTEX
  8
T07SSILL
 62
2
 10
1388.758
 20
-49.681
 30
4535.150
 70
    32
  0
SEQEND
  8
T07SSILL
  0
POLYLINE
  8
T07SSILL
 62
2
 66
     1
 70
     9
  0
VERTEX
  8
T07SSILL
 62
2
 10
1292.096
 20
130.513
 30
4535.150
 70
    32
  0
VERTEX
  8
T07SSILL
 62
2
 10
1287.399
 20
132.912
 30
4535.150
 70
    32
  0
VERTEX
  8
T07SSILL
 62
2
 10
1279.654
 20
132.980
 30
4535.150
 70
    32
  0
VERTEX
  8
T07SSILL
 62
2
 10
1274.301
 20
125.602
 30
4535.150
 70
    32
  0
VERTEX
  8
T07SSILL
 62
2
 10
1270.458
 20
117.189
 30
4535.150
 70
    32
  0
VERTEX
  8
T07SSILL
 62
2
 10
1268.964
 20
110.744
 30
4535.150
 70
    32
  0
VERTEX
  8
T07SSILL
 62
2
 10
1272.641
 20
105.779
 30
4535.150
 70
    32
  0
VERTEX
  8
T07SSILL
 62
2
 10
1277.247
 20
103.556
 30
4535.150
 70
    32
  0
VERTEX
  8
T07SSILL
 62
2
 10
1280.808
 20
106.949
 30
4535.150
 70
    32
  0
SEQEND
  8
T07SSILL
  0
POLYLINE
  8
T07SSILL
 62
2
 66
     1
 70
     9
  0
VERTEX
  8
T07SSILL
 62
2
 10
-384.265
 20
-213.392
 30
4535.150
 70
    32
  0
VERTEX
  8
T07SSILL
 62
2
 10
-394.899
 20
-195.502
 30
4535.150
 70
    32
  0
VERTEX
  8
T07SSILL
 62
2
 10
-402.553
 20
-194.834
 30
4535.150
 70
    32
  0
VERTEX
  8
T07SSILL
 62
2
 10
-406.238
 20
-196.609
 30
4535.150
 70
    32
  0
VERTEX
  8
T07SSILL
 62
2
 10
-406.994
 20
-204.351
 30
4535.150
 70
    32
  0
VERTEX
  8
T07SSILL
 62
2
 10
-398.716
 20
-226.121
 30
4535.150
 70
    32
  0
VERTEX
  8
T07SSILL
 62
2
 10
-387.116
 20
-224.485
 30
4535.150
 70
    32
  0
SEQEND
  8
T07SSILL
  0
POLYLINE
  8
T07SSILL
 62
2
 66
     1
 70
     9
  0
VERTEX
  8
T07SSILL
 62
2
 10
-395.780
 20
-233.758
 30
4535.150
 70
    32
  0
VERTEX
  8
T07SSILL
 62
2
 10
-395.037
 20
-242.372
 30
4535.150
 70
    32
  0
VERTEX
  8
T07SSILL
 62
2
 10
-382.856
 20
-271.511
 30
4535.150
 70
    32
  0
VERTEX
  8
T07SSILL
 62
2
 10
-371.772
 20
-272.603
 30
4535.150
 70
    32
  0
VERTEX
  8
T07SSILL
 62
2
 10
-359.322
 20
-264.456
 30
4535.150
 70
    32
  0
VERTEX
  8
T07SSILL
 62
2
 10
-359.178
 20
-257.421
 30
4535.150
 70
    32
  0
VERTEX
  8
T07SSILL
 62
2
 10
-376.366
 20
-229.272
 30
4535.150
 70
    32
  0
SEQEND
  8
T07SSILL
  0
POLYLINE
  8
T07SSILL
 62
2
 66
     1
 70
     9
  0
VERTEX
  8
T07SSILL
 62
2
 10
330.658
 20
-888.456
 30
4535.150
 70
    32
  0
VERTEX
  8
T07SSILL
 62
2
 10
311.877
 20
-935.060
 30
4535.150
 70
    32
  0
VERTEX
  8
T07SSILL
 62
2
 10
290.388
 20
-908.689
 30
4535.150
 70
    32
  0
SEQEND
  8
T07SSILL
  0
POLYLINE
  8
T07SSILL
 62
2
 66
     1
 70
     9
  0
VERTEX
  8
T07SSILL
 62
2
 10
-120.612
 20
-641.663
 30
4535.150
 70
    32
  0
VERTEX
  8
T07SSILL
 62
2
 10
-123.246
 20
-642.466
 30
4535.150
 70
    32
  0
VERTEX
  8
T07SSILL
 62
2
 10
-97.985
 20
-686.054
 30
4535.150
 70
    32
  0
VERTEX
  8
T07SSILL
 62
2
 10
-90.125
 20
-693.405
 30
4535.150
 70
    32
  0
VERTEX
  8
T07SSILL
 62
2
 10
-80.903
 20
-690.989
 30
4535.150
 70
    32
  0
VERTEX
  8
T07SSILL
 62
2
 10
-71.195
 20
-698.770
 30
4535.150
 70
    32
  0
VERTEX
  8
T07SSILL
 62
2
 10
-60.835
 20
-714.375
 30
4535.150
 70
    32
  0
VERTEX
  8
T07SSILL
 62
2
 10
-38.047
 20
-697.915
 30
4535.150
 70
    32
  0
VERTEX
  8
T07SSILL
 62
2
 10
-69.096
 20
-676.865
 30
4535.150
 70
    32
  0
VERTEX
  8
T07SSILL
 62
2
 10
-85.226
 20
-687.931
 30
4535.150
 70
    32
  0
VERTEX
  8
T07SSILL
 62
2
 10
-91.491
 20
-683.211
 30
4535.150
 70
    32
  0
VERTEX
  8
T07SSILL
 62
2
 10
-75.361
 20
-672.233
 30
4535.150
 70
    32
  0
SEQEND
  8
T07SSILL
  0
POLYLINE
  8
T07SSILL
 62
2
 66
     1
 70
     9
  0
VERTEX
  8
T07SSILL
 62
2
 10
-28.701
 20
-703.325
 30
4535.150
 70
    32
  0
VERTEX
  8
T07SSILL
 62
2
 10
-32.395
 20
-703.254
 30
4535.150
 70
    32
  0
VERTEX
  8
T07SSILL
 62
2
 10
-55.360
 20
-719.451
 30
4535.150
 70
    32
  0
VERTEX
  8
T07SSILL
 62
2
 10
-31.693
 20
-741.326
 30
4535.150
 70
    32
  0
VERTEX
  8
T07SSILL
 62
2
 10
-8.198
 20
-725.566
 30
4535.150
 70
    32
  0
VERTEX
  8
T07SSILL
 62
2
 10
-2.945
 20
-720.530
 30
4535.150
 70
    32
  0
VERTEX
  8
T07SSILL
 62
2
 10
-8.060
 20
-717.388
 30
4535.150
 70
    32
  0
SEQEND
  8
T07SSILL
  0
POLYLINE
  8
T07SSILL
 62
2
 66
     1
 70
     9
  0
VERTEX
  8
T07SSILL
 62
2
 10
10.657
 20
-772.086
 30
4535.150
 70
    32
  0
VERTEX
  8
T07SSILL
 62
2
 10
37.830
 20
-753.056
 30
4535.150
 70
    32
  0
VERTEX
  8
T07SSILL
 62
2
 10
43.891
 20
-751.797
 30
4535.150
 70
    32
  0
VERTEX
  8
T07SSILL
 62
2
 10
155.296
 20
-826.648
 30
4535.150
 70
    32
  0
VERTEX
  8
T07SSILL
 62
2
 10
169.688
 20
-858.678
 30
4535.150
 70
    32
  0
VERTEX
  8
T07SSILL
 62
2
 10
68.353
 20
-812.888
 30
4535.150
 70
    32
  0
SEQEND
  8
T07SSILL
  0
POLYLINE
  8
T07SSILL
 62
2
 66
     1
 70
     9
  0
VERTEX
  8
T07SSILL
 62
2
 10
97.579
 20
-858.217
 30
4535.150
 70
    32
  0
VERTEX
  8
T07SSILL
 62
2
 10
112.040
 20
-847.686
 30
4535.150
 70
    32
  0
VERTEX
  8
T07SSILL
 62
2
 10
124.255
 20
-845.960
 30
4535.150
 70
    32
  0
VERTEX
  8
T07SSILL
 62
2
 10
71.561
 20
-822.194
 30
4535.150
 70
    32
  0
VERTEX
  8
T07SSILL
 62
2
 10
87.492
 20
-844.721
 30
4535.150
 70
    32
  0
SEQEND
  8
T07SSILL
  0
POLYLINE
  8
T07SSILL
 62
2
 66
     1
 70
     9
  0
VERTEX
  8
T07SSILL
 62
2
 10
170.268
 20
-1043.340
 30
4535.150
 70
    32
  0
VERTEX
  8
T07SSILL
 62
2
 10
161.068
 20
-1031.335
 30
4535.150
 70
    32
  0
VERTEX
  8
T07SSILL
 62
2
 10
156.568
 20
-1027.838
 30
4535.150
 70
    32
  0
VERTEX
  8
T07SSILL
 62
2
 10
148.567
 20
-1028.138
 30
4535.150
 70
    32
  0
VERTEX
  8
T07SSILL
 62
2
 10
113.246
 20
-1053.801
 30
4535.150
 70
    32
  0
VERTEX
  8
T07SSILL
 62
2
 10
128.022
 20
-1073.695
 30
4535.150
 70
    32
  0
SEQEND
  8
T07SSILL
  0
POLYLINE
  8
T07SSILL
 62
2
 66
     1
 70
     9
  0
VERTEX
  8
T07SSILL
 62
2
 10
-70.745
 20
-1047.080
 30
4535.150
 70
    32
  0
VERTEX
  8
T07SSILL
 62
2
 10
-32.624
 20
-1018.415
 30
4535.150
 70
    32
  0
VERTEX
  8
T07SSILL
 62
2
 10
-22.299
 20
-1026.457
 30
4535.150
 70
    32
  0
VERTEX
  8
T07SSILL
 62
2
 10
-22.180
 20
-1033.228
 30
4535.150
 70
    32
  0
VERTEX
  8
T07SSILL
 62
2
 10
-61.008
 20
-1061.193
 30
4535.150
 70
    32
  0
SEQEND
  8
T07SSILL
  0
POLYLINE
  8
T07SSILL
 62
2
 66
     1
 70
     9
  0
VERTEX
  8
T07SSILL
 62
2
 10
-32.502
 20
-1122.002
 30
4535.150
 70
    32
  0
VERTEX
  8
T07SSILL
 62
2
 10
-25.577
 20
-1117.398
 30
4535.150
 70
    32
  0
VERTEX
  8
T07SSILL
 62
2
 10
-28.943
 20
-1111.961
 30
4535.150
 70
    32
  0
VERTEX
  8
T07SSILL
 62
2
 10
-19.214
 20
-1105.057
 30
4535.150
 70
    32
  0
VERTEX
  8
T07SSILL
 62
2
 10
-22.845
 20
-1099.446
 30
4535.150
 70
    32
  0
VERTEX
  8
T07SSILL
 62
2
 10
-3.386
 20
-1085.639
 30
4535.150
 70
    32
  0
VERTEX
  8
T07SSILL
 62
2
 10
0.770
 20
-1090.633
 30
4535.150
 70
    32
  0
VERTEX
  8
T07SSILL
 62
2
 10
14.883
 20
-1081.071
 30
4535.150
 70
    32
  0
VERTEX
  8
T07SSILL
 62
2
 10
37.066
 20
-1112.398
 30
4535.150
 70
    32
  0
VERTEX
  8
T07SSILL
 62
2
 10
-31.716
 20
-1162.065
 30
4535.150
 70
    32
  0
VERTEX
  8
T07SSILL
 62
2
 10
-40.407
 20
-1161.460
 30
4535.150
 70
    32
  0
VERTEX
  8
T07SSILL
 62
2
 10
-51.074
 20
-1146.258
 30
4535.150
 70
    32
  0
VERTEX
  8
T07SSILL
 62
2
 10
-35.098
 20
-1134.873
 30
4535.150
 70
    32
  0
VERTEX
  8
T07SSILL
 62
2
 10
-33.198
 20
-1137.638
 30
4535.150
 70
    32
  0
VERTEX
  8
T07SSILL
 62
2
 10
-27.847
 20
-1133.667
 30
4535.150
 70
    32
  0
SEQEND
  8
T07SSILL
  0
POLYLINE
  8
T07SSILL
 62
2
 66
     1
 70
     9
  0
VERTEX
  8
T07SSILL
 62
2
 10
-84.912
 20
-1122.066
 30
4535.150
 70
    32
  0
VERTEX
  8
T07SSILL
 62
2
 10
-62.161
 20
-1131.940
 30
4535.150
 70
    32
  0
VERTEX
  8
T07SSILL
 62
2
 10
-54.057
 20
-1142.025
 30
4535.150
 70
    32
  0
VERTEX
  8
T07SSILL
 62
2
 10
-38.068
 20
-1131.254
 30
4535.150
 70
    32
  0
VERTEX
  8
T07SSILL
 62
2
 10
-58.617
 20
-1122.385
 30
4535.150
 70
    32
  0
VERTEX
  8
T07SSILL
 62
2
 10
-91.893
 20
-1076.019
 30
4535.150
 70
    32
  0
VERTEX
  8
T07SSILL
 62
2
 10
-93.648
 20
-1076.907
 30
4535.150
 70
    32
  0
VERTEX
  8
T07SSILL
 62
2
 10
-100.287
 20
-1067.352
 30
4535.150
 70
    32
  0
VERTEX
  8
T07SSILL
 62
2
 10
-114.838
 20
-1077.443
 30
4535.150
 70
    32
  0
VERTEX
  8
T07SSILL
 62
2
 10
-114.455
 20
-1084.213
 30
4535.150
 70
    32
  0
SEQEND
  8
T07SSILL
  0
POLYLINE
  8
T07SSILL
 62
2
 66
     1
 70
     9
  0
VERTEX
  8
T07SSILL
 62
2
 10
919.020
 20
-1762.245
 30
4535.150
 70
    32
  0
VERTEX
  8
T07SSILL
 62
2
 10
879.024
 20
-1590.049
 30
4535.150
 70
    32
  0
VERTEX
  8
T07SSILL
 62
2
 10
864.572
 20
-1592.433
 30
4535.150
 70
    32
  0
VERTEX
  8
T07SSILL
 62
2
 10
850.599
 20
-1588.149
 30
4535.150
 70
    32
  0
VERTEX
  8
T07SSILL
 62
2
 10
824.697
 20
-1583.425
 30
4535.150
 70
    32
  0
VERTEX
  8
T07SSILL
 62
2
 10
820.428
 20
-1587.314
 30
4535.150
 70
    32
  0
VERTEX
  8
T07SSILL
 62
2
 10
841.126
 20
-1673.187
 30
4535.150
 70
    32
  0
SEQEND
  8
T07SSILL
  0
POLYLINE
  8
T07SSILL
 62
2
 66
     1
 70
     9
  0
VERTEX
  8
T07SSILL
 62
2
 10
835.713
 20
-1676.471
 30
4535.150
 70
    32
  0
VERTEX
  8
T07SSILL
 62
2
 10
831.679
 20
-1676.412
 30
4535.150
 70
    32
  0
VERTEX
  8
T07SSILL
 62
2
 10
814.068
 20
-1690.656
 30
4535.150
 70
    32
  0
VERTEX
  8
T07SSILL
 62
2
 10
814.707
 20
-1694.159
 30
4535.150
 70
    32
  0
VERTEX
  8
T07SSILL
 62
2
 10
819.904
 20
-1697.367
 30
4535.150
 70
    32
  0
VERTEX
  8
T07SSILL
 62
2
 10
842.260
 20
-1684.579
 30
4535.150
 70
    32
  0
SEQEND
  8
T07SSILL
  0
POLYLINE
  8
T07SSILL
 62
2
 66
     1
 70
     9
  0
VERTEX
  8
T07SSILL
 62
2
 10
830.598
 20
-1660.197
 30
4535.150
 70
    32
  0
VERTEX
  8
T07SSILL
 62
2
 10
806.192
 20
-1631.874
 30
4535.150
 70
    32
  0
VERTEX
  8
T07SSILL
 62
2
 10
801.487
 20
-1623.928
 30
4535.150
 70
    32
  0
VERTEX
  8
T07SSILL
 62
2
 10
778.927
 20
-1596.206
 30
4535.150
 70
    32
  0
VERTEX
  8
T07SSILL
 62
2
 10
782.759
 20
-1592.495
 30
4535.150
 70
    32
  0
VERTEX
  8
T07SSILL
 62
2
 10
779.221
 20
-1588.311
 30
4535.150
 70
    32
  0
VERTEX
  8
T07SSILL
 62
2
 10
783.404
 20
-1584.598
 30
4535.150
 70
    32
  0
VERTEX
  8
T07SSILL
 62
2
 10
790.576
 20
-1582.092
 30
4535.150
 70
    32
  0
VERTEX
  8
T07SSILL
 62
2
 10
811.542
 20
-1583.256
 30
4535.150
 70
    32
  0
SEQEND
  8
T07SSILL
  0
POLYLINE
  8
T07SSILL
 62
2
 66
     1
 70
     9
  0
VERTEX
  8
T07SSILL
 62
2
 10
784.479
 20
-1575.559
 30
4535.150
 70
    32
  0
VERTEX
  8
T07SSILL
 62
2
 10
804.006
 20
-1571.823
 30
4535.150
 70
    32
  0
VERTEX
  8
T07SSILL
 62
2
 10
775.340
 20
-1511.963
 30
4535.150
 70
    32
  0
VERTEX
  8
T07SSILL
 62
2
 10
770.387
 20
-1518.224
 30
4535.150
 70
    32
  0
VERTEX
  8
T07SSILL
 62
2
 10
751.044
 20
-1535.463
 30
4535.150
 70
    32
  0
SEQEND
  8
T07SSILL
  0
POLYLINE
  8
T07SSILL
 62
2
 66
     1
 70
     9
  0
VERTEX
  8
T07SSILL
 62
2
 10
809.567
 20
-1564.680
 30
4535.150
 70
    32
  0
VERTEX
  8
T07SSILL
 62
2
 10
816.972
 20
-1557.875
 30
4535.150
 70
    32
  0
VERTEX
  8
T07SSILL
 62
2
 10
818.203
 20
-1546.116
 30
4535.150
 70
    32
  0
VERTEX
  8
T07SSILL
 62
2
 10
817.761
 20
-1533.492
 30
4535.150
 70
    32
  0
VERTEX
  8
T07SSILL
 62
2
 10
807.167
 20
-1535.760
 30
4535.150
 70
    32
  0
VERTEX
  8
T07SSILL
 62
2
 10
803.451
 20
-1543.328
 30
4535.150
 70
    32
  0
VERTEX
  8
T07SSILL
 62
2
 10
802.723
 20
-1551.927
 30
4535.150
 70
    32
  0
SEQEND
  8
T07SSILL
  0
POLYLINE
  8
T07SSILL
 62
2
 66
     1
 70
     9
  0
VERTEX
  8
T07SSILL
 62
2
 10
814.109
 20
-1525.539
 30
4535.150
 70
    32
  0
VERTEX
  8
T07SSILL
 62
2
 10
805.377
 20
-1530.687
 30
4535.150
 70
    32
  0
VERTEX
  8
T07SSILL
 62
2
 10
795.209
 20
-1531.199
 30
4535.150
 70
    32
  0
VERTEX
  8
T07SSILL
 62
2
 10
790.356
 20
-1527.025
 30
4535.150
 70
    32
  0
VERTEX
  8
T07SSILL
 62
2
 10
787.233
 20
-1519.594
 30
4535.150
 70
    32
  0
VERTEX
  8
T07SSILL
 62
2
 10
786.905
 20
-1510.476
 30
4535.150
 70
    32
  0
VERTEX
  8
T07SSILL
 62
2
 10
796.405
 20
-1502.516
 30
4535.150
 70
    32
  0
VERTEX
  8
T07SSILL
 62
2
 10
806.393
 20
-1501.304
 30
4535.150
 70
    32
  0
VERTEX
  8
T07SSILL
 62
2
 10
815.380
 20
-1507.203
 30
4535.150
 70
    32
  0
SEQEND
  8
T07SSILL
  0
POLYLINE
  8
T07SSILL
 62
2
 66
     1
 70
     9
  0
VERTEX
  8
T07SSILL
 62
2
 10
788.055
 20
-1499.683
 30
4535.150
 70
    32
  0
VERTEX
  8
T07SSILL
 62
2
 10
797.740
 20
-1493.036
 30
4535.150
 70
    32
  0
VERTEX
  8
T07SSILL
 62
2
 10
799.102
 20
-1487.327
 30
4535.150
 70
    32
  0
VERTEX
  8
T07SSILL
 62
2
 10
793.914
 20
-1473.158
 30
4535.150
 70
    32
  0
VERTEX
  8
T07SSILL
 62
2
 10
787.368
 20
-1465.138
 30
4535.150
 70
    32
  0
VERTEX
  8
T07SSILL
 62
2
 10
772.153
 20
-1471.123
 30
4535.150
 70
    32
  0
VERTEX
  8
T07SSILL
 62
2
 10
770.109
 20
-1479.556
 30
4535.150
 70
    32
  0
VERTEX
  8
T07SSILL
 62
2
 10
774.491
 20
-1491.450
 30
4535.150
 70
    32
  0
SEQEND
  8
T07SSILL
  0
POLYLINE
  8
T07SSILL
 62
2
 66
     1
 70
     9
  0
VERTEX
  8
T07SSILL
 62
2
 10
540.753
 20
-1338.360
 30
4535.150
 70
    32
  0
VERTEX
  8
T07SSILL
 62
2
 10
530.286
 20
-1346.152
 30
4535.150
 70
    32
  0
VERTEX
  8
T07SSILL
 62
2
 10
540.557
 20
-1359.933
 30
4535.150
 70
    32
  0
VERTEX
  8
T07SSILL
 62
2
 10
540.849
 20
-1363.964
 30
4535.150
 70
    32
  0
VERTEX
  8
T07SSILL
 62
2
 10
535.557
 20
-1371.807
 30
4535.150
 70
    32
  0
VERTEX
  8
T07SSILL
 62
2
 10
538.586
 20
-1378.537
 30
4535.150
 70
    32
  0
VERTEX
  8
T07SSILL
 62
2
 10
559.607
 20
-1362.953
 30
4535.150
 70
    32
  0
SEQEND
  8
T07SSILL
  0
POLYLINE
  8
T07SSILL
 62
2
 66
     1
 70
     9
  0
VERTEX
  8
T07SSILL
 62
2
 10
476.197
 20
-1116.534
 30
4535.150
 70
    32
  0
VERTEX
  8
T07SSILL
 62
2
 10
492.120
 20
-1135.799
 30
4535.150
 70
    32
  0
VERTEX
  8
T07SSILL
 62
2
 10
499.894
 20
-1131.621
 30
4535.150
 70
    32
  0
VERTEX
  8
T07SSILL
 62
2
 10
510.007
 20
-1147.859
 30
4535.150
 70
    32
  0
VERTEX
  8
T07SSILL
 62
2
 10
554.138
 20
-1151.137
 30
4535.150
 70
    32
  0
VERTEX
  8
T07SSILL
 62
2
 10
559.384
 20
-1148.994
 30
4535.150
 70
    32
  0
VERTEX
  8
T07SSILL
 62
2
 10
548.039
 20
-1132.152
 30
4535.150
 70
    32
  0
VERTEX
  8
T07SSILL
 62
2
 10
537.580
 20
-1128.807
 30
4535.150
 70
    32
  0
SEQEND
  8
T07SSILL
  0
POLYLINE
  8
T07SSILL
 62
2
 66
     1
 70
     9
  0
VERTEX
  8
T07SSILL
 62
2
 10
463.275
 20
-1770.520
 30
4535.150
 70
    32
  0
VERTEX
  8
T07SSILL
 62
2
 10
424.194
 20
-1798.949
 30
4535.150
 70
    32
  0
VERTEX
  8
T07SSILL
 62
2
 10
476.440
 20
-1833.210
 30
4535.150
 70
    32
  0
VERTEX
  8
T07SSILL
 62
2
 10
483.546
 20
-1833.598
 30
4535.150
 70
    32
  0
VERTEX
  8
T07SSILL
 62
2
 10
499.589
 20
-1820.855
 30
4535.150
 70
    32
  0
VERTEX
  8
T07SSILL
 62
2
 10
489.315
 20
-1806.636
 30
4535.150
 70
    32
  0
VERTEX
  8
T07SSILL
 62
2
 10
493.589
 20
-1803.536
 30
4535.150
 70
    32
  0
VERTEX
  8
T07SSILL
 62
2
 10
476.401
 20
-1778.932
 30
4535.150
 70
    32
  0
VERTEX
  8
T07SSILL
 62
2
 10
471.513
 20
-1782.123
 30
4535.150
 70
    32
  0
SEQEND
  8
T07SSILL
  0
POLYLINE
  8
T07SSILL
 62
2
 66
     1
 70
     9
  0
VERTEX
  8
T07SSILL
 62
2
 10
386.121
 20
-1711.271
 30
4535.150
 70
    32
  0
VERTEX
  8
T07SSILL
 62
2
 10
374.088
 20
-1696.363
 30
4535.150
 70
    32
  0
VERTEX
  8
T07SSILL
 62
2
 10
377.430
 20
-1685.553
 30
4535.150
 70
    32
  0
VERTEX
  8
T07SSILL
 62
2
 10
381.620
 20
-1682.893
 30
4535.150
 70
    32
  0
VERTEX
  8
T07SSILL
 62
2
 10
388.759
 20
-1687.840
 30
4535.150
 70
    32
  0
VERTEX
  8
T07SSILL
 62
2
 10
398.770
 20
-1702.061
 30
4535.150
 70
    32
  0
SEQEND
  8
T07SSILL
  0
POLYLINE
  8
T07SSILL
 62
2
 66
     1
 70
     9
  0
VERTEX
  8
T07SSILL
 62
2
 10
412.987
 20
-1618.304
 30
4535.150
 70
    32
  0
VERTEX
  8
T07SSILL
 62
2
 10
420.983
 20
-1632.802
 30
4535.150
 70
    32
  0
VERTEX
  8
T07SSILL
 62
2
 10
418.660
 20
-1638.957
 30
4535.150
 70
    32
  0
VERTEX
  8
T07SSILL
 62
2
 10
409.838
 20
-1643.756
 30
4535.150
 70
    32
  0
VERTEX
  8
T07SSILL
 62
2
 10
395.442
 20
-1653.944
 30
4535.150
 70
    32
  0
VERTEX
  8
T07SSILL
 62
2
 10
383.062
 20
-1639.476
 30
4535.150
 70
    32
  0
SEQEND
  8
T07SSILL
  0
POLYLINE
  8
T07SSILL
 62
2
 66
     1
 70
     9
  0
VERTEX
  8
T07SSILL
 62
2
 10
427.557
 20
-1608.027
 30
4535.150
 70
    32
  0
VERTEX
  8
T07SSILL
 62
2
 10
461.756
 20
-1583.667
 30
4535.150
 70
    32
  0
VERTEX
  8
T07SSILL
 62
2
 10
465.036
 20
-1588.641
 30
4535.150
 70
    32
  0
VERTEX
  8
T07SSILL
 62
2
 10
475.335
 20
-1581.903
 30
4535.150
 70
    32
  0
VERTEX
  8
T07SSILL
 62
2
 10
478.437
 20
-1586.528
 30
4535.150
 70
    32
  0
VERTEX
  8
T07SSILL
 62
2
 10
492.830
 20
-1576.078
 30
4535.150
 70
    32
  0
VERTEX
  8
T07SSILL
 62
2
 10
499.651
 20
-1585.587
 30
4535.150
 70
    32
  0
VERTEX
  8
T07SSILL
 62
2
 10
448.371
 20
-1624.626
 30
4535.150
 70
    32
  0
VERTEX
  8
T07SSILL
 62
2
 10
443.636
 20
-1624.660
 30
4535.150
 70
    32
  0
VERTEX
  8
T07SSILL
 62
2
 10
434.380
 20
-1617.887
 30
4535.150
 70
    32
  0
SEQEND
  8
T07SSILL
  0
POLYLINE
  8
T07SSILL
 62
2
 66
     1
 70
     9
  0
VERTEX
  8
T07SSILL
 62
2
 10
290.853
 20
-1632.774
 30
4535.150
 70
    32
  0
VERTEX
  8
T07SSILL
 62
2
 10
281.618
 20
-1616.793
 30
4535.150
 70
    32
  0
VERTEX
  8
T07SSILL
 62
2
 10
269.512
 20
-1591.626
 30
4535.150
 70
    32
  0
VERTEX
  8
T07SSILL
 62
2
 10
309.905
 20
-1562.924
 30
4535.150
 70
    32
  0
VERTEX
  8
T07SSILL
 62
2
 10
312.982
 20
-1564.042
 30
4535.150
 70
    32
  0
VERTEX
  8
T07SSILL
 62
2
 10
321.958
 20
-1580.638
 30
4535.150
 70
    32
  0
VERTEX
  8
T07SSILL
 62
2
 10
329.412
 20
-1605.050
 30
4535.150
 70
    32
  0
SEQEND
  8
T07SSILL
  0
POLYLINE
  8
T07SSILL
 62
2
 66
     1
 70
     9
  0
VERTEX
  8
T07SSILL
 62
2
 10
221.410
 20
-1536.114
 30
4535.150
 70
    32
  0
VERTEX
  8
T07SSILL
 62
2
 10
274.887
 20
-1497.673
 30
4535.150
 70
    32
  0
VERTEX
  8
T07SSILL
 62
2
 10
290.672
 20
-1522.287
 30
4535.150
 70
    32
  0
VERTEX
  8
T07SSILL
 62
2
 10
295.301
 20
-1531.812
 30
4535.150
 70
    32
  0
VERTEX
  8
T07SSILL
 62
2
 10
296.237
 20
-1540.136
 30
4535.150
 70
    32
  0
VERTEX
  8
T07SSILL
 62
2
 10
253.842
 20
-1570.869
 30
4535.150
 70
    32
  0
VERTEX
  8
T07SSILL
 62
2
 10
249.711
 20
-1569.583
 30
4535.150
 70
    32
  0
VERTEX
  8
T07SSILL
 62
2
 10
241.239
 20
-1562.015
 30
4535.150
 70
    32
  0
VERTEX
  8
T07SSILL
 62
2
 10
231.846
 20
-1548.491
 30
4535.150
 70
    32
  0
SEQEND
  8
T07SSILL
  0
POLYLINE
  8
T07SSILL
 62
2
 66
     1
 70
     9
  0
VERTEX
  8
T07SSILL
 62
2
 10
228.591
 20
-1412.860
 30
4535.150
 70
    32
  0
VERTEX
  8
T07SSILL
 62
2
 10
213.584
 20
-1423.315
 30
4535.150
 70
    32
  0
VERTEX
  8
T07SSILL
 62
2
 10
207.026
 20
-1413.717
 30
4535.150
 70
    32
  0
VERTEX
  8
T07SSILL
 62
2
 10
211.907
 20
-1409.560
 30
4535.150
 70
    32
  0
VERTEX
  8
T07SSILL
 62
2
 10
205.434
 20
-1399.610
 30
4535.150
 70
    32
  0
VERTEX
  8
T07SSILL
 62
2
 10
219.483
 20
-1390.039
 30
4535.150
 70
    32
  0
VERTEX
  8
T07SSILL
 62
2
 10
233.303
 20
-1409.669
 30
4535.150
 70
    32
  0
SEQEND
  8
T07SSILL
  0
POLYLINE
  8
T07SSILL
 62
2
 66
     1
 70
     9
  0
VERTEX
  8
T07SSILL
 62
2
 10
354.946
 20
-1302.516
 30
4535.150
 70
    32
  0
VERTEX
  8
T07SSILL
 62
2
 10
333.742
 20
-1317.050
 30
4535.150
 70
    32
  0
VERTEX
  8
T07SSILL
 62
2
 10
325.568
 20
-1326.491
 30
4535.150
 70
    32
  0
VERTEX
  8
T07SSILL
 62
2
 10
326.998
 20
-1342.528
 30
4535.150
 70
    32
  0
VERTEX
  8
T07SSILL
 62
2
 10
341.609
 20
-1362.328
 30
4535.150
 70
    32
  0
VERTEX
  8
T07SSILL
 62
2
 10
354.168
 20
-1352.767
 30
4535.150
 70
    32
  0
VERTEX
  8
T07SSILL
 62
2
 10
356.230
 20
-1346.965
 30
4535.150
 70
    32
  0
VERTEX
  8
T07SSILL
 62
2
 10
355.602
 20
-1320.575
 30
4535.150
 70
    32
  0
SEQEND
  8
T07SSILL
  0
POLYLINE
  8
T07SSILL
 62
2
 66
     1
 70
     9
  0
VERTEX
  8
T07SSILL
 62
2
 10
36.884
 20
-1263.765
 30
4535.150
 70
    32
  0
VERTEX
  8
T07SSILL
 62
2
 10
38.086
 20
-1260.161
 30
4535.150
 70
    32
  0
VERTEX
  8
T07SSILL
 62
2
 10
64.787
 20
-1241.818
 30
4535.150
 70
    32
  0
VERTEX
  8
T07SSILL
 62
2
 10
75.740
 20
-1240.687
 30
4535.150
 70
    32
  0
VERTEX
  8
T07SSILL
 62
2
 10
84.152
 20
-1252.113
 30
4535.150
 70
    32
  0
VERTEX
  8
T07SSILL
 62
2
 10
79.615
 20
-1255.303
 30
4535.150
 70
    32
  0
VERTEX
  8
T07SSILL
 62
2
 10
110.794
 20
-1298.660
 30
4535.150
 70
    32
  0
VERTEX
  8
T07SSILL
 62
2
 10
105.736
 20
-1302.554
 30
4535.150
 70
    32
  0
VERTEX
  8
T07SSILL
 62
2
 10
116.538
 20
-1317.121
 30
4535.150
 70
    32
  0
VERTEX
  8
T07SSILL
 62
2
 10
126.222
 20
-1310.211
 30
4535.150
 70
    32
  0
VERTEX
  8
T07SSILL
 62
2
 10
133.307
 20
-1319.981
 30
4535.150
 70
    32
  0
VERTEX
  8
T07SSILL
 62
2
 10
128.859
 20
-1323.258
 30
4535.150
 70
    32
  0
VERTEX
  8
T07SSILL
 62
2
 10
123.048
 20
-1332.244
 30
4535.150
 70
    32
  0
VERTEX
  8
T07SSILL
 62
2
 10
124.362
 20
-1344.248
 30
4535.150
 70
    32
  0
VERTEX
  8
T07SSILL
 62
2
 10
107.694
 20
-1355.329
 30
4535.150
 70
    32
  0
VERTEX
  8
T07SSILL
 62
2
 10
88.220
 20
-1330.039
 30
4535.150
 70
    32
  0
SEQEND
  8
T07SSILL
  0
POLYLINE
  8
T07SSILL
 62
2
 66
     1
 70
     9
  0
VERTEX
  8
T07SSILL
 62
2
 10
665.683
 20
-1997.279
 30
4535.150
 70
    32
  0
VERTEX
  8
T07SSILL
 62
2
 10
675.228
 20
-1990.012
 30
4535.150
 70
    32
  0
VERTEX
  8
T07SSILL
 62
2
 10
678.158
 20
-1994.744
 30
4535.150
 70
    32
  0
VERTEX
  8
T07SSILL
 62
2
 10
683.411
 20
-1990.580
 30
4535.150
 70
    32
  0
VERTEX
  8
T07SSILL
 62
2
 10
687.313
 20
-1996.274
 30
4535.150
 70
    32
  0
VERTEX
  8
T07SSILL
 62
2
 10
692.130
 20
-1992.728
 30
4535.150
 70
    32
  0
VERTEX
  8
T07SSILL
 62
2
 10
694.714
 20
-1998.518
 30
4535.150
 70
    32
  0
VERTEX
  8
T07SSILL
 62
2
 10
696.092
 20
-2008.624
 30
4535.150
 70
    32
  0
VERTEX
  8
T07SSILL
 62
2
 10
695.536
 20
-2018.830
 30
4535.150
 70
    32
  0
VERTEX
  8
T07SSILL
 62
2
 10
688.148
 20
-2018.785
 30
4535.150
 70
    32
  0
VERTEX
  8
T07SSILL
 62
2
 10
683.151
 20
-2021.628
 30
4535.150
 70
    32
  0
SEQEND
  8
T07SSILL
  0
POLYLINE
  8
T07SSILL
 62
2
 66
     1
 70
     9
  0
VERTEX
  8
T07SSILL
 62
2
 10
1362.059
 20
-2448.646
 30
4535.150
 70
    32
  0
VERTEX
  8
T07SSILL
 62
2
 10
1335.173
 20
-2468.503
 30
4535.150
 70
    32
  0
VERTEX
  8
T07SSILL
 62
2
 10
1329.930
 20
-2474.250
 30
4535.150
 70
    32
  0
VERTEX
  8
T07SSILL
 62
2
 10
1326.736
 20
-2484.647
 30
4535.150
 70
    32
  0
VERTEX
  8
T07SSILL
 62
2
 10
1327.143
 20
-2494.231
 30
4535.150
 70
    32
  0
VERTEX
  8
T07SSILL
 62
2
 10
1349.867
 20
-2515.032
 30
4535.150
 70
    32
  0
VERTEX
  8
T07SSILL
 62
2
 10
1364.942
 20
-2536.228
 30
4535.150
 70
    32
  0
VERTEX
  8
T07SSILL
 62
2
 10
1371.752
 20
-2542.697
 30
4535.150
 70
    32
  0
VERTEX
  8
T07SSILL
 62
2
 10
1379.875
 20
-2548.103
 30
4535.150
 70
    32
  0
VERTEX
  8
T07SSILL
 62
2
 10
1392.567
 20
-2552.778
 30
4535.150
 70
    32
  0
VERTEX
  8
T07SSILL
 62
2
 10
1397.994
 20
-2563.477
 30
4535.150
 70
    32
  0
VERTEX
  8
T07SSILL
 62
2
 10
1404.461
 20
-2571.619
 30
4535.150
 70
    32
  0
VERTEX
  8
T07SSILL
 62
2
 10
1409.903
 20
-2569.652
 30
4535.150
 70
    32
  0
VERTEX
  8
T07SSILL
 62
2
 10
1432.223
 20
-2551.141
 30
4535.150
 70
    32
  0
SEQEND
  8
T07SSILL
  0
POLYLINE
  8
T07SSILL
 62
2
 66
     1
 70
     9
  0
VERTEX
  8
T07SSILL
 62
2
 10
1209.309
 20
-1033.755
 30
4535.150
 70
    32
  0
VERTEX
  8
T07SSILL
 62
2
 10
1668.345
 20
-853.019
 30
4535.150
 70
    32
  0
VERTEX
  8
T07SSILL
 62
2
 10
1687.644
 20
-809.877
 30
4535.150
 70
    32
  0
VERTEX
  8
T07SSILL
 62
2
 10
1694.373
 20
-812.527
 30
4535.150
 70
    32
  0
VERTEX
  8
T07SSILL
 62
2
 10
1673.965
 20
-858.678
 30
4535.150
 70
    32
  0
VERTEX
  8
T07SSILL
 62
2
 10
1212.575
 20
-1041.468
 30
4535.150
 70
    32
  0
SEQEND
  8
T07SSILL
  0
POLYLINE
  8
T07SSILL
 62
2
 66
     1
 70
     9
  0
VERTEX
  8
T07SSILL
 62
2
 10
-410.937
 20
-168.931
 30
4535.150
 70
    32
  0
VERTEX
  8
T07SSILL
 62
2
 10
-412.730
 20
-158.126
 30
4535.150
 70
    32
  0
VERTEX
  8
T07SSILL
 62
2
 10
-416.251
 20
-156.821
 30
4535.150
 70
    32
  0
VERTEX
  8
T07SSILL
 62
2
 10
-419.323
 20
-157.800
 30
4535.150
 70
    32
  0
VERTEX
  8
T07SSILL
 62
2
 10
-421.419
 20
-161.148
 30
4535.150
 70
    32
  0
VERTEX
  8
T07SSILL
 62
2
 10
-421.926
 20
-169.509
 30
4535.150
 70
    32
  0
VERTEX
  8
T07SSILL
 62
2
 10
-418.361
 20
-179.957
 30
4535.150
 70
    32
  0
VERTEX
  8
T07SSILL
 62
2
 10
-408.304
 20
-187.034
 30
4535.150
 70
    32
  0
VERTEX
  8
T07SSILL
 62
2
 10
-405.843
 20
-186.934
 30
4535.150
 70
    32
  0
VERTEX
  8
T07SSILL
 62
2
 10
-406.244
 20
-176.032
 30
4535.150
 70
    32
  0
SEQEND
  8
T07SSILL
  0
POLYLINE
  8
T07SSILL
 62
2
 66
     1
 70
     9
  0
VERTEX
  8
T07SSILL
 62
2
 10
236.494
 20
-1122.530
 30
4535.150
 70
    32
  0
VERTEX
  8
T07SSILL
 62
2
 10
218.265
 20
-1097.464
 30
4535.150
 70
    32
  0
VERTEX
  8
T07SSILL
 62
2
 10
203.977
 20
-1107.378
 30
4535.150
 70
    32
  0
VERTEX
  8
T07SSILL
 62
2
 10
201.052
 20
-1102.467
 30
4535.150
 70
    32
  0
VERTEX
  8
T07SSILL
 62
2
 10
181.155
 20
-1116.452
 30
4535.150
 70
    32
  0
VERTEX
  8
T07SSILL
 62
2
 10
177.264
 20
-1111.634
 30
4535.150
 70
    32
  0
VERTEX
  8
T07SSILL
 62
2
 10
162.713
 20
-1121.901
 30
4535.150
 70
    32
  0
VERTEX
  8
T07SSILL
 62
2
 10
173.803
 20
-1130.441
 30
4535.150
 70
    32
  0
VERTEX
  8
T07SSILL
 62
2
 10
176.977
 20
-1135.458
 30
4535.150
 70
    32
  0
VERTEX
  8
T07SSILL
 62
2
 10
172.048
 20
-1138.631
 30
4535.150
 70
    32
  0
VERTEX
  8
T07SSILL
 62
2
 10
182.612
 20
-1153.135
 30
4535.150
 70
    32
  0
VERTEX
  8
T07SSILL
 62
2
 10
187.186
 20
-1149.706
 30
4535.150
 70
    32
  0
VERTEX
  8
T07SSILL
 62
2
 10
190.799
 20
-1154.714
 30
4535.150
 70
    32
  0
VERTEX
  8
T07SSILL
 62
2
 10
186.395
 20
-1157.876
 30
4535.150
 70
    32
  0
VERTEX
  8
T07SSILL
 62
2
 10
192.996
 20
-1167.379
 30
4535.150
 70
    32
  0
VERTEX
  8
T07SSILL
 62
2
 10
195.396
 20
-1164.786
 30
4535.150
 70
    32
  0
VERTEX
  8
T07SSILL
 62
2
 10
199.078
 20
-1168.916
 30
4535.150
 70
    32
  0
VERTEX
  8
T07SSILL
 62
2
 10
204.649
 20
-1162.924
 30
4535.150
 70
    32
  0
VERTEX
  8
T07SSILL
 62
2
 10
194.612
 20
-1148.497
 30
4535.150
 70
    32
  0
VERTEX
  8
T07SSILL
 62
2
 10
220.244
 20
-1129.456
 30
4535.150
 70
    32
  0
VERTEX
  8
T07SSILL
 62
2
 10
237.759
 20
-1153.367
 30
4535.150
 70
    32
  0
VERTEX
  8
T07SSILL
 62
2
 10
235.600
 20
-1154.904
 30
4535.150
 70
    32
  0
VERTEX
  8
T07SSILL
 62
2
 10
237.238
 20
-1157.762
 30
4535.150
 70
    32
  0
VERTEX
  8
T07SSILL
 62
2
 10
257.015
 20
-1143.666
 30
4535.150
 70
    32
  0
VERTEX
  8
T07SSILL
 62
2
 10
253.764
 20
-1139.177
 30
4535.150
 70
    32
  0
VERTEX
  8
T07SSILL
 62
2
 10
258.255
 20
-1136.013
 30
4535.150
 70
    32
  0
SEQEND
  8
T07SSILL
  0
POLYLINE
  8
T07SSILL
 62
2
 66
     1
 70
     9
  0
VERTEX
  8
T07SSILL
 62
2
 10
331.270
 20
-1055.353
 30
4535.150
 70
    32
  0
VERTEX
  8
T07SSILL
 62
2
 10
246.181
 20
-1106.482
 30
4535.150
 70
    32
  0
VERTEX
  8
T07SSILL
 62
2
 10
258.301
 20
-1122.255
 30
4535.150
 70
    32
  0
VERTEX
  8
T07SSILL
 62
2
 10
275.255
 20
-1127.412
 30
4535.150
 70
    32
  0
VERTEX
  8
T07SSILL
 62
2
 10
279.973
 20
-1134.939
 30
4535.150
 70
    32
  0
VERTEX
  8
T07SSILL
 62
2
 10
275.661
 20
-1138.274
 30
4535.150
 70
    32
  0
VERTEX
  8
T07SSILL
 62
2
 10
289.573
 20
-1157.703
 30
4535.150
 70
    32
  0
VERTEX
  8
T07SSILL
 62
2
 10
284.821
 20
-1160.960
 30
4535.150
 70
    32
  0
VERTEX
  8
T07SSILL
 62
2
 10
309.048
 20
-1195.512
 30
4535.150
 70
    32
  0
VERTEX
  8
T07SSILL
 62
2
 10
304.035
 20
-1198.862
 30
4535.150
 70
    32
  0
VERTEX
  8
T07SSILL
 62
2
 10
327.541
 20
-1232.466
 30
4535.150
 70
    32
  0
VERTEX
  8
T07SSILL
 62
2
 10
323.141
 20
-1235.803
 30
4535.150
 70
    32
  0
VERTEX
  8
T07SSILL
 62
2
 10
333.537
 20
-1250.660
 30
4535.150
 70
    32
  0
VERTEX
  8
T07SSILL
 62
2
 10
352.450
 20
-1237.197
 30
4535.150
 70
    32
  0
VERTEX
  8
T07SSILL
 62
2
 10
366.723
 20
-1248.817
 30
4535.150
 70
    32
  0
VERTEX
  8
T07SSILL
 62
2
 10
394.589
 20
-1244.105
 30
4535.150
 70
    32
  0
VERTEX
  8
T07SSILL
 62
2
 10
504.309
 20
-1167.963
 30
4535.150
 70
    32
  0
VERTEX
  8
T07SSILL
 62
2
 10
500.625
 20
-1163.746
 30
4535.150
 70
    32
  0
VERTEX
  8
T07SSILL
 62
2
 10
418.370
 20
-1166.718
 30
4535.150
 70
    32
  0
VERTEX
  8
T07SSILL
 62
2
 10
413.892
 20
-1166.375
 30
4535.150
 70
    32
  0
VERTEX
  8
T07SSILL
 62
2
 10
407.393
 20
-1161.691
 30
4535.150
 70
    32
  0
SEQEND
  8
T07SSILL
  0
POLYLINE
  8
T07SSILL
 62
2
 66
     1
 70
     9
  0
VERTEX
  8
T07SSILL
 62
2
 10
41.198
 20
-1118.232
 30
4535.150
 70
    32
  0
VERTEX
  8
T07SSILL
 62
2
 10
-28.625
 20
-1167.259
 30
4535.150
 70
    32
  0
VERTEX
  8
T07SSILL
 62
2
 10
-31.099
 20
-1174.588
 30
4535.150
 70
    32
  0
VERTEX
  8
T07SSILL
 62
2
 10
31.722
 20
-1255.573
 30
4535.150
 70
    32
  0
VERTEX
  8
T07SSILL
 62
2
 10
37.048
 20
-1254.584
 30
4535.150
 70
    32
  0
VERTEX
  8
T07SSILL
 62
2
 10
68.767
 20
-1229.014
 30
4535.150
 70
    32
  0
VERTEX
  8
T07SSILL
 62
2
 10
57.294
 20
-1213.039
 30
4535.150
 70
    32
  0
VERTEX
  8
T07SSILL
 62
2
 10
61.780
 20
-1209.612
 30
4535.150
 70
    32
  0
VERTEX
  8
T07SSILL
 62
2
 10
37.998
 20
-1175.401
 30
4535.150
 70
    32
  0
VERTEX
  8
T07SSILL
 62
2
 10
42.225
 20
-1172.156
 30
4535.150
 70
    32
  0
VERTEX
  8
T07SSILL
 62
2
 10
28.482
 20
-1152.460
 30
4535.150
 70
    32
  0
VERTEX
  8
T07SSILL
 62
2
 10
50.852
 20
-1136.644
 30
4535.150
 70
    32
  0
VERTEX
  8
T07SSILL
 62
2
 10
44.179
 20
-1122.443
 30
4535.150
 70
    32
  0
SEQEND
  8
T07SSILL
  0
POLYLINE
  8
T07SSILL
 62
2
 66
     1
 70
     9
  0
VERTEX
  8
T07SSILL
 62
2
 10
1215.620
 20
-609.551
 30
4535.150
 70
    32
  0
VERTEX
  8
T07SSILL
 62
2
 10
1221.330
 20
-596.184
 30
4535.150
 70
    32
  0
VERTEX
  8
T07SSILL
 62
2
 10
1233.250
 20
-573.755
 30
4535.150
 70
    32
  0
VERTEX
  8
T07SSILL
 62
2
 10
1240.307
 20
-555.969
 30
4535.150
 70
    32
  0
VERTEX
  8
T07SSILL
 62
2
 10
1239.721
 20
-551.841
 30
4535.150
 70
    32
  0
VERTEX
  8
T07SSILL
 62
2
 10
1235.582
 20
-551.635
 30
4535.150
 70
    32
  0
VERTEX
  8
T07SSILL
 62
2
 10
1211.791
 20
-561.997
 30
4535.150
 70
    32
  0
VERTEX
  8
T07SSILL
 62
2
 10
1203.218
 20
-571.972
 30
4535.150
 70
    32
  0
VERTEX
  8
T07SSILL
 62
2
 10
1200.315
 20
-578.348
 30
4535.150
 70
    32
  0
VERTEX
  8
T07SSILL
 62
2
 10
1205.500
 20
-590.508
 30
4535.150
 70
    32
  0
VERTEX
  8
T07SSILL
 62
2
 10
1213.231
 20
-602.280
 30
4535.150
 70
    32
  0
SEQEND
  8
T07SSILL
  0
POLYLINE
  8
T07SSILL
 62
2
 66
     1
 70
     9
  0
VERTEX
  8
T07SSILL
 62
2
 10
1069.218
 20
-320.227
 30
4535.150
 70
    32
  0
VERTEX
  8
T07SSILL
 62
2
 10
1086.127
 20
-359.151
 30
4535.150
 70
    32
  0
VERTEX
  8
T07SSILL
 62
2
 10
1074.317
 20
-357.819
 30
4535.150
 70
    32
  0
VERTEX
  8
T07SSILL
 62
2
 10
1066.423
 20
-359.689
 30
4535.150
 70
    32
  0
VERTEX
  8
T07SSILL
 62
2
 10
1063.820
 20
-362.365
 30
4535.150
 70
    32
  0
VERTEX
  8
T07SSILL
 62
2
 10
1069.617
 20
-374.252
 30
4535.150
 70
    32
  0
VERTEX
  8
T07SSILL
 62
2
 10
1088.515
 20
-398.013
 30
4535.150
 70
    32
  0
VERTEX
  8
T07SSILL
 62
2
 10
1106.900
 20
-416.500
 30
4535.150
 70
    32
  0
VERTEX
  8
T07SSILL
 62
2
 10
1115.073
 20
-422.107
 30
4535.150
 70
    32
  0
VERTEX
  8
T07SSILL
 62
2
 10
1136.200
 20
-447.948
 30
4535.150
 70
    32
  0
VERTEX
  8
T07SSILL
 62
2
 10
1139.402
 20
-456.703
 30
4535.150
 70
    32
  0
VERTEX
  8
T07SSILL
 62
2
 10
1140.131
 20
-464.877
 30
4535.150
 70
    32
  0
VERTEX
  8
T07SSILL
 62
2
 10
1142.020
 20
-467.842
 30
4535.150
 70
    32
  0
VERTEX
  8
T07SSILL
 62
2
 10
1153.994
 20
-474.628
 30
4535.150
 70
    32
  0
VERTEX
  8
T07SSILL
 62
2
 10
1157.146
 20
-486.111
 30
4535.150
 70
    32
  0
VERTEX
  8
T07SSILL
 62
2
 10
1164.596
 20
-502.991
 30
4535.150
 70
    32
  0
VERTEX
  8
T07SSILL
 62
2
 10
1171.994
 20
-509.752
 30
4535.150
 70
    32
  0
VERTEX
  8
T07SSILL
 62
2
 10
1186.330
 20
-534.544
 30
4535.150
 70
    32
  0
VERTEX
  8
T07SSILL
 62
2
 10
1194.179
 20
-561.098
 30
4535.150
 70
    32
  0
VERTEX
  8
T07SSILL
 62
2
 10
1191.786
 20
-585.155
 30
4535.150
 70
    32
  0
VERTEX
  8
T07SSILL
 62
2
 10
1185.201
 20
-586.214
 30
4535.150
 70
    32
  0
VERTEX
  8
T07SSILL
 62
2
 10
1140.759
 20
-548.025
 30
4535.150
 70
    32
  0
VERTEX
  8
T07SSILL
 62
2
 10
1042.314
 20
-391.527
 30
4535.150
 70
    32
  0
VERTEX
  8
T07SSILL
 62
2
 10
1056.075
 20
-355.961
 30
4535.150
 70
    32
  0
SEQEND
  8
T07SSILL
  0
POLYLINE
  8
T07SSILL
 62
2
 66
     1
 70
     9
  0
VERTEX
  8
T07SSILL
 62
2
 10
1162.119
 20
-470.379
 30
4535.150
 70
    32
  0
VERTEX
  8
T07SSILL
 62
2
 10
1157.661
 20
-466.217
 30
4535.150
 70
    32
  0
VERTEX
  8
T07SSILL
 62
2
 10
1155.833
 20
-461.315
 30
4535.150
 70
    32
  0
VERTEX
  8
T07SSILL
 62
2
 10
1156.589
 20
-458.752
 30
4535.150
 70
    32
  0
VERTEX
  8
T07SSILL
 62
2
 10
1159.569
 20
-457.831
 30
4535.150
 70
    32
  0
VERTEX
  8
T07SSILL
 62
2
 10
1165.824
 20
-458.360
 30
4535.150
 70
    32
  0
VERTEX
  8
T07SSILL
 62
2
 10
1172.361
 20
-453.869
 30
4535.150
 70
    32
  0
VERTEX
  8
T07SSILL
 62
2
 10
1172.575
 20
-450.258
 30
4535.150
 70
    32
  0
VERTEX
  8
T07SSILL
 62
2
 10
1174.597
 20
-450.142
 30
4535.150
 70
    32
  0
VERTEX
  8
T07SSILL
 62
2
 10
1179.486
 20
-460.018
 30
4535.150
 70
    32
  0
VERTEX
  8
T07SSILL
 62
2
 10
1180.427
 20
-464.404
 30
4535.150
 70
    32
  0
VERTEX
  8
T07SSILL
 62
2
 10
1176.417
 20
-467.100
 30
4535.150
 70
    32
  0
SEQEND
  8
T07SSILL
  0
POLYLINE
  8
T07SSILL
 62
2
 66
     1
 70
     9
  0
VERTEX
  8
T07SSILL
 62
2
 10
1180.411
 20
-444.253
 30
4535.150
 70
    32
  0
VERTEX
  8
T07SSILL
 62
2
 10
1188.291
 20
-441.416
 30
4535.150
 70
    32
  0
VERTEX
  8
T07SSILL
 62
2
 10
1196.287
 20
-440.513
 30
4535.150
 70
    32
  0
VERTEX
  8
T07SSILL
 62
2
 10
1204.228
 20
-442.074
 30
4535.150
 70
    32
  0
VERTEX
  8
T07SSILL
 62
2
 10
1213.162
 20
-445.382
 30
4535.150
 70
    32
  0
VERTEX
  8
T07SSILL
 62
2
 10
1215.623
 20
-451.508
 30
4535.150
 70
    32
  0
VERTEX
  8
T07SSILL
 62
2
 10
1216.619
 20
-459.853
 30
4535.150
 70
    32
  0
VERTEX
  8
T07SSILL
 62
2
 10
1212.883
 20
-463.337
 30
4535.150
 70
    32
  0
VERTEX
  8
T07SSILL
 62
2
 10
1203.237
 20
-465.759
 30
4535.150
 70
    32
  0
VERTEX
  8
T07SSILL
 62
2
 10
1192.604
 20
-466.787
 30
4535.150
 70
    32
  0
VERTEX
  8
T07SSILL
 62
2
 10
1186.316
 20
-463.883
 30
4535.150
 70
    32
  0
VERTEX
  8
T07SSILL
 62
2
 10
1183.755
 20
-456.878
 30
4535.150
 70
    32
  0
SEQEND
  8
T07SSILL
  0
POLYLINE
  8
T07SSILL
 62
2
 66
     1
 70
     9
  0
VERTEX
  8
T07SSILL
 62
2
 10
1221.025
 20
-447.649
 30
4535.150
 70
    32
  0
VERTEX
  8
T07SSILL
 62
2
 10
1223.265
 20
-444.186
 30
4535.150
 70
    32
  0
VERTEX
  8
T07SSILL
 62
2
 10
1232.851
 20
-443.788
 30
4535.150
 70
    32
  0
VERTEX
  8
T07SSILL
 62
2
 10
1260.402
 20
-444.373
 30
4535.150
 70
    32
  0
VERTEX
  8
T07SSILL
 62
2
 10
1265.605
 20
-445.181
 30
4535.150
 70
    32
  0
VERTEX
  8
T07SSILL
 62
2
 10
1268.554
 20
-448.396
 30
4535.150
 70
    32
  0
VERTEX
  8
T07SSILL
 62
2
 10
1251.678
 20
-462.446
 30
4535.150
 70
    32
  0
VERTEX
  8
T07SSILL
 62
2
 10
1246.431
 20
-464.807
 30
4535.150
 70
    32
  0
VERTEX
  8
T07SSILL
 62
2
 10
1225.601
 20
-460.345
 30
4535.150
 70
    32
  0
VERTEX
  8
T07SSILL
 62
2
 10
1222.055
 20
-458.458
 30
4535.150
 70
    32
  0
VERTEX
  8
T07SSILL
 62
2
 10
1221.223
 20
-455.566
 30
4535.150
 70
    32
  0
SEQEND
  8
T07SSILL
  0
POLYLINE
  8
T07SSILL
 62
2
 66
     1
 70
     9
  0
VERTEX
  8
T07SSILL
 62
2
 10
1084.152
 20
-337.355
 30
4535.150
 70
    32
  0
VERTEX
  8
T07SSILL
 62
2
 10
1040.050
 20
-235.012
 30
4535.150
 70
    32
  0
VERTEX
  8
T07SSILL
 62
2
 10
1083.626
 20
-223.582
 30
4535.150
 70
    32
  0
VERTEX
  8
T07SSILL
 62
2
 10
1257.089
 20
-231.378
 30
4535.150
 70
    32
  0
VERTEX
  8
T07SSILL
 62
2
 10
1261.743
 20
-237.033
 30
4535.150
 70
    32
  0
VERTEX
  8
T07SSILL
 62
2
 10
1263.361
 20
-245.810
 30
4535.150
 70
    32
  0
VERTEX
  8
T07SSILL
 62
2
 10
1263.193
 20
-259.012
 30
4535.150
 70
    32
  0
VERTEX
  8
T07SSILL
 62
2
 10
1259.567
 20
-264.079
 30
4535.150
 70
    32
  0
VERTEX
  8
T07SSILL
 62
2
 10
1249.191
 20
-264.575
 30
4535.150
 70
    32
  0
VERTEX
  8
T07SSILL
 62
2
 10
1228.387
 20
-261.960
 30
4535.150
 70
    32
  0
VERTEX
  8
T07SSILL
 62
2
 10
1222.088
 20
-264.600
 30
4535.150
 70
    32
  0
VERTEX
  8
T07SSILL
 62
2
 10
1216.022
 20
-271.372
 30
4535.150
 70
    32
  0
VERTEX
  8
T07SSILL
 62
2
 10
1205.818
 20
-296.945
 30
4535.150
 70
    32
  0
VERTEX
  8
T07SSILL
 62
2
 10
1205.166
 20
-313.321
 30
4535.150
 70
    32
  0
VERTEX
  8
T07SSILL
 62
2
 10
1208.451
 20
-328.059
 30
4535.150
 70
    32
  0
VERTEX
  8
T07SSILL
 62
2
 10
1207.225
 20
-334.852
 30
4535.150
 70
    32
  0
VERTEX
  8
T07SSILL
 62
2
 10
1209.457
 20
-343.445
 30
4535.150
 70
    32
  0
SEQEND
  8
T07SSILL
  0
POLYLINE
  8
T07SSILL
 62
2
 66
     1
 70
     9
  0
VERTEX
  8
T07SSILL
 62
2
 10
1217.380
 20
-343.687
 30
4535.150
 70
    32
  0
VERTEX
  8
T07SSILL
 62
2
 10
1214.199
 20
-336.427
 30
4535.150
 70
    32
  0
VERTEX
  8
T07SSILL
 62
2
 10
1214.485
 20
-331.671
 30
4535.150
 70
    32
  0
VERTEX
  8
T07SSILL
 62
2
 10
1219.365
 20
-328.259
 30
4535.150
 70
    32
  0
VERTEX
  8
T07SSILL
 62
2
 10
1233.944
 20
-326.209
 30
4535.150
 70
    32
  0
VERTEX
  8
T07SSILL
 62
2
 10
1235.055
 20
-330.153
 30
4535.150
 70
    32
  0
VERTEX
  8
T07SSILL
 62
2
 10
1230.684
 20
-344.910
 30
4535.150
 70
    32
  0
SEQEND
  8
T07SSILL
  0
POLYLINE
  8
T07SSILL
 62
2
 66
     1
 70
     9
  0
VERTEX
  8
T07SSILL
 62
2
 10
1235.438
 20
-351.355
 30
4535.150
 70
    32
  0
VERTEX
  8
T07SSILL
 62
2
 10
1233.755
 20
-356.922
 30
4535.150
 70
    32
  0
VERTEX
  8
T07SSILL
 62
2
 10
1234.879
 20
-361.835
 30
4535.150
 70
    32
  0
VERTEX
  8
T07SSILL
 62
2
 10
1240.840
 20
-366.504
 30
4535.150
 70
    32
  0
VERTEX
  8
T07SSILL
 62
2
 10
1255.654
 20
-368.674
 30
4535.150
 70
    32
  0
VERTEX
  8
T07SSILL
 62
2
 10
1260.824
 20
-367.106
 30
4535.150
 70
    32
  0
VERTEX
  8
T07SSILL
 62
2
 10
1262.548
 20
-364.530
 30
4535.150
 70
    32
  0
VERTEX
  8
T07SSILL
 62
2
 10
1259.038
 20
-352.611
 30
4535.150
 70
    32
  0
SEQEND
  8
T07SSILL
  0
POLYLINE
  8
T07SSILL
 62
2
 66
     1
 70
     9
  0
VERTEX
  8
T07SSILL
 62
2
 10
1237.190
 20
-344.467
 30
4535.150
 70
    32
  0
VERTEX
  8
T07SSILL
 62
2
 10
1241.038
 20
-330.070
 30
4535.150
 70
    32
  0
VERTEX
  8
T07SSILL
 62
2
 10
1243.378
 20
-327.486
 30
4535.150
 70
    32
  0
VERTEX
  8
T07SSILL
 62
2
 10
1256.547
 20
-331.614
 30
4535.150
 70
    32
  0
VERTEX
  8
T07SSILL
 62
2
 10
1262.132
 20
-334.617
 30
4535.150
 70
    32
  0
VERTEX
  8
T07SSILL
 62
2
 10
1264.206
 20
-338.196
 30
4535.150
 70
    32
  0
VERTEX
  8
T07SSILL
 62
2
 10
1260.705
 20
-345.900
 30
4535.150
 70
    32
  0
SEQEND
  8
T07SSILL
  0
POLYLINE
  8
T07SSILL
 62
2
 66
     1
 70
     9
  0
VERTEX
  8
T07SSILL
 62
2
 10
1286.771
 20
-353.545
 30
4535.150
 70
    32
  0
VERTEX
  8
T07SSILL
 62
2
 10
1280.128
 20
-356.806
 30
4535.150
 70
    32
  0
VERTEX
  8
T07SSILL
 62
2
 10
1271.969
 20
-364.927
 30
4535.150
 70
    32
  0
VERTEX
  8
T07SSILL
 62
2
 10
1271.927
 20
-368.183
 30
4535.150
 70
    32
  0
VERTEX
  8
T07SSILL
 62
2
 10
1276.343
 20
-369.354
 30
4535.150
 70
    32
  0
VERTEX
  8
T07SSILL
 62
2
 10
1299.655
 20
-368.854
 30
4535.150
 70
    32
  0
VERTEX
  8
T07SSILL
 62
2
 10
1303.037
 20
-365.287
 30
4535.150
 70
    32
  0
VERTEX
  8
T07SSILL
 62
2
 10
1304.470
 20
-354.443
 30
4535.150
 70
    32
  0
SEQEND
  8
T07SSILL
  0
POLYLINE
  8
T07SSILL
 62
2
 66
     1
 70
     9
  0
VERTEX
  8
T07SSILL
 62
2
 10
1311.159
 20
-354.526
 30
4535.150
 70
    32
  0
VERTEX
  8
T07SSILL
 62
2
 10
1314.199
 20
-364.252
 30
4535.150
 70
    32
  0
VERTEX
  8
T07SSILL
 62
2
 10
1317.141
 20
-367.027
 30
4535.150
 70
    32
  0
VERTEX
  8
T07SSILL
 62
2
 10
1322.259
 20
-368.012
 30
4535.150
 70
    32
  0
VERTEX
  8
T07SSILL
 62
2
 10
1326.296
 20
-367.251
 30
4535.150
 70
    32
  0
VERTEX
  8
T07SSILL
 62
2
 10
1328.472
 20
-365.549
 30
4535.150
 70
    32
  0
VERTEX
  8
T07SSILL
 62
2
 10
1328.510
 20
-355.605
 30
4535.150
 70
    32
  0
SEQEND
  8
T07SSILL
  0
POLYLINE
  8
T07SSILL
 62
2
 66
     1
 70
     9
  0
VERTEX
  8
T07SSILL
 62
2
 10
1294.942
 20
-232.436
 30
4535.150
 70
    32
  0
VERTEX
  8
T07SSILL
 62
2
 10
1293.056
 20
-235.982
 30
4535.150
 70
    32
  0
VERTEX
  8
T07SSILL
 62
2
 10
1297.676
 20
-245.509
 30
4535.150
 70
    32
  0
VERTEX
  8
T07SSILL
 62
2
 10
1298.994
 20
-264.322
 30
4535.150
 70
    32
  0
VERTEX
  8
T07SSILL
 62
2
 10
1301.662
 20
-266.397
 30
4535.150
 70
    32
  0
VERTEX
  8
T07SSILL
 62
2
 10
1306.944
 20
-266.500
 30
4535.150
 70
    32
  0
VERTEX
  8
T07SSILL
 62
2
 10
1310.337
 20
-263.725
 30
4535.150
 70
    32
  0
VERTEX
  8
T07SSILL
 62
2
 10
1309.330
 20
-254.587
 30
4535.150
 70
    32
  0
VERTEX
  8
T07SSILL
 62
2
 10
1312.518
 20
-243.367
 30
4535.150
 70
    32
  0
VERTEX
  8
T07SSILL
 62
2
 10
1308.524
 20
-234.623
 30
4535.150
 70
    32
  0
VERTEX
  8
T07SSILL
 62
2
 10
1304.896
 20
-233.177
 30
4535.150
 70
    32
  0
SEQEND
  8
T07SSILL
  0
POLYLINE
  8
T07SSILL
 62
2
 66
     1
 70
     9
  0
VERTEX
  8
T07SSILL
 62
2
 10
1361.137
 20
-214.972
 30
4535.150
 70
    32
  0
VERTEX
  8
T07SSILL
 62
2
 10
1366.007
 20
-217.104
 30
4535.150
 70
    32
  0
VERTEX
  8
T07SSILL
 62
2
 10
1360.040
 20
-231.003
 30
4535.150
 70
    32
  0
VERTEX
  8
T07SSILL
 62
2
 10
1360.747
 20
-237.505
 30
4535.150
 70
    32
  0
VERTEX
  8
T07SSILL
 62
2
 10
1365.418
 20
-244.391
 30
4535.150
 70
    32
  0
VERTEX
  8
T07SSILL
 62
2
 10
1370.053
 20
-248.639
 30
4535.150
 70
    32
  0
VERTEX
  8
T07SSILL
 62
2
 10
1377.394
 20
-251.265
 30
4535.150
 70
    32
  0
VERTEX
  8
T07SSILL
 62
2
 10
1385.585
 20
-251.855
 30
4535.150
 70
    32
  0
VERTEX
  8
T07SSILL
 62
2
 10
1392.734
 20
-247.004
 30
4535.150
 70
    32
  0
VERTEX
  8
T07SSILL
 62
2
 10
1395.745
 20
-242.034
 30
4535.150
 70
    32
  0
VERTEX
  8
T07SSILL
 62
2
 10
1397.111
 20
-232.687
 30
4535.150
 70
    32
  0
VERTEX
  8
T07SSILL
 62
2
 10
1383.269
 20
-224.520
 30
4535.150
 70
    32
  0
VERTEX
  8
T07SSILL
 62
2
 10
1386.077
 20
-211.281
 30
4535.150
 70
    32
  0
VERTEX
  8
T07SSILL
 62
2
 10
1389.831
 20
-202.781
 30
4535.150
 70
    32
  0
VERTEX
  8
T07SSILL
 62
2
 10
1387.853
 20
-199.729
 30
4535.150
 70
    32
  0
VERTEX
  8
T07SSILL
 62
2
 10
1352.488
 20
-200.485
 30
4535.150
 70
    32
  0
VERTEX
  8
T07SSILL
 62
2
 10
1340.673
 20
-205.137
 30
4535.150
 70
    32
  0
VERTEX
  8
T07SSILL
 62
2
 10
1340.203
 20
-228.287
 30
4535.150
 70
    32
  0
VERTEX
  8
T07SSILL
 62
2
 10
1344.140
 20
-232.984
 30
4535.150
 70
    32
  0
VERTEX
  8
T07SSILL
 62
2
 10
1350.309
 20
-233.602
 30
4535.150
 70
    32
  0
VERTEX
  8
T07SSILL
 62
2
 10
1353.763
 20
-228.890
 30
4535.150
 70
    32
  0
SEQEND
  8
T07SSILL
  0
POLYLINE
  8
T07SSILL
 62
2
 66
     1
 70
     9
  0
VERTEX
  8
T07SSILL
 62
2
 10
1047.311
 20
-225.583
 30
4535.150
 70
    32
  0
VERTEX
  8
T07SSILL
 62
2
 10
1046.288
 20
-221.637
 30
4535.150
 70
    32
  0
VERTEX
  8
T07SSILL
 62
2
 10
1050.900
 20
-211.542
 30
4535.150
 70
    32
  0
VERTEX
  8
T07SSILL
 62
2
 10
1081.890
 20
-162.008
 30
4535.150
 70
    32
  0
VERTEX
  8
T07SSILL
 62
2
 10
1087.011
 20
-156.921
 30
4535.150
 70
    32
  0
VERTEX
  8
T07SSILL
 62
2
 10
1102.907
 20
-148.340
 30
4535.150
 70
    32
  0
VERTEX
  8
T07SSILL
 62
2
 10
1205.132
 20
-152.639
 30
4535.150
 70
    32
  0
VERTEX
  8
T07SSILL
 62
2
 10
1208.083
 20
-156.030
 30
4535.150
 70
    32
  0
VERTEX
  8
T07SSILL
 62
2
 10
1209.696
 20
-164.455
 30
4535.150
 70
    32
  0
VERTEX
  8
T07SSILL
 62
2
 10
1214.358
 20
-164.302
 30
4535.150
 70
    32
  0
VERTEX
  8
T07SSILL
 62
2
 10
1214.942
 20
-155.670
 30
4535.150
 70
    32
  0
VERTEX
  8
T07SSILL
 62
2
 10
1216.487
 20
-152.921
 30
4535.150
 70
    32
  0
VERTEX
  8
T07SSILL
 62
2
 10
1268.697
 20
-154.923
 30
4535.150
 70
    32
  0
VERTEX
  8
T07SSILL
 62
2
 10
1271.575
 20
-159.371
 30
4535.150
 70
    32
  0
VERTEX
  8
T07SSILL
 62
2
 10
1272.117
 20
-166.667
 30
4535.150
 70
    32
  0
VERTEX
  8
T07SSILL
 62
2
 10
1270.802
 20
-173.373
 30
4535.150
 70
    32
  0
VERTEX
  8
T07SSILL
 62
2
 10
1266.726
 20
-177.654
 30
4535.150
 70
    32
  0
VERTEX
  8
T07SSILL
 62
2
 10
1261.926
 20
-180.536
 30
4535.150
 70
    32
  0
VERTEX
  8
T07SSILL
 62
2
 10
1261.262
 20
-189.785
 30
4535.150
 70
    32
  0
VERTEX
  8
T07SSILL
 62
2
 10
1264.866
 20
-214.814
 30
4535.150
 70
    32
  0
VERTEX
  8
T07SSILL
 62
2
 10
1261.765
 20
-219.609
 30
4535.150
 70
    32
  0
VERTEX
  8
T07SSILL
 62
2
 10
1255.652
 20
-222.950
 30
4535.150
 70
    32
  0
VERTEX
  8
T07SSILL
 62
2
 10
1080.263
 20
-215.885
 30
4535.150
 70
    32
  0
SEQEND
  8
T07SSILL
  0
POLYLINE
  8
T07SSILL
 62
2
 66
     1
 70
     9
  0
VERTEX
  8
T07SSILL
 62
2
 10
1216.311
 20
-146.588
 30
4535.150
 70
    32
  0
VERTEX
  8
T07SSILL
 62
2
 10
1214.300
 20
-141.160
 30
4535.150
 70
    32
  0
VERTEX
  8
T07SSILL
 62
2
 10
1213.525
 20
-129.731
 30
4535.150
 70
    32
  0
VERTEX
  8
T07SSILL
 62
2
 10
1214.796
 20
-126.193
 30
4535.150
 70
    32
  0
VERTEX
  8
T07SSILL
 62
2
 10
1227.739
 20
-126.717
 30
4535.150
 70
    32
  0
VERTEX
  8
T07SSILL
 62
2
 10
1234.447
 20
-134.544
 30
4535.150
 70
    32
  0
VERTEX
  8
T07SSILL
 62
2
 10
1235.394
 20
-139.371
 30
4535.150
 70
    32
  0
VERTEX
  8
T07SSILL
 62
2
 10
1234.363
 20
-147.481
 30
4535.150
 70
    32
  0
SEQEND
  8
T07SSILL
  0
POLYLINE
  8
T07SSILL
 62
2
 66
     1
 70
     9
  0
VERTEX
  8
T07SSILL
 62
2
 10
1210.910
 20
-80.929
 30
4535.150
 70
    32
  0
VERTEX
  8
T07SSILL
 62
2
 10
1208.024
 20
-82.201
 30
4535.150
 70
    32
  0
VERTEX
  8
T07SSILL
 62
2
 10
1205.739
 20
-88.745
 30
4535.150
 70
    32
  0
VERTEX
  8
T07SSILL
 62
2
 10
1207.293
 20
-99.195
 30
4535.150
 70
    32
  0
VERTEX
  8
T07SSILL
 62
2
 10
1210.231
 20
-108.041
 30
4535.150
 70
    32
  0
VERTEX
  8
T07SSILL
 62
2
 10
1211.304
 20
-115.594
 30
4535.150
 70
    32
  0
VERTEX
  8
T07SSILL
 62
2
 10
1216.791
 20
-117.806
 30
4535.150
 70
    32
  0
VERTEX
  8
T07SSILL
 62
2
 10
1228.564
 20
-116.498
 30
4535.150
 70
    32
  0
VERTEX
  8
T07SSILL
 62
2
 10
1235.168
 20
-104.087
 30
4535.150
 70
    32
  0
VERTEX
  8
T07SSILL
 62
2
 10
1232.337
 20
-84.063
 30
4535.150
 70
    32
  0
VERTEX
  8
T07SSILL
 62
2
 10
1229.644
 20
-80.228
 30
4535.150
 70
    32
  0
VERTEX
  8
T07SSILL
 62
2
 10
1225.160
 20
-80.467
 30
4535.150
 70
    32
  0
SEQEND
  8
T07SSILL
  0
POLYLINE
  8
T07SSILL
 62
2
 66
     1
 70
     9
  0
VERTEX
  8
T07SSILL
 62
2
 10
1242.992
 20
-147.889
 30
4535.150
 70
    32
  0
VERTEX
  8
T07SSILL
 62
2
 10
1240.194
 20
-142.824
 30
4535.150
 70
    32
  0
VERTEX
  8
T07SSILL
 62
2
 10
1240.469
 20
-137.276
 30
4535.150
 70
    32
  0
VERTEX
  8
T07SSILL
 62
2
 10
1243.427
 20
-134.859
 30
4535.150
 70
    32
  0
VERTEX
  8
T07SSILL
 62
2
 10
1267.365
 20
-135.054
 30
4535.150
 70
    32
  0
VERTEX
  8
T07SSILL
 62
2
 10
1270.590
 20
-139.145
 30
4535.150
 70
    32
  0
VERTEX
  8
T07SSILL
 62
2
 10
1269.317
 20
-148.843
 30
4535.150
 70
    32
  0
SEQEND
  8
T07SSILL
  0
POLYLINE
  8
T07SSILL
 62
2
 66
     1
 70
     9
  0
VERTEX
  8
T07SSILL
 62
2
 10
1280.906
 20
-172.265
 30
4535.150
 70
    32
  0
VERTEX
  8
T07SSILL
 62
2
 10
1277.933
 20
-167.290
 30
4535.150
 70
    32
  0
VERTEX
  8
T07SSILL
 62
2
 10
1279.787
 20
-155.033
 30
4535.150
 70
    32
  0
VERTEX
  8
T07SSILL
 62
2
 10
1309.908
 20
-156.902
 30
4535.150
 70
    32
  0
VERTEX
  8
T07SSILL
 62
2
 10
1313.399
 20
-161.165
 30
4535.150
 70
    32
  0
VERTEX
  8
T07SSILL
 62
2
 10
1311.892
 20
-173.066
 30
4535.150
 70
    32
  0
VERTEX
  8
T07SSILL
 62
2
 10
1304.762
 20
-172.901
 30
4535.150
 70
    32
  0
SEQEND
  8
T07SSILL
  0
POLYLINE
  8
T07SSILL
 62
2
 66
     1
 70
     9
  0
VERTEX
  8
T07SSILL
 62
2
 10
1279.882
 20
-149.224
 30
4535.150
 70
    32
  0
VERTEX
  8
T07SSILL
 62
2
 10
1277.219
 20
-147.589
 30
4535.150
 70
    32
  0
VERTEX
  8
T07SSILL
 62
2
 10
1276.778
 20
-141.171
 30
4535.150
 70
    32
  0
VERTEX
  8
T07SSILL
 62
2
 10
1279.529
 20
-136.469
 30
4535.150
 70
    32
  0
VERTEX
  8
T07SSILL
 62
2
 10
1283.915
 20
-135.528
 30
4535.150
 70
    32
  0
VERTEX
  8
T07SSILL
 62
2
 10
1298.078
 20
-141.491
 30
4535.150
 70
    32
  0
VERTEX
  8
T07SSILL
 62
2
 10
1303.496
 20
-145.112
 30
4535.150
 70
    32
  0
VERTEX
  8
T07SSILL
 62
2
 10
1305.940
 20
-150.005
 30
4535.150
 70
    32
  0
SEQEND
  8
T07SSILL
  0
POLYLINE
  8
T07SSILL
 62
2
 66
     1
 70
     9
  0
VERTEX
  8
T07SSILL
 62
2
 10
1314.774
 20
-120.844
 30
4535.150
 70
    32
  0
VERTEX
  8
T07SSILL
 62
2
 10
1318.924
 20
-121.842
 30
4535.150
 70
    32
  0
VERTEX
  8
T07SSILL
 62
2
 10
1324.885
 20
-120.175
 30
4535.150
 70
    32
  0
VERTEX
  8
T07SSILL
 62
2
 10
1329.496
 20
-116.415
 30
4535.150
 70
    32
  0
VERTEX
  8
T07SSILL
 62
2
 10
1332.491
 20
-110.302
 30
4535.150
 70
    32
  0
VERTEX
  8
T07SSILL
 62
2
 10
1338.254
 20
-107.053
 30
4535.150
 70
    32
  0
VERTEX
  8
T07SSILL
 62
2
 10
1343.839
 20
-97.384
 30
4535.150
 70
    32
  0
VERTEX
  8
T07SSILL
 62
2
 10
1341.916
 20
-91.955
 30
4535.150
 70
    32
  0
VERTEX
  8
T07SSILL
 62
2
 10
1328.465
 20
-80.262
 30
4535.150
 70
    32
  0
VERTEX
  8
T07SSILL
 62
2
 10
1313.935
 20
-79.496
 30
4535.150
 70
    32
  0
VERTEX
  8
T07SSILL
 62
2
 10
1302.912
 20
-84.138
 30
4535.150
 70
    32
  0
VERTEX
  8
T07SSILL
 62
2
 10
1297.545
 20
-84.212
 30
4535.150
 70
    32
  0
VERTEX
  8
T07SSILL
 62
2
 10
1295.196
 20
-86.093
 30
4535.150
 70
    32
  0
VERTEX
  8
T07SSILL
 62
2
 10
1297.392
 20
-92.134
 30
4535.150
 70
    32
  0
SEQEND
  8
T07SSILL
  0
POLYLINE
  8
T07SSILL
 62
2
 66
     1
 70
     9
  0
VERTEX
  8
T07SSILL
 62
2
 10
1346.439
 20
-157.802
 30
4535.150
 70
    32
  0
VERTEX
  8
T07SSILL
 62
2
 10
1342.706
 20
-161.462
 30
4535.150
 70
    32
  0
VERTEX
  8
T07SSILL
 62
2
 10
1341.402
 20
-168.960
 30
4535.150
 70
    32
  0
VERTEX
  8
T07SSILL
 62
2
 10
1342.512
 20
-172.816
 30
4535.150
 70
    32
  0
VERTEX
  8
T07SSILL
 62
2
 10
1355.983
 20
-173.333
 30
4535.150
 70
    32
  0
VERTEX
  8
T07SSILL
 62
2
 10
1358.574
 20
-169.865
 30
4535.150
 70
    32
  0
VERTEX
  8
T07SSILL
 62
2
 10
1358.649
 20
-162.560
 30
4535.150
 70
    32
  0
VERTEX
  8
T07SSILL
 62
2
 10
1356.828
 20
-158.186
 30
4535.150
 70
    32
  0
SEQEND
  8
T07SSILL
  0
POLYLINE
  8
T07SSILL
 62
2
 66
     1
 70
     9
  0
VERTEX
  8
T07SSILL
 62
2
 10
1338.699
 20
-151.750
 30
4535.150
 70
    32
  0
VERTEX
  8
T07SSILL
 62
2
 10
1336.310
 20
-150.815
 30
4535.150
 70
    32
  0
VERTEX
  8
T07SSILL
 62
2
 10
1335.634
 20
-146.513
 30
4535.150
 70
    32
  0
VERTEX
  8
T07SSILL
 62
2
 10
1338.450
 20
-140.138
 30
4535.150
 70
    32
  0
VERTEX
  8
T07SSILL
 62
2
 10
1351.545
 20
-138.988
 30
4535.150
 70
    32
  0
VERTEX
  8
T07SSILL
 62
2
 10
1356.831
 20
-139.442
 30
4535.150
 70
    32
  0
VERTEX
  8
T07SSILL
 62
2
 10
1358.670
 20
-145.136
 30
4535.150
 70
    32
  0
VERTEX
  8
T07SSILL
 62
2
 10
1357.012
 20
-152.463
 30
4535.150
 70
    32
  0
SEQEND
  8
T07SSILL
  0
POLYLINE
  8
T07SSILL
 62
2
 66
     1
 70
     9
  0
VERTEX
  8
T07SSILL
 62
2
 10
1366.455
 20
-173.363
 30
4535.150
 70
    32
  0
VERTEX
  8
T07SSILL
 62
2
 10
1363.950
 20
-170.406
 30
4535.150
 70
    32
  0
VERTEX
  8
T07SSILL
 62
2
 10
1365.255
 20
-162.996
 30
4535.150
 70
    32
  0
VERTEX
  8
T07SSILL
 62
2
 10
1367.130
 20
-158.658
 30
4535.150
 70
    32
  0
VERTEX
  8
T07SSILL
 62
2
 10
1370.554
 20
-158.083
 30
4535.150
 70
    32
  0
VERTEX
  8
T07SSILL
 62
2
 10
1385.616
 20
-159.105
 30
4535.150
 70
    32
  0
VERTEX
  8
T07SSILL
 62
2
 10
1389.738
 20
-170.752
 30
4535.150
 70
    32
  0
VERTEX
  8
T07SSILL
 62
2
 10
1387.944
 20
-174.648
 30
4535.150
 70
    32
  0
SEQEND
  8
T07SSILL
  0
POLYLINE
  8
T07SSILL
 62
2
 66
     1
 70
     9
  0
VERTEX
  8
T07SSILL
 62
2
 10
1367.576
 20
-152.756
 30
4535.150
 70
    32
  0
VERTEX
  8
T07SSILL
 62
2
 10
1365.590
 20
-149.176
 30
4535.150
 70
    32
  0
VERTEX
  8
T07SSILL
 62
2
 10
1364.632
 20
-143.558
 30
4535.150
 70
    32
  0
VERTEX
  8
T07SSILL
 62
2
 10
1367.228
 20
-140.354
 30
4535.150
 70
    32
  0
VERTEX
  8
T07SSILL
 62
2
 10
1381.336
 20
-142.445
 30
4535.150
 70
    32
  0
VERTEX
  8
T07SSILL
 62
2
 10
1384.911
 20
-146.356
 30
4535.150
 70
    32
  0
VERTEX
  8
T07SSILL
 62
2
 10
1385.410
 20
-150.660
 30
4535.150
 70
    32
  0
VERTEX
  8
T07SSILL
 62
2
 10
1383.779
 20
-153.587
 30
4535.150
 70
    32
  0
SEQEND
  8
T07SSILL
  0
POLYLINE
  8
T07SSILL
 62
2
 66
     1
 70
     9
  0
VERTEX
  8
T07SSILL
 62
2
 10
1403.576
 20
-172.407
 30
4535.150
 70
    32
  0
VERTEX
  8
T07SSILL
 62
2
 10
1400.772
 20
-173.238
 30
4535.150
 70
    32
  0
VERTEX
  8
T07SSILL
 62
2
 10
1398.647
 20
-172.300
 30
4535.150
 70
    32
  0
VERTEX
  8
T07SSILL
 62
2
 10
1396.749
 20
-162.382
 30
4535.150
 70
    32
  0
VERTEX
  8
T07SSILL
 62
2
 10
1399.008
 20
-160.327
 30
4535.150
 70
    32
  0
VERTEX
  8
T07SSILL
 62
2
 10
1410.633
 20
-160.957
 30
4535.150
 70
    32
  0
VERTEX
  8
T07SSILL
 62
2
 10
1414.293
 20
-164.690
 30
4535.150
 70
    32
  0
VERTEX
  8
T07SSILL
 62
2
 10
1415.302
 20
-167.668
 30
4535.150
 70
    32
  0
VERTEX
  8
T07SSILL
 62
2
 10
1414.553
 20
-170.759
 30
4535.150
 70
    32
  0
SEQEND
  8
T07SSILL
  0
POLYLINE
  8
T07SSILL
 62
2
 66
     1
 70
     9
  0
VERTEX
  8
T07SSILL
 62
2
 10
1240.217
 20
-43.211
 30
4535.150
 70
    32
  0
VERTEX
  8
T07SSILL
 62
2
 10
1234.120
 20
-47.695
 30
4535.150
 70
    32
  0
VERTEX
  8
T07SSILL
 62
2
 10
1230.579
 20
-52.496
 30
4535.150
 70
    32
  0
VERTEX
  8
T07SSILL
 62
2
 10
1227.259
 20
-66.886
 30
4535.150
 70
    32
  0
VERTEX
  8
T07SSILL
 62
2
 10
1229.172
 20
-71.611
 30
4535.150
 70
    32
  0
VERTEX
  8
T07SSILL
 62
2
 10
1233.822
 20
-70.579
 30
4535.150
 70
    32
  0
VERTEX
  8
T07SSILL
 62
2
 10
1238.584
 20
-64.969
 30
4535.150
 70
    32
  0
VERTEX
  8
T07SSILL
 62
2
 10
1240.156
 20
-57.819
 30
4535.150
 70
    32
  0
VERTEX
  8
T07SSILL
 62
2
 10
1243.992
 20
-55.214
 30
4535.150
 70
    32
  0
VERTEX
  8
T07SSILL
 62
2
 10
1261.875
 20
-56.637
 30
4535.150
 70
    32
  0
VERTEX
  8
T07SSILL
 62
2
 10
1266.569
 20
-52.436
 30
4535.150
 70
    32
  0
VERTEX
  8
T07SSILL
 62
2
 10
1265.703
 20
-47.168
 30
4535.150
 70
    32
  0
VERTEX
  8
T07SSILL
 62
2
 10
1262.406
 20
-44.222
 30
4535.150
 70
    32
  0
SEQEND
  8
T07SSILL
  0
POLYLINE
  8
T07SSILL
 62
2
 66
     1
 70
     9
  0
VERTEX
  8
T07SSILL
 62
2
 10
1233.257
 20
-36.268
 30
4535.150
 70
    32
  0
VERTEX
  8
T07SSILL
 62
2
 10
1231.913
 20
-28.191
 30
4535.150
 70
    32
  0
VERTEX
  8
T07SSILL
 62
2
 10
1235.414
 20
-14.238
 30
4535.150
 70
    32
  0
VERTEX
  8
T07SSILL
 62
2
 10
1240.026
 20
-4.143
 30
4535.150
 70
    32
  0
VERTEX
  8
T07SSILL
 62
2
 10
1244.100
 20
0.314
 30
4535.150
 70
    32
  0
VERTEX
  8
T07SSILL
 62
2
 10
1247.697
 20
1.068
 30
4535.150
 70
    32
  0
VERTEX
  8
T07SSILL
 62
2
 10
1250.538
 20
-0.740
 30
4535.150
 70
    32
  0
VERTEX
  8
T07SSILL
 62
2
 10
1249.693
 20
-22.224
 30
4535.150
 70
    32
  0
VERTEX
  8
T07SSILL
 62
2
 10
1269.168
 20
-24.241
 30
4535.150
 70
    32
  0
VERTEX
  8
T07SSILL
 62
2
 10
1269.655
 20
-27.578
 30
4535.150
 70
    32
  0
VERTEX
  8
T07SSILL
 62
2
 10
1267.805
 20
-33.763
 30
4535.150
 70
    32
  0
VERTEX
  8
T07SSILL
 62
2
 10
1263.196
 20
-37.699
 30
4535.150
 70
    32
  0
VERTEX
  8
T07SSILL
 62
2
 10
1259.144
 20
-37.404
 30
4535.150
 70
    32
  0
SEQEND
  8
T07SSILL
  0
POLYLINE
  8
T07SSILL
 62
2
 66
     1
 70
     9
  0
VERTEX
  8
T07SSILL
 62
2
 10
1298.589
 20
-39.055
 30
4535.150
 70
    32
  0
VERTEX
  8
T07SSILL
 62
2
 10
1297.014
 20
-33.357
 30
4535.150
 70
    32
  0
VERTEX
  8
T07SSILL
 62
2
 10
1298.071
 20
-27.095
 30
4535.150
 70
    32
  0
VERTEX
  8
T07SSILL
 62
2
 10
1299.805
 20
-25.223
 30
4535.150
 70
    32
  0
VERTEX
  8
T07SSILL
 62
2
 10
1307.729
 20
-25.553
 30
4535.150
 70
    32
  0
VERTEX
  8
T07SSILL
 62
2
 10
1317.267
 20
-27.972
 30
4535.150
 70
    32
  0
VERTEX
  8
T07SSILL
 62
2
 10
1317.348
 20
-33.779
 30
4535.150
 70
    32
  0
VERTEX
  8
T07SSILL
 62
2
 10
1315.149
 20
-40.233
 30
4535.150
 70
    32
  0
SEQEND
  8
T07SSILL
  0
POLYLINE
  8
T07SSILL
 62
2
 66
     1
 70
     9
  0
VERTEX
  8
T07SSILL
 62
2
 10
1325.272
 20
-40.444
 30
4535.150
 70
    32
  0
VERTEX
  8
T07SSILL
 62
2
 10
1324.210
 20
-33.683
 30
4535.150
 70
    32
  0
VERTEX
  8
T07SSILL
 62
2
 10
1325.892
 20
-28.116
 30
4535.150
 70
    32
  0
VERTEX
  8
T07SSILL
 62
2
 10
1332.311
 20
-27.763
 30
4535.150
 70
    32
  0
VERTEX
  8
T07SSILL
 62
2
 10
1348.110
 20
-31.151
 30
4535.150
 70
    32
  0
VERTEX
  8
T07SSILL
 62
2
 10
1348.975
 20
-36.419
 30
4535.150
 70
    32
  0
VERTEX
  8
T07SSILL
 62
2
 10
1345.082
 20
-41.225
 30
4535.150
 70
    32
  0
SEQEND
  8
T07SSILL
  0
POLYLINE
  8
T07SSILL
 62
2
 66
     1
 70
     9
  0
VERTEX
  8
T07SSILL
 62
2
 10
1357.659
 20
-28.114
 30
4535.150
 70
    32
  0
VERTEX
  8
T07SSILL
 62
2
 10
1354.790
 20
-30.618
 30
4535.150
 70
    32
  0
VERTEX
  8
T07SSILL
 62
2
 10
1354.595
 20
-35.549
 30
4535.150
 70
    32
  0
VERTEX
  8
T07SSILL
 62
2
 10
1361.638
 20
-42.138
 30
4535.150
 70
    32
  0
VERTEX
  8
T07SSILL
 62
2
 10
1365.754
 20
-40.673
 30
4535.150
 70
    32
  0
VERTEX
  8
T07SSILL
 62
2
 10
1370.082
 20
-35.509
 30
4535.150
 70
    32
  0
VERTEX
  8
T07SSILL
 62
2
 10
1371.332
 20
-30.476
 30
4535.150
 70
    32
  0
VERTEX
  8
T07SSILL
 62
2
 10
1369.444
 20
-27.598
 30
4535.150
 70
    32
  0
SEQEND
  8
T07SSILL
  0
POLYLINE
  8
T07SSILL
 62
2
 66
     1
 70
     9
  0
VERTEX
  8
T07SSILL
 62
2
 10
1241.283
 20
13.034
 30
4535.150
 70
    32
  0
VERTEX
  8
T07SSILL
 62
2
 10
1242.459
 20
10.763
 30
4535.150
 70
    32
  0
VERTEX
  8
T07SSILL
 62
2
 10
1250.849
 20
8.592
 30
4535.150
 70
    32
  0
VERTEX
  8
T07SSILL
 62
2
 10
1262.035
 20
20.451
 30
4535.150
 70
    32
  0
VERTEX
  8
T07SSILL
 62
2
 10
1265.123
 20
26.213
 30
4535.150
 70
    32
  0
VERTEX
  8
T07SSILL
 62
2
 10
1266.439
 20
39.167
 30
4535.150
 70
    32
  0
VERTEX
  8
T07SSILL
 62
2
 10
1264.870
 20
44.425
 30
4535.150
 70
    32
  0
VERTEX
  8
T07SSILL
 62
2
 10
1259.213
 20
52.530
 30
4535.150
 70
    32
  0
VERTEX
  8
T07SSILL
 62
2
 10
1253.909
 20
54.305
 30
4535.150
 70
    32
  0
VERTEX
  8
T07SSILL
 62
2
 10
1249.362
 20
52.217
 30
4535.150
 70
    32
  0
VERTEX
  8
T07SSILL
 62
2
 10
1245.680
 20
44.863
 30
4535.150
 70
    32
  0
SEQEND
  8
T07SSILL
  0
POLYLINE
  8
T07SSILL
 62
2
 66
     1
 70
     9
  0
VERTEX
  8
T07SSILL
 62
2
 10
1251.790
 20
61.139
 30
4535.150
 70
    32
  0
VERTEX
  8
T07SSILL
 62
2
 10
1250.503
 20
65.081
 30
4535.150
 70
    32
  0
VERTEX
  8
T07SSILL
 62
2
 10
1258.911
 20
86.933
 30
4535.150
 70
    32
  0
VERTEX
  8
T07SSILL
 62
2
 10
1263.028
 20
94.646
 30
4535.150
 70
    32
  0
VERTEX
  8
T07SSILL
 62
2
 10
1267.383
 20
97.875
 30
4535.150
 70
    32
  0
VERTEX
  8
T07SSILL
 62
2
 10
1275.824
 20
98.344
 30
4535.150
 70
    32
  0
VERTEX
  8
T07SSILL
 62
2
 10
1275.009
 20
93.669
 30
4535.150
 70
    32
  0
VERTEX
  8
T07SSILL
 62
2
 10
1270.022
 20
85.240
 30
4535.150
 70
    32
  0
VERTEX
  8
T07SSILL
 62
2
 10
1268.685
 20
80.117
 30
4535.150
 70
    32
  0
VERTEX
  8
T07SSILL
 62
2
 10
1271.323
 20
73.994
 30
4535.150
 70
    32
  0
VERTEX
  8
T07SSILL
 62
2
 10
1270.965
 20
68.093
 30
4535.150
 70
    32
  0
VERTEX
  8
T07SSILL
 62
2
 10
1268.586
 20
61.988
 30
4535.150
 70
    32
  0
VERTEX
  8
T07SSILL
 62
2
 10
1266.142
 20
60.546
 30
4535.150
 70
    32
  0
SEQEND
  8
T07SSILL
  0
POLYLINE
  8
T07SSILL
 62
2
 66
     1
 70
     9
  0
VERTEX
  8
T07SSILL
 62
2
 10
1277.605
 20
52.522
 30
4535.150
 70
    32
  0
VERTEX
  8
T07SSILL
 62
2
 10
1273.762
 20
50.445
 30
4535.150
 70
    32
  0
VERTEX
  8
T07SSILL
 62
2
 10
1271.803
 20
45.754
 30
4535.150
 70
    32
  0
VERTEX
  8
T07SSILL
 62
2
 10
1272.591
 20
39.693
 30
4535.150
 70
    32
  0
VERTEX
  8
T07SSILL
 62
2
 10
1274.832
 20
36.732
 30
4535.150
 70
    32
  0
VERTEX
  8
T07SSILL
 62
2
 10
1282.681
 20
35.521
 30
4535.150
 70
    32
  0
VERTEX
  8
T07SSILL
 62
2
 10
1295.251
 20
36.488
 30
4535.150
 70
    32
  0
VERTEX
  8
T07SSILL
 62
2
 10
1299.526
 20
39.187
 30
4535.150
 70
    32
  0
VERTEX
  8
T07SSILL
 62
2
 10
1301.646
 20
44.937
 30
4535.150
 70
    32
  0
VERTEX
  8
T07SSILL
 62
2
 10
1301.215
 20
50.562
 30
4535.150
 70
    32
  0
VERTEX
  8
T07SSILL
 62
2
 10
1296.269
 20
51.902
 30
4535.150
 70
    32
  0
SEQEND
  8
T07SSILL
  0
POLYLINE
  8
T07SSILL
 62
2
 66
     1
 70
     9
  0
VERTEX
  8
T07SSILL
 62
2
 10
1279.615
 20
59.854
 30
4535.150
 70
    32
  0
VERTEX
  8
T07SSILL
 62
2
 10
1278.445
 20
74.357
 30
4535.150
 70
    32
  0
VERTEX
  8
T07SSILL
 62
2
 10
1280.339
 20
77.375
 30
4535.150
 70
    32
  0
VERTEX
  8
T07SSILL
 62
2
 10
1289.846
 20
77.156
 30
4535.150
 70
    32
  0
VERTEX
  8
T07SSILL
 62
2
 10
1303.688
 20
75.236
 30
4535.150
 70
    32
  0
VERTEX
  8
T07SSILL
 62
2
 10
1305.331
 20
71.035
 30
4535.150
 70
    32
  0
VERTEX
  8
T07SSILL
 62
2
 10
1304.292
 20
63.453
 30
4535.150
 70
    32
  0
VERTEX
  8
T07SSILL
 62
2
 10
1297.232
 20
58.603
 30
4535.150
 70
    32
  0
SEQEND
  8
T07SSILL
  0
POLYLINE
  8
T07SSILL
 62
2
 66
     1
 70
     9
  0
VERTEX
  8
T07SSILL
 62
2
 10
1312.641
 20
51.601
 30
4535.150
 70
    32
  0
VERTEX
  8
T07SSILL
 62
2
 10
1309.471
 20
45.397
 30
4535.150
 70
    32
  0
VERTEX
  8
T07SSILL
 62
2
 10
1308.063
 20
39.042
 30
4535.150
 70
    32
  0
VERTEX
  8
T07SSILL
 62
2
 10
1318.131
 20
36.454
 30
4535.150
 70
    32
  0
VERTEX
  8
T07SSILL
 62
2
 10
1329.007
 20
45.317
 30
4535.150
 70
    32
  0
VERTEX
  8
T07SSILL
 62
2
 10
1329.747
 20
49.111
 30
4535.150
 70
    32
  0
VERTEX
  8
T07SSILL
 62
2
 10
1325.759
 20
51.080
 30
4535.150
 70
    32
  0
SEQEND
  8
T07SSILL
  0
POLYLINE
  8
T07SSILL
 62
2
 66
     1
 70
     9
  0
VERTEX
  8
T07SSILL
 62
2
 10
1313.699
 20
57.776
 30
4535.150
 70
    32
  0
VERTEX
  8
T07SSILL
 62
2
 10
1311.269
 20
61.614
 30
4535.150
 70
    32
  0
VERTEX
  8
T07SSILL
 62
2
 10
1311.604
 20
69.186
 30
4535.150
 70
    32
  0
VERTEX
  8
T07SSILL
 62
2
 10
1313.282
 20
75.105
 30
4535.150
 70
    32
  0
VERTEX
  8
T07SSILL
 62
2
 10
1351.658
 20
74.407
 30
4535.150
 70
    32
  0
VERTEX
  8
T07SSILL
 62
2
 10
1365.857
 20
72.141
 30
4535.150
 70
    32
  0
VERTEX
  8
T07SSILL
 62
2
 10
1364.935
 20
68.872
 30
4535.150
 70
    32
  0
VERTEX
  8
T07SSILL
 62
2
 10
1359.129
 20
62.367
 30
4535.150
 70
    32
  0
VERTEX
  8
T07SSILL
 62
2
 10
1342.224
 20
56.764
 30
4535.150
 70
    32
  0
VERTEX
  8
T07SSILL
 62
2
 10
1328.228
 20
57.098
 30
4535.150
 70
    32
  0
SEQEND
  8
T07SSILL
  0
POLYLINE
  8
T07SSILL
 62
2
 66
     1
 70
     9
  0
VERTEX
  8
T07SSILL
 62
2
 10
1306.319
 20
177.173
 30
4535.150
 70
    32
  0
VERTEX
  8
T07SSILL
 62
2
 10
1300.451
 20
175.156
 30
4535.150
 70
    32
  0
VERTEX
  8
T07SSILL
 62
2
 10
1294.702
 20
170.940
 30
4535.150
 70
    32
  0
VERTEX
  8
T07SSILL
 62
2
 10
1289.859
 20
164.801
 30
4535.150
 70
    32
  0
VERTEX
  8
T07SSILL
 62
2
 10
1281.534
 20
149.638
 30
4535.150
 70
    32
  0
VERTEX
  8
T07SSILL
 62
2
 10
1283.134
 20
142.180
 30
4535.150
 70
    32
  0
VERTEX
  8
T07SSILL
 62
2
 10
1289.415
 20
139.804
 30
4535.150
 70
    32
  0
VERTEX
  8
T07SSILL
 62
2
 10
1295.230
 20
139.268
 30
4535.150
 70
    32
  0
VERTEX
  8
T07SSILL
 62
2
 10
1308.626
 20
163.126
 30
4535.150
 70
    32
  0
VERTEX
  8
T07SSILL
 62
2
 10
1314.704
 20
169.018
 30
4535.150
 70
    32
  0
VERTEX
  8
T07SSILL
 62
2
 10
1316.160
 20
171.854
 30
4535.150
 70
    32
  0
SEQEND
  8
T07SSILL
  0
POLYLINE
  8
T07SSILL
 62
2
 66
     1
 70
     9
  0
VERTEX
  8
T07SSILL
 62
2
 10
1310.979
 20
183.750
 30
4535.150
 70
    32
  0
VERTEX
  8
T07SSILL
 62
2
 10
1310.211
 20
188.403
 30
4535.150
 70
    32
  0
VERTEX
  8
T07SSILL
 62
2
 10
1313.890
 20
195.934
 30
4535.150
 70
    32
  0
VERTEX
  8
T07SSILL
 62
2
 10
1321.640
 20
201.762
 30
4535.150
 70
    32
  0
VERTEX
  8
T07SSILL
 62
2
 10
1348.814
 20
196.684
 30
4535.150
 70
    32
  0
VERTEX
  8
T07SSILL
 62
2
 10
1352.676
 20
191.105
 30
4535.150
 70
    32
  0
VERTEX
  8
T07SSILL
 62
2
 10
1350.603
 20
175.589
 30
4535.150
 70
    32
  0
VERTEX
  8
T07SSILL
 62
2
 10
1333.686
 20
177.202
 30
4535.150
 70
    32
  0
VERTEX
  8
T07SSILL
 62
2
 10
1324.204
 20
175.574
 30
4535.150
 70
    32
  0
SEQEND
  8
T07SSILL
  0
POLYLINE
  8
T07SSILL
 62
2
 66
     1
 70
     9
  0
VERTEX
  8
T07SSILL
 62
2
 10
1364.603
 20
193.999
 30
4535.150
 70
    32
  0
VERTEX
  8
T07SSILL
 62
2
 10
1360.539
 20
188.839
 30
4535.150
 70
    32
  0
VERTEX
  8
T07SSILL
 62
2
 10
1358.379
 20
179.657
 30
4535.150
 70
    32
  0
VERTEX
  8
T07SSILL
 62
2
 10
1358.746
 20
172.183
 30
4535.150
 70
    32
  0
VERTEX
  8
T07SSILL
 62
2
 10
1382.792
 20
164.245
 30
4535.150
 70
    32
  0
VERTEX
  8
T07SSILL
 62
2
 10
1388.242
 20
164.673
 30
4535.150
 70
    32
  0
VERTEX
  8
T07SSILL
 62
2
 10
1389.772
 20
174.902
 30
4535.150
 70
    32
  0
VERTEX
  8
T07SSILL
 62
2
 10
1388.783
 20
182.720
 30
4535.150
 70
    32
  0
VERTEX
  8
T07SSILL
 62
2
 10
1385.442
 20
188.833
 30
4535.150
 70
    32
  0
VERTEX
  8
T07SSILL
 62
2
 10
1380.925
 20
190.970
 30
4535.150
 70
    32
  0
SEQEND
  8
T07SSILL
  0
POLYLINE
  8
T07SSILL
 62
2
 66
     1
 70
     9
  0
VERTEX
  8
T07SSILL
 62
2
 10
1399.717
 20
187.448
 30
4535.150
 70
    32
  0
VERTEX
  8
T07SSILL
 62
2
 10
1397.174
 20
180.461
 30
4535.150
 70
    32
  0
VERTEX
  8
T07SSILL
 62
2
 10
1395.485
 20
156.414
 30
4535.150
 70
    32
  0
VERTEX
  8
T07SSILL
 62
2
 10
1400.947
 20
149.626
 30
4535.150
 70
    32
  0
VERTEX
  8
T07SSILL
 62
2
 10
1405.657
 20
146.260
 30
4535.150
 70
    32
  0
VERTEX
  8
T07SSILL
 62
2
 10
1410.425
 20
145.094
 30
4535.150
 70
    32
  0
VERTEX
  8
T07SSILL
 62
2
 10
1421.802
 20
143.316
 30
4535.150
 70
    32
  0
VERTEX
  8
T07SSILL
 62
2
 10
1423.834
 20
155.400
 30
4535.150
 70
    32
  0
VERTEX
  8
T07SSILL
 62
2
 10
1425.283
 20
177.771
 30
4535.150
 70
    32
  0
VERTEX
  8
T07SSILL
 62
2
 10
1418.782
 20
183.313
 30
4535.150
 70
    32
  0
SEQEND
  8
T07SSILL
  0
POLYLINE
  8
T07SSILL
 62
2
 66
     1
 70
     9
  0
VERTEX
  8
T07SSILL
 62
2
 10
1435.999
 20
179.152
 30
4535.150
 70
    32
  0
VERTEX
  8
T07SSILL
 62
2
 10
1433.029
 20
177.615
 30
4535.150
 70
    32
  0
VERTEX
  8
T07SSILL
 62
2
 10
1430.277
 20
166.665
 30
4535.150
 70
    32
  0
VERTEX
  8
T07SSILL
 62
2
 10
1429.192
 20
143.419
 30
4535.150
 70
    32
  0
VERTEX
  8
T07SSILL
 62
2
 10
1431.166
 20
140.718
 30
4535.150
 70
    32
  0
VERTEX
  8
T07SSILL
 62
2
 10
1439.640
 20
138.812
 30
4535.150
 70
    32
  0
VERTEX
  8
T07SSILL
 62
2
 10
1464.315
 20
136.251
 30
4535.150
 70
    32
  0
VERTEX
  8
T07SSILL
 62
2
 10
1461.323
 20
142.546
 30
4535.150
 70
    32
  0
VERTEX
  8
T07SSILL
 62
2
 10
1464.086
 20
165.375
 30
4535.150
 70
    32
  0
VERTEX
  8
T07SSILL
 62
2
 10
1462.219
 20
173.093
 30
4535.150
 70
    32
  0
VERTEX
  8
T07SSILL
 62
2
 10
1456.723
 20
175.921
 30
4535.150
 70
    32
  0
SEQEND
  8
T07SSILL
  0
POLYLINE
  8
T07SSILL
 62
2
 66
     1
 70
     9
  0
VERTEX
  8
T07SSILL
 62
2
 10
1477.461
 20
171.721
 30
4535.150
 70
    32
  0
VERTEX
  8
T07SSILL
 62
2
 10
1473.253
 20
170.607
 30
4535.150
 70
    32
  0
VERTEX
  8
T07SSILL
 62
2
 10
1469.958
 20
167.041
 30
4535.150
 70
    32
  0
VERTEX
  8
T07SSILL
 62
2
 10
1469.257
 20
160.519
 30
4535.150
 70
    32
  0
VERTEX
  8
T07SSILL
 62
2
 10
1472.368
 20
151.939
 30
4535.150
 70
    32
  0
VERTEX
  8
T07SSILL
 62
2
 10
1493.635
 20
147.659
 30
4535.150
 70
    32
  0
VERTEX
  8
T07SSILL
 62
2
 10
1499.988
 20
152.763
 30
4535.150
 70
    32
  0
VERTEX
  8
T07SSILL
 62
2
 10
1502.750
 20
156.673
 30
4535.150
 70
    32
  0
VERTEX
  8
T07SSILL
 62
2
 10
1500.802
 20
163.862
 30
4535.150
 70
    32
  0
VERTEX
  8
T07SSILL
 62
2
 10
1496.251
 20
168.374
 30
4535.150
 70
    32
  0
SEQEND
  8
T07SSILL
  0
POLYLINE
  8
T07SSILL
 62
2
 66
     1
 70
     9
  0
VERTEX
  8
T07SSILL
 62
2
 10
1233.287
 20
183.110
 30
4535.150
 70
    32
  0
VERTEX
  8
T07SSILL
 62
2
 10
1248.615
 20
150.236
 30
4535.150
 70
    32
  0
VERTEX
  8
T07SSILL
 62
2
 10
1267.453
 20
143.458
 30
4535.150
 70
    32
  0
VERTEX
  8
T07SSILL
 62
2
 10
1269.027
 20
137.848
 30
4535.150
 70
    32
  0
VERTEX
  8
T07SSILL
 62
2
 10
1267.189
 20
130.783
 30
4535.150
 70
    32
  0
VERTEX
  8
T07SSILL
 62
2
 10
1259.759
 20
114.576
 30
4535.150
 70
    32
  0
VERTEX
  8
T07SSILL
 62
2
 10
1255.466
 20
113.196
 30
4535.150
 70
    32
  0
VERTEX
  8
T07SSILL
 62
2
 10
1237.953
 20
119.641
 30
4535.150
 70
    32
  0
VERTEX
  8
T07SSILL
 62
2
 10
1236.002
 20
114.422
 30
4535.150
 70
    32
  0
VERTEX
  8
T07SSILL
 62
2
 10
1254.493
 20
107.199
 30
4535.150
 70
    32
  0
VERTEX
  8
T07SSILL
 62
2
 10
1256.150
 20
101.942
 30
4535.150
 70
    32
  0
VERTEX
  8
T07SSILL
 62
2
 10
1251.807
 20
91.586
 30
4535.150
 70
    32
  0
VERTEX
  8
T07SSILL
 62
2
 10
1248.873
 20
87.410
 30
4535.150
 70
    32
  0
VERTEX
  8
T07SSILL
 62
2
 10
1242.443
 20
87.848
 30
4535.150
 70
    32
  0
VERTEX
  8
T07SSILL
 62
2
 10
1222.717
 20
101.565
 30
4535.150
 70
    32
  0
VERTEX
  8
T07SSILL
 62
2
 10
1220.671
 20
109.457
 30
4535.150
 70
    32
  0
SEQEND
  8
T07SSILL
  0
POLYLINE
  8
T07SSILL
 62
2
 66
     1
 70
     9
  0
VERTEX
  8
T07SSILL
 62
2
 10
-605.437
 20
-402.585
 30
4535.150
 70
    32
  0
VERTEX
  8
T07SSILL
 62
2
 10
-587.184
 20
-413.581
 30
4535.150
 70
    32
  0
VERTEX
  8
T07SSILL
 62
2
 10
-578.883
 20
-421.282
 30
4535.150
 70
    32
  0
VERTEX
  8
T07SSILL
 62
2
 10
-576.048
 20
-425.841
 30
4535.150
 70
    32
  0
VERTEX
  8
T07SSILL
 62
2
 10
-569.646
 20
-422.031
 30
4535.150
 70
    32
  0
VERTEX
  8
T07SSILL
 62
2
 10
-565.763
 20
-386.663
 30
4535.150
 70
    32
  0
VERTEX
  8
T07SSILL
 62
2
 10
-567.712
 20
-383.506
 30
4535.150
 70
    32
  0
SEQEND
  8
T07SSILL
  0
POLYLINE
  8
T07SSILL
 62
2
 66
     1
 70
     9
  0
VERTEX
  8
T07SSILL
 62
2
 10
-390.311
 20
-295.200
 30
4535.150
 70
    32
  0
VERTEX
  8
T07SSILL
 62
2
 10
-555.253
 20
-377.294
 30
4535.150
 70
    32
  0
VERTEX
  8
T07SSILL
 62
2
 10
-560.050
 20
-385.934
 30
4535.150
 70
    32
  0
VERTEX
  8
T07SSILL
 62
2
 10
-563.369
 20
-429.477
 30
4535.150
 70
    32
  0
VERTEX
  8
T07SSILL
 62
2
 10
-557.210
 20
-449.498
 30
4535.150
 70
    32
  0
VERTEX
  8
T07SSILL
 62
2
 10
-194.260
 20
-900.793
 30
4535.150
 70
    32
  0
VERTEX
  8
T07SSILL
 62
2
 10
-166.599
 20
-911.570
 30
4535.150
 70
    32
  0
VERTEX
  8
T07SSILL
 62
2
 10
-164.410
 20
-909.362
 30
4535.150
 70
    32
  0
VERTEX
  8
T07SSILL
 62
2
 10
-176.610
 20
-875.914
 30
4535.150
 70
    32
  0
VERTEX
  8
T07SSILL
 62
2
 10
-178.135
 20
-850.156
 30
4535.150
 70
    32
  0
VERTEX
  8
T07SSILL
 62
2
 10
-185.627
 20
-827.239
 30
4535.150
 70
    32
  0
VERTEX
  8
T07SSILL
 62
2
 10
-184.808
 20
-813.870
 30
4535.150
 70
    32
  0
VERTEX
  8
T07SSILL
 62
2
 10
-189.360
 20
-799.205
 30
4535.150
 70
    32
  0
VERTEX
  8
T07SSILL
 62
2
 10
-196.272
 20
-787.717
 30
4535.150
 70
    32
  0
VERTEX
  8
T07SSILL
 62
2
 10
-199.174
 20
-768.473
 30
4535.150
 70
    32
  0
VERTEX
  8
T07SSILL
 62
2
 10
-217.769
 20
-721.073
 30
4535.150
 70
    32
  0
VERTEX
  8
T07SSILL
 62
2
 10
-223.326
 20
-717.229
 30
4535.150
 70
    32
  0
VERTEX
  8
T07SSILL
 62
2
 10
-231.130
 20
-703.019
 30
4535.150
 70
    32
  0
VERTEX
  8
T07SSILL
 62
2
 10
-231.923
 20
-683.413
 30
4535.150
 70
    32
  0
VERTEX
  8
T07SSILL
 62
2
 10
-235.681
 20
-669.185
 30
4535.150
 70
    32
  0
VERTEX
  8
T07SSILL
 62
2
 10
-242.374
 20
-667.105
 30
4535.150
 70
    32
  0
VERTEX
  8
T07SSILL
 62
2
 10
-246.826
 20
-654.902
 30
4535.150
 70
    32
  0
VERTEX
  8
T07SSILL
 62
2
 10
-250.186
 20
-650.961
 30
4535.150
 70
    32
  0
VERTEX
  8
T07SSILL
 62
2
 10
-251.536
 20
-644.020
 30
4535.150
 70
    32
  0
VERTEX
  8
T07SSILL
 62
2
 10
-268.866
 20
-623.346
 30
4535.150
 70
    32
  0
VERTEX
  8
T07SSILL
 62
2
 10
-283.504
 20
-595.362
 30
4535.150
 70
    32
  0
VERTEX
  8
T07SSILL
 62
2
 10
-288.255
 20
-594.680
 30
4535.150
 70
    32
  0
VERTEX
  8
T07SSILL
 62
2
 10
-302.101
 20
-566.692
 30
4535.150
 70
    32
  0
VERTEX
  8
T07SSILL
 62
2
 10
-297.551
 20
-561.747
 30
4535.150
 70
    32
  0
VERTEX
  8
T07SSILL
 62
2
 10
-296.275
 20
-552.420
 30
4535.150
 70
    32
  0
VERTEX
  8
T07SSILL
 62
2
 10
-301.595
 20
-542.684
 30
4535.150
 70
    32
  0
VERTEX
  8
T07SSILL
 62
2
 10
-299.993
 20
-527.639
 30
4535.150
 70
    32
  0
VERTEX
  8
T07SSILL
 62
2
 10
-292.583
 20
-513.624
 30
4535.150
 70
    32
  0
VERTEX
  8
T07SSILL
 62
2
 10
-295.687
 20
-507.834
 30
4535.150
 70
    32
  0
VERTEX
  8
T07SSILL
 62
2
 10
-302.732
 20
-505.668
 30
4535.150
 70
    32
  0
VERTEX
  8
T07SSILL
 62
2
 10
-298.408
 20
-489.820
 30
4535.150
 70
    32
  0
VERTEX
  8
T07SSILL
 62
2
 10
-291.950
 20
-478.974
 30
4535.150
 70
    32
  0
VERTEX
  8
T07SSILL
 62
2
 10
-292.519
 20
-469.920
 30
4535.150
 70
    32
  0
VERTEX
  8
T07SSILL
 62
2
 10
-298.367
 20
-460.273
 30
4535.150
 70
    32
  0
VERTEX
  8
T07SSILL
 62
2
 10
-306.170
 20
-465.409
 30
4535.150
 70
    32
  0
VERTEX
  8
T07SSILL
 62
2
 10
-326.457
 20
-451.872
 30
4535.150
 70
    32
  0
VERTEX
  8
T07SSILL
 62
2
 10
-336.361
 20
-439.694
 30
4535.150
 70
    32
  0
VERTEX
  8
T07SSILL
 62
2
 10
-339.677
 20
-425.992
 30
4535.150
 70
    32
  0
VERTEX
  8
T07SSILL
 62
2
 10
-342.343
 20
-420.024
 30
4535.150
 70
    32
  0
VERTEX
  8
T07SSILL
 62
2
 10
-340.702
 20
-413.334
 30
4535.150
 70
    32
  0
VERTEX
  8
T07SSILL
 62
2
 10
-346.141
 20
-397.091
 30
4535.150
 70
    32
  0
VERTEX
  8
T07SSILL
 62
2
 10
-354.040
 20
-381.035
 30
4535.150
 70
    32
  0
VERTEX
  8
T07SSILL
 62
2
 10
-372.114
 20
-351.483
 30
4535.150
 70
    32
  0
VERTEX
  8
T07SSILL
 62
2
 10
-376.249
 20
-331.804
 30
4535.150
 70
    32
  0
VERTEX
  8
T07SSILL
 62
2
 10
-379.542
 20
-323.290
 30
4535.150
 70
    32
  0
VERTEX
  8
T07SSILL
 62
2
 10
-380.193
 20
-315.554
 30
4535.150
 70
    32
  0
SEQEND
  8
T07SSILL
  0
POLYLINE
  8
T07SSILL
 62
2
 66
     1
 70
     9
  0
VERTEX
  8
T07SSILL
 62
2
 10
-376.417
 20
-295.048
 30
4535.150
 70
    32
  0
VERTEX
  8
T07SSILL
 62
2
 10
-351.941
 20
-282.449
 30
4535.150
 70
    32
  0
VERTEX
  8
T07SSILL
 62
2
 10
-341.635
 20
-286.359
 30
4535.150
 70
    32
  0
VERTEX
  8
T07SSILL
 62
2
 10
-251.344
 20
-436.140
 30
4535.150
 70
    32
  0
VERTEX
  8
T07SSILL
 62
2
 10
-280.624
 20
-455.971
 30
4535.150
 70
    32
  0
VERTEX
  8
T07SSILL
 62
2
 10
-299.136
 20
-426.686
 30
4535.150
 70
    32
  0
VERTEX
  8
T07SSILL
 62
2
 10
-297.488
 20
-421.666
 30
4535.150
 70
    32
  0
VERTEX
  8
T07SSILL
 62
2
 10
-314.106
 20
-402.924
 30
4535.150
 70
    32
  0
VERTEX
  8
T07SSILL
 62
2
 10
-325.968
 20
-385.743
 30
4535.150
 70
    32
  0
VERTEX
  8
T07SSILL
 62
2
 10
-336.579
 20
-372.865
 30
4535.150
 70
    32
  0
VERTEX
  8
T07SSILL
 62
2
 10
-341.012
 20
-364.971
 30
4535.150
 70
    32
  0
VERTEX
  8
T07SSILL
 62
2
 10
-348.871
 20
-357.620
 30
4535.150
 70
    32
  0
VERTEX
  8
T07SSILL
 62
2
 10
-363.940
 20
-331.396
 30
4535.150
 70
    32
  0
VERTEX
  8
T07SSILL
 62
2
 10
-368.523
 20
-310.049
 30
4535.150
 70
    32
  0
SEQEND
  8
T07SSILL
  0
POLYLINE
  8
T07SSILL
 62
2
 66
     1
 70
     9
  0
VERTEX
  8
T07SSILL
 62
2
 10
-278.744
 20
-463.086
 30
4535.150
 70
    32
  0
VERTEX
  8
T07SSILL
 62
2
 10
-252.052
 20
-512.031
 30
4535.150
 70
    32
  0
VERTEX
  8
T07SSILL
 62
2
 10
-254.760
 20
-515.913
 30
4535.150
 70
    32
  0
VERTEX
  8
T07SSILL
 62
2
 10
-254.561
 20
-521.012
 30
4535.150
 70
    32
  0
VERTEX
  8
T07SSILL
 62
2
 10
-267.874
 20
-532.593
 30
4535.150
 70
    32
  0
VERTEX
  8
T07SSILL
 62
2
 10
-264.424
 20
-575.577
 30
4535.150
 70
    32
  0
VERTEX
  8
T07SSILL
 62
2
 10
-242.641
 20
-608.717
 30
4535.150
 70
    32
  0
VERTEX
  8
T07SSILL
 62
2
 10
-233.854
 20
-626.352
 30
4535.150
 70
    32
  0
VERTEX
  8
T07SSILL
 62
2
 10
-228.956
 20
-639.872
 30
4535.150
 70
    32
  0
VERTEX
  8
T07SSILL
 62
2
 10
-201.159
 20
-680.459
 30
4535.150
 70
    32
  0
VERTEX
  8
T07SSILL
 62
2
 10
-198.384
 20
-691.174
 30
4535.150
 70
    32
  0
VERTEX
  8
T07SSILL
 62
2
 10
-189.129
 20
-715.138
 30
4535.150
 70
    32
  0
VERTEX
  8
T07SSILL
 62
2
 10
-190.762
 20
-723.499
 30
4535.150
 70
    32
  0
VERTEX
  8
T07SSILL
 62
2
 10
-173.593
 20
-747.251
 30
4535.150
 70
    32
  0
VERTEX
  8
T07SSILL
 62
2
 10
-167.350
 20
-766.568
 30
4535.150
 70
    32
  0
VERTEX
  8
T07SSILL
 62
2
 10
-158.824
 20
-823.424
 30
4535.150
 70
    32
  0
VERTEX
  8
T07SSILL
 62
2
 10
-152.632
 20
-850.655
 30
4535.150
 70
    32
  0
VERTEX
  8
T07SSILL
 62
2
 10
-152.650
 20
-865.780
 30
4535.150
 70
    32
  0
VERTEX
  8
T07SSILL
 62
2
 10
-149.221
 20
-884.934
 30
4535.150
 70
    32
  0
VERTEX
  8
T07SSILL
 62
2
 10
-144.780
 20
-894.587
 30
4535.150
 70
    32
  0
VERTEX
  8
T07SSILL
 62
2
 10
-147.504
 20
-914.297
 30
4535.150
 70
    32
  0
VERTEX
  8
T07SSILL
 62
2
 10
-145.719
 20
-920.092
 30
4535.150
 70
    32
  0
VERTEX
  8
T07SSILL
 62
2
 10
-123.002
 20
-926.584
 30
4535.150
 70
    32
  0
VERTEX
  8
T07SSILL
 62
2
 10
-117.448
 20
-929.724
 30
4535.150
 70
    32
  0
VERTEX
  8
T07SSILL
 62
2
 10
-111.172
 20
-936.730
 30
4535.150
 70
    32
  0
VERTEX
  8
T07SSILL
 62
2
 10
-99.172
 20
-945.645
 30
4535.150
 70
    32
  0
VERTEX
  8
T07SSILL
 62
2
 10
-84.559
 20
-949.095
 30
4535.150
 70
    32
  0
VERTEX
  8
T07SSILL
 62
2
 10
-71.915
 20
-945.080
 30
4535.150
 70
    32
  0
VERTEX
  8
T07SSILL
 62
2
 10
-31.467
 20
-925.462
 30
4535.150
 70
    32
  0
VERTEX
  8
T07SSILL
 62
2
 10
-29.302
 20
-918.065
 30
4535.150
 70
    32
  0
VERTEX
  8
T07SSILL
 62
2
 10
-56.090
 20
-867.537
 30
4535.150
 70
    32
  0
VERTEX
  8
T07SSILL
 62
2
 10
-121.293
 20
-781.219
 30
4535.150
 70
    32
  0
VERTEX
  8
T07SSILL
 62
2
 10
-153.707
 20
-673.207
 30
4535.150
 70
    32
  0
VERTEX
  8
T07SSILL
 62
2
 10
-141.195
 20
-640.262
 30
4535.150
 70
    32
  0
VERTEX
  8
T07SSILL
 62
2
 10
-139.488
 20
-628.822
 30
4535.150
 70
    32
  0
VERTEX
  8
T07SSILL
 62
2
 10
-242.827
 20
-452.545
 30
4535.150
 70
    32
  0
VERTEX
  8
T07SSILL
 62
2
 10
-252.171
 20
-447.663
 30
4535.150
 70
    32
  0
SEQEND
  8
T07SSILL
  0
POLYLINE
  8
T07SSILL
 62
2
 66
     1
 70
     9
  0
VERTEX
  8
T07SSILL
 62
2
 10
-187.239
 20
-532.400
 30
4535.150
 70
    32
  0
VERTEX
  8
T07SSILL
 62
2
 10
-136.539
 20
-620.015
 30
4535.150
 70
    32
  0
VERTEX
  8
T07SSILL
 62
2
 10
-127.439
 20
-629.295
 30
4535.150
 70
    32
  0
VERTEX
  8
T07SSILL
 62
2
 10
151.637
 20
-815.057
 30
4535.150
 70
    32
  0
VERTEX
  8
T07SSILL
 62
2
 10
158.676
 20
-815.904
 30
4535.150
 70
    32
  0
VERTEX
  8
T07SSILL
 62
2
 10
179.644
 20
-862.854
 30
4535.150
 70
    32
  0
VERTEX
  8
T07SSILL
 62
2
 10
282.303
 20
-909.781
 30
4535.150
 70
    32
  0
VERTEX
  8
T07SSILL
 62
2
 10
182.149
 20
-737.622
 30
4535.150
 70
    32
  0
SEQEND
  8
T07SSILL
  0
POLYLINE
  8
T07SSILL
 62
2
 66
     1
 70
     9
  0
VERTEX
  8
T07SSILL
 62
2
 10
-131.422
 20
-642.855
 30
4535.150
 70
    32
  0
VERTEX
  8
T07SSILL
 62
2
 10
-137.726
 20
-648.864
 30
4535.150
 70
    32
  0
VERTEX
  8
T07SSILL
 62
2
 10
-146.319
 20
-673.437
 30
4535.150
 70
    32
  0
VERTEX
  8
T07SSILL
 62
2
 10
-114.446
 20
-778.550
 30
4535.150
 70
    32
  0
VERTEX
  8
T07SSILL
 62
2
 10
-108.873
 20
-785.735
 30
4535.150
 70
    32
  0
VERTEX
  8
T07SSILL
 62
2
 10
-99.886
 20
-789.651
 30
4535.150
 70
    32
  0
VERTEX
  8
T07SSILL
 62
2
 10
-68.960
 20
-764.448
 30
4535.150
 70
    32
  0
VERTEX
  8
T07SSILL
 62
2
 10
-80.449
 20
-751.838
 30
4535.150
 70
    32
  0
VERTEX
  8
T07SSILL
 62
2
 10
-84.541
 20
-741.480
 30
4535.150
 70
    32
  0
VERTEX
  8
T07SSILL
 62
2
 10
-94.656
 20
-702.483
 30
4535.150
 70
    32
  0
VERTEX
  8
T07SSILL
 62
2
 10
-105.631
 20
-687.057
 30
4535.150
 70
    32
  0
SEQEND
  8
T07SSILL
  0
POLYLINE
  8
T07SSILL
 62
2
 66
     1
 70
     9
  0
VERTEX
  8
T07SSILL
 62
2
 10
-95.554
 20
-794.731
 30
4535.150
 70
    32
  0
VERTEX
  8
T07SSILL
 62
2
 10
-97.103
 20
-802.125
 30
4535.150
 70
    32
  0
VERTEX
  8
T07SSILL
 62
2
 10
-61.713
 20
-849.184
 30
4535.150
 70
    32
  0
VERTEX
  8
T07SSILL
 62
2
 10
-51.668
 20
-853.711
 30
4535.150
 70
    32
  0
VERTEX
  8
T07SSILL
 62
2
 10
-20.728
 20
-831.498
 30
4535.150
 70
    32
  0
VERTEX
  8
T07SSILL
 62
2
 10
-26.859
 20
-817.720
 30
4535.150
 70
    32
  0
VERTEX
  8
T07SSILL
 62
2
 10
-34.366
 20
-810.544
 30
4535.150
 70
    32
  0
VERTEX
  8
T07SSILL
 62
2
 10
-39.472
 20
-790.166
 30
4535.150
 70
    32
  0
VERTEX
  8
T07SSILL
 62
2
 10
-46.886
 20
-784.132
 30
4535.150
 70
    32
  0
VERTEX
  8
T07SSILL
 62
2
 10
-55.502
 20
-784.436
 30
4535.150
 70
    32
  0
VERTEX
  8
T07SSILL
 62
2
 10
-65.067
 20
-769.706
 30
4535.150
 70
    32
  0
SEQEND
  8
T07SSILL
  0
POLYLINE
  8
T07SSILL
 62
2
 66
     1
 70
     9
  0
VERTEX
  8
T07SSILL
 62
2
 10
-25.948
 20
-747.807
 30
4535.150
 70
    32
  0
VERTEX
  8
T07SSILL
 62
2
 10
-22.229
 20
-753.418
 30
4535.150
 70
    32
  0
VERTEX
  8
T07SSILL
 62
2
 10
-10.495
 20
-761.718
 30
4535.150
 70
    32
  0
VERTEX
  8
T07SSILL
 62
2
 10
5.620
 20
-766.833
 30
4535.150
 70
    32
  0
VERTEX
  8
T07SSILL
 62
2
 10
33.319
 20
-747.448
 30
4535.150
 70
    32
  0
VERTEX
  8
T07SSILL
 62
2
 10
5.966
 20
-727.084
 30
4535.150
 70
    32
  0
VERTEX
  8
T07SSILL
 62
2
 10
1.309
 20
-727.809
 30
4535.150
 70
    32
  0
SEQEND
  8
T07SSILL
  0
POLYLINE
  8
T07SSILL
 62
2
 66
     1
 70
     9
  0
VERTEX
  8
T07SSILL
 62
2
 10
-50.926
 20
-862.237
 30
4535.150
 70
    32
  0
VERTEX
  8
T07SSILL
 62
2
 10
-18.584
 20
-838.875
 30
4535.150
 70
    32
  0
VERTEX
  8
T07SSILL
 62
2
 10
9.834
 20
-823.004
 30
4535.150
 70
    32
  0
VERTEX
  8
T07SSILL
 62
2
 10
20.077
 20
-812.933
 30
4535.150
 70
    32
  0
VERTEX
  8
T07SSILL
 62
2
 10
35.864
 20
-823.237
 30
4535.150
 70
    32
  0
VERTEX
  8
T07SSILL
 62
2
 10
48.693
 20
-840.326
 30
4535.150
 70
    32
  0
VERTEX
  8
T07SSILL
 62
2
 10
51.956
 20
-842.509
 30
4535.150
 70
    32
  0
VERTEX
  8
T07SSILL
 62
2
 10
32.686
 20
-858.953
 30
4535.150
 70
    32
  0
VERTEX
  8
T07SSILL
 62
2
 10
7.073
 20
-873.052
 30
4535.150
 70
    32
  0
VERTEX
  8
T07SSILL
 62
2
 10
1.127
 20
-880.290
 30
4535.150
 70
    32
  0
VERTEX
  8
T07SSILL
 62
2
 10
0.890
 20
-886.271
 30
4535.150
 70
    32
  0
VERTEX
  8
T07SSILL
 62
2
 10
-5.478
 20
-897.379
 30
4535.150
 70
    32
  0
VERTEX
  8
T07SSILL
 62
2
 10
-7.080
 20
-912.512
 30
4535.150
 70
    32
  0
VERTEX
  8
T07SSILL
 62
2
 10
-19.971
 20
-920.133
 30
4535.150
 70
    32
  0
SEQEND
  8
T07SSILL
  0
POLYLINE
  8
T07SSILL
 62
2
 66
     1
 70
     9
  0
VERTEX
  8
T07SSILL
 62
2
 10
-195.357
 20
-910.910
 30
4535.150
 70
    32
  0
VERTEX
  8
T07SSILL
 62
2
 10
-145.387
 20
-935.040
 30
4535.150
 70
    32
  0
VERTEX
  8
T07SSILL
 62
2
 10
-143.949
 20
-941.716
 30
4535.150
 70
    32
  0
VERTEX
  8
T07SSILL
 62
2
 10
-126.488
 20
-952.804
 30
4535.150
 70
    32
  0
VERTEX
  8
T07SSILL
 62
2
 10
-119.703
 20
-955.763
 30
4535.150
 70
    32
  0
VERTEX
  8
T07SSILL
 62
2
 10
-114.000
 20
-952.923
 30
4535.150
 70
    32
  0
VERTEX
  8
T07SSILL
 62
2
 10
-102.896
 20
-958.236
 30
4535.150
 70
    32
  0
VERTEX
  8
T07SSILL
 62
2
 10
-124.017
 20
-973.810
 30
4535.150
 70
    32
  0
VERTEX
  8
T07SSILL
 62
2
 10
-126.876
 20
-983.320
 30
4535.150
 70
    32
  0
VERTEX
  8
T07SSILL
 62
2
 10
-128.410
 20
-993.879
 30
4535.150
 70
    32
  0
VERTEX
  8
T07SSILL
 62
2
 10
-133.394
 20
-1000.057
 30
4535.150
 70
    32
  0
VERTEX
  8
T07SSILL
 62
2
 10
-132.316
 20
-1005.153
 30
4535.150
 70
    32
  0
VERTEX
  8
T07SSILL
 62
2
 10
-116.392
 20
-1026.008
 30
4535.150
 70
    32
  0
VERTEX
  8
T07SSILL
 62
2
 10
-104.530
 20
-1062.359
 30
4535.150
 70
    32
  0
VERTEX
  8
T07SSILL
 62
2
 10
-113.556
 20
-1069.260
 30
4535.150
 70
    32
  0
VERTEX
  8
T07SSILL
 62
2
 10
-126.219
 20
-1069.229
 30
4535.150
 70
    32
  0
VERTEX
  8
T07SSILL
 62
2
 10
-164.166
 20
-1020.599
 30
4535.150
 70
    32
  0
SEQEND
  8
T07SSILL
  0
POLYLINE
  8
T07SSILL
 62
2
 66
     1
 70
     9
  0
VERTEX
  8
T07SSILL
 62
2
 10
166.137
 20
-1005.195
 30
4535.150
 70
    32
  0
VERTEX
  8
T07SSILL
 62
2
 10
172.446
 20
-1000.417
 30
4535.150
 70
    32
  0
VERTEX
  8
T07SSILL
 62
2
 10
175.232
 20
-994.161
 30
4535.150
 70
    32
  0
VERTEX
  8
T07SSILL
 62
2
 10
168.894
 20
-973.525
 30
4535.150
 70
    32
  0
VERTEX
  8
T07SSILL
 62
2
 10
159.941
 20
-977.084
 30
4535.150
 70
    32
  0
VERTEX
  8
T07SSILL
 62
2
 10
163.394
 20
-982.168
 30
4535.150
 70
    32
  0
VERTEX
  8
T07SSILL
 62
2
 10
158.834
 20
-985.091
 30
4535.150
 70
    32
  0
VERTEX
  8
T07SSILL
 62
2
 10
165.475
 20
-995.085
 30
4535.150
 70
    32
  0
VERTEX
  8
T07SSILL
 62
2
 10
160.917
 20
-998.272
 30
4535.150
 70
    32
  0
SEQEND
  8
T07SSILL
  0
POLYLINE
  8
T07SSILL
 62
2
 66
     1
 70
     9
  0
VERTEX
  8
T07SSILL
 62
2
 10
211.073
 20
-890.058
 30
4535.150
 70
    32
  0
VERTEX
  8
T07SSILL
 62
2
 10
211.811
 20
-897.617
 30
4535.150
 70
    32
  0
VERTEX
  8
T07SSILL
 62
2
 10
217.253
 20
-895.394
 30
4535.150
 70
    32
  0
SEQEND
  8
T07SSILL
  0
POLYLINE
  8
T07SSILL
 62
2
 66
     1
 70
     9
  0
VERTEX
  8
T07SSILL
 62
2
 10
96.832
 20
-868.069
 30
4535.150
 70
    32
  0
VERTEX
  8
T07SSILL
 62
2
 10
119.358
 20
-851.962
 30
4535.150
 70
    32
  0
VERTEX
  8
T07SSILL
 62
2
 10
137.563
 20
-852.494
 30
4535.150
 70
    32
  0
VERTEX
  8
T07SSILL
 62
2
 10
193.253
 20
-877.565
 30
4535.150
 70
    32
  0
VERTEX
  8
T07SSILL
 62
2
 10
201.579
 20
-890.629
 30
4535.150
 70
    32
  0
VERTEX
  8
T07SSILL
 62
2
 10
196.645
 20
-907.887
 30
4535.150
 70
    32
  0
VERTEX
  8
T07SSILL
 62
2
 10
188.422
 20
-917.158
 30
4535.150
 70
    32
  0
VERTEX
  8
T07SSILL
 62
2
 10
183.681
 20
-918.850
 30
4535.150
 70
    32
  0
VERTEX
  8
T07SSILL
 62
2
 10
176.892
 20
-914.924
 30
4535.150
 70
    32
  0
VERTEX
  8
T07SSILL
 62
2
 10
172.568
 20
-892.432
 30
4535.150
 70
    32
  0
VERTEX
  8
T07SSILL
 62
2
 10
165.747
 20
-881.472
 30
4535.150
 70
    32
  0
VERTEX
  8
T07SSILL
 62
2
 10
161.771
 20
-877.357
 30
4535.150
 70
    32
  0
VERTEX
  8
T07SSILL
 62
2
 10
126.619
 20
-901.348
 30
4535.150
 70
    32
  0
VERTEX
  8
T07SSILL
 62
2
 10
121.346
 20
-902.164
 30
4535.150
 70
    32
  0
SEQEND
  8
T07SSILL
  0
POLYLINE
  8
T07SSILL
 62
2
 66
     1
 70
     9
  0
VERTEX
  8
T07SSILL
 62
2
 10
-38.093
 20
-1014.746
 30
4535.150
 70
    32
  0
VERTEX
  8
T07SSILL
 62
2
 10
-56.234
 20
-1008.938
 30
4535.150
 70
    32
  0
VERTEX
  8
T07SSILL
 62
2
 10
-65.084
 20
-1015.837
 30
4535.150
 70
    32
  0
VERTEX
  8
T07SSILL
 62
2
 10
-85.912
 20
-1037.828
 30
4535.150
 70
    32
  0
VERTEX
  8
T07SSILL
 62
2
 10
-91.979
 20
-1038.032
 30
4535.150
 70
    32
  0
VERTEX
  8
T07SSILL
 62
2
 10
-92.398
 20
-1042.518
 30
4535.150
 70
    32
  0
VERTEX
  8
T07SSILL
 62
2
 10
-87.347
 20
-1050.937
 30
4535.150
 70
    32
  0
VERTEX
  8
T07SSILL
 62
2
 10
-60.357
 20
-1030.413
 30
4535.150
 70
    32
  0
SEQEND
  8
T07SSILL
  0
POLYLINE
  8
T07SSILL
 62
2
 66
     1
 70
     9
  0
VERTEX
  8
T07SSILL
 62
2
 10
-24.921
 20
-1010.098
 30
4535.150
 70
    32
  0
VERTEX
  8
T07SSILL
 62
2
 10
-77.036
 20
-964.895
 30
4535.150
 70
    32
  0
VERTEX
  8
T07SSILL
 62
2
 10
-75.919
 20
-959.004
 30
4535.150
 70
    32
  0
VERTEX
  8
T07SSILL
 62
2
 10
-15.156
 20
-929.842
 30
4535.150
 70
    32
  0
VERTEX
  8
T07SSILL
 62
2
 10
-3.473
 20
-929.354
 30
4535.150
 70
    32
  0
VERTEX
  8
T07SSILL
 62
2
 10
7.743
 20
-943.188
 30
4535.150
 70
    32
  0
VERTEX
  8
T07SSILL
 62
2
 10
25.087
 20
-951.725
 30
4535.150
 70
    32
  0
VERTEX
  8
T07SSILL
 62
2
 10
57.124
 20
-923.388
 30
4535.150
 70
    32
  0
VERTEX
  8
T07SSILL
 62
2
 10
71.497
 20
-914.893
 30
4535.150
 70
    32
  0
VERTEX
  8
T07SSILL
 62
2
 10
71.143
 20
-893.457
 30
4535.150
 70
    32
  0
VERTEX
  8
T07SSILL
 62
2
 10
85.684
 20
-883.204
 30
4535.150
 70
    32
  0
VERTEX
  8
T07SSILL
 62
2
 10
95.936
 20
-897.657
 30
4535.150
 70
    32
  0
VERTEX
  8
T07SSILL
 62
2
 10
86.390
 20
-904.726
 30
4535.150
 70
    32
  0
VERTEX
  8
T07SSILL
 62
2
 10
95.314
 20
-916.725
 30
4535.150
 70
    32
  0
VERTEX
  8
T07SSILL
 62
2
 10
95.957
 20
-923.487
 30
4535.150
 70
    32
  0
VERTEX
  8
T07SSILL
 62
2
 10
99.057
 20
-929.273
 30
4535.150
 70
    32
  0
VERTEX
  8
T07SSILL
 62
2
 10
60.579
 20
-951.136
 30
4535.150
 70
    32
  0
VERTEX
  8
T07SSILL
 62
2
 10
55.600
 20
-957.922
 30
4535.150
 70
    32
  0
VERTEX
  8
T07SSILL
 62
2
 10
23.188
 20
-980.550
 30
4535.150
 70
    32
  0
VERTEX
  8
T07SSILL
 62
2
 10
25.573
 20
-983.703
 30
4535.150
 70
    32
  0
VERTEX
  8
T07SSILL
 62
2
 10
-12.455
 20
-1007.937
 30
4535.150
 70
    32
  0
SEQEND
  8
T07SSILL
  0
POLYLINE
  8
T07SSILL
 62
2
 66
     1
 70
     9
  0
VERTEX
  8
T07SSILL
 62
2
 10
-18.396
 20
-1015.781
 30
4535.150
 70
    32
  0
VERTEX
  8
T07SSILL
 62
2
 10
-9.355
 20
-1013.722
 30
4535.150
 70
    32
  0
VERTEX
  8
T07SSILL
 62
2
 10
64.599
 20
-966.846
 30
4535.150
 70
    32
  0
VERTEX
  8
T07SSILL
 62
2
 10
106.893
 20
-933.193
 30
4535.150
 70
    32
  0
VERTEX
  8
T07SSILL
 62
2
 10
145.427
 20
-987.239
 30
4535.150
 70
    32
  0
VERTEX
  8
T07SSILL
 62
2
 10
133.653
 20
-996.319
 30
4535.150
 70
    32
  0
VERTEX
  8
T07SSILL
 62
2
 10
148.107
 20
-1017.581
 30
4535.150
 70
    32
  0
VERTEX
  8
T07SSILL
 62
2
 10
48.147
 20
-1086.490
 30
4535.150
 70
    32
  0
VERTEX
  8
T07SSILL
 62
2
 10
-1.165
 20
-1018.256
 30
4535.150
 70
    32
  0
VERTEX
  8
T07SSILL
 62
2
 10
-11.152
 20
-1025.239
 30
4535.150
 70
    32
  0
SEQEND
  8
T07SSILL
  0
POLYLINE
  8
T07SSILL
 62
2
 66
     1
 70
     9
  0
VERTEX
  8
T07SSILL
 62
2
 10
978.386
 20
-1158.870
 30
4535.150
 70
    32
  0
VERTEX
  8
T07SSILL
 62
2
 10
979.078
 20
-1154.297
 30
4535.150
 70
    32
  0
VERTEX
  8
T07SSILL
 62
2
 10
1089.812
 20
-1097.069
 30
4535.150
 70
    32
  0
VERTEX
  8
T07SSILL
 62
2
 10
1104.013
 20
-1097.031
 30
4535.150
 70
    32
  0
VERTEX
  8
T07SSILL
 62
2
 10
1120.414
 20
-1109.745
 30
4535.150
 70
    32
  0
VERTEX
  8
T07SSILL
 62
2
 10
1126.832
 20
-1127.142
 30
4535.150
 70
    32
  0
VERTEX
  8
T07SSILL
 62
2
 10
1137.462
 20
-1136.472
 30
4535.150
 70
    32
  0
VERTEX
  8
T07SSILL
 62
2
 10
1174.987
 20
-1149.089
 30
4535.150
 70
    32
  0
VERTEX
  8
T07SSILL
 62
2
 10
1218.511
 20
-1184.108
 30
4535.150
 70
    32
  0
VERTEX
  8
T07SSILL
 62
2
 10
1232.839
 20
-1202.477
 30
4535.150
 70
    32
  0
VERTEX
  8
T07SSILL
 62
2
 10
1190.759
 20
-1198.285
 30
4535.150
 70
    32
  0
SEQEND
  8
T07SSILL
  0
POLYLINE
  8
T07SSILL
 62
2
 66
     1
 70
     9
  0
VERTEX
  8
T07SSILL
 62
2
 10
1060.229
 20
-1888.466
 30
4535.150
 70
    32
  0
VERTEX
  8
T07SSILL
 62
2
 10
1056.515
 20
-1884.108
 30
4535.150
 70
    32
  0
VERTEX
  8
T07SSILL
 62
2
 10
1060.873
 20
-1880.394
 30
4535.150
 70
    32
  0
VERTEX
  8
T07SSILL
 62
2
 10
1053.263
 20
-1870.890
 30
4535.150
 70
    32
  0
VERTEX
  8
T07SSILL
 62
2
 10
1057.357
 20
-1867.003
 30
4535.150
 70
    32
  0
VERTEX
  8
T07SSILL
 62
2
 10
1053.727
 20
-1862.293
 30
4535.150
 70
    32
  0
VERTEX
  8
T07SSILL
 62
2
 10
1057.910
 20
-1858.668
 30
4535.150
 70
    32
  0
VERTEX
  8
T07SSILL
 62
2
 10
1046.152
 20
-1845.336
 30
4535.150
 70
    32
  0
VERTEX
  8
T07SSILL
 62
2
 10
1050.508
 20
-1841.359
 30
4535.150
 70
    32
  0
VERTEX
  8
T07SSILL
 62
2
 10
1034.595
 20
-1823.497
 30
4535.150
 70
    32
  0
VERTEX
  8
T07SSILL
 62
2
 10
1039.302
 20
-1819.517
 30
4535.150
 70
    32
  0
VERTEX
  8
T07SSILL
 62
2
 10
1035.235
 20
-1814.812
 30
4535.150
 70
    32
  0
VERTEX
  8
T07SSILL
 62
2
 10
1039.766
 20
-1810.921
 30
4535.150
 70
    32
  0
VERTEX
  8
T07SSILL
 62
2
 10
1031.722
 20
-1801.947
 30
4535.150
 70
    32
  0
VERTEX
  8
T07SSILL
 62
2
 10
1036.341
 20
-1797.967
 30
4535.150
 70
    32
  0
VERTEX
  8
T07SSILL
 62
2
 10
1024.582
 20
-1784.548
 30
4535.150
 70
    32
  0
VERTEX
  8
T07SSILL
 62
2
 10
1028.849
 20
-1780.396
 30
4535.150
 70
    32
  0
VERTEX
  8
T07SSILL
 62
2
 10
1025.044
 20
-1775.600
 30
4535.150
 70
    32
  0
VERTEX
  8
T07SSILL
 62
2
 10
1029.489
 20
-1771.798
 30
4535.150
 70
    32
  0
VERTEX
  8
T07SSILL
 62
2
 10
1025.334
 20
-1767.180
 30
4535.150
 70
    32
  0
VERTEX
  8
T07SSILL
 62
2
 10
1029.868
 20
-1763.552
 30
4535.150
 70
    32
  0
VERTEX
  8
T07SSILL
 62
2
 10
1022.350
 20
-1754.662
 30
4535.150
 70
    32
  0
VERTEX
  8
T07SSILL
 62
2
 10
1030.975
 20
-1746.884
 30
4535.150
 70
    32
  0
VERTEX
  8
T07SSILL
 62
2
 10
1027.259
 20
-1742.263
 30
4535.150
 70
    32
  0
VERTEX
  8
T07SSILL
 62
2
 10
1022.731
 20
-1746.592
 30
4535.150
 70
    32
  0
VERTEX
  8
T07SSILL
 62
2
 10
1018.314
 20
-1742.064
 30
4535.150
 70
    32
  0
VERTEX
  8
T07SSILL
 62
2
 10
1014.482
 20
-1745.775
 30
4535.150
 70
    32
  0
VERTEX
  8
T07SSILL
 62
2
 10
1018.287
 20
-1750.482
 30
4535.150
 70
    32
  0
VERTEX
  8
T07SSILL
 62
2
 10
1004.773
 20
-1761.365
 30
4535.150
 70
    32
  0
VERTEX
  8
T07SSILL
 62
2
 10
1008.576
 20
-1765.898
 30
4535.150
 70
    32
  0
VERTEX
  8
T07SSILL
 62
2
 10
1004.395
 20
-1769.698
 30
4535.150
 70
    32
  0
VERTEX
  8
T07SSILL
 62
2
 10
1008.113
 20
-1774.582
 30
4535.150
 70
    32
  0
VERTEX
  8
T07SSILL
 62
2
 10
1003.759
 20
-1778.910
 30
4535.150
 70
    32
  0
VERTEX
  8
T07SSILL
 62
2
 10
1007.561
 20
-1783.180
 30
4535.150
 70
    32
  0
VERTEX
  8
T07SSILL
 62
2
 10
1003.206
 20
-1787.332
 30
4535.150
 70
    32
  0
VERTEX
  8
T07SSILL
 62
2
 10
1006.920
 20
-1791.690
 30
4535.150
 70
    32
  0
VERTEX
  8
T07SSILL
 62
2
 10
1002.914
 20
-1795.489
 30
4535.150
 70
    32
  0
VERTEX
  8
T07SSILL
 62
2
 10
1010.346
 20
-1804.731
 30
4535.150
 70
    32
  0
VERTEX
  8
T07SSILL
 62
2
 10
1006.253
 20
-1808.706
 30
4535.150
 70
    32
  0
VERTEX
  8
T07SSILL
 62
2
 10
1013.681
 20
-1817.334
 30
4535.150
 70
    32
  0
VERTEX
  8
T07SSILL
 62
2
 10
1009.412
 20
-1821.135
 30
4535.150
 70
    32
  0
VERTEX
  8
T07SSILL
 62
2
 10
1013.305
 20
-1826.018
 30
4535.150
 70
    32
  0
VERTEX
  8
T07SSILL
 62
2
 10
1009.038
 20
-1830.082
 30
4535.150
 70
    32
  0
VERTEX
  8
T07SSILL
 62
2
 10
1016.904
 20
-1838.707
 30
4535.150
 70
    32
  0
VERTEX
  8
T07SSILL
 62
2
 10
1012.722
 20
-1842.508
 30
4535.150
 70
    32
  0
VERTEX
  8
T07SSILL
 62
2
 10
1016.264
 20
-1847.217
 30
4535.150
 70
    32
  0
VERTEX
  8
T07SSILL
 62
2
 10
1011.735
 20
-1851.547
 30
4535.150
 70
    32
  0
VERTEX
  8
T07SSILL
 62
2
 10
1019.777
 20
-1860.170
 30
4535.150
 70
    32
  0
VERTEX
  8
T07SSILL
 62
2
 10
1015.331
 20
-1863.885
 30
4535.150
 70
    32
  0
VERTEX
  8
T07SSILL
 62
2
 10
1018.439
 20
-1869.212
 30
4535.150
 70
    32
  0
VERTEX
  8
T07SSILL
 62
2
 10
1014.692
 20
-1872.483
 30
4535.150
 70
    32
  0
VERTEX
  8
T07SSILL
 62
2
 10
928.566
 20
-1772.787
 30
4535.150
 70
    32
  0
VERTEX
  8
T07SSILL
 62
2
 10
887.077
 20
-1588.150
 30
4535.150
 70
    32
  0
VERTEX
  8
T07SSILL
 62
2
 10
896.358
 20
-1586.242
 30
4535.150
 70
    32
  0
VERTEX
  8
T07SSILL
 62
2
 10
1005.228
 20
-1641.755
 30
4535.150
 70
    32
  0
VERTEX
  8
T07SSILL
 62
2
 10
1008.968
 20
-1649.708
 30
4535.150
 70
    32
  0
VERTEX
  8
T07SSILL
 62
2
 10
1011.782
 20
-1662.928
 30
4535.150
 70
    32
  0
VERTEX
  8
T07SSILL
 62
2
 10
1015.628
 20
-1673.423
 30
4535.150
 70
    32
  0
VERTEX
  8
T07SSILL
 62
2
 10
1022.347
 20
-1681.004
 30
4535.150
 70
    32
  0
VERTEX
  8
T07SSILL
 62
2
 10
1026.803
 20
-1678.867
 30
4535.150
 70
    32
  0
VERTEX
  8
T07SSILL
 62
2
 10
1024.729
 20
-1658.714
 30
4535.150
 70
    32
  0
VERTEX
  8
T07SSILL
 62
2
 10
1025.481
 20
-1653.447
 30
4535.150
 70
    32
  0
VERTEX
  8
T07SSILL
 62
2
 10
1029.956
 20
-1653.941
 30
4535.150
 70
    32
  0
VERTEX
  8
T07SSILL
 62
2
 10
1062.350
 20
-1671.158
 30
4535.150
 70
    32
  0
VERTEX
  8
T07SSILL
 62
2
 10
1065.647
 20
-1678.500
 30
4535.150
 70
    32
  0
VERTEX
  8
T07SSILL
 62
2
 10
1065.940
 20
-1694.896
 30
4535.150
 70
    32
  0
VERTEX
  8
T07SSILL
 62
2
 10
1071.675
 20
-1711.954
 30
4535.150
 70
    32
  0
VERTEX
  8
T07SSILL
 62
2
 10
1070.590
 20
-1719.678
 30
4535.150
 70
    32
  0
VERTEX
  8
T07SSILL
 62
2
 10
1074.850
 20
-1726.750
 30
4535.150
 70
    32
  0
VERTEX
  8
T07SSILL
 62
2
 10
1094.515
 20
-1742.042
 30
4535.150
 70
    32
  0
VERTEX
  8
T07SSILL
 62
2
 10
1125.684
 20
-1723.140
 30
4535.150
 70
    32
  0
VERTEX
  8
T07SSILL
 62
2
 10
1139.205
 20
-1713.310
 30
4535.150
 70
    32
  0
VERTEX
  8
T07SSILL
 62
2
 10
1145.702
 20
-1726.592
 30
4535.150
 70
    32
  0
VERTEX
  8
T07SSILL
 62
2
 10
1147.041
 20
-1742.191
 30
4535.150
 70
    32
  0
VERTEX
  8
T07SSILL
 62
2
 10
1153.085
 20
-1765.560
 30
4535.150
 70
    32
  0
VERTEX
  8
T07SSILL
 62
2
 10
1153.686
 20
-1788.267
 30
4535.150
 70
    32
  0
VERTEX
  8
T07SSILL
 62
2
 10
1161.457
 20
-1808.029
 30
4535.150
 70
    32
  0
VERTEX
  8
T07SSILL
 62
2
 10
1125.536
 20
-1836.698
 30
4535.150
 70
    32
  0
VERTEX
  8
T07SSILL
 62
2
 10
1112.266
 20
-1820.484
 30
4535.150
 70
    32
  0
VERTEX
  8
T07SSILL
 62
2
 10
1109.849
 20
-1801.472
 30
4535.150
 70
    32
  0
VERTEX
  8
T07SSILL
 62
2
 10
1102.924
 20
-1789.597
 30
4535.150
 70
    32
  0
VERTEX
  8
T07SSILL
 62
2
 10
1087.593
 20
-1803.825
 30
4535.150
 70
    32
  0
VERTEX
  8
T07SSILL
 62
2
 10
1099.492
 20
-1824.434
 30
4535.150
 70
    32
  0
VERTEX
  8
T07SSILL
 62
2
 10
1107.837
 20
-1826.478
 30
4535.150
 70
    32
  0
VERTEX
  8
T07SSILL
 62
2
 10
1120.043
 20
-1841.122
 30
4535.150
 70
    32
  0
SEQEND
  8
T07SSILL
  0
POLYLINE
  8
T07SSILL
 62
2
 66
     1
 70
     9
  0
VERTEX
  8
T07SSILL
 62
2
 10
1070.998
 20
-1666.624
 30
4535.150
 70
    32
  0
VERTEX
  8
T07SSILL
 62
2
 10
1088.822
 20
-1657.639
 30
4535.150
 70
    32
  0
VERTEX
  8
T07SSILL
 62
2
 10
1102.078
 20
-1647.547
 30
4535.150
 70
    32
  0
VERTEX
  8
T07SSILL
 62
2
 10
1097.621
 20
-1637.407
 30
4535.150
 70
    32
  0
VERTEX
  8
T07SSILL
 62
2
 10
1086.877
 20
-1631.083
 30
4535.150
 70
    32
  0
VERTEX
  8
T07SSILL
 62
2
 10
1082.984
 20
-1626.201
 30
4535.150
 70
    32
  0
VERTEX
  8
T07SSILL
 62
2
 10
1067.103
 20
-1637.101
 30
4535.150
 70
    32
  0
VERTEX
  8
T07SSILL
 62
2
 10
1060.262
 20
-1636.887
 30
4535.150
 70
    32
  0
VERTEX
  8
T07SSILL
 62
2
 10
1055.480
 20
-1630.345
 30
4535.150
 70
    32
  0
VERTEX
  8
T07SSILL
 62
2
 10
1033.881
 20
-1553.334
 30
4535.150
 70
    32
  0
VERTEX
  8
T07SSILL
 62
2
 10
1022.620
 20
-1499.487
 30
4535.150
 70
    32
  0
VERTEX
  8
T07SSILL
 62
2
 10
1005.144
 20
-1483.741
 30
4535.150
 70
    32
  0
VERTEX
  8
T07SSILL
 62
2
 10
1001.158
 20
-1490.346
 30
4535.150
 70
    32
  0
VERTEX
  8
T07SSILL
 62
2
 10
990.545
 20
-1526.550
 30
4535.150
 70
    32
  0
VERTEX
  8
T07SSILL
 62
2
 10
995.158
 20
-1558.260
 30
4535.150
 70
    32
  0
VERTEX
  8
T07SSILL
 62
2
 10
1005.442
 20
-1598.260
 30
4535.150
 70
    32
  0
VERTEX
  8
T07SSILL
 62
2
 10
1009.649
 20
-1610.155
 30
4535.150
 70
    32
  0
VERTEX
  8
T07SSILL
 62
2
 10
1014.678
 20
-1614.503
 30
4535.150
 70
    32
  0
VERTEX
  8
T07SSILL
 62
2
 10
1022.091
 20
-1633.215
 30
4535.150
 70
    32
  0
VERTEX
  8
T07SSILL
 62
2
 10
1023.375
 20
-1641.098
 30
4535.150
 70
    32
  0
VERTEX
  8
T07SSILL
 62
2
 10
1035.269
 20
-1648.905
 30
4535.150
 70
    32
  0
SEQEND
  8
T07SSILL
  0
POLYLINE
  8
T07SSILL
 62
2
 66
     1
 70
     9
  0
VERTEX
  8
T07SSILL
 62
2
 10
905.626
 20
-1582.492
 30
4535.150
 70
    32
  0
VERTEX
  8
T07SSILL
 62
2
 10
990.643
 20
-1491.386
 30
4535.150
 70
    32
  0
VERTEX
  8
T07SSILL
 62
2
 10
990.710
 20
-1500.681
 30
4535.150
 70
    32
  0
VERTEX
  8
T07SSILL
 62
2
 10
984.309
 20
-1525.104
 30
4535.150
 70
    32
  0
VERTEX
  8
T07SSILL
 62
2
 10
983.743
 20
-1531.772
 30
4535.150
 70
    32
  0
VERTEX
  8
T07SSILL
 62
2
 10
989.423
 20
-1565.579
 30
4535.150
 70
    32
  0
VERTEX
  8
T07SSILL
 62
2
 10
1001.977
 20
-1616.436
 30
4535.150
 70
    32
  0
VERTEX
  8
T07SSILL
 62
2
 10
1005.989
 20
-1625.527
 30
4535.150
 70
    32
  0
VERTEX
  8
T07SSILL
 62
2
 10
1005.317
 20
-1629.653
 30
4535.150
 70
    32
  0
VERTEX
  8
T07SSILL
 62
2
 10
1001.735
 20
-1631.520
 30
4535.150
 70
    32
  0
VERTEX
  8
T07SSILL
 62
2
 10
994.785
 20
-1628.414
 30
4535.150
 70
    32
  0
SEQEND
  8
T07SSILL
  0
POLYLINE
  8
T07SSILL
 62
2
 66
     1
 70
     9
  0
VERTEX
  8
T07SSILL
 62
2
 10
825.011
 20
-1663.745
 30
4535.150
 70
    32
  0
VERTEX
  8
T07SSILL
 62
2
 10
824.204
 20
-1673.484
 30
4535.150
 70
    32
  0
VERTEX
  8
T07SSILL
 62
2
 10
810.693
 20
-1684.630
 30
4535.150
 70
    32
  0
VERTEX
  8
T07SSILL
 62
2
 10
806.211
 20
-1671.071
 30
4535.150
 70
    32
  0
VERTEX
  8
T07SSILL
 62
2
 10
795.115
 20
-1652.297
 30
4535.150
 70
    32
  0
VERTEX
  8
T07SSILL
 62
2
 10
800.084
 20
-1648.316
 30
4535.150
 70
    32
  0
VERTEX
  8
T07SSILL
 62
2
 10
796.018
 20
-1643.785
 30
4535.150
 70
    32
  0
VERTEX
  8
T07SSILL
 62
2
 10
800.637
 20
-1639.806
 30
4535.150
 70
    32
  0
VERTEX
  8
T07SSILL
 62
2
 10
803.791
 20
-1639.433
 30
4535.150
 70
    32
  0
SEQEND
  8
T07SSILL
  0
POLYLINE
  8
T07SSILL
 62
2
 66
     1
 70
     9
  0
VERTEX
  8
T07SSILL
 62
2
 10
745.118
 20
-1528.402
 30
4535.150
 70
    32
  0
VERTEX
  8
T07SSILL
 62
2
 10
764.926
 20
-1514.844
 30
4535.150
 70
    32
  0
VERTEX
  8
T07SSILL
 62
2
 10
771.765
 20
-1502.606
 30
4535.150
 70
    32
  0
VERTEX
  8
T07SSILL
 62
2
 10
690.393
 20
-1332.198
 30
4535.150
 70
    32
  0
VERTEX
  8
T07SSILL
 62
2
 10
679.489
 20
-1315.703
 30
4535.150
 70
    32
  0
VERTEX
  8
T07SSILL
 62
2
 10
672.118
 20
-1315.055
 30
4535.150
 70
    32
  0
VERTEX
  8
T07SSILL
 62
2
 10
634.994
 20
-1347.240
 30
4535.150
 70
    32
  0
VERTEX
  8
T07SSILL
 62
2
 10
634.316
 20
-1350.490
 30
4535.150
 70
    32
  0
VERTEX
  8
T07SSILL
 62
2
 10
640.422
 20
-1358.163
 30
4535.150
 70
    32
  0
VERTEX
  8
T07SSILL
 62
2
 10
642.045
 20
-1364.464
 30
4535.150
 70
    32
  0
VERTEX
  8
T07SSILL
 62
2
 10
640.688
 20
-1383.064
 30
4535.150
 70
    32
  0
VERTEX
  8
T07SSILL
 62
2
 10
645.482
 20
-1391.185
 30
4535.150
 70
    32
  0
VERTEX
  8
T07SSILL
 62
2
 10
658.070
 20
-1422.311
 30
4535.150
 70
    32
  0
VERTEX
  8
T07SSILL
 62
2
 10
701.151
 20
-1474.702
 30
4535.150
 70
    32
  0
VERTEX
  8
T07SSILL
 62
2
 10
705.859
 20
-1470.986
 30
4535.150
 70
    32
  0
VERTEX
  8
T07SSILL
 62
2
 10
717.354
 20
-1484.232
 30
4535.150
 70
    32
  0
VERTEX
  8
T07SSILL
 62
2
 10
712.207
 20
-1487.864
 30
4535.150
 70
    32
  0
SEQEND
  8
T07SSILL
  0
POLYLINE
  8
T07SSILL
 62
2
 66
     1
 70
     9
  0
VERTEX
  8
T07SSILL
 62
2
 10
627.498
 20
-1365.709
 30
4535.150
 70
    32
  0
VERTEX
  8
T07SSILL
 62
2
 10
628.618
 20
-1375.171
 30
4535.150
 70
    32
  0
VERTEX
  8
T07SSILL
 62
2
 10
626.679
 20
-1385.883
 30
4535.150
 70
    32
  0
VERTEX
  8
T07SSILL
 62
2
 10
622.017
 20
-1396.089
 30
4535.150
 70
    32
  0
VERTEX
  8
T07SSILL
 62
2
 10
610.176
 20
-1407.836
 30
4535.150
 70
    32
  0
VERTEX
  8
T07SSILL
 62
2
 10
596.734
 20
-1416.526
 30
4535.150
 70
    32
  0
VERTEX
  8
T07SSILL
 62
2
 10
598.714
 20
-1411.426
 30
4535.150
 70
    32
  0
VERTEX
  8
T07SSILL
 62
2
 10
616.825
 20
-1393.495
 30
4535.150
 70
    32
  0
VERTEX
  8
T07SSILL
 62
2
 10
619.152
 20
-1387.954
 30
4535.150
 70
    32
  0
VERTEX
  8
T07SSILL
 62
2
 10
612.933
 20
-1376.687
 30
4535.150
 70
    32
  0
SEQEND
  8
T07SSILL
  0
POLYLINE
  8
T07SSILL
 62
2
 66
     1
 70
     9
  0
VERTEX
  8
T07SSILL
 62
2
 10
550.496
 20
-1461.668
 30
4535.150
 70
    32
  0
VERTEX
  8
T07SSILL
 62
2
 10
623.931
 20
-1406.247
 30
4535.150
 70
    32
  0
VERTEX
  8
T07SSILL
 62
2
 10
626.909
 20
-1405.699
 30
4535.150
 70
    32
  0
VERTEX
  8
T07SSILL
 62
2
 10
625.583
 20
-1428.595
 30
4535.150
 70
    32
  0
VERTEX
  8
T07SSILL
 62
2
 10
597.425
 20
-1451.685
 30
4535.150
 70
    32
  0
VERTEX
  8
T07SSILL
 62
2
 10
600.614
 20
-1456.134
 30
4535.150
 70
    32
  0
VERTEX
  8
T07SSILL
 62
2
 10
555.196
 20
-1493.377
 30
4535.150
 70
    32
  0
VERTEX
  8
T07SSILL
 62
2
 10
566.961
 20
-1507.586
 30
4535.150
 70
    32
  0
VERTEX
  8
T07SSILL
 62
2
 10
571.493
 20
-1503.783
 30
4535.150
 70
    32
  0
VERTEX
  8
T07SSILL
 62
2
 10
578.576
 20
-1513.202
 30
4535.150
 70
    32
  0
VERTEX
  8
T07SSILL
 62
2
 10
529.980
 20
-1535.211
 30
4535.150
 70
    32
  0
VERTEX
  8
T07SSILL
 62
2
 10
525.619
 20
-1538.574
 30
4535.150
 70
    32
  0
VERTEX
  8
T07SSILL
 62
2
 10
504.365
 20
-1509.527
 30
4535.150
 70
    32
  0
VERTEX
  8
T07SSILL
 62
2
 10
508.989
 20
-1506.161
 30
4535.150
 70
    32
  0
VERTEX
  8
T07SSILL
 62
2
 10
495.694
 20
-1486.527
 30
4535.150
 70
    32
  0
VERTEX
  8
T07SSILL
 62
2
 10
476.503
 20
-1500.432
 30
4535.150
 70
    32
  0
VERTEX
  8
T07SSILL
 62
2
 10
469.330
 20
-1490.750
 30
4535.150
 70
    32
  0
VERTEX
  8
T07SSILL
 62
2
 10
464.355
 20
-1493.943
 30
4535.150
 70
    32
  0
VERTEX
  8
T07SSILL
 62
2
 10
447.345
 20
-1469.775
 30
4535.150
 70
    32
  0
VERTEX
  8
T07SSILL
 62
2
 10
512.776
 20
-1423.093
 30
4535.150
 70
    32
  0
VERTEX
  8
T07SSILL
 62
2
 10
525.781
 20
-1439.134
 30
4535.150
 70
    32
  0
VERTEX
  8
T07SSILL
 62
2
 10
607.613
 20
-1380.671
 30
4535.150
 70
    32
  0
VERTEX
  8
T07SSILL
 62
2
 10
610.454
 20
-1385.561
 30
4535.150
 70
    32
  0
VERTEX
  8
T07SSILL
 62
2
 10
610.492
 20
-1390.822
 30
4535.150
 70
    32
  0
VERTEX
  8
T07SSILL
 62
2
 10
608.158
 20
-1395.487
 30
4535.150
 70
    32
  0
VERTEX
  8
T07SSILL
 62
2
 10
589.083
 20
-1413.512
 30
4535.150
 70
    32
  0
VERTEX
  8
T07SSILL
 62
2
 10
589.247
 20
-1424.034
 30
4535.150
 70
    32
  0
VERTEX
  8
T07SSILL
 62
2
 10
546.340
 20
-1456.875
 30
4535.150
 70
    32
  0
SEQEND
  8
T07SSILL
  0
POLYLINE
  8
T07SSILL
 62
2
 66
     1
 70
     9
  0
VERTEX
  8
T07SSILL
 62
2
 10
604.798
 20
-1269.766
 30
4535.150
 70
    32
  0
VERTEX
  8
T07SSILL
 62
2
 10
600.089
 20
-1273.307
 30
4535.150
 70
    32
  0
VERTEX
  8
T07SSILL
 62
2
 10
598.833
 20
-1281.646
 30
4535.150
 70
    32
  0
VERTEX
  8
T07SSILL
 62
2
 10
630.271
 20
-1324.563
 30
4535.150
 70
    32
  0
VERTEX
  8
T07SSILL
 62
2
 10
636.511
 20
-1326.535
 30
4535.150
 70
    32
  0
VERTEX
  8
T07SSILL
 62
2
 10
665.659
 20
-1307.034
 30
4535.150
 70
    32
  0
VERTEX
  8
T07SSILL
 62
2
 10
668.265
 20
-1303.595
 30
4535.150
 70
    32
  0
VERTEX
  8
T07SSILL
 62
2
 10
667.792
 20
-1298.776
 30
4535.150
 70
    32
  0
VERTEX
  8
T07SSILL
 62
2
 10
647.155
 20
-1270.250
 30
4535.150
 70
    32
  0
VERTEX
  8
T07SSILL
 62
2
 10
639.535
 20
-1271.445
 30
4535.150
 70
    32
  0
VERTEX
  8
T07SSILL
 62
2
 10
631.921
 20
-1261.328
 30
4535.150
 70
    32
  0
VERTEX
  8
T07SSILL
 62
2
 10
628.471
 20
-1244.955
 30
4535.150
 70
    32
  0
VERTEX
  8
T07SSILL
 62
2
 10
571.608
 20
-1166.006
 30
4535.150
 70
    32
  0
VERTEX
  8
T07SSILL
 62
2
 10
557.991
 20
-1162.508
 30
4535.150
 70
    32
  0
VERTEX
  8
T07SSILL
 62
2
 10
541.064
 20
-1162.104
 30
4535.150
 70
    32
  0
VERTEX
  8
T07SSILL
 62
2
 10
526.612
 20
-1164.488
 30
4535.150
 70
    32
  0
VERTEX
  8
T07SSILL
 62
2
 10
526.118
 20
-1168.876
 30
4535.150
 70
    32
  0
VERTEX
  8
T07SSILL
 62
2
 10
544.633
 20
-1195.049
 30
4535.150
 70
    32
  0
VERTEX
  8
T07SSILL
 62
2
 10
553.791
 20
-1188.144
 30
4535.150
 70
    32
  0
VERTEX
  8
T07SSILL
 62
2
 10
571.508
 20
-1213.095
 30
4535.150
 70
    32
  0
VERTEX
  8
T07SSILL
 62
2
 10
576.309
 20
-1210.079
 30
4535.150
 70
    32
  0
VERTEX
  8
T07SSILL
 62
2
 10
586.667
 20
-1223.772
 30
4535.150
 70
    32
  0
VERTEX
  8
T07SSILL
 62
2
 10
581.960
 20
-1227.752
 30
4535.150
 70
    32
  0
VERTEX
  8
T07SSILL
 62
2
 10
592.497
 20
-1241.969
 30
4535.150
 70
    32
  0
VERTEX
  8
T07SSILL
 62
2
 10
587.439
 20
-1245.776
 30
4535.150
 70
    32
  0
SEQEND
  8
T07SSILL
  0
POLYLINE
  8
T07SSILL
 62
2
 66
     1
 70
     9
  0
VERTEX
  8
T07SSILL
 62
2
 10
597.003
 20
-1295.427
 30
4535.150
 70
    32
  0
VERTEX
  8
T07SSILL
 62
2
 10
567.002
 20
-1318.178
 30
4535.150
 70
    32
  0
VERTEX
  8
T07SSILL
 62
2
 10
571.991
 20
-1329.104
 30
4535.150
 70
    32
  0
VERTEX
  8
T07SSILL
 62
2
 10
577.750
 20
-1349.581
 30
4535.150
 70
    32
  0
VERTEX
  8
T07SSILL
 62
2
 10
588.050
 20
-1343.018
 30
4535.150
 70
    32
  0
VERTEX
  8
T07SSILL
 62
2
 10
607.766
 20
-1341.035
 30
4535.150
 70
    32
  0
VERTEX
  8
T07SSILL
 62
2
 10
616.429
 20
-1338.430
 30
4535.150
 70
    32
  0
VERTEX
  8
T07SSILL
 62
2
 10
618.450
 20
-1326.928
 30
4535.150
 70
    32
  0
SEQEND
  8
T07SSILL
  0
POLYLINE
  8
T07SSILL
 62
2
 66
     1
 70
     9
  0
VERTEX
  8
T07SSILL
 62
2
 10
502.935
 20
-1408.169
 30
4535.150
 70
    32
  0
VERTEX
  8
T07SSILL
 62
2
 10
501.073
 20
-1405.376
 30
4535.150
 70
    32
  0
VERTEX
  8
T07SSILL
 62
2
 10
529.004
 20
-1387.287
 30
4535.150
 70
    32
  0
VERTEX
  8
T07SSILL
 62
2
 10
530.456
 20
-1381.928
 30
4535.150
 70
    32
  0
VERTEX
  8
T07SSILL
 62
2
 10
528.053
 20
-1377.034
 30
4535.150
 70
    32
  0
VERTEX
  8
T07SSILL
 62
2
 10
519.902
 20
-1377.531
 30
4535.150
 70
    32
  0
VERTEX
  8
T07SSILL
 62
2
 10
514.628
 20
-1375.816
 30
4535.150
 70
    32
  0
VERTEX
  8
T07SSILL
 62
2
 10
493.480
 20
-1349.310
 30
4535.150
 70
    32
  0
VERTEX
  8
T07SSILL
 62
2
 10
474.350
 20
-1359.620
 30
4535.150
 70
    32
  0
VERTEX
  8
T07SSILL
 62
2
 10
470.134
 20
-1358.598
 30
4535.150
 70
    32
  0
VERTEX
  8
T07SSILL
 62
2
 10
411.419
 20
-1400.321
 30
4535.150
 70
    32
  0
VERTEX
  8
T07SSILL
 62
2
 10
432.500
 20
-1429.633
 30
4535.150
 70
    32
  0
VERTEX
  8
T07SSILL
 62
2
 10
448.678
 20
-1447.844
 30
4535.150
 70
    32
  0
SEQEND
  8
T07SSILL
  0
POLYLINE
  8
T07SSILL
 62
2
 66
     1
 70
     9
  0
VERTEX
  8
T07SSILL
 62
2
 10
525.948
 20
-1340.396
 30
4535.150
 70
    32
  0
VERTEX
  8
T07SSILL
 62
2
 10
518.173
 20
-1332.209
 30
4535.150
 70
    32
  0
VERTEX
  8
T07SSILL
 62
2
 10
498.299
 20
-1336.561
 30
4535.150
 70
    32
  0
VERTEX
  8
T07SSILL
 62
2
 10
472.239
 20
-1346.569
 30
4535.150
 70
    32
  0
VERTEX
  8
T07SSILL
 62
2
 10
461.180
 20
-1345.070
 30
4535.150
 70
    32
  0
VERTEX
  8
T07SSILL
 62
2
 10
435.147
 20
-1309.919
 30
4535.150
 70
    32
  0
VERTEX
  8
T07SSILL
 62
2
 10
376.784
 20
-1351.815
 30
4535.150
 70
    32
  0
VERTEX
  8
T07SSILL
 62
2
 10
365.980
 20
-1336.986
 30
4535.150
 70
    32
  0
VERTEX
  8
T07SSILL
 62
2
 10
370.954
 20
-1333.706
 30
4535.150
 70
    32
  0
VERTEX
  8
T07SSILL
 62
2
 10
360.762
 20
-1318.609
 30
4535.150
 70
    32
  0
VERTEX
  8
T07SSILL
 62
2
 10
361.612
 20
-1290.543
 30
4535.150
 70
    32
  0
VERTEX
  8
T07SSILL
 62
2
 10
367.888
 20
-1285.236
 30
4535.150
 70
    32
  0
VERTEX
  8
T07SSILL
 62
2
 10
372.028
 20
-1287.925
 30
4535.150
 70
    32
  0
VERTEX
  8
T07SSILL
 62
2
 10
374.062
 20
-1302.466
 30
4535.150
 70
    32
  0
VERTEX
  8
T07SSILL
 62
2
 10
377.258
 20
-1307.880
 30
4535.150
 70
    32
  0
VERTEX
  8
T07SSILL
 62
2
 10
382.254
 20
-1307.669
 30
4535.150
 70
    32
  0
VERTEX
  8
T07SSILL
 62
2
 10
380.800
 20
-1288.300
 30
4535.150
 70
    32
  0
VERTEX
  8
T07SSILL
 62
2
 10
385.703
 20
-1287.213
 30
4535.150
 70
    32
  0
VERTEX
  8
T07SSILL
 62
2
 10
385.729
 20
-1266.518
 30
4535.150
 70
    32
  0
VERTEX
  8
T07SSILL
 62
2
 10
393.804
 20
-1255.411
 30
4535.150
 70
    32
  0
VERTEX
  8
T07SSILL
 62
2
 10
397.306
 20
-1254.597
 30
4535.150
 70
    32
  0
VERTEX
  8
T07SSILL
 62
2
 10
509.927
 20
-1173.201
 30
4535.150
 70
    32
  0
VERTEX
  8
T07SSILL
 62
2
 10
591.424
 20
-1287.750
 30
4535.150
 70
    32
  0
VERTEX
  8
T07SSILL
 62
2
 10
588.998
 20
-1291.889
 30
4535.150
 70
    32
  0
SEQEND
  8
T07SSILL
  0
POLYLINE
  8
T07SSILL
 62
2
 66
     1
 70
     9
  0
VERTEX
  8
T07SSILL
 62
2
 10
221.262
 20
-1637.483
 30
4535.150
 70
    32
  0
VERTEX
  8
T07SSILL
 62
2
 10
225.268
 20
-1633.596
 30
4535.150
 70
    32
  0
VERTEX
  8
T07SSILL
 62
2
 10
221.894
 20
-1627.745
 30
4535.150
 70
    32
  0
VERTEX
  8
T07SSILL
 62
2
 10
220.794
 20
-1621.176
 30
4535.150
 70
    32
  0
VERTEX
  8
T07SSILL
 62
2
 10
223.210
 20
-1615.635
 30
4535.150
 70
    32
  0
VERTEX
  8
T07SSILL
 62
2
 10
247.902
 20
-1598.445
 30
4535.150
 70
    32
  0
VERTEX
  8
T07SSILL
 62
2
 10
251.520
 20
-1601.664
 30
4535.150
 70
    32
  0
VERTEX
  8
T07SSILL
 62
2
 10
260.029
 20
-1614.318
 30
4535.150
 70
    32
  0
VERTEX
  8
T07SSILL
 62
2
 10
265.353
 20
-1622.960
 30
4535.150
 70
    32
  0
VERTEX
  8
T07SSILL
 62
2
 10
268.584
 20
-1633.372
 30
4535.150
 70
    32
  0
VERTEX
  8
T07SSILL
 62
2
 10
275.846
 20
-1643.229
 30
4535.150
 70
    32
  0
VERTEX
  8
T07SSILL
 62
2
 10
281.347
 20
-1640.032
 30
4535.150
 70
    32
  0
VERTEX
  8
T07SSILL
 62
2
 10
287.549
 20
-1648.932
 30
4535.150
 70
    32
  0
VERTEX
  8
T07SSILL
 62
2
 10
282.405
 20
-1653.003
 30
4535.150
 70
    32
  0
VERTEX
  8
T07SSILL
 62
2
 10
286.124
 20
-1657.974
 30
4535.150
 70
    32
  0
VERTEX
  8
T07SSILL
 62
2
 10
291.445
 20
-1654.078
 30
4535.150
 70
    32
  0
VERTEX
  8
T07SSILL
 62
2
 10
305.436
 20
-1673.093
 30
4535.150
 70
    32
  0
VERTEX
  8
T07SSILL
 62
2
 10
310.412
 20
-1669.988
 30
4535.150
 70
    32
  0
VERTEX
  8
T07SSILL
 62
2
 10
317.322
 20
-1679.760
 30
4535.150
 70
    32
  0
VERTEX
  8
T07SSILL
 62
2
 10
322.645
 20
-1676.126
 30
4535.150
 70
    32
  0
VERTEX
  8
T07SSILL
 62
2
 10
325.747
 20
-1680.751
 30
4535.150
 70
    32
  0
VERTEX
  8
T07SSILL
 62
2
 10
330.195
 20
-1677.300
 30
4535.150
 70
    32
  0
VERTEX
  8
T07SSILL
 62
2
 10
337.104
 20
-1686.983
 30
4535.150
 70
    32
  0
VERTEX
  8
T07SSILL
 62
2
 10
344.397
 20
-1689.123
 30
4535.150
 70
    32
  0
VERTEX
  8
T07SSILL
 62
2
 10
342.956
 20
-1695.973
 30
4535.150
 70
    32
  0
VERTEX
  8
T07SSILL
 62
2
 10
340.450
 20
-1701.077
 30
4535.150
 70
    32
  0
VERTEX
  8
T07SSILL
 62
2
 10
323.083
 20
-1712.601
 30
4535.150
 70
    32
  0
VERTEX
  8
T07SSILL
 62
2
 10
306.126
 20
-1720.265
 30
4535.150
 70
    32
  0
VERTEX
  8
T07SSILL
 62
2
 10
300.867
 20
-1720.565
 30
4535.150
 70
    32
  0
VERTEX
  8
T07SSILL
 62
2
 10
261.930
 20
-1695.679
 30
4535.150
 70
    32
  0
SEQEND
  8
T07SSILL
  0
POLYLINE
  8
T07SSILL
 62
2
 66
     1
 70
     9
  0
VERTEX
  8
T07SSILL
 62
2
 10
138.056
 20
-1492.518
 30
4535.150
 70
    32
  0
VERTEX
  8
T07SSILL
 62
2
 10
145.190
 20
-1484.663
 30
4535.150
 70
    32
  0
VERTEX
  8
T07SSILL
 62
2
 10
158.022
 20
-1476.679
 30
4535.150
 70
    32
  0
VERTEX
  8
T07SSILL
 62
2
 10
165.546
 20
-1486.446
 30
4535.150
 70
    32
  0
VERTEX
  8
T07SSILL
 62
2
 10
178.325
 20
-1507.487
 30
4535.150
 70
    32
  0
VERTEX
  8
T07SSILL
 62
2
 10
173.349
 20
-1510.679
 30
4535.150
 70
    32
  0
VERTEX
  8
T07SSILL
 62
2
 10
197.795
 20
-1544.527
 30
4535.150
 70
    32
  0
VERTEX
  8
T07SSILL
 62
2
 10
202.947
 20
-1541.508
 30
4535.150
 70
    32
  0
VERTEX
  8
T07SSILL
 62
2
 10
240.680
 20
-1594.025
 30
4535.150
 70
    32
  0
VERTEX
  8
T07SSILL
 62
2
 10
215.902
 20
-1611.566
 30
4535.150
 70
    32
  0
VERTEX
  8
T07SSILL
 62
2
 10
193.658
 20
-1591.207
 30
4535.150
 70
    32
  0
VERTEX
  8
T07SSILL
 62
2
 10
183.090
 20
-1584.794
 30
4535.150
 70
    32
  0
VERTEX
  8
T07SSILL
 62
2
 10
145.534
 20
-1532.538
 30
4535.150
 70
    32
  0
SEQEND
  8
T07SSILL
  0
POLYLINE
  8
T07SSILL
 62
2
 66
     1
 70
     9
  0
VERTEX
  8
T07SSILL
 62
2
 10
380.519
 20
-1676.148
 30
4535.150
 70
    32
  0
VERTEX
  8
T07SSILL
 62
2
 10
373.213
 20
-1660.066
 30
4535.150
 70
    32
  0
VERTEX
  8
T07SSILL
 62
2
 10
372.292
 20
-1653.935
 30
4535.150
 70
    32
  0
VERTEX
  8
T07SSILL
 62
2
 10
368.929
 20
-1649.575
 30
4535.150
 70
    32
  0
VERTEX
  8
T07SSILL
 62
2
 10
354.448
 20
-1660.026
 30
4535.150
 70
    32
  0
VERTEX
  8
T07SSILL
 62
2
 10
357.816
 20
-1665.088
 30
4535.150
 70
    32
  0
VERTEX
  8
T07SSILL
 62
2
 10
353.281
 20
-1668.540
 30
4535.150
 70
    32
  0
VERTEX
  8
T07SSILL
 62
2
 10
364.159
 20
-1681.352
 30
4535.150
 70
    32
  0
VERTEX
  8
T07SSILL
 62
2
 10
368.998
 20
-1683.597
 30
4535.150
 70
    32
  0
SEQEND
  8
T07SSILL
  0
POLYLINE
  8
T07SSILL
 62
2
 66
     1
 70
     9
  0
VERTEX
  8
T07SSILL
 62
2
 10
457.836
 20
-1660.510
 30
4535.150
 70
    32
  0
VERTEX
  8
T07SSILL
 62
2
 10
520.821
 20
-1615.161
 30
4535.150
 70
    32
  0
VERTEX
  8
T07SSILL
 62
2
 10
506.208
 20
-1595.010
 30
4535.150
 70
    32
  0
VERTEX
  8
T07SSILL
 62
2
 10
461.894
 20
-1627.335
 30
4535.150
 70
    32
  0
VERTEX
  8
T07SSILL
 62
2
 10
456.301
 20
-1630.006
 30
4535.150
 70
    32
  0
VERTEX
  8
T07SSILL
 62
2
 10
451.369
 20
-1651.349
 30
4535.150
 70
    32
  0
SEQEND
  8
T07SSILL
  0
POLYLINE
  8
T07SSILL
 62
2
 66
     1
 70
     9
  0
VERTEX
  8
T07SSILL
 62
2
 10
339.757
 20
-1568.146
 30
4535.150
 70
    32
  0
VERTEX
  8
T07SSILL
 62
2
 10
332.675
 20
-1546.713
 30
4535.150
 70
    32
  0
VERTEX
  8
T07SSILL
 62
2
 10
358.240
 20
-1528.904
 30
4535.150
 70
    32
  0
VERTEX
  8
T07SSILL
 62
2
 10
366.352
 20
-1535.072
 30
4535.150
 70
    32
  0
VERTEX
  8
T07SSILL
 62
2
 10
376.286
 20
-1550.784
 30
4535.150
 70
    32
  0
VERTEX
  8
T07SSILL
 62
2
 10
380.446
 20
-1568.380
 30
4535.150
 70
    32
  0
VERTEX
  8
T07SSILL
 62
2
 10
358.466
 20
-1584.673
 30
4535.150
 70
    32
  0
VERTEX
  8
T07SSILL
 62
2
 10
354.745
 20
-1579.350
 30
4535.150
 70
    32
  0
VERTEX
  8
T07SSILL
 62
2
 10
350.034
 20
-1582.804
 30
4535.150
 70
    32
  0
SEQEND
  8
T07SSILL
  0
POLYLINE
  8
T07SSILL
 62
2
 66
     1
 70
     9
  0
VERTEX
  8
T07SSILL
 62
2
 10
395.873
 20
-1543.102
 30
4535.150
 70
    32
  0
VERTEX
  8
T07SSILL
 62
2
 10
386.542
 20
-1513.706
 30
4535.150
 70
    32
  0
VERTEX
  8
T07SSILL
 62
2
 10
387.731
 20
-1508.348
 30
4535.150
 70
    32
  0
VERTEX
  8
T07SSILL
 62
2
 10
436.702
 20
-1477.481
 30
4535.150
 70
    32
  0
VERTEX
  8
T07SSILL
 62
2
 10
454.499
 20
-1501.292
 30
4535.150
 70
    32
  0
VERTEX
  8
T07SSILL
 62
2
 10
449.966
 20
-1505.095
 30
4535.150
 70
    32
  0
VERTEX
  8
T07SSILL
 62
2
 10
456.524
 20
-1514.694
 30
4535.150
 70
    32
  0
VERTEX
  8
T07SSILL
 62
2
 10
402.871
 20
-1552.873
 30
4535.150
 70
    32
  0
SEQEND
  8
T07SSILL
  0
POLYLINE
  8
T07SSILL
 62
2
 66
     1
 70
     9
  0
VERTEX
  8
T07SSILL
 62
2
 10
318.609
 20
-1529.452
 30
4535.150
 70
    32
  0
VERTEX
  8
T07SSILL
 62
2
 10
315.532
 20
-1528.422
 30
4535.150
 70
    32
  0
VERTEX
  8
T07SSILL
 62
2
 10
308.561
 20
-1510.058
 30
4535.150
 70
    32
  0
VERTEX
  8
T07SSILL
 62
2
 10
308.421
 20
-1502.868
 30
4535.150
 70
    32
  0
VERTEX
  8
T07SSILL
 62
2
 10
294.608
 20
-1484.202
 30
4535.150
 70
    32
  0
VERTEX
  8
T07SSILL
 62
2
 10
314.409
 20
-1469.767
 30
4535.150
 70
    32
  0
VERTEX
  8
T07SSILL
 62
2
 10
317.950
 20
-1474.389
 30
4535.150
 70
    32
  0
VERTEX
  8
T07SSILL
 62
2
 10
322.487
 20
-1471.287
 30
4535.150
 70
    32
  0
VERTEX
  8
T07SSILL
 62
2
 10
346.776
 20
-1507.678
 30
4535.150
 70
    32
  0
VERTEX
  8
T07SSILL
 62
2
 10
347.071
 20
-1512.236
 30
4535.150
 70
    32
  0
SEQEND
  8
T07SSILL
  0
POLYLINE
  8
T07SSILL
 62
2
 66
     1
 70
     9
  0
VERTEX
  8
T07SSILL
 62
2
 10
365.042
 20
-1499.304
 30
4535.150
 70
    32
  0
VERTEX
  8
T07SSILL
 62
2
 10
351.033
 20
-1477.834
 30
4535.150
 70
    32
  0
VERTEX
  8
T07SSILL
 62
2
 10
344.871
 20
-1462.357
 30
4535.150
 70
    32
  0
VERTEX
  8
T07SSILL
 62
2
 10
337.785
 20
-1452.499
 30
4535.150
 70
    32
  0
VERTEX
  8
T07SSILL
 62
2
 10
352.880
 20
-1442.043
 30
4535.150
 70
    32
  0
VERTEX
  8
T07SSILL
 62
2
 10
356.597
 20
-1446.752
 30
4535.150
 70
    32
  0
VERTEX
  8
T07SSILL
 62
2
 10
390.621
 20
-1422.393
 30
4535.150
 70
    32
  0
VERTEX
  8
T07SSILL
 62
2
 10
394.603
 20
-1427.450
 30
4535.150
 70
    32
  0
VERTEX
  8
T07SSILL
 62
2
 10
399.137
 20
-1423.910
 30
4535.150
 70
    32
  0
VERTEX
  8
T07SSILL
 62
2
 10
407.662
 20
-1438.756
 30
4535.150
 70
    32
  0
VERTEX
  8
T07SSILL
 62
2
 10
424.831
 20
-1460.642
 30
4535.150
 70
    32
  0
VERTEX
  8
T07SSILL
 62
2
 10
424.245
 20
-1464.505
 30
4535.150
 70
    32
  0
VERTEX
  8
T07SSILL
 62
2
 10
387.255
 20
-1490.902
 30
4535.150
 70
    32
  0
VERTEX
  8
T07SSILL
 62
2
 10
383.712
 20
-1486.017
 30
4535.150
 70
    32
  0
SEQEND
  8
T07SSILL
  0
POLYLINE
  8
T07SSILL
 62
2
 66
     1
 70
     9
  0
VERTEX
  8
T07SSILL
 62
2
 10
109.594
 20
-1363.470
 30
4535.150
 70
    32
  0
VERTEX
  8
T07SSILL
 62
2
 10
128.622
 20
-1351.232
 30
4535.150
 70
    32
  0
VERTEX
  8
T07SSILL
 62
2
 10
130.685
 20
-1357.706
 30
4535.150
 70
    32
  0
VERTEX
  8
T07SSILL
 62
2
 10
143.793
 20
-1375.764
 30
4535.150
 70
    32
  0
VERTEX
  8
T07SSILL
 62
2
 10
142.219
 20
-1412.955
 30
4535.150
 70
    32
  0
VERTEX
  8
T07SSILL
 62
2
 10
162.083
 20
-1456.043
 30
4535.150
 70
    32
  0
VERTEX
  8
T07SSILL
 62
2
 10
156.837
 20
-1470.373
 30
4535.150
 70
    32
  0
VERTEX
  8
T07SSILL
 62
2
 10
148.359
 20
-1474.205
 30
4535.150
 70
    32
  0
VERTEX
  8
T07SSILL
 62
2
 10
137.150
 20
-1476.390
 30
4535.150
 70
    32
  0
VERTEX
  8
T07SSILL
 62
2
 10
132.256
 20
-1466.429
 30
4535.150
 70
    32
  0
VERTEX
  8
T07SSILL
 62
2
 10
127.540
 20
-1444.716
 30
4535.150
 70
    32
  0
SEQEND
  8
T07SSILL
  0
POLYLINE
  8
T07SSILL
 62
2
 66
     1
 70
     9
  0
VERTEX
  8
T07SSILL
 62
2
 10
219.834
 20
-1463.256
 30
4535.150
 70
    32
  0
VERTEX
  8
T07SSILL
 62
2
 10
207.356
 20
-1471.852
 30
4535.150
 70
    32
  0
VERTEX
  8
T07SSILL
 62
2
 10
197.878
 20
-1458.504
 30
4535.150
 70
    32
  0
VERTEX
  8
T07SSILL
 62
2
 10
185.161
 20
-1470.433
 30
4535.150
 70
    32
  0
VERTEX
  8
T07SSILL
 62
2
 10
179.277
 20
-1457.059
 30
4535.150
 70
    32
  0
VERTEX
  8
T07SSILL
 62
2
 10
204.154
 20
-1441.184
 30
4535.150
 70
    32
  0
SEQEND
  8
T07SSILL
  0
POLYLINE
  8
T07SSILL
 62
2
 66
     1
 70
     9
  0
VERTEX
  8
T07SSILL
 62
2
 10
198.921
 20
-1432.891
 30
4535.150
 70
    32
  0
VERTEX
  8
T07SSILL
 62
2
 10
177.973
 20
-1446.370
 30
4535.150
 70
    32
  0
VERTEX
  8
T07SSILL
 62
2
 10
178.430
 20
-1436.721
 30
4535.150
 70
    32
  0
VERTEX
  8
T07SSILL
 62
2
 10
159.241
 20
-1402.222
 30
4535.150
 70
    32
  0
VERTEX
  8
T07SSILL
 62
2
 10
155.034
 20
-1402.516
 30
4535.150
 70
    32
  0
VERTEX
  8
T07SSILL
 62
2
 10
149.363
 20
-1406.590
 30
4535.150
 70
    32
  0
VERTEX
  8
T07SSILL
 62
2
 10
148.659
 20
-1394.056
 30
4535.150
 70
    32
  0
VERTEX
  8
T07SSILL
 62
2
 10
151.105
 20
-1380.534
 30
4535.150
 70
    32
  0
VERTEX
  8
T07SSILL
 62
2
 10
157.641
 20
-1374.875
 30
4535.150
 70
    32
  0
SEQEND
  8
T07SSILL
  0
POLYLINE
  8
T07SSILL
 62
2
 66
     1
 70
     9
  0
VERTEX
  8
T07SSILL
 62
2
 10
382.849
 20
-1256.191
 30
4535.150
 70
    32
  0
VERTEX
  8
T07SSILL
 62
2
 10
344.519
 20
-1303.643
 30
4535.150
 70
    32
  0
VERTEX
  8
T07SSILL
 62
2
 10
329.243
 20
-1313.224
 30
4535.150
 70
    32
  0
VERTEX
  8
T07SSILL
 62
2
 10
313.059
 20
-1294.136
 30
4535.150
 70
    32
  0
VERTEX
  8
T07SSILL
 62
2
 10
366.633
 20
-1257.097
 30
4535.150
 70
    32
  0
SEQEND
  8
T07SSILL
  0
POLYLINE
  8
T07SSILL
 62
2
 66
     1
 70
     9
  0
VERTEX
  8
T07SSILL
 62
2
 10
641.172
 20
-2047.378
 30
4535.150
 70
    32
  0
VERTEX
  8
T07SSILL
 62
2
 10
644.402
 20
-2043.225
 30
4535.150
 70
    32
  0
VERTEX
  8
T07SSILL
 62
2
 10
665.514
 20
-2028.767
 30
4535.150
 70
    32
  0
VERTEX
  8
T07SSILL
 62
2
 10
668.875
 20
-2032.001
 30
4535.150
 70
    32
  0
VERTEX
  8
T07SSILL
 62
2
 10
673.696
 20
-2029.071
 30
4535.150
 70
    32
  0
VERTEX
  8
T07SSILL
 62
2
 10
676.885
 20
-2033.098
 30
4535.150
 70
    32
  0
VERTEX
  8
T07SSILL
 62
2
 10
681.706
 20
-2030.344
 30
4535.150
 70
    32
  0
VERTEX
  8
T07SSILL
 62
2
 10
701.925
 20
-2058.898
 30
4535.150
 70
    32
  0
VERTEX
  8
T07SSILL
 62
2
 10
705.013
 20
-2060.639
 30
4535.150
 70
    32
  0
VERTEX
  8
T07SSILL
 62
2
 10
712.359
 20
-2053.297
 30
4535.150
 70
    32
  0
VERTEX
  8
T07SSILL
 62
2
 10
713.196
 20
-2046.080
 30
4535.150
 70
    32
  0
VERTEX
  8
T07SSILL
 62
2
 10
709.996
 20
-2040.206
 30
4535.150
 70
    32
  0
VERTEX
  8
T07SSILL
 62
2
 10
704.695
 20
-2036.103
 30
4535.150
 70
    32
  0
VERTEX
  8
T07SSILL
 62
2
 10
700.335
 20
-2027.421
 30
4535.150
 70
    32
  0
VERTEX
  8
T07SSILL
 62
2
 10
704.502
 20
-2002.771
 30
4535.150
 70
    32
  0
VERTEX
  8
T07SSILL
 62
2
 10
708.794
 20
-1999.843
 30
4535.150
 70
    32
  0
VERTEX
  8
T07SSILL
 62
2
 10
719.414
 20
-1996.088
 30
4535.150
 70
    32
  0
VERTEX
  8
T07SSILL
 62
2
 10
795.039
 20
-1993.802
 30
4535.150
 70
    32
  0
VERTEX
  8
T07SSILL
 62
2
 10
796.547
 20
-1996.080
 30
4535.150
 70
    32
  0
VERTEX
  8
T07SSILL
 62
2
 10
778.098
 20
-2014.832
 30
4535.150
 70
    32
  0
VERTEX
  8
T07SSILL
 62
2
 10
770.946
 20
-2025.076
 30
4535.150
 70
    32
  0
VERTEX
  8
T07SSILL
 62
2
 10
758.776
 20
-2125.499
 30
4535.150
 70
    32
  0
VERTEX
  8
T07SSILL
 62
2
 10
747.152
 20
-2138.143
 30
4535.150
 70
    32
  0
VERTEX
  8
T07SSILL
 62
2
 10
726.378
 20
-2135.098
 30
4535.150
 70
    32
  0
VERTEX
  8
T07SSILL
 62
2
 10
683.381
 20
-2091.548
 30
4535.150
 70
    32
  0
SEQEND
  8
T07SSILL
  0
POLYLINE
  8
T07SSILL
 62
2
 66
     1
 70
     9
  0
VERTEX
  8
T07SSILL
 62
2
 10
812.095
 20
-1992.647
 30
4535.150
 70
    32
  0
VERTEX
  8
T07SSILL
 62
2
 10
799.752
 20
-2002.658
 30
4535.150
 70
    32
  0
VERTEX
  8
T07SSILL
 62
2
 10
788.033
 20
-2014.247
 30
4535.150
 70
    32
  0
VERTEX
  8
T07SSILL
 62
2
 10
778.527
 20
-2028.111
 30
4535.150
 70
    32
  0
VERTEX
  8
T07SSILL
 62
2
 10
767.726
 20
-2121.929
 30
4535.150
 70
    32
  0
VERTEX
  8
T07SSILL
 62
2
 10
771.205
 20
-2130.352
 30
4535.150
 70
    32
  0
VERTEX
  8
T07SSILL
 62
2
 10
776.888
 20
-2139.730
 30
4535.150
 70
    32
  0
VERTEX
  8
T07SSILL
 62
2
 10
1175.517
 20
-2176.114
 30
4535.150
 70
    32
  0
VERTEX
  8
T07SSILL
 62
2
 10
1146.238
 20
-2132.221
 30
4535.150
 70
    32
  0
VERTEX
  8
T07SSILL
 62
2
 10
1134.094
 20
-2130.972
 30
4535.150
 70
    32
  0
VERTEX
  8
T07SSILL
 62
2
 10
1130.727
 20
-2126.770
 30
4535.150
 70
    32
  0
VERTEX
  8
T07SSILL
 62
2
 10
1126.351
 20
-2130.489
 30
4535.150
 70
    32
  0
VERTEX
  8
T07SSILL
 62
2
 10
1069.522
 20
-2067.670
 30
4535.150
 70
    32
  0
VERTEX
  8
T07SSILL
 62
2
 10
1061.715
 20
-2056.018
 30
4535.150
 70
    32
  0
VERTEX
  8
T07SSILL
 62
2
 10
1049.429
 20
-2030.496
 30
4535.150
 70
    32
  0
VERTEX
  8
T07SSILL
 62
2
 10
1017.142
 20
-2028.924
 30
4535.150
 70
    32
  0
VERTEX
  8
T07SSILL
 62
2
 10
1003.844
 20
-2025.923
 30
4535.150
 70
    32
  0
VERTEX
  8
T07SSILL
 62
2
 10
994.360
 20
-2028.353
 30
4535.150
 70
    32
  0
VERTEX
  8
T07SSILL
 62
2
 10
982.039
 20
-2027.017
 30
4535.150
 70
    32
  0
VERTEX
  8
T07SSILL
 62
2
 10
968.173
 20
-2032.199
 30
4535.150
 70
    32
  0
VERTEX
  8
T07SSILL
 62
2
 10
950.035
 20
-2013.659
 30
4535.150
 70
    32
  0
VERTEX
  8
T07SSILL
 62
2
 10
847.617
 20
-1990.946
 30
4535.150
 70
    32
  0
SEQEND
  8
T07SSILL
  0
POLYLINE
  8
T07SSILL
 62
2
 66
     1
 70
     9
  0
VERTEX
  8
T07SSILL
 62
2
 10
1223.324
 20
-1972.582
 30
4535.150
 70
    32
  0
VERTEX
  8
T07SSILL
 62
2
 10
1236.054
 20
-1998.982
 30
4535.150
 70
    32
  0
VERTEX
  8
T07SSILL
 62
2
 10
1236.012
 20
-2006.897
 30
4535.150
 70
    32
  0
VERTEX
  8
T07SSILL
 62
2
 10
1241.290
 20
-2022.258
 30
4535.150
 70
    32
  0
VERTEX
  8
T07SSILL
 62
2
 10
1247.460
 20
-2024.597
 30
4535.150
 70
    32
  0
VERTEX
  8
T07SSILL
 62
2
 10
1213.328
 20
-2083.898
 30
4535.150
 70
    32
  0
VERTEX
  8
T07SSILL
 62
2
 10
1167.474
 20
-2078.447
 30
4535.150
 70
    32
  0
VERTEX
  8
T07SSILL
 62
2
 10
1166.020
 20
-2085.492
 30
4535.150
 70
    32
  0
VERTEX
  8
T07SSILL
 62
2
 10
1209.233
 20
-2090.518
 30
4535.150
 70
    32
  0
VERTEX
  8
T07SSILL
 62
2
 10
1171.445
 20
-2156.525
 30
4535.150
 70
    32
  0
VERTEX
  8
T07SSILL
 62
2
 10
1150.258
 20
-2127.800
 30
4535.150
 70
    32
  0
VERTEX
  8
T07SSILL
 62
2
 10
1150.026
 20
-2118.126
 30
4535.150
 70
    32
  0
VERTEX
  8
T07SSILL
 62
2
 10
1151.638
 20
-2107.915
 30
4535.150
 70
    32
  0
VERTEX
  8
T07SSILL
 62
2
 10
1146.015
 20
-2093.787
 30
4535.150
 70
    32
  0
VERTEX
  8
T07SSILL
 62
2
 10
1138.368
 20
-2079.496
 30
4535.150
 70
    32
  0
VERTEX
  8
T07SSILL
 62
2
 10
1130.315
 20
-2071.011
 30
4535.150
 70
    32
  0
VERTEX
  8
T07SSILL
 62
2
 10
1135.215
 20
-2066.585
 30
4535.150
 70
    32
  0
VERTEX
  8
T07SSILL
 62
2
 10
1119.191
 20
-2048.561
 30
4535.150
 70
    32
  0
VERTEX
  8
T07SSILL
 62
2
 10
1123.921
 20
-2045.191
 30
4535.150
 70
    32
  0
VERTEX
  8
T07SSILL
 62
2
 10
1115.951
 20
-2035.826
 30
4535.150
 70
    32
  0
VERTEX
  8
T07SSILL
 62
2
 10
1120.589
 20
-2031.754
 30
4535.150
 70
    32
  0
VERTEX
  8
T07SSILL
 62
2
 10
1119.578
 20
-2024.284
 30
4535.150
 70
    32
  0
VERTEX
  8
T07SSILL
 62
2
 10
1158.884
 20
-2007.785
 30
4535.150
 70
    32
  0
VERTEX
  8
T07SSILL
 62
2
 10
1160.011
 20
-2004.876
 30
4535.150
 70
    32
  0
VERTEX
  8
T07SSILL
 62
2
 10
1158.671
 20
-2001.366
 30
4535.150
 70
    32
  0
VERTEX
  8
T07SSILL
 62
2
 10
1161.119
 20
-1998.889
 30
4535.150
 70
    32
  0
SEQEND
  8
T07SSILL
  0
POLYLINE
  8
T07SSILL
 62
2
 66
     1
 70
     9
  0
VERTEX
  8
T07SSILL
 62
2
 10
1419.922
 20
-2568.451
 30
4535.150
 70
    32
  0
VERTEX
  8
T07SSILL
 62
2
 10
1411.872
 20
-2575.446
 30
4535.150
 70
    32
  0
VERTEX
  8
T07SSILL
 62
2
 10
1402.303
 20
-2578.579
 30
4535.150
 70
    32
  0
VERTEX
  8
T07SSILL
 62
2
 10
1400.997
 20
-2596.001
 30
4535.150
 70
    32
  0
VERTEX
  8
T07SSILL
 62
2
 10
1413.249
 20
-2615.719
 30
4535.150
 70
    32
  0
VERTEX
  8
T07SSILL
 62
2
 10
1428.832
 20
-2618.443
 30
4535.150
 70
    32
  0
VERTEX
  8
T07SSILL
 62
2
 10
1434.106
 20
-2633.188
 30
4535.150
 70
    32
  0
VERTEX
  8
T07SSILL
 62
2
 10
1439.839
 20
-2635.881
 30
4535.150
 70
    32
  0
VERTEX
  8
T07SSILL
 62
2
 10
1444.819
 20
-2645.351
 30
4535.150
 70
    32
  0
VERTEX
  8
T07SSILL
 62
2
 10
1451.670
 20
-2643.816
 30
4535.150
 70
    32
  0
VERTEX
  8
T07SSILL
 62
2
 10
1464.651
 20
-2637.672
 30
4535.150
 70
    32
  0
VERTEX
  8
T07SSILL
 62
2
 10
1476.257
 20
-2637.077
 30
4535.150
 70
    32
  0
VERTEX
  8
T07SSILL
 62
2
 10
1481.375
 20
-2639.862
 30
4535.150
 70
    32
  0
VERTEX
  8
T07SSILL
 62
2
 10
1485.935
 20
-2637.549
 30
4535.150
 70
    32
  0
VERTEX
  8
T07SSILL
 62
2
 10
1485.033
 20
-2633.772
 30
4535.150
 70
    32
  0
VERTEX
  8
T07SSILL
 62
2
 10
1486.501
 20
-2629.014
 30
4535.150
 70
    32
  0
VERTEX
  8
T07SSILL
 62
2
 10
1451.376
 20
-2577.943
 30
4535.150
 70
    32
  0
SEQEND
  8
T07SSILL
  0
POLYLINE
  8
T07SSILL
 62
2
 66
     1
 70
     9
  0
VERTEX
  8
T07SSILL
 62
2
 10
1465.861
 20
-2588.413
 30
4535.150
 70
    32
  0
VERTEX
  8
T07SSILL
 62
2
 10
1495.474
 20
-2629.314
 30
4535.150
 70
    32
  0
VERTEX
  8
T07SSILL
 62
2
 10
1502.163
 20
-2630.155
 30
4535.150
 70
    32
  0
VERTEX
  8
T07SSILL
 62
2
 10
1506.259
 20
-2623.710
 30
4535.150
 70
    32
  0
VERTEX
  8
T07SSILL
 62
2
 10
1512.853
 20
-2623.232
 30
4535.150
 70
    32
  0
VERTEX
  8
T07SSILL
 62
2
 10
1517.148
 20
-2620.833
 30
4535.150
 70
    32
  0
VERTEX
  8
T07SSILL
 62
2
 10
1523.612
 20
-2613.231
 30
4535.150
 70
    32
  0
VERTEX
  8
T07SSILL
 62
2
 10
1527.302
 20
-2612.506
 30
4535.150
 70
    32
  0
VERTEX
  8
T07SSILL
 62
2
 10
1538.891
 20
-2624.049
 30
4535.150
 70
    32
  0
VERTEX
  8
T07SSILL
 62
2
 10
1549.400
 20
-2631.463
 30
4535.150
 70
    32
  0
VERTEX
  8
T07SSILL
 62
2
 10
1563.405
 20
-2634.988
 30
4535.150
 70
    32
  0
VERTEX
  8
T07SSILL
 62
2
 10
1568.907
 20
-2643.575
 30
4535.150
 70
    32
  0
VERTEX
  8
T07SSILL
 62
2
 10
1573.771
 20
-2648.209
 30
4535.150
 70
    32
  0
VERTEX
  8
T07SSILL
 62
2
 10
1573.627
 20
-2653.662
 30
4535.150
 70
    32
  0
VERTEX
  8
T07SSILL
 62
2
 10
1579.744
 20
-2661.894
 30
4535.150
 70
    32
  0
VERTEX
  8
T07SSILL
 62
2
 10
1593.118
 20
-2647.832
 30
4535.150
 70
    32
  0
VERTEX
  8
T07SSILL
 62
2
 10
1597.872
 20
-2633.469
 30
4535.150
 70
    32
  0
VERTEX
  8
T07SSILL
 62
2
 10
1587.753
 20
-2617.521
 30
4535.150
 70
    32
  0
VERTEX
  8
T07SSILL
 62
2
 10
1565.635
 20
-2595.046
 30
4535.150
 70
    32
  0
SEQEND
  8
T07SSILL
  0
POLYLINE
  8
T07SSILL
 62
2
 66
     1
 70
     9
  0
VERTEX
  8
T07SSILL
 62
2
 10
1489.088
 20
-2680.802
 30
4535.150
 70
    32
  0
VERTEX
  8
T07SSILL
 62
2
 10
1505.450
 20
-2696.450
 30
4535.150
 70
    32
  0
VERTEX
  8
T07SSILL
 62
2
 10
1508.880
 20
-2696.518
 30
4535.150
 70
    32
  0
VERTEX
  8
T07SSILL
 62
2
 10
1510.091
 20
-2692.993
 30
4535.150
 70
    32
  0
VERTEX
  8
T07SSILL
 62
2
 10
1496.936
 20
-2654.020
 30
4535.150
 70
    32
  0
VERTEX
  8
T07SSILL
 62
2
 10
1492.100
 20
-2654.224
 30
4535.150
 70
    32
  0
VERTEX
  8
T07SSILL
 62
2
 10
1489.834
 20
-2657.843
 30
4535.150
 70
    32
  0
VERTEX
  8
T07SSILL
 62
2
 10
1491.868
 20
-2674.805
 30
4535.150
 70
    32
  0
SEQEND
  8
T07SSILL
  0
POLYLINE
  8
T07SSILL
 62
2
 66
     1
 70
     9
  0
VERTEX
  8
T07SSILL
 62
2
 10
1520.164
 20
-2700.938
 30
4535.150
 70
    32
  0
VERTEX
  8
T07SSILL
 62
2
 10
1526.601
 20
-2703.891
 30
4535.150
 70
    32
  0
VERTEX
  8
T07SSILL
 62
2
 10
1545.248
 20
-2704.047
 30
4535.150
 70
    32
  0
VERTEX
  8
T07SSILL
 62
2
 10
1550.867
 20
-2702.431
 30
4535.150
 70
    32
  0
VERTEX
  8
T07SSILL
 62
2
 10
1553.894
 20
-2678.491
 30
4535.150
 70
    32
  0
VERTEX
  8
T07SSILL
 62
2
 10
1545.194
 20
-2664.557
 30
4535.150
 70
    32
  0
VERTEX
  8
T07SSILL
 62
2
 10
1544.791
 20
-2655.677
 30
4535.150
 70
    32
  0
VERTEX
  8
T07SSILL
 62
2
 10
1537.976
 20
-2648.240
 30
4535.150
 70
    32
  0
VERTEX
  8
T07SSILL
 62
2
 10
1522.363
 20
-2640.415
 30
4535.150
 70
    32
  0
VERTEX
  8
T07SSILL
 62
2
 10
1500.609
 20
-2635.177
 30
4535.150
 70
    32
  0
VERTEX
  8
T07SSILL
 62
2
 10
1504.495
 20
-2653.184
 30
4535.150
 70
    32
  0
SEQEND
  8
T07SSILL
  0
POLYLINE
  8
T07SSILL
 62
2
 66
     1
 70
     9
  0
VERTEX
  8
T07SSILL
 62
2
 10
-497.267
 20
-2.275
 30
4535.150
 70
    32
  0
VERTEX
  8
T07SSILL
 62
2
 10
-502.583
 20
8.955
 30
4535.150
 70
    32
  0
VERTEX
  8
T07SSILL
 62
2
 10
-508.659
 20
11.919
 30
4535.150
 70
    32
  0
VERTEX
  8
T07SSILL
 62
2
 10
-512.364
 20
15.421
 30
4535.150
 70
    32
  0
VERTEX
  8
T07SSILL
 62
2
 10
-520.462
 20
18.465
 30
4535.150
 70
    32
  0
VERTEX
  8
T07SSILL
 62
2
 10
-529.183
 20
46.556
 30
4535.150
 70
    32
  0
VERTEX
  8
T07SSILL
 62
2
 10
-535.002
 20
51.104
 30
4535.150
 70
    32
  0
VERTEX
  8
T07SSILL
 62
2
 10
-545.669
 20
82.263
 30
4535.150
 70
    32
  0
VERTEX
  8
T07SSILL
 62
2
 10
-552.467
 20
90.323
 30
4535.150
 70
    32
  0
VERTEX
  8
T07SSILL
 62
2
 10
-562.779
 20
120.517
 30
4535.150
 70
    32
  0
VERTEX
  8
T07SSILL
 62
2
 10
-579.110
 20
138.998
 30
4535.150
 70
    32
  0
VERTEX
  8
T07SSILL
 62
2
 10
-604.096
 20
122.818
 30
4535.150
 70
    32
  0
VERTEX
  8
T07SSILL
 62
2
 10
-606.949
 20
110.502
 30
4535.150
 70
    32
  0
VERTEX
  8
T07SSILL
 62
2
 10
-576.954
 20
58.764
 30
4535.150
 70
    32
  0
VERTEX
  8
T07SSILL
 62
2
 10
-567.370
 20
57.658
 30
4535.150
 70
    32
  0
VERTEX
  8
T07SSILL
 62
2
 10
-548.958
 20
69.155
 30
4535.150
 70
    32
  0
VERTEX
  8
T07SSILL
 62
2
 10
-546.125
 20
63.981
 30
4535.150
 70
    32
  0
VERTEX
  8
T07SSILL
 62
2
 10
-565.148
 20
51.163
 30
4535.150
 70
    32
  0
VERTEX
  8
T07SSILL
 62
2
 10
-567.485
 20
41.838
 30
4535.150
 70
    32
  0
VERTEX
  8
T07SSILL
 62
2
 10
-542.716
 20
0.450
 30
4535.150
 70
    32
  0
VERTEX
  8
T07SSILL
 62
2
 10
-536.627
 20
-5.767
 30
4535.150
 70
    32
  0
VERTEX
  8
T07SSILL
 62
2
 10
-502.174
 20
-5.985
 30
4535.150
 70
    32
  0
SEQEND
  8
T07SSILL
  0
POLYLINE
  8
T07SSILL
 62
2
 66
     1
 70
     9
  0
VERTEX
  8
T07SSILL
 62
2
 10
-667.477
 20
217.229
 30
4535.150
 70
    32
  0
VERTEX
  8
T07SSILL
 62
2
 10
-652.010
 20
240.228
 30
4535.150
 70
    32
  0
VERTEX
  8
T07SSILL
 62
2
 10
-641.844
 20
247.738
 30
4535.150
 70
    32
  0
VERTEX
  8
T07SSILL
 62
2
 10
-635.636
 20
233.260
 30
4535.150
 70
    32
  0
VERTEX
  8
T07SSILL
 62
2
 10
-629.312
 20
234.251
 30
4535.150
 70
    32
  0
VERTEX
  8
T07SSILL
 62
2
 10
-623.391
 20
225.925
 30
4535.150
 70
    32
  0
VERTEX
  8
T07SSILL
 62
2
 10
-624.671
 20
215.988
 30
4535.150
 70
    32
  0
VERTEX
  8
T07SSILL
 62
2
 10
-622.106
 20
211.867
 30
4535.150
 70
    32
  0
VERTEX
  8
T07SSILL
 62
2
 10
-604.632
 20
193.127
 30
4535.150
 70
    32
  0
VERTEX
  8
T07SSILL
 62
2
 10
-595.728
 20
163.543
 30
4535.150
 70
    32
  0
VERTEX
  8
T07SSILL
 62
2
 10
-585.215
 20
149.521
 30
4535.150
 70
    32
  0
VERTEX
  8
T07SSILL
 62
2
 10
-589.405
 20
142.122
 30
4535.150
 70
    32
  0
VERTEX
  8
T07SSILL
 62
2
 10
-596.235
 20
135.416
 30
4535.150
 70
    32
  0
VERTEX
  8
T07SSILL
 62
2
 10
-608.941
 20
125.787
 30
4535.150
 70
    32
  0
VERTEX
  8
T07SSILL
 62
2
 10
-618.017
 20
131.729
 30
4535.150
 70
    32
  0
VERTEX
  8
T07SSILL
 62
2
 10
-632.704
 20
156.984
 30
4535.150
 70
    32
  0
VERTEX
  8
T07SSILL
 62
2
 10
-631.237
 20
163.933
 30
4535.150
 70
    32
  0
VERTEX
  8
T07SSILL
 62
2
 10
-609.851
 20
179.132
 30
4535.150
 70
    32
  0
VERTEX
  8
T07SSILL
 62
2
 10
-613.301
 20
185.095
 30
4535.150
 70
    32
  0
VERTEX
  8
T07SSILL
 62
2
 10
-637.585
 20
169.094
 30
4535.150
 70
    32
  0
VERTEX
  8
T07SSILL
 62
2
 10
-641.107
 20
170.750
 30
4535.150
 70
    32
  0
VERTEX
  8
T07SSILL
 62
2
 10
-654.646
 20
194.603
 30
4535.150
 70
    32
  0
SEQEND
  8
T07SSILL
  0
POLYLINE
  8
T07SSILL
 62
2
 66
     1
 70
     9
  0
VERTEX
  8
T07SSILL
 62
2
 10
1051.699
 20
-534.776
 30
4535.150
 70
    32
  0
VERTEX
  8
T07SSILL
 62
2
 10
1050.070
 20
-518.927
 30
4535.150
 70
    32
  0
VERTEX
  8
T07SSILL
 62
2
 10
1047.480
 20
-522.571
 30
4535.150
 70
    32
  0
VERTEX
  8
T07SSILL
 62
2
 10
1035.788
 20
-529.685
 30
4535.150
 70
    32
  0
VERTEX
  8
T07SSILL
 62
2
 10
1026.573
 20
-525.150
 30
4535.150
 70
    32
  0
VERTEX
  8
T07SSILL
 62
2
 10
1008.922
 20
-521.435
 30
4535.150
 70
    32
  0
VERTEX
  8
T07SSILL
 62
2
 10
1004.198
 20
-517.101
 30
4535.150
 70
    32
  0
VERTEX
  8
T07SSILL
 62
2
 10
1006.733
 20
-509.586
 30
4535.150
 70
    32
  0
VERTEX
  8
T07SSILL
 62
2
 10
1004.386
 20
-505.307
 30
4535.150
 70
    32
  0
VERTEX
  8
T07SSILL
 62
2
 10
1016.957
 20
-504.428
 30
4535.150
 70
    32
  0
VERTEX
  8
T07SSILL
 62
2
 10
1031.866
 20
-494.453
 30
4535.150
 70
    32
  0
VERTEX
  8
T07SSILL
 62
2
 10
1038.384
 20
-488.555
 30
4535.150
 70
    32
  0
VERTEX
  8
T07SSILL
 62
2
 10
1046.958
 20
-491.339
 30
4535.150
 70
    32
  0
VERTEX
  8
T07SSILL
 62
2
 10
1060.955
 20
-434.739
 30
4535.150
 70
    32
  0
VERTEX
  8
T07SSILL
 62
2
 10
1029.560
 20
-385.545
 30
4535.150
 70
    32
  0
VERTEX
  8
T07SSILL
 62
2
 10
1037.678
 20
-380.856
 30
4535.150
 70
    32
  0
VERTEX
  8
T07SSILL
 62
2
 10
1060.128
 20
-324.666
 30
4535.150
 70
    32
  0
VERTEX
  8
T07SSILL
 62
2
 10
1060.857
 20
-301.160
 30
4535.150
 70
    32
  0
VERTEX
  8
T07SSILL
 62
2
 10
1030.663
 20
-230.742
 30
4535.150
 70
    32
  0
VERTEX
  8
T07SSILL
 62
2
 10
1034.856
 20
-228.484
 30
4535.150
 70
    32
  0
VERTEX
  8
T07SSILL
 62
2
 10
1037.868
 20
-223.602
 30
4535.150
 70
    32
  0
VERTEX
  8
T07SSILL
 62
2
 10
1042.191
 20
-211.751
 30
4535.150
 70
    32
  0
VERTEX
  8
T07SSILL
 62
2
 10
1075.341
 20
-159.371
 30
4535.150
 70
    32
  0
VERTEX
  8
T07SSILL
 62
2
 10
1087.071
 20
-148.561
 30
4535.150
 70
    32
  0
VERTEX
  8
T07SSILL
 62
2
 10
1084.242
 20
-147.632
 30
4535.150
 70
    32
  0
VERTEX
  8
T07SSILL
 62
2
 10
1084.700
 20
-142.610
 30
4535.150
 70
    32
  0
VERTEX
  8
T07SSILL
 62
2
 10
1096.234
 20
-143.065
 30
4535.150
 70
    32
  0
VERTEX
  8
T07SSILL
 62
2
 10
1106.215
 20
-139.407
 30
4535.150
 70
    32
  0
VERTEX
  8
T07SSILL
 62
2
 10
1116.335
 20
-133.106
 30
4535.150
 70
    32
  0
VERTEX
  8
T07SSILL
 62
2
 10
1120.093
 20
-137.542
 30
4535.150
 70
    32
  0
VERTEX
  8
T07SSILL
 62
2
 10
1116.702
 20
-140.493
 30
4535.150
 70
    32
  0
VERTEX
  8
T07SSILL
 62
2
 10
1117.534
 20
-143.385
 30
4535.150
 70
    32
  0
VERTEX
  8
T07SSILL
 62
2
 10
1199.413
 20
-146.383
 30
4535.150
 70
    32
  0
VERTEX
  8
T07SSILL
 62
2
 10
1207.138
 20
-145.043
 30
4535.150
 70
    32
  0
VERTEX
  8
T07SSILL
 62
2
 10
1208.537
 20
-138.072
 30
4535.150
 70
    32
  0
VERTEX
  8
T07SSILL
 62
2
 10
1199.538
 20
-98.422
 30
4535.150
 70
    32
  0
VERTEX
  8
T07SSILL
 62
2
 10
1192.968
 20
-87.866
 30
4535.150
 70
    32
  0
VERTEX
  8
T07SSILL
 62
2
 10
1191.940
 20
-83.569
 30
4535.150
 70
    32
  0
VERTEX
  8
T07SSILL
 62
2
 10
1205.314
 20
-70.799
 30
4535.150
 70
    32
  0
VERTEX
  8
T07SSILL
 62
2
 10
1209.338
 20
-62.735
 30
4535.150
 70
    32
  0
VERTEX
  8
T07SSILL
 62
2
 10
1220.235
 20
-55.368
 30
4535.150
 70
    32
  0
VERTEX
  8
T07SSILL
 62
2
 10
1225.862
 20
-48.690
 30
4535.150
 70
    32
  0
VERTEX
  8
T07SSILL
 62
2
 10
1218.722
 20
-35.150
 30
4535.150
 70
    32
  0
VERTEX
  8
T07SSILL
 62
2
 10
1220.100
 20
-26.683
 30
4535.150
 70
    32
  0
VERTEX
  8
T07SSILL
 62
2
 10
1224.405
 20
-26.183
 30
4535.150
 70
    32
  0
VERTEX
  8
T07SSILL
 62
2
 10
1232.810
 20
2.181
 30
4535.150
 70
    32
  0
VERTEX
  8
T07SSILL
 62
2
 10
1229.847
 20
6.452
 30
4535.150
 70
    32
  0
VERTEX
  8
T07SSILL
 62
2
 10
1224.608
 20
9.811
 30
4535.150
 70
    32
  0
VERTEX
  8
T07SSILL
 62
2
 10
1216.655
 20
12.252
 30
4535.150
 70
    32
  0
VERTEX
  8
T07SSILL
 62
2
 10
1216.848
 20
17.358
 30
4535.150
 70
    32
  0
VERTEX
  8
T07SSILL
 62
2
 10
1234.812
 20
16.464
 30
4535.150
 70
    32
  0
VERTEX
  8
T07SSILL
 62
2
 10
1240.158
 20
62.297
 30
4535.150
 70
    32
  0
VERTEX
  8
T07SSILL
 62
2
 10
1244.223
 20
73.705
 30
4535.150
 70
    32
  0
VERTEX
  8
T07SSILL
 62
2
 10
1241.132
 20
80.878
 30
4535.150
 70
    32
  0
VERTEX
  8
T07SSILL
 62
2
 10
1235.910
 20
83.005
 30
4535.150
 70
    32
  0
VERTEX
  8
T07SSILL
 62
2
 10
1195.211
 20
111.567
 30
4535.150
 70
    32
  0
VERTEX
  8
T07SSILL
 62
2
 10
1200.231
 20
117.532
 30
4535.150
 70
    32
  0
VERTEX
  8
T07SSILL
 62
2
 10
1213.651
 20
108.039
 30
4535.150
 70
    32
  0
VERTEX
  8
T07SSILL
 62
2
 10
1228.726
 20
194.662
 30
4535.150
 70
    32
  0
VERTEX
  8
T07SSILL
 62
2
 10
1223.159
 20
209.016
 30
4535.150
 70
    32
  0
VERTEX
  8
T07SSILL
 62
2
 10
1229.185
 20
212.268
 30
4535.150
 70
    32
  0
VERTEX
  8
T07SSILL
 62
2
 10
1253.384
 20
155.318
 30
4535.150
 70
    32
  0
VERTEX
  8
T07SSILL
 62
2
 10
1265.333
 20
150.380
 30
4535.150
 70
    32
  0
VERTEX
  8
T07SSILL
 62
2
 10
1275.431
 20
151.929
 30
4535.150
 70
    32
  0
VERTEX
  8
T07SSILL
 62
2
 10
1282.613
 20
166.988
 30
4535.150
 70
    32
  0
VERTEX
  8
T07SSILL
 62
2
 10
1282.093
 20
172.789
 30
4535.150
 70
    32
  0
VERTEX
  8
T07SSILL
 62
2
 10
1271.628
 20
184.963
 30
4535.150
 70
    32
  0
VERTEX
  8
T07SSILL
 62
2
 10
1275.703
 20
189.331
 30
4535.150
 70
    32
  0
VERTEX
  8
T07SSILL
 62
2
 10
1288.475
 20
175.781
 30
4535.150
 70
    32
  0
VERTEX
  8
T07SSILL
 62
2
 10
1310.275
 20
202.748
 30
4535.150
 70
    32
  0
VERTEX
  8
T07SSILL
 62
2
 10
1308.804
 20
213.639
 30
4535.150
 70
    32
  0
VERTEX
  8
T07SSILL
 62
2
 10
1300.807
 20
225.495
 30
4535.150
 70
    32
  0
VERTEX
  8
T07SSILL
 62
2
 10
1302.089
 20
228.241
 30
4535.150
 70
    32
  0
VERTEX
  8
T07SSILL
 62
2
 10
1301.907
 20
235.014
 30
4535.150
 70
    32
  0
VERTEX
  8
T07SSILL
 62
2
 10
1307.972
 20
235.451
 30
4535.150
 70
    32
  0
VERTEX
  8
T07SSILL
 62
2
 10
1310.208
 20
226.594
 30
4535.150
 70
    32
  0
VERTEX
  8
T07SSILL
 62
2
 10
1318.873
 20
210.963
 30
4535.150
 70
    32
  0
VERTEX
  8
T07SSILL
 62
2
 10
1439.680
 20
186.595
 30
4535.150
 70
    32
  0
VERTEX
  8
T07SSILL
 62
2
 10
1448.967
 20
189.452
 30
4535.150
 70
    32
  0
VERTEX
  8
T07SSILL
 62
2
 10
1451.906
 20
193.277
 30
4535.150
 70
    32
  0
VERTEX
  8
T07SSILL
 62
2
 10
1453.963
 20
203.601
 30
4535.150
 70
    32
  0
VERTEX
  8
T07SSILL
 62
2
 10
1459.340
 20
202.884
 30
4535.150
 70
    32
  0
VERTEX
  8
T07SSILL
 62
2
 10
1456.448
 20
189.380
 30
4535.150
 70
    32
  0
VERTEX
  8
T07SSILL
 62
2
 10
1457.849
 20
183.592
 30
4535.150
 70
    32
  0
VERTEX
  8
T07SSILL
 62
2
 10
1461.838
 20
181.448
 30
4535.150
 70
    32
  0
VERTEX
  8
T07SSILL
 62
2
 10
1516.025
 20
170.233
 30
4535.150
 70
    32
  0
VERTEX
  8
T07SSILL
 62
2
 10
1519.930
 20
161.488
 30
4535.150
 70
    32
  0
VERTEX
  8
T07SSILL
 62
2
 10
1526.565
 20
152.604
 30
4535.150
 70
    32
  0
VERTEX
  8
T07SSILL
 62
2
 10
1524.037
 20
131.890
 30
4535.150
 70
    32
  0
VERTEX
  8
T07SSILL
 62
2
 10
1514.660
 20
129.120
 30
4535.150
 70
    32
  0
VERTEX
  8
T07SSILL
 62
2
 10
1502.083
 20
122.345
 30
4535.150
 70
    32
  0
VERTEX
  8
T07SSILL
 62
2
 10
1487.444
 20
118.270
 30
4535.150
 70
    32
  0
VERTEX
  8
T07SSILL
 62
2
 10
1474.601
 20
117.915
 30
4535.150
 70
    32
  0
VERTEX
  8
T07SSILL
 62
2
 10
1461.407
 20
111.220
 30
4535.150
 70
    32
  0
VERTEX
  8
T07SSILL
 62
2
 10
1443.844
 20
108.600
 30
4535.150
 70
    32
  0
VERTEX
  8
T07SSILL
 62
2
 10
1432.328
 20
114.071
 30
4535.150
 70
    32
  0
VERTEX
  8
T07SSILL
 62
2
 10
1409.866
 20
122.031
 30
4535.150
 70
    32
  0
VERTEX
  8
T07SSILL
 62
2
 10
1385.491
 20
128.380
 30
4535.150
 70
    32
  0
VERTEX
  8
T07SSILL
 62
2
 10
1377.712
 20
124.576
 30
4535.150
 70
    32
  0
VERTEX
  8
T07SSILL
 62
2
 10
1374.834
 20
116.352
 30
4535.150
 70
    32
  0
VERTEX
  8
T07SSILL
 62
2
 10
1377.565
 20
103.454
 30
4535.150
 70
    32
  0
VERTEX
  8
T07SSILL
 62
2
 10
1382.853
 20
90.240
 30
4535.150
 70
    32
  0
VERTEX
  8
T07SSILL
 62
2
 10
1402.061
 20
75.812
 30
4535.150
 70
    32
  0
VERTEX
  8
T07SSILL
 62
2
 10
1399.380
 20
66.095
 30
4535.150
 70
    32
  0
VERTEX
  8
T07SSILL
 62
2
 10
1388.671
 20
51.514
 30
4535.150
 70
    32
  0
VERTEX
  8
T07SSILL
 62
2
 10
1369.136
 20
32.499
 30
4535.150
 70
    32
  0
VERTEX
  8
T07SSILL
 62
2
 10
1369.696
 20
-1.460
 30
4535.150
 70
    32
  0
VERTEX
  8
T07SSILL
 62
2
 10
1372.497
 20
-19.372
 30
4535.150
 70
    32
  0
VERTEX
  8
T07SSILL
 62
2
 10
1375.826
 20
-24.606
 30
4535.150
 70
    32
  0
VERTEX
  8
T07SSILL
 62
2
 10
1380.714
 20
-28.058
 30
4535.150
 70
    32
  0
VERTEX
  8
T07SSILL
 62
2
 10
1379.413
 20
-42.067
 30
4535.150
 70
    32
  0
VERTEX
  8
T07SSILL
 62
2
 10
1393.321
 20
-42.402
 30
4535.150
 70
    32
  0
VERTEX
  8
T07SSILL
 62
2
 10
1395.002
 20
-36.747
 30
4535.150
 70
    32
  0
VERTEX
  8
T07SSILL
 62
2
 10
1402.417
 20
-38.404
 30
4535.150
 70
    32
  0
VERTEX
  8
T07SSILL
 62
2
 10
1403.527
 20
-61.267
 30
4535.150
 70
    32
  0
VERTEX
  8
T07SSILL
 62
2
 10
1406.627
 20
-62.720
 30
4535.150
 70
    32
  0
VERTEX
  8
T07SSILL
 62
2
 10
1404.440
 20
-69.966
 30
4535.150
 70
    32
  0
VERTEX
  8
T07SSILL
 62
2
 10
1390.798
 20
-88.811
 30
4535.150
 70
    32
  0
VERTEX
  8
T07SSILL
 62
2
 10
1386.266
 20
-98.290
 30
4535.150
 70
    32
  0
VERTEX
  8
T07SSILL
 62
2
 10
1385.912
 20
-110.791
 30
4535.150
 70
    32
  0
VERTEX
  8
T07SSILL
 62
2
 10
1388.208
 20
-130.382
 30
4535.150
 70
    32
  0
VERTEX
  8
T07SSILL
 62
2
 10
1393.404
 20
-143.334
 30
4535.150
 70
    32
  0
VERTEX
  8
T07SSILL
 62
2
 10
1402.121
 20
-149.988
 30
4535.150
 70
    32
  0
VERTEX
  8
T07SSILL
 62
2
 10
1411.224
 20
-152.853
 30
4535.150
 70
    32
  0
VERTEX
  8
T07SSILL
 62
2
 10
1415.677
 20
-150.328
 30
4535.150
 70
    32
  0
VERTEX
  8
T07SSILL
 62
2
 10
1419.342
 20
-135.493
 30
4535.150
 70
    32
  0
VERTEX
  8
T07SSILL
 62
2
 10
1423.022
 20
-134.298
 30
4535.150
 70
    32
  0
VERTEX
  8
T07SSILL
 62
2
 10
1424.661
 20
-37.038
 30
4535.150
 70
    32
  0
VERTEX
  8
T07SSILL
 62
2
 10
1429.626
 20
-33.361
 30
4535.150
 70
    32
  0
VERTEX
  8
T07SSILL
 62
2
 10
1437.209
 20
-21.816
 30
4535.150
 70
    32
  0
VERTEX
  8
T07SSILL
 62
2
 10
1447.513
 20
-16.041
 30
4535.150
 70
    32
  0
VERTEX
  8
T07SSILL
 62
2
 10
1450.605
 20
-10.630
 30
4535.150
 70
    32
  0
VERTEX
  8
T07SSILL
 62
2
 10
1454.886
 20
4.301
 30
4535.150
 70
    32
  0
VERTEX
  8
T07SSILL
 62
2
 10
1462.196
 20
16.458
 30
4535.150
 70
    32
  0
VERTEX
  8
T07SSILL
 62
2
 10
1489.736
 20
29.336
 30
4535.150
 70
    32
  0
VERTEX
  8
T07SSILL
 62
2
 10
1494.089
 20
32.741
 30
4535.150
 70
    32
  0
VERTEX
  8
T07SSILL
 62
2
 10
1498.060
 20
44.588
 30
4535.150
 70
    32
  0
VERTEX
  8
T07SSILL
 62
2
 10
1501.277
 20
47.360
 30
4535.150
 70
    32
  0
VERTEX
  8
T07SSILL
 62
2
 10
1506.835
 20
46.382
 30
4535.150
 70
    32
  0
VERTEX
  8
T07SSILL
 62
2
 10
1510.308
 20
43.438
 30
4535.150
 70
    32
  0
VERTEX
  8
T07SSILL
 62
2
 10
1511.096
 20
37.377
 30
4535.150
 70
    32
  0
VERTEX
  8
T07SSILL
 62
2
 10
1499.307
 20
11.870
 30
4535.150
 70
    32
  0
VERTEX
  8
T07SSILL
 62
2
 10
1480.602
 20
-16.197
 30
4535.150
 70
    32
  0
VERTEX
  8
T07SSILL
 62
2
 10
1472.959
 20
-23.431
 30
4535.150
 70
    32
  0
VERTEX
  8
T07SSILL
 62
2
 10
1463.641
 20
-24.177
 30
4535.150
 70
    32
  0
VERTEX
  8
T07SSILL
 62
2
 10
1456.373
 20
-26.742
 30
4535.150
 70
    32
  0
VERTEX
  8
T07SSILL
 62
2
 10
1450.090
 20
-30.525
 30
4535.150
 70
    32
  0
VERTEX
  8
T07SSILL
 62
2
 10
1446.812
 20
-35.234
 30
4535.150
 70
    32
  0
VERTEX
  8
T07SSILL
 62
2
 10
1441.049
 20
-51.154
 30
4535.150
 70
    32
  0
VERTEX
  8
T07SSILL
 62
2
 10
1432.338
 20
-63.859
 30
4535.150
 70
    32
  0
VERTEX
  8
T07SSILL
 62
2
 10
1430.335
 20
-134.988
 30
4535.150
 70
    32
  0
VERTEX
  8
T07SSILL
 62
2
 10
1433.245
 20
-135.388
 30
4535.150
 70
    32
  0
VERTEX
  8
T07SSILL
 62
2
 10
1437.244
 20
-150.908
 30
4535.150
 70
    32
  0
VERTEX
  8
T07SSILL
 62
2
 10
1433.404
 20
-153.161
 30
4535.150
 70
    32
  0
VERTEX
  8
T07SSILL
 62
2
 10
1428.367
 20
-164.319
 30
4535.150
 70
    32
  0
VERTEX
  8
T07SSILL
 62
2
 10
1423.262
 20
-183.221
 30
4535.150
 70
    32
  0
VERTEX
  8
T07SSILL
 62
2
 10
1418.150
 20
-226.939
 30
4535.150
 70
    32
  0
VERTEX
  8
T07SSILL
 62
2
 10
1411.344
 20
-231.081
 30
4535.150
 70
    32
  0
VERTEX
  8
T07SSILL
 62
2
 10
1403.643
 20
-240.516
 30
4535.150
 70
    32
  0
VERTEX
  8
T07SSILL
 62
2
 10
1397.105
 20
-251.255
 30
4535.150
 70
    32
  0
VERTEX
  8
T07SSILL
 62
2
 10
1398.765
 20
-256.775
 30
4535.150
 70
    32
  0
VERTEX
  8
T07SSILL
 62
2
 10
1436.094
 20
-270.688
 30
4535.150
 70
    32
  0
VERTEX
  8
T07SSILL
 62
2
 10
1631.738
 20
-323.230
 30
4535.150
 70
    32
  0
VERTEX
  8
T07SSILL
 62
2
 10
1629.806
 20
-329.857
 30
4535.150
 70
    32
  0
VERTEX
  8
T07SSILL
 62
2
 10
1533.094
 20
-304.274
 30
4535.150
 70
    32
  0
VERTEX
  8
T07SSILL
 62
2
 10
1400.922
 20
-266.337
 30
4535.150
 70
    32
  0
VERTEX
  8
T07SSILL
 62
2
 10
1363.159
 20
-252.783
 30
4535.150
 70
    32
  0
VERTEX
  8
T07SSILL
 62
2
 10
1350.904
 20
-251.105
 30
4535.150
 70
    32
  0
VERTEX
  8
T07SSILL
 62
2
 10
1344.348
 20
-254.276
 30
4535.150
 70
    32
  0
VERTEX
  8
T07SSILL
 62
2
 10
1343.333
 20
-263.530
 30
4535.150
 70
    32
  0
VERTEX
  8
T07SSILL
 62
2
 10
1344.201
 20
-294.317
 30
4535.150
 70
    32
  0
VERTEX
  8
T07SSILL
 62
2
 10
1348.052
 20
-311.775
 30
4535.150
 70
    32
  0
VERTEX
  8
T07SSILL
 62
2
 10
1353.389
 20
-347.515
 30
4535.150
 70
    32
  0
VERTEX
  8
T07SSILL
 62
2
 10
1352.426
 20
-360.552
 30
4535.150
 70
    32
  0
VERTEX
  8
T07SSILL
 62
2
 10
1348.665
 20
-374.860
 30
4535.150
 70
    32
  0
VERTEX
  8
T07SSILL
 62
2
 10
1336.233
 20
-398.440
 30
4535.150
 70
    32
  0
VERTEX
  8
T07SSILL
 62
2
 10
1321.700
 20
-416.418
 30
4535.150
 70
    32
  0
VERTEX
  8
T07SSILL
 62
2
 10
1314.700
 20
-432.003
 30
4535.150
 70
    32
  0
VERTEX
  8
T07SSILL
 62
2
 10
1308.734
 20
-439.565
 30
4535.150
 70
    32
  0
VERTEX
  8
T07SSILL
 62
2
 10
1308.217
 20
-446.700
 30
4535.150
 70
    32
  0
VERTEX
  8
T07SSILL
 62
2
 10
1301.701
 20
-452.687
 30
4535.150
 70
    32
  0
VERTEX
  8
T07SSILL
 62
2
 10
1295.353
 20
-464.479
 30
4535.150
 70
    32
  0
VERTEX
  8
T07SSILL
 62
2
 10
1279.663
 20
-481.592
 30
4535.150
 70
    32
  0
VERTEX
  8
T07SSILL
 62
2
 10
1274.816
 20
-493.715
 30
4535.150
 70
    32
  0
VERTEX
  8
T07SSILL
 62
2
 10
1263.622
 20
-505.046
 30
4535.150
 70
    32
  0
VERTEX
  8
T07SSILL
 62
2
 10
1254.251
 20
-520.928
 30
4535.150
 70
    32
  0
VERTEX
  8
T07SSILL
 62
2
 10
1248.941
 20
-537.722
 30
4535.150
 70
    32
  0
VERTEX
  8
T07SSILL
 62
2
 10
1249.004
 20
-548.632
 30
4535.150
 70
    32
  0
VERTEX
  8
T07SSILL
 62
2
 10
1220.514
 20
-613.442
 30
4535.150
 70
    32
  0
VERTEX
  8
T07SSILL
 62
2
 10
1217.726
 20
-621.753
 30
4535.150
 70
    32
  0
VERTEX
  8
T07SSILL
 62
2
 10
1223.698
 20
-639.885
 30
4535.150
 70
    32
  0
VERTEX
  8
T07SSILL
 62
2
 10
1223.181
 20
-647.020
 30
4535.150
 70
    32
  0
VERTEX
  8
T07SSILL
 62
2
 10
1224.756
 20
-652.718
 30
4535.150
 70
    32
  0
VERTEX
  8
T07SSILL
 62
2
 10
1229.645
 20
-656.258
 30
4535.150
 70
    32
  0
VERTEX
  8
T07SSILL
 62
2
 10
1233.494
 20
-660.956
 30
4535.150
 70
    32
  0
VERTEX
  8
T07SSILL
 62
2
 10
1234.319
 20
-669.657
 30
4535.150
 70
    32
  0
VERTEX
  8
T07SSILL
 62
2
 10
1232.213
 20
-689.045
 30
4535.150
 70
    32
  0
VERTEX
  8
T07SSILL
 62
2
 10
1219.119
 20
-702.955
 30
4535.150
 70
    32
  0
VERTEX
  8
T07SSILL
 62
2
 10
1212.330
 20
-708.329
 30
4535.150
 70
    32
  0
VERTEX
  8
T07SSILL
 62
2
 10
1202.800
 20
-706.438
 30
4535.150
 70
    32
  0
VERTEX
  8
T07SSILL
 62
2
 10
1196.664
 20
-708.195
 30
4535.150
 70
    32
  0
VERTEX
  8
T07SSILL
 62
2
 10
1190.916
 20
-712.499
 30
4535.150
 70
    32
  0
VERTEX
  8
T07SSILL
 62
2
 10
1117.216
 20
-1036.477
 30
4535.150
 70
    32
  0
VERTEX
  8
T07SSILL
 62
2
 10
1126.356
 20
-1071.660
 30
4535.150
 70
    32
  0
VERTEX
  8
T07SSILL
 62
2
 10
1135.750
 20
-1080.578
 30
4535.150
 70
    32
  0
VERTEX
  8
T07SSILL
 62
2
 10
1148.630
 20
-1088.545
 30
4535.150
 70
    32
  0
VERTEX
  8
T07SSILL
 62
2
 10
1169.809
 20
-1107.470
 30
4535.150
 70
    32
  0
VERTEX
  8
T07SSILL
 62
2
 10
1156.500
 20
-1124.759
 30
4535.150
 70
    32
  0
VERTEX
  8
T07SSILL
 62
2
 10
1175.500
 20
-1140.223
 30
4535.150
 70
    32
  0
VERTEX
  8
T07SSILL
 62
2
 10
1179.869
 20
-1139.517
 30
4535.150
 70
    32
  0
VERTEX
  8
T07SSILL
 62
2
 10
1186.564
 20
-1132.800
 30
4535.150
 70
    32
  0
VERTEX
  8
T07SSILL
 62
2
 10
1205.107
 20
-1143.190
 30
4535.150
 70
    32
  0
VERTEX
  8
T07SSILL
 62
2
 10
1205.699
 20
-1150.453
 30
4535.150
 70
    32
  0
VERTEX
  8
T07SSILL
 62
2
 10
1215.058
 20
-1157.706
 30
4535.150
 70
    32
  0
VERTEX
  8
T07SSILL
 62
2
 10
1216.012
 20
-1169.609
 30
4535.150
 70
    32
  0
VERTEX
  8
T07SSILL
 62
2
 10
1218.845
 20
-1175.071
 30
4535.150
 70
    32
  0
VERTEX
  8
T07SSILL
 62
2
 10
1232.473
 20
-1181.094
 30
4535.150
 70
    32
  0
VERTEX
  8
T07SSILL
 62
2
 10
1243.756
 20
-1188.131
 30
4535.150
 70
    32
  0
VERTEX
  8
T07SSILL
 62
2
 10
1268.146
 20
-1222.066
 30
4535.150
 70
    32
  0
VERTEX
  8
T07SSILL
 62
2
 10
1273.495
 20
-1226.248
 30
4535.150
 70
    32
  0
VERTEX
  8
T07SSILL
 62
2
 10
1275.347
 20
-1230.943
 30
4535.150
 70
    32
  0
VERTEX
  8
T07SSILL
 62
2
 10
1370.839
 20
-1309.769
 30
4535.150
 70
    32
  0
VERTEX
  8
T07SSILL
 62
2
 10
1406.445
 20
-1337.329
 30
4535.150
 70
    32
  0
VERTEX
  8
T07SSILL
 62
2
 10
1416.262
 20
-1346.965
 30
4535.150
 70
    32
  0
VERTEX
  8
T07SSILL
 62
2
 10
1424.202
 20
-1350.712
 30
4535.150
 70
    32
  0
VERTEX
  8
T07SSILL
 62
2
 10
1440.475
 20
-1366.656
 30
4535.150
 70
    32
  0
VERTEX
  8
T07SSILL
 62
2
 10
1449.135
 20
-1373.569
 30
4535.150
 70
    32
  0
VERTEX
  8
T07SSILL
 62
2
 10
1454.688
 20
-1375.039
 30
4535.150
 70
    32
  0
VERTEX
  8
T07SSILL
 62
2
 10
1461.937
 20
-1381.519
 30
4535.150
 70
    32
  0
VERTEX
  8
T07SSILL
 62
2
 10
1465.516
 20
-1393.738
 30
4535.150
 70
    32
  0
VERTEX
  8
T07SSILL
 62
2
 10
1481.607
 20
-1408.362
 30
4535.150
 70
    32
  0
VERTEX
  8
T07SSILL
 62
2
 10
1490.042
 20
-1423.727
 30
4535.150
 70
    32
  0
VERTEX
  8
T07SSILL
 62
2
 10
1495.384
 20
-1436.290
 30
4535.150
 70
    32
  0
VERTEX
  8
T07SSILL
 62
2
 10
1495.721
 20
-1451.693
 30
4535.150
 70
    32
  0
VERTEX
  8
T07SSILL
 62
2
 10
1503.473
 20
-1489.860
 30
4535.150
 70
    32
  0
VERTEX
  8
T07SSILL
 62
2
 10
1505.734
 20
-1521.011
 30
4535.150
 70
    32
  0
VERTEX
  8
T07SSILL
 62
2
 10
1618.339
 20
-1795.707
 30
4535.150
 70
    32
  0
VERTEX
  8
T07SSILL
 62
2
 10
1819.400
 20
-2296.651
 30
4535.150
 70
    32
  0
VERTEX
  8
T07SSILL
 62
2
 10
1884.854
 20
-2474.541
 30
4535.150
 70
    32
  0
VERTEX
  8
T07SSILL
 62
2
 10
1933.704
 20
-2487.456
 30
4535.150
 70
    32
  0
VERTEX
  8
T07SSILL
 62
2
 10
1931.261
 20
-2497.191
 30
4535.150
 70
    32
  0
VERTEX
  8
T07SSILL
 62
2
 10
1888.810
 20
-2483.040
 30
4535.150
 70
    32
  0
VERTEX
  8
T07SSILL
 62
2
 10
1964.945
 20
-2654.698
 30
4535.150
 70
    32
  0
VERTEX
  8
T07SSILL
 62
2
 10
2099.759
 20
-2417.640
 30
4535.150
 70
    32
  0
VERTEX
  8
T07SSILL
 62
2
 10
2129.664
 20
-2424.530
 30
4535.150
 70
    32
  0
VERTEX
  8
T07SSILL
 62
2
 10
2128.005
 20
-2430.493
 30
4535.150
 70
    32
  0
VERTEX
  8
T07SSILL
 62
2
 10
2103.187
 20
-2425.088
 30
4535.150
 70
    32
  0
VERTEX
  8
T07SSILL
 62
2
 10
1970.387
 20
-2659.952
 30
4535.150
 70
    32
  0
VERTEX
  8
T07SSILL
 62
2
 10
1920.199
 20
-2699.467
 30
4535.150
 70
    32
  0
VERTEX
  8
T07SSILL
 62
2
 10
1910.825
 20
-2705.265
 30
4535.150
 70
    32
  0
VERTEX
  8
T07SSILL
 62
2
 10
1897.410
 20
-2704.141
 30
4535.150
 70
    32
  0
VERTEX
  8
T07SSILL
 62
2
 10
1883.036
 20
-2708.017
 30
4535.150
 70
    32
  0
VERTEX
  8
T07SSILL
 62
2
 10
1867.090
 20
-2716.014
 30
4535.150
 70
    32
  0
VERTEX
  8
T07SSILL
 62
2
 10
1859.997
 20
-2723.300
 30
4535.150
 70
    32
  0
VERTEX
  8
T07SSILL
 62
2
 10
1837.661
 20
-2739.722
 30
4535.150
 70
    32
  0
VERTEX
  8
T07SSILL
 62
2
 10
1811.555
 20
-2756.851
 30
4535.150
 70
    32
  0
VERTEX
  8
T07SSILL
 62
2
 10
1648.498
 20
-2769.325
 30
4535.150
 70
    32
  0
VERTEX
  8
T07SSILL
 62
2
 10
1644.564
 20
-2778.009
 30
4535.150
 70
    32
  0
VERTEX
  8
T07SSILL
 62
2
 10
1640.886
 20
-2781.784
 30
4535.150
 70
    32
  0
VERTEX
  8
T07SSILL
 62
2
 10
1633.524
 20
-2783.897
 30
4535.150
 70
    32
  0
VERTEX
  8
T07SSILL
 62
2
 10
1636.423
 20
-2788.540
 30
4535.150
 70
    32
  0
VERTEX
  8
T07SSILL
 62
2
 10
1642.738
 20
-2790.987
 30
4535.150
 70
    32
  0
VERTEX
  8
T07SSILL
 62
2
 10
1650.716
 20
-2790.101
 30
4535.150
 70
    32
  0
VERTEX
  8
T07SSILL
 62
2
 10
1656.672
 20
-2786.061
 30
4535.150
 70
    32
  0
VERTEX
  8
T07SSILL
 62
2
 10
1663.981
 20
-2811.564
 30
4535.150
 70
    32
  0
VERTEX
  8
T07SSILL
 62
2
 10
1699.167
 20
-2835.631
 30
4535.150
 70
    32
  0
VERTEX
  8
T07SSILL
 62
2
 10
1688.309
 20
-2846.955
 30
4535.150
 70
    32
  0
VERTEX
  8
T07SSILL
 62
2
 10
1681.826
 20
-2850.206
 30
4535.150
 70
    32
  0
VERTEX
  8
T07SSILL
 62
2
 10
1666.150
 20
-2864.867
 30
4535.150
 70
    32
  0
VERTEX
  8
T07SSILL
 62
2
 10
1657.736
 20
-2866.806
 30
4535.150
 70
    32
  0
VERTEX
  8
T07SSILL
 62
2
 10
1646.861
 20
-2864.365
 30
4535.150
 70
    32
  0
VERTEX
  8
T07SSILL
 62
2
 10
1632.296
 20
-2854.563
 30
4535.150
 70
    32
  0
VERTEX
  8
T07SSILL
 62
2
 10
1609.892
 20
-2816.015
 30
4535.150
 70
    32
  0
VERTEX
  8
T07SSILL
 62
2
 10
1591.995
 20
-2806.918
 30
4535.150
 70
    32
  0
VERTEX
  8
T07SSILL
 62
2
 10
1571.247
 20
-2760.565
 30
4535.150
 70
    32
  0
VERTEX
  8
T07SSILL
 62
2
 10
1564.840
 20
-2754.348
 30
4535.150
 70
    32
  0
VERTEX
  8
T07SSILL
 62
2
 10
1555.582
 20
-2741.982
 30
4535.150
 70
    32
  0
VERTEX
  8
T07SSILL
 62
2
 10
1550.052
 20
-2728.733
 30
4535.150
 70
    32
  0
VERTEX
  8
T07SSILL
 62
2
 10
1540.642
 20
-2728.788
 30
4535.150
 70
    32
  0
VERTEX
  8
T07SSILL
 62
2
 10
1527.165
 20
-2725.172
 30
4535.150
 70
    32
  0
VERTEX
  8
T07SSILL
 62
2
 10
1511.145
 20
-2723.066
 30
4535.150
 70
    32
  0
VERTEX
  8
T07SSILL
 62
2
 10
1498.181
 20
-2716.897
 30
4535.150
 70
    32
  0
VERTEX
  8
T07SSILL
 62
2
 10
1470.634
 20
-2698.587
 30
4535.150
 70
    32
  0
VERTEX
  8
T07SSILL
 62
2
 10
1457.020
 20
-2686.617
 30
4535.150
 70
    32
  0
VERTEX
  8
T07SSILL
 62
2
 10
1453.997
 20
-2680.918
 30
4535.150
 70
    32
  0
VERTEX
  8
T07SSILL
 62
2
 10
1449.054
 20
-2677.956
 30
4535.150
 70
    32
  0
VERTEX
  8
T07SSILL
 62
2
 10
1451.041
 20
-2671.788
 30
4535.150
 70
    32
  0
VERTEX
  8
T07SSILL
 62
2
 10
1448.122
 20
-2668.815
 30
4535.150
 70
    32
  0
VERTEX
  8
T07SSILL
 62
2
 10
1448.445
 20
-2663.888
 30
4535.150
 70
    32
  0
VERTEX
  8
T07SSILL
 62
2
 10
1432.034
 20
-2654.924
 30
4535.150
 70
    32
  0
VERTEX
  8
T07SSILL
 62
2
 10
1425.373
 20
-2658.920
 30
4535.150
 70
    32
  0
VERTEX
  8
T07SSILL
 62
2
 10
1414.741
 20
-2660.653
 30
4535.150
 70
    32
  0
VERTEX
  8
T07SSILL
 62
2
 10
1397.679
 20
-2660.752
 30
4535.150
 70
    32
  0
VERTEX
  8
T07SSILL
 62
2
 10
1392.825
 20
-2657.878
 30
4535.150
 70
    32
  0
VERTEX
  8
T07SSILL
 62
2
 10
1389.261
 20
-2649.895
 30
4535.150
 70
    32
  0
VERTEX
  8
T07SSILL
 62
2
 10
1383.333
 20
-2643.949
 30
4535.150
 70
    32
  0
VERTEX
  8
T07SSILL
 62
2
 10
1372.958
 20
-2614.106
 30
4535.150
 70
    32
  0
VERTEX
  8
T07SSILL
 62
2
 10
1373.965
 20
-2605.833
 30
4535.150
 70
    32
  0
VERTEX
  8
T07SSILL
 62
2
 10
1367.743
 20
-2594.523
 30
4535.150
 70
    32
  0
VERTEX
  8
T07SSILL
 62
2
 10
1364.124
 20
-2577.130
 30
4535.150
 70
    32
  0
VERTEX
  8
T07SSILL
 62
2
 10
1351.195
 20
-2561.990
 30
4535.150
 70
    32
  0
VERTEX
  8
T07SSILL
 62
2
 10
1345.135
 20
-2548.304
 30
4535.150
 70
    32
  0
VERTEX
  8
T07SSILL
 62
2
 10
1335.562
 20
-2535.519
 30
4535.150
 70
    32
  0
VERTEX
  8
T07SSILL
 62
2
 10
1320.550
 20
-2509.925
 30
4535.150
 70
    32
  0
VERTEX
  8
T07SSILL
 62
2
 10
1313.608
 20
-2495.717
 30
4535.150
 70
    32
  0
VERTEX
  8
T07SSILL
 62
2
 10
1314.362
 20
-2489.380
 30
4535.150
 70
    32
  0
VERTEX
  8
T07SSILL
 62
2
 10
1318.739
 20
-2485.749
 30
4535.150
 70
    32
  0
VERTEX
  8
T07SSILL
 62
2
 10
1322.538
 20
-2473.589
 30
4535.150
 70
    32
  0
VERTEX
  8
T07SSILL
 62
2
 10
1326.288
 20
-2468.115
 30
4535.150
 70
    32
  0
VERTEX
  8
T07SSILL
 62
2
 10
1331.704
 20
-2461.751
 30
4535.150
 70
    32
  0
VERTEX
  8
T07SSILL
 62
2
 10
1341.515
 20
-2455.010
 30
4535.150
 70
    32
  0
VERTEX
  8
T07SSILL
 62
2
 10
1327.153
 20
-2435.216
 30
4535.150
 70
    32
  0
VERTEX
  8
T07SSILL
 62
2
 10
1331.968
 20
-2431.494
 30
4535.150
 70
    32
  0
VERTEX
  8
T07SSILL
 62
2
 10
1345.802
 20
-2451.115
 30
4535.150
 70
    32
  0
VERTEX
  8
T07SSILL
 62
2
 10
1357.974
 20
-2441.897
 30
4535.150
 70
    32
  0
VERTEX
  8
T07SSILL
 62
2
 10
1227.938
 20
-2252.327
 30
4535.150
 70
    32
  0
VERTEX
  8
T07SSILL
 62
2
 10
1073.575
 20
-2356.741
 30
4535.150
 70
    32
  0
VERTEX
  8
T07SSILL
 62
2
 10
1068.965
 20
-2350.435
 30
4535.150
 70
    32
  0
VERTEX
  8
T07SSILL
 62
2
 10
1223.415
 20
-2245.933
 30
4535.150
 70
    32
  0
VERTEX
  8
T07SSILL
 62
2
 10
1180.481
 20
-2182.857
 30
4535.150
 70
    32
  0
VERTEX
  8
T07SSILL
 62
2
 10
722.902
 20
-2142.418
 30
4535.150
 70
    32
  0
VERTEX
  8
T07SSILL
 62
2
 10
549.308
 20
-1964.182
 30
4535.150
 70
    32
  0
VERTEX
  8
T07SSILL
 62
2
 10
536.502
 20
-1929.269
 30
4535.150
 70
    32
  0
VERTEX
  8
T07SSILL
 62
2
 10
504.283
 20
-1856.839
 30
4535.150
 70
    32
  0
VERTEX
  8
T07SSILL
 62
2
 10
256.988
 20
-1700.255
 30
4535.150
 70
    32
  0
VERTEX
  8
T07SSILL
 62
2
 10
210.712
 20
-1634.699
 30
4535.150
 70
    32
  0
VERTEX
  8
T07SSILL
 62
2
 10
204.025
 20
-1629.405
 30
4535.150
 70
    32
  0
VERTEX
  8
T07SSILL
 62
2
 10
195.730
 20
-1635.104
 30
4535.150
 70
    32
  0
VERTEX
  8
T07SSILL
 62
2
 10
191.482
 20
-1629.058
 30
4535.150
 70
    32
  0
VERTEX
  8
T07SSILL
 62
2
 10
196.836
 20
-1625.262
 30
4535.150
 70
    32
  0
VERTEX
  8
T07SSILL
 62
2
 10
197.066
 20
-1623.679
 30
4535.150
 70
    32
  0
VERTEX
  8
T07SSILL
 62
2
 10
187.618
 20
-1612.220
 30
4535.150
 70
    32
  0
VERTEX
  8
T07SSILL
 62
2
 10
182.165
 20
-1599.011
 30
4535.150
 70
    32
  0
VERTEX
  8
T07SSILL
 62
2
 10
181.724
 20
-1594.725
 30
4535.150
 70
    32
  0
VERTEX
  8
T07SSILL
 62
2
 10
139.536
 20
-1535.919
 30
4535.150
 70
    32
  0
VERTEX
  8
T07SSILL
 62
2
 10
102.010
 20
-1357.966
 30
4535.150
 70
    32
  0
VERTEX
  8
T07SSILL
 62
2
 10
-65.135
 20
-1140.507
 30
4535.150
 70
    32
  0
VERTEX
  8
T07SSILL
 62
2
 10
-86.842
 20
-1129.746
 30
4535.150
 70
    32
  0
VERTEX
  8
T07SSILL
 62
2
 10
-94.902
 20
-1121.621
 30
4535.150
 70
    32
  0
VERTEX
  8
T07SSILL
 62
2
 10
-170.652
 20
-1025.201
 30
4535.150
 70
    32
  0
VERTEX
  8
T07SSILL
 62
2
 10
-204.705
 20
-904.974
 30
4535.150
 70
    32
  0
VERTEX
  8
T07SSILL
 62
2
 10
-591.964
 20
-425.914
 30
4535.150
 70
    32
  0
VERTEX
  8
T07SSILL
 62
2
 10
-626.520
 20
-407.166
 30
4535.150
 70
    32
  0
VERTEX
  8
T07SSILL
 62
2
 10
-702.650
 20
-392.741
 30
4535.150
 70
    32
  0
VERTEX
  8
T07SSILL
 62
2
 10
-714.165
 20
-393.849
 30
4535.150
 70
    32
  0
VERTEX
  8
T07SSILL
 62
2
 10
-711.966
 20
-374.757
 30
4535.150
 70
    32
  0
VERTEX
  8
T07SSILL
 62
2
 10
-688.004
 20
-384.144
 30
4535.150
 70
    32
  0
VERTEX
  8
T07SSILL
 62
2
 10
-626.066
 20
-391.160
 30
4535.150
 70
    32
  0
VERTEX
  8
T07SSILL
 62
2
 10
-612.669
 20
-397.782
 30
4535.150
 70
    32
  0
VERTEX
  8
T07SSILL
 62
2
 10
-393.505
 20
-288.971
 30
4535.150
 70
    32
  0
VERTEX
  8
T07SSILL
 62
2
 10
-407.159
 20
-264.499
 30
4535.150
 70
    32
  0
VERTEX
  8
T07SSILL
 62
2
 10
-443.913
 20
-168.906
 30
4535.150
 70
    32
  0
VERTEX
  8
T07SSILL
 62
2
 10
-441.835
 20
-154.635
 30
4535.150
 70
    32
  0
VERTEX
  8
T07SSILL
 62
2
 10
-438.604
 20
-149.174
 30
4535.150
 70
    32
  0
VERTEX
  8
T07SSILL
 62
2
 10
-415.137
 20
-149.435
 30
4535.150
 70
    32
  0
VERTEX
  8
T07SSILL
 62
2
 10
-412.950
 20
-146.702
 30
4535.150
 70
    32
  0
VERTEX
  8
T07SSILL
 62
2
 10
-412.435
 20
-143.448
 30
4535.150
 70
    32
  0
VERTEX
  8
T07SSILL
 62
2
 10
-487.185
 20
-18.407
 30
4535.150
 70
    32
  0
VERTEX
  8
T07SSILL
 62
2
 10
-500.393
 20
-11.954
 30
4535.150
 70
    32
  0
VERTEX
  8
T07SSILL
 62
2
 10
-544.603
 20
-11.598
 30
4535.150
 70
    32
  0
VERTEX
  8
T07SSILL
 62
2
 10
-675.470
 20
215.880
 30
4535.150
 70
    32
  0
VERTEX
  8
T07SSILL
 62
2
 10
-654.765
 20
248.215
 30
4535.150
 70
    32
  0
VERTEX
  8
T07SSILL
 62
2
 10
-646.631
 20
258.354
 30
4535.150
 70
    32
  0
VERTEX
  8
T07SSILL
 62
2
 10
-661.184
 20
294.244
 30
4535.150
 70
    32
  0
VERTEX
  8
T07SSILL
 62
2
 10
-692.771
 20
348.701
 30
4535.150
 70
    32
  0
VERTEX
  8
T07SSILL
 62
2
 10
-725.907
 20
417.390
 30
4535.150
 70
    32
  0
VERTEX
  8
T07SSILL
 62
2
 10
-739.300
 20
403.627
 30
4535.150
 70
    32
  0
VERTEX
  8
T07SSILL
 62
2
 10
-744.867
 20
411.164
 30
4535.150
 70
    32
  0
VERTEX
  8
T07SSILL
 62
2
 10
-730.248
 20
426.425
 30
4535.150
 70
    32
  0
VERTEX
  8
T07SSILL
 62
2
 10
-733.084
 20
432.391
 30
4535.150
 70
    32
  0
VERTEX
  8
T07SSILL
 62
2
 10
-729.056
 20
436.449
 30
4535.150
 70
    32
  0
VERTEX
  8
T07SSILL
 62
2
 10
-725.783
 20
430.925
 30
4535.150
 70
    32
  0
VERTEX
  8
T07SSILL
 62
2
 10
-496.287
 20
676.144
 30
4535.150
 70
    32
  0
VERTEX
  8
T07SSILL
 62
2
 10
-488.003
 20
670.463
 30
4535.150
 70
    32
  0
VERTEX
  8
T07SSILL
 62
2
 10
-721.180
 20
422.418
 30
4535.150
 70
    32
  0
VERTEX
  8
T07SSILL
 62
2
 10
-683.081
 20
343.113
 30
4535.150
 70
    32
  0
VERTEX
  8
T07SSILL
 62
2
 10
-654.689
 20
296.730
 30
4535.150
 70
    32
  0
VERTEX
  8
T07SSILL
 62
2
 10
-639.960
 20
260.489
 30
4535.150
 70
    32
  0
VERTEX
  8
T07SSILL
 62
2
 10
-625.297
 20
241.562
 30
4535.150
 70
    32
  0
VERTEX
  8
T07SSILL
 62
2
 10
-612.977
 20
237.478
 30
4535.150
 70
    32
  0
VERTEX
  8
T07SSILL
 62
2
 10
-599.476
 20
223.644
 30
4535.150
 70
    32
  0
VERTEX
  8
T07SSILL
 62
2
 10
-589.655
 20
206.720
 30
4535.150
 70
    32
  0
VERTEX
  8
T07SSILL
 62
2
 10
-587.253
 20
199.258
 30
4535.150
 70
    32
  0
VERTEX
  8
T07SSILL
 62
2
 10
-572.512
 20
182.704
 30
4535.150
 70
    32
  0
VERTEX
  8
T07SSILL
 62
2
 10
-562.256
 20
189.863
 30
4535.150
 70
    32
  0
VERTEX
  8
T07SSILL
 62
2
 10
-557.834
 20
182.497
 30
4535.150
 70
    32
  0
VERTEX
  8
T07SSILL
 62
2
 10
-569.059
 20
176.126
 30
4535.150
 70
    32
  0
VERTEX
  8
T07SSILL
 62
2
 10
-554.619
 20
146.827
 30
4535.150
 70
    32
  0
VERTEX
  8
T07SSILL
 62
2
 10
-529.889
 20
115.283
 30
4535.150
 70
    32
  0
VERTEX
  8
T07SSILL
 62
2
 10
-529.137
 20
102.629
 30
4535.150
 70
    32
  0
VERTEX
  8
T07SSILL
 62
2
 10
-512.581
 20
71.581
 30
4535.150
 70
    32
  0
VERTEX
  8
T07SSILL
 62
2
 10
-492.599
 20
40.809
 30
4535.150
 70
    32
  0
VERTEX
  8
T07SSILL
 62
2
 10
-489.840
 20
31.767
 30
4535.150
 70
    32
  0
VERTEX
  8
T07SSILL
 62
2
 10
-479.134
 20
13.352
 30
4535.150
 70
    32
  0
VERTEX
  8
T07SSILL
 62
2
 10
-481.579
 20
9.212
 30
4535.150
 70
    32
  0
VERTEX
  8
T07SSILL
 62
2
 10
-477.596
 20
-20.743
 30
4535.150
 70
    32
  0
VERTEX
  8
T07SSILL
 62
2
 10
-405.587
 20
-141.575
 30
4535.150
 70
    32
  0
VERTEX
  8
T07SSILL
 62
2
 10
-402.054
 20
-169.330
 30
4535.150
 70
    32
  0
VERTEX
  8
T07SSILL
 62
2
 10
-234.299
 20
-452.154
 30
4535.150
 70
    32
  0
VERTEX
  8
T07SSILL
 62
2
 10
-229.725
 20
-452.397
 30
4535.150
 70
    32
  0
VERTEX
  8
T07SSILL
 62
2
 10
-54.848
 20
-331.302
 30
4535.150
 70
    32
  0
VERTEX
  8
T07SSILL
 62
2
 10
-53.807
 20
-328.307
 30
4535.150
 70
    32
  0
VERTEX
  8
T07SSILL
 62
2
 10
-60.264
 20
-319.983
 30
4535.150
 70
    32
  0
VERTEX
  8
T07SSILL
 62
2
 10
-54.482
 20
-315.208
 30
4535.150
 70
    32
  0
VERTEX
  8
T07SSILL
 62
2
 10
-46.696
 20
-325.637
 30
4535.150
 70
    32
  0
VERTEX
  8
T07SSILL
 62
2
 10
2.042
 20
-291.999
 30
4535.150
 70
    32
  0
VERTEX
  8
T07SSILL
 62
2
 10
6.731
 20
-298.221
 30
4535.150
 70
    32
  0
VERTEX
  8
T07SSILL
 62
2
 10
-21.411
 20
-316.816
 30
4535.150
 70
    32
  0
VERTEX
  8
T07SSILL
 62
2
 10
-23.842
 20
-323.686
 30
4535.150
 70
    32
  0
VERTEX
  8
T07SSILL
 62
2
 10
-33.291
 20
-334.105
 30
4535.150
 70
    32
  0
VERTEX
  8
T07SSILL
 62
2
 10
-44.331
 20
-342.861
 30
4535.150
 70
    32
  0
VERTEX
  8
T07SSILL
 62
2
 10
-82.485
 20
-364.228
 30
4535.150
 70
    32
  0
VERTEX
  8
T07SSILL
 62
2
 10
-90.658
 20
-365.409
 30
4535.150
 70
    32
  0
VERTEX
  8
T07SSILL
 62
2
 10
-224.691
 20
-457.123
 30
4535.150
 70
    32
  0
VERTEX
  8
T07SSILL
 62
2
 10
-227.212
 20
-463.553
 30
4535.150
 70
    32
  0
VERTEX
  8
T07SSILL
 62
2
 10
-194.154
 20
-519.945
 30
4535.150
 70
    32
  0
VERTEX
  8
T07SSILL
 62
2
 10
187.045
 20
-731.445
 30
4535.150
 70
    32
  0
VERTEX
  8
T07SSILL
 62
2
 10
286.930
 20
-902.462
 30
4535.150
 70
    32
  0
VERTEX
  8
T07SSILL
 62
2
 10
334.042
 20
-878.592
 30
4535.150
 70
    32
  0
VERTEX
  8
T07SSILL
 62
2
 10
358.369
 20
-814.112
 30
4535.150
 70
    32
  0
VERTEX
  8
T07SSILL
 62
2
 10
353.444
 20
-775.531
 30
4535.150
 70
    32
  0
VERTEX
  8
T07SSILL
 62
2
 10
360.647
 20
-773.915
 30
4535.150
 70
    32
  0
VERTEX
  8
T07SSILL
 62
2
 10
363.587
 20
-801.425
 30
4535.150
 70
    32
  0
VERTEX
  8
T07SSILL
 62
2
 10
371.063
 20
-782.573
 30
4535.150
 70
    32
  0
VERTEX
  8
T07SSILL
 62
2
 10
356.140
 20
-768.923
 30
4535.150
 70
    32
  0
VERTEX
  8
T07SSILL
 62
2
 10
359.806
 20
-763.015
 30
4535.150
 70
    32
  0
VERTEX
  8
T07SSILL
 62
2
 10
368.899
 20
-770.712
 30
4535.150
 70
    32
  0
VERTEX
  8
T07SSILL
 62
2
 10
376.616
 20
-766.104
 30
4535.150
 70
    32
  0
VERTEX
  8
T07SSILL
 62
2
 10
397.644
 20
-710.872
 30
4535.150
 70
    32
  0
VERTEX
  8
T07SSILL
 62
2
 10
404.513
 20
-713.215
 30
4535.150
 70
    32
  0
VERTEX
  8
T07SSILL
 62
2
 10
387.215
 20
-757.086
 30
4535.150
 70
    32
  0
VERTEX
  8
T07SSILL
 62
2
 10
386.147
 20
-773.535
 30
4535.150
 70
    32
  0
VERTEX
  8
T07SSILL
 62
2
 10
380.182
 20
-795.985
 30
4535.150
 70
    32
  0
VERTEX
  8
T07SSILL
 62
2
 10
374.259
 20
-808.411
 30
4535.150
 70
    32
  0
VERTEX
  8
T07SSILL
 62
2
 10
364.982
 20
-818.039
 30
4535.150
 70
    32
  0
VERTEX
  8
T07SSILL
 62
2
 10
316.828
 20
-940.929
 30
4535.150
 70
    32
  0
VERTEX
  8
T07SSILL
 62
2
 10
448.216
 20
-1097.556
 30
4535.150
 70
    32
  0
VERTEX
  8
T07SSILL
 62
2
 10
468.813
 20
-1106.386
 30
4535.150
 70
    32
  0
VERTEX
  8
T07SSILL
 62
2
 10
527.378
 20
-1118.995
 30
4535.150
 70
    32
  0
VERTEX
  8
T07SSILL
 62
2
 10
547.125
 20
-1124.187
 30
4535.150
 70
    32
  0
VERTEX
  8
T07SSILL
 62
2
 10
554.407
 20
-1128.591
 30
4535.150
 70
    32
  0
VERTEX
  8
T07SSILL
 62
2
 10
674.267
 20
-1294.892
 30
4535.150
 70
    32
  0
VERTEX
  8
T07SSILL
 62
2
 10
680.723
 20
-1297.560
 30
4535.150
 70
    32
  0
VERTEX
  8
T07SSILL
 62
2
 10
1117.207
 20
-1070.188
 30
4535.150
 70
    32
  0
VERTEX
  8
T07SSILL
 62
2
 10
1117.210
 20
-1066.155
 30
4535.150
 70
    32
  0
VERTEX
  8
T07SSILL
 62
2
 10
1110.033
 20
-1046.057
 30
4535.150
 70
    32
  0
VERTEX
  8
T07SSILL
 62
2
 10
1085.112
 20
-1065.609
 30
4535.150
 70
    32
  0
VERTEX
  8
T07SSILL
 62
2
 10
1081.194
 20
-1058.591
 30
4535.150
 70
    32
  0
VERTEX
  8
T07SSILL
 62
2
 10
1109.753
 20
-1036.460
 30
4535.150
 70
    32
  0
VERTEX
  8
T07SSILL
 62
2
 10
1184.083
 20
-708.370
 30
4535.150
 70
    32
  0
VERTEX
  8
T07SSILL
 62
2
 10
1177.338
 20
-697.904
 30
4535.150
 70
    32
  0
VERTEX
  8
T07SSILL
 62
2
 10
1167.182
 20
-669.974
 30
4535.150
 70
    32
  0
VERTEX
  8
T07SSILL
 62
2
 10
1168.706
 20
-659.305
 30
4535.150
 70
    32
  0
VERTEX
  8
T07SSILL
 62
2
 10
1173.224
 20
-655.195
 30
4535.150
 70
    32
  0
VERTEX
  8
T07SSILL
 62
2
 10
1185.148
 20
-652.037
 30
4535.150
 70
    32
  0
VERTEX
  8
T07SSILL
 62
2
 10
1197.281
 20
-651.252
 30
4535.150
 70
    32
  0
VERTEX
  8
T07SSILL
 62
2
 10
1203.912
 20
-647.200
 30
4535.150
 70
    32
  0
VERTEX
  8
T07SSILL
 62
2
 10
1203.120
 20
-634.540
 30
4535.150
 70
    32
  0
VERTEX
  8
T07SSILL
 62
2
 10
1197.270
 20
-618.869
 30
4535.150
 70
    32
  0
VERTEX
  8
T07SSILL
 62
2
 10
1189.722
 20
-607.623
 30
4535.150
 70
    32
  0
VERTEX
  8
T07SSILL
 62
2
 10
1182.466
 20
-592.060
 30
4535.150
 70
    32
  0
VERTEX
  8
T07SSILL
 62
2
 10
1143.820
 20
-559.334
 30
4535.150
 70
    32
  0
VERTEX
  8
T07SSILL
 62
2
 10
980.844
 20
-558.960
 30
4535.150
 70
    32
  0
VERTEX
  8
T07SSILL
 62
2
 10
980.483
 20
-551.926
 30
4535.150
 70
    32
  0
VERTEX
  8
T07SSILL
 62
2
 10
1062.578
 20
-551.488
 30
4535.150
 70
    32
  0
SEQEND
  8
T07SSILL
  0
POLYLINE
  8
T07SSILL
 62
2
 66
     1
 70
     9
  0
VERTEX
  8
T07SSILL
 62
2
 10
1056.687
 20
-482.228
 30
4535.150
 70
    32
  0
VERTEX
  8
T07SSILL
 62
2
 10
1066.528
 20
-443.197
 30
4535.150
 70
    32
  0
VERTEX
  8
T07SSILL
 62
2
 10
1135.716
 20
-552.407
 30
4535.150
 70
    32
  0
VERTEX
  8
T07SSILL
 62
2
 10
1072.443
 20
-552.143
 30
4535.150
 70
    32
  0
VERTEX
  8
T07SSILL
 62
2
 10
1058.054
 20
-529.904
 30
4535.150
 70
    32
  0
VERTEX
  8
T07SSILL
 62
2
 10
1063.655
 20
-502.371
 30
4535.150
 70
    32
  0
VERTEX
  8
T07SSILL
 62
2
 10
1062.523
 20
-496.931
 30
4535.150
 70
    32
  0
SEQEND
  8
T07SSILL
  0
POLYLINE
  8
T07SSILL
 62
2
 66
     1
 70
     9
  0
VERTEX
  8
T07SSILL
 62
2
 10
310.063
 20
-1053.871
 30
4535.150
 70
    32
  0
VERTEX
  8
T07SSILL
 62
2
 10
238.818
 20
-1033.857
 30
4535.150
 70
    32
  0
VERTEX
  8
T07SSILL
 62
2
 10
241.113
 20
-1026.357
 30
4535.150
 70
    32
  0
VERTEX
  8
T07SSILL
 62
2
 10
288.492
 20
-1040.605
 30
4535.150
 70
    32
  0
VERTEX
  8
T07SSILL
 62
2
 10
301.928
 20
-1041.723
 30
4535.150
 70
    32
  0
VERTEX
  8
T07SSILL
 62
2
 10
326.108
 20
-1040.947
 30
4535.150
 70
    32
  0
VERTEX
  8
T07SSILL
 62
2
 10
329.507
 20
-1042.270
 30
4535.150
 70
    32
  0
VERTEX
  8
T07SSILL
 62
2
 10
350.912
 20
-1029.499
 30
4535.150
 70
    32
  0
VERTEX
  8
T07SSILL
 62
2
 10
344.617
 20
-1018.097
 30
4535.150
 70
    32
  0
VERTEX
  8
T07SSILL
 62
2
 10
343.880
 20
-1010.977
 30
4535.150
 70
    32
  0
VERTEX
  8
T07SSILL
 62
2
 10
345.158
 20
-1001.914
 30
4535.150
 70
    32
  0
VERTEX
  8
T07SSILL
 62
2
 10
328.106
 20
-965.059
 30
4535.150
 70
    32
  0
VERTEX
  8
T07SSILL
 62
2
 10
292.736
 20
-922.221
 30
4535.150
 70
    32
  0
VERTEX
  8
T07SSILL
 62
2
 10
269.913
 20
-911.861
 30
4535.150
 70
    32
  0
VERTEX
  8
T07SSILL
 62
2
 10
268.622
 20
-917.934
 30
4535.150
 70
    32
  0
VERTEX
  8
T07SSILL
 62
2
 10
262.211
 20
-919.722
 30
4535.150
 70
    32
  0
VERTEX
  8
T07SSILL
 62
2
 10
259.452
 20
-912.436
 30
4535.150
 70
    32
  0
VERTEX
  8
T07SSILL
 62
2
 10
250.011
 20
-905.444
 30
4535.150
 70
    32
  0
VERTEX
  8
T07SSILL
 62
2
 10
237.056
 20
-899.348
 30
4535.150
 70
    32
  0
VERTEX
  8
T07SSILL
 62
2
 10
215.795
 20
-903.402
 30
4535.150
 70
    32
  0
VERTEX
  8
T07SSILL
 62
2
 10
193.271
 20
-920.037
 30
4535.150
 70
    32
  0
VERTEX
  8
T07SSILL
 62
2
 10
209.559
 20
-943.529
 30
4535.150
 70
    32
  0
VERTEX
  8
T07SSILL
 62
2
 10
209.850
 20
-949.596
 30
4535.150
 70
    32
  0
VERTEX
  8
T07SSILL
 62
2
 10
222.453
 20
-974.863
 30
4535.150
 70
    32
  0
VERTEX
  8
T07SSILL
 62
2
 10
217.910
 20
-981.391
 30
4535.150
 70
    32
  0
VERTEX
  8
T07SSILL
 62
2
 10
212.651
 20
-985.197
 30
4535.150
 70
    32
  0
VERTEX
  8
T07SSILL
 62
2
 10
206.944
 20
-987.069
 30
4535.150
 70
    32
  0
VERTEX
  8
T07SSILL
 62
2
 10
185.110
 20
-1000.711
 30
4535.150
 70
    32
  0
VERTEX
  8
T07SSILL
 62
2
 10
180.894
 20
-1001.698
 30
4535.150
 70
    32
  0
VERTEX
  8
T07SSILL
 62
2
 10
174.324
 20
-1007.268
 30
4535.150
 70
    32
  0
VERTEX
  8
T07SSILL
 62
2
 10
174.429
 20
-1010.961
 30
4535.150
 70
    32
  0
VERTEX
  8
T07SSILL
 62
2
 10
172.685
 20
-1014.134
 30
4535.150
 70
    32
  0
VERTEX
  8
T07SSILL
 62
2
 10
192.687
 20
-1042.182
 30
4535.150
 70
    32
  0
VERTEX
  8
T07SSILL
 62
2
 10
197.946
 20
-1038.553
 30
4535.150
 70
    32
  0
VERTEX
  8
T07SSILL
 62
2
 10
238.924
 20
-1096.315
 30
4535.150
 70
    32
  0
SEQEND
  8
T07SSILL
  0
POLYLINE
  8
T07SSILL
 62
2
 66
     1
 70
     9
  0
VERTEX
  8
T07SSILL
 62
2
 10
447.643
 20
-1106.968
 30
4535.150
 70
    32
  0
VERTEX
  8
T07SSILL
 62
2
 10
400.785
 20
-1051.695
 30
4535.150
 70
    32
  0
VERTEX
  8
T07SSILL
 62
2
 10
374.367
 20
-1043.550
 30
4535.150
 70
    32
  0
VERTEX
  8
T07SSILL
 62
2
 10
359.332
 20
-1043.970
 30
4535.150
 70
    32
  0
VERTEX
  8
T07SSILL
 62
2
 10
354.577
 20
-1044.974
 30
4535.150
 70
    32
  0
VERTEX
  8
T07SSILL
 62
2
 10
347.722
 20
-1055.655
 30
4535.150
 70
    32
  0
VERTEX
  8
T07SSILL
 62
2
 10
345.024
 20
-1060.709
 30
4535.150
 70
    32
  0
VERTEX
  8
T07SSILL
 62
2
 10
415.200
 20
-1149.515
 30
4535.150
 70
    32
  0
VERTEX
  8
T07SSILL
 62
2
 10
422.644
 20
-1153.302
 30
4535.150
 70
    32
  0
VERTEX
  8
T07SSILL
 62
2
 10
429.507
 20
-1154.472
 30
4535.150
 70
    32
  0
VERTEX
  8
T07SSILL
 62
2
 10
492.221
 20
-1151.914
 30
4535.150
 70
    32
  0
VERTEX
  8
T07SSILL
 62
2
 10
489.659
 20
-1146.884
 30
4535.150
 70
    32
  0
VERTEX
  8
T07SSILL
 62
2
 10
460.249
 20
-1111.828
 30
4535.150
 70
    32
  0
SEQEND
  8
T07SSILL
  0
POLYLINE
  8
T07SSILL
 62
2
 66
     1
 70
     9
  0
VERTEX
  8
T07SSILL
 62
2
 10
660.625
 20
-1929.258
 30
4535.150
 70
    32
  0
VERTEX
  8
T07SSILL
 62
2
 10
673.747
 20
-1947.100
 30
4535.150
 70
    32
  0
VERTEX
  8
T07SSILL
 62
2
 10
678.651
 20
-1943.378
 30
4535.150
 70
    32
  0
VERTEX
  8
T07SSILL
 62
2
 10
692.924
 20
-1962.820
 30
4535.150
 70
    32
  0
VERTEX
  8
T07SSILL
 62
2
 10
703.011
 20
-1973.316
 30
4535.150
 70
    32
  0
VERTEX
  8
T07SSILL
 62
2
 10
712.698
 20
-1975.370
 30
4535.150
 70
    32
  0
VERTEX
  8
T07SSILL
 62
2
 10
710.477
 20
-1986.729
 30
4535.150
 70
    32
  0
VERTEX
  8
T07SSILL
 62
2
 10
713.126
 20
-1988.561
 30
4535.150
 70
    32
  0
VERTEX
  8
T07SSILL
 62
2
 10
728.842
 20
-1983.808
 30
4535.150
 70
    32
  0
VERTEX
  8
T07SSILL
 62
2
 10
760.151
 20
-1983.626
 30
4535.150
 70
    32
  0
VERTEX
  8
T07SSILL
 62
2
 10
779.663
 20
-1981.402
 30
4535.150
 70
    32
  0
VERTEX
  8
T07SSILL
 62
2
 10
788.311
 20
-1986.277
 30
4535.150
 70
    32
  0
VERTEX
  8
T07SSILL
 62
2
 10
846.527
 20
-1985.060
 30
4535.150
 70
    32
  0
VERTEX
  8
T07SSILL
 62
2
 10
848.985
 20
-1984.166
 30
4535.150
 70
    32
  0
VERTEX
  8
T07SSILL
 62
2
 10
849.588
 20
-1982.140
 30
4535.150
 70
    32
  0
VERTEX
  8
T07SSILL
 62
2
 10
818.419
 20
-1905.550
 30
4535.150
 70
    32
  0
VERTEX
  8
T07SSILL
 62
2
 10
810.937
 20
-1901.570
 30
4535.150
 70
    32
  0
VERTEX
  8
T07SSILL
 62
2
 10
795.481
 20
-1886.160
 30
4535.150
 70
    32
  0
VERTEX
  8
T07SSILL
 62
2
 10
789.952
 20
-1873.310
 30
4535.150
 70
    32
  0
VERTEX
  8
T07SSILL
 62
2
 10
788.463
 20
-1849.206
 30
4535.150
 70
    32
  0
VERTEX
  8
T07SSILL
 62
2
 10
794.259
 20
-1838.116
 30
4535.150
 70
    32
  0
VERTEX
  8
T07SSILL
 62
2
 10
802.888
 20
-1830.951
 30
4535.150
 70
    32
  0
VERTEX
  8
T07SSILL
 62
2
 10
799.697
 20
-1826.151
 30
4535.150
 70
    32
  0
VERTEX
  8
T07SSILL
 62
2
 10
803.529
 20
-1822.528
 30
4535.150
 70
    32
  0
VERTEX
  8
T07SSILL
 62
2
 10
800.250
 20
-1817.641
 30
4535.150
 70
    32
  0
VERTEX
  8
T07SSILL
 62
2
 10
804.696
 20
-1814.102
 30
4535.150
 70
    32
  0
VERTEX
  8
T07SSILL
 62
2
 10
797.265
 20
-1805.035
 30
4535.150
 70
    32
  0
VERTEX
  8
T07SSILL
 62
2
 10
801.535
 20
-1801.322
 30
4535.150
 70
    32
  0
VERTEX
  8
T07SSILL
 62
2
 10
776.771
 20
-1759.760
 30
4535.150
 70
    32
  0
VERTEX
  8
T07SSILL
 62
2
 10
764.267
 20
-1752.484
 30
4535.150
 70
    32
  0
VERTEX
  8
T07SSILL
 62
2
 10
762.404
 20
-1725.051
 30
4535.150
 70
    32
  0
VERTEX
  8
T07SSILL
 62
2
 10
751.258
 20
-1711.540
 30
4535.150
 70
    32
  0
VERTEX
  8
T07SSILL
 62
2
 10
754.656
 20
-1708.446
 30
4535.150
 70
    32
  0
VERTEX
  8
T07SSILL
 62
2
 10
752.834
 20
-1699.076
 30
4535.150
 70
    32
  0
VERTEX
  8
T07SSILL
 62
2
 10
754.022
 20
-1693.456
 30
4535.150
 70
    32
  0
VERTEX
  8
T07SSILL
 62
2
 10
768.779
 20
-1684.844
 30
4535.150
 70
    32
  0
VERTEX
  8
T07SSILL
 62
2
 10
785.667
 20
-1679.812
 30
4535.150
 70
    32
  0
VERTEX
  8
T07SSILL
 62
2
 10
790.383
 20
-1677.235
 30
4535.150
 70
    32
  0
VERTEX
  8
T07SSILL
 62
2
 10
789.710
 20
-1668.909
 30
4535.150
 70
    32
  0
VERTEX
  8
T07SSILL
 62
2
 10
787.117
 20
-1662.001
 30
4535.150
 70
    32
  0
VERTEX
  8
T07SSILL
 62
2
 10
777.701
 20
-1645.145
 30
4535.150
 70
    32
  0
VERTEX
  8
T07SSILL
 62
2
 10
733.205
 20
-1664.230
 30
4535.150
 70
    32
  0
VERTEX
  8
T07SSILL
 62
2
 10
710.731
 20
-1636.331
 30
4535.150
 70
    32
  0
VERTEX
  8
T07SSILL
 62
2
 10
715.615
 20
-1632.613
 30
4535.150
 70
    32
  0
VERTEX
  8
T07SSILL
 62
2
 10
698.723
 20
-1612.654
 30
4535.150
 70
    32
  0
VERTEX
  8
T07SSILL
 62
2
 10
697.501
 20
-1613.364
 30
4535.150
 70
    32
  0
VERTEX
  8
T07SSILL
 62
2
 10
689.111
 20
-1605.182
 30
4535.150
 70
    32
  0
VERTEX
  8
T07SSILL
 62
2
 10
697.645
 20
-1596.878
 30
4535.150
 70
    32
  0
VERTEX
  8
T07SSILL
 62
2
 10
704.096
 20
-1603.846
 30
4535.150
 70
    32
  0
VERTEX
  8
T07SSILL
 62
2
 10
706.189
 20
-1602.253
 30
4535.150
 70
    32
  0
VERTEX
  8
T07SSILL
 62
2
 10
694.692
 20
-1588.569
 30
4535.150
 70
    32
  0
VERTEX
  8
T07SSILL
 62
2
 10
703.846
 20
-1581.225
 30
4535.150
 70
    32
  0
VERTEX
  8
T07SSILL
 62
2
 10
699.861
 20
-1575.817
 30
4535.150
 70
    32
  0
VERTEX
  8
T07SSILL
 62
2
 10
681.029
 20
-1590.859
 30
4535.150
 70
    32
  0
VERTEX
  8
T07SSILL
 62
2
 10
669.529
 20
-1576.911
 30
4535.150
 70
    32
  0
VERTEX
  8
T07SSILL
 62
2
 10
664.733
 20
-1580.629
 30
4535.150
 70
    32
  0
VERTEX
  8
T07SSILL
 62
2
 10
653.934
 20
-1566.676
 30
4535.150
 70
    32
  0
VERTEX
  8
T07SSILL
 62
2
 10
662.825
 20
-1559.247
 30
4535.150
 70
    32
  0
VERTEX
  8
T07SSILL
 62
2
 10
651.155
 20
-1546.002
 30
4535.150
 70
    32
  0
VERTEX
  8
T07SSILL
 62
2
 10
646.794
 20
-1549.278
 30
4535.150
 70
    32
  0
VERTEX
  8
T07SSILL
 62
2
 10
639.100
 20
-1540.213
 30
4535.150
 70
    32
  0
VERTEX
  8
T07SSILL
 62
2
 10
634.216
 20
-1543.844
 30
4535.150
 70
    32
  0
VERTEX
  8
T07SSILL
 62
2
 10
627.318
 20
-1535.738
 30
4535.150
 70
    32
  0
VERTEX
  8
T07SSILL
 62
2
 10
622.170
 20
-1539.283
 30
4535.150
 70
    32
  0
VERTEX
  8
T07SSILL
 62
2
 10
610.581
 20
-1525.161
 30
4535.150
 70
    32
  0
VERTEX
  8
T07SSILL
 62
2
 10
606.306
 20
-1528.261
 30
4535.150
 70
    32
  0
VERTEX
  8
T07SSILL
 62
2
 10
593.922
 20
-1513.267
 30
4535.150
 70
    32
  0
VERTEX
  8
T07SSILL
 62
2
 10
540.794
 20
-1539.167
 30
4535.150
 70
    32
  0
VERTEX
  8
T07SSILL
 62
2
 10
548.945
 20
-1563.047
 30
4535.150
 70
    32
  0
VERTEX
  8
T07SSILL
 62
2
 10
552.992
 20
-1564.859
 30
4535.150
 70
    32
  0
VERTEX
  8
T07SSILL
 62
2
 10
556.188
 20
-1570.273
 30
4535.150
 70
    32
  0
VERTEX
  8
T07SSILL
 62
2
 10
560.548
 20
-1566.909
 30
4535.150
 70
    32
  0
VERTEX
  8
T07SSILL
 62
2
 10
569.940
 20
-1580.434
 30
4535.150
 70
    32
  0
VERTEX
  8
T07SSILL
 62
2
 10
575.351
 20
-1576.887
 30
4535.150
 70
    32
  0
VERTEX
  8
T07SSILL
 62
2
 10
578.631
 20
-1581.774
 30
4535.150
 70
    32
  0
VERTEX
  8
T07SSILL
 62
2
 10
583.340
 20
-1578.145
 30
4535.150
 70
    32
  0
VERTEX
  8
T07SSILL
 62
2
 10
614.870
 20
-1621.675
 30
4535.150
 70
    32
  0
VERTEX
  8
T07SSILL
 62
2
 10
575.698
 20
-1649.578
 30
4535.150
 70
    32
  0
VERTEX
  8
T07SSILL
 62
2
 10
579.156
 20
-1654.815
 30
4535.150
 70
    32
  0
VERTEX
  8
T07SSILL
 62
2
 10
617.542
 20
-1627.443
 30
4535.150
 70
    32
  0
VERTEX
  8
T07SSILL
 62
2
 10
635.777
 20
-1651.251
 30
4535.150
 70
    32
  0
VERTEX
  8
T07SSILL
 62
2
 10
631.506
 20
-1654.877
 30
4535.150
 70
    32
  0
VERTEX
  8
T07SSILL
 62
2
 10
634.961
 20
-1659.675
 30
4535.150
 70
    32
  0
VERTEX
  8
T07SSILL
 62
2
 10
630.425
 20
-1663.040
 30
4535.150
 70
    32
  0
VERTEX
  8
T07SSILL
 62
2
 10
637.072
 20
-1672.725
 30
4535.150
 70
    32
  0
VERTEX
  8
T07SSILL
 62
2
 10
642.115
 20
-1691.191
 30
4535.150
 70
    32
  0
VERTEX
  8
T07SSILL
 62
2
 10
643.086
 20
-1704.338
 30
4535.150
 70
    32
  0
VERTEX
  8
T07SSILL
 62
2
 10
639.417
 20
-1718.394
 30
4535.150
 70
    32
  0
VERTEX
  8
T07SSILL
 62
2
 10
623.140
 20
-1747.361
 30
4535.150
 70
    32
  0
VERTEX
  8
T07SSILL
 62
2
 10
626.902
 20
-1758.470
 30
4535.150
 70
    32
  0
VERTEX
  8
T07SSILL
 62
2
 10
624.240
 20
-1766.294
 30
4535.150
 70
    32
  0
VERTEX
  8
T07SSILL
 62
2
 10
613.754
 20
-1771.367
 30
4535.150
 70
    32
  0
VERTEX
  8
T07SSILL
 62
2
 10
595.028
 20
-1776.851
 30
4535.150
 70
    32
  0
VERTEX
  8
T07SSILL
 62
2
 10
582.021
 20
-1785.012
 30
4535.150
 70
    32
  0
VERTEX
  8
T07SSILL
 62
2
 10
573.477
 20
-1816.203
 30
4535.150
 70
    32
  0
VERTEX
  8
T07SSILL
 62
2
 10
575.486
 20
-1827.412
 30
4535.150
 70
    32
  0
VERTEX
  8
T07SSILL
 62
2
 10
580.103
 20
-1835.359
 30
4535.150
 70
    32
  0
VERTEX
  8
T07SSILL
 62
2
 10
589.767
 20
-1837.832
 30
4535.150
 70
    32
  0
VERTEX
  8
T07SSILL
 62
2
 10
606.611
 20
-1838.939
 30
4535.150
 70
    32
  0
VERTEX
  8
T07SSILL
 62
2
 10
608.237
 20
-1845.591
 30
4535.150
 70
    32
  0
VERTEX
  8
T07SSILL
 62
2
 10
606.521
 20
-1850.777
 30
4535.150
 70
    32
  0
VERTEX
  8
T07SSILL
 62
2
 10
601.362
 20
-1852.831
 30
4535.150
 70
    32
  0
VERTEX
  8
T07SSILL
 62
2
 10
601.477
 20
-1856.689
 30
4535.150
 70
    32
  0
VERTEX
  8
T07SSILL
 62
2
 10
624.126
 20
-1884.499
 30
4535.150
 70
    32
  0
VERTEX
  8
T07SSILL
 62
2
 10
637.004
 20
-1907.205
 30
4535.150
 70
    32
  0
VERTEX
  8
T07SSILL
 62
2
 10
641.366
 20
-1904.105
 30
4535.150
 70
    32
  0
SEQEND
  8
T07SSILL
  0
POLYLINE
  8
T07SSILL
 62
2
 66
     1
 70
     9
  0
VERTEX
  8
T07SSILL
 62
2
 10
642.341
 20
-2006.298
 30
4535.150
 70
    32
  0
VERTEX
  8
T07SSILL
 62
2
 10
647.249
 20
-2003.279
 30
4535.150
 70
    32
  0
VERTEX
  8
T07SSILL
 62
2
 10
660.993
 20
-2022.548
 30
4535.150
 70
    32
  0
VERTEX
  8
T07SSILL
 62
2
 10
642.771
 20
-2034.967
 30
4535.150
 70
    32
  0
VERTEX
  8
T07SSILL
 62
2
 10
624.275
 20
-2030.413
 30
4535.150
 70
    32
  0
VERTEX
  8
T07SSILL
 62
2
 10
554.555
 20
-1958.874
 30
4535.150
 70
    32
  0
VERTEX
  8
T07SSILL
 62
2
 10
544.035
 20
-1928.919
 30
4535.150
 70
    32
  0
VERTEX
  8
T07SSILL
 62
2
 10
510.527
 20
-1854.274
 30
4535.150
 70
    32
  0
VERTEX
  8
T07SSILL
 62
2
 10
491.501
 20
-1842.397
 30
4535.150
 70
    32
  0
VERTEX
  8
T07SSILL
 62
2
 10
492.512
 20
-1836.690
 30
4535.150
 70
    32
  0
VERTEX
  8
T07SSILL
 62
2
 10
513.885
 20
-1821.279
 30
4535.150
 70
    32
  0
VERTEX
  8
T07SSILL
 62
2
 10
519.289
 20
-1828.869
 30
4535.150
 70
    32
  0
VERTEX
  8
T07SSILL
 62
2
 10
524.525
 20
-1825.411
 30
4535.150
 70
    32
  0
VERTEX
  8
T07SSILL
 62
2
 10
527.717
 20
-1830.299
 30
4535.150
 70
    32
  0
VERTEX
  8
T07SSILL
 62
2
 10
532.692
 20
-1827.019
 30
4535.150
 70
    32
  0
VERTEX
  8
T07SSILL
 62
2
 10
560.508
 20
-1866.278
 30
4535.150
 70
    32
  0
VERTEX
  8
T07SSILL
 62
2
 10
576.653
 20
-1855.464
 30
4535.150
 70
    32
  0
VERTEX
  8
T07SSILL
 62
2
 10
590.193
 20
-1860.453
 30
4535.150
 70
    32
  0
VERTEX
  8
T07SSILL
 62
2
 10
604.076
 20
-1876.575
 30
4535.150
 70
    32
  0
VERTEX
  8
T07SSILL
 62
2
 10
592.467
 20
-1884.025
 30
4535.150
 70
    32
  0
VERTEX
  8
T07SSILL
 62
2
 10
577.635
 20
-1882.290
 30
4535.150
 70
    32
  0
VERTEX
  8
T07SSILL
 62
2
 10
556.690
 20
-1896.295
 30
4535.150
 70
    32
  0
VERTEX
  8
T07SSILL
 62
2
 10
556.647
 20
-1902.521
 30
4535.150
 70
    32
  0
VERTEX
  8
T07SSILL
 62
2
 10
568.678
 20
-1917.079
 30
4535.150
 70
    32
  0
VERTEX
  8
T07SSILL
 62
2
 10
571.326
 20
-1931.704
 30
4535.150
 70
    32
  0
VERTEX
  8
T07SSILL
 62
2
 10
579.155
 20
-1939.294
 30
4535.150
 70
    32
  0
VERTEX
  8
T07SSILL
 62
2
 10
611.957
 20
-1984.135
 30
4535.150
 70
    32
  0
VERTEX
  8
T07SSILL
 62
2
 10
616.425
 20
-1981.118
 30
4535.150
 70
    32
  0
VERTEX
  8
T07SSILL
 62
2
 10
623.075
 20
-1990.315
 30
4535.150
 70
    32
  0
VERTEX
  8
T07SSILL
 62
2
 10
627.981
 20
-1986.944
 30
4535.150
 70
    32
  0
SEQEND
  8
T07SSILL
  0
POLYLINE
  8
T07SSILL
 62
2
 66
     1
 70
     9
  0
VERTEX
  8
T07SSILL
 62
2
 10
1037.738
 20
-1931.244
 30
4535.150
 70
    32
  0
VERTEX
  8
T07SSILL
 62
2
 10
1040.354
 20
-1929.208
 30
4535.150
 70
    32
  0
VERTEX
  8
T07SSILL
 62
2
 10
1024.706
 20
-1911.608
 30
4535.150
 70
    32
  0
VERTEX
  8
T07SSILL
 62
2
 10
1029.236
 20
-1907.454
 30
4535.150
 70
    32
  0
VERTEX
  8
T07SSILL
 62
2
 10
1017.651
 20
-1893.770
 30
4535.150
 70
    32
  0
VERTEX
  8
T07SSILL
 62
2
 10
1022.005
 20
-1889.617
 30
4535.150
 70
    32
  0
VERTEX
  8
T07SSILL
 62
2
 10
847.650
 20
-1690.240
 30
4535.150
 70
    32
  0
VERTEX
  8
T07SSILL
 62
2
 10
848.681
 20
-1699.527
 30
4535.150
 70
    32
  0
VERTEX
  8
T07SSILL
 62
2
 10
852.990
 20
-1713.439
 30
4535.150
 70
    32
  0
VERTEX
  8
T07SSILL
 62
2
 10
853.499
 20
-1723.168
 30
4535.150
 70
    32
  0
VERTEX
  8
T07SSILL
 62
2
 10
851.670
 20
-1737.124
 30
4535.150
 70
    32
  0
VERTEX
  8
T07SSILL
 62
2
 10
858.268
 20
-1752.334
 30
4535.150
 70
    32
  0
VERTEX
  8
T07SSILL
 62
2
 10
876.111
 20
-1855.766
 30
4535.150
 70
    32
  0
VERTEX
  8
T07SSILL
 62
2
 10
858.211
 20
-1878.519
 30
4535.150
 70
    32
  0
VERTEX
  8
T07SSILL
 62
2
 10
861.110
 20
-1891.388
 30
4535.150
 70
    32
  0
VERTEX
  8
T07SSILL
 62
2
 10
860.614
 20
-1895.688
 30
4535.150
 70
    32
  0
VERTEX
  8
T07SSILL
 62
2
 10
856.886
 20
-1901.503
 30
4535.150
 70
    32
  0
VERTEX
  8
T07SSILL
 62
2
 10
856.315
 20
-1907.557
 30
4535.150
 70
    32
  0
VERTEX
  8
T07SSILL
 62
2
 10
838.085
 20
-1908.828
 30
4535.150
 70
    32
  0
VERTEX
  8
T07SSILL
 62
2
 10
832.639
 20
-1919.741
 30
4535.150
 70
    32
  0
VERTEX
  8
T07SSILL
 62
2
 10
857.602
 20
-1983.852
 30
4535.150
 70
    32
  0
VERTEX
  8
T07SSILL
 62
2
 10
863.080
 20
-1988.130
 30
4535.150
 70
    32
  0
VERTEX
  8
T07SSILL
 62
2
 10
949.644
 20
-2006.801
 30
4535.150
 70
    32
  0
VERTEX
  8
T07SSILL
 62
2
 10
943.525
 20
-1998.217
 30
4535.150
 70
    32
  0
VERTEX
  8
T07SSILL
 62
2
 10
937.655
 20
-1986.905
 30
4535.150
 70
    32
  0
VERTEX
  8
T07SSILL
 62
2
 10
938.833
 20
-1977.752
 30
4535.150
 70
    32
  0
VERTEX
  8
T07SSILL
 62
2
 10
946.506
 20
-1966.186
 30
4535.150
 70
    32
  0
VERTEX
  8
T07SSILL
 62
2
 10
942.057
 20
-1942.201
 30
4535.150
 70
    32
  0
VERTEX
  8
T07SSILL
 62
2
 10
938.489
 20
-1933.690
 30
4535.150
 70
    32
  0
VERTEX
  8
T07SSILL
 62
2
 10
922.364
 20
-1928.507
 30
4535.150
 70
    32
  0
VERTEX
  8
T07SSILL
 62
2
 10
922.857
 20
-1922.523
 30
4535.150
 70
    32
  0
VERTEX
  8
T07SSILL
 62
2
 10
934.656
 20
-1924.830
 30
4535.150
 70
    32
  0
VERTEX
  8
T07SSILL
 62
2
 10
943.563
 20
-1929.000
 30
4535.150
 70
    32
  0
VERTEX
  8
T07SSILL
 62
2
 10
962.749
 20
-1946.302
 30
4535.150
 70
    32
  0
VERTEX
  8
T07SSILL
 62
2
 10
981.737
 20
-1974.952
 30
4535.150
 70
    32
  0
VERTEX
  8
T07SSILL
 62
2
 10
996.755
 20
-1986.386
 30
4535.150
 70
    32
  0
VERTEX
  8
T07SSILL
 62
2
 10
998.533
 20
-1989.718
 30
4535.150
 70
    32
  0
VERTEX
  8
T07SSILL
 62
2
 10
996.569
 20
-1999.844
 30
4535.150
 70
    32
  0
VERTEX
  8
T07SSILL
 62
2
 10
1004.245
 20
-2019.149
 30
4535.150
 70
    32
  0
VERTEX
  8
T07SSILL
 62
2
 10
1021.940
 20
-2022.036
 30
4535.150
 70
    32
  0
VERTEX
  8
T07SSILL
 62
2
 10
1066.018
 20
-2024.595
 30
4535.150
 70
    32
  0
VERTEX
  8
T07SSILL
 62
2
 10
1069.516
 20
-2021.144
 30
4535.150
 70
    32
  0
VERTEX
  8
T07SSILL
 62
2
 10
1073.150
 20
-2025.961
 30
4535.150
 70
    32
  0
VERTEX
  8
T07SSILL
 62
2
 10
1087.061
 20
-2013.303
 30
4535.150
 70
    32
  0
VERTEX
  8
T07SSILL
 62
2
 10
1079.180
 20
-2004.202
 30
4535.150
 70
    32
  0
VERTEX
  8
T07SSILL
 62
2
 10
1065.000
 20
-2015.982
 30
4535.150
 70
    32
  0
VERTEX
  8
T07SSILL
 62
2
 10
1061.192
 20
-2011.430
 30
4535.150
 70
    32
  0
VERTEX
  8
T07SSILL
 62
2
 10
1065.922
 20
-2008.061
 30
4535.150
 70
    32
  0
VERTEX
  8
T07SSILL
 62
2
 10
1046.176
 20
-1985.132
 30
4535.150
 70
    32
  0
VERTEX
  8
T07SSILL
 62
2
 10
1050.284
 20
-1980.799
 30
4535.150
 70
    32
  0
VERTEX
  8
T07SSILL
 62
2
 10
1027.348
 20
-1953.755
 30
4535.150
 70
    32
  0
VERTEX
  8
T07SSILL
 62
2
 10
1041.443
 20
-1942.503
 30
4535.150
 70
    32
  0
VERTEX
  8
T07SSILL
 62
2
 10
1037.629
 20
-1936.985
 30
4535.150
 70
    32
  0
VERTEX
  8
T07SSILL
 62
2
 10
1040.517
 20
-1934.593
 30
4535.150
 70
    32
  0
SEQEND
  8
T07SSILL
  0
POLYLINE
  8
T07SSILL
 62
2
 66
     1
 70
     9
  0
VERTEX
  8
T07SSILL
 62
2
 10
891.475
 20
-1199.746
 30
4535.150
 70
    32
  0
VERTEX
  8
T07SSILL
 62
2
 10
689.488
 20
-1303.969
 30
4535.150
 70
    32
  0
VERTEX
  8
T07SSILL
 62
2
 10
686.878
 20
-1306.794
 30
4535.150
 70
    32
  0
VERTEX
  8
T07SSILL
 62
2
 10
685.510
 20
-1311.626
 30
4535.150
 70
    32
  0
VERTEX
  8
T07SSILL
 62
2
 10
694.980
 20
-1323.747
 30
4535.150
 70
    32
  0
VERTEX
  8
T07SSILL
 62
2
 10
760.950
 20
-1461.908
 30
4535.150
 70
    32
  0
VERTEX
  8
T07SSILL
 62
2
 10
786.623
 20
-1459.093
 30
4535.150
 70
    32
  0
VERTEX
  8
T07SSILL
 62
2
 10
791.689
 20
-1456.426
 30
4535.150
 70
    32
  0
VERTEX
  8
T07SSILL
 62
2
 10
798.292
 20
-1447.873
 30
4535.150
 70
    32
  0
VERTEX
  8
T07SSILL
 62
2
 10
802.519
 20
-1438.197
 30
4535.150
 70
    32
  0
VERTEX
  8
T07SSILL
 62
2
 10
811.972
 20
-1435.761
 30
4535.150
 70
    32
  0
VERTEX
  8
T07SSILL
 62
2
 10
817.686
 20
-1437.649
 30
4535.150
 70
    32
  0
VERTEX
  8
T07SSILL
 62
2
 10
823.338
 20
-1443.308
 30
4535.150
 70
    32
  0
VERTEX
  8
T07SSILL
 62
2
 10
826.319
 20
-1467.576
 30
4535.150
 70
    32
  0
VERTEX
  8
T07SSILL
 62
2
 10
833.849
 20
-1478.220
 30
4535.150
 70
    32
  0
VERTEX
  8
T07SSILL
 62
2
 10
838.674
 20
-1478.449
 30
4535.150
 70
    32
  0
VERTEX
  8
T07SSILL
 62
2
 10
839.044
 20
-1493.441
 30
4535.150
 70
    32
  0
VERTEX
  8
T07SSILL
 62
2
 10
845.778
 20
-1515.227
 30
4535.150
 70
    32
  0
VERTEX
  8
T07SSILL
 62
2
 10
840.220
 20
-1522.808
 30
4535.150
 70
    32
  0
VERTEX
  8
T07SSILL
 62
2
 10
834.716
 20
-1525.566
 30
4535.150
 70
    32
  0
VERTEX
  8
T07SSILL
 62
2
 10
833.112
 20
-1534.259
 30
4535.150
 70
    32
  0
VERTEX
  8
T07SSILL
 62
2
 10
835.374
 20
-1543.976
 30
4535.150
 70
    32
  0
VERTEX
  8
T07SSILL
 62
2
 10
834.360
 20
-1549.244
 30
4535.150
 70
    32
  0
VERTEX
  8
T07SSILL
 62
2
 10
828.443
 20
-1555.600
 30
4535.150
 70
    32
  0
VERTEX
  8
T07SSILL
 62
2
 10
824.248
 20
-1557.647
 30
4535.150
 70
    32
  0
VERTEX
  8
T07SSILL
 62
2
 10
825.178
 20
-1565.007
 30
4535.150
 70
    32
  0
VERTEX
  8
T07SSILL
 62
2
 10
828.694
 20
-1566.209
 30
4535.150
 70
    32
  0
VERTEX
  8
T07SSILL
 62
2
 10
830.940
 20
-1573.646
 30
4535.150
 70
    32
  0
VERTEX
  8
T07SSILL
 62
2
 10
836.930
 20
-1577.374
 30
4535.150
 70
    32
  0
VERTEX
  8
T07SSILL
 62
2
 10
852.469
 20
-1579.893
 30
4535.150
 70
    32
  0
VERTEX
  8
T07SSILL
 62
2
 10
863.645
 20
-1585.512
 30
4535.150
 70
    32
  0
VERTEX
  8
T07SSILL
 62
2
 10
900.686
 20
-1578.318
 30
4535.150
 70
    32
  0
VERTEX
  8
T07SSILL
 62
2
 10
1003.976
 20
-1467.527
 30
4535.150
 70
    32
  0
VERTEX
  8
T07SSILL
 62
2
 10
1055.002
 20
-1198.044
 30
4535.150
 70
    32
  0
VERTEX
  8
T07SSILL
 62
2
 10
1052.836
 20
-1189.553
 30
4535.150
 70
    32
  0
VERTEX
  8
T07SSILL
 62
2
 10
1046.726
 20
-1181.267
 30
4535.150
 70
    32
  0
VERTEX
  8
T07SSILL
 62
2
 10
1039.514
 20
-1178.250
 30
4535.150
 70
    32
  0
VERTEX
  8
T07SSILL
 62
2
 10
980.421
 20
-1167.363
 30
4535.150
 70
    32
  0
VERTEX
  8
T07SSILL
 62
2
 10
945.552
 20
-1171.647
 30
4535.150
 70
    32
  0
VERTEX
  8
T07SSILL
 62
2
 10
902.743
 20
-1193.702
 30
4535.150
 70
    32
  0
VERTEX
  8
T07SSILL
 62
2
 10
901.541
 20
-1197.218
 30
4535.150
 70
    32
  0
VERTEX
  8
T07SSILL
 62
2
 10
907.688
 20
-1210.590
 30
4535.150
 70
    32
  0
VERTEX
  8
T07SSILL
 62
2
 10
896.856
 20
-1216.368
 30
4535.150
 70
    32
  0
VERTEX
  8
T07SSILL
 62
2
 10
892.226
 20
-1206.668
 30
4535.150
 70
    32
  0
VERTEX
  8
T07SSILL
 62
2
 10
896.158
 20
-1204.710
 30
4535.150
 70
    32
  0
VERTEX
  8
T07SSILL
 62
2
 10
893.581
 20
-1199.906
 30
4535.150
 70
    32
  0
SEQEND
  8
T07SSILL
  0
POLYLINE
  8
T07SSILL
 62
2
 66
     1
 70
     9
  0
VERTEX
  8
T07SSILL
 62
2
 10
1299.070
 20
-1862.461
 30
4535.150
 70
    32
  0
VERTEX
  8
T07SSILL
 62
2
 10
1300.425
 20
-1867.564
 30
4535.150
 70
    32
  0
VERTEX
  8
T07SSILL
 62
2
 10
1292.108
 20
-1872.211
 30
4535.150
 70
    32
  0
VERTEX
  8
T07SSILL
 62
2
 10
1303.566
 20
-1904.053
 30
4535.150
 70
    32
  0
VERTEX
  8
T07SSILL
 62
2
 10
1313.138
 20
-1904.815
 30
4535.150
 70
    32
  0
VERTEX
  8
T07SSILL
 62
2
 10
1316.828
 20
-1896.934
 30
4535.150
 70
    32
  0
VERTEX
  8
T07SSILL
 62
2
 10
1328.071
 20
-1893.803
 30
4535.150
 70
    32
  0
VERTEX
  8
T07SSILL
 62
2
 10
1336.547
 20
-1884.243
 30
4535.150
 70
    32
  0
VERTEX
  8
T07SSILL
 62
2
 10
1347.073
 20
-1876.305
 30
4535.150
 70
    32
  0
VERTEX
  8
T07SSILL
 62
2
 10
1358.422
 20
-1869.927
 30
4535.150
 70
    32
  0
VERTEX
  8
T07SSILL
 62
2
 10
1369.770
 20
-1868.038
 30
4535.150
 70
    32
  0
VERTEX
  8
T07SSILL
 62
2
 10
1376.170
 20
-1864.395
 30
4535.150
 70
    32
  0
VERTEX
  8
T07SSILL
 62
2
 10
1388.337
 20
-1854.474
 30
4535.150
 70
    32
  0
VERTEX
  8
T07SSILL
 62
2
 10
1383.431
 20
-1842.629
 30
4535.150
 70
    32
  0
VERTEX
  8
T07SSILL
 62
2
 10
1357.644
 20
-1824.972
 30
4535.150
 70
    32
  0
VERTEX
  8
T07SSILL
 62
2
 10
1349.798
 20
-1827.067
 30
4535.150
 70
    32
  0
VERTEX
  8
T07SSILL
 62
2
 10
1329.307
 20
-1799.185
 30
4535.150
 70
    32
  0
VERTEX
  8
T07SSILL
 62
2
 10
1329.514
 20
-1788.310
 30
4535.150
 70
    32
  0
VERTEX
  8
T07SSILL
 62
2
 10
1323.601
 20
-1778.179
 30
4535.150
 70
    32
  0
VERTEX
  8
T07SSILL
 62
2
 10
1322.326
 20
-1771.807
 30
4535.150
 70
    32
  0
VERTEX
  8
T07SSILL
 62
2
 10
1330.769
 20
-1760.669
 30
4535.150
 70
    32
  0
VERTEX
  8
T07SSILL
 62
2
 10
1357.244
 20
-1781.323
 30
4535.150
 70
    32
  0
VERTEX
  8
T07SSILL
 62
2
 10
1380.691
 20
-1810.015
 30
4535.150
 70
    32
  0
VERTEX
  8
T07SSILL
 62
2
 10
1388.060
 20
-1821.846
 30
4535.150
 70
    32
  0
VERTEX
  8
T07SSILL
 62
2
 10
1413.522
 20
-1844.565
 30
4535.150
 70
    32
  0
VERTEX
  8
T07SSILL
 62
2
 10
1415.000
 20
-1871.909
 30
4535.150
 70
    32
  0
VERTEX
  8
T07SSILL
 62
2
 10
1420.443
 20
-1870.295
 30
4535.150
 70
    32
  0
VERTEX
  8
T07SSILL
 62
2
 10
1564.269
 20
-1687.018
 30
4535.150
 70
    32
  0
VERTEX
  8
T07SSILL
 62
2
 10
1499.766
 20
-1524.825
 30
4535.150
 70
    32
  0
VERTEX
  8
T07SSILL
 62
2
 10
1496.368
 20
-1532.236
 30
4535.150
 70
    32
  0
VERTEX
  8
T07SSILL
 62
2
 10
1491.252
 20
-1529.971
 30
4535.150
 70
    32
  0
VERTEX
  8
T07SSILL
 62
2
 10
1490.618
 20
-1526.365
 30
4535.150
 70
    32
  0
VERTEX
  8
T07SSILL
 62
2
 10
1475.783
 20
-1516.488
 30
4535.150
 70
    32
  0
VERTEX
  8
T07SSILL
 62
2
 10
1473.887
 20
-1506.638
 30
4535.150
 70
    32
  0
VERTEX
  8
T07SSILL
 62
2
 10
1457.334
 20
-1505.749
 30
4535.150
 70
    32
  0
VERTEX
  8
T07SSILL
 62
2
 10
1452.126
 20
-1502.780
 30
4535.150
 70
    32
  0
VERTEX
  8
T07SSILL
 62
2
 10
1444.919
 20
-1505.279
 30
4535.150
 70
    32
  0
VERTEX
  8
T07SSILL
 62
2
 10
1434.742
 20
-1512.458
 30
4535.150
 70
    32
  0
VERTEX
  8
T07SSILL
 62
2
 10
1431.037
 20
-1510.803
 30
4535.150
 70
    32
  0
VERTEX
  8
T07SSILL
 62
2
 10
1422.326
 20
-1511.637
 30
4535.150
 70
    32
  0
VERTEX
  8
T07SSILL
 62
2
 10
1406.683
 20
-1498.595
 30
4535.150
 70
    32
  0
VERTEX
  8
T07SSILL
 62
2
 10
1402.258
 20
-1493.510
 30
4535.150
 70
    32
  0
VERTEX
  8
T07SSILL
 62
2
 10
1377.830
 20
-1447.236
 30
4535.150
 70
    32
  0
VERTEX
  8
T07SSILL
 62
2
 10
1388.429
 20
-1436.094
 30
4535.150
 70
    32
  0
VERTEX
  8
T07SSILL
 62
2
 10
1389.289
 20
-1431.864
 30
4535.150
 70
    32
  0
VERTEX
  8
T07SSILL
 62
2
 10
1398.142
 20
-1423.988
 30
4535.150
 70
    32
  0
VERTEX
  8
T07SSILL
 62
2
 10
1401.113
 20
-1419.308
 30
4535.150
 70
    32
  0
VERTEX
  8
T07SSILL
 62
2
 10
1430.307
 20
-1394.257
 30
4535.150
 70
    32
  0
VERTEX
  8
T07SSILL
 62
2
 10
1423.040
 20
-1383.905
 30
4535.150
 70
    32
  0
VERTEX
  8
T07SSILL
 62
2
 10
1417.796
 20
-1373.366
 30
4535.150
 70
    32
  0
VERTEX
  8
T07SSILL
 62
2
 10
1396.420
 20
-1358.063
 30
4535.150
 70
    32
  0
VERTEX
  8
T07SSILL
 62
2
 10
1386.801
 20
-1353.003
 30
4535.150
 70
    32
  0
VERTEX
  8
T07SSILL
 62
2
 10
1383.793
 20
-1349.760
 30
4535.150
 70
    32
  0
VERTEX
  8
T07SSILL
 62
2
 10
1371.938
 20
-1318.743
 30
4535.150
 70
    32
  0
VERTEX
  8
T07SSILL
 62
2
 10
1280.647
 20
-1247.732
 30
4535.150
 70
    32
  0
VERTEX
  8
T07SSILL
 62
2
 10
1277.034
 20
-1248.440
 30
4535.150
 70
    32
  0
VERTEX
  8
T07SSILL
 62
2
 10
1277.752
 20
-1261.662
 30
4535.150
 70
    32
  0
VERTEX
  8
T07SSILL
 62
2
 10
1264.226
 20
-1260.459
 30
4535.150
 70
    32
  0
VERTEX
  8
T07SSILL
 62
2
 10
1255.524
 20
-1251.088
 30
4535.150
 70
    32
  0
VERTEX
  8
T07SSILL
 62
2
 10
1251.748
 20
-1234.249
 30
4535.150
 70
    32
  0
VERTEX
  8
T07SSILL
 62
2
 10
1247.874
 20
-1225.214
 30
4535.150
 70
    32
  0
VERTEX
  8
T07SSILL
 62
2
 10
1235.479
 20
-1215.308
 30
4535.150
 70
    32
  0
VERTEX
  8
T07SSILL
 62
2
 10
1226.996
 20
-1212.156
 30
4535.150
 70
    32
  0
VERTEX
  8
T07SSILL
 62
2
 10
1078.091
 20
-1185.071
 30
4535.150
 70
    32
  0
VERTEX
  8
T07SSILL
 62
2
 10
1064.684
 20
-1193.596
 30
4535.150
 70
    32
  0
VERTEX
  8
T07SSILL
 62
2
 10
1061.219
 20
-1207.959
 30
4535.150
 70
    32
  0
VERTEX
  8
T07SSILL
 62
2
 10
1012.800
 20
-1466.985
 30
4535.150
 70
    32
  0
VERTEX
  8
T07SSILL
 62
2
 10
1008.455
 20
-1477.071
 30
4535.150
 70
    32
  0
VERTEX
  8
T07SSILL
 62
2
 10
1027.840
 20
-1494.106
 30
4535.150
 70
    32
  0
VERTEX
  8
T07SSILL
 62
2
 10
1035.076
 20
-1492.199
 30
4535.150
 70
    32
  0
VERTEX
  8
T07SSILL
 62
2
 10
1043.810
 20
-1494.819
 30
4535.150
 70
    32
  0
VERTEX
  8
T07SSILL
 62
2
 10
1053.590
 20
-1488.825
 30
4535.150
 70
    32
  0
VERTEX
  8
T07SSILL
 62
2
 10
1074.411
 20
-1495.046
 30
4535.150
 70
    32
  0
VERTEX
  8
T07SSILL
 62
2
 10
1079.720
 20
-1501.509
 30
4535.150
 70
    32
  0
VERTEX
  8
T07SSILL
 62
2
 10
1095.110
 20
-1507.932
 30
4535.150
 70
    32
  0
VERTEX
  8
T07SSILL
 62
2
 10
1105.016
 20
-1532.707
 30
4535.150
 70
    32
  0
VERTEX
  8
T07SSILL
 62
2
 10
1151.110
 20
-1573.195
 30
4535.150
 70
    32
  0
VERTEX
  8
T07SSILL
 62
2
 10
1194.958
 20
-1545.000
 30
4535.150
 70
    32
  0
VERTEX
  8
T07SSILL
 62
2
 10
1199.114
 20
-1550.786
 30
4535.150
 70
    32
  0
VERTEX
  8
T07SSILL
 62
2
 10
1112.912
 20
-1607.406
 30
4535.150
 70
    32
  0
VERTEX
  8
T07SSILL
 62
2
 10
1129.853
 20
-1629.050
 30
4535.150
 70
    32
  0
VERTEX
  8
T07SSILL
 62
2
 10
1150.573
 20
-1613.970
 30
4535.150
 70
    32
  0
VERTEX
  8
T07SSILL
 62
2
 10
1162.982
 20
-1608.009
 30
4535.150
 70
    32
  0
VERTEX
  8
T07SSILL
 62
2
 10
1168.308
 20
-1627.621
 30
4535.150
 70
    32
  0
VERTEX
  8
T07SSILL
 62
2
 10
1180.039
 20
-1639.294
 30
4535.150
 70
    32
  0
VERTEX
  8
T07SSILL
 62
2
 10
1181.059
 20
-1650.143
 30
4535.150
 70
    32
  0
VERTEX
  8
T07SSILL
 62
2
 10
1189.523
 20
-1652.418
 30
4535.150
 70
    32
  0
VERTEX
  8
T07SSILL
 62
2
 10
1205.901
 20
-1651.720
 30
4535.150
 70
    32
  0
VERTEX
  8
T07SSILL
 62
2
 10
1209.253
 20
-1660.942
 30
4535.150
 70
    32
  0
VERTEX
  8
T07SSILL
 62
2
 10
1207.080
 20
-1670.105
 30
4535.150
 70
    32
  0
VERTEX
  8
T07SSILL
 62
2
 10
1168.738
 20
-1693.361
 30
4535.150
 70
    32
  0
VERTEX
  8
T07SSILL
 62
2
 10
1168.938
 20
-1706.945
 30
4535.150
 70
    32
  0
VERTEX
  8
T07SSILL
 62
2
 10
1174.858
 20
-1733.908
 30
4535.150
 70
    32
  0
VERTEX
  8
T07SSILL
 62
2
 10
1199.460
 20
-1740.662
 30
4535.150
 70
    32
  0
VERTEX
  8
T07SSILL
 62
2
 10
1227.401
 20
-1756.024
 30
4535.150
 70
    32
  0
VERTEX
  8
T07SSILL
 62
2
 10
1232.946
 20
-1777.735
 30
4535.150
 70
    32
  0
VERTEX
  8
T07SSILL
 62
2
 10
1239.328
 20
-1793.467
 30
4535.150
 70
    32
  0
VERTEX
  8
T07SSILL
 62
2
 10
1248.763
 20
-1804.313
 30
4535.150
 70
    32
  0
VERTEX
  8
T07SSILL
 62
2
 10
1258.118
 20
-1819.631
 30
4535.150
 70
    32
  0
VERTEX
  8
T07SSILL
 62
2
 10
1264.800
 20
-1816.421
 30
4535.150
 70
    32
  0
VERTEX
  8
T07SSILL
 62
2
 10
1262.495
 20
-1807.072
 30
4535.150
 70
    32
  0
VERTEX
  8
T07SSILL
 62
2
 10
1267.543
 20
-1805.230
 30
4535.150
 70
    32
  0
VERTEX
  8
T07SSILL
 62
2
 10
1272.813
 20
-1813.972
 30
4535.150
 70
    32
  0
VERTEX
  8
T07SSILL
 62
2
 10
1293.401
 20
-1807.775
 30
4535.150
 70
    32
  0
VERTEX
  8
T07SSILL
 62
2
 10
1295.255
 20
-1813.934
 30
4535.150
 70
    32
  0
VERTEX
  8
T07SSILL
 62
2
 10
1275.714
 20
-1822.589
 30
4535.150
 70
    32
  0
VERTEX
  8
T07SSILL
 62
2
 10
1288.769
 20
-1863.603
 30
4535.150
 70
    32
  0
SEQEND
  8
T07SSILL
  0
POLYLINE
  8
T07SSILL
 62
2
 66
     1
 70
     9
  0
VERTEX
  8
T07SSILL
 62
2
 10
1209.164
 20
-1930.625
 30
4535.150
 70
    32
  0
VERTEX
  8
T07SSILL
 62
2
 10
1201.459
 20
-1919.982
 30
4535.150
 70
    32
  0
VERTEX
  8
T07SSILL
 62
2
 10
1195.677
 20
-1896.348
 30
4535.150
 70
    32
  0
VERTEX
  8
T07SSILL
 62
2
 10
1177.984
 20
-1862.540
 30
4535.150
 70
    32
  0
VERTEX
  8
T07SSILL
 62
2
 10
1169.910
 20
-1849.445
 30
4535.150
 70
    32
  0
VERTEX
  8
T07SSILL
 62
2
 10
1160.638
 20
-1816.014
 30
4535.150
 70
    32
  0
VERTEX
  8
T07SSILL
 62
2
 10
1060.117
 20
-1897.235
 30
4535.150
 70
    32
  0
VERTEX
  8
T07SSILL
 62
2
 10
1067.546
 20
-1906.038
 30
4535.150
 70
    32
  0
VERTEX
  8
T07SSILL
 62
2
 10
1062.927
 20
-1909.930
 30
4535.150
 70
    32
  0
VERTEX
  8
T07SSILL
 62
2
 10
1071.322
 20
-1918.989
 30
4535.150
 70
    32
  0
VERTEX
  8
T07SSILL
 62
2
 10
1066.791
 20
-1922.968
 30
4535.150
 70
    32
  0
VERTEX
  8
T07SSILL
 62
2
 10
1074.040
 20
-1931.158
 30
4535.150
 70
    32
  0
VERTEX
  8
T07SSILL
 62
2
 10
1078.545
 20
-1940.265
 30
4535.150
 70
    32
  0
VERTEX
  8
T07SSILL
 62
2
 10
1073.994
 20
-1944.074
 30
4535.150
 70
    32
  0
VERTEX
  8
T07SSILL
 62
2
 10
1090.367
 20
-1961.745
 30
4535.150
 70
    32
  0
VERTEX
  8
T07SSILL
 62
2
 10
1086.169
 20
-1965.815
 30
4535.150
 70
    32
  0
VERTEX
  8
T07SSILL
 62
2
 10
1094.491
 20
-1975.177
 30
4535.150
 70
    32
  0
VERTEX
  8
T07SSILL
 62
2
 10
1090.118
 20
-1979.424
 30
4535.150
 70
    32
  0
VERTEX
  8
T07SSILL
 62
2
 10
1101.540
 20
-1992.638
 30
4535.150
 70
    32
  0
VERTEX
  8
T07SSILL
 62
2
 10
1096.905
 20
-1997.151
 30
4535.150
 70
    32
  0
VERTEX
  8
T07SSILL
 62
2
 10
1107.700
 20
-2008.258
 30
4535.150
 70
    32
  0
VERTEX
  8
T07SSILL
 62
2
 10
1113.864
 20
-2009.541
 30
4535.150
 70
    32
  0
VERTEX
  8
T07SSILL
 62
2
 10
1216.517
 20
-1966.641
 30
4535.150
 70
    32
  0
VERTEX
  8
T07SSILL
 62
2
 10
1220.549
 20
-1964.243
 30
4535.150
 70
    32
  0
VERTEX
  8
T07SSILL
 62
2
 10
1223.423
 20
-1959.301
 30
4535.150
 70
    32
  0
VERTEX
  8
T07SSILL
 62
2
 10
1223.022
 20
-1950.860
 30
4535.150
 70
    32
  0
VERTEX
  8
T07SSILL
 62
2
 10
1220.841
 20
-1938.736
 30
4535.150
 70
    32
  0
VERTEX
  8
T07SSILL
 62
2
 10
1211.145
 20
-1935.186
 30
4535.150
 70
    32
  0
SEQEND
  8
T07SSILL
  0
POLYLINE
  8
T07SSILL
 62
2
 66
     1
 70
     9
  0
VERTEX
  8
T07SSILL
 62
2
 10
1323.600
 20
-1930.855
 30
4535.150
 70
    32
  0
VERTEX
  8
T07SSILL
 62
2
 10
1315.381
 20
-1937.659
 30
4535.150
 70
    32
  0
VERTEX
  8
T07SSILL
 62
2
 10
1296.337
 20
-1944.806
 30
4535.150
 70
    32
  0
VERTEX
  8
T07SSILL
 62
2
 10
1295.087
 20
-1971.726
 30
4535.150
 70
    32
  0
VERTEX
  8
T07SSILL
 62
2
 10
1290.967
 20
-1989.252
 30
4535.150
 70
    32
  0
VERTEX
  8
T07SSILL
 62
2
 10
1281.471
 20
-2004.962
 30
4535.150
 70
    32
  0
VERTEX
  8
T07SSILL
 62
2
 10
1266.002
 20
-2021.851
 30
4535.150
 70
    32
  0
VERTEX
  8
T07SSILL
 62
2
 10
1253.895
 20
-2027.022
 30
4535.150
 70
    32
  0
VERTEX
  8
T07SSILL
 62
2
 10
1236.654
 20
-2056.850
 30
4535.150
 70
    32
  0
VERTEX
  8
T07SSILL
 62
2
 10
1362.321
 20
-1978.548
 30
4535.150
 70
    32
  0
VERTEX
  8
T07SSILL
 62
2
 10
1382.506
 20
-1940.788
 30
4535.150
 70
    32
  0
VERTEX
  8
T07SSILL
 62
2
 10
1372.455
 20
-1921.409
 30
4535.150
 70
    32
  0
VERTEX
  8
T07SSILL
 62
2
 10
1363.860
 20
-1910.377
 30
4535.150
 70
    32
  0
VERTEX
  8
T07SSILL
 62
2
 10
1357.201
 20
-1908.778
 30
4535.150
 70
    32
  0
VERTEX
  8
T07SSILL
 62
2
 10
1350.720
 20
-1909.877
 30
4535.150
 70
    32
  0
VERTEX
  8
T07SSILL
 62
2
 10
1338.858
 20
-1918.731
 30
4535.150
 70
    32
  0
SEQEND
  8
T07SSILL
  0
POLYLINE
  8
T07SSILL
 62
2
 66
     1
 70
     9
  0
VERTEX
  8
T07SSILL
 62
2
 10
1488.527
 20
-1796.197
 30
4535.150
 70
    32
  0
VERTEX
  8
T07SSILL
 62
2
 10
1422.154
 20
-1877.145
 30
4535.150
 70
    32
  0
VERTEX
  8
T07SSILL
 62
2
 10
1412.767
 20
-1881.157
 30
4535.150
 70
    32
  0
VERTEX
  8
T07SSILL
 62
2
 10
1380.875
 20
-1902.187
 30
4535.150
 70
    32
  0
VERTEX
  8
T07SSILL
 62
2
 10
1409.560
 20
-1934.738
 30
4535.150
 70
    32
  0
VERTEX
  8
T07SSILL
 62
2
 10
1420.416
 20
-1941.447
 30
4535.150
 70
    32
  0
VERTEX
  8
T07SSILL
 62
2
 10
1437.741
 20
-1971.514
 30
4535.150
 70
    32
  0
VERTEX
  8
T07SSILL
 62
2
 10
1556.908
 20
-1955.167
 30
4535.150
 70
    32
  0
VERTEX
  8
T07SSILL
 62
2
 10
1563.542
 20
-1931.469
 30
4535.150
 70
    32
  0
VERTEX
  8
T07SSILL
 62
2
 10
1571.473
 20
-1934.062
 30
4535.150
 70
    32
  0
VERTEX
  8
T07SSILL
 62
2
 10
1566.575
 20
-1953.879
 30
4535.150
 70
    32
  0
VERTEX
  8
T07SSILL
 62
2
 10
1667.553
 20
-1940.540
 30
4535.150
 70
    32
  0
VERTEX
  8
T07SSILL
 62
2
 10
1610.071
 20
-1795.491
 30
4535.150
 70
    32
  0
VERTEX
  8
T07SSILL
 62
2
 10
1567.295
 20
-1693.958
 30
4535.150
 70
    32
  0
SEQEND
  8
T07SSILL
  0
POLYLINE
  8
T07SSILL
 62
2
 66
     1
 70
     9
  0
VERTEX
  8
T07SSILL
 62
2
 10
1809.383
 20
-2298.292
 30
4535.150
 70
    32
  0
VERTEX
  8
T07SSILL
 62
2
 10
1670.849
 20
-1947.821
 30
4535.150
 70
    32
  0
VERTEX
  8
T07SSILL
 62
2
 10
1435.849
 20
-1978.824
 30
4535.150
 70
    32
  0
VERTEX
  8
T07SSILL
 62
2
 10
1433.796
 20
-1988.863
 30
4535.150
 70
    32
  0
VERTEX
  8
T07SSILL
 62
2
 10
1424.787
 20
-1997.358
 30
4535.150
 70
    32
  0
VERTEX
  8
T07SSILL
 62
2
 10
1398.263
 20
-1958.374
 30
4535.150
 70
    32
  0
VERTEX
  8
T07SSILL
 62
2
 10
1386.324
 20
-1947.010
 30
4535.150
 70
    32
  0
VERTEX
  8
T07SSILL
 62
2
 10
1369.467
 20
-1982.376
 30
4535.150
 70
    32
  0
VERTEX
  8
T07SSILL
 62
2
 10
1228.382
 20
-2071.322
 30
4535.150
 70
    32
  0
VERTEX
  8
T07SSILL
 62
2
 10
1174.648
 20
-2162.926
 30
4535.150
 70
    32
  0
VERTEX
  8
T07SSILL
 62
2
 10
1460.804
 20
-2580.966
 30
4535.150
 70
    32
  0
VERTEX
  8
T07SSILL
 62
2
 10
1568.497
 20
-2587.993
 30
4535.150
 70
    32
  0
VERTEX
  8
T07SSILL
 62
2
 10
1722.422
 20
-2741.541
 30
4535.150
 70
    32
  0
VERTEX
  8
T07SSILL
 62
2
 10
1732.735
 20
-2755.194
 30
4535.150
 70
    32
  0
VERTEX
  8
T07SSILL
 62
2
 10
1796.467
 20
-2750.557
 30
4535.150
 70
    32
  0
VERTEX
  8
T07SSILL
 62
2
 10
1811.541
 20
-2745.541
 30
4535.150
 70
    32
  0
VERTEX
  8
T07SSILL
 62
2
 10
1861.293
 20
-2707.430
 30
4535.150
 70
    32
  0
VERTEX
  8
T07SSILL
 62
2
 10
1875.125
 20
-2690.930
 30
4535.150
 70
    32
  0
VERTEX
  8
T07SSILL
 62
2
 10
1879.855
 20
-2687.856
 30
4535.150
 70
    32
  0
VERTEX
  8
T07SSILL
 62
2
 10
1883.970
 20
-2682.590
 30
4535.150
 70
    32
  0
VERTEX
  8
T07SSILL
 62
2
 10
1896.153
 20
-2680.471
 30
4535.150
 70
    32
  0
VERTEX
  8
T07SSILL
 62
2
 10
1908.357
 20
-2694.309
 30
4535.150
 70
    32
  0
VERTEX
  8
T07SSILL
 62
2
 10
1915.713
 20
-2687.373
 30
4535.150
 70
    32
  0
VERTEX
  8
T07SSILL
 62
2
 10
1921.847
 20
-2684.999
 30
4535.150
 70
    32
  0
VERTEX
  8
T07SSILL
 62
2
 10
1927.809
 20
-2685.254
 30
4535.150
 70
    32
  0
VERTEX
  8
T07SSILL
 62
2
 10
1959.691
 20
-2659.439
 30
4535.150
 70
    32
  0
VERTEX
  8
T07SSILL
 62
2
 10
1880.481
 20
-2483.050
 30
4535.150
 70
    32
  0
SEQEND
  8
T07SSILL
  0
POLYLINE
  8
T07SSILL
 62
2
 66
     1
 70
     9
  0
VERTEX
  8
T07SSILL
 62
2
 10
1601.491
 20
-2741.715
 30
4535.150
 70
    32
  0
VERTEX
  8
T07SSILL
 62
2
 10
1590.834
 20
-2724.011
 30
4535.150
 70
    32
  0
VERTEX
  8
T07SSILL
 62
2
 10
1590.542
 20
-2719.175
 30
4535.150
 70
    32
  0
VERTEX
  8
T07SSILL
 62
2
 10
1592.523
 20
-2711.864
 30
4535.150
 70
    32
  0
VERTEX
  8
T07SSILL
 62
2
 10
1601.706
 20
-2702.928
 30
4535.150
 70
    32
  0
VERTEX
  8
T07SSILL
 62
2
 10
1607.201
 20
-2695.156
 30
4535.150
 70
    32
  0
VERTEX
  8
T07SSILL
 62
2
 10
1606.541
 20
-2687.508
 30
4535.150
 70
    32
  0
VERTEX
  8
T07SSILL
 62
2
 10
1603.443
 20
-2684.008
 30
4535.150
 70
    32
  0
VERTEX
  8
T07SSILL
 62
2
 10
1598.155
 20
-2682.104
 30
4535.150
 70
    32
  0
VERTEX
  8
T07SSILL
 62
2
 10
1587.098
 20
-2671.262
 30
4535.150
 70
    32
  0
VERTEX
  8
T07SSILL
 62
2
 10
1603.238
 20
-2648.741
 30
4535.150
 70
    32
  0
VERTEX
  8
T07SSILL
 62
2
 10
1612.694
 20
-2641.386
 30
4535.150
 70
    32
  0
VERTEX
  8
T07SSILL
 62
2
 10
1712.925
 20
-2741.772
 30
4535.150
 70
    32
  0
VERTEX
  8
T07SSILL
 62
2
 10
1723.180
 20
-2756.258
 30
4535.150
 70
    32
  0
VERTEX
  8
T07SSILL
 62
2
 10
1647.700
 20
-2761.698
 30
4535.150
 70
    32
  0
VERTEX
  8
T07SSILL
 62
2
 10
1635.766
 20
-2753.296
 30
4535.150
 70
    32
  0
VERTEX
  8
T07SSILL
 62
2
 10
1630.505
 20
-2752.952
 30
4535.150
 70
    32
  0
VERTEX
  8
T07SSILL
 62
2
 10
1609.379
 20
-2755.345
 30
4535.150
 70
    32
  0
VERTEX
  8
T07SSILL
 62
2
 10
1605.081
 20
-2753.685
 30
4535.150
 70
    32
  0
VERTEX
  8
T07SSILL
 62
2
 10
1600.427
 20
-2747.553
 30
4535.150
 70
    32
  0
SEQEND
  8
T07SSILL
  0
POLYLINE
  8
T07SSILL
 62
2
 66
     1
 70
     9
  0
VERTEX
  8
T07SSILL
 62
2
 10
442.766
 20
-1771.983
 30
4535.150
 70
    32
  0
VERTEX
  8
T07SSILL
 62
2
 10
421.382
 20
-1785.904
 30
4535.150
 70
    32
  0
VERTEX
  8
T07SSILL
 62
2
 10
410.184
 20
-1789.492
 30
4535.150
 70
    32
  0
VERTEX
  8
T07SSILL
 62
2
 10
312.762
 20
-1728.547
 30
4535.150
 70
    32
  0
VERTEX
  8
T07SSILL
 62
2
 10
317.615
 20
-1720.445
 30
4535.150
 70
    32
  0
VERTEX
  8
T07SSILL
 62
2
 10
349.412
 20
-1703.556
 30
4535.150
 70
    32
  0
VERTEX
  8
T07SSILL
 62
2
 10
357.831
 20
-1703.758
 30
4535.150
 70
    32
  0
VERTEX
  8
T07SSILL
 62
2
 10
361.891
 20
-1707.324
 30
4535.150
 70
    32
  0
VERTEX
  8
T07SSILL
 62
2
 10
369.896
 20
-1723.051
 30
4535.150
 70
    32
  0
VERTEX
  8
T07SSILL
 62
2
 10
380.434
 20
-1737.443
 30
4535.150
 70
    32
  0
VERTEX
  8
T07SSILL
 62
2
 10
384.881
 20
-1733.992
 30
4535.150
 70
    32
  0
VERTEX
  8
T07SSILL
 62
2
 10
395.422
 20
-1748.647
 30
4535.150
 70
    32
  0
VERTEX
  8
T07SSILL
 62
2
 10
415.054
 20
-1735.090
 30
4535.150
 70
    32
  0
VERTEX
  8
T07SSILL
 62
2
 10
422.576
 20
-1744.594
 30
4535.150
 70
    32
  0
VERTEX
  8
T07SSILL
 62
2
 10
427.200
 20
-1741.316
 30
4535.150
 70
    32
  0
VERTEX
  8
T07SSILL
 62
2
 10
434.018
 20
-1750.474
 30
4535.150
 70
    32
  0
VERTEX
  8
T07SSILL
 62
2
 10
438.907
 20
-1747.546
 30
4535.150
 70
    32
  0
VERTEX
  8
T07SSILL
 62
2
 10
449.708
 20
-1761.849
 30
4535.150
 70
    32
  0
VERTEX
  8
T07SSILL
 62
2
 10
455.121
 20
-1758.741
 30
4535.150
 70
    32
  0
VERTEX
  8
T07SSILL
 62
2
 10
456.724
 20
-1761.974
 30
4535.150
 70
    32
  0
SEQEND
  8
T07SSILL
  0
TEXT
  8
T07SSILL
 62
2
 10
431.319
 20
-10.292
 30
4535.150
 40
8.202
  1
700
 41
 1.0 
  0
ENDSEC
  0
EOF
