999
********************************
999
*   DXF File - Entities Only   *
999
*        3D Data Format        *
999
*     Output from ENVISAGE     *
999
*     20-Dec-2007 09:09:55     *
999
********************************
  0
SECTION 
  2
HEADER
  9
$ACADVER
  1
AC1009
  9
$EXTMIN
 10
-290000.000
 20
-250000.000
 30
-4000.000
  9
$EXTMAX
 10
5000000.000
 20
600000.000
 30
6000.000
  0
ENDSEC
  0
SECTION
  2
ENTITIES
  0
POLYLINE
  8
T08SSILL
 62
3
 66
     1
 70
     9
  0
VERTEX
  8
T08SSILL
 62
3
 10
1119.821
 20
-2075.984
 30
4438.129
 70
    32
  0
VERTEX
  8
T08SSILL
 62
3
 10
1122.721
 20
-2084.513
 30
4438.148
 70
    32
  0
VERTEX
  8
T08SSILL
 62
3
 10
1138.196
 20
-2081.702
 30
4438.110
 70
    32
  0
VERTEX
  8
T08SSILL
 62
3
 10
1135.999
 20
-2073.085
 30
4438.089
 70
    32
  0
SEQEND
  8
T08SSILL
  0
POLYLINE
  8
T08SSILL
 62
3
 66
     1
 70
     9
  0
VERTEX
  8
T08SSILL
 62
3
 10
1154.718
 20
-2117.928
 30
4438.183
 70
    32
  0
VERTEX
  8
T08SSILL
 62
3
 10
1176.875
 20
-2109.315
 30
4438.115
 70
    32
  0
VERTEX
  8
T08SSILL
 62
3
 10
1167.997
 20
-2098.851
 30
4438.102
 70
    32
  0
VERTEX
  8
T08SSILL
 62
3
 10
1166.505
 20
-2084.872
 30
4438.064
 70
    32
  0
VERTEX
  8
T08SSILL
 62
3
 10
1157.539
 20
-2075.639
 30
4438.054
 70
    32
  0
VERTEX
  8
T08SSILL
 62
3
 10
1154.727
 20
-2070.187
 30
4438.044
 70
    32
  0
VERTEX
  8
T08SSILL
 62
3
 10
1143.648
 20
-2071.856
 30
4438.070
 70
    32
  0
VERTEX
  8
T08SSILL
 62
3
 10
1144.351
 20
-2078.450
 30
4438.088
 70
    32
  0
VERTEX
  8
T08SSILL
 62
3
 10
1148.747
 20
-2077.132
 30
4438.076
 70
    32
  0
SEQEND
  8
T08SSILL
  0
POLYLINE
  8
T08SSILL
 62
3
 66
     1
 70
     9
  0
VERTEX
  8
T08SSILL
 62
3
 10
1186.803
 20
-2154.068
 30
4438.226
 70
    32
  0
VERTEX
  8
T08SSILL
 62
3
 10
1172.915
 20
-2132.526
 30
4438.190
 70
    32
  0
VERTEX
  8
T08SSILL
 62
3
 10
1173.181
 20
-2120.041
 30
4438.153
 70
    32
  0
VERTEX
  8
T08SSILL
 62
3
 10
1156.211
 20
-2125.401
 30
4438.202
 70
    32
  0
VERTEX
  8
T08SSILL
 62
3
 10
1155.596
 20
-2127.775
 30
4438.210
 70
    32
  0
VERTEX
  8
T08SSILL
 62
3
 10
1165.437
 20
-2161.274
 30
4438.289
 70
    32
  0
VERTEX
  8
T08SSILL
 62
3
 10
1166.756
 20
-2160.923
 30
4438.285
 70
    32
  0
SEQEND
  8
T08SSILL
  0
POLYLINE
  8
T08SSILL
 62
3
 66
     1
 70
     9
  0
VERTEX
  8
T08SSILL
 62
3
 10
1153.478
 20
-2172.965
 30
4438.346
 70
    32
  0
VERTEX
  8
T08SSILL
 62
3
 10
1166.483
 20
-2209.191
 30
4438.426
 70
    32
  0
VERTEX
  8
T08SSILL
 62
3
 10
1187.321
 20
-2203.567
 30
4438.369
 70
    32
  0
VERTEX
  8
T08SSILL
 62
3
 10
1195.499
 20
-2199.173
 30
4438.340
 70
    32
  0
VERTEX
  8
T08SSILL
 62
3
 10
1183.369
 20
-2179.389
 30
4438.306
 70
    32
  0
VERTEX
  8
T08SSILL
 62
3
 10
1187.766
 20
-2172.180
 30
4438.277
 70
    32
  0
VERTEX
  8
T08SSILL
 62
3
 10
1193.834
 20
-2167.785
 30
4438.252
 70
    32
  0
VERTEX
  8
T08SSILL
 62
3
 10
1190.846
 20
-2160.487
 30
4438.236
 70
    32
  0
VERTEX
  8
T08SSILL
 62
3
 10
1176.250
 20
-2165.408
 30
4438.279
 70
    32
  0
VERTEX
  8
T08SSILL
 62
3
 10
1175.458
 20
-2172.530
 30
4438.302
 70
    32
  0
VERTEX
  8
T08SSILL
 62
3
 10
1163.325
 20
-2169.978
 30
4438.318
 70
    32
  0
SEQEND
  8
T08SSILL
  0
POLYLINE
  8
T08SSILL
 62
3
 66
     1
 70
     9
  0
VERTEX
  8
T08SSILL
 62
3
 10
1550.447
 20
-1579.162
 30
4436.899
 70
    32
  0
VERTEX
  8
T08SSILL
 62
3
 10
1547.275
 20
-1580.736
 30
4436.878
 70
    32
  0
VERTEX
  8
T08SSILL
 62
3
 10
1540.867
 20
-1598.488
 30
4436.826
 70
    32
  0
VERTEX
  8
T08SSILL
 62
3
 10
1561.698
 20
-1606.397
 30
4436.950
 70
    32
  0
SEQEND
  8
T08SSILL
  0
POLYLINE
  8
T08SSILL
 62
3
 66
     1
 70
     9
  0
VERTEX
  8
T08SSILL
 62
3
 10
399.737
 20
-1555.927
 30
4437.884
 70
    32
  0
VERTEX
  8
T08SSILL
 62
3
 10
366.097
 20
-1580.303
 30
4438.027
 70
    32
  0
VERTEX
  8
T08SSILL
 62
3
 10
346.345
 20
-1552.870
 30
4437.962
 70
    32
  0
VERTEX
  8
T08SSILL
 62
3
 10
379.839
 20
-1528.293
 30
4437.819
 70
    32
  0
SEQEND
  8
T08SSILL
  0
POLYLINE
  8
T08SSILL
 62
3
 66
     1
 70
     9
  0
VERTEX
  8
T08SSILL
 62
3
 10
433.071
 20
-1489.231
 30
4437.591
 70
    32
  0
VERTEX
  8
T08SSILL
 62
3
 10
447.307
 20
-1508.181
 30
4437.635
 70
    32
  0
VERTEX
  8
T08SSILL
 62
3
 10
443.226
 20
-1511.262
 30
4437.653
 70
    32
  0
VERTEX
  8
T08SSILL
 62
3
 10
445.785
 20
-1517.341
 30
4437.670
 70
    32
  0
VERTEX
  8
T08SSILL
 62
3
 10
441.069
 20
-1520.923
 30
4437.691
 70
    32
  0
VERTEX
  8
T08SSILL
 62
3
 10
444.816
 20
-1526.828
 30
4437.705
 70
    32
  0
VERTEX
  8
T08SSILL
 62
3
 10
415.574
 20
-1546.833
 30
4437.825
 70
    32
  0
VERTEX
  8
T08SSILL
 62
3
 10
404.420
 20
-1531.965
 30
4437.791
 70
    32
  0
VERTEX
  8
T08SSILL
 62
3
 10
399.951
 20
-1535.100
 30
4437.810
 70
    32
  0
VERTEX
  8
T08SSILL
 62
3
 10
389.674
 20
-1521.076
 30
4437.777
 70
    32
  0
SEQEND
  8
T08SSILL
  0
POLYLINE
  8
T08SSILL
 62
3
 66
     1
 70
     9
  0
VERTEX
  8
T08SSILL
 62
3
 10
256.253
 20
-1286.284
 30
4439.041
 70
    32
  0
VERTEX
  8
T08SSILL
 62
3
 10
244.366
 20
-1269.931
 30
4439.047
 70
    32
  0
VERTEX
  8
T08SSILL
 62
3
 10
226.899
 20
-1282.421
 30
4439.104
 70
    32
  0
VERTEX
  8
T08SSILL
 62
3
 10
239.128
 20
-1299.183
 30
4439.097
 70
    32
  0
SEQEND
  8
T08SSILL
  0
POLYLINE
  8
T08SSILL
 62
3
 66
     1
 70
     9
  0
VERTEX
  8
T08SSILL
 62
3
 10
174.779
 20
-1334.486
 30
4439.290
 70
    32
  0
VERTEX
  8
T08SSILL
 62
3
 10
179.635
 20
-1330.200
 30
4439.273
 70
    32
  0
VERTEX
  8
T08SSILL
 62
3
 10
176.406
 20
-1325.174
 30
4439.274
 70
    32
  0
VERTEX
  8
T08SSILL
 62
3
 10
179.318
 20
-1322.902
 30
4439.265
 70
    32
  0
VERTEX
  8
T08SSILL
 62
3
 10
175.915
 20
-1317.434
 30
4439.266
 70
    32
  0
VERTEX
  8
T08SSILL
 62
3
 10
179.711
 20
-1314.112
 30
4439.253
 70
    32
  0
VERTEX
  8
T08SSILL
 62
3
 10
182.276
 20
-1314.199
 30
4439.247
 70
    32
  0
VERTEX
  8
T08SSILL
 62
3
 10
204.816
 20
-1297.152
 30
4439.173
 70
    32
  0
VERTEX
  8
T08SSILL
 62
3
 10
204.745
 20
-1293.940
 30
4439.169
 70
    32
  0
VERTEX
  8
T08SSILL
 62
3
 10
219.628
 20
-1313.949
 30
4439.160
 70
    32
  0
VERTEX
  8
T08SSILL
 62
3
 10
180.280
 20
-1342.512
 30
4439.288
 70
    32
  0
SEQEND
  8
T08SSILL
  0
POLYLINE
  8
T08SSILL
 62
3
 66
     1
 70
     9
  0
VERTEX
  8
T08SSILL
 62
3
 10
1849.721
 20
-3779.816
 30
4439.185
 70
    32
  0
VERTEX
  8
T08SSILL
 62
3
 10
1819.940
 20
-3800.695
 30
4439.254
 70
    32
  0
VERTEX
  8
T08SSILL
 62
3
 10
1815.198
 20
-3809.867
 30
4439.269
 70
    32
  0
VERTEX
  8
T08SSILL
 62
3
 10
1816.746
 20
-3816.530
 30
4439.271
 70
    32
  0
VERTEX
  8
T08SSILL
 62
3
 10
1815.098
 20
-3826.254
 30
4439.280
 70
    32
  0
VERTEX
  8
T08SSILL
 62
3
 10
1792.415
 20
-3832.628
 30
4439.327
 70
    32
  0
VERTEX
  8
T08SSILL
 62
3
 10
1778.897
 20
-3839.163
 30
4439.356
 70
    32
  0
VERTEX
  8
T08SSILL
 62
3
 10
1774.751
 20
-3843.125
 30
4439.366
 70
    32
  0
VERTEX
  8
T08SSILL
 62
3
 10
1775.239
 20
-3853.862
 30
4439.372
 70
    32
  0
VERTEX
  8
T08SSILL
 62
3
 10
1784.143
 20
-3858.434
 30
4439.359
 70
    32
  0
VERTEX
  8
T08SSILL
 62
3
 10
1789.756
 20
-3857.260
 30
4439.348
 70
    32
  0
VERTEX
  8
T08SSILL
 62
3
 10
1797.826
 20
-3847.138
 30
4439.326
 70
    32
  0
VERTEX
  8
T08SSILL
 62
3
 10
1802.482
 20
-3850.741
 30
4439.320
 70
    32
  0
VERTEX
  8
T08SSILL
 62
3
 10
1784.592
 20
-3875.778
 30
4439.370
 70
    32
  0
VERTEX
  8
T08SSILL
 62
3
 10
1802.188
 20
-3891.709
 30
4439.347
 70
    32
  0
VERTEX
  8
T08SSILL
 62
3
 10
1806.454
 20
-3889.242
 30
4439.338
 70
    32
  0
VERTEX
  8
T08SSILL
 62
3
 10
1824.938
 20
-3905.507
 30
4439.314
 70
    32
  0
VERTEX
  8
T08SSILL
 62
3
 10
1828.824
 20
-3901.726
 30
4439.304
 70
    32
  0
VERTEX
  8
T08SSILL
 62
3
 10
1832.251
 20
-3884.389
 30
4439.287
 70
    32
  0
VERTEX
  8
T08SSILL
 62
3
 10
1832.690
 20
-3871.607
 30
4439.277
 70
    32
  0
VERTEX
  8
T08SSILL
 62
3
 10
1838.871
 20
-3863.888
 30
4439.261
 70
    32
  0
SEQEND
  8
T08SSILL
  0
POLYLINE
  8
T08SSILL
 62
3
 66
     1
 70
     9
  0
VERTEX
  8
T08SSILL
 62
3
 10
1492.985
 20
-1388.307
 30
4436.671
 70
    32
  0
VERTEX
  8
T08SSILL
 62
3
 10
1494.739
 20
-1382.632
 30
4436.686
 70
    32
  0
VERTEX
  8
T08SSILL
 62
3
 10
1493.204
 20
-1365.442
 30
4436.688
 70
    32
  0
VERTEX
  8
T08SSILL
 62
3
 10
1490.715
 20
-1357.781
 30
4436.678
 70
    32
  0
VERTEX
  8
T08SSILL
 62
3
 10
1486.390
 20
-1352.841
 30
4436.654
 70
    32
  0
VERTEX
  8
T08SSILL
 62
3
 10
1473.893
 20
-1343.009
 30
4436.583
 70
    32
  0
VERTEX
  8
T08SSILL
 62
3
 10
1467.458
 20
-1348.058
 30
4436.540
 70
    32
  0
VERTEX
  8
T08SSILL
 62
3
 10
1469.002
 20
-1353.252
 30
4436.546
 70
    32
  0
VERTEX
  8
T08SSILL
 62
3
 10
1484.018
 20
-1376.307
 30
4436.624
 70
    32
  0
VERTEX
  8
T08SSILL
 62
3
 10
1478.489
 20
-1380.559
 30
4436.586
 70
    32
  0
VERTEX
  8
T08SSILL
 62
3
 10
1490.976
 20
-1393.365
 30
4436.655
 70
    32
  0
VERTEX
  8
T08SSILL
 62
3
 10
1492.530
 20
-1392.993
 30
4436.665
 70
    32
  0
SEQEND
  8
T08SSILL
  0
POLYLINE
  8
T08SSILL
 62
3
 66
     1
 70
     9
  0
VERTEX
  8
T08SSILL
 62
3
 10
400.088
 20
-1698.662
 30
4438.390
 70
    32
  0
VERTEX
  8
T08SSILL
 62
3
 10
415.980
 20
-1687.732
 30
4438.325
 70
    32
  0
VERTEX
  8
T08SSILL
 62
3
 10
405.622
 20
-1673.947
 30
4438.293
 70
    32
  0
VERTEX
  8
T08SSILL
 62
3
 10
412.588
 20
-1668.894
 30
4438.264
 70
    32
  0
VERTEX
  8
T08SSILL
 62
3
 10
423.913
 20
-1685.141
 30
4438.303
 70
    32
  0
VERTEX
  8
T08SSILL
 62
3
 10
423.370
 20
-1688.283
 30
4438.315
 70
    32
  0
VERTEX
  8
T08SSILL
 62
3
 10
406.602
 20
-1701.099
 30
4438.388
 70
    32
  0
VERTEX
  8
T08SSILL
 62
3
 10
401.898
 20
-1701.585
 30
4438.398
 70
    32
  0
SEQEND
  8
T08SSILL
  0
POLYLINE
  8
T08SSILL
 62
3
 66
     1
 70
     9
  0
VERTEX
  8
T08SSILL
 62
3
 10
1164.481
 20
-1772.328
 30
4437.080
 70
    32
  0
VERTEX
  8
T08SSILL
 62
3
 10
1136.752
 20
-1771.551
 30
4437.152
 70
    32
  0
VERTEX
  8
T08SSILL
 62
3
 10
1135.645
 20
-1768.437
 30
4437.144
 70
    32
  0
VERTEX
  8
T08SSILL
 62
3
 10
1137.392
 20
-1764.913
 30
4437.127
 70
    32
  0
VERTEX
  8
T08SSILL
 62
3
 10
1141.481
 20
-1761.919
 30
4437.105
 70
    32
  0
VERTEX
  8
T08SSILL
 62
3
 10
1178.123
 20
-1746.724
 30
4436.952
 70
    32
  0
VERTEX
  8
T08SSILL
 62
3
 10
1185.512
 20
-1762.018
 30
4436.987
 70
    32
  0
SEQEND
  8
T08SSILL
  0
POLYLINE
  8
T08SSILL
 62
3
 66
     1
 70
     9
  0
VERTEX
  8
T08SSILL
 62
3
 10
1218.342
 20
-1747.820
 30
4436.848
 70
    32
  0
VERTEX
  8
T08SSILL
 62
3
 10
1192.397
 20
-1759.263
 30
4436.959
 70
    32
  0
VERTEX
  8
T08SSILL
 62
3
 10
1184.771
 20
-1743.016
 30
4436.921
 70
    32
  0
VERTEX
  8
T08SSILL
 62
3
 10
1206.283
 20
-1734.162
 30
4436.831
 70
    32
  0
VERTEX
  8
T08SSILL
 62
3
 10
1213.459
 20
-1739.407
 30
4436.831
 70
    32
  0
SEQEND
  8
T08SSILL
  0
POLYLINE
  8
T08SSILL
 62
3
 66
     1
 70
     9
  0
VERTEX
  8
T08SSILL
 62
3
 10
643.843
 20
-1751.045
 30
4438.114
 70
    32
  0
VERTEX
  8
T08SSILL
 62
3
 10
662.332
 20
-1737.317
 30
4438.038
 70
    32
  0
VERTEX
  8
T08SSILL
 62
3
 10
665.164
 20
-1741.036
 30
4438.043
 70
    32
  0
VERTEX
  8
T08SSILL
 62
3
 10
680.581
 20
-1731.486
 30
4437.985
 70
    32
  0
VERTEX
  8
T08SSILL
 62
3
 10
683.194
 20
-1734.142
 30
4437.987
 70
    32
  0
VERTEX
  8
T08SSILL
 62
3
 10
674.105
 20
-1741.495
 30
4438.027
 70
    32
  0
VERTEX
  8
T08SSILL
 62
3
 10
677.585
 20
-1746.558
 30
4438.035
 70
    32
  0
VERTEX
  8
T08SSILL
 62
3
 10
647.994
 20
-1770.201
 30
4438.162
 70
    32
  0
VERTEX
  8
T08SSILL
 62
3
 10
641.663
 20
-1759.124
 30
4438.142
 70
    32
  0
VERTEX
  8
T08SSILL
 62
3
 10
646.036
 20
-1755.352
 30
4438.122
 70
    32
  0
SEQEND
  8
T08SSILL
  0
POLYLINE
  8
T08SSILL
 62
3
 66
     1
 70
     9
  0
VERTEX
  8
T08SSILL
 62
3
 10
1421.669
 20
-367.103
 30
4439.213
 70
    32
  0
VERTEX
  8
T08SSILL
 62
3
 10
1418.124
 20
-365.785
 30
4439.217
 70
    32
  0
VERTEX
  8
T08SSILL
 62
3
 10
1408.242
 20
-357.289
 30
4439.236
 70
    32
  0
VERTEX
  8
T08SSILL
 62
3
 10
1409.247
 20
-351.176
 30
4439.247
 70
    32
  0
VERTEX
  8
T08SSILL
 62
3
 10
1437.678
 20
-353.002
 30
4439.234
 70
    32
  0
VERTEX
  8
T08SSILL
 62
3
 10
1436.824
 20
-370.400
 30
4439.202
 70
    32
  0
VERTEX
  8
T08SSILL
 62
3
 10
1427.025
 20
-367.366
 30
4439.211
 70
    32
  0
SEQEND
  8
T08SSILL
  0
POLYLINE
  8
T08SSILL
 62
3
 66
     1
 70
     9
  0
VERTEX
  8
T08SSILL
 62
3
 10
3982.807
 20
-2536.713
 30
4439.958
 70
    32
  0
VERTEX
  8
T08SSILL
 62
3
 10
3998.637
 20
-2525.285
 30
4439.962
 70
    32
  0
VERTEX
  8
T08SSILL
 62
3
 10
4002.401
 20
-2533.551
 30
4439.971
 70
    32
  0
VERTEX
  8
T08SSILL
 62
3
 10
3988.718
 20
-2544.518
 30
4439.969
 70
    32
  0
SEQEND
  8
T08SSILL
  0
POLYLINE
  8
T08SSILL
 62
3
 66
     1
 70
     9
  0
VERTEX
  8
T08SSILL
 62
3
 10
567.876
 20
-1987.527
 30
4438.952
 70
    32
  0
VERTEX
  8
T08SSILL
 62
3
 10
604.543
 20
-1961.334
 30
4438.804
 70
    32
  0
VERTEX
  8
T08SSILL
 62
3
 10
605.423
 20
-1957.641
 30
4438.791
 70
    32
  0
VERTEX
  8
T08SSILL
 62
3
 10
603.139
 20
-1949.200
 30
4438.771
 70
    32
  0
VERTEX
  8
T08SSILL
 62
3
 10
607.449
 20
-1936.541
 30
4438.726
 70
    32
  0
VERTEX
  8
T08SSILL
 62
3
 10
607.450
 20
-1933.024
 30
4438.716
 70
    32
  0
VERTEX
  8
T08SSILL
 62
3
 10
601.824
 20
-1924.407
 30
4438.702
 70
    32
  0
VERTEX
  8
T08SSILL
 62
3
 10
593.298
 20
-1914.558
 30
4438.690
 70
    32
  0
VERTEX
  8
T08SSILL
 62
3
 10
587.585
 20
-1903.304
 30
4438.668
 70
    32
  0
VERTEX
  8
T08SSILL
 62
3
 10
584.861
 20
-1894.687
 30
4438.648
 70
    32
  0
VERTEX
  8
T08SSILL
 62
3
 10
578.269
 20
-1885.894
 30
4438.635
 70
    32
  0
VERTEX
  8
T08SSILL
 62
3
 10
572.994
 20
-1881.321
 30
4438.632
 70
    32
  0
VERTEX
  8
T08SSILL
 62
3
 10
570.093
 20
-1880.793
 30
4438.637
 70
    32
  0
VERTEX
  8
T08SSILL
 62
3
 10
556.113
 20
-1883.692
 30
4438.672
 70
    32
  0
VERTEX
  8
T08SSILL
 62
3
 10
552.509
 20
-1879.999
 30
4438.669
 70
    32
  0
VERTEX
  8
T08SSILL
 62
3
 10
550.488
 20
-1874.459
 30
4438.656
 70
    32
  0
VERTEX
  8
T08SSILL
 62
3
 10
541.083
 20
-1862.501
 30
4438.640
 70
    32
  0
VERTEX
  8
T08SSILL
 62
3
 10
542.666
 20
-1859.512
 30
4438.628
 70
    32
  0
VERTEX
  8
T08SSILL
 62
3
 10
532.821
 20
-1847.113
 30
4438.611
 70
    32
  0
VERTEX
  8
T08SSILL
 62
3
 10
513.830
 20
-1847.110
 30
4438.649
 70
    32
  0
VERTEX
  8
T08SSILL
 62
3
 10
498.266
 20
-1858.713
 30
4438.713
 70
    32
  0
VERTEX
  8
T08SSILL
 62
3
 10
496.156
 20
-1858.888
 30
4438.717
 70
    32
  0
VERTEX
  8
T08SSILL
 62
3
 10
488.948
 20
-1853.612
 30
4438.716
 70
    32
  0
VERTEX
  8
T08SSILL
 62
3
 10
482.354
 20
-1851.676
 30
4438.723
 70
    32
  0
VERTEX
  8
T08SSILL
 62
3
 10
449.909
 20
-1867.936
 30
4438.834
 70
    32
  0
VERTEX
  8
T08SSILL
 62
3
 10
554.162
 20
-1983.129
 30
4438.966
 70
    32
  0
SEQEND
  8
T08SSILL
  0
POLYLINE
  8
T08SSILL
 62
3
 66
     1
 70
     9
  0
VERTEX
  8
T08SSILL
 62
3
 10
414.901
 20
-1793.994
 30
4438.687
 70
    32
  0
VERTEX
  8
T08SSILL
 62
3
 10
402.950
 20
-1762.315
 30
4438.612
 70
    32
  0
VERTEX
  8
T08SSILL
 62
3
 10
370.605
 20
-1718.282
 30
4438.509
 70
    32
  0
VERTEX
  8
T08SSILL
 62
3
 10
375.015
 20
-1715.742
 30
4438.493
 70
    32
  0
VERTEX
  8
T08SSILL
 62
3
 10
372.515
 20
-1710.368
 30
4438.478
 70
    32
  0
VERTEX
  8
T08SSILL
 62
3
 10
376.087
 20
-1706.827
 30
4438.459
 70
    32
  0
VERTEX
  8
T08SSILL
 62
3
 10
367.860
 20
-1695.505
 30
4438.433
 70
    32
  0
VERTEX
  8
T08SSILL
 62
3
 10
356.300
 20
-1698.891
 30
4438.464
 70
    32
  0
VERTEX
  8
T08SSILL
 62
3
 10
347.705
 20
-1707.055
 30
4438.508
 70
    32
  0
VERTEX
  8
T08SSILL
 62
3
 10
343.785
 20
-1712.602
 30
4438.534
 70
    32
  0
VERTEX
  8
T08SSILL
 62
3
 10
341.368
 20
-1720.057
 30
4438.564
 70
    32
  0
VERTEX
  8
T08SSILL
 62
3
 10
341.571
 20
-1727.883
 30
4438.592
 70
    32
  0
VERTEX
  8
T08SSILL
 62
3
 10
342.865
 20
-1732.680
 30
4438.607
 70
    32
  0
VERTEX
  8
T08SSILL
 62
3
 10
386.045
 20
-1784.453
 30
4438.716
 70
    32
  0
SEQEND
  8
T08SSILL
  0
POLYLINE
  8
T08SSILL
 62
3
 66
     1
 70
     9
  0
VERTEX
  8
T08SSILL
 62
3
 10
457.009
 20
-1604.683
 30
4437.962
 70
    32
  0
VERTEX
  8
T08SSILL
 62
3
 10
450.565
 20
-1594.841
 30
4437.937
 70
    32
  0
VERTEX
  8
T08SSILL
 62
3
 10
473.471
 20
-1578.398
 30
4437.841
 70
    32
  0
VERTEX
  8
T08SSILL
 62
3
 10
484.121
 20
-1592.718
 30
4437.874
 70
    32
  0
VERTEX
  8
T08SSILL
 62
3
 10
465.497
 20
-1605.474
 30
4437.950
 70
    32
  0
VERTEX
  8
T08SSILL
 62
3
 10
462.233
 20
-1601.561
 30
4437.942
 70
    32
  0
SEQEND
  8
T08SSILL
  0
POLYLINE
  8
T08SSILL
 62
3
 66
     1
 70
     9
  0
VERTEX
  8
T08SSILL
 62
3
 10
488.686
 20
-1599.144
 30
4437.889
 70
    32
  0
VERTEX
  8
T08SSILL
 62
3
 10
467.877
 20
-1611.634
 30
4437.968
 70
    32
  0
VERTEX
  8
T08SSILL
 62
3
 10
451.481
 20
-1623.603
 30
4438.038
 70
    32
  0
VERTEX
  8
T08SSILL
 62
3
 10
452.285
 20
-1625.393
 30
4438.043
 70
    32
  0
VERTEX
  8
T08SSILL
 62
3
 10
450.754
 20
-1626.296
 30
4438.049
 70
    32
  0
VERTEX
  8
T08SSILL
 62
3
 10
453.624
 20
-1631.247
 30
4438.062
 70
    32
  0
VERTEX
  8
T08SSILL
 62
3
 10
436.914
 20
-1644.433
 30
4438.136
 70
    32
  0
VERTEX
  8
T08SSILL
 62
3
 10
443.124
 20
-1653.562
 30
4438.158
 70
    32
  0
VERTEX
  8
T08SSILL
 62
3
 10
433.417
 20
-1660.978
 30
4438.201
 70
    32
  0
VERTEX
  8
T08SSILL
 62
3
 10
437.087
 20
-1667.806
 30
4438.219
 70
    32
  0
VERTEX
  8
T08SSILL
 62
3
 10
439.367
 20
-1670.009
 30
4438.223
 70
    32
  0
VERTEX
  8
T08SSILL
 62
3
 10
441.910
 20
-1668.006
 30
4438.212
 70
    32
  0
VERTEX
  8
T08SSILL
 62
3
 10
444.859
 20
-1671.027
 30
4438.217
 70
    32
  0
VERTEX
  8
T08SSILL
 62
3
 10
455.311
 20
-1664.697
 30
4438.178
 70
    32
  0
VERTEX
  8
T08SSILL
 62
3
 10
452.420
 20
-1660.273
 30
4438.167
 70
    32
  0
VERTEX
  8
T08SSILL
 62
3
 10
461.922
 20
-1653.551
 30
4438.127
 70
    32
  0
VERTEX
  8
T08SSILL
 62
3
 10
465.113
 20
-1657.109
 30
4438.134
 70
    32
  0
VERTEX
  8
T08SSILL
 62
3
 10
503.187
 20
-1628.646
 30
4437.970
 70
    32
  0
VERTEX
  8
T08SSILL
 62
3
 10
501.115
 20
-1625.661
 30
4437.962
 70
    32
  0
VERTEX
  8
T08SSILL
 62
3
 10
505.034
 20
-1622.222
 30
4437.944
 70
    32
  0
SEQEND
  8
T08SSILL
  0
POLYLINE
  8
T08SSILL
 62
3
 66
     1
 70
     9
  0
VERTEX
  8
T08SSILL
 62
3
 10
514.879
 20
-1592.412
 30
4437.821
 70
    32
  0
VERTEX
  8
T08SSILL
 62
3
 10
529.012
 20
-1611.709
 30
4437.866
 70
    32
  0
VERTEX
  8
T08SSILL
 62
3
 10
540.144
 20
-1603.825
 30
4437.820
 70
    32
  0
VERTEX
  8
T08SSILL
 62
3
 10
543.338
 20
-1590.342
 30
4437.766
 70
    32
  0
VERTEX
  8
T08SSILL
 62
3
 10
543.140
 20
-1586.645
 30
4437.754
 70
    32
  0
VERTEX
  8
T08SSILL
 62
3
 10
542.185
 20
-1582.125
 30
4437.739
 70
    32
  0
VERTEX
  8
T08SSILL
 62
3
 10
537.946
 20
-1578.436
 30
4437.733
 70
    32
  0
VERTEX
  8
T08SSILL
 62
3
 10
526.453
 20
-1586.568
 30
4437.781
 70
    32
  0
VERTEX
  8
T08SSILL
 62
3
 10
516.497
 20
-1589.405
 30
4437.808
 70
    32
  0
SEQEND
  8
T08SSILL
  0
POLYLINE
  8
T08SSILL
 62
3
 66
     1
 70
     9
  0
VERTEX
  8
T08SSILL
 62
3
 10
836.861
 20
-1513.088
 30
4437.071
 70
    32
  0
VERTEX
  8
T08SSILL
 62
3
 10
777.426
 20
-1431.741
 30
4437.016
 70
    32
  0
VERTEX
  8
T08SSILL
 62
3
 10
780.656
 20
-1430.119
 30
4437.000
 70
    32
  0
VERTEX
  8
T08SSILL
 62
3
 10
789.202
 20
-1431.615
 30
4436.975
 70
    32
  0
VERTEX
  8
T08SSILL
 62
3
 10
844.898
 20
-1507.800
 30
4437.028
 70
    32
  0
SEQEND
  8
T08SSILL
  0
POLYLINE
  8
T08SSILL
 62
3
 66
     1
 70
     9
  0
VERTEX
  8
T08SSILL
 62
3
 10
473.200
 20
-1504.423
 30
4437.578
 70
    32
  0
VERTEX
  8
T08SSILL
 62
3
 10
530.900
 20
-1462.367
 30
4437.333
 70
    32
  0
VERTEX
  8
T08SSILL
 62
3
 10
509.958
 20
-1433.565
 30
4437.265
 70
    32
  0
VERTEX
  8
T08SSILL
 62
3
 10
451.820
 20
-1475.603
 30
4437.512
 70
    32
  0
VERTEX
  8
T08SSILL
 62
3
 10
455.303
 20
-1480.578
 30
4437.524
 70
    32
  0
VERTEX
  8
T08SSILL
 62
3
 10
451.416
 20
-1483.228
 30
4437.539
 70
    32
  0
VERTEX
  8
T08SSILL
 62
3
 10
465.264
 20
-1503.040
 30
4437.587
 70
    32
  0
VERTEX
  8
T08SSILL
 62
3
 10
469.940
 20
-1500.423
 30
4437.570
 70
    32
  0
SEQEND
  8
T08SSILL
  0
POLYLINE
  8
T08SSILL
 62
3
 66
     1
 70
     9
  0
VERTEX
  8
T08SSILL
 62
3
 10
1120.346
 20
-1057.168
 30
4435.706
 70
    32
  0
VERTEX
  8
T08SSILL
 62
3
 10
1101.666
 20
-1083.976
 30
4435.328
 70
    32
  0
VERTEX
  8
T08SSILL
 62
3
 10
1111.149
 20
-1090.431
 30
4435.199
 70
    32
  0
VERTEX
  8
T08SSILL
 62
3
 10
1107.660
 20
-1096.171
 30
4435.117
 70
    32
  0
VERTEX
  8
T08SSILL
 62
3
 10
1097.845
 20
-1089.264
 30
4435.253
 70
    32
  0
VERTEX
  8
T08SSILL
 62
3
 10
1082.489
 20
-1112.169
 30
4435.156
 70
    32
  0
VERTEX
  8
T08SSILL
 62
3
 10
1126.864
 20
-1092.751
 30
4435.121
 70
    32
  0
SEQEND
  8
T08SSILL
  0
POLYLINE
  8
T08SSILL
 62
3
 66
     1
 70
     9
  0
VERTEX
  8
T08SSILL
 62
3
 10
1116.206
 20
-1110.405
 30
4434.962
 70
    32
  0
VERTEX
  8
T08SSILL
 62
3
 10
1074.750
 20
-1129.329
 30
4435.157
 70
    32
  0
VERTEX
  8
T08SSILL
 62
3
 10
1114.425
 20
-1155.482
 30
4435.006
 70
    32
  0
VERTEX
  8
T08SSILL
 62
3
 10
1122.603
 20
-1142.557
 30
4434.938
 70
    32
  0
VERTEX
  8
T08SSILL
 62
3
 10
1127.379
 20
-1146.005
 30
4434.933
 70
    32
  0
VERTEX
  8
T08SSILL
 62
3
 10
1136.935
 20
-1131.644
 30
4434.855
 70
    32
  0
VERTEX
  8
T08SSILL
 62
3
 10
1133.769
 20
-1123.255
 30
4434.842
 70
    32
  0
VERTEX
  8
T08SSILL
 62
3
 10
1131.514
 20
-1120.439
 30
4434.844
 70
    32
  0
VERTEX
  8
T08SSILL
 62
3
 10
1118.439
 20
-1111.639
 30
4434.945
 70
    32
  0
SEQEND
  8
T08SSILL
  0
POLYLINE
  8
T08SSILL
 62
3
 66
     1
 70
     9
  0
VERTEX
  8
T08SSILL
 62
3
 10
286.763
 20
-1026.472
 30
4438.810
 70
    32
  0
VERTEX
  8
T08SSILL
 62
3
 10
308.414
 20
-1059.344
 30
4438.667
 70
    32
  0
VERTEX
  8
T08SSILL
 62
3
 10
313.307
 20
-1059.986
 30
4438.670
 70
    32
  0
VERTEX
  8
T08SSILL
 62
3
 10
341.111
 20
-1035.577
 30
4438.821
 70
    32
  0
VERTEX
  8
T08SSILL
 62
3
 10
337.157
 20
-1033.480
 30
4438.822
 70
    32
  0
VERTEX
  8
T08SSILL
 62
3
 10
310.202
 20
-1028.937
 30
4438.819
 70
    32
  0
VERTEX
  8
T08SSILL
 62
3
 10
308.935
 20
-1034.067
 30
4438.793
 70
    32
  0
VERTEX
  8
T08SSILL
 62
3
 10
301.010
 20
-1032.421
 30
4438.793
 70
    32
  0
VERTEX
  8
T08SSILL
 62
3
 10
301.809
 20
-1027.974
 30
4438.816
 70
    32
  0
SEQEND
  8
T08SSILL
  0
POLYLINE
  8
T08SSILL
 62
3
 66
     1
 70
     9
  0
VERTEX
  8
T08SSILL
 62
3
 10
438.181
 20
-944.380
 30
4439.365
 70
    32
  0
VERTEX
  8
T08SSILL
 62
3
 10
435.744
 20
-960.440
 30
4439.319
 70
    32
  0
VERTEX
  8
T08SSILL
 62
3
 10
449.277
 20
-960.652
 30
4439.265
 70
    32
  0
VERTEX
  8
T08SSILL
 62
3
 10
438.719
 20
-945.169
 30
4439.365
 70
    32
  0
SEQEND
  8
T08SSILL
  0
POLYLINE
  8
T08SSILL
 62
3
 66
     1
 70
     9
  0
VERTEX
  8
T08SSILL
 62
3
 10
197.444
 20
-1409.539
 30
4439.333
 70
    32
  0
VERTEX
  8
T08SSILL
 62
3
 10
207.838
 20
-1423.674
 30
4439.327
 70
    32
  0
VERTEX
  8
T08SSILL
 62
3
 10
222.367
 20
-1414.350
 30
4439.282
 70
    32
  0
VERTEX
  8
T08SSILL
 62
3
 10
231.311
 20
-1427.458
 30
4439.220
 70
    32
  0
VERTEX
  8
T08SSILL
 62
3
 10
218.382
 20
-1438.429
 30
4439.254
 70
    32
  0
VERTEX
  8
T08SSILL
 62
3
 10
235.494
 20
-1462.153
 30
4438.993
 70
    32
  0
VERTEX
  8
T08SSILL
 62
3
 10
284.572
 20
-1426.767
 30
4438.829
 70
    32
  0
VERTEX
  8
T08SSILL
 62
3
 10
266.864
 20
-1402.579
 30
4439.096
 70
    32
  0
VERTEX
  8
T08SSILL
 62
3
 10
280.293
 20
-1392.243
 30
4439.055
 70
    32
  0
VERTEX
  8
T08SSILL
 62
3
 10
277.845
 20
-1387.750
 30
4439.099
 70
    32
  0
VERTEX
  8
T08SSILL
 62
3
 10
282.298
 20
-1384.157
 30
4439.086
 70
    32
  0
VERTEX
  8
T08SSILL
 62
3
 10
265.193
 20
-1360.257
 30
4439.114
 70
    32
  0
SEQEND
  8
T08SSILL
  0
POLYLINE
  8
T08SSILL
 62
3
 66
     1
 70
     9
  0
VERTEX
  8
T08SSILL
 62
3
 10
284.862
 20
-1345.613
 30
4439.050
 70
    32
  0
VERTEX
  8
T08SSILL
 62
3
 10
287.037
 20
-1350.359
 30
4439.051
 70
    32
  0
VERTEX
  8
T08SSILL
 62
3
 10
283.380
 20
-1353.808
 30
4439.064
 70
    32
  0
VERTEX
  8
T08SSILL
 62
3
 10
294.023
 20
-1368.305
 30
4439.058
 70
    32
  0
VERTEX
  8
T08SSILL
 62
3
 10
289.844
 20
-1371.645
 30
4439.072
 70
    32
  0
VERTEX
  8
T08SSILL
 62
3
 10
290.849
 20
-1372.829
 30
4439.071
 70
    32
  0
VERTEX
  8
T08SSILL
 62
3
 10
338.521
 20
-1339.580
 30
4438.918
 70
    32
  0
VERTEX
  8
T08SSILL
 62
3
 10
333.539
 20
-1332.610
 30
4438.921
 70
    32
  0
VERTEX
  8
T08SSILL
 62
3
 10
329.027
 20
-1335.497
 30
4438.935
 70
    32
  0
VERTEX
  8
T08SSILL
 62
3
 10
325.533
 20
-1330.785
 30
4438.937
 70
    32
  0
VERTEX
  8
T08SSILL
 62
3
 10
320.473
 20
-1334.176
 30
4438.953
 70
    32
  0
VERTEX
  8
T08SSILL
 62
3
 10
313.149
 20
-1324.386
 30
4438.958
 70
    32
  0
SEQEND
  8
T08SSILL
  0
POLYLINE
  8
T08SSILL
 62
3
 66
     1
 70
     9
  0
VERTEX
  8
T08SSILL
 62
3
 10
293.101
 20
-1379.949
 30
4439.030
 70
    32
  0
VERTEX
  8
T08SSILL
 62
3
 10
291.908
 20
-1385.434
 30
4439.007
 70
    32
  0
VERTEX
  8
T08SSILL
 62
3
 10
294.780
 20
-1390.297
 30
4438.959
 70
    32
  0
VERTEX
  8
T08SSILL
 62
3
 10
300.089
 20
-1387.267
 30
4438.936
 70
    32
  0
VERTEX
  8
T08SSILL
 62
3
 10
302.216
 20
-1388.936
 30
4438.911
 70
    32
  0
VERTEX
  8
T08SSILL
 62
3
 10
322.718
 20
-1377.488
 30
4438.824
 70
    32
  0
VERTEX
  8
T08SSILL
 62
3
 10
326.574
 20
-1381.952
 30
4438.770
 70
    32
  0
VERTEX
  8
T08SSILL
 62
3
 10
340.460
 20
-1373.304
 30
4438.716
 70
    32
  0
VERTEX
  8
T08SSILL
 62
3
 10
344.517
 20
-1377.162
 30
4438.664
 70
    32
  0
VERTEX
  8
T08SSILL
 62
3
 10
358.553
 20
-1367.027
 30
4438.617
 70
    32
  0
VERTEX
  8
T08SSILL
 62
3
 10
342.241
 20
-1345.181
 30
4438.861
 70
    32
  0
SEQEND
  8
T08SSILL
  0
POLYLINE
  8
T08SSILL
 62
3
 66
     1
 70
     9
  0
VERTEX
  8
T08SSILL
 62
3
 10
215.484
 20
-1390.420
 30
4439.267
 70
    32
  0
VERTEX
  8
T08SSILL
 62
3
 10
184.390
 20
-1347.104
 30
4439.284
 70
    32
  0
VERTEX
  8
T08SSILL
 62
3
 10
285.937
 20
-1273.118
 30
4438.955
 70
    32
  0
VERTEX
  8
T08SSILL
 62
3
 10
317.297
 20
-1315.996
 30
4438.937
 70
    32
  0
SEQEND
  8
T08SSILL
  0
POLYLINE
  8
T08SSILL
 62
3
 66
     1
 70
     9
  0
VERTEX
  8
T08SSILL
 62
3
 10
269.179
 20
-1210.439
 30
4438.914
 70
    32
  0
VERTEX
  8
T08SSILL
 62
3
 10
234.233
 20
-1163.500
 30
4438.935
 70
    32
  0
VERTEX
  8
T08SSILL
 62
3
 10
132.601
 20
-1237.046
 30
4439.264
 70
    32
  0
VERTEX
  8
T08SSILL
 62
3
 10
163.960
 20
-1280.012
 30
4439.246
 70
    32
  0
VERTEX
  8
T08SSILL
 62
3
 10
159.547
 20
-1283.508
 30
4439.260
 70
    32
  0
VERTEX
  8
T08SSILL
 62
3
 10
162.690
 20
-1288.182
 30
4439.259
 70
    32
  0
SEQEND
  8
T08SSILL
  0
POLYLINE
  8
T08SSILL
 62
3
 66
     1
 70
     9
  0
VERTEX
  8
T08SSILL
 62
3
 10
-25.548
 20
-918.201
 30
4439.927
 70
    32
  0
VERTEX
  8
T08SSILL
 62
3
 10
-29.660
 20
-913.874
 30
4439.931
 70
    32
  0
VERTEX
  8
T08SSILL
 62
3
 10
-36.851
 20
-910.059
 30
4439.943
 70
    32
  0
VERTEX
  8
T08SSILL
 62
3
 10
-41.076
 20
-911.094
 30
4439.953
 70
    32
  0
VERTEX
  8
T08SSILL
 62
3
 10
-63.305
 20
-926.462
 30
4440.015
 70
    32
  0
VERTEX
  8
T08SSILL
 62
3
 10
-65.251
 20
-928.915
 30
4440.021
 70
    32
  0
VERTEX
  8
T08SSILL
 62
3
 10
-64.219
 20
-933.931
 30
4440.024
 70
    32
  0
VERTEX
  8
T08SSILL
 62
3
 10
-58.542
 20
-941.871
 30
4440.020
 70
    32
  0
SEQEND
  8
T08SSILL
  0
POLYLINE
  8
T08SSILL
 62
3
 66
     1
 70
     9
  0
VERTEX
  8
T08SSILL
 62
3
 10
1317.421
 20
-435.662
 30
4439.120
 70
    32
  0
VERTEX
  8
T08SSILL
 62
3
 10
1313.538
 20
-448.411
 30
4439.097
 70
    32
  0
VERTEX
  8
T08SSILL
 62
3
 10
1315.959
 20
-451.083
 30
4439.091
 70
    32
  0
VERTEX
  8
T08SSILL
 62
3
 10
1323.693
 20
-453.136
 30
4439.085
 70
    32
  0
VERTEX
  8
T08SSILL
 62
3
 10
1335.850
 20
-452.941
 30
4439.081
 70
    32
  0
VERTEX
  8
T08SSILL
 62
3
 10
1347.867
 20
-452.034
 30
4439.079
 70
    32
  0
VERTEX
  8
T08SSILL
 62
3
 10
1359.881
 20
-449.367
 30
4439.080
 70
    32
  0
SEQEND
  8
T08SSILL
  0
POLYLINE
  8
T08SSILL
 62
3
 66
     1
 70
     9
  0
VERTEX
  8
T08SSILL
 62
3
 10
1319.338
 20
-428.890
 30
4439.132
 70
    32
  0
VERTEX
  8
T08SSILL
 62
3
 10
1324.449
 20
-414.440
 30
4439.157
 70
    32
  0
VERTEX
  8
T08SSILL
 62
3
 10
1328.307
 20
-412.957
 30
4439.159
 70
    32
  0
VERTEX
  8
T08SSILL
 62
3
 10
1360.487
 20
-413.746
 30
4439.146
 70
    32
  0
VERTEX
  8
T08SSILL
 62
3
 10
1362.736
 20
-414.560
 30
4439.144
 70
    32
  0
VERTEX
  8
T08SSILL
 62
3
 10
1361.604
 20
-421.459
 30
4439.131
 70
    32
  0
VERTEX
  8
T08SSILL
 62
3
 10
1362.756
 20
-437.449
 30
4439.101
 70
    32
  0
VERTEX
  8
T08SSILL
 62
3
 10
1361.303
 20
-443.715
 30
4439.090
 70
    32
  0
SEQEND
  8
T08SSILL
  0
POLYLINE
  8
T08SSILL
 62
3
 66
     1
 70
     9
  0
VERTEX
  8
T08SSILL
 62
3
 10
1385.001
 20
-335.813
 30
4439.284
 70
    32
  0
VERTEX
  8
T08SSILL
 62
3
 10
1394.975
 20
-328.116
 30
4439.296
 70
    32
  0
VERTEX
  8
T08SSILL
 62
3
 10
1394.813
 20
-338.583
 30
4439.276
 70
    32
  0
SEQEND
  8
T08SSILL
  0
POLYLINE
  8
T08SSILL
 62
3
 66
     1
 70
     9
  0
VERTEX
  8
T08SSILL
 62
3
 10
1411.016
 20
-345.629
 30
4439.257
 70
    32
  0
VERTEX
  8
T08SSILL
 62
3
 10
1412.862
 20
-338.502
 30
4439.270
 70
    32
  0
VERTEX
  8
T08SSILL
 62
3
 10
1436.085
 20
-338.850
 30
4439.262
 70
    32
  0
VERTEX
  8
T08SSILL
 62
3
 10
1438.271
 20
-339.133
 30
4439.260
 70
    32
  0
VERTEX
  8
T08SSILL
 62
3
 10
1437.984
 20
-346.778
 30
4439.246
 70
    32
  0
SEQEND
  8
T08SSILL
  0
POLYLINE
  8
T08SSILL
 62
3
 66
     1
 70
     9
  0
VERTEX
  8
T08SSILL
 62
3
 10
1454.143
 20
-59.015
 30
4439.781
 70
    32
  0
VERTEX
  8
T08SSILL
 62
3
 10
1443.086
 20
-56.535
 30
4439.790
 70
    32
  0
VERTEX
  8
T08SSILL
 62
3
 10
1433.956
 20
-64.978
 30
4439.777
 70
    32
  0
VERTEX
  8
T08SSILL
 62
3
 10
1423.333
 20
-102.044
 30
4439.711
 70
    32
  0
VERTEX
  8
T08SSILL
 62
3
 10
1447.043
 20
-103.209
 30
4439.701
 70
    32
  0
VERTEX
  8
T08SSILL
 62
3
 10
1451.476
 20
-100.786
 30
4439.704
 70
    32
  0
VERTEX
  8
T08SSILL
 62
3
 10
1456.980
 20
-94.454
 30
4439.714
 70
    32
  0
SEQEND
  8
T08SSILL
  0
POLYLINE
  8
T08SSILL
 62
3
 66
     1
 70
     9
  0
VERTEX
  8
T08SSILL
 62
3
 10
51.320
 20
-660.586
 30
4439.816
 70
    32
  0
VERTEX
  8
T08SSILL
 62
3
 10
-24.510
 20
-684.650
 30
4439.858
 70
    32
  0
VERTEX
  8
T08SSILL
 62
3
 10
6.924
 20
-746.210
 30
4439.759
 70
    32
  0
VERTEX
  8
T08SSILL
 62
3
 10
99.078
 20
-712.646
 30
4439.713
 70
    32
  0
SEQEND
  8
T08SSILL
  0
POLYLINE
  8
T08SSILL
 62
3
 66
     1
 70
     9
  0
VERTEX
  8
T08SSILL
 62
3
 10
-52.703
 20
-542.515
 30
4440.046
 70
    32
  0
VERTEX
  8
T08SSILL
 62
3
 10
-67.303
 20
-596.286
 30
4439.998
 70
    32
  0
VERTEX
  8
T08SSILL
 62
3
 10
-65.962
 20
-598.214
 30
4439.994
 70
    32
  0
VERTEX
  8
T08SSILL
 62
3
 10
-15.808
 20
-583.557
 30
4439.965
 70
    32
  0
SEQEND
  8
T08SSILL
  0
POLYLINE
  8
T08SSILL
 62
3
 66
     1
 70
     9
  0
VERTEX
  8
T08SSILL
 62
3
 10
-113.403
 20
-805.613
 30
4440.002
 70
    32
  0
VERTEX
  8
T08SSILL
 62
3
 10
-107.539
 20
-810.148
 30
4439.994
 70
    32
  0
VERTEX
  8
T08SSILL
 62
3
 10
-99.206
 20
-824.364
 30
4439.991
 70
    32
  0
VERTEX
  8
T08SSILL
 62
3
 10
-95.506
 20
-833.506
 30
4439.992
 70
    32
  0
VERTEX
  8
T08SSILL
 62
3
 10
-87.638
 20
-835.376
 30
4439.977
 70
    32
  0
VERTEX
  8
T08SSILL
 62
3
 10
-85.913
 20
-840.742
 30
4439.979
 70
    32
  0
VERTEX
  8
T08SSILL
 62
3
 10
-75.025
 20
-835.085
 30
4439.950
 70
    32
  0
VERTEX
  8
T08SSILL
 62
3
 10
-59.915
 20
-798.689
 30
4439.882
 70
    32
  0
VERTEX
  8
T08SSILL
 62
3
 10
-60.634
 20
-797.196
 30
4439.882
 70
    32
  0
VERTEX
  8
T08SSILL
 62
3
 10
-96.648
 20
-795.051
 30
4439.957
 70
    32
  0
SEQEND
  8
T08SSILL
  0
POLYLINE
  8
T08SSILL
 62
3
 66
     1
 70
     9
  0
VERTEX
  8
T08SSILL
 62
3
 10
-154.945
 20
-816.575
 30
4440.101
 70
    32
  0
VERTEX
  8
T08SSILL
 62
3
 10
-156.299
 20
-822.940
 30
4440.111
 70
    32
  0
VERTEX
  8
T08SSILL
 62
3
 10
-142.477
 20
-849.017
 30
4440.107
 70
    32
  0
VERTEX
  8
T08SSILL
 62
3
 10
-139.826
 20
-849.434
 30
4440.102
 70
    32
  0
VERTEX
  8
T08SSILL
 62
3
 10
-125.081
 20
-841.096
 30
4440.062
 70
    32
  0
VERTEX
  8
T08SSILL
 62
3
 10
-126.753
 20
-831.759
 30
4440.056
 70
    32
  0
VERTEX
  8
T08SSILL
 62
3
 10
-137.319
 20
-814.563
 30
4440.062
 70
    32
  0
VERTEX
  8
T08SSILL
 62
3
 10
-132.674
 20
-811.169
 30
4440.049
 70
    32
  0
VERTEX
  8
T08SSILL
 62
3
 10
-139.012
 20
-802.933
 30
4440.054
 70
    32
  0
VERTEX
  8
T08SSILL
 62
3
 10
-150.654
 20
-813.096
 30
4440.089
 70
    32
  0
SEQEND
  8
T08SSILL
  0
POLYLINE
  8
T08SSILL
 62
3
 66
     1
 70
     9
  0
VERTEX
  8
T08SSILL
 62
3
 10
-212.282
 20
-719.873
 30
4440.128
 70
    32
  0
VERTEX
  8
T08SSILL
 62
3
 10
-230.128
 20
-687.745
 30
4440.134
 70
    32
  0
VERTEX
  8
T08SSILL
 62
3
 10
-225.787
 20
-670.238
 30
4440.108
 70
    32
  0
VERTEX
  8
T08SSILL
 62
3
 10
-224.046
 20
-667.663
 30
4440.102
 70
    32
  0
VERTEX
  8
T08SSILL
 62
3
 10
-218.860
 20
-665.587
 30
4440.089
 70
    32
  0
VERTEX
  8
T08SSILL
 62
3
 10
-207.521
 20
-680.483
 30
4440.079
 70
    32
  0
VERTEX
  8
T08SSILL
 62
3
 10
-202.698
 20
-677.263
 30
4440.066
 70
    32
  0
VERTEX
  8
T08SSILL
 62
3
 10
-192.341
 20
-690.844
 30
4440.057
 70
    32
  0
VERTEX
  8
T08SSILL
 62
3
 10
-196.897
 20
-694.326
 30
4440.070
 70
    32
  0
VERTEX
  8
T08SSILL
 62
3
 10
-188.940
 20
-705.987
 30
4440.065
 70
    32
  0
VERTEX
  8
T08SSILL
 62
3
 10
-192.253
 20
-710.340
 30
4440.076
 70
    32
  0
VERTEX
  8
T08SSILL
 62
3
 10
-205.039
 20
-720.778
 30
4440.114
 70
    32
  0
SEQEND
  8
T08SSILL
  0
POLYLINE
  8
T08SSILL
 62
3
 66
     1
 70
     9
  0
VERTEX
  8
T08SSILL
 62
3
 10
99.070
 20
-799.633
 30
4439.614
 70
    32
  0
VERTEX
  8
T08SSILL
 62
3
 10
90.568
 20
-805.709
 30
4439.615
 70
    32
  0
VERTEX
  8
T08SSILL
 62
3
 10
84.997
 20
-814.053
 30
4439.610
 70
    32
  0
VERTEX
  8
T08SSILL
 62
3
 10
87.719
 20
-822.409
 30
4439.598
 70
    32
  0
VERTEX
  8
T08SSILL
 62
3
 10
103.116
 20
-837.268
 30
4439.574
 70
    32
  0
VERTEX
  8
T08SSILL
 62
3
 10
130.484
 20
-819.905
 30
4439.562
 70
    32
  0
VERTEX
  8
T08SSILL
 62
3
 10
124.406
 20
-811.138
 30
4439.577
 70
    32
  0
SEQEND
  8
T08SSILL
  0
POLYLINE
  8
T08SSILL
 62
3
 66
     1
 70
     9
  0
VERTEX
  8
T08SSILL
 62
3
 10
157.279
 20
-856.187
 30
4439.496
 70
    32
  0
VERTEX
  8
T08SSILL
 62
3
 10
131.325
 20
-873.801
 30
4439.550
 70
    32
  0
VERTEX
  8
T08SSILL
 62
3
 10
145.357
 20
-893.877
 30
4439.540
 70
    32
  0
VERTEX
  8
T08SSILL
 62
3
 10
147.486
 20
-895.182
 30
4439.537
 70
    32
  0
VERTEX
  8
T08SSILL
 62
3
 10
173.173
 20
-877.217
 30
4439.461
 70
    32
  0
VERTEX
  8
T08SSILL
 62
3
 10
168.682
 20
-871.275
 30
4439.468
 70
    32
  0
SEQEND
  8
T08SSILL
  0
POLYLINE
  8
T08SSILL
 62
3
 66
     1
 70
     9
  0
VERTEX
  8
T08SSILL
 62
3
 10
204.299
 20
-1449.704
 30
4439.295
 70
    32
  0
VERTEX
  8
T08SSILL
 62
3
 10
207.004
 20
-1454.384
 30
4439.248
 70
    32
  0
VERTEX
  8
T08SSILL
 62
3
 10
203.080
 20
-1457.911
 30
4439.257
 70
    32
  0
VERTEX
  8
T08SSILL
 62
3
 10
212.696
 20
-1471.749
 30
4439.108
 70
    32
  0
VERTEX
  8
T08SSILL
 62
3
 10
208.075
 20
-1475.159
 30
4439.123
 70
    32
  0
VERTEX
  8
T08SSILL
 62
3
 10
210.944
 20
-1480.109
 30
4439.074
 70
    32
  0
VERTEX
  8
T08SSILL
 62
3
 10
206.681
 20
-1483.359
 30
4439.087
 70
    32
  0
VERTEX
  8
T08SSILL
 62
3
 10
234.088
 20
-1521.477
 30
4438.669
 70
    32
  0
VERTEX
  8
T08SSILL
 62
3
 10
229.394
 20
-1524.532
 30
4438.686
 70
    32
  0
VERTEX
  8
T08SSILL
 62
3
 10
247.266
 20
-1548.991
 30
4438.416
 70
    32
  0
VERTEX
  8
T08SSILL
 62
3
 10
242.827
 20
-1552.232
 30
4438.430
 70
    32
  0
VERTEX
  8
T08SSILL
 62
3
 10
265.323
 20
-1583.822
 30
4438.207
 70
    32
  0
VERTEX
  8
T08SSILL
 62
3
 10
262.164
 20
-1585.917
 30
4438.220
 70
    32
  0
VERTEX
  8
T08SSILL
 62
3
 10
266.183
 20
-1590.622
 30
4438.230
 70
    32
  0
VERTEX
  8
T08SSILL
 62
3
 10
243.957
 20
-1607.620
 30
4438.328
 70
    32
  0
VERTEX
  8
T08SSILL
 62
3
 10
183.201
 20
-1500.920
 30
4439.162
 70
    32
  0
VERTEX
  8
T08SSILL
 62
3
 10
177.210
 20
-1469.575
 30
4439.383
 70
    32
  0
SEQEND
  8
T08SSILL
  0
POLYLINE
  8
T08SSILL
 62
3
 66
     1
 70
     9
  0
VERTEX
  8
T08SSILL
 62
3
 10
339.421
 20
-1599.632
 30
4438.140
 70
    32
  0
VERTEX
  8
T08SSILL
 62
3
 10
353.950
 20
-1589.104
 30
4438.078
 70
    32
  0
VERTEX
  8
T08SSILL
 62
3
 10
343.560
 20
-1574.674
 30
4438.044
 70
    32
  0
VERTEX
  8
T08SSILL
 62
3
 10
347.654
 20
-1571.801
 30
4438.027
 70
    32
  0
VERTEX
  8
T08SSILL
 62
3
 10
338.283
 20
-1558.786
 30
4437.997
 70
    32
  0
VERTEX
  8
T08SSILL
 62
3
 10
324.150
 20
-1569.659
 30
4438.059
 70
    32
  0
VERTEX
  8
T08SSILL
 62
3
 10
325.558
 20
-1578.062
 30
4438.086
 70
    32
  0
VERTEX
  8
T08SSILL
 62
3
 10
328.501
 20
-1585.475
 30
4438.108
 70
    32
  0
SEQEND
  8
T08SSILL
  0
POLYLINE
  8
T08SSILL
 62
3
 66
     1
 70
     9
  0
VERTEX
  8
T08SSILL
 62
3
 10
222.707
 20
-1257.871
 30
4439.082
 70
    32
  0
VERTEX
  8
T08SSILL
 62
3
 10
230.742
 20
-1269.251
 30
4439.078
 70
    32
  0
VERTEX
  8
T08SSILL
 62
3
 10
227.125
 20
-1271.959
 30
4439.090
 70
    32
  0
VERTEX
  8
T08SSILL
 62
3
 10
227.909
 20
-1273.458
 30
4439.090
 70
    32
  0
VERTEX
  8
T08SSILL
 62
3
 10
240.172
 20
-1264.460
 30
4439.050
 70
    32
  0
VERTEX
  8
T08SSILL
 62
3
 10
231.213
 20
-1251.495
 30
4439.054
 70
    32
  0
SEQEND
  8
T08SSILL
  0
POLYLINE
  8
T08SSILL
 62
3
 66
     1
 70
     9
  0
VERTEX
  8
T08SSILL
 62
3
 10
164.989
 20
-1366.029
 30
4439.353
 70
    32
  0
VERTEX
  8
T08SSILL
 62
3
 10
160.280
 20
-1369.435
 30
4439.368
 70
    32
  0
VERTEX
  8
T08SSILL
 62
3
 10
174.461
 20
-1389.700
 30
4439.361
 70
    32
  0
VERTEX
  8
T08SSILL
 62
3
 10
169.766
 20
-1392.756
 30
4439.376
 70
    32
  0
VERTEX
  8
T08SSILL
 62
3
 10
198.106
 20
-1431.703
 30
4439.360
 70
    32
  0
VERTEX
  8
T08SSILL
 62
3
 10
193.572
 20
-1435.116
 30
4439.375
 70
    32
  0
VERTEX
  8
T08SSILL
 62
3
 10
200.059
 20
-1443.906
 30
4439.359
 70
    32
  0
VERTEX
  8
T08SSILL
 62
3
 10
167.235
 20
-1466.526
 30
4439.474
 70
    32
  0
VERTEX
  8
T08SSILL
 62
3
 10
161.932
 20
-1463.056
 30
4439.483
 70
    32
  0
VERTEX
  8
T08SSILL
 62
3
 10
157.583
 20
-1457.781
 30
4439.486
 70
    32
  0
VERTEX
  8
T08SSILL
 62
3
 10
109.061
 20
-1371.704
 30
4439.489
 70
    32
  0
VERTEX
  8
T08SSILL
 62
3
 10
108.480
 20
-1368.781
 30
4439.487
 70
    32
  0
VERTEX
  8
T08SSILL
 62
3
 10
109.553
 20
-1361.974
 30
4439.476
 70
    32
  0
VERTEX
  8
T08SSILL
 62
3
 10
147.803
 20
-1334.535
 30
4439.352
 70
    32
  0
VERTEX
  8
T08SSILL
 62
3
 10
159.048
 20
-1348.302
 30
4439.344
 70
    32
  0
VERTEX
  8
T08SSILL
 62
3
 10
154.890
 20
-1351.116
 30
4439.357
 70
    32
  0
SEQEND
  8
T08SSILL
  0
POLYLINE
  8
T08SSILL
 62
3
 66
     1
 70
     9
  0
VERTEX
  8
T08SSILL
 62
3
 10
171.524
 20
-1297.895
 30
4439.251
 70
    32
  0
VERTEX
  8
T08SSILL
 62
3
 10
181.920
 20
-1311.924
 30
4439.245
 70
    32
  0
VERTEX
  8
T08SSILL
 62
3
 10
179.113
 20
-1313.237
 30
4439.253
 70
    32
  0
VERTEX
  8
T08SSILL
 62
3
 10
173.250
 20
-1304.673
 30
4439.256
 70
    32
  0
VERTEX
  8
T08SSILL
 62
3
 10
164.607
 20
-1310.347
 30
4439.283
 70
    32
  0
VERTEX
  8
T08SSILL
 62
3
 10
157.360
 20
-1299.674
 30
4439.286
 70
    32
  0
VERTEX
  8
T08SSILL
 62
3
 10
201.381
 20
-1268.320
 30
4439.145
 70
    32
  0
VERTEX
  8
T08SSILL
 62
3
 10
208.196
 20
-1277.408
 30
4439.140
 70
    32
  0
VERTEX
  8
T08SSILL
 62
3
 10
203.431
 20
-1280.990
 30
4439.156
 70
    32
  0
VERTEX
  8
T08SSILL
 62
3
 10
209.978
 20
-1290.956
 30
4439.153
 70
    32
  0
VERTEX
  8
T08SSILL
 62
3
 10
207.246
 20
-1292.262
 30
4439.161
 70
    32
  0
VERTEX
  8
T08SSILL
 62
3
 10
196.847
 20
-1278.937
 30
4439.168
 70
    32
  0
VERTEX
  8
T08SSILL
 62
3
 10
182.817
 20
-1289.597
 30
4439.214
 70
    32
  0
VERTEX
  8
T08SSILL
 62
3
 10
193.570
 20
-1302.572
 30
4439.206
 70
    32
  0
VERTEX
  8
T08SSILL
 62
3
 10
191.010
 20
-1304.670
 30
4439.215
 70
    32
  0
VERTEX
  8
T08SSILL
 62
3
 10
180.345
 20
-1291.783
 30
4439.223
 70
    32
  0
SEQEND
  8
T08SSILL
  0
POLYLINE
  8
T08SSILL
 62
3
 66
     1
 70
     9
  0
VERTEX
  8
T08SSILL
 62
3
 10
-23.739
 20
-947.370
 30
4439.951
 70
    32
  0
VERTEX
  8
T08SSILL
 62
3
 10
-48.972
 20
-957.252
 30
4440.015
 70
    32
  0
VERTEX
  8
T08SSILL
 62
3
 10
-52.397
 20
-957.633
 30
4440.022
 70
    32
  0
VERTEX
  8
T08SSILL
 62
3
 10
-26.311
 20
-996.706
 30
4440.005
 70
    32
  0
VERTEX
  8
T08SSILL
 62
3
 10
-21.996
 20
-966.342
 30
4439.966
 70
    32
  0
VERTEX
  8
T08SSILL
 62
3
 10
-24.237
 20
-961.263
 30
4439.966
 70
    32
  0
VERTEX
  8
T08SSILL
 62
3
 10
-22.560
 20
-951.667
 30
4439.953
 70
    32
  0
SEQEND
  8
T08SSILL
  0
POLYLINE
  8
T08SSILL
 62
3
 66
     1
 70
     9
  0
VERTEX
  8
T08SSILL
 62
3
 10
253.097
 20
-1165.576
 30
4438.895
 70
    32
  0
VERTEX
  8
T08SSILL
 62
3
 10
271.642
 20
-1154.333
 30
4438.837
 70
    32
  0
VERTEX
  8
T08SSILL
 62
3
 10
263.461
 20
-1145.875
 30
4438.846
 70
    32
  0
VERTEX
  8
T08SSILL
 62
3
 10
249.028
 20
-1148.677
 30
4438.883
 70
    32
  0
VERTEX
  8
T08SSILL
 62
3
 10
244.381
 20
-1152.313
 30
4438.898
 70
    32
  0
SEQEND
  8
T08SSILL
  0
POLYLINE
  8
T08SSILL
 62
3
 66
     1
 70
     9
  0
VERTEX
  8
T08SSILL
 62
3
 10
574.252
 20
-1806.766
 30
4438.413
 70
    32
  0
VERTEX
  8
T08SSILL
 62
3
 10
580.242
 20
-1813.421
 30
4438.420
 70
    32
  0
VERTEX
  8
T08SSILL
 62
3
 10
580.190
 20
-1815.270
 30
4438.426
 70
    32
  0
VERTEX
  8
T08SSILL
 62
3
 10
559.327
 20
-1833.038
 30
4438.518
 70
    32
  0
VERTEX
  8
T08SSILL
 62
3
 10
553.224
 20
-1836.879
 30
4438.542
 70
    32
  0
VERTEX
  8
T08SSILL
 62
3
 10
547.182
 20
-1832.524
 30
4438.541
 70
    32
  0
VERTEX
  8
T08SSILL
 62
3
 10
545.388
 20
-1828.423
 30
4438.532
 70
    32
  0
SEQEND
  8
T08SSILL
  0
POLYLINE
  8
T08SSILL
 62
3
 66
     1
 70
     9
  0
VERTEX
  8
T08SSILL
 62
3
 10
130.042
 20
-909.111
 30
4439.588
 70
    32
  0
VERTEX
  8
T08SSILL
 62
3
 10
137.610
 20
-904.117
 30
4439.567
 70
    32
  0
VERTEX
  8
T08SSILL
 62
3
 10
129.224
 20
-892.648
 30
4439.573
 70
    32
  0
VERTEX
  8
T08SSILL
 62
3
 10
126.328
 20
-891.579
 30
4439.578
 70
    32
  0
VERTEX
  8
T08SSILL
 62
3
 10
124.983
 20
-897.024
 30
4439.586
 70
    32
  0
VERTEX
  8
T08SSILL
 62
3
 10
129.070
 20
-906.539
 30
4439.587
 70
    32
  0
SEQEND
  8
T08SSILL
  0
POLYLINE
  8
T08SSILL
 62
3
 66
     1
 70
     9
  0
VERTEX
  8
T08SSILL
 62
3
 10
281.767
 20
-1262.548
 30
4438.952
 70
    32
  0
VERTEX
  8
T08SSILL
 62
3
 10
272.774
 20
-1249.405
 30
4438.956
 70
    32
  0
VERTEX
  8
T08SSILL
 62
3
 10
250.451
 20
-1266.091
 30
4439.028
 70
    32
  0
VERTEX
  8
T08SSILL
 62
3
 10
262.166
 20
-1281.830
 30
4439.021
 70
    32
  0
VERTEX
  8
T08SSILL
 62
3
 10
284.040
 20
-1265.353
 30
4438.950
 70
    32
  0
SEQEND
  8
T08SSILL
  0
POLYLINE
  8
T08SSILL
 62
3
 66
     1
 70
     9
  0
VERTEX
  8
T08SSILL
 62
3
 10
1643.406
 20
-2714.538
 30
4438.869
 70
    32
  0
VERTEX
  8
T08SSILL
 62
3
 10
1635.129
 20
-2702.415
 30
4438.876
 70
    32
  0
VERTEX
  8
T08SSILL
 62
3
 10
1614.547
 20
-2686.014
 30
4438.903
 70
    32
  0
VERTEX
  8
T08SSILL
 62
3
 10
1610.207
 20
-2679.907
 30
4438.908
 70
    32
  0
VERTEX
  8
T08SSILL
 62
3
 10
1607.559
 20
-2673.362
 30
4438.908
 70
    32
  0
VERTEX
  8
T08SSILL
 62
3
 10
1639.829
 20
-2623.721
 30
4438.708
 70
    32
  0
VERTEX
  8
T08SSILL
 62
3
 10
1708.120
 20
-2716.801
 30
4438.750
 70
    32
  0
VERTEX
  8
T08SSILL
 62
3
 10
1673.958
 20
-2733.767
 30
4438.825
 70
    32
  0
VERTEX
  8
T08SSILL
 62
3
 10
1660.818
 20
-2723.454
 30
4438.842
 70
    32
  0
SEQEND
  8
T08SSILL
  0
POLYLINE
  8
T08SSILL
 62
3
 66
     1
 70
     9
  0
VERTEX
  8
T08SSILL
 62
3
 10
1239.593
 20
-1839.275
 30
4437.119
 70
    32
  0
VERTEX
  8
T08SSILL
 62
3
 10
1243.695
 20
-1849.928
 30
4437.146
 70
    32
  0
VERTEX
  8
T08SSILL
 62
3
 10
1249.515
 20
-1859.620
 30
4437.166
 70
    32
  0
VERTEX
  8
T08SSILL
 62
3
 10
1249.958
 20
-1855.810
 30
4437.151
 70
    32
  0
VERTEX
  8
T08SSILL
 62
3
 10
1257.523
 20
-1847.796
 30
4437.102
 70
    32
  0
VERTEX
  8
T08SSILL
 62
3
 10
1256.361
 20
-1841.679
 30
4437.083
 70
    32
  0
VERTEX
  8
T08SSILL
 62
3
 10
1251.959
 20
-1839.854
 30
4437.088
 70
    32
  0
VERTEX
  8
T08SSILL
 62
3
 10
1244.163
 20
-1838.977
 30
4437.106
 70
    32
  0
SEQEND
  8
T08SSILL
  0
POLYLINE
  8
T08SSILL
 62
3
 66
     1
 70
     9
  0
VERTEX
  8
T08SSILL
 62
3
 10
1242.824
 20
-1925.148
 30
4437.419
 70
    32
  0
VERTEX
  8
T08SSILL
 62
3
 10
1245.546
 20
-1913.389
 30
4437.369
 70
    32
  0
VERTEX
  8
T08SSILL
 62
3
 10
1244.716
 20
-1908.756
 30
4437.355
 70
    32
  0
VERTEX
  8
T08SSILL
 62
3
 10
1235.903
 20
-1893.384
 30
4437.323
 70
    32
  0
VERTEX
  8
T08SSILL
 62
3
 10
1233.222
 20
-1884.869
 30
4437.300
 70
    32
  0
VERTEX
  8
T08SSILL
 62
3
 10
1224.663
 20
-1876.976
 30
4437.295
 70
    32
  0
VERTEX
  8
T08SSILL
 62
3
 10
1208.039
 20
-1873.860
 30
4437.328
 70
    32
  0
VERTEX
  8
T08SSILL
 62
3
 10
1192.992
 20
-1876.313
 30
4437.377
 70
    32
  0
VERTEX
  8
T08SSILL
 62
3
 10
1167.080
 20
-1884.022
 30
4437.475
 70
    32
  0
VERTEX
  8
T08SSILL
 62
3
 10
1163.821
 20
-1891.752
 30
4437.506
 70
    32
  0
VERTEX
  8
T08SSILL
 62
3
 10
1164.503
 20
-1898.948
 30
4437.526
 70
    32
  0
VERTEX
  8
T08SSILL
 62
3
 10
1169.284
 20
-1907.101
 30
4437.540
 70
    32
  0
VERTEX
  8
T08SSILL
 62
3
 10
1168.568
 20
-1916.477
 30
4437.569
 70
    32
  0
VERTEX
  8
T08SSILL
 62
3
 10
1172.776
 20
-1923.687
 30
4437.581
 70
    32
  0
VERTEX
  8
T08SSILL
 62
3
 10
1176.992
 20
-1940.681
 30
4437.623
 70
    32
  0
VERTEX
  8
T08SSILL
 62
3
 10
1185.086
 20
-1957.673
 30
4437.656
 70
    32
  0
VERTEX
  8
T08SSILL
 62
3
 10
1188.337
 20
-1959.375
 30
4437.655
 70
    32
  0
VERTEX
  8
T08SSILL
 62
3
 10
1217.233
 20
-1941.223
 30
4437.546
 70
    32
  0
SEQEND
  8
T08SSILL
  0
POLYLINE
  8
T08SSILL
 62
3
 66
     1
 70
     9
  0
VERTEX
  8
T08SSILL
 62
3
 10
1217.643
 20
-1868.044
 30
4437.282
 70
    32
  0
VERTEX
  8
T08SSILL
 62
3
 10
1217.782
 20
-1853.759
 30
4437.230
 70
    32
  0
VERTEX
  8
T08SSILL
 62
3
 10
1213.763
 20
-1839.137
 30
4437.188
 70
    32
  0
VERTEX
  8
T08SSILL
 62
3
 10
1209.312
 20
-1836.256
 30
4437.190
 70
    32
  0
VERTEX
  8
T08SSILL
 62
3
 10
1171.109
 20
-1827.695
 30
4437.262
 70
    32
  0
VERTEX
  8
T08SSILL
 62
3
 10
1166.449
 20
-1831.786
 30
4437.289
 70
    32
  0
VERTEX
  8
T08SSILL
 62
3
 10
1165.179
 20
-1834.841
 30
4437.303
 70
    32
  0
VERTEX
  8
T08SSILL
 62
3
 10
1162.625
 20
-1848.355
 30
4437.359
 70
    32
  0
VERTEX
  8
T08SSILL
 62
3
 10
1164.167
 20
-1876.224
 30
4437.455
 70
    32
  0
VERTEX
  8
T08SSILL
 62
3
 10
1172.015
 20
-1876.305
 30
4437.434
 70
    32
  0
VERTEX
  8
T08SSILL
 62
3
 10
1197.750
 20
-1868.603
 30
4437.337
 70
    32
  0
VERTEX
  8
T08SSILL
 62
3
 10
1210.671
 20
-1867.835
 30
4437.299
 70
    32
  0
SEQEND
  8
T08SSILL
  0
POLYLINE
  8
T08SSILL
 62
3
 66
     1
 70
     9
  0
VERTEX
  8
T08SSILL
 62
3
 10
1197.419
 20
-1826.753
 30
4437.188
 70
    32
  0
VERTEX
  8
T08SSILL
 62
3
 10
1201.434
 20
-1820.135
 30
4437.153
 70
    32
  0
VERTEX
  8
T08SSILL
 62
3
 10
1195.185
 20
-1808.788
 30
4437.129
 70
    32
  0
VERTEX
  8
T08SSILL
 62
3
 10
1194.808
 20
-1804.398
 30
4437.114
 70
    32
  0
VERTEX
  8
T08SSILL
 62
3
 10
1189.183
 20
-1795.137
 30
4437.096
 70
    32
  0
VERTEX
  8
T08SSILL
 62
3
 10
1182.744
 20
-1789.263
 30
4437.092
 70
    32
  0
VERTEX
  8
T08SSILL
 62
3
 10
1178.610
 20
-1787.513
 30
4437.097
 70
    32
  0
VERTEX
  8
T08SSILL
 62
3
 10
1172.890
 20
-1789.626
 30
4437.120
 70
    32
  0
VERTEX
  8
T08SSILL
 62
3
 10
1172.735
 20
-1792.013
 30
4437.129
 70
    32
  0
VERTEX
  8
T08SSILL
 62
3
 10
1178.604
 20
-1802.761
 30
4437.152
 70
    32
  0
VERTEX
  8
T08SSILL
 62
3
 10
1178.720
 20
-1805.312
 30
4437.161
 70
    32
  0
VERTEX
  8
T08SSILL
 62
3
 10
1171.602
 20
-1821.150
 30
4437.237
 70
    32
  0
VERTEX
  8
T08SSILL
 62
3
 10
1191.937
 20
-1826.387
 30
4437.201
 70
    32
  0
SEQEND
  8
T08SSILL
  0
POLYLINE
  8
T08SSILL
 62
3
 66
     1
 70
     9
  0
VERTEX
  8
T08SSILL
 62
3
 10
1152.002
 20
-2063.241
 30
4438.029
 70
    32
  0
VERTEX
  8
T08SSILL
 62
3
 10
1151.741
 20
-2050.493
 30
4437.992
 70
    32
  0
VERTEX
  8
T08SSILL
 62
3
 10
1159.042
 20
-2029.569
 30
4437.917
 70
    32
  0
VERTEX
  8
T08SSILL
 62
3
 10
1142.954
 20
-2019.719
 30
4437.920
 70
    32
  0
VERTEX
  8
T08SSILL
 62
3
 10
1132.316
 20
-2021.652
 30
4437.946
 70
    32
  0
VERTEX
  8
T08SSILL
 62
3
 10
1135.304
 20
-2026.312
 30
4437.954
 70
    32
  0
VERTEX
  8
T08SSILL
 62
3
 10
1139.169
 20
-2043.369
 30
4437.996
 70
    32
  0
VERTEX
  8
T08SSILL
 62
3
 10
1141.015
 20
-2046.886
 30
4438.003
 70
    32
  0
VERTEX
  8
T08SSILL
 62
3
 10
1138.727
 20
-2057.700
 30
4438.039
 70
    32
  0
VERTEX
  8
T08SSILL
 62
3
 10
1140.484
 20
-2065.525
 30
4438.058
 70
    32
  0
SEQEND
  8
T08SSILL
  0
POLYLINE
  8
T08SSILL
 62
3
 66
     1
 70
     9
  0
VERTEX
  8
T08SSILL
 62
3
 10
1117.800
 20
-2069.302
 30
4438.114
 70
    32
  0
VERTEX
  8
T08SSILL
 62
3
 10
1127.472
 20
-2067.105
 30
4438.088
 70
    32
  0
VERTEX
  8
T08SSILL
 62
3
 10
1132.308
 20
-2063.677
 30
4438.069
 70
    32
  0
VERTEX
  8
T08SSILL
 62
3
 10
1133.718
 20
-2048.555
 30
4438.022
 70
    32
  0
VERTEX
  8
T08SSILL
 62
3
 10
1130.026
 20
-2044.510
 30
4438.017
 70
    32
  0
VERTEX
  8
T08SSILL
 62
3
 10
1119.742
 20
-2024.551
 30
4437.979
 70
    32
  0
VERTEX
  8
T08SSILL
 62
3
 10
1112.972
 20
-2027.187
 30
4438.000
 70
    32
  0
VERTEX
  8
T08SSILL
 62
3
 10
1112.093
 20
-2028.682
 30
4438.006
 70
    32
  0
SEQEND
  8
T08SSILL
  0
POLYLINE
  8
T08SSILL
 62
3
 66
     1
 70
     9
  0
VERTEX
  8
T08SSILL
 62
3
 10
1186.390
 20
-2000.297
 30
4437.778
 70
    32
  0
VERTEX
  8
T08SSILL
 62
3
 10
1180.939
 20
-2002.230
 30
4437.794
 70
    32
  0
VERTEX
  8
T08SSILL
 62
3
 10
1177.859
 20
-2017.176
 30
4437.844
 70
    32
  0
VERTEX
  8
T08SSILL
 62
3
 10
1181.458
 20
-2050.146
 30
4437.933
 70
    32
  0
VERTEX
  8
T08SSILL
 62
3
 10
1189.017
 20
-2058.940
 30
4437.944
 70
    32
  0
VERTEX
  8
T08SSILL
 62
3
 10
1189.190
 20
-2078.809
 30
4438.002
 70
    32
  0
VERTEX
  8
T08SSILL
 62
3
 10
1195.078
 20
-2092.526
 30
4438.030
 70
    32
  0
VERTEX
  8
T08SSILL
 62
3
 10
1208.879
 20
-2106.947
 30
4438.045
 70
    32
  0
VERTEX
  8
T08SSILL
 62
3
 10
1220.659
 20
-2110.202
 30
4438.031
 70
    32
  0
VERTEX
  8
T08SSILL
 62
3
 10
1225.935
 20
-2110.027
 30
4438.021
 70
    32
  0
VERTEX
  8
T08SSILL
 62
3
 10
1240.882
 20
-2103.612
 30
4437.973
 70
    32
  0
VERTEX
  8
T08SSILL
 62
3
 10
1252.137
 20
-2094.119
 30
4437.923
 70
    32
  0
VERTEX
  8
T08SSILL
 62
3
 10
1252.841
 20
-2091.481
 30
4437.914
 70
    32
  0
SEQEND
  8
T08SSILL
  0
POLYLINE
  8
T08SSILL
 62
3
 66
     1
 70
     9
  0
VERTEX
  8
T08SSILL
 62
3
 10
1257.324
 20
-2099.307
 30
4437.928
 70
    32
  0
VERTEX
  8
T08SSILL
 62
3
 10
1243.871
 20
-2108.272
 30
4437.980
 70
    32
  0
VERTEX
  8
T08SSILL
 62
3
 10
1244.397
 20
-2112.229
 30
4437.991
 70
    32
  0
VERTEX
  8
T08SSILL
 62
3
 10
1247.035
 20
-2114.515
 30
4437.992
 70
    32
  0
VERTEX
  8
T08SSILL
 62
3
 10
1270.069
 20
-2118.563
 30
4437.959
 70
    32
  0
VERTEX
  8
T08SSILL
 62
3
 10
1271.652
 20
-2116.805
 30
4437.951
 70
    32
  0
VERTEX
  8
T08SSILL
 62
3
 10
1270.773
 20
-2114.959
 30
4437.947
 70
    32
  0
SEQEND
  8
T08SSILL
  0
POLYLINE
  8
T08SSILL
 62
3
 66
     1
 70
     9
  0
VERTEX
  8
T08SSILL
 62
3
 10
361.691
 20
-1685.411
 30
4438.407
 70
    32
  0
VERTEX
  8
T08SSILL
 62
3
 10
357.003
 20
-1688.291
 30
4438.425
 70
    32
  0
VERTEX
  8
T08SSILL
 62
3
 10
354.921
 20
-1687.678
 30
4438.427
 70
    32
  0
VERTEX
  8
T08SSILL
 62
3
 10
345.495
 20
-1673.496
 30
4438.392
 70
    32
  0
VERTEX
  8
T08SSILL
 62
3
 10
349.129
 20
-1668.464
 30
4438.368
 70
    32
  0
VERTEX
  8
T08SSILL
 62
3
 10
351.972
 20
-1667.703
 30
4438.361
 70
    32
  0
VERTEX
  8
T08SSILL
 62
3
 10
360.155
 20
-1680.077
 30
4438.391
 70
    32
  0
SEQEND
  8
T08SSILL
  0
POLYLINE
  8
T08SSILL
 62
3
 66
     1
 70
     9
  0
VERTEX
  8
T08SSILL
 62
3
 10
381.372
 20
-1661.982
 30
4438.291
 70
    32
  0
VERTEX
  8
T08SSILL
 62
3
 10
375.318
 20
-1659.711
 30
4438.293
 70
    32
  0
VERTEX
  8
T08SSILL
 62
3
 10
373.242
 20
-1656.814
 30
4438.286
 70
    32
  0
VERTEX
  8
T08SSILL
 62
3
 10
372.759
 20
-1653.632
 30
4438.276
 70
    32
  0
VERTEX
  8
T08SSILL
 62
3
 10
374.074
 20
-1651.578
 30
4438.267
 70
    32
  0
VERTEX
  8
T08SSILL
 62
3
 10
395.855
 20
-1636.845
 30
4438.178
 70
    32
  0
VERTEX
  8
T08SSILL
 62
3
 10
401.329
 20
-1642.518
 30
4438.189
 70
    32
  0
VERTEX
  8
T08SSILL
 62
3
 10
401.703
 20
-1646.223
 30
4438.201
 70
    32
  0
VERTEX
  8
T08SSILL
 62
3
 10
397.388
 20
-1650.700
 30
4438.224
 70
    32
  0
VERTEX
  8
T08SSILL
 62
3
 10
388.941
 20
-1653.161
 30
4438.247
 70
    32
  0
VERTEX
  8
T08SSILL
 62
3
 10
385.102
 20
-1658.887
 30
4438.274
 70
    32
  0
SEQEND
  8
T08SSILL
  0
POLYLINE
  8
T08SSILL
 62
3
 66
     1
 70
     9
  0
VERTEX
  8
T08SSILL
 62
3
 10
435.569
 20
-1606.956
 30
4438.005
 70
    32
  0
VERTEX
  8
T08SSILL
 62
3
 10
410.698
 20
-1626.304
 30
4438.116
 70
    32
  0
VERTEX
  8
T08SSILL
 62
3
 10
410.995
 20
-1631.851
 30
4438.135
 70
    32
  0
VERTEX
  8
T08SSILL
 62
3
 10
417.036
 20
-1638.689
 30
4438.149
 70
    32
  0
VERTEX
  8
T08SSILL
 62
3
 10
439.573
 20
-1622.670
 30
4438.055
 70
    32
  0
VERTEX
  8
T08SSILL
 62
3
 10
438.319
 20
-1619.017
 30
4438.044
 70
    32
  0
VERTEX
  8
T08SSILL
 62
3
 10
442.495
 20
-1615.764
 30
4438.025
 70
    32
  0
SEQEND
  8
T08SSILL
  0
POLYLINE
  8
T08SSILL
 62
3
 66
     1
 70
     9
  0
VERTEX
  8
T08SSILL
 62
3
 10
506.019
 20
-1579.396
 30
4437.790
 70
    32
  0
VERTEX
  8
T08SSILL
 62
3
 10
497.610
 20
-1568.242
 30
4437.764
 70
    32
  0
VERTEX
  8
T08SSILL
 62
3
 10
501.621
 20
-1564.719
 30
4437.745
 70
    32
  0
VERTEX
  8
T08SSILL
 62
3
 10
498.755
 20
-1559.681
 30
4437.732
 70
    32
  0
VERTEX
  8
T08SSILL
 62
3
 10
556.539
 20
-1517.717
 30
4437.487
 70
    32
  0
VERTEX
  8
T08SSILL
 62
3
 10
560.365
 20
-1522.882
 30
4437.498
 70
    32
  0
VERTEX
  8
T08SSILL
 62
3
 10
565.155
 20
-1519.655
 30
4437.479
 70
    32
  0
VERTEX
  8
T08SSILL
 62
3
 10
572.246
 20
-1530.842
 30
4437.507
 70
    32
  0
VERTEX
  8
T08SSILL
 62
3
 10
572.411
 20
-1535.328
 30
4437.523
 70
    32
  0
VERTEX
  8
T08SSILL
 62
3
 10
569.675
 20
-1539.871
 30
4437.543
 70
    32
  0
VERTEX
  8
T08SSILL
 62
3
 10
552.567
 20
-1552.074
 30
4437.615
 70
    32
  0
VERTEX
  8
T08SSILL
 62
3
 10
521.372
 20
-1577.748
 30
4437.758
 70
    32
  0
VERTEX
  8
T08SSILL
 62
3
 10
511.457
 20
-1581.729
 30
4437.789
 70
    32
  0
SEQEND
  8
T08SSILL
  0
POLYLINE
  8
T08SSILL
 62
3
 66
     1
 70
     9
  0
VERTEX
  8
T08SSILL
 62
3
 10
564.138
 20
-1658.580
 30
4437.974
 70
    32
  0
VERTEX
  8
T08SSILL
 62
3
 10
555.428
 20
-1658.921
 30
4437.990
 70
    32
  0
VERTEX
  8
T08SSILL
 62
3
 10
546.283
 20
-1646.420
 30
4437.961
 70
    32
  0
VERTEX
  8
T08SSILL
 62
3
 10
587.569
 20
-1618.880
 30
4437.794
 70
    32
  0
VERTEX
  8
T08SSILL
 62
3
 10
590.499
 20
-1613.907
 30
4437.771
 70
    32
  0
VERTEX
  8
T08SSILL
 62
3
 10
594.833
 20
-1600.471
 30
4437.717
 70
    32
  0
VERTEX
  8
T08SSILL
 62
3
 10
595.747
 20
-1584.785
 30
4437.659
 70
    32
  0
VERTEX
  8
T08SSILL
 62
3
 10
593.996
 20
-1580.408
 30
4437.647
 70
    32
  0
VERTEX
  8
T08SSILL
 62
3
 10
587.611
 20
-1571.271
 30
4437.625
 70
    32
  0
VERTEX
  8
T08SSILL
 62
3
 10
588.619
 20
-1551.197
 30
4437.552
 70
    32
  0
VERTEX
  8
T08SSILL
 62
3
 10
589.313
 20
-1549.293
 30
4437.544
 70
    32
  0
VERTEX
  8
T08SSILL
 62
3
 10
592.834
 20
-1546.980
 30
4437.530
 70
    32
  0
VERTEX
  8
T08SSILL
 62
3
 10
591.928
 20
-1545.537
 30
4437.526
 70
    32
  0
VERTEX
  8
T08SSILL
 62
3
 10
596.220
 20
-1541.586
 30
4437.505
 70
    32
  0
VERTEX
  8
T08SSILL
 62
3
 10
599.495
 20
-1547.344
 30
4437.520
 70
    32
  0
VERTEX
  8
T08SSILL
 62
3
 10
604.208
 20
-1543.850
 30
4437.500
 70
    32
  0
VERTEX
  8
T08SSILL
 62
3
 10
614.781
 20
-1557.904
 30
4437.532
 70
    32
  0
VERTEX
  8
T08SSILL
 62
3
 10
619.468
 20
-1555.024
 30
4437.514
 70
    32
  0
VERTEX
  8
T08SSILL
 62
3
 10
630.235
 20
-1568.646
 30
4437.544
 70
    32
  0
VERTEX
  8
T08SSILL
 62
3
 10
634.385
 20
-1566.008
 30
4437.528
 70
    32
  0
VERTEX
  8
T08SSILL
 62
3
 10
662.754
 20
-1604.253
 30
4437.617
 70
    32
  0
VERTEX
  8
T08SSILL
 62
3
 10
667.967
 20
-1601.395
 30
4437.598
 70
    32
  0
VERTEX
  8
T08SSILL
 62
3
 10
670.851
 20
-1605.995
 30
4437.609
 70
    32
  0
VERTEX
  8
T08SSILL
 62
3
 10
680.255
 20
-1599.533
 30
4437.571
 70
    32
  0
VERTEX
  8
T08SSILL
 62
3
 10
694.497
 20
-1618.307
 30
4437.613
 70
    32
  0
VERTEX
  8
T08SSILL
 62
3
 10
699.561
 20
-1614.827
 30
4437.593
 70
    32
  0
VERTEX
  8
T08SSILL
 62
3
 10
720.671
 20
-1643.812
 30
4437.651
 70
    32
  0
VERTEX
  8
T08SSILL
 62
3
 10
715.944
 20
-1647.657
 30
4437.671
 70
    32
  0
VERTEX
  8
T08SSILL
 62
3
 10
725.341
 20
-1662.540
 30
4437.696
 70
    32
  0
VERTEX
  8
T08SSILL
 62
3
 10
721.801
 20
-1665.293
 30
4437.711
 70
    32
  0
VERTEX
  8
T08SSILL
 62
3
 10
727.806
 20
-1675.116
 30
4437.728
 70
    32
  0
VERTEX
  8
T08SSILL
 62
3
 10
722.491
 20
-1680.430
 30
4437.754
 70
    32
  0
VERTEX
  8
T08SSILL
 62
3
 10
718.001
 20
-1682.791
 30
4437.770
 70
    32
  0
VERTEX
  8
T08SSILL
 62
3
 10
685.803
 20
-1696.653
 30
4437.873
 70
    32
  0
VERTEX
  8
T08SSILL
 62
3
 10
661.334
 20
-1663.927
 30
4437.826
 70
    32
  0
VERTEX
  8
T08SSILL
 62
3
 10
656.545
 20
-1667.155
 30
4437.844
 70
    32
  0
VERTEX
  8
T08SSILL
 62
3
 10
642.492
 20
-1648.037
 30
4437.806
 70
    32
  0
VERTEX
  8
T08SSILL
 62
3
 10
592.044
 20
-1684.684
 30
4438.020
 70
    32
  0
VERTEX
  8
T08SSILL
 62
3
 10
589.355
 20
-1681.572
 30
4438.014
 70
    32
  0
VERTEX
  8
T08SSILL
 62
3
 10
591.603
 20
-1672.017
 30
4437.976
 70
    32
  0
VERTEX
  8
T08SSILL
 62
3
 10
628.136
 20
-1646.827
 30
4437.826
 70
    32
  0
VERTEX
  8
T08SSILL
 62
3
 10
628.899
 20
-1643.257
 30
4437.812
 70
    32
  0
VERTEX
  8
T08SSILL
 62
3
 10
624.899
 20
-1631.672
 30
4437.777
 70
    32
  0
VERTEX
  8
T08SSILL
 62
3
 10
624.408
 20
-1624.448
 30
4437.752
 70
    32
  0
VERTEX
  8
T08SSILL
 62
3
 10
623.333
 20
-1622.823
 30
4437.748
 70
    32
  0
VERTEX
  8
T08SSILL
 62
3
 10
617.359
 20
-1620.730
 30
4437.751
 70
    32
  0
VERTEX
  8
T08SSILL
 62
3
 10
613.592
 20
-1620.486
 30
4437.756
 70
    32
  0
VERTEX
  8
T08SSILL
 62
3
 10
608.653
 20
-1623.092
 30
4437.774
 70
    32
  0
VERTEX
  8
T08SSILL
 62
3
 10
600.334
 20
-1630.917
 30
4437.815
 70
    32
  0
VERTEX
  8
T08SSILL
 62
3
 10
589.287
 20
-1638.892
 30
4437.862
 70
    32
  0
VERTEX
  8
T08SSILL
 62
3
 10
578.204
 20
-1651.960
 30
4437.927
 70
    32
  0
SEQEND
  8
T08SSILL
  0
POLYLINE
  8
T08SSILL
 62
3
 66
     1
 70
     9
  0
VERTEX
  8
T08SSILL
 62
3
 10
541.437
 20
-1744.251
 30
4438.295
 70
    32
  0
VERTEX
  8
T08SSILL
 62
3
 10
532.989
 20
-1727.650
 30
4438.263
 70
    32
  0
VERTEX
  8
T08SSILL
 62
3
 10
531.628
 20
-1720.215
 30
4438.244
 70
    32
  0
VERTEX
  8
T08SSILL
 62
3
 10
543.240
 20
-1702.864
 30
4438.166
 70
    32
  0
VERTEX
  8
T08SSILL
 62
3
 10
553.863
 20
-1692.412
 30
4438.111
 70
    32
  0
VERTEX
  8
T08SSILL
 62
3
 10
557.308
 20
-1689.832
 30
4438.097
 70
    32
  0
VERTEX
  8
T08SSILL
 62
3
 10
564.287
 20
-1707.954
 30
4438.144
 70
    32
  0
VERTEX
  8
T08SSILL
 62
3
 10
565.934
 20
-1721.198
 30
4438.179
 70
    32
  0
VERTEX
  8
T08SSILL
 62
3
 10
564.550
 20
-1724.918
 30
4438.193
 70
    32
  0
VERTEX
  8
T08SSILL
 62
3
 10
558.658
 20
-1731.438
 30
4438.223
 70
    32
  0
VERTEX
  8
T08SSILL
 62
3
 10
543.891
 20
-1742.245
 30
4438.284
 70
    32
  0
SEQEND
  8
T08SSILL
  0
POLYLINE
  8
T08SSILL
 62
3
 66
     1
 70
     9
  0
VERTEX
  8
T08SSILL
 62
3
 10
575.601
 20
-1572.794
 30
4437.650
 70
    32
  0
VERTEX
  8
T08SSILL
 62
3
 10
578.327
 20
-1555.777
 30
4437.585
 70
    32
  0
VERTEX
  8
T08SSILL
 62
3
 10
577.694
 20
-1549.866
 30
4437.565
 70
    32
  0
VERTEX
  8
T08SSILL
 62
3
 10
574.620
 20
-1547.718
 30
4437.563
 70
    32
  0
VERTEX
  8
T08SSILL
 62
3
 10
568.409
 20
-1549.217
 30
4437.579
 70
    32
  0
VERTEX
  8
T08SSILL
 62
3
 10
564.044
 20
-1552.813
 30
4437.599
 70
    32
  0
VERTEX
  8
T08SSILL
 62
3
 10
562.411
 20
-1556.172
 30
4437.613
 70
    32
  0
VERTEX
  8
T08SSILL
 62
3
 10
571.899
 20
-1568.863
 30
4437.643
 70
    32
  0
VERTEX
  8
T08SSILL
 62
3
 10
562.207
 20
-1575.928
 30
4437.684
 70
    32
  0
VERTEX
  8
T08SSILL
 62
3
 10
554.042
 20
-1565.224
 30
4437.659
 70
    32
  0
VERTEX
  8
T08SSILL
 62
3
 10
552.164
 20
-1566.024
 30
4437.665
 70
    32
  0
VERTEX
  8
T08SSILL
 62
3
 10
554.416
 20
-1571.037
 30
4437.679
 70
    32
  0
VERTEX
  8
T08SSILL
 62
3
 10
545.440
 20
-1579.888
 30
4437.726
 70
    32
  0
VERTEX
  8
T08SSILL
 62
3
 10
549.233
 20
-1581.627
 30
4437.726
 70
    32
  0
VERTEX
  8
T08SSILL
 62
3
 10
559.881
 20
-1583.298
 30
4437.714
 70
    32
  0
SEQEND
  8
T08SSILL
  0
POLYLINE
  8
T08SSILL
 62
3
 66
     1
 70
     9
  0
VERTEX
  8
T08SSILL
 62
3
 10
1205.557
 20
-1724.440
 30
4436.798
 70
    32
  0
VERTEX
  8
T08SSILL
 62
3
 10
1203.977
 20
-1713.833
 30
4436.764
 70
    32
  0
VERTEX
  8
T08SSILL
 62
3
 10
1201.941
 20
-1712.080
 30
4436.763
 70
    32
  0
VERTEX
  8
T08SSILL
 62
3
 10
1199.895
 20
-1710.589
 30
4436.764
 70
    32
  0
VERTEX
  8
T08SSILL
 62
3
 10
1196.464
 20
-1710.711
 30
4436.773
 70
    32
  0
VERTEX
  8
T08SSILL
 62
3
 10
1190.834
 20
-1713.025
 30
4436.797
 70
    32
  0
VERTEX
  8
T08SSILL
 62
3
 10
1180.752
 20
-1725.256
 30
4436.868
 70
    32
  0
VERTEX
  8
T08SSILL
 62
3
 10
1185.672
 20
-1733.717
 30
4436.885
 70
    32
  0
SEQEND
  8
T08SSILL
  0
POLYLINE
  8
T08SSILL
 62
3
 66
     1
 70
     9
  0
VERTEX
  8
T08SSILL
 62
3
 10
1174.247
 20
-1738.075
 30
4436.931
 70
    32
  0
VERTEX
  8
T08SSILL
 62
3
 10
1171.863
 20
-1727.786
 30
4436.901
 70
    32
  0
VERTEX
  8
T08SSILL
 62
3
 10
1170.310
 20
-1727.107
 30
4436.902
 70
    32
  0
VERTEX
  8
T08SSILL
 62
3
 10
1156.525
 20
-1731.191
 30
4436.954
 70
    32
  0
VERTEX
  8
T08SSILL
 62
3
 10
1148.042
 20
-1736.637
 30
4436.996
 70
    32
  0
VERTEX
  8
T08SSILL
 62
3
 10
1147.495
 20
-1741.358
 30
4437.015
 70
    32
  0
VERTEX
  8
T08SSILL
 62
3
 10
1148.801
 20
-1750.108
 30
4437.043
 70
    32
  0
SEQEND
  8
T08SSILL
  0
POLYLINE
  8
T08SSILL
 62
3
 66
     1
 70
     9
  0
VERTEX
  8
T08SSILL
 62
3
 10
1123.561
 20
-1771.989
 30
4437.189
 70
    32
  0
VERTEX
  8
T08SSILL
 62
3
 10
1128.149
 20
-1765.152
 30
4437.152
 70
    32
  0
VERTEX
  8
T08SSILL
 62
3
 10
1129.935
 20
-1760.219
 30
4437.130
 70
    32
  0
VERTEX
  8
T08SSILL
 62
3
 10
1131.084
 20
-1753.678
 30
4437.103
 70
    32
  0
VERTEX
  8
T08SSILL
 62
3
 10
1130.827
 20
-1745.059
 30
4437.073
 70
    32
  0
VERTEX
  8
T08SSILL
 62
3
 10
1128.914
 20
-1738.216
 30
4437.054
 70
    32
  0
VERTEX
  8
T08SSILL
 62
3
 10
1113.825
 20
-1722.920
 30
4437.039
 70
    32
  0
VERTEX
  8
T08SSILL
 62
3
 10
1110.280
 20
-1721.544
 30
4437.044
 70
    32
  0
VERTEX
  8
T08SSILL
 62
3
 10
1108.845
 20
-1722.275
 30
4437.050
 70
    32
  0
VERTEX
  8
T08SSILL
 62
3
 10
1107.607
 20
-1726.703
 30
4437.069
 70
    32
  0
VERTEX
  8
T08SSILL
 62
3
 10
1104.352
 20
-1750.110
 30
4437.162
 70
    32
  0
VERTEX
  8
T08SSILL
 62
3
 10
1103.509
 20
-1751.393
 30
4437.169
 70
    32
  0
VERTEX
  8
T08SSILL
 62
3
 10
1094.221
 20
-1755.049
 30
4437.207
 70
    32
  0
VERTEX
  8
T08SSILL
 62
3
 10
1092.941
 20
-1762.638
 30
4437.238
 70
    32
  0
VERTEX
  8
T08SSILL
 62
3
 10
1109.052
 20
-1770.245
 30
4437.222
 70
    32
  0
VERTEX
  8
T08SSILL
 62
3
 10
1119.293
 20
-1771.109
 30
4437.198
 70
    32
  0
SEQEND
  8
T08SSILL
  0
POLYLINE
  8
T08SSILL
 62
3
 66
     1
 70
     9
  0
VERTEX
  8
T08SSILL
 62
3
 10
1135.215
 20
-1709.138
 30
4436.932
 70
    32
  0
VERTEX
  8
T08SSILL
 62
3
 10
1121.720
 20
-1721.052
 30
4437.011
 70
    32
  0
VERTEX
  8
T08SSILL
 62
3
 10
1136.660
 20
-1735.726
 30
4437.024
 70
    32
  0
VERTEX
  8
T08SSILL
 62
3
 10
1145.272
 20
-1733.536
 30
4436.993
 70
    32
  0
VERTEX
  8
T08SSILL
 62
3
 10
1146.806
 20
-1730.437
 30
4436.977
 70
    32
  0
VERTEX
  8
T08SSILL
 62
3
 10
1145.124
 20
-1728.610
 30
4436.975
 70
    32
  0
VERTEX
  8
T08SSILL
 62
3
 10
1144.586
 20
-1724.635
 30
4436.963
 70
    32
  0
VERTEX
  8
T08SSILL
 62
3
 10
1141.432
 20
-1718.092
 30
4436.948
 70
    32
  0
VERTEX
  8
T08SSILL
 62
3
 10
1137.455
 20
-1712.305
 30
4436.937
 70
    32
  0
SEQEND
  8
T08SSILL
  0
POLYLINE
  8
T08SSILL
 62
3
 66
     1
 70
     9
  0
VERTEX
  8
T08SSILL
 62
3
 10
1132.137
 20
-1702.861
 30
4436.918
 70
    32
  0
VERTEX
  8
T08SSILL
 62
3
 10
1120.704
 20
-1662.946
 30
4436.805
 70
    32
  0
VERTEX
  8
T08SSILL
 62
3
 10
1109.184
 20
-1667.475
 30
4436.852
 70
    32
  0
VERTEX
  8
T08SSILL
 62
3
 10
1101.150
 20
-1672.676
 30
4436.893
 70
    32
  0
VERTEX
  8
T08SSILL
 62
3
 10
1095.440
 20
-1674.811
 30
4436.916
 70
    32
  0
VERTEX
  8
T08SSILL
 62
3
 10
1105.048
 20
-1703.670
 30
4436.994
 70
    32
  0
VERTEX
  8
T08SSILL
 62
3
 10
1117.865
 20
-1716.588
 30
4437.006
 70
    32
  0
SEQEND
  8
T08SSILL
  0
POLYLINE
  8
T08SSILL
 62
3
 66
     1
 70
     9
  0
VERTEX
  8
T08SSILL
 62
3
 10
1146.353
 20
-1662.955
 30
4436.736
 70
    32
  0
VERTEX
  8
T08SSILL
 62
3
 10
1155.224
 20
-1660.863
 30
4436.705
 70
    32
  0
VERTEX
  8
T08SSILL
 62
3
 10
1174.427
 20
-1651.118
 30
4436.618
 70
    32
  0
VERTEX
  8
T08SSILL
 62
3
 10
1176.271
 20
-1648.999
 30
4436.606
 70
    32
  0
VERTEX
  8
T08SSILL
 62
3
 10
1171.534
 20
-1640.369
 30
4436.587
 70
    32
  0
VERTEX
  8
T08SSILL
 62
3
 10
1158.067
 20
-1645.257
 30
4436.641
 70
    32
  0
VERTEX
  8
T08SSILL
 62
3
 10
1140.469
 20
-1654.454
 30
4436.722
 70
    32
  0
SEQEND
  8
T08SSILL
  0
POLYLINE
  8
T08SSILL
 62
3
 66
     1
 70
     9
  0
VERTEX
  8
T08SSILL
 62
3
 10
1093.545
 20
-1665.421
 30
4436.887
 70
    32
  0
VERTEX
  8
T08SSILL
 62
3
 10
1118.185
 20
-1655.902
 30
4436.787
 70
    32
  0
VERTEX
  8
T08SSILL
 62
3
 10
1105.268
 20
-1636.919
 30
4436.753
 70
    32
  0
VERTEX
  8
T08SSILL
 62
3
 10
1099.065
 20
-1623.398
 30
4436.721
 70
    32
  0
VERTEX
  8
T08SSILL
 62
3
 10
1076.483
 20
-1632.036
 30
4436.813
 70
    32
  0
VERTEX
  8
T08SSILL
 62
3
 10
1089.144
 20
-1652.941
 30
4436.854
 70
    32
  0
VERTEX
  8
T08SSILL
 62
3
 10
1089.056
 20
-1655.045
 30
4436.862
 70
    32
  0
SEQEND
  8
T08SSILL
  0
POLYLINE
  8
T08SSILL
 62
3
 66
     1
 70
     9
  0
VERTEX
  8
T08SSILL
 62
3
 10
1074.621
 20
-1623.965
 30
4436.789
 70
    32
  0
VERTEX
  8
T08SSILL
 62
3
 10
1098.785
 20
-1613.196
 30
4436.685
 70
    32
  0
VERTEX
  8
T08SSILL
 62
3
 10
1097.458
 20
-1607.080
 30
4436.667
 70
    32
  0
VERTEX
  8
T08SSILL
 62
3
 10
1081.584
 20
-1583.144
 30
4436.624
 70
    32
  0
VERTEX
  8
T08SSILL
 62
3
 10
1076.012
 20
-1581.946
 30
4436.634
 70
    32
  0
VERTEX
  8
T08SSILL
 62
3
 10
1068.336
 20
-1584.878
 30
4436.665
 70
    32
  0
VERTEX
  8
T08SSILL
 62
3
 10
1065.138
 20
-1596.341
 30
4436.715
 70
    32
  0
VERTEX
  8
T08SSILL
 62
3
 10
1065.087
 20
-1599.677
 30
4436.727
 70
    32
  0
VERTEX
  8
T08SSILL
 62
3
 10
1072.538
 20
-1621.244
 30
4436.785
 70
    32
  0
SEQEND
  8
T08SSILL
  0
POLYLINE
  8
T08SSILL
 62
3
 66
     1
 70
     9
  0
VERTEX
  8
T08SSILL
 62
3
 10
1064.360
 20
-1579.092
 30
4436.655
 70
    32
  0
VERTEX
  8
T08SSILL
 62
3
 10
1055.442
 20
-1567.478
 30
4436.638
 70
    32
  0
VERTEX
  8
T08SSILL
 62
3
 10
1045.637
 20
-1541.246
 30
4436.570
 70
    32
  0
VERTEX
  8
T08SSILL
 62
3
 10
1047.992
 20
-1531.066
 30
4436.527
 70
    32
  0
VERTEX
  8
T08SSILL
 62
3
 10
1052.021
 20
-1527.104
 30
4436.502
 70
    32
  0
VERTEX
  8
T08SSILL
 62
3
 10
1056.493
 20
-1525.181
 30
4436.483
 70
    32
  0
VERTEX
  8
T08SSILL
 62
3
 10
1064.841
 20
-1522.980
 30
4436.452
 70
    32
  0
VERTEX
  8
T08SSILL
 62
3
 10
1067.176
 20
-1523.867
 30
4436.449
 70
    32
  0
VERTEX
  8
T08SSILL
 62
3
 10
1063.269
 20
-1533.368
 30
4436.494
 70
    32
  0
VERTEX
  8
T08SSILL
 62
3
 10
1069.369
 20
-1543.020
 30
4436.512
 70
    32
  0
VERTEX
  8
T08SSILL
 62
3
 10
1070.269
 20
-1548.855
 30
4436.531
 70
    32
  0
VERTEX
  8
T08SSILL
 62
3
 10
1068.703
 20
-1556.960
 30
4436.564
 70
    32
  0
VERTEX
  8
T08SSILL
 62
3
 10
1078.477
 20
-1573.352
 30
4436.597
 70
    32
  0
SEQEND
  8
T08SSILL
  0
POLYLINE
  8
T08SSILL
 62
3
 66
     1
 70
     9
  0
VERTEX
  8
T08SSILL
 62
3
 10
856.867
 20
-1572.948
 30
4437.177
 70
    32
  0
VERTEX
  8
T08SSILL
 62
3
 10
812.881
 20
-1602.045
 30
4437.348
 70
    32
  0
VERTEX
  8
T08SSILL
 62
3
 10
810.417
 20
-1597.902
 30
4437.341
 70
    32
  0
VERTEX
  8
T08SSILL
 62
3
 10
804.210
 20
-1601.422
 30
4437.364
 70
    32
  0
VERTEX
  8
T08SSILL
 62
3
 10
806.312
 20
-1605.813
 30
4437.372
 70
    32
  0
VERTEX
  8
T08SSILL
 62
3
 10
793.931
 20
-1614.172
 30
4437.421
 70
    32
  0
VERTEX
  8
T08SSILL
 62
3
 10
789.915
 20
-1609.350
 30
4437.415
 70
    32
  0
VERTEX
  8
T08SSILL
 62
3
 10
785.680
 20
-1611.897
 30
4437.430
 70
    32
  0
VERTEX
  8
T08SSILL
 62
3
 10
771.810
 20
-1592.612
 30
4437.393
 70
    32
  0
VERTEX
  8
T08SSILL
 62
3
 10
767.572
 20
-1595.247
 30
4437.410
 70
    32
  0
VERTEX
  8
T08SSILL
 62
3
 10
760.588
 20
-1585.734
 30
4437.387
 70
    32
  0
VERTEX
  8
T08SSILL
 62
3
 10
764.292
 20
-1583.252
 30
4437.372
 70
    32
  0
VERTEX
  8
T08SSILL
 62
3
 10
758.046
 20
-1572.892
 30
4437.346
 70
    32
  0
VERTEX
  8
T08SSILL
 62
3
 10
762.157
 20
-1573.326
 30
4437.341
 70
    32
  0
VERTEX
  8
T08SSILL
 62
3
 10
766.665
 20
-1570.526
 30
4437.323
 70
    32
  0
VERTEX
  8
T08SSILL
 62
3
 10
769.214
 20
-1564.131
 30
4437.296
 70
    32
  0
VERTEX
  8
T08SSILL
 62
3
 10
769.153
 20
-1554.993
 30
4437.264
 70
    32
  0
VERTEX
  8
T08SSILL
 62
3
 10
753.811
 20
-1537.315
 30
4437.227
 70
    32
  0
VERTEX
  8
T08SSILL
 62
3
 10
737.425
 20
-1540.589
 30
4437.266
 70
    32
  0
VERTEX
  8
T08SSILL
 62
3
 10
732.473
 20
-1539.242
 30
4437.269
 70
    32
  0
VERTEX
  8
T08SSILL
 62
3
 10
730.128
 20
-1540.726
 30
4437.278
 70
    32
  0
VERTEX
  8
T08SSILL
 62
3
 10
698.642
 20
-1497.168
 30
4437.176
 70
    32
  0
VERTEX
  8
T08SSILL
 62
3
 10
689.417
 20
-1501.441
 30
4437.207
 70
    32
  0
VERTEX
  8
T08SSILL
 62
3
 10
676.236
 20
-1512.138
 30
4437.267
 70
    32
  0
VERTEX
  8
T08SSILL
 62
3
 10
667.566
 20
-1515.732
 30
4437.294
 70
    32
  0
VERTEX
  8
T08SSILL
 62
3
 10
662.849
 20
-1515.097
 30
4437.300
 70
    32
  0
VERTEX
  8
T08SSILL
 62
3
 10
652.902
 20
-1507.130
 30
4437.288
 70
    32
  0
VERTEX
  8
T08SSILL
 62
3
 10
758.306
 20
-1431.037
 30
4437.034
 70
    32
  0
VERTEX
  8
T08SSILL
 62
3
 10
767.462
 20
-1432.646
 30
4437.035
 70
    32
  0
VERTEX
  8
T08SSILL
 62
3
 10
805.520
 20
-1485.085
 30
4437.073
 70
    32
  0
VERTEX
  8
T08SSILL
 62
3
 10
802.155
 20
-1487.844
 30
4437.075
 70
    32
  0
VERTEX
  8
T08SSILL
 62
3
 10
805.832
 20
-1492.389
 30
4437.079
 70
    32
  0
VERTEX
  8
T08SSILL
 62
3
 10
809.602
 20
-1490.437
 30
4437.077
 70
    32
  0
VERTEX
  8
T08SSILL
 62
3
 10
830.080
 20
-1517.726
 30
4437.097
 70
    32
  0
VERTEX
  8
T08SSILL
 62
3
 10
821.996
 20
-1524.155
 30
4437.102
 70
    32
  0
VERTEX
  8
T08SSILL
 62
3
 10
853.515
 20
-1568.258
 30
4437.170
 70
    32
  0
SEQEND
  8
T08SSILL
  0
POLYLINE
  8
T08SSILL
 62
3
 66
     1
 70
     9
  0
VERTEX
  8
T08SSILL
 62
3
 10
692.045
 20
-1469.839
 30
4437.090
 70
    32
  0
VERTEX
  8
T08SSILL
 62
3
 10
672.948
 20
-1460.087
 30
4437.088
 70
    32
  0
VERTEX
  8
T08SSILL
 62
3
 10
658.987
 20
-1476.901
 30
4437.171
 70
    32
  0
VERTEX
  8
T08SSILL
 62
3
 10
655.237
 20
-1488.956
 30
4437.220
 70
    32
  0
VERTEX
  8
T08SSILL
 62
3
 10
652.603
 20
-1491.043
 30
4437.231
 70
    32
  0
VERTEX
  8
T08SSILL
 62
3
 10
645.072
 20
-1492.575
 30
4437.249
 70
    32
  0
VERTEX
  8
T08SSILL
 62
3
 10
643.608
 20
-1494.008
 30
4437.257
 70
    32
  0
VERTEX
  8
T08SSILL
 62
3
 10
648.425
 20
-1500.708
 30
4437.273
 70
    32
  0
VERTEX
  8
T08SSILL
 62
3
 10
662.826
 20
-1490.237
 30
4437.211
 70
    32
  0
VERTEX
  8
T08SSILL
 62
3
 10
660.399
 20
-1487.325
 30
4437.205
 70
    32
  0
VERTEX
  8
T08SSILL
 62
3
 10
666.185
 20
-1482.536
 30
4437.179
 70
    32
  0
VERTEX
  8
T08SSILL
 62
3
 10
669.131
 20
-1486.457
 30
4437.188
 70
    32
  0
VERTEX
  8
T08SSILL
 62
3
 10
675.817
 20
-1481.991
 30
4437.161
 70
    32
  0
VERTEX
  8
T08SSILL
 62
3
 10
674.198
 20
-1478.674
 30
4437.151
 70
    32
  0
VERTEX
  8
T08SSILL
 62
3
 10
679.915
 20
-1474.255
 30
4437.126
 70
    32
  0
VERTEX
  8
T08SSILL
 62
3
 10
682.177
 20
-1476.896
 30
4437.132
 70
    32
  0
SEQEND
  8
T08SSILL
  0
POLYLINE
  8
T08SSILL
 62
3
 66
     1
 70
     9
  0
VERTEX
  8
T08SSILL
 62
3
 10
645.346
 20
-1509.276
 30
4437.308
 70
    32
  0
VERTEX
  8
T08SSILL
 62
3
 10
640.368
 20
-1502.218
 30
4437.292
 70
    32
  0
VERTEX
  8
T08SSILL
 62
3
 10
629.045
 20
-1499.904
 30
4437.302
 70
    32
  0
VERTEX
  8
T08SSILL
 62
3
 10
623.592
 20
-1495.813
 30
4437.297
 70
    32
  0
VERTEX
  8
T08SSILL
 62
3
 10
619.884
 20
-1496.274
 30
4437.305
 70
    32
  0
VERTEX
  8
T08SSILL
 62
3
 10
615.661
 20
-1498.559
 30
4437.320
 70
    32
  0
VERTEX
  8
T08SSILL
 62
3
 10
611.149
 20
-1503.554
 30
4437.345
 70
    32
  0
VERTEX
  8
T08SSILL
 62
3
 10
592.880
 20
-1503.500
 30
4437.375
 70
    32
  0
VERTEX
  8
T08SSILL
 62
3
 10
589.822
 20
-1505.218
 30
4437.387
 70
    32
  0
VERTEX
  8
T08SSILL
 62
3
 10
596.161
 20
-1517.603
 30
4437.420
 70
    32
  0
VERTEX
  8
T08SSILL
 62
3
 10
600.491
 20
-1523.316
 30
4437.433
 70
    32
  0
VERTEX
  8
T08SSILL
 62
3
 10
623.859
 20
-1514.798
 30
4437.364
 70
    32
  0
VERTEX
  8
T08SSILL
 62
3
 10
632.167
 20
-1509.345
 30
4437.331
 70
    32
  0
SEQEND
  8
T08SSILL
  0
POLYLINE
  8
T08SSILL
 62
3
 66
     1
 70
     9
  0
VERTEX
  8
T08SSILL
 62
3
 10
594.623
 20
-1431.804
 30
4437.118
 70
    32
  0
VERTEX
  8
T08SSILL
 62
3
 10
617.324
 20
-1416.056
 30
4437.024
 70
    32
  0
VERTEX
  8
T08SSILL
 62
3
 10
619.114
 20
-1411.035
 30
4437.020
 70
    32
  0
VERTEX
  8
T08SSILL
 62
3
 10
617.944
 20
-1407.473
 30
4437.017
 70
    32
  0
VERTEX
  8
T08SSILL
 62
3
 10
599.644
 20
-1382.733
 30
4437.008
 70
    32
  0
VERTEX
  8
T08SSILL
 62
3
 10
592.582
 20
-1385.690
 30
4437.006
 70
    32
  0
VERTEX
  8
T08SSILL
 62
3
 10
590.814
 20
-1388.077
 30
4437.005
 70
    32
  0
VERTEX
  8
T08SSILL
 62
3
 10
573.826
 20
-1399.495
 30
4437.038
 70
    32
  0
VERTEX
  8
T08SSILL
 62
3
 10
573.414
 20
-1400.971
 30
4437.044
 70
    32
  0
VERTEX
  8
T08SSILL
 62
3
 10
575.859
 20
-1407.660
 30
4437.063
 70
    32
  0
VERTEX
  8
T08SSILL
 62
3
 10
577.570
 20
-1408.785
 30
4437.065
 70
    32
  0
VERTEX
  8
T08SSILL
 62
3
 10
579.437
 20
-1408.248
 30
4437.059
 70
    32
  0
VERTEX
  8
T08SSILL
 62
3
 10
581.505
 20
-1411.320
 30
4437.067
 70
    32
  0
VERTEX
  8
T08SSILL
 62
3
 10
580.399
 20
-1412.592
 30
4437.073
 70
    32
  0
SEQEND
  8
T08SSILL
  0
POLYLINE
  8
T08SSILL
 62
3
 66
     1
 70
     9
  0
VERTEX
  8
T08SSILL
 62
3
 10
456.376
 20
-973.771
 30
4439.188
 70
    32
  0
VERTEX
  8
T08SSILL
 62
3
 10
442.490
 20
-969.682
 30
4439.258
 70
    32
  0
VERTEX
  8
T08SSILL
 62
3
 10
425.479
 20
-971.084
 30
4439.259
 70
    32
  0
VERTEX
  8
T08SSILL
 62
3
 10
370.674
 20
-1019.585
 30
4438.959
 70
    32
  0
VERTEX
  8
T08SSILL
 62
3
 10
381.912
 20
-1032.437
 30
4438.967
 70
    32
  0
VERTEX
  8
T08SSILL
 62
3
 10
376.637
 20
-1036.786
 30
4438.939
 70
    32
  0
VERTEX
  8
T08SSILL
 62
3
 10
365.198
 20
-1024.541
 30
4438.929
 70
    32
  0
VERTEX
  8
T08SSILL
 62
3
 10
321.316
 20
-1061.724
 30
4438.693
 70
    32
  0
VERTEX
  8
T08SSILL
 62
3
 10
319.617
 20
-1075.181
 30
4438.655
 70
    32
  0
VERTEX
  8
T08SSILL
 62
3
 10
375.306
 20
-1155.758
 30
4438.655
 70
    32
  0
VERTEX
  8
T08SSILL
 62
3
 10
385.893
 20
-1165.244
 30
4438.669
 70
    32
  0
VERTEX
  8
T08SSILL
 62
3
 10
430.174
 20
-1277.323
 30
4438.591
 70
    32
  0
VERTEX
  8
T08SSILL
 62
3
 10
437.500
 20
-1278.593
 30
4438.528
 70
    32
  0
VERTEX
  8
T08SSILL
 62
3
 10
445.992
 20
-1277.188
 30
4438.471
 70
    32
  0
VERTEX
  8
T08SSILL
 62
3
 10
449.868
 20
-1274.801
 30
4438.454
 70
    32
  0
VERTEX
  8
T08SSILL
 62
3
 10
479.141
 20
-1253.088
 30
4438.347
 70
    32
  0
VERTEX
  8
T08SSILL
 62
3
 10
475.479
 20
-1248.193
 30
4438.401
 70
    32
  0
VERTEX
  8
T08SSILL
 62
3
 10
482.070
 20
-1243.898
 30
4438.374
 70
    32
  0
VERTEX
  8
T08SSILL
 62
3
 10
485.823
 20
-1248.709
 30
4438.320
 70
    32
  0
VERTEX
  8
T08SSILL
 62
3
 10
586.342
 20
-1176.015
 30
4437.918
 70
    32
  0
VERTEX
  8
T08SSILL
 62
3
 10
586.440
 20
-1171.539
 30
4437.935
 70
    32
  0
SEQEND
  8
T08SSILL
  0
POLYLINE
  8
T08SSILL
 62
3
 66
     1
 70
     9
  0
VERTEX
  8
T08SSILL
 62
3
 10
277.952
 20
-1571.609
 30
4438.143
 70
    32
  0
VERTEX
  8
T08SSILL
 62
3
 10
263.906
 20
-1552.316
 30
4438.273
 70
    32
  0
VERTEX
  8
T08SSILL
 62
3
 10
268.549
 20
-1548.380
 30
4438.261
 70
    32
  0
VERTEX
  8
T08SSILL
 62
3
 10
258.316
 20
-1534.603
 30
4438.415
 70
    32
  0
VERTEX
  8
T08SSILL
 62
3
 10
263.544
 20
-1531.394
 30
4438.394
 70
    32
  0
VERTEX
  8
T08SSILL
 62
3
 10
260.090
 20
-1525.717
 30
4438.452
 70
    32
  0
VERTEX
  8
T08SSILL
 62
3
 10
274.833
 20
-1511.219
 30
4438.424
 70
    32
  0
VERTEX
  8
T08SSILL
 62
3
 10
283.177
 20
-1504.889
 30
4438.398
 70
    32
  0
VERTEX
  8
T08SSILL
 62
3
 10
288.596
 20
-1505.553
 30
4438.354
 70
    32
  0
VERTEX
  8
T08SSILL
 62
3
 10
297.243
 20
-1517.331
 30
4438.224
 70
    32
  0
VERTEX
  8
T08SSILL
 62
3
 10
303.960
 20
-1522.705
 30
4438.143
 70
    32
  0
VERTEX
  8
T08SSILL
 62
3
 10
310.371
 20
-1531.228
 30
4438.048
 70
    32
  0
VERTEX
  8
T08SSILL
 62
3
 10
314.410
 20
-1539.740
 30
4437.970
 70
    32
  0
VERTEX
  8
T08SSILL
 62
3
 10
312.420
 20
-1547.476
 30
4438.000
 70
    32
  0
SEQEND
  8
T08SSILL
  0
POLYLINE
  8
T08SSILL
 62
3
 66
     1
 70
     9
  0
VERTEX
  8
T08SSILL
 62
3
 10
399.625
 20
-1295.909
 30
4438.714
 70
    32
  0
VERTEX
  8
T08SSILL
 62
3
 10
399.372
 20
-1293.526
 30
4438.719
 70
    32
  0
VERTEX
  8
T08SSILL
 62
3
 10
397.527
 20
-1291.429
 30
4438.721
 70
    32
  0
VERTEX
  8
T08SSILL
 62
3
 10
383.914
 20
-1280.763
 30
4438.739
 70
    32
  0
VERTEX
  8
T08SSILL
 62
3
 10
381.766
 20
-1279.620
 30
4438.742
 70
    32
  0
VERTEX
  8
T08SSILL
 62
3
 10
378.675
 20
-1280.019
 30
4438.750
 70
    32
  0
VERTEX
  8
T08SSILL
 62
3
 10
365.424
 20
-1290.274
 30
4438.794
 70
    32
  0
VERTEX
  8
T08SSILL
 62
3
 10
361.472
 20
-1296.611
 30
4438.811
 70
    32
  0
VERTEX
  8
T08SSILL
 62
3
 10
352.591
 20
-1303.182
 30
4438.840
 70
    32
  0
VERTEX
  8
T08SSILL
 62
3
 10
351.817
 20
-1304.907
 30
4438.844
 70
    32
  0
VERTEX
  8
T08SSILL
 62
3
 10
357.387
 20
-1314.625
 30
4438.843
 70
    32
  0
VERTEX
  8
T08SSILL
 62
3
 10
352.923
 20
-1318.480
 30
4438.858
 70
    32
  0
VERTEX
  8
T08SSILL
 62
3
 10
357.828
 20
-1325.184
 30
4438.856
 70
    32
  0
VERTEX
  8
T08SSILL
 62
3
 10
369.057
 20
-1317.319
 30
4438.820
 70
    32
  0
SEQEND
  8
T08SSILL
  0
POLYLINE
  8
T08SSILL
 62
3
 66
     1
 70
     9
  0
VERTEX
  8
T08SSILL
 62
3
 10
423.292
 20
-1286.518
 30
4438.591
 70
    32
  0
VERTEX
  8
T08SSILL
 62
3
 10
416.959
 20
-1268.728
 30
4438.647
 70
    32
  0
VERTEX
  8
T08SSILL
 62
3
 10
412.536
 20
-1274.334
 30
4438.665
 70
    32
  0
VERTEX
  8
T08SSILL
 62
3
 10
410.917
 20
-1282.063
 30
4438.678
 70
    32
  0
VERTEX
  8
T08SSILL
 62
3
 10
418.894
 20
-1286.937
 30
4438.621
 70
    32
  0
SEQEND
  8
T08SSILL
  0
POLYLINE
  8
T08SSILL
 62
3
 66
     1
 70
     9
  0
VERTEX
  8
T08SSILL
 62
3
 10
290.675
 20
-1053.077
 30
4438.730
 70
    32
  0
VERTEX
  8
T08SSILL
 62
3
 10
291.748
 20
-1067.765
 30
4438.709
 70
    32
  0
VERTEX
  8
T08SSILL
 62
3
 10
289.152
 20
-1077.599
 30
4438.710
 70
    32
  0
VERTEX
  8
T08SSILL
 62
3
 10
278.641
 20
-1087.660
 30
4438.746
 70
    32
  0
VERTEX
  8
T08SSILL
 62
3
 10
276.353
 20
-1088.177
 30
4438.756
 70
    32
  0
VERTEX
  8
T08SSILL
 62
3
 10
267.569
 20
-1086.465
 30
4438.797
 70
    32
  0
VERTEX
  8
T08SSILL
 62
3
 10
263.285
 20
-1081.433
 30
4438.822
 70
    32
  0
VERTEX
  8
T08SSILL
 62
3
 10
258.522
 20
-1084.575
 30
4438.841
 70
    32
  0
VERTEX
  8
T08SSILL
 62
3
 10
233.889
 20
-1050.873
 30
4438.990
 70
    32
  0
VERTEX
  8
T08SSILL
 62
3
 10
238.652
 20
-1047.731
 30
4438.972
 70
    32
  0
VERTEX
  8
T08SSILL
 62
3
 10
214.278
 20
-1014.821
 30
4439.119
 70
    32
  0
VERTEX
  8
T08SSILL
 62
3
 10
213.273
 20
-1004.266
 30
4439.136
 70
    32
  0
VERTEX
  8
T08SSILL
 62
3
 10
211.267
 20
-1000.827
 30
4439.149
 70
    32
  0
VERTEX
  8
T08SSILL
 62
3
 10
211.802
 20
-999.423
 30
4439.148
 70
    32
  0
VERTEX
  8
T08SSILL
 62
3
 10
243.170
 20
-984.977
 30
4439.022
 70
    32
  0
SEQEND
  8
T08SSILL
  0
POLYLINE
  8
T08SSILL
 62
3
 66
     1
 70
     9
  0
VERTEX
  8
T08SSILL
 62
3
 10
82.777
 20
-1251.412
 30
4439.448
 70
    32
  0
VERTEX
  8
T08SSILL
 62
3
 10
68.391
 20
-1282.702
 30
4439.478
 70
    32
  0
VERTEX
  8
T08SSILL
 62
3
 10
64.694
 20
-1285.008
 30
4439.492
 70
    32
  0
VERTEX
  8
T08SSILL
 62
3
 10
56.739
 20
-1284.064
 30
4439.529
 70
    32
  0
VERTEX
  8
T08SSILL
 62
3
 10
7.143
 20
-1211.206
 30
4439.836
 70
    32
  0
VERTEX
  8
T08SSILL
 62
3
 10
7.993
 20
-1207.640
 30
4439.836
 70
    32
  0
VERTEX
  8
T08SSILL
 62
3
 10
4.575
 20
-1198.977
 30
4439.861
 70
    32
  0
VERTEX
  8
T08SSILL
 62
3
 10
4.556
 20
-1193.091
 30
4439.868
 70
    32
  0
VERTEX
  8
T08SSILL
 62
3
 10
6.889
 20
-1187.654
 30
4439.864
 70
    32
  0
VERTEX
  8
T08SSILL
 62
3
 10
9.647
 20
-1184.694
 30
4439.855
 70
    32
  0
VERTEX
  8
T08SSILL
 62
3
 10
12.756
 20
-1181.748
 30
4439.844
 70
    32
  0
VERTEX
  8
T08SSILL
 62
3
 10
30.137
 20
-1206.673
 30
4439.737
 70
    32
  0
VERTEX
  8
T08SSILL
 62
3
 10
26.207
 20
-1209.694
 30
4439.751
 70
    32
  0
VERTEX
  8
T08SSILL
 62
3
 10
43.203
 20
-1234.164
 30
4439.647
 70
    32
  0
VERTEX
  8
T08SSILL
 62
3
 10
77.630
 20
-1209.612
 30
4439.519
 70
    32
  0
VERTEX
  8
T08SSILL
 62
3
 10
97.058
 20
-1237.104
 30
4439.400
 70
    32
  0
VERTEX
  8
T08SSILL
 62
3
 10
87.244
 20
-1245.360
 30
4439.435
 70
    32
  0
VERTEX
  8
T08SSILL
 62
3
 10
85.893
 20
-1248.291
 30
4439.438
 70
    32
  0
SEQEND
  8
T08SSILL
  0
POLYLINE
  8
T08SSILL
 62
3
 66
     1
 70
     9
  0
VERTEX
  8
T08SSILL
 62
3
 10
1303.465
 20
-483.216
 30
4439.035
 70
    32
  0
VERTEX
  8
T08SSILL
 62
3
 10
1309.577
 20
-462.742
 30
4439.071
 70
    32
  0
VERTEX
  8
T08SSILL
 62
3
 10
1315.142
 20
-460.550
 30
4439.074
 70
    32
  0
VERTEX
  8
T08SSILL
 62
3
 10
1319.252
 20
-461.104
 30
4439.071
 70
    32
  0
VERTEX
  8
T08SSILL
 62
3
 10
1324.730
 20
-464.278
 30
4439.063
 70
    32
  0
VERTEX
  8
T08SSILL
 62
3
 10
1325.382
 20
-467.127
 30
4439.058
 70
    32
  0
VERTEX
  8
T08SSILL
 62
3
 10
1322.414
 20
-471.999
 30
4439.050
 70
    32
  0
VERTEX
  8
T08SSILL
 62
3
 10
1322.488
 20
-475.876
 30
4439.042
 70
    32
  0
VERTEX
  8
T08SSILL
 62
3
 10
1320.964
 20
-480.026
 30
4439.035
 70
    32
  0
VERTEX
  8
T08SSILL
 62
3
 10
1312.447
 20
-486.738
 30
4439.025
 70
    32
  0
VERTEX
  8
T08SSILL
 62
3
 10
1307.386
 20
-487.634
 30
4439.025
 70
    32
  0
VERTEX
  8
T08SSILL
 62
3
 10
1304.122
 20
-485.977
 30
4439.030
 70
    32
  0
SEQEND
  8
T08SSILL
  0
POLYLINE
  8
T08SSILL
 62
3
 66
     1
 70
     9
  0
VERTEX
  8
T08SSILL
 62
3
 10
1328.482
 20
-402.227
 30
4439.179
 70
    32
  0
VERTEX
  8
T08SSILL
 62
3
 10
1339.484
 20
-366.411
 30
4439.242
 70
    32
  0
VERTEX
  8
T08SSILL
 62
3
 10
1360.687
 20
-352.312
 30
4439.262
 70
    32
  0
VERTEX
  8
T08SSILL
 62
3
 10
1363.725
 20
-356.775
 30
4439.252
 70
    32
  0
VERTEX
  8
T08SSILL
 62
3
 10
1368.214
 20
-353.210
 30
4439.257
 70
    32
  0
VERTEX
  8
T08SSILL
 62
3
 10
1365.879
 20
-348.782
 30
4439.267
 70
    32
  0
VERTEX
  8
T08SSILL
 62
3
 10
1369.613
 20
-346.236
 30
4439.270
 70
    32
  0
VERTEX
  8
T08SSILL
 62
3
 10
1388.758
 20
-368.656
 30
4439.222
 70
    32
  0
VERTEX
  8
T08SSILL
 62
3
 10
1366.406
 20
-404.353
 30
4439.162
 70
    32
  0
VERTEX
  8
T08SSILL
 62
3
 10
1353.779
 20
-405.142
 30
4439.165
 70
    32
  0
VERTEX
  8
T08SSILL
 62
3
 10
1329.919
 20
-403.441
 30
4439.176
 70
    32
  0
SEQEND
  8
T08SSILL
  0
POLYLINE
  8
T08SSILL
 62
3
 66
     1
 70
     9
  0
VERTEX
  8
T08SSILL
 62
3
 10
1380.362
 20
-347.821
 30
4439.263
 70
    32
  0
VERTEX
  8
T08SSILL
 62
3
 10
1392.993
 20
-361.293
 30
4439.234
 70
    32
  0
VERTEX
  8
T08SSILL
 62
3
 10
1395.813
 20
-357.646
 30
4439.240
 70
    32
  0
VERTEX
  8
T08SSILL
 62
3
 10
1395.807
 20
-350.604
 30
4439.253
 70
    32
  0
VERTEX
  8
T08SSILL
 62
3
 10
1385.492
 20
-349.129
 30
4439.259
 70
    32
  0
SEQEND
  8
T08SSILL
  0
POLYLINE
  8
T08SSILL
 62
3
 66
     1
 70
     9
  0
VERTEX
  8
T08SSILL
 62
3
 10
1407.478
 20
-261.741
 30
4439.416
 70
    32
  0
VERTEX
  8
T08SSILL
 62
3
 10
1402.120
 20
-284.805
 30
4439.375
 70
    32
  0
VERTEX
  8
T08SSILL
 62
3
 10
1401.874
 20
-300.550
 30
4439.345
 70
    32
  0
VERTEX
  8
T08SSILL
 62
3
 10
1400.024
 20
-313.135
 30
4439.322
 70
    32
  0
VERTEX
  8
T08SSILL
 62
3
 10
1396.902
 20
-317.559
 30
4439.315
 70
    32
  0
VERTEX
  8
T08SSILL
 62
3
 10
1375.655
 20
-332.537
 30
4439.294
 70
    32
  0
VERTEX
  8
T08SSILL
 62
3
 10
1374.478
 20
-336.792
 30
4439.286
 70
    32
  0
VERTEX
  8
T08SSILL
 62
3
 10
1361.395
 20
-343.280
 30
4439.278
 70
    32
  0
VERTEX
  8
T08SSILL
 62
3
 10
1357.694
 20
-337.992
 30
4439.290
 70
    32
  0
VERTEX
  8
T08SSILL
 62
3
 10
1352.389
 20
-342.045
 30
4439.284
 70
    32
  0
VERTEX
  8
T08SSILL
 62
3
 10
1355.484
 20
-347.127
 30
4439.273
 70
    32
  0
VERTEX
  8
T08SSILL
 62
3
 10
1344.490
 20
-352.309
 30
4439.267
 70
    32
  0
VERTEX
  8
T08SSILL
 62
3
 10
1377.454
 20
-245.741
 30
4439.456
 70
    32
  0
VERTEX
  8
T08SSILL
 62
3
 10
1382.514
 20
-243.085
 30
4439.460
 70
    32
  0
VERTEX
  8
T08SSILL
 62
3
 10
1407.494
 20
-245.280
 30
4439.447
 70
    32
  0
SEQEND
  8
T08SSILL
  0
POLYLINE
  8
T08SSILL
 62
3
 66
     1
 70
     9
  0
VERTEX
  8
T08SSILL
 62
3
 10
1394.530
 20
-192.002
 30
4439.551
 70
    32
  0
VERTEX
  8
T08SSILL
 62
3
 10
1404.934
 20
-159.415
 30
4439.609
 70
    32
  0
VERTEX
  8
T08SSILL
 62
3
 10
1408.121
 20
-159.043
 30
4439.609
 70
    32
  0
VERTEX
  8
T08SSILL
 62
3
 10
1411.798
 20
-166.618
 30
4439.593
 70
    32
  0
VERTEX
  8
T08SSILL
 62
3
 10
1411.060
 20
-176.265
 30
4439.575
 70
    32
  0
VERTEX
  8
T08SSILL
 62
3
 10
1406.628
 20
-184.058
 30
4439.562
 70
    32
  0
VERTEX
  8
T08SSILL
 62
3
 10
1405.324
 20
-194.469
 30
4439.543
 70
    32
  0
VERTEX
  8
T08SSILL
 62
3
 10
1396.078
 20
-194.543
 30
4439.546
 70
    32
  0
SEQEND
  8
T08SSILL
  0
POLYLINE
  8
T08SSILL
 62
3
 66
     1
 70
     9
  0
VERTEX
  8
T08SSILL
 62
3
 10
1557.196
 20
-59.588
 30
4439.745
 70
    32
  0
VERTEX
  8
T08SSILL
 62
3
 10
1543.029
 20
-61.269
 30
4439.747
 70
    32
  0
VERTEX
  8
T08SSILL
 62
3
 10
1541.231
 20
-58.451
 30
4439.753
 70
    32
  0
VERTEX
  8
T08SSILL
 62
3
 10
1545.976
 20
-42.487
 30
4439.781
 70
    32
  0
VERTEX
  8
T08SSILL
 62
3
 10
1544.533
 20
-23.490
 30
4439.818
 70
    32
  0
VERTEX
  8
T08SSILL
 62
3
 10
1546.257
 20
-11.691
 30
4439.839
 70
    32
  0
VERTEX
  8
T08SSILL
 62
3
 10
1552.534
 20
-0.380
 30
4439.858
 70
    32
  0
VERTEX
  8
T08SSILL
 62
3
 10
1570.416
 20
15.995
 30
4439.883
 70
    32
  0
VERTEX
  8
T08SSILL
 62
3
 10
1578.531
 20
14.540
 30
4439.878
 70
    32
  0
VERTEX
  8
T08SSILL
 62
3
 10
1562.298
 20
-14.856
 30
4439.828
 70
    32
  0
VERTEX
  8
T08SSILL
 62
3
 10
1561.460
 20
-30.132
 30
4439.799
 70
    32
  0
VERTEX
  8
T08SSILL
 62
3
 10
1557.294
 20
-55.807
 30
4439.753
 70
    32
  0
SEQEND
  8
T08SSILL
  0
POLYLINE
  8
T08SSILL
 62
3
 66
     1
 70
     9
  0
VERTEX
  8
T08SSILL
 62
3
 10
1514.077
 20
-61.079
 30
4439.757
 70
    32
  0
VERTEX
  8
T08SSILL
 62
3
 10
1462.595
 20
-58.990
 30
4439.778
 70
    32
  0
VERTEX
  8
T08SSILL
 62
3
 10
1463.313
 20
-90.980
 30
4439.718
 70
    32
  0
VERTEX
  8
T08SSILL
 62
3
 10
1479.070
 20
-85.592
 30
4439.723
 70
    32
  0
VERTEX
  8
T08SSILL
 62
3
 10
1485.910
 20
-84.343
 30
4439.723
 70
    32
  0
VERTEX
  8
T08SSILL
 62
3
 10
1489.968
 20
-85.951
 30
4439.719
 70
    32
  0
VERTEX
  8
T08SSILL
 62
3
 10
1499.374
 20
-71.888
 30
4439.742
 70
    32
  0
VERTEX
  8
T08SSILL
 62
3
 10
1506.914
 20
-68.914
 30
4439.745
 70
    32
  0
VERTEX
  8
T08SSILL
 62
3
 10
1512.174
 20
-63.978
 30
4439.752
 70
    32
  0
SEQEND
  8
T08SSILL
  0
POLYLINE
  8
T08SSILL
 62
3
 66
     1
 70
     9
  0
VERTEX
  8
T08SSILL
 62
3
 10
1420.779
 20
-109.225
 30
4439.698
 70
    32
  0
VERTEX
  8
T08SSILL
 62
3
 10
1413.146
 20
-132.001
 30
4439.658
 70
    32
  0
VERTEX
  8
T08SSILL
 62
3
 10
1415.089
 20
-139.051
 30
4439.644
 70
    32
  0
VERTEX
  8
T08SSILL
 62
3
 10
1417.902
 20
-137.341
 30
4439.646
 70
    32
  0
VERTEX
  8
T08SSILL
 62
3
 10
1420.554
 20
-128.140
 30
4439.663
 70
    32
  0
VERTEX
  8
T08SSILL
 62
3
 10
1439.067
 20
-109.683
 30
4439.691
 70
    32
  0
SEQEND
  8
T08SSILL
  0
POLYLINE
  8
T08SSILL
 62
3
 66
     1
 70
     9
  0
VERTEX
  8
T08SSILL
 62
3
 10
175.048
 20
-860.173
 30
4439.482
 70
    32
  0
VERTEX
  8
T08SSILL
 62
3
 10
179.901
 20
-811.518
 30
4439.558
 70
    32
  0
VERTEX
  8
T08SSILL
 62
3
 10
175.093
 20
-796.917
 30
4439.580
 70
    32
  0
VERTEX
  8
T08SSILL
 62
3
 10
112.973
 20
-727.342
 30
4439.683
 70
    32
  0
VERTEX
  8
T08SSILL
 62
3
 10
106.586
 20
-723.430
 30
4439.694
 70
    32
  0
VERTEX
  8
T08SSILL
 62
3
 10
102.429
 20
-722.320
 30
4439.699
 70
    32
  0
VERTEX
  8
T08SSILL
 62
3
 10
96.699
 20
-722.813
 30
4439.703
 70
    32
  0
VERTEX
  8
T08SSILL
 62
3
 10
34.184
 20
-746.052
 30
4439.734
 70
    32
  0
VERTEX
  8
T08SSILL
 62
3
 10
35.272
 20
-749.306
 30
4439.729
 70
    32
  0
VERTEX
  8
T08SSILL
 62
3
 10
27.093
 20
-752.203
 30
4439.734
 70
    32
  0
VERTEX
  8
T08SSILL
 62
3
 10
26.097
 20
-749.389
 30
4439.738
 70
    32
  0
VERTEX
  8
T08SSILL
 62
3
 10
14.140
 20
-753.908
 30
4439.744
 70
    32
  0
VERTEX
  8
T08SSILL
 62
3
 10
93.592
 20
-788.920
 30
4439.631
 70
    32
  0
VERTEX
  8
T08SSILL
 62
3
 10
100.085
 20
-784.979
 30
4439.630
 70
    32
  0
VERTEX
  8
T08SSILL
 62
3
 10
101.501
 20
-785.496
 30
4439.628
 70
    32
  0
VERTEX
  8
T08SSILL
 62
3
 10
107.029
 20
-791.886
 30
4439.615
 70
    32
  0
VERTEX
  8
T08SSILL
 62
3
 10
107.501
 20
-795.323
 30
4439.611
 70
    32
  0
VERTEX
  8
T08SSILL
 62
3
 10
129.117
 20
-805.273
 30
4439.580
 70
    32
  0
VERTEX
  8
T08SSILL
 62
3
 10
170.733
 20
-861.006
 30
4439.480
 70
    32
  0
SEQEND
  8
T08SSILL
  0
POLYLINE
  8
T08SSILL
 62
3
 66
     1
 70
     9
  0
VERTEX
  8
T08SSILL
 62
3
 10
47.032
 20
-654.714
 30
4439.827
 70
    32
  0
VERTEX
  8
T08SSILL
 62
3
 10
-10.371
 20
-589.684
 30
4439.953
 70
    32
  0
VERTEX
  8
T08SSILL
 62
3
 10
-60.864
 20
-605.932
 30
4439.981
 70
    32
  0
VERTEX
  8
T08SSILL
 62
3
 10
-58.192
 20
-618.524
 30
4439.964
 70
    32
  0
VERTEX
  8
T08SSILL
 62
3
 10
-27.834
 20
-678.064
 30
4439.868
 70
    32
  0
SEQEND
  8
T08SSILL
  0
POLYLINE
  8
T08SSILL
 62
3
 66
     1
 70
     9
  0
VERTEX
  8
T08SSILL
 62
3
 10
-74.069
 20
-609.051
 30
4439.989
 70
    32
  0
VERTEX
  8
T08SSILL
 62
3
 10
-149.115
 20
-632.050
 30
4440.032
 70
    32
  0
VERTEX
  8
T08SSILL
 62
3
 10
-150.396
 20
-636.649
 30
4440.028
 70
    32
  0
VERTEX
  8
T08SSILL
 62
3
 10
-142.993
 20
-665.166
 30
4439.989
 70
    32
  0
VERTEX
  8
T08SSILL
 62
3
 10
-149.489
 20
-668.754
 30
4439.990
 70
    32
  0
VERTEX
  8
T08SSILL
 62
3
 10
-171.144
 20
-673.978
 30
4440.004
 70
    32
  0
VERTEX
  8
T08SSILL
 62
3
 10
-172.985
 20
-675.230
 30
4440.005
 70
    32
  0
VERTEX
  8
T08SSILL
 62
3
 10
-175.407
 20
-680.633
 30
4440.011
 70
    32
  0
VERTEX
  8
T08SSILL
 62
3
 10
-175.831
 20
-682.490
 30
4440.014
 70
    32
  0
VERTEX
  8
T08SSILL
 62
3
 10
-174.481
 20
-685.389
 30
4440.014
 70
    32
  0
VERTEX
  8
T08SSILL
 62
3
 10
-178.685
 20
-688.868
 30
4440.026
 70
    32
  0
VERTEX
  8
T08SSILL
 62
3
 10
-164.399
 20
-707.706
 30
4440.014
 70
    32
  0
VERTEX
  8
T08SSILL
 62
3
 10
-145.068
 20
-699.062
 30
4439.965
 70
    32
  0
VERTEX
  8
T08SSILL
 62
3
 10
-98.243
 20
-696.698
 30
4439.912
 70
    32
  0
VERTEX
  8
T08SSILL
 62
3
 10
-46.520
 20
-660.500
 30
4439.906
 70
    32
  0
VERTEX
  8
T08SSILL
 62
3
 10
-69.262
 20
-613.771
 30
4439.980
 70
    32
  0
SEQEND
  8
T08SSILL
  0
POLYLINE
  8
T08SSILL
 62
3
 66
     1
 70
     9
  0
VERTEX
  8
T08SSILL
 62
3
 10
-43.553
 20
-666.561
 30
4439.896
 70
    32
  0
VERTEX
  8
T08SSILL
 62
3
 10
-97.197
 20
-705.069
 30
4439.901
 70
    32
  0
VERTEX
  8
T08SSILL
 62
3
 10
-106.103
 20
-725.088
 30
4439.908
 70
    32
  0
VERTEX
  8
T08SSILL
 62
3
 10
-118.947
 20
-748.672
 30
4439.958
 70
    32
  0
VERTEX
  8
T08SSILL
 62
3
 10
-135.784
 20
-759.852
 30
4440.005
 70
    32
  0
VERTEX
  8
T08SSILL
 62
3
 10
-119.412
 20
-794.816
 30
4440.005
 70
    32
  0
VERTEX
  8
T08SSILL
 62
3
 10
-117.437
 20
-798.504
 30
4440.004
 70
    32
  0
VERTEX
  8
T08SSILL
 62
3
 10
-97.420
 20
-787.736
 30
4439.951
 70
    32
  0
VERTEX
  8
T08SSILL
 62
3
 10
-55.323
 20
-789.384
 30
4439.863
 70
    32
  0
VERTEX
  8
T08SSILL
 62
3
 10
0.260
 20
-750.681
 30
4439.760
 70
    32
  0
SEQEND
  8
T08SSILL
  0
POLYLINE
  8
T08SSILL
 62
3
 66
     1
 70
     9
  0
VERTEX
  8
T08SSILL
 62
3
 10
-164.044
 20
-717.672
 30
4440.023
 70
    32
  0
VERTEX
  8
T08SSILL
 62
3
 10
-143.764
 20
-706.637
 30
4439.970
 70
    32
  0
VERTEX
  8
T08SSILL
 62
3
 10
-110.079
 20
-704.921
 30
4439.913
 70
    32
  0
VERTEX
  8
T08SSILL
 62
3
 10
-107.589
 20
-707.104
 30
4439.908
 70
    32
  0
VERTEX
  8
T08SSILL
 62
3
 10
-107.476
 20
-709.838
 30
4439.905
 70
    32
  0
VERTEX
  8
T08SSILL
 62
3
 10
-110.570
 20
-718.865
 30
4439.911
 70
    32
  0
VERTEX
  8
T08SSILL
 62
3
 10
-125.518
 20
-743.967
 30
4439.968
 70
    32
  0
VERTEX
  8
T08SSILL
 62
3
 10
-144.293
 20
-755.517
 30
4440.019
 70
    32
  0
VERTEX
  8
T08SSILL
 62
3
 10
-155.997
 20
-739.302
 30
4440.028
 70
    32
  0
VERTEX
  8
T08SSILL
 62
3
 10
-151.443
 20
-735.556
 30
4440.014
 70
    32
  0
SEQEND
  8
T08SSILL
  0
POLYLINE
  8
T08SSILL
 62
3
 66
     1
 70
     9
  0
VERTEX
  8
T08SSILL
 62
3
 10
-82.674
 20
-847.682
 30
4439.979
 70
    32
  0
VERTEX
  8
T08SSILL
 62
3
 10
-66.088
 20
-867.205
 30
4439.963
 70
    32
  0
VERTEX
  8
T08SSILL
 62
3
 10
-49.413
 20
-877.112
 30
4439.937
 70
    32
  0
VERTEX
  8
T08SSILL
 62
3
 10
-7.103
 20
-843.734
 30
4439.814
 70
    32
  0
VERTEX
  8
T08SSILL
 62
3
 10
14.184
 20
-778.345
 30
4439.716
 70
    32
  0
VERTEX
  8
T08SSILL
 62
3
 10
3.144
 20
-757.448
 30
4439.750
 70
    32
  0
VERTEX
  8
T08SSILL
 62
3
 10
-49.623
 20
-795.332
 30
4439.857
 70
    32
  0
VERTEX
  8
T08SSILL
 62
3
 10
-68.463
 20
-838.731
 30
4439.940
 70
    32
  0
SEQEND
  8
T08SSILL
  0
POLYLINE
  8
T08SSILL
 62
3
 66
     1
 70
     9
  0
VERTEX
  8
T08SSILL
 62
3
 10
-159.136
 20
-811.673
 30
4440.105
 70
    32
  0
VERTEX
  8
T08SSILL
 62
3
 10
-164.720
 20
-808.812
 30
4440.114
 70
    32
  0
VERTEX
  8
T08SSILL
 62
3
 10
-179.724
 20
-778.776
 30
4440.117
 70
    32
  0
VERTEX
  8
T08SSILL
 62
3
 10
-175.660
 20
-769.740
 30
4440.099
 70
    32
  0
VERTEX
  8
T08SSILL
 62
3
 10
-161.336
 20
-763.523
 30
4440.063
 70
    32
  0
VERTEX
  8
T08SSILL
 62
3
 10
-142.228
 20
-788.759
 30
4440.047
 70
    32
  0
VERTEX
  8
T08SSILL
 62
3
 10
-146.698
 20
-791.975
 30
4440.060
 70
    32
  0
VERTEX
  8
T08SSILL
 62
3
 10
-143.200
 20
-798.295
 30
4440.058
 70
    32
  0
SEQEND
  8
T08SSILL
  0
POLYLINE
  8
T08SSILL
 62
3
 66
     1
 70
     9
  0
VERTEX
  8
T08SSILL
 62
3
 10
-181.598
 20
-766.706
 30
4440.109
 70
    32
  0
VERTEX
  8
T08SSILL
 62
3
 10
-186.984
 20
-766.225
 30
4440.120
 70
    32
  0
VERTEX
  8
T08SSILL
 62
3
 10
-204.305
 20
-733.740
 30
4440.125
 70
    32
  0
VERTEX
  8
T08SSILL
 62
3
 10
-202.218
 20
-730.369
 30
4440.117
 70
    32
  0
VERTEX
  8
T08SSILL
 62
3
 10
-201.217
 20
-723.919
 30
4440.109
 70
    32
  0
VERTEX
  8
T08SSILL
 62
3
 10
-192.701
 20
-719.343
 30
4440.086
 70
    32
  0
VERTEX
  8
T08SSILL
 62
3
 10
-187.067
 20
-718.057
 30
4440.073
 70
    32
  0
VERTEX
  8
T08SSILL
 62
3
 10
-173.397
 20
-736.989
 30
4440.062
 70
    32
  0
VERTEX
  8
T08SSILL
 62
3
 10
-177.514
 20
-740.291
 30
4440.074
 70
    32
  0
VERTEX
  8
T08SSILL
 62
3
 10
-169.276
 20
-753.714
 30
4440.070
 70
    32
  0
VERTEX
  8
T08SSILL
 62
3
 10
-168.972
 20
-758.034
 30
4440.074
 70
    32
  0
SEQEND
  8
T08SSILL
  0
POLYLINE
  8
T08SSILL
 62
3
 66
     1
 70
     9
  0
VERTEX
  8
T08SSILL
 62
3
 10
-233.360
 20
-671.894
 30
4440.126
 70
    32
  0
VERTEX
  8
T08SSILL
 62
3
 10
-236.811
 20
-670.690
 30
4440.132
 70
    32
  0
VERTEX
  8
T08SSILL
 62
3
 10
-241.964
 20
-666.679
 30
4440.139
 70
    32
  0
VERTEX
  8
T08SSILL
 62
3
 10
-277.498
 20
-600.568
 30
4440.185
 70
    32
  0
VERTEX
  8
T08SSILL
 62
3
 10
-276.753
 20
-595.180
 30
4440.191
 70
    32
  0
VERTEX
  8
T08SSILL
 62
3
 10
-265.963
 20
-598.170
 30
4440.177
 70
    32
  0
VERTEX
  8
T08SSILL
 62
3
 10
-244.261
 20
-617.559
 30
4440.136
 70
    32
  0
VERTEX
  8
T08SSILL
 62
3
 10
-236.677
 20
-627.019
 30
4440.118
 70
    32
  0
VERTEX
  8
T08SSILL
 62
3
 10
-232.414
 20
-639.861
 30
4440.099
 70
    32
  0
VERTEX
  8
T08SSILL
 62
3
 10
-227.999
 20
-659.847
 30
4440.102
 70
    32
  0
VERTEX
  8
T08SSILL
 62
3
 10
-227.960
 20
-664.170
 30
4440.107
 70
    32
  0
VERTEX
  8
T08SSILL
 62
3
 10
-231.525
 20
-669.937
 30
4440.120
 70
    32
  0
SEQEND
  8
T08SSILL
  0
POLYLINE
  8
T08SSILL
 62
3
 66
     1
 70
     9
  0
VERTEX
  8
T08SSILL
 62
3
 10
24.868
 20
-769.515
 30
4439.716
 70
    32
  0
VERTEX
  8
T08SSILL
 62
3
 10
22.962
 20
-773.414
 30
4439.713
 70
    32
  0
VERTEX
  8
T08SSILL
 62
3
 10
23.275
 20
-778.793
 30
4439.707
 70
    32
  0
VERTEX
  8
T08SSILL
 62
3
 10
32.174
 20
-796.974
 30
4439.685
 70
    32
  0
VERTEX
  8
T08SSILL
 62
3
 10
42.221
 20
-805.617
 30
4439.672
 70
    32
  0
VERTEX
  8
T08SSILL
 62
3
 10
46.454
 20
-805.403
 30
4439.663
 70
    32
  0
VERTEX
  8
T08SSILL
 62
3
 10
50.991
 20
-799.804
 30
4439.658
 70
    32
  0
VERTEX
  8
T08SSILL
 62
3
 10
60.389
 20
-795.219
 30
4439.654
 70
    32
  0
VERTEX
  8
T08SSILL
 62
3
 10
75.320
 20
-807.347
 30
4439.627
 70
    32
  0
VERTEX
  8
T08SSILL
 62
3
 10
81.122
 20
-805.001
 30
4439.624
 70
    32
  0
VERTEX
  8
T08SSILL
 62
3
 10
91.364
 20
-796.174
 30
4439.625
 70
    32
  0
VERTEX
  8
T08SSILL
 62
3
 10
32.110
 20
-770.420
 30
4439.708
 70
    32
  0
SEQEND
  8
T08SSILL
  0
POLYLINE
  8
T08SSILL
 62
3
 66
     1
 70
     9
  0
VERTEX
  8
T08SSILL
 62
3
 10
139.950
 20
-832.524
 30
4439.539
 70
    32
  0
VERTEX
  8
T08SSILL
 62
3
 10
127.143
 20
-830.875
 30
4439.552
 70
    32
  0
VERTEX
  8
T08SSILL
 62
3
 10
111.967
 20
-840.452
 30
4439.558
 70
    32
  0
VERTEX
  8
T08SSILL
 62
3
 10
113.840
 20
-852.433
 30
4439.566
 70
    32
  0
VERTEX
  8
T08SSILL
 62
3
 10
122.846
 20
-863.027
 30
4439.558
 70
    32
  0
VERTEX
  8
T08SSILL
 62
3
 10
126.035
 20
-864.409
 30
4439.552
 70
    32
  0
VERTEX
  8
T08SSILL
 62
3
 10
127.471
 20
-867.131
 30
4439.552
 70
    32
  0
VERTEX
  8
T08SSILL
 62
3
 10
151.829
 20
-848.561
 30
4439.510
 70
    32
  0
VERTEX
  8
T08SSILL
 62
3
 10
143.701
 20
-837.518
 30
4439.530
 70
    32
  0
SEQEND
  8
T08SSILL
  0
POLYLINE
  8
T08SSILL
 62
3
 66
     1
 70
     9
  0
VERTEX
  8
T08SSILL
 62
3
 10
-33.661
 20
-886.248
 30
4439.912
 70
    32
  0
VERTEX
  8
T08SSILL
 62
3
 10
-39.735
 20
-887.977
 30
4439.927
 70
    32
  0
VERTEX
  8
T08SSILL
 62
3
 10
-45.293
 20
-884.299
 30
4439.935
 70
    32
  0
VERTEX
  8
T08SSILL
 62
3
 10
-9.033
 20
-854.691
 30
4439.829
 70
    32
  0
VERTEX
  8
T08SSILL
 62
3
 10
-6.396
 20
-853.697
 30
4439.823
 70
    32
  0
VERTEX
  8
T08SSILL
 62
3
 10
-2.315
 20
-865.923
 30
4439.826
 70
    32
  0
VERTEX
  8
T08SSILL
 62
3
 10
3.105
 20
-899.487
 30
4439.847
 70
    32
  0
VERTEX
  8
T08SSILL
 62
3
 10
-5.064
 20
-906.550
 30
4439.872
 70
    32
  0
VERTEX
  8
T08SSILL
 62
3
 10
-19.362
 20
-914.864
 30
4439.910
 70
    32
  0
VERTEX
  8
T08SSILL
 62
3
 10
-20.554
 20
-903.366
 30
4439.901
 70
    32
  0
VERTEX
  8
T08SSILL
 62
3
 10
-24.726
 20
-893.236
 30
4439.900
 70
    32
  0
VERTEX
  8
T08SSILL
 62
3
 10
-30.517
 20
-890.659
 30
4439.910
 70
    32
  0
SEQEND
  8
T08SSILL
  0
POLYLINE
  8
T08SSILL
 62
3
 66
     1
 70
     9
  0
VERTEX
  8
T08SSILL
 62
3
 10
-195.378
 20
-647.731
 30
4440.056
 70
    32
  0
VERTEX
  8
T08SSILL
 62
3
 10
-193.369
 20
-655.211
 30
4440.046
 70
    32
  0
VERTEX
  8
T08SSILL
 62
3
 10
-187.219
 20
-662.213
 30
4440.032
 70
    32
  0
VERTEX
  8
T08SSILL
 62
3
 10
-182.246
 20
-665.786
 30
4440.024
 70
    32
  0
VERTEX
  8
T08SSILL
 62
3
 10
-167.599
 20
-666.006
 30
4440.010
 70
    32
  0
VERTEX
  8
T08SSILL
 62
3
 10
-151.931
 20
-662.071
 30
4440.000
 70
    32
  0
VERTEX
  8
T08SSILL
 62
3
 10
-151.838
 20
-652.895
 30
4440.011
 70
    32
  0
VERTEX
  8
T08SSILL
 62
3
 10
-157.266
 20
-637.946
 30
4440.033
 70
    32
  0
VERTEX
  8
T08SSILL
 62
3
 10
-160.106
 20
-636.031
 30
4440.037
 70
    32
  0
VERTEX
  8
T08SSILL
 62
3
 10
-192.409
 20
-644.351
 30
4440.058
 70
    32
  0
SEQEND
  8
T08SSILL
  0
POLYLINE
  8
T08SSILL
 62
3
 66
     1
 70
     9
  0
VERTEX
  8
T08SSILL
 62
3
 10
1520.863
 20
29.757
 30
4439.926
 70
    32
  0
VERTEX
  8
T08SSILL
 62
3
 10
1531.994
 20
4.194
 30
4439.874
 70
    32
  0
VERTEX
  8
T08SSILL
 62
3
 10
1537.602
 20
0.031
 30
4439.864
 70
    32
  0
VERTEX
  8
T08SSILL
 62
3
 10
1541.718
 20
13.908
 30
4439.889
 70
    32
  0
VERTEX
  8
T08SSILL
 62
3
 10
1547.120
 20
21.182
 30
4439.901
 70
    32
  0
SEQEND
  8
T08SSILL
  0
POLYLINE
  8
T08SSILL
 62
3
 66
     1
 70
     9
  0
VERTEX
  8
T08SSILL
 62
3
 10
1138.169
 20
-1646.365
 30
4436.699
 70
    32
  0
VERTEX
  8
T08SSILL
 62
3
 10
1147.237
 20
-1643.754
 30
4436.665
 70
    32
  0
VERTEX
  8
T08SSILL
 62
3
 10
1160.272
 20
-1636.564
 30
4436.604
 70
    32
  0
VERTEX
  8
T08SSILL
 62
3
 10
1160.904
 20
-1631.935
 30
4436.586
 70
    32
  0
VERTEX
  8
T08SSILL
 62
3
 10
1156.957
 20
-1627.555
 30
4436.581
 70
    32
  0
VERTEX
  8
T08SSILL
 62
3
 10
1154.870
 20
-1627.029
 30
4436.584
 70
    32
  0
VERTEX
  8
T08SSILL
 62
3
 10
1132.135
 20
-1637.242
 30
4436.682
 70
    32
  0
SEQEND
  8
T08SSILL
  0
POLYLINE
  8
T08SSILL
 62
3
 66
     1
 70
     9
  0
VERTEX
  8
T08SSILL
 62
3
 10
570.659
 20
-1295.797
 30
4437.420
 70
    32
  0
VERTEX
  8
T08SSILL
 62
3
 10
498.555
 20
-1348.412
 30
4437.684
 70
    32
  0
VERTEX
  8
T08SSILL
 62
3
 10
502.721
 20
-1353.855
 30
4437.622
 70
    32
  0
VERTEX
  8
T08SSILL
 62
3
 10
504.577
 20
-1353.581
 30
4437.610
 70
    32
  0
VERTEX
  8
T08SSILL
 62
3
 10
511.491
 20
-1356.327
 30
4437.543
 70
    32
  0
VERTEX
  8
T08SSILL
 62
3
 10
521.211
 20
-1361.298
 30
4437.443
 70
    32
  0
VERTEX
  8
T08SSILL
 62
3
 10
530.962
 20
-1371.892
 30
4437.311
 70
    32
  0
VERTEX
  8
T08SSILL
 62
3
 10
532.874
 20
-1376.627
 30
4437.270
 70
    32
  0
VERTEX
  8
T08SSILL
 62
3
 10
532.681
 20
-1381.274
 30
4437.245
 70
    32
  0
VERTEX
  8
T08SSILL
 62
3
 10
531.435
 20
-1383.770
 30
4437.240
 70
    32
  0
VERTEX
  8
T08SSILL
 62
3
 10
529.276
 20
-1384.998
 30
4437.250
 70
    32
  0
VERTEX
  8
T08SSILL
 62
3
 10
527.947
 20
-1389.511
 30
4437.234
 70
    32
  0
VERTEX
  8
T08SSILL
 62
3
 10
531.137
 20
-1390.961
 30
4437.202
 70
    32
  0
VERTEX
  8
T08SSILL
 62
3
 10
551.012
 20
-1374.318
 30
4437.149
 70
    32
  0
VERTEX
  8
T08SSILL
 62
3
 10
576.503
 20
-1358.232
 30
4437.083
 70
    32
  0
VERTEX
  8
T08SSILL
 62
3
 10
604.787
 20
-1337.092
 30
4437.096
 70
    32
  0
VERTEX
  8
T08SSILL
 62
3
 10
657.362
 20
-1304.223
 30
4437.089
 70
    32
  0
VERTEX
  8
T08SSILL
 62
3
 10
657.902
 20
-1282.724
 30
4437.189
 70
    32
  0
VERTEX
  8
T08SSILL
 62
3
 10
645.544
 20
-1262.974
 30
4437.321
 70
    32
  0
VERTEX
  8
T08SSILL
 62
3
 10
640.769
 20
-1265.851
 30
4437.322
 70
    32
  0
VERTEX
  8
T08SSILL
 62
3
 10
637.304
 20
-1260.436
 30
4437.358
 70
    32
  0
VERTEX
  8
T08SSILL
 62
3
 10
641.360
 20
-1257.969
 30
4437.357
 70
    32
  0
VERTEX
  8
T08SSILL
 62
3
 10
608.871
 20
-1206.815
 30
4437.699
 70
    32
  0
VERTEX
  8
T08SSILL
 62
3
 10
599.339
 20
-1212.130
 30
4437.704
 70
    32
  0
VERTEX
  8
T08SSILL
 62
3
 10
594.311
 20
-1212.624
 30
4437.717
 70
    32
  0
VERTEX
  8
T08SSILL
 62
3
 10
593.203
 20
-1205.463
 30
4437.754
 70
    32
  0
VERTEX
  8
T08SSILL
 62
3
 10
598.234
 20
-1204.881
 30
4437.741
 70
    32
  0
VERTEX
  8
T08SSILL
 62
3
 10
604.828
 20
-1200.499
 30
4437.742
 70
    32
  0
VERTEX
  8
T08SSILL
 62
3
 10
596.503
 20
-1189.437
 30
4437.820
 70
    32
  0
VERTEX
  8
T08SSILL
 62
3
 10
589.889
 20
-1187.933
 30
4437.851
 70
    32
  0
VERTEX
  8
T08SSILL
 62
3
 10
583.130
 20
-1189.937
 30
4437.892
 70
    32
  0
VERTEX
  8
T08SSILL
 62
3
 10
577.069
 20
-1194.165
 30
4437.916
 70
    32
  0
VERTEX
  8
T08SSILL
 62
3
 10
577.806
 20
-1206.054
 30
4437.846
 70
    32
  0
VERTEX
  8
T08SSILL
 62
3
 10
571.025
 20
-1206.476
 30
4437.896
 70
    32
  0
VERTEX
  8
T08SSILL
 62
3
 10
570.431
 20
-1199.600
 30
4437.937
 70
    32
  0
VERTEX
  8
T08SSILL
 62
3
 10
505.513
 20
-1246.276
 30
4438.182
 70
    32
  0
VERTEX
  8
T08SSILL
 62
3
 10
506.895
 20
-1248.968
 30
4438.157
 70
    32
  0
VERTEX
  8
T08SSILL
 62
3
 10
500.578
 20
-1253.011
 30
4438.184
 70
    32
  0
VERTEX
  8
T08SSILL
 62
3
 10
498.451
 20
-1251.341
 30
4438.209
 70
    32
  0
VERTEX
  8
T08SSILL
 62
3
 10
472.027
 20
-1270.010
 30
4438.311
 70
    32
  0
VERTEX
  8
T08SSILL
 62
3
 10
474.691
 20
-1273.547
 30
4438.272
 70
    32
  0
VERTEX
  8
T08SSILL
 62
3
 10
468.649
 20
-1277.337
 30
4438.297
 70
    32
  0
VERTEX
  8
T08SSILL
 62
3
 10
465.886
 20
-1274.060
 30
4438.336
 70
    32
  0
VERTEX
  8
T08SSILL
 62
3
 10
447.806
 20
-1286.399
 30
4438.408
 70
    32
  0
VERTEX
  8
T08SSILL
 62
3
 10
440.009
 20
-1288.008
 30
4438.459
 70
    32
  0
VERTEX
  8
T08SSILL
 62
3
 10
436.176
 20
-1287.234
 30
4438.492
 70
    32
  0
VERTEX
  8
T08SSILL
 62
3
 10
439.328
 20
-1298.082
 30
4438.407
 70
    32
  0
VERTEX
  8
T08SSILL
 62
3
 10
449.449
 20
-1316.685
 30
4438.227
 70
    32
  0
VERTEX
  8
T08SSILL
 62
3
 10
452.770
 20
-1317.086
 30
4438.200
 70
    32
  0
VERTEX
  8
T08SSILL
 62
3
 10
463.723
 20
-1313.499
 30
4438.139
 70
    32
  0
VERTEX
  8
T08SSILL
 62
3
 10
474.029
 20
-1323.414
 30
4438.007
 70
    32
  0
VERTEX
  8
T08SSILL
 62
3
 10
469.601
 20
-1326.392
 30
4438.023
 70
    32
  0
VERTEX
  8
T08SSILL
 62
3
 10
472.445
 20
-1329.848
 30
4437.982
 70
    32
  0
VERTEX
  8
T08SSILL
 62
3
 10
475.868
 20
-1327.794
 30
4437.968
 70
    32
  0
VERTEX
  8
T08SSILL
 62
3
 10
472.744
 20
-1343.828
 30
4437.901
 70
    32
  0
VERTEX
  8
T08SSILL
 62
3
 10
473.568
 20
-1353.612
 30
4437.840
 70
    32
  0
VERTEX
  8
T08SSILL
 62
3
 10
480.994
 20
-1360.948
 30
4437.743
 70
    32
  0
VERTEX
  8
T08SSILL
 62
3
 10
492.143
 20
-1352.626
 30
4437.708
 70
    32
  0
VERTEX
  8
T08SSILL
 62
3
 10
487.863
 20
-1345.684
 30
4437.779
 70
    32
  0
VERTEX
  8
T08SSILL
 62
3
 10
566.343
 20
-1289.732
 30
4437.485
 70
    32
  0
SEQEND
  8
T08SSILL
  0
POLYLINE
  8
T08SSILL
 62
3
 66
     1
 70
     9
  0
VERTEX
  8
T08SSILL
 62
3
 10
428.989
 20
-1340.641
 30
4438.244
 70
    32
  0
VERTEX
  8
T08SSILL
 62
3
 10
448.554
 20
-1370.729
 30
4437.929
 70
    32
  0
VERTEX
  8
T08SSILL
 62
3
 10
431.062
 20
-1390.828
 30
4437.945
 70
    32
  0
VERTEX
  8
T08SSILL
 62
3
 10
402.394
 20
-1410.650
 30
4438.046
 70
    32
  0
VERTEX
  8
T08SSILL
 62
3
 10
374.530
 20
-1372.184
 30
4438.469
 70
    32
  0
VERTEX
  8
T08SSILL
 62
3
 10
404.828
 20
-1349.957
 30
4438.370
 70
    32
  0
VERTEX
  8
T08SSILL
 62
3
 10
403.157
 20
-1347.793
 30
4438.395
 70
    32
  0
VERTEX
  8
T08SSILL
 62
3
 10
380.548
 20
-1363.773
 30
4438.472
 70
    32
  0
VERTEX
  8
T08SSILL
 62
3
 10
376.505
 20
-1363.490
 30
4438.504
 70
    32
  0
VERTEX
  8
T08SSILL
 62
3
 10
359.656
 20
-1338.353
 30
4438.771
 70
    32
  0
VERTEX
  8
T08SSILL
 62
3
 10
362.303
 20
-1336.343
 30
4438.762
 70
    32
  0
VERTEX
  8
T08SSILL
 62
3
 10
360.647
 20
-1333.434
 30
4438.791
 70
    32
  0
VERTEX
  8
T08SSILL
 62
3
 10
400.697
 20
-1304.962
 30
4438.655
 70
    32
  0
VERTEX
  8
T08SSILL
 62
3
 10
403.321
 20
-1307.964
 30
4438.618
 70
    32
  0
VERTEX
  8
T08SSILL
 62
3
 10
407.645
 20
-1304.643
 30
4438.605
 70
    32
  0
VERTEX
  8
T08SSILL
 62
3
 10
405.025
 20
-1300.938
 30
4438.645
 70
    32
  0
VERTEX
  8
T08SSILL
 62
3
 10
414.526
 20
-1299.665
 30
4438.582
 70
    32
  0
VERTEX
  8
T08SSILL
 62
3
 10
420.490
 20
-1302.770
 30
4438.520
 70
    32
  0
VERTEX
  8
T08SSILL
 62
3
 10
431.836
 20
-1320.408
 30
4438.337
 70
    32
  0
VERTEX
  8
T08SSILL
 62
3
 10
434.972
 20
-1326.401
 30
4438.280
 70
    32
  0
VERTEX
  8
T08SSILL
 62
3
 10
434.258
 20
-1328.596
 30
4438.272
 70
    32
  0
VERTEX
  8
T08SSILL
 62
3
 10
425.436
 20
-1335.060
 30
4438.301
 70
    32
  0
SEQEND
  8
T08SSILL
  0
POLYLINE
  8
T08SSILL
 62
3
 66
     1
 70
     9
  0
VERTEX
  8
T08SSILL
 62
3
 10
441.436
 20
-1440.035
 30
4437.590
 70
    32
  0
VERTEX
  8
T08SSILL
 62
3
 10
450.942
 20
-1454.396
 30
4437.439
 70
    32
  0
VERTEX
  8
T08SSILL
 62
3
 10
443.455
 20
-1459.402
 30
4437.468
 70
    32
  0
VERTEX
  8
T08SSILL
 62
3
 10
439.356
 20
-1454.263
 30
4437.526
 70
    32
  0
VERTEX
  8
T08SSILL
 62
3
 10
432.744
 20
-1459.084
 30
4437.547
 70
    32
  0
VERTEX
  8
T08SSILL
 62
3
 10
436.172
 20
-1464.271
 30
4437.498
 70
    32
  0
VERTEX
  8
T08SSILL
 62
3
 10
413.087
 20
-1479.706
 30
4437.591
 70
    32
  0
VERTEX
  8
T08SSILL
 62
3
 10
410.653
 20
-1479.078
 30
4437.598
 70
    32
  0
VERTEX
  8
T08SSILL
 62
3
 10
407.071
 20
-1474.362
 30
4437.652
 70
    32
  0
VERTEX
  8
T08SSILL
 62
3
 10
402.396
 20
-1462.134
 30
4437.755
 70
    32
  0
VERTEX
  8
T08SSILL
 62
3
 10
396.040
 20
-1437.450
 30
4437.942
 70
    32
  0
VERTEX
  8
T08SSILL
 62
3
 10
395.721
 20
-1428.213
 30
4437.996
 70
    32
  0
VERTEX
  8
T08SSILL
 62
3
 10
405.916
 20
-1417.480
 30
4437.981
 70
    32
  0
VERTEX
  8
T08SSILL
 62
3
 10
408.688
 20
-1412.061
 30
4437.991
 70
    32
  0
VERTEX
  8
T08SSILL
 62
3
 10
436.764
 20
-1391.703
 30
4437.898
 70
    32
  0
VERTEX
  8
T08SSILL
 62
3
 10
455.339
 20
-1371.655
 30
4437.873
 70
    32
  0
VERTEX
  8
T08SSILL
 62
3
 10
461.789
 20
-1374.997
 30
4437.806
 70
    32
  0
VERTEX
  8
T08SSILL
 62
3
 10
476.706
 20
-1388.089
 30
4437.622
 70
    32
  0
VERTEX
  8
T08SSILL
 62
3
 10
479.640
 20
-1389.353
 30
4437.593
 70
    32
  0
VERTEX
  8
T08SSILL
 62
3
 10
484.448
 20
-1402.640
 30
4437.482
 70
    32
  0
VERTEX
  8
T08SSILL
 62
3
 10
493.602
 20
-1408.554
 30
4437.381
 70
    32
  0
VERTEX
  8
T08SSILL
 62
3
 10
499.303
 20
-1415.115
 30
4437.302
 70
    32
  0
VERTEX
  8
T08SSILL
 62
3
 10
495.275
 20
-1423.293
 30
4437.286
 70
    32
  0
VERTEX
  8
T08SSILL
 62
3
 10
465.957
 20
-1443.950
 30
4437.386
 70
    32
  0
VERTEX
  8
T08SSILL
 62
3
 10
455.577
 20
-1429.465
 30
4437.545
 70
    32
  0
SEQEND
  8
T08SSILL
  0
POLYLINE
  8
T08SSILL
 62
3
 66
     1
 70
     9
  0
VERTEX
  8
T08SSILL
 62
3
 10
575.916
 20
-1478.077
 30
4437.313
 70
    32
  0
VERTEX
  8
T08SSILL
 62
3
 10
570.998
 20
-1480.262
 30
4437.329
 70
    32
  0
VERTEX
  8
T08SSILL
 62
3
 10
578.939
 20
-1494.401
 30
4437.366
 70
    32
  0
VERTEX
  8
T08SSILL
 62
3
 10
603.340
 20
-1482.148
 30
4437.282
 70
    32
  0
VERTEX
  8
T08SSILL
 62
3
 10
593.717
 20
-1468.485
 30
4437.250
 70
    32
  0
VERTEX
  8
T08SSILL
 62
3
 10
582.509
 20
-1457.040
 30
4437.228
 70
    32
  0
VERTEX
  8
T08SSILL
 62
3
 10
579.423
 20
-1446.722
 30
4437.196
 70
    32
  0
VERTEX
  8
T08SSILL
 62
3
 10
585.834
 20
-1440.400
 30
4437.163
 70
    32
  0
VERTEX
  8
T08SSILL
 62
3
 10
587.463
 20
-1437.130
 30
4437.149
 70
    32
  0
VERTEX
  8
T08SSILL
 62
3
 10
566.553
 20
-1407.538
 30
4437.078
 70
    32
  0
VERTEX
  8
T08SSILL
 62
3
 10
562.680
 20
-1405.621
 30
4437.078
 70
    32
  0
VERTEX
  8
T08SSILL
 62
3
 10
556.271
 20
-1407.639
 30
4437.096
 70
    32
  0
VERTEX
  8
T08SSILL
 62
3
 10
550.565
 20
-1411.794
 30
4437.120
 70
    32
  0
VERTEX
  8
T08SSILL
 62
3
 10
535.396
 20
-1419.598
 30
4437.173
 70
    32
  0
VERTEX
  8
T08SSILL
 62
3
 10
529.478
 20
-1424.623
 30
4437.201
 70
    32
  0
VERTEX
  8
T08SSILL
 62
3
 10
528.986
 20
-1430.137
 30
4437.221
 70
    32
  0
VERTEX
  8
T08SSILL
 62
3
 10
530.565
 20
-1434.419
 30
4437.234
 70
    32
  0
VERTEX
  8
T08SSILL
 62
3
 10
542.980
 20
-1450.658
 30
4437.271
 70
    32
  0
VERTEX
  8
T08SSILL
 62
3
 10
547.033
 20
-1452.495
 30
4437.271
 70
    32
  0
VERTEX
  8
T08SSILL
 62
3
 10
550.341
 20
-1457.463
 30
4437.283
 70
    32
  0
VERTEX
  8
T08SSILL
 62
3
 10
565.762
 20
-1466.887
 30
4437.291
 70
    32
  0
VERTEX
  8
T08SSILL
 62
3
 10
569.759
 20
-1475.427
 30
4437.314
 70
    32
  0
VERTEX
  8
T08SSILL
 62
3
 10
573.594
 20
-1473.435
 30
4437.301
 70
    32
  0
SEQEND
  8
T08SSILL
  0
POLYLINE
  8
T08SSILL
 62
3
 66
     1
 70
     9
  0
VERTEX
  8
T08SSILL
 62
3
 10
314.363
 20
-1487.911
 30
4438.263
 70
    32
  0
VERTEX
  8
T08SSILL
 62
3
 10
314.607
 20
-1484.144
 30
4438.282
 70
    32
  0
VERTEX
  8
T08SSILL
 62
3
 10
325.515
 20
-1473.177
 30
4438.263
 70
    32
  0
VERTEX
  8
T08SSILL
 62
3
 10
340.767
 20
-1463.356
 30
4438.205
 70
    32
  0
VERTEX
  8
T08SSILL
 62
3
 10
356.560
 20
-1451.098
 30
4438.157
 70
    32
  0
VERTEX
  8
T08SSILL
 62
3
 10
368.595
 20
-1444.745
 30
4438.104
 70
    32
  0
VERTEX
  8
T08SSILL
 62
3
 10
372.903
 20
-1446.768
 30
4438.061
 70
    32
  0
VERTEX
  8
T08SSILL
 62
3
 10
375.041
 20
-1450.283
 30
4438.025
 70
    32
  0
VERTEX
  8
T08SSILL
 62
3
 10
376.421
 20
-1461.496
 30
4437.951
 70
    32
  0
VERTEX
  8
T08SSILL
 62
3
 10
384.827
 20
-1489.691
 30
4437.730
 70
    32
  0
VERTEX
  8
T08SSILL
 62
3
 10
385.106
 20
-1497.784
 30
4437.702
 70
    32
  0
VERTEX
  8
T08SSILL
 62
3
 10
383.404
 20
-1502.808
 30
4437.723
 70
    32
  0
VERTEX
  8
T08SSILL
 62
3
 10
335.236
 20
-1537.441
 30
4437.926
 70
    32
  0
VERTEX
  8
T08SSILL
 62
3
 10
317.960
 20
-1513.447
 30
4438.092
 70
    32
  0
VERTEX
  8
T08SSILL
 62
3
 10
322.943
 20
-1509.788
 30
4438.076
 70
    32
  0
VERTEX
  8
T08SSILL
 62
3
 10
316.506
 20
-1499.771
 30
4438.180
 70
    32
  0
VERTEX
  8
T08SSILL
 62
3
 10
320.850
 20
-1496.701
 30
4438.165
 70
    32
  0
SEQEND
  8
T08SSILL
  0
POLYLINE
  8
T08SSILL
 62
3
 66
     1
 70
     9
  0
VERTEX
  8
T08SSILL
 62
3
 10
298.408
 20
-1601.533
 30
4438.215
 70
    32
  0
VERTEX
  8
T08SSILL
 62
3
 10
294.216
 20
-1596.703
 30
4438.205
 70
    32
  0
VERTEX
  8
T08SSILL
 62
3
 10
292.406
 20
-1591.621
 30
4438.190
 70
    32
  0
VERTEX
  8
T08SSILL
 62
3
 10
297.674
 20
-1587.447
 30
4438.166
 70
    32
  0
VERTEX
  8
T08SSILL
 62
3
 10
302.377
 20
-1588.433
 30
4438.162
 70
    32
  0
VERTEX
  8
T08SSILL
 62
3
 10
306.802
 20
-1591.867
 30
4438.167
 70
    32
  0
VERTEX
  8
T08SSILL
 62
3
 10
315.563
 20
-1603.035
 30
4438.192
 70
    32
  0
VERTEX
  8
T08SSILL
 62
3
 10
319.821
 20
-1612.610
 30
4438.219
 70
    32
  0
VERTEX
  8
T08SSILL
 62
3
 10
317.634
 20
-1616.648
 30
4438.237
 70
    32
  0
VERTEX
  8
T08SSILL
 62
3
 10
315.942
 20
-1617.193
 30
4438.241
 70
    32
  0
VERTEX
  8
T08SSILL
 62
3
 10
311.901
 20
-1617.201
 30
4438.248
 70
    32
  0
VERTEX
  8
T08SSILL
 62
3
 10
306.877
 20
-1615.499
 30
4438.251
 70
    32
  0
VERTEX
  8
T08SSILL
 62
3
 10
299.278
 20
-1603.853
 30
4438.222
 70
    32
  0
SEQEND
  8
T08SSILL
  0
POLYLINE
  8
T08SSILL
 62
3
 66
     1
 70
     9
  0
VERTEX
  8
T08SSILL
 62
3
 10
532.592
 20
-1752.054
 30
4438.335
 70
    32
  0
VERTEX
  8
T08SSILL
 62
3
 10
523.671
 20
-1740.528
 30
4438.318
 70
    32
  0
VERTEX
  8
T08SSILL
 62
3
 10
518.705
 20
-1737.423
 30
4438.319
 70
    32
  0
VERTEX
  8
T08SSILL
 62
3
 10
515.698
 20
-1737.914
 30
4438.326
 70
    32
  0
VERTEX
  8
T08SSILL
 62
3
 10
504.296
 20
-1745.962
 30
4438.372
 70
    32
  0
VERTEX
  8
T08SSILL
 62
3
 10
499.011
 20
-1754.790
 30
4438.408
 70
    32
  0
VERTEX
  8
T08SSILL
 62
3
 10
500.060
 20
-1759.138
 30
4438.419
 70
    32
  0
VERTEX
  8
T08SSILL
 62
3
 10
504.903
 20
-1767.333
 30
4438.433
 70
    32
  0
VERTEX
  8
T08SSILL
 62
3
 10
511.243
 20
-1771.114
 30
4438.432
 70
    32
  0
VERTEX
  8
T08SSILL
 62
3
 10
531.950
 20
-1756.947
 30
4438.350
 70
    32
  0
VERTEX
  8
T08SSILL
 62
3
 10
532.615
 20
-1753.636
 30
4438.339
 70
    32
  0
SEQEND
  8
T08SSILL
  0
POLYLINE
  8
T08SSILL
 62
3
 66
     1
 70
     9
  0
VERTEX
  8
T08SSILL
 62
3
 10
493.780
 20
-1781.365
 30
4438.496
 70
    32
  0
VERTEX
  8
T08SSILL
 62
3
 10
494.058
 20
-1778.917
 30
4438.488
 70
    32
  0
VERTEX
  8
T08SSILL
 62
3
 10
480.426
 20
-1764.473
 30
4438.473
 70
    32
  0
VERTEX
  8
T08SSILL
 62
3
 10
477.284
 20
-1763.991
 30
4438.478
 70
    32
  0
VERTEX
  8
T08SSILL
 62
3
 10
473.875
 20
-1767.803
 30
4438.496
 70
    32
  0
VERTEX
  8
T08SSILL
 62
3
 10
472.602
 20
-1775.217
 30
4438.520
 70
    32
  0
VERTEX
  8
T08SSILL
 62
3
 10
459.568
 20
-1788.731
 30
4438.585
 70
    32
  0
VERTEX
  8
T08SSILL
 62
3
 10
462.518
 20
-1795.969
 30
4438.600
 70
    32
  0
VERTEX
  8
T08SSILL
 62
3
 10
465.298
 20
-1796.699
 30
4438.597
 70
    32
  0
VERTEX
  8
T08SSILL
 62
3
 10
483.626
 20
-1795.351
 30
4438.557
 70
    32
  0
SEQEND
  8
T08SSILL
  0
POLYLINE
  8
T08SSILL
 62
3
 66
     1
 70
     9
  0
VERTEX
  8
T08SSILL
 62
3
 10
-83.069
 20
-948.418
 30
4440.078
 70
    32
  0
VERTEX
  8
T08SSILL
 62
3
 10
-76.002
 20
-951.698
 30
4440.067
 70
    32
  0
VERTEX
  8
T08SSILL
 62
3
 10
-74.539
 20
-956.678
 30
4440.068
 70
    32
  0
VERTEX
  8
T08SSILL
 62
3
 10
-68.114
 20
-966.958
 30
4440.065
 70
    32
  0
VERTEX
  8
T08SSILL
 62
3
 10
-72.662
 20
-970.722
 30
4440.078
 70
    32
  0
VERTEX
  8
T08SSILL
 62
3
 10
-69.683
 20
-975.150
 30
4440.076
 70
    32
  0
VERTEX
  8
T08SSILL
 62
3
 10
-73.007
 20
-979.053
 30
4440.087
 70
    32
  0
VERTEX
  8
T08SSILL
 62
3
 10
-34.920
 20
-1030.790
 30
4440.057
 70
    32
  0
VERTEX
  8
T08SSILL
 62
3
 10
-39.008
 20
-1034.047
 30
4440.069
 70
    32
  0
VERTEX
  8
T08SSILL
 62
3
 10
-36.212
 20
-1038.643
 30
4440.068
 70
    32
  0
VERTEX
  8
T08SSILL
 62
3
 10
-40.640
 20
-1041.621
 30
4440.080
 70
    32
  0
VERTEX
  8
T08SSILL
 62
3
 10
-37.091
 20
-1047.127
 30
4440.078
 70
    32
  0
VERTEX
  8
T08SSILL
 62
3
 10
-41.548
 20
-1050.807
 30
4440.091
 70
    32
  0
VERTEX
  8
T08SSILL
 62
3
 10
-34.816
 20
-1060.046
 30
4440.086
 70
    32
  0
VERTEX
  8
T08SSILL
 62
3
 10
-39.349
 20
-1063.460
 30
4440.099
 70
    32
  0
VERTEX
  8
T08SSILL
 62
3
 10
-32.840
 20
-1073.832
 30
4440.095
 70
    32
  0
VERTEX
  8
T08SSILL
 62
3
 10
-37.121
 20
-1077.519
 30
4440.108
 70
    32
  0
VERTEX
  8
T08SSILL
 62
3
 10
-30.915
 20
-1086.736
 30
4440.104
 70
    32
  0
VERTEX
  8
T08SSILL
 62
3
 10
-35.120
 20
-1090.691
 30
4440.116
 70
    32
  0
VERTEX
  8
T08SSILL
 62
3
 10
-32.138
 20
-1095.031
 30
4440.114
 70
    32
  0
VERTEX
  8
T08SSILL
 62
3
 10
-27.505
 20
-1091.358
 30
4440.101
 70
    32
  0
VERTEX
  8
T08SSILL
 62
3
 10
-9.297
 20
-1116.182
 30
4440.018
 70
    32
  0
VERTEX
  8
T08SSILL
 62
3
 10
-13.020
 20
-1119.102
 30
4440.031
 70
    32
  0
VERTEX
  8
T08SSILL
 62
3
 10
-6.835
 20
-1128.845
 30
4439.992
 70
    32
  0
VERTEX
  8
T08SSILL
 62
3
 10
-2.506
 20
-1126.126
 30
4439.976
 70
    32
  0
VERTEX
  8
T08SSILL
 62
3
 10
11.736
 20
-1144.900
 30
4439.890
 70
    32
  0
VERTEX
  8
T08SSILL
 62
3
 10
7.276
 20
-1148.668
 30
4439.906
 70
    32
  0
VERTEX
  8
T08SSILL
 62
3
 10
10.686
 20
-1153.289
 30
4439.885
 70
    32
  0
VERTEX
  8
T08SSILL
 62
3
 10
6.317
 20
-1156.973
 30
4439.901
 70
    32
  0
VERTEX
  8
T08SSILL
 62
3
 10
12.530
 20
-1166.015
 30
4439.863
 70
    32
  0
VERTEX
  8
T08SSILL
 62
3
 10
8.669
 20
-1170.159
 30
4439.875
 70
    32
  0
VERTEX
  8
T08SSILL
 62
3
 10
11.808
 20
-1174.945
 30
4439.856
 70
    32
  0
VERTEX
  8
T08SSILL
 62
3
 10
0.556
 20
-1181.506
 30
4439.899
 70
    32
  0
VERTEX
  8
T08SSILL
 62
3
 10
-8.345
 20
-1182.191
 30
4439.939
 70
    32
  0
VERTEX
  8
T08SSILL
 62
3
 10
-12.335
 20
-1180.971
 30
4439.958
 70
    32
  0
VERTEX
  8
T08SSILL
 62
3
 10
-16.650
 20
-1179.123
 30
4439.980
 70
    32
  0
VERTEX
  8
T08SSILL
 62
3
 10
-28.481
 20
-1161.504
 30
4440.053
 70
    32
  0
VERTEX
  8
T08SSILL
 62
3
 10
-81.434
 20
-1010.678
 30
4440.136
 70
    32
  0
VERTEX
  8
T08SSILL
 62
3
 10
-98.047
 20
-960.095
 30
4440.122
 70
    32
  0
SEQEND
  8
T08SSILL
  0
POLYLINE
  8
T08SSILL
 62
3
 66
     1
 70
     9
  0
VERTEX
  8
T08SSILL
 62
3
 10
299.596
 20
-1081.429
 30
4438.680
 70
    32
  0
VERTEX
  8
T08SSILL
 62
3
 10
294.753
 20
-1082.901
 30
4438.693
 70
    32
  0
VERTEX
  8
T08SSILL
 62
3
 10
292.809
 20
-1085.002
 30
4438.701
 70
    32
  0
VERTEX
  8
T08SSILL
 62
3
 10
293.853
 20
-1087.381
 30
4438.701
 70
    32
  0
VERTEX
  8
T08SSILL
 62
3
 10
289.179
 20
-1090.348
 30
4438.716
 70
    32
  0
VERTEX
  8
T08SSILL
 62
3
 10
286.104
 20
-1089.806
 30
4438.722
 70
    32
  0
VERTEX
  8
T08SSILL
 62
3
 10
282.299
 20
-1095.063
 30
4438.738
 70
    32
  0
VERTEX
  8
T08SSILL
 62
3
 10
292.828
 20
-1117.972
 30
4438.742
 70
    32
  0
VERTEX
  8
T08SSILL
 62
3
 10
304.552
 20
-1130.161
 30
4438.731
 70
    32
  0
VERTEX
  8
T08SSILL
 62
3
 10
315.383
 20
-1145.070
 30
4438.725
 70
    32
  0
VERTEX
  8
T08SSILL
 62
3
 10
319.966
 20
-1142.806
 30
4438.711
 70
    32
  0
VERTEX
  8
T08SSILL
 62
3
 10
322.000
 20
-1140.266
 30
4438.703
 70
    32
  0
VERTEX
  8
T08SSILL
 62
3
 10
330.858
 20
-1126.241
 30
4438.665
 70
    32
  0
VERTEX
  8
T08SSILL
 62
3
 10
334.946
 20
-1117.029
 30
4438.644
 70
    32
  0
VERTEX
  8
T08SSILL
 62
3
 10
311.368
 20
-1083.332
 30
4438.656
 70
    32
  0
VERTEX
  8
T08SSILL
 62
3
 10
302.410
 20
-1081.355
 30
4438.674
 70
    32
  0
SEQEND
  8
T08SSILL
  0
POLYLINE
  8
T08SSILL
 62
3
 66
     1
 70
     9
  0
VERTEX
  8
T08SSILL
 62
3
 10
297.825
 20
-1250.667
 30
4438.899
 70
    32
  0
VERTEX
  8
T08SSILL
 62
3
 10
292.533
 20
-1235.695
 30
4438.893
 70
    32
  0
VERTEX
  8
T08SSILL
 62
3
 10
278.155
 20
-1245.738
 30
4438.939
 70
    32
  0
VERTEX
  8
T08SSILL
 62
3
 10
288.716
 20
-1260.706
 30
4438.933
 70
    32
  0
VERTEX
  8
T08SSILL
 62
3
 10
299.918
 20
-1254.281
 30
4438.899
 70
    32
  0
SEQEND
  8
T08SSILL
  0
POLYLINE
  8
T08SSILL
 62
3
 66
     1
 70
     9
  0
VERTEX
  8
T08SSILL
 62
3
 10
272.792
 20
-1227.161
 30
4438.927
 70
    32
  0
VERTEX
  8
T08SSILL
 62
3
 10
273.787
 20
-1239.650
 30
4438.941
 70
    32
  0
VERTEX
  8
T08SSILL
 62
3
 10
290.114
 20
-1226.716
 30
4438.887
 70
    32
  0
VERTEX
  8
T08SSILL
 62
3
 10
286.730
 20
-1217.204
 30
4438.883
 70
    32
  0
VERTEX
  8
T08SSILL
 62
3
 10
282.783
 20
-1215.251
 30
4438.889
 70
    32
  0
VERTEX
  8
T08SSILL
 62
3
 10
271.942
 20
-1221.003
 30
4438.921
 70
    32
  0
VERTEX
  8
T08SSILL
 62
3
 10
260.382
 20
-1229.828
 30
4438.959
 70
    32
  0
VERTEX
  8
T08SSILL
 62
3
 10
249.426
 20
-1241.293
 30
4438.999
 70
    32
  0
VERTEX
  8
T08SSILL
 62
3
 10
236.588
 20
-1247.987
 30
4439.037
 70
    32
  0
VERTEX
  8
T08SSILL
 62
3
 10
246.701
 20
-1259.656
 30
4439.029
 70
    32
  0
VERTEX
  8
T08SSILL
 62
3
 10
266.997
 20
-1243.926
 30
4438.962
 70
    32
  0
VERTEX
  8
T08SSILL
 62
3
 10
266.202
 20
-1227.130
 30
4438.943
 70
    32
  0
SEQEND
  8
T08SSILL
  0
POLYLINE
  8
T08SSILL
 62
3
 66
     1
 70
     9
  0
VERTEX
  8
T08SSILL
 62
3
 10
100.932
 20
-1355.907
 30
4439.488
 70
    32
  0
VERTEX
  8
T08SSILL
 62
3
 10
105.291
 20
-1356.702
 30
4439.479
 70
    32
  0
VERTEX
  8
T08SSILL
 62
3
 10
149.202
 20
-1325.046
 30
4439.337
 70
    32
  0
VERTEX
  8
T08SSILL
 62
3
 10
145.858
 20
-1320.540
 30
4439.339
 70
    32
  0
VERTEX
  8
T08SSILL
 62
3
 10
151.086
 20
-1317.063
 30
4439.323
 70
    32
  0
VERTEX
  8
T08SSILL
 62
3
 10
139.967
 20
-1302.570
 30
4439.330
 70
    32
  0
VERTEX
  8
T08SSILL
 62
3
 10
144.437
 20
-1298.519
 30
4439.314
 70
    32
  0
VERTEX
  8
T08SSILL
 62
3
 10
127.771
 20
-1275.063
 30
4439.323
 70
    32
  0
VERTEX
  8
T08SSILL
 62
3
 10
131.895
 20
-1270.904
 30
4439.308
 70
    32
  0
VERTEX
  8
T08SSILL
 62
3
 10
108.878
 20
-1239.156
 30
4439.344
 70
    32
  0
VERTEX
  8
T08SSILL
 62
3
 10
103.456
 20
-1242.079
 30
4439.365
 70
    32
  0
VERTEX
  8
T08SSILL
 62
3
 10
86.911
 20
-1257.644
 30
4439.423
 70
    32
  0
VERTEX
  8
T08SSILL
 62
3
 10
75.881
 20
-1280.026
 30
4439.449
 70
    32
  0
VERTEX
  8
T08SSILL
 62
3
 10
72.226
 20
-1291.909
 30
4439.473
 70
    32
  0
VERTEX
  8
T08SSILL
 62
3
 10
73.425
 20
-1296.878
 30
4439.476
 70
    32
  0
VERTEX
  8
T08SSILL
 62
3
 10
71.110
 20
-1301.877
 30
4439.488
 70
    32
  0
VERTEX
  8
T08SSILL
 62
3
 10
70.979
 20
-1305.034
 30
4439.492
 70
    32
  0
SEQEND
  8
T08SSILL
  0
POLYLINE
  8
T08SSILL
 62
3
 66
     1
 70
     9
  0
VERTEX
  8
T08SSILL
 62
3
 10
-94.654
 20
-880.387
 30
4440.036
 70
    32
  0
VERTEX
  8
T08SSILL
 62
3
 10
-100.179
 20
-880.158
 30
4440.048
 70
    32
  0
VERTEX
  8
T08SSILL
 62
3
 10
-109.466
 20
-883.813
 30
4440.071
 70
    32
  0
VERTEX
  8
T08SSILL
 62
3
 10
-117.247
 20
-889.288
 30
4440.093
 70
    32
  0
VERTEX
  8
T08SSILL
 62
3
 10
-120.246
 20
-895.928
 30
4440.106
 70
    32
  0
VERTEX
  8
T08SSILL
 62
3
 10
-120.300
 20
-899.352
 30
4440.109
 70
    32
  0
VERTEX
  8
T08SSILL
 62
3
 10
-101.878
 20
-948.692
 30
4440.119
 70
    32
  0
VERTEX
  8
T08SSILL
 62
3
 10
-99.189
 20
-949.507
 30
4440.114
 70
    32
  0
VERTEX
  8
T08SSILL
 62
3
 10
-86.830
 20
-941.674
 30
4440.080
 70
    32
  0
VERTEX
  8
T08SSILL
 62
3
 10
-84.642
 20
-937.636
 30
4440.071
 70
    32
  0
VERTEX
  8
T08SSILL
 62
3
 10
-84.570
 20
-933.774
 30
4440.067
 70
    32
  0
VERTEX
  8
T08SSILL
 62
3
 10
-79.784
 20
-930.634
 30
4440.054
 70
    32
  0
VERTEX
  8
T08SSILL
 62
3
 10
-90.255
 20
-916.233
 30
4440.062
 70
    32
  0
VERTEX
  8
T08SSILL
 62
3
 10
-85.356
 20
-912.483
 30
4440.048
 70
    32
  0
VERTEX
  8
T08SSILL
 62
3
 10
-93.053
 20
-903.204
 30
4440.055
 70
    32
  0
VERTEX
  8
T08SSILL
 62
3
 10
-87.785
 20
-899.031
 30
4440.040
 70
    32
  0
VERTEX
  8
T08SSILL
 62
3
 10
-97.693
 20
-883.774
 30
4440.046
 70
    32
  0
SEQEND
  8
T08SSILL
  0
POLYLINE
  8
T08SSILL
 62
3
 66
     1
 70
     9
  0
VERTEX
  8
T08SSILL
 62
3
 10
-130.259
 20
-868.369
 30
4440.100
 70
    32
  0
VERTEX
  8
T08SSILL
 62
3
 10
-126.259
 20
-882.063
 30
4440.105
 70
    32
  0
VERTEX
  8
T08SSILL
 62
3
 10
-114.545
 20
-881.319
 30
4440.079
 70
    32
  0
VERTEX
  8
T08SSILL
 62
3
 10
-105.963
 20
-877.722
 30
4440.058
 70
    32
  0
VERTEX
  8
T08SSILL
 62
3
 10
-101.601
 20
-874.213
 30
4440.045
 70
    32
  0
VERTEX
  8
T08SSILL
 62
3
 10
-100.363
 20
-871.893
 30
4440.040
 70
    32
  0
VERTEX
  8
T08SSILL
 62
3
 10
-104.460
 20
-864.783
 30
4440.042
 70
    32
  0
VERTEX
  8
T08SSILL
 62
3
 10
-121.503
 20
-846.445
 30
4440.060
 70
    32
  0
VERTEX
  8
T08SSILL
 62
3
 10
-137.990
 20
-857.357
 30
4440.105
 70
    32
  0
SEQEND
  8
T08SSILL
  0
POLYLINE
  8
T08SSILL
 62
3
 66
     1
 70
     9
  0
VERTEX
  8
T08SSILL
 62
3
 10
-52.527
 20
-897.060
 30
4439.963
 70
    32
  0
VERTEX
  8
T08SSILL
 62
3
 10
-54.574
 20
-902.414
 30
4439.973
 70
    32
  0
VERTEX
  8
T08SSILL
 62
3
 10
-61.533
 20
-905.194
 30
4439.990
 70
    32
  0
VERTEX
  8
T08SSILL
 62
3
 10
-72.468
 20
-912.000
 30
4440.020
 70
    32
  0
VERTEX
  8
T08SSILL
 62
3
 10
-74.959
 20
-918.230
 30
4440.032
 70
    32
  0
VERTEX
  8
T08SSILL
 62
3
 10
-71.027
 20
-923.436
 30
4440.028
 70
    32
  0
VERTEX
  8
T08SSILL
 62
3
 10
-68.829
 20
-923.447
 30
4440.024
 70
    32
  0
VERTEX
  8
T08SSILL
 62
3
 10
-36.549
 20
-901.972
 30
4439.934
 70
    32
  0
VERTEX
  8
T08SSILL
 62
3
 10
-36.448
 20
-899.335
 30
4439.931
 70
    32
  0
VERTEX
  8
T08SSILL
 62
3
 10
-38.190
 20
-895.897
 30
4439.932
 70
    32
  0
VERTEX
  8
T08SSILL
 62
3
 10
-40.388
 20
-895.711
 30
4439.936
 70
    32
  0
VERTEX
  8
T08SSILL
 62
3
 10
-44.356
 20
-898.154
 30
4439.947
 70
    32
  0
VERTEX
  8
T08SSILL
 62
3
 10
-47.786
 20
-898.577
 30
4439.955
 70
    32
  0
VERTEX
  8
T08SSILL
 62
3
 10
-48.661
 20
-897.518
 30
4439.955
 70
    32
  0
SEQEND
  8
T08SSILL
  0
POLYLINE
  8
T08SSILL
 62
3
 66
     1
 70
     9
  0
VERTEX
  8
T08SSILL
 62
3
 10
761.377
 20
-1424.751
 30
4437.029
 70
    32
  0
VERTEX
  8
T08SSILL
 62
3
 10
684.049
 20
-1319.472
 30
4437.046
 70
    32
  0
VERTEX
  8
T08SSILL
 62
3
 10
675.206
 20
-1318.754
 30
4437.045
 70
    32
  0
VERTEX
  8
T08SSILL
 62
3
 10
659.200
 20
-1321.341
 30
4437.040
 70
    32
  0
VERTEX
  8
T08SSILL
 62
3
 10
644.814
 20
-1337.786
 30
4437.032
 70
    32
  0
VERTEX
  8
T08SSILL
 62
3
 10
636.762
 20
-1343.425
 30
4437.029
 70
    32
  0
VERTEX
  8
T08SSILL
 62
3
 10
626.719
 20
-1348.367
 30
4437.025
 70
    32
  0
VERTEX
  8
T08SSILL
 62
3
 10
623.792
 20
-1344.820
 30
4437.025
 70
    32
  0
VERTEX
  8
T08SSILL
 62
3
 10
617.194
 20
-1349.290
 30
4437.022
 70
    32
  0
VERTEX
  8
T08SSILL
 62
3
 10
619.248
 20
-1352.713
 30
4437.022
 70
    32
  0
VERTEX
  8
T08SSILL
 62
3
 10
614.612
 20
-1356.474
 30
4437.020
 70
    32
  0
VERTEX
  8
T08SSILL
 62
3
 10
609.181
 20
-1364.594
 30
4437.016
 70
    32
  0
VERTEX
  8
T08SSILL
 62
3
 10
603.841
 20
-1376.846
 30
4437.011
 70
    32
  0
VERTEX
  8
T08SSILL
 62
3
 10
607.193
 20
-1382.870
 30
4437.010
 70
    32
  0
VERTEX
  8
T08SSILL
 62
3
 10
614.414
 20
-1388.792
 30
4437.009
 70
    32
  0
VERTEX
  8
T08SSILL
 62
3
 10
621.947
 20
-1402.017
 30
4437.013
 70
    32
  0
VERTEX
  8
T08SSILL
 62
3
 10
625.843
 20
-1405.516
 30
4437.015
 70
    32
  0
VERTEX
  8
T08SSILL
 62
3
 10
629.486
 20
-1404.525
 30
4437.015
 70
    32
  0
VERTEX
  8
T08SSILL
 62
3
 10
640.749
 20
-1397.701
 30
4437.012
 70
    32
  0
VERTEX
  8
T08SSILL
 62
3
 10
647.390
 20
-1392.179
 30
4437.015
 70
    32
  0
VERTEX
  8
T08SSILL
 62
3
 10
656.105
 20
-1395.966
 30
4437.016
 70
    32
  0
VERTEX
  8
T08SSILL
 62
3
 10
655.507
 20
-1397.698
 30
4437.015
 70
    32
  0
VERTEX
  8
T08SSILL
 62
3
 10
653.267
 20
-1398.748
 30
4437.014
 70
    32
  0
VERTEX
  8
T08SSILL
 62
3
 10
653.439
 20
-1400.951
 30
4437.014
 70
    32
  0
VERTEX
  8
T08SSILL
 62
3
 10
663.336
 20
-1410.145
 30
4437.019
 70
    32
  0
VERTEX
  8
T08SSILL
 62
3
 10
666.636
 20
-1417.397
 30
4437.024
 70
    32
  0
VERTEX
  8
T08SSILL
 62
3
 10
671.390
 20
-1419.264
 30
4437.025
 70
    32
  0
VERTEX
  8
T08SSILL
 62
3
 10
674.314
 20
-1422.898
 30
4437.028
 70
    32
  0
VERTEX
  8
T08SSILL
 62
3
 10
676.277
 20
-1428.514
 30
4437.032
 70
    32
  0
VERTEX
  8
T08SSILL
 62
3
 10
675.918
 20
-1439.304
 30
4437.040
 70
    32
  0
VERTEX
  8
T08SSILL
 62
3
 10
680.669
 20
-1447.582
 30
4437.046
 70
    32
  0
VERTEX
  8
T08SSILL
 62
3
 10
679.378
 20
-1455.434
 30
4437.060
 70
    32
  0
VERTEX
  8
T08SSILL
 62
3
 10
697.634
 20
-1464.273
 30
4437.061
 70
    32
  0
VERTEX
  8
T08SSILL
 62
3
 10
754.351
 20
-1424.724
 30
4437.029
 70
    32
  0
VERTEX
  8
T08SSILL
 62
3
 10
760.783
 20
-1424.749
 30
4437.029
 70
    32
  0
SEQEND
  8
T08SSILL
  0
POLYLINE
  8
T08SSILL
 62
3
 66
     1
 70
     9
  0
VERTEX
  8
T08SSILL
 62
3
 10
193.467
 20
-1175.967
 30
4439.045
 70
    32
  0
VERTEX
  8
T08SSILL
 62
3
 10
215.680
 20
-1164.027
 30
4438.979
 70
    32
  0
VERTEX
  8
T08SSILL
 62
3
 10
218.929
 20
-1164.922
 30
4438.973
 70
    32
  0
VERTEX
  8
T08SSILL
 62
3
 10
259.509
 20
-1136.013
 30
4438.842
 70
    32
  0
VERTEX
  8
T08SSILL
 62
3
 10
256.456
 20
-1130.811
 30
4438.843
 70
    32
  0
VERTEX
  8
T08SSILL
 62
3
 10
259.906
 20
-1126.520
 30
4438.829
 70
    32
  0
VERTEX
  8
T08SSILL
 62
3
 10
249.299
 20
-1119.963
 30
4438.845
 70
    32
  0
VERTEX
  8
T08SSILL
 62
3
 10
246.132
 20
-1120.300
 30
4438.856
 70
    32
  0
VERTEX
  8
T08SSILL
 62
3
 10
233.875
 20
-1127.979
 30
4438.903
 70
    32
  0
VERTEX
  8
T08SSILL
 62
3
 10
189.930
 20
-1161.707
 30
4439.064
 70
    32
  0
VERTEX
  8
T08SSILL
 62
3
 10
188.844
 20
-1168.384
 30
4439.062
 70
    32
  0
VERTEX
  8
T08SSILL
 62
3
 10
191.293
 20
-1172.400
 30
4439.046
 70
    32
  0
SEQEND
  8
T08SSILL
  0
POLYLINE
  8
T08SSILL
 62
3
 66
     1
 70
     9
  0
VERTEX
  8
T08SSILL
 62
3
 10
192.355
 20
-1150.904
 30
4439.065
 70
    32
  0
VERTEX
  8
T08SSILL
 62
3
 10
185.484
 20
-1153.861
 30
4439.093
 70
    32
  0
VERTEX
  8
T08SSILL
 62
3
 10
177.184
 20
-1142.832
 30
4439.143
 70
    32
  0
VERTEX
  8
T08SSILL
 62
3
 10
173.848
 20
-1141.761
 30
4439.159
 70
    32
  0
VERTEX
  8
T08SSILL
 62
3
 10
172.526
 20
-1142.458
 30
4439.165
 70
    32
  0
VERTEX
  8
T08SSILL
 62
3
 10
173.061
 20
-1140.878
 30
4439.164
 70
    32
  0
VERTEX
  8
T08SSILL
 62
3
 10
235.879
 20
-1094.579
 30
4438.932
 70
    32
  0
VERTEX
  8
T08SSILL
 62
3
 10
246.019
 20
-1107.111
 30
4438.872
 70
    32
  0
VERTEX
  8
T08SSILL
 62
3
 10
246.085
 20
-1111.596
 30
4438.866
 70
    32
  0
VERTEX
  8
T08SSILL
 62
3
 10
206.032
 20
-1140.595
 30
4439.015
 70
    32
  0
SEQEND
  8
T08SSILL
  0
POLYLINE
  8
T08SSILL
 62
3
 66
     1
 70
     9
  0
VERTEX
  8
T08SSILL
 62
3
 10
-2224.053
 20
1944.771
 30
4446.952
 70
    32
  0
VERTEX
  8
T08SSILL
 62
3
 10
-2217.759
 20
1934.723
 30
4446.897
 70
    32
  0
VERTEX
  8
T08SSILL
 62
3
 10
-2211.237
 20
1934.366
 30
4446.865
 70
    32
  0
VERTEX
  8
T08SSILL
 62
3
 10
-1618.924
 20
2236.589
 30
4444.804
 70
    32
  0
VERTEX
  8
T08SSILL
 62
3
 10
-2549.490
 20
2604.468
 30
4450.146
 70
    32
  0
VERTEX
  8
T08SSILL
 62
3
 10
-2562.088
 20
1894.697
 30
4448.434
 70
    32
  0
VERTEX
  8
T08SSILL
 62
3
 10
-2499.942
 20
1788.262
 30
4447.873
 70
    32
  0
VERTEX
  8
T08SSILL
 62
3
 10
-2472.544
 20
1801.647
 30
4447.777
 70
    32
  0
VERTEX
  8
T08SSILL
 62
3
 10
-2474.886
 20
1805.668
 30
4447.798
 70
    32
  0
VERTEX
  8
T08SSILL
 62
3
 10
-2507.438
 20
1837.314
 30
4448.031
 70
    32
  0
VERTEX
  8
T08SSILL
 62
3
 10
-2509.831
 20
1852.344
 30
4448.080
 70
    32
  0
VERTEX
  8
T08SSILL
 62
3
 10
-2504.588
 20
1855.582
 30
4448.063
 70
    32
  0
VERTEX
  8
T08SSILL
 62
3
 10
-2496.797
 20
1859.381
 30
4448.036
 70
    32
  0
VERTEX
  8
T08SSILL
 62
3
 10
-2495.532
 20
1856.842
 30
4448.024
 70
    32
  0
VERTEX
  8
T08SSILL
 62
3
 10
-2485.066
 20
1851.163
 30
4447.960
 70
    32
  0
VERTEX
  8
T08SSILL
 62
3
 10
-2476.692
 20
1850.653
 30
4447.919
 70
    32
  0
VERTEX
  8
T08SSILL
 62
3
 10
-2470.953
 20
1835.753
 30
4447.854
 70
    32
  0
VERTEX
  8
T08SSILL
 62
3
 10
-2465.304
 20
1834.768
 30
4447.825
 70
    32
  0
VERTEX
  8
T08SSILL
 62
3
 10
-2462.092
 20
1831.550
 30
4447.801
 70
    32
  0
VERTEX
  8
T08SSILL
 62
3
 10
-2453.177
 20
1830.079
 30
4447.755
 70
    32
  0
VERTEX
  8
T08SSILL
 62
3
 10
-2450.665
 20
1819.541
 30
4447.717
 70
    32
  0
VERTEX
  8
T08SSILL
 62
3
 10
-2447.435
 20
1814.914
 30
4447.690
 70
    32
  0
VERTEX
  8
T08SSILL
 62
3
 10
-2222.883
 20
1929.020
 30
4446.907
 70
    32
  0
VERTEX
  8
T08SSILL
 62
3
 10
-2231.227
 20
1940.981
 30
4446.977
 70
    32
  0
SEQEND
  8
T08SSILL
  0
POLYLINE
  8
T08SSILL
 62
3
 66
     1
 70
     9
  0
VERTEX
  8
T08SSILL
 62
3
 10
339.794
 20
-1705.058
 30
4438.514
 70
    32
  0
VERTEX
  8
T08SSILL
 62
3
 10
327.988
 20
-1703.778
 30
4438.529
 70
    32
  0
VERTEX
  8
T08SSILL
 62
3
 10
316.861
 20
-1698.837
 30
4438.530
 70
    32
  0
VERTEX
  8
T08SSILL
 62
3
 10
249.625
 20
-1614.970
 30
4438.344
 70
    32
  0
VERTEX
  8
T08SSILL
 62
3
 10
274.569
 20
-1595.977
 30
4438.235
 70
    32
  0
VERTEX
  8
T08SSILL
 62
3
 10
277.731
 20
-1600.236
 30
4438.245
 70
    32
  0
VERTEX
  8
T08SSILL
 62
3
 10
277.754
 20
-1603.927
 30
4438.258
 70
    32
  0
VERTEX
  8
T08SSILL
 62
3
 10
320.760
 20
-1662.017
 30
4438.393
 70
    32
  0
VERTEX
  8
T08SSILL
 62
3
 10
327.016
 20
-1667.898
 30
4438.403
 70
    32
  0
VERTEX
  8
T08SSILL
 62
3
 10
339.090
 20
-1675.426
 30
4438.410
 70
    32
  0
VERTEX
  8
T08SSILL
 62
3
 10
344.513
 20
-1682.327
 30
4438.425
 70
    32
  0
VERTEX
  8
T08SSILL
 62
3
 10
349.682
 20
-1691.150
 30
4438.448
 70
    32
  0
VERTEX
  8
T08SSILL
 62
3
 10
348.693
 20
-1695.940
 30
4438.466
 70
    32
  0
SEQEND
  8
T08SSILL
  0
POLYLINE
  8
T08SSILL
 62
3
 66
     1
 70
     9
  0
VERTEX
  8
T08SSILL
 62
3
 10
482.652
 20
-1371.665
 30
4437.671
 70
    32
  0
VERTEX
  8
T08SSILL
 62
3
 10
500.343
 20
-1397.546
 30
4437.393
 70
    32
  0
VERTEX
  8
T08SSILL
 62
3
 10
508.865
 20
-1406.708
 30
4437.278
 70
    32
  0
VERTEX
  8
T08SSILL
 62
3
 10
512.892
 20
-1408.262
 30
4437.240
 70
    32
  0
VERTEX
  8
T08SSILL
 62
3
 10
519.547
 20
-1393.059
 30
4437.276
 70
    32
  0
VERTEX
  8
T08SSILL
 62
3
 10
508.244
 20
-1397.253
 30
4437.336
 70
    32
  0
VERTEX
  8
T08SSILL
 62
3
 10
505.955
 20
-1396.522
 30
4437.357
 70
    32
  0
VERTEX
  8
T08SSILL
 62
3
 10
497.088
 20
-1383.357
 30
4437.498
 70
    32
  0
VERTEX
  8
T08SSILL
 62
3
 10
496.947
 20
-1379.007
 30
4437.523
 70
    32
  0
VERTEX
  8
T08SSILL
 62
3
 10
500.348
 20
-1375.105
 30
4437.520
 70
    32
  0
VERTEX
  8
T08SSILL
 62
3
 10
500.395
 20
-1371.707
 30
4437.539
 70
    32
  0
VERTEX
  8
T08SSILL
 62
3
 10
491.539
 20
-1368.737
 30
4437.621
 70
    32
  0
SEQEND
  8
T08SSILL
  0
POLYLINE
  8
T08SSILL
 62
3
 66
     1
 70
     9
  0
VERTEX
  8
T08SSILL
 62
3
 10
582.809
 20
-1798.380
 30
4438.371
 70
    32
  0
VERTEX
  8
T08SSILL
 62
3
 10
580.707
 20
-1800.577
 30
4438.382
 70
    32
  0
VERTEX
  8
T08SSILL
 62
3
 10
585.944
 20
-1810.029
 30
4438.399
 70
    32
  0
VERTEX
  8
T08SSILL
 62
3
 10
600.491
 20
-1807.148
 30
4438.362
 70
    32
  0
VERTEX
  8
T08SSILL
 62
3
 10
617.196
 20
-1797.472
 30
4438.301
 70
    32
  0
VERTEX
  8
T08SSILL
 62
3
 10
620.448
 20
-1794.727
 30
4438.287
 70
    32
  0
VERTEX
  8
T08SSILL
 62
3
 10
620.403
 20
-1790.628
 30
4438.275
 70
    32
  0
VERTEX
  8
T08SSILL
 62
3
 10
611.470
 20
-1779.422
 30
4438.260
 70
    32
  0
SEQEND
  8
T08SSILL
  0
POLYLINE
  8
T08SSILL
 62
3
 66
     1
 70
     9
  0
VERTEX
  8
T08SSILL
 62
3
 10
1120.280
 20
-2017.937
 30
4437.959
 70
    32
  0
VERTEX
  8
T08SSILL
 62
3
 10
1131.079
 20
-2015.251
 30
4437.930
 70
    32
  0
VERTEX
  8
T08SSILL
 62
3
 10
1127.087
 20
-2009.849
 30
4437.922
 70
    32
  0
VERTEX
  8
T08SSILL
 62
3
 10
1126.847
 20
-2001.552
 30
4437.898
 70
    32
  0
VERTEX
  8
T08SSILL
 62
3
 10
1123.009
 20
-1993.100
 30
4437.881
 70
    32
  0
VERTEX
  8
T08SSILL
 62
3
 10
1111.568
 20
-1989.738
 30
4437.894
 70
    32
  0
VERTEX
  8
T08SSILL
 62
3
 10
1114.758
 20
-1996.389
 30
4437.907
 70
    32
  0
VERTEX
  8
T08SSILL
 62
3
 10
1115.950
 20
-2003.388
 30
4437.925
 70
    32
  0
VERTEX
  8
T08SSILL
 62
3
 10
1112.095
 20
-2008.181
 30
4437.947
 70
    32
  0
VERTEX
  8
T08SSILL
 62
3
 10
1109.196
 20
-2008.977
 30
4437.955
 70
    32
  0
VERTEX
  8
T08SSILL
 62
3
 10
1114.431
 20
-2019.230
 30
4437.974
 70
    32
  0
SEQEND
  8
T08SSILL
  0
POLYLINE
  8
T08SSILL
 62
3
 66
     1
 70
     9
  0
VERTEX
  8
T08SSILL
 62
3
 10
682.685
 20
-2071.247
 30
4438.971
 70
    32
  0
VERTEX
  8
T08SSILL
 62
3
 10
672.577
 20
-2055.859
 30
4438.946
 70
    32
  0
VERTEX
  8
T08SSILL
 62
3
 10
667.653
 20
-2059.112
 30
4438.965
 70
    32
  0
VERTEX
  8
T08SSILL
 62
3
 10
660.972
 20
-2050.494
 30
4438.953
 70
    32
  0
VERTEX
  8
T08SSILL
 62
3
 10
680.581
 20
-2035.551
 30
4438.871
 70
    32
  0
VERTEX
  8
T08SSILL
 62
3
 10
677.505
 20
-2030.715
 30
4438.863
 70
    32
  0
VERTEX
  8
T08SSILL
 62
3
 10
711.886
 20
-2006.367
 30
4438.725
 70
    32
  0
VERTEX
  8
T08SSILL
 62
3
 10
708.809
 20
-2002.147
 30
4438.719
 70
    32
  0
VERTEX
  8
T08SSILL
 62
3
 10
663.789
 20
-2032.471
 30
4438.895
 70
    32
  0
VERTEX
  8
T08SSILL
 62
3
 10
656.845
 20
-2023.414
 30
4438.883
 70
    32
  0
VERTEX
  8
T08SSILL
 62
3
 10
652.624
 20
-2026.139
 30
4438.899
 70
    32
  0
VERTEX
  8
T08SSILL
 62
3
 10
645.768
 20
-2017.258
 30
4438.886
 70
    32
  0
VERTEX
  8
T08SSILL
 62
3
 10
640.756
 20
-2020.422
 30
4438.905
 70
    32
  0
VERTEX
  8
T08SSILL
 62
3
 10
626.780
 20
-2000.638
 30
4438.875
 70
    32
  0
VERTEX
  8
T08SSILL
 62
3
 10
622.208
 20
-2003.890
 30
4438.893
 70
    32
  0
VERTEX
  8
T08SSILL
 62
3
 10
612.012
 20
-1989.733
 30
4438.872
 70
    32
  0
VERTEX
  8
T08SSILL
 62
3
 10
616.936
 20
-1986.217
 30
4438.852
 70
    32
  0
VERTEX
  8
T08SSILL
 62
3
 10
613.684
 20
-1981.205
 30
4438.844
 70
    32
  0
VERTEX
  8
T08SSILL
 62
3
 10
623.532
 20
-1974.877
 30
4438.806
 70
    32
  0
VERTEX
  8
T08SSILL
 62
3
 10
626.257
 20
-1978.921
 30
4438.813
 70
    32
  0
VERTEX
  8
T08SSILL
 62
3
 10
679.543
 20
-1941.125
 30
4438.598
 70
    32
  0
VERTEX
  8
T08SSILL
 62
3
 10
676.554
 20
-1936.553
 30
4438.591
 70
    32
  0
VERTEX
  8
T08SSILL
 62
3
 10
662.397
 20
-1946.925
 30
4438.649
 70
    32
  0
VERTEX
  8
T08SSILL
 62
3
 10
653.871
 20
-1934.878
 30
4438.630
 70
    32
  0
VERTEX
  8
T08SSILL
 62
3
 10
622.568
 20
-1957.205
 30
4438.757
 70
    32
  0
VERTEX
  8
T08SSILL
 62
3
 10
618.259
 20
-1962.479
 30
4438.780
 70
    32
  0
VERTEX
  8
T08SSILL
 62
3
 10
623.093
 20
-1970.481
 30
4438.794
 70
    32
  0
VERTEX
  8
T08SSILL
 62
3
 10
612.541
 20
-1977.161
 30
4438.834
 70
    32
  0
VERTEX
  8
T08SSILL
 62
3
 10
606.916
 20
-1969.950
 30
4438.824
 70
    32
  0
VERTEX
  8
T08SSILL
 62
3
 10
573.238
 20
-1992.891
 30
4438.957
 70
    32
  0
VERTEX
  8
T08SSILL
 62
3
 10
573.764
 20
-2003.969
 30
4438.988
 70
    32
  0
VERTEX
  8
T08SSILL
 62
3
 10
632.834
 20
-2071.063
 30
4439.068
 70
    32
  0
VERTEX
  8
T08SSILL
 62
3
 10
654.461
 20
-2081.177
 30
4439.056
 70
    32
  0
VERTEX
  8
T08SSILL
 62
3
 10
665.714
 20
-2082.674
 30
4439.038
 70
    32
  0
SEQEND
  8
T08SSILL
  0
POLYLINE
  8
T08SSILL
 62
3
 66
     1
 70
     9
  0
VERTEX
  8
T08SSILL
 62
3
 10
726.931
 20
-1942.628
 30
4438.510
 70
    32
  0
VERTEX
  8
T08SSILL
 62
3
 10
714.099
 20
-1918.096
 30
4438.463
 70
    32
  0
VERTEX
  8
T08SSILL
 62
3
 10
707.685
 20
-1895.148
 30
4438.409
 70
    32
  0
VERTEX
  8
T08SSILL
 62
3
 10
698.017
 20
-1877.826
 30
4438.377
 70
    32
  0
VERTEX
  8
T08SSILL
 62
3
 10
699.688
 20
-1875.541
 30
4438.367
 70
    32
  0
VERTEX
  8
T08SSILL
 62
3
 10
697.139
 20
-1870.793
 30
4438.359
 70
    32
  0
VERTEX
  8
T08SSILL
 62
3
 10
721.056
 20
-1852.949
 30
4438.260
 70
    32
  0
VERTEX
  8
T08SSILL
 62
3
 10
717.804
 20
-1847.585
 30
4438.250
 70
    32
  0
VERTEX
  8
T08SSILL
 62
3
 10
722.113
 20
-1844.421
 30
4438.233
 70
    32
  0
VERTEX
  8
T08SSILL
 62
3
 10
712.005
 20
-1829.561
 30
4438.209
 70
    32
  0
VERTEX
  8
T08SSILL
 62
3
 10
716.401
 20
-1826.396
 30
4438.191
 70
    32
  0
VERTEX
  8
T08SSILL
 62
3
 10
696.448
 20
-1797.731
 30
4438.147
 70
    32
  0
VERTEX
  8
T08SSILL
 62
3
 10
700.317
 20
-1794.567
 30
4438.130
 70
    32
  0
VERTEX
  8
T08SSILL
 62
3
 10
698.449
 20
-1791.859
 30
4438.126
 70
    32
  0
VERTEX
  8
T08SSILL
 62
3
 10
700.273
 20
-1790.454
 30
4438.118
 70
    32
  0
VERTEX
  8
T08SSILL
 62
3
 10
694.396
 20
-1781.777
 30
4438.104
 70
    32
  0
VERTEX
  8
T08SSILL
 62
3
 10
696.946
 20
-1779.599
 30
4438.093
 70
    32
  0
VERTEX
  8
T08SSILL
 62
3
 10
700.743
 20
-1783.358
 30
4438.097
 70
    32
  0
VERTEX
  8
T08SSILL
 62
3
 10
705.638
 20
-1779.696
 30
4438.076
 70
    32
  0
VERTEX
  8
T08SSILL
 62
3
 10
713.682
 20
-1786.969
 30
4438.082
 70
    32
  0
VERTEX
  8
T08SSILL
 62
3
 10
721.693
 20
-1780.186
 30
4438.046
 70
    32
  0
VERTEX
  8
T08SSILL
 62
3
 10
719.226
 20
-1776.131
 30
4438.039
 70
    32
  0
VERTEX
  8
T08SSILL
 62
3
 10
723.617
 20
-1771.921
 30
4438.018
 70
    32
  0
VERTEX
  8
T08SSILL
 62
3
 10
713.486
 20
-1759.906
 30
4438.003
 70
    32
  0
VERTEX
  8
T08SSILL
 62
3
 10
717.417
 20
-1756.204
 30
4437.985
 70
    32
  0
VERTEX
  8
T08SSILL
 62
3
 10
696.559
 20
-1731.709
 30
4437.954
 70
    32
  0
VERTEX
  8
T08SSILL
 62
3
 10
700.742
 20
-1728.281
 30
4437.936
 70
    32
  0
VERTEX
  8
T08SSILL
 62
3
 10
696.843
 20
-1722.761
 30
4437.928
 70
    32
  0
VERTEX
  8
T08SSILL
 62
3
 10
692.835
 20
-1726.196
 30
4437.945
 70
    32
  0
VERTEX
  8
T08SSILL
 62
3
 10
690.913
 20
-1723.833
 30
4437.942
 70
    32
  0
VERTEX
  8
T08SSILL
 62
3
 10
694.997
 20
-1720.664
 30
4437.925
 70
    32
  0
VERTEX
  8
T08SSILL
 62
3
 10
685.381
 20
-1706.825
 30
4437.904
 70
    32
  0
VERTEX
  8
T08SSILL
 62
3
 10
689.820
 20
-1703.584
 30
4437.885
 70
    32
  0
VERTEX
  8
T08SSILL
 62
3
 10
708.073
 20
-1695.556
 30
4437.826
 70
    32
  0
VERTEX
  8
T08SSILL
 62
3
 10
722.157
 20
-1690.606
 30
4437.784
 70
    32
  0
VERTEX
  8
T08SSILL
 62
3
 10
730.417
 20
-1686.293
 30
4437.756
 70
    32
  0
VERTEX
  8
T08SSILL
 62
3
 10
735.624
 20
-1685.718
 30
4437.744
 70
    32
  0
VERTEX
  8
T08SSILL
 62
3
 10
744.896
 20
-1678.197
 30
4437.704
 70
    32
  0
VERTEX
  8
T08SSILL
 62
3
 10
766.715
 20
-1707.035
 30
4437.745
 70
    32
  0
VERTEX
  8
T08SSILL
 62
3
 10
761.611
 20
-1711.479
 30
4437.768
 70
    32
  0
VERTEX
  8
T08SSILL
 62
3
 10
774.973
 20
-1730.305
 30
4437.797
 70
    32
  0
VERTEX
  8
T08SSILL
 62
3
 10
780.651
 20
-1726.851
 30
4437.775
 70
    32
  0
VERTEX
  8
T08SSILL
 62
3
 10
797.678
 20
-1750.484
 30
4437.811
 70
    32
  0
VERTEX
  8
T08SSILL
 62
3
 10
792.856
 20
-1754.500
 30
4437.832
 70
    32
  0
VERTEX
  8
T08SSILL
 62
3
 10
803.152
 20
-1768.894
 30
4437.854
 70
    32
  0
VERTEX
  8
T08SSILL
 62
3
 10
799.250
 20
-1771.894
 30
4437.870
 70
    32
  0
VERTEX
  8
T08SSILL
 62
3
 10
800.202
 20
-1773.601
 30
4437.873
 70
    32
  0
VERTEX
  8
T08SSILL
 62
3
 10
797.601
 20
-1775.347
 30
4437.884
 70
    32
  0
VERTEX
  8
T08SSILL
 62
3
 10
805.136
 20
-1784.652
 30
4437.896
 70
    32
  0
VERTEX
  8
T08SSILL
 62
3
 10
825.245
 20
-1770.532
 30
4437.815
 70
    32
  0
VERTEX
  8
T08SSILL
 62
3
 10
828.288
 20
-1775.484
 30
4437.824
 70
    32
  0
VERTEX
  8
T08SSILL
 62
3
 10
832.279
 20
-1772.752
 30
4437.808
 70
    32
  0
VERTEX
  8
T08SSILL
 62
3
 10
846.353
 20
-1792.306
 30
4437.838
 70
    32
  0
VERTEX
  8
T08SSILL
 62
3
 10
827.008
 20
-1805.491
 30
4437.914
 70
    32
  0
VERTEX
  8
T08SSILL
 62
3
 10
862.079
 20
-1854.644
 30
4437.989
 70
    32
  0
VERTEX
  8
T08SSILL
 62
3
 10
857.507
 20
-1857.897
 30
4438.007
 70
    32
  0
VERTEX
  8
T08SSILL
 62
3
 10
860.056
 20
-1862.908
 30
4438.017
 70
    32
  0
VERTEX
  8
T08SSILL
 62
3
 10
856.099
 20
-1866.073
 30
4438.034
 70
    32
  0
VERTEX
  8
T08SSILL
 62
3
 10
859.351
 20
-1871.261
 30
4438.042
 70
    32
  0
VERTEX
  8
T08SSILL
 62
3
 10
854.603
 20
-1874.777
 30
4438.062
 70
    32
  0
VERTEX
  8
T08SSILL
 62
3
 10
857.767
 20
-1879.349
 30
4438.069
 70
    32
  0
VERTEX
  8
T08SSILL
 62
3
 10
853.458
 20
-1882.074
 30
4438.085
 70
    32
  0
VERTEX
  8
T08SSILL
 62
3
 10
856.710
 20
-1887.701
 30
4438.095
 70
    32
  0
VERTEX
  8
T08SSILL
 62
3
 10
852.050
 20
-1891.129
 30
4438.115
 70
    32
  0
VERTEX
  8
T08SSILL
 62
3
 10
853.631
 20
-1898.339
 30
4438.132
 70
    32
  0
VERTEX
  8
T08SSILL
 62
3
 10
852.398
 20
-1912.142
 30
4438.175
 70
    32
  0
VERTEX
  8
T08SSILL
 62
3
 10
844.922
 20
-1926.911
 30
4438.233
 70
    32
  0
VERTEX
  8
T08SSILL
 62
3
 10
841.139
 20
-1940.714
 30
4438.280
 70
    32
  0
VERTEX
  8
T08SSILL
 62
3
 10
844.739
 20
-1967.354
 30
4438.351
 70
    32
  0
VERTEX
  8
T08SSILL
 62
3
 10
849.572
 20
-1984.939
 30
4438.393
 70
    32
  0
VERTEX
  8
T08SSILL
 62
3
 10
857.923
 20
-1992.854
 30
4438.400
 70
    32
  0
VERTEX
  8
T08SSILL
 62
3
 10
858.186
 20
-1996.107
 30
4438.409
 70
    32
  0
VERTEX
  8
T08SSILL
 62
3
 10
756.109
 20
-2007.254
 30
4438.641
 70
    32
  0
VERTEX
  8
T08SSILL
 62
3
 10
733.259
 20
-1958.367
 30
4438.543
 70
    32
  0
VERTEX
  8
T08SSILL
 62
3
 10
729.303
 20
-1953.355
 30
4438.536
 70
    32
  0
VERTEX
  8
T08SSILL
 62
3
 10
727.898
 20
-1946.145
 30
4438.518
 70
    32
  0
SEQEND
  8
T08SSILL
  0
POLYLINE
  8
T08SSILL
 62
3
 66
     1
 70
     9
  0
VERTEX
  8
T08SSILL
 62
3
 10
1089.140
 20
-1870.041
 30
4437.589
 70
    32
  0
VERTEX
  8
T08SSILL
 62
3
 10
1082.491
 20
-1871.124
 30
4437.605
 70
    32
  0
VERTEX
  8
T08SSILL
 62
3
 10
1083.231
 20
-1877.102
 30
4437.621
 70
    32
  0
VERTEX
  8
T08SSILL
 62
3
 10
1077.655
 20
-1877.981
 30
4437.634
 70
    32
  0
VERTEX
  8
T08SSILL
 62
3
 10
1081.518
 20
-1909.545
 30
4437.719
 70
    32
  0
VERTEX
  8
T08SSILL
 62
3
 10
1076.506
 20
-1910.687
 30
4437.732
 70
    32
  0
VERTEX
  8
T08SSILL
 62
3
 10
1082.742
 20
-1946.911
 30
4437.825
 70
    32
  0
VERTEX
  8
T08SSILL
 62
3
 10
1094.260
 20
-1944.539
 30
4437.796
 70
    32
  0
VERTEX
  8
T08SSILL
 62
3
 10
1096.368
 20
-1956.672
 30
4437.827
 70
    32
  0
VERTEX
  8
T08SSILL
 62
3
 10
1086.344
 20
-1959.484
 30
4437.855
 70
    32
  0
VERTEX
  8
T08SSILL
 62
3
 10
1087.495
 20
-1965.682
 30
4437.871
 70
    32
  0
VERTEX
  8
T08SSILL
 62
3
 10
979.167
 20
-1977.928
 30
4438.119
 70
    32
  0
VERTEX
  8
T08SSILL
 62
3
 10
971.431
 20
-1969.926
 30
4438.111
 70
    32
  0
VERTEX
  8
T08SSILL
 62
3
 10
967.477
 20
-1956.122
 30
4438.078
 70
    32
  0
VERTEX
  8
T08SSILL
 62
3
 10
961.416
 20
-1925.086
 30
4437.999
 70
    32
  0
VERTEX
  8
T08SSILL
 62
3
 10
955.350
 20
-1925.876
 30
4438.014
 70
    32
  0
VERTEX
  8
T08SSILL
 62
3
 10
957.721
 20
-1942.933
 30
4438.059
 70
    32
  0
VERTEX
  8
T08SSILL
 62
3
 10
956.226
 20
-1944.339
 30
4438.066
 70
    32
  0
VERTEX
  8
T08SSILL
 62
3
 10
951.126
 20
-1945.217
 30
4438.078
 70
    32
  0
VERTEX
  8
T08SSILL
 62
3
 10
951.741
 20
-1950.581
 30
4438.093
 70
    32
  0
VERTEX
  8
T08SSILL
 62
3
 10
956.664
 20
-1949.702
 30
4438.080
 70
    32
  0
VERTEX
  8
T08SSILL
 62
3
 10
960.445
 20
-1951.198
 30
4438.077
 70
    32
  0
VERTEX
  8
T08SSILL
 62
3
 10
962.466
 20
-1957.968
 30
4438.093
 70
    32
  0
VERTEX
  8
T08SSILL
 62
3
 10
962.201
 20
-1961.397
 30
4438.104
 70
    32
  0
VERTEX
  8
T08SSILL
 62
3
 10
955.344
 20
-1960.692
 30
4438.115
 70
    32
  0
VERTEX
  8
T08SSILL
 62
3
 10
954.815
 20
-1965.791
 30
4438.131
 70
    32
  0
VERTEX
  8
T08SSILL
 62
3
 10
953.145
 20
-1966.143
 30
4438.135
 70
    32
  0
VERTEX
  8
T08SSILL
 62
3
 10
949.714
 20
-1975.637
 30
4438.170
 70
    32
  0
VERTEX
  8
T08SSILL
 62
3
 10
941.449
 20
-1982.230
 30
4438.205
 70
    32
  0
VERTEX
  8
T08SSILL
 62
3
 10
916.391
 20
-1984.336
 30
4438.260
 70
    32
  0
VERTEX
  8
T08SSILL
 62
3
 10
916.479
 20
-1983.017
 30
4438.256
 70
    32
  0
VERTEX
  8
T08SSILL
 62
3
 10
925.273
 20
-1973.259
 30
4438.211
 70
    32
  0
VERTEX
  8
T08SSILL
 62
3
 10
924.132
 20
-1959.719
 30
4438.173
 70
    32
  0
VERTEX
  8
T08SSILL
 62
3
 10
931.519
 20
-1949.874
 30
4438.130
 70
    32
  0
VERTEX
  8
T08SSILL
 62
3
 10
930.113
 20
-1946.445
 30
4438.123
 70
    32
  0
VERTEX
  8
T08SSILL
 62
3
 10
922.641
 20
-1939.673
 30
4438.118
 70
    32
  0
VERTEX
  8
T08SSILL
 62
3
 10
919.038
 20
-1929.562
 30
4438.095
 70
    32
  0
VERTEX
  8
T08SSILL
 62
3
 10
918.160
 20
-1922.264
 30
4438.076
 70
    32
  0
VERTEX
  8
T08SSILL
 62
3
 10
920.535
 20
-1914.704
 30
4438.049
 70
    32
  0
VERTEX
  8
T08SSILL
 62
3
 10
927.658
 20
-1910.309
 30
4438.022
 70
    32
  0
VERTEX
  8
T08SSILL
 62
3
 10
929.153
 20
-1906.617
 30
4438.009
 70
    32
  0
VERTEX
  8
T08SSILL
 62
3
 10
924.670
 20
-1899.143
 30
4437.996
 70
    32
  0
VERTEX
  8
T08SSILL
 62
3
 10
925.375
 20
-1890.175
 30
4437.968
 70
    32
  0
VERTEX
  8
T08SSILL
 62
3
 10
918.613
 20
-1850.698
 30
4437.866
 70
    32
  0
VERTEX
  8
T08SSILL
 62
3
 10
919.493
 20
-1842.697
 30
4437.841
 70
    32
  0
VERTEX
  8
T08SSILL
 62
3
 10
909.034
 20
-1822.913
 30
4437.804
 70
    32
  0
VERTEX
  8
T08SSILL
 62
3
 10
904.291
 20
-1795.042
 30
4437.732
 70
    32
  0
VERTEX
  8
T08SSILL
 62
3
 10
906.404
 20
-1781.239
 30
4437.688
 70
    32
  0
VERTEX
  8
T08SSILL
 62
3
 10
915.374
 20
-1748.687
 30
4437.575
 70
    32
  0
VERTEX
  8
T08SSILL
 62
3
 10
910.876
 20
-1744.899
 30
4437.573
 70
    32
  0
VERTEX
  8
T08SSILL
 62
3
 10
895.550
 20
-1754.366
 30
4437.631
 70
    32
  0
VERTEX
  8
T08SSILL
 62
3
 10
882.283
 20
-1735.369
 30
4437.601
 70
    32
  0
VERTEX
  8
T08SSILL
 62
3
 10
872.240
 20
-1742.419
 30
4437.641
 70
    32
  0
VERTEX
  8
T08SSILL
 62
3
 10
866.392
 20
-1733.041
 30
4437.626
 70
    32
  0
VERTEX
  8
T08SSILL
 62
3
 10
869.698
 20
-1729.576
 30
4437.609
 70
    32
  0
VERTEX
  8
T08SSILL
 62
3
 10
845.418
 20
-1694.399
 30
4437.554
 70
    32
  0
VERTEX
  8
T08SSILL
 62
3
 10
841.166
 20
-1697.385
 30
4437.571
 70
    32
  0
VERTEX
  8
T08SSILL
 62
3
 10
820.458
 20
-1669.295
 30
4437.530
 70
    32
  0
VERTEX
  8
T08SSILL
 62
3
 10
824.528
 20
-1666.477
 30
4437.513
 70
    32
  0
VERTEX
  8
T08SSILL
 62
3
 10
807.043
 20
-1641.156
 30
4437.474
 70
    32
  0
VERTEX
  8
T08SSILL
 62
3
 10
810.864
 20
-1637.977
 30
4437.457
 70
    32
  0
VERTEX
  8
T08SSILL
 62
3
 10
798.017
 20
-1619.436
 30
4437.428
 70
    32
  0
VERTEX
  8
T08SSILL
 62
3
 10
841.996
 20
-1592.623
 30
4437.264
 70
    32
  0
VERTEX
  8
T08SSILL
 62
3
 10
862.894
 20
-1620.369
 30
4437.304
 70
    32
  0
VERTEX
  8
T08SSILL
 62
3
 10
876.488
 20
-1610.304
 30
4437.248
 70
    32
  0
VERTEX
  8
T08SSILL
 62
3
 10
859.383
 20
-1586.404
 30
4437.212
 70
    32
  0
VERTEX
  8
T08SSILL
 62
3
 10
873.580
 20
-1576.628
 30
4437.155
 70
    32
  0
VERTEX
  8
T08SSILL
 62
3
 10
1019.997
 20
-1776.775
 30
4437.452
 70
    32
  0
SEQEND
  8
T08SSILL
  0
POLYLINE
  8
T08SSILL
 62
3
 66
     1
 70
     9
  0
VERTEX
  8
T08SSILL
 62
3
 10
463.149
 20
-1756.357
 30
4438.483
 70
    32
  0
VERTEX
  8
T08SSILL
 62
3
 10
448.079
 20
-1776.147
 30
4438.570
 70
    32
  0
VERTEX
  8
T08SSILL
 62
3
 10
434.536
 20
-1791.091
 30
4438.640
 70
    32
  0
VERTEX
  8
T08SSILL
 62
3
 10
438.492
 20
-1796.631
 30
4438.649
 70
    32
  0
VERTEX
  8
T08SSILL
 62
3
 10
441.304
 20
-1805.247
 30
4438.668
 70
    32
  0
VERTEX
  8
T08SSILL
 62
3
 10
447.194
 20
-1810.436
 30
4438.672
 70
    32
  0
VERTEX
  8
T08SSILL
 62
3
 10
451.237
 20
-1816.679
 30
4438.682
 70
    32
  0
VERTEX
  8
T08SSILL
 62
3
 10
478.926
 20
-1845.521
 30
4438.712
 70
    32
  0
VERTEX
  8
T08SSILL
 62
3
 10
459.230
 20
-1856.508
 30
4438.783
 70
    32
  0
VERTEX
  8
T08SSILL
 62
3
 10
453.691
 20
-1856.770
 30
4438.794
 70
    32
  0
VERTEX
  8
T08SSILL
 62
3
 10
440.857
 20
-1848.328
 30
4438.795
 70
    32
  0
VERTEX
  8
T08SSILL
 62
3
 10
417.832
 20
-1790.824
 30
4438.672
 70
    32
  0
VERTEX
  8
T08SSILL
 62
3
 10
413.175
 20
-1769.942
 30
4438.621
 70
    32
  0
VERTEX
  8
T08SSILL
 62
3
 10
423.631
 20
-1761.415
 30
4438.574
 70
    32
  0
VERTEX
  8
T08SSILL
 62
3
 10
419.556
 20
-1755.888
 30
4438.561
 70
    32
  0
VERTEX
  8
T08SSILL
 62
3
 10
424.191
 20
-1752.127
 30
4438.540
 70
    32
  0
VERTEX
  8
T08SSILL
 62
3
 10
421.026
 20
-1747.955
 30
4438.530
 70
    32
  0
VERTEX
  8
T08SSILL
 62
3
 10
465.004
 20
-1716.926
 30
4438.347
 70
    32
  0
VERTEX
  8
T08SSILL
 62
3
 10
461.532
 20
-1711.687
 30
4438.334
 70
    32
  0
VERTEX
  8
T08SSILL
 62
3
 10
543.884
 20
-1653.436
 30
4437.990
 70
    32
  0
VERTEX
  8
T08SSILL
 62
3
 10
553.102
 20
-1666.292
 30
4438.020
 70
    32
  0
VERTEX
  8
T08SSILL
 62
3
 10
548.619
 20
-1670.586
 30
4438.043
 70
    32
  0
VERTEX
  8
T08SSILL
 62
3
 10
549.354
 20
-1671.934
 30
4438.046
 70
    32
  0
VERTEX
  8
T08SSILL
 62
3
 10
534.756
 20
-1684.480
 30
4438.115
 70
    32
  0
VERTEX
  8
T08SSILL
 62
3
 10
481.210
 20
-1737.433
 30
4438.393
 70
    32
  0
SEQEND
  8
T08SSILL
  0
POLYLINE
  8
T08SSILL
 62
3
 66
     1
 70
     9
  0
VERTEX
  8
T08SSILL
 62
3
 10
1101.731
 20
-1887.026
 30
4437.614
 70
    32
  0
VERTEX
  8
T08SSILL
 62
3
 10
1146.396
 20
-1947.274
 30
4437.702
 70
    32
  0
VERTEX
  8
T08SSILL
 62
3
 10
1146.482
 20
-1955.978
 30
4437.727
 70
    32
  0
VERTEX
  8
T08SSILL
 62
3
 10
1136.986
 20
-1960.372
 30
4437.758
 70
    32
  0
VERTEX
  8
T08SSILL
 62
3
 10
1125.293
 20
-1960.019
 30
4437.780
 70
    32
  0
VERTEX
  8
T08SSILL
 62
3
 10
1115.358
 20
-1956.412
 30
4437.789
 70
    32
  0
SEQEND
  8
T08SSILL
  0
POLYLINE
  8
T08SSILL
 62
3
 66
     1
 70
     9
  0
VERTEX
  8
T08SSILL
 62
3
 10
1096.536
 20
-1773.647
 30
4437.268
 70
    32
  0
VERTEX
  8
T08SSILL
 62
3
 10
1084.454
 20
-1768.171
 30
4437.281
 70
    32
  0
VERTEX
  8
T08SSILL
 62
3
 10
1086.635
 20
-1811.471
 30
4437.423
 70
    32
  0
VERTEX
  8
T08SSILL
 62
3
 10
1096.152
 20
-1838.357
 30
4437.483
 70
    32
  0
VERTEX
  8
T08SSILL
 62
3
 10
1093.312
 20
-1843.687
 30
4437.504
 70
    32
  0
VERTEX
  8
T08SSILL
 62
3
 10
1093.010
 20
-1848.637
 30
4437.519
 70
    32
  0
VERTEX
  8
T08SSILL
 62
3
 10
1091.759
 20
-1850.193
 30
4437.526
 70
    32
  0
VERTEX
  8
T08SSILL
 62
3
 10
1084.752
 20
-1843.463
 30
4437.520
 70
    32
  0
VERTEX
  8
T08SSILL
 62
3
 10
1076.512
 20
-1821.366
 30
4437.472
 70
    32
  0
VERTEX
  8
T08SSILL
 62
3
 10
1073.481
 20
-1818.684
 30
4437.470
 70
    32
  0
VERTEX
  8
T08SSILL
 62
3
 10
1075.850
 20
-1803.063
 30
4437.420
 70
    32
  0
VERTEX
  8
T08SSILL
 62
3
 10
1079.749
 20
-1795.834
 30
4437.391
 70
    32
  0
VERTEX
  8
T08SSILL
 62
3
 10
1078.970
 20
-1774.981
 30
4437.320
 70
    32
  0
VERTEX
  8
T08SSILL
 62
3
 10
1077.292
 20
-1767.172
 30
4437.296
 70
    32
  0
VERTEX
  8
T08SSILL
 62
3
 10
1059.587
 20
-1772.587
 30
4437.363
 70
    32
  0
VERTEX
  8
T08SSILL
 62
3
 10
1060.286
 20
-1776.920
 30
4437.374
 70
    32
  0
VERTEX
  8
T08SSILL
 62
3
 10
1053.008
 20
-1778.726
 30
4437.393
 70
    32
  0
VERTEX
  8
T08SSILL
 62
3
 10
1051.944
 20
-1774.729
 30
4437.384
 70
    32
  0
VERTEX
  8
T08SSILL
 62
3
 10
1032.638
 20
-1780.605
 30
4437.439
 70
    32
  0
VERTEX
  8
T08SSILL
 62
3
 10
1155.098
 20
-1945.650
 30
4437.680
 70
    32
  0
VERTEX
  8
T08SSILL
 62
3
 10
1162.909
 20
-1944.940
 30
4437.663
 70
    32
  0
VERTEX
  8
T08SSILL
 62
3
 10
1165.157
 20
-1957.440
 30
4437.695
 70
    32
  0
VERTEX
  8
T08SSILL
 62
3
 10
1170.070
 20
-1956.951
 30
4437.684
 70
    32
  0
VERTEX
  8
T08SSILL
 62
3
 10
1171.116
 20
-1962.455
 30
4437.698
 70
    32
  0
VERTEX
  8
T08SSILL
 62
3
 10
1177.999
 20
-1960.730
 30
4437.679
 70
    32
  0
VERTEX
  8
T08SSILL
 62
3
 10
1168.493
 20
-1941.775
 30
4437.643
 70
    32
  0
VERTEX
  8
T08SSILL
 62
3
 10
1159.796
 20
-1915.469
 30
4437.583
 70
    32
  0
VERTEX
  8
T08SSILL
 62
3
 10
1157.314
 20
-1895.928
 30
4437.531
 70
    32
  0
VERTEX
  8
T08SSILL
 62
3
 10
1149.198
 20
-1886.164
 30
4437.518
 70
    32
  0
VERTEX
  8
T08SSILL
 62
3
 10
1146.027
 20
-1872.736
 30
4437.485
 70
    32
  0
VERTEX
  8
T08SSILL
 62
3
 10
1144.087
 20
-1868.859
 30
4437.478
 70
    32
  0
VERTEX
  8
T08SSILL
 62
3
 10
1141.400
 20
-1846.772
 30
4437.410
 70
    32
  0
VERTEX
  8
T08SSILL
 62
3
 10
1134.456
 20
-1837.571
 30
4437.396
 70
    32
  0
VERTEX
  8
T08SSILL
 62
3
 10
1128.413
 20
-1821.102
 30
4437.353
 70
    32
  0
VERTEX
  8
T08SSILL
 62
3
 10
1120.414
 20
-1813.889
 30
4437.348
 70
    32
  0
VERTEX
  8
T08SSILL
 62
3
 10
1120.945
 20
-1800.468
 30
4437.299
 70
    32
  0
VERTEX
  8
T08SSILL
 62
3
 10
1124.326
 20
-1797.316
 30
4437.278
 70
    32
  0
VERTEX
  8
T08SSILL
 62
3
 10
1132.784
 20
-1793.403
 30
4437.241
 70
    32
  0
VERTEX
  8
T08SSILL
 62
3
 10
1145.094
 20
-1794.690
 30
4437.213
 70
    32
  0
VERTEX
  8
T08SSILL
 62
3
 10
1146.862
 20
-1785.178
 30
4437.174
 70
    32
  0
VERTEX
  8
T08SSILL
 62
3
 10
1146.273
 20
-1781.944
 30
4437.164
 70
    32
  0
VERTEX
  8
T08SSILL
 62
3
 10
1106.582
 20
-1783.234
 30
4437.275
 70
    32
  0
VERTEX
  8
T08SSILL
 62
3
 10
1106.177
 20
-1778.229
 30
4437.258
 70
    32
  0
SEQEND
  8
T08SSILL
  0
POLYLINE
  8
T08SSILL
 62
3
 66
     1
 70
     9
  0
VERTEX
  8
T08SSILL
 62
3
 10
1248.784
 20
-1714.111
 30
4436.645
 70
    32
  0
VERTEX
  8
T08SSILL
 62
3
 10
1226.833
 20
-1724.004
 30
4436.739
 70
    32
  0
VERTEX
  8
T08SSILL
 62
3
 10
1225.563
 20
-1729.222
 30
4436.761
 70
    32
  0
VERTEX
  8
T08SSILL
 62
3
 10
1226.083
 20
-1735.744
 30
4436.784
 70
    32
  0
VERTEX
  8
T08SSILL
 62
3
 10
1228.455
 20
-1737.863
 30
4436.785
 70
    32
  0
VERTEX
  8
T08SSILL
 62
3
 10
1235.733
 20
-1738.165
 30
4436.766
 70
    32
  0
VERTEX
  8
T08SSILL
 62
3
 10
1239.864
 20
-1748.701
 30
4436.793
 70
    32
  0
VERTEX
  8
T08SSILL
 62
3
 10
1262.641
 20
-1737.928
 30
4436.693
 70
    32
  0
SEQEND
  8
T08SSILL
  0
POLYLINE
  8
T08SSILL
 62
3
 66
     1
 70
     9
  0
VERTEX
  8
T08SSILL
 62
3
 10
-6.672
 20
-321.897
 30
4440.304
 70
    32
  0
VERTEX
  8
T08SSILL
 62
3
 10
4.955
 20
-294.265
 30
4440.347
 70
    32
  0
VERTEX
  8
T08SSILL
 62
3
 10
6.817
 20
-275.810
 30
4440.376
 70
    32
  0
VERTEX
  8
T08SSILL
 62
3
 10
-13.407
 20
-244.232
 30
4440.424
 70
    32
  0
VERTEX
  8
T08SSILL
 62
3
 10
-20.505
 20
-239.797
 30
4440.430
 70
    32
  0
VERTEX
  8
T08SSILL
 62
3
 10
-29.077
 20
-238.199
 30
4440.432
 70
    32
  0
VERTEX
  8
T08SSILL
 62
3
 10
-216.846
 20
-302.887
 30
4440.469
 70
    32
  0
VERTEX
  8
T08SSILL
 62
3
 10
-217.703
 20
-305.718
 30
4440.467
 70
    32
  0
VERTEX
  8
T08SSILL
 62
3
 10
-226.193
 20
-313.206
 30
4440.466
 70
    32
  0
VERTEX
  8
T08SSILL
 62
3
 10
-238.132
 20
-309.961
 30
4440.480
 70
    32
  0
VERTEX
  8
T08SSILL
 62
3
 10
-275.427
 20
-322.297
 30
4440.500
 70
    32
  0
VERTEX
  8
T08SSILL
 62
3
 10
-282.071
 20
-328.973
 30
4440.499
 70
    32
  0
VERTEX
  8
T08SSILL
 62
3
 10
-283.780
 20
-325.372
 30
4440.505
 70
    32
  0
VERTEX
  8
T08SSILL
 62
3
 10
-314.121
 20
-335.968
 30
4440.520
 70
    32
  0
VERTEX
  8
T08SSILL
 62
3
 10
-312.464
 20
-353.333
 30
4440.499
 70
    32
  0
VERTEX
  8
T08SSILL
 62
3
 10
-301.383
 20
-378.817
 30
4440.460
 70
    32
  0
VERTEX
  8
T08SSILL
 62
3
 10
-307.090
 20
-381.780
 30
4440.462
 70
    32
  0
VERTEX
  8
T08SSILL
 62
3
 10
-323.010
 20
-348.135
 30
4440.515
 70
    32
  0
VERTEX
  8
T08SSILL
 62
3
 10
-336.024
 20
-343.136
 30
4440.532
 70
    32
  0
VERTEX
  8
T08SSILL
 62
3
 10
-346.056
 20
-345.873
 30
4440.538
 70
    32
  0
VERTEX
  8
T08SSILL
 62
3
 10
-347.623
 20
-348.181
 30
4440.537
 70
    32
  0
VERTEX
  8
T08SSILL
 62
3
 10
-353.501
 20
-351.851
 30
4440.538
 70
    32
  0
VERTEX
  8
T08SSILL
 62
3
 10
-357.836
 20
-350.479
 30
4440.544
 70
    32
  0
VERTEX
  8
T08SSILL
 62
3
 10
-519.844
 20
-405.495
 30
4440.629
 70
    32
  0
VERTEX
  8
T08SSILL
 62
3
 10
-520.003
 20
-407.525
 30
4440.627
 70
    32
  0
VERTEX
  8
T08SSILL
 62
3
 10
-250.436
 20
-598.118
 30
4440.163
 70
    32
  0
VERTEX
  8
T08SSILL
 62
3
 10
-249.734
 20
-578.174
 30
4440.185
 70
    32
  0
VERTEX
  8
T08SSILL
 62
3
 10
-248.041
 20
-570.307
 30
4440.193
 70
    32
  0
VERTEX
  8
T08SSILL
 62
3
 10
-241.341
 20
-569.717
 30
4440.187
 70
    32
  0
VERTEX
  8
T08SSILL
 62
3
 10
-230.111
 20
-572.615
 30
4440.174
 70
    32
  0
VERTEX
  8
T08SSILL
 62
3
 10
-233.715
 20
-583.851
 30
4440.164
 70
    32
  0
VERTEX
  8
T08SSILL
 62
3
 10
-238.824
 20
-594.484
 30
4440.157
 70
    32
  0
VERTEX
  8
T08SSILL
 62
3
 10
-232.851
 20
-611.104
 30
4440.132
 70
    32
  0
VERTEX
  8
T08SSILL
 62
3
 10
-219.806
 20
-619.456
 30
4440.111
 70
    32
  0
VERTEX
  8
T08SSILL
 62
3
 10
-215.875
 20
-624.890
 30
4440.101
 70
    32
  0
VERTEX
  8
T08SSILL
 62
3
 10
-208.584
 20
-631.264
 30
4440.087
 70
    32
  0
VERTEX
  8
T08SSILL
 62
3
 10
-195.374
 20
-638.379
 30
4440.067
 70
    32
  0
VERTEX
  8
T08SSILL
 62
3
 10
-75.732
 20
-600.773
 30
4440.000
 70
    32
  0
VERTEX
  8
T08SSILL
 62
3
 10
-78.367
 20
-592.239
 30
4440.012
 70
    32
  0
VERTEX
  8
T08SSILL
 62
3
 10
-72.044
 20
-589.094
 30
4440.010
 70
    32
  0
VERTEX
  8
T08SSILL
 62
3
 10
-37.652
 20
-460.685
 30
4440.125
 70
    32
  0
VERTEX
  8
T08SSILL
 62
3
 10
-38.477
 20
-457.163
 30
4440.130
 70
    32
  0
VERTEX
  8
T08SSILL
 62
3
 10
-14.580
 20
-358.403
 30
4440.246
 70
    32
  0
VERTEX
  8
T08SSILL
 62
3
 10
-16.181
 20
-347.213
 30
4440.263
 70
    32
  0
VERTEX
  8
T08SSILL
 62
3
 10
-12.391
 20
-333.189
 30
4440.285
 70
    32
  0
SEQEND
  8
T08SSILL
  0
POLYLINE
  8
T08SSILL
 62
3
 66
     1
 70
     9
  0
VERTEX
  8
T08SSILL
 62
3
 10
362.293
 20
-950.545
 30
4439.257
 70
    32
  0
VERTEX
  8
T08SSILL
 62
3
 10
368.443
 20
-954.753
 30
4439.241
 70
    32
  0
VERTEX
  8
T08SSILL
 62
3
 10
350.331
 20
-969.989
 30
4439.149
 70
    32
  0
VERTEX
  8
T08SSILL
 62
3
 10
348.366
 20
-975.003
 30
4439.122
 70
    32
  0
VERTEX
  8
T08SSILL
 62
3
 10
349.420
 20
-983.479
 30
4439.081
 70
    32
  0
VERTEX
  8
T08SSILL
 62
3
 10
361.171
 20
-1000.920
 30
4439.006
 70
    32
  0
VERTEX
  8
T08SSILL
 62
3
 10
368.625
 20
-1003.337
 30
4439.000
 70
    32
  0
VERTEX
  8
T08SSILL
 62
3
 10
377.726
 20
-1002.046
 30
4439.024
 70
    32
  0
VERTEX
  8
T08SSILL
 62
3
 10
380.225
 20
-1001.095
 30
4439.035
 70
    32
  0
VERTEX
  8
T08SSILL
 62
3
 10
423.690
 20
-963.368
 30
4439.271
 70
    32
  0
VERTEX
  8
T08SSILL
 62
3
 10
428.813
 20
-945.748
 30
4439.342
 70
    32
  0
VERTEX
  8
T08SSILL
 62
3
 10
429.698
 20
-930.764
 30
4439.394
 70
    32
  0
VERTEX
  8
T08SSILL
 62
3
 10
294.717
 20
-718.200
 30
4439.713
 70
    32
  0
VERTEX
  8
T08SSILL
 62
3
 10
15.505
 20
-290.199
 30
4440.355
 70
    32
  0
VERTEX
  8
T08SSILL
 62
3
 10
-50.570
 20
-534.555
 30
4440.053
 70
    32
  0
VERTEX
  8
T08SSILL
 62
3
 10
154.943
 20
-763.751
 30
4439.630
 70
    32
  0
VERTEX
  8
T08SSILL
 62
3
 10
180.896
 20
-794.659
 30
4439.584
 70
    32
  0
VERTEX
  8
T08SSILL
 62
3
 10
188.277
 20
-810.913
 30
4439.560
 70
    32
  0
VERTEX
  8
T08SSILL
 62
3
 10
181.418
 20
-862.144
 30
4439.480
 70
    32
  0
VERTEX
  8
T08SSILL
 62
3
 10
183.767
 20
-878.003
 30
4439.451
 70
    32
  0
VERTEX
  8
T08SSILL
 62
3
 10
249.665
 20
-967.836
 30
4439.066
 70
    32
  0
VERTEX
  8
T08SSILL
 62
3
 10
252.948
 20
-977.635
 30
4439.021
 70
    32
  0
VERTEX
  8
T08SSILL
 62
3
 10
273.500
 20
-1009.495
 30
4438.882
 70
    32
  0
VERTEX
  8
T08SSILL
 62
3
 10
281.656
 20
-1016.158
 30
4438.856
 70
    32
  0
VERTEX
  8
T08SSILL
 62
3
 10
289.089
 20
-1019.101
 30
4438.848
 70
    32
  0
VERTEX
  8
T08SSILL
 62
3
 10
338.588
 20
-1026.512
 30
4438.858
 70
    32
  0
VERTEX
  8
T08SSILL
 62
3
 10
349.611
 20
-1025.476
 30
4438.874
 70
    32
  0
VERTEX
  8
T08SSILL
 62
3
 10
353.623
 20
-1024.061
 30
4438.891
 70
    32
  0
VERTEX
  8
T08SSILL
 62
3
 10
359.888
 20
-1019.138
 30
4438.924
 70
    32
  0
VERTEX
  8
T08SSILL
 62
3
 10
358.046
 20
-1016.953
 30
4438.923
 70
    32
  0
VERTEX
  8
T08SSILL
 62
3
 10
356.737
 20
-1010.399
 30
4438.954
 70
    32
  0
VERTEX
  8
T08SSILL
 62
3
 10
342.464
 20
-986.002
 30
4439.062
 70
    32
  0
VERTEX
  8
T08SSILL
 62
3
 10
340.967
 20
-975.486
 30
4439.113
 70
    32
  0
VERTEX
  8
T08SSILL
 62
3
 10
342.518
 20
-967.733
 30
4439.153
 70
    32
  0
SEQEND
  8
T08SSILL
  0
POLYLINE
  8
T08SSILL
 62
3
 66
     1
 70
     9
  0
VERTEX
  8
T08SSILL
 62
3
 10
183.914
 20
-1012.601
 30
4439.259
 70
    32
  0
VERTEX
  8
T08SSILL
 62
3
 10
132.705
 20
-1048.458
 30
4439.451
 70
    32
  0
VERTEX
  8
T08SSILL
 62
3
 10
134.581
 20
-1051.959
 30
4439.438
 70
    32
  0
VERTEX
  8
T08SSILL
 62
3
 10
129.775
 20
-1055.427
 30
4439.456
 70
    32
  0
VERTEX
  8
T08SSILL
 62
3
 10
127.999
 20
-1053.333
 30
4439.467
 70
    32
  0
VERTEX
  8
T08SSILL
 62
3
 10
100.914
 20
-1072.900
 30
4439.567
 70
    32
  0
VERTEX
  8
T08SSILL
 62
3
 10
101.634
 20
-1074.828
 30
4439.562
 70
    32
  0
VERTEX
  8
T08SSILL
 62
3
 10
82.822
 20
-1085.184
 30
4439.635
 70
    32
  0
VERTEX
  8
T08SSILL
 62
3
 10
90.815
 20
-1094.874
 30
4439.588
 70
    32
  0
VERTEX
  8
T08SSILL
 62
3
 10
95.504
 20
-1098.438
 30
4439.563
 70
    32
  0
VERTEX
  8
T08SSILL
 62
3
 10
101.759
 20
-1100.143
 30
4439.533
 70
    32
  0
VERTEX
  8
T08SSILL
 62
3
 10
112.666
 20
-1100.930
 30
4439.483
 70
    32
  0
VERTEX
  8
T08SSILL
 62
3
 10
215.757
 20
-1029.872
 30
4439.096
 70
    32
  0
VERTEX
  8
T08SSILL
 62
3
 10
193.833
 20
-1006.583
 30
4439.221
 70
    32
  0
SEQEND
  8
T08SSILL
  0
POLYLINE
  8
T08SSILL
 62
3
 66
     1
 70
     9
  0
VERTEX
  8
T08SSILL
 62
3
 10
-7.900
 20
-1011.758
 30
4439.981
 70
    32
  0
VERTEX
  8
T08SSILL
 62
3
 10
19.693
 20
-989.901
 30
4439.901
 70
    32
  0
VERTEX
  8
T08SSILL
 62
3
 10
19.906
 20
-983.833
 30
4439.895
 70
    32
  0
VERTEX
  8
T08SSILL
 62
3
 10
18.029
 20
-980.157
 30
4439.895
 70
    32
  0
VERTEX
  8
T08SSILL
 62
3
 10
-13.426
 20
-1002.750
 30
4439.984
 70
    32
  0
SEQEND
  8
T08SSILL
  0
POLYLINE
  8
T08SSILL
 62
3
 66
     1
 70
     9
  0
VERTEX
  8
T08SSILL
 62
3
 10
39.577
 20
-971.097
 30
4439.840
 70
    32
  0
VERTEX
  8
T08SSILL
 62
3
 10
29.534
 20
-978.917
 30
4439.869
 70
    32
  0
VERTEX
  8
T08SSILL
 62
3
 10
26.058
 20
-983.694
 30
4439.882
 70
    32
  0
VERTEX
  8
T08SSILL
 62
3
 10
26.387
 20
-991.426
 30
4439.888
 70
    32
  0
VERTEX
  8
T08SSILL
 62
3
 10
-3.806
 20
-1017.789
 30
4439.978
 70
    32
  0
VERTEX
  8
T08SSILL
 62
3
 10
-9.644
 20
-1018.212
 30
4439.991
 70
    32
  0
VERTEX
  8
T08SSILL
 62
3
 10
-1.924
 20
-1027.563
 30
4439.984
 70
    32
  0
VERTEX
  8
T08SSILL
 62
3
 10
28.105
 20
-1006.130
 30
4439.899
 70
    32
  0
VERTEX
  8
T08SSILL
 62
3
 10
31.242
 20
-1010.721
 30
4439.897
 70
    32
  0
VERTEX
  8
T08SSILL
 62
3
 10
26.795
 20
-1014.259
 30
4439.910
 70
    32
  0
VERTEX
  8
T08SSILL
 62
3
 10
28.401
 20
-1021.736
 30
4439.914
 70
    32
  0
VERTEX
  8
T08SSILL
 62
3
 10
40.106
 20
-1013.023
 30
4439.881
 70
    32
  0
VERTEX
  8
T08SSILL
 62
3
 10
50.004
 20
-977.514
 30
4439.825
 70
    32
  0
VERTEX
  8
T08SSILL
 62
3
 10
49.800
 20
-974.263
 30
4439.822
 70
    32
  0
VERTEX
  8
T08SSILL
 62
3
 10
45.916
 20
-972.274
 30
4439.828
 70
    32
  0
SEQEND
  8
T08SSILL
  0
POLYLINE
  8
T08SSILL
 62
3
 66
     1
 70
     9
  0
VERTEX
  8
T08SSILL
 62
3
 10
134.007
 20
-918.306
 30
4439.588
 70
    32
  0
VERTEX
  8
T08SSILL
 62
3
 10
137.262
 20
-921.788
 30
4439.573
 70
    32
  0
VERTEX
  8
T08SSILL
 62
3
 10
139.725
 20
-921.711
 30
4439.562
 70
    32
  0
VERTEX
  8
T08SSILL
 62
3
 10
146.424
 20
-918.051
 30
4439.536
 70
    32
  0
VERTEX
  8
T08SSILL
 62
3
 10
148.106
 20
-915.685
 30
4439.531
 70
    32
  0
VERTEX
  8
T08SSILL
 62
3
 10
154.368
 20
-911.494
 30
4439.507
 70
    32
  0
VERTEX
  8
T08SSILL
 62
3
 10
158.663
 20
-914.152
 30
4439.485
 70
    32
  0
VERTEX
  8
T08SSILL
 62
3
 10
159.182
 20
-915.913
 30
4439.480
 70
    32
  0
VERTEX
  8
T08SSILL
 62
3
 10
164.982
 20
-916.468
 30
4439.454
 70
    32
  0
VERTEX
  8
T08SSILL
 62
3
 10
168.930
 20
-918.245
 30
4439.434
 70
    32
  0
VERTEX
  8
T08SSILL
 62
3
 10
175.956
 20
-938.412
 30
4439.379
 70
    32
  0
VERTEX
  8
T08SSILL
 62
3
 10
188.126
 20
-949.108
 30
4439.312
 70
    32
  0
VERTEX
  8
T08SSILL
 62
3
 10
189.156
 20
-954.476
 30
4439.301
 70
    32
  0
VERTEX
  8
T08SSILL
 62
3
 10
207.700
 20
-992.985
 30
4439.174
 70
    32
  0
VERTEX
  8
T08SSILL
 62
3
 10
239.084
 20
-975.199
 30
4439.052
 70
    32
  0
VERTEX
  8
T08SSILL
 62
3
 10
180.127
 20
-893.329
 30
4439.411
 70
    32
  0
VERTEX
  8
T08SSILL
 62
3
 10
167.737
 20
-891.776
 30
4439.469
 70
    32
  0
VERTEX
  8
T08SSILL
 62
3
 10
155.653
 20
-899.983
 30
4439.514
 70
    32
  0
VERTEX
  8
T08SSILL
 62
3
 10
139.678
 20
-913.505
 30
4439.571
 70
    32
  0
SEQEND
  8
T08SSILL
  0
POLYLINE
  8
T08SSILL
 62
3
 66
     1
 70
     9
  0
VERTEX
  8
T08SSILL
 62
3
 10
79.793
 20
-1080.462
 30
4439.654
 70
    32
  0
VERTEX
  8
T08SSILL
 62
3
 10
67.432
 20
-1074.062
 30
4439.718
 70
    32
  0
VERTEX
  8
T08SSILL
 62
3
 10
55.613
 20
-1079.699
 30
4439.765
 70
    32
  0
VERTEX
  8
T08SSILL
 62
3
 10
46.017
 20
-1070.897
 30
4439.818
 70
    32
  0
VERTEX
  8
T08SSILL
 62
3
 10
36.730
 20
-1059.226
 30
4439.873
 70
    32
  0
VERTEX
  8
T08SSILL
 62
3
 10
42.626
 20
-1055.657
 30
4439.851
 70
    32
  0
VERTEX
  8
T08SSILL
 62
3
 10
34.473
 20
-1045.101
 30
4439.899
 70
    32
  0
VERTEX
  8
T08SSILL
 62
3
 10
39.264
 20
-1041.967
 30
4439.881
 70
    32
  0
VERTEX
  8
T08SSILL
 62
3
 10
32.696
 20
-1032.432
 30
4439.915
 70
    32
  0
VERTEX
  8
T08SSILL
 62
3
 10
37.385
 20
-1029.397
 30
4439.902
 70
    32
  0
VERTEX
  8
T08SSILL
 62
3
 10
34.657
 20
-1025.956
 30
4439.905
 70
    32
  0
VERTEX
  8
T08SSILL
 62
3
 10
46.471
 20
-1017.189
 30
4439.871
 70
    32
  0
VERTEX
  8
T08SSILL
 62
3
 10
47.683
 20
-1014.981
 30
4439.866
 70
    32
  0
VERTEX
  8
T08SSILL
 62
3
 10
55.111
 20
-988.986
 30
4439.825
 70
    32
  0
VERTEX
  8
T08SSILL
 62
3
 10
89.393
 20
-1051.373
 30
4439.644
 70
    32
  0
VERTEX
  8
T08SSILL
 62
3
 10
102.039
 20
-1060.320
 30
4439.576
 70
    32
  0
SEQEND
  8
T08SSILL
  0
POLYLINE
  8
T08SSILL
 62
3
 66
     1
 70
     9
  0
VERTEX
  8
T08SSILL
 62
3
 10
169.494
 20
-1003.682
 30
4439.335
 70
    32
  0
VERTEX
  8
T08SSILL
 62
3
 10
168.297
 20
-1001.907
 30
4439.342
 70
    32
  0
VERTEX
  8
T08SSILL
 62
3
 10
155.798
 20
-1014.156
 30
4439.385
 70
    32
  0
VERTEX
  8
T08SSILL
 62
3
 10
140.215
 20
-1021.760
 30
4439.447
 70
    32
  0
VERTEX
  8
T08SSILL
 62
3
 10
130.920
 20
-1024.475
 30
4439.486
 70
    32
  0
VERTEX
  8
T08SSILL
 62
3
 10
128.626
 20
-1023.440
 30
4439.498
 70
    32
  0
VERTEX
  8
T08SSILL
 62
3
 10
125.045
 20
-1015.735
 30
4439.522
 70
    32
  0
VERTEX
  8
T08SSILL
 62
3
 10
120.003
 20
-991.164
 30
4439.573
 70
    32
  0
VERTEX
  8
T08SSILL
 62
3
 10
106.168
 20
-976.688
 30
4439.652
 70
    32
  0
VERTEX
  8
T08SSILL
 62
3
 10
105.097
 20
-964.391
 30
4439.671
 70
    32
  0
VERTEX
  8
T08SSILL
 62
3
 10
101.273
 20
-948.776
 30
4439.688
 70
    32
  0
VERTEX
  8
T08SSILL
 62
3
 10
99.579
 20
-945.978
 30
4439.688
 70
    32
  0
VERTEX
  8
T08SSILL
 62
3
 10
99.253
 20
-938.508
 30
4439.682
 70
    32
  0
VERTEX
  8
T08SSILL
 62
3
 10
60.480
 20
-968.987
 30
4439.794
 70
    32
  0
VERTEX
  8
T08SSILL
 62
3
 10
58.064
 20
-974.281
 30
4439.804
 70
    32
  0
VERTEX
  8
T08SSILL
 62
3
 10
89.518
 20
-1034.934
 30
4439.662
 70
    32
  0
VERTEX
  8
T08SSILL
 62
3
 10
97.631
 20
-1048.490
 30
4439.610
 70
    32
  0
VERTEX
  8
T08SSILL
 62
3
 10
107.335
 20
-1052.540
 30
4439.561
 70
    32
  0
VERTEX
  8
T08SSILL
 62
3
 10
109.116
 20
-1055.250
 30
4439.550
 70
    32
  0
VERTEX
  8
T08SSILL
 62
3
 10
111.570
 20
-1054.350
 30
4439.540
 70
    32
  0
VERTEX
  8
T08SSILL
 62
3
 10
155.331
 20
-1021.281
 30
4439.379
 70
    32
  0
VERTEX
  8
T08SSILL
 62
3
 10
179.649
 20
-1007.187
 30
4439.285
 70
    32
  0
VERTEX
  8
T08SSILL
 62
3
 10
174.402
 20
-1000.967
 30
4439.316
 70
    32
  0
SEQEND
  8
T08SSILL
  0
POLYLINE
  8
T08SSILL
 62
3
 66
     1
 70
     9
  0
VERTEX
  8
T08SSILL
 62
3
 10
-212.832
 20
911.514
 30
4442.245
 70
    32
  0
VERTEX
  8
T08SSILL
 62
3
 10
-278.670
 20
862.850
 30
4442.163
 70
    32
  0
VERTEX
  8
T08SSILL
 62
3
 10
-463.884
 20
684.947
 30
4441.826
 70
    32
  0
VERTEX
  8
T08SSILL
 62
3
 10
-474.204
 20
671.494
 30
4441.815
 70
    32
  0
VERTEX
  8
T08SSILL
 62
3
 10
-527.980
 20
618.754
 30
4441.864
 70
    32
  0
VERTEX
  8
T08SSILL
 62
3
 10
-542.435
 20
606.891
 30
4441.881
 70
    32
  0
VERTEX
  8
T08SSILL
 62
3
 10
-547.296
 20
593.782
 30
4441.874
 70
    32
  0
VERTEX
  8
T08SSILL
 62
3
 10
-332.460
 20
261.853
 30
4441.218
 70
    32
  0
VERTEX
  8
T08SSILL
 62
3
 10
-328.583
 20
264.488
 30
4441.218
 70
    32
  0
VERTEX
  8
T08SSILL
 62
3
 10
-323.487
 20
257.878
 30
4441.206
 70
    32
  0
VERTEX
  8
T08SSILL
 62
3
 10
-327.717
 20
254.628
 30
4441.206
 70
    32
  0
VERTEX
  8
T08SSILL
 62
3
 10
285.111
 20
-690.055
 30
4439.756
 70
    32
  0
VERTEX
  8
T08SSILL
 62
3
 10
341.358
 20
-763.830
 30
4439.645
 70
    32
  0
VERTEX
  8
T08SSILL
 62
3
 10
369.241
 20
-774.164
 30
4439.608
 70
    32
  0
VERTEX
  8
T08SSILL
 62
3
 10
367.179
 20
-780.182
 30
4439.604
 70
    32
  0
VERTEX
  8
T08SSILL
 62
3
 10
350.465
 20
-775.834
 30
4439.625
 70
    32
  0
VERTEX
  8
T08SSILL
 62
3
 10
367.604
 20
-797.911
 30
4439.587
 70
    32
  0
VERTEX
  8
T08SSILL
 62
3
 10
371.943
 20
-799.724
 30
4439.581
 70
    32
  0
VERTEX
  8
T08SSILL
 62
3
 10
383.702
 20
-792.825
 30
4439.576
 70
    32
  0
VERTEX
  8
T08SSILL
 62
3
 10
385.930
 20
-785.482
 30
4439.581
 70
    32
  0
VERTEX
  8
T08SSILL
 62
3
 10
370.094
 20
-780.597
 30
4439.601
 70
    32
  0
VERTEX
  8
T08SSILL
 62
3
 10
371.977
 20
-774.228
 30
4439.606
 70
    32
  0
VERTEX
  8
T08SSILL
 62
3
 10
389.046
 20
-778.837
 30
4439.585
 70
    32
  0
VERTEX
  8
T08SSILL
 62
3
 10
390.092
 20
-777.505
 30
4439.585
 70
    32
  0
VERTEX
  8
T08SSILL
 62
3
 10
396.999
 20
-780.354
 30
4439.575
 70
    32
  0
VERTEX
  8
T08SSILL
 62
3
 10
388.774
 20
-797.543
 30
4439.567
 70
    32
  0
VERTEX
  8
T08SSILL
 62
3
 10
376.496
 20
-805.682
 30
4439.571
 70
    32
  0
VERTEX
  8
T08SSILL
 62
3
 10
397.696
 20
-867.859
 30
4439.489
 70
    32
  0
VERTEX
  8
T08SSILL
 62
3
 10
672.278
 20
-1291.929
 30
4437.090
 70
    32
  0
VERTEX
  8
T08SSILL
 62
3
 10
676.392
 20
-1294.383
 30
4437.059
 70
    32
  0
VERTEX
  8
T08SSILL
 62
3
 10
678.950
 20
-1294.138
 30
4437.044
 70
    32
  0
VERTEX
  8
T08SSILL
 62
3
 10
1070.488
 20
-1117.733
 30
4435.213
 70
    32
  0
VERTEX
  8
T08SSILL
 62
3
 10
1108.516
 20
-1062.827
 30
4435.647
 70
    32
  0
VERTEX
  8
T08SSILL
 62
3
 10
1105.008
 20
-1060.573
 30
4435.693
 70
    32
  0
VERTEX
  8
T08SSILL
 62
3
 10
1108.102
 20
-1055.870
 30
4435.760
 70
    32
  0
VERTEX
  8
T08SSILL
 62
3
 10
1111.884
 20
-1057.871
 30
4435.718
 70
    32
  0
VERTEX
  8
T08SSILL
 62
3
 10
1114.912
 20
-1054.747
 30
4435.760
 70
    32
  0
VERTEX
  8
T08SSILL
 62
3
 10
1117.485
 20
-1041.414
 30
4435.966
 70
    32
  0
VERTEX
  8
T08SSILL
 62
3
 10
1121.898
 20
-1034.569
 30
4436.063
 70
    32
  0
VERTEX
  8
T08SSILL
 62
3
 10
1177.790
 20
-857.195
 30
4438.749
 70
    32
  0
VERTEX
  8
T08SSILL
 62
3
 10
1222.831
 20
-718.165
 30
4438.840
 70
    32
  0
VERTEX
  8
T08SSILL
 62
3
 10
1227.043
 20
-693.775
 30
4438.859
 70
    32
  0
VERTEX
  8
T08SSILL
 62
3
 10
1222.142
 20
-692.421
 30
4438.865
 70
    32
  0
VERTEX
  8
T08SSILL
 62
3
 10
1223.913
 20
-684.887
 30
4438.871
 70
    32
  0
VERTEX
  8
T08SSILL
 62
3
 10
1229.082
 20
-686.072
 30
4438.865
 70
    32
  0
VERTEX
  8
T08SSILL
 62
3
 10
1239.002
 20
-666.051
 30
4438.875
 70
    32
  0
VERTEX
  8
T08SSILL
 62
3
 10
1265.836
 20
-581.601
 30
4438.930
 70
    32
  0
VERTEX
  8
T08SSILL
 62
3
 10
1262.754
 20
-570.776
 30
4438.944
 70
    32
  0
VERTEX
  8
T08SSILL
 62
3
 10
1063.860
 20
-543.684
 30
4439.161
 70
    32
  0
VERTEX
  8
T08SSILL
 62
3
 10
1065.337
 20
-537.377
 30
4439.166
 70
    32
  0
VERTEX
  8
T08SSILL
 62
3
 10
1069.817
 20
-537.928
 30
4439.161
 70
    32
  0
VERTEX
  8
T08SSILL
 62
3
 10
1070.724
 20
-533.280
 30
4439.165
 70
    32
  0
VERTEX
  8
T08SSILL
 62
3
 10
1078.977
 20
-534.452
 30
4439.156
 70
    32
  0
VERTEX
  8
T08SSILL
 62
3
 10
1078.512
 20
-539.022
 30
4439.152
 70
    32
  0
VERTEX
  8
T08SSILL
 62
3
 10
1262.222
 20
-563.715
 30
4438.951
 70
    32
  0
VERTEX
  8
T08SSILL
 62
3
 10
1262.910
 20
-560.824
 30
4438.953
 70
    32
  0
VERTEX
  8
T08SSILL
 62
3
 10
1266.710
 20
-556.776
 30
4438.953
 70
    32
  0
VERTEX
  8
T08SSILL
 62
3
 10
1266.765
 20
-550.963
 30
4438.959
 70
    32
  0
VERTEX
  8
T08SSILL
 62
3
 10
1275.560
 20
-548.007
 30
4438.953
 70
    32
  0
VERTEX
  8
T08SSILL
 62
3
 10
1294.546
 20
-487.568
 30
4439.030
 70
    32
  0
VERTEX
  8
T08SSILL
 62
3
 10
1290.741
 20
-486.001
 30
4439.034
 70
    32
  0
VERTEX
  8
T08SSILL
 62
3
 10
1292.903
 20
-479.759
 30
4439.045
 70
    32
  0
VERTEX
  8
T08SSILL
 62
3
 10
1296.507
 20
-481.056
 30
4439.041
 70
    32
  0
VERTEX
  8
T08SSILL
 62
3
 10
1297.290
 20
-477.616
 30
4439.048
 70
    32
  0
VERTEX
  8
T08SSILL
 62
3
 10
1256.298
 20
-446.300
 30
4439.120
 70
    32
  0
VERTEX
  8
T08SSILL
 62
3
 10
1263.831
 20
-437.322
 30
4439.135
 70
    32
  0
VERTEX
  8
T08SSILL
 62
3
 10
1269.268
 20
-441.949
 30
4439.124
 70
    32
  0
VERTEX
  8
T08SSILL
 62
3
 10
1266.276
 20
-445.400
 30
4439.119
 70
    32
  0
VERTEX
  8
T08SSILL
 62
3
 10
1299.201
 20
-471.584
 30
4439.058
 70
    32
  0
VERTEX
  8
T08SSILL
 62
3
 10
1305.710
 20
-450.510
 30
4439.096
 70
    32
  0
VERTEX
  8
T08SSILL
 62
3
 10
1301.602
 20
-449.176
 30
4439.100
 70
    32
  0
VERTEX
  8
T08SSILL
 62
3
 10
1303.514
 20
-443.056
 30
4439.110
 70
    32
  0
VERTEX
  8
T08SSILL
 62
3
 10
1307.457
 20
-443.945
 30
4439.107
 70
    32
  0
VERTEX
  8
T08SSILL
 62
3
 10
1312.853
 20
-428.748
 30
4439.134
 70
    32
  0
VERTEX
  8
T08SSILL
 62
3
 10
1307.697
 20
-427.035
 30
4439.139
 70
    32
  0
VERTEX
  8
T08SSILL
 62
3
 10
1310.041
 20
-421.278
 30
4439.149
 70
    32
  0
VERTEX
  8
T08SSILL
 62
3
 10
1314.776
 20
-422.187
 30
4439.146
 70
    32
  0
VERTEX
  8
T08SSILL
 62
3
 10
1320.140
 20
-404.698
 30
4439.177
 70
    32
  0
VERTEX
  8
T08SSILL
 62
3
 10
1316.655
 20
-403.114
 30
4439.181
 70
    32
  0
VERTEX
  8
T08SSILL
 62
3
 10
1318.561
 20
-397.258
 30
4439.191
 70
    32
  0
VERTEX
  8
T08SSILL
 62
3
 10
1322.332
 20
-397.967
 30
4439.189
 70
    32
  0
VERTEX
  8
T08SSILL
 62
3
 10
1329.577
 20
-372.066
 30
4439.235
 70
    32
  0
VERTEX
  8
T08SSILL
 62
3
 10
1326.424
 20
-371.284
 30
4439.238
 70
    32
  0
VERTEX
  8
T08SSILL
 62
3
 10
1328.339
 20
-365.075
 30
4439.249
 70
    32
  0
VERTEX
  8
T08SSILL
 62
3
 10
1332.017
 20
-365.959
 30
4439.246
 70
    32
  0
VERTEX
  8
T08SSILL
 62
3
 10
1332.679
 20
-364.125
 30
4439.249
 70
    32
  0
VERTEX
  8
T08SSILL
 62
3
 10
1331.064
 20
-354.570
 30
4439.267
 70
    32
  0
VERTEX
  8
T08SSILL
 62
3
 10
1342.386
 20
-320.487
 30
4439.328
 70
    32
  0
VERTEX
  8
T08SSILL
 62
3
 10
1336.350
 20
-318.753
 30
4439.333
 70
    32
  0
VERTEX
  8
T08SSILL
 62
3
 10
1339.074
 20
-311.859
 30
4439.345
 70
    32
  0
VERTEX
  8
T08SSILL
 62
3
 10
1344.503
 20
-313.226
 30
4439.341
 70
    32
  0
VERTEX
  8
T08SSILL
 62
3
 10
1365.410
 20
-247.661
 30
4439.457
 70
    32
  0
VERTEX
  8
T08SSILL
 62
3
 10
1359.116
 20
-245.656
 30
4439.463
 70
    32
  0
VERTEX
  8
T08SSILL
 62
3
 10
1363.216
 20
-232.981
 30
4439.485
 70
    32
  0
VERTEX
  8
T08SSILL
 62
3
 10
1369.325
 20
-235.334
 30
4439.479
 70
    32
  0
VERTEX
  8
T08SSILL
 62
3
 10
1393.264
 20
-161.121
 30
4439.610
 70
    32
  0
VERTEX
  8
T08SSILL
 62
3
 10
1389.038
 20
-161.017
 30
4439.612
 70
    32
  0
VERTEX
  8
T08SSILL
 62
3
 10
1390.102
 20
-153.554
 30
4439.625
 70
    32
  0
VERTEX
  8
T08SSILL
 62
3
 10
1395.876
 20
-153.617
 30
4439.623
 70
    32
  0
VERTEX
  8
T08SSILL
 62
3
 10
1403.201
 20
-129.647
 30
4439.666
 70
    32
  0
VERTEX
  8
T08SSILL
 62
3
 10
1408.468
 20
-123.257
 30
4439.676
 70
    32
  0
VERTEX
  8
T08SSILL
 62
3
 10
1427.630
 20
-64.168
 30
4439.781
 70
    32
  0
VERTEX
  8
T08SSILL
 62
3
 10
1423.786
 20
-62.840
 30
4439.784
 70
    32
  0
VERTEX
  8
T08SSILL
 62
3
 10
1425.986
 20
-55.758
 30
4439.797
 70
    32
  0
VERTEX
  8
T08SSILL
 62
3
 10
1429.931
 20
-56.560
 30
4439.794
 70
    32
  0
VERTEX
  8
T08SSILL
 62
3
 10
1457.357
 20
29.724
 30
4439.947
 70
    32
  0
VERTEX
  8
T08SSILL
 62
3
 10
1456.361
 20
48.985
 30
4439.983
 70
    32
  0
VERTEX
  8
T08SSILL
 62
3
 10
1452.351
 20
48.836
 30
4439.985
 70
    32
  0
VERTEX
  8
T08SSILL
 62
3
 10
1452.293
 20
54.642
 30
4439.995
 70
    32
  0
VERTEX
  8
T08SSILL
 62
3
 10
1456.060
 20
54.798
 30
4439.994
 70
    32
  0
VERTEX
  8
T08SSILL
 62
3
 10
1455.673
 20
62.277
 30
4440.009
 70
    32
  0
VERTEX
  8
T08SSILL
 62
3
 10
649.448
 20
1525.855
 30
4443.309
 70
    32
  0
VERTEX
  8
T08SSILL
 62
3
 10
638.809
 20
1525.813
 30
4443.313
 70
    32
  0
VERTEX
  8
T08SSILL
 62
3
 10
-184.330
 20
932.303
 30
4442.281
 70
    32
  0
SEQEND
  8
T08SSILL
  0
POLYLINE
  8
T08SSILL
 62
3
 66
     1
 70
     9
  0
VERTEX
  8
T08SSILL
 62
3
 10
-34.040
 20
2757.079
 30
4448.100
 70
    32
  0
VERTEX
  8
T08SSILL
 62
3
 10
638.701
 20
1541.526
 30
4443.349
 70
    32
  0
VERTEX
  8
T08SSILL
 62
3
 10
635.923
 20
1537.488
 30
4443.341
 70
    32
  0
VERTEX
  8
T08SSILL
 62
3
 10
-220.835
 20
916.539
 30
4442.265
 70
    32
  0
VERTEX
  8
T08SSILL
 62
3
 10
-284.208
 20
867.611
 30
4442.187
 70
    32
  0
VERTEX
  8
T08SSILL
 62
3
 10
-328.982
 20
830.968
 30
4442.125
 70
    32
  0
VERTEX
  8
T08SSILL
 62
3
 10
-476.015
 20
683.577
 30
4441.833
 70
    32
  0
VERTEX
  8
T08SSILL
 62
3
 10
-483.939
 20
691.903
 30
4441.859
 70
    32
  0
VERTEX
  8
T08SSILL
 62
3
 10
-553.337
 20
615.974
 30
4441.920
 70
    32
  0
VERTEX
  8
T08SSILL
 62
3
 10
-559.590
 20
614.223
 30
4441.933
 70
    32
  0
VERTEX
  8
T08SSILL
 62
3
 10
-564.254
 20
615.022
 30
4441.945
 70
    32
  0
VERTEX
  8
T08SSILL
 62
3
 10
-715.454
 20
760.672
 30
4442.516
 70
    32
  0
VERTEX
  8
T08SSILL
 62
3
 10
-741.337
 20
818.810
 30
4442.609
 70
    32
  0
VERTEX
  8
T08SSILL
 62
3
 10
-734.023
 20
823.729
 30
4442.577
 70
    32
  0
VERTEX
  8
T08SSILL
 62
3
 10
-738.592
 20
830.074
 30
4442.585
 70
    32
  0
VERTEX
  8
T08SSILL
 62
3
 10
-743.968
 20
825.681
 30
4442.610
 70
    32
  0
VERTEX
  8
T08SSILL
 62
3
 10
-871.049
 20
1118.300
 30
4442.676
 70
    32
  0
VERTEX
  8
T08SSILL
 62
3
 10
-888.286
 20
1161.289
 30
4442.681
 70
    32
  0
VERTEX
  8
T08SSILL
 62
3
 10
-884.498
 20
1164.467
 30
4442.663
 70
    32
  0
VERTEX
  8
T08SSILL
 62
3
 10
-889.090
 20
1171.428
 30
4442.670
 70
    32
  0
VERTEX
  8
T08SSILL
 62
3
 10
-891.380
 20
1169.397
 30
4442.681
 70
    32
  0
VERTEX
  8
T08SSILL
 62
3
 10
-1026.081
 20
1483.838
 30
4442.746
 70
    32
  0
VERTEX
  8
T08SSILL
 62
3
 10
-1018.944
 20
1488.871
 30
4442.714
 70
    32
  0
VERTEX
  8
T08SSILL
 62
3
 10
-1024.508
 20
1497.594
 30
4442.722
 70
    32
  0
VERTEX
  8
T08SSILL
 62
3
 10
-1029.882
 20
1493.179
 30
4442.747
 70
    32
  0
VERTEX
  8
T08SSILL
 62
3
 10
-1172.681
 20
1825.062
 30
4442.817
 70
    32
  0
VERTEX
  8
T08SSILL
 62
3
 10
-1166.034
 20
1829.872
 30
4442.787
 70
    32
  0
VERTEX
  8
T08SSILL
 62
3
 10
-1172.104
 20
1839.676
 30
4442.796
 70
    32
  0
VERTEX
  8
T08SSILL
 62
3
 10
-1178.053
 20
1835.576
 30
4442.823
 70
    32
  0
VERTEX
  8
T08SSILL
 62
3
 10
-1288.927
 20
2092.198
 30
4442.912
 70
    32
  0
VERTEX
  8
T08SSILL
 62
3
 10
-1283.980
 20
2095.070
 30
4442.962
 70
    32
  0
VERTEX
  8
T08SSILL
 62
3
 10
-1292.520
 20
2109.770
 30
4443.082
 70
    32
  0
VERTEX
  8
T08SSILL
 62
3
 10
-1295.716
 20
2107.913
 30
4443.053
 70
    32
  0
VERTEX
  8
T08SSILL
 62
3
 10
-1299.653
 20
2117.026
 30
4443.144
 70
    32
  0
VERTEX
  8
T08SSILL
 62
3
 10
-1309.895
 20
2130.930
 30
4443.272
 70
    32
  0
VERTEX
  8
T08SSILL
 62
3
 10
-1309.582
 20
2135.421
 30
4443.323
 70
    32
  0
VERTEX
  8
T08SSILL
 62
3
 10
-1293.674
 20
2178.595
 30
4443.846
 70
    32
  0
VERTEX
  8
T08SSILL
 62
3
 10
-1290.813
 20
2183.548
 30
4443.909
 70
    32
  0
VERTEX
  8
T08SSILL
 62
3
 10
-788.736
 20
2414.106
 30
4447.059
 70
    32
  0
VERTEX
  8
T08SSILL
 62
3
 10
-42.275
 20
2762.223
 30
4448.117
 70
    32
  0
VERTEX
  8
T08SSILL
 62
3
 10
-37.252
 20
2760.489
 30
4448.108
 70
    32
  0
VERTEX
  8
T08SSILL
 62
3
 10
-34.243
 20
2757.073
 30
4448.100
 70
    32
  0
SEQEND
  8
T08SSILL
  0
POLYLINE
  8
T08SSILL
 62
3
 66
     1
 70
     9
  0
VERTEX
  8
T08SSILL
 62
3
 10
1531.071
 20
-2689.687
 30
4439.061
 70
    32
  0
VERTEX
  8
T08SSILL
 62
3
 10
1537.556
 20
-2688.841
 30
4439.048
 70
    32
  0
VERTEX
  8
T08SSILL
 62
3
 10
1554.432
 20
-2689.463
 30
4439.017
 70
    32
  0
VERTEX
  8
T08SSILL
 62
3
 10
1559.287
 20
-2685.052
 30
4439.006
 70
    32
  0
VERTEX
  8
T08SSILL
 62
3
 10
1577.949
 20
-2687.235
 30
4438.972
 70
    32
  0
VERTEX
  8
T08SSILL
 62
3
 10
1587.865
 20
-2683.210
 30
4438.951
 70
    32
  0
VERTEX
  8
T08SSILL
 62
3
 10
1594.369
 20
-2678.711
 30
4438.936
 70
    32
  0
VERTEX
  8
T08SSILL
 62
3
 10
1599.206
 20
-2673.499
 30
4438.924
 70
    32
  0
VERTEX
  8
T08SSILL
 62
3
 10
1606.638
 20
-2661.324
 30
4438.883
 70
    32
  0
VERTEX
  8
T08SSILL
 62
3
 10
1538.861
 20
-2682.307
 30
4439.042
 70
    32
  0
VERTEX
  8
T08SSILL
 62
3
 10
1535.120
 20
-2685.043
 30
4439.050
 70
    32
  0
SEQEND
  8
T08SSILL
  0
POLYLINE
  8
T08SSILL
 62
3
 66
     1
 70
     9
  0
VERTEX
  8
T08SSILL
 62
3
 10
1512.163
 20
-2683.256
 30
4439.092
 70
    32
  0
VERTEX
  8
T08SSILL
 62
3
 10
1510.522
 20
-2681.441
 30
4439.094
 70
    32
  0
VERTEX
  8
T08SSILL
 62
3
 10
1501.043
 20
-2680.453
 30
4439.111
 70
    32
  0
VERTEX
  8
T08SSILL
 62
3
 10
1491.638
 20
-2667.154
 30
4439.119
 70
    32
  0
VERTEX
  8
T08SSILL
 62
3
 10
1484.726
 20
-2662.356
 30
4439.124
 70
    32
  0
VERTEX
  8
T08SSILL
 62
3
 10
1479.758
 20
-2661.717
 30
4439.132
 70
    32
  0
VERTEX
  8
T08SSILL
 62
3
 10
1470.718
 20
-2653.513
 30
4439.126
 70
    32
  0
VERTEX
  8
T08SSILL
 62
3
 10
1472.720
 20
-2640.159
 30
4439.083
 70
    32
  0
VERTEX
  8
T08SSILL
 62
3
 10
1471.888
 20
-2636.525
 30
4439.074
 70
    32
  0
VERTEX
  8
T08SSILL
 62
3
 10
1467.865
 20
-2633.363
 30
4439.073
 70
    32
  0
VERTEX
  8
T08SSILL
 62
3
 10
1459.188
 20
-2619.048
 30
4439.048
 70
    32
  0
VERTEX
  8
T08SSILL
 62
3
 10
1447.753
 20
-2593.286
 30
4438.995
 70
    32
  0
VERTEX
  8
T08SSILL
 62
3
 10
1444.142
 20
-2588.463
 30
4438.988
 70
    32
  0
VERTEX
  8
T08SSILL
 62
3
 10
1430.860
 20
-2578.504
 30
4438.985
 70
    32
  0
VERTEX
  8
T08SSILL
 62
3
 10
1417.391
 20
-2555.739
 30
4438.945
 70
    32
  0
VERTEX
  8
T08SSILL
 62
3
 10
1395.911
 20
-2543.912
 30
4438.953
 70
    32
  0
VERTEX
  8
T08SSILL
 62
3
 10
1389.032
 20
-2536.161
 30
4438.944
 70
    32
  0
VERTEX
  8
T08SSILL
 62
3
 10
1384.076
 20
-2533.820
 30
4438.947
 70
    32
  0
VERTEX
  8
T08SSILL
 62
3
 10
1365.903
 20
-2408.340
 30
4438.616
 70
    32
  0
VERTEX
  8
T08SSILL
 62
3
 10
1369.046
 20
-2399.013
 30
4438.583
 70
    32
  0
VERTEX
  8
T08SSILL
 62
3
 10
1436.951
 20
-2348.470
 30
4438.303
 70
    32
  0
VERTEX
  8
T08SSILL
 62
3
 10
1635.449
 20
-2617.256
 30
4438.698
 70
    32
  0
VERTEX
  8
T08SSILL
 62
3
 10
1614.163
 20
-2651.048
 30
4438.838
 70
    32
  0
VERTEX
  8
T08SSILL
 62
3
 10
1536.270
 20
-2676.111
 30
4439.042
 70
    32
  0
VERTEX
  8
T08SSILL
 62
3
 10
1527.201
 20
-2682.218
 30
4439.063
 70
    32
  0
VERTEX
  8
T08SSILL
 62
3
 10
1518.921
 20
-2692.311
 30
4439.085
 70
    32
  0
VERTEX
  8
T08SSILL
 62
3
 10
1515.602
 20
-2691.585
 30
4439.091
 70
    32
  0
VERTEX
  8
T08SSILL
 62
3
 10
1512.577
 20
-2688.300
 30
4439.094
 70
    32
  0
SEQEND
  8
T08SSILL
  0
POLYLINE
  8
T08SSILL
 62
3
 66
     1
 70
     9
  0
VERTEX
  8
T08SSILL
 62
3
 10
1832.356
 20
-2732.497
 30
4438.529
 70
    32
  0
VERTEX
  8
T08SSILL
 62
3
 10
1824.082
 20
-2720.787
 30
4438.537
 70
    32
  0
VERTEX
  8
T08SSILL
 62
3
 10
1830.729
 20
-2716.577
 30
4438.522
 70
    32
  0
VERTEX
  8
T08SSILL
 62
3
 10
1841.589
 20
-2713.413
 30
4438.500
 70
    32
  0
VERTEX
  8
T08SSILL
 62
3
 10
1847.263
 20
-2709.896
 30
4438.487
 70
    32
  0
VERTEX
  8
T08SSILL
 62
3
 10
1852.339
 20
-2718.543
 30
4438.483
 70
    32
  0
VERTEX
  8
T08SSILL
 62
3
 10
1862.450
 20
-2709.973
 30
4438.459
 70
    32
  0
VERTEX
  8
T08SSILL
 62
3
 10
1868.237
 20
-2701.468
 30
4438.442
 70
    32
  0
VERTEX
  8
T08SSILL
 62
3
 10
1893.518
 20
-2678.405
 30
4438.371
 70
    32
  0
VERTEX
  8
T08SSILL
 62
3
 10
1902.692
 20
-2672.521
 30
4438.346
 70
    32
  0
VERTEX
  8
T08SSILL
 62
3
 10
1914.276
 20
-2687.909
 30
4438.370
 70
    32
  0
VERTEX
  8
T08SSILL
 62
3
 10
1922.513
 20
-2683.731
 30
4438.374
 70
    32
  0
VERTEX
  8
T08SSILL
 62
3
 10
1950.500
 20
-2661.546
 30
4438.387
 70
    32
  0
VERTEX
  8
T08SSILL
 62
3
 10
1966.905
 20
-2651.251
 30
4438.396
 70
    32
  0
VERTEX
  8
T08SSILL
 62
3
 10
1969.658
 20
-2646.739
 30
4438.396
 70
    32
  0
VERTEX
  8
T08SSILL
 62
3
 10
1628.578
 20
-1779.608
 30
4437.249
 70
    32
  0
VERTEX
  8
T08SSILL
 62
3
 10
1567.257
 20
-1621.154
 30
4436.975
 70
    32
  0
VERTEX
  8
T08SSILL
 62
3
 10
1532.398
 20
-1604.855
 30
4436.769
 70
    32
  0
VERTEX
  8
T08SSILL
 62
3
 10
1258.364
 20
-1713.135
 30
4436.616
 70
    32
  0
VERTEX
  8
T08SSILL
 62
3
 10
1275.568
 20
-1736.407
 30
4436.653
 70
    32
  0
VERTEX
  8
T08SSILL
 62
3
 10
1280.691
 20
-1737.587
 30
4436.643
 70
    32
  0
VERTEX
  8
T08SSILL
 62
3
 10
1283.890
 20
-1743.054
 30
4436.654
 70
    32
  0
VERTEX
  8
T08SSILL
 62
3
 10
1285.827
 20
-1755.048
 30
4436.692
 70
    32
  0
VERTEX
  8
T08SSILL
 62
3
 10
1294.094
 20
-1768.644
 30
4436.719
 70
    32
  0
VERTEX
  8
T08SSILL
 62
3
 10
1285.016
 20
-1774.887
 30
4436.766
 70
    32
  0
VERTEX
  8
T08SSILL
 62
3
 10
1266.680
 20
-1746.351
 30
4436.713
 70
    32
  0
VERTEX
  8
T08SSILL
 62
3
 10
1242.558
 20
-1755.753
 30
4436.811
 70
    32
  0
VERTEX
  8
T08SSILL
 62
3
 10
1258.526
 20
-1783.145
 30
4436.867
 70
    32
  0
VERTEX
  8
T08SSILL
 62
3
 10
1267.963
 20
-1810.211
 30
4436.938
 70
    32
  0
VERTEX
  8
T08SSILL
 62
3
 10
1272.604
 20
-1830.711
 30
4437.000
 70
    32
  0
VERTEX
  8
T08SSILL
 62
3
 10
1278.202
 20
-1843.234
 30
4437.030
 70
    32
  0
VERTEX
  8
T08SSILL
 62
3
 10
1288.141
 20
-1846.721
 30
4437.015
 70
    32
  0
VERTEX
  8
T08SSILL
 62
3
 10
1299.740
 20
-1865.204
 30
4437.051
 70
    32
  0
VERTEX
  8
T08SSILL
 62
3
 10
1312.659
 20
-1876.600
 30
4437.057
 70
    32
  0
VERTEX
  8
T08SSILL
 62
3
 10
1345.901
 20
-1857.323
 30
4436.898
 70
    32
  0
VERTEX
  8
T08SSILL
 62
3
 10
1349.648
 20
-1863.430
 30
4436.910
 70
    32
  0
VERTEX
  8
T08SSILL
 62
3
 10
1318.118
 20
-1883.787
 30
4437.068
 70
    32
  0
VERTEX
  8
T08SSILL
 62
3
 10
1318.044
 20
-1886.517
 30
4437.078
 70
    32
  0
VERTEX
  8
T08SSILL
 62
3
 10
1314.833
 20
-1892.443
 30
4437.108
 70
    32
  0
VERTEX
  8
T08SSILL
 62
3
 10
1315.069
 20
-1896.394
 30
4437.122
 70
    32
  0
VERTEX
  8
T08SSILL
 62
3
 10
1312.629
 20
-1899.388
 30
4437.139
 70
    32
  0
VERTEX
  8
T08SSILL
 62
3
 10
1313.498
 20
-1910.881
 30
4437.178
 70
    32
  0
VERTEX
  8
T08SSILL
 62
3
 10
1304.828
 20
-1921.411
 30
4437.239
 70
    32
  0
VERTEX
  8
T08SSILL
 62
3
 10
1304.644
 20
-1925.905
 30
4437.256
 70
    32
  0
VERTEX
  8
T08SSILL
 62
3
 10
1310.092
 20
-1945.278
 30
4437.311
 70
    32
  0
VERTEX
  8
T08SSILL
 62
3
 10
1313.264
 20
-1968.844
 30
4437.387
 70
    32
  0
VERTEX
  8
T08SSILL
 62
3
 10
1313.262
 20
-1981.768
 30
4437.433
 70
    32
  0
VERTEX
  8
T08SSILL
 62
3
 10
1314.403
 20
-1987.483
 30
4437.451
 70
    32
  0
VERTEX
  8
T08SSILL
 62
3
 10
1310.886
 20
-1988.977
 30
4437.465
 70
    32
  0
VERTEX
  8
T08SSILL
 62
3
 10
1307.107
 20
-1983.613
 30
4437.456
 70
    32
  0
VERTEX
  8
T08SSILL
 62
3
 10
1290.313
 20
-1987.215
 30
4437.514
 70
    32
  0
VERTEX
  8
T08SSILL
 62
3
 10
1281.169
 20
-1990.554
 30
4437.551
 70
    32
  0
VERTEX
  8
T08SSILL
 62
3
 10
1278.972
 20
-1984.927
 30
4437.537
 70
    32
  0
VERTEX
  8
T08SSILL
 62
3
 10
1275.456
 20
-1982.728
 30
4437.538
 70
    32
  0
VERTEX
  8
T08SSILL
 62
3
 10
1268.773
 20
-1985.892
 30
4437.567
 70
    32
  0
VERTEX
  8
T08SSILL
 62
3
 10
1266.488
 20
-1984.397
 30
4437.568
 70
    32
  0
VERTEX
  8
T08SSILL
 62
3
 10
1266.817
 20
-1959.188
 30
4437.477
 70
    32
  0
VERTEX
  8
T08SSILL
 62
3
 10
1260.894
 20
-1953.579
 30
4437.473
 70
    32
  0
VERTEX
  8
T08SSILL
 62
3
 10
1258.330
 20
-1943.821
 30
4437.444
 70
    32
  0
VERTEX
  8
T08SSILL
 62
3
 10
1251.519
 20
-1928.678
 30
4437.408
 70
    32
  0
VERTEX
  8
T08SSILL
 62
3
 10
1184.184
 20
-1972.717
 30
4437.702
 70
    32
  0
VERTEX
  8
T08SSILL
 62
3
 10
1181.064
 20
-1976.353
 30
4437.719
 70
    32
  0
VERTEX
  8
T08SSILL
 62
3
 10
1180.753
 20
-1979.796
 30
4437.729
 70
    32
  0
VERTEX
  8
T08SSILL
 62
3
 10
1720.567
 20
-2714.327
 30
4438.725
 70
    32
  0
VERTEX
  8
T08SSILL
 62
3
 10
1753.669
 20
-2743.955
 30
4438.683
 70
    32
  0
VERTEX
  8
T08SSILL
 62
3
 10
1757.353
 20
-2745.765
 30
4438.677
 70
    32
  0
VERTEX
  8
T08SSILL
 62
3
 10
1802.792
 20
-2747.588
 30
4438.594
 70
    32
  0
VERTEX
  8
T08SSILL
 62
3
 10
1809.621
 20
-2746.020
 30
4438.581
 70
    32
  0
VERTEX
  8
T08SSILL
 62
3
 10
1825.356
 20
-2736.719
 30
4438.545
 70
    32
  0
SEQEND
  8
T08SSILL
  0
POLYLINE
  8
T08SSILL
 62
3
 66
     1
 70
     9
  0
VERTEX
  8
T08SSILL
 62
3
 10
1517.531
 20
-1492.942
 30
4436.753
 70
    32
  0
VERTEX
  8
T08SSILL
 62
3
 10
1497.885
 20
-1477.525
 30
4436.641
 70
    32
  0
VERTEX
  8
T08SSILL
 62
3
 10
1485.187
 20
-1461.469
 30
4436.572
 70
    32
  0
VERTEX
  8
T08SSILL
 62
3
 10
1463.991
 20
-1440.251
 30
4436.455
 70
    32
  0
VERTEX
  8
T08SSILL
 62
3
 10
1470.195
 20
-1409.464
 30
4436.515
 70
    32
  0
VERTEX
  8
T08SSILL
 62
3
 10
1462.216
 20
-1390.957
 30
4436.478
 70
    32
  0
VERTEX
  8
T08SSILL
 62
3
 10
1451.833
 20
-1396.948
 30
4436.409
 70
    32
  0
VERTEX
  8
T08SSILL
 62
3
 10
1437.498
 20
-1374.285
 30
4436.335
 70
    32
  0
VERTEX
  8
T08SSILL
 62
3
 10
1443.971
 20
-1370.440
 30
4436.378
 70
    32
  0
VERTEX
  8
T08SSILL
 62
3
 10
1445.637
 20
-1343.523
 30
4436.407
 70
    32
  0
VERTEX
  8
T08SSILL
 62
3
 10
1442.807
 20
-1330.245
 30
4436.398
 70
    32
  0
VERTEX
  8
T08SSILL
 62
3
 10
1430.017
 20
-1313.869
 30
4436.330
 70
    32
  0
VERTEX
  8
T08SSILL
 62
3
 10
1265.070
 20
-1187.378
 30
4435.388
 70
    32
  0
VERTEX
  8
T08SSILL
 62
3
 10
1214.903
 20
-1147.350
 30
4435.102
 70
    32
  0
VERTEX
  8
T08SSILL
 62
3
 10
1212.678
 20
-1148.048
 30
4435.088
 70
    32
  0
VERTEX
  8
T08SSILL
 62
3
 10
1207.861
 20
-1145.565
 30
4435.060
 70
    32
  0
VERTEX
  8
T08SSILL
 62
3
 10
1202.026
 20
-1144.357
 30
4435.024
 70
    32
  0
VERTEX
  8
T08SSILL
 62
3
 10
1184.718
 20
-1142.321
 30
4434.917
 70
    32
  0
VERTEX
  8
T08SSILL
 62
3
 10
1181.578
 20
-1139.644
 30
4434.900
 70
    32
  0
VERTEX
  8
T08SSILL
 62
3
 10
1174.877
 20
-1138.136
 30
4434.859
 70
    32
  0
VERTEX
  8
T08SSILL
 62
3
 10
1158.478
 20
-1135.348
 30
4434.808
 70
    32
  0
VERTEX
  8
T08SSILL
 62
3
 10
1143.388
 20
-1134.898
 30
4434.847
 70
    32
  0
VERTEX
  8
T08SSILL
 62
3
 10
1139.670
 20
-1141.947
 30
4434.882
 70
    32
  0
VERTEX
  8
T08SSILL
 62
3
 10
1138.104
 20
-1147.943
 30
4434.908
 70
    32
  0
VERTEX
  8
T08SSILL
 62
3
 10
1139.694
 20
-1154.070
 30
4434.926
 70
    32
  0
VERTEX
  8
T08SSILL
 62
3
 10
1141.748
 20
-1155.385
 30
4434.925
 70
    32
  0
VERTEX
  8
T08SSILL
 62
3
 10
1130.180
 20
-1173.792
 30
4435.022
 70
    32
  0
VERTEX
  8
T08SSILL
 62
3
 10
1067.078
 20
-1132.173
 30
4435.194
 70
    32
  0
VERTEX
  8
T08SSILL
 62
3
 10
827.528
 20
-1240.302
 30
4436.313
 70
    32
  0
VERTEX
  8
T08SSILL
 62
3
 10
832.873
 20
-1255.456
 30
4436.330
 70
    32
  0
VERTEX
  8
T08SSILL
 62
3
 10
824.393
 20
-1258.706
 30
4436.371
 70
    32
  0
VERTEX
  8
T08SSILL
 62
3
 10
822.444
 20
-1250.632
 30
4436.357
 70
    32
  0
VERTEX
  8
T08SSILL
 62
3
 10
818.237
 20
-1244.045
 30
4436.358
 70
    32
  0
VERTEX
  8
T08SSILL
 62
3
 10
688.667
 20
-1301.305
 30
4436.997
 70
    32
  0
VERTEX
  8
T08SSILL
 62
3
 10
686.147
 20
-1304.889
 30
4437.016
 70
    32
  0
VERTEX
  8
T08SSILL
 62
3
 10
686.286
 20
-1309.990
 30
4437.029
 70
    32
  0
VERTEX
  8
T08SSILL
 62
3
 10
772.065
 20
-1425.458
 30
4437.014
 70
    32
  0
VERTEX
  8
T08SSILL
 62
3
 10
785.463
 20
-1424.345
 30
4436.965
 70
    32
  0
VERTEX
  8
T08SSILL
 62
3
 10
808.197
 20
-1407.806
 30
4436.836
 70
    32
  0
VERTEX
  8
T08SSILL
 62
3
 10
812.045
 20
-1412.446
 30
4436.838
 70
    32
  0
VERTEX
  8
T08SSILL
 62
3
 10
827.119
 20
-1400.597
 30
4436.750
 70
    32
  0
VERTEX
  8
T08SSILL
 62
3
 10
824.319
 20
-1396.089
 30
4436.745
 70
    32
  0
VERTEX
  8
T08SSILL
 62
3
 10
842.176
 20
-1382.775
 30
4436.643
 70
    32
  0
VERTEX
  8
T08SSILL
 62
3
 10
852.194
 20
-1397.508
 30
4436.655
 70
    32
  0
VERTEX
  8
T08SSILL
 62
3
 10
848.482
 20
-1400.165
 30
4436.676
 70
    32
  0
VERTEX
  8
T08SSILL
 62
3
 10
868.957
 20
-1429.651
 30
4436.700
 70
    32
  0
VERTEX
  8
T08SSILL
 62
3
 10
864.416
 20
-1433.240
 30
4436.727
 70
    32
  0
VERTEX
  8
T08SSILL
 62
3
 10
873.988
 20
-1448.131
 30
4436.741
 70
    32
  0
VERTEX
  8
T08SSILL
 62
3
 10
870.726
 20
-1450.543
 30
4436.760
 70
    32
  0
VERTEX
  8
T08SSILL
 62
3
 10
873.208
 20
-1456.356
 30
4436.770
 70
    32
  0
VERTEX
  8
T08SSILL
 62
3
 10
869.577
 20
-1459.192
 30
4436.791
 70
    32
  0
VERTEX
  8
T08SSILL
 62
3
 10
872.515
 20
-1464.584
 30
4436.798
 70
    32
  0
VERTEX
  8
T08SSILL
 62
3
 10
868.161
 20
-1467.917
 30
4436.823
 70
    32
  0
VERTEX
  8
T08SSILL
 62
3
 10
874.794
 20
-1477.416
 30
4436.831
 70
    32
  0
VERTEX
  8
T08SSILL
 62
3
 10
870.407
 20
-1481.538
 30
4436.859
 70
    32
  0
VERTEX
  8
T08SSILL
 62
3
 10
880.085
 20
-1495.994
 30
4436.871
 70
    32
  0
VERTEX
  8
T08SSILL
 62
3
 10
876.268
 20
-1499.086
 30
4436.894
 70
    32
  0
VERTEX
  8
T08SSILL
 62
3
 10
883.227
 20
-1509.213
 30
4436.903
 70
    32
  0
VERTEX
  8
T08SSILL
 62
3
 10
878.781
 20
-1512.630
 30
4436.928
 70
    32
  0
VERTEX
  8
T08SSILL
 62
3
 10
889.200
 20
-1526.151
 30
4436.936
 70
    32
  0
VERTEX
  8
T08SSILL
 62
3
 10
884.469
 20
-1530.083
 30
4436.964
 70
    32
  0
VERTEX
  8
T08SSILL
 62
3
 10
888.278
 20
-1535.688
 30
4436.973
 70
    32
  0
VERTEX
  8
T08SSILL
 62
3
 10
869.424
 20
-1549.751
 30
4437.077
 70
    32
  0
VERTEX
  8
T08SSILL
 62
3
 10
875.345
 20
-1559.484
 30
4437.093
 70
    32
  0
VERTEX
  8
T08SSILL
 62
3
 10
871.520
 20
-1562.751
 30
4437.115
 70
    32
  0
VERTEX
  8
T08SSILL
 62
3
 10
1029.140
 20
-1773.872
 30
4437.426
 70
    32
  0
VERTEX
  8
T08SSILL
 62
3
 10
1076.564
 20
-1759.323
 30
4437.270
 70
    32
  0
VERTEX
  8
T08SSILL
 62
3
 10
1083.098
 20
-1750.020
 30
4437.219
 70
    32
  0
VERTEX
  8
T08SSILL
 62
3
 10
1078.091
 20
-1741.555
 30
4437.202
 70
    32
  0
VERTEX
  8
T08SSILL
 62
3
 10
1071.067
 20
-1716.053
 30
4437.129
 70
    32
  0
VERTEX
  8
T08SSILL
 62
3
 10
1063.927
 20
-1699.681
 30
4437.090
 70
    32
  0
VERTEX
  8
T08SSILL
 62
3
 10
1063.103
 20
-1689.897
 30
4437.057
 70
    32
  0
VERTEX
  8
T08SSILL
 62
3
 10
1063.904
 20
-1655.759
 30
4436.932
 70
    32
  0
VERTEX
  8
T08SSILL
 62
3
 10
1058.833
 20
-1621.290
 30
4436.822
 70
    32
  0
VERTEX
  8
T08SSILL
 62
3
 10
1057.182
 20
-1591.180
 30
4436.718
 70
    32
  0
VERTEX
  8
T08SSILL
 62
3
 10
1044.263
 20
-1557.440
 30
4436.632
 70
    32
  0
VERTEX
  8
T08SSILL
 62
3
 10
1039.475
 20
-1552.146
 30
4436.625
 70
    32
  0
VERTEX
  8
T08SSILL
 62
3
 10
1037.790
 20
-1548.299
 30
4436.616
 70
    32
  0
VERTEX
  8
T08SSILL
 62
3
 10
1036.989
 20
-1542.205
 30
4436.596
 70
    32
  0
VERTEX
  8
T08SSILL
 62
3
 10
1036.754
 20
-1537.276
 30
4436.579
 70
    32
  0
VERTEX
  8
T08SSILL
 62
3
 10
1040.706
 20
-1528.831
 30
4436.538
 70
    32
  0
VERTEX
  8
T08SSILL
 62
3
 10
1043.569
 20
-1525.436
 30
4436.518
 70
    32
  0
VERTEX
  8
T08SSILL
 62
3
 10
1052.863
 20
-1519.497
 30
4436.472
 70
    32
  0
VERTEX
  8
T08SSILL
 62
3
 10
1065.976
 20
-1516.790
 30
4436.427
 70
    32
  0
VERTEX
  8
T08SSILL
 62
3
 10
1069.407
 20
-1516.669
 30
4436.417
 70
    32
  0
VERTEX
  8
T08SSILL
 62
3
 10
1074.337
 20
-1518.542
 30
4436.411
 70
    32
  0
VERTEX
  8
T08SSILL
 62
3
 10
1080.157
 20
-1517.993
 30
4436.393
 70
    32
  0
VERTEX
  8
T08SSILL
 62
3
 10
1090.398
 20
-1514.641
 30
4436.354
 70
    32
  0
VERTEX
  8
T08SSILL
 62
3
 10
1119.946
 20
-1511.737
 30
4436.264
 70
    32
  0
VERTEX
  8
T08SSILL
 62
3
 10
1122.236
 20
-1509.460
 30
4436.250
 70
    32
  0
VERTEX
  8
T08SSILL
 62
3
 10
1125.315
 20
-1503.000
 30
4436.218
 70
    32
  0
VERTEX
  8
T08SSILL
 62
3
 10
1126.253
 20
-1497.329
 30
4436.195
 70
    32
  0
VERTEX
  8
T08SSILL
 62
3
 10
1144.358
 20
-1484.376
 30
4436.100
 70
    32
  0
VERTEX
  8
T08SSILL
 62
3
 10
1146.974
 20
-1484.836
 30
4436.095
 70
    32
  0
VERTEX
  8
T08SSILL
 62
3
 10
1149.942
 20
-1487.419
 30
4436.096
 70
    32
  0
VERTEX
  8
T08SSILL
 62
3
 10
1164.784
 20
-1489.615
 30
4436.064
 70
    32
  0
VERTEX
  8
T08SSILL
 62
3
 10
1171.043
 20
-1508.146
 30
4436.114
 70
    32
  0
VERTEX
  8
T08SSILL
 62
3
 10
1157.566
 20
-1517.513
 30
4436.184
 70
    32
  0
VERTEX
  8
T08SSILL
 62
3
 10
1156.489
 20
-1522.300
 30
4436.204
 70
    32
  0
VERTEX
  8
T08SSILL
 62
3
 10
1158.186
 20
-1527.992
 30
4436.220
 70
    32
  0
VERTEX
  8
T08SSILL
 62
3
 10
1167.293
 20
-1535.046
 30
4436.220
 70
    32
  0
VERTEX
  8
T08SSILL
 62
3
 10
1180.533
 20
-1550.440
 30
4436.240
 70
    32
  0
VERTEX
  8
T08SSILL
 62
3
 10
1199.879
 20
-1543.600
 30
4436.164
 70
    32
  0
VERTEX
  8
T08SSILL
 62
3
 10
1208.031
 20
-1563.088
 30
4436.212
 70
    32
  0
VERTEX
  8
T08SSILL
 62
3
 10
1215.066
 20
-1573.481
 30
4436.230
 70
    32
  0
VERTEX
  8
T08SSILL
 62
3
 10
1218.749
 20
-1590.588
 30
4436.282
 70
    32
  0
VERTEX
  8
T08SSILL
 62
3
 10
1220.821
 20
-1591.464
 30
4436.279
 70
    32
  0
VERTEX
  8
T08SSILL
 62
3
 10
1213.068
 20
-1608.975
 30
4436.363
 70
    32
  0
VERTEX
  8
T08SSILL
 62
3
 10
1191.080
 20
-1613.861
 30
4436.440
 70
    32
  0
VERTEX
  8
T08SSILL
 62
3
 10
1188.649
 20
-1623.774
 30
4436.482
 70
    32
  0
VERTEX
  8
T08SSILL
 62
3
 10
1203.873
 20
-1669.732
 30
4436.606
 70
    32
  0
VERTEX
  8
T08SSILL
 62
3
 10
1210.006
 20
-1682.811
 30
4436.637
 70
    32
  0
VERTEX
  8
T08SSILL
 62
3
 10
1222.495
 20
-1716.358
 30
4436.724
 70
    32
  0
VERTEX
  8
T08SSILL
 62
3
 10
1263.914
 20
-1698.311
 30
4436.547
 70
    32
  0
VERTEX
  8
T08SSILL
 62
3
 10
1530.549
 20
-1597.355
 30
4436.762
 70
    32
  0
VERTEX
  8
T08SSILL
 62
3
 10
1543.631
 20
-1572.339
 30
4436.861
 70
    32
  0
VERTEX
  8
T08SSILL
 62
3
 10
1544.650
 20
-1560.959
 30
4436.875
 70
    32
  0
SEQEND
  8
T08SSILL
  0
POLYLINE
  8
T08SSILL
 62
3
 66
     1
 70
     9
  0
VERTEX
  8
T08SSILL
 62
3
 10
-151.013
 20
-1135.868
 30
4440.407
 70
    32
  0
VERTEX
  8
T08SSILL
 62
3
 10
-159.956
 20
-1143.930
 30
4440.434
 70
    32
  0
VERTEX
  8
T08SSILL
 62
3
 10
-160.181
 20
-1147.259
 30
4440.437
 70
    32
  0
VERTEX
  8
T08SSILL
 62
3
 10
-157.151
 20
-1154.675
 30
4440.438
 70
    32
  0
VERTEX
  8
T08SSILL
 62
3
 10
150.590
 20
-1673.057
 30
4438.716
 70
    32
  0
VERTEX
  8
T08SSILL
 62
3
 10
237.823
 20
-1611.494
 30
4438.352
 70
    32
  0
VERTEX
  8
T08SSILL
 62
3
 10
61.095
 20
-1301.901
 30
4439.511
 70
    32
  0
VERTEX
  8
T08SSILL
 62
3
 10
-33.442
 20
-1166.744
 30
4440.070
 70
    32
  0
VERTEX
  8
T08SSILL
 62
3
 10
-57.468
 20
-1100.042
 30
4440.173
 70
    32
  0
VERTEX
  8
T08SSILL
 62
3
 10
-63.502
 20
-1095.136
 30
4440.181
 70
    32
  0
VERTEX
  8
T08SSILL
 62
3
 10
-69.867
 20
-1077.040
 30
4440.177
 70
    32
  0
VERTEX
  8
T08SSILL
 62
3
 10
-101.815
 20
-1099.696
 30
4440.267
 70
    32
  0
VERTEX
  8
T08SSILL
 62
3
 10
-107.139
 20
-1094.644
 30
4440.273
 70
    32
  0
VERTEX
  8
T08SSILL
 62
3
 10
-72.682
 20
-1068.666
 30
4440.175
 70
    32
  0
VERTEX
  8
T08SSILL
 62
3
 10
-99.937
 20
-988.741
 30
4440.154
 70
    32
  0
VERTEX
  8
T08SSILL
 62
3
 10
-98.531
 20
-984.495
 30
4440.147
 70
    32
  0
VERTEX
  8
T08SSILL
 62
3
 10
-99.924
 20
-979.957
 30
4440.145
 70
    32
  0
VERTEX
  8
T08SSILL
 62
3
 10
-135.859
 20
-876.307
 30
4440.120
 70
    32
  0
VERTEX
  8
T08SSILL
 62
3
 10
-142.145
 20
-866.217
 30
4440.123
 70
    32
  0
VERTEX
  8
T08SSILL
 62
3
 10
-146.575
 20
-854.347
 30
4440.121
 70
    32
  0
VERTEX
  8
T08SSILL
 62
3
 10
-185.609
 20
-781.652
 30
4440.132
 70
    32
  0
VERTEX
  8
T08SSILL
 62
3
 10
-197.444
 20
-770.467
 30
4440.146
 70
    32
  0
VERTEX
  8
T08SSILL
 62
3
 10
-220.930
 20
-729.303
 30
4440.156
 70
    32
  0
VERTEX
  8
T08SSILL
 62
3
 10
-225.602
 20
-710.289
 30
4440.147
 70
    32
  0
VERTEX
  8
T08SSILL
 62
3
 10
-297.548
 20
-578.518
 30
4440.229
 70
    32
  0
VERTEX
  8
T08SSILL
 62
3
 10
-312.423
 20
-562.772
 30
4440.260
 70
    32
  0
VERTEX
  8
T08SSILL
 62
3
 10
-373.419
 20
-520.007
 30
4440.365
 70
    32
  0
VERTEX
  8
T08SSILL
 62
3
 10
-325.059
 20
-744.290
 30
4440.391
 70
    32
  0
VERTEX
  8
T08SSILL
 62
3
 10
-230.454
 20
-973.491
 30
4440.416
 70
    32
  0
VERTEX
  8
T08SSILL
 62
3
 10
-165.471
 20
-1137.113
 30
4440.439
 70
    32
  0
VERTEX
  8
T08SSILL
 62
3
 10
-154.233
 20
-1128.795
 30
4440.407
 70
    32
  0
SEQEND
  8
T08SSILL
  0
POLYLINE
  8
T08SSILL
 62
3
 66
     1
 70
     9
  0
VERTEX
  8
T08SSILL
 62
3
 10
1534.620
 20
-14.128
 30
4439.838
 70
    32
  0
VERTEX
  8
T08SSILL
 62
3
 10
1532.378
 20
-36.185
 30
4439.798
 70
    32
  0
VERTEX
  8
T08SSILL
 62
3
 10
1520.706
 20
-55.154
 30
4439.766
 70
    32
  0
VERTEX
  8
T08SSILL
 62
3
 10
1455.542
 20
-52.042
 30
4439.794
 70
    32
  0
VERTEX
  8
T08SSILL
 62
3
 10
1450.829
 20
-49.433
 30
4439.800
 70
    32
  0
VERTEX
  8
T08SSILL
 62
3
 10
1449.812
 20
-46.831
 30
4439.806
 70
    32
  0
VERTEX
  8
T08SSILL
 62
3
 10
1442.135
 20
-49.006
 30
4439.804
 70
    32
  0
VERTEX
  8
T08SSILL
 62
3
 10
1441.031
 20
-46.399
 30
4439.809
 70
    32
  0
VERTEX
  8
T08SSILL
 62
3
 10
1441.559
 20
-42.816
 30
4439.816
 70
    32
  0
VERTEX
  8
T08SSILL
 62
3
 10
1452.483
 20
-8.581
 30
4439.877
 70
    32
  0
VERTEX
  8
T08SSILL
 62
3
 10
1456.717
 20
-10.198
 30
4439.872
 70
    32
  0
VERTEX
  8
T08SSILL
 62
3
 10
1458.437
 20
-3.856
 30
4439.883
 70
    32
  0
VERTEX
  8
T08SSILL
 62
3
 10
1454.634
 20
-2.437
 30
4439.887
 70
    32
  0
VERTEX
  8
T08SSILL
 62
3
 10
1459.388
 20
13.703
 30
4439.916
 70
    32
  0
VERTEX
  8
T08SSILL
 62
3
 10
1470.890
 20
44.697
 30
4439.970
 70
    32
  0
VERTEX
  8
T08SSILL
 62
3
 10
1507.249
 20
33.608
 30
4439.937
 70
    32
  0
SEQEND
  8
T08SSILL
  0
POLYLINE
  8
T08SSILL
 62
3
 66
     1
 70
     9
  0
VERTEX
  8
T08SSILL
 62
3
 10
1403.913
 20
-232.164
 30
4439.473
 70
    32
  0
VERTEX
  8
T08SSILL
 62
3
 10
1396.912
 20
-234.901
 30
4439.470
 70
    32
  0
VERTEX
  8
T08SSILL
 62
3
 10
1386.634
 20
-234.484
 30
4439.474
 70
    32
  0
VERTEX
  8
T08SSILL
 62
3
 10
1381.837
 20
-231.784
 30
4439.481
 70
    32
  0
VERTEX
  8
T08SSILL
 62
3
 10
1391.996
 20
-200.593
 30
4439.536
 70
    32
  0
VERTEX
  8
T08SSILL
 62
3
 10
1404.330
 20
-202.167
 30
4439.529
 70
    32
  0
VERTEX
  8
T08SSILL
 62
3
 10
1402.090
 20
-226.265
 30
4439.485
 70
    32
  0
SEQEND
  8
T08SSILL
  0
POLYLINE
  8
T08SSILL
 62
3
 66
     1
 70
     9
  0
VERTEX
  8
T08SSILL
 62
3
 10
385.971
 20
-1277.109
 30
4438.730
 70
    32
  0
VERTEX
  8
T08SSILL
 62
3
 10
394.026
 20
-1284.181
 30
4438.720
 70
    32
  0
VERTEX
  8
T08SSILL
 62
3
 10
403.685
 20
-1286.777
 30
4438.701
 70
    32
  0
VERTEX
  8
T08SSILL
 62
3
 10
406.320
 20
-1284.282
 30
4438.692
 70
    32
  0
VERTEX
  8
T08SSILL
 62
3
 10
406.103
 20
-1269.076
 30
4438.673
 70
    32
  0
VERTEX
  8
T08SSILL
 62
3
 10
407.657
 20
-1265.635
 30
4438.665
 70
    32
  0
VERTEX
  8
T08SSILL
 62
3
 10
407.999
 20
-1243.744
 30
4438.640
 70
    32
  0
VERTEX
  8
T08SSILL
 62
3
 10
405.556
 20
-1235.414
 30
4438.640
 70
    32
  0
VERTEX
  8
T08SSILL
 62
3
 10
378.384
 20
-1244.785
 30
4438.706
 70
    32
  0
VERTEX
  8
T08SSILL
 62
3
 10
379.021
 20
-1247.329
 30
4438.708
 70
    32
  0
VERTEX
  8
T08SSILL
 62
3
 10
366.318
 20
-1249.937
 30
4438.740
 70
    32
  0
VERTEX
  8
T08SSILL
 62
3
 10
363.806
 20
-1242.012
 30
4438.736
 70
    32
  0
VERTEX
  8
T08SSILL
 62
3
 10
399.919
 20
-1228.116
 30
4438.640
 70
    32
  0
VERTEX
  8
T08SSILL
 62
3
 10
382.818
 20
-1182.053
 30
4438.640
 70
    32
  0
VERTEX
  8
T08SSILL
 62
3
 10
376.670
 20
-1180.617
 30
4438.640
 70
    32
  0
VERTEX
  8
T08SSILL
 62
3
 10
349.598
 20
-1197.721
 30
4438.713
 70
    32
  0
VERTEX
  8
T08SSILL
 62
3
 10
345.929
 20
-1192.692
 30
4438.715
 70
    32
  0
VERTEX
  8
T08SSILL
 62
3
 10
369.700
 20
-1177.098
 30
4438.640
 70
    32
  0
VERTEX
  8
T08SSILL
 62
3
 10
371.443
 20
-1170.570
 30
4438.640
 70
    32
  0
VERTEX
  8
T08SSILL
 62
3
 10
343.765
 20
-1129.907
 30
4438.640
 70
    32
  0
VERTEX
  8
T08SSILL
 62
3
 10
334.250
 20
-1134.082
 30
4438.667
 70
    32
  0
VERTEX
  8
T08SSILL
 62
3
 10
321.519
 20
-1148.968
 30
4438.716
 70
    32
  0
VERTEX
  8
T08SSILL
 62
3
 10
322.809
 20
-1154.953
 30
4438.720
 70
    32
  0
VERTEX
  8
T08SSILL
 62
3
 10
330.487
 20
-1167.474
 30
4438.718
 70
    32
  0
VERTEX
  8
T08SSILL
 62
3
 10
333.611
 20
-1176.017
 30
4438.722
 70
    32
  0
VERTEX
  8
T08SSILL
 62
3
 10
320.108
 20
-1186.855
 30
4438.767
 70
    32
  0
VERTEX
  8
T08SSILL
 62
3
 10
312.414
 20
-1196.401
 30
4438.797
 70
    32
  0
VERTEX
  8
T08SSILL
 62
3
 10
309.655
 20
-1203.334
 30
4438.812
 70
    32
  0
VERTEX
  8
T08SSILL
 62
3
 10
316.037
 20
-1211.101
 30
4438.807
 70
    32
  0
VERTEX
  8
T08SSILL
 62
3
 10
343.942
 20
-1193.916
 30
4438.721
 70
    32
  0
VERTEX
  8
T08SSILL
 62
3
 10
354.640
 20
-1208.121
 30
4438.714
 70
    32
  0
VERTEX
  8
T08SSILL
 62
3
 10
334.996
 20
-1222.899
 30
4438.778
 70
    32
  0
VERTEX
  8
T08SSILL
 62
3
 10
337.551
 20
-1225.870
 30
4438.776
 70
    32
  0
VERTEX
  8
T08SSILL
 62
3
 10
355.685
 20
-1212.764
 30
4438.718
 70
    32
  0
VERTEX
  8
T08SSILL
 62
3
 10
359.659
 20
-1217.053
 30
4438.714
 70
    32
  0
VERTEX
  8
T08SSILL
 62
3
 10
326.303
 20
-1241.675
 30
4438.822
 70
    32
  0
VERTEX
  8
T08SSILL
 62
3
 10
340.034
 20
-1259.671
 30
4438.813
 70
    32
  0
VERTEX
  8
T08SSILL
 62
3
 10
343.526
 20
-1257.236
 30
4438.802
 70
    32
  0
VERTEX
  8
T08SSILL
 62
3
 10
347.360
 20
-1262.397
 30
4438.800
 70
    32
  0
VERTEX
  8
T08SSILL
 62
3
 10
334.396
 20
-1272.991
 30
4438.843
 70
    32
  0
VERTEX
  8
T08SSILL
 62
3
 10
347.439
 20
-1292.179
 30
4438.838
 70
    32
  0
VERTEX
  8
T08SSILL
 62
3
 10
378.926
 20
-1268.720
 30
4438.735
 70
    32
  0
SEQEND
  8
T08SSILL
  0
TEXT
  8
T08SSILL
 62
3
 10
2808.346
 20
-504.156
 30
4446.178
 40
0.200
  1
800
 50
-28.180
 41
 1.0 
  0
POLYLINE
  8
T08SSILL
 62
3
 66
     1
 70
     9
  0
VERTEX
  8
T08SSILL
 62
3
 10
2171.149
 20
-4544.646
 30
4440.034
 70
    32
  0
VERTEX
  8
T08SSILL
 62
3
 10
2171.782
 20
-4603.459
 30
4440.093
 70
    32
  0
VERTEX
  8
T08SSILL
 62
3
 10
2169.581
 20
-4607.481
 30
4440.094
 70
    32
  0
VERTEX
  8
T08SSILL
 62
3
 10
2122.972
 20
-4607.399
 30
4440.042
 70
    32
  0
VERTEX
  8
T08SSILL
 62
3
 10
2122.921
 20
-4592.457
 30
4440.031
 70
    32
  0
VERTEX
  8
T08SSILL
 62
3
 10
2128.129
 20
-4587.294
 30
4440.032
 70
    32
  0
SEQEND
  8
T08SSILL
  0
POLYLINE
  8
T08SSILL
 62
3
 66
     1
 70
     9
  0
VERTEX
  8
T08SSILL
 62
3
 10
1728.189
 20
-2816.060
 30
4438.778
 70
    32
  0
VERTEX
  8
T08SSILL
 62
3
 10
1730.008
 20
-2814.618
 30
4438.774
 70
    32
  0
VERTEX
  8
T08SSILL
 62
3
 10
1716.653
 20
-2794.703
 30
4438.785
 70
    32
  0
VERTEX
  8
T08SSILL
 62
3
 10
1711.467
 20
-2797.722
 30
4438.797
 70
    32
  0
VERTEX
  8
T08SSILL
 62
3
 10
1675.858
 20
-2744.882
 30
4438.828
 70
    32
  0
VERTEX
  8
T08SSILL
 62
3
 10
1675.861
 20
-2740.529
 30
4438.825
 70
    32
  0
VERTEX
  8
T08SSILL
 62
3
 10
1677.432
 20
-2739.193
 30
4438.822
 70
    32
  0
VERTEX
  8
T08SSILL
 62
3
 10
1713.599
 20
-2721.902
 30
4438.743
 70
    32
  0
VERTEX
  8
T08SSILL
 62
3
 10
1744.845
 20
-2753.980
 30
4438.706
 70
    32
  0
VERTEX
  8
T08SSILL
 62
3
 10
1751.173
 20
-2759.881
 30
4438.667
 70
    32
  0
VERTEX
  8
T08SSILL
 62
3
 10
1773.070
 20
-2764.632
 30
4438.673
 70
    32
  0
VERTEX
  8
T08SSILL
 62
3
 10
1787.277
 20
-2763.761
 30
4438.677
 70
    32
  0
VERTEX
  8
T08SSILL
 62
3
 10
1788.532
 20
-2764.790
 30
4438.680
 70
    32
  0
VERTEX
  8
T08SSILL
 62
3
 10
1786.099
 20
-2771.046
 30
4438.671
 70
    32
  0
VERTEX
  8
T08SSILL
 62
3
 10
1785.060
 20
-2777.465
 30
4438.662
 70
    32
  0
VERTEX
  8
T08SSILL
 62
3
 10
1769.106
 20
-2812.966
 30
4438.700
 70
    32
  0
VERTEX
  8
T08SSILL
 62
3
 10
1747.328
 20
-2853.291
 30
4438.767
 70
    32
  0
VERTEX
  8
T08SSILL
 62
3
 10
1730.617
 20
-2826.162
 30
4438.780
 70
    32
  0
SEQEND
  8
T08SSILL
  0
POLYLINE
  8
T08SSILL
 62
3
 66
     1
 70
     9
  0
VERTEX
  8
T08SSILL
 62
3
 10
1834.174
 20
-2722.508
 30
4438.562
 70
    32
  0
VERTEX
  8
T08SSILL
 62
3
 10
1837.596
 20
-2729.058
 30
4438.562
 70
    32
  0
VERTEX
  8
T08SSILL
 62
3
 10
1845.772
 20
-2723.581
 30
4438.562
 70
    32
  0
VERTEX
  8
T08SSILL
 62
3
 10
1844.626
 20
-2718.591
 30
4438.562
 70
    32
  0
SEQEND
  8
T08SSILL
  0
POLYLINE
  8
T08SSILL
 62
3
 66
     1
 70
     8
  0
VERTEX
  8
T08SSILL
 62
3
 10
-1399.969
 20
-2171.884
 30
4444.155
 70
    32
  0
VERTEX
  8
T08SSILL
 62
3
 10
-1343.025
 20
-2134.145
 30
4443.980
 70
    32
  0
VERTEX
  8
T08SSILL
 62
3
 10
-1305.118
 20
-2192.238
 30
4443.936
 70
    32
  0
VERTEX
  8
T08SSILL
 62
3
 10
-1293.595
 20
-2214.630
 30
4443.927
 70
    32
  0
VERTEX
  8
T08SSILL
 62
3
 10
-1236.266
 20
-2292.858
 30
4443.853
 70
    32
  0
VERTEX
  8
T08SSILL
 62
3
 10
-1283.854
 20
-2326.008
 30
4444.001
 70
    32
  0
VERTEX
  8
T08SSILL
 62
3
 10
-1279.457
 20
-2332.066
 30
4443.995
 70
    32
  0
VERTEX
  8
T08SSILL
 62
3
 10
-1106.581
 20
-2210.458
 30
4443.491
 70
    32
  0
VERTEX
  8
T08SSILL
 62
3
 10
-1110.363
 20
-2203.960
 30
4443.492
 70
    32
  0
VERTEX
  8
T08SSILL
 62
3
 10
-1228.540
 20
-2287.494
 30
4443.829
 70
    32
  0
VERTEX
  8
T08SSILL
 62
3
 10
-1231.263
 20
-2287.232
 30
4443.836
 70
    32
  0
VERTEX
  8
T08SSILL
 62
3
 10
-1269.603
 20
-2230.513
 30
4443.881
 70
    32
  0
VERTEX
  8
T08SSILL
 62
3
 10
-1283.579
 20
-2217.170
 30
4443.905
 70
    32
  0
VERTEX
  8
T08SSILL
 62
3
 10
-1293.607
 20
-2197.237
 30
4443.912
 70
    32
  0
VERTEX
  8
T08SSILL
 62
3
 10
-1311.516
 20
-2167.369
 30
4443.931
 70
    32
  0
VERTEX
  8
T08SSILL
 62
3
 10
-1336.834
 20
-2129.617
 30
4443.961
 70
    32
  0
VERTEX
  8
T08SSILL
 62
3
 10
-1180.041
 20
-2019.330
 30
4443.472
 70
    32
  0
VERTEX
  8
T08SSILL
 62
3
 10
-1183.341
 20
-2013.499
 30
4443.475
 70
    32
  0
VERTEX
  8
T08SSILL
 62
3
 10
-1339.859
 20
-2122.469
 30
4443.962
 70
    32
  0
VERTEX
  8
T08SSILL
 62
3
 10
-1361.377
 20
-2094.158
 30
4443.991
 70
    32
  0
VERTEX
  8
T08SSILL
 62
3
 10
-1392.859
 20
-2021.965
 30
4444.006
 70
    32
  0
VERTEX
  8
T08SSILL
 62
3
 10
-1416.279
 20
-1977.453
 30
4444.025
 70
    32
  0
VERTEX
  8
T08SSILL
 62
3
 10
-1427.857
 20
-1949.393
 30
4444.029
 70
    32
  0
VERTEX
  8
T08SSILL
 62
3
 10
-1310.062
 20
-1866.261
 30
4443.662
 70
    32
  0
VERTEX
  8
T08SSILL
 62
3
 10
-1313.892
 20
-1860.866
 30
4443.667
 70
    32
  0
VERTEX
  8
T08SSILL
 62
3
 10
-1430.969
 20
-1941.980
 30
4444.030
 70
    32
  0
VERTEX
  8
T08SSILL
 62
3
 10
-1434.528
 20
-1935.620
 30
4444.034
 70
    32
  0
VERTEX
  8
T08SSILL
 62
3
 10
-1447.920
 20
-1879.396
 30
4444.018
 70
    32
  0
VERTEX
  8
T08SSILL
 62
3
 10
-1454.849
 20
-1864.829
 30
4444.022
 70
    32
  0
VERTEX
  8
T08SSILL
 62
3
 10
-1509.726
 20
-1792.021
 30
4444.095
 70
    32
  0
VERTEX
  8
T08SSILL
 62
3
 10
-1525.031
 20
-1779.943
 30
4444.123
 70
    32
  0
VERTEX
  8
T08SSILL
 62
3
 10
-1527.551
 20
-1775.789
 30
4444.125
 70
    32
  0
VERTEX
  8
T08SSILL
 62
3
 10
-1528.564
 20
-1770.152
 30
4444.123
 70
    32
  0
VERTEX
  8
T08SSILL
 62
3
 10
-1430.579
 20
-1701.123
 30
4443.818
 70
    32
  0
VERTEX
  8
T08SSILL
 62
3
 10
-1434.227
 20
-1694.762
 30
4443.821
 70
    32
  0
VERTEX
  8
T08SSILL
 62
3
 10
-1531.675
 20
-1762.563
 30
4444.124
 70
    32
  0
VERTEX
  8
T08SSILL
 62
3
 10
-1537.131
 20
-1762.874
 30
4444.138
 70
    32
  0
VERTEX
  8
T08SSILL
 62
3
 10
-1650.656
 20
-1615.559
 30
4444.292
 70
    32
  0
VERTEX
  8
T08SSILL
 62
3
 10
-1530.130
 20
-1531.919
 30
4443.917
 70
    32
  0
VERTEX
  8
T08SSILL
 62
3
 10
-1533.870
 20
-1526.173
 30
4443.922
 70
    32
  0
VERTEX
  8
T08SSILL
 62
3
 10
-1655.016
 20
-1610.424
 30
4444.298
 70
    32
  0
VERTEX
  8
T08SSILL
 62
3
 10
-1889.346
 20
-1301.047
 30
4444.611
 70
    32
  0
VERTEX
  8
T08SSILL
 62
3
 10
-1862.209
 20
-1279.455
 30
4444.524
 70
    32
  0
VERTEX
  8
T08SSILL
 62
3
 10
-706.434
 20
-454.293
 30
4440.916
 70
    32
  0
VERTEX
  8
T08SSILL
 62
3
 10
-634.777
 20
-407.857
 30
4440.732
 70
    32
  0
VERTEX
  8
T08SSILL
 62
3
 10
-627.914
 20
-405.855
 30
4440.728
 70
    32
  0
VERTEX
  8
T08SSILL
 62
3
 10
-520.366
 20
-416.086
 30
4440.618
 70
    32
  0
VERTEX
  8
T08SSILL
 62
3
 10
-381.768
 20
-513.730
 30
4440.380
 70
    32
  0
VERTEX
  8
T08SSILL
 62
3
 10
-337.303
 20
-738.295
 30
4440.411
 70
    32
  0
VERTEX
  8
T08SSILL
 62
3
 10
-303.366
 20
-822.946
 30
4440.423
 70
    32
  0
VERTEX
  8
T08SSILL
 62
3
 10
-232.146
 20
-990.990
 30
4440.437
 70
    32
  0
VERTEX
  8
T08SSILL
 62
3
 10
-174.831
 20
-1138.306
 30
4440.460
 70
    32
  0
VERTEX
  8
T08SSILL
 62
3
 10
148.364
 20
-1684.384
 30
4438.760
 70
    32
  0
VERTEX
  8
T08SSILL
 62
3
 10
241.770
 20
-1617.983
 30
4438.368
 70
    32
  0
VERTEX
  8
T08SSILL
 62
3
 10
382.323
 20
-1791.590
 30
4438.744
 70
    32
  0
VERTEX
  8
T08SSILL
 62
3
 10
407.895
 20
-1802.516
 30
4438.726
 70
    32
  0
VERTEX
  8
T08SSILL
 62
3
 10
416.774
 20
-1805.155
 30
4438.716
 70
    32
  0
VERTEX
  8
T08SSILL
 62
3
 10
442.348
 20
-1869.429
 30
4438.854
 70
    32
  0
VERTEX
  8
T08SSILL
 62
3
 10
444.193
 20
-1871.627
 30
4438.856
 70
    32
  0
VERTEX
  8
T08SSILL
 62
3
 10
627.646
 20
-2075.721
 30
4439.092
 70
    32
  0
VERTEX
  8
T08SSILL
 62
3
 10
655.339
 20
-2088.387
 30
4439.075
 70
    32
  0
VERTEX
  8
T08SSILL
 62
3
 10
662.020
 20
-2089.619
 30
4439.065
 70
    32
  0
VERTEX
  8
T08SSILL
 62
3
 10
669.406
 20
-2089.268
 30
4439.050
 70
    32
  0
VERTEX
  8
T08SSILL
 62
3
 10
687.256
 20
-2077.490
 30
4438.981
 70
    32
  0
VERTEX
  8
T08SSILL
 62
3
 10
704.046
 20
-2089.362
 30
4438.982
 70
    32
  0
VERTEX
  8
T08SSILL
 62
3
 10
723.389
 20
-2088.223
 30
4438.941
 70
    32
  0
VERTEX
  8
T08SSILL
 62
3
 10
729.543
 20
-2089.279
 30
4438.932
 70
    32
  0
VERTEX
  8
T08SSILL
 62
3
 10
741.586
 20
-2099.392
 30
4438.938
 70
    32
  0
VERTEX
  8
T08SSILL
 62
3
 10
751.784
 20
-2104.669
 30
4438.934
 70
    32
  0
VERTEX
  8
T08SSILL
 62
3
 10
754.158
 20
-2105.197
 30
4438.930
 70
    32
  0
VERTEX
  8
T08SSILL
 62
3
 10
763.390
 20
-2102.033
 30
4438.903
 70
    32
  0
VERTEX
  8
T08SSILL
 62
3
 10
768.930
 20
-2094.913
 30
4438.871
 70
    32
  0
VERTEX
  8
T08SSILL
 62
3
 10
782.644
 20
-2101.333
 30
4438.863
 70
    32
  0
VERTEX
  8
T08SSILL
 62
3
 10
792.053
 20
-2093.334
 30
4438.822
 70
    32
  0
VERTEX
  8
T08SSILL
 62
3
 10
797.153
 20
-2091.401
 30
4438.806
 70
    32
  0
VERTEX
  8
T08SSILL
 62
3
 10
801.189
 20
-2084.784
 30
4438.779
 70
    32
  0
VERTEX
  8
T08SSILL
 62
3
 10
788.979
 20
-2073.640
 30
4438.770
 70
    32
  0
VERTEX
  8
T08SSILL
 62
3
 10
770.520
 20
-2052.096
 30
4438.744
 70
    32
  0
VERTEX
  8
T08SSILL
 62
3
 10
763.579
 20
-2023.961
 30
4438.675
 70
    32
  0
VERTEX
  8
T08SSILL
 62
3
 10
769.383
 20
-2017.104
 30
4438.644
 70
    32
  0
VERTEX
  8
T08SSILL
 62
3
 10
775.978
 20
-2012.621
 30
4438.618
 70
    32
  0
VERTEX
  8
T08SSILL
 62
3
 10
866.098
 20
-2002.438
 30
4438.412
 70
    32
  0
VERTEX
  8
T08SSILL
 62
3
 10
874.186
 20
-2004.989
 30
4438.403
 70
    32
  0
VERTEX
  8
T08SSILL
 62
3
 10
882.450
 20
-2005.079
 30
4438.387
 70
    32
  0
VERTEX
  8
T08SSILL
 62
3
 10
898.628
 20
-2002.796
 30
4438.349
 70
    32
  0
VERTEX
  8
T08SSILL
 62
3
 10
903.288
 20
-1998.752
 30
4438.328
 70
    32
  0
VERTEX
  8
T08SSILL
 62
3
 10
961.932
 20
-1991.377
 30
4438.192
 70
    32
  0
VERTEX
  8
T08SSILL
 62
3
 10
968.349
 20
-1998.060
 30
4438.199
 70
    32
  0
VERTEX
  8
T08SSILL
 62
3
 10
972.657
 20
-1998.237
 30
4438.191
 70
    32
  0
VERTEX
  8
T08SSILL
 62
3
 10
973.800
 20
-1997.534
 30
4438.186
 70
    32
  0
VERTEX
  8
T08SSILL
 62
3
 10
975.296
 20
-1989.797
 30
4438.161
 70
    32
  0
VERTEX
  8
T08SSILL
 62
3
 10
1081.682
 20
-1977.067
 30
4437.915
 70
    32
  0
VERTEX
  8
T08SSILL
 62
3
 10
1096.184
 20
-1999.314
 30
4437.952
 70
    32
  0
VERTEX
  8
T08SSILL
 62
3
 10
1102.426
 20
-2005.997
 30
4437.959
 70
    32
  0
VERTEX
  8
T08SSILL
 62
3
 10
1110.415
 20
-2069.740
 30
4438.129
 70
    32
  0
VERTEX
  8
T08SSILL
 62
3
 10
1078.675
 20
-2074.218
 30
4438.205
 70
    32
  0
VERTEX
  8
T08SSILL
 62
3
 10
1079.202
 20
-2080.636
 30
4438.222
 70
    32
  0
VERTEX
  8
T08SSILL
 62
3
 10
1112.260
 20
-2076.686
 30
4438.146
 70
    32
  0
VERTEX
  8
T08SSILL
 62
3
 10
1128.780
 20
-2126.803
 30
4438.260
 70
    32
  0
VERTEX
  8
T08SSILL
 62
3
 10
1069.870
 20
-2147.190
 30
4438.435
 70
    32
  0
VERTEX
  8
T08SSILL
 62
3
 10
1071.628
 20
-2153.696
 30
4438.450
 70
    32
  0
VERTEX
  8
T08SSILL
 62
3
 10
1131.417
 20
-2133.397
 30
4438.274
 70
    32
  0
VERTEX
  8
T08SSILL
 62
3
 10
1144.598
 20
-2169.007
 30
4438.352
 70
    32
  0
VERTEX
  8
T08SSILL
 62
3
 10
1142.049
 20
-2170.062
 30
4438.360
 70
    32
  0
VERTEX
  8
T08SSILL
 62
3
 10
1144.685
 20
-2176.656
 30
4438.374
 70
    32
  0
VERTEX
  8
T08SSILL
 62
3
 10
1147.147
 20
-2175.602
 30
4438.366
 70
    32
  0
VERTEX
  8
T08SSILL
 62
3
 10
1161.998
 20
-2220.180
 30
4438.467
 70
    32
  0
VERTEX
  8
T08SSILL
 62
3
 10
1190.749
 20
-2209.107
 30
4438.378
 70
    32
  0
VERTEX
  8
T08SSILL
 62
3
 10
1200.948
 20
-2207.262
 30
4438.353
 70
    32
  0
VERTEX
  8
T08SSILL
 62
3
 10
1204.640
 20
-2212.890
 30
4438.362
 70
    32
  0
VERTEX
  8
T08SSILL
 62
3
 10
1214.663
 20
-2210.430
 30
4438.335
 70
    32
  0
VERTEX
  8
T08SSILL
 62
3
 10
1220.906
 20
-2210.343
 30
4438.323
 70
    32
  0
VERTEX
  8
T08SSILL
 62
3
 10
1224.510
 20
-2211.047
 30
4438.318
 70
    32
  0
VERTEX
  8
T08SSILL
 62
3
 10
1228.905
 20
-2215.004
 30
4438.321
 70
    32
  0
VERTEX
  8
T08SSILL
 62
3
 10
1232.774
 20
-2212.983
 30
4438.307
 70
    32
  0
VERTEX
  8
T08SSILL
 62
3
 10
1231.546
 20
-2198.740
 30
4438.268
 70
    32
  0
VERTEX
  8
T08SSILL
 62
3
 10
1232.779
 20
-2187.574
 30
4438.233
 70
    32
  0
VERTEX
  8
T08SSILL
 62
3
 10
1230.056
 20
-2169.110
 30
4438.185
 70
    32
  0
VERTEX
  8
T08SSILL
 62
3
 10
1228.830
 20
-2145.635
 30
4438.119
 70
    32
  0
VERTEX
  8
T08SSILL
 62
3
 10
1226.106
 20
-2135.085
 30
4438.093
 70
    32
  0
VERTEX
  8
T08SSILL
 62
3
 10
1225.229
 20
-2124.270
 30
4438.064
 70
    32
  0
VERTEX
  8
T08SSILL
 62
3
 10
1244.483
 20
-2122.955
 30
4438.022
 70
    32
  0
VERTEX
  8
T08SSILL
 62
3
 10
1274.463
 20
-2126.741
 30
4437.974
 70
    32
  0
VERTEX
  8
T08SSILL
 62
3
 10
1280.266
 20
-2129.028
 30
4437.970
 70
    32
  0
VERTEX
  8
T08SSILL
 62
3
 10
1285.188
 20
-2134.480
 30
4437.976
 70
    32
  0
VERTEX
  8
T08SSILL
 62
3
 10
1316.341
 20
-2184.428
 30
4438.061
 70
    32
  0
VERTEX
  8
T08SSILL
 62
3
 10
1430.572
 20
-2340.400
 30
4438.292
 70
    32
  0
VERTEX
  8
T08SSILL
 62
3
 10
1298.104
 20
-2437.279
 30
4438.833
 70
    32
  0
VERTEX
  8
T08SSILL
 62
3
 10
1296.498
 20
-2441.518
 30
4438.849
 70
    32
  0
VERTEX
  8
T08SSILL
 62
3
 10
1262.611
 20
-2467.745
 30
4438.992
 70
    32
  0
VERTEX
  8
T08SSILL
 62
3
 10
1268.119
 20
-2472.375
 30
4438.995
 70
    32
  0
VERTEX
  8
T08SSILL
 62
3
 10
1303.008
 20
-2446.225
 30
4438.850
 70
    32
  0
VERTEX
  8
T08SSILL
 62
3
 10
1306.098
 20
-2445.705
 30
4438.842
 70
    32
  0
VERTEX
  8
T08SSILL
 62
3
 10
1358.430
 20
-2407.556
 30
4438.629
 70
    32
  0
VERTEX
  8
T08SSILL
 62
3
 10
1378.493
 20
-2545.904
 30
4438.993
 70
    32
  0
VERTEX
  8
T08SSILL
 62
3
 10
1384.722
 20
-2558.173
 30
4439.016
 70
    32
  0
VERTEX
  8
T08SSILL
 62
3
 10
1404.351
 20
-2581.149
 30
4439.045
 70
    32
  0
VERTEX
  8
T08SSILL
 62
3
 10
1415.504
 20
-2596.560
 30
4439.068
 70
    32
  0
VERTEX
  8
T08SSILL
 62
3
 10
1425.535
 20
-2624.405
 30
4439.130
 70
    32
  0
VERTEX
  8
T08SSILL
 62
3
 10
1425.949
 20
-2631.751
 30
4439.150
 70
    32
  0
VERTEX
  8
T08SSILL
 62
3
 10
1428.630
 20
-2639.747
 30
4439.168
 70
    32
  0
VERTEX
  8
T08SSILL
 62
3
 10
1437.373
 20
-2661.466
 30
4439.214
 70
    32
  0
VERTEX
  8
T08SSILL
 62
3
 10
1447.684
 20
-2670.541
 30
4439.203
 70
    32
  0
VERTEX
  8
T08SSILL
 62
3
 10
1455.016
 20
-2696.295
 30
4439.207
 70
    32
  0
VERTEX
  8
T08SSILL
 62
3
 10
1469.212
 20
-2700.180
 30
4439.183
 70
    32
  0
VERTEX
  8
T08SSILL
 62
3
 10
1487.166
 20
-2702.029
 30
4439.151
 70
    32
  0
VERTEX
  8
T08SSILL
 62
3
 10
1498.542
 20
-2705.026
 30
4439.131
 70
    32
  0
VERTEX
  8
T08SSILL
 62
3
 10
1511.250
 20
-2713.948
 30
4439.114
 70
    32
  0
VERTEX
  8
T08SSILL
 62
3
 10
1518.075
 20
-2714.846
 30
4439.102
 70
    32
  0
VERTEX
  8
T08SSILL
 62
3
 10
1521.873
 20
-2719.113
 30
4439.097
 70
    32
  0
VERTEX
  8
T08SSILL
 62
3
 10
1527.704
 20
-2720.284
 30
4439.087
 70
    32
  0
VERTEX
  8
T08SSILL
 62
3
 10
1527.788
 20
-2732.991
 30
4439.096
 70
    32
  0
VERTEX
  8
T08SSILL
 62
3
 10
1538.298
 20
-2742.012
 30
4439.082
 70
    32
  0
VERTEX
  8
T08SSILL
 62
3
 10
1554.361
 20
-2751.008
 30
4439.058
 70
    32
  0
VERTEX
  8
T08SSILL
 62
3
 10
1560.782
 20
-2751.765
 30
4439.047
 70
    32
  0
VERTEX
  8
T08SSILL
 62
3
 10
1580.446
 20
-2769.637
 30
4439.022
 70
    32
  0
VERTEX
  8
T08SSILL
 62
3
 10
1593.459
 20
-2769.795
 30
4438.998
 70
    32
  0
VERTEX
  8
T08SSILL
 62
3
 10
1610.280
 20
-2785.830
 30
4438.977
 70
    32
  0
VERTEX
  8
T08SSILL
 62
3
 10
1630.283
 20
-2792.036
 30
4438.944
 70
    32
  0
VERTEX
  8
T08SSILL
 62
3
 10
1636.835
 20
-2807.550
 30
4438.942
 70
    32
  0
VERTEX
  8
T08SSILL
 62
3
 10
1644.439
 20
-2838.752
 30
4438.948
 70
    32
  0
VERTEX
  8
T08SSILL
 62
3
 10
1659.527
 20
-2871.236
 30
4438.942
 70
    32
  0
VERTEX
  8
T08SSILL
 62
3
 10
1663.609
 20
-2870.294
 30
4438.933
 70
    32
  0
VERTEX
  8
T08SSILL
 62
3
 10
1677.889
 20
-2862.269
 30
4438.902
 70
    32
  0
VERTEX
  8
T08SSILL
 62
3
 10
1679.115
 20
-2863.392
 30
4438.900
 70
    32
  0
VERTEX
  8
T08SSILL
 62
3
 10
1676.243
 20
-2869.161
 30
4438.909
 70
    32
  0
VERTEX
  8
T08SSILL
 62
3
 10
1660.073
 20
-2886.635
 30
4438.951
 70
    32
  0
VERTEX
  8
T08SSILL
 62
3
 10
1671.427
 20
-2902.092
 30
4438.940
 70
    32
  0
VERTEX
  8
T08SSILL
 62
3
 10
1681.472
 20
-2919.429
 30
4438.933
 70
    32
  0
VERTEX
  8
T08SSILL
 62
3
 10
1694.604
 20
-2915.982
 30
4438.906
 70
    32
  0
VERTEX
  8
T08SSILL
 62
3
 10
1706.272
 20
-2918.623
 30
4438.886
 70
    32
  0
VERTEX
  8
T08SSILL
 62
3
 10
1720.549
 20
-2917.152
 30
4438.858
 70
    32
  0
VERTEX
  8
T08SSILL
 62
3
 10
1730.479
 20
-2918.180
 30
4438.841
 70
    32
  0
VERTEX
  8
T08SSILL
 62
3
 10
1742.704
 20
-2916.705
 30
4438.817
 70
    32
  0
VERTEX
  8
T08SSILL
 62
3
 10
1751.974
 20
-2908.392
 30
4438.794
 70
    32
  0
VERTEX
  8
T08SSILL
 62
3
 10
1762.330
 20
-2901.605
 30
4438.771
 70
    32
  0
VERTEX
  8
T08SSILL
 62
3
 10
1767.010
 20
-2900.599
 30
4438.761
 70
    32
  0
VERTEX
  8
T08SSILL
 62
3
 10
1774.259
 20
-2893.632
 30
4438.743
 70
    32
  0
VERTEX
  8
T08SSILL
 62
3
 10
1761.292
 20
-2873.158
 30
4438.754
 70
    32
  0
VERTEX
  8
T08SSILL
 62
3
 10
1750.388
 20
-2859.891
 30
4438.765
 70
    32
  0
VERTEX
  8
T08SSILL
 62
3
 10
1774.551
 20
-2814.626
 30
4438.691
 70
    32
  0
VERTEX
  8
T08SSILL
 62
3
 10
1780.275
 20
-2814.245
 30
4438.680
 70
    32
  0
VERTEX
  8
T08SSILL
 62
3
 10
1784.904
 20
-2815.316
 30
4438.672
 70
    32
  0
VERTEX
  8
T08SSILL
 62
3
 10
1794.262
 20
-2793.849
 30
4438.643
 70
    32
  0
VERTEX
  8
T08SSILL
 62
3
 10
1948.878
 20
-3026.939
 30
4438.664
 70
    32
  0
VERTEX
  8
T08SSILL
 62
3
 10
1851.024
 20
-3770.451
 30
4439.177
 70
    32
  0
VERTEX
  8
T08SSILL
 62
3
 10
1814.654
 20
-3796.401
 30
4439.261
 70
    32
  0
VERTEX
  8
T08SSILL
 62
3
 10
1798.490
 20
-3815.500
 30
4439.304
 70
    32
  0
VERTEX
  8
T08SSILL
 62
3
 10
1786.764
 20
-3819.267
 30
4439.328
 70
    32
  0
VERTEX
  8
T08SSILL
 62
3
 10
1780.990
 20
-3816.921
 30
4439.338
 70
    32
  0
VERTEX
  8
T08SSILL
 62
3
 10
1789.016
 20
-3804.686
 30
4439.315
 70
    32
  0
VERTEX
  8
T08SSILL
 62
3
 10
1795.083
 20
-3778.749
 30
4439.286
 70
    32
  0
VERTEX
  8
T08SSILL
 62
3
 10
1790.934
 20
-3774.079
 30
4439.291
 70
    32
  0
VERTEX
  8
T08SSILL
 62
3
 10
1787.575
 20
-3777.760
 30
4439.300
 70
    32
  0
VERTEX
  8
T08SSILL
 62
3
 10
1776.539
 20
-3814.723
 30
4439.344
 70
    32
  0
VERTEX
  8
T08SSILL
 62
3
 10
1768.225
 20
-3830.047
 30
4439.370
 70
    32
  0
VERTEX
  8
T08SSILL
 62
3
 10
1737.623
 20
-3786.022
 30
4439.398
 70
    32
  0
VERTEX
  8
T08SSILL
 62
3
 10
1738.255
 20
-3782.485
 30
4439.394
 70
    32
  0
VERTEX
  8
T08SSILL
 62
3
 10
1796.542
 20
-3730.269
 30
4439.252
 70
    32
  0
VERTEX
  8
T08SSILL
 62
3
 10
1792.925
 20
-3725.764
 30
4439.255
 70
    32
  0
VERTEX
  8
T08SSILL
 62
3
 10
1731.201
 20
-3777.963
 30
4439.404
 70
    32
  0
VERTEX
  8
T08SSILL
 62
3
 10
1728.217
 20
-3774.237
 30
4439.407
 70
    32
  0
VERTEX
  8
T08SSILL
 62
3
 10
1724.175
 20
-3761.989
 30
4439.407
 70
    32
  0
VERTEX
  8
T08SSILL
 62
3
 10
1701.346
 20
-3735.948
 30
4439.432
 70
    32
  0
VERTEX
  8
T08SSILL
 62
3
 10
1674.074
 20
-3699.517
 30
4439.459
 70
    32
  0
VERTEX
  8
T08SSILL
 62
3
 10
1646.378
 20
-3655.431
 30
4439.481
 70
    32
  0
VERTEX
  8
T08SSILL
 62
3
 10
1632.712
 20
-3637.921
 30
4439.495
 70
    32
  0
VERTEX
  8
T08SSILL
 62
3
 10
1632.540
 20
-3625.416
 30
4439.487
 70
    32
  0
VERTEX
  8
T08SSILL
 62
3
 10
1629.415
 20
-3614.910
 30
4439.486
 70
    32
  0
VERTEX
  8
T08SSILL
 62
3
 10
1623.507
 20
-3606.136
 30
4439.492
 70
    32
  0
VERTEX
  8
T08SSILL
 62
3
 10
1624.798
 20
-3600.471
 30
4439.485
 70
    32
  0
VERTEX
  8
T08SSILL
 62
3
 10
1631.777
 20
-3592.926
 30
4439.468
 70
    32
  0
VERTEX
  8
T08SSILL
 62
3
 10
1665.184
 20
-3568.536
 30
4439.389
 70
    32
  0
VERTEX
  8
T08SSILL
 62
3
 10
1660.749
 20
-3562.814
 30
4439.394
 70
    32
  0
VERTEX
  8
T08SSILL
 62
3
 10
1629.358
 20
-3586.722
 30
4439.468
 70
    32
  0
VERTEX
  8
T08SSILL
 62
3
 10
1615.691
 20
-3594.582
 30
4439.498
 70
    32
  0
VERTEX
  8
T08SSILL
 62
3
 10
1599.851
 20
-3574.210
 30
4439.515
 70
    32
  0
VERTEX
  8
T08SSILL
 62
3
 10
1594.744
 20
-3578.545
 30
4439.527
 70
    32
  0
VERTEX
  8
T08SSILL
 62
3
 10
1608.839
 20
-3599.746
 30
4439.515
 70
    32
  0
VERTEX
  8
T08SSILL
 62
3
 10
1566.000
 20
-3632.349
 30
4439.616
 70
    32
  0
VERTEX
  8
T08SSILL
 62
3
 10
1569.278
 20
-3637.478
 30
4439.613
 70
    32
  0
VERTEX
  8
T08SSILL
 62
3
 10
1609.132
 20
-3609.606
 30
4439.521
 70
    32
  0
VERTEX
  8
T08SSILL
 62
3
 10
1618.055
 20
-3610.830
 30
4439.505
 70
    32
  0
VERTEX
  8
T08SSILL
 62
3
 10
1623.547
 20
-3616.530
 30
4439.498
 70
    32
  0
VERTEX
  8
T08SSILL
 62
3
 10
1625.179
 20
-3623.014
 30
4439.500
 70
    32
  0
VERTEX
  8
T08SSILL
 62
3
 10
1622.711
 20
-3635.662
 30
4439.512
 70
    32
  0
VERTEX
  8
T08SSILL
 62
3
 10
1653.265
 20
-3677.399
 30
4439.483
 70
    32
  0
VERTEX
  8
T08SSILL
 62
3
 10
1658.425
 20
-3688.303
 30
4439.481
 70
    32
  0
VERTEX
  8
T08SSILL
 62
3
 10
1721.898
 20
-3777.604
 30
4439.421
 70
    32
  0
VERTEX
  8
T08SSILL
 62
3
 10
1720.199
 20
-3786.415
 30
4439.430
 70
    32
  0
VERTEX
  8
T08SSILL
 62
3
 10
1699.204
 20
-3804.599
 30
4439.481
 70
    32
  0
VERTEX
  8
T08SSILL
 62
3
 10
1703.990
 20
-3809.494
 30
4439.476
 70
    32
  0
VERTEX
  8
T08SSILL
 62
3
 10
1730.785
 20
-3790.303
 30
4439.413
 70
    32
  0
VERTEX
  8
T08SSILL
 62
3
 10
1761.090
 20
-3833.653
 30
4439.385
 70
    32
  0
VERTEX
  8
T08SSILL
 62
3
 10
1756.798
 20
-3836.499
 30
4439.395
 70
    32
  0
VERTEX
  8
T08SSILL
 62
3
 10
1753.143
 20
-3855.355
 30
4439.415
 70
    32
  0
VERTEX
  8
T08SSILL
 62
3
 10
1768.053
 20
-3873.820
 30
4439.399
 70
    32
  0
VERTEX
  8
T08SSILL
 62
3
 10
1767.736
 20
-3878.926
 30
4439.403
 70
    32
  0
VERTEX
  8
T08SSILL
 62
3
 10
1759.811
 20
-3890.948
 30
4439.426
 70
    32
  0
VERTEX
  8
T08SSILL
 62
3
 10
1736.655
 20
-3914.778
 30
4439.484
 70
    32
  0
VERTEX
  8
T08SSILL
 62
3
 10
1740.822
 20
-3919.238
 30
4439.479
 70
    32
  0
VERTEX
  8
T08SSILL
 62
3
 10
1768.183
 20
-3892.651
 30
4439.411
 70
    32
  0
VERTEX
  8
T08SSILL
 62
3
 10
1815.809
 20
-3934.034
 30
4439.350
 70
    32
  0
VERTEX
  8
T08SSILL
 62
3
 10
1818.081
 20
-3957.338
 30
4439.361
 70
    32
  0
VERTEX
  8
T08SSILL
 62
3
 10
1823.697
 20
-3955.012
 30
4439.349
 70
    32
  0
VERTEX
  8
T08SSILL
 62
3
 10
1826.454
 20
-3959.305
 30
4439.347
 70
    32
  0
VERTEX
  8
T08SSILL
 62
3
 10
1709.480
 20
-4842.210
 30
4440.144
 70
    32
  0
VERTEX
  8
T08SSILL
 62
3
 10
1716.956
 20
-4841.703
 30
4440.130
 70
    32
  0
VERTEX
  8
T08SSILL
 62
3
 10
1834.038
 20
-3948.781
 30
4439.326
 70
    32
  0
VERTEX
  8
T08SSILL
 62
3
 10
1842.535
 20
-3943.179
 30
4439.306
 70
    32
  0
VERTEX
  8
T08SSILL
 62
3
 10
1892.379
 20
-4011.940
 30
4439.357
 70
    32
  0
VERTEX
  8
T08SSILL
 62
3
 10
1940.243
 20
-4183.146
 30
4439.535
 70
    32
  0
VERTEX
  8
T08SSILL
 62
3
 10
1843.284
 20
-4209.956
 30
4439.480
 70
    32
  0
VERTEX
  8
T08SSILL
 62
3
 10
1846.944
 20
-4224.244
 30
4439.483
 70
    32
  0
VERTEX
  8
T08SSILL
 62
3
 10
1933.469
 20
-4201.941
 30
4439.543
 70
    32
  0
VERTEX
  8
T08SSILL
 62
3
 10
1932.897
 20
-4192.882
 30
4439.535
 70
    32
  0
VERTEX
  8
T08SSILL
 62
3
 10
1944.098
 20
-4190.056
 30
4439.544
 70
    32
  0
VERTEX
  8
T08SSILL
 62
3
 10
2171.503
 20
-4349.396
 30
4439.882
 70
    32
  0
VERTEX
  8
T08SSILL
 62
3
 10
2171.753
 20
-4533.231
 30
4440.026
 70
    32
  0
VERTEX
  8
T08SSILL
 62
3
 10
2115.942
 20
-4588.929
 30
4440.021
 70
    32
  0
VERTEX
  8
T08SSILL
 62
3
 10
2116.151
 20
-4617.052
 30
4440.043
 70
    32
  0
VERTEX
  8
T08SSILL
 62
3
 10
2123.005
 20
-4617.063
 30
4440.049
 70
    32
  0
VERTEX
  8
T08SSILL
 62
3
 10
2123.378
 20
-4627.789
 30
4440.058
 70
    32
  0
VERTEX
  8
T08SSILL
 62
3
 10
2153.279
 20
-4627.526
 30
4440.095
 70
    32
  0
VERTEX
  8
T08SSILL
 62
3
 10
2159.229
 20
-4624.247
 30
4440.097
 70
    32
  0
VERTEX
  8
T08SSILL
 62
3
 10
2163.160
 20
-4620.743
 30
4440.097
 70
    32
  0
VERTEX
  8
T08SSILL
 62
3
 10
2165.671
 20
-4619.758
 30
4440.097
 70
    32
  0
VERTEX
  8
T08SSILL
 62
3
 10
2172.114
 20
-4618.772
 30
4440.097
 70
    32
  0
VERTEX
  8
T08SSILL
 62
3
 10
2177.792
 20
-4618.772
 30
4440.097
 70
    32
  0
VERTEX
  8
T08SSILL
 62
3
 10
2179.430
 20
-4617.787
 30
4440.097
 70
    32
  0
VERTEX
  8
T08SSILL
 62
3
 10
2179.867
 20
-4616.145
 30
4440.097
 70
    32
  0
VERTEX
  8
T08SSILL
 62
3
 10
2179.758
 20
-4597.205
 30
4440.097
 70
    32
  0
VERTEX
  8
T08SSILL
 62
3
 10
2179.072
 20
-4587.689
 30
4440.095
 70
    32
  0
VERTEX
  8
T08SSILL
 62
3
 10
2179.072
 20
-4587.689
 30
4440.095
 70
    32
  0
VERTEX
  8
T08SSILL
 62
3
 10
2178.912
 20
-4353.545
 30
4439.891
 70
    32
  0
VERTEX
  8
T08SSILL
 62
3
 10
2365.852
 20
-4484.067
 30
4440.194
 70
    32
  0
VERTEX
  8
T08SSILL
 62
3
 10
2410.995
 20
-4513.437
 30
4440.287
 70
    32
  0
VERTEX
  8
T08SSILL
 62
3
 10
3430.620
 20
-5222.836
 30
4442.325
 70
    32
  0
VERTEX
  8
T08SSILL
 62
3
 10
3433.774
 20
-5219.294
 30
4442.336
 70
    32
  0
VERTEX
  8
T08SSILL
 62
3
 10
3494.057
 20
-5202.747
 30
4442.458
 70
    32
  0
VERTEX
  8
T08SSILL
 62
3
 10
3487.420
 20
-5197.848
 30
4442.455
 70
    32
  0
VERTEX
  8
T08SSILL
 62
3
 10
3427.486
 20
-5213.775
 30
4442.334
 70
    32
  0
VERTEX
  8
T08SSILL
 62
3
 10
1951.342
 20
-4187.348
 30
4439.549
 70
    32
  0
VERTEX
  8
T08SSILL
 62
3
 10
1974.917
 20
-4181.017
 30
4439.568
 70
    32
  0
VERTEX
  8
T08SSILL
 62
3
 10
1972.072
 20
-4174.765
 30
4439.561
 70
    32
  0
VERTEX
  8
T08SSILL
 62
3
 10
1946.244
 20
-4181.387
 30
4439.540
 70
    32
  0
VERTEX
  8
T08SSILL
 62
3
 10
1897.257
 20
-4007.016
 30
4439.358
 70
    32
  0
VERTEX
  8
T08SSILL
 62
3
 10
1843.435
 20
-3933.317
 30
4439.298
 70
    32
  0
VERTEX
  8
T08SSILL
 62
3
 10
1849.033
 20
-3902.743
 30
4439.268
 70
    32
  0
VERTEX
  8
T08SSILL
 62
3
 10
1856.092
 20
-3879.904
 30
4439.239
 70
    32
  0
VERTEX
  8
T08SSILL
 62
3
 10
1846.456
 20
-3857.957
 30
4439.243
 70
    32
  0
VERTEX
  8
T08SSILL
 62
3
 10
1945.177
 20
-3112.926
 30
4438.726
 70
    32
  0
VERTEX
  8
T08SSILL
 62
3
 10
1951.793
 20
-3053.704
 30
4438.687
 70
    32
  0
VERTEX
  8
T08SSILL
 62
3
 10
1957.026
 20
-3024.043
 30
4438.668
 70
    32
  0
VERTEX
  8
T08SSILL
 62
3
 10
1871.039
 20
-2896.372
 30
4438.565
 70
    32
  0
VERTEX
  8
T08SSILL
 62
3
 10
1872.107
 20
-2889.183
 30
4438.559
 70
    32
  0
VERTEX
  8
T08SSILL
 62
3
 10
1883.166
 20
-2882.433
 30
4438.534
 70
    32
  0
VERTEX
  8
T08SSILL
 62
3
 10
1884.196
 20
-2879.130
 30
4438.529
 70
    32
  0
VERTEX
  8
T08SSILL
 62
3
 10
1897.106
 20
-2867.370
 30
4438.498
 70
    32
  0
VERTEX
  8
T08SSILL
 62
3
 10
2294.661
 20
-2519.011
 30
4438.603
 70
    32
  0
VERTEX
  8
T08SSILL
 62
3
 10
2714.855
 20
-2156.488
 30
4438.804
 70
    32
  0
VERTEX
  8
T08SSILL
 62
3
 10
3771.666
 20
-2158.491
 30
4439.631
 70
    32
  0
VERTEX
  8
T08SSILL
 62
3
 10
3803.582
 20
-2167.967
 30
4439.660
 70
    32
  0
VERTEX
  8
T08SSILL
 62
3
 10
3993.460
 20
-2516.853
 30
4439.951
 70
    32
  0
VERTEX
  8
T08SSILL
 62
3
 10
3976.163
 20
-2528.446
 30
4439.946
 70
    32
  0
VERTEX
  8
T08SSILL
 62
3
 10
3975.707
 20
-2531.599
 30
4439.948
 70
    32
  0
VERTEX
  8
T08SSILL
 62
3
 10
3966.536
 20
-2539.366
 30
4439.946
 70
    32
  0
VERTEX
  8
T08SSILL
 62
3
 10
3982.753
 20
-2561.747
 30
4439.977
 70
    32
  0
VERTEX
  8
T08SSILL
 62
3
 10
3995.218
 20
-2553.100
 30
4439.981
 70
    32
  0
VERTEX
  8
T08SSILL
 62
3
 10
3992.937
 20
-2550.088
 30
4439.976
 70
    32
  0
VERTEX
  8
T08SSILL
 62
3
 10
4012.647
 20
-2535.243
 30
4439.981
 70
    32
  0
VERTEX
  8
T08SSILL
 62
3
 10
3812.238
 20
-2169.317
 30
4439.668
 70
    32
  0
VERTEX
  8
T08SSILL
 62
3
 10
3813.736
 20
-2169.130
 30
4439.669
 70
    32
  0
VERTEX
  8
T08SSILL
 62
3
 10
3814.221
 20
-2150.512
 30
4439.662
 70
    32
  0
VERTEX
  8
T08SSILL
 62
3
 10
2711.354
 20
-2149.869
 30
4438.802
 70
    32
  0
VERTEX
  8
T08SSILL
 62
3
 10
2288.914
 20
-2514.383
 30
4438.597
 70
    32
  0
VERTEX
  8
T08SSILL
 62
3
 10
1884.772
 20
-2868.075
 30
4438.521
 70
    32
  0
VERTEX
  8
T08SSILL
 62
3
 10
1876.787
 20
-2876.834
 30
4438.542
 70
    32
  0
VERTEX
  8
T08SSILL
 62
3
 10
1865.952
 20
-2879.957
 30
4438.564
 70
    32
  0
VERTEX
  8
T08SSILL
 62
3
 10
1859.440
 20
-2878.071
 30
4438.575
 70
    32
  0
VERTEX
  8
T08SSILL
 62
3
 10
1855.612
 20
-2874.676
 30
4438.580
 70
    32
  0
VERTEX
  8
T08SSILL
 62
3
 10
1801.124
 20
-2792.403
 30
4438.627
 70
    32
  0
VERTEX
  8
T08SSILL
 62
3
 10
1796.596
 20
-2784.267
 30
4438.630
 70
    32
  0
VERTEX
  8
T08SSILL
 62
3
 10
1792.948
 20
-2773.539
 30
4438.630
 70
    32
  0
VERTEX
  8
T08SSILL
 62
3
 10
1801.865
 20
-2763.687
 30
4438.607
 70
    32
  0
VERTEX
  8
T08SSILL
 62
3
 10
1821.967
 20
-2753.083
 30
4438.562
 70
    32
  0
SEQEND
  8
T08SSILL
  0
POLYLINE
  8
T08SSILL
 62
3
 66
     1
 70
     8
  0
VERTEX
  8
T08SSILL
 62
3
 10
1866.081
 20
-2721.856
 30
4438.460
 70
    32
  0
VERTEX
  8
T08SSILL
 62
3
 10
1885.054
 20
-2712.609
 30
4438.418
 70
    32
  0
VERTEX
  8
T08SSILL
 62
3
 10
1903.151
 20
-2700.223
 30
4438.377
 70
    32
  0
VERTEX
  8
T08SSILL
 62
3
 10
1907.244
 20
-2701.136
 30
4438.375
 70
    32
  0
VERTEX
  8
T08SSILL
 62
3
 10
1911.630
 20
-2700.362
 30
4438.378
 70
    32
  0
VERTEX
  8
T08SSILL
 62
3
 10
1929.283
 20
-2687.903
 30
4438.383
 70
    32
  0
VERTEX
  8
T08SSILL
 62
3
 10
1941.998
 20
-2680.564
 30
4438.387
 70
    32
  0
VERTEX
  8
T08SSILL
 62
3
 10
1973.971
 20
-2653.824
 30
4438.402
 70
    32
  0
VERTEX
  8
T08SSILL
 62
3
 10
1978.559
 20
-2648.805
 30
4438.404
 70
    32
  0
VERTEX
  8
T08SSILL
 62
3
 10
1978.332
 20
-2647.401
 30
4438.403
 70
    32
  0
VERTEX
  8
T08SSILL
 62
3
 10
1961.489
 20
-2604.747
 30
4438.387
 70
    32
  0
VERTEX
  8
T08SSILL
 62
3
 10
1962.437
 20
-2603.726
 30
4438.387
 70
    32
  0
VERTEX
  8
T08SSILL
 62
3
 10
1961.581
 20
-2601.303
 30
4438.386
 70
    32
  0
VERTEX
  8
T08SSILL
 62
3
 10
1960.138
 20
-2601.325
 30
4438.385
 70
    32
  0
VERTEX
  8
T08SSILL
 62
3
 10
1919.137
 20
-2497.499
 30
4438.355
 70
    32
  0
VERTEX
  8
T08SSILL
 62
3
 10
1935.234
 20
-2490.922
 30
4438.360
 70
    32
  0
VERTEX
  8
T08SSILL
 62
3
 10
1931.834
 20
-2482.216
 30
4438.357
 70
    32
  0
VERTEX
  8
T08SSILL
 62
3
 10
1915.854
 20
-2488.704
 30
4438.355
 70
    32
  0
VERTEX
  8
T08SSILL
 62
3
 10
1849.803
 20
-2320.839
 30
4438.257
 70
    32
  0
VERTEX
  8
T08SSILL
 62
3
 10
1850.501
 20
-2316.697
 30
4438.264
 70
    32
  0
VERTEX
  8
T08SSILL
 62
3
 10
1848.658
 20
-2311.876
 30
4438.256
 70
    32
  0
VERTEX
  8
T08SSILL
 62
3
 10
1845.371
 20
-2309.678
 30
4438.237
 70
    32
  0
VERTEX
  8
T08SSILL
 62
3
 10
1811.966
 20
-2225.556
 30
4438.087
 70
    32
  0
VERTEX
  8
T08SSILL
 62
3
 10
1812.617
 20
-2221.860
 30
4438.093
 70
    32
  0
VERTEX
  8
T08SSILL
 62
3
 10
1810.387
 20
-2216.567
 30
4438.083
 70
    32
  0
VERTEX
  8
T08SSILL
 62
3
 10
1807.898
 20
-2215.312
 30
4438.068
 70
    32
  0
VERTEX
  8
T08SSILL
 62
3
 10
1791.570
 20
-2174.193
 30
4437.995
 70
    32
  0
VERTEX
  8
T08SSILL
 62
3
 10
1773.700
 20
-2128.902
 30
4437.914
 70
    32
  0
VERTEX
  8
T08SSILL
 62
3
 10
1772.966
 20
-2120.224
 30
4437.916
 70
    32
  0
VERTEX
  8
T08SSILL
 62
3
 10
1769.638
 20
-2118.607
 30
4437.896
 70
    32
  0
VERTEX
  8
T08SSILL
 62
3
 10
1698.159
 20
-1937.448
 30
4437.574
 70
    32
  0
VERTEX
  8
T08SSILL
 62
3
 10
1696.978
 20
-1929.481
 30
4437.572
 70
    32
  0
VERTEX
  8
T08SSILL
 62
3
 10
1694.578
 20
-1928.371
 30
4437.558
 70
    32
  0
VERTEX
  8
T08SSILL
 62
3
 10
1659.993
 20
-1840.717
 30
4437.403
 70
    32
  0
VERTEX
  8
T08SSILL
 62
3
 10
1661.585
 20
-1837.084
 30
4437.415
 70
    32
  0
VERTEX
  8
T08SSILL
 62
3
 10
1659.490
 20
-1832.093
 30
4437.405
 70
    32
  0
VERTEX
  8
T08SSILL
 62
3
 10
1655.368
 20
-1828.996
 30
4437.382
 70
    32
  0
VERTEX
  8
T08SSILL
 62
3
 10
1524.619
 20
-1491.605
 30
4436.798
 70
    32
  0
VERTEX
  8
T08SSILL
 62
3
 10
1530.387
 20
-1490.517
 30
4436.834
 70
    32
  0
VERTEX
  8
T08SSILL
 62
3
 10
1545.608
 20
-1481.554
 30
4436.935
 70
    32
  0
VERTEX
  8
T08SSILL
 62
3
 10
1536.844
 20
-1462.913
 30
4436.894
 70
    32
  0
VERTEX
  8
T08SSILL
 62
3
 10
1503.671
 20
-1443.369
 30
4436.700
 70
    32
  0
VERTEX
  8
T08SSILL
 62
3
 10
1495.301
 20
-1428.535
 30
4436.658
 70
    32
  0
VERTEX
  8
T08SSILL
 62
3
 10
1499.616
 20
-1416.468
 30
4436.693
 70
    32
  0
VERTEX
  8
T08SSILL
 62
3
 10
1498.692
 20
-1413.334
 30
4436.690
 70
    32
  0
VERTEX
  8
T08SSILL
 62
3
 10
1501.585
 20
-1397.326
 30
4436.719
 70
    32
  0
VERTEX
  8
T08SSILL
 62
3
 10
1503.163
 20
-1378.422
 30
4436.741
 70
    32
  0
VERTEX
  8
T08SSILL
 62
3
 10
1497.017
 20
-1348.546
 30
4436.724
 70
    32
  0
VERTEX
  8
T08SSILL
 62
3
 10
1491.724
 20
-1341.875
 30
4436.695
 70
    32
  0
VERTEX
  8
T08SSILL
 62
3
 10
1488.297
 20
-1342.369
 30
4436.673
 70
    32
  0
VERTEX
  8
T08SSILL
 62
3
 10
1476.068
 20
-1331.250
 30
4436.605
 70
    32
  0
VERTEX
  8
T08SSILL
 62
3
 10
1466.504
 20
-1331.328
 30
4436.545
 70
    32
  0
VERTEX
  8
T08SSILL
 62
3
 10
1450.388
 20
-1319.514
 30
4436.453
 70
    32
  0
VERTEX
  8
T08SSILL
 62
3
 10
1434.257
 20
-1306.149
 30
4436.361
 70
    32
  0
VERTEX
  8
T08SSILL
 62
3
 10
1265.881
 20
-1178.612
 30
4435.399
 70
    32
  0
VERTEX
  8
T08SSILL
 62
3
 10
1237.572
 20
-1155.669
 30
4435.238
 70
    32
  0
VERTEX
  8
T08SSILL
 62
3
 10
1234.287
 20
-1150.174
 30
4435.221
 70
    32
  0
VERTEX
  8
T08SSILL
 62
3
 10
1228.132
 20
-1143.946
 30
4435.187
 70
    32
  0
VERTEX
  8
T08SSILL
 62
3
 10
1208.457
 20
-1129.075
 30
4435.075
 70
    32
  0
VERTEX
  8
T08SSILL
 62
3
 10
1205.487
 20
-1128.688
 30
4435.056
 70
    32
  0
VERTEX
  8
T08SSILL
 62
3
 10
1197.827
 20
-1122.749
 30
4435.013
 70
    32
  0
VERTEX
  8
T08SSILL
 62
3
 10
1193.172
 20
-1120.623
 30
4434.985
 70
    32
  0
VERTEX
  8
T08SSILL
 62
3
 10
1190.109
 20
-1116.104
 30
4434.969
 70
    32
  0
VERTEX
  8
T08SSILL
 62
3
 10
1183.421
 20
-1110.029
 30
4434.931
 70
    32
  0
VERTEX
  8
T08SSILL
 62
3
 10
1172.587
 20
-1106.506
 30
4434.866
 70
    32
  0
VERTEX
  8
T08SSILL
 62
3
 10
1165.900
 20
-1102.539
 30
4434.861
 70
    32
  0
VERTEX
  8
T08SSILL
 62
3
 10
1150.376
 20
-1089.246
 30
4435.114
 70
    32
  0
VERTEX
  8
T08SSILL
 62
3
 10
1141.487
 20
-1076.931
 30
4435.335
 70
    32
  0
VERTEX
  8
T08SSILL
 62
3
 10
1138.059
 20
-1070.640
 30
4435.444
 70
    32
  0
VERTEX
  8
T08SSILL
 62
3
 10
1137.940
 20
-1060.797
 30
4435.602
 70
    32
  0
VERTEX
  8
T08SSILL
 62
3
 10
1136.469
 20
-1053.884
 30
4435.716
 70
    32
  0
VERTEX
  8
T08SSILL
 62
3
 10
1139.018
 20
-1047.489
 30
4435.812
 70
    32
  0
VERTEX
  8
T08SSILL
 62
3
 10
1247.367
 20
-1006.303
 30
4436.182
 70
    32
  0
VERTEX
  8
T08SSILL
 62
3
 10
1650.276
 20
-847.434
 30
4438.023
 70
    32
  0
VERTEX
  8
T08SSILL
 62
3
 10
1653.469
 20
-854.105
 30
4438.038
 70
    32
  0
VERTEX
  8
T08SSILL
 62
3
 10
1660.575
 20
-851.021
 30
4438.085
 70
    32
  0
VERTEX
  8
T08SSILL
 62
3
 10
1657.825
 20
-844.284
 30
4438.072
 70
    32
  0
VERTEX
  8
T08SSILL
 62
3
 10
1812.631
 20
-785.867
 30
4438.311
 70
    32
  0
VERTEX
  8
T08SSILL
 62
3
 10
1810.187
 20
-778.264
 30
4438.311
 70
    32
  0
VERTEX
  8
T08SSILL
 62
3
 10
1694.585
 20
-821.706
 30
4438.311
 70
    32
  0
VERTEX
  8
T08SSILL
 62
3
 10
1695.344
 20
-815.229
 30
4438.310
 70
    32
  0
VERTEX
  8
T08SSILL
 62
3
 10
1698.431
 20
-806.138
 30
4438.310
 70
    32
  0
VERTEX
  8
T08SSILL
 62
3
 10
1680.532
 20
-797.776
 30
4438.322
 70
    32
  0
VERTEX
  8
T08SSILL
 62
3
 10
1668.550
 20
-828.438
 30
4438.150
 70
    32
  0
VERTEX
  8
T08SSILL
 62
3
 10
1662.062
 20
-835.073
 30
4438.105
 70
    32
  0
VERTEX
  8
T08SSILL
 62
3
 10
1590.280
 20
-865.888
 30
4437.636
 70
    32
  0
VERTEX
  8
T08SSILL
 62
3
 10
1451.102
 20
-921.805
 30
4436.992
 70
    32
  0
VERTEX
  8
T08SSILL
 62
3
 10
1142.173
 20
-1037.079
 30
4435.970
 70
    32
  0
VERTEX
  8
T08SSILL
 62
3
 10
1136.390
 20
-1038.859
 30
4435.956
 70
    32
  0
VERTEX
  8
T08SSILL
 62
3
 10
1134.116
 20
-1036.481
 30
4436.000
 70
    32
  0
VERTEX
  8
T08SSILL
 62
3
 10
1180.679
 20
-889.306
 30
4438.228
 70
    32
  0
VERTEX
  8
T08SSILL
 62
3
 10
1239.962
 20
-686.435
 30
4438.854
 70
    32
  0
VERTEX
  8
T08SSILL
 62
3
 10
1275.076
 20
-573.723
 30
4438.929
 70
    32
  0
VERTEX
  8
T08SSILL
 62
3
 10
1280.741
 20
-569.512
 30
4438.928
 70
    32
  0
VERTEX
  8
T08SSILL
 62
3
 10
1282.845
 20
-566.094
 30
4438.929
 70
    32
  0
VERTEX
  8
T08SSILL
 62
3
 10
1282.493
 20
-560.707
 30
4438.934
 70
    32
  0
VERTEX
  8
T08SSILL
 62
3
 10
1284.167
 20
-557.092
 30
4438.936
 70
    32
  0
VERTEX
  8
T08SSILL
 62
3
 10
1282.781
 20
-547.693
 30
4438.947
 70
    32
  0
VERTEX
  8
T08SSILL
 62
3
 10
1285.894
 20
-538.075
 30
4438.953
 70
    32
  0
VERTEX
  8
T08SSILL
 62
3
 10
1289.617
 20
-537.553
 30
4438.950
 70
    32
  0
VERTEX
  8
T08SSILL
 62
3
 10
1303.335
 20
-539.636
 30
4438.935
 70
    32
  0
VERTEX
  8
T08SSILL
 62
3
 10
1304.706
 20
-531.428
 30
4438.944
 70
    32
  0
VERTEX
  8
T08SSILL
 62
3
 10
1296.739
 20
-528.748
 30
4438.952
 70
    32
  0
VERTEX
  8
T08SSILL
 62
3
 10
1292.504
 20
-525.371
 30
4438.960
 70
    32
  0
VERTEX
  8
T08SSILL
 62
3
 10
1290.836
 20
-521.680
 30
4438.967
 70
    32
  0
VERTEX
  8
T08SSILL
 62
3
 10
1295.277
 20
-508.342
 30
4438.991
 70
    32
  0
VERTEX
  8
T08SSILL
 62
3
 10
1299.017
 20
-502.100
 30
4439.001
 70
    32
  0
VERTEX
  8
T08SSILL
 62
3
 10
1303.912
 20
-497.410
 30
4439.008
 70
    32
  0
VERTEX
  8
T08SSILL
 62
3
 10
1311.890
 20
-492.697
 30
4439.014
 70
    32
  0
VERTEX
  8
T08SSILL
 62
3
 10
1314.922
 20
-495.487
 30
4439.008
 70
    32
  0
VERTEX
  8
T08SSILL
 62
3
 10
1322.340
 20
-507.559
 30
4438.983
 70
    32
  0
VERTEX
  8
T08SSILL
 62
3
 10
1330.329
 20
-509.800
 30
4438.976
 70
    32
  0
VERTEX
  8
T08SSILL
 62
3
 10
1341.269
 20
-509.281
 30
4438.973
 70
    32
  0
VERTEX
  8
T08SSILL
 62
3
 10
1348.106
 20
-534.969
 30
4438.923
 70
    32
  0
VERTEX
  8
T08SSILL
 62
3
 10
1349.467
 20
-544.895
 30
4438.904
 70
    32
  0
VERTEX
  8
T08SSILL
 62
3
 10
1357.935
 20
-562.476
 30
4438.868
 70
    32
  0
VERTEX
  8
T08SSILL
 62
3
 10
1362.906
 20
-568.794
 30
4438.854
 70
    32
  0
VERTEX
  8
T08SSILL
 62
3
 10
1357.102
 20
-579.425
 30
4438.844
 70
    32
  0
VERTEX
  8
T08SSILL
 62
3
 10
1352.038
 20
-582.169
 30
4438.847
 70
    32
  0
VERTEX
  8
T08SSILL
 62
3
 10
1343.583
 20
-584.042
 30
4438.853
 70
    32
  0
VERTEX
  8
T08SSILL
 62
3
 10
1344.498
 20
-590.513
 30
4438.846
 70
    32
  0
VERTEX
  8
T08SSILL
 62
3
 10
1357.834
 20
-587.823
 30
4438.836
 70
    32
  0
VERTEX
  8
T08SSILL
 62
3
 10
1364.652
 20
-581.644
 30
4438.835
 70
    32
  0
VERTEX
  8
T08SSILL
 62
3
 10
1371.256
 20
-572.637
 30
4438.844
 70
    32
  0
VERTEX
  8
T08SSILL
 62
3
 10
1377.569
 20
-571.363
 30
4438.844
 70
    32
  0
VERTEX
  8
T08SSILL
 62
3
 10
1387.062
 20
-507.129
 30
4438.962
 70
    32
  0
VERTEX
  8
T08SSILL
 62
3
 10
1393.084
 20
-490.259
 30
4438.992
 70
    32
  0
VERTEX
  8
T08SSILL
 62
3
 10
1401.083
 20
-474.367
 30
4439.019
 70
    32
  0
VERTEX
  8
T08SSILL
 62
3
 10
1412.912
 20
-464.736
 30
4439.033
 70
    32
  0
VERTEX
  8
T08SSILL
 62
3
 10
1409.467
 20
-461.398
 30
4439.040
 70
    32
  0
VERTEX
  8
T08SSILL
 62
3
 10
1408.301
 20
-454.651
 30
4439.053
 70
    32
  0
VERTEX
  8
T08SSILL
 62
3
 10
1408.937
 20
-448.872
 30
4439.064
 70
    32
  0
VERTEX
  8
T08SSILL
 62
3
 10
1409.955
 20
-447.866
 30
4439.066
 70
    32
  0
VERTEX
  8
T08SSILL
 62
3
 10
1412.709
 20
-449.145
 30
4439.062
 70
    32
  0
VERTEX
  8
T08SSILL
 62
3
 10
1416.625
 20
-448.281
 30
4439.063
 70
    32
  0
VERTEX
  8
T08SSILL
 62
3
 10
1420.169
 20
-444.230
 30
4439.069
 70
    32
  0
VERTEX
  8
T08SSILL
 62
3
 10
1448.413
 20
-403.276
 30
4439.136
 70
    32
  0
VERTEX
  8
T08SSILL
 62
3
 10
1449.298
 20
-370.925
 30
4439.197
 70
    32
  0
VERTEX
  8
T08SSILL
 62
3
 10
1455.458
 20
-370.964
 30
4439.195
 70
    32
  0
VERTEX
  8
T08SSILL
 62
3
 10
1457.122
 20
-340.676
 30
4439.251
 70
    32
  0
VERTEX
  8
T08SSILL
 62
3
 10
1484.041
 20
-341.029
 30
4439.241
 70
    32
  0
VERTEX
  8
T08SSILL
 62
3
 10
1485.094
 20
-335.712
 30
4439.251
 70
    32
  0
VERTEX
  8
T08SSILL
 62
3
 10
1481.646
 20
-309.134
 30
4439.302
 70
    32
  0
VERTEX
  8
T08SSILL
 62
3
 10
1514.472
 20
-311.098
 30
4439.287
 70
    32
  0
VERTEX
  8
T08SSILL
 62
3
 10
1547.466
 20
-323.986
 30
4439.252
 70
    32
  0
VERTEX
  8
T08SSILL
 62
3
 10
1600.544
 20
-333.020
 30
4439.217
 70
    32
  0
VERTEX
  8
T08SSILL
 62
3
 10
1661.661
 20
-337.870
 30
4439.187
 70
    32
  0
VERTEX
  8
T08SSILL
 62
3
 10
1700.752
 20
-339.526
 30
4439.171
 70
    32
  0
VERTEX
  8
T08SSILL
 62
3
 10
1701.071
 20
-333.028
 30
4439.183
 70
    32
  0
VERTEX
  8
T08SSILL
 62
3
 10
1637.449
 20
-330.783
 30
4439.209
 70
    32
  0
VERTEX
  8
T08SSILL
 62
3
 10
1599.923
 20
-325.947
 30
4439.231
 70
    32
  0
VERTEX
  8
T08SSILL
 62
3
 10
1553.290
 20
-316.526
 30
4439.264
 70
    32
  0
VERTEX
  8
T08SSILL
 62
3
 10
1516.925
 20
-304.176
 30
4439.299
 70
    32
  0
VERTEX
  8
T08SSILL
 62
3
 10
1491.611
 20
-301.613
 30
4439.313
 70
    32
  0
VERTEX
  8
T08SSILL
 62
3
 10
1479.244
 20
-293.523
 30
4439.332
 70
    32
  0
VERTEX
  8
T08SSILL
 62
3
 10
1476.946
 20
-281.174
 30
4439.356
 70
    32
  0
VERTEX
  8
T08SSILL
 62
3
 10
1474.395
 20
-230.961
 30
4439.451
 70
    32
  0
VERTEX
  8
T08SSILL
 62
3
 10
1474.846
 20
-225.349
 30
4439.462
 70
    32
  0
VERTEX
  8
T08SSILL
 62
3
 10
1482.168
 20
-198.156
 30
4439.510
 70
    32
  0
VERTEX
  8
T08SSILL
 62
3
 10
1482.327
 20
-178.797
 30
4439.547
 70
    32
  0
VERTEX
  8
T08SSILL
 62
3
 10
1477.096
 20
-172.378
 30
4439.561
 70
    32
  0
VERTEX
  8
T08SSILL
 62
3
 10
1444.728
 20
-177.215
 30
4439.562
 70
    32
  0
VERTEX
  8
T08SSILL
 62
3
 10
1444.441
 20
-170.510
 30
4439.575
 70
    32
  0
VERTEX
  8
T08SSILL
 62
3
 10
1445.768
 20
-162.938
 30
4439.589
 70
    32
  0
VERTEX
  8
T08SSILL
 62
3
 10
1448.422
 20
-162.959
 30
4439.588
 70
    32
  0
VERTEX
  8
T08SSILL
 62
3
 10
1448.649
 20
-156.545
 30
4439.600
 70
    32
  0
VERTEX
  8
T08SSILL
 62
3
 10
1445.896
 20
-156.409
 30
4439.601
 70
    32
  0
VERTEX
  8
T08SSILL
 62
3
 10
1447.843
 20
-144.269
 30
4439.623
 70
    32
  0
VERTEX
  8
T08SSILL
 62
3
 10
1448.966
 20
-142.916
 30
4439.625
 70
    32
  0
VERTEX
  8
T08SSILL
 62
3
 10
1453.102
 20
-142.943
 30
4439.624
 70
    32
  0
VERTEX
  8
T08SSILL
 62
3
 10
1466.375
 20
-148.700
 30
4439.609
 70
    32
  0
VERTEX
  8
T08SSILL
 62
3
 10
1472.036
 20
-155.317
 30
4439.594
 70
    32
  0
VERTEX
  8
T08SSILL
 62
3
 10
1479.236
 20
-159.279
 30
4439.584
 70
    32
  0
VERTEX
  8
T08SSILL
 62
3
 10
1494.480
 20
-158.972
 30
4439.580
 70
    32
  0
VERTEX
  8
T08SSILL
 62
3
 10
1503.747
 20
-156.698
 30
4439.581
 70
    32
  0
VERTEX
  8
T08SSILL
 62
3
 10
1507.371
 20
-154.587
 30
4439.584
 70
    32
  0
VERTEX
  8
T08SSILL
 62
3
 10
1515.891
 20
-146.027
 30
4439.597
 70
    32
  0
VERTEX
  8
T08SSILL
 62
3
 10
1521.417
 20
-144.626
 30
4439.598
 70
    32
  0
VERTEX
  8
T08SSILL
 62
3
 10
1525.887
 20
-150.391
 30
4439.585
 70
    32
  0
VERTEX
  8
T08SSILL
 62
3
 10
1548.868
 20
-150.288
 30
4439.578
 70
    32
  0
VERTEX
  8
T08SSILL
 62
3
 10
1553.022
 20
-135.615
 30
4439.604
 70
    32
  0
VERTEX
  8
T08SSILL
 62
3
 10
1569.952
 20
-126.059
 30
4439.616
 70
    32
  0
VERTEX
  8
T08SSILL
 62
3
 10
1575.730
 20
-85.498
 30
4439.691
 70
    32
  0
VERTEX
  8
T08SSILL
 62
3
 10
1556.307
 20
-86.657
 30
4439.695
 70
    32
  0
VERTEX
  8
T08SSILL
 62
3
 10
1552.586
 20
-99.678
 30
4439.672
 70
    32
  0
VERTEX
  8
T08SSILL
 62
3
 10
1542.073
 20
-107.612
 30
4439.660
 70
    32
  0
VERTEX
  8
T08SSILL
 62
3
 10
1533.839
 20
-115.747
 30
4439.648
 70
    32
  0
VERTEX
  8
T08SSILL
 62
3
 10
1525.912
 20
-133.755
 30
4439.617
 70
    32
  0
VERTEX
  8
T08SSILL
 62
3
 10
1518.530
 20
-137.090
 30
4439.613
 70
    32
  0
VERTEX
  8
T08SSILL
 62
3
 10
1516.313
 20
-137.421
 30
4439.613
 70
    32
  0
VERTEX
  8
T08SSILL
 62
3
 10
1513.788
 20
-131.487
 30
4439.625
 70
    32
  0
VERTEX
  8
T08SSILL
 62
3
 10
1505.884
 20
-120.359
 30
4439.649
 70
    32
  0
VERTEX
  8
T08SSILL
 62
3
 10
1506.597
 20
-113.000
 30
4439.662
 70
    32
  0
VERTEX
  8
T08SSILL
 62
3
 10
1510.869
 20
-97.717
 30
4439.689
 70
    32
  0
VERTEX
  8
T08SSILL
 62
3
 10
1518.595
 20
-85.596
 30
4439.710
 70
    32
  0
VERTEX
  8
T08SSILL
 62
3
 10
1532.268
 20
-76.057
 30
4439.723
 70
    32
  0
VERTEX
  8
T08SSILL
 62
3
 10
1535.560
 20
-69.969
 30
4439.733
 70
    32
  0
VERTEX
  8
T08SSILL
 62
3
 10
1540.735
 20
-68.550
 30
4439.734
 70
    32
  0
VERTEX
  8
T08SSILL
 62
3
 10
1567.327
 20
-66.599
 30
4439.729
 70
    32
  0
VERTEX
  8
T08SSILL
 62
3
 10
1568.896
 20
-38.243
 30
4439.782
 70
    32
  0
VERTEX
  8
T08SSILL
 62
3
 10
1572.840
 20
-29.634
 30
4439.796
 70
    32
  0
VERTEX
  8
T08SSILL
 62
3
 10
1584.549
 20
-18.854
 30
4439.813
 70
    32
  0
VERTEX
  8
T08SSILL
 62
3
 10
1589.581
 20
-18.573
 30
4439.812
 70
    32
  0
VERTEX
  8
T08SSILL
 62
3
 10
1592.046
 20
-36.476
 30
4439.777
 70
    32
  0
VERTEX
  8
T08SSILL
 62
3
 10
1597.956
 20
-36.238
 30
4439.776
 70
    32
  0
VERTEX
  8
T08SSILL
 62
3
 10
1601.179
 20
-11.836
 30
4439.820
 70
    32
  0
VERTEX
  8
T08SSILL
 62
3
 10
1624.771
 20
-2.872
 30
4439.829
 70
    32
  0
VERTEX
  8
T08SSILL
 62
3
 10
1634.180
 20
17.491
 30
4439.864
 70
    32
  0
VERTEX
  8
T08SSILL
 62
3
 10
1636.924
 20
20.819
 30
4439.870
 70
    32
  0
VERTEX
  8
T08SSILL
 62
3
 10
1644.324
 20
23.157
 30
4439.872
 70
    32
  0
VERTEX
  8
T08SSILL
 62
3
 10
1639.993
 20
36.461
 30
4439.898
 70
    32
  0
VERTEX
  8
T08SSILL
 62
3
 10
1644.913
 20
52.884
 30
4439.927
 70
    32
  0
VERTEX
  8
T08SSILL
 62
3
 10
1650.677
 20
62.179
 30
4439.943
 70
    32
  0
VERTEX
  8
T08SSILL
 62
3
 10
1644.438
 20
63.354
 30
4439.947
 70
    32
  0
VERTEX
  8
T08SSILL
 62
3
 10
1633.516
 20
60.506
 30
4439.945
 70
    32
  0
VERTEX
  8
T08SSILL
 62
3
 10
1629.739
 20
61.492
 30
4439.948
 70
    32
  0
VERTEX
  8
T08SSILL
 62
3
 10
1620.485
 20
57.844
 30
4439.945
 70
    32
  0
VERTEX
  8
T08SSILL
 62
3
 10
1613.797
 20
57.174
 30
4439.946
 70
    32
  0
VERTEX
  8
T08SSILL
 62
3
 10
1605.587
 20
51.234
 30
4439.937
 70
    32
  0
VERTEX
  8
T08SSILL
 62
3
 10
1591.240
 20
49.283
 30
4439.939
 70
    32
  0
VERTEX
  8
T08SSILL
 62
3
 10
1573.250
 20
39.962
 30
4439.927
 70
    32
  0
VERTEX
  8
T08SSILL
 62
3
 10
1559.205
 20
28.070
 30
4439.909
 70
    32
  0
VERTEX
  8
T08SSILL
 62
3
 10
1553.747
 20
27.218
 30
4439.910
 70
    32
  0
VERTEX
  8
T08SSILL
 62
3
 10
1468.734
 20
53.328
 30
4439.987
 70
    32
  0
VERTEX
  8
T08SSILL
 62
3
 10
1281.319
 20
391.412
 30
4440.686
 70
    32
  0
VERTEX
  8
T08SSILL
 62
3
 10
2024.683
 20
923.264
 30
4441.435
 70
    32
  0
VERTEX
  8
T08SSILL
 62
3
 10
2019.615
 20
929.799
 30
4441.449
 70
    32
  0
VERTEX
  8
T08SSILL
 62
3
 10
1277.922
 20
398.114
 30
4440.700
 70
    32
  0
VERTEX
  8
T08SSILL
 62
3
 10
1029.614
 20
850.547
 30
4441.633
 70
    32
  0
VERTEX
  8
T08SSILL
 62
3
 10
652.483
 20
1532.629
 30
4443.323
 70
    32
  0
VERTEX
  8
T08SSILL
 62
3
 10
655.517
 20
1539.404
 30
4443.337
 70
    32
  0
VERTEX
  8
T08SSILL
 62
3
 10
1518.631
 20
2158.621
 30
4444.412
 70
    32
  0
VERTEX
  8
T08SSILL
 62
3
 10
1512.951
 20
2167.526
 30
4444.435
 70
    32
  0
VERTEX
  8
T08SSILL
 62
3
 10
656.147
 20
1550.930
 30
4443.364
 70
    32
  0
VERTEX
  8
T08SSILL
 62
3
 10
643.568
 20
1549.984
 30
4443.367
 70
    32
  0
VERTEX
  8
T08SSILL
 62
3
 10
-29.517
 20
2764.707
 30
4448.102
 70
    32
  0
VERTEX
  8
T08SSILL
 62
3
 10
-29.310
 20
2768.216
 30
4448.105
 70
    32
  0
VERTEX
  8
T08SSILL
 62
3
 10
-24.854
 20
2771.060
 30
4448.102
 70
    32
  0
VERTEX
  8
T08SSILL
 62
3
 10
2316.443
 20
3860.040
 30
4447.283
 70
    32
  0
VERTEX
  8
T08SSILL
 62
3
 10
2310.697
 20
3870.513
 30
4447.312
 70
    32
  0
VERTEX
  8
T08SSILL
 62
3
 10
-57.332
 20
2764.668
 30
4448.141
 70
    32
  0
VERTEX
  8
T08SSILL
 62
3
 10
-793.307
 20
2419.543
 30
4447.081
 70
    32
  0
VERTEX
  8
T08SSILL
 62
3
 10
-1297.279
 20
2188.332
 30
4443.945
 70
    32
  0
VERTEX
  8
T08SSILL
 62
3
 10
-1318.353
 20
2132.089
 30
4443.263
 70
    32
  0
VERTEX
  8
T08SSILL
 62
3
 10
-1327.669
 20
2130.600
 30
4443.222
 70
    32
  0
VERTEX
  8
T08SSILL
 62
3
 10
-1333.658
 20
2131.076
 30
4443.211
 70
    32
  0
VERTEX
  8
T08SSILL
 62
3
 10
-2007.402
 20
2397.643
 30
4447.053
 70
    32
  0
VERTEX
  8
T08SSILL
 62
3
 10
-2017.035
 20
2414.408
 30
4447.140
 70
    32
  0
VERTEX
  8
T08SSILL
 62
3
 10
-2014.847
 20
2422.700
 30
4447.150
 70
    32
  0
VERTEX
  8
T08SSILL
 62
3
 10
-2010.683
 20
2424.440
 30
4447.135
 70
    32
  0
VERTEX
  8
T08SSILL
 62
3
 10
-2007.144
 20
2436.930
 30
4447.149
 70
    32
  0
VERTEX
  8
T08SSILL
 62
3
 10
-1921.417
 20
2629.251
 30
4447.222
 70
    32
  0
VERTEX
  8
T08SSILL
 62
3
 10
-1928.723
 20
2632.509
 30
4447.265
 70
    32
  0
VERTEX
  8
T08SSILL
 62
3
 10
-2014.966
 20
2439.031
 30
4447.192
 70
    32
  0
VERTEX
  8
T08SSILL
 62
3
 10
-2022.450
 20
2435.664
 30
4447.219
 70
    32
  0
VERTEX
  8
T08SSILL
 62
3
 10
-2021.258
 20
2425.847
 30
4447.189
 70
    32
  0
VERTEX
  8
T08SSILL
 62
3
 10
-2029.678
 20
2406.452
 30
4447.180
 70
    32
  0
VERTEX
  8
T08SSILL
 62
3
 10
-2549.195
 20
2611.879
 30
4450.163
 70
    32
  0
VERTEX
  8
T08SSILL
 62
3
 10
-2747.227
 20
3206.306
 30
4452.165
 70
    32
  0
VERTEX
  8
T08SSILL
 62
3
 10
-2669.690
 20
3266.219
 30
4452.369
 70
    32
  0
VERTEX
  8
T08SSILL
 62
3
 10
-2667.611
 20
3263.346
 30
4452.352
 70
    32
  0
VERTEX
  8
T08SSILL
 62
3
 10
-2662.953
 20
3266.764
 30
4452.354
 70
    32
  0
VERTEX
  8
T08SSILL
 62
3
 10
-2672.098
 20
3279.130
 30
4452.375
 70
    32
  0
VERTEX
  8
T08SSILL
 62
3
 10
-2676.751
 20
3275.976
 30
4452.374
 70
    32
  0
VERTEX
  8
T08SSILL
 62
3
 10
-2674.356
 20
3272.667
 30
4452.374
 70
    32
  0
VERTEX
  8
T08SSILL
 62
3
 10
-2749.216
 20
3214.133
 30
4452.171
 70
    32
  0
VERTEX
  8
T08SSILL
 62
3
 10
-2792.770
 20
3775.284
 30
4452.024
 70
    32
  0
VERTEX
  8
T08SSILL
 62
3
 10
-2799.749
 20
3774.743
 30
4452.036
 70
    32
  0
VERTEX
  8
T08SSILL
 62
3
 10
-2755.835
 20
3208.957
 30
4452.153
 70
    32
  0
VERTEX
  8
T08SSILL
 62
3
 10
-2756.697
 20
3208.284
 30
4452.150
 70
    32
  0
VERTEX
  8
T08SSILL
 62
3
 10
-2556.389
 20
2610.223
 30
4450.193
 70
    32
  0
VERTEX
  8
T08SSILL
 62
3
 10
-2569.169
 20
1890.174
 30
4448.457
 70
    32
  0
VERTEX
  8
T08SSILL
 62
3
 10
-2506.586
 20
1784.390
 30
4447.895
 70
    32
  0
VERTEX
  8
T08SSILL
 62
3
 10
-2626.388
 20
1723.497
 30
4448.313
 70
    32
  0
VERTEX
  8
T08SSILL
 62
3
 10
-3039.531
 20
1427.865
 30
4448.787
 70
    32
  0
VERTEX
  8
T08SSILL
 62
3
 10
-3050.777
 20
1435.795
 30
4448.798
 70
    32
  0
VERTEX
  8
T08SSILL
 62
3
 10
-3056.651
 20
1426.737
 30
4448.791
 70
    32
  0
VERTEX
  8
T08SSILL
 62
3
 10
-3048.806
 20
1421.228
 30
4448.783
 70
    32
  0
VERTEX
  8
T08SSILL
 62
3
 10
-3124.415
 20
1367.124
 30
4448.752
 70
    32
  0
VERTEX
  8
T08SSILL
 62
3
 10
-3120.291
 20
1361.452
 30
4448.746
 70
    32
  0
VERTEX
  8
T08SSILL
 62
3
 10
-2622.620
 20
1718.085
 30
4448.281
 70
    32
  0
VERTEX
  8
T08SSILL
 62
3
 10
-2501.931
 20
1778.460
 30
4447.858
 70
    32
  0
VERTEX
  8
T08SSILL
 62
3
 10
-2477.735
 20
1752.873
 30
4447.679
 70
    32
  0
VERTEX
  8
T08SSILL
 62
3
 10
-2471.539
 20
1757.356
 30
4447.661
 70
    32
  0
VERTEX
  8
T08SSILL
 62
3
 10
-2493.227
 20
1779.716
 30
4447.820
 70
    32
  0
VERTEX
  8
T08SSILL
 62
3
 10
-2491.960
 20
1783.960
 30
4447.825
 70
    32
  0
VERTEX
  8
T08SSILL
 62
3
 10
-2471.489
 20
1794.878
 30
4447.755
 70
    32
  0
VERTEX
  8
T08SSILL
 62
3
 10
-2459.964
 20
1789.036
 30
4447.685
 70
    32
  0
VERTEX
  8
T08SSILL
 62
3
 10
-2452.246
 20
1777.772
 30
4447.620
 70
    32
  0
VERTEX
  8
T08SSILL
 62
3
 10
-2468.808
 20
1757.303
 30
4447.648
 70
    32
  0
VERTEX
  8
T08SSILL
 62
3
 10
-2460.551
 20
1752.124
 30
4447.596
 70
    32
  0
VERTEX
  8
T08SSILL
 62
3
 10
-2451.471
 20
1758.405
 30
4447.568
 70
    32
  0
VERTEX
  8
T08SSILL
 62
3
 10
-2430.979
 20
1746.952
 30
4447.442
 70
    32
  0
VERTEX
  8
T08SSILL
 62
3
 10
-2445.774
 20
1726.065
 30
4447.492
 70
    32
  0
VERTEX
  8
T08SSILL
 62
3
 10
-2442.396
 20
1723.642
 30
4447.483
 70
    32
  0
VERTEX
  8
T08SSILL
 62
3
 10
-2422.832
 20
1743.533
 30
4447.395
 70
    32
  0
VERTEX
  8
T08SSILL
 62
3
 10
-2405.867
 20
1725.517
 30
4447.350
 70
    32
  0
VERTEX
  8
T08SSILL
 62
3
 10
-2426.203
 20
1710.901
 30
4447.442
 70
    32
  0
VERTEX
  8
T08SSILL
 62
3
 10
-2422.437
 20
1705.664
 30
4447.436
 70
    32
  0
VERTEX
  8
T08SSILL
 62
3
 10
-2396.314
 20
1722.292
 30
4447.320
 70
    32
  0
VERTEX
  8
T08SSILL
 62
3
 10
-2391.917
 20
1715.918
 30
4447.313
 70
    32
  0
VERTEX
  8
T08SSILL
 62
3
 10
-2387.560
 20
1712.715
 30
4447.302
 70
    32
  0
VERTEX
  8
T08SSILL
 62
3
 10
-2377.611
 20
1699.190
 30
4447.284
 70
    32
  0
VERTEX
  8
T08SSILL
 62
3
 10
-2358.075
 20
1679.798
 30
4447.240
 70
    32
  0
VERTEX
  8
T08SSILL
 62
3
 10
-2347.679
 20
1686.536
 30
4447.194
 70
    32
  0
VERTEX
  8
T08SSILL
 62
3
 10
-2353.659
 20
1692.713
 30
4447.207
 70
    32
  0
VERTEX
  8
T08SSILL
 62
3
 10
-2360.045
 20
1703.113
 30
4447.216
 70
    32
  0
VERTEX
  8
T08SSILL
 62
3
 10
-2357.006
 20
1713.457
 30
4447.192
 70
    32
  0
VERTEX
  8
T08SSILL
 62
3
 10
-2352.492
 20
1718.623
 30
4447.169
 70
    32
  0
VERTEX
  8
T08SSILL
 62
3
 10
-2357.580
 20
1723.931
 30
4447.180
 70
    32
  0
VERTEX
  8
T08SSILL
 62
3
 10
-2375.329
 20
1734.362
 30
4447.230
 70
    32
  0
VERTEX
  8
T08SSILL
 62
3
 10
-2390.911
 20
1747.551
 30
4447.268
 70
    32
  0
VERTEX
  8
T08SSILL
 62
3
 10
-2401.263
 20
1758.165
 30
4447.329
 70
    32
  0
VERTEX
  8
T08SSILL
 62
3
 10
-2413.887
 20
1774.210
 30
4447.429
 70
    32
  0
VERTEX
  8
T08SSILL
 62
3
 10
-2437.593
 20
1789.057
 30
4447.579
 70
    32
  0
VERTEX
  8
T08SSILL
 62
3
 10
-2444.590
 20
1799.009
 30
4447.637
 70
    32
  0
VERTEX
  8
T08SSILL
 62
3
 10
-2445.922
 20
1806.742
 30
4447.663
 70
    32
  0
VERTEX
  8
T08SSILL
 62
3
 10
-2293.051
 20
1885.232
 30
4447.132
 70
    32
  0
VERTEX
  8
T08SSILL
 62
3
 10
-2276.726
 20
1882.886
 30
4447.048
 70
    32
  0
VERTEX
  8
T08SSILL
 62
3
 10
-2150.000
 20
1753.002
 30
4446.401
 70
    32
  0
VERTEX
  8
T08SSILL
 62
3
 10
-2144.608
 20
1758.443
 30
4446.374
 70
    32
  0
VERTEX
  8
T08SSILL
 62
3
 10
-2272.327
 20
1890.164
 30
4447.046
 70
    32
  0
VERTEX
  8
T08SSILL
 62
3
 10
-2271.183
 20
1897.137
 30
4447.057
 70
    32
  0
VERTEX
  8
T08SSILL
 62
3
 10
-2217.796
 20
1923.801
 30
4446.870
 70
    32
  0
VERTEX
  8
T08SSILL
 62
3
 10
-2185.884
 20
1893.997
 30
4446.644
 70
    32
  0
VERTEX
  8
T08SSILL
 62
3
 10
-2180.225
 20
1899.178
 30
4446.630
 70
    32
  0
VERTEX
  8
T08SSILL
 62
3
 10
-2209.374
 20
1926.462
 30
4446.837
 70
    32
  0
VERTEX
  8
T08SSILL
 62
3
 10
-2207.821
 20
1928.948
 30
4446.836
 70
    32
  0
VERTEX
  8
T08SSILL
 62
3
 10
-2167.659
 20
1949.806
 30
4446.697
 70
    32
  0
VERTEX
  8
T08SSILL
 62
3
 10
-2155.601
 20
1936.661
 30
4446.607
 70
    32
  0
VERTEX
  8
T08SSILL
 62
3
 10
-2149.771
 20
1942.284
 30
4446.593
 70
    32
  0
VERTEX
  8
T08SSILL
 62
3
 10
-2159.950
 20
1953.076
 30
4446.668
 70
    32
  0
VERTEX
  8
T08SSILL
 62
3
 10
-1609.913
 20
2232.619
 30
4444.751
 70
    32
  0
VERTEX
  8
T08SSILL
 62
3
 10
-1316.287
 20
2117.058
 30
4443.101
 70
    32
  0
VERTEX
  8
T08SSILL
 62
3
 10
-1309.647
 20
2112.539
 30
4443.068
 70
    32
  0
VERTEX
  8
T08SSILL
 62
3
 10
-1307.027
 20
2101.344
 30
4442.983
 70
    32
  0
VERTEX
  8
T08SSILL
 62
3
 10
-1321.910
 20
2092.700
 30
4443.032
 70
    32
  0
VERTEX
  8
T08SSILL
 62
3
 10
-1313.380
 20
2078.000
 30
4442.985
 70
    32
  0
VERTEX
  8
T08SSILL
 62
3
 10
-1304.030
 20
2083.429
 30
4442.944
 70
    32
  0
VERTEX
  8
T08SSILL
 62
3
 10
-1299.511
 20
2070.119
 30
4442.946
 70
    32
  0
VERTEX
  8
T08SSILL
 62
3
 10
-1284.364
 20
2048.688
 30
4442.920
 70
    32
  0
VERTEX
  8
T08SSILL
 62
3
 10
-1274.954
 20
2039.265
 30
4442.899
 70
    32
  0
VERTEX
  8
T08SSILL
 62
3
 10
-1185.159
 20
1833.050
 30
4442.851
 70
    32
  0
VERTEX
  8
T08SSILL
 62
3
 10
-1197.658
 20
1823.085
 30
4442.909
 70
    32
  0
VERTEX
  8
T08SSILL
 62
3
 10
-1191.145
 20
1812.845
 30
4442.900
 70
    32
  0
VERTEX
  8
T08SSILL
 62
3
 10
-1178.984
 20
1821.135
 30
4442.845
 70
    32
  0
VERTEX
  8
T08SSILL
 62
3
 10
-1174.907
 20
1816.602
 30
4442.837
 70
    32
  0
VERTEX
  8
T08SSILL
 62
3
 10
-1035.079
 20
1488.413
 30
4442.772
 70
    32
  0
VERTEX
  8
T08SSILL
 62
3
 10
-1042.660
 20
1487.259
 30
4442.800
 70
    32
  0
VERTEX
  8
T08SSILL
 62
3
 10
-1048.827
 20
1482.932
 30
4442.828
 70
    32
  0
VERTEX
  8
T08SSILL
 62
3
 10
-1042.204
 20
1473.064
 30
4442.818
 70
    32
  0
VERTEX
  8
T08SSILL
 62
3
 10
-1031.279
 20
1480.394
 30
4442.769
 70
    32
  0
VERTEX
  8
T08SSILL
 62
3
 10
-897.021
 20
1167.981
 30
4442.703
 70
    32
  0
VERTEX
  8
T08SSILL
 62
3
 10
-902.046
 20
1166.917
 30
4442.722
 70
    32
  0
VERTEX
  8
T08SSILL
 62
3
 10
-910.416
 20
1161.089
 30
4442.760
 70
    32
  0
VERTEX
  8
T08SSILL
 62
3
 10
-902.911
 20
1151.222
 30
4442.746
 70
    32
  0
VERTEX
  8
T08SSILL
 62
3
 10
-893.220
 20
1158.022
 30
4442.703
 70
    32
  0
VERTEX
  8
T08SSILL
 62
3
 10
-874.689
 20
1117.411
 30
4442.690
 70
    32
  0
VERTEX
  8
T08SSILL
 62
3
 10
-805.897
 20
955.810
 30
4442.658
 70
    32
  0
VERTEX
  8
T08SSILL
 62
3
 10
-787.595
 20
910.167
 30
4442.654
 70
    32
  0
VERTEX
  8
T08SSILL
 62
3
 10
-748.464
 20
821.198
 30
4442.632
 70
    32
  0
VERTEX
  8
T08SSILL
 62
3
 10
-756.033
 20
822.265
 30
4442.657
 70
    32
  0
VERTEX
  8
T08SSILL
 62
3
 10
-763.788
 20
817.171
 30
4442.692
 70
    32
  0
VERTEX
  8
T08SSILL
 62
3
 10
-756.847
 20
807.477
 30
4442.680
 70
    32
  0
VERTEX
  8
T08SSILL
 62
3
 10
-746.096
 20
815.120
 30
4442.631
 70
    32
  0
VERTEX
  8
T08SSILL
 62
3
 10
-722.319
 20
761.122
 30
4442.533
 70
    32
  0
VERTEX
  8
T08SSILL
 62
3
 10
-718.279
 20
754.866
 30
4442.515
 70
    32
  0
VERTEX
  8
T08SSILL
 62
3
 10
-568.044
 20
611.859
 30
4441.949
 70
    32
  0
VERTEX
  8
T08SSILL
 62
3
 10
-562.509
 20
604.720
 30
4441.926
 70
    32
  0
VERTEX
  8
T08SSILL
 62
3
 10
-766.707
 20
388.112
 30
4442.100
 70
    32
  0
VERTEX
  8
T08SSILL
 62
3
 10
-771.718
 20
392.785
 30
4442.119
 70
    32
  0
VERTEX
  8
T08SSILL
 62
3
 10
-778.948
 20
385.401
 30
4442.125
 70
    32
  0
VERTEX
  8
T08SSILL
 62
3
 10
-768.312
 20
374.381
 30
4442.084
 70
    32
  0
VERTEX
  8
T08SSILL
 62
3
 10
-557.059
 20
599.430
 30
4441.905
 70
    32
  0
VERTEX
  8
T08SSILL
 62
3
 10
-337.836
 20
257.900
 30
4441.219
 70
    32
  0
VERTEX
  8
T08SSILL
 62
3
 10
-347.345
 20
256.329
 30
4441.226
 70
    32
  0
VERTEX
  8
T08SSILL
 62
3
 10
-356.686
 20
250.357
 30
4441.227
 70
    32
  0
VERTEX
  8
T08SSILL
 62
3
 10
-349.043
 20
239.430
 30
4441.208
 70
    32
  0
VERTEX
  8
T08SSILL
 62
3
 10
-332.829
 20
250.674
 30
4441.206
 70
    32
  0
VERTEX
  8
T08SSILL
 62
3
 10
-28.973
 20
-220.377
 30
4440.459
 70
    32
  0
VERTEX
  8
T08SSILL
 62
3
 10
-28.804
 20
-229.286
 30
4440.446
 70
    32
  0
VERTEX
  8
T08SSILL
 62
3
 10
-30.276
 20
-232.387
 30
4440.441
 70
    32
  0
VERTEX
  8
T08SSILL
 62
3
 10
-32.293
 20
-233.728
 30
4440.438
 70
    32
  0
VERTEX
  8
T08SSILL
 62
3
 10
-217.970
 20
-295.663
 30
4440.478
 70
    32
  0
VERTEX
  8
T08SSILL
 62
3
 10
-222.691
 20
-290.677
 30
4440.488
 70
    32
  0
VERTEX
  8
T08SSILL
 62
3
 10
-226.937
 20
-289.480
 30
4440.493
 70
    32
  0
VERTEX
  8
T08SSILL
 62
3
 10
-231.419
 20
-291.374
 30
4440.495
 70
    32
  0
VERTEX
  8
T08SSILL
 62
3
 10
-236.567
 20
-297.684
 30
4440.493
 70
    32
  0
VERTEX
  8
T08SSILL
 62
3
 10
-307.552
 20
-320.999
 30
4440.531
 70
    32
  0
VERTEX
  8
T08SSILL
 62
3
 10
-317.903
 20
-317.740
 30
4440.545
 70
    32
  0
VERTEX
  8
T08SSILL
 62
3
 10
-327.322
 20
-290.741
 30
4440.584
 70
    32
  0
VERTEX
  8
T08SSILL
 62
3
 10
-335.874
 20
-271.939
 30
4440.613
 70
    32
  0
VERTEX
  8
T08SSILL
 62
3
 10
-341.061
 20
-273.838
 30
4440.616
 70
    32
  0
VERTEX
  8
T08SSILL
 62
3
 10
-338.012
 20
-289.162
 30
4440.596
 70
    32
  0
VERTEX
  8
T08SSILL
 62
3
 10
-349.051
 20
-307.347
 30
4440.585
 70
    32
  0
VERTEX
  8
T08SSILL
 62
3
 10
-332.289
 20
-326.869
 30
4440.547
 70
    32
  0
VERTEX
  8
T08SSILL
 62
3
 10
-345.304
 20
-331.486
 30
4440.554
 70
    32
  0
VERTEX
  8
T08SSILL
 62
3
 10
-346.489
 20
-327.262
 30
4440.560
 70
    32
  0
VERTEX
  8
T08SSILL
 62
3
 10
-362.675
 20
-332.437
 30
4440.569
 70
    32
  0
VERTEX
  8
T08SSILL
 62
3
 10
-361.670
 20
-336.310
 30
4440.563
 70
    32
  0
VERTEX
  8
T08SSILL
 62
3
 10
-364.810
 20
-340.308
 30
4440.562
 70
    32
  0
VERTEX
  8
T08SSILL
 62
3
 10
-448.195
 20
-367.882
 30
4440.607
 70
    32
  0
VERTEX
  8
T08SSILL
 62
3
 10
-452.938
 20
-370.218
 30
4440.608
 70
    32
  0
VERTEX
  8
T08SSILL
 62
3
 10
-460.109
 20
-377.253
 30
4440.607
 70
    32
  0
VERTEX
  8
T08SSILL
 62
3
 10
-528.803
 20
-400.194
 30
4440.644
 70
    32
  0
VERTEX
  8
T08SSILL
 62
3
 10
-667.688
 20
-387.864
 30
4440.785
 70
    32
  0
VERTEX
  8
T08SSILL
 62
3
 10
-679.722
 20
-383.915
 30
4440.800
 70
    32
  0
VERTEX
  8
T08SSILL
 62
3
 10
-692.532
 20
-382.001
 30
4440.815
 70
    32
  0
VERTEX
  8
T08SSILL
 62
3
 10
-692.027
 20
-379.262
 30
4440.817
 70
    32
  0
VERTEX
  8
T08SSILL
 62
3
 10
-704.309
 20
-377.167
 30
4440.850
 70
    32
  0
VERTEX
  8
T08SSILL
 62
3
 10
-707.571
 20
-396.959
 30
4440.864
 70
    32
  0
VERTEX
  8
T08SSILL
 62
3
 10
-649.305
 20
-401.196
 30
4440.753
 70
    32
  0
VERTEX
  8
T08SSILL
 62
3
 10
-646.784
 20
-406.819
 30
4440.744
 70
    32
  0
VERTEX
  8
T08SSILL
 62
3
 10
-709.137
 20
-448.142
 30
4440.915
 70
    32
  0
VERTEX
  8
T08SSILL
 62
3
 10
-1894.928
 20
-1294.584
 30
4444.619
 70
    32
  0
VERTEX
  8
T08SSILL
 62
3
 10
-1951.115
 20
-1220.446
 30
4444.790
 70
    32
  0
VERTEX
  8
T08SSILL
 62
3
 10
-1959.721
 20
-1218.447
 30
4444.820
 70
    32
  0
VERTEX
  8
T08SSILL
 62
3
 10
-1900.059
 20
-1298.504
 30
4444.636
 70
    32
  0
VERTEX
  8
T08SSILL
 62
3
 10
-2147.799
 20
-1477.785
 30
4445.412
 70
    32
  0
VERTEX
  8
T08SSILL
 62
3
 10
-2141.587
 20
-1482.318
 30
4445.401
 70
    32
  0
VERTEX
  8
T08SSILL
 62
3
 10
-1895.358
 20
-1305.137
 30
4444.630
 70
    32
  0
VERTEX
  8
T08SSILL
 62
3
 10
-1528.337
 20
-1786.780
 30
4444.137
 70
    32
  0
VERTEX
  8
T08SSILL
 62
3
 10
-1523.520
 20
-1789.631
 30
4444.128
 70
    32
  0
VERTEX
  8
T08SSILL
 62
3
 10
-1517.493
 20
-1795.394
 30
4444.118
 70
    32
  0
VERTEX
  8
T08SSILL
 62
3
 10
-1460.161
 20
-1869.452
 30
4444.040
 70
    32
  0
VERTEX
  8
T08SSILL
 62
3
 10
-1450.960
 20
-1897.846
 30
4444.042
 70
    32
  0
VERTEX
  8
T08SSILL
 62
3
 10
-1440.973
 20
-1938.739
 30
4444.053
 70
    32
  0
VERTEX
  8
T08SSILL
 62
3
 10
-1437.073
 20
-1946.597
 30
4444.050
 70
    32
  0
VERTEX
  8
T08SSILL
 62
3
 10
-1503.126
 20
-1992.112
 30
4444.255
 70
    32
  0
VERTEX
  8
T08SSILL
 62
3
 10
-1498.422
 20
-1998.305
 30
4444.248
 70
    32
  0
VERTEX
  8
T08SSILL
 62
3
 10
-1434.313
 20
-1954.007
 30
4444.049
 70
    32
  0
VERTEX
  8
T08SSILL
 62
3
 10
-1424.033
 20
-1979.155
 30
4444.046
 70
    32
  0
VERTEX
  8
T08SSILL
 62
3
 10
-1395.317
 20
-2033.118
 30
4444.022
 70
    32
  0
VERTEX
  8
T08SSILL
 62
3
 10
-1369.382
 20
-2094.187
 30
4444.011
 70
    32
  0
VERTEX
  8
T08SSILL
 62
3
 10
-1347.560
 20
-2128.833
 30
4443.987
 70
    32
  0
VERTEX
  8
T08SSILL
 62
3
 10
-1404.237
 20
-2167.469
 30
4444.162
 70
    32
  0
SEQEND
  8
T08SSILL
  0
LINE
  8
T08SSILL
 62
3
 10
1821.967
 20
-2753.083
 30
4438.562
 11
1846.307
 21
-2735.807
 31
4438.562
  0
LINE
  8
T08SSILL
 62
3
 10
1846.329
 20
-2735.792
 30
4438.562
 11
1855.824
 21
-2753.394
 31
4438.562
  0
LINE
  8
T08SSILL
 62
3
 10
1855.824
 20
-2753.394
 30
4438.562
 11
1876.947
 21
-2742.000
 31
4438.562
  0
LINE
  8
T08SSILL
 62
3
 10
1876.947
 20
-2742.000
 30
4438.562
 11
1866.081
 21
-2721.856
 31
4438.562
  0
ENDSEC
  0
EOF
