999
********************************
999
*   DXF File - Entities Only   *
999
*        3D Data Format        *
999
*     Output from ENVISAGE     *
999
*     20-Dec-2007 09:11:20     *
999
********************************
  0
SECTION 
  2
HEADER
  9
$ACADVER
  1
AC1009
  9
$EXTMIN
 10
-290000.000
 20
-250000.000
 30
-4000.000
  9
$EXTMAX
 10
5000000.000
 20
600000.000
 30
6000.000
  0
ENDSEC
  0
SECTION
  2
ENTITIES
  0
POLYLINE
  8
T09SSILL
 62
6
 66
     1
 70
     9
  0
VERTEX
  8
T09SSILL
 62
6
 10
1492.776
 20
-259.522
 30
4336.902
 70
    32
  0
VERTEX
  8
T09SSILL
 62
6
 10
1518.811
 20
-261.025
 30
4336.902
 70
    32
  0
VERTEX
  8
T09SSILL
 62
6
 10
1537.493
 20
-248.238
 30
4336.901
 70
    32
  0
VERTEX
  8
T09SSILL
 62
6
 10
1550.251
 20
-243.897
 30
4336.901
 70
    32
  0
VERTEX
  8
T09SSILL
 62
6
 10
1554.655
 20
-244.528
 30
4336.901
 70
    32
  0
VERTEX
  8
T09SSILL
 62
6
 10
1557.321
 20
-241.057
 30
4336.901
 70
    32
  0
VERTEX
  8
T09SSILL
 62
6
 10
1564.359
 20
-225.562
 30
4336.901
 70
    32
  0
VERTEX
  8
T09SSILL
 62
6
 10
1569.170
 20
-218.892
 30
4336.901
 70
    32
  0
VERTEX
  8
T09SSILL
 62
6
 10
1535.843
 20
-217.510
 30
4336.902
 70
    32
  0
VERTEX
  8
T09SSILL
 62
6
 10
1526.697
 20
-222.406
 30
4336.902
 70
    32
  0
VERTEX
  8
T09SSILL
 62
6
 10
1504.887
 20
-246.270
 30
4336.902
 70
    32
  0
SEQEND
  8
T09SSILL
  0
POLYLINE
  8
T09SSILL
 62
6
 66
     1
 70
     9
  0
VERTEX
  8
T09SSILL
 62
6
 10
1503.379
 20
-310.928
 30
4336.901
 70
    32
  0
VERTEX
  8
T09SSILL
 62
6
 10
1505.215
 20
-283.745
 30
4336.902
 70
    32
  0
VERTEX
  8
T09SSILL
 62
6
 10
1514.086
 20
-283.511
 30
4336.901
 70
    32
  0
VERTEX
  8
T09SSILL
 62
6
 10
1515.195
 20
-270.839
 30
4336.902
 70
    32
  0
VERTEX
  8
T09SSILL
 62
6
 10
1506.425
 20
-266.590
 30
4336.902
 70
    32
  0
VERTEX
  8
T09SSILL
 62
6
 10
1486.730
 20
-265.861
 30
4336.902
 70
    32
  0
VERTEX
  8
T09SSILL
 62
6
 10
1472.566
 20
-280.857
 30
4336.902
 70
    32
  0
VERTEX
  8
T09SSILL
 62
6
 10
1459.152
 20
-309.286
 30
4336.902
 70
    32
  0
SEQEND
  8
T09SSILL
  0
POLYLINE
  8
T09SSILL
 62
6
 66
     1
 70
     9
  0
VERTEX
  8
T09SSILL
 62
6
 10
1434.787
 20
-355.735
 30
4336.902
 70
    32
  0
VERTEX
  8
T09SSILL
 62
6
 10
1451.894
 20
-359.318
 30
4336.902
 70
    32
  0
VERTEX
  8
T09SSILL
 62
6
 10
1464.806
 20
-359.017
 30
4336.902
 70
    32
  0
VERTEX
  8
T09SSILL
 62
6
 10
1469.178
 20
-357.715
 30
4336.902
 70
    32
  0
VERTEX
  8
T09SSILL
 62
6
 10
1503.787
 20
-335.614
 30
4336.901
 70
    32
  0
VERTEX
  8
T09SSILL
 62
6
 10
1503.940
 20
-318.300
 30
4336.901
 70
    32
  0
VERTEX
  8
T09SSILL
 62
6
 10
1466.914
 20
-316.364
 30
4336.902
 70
    32
  0
VERTEX
  8
T09SSILL
 62
6
 10
1453.145
 20
-323.358
 30
4336.902
 70
    32
  0
VERTEX
  8
T09SSILL
 62
6
 10
1447.459
 20
-330.218
 30
4336.902
 70
    32
  0
SEQEND
  8
T09SSILL
  0
POLYLINE
  8
T09SSILL
 62
6
 66
     1
 70
     9
  0
VERTEX
  8
T09SSILL
 62
6
 10
1410.239
 20
-476.175
 30
4336.902
 70
    32
  0
VERTEX
  8
T09SSILL
 62
6
 10
1439.191
 20
-420.161
 30
4336.902
 70
    32
  0
VERTEX
  8
T09SSILL
 62
6
 10
1436.043
 20
-410.459
 30
4336.902
 70
    32
  0
VERTEX
  8
T09SSILL
 62
6
 10
1454.009
 20
-386.261
 30
4336.902
 70
    32
  0
VERTEX
  8
T09SSILL
 62
6
 10
1458.352
 20
-383.201
 30
4336.902
 70
    32
  0
VERTEX
  8
T09SSILL
 62
6
 10
1460.568
 20
-373.762
 30
4336.902
 70
    32
  0
VERTEX
  8
T09SSILL
 62
6
 10
1454.726
 20
-365.862
 30
4336.902
 70
    32
  0
VERTEX
  8
T09SSILL
 62
6
 10
1441.968
 20
-364.843
 30
4336.902
 70
    32
  0
VERTEX
  8
T09SSILL
 62
6
 10
1427.302
 20
-370.709
 30
4336.903
 70
    32
  0
VERTEX
  8
T09SSILL
 62
6
 10
1387.773
 20
-446.054
 30
4336.903
 70
    32
  0
SEQEND
  8
T09SSILL
  0
POLYLINE
  8
T09SSILL
 62
6
 66
     1
 70
     9
  0
VERTEX
  8
T09SSILL
 62
6
 10
1385.249
 20
-537.924
 30
4336.902
 70
    32
  0
VERTEX
  8
T09SSILL
 62
6
 10
1438.454
 20
-540.472
 30
4336.901
 70
    32
  0
VERTEX
  8
T09SSILL
 62
6
 10
1445.503
 20
-530.953
 30
4336.901
 70
    32
  0
VERTEX
  8
T09SSILL
 62
6
 10
1452.297
 20
-532.686
 30
4336.901
 70
    32
  0
VERTEX
  8
T09SSILL
 62
6
 10
1458.029
 20
-528.549
 30
4336.901
 70
    32
  0
VERTEX
  8
T09SSILL
 62
6
 10
1460.144
 20
-523.593
 30
4336.901
 70
    32
  0
VERTEX
  8
T09SSILL
 62
6
 10
1458.680
 20
-520.103
 30
4336.901
 70
    32
  0
VERTEX
  8
T09SSILL
 62
6
 10
1396.157
 20
-517.357
 30
4336.902
 70
    32
  0
SEQEND
  8
T09SSILL
  0
POLYLINE
  8
T09SSILL
 62
6
 66
     1
 70
     9
  0
VERTEX
  8
T09SSILL
 62
6
 10
1406.988
 20
-546.438
 30
4336.902
 70
    32
  0
VERTEX
  8
T09SSILL
 62
6
 10
1418.050
 20
-562.622
 30
4336.901
 70
    32
  0
VERTEX
  8
T09SSILL
 62
6
 10
1421.687
 20
-564.764
 30
4336.901
 70
    32
  0
VERTEX
  8
T09SSILL
 62
6
 10
1430.050
 20
-565.427
 30
4336.901
 70
    32
  0
VERTEX
  8
T09SSILL
 62
6
 10
1434.121
 20
-567.211
 30
4336.901
 70
    32
  0
VERTEX
  8
T09SSILL
 62
6
 10
1434.729
 20
-560.960
 30
4336.901
 70
    32
  0
VERTEX
  8
T09SSILL
 62
6
 10
1440.309
 20
-552.170
 30
4336.901
 70
    32
  0
VERTEX
  8
T09SSILL
 62
6
 10
1439.628
 20
-547.873
 30
4336.901
 70
    32
  0
SEQEND
  8
T09SSILL
  0
POLYLINE
  8
T09SSILL
 62
6
 66
     1
 70
     9
  0
VERTEX
  8
T09SSILL
 62
6
 10
1421.139
 20
-572.237
 30
4336.901
 70
    32
  0
VERTEX
  8
T09SSILL
 62
6
 10
1429.839
 20
-589.557
 30
4336.901
 70
    32
  0
VERTEX
  8
T09SSILL
 62
6
 10
1431.676
 20
-589.264
 30
4336.901
 70
    32
  0
VERTEX
  8
T09SSILL
 62
6
 10
1432.697
 20
-587.230
 30
4336.901
 70
    32
  0
VERTEX
  8
T09SSILL
 62
6
 10
1433.235
 20
-582.484
 30
4336.901
 70
    32
  0
VERTEX
  8
T09SSILL
 62
6
 10
1433.089
 20
-573.362
 30
4336.901
 70
    32
  0
VERTEX
  8
T09SSILL
 62
6
 10
1430.174
 20
-572.092
 30
4336.901
 70
    32
  0
SEQEND
  8
T09SSILL
  0
POLYLINE
  8
T09SSILL
 62
6
 66
     1
 70
     9
  0
VERTEX
  8
T09SSILL
 62
6
 10
1399.616
 20
-510.025
 30
4336.902
 70
    32
  0
VERTEX
  8
T09SSILL
 62
6
 10
1462.476
 20
-512.619
 30
4336.901
 70
    32
  0
VERTEX
  8
T09SSILL
 62
6
 10
1480.452
 20
-468.113
 30
4336.901
 70
    32
  0
VERTEX
  8
T09SSILL
 62
6
 10
1487.111
 20
-445.547
 30
4336.901
 70
    32
  0
VERTEX
  8
T09SSILL
 62
6
 10
1478.494
 20
-444.369
 30
4336.901
 70
    32
  0
VERTEX
  8
T09SSILL
 62
6
 10
1464.903
 20
-450.376
 30
4336.901
 70
    32
  0
VERTEX
  8
T09SSILL
 62
6
 10
1441.957
 20
-447.409
 30
4336.902
 70
    32
  0
VERTEX
  8
T09SSILL
 62
6
 10
1438.021
 20
-448.173
 30
4336.902
 70
    32
  0
VERTEX
  8
T09SSILL
 62
6
 10
1419.125
 20
-473.567
 30
4336.902
 70
    32
  0
SEQEND
  8
T09SSILL
  0
POLYLINE
  8
T09SSILL
 62
6
 66
     1
 70
     9
  0
VERTEX
  8
T09SSILL
 62
6
 10
-42.914
 20
-1000.405
 30
4337.238
 70
    32
  0
VERTEX
  8
T09SSILL
 62
6
 10
-32.151
 20
-1028.844
 30
4337.295
 70
    32
  0
VERTEX
  8
T09SSILL
 62
6
 10
-28.781
 20
-1030.909
 30
4337.293
 70
    32
  0
VERTEX
  8
T09SSILL
 62
6
 10
-26.148
 20
-1030.521
 30
4337.286
 70
    32
  0
VERTEX
  8
T09SSILL
 62
6
 10
-24.345
 20
-1020.734
 30
4337.254
 70
    32
  0
VERTEX
  8
T09SSILL
 62
6
 10
-26.260
 20
-1015.747
 30
4337.244
 70
    32
  0
VERTEX
  8
T09SSILL
 62
6
 10
-38.511
 20
-1000.873
 30
4337.229
 70
    32
  0
SEQEND
  8
T09SSILL
  0
POLYLINE
  8
T09SSILL
 62
6
 66
     1
 70
     9
  0
VERTEX
  8
T09SSILL
 62
6
 10
-13.477
 20
-1076.436
 30
4337.389
 70
    32
  0
VERTEX
  8
T09SSILL
 62
6
 10
-6.911
 20
-1074.148
 30
4337.367
 70
    32
  0
VERTEX
  8
T09SSILL
 62
6
 10
1.019
 20
-1068.764
 30
4337.334
 70
    32
  0
VERTEX
  8
T09SSILL
 62
6
 10
2.569
 20
-1066.280
 30
4337.323
 70
    32
  0
VERTEX
  8
T09SSILL
 62
6
 10
0.737
 20
-1060.940
 30
4337.312
 70
    32
  0
VERTEX
  8
T09SSILL
 62
6
 10
-8.440
 20
-1045.673
 30
4337.289
 70
    32
  0
VERTEX
  8
T09SSILL
 62
6
 10
-8.918
 20
-1042.865
 30
4337.282
 70
    32
  0
VERTEX
  8
T09SSILL
 62
6
 10
0.518
 20
-1031.743
 30
4337.228
 70
    32
  0
VERTEX
  8
T09SSILL
 62
6
 10
-0.041
 20
-1009.939
 30
4337.167
 70
    32
  0
VERTEX
  8
T09SSILL
 62
6
 10
-4.200
 20
-1008.060
 30
4337.171
 70
    32
  0
VERTEX
  8
T09SSILL
 62
6
 10
-6.898
 20
-1010.208
 30
4337.183
 70
    32
  0
VERTEX
  8
T09SSILL
 62
6
 10
-12.035
 20
-1020.568
 30
4337.225
 70
    32
  0
VERTEX
  8
T09SSILL
 62
6
 10
-18.930
 20
-1030.951
 30
4337.271
 70
    32
  0
VERTEX
  8
T09SSILL
 62
6
 10
-24.462
 20
-1051.079
 30
4337.341
 70
    32
  0
VERTEX
  8
T09SSILL
 62
6
 10
-19.531
 20
-1064.469
 30
4337.368
 70
    32
  0
SEQEND
  8
T09SSILL
  0
POLYLINE
  8
T09SSILL
 62
6
 66
     1
 70
     9
  0
VERTEX
  8
T09SSILL
 62
6
 10
7.630
 20
-1134.725
 30
4337.508
 70
    32
  0
VERTEX
  8
T09SSILL
 62
6
 10
24.105
 20
-1123.860
 30
4337.439
 70
    32
  0
VERTEX
  8
T09SSILL
 62
6
 10
13.412
 20
-1107.118
 30
4337.415
 70
    32
  0
VERTEX
  8
T09SSILL
 62
6
 10
3.630
 20
-1073.214
 30
4337.340
 70
    32
  0
VERTEX
  8
T09SSILL
 62
6
 10
-11.620
 20
-1083.623
 30
4337.405
 70
    32
  0
VERTEX
  8
T09SSILL
 62
6
 10
-1.936
 20
-1110.316
 30
4337.460
 70
    32
  0
SEQEND
  8
T09SSILL
  0
POLYLINE
  8
T09SSILL
 62
6
 66
     1
 70
     9
  0
VERTEX
  8
T09SSILL
 62
6
 10
230.391
 20
-1633.379
 30
4338.181
 70
    32
  0
VERTEX
  8
T09SSILL
 62
6
 10
225.258
 20
-1637.582
 30
4338.200
 70
    32
  0
VERTEX
  8
T09SSILL
 62
6
 10
224.876
 20
-1641.809
 30
4338.211
 70
    32
  0
VERTEX
  8
T09SSILL
 62
6
 10
226.335
 20
-1645.659
 30
4338.220
 70
    32
  0
VERTEX
  8
T09SSILL
 62
6
 10
428.959
 20
-1878.359
 30
4338.560
 70
    32
  0
VERTEX
  8
T09SSILL
 62
6
 10
437.629
 20
-1895.040
 30
4338.594
 70
    32
  0
VERTEX
  8
T09SSILL
 62
6
 10
441.862
 20
-1908.879
 30
4338.626
 70
    32
  0
VERTEX
  8
T09SSILL
 62
6
 10
448.465
 20
-1915.913
 30
4338.636
 70
    32
  0
VERTEX
  8
T09SSILL
 62
6
 10
453.619
 20
-1919.801
 30
4338.639
 70
    32
  0
VERTEX
  8
T09SSILL
 62
6
 10
457.656
 20
-1919.131
 30
4338.631
 70
    32
  0
VERTEX
  8
T09SSILL
 62
6
 10
469.357
 20
-1912.904
 30
4338.595
 70
    32
  0
VERTEX
  8
T09SSILL
 62
6
 10
504.920
 20
-1889.203
 30
4338.472
 70
    32
  0
VERTEX
  8
T09SSILL
 62
6
 10
506.355
 20
-1884.786
 30
4338.457
 70
    32
  0
VERTEX
  8
T09SSILL
 62
6
 10
503.997
 20
-1879.541
 30
4338.446
 70
    32
  0
VERTEX
  8
T09SSILL
 62
6
 10
498.930
 20
-1875.564
 30
4338.442
 70
    32
  0
VERTEX
  8
T09SSILL
 62
6
 10
495.883
 20
-1871.384
 30
4338.435
 70
    32
  0
VERTEX
  8
T09SSILL
 62
6
 10
487.783
 20
-1857.773
 30
4338.410
 70
    32
  0
VERTEX
  8
T09SSILL
 62
6
 10
483.321
 20
-1852.996
 30
4338.403
 70
    32
  0
VERTEX
  8
T09SSILL
 62
6
 10
482.022
 20
-1848.001
 30
4338.391
 70
    32
  0
VERTEX
  8
T09SSILL
 62
6
 10
467.750
 20
-1833.242
 30
4338.372
 70
    32
  0
VERTEX
  8
T09SSILL
 62
6
 10
456.589
 20
-1801.380
 30
4338.299
 70
    32
  0
VERTEX
  8
T09SSILL
 62
6
 10
450.731
 20
-1790.993
 30
4338.279
 70
    32
  0
VERTEX
  8
T09SSILL
 62
6
 10
435.797
 20
-1779.322
 30
4338.269
 70
    32
  0
VERTEX
  8
T09SSILL
 62
6
 10
421.400
 20
-1761.839
 30
4338.242
 70
    32
  0
VERTEX
  8
T09SSILL
 62
6
 10
399.736
 20
-1753.249
 30
4338.252
 70
    32
  0
VERTEX
  8
T09SSILL
 62
6
 10
391.979
 20
-1745.438
 30
4338.242
 70
    32
  0
VERTEX
  8
T09SSILL
 62
6
 10
387.046
 20
-1731.873
 30
4338.211
 70
    32
  0
VERTEX
  8
T09SSILL
 62
6
 10
376.765
 20
-1713.103
 30
4338.174
 70
    32
  0
VERTEX
  8
T09SSILL
 62
6
 10
358.948
 20
-1696.370
 30
4338.155
 70
    32
  0
VERTEX
  8
T09SSILL
 62
6
 10
349.913
 20
-1685.146
 30
4338.137
 70
    32
  0
VERTEX
  8
T09SSILL
 62
6
 10
329.766
 20
-1665.191
 30
4338.113
 70
    32
  0
VERTEX
  8
T09SSILL
 62
6
 10
325.194
 20
-1658.832
 30
4338.102
 70
    32
  0
VERTEX
  8
T09SSILL
 62
6
 10
307.804
 20
-1621.601
 30
4338.024
 70
    32
  0
VERTEX
  8
T09SSILL
 62
6
 10
299.984
 20
-1609.217
 30
4338.001
 70
    32
  0
VERTEX
  8
T09SSILL
 62
6
 10
285.975
 20
-1600.876
 30
4337.999
 70
    32
  0
VERTEX
  8
T09SSILL
 62
6
 10
278.397
 20
-1599.835
 30
4338.008
 70
    32
  0
VERTEX
  8
T09SSILL
 62
6
 10
251.761
 20
-1618.308
 30
4338.102
 70
    32
  0
SEQEND
  8
T09SSILL
  0
POLYLINE
  8
T09SSILL
 62
6
 66
     1
 70
     9
  0
VERTEX
  8
T09SSILL
 62
6
 10
279.719
 20
-1041.594
 30
4336.945
 70
    32
  0
VERTEX
  8
T09SSILL
 62
6
 10
245.628
 20
-1050.587
 30
4336.946
 70
    32
  0
VERTEX
  8
T09SSILL
 62
6
 10
244.601
 20
-1052.712
 30
4336.947
 70
    32
  0
VERTEX
  8
T09SSILL
 62
6
 10
254.216
 20
-1080.726
 30
4336.948
 70
    32
  0
VERTEX
  8
T09SSILL
 62
6
 10
255.263
 20
-1093.113
 30
4336.948
 70
    32
  0
VERTEX
  8
T09SSILL
 62
6
 10
258.942
 20
-1098.516
 30
4336.948
 70
    32
  0
VERTEX
  8
T09SSILL
 62
6
 10
265.422
 20
-1102.913
 30
4336.948
 70
    32
  0
VERTEX
  8
T09SSILL
 62
6
 10
301.447
 20
-1074.369
 30
4336.946
 70
    32
  0
VERTEX
  8
T09SSILL
 62
6
 10
300.880
 20
-1071.474
 30
4336.945
 70
    32
  0
VERTEX
  8
T09SSILL
 62
6
 10
286.854
 20
-1048.885
 30
4336.945
 70
    32
  0
SEQEND
  8
T09SSILL
  0
POLYLINE
  8
T09SSILL
 62
6
 66
     1
 70
     9
  0
VERTEX
  8
T09SSILL
 62
6
 10
276.638
 20
-1034.863
 30
4336.945
 70
    32
  0
VERTEX
  8
T09SSILL
 62
6
 10
276.515
 20
-1032.315
 30
4336.945
 70
    32
  0
VERTEX
  8
T09SSILL
 62
6
 10
264.298
 20
-1013.395
 30
4336.944
 70
    32
  0
VERTEX
  8
T09SSILL
 62
6
 10
218.949
 20
-1002.927
 30
4336.945
 70
    32
  0
VERTEX
  8
T09SSILL
 62
6
 10
224.249
 20
-1017.631
 30
4336.946
 70
    32
  0
VERTEX
  8
T09SSILL
 62
6
 10
228.167
 20
-1034.113
 30
4336.946
 70
    32
  0
VERTEX
  8
T09SSILL
 62
6
 10
228.606
 20
-1040.615
 30
4336.947
 70
    32
  0
VERTEX
  8
T09SSILL
 62
6
 10
232.826
 20
-1040.470
 30
4336.947
 70
    32
  0
VERTEX
  8
T09SSILL
 62
6
 10
243.071
 20
-1043.585
 30
4336.946
 70
    32
  0
VERTEX
  8
T09SSILL
 62
6
 10
248.414
 20
-1042.018
 30
4336.946
 70
    32
  0
SEQEND
  8
T09SSILL
  0
POLYLINE
  8
T09SSILL
 62
6
 66
     1
 70
     9
  0
VERTEX
  8
T09SSILL
 62
6
 10
354.425
 20
-1180.600
 30
4336.948
 70
    32
  0
VERTEX
  8
T09SSILL
 62
6
 10
359.038
 20
-1177.019
 30
4336.948
 70
    32
  0
VERTEX
  8
T09SSILL
 62
6
 10
360.142
 20
-1174.102
 30
4336.948
 70
    32
  0
VERTEX
  8
T09SSILL
 62
6
 10
354.667
 20
-1159.488
 30
4336.947
 70
    32
  0
VERTEX
  8
T09SSILL
 62
6
 10
310.354
 20
-1089.112
 30
4336.946
 70
    32
  0
VERTEX
  8
T09SSILL
 62
6
 10
302.851
 20
-1087.103
 30
4336.946
 70
    32
  0
VERTEX
  8
T09SSILL
 62
6
 10
297.048
 20
-1087.270
 30
4336.946
 70
    32
  0
VERTEX
  8
T09SSILL
 62
6
 10
275.102
 20
-1103.310
 30
4336.948
 70
    32
  0
VERTEX
  8
T09SSILL
 62
6
 10
272.160
 20
-1106.868
 30
4336.948
 70
    32
  0
VERTEX
  8
T09SSILL
 62
6
 10
273.442
 20
-1110.632
 30
4336.948
 70
    32
  0
VERTEX
  8
T09SSILL
 62
6
 10
300.924
 20
-1152.652
 30
4336.949
 70
    32
  0
VERTEX
  8
T09SSILL
 62
6
 10
304.886
 20
-1178.896
 30
4336.953
 70
    32
  0
VERTEX
  8
T09SSILL
 62
6
 10
310.671
 20
-1190.427
 30
4336.973
 70
    32
  0
VERTEX
  8
T09SSILL
 62
6
 10
320.211
 20
-1199.973
 30
4336.979
 70
    32
  0
VERTEX
  8
T09SSILL
 62
6
 10
320.062
 20
-1201.997
 30
4336.985
 70
    32
  0
VERTEX
  8
T09SSILL
 62
6
 10
321.396
 20
-1203.035
 30
4336.985
 70
    32
  0
VERTEX
  8
T09SSILL
 62
6
 10
329.858
 20
-1197.598
 30
4336.950
 70
    32
  0
SEQEND
  8
T09SSILL
  0
POLYLINE
  8
T09SSILL
 62
6
 66
     1
 70
     9
  0
VERTEX
  8
T09SSILL
 62
6
 10
403.958
 20
-1298.750
 30
4337.071
 70
    32
  0
VERTEX
  8
T09SSILL
 62
6
 10
402.950
 20
-1302.194
 30
4337.083
 70
    32
  0
VERTEX
  8
T09SSILL
 62
6
 10
425.982
 20
-1288.426
 30
4336.991
 70
    32
  0
VERTEX
  8
T09SSILL
 62
6
 10
426.655
 20
-1286.130
 30
4336.983
 70
    32
  0
VERTEX
  8
T09SSILL
 62
6
 10
422.312
 20
-1277.218
 30
4336.967
 70
    32
  0
VERTEX
  8
T09SSILL
 62
6
 10
418.093
 20
-1277.363
 30
4336.977
 70
    32
  0
VERTEX
  8
T09SSILL
 62
6
 10
413.670
 20
-1281.996
 30
4337.000
 70
    32
  0
SEQEND
  8
T09SSILL
  0
POLYLINE
  8
T09SSILL
 62
6
 66
     1
 70
     9
  0
VERTEX
  8
T09SSILL
 62
6
 10
426.813
 20
-1499.144
 30
4337.490
 70
    32
  0
VERTEX
  8
T09SSILL
 62
6
 10
378.132
 20
-1534.808
 30
4337.668
 70
    32
  0
VERTEX
  8
T09SSILL
 62
6
 10
379.668
 20
-1544.286
 30
4337.692
 70
    32
  0
VERTEX
  8
T09SSILL
 62
6
 10
389.367
 20
-1565.615
 30
4337.737
 70
    32
  0
VERTEX
  8
T09SSILL
 62
6
 10
391.071
 20
-1568.054
 30
4337.741
 70
    32
  0
VERTEX
  8
T09SSILL
 62
6
 10
393.634
 20
-1568.987
 30
4337.740
 70
    32
  0
VERTEX
  8
T09SSILL
 62
6
 10
401.311
 20
-1564.309
 30
4337.715
 70
    32
  0
VERTEX
  8
T09SSILL
 62
6
 10
409.277
 20
-1555.055
 30
4337.676
 70
    32
  0
VERTEX
  8
T09SSILL
 62
6
 10
412.757
 20
-1545.773
 30
4337.644
 70
    32
  0
VERTEX
  8
T09SSILL
 62
6
 10
409.945
 20
-1539.478
 30
4337.631
 70
    32
  0
VERTEX
  8
T09SSILL
 62
6
 10
411.926
 20
-1536.373
 30
4337.619
 70
    32
  0
VERTEX
  8
T09SSILL
 62
6
 10
431.483
 20
-1519.222
 30
4337.540
 70
    32
  0
VERTEX
  8
T09SSILL
 62
6
 10
430.469
 20
-1502.789
 30
4337.495
 70
    32
  0
VERTEX
  8
T09SSILL
 62
6
 10
428.491
 20
-1499.649
 30
4337.489
 70
    32
  0
SEQEND
  8
T09SSILL
  0
POLYLINE
  8
T09SSILL
 62
6
 66
     1
 70
     9
  0
VERTEX
  8
T09SSILL
 62
6
 10
359.817
 20
-1539.718
 30
4337.710
 70
    32
  0
VERTEX
  8
T09SSILL
 62
6
 10
310.012
 20
-1576.892
 30
4337.894
 70
    32
  0
VERTEX
  8
T09SSILL
 62
6
 10
309.622
 20
-1580.503
 30
4337.905
 70
    32
  0
VERTEX
  8
T09SSILL
 62
6
 10
307.447
 20
-1582.291
 30
4337.913
 70
    32
  0
VERTEX
  8
T09SSILL
 62
6
 10
307.579
 20
-1592.052
 30
4337.940
 70
    32
  0
VERTEX
  8
T09SSILL
 62
6
 10
306.171
 20
-1598.492
 30
4337.961
 70
    32
  0
VERTEX
  8
T09SSILL
 62
6
 10
328.525
 20
-1644.979
 30
4338.057
 70
    32
  0
VERTEX
  8
T09SSILL
 62
6
 10
331.639
 20
-1647.663
 30
4338.060
 70
    32
  0
VERTEX
  8
T09SSILL
 62
6
 10
336.040
 20
-1647.867
 30
4338.054
 70
    32
  0
VERTEX
  8
T09SSILL
 62
6
 10
340.775
 20
-1646.836
 30
4338.043
 70
    32
  0
VERTEX
  8
T09SSILL
 62
6
 10
350.034
 20
-1642.137
 30
4338.016
 70
    32
  0
VERTEX
  8
T09SSILL
 62
6
 10
360.621
 20
-1644.544
 30
4338.006
 70
    32
  0
VERTEX
  8
T09SSILL
 62
6
 10
369.261
 20
-1652.606
 30
4338.015
 70
    32
  0
VERTEX
  8
T09SSILL
 62
6
 10
384.333
 20
-1674.478
 30
4338.053
 70
    32
  0
VERTEX
  8
T09SSILL
 62
6
 10
388.548
 20
-1673.981
 30
4338.045
 70
    32
  0
VERTEX
  8
T09SSILL
 62
6
 10
427.530
 20
-1642.934
 30
4337.896
 70
    32
  0
VERTEX
  8
T09SSILL
 62
6
 10
425.160
 20
-1636.810
 30
4337.883
 70
    32
  0
VERTEX
  8
T09SSILL
 62
6
 10
419.952
 20
-1635.385
 30
4337.887
 70
    32
  0
VERTEX
  8
T09SSILL
 62
6
 10
388.486
 20
-1591.484
 30
4337.812
 70
    32
  0
VERTEX
  8
T09SSILL
 62
6
 10
386.398
 20
-1573.658
 30
4337.765
 70
    32
  0
VERTEX
  8
T09SSILL
 62
6
 10
370.420
 20
-1543.356
 30
4337.704
 70
    32
  0
VERTEX
  8
T09SSILL
 62
6
 10
363.083
 20
-1540.641
 30
4337.708
 70
    32
  0
SEQEND
  8
T09SSILL
  0
POLYLINE
  8
T09SSILL
 62
6
 66
     1
 70
     9
  0
VERTEX
  8
T09SSILL
 62
6
 10
655.642
 20
-1322.419
 30
4336.942
 70
    32
  0
VERTEX
  8
T09SSILL
 62
6
 10
658.520
 20
-1327.133
 30
4336.942
 70
    32
  0
VERTEX
  8
T09SSILL
 62
6
 10
661.344
 20
-1327.800
 30
4336.942
 70
    32
  0
VERTEX
  8
T09SSILL
 62
6
 10
707.877
 20
-1299.387
 30
4336.937
 70
    32
  0
VERTEX
  8
T09SSILL
 62
6
 10
706.355
 20
-1297.383
 30
4336.938
 70
    32
  0
VERTEX
  8
T09SSILL
 62
6
 10
635.720
 20
-1279.207
 30
4336.943
 70
    32
  0
VERTEX
  8
T09SSILL
 62
6
 10
630.631
 20
-1280.330
 30
4336.943
 70
    32
  0
SEQEND
  8
T09SSILL
  0
POLYLINE
  8
T09SSILL
 62
6
 66
     1
 70
     9
  0
VERTEX
  8
T09SSILL
 62
6
 10
719.313
 20
-1454.553
 30
4337.062
 70
    32
  0
VERTEX
  8
T09SSILL
 62
6
 10
724.455
 20
-1457.478
 30
4337.066
 70
    32
  0
VERTEX
  8
T09SSILL
 62
6
 10
728.830
 20
-1455.573
 30
4337.066
 70
    32
  0
VERTEX
  8
T09SSILL
 62
6
 10
733.060
 20
-1449.270
 30
4337.061
 70
    32
  0
VERTEX
  8
T09SSILL
 62
6
 10
731.044
 20
-1443.137
 30
4337.055
 70
    32
  0
VERTEX
  8
T09SSILL
 62
6
 10
727.533
 20
-1443.798
 30
4337.055
 70
    32
  0
VERTEX
  8
T09SSILL
 62
6
 10
719.361
 20
-1451.473
 30
4337.059
 70
    32
  0
SEQEND
  8
T09SSILL
  0
POLYLINE
  8
T09SSILL
 62
6
 66
     1
 70
     9
  0
VERTEX
  8
T09SSILL
 62
6
 10
700.818
 20
-1466.850
 30
4337.067
 70
    32
  0
VERTEX
  8
T09SSILL
 62
6
 10
703.500
 20
-1470.071
 30
4337.070
 70
    32
  0
VERTEX
  8
T09SSILL
 62
6
 10
705.711
 20
-1470.922
 30
4337.072
 70
    32
  0
VERTEX
  8
T09SSILL
 62
6
 10
714.926
 20
-1462.266
 30
4337.067
 70
    32
  0
VERTEX
  8
T09SSILL
 62
6
 10
711.778
 20
-1457.027
 30
4337.061
 70
    32
  0
VERTEX
  8
T09SSILL
 62
6
 10
704.136
 20
-1458.095
 30
4337.060
 70
    32
  0
VERTEX
  8
T09SSILL
 62
6
 10
701.606
 20
-1459.800
 30
4337.061
 70
    32
  0
VERTEX
  8
T09SSILL
 62
6
 10
700.414
 20
-1462.895
 30
4337.063
 70
    32
  0
SEQEND
  8
T09SSILL
  0
POLYLINE
  8
T09SSILL
 62
6
 66
     1
 70
     9
  0
VERTEX
  8
T09SSILL
 62
6
 10
788.703
 20
-1525.807
 30
4337.146
 70
    32
  0
VERTEX
  8
T09SSILL
 62
6
 10
812.238
 20
-1508.605
 30
4337.139
 70
    32
  0
VERTEX
  8
T09SSILL
 62
6
 10
814.637
 20
-1503.646
 30
4337.135
 70
    32
  0
VERTEX
  8
T09SSILL
 62
6
 10
793.335
 20
-1449.013
 30
4337.081
 70
    32
  0
VERTEX
  8
T09SSILL
 62
6
 10
779.252
 20
-1435.293
 30
4337.064
 70
    32
  0
VERTEX
  8
T09SSILL
 62
6
 10
772.888
 20
-1426.312
 30
4337.054
 70
    32
  0
VERTEX
  8
T09SSILL
 62
6
 10
757.543
 20
-1430.560
 30
4337.053
 70
    32
  0
VERTEX
  8
T09SSILL
 62
6
 10
752.127
 20
-1433.622
 30
4337.054
 70
    32
  0
VERTEX
  8
T09SSILL
 62
6
 10
748.657
 20
-1437.451
 30
4337.056
 70
    32
  0
VERTEX
  8
T09SSILL
 62
6
 10
750.489
 20
-1442.971
 30
4337.062
 70
    32
  0
VERTEX
  8
T09SSILL
 62
6
 10
753.524
 20
-1446.276
 30
4337.065
 70
    32
  0
VERTEX
  8
T09SSILL
 62
6
 10
760.403
 20
-1460.970
 30
4337.080
 70
    32
  0
VERTEX
  8
T09SSILL
 62
6
 10
770.686
 20
-1486.971
 30
4337.107
 70
    32
  0
VERTEX
  8
T09SSILL
 62
6
 10
780.210
 20
-1502.070
 30
4337.123
 70
    32
  0
VERTEX
  8
T09SSILL
 62
6
 10
785.349
 20
-1518.283
 30
4337.139
 70
    32
  0
SEQEND
  8
T09SSILL
  0
POLYLINE
  8
T09SSILL
 62
6
 66
     1
 70
     9
  0
VERTEX
  8
T09SSILL
 62
6
 10
790.121
 20
-1533.356
 30
4337.154
 70
    32
  0
VERTEX
  8
T09SSILL
 62
6
 10
786.455
 20
-1535.604
 30
4337.154
 70
    32
  0
VERTEX
  8
T09SSILL
 62
6
 10
786.047
 20
-1538.073
 30
4337.156
 70
    32
  0
VERTEX
  8
T09SSILL
 62
6
 10
791.032
 20
-1542.496
 30
4337.162
 70
    32
  0
VERTEX
  8
T09SSILL
 62
6
 10
795.891
 20
-1543.929
 30
4337.165
 70
    32
  0
VERTEX
  8
T09SSILL
 62
6
 10
804.680
 20
-1563.438
 30
4337.185
 70
    32
  0
VERTEX
  8
T09SSILL
 62
6
 10
806.455
 20
-1571.334
 30
4337.192
 70
    32
  0
VERTEX
  8
T09SSILL
 62
6
 10
826.998
 20
-1608.114
 30
4337.231
 70
    32
  0
VERTEX
  8
T09SSILL
 62
6
 10
834.714
 20
-1619.541
 30
4337.243
 70
    32
  0
VERTEX
  8
T09SSILL
 62
6
 10
829.050
 20
-1623.838
 30
4337.245
 70
    32
  0
VERTEX
  8
T09SSILL
 62
6
 10
827.614
 20
-1628.433
 30
4337.249
 70
    32
  0
VERTEX
  8
T09SSILL
 62
6
 10
832.466
 20
-1636.114
 30
4337.257
 70
    32
  0
VERTEX
  8
T09SSILL
 62
6
 10
839.384
 20
-1640.247
 30
4337.263
 70
    32
  0
VERTEX
  8
T09SSILL
 62
6
 10
844.931
 20
-1640.527
 30
4337.265
 70
    32
  0
VERTEX
  8
T09SSILL
 62
6
 10
864.015
 20
-1626.111
 30
4337.259
 70
    32
  0
VERTEX
  8
T09SSILL
 62
6
 10
864.265
 20
-1618.276
 30
4337.252
 70
    32
  0
VERTEX
  8
T09SSILL
 62
6
 10
819.828
 20
-1517.042
 30
4337.149
 70
    32
  0
VERTEX
  8
T09SSILL
 62
6
 10
812.769
 20
-1515.550
 30
4337.145
 70
    32
  0
SEQEND
  8
T09SSILL
  0
POLYLINE
  8
T09SSILL
 62
6
 66
     1
 70
     9
  0
VERTEX
  8
T09SSILL
 62
6
 10
843.371
 20
-1534.247
 30
4337.171
 70
    32
  0
VERTEX
  8
T09SSILL
 62
6
 10
840.928
 20
-1542.638
 30
4337.178
 70
    32
  0
VERTEX
  8
T09SSILL
 62
6
 10
841.528
 20
-1548.174
 30
4337.183
 70
    32
  0
VERTEX
  8
T09SSILL
 62
6
 10
853.436
 20
-1577.322
 30
4337.212
 70
    32
  0
VERTEX
  8
T09SSILL
 62
6
 10
856.019
 20
-1579.753
 30
4337.215
 70
    32
  0
VERTEX
  8
T09SSILL
 62
6
 10
858.574
 20
-1579.983
 30
4337.216
 70
    32
  0
VERTEX
  8
T09SSILL
 62
6
 10
887.198
 20
-1568.347
 30
4337.215
 70
    32
  0
VERTEX
  8
T09SSILL
 62
6
 10
883.006
 20
-1557.314
 30
4337.204
 70
    32
  0
VERTEX
  8
T09SSILL
 62
6
 10
883.181
 20
-1550.448
 30
4337.198
 70
    32
  0
VERTEX
  8
T09SSILL
 62
6
 10
876.754
 20
-1536.716
 30
4337.184
 70
    32
  0
VERTEX
  8
T09SSILL
 62
6
 10
872.636
 20
-1531.314
 30
4337.178
 70
    32
  0
VERTEX
  8
T09SSILL
 62
6
 10
870.066
 20
-1529.939
 30
4337.176
 70
    32
  0
VERTEX
  8
T09SSILL
 62
6
 10
869.220
 20
-1525.814
 30
4337.172
 70
    32
  0
VERTEX
  8
T09SSILL
 62
6
 10
866.465
 20
-1523.738
 30
4337.170
 70
    32
  0
VERTEX
  8
T09SSILL
 62
6
 10
860.069
 20
-1525.846
 30
4337.169
 70
    32
  0
SEQEND
  8
T09SSILL
  0
POLYLINE
  8
T09SSILL
 62
6
 66
     1
 70
     9
  0
VERTEX
  8
T09SSILL
 62
6
 10
862.777
 20
-1585.120
 30
4337.222
 70
    32
  0
VERTEX
  8
T09SSILL
 62
6
 10
860.190
 20
-1589.202
 30
4337.225
 70
    32
  0
VERTEX
  8
T09SSILL
 62
6
 10
860.692
 20
-1593.947
 30
4337.229
 70
    32
  0
VERTEX
  8
T09SSILL
 62
6
 10
868.496
 20
-1612.061
 30
4337.248
 70
    32
  0
VERTEX
  8
T09SSILL
 62
6
 10
871.544
 20
-1616.421
 30
4337.252
 70
    32
  0
VERTEX
  8
T09SSILL
 62
6
 10
878.149
 20
-1616.775
 30
4337.255
 70
    32
  0
VERTEX
  8
T09SSILL
 62
6
 10
897.071
 20
-1603.505
 30
4337.249
 70
    32
  0
VERTEX
  8
T09SSILL
 62
6
 10
898.704
 20
-1600.492
 30
4337.247
 70
    32
  0
VERTEX
  8
T09SSILL
 62
6
 10
895.340
 20
-1585.400
 30
4337.233
 70
    32
  0
VERTEX
  8
T09SSILL
 62
6
 10
890.913
 20
-1576.570
 30
4337.224
 70
    32
  0
VERTEX
  8
T09SSILL
 62
6
 10
888.424
 20
-1574.667
 30
4337.221
 70
    32
  0
VERTEX
  8
T09SSILL
 62
6
 10
885.532
 20
-1575.584
 30
4337.221
 70
    32
  0
SEQEND
  8
T09SSILL
  0
POLYLINE
  8
T09SSILL
 62
6
 66
     1
 70
     9
  0
VERTEX
  8
T09SSILL
 62
6
 10
883.758
 20
-1621.806
 30
4337.261
 70
    32
  0
VERTEX
  8
T09SSILL
 62
6
 10
879.881
 20
-1634.880
 30
4337.271
 70
    32
  0
VERTEX
  8
T09SSILL
 62
6
 10
893.152
 20
-1660.666
 30
4337.298
 70
    32
  0
VERTEX
  8
T09SSILL
 62
6
 10
899.668
 20
-1661.022
 30
4337.301
 70
    32
  0
VERTEX
  8
T09SSILL
 62
6
 10
904.655
 20
-1658.757
 30
4337.300
 70
    32
  0
VERTEX
  8
T09SSILL
 62
6
 10
908.714
 20
-1652.896
 30
4337.296
 70
    32
  0
VERTEX
  8
T09SSILL
 62
6
 10
907.048
 20
-1619.567
 30
4337.267
 70
    32
  0
VERTEX
  8
T09SSILL
 62
6
 10
906.165
 20
-1612.539
 30
4337.260
 70
    32
  0
VERTEX
  8
T09SSILL
 62
6
 10
904.093
 20
-1608.870
 30
4337.256
 70
    32
  0
VERTEX
  8
T09SSILL
 62
6
 10
900.057
 20
-1609.802
 30
4337.256
 70
    32
  0
SEQEND
  8
T09SSILL
  0
POLYLINE
  8
T09SSILL
 62
6
 66
     1
 70
     9
  0
VERTEX
  8
T09SSILL
 62
6
 10
813.049
 20
-1645.166
 30
4337.298
 70
    32
  0
VERTEX
  8
T09SSILL
 62
6
 10
822.157
 20
-1655.343
 30
4337.312
 70
    32
  0
VERTEX
  8
T09SSILL
 62
6
 10
826.026
 20
-1655.117
 30
4337.305
 70
    32
  0
VERTEX
  8
T09SSILL
 62
6
 10
830.293
 20
-1651.717
 30
4337.289
 70
    32
  0
VERTEX
  8
T09SSILL
 62
6
 10
831.111
 20
-1646.955
 30
4337.274
 70
    32
  0
VERTEX
  8
T09SSILL
 62
6
 10
827.870
 20
-1641.277
 30
4337.263
 70
    32
  0
VERTEX
  8
T09SSILL
 62
6
 10
817.535
 20
-1631.556
 30
4337.252
 70
    32
  0
VERTEX
  8
T09SSILL
 62
6
 10
813.431
 20
-1633.986
 30
4337.265
 70
    32
  0
VERTEX
  8
T09SSILL
 62
6
 10
810.407
 20
-1638.249
 30
4337.282
 70
    32
  0
VERTEX
  8
T09SSILL
 62
6
 10
810.802
 20
-1641.588
 30
4337.291
 70
    32
  0
SEQEND
  8
T09SSILL
  0
POLYLINE
  8
T09SSILL
 62
6
 66
     1
 70
     9
  0
VERTEX
  8
T09SSILL
 62
6
 10
705.579
 20
-1737.819
 30
4337.728
 70
    32
  0
VERTEX
  8
T09SSILL
 62
6
 10
724.361
 20
-1727.279
 30
4337.669
 70
    32
  0
VERTEX
  8
T09SSILL
 62
6
 10
728.265
 20
-1723.004
 30
4337.651
 70
    32
  0
VERTEX
  8
T09SSILL
 62
6
 10
725.460
 20
-1717.057
 30
4337.638
 70
    32
  0
VERTEX
  8
T09SSILL
 62
6
 10
716.465
 20
-1708.814
 30
4337.629
 70
    32
  0
VERTEX
  8
T09SSILL
 62
6
 10
713.472
 20
-1708.765
 30
4337.634
 70
    32
  0
VERTEX
  8
T09SSILL
 62
6
 10
701.309
 20
-1720.803
 30
4337.687
 70
    32
  0
VERTEX
  8
T09SSILL
 62
6
 10
700.415
 20
-1726.447
 30
4337.704
 70
    32
  0
VERTEX
  8
T09SSILL
 62
6
 10
701.783
 20
-1730.125
 30
4337.713
 70
    32
  0
SEQEND
  8
T09SSILL
  0
POLYLINE
  8
T09SSILL
 62
6
 66
     1
 70
     9
  0
VERTEX
  8
T09SSILL
 62
6
 10
494.453
 20
-1628.108
 30
4337.749
 70
    32
  0
VERTEX
  8
T09SSILL
 62
6
 10
491.576
 20
-1623.482
 30
4337.741
 70
    32
  0
VERTEX
  8
T09SSILL
 62
6
 10
489.541
 20
-1615.853
 30
4337.722
 70
    32
  0
VERTEX
  8
T09SSILL
 62
6
 10
482.220
 20
-1614.540
 30
4337.730
 70
    32
  0
VERTEX
  8
T09SSILL
 62
6
 10
478.871
 20
-1627.607
 30
4337.772
 70
    32
  0
VERTEX
  8
T09SSILL
 62
6
 10
480.784
 20
-1632.598
 30
4337.783
 70
    32
  0
VERTEX
  8
T09SSILL
 62
6
 10
483.376
 20
-1635.732
 30
4337.788
 70
    32
  0
VERTEX
  8
T09SSILL
 62
6
 10
485.402
 20
-1635.882
 30
4337.785
 70
    32
  0
SEQEND
  8
T09SSILL
  0
POLYLINE
  8
T09SSILL
 62
6
 66
     1
 70
     9
  0
VERTEX
  8
T09SSILL
 62
6
 10
437.764
 20
-1667.213
 30
4337.949
 70
    32
  0
VERTEX
  8
T09SSILL
 62
6
 10
440.702
 20
-1663.127
 30
4337.933
 70
    32
  0
VERTEX
  8
T09SSILL
 62
6
 10
435.819
 20
-1652.983
 30
4337.912
 70
    32
  0
VERTEX
  8
T09SSILL
 62
6
 10
429.535
 20
-1650.249
 30
4337.914
 70
    32
  0
VERTEX
  8
T09SSILL
 62
6
 10
423.784
 20
-1654.636
 30
4337.935
 70
    32
  0
VERTEX
  8
T09SSILL
 62
6
 10
420.890
 20
-1662.153
 30
4337.961
 70
    32
  0
VERTEX
  8
T09SSILL
 62
6
 10
422.317
 20
-1670.318
 30
4337.982
 70
    32
  0
VERTEX
  8
T09SSILL
 62
6
 10
425.907
 20
-1675.727
 30
4337.992
 70
    32
  0
VERTEX
  8
T09SSILL
 62
6
 10
428.470
 20
-1676.574
 30
4337.990
 70
    32
  0
SEQEND
  8
T09SSILL
  0
POLYLINE
  8
T09SSILL
 62
6
 66
     1
 70
     9
  0
VERTEX
  8
T09SSILL
 62
6
 10
415.916
 20
-1685.625
 30
4338.035
 70
    32
  0
VERTEX
  8
T09SSILL
 62
6
 10
420.572
 20
-1678.261
 30
4338.007
 70
    32
  0
VERTEX
  8
T09SSILL
 62
6
 10
407.870
 20
-1662.411
 30
4337.982
 70
    32
  0
VERTEX
  8
T09SSILL
 62
6
 10
402.158
 20
-1669.789
 30
4338.012
 70
    32
  0
VERTEX
  8
T09SSILL
 62
6
 10
398.992
 20
-1676.694
 30
4338.036
 70
    32
  0
VERTEX
  8
T09SSILL
 62
6
 10
398.723
 20
-1683.033
 30
4338.055
 70
    32
  0
VERTEX
  8
T09SSILL
 62
6
 10
401.275
 20
-1689.776
 30
4338.070
 70
    32
  0
VERTEX
  8
T09SSILL
 62
6
 10
405.627
 20
-1692.887
 30
4338.072
 70
    32
  0
VERTEX
  8
T09SSILL
 62
6
 10
407.836
 20
-1693.562
 30
4338.070
 70
    32
  0
VERTEX
  8
T09SSILL
 62
6
 10
409.230
 20
-1692.488
 30
4338.065
 70
    32
  0
SEQEND
  8
T09SSILL
  0
POLYLINE
  8
T09SSILL
 62
6
 66
     1
 70
     9
  0
VERTEX
  8
T09SSILL
 62
6
 10
373.869
 20
-1693.565
 30
4338.124
 70
    32
  0
VERTEX
  8
T09SSILL
 62
6
 10
376.234
 20
-1699.518
 30
4338.137
 70
    32
  0
VERTEX
  8
T09SSILL
 62
6
 10
381.726
 20
-1702.262
 30
4338.136
 70
    32
  0
VERTEX
  8
T09SSILL
 62
6
 10
384.582
 20
-1705.305
 30
4338.140
 70
    32
  0
VERTEX
  8
T09SSILL
 62
6
 10
385.321
 20
-1708.023
 30
4338.147
 70
    32
  0
VERTEX
  8
T09SSILL
 62
6
 10
395.981
 20
-1702.252
 30
4338.114
 70
    32
  0
VERTEX
  8
T09SSILL
 62
6
 10
398.387
 20
-1697.733
 30
4338.097
 70
    32
  0
VERTEX
  8
T09SSILL
 62
6
 10
395.564
 20
-1690.466
 30
4338.081
 70
    32
  0
VERTEX
  8
T09SSILL
 62
6
 10
389.665
 20
-1683.503
 30
4338.070
 70
    32
  0
VERTEX
  8
T09SSILL
 62
6
 10
385.106
 20
-1684.794
 30
4338.081
 70
    32
  0
SEQEND
  8
T09SSILL
  0
POLYLINE
  8
T09SSILL
 62
6
 66
     1
 70
     9
  0
VERTEX
  8
T09SSILL
 62
6
 10
453.992
 20
-1751.127
 30
4338.161
 70
    32
  0
VERTEX
  8
T09SSILL
 62
6
 10
447.495
 20
-1759.044
 30
4338.193
 70
    32
  0
VERTEX
  8
T09SSILL
 62
6
 10
447.741
 20
-1764.408
 30
4338.208
 70
    32
  0
VERTEX
  8
T09SSILL
 62
6
 10
452.174
 20
-1766.902
 30
4338.208
 70
    32
  0
VERTEX
  8
T09SSILL
 62
6
 10
455.127
 20
-1770.736
 30
4338.215
 70
    32
  0
VERTEX
  8
T09SSILL
 62
6
 10
457.676
 20
-1770.439
 30
4338.210
 70
    32
  0
VERTEX
  8
T09SSILL
 62
6
 10
467.112
 20
-1765.300
 30
4338.180
 70
    32
  0
VERTEX
  8
T09SSILL
 62
6
 10
469.854
 20
-1759.632
 30
4338.160
 70
    32
  0
VERTEX
  8
T09SSILL
 62
6
 10
468.656
 20
-1755.424
 30
4338.150
 70
    32
  0
VERTEX
  8
T09SSILL
 62
6
 10
463.189
 20
-1747.839
 30
4338.137
 70
    32
  0
VERTEX
  8
T09SSILL
 62
6
 10
460.446
 20
-1746.643
 30
4338.138
 70
    32
  0
VERTEX
  8
T09SSILL
 62
6
 10
458.083
 20
-1747.642
 30
4338.145
 70
    32
  0
SEQEND
  8
T09SSILL
  0
POLYLINE
  8
T09SSILL
 62
6
 66
     1
 70
     9
  0
VERTEX
  8
T09SSILL
 62
6
 10
510.418
 20
-1739.129
 30
4338.038
 70
    32
  0
VERTEX
  8
T09SSILL
 62
6
 10
502.151
 20
-1746.276
 30
4338.072
 70
    32
  0
VERTEX
  8
T09SSILL
 62
6
 10
509.995
 20
-1760.693
 30
4338.100
 70
    32
  0
VERTEX
  8
T09SSILL
 62
6
 10
515.863
 20
-1758.593
 30
4338.085
 70
    32
  0
VERTEX
  8
T09SSILL
 62
6
 10
521.972
 20
-1754.642
 30
4338.064
 70
    32
  0
VERTEX
  8
T09SSILL
 62
6
 10
524.765
 20
-1746.158
 30
4338.036
 70
    32
  0
VERTEX
  8
T09SSILL
 62
6
 10
519.901
 20
-1737.509
 30
4338.019
 70
    32
  0
VERTEX
  8
T09SSILL
 62
6
 10
516.012
 20
-1736.240
 30
4338.021
 70
    32
  0
SEQEND
  8
T09SSILL
  0
POLYLINE
  8
T09SSILL
 62
6
 66
     1
 70
     9
  0
VERTEX
  8
T09SSILL
 62
6
 10
834.151
 20
-1657.387
 30
4337.299
 70
    32
  0
VERTEX
  8
T09SSILL
 62
6
 10
840.450
 20
-1674.816
 30
4337.338
 70
    32
  0
VERTEX
  8
T09SSILL
 62
6
 10
841.874
 20
-1676.030
 30
4337.340
 70
    32
  0
VERTEX
  8
T09SSILL
 62
6
 10
857.469
 20
-1664.035
 30
4337.290
 70
    32
  0
VERTEX
  8
T09SSILL
 62
6
 10
860.383
 20
-1664.789
 30
4337.291
 70
    32
  0
VERTEX
  8
T09SSILL
 62
6
 10
873.463
 20
-1682.658
 30
4337.311
 70
    32
  0
VERTEX
  8
T09SSILL
 62
6
 10
876.416
 20
-1693.179
 30
4337.334
 70
    32
  0
VERTEX
  8
T09SSILL
 62
6
 10
875.472
 20
-1701.815
 30
4337.360
 70
    32
  0
VERTEX
  8
T09SSILL
 62
6
 10
878.037
 20
-1709.526
 30
4337.378
 70
    32
  0
VERTEX
  8
T09SSILL
 62
6
 10
881.552
 20
-1715.904
 30
4337.390
 70
    32
  0
VERTEX
  8
T09SSILL
 62
6
 10
891.760
 20
-1722.723
 30
4337.393
 70
    32
  0
VERTEX
  8
T09SSILL
 62
6
 10
897.036
 20
-1729.166
 30
4337.403
 70
    32
  0
VERTEX
  8
T09SSILL
 62
6
 10
895.431
 20
-1734.290
 30
4337.420
 70
    32
  0
VERTEX
  8
T09SSILL
 62
6
 10
896.885
 20
-1737.879
 30
4337.428
 70
    32
  0
VERTEX
  8
T09SSILL
 62
6
 10
901.479
 20
-1739.227
 30
4337.425
 70
    32
  0
VERTEX
  8
T09SSILL
 62
6
 10
916.565
 20
-1728.647
 30
4337.371
 70
    32
  0
VERTEX
  8
T09SSILL
 62
6
 10
918.380
 20
-1726.160
 30
4337.364
 70
    32
  0
VERTEX
  8
T09SSILL
 62
6
 10
917.915
 20
-1724.230
 30
4337.362
 70
    32
  0
VERTEX
  8
T09SSILL
 62
6
 10
869.566
 20
-1633.431
 30
4337.267
 70
    32
  0
VERTEX
  8
T09SSILL
 62
6
 10
867.622
 20
-1632.840
 30
4337.266
 70
    32
  0
VERTEX
  8
T09SSILL
 62
6
 10
840.900
 20
-1652.393
 30
4337.274
 70
    32
  0
SEQEND
  8
T09SSILL
  0
POLYLINE
  8
T09SSILL
 62
6
 66
     1
 70
     9
  0
VERTEX
  8
T09SSILL
 62
6
 10
1096.487
 20
-1128.804
 30
4336.905
 70
    32
  0
VERTEX
  8
T09SSILL
 62
6
 10
1104.920
 20
-1131.583
 30
4336.904
 70
    32
  0
VERTEX
  8
T09SSILL
 62
6
 10
1118.279
 20
-1113.375
 30
4336.903
 70
    32
  0
VERTEX
  8
T09SSILL
 62
6
 10
1118.533
 20
-1102.541
 30
4336.902
 70
    32
  0
VERTEX
  8
T09SSILL
 62
6
 10
1108.305
 20
-1094.965
 30
4336.903
 70
    32
  0
VERTEX
  8
T09SSILL
 62
6
 10
1081.656
 20
-1092.384
 30
4336.905
 70
    32
  0
VERTEX
  8
T09SSILL
 62
6
 10
1053.044
 20
-1109.659
 30
4336.908
 70
    32
  0
VERTEX
  8
T09SSILL
 62
6
 10
1072.875
 20
-1114.086
 30
4336.906
 70
    32
  0
VERTEX
  8
T09SSILL
 62
6
 10
1084.903
 20
-1119.767
 30
4336.905
 70
    32
  0
SEQEND
  8
T09SSILL
  0
POLYLINE
  8
T09SSILL
 62
6
 66
     1
 70
     9
  0
VERTEX
  8
T09SSILL
 62
6
 10
191.173
 20
-1325.435
 30
4337.635
 70
    32
  0
VERTEX
  8
T09SSILL
 62
6
 10
184.257
 20
-1316.543
 30
4337.626
 70
    32
  0
VERTEX
  8
T09SSILL
 62
6
 10
178.125
 20
-1314.234
 30
4337.633
 70
    32
  0
VERTEX
  8
T09SSILL
 62
6
 10
175.155
 20
-1325.577
 30
4337.672
 70
    32
  0
VERTEX
  8
T09SSILL
 62
6
 10
176.482
 20
-1332.762
 30
4337.690
 70
    32
  0
VERTEX
  8
T09SSILL
 62
6
 10
179.668
 20
-1336.906
 30
4337.695
 70
    32
  0
VERTEX
  8
T09SSILL
 62
6
 10
184.395
 20
-1339.339
 30
4337.691
 70
    32
  0
VERTEX
  8
T09SSILL
 62
6
 10
190.344
 20
-1337.868
 30
4337.673
 70
    32
  0
VERTEX
  8
T09SSILL
 62
6
 10
192.846
 20
-1335.868
 30
4337.661
 70
    32
  0
SEQEND
  8
T09SSILL
  0
POLYLINE
  8
T09SSILL
 62
6
 66
     1
 70
     9
  0
VERTEX
  8
T09SSILL
 62
6
 10
196.407
 20
-1136.042
 30
4337.079
 70
    32
  0
VERTEX
  8
T09SSILL
 62
6
 10
203.488
 20
-1134.102
 30
4337.057
 70
    32
  0
VERTEX
  8
T09SSILL
 62
6
 10
207.592
 20
-1129.332
 30
4337.034
 70
    32
  0
VERTEX
  8
T09SSILL
 62
6
 10
207.541
 20
-1127.309
 30
4337.028
 70
    32
  0
VERTEX
  8
T09SSILL
 62
6
 10
202.754
 20
-1122.501
 30
4337.026
 70
    32
  0
VERTEX
  8
T09SSILL
 62
6
 10
195.539
 20
-1119.162
 30
4337.032
 70
    32
  0
VERTEX
  8
T09SSILL
 62
6
 10
189.377
 20
-1122.664
 30
4337.057
 70
    32
  0
VERTEX
  8
T09SSILL
 62
6
 10
188.139
 20
-1129.385
 30
4337.079
 70
    32
  0
VERTEX
  8
T09SSILL
 62
6
 10
188.811
 20
-1131.569
 30
4337.084
 70
    32
  0
VERTEX
  8
T09SSILL
 62
6
 10
192.289
 20
-1133.329
 30
4337.081
 70
    32
  0
SEQEND
  8
T09SSILL
  0
POLYLINE
  8
T09SSILL
 62
6
 66
     1
 70
     9
  0
VERTEX
  8
T09SSILL
 62
6
 10
160.537
 20
-1057.990
 30
4336.950
 70
    32
  0
VERTEX
  8
T09SSILL
 62
6
 10
170.173
 20
-1052.640
 30
4336.949
 70
    32
  0
VERTEX
  8
T09SSILL
 62
6
 10
172.664
 20
-1050.200
 30
4336.949
 70
    32
  0
VERTEX
  8
T09SSILL
 62
6
 10
173.294
 20
-1047.279
 30
4336.949
 70
    32
  0
VERTEX
  8
T09SSILL
 62
6
 10
170.256
 20
-1038.553
 30
4336.949
 70
    32
  0
VERTEX
  8
T09SSILL
 62
6
 10
165.394
 20
-1034.275
 30
4336.949
 70
    32
  0
VERTEX
  8
T09SSILL
 62
6
 10
158.369
 20
-1034.981
 30
4336.949
 70
    32
  0
VERTEX
  8
T09SSILL
 62
6
 10
153.413
 20
-1037.396
 30
4336.949
 70
    32
  0
VERTEX
  8
T09SSILL
 62
6
 10
150.272
 20
-1041.965
 30
4336.949
 70
    32
  0
VERTEX
  8
T09SSILL
 62
6
 10
150.507
 20
-1047.769
 30
4336.950
 70
    32
  0
VERTEX
  8
T09SSILL
 62
6
 10
158.478
 20
-1056.634
 30
4336.950
 70
    32
  0
SEQEND
  8
T09SSILL
  0
POLYLINE
  8
T09SSILL
 62
6
 66
     1
 70
     9
  0
VERTEX
  8
T09SSILL
 62
6
 10
195.883
 20
-1035.527
 30
4336.948
 70
    32
  0
VERTEX
  8
T09SSILL
 62
6
 10
193.564
 20
-1027.399
 30
4336.947
 70
    32
  0
VERTEX
  8
T09SSILL
 62
6
 10
189.863
 20
-1020.275
 30
4336.947
 70
    32
  0
VERTEX
  8
T09SSILL
 62
6
 10
177.463
 20
-1020.765
 30
4336.948
 70
    32
  0
VERTEX
  8
T09SSILL
 62
6
 10
175.793
 20
-1024.328
 30
4336.948
 70
    32
  0
VERTEX
  8
T09SSILL
 62
6
 10
179.704
 20
-1039.722
 30
4336.948
 70
    32
  0
VERTEX
  8
T09SSILL
 62
6
 10
184.539
 20
-1042.945
 30
4336.948
 70
    32
  0
VERTEX
  8
T09SSILL
 62
6
 10
185.654
 20
-1041.772
 30
4336.948
 70
    32
  0
SEQEND
  8
T09SSILL
  0
POLYLINE
  8
T09SSILL
 62
6
 66
     1
 70
     9
  0
VERTEX
  8
T09SSILL
 62
6
 10
592.927
 20
-1269.117
 30
4336.944
 70
    32
  0
VERTEX
  8
T09SSILL
 62
6
 10
593.624
 20
-1272.266
 30
4336.944
 70
    32
  0
VERTEX
  8
T09SSILL
 62
6
 10
482.756
 20
-1352.510
 30
4337.045
 70
    32
  0
VERTEX
  8
T09SSILL
 62
6
 10
475.310
 20
-1353.668
 30
4337.065
 70
    32
  0
VERTEX
  8
T09SSILL
 62
6
 10
466.649
 20
-1352.044
 30
4337.080
 70
    32
  0
VERTEX
  8
T09SSILL
 62
6
 10
460.875
 20
-1349.817
 30
4337.087
 70
    32
  0
VERTEX
  8
T09SSILL
 62
6
 10
459.669
 20
-1347.386
 30
4337.083
 70
    32
  0
VERTEX
  8
T09SSILL
 62
6
 10
451.583
 20
-1303.090
 30
4336.974
 70
    32
  0
VERTEX
  8
T09SSILL
 62
6
 10
402.407
 20
-1223.878
 30
4336.949
 70
    32
  0
VERTEX
  8
T09SSILL
 62
6
 10
405.292
 20
-1223.189
 30
4336.948
 70
    32
  0
VERTEX
  8
T09SSILL
 62
6
 10
414.041
 20
-1224.811
 30
4336.948
 70
    32
  0
SEQEND
  8
T09SSILL
  0
POLYLINE
  8
T09SSILL
 62
6
 66
     1
 70
     9
  0
VERTEX
  8
T09SSILL
 62
6
 10
532.420
 20
-1551.011
 30
4337.471
 70
    32
  0
VERTEX
  8
T09SSILL
 62
6
 10
536.322
 20
-1552.233
 30
4337.469
 70
    32
  0
VERTEX
  8
T09SSILL
 62
6
 10
538.190
 20
-1546.028
 30
4337.448
 70
    32
  0
VERTEX
  8
T09SSILL
 62
6
 10
534.115
 20
-1544.898
 30
4337.451
 70
    32
  0
SEQEND
  8
T09SSILL
  0
POLYLINE
  8
T09SSILL
 62
6
 66
     1
 70
     9
  0
VERTEX
  8
T09SSILL
 62
6
 10
1208.524
 20
-1828.923
 30
4337.547
 70
    32
  0
VERTEX
  8
T09SSILL
 62
6
 10
1211.623
 20
-1835.871
 30
4337.554
 70
    32
  0
VERTEX
  8
T09SSILL
 62
6
 10
1216.252
 20
-1859.575
 30
4337.576
 70
    32
  0
VERTEX
  8
T09SSILL
 62
6
 10
1218.698
 20
-1865.222
 30
4337.582
 70
    32
  0
VERTEX
  8
T09SSILL
 62
6
 10
1227.192
 20
-1876.328
 30
4337.594
 70
    32
  0
VERTEX
  8
T09SSILL
 62
6
 10
1223.959
 20
-1914.326
 30
4337.627
 70
    32
  0
VERTEX
  8
T09SSILL
 62
6
 10
1226.348
 20
-1921.030
 30
4337.633
 70
    32
  0
VERTEX
  8
T09SSILL
 62
6
 10
1237.600
 20
-1927.044
 30
4337.642
 70
    32
  0
VERTEX
  8
T09SSILL
 62
6
 10
1290.512
 20
-1932.054
 30
4337.664
 70
    32
  0
VERTEX
  8
T09SSILL
 62
6
 10
1287.705
 20
-1922.987
 30
4337.655
 70
    32
  0
VERTEX
  8
T09SSILL
 62
6
 10
1273.497
 20
-1908.877
 30
4337.638
 70
    32
  0
VERTEX
  8
T09SSILL
 62
6
 10
1280.686
 20
-1908.058
 30
4337.639
 70
    32
  0
VERTEX
  8
T09SSILL
 62
6
 10
1279.394
 20
-1890.416
 30
4337.624
 70
    32
  0
VERTEX
  8
T09SSILL
 62
6
 10
1275.103
 20
-1881.743
 30
4337.615
 70
    32
  0
VERTEX
  8
T09SSILL
 62
6
 10
1269.213
 20
-1878.743
 30
4337.610
 70
    32
  0
VERTEX
  8
T09SSILL
 62
6
 10
1261.071
 20
-1876.951
 30
4337.606
 70
    32
  0
VERTEX
  8
T09SSILL
 62
6
 10
1251.663
 20
-1867.719
 30
4337.595
 70
    32
  0
VERTEX
  8
T09SSILL
 62
6
 10
1247.599
 20
-1860.886
 30
4337.587
 70
    32
  0
VERTEX
  8
T09SSILL
 62
6
 10
1245.278
 20
-1847.231
 30
4337.575
 70
    32
  0
VERTEX
  8
T09SSILL
 62
6
 10
1234.330
 20
-1830.215
 30
4337.556
 70
    32
  0
VERTEX
  8
T09SSILL
 62
6
 10
1231.453
 20
-1828.010
 30
4337.553
 70
    32
  0
VERTEX
  8
T09SSILL
 62
6
 10
1217.239
 20
-1826.126
 30
4337.547
 70
    32
  0
SEQEND
  8
T09SSILL
  0
POLYLINE
  8
T09SSILL
 62
6
 66
     1
 70
     9
  0
VERTEX
  8
T09SSILL
 62
6
 10
1157.392
 20
-2011.022
 30
4337.793
 70
    32
  0
VERTEX
  8
T09SSILL
 62
6
 10
1203.601
 20
-2006.019
 30
4337.706
 70
    32
  0
VERTEX
  8
T09SSILL
 62
6
 10
1210.472
 20
-1990.873
 30
4337.690
 70
    32
  0
VERTEX
  8
T09SSILL
 62
6
 10
1216.205
 20
-1957.290
 30
4337.662
 70
    32
  0
VERTEX
  8
T09SSILL
 62
6
 10
1217.179
 20
-1945.125
 30
4337.652
 70
    32
  0
VERTEX
  8
T09SSILL
 62
6
 10
1210.354
 20
-1930.806
 30
4337.637
 70
    32
  0
VERTEX
  8
T09SSILL
 62
6
 10
1203.819
 20
-1926.770
 30
4337.631
 70
    32
  0
VERTEX
  8
T09SSILL
 62
6
 10
1183.143
 20
-1923.397
 30
4337.622
 70
    32
  0
VERTEX
  8
T09SSILL
 62
6
 10
1179.876
 20
-1926.040
 30
4337.623
 70
    32
  0
VERTEX
  8
T09SSILL
 62
6
 10
1184.801
 20
-1938.478
 30
4337.635
 70
    32
  0
VERTEX
  8
T09SSILL
 62
6
 10
1183.840
 20
-1944.926
 30
4337.641
 70
    32
  0
VERTEX
  8
T09SSILL
 62
6
 10
1177.656
 20
-1947.036
 30
4337.641
 70
    32
  0
SEQEND
  8
T09SSILL
  0
POLYLINE
  8
T09SSILL
 62
6
 66
     1
 70
     9
  0
VERTEX
  8
T09SSILL
 62
6
 10
1223.139
 20
-2214.070
 30
4338.264
 70
    32
  0
VERTEX
  8
T09SSILL
 62
6
 10
1154.510
 20
-2225.931
 30
4338.405
 70
    32
  0
VERTEX
  8
T09SSILL
 62
6
 10
1149.439
 20
-2230.612
 30
4338.426
 70
    32
  0
VERTEX
  8
T09SSILL
 62
6
 10
1148.191
 20
-2236.819
 30
4338.446
 70
    32
  0
VERTEX
  8
T09SSILL
 62
6
 10
1187.078
 20
-2282.095
 30
4338.513
 70
    32
  0
VERTEX
  8
T09SSILL
 62
6
 10
1193.074
 20
-2284.479
 30
4338.510
 70
    32
  0
VERTEX
  8
T09SSILL
 62
6
 10
1198.251
 20
-2284.904
 30
4338.504
 70
    32
  0
VERTEX
  8
T09SSILL
 62
6
 10
1206.173
 20
-2281.894
 30
4338.483
 70
    32
  0
VERTEX
  8
T09SSILL
 62
6
 10
1215.143
 20
-2276.278
 30
4338.453
 70
    32
  0
VERTEX
  8
T09SSILL
 62
6
 10
1245.953
 20
-2252.866
 30
4338.338
 70
    32
  0
VERTEX
  8
T09SSILL
 62
6
 10
1244.916
 20
-2246.588
 30
4338.322
 70
    32
  0
VERTEX
  8
T09SSILL
 62
6
 10
1240.250
 20
-2238.175
 30
4338.305
 70
    32
  0
VERTEX
  8
T09SSILL
 62
6
 10
1228.596
 20
-2222.508
 30
4338.279
 70
    32
  0
SEQEND
  8
T09SSILL
  0
POLYLINE
  8
T09SSILL
 62
6
 66
     1
 70
     9
  0
VERTEX
  8
T09SSILL
 62
6
 10
1167.750
 20
-2119.374
 30
4338.083
 70
    32
  0
VERTEX
  8
T09SSILL
 62
6
 10
1162.214
 20
-2122.018
 30
4338.099
 70
    32
  0
VERTEX
  8
T09SSILL
 62
6
 10
1167.916
 20
-2162.307
 30
4338.204
 70
    32
  0
VERTEX
  8
T09SSILL
 62
6
 10
1190.624
 20
-2159.052
 30
4338.159
 70
    32
  0
VERTEX
  8
T09SSILL
 62
6
 10
1194.050
 20
-2153.528
 30
4338.138
 70
    32
  0
VERTEX
  8
T09SSILL
 62
6
 10
1196.164
 20
-2153.417
 30
4338.135
 70
    32
  0
VERTEX
  8
T09SSILL
 62
6
 10
1205.070
 20
-2161.258
 30
4338.143
 70
    32
  0
VERTEX
  8
T09SSILL
 62
6
 10
1207.502
 20
-2165.116
 30
4338.150
 70
    32
  0
VERTEX
  8
T09SSILL
 62
6
 10
1212.303
 20
-2166.320
 30
4338.146
 70
    32
  0
VERTEX
  8
T09SSILL
 62
6
 10
1224.350
 20
-2163.615
 30
4338.119
 70
    32
  0
VERTEX
  8
T09SSILL
 62
6
 10
1231.448
 20
-2158.820
 30
4338.095
 70
    32
  0
VERTEX
  8
T09SSILL
 62
6
 10
1239.110
 20
-2158.530
 30
4338.082
 70
    32
  0
VERTEX
  8
T09SSILL
 62
6
 10
1240.577
 20
-2153.737
 30
4338.066
 70
    32
  0
VERTEX
  8
T09SSILL
 62
6
 10
1239.743
 20
-2146.586
 30
4338.047
 70
    32
  0
VERTEX
  8
T09SSILL
 62
6
 10
1218.281
 20
-2126.657
 30
4338.024
 70
    32
  0
VERTEX
  8
T09SSILL
 62
6
 10
1200.459
 20
-2114.142
 30
4338.017
 70
    32
  0
SEQEND
  8
T09SSILL
  0
POLYLINE
  8
T09SSILL
 62
6
 66
     1
 70
     9
  0
VERTEX
  8
T09SSILL
 62
6
 10
1169.357
 20
-2169.741
 30
4338.223
 70
    32
  0
VERTEX
  8
T09SSILL
 62
6
 10
1173.790
 20
-2208.407
 30
4338.325
 70
    32
  0
VERTEX
  8
T09SSILL
 62
6
 10
1175.345
 20
-2212.150
 30
4338.334
 70
    32
  0
VERTEX
  8
T09SSILL
 62
6
 10
1181.887
 20
-2213.936
 30
4338.328
 70
    32
  0
VERTEX
  8
T09SSILL
 62
6
 10
1223.689
 20
-2207.665
 30
4338.245
 70
    32
  0
VERTEX
  8
T09SSILL
 62
6
 10
1224.120
 20
-2205.128
 30
4338.237
 70
    32
  0
VERTEX
  8
T09SSILL
 62
6
 10
1207.401
 20
-2179.715
 30
4338.191
 70
    32
  0
VERTEX
  8
T09SSILL
 62
6
 10
1205.084
 20
-2172.167
 30
4338.174
 70
    32
  0
VERTEX
  8
T09SSILL
 62
6
 10
1197.874
 20
-2166.401
 30
4338.169
 70
    32
  0
SEQEND
  8
T09SSILL
  0
POLYLINE
  8
T09SSILL
 62
6
 66
     1
 70
     9
  0
VERTEX
  8
T09SSILL
 62
6
 10
1771.225
 20
-2774.760
 30
4338.863
 70
    32
  0
VERTEX
  8
T09SSILL
 62
6
 10
1775.096
 20
-2771.889
 30
4338.853
 70
    32
  0
VERTEX
  8
T09SSILL
 62
6
 10
1774.917
 20
-2769.156
 30
4338.848
 70
    32
  0
VERTEX
  8
T09SSILL
 62
6
 10
1759.403
 20
-2758.824
 30
4338.848
 70
    32
  0
VERTEX
  8
T09SSILL
 62
6
 10
1756.604
 20
-2758.297
 30
4338.850
 70
    32
  0
VERTEX
  8
T09SSILL
 62
6
 10
1754.715
 20
-2759.646
 30
4338.855
 70
    32
  0
VERTEX
  8
T09SSILL
 62
6
 10
1755.818
 20
-2783.695
 30
4338.899
 70
    32
  0
VERTEX
  8
T09SSILL
 62
6
 10
1757.244
 20
-2785.939
 30
4338.902
 70
    32
  0
SEQEND
  8
T09SSILL
  0
POLYLINE
  8
T09SSILL
 62
6
 66
     1
 70
     9
  0
VERTEX
  8
T09SSILL
 62
6
 10
1744.890
 20
-2790.042
 30
4338.925
 70
    32
  0
VERTEX
  8
T09SSILL
 62
6
 10
1746.547
 20
-2784.816
 30
4338.913
 70
    32
  0
VERTEX
  8
T09SSILL
 62
6
 10
1745.701
 20
-2763.854
 30
4338.874
 70
    32
  0
VERTEX
  8
T09SSILL
 62
6
 10
1742.365
 20
-2749.412
 30
4338.851
 70
    32
  0
VERTEX
  8
T09SSILL
 62
6
 10
1739.829
 20
-2746.078
 30
4338.848
 70
    32
  0
VERTEX
  8
T09SSILL
 62
6
 10
1700.981
 20
-2719.453
 30
4338.846
 70
    32
  0
VERTEX
  8
T09SSILL
 62
6
 10
1696.971
 20
-2718.274
 30
4338.849
 70
    32
  0
VERTEX
  8
T09SSILL
 62
6
 10
1687.064
 20
-2722.893
 30
4338.870
 70
    32
  0
VERTEX
  8
T09SSILL
 62
6
 10
1686.381
 20
-2725.071
 30
4338.875
 70
    32
  0
VERTEX
  8
T09SSILL
 62
6
 10
1714.658
 20
-2769.226
 30
4338.924
 70
    32
  0
VERTEX
  8
T09SSILL
 62
6
 10
1717.364
 20
-2772.740
 30
4338.927
 70
    32
  0
VERTEX
  8
T09SSILL
 62
6
 10
1727.464
 20
-2778.947
 30
4338.926
 70
    32
  0
VERTEX
  8
T09SSILL
 62
6
 10
1735.922
 20
-2795.570
 30
4338.947
 70
    32
  0
VERTEX
  8
T09SSILL
 62
6
 10
1738.707
 20
-2796.536
 30
4338.945
 70
    32
  0
SEQEND
  8
T09SSILL
  0
POLYLINE
  8
T09SSILL
 62
6
 66
     1
 70
     9
  0
VERTEX
  8
T09SSILL
 62
6
 10
1714.315
 20
-2817.245
 30
4339.015
 70
    32
  0
VERTEX
  8
T09SSILL
 62
6
 10
1722.851
 20
-2811.439
 30
4338.993
 70
    32
  0
VERTEX
  8
T09SSILL
 62
6
 10
1723.433
 20
-2809.698
 30
4338.989
 70
    32
  0
VERTEX
  8
T09SSILL
 62
6
 10
1711.910
 20
-2801.160
 30
4338.988
 70
    32
  0
VERTEX
  8
T09SSILL
 62
6
 10
1708.730
 20
-2801.590
 30
4338.992
 70
    32
  0
VERTEX
  8
T09SSILL
 62
6
 10
1703.719
 20
-2807.152
 30
4339.009
 70
    32
  0
VERTEX
  8
T09SSILL
 62
6
 10
1707.986
 20
-2811.419
 30
4339.012
 70
    32
  0
SEQEND
  8
T09SSILL
  0
POLYLINE
  8
T09SSILL
 62
6
 66
     1
 70
     9
  0
VERTEX
  8
T09SSILL
 62
6
 10
1708.250
 20
-2822.775
 30
4339.033
 70
    32
  0
VERTEX
  8
T09SSILL
 62
6
 10
1706.430
 20
-2816.209
 30
4339.023
 70
    32
  0
VERTEX
  8
T09SSILL
 62
6
 10
1703.260
 20
-2813.472
 30
4339.022
 70
    32
  0
VERTEX
  8
T09SSILL
 62
6
 10
1697.780
 20
-2811.455
 30
4339.025
 70
    32
  0
VERTEX
  8
T09SSILL
 62
6
 10
1694.957
 20
-2811.719
 30
4339.029
 70
    32
  0
VERTEX
  8
T09SSILL
 62
6
 10
1685.362
 20
-2820.483
 30
4339.058
 70
    32
  0
VERTEX
  8
T09SSILL
 62
6
 10
1687.694
 20
-2824.689
 30
4339.063
 70
    32
  0
VERTEX
  8
T09SSILL
 62
6
 10
1691.043
 20
-2827.344
 30
4339.064
 70
    32
  0
VERTEX
  8
T09SSILL
 62
6
 10
1695.838
 20
-2828.724
 30
4339.060
 70
    32
  0
VERTEX
  8
T09SSILL
 62
6
 10
1701.836
 20
-2828.206
 30
4339.052
 70
    32
  0
SEQEND
  8
T09SSILL
  0
POLYLINE
  8
T09SSILL
 62
6
 66
     1
 70
     9
  0
VERTEX
  8
T09SSILL
 62
6
 10
1676.400
 20
-2740.596
 30
4338.917
 70
    32
  0
VERTEX
  8
T09SSILL
 62
6
 10
1682.096
 20
-2732.767
 30
4338.895
 70
    32
  0
VERTEX
  8
T09SSILL
 62
6
 10
1680.697
 20
-2729.645
 30
4338.891
 70
    32
  0
VERTEX
  8
T09SSILL
 62
6
 10
1677.769
 20
-2727.619
 30
4338.891
 70
    32
  0
VERTEX
  8
T09SSILL
 62
6
 10
1673.298
 20
-2727.129
 30
4338.896
 70
    32
  0
VERTEX
  8
T09SSILL
 62
6
 10
1670.387
 20
-2727.391
 30
4338.900
 70
    32
  0
VERTEX
  8
T09SSILL
 62
6
 10
1657.433
 20
-2739.481
 30
4338.939
 70
    32
  0
VERTEX
  8
T09SSILL
 62
6
 10
1661.050
 20
-2747.686
 30
4338.950
 70
    32
  0
VERTEX
  8
T09SSILL
 62
6
 10
1665.871
 20
-2751.090
 30
4338.951
 70
    32
  0
VERTEX
  8
T09SSILL
 62
6
 10
1668.963
 20
-2750.658
 30
4338.946
 70
    32
  0
SEQEND
  8
T09SSILL
  0
POLYLINE
  8
T09SSILL
 62
6
 66
     1
 70
     9
  0
VERTEX
  8
T09SSILL
 62
6
 10
1655.022
 20
-2766.236
 30
4338.993
 70
    32
  0
VERTEX
  8
T09SSILL
 62
6
 10
1660.586
 20
-2759.811
 30
4338.974
 70
    32
  0
VERTEX
  8
T09SSILL
 62
6
 10
1660.797
 20
-2755.859
 30
4338.966
 70
    32
  0
VERTEX
  8
T09SSILL
 62
6
 10
1658.222
 20
-2750.941
 30
4338.960
 70
    32
  0
VERTEX
  8
T09SSILL
 62
6
 10
1654.682
 20
-2748.808
 30
4338.960
 70
    32
  0
VERTEX
  8
T09SSILL
 62
6
 10
1650.996
 20
-2748.518
 30
4338.964
 70
    32
  0
VERTEX
  8
T09SSILL
 62
6
 10
1647.432
 20
-2749.991
 30
4338.972
 70
    32
  0
VERTEX
  8
T09SSILL
 62
6
 10
1636.403
 20
-2762.404
 30
4339.009
 70
    32
  0
VERTEX
  8
T09SSILL
 62
6
 10
1634.304
 20
-2767.705
 30
4339.022
 70
    32
  0
VERTEX
  8
T09SSILL
 62
6
 10
1643.479
 20
-2775.379
 30
4339.025
 70
    32
  0
VERTEX
  8
T09SSILL
 62
6
 10
1646.233
 20
-2774.496
 30
4339.020
 70
    32
  0
SEQEND
  8
T09SSILL
  0
POLYLINE
  8
T09SSILL
 62
6
 66
     1
 70
     9
  0
VERTEX
  8
T09SSILL
 62
6
 10
1636.337
 20
-2781.579
 30
4339.045
 70
    32
  0
VERTEX
  8
T09SSILL
 62
6
 10
1637.528
 20
-2777.218
 30
4339.036
 70
    32
  0
VERTEX
  8
T09SSILL
 62
6
 10
1630.631
 20
-2772.694
 30
4339.036
 70
    32
  0
VERTEX
  8
T09SSILL
 62
6
 10
1628.524
 20
-2772.541
 30
4339.038
 70
    32
  0
VERTEX
  8
T09SSILL
 62
6
 10
1622.828
 20
-2780.369
 30
4339.060
 70
    32
  0
VERTEX
  8
T09SSILL
 62
6
 10
1622.156
 20
-2782.196
 30
4339.064
 70
    32
  0
VERTEX
  8
T09SSILL
 62
6
 10
1632.110
 20
-2787.430
 30
4339.062
 70
    32
  0
VERTEX
  8
T09SSILL
 62
6
 10
1633.189
 20
-2786.672
 30
4339.059
 70
    32
  0
SEQEND
  8
T09SSILL
  0
POLYLINE
  8
T09SSILL
 62
6
 66
     1
 70
     9
  0
VERTEX
  8
T09SSILL
 62
6
 10
1617.230
 20
-2776.501
 30
4339.060
 70
    32
  0
VERTEX
  8
T09SSILL
 62
6
 10
1621.262
 20
-2768.445
 30
4339.039
 70
    32
  0
VERTEX
  8
T09SSILL
 62
6
 10
1620.767
 20
-2764.559
 30
4339.033
 70
    32
  0
VERTEX
  8
T09SSILL
 62
6
 10
1617.929
 20
-2762.448
 30
4339.032
 70
    32
  0
VERTEX
  8
T09SSILL
 62
6
 10
1610.764
 20
-2760.907
 30
4339.038
 70
    32
  0
VERTEX
  8
T09SSILL
 62
6
 10
1605.482
 20
-2769.540
 30
4339.061
 70
    32
  0
VERTEX
  8
T09SSILL
 62
6
 10
1607.194
 20
-2771.088
 30
4339.062
 70
    32
  0
SEQEND
  8
T09SSILL
  0
POLYLINE
  8
T09SSILL
 62
6
 66
     1
 70
     9
  0
VERTEX
  8
T09SSILL
 62
6
 10
1648.275
 20
-2739.813
 30
4338.951
 70
    32
  0
VERTEX
  8
T09SSILL
 62
6
 10
1661.403
 20
-2724.913
 30
4338.906
 70
    32
  0
VERTEX
  8
T09SSILL
 62
6
 10
1649.780
 20
-2722.442
 30
4338.916
 70
    32
  0
VERTEX
  8
T09SSILL
 62
6
 10
1645.458
 20
-2722.836
 30
4338.923
 70
    32
  0
VERTEX
  8
T09SSILL
 62
6
 10
1614.456
 20
-2738.238
 30
4338.991
 70
    32
  0
VERTEX
  8
T09SSILL
 62
6
 10
1605.291
 20
-2744.464
 30
4339.014
 70
    32
  0
VERTEX
  8
T09SSILL
 62
6
 10
1609.713
 20
-2746.536
 30
4339.012
 70
    32
  0
VERTEX
  8
T09SSILL
 62
6
 10
1617.230
 20
-2756.621
 30
4339.022
 70
    32
  0
VERTEX
  8
T09SSILL
 62
6
 10
1627.134
 20
-2760.622
 30
4339.017
 70
    32
  0
VERTEX
  8
T09SSILL
 62
6
 10
1629.433
 20
-2760.253
 30
4339.014
 70
    32
  0
VERTEX
  8
T09SSILL
 62
6
 10
1630.907
 20
-2758.100
 30
4339.008
 70
    32
  0
SEQEND
  8
T09SSILL
  0
POLYLINE
  8
T09SSILL
 62
6
 66
     1
 70
     9
  0
VERTEX
  8
T09SSILL
 62
6
 10
574.134
 20
-2116.022
 30
4339.005
 70
    32
  0
VERTEX
  8
T09SSILL
 62
6
 10
584.420
 20
-2134.245
 30
4339.040
 70
    32
  0
VERTEX
  8
T09SSILL
 62
6
 10
610.951
 20
-2161.619
 30
4339.076
 70
    32
  0
VERTEX
  8
T09SSILL
 62
6
 10
700.483
 20
-2096.971
 30
4338.753
 70
    32
  0
VERTEX
  8
T09SSILL
 62
6
 10
672.289
 20
-2052.429
 30
4338.671
 70
    32
  0
VERTEX
  8
T09SSILL
 62
6
 10
608.237
 20
-2092.426
 30
4338.885
 70
    32
  0
VERTEX
  8
T09SSILL
 62
6
 10
593.550
 20
-2103.957
 30
4338.940
 70
    32
  0
SEQEND
  8
T09SSILL
  0
POLYLINE
  8
T09SSILL
 62
6
 66
     1
 70
     9
  0
VERTEX
  8
T09SSILL
 62
6
 10
570.689
 20
-2110.562
 30
4338.995
 70
    32
  0
VERTEX
  8
T09SSILL
 62
6
 10
600.595
 20
-2087.753
 30
4338.883
 70
    32
  0
VERTEX
  8
T09SSILL
 62
6
 10
668.410
 20
-2047.241
 30
4338.662
 70
    32
  0
VERTEX
  8
T09SSILL
 62
6
 10
664.043
 20
-2039.606
 30
4338.648
 70
    32
  0
VERTEX
  8
T09SSILL
 62
6
 10
654.607
 20
-2037.339
 30
4338.656
 70
    32
  0
VERTEX
  8
T09SSILL
 62
6
 10
625.428
 20
-2000.540
 30
4338.598
 70
    32
  0
VERTEX
  8
T09SSILL
 62
6
 10
613.984
 20
-1998.840
 30
4338.611
 70
    32
  0
VERTEX
  8
T09SSILL
 62
6
 10
610.054
 20
-1999.797
 30
4338.620
 70
    32
  0
VERTEX
  8
T09SSILL
 62
6
 10
610.765
 20
-2004.610
 30
4338.632
 70
    32
  0
VERTEX
  8
T09SSILL
 62
6
 10
619.691
 20
-2025.055
 30
4338.676
 70
    32
  0
VERTEX
  8
T09SSILL
 62
6
 10
612.024
 20
-2027.842
 30
4338.696
 70
    32
  0
VERTEX
  8
T09SSILL
 62
6
 10
600.202
 20
-2011.756
 30
4338.669
 70
    32
  0
VERTEX
  8
T09SSILL
 62
6
 10
589.877
 20
-2017.670
 30
4338.702
 70
    32
  0
VERTEX
  8
T09SSILL
 62
6
 10
579.629
 20
-2009.978
 30
4338.696
 70
    32
  0
VERTEX
  8
T09SSILL
 62
6
 10
569.497
 20
-1994.999
 30
4338.670
 70
    32
  0
VERTEX
  8
T09SSILL
 62
6
 10
567.637
 20
-1994.159
 30
4338.670
 70
    32
  0
VERTEX
  8
T09SSILL
 62
6
 10
506.052
 20
-2038.933
 30
4338.894
 70
    32
  0
VERTEX
  8
T09SSILL
 62
6
 10
525.546
 20
-2069.872
 30
4338.951
 70
    32
  0
VERTEX
  8
T09SSILL
 62
6
 10
539.171
 20
-2083.991
 30
4338.969
 70
    32
  0
VERTEX
  8
T09SSILL
 62
6
 10
555.893
 20
-2094.975
 30
4338.974
 70
    32
  0
VERTEX
  8
T09SSILL
 62
6
 10
568.528
 20
-2107.885
 30
4338.991
 70
    32
  0
SEQEND
  8
T09SSILL
  0
POLYLINE
  8
T09SSILL
 62
6
 66
     1
 70
     9
  0
VERTEX
  8
T09SSILL
 62
6
 10
455.317
 20
-1934.288
 30
4338.677
 70
    32
  0
VERTEX
  8
T09SSILL
 62
6
 10
453.889
 20
-1941.777
 30
4338.701
 70
    32
  0
VERTEX
  8
T09SSILL
 62
6
 10
455.325
 20
-1947.716
 30
4338.715
 70
    32
  0
VERTEX
  8
T09SSILL
 62
6
 10
469.279
 20
-1982.453
 30
4338.791
 70
    32
  0
VERTEX
  8
T09SSILL
 62
6
 10
479.937
 20
-1997.421
 30
4338.817
 70
    32
  0
VERTEX
  8
T09SSILL
 62
6
 10
492.680
 20
-2019.983
 30
4338.861
 70
    32
  0
VERTEX
  8
T09SSILL
 62
6
 10
502.710
 20
-2034.262
 30
4338.886
 70
    32
  0
VERTEX
  8
T09SSILL
 62
6
 10
562.886
 20
-1989.252
 30
4338.664
 70
    32
  0
VERTEX
  8
T09SSILL
 62
6
 10
560.284
 20
-1986.408
 30
4338.660
 70
    32
  0
VERTEX
  8
T09SSILL
 62
6
 10
557.534
 20
-1976.283
 30
4338.636
 70
    32
  0
VERTEX
  8
T09SSILL
 62
6
 10
555.881
 20
-1946.564
 30
4338.554
 70
    32
  0
VERTEX
  8
T09SSILL
 62
6
 10
547.180
 20
-1937.261
 30
4338.541
 70
    32
  0
VERTEX
  8
T09SSILL
 62
6
 10
539.779
 20
-1927.142
 30
4338.524
 70
    32
  0
VERTEX
  8
T09SSILL
 62
6
 10
529.008
 20
-1919.636
 30
4338.520
 70
    32
  0
VERTEX
  8
T09SSILL
 62
6
 10
515.822
 20
-1901.208
 30
4338.489
 70
    32
  0
VERTEX
  8
T09SSILL
 62
6
 10
500.298
 20
-1901.697
 30
4338.514
 70
    32
  0
SEQEND
  8
T09SSILL
  0
POLYLINE
  8
T09SSILL
 62
6
 66
     1
 70
     9
  0
VERTEX
  8
T09SSILL
 62
6
 10
668.826
 20
-2020.025
 30
4338.585
 70
    32
  0
VERTEX
  8
T09SSILL
 62
6
 10
681.630
 20
-2010.815
 30
4338.539
 70
    32
  0
VERTEX
  8
T09SSILL
 62
6
 10
678.412
 20
-1994.907
 30
4338.499
 70
    32
  0
VERTEX
  8
T09SSILL
 62
6
 10
672.397
 20
-1983.882
 30
4338.477
 70
    32
  0
VERTEX
  8
T09SSILL
 62
6
 10
664.518
 20
-1976.142
 30
4338.467
 70
    32
  0
VERTEX
  8
T09SSILL
 62
6
 10
656.648
 20
-1973.229
 30
4338.471
 70
    32
  0
VERTEX
  8
T09SSILL
 62
6
 10
652.526
 20
-1973.400
 30
4338.478
 70
    32
  0
VERTEX
  8
T09SSILL
 62
6
 10
651.082
 20
-1975.799
 30
4338.487
 70
    32
  0
VERTEX
  8
T09SSILL
 62
6
 10
645.885
 20
-1992.228
 30
4338.542
 70
    32
  0
VERTEX
  8
T09SSILL
 62
6
 10
660.733
 20
-2014.747
 30
4338.582
 70
    32
  0
VERTEX
  8
T09SSILL
 62
6
 10
662.034
 20
-2018.319
 30
4338.591
 70
    32
  0
SEQEND
  8
T09SSILL
  0
POLYLINE
  8
T09SSILL
 62
6
 66
     1
 70
     9
  0
VERTEX
  8
T09SSILL
 62
6
 10
672.147
 20
-2028.033
 30
4338.602
 70
    32
  0
VERTEX
  8
T09SSILL
 62
6
 10
671.627
 20
-2032.695
 30
4338.616
 70
    32
  0
VERTEX
  8
T09SSILL
 62
6
 10
681.548
 20
-2045.923
 30
4338.638
 70
    32
  0
VERTEX
  8
T09SSILL
 62
6
 10
740.114
 20
-2003.754
 30
4338.427
 70
    32
  0
VERTEX
  8
T09SSILL
 62
6
 10
726.081
 20
-1991.136
 30
4338.413
 70
    32
  0
VERTEX
  8
T09SSILL
 62
6
 10
720.927
 20
-1992.381
 30
4338.425
 70
    32
  0
VERTEX
  8
T09SSILL
 62
6
 10
710.703
 20
-1998.906
 30
4338.459
 70
    32
  0
VERTEX
  8
T09SSILL
 62
6
 10
699.636
 20
-2002.816
 30
4338.488
 70
    32
  0
VERTEX
  8
T09SSILL
 62
6
 10
696.367
 20
-2006.129
 30
4338.502
 70
    32
  0
SEQEND
  8
T09SSILL
  0
POLYLINE
  8
T09SSILL
 62
6
 66
     1
 70
     9
  0
VERTEX
  8
T09SSILL
 62
6
 10
684.224
 20
-2052.363
 30
4338.652
 70
    32
  0
VERTEX
  8
T09SSILL
 62
6
 10
707.233
 20
-2087.883
 30
4338.716
 70
    32
  0
VERTEX
  8
T09SSILL
 62
6
 10
711.430
 20
-2087.096
 30
4338.708
 70
    32
  0
VERTEX
  8
T09SSILL
 62
6
 10
770.001
 20
-2045.190
 30
4338.497
 70
    32
  0
VERTEX
  8
T09SSILL
 62
6
 10
768.635
 20
-2038.372
 30
4338.480
 70
    32
  0
VERTEX
  8
T09SSILL
 62
6
 10
765.725
 20
-2033.341
 30
4338.470
 70
    32
  0
VERTEX
  8
T09SSILL
 62
6
 10
754.669
 20
-2024.787
 30
4338.463
 70
    32
  0
VERTEX
  8
T09SSILL
 62
6
 10
745.037
 20
-2008.482
 30
4338.432
 70
    32
  0
SEQEND
  8
T09SSILL
  0
POLYLINE
  8
T09SSILL
 62
6
 66
     1
 70
     9
  0
VERTEX
  8
T09SSILL
 62
6
 10
990.340
 20
-1900.455
 30
4337.742
 70
    32
  0
VERTEX
  8
T09SSILL
 62
6
 10
1001.760
 20
-1939.833
 30
4337.835
 70
    32
  0
VERTEX
  8
T09SSILL
 62
6
 10
952.046
 20
-1952.818
 30
4337.950
 70
    32
  0
VERTEX
  8
T09SSILL
 62
6
 10
949.003
 20
-1944.334
 30
4337.931
 70
    32
  0
VERTEX
  8
T09SSILL
 62
6
 10
946.179
 20
-1941.723
 30
4337.928
 70
    32
  0
VERTEX
  8
T09SSILL
 62
6
 10
945.249
 20
-1934.364
 30
4337.908
 70
    32
  0
VERTEX
  8
T09SSILL
 62
6
 10
959.563
 20
-1925.054
 30
4337.860
 70
    32
  0
VERTEX
  8
T09SSILL
 62
6
 10
961.188
 20
-1919.430
 30
4337.841
 70
    32
  0
SEQEND
  8
T09SSILL
  0
POLYLINE
  8
T09SSILL
 62
6
 66
     1
 70
     9
  0
VERTEX
  8
T09SSILL
 62
6
 10
588.850
 20
-1978.667
 30
4338.593
 70
    32
  0
VERTEX
  8
T09SSILL
 62
6
 10
620.774
 20
-1955.024
 30
4338.476
 70
    32
  0
VERTEX
  8
T09SSILL
 62
6
 10
628.674
 20
-1968.208
 30
4338.501
 70
    32
  0
VERTEX
  8
T09SSILL
 62
6
 10
629.420
 20
-1974.429
 30
4338.517
 70
    32
  0
VERTEX
  8
T09SSILL
 62
6
 10
619.481
 20
-1982.480
 30
4338.556
 70
    32
  0
VERTEX
  8
T09SSILL
 62
6
 10
604.710
 20
-1989.163
 30
4338.598
 70
    32
  0
VERTEX
  8
T09SSILL
 62
6
 10
595.945
 20
-1989.664
 30
4338.613
 70
    32
  0
SEQEND
  8
T09SSILL
  0
POLYLINE
  8
T09SSILL
 62
6
 66
     1
 70
     9
  0
VERTEX
  8
T09SSILL
 62
6
 10
646.601
 20
-1937.038
 30
4338.385
 70
    32
  0
VERTEX
  8
T09SSILL
 62
6
 10
628.443
 20
-1948.305
 30
4338.445
 70
    32
  0
VERTEX
  8
T09SSILL
 62
6
 10
630.834
 20
-1951.532
 30
4338.450
 70
    32
  0
VERTEX
  8
T09SSILL
 62
6
 10
640.822
 20
-1950.408
 30
4338.432
 70
    32
  0
VERTEX
  8
T09SSILL
 62
6
 10
647.635
 20
-1946.764
 30
4338.411
 70
    32
  0
VERTEX
  8
T09SSILL
 62
6
 10
651.364
 20
-1940.862
 30
4338.388
 70
    32
  0
VERTEX
  8
T09SSILL
 62
6
 10
650.470
 20
-1938.501
 30
4338.383
 70
    32
  0
SEQEND
  8
T09SSILL
  0
POLYLINE
  8
T09SSILL
 62
6
 66
     1
 70
     9
  0
VERTEX
  8
T09SSILL
 62
6
 10
-49.112
 20
-989.520
 30
4337.221
 70
    32
  0
VERTEX
  8
T09SSILL
 62
6
 10
-45.034
 20
-991.359
 30
4337.217
 70
    32
  0
VERTEX
  8
T09SSILL
 62
6
 10
-32.317
 20
-991.073
 30
4337.187
 70
    32
  0
VERTEX
  8
T09SSILL
 62
6
 10
-30.753
 20
-986.475
 30
4337.170
 70
    32
  0
VERTEX
  8
T09SSILL
 62
6
 10
-32.138
 20
-983.435
 30
4337.164
 70
    32
  0
VERTEX
  8
T09SSILL
 62
6
 10
-41.503
 20
-972.765
 30
4337.155
 70
    32
  0
VERTEX
  8
T09SSILL
 62
6
 10
-50.384
 20
-952.431
 30
4337.117
 70
    32
  0
VERTEX
  8
T09SSILL
 62
6
 10
-54.629
 20
-950.946
 30
4337.123
 70
    32
  0
VERTEX
  8
T09SSILL
 62
6
 10
-67.239
 20
-959.917
 30
4337.177
 70
    32
  0
VERTEX
  8
T09SSILL
 62
6
 10
-66.742
 20
-970.348
 30
4337.206
 70
    32
  0
SEQEND
  8
T09SSILL
  0
POLYLINE
  8
T09SSILL
 62
6
 66
     1
 70
     9
  0
VERTEX
  8
T09SSILL
 62
6
 10
-71.473
 20
-912.100
 30
4337.050
 70
    32
  0
VERTEX
  8
T09SSILL
 62
6
 10
-92.013
 20
-923.531
 30
4337.129
 70
    32
  0
VERTEX
  8
T09SSILL
 62
6
 10
-96.277
 20
-932.928
 30
4337.166
 70
    32
  0
VERTEX
  8
T09SSILL
 62
6
 10
-94.650
 20
-938.946
 30
4337.180
 70
    32
  0
VERTEX
  8
T09SSILL
 62
6
 10
-78.628
 20
-956.838
 30
4337.194
 70
    32
  0
VERTEX
  8
T09SSILL
 62
6
 10
-71.893
 20
-955.897
 30
4337.176
 70
    32
  0
VERTEX
  8
T09SSILL
 62
6
 10
-57.606
 20
-943.467
 30
4337.108
 70
    32
  0
VERTEX
  8
T09SSILL
 62
6
 10
-55.371
 20
-937.450
 30
4337.085
 70
    32
  0
VERTEX
  8
T09SSILL
 62
6
 10
-56.501
 20
-934.053
 30
4337.078
 70
    32
  0
SEQEND
  8
T09SSILL
  0
POLYLINE
  8
T09SSILL
 62
6
 66
     1
 70
     9
  0
VERTEX
  8
T09SSILL
 62
6
 10
-91.507
 20
-871.834
 30
4336.980
 70
    32
  0
VERTEX
  8
T09SSILL
 62
6
 10
-97.588
 20
-870.655
 30
4336.990
 70
    32
  0
VERTEX
  8
T09SSILL
 62
6
 10
-121.108
 20
-874.430
 30
4337.055
 70
    32
  0
VERTEX
  8
T09SSILL
 62
6
 10
-134.252
 20
-875.252
 30
4337.088
 70
    32
  0
VERTEX
  8
T09SSILL
 62
6
 10
-141.025
 20
-874.526
 30
4337.101
 70
    32
  0
VERTEX
  8
T09SSILL
 62
6
 10
-144.767
 20
-875.927
 30
4337.114
 70
    32
  0
VERTEX
  8
T09SSILL
 62
6
 10
-146.420
 20
-880.439
 30
4337.130
 70
    32
  0
VERTEX
  8
T09SSILL
 62
6
 10
-112.194
 20
-919.684
 30
4337.165
 70
    32
  0
VERTEX
  8
T09SSILL
 62
6
 10
-105.457
 20
-922.692
 30
4337.158
 70
    32
  0
VERTEX
  8
T09SSILL
 62
6
 10
-80.980
 20
-910.735
 30
4337.067
 70
    32
  0
VERTEX
  8
T09SSILL
 62
6
 10
-76.432
 20
-906.157
 30
4337.044
 70
    32
  0
VERTEX
  8
T09SSILL
 62
6
 10
-75.535
 20
-903.153
 30
4337.033
 70
    32
  0
SEQEND
  8
T09SSILL
  0
POLYLINE
  8
T09SSILL
 62
6
 66
     1
 70
     9
  0
VERTEX
  8
T09SSILL
 62
6
 10
-111.104
 20
-784.612
 30
4336.947
 70
    32
  0
VERTEX
  8
T09SSILL
 62
6
 10
-141.058
 20
-728.511
 30
4336.946
 70
    32
  0
VERTEX
  8
T09SSILL
 62
6
 10
-152.209
 20
-720.425
 30
4336.946
 70
    32
  0
VERTEX
  8
T09SSILL
 62
6
 10
-168.557
 20
-715.352
 30
4336.946
 70
    32
  0
VERTEX
  8
T09SSILL
 62
6
 10
-188.882
 20
-712.913
 30
4336.947
 70
    32
  0
VERTEX
  8
T09SSILL
 62
6
 10
-202.308
 20
-712.863
 30
4336.947
 70
    32
  0
VERTEX
  8
T09SSILL
 62
6
 10
-237.345
 20
-707.859
 30
4336.948
 70
    32
  0
VERTEX
  8
T09SSILL
 62
6
 10
-256.861
 20
-706.279
 30
4336.949
 70
    32
  0
VERTEX
  8
T09SSILL
 62
6
 10
-269.609
 20
-701.300
 30
4336.949
 70
    32
  0
VERTEX
  8
T09SSILL
 62
6
 10
-281.894
 20
-701.313
 30
4336.950
 70
    32
  0
VERTEX
  8
T09SSILL
 62
6
 10
-303.667
 20
-700.837
 30
4336.975
 70
    32
  0
VERTEX
  8
T09SSILL
 62
6
 10
-302.424
 20
-705.372
 30
4336.985
 70
    32
  0
VERTEX
  8
T09SSILL
 62
6
 10
-157.707
 20
-866.302
 30
4337.116
 70
    32
  0
VERTEX
  8
T09SSILL
 62
6
 10
-153.356
 20
-868.573
 30
4337.112
 70
    32
  0
VERTEX
  8
T09SSILL
 62
6
 10
-107.533
 20
-865.438
 30
4336.998
 70
    32
  0
VERTEX
  8
T09SSILL
 62
6
 10
-91.556
 20
-861.832
 30
4336.951
 70
    32
  0
VERTEX
  8
T09SSILL
 62
6
 10
-85.983
 20
-856.003
 30
4336.950
 70
    32
  0
VERTEX
  8
T09SSILL
 62
6
 10
-78.535
 20
-859.434
 30
4336.949
 70
    32
  0
SEQEND
  8
T09SSILL
  0
POLYLINE
  8
T09SSILL
 62
6
 66
     1
 70
     9
  0
VERTEX
  8
T09SSILL
 62
6
 10
-388.971
 20
-606.579
 30
4336.949
 70
    32
  0
VERTEX
  8
T09SSILL
 62
6
 10
-316.847
 20
-688.322
 30
4336.969
 70
    32
  0
VERTEX
  8
T09SSILL
 62
6
 10
-304.772
 20
-690.683
 30
4336.950
 70
    32
  0
VERTEX
  8
T09SSILL
 62
6
 10
-261.353
 20
-693.832
 30
4336.949
 70
    32
  0
VERTEX
  8
T09SSILL
 62
6
 10
-257.563
 20
-690.675
 30
4336.948
 70
    32
  0
VERTEX
  8
T09SSILL
 62
6
 10
-233.587
 20
-695.489
 30
4336.948
 70
    32
  0
VERTEX
  8
T09SSILL
 62
6
 10
-174.048
 20
-701.348
 30
4336.946
 70
    32
  0
VERTEX
  8
T09SSILL
 62
6
 10
-163.552
 20
-703.744
 30
4336.946
 70
    32
  0
VERTEX
  8
T09SSILL
 62
6
 10
-161.389
 20
-702.379
 30
4336.945
 70
    32
  0
VERTEX
  8
T09SSILL
 62
6
 10
-161.499
 20
-697.468
 30
4336.945
 70
    32
  0
VERTEX
  8
T09SSILL
 62
6
 10
-199.060
 20
-662.159
 30
4336.945
 70
    32
  0
VERTEX
  8
T09SSILL
 62
6
 10
-207.694
 20
-656.737
 30
4336.945
 70
    32
  0
VERTEX
  8
T09SSILL
 62
6
 10
-212.827
 20
-650.885
 30
4336.945
 70
    32
  0
VERTEX
  8
T09SSILL
 62
6
 10
-215.235
 20
-645.235
 30
4336.945
 70
    32
  0
VERTEX
  8
T09SSILL
 62
6
 10
-241.673
 20
-624.594
 30
4336.945
 70
    32
  0
SEQEND
  8
T09SSILL
  0
POLYLINE
  8
T09SSILL
 62
6
 66
     1
 70
     9
  0
VERTEX
  8
T09SSILL
 62
6
 10
-25.746
 20
-894.358
 30
4336.949
 70
    32
  0
VERTEX
  8
T09SSILL
 62
6
 10
-12.192
 20
-906.469
 30
4336.949
 70
    32
  0
VERTEX
  8
T09SSILL
 62
6
 10
-7.628
 20
-961.210
 30
4337.044
 70
    32
  0
VERTEX
  8
T09SSILL
 62
6
 10
-10.568
 20
-967.068
 30
4337.068
 70
    32
  0
VERTEX
  8
T09SSILL
 62
6
 10
-3.520
 20
-983.933
 30
4337.100
 70
    32
  0
VERTEX
  8
T09SSILL
 62
6
 10
1.655
 20
-991.627
 30
4337.110
 70
    32
  0
VERTEX
  8
T09SSILL
 62
6
 10
159.656
 20
-990.008
 30
4336.947
 70
    32
  0
VERTEX
  8
T09SSILL
 62
6
 10
158.914
 20
-984.321
 30
4336.947
 70
    32
  0
VERTEX
  8
T09SSILL
 62
6
 10
160.774
 20
-977.259
 30
4336.946
 70
    32
  0
VERTEX
  8
T09SSILL
 62
6
 10
158.946
 20
-970.104
 30
4336.946
 70
    32
  0
VERTEX
  8
T09SSILL
 62
6
 10
83.394
 20
-864.659
 30
4336.944
 70
    32
  0
VERTEX
  8
T09SSILL
 62
6
 10
-37.353
 20
-692.661
 30
4336.941
 70
    32
  0
VERTEX
  8
T09SSILL
 62
6
 10
-46.326
 20
-687.773
 30
4336.941
 70
    32
  0
VERTEX
  8
T09SSILL
 62
6
 10
-49.513
 20
-686.528
 30
4336.941
 70
    32
  0
VERTEX
  8
T09SSILL
 62
6
 10
-87.459
 20
-692.646
 30
4336.942
 70
    32
  0
VERTEX
  8
T09SSILL
 62
6
 10
-138.491
 20
-698.267
 30
4336.944
 70
    32
  0
VERTEX
  8
T09SSILL
 62
6
 10
-147.673
 20
-699.702
 30
4336.945
 70
    32
  0
VERTEX
  8
T09SSILL
 62
6
 10
-151.977
 20
-703.396
 30
4336.945
 70
    32
  0
VERTEX
  8
T09SSILL
 62
6
 10
-150.873
 20
-705.653
 30
4336.945
 70
    32
  0
VERTEX
  8
T09SSILL
 62
6
 10
-144.086
 20
-710.941
 30
4336.945
 70
    32
  0
VERTEX
  8
T09SSILL
 62
6
 10
-131.177
 20
-719.163
 30
4336.945
 70
    32
  0
VERTEX
  8
T09SSILL
 62
6
 10
-128.641
 20
-722.704
 30
4336.945
 70
    32
  0
VERTEX
  8
T09SSILL
 62
6
 10
-53.294
 20
-865.887
 30
4336.949
 70
    32
  0
VERTEX
  8
T09SSILL
 62
6
 10
-41.862
 20
-866.946
 30
4336.949
 70
    32
  0
VERTEX
  8
T09SSILL
 62
6
 10
-30.365
 20
-882.658
 30
4336.949
 70
    32
  0
VERTEX
  8
T09SSILL
 62
6
 10
-28.669
 20
-891.746
 30
4336.949
 70
    32
  0
SEQEND
  8
T09SSILL
  0
POLYLINE
  8
T09SSILL
 62
6
 66
     1
 70
     9
  0
VERTEX
  8
T09SSILL
 62
6
 10
166.494
 20
-997.804
 30
4336.947
 70
    32
  0
VERTEX
  8
T09SSILL
 62
6
 10
172.625
 20
-1010.500
 30
4336.947
 70
    32
  0
VERTEX
  8
T09SSILL
 62
6
 10
171.852
 20
-1018.178
 30
4336.948
 70
    32
  0
VERTEX
  8
T09SSILL
 62
6
 10
161.852
 20
-1026.531
 30
4336.948
 70
    32
  0
VERTEX
  8
T09SSILL
 62
6
 10
154.710
 20
-1029.528
 30
4336.949
 70
    32
  0
VERTEX
  8
T09SSILL
 62
6
 10
141.888
 20
-1030.734
 30
4336.949
 70
    32
  0
VERTEX
  8
T09SSILL
 62
6
 10
137.963
 20
-1032.154
 30
4336.949
 70
    32
  0
VERTEX
  8
T09SSILL
 62
6
 10
136.979
 20
-1034.996
 30
4336.950
 70
    32
  0
VERTEX
  8
T09SSILL
 62
6
 10
137.875
 20
-1049.498
 30
4336.964
 70
    32
  0
VERTEX
  8
T09SSILL
 62
6
 10
140.300
 20
-1054.894
 30
4336.974
 70
    32
  0
VERTEX
  8
T09SSILL
 62
6
 10
145.345
 20
-1059.431
 30
4336.976
 70
    32
  0
VERTEX
  8
T09SSILL
 62
6
 10
162.953
 20
-1097.717
 30
4337.046
 70
    32
  0
VERTEX
  8
T09SSILL
 62
6
 10
176.242
 20
-1118.419
 30
4337.075
 70
    32
  0
VERTEX
  8
T09SSILL
 62
6
 10
179.519
 20
-1126.171
 30
4337.089
 70
    32
  0
VERTEX
  8
T09SSILL
 62
6
 10
179.422
 20
-1132.775
 30
4337.109
 70
    32
  0
VERTEX
  8
T09SSILL
 62
6
 10
187.770
 20
-1142.599
 30
4337.118
 70
    32
  0
VERTEX
  8
T09SSILL
 62
6
 10
112.331
 20
-1208.596
 30
4337.480
 70
    32
  0
VERTEX
  8
T09SSILL
 62
6
 10
108.744
 20
-1202.525
 30
4337.471
 70
    32
  0
VERTEX
  8
T09SSILL
 62
6
 10
102.966
 20
-1196.861
 30
4337.468
 70
    32
  0
VERTEX
  8
T09SSILL
 62
6
 10
100.192
 20
-1188.129
 30
4337.449
 70
    32
  0
VERTEX
  8
T09SSILL
 62
6
 10
114.798
 20
-1177.459
 30
4337.385
 70
    32
  0
VERTEX
  8
T09SSILL
 62
6
 10
124.955
 20
-1171.832
 30
4337.346
 70
    32
  0
VERTEX
  8
T09SSILL
 62
6
 10
127.769
 20
-1168.240
 30
4337.329
 70
    32
  0
VERTEX
  8
T09SSILL
 62
6
 10
124.011
 20
-1151.962
 30
4337.291
 70
    32
  0
VERTEX
  8
T09SSILL
 62
6
 10
117.739
 20
-1147.631
 30
4337.293
 70
    32
  0
VERTEX
  8
T09SSILL
 62
6
 10
108.510
 20
-1144.696
 30
4337.305
 70
    32
  0
VERTEX
  8
T09SSILL
 62
6
 10
107.536
 20
-1134.070
 30
4337.277
 70
    32
  0
VERTEX
  8
T09SSILL
 62
6
 10
104.836
 20
-1128.240
 30
4337.266
 70
    32
  0
VERTEX
  8
T09SSILL
 62
6
 10
95.137
 20
-1117.218
 30
4337.257
 70
    32
  0
VERTEX
  8
T09SSILL
 62
6
 10
74.731
 20
-1131.732
 30
4337.346
 70
    32
  0
VERTEX
  8
T09SSILL
 62
6
 10
59.702
 20
-1136.162
 30
4337.393
 70
    32
  0
VERTEX
  8
T09SSILL
 62
6
 10
56.448
 20
-1132.812
 30
4337.391
 70
    32
  0
VERTEX
  8
T09SSILL
 62
6
 10
55.491
 20
-1126.322
 30
4337.374
 70
    32
  0
VERTEX
  8
T09SSILL
 62
6
 10
37.105
 20
-1088.584
 30
4337.308
 70
    32
  0
VERTEX
  8
T09SSILL
 62
6
 10
31.847
 20
-1072.168
 30
4337.273
 70
    32
  0
VERTEX
  8
T09SSILL
 62
6
 10
30.662
 20
-1060.138
 30
4337.241
 70
    32
  0
VERTEX
  8
T09SSILL
 62
6
 10
18.804
 20
-1019.506
 30
4337.151
 70
    32
  0
VERTEX
  8
T09SSILL
 62
6
 10
19.898
 20
-1003.633
 30
4337.103
 70
    32
  0
VERTEX
  8
T09SSILL
 62
6
 10
21.623
 20
-998.748
 30
4337.085
 70
    32
  0
VERTEX
  8
T09SSILL
 62
6
 10
101.881
 20
-997.360
 30
4336.949
 70
    32
  0
SEQEND
  8
T09SSILL
  0
POLYLINE
  8
T09SSILL
 62
6
 66
     1
 70
     9
  0
VERTEX
  8
T09SSILL
 62
6
 10
245.302
 20
-981.369
 30
4336.943
 70
    32
  0
VERTEX
  8
T09SSILL
 62
6
 10
259.344
 20
-1003.988
 30
4336.944
 70
    32
  0
VERTEX
  8
T09SSILL
 62
6
 10
217.789
 20
-993.334
 30
4336.945
 70
    32
  0
VERTEX
  8
T09SSILL
 62
6
 10
215.722
 20
-988.193
 30
4336.945
 70
    32
  0
VERTEX
  8
T09SSILL
 62
6
 10
221.970
 20
-981.168
 30
4336.944
 70
    32
  0
VERTEX
  8
T09SSILL
 62
6
 10
233.350
 20
-969.749
 30
4336.943
 70
    32
  0
VERTEX
  8
T09SSILL
 62
6
 10
237.428
 20
-971.588
 30
4336.943
 70
    32
  0
SEQEND
  8
T09SSILL
  0
POLYLINE
  8
T09SSILL
 62
6
 66
     1
 70
     9
  0
VERTEX
  8
T09SSILL
 62
6
 10
1643.148
 20
-95.878
 30
4336.900
 70
    32
  0
VERTEX
  8
T09SSILL
 62
6
 10
1662.169
 20
-58.507
 30
4336.900
 70
    32
  0
VERTEX
  8
T09SSILL
 62
6
 10
1669.380
 20
-51.710
 30
4336.900
 70
    32
  0
VERTEX
  8
T09SSILL
 62
6
 10
1682.927
 20
-50.722
 30
4336.900
 70
    32
  0
VERTEX
  8
T09SSILL
 62
6
 10
1697.390
 20
-46.110
 30
4336.900
 70
    32
  0
VERTEX
  8
T09SSILL
 62
6
 10
1713.381
 20
-49.754
 30
4336.899
 70
    32
  0
VERTEX
  8
T09SSILL
 62
6
 10
1732.965
 20
-39.961
 30
4336.899
 70
    32
  0
VERTEX
  8
T09SSILL
 62
6
 10
1708.301
 20
-21.120
 30
4336.900
 70
    32
  0
VERTEX
  8
T09SSILL
 62
6
 10
1647.977
 20
-33.087
 30
4336.901
 70
    32
  0
VERTEX
  8
T09SSILL
 62
6
 10
1638.606
 20
-36.656
 30
4336.901
 70
    32
  0
VERTEX
  8
T09SSILL
 62
6
 10
1634.553
 20
-42.615
 30
4336.901
 70
    32
  0
VERTEX
  8
T09SSILL
 62
6
 10
1630.873
 20
-56.053
 30
4336.901
 70
    32
  0
VERTEX
  8
T09SSILL
 62
6
 10
1612.067
 20
-102.806
 30
4336.901
 70
    32
  0
VERTEX
  8
T09SSILL
 62
6
 10
1602.740
 20
-128.619
 30
4336.901
 70
    32
  0
VERTEX
  8
T09SSILL
 62
6
 10
1601.644
 20
-136.722
 30
4336.901
 70
    32
  0
VERTEX
  8
T09SSILL
 62
6
 10
1613.935
 20
-136.079
 30
4336.901
 70
    32
  0
VERTEX
  8
T09SSILL
 62
6
 10
1624.073
 20
-138.021
 30
4336.900
 70
    32
  0
VERTEX
  8
T09SSILL
 62
6
 10
1628.635
 20
-137.594
 30
4336.900
 70
    32
  0
VERTEX
  8
T09SSILL
 62
6
 10
1639.426
 20
-120.544
 30
4336.900
 70
    32
  0
VERTEX
  8
T09SSILL
 62
6
 10
1642.728
 20
-102.387
 30
4336.900
 70
    32
  0
SEQEND
  8
T09SSILL
  0
POLYLINE
  8
T09SSILL
 62
6
 66
     1
 70
     9
  0
VERTEX
  8
T09SSILL
 62
6
 10
84.888
 20
-1203.270
 30
4337.528
 70
    32
  0
VERTEX
  8
T09SSILL
 62
6
 10
81.295
 20
-1196.876
 30
4337.518
 70
    32
  0
VERTEX
  8
T09SSILL
 62
6
 10
81.414
 20
-1192.741
 30
4337.506
 70
    32
  0
VERTEX
  8
T09SSILL
 62
6
 10
76.765
 20
-1180.667
 30
4337.481
 70
    32
  0
VERTEX
  8
T09SSILL
 62
6
 10
53.294
 20
-1168.495
 30
4337.500
 70
    32
  0
VERTEX
  8
T09SSILL
 62
6
 10
43.596
 20
-1160.271
 30
4337.499
 70
    32
  0
VERTEX
  8
T09SSILL
 62
6
 10
35.622
 20
-1142.965
 30
4337.467
 70
    32
  0
VERTEX
  8
T09SSILL
 62
6
 10
28.148
 20
-1130.138
 30
4337.448
 70
    32
  0
VERTEX
  8
T09SSILL
 62
6
 10
12.190
 20
-1140.292
 30
4337.513
 70
    32
  0
VERTEX
  8
T09SSILL
 62
6
 10
10.570
 20
-1144.008
 30
4337.528
 70
    32
  0
VERTEX
  8
T09SSILL
 62
6
 10
52.175
 20
-1254.702
 30
4337.751
 70
    32
  0
VERTEX
  8
T09SSILL
 62
6
 10
54.026
 20
-1255.029
 30
4337.747
 70
    32
  0
VERTEX
  8
T09SSILL
 62
6
 10
93.301
 20
-1226.177
 30
4337.574
 70
    32
  0
VERTEX
  8
T09SSILL
 62
6
 10
92.859
 20
-1219.499
 30
4337.556
 70
    32
  0
VERTEX
  8
T09SSILL
 62
6
 10
89.973
 20
-1213.624
 30
4337.546
 70
    32
  0
VERTEX
  8
T09SSILL
 62
6
 10
83.177
 20
-1204.548
 30
4337.535
 70
    32
  0
SEQEND
  8
T09SSILL
  0
POLYLINE
  8
T09SSILL
 62
6
 66
     1
 70
     9
  0
VERTEX
  8
T09SSILL
 62
6
 10
139.208
 20
-1195.201
 30
4337.380
 70
    32
  0
VERTEX
  8
T09SSILL
 62
6
 10
195.998
 20
-1144.239
 30
4337.103
 70
    32
  0
VERTEX
  8
T09SSILL
 62
6
 10
203.607
 20
-1142.285
 30
4337.080
 70
    32
  0
VERTEX
  8
T09SSILL
 62
6
 10
215.044
 20
-1141.995
 30
4337.053
 70
    32
  0
VERTEX
  8
T09SSILL
 62
6
 10
221.095
 20
-1151.525
 30
4337.067
 70
    32
  0
VERTEX
  8
T09SSILL
 62
6
 10
228.436
 20
-1168.582
 30
4337.099
 70
    32
  0
VERTEX
  8
T09SSILL
 62
6
 10
225.814
 20
-1170.355
 30
4337.110
 70
    32
  0
VERTEX
  8
T09SSILL
 62
6
 10
234.553
 20
-1182.707
 30
4337.126
 70
    32
  0
VERTEX
  8
T09SSILL
 62
6
 10
237.210
 20
-1189.937
 30
4337.140
 70
    32
  0
VERTEX
  8
T09SSILL
 62
6
 10
236.331
 20
-1193.480
 30
4337.153
 70
    32
  0
VERTEX
  8
T09SSILL
 62
6
 10
177.060
 20
-1237.501
 30
4337.415
 70
    32
  0
VERTEX
  8
T09SSILL
 62
6
 10
165.539
 20
-1234.448
 30
4337.433
 70
    32
  0
VERTEX
  8
T09SSILL
 62
6
 10
163.315
 20
-1226.581
 30
4337.415
 70
    32
  0
VERTEX
  8
T09SSILL
 62
6
 10
146.066
 20
-1220.986
 30
4337.438
 70
    32
  0
VERTEX
  8
T09SSILL
 62
6
 10
153.465
 20
-1215.408
 30
4337.405
 70
    32
  0
SEQEND
  8
T09SSILL
  0
POLYLINE
  8
T09SSILL
 62
6
 66
     1
 70
     9
  0
VERTEX
  8
T09SSILL
 62
6
 10
238.256
 20
-1250.614
 30
4337.312
 70
    32
  0
VERTEX
  8
T09SSILL
 62
6
 10
238.930
 20
-1250.082
 30
4337.309
 70
    32
  0
VERTEX
  8
T09SSILL
 62
6
 10
235.669
 20
-1237.412
 30
4337.280
 70
    32
  0
VERTEX
  8
T09SSILL
 62
6
 10
234.663
 20
-1228.382
 30
4337.257
 70
    32
  0
VERTEX
  8
T09SSILL
 62
6
 10
241.976
 20
-1204.341
 30
4337.171
 70
    32
  0
VERTEX
  8
T09SSILL
 62
6
 10
240.242
 20
-1201.920
 30
4337.168
 70
    32
  0
VERTEX
  8
T09SSILL
 62
6
 10
178.316
 20
-1245.391
 30
4337.435
 70
    32
  0
VERTEX
  8
T09SSILL
 62
6
 10
177.750
 20
-1247.342
 30
4337.442
 70
    32
  0
VERTEX
  8
T09SSILL
 62
6
 10
189.143
 20
-1276.631
 30
4337.500
 70
    32
  0
VERTEX
  8
T09SSILL
 62
6
 10
194.587
 20
-1283.007
 30
4337.505
 70
    32
  0
VERTEX
  8
T09SSILL
 62
6
 10
196.805
 20
-1287.176
 30
4337.512
 70
    32
  0
VERTEX
  8
T09SSILL
 62
6
 10
197.275
 20
-1291.830
 30
4337.525
 70
    32
  0
VERTEX
  8
T09SSILL
 62
6
 10
238.581
 20
-1261.134
 30
4337.342
 70
    32
  0
VERTEX
  8
T09SSILL
 62
6
 10
237.082
 20
-1258.701
 30
4337.338
 70
    32
  0
VERTEX
  8
T09SSILL
 62
6
 10
241.665
 20
-1255.992
 30
4337.320
 70
    32
  0
SEQEND
  8
T09SSILL
  0
POLYLINE
  8
T09SSILL
 62
6
 66
     1
 70
     9
  0
VERTEX
  8
T09SSILL
 62
6
 10
155.711
 20
-1320.045
 30
4337.701
 70
    32
  0
VERTEX
  8
T09SSILL
 62
6
 10
153.596
 20
-1307.682
 30
4337.670
 70
    32
  0
VERTEX
  8
T09SSILL
 62
6
 10
149.517
 20
-1298.766
 30
4337.654
 70
    32
  0
VERTEX
  8
T09SSILL
 62
6
 10
145.761
 20
-1300.664
 30
4337.668
 70
    32
  0
VERTEX
  8
T09SSILL
 62
6
 10
133.543
 20
-1314.198
 30
4337.735
 70
    32
  0
VERTEX
  8
T09SSILL
 62
6
 10
127.669
 20
-1315.597
 30
4337.753
 70
    32
  0
VERTEX
  8
T09SSILL
 62
6
 10
116.258
 20
-1310.738
 30
4337.765
 70
    32
  0
VERTEX
  8
T09SSILL
 62
6
 10
108.777
 20
-1303.892
 30
4337.762
 70
    32
  0
VERTEX
  8
T09SSILL
 62
6
 10
101.532
 20
-1294.931
 30
4337.753
 70
    32
  0
VERTEX
  8
T09SSILL
 62
6
 10
94.544
 20
-1279.018
 30
4337.723
 70
    32
  0
VERTEX
  8
T09SSILL
 62
6
 10
94.504
 20
-1276.029
 30
4337.715
 70
    32
  0
VERTEX
  8
T09SSILL
 62
6
 10
98.642
 20
-1269.904
 30
4337.688
 70
    32
  0
VERTEX
  8
T09SSILL
 62
6
 10
116.565
 20
-1255.501
 30
4337.605
 70
    32
  0
VERTEX
  8
T09SSILL
 62
6
 10
120.029
 20
-1251.497
 30
4337.586
 70
    32
  0
VERTEX
  8
T09SSILL
 62
6
 10
118.799
 20
-1245.093
 30
4337.570
 70
    32
  0
VERTEX
  8
T09SSILL
 62
6
 10
102.965
 20
-1238.359
 30
4337.587
 70
    32
  0
VERTEX
  8
T09SSILL
 62
6
 10
99.555
 20
-1233.392
 30
4337.581
 70
    32
  0
VERTEX
  8
T09SSILL
 62
6
 10
59.810
 20
-1259.964
 30
4337.748
 70
    32
  0
VERTEX
  8
T09SSILL
 62
6
 10
56.688
 20
-1263.260
 30
4337.765
 70
    32
  0
VERTEX
  8
T09SSILL
 62
6
 10
56.113
 20
-1266.258
 30
4337.775
 70
    32
  0
VERTEX
  8
T09SSILL
 62
6
 10
127.894
 20
-1455.994
 30
4338.155
 70
    32
  0
VERTEX
  8
T09SSILL
 62
6
 10
172.244
 20
-1576.755
 30
4338.364
 70
    32
  0
VERTEX
  8
T09SSILL
 62
6
 10
181.608
 20
-1592.082
 30
4338.336
 70
    32
  0
VERTEX
  8
T09SSILL
 62
6
 10
193.540
 20
-1608.184
 30
4338.300
 70
    32
  0
VERTEX
  8
T09SSILL
 62
6
 10
212.504
 20
-1630.983
 30
4338.242
 70
    32
  0
VERTEX
  8
T09SSILL
 62
6
 10
217.980
 20
-1632.668
 30
4338.224
 70
    32
  0
VERTEX
  8
T09SSILL
 62
6
 10
275.589
 20
-1591.057
 30
4338.011
 70
    32
  0
VERTEX
  8
T09SSILL
 62
6
 10
272.947
 20
-1587.010
 30
4338.019
 70
    32
  0
VERTEX
  8
T09SSILL
 62
6
 10
278.161
 20
-1582.424
 30
4338.000
 70
    32
  0
VERTEX
  8
T09SSILL
 62
6
 10
268.901
 20
-1541.565
 30
4338.019
 70
    32
  0
VERTEX
  8
T09SSILL
 62
6
 10
263.159
 20
-1494.237
 30
4337.955
 70
    32
  0
VERTEX
  8
T09SSILL
 62
6
 10
260.121
 20
-1477.743
 30
4337.915
 70
    32
  0
VERTEX
  8
T09SSILL
 62
6
 10
257.361
 20
-1475.318
 30
4337.914
 70
    32
  0
VERTEX
  8
T09SSILL
 62
6
 10
251.987
 20
-1443.530
 30
4337.835
 70
    32
  0
VERTEX
  8
T09SSILL
 62
6
 10
250.382
 20
-1444.669
 30
4337.842
 70
    32
  0
VERTEX
  8
T09SSILL
 62
6
 10
247.247
 20
-1439.033
 30
4337.833
 70
    32
  0
VERTEX
  8
T09SSILL
 62
6
 10
250.406
 20
-1437.211
 30
4337.821
 70
    32
  0
VERTEX
  8
T09SSILL
 62
6
 10
247.398
 20
-1428.048
 30
4337.801
 70
    32
  0
VERTEX
  8
T09SSILL
 62
6
 10
243.127
 20
-1424.411
 30
4337.801
 70
    32
  0
VERTEX
  8
T09SSILL
 62
6
 10
234.909
 20
-1421.532
 30
4337.811
 70
    32
  0
VERTEX
  8
T09SSILL
 62
6
 10
211.905
 20
-1385.432
 30
4337.760
 70
    32
  0
VERTEX
  8
T09SSILL
 62
6
 10
202.554
 20
-1376.852
 30
4337.757
 70
    32
  0
VERTEX
  8
T09SSILL
 62
6
 10
193.407
 20
-1370.380
 30
4337.759
 70
    32
  0
VERTEX
  8
T09SSILL
 62
6
 10
179.160
 20
-1350.959
 30
4337.736
 70
    32
  0
VERTEX
  8
T09SSILL
 62
6
 10
172.408
 20
-1339.441
 30
4337.718
 70
    32
  0
VERTEX
  8
T09SSILL
 62
6
 10
160.865
 20
-1328.257
 30
4337.713
 70
    32
  0
VERTEX
  8
T09SSILL
 62
6
 10
156.552
 20
-1321.795
 30
4337.704
 70
    32
  0
SEQEND
  8
T09SSILL
  0
POLYLINE
  8
T09SSILL
 62
6
 66
     1
 70
     9
  0
VERTEX
  8
T09SSILL
 62
6
 10
313.055
 20
-1209.760
 30
4337.023
 70
    32
  0
VERTEX
  8
T09SSILL
 62
6
 10
316.527
 20
-1207.468
 30
4337.009
 70
    32
  0
VERTEX
  8
T09SSILL
 62
6
 10
304.458
 20
-1189.729
 30
4336.986
 70
    32
  0
VERTEX
  8
T09SSILL
 62
6
 10
299.696
 20
-1189.409
 30
4336.996
 70
    32
  0
VERTEX
  8
T09SSILL
 62
6
 10
294.269
 20
-1197.557
 30
4337.031
 70
    32
  0
VERTEX
  8
T09SSILL
 62
6
 10
299.164
 20
-1206.588
 30
4337.046
 70
    32
  0
VERTEX
  8
T09SSILL
 62
6
 10
300.363
 20
-1207.549
 30
4337.046
 70
    32
  0
VERTEX
  8
T09SSILL
 62
6
 10
303.433
 20
-1205.576
 30
4337.033
 70
    32
  0
VERTEX
  8
T09SSILL
 62
6
 10
306.763
 20
-1210.395
 30
4337.040
 70
    32
  0
VERTEX
  8
T09SSILL
 62
6
 10
311.302
 20
-1207.221
 30
4337.020
 70
    32
  0
SEQEND
  8
T09SSILL
  0
POLYLINE
  8
T09SSILL
 62
6
 66
     1
 70
     9
  0
VERTEX
  8
T09SSILL
 62
6
 10
270.493
 20
-1287.509
 30
4337.344
 70
    32
  0
VERTEX
  8
T09SSILL
 62
6
 10
301.137
 20
-1263.580
 30
4337.205
 70
    32
  0
VERTEX
  8
T09SSILL
 62
6
 10
302.389
 20
-1260.908
 30
4337.195
 70
    32
  0
VERTEX
  8
T09SSILL
 62
6
 10
294.230
 20
-1240.729
 30
4337.156
 70
    32
  0
VERTEX
  8
T09SSILL
 62
6
 10
282.209
 20
-1249.041
 30
4337.207
 70
    32
  0
VERTEX
  8
T09SSILL
 62
6
 10
278.310
 20
-1243.433
 30
4337.200
 70
    32
  0
VERTEX
  8
T09SSILL
 62
6
 10
262.520
 20
-1254.260
 30
4337.267
 70
    32
  0
VERTEX
  8
T09SSILL
 62
6
 10
263.047
 20
-1263.297
 30
4337.292
 70
    32
  0
VERTEX
  8
T09SSILL
 62
6
 10
266.034
 20
-1267.238
 30
4337.296
 70
    32
  0
VERTEX
  8
T09SSILL
 62
6
 10
263.685
 20
-1268.841
 30
4337.306
 70
    32
  0
VERTEX
  8
T09SSILL
 62
6
 10
268.191
 20
-1280.613
 30
4337.330
 70
    32
  0
SEQEND
  8
T09SSILL
  0
POLYLINE
  8
T09SSILL
 62
6
 66
     1
 70
     9
  0
VERTEX
  8
T09SSILL
 62
6
 10
308.547
 20
-1230.829
 30
4337.094
 70
    32
  0
VERTEX
  8
T09SSILL
 62
6
 10
308.632
 20
-1234.694
 30
4337.105
 70
    32
  0
VERTEX
  8
T09SSILL
 62
6
 10
320.107
 20
-1250.722
 30
4337.125
 70
    32
  0
VERTEX
  8
T09SSILL
 62
6
 10
352.140
 20
-1226.189
 30
4336.981
 70
    32
  0
VERTEX
  8
T09SSILL
 62
6
 10
362.991
 20
-1241.609
 30
4337.001
 70
    32
  0
VERTEX
  8
T09SSILL
 62
6
 10
368.202
 20
-1243.210
 30
4336.993
 70
    32
  0
VERTEX
  8
T09SSILL
 62
6
 10
386.446
 20
-1239.533
 30
4336.950
 70
    32
  0
VERTEX
  8
T09SSILL
 62
6
 10
396.712
 20
-1231.302
 30
4336.949
 70
    32
  0
VERTEX
  8
T09SSILL
 62
6
 10
397.192
 20
-1227.778
 30
4336.949
 70
    32
  0
VERTEX
  8
T09SSILL
 62
6
 10
393.354
 20
-1223.608
 30
4336.949
 70
    32
  0
VERTEX
  8
T09SSILL
 62
6
 10
380.581
 20
-1202.673
 30
4336.948
 70
    32
  0
VERTEX
  8
T09SSILL
 62
6
 10
373.537
 20
-1195.556
 30
4336.948
 70
    32
  0
VERTEX
  8
T09SSILL
 62
6
 10
367.971
 20
-1187.188
 30
4336.948
 70
    32
  0
VERTEX
  8
T09SSILL
 62
6
 10
362.825
 20
-1183.916
 30
4336.948
 70
    32
  0
VERTEX
  8
T09SSILL
 62
6
 10
317.183
 20
-1215.740
 30
4337.031
 70
    32
  0
VERTEX
  8
T09SSILL
 62
6
 10
321.442
 20
-1221.912
 30
4337.039
 70
    32
  0
SEQEND
  8
T09SSILL
  0
POLYLINE
  8
T09SSILL
 62
6
 66
     1
 70
     9
  0
VERTEX
  8
T09SSILL
 62
6
 10
370.538
 20
-1321.791
 30
4337.214
 70
    32
  0
VERTEX
  8
T09SSILL
 62
6
 10
391.328
 20
-1307.804
 30
4337.126
 70
    32
  0
VERTEX
  8
T09SSILL
 62
6
 10
397.919
 20
-1294.435
 30
4337.072
 70
    32
  0
VERTEX
  8
T09SSILL
 62
6
 10
414.790
 20
-1267.293
 30
4336.956
 70
    32
  0
VERTEX
  8
T09SSILL
 62
6
 10
416.288
 20
-1261.028
 30
4336.950
 70
    32
  0
VERTEX
  8
T09SSILL
 62
6
 10
406.832
 20
-1244.710
 30
4336.949
 70
    32
  0
VERTEX
  8
T09SSILL
 62
6
 10
397.546
 20
-1240.878
 30
4336.950
 70
    32
  0
VERTEX
  8
T09SSILL
 62
6
 10
394.474
 20
-1241.359
 30
4336.950
 70
    32
  0
VERTEX
  8
T09SSILL
 62
6
 10
367.615
 20
-1251.837
 30
4337.019
 70
    32
  0
VERTEX
  8
T09SSILL
 62
6
 10
367.682
 20
-1256.761
 30
4337.033
 70
    32
  0
VERTEX
  8
T09SSILL
 62
6
 10
379.633
 20
-1282.017
 30
4337.078
 70
    32
  0
VERTEX
  8
T09SSILL
 62
6
 10
378.349
 20
-1284.585
 30
4337.089
 70
    32
  0
VERTEX
  8
T09SSILL
 62
6
 10
356.212
 20
-1299.573
 30
4337.183
 70
    32
  0
VERTEX
  8
T09SSILL
 62
6
 10
348.399
 20
-1307.154
 30
4337.222
 70
    32
  0
VERTEX
  8
T09SSILL
 62
6
 10
350.063
 20
-1313.113
 30
4337.236
 70
    32
  0
VERTEX
  8
T09SSILL
 62
6
 10
352.183
 20
-1314.954
 30
4337.236
 70
    32
  0
VERTEX
  8
T09SSILL
 62
6
 10
360.865
 20
-1308.323
 30
4337.197
 70
    32
  0
SEQEND
  8
T09SSILL
  0
POLYLINE
  8
T09SSILL
 62
6
 66
     1
 70
     9
  0
VERTEX
  8
T09SSILL
 62
6
 10
361.231
 20
-1513.608
 30
4337.691
 70
    32
  0
VERTEX
  8
T09SSILL
 62
6
 10
363.836
 20
-1511.783
 30
4337.681
 70
    32
  0
VERTEX
  8
T09SSILL
 62
6
 10
374.371
 20
-1510.409
 30
4337.644
 70
    32
  0
VERTEX
  8
T09SSILL
 62
6
 10
411.002
 20
-1481.153
 30
4337.508
 70
    32
  0
VERTEX
  8
T09SSILL
 62
6
 10
427.402
 20
-1471.168
 30
4337.448
 70
    32
  0
VERTEX
  8
T09SSILL
 62
6
 10
434.938
 20
-1462.623
 30
4337.420
 70
    32
  0
VERTEX
  8
T09SSILL
 62
6
 10
432.646
 20
-1451.815
 30
4337.424
 70
    32
  0
VERTEX
  8
T09SSILL
 62
6
 10
429.264
 20
-1447.643
 30
4337.434
 70
    32
  0
VERTEX
  8
T09SSILL
 62
6
 10
431.444
 20
-1446.144
 30
4337.426
 70
    32
  0
VERTEX
  8
T09SSILL
 62
6
 10
433.381
 20
-1432.125
 30
4337.387
 70
    32
  0
VERTEX
  8
T09SSILL
 62
6
 10
435.829
 20
-1424.528
 30
4337.359
 70
    32
  0
VERTEX
  8
T09SSILL
 62
6
 10
442.558
 20
-1414.850
 30
4337.316
 70
    32
  0
VERTEX
  8
T09SSILL
 62
6
 10
443.580
 20
-1405.865
 30
4337.288
 70
    32
  0
VERTEX
  8
T09SSILL
 62
6
 10
435.279
 20
-1380.554
 30
4337.234
 70
    32
  0
VERTEX
  8
T09SSILL
 62
6
 10
434.085
 20
-1381.992
 30
4337.241
 70
    32
  0
VERTEX
  8
T09SSILL
 62
6
 10
429.307
 20
-1377.453
 30
4337.239
 70
    32
  0
VERTEX
  8
T09SSILL
 62
6
 10
452.411
 20
-1350.073
 30
4337.107
 70
    32
  0
VERTEX
  8
T09SSILL
 62
6
 10
445.066
 20
-1307.780
 30
4337.003
 70
    32
  0
VERTEX
  8
T09SSILL
 62
6
 10
430.697
 20
-1298.828
 30
4337.010
 70
    32
  0
VERTEX
  8
T09SSILL
 62
6
 10
422.692
 20
-1298.760
 30
4337.028
 70
    32
  0
VERTEX
  8
T09SSILL
 62
6
 10
381.337
 20
-1323.419
 30
4337.194
 70
    32
  0
VERTEX
  8
T09SSILL
 62
6
 10
366.118
 20
-1342.622
 30
4337.284
 70
    32
  0
VERTEX
  8
T09SSILL
 62
6
 10
365.163
 20
-1345.815
 30
4337.295
 70
    32
  0
VERTEX
  8
T09SSILL
 62
6
 10
375.744
 20
-1359.952
 30
4337.311
 70
    32
  0
VERTEX
  8
T09SSILL
 62
6
 10
405.702
 20
-1338.482
 30
4337.181
 70
    32
  0
VERTEX
  8
T09SSILL
 62
6
 10
420.607
 20
-1364.044
 30
4337.220
 70
    32
  0
VERTEX
  8
T09SSILL
 62
6
 10
428.166
 20
-1381.000
 30
4337.252
 70
    32
  0
VERTEX
  8
T09SSILL
 62
6
 10
441.199
 20
-1400.221
 30
4337.277
 70
    32
  0
VERTEX
  8
T09SSILL
 62
6
 10
344.771
 20
-1469.334
 30
4337.697
 70
    32
  0
VERTEX
  8
T09SSILL
 62
6
 10
347.789
 20
-1473.830
 30
4337.703
 70
    32
  0
VERTEX
  8
T09SSILL
 62
6
 10
338.089
 20
-1480.975
 30
4337.745
 70
    32
  0
VERTEX
  8
T09SSILL
 62
6
 10
341.173
 20
-1485.323
 30
4337.751
 70
    32
  0
SEQEND
  8
T09SSILL
  0
POLYLINE
  8
T09SSILL
 62
6
 66
     1
 70
     9
  0
VERTEX
  8
T09SSILL
 62
6
 10
242.467
 20
-1268.853
 30
4337.355
 70
    32
  0
VERTEX
  8
T09SSILL
 62
6
 10
203.470
 20
-1296.602
 30
4337.524
 70
    32
  0
VERTEX
  8
T09SSILL
 62
6
 10
203.888
 20
-1309.620
 30
4337.561
 70
    32
  0
VERTEX
  8
T09SSILL
 62
6
 10
199.736
 20
-1315.975
 30
4337.588
 70
    32
  0
VERTEX
  8
T09SSILL
 62
6
 10
199.567
 20
-1323.198
 30
4337.610
 70
    32
  0
VERTEX
  8
T09SSILL
 62
6
 10
206.436
 20
-1337.196
 30
4337.634
 70
    32
  0
VERTEX
  8
T09SSILL
 62
6
 10
212.972
 20
-1355.428
 30
4337.671
 70
    32
  0
VERTEX
  8
T09SSILL
 62
6
 10
257.079
 20
-1324.380
 30
4337.481
 70
    32
  0
VERTEX
  8
T09SSILL
 62
6
 10
249.347
 20
-1294.996
 30
4337.414
 70
    32
  0
VERTEX
  8
T09SSILL
 62
6
 10
244.614
 20
-1289.119
 30
4337.408
 70
    32
  0
VERTEX
  8
T09SSILL
 62
6
 10
249.393
 20
-1285.858
 30
4337.388
 70
    32
  0
VERTEX
  8
T09SSILL
 62
6
 10
241.903
 20
-1276.441
 30
4337.378
 70
    32
  0
VERTEX
  8
T09SSILL
 62
6
 10
244.074
 20
-1274.959
 30
4337.369
 70
    32
  0
SEQEND
  8
T09SSILL
  0
POLYLINE
  8
T09SSILL
 62
6
 66
     1
 70
     9
  0
VERTEX
  8
T09SSILL
 62
6
 10
280.903
 20
-1381.870
 30
4337.592
 70
    32
  0
VERTEX
  8
T09SSILL
 62
6
 10
263.350
 20
-1346.037
 30
4337.529
 70
    32
  0
VERTEX
  8
T09SSILL
 62
6
 10
258.942
 20
-1332.289
 30
4337.500
 70
    32
  0
VERTEX
  8
T09SSILL
 62
6
 10
236.376
 20
-1347.986
 30
4337.596
 70
    32
  0
VERTEX
  8
T09SSILL
 62
6
 10
240.792
 20
-1355.842
 30
4337.609
 70
    32
  0
VERTEX
  8
T09SSILL
 62
6
 10
262.195
 20
-1384.136
 30
4337.641
 70
    32
  0
VERTEX
  8
T09SSILL
 62
6
 10
264.643
 20
-1394.084
 30
4337.664
 70
    32
  0
SEQEND
  8
T09SSILL
  0
POLYLINE
  8
T09SSILL
 62
6
 66
     1
 70
     9
  0
VERTEX
  8
T09SSILL
 62
6
 10
278.924
 20
-1477.193
 30
4337.870
 70
    32
  0
VERTEX
  8
T09SSILL
 62
6
 10
282.632
 20
-1483.947
 30
4337.881
 70
    32
  0
VERTEX
  8
T09SSILL
 62
6
 10
286.581
 20
-1502.803
 30
4337.926
 70
    32
  0
VERTEX
  8
T09SSILL
 62
6
 10
290.583
 20
-1512.511
 30
4337.934
 70
    32
  0
VERTEX
  8
T09SSILL
 62
6
 10
295.579
 20
-1530.737
 30
4337.923
 70
    32
  0
VERTEX
  8
T09SSILL
 62
6
 10
287.741
 20
-1542.980
 30
4337.954
 70
    32
  0
VERTEX
  8
T09SSILL
 62
6
 10
286.955
 20
-1549.851
 30
4337.959
 70
    32
  0
VERTEX
  8
T09SSILL
 62
6
 10
288.769
 20
-1560.381
 30
4337.956
 70
    32
  0
VERTEX
  8
T09SSILL
 62
6
 10
296.128
 20
-1571.275
 30
4337.934
 70
    32
  0
VERTEX
  8
T09SSILL
 62
6
 10
306.137
 20
-1569.996
 30
4337.899
 70
    32
  0
VERTEX
  8
T09SSILL
 62
6
 10
352.548
 20
-1535.506
 30
4337.728
 70
    32
  0
VERTEX
  8
T09SSILL
 62
6
 10
354.884
 20
-1525.740
 30
4337.716
 70
    32
  0
VERTEX
  8
T09SSILL
 62
6
 10
321.613
 20
-1478.548
 30
4337.776
 70
    32
  0
VERTEX
  8
T09SSILL
 62
6
 10
326.100
 20
-1475.178
 30
4337.756
 70
    32
  0
VERTEX
  8
T09SSILL
 62
6
 10
309.117
 20
-1450.900
 30
4337.725
 70
    32
  0
VERTEX
  8
T09SSILL
 62
6
 10
318.425
 20
-1443.449
 30
4337.683
 70
    32
  0
VERTEX
  8
T09SSILL
 62
6
 10
300.942
 20
-1420.240
 30
4337.656
 70
    32
  0
VERTEX
  8
T09SSILL
 62
6
 10
306.219
 20
-1416.619
 30
4337.634
 70
    32
  0
VERTEX
  8
T09SSILL
 62
6
 10
299.364
 20
-1406.736
 30
4337.621
 70
    32
  0
VERTEX
  8
T09SSILL
 62
6
 10
292.204
 20
-1412.197
 30
4337.653
 70
    32
  0
VERTEX
  8
T09SSILL
 62
6
 10
277.800
 20
-1391.983
 30
4337.628
 70
    32
  0
VERTEX
  8
T09SSILL
 62
6
 10
266.167
 20
-1400.345
 30
4337.679
 70
    32
  0
VERTEX
  8
T09SSILL
 62
6
 10
271.883
 20
-1424.110
 30
4337.734
 70
    32
  0
VERTEX
  8
T09SSILL
 62
6
 10
270.175
 20
-1427.827
 30
4337.748
 70
    32
  0
VERTEX
  8
T09SSILL
 62
6
 10
258.988
 20
-1433.080
 30
4337.789
 70
    32
  0
VERTEX
  8
T09SSILL
 62
6
 10
265.008
 20
-1446.409
 30
4337.814
 70
    32
  0
VERTEX
  8
T09SSILL
 62
6
 10
272.427
 20
-1459.092
 30
4337.833
 70
    32
  0
VERTEX
  8
T09SSILL
 62
6
 10
276.563
 20
-1470.296
 30
4337.856
 70
    32
  0
SEQEND
  8
T09SSILL
  0
POLYLINE
  8
T09SSILL
 62
6
 66
     1
 70
     9
  0
VERTEX
  8
T09SSILL
 62
6
 10
442.656
 20
-1456.574
 30
4337.391
 70
    32
  0
VERTEX
  8
T09SSILL
 62
6
 10
447.457
 20
-1453.368
 30
4337.373
 70
    32
  0
VERTEX
  8
T09SSILL
 62
6
 10
448.551
 20
-1454.934
 30
4337.370
 70
    32
  0
VERTEX
  8
T09SSILL
 62
6
 10
477.230
 20
-1435.753
 30
4337.265
 70
    32
  0
VERTEX
  8
T09SSILL
 62
6
 10
501.937
 20
-1421.799
 30
4337.175
 70
    32
  0
VERTEX
  8
T09SSILL
 62
6
 10
505.467
 20
-1426.986
 30
4337.165
 70
    32
  0
VERTEX
  8
T09SSILL
 62
6
 10
525.066
 20
-1413.127
 30
4337.093
 70
    32
  0
VERTEX
  8
T09SSILL
 62
6
 10
521.762
 20
-1408.297
 30
4337.102
 70
    32
  0
VERTEX
  8
T09SSILL
 62
6
 10
538.185
 20
-1397.196
 30
4337.042
 70
    32
  0
VERTEX
  8
T09SSILL
 62
6
 10
557.164
 20
-1376.359
 30
4336.950
 70
    32
  0
VERTEX
  8
T09SSILL
 62
6
 10
564.579
 20
-1371.861
 30
4336.949
 70
    32
  0
VERTEX
  8
T09SSILL
 62
6
 10
648.084
 20
-1335.813
 30
4336.943
 70
    32
  0
VERTEX
  8
T09SSILL
 62
6
 10
650.871
 20
-1333.753
 30
4336.942
 70
    32
  0
VERTEX
  8
T09SSILL
 62
6
 10
631.949
 20
-1300.412
 30
4336.943
 70
    32
  0
VERTEX
  8
T09SSILL
 62
6
 10
626.630
 20
-1300.399
 30
4336.944
 70
    32
  0
VERTEX
  8
T09SSILL
 62
6
 10
628.195
 20
-1292.701
 30
4336.943
 70
    32
  0
VERTEX
  8
T09SSILL
 62
6
 10
621.239
 20
-1282.351
 30
4336.944
 70
    32
  0
VERTEX
  8
T09SSILL
 62
6
 10
615.634
 20
-1277.677
 30
4336.944
 70
    32
  0
VERTEX
  8
T09SSILL
 62
6
 10
598.955
 20
-1280.014
 30
4336.944
 70
    32
  0
VERTEX
  8
T09SSILL
 62
6
 10
485.299
 20
-1362.644
 30
4337.068
 70
    32
  0
VERTEX
  8
T09SSILL
 62
6
 10
474.624
 20
-1360.238
 30
4337.086
 70
    32
  0
VERTEX
  8
T09SSILL
 62
6
 10
461.504
 20
-1359.097
 30
4337.112
 70
    32
  0
VERTEX
  8
T09SSILL
 62
6
 10
465.337
 20
-1375.843
 30
4337.152
 70
    32
  0
VERTEX
  8
T09SSILL
 62
6
 10
471.970
 20
-1385.076
 30
4337.163
 70
    32
  0
VERTEX
  8
T09SSILL
 62
6
 10
477.457
 20
-1388.464
 30
4337.160
 70
    32
  0
VERTEX
  8
T09SSILL
 62
6
 10
470.574
 20
-1393.323
 30
4337.190
 70
    32
  0
VERTEX
  8
T09SSILL
 62
6
 10
457.248
 20
-1377.782
 30
4337.176
 70
    32
  0
VERTEX
  8
T09SSILL
 62
6
 10
453.162
 20
-1360.089
 30
4337.134
 70
    32
  0
VERTEX
  8
T09SSILL
 62
6
 10
440.852
 20
-1373.273
 30
4337.200
 70
    32
  0
VERTEX
  8
T09SSILL
 62
6
 10
449.629
 20
-1397.956
 30
4337.251
 70
    32
  0
VERTEX
  8
T09SSILL
 62
6
 10
451.279
 20
-1409.367
 30
4337.280
 70
    32
  0
VERTEX
  8
T09SSILL
 62
6
 10
442.038
 20
-1428.402
 30
4337.356
 70
    32
  0
VERTEX
  8
T09SSILL
 62
6
 10
438.196
 20
-1449.914
 30
4337.404
 70
    32
  0
SEQEND
  8
T09SSILL
  0
POLYLINE
  8
T09SSILL
 62
6
 66
     1
 70
     9
  0
VERTEX
  8
T09SSILL
 62
6
 10
1594.737
 20
-191.400
 30
4336.901
 70
    32
  0
VERTEX
  8
T09SSILL
 62
6
 10
1586.014
 20
-195.943
 30
4336.901
 70
    32
  0
VERTEX
  8
T09SSILL
 62
6
 10
1580.481
 20
-206.755
 30
4336.901
 70
    32
  0
VERTEX
  8
T09SSILL
 62
6
 10
1577.537
 20
-209.440
 30
4336.901
 70
    32
  0
VERTEX
  8
T09SSILL
 62
6
 10
1577.314
 20
-211.904
 30
4336.901
 70
    32
  0
VERTEX
  8
T09SSILL
 62
6
 10
1540.299
 20
-210.670
 30
4336.902
 70
    32
  0
VERTEX
  8
T09SSILL
 62
6
 10
1540.079
 20
-207.949
 30
4336.902
 70
    32
  0
VERTEX
  8
T09SSILL
 62
6
 10
1565.459
 20
-180.465
 30
4336.901
 70
    32
  0
VERTEX
  8
T09SSILL
 62
6
 10
1594.993
 20
-181.658
 30
4336.901
 70
    32
  0
SEQEND
  8
T09SSILL
  0
POLYLINE
  8
T09SSILL
 62
6
 66
     1
 70
     9
  0
VERTEX
  8
T09SSILL
 62
6
 10
1595.175
 20
-174.739
 30
4336.901
 70
    32
  0
VERTEX
  8
T09SSILL
 62
6
 10
1600.141
 20
-174.801
 30
4336.901
 70
    32
  0
VERTEX
  8
T09SSILL
 62
6
 10
1605.122
 20
-164.381
 30
4336.901
 70
    32
  0
VERTEX
  8
T09SSILL
 62
6
 10
1609.537
 20
-158.276
 30
4336.901
 70
    32
  0
VERTEX
  8
T09SSILL
 62
6
 10
1616.138
 20
-154.930
 30
4336.900
 70
    32
  0
VERTEX
  8
T09SSILL
 62
6
 10
1622.218
 20
-148.516
 30
4336.900
 70
    32
  0
VERTEX
  8
T09SSILL
 62
6
 10
1620.419
 20
-143.810
 30
4336.900
 70
    32
  0
VERTEX
  8
T09SSILL
 62
6
 10
1615.637
 20
-142.793
 30
4336.901
 70
    32
  0
VERTEX
  8
T09SSILL
 62
6
 10
1605.132
 20
-141.754
 30
4336.901
 70
    32
  0
VERTEX
  8
T09SSILL
 62
6
 10
1599.713
 20
-143.220
 30
4336.901
 70
    32
  0
VERTEX
  8
T09SSILL
 62
6
 10
1572.401
 20
-172.125
 30
4336.901
 70
    32
  0
SEQEND
  8
T09SSILL
  0
POLYLINE
  8
T09SSILL
 62
6
 66
     1
 70
     9
  0
VERTEX
  8
T09SSILL
 62
6
 10
1508.672
 20
-364.195
 30
4336.901
 70
    32
  0
VERTEX
  8
T09SSILL
 62
6
 10
1532.335
 20
-349.194
 30
4336.901
 70
    32
  0
VERTEX
  8
T09SSILL
 62
6
 10
1531.150
 20
-346.406
 30
4336.901
 70
    32
  0
VERTEX
  8
T09SSILL
 62
6
 10
1512.354
 20
-345.126
 30
4336.901
 70
    32
  0
VERTEX
  8
T09SSILL
 62
6
 10
1510.743
 20
-343.134
 30
4336.901
 70
    32
  0
VERTEX
  8
T09SSILL
 62
6
 10
1503.678
 20
-345.704
 30
4336.901
 70
    32
  0
VERTEX
  8
T09SSILL
 62
6
 10
1485.482
 20
-355.009
 30
4336.901
 70
    32
  0
VERTEX
  8
T09SSILL
 62
6
 10
1490.582
 20
-355.213
 30
4336.901
 70
    32
  0
VERTEX
  8
T09SSILL
 62
6
 10
1490.623
 20
-361.666
 30
4336.901
 70
    32
  0
VERTEX
  8
T09SSILL
 62
6
 10
1496.914
 20
-361.692
 30
4336.901
 70
    32
  0
SEQEND
  8
T09SSILL
  0
POLYLINE
  8
T09SSILL
 62
6
 66
     1
 70
     9
  0
VERTEX
  8
T09SSILL
 62
6
 10
1520.412
 20
-366.230
 30
4336.901
 70
    32
  0
VERTEX
  8
T09SSILL
 62
6
 10
1532.400
 20
-358.756
 30
4336.900
 70
    32
  0
VERTEX
  8
T09SSILL
 62
6
 10
1540.083
 20
-361.880
 30
4336.900
 70
    32
  0
VERTEX
  8
T09SSILL
 62
6
 10
1552.057
 20
-359.056
 30
4336.900
 70
    32
  0
VERTEX
  8
T09SSILL
 62
6
 10
1556.216
 20
-355.744
 30
4336.900
 70
    32
  0
VERTEX
  8
T09SSILL
 62
6
 10
1557.967
 20
-350.013
 30
4336.900
 70
    32
  0
VERTEX
  8
T09SSILL
 62
6
 10
1562.936
 20
-342.564
 30
4336.900
 70
    32
  0
VERTEX
  8
T09SSILL
 62
6
 10
1565.708
 20
-340.326
 30
4336.900
 70
    32
  0
VERTEX
  8
T09SSILL
 62
6
 10
1574.391
 20
-334.661
 30
4336.900
 70
    32
  0
VERTEX
  8
T09SSILL
 62
6
 10
1583.291
 20
-331.623
 30
4336.900
 70
    32
  0
VERTEX
  8
T09SSILL
 62
6
 10
1591.019
 20
-326.587
 30
4336.900
 70
    32
  0
VERTEX
  8
T09SSILL
 62
6
 10
1602.250
 20
-315.616
 30
4336.899
 70
    32
  0
VERTEX
  8
T09SSILL
 62
6
 10
1632.996
 20
-296.087
 30
4336.899
 70
    32
  0
VERTEX
  8
T09SSILL
 62
6
 10
1632.795
 20
-288.983
 30
4336.899
 70
    32
  0
VERTEX
  8
T09SSILL
 62
6
 10
1623.197
 20
-281.328
 30
4336.899
 70
    32
  0
VERTEX
  8
T09SSILL
 62
6
 10
1613.470
 20
-276.570
 30
4336.900
 70
    32
  0
VERTEX
  8
T09SSILL
 62
6
 10
1599.745
 20
-285.124
 30
4336.900
 70
    32
  0
VERTEX
  8
T09SSILL
 62
6
 10
1595.681
 20
-283.347
 30
4336.900
 70
    32
  0
VERTEX
  8
T09SSILL
 62
6
 10
1591.032
 20
-272.454
 30
4336.900
 70
    32
  0
VERTEX
  8
T09SSILL
 62
6
 10
1588.847
 20
-261.961
 30
4336.900
 70
    32
  0
VERTEX
  8
T09SSILL
 62
6
 10
1588.519
 20
-257.930
 30
4336.900
 70
    32
  0
VERTEX
  8
T09SSILL
 62
6
 10
1591.922
 20
-245.769
 30
4336.900
 70
    32
  0
VERTEX
  8
T09SSILL
 62
6
 10
1600.872
 20
-245.801
 30
4336.900
 70
    32
  0
VERTEX
  8
T09SSILL
 62
6
 10
1619.866
 20
-243.041
 30
4336.900
 70
    32
  0
VERTEX
  8
T09SSILL
 62
6
 10
1619.912
 20
-229.442
 30
4336.900
 70
    32
  0
VERTEX
  8
T09SSILL
 62
6
 10
1616.226
 20
-223.885
 30
4336.900
 70
    32
  0
VERTEX
  8
T09SSILL
 62
6
 10
1611.708
 20
-210.183
 30
4336.900
 70
    32
  0
VERTEX
  8
T09SSILL
 62
6
 10
1616.473
 20
-200.895
 30
4336.900
 70
    32
  0
VERTEX
  8
T09SSILL
 62
6
 10
1613.105
 20
-192.184
 30
4336.900
 70
    32
  0
VERTEX
  8
T09SSILL
 62
6
 10
1613.438
 20
-182.403
 30
4336.900
 70
    32
  0
VERTEX
  8
T09SSILL
 62
6
 10
1642.664
 20
-183.583
 30
4336.900
 70
    32
  0
VERTEX
  8
T09SSILL
 62
6
 10
1643.420
 20
-176.190
 30
4336.900
 70
    32
  0
VERTEX
  8
T09SSILL
 62
6
 10
1608.152
 20
-174.312
 30
4336.900
 70
    32
  0
VERTEX
  8
T09SSILL
 62
6
 10
1610.438
 20
-169.089
 30
4336.900
 70
    32
  0
VERTEX
  8
T09SSILL
 62
6
 10
1617.624
 20
-162.556
 30
4336.900
 70
    32
  0
VERTEX
  8
T09SSILL
 62
6
 10
1625.278
 20
-157.772
 30
4336.900
 70
    32
  0
VERTEX
  8
T09SSILL
 62
6
 10
1629.291
 20
-150.676
 30
4336.900
 70
    32
  0
VERTEX
  8
T09SSILL
 62
6
 10
1633.887
 20
-146.997
 30
4336.900
 70
    32
  0
VERTEX
  8
T09SSILL
 62
6
 10
1662.310
 20
-149.428
 30
4336.900
 70
    32
  0
VERTEX
  8
T09SSILL
 62
6
 10
1684.663
 20
-146.071
 30
4336.899
 70
    32
  0
VERTEX
  8
T09SSILL
 62
6
 10
1699.147
 20
-150.489
 30
4336.899
 70
    32
  0
VERTEX
  8
T09SSILL
 62
6
 10
1714.301
 20
-147.602
 30
4336.899
 70
    32
  0
VERTEX
  8
T09SSILL
 62
6
 10
1712.761
 20
-139.455
 30
4336.899
 70
    32
  0
VERTEX
  8
T09SSILL
 62
6
 10
1702.429
 20
-141.735
 30
4336.899
 70
    32
  0
VERTEX
  8
T09SSILL
 62
6
 10
1694.394
 20
-139.407
 30
4336.899
 70
    32
  0
VERTEX
  8
T09SSILL
 62
6
 10
1662.894
 20
-142.212
 30
4336.900
 70
    32
  0
VERTEX
  8
T09SSILL
 62
6
 10
1658.839
 20
-141.401
 30
4336.900
 70
    32
  0
VERTEX
  8
T09SSILL
 62
6
 10
1655.946
 20
-136.527
 30
4336.900
 70
    32
  0
VERTEX
  8
T09SSILL
 62
6
 10
1657.897
 20
-132.277
 30
4336.900
 70
    32
  0
VERTEX
  8
T09SSILL
 62
6
 10
1672.532
 20
-113.934
 30
4336.900
 70
    32
  0
VERTEX
  8
T09SSILL
 62
6
 10
1676.009
 20
-106.319
 30
4336.900
 70
    32
  0
VERTEX
  8
T09SSILL
 62
6
 10
1697.130
 20
-89.087
 30
4336.899
 70
    32
  0
VERTEX
  8
T09SSILL
 62
6
 10
1703.776
 20
-85.821
 30
4336.899
 70
    32
  0
VERTEX
  8
T09SSILL
 62
6
 10
1723.234
 20
-79.552
 30
4336.899
 70
    32
  0
VERTEX
  8
T09SSILL
 62
6
 10
1745.937
 20
-78.431
 30
4336.898
 70
    32
  0
VERTEX
  8
T09SSILL
 62
6
 10
1756.734
 20
-82.150
 30
4336.898
 70
    32
  0
VERTEX
  8
T09SSILL
 62
6
 10
1764.001
 20
-73.151
 30
4336.898
 70
    32
  0
VERTEX
  8
T09SSILL
 62
6
 10
1769.812
 20
-60.915
 30
4336.898
 70
    32
  0
VERTEX
  8
T09SSILL
 62
6
 10
1776.368
 20
-63.638
 30
4336.898
 70
    32
  0
VERTEX
  8
T09SSILL
 62
6
 10
1779.401
 20
-66.324
 30
4336.898
 70
    32
  0
VERTEX
  8
T09SSILL
 62
6
 10
1793.471
 20
-83.293
 30
4336.897
 70
    32
  0
VERTEX
  8
T09SSILL
 62
6
 10
1800.272
 20
-78.615
 30
4336.897
 70
    32
  0
VERTEX
  8
T09SSILL
 62
6
 10
1780.406
 20
-56.623
 30
4336.898
 70
    32
  0
VERTEX
  8
T09SSILL
 62
6
 10
1773.149
 20
-54.174
 30
4336.898
 70
    32
  0
VERTEX
  8
T09SSILL
 62
6
 10
1764.183
 20
-43.032
 30
4336.898
 70
    32
  0
VERTEX
  8
T09SSILL
 62
6
 10
1758.509
 20
-40.384
 30
4336.898
 70
    32
  0
VERTEX
  8
T09SSILL
 62
6
 10
1743.155
 20
-38.228
 30
4336.899
 70
    32
  0
VERTEX
  8
T09SSILL
 62
6
 10
1738.188
 20
-35.746
 30
4336.899
 70
    32
  0
VERTEX
  8
T09SSILL
 62
6
 10
1711.792
 20
-12.880
 30
4336.900
 70
    32
  0
VERTEX
  8
T09SSILL
 62
6
 10
1645.511
 20
-26.958
 30
4336.901
 70
    32
  0
VERTEX
  8
T09SSILL
 62
6
 10
1633.947
 20
-31.088
 30
4336.901
 70
    32
  0
VERTEX
  8
T09SSILL
 62
6
 10
1627.399
 20
-41.133
 30
4336.901
 70
    32
  0
VERTEX
  8
T09SSILL
 62
6
 10
1605.232
 20
-98.613
 30
4336.901
 70
    32
  0
VERTEX
  8
T09SSILL
 62
6
 10
1597.673
 20
-125.100
 30
4336.901
 70
    32
  0
VERTEX
  8
T09SSILL
 62
6
 10
1592.326
 20
-136.524
 30
4336.901
 70
    32
  0
VERTEX
  8
T09SSILL
 62
6
 10
1548.549
 20
-135.578
 30
4336.902
 70
    32
  0
VERTEX
  8
T09SSILL
 62
6
 10
1547.973
 20
-143.232
 30
4336.902
 70
    32
  0
VERTEX
  8
T09SSILL
 62
6
 10
1581.633
 20
-143.555
 30
4336.901
 70
    32
  0
VERTEX
  8
T09SSILL
 62
6
 10
1586.824
 20
-143.908
 30
4336.901
 70
    32
  0
VERTEX
  8
T09SSILL
 62
6
 10
1587.813
 20
-145.298
 30
4336.901
 70
    32
  0
VERTEX
  8
T09SSILL
 62
6
 10
1467.663
 20
-276.633
 30
4336.902
 70
    32
  0
VERTEX
  8
T09SSILL
 62
6
 10
1462.545
 20
-280.671
 30
4336.903
 70
    32
  0
VERTEX
  8
T09SSILL
 62
6
 10
1456.531
 20
-288.943
 30
4336.903
 70
    32
  0
VERTEX
  8
T09SSILL
 62
6
 10
1436.637
 20
-329.430
 30
4336.903
 70
    32
  0
VERTEX
  8
T09SSILL
 62
6
 10
1423.667
 20
-352.843
 30
4336.903
 70
    32
  0
VERTEX
  8
T09SSILL
 62
6
 10
1420.985
 20
-365.980
 30
4336.903
 70
    32
  0
VERTEX
  8
T09SSILL
 62
6
 10
1379.299
 20
-443.734
 30
4336.903
 70
    32
  0
VERTEX
  8
T09SSILL
 62
6
 10
1378.890
 20
-445.586
 30
4336.903
 70
    32
  0
VERTEX
  8
T09SSILL
 62
6
 10
1389.596
 20
-465.972
 30
4336.903
 70
    32
  0
VERTEX
  8
T09SSILL
 62
6
 10
1399.736
 20
-478.721
 30
4336.902
 70
    32
  0
VERTEX
  8
T09SSILL
 62
6
 10
1401.002
 20
-491.530
 30
4336.902
 70
    32
  0
VERTEX
  8
T09SSILL
 62
6
 10
1112.732
 20
-1036.626
 30
4336.902
 70
    32
  0
VERTEX
  8
T09SSILL
 62
6
 10
1092.965
 20
-1069.372
 30
4336.904
 70
    32
  0
VERTEX
  8
T09SSILL
 62
6
 10
1082.522
 20
-1079.619
 30
4336.905
 70
    32
  0
VERTEX
  8
T09SSILL
 62
6
 10
1074.930
 20
-1084.469
 30
4336.905
 70
    32
  0
VERTEX
  8
T09SSILL
 62
6
 10
721.952
 20
-1292.340
 30
4336.936
 70
    32
  0
VERTEX
  8
T09SSILL
 62
6
 10
403.689
 20
-1212.976
 30
4336.948
 70
    32
  0
VERTEX
  8
T09SSILL
 62
6
 10
388.849
 20
-1201.905
 30
4336.948
 70
    32
  0
VERTEX
  8
T09SSILL
 62
6
 10
324.006
 20
-1094.601
 30
4336.946
 70
    32
  0
VERTEX
  8
T09SSILL
 62
6
 10
326.950
 20
-1077.403
 30
4336.945
 70
    32
  0
VERTEX
  8
T09SSILL
 62
6
 10
335.246
 20
-1065.768
 30
4336.944
 70
    32
  0
VERTEX
  8
T09SSILL
 62
6
 10
345.745
 20
-1047.591
 30
4336.943
 70
    32
  0
VERTEX
  8
T09SSILL
 62
6
 10
355.879
 20
-1035.228
 30
4336.942
 70
    32
  0
VERTEX
  8
T09SSILL
 62
6
 10
364.759
 20
-1027.808
 30
4336.941
 70
    32
  0
VERTEX
  8
T09SSILL
 62
6
 10
369.170
 20
-1028.719
 30
4336.941
 70
    32
  0
VERTEX
  8
T09SSILL
 62
6
 10
376.212
 20
-1035.667
 30
4336.941
 70
    32
  0
VERTEX
  8
T09SSILL
 62
6
 10
378.425
 20
-1036.606
 30
4336.941
 70
    32
  0
VERTEX
  8
T09SSILL
 62
6
 10
379.999
 20
-1035.882
 30
4336.941
 70
    32
  0
VERTEX
  8
T09SSILL
 62
6
 10
383.619
 20
-1030.027
 30
4336.941
 70
    32
  0
VERTEX
  8
T09SSILL
 62
6
 10
381.825
 20
-1027.410
 30
4336.941
 70
    32
  0
VERTEX
  8
T09SSILL
 62
6
 10
378.034
 20
-1026.844
 30
4336.941
 70
    32
  0
VERTEX
  8
T09SSILL
 62
6
 10
374.303
 20
-1024.164
 30
4336.941
 70
    32
  0
VERTEX
  8
T09SSILL
 62
6
 10
373.781
 20
-1017.923
 30
4336.941
 70
    32
  0
VERTEX
  8
T09SSILL
 62
6
 10
383.979
 20
-996.847
 30
4336.939
 70
    32
  0
VERTEX
  8
T09SSILL
 62
6
 10
389.671
 20
-987.973
 30
4336.939
 70
    32
  0
VERTEX
  8
T09SSILL
 62
6
 10
395.857
 20
-983.229
 30
4336.938
 70
    32
  0
VERTEX
  8
T09SSILL
 62
6
 10
385.605
 20
-980.805
 30
4336.939
 70
    32
  0
VERTEX
  8
T09SSILL
 62
6
 10
381.216
 20
-984.790
 30
4336.939
 70
    32
  0
VERTEX
  8
T09SSILL
 62
6
 10
378.829
 20
-987.843
 30
4336.939
 70
    32
  0
VERTEX
  8
T09SSILL
 62
6
 10
378.593
 20
-992.427
 30
4336.939
 70
    32
  0
VERTEX
  8
T09SSILL
 62
6
 10
375.883
 20
-996.633
 30
4336.940
 70
    32
  0
VERTEX
  8
T09SSILL
 62
6
 10
366.653
 20
-1004.085
 30
4336.940
 70
    32
  0
VERTEX
  8
T09SSILL
 62
6
 10
348.903
 20
-1026.190
 30
4336.942
 70
    32
  0
VERTEX
  8
T09SSILL
 62
6
 10
317.700
 20
-1076.629
 30
4336.945
 70
    32
  0
VERTEX
  8
T09SSILL
 62
6
 10
314.066
 20
-1075.665
 30
4336.945
 70
    32
  0
VERTEX
  8
T09SSILL
 62
6
 10
297.897
 20
-1052.483
 30
4336.945
 70
    32
  0
VERTEX
  8
T09SSILL
 62
6
 10
257.477
 20
-985.902
 30
4336.943
 70
    32
  0
VERTEX
  8
T09SSILL
 62
6
 10
246.518
 20
-969.980
 30
4336.943
 70
    32
  0
VERTEX
  8
T09SSILL
 62
6
 10
245.888
 20
-961.482
 30
4336.943
 70
    32
  0
VERTEX
  8
T09SSILL
 62
6
 10
247.000
 20
-956.000
 30
4336.942
 70
    32
  0
VERTEX
  8
T09SSILL
 62
6
 10
416.000
 20
-774.000
 30
4336.928
 70
    32
  0
VERTEX
  8
T09SSILL
 62
6
 10
423.000
 20
-770.000
 30
4336.928
 70
    32
  0
VERTEX
  8
T09SSILL
 62
6
 10
430.000
 20
-763.000
 30
4336.927
 70
    32
  0
VERTEX
  8
T09SSILL
 62
6
 10
442.000
 20
-747.000
 30
4336.926
 70
    32
  0
VERTEX
  8
T09SSILL
 62
6
 10
479.000
 20
-725.000
 30
4336.924
 70
    32
  0
VERTEX
  8
T09SSILL
 62
6
 10
495.000
 20
-720.000
 30
4336.923
 70
    32
  0
VERTEX
  8
T09SSILL
 62
6
 10
494.000
 20
-714.000
 30
4336.923
 70
    32
  0
VERTEX
  8
T09SSILL
 62
6
 10
476.000
 20
-719.000
 30
4336.924
 70
    32
  0
VERTEX
  8
T09SSILL
 62
6
 10
440.000
 20
-739.000
 30
4336.926
 70
    32
  0
VERTEX
  8
T09SSILL
 62
6
 10
415.000
 20
-764.000
 30
4336.928
 70
    32
  0
VERTEX
  8
T09SSILL
 62
6
 10
381.000
 20
-771.000
 30
4336.929
 70
    32
  0
VERTEX
  8
T09SSILL
 62
6
 10
382.000
 20
-779.000
 30
4336.930
 70
    32
  0
VERTEX
  8
T09SSILL
 62
6
 10
407.000
 20
-774.000
 30
4336.929
 70
    32
  0
VERTEX
  8
T09SSILL
 62
6
 10
404.000
 20
-778.000
 30
4336.929
 70
    32
  0
VERTEX
  8
T09SSILL
 62
6
 10
391.000
 20
-787.000
 30
4336.930
 70
    32
  0
VERTEX
  8
T09SSILL
 62
6
 10
386.000
 20
-783.000
 30
4336.930
 70
    32
  0
VERTEX
  8
T09SSILL
 62
6
 10
379.000
 20
-782.000
 30
4336.930
 70
    32
  0
VERTEX
  8
T09SSILL
 62
6
 10
373.000
 20
-774.000
 30
4336.930
 70
    32
  0
VERTEX
  8
T09SSILL
 62
6
 10
368.000
 20
-778.000
 30
4336.930
 70
    32
  0
VERTEX
  8
T09SSILL
 62
6
 10
377.000
 20
-790.000
 30
4336.930
 70
    32
  0
VERTEX
  8
T09SSILL
 62
6
 10
376.000
 20
-795.000
 30
4336.931
 70
    32
  0
VERTEX
  8
T09SSILL
 62
6
 10
379.000
 20
-800.000
 30
4336.931
 70
    32
  0
VERTEX
  8
T09SSILL
 62
6
 10
335.000
 20
-846.000
 30
4336.934
 70
    32
  0
VERTEX
  8
T09SSILL
 62
6
 10
330.000
 20
-856.000
 30
4336.935
 70
    32
  0
VERTEX
  8
T09SSILL
 62
6
 10
211.000
 20
-981.000
 30
4336.945
 70
    32
  0
VERTEX
  8
T09SSILL
 62
6
 10
201.000
 20
-987.000
 30
4336.945
 70
    32
  0
VERTEX
  8
T09SSILL
 62
6
 10
201.000
 20
-985.000
 30
4336.945
 70
    32
  0
VERTEX
  8
T09SSILL
 62
6
 10
199.000
 20
-984.000
 30
4336.945
 70
    32
  0
VERTEX
  8
T09SSILL
 62
6
 10
193.000
 20
-985.000
 30
4336.945
 70
    32
  0
VERTEX
  8
T09SSILL
 62
6
 10
188.000
 20
-984.000
 30
4336.946
 70
    32
  0
VERTEX
  8
T09SSILL
 62
6
 10
183.000
 20
-987.000
 30
4336.946
 70
    32
  0
VERTEX
  8
T09SSILL
 62
6
 10
174.000
 20
-980.000
 30
4336.946
 70
    32
  0
VERTEX
  8
T09SSILL
 62
6
 10
167.000
 20
-955.000
 30
4336.945
 70
    32
  0
VERTEX
  8
T09SSILL
 62
6
 10
64.000
 20
-811.000
 30
4336.942
 70
    32
  0
VERTEX
  8
T09SSILL
 62
6
 10
59.000
 20
-811.000
 30
4336.943
 70
    32
  0
VERTEX
  8
T09SSILL
 62
6
 10
-5.000
 20
-721.000
 30
4336.941
 70
    32
  0
VERTEX
  8
T09SSILL
 62
6
 10
-32.000
 20
-690.000
 30
4336.940
 70
    32
  0
VERTEX
  8
T09SSILL
 62
6
 10
-34.000
 20
-686.000
 30
4336.940
 70
    32
  0
VERTEX
  8
T09SSILL
 62
6
 10
-39.000
 20
-682.000
 30
4336.940
 70
    32
  0
VERTEX
  8
T09SSILL
 62
6
 10
-43.000
 20
-680.000
 30
4336.940
 70
    32
  0
VERTEX
  8
T09SSILL
 62
6
 10
-53.000
 20
-680.000
 30
4336.941
 70
    32
  0
VERTEX
  8
T09SSILL
 62
6
 10
-115.000
 20
-689.000
 30
4336.943
 70
    32
  0
VERTEX
  8
T09SSILL
 62
6
 10
-137.000
 20
-691.000
 30
4336.944
 70
    32
  0
VERTEX
  8
T09SSILL
 62
6
 10
-147.000
 20
-694.000
 30
4336.945
 70
    32
  0
VERTEX
  8
T09SSILL
 62
6
 10
-157.000
 20
-691.000
 30
4336.945
 70
    32
  0
VERTEX
  8
T09SSILL
 62
6
 10
-168.621
 20
-679.668
 30
4336.945
 70
    32
  0
VERTEX
  8
T09SSILL
 62
6
 10
-169.419
 20
-680.885
 30
4336.945
 70
    32
  0
VERTEX
  8
T09SSILL
 62
6
 10
-174.982
 20
-675.394
 30
4336.945
 70
    32
  0
VERTEX
  8
T09SSILL
 62
6
 10
-173.646
 20
-673.870
 30
4336.945
 70
    32
  0
VERTEX
  8
T09SSILL
 62
6
 10
-177.000
 20
-670.000
 30
4336.945
 70
    32
  0
VERTEX
  8
T09SSILL
 62
6
 10
-226.461
 20
-621.444
 30
4336.944
 70
    32
  0
VERTEX
  8
T09SSILL
 62
6
 10
-227.977
 20
-624.900
 30
4336.944
 70
    32
  0
VERTEX
  8
T09SSILL
 62
6
 10
-237.831
 20
-619.856
 30
4336.945
 70
    32
  0
VERTEX
  8
T09SSILL
 62
6
 10
-236.599
 20
-617.165
 30
4336.944
 70
    32
  0
VERTEX
  8
T09SSILL
 62
6
 10
-396.000
 20
-597.000
 30
4336.949
 70
    32
  0
VERTEX
  8
T09SSILL
 62
6
 10
-572.000
 20
-401.000
 30
4336.947
 70
    32
  0
VERTEX
  8
T09SSILL
 62
6
 10
-634.000
 20
-389.000
 30
4336.948
 70
    32
  0
VERTEX
  8
T09SSILL
 62
6
 10
-701.000
 20
-378.000
 30
4336.982
 70
    32
  0
VERTEX
  8
T09SSILL
 62
6
 10
-717.000
 20
-381.000
 30
4337.092
 70
    32
  0
VERTEX
  8
T09SSILL
 62
6
 10
-723.000
 20
-381.000
 30
4337.131
 70
    32
  0
VERTEX
  8
T09SSILL
 62
6
 10
-740.000
 20
-378.000
 30
4337.235
 70
    32
  0
VERTEX
  8
T09SSILL
 62
6
 10
-758.000
 20
-392.000
 30
4337.382
 70
    32
  0
VERTEX
  8
T09SSILL
 62
6
 10
-753.000
 20
-398.000
 30
4337.363
 70
    32
  0
VERTEX
  8
T09SSILL
 62
6
 10
-738.000
 20
-386.000
 30
4337.239
 70
    32
  0
VERTEX
  8
T09SSILL
 62
6
 10
-704.000
 20
-396.000
 30
4337.054
 70
    32
  0
VERTEX
  8
T09SSILL
 62
6
 10
-590.000
 20
-411.000
 30
4336.948
 70
    32
  0
VERTEX
  8
T09SSILL
 62
6
 10
-559.000
 20
-426.000
 30
4336.947
 70
    32
  0
VERTEX
  8
T09SSILL
 62
6
 10
-52.278
 20
-997.366
 30
4337.251
 70
    32
  0
VERTEX
  8
T09SSILL
 62
6
 10
162.394
 20
-1574.142
 30
4338.397
 70
    32
  0
VERTEX
  8
T09SSILL
 62
6
 10
174.120
 20
-1595.707
 30
4338.363
 70
    32
  0
VERTEX
  8
T09SSILL
 62
6
 10
208.439
 20
-1636.051
 30
4338.258
 70
    32
  0
VERTEX
  8
T09SSILL
 62
6
 10
207.869
 20
-1639.401
 30
4338.261
 70
    32
  0
VERTEX
  8
T09SSILL
 62
6
 10
203.786
 20
-1643.150
 30
4338.276
 70
    32
  0
VERTEX
  8
T09SSILL
 62
6
 10
-218.293
 20
-1944.746
 30
4339.831
 70
    32
  0
VERTEX
  8
T09SSILL
 62
6
 10
-243.351
 20
-1947.304
 30
4339.918
 70
    32
  0
VERTEX
  8
T09SSILL
 62
6
 10
-280.901
 20
-1974.183
 30
4340.056
 70
    32
  0
VERTEX
  8
T09SSILL
 62
6
 10
-288.386
 20
-1976.567
 30
4340.083
 70
    32
  0
VERTEX
  8
T09SSILL
 62
6
 10
-293.210
 20
-1975.590
 30
4340.099
 70
    32
  0
VERTEX
  8
T09SSILL
 62
6
 10
-319.297
 20
-1950.094
 30
4340.181
 70
    32
  0
VERTEX
  8
T09SSILL
 62
6
 10
-324.034
 20
-1954.974
 30
4340.199
 70
    32
  0
VERTEX
  8
T09SSILL
 62
6
 10
-305.571
 20
-1973.500
 30
4340.141
 70
    32
  0
VERTEX
  8
T09SSILL
 62
6
 10
-301.486
 20
-1983.583
 30
4340.130
 70
    32
  0
VERTEX
  8
T09SSILL
 62
6
 10
-302.711
 20
-1989.372
 30
4340.136
 70
    32
  0
VERTEX
  8
T09SSILL
 62
6
 10
-325.533
 20
-2007.113
 30
4340.221
 70
    32
  0
VERTEX
  8
T09SSILL
 62
6
 10
-337.067
 20
-2007.634
 30
4340.261
 70
    32
  0
VERTEX
  8
T09SSILL
 62
6
 10
-341.145
 20
-2015.652
 30
4340.278
 70
    32
  0
VERTEX
  8
T09SSILL
 62
6
 10
-344.585
 20
-2019.550
 30
4340.291
 70
    32
  0
VERTEX
  8
T09SSILL
 62
6
 10
-415.955
 20
-2071.416
 30
4340.554
 70
    32
  0
VERTEX
  8
T09SSILL
 62
6
 10
-434.710
 20
-2103.874
 30
4340.629
 70
    32
  0
VERTEX
  8
T09SSILL
 62
6
 10
-450.165
 20
-2122.991
 30
4340.689
 70
    32
  0
VERTEX
  8
T09SSILL
 62
6
 10
-458.503
 20
-2138.593
 30
4340.722
 70
    32
  0
VERTEX
  8
T09SSILL
 62
6
 10
-464.309
 20
-2153.894
 30
4340.747
 70
    32
  0
VERTEX
  8
T09SSILL
 62
6
 10
-542.566
 20
-2213.032
 30
4341.037
 70
    32
  0
VERTEX
  8
T09SSILL
 62
6
 10
-1030.213
 20
-2249.924
 30
4342.733
 70
    32
  0
VERTEX
  8
T09SSILL
 62
6
 10
-1129.192
 20
-2320.913
 30
4343.098
 70
    32
  0
VERTEX
  8
T09SSILL
 62
6
 10
-1135.679
 20
-2319.873
 30
4343.120
 70
    32
  0
VERTEX
  8
T09SSILL
 62
6
 10
-1146.052
 20
-2310.321
 30
4343.223
 70
    32
  0
VERTEX
  8
T09SSILL
 62
6
 10
-1157.109
 20
-2295.882
 30
4343.498
 70
    32
  0
VERTEX
  8
T09SSILL
 62
6
 10
-1157.413
 20
-2293.089
 30
4343.287
 70
    32
  0
VERTEX
  8
T09SSILL
 62
6
 10
-1152.165
 20
-2287.327
 30
4343.166
 70
    32
  0
VERTEX
  8
T09SSILL
 62
6
 10
-1139.369
 20
-2283.376
 30
4343.121
 70
    32
  0
VERTEX
  8
T09SSILL
 62
6
 10
-1135.259
 20
-2277.544
 30
4343.105
 70
    32
  0
VERTEX
  8
T09SSILL
 62
6
 10
-1115.649
 20
-2261.425
 30
4343.032
 70
    32
  0
VERTEX
  8
T09SSILL
 62
6
 10
-1117.172
 20
-2253.053
 30
4343.034
 70
    32
  0
VERTEX
  8
T09SSILL
 62
6
 10
-1126.464
 20
-2257.389
 30
4343.068
 70
    32
  0
VERTEX
  8
T09SSILL
 62
6
 10
-1134.492
 20
-2258.557
 30
4343.096
 70
    32
  0
VERTEX
  8
T09SSILL
 62
6
 10
-1138.651
 20
-2261.068
 30
4343.111
 70
    32
  0
VERTEX
  8
T09SSILL
 62
6
 10
-1148.716
 20
-2272.235
 30
4343.149
 70
    32
  0
VERTEX
  8
T09SSILL
 62
6
 10
-1164.047
 20
-2281.729
 30
4343.205
 70
    32
  0
VERTEX
  8
T09SSILL
 62
6
 10
-1188.524
 20
-2253.152
 30
4344.124
 70
    32
  0
VERTEX
  8
T09SSILL
 62
6
 10
-1176.926
 20
-2245.110
 30
4343.238
 70
    32
  0
VERTEX
  8
T09SSILL
 62
6
 10
-1155.508
 20
-2232.987
 30
4343.160
 70
    32
  0
VERTEX
  8
T09SSILL
 62
6
 10
-1142.126
 20
-2221.420
 30
4343.110
 70
    32
  0
VERTEX
  8
T09SSILL
 62
6
 10
-1150.042
 20
-2212.444
 30
4343.135
 70
    32
  0
VERTEX
  8
T09SSILL
 62
6
 10
-1170.631
 20
-2227.440
 30
4343.211
 70
    32
  0
VERTEX
  8
T09SSILL
 62
6
 10
-1195.424
 20
-2241.975
 30
4344.098
 70
    32
  0
VERTEX
  8
T09SSILL
 62
6
 10
-1201.463
 20
-2235.681
 30
4344.393
 70
    32
  0
VERTEX
  8
T09SSILL
 62
6
 10
-1210.087
 20
-2214.386
 30
4343.691
 70
    32
  0
VERTEX
  8
T09SSILL
 62
6
 10
-1206.450
 20
-2206.112
 30
4343.328
 70
    32
  0
VERTEX
  8
T09SSILL
 62
6
 10
-1202.651
 20
-2202.820
 30
4343.313
 70
    32
  0
VERTEX
  8
T09SSILL
 62
6
 10
-1191.162
 20
-2199.239
 30
4343.273
 70
    32
  0
VERTEX
  8
T09SSILL
 62
6
 10
-1185.628
 20
-2189.188
 30
4343.250
 70
    32
  0
VERTEX
  8
T09SSILL
 62
6
 10
-1171.090
 20
-2178.916
 30
4343.197
 70
    32
  0
VERTEX
  8
T09SSILL
 62
6
 10
-1176.908
 20
-2169.909
 30
4343.198
 70
    32
  0
VERTEX
  8
T09SSILL
 62
6
 10
-1197.169
 20
-2183.414
 30
4343.283
 70
    32
  0
VERTEX
  8
T09SSILL
 62
6
 10
-1206.496
 20
-2191.247
 30
4343.323
 70
    32
  0
VERTEX
  8
T09SSILL
 62
6
 10
-1215.276
 20
-2194.701
 30
4343.354
 70
    32
  0
VERTEX
  8
T09SSILL
 62
6
 10
-1225.575
 20
-2172.468
 30
4343.443
 70
    32
  0
VERTEX
  8
T09SSILL
 62
6
 10
-1227.640
 20
-2162.968
 30
4343.469
 70
    32
  0
VERTEX
  8
T09SSILL
 62
6
 10
-1208.560
 20
-2146.507
 30
4343.234
 70
    32
  0
VERTEX
  8
T09SSILL
 62
6
 10
-1206.199
 20
-2140.613
 30
4343.205
 70
    32
  0
VERTEX
  8
T09SSILL
 62
6
 10
-1144.557
 20
-2099.123
 30
4342.920
 70
    32
  0
VERTEX
  8
T09SSILL
 62
6
 10
-1149.218
 20
-2091.410
 30
4342.909
 70
    32
  0
VERTEX
  8
T09SSILL
 62
6
 10
-1211.080
 20
-2135.789
 30
4343.265
 70
    32
  0
VERTEX
  8
T09SSILL
 62
6
 10
-1220.993
 20
-2139.522
 30
4343.387
 70
    32
  0
VERTEX
  8
T09SSILL
 62
6
 10
-1234.782
 20
-2147.247
 30
4343.557
 70
    32
  0
VERTEX
  8
T09SSILL
 62
6
 10
-1239.798
 20
-2145.135
 30
4343.618
 70
    32
  0
VERTEX
  8
T09SSILL
 62
6
 10
-1251.829
 20
-2129.924
 30
4343.767
 70
    32
  0
VERTEX
  8
T09SSILL
 62
6
 10
-1253.094
 20
-2121.286
 30
4343.782
 70
    32
  0
VERTEX
  8
T09SSILL
 62
6
 10
-1217.852
 20
-2091.993
 30
4343.349
 70
    32
  0
VERTEX
  8
T09SSILL
 62
6
 10
-1190.598
 20
-2078.384
 30
4343.014
 70
    32
  0
VERTEX
  8
T09SSILL
 62
6
 10
-1186.931
 20
-2072.121
 30
4342.969
 70
    32
  0
VERTEX
  8
T09SSILL
 62
6
 10
-1163.670
 20
-2060.408
 30
4342.853
 70
    32
  0
VERTEX
  8
T09SSILL
 62
6
 10
-1166.544
 20
-2055.291
 30
4342.845
 70
    32
  0
VERTEX
  8
T09SSILL
 62
6
 10
-1173.018
 20
-2049.179
 30
4342.842
 70
    32
  0
VERTEX
  8
T09SSILL
 62
6
 10
-1194.886
 20
-2060.522
 30
4343.067
 70
    32
  0
VERTEX
  8
T09SSILL
 62
6
 10
-1198.335
 20
-2057.863
 30
4343.110
 70
    32
  0
VERTEX
  8
T09SSILL
 62
6
 10
-1199.622
 20
-2053.684
 30
4343.126
 70
    32
  0
VERTEX
  8
T09SSILL
 62
6
 10
-1200.533
 20
-2039.445
 30
4343.137
 70
    32
  0
VERTEX
  8
T09SSILL
 62
6
 10
-1202.816
 20
-2032.920
 30
4343.165
 70
    32
  0
VERTEX
  8
T09SSILL
 62
6
 10
-1208.594
 20
-2032.482
 30
4343.236
 70
    32
  0
VERTEX
  8
T09SSILL
 62
6
 10
-1216.348
 20
-2034.346
 30
4343.332
 70
    32
  0
VERTEX
  8
T09SSILL
 62
6
 10
-1217.555
 20
-2053.164
 30
4343.346
 70
    32
  0
VERTEX
  8
T09SSILL
 62
6
 10
-1209.765
 20
-2065.465
 30
4343.250
 70
    32
  0
VERTEX
  8
T09SSILL
 62
6
 10
-1207.847
 20
-2070.946
 30
4343.227
 70
    32
  0
VERTEX
  8
T09SSILL
 62
6
 10
-1222.956
 20
-2078.078
 30
4343.412
 70
    32
  0
VERTEX
  8
T09SSILL
 62
6
 10
-1225.845
 20
-2077.859
 30
4343.448
 70
    32
  0
VERTEX
  8
T09SSILL
 62
6
 10
-1258.409
 20
-2104.926
 30
4343.848
 70
    32
  0
VERTEX
  8
T09SSILL
 62
6
 10
-1267.397
 20
-2106.196
 30
4343.959
 70
    32
  0
VERTEX
  8
T09SSILL
 62
6
 10
-1272.447
 20
-2101.724
 30
4344.021
 70
    32
  0
VERTEX
  8
T09SSILL
 62
6
 10
-1283.171
 20
-2086.231
 30
4344.153
 70
    32
  0
VERTEX
  8
T09SSILL
 62
6
 10
-1286.452
 20
-2083.132
 30
4344.193
 70
    32
  0
VERTEX
  8
T09SSILL
 62
6
 10
-1285.295
 20
-2078.655
 30
4344.179
 70
    32
  0
VERTEX
  8
T09SSILL
 62
6
 10
-1282.124
 20
-2074.323
 30
4344.140
 70
    32
  0
VERTEX
  8
T09SSILL
 62
6
 10
-1273.297
 20
-2068.071
 30
4344.032
 70
    32
  0
VERTEX
  8
T09SSILL
 62
6
 10
-1279.179
 20
-2060.638
 30
4344.104
 70
    32
  0
VERTEX
  8
T09SSILL
 62
6
 10
-1288.435
 20
-2067.422
 30
4344.218
 70
    32
  0
VERTEX
  8
T09SSILL
 62
6
 10
-1295.772
 20
-2067.968
 30
4344.308
 70
    32
  0
VERTEX
  8
T09SSILL
 62
6
 10
-1316.929
 20
-2037.521
 30
4344.569
 70
    32
  0
VERTEX
  8
T09SSILL
 62
6
 10
-1321.099
 20
-2036.814
 30
4344.620
 70
    32
  0
VERTEX
  8
T09SSILL
 62
6
 10
-1398.942
 20
-1934.881
 30
4345.580
 70
    32
  0
VERTEX
  8
T09SSILL
 62
6
 10
-1398.581
 20
-1930.901
 30
4345.575
 70
    32
  0
VERTEX
  8
T09SSILL
 62
6
 10
-1396.541
 20
-1927.027
 30
4345.550
 70
    32
  0
VERTEX
  8
T09SSILL
 62
6
 10
-1352.368
 20
-1896.276
 30
4345.007
 70
    32
  0
VERTEX
  8
T09SSILL
 62
6
 10
-1357.899
 20
-1890.428
 30
4345.075
 70
    32
  0
VERTEX
  8
T09SSILL
 62
6
 10
-1407.140
 20
-1924.299
 30
4345.681
 70
    32
  0
VERTEX
  8
T09SSILL
 62
6
 10
-1518.222
 20
-1777.681
 30
4347.050
 70
    32
  0
VERTEX
  8
T09SSILL
 62
6
 10
-1520.562
 20
-1772.316
 30
4347.078
 70
    32
  0
VERTEX
  8
T09SSILL
 62
6
 10
-1519.398
 20
-1766.452
 30
4347.064
 70
    32
  0
VERTEX
  8
T09SSILL
 62
6
 10
-1516.863
 20
-1763.879
 30
4347.033
 70
    32
  0
VERTEX
  8
T09SSILL
 62
6
 10
-1462.263
 20
-1723.351
 30
4346.362
 70
    32
  0
VERTEX
  8
T09SSILL
 62
6
 10
-1467.355
 20
-1717.486
 30
4346.425
 70
    32
  0
VERTEX
  8
T09SSILL
 62
6
 10
-1498.253
 20
-1739.134
 30
4346.805
 70
    32
  0
VERTEX
  8
T09SSILL
 62
6
 10
-1503.973
 20
-1741.400
 30
4346.875
 70
    32
  0
VERTEX
  8
T09SSILL
 62
6
 10
-1515.365
 20
-1719.763
 30
4347.015
 70
    32
  0
VERTEX
  8
T09SSILL
 62
6
 10
-1517.100
 20
-1714.109
 30
4347.005
 70
    32
  0
VERTEX
  8
T09SSILL
 62
6
 10
-1512.478
 20
-1702.462
 30
4346.917
 70
    32
  0
VERTEX
  8
T09SSILL
 62
6
 10
-1514.815
 20
-1695.071
 30
4346.861
 70
    32
  0
VERTEX
  8
T09SSILL
 62
6
 10
-1520.386
 20
-1690.370
 30
4346.825
 70
    32
  0
VERTEX
  8
T09SSILL
 62
6
 10
-1534.521
 20
-1649.553
 30
4346.515
 70
    32
  0
VERTEX
  8
T09SSILL
 62
6
 10
-1555.521
 20
-1604.707
 30
4346.175
 70
    32
  0
VERTEX
  8
T09SSILL
 62
6
 10
-1560.202
 20
-1600.234
 30
4346.140
 70
    32
  0
VERTEX
  8
T09SSILL
 62
6
 10
-1567.948
 20
-1577.299
 30
4345.966
 70
    32
  0
VERTEX
  8
T09SSILL
 62
6
 10
-1573.232
 20
-1564.745
 30
4345.871
 70
    32
  0
VERTEX
  8
T09SSILL
 62
6
 10
-1575.560
 20
-1561.759
 30
4345.848
 70
    32
  0
VERTEX
  8
T09SSILL
 62
6
 10
-1509.403
 20
-1515.284
 30
4345.500
 70
    32
  0
VERTEX
  8
T09SSILL
 62
6
 10
-1513.700
 20
-1509.473
 30
4345.456
 70
    32
  0
VERTEX
  8
T09SSILL
 62
6
 10
-1579.523
 20
-1555.494
 30
4345.801
 70
    32
  0
VERTEX
  8
T09SSILL
 62
6
 10
-1588.054
 20
-1541.138
 30
4345.692
 70
    32
  0
VERTEX
  8
T09SSILL
 62
6
 10
-1593.540
 20
-1544.804
 30
4345.719
 70
    32
  0
VERTEX
  8
T09SSILL
 62
6
 10
-1585.275
 20
-1559.083
 30
4345.828
 70
    32
  0
VERTEX
  8
T09SSILL
 62
6
 10
-1647.673
 20
-1602.757
 30
4346.155
 70
    32
  0
VERTEX
  8
T09SSILL
 62
6
 10
-1643.263
 20
-1609.180
 30
4346.203
 70
    32
  0
VERTEX
  8
T09SSILL
 62
6
 10
-1581.708
 20
-1566.422
 30
4345.883
 70
    32
  0
VERTEX
  8
T09SSILL
 62
6
 10
-1572.779
 20
-1586.048
 30
4346.032
 70
    32
  0
VERTEX
  8
T09SSILL
 62
6
 10
-1568.459
 20
-1598.730
 30
4346.129
 70
    32
  0
VERTEX
  8
T09SSILL
 62
6
 10
-1560.881
 20
-1609.249
 30
4346.209
 70
    32
  0
VERTEX
  8
T09SSILL
 62
6
 10
-1529.543
 20
-1682.120
 30
4346.762
 70
    32
  0
VERTEX
  8
T09SSILL
 62
6
 10
-1526.091
 20
-1692.989
 30
4346.845
 70
    32
  0
VERTEX
  8
T09SSILL
 62
6
 10
-1521.469
 20
-1698.169
 30
4346.884
 70
    32
  0
VERTEX
  8
T09SSILL
 62
6
 10
-1522.074
 20
-1708.943
 30
4346.966
 70
    32
  0
VERTEX
  8
T09SSILL
 62
6
 10
-1524.835
 20
-1706.152
 30
4346.944
 70
    32
  0
VERTEX
  8
T09SSILL
 62
6
 10
-1530.664
 20
-1710.008
 30
4346.973
 70
    32
  0
VERTEX
  8
T09SSILL
 62
6
 10
-1509.821
 20
-1744.817
 30
4346.947
 70
    32
  0
VERTEX
  8
T09SSILL
 62
6
 10
-1509.366
 20
-1747.265
 30
4346.941
 70
    32
  0
VERTEX
  8
T09SSILL
 62
6
 10
-1526.165
 20
-1760.569
 30
4347.148
 70
    32
  0
VERTEX
  8
T09SSILL
 62
6
 10
-1530.078
 20
-1761.790
 30
4347.196
 70
    32
  0
VERTEX
  8
T09SSILL
 62
6
 10
-1611.107
 20
-1655.320
 30
4346.555
 70
    32
  0
VERTEX
  8
T09SSILL
 62
6
 10
-1617.090
 20
-1659.712
 30
4346.587
 70
    32
  0
VERTEX
  8
T09SSILL
 62
6
 10
-1538.404
 20
-1763.382
 30
4347.340
 70
    32
  0
VERTEX
  8
T09SSILL
 62
6
 10
-1326.870
 20
-2042.078
 30
4344.691
 70
    32
  0
VERTEX
  8
T09SSILL
 62
6
 10
-1327.549
 20
-2048.979
 30
4344.710
 70
    32
  0
VERTEX
  8
T09SSILL
 62
6
 10
-1318.046
 20
-2065.497
 30
4344.622
 70
    32
  0
VERTEX
  8
T09SSILL
 62
6
 10
-1313.264
 20
-2076.574
 30
4344.600
 70
    32
  0
VERTEX
  8
T09SSILL
 62
6
 10
-1288.781
 20
-2102.929
 30
4344.239
 70
    32
  0
VERTEX
  8
T09SSILL
 62
6
 10
-1268.636
 20
-2128.687
 30
4343.975
 70
    32
  0
VERTEX
  8
T09SSILL
 62
6
 10
-1246.670
 20
-2165.174
 30
4343.756
 70
    32
  0
VERTEX
  8
T09SSILL
 62
6
 10
-1232.597
 20
-2170.736
 30
4343.529
 70
    32
  0
VERTEX
  8
T09SSILL
 62
6
 10
-1219.848
 20
-2204.825
 30
4343.640
 70
    32
  0
VERTEX
  8
T09SSILL
 62
6
 10
-1220.794
 20
-2211.747
 30
4343.828
 70
    32
  0
VERTEX
  8
T09SSILL
 62
6
 10
-1209.296
 20
-2232.300
 30
4344.707
 70
    32
  0
VERTEX
  8
T09SSILL
 62
6
 10
-1216.930
 20
-2242.294
 30
4344.837
 70
    32
  0
VERTEX
  8
T09SSILL
 62
6
 10
-1214.973
 20
-2256.256
 30
4345.303
 70
    32
  0
VERTEX
  8
T09SSILL
 62
6
 10
-1213.884
 20
-2258.951
 30
4345.409
 70
    32
  0
VERTEX
  8
T09SSILL
 62
6
 10
-1203.675
 20
-2263.346
 30
4345.771
 70
    32
  0
VERTEX
  8
T09SSILL
 62
6
 10
-1187.944
 20
-2280.426
 30
4346.534
 70
    32
  0
VERTEX
  8
T09SSILL
 62
6
 10
-1184.518
 20
-2287.370
 30
4346.674
 70
    32
  0
VERTEX
  8
T09SSILL
 62
6
 10
-1182.569
 20
-2294.949
 30
4347.086
 70
    32
  0
VERTEX
  8
T09SSILL
 62
6
 10
-1205.179
 20
-2309.276
 30
4347.125
 70
    32
  0
VERTEX
  8
T09SSILL
 62
6
 10
-1196.899
 20
-2319.209
 30
4347.611
 70
    32
  0
VERTEX
  8
T09SSILL
 62
6
 10
-1178.150
 20
-2308.835
 30
4347.718
 70
    32
  0
VERTEX
  8
T09SSILL
 62
6
 10
-1172.701
 20
-2305.820
 30
4346.656
 70
    32
  0
VERTEX
  8
T09SSILL
 62
6
 10
-1166.265
 20
-2315.256
 30
4346.590
 70
    32
  0
VERTEX
  8
T09SSILL
 62
6
 10
-1149.607
 20
-2329.961
 30
4345.532
 70
    32
  0
VERTEX
  8
T09SSILL
 62
6
 10
-1149.442
 20
-2335.205
 30
4345.987
 70
    32
  0
VERTEX
  8
T09SSILL
 62
6
 10
-1164.535
 20
-2345.916
 30
4349.143
 70
    32
  0
VERTEX
  8
T09SSILL
 62
6
 10
-1306.654
 20
-2446.771
 30
4349.002
 70
    32
  0
VERTEX
  8
T09SSILL
 62
6
 10
-1301.680
 20
-2452.893
 30
4349.299
 70
    32
  0
VERTEX
  8
T09SSILL
 62
6
 10
-1167.655
 20
-2357.074
 30
4349.260
 70
    32
  0
VERTEX
  8
T09SSILL
 62
6
 10
-1165.828
 20
-2356.435
 30
4349.245
 70
    32
  0
VERTEX
  8
T09SSILL
 62
6
 10
-1159.337
 20
-2363.684
 30
4349.002
 70
    32
  0
VERTEX
  8
T09SSILL
 62
6
 10
-1151.808
 20
-2364.271
 30
4348.877
 70
    32
  0
VERTEX
  8
T09SSILL
 62
6
 10
-1147.815
 20
-2368.147
 30
4348.739
 70
    32
  0
VERTEX
  8
T09SSILL
 62
6
 10
-1143.524
 20
-2374.467
 30
4348.548
 70
    32
  0
VERTEX
  8
T09SSILL
 62
6
 10
-1140.493
 20
-2384.215
 30
4348.306
 70
    32
  0
VERTEX
  8
T09SSILL
 62
6
 10
-1154.516
 20
-2393.867
 30
4348.321
 70
    32
  0
VERTEX
  8
T09SSILL
 62
6
 10
-1147.272
 20
-2404.690
 30
4347.994
 70
    32
  0
VERTEX
  8
T09SSILL
 62
6
 10
-1138.503
 20
-2400.450
 30
4347.948
 70
    32
  0
VERTEX
  8
T09SSILL
 62
6
 10
-1129.275
 20
-2397.689
 30
4347.866
 70
    32
  0
VERTEX
  8
T09SSILL
 62
6
 10
-1123.536
 20
-2401.452
 30
4347.704
 70
    32
  0
VERTEX
  8
T09SSILL
 62
6
 10
-1118.549
 20
-2407.499
 30
4347.508
 70
    32
  0
VERTEX
  8
T09SSILL
 62
6
 10
-1111.196
 20
-2425.665
 30
4347.031
 70
    32
  0
VERTEX
  8
T09SSILL
 62
6
 10
-1095.726
 20
-2454.553
 30
4346.217
 70
    32
  0
VERTEX
  8
T09SSILL
 62
6
 10
-1084.108
 20
-2471.432
 30
4345.703
 70
    32
  0
VERTEX
  8
T09SSILL
 62
6
 10
-1074.493
 20
-2482.919
 30
4345.327
 70
    32
  0
VERTEX
  8
T09SSILL
 62
6
 10
-1063.927
 20
-2493.693
 30
4344.952
 70
    32
  0
VERTEX
  8
T09SSILL
 62
6
 10
-1052.430
 20
-2502.441
 30
4344.603
 70
    32
  0
VERTEX
  8
T09SSILL
 62
6
 10
-1049.180
 20
-2497.496
 30
4344.654
 70
    32
  0
VERTEX
  8
T09SSILL
 62
6
 10
-1047.098
 20
-2496.415
 30
4344.645
 70
    32
  0
VERTEX
  8
T09SSILL
 62
6
 10
-1041.060
 20
-2496.675
 30
4344.549
 70
    32
  0
VERTEX
  8
T09SSILL
 62
6
 10
-1034.376
 20
-2499.287
 30
4344.388
 70
    32
  0
VERTEX
  8
T09SSILL
 62
6
 10
-1030.921
 20
-2502.296
 30
4344.164
 70
    32
  0
VERTEX
  8
T09SSILL
 62
6
 10
-998.394
 20
-2549.207
 30
4342.851
 70
    32
  0
VERTEX
  8
T09SSILL
 62
6
 10
-998.710
 20
-2551.485
 30
4342.835
 70
    32
  0
VERTEX
  8
T09SSILL
 62
6
 10
-1018.683
 20
-2572.593
 30
4343.037
 70
    32
  0
VERTEX
  8
T09SSILL
 62
6
 10
-1014.139
 20
-2578.297
 30
4342.924
 70
    32
  0
VERTEX
  8
T09SSILL
 62
6
 10
-995.191
 20
-2558.778
 30
4342.729
 70
    32
  0
VERTEX
  8
T09SSILL
 62
6
 10
-991.607
 20
-2558.724
 30
4342.688
 70
    32
  0
VERTEX
  8
T09SSILL
 62
6
 10
-988.697
 20
-2560.343
 30
4342.683
 70
    32
  0
VERTEX
  8
T09SSILL
 62
6
 10
-953.875
 20
-2620.511
 30
4342.602
 70
    32
  0
VERTEX
  8
T09SSILL
 62
6
 10
-947.119
 20
-2633.789
 30
4342.585
 70
    32
  0
VERTEX
  8
T09SSILL
 62
6
 10
-937.567
 20
-2658.743
 30
4342.558
 70
    32
  0
VERTEX
  8
T09SSILL
 62
6
 10
-928.629
 20
-2671.727
 30
4342.539
 70
    32
  0
VERTEX
  8
T09SSILL
 62
6
 10
-926.727
 20
-2676.158
 30
4342.533
 70
    32
  0
VERTEX
  8
T09SSILL
 62
6
 10
-926.240
 20
-2685.420
 30
4342.528
 70
    32
  0
VERTEX
  8
T09SSILL
 62
6
 10
-927.090
 20
-2692.953
 30
4342.525
 70
    32
  0
VERTEX
  8
T09SSILL
 62
6
 10
-931.581
 20
-2708.497
 30
4342.523
 70
    32
  0
VERTEX
  8
T09SSILL
 62
6
 10
-929.429
 20
-2717.909
 30
4342.515
 70
    32
  0
VERTEX
  8
T09SSILL
 62
6
 10
-920.260
 20
-2734.736
 30
4342.493
 70
    32
  0
VERTEX
  8
T09SSILL
 62
6
 10
-893.415
 20
-2764.155
 30
4342.439
 70
    32
  0
VERTEX
  8
T09SSILL
 62
6
 10
-881.009
 20
-2792.205
 30
4342.407
 70
    32
  0
VERTEX
  8
T09SSILL
 62
6
 10
-879.132
 20
-2803.154
 30
4342.398
 70
    32
  0
VERTEX
  8
T09SSILL
 62
6
 10
-931.327
 20
-2840.261
 30
4342.452
 70
    32
  0
VERTEX
  8
T09SSILL
 62
6
 10
-926.910
 20
-2846.152
 30
4342.443
 70
    32
  0
VERTEX
  8
T09SSILL
 62
6
 10
-879.938
 20
-2811.605
 30
4342.395
 70
    32
  0
VERTEX
  8
T09SSILL
 62
6
 10
-878.929
 20
-2818.440
 30
4342.390
 70
    32
  0
VERTEX
  8
T09SSILL
 62
6
 10
-872.101
 20
-2817.080
 30
4342.381
 70
    32
  0
VERTEX
  8
T09SSILL
 62
6
 10
-872.124
 20
-2806.624
 30
4342.386
 70
    32
  0
VERTEX
  8
T09SSILL
 62
6
 10
-821.284
 20
-2772.179
 30
4342.333
 70
    32
  0
VERTEX
  8
T09SSILL
 62
6
 10
-830.816
 20
-2763.487
 30
4342.351
 70
    32
  0
VERTEX
  8
T09SSILL
 62
6
 10
-870.957
 20
-2792.590
 30
4342.392
 70
    32
  0
VERTEX
  8
T09SSILL
 62
6
 10
-874.178
 20
-2793.513
 30
4342.396
 70
    32
  0
VERTEX
  8
T09SSILL
 62
6
 10
-877.569
 20
-2788.929
 30
4342.403
 70
    32
  0
VERTEX
  8
T09SSILL
 62
6
 10
-882.734
 20
-2770.905
 30
4342.420
 70
    32
  0
VERTEX
  8
T09SSILL
 62
6
 10
-890.767
 20
-2754.060
 30
4342.441
 70
    32
  0
VERTEX
  8
T09SSILL
 62
6
 10
-907.853
 20
-2739.973
 30
4342.473
 70
    32
  0
VERTEX
  8
T09SSILL
 62
6
 10
-921.145
 20
-2722.245
 30
4342.501
 70
    32
  0
VERTEX
  8
T09SSILL
 62
6
 10
-922.972
 20
-2717.026
 30
4342.506
 70
    32
  0
VERTEX
  8
T09SSILL
 62
6
 10
-922.461
 20
-2704.339
 30
4342.512
 70
    32
  0
VERTEX
  8
T09SSILL
 62
6
 10
-917.226
 20
-2685.898
 30
4342.515
 70
    32
  0
VERTEX
  8
T09SSILL
 62
6
 10
-919.583
 20
-2674.390
 30
4342.524
 70
    32
  0
VERTEX
  8
T09SSILL
 62
6
 10
-938.472
 20
-2638.994
 30
4342.570
 70
    32
  0
VERTEX
  8
T09SSILL
 62
6
 10
-941.952
 20
-2628.466
 30
4342.581
 70
    32
  0
VERTEX
  8
T09SSILL
 62
6
 10
-980.918
 20
-2560.140
 30
4342.672
 70
    32
  0
VERTEX
  8
T09SSILL
 62
6
 10
-983.303
 20
-2552.655
 30
4342.680
 70
    32
  0
VERTEX
  8
T09SSILL
 62
6
 10
-977.126
 20
-2544.606
 30
4342.652
 70
    32
  0
VERTEX
  8
T09SSILL
 62
6
 10
-939.633
 20
-2513.881
 30
4342.506
 70
    32
  0
VERTEX
  8
T09SSILL
 62
6
 10
-944.099
 20
-2507.564
 30
4342.518
 70
    32
  0
VERTEX
  8
T09SSILL
 62
6
 10
-988.230
 20
-2544.683
 30
4342.682
 70
    32
  0
VERTEX
  8
T09SSILL
 62
6
 10
-998.952
 20
-2535.224
 30
4342.716
 70
    32
  0
VERTEX
  8
T09SSILL
 62
6
 10
-1018.084
 20
-2507.002
 30
4342.773
 70
    32
  0
VERTEX
  8
T09SSILL
 62
6
 10
-1033.848
 20
-2487.736
 30
4343.256
 70
    32
  0
VERTEX
  8
T09SSILL
 62
6
 10
-1034.060
 20
-2485.204
 30
4343.055
 70
    32
  0
VERTEX
  8
T09SSILL
 62
6
 10
-1031.942
 20
-2480.625
 30
4342.813
 70
    32
  0
VERTEX
  8
T09SSILL
 62
6
 10
-1022.625
 20
-2472.092
 30
4342.778
 70
    32
  0
VERTEX
  8
T09SSILL
 62
6
 10
-1026.051
 20
-2465.148
 30
4342.787
 70
    32
  0
VERTEX
  8
T09SSILL
 62
6
 10
-1037.411
 20
-2477.463
 30
4342.831
 70
    32
  0
VERTEX
  8
T09SSILL
 62
6
 10
-1049.141
 20
-2488.401
 30
4344.837
 70
    32
  0
VERTEX
  8
T09SSILL
 62
6
 10
-1052.532
 20
-2489.676
 30
4344.862
 70
    32
  0
VERTEX
  8
T09SSILL
 62
6
 10
-1057.114
 20
-2487.295
 30
4344.979
 70
    32
  0
VERTEX
  8
T09SSILL
 62
6
 10
-1066.763
 20
-2479.394
 30
4345.283
 70
    32
  0
VERTEX
  8
T09SSILL
 62
6
 10
-1091.107
 20
-2447.664
 30
4346.287
 70
    32
  0
VERTEX
  8
T09SSILL
 62
6
 10
-1098.840
 20
-2433.351
 30
4346.691
 70
    32
  0
VERTEX
  8
T09SSILL
 62
6
 10
-1105.165
 20
-2419.629
 30
4347.063
 70
    32
  0
VERTEX
  8
T09SSILL
 62
6
 10
-1105.298
 20
-2417.190
 30
4347.114
 70
    32
  0
VERTEX
  8
T09SSILL
 62
6
 10
-1100.782
 20
-2408.546
 30
4345.672
 70
    32
  0
VERTEX
  8
T09SSILL
 62
6
 10
-1116.560
 20
-2388.319
 30
4346.099
 70
    32
  0
VERTEX
  8
T09SSILL
 62
6
 10
-1115.417
 20
-2382.880
 30
4345.437
 70
    32
  0
VERTEX
  8
T09SSILL
 62
6
 10
-1103.076
 20
-2375.968
 30
4343.025
 70
    32
  0
VERTEX
  8
T09SSILL
 62
6
 10
-1078.323
 20
-2360.556
 30
4342.935
 70
    32
  0
VERTEX
  8
T09SSILL
 62
6
 10
-1080.760
 20
-2355.433
 30
4342.941
 70
    32
  0
VERTEX
  8
T09SSILL
 62
6
 10
-1083.874
 20
-2351.894
 30
4342.951
 70
    32
  0
VERTEX
  8
T09SSILL
 62
6
 10
-1090.807
 20
-2350.161
 30
4342.974
 70
    32
  0
VERTEX
  8
T09SSILL
 62
6
 10
-1100.452
 20
-2360.185
 30
4343.011
 70
    32
  0
VERTEX
  8
T09SSILL
 62
6
 10
-1109.489
 20
-2366.056
 30
4343.044
 70
    32
  0
VERTEX
  8
T09SSILL
 62
6
 10
-1120.978
 20
-2373.519
 30
4345.384
 70
    32
  0
VERTEX
  8
T09SSILL
 62
6
 10
-1128.855
 20
-2373.024
 30
4346.475
 70
    32
  0
VERTEX
  8
T09SSILL
 62
6
 10
-1133.537
 20
-2369.858
 30
4346.861
 70
    32
  0
VERTEX
  8
T09SSILL
 62
6
 10
-1147.111
 20
-2356.681
 30
4347.614
 70
    32
  0
VERTEX
  8
T09SSILL
 62
6
 10
-1150.254
 20
-2351.132
 30
4347.560
 70
    32
  0
VERTEX
  8
T09SSILL
 62
6
 10
-1149.570
 20
-2344.214
 30
4346.829
 70
    32
  0
VERTEX
  8
T09SSILL
 62
6
 10
-1131.801
 20
-2331.569
 30
4343.110
 70
    32
  0
VERTEX
  8
T09SSILL
 62
6
 10
-1034.488
 20
-2262.318
 30
4342.752
 70
    32
  0
VERTEX
  8
T09SSILL
 62
6
 10
-969.049
 20
-2258.547
 30
4342.524
 70
    32
  0
VERTEX
  8
T09SSILL
 62
6
 10
-951.672
 20
-2251.030
 30
4342.462
 70
    32
  0
VERTEX
  8
T09SSILL
 62
6
 10
-582.892
 20
-2223.775
 30
4341.179
 70
    32
  0
VERTEX
  8
T09SSILL
 62
6
 10
-573.504
 20
-2225.909
 30
4341.148
 70
    32
  0
VERTEX
  8
T09SSILL
 62
6
 10
-567.998
 20
-2225.740
 30
4341.128
 70
    32
  0
VERTEX
  8
T09SSILL
 62
6
 10
-553.061
 20
-2224.643
 30
4341.081
 70
    32
  0
VERTEX
  8
T09SSILL
 62
6
 10
-545.671
 20
-2221.823
 30
4341.062
 70
    32
  0
VERTEX
  8
T09SSILL
 62
6
 10
-536.982
 20
-2218.108
 30
4341.037
 70
    32
  0
VERTEX
  8
T09SSILL
 62
6
 10
-458.290
 20
-2158.789
 30
4340.746
 70
    32
  0
VERTEX
  8
T09SSILL
 62
6
 10
-449.472
 20
-2140.207
 30
4340.692
 70
    32
  0
VERTEX
  8
T09SSILL
 62
6
 10
-443.156
 20
-2129.795
 30
4340.667
 70
    32
  0
VERTEX
  8
T09SSILL
 62
6
 10
-430.959
 20
-2115.011
 30
4340.620
 70
    32
  0
VERTEX
  8
T09SSILL
 62
6
 10
-409.510
 20
-2075.517
 30
4340.533
 70
    32
  0
VERTEX
  8
T09SSILL
 62
6
 10
-340.654
 20
-2025.176
 30
4340.279
 70
    32
  0
VERTEX
  8
T09SSILL
 62
6
 10
-330.848
 20
-2025.992
 30
4340.245
 70
    32
  0
VERTEX
  8
T09SSILL
 62
6
 10
-322.367
 20
-2020.095
 30
4340.214
 70
    32
  0
VERTEX
  8
T09SSILL
 62
6
 10
-319.181
 20
-2010.866
 30
4340.200
 70
    32
  0
VERTEX
  8
T09SSILL
 62
6
 10
-299.022
 20
-1996.400
 30
4340.126
 70
    32
  0
VERTEX
  8
T09SSILL
 62
6
 10
-270.167
 20
-2096.269
 30
4340.274
 70
    32
  0
VERTEX
  8
T09SSILL
 62
6
 10
-262.163
 20
-2093.526
 30
4340.254
 70
    32
  0
VERTEX
  8
T09SSILL
 62
6
 10
-273.999
 20
-2056.189
 30
4340.167
 70
    32
  0
VERTEX
  8
T09SSILL
 62
6
 10
-291.759
 20
-1990.871
 30
4340.099
 70
    32
  0
VERTEX
  8
T09SSILL
 62
6
 10
-239.838
 20
-1954.160
 30
4339.908
 70
    32
  0
VERTEX
  8
T09SSILL
 62
6
 10
-214.082
 20
-1951.503
 30
4339.818
 70
    32
  0
VERTEX
  8
T09SSILL
 62
6
 10
-143.107
 20
-1901.762
 30
4339.557
 70
    32
  0
VERTEX
  8
T09SSILL
 62
6
 10
213.925
 20
-1644.948
 30
4338.242
 70
    32
  0
VERTEX
  8
T09SSILL
 62
6
 10
216.917
 20
-1645.083
 30
4338.233
 70
    32
  0
VERTEX
  8
T09SSILL
 62
6
 10
218.875
 20
-1646.816
 30
4338.235
 70
    32
  0
VERTEX
  8
T09SSILL
 62
6
 10
416.536
 20
-1874.831
 30
4338.570
 70
    32
  0
VERTEX
  8
T09SSILL
 62
6
 10
431.072
 20
-1924.509
 30
4338.687
 70
    32
  0
VERTEX
  8
T09SSILL
 62
6
 10
434.166
 20
-1925.587
 30
4338.686
 70
    32
  0
VERTEX
  8
T09SSILL
 62
6
 10
440.604
 20
-1935.814
 30
4338.705
 70
    32
  0
VERTEX
  8
T09SSILL
 62
6
 10
469.090
 20
-2003.520
 30
4338.851
 70
    32
  0
VERTEX
  8
T09SSILL
 62
6
 10
478.824
 20
-2020.526
 30
4338.884
 70
    32
  0
VERTEX
  8
T09SSILL
 62
6
 10
486.645
 20
-2042.748
 30
4338.935
 70
    32
  0
VERTEX
  8
T09SSILL
 62
6
 10
494.489
 20
-2048.733
 30
4338.940
 70
    32
  0
VERTEX
  8
T09SSILL
 62
6
 10
502.295
 20
-2057.177
 30
4338.951
 70
    32
  0
VERTEX
  8
T09SSILL
 62
6
 10
513.852
 20
-2073.180
 30
4338.978
 70
    32
  0
VERTEX
  8
T09SSILL
 62
6
 10
514.806
 20
-2076.935
 30
4338.987
 70
    32
  0
VERTEX
  8
T09SSILL
 62
6
 10
530.903
 20
-2091.793
 30
4339.004
 70
    32
  0
VERTEX
  8
T09SSILL
 62
6
 10
537.930
 20
-2096.391
 30
4339.006
 70
    32
  0
VERTEX
  8
T09SSILL
 62
6
 10
550.951
 20
-2111.048
 30
4339.027
 70
    32
  0
VERTEX
  8
T09SSILL
 62
6
 10
562.732
 20
-2120.728
 30
4339.036
 70
    32
  0
VERTEX
  8
T09SSILL
 62
6
 10
569.755
 20
-2133.839
 30
4339.062
 70
    32
  0
VERTEX
  8
T09SSILL
 62
6
 10
577.698
 20
-2144.737
 30
4339.081
 70
    32
  0
VERTEX
  8
T09SSILL
 62
6
 10
586.847
 20
-2145.781
 30
4339.069
 70
    32
  0
VERTEX
  8
T09SSILL
 62
6
 10
604.465
 20
-2166.401
 30
4339.100
 70
    32
  0
VERTEX
  8
T09SSILL
 62
6
 10
591.848
 20
-2176.134
 30
4339.147
 70
    32
  0
VERTEX
  8
T09SSILL
 62
6
 10
598.518
 20
-2184.864
 30
4339.162
 70
    32
  0
VERTEX
  8
T09SSILL
 62
6
 10
607.852
 20
-2177.654
 30
4339.126
 70
    32
  0
VERTEX
  8
T09SSILL
 62
6
 10
615.820
 20
-2181.092
 30
4339.124
 70
    32
  0
VERTEX
  8
T09SSILL
 62
6
 10
828.316
 20
-2386.211
 30
4339.371
 70
    32
  0
VERTEX
  8
T09SSILL
 62
6
 10
848.697
 20
-2389.228
 30
4339.347
 70
    32
  0
VERTEX
  8
T09SSILL
 62
6
 10
1047.579
 20
-2344.102
 30
4338.907
 70
    32
  0
VERTEX
  8
T09SSILL
 62
6
 10
1052.677
 20
-2347.074
 30
4338.908
 70
    32
  0
VERTEX
  8
T09SSILL
 62
6
 10
1057.483
 20
-2348.103
 30
4338.903
 70
    32
  0
VERTEX
  8
T09SSILL
 62
6
 10
1065.771
 20
-2347.480
 30
4338.888
 70
    32
  0
VERTEX
  8
T09SSILL
 62
6
 10
1071.095
 20
-2345.413
 30
4338.874
 70
    32
  0
VERTEX
  8
T09SSILL
 62
6
 10
1070.438
 20
-2342.501
 30
4338.867
 70
    32
  0
VERTEX
  8
T09SSILL
 62
6
 10
1072.387
 20
-2338.360
 30
4338.852
 70
    32
  0
VERTEX
  8
T09SSILL
 62
6
 10
1188.413
 20
-2312.836
 30
4338.598
 70
    32
  0
VERTEX
  8
T09SSILL
 62
6
 10
1200.622
 20
-2319.108
 30
4338.597
 70
    32
  0
VERTEX
  8
T09SSILL
 62
6
 10
1390.255
 20
-2535.747
 30
4338.912
 70
    32
  0
VERTEX
  8
T09SSILL
 62
6
 10
1392.162
 20
-2539.500
 30
4338.920
 70
    32
  0
VERTEX
  8
T09SSILL
 62
6
 10
1406.219
 20
-2545.741
 30
4338.915
 70
    32
  0
VERTEX
  8
T09SSILL
 62
6
 10
1436.072
 20
-2578.774
 30
4338.962
 70
    32
  0
VERTEX
  8
T09SSILL
 62
6
 10
1454.634
 20
-2604.331
 30
4339.005
 70
    32
  0
VERTEX
  8
T09SSILL
 62
6
 10
1459.810
 20
-2613.288
 30
4339.022
 70
    32
  0
VERTEX
  8
T09SSILL
 62
6
 10
1464.108
 20
-2622.217
 30
4339.041
 70
    32
  0
VERTEX
  8
T09SSILL
 62
6
 10
1467.160
 20
-2634.451
 30
4339.071
 70
    32
  0
VERTEX
  8
T09SSILL
 62
6
 10
1489.150
 20
-2665.744
 30
4339.120
 70
    32
  0
VERTEX
  8
T09SSILL
 62
6
 10
1496.572
 20
-2681.720
 30
4339.100
 70
    32
  0
VERTEX
  8
T09SSILL
 62
6
 10
1500.019
 20
-2692.559
 30
4339.090
 70
    32
  0
VERTEX
  8
T09SSILL
 62
6
 10
1511.074
 20
-2704.864
 30
4339.068
 70
    32
  0
VERTEX
  8
T09SSILL
 62
6
 10
1525.827
 20
-2714.206
 30
4339.056
 70
    32
  0
VERTEX
  8
T09SSILL
 62
6
 10
1545.319
 20
-2740.935
 30
4339.083
 70
    32
  0
VERTEX
  8
T09SSILL
 62
6
 10
1548.128
 20
-2746.828
 30
4339.090
 70
    32
  0
VERTEX
  8
T09SSILL
 62
6
 10
1548.514
 20
-2762.762
 30
4339.120
 70
    32
  0
VERTEX
  8
T09SSILL
 62
6
 10
1569.073
 20
-2774.922
 30
4339.117
 70
    32
  0
VERTEX
  8
T09SSILL
 62
6
 10
1588.004
 20
-2777.180
 30
4339.098
 70
    32
  0
VERTEX
  8
T09SSILL
 62
6
 10
1591.521
 20
-2782.918
 30
4339.104
 70
    32
  0
VERTEX
  8
T09SSILL
 62
6
 10
1599.824
 20
-2784.671
 30
4339.097
 70
    32
  0
VERTEX
  8
T09SSILL
 62
6
 10
1646.754
 20
-2820.167
 30
4339.106
 70
    32
  0
VERTEX
  8
T09SSILL
 62
6
 10
1660.382
 20
-2823.228
 30
4339.094
 70
    32
  0
VERTEX
  8
T09SSILL
 62
6
 10
1671.366
 20
-2837.819
 30
4339.108
 70
    32
  0
VERTEX
  8
T09SSILL
 62
6
 10
1680.018
 20
-2842.485
 30
4339.106
 70
    32
  0
VERTEX
  8
T09SSILL
 62
6
 10
1678.451
 20
-2844.811
 30
4339.113
 70
    32
  0
VERTEX
  8
T09SSILL
 62
6
 10
1635.934
 20
-2877.010
 30
4339.227
 70
    32
  0
VERTEX
  8
T09SSILL
 62
6
 10
1640.848
 20
-2883.056
 30
4339.232
 70
    32
  0
VERTEX
  8
T09SSILL
 62
6
 10
1682.589
 20
-2853.208
 30
4339.123
 70
    32
  0
VERTEX
  8
T09SSILL
 62
6
 10
1686.787
 20
-2851.139
 30
4339.114
 70
    32
  0
VERTEX
  8
T09SSILL
 62
6
 10
1694.836
 20
-2849.717
 30
4339.101
 70
    32
  0
VERTEX
  8
T09SSILL
 62
6
 10
1699.736
 20
-2850.572
 30
4339.097
 70
    32
  0
VERTEX
  8
T09SSILL
 62
6
 10
1706.194
 20
-2855.083
 30
4339.097
 70
    32
  0
VERTEX
  8
T09SSILL
 62
6
 10
1716.165
 20
-2873.952
 30
4339.120
 70
    32
  0
VERTEX
  8
T09SSILL
 62
6
 10
1720.646
 20
-2879.809
 30
4339.126
 70
    32
  0
VERTEX
  8
T09SSILL
 62
6
 10
1724.706
 20
-2882.222
 30
4339.125
 70
    32
  0
VERTEX
  8
T09SSILL
 62
6
 10
1732.463
 20
-2907.268
 30
4339.163
 70
    32
  0
VERTEX
  8
T09SSILL
 62
6
 10
1736.608
 20
-2909.772
 30
4339.163
 70
    32
  0
VERTEX
  8
T09SSILL
 62
6
 10
1743.305
 20
-2906.549
 30
4339.148
 70
    32
  0
VERTEX
  8
T09SSILL
 62
6
 10
1756.631
 20
-2890.951
 30
4339.102
 70
    32
  0
VERTEX
  8
T09SSILL
 62
6
 10
1756.842
 20
-2886.999
 30
4339.094
 70
    32
  0
VERTEX
  8
T09SSILL
 62
6
 10
1755.959
 20
-2884.245
 30
4339.090
 70
    32
  0
VERTEX
  8
T09SSILL
 62
6
 10
1744.376
 20
-2877.641
 30
4339.092
 70
    32
  0
VERTEX
  8
T09SSILL
 62
6
 10
1730.266
 20
-2858.907
 30
4339.074
 70
    32
  0
VERTEX
  8
T09SSILL
 62
6
 10
1718.181
 20
-2845.778
 30
4339.064
 70
    32
  0
VERTEX
  8
T09SSILL
 62
6
 10
1717.490
 20
-2836.872
 30
4339.048
 70
    32
  0
VERTEX
  8
T09SSILL
 62
6
 10
1719.023
 20
-2829.970
 30
4339.033
 70
    32
  0
VERTEX
  8
T09SSILL
 62
6
 10
1723.143
 20
-2824.731
 30
4339.018
 70
    32
  0
VERTEX
  8
T09SSILL
 62
6
 10
1725.898
 20
-2823.849
 30
4339.013
 70
    32
  0
VERTEX
  8
T09SSILL
 62
6
 10
1728.472
 20
-2825.952
 30
4339.014
 70
    32
  0
VERTEX
  8
T09SSILL
 62
6
 10
1729.429
 20
-2831.963
 30
4339.024
 70
    32
  0
VERTEX
  8
T09SSILL
 62
6
 10
1735.071
 20
-2837.240
 30
4339.027
 70
    32
  0
VERTEX
  8
T09SSILL
 62
6
 10
1738.378
 20
-2838.398
 30
4339.025
 70
    32
  0
VERTEX
  8
T09SSILL
 62
6
 10
1752.121
 20
-2860.463
 30
4339.050
 70
    32
  0
VERTEX
  8
T09SSILL
 62
6
 10
1756.254
 20
-2869.036
 30
4339.061
 70
    32
  0
VERTEX
  8
T09SSILL
 62
6
 10
1759.839
 20
-2872.578
 30
4339.063
 70
    32
  0
VERTEX
  8
T09SSILL
 62
6
 10
1767.133
 20
-2872.804
 30
4339.054
 70
    32
  0
VERTEX
  8
T09SSILL
 62
6
 10
1772.650
 20
-2870.775
 30
4339.043
 70
    32
  0
VERTEX
  8
T09SSILL
 62
6
 10
1779.074
 20
-2862.178
 30
4339.019
 70
    32
  0
VERTEX
  8
T09SSILL
 62
6
 10
1773.977
 20
-2842.139
 30
4338.987
 70
    32
  0
VERTEX
  8
T09SSILL
 62
6
 10
1771.138
 20
-2837.213
 30
4338.982
 70
    32
  0
VERTEX
  8
T09SSILL
 62
6
 10
1761.949
 20
-2827.165
 30
4338.974
 70
    32
  0
VERTEX
  8
T09SSILL
 62
6
 10
1746.964
 20
-2813.945
 30
4338.968
 70
    32
  0
VERTEX
  8
T09SSILL
 62
6
 10
1744.533
 20
-2810.088
 30
4338.964
 70
    32
  0
VERTEX
  8
T09SSILL
 62
6
 10
1745.188
 20
-2805.973
 30
4338.955
 70
    32
  0
VERTEX
  8
T09SSILL
 62
6
 10
1807.880
 20
-2758.566
 30
4338.786
 70
    32
  0
VERTEX
  8
T09SSILL
 62
6
 10
1835.667
 20
-2739.018
 30
4338.714
 70
    32
  0
VERTEX
  8
T09SSILL
 62
6
 10
1848.010
 20
-2732.451
 30
4338.686
 70
    32
  0
VERTEX
  8
T09SSILL
 62
6
 10
1868.847
 20
-2715.767
 30
4338.629
 70
    32
  0
VERTEX
  8
T09SSILL
 62
6
 10
1888.240
 20
-2711.617
 30
4338.596
 70
    32
  0
VERTEX
  8
T09SSILL
 62
6
 10
1898.552
 20
-2702.436
 30
4338.566
 70
    32
  0
VERTEX
  8
T09SSILL
 62
6
 10
1913.442
 20
-2698.850
 30
4338.540
 70
    32
  0
VERTEX
  8
T09SSILL
 62
6
 10
1984.272
 20
-2652.838
 30
4338.424
 70
    32
  0
VERTEX
  8
T09SSILL
 62
6
 10
1989.122
 20
-2643.928
 30
4338.410
 70
    32
  0
VERTEX
  8
T09SSILL
 62
6
 10
1991.385
 20
-2633.354
 30
4338.396
 70
    32
  0
VERTEX
  8
T09SSILL
 62
6
 10
1989.541
 20
-2621.861
 30
4338.384
 70
    32
  0
VERTEX
  8
T09SSILL
 62
6
 10
1410.882
 20
-1573.676
 30
4337.403
 70
    32
  0
VERTEX
  8
T09SSILL
 62
6
 10
1231.971
 20
-1230.523
 30
4337.038
 70
    32
  0
VERTEX
  8
T09SSILL
 62
6
 10
1218.871
 20
-1211.159
 30
4337.015
 70
    32
  0
VERTEX
  8
T09SSILL
 62
6
 10
1209.715
 20
-1204.062
 30
4337.004
 70
    32
  0
VERTEX
  8
T09SSILL
 62
6
 10
1111.457
 20
-1139.168
 30
4336.910
 70
    32
  0
VERTEX
  8
T09SSILL
 62
6
 10
1110.545
 20
-1136.716
 30
4336.908
 70
    32
  0
VERTEX
  8
T09SSILL
 62
6
 10
1121.059
 20
-1119.683
 30
4336.903
 70
    32
  0
VERTEX
  8
T09SSILL
 62
6
 10
1125.708
 20
-1118.567
 30
4336.902
 70
    32
  0
VERTEX
  8
T09SSILL
 62
6
 10
1134.220
 20
-1123.472
 30
4336.904
 70
    32
  0
VERTEX
  8
T09SSILL
 62
6
 10
1137.091
 20
-1127.746
 30
4336.909
 70
    32
  0
VERTEX
  8
T09SSILL
 62
6
 10
1147.984
 20
-1136.026
 30
4336.919
 70
    32
  0
VERTEX
  8
T09SSILL
 62
6
 10
1163.917
 20
-1108.622
 30
4336.906
 70
    32
  0
VERTEX
  8
T09SSILL
 62
6
 10
1150.028
 20
-1100.827
 30
4336.900
 70
    32
  0
VERTEX
  8
T09SSILL
 62
6
 10
1146.694
 20
-1094.798
 30
4336.900
 70
    32
  0
VERTEX
  8
T09SSILL
 62
6
 10
1142.050
 20
-1089.579
 30
4336.901
 70
    32
  0
VERTEX
  8
T09SSILL
 62
6
 10
1120.732
 20
-1081.057
 30
4336.902
 70
    32
  0
VERTEX
  8
T09SSILL
 62
6
 10
1117.176
 20
-1078.287
 30
4336.902
 70
    32
  0
VERTEX
  8
T09SSILL
 62
6
 10
1107.401
 20
-1077.711
 30
4336.903
 70
    32
  0
VERTEX
  8
T09SSILL
 62
6
 10
1102.236
 20
-1073.026
 30
4336.903
 70
    32
  0
VERTEX
  8
T09SSILL
 62
6
 10
1175.758
 20
-935.074
 30
4336.902
 70
    32
  0
VERTEX
  8
T09SSILL
 62
6
 10
1195.099
 20
-917.564
 30
4336.902
 70
    32
  0
VERTEX
  8
T09SSILL
 62
6
 10
1633.292
 20
-845.173
 30
4336.895
 70
    32
  0
VERTEX
  8
T09SSILL
 62
6
 10
1652.986
 20
-845.059
 30
4336.894
 70
    32
  0
VERTEX
  8
T09SSILL
 62
6
 10
1652.643
 20
-854.340
 30
4336.894
 70
    32
  0
VERTEX
  8
T09SSILL
 62
6
 10
1660.029
 20
-853.966
 30
4336.894
 70
    32
  0
VERTEX
  8
T09SSILL
 62
6
 10
1660.133
 20
-845.018
 30
4336.894
 70
    32
  0
VERTEX
  8
T09SSILL
 62
6
 10
1780.214
 20
-844.322
 30
4336.892
 70
    32
  0
VERTEX
  8
T09SSILL
 62
6
 10
1780.074
 20
-836.728
 30
4336.892
 70
    32
  0
VERTEX
  8
T09SSILL
 62
6
 10
1681.920
 20
-838.032
 30
4336.894
 70
    32
  0
VERTEX
  8
T09SSILL
 62
6
 10
1684.155
 20
-829.662
 30
4336.894
 70
    32
  0
VERTEX
  8
T09SSILL
 62
6
 10
1687.306
 20
-823.733
 30
4336.894
 70
    32
  0
VERTEX
  8
T09SSILL
 62
6
 10
1695.970
 20
-816.839
 30
4336.894
 70
    32
  0
VERTEX
  8
T09SSILL
 62
6
 10
1700.789
 20
-805.445
 30
4336.894
 70
    32
  0
VERTEX
  8
T09SSILL
 62
6
 10
1696.016
 20
-803.240
 30
4336.894
 70
    32
  0
VERTEX
  8
T09SSILL
 62
6
 10
1716.723
 20
-753.865
 30
4336.894
 70
    32
  0
VERTEX
  8
T09SSILL
 62
6
 10
1709.832
 20
-750.905
 30
4336.894
 70
    32
  0
VERTEX
  8
T09SSILL
 62
6
 10
1688.690
 20
-800.461
 30
4336.894
 70
    32
  0
VERTEX
  8
T09SSILL
 62
6
 10
1681.812
 20
-798.290
 30
4336.894
 70
    32
  0
VERTEX
  8
T09SSILL
 62
6
 10
1679.831
 20
-806.130
 30
4336.894
 70
    32
  0
VERTEX
  8
T09SSILL
 62
6
 10
1681.118
 20
-809.794
 30
4336.894
 70
    32
  0
VERTEX
  8
T09SSILL
 62
6
 10
1684.412
 20
-812.813
 30
4336.894
 70
    32
  0
VERTEX
  8
T09SSILL
 62
6
 10
1678.368
 20
-824.402
 30
4336.894
 70
    32
  0
VERTEX
  8
T09SSILL
 62
6
 10
1675.269
 20
-828.137
 30
4336.894
 70
    32
  0
VERTEX
  8
T09SSILL
 62
6
 10
1671.274
 20
-830.657
 30
4336.894
 70
    32
  0
VERTEX
  8
T09SSILL
 62
6
 10
1188.321
 20
-909.258
 30
4336.903
 70
    32
  0
VERTEX
  8
T09SSILL
 62
6
 10
1325.184
 20
-650.800
 30
4336.902
 70
    32
  0
VERTEX
  8
T09SSILL
 62
6
 10
1370.407
 20
-644.192
 30
4336.901
 70
    32
  0
VERTEX
  8
T09SSILL
 62
6
 10
1369.442
 20
-637.008
 30
4336.902
 70
    32
  0
VERTEX
  8
T09SSILL
 62
6
 10
1329.104
 20
-643.543
 30
4336.902
 70
    32
  0
VERTEX
  8
T09SSILL
 62
6
 10
1380.523
 20
-545.073
 30
4336.902
 70
    32
  0
VERTEX
  8
T09SSILL
 62
6
 10
1398.790
 20
-546.185
 30
4336.902
 70
    32
  0
VERTEX
  8
T09SSILL
 62
6
 10
1424.323
 20
-595.786
 30
4336.901
 70
    32
  0
VERTEX
  8
T09SSILL
 62
6
 10
1422.521
 20
-609.326
 30
4336.901
 70
    32
  0
VERTEX
  8
T09SSILL
 62
6
 10
1424.500
 20
-623.332
 30
4336.901
 70
    32
  0
VERTEX
  8
T09SSILL
 62
6
 10
1427.780
 20
-631.001
 30
4336.900
 70
    32
  0
VERTEX
  8
T09SSILL
 62
6
 10
1437.522
 20
-631.196
 30
4336.900
 70
    32
  0
VERTEX
  8
T09SSILL
 62
6
 10
1439.489
 20
-622.479
 30
4336.900
 70
    32
  0
VERTEX
  8
T09SSILL
 62
6
 10
1446.091
 20
-607.371
 30
4336.900
 70
    32
  0
VERTEX
  8
T09SSILL
 62
6
 10
1445.682
 20
-581.759
 30
4336.900
 70
    32
  0
VERTEX
  8
T09SSILL
 62
6
 10
1449.384
 20
-582.840
 30
4336.900
 70
    32
  0
VERTEX
  8
T09SSILL
 62
6
 10
1465.014
 20
-594.698
 30
4336.900
 70
    32
  0
VERTEX
  8
T09SSILL
 62
6
 10
1468.002
 20
-589.474
 30
4336.900
 70
    32
  0
VERTEX
  8
T09SSILL
 62
6
 10
1447.595
 20
-575.236
 30
4336.900
 70
    32
  0
VERTEX
  8
T09SSILL
 62
6
 10
1455.064
 20
-564.939
 30
4336.900
 70
    32
  0
VERTEX
  8
T09SSILL
 62
6
 10
1471.088
 20
-551.962
 30
4336.900
 70
    32
  0
VERTEX
  8
T09SSILL
 62
6
 10
1476.605
 20
-545.820
 30
4336.900
 70
    32
  0
VERTEX
  8
T09SSILL
 62
6
 10
1490.780
 20
-521.467
 30
4336.900
 70
    32
  0
VERTEX
  8
T09SSILL
 62
6
 10
1498.671
 20
-521.165
 30
4336.900
 70
    32
  0
VERTEX
  8
T09SSILL
 62
6
 10
1499.263
 20
-514.313
 30
4336.900
 70
    32
  0
VERTEX
  8
T09SSILL
 62
6
 10
1492.210
 20
-512.144
 30
4336.900
 70
    32
  0
VERTEX
  8
T09SSILL
 62
6
 10
1493.237
 20
-494.054
 30
4336.900
 70
    32
  0
VERTEX
  8
T09SSILL
 62
6
 10
1496.915
 20
-477.150
 30
4336.900
 70
    32
  0
VERTEX
  8
T09SSILL
 62
6
 10
1507.097
 20
-449.966
 30
4336.900
 70
    32
  0
VERTEX
  8
T09SSILL
 62
6
 10
1510.012
 20
-445.708
 30
4336.900
 70
    32
  0
VERTEX
  8
T09SSILL
 62
6
 10
1511.413
 20
-445.510
 30
4336.900
 70
    32
  0
VERTEX
  8
T09SSILL
 62
6
 10
1514.566
 20
-439.669
 30
4336.900
 70
    32
  0
VERTEX
  8
T09SSILL
 62
6
 10
1516.733
 20
-438.055
 30
4336.900
 70
    32
  0
VERTEX
  8
T09SSILL
 62
6
 10
1520.061
 20
-437.651
 30
4336.900
 70
    32
  0
VERTEX
  8
T09SSILL
 62
6
 10
1518.805
 20
-424.870
 30
4336.900
 70
    32
  0
SEQEND
  8
T09SSILL
  0
POLYLINE
  8
T09SSILL
 62
6
 66
     1
 70
     9
  0
VERTEX
  8
T09SSILL
 62
6
 10
621.536
 20
-1455.014
 30
4337.060
 70
    32
  0
VERTEX
  8
T09SSILL
 62
6
 10
622.483
 20
-1456.180
 30
4337.062
 70
    32
  0
VERTEX
  8
T09SSILL
 62
6
 10
625.596
 20
-1454.542
 30
4337.052
 70
    32
  0
VERTEX
  8
T09SSILL
 62
6
 10
622.451
 20
-1436.015
 30
4337.014
 70
    32
  0
VERTEX
  8
T09SSILL
 62
6
 10
625.879
 20
-1415.467
 30
4336.997
 70
    32
  0
VERTEX
  8
T09SSILL
 62
6
 10
613.235
 20
-1424.344
 30
4337.001
 70
    32
  0
VERTEX
  8
T09SSILL
 62
6
 10
615.296
 20
-1427.221
 30
4337.004
 70
    32
  0
VERTEX
  8
T09SSILL
 62
6
 10
609.457
 20
-1431.521
 30
4337.012
 70
    32
  0
VERTEX
  8
T09SSILL
 62
6
 10
608.106
 20
-1429.162
 30
4337.008
 70
    32
  0
VERTEX
  8
T09SSILL
 62
6
 10
598.427
 20
-1435.976
 30
4337.042
 70
    32
  0
VERTEX
  8
T09SSILL
 62
6
 10
599.778
 20
-1438.334
 30
4337.047
 70
    32
  0
VERTEX
  8
T09SSILL
 62
6
 10
593.757
 20
-1442.285
 30
4337.067
 70
    32
  0
VERTEX
  8
T09SSILL
 62
6
 10
592.136
 20
-1439.402
 30
4337.062
 70
    32
  0
VERTEX
  8
T09SSILL
 62
6
 10
582.376
 20
-1446.745
 30
4337.098
 70
    32
  0
VERTEX
  8
T09SSILL
 62
6
 10
584.174
 20
-1449.713
 30
4337.104
 70
    32
  0
VERTEX
  8
T09SSILL
 62
6
 10
578.684
 20
-1453.833
 30
4337.124
 70
    32
  0
VERTEX
  8
T09SSILL
 62
6
 10
577.058
 20
-1450.598
 30
4337.117
 70
    32
  0
VERTEX
  8
T09SSILL
 62
6
 10
566.855
 20
-1457.683
 30
4337.153
 70
    32
  0
VERTEX
  8
T09SSILL
 62
6
 10
569.094
 20
-1460.733
 30
4337.158
 70
    32
  0
VERTEX
  8
T09SSILL
 62
6
 10
562.464
 20
-1465.132
 30
4337.181
 70
    32
  0
VERTEX
  8
T09SSILL
 62
6
 10
561.288
 20
-1462.683
 30
4337.176
 70
    32
  0
VERTEX
  8
T09SSILL
 62
6
 10
550.039
 20
-1470.573
 30
4337.216
 70
    32
  0
VERTEX
  8
T09SSILL
 62
6
 10
552.369
 20
-1473.799
 30
4337.222
 70
    32
  0
VERTEX
  8
T09SSILL
 62
6
 10
545.822
 20
-1477.844
 30
4337.243
 70
    32
  0
VERTEX
  8
T09SSILL
 62
6
 10
543.579
 20
-1474.529
 30
4337.237
 70
    32
  0
VERTEX
  8
T09SSILL
 62
6
 10
533.557
 20
-1482.052
 30
4337.274
 70
    32
  0
VERTEX
  8
T09SSILL
 62
6
 10
536.144
 20
-1484.746
 30
4337.278
 70
    32
  0
VERTEX
  8
T09SSILL
 62
6
 10
529.692
 20
-1489.318
 30
4337.301
 70
    32
  0
VERTEX
  8
T09SSILL
 62
6
 10
528.334
 20
-1486.431
 30
4337.295
 70
    32
  0
VERTEX
  8
T09SSILL
 62
6
 10
518.390
 20
-1493.161
 30
4337.330
 70
    32
  0
VERTEX
  8
T09SSILL
 62
6
 10
520.540
 20
-1496.037
 30
4337.334
 70
    32
  0
VERTEX
  8
T09SSILL
 62
6
 10
513.994
 20
-1500.170
 30
4337.356
 70
    32
  0
VERTEX
  8
T09SSILL
 62
6
 10
511.840
 20
-1496.942
 30
4337.351
 70
    32
  0
VERTEX
  8
T09SSILL
 62
6
 10
501.482
 20
-1505.701
 30
4337.392
 70
    32
  0
VERTEX
  8
T09SSILL
 62
6
 10
503.724
 20
-1508.927
 30
4337.397
 70
    32
  0
VERTEX
  8
T09SSILL
 62
6
 10
497.704
 20
-1512.877
 30
4337.418
 70
    32
  0
VERTEX
  8
T09SSILL
 62
6
 10
495.723
 20
-1509.471
 30
4337.411
 70
    32
  0
VERTEX
  8
T09SSILL
 62
6
 10
485.873
 20
-1516.639
 30
4337.447
 70
    32
  0
VERTEX
  8
T09SSILL
 62
6
 10
489.079
 20
-1519.590
 30
4337.451
 70
    32
  0
VERTEX
  8
T09SSILL
 62
6
 10
481.833
 20
-1523.996
 30
4337.474
 70
    32
  0
VERTEX
  8
T09SSILL
 62
6
 10
480.652
 20
-1521.107
 30
4337.468
 70
    32
  0
VERTEX
  8
T09SSILL
 62
6
 10
472.709
 20
-1526.139
 30
4337.495
 70
    32
  0
VERTEX
  8
T09SSILL
 62
6
 10
476.641
 20
-1537.527
 30
4337.521
 70
    32
  0
VERTEX
  8
T09SSILL
 62
6
 10
482.447
 20
-1544.139
 30
4337.530
 70
    32
  0
VERTEX
  8
T09SSILL
 62
6
 10
482.856
 20
-1548.446
 30
4337.542
 70
    32
  0
VERTEX
  8
T09SSILL
 62
6
 10
482.818
 20
-1552.318
 30
4337.553
 70
    32
  0
VERTEX
  8
T09SSILL
 62
6
 10
474.504
 20
-1569.322
 30
4337.614
 70
    32
  0
VERTEX
  8
T09SSILL
 62
6
 10
475.626
 20
-1574.411
 30
4337.627
 70
    32
  0
VERTEX
  8
T09SSILL
 62
6
 10
483.073
 20
-1585.402
 30
4337.646
 70
    32
  0
VERTEX
  8
T09SSILL
 62
6
 10
487.061
 20
-1587.550
 30
4337.646
 70
    32
  0
VERTEX
  8
T09SSILL
 62
6
 10
491.275
 20
-1586.791
 30
4337.637
 70
    32
  0
VERTEX
  8
T09SSILL
 62
6
 10
516.007
 20
-1566.933
 30
4337.542
 70
    32
  0
VERTEX
  8
T09SSILL
 62
6
 10
525.733
 20
-1556.951
 30
4337.499
 70
    32
  0
VERTEX
  8
T09SSILL
 62
6
 10
533.333
 20
-1539.165
 30
4337.436
 70
    32
  0
VERTEX
  8
T09SSILL
 62
6
 10
536.455
 20
-1535.604
 30
4337.421
 70
    32
  0
VERTEX
  8
T09SSILL
 62
6
 10
542.962
 20
-1535.255
 30
4337.410
 70
    32
  0
VERTEX
  8
T09SSILL
 62
6
 10
576.191
 20
-1512.383
 30
4337.293
 70
    32
  0
VERTEX
  8
T09SSILL
 62
6
 10
577.199
 20
-1508.674
 30
4337.281
 70
    32
  0
VERTEX
  8
T09SSILL
 62
6
 10
575.851
 20
-1499.804
 30
4337.258
 70
    32
  0
VERTEX
  8
T09SSILL
 62
6
 10
583.754
 20
-1491.781
 30
4337.223
 70
    32
  0
VERTEX
  8
T09SSILL
 62
6
 10
604.263
 20
-1465.203
 30
4337.116
 70
    32
  0
VERTEX
  8
T09SSILL
 62
6
 10
607.476
 20
-1461.905
 30
4337.101
 70
    32
  0
VERTEX
  8
T09SSILL
 62
6
 10
611.130
 20
-1463.205
 30
4337.099
 70
    32
  0
SEQEND
  8
T09SSILL
  0
POLYLINE
  8
T09SSILL
 62
6
 66
     1
 70
     9
  0
VERTEX
  8
T09SSILL
 62
6
 10
506.143
 20
-1716.740
 30
4337.982
 70
    32
  0
VERTEX
  8
T09SSILL
 62
6
 10
500.255
 20
-1715.502
 30
4337.987
 70
    32
  0
VERTEX
  8
T09SSILL
 62
6
 10
489.026
 20
-1724.976
 30
4338.032
 70
    32
  0
VERTEX
  8
T09SSILL
 62
6
 10
493.571
 20
-1736.092
 30
4338.056
 70
    32
  0
VERTEX
  8
T09SSILL
 62
6
 10
498.734
 20
-1740.601
 30
4338.061
 70
    32
  0
VERTEX
  8
T09SSILL
 62
6
 10
512.561
 20
-1728.013
 30
4338.004
 70
    32
  0
VERTEX
  8
T09SSILL
 62
6
 10
511.648
 20
-1725.116
 30
4337.997
 70
    32
  0
SEQEND
  8
T09SSILL
  0
POLYLINE
  8
T09SSILL
 62
6
 66
     1
 70
     9
  0
VERTEX
  8
T09SSILL
 62
6
 10
456.969
 20
-1514.098
 30
4337.485
 70
    32
  0
VERTEX
  8
T09SSILL
 62
6
 10
466.221
 20
-1521.207
 30
4337.491
 70
    32
  0
VERTEX
  8
T09SSILL
 62
6
 10
467.973
 20
-1520.568
 30
4337.486
 70
    32
  0
VERTEX
  8
T09SSILL
 62
6
 10
532.571
 20
-1473.881
 30
4337.253
 70
    32
  0
VERTEX
  8
T09SSILL
 62
6
 10
515.087
 20
-1448.941
 30
4337.210
 70
    32
  0
VERTEX
  8
T09SSILL
 62
6
 10
522.158
 20
-1444.625
 30
4337.186
 70
    32
  0
VERTEX
  8
T09SSILL
 62
6
 10
539.286
 20
-1469.217
 30
4337.229
 70
    32
  0
VERTEX
  8
T09SSILL
 62
6
 10
583.569
 20
-1437.050
 30
4337.069
 70
    32
  0
VERTEX
  8
T09SSILL
 62
6
 10
566.698
 20
-1411.838
 30
4337.024
 70
    32
  0
VERTEX
  8
T09SSILL
 62
6
 10
573.513
 20
-1408.142
 30
4337.003
 70
    32
  0
VERTEX
  8
T09SSILL
 62
6
 10
590.121
 20
-1433.356
 30
4337.048
 70
    32
  0
VERTEX
  8
T09SSILL
 62
6
 10
626.289
 20
-1406.398
 30
4336.990
 70
    32
  0
VERTEX
  8
T09SSILL
 62
6
 10
628.287
 20
-1397.660
 30
4336.983
 70
    32
  0
VERTEX
  8
T09SSILL
 62
6
 10
628.542
 20
-1390.177
 30
4336.976
 70
    32
  0
VERTEX
  8
T09SSILL
 62
6
 10
630.408
 20
-1384.873
 30
4336.972
 70
    32
  0
VERTEX
  8
T09SSILL
 62
6
 10
641.537
 20
-1381.296
 30
4336.972
 70
    32
  0
VERTEX
  8
T09SSILL
 62
6
 10
665.990
 20
-1366.986
 30
4336.968
 70
    32
  0
VERTEX
  8
T09SSILL
 62
6
 10
667.877
 20
-1363.178
 30
4336.965
 70
    32
  0
VERTEX
  8
T09SSILL
 62
6
 10
667.705
 20
-1356.756
 30
4336.959
 70
    32
  0
VERTEX
  8
T09SSILL
 62
6
 10
663.058
 20
-1351.273
 30
4336.953
 70
    32
  0
VERTEX
  8
T09SSILL
 62
6
 10
659.773
 20
-1349.028
 30
4336.950
 70
    32
  0
VERTEX
  8
T09SSILL
 62
6
 10
653.598
 20
-1347.876
 30
4336.947
 70
    32
  0
VERTEX
  8
T09SSILL
 62
6
 10
645.698
 20
-1349.387
 30
4336.946
 70
    32
  0
VERTEX
  8
T09SSILL
 62
6
 10
567.153
 20
-1399.513
 30
4336.988
 70
    32
  0
VERTEX
  8
T09SSILL
 62
6
 10
552.267
 20
-1411.938
 30
4337.047
 70
    32
  0
VERTEX
  8
T09SSILL
 62
6
 10
527.308
 20
-1427.927
 30
4337.131
 70
    32
  0
VERTEX
  8
T09SSILL
 62
6
 10
440.828
 20
-1487.836
 30
4337.436
 70
    32
  0
VERTEX
  8
T09SSILL
 62
6
 10
458.903
 20
-1512.753
 30
4337.479
 70
    32
  0
SEQEND
  8
T09SSILL
  0
POLYLINE
  8
T09SSILL
 62
6
 66
     1
 70
     9
  0
VERTEX
  8
T09SSILL
 62
6
 10
676.547
 20
-1468.254
 30
4337.060
 70
    32
  0
VERTEX
  8
T09SSILL
 62
6
 10
732.848
 20
-1432.994
 30
4337.047
 70
    32
  0
VERTEX
  8
T09SSILL
 62
6
 10
740.712
 20
-1428.755
 30
4337.046
 70
    32
  0
VERTEX
  8
T09SSILL
 62
6
 10
746.266
 20
-1429.475
 30
4337.048
 70
    32
  0
VERTEX
  8
T09SSILL
 62
6
 10
752.385
 20
-1426.403
 30
4337.048
 70
    32
  0
VERTEX
  8
T09SSILL
 62
6
 10
756.635
 20
-1421.596
 30
4337.045
 70
    32
  0
VERTEX
  8
T09SSILL
 62
6
 10
758.337
 20
-1417.174
 30
4337.041
 70
    32
  0
VERTEX
  8
T09SSILL
 62
6
 10
757.826
 20
-1411.725
 30
4337.036
 70
    32
  0
VERTEX
  8
T09SSILL
 62
6
 10
754.343
 20
-1407.810
 30
4337.032
 70
    32
  0
VERTEX
  8
T09SSILL
 62
6
 10
746.893
 20
-1403.332
 30
4337.026
 70
    32
  0
VERTEX
  8
T09SSILL
 62
6
 10
689.563
 20
-1393.167
 30
4336.998
 70
    32
  0
VERTEX
  8
T09SSILL
 62
6
 10
681.573
 20
-1387.815
 30
4336.991
 70
    32
  0
VERTEX
  8
T09SSILL
 62
6
 10
673.443
 20
-1378.417
 30
4336.980
 70
    32
  0
VERTEX
  8
T09SSILL
 62
6
 10
667.072
 20
-1375.684
 30
4336.976
 70
    32
  0
VERTEX
  8
T09SSILL
 62
6
 10
651.256
 20
-1384.250
 30
4336.978
 70
    32
  0
VERTEX
  8
T09SSILL
 62
6
 10
643.934
 20
-1389.625
 30
4336.981
 70
    32
  0
VERTEX
  8
T09SSILL
 62
6
 10
641.881
 20
-1394.140
 30
4336.984
 70
    32
  0
VERTEX
  8
T09SSILL
 62
6
 10
644.213
 20
-1431.332
 30
4337.017
 70
    32
  0
VERTEX
  8
T09SSILL
 62
6
 10
648.115
 20
-1450.929
 30
4337.036
 70
    32
  0
VERTEX
  8
T09SSILL
 62
6
 10
651.264
 20
-1455.042
 30
4337.040
 70
    32
  0
VERTEX
  8
T09SSILL
 62
6
 10
655.217
 20
-1451.423
 30
4337.038
 70
    32
  0
VERTEX
  8
T09SSILL
 62
6
 10
663.396
 20
-1461.679
 30
4337.050
 70
    32
  0
VERTEX
  8
T09SSILL
 62
6
 10
668.394
 20
-1457.681
 30
4337.048
 70
    32
  0
SEQEND
  8
T09SSILL
  0
POLYLINE
  8
T09SSILL
 62
6
 66
     1
 70
     9
  0
VERTEX
  8
T09SSILL
 62
6
 10
678.558
 20
-1480.509
 30
4337.071
 70
    32
  0
VERTEX
  8
T09SSILL
 62
6
 10
681.458
 20
-1487.077
 30
4337.078
 70
    32
  0
VERTEX
  8
T09SSILL
 62
6
 10
694.823
 20
-1479.511
 30
4337.076
 70
    32
  0
VERTEX
  8
T09SSILL
 62
6
 10
696.898
 20
-1476.668
 30
4337.074
 70
    32
  0
VERTEX
  8
T09SSILL
 62
6
 10
694.354
 20
-1470.542
 30
4337.068
 70
    32
  0
VERTEX
  8
T09SSILL
 62
6
 10
688.272
 20
-1469.741
 30
4337.065
 70
    32
  0
VERTEX
  8
T09SSILL
 62
6
 10
682.660
 20
-1471.310
 30
4337.065
 70
    32
  0
VERTEX
  8
T09SSILL
 62
6
 10
680.638
 20
-1473.559
 30
4337.066
 70
    32
  0
VERTEX
  8
T09SSILL
 62
6
 10
683.224
 20
-1476.913
 30
4337.070
 70
    32
  0
SEQEND
  8
T09SSILL
  0
POLYLINE
  8
T09SSILL
 62
6
 66
     1
 70
     9
  0
VERTEX
  8
T09SSILL
 62
6
 10
764.577
 20
-1543.528
 30
4337.154
 70
    32
  0
VERTEX
  8
T09SSILL
 62
6
 10
775.203
 20
-1536.543
 30
4337.152
 70
    32
  0
VERTEX
  8
T09SSILL
 62
6
 10
780.226
 20
-1523.542
 30
4337.142
 70
    32
  0
VERTEX
  8
T09SSILL
 62
6
 10
779.720
 20
-1518.532
 30
4337.137
 70
    32
  0
VERTEX
  8
T09SSILL
 62
6
 10
776.876
 20
-1516.369
 30
4337.134
 70
    32
  0
VERTEX
  8
T09SSILL
 62
6
 10
773.439
 20
-1515.974
 30
4337.133
 70
    32
  0
VERTEX
  8
T09SSILL
 62
6
 10
755.489
 20
-1530.350
 30
4337.140
 70
    32
  0
VERTEX
  8
T09SSILL
 62
6
 10
753.494
 20
-1533.103
 30
4337.142
 70
    32
  0
VERTEX
  8
T09SSILL
 62
6
 10
753.494
 20
-1539.530
 30
4337.147
 70
    32
  0
VERTEX
  8
T09SSILL
 62
6
 10
759.002
 20
-1535.444
 30
4337.145
 70
    32
  0
SEQEND
  8
T09SSILL
  0
POLYLINE
  8
T09SSILL
 62
6
 66
     1
 70
     9
  0
VERTEX
  8
T09SSILL
 62
6
 10
780.482
 20
-1566.593
 30
4337.180
 70
    32
  0
VERTEX
  8
T09SSILL
 62
6
 10
782.332
 20
-1563.641
 30
4337.178
 70
    32
  0
VERTEX
  8
T09SSILL
 62
6
 10
780.851
 20
-1558.028
 30
4337.172
 70
    32
  0
VERTEX
  8
T09SSILL
 62
6
 10
781.666
 20
-1553.090
 30
4337.168
 70
    32
  0
VERTEX
  8
T09SSILL
 62
6
 10
780.169
 20
-1546.246
 30
4337.162
 70
    32
  0
VERTEX
  8
T09SSILL
 62
6
 10
775.682
 20
-1546.304
 30
4337.160
 70
    32
  0
VERTEX
  8
T09SSILL
 62
6
 10
771.753
 20
-1548.643
 30
4337.161
 70
    32
  0
VERTEX
  8
T09SSILL
 62
6
 10
769.713
 20
-1550.977
 30
4337.162
 70
    32
  0
VERTEX
  8
T09SSILL
 62
6
 10
779.451
 20
-1565.098
 30
4337.178
 70
    32
  0
VERTEX
  8
T09SSILL
 62
6
 10
775.319
 20
-1568.164
 30
4337.179
 70
    32
  0
VERTEX
  8
T09SSILL
 62
6
 10
778.238
 20
-1568.776
 30
4337.181
 70
    32
  0
SEQEND
  8
T09SSILL
  0
POLYLINE
  8
T09SSILL
 62
6
 66
     1
 70
     9
  0
VERTEX
  8
T09SSILL
 62
6
 10
1245.434
 20
-1760.855
 30
4337.499
 70
    32
  0
VERTEX
  8
T09SSILL
 62
6
 10
1218.584
 20
-1760.832
 30
4337.490
 70
    32
  0
VERTEX
  8
T09SSILL
 62
6
 10
1210.124
 20
-1767.384
 30
4337.493
 70
    32
  0
VERTEX
  8
T09SSILL
 62
6
 10
1199.043
 20
-1771.274
 30
4337.493
 70
    32
  0
VERTEX
  8
T09SSILL
 62
6
 10
1193.852
 20
-1774.839
 30
4337.495
 70
    32
  0
VERTEX
  8
T09SSILL
 62
6
 10
1190.506
 20
-1774.836
 30
4337.494
 70
    32
  0
VERTEX
  8
T09SSILL
 62
6
 10
1184.789
 20
-1771.548
 30
4337.489
 70
    32
  0
VERTEX
  8
T09SSILL
 62
6
 10
1174.585
 20
-1761.419
 30
4337.477
 70
    32
  0
VERTEX
  8
T09SSILL
 62
6
 10
1173.256
 20
-1757.579
 30
4337.473
 70
    32
  0
VERTEX
  8
T09SSILL
 62
6
 10
1176.696
 20
-1747.457
 30
4337.465
 70
    32
  0
VERTEX
  8
T09SSILL
 62
6
 10
1169.311
 20
-1730.479
 30
4337.448
 70
    32
  0
VERTEX
  8
T09SSILL
 62
6
 10
1171.452
 20
-1721.181
 30
4337.440
 70
    32
  0
VERTEX
  8
T09SSILL
 62
6
 10
1166.659
 20
-1712.676
 30
4337.431
 70
    32
  0
VERTEX
  8
T09SSILL
 62
6
 10
1163.624
 20
-1704.038
 30
4337.423
 70
    32
  0
VERTEX
  8
T09SSILL
 62
6
 10
1155.308
 20
-1692.013
 30
4337.410
 70
    32
  0
VERTEX
  8
T09SSILL
 62
6
 10
1160.704
 20
-1682.634
 30
4337.403
 70
    32
  0
VERTEX
  8
T09SSILL
 62
6
 10
1157.792
 20
-1675.401
 30
4337.396
 70
    32
  0
VERTEX
  8
T09SSILL
 62
6
 10
1156.973
 20
-1660.457
 30
4337.382
 70
    32
  0
VERTEX
  8
T09SSILL
 62
6
 10
1149.583
 20
-1653.690
 30
4337.374
 70
    32
  0
VERTEX
  8
T09SSILL
 62
6
 10
1149.597
 20
-1650.785
 30
4337.372
 70
    32
  0
VERTEX
  8
T09SSILL
 62
6
 10
1249.787
 20
-1606.167
 30
4337.365
 70
    32
  0
VERTEX
  8
T09SSILL
 62
6
 10
1247.462
 20
-1600.431
 30
4337.359
 70
    32
  0
VERTEX
  8
T09SSILL
 62
6
 10
1149.309
 20
-1642.870
 30
4337.365
 70
    32
  0
VERTEX
  8
T09SSILL
 62
6
 10
1145.106
 20
-1643.768
 30
4337.364
 70
    32
  0
VERTEX
  8
T09SSILL
 62
6
 10
1142.790
 20
-1642.683
 30
4337.362
 70
    32
  0
VERTEX
  8
T09SSILL
 62
6
 10
1141.597
 20
-1633.822
 30
4337.354
 70
    32
  0
VERTEX
  8
T09SSILL
 62
6
 10
1138.062
 20
-1633.296
 30
4337.353
 70
    32
  0
VERTEX
  8
T09SSILL
 62
6
 10
1130.923
 20
-1625.994
 30
4337.344
 70
    32
  0
VERTEX
  8
T09SSILL
 62
6
 10
1123.620
 20
-1629.612
 30
4337.345
 70
    32
  0
VERTEX
  8
T09SSILL
 62
6
 10
1112.933
 20
-1652.507
 30
4337.361
 70
    32
  0
VERTEX
  8
T09SSILL
 62
6
 10
1116.258
 20
-1682.968
 30
4337.389
 70
    32
  0
VERTEX
  8
T09SSILL
 62
6
 10
1122.731
 20
-1709.124
 30
4337.414
 70
    32
  0
VERTEX
  8
T09SSILL
 62
6
 10
1123.169
 20
-1740.275
 30
4337.442
 70
    32
  0
VERTEX
  8
T09SSILL
 62
6
 10
1128.896
 20
-1747.436
 30
4337.450
 70
    32
  0
VERTEX
  8
T09SSILL
 62
6
 10
1126.217
 20
-1752.874
 30
4337.454
 70
    32
  0
VERTEX
  8
T09SSILL
 62
6
 10
1129.884
 20
-1772.499
 30
4337.472
 70
    32
  0
VERTEX
  8
T09SSILL
 62
6
 10
1139.924
 20
-1803.935
 30
4337.503
 70
    32
  0
VERTEX
  8
T09SSILL
 62
6
 10
1146.608
 20
-1817.586
 30
4337.517
 70
    32
  0
VERTEX
  8
T09SSILL
 62
6
 10
1150.069
 20
-1822.164
 30
4337.522
 70
    32
  0
VERTEX
  8
T09SSILL
 62
6
 10
1150.833
 20
-1831.475
 30
4337.531
 70
    32
  0
VERTEX
  8
T09SSILL
 62
6
 10
1156.939
 20
-1857.025
 30
4337.555
 70
    32
  0
VERTEX
  8
T09SSILL
 62
6
 10
1161.759
 20
-1873.540
 30
4337.571
 70
    32
  0
VERTEX
  8
T09SSILL
 62
6
 10
1167.884
 20
-1885.973
 30
4337.584
 70
    32
  0
VERTEX
  8
T09SSILL
 62
6
 10
1165.630
 20
-1894.304
 30
4337.591
 70
    32
  0
VERTEX
  8
T09SSILL
 62
6
 10
1167.166
 20
-1902.804
 30
4337.598
 70
    32
  0
VERTEX
  8
T09SSILL
 62
6
 10
1164.558
 20
-1911.057
 30
4337.605
 70
    32
  0
VERTEX
  8
T09SSILL
 62
6
 10
1161.713
 20
-1913.418
 30
4337.606
 70
    32
  0
VERTEX
  8
T09SSILL
 62
6
 10
1004.533
 20
-1887.121
 30
4337.682
 70
    32
  0
VERTEX
  8
T09SSILL
 62
6
 10
991.881
 20
-1883.333
 30
4337.691
 70
    32
  0
VERTEX
  8
T09SSILL
 62
6
 10
971.014
 20
-1808.104
 30
4337.511
 70
    32
  0
VERTEX
  8
T09SSILL
 62
6
 10
901.578
 20
-1679.300
 30
4337.317
 70
    32
  0
VERTEX
  8
T09SSILL
 62
6
 10
906.507
 20
-1665.860
 30
4337.307
 70
    32
  0
VERTEX
  8
T09SSILL
 62
6
 10
910.075
 20
-1662.822
 30
4337.306
 70
    32
  0
VERTEX
  8
T09SSILL
 62
6
 10
912.715
 20
-1662.788
 30
4337.306
 70
    32
  0
VERTEX
  8
T09SSILL
 62
6
 10
925.446
 20
-1667.374
 30
4337.314
 70
    32
  0
VERTEX
  8
T09SSILL
 62
6
 10
927.332
 20
-1670.253
 30
4337.318
 70
    32
  0
VERTEX
  8
T09SSILL
 62
6
 10
935.475
 20
-1667.155
 30
4337.317
 70
    32
  0
VERTEX
  8
T09SSILL
 62
6
 10
937.117
 20
-1664.846
 30
4337.316
 70
    32
  0
VERTEX
  8
T09SSILL
 62
6
 10
936.207
 20
-1649.018
 30
4337.302
 70
    32
  0
VERTEX
  8
T09SSILL
 62
6
 10
939.848
 20
-1644.835
 30
4337.299
 70
    32
  0
VERTEX
  8
T09SSILL
 62
6
 10
940.162
 20
-1641.927
 30
4337.297
 70
    32
  0
VERTEX
  8
T09SSILL
 62
6
 10
937.631
 20
-1636.768
 30
4337.291
 70
    32
  0
VERTEX
  8
T09SSILL
 62
6
 10
935.213
 20
-1613.216
 30
4337.270
 70
    32
  0
VERTEX
  8
T09SSILL
 62
6
 10
931.595
 20
-1558.441
 30
4337.221
 70
    32
  0
VERTEX
  8
T09SSILL
 62
6
 10
929.012
 20
-1549.235
 30
4337.212
 70
    32
  0
VERTEX
  8
T09SSILL
 62
6
 10
925.135
 20
-1542.158
 30
4337.204
 70
    32
  0
VERTEX
  8
T09SSILL
 62
6
 10
915.650
 20
-1489.483
 30
4337.155
 70
    32
  0
VERTEX
  8
T09SSILL
 62
6
 10
881.713
 20
-1505.324
 30
4337.158
 70
    32
  0
VERTEX
  8
T09SSILL
 62
6
 10
873.428
 20
-1511.064
 30
4337.161
 70
    32
  0
VERTEX
  8
T09SSILL
 62
6
 10
838.196
 20
-1528.770
 30
4337.165
 70
    32
  0
VERTEX
  8
T09SSILL
 62
6
 10
834.140
 20
-1528.119
 30
4337.163
 70
    32
  0
VERTEX
  8
T09SSILL
 62
6
 10
832.355
 20
-1526.207
 30
4337.161
 70
    32
  0
VERTEX
  8
T09SSILL
 62
6
 10
799.283
 20
-1446.296
 30
4337.080
 70
    32
  0
VERTEX
  8
T09SSILL
 62
6
 10
755.194
 20
-1398.824
 30
4337.024
 70
    32
  0
VERTEX
  8
T09SSILL
 62
6
 10
691.954
 20
-1387.592
 30
4336.994
 70
    32
  0
VERTEX
  8
T09SSILL
 62
6
 10
684.334
 20
-1376.867
 30
4336.982
 70
    32
  0
VERTEX
  8
T09SSILL
 62
6
 10
681.222
 20
-1374.356
 30
4336.979
 70
    32
  0
VERTEX
  8
T09SSILL
 62
6
 10
675.560
 20
-1358.502
 30
4336.963
 70
    32
  0
VERTEX
  8
T09SSILL
 62
6
 10
670.694
 20
-1349.766
 30
4336.954
 70
    32
  0
VERTEX
  8
T09SSILL
 62
6
 10
670.387
 20
-1339.738
 30
4336.945
 70
    32
  0
VERTEX
  8
T09SSILL
 62
6
 10
674.168
 20
-1332.737
 30
4336.941
 70
    32
  0
VERTEX
  8
T09SSILL
 62
6
 10
793.631
 20
-1262.279
 30
4336.930
 70
    32
  0
VERTEX
  8
T09SSILL
 62
6
 10
806.522
 20
-1258.856
 30
4336.929
 70
    32
  0
VERTEX
  8
T09SSILL
 62
6
 10
807.887
 20
-1262.358
 30
4336.929
 70
    32
  0
VERTEX
  8
T09SSILL
 62
6
 10
806.933
 20
-1263.426
 30
4336.929
 70
    32
  0
VERTEX
  8
T09SSILL
 62
6
 10
814.066
 20
-1277.325
 30
4336.936
 70
    32
  0
VERTEX
  8
T09SSILL
 62
6
 10
820.709
 20
-1273.894
 30
4336.936
 70
    32
  0
VERTEX
  8
T09SSILL
 62
6
 10
824.788
 20
-1269.529
 30
4336.933
 70
    32
  0
VERTEX
  8
T09SSILL
 62
6
 10
816.446
 20
-1257.406
 30
4336.928
 70
    32
  0
VERTEX
  8
T09SSILL
 62
6
 10
814.607
 20
-1258.046
 30
4336.929
 70
    32
  0
VERTEX
  8
T09SSILL
 62
6
 10
812.813
 20
-1255.430
 30
4336.929
 70
    32
  0
VERTEX
  8
T09SSILL
 62
6
 10
813.039
 20
-1252.523
 30
4336.929
 70
    32
  0
VERTEX
  8
T09SSILL
 62
6
 10
820.727
 20
-1248.287
 30
4336.928
 70
    32
  0
VERTEX
  8
T09SSILL
 62
6
 10
825.237
 20
-1243.212
 30
4336.927
 70
    32
  0
VERTEX
  8
T09SSILL
 62
6
 10
1036.670
 20
-1119.727
 30
4336.909
 70
    32
  0
VERTEX
  8
T09SSILL
 62
6
 10
1051.955
 20
-1117.680
 30
4336.908
 70
    32
  0
VERTEX
  8
T09SSILL
 62
6
 10
1075.802
 20
-1124.409
 30
4336.906
 70
    32
  0
VERTEX
  8
T09SSILL
 62
6
 10
1085.553
 20
-1129.914
 30
4336.905
 70
    32
  0
VERTEX
  8
T09SSILL
 62
6
 10
1202.693
 20
-1208.241
 30
4337.002
 70
    32
  0
VERTEX
  8
T09SSILL
 62
6
 10
1206.494
 20
-1213.765
 30
4337.008
 70
    32
  0
VERTEX
  8
T09SSILL
 62
6
 10
1211.239
 20
-1226.032
 30
4337.020
 70
    32
  0
VERTEX
  8
T09SSILL
 62
6
 10
1220.999
 20
-1241.499
 30
4337.038
 70
    32
  0
VERTEX
  8
T09SSILL
 62
6
 10
1426.998
 20
-1617.899
 30
4337.445
 70
    32
  0
VERTEX
  8
T09SSILL
 62
6
 10
1426.396
 20
-1624.600
 30
4337.449
 70
    32
  0
VERTEX
  8
T09SSILL
 62
6
 10
1262.785
 20
-1772.857
 30
4337.515
 70
    32
  0
VERTEX
  8
T09SSILL
 62
6
 10
1259.318
 20
-1768.470
 30
4337.510
 70
    32
  0
VERTEX
  8
T09SSILL
 62
6
 10
1253.306
 20
-1764.242
 30
4337.504
 70
    32
  0
SEQEND
  8
T09SSILL
  0
POLYLINE
  8
T09SSILL
 62
6
 66
     1
 70
     9
  0
VERTEX
  8
T09SSILL
 62
6
 10
1191.976
 20
-1836.009
 30
4337.548
 70
    32
  0
VERTEX
  8
T09SSILL
 62
6
 10
1187.591
 20
-1826.494
 30
4337.538
 70
    32
  0
VERTEX
  8
T09SSILL
 62
6
 10
1190.538
 20
-1807.317
 30
4337.522
 70
    32
  0
VERTEX
  8
T09SSILL
 62
6
 10
1190.815
 20
-1790.497
 30
4337.507
 70
    32
  0
VERTEX
  8
T09SSILL
 62
6
 10
1187.723
 20
-1783.093
 30
4337.500
 70
    32
  0
VERTEX
  8
T09SSILL
 62
6
 10
1166.403
 20
-1765.060
 30
4337.477
 70
    32
  0
VERTEX
  8
T09SSILL
 62
6
 10
1161.071
 20
-1770.036
 30
4337.480
 70
    32
  0
VERTEX
  8
T09SSILL
 62
6
 10
1160.980
 20
-1780.338
 30
4337.489
 70
    32
  0
VERTEX
  8
T09SSILL
 62
6
 10
1164.255
 20
-1798.389
 30
4337.506
 70
    32
  0
VERTEX
  8
T09SSILL
 62
6
 10
1168.966
 20
-1810.593
 30
4337.518
 70
    32
  0
VERTEX
  8
T09SSILL
 62
6
 10
1170.740
 20
-1821.552
 30
4337.528
 70
    32
  0
VERTEX
  8
T09SSILL
 62
6
 10
1168.418
 20
-1823.723
 30
4337.529
 70
    32
  0
VERTEX
  8
T09SSILL
 62
6
 10
1162.537
 20
-1834.788
 30
4337.537
 70
    32
  0
VERTEX
  8
T09SSILL
 62
6
 10
1161.015
 20
-1840.724
 30
4337.542
 70
    32
  0
VERTEX
  8
T09SSILL
 62
6
 10
1166.776
 20
-1859.203
 30
4337.560
 70
    32
  0
SEQEND
  8
T09SSILL
  0
POLYLINE
  8
T09SSILL
 62
6
 66
     1
 70
     9
  0
VERTEX
  8
T09SSILL
 62
6
 10
1174.545
 20
-1916.085
 30
4337.612
 70
    32
  0
VERTEX
  8
T09SSILL
 62
6
 10
1204.684
 20
-1920.867
 30
4337.626
 70
    32
  0
VERTEX
  8
T09SSILL
 62
6
 10
1206.041
 20
-1908.421
 30
4337.616
 70
    32
  0
VERTEX
  8
T09SSILL
 62
6
 10
1201.947
 20
-1885.813
 30
4337.595
 70
    32
  0
VERTEX
  8
T09SSILL
 62
6
 10
1196.662
 20
-1875.296
 30
4337.584
 70
    32
  0
VERTEX
  8
T09SSILL
 62
6
 10
1193.494
 20
-1871.855
 30
4337.580
 70
    32
  0
VERTEX
  8
T09SSILL
 62
6
 10
1193.252
 20
-1844.142
 30
4337.555
 70
    32
  0
VERTEX
  8
T09SSILL
 62
6
 10
1170.146
 20
-1865.421
 30
4337.567
 70
    32
  0
VERTEX
  8
T09SSILL
 62
6
 10
1171.399
 20
-1875.320
 30
4337.576
 70
    32
  0
VERTEX
  8
T09SSILL
 62
6
 10
1174.666
 20
-1879.199
 30
4337.580
 70
    32
  0
VERTEX
  8
T09SSILL
 62
6
 10
1172.365
 20
-1903.025
 30
4337.600
 70
    32
  0
SEQEND
  8
T09SSILL
  0
POLYLINE
  8
T09SSILL
 62
6
 66
     1
 70
     9
  0
VERTEX
  8
T09SSILL
 62
6
 10
1184.099
 20
-2058.438
 30
4337.885
 70
    32
  0
VERTEX
  8
T09SSILL
 62
6
 10
1154.431
 20
-2063.719
 30
4337.946
 70
    32
  0
VERTEX
  8
T09SSILL
 62
6
 10
1152.914
 20
-2061.561
 30
4337.943
 70
    32
  0
VERTEX
  8
T09SSILL
 62
6
 10
1149.825
 20
-2038.853
 30
4337.883
 70
    32
  0
VERTEX
  8
T09SSILL
 62
6
 10
1154.797
 20
-2018.747
 30
4337.818
 70
    32
  0
VERTEX
  8
T09SSILL
 62
6
 10
1198.888
 20
-2013.541
 30
4337.735
 70
    32
  0
VERTEX
  8
T09SSILL
 62
6
 10
1196.506
 20
-2022.579
 30
4337.764
 70
    32
  0
VERTEX
  8
T09SSILL
 62
6
 10
1185.605
 20
-2028.956
 30
4337.799
 70
    32
  0
VERTEX
  8
T09SSILL
 62
6
 10
1185.682
 20
-2048.765
 30
4337.855
 70
    32
  0
VERTEX
  8
T09SSILL
 62
6
 10
1185.212
 20
-2055.436
 30
4337.875
 70
    32
  0
SEQEND
  8
T09SSILL
  0
POLYLINE
  8
T09SSILL
 62
6
 66
     1
 70
     9
  0
VERTEX
  8
T09SSILL
 62
6
 10
1657.130
 20
-2035.919
 30
4337.897
 70
    32
  0
VERTEX
  8
T09SSILL
 62
6
 10
1965.808
 20
-2592.889
 30
4338.369
 70
    32
  0
VERTEX
  8
T09SSILL
 62
6
 10
1982.168
 20
-2624.184
 30
4338.393
 70
    32
  0
VERTEX
  8
T09SSILL
 62
6
 10
1983.603
 20
-2628.979
 30
4338.397
 70
    32
  0
VERTEX
  8
T09SSILL
 62
6
 10
1982.974
 20
-2637.932
 30
4338.408
 70
    32
  0
VERTEX
  8
T09SSILL
 62
6
 10
1975.118
 20
-2650.180
 30
4338.428
 70
    32
  0
VERTEX
  8
T09SSILL
 62
6
 10
1918.304
 20
-2687.456
 30
4338.516
 70
    32
  0
VERTEX
  8
T09SSILL
 62
6
 10
1904.130
 20
-2670.112
 30
4338.506
 70
    32
  0
VERTEX
  8
T09SSILL
 62
6
 10
1884.239
 20
-2684.575
 30
4338.550
 70
    32
  0
VERTEX
  8
T09SSILL
 62
6
 10
1851.725
 20
-2711.894
 30
4338.643
 70
    32
  0
VERTEX
  8
T09SSILL
 62
6
 10
1827.053
 20
-2729.562
 30
4338.707
 70
    32
  0
VERTEX
  8
T09SSILL
 62
6
 10
1822.771
 20
-2724.293
 30
4338.703
 70
    32
  0
VERTEX
  8
T09SSILL
 62
6
 10
1826.630
 20
-2721.233
 30
4338.692
 70
    32
  0
VERTEX
  8
T09SSILL
 62
6
 10
1822.492
 20
-2715.651
 30
4338.687
 70
    32
  0
VERTEX
  8
T09SSILL
 62
6
 10
1813.113
 20
-2723.101
 30
4338.712
 70
    32
  0
VERTEX
  8
T09SSILL
 62
6
 10
1822.304
 20
-2736.238
 30
4338.726
 70
    32
  0
VERTEX
  8
T09SSILL
 62
6
 10
1821.546
 20
-2737.701
 30
4338.730
 70
    32
  0
VERTEX
  8
T09SSILL
 62
6
 10
1788.254
 20
-2761.740
 30
4338.817
 70
    32
  0
VERTEX
  8
T09SSILL
 62
6
 10
1455.821
 20
-2531.883
 30
4338.798
 70
    32
  0
VERTEX
  8
T09SSILL
 62
6
 10
1445.104
 20
-2528.561
 30
4338.806
 70
    32
  0
VERTEX
  8
T09SSILL
 62
6
 10
1409.842
 20
-2528.172
 30
4338.860
 70
    32
  0
VERTEX
  8
T09SSILL
 62
6
 10
1399.856
 20
-2526.808
 30
4338.872
 70
    32
  0
VERTEX
  8
T09SSILL
 62
6
 10
1205.841
 20
-2303.963
 30
4338.546
 70
    32
  0
VERTEX
  8
T09SSILL
 62
6
 10
1202.824
 20
-2296.305
 30
4338.529
 70
    32
  0
VERTEX
  8
T09SSILL
 62
6
 10
1203.798
 20
-2293.256
 30
4338.518
 70
    32
  0
VERTEX
  8
T09SSILL
 62
6
 10
1248.432
 20
-2260.859
 30
4338.357
 70
    32
  0
VERTEX
  8
T09SSILL
 62
6
 10
1252.642
 20
-2261.254
 30
4338.351
 70
    32
  0
VERTEX
  8
T09SSILL
 62
6
 10
1266.655
 20
-2274.618
 30
4338.367
 70
    32
  0
VERTEX
  8
T09SSILL
 62
6
 10
1270.654
 20
-2276.150
 30
4338.365
 70
    32
  0
VERTEX
  8
T09SSILL
 62
6
 10
1280.499
 20
-2273.552
 30
4338.342
 70
    32
  0
VERTEX
  8
T09SSILL
 62
6
 10
1293.993
 20
-2280.919
 30
4338.342
 70
    32
  0
VERTEX
  8
T09SSILL
 62
6
 10
1319.143
 20
-2298.235
 30
4338.352
 70
    32
  0
VERTEX
  8
T09SSILL
 62
6
 10
1325.855
 20
-2297.387
 30
4338.339
 70
    32
  0
VERTEX
  8
T09SSILL
 62
6
 10
1334.974
 20
-2292.656
 30
4338.311
 70
    32
  0
VERTEX
  8
T09SSILL
 62
6
 10
1346.402
 20
-2284.389
 30
4338.270
 70
    32
  0
VERTEX
  8
T09SSILL
 62
6
 10
1348.372
 20
-2277.589
 30
4338.247
 70
    32
  0
VERTEX
  8
T09SSILL
 62
6
 10
1345.605
 20
-2273.193
 30
4338.239
 70
    32
  0
VERTEX
  8
T09SSILL
 62
6
 10
1326.640
 20
-2257.827
 30
4338.225
 70
    32
  0
VERTEX
  8
T09SSILL
 62
6
 10
1317.473
 20
-2247.075
 30
4338.209
 70
    32
  0
VERTEX
  8
T09SSILL
 62
6
 10
1301.067
 20
-2231.437
 30
4338.191
 70
    32
  0
VERTEX
  8
T09SSILL
 62
6
 10
1303.793
 20
-2217.271
 30
4338.146
 70
    32
  0
VERTEX
  8
T09SSILL
 62
6
 10
1303.152
 20
-2212.413
 30
4338.134
 70
    32
  0
VERTEX
  8
T09SSILL
 62
6
 10
1288.200
 20
-2189.606
 30
4338.093
 70
    32
  0
VERTEX
  8
T09SSILL
 62
6
 10
1286.827
 20
-2179.976
 30
4338.068
 70
    32
  0
VERTEX
  8
T09SSILL
 62
6
 10
1282.422
 20
-2171.658
 30
4338.051
 70
    32
  0
VERTEX
  8
T09SSILL
 62
6
 10
1281.565
 20
-2170.928
 30
4338.050
 70
    32
  0
VERTEX
  8
T09SSILL
 62
6
 10
1270.707
 20
-2172.175
 30
4338.071
 70
    32
  0
VERTEX
  8
T09SSILL
 62
6
 10
1265.480
 20
-2170.518
 30
4338.074
 70
    32
  0
VERTEX
  8
T09SSILL
 62
6
 10
1270.622
 20
-2163.552
 30
4338.047
 70
    32
  0
VERTEX
  8
T09SSILL
 62
6
 10
1269.629
 20
-2158.448
 30
4338.034
 70
    32
  0
VERTEX
  8
T09SSILL
 62
6
 10
1275.660
 20
-2157.483
 30
4338.021
 70
    32
  0
VERTEX
  8
T09SSILL
 62
6
 10
1274.644
 20
-2152.585
 30
4338.009
 70
    32
  0
VERTEX
  8
T09SSILL
 62
6
 10
1268.656
 20
-2153.445
 30
4338.021
 70
    32
  0
VERTEX
  8
T09SSILL
 62
6
 10
1267.283
 20
-2146.383
 30
4338.003
 70
    32
  0
VERTEX
  8
T09SSILL
 62
6
 10
1266.224
 20
-2146.578
 30
4338.005
 70
    32
  0
VERTEX
  8
T09SSILL
 62
6
 10
1243.948
 20
-2118.743
 30
4337.962
 70
    32
  0
VERTEX
  8
T09SSILL
 62
6
 10
1238.746
 20
-2107.762
 30
4337.939
 70
    32
  0
VERTEX
  8
T09SSILL
 62
6
 10
1235.390
 20
-2096.838
 30
4337.913
 70
    32
  0
VERTEX
  8
T09SSILL
 62
6
 10
1226.423
 20
-2085.301
 30
4337.894
 70
    32
  0
VERTEX
  8
T09SSILL
 62
6
 10
1213.404
 20
-2079.620
 30
4337.899
 70
    32
  0
VERTEX
  8
T09SSILL
 62
6
 10
1211.812
 20
-2062.857
 30
4337.854
 70
    32
  0
VERTEX
  8
T09SSILL
 62
6
 10
1214.713
 20
-2048.696
 30
4337.809
 70
    32
  0
VERTEX
  8
T09SSILL
 62
6
 10
1223.130
 20
-2034.138
 30
4337.755
 70
    32
  0
VERTEX
  8
T09SSILL
 62
6
 10
1221.867
 20
-2014.385
 30
4337.714
 70
    32
  0
VERTEX
  8
T09SSILL
 62
6
 10
1223.396
 20
-1996.928
 30
4337.699
 70
    32
  0
VERTEX
  8
T09SSILL
 62
6
 10
1229.018
 20
-1965.634
 30
4337.673
 70
    32
  0
VERTEX
  8
T09SSILL
 62
6
 10
1226.852
 20
-1960.594
 30
4337.668
 70
    32
  0
VERTEX
  8
T09SSILL
 62
6
 10
1228.405
 20
-1956.416
 30
4337.665
 70
    32
  0
VERTEX
  8
T09SSILL
 62
6
 10
1225.472
 20
-1949.112
 30
4337.658
 70
    32
  0
VERTEX
  8
T09SSILL
 62
6
 10
1225.797
 20
-1935.734
 30
4337.646
 70
    32
  0
VERTEX
  8
T09SSILL
 62
6
 10
1231.344
 20
-1932.850
 30
4337.645
 70
    32
  0
VERTEX
  8
T09SSILL
 62
6
 10
1296.791
 20
-1942.606
 30
4337.675
 70
    32
  0
VERTEX
  8
T09SSILL
 62
6
 10
1299.065
 20
-1948.347
 30
4337.681
 70
    32
  0
VERTEX
  8
T09SSILL
 62
6
 10
1299.104
 20
-1962.154
 30
4337.693
 70
    32
  0
VERTEX
  8
T09SSILL
 62
6
 10
1306.413
 20
-1993.521
 30
4337.723
 70
    32
  0
VERTEX
  8
T09SSILL
 62
6
 10
1306.991
 20
-2001.508
 30
4337.730
 70
    32
  0
VERTEX
  8
T09SSILL
 62
6
 10
1326.443
 20
-2039.304
 30
4337.769
 70
    32
  0
VERTEX
  8
T09SSILL
 62
6
 10
1336.448
 20
-2068.915
 30
4337.798
 70
    32
  0
VERTEX
  8
T09SSILL
 62
6
 10
1342.000
 20
-2074.277
 30
4337.805
 70
    32
  0
VERTEX
  8
T09SSILL
 62
6
 10
1352.249
 20
-2104.063
 30
4337.834
 70
    32
  0
VERTEX
  8
T09SSILL
 62
6
 10
1357.426
 20
-2124.368
 30
4337.854
 70
    32
  0
VERTEX
  8
T09SSILL
 62
6
 10
1361.250
 20
-2128.709
 30
4337.859
 70
    32
  0
VERTEX
  8
T09SSILL
 62
6
 10
1367.070
 20
-2131.088
 30
4337.863
 70
    32
  0
VERTEX
  8
T09SSILL
 62
6
 10
1377.107
 20
-2127.968
 30
4337.863
 70
    32
  0
VERTEX
  8
T09SSILL
 62
6
 10
1379.261
 20
-2109.562
 30
4337.848
 70
    32
  0
VERTEX
  8
T09SSILL
 62
6
 10
1376.695
 20
-2098.663
 30
4337.837
 70
    32
  0
VERTEX
  8
T09SSILL
 62
6
 10
1378.135
 20
-2091.934
 30
4337.832
 70
    32
  0
VERTEX
  8
T09SSILL
 62
6
 10
1371.772
 20
-2073.000
 30
4337.813
 70
    32
  0
VERTEX
  8
T09SSILL
 62
6
 10
1366.128
 20
-2062.093
 30
4337.802
 70
    32
  0
VERTEX
  8
T09SSILL
 62
6
 10
1357.934
 20
-2039.467
 30
4337.779
 70
    32
  0
VERTEX
  8
T09SSILL
 62
6
 10
1350.209
 20
-2027.549
 30
4337.767
 70
    32
  0
VERTEX
  8
T09SSILL
 62
6
 10
1323.311
 20
-1944.230
 30
4337.685
 70
    32
  0
VERTEX
  8
T09SSILL
 62
6
 10
1327.613
 20
-1940.854
 30
4337.683
 70
    32
  0
VERTEX
  8
T09SSILL
 62
6
 10
1387.988
 20
-1923.665
 30
4337.687
 70
    32
  0
VERTEX
  8
T09SSILL
 62
6
 10
1401.850
 20
-1925.559
 30
4337.694
 70
    32
  0
VERTEX
  8
T09SSILL
 62
6
 10
1431.218
 20
-1950.145
 30
4337.725
 70
    32
  0
VERTEX
  8
T09SSILL
 62
6
 10
1434.498
 20
-1957.264
 30
4337.732
 70
    32
  0
VERTEX
  8
T09SSILL
 62
6
 10
1564.138
 20
-1885.870
 30
4337.727
 70
    32
  0
VERTEX
  8
T09SSILL
 62
6
 10
1571.384
 20
-1887.072
 30
4337.733
 70
    32
  0
VERTEX
  8
T09SSILL
 62
6
 10
1575.670
 20
-1889.326
 30
4337.738
 70
    32
  0
VERTEX
  8
T09SSILL
 62
6
 10
1577.954
 20
-1892.339
 30
4337.742
 70
    32
  0
SEQEND
  8
T09SSILL
  0
POLYLINE
  8
T09SSILL
 62
6
 66
     1
 70
     9
  0
VERTEX
  8
T09SSILL
 62
6
 10
1556.921
 20
-2695.505
 30
4339.008
 70
    32
  0
VERTEX
  8
T09SSILL
 62
6
 10
1559.330
 20
-2708.910
 30
4339.004
 70
    32
  0
VERTEX
  8
T09SSILL
 62
6
 10
1561.383
 20
-2713.635
 30
4339.011
 70
    32
  0
VERTEX
  8
T09SSILL
 62
6
 10
1566.835
 20
-2716.531
 30
4339.009
 70
    32
  0
VERTEX
  8
T09SSILL
 62
6
 10
1572.200
 20
-2730.772
 30
4339.030
 70
    32
  0
VERTEX
  8
T09SSILL
 62
6
 10
1583.342
 20
-2743.080
 30
4339.039
 70
    32
  0
VERTEX
  8
T09SSILL
 62
6
 10
1589.736
 20
-2743.982
 30
4339.033
 70
    32
  0
VERTEX
  8
T09SSILL
 62
6
 10
1616.519
 20
-2728.450
 30
4338.970
 70
    32
  0
VERTEX
  8
T09SSILL
 62
6
 10
1648.083
 20
-2714.737
 30
4338.904
 70
    32
  0
VERTEX
  8
T09SSILL
 62
6
 10
1666.968
 20
-2718.488
 30
4338.887
 70
    32
  0
VERTEX
  8
T09SSILL
 62
6
 10
1681.173
 20
-2714.266
 30
4338.861
 70
    32
  0
VERTEX
  8
T09SSILL
 62
6
 10
1683.452
 20
-2711.697
 30
4338.854
 70
    32
  0
VERTEX
  8
T09SSILL
 62
6
 10
1682.970
 20
-2707.372
 30
4338.846
 70
    32
  0
VERTEX
  8
T09SSILL
 62
6
 10
1624.413
 20
-2666.678
 30
4338.915
 70
    32
  0
VERTEX
  8
T09SSILL
 62
6
 10
1606.735
 20
-2655.223
 30
4338.911
 70
    32
  0
VERTEX
  8
T09SSILL
 62
6
 10
1601.423
 20
-2653.475
 30
4338.914
 70
    32
  0
VERTEX
  8
T09SSILL
 62
6
 10
1598.007
 20
-2653.017
 30
4338.918
 70
    32
  0
VERTEX
  8
T09SSILL
 62
6
 10
1590.721
 20
-2655.343
 30
4338.936
 70
    32
  0
VERTEX
  8
T09SSILL
 62
6
 10
1587.838
 20
-2657.540
 30
4338.947
 70
    32
  0
VERTEX
  8
T09SSILL
 62
6
 10
1558.869
 20
-2692.792
 30
4339.006
 70
    32
  0
SEQEND
  8
T09SSILL
  0
POLYLINE
  8
T09SSILL
 62
6
 66
     1
 70
     9
  0
VERTEX
  8
T09SSILL
 62
6
 10
1514.791
 20
-2630.443
 30
4338.985
 70
    32
  0
VERTEX
  8
T09SSILL
 62
6
 10
1530.282
 20
-2610.104
 30
4338.903
 70
    32
  0
VERTEX
  8
T09SSILL
 62
6
 10
1530.564
 20
-2606.682
 30
4338.893
 70
    32
  0
VERTEX
  8
T09SSILL
 62
6
 10
1526.973
 20
-2600.501
 30
4338.881
 70
    32
  0
VERTEX
  8
T09SSILL
 62
6
 10
1449.256
 20
-2545.051
 30
4338.846
 70
    32
  0
VERTEX
  8
T09SSILL
 62
6
 10
1436.219
 20
-2542.800
 30
4338.860
 70
    32
  0
VERTEX
  8
T09SSILL
 62
6
 10
1434.442
 20
-2543.361
 30
4338.864
 70
    32
  0
VERTEX
  8
T09SSILL
 62
6
 10
1433.998
 20
-2546.338
 30
4338.873
 70
    32
  0
VERTEX
  8
T09SSILL
 62
6
 10
1438.990
 20
-2561.271
 30
4338.908
 70
    32
  0
VERTEX
  8
T09SSILL
 62
6
 10
1449.616
 20
-2579.545
 30
4338.943
 70
    32
  0
VERTEX
  8
T09SSILL
 62
6
 10
1509.235
 20
-2637.742
 30
4339.014
 70
    32
  0
VERTEX
  8
T09SSILL
 62
6
 10
1512.026
 20
-2634.345
 30
4339.000
 70
    32
  0
VERTEX
  8
T09SSILL
 62
6
 10
1517.533
 20
-2638.298
 30
4339.003
 70
    32
  0
VERTEX
  8
T09SSILL
 62
6
 10
1513.421
 20
-2643.036
 30
4339.022
 70
    32
  0
VERTEX
  8
T09SSILL
 62
6
 10
1520.784
 20
-2652.649
 30
4339.038
 70
    32
  0
VERTEX
  8
T09SSILL
 62
6
 10
1527.926
 20
-2669.144
 30
4339.063
 70
    32
  0
VERTEX
  8
T09SSILL
 62
6
 10
1548.102
 20
-2693.614
 30
4339.021
 70
    32
  0
VERTEX
  8
T09SSILL
 62
6
 10
1585.756
 20
-2645.249
 30
4338.915
 70
    32
  0
VERTEX
  8
T09SSILL
 62
6
 10
1581.555
 20
-2638.873
 30
4338.904
 70
    32
  0
VERTEX
  8
T09SSILL
 62
6
 10
1553.730
 20
-2619.890
 30
4338.894
 70
    32
  0
VERTEX
  8
T09SSILL
 62
6
 10
1546.286
 20
-2615.965
 30
4338.894
 70
    32
  0
VERTEX
  8
T09SSILL
 62
6
 10
1541.285
 20
-2615.546
 30
4338.901
 70
    32
  0
VERTEX
  8
T09SSILL
 62
6
 10
1534.458
 20
-2617.270
 30
4338.917
 70
    32
  0
VERTEX
  8
T09SSILL
 62
6
 10
1519.849
 20
-2634.111
 30
4338.987
 70
    32
  0
SEQEND
  8
T09SSILL
  0
POLYLINE
  8
T09SSILL
 62
6
 66
     1
 70
     9
  0
VERTEX
  8
T09SSILL
 62
6
 10
1185.230
 20
-2065.829
 30
4337.904
 70
    32
  0
VERTEX
  8
T09SSILL
 62
6
 10
1155.531
 20
-2070.791
 30
4337.965
 70
    32
  0
VERTEX
  8
T09SSILL
 62
6
 10
1154.821
 20
-2073.847
 30
4337.974
 70
    32
  0
VERTEX
  8
T09SSILL
 62
6
 10
1160.912
 20
-2112.917
 30
4338.075
 70
    32
  0
VERTEX
  8
T09SSILL
 62
6
 10
1161.847
 20
-2114.002
 30
4338.077
 70
    32
  0
VERTEX
  8
T09SSILL
 62
6
 10
1192.210
 20
-2107.817
 30
4338.012
 70
    32
  0
VERTEX
  8
T09SSILL
 62
6
 10
1186.935
 20
-2099.208
 30
4337.996
 70
    32
  0
VERTEX
  8
T09SSILL
 62
6
 10
1185.989
 20
-2095.660
 30
4337.987
 70
    32
  0
VERTEX
  8
T09SSILL
 62
6
 10
1190.841
 20
-2083.847
 30
4337.946
 70
    32
  0
VERTEX
  8
T09SSILL
 62
6
 10
1190.762
 20
-2080.999
 30
4337.938
 70
    32
  0
VERTEX
  8
T09SSILL
 62
6
 10
1187.613
 20
-2081.404
 30
4337.944
 70
    32
  0
SEQEND
  8
T09SSILL
  0
POLYLINE
  8
T09SSILL
 62
6
 66
     1
 70
     9
  0
VERTEX
  8
T09SSILL
 62
6
 10
847.808
 20
-2381.019
 30
4339.325
 70
    32
  0
VERTEX
  8
T09SSILL
 62
6
 10
1187.774
 20
-2305.075
 30
4338.577
 70
    32
  0
VERTEX
  8
T09SSILL
 62
6
 10
1129.336
 20
-2237.819
 30
4338.478
 70
    32
  0
VERTEX
  8
T09SSILL
 62
6
 10
1120.299
 20
-2234.196
 30
4338.482
 70
    32
  0
VERTEX
  8
T09SSILL
 62
6
 10
919.839
 20
-2272.375
 30
4338.905
 70
    32
  0
VERTEX
  8
T09SSILL
 62
6
 10
785.148
 20
-2312.920
 30
4339.231
 70
    32
  0
VERTEX
  8
T09SSILL
 62
6
 10
762.666
 20
-2312.233
 30
4339.264
 70
    32
  0
VERTEX
  8
T09SSILL
 62
6
 10
831.406
 20
-2378.425
 30
4339.344
 70
    32
  0
SEQEND
  8
T09SSILL
  0
POLYLINE
  8
T09SSILL
 62
6
 66
     1
 70
     9
  0
VERTEX
  8
T09SSILL
 62
6
 10
1007.817
 20
-1933.341
 30
4337.807
 70
    32
  0
VERTEX
  8
T09SSILL
 62
6
 10
997.479
 20
-1904.025
 30
4337.741
 70
    32
  0
VERTEX
  8
T09SSILL
 62
6
 10
998.214
 20
-1898.285
 30
4337.723
 70
    32
  0
VERTEX
  8
T09SSILL
 62
6
 10
1006.292
 20
-1894.031
 30
4337.699
 70
    32
  0
VERTEX
  8
T09SSILL
 62
6
 10
1155.208
 20
-1920.713
 30
4337.610
 70
    32
  0
VERTEX
  8
T09SSILL
 62
6
 10
1166.607
 20
-1925.882
 30
4337.619
 70
    32
  0
VERTEX
  8
T09SSILL
 62
6
 10
1168.025
 20
-1929.719
 30
4337.622
 70
    32
  0
VERTEX
  8
T09SSILL
 62
6
 10
1168.849
 20
-1943.503
 30
4337.635
 70
    32
  0
VERTEX
  8
T09SSILL
 62
6
 10
1141.533
 20
-2039.921
 30
4337.899
 70
    32
  0
VERTEX
  8
T09SSILL
 62
6
 10
1168.299
 20
-2215.275
 30
4338.353
 70
    32
  0
VERTEX
  8
T09SSILL
 62
6
 10
1153.173
 20
-2217.973
 30
4338.385
 70
    32
  0
VERTEX
  8
T09SSILL
 62
6
 10
1143.719
 20
-2222.167
 30
4338.412
 70
    32
  0
VERTEX
  8
T09SSILL
 62
6
 10
1136.636
 20
-2220.804
 30
4338.419
 70
    32
  0
VERTEX
  8
T09SSILL
 62
6
 10
1127.884
 20
-2213.671
 30
4338.412
 70
    32
  0
VERTEX
  8
T09SSILL
 62
6
 10
1065.921
 20
-2140.940
 30
4338.304
 70
    32
  0
VERTEX
  8
T09SSILL
 62
6
 10
1016.810
 20
-1962.783
 30
4337.877
 70
    32
  0
SEQEND
  8
T09SSILL
  0
POLYLINE
  8
T09SSILL
 62
6
 66
     1
 70
     9
  0
VERTEX
  8
T09SSILL
 62
6
 10
814.893
 20
-2168.441
 30
4338.775
 70
    32
  0
VERTEX
  8
T09SSILL
 62
6
 10
832.374
 20
-2189.127
 30
4338.807
 70
    32
  0
VERTEX
  8
T09SSILL
 62
6
 10
844.436
 20
-2208.677
 30
4338.843
 70
    32
  0
VERTEX
  8
T09SSILL
 62
6
 10
855.045
 20
-2218.330
 30
4338.854
 70
    32
  0
VERTEX
  8
T09SSILL
 62
6
 10
858.877
 20
-2230.940
 30
4338.883
 70
    32
  0
VERTEX
  8
T09SSILL
 62
6
 10
890.840
 20
-2258.319
 30
4338.911
 70
    32
  0
VERTEX
  8
T09SSILL
 62
6
 10
906.870
 20
-2266.205
 30
4338.908
 70
    32
  0
VERTEX
  8
T09SSILL
 62
6
 10
907.271
 20
-2267.449
 30
4338.911
 70
    32
  0
VERTEX
  8
T09SSILL
 62
6
 10
905.813
 20
-2269.075
 30
4338.918
 70
    32
  0
VERTEX
  8
T09SSILL
 62
6
 10
811.760
 20
-2296.498
 30
4339.143
 70
    32
  0
VERTEX
  8
T09SSILL
 62
6
 10
848.556
 20
-2232.388
 30
4338.904
 70
    32
  0
VERTEX
  8
T09SSILL
 62
6
 10
842.558
 20
-2226.541
 30
4338.897
 70
    32
  0
VERTEX
  8
T09SSILL
 62
6
 10
800.937
 20
-2299.437
 30
4339.168
 70
    32
  0
VERTEX
  8
T09SSILL
 62
6
 10
787.862
 20
-2303.914
 30
4339.201
 70
    32
  0
VERTEX
  8
T09SSILL
 62
6
 10
782.340
 20
-2304.288
 30
4339.211
 70
    32
  0
VERTEX
  8
T09SSILL
 62
6
 10
760.836
 20
-2304.196
 30
4339.245
 70
    32
  0
VERTEX
  8
T09SSILL
 62
6
 10
749.430
 20
-2300.038
 30
4339.251
 70
    32
  0
VERTEX
  8
T09SSILL
 62
6
 10
622.524
 20
-2178.411
 30
4339.106
 70
    32
  0
VERTEX
  8
T09SSILL
 62
6
 10
622.514
 20
-2173.584
 30
4339.092
 70
    32
  0
VERTEX
  8
T09SSILL
 62
6
 10
627.135
 20
-2163.398
 30
4339.056
 70
    32
  0
VERTEX
  8
T09SSILL
 62
6
 10
706.740
 20
-2106.938
 30
4338.771
 70
    32
  0
VERTEX
  8
T09SSILL
 62
6
 10
717.974
 20
-2124.352
 30
4338.803
 70
    32
  0
VERTEX
  8
T09SSILL
 62
6
 10
726.286
 20
-2123.043
 30
4338.786
 70
    32
  0
VERTEX
  8
T09SSILL
 62
6
 10
736.401
 20
-2124.155
 30
4338.773
 70
    32
  0
VERTEX
  8
T09SSILL
 62
6
 10
742.520
 20
-2127.279
 30
4338.773
 70
    32
  0
VERTEX
  8
T09SSILL
 62
6
 10
749.558
 20
-2128.103
 30
4338.764
 70
    32
  0
VERTEX
  8
T09SSILL
 62
6
 10
753.210
 20
-2130.750
 30
4338.766
 70
    32
  0
VERTEX
  8
T09SSILL
 62
6
 10
760.883
 20
-2141.302
 30
4338.783
 70
    32
  0
VERTEX
  8
T09SSILL
 62
6
 10
772.751
 20
-2150.980
 30
4338.792
 70
    32
  0
VERTEX
  8
T09SSILL
 62
6
 10
786.389
 20
-2157.024
 30
4338.788
 70
    32
  0
SEQEND
  8
T09SSILL
  0
POLYLINE
  8
T09SSILL
 62
6
 66
     1
 70
     9
  0
VERTEX
  8
T09SSILL
 62
6
 10
792.606
 20
-2043.845
 30
4338.458
 70
    32
  0
VERTEX
  8
T09SSILL
 62
6
 10
802.503
 20
-2058.706
 30
4338.484
 70
    32
  0
VERTEX
  8
T09SSILL
 62
6
 10
805.563
 20
-2056.554
 30
4338.473
 70
    32
  0
VERTEX
  8
T09SSILL
 62
6
 10
813.848
 20
-2068.506
 30
4338.494
 70
    32
  0
VERTEX
  8
T09SSILL
 62
6
 10
817.498
 20
-2071.380
 30
4338.497
 70
    32
  0
VERTEX
  8
T09SSILL
 62
6
 10
840.406
 20
-2117.243
 30
4338.591
 70
    32
  0
VERTEX
  8
T09SSILL
 62
6
 10
847.783
 20
-2128.995
 30
4338.612
 70
    32
  0
VERTEX
  8
T09SSILL
 62
6
 10
856.007
 20
-2136.111
 30
4338.619
 70
    32
  0
VERTEX
  8
T09SSILL
 62
6
 10
865.766
 20
-2141.955
 30
4338.621
 70
    32
  0
VERTEX
  8
T09SSILL
 62
6
 10
869.313
 20
-2146.728
 30
4338.629
 70
    32
  0
VERTEX
  8
T09SSILL
 62
6
 10
872.755
 20
-2157.742
 30
4338.654
 70
    32
  0
VERTEX
  8
T09SSILL
 62
6
 10
893.888
 20
-2179.772
 30
4338.684
 70
    32
  0
VERTEX
  8
T09SSILL
 62
6
 10
901.383
 20
-2182.027
 30
4338.678
 70
    32
  0
VERTEX
  8
T09SSILL
 62
6
 10
902.587
 20
-2185.759
 30
4338.687
 70
    32
  0
VERTEX
  8
T09SSILL
 62
6
 10
897.791
 20
-2201.445
 30
4338.739
 70
    32
  0
VERTEX
  8
T09SSILL
 62
6
 10
898.240
 20
-2206.824
 30
4338.753
 70
    32
  0
VERTEX
  8
T09SSILL
 62
6
 10
904.445
 20
-2219.508
 30
4338.779
 70
    32
  0
VERTEX
  8
T09SSILL
 62
6
 10
906.254
 20
-2226.425
 30
4338.796
 70
    32
  0
VERTEX
  8
T09SSILL
 62
6
 10
920.422
 20
-2246.128
 30
4338.830
 70
    32
  0
VERTEX
  8
T09SSILL
 62
6
 10
921.247
 20
-2259.261
 30
4338.866
 70
    32
  0
VERTEX
  8
T09SSILL
 62
6
 10
927.018
 20
-2263.222
 30
4338.868
 70
    32
  0
VERTEX
  8
T09SSILL
 62
6
 10
1119.886
 20
-2227.674
 30
4338.465
 70
    32
  0
VERTEX
  8
T09SSILL
 62
6
 10
1126.577
 20
-2224.627
 30
4338.445
 70
    32
  0
VERTEX
  8
T09SSILL
 62
6
 10
1126.936
 20
-2221.559
 30
4338.436
 70
    32
  0
VERTEX
  8
T09SSILL
 62
6
 10
1000.011
 20
-2076.355
 30
4338.224
 70
    32
  0
VERTEX
  8
T09SSILL
 62
6
 10
995.575
 20
-2074.722
 30
4338.227
 70
    32
  0
VERTEX
  8
T09SSILL
 62
6
 10
988.486
 20
-2082.068
 30
4338.259
 70
    32
  0
VERTEX
  8
T09SSILL
 62
6
 10
978.632
 20
-2079.300
 30
4338.266
 70
    32
  0
VERTEX
  8
T09SSILL
 62
6
 10
977.067
 20
-2081.538
 30
4338.275
 70
    32
  0
VERTEX
  8
T09SSILL
 62
6
 10
972.178
 20
-2080.331
 30
4338.279
 70
    32
  0
VERTEX
  8
T09SSILL
 62
6
 10
965.961
 20
-2082.250
 30
4338.295
 70
    32
  0
VERTEX
  8
T09SSILL
 62
6
 10
949.841
 20
-2074.450
 30
4338.298
 70
    32
  0
VERTEX
  8
T09SSILL
 62
6
 10
942.261
 20
-2072.104
 30
4338.303
 70
    32
  0
VERTEX
  8
T09SSILL
 62
6
 10
931.551
 20
-2074.235
 30
4338.326
 70
    32
  0
VERTEX
  8
T09SSILL
 62
6
 10
918.119
 20
-2064.847
 30
4338.320
 70
    32
  0
VERTEX
  8
T09SSILL
 62
6
 10
916.893
 20
-2061.818
 30
4338.314
 70
    32
  0
VERTEX
  8
T09SSILL
 62
6
 10
911.513
 20
-2062.267
 30
4338.323
 70
    32
  0
VERTEX
  8
T09SSILL
 62
6
 10
863.889
 20
-2049.181
 30
4338.361
 70
    32
  0
VERTEX
  8
T09SSILL
 62
6
 10
852.551
 20
-2006.254
 30
4338.257
 70
    32
  0
VERTEX
  8
T09SSILL
 62
6
 10
851.422
 20
-2005.779
 30
4338.258
 70
    32
  0
VERTEX
  8
T09SSILL
 62
6
 10
813.506
 20
-2031.435
 30
4338.390
 70
    32
  0
VERTEX
  8
T09SSILL
 62
6
 10
793.549
 20
-2042.170
 30
4338.452
 70
    32
  0
SEQEND
  8
T09SSILL
  0
POLYLINE
  8
T09SSILL
 62
6
 66
     1
 70
     9
  0
VERTEX
  8
T09SSILL
 62
6
 10
1009.930
 20
-1969.079
 30
4337.905
 70
    32
  0
VERTEX
  8
T09SSILL
 62
6
 10
1029.498
 20
-2038.827
 30
4338.072
 70
    32
  0
VERTEX
  8
T09SSILL
 62
6
 10
1023.891
 20
-2052.288
 30
4338.119
 70
    32
  0
VERTEX
  8
T09SSILL
 62
6
 10
1024.367
 20
-2053.974
 30
4338.123
 70
    32
  0
VERTEX
  8
T09SSILL
 62
6
 10
1036.390
 20
-2063.407
 30
4338.131
 70
    32
  0
VERTEX
  8
T09SSILL
 62
6
 10
1052.267
 20
-2124.507
 30
4338.279
 70
    32
  0
VERTEX
  8
T09SSILL
 62
6
 10
1050.073
 20
-2124.351
 30
4338.282
 70
    32
  0
VERTEX
  8
T09SSILL
 62
6
 10
1002.447
 20
-2068.689
 30
4338.199
 70
    32
  0
VERTEX
  8
T09SSILL
 62
6
 10
996.818
 20
-2060.158
 30
4338.184
 70
    32
  0
VERTEX
  8
T09SSILL
 62
6
 10
997.946
 20
-2049.285
 30
4338.151
 70
    32
  0
VERTEX
  8
T09SSILL
 62
6
 10
1001.996
 20
-2034.984
 30
4338.104
 70
    32
  0
VERTEX
  8
T09SSILL
 62
6
 10
1001.791
 20
-2030.228
 30
4338.091
 70
    32
  0
VERTEX
  8
T09SSILL
 62
6
 10
992.248
 20
-2003.191
 30
4338.030
 70
    32
  0
VERTEX
  8
T09SSILL
 62
6
 10
989.307
 20
-1984.539
 30
4337.981
 70
    32
  0
VERTEX
  8
T09SSILL
 62
6
 10
986.779
 20
-1978.127
 30
4337.967
 70
    32
  0
VERTEX
  8
T09SSILL
 62
6
 10
981.194
 20
-1973.820
 30
4337.964
 70
    32
  0
VERTEX
  8
T09SSILL
 62
6
 10
956.653
 20
-1982.296
 30
4338.026
 70
    32
  0
VERTEX
  8
T09SSILL
 62
6
 10
948.578
 20
-1978.879
 30
4338.029
 70
    32
  0
VERTEX
  8
T09SSILL
 62
6
 10
948.539
 20
-1977.295
 30
4338.025
 70
    32
  0
VERTEX
  8
T09SSILL
 62
6
 10
963.204
 20
-1968.083
 30
4337.976
 70
    32
  0
VERTEX
  8
T09SSILL
 62
6
 10
962.926
 20
-1965.893
 30
4337.970
 70
    32
  0
VERTEX
  8
T09SSILL
 62
6
 10
957.711
 20
-1960.143
 30
4337.962
 70
    32
  0
VERTEX
  8
T09SSILL
 62
6
 10
955.688
 20
-1959.368
 30
4337.963
 70
    32
  0
VERTEX
  8
T09SSILL
 62
6
 10
1003.299
 20
-1946.662
 30
4337.852
 70
    32
  0
SEQEND
  8
T09SSILL
  0
POLYLINE
  8
T09SSILL
 62
6
 66
     1
 70
     9
  0
VERTEX
  8
T09SSILL
 62
6
 10
905.839
 20
-1976.705
 30
4338.090
 70
    32
  0
VERTEX
  8
T09SSILL
 62
6
 10
905.855
 20
-1983.626
 30
4338.110
 70
    32
  0
VERTEX
  8
T09SSILL
 62
6
 10
910.661
 20
-2001.720
 30
4338.153
 70
    32
  0
VERTEX
  8
T09SSILL
 62
6
 10
907.604
 20
-2020.890
 30
4338.212
 70
    32
  0
VERTEX
  8
T09SSILL
 62
6
 10
903.460
 20
-2029.734
 30
4338.244
 70
    32
  0
VERTEX
  8
T09SSILL
 62
6
 10
903.307
 20
-2051.721
 30
4338.306
 70
    32
  0
VERTEX
  8
T09SSILL
 62
6
 10
872.086
 20
-2044.097
 30
4338.334
 70
    32
  0
VERTEX
  8
T09SSILL
 62
6
 10
869.544
 20
-2039.856
 30
4338.326
 70
    32
  0
VERTEX
  8
T09SSILL
 62
6
 10
859.527
 20
-1999.697
 30
4338.228
 70
    32
  0
VERTEX
  8
T09SSILL
 62
6
 10
899.372
 20
-1969.545
 30
4338.080
 70
    32
  0
VERTEX
  8
T09SSILL
 62
6
 10
902.597
 20
-1978.252
 30
4338.100
 70
    32
  0
SEQEND
  8
T09SSILL
  0
POLYLINE
  8
T09SSILL
 62
6
 66
     1
 70
     9
  0
VERTEX
  8
T09SSILL
 62
6
 10
939.596
 20
-1866.584
 30
4337.726
 70
    32
  0
VERTEX
  8
T09SSILL
 62
6
 10
959.776
 20
-1843.889
 30
4337.630
 70
    32
  0
VERTEX
  8
T09SSILL
 62
6
 10
972.669
 20
-1840.641
 30
4337.600
 70
    32
  0
VERTEX
  8
T09SSILL
 62
6
 10
985.410
 20
-1893.273
 30
4337.729
 70
    32
  0
VERTEX
  8
T09SSILL
 62
6
 10
949.389
 20
-1917.942
 30
4337.856
 70
    32
  0
VERTEX
  8
T09SSILL
 62
6
 10
942.291
 20
-1920.234
 30
4337.873
 70
    32
  0
VERTEX
  8
T09SSILL
 62
6
 10
935.660
 20
-1917.857
 30
4337.877
 70
    32
  0
VERTEX
  8
T09SSILL
 62
6
 10
933.127
 20
-1912.522
 30
4337.866
 70
    32
  0
VERTEX
  8
T09SSILL
 62
6
 10
932.448
 20
-1907.691
 30
4337.853
 70
    32
  0
VERTEX
  8
T09SSILL
 62
6
 10
934.427
 20
-1899.131
 30
4337.826
 70
    32
  0
VERTEX
  8
T09SSILL
 62
6
 10
931.414
 20
-1894.861
 30
4337.818
 70
    32
  0
VERTEX
  8
T09SSILL
 62
6
 10
936.744
 20
-1891.400
 30
4337.800
 70
    32
  0
VERTEX
  8
T09SSILL
 62
6
 10
933.041
 20
-1886.321
 30
4337.792
 70
    32
  0
VERTEX
  8
T09SSILL
 62
6
 10
942.596
 20
-1879.197
 30
4337.757
 70
    32
  0
VERTEX
  8
T09SSILL
 62
6
 10
939.359
 20
-1874.787
 30
4337.749
 70
    32
  0
VERTEX
  8
T09SSILL
 62
6
 10
943.241
 20
-1871.636
 30
4337.734
 70
    32
  0
SEQEND
  8
T09SSILL
  0
POLYLINE
  8
T09SSILL
 62
6
 66
     1
 70
     9
  0
VERTEX
  8
T09SSILL
 62
6
 10
788.452
 20
-2057.087
 30
4338.502
 70
    32
  0
VERTEX
  8
T09SSILL
 62
6
 10
755.400
 20
-2080.240
 30
4338.619
 70
    32
  0
VERTEX
  8
T09SSILL
 62
6
 10
741.512
 20
-2087.793
 30
4338.662
 70
    32
  0
VERTEX
  8
T09SSILL
 62
6
 10
732.177
 20
-2094.525
 30
4338.696
 70
    32
  0
VERTEX
  8
T09SSILL
 62
6
 10
728.621
 20
-2099.987
 30
4338.717
 70
    32
  0
VERTEX
  8
T09SSILL
 62
6
 10
730.766
 20
-2105.496
 30
4338.729
 70
    32
  0
VERTEX
  8
T09SSILL
 62
6
 10
732.094
 20
-2107.328
 30
4338.732
 70
    32
  0
VERTEX
  8
T09SSILL
 62
6
 10
736.991
 20
-2105.364
 30
4338.719
 70
    32
  0
VERTEX
  8
T09SSILL
 62
6
 10
793.682
 20
-2064.909
 30
4338.516
 70
    32
  0
SEQEND
  8
T09SSILL
  0
POLYLINE
  8
T09SSILL
 62
6
 66
     1
 70
     9
  0
VERTEX
  8
T09SSILL
 62
6
 10
661.295
 20
-1934.179
 30
4338.354
 70
    32
  0
VERTEX
  8
T09SSILL
 62
6
 10
684.193
 20
-1917.998
 30
4338.272
 70
    32
  0
VERTEX
  8
T09SSILL
 62
6
 10
689.131
 20
-1924.982
 30
4338.284
 70
    32
  0
VERTEX
  8
T09SSILL
 62
6
 10
684.562
 20
-1935.976
 30
4338.322
 70
    32
  0
VERTEX
  8
T09SSILL
 62
6
 10
677.997
 20
-1937.514
 30
4338.337
 70
    32
  0
VERTEX
  8
T09SSILL
 62
6
 10
676.547
 20
-1943.224
 30
4338.355
 70
    32
  0
VERTEX
  8
T09SSILL
 62
6
 10
667.357
 20
-1945.570
 30
4338.376
 70
    32
  0
SEQEND
  8
T09SSILL
  0
POLYLINE
  8
T09SSILL
 62
6
 66
     1
 70
     9
  0
VERTEX
  8
T09SSILL
 62
6
 10
717.123
 20
-1978.377
 30
4338.391
 70
    32
  0
VERTEX
  8
T09SSILL
 62
6
 10
713.813
 20
-1974.708
 30
4338.386
 70
    32
  0
VERTEX
  8
T09SSILL
 62
6
 10
700.993
 20
-1952.674
 30
4338.344
 70
    32
  0
VERTEX
  8
T09SSILL
 62
6
 10
690.711
 20
-1943.315
 30
4338.333
 70
    32
  0
VERTEX
  8
T09SSILL
 62
6
 10
683.260
 20
-1956.806
 30
4338.383
 70
    32
  0
VERTEX
  8
T09SSILL
 62
6
 10
684.159
 20
-1962.230
 30
4338.397
 70
    32
  0
VERTEX
  8
T09SSILL
 62
6
 10
680.548
 20
-1970.289
 30
4338.426
 70
    32
  0
VERTEX
  8
T09SSILL
 62
6
 10
682.448
 20
-1977.448
 30
4338.443
 70
    32
  0
VERTEX
  8
T09SSILL
 62
6
 10
697.420
 20
-1997.419
 30
4338.476
 70
    32
  0
VERTEX
  8
T09SSILL
 62
6
 10
726.022
 20
-1988.241
 30
4338.405
 70
    32
  0
VERTEX
  8
T09SSILL
 62
6
 10
721.166
 20
-1982.858
 30
4338.397
 70
    32
  0
VERTEX
  8
T09SSILL
 62
6
 10
702.959
 20
-1995.473
 30
4338.462
 70
    32
  0
VERTEX
  8
T09SSILL
 62
6
 10
699.657
 20
-1990.947
 30
4338.454
 70
    32
  0
SEQEND
  8
T09SSILL
  0
POLYLINE
  8
T09SSILL
 62
6
 66
     1
 70
     9
  0
VERTEX
  8
T09SSILL
 62
6
 10
768.270
 20
-1998.534
 30
4338.368
 70
    32
  0
VERTEX
  8
T09SSILL
 62
6
 10
778.147
 20
-2012.030
 30
4338.391
 70
    32
  0
VERTEX
  8
T09SSILL
 62
6
 10
772.736
 20
-2015.664
 30
4338.409
 70
    32
  0
VERTEX
  8
T09SSILL
 62
6
 10
781.933
 20
-2028.708
 30
4338.432
 70
    32
  0
VERTEX
  8
T09SSILL
 62
6
 10
786.976
 20
-2029.577
 30
4338.426
 70
    32
  0
VERTEX
  8
T09SSILL
 62
6
 10
789.559
 20
-2031.455
 30
4338.428
 70
    32
  0
VERTEX
  8
T09SSILL
 62
6
 10
848.111
 20
-1988.585
 30
4338.214
 70
    32
  0
VERTEX
  8
T09SSILL
 62
6
 10
846.416
 20
-1987.215
 30
4338.213
 70
    32
  0
VERTEX
  8
T09SSILL
 62
6
 10
841.941
 20
-1987.305
 30
4338.220
 70
    32
  0
VERTEX
  8
T09SSILL
 62
6
 10
828.533
 20
-1970.900
 30
4338.195
 70
    32
  0
VERTEX
  8
T09SSILL
 62
6
 10
810.167
 20
-1965.391
 30
4338.208
 70
    32
  0
VERTEX
  8
T09SSILL
 62
6
 10
799.969
 20
-1964.543
 30
4338.222
 70
    32
  0
VERTEX
  8
T09SSILL
 62
6
 10
794.537
 20
-1973.693
 30
4338.256
 70
    32
  0
VERTEX
  8
T09SSILL
 62
6
 10
785.011
 20
-1984.417
 30
4338.302
 70
    32
  0
SEQEND
  8
T09SSILL
  0
POLYLINE
  8
T09SSILL
 62
6
 66
     1
 70
     9
  0
VERTEX
  8
T09SSILL
 62
6
 10
938.217
 20
-1854.574
 30
4337.694
 70
    32
  0
VERTEX
  8
T09SSILL
 62
6
 10
929.463
 20
-1842.082
 30
4337.672
 70
    32
  0
VERTEX
  8
T09SSILL
 62
6
 10
959.084
 20
-1821.493
 30
4337.567
 70
    32
  0
VERTEX
  8
T09SSILL
 62
6
 10
955.238
 20
-1816.977
 30
4337.561
 70
    32
  0
VERTEX
  8
T09SSILL
 62
6
 10
950.917
 20
-1819.863
 30
4337.576
 70
    32
  0
VERTEX
  8
T09SSILL
 62
6
 10
944.130
 20
-1811.474
 30
4337.562
 70
    32
  0
VERTEX
  8
T09SSILL
 62
6
 10
935.142
 20
-1788.692
 30
4337.512
 70
    32
  0
VERTEX
  8
T09SSILL
 62
6
 10
907.108
 20
-1752.530
 30
4337.454
 70
    32
  0
VERTEX
  8
T09SSILL
 62
6
 10
905.110
 20
-1747.804
 30
4337.444
 70
    32
  0
VERTEX
  8
T09SSILL
 62
6
 10
906.837
 20
-1745.230
 30
4337.434
 70
    32
  0
VERTEX
  8
T09SSILL
 62
6
 10
921.491
 20
-1735.271
 30
4337.382
 70
    32
  0
VERTEX
  8
T09SSILL
 62
6
 10
923.967
 20
-1736.207
 30
4337.381
 70
    32
  0
VERTEX
  8
T09SSILL
 62
6
 10
963.933
 20
-1811.716
 30
4337.532
 70
    32
  0
VERTEX
  8
T09SSILL
 62
6
 10
970.808
 20
-1832.834
 30
4337.581
 70
    32
  0
VERTEX
  8
T09SSILL
 62
6
 10
954.505
 20
-1837.798
 30
4337.621
 70
    32
  0
VERTEX
  8
T09SSILL
 62
6
 10
947.755
 20
-1846.509
 30
4337.656
 70
    32
  0
SEQEND
  8
T09SSILL
  0
POLYLINE
  8
T09SSILL
 62
6
 66
     1
 70
     9
  0
VERTEX
  8
T09SSILL
 62
6
 10
244.842
 20
-1139.603
 30
4336.978
 70
    32
  0
VERTEX
  8
T09SSILL
 62
6
 10
249.191
 20
-1145.179
 30
4336.984
 70
    32
  0
VERTEX
  8
T09SSILL
 62
6
 10
261.944
 20
-1141.247
 30
4336.950
 70
    32
  0
VERTEX
  8
T09SSILL
 62
6
 10
262.853
 20
-1138.935
 30
4336.950
 70
    32
  0
VERTEX
  8
T09SSILL
 62
6
 10
270.077
 20
-1135.671
 30
4336.949
 70
    32
  0
VERTEX
  8
T09SSILL
 62
6
 10
270.472
 20
-1133.900
 30
4336.949
 70
    32
  0
VERTEX
  8
T09SSILL
 62
6
 10
268.339
 20
-1129.641
 30
4336.949
 70
    32
  0
VERTEX
  8
T09SSILL
 62
6
 10
263.302
 20
-1123.913
 30
4336.949
 70
    32
  0
VERTEX
  8
T09SSILL
 62
6
 10
255.428
 20
-1128.390
 30
4336.950
 70
    32
  0
VERTEX
  8
T09SSILL
 62
6
 10
260.150
 20
-1139.385
 30
4336.950
 70
    32
  0
VERTEX
  8
T09SSILL
 62
6
 10
255.047
 20
-1141.867
 30
4336.961
 70
    32
  0
VERTEX
  8
T09SSILL
 62
6
 10
252.020
 20
-1135.828
 30
4336.951
 70
    32
  0
SEQEND
  8
T09SSILL
  0
POLYLINE
  8
T09SSILL
 62
6
 66
     1
 70
     9
  0
VERTEX
  8
T09SSILL
 62
6
 10
756.006
 20
-1720.518
 30
4337.600
 70
    32
  0
VERTEX
  8
T09SSILL
 62
6
 10
745.226
 20
-1728.063
 30
4337.639
 70
    32
  0
VERTEX
  8
T09SSILL
 62
6
 10
751.967
 20
-1732.111
 30
4337.639
 70
    32
  0
VERTEX
  8
T09SSILL
 62
6
 10
755.117
 20
-1737.526
 30
4337.650
 70
    32
  0
VERTEX
  8
T09SSILL
 62
6
 10
760.739
 20
-1736.749
 30
4337.639
 70
    32
  0
VERTEX
  8
T09SSILL
 62
6
 10
765.501
 20
-1733.291
 30
4337.622
 70
    32
  0
SEQEND
  8
T09SSILL
  0
POLYLINE
  8
T09SSILL
 62
6
 66
     1
 70
     9
  0
VERTEX
  8
T09SSILL
 62
6
 10
604.378
 20
-1928.589
 30
4338.427
 70
    32
  0
VERTEX
  8
T09SSILL
 62
6
 10
578.901
 20
-1887.630
 30
4338.351
 70
    32
  0
VERTEX
  8
T09SSILL
 62
6
 10
577.334
 20
-1882.440
 30
4338.339
 70
    32
  0
VERTEX
  8
T09SSILL
 62
6
 10
584.422
 20
-1877.139
 30
4338.313
 70
    32
  0
VERTEX
  8
T09SSILL
 62
6
 10
598.097
 20
-1898.716
 30
4338.352
 70
    32
  0
VERTEX
  8
T09SSILL
 62
6
 10
615.601
 20
-1906.307
 30
4338.346
 70
    32
  0
VERTEX
  8
T09SSILL
 62
6
 10
619.452
 20
-1905.227
 30
4338.337
 70
    32
  0
VERTEX
  8
T09SSILL
 62
6
 10
635.543
 20
-1906.313
 30
4338.315
 70
    32
  0
VERTEX
  8
T09SSILL
 62
6
 10
623.781
 20
-1914.925
 30
4338.358
 70
    32
  0
VERTEX
  8
T09SSILL
 62
6
 10
616.974
 20
-1914.276
 30
4338.367
 70
    32
  0
VERTEX
  8
T09SSILL
 62
6
 10
612.126
 20
-1910.804
 30
4338.365
 70
    32
  0
VERTEX
  8
T09SSILL
 62
6
 10
610.551
 20
-1911.253
 30
4338.368
 70
    32
  0
VERTEX
  8
T09SSILL
 62
6
 10
609.010
 20
-1916.438
 30
4338.385
 70
    32
  0
VERTEX
  8
T09SSILL
 62
6
 10
612.288
 20
-1923.341
 30
4338.400
 70
    32
  0
SEQEND
  8
T09SSILL
  0
POLYLINE
  8
T09SSILL
 62
6
 66
     1
 70
     9
  0
VERTEX
  8
T09SSILL
 62
6
 10
616.419
 20
-1929.732
 30
4338.411
 70
    32
  0
VERTEX
  8
T09SSILL
 62
6
 10
624.985
 20
-1942.981
 30
4338.435
 70
    32
  0
VERTEX
  8
T09SSILL
 62
6
 10
634.585
 20
-1936.686
 30
4338.403
 70
    32
  0
VERTEX
  8
T09SSILL
 62
6
 10
628.918
 20
-1929.010
 30
4338.390
 70
    32
  0
VERTEX
  8
T09SSILL
 62
6
 10
626.817
 20
-1921.865
 30
4338.373
 70
    32
  0
SEQEND
  8
T09SSILL
  0
POLYLINE
  8
T09SSILL
 62
6
 66
     1
 70
     9
  0
VERTEX
  8
T09SSILL
 62
6
 10
616.693
 20
-1948.389
 30
4338.464
 70
    32
  0
VERTEX
  8
T09SSILL
 62
6
 10
589.648
 20
-1967.612
 30
4338.561
 70
    32
  0
VERTEX
  8
T09SSILL
 62
6
 10
573.349
 20
-1959.727
 30
4338.564
 70
    32
  0
VERTEX
  8
T09SSILL
 62
6
 10
608.615
 20
-1935.402
 30
4338.440
 70
    32
  0
SEQEND
  8
T09SSILL
  0
POLYLINE
  8
T09SSILL
 62
6
 66
     1
 70
     9
  0
VERTEX
  8
T09SSILL
 62
6
 10
1415.584
 20
-1904.326
 30
4337.679
 70
    32
  0
VERTEX
  8
T09SSILL
 62
6
 10
1413.052
 20
-1908.091
 30
4337.682
 70
    32
  0
VERTEX
  8
T09SSILL
 62
6
 10
1336.215
 20
-1930.936
 30
4337.677
 70
    32
  0
VERTEX
  8
T09SSILL
 62
6
 10
1321.398
 20
-1932.587
 30
4337.674
 70
    32
  0
VERTEX
  8
T09SSILL
 62
6
 10
1319.420
 20
-1931.060
 30
4337.672
 70
    32
  0
VERTEX
  8
T09SSILL
 62
6
 10
1316.441
 20
-1922.173
 30
4337.663
 70
    32
  0
VERTEX
  8
T09SSILL
 62
6
 10
1311.564
 20
-1917.650
 30
4337.658
 70
    32
  0
VERTEX
  8
T09SSILL
 62
6
 10
1292.845
 20
-1871.566
 30
4337.611
 70
    32
  0
VERTEX
  8
T09SSILL
 62
6
 10
1287.879
 20
-1857.722
 30
4337.598
 70
    32
  0
VERTEX
  8
T09SSILL
 62
6
 10
1286.057
 20
-1843.086
 30
4337.584
 70
    32
  0
VERTEX
  8
T09SSILL
 62
6
 10
1273.975
 20
-1845.011
 30
4337.582
 70
    32
  0
VERTEX
  8
T09SSILL
 62
6
 10
1265.754
 20
-1834.250
 30
4337.570
 70
    32
  0
VERTEX
  8
T09SSILL
 62
6
 10
1260.819
 20
-1830.784
 30
4337.565
 70
    32
  0
VERTEX
  8
T09SSILL
 62
6
 10
1253.326
 20
-1811.559
 30
4337.546
 70
    32
  0
VERTEX
  8
T09SSILL
 62
6
 10
1254.769
 20
-1806.593
 30
4337.542
 70
    32
  0
VERTEX
  8
T09SSILL
 62
6
 10
1262.298
 20
-1802.246
 30
4337.541
 70
    32
  0
VERTEX
  8
T09SSILL
 62
6
 10
1262.490
 20
-1796.612
 30
4337.536
 70
    32
  0
VERTEX
  8
T09SSILL
 62
6
 10
1264.622
 20
-1794.265
 30
4337.534
 70
    32
  0
VERTEX
  8
T09SSILL
 62
6
 10
1265.914
 20
-1787.104
 30
4337.529
 70
    32
  0
VERTEX
  8
T09SSILL
 62
6
 10
1266.137
 20
-1779.446
 30
4337.522
 70
    32
  0
VERTEX
  8
T09SSILL
 62
6
 10
1433.106
 20
-1628.631
 30
4337.456
 70
    32
  0
VERTEX
  8
T09SSILL
 62
6
 10
1568.180
 20
-1876.433
 30
4337.724
 70
    32
  0
VERTEX
  8
T09SSILL
 62
6
 10
1437.385
 20
-1947.420
 30
4337.724
 70
    32
  0
VERTEX
  8
T09SSILL
 62
6
 10
1404.663
 20
-1919.323
 30
4337.689
 70
    32
  0
VERTEX
  8
T09SSILL
 62
6
 10
1424.076
 20
-1912.265
 30
4337.689
 70
    32
  0
VERTEX
  8
T09SSILL
 62
6
 10
1423.499
 20
-1909.929
 30
4337.687
 70
    32
  0
SEQEND
  8
T09SSILL
  0
POLYLINE
  8
T09SSILL
 62
6
 66
     1
 70
     9
  0
VERTEX
  8
T09SSILL
 62
6
 10
815.292
 20
-1912.126
 30
4338.049
 70
    32
  0
VERTEX
  8
T09SSILL
 62
6
 10
913.313
 20
-1899.257
 30
4337.859
 70
    32
  0
VERTEX
  8
T09SSILL
 62
6
 10
909.680
 20
-1902.351
 30
4337.874
 70
    32
  0
VERTEX
  8
T09SSILL
 62
6
 10
911.281
 20
-1905.496
 30
4337.880
 70
    32
  0
VERTEX
  8
T09SSILL
 62
6
 10
915.601
 20
-1908.709
 30
4337.882
 70
    32
  0
VERTEX
  8
T09SSILL
 62
6
 10
919.760
 20
-1913.941
 30
4337.891
 70
    32
  0
VERTEX
  8
T09SSILL
 62
6
 10
922.878
 20
-1920.758
 30
4337.905
 70
    32
  0
VERTEX
  8
T09SSILL
 62
6
 10
922.047
 20
-1927.165
 30
4337.925
 70
    32
  0
VERTEX
  8
T09SSILL
 62
6
 10
924.870
 20
-1929.425
 30
4337.926
 70
    32
  0
VERTEX
  8
T09SSILL
 62
6
 10
930.406
 20
-1931.139
 30
4337.923
 70
    32
  0
VERTEX
  8
T09SSILL
 62
6
 10
853.726
 20
-1986.495
 30
4338.200
 70
    32
  0
VERTEX
  8
T09SSILL
 62
6
 10
833.493
 20
-1953.144
 30
4338.137
 70
    32
  0
VERTEX
  8
T09SSILL
 62
6
 10
824.953
 20
-1936.106
 30
4338.102
 70
    32
  0
VERTEX
  8
T09SSILL
 62
6
 10
823.024
 20
-1923.931
 30
4338.071
 70
    32
  0
VERTEX
  8
T09SSILL
 62
6
 10
823.940
 20
-1917.173
 30
4338.050
 70
    32
  0
SEQEND
  8
T09SSILL
  0
TEXT
  8
T09SSILL
 62
6
 10
452.561
 20
-392.170
 30
4336.898
 40
0.200
  1
900
 50
-54.196
 41
 1.0 
  0
ENDSEC
  0
EOF
