999
********************************
999
*   DXF File - Entities Only   *
999
*        3D Data Format        *
999
*     Output from ENVISAGE     *
999
*     28-Dec-2007 10:55:14     *
999
********************************
  0
SECTION 
  2
HEADER
  9
$ACADVER
  1
AC1009
  9
$EXTMIN
 10
-290000.000
 20
-250000.000
 30
-4000.000
  9
$EXTMAX
 10
5000000.000
 20
600000.000
 30
6000.000
  0
ENDSEC
  0
SECTION
  2
ENTITIES
  0
POLYLINE
  8
R_SHAFTS_2
 62
8
 66
     1
 70
     9
  0
VERTEX
  8
R_SHAFTS_2
 62
8
 10
-478.481
 20
690.374
 30
4431.830
 70
    32
  0
VERTEX
  8
R_SHAFTS_2
 62
8
 10
-468.481
 20
690.374
 30
4431.830
 70
    32
  0
VERTEX
  8
R_SHAFTS_2
 62
8
 10
-468.481
 20
680.374
 30
4431.830
 70
    32
  0
VERTEX
  8
R_SHAFTS_2
 62
8
 10
-478.481
 20
680.374
 30
4431.830
 70
    32
  0
SEQEND
  8
R_SHAFTS_2
  0
POLYLINE
  8
R_SHAFTS_2
 62
8
 66
     1
 70
     9
  0
VERTEX
  8
R_SHAFTS_2
 62
8
 10
-3716.381
 20
1088.144
 30
5100.370
 70
    32
  0
VERTEX
  8
R_SHAFTS_2
 62
8
 10
-3706.381
 20
1088.144
 30
5100.370
 70
    32
  0
VERTEX
  8
R_SHAFTS_2
 62
8
 10
-3706.381
 20
1078.144
 30
5100.370
 70
    32
  0
VERTEX
  8
R_SHAFTS_2
 62
8
 10
-3716.381
 20
1078.144
 30
5100.370
 70
    32
  0
SEQEND
  8
R_SHAFTS_2
  0
POLYLINE
  8
R_SHAFTS_2
 62
8
 66
     1
 70
     9
  0
VERTEX
  8
R_SHAFTS_2
 62
8
 10
-700.881
 20
-374.686
 30
4127.920
 70
    32
  0
VERTEX
  8
R_SHAFTS_2
 62
8
 10
-690.881
 20
-374.686
 30
4127.920
 70
    32
  0
VERTEX
  8
R_SHAFTS_2
 62
8
 10
-690.881
 20
-384.686
 30
4127.920
 70
    32
  0
VERTEX
  8
R_SHAFTS_2
 62
8
 10
-700.881
 20
-384.686
 30
4127.920
 70
    32
  0
SEQEND
  8
R_SHAFTS_2
  0
POLYLINE
  8
R_SHAFTS_2
 62
8
 66
     1
 70
     9
  0
VERTEX
  8
R_SHAFTS_2
 62
8
 10
-3716.381
 20
1088.144
 30
4935.510
 70
    32
  0
VERTEX
  8
R_SHAFTS_2
 62
8
 10
-3706.381
 20
1088.144
 30
4935.510
 70
    32
  0
VERTEX
  8
R_SHAFTS_2
 62
8
 10
-3706.381
 20
1078.144
 30
4935.510
 70
    32
  0
VERTEX
  8
R_SHAFTS_2
 62
8
 10
-3716.381
 20
1078.144
 30
4935.510
 70
    32
  0
SEQEND
  8
R_SHAFTS_2
  0
LINE
  8
R_SHAFTS_2
 62
8
 10
-3711.340
 20
1078.144
 30
5100.370
 11
-3711.340
 21
1078.144
 31
4935.510
  0
POLYLINE
  8
R_SHAFTS_2
 62
8
 66
     1
 70
     9
  0
VERTEX
  8
R_SHAFTS_2
 62
8
 10
-2666.581
 20
3279.374
 30
5007.580
 70
    32
  0
VERTEX
  8
R_SHAFTS_2
 62
8
 10
-2656.581
 20
3279.374
 30
5007.580
 70
    32
  0
VERTEX
  8
R_SHAFTS_2
 62
8
 10
-2656.581
 20
3269.374
 30
5007.580
 70
    32
  0
VERTEX
  8
R_SHAFTS_2
 62
8
 10
-2666.581
 20
3269.374
 30
5007.580
 70
    32
  0
SEQEND
  8
R_SHAFTS_2
  0
POLYLINE
  8
R_SHAFTS_2
 62
8
 66
     1
 70
     9
  0
VERTEX
  8
R_SHAFTS_2
 62
8
 10
-1307.921
 20
2098.904
 30
5034.280
 70
    32
  0
VERTEX
  8
R_SHAFTS_2
 62
8
 10
-1297.921
 20
2098.904
 30
5034.280
 70
    32
  0
VERTEX
  8
R_SHAFTS_2
 62
8
 10
-1297.921
 20
2088.904
 30
5034.280
 70
    32
  0
VERTEX
  8
R_SHAFTS_2
 62
8
 10
-1307.921
 20
2088.904
 30
5034.280
 70
    32
  0
SEQEND
  8
R_SHAFTS_2
  0
POLYLINE
  8
R_SHAFTS_2
 62
8
 66
     1
 70
     9
  0
VERTEX
  8
R_SHAFTS_2
 62
8
 10
-2666.581
 20
3279.374
 30
4431.830
 70
    32
  0
VERTEX
  8
R_SHAFTS_2
 62
8
 10
-2656.581
 20
3279.374
 30
4431.830
 70
    32
  0
VERTEX
  8
R_SHAFTS_2
 62
8
 10
-2656.581
 20
3269.374
 30
4431.830
 70
    32
  0
VERTEX
  8
R_SHAFTS_2
 62
8
 10
-2666.581
 20
3269.374
 30
4431.830
 70
    32
  0
SEQEND
  8
R_SHAFTS_2
  0
POLYLINE
  8
R_SHAFTS_2
 62
8
 66
     1
 70
     9
  0
VERTEX
  8
R_SHAFTS_2
 62
8
 10
-1307.921
 20
2098.904
 30
4432.910
 70
    32
  0
VERTEX
  8
R_SHAFTS_2
 62
8
 10
-1297.921
 20
2098.904
 30
4432.910
 70
    32
  0
VERTEX
  8
R_SHAFTS_2
 62
8
 10
-1297.921
 20
2088.904
 30
4432.910
 70
    32
  0
VERTEX
  8
R_SHAFTS_2
 62
8
 10
-1307.921
 20
2088.904
 30
4432.910
 70
    32
  0
SEQEND
  8
R_SHAFTS_2
  0
LINE
  8
R_SHAFTS_2
 62
8
 10
-1297.921
 20
2088.904
 30
5034.280
 11
-1297.921
 21
2088.904
 31
4432.910
  0
LINE
  8
R_SHAFTS_2
 62
8
 10
-2656.581
 20
3269.374
 30
5007.580
 11
-2656.581
 21
3269.374
 31
4431.830
  0
POLYLINE
  8
R_SHAFTS_2
 62
8
 66
     1
 70
     9
  0
VERTEX
  8
R_SHAFTS_2
 62
8
 10
-478.481
 20
690.374
 30
5204.360
 70
    32
  0
VERTEX
  8
R_SHAFTS_2
 62
8
 10
-468.481
 20
690.374
 30
5204.360
 70
    32
  0
VERTEX
  8
R_SHAFTS_2
 62
8
 10
-468.481
 20
680.374
 30
5204.360
 70
    32
  0
VERTEX
  8
R_SHAFTS_2
 62
8
 10
-478.481
 20
680.374
 30
5204.360
 70
    32
  0
SEQEND
  8
R_SHAFTS_2
  0
POLYLINE
  8
R_SHAFTS_2
 62
8
 66
     1
 70
     9
  0
VERTEX
  8
R_SHAFTS_2
 62
8
 10
558.659
 20
-1379.056
 30
3525.000
 70
    32
  0
VERTEX
  8
R_SHAFTS_2
 62
8
 10
568.659
 20
-1379.056
 30
3525.000
 70
    32
  0
VERTEX
  8
R_SHAFTS_2
 62
8
 10
568.659
 20
-1389.056
 30
3525.000
 70
    32
  0
VERTEX
  8
R_SHAFTS_2
 62
8
 10
558.659
 20
-1389.056
 30
3525.000
 70
    32
  0
SEQEND
  8
R_SHAFTS_2
  0
POLYLINE
  8
R_SHAFTS_2
 62
8
 66
     1
 70
     9
  0
VERTEX
  8
R_SHAFTS_2
 62
8
 10
-700.881
 20
-374.686
 30
5382.190
 70
    32
  0
VERTEX
  8
R_SHAFTS_2
 62
8
 10
-690.881
 20
-374.686
 30
5382.190
 70
    32
  0
VERTEX
  8
R_SHAFTS_2
 62
8
 10
-690.881
 20
-384.686
 30
5382.190
 70
    32
  0
VERTEX
  8
R_SHAFTS_2
 62
8
 10
-700.881
 20
-384.686
 30
5382.190
 70
    32
  0
SEQEND
  8
R_SHAFTS_2
  0
POLYLINE
  8
R_SHAFTS_2
 62
8
 66
     1
 70
     9
  0
VERTEX
  8
R_SHAFTS_2
 62
8
 10
558.659
 20
-1379.056
 30
4920.300
 70
    32
  0
VERTEX
  8
R_SHAFTS_2
 62
8
 10
568.659
 20
-1379.056
 30
4920.300
 70
    32
  0
VERTEX
  8
R_SHAFTS_2
 62
8
 10
568.659
 20
-1389.056
 30
4920.300
 70
    32
  0
VERTEX
  8
R_SHAFTS_2
 62
8
 10
558.659
 20
-1389.056
 30
4920.300
 70
    32
  0
SEQEND
  8
R_SHAFTS_2
  0
POLYLINE
  8
R_SHAFTS_2
 62
8
 66
     1
 70
     9
  0
VERTEX
  8
R_SHAFTS_2
 62
8
 10
1147.989
 20
-1107.236
 30
5288.860
 70
    32
  0
VERTEX
  8
R_SHAFTS_2
 62
8
 10
1157.989
 20
-1107.236
 30
5288.860
 70
    32
  0
VERTEX
  8
R_SHAFTS_2
 62
8
 10
1157.989
 20
-1117.236
 30
5288.860
 70
    32
  0
VERTEX
  8
R_SHAFTS_2
 62
8
 10
1147.989
 20
-1117.236
 30
5288.860
 70
    32
  0
SEQEND
  8
R_SHAFTS_2
  0
POLYLINE
  8
R_SHAFTS_2
 62
8
 66
     1
 70
     9
  0
VERTEX
  8
R_SHAFTS_2
 62
8
 10
1686.099
 20
-794.496
 30
5312.340
 70
    32
  0
VERTEX
  8
R_SHAFTS_2
 62
8
 10
1696.099
 20
-794.496
 30
5312.340
 70
    32
  0
VERTEX
  8
R_SHAFTS_2
 62
8
 10
1696.099
 20
-804.496
 30
5312.340
 70
    32
  0
VERTEX
  8
R_SHAFTS_2
 62
8
 10
1686.099
 20
-804.496
 30
5312.340
 70
    32
  0
SEQEND
  8
R_SHAFTS_2
  0
POLYLINE
  8
R_SHAFTS_2
 62
8
 66
     1
 70
     9
  0
VERTEX
  8
R_SHAFTS_2
 62
8
 10
1335.159
 20
-2429.116
 30
5129.360
 70
    32
  0
VERTEX
  8
R_SHAFTS_2
 62
8
 10
1345.159
 20
-2429.116
 30
5129.360
 70
    32
  0
VERTEX
  8
R_SHAFTS_2
 62
8
 10
1345.159
 20
-2439.116
 30
5129.360
 70
    32
  0
VERTEX
  8
R_SHAFTS_2
 62
8
 10
1335.159
 20
-2439.116
 30
5129.360
 70
    32
  0
SEQEND
  8
R_SHAFTS_2
  0
POLYLINE
  8
R_SHAFTS_2
 62
8
 66
     1
 70
     9
  0
VERTEX
  8
R_SHAFTS_2
 62
8
 10
1901.149
 20
-2678.226
 30
5255.210
 70
    32
  0
VERTEX
  8
R_SHAFTS_2
 62
8
 10
1911.149
 20
-2678.226
 30
5255.210
 70
    32
  0
VERTEX
  8
R_SHAFTS_2
 62
8
 10
1911.149
 20
-2688.226
 30
5255.210
 70
    32
  0
VERTEX
  8
R_SHAFTS_2
 62
8
 10
1901.149
 20
-2688.226
 30
5255.210
 70
    32
  0
SEQEND
  8
R_SHAFTS_2
  0
POLYLINE
  8
R_SHAFTS_2
 62
8
 66
     1
 70
     9
  0
VERTEX
  8
R_SHAFTS_2
 62
8
 10
2860.979
 20
-3818.296
 30
3227.240
 70
    32
  0
VERTEX
  8
R_SHAFTS_2
 62
8
 10
2870.979
 20
-3818.296
 30
3227.240
 70
    32
  0
VERTEX
  8
R_SHAFTS_2
 62
8
 10
2870.979
 20
-3828.296
 30
3227.240
 70
    32
  0
VERTEX
  8
R_SHAFTS_2
 62
8
 10
2860.979
 20
-3828.296
 30
3227.240
 70
    32
  0
SEQEND
  8
R_SHAFTS_2
  0
POLYLINE
  8
R_SHAFTS_2
 62
8
 66
     1
 70
     9
  0
VERTEX
  8
R_SHAFTS_2
 62
8
 10
1915.569
 20
-5410.906
 30
5132.170
 70
    32
  0
VERTEX
  8
R_SHAFTS_2
 62
8
 10
1925.569
 20
-5410.906
 30
5132.170
 70
    32
  0
VERTEX
  8
R_SHAFTS_2
 62
8
 10
1925.569
 20
-5420.906
 30
5132.170
 70
    32
  0
VERTEX
  8
R_SHAFTS_2
 62
8
 10
1915.569
 20
-5420.906
 30
5132.170
 70
    32
  0
SEQEND
  8
R_SHAFTS_2
  0
POLYLINE
  8
R_SHAFTS_2
 62
8
 66
     1
 70
     9
  0
VERTEX
  8
R_SHAFTS_2
 62
8
 10
3476.969
 20
-5184.066
 30
4936.640
 70
    32
  0
VERTEX
  8
R_SHAFTS_2
 62
8
 10
3486.969
 20
-5184.066
 30
4936.640
 70
    32
  0
VERTEX
  8
R_SHAFTS_2
 62
8
 10
3486.969
 20
-5194.066
 30
4936.640
 70
    32
  0
VERTEX
  8
R_SHAFTS_2
 62
8
 10
3476.969
 20
-5194.066
 30
4936.640
 70
    32
  0
SEQEND
  8
R_SHAFTS_2
  0
POLYLINE
  8
R_SHAFTS_2
 62
8
 66
     1
 70
     9
  0
VERTEX
  8
R_SHAFTS_2
 62
8
 10
2007.309
 20
-6365.696
 30
-1540.860
 70
    32
  0
VERTEX
  8
R_SHAFTS_2
 62
8
 10
2017.309
 20
-6365.696
 30
-1540.860
 70
    32
  0
VERTEX
  8
R_SHAFTS_2
 62
8
 10
2017.309
 20
-6375.696
 30
-1540.860
 70
    32
  0
VERTEX
  8
R_SHAFTS_2
 62
8
 10
2007.309
 20
-6375.696
 30
-1540.860
 70
    32
  0
SEQEND
  8
R_SHAFTS_2
  0
POLYLINE
  8
R_SHAFTS_2
 62
8
 66
     1
 70
     9
  0
VERTEX
  8
R_SHAFTS_2
 62
8
 10
5879.549
 20
-8636.476
 30
5137.000
 70
    32
  0
VERTEX
  8
R_SHAFTS_2
 62
8
 10
5889.549
 20
-8636.476
 30
5137.000
 70
    32
  0
VERTEX
  8
R_SHAFTS_2
 62
8
 10
5889.549
 20
-8646.476
 30
5137.000
 70
    32
  0
VERTEX
  8
R_SHAFTS_2
 62
8
 10
5879.549
 20
-8646.476
 30
5137.000
 70
    32
  0
SEQEND
  8
R_SHAFTS_2
  0
POLYLINE
  8
R_SHAFTS_2
 62
8
 66
     1
 70
     9
  0
VERTEX
  8
R_SHAFTS_2
 62
8
 10
1147.989
 20
-1107.236
 30
3522.340
 70
    32
  0
VERTEX
  8
R_SHAFTS_2
 62
8
 10
1157.989
 20
-1107.236
 30
3522.340
 70
    32
  0
VERTEX
  8
R_SHAFTS_2
 62
8
 10
1157.989
 20
-1117.236
 30
3522.340
 70
    32
  0
VERTEX
  8
R_SHAFTS_2
 62
8
 10
1147.989
 20
-1117.236
 30
3522.340
 70
    32
  0
SEQEND
  8
R_SHAFTS_2
  0
POLYLINE
  8
R_SHAFTS_2
 62
8
 66
     1
 70
     9
  0
VERTEX
  8
R_SHAFTS_2
 62
8
 10
1686.099
 20
-794.496
 30
3674.640
 70
    32
  0
VERTEX
  8
R_SHAFTS_2
 62
8
 10
1696.099
 20
-794.496
 30
3674.640
 70
    32
  0
VERTEX
  8
R_SHAFTS_2
 62
8
 10
1696.099
 20
-804.496
 30
3674.640
 70
    32
  0
VERTEX
  8
R_SHAFTS_2
 62
8
 10
1686.099
 20
-804.496
 30
3674.640
 70
    32
  0
SEQEND
  8
R_SHAFTS_2
  0
POLYLINE
  8
R_SHAFTS_2
 62
8
 66
     1
 70
     9
  0
VERTEX
  8
R_SHAFTS_2
 62
8
 10
1335.159
 20
-2429.116
 30
4927.100
 70
    32
  0
VERTEX
  8
R_SHAFTS_2
 62
8
 10
1345.159
 20
-2429.116
 30
4927.100
 70
    32
  0
VERTEX
  8
R_SHAFTS_2
 62
8
 10
1345.159
 20
-2439.116
 30
4927.100
 70
    32
  0
VERTEX
  8
R_SHAFTS_2
 62
8
 10
1335.159
 20
-2439.116
 30
4927.100
 70
    32
  0
SEQEND
  8
R_SHAFTS_2
  0
POLYLINE
  8
R_SHAFTS_2
 62
8
 66
     1
 70
     9
  0
VERTEX
  8
R_SHAFTS_2
 62
8
 10
1901.149
 20
-2678.226
 30
2022.470
 70
    32
  0
VERTEX
  8
R_SHAFTS_2
 62
8
 10
1911.149
 20
-2678.226
 30
2022.470
 70
    32
  0
VERTEX
  8
R_SHAFTS_2
 62
8
 10
1911.149
 20
-2688.226
 30
2022.470
 70
    32
  0
VERTEX
  8
R_SHAFTS_2
 62
8
 10
1901.149
 20
-2688.226
 30
2022.470
 70
    32
  0
SEQEND
  8
R_SHAFTS_2
  0
POLYLINE
  8
R_SHAFTS_2
 62
8
 66
     1
 70
     9
  0
VERTEX
  8
R_SHAFTS_2
 62
8
 10
2860.979
 20
-3818.296
 30
1722.490
 70
    32
  0
VERTEX
  8
R_SHAFTS_2
 62
8
 10
2870.979
 20
-3818.296
 30
1722.490
 70
    32
  0
VERTEX
  8
R_SHAFTS_2
 62
8
 10
2870.979
 20
-3828.296
 30
1722.490
 70
    32
  0
VERTEX
  8
R_SHAFTS_2
 62
8
 10
2860.979
 20
-3828.296
 30
1722.490
 70
    32
  0
SEQEND
  8
R_SHAFTS_2
  0
POLYLINE
  8
R_SHAFTS_2
 62
8
 66
     1
 70
     9
  0
VERTEX
  8
R_SHAFTS_2
 62
8
 10
3476.969
 20
-5184.066
 30
1123.440
 70
    32
  0
VERTEX
  8
R_SHAFTS_2
 62
8
 10
3486.969
 20
-5184.066
 30
1123.440
 70
    32
  0
VERTEX
  8
R_SHAFTS_2
 62
8
 10
3486.969
 20
-5194.066
 30
1123.440
 70
    32
  0
VERTEX
  8
R_SHAFTS_2
 62
8
 10
3476.969
 20
-5194.066
 30
1123.440
 70
    32
  0
SEQEND
  8
R_SHAFTS_2
  0
POLYLINE
  8
R_SHAFTS_2
 62
8
 66
     1
 70
     9
  0
VERTEX
  8
R_SHAFTS_2
 62
8
 10
1915.569
 20
-5410.906
 30
4430.130
 70
    32
  0
VERTEX
  8
R_SHAFTS_2
 62
8
 10
1925.569
 20
-5410.906
 30
4430.130
 70
    32
  0
VERTEX
  8
R_SHAFTS_2
 62
8
 10
1925.569
 20
-5420.906
 30
4430.130
 70
    32
  0
VERTEX
  8
R_SHAFTS_2
 62
8
 10
1915.569
 20
-5420.906
 30
4430.130
 70
    32
  0
SEQEND
  8
R_SHAFTS_2
  0
POLYLINE
  8
R_SHAFTS_2
 62
8
 66
     1
 70
     9
  0
VERTEX
  8
R_SHAFTS_2
 62
8
 10
2007.309
 20
-6365.696
 30
-2727.190
 70
    32
  0
VERTEX
  8
R_SHAFTS_2
 62
8
 10
2017.309
 20
-6365.696
 30
-2727.190
 70
    32
  0
VERTEX
  8
R_SHAFTS_2
 62
8
 10
2017.309
 20
-6375.696
 30
-2727.190
 70
    32
  0
VERTEX
  8
R_SHAFTS_2
 62
8
 10
2007.309
 20
-6375.696
 30
-2727.190
 70
    32
  0
SEQEND
  8
R_SHAFTS_2
  0
POLYLINE
  8
R_SHAFTS_2
 62
8
 66
     1
 70
     9
  0
VERTEX
  8
R_SHAFTS_2
 62
8
 10
5879.549
 20
-8636.476
 30
-1571.540
 70
    32
  0
VERTEX
  8
R_SHAFTS_2
 62
8
 10
5889.549
 20
-8636.476
 30
-1571.540
 70
    32
  0
VERTEX
  8
R_SHAFTS_2
 62
8
 10
5889.549
 20
-8646.476
 30
-1571.540
 70
    32
  0
VERTEX
  8
R_SHAFTS_2
 62
8
 10
5879.549
 20
-8646.476
 30
-1571.540
 70
    32
  0
SEQEND
  8
R_SHAFTS_2
  0
LINE
  8
R_SHAFTS_2
 62
8
 10
-468.481
 20
680.374
 30
5204.360
 11
-468.481
 21
680.374
 31
4431.830
  0
LINE
  8
R_SHAFTS_2
 62
8
 10
-700.881
 20
-374.686
 30
5382.190
 11
-700.881
 21
-384.686
 31
4127.920
  0
LINE
  8
R_SHAFTS_2
 62
8
 10
558.659
 20
-1389.056
 30
4920.300
 11
558.659
 21
-1389.056
 31
3525.000
  0
LINE
  8
R_SHAFTS_2
 62
8
 10
1147.989
 20
-1107.236
 30
5288.860
 11
1147.989
 21
-1117.236
 31
3522.340
  0
LINE
  8
R_SHAFTS_2
 62
8
 10
1686.099
 20
-794.496
 30
5312.340
 11
1686.099
 21
-804.496
 31
3674.640
  0
LINE
  8
R_SHAFTS_2
 62
8
 10
1335.159
 20
-2439.116
 30
5129.360
 11
1335.159
 21
-2439.116
 31
4927.100
  0
LINE
  8
R_SHAFTS_2
 62
8
 10
1901.149
 20
-2678.226
 30
5255.210
 11
1901.149
 21
-2678.226
 31
2022.470
  0
LINE
  8
R_SHAFTS_2
 62
8
 10
2860.979
 20
-3828.296
 30
3227.240
 11
2860.979
 21
-3818.296
 31
1722.490
  0
LINE
  8
R_SHAFTS_2
 62
8
 10
1915.569
 20
-5410.906
 30
5132.170
 11
1915.569
 21
-5410.906
 31
4430.130
  0
LINE
  8
R_SHAFTS_2
 62
8
 10
3476.969
 20
-5194.066
 30
4936.640
 11
3476.969
 21
-5189.066
 31
1123.440
  0
LINE
  8
R_SHAFTS_2
 62
8
 10
2007.309
 20
-6365.696
 30
-1540.860
 11
2007.309
 21
-6365.696
 31
-2727.190
  0
POLYLINE
  8
R_SHAFTS_2
 62
8
 66
     1
 70
     9
  0
VERTEX
  8
R_SHAFTS_2
 62
8
 10
1686.099
 20
-794.496
 30
5312.340
 70
    32
  0
VERTEX
  8
R_SHAFTS_2
 62
8
 10
1696.099
 20
-794.496
 30
5312.340
 70
    32
  0
VERTEX
  8
R_SHAFTS_2
 62
8
 10
1696.099
 20
-804.496
 30
5312.340
 70
    32
  0
VERTEX
  8
R_SHAFTS_2
 62
8
 10
1686.099
 20
-794.909
 30
5244.801
 70
    32
  0
SEQEND
  8
R_SHAFTS_2
  0
POLYLINE
  8
R_SHAFTS_2
 62
8
 66
     1
 70
     9
  0
VERTEX
  8
R_SHAFTS_2
 62
8
 10
4834.380
 20
-6367.750
 30
1126.470
 70
    32
  0
VERTEX
  8
R_SHAFTS_2
 62
8
 10
4844.380
 20
-6367.750
 30
1126.470
 70
    32
  0
VERTEX
  8
R_SHAFTS_2
 62
8
 10
4844.380
 20
-6377.750
 30
1126.470
 70
    32
  0
VERTEX
  8
R_SHAFTS_2
 62
8
 10
4834.380
 20
-6377.750
 30
1126.470
 70
    32
  0
SEQEND
  8
R_SHAFTS_2
  0
POLYLINE
  8
R_SHAFTS_2
 62
8
 66
     1
 70
     9
  0
VERTEX
  8
R_SHAFTS_2
 62
8
 10
4834.380
 20
-6367.750
 30
226.130
 70
    32
  0
VERTEX
  8
R_SHAFTS_2
 62
8
 10
4844.380
 20
-6367.750
 30
226.130
 70
    32
  0
VERTEX
  8
R_SHAFTS_2
 62
8
 10
4844.380
 20
-6377.750
 30
226.130
 70
    32
  0
VERTEX
  8
R_SHAFTS_2
 62
8
 10
4834.380
 20
-6377.750
 30
226.130
 70
    32
  0
SEQEND
  8
R_SHAFTS_2
  0
LINE
  8
R_SHAFTS_2
 62
8
 10
4834.380
 20
-6377.750
 30
1126.470
 11
4834.380
 21
-6377.750
 31
226.130
  0
LINE
  8
R_SHAFTS_2
 62
8
 10
5879.549
 20
-8636.476
 30
5137.000
 11
5879.549
 21
-8636.476
 31
-1571.540
  0
TEXT
  8
R_SHAFTS_2
 62
1
 10
-3686.775
 20
1100.846
 30
5023.474
 40
0.100
  1
HIDDEN FORTUNE
 50
90.000
 41
 1.0 
  0
TEXT
  8
R_SHAFTS_2
 62
1
 10
-2646.317
 20
3286.313
 30
4684.308
 40
0.100
  1
COLUMBUS
 50
90.000
 41
 1.0 
  0
TEXT
  8
R_SHAFTS_2
 62
1
 10
-1289.325
 20
2104.285
 30
4718.055
 40
0.100
  1
GOLDEN GATE
 50
90.000
 41
 1.0 
  0
TEXT
  8
R_SHAFTS_2
 62
1
 10
-437.381
 20
657.720
 30
4801.051
 40
0.100
  1
OLD BRIG
 50
90.000
 41
 1.0 
  0
TEXT
  8
R_SHAFTS_2
 62
1
 10
-684.973
 20
-360.193
 30
4697.205
 40
0.100
  1
HIGHLAND
 50
90.000
 41
 1.0 
  0
TEXT
  8
R_SHAFTS_2
 62
1
 10
589.116
 20
-1391.339
 30
4229.343
 40
0.100
  1
STAR
 50
90.000
 41
 1.0 
  0
TEXT
  8
R_SHAFTS_2
 62
1
 10
1177.126
 20
-1114.364
 30
4440.533
 40
0.100
  1
B&M
 50
90.000
 41
 1.0 
  0
TEXT
  8
R_SHAFTS_2
 62
1
 10
1359.568
 20
-2445.945
 30
5021.168
 40
0.100
  1
PIERCE
 50
90.000
 41
 1.0 
  0
TEXT
  8
R_SHAFTS_2
 62
1
 10
1926.495
 20
-2678.590
 30
3469.752
 40
0.100
  1
ELLISON
 50
90.000
 41
 1.0 
  0
TEXT
  8
R_SHAFTS_2
 62
1
 10
2927.776
 20
-3877.189
 30
2456.247
 40
0.100
  1
MILLIKEN
 50
90.000
 41
 1.0 
  0
TEXT
  8
R_SHAFTS_2
 62
1
 10
1949.046
 20
-5433.893
 30
4750.731
 40
0.100
  1
MILNARICH
 50
90.000
 41
 1.0 
  0
TEXT
  8
R_SHAFTS_2
 62
1
 10
3551.182
 20
-5227.224
 30
2980.752
 40
0.100
  1
ORO HONDO
 50
90.000
 41
 1.0 
  0
TEXT
  8
R_SHAFTS_2
 62
1
 10
2017.349
 20
-6357.658
 30
-2173.886
 40
0.100
  1
7 SHAFT
 50
90.000
 41
 1.0 
  0
TEXT
  8
R_SHAFTS_2
 62
1
 10
5906.133
 20
-8623.541
 30
2312.731
 40
0.100
  1
5 SHAFT
 50
90.000
 41
 1.0 
  0
TEXT
  8
R_SHAFTS_2
 62
1
 10
1697.299
 20
-799.316
 30
4453.134
 40
0.100
  1
B&M#2
 50
90.000
 41
 1.0 
  0
TEXT
  8
R_SHAFTS_2
 62
1
 10
4839.607
 20
-6346.803
 30
607.064
 40
0.100
  1
3 WINZE
 50
90.000
 41
 1.0 
  0
POLYLINE
  8
R_SHAFTS_2
 62
8
 66
     1
 70
     9
  0
VERTEX
  8
R_SHAFTS_2
 62
8
 10
2155.394
 20
-2254.383
 30
5168.000
 70
    32
  0
VERTEX
  8
R_SHAFTS_2
 62
8
 10
2165.394
 20
-2254.383
 30
5168.000
 70
    32
  0
VERTEX
  8
R_SHAFTS_2
 62
8
 10
2165.394
 20
-2264.383
 30
5168.000
 70
    32
  0
VERTEX
  8
R_SHAFTS_2
 62
8
 10
2155.394
 20
-2264.383
 30
5168.000
 70
    32
  0
SEQEND
  8
R_SHAFTS_2
  0
POLYLINE
  8
R_SHAFTS_2
 62
8
 66
     1
 70
     9
  0
VERTEX
  8
R_SHAFTS_2
 62
8
 10
2085.394
 20
-2580.538
 30
3976.000
 70
    32
  0
VERTEX
  8
R_SHAFTS_2
 62
8
 10
2095.394
 20
-2580.538
 30
3976.000
 70
    32
  0
VERTEX
  8
R_SHAFTS_2
 62
8
 10
2095.394
 20
-2590.538
 30
3976.000
 70
    32
  0
VERTEX
  8
R_SHAFTS_2
 62
8
 10
2085.394
 20
-2590.538
 30
3976.000
 70
    32
  0
SEQEND
  8
R_SHAFTS_2
  0
POLYLINE
  8
R_SHAFTS_2
 62
8
 66
     1
 70
     9
  0
VERTEX
  8
R_SHAFTS_2
 62
8
 10
2079.242
 20
-2673.793
 30
3074.000
 70
    32
  0
VERTEX
  8
R_SHAFTS_2
 62
8
 10
2089.242
 20
-2673.793
 30
3074.000
 70
    32
  0
VERTEX
  8
R_SHAFTS_2
 62
8
 10
2089.242
 20
-2683.793
 30
3074.000
 70
    32
  0
VERTEX
  8
R_SHAFTS_2
 62
8
 10
2079.242
 20
-2683.793
 30
3074.000
 70
    32
  0
SEQEND
  8
R_SHAFTS_2
  0
POLYLINE
  8
R_SHAFTS_2
 62
8
 66
     1
 70
     8
  0
VERTEX
  8
R_SHAFTS_2
 62
8
 10
2160.000
 20
-2260.000
 30
5168.000
 70
    32
  0
VERTEX
  8
R_SHAFTS_2
 62
8
 10
2090.000
 20
-2585.000
 30
3976.000
 70
    32
  0
VERTEX
  8
R_SHAFTS_2
 62
8
 10
2085.000
 20
-2680.000
 30
3074.000
 70
    32
  0
SEQEND
  8
R_SHAFTS_2
  0
TEXT
  8
R_SHAFTS_2
 62
1
 10
2168.342
 20
-2426.315
 30
4107.000
 40
0.100
  1
#2 AIR RAISE - APPROX LOCATION
 50
90.000
 41
 1.0 
  0
ENDSEC
  0
EOF
