999
********************************
999
*   DXF File - Entities Only   *
999
*        3D Data Format        *
999
*     Output from ENVISAGE     *
999
*     18-Nov-2006 12:08:37     *
999
********************************
  0
SECTION 
  2
HEADER
  9
$ACADVER
  1
AC1009
  9
$EXTMIN
 10
-290000.000
 20
-250000.000
 30
-4000.000
  9
$EXTMAX
 10
320000.000
 20
160000.000
 30
6000.000
  0
ENDSEC
  0
SECTION
  2
ENTITIES
  0
POLYLINE
  8
T11SSILL
 62
7
 66
     1
 70
     9
  0
VERTEX
  8
T11SSILL
 62
7
 10
1405.963
 20
-2355.197
 30
4136.188
 70
    32
  0
VERTEX
  8
T11SSILL
 62
7
 10
1414.318
 20
-2354.973
 30
4136.192
 70
    32
  0
VERTEX
  8
T11SSILL
 62
7
 10
1419.976
 20
-2351.736
 30
4136.199
 70
    32
  0
VERTEX
  8
T11SSILL
 62
7
 10
1431.221
 20
-2350.669
 30
4136.206
 70
    32
  0
VERTEX
  8
T11SSILL
 62
7
 10
1435.646
 20
-2352.054
 30
4136.206
 70
    32
  0
VERTEX
  8
T11SSILL
 62
7
 10
1437.449
 20
-2348.775
 30
4136.211
 70
    32
  0
VERTEX
  8
T11SSILL
 62
7
 10
1434.741
 20
-2334.901
 30
4136.229
 70
    32
  0
VERTEX
  8
T11SSILL
 62
7
 10
1431.416
 20
-2333.448
 30
4136.229
 70
    32
  0
VERTEX
  8
T11SSILL
 62
7
 10
1409.493
 20
-2336.726
 30
4136.215
 70
    32
  0
VERTEX
  8
T11SSILL
 62
7
 10
1402.841
 20
-2340.428
 30
4136.206
 70
    32
  0
VERTEX
  8
T11SSILL
 62
7
 10
1404.587
 20
-2350.162
 30
4136.194
 70
    32
  0
SEQEND
  8
T11SSILL
  0
POLYLINE
  8
T11SSILL
 62
7
 66
     1
 70
     9
  0
VERTEX
  8
T11SSILL
 62
7
 10
1120.164
 20
-2514.037
 30
4135.843
 70
    32
  0
VERTEX
  8
T11SSILL
 62
7
 10
1113.370
 20
-2499.481
 30
4135.860
 70
    32
  0
VERTEX
  8
T11SSILL
 62
7
 10
1111.352
 20
-2498.108
 30
4135.861
 70
    32
  0
VERTEX
  8
T11SSILL
 62
7
 10
1106.631
 20
-2503.920
 30
4135.851
 70
    32
  0
VERTEX
  8
T11SSILL
 62
7
 10
1104.893
 20
-2508.543
 30
4135.844
 70
    32
  0
VERTEX
  8
T11SSILL
 62
7
 10
1105.125
 20
-2510.889
 30
4135.841
 70
    32
  0
VERTEX
  8
T11SSILL
 62
7
 10
1119.596
 20
-2516.444
 30
4135.840
 70
    32
  0
SEQEND
  8
T11SSILL
  0
POLYLINE
  8
T11SSILL
 62
7
 66
     1
 70
     9
  0
VERTEX
  8
T11SSILL
 62
7
 10
1798.252
 20
-2976.646
 30
4136.891
 70
    32
  0
VERTEX
  8
T11SSILL
 62
7
 10
1801.853
 20
-2973.939
 30
4136.883
 70
    32
  0
VERTEX
  8
T11SSILL
 62
7
 10
1803.350
 20
-2969.232
 30
4136.869
 70
    32
  0
VERTEX
  8
T11SSILL
 62
7
 10
1792.610
 20
-2943.316
 30
4136.780
 70
    32
  0
VERTEX
  8
T11SSILL
 62
7
 10
1747.487
 20
-2968.143
 30
4136.841
 70
    32
  0
VERTEX
  8
T11SSILL
 62
7
 10
1758.673
 20
-2989.904
 30
4136.917
 70
    32
  0
SEQEND
  8
T11SSILL
  0
POLYLINE
  8
T11SSILL
 62
7
 66
     1
 70
     9
  0
VERTEX
  8
T11SSILL
 62
7
 10
1638.966
 20
-2830.060
 30
4136.344
 70
    32
  0
VERTEX
  8
T11SSILL
 62
7
 10
1637.525
 20
-2839.672
 30
4136.375
 70
    32
  0
VERTEX
  8
T11SSILL
 62
7
 10
1642.933
 20
-2841.168
 30
4136.382
 70
    32
  0
VERTEX
  8
T11SSILL
 62
7
 10
1653.853
 20
-2848.714
 30
4136.411
 70
    32
  0
VERTEX
  8
T11SSILL
 62
7
 10
1661.564
 20
-2850.958
 30
4136.422
 70
    32
  0
VERTEX
  8
T11SSILL
 62
7
 10
1668.808
 20
-2838.737
 30
4136.385
 70
    32
  0
VERTEX
  8
T11SSILL
 62
7
 10
1658.891
 20
-2832.741
 30
4136.361
 70
    32
  0
VERTEX
  8
T11SSILL
 62
7
 10
1645.271
 20
-2828.502
 30
4136.342
 70
    32
  0
SEQEND
  8
T11SSILL
  0
POLYLINE
  8
T11SSILL
 62
7
 66
     1
 70
     9
  0
VERTEX
  8
T11SSILL
 62
7
 10
1578.515
 20
-2753.693
 30
4136.069
 70
    32
  0
VERTEX
  8
T11SSILL
 62
7
 10
1581.369
 20
-2753.840
 30
4136.071
 70
    32
  0
VERTEX
  8
T11SSILL
 62
7
 10
1588.021
 20
-2749.177
 30
4136.058
 70
    32
  0
VERTEX
  8
T11SSILL
 62
7
 10
1587.913
 20
-2742.370
 30
4136.036
 70
    32
  0
VERTEX
  8
T11SSILL
 62
7
 10
1584.500
 20
-2733.314
 30
4136.005
 70
    32
  0
VERTEX
  8
T11SSILL
 62
7
 10
1574.142
 20
-2736.779
 30
4136.012
 70
    32
  0
VERTEX
  8
T11SSILL
 62
7
 10
1571.947
 20
-2743.589
 30
4136.033
 70
    32
  0
SEQEND
  8
T11SSILL
  0
POLYLINE
  8
T11SSILL
 62
7
 66
     1
 70
     9
  0
VERTEX
  8
T11SSILL
 62
7
 10
1586.135
 20
-2763.695
 30
4136.105
 70
    32
  0
VERTEX
  8
T11SSILL
 62
7
 10
1589.638
 20
-2763.241
 30
4136.105
 70
    32
  0
VERTEX
  8
T11SSILL
 62
7
 10
1592.889
 20
-2760.785
 30
4136.098
 70
    32
  0
VERTEX
  8
T11SSILL
 62
7
 10
1592.436
 20
-2758.082
 30
4136.089
 70
    32
  0
VERTEX
  8
T11SSILL
 62
7
 10
1587.929
 20
-2756.636
 30
4136.083
 70
    32
  0
VERTEX
  8
T11SSILL
 62
7
 10
1585.830
 20
-2759.591
 30
4136.091
 70
    32
  0
SEQEND
  8
T11SSILL
  0
POLYLINE
  8
T11SSILL
 62
7
 66
     1
 70
     9
  0
VERTEX
  8
T11SSILL
 62
7
 10
1565.897
 20
-2658.952
 30
4135.855
 70
    32
  0
VERTEX
  8
T11SSILL
 62
7
 10
1569.252
 20
-2660.050
 30
4135.855
 70
    32
  0
VERTEX
  8
T11SSILL
 62
7
 10
1576.904
 20
-2654.085
 30
4135.867
 70
    32
  0
VERTEX
  8
T11SSILL
 62
7
 10
1581.408
 20
-2653.329
 30
4135.870
 70
    32
  0
VERTEX
  8
T11SSILL
 62
7
 10
1583.807
 20
-2650.173
 30
4135.875
 70
    32
  0
VERTEX
  8
T11SSILL
 62
7
 10
1580.248
 20
-2645.071
 30
4135.880
 70
    32
  0
VERTEX
  8
T11SSILL
 62
7
 10
1568.331
 20
-2642.031
 30
4135.879
 70
    32
  0
VERTEX
  8
T11SSILL
 62
7
 10
1560.025
 20
-2644.143
 30
4135.872
 70
    32
  0
SEQEND
  8
T11SSILL
  0
POLYLINE
  8
T11SSILL
 62
7
 66
     1
 70
     9
  0
VERTEX
  8
T11SSILL
 62
7
 10
1529.169
 20
-2670.155
 30
4135.823
 70
    32
  0
VERTEX
  8
T11SSILL
 62
7
 10
1547.436
 20
-2667.182
 30
4135.836
 70
    32
  0
VERTEX
  8
T11SSILL
 62
7
 10
1558.744
 20
-2662.714
 30
4135.847
 70
    32
  0
VERTEX
  8
T11SSILL
 62
7
 10
1558.937
 20
-2656.407
 30
4135.855
 70
    32
  0
VERTEX
  8
T11SSILL
 62
7
 10
1551.368
 20
-2647.205
 30
4135.864
 70
    32
  0
VERTEX
  8
T11SSILL
 62
7
 10
1552.111
 20
-2639.796
 30
4135.875
 70
    32
  0
VERTEX
  8
T11SSILL
 62
7
 10
1538.440
 20
-2634.356
 30
4135.876
 70
    32
  0
VERTEX
  8
T11SSILL
 62
7
 10
1519.626
 20
-2639.932
 30
4135.859
 70
    32
  0
VERTEX
  8
T11SSILL
 62
7
 10
1486.353
 20
-2653.184
 30
4135.826
 70
    32
  0
VERTEX
  8
T11SSILL
 62
7
 10
1522.007
 20
-2666.259
 30
4135.825
 70
    32
  0
SEQEND
  8
T11SSILL
  0
POLYLINE
  8
T11SSILL
 62
7
 66
     1
 70
     9
  0
VERTEX
  8
T11SSILL
 62
7
 10
1832.811
 20
-2950.129
 30
4136.819
 70
    32
  0
VERTEX
  8
T11SSILL
 62
7
 10
1837.123
 20
-2956.281
 30
4136.841
 70
    32
  0
VERTEX
  8
T11SSILL
 62
7
 10
1847.596
 20
-2966.531
 30
4136.879
 70
    32
  0
VERTEX
  8
T11SSILL
 62
7
 10
1859.668
 20
-2974.927
 30
4136.911
 70
    32
  0
VERTEX
  8
T11SSILL
 62
7
 10
1866.283
 20
-2982.027
 30
4136.938
 70
    32
  0
VERTEX
  8
T11SSILL
 62
7
 10
1869.345
 20
-2989.983
 30
4136.965
 70
    32
  0
VERTEX
  8
T11SSILL
 62
7
 10
1875.207
 20
-2994.381
 30
4136.982
 70
    32
  0
VERTEX
  8
T11SSILL
 62
7
 10
1880.313
 20
-2995.377
 30
4136.987
 70
    32
  0
VERTEX
  8
T11SSILL
 62
7
 10
1885.016
 20
-2992.969
 30
4136.981
 70
    32
  0
VERTEX
  8
T11SSILL
 62
7
 10
1888.663
 20
-2986.508
 30
4136.962
 70
    32
  0
VERTEX
  8
T11SSILL
 62
7
 10
1891.199
 20
-2971.789
 30
4136.915
 70
    32
  0
VERTEX
  8
T11SSILL
 62
7
 10
1887.467
 20
-2946.315
 30
4136.830
 70
    32
  0
VERTEX
  8
T11SSILL
 62
7
 10
1882.003
 20
-2939.313
 30
4136.805
 70
    32
  0
VERTEX
  8
T11SSILL
 62
7
 10
1880.441
 20
-2929.604
 30
4136.773
 70
    32
  0
VERTEX
  8
T11SSILL
 62
7
 10
1870.622
 20
-2921.656
 30
4136.742
 70
    32
  0
VERTEX
  8
T11SSILL
 62
7
 10
1853.761
 20
-2929.033
 30
4136.759
 70
    32
  0
VERTEX
  8
T11SSILL
 62
7
 10
1843.557
 20
-2935.351
 30
4136.775
 70
    32
  0
VERTEX
  8
T11SSILL
 62
7
 10
1837.550
 20
-2935.608
 30
4136.774
 70
    32
  0
VERTEX
  8
T11SSILL
 62
7
 10
1832.897
 20
-2937.215
 30
4136.777
 70
    32
  0
SEQEND
  8
T11SSILL
  0
POLYLINE
  8
T11SSILL
 62
7
 66
     1
 70
     9
  0
VERTEX
  8
T11SSILL
 62
7
 10
1812.791
 20
-2997.403
 30
4136.965
 70
    32
  0
VERTEX
  8
T11SSILL
 62
7
 10
1810.379
 20
-2988.996
 30
4136.936
 70
    32
  0
VERTEX
  8
T11SSILL
 62
7
 10
1802.213
 20
-2982.298
 30
4136.911
 70
    32
  0
VERTEX
  8
T11SSILL
 62
7
 10
1763.636
 20
-2996.406
 30
4136.940
 70
    32
  0
VERTEX
  8
T11SSILL
 62
7
 10
1777.879
 20
-3021.068
 30
4137.027
 70
    32
  0
VERTEX
  8
T11SSILL
 62
7
 10
1809.345
 20
-3004.214
 30
4136.985
 70
    32
  0
SEQEND
  8
T11SSILL
  0
POLYLINE
  8
T11SSILL
 62
7
 66
     1
 70
     9
  0
VERTEX
  8
T11SSILL
 62
7
 10
1934.730
 20
-2664.014
 30
4136.024
 70
    32
  0
VERTEX
  8
T11SSILL
 62
7
 10
1933.902
 20
-2659.973
 30
4136.029
 70
    32
  0
VERTEX
  8
T11SSILL
 62
7
 10
1937.840
 20
-2657.386
 30
4136.034
 70
    32
  0
VERTEX
  8
T11SSILL
 62
7
 10
1930.589
 20
-2653.577
 30
4136.035
 70
    32
  0
VERTEX
  8
T11SSILL
 62
7
 10
1917.192
 20
-2661.352
 30
4136.017
 70
    32
  0
VERTEX
  8
T11SSILL
 62
7
 10
1922.347
 20
-2667.115
 30
4136.012
 70
    32
  0
VERTEX
  8
T11SSILL
 62
7
 10
1929.969
 20
-2663.088
 30
4136.022
 70
    32
  0
VERTEX
  8
T11SSILL
 62
7
 10
1931.489
 20
-2665.803
 30
4136.019
 70
    32
  0
SEQEND
  8
T11SSILL
  0
POLYLINE
  8
T11SSILL
 62
7
 66
     1
 70
     9
  0
VERTEX
  8
T11SSILL
 62
7
 10
481.417
 20
-1783.444
 30
4135.037
 70
    32
  0
VERTEX
  8
T11SSILL
 62
7
 10
485.721
 20
-1783.439
 30
4135.041
 70
    32
  0
VERTEX
  8
T11SSILL
 62
7
 10
494.475
 20
-1779.074
 30
4135.044
 70
    32
  0
VERTEX
  8
T11SSILL
 62
7
 10
501.170
 20
-1774.184
 30
4135.046
 70
    32
  0
VERTEX
  8
T11SSILL
 62
7
 10
500.402
 20
-1768.889
 30
4135.040
 70
    32
  0
VERTEX
  8
T11SSILL
 62
7
 10
492.815
 20
-1754.721
 30
4135.022
 70
    32
  0
VERTEX
  8
T11SSILL
 62
7
 10
489.794
 20
-1753.307
 30
4135.018
 70
    32
  0
VERTEX
  8
T11SSILL
 62
7
 10
470.503
 20
-1767.416
 30
4135.015
 70
    32
  0
VERTEX
  8
T11SSILL
 62
7
 10
478.534
 20
-1781.078
 30
4135.033
 70
    32
  0
SEQEND
  8
T11SSILL
  0
POLYLINE
  8
T11SSILL
 62
7
 66
     1
 70
     9
  0
VERTEX
  8
T11SSILL
 62
7
 10
524.831
 20
-1824.585
 30
4135.108
 70
    32
  0
VERTEX
  8
T11SSILL
 62
7
 10
515.801
 20
-1834.810
 30
4135.110
 70
    32
  0
VERTEX
  8
T11SSILL
 62
7
 10
520.409
 20
-1842.960
 30
4135.121
 70
    32
  0
VERTEX
  8
T11SSILL
 62
7
 10
542.935
 20
-1827.409
 30
4135.126
 70
    32
  0
VERTEX
  8
T11SSILL
 62
7
 10
538.022
 20
-1818.863
 30
4135.114
 70
    32
  0
SEQEND
  8
T11SSILL
  0
POLYLINE
  8
T11SSILL
 62
7
 66
     1
 70
     9
  0
VERTEX
  8
T11SSILL
 62
7
 10
471.096
 20
-1857.698
 30
4135.093
 70
    32
  0
VERTEX
  8
T11SSILL
 62
7
 10
467.700
 20
-1870.104
 30
4135.101
 70
    32
  0
VERTEX
  8
T11SSILL
 62
7
 10
473.926
 20
-1875.681
 30
4135.111
 70
    32
  0
VERTEX
  8
T11SSILL
 62
7
 10
488.877
 20
-1866.632
 30
4135.115
 70
    32
  0
VERTEX
  8
T11SSILL
 62
7
 10
487.980
 20
-1859.086
 30
4135.108
 70
    32
  0
VERTEX
  8
T11SSILL
 62
7
 10
485.219
 20
-1850.512
 30
4135.098
 70
    32
  0
VERTEX
  8
T11SSILL
 62
7
 10
483.151
 20
-1849.237
 30
4135.096
 70
    32
  0
SEQEND
  8
T11SSILL
  0
POLYLINE
  8
T11SSILL
 62
7
 66
     1
 70
     9
  0
VERTEX
  8
T11SSILL
 62
7
 10
436.101
 20
-1805.539
 30
4135.019
 70
    32
  0
VERTEX
  8
T11SSILL
 62
7
 10
438.079
 20
-1811.520
 30
4135.026
 70
    32
  0
VERTEX
  8
T11SSILL
 62
7
 10
444.321
 20
-1814.344
 30
4135.034
 70
    32
  0
VERTEX
  8
T11SSILL
 62
7
 10
459.792
 20
-1802.937
 30
4135.037
 70
    32
  0
VERTEX
  8
T11SSILL
 62
7
 10
471.395
 20
-1786.423
 30
4135.032
 70
    32
  0
VERTEX
  8
T11SSILL
 62
7
 10
470.569
 20
-1780.528
 30
4135.026
 70
    32
  0
VERTEX
  8
T11SSILL
 62
7
 10
468.405
 20
-1775.600
 30
4135.020
 70
    32
  0
VERTEX
  8
T11SSILL
 62
7
 10
464.403
 20
-1771.797
 30
4135.013
 70
    32
  0
VERTEX
  8
T11SSILL
 62
7
 10
431.969
 20
-1795.381
 30
4135.007
 70
    32
  0
SEQEND
  8
T11SSILL
  0
POLYLINE
  8
T11SSILL
 62
7
 66
     1
 70
     9
  0
VERTEX
  8
T11SSILL
 62
7
 10
273.667
 20
-1531.069
 30
4134.942
 70
    32
  0
VERTEX
  8
T11SSILL
 62
7
 10
262.598
 20
-1577.906
 30
4134.890
 70
    32
  0
VERTEX
  8
T11SSILL
 62
7
 10
272.616
 20
-1598.300
 30
4134.847
 70
    32
  0
VERTEX
  8
T11SSILL
 62
7
 10
297.778
 20
-1581.465
 30
4134.837
 70
    32
  0
VERTEX
  8
T11SSILL
 62
7
 10
294.309
 20
-1552.530
 30
4134.883
 70
    32
  0
VERTEX
  8
T11SSILL
 62
7
 10
286.459
 20
-1521.548
 30
4134.938
 70
    32
  0
VERTEX
  8
T11SSILL
 62
7
 10
282.434
 20
-1519.897
 30
4134.946
 70
    32
  0
SEQEND
  8
T11SSILL
  0
POLYLINE
  8
T11SSILL
 62
7
 66
     1
 70
     9
  0
VERTEX
  8
T11SSILL
 62
7
 10
303.025
 20
-1434.065
 30
4135.040
 70
    32
  0
VERTEX
  8
T11SSILL
 62
7
 10
306.350
 20
-1423.243
 30
4135.051
 70
    32
  0
VERTEX
  8
T11SSILL
 62
7
 10
306.165
 20
-1416.911
 30
4135.061
 70
    32
  0
VERTEX
  8
T11SSILL
 62
7
 10
288.264
 20
-1386.158
 30
4135.128
 70
    32
  0
VERTEX
  8
T11SSILL
 62
7
 10
267.466
 20
-1358.136
 30
4135.196
 70
    32
  0
VERTEX
  8
T11SSILL
 62
7
 10
260.691
 20
-1356.124
 30
4135.208
 70
    32
  0
VERTEX
  8
T11SSILL
 62
7
 10
260.175
 20
-1363.776
 30
4135.198
 70
    32
  0
VERTEX
  8
T11SSILL
 62
7
 10
255.180
 20
-1374.864
 30
4135.189
 70
    32
  0
VERTEX
  8
T11SSILL
 62
7
 10
277.917
 20
-1462.158
 30
4135.034
 70
    32
  0
VERTEX
  8
T11SSILL
 62
7
 10
284.864
 20
-1462.235
 30
4135.025
 70
    32
  0
VERTEX
  8
T11SSILL
 62
7
 10
297.239
 20
-1446.034
 30
4135.031
 70
    32
  0
VERTEX
  8
T11SSILL
 62
7
 10
297.667
 20
-1438.119
 30
4135.042
 70
    32
  0
SEQEND
  8
T11SSILL
  0
POLYLINE
  8
T11SSILL
 62
7
 66
     1
 70
     9
  0
VERTEX
  8
T11SSILL
 62
7
 10
401.161
 20
-1427.493
 30
4134.917
 70
    32
  0
VERTEX
  8
T11SSILL
 62
7
 10
407.308
 20
-1421.503
 30
4134.918
 70
    32
  0
VERTEX
  8
T11SSILL
 62
7
 10
406.578
 20
-1404.619
 30
4134.943
 70
    32
  0
VERTEX
  8
T11SSILL
 62
7
 10
400.065
 20
-1401.375
 30
4134.956
 70
    32
  0
VERTEX
  8
T11SSILL
 62
7
 10
377.866
 20
-1376.961
 30
4135.021
 70
    32
  0
VERTEX
  8
T11SSILL
 62
7
 10
373.027
 20
-1375.737
 30
4135.029
 70
    32
  0
VERTEX
  8
T11SSILL
 62
7
 10
360.197
 20
-1382.441
 30
4135.037
 70
    32
  0
VERTEX
  8
T11SSILL
 62
7
 10
381.889
 20
-1419.608
 30
4134.955
 70
    32
  0
SEQEND
  8
T11SSILL
  0
POLYLINE
  8
T11SSILL
 62
7
 66
     1
 70
     9
  0
VERTEX
  8
T11SSILL
 62
7
 10
343.618
 20
-1353.005
 30
4135.101
 70
    32
  0
VERTEX
  8
T11SSILL
 62
7
 10
354.376
 20
-1371.809
 30
4135.060
 70
    32
  0
VERTEX
  8
T11SSILL
 62
7
 10
361.325
 20
-1372.589
 30
4135.049
 70
    32
  0
VERTEX
  8
T11SSILL
 62
7
 10
373.804
 20
-1366.766
 30
4135.041
 70
    32
  0
VERTEX
  8
T11SSILL
 62
7
 10
367.011
 20
-1352.969
 30
4135.070
 70
    32
  0
VERTEX
  8
T11SSILL
 62
7
 10
354.162
 20
-1346.833
 30
4135.096
 70
    32
  0
SEQEND
  8
T11SSILL
  0
POLYLINE
  8
T11SSILL
 62
7
 66
     1
 70
     9
  0
VERTEX
  8
T11SSILL
 62
7
 10
905.542
 20
-1897.236
 30
4135.482
 70
    32
  0
VERTEX
  8
T11SSILL
 62
7
 10
889.006
 20
-1909.255
 30
4135.479
 70
    32
  0
VERTEX
  8
T11SSILL
 62
7
 10
885.410
 20
-1909.504
 30
4135.476
 70
    32
  0
VERTEX
  8
T11SSILL
 62
7
 10
877.472
 20
-1917.708
 30
4135.477
 70
    32
  0
VERTEX
  8
T11SSILL
 62
7
 10
867.510
 20
-1916.642
 30
4135.468
 70
    32
  0
VERTEX
  8
T11SSILL
 62
7
 10
863.378
 20
-1906.749
 30
4135.456
 70
    32
  0
VERTEX
  8
T11SSILL
 62
7
 10
894.945
 20
-1886.131
 30
4135.464
 70
    32
  0
VERTEX
  8
T11SSILL
 62
7
 10
897.857
 20
-1890.791
 30
4135.470
 70
    32
  0
VERTEX
  8
T11SSILL
 62
7
 10
907.282
 20
-1892.764
 30
4135.480
 70
    32
  0
SEQEND
  8
T11SSILL
  0
POLYLINE
  8
T11SSILL
 62
7
 66
     1
 70
     9
  0
VERTEX
  8
T11SSILL
 62
7
 10
859.619
 20
-2275.426
 30
4135.771
 70
    32
  0
VERTEX
  8
T11SSILL
 62
7
 10
856.915
 20
-2275.112
 30
4135.769
 70
    32
  0
VERTEX
  8
T11SSILL
 62
7
 10
844.494
 20
-2284.577
 30
4135.767
 70
    32
  0
VERTEX
  8
T11SSILL
 62
7
 10
840.650
 20
-2284.928
 30
4135.764
 70
    32
  0
VERTEX
  8
T11SSILL
 62
7
 10
838.993
 20
-2288.150
 30
4135.765
 70
    32
  0
VERTEX
  8
T11SSILL
 62
7
 10
847.797
 20
-2299.730
 30
4135.782
 70
    32
  0
VERTEX
  8
T11SSILL
 62
7
 10
865.799
 20
-2285.241
 30
4135.785
 70
    32
  0
SEQEND
  8
T11SSILL
  0
POLYLINE
  8
T11SSILL
 62
7
 66
     1
 70
     9
  0
VERTEX
  8
T11SSILL
 62
7
 10
647.723
 20
-2108.399
 30
4135.454
 70
    32
  0
VERTEX
  8
T11SSILL
 62
7
 10
650.843
 20
-2113.656
 30
4135.461
 70
    32
  0
VERTEX
  8
T11SSILL
 62
7
 10
646.697
 20
-2121.360
 30
4135.464
 70
    32
  0
VERTEX
  8
T11SSILL
 62
7
 10
638.424
 20
-2126.970
 30
4135.462
 70
    32
  0
VERTEX
  8
T11SSILL
 62
7
 10
629.459
 20
-2129.489
 30
4135.457
 70
    32
  0
VERTEX
  8
T11SSILL
 62
7
 10
623.199
 20
-2124.924
 30
4135.448
 70
    32
  0
VERTEX
  8
T11SSILL
 62
7
 10
618.022
 20
-2119.095
 30
4135.439
 70
    32
  0
VERTEX
  8
T11SSILL
 62
7
 10
616.547
 20
-2113.466
 30
4135.433
 70
    32
  0
VERTEX
  8
T11SSILL
 62
7
 10
616.817
 20
-2107.463
 30
4135.428
 70
    32
  0
VERTEX
  8
T11SSILL
 62
7
 10
622.639
 20
-2101.786
 30
4135.428
 70
    32
  0
VERTEX
  8
T11SSILL
 62
7
 10
628.610
 20
-2099.657
 30
4135.431
 70
    32
  0
VERTEX
  8
T11SSILL
 62
7
 10
636.204
 20
-2099.355
 30
4135.437
 70
    32
  0
VERTEX
  8
T11SSILL
 62
7
 10
642.804
 20
-2103.166
 30
4135.445
 70
    32
  0
SEQEND
  8
T11SSILL
  0
POLYLINE
  8
T11SSILL
 62
7
 66
     1
 70
     9
  0
VERTEX
  8
T11SSILL
 62
7
 10
861.019
 20
-1785.243
 30
4135.349
 70
    32
  0
VERTEX
  8
T11SSILL
 62
7
 10
862.308
 20
-1796.088
 30
4135.360
 70
    32
  0
VERTEX
  8
T11SSILL
 62
7
 10
825.146
 20
-1825.738
 30
4135.355
 70
    32
  0
VERTEX
  8
T11SSILL
 62
7
 10
819.589
 20
-1825.608
 30
4135.350
 70
    32
  0
VERTEX
  8
T11SSILL
 62
7
 10
815.900
 20
-1818.898
 30
4135.341
 70
    32
  0
VERTEX
  8
T11SSILL
 62
7
 10
811.035
 20
-1814.155
 30
4135.333
 70
    32
  0
VERTEX
  8
T11SSILL
 62
7
 10
808.579
 20
-1805.977
 30
4135.324
 70
    32
  0
VERTEX
  8
T11SSILL
 62
7
 10
851.476
 20
-1778.607
 30
4135.336
 70
    32
  0
SEQEND
  8
T11SSILL
  0
POLYLINE
  8
T11SSILL
 62
7
 66
     1
 70
     9
  0
VERTEX
  8
T11SSILL
 62
7
 10
839.516
 20
-1770.901
 30
4135.319
 70
    32
  0
VERTEX
  8
T11SSILL
 62
7
 10
803.228
 20
-1794.484
 30
4135.310
 70
    32
  0
VERTEX
  8
T11SSILL
 62
7
 10
804.128
 20
-1798.326
 30
4135.314
 70
    32
  0
VERTEX
  8
T11SSILL
 62
7
 10
845.459
 20
-1773.829
 30
4135.327
 70
    32
  0
VERTEX
  8
T11SSILL
 62
7
 10
843.584
 20
-1772.001
 30
4135.324
 70
    32
  0
SEQEND
  8
T11SSILL
  0
POLYLINE
  8
T11SSILL
 62
7
 66
     1
 70
     9
  0
VERTEX
  8
T11SSILL
 62
7
 10
793.809
 20
-1971.469
 30
4135.455
 70
    32
  0
VERTEX
  8
T11SSILL
 62
7
 10
805.723
 20
-1965.210
 30
4135.459
 70
    32
  0
VERTEX
  8
T11SSILL
 62
7
 10
808.069
 20
-1964.979
 30
4135.461
 70
    32
  0
VERTEX
  8
T11SSILL
 62
7
 10
811.044
 20
-1959.390
 30
4135.459
 70
    32
  0
VERTEX
  8
T11SSILL
 62
7
 10
829.766
 20
-1950.141
 30
4135.466
 70
    32
  0
VERTEX
  8
T11SSILL
 62
7
 10
852.956
 20
-1931.084
 30
4135.468
 70
    32
  0
VERTEX
  8
T11SSILL
 62
7
 10
850.186
 20
-1922.073
 30
4135.458
 70
    32
  0
VERTEX
  8
T11SSILL
 62
7
 10
798.524
 20
-1954.009
 30
4135.444
 70
    32
  0
VERTEX
  8
T11SSILL
 62
7
 10
795.302
 20
-1948.603
 30
4135.436
 70
    32
  0
VERTEX
  8
T11SSILL
 62
7
 10
848.724
 20
-1913.694
 30
4135.450
 70
    32
  0
VERTEX
  8
T11SSILL
 62
7
 10
843.427
 20
-1906.367
 30
4135.439
 70
    32
  0
VERTEX
  8
T11SSILL
 62
7
 10
779.862
 20
-1949.110
 30
4135.424
 70
    32
  0
SEQEND
  8
T11SSILL
  0
POLYLINE
  8
T11SSILL
 62
7
 66
     1
 70
     9
  0
VERTEX
  8
T11SSILL
 62
7
 10
622.268
 20
-1954.671
 30
4135.300
 70
    32
  0
VERTEX
  8
T11SSILL
 62
7
 10
654.917
 20
-1928.988
 30
4135.305
 70
    32
  0
VERTEX
  8
T11SSILL
 62
7
 10
646.922
 20
-1918.048
 30
4135.289
 70
    32
  0
VERTEX
  8
T11SSILL
 62
7
 10
606.095
 20
-1948.939
 30
4135.282
 70
    32
  0
SEQEND
  8
T11SSILL
  0
POLYLINE
  8
T11SSILL
 62
7
 66
     1
 70
     9
  0
VERTEX
  8
T11SSILL
 62
7
 10
899.787
 20
-1874.492
 30
4135.458
 70
    32
  0
VERTEX
  8
T11SSILL
 62
7
 10
896.163
 20
-1868.932
 30
4135.450
 70
    32
  0
VERTEX
  8
T11SSILL
 62
7
 10
918.341
 20
-1853.587
 30
4135.455
 70
    32
  0
VERTEX
  8
T11SSILL
 62
7
 10
922.382
 20
-1852.534
 30
4135.457
 70
    32
  0
VERTEX
  8
T11SSILL
 62
7
 10
927.723
 20
-1859.324
 30
4135.468
 70
    32
  0
VERTEX
  8
T11SSILL
 62
7
 10
904.087
 20
-1878.091
 30
4135.465
 70
    32
  0
SEQEND
  8
T11SSILL
  0
POLYLINE
  8
T11SSILL
 62
7
 66
     1
 70
     9
  0
VERTEX
  8
T11SSILL
 62
7
 10
985.689
 20
-1832.263
 30
4135.492
 70
    32
  0
VERTEX
  8
T11SSILL
 62
7
 10
982.926
 20
-1839.355
 30
4135.496
 70
    32
  0
VERTEX
  8
T11SSILL
 62
7
 10
986.249
 20
-1844.869
 30
4135.503
 70
    32
  0
VERTEX
  8
T11SSILL
 62
7
 10
972.820
 20
-1855.499
 30
4135.501
 70
    32
  0
VERTEX
  8
T11SSILL
 62
7
 10
965.008
 20
-1859.102
 30
4135.498
 70
    32
  0
VERTEX
  8
T11SSILL
 62
7
 10
962.112
 20
-1851.781
 30
4135.489
 70
    32
  0
VERTEX
  8
T11SSILL
 62
7
 10
964.018
 20
-1844.149
 30
4135.484
 70
    32
  0
VERTEX
  8
T11SSILL
 62
7
 10
984.856
 20
-1829.721
 30
4135.489
 70
    32
  0
SEQEND
  8
T11SSILL
  0
POLYLINE
  8
T11SSILL
 62
7
 66
     1
 70
     9
  0
VERTEX
  8
T11SSILL
 62
7
 10
974.988
 20
-1817.234
 30
4135.470
 70
    32
  0
VERTEX
  8
T11SSILL
 62
7
 10
977.731
 20
-1824.406
 30
4135.478
 70
    32
  0
VERTEX
  8
T11SSILL
 62
7
 10
975.222
 20
-1827.841
 30
4135.479
 70
    32
  0
VERTEX
  8
T11SSILL
 62
7
 10
960.909
 20
-1839.734
 30
4135.478
 70
    32
  0
VERTEX
  8
T11SSILL
 62
7
 10
957.779
 20
-1837.672
 30
4135.474
 70
    32
  0
VERTEX
  8
T11SSILL
 62
7
 10
951.997
 20
-1823.731
 30
4135.457
 70
    32
  0
VERTEX
  8
T11SSILL
 62
7
 10
966.791
 20
-1818.138
 30
4135.464
 70
    32
  0
VERTEX
  8
T11SSILL
 62
7
 10
972.086
 20
-1817.320
 30
4135.468
 70
    32
  0
SEQEND
  8
T11SSILL
  0
POLYLINE
  8
T11SSILL
 62
7
 66
     1
 70
     9
  0
VERTEX
  8
T11SSILL
 62
7
 10
932.280
 20
-1883.240
 30
4135.492
 70
    32
  0
VERTEX
  8
T11SSILL
 62
7
 10
917.244
 20
-1885.532
 30
4135.482
 70
    32
  0
VERTEX
  8
T11SSILL
 62
7
 10
912.713
 20
-1883.438
 30
4135.476
 70
    32
  0
VERTEX
  8
T11SSILL
 62
7
 10
911.607
 20
-1879.047
 30
4135.472
 70
    32
  0
VERTEX
  8
T11SSILL
 62
7
 10
929.024
 20
-1867.215
 30
4135.476
 70
    32
  0
SEQEND
  8
T11SSILL
  0
POLYLINE
  8
T11SSILL
 62
7
 66
     1
 70
     9
  0
VERTEX
  8
T11SSILL
 62
7
 10
831.412
 20
-1628.862
 30
4135.190
 70
    32
  0
VERTEX
  8
T11SSILL
 62
7
 10
828.116
 20
-1629.504
 30
4135.188
 70
    32
  0
VERTEX
  8
T11SSILL
 62
7
 10
826.940
 20
-1635.425
 30
4135.192
 70
    32
  0
VERTEX
  8
T11SSILL
 62
7
 10
852.659
 20
-1682.296
 30
4135.254
 70
    32
  0
VERTEX
  8
T11SSILL
 62
7
 10
885.997
 20
-1658.951
 30
4135.261
 70
    32
  0
VERTEX
  8
T11SSILL
 62
7
 10
884.804
 20
-1655.663
 30
4135.257
 70
    32
  0
SEQEND
  8
T11SSILL
  0
POLYLINE
  8
T11SSILL
 62
7
 66
     1
 70
     9
  0
VERTEX
  8
T11SSILL
 62
7
 10
392.650
 20
-949.487
 30
4135.828
 70
    32
  0
VERTEX
  8
T11SSILL
 62
7
 10
395.054
 20
-1004.841
 30
4135.707
 70
    32
  0
VERTEX
  8
T11SSILL
 62
7
 10
393.656
 20
-1010.648
 30
4135.696
 70
    32
  0
VERTEX
  8
T11SSILL
 62
7
 10
393.760
 20
-1020.937
 30
4135.674
 70
    32
  0
VERTEX
  8
T11SSILL
 62
7
 10
391.044
 20
-1027.449
 30
4135.662
 70
    32
  0
VERTEX
  8
T11SSILL
 62
7
 10
375.302
 20
-1027.385
 30
4135.675
 70
    32
  0
VERTEX
  8
T11SSILL
 62
7
 10
375.312
 20
-1034.245
 30
4135.660
 70
    32
  0
VERTEX
  8
T11SSILL
 62
7
 10
389.561
 20
-1035.015
 30
4135.647
 70
    32
  0
VERTEX
  8
T11SSILL
 62
7
 10
391.506
 20
-1041.783
 30
4135.631
 70
    32
  0
VERTEX
  8
T11SSILL
 62
7
 10
377.623
 20
-1049.896
 30
4135.625
 70
    32
  0
VERTEX
  8
T11SSILL
 62
7
 10
335.679
 20
-1014.840
 30
4135.733
 70
    32
  0
VERTEX
  8
T11SSILL
 62
7
 10
278.527
 20
-975.419
 30
4135.864
 70
    32
  0
VERTEX
  8
T11SSILL
 62
7
 10
385.986
 20
-858.355
 30
4136.028
 70
    32
  0
VERTEX
  8
T11SSILL
 62
7
 10
391.401
 20
-865.170
 30
4136.009
 70
    32
  0
SEQEND
  8
T11SSILL
  0
POLYLINE
  8
T11SSILL
 62
7
 66
     1
 70
     9
  0
VERTEX
  8
T11SSILL
 62
7
 10
971.293
 20
-1078.086
 30
4135.089
 70
    32
  0
VERTEX
  8
T11SSILL
 62
7
 10
978.849
 20
-1073.502
 30
4135.092
 70
    32
  0
VERTEX
  8
T11SSILL
 62
7
 10
1027.460
 20
-1058.916
 30
4135.082
 70
    32
  0
VERTEX
  8
T11SSILL
 62
7
 10
1075.269
 20
-1038.087
 30
4135.056
 70
    32
  0
VERTEX
  8
T11SSILL
 62
7
 10
1085.833
 20
-1045.018
 30
4135.035
 70
    32
  0
VERTEX
  8
T11SSILL
 62
7
 10
1095.193
 20
-1069.276
 30
4134.992
 70
    32
  0
VERTEX
  8
T11SSILL
 62
7
 10
1090.809
 20
-1078.077
 30
4134.985
 70
    32
  0
VERTEX
  8
T11SSILL
 62
7
 10
985.366
 20
-1136.460
 30
4134.952
 70
    32
  0
SEQEND
  8
T11SSILL
  0
POLYLINE
  8
T11SSILL
 62
7
 66
     1
 70
     9
  0
VERTEX
  8
T11SSILL
 62
7
 10
1376.005
 20
-2123.609
 30
4136.062
 70
    32
  0
VERTEX
  8
T11SSILL
 62
7
 10
1374.307
 20
-2113.724
 30
4136.052
 70
    32
  0
VERTEX
  8
T11SSILL
 62
7
 10
1379.129
 20
-2111.500
 30
4136.054
 70
    32
  0
VERTEX
  8
T11SSILL
 62
7
 10
1388.175
 20
-2110.616
 30
4136.061
 70
    32
  0
VERTEX
  8
T11SSILL
 62
7
 10
1392.399
 20
-2118.661
 30
4136.071
 70
    32
  0
VERTEX
  8
T11SSILL
 62
7
 10
1394.556
 20
-2125.786
 30
4136.079
 70
    32
  0
VERTEX
  8
T11SSILL
 62
7
 10
1386.388
 20
-2128.460
 30
4136.075
 70
    32
  0
VERTEX
  8
T11SSILL
 62
7
 10
1378.178
 20
-2128.381
 30
4136.068
 70
    32
  0
SEQEND
  8
T11SSILL
  0
POLYLINE
  8
T11SSILL
 62
7
 66
     1
 70
     9
  0
VERTEX
  8
T11SSILL
 62
7
 10
1415.103
 20
-2330.287
 30
4136.226
 70
    32
  0
VERTEX
  8
T11SSILL
 62
7
 10
1431.800
 20
-2325.535
 30
4136.240
 70
    32
  0
VERTEX
  8
T11SSILL
 62
7
 10
1430.611
 20
-2312.890
 30
4136.256
 70
    32
  0
VERTEX
  8
T11SSILL
 62
7
 10
1429.266
 20
-2309.907
 30
4136.260
 70
    32
  0
VERTEX
  8
T11SSILL
 62
7
 10
1410.363
 20
-2314.391
 30
4136.245
 70
    32
  0
VERTEX
  8
T11SSILL
 62
7
 10
1399.816
 20
-2315.298
 30
4136.239
 70
    32
  0
VERTEX
  8
T11SSILL
 62
7
 10
1401.488
 20
-2330.188
 30
4136.220
 70
    32
  0
SEQEND
  8
T11SSILL
  0
POLYLINE
  8
T11SSILL
 62
7
 66
     1
 70
     9
  0
VERTEX
  8
T11SSILL
 62
7
 10
1553.516
 20
-1848.154
 30
4135.923
 70
    32
  0
VERTEX
  8
T11SSILL
 62
7
 10
1505.473
 20
-1872.462
 30
4135.916
 70
    32
  0
VERTEX
  8
T11SSILL
 62
7
 10
1498.348
 20
-1873.182
 30
4135.912
 70
    32
  0
VERTEX
  8
T11SSILL
 62
7
 10
1468.284
 20
-1811.902
 30
4135.827
 70
    32
  0
VERTEX
  8
T11SSILL
 62
7
 10
1508.869
 20
-1768.453
 30
4135.808
 70
    32
  0
SEQEND
  8
T11SSILL
  0
POLYLINE
  8
T11SSILL
 62
7
 66
     1
 70
     9
  0
VERTEX
  8
T11SSILL
 62
7
 10
1201.818
 20
-1679.126
 30
4135.505
 70
    32
  0
VERTEX
  8
T11SSILL
 62
7
 10
1197.206
 20
-1706.262
 30
4135.531
 70
    32
  0
VERTEX
  8
T11SSILL
 62
7
 10
1214.010
 20
-1693.336
 30
4135.529
 70
    32
  0
SEQEND
  8
T11SSILL
  0
POLYLINE
  8
T11SSILL
 62
7
 66
     1
 70
     9
  0
VERTEX
  8
T11SSILL
 62
7
 10
1226.676
 20
-1698.052
 30
4135.542
 70
    32
  0
VERTEX
  8
T11SSILL
 62
7
 10
1226.389
 20
-1696.461
 30
4135.541
 70
    32
  0
VERTEX
  8
T11SSILL
 62
7
 10
1228.382
 20
-1696.956
 30
4135.542
 70
    32
  0
SEQEND
  8
T11SSILL
  0
POLYLINE
  8
T11SSILL
 62
7
 66
     1
 70
     9
  0
VERTEX
  8
T11SSILL
 62
7
 10
1847.801
 20
-358.134
 30
4136.119
 70
    32
  0
VERTEX
  8
T11SSILL
 62
7
 10
1843.921
 20
-331.477
 30
4136.045
 70
    32
  0
VERTEX
  8
T11SSILL
 62
7
 10
1845.816
 20
-323.921
 30
4136.024
 70
    32
  0
VERTEX
  8
T11SSILL
 62
7
 10
1868.526
 20
-294.587
 30
4135.944
 70
    32
  0
VERTEX
  8
T11SSILL
 62
7
 10
1877.116
 20
-292.201
 30
4135.938
 70
    32
  0
VERTEX
  8
T11SSILL
 62
7
 10
1888.211
 20
-284.494
 30
4135.917
 70
    32
  0
VERTEX
  8
T11SSILL
 62
7
 10
1902.547
 20
-280.051
 30
4135.906
 70
    32
  0
VERTEX
  8
T11SSILL
 62
7
 10
1920.579
 20
-277.257
 30
4135.899
 70
    32
  0
VERTEX
  8
T11SSILL
 62
7
 10
1926.279
 20
-278.952
 30
4135.904
 70
    32
  0
VERTEX
  8
T11SSILL
 62
7
 10
1926.537
 20
-290.251
 30
4135.935
 70
    32
  0
VERTEX
  8
T11SSILL
 62
7
 10
1923.139
 20
-297.697
 30
4135.955
 70
    32
  0
VERTEX
  8
T11SSILL
 62
7
 10
1899.421
 20
-321.306
 30
4136.019
 70
    32
  0
VERTEX
  8
T11SSILL
 62
7
 10
1867.519
 20
-356.595
 30
4136.115
 70
    32
  0
VERTEX
  8
T11SSILL
 62
7
 10
1856.717
 20
-356.740
 30
4136.115
 70
    32
  0
SEQEND
  8
T11SSILL
  0
POLYLINE
  8
T11SSILL
 62
7
 66
     1
 70
     9
  0
VERTEX
  8
T11SSILL
 62
7
 10
892.196
 20
-2345.076
 30
4135.858
 70
    32
  0
VERTEX
  8
T11SSILL
 62
7
 10
877.255
 20
-2349.275
 30
4135.849
 70
    32
  0
VERTEX
  8
T11SSILL
 62
7
 10
874.043
 20
-2348.318
 30
4135.846
 70
    32
  0
VERTEX
  8
T11SSILL
 62
7
 10
873.065
 20
-2346.232
 30
4135.843
 70
    32
  0
VERTEX
  8
T11SSILL
 62
7
 10
870.951
 20
-2345.160
 30
4135.840
 70
    32
  0
VERTEX
  8
T11SSILL
 62
7
 10
862.394
 20
-2348.274
 30
4135.836
 70
    32
  0
VERTEX
  8
T11SSILL
 62
7
 10
846.005
 20
-2341.345
 30
4135.817
 70
    32
  0
VERTEX
  8
T11SSILL
 62
7
 10
821.120
 20
-2327.182
 30
4135.784
 70
    32
  0
VERTEX
  8
T11SSILL
 62
7
 10
791.486
 20
-2342.876
 30
4135.774
 70
    32
  0
VERTEX
  8
T11SSILL
 62
7
 10
791.315
 20
-2348.727
 30
4135.778
 70
    32
  0
VERTEX
  8
T11SSILL
 62
7
 10
864.094
 20
-2404.240
 30
4135.872
 70
    32
  0
VERTEX
  8
T11SSILL
 62
7
 10
869.165
 20
-2405.872
 30
4135.872
 70
    32
  0
VERTEX
  8
T11SSILL
 62
7
 10
921.790
 20
-2367.525
 30
4135.901
 70
    32
  0
VERTEX
  8
T11SSILL
 62
7
 10
915.282
 20
-2359.313
 30
4135.889
 70
    32
  0
VERTEX
  8
T11SSILL
 62
7
 10
912.032
 20
-2351.808
 30
4135.880
 70
    32
  0
VERTEX
  8
T11SSILL
 62
7
 10
903.000
 20
-2349.280
 30
4135.870
 70
    32
  0
VERTEX
  8
T11SSILL
 62
7
 10
895.849
 20
-2345.377
 30
4135.861
 70
    32
  0
SEQEND
  8
T11SSILL
  0
POLYLINE
  8
T11SSILL
 62
7
 66
     1
 70
     9
  0
VERTEX
  8
T11SSILL
 62
7
 10
940.446
 20
-2338.380
 30
4135.891
 70
    32
  0
VERTEX
  8
T11SSILL
 62
7
 10
943.120
 20
-2336.495
 30
4135.892
 70
    32
  0
VERTEX
  8
T11SSILL
 62
7
 10
946.215
 20
-2336.104
 30
4135.894
 70
    32
  0
VERTEX
  8
T11SSILL
 62
7
 10
948.320
 20
-2332.826
 30
4135.893
 70
    32
  0
VERTEX
  8
T11SSILL
 62
7
 10
955.116
 20
-2343.833
 30
4135.908
 70
    32
  0
VERTEX
  8
T11SSILL
 62
7
 10
944.031
 20
-2352.230
 30
4135.906
 70
    32
  0
VERTEX
  8
T11SSILL
 62
7
 10
937.244
 20
-2341.873
 30
4135.892
 70
    32
  0
SEQEND
  8
T11SSILL
  0
POLYLINE
  8
T11SSILL
 62
7
 66
     1
 70
     9
  0
VERTEX
  8
T11SSILL
 62
7
 10
1410.136
 20
-2380.110
 30
4136.157
 70
    32
  0
VERTEX
  8
T11SSILL
 62
7
 10
1411.450
 20
-2384.345
 30
4136.152
 70
    32
  0
VERTEX
  8
T11SSILL
 62
7
 10
1410.096
 20
-2390.922
 30
4136.142
 70
    32
  0
VERTEX
  8
T11SSILL
 62
7
 10
1402.427
 20
-2396.941
 30
4136.131
 70
    32
  0
VERTEX
  8
T11SSILL
 62
7
 10
1349.495
 20
-2347.675
 30
4136.172
 70
    32
  0
VERTEX
  8
T11SSILL
 62
7
 10
1394.733
 20
-2340.398
 30
4136.203
 70
    32
  0
VERTEX
  8
T11SSILL
 62
7
 10
1397.607
 20
-2365.531
 30
4136.170
 70
    32
  0
SEQEND
  8
T11SSILL
  0
POLYLINE
  8
T11SSILL
 62
7
 66
     1
 70
     9
  0
VERTEX
  8
T11SSILL
 62
7
 10
1111.391
 20
-2459.965
 30
4135.912
 70
    32
  0
VERTEX
  8
T11SSILL
 62
7
 10
1087.781
 20
-2447.684
 30
4135.917
 70
    32
  0
VERTEX
  8
T11SSILL
 62
7
 10
1087.746
 20
-2445.035
 30
4135.921
 70
    32
  0
VERTEX
  8
T11SSILL
 62
7
 10
1098.381
 20
-2436.644
 30
4135.937
 70
    32
  0
VERTEX
  8
T11SSILL
 62
7
 10
1108.466
 20
-2431.910
 30
4135.948
 70
    32
  0
VERTEX
  8
T11SSILL
 62
7
 10
1112.164
 20
-2431.811
 30
4135.950
 70
    32
  0
VERTEX
  8
T11SSILL
 62
7
 10
1123.347
 20
-2438.210
 30
4135.946
 70
    32
  0
VERTEX
  8
T11SSILL
 62
7
 10
1124.586
 20
-2441.092
 30
4135.943
 70
    32
  0
VERTEX
  8
T11SSILL
 62
7
 10
1114.475
 20
-2458.824
 30
4135.915
 70
    32
  0
SEQEND
  8
T11SSILL
  0
POLYLINE
  8
T11SSILL
 62
7
 66
     1
 70
     9
  0
VERTEX
  8
T11SSILL
 62
7
 10
958.713
 20
-2474.258
 30
4135.822
 70
    32
  0
VERTEX
  8
T11SSILL
 62
7
 10
958.913
 20
-2478.005
 30
4135.817
 70
    32
  0
VERTEX
  8
T11SSILL
 62
7
 10
962.944
 20
-2480.350
 30
4135.816
 70
    32
  0
VERTEX
  8
T11SSILL
 62
7
 10
967.554
 20
-2481.189
 30
4135.817
 70
    32
  0
VERTEX
  8
T11SSILL
 62
7
 10
967.626
 20
-2471.589
 30
4135.830
 70
    32
  0
VERTEX
  8
T11SSILL
 62
7
 10
965.793
 20
-2469.115
 30
4135.832
 70
    32
  0
SEQEND
  8
T11SSILL
  0
POLYLINE
  8
T11SSILL
 62
7
 66
     1
 70
     9
  0
VERTEX
  8
T11SSILL
 62
7
 10
948.956
 20
-2357.862
 30
4135.915
 70
    32
  0
VERTEX
  8
T11SSILL
 62
7
 10
959.232
 20
-2348.777
 30
4135.916
 70
    32
  0
VERTEX
  8
T11SSILL
 62
7
 10
967.515
 20
-2358.814
 30
4135.931
 70
    32
  0
VERTEX
  8
T11SSILL
 62
7
 10
957.218
 20
-2366.400
 30
4135.929
 70
    32
  0
VERTEX
  8
T11SSILL
 62
7
 10
955.111
 20
-2365.828
 30
4135.927
 70
    32
  0
SEQEND
  8
T11SSILL
  0
POLYLINE
  8
T11SSILL
 62
7
 66
     1
 70
     9
  0
VERTEX
  8
T11SSILL
 62
7
 10
1777.721
 20
-2814.665
 30
4136.354
 70
    32
  0
VERTEX
  8
T11SSILL
 62
7
 10
1776.254
 20
-2818.246
 30
4136.365
 70
    32
  0
VERTEX
  8
T11SSILL
 62
7
 10
1763.445
 20
-2823.316
 30
4136.376
 70
    32
  0
VERTEX
  8
T11SSILL
 62
7
 10
1739.106
 20
-2812.230
 30
4136.329
 70
    32
  0
VERTEX
  8
T11SSILL
 62
7
 10
1734.358
 20
-2818.142
 30
4136.346
 70
    32
  0
VERTEX
  8
T11SSILL
 62
7
 10
1763.354
 20
-2830.924
 30
4136.400
 70
    32
  0
VERTEX
  8
T11SSILL
 62
7
 10
1767.663
 20
-2835.425
 30
4136.417
 70
    32
  0
VERTEX
  8
T11SSILL
 62
7
 10
1767.070
 20
-2842.233
 30
4136.439
 70
    32
  0
VERTEX
  8
T11SSILL
 62
7
 10
1757.621
 20
-2852.054
 30
4136.467
 70
    32
  0
VERTEX
  8
T11SSILL
 62
7
 10
1751.513
 20
-2851.410
 30
4136.462
 70
    32
  0
VERTEX
  8
T11SSILL
 62
7
 10
1739.092
 20
-2844.866
 30
4136.435
 70
    32
  0
VERTEX
  8
T11SSILL
 62
7
 10
1721.321
 20
-2842.934
 30
4136.421
 70
    32
  0
VERTEX
  8
T11SSILL
 62
7
 10
1712.857
 20
-2838.688
 30
4136.404
 70
    32
  0
VERTEX
  8
T11SSILL
 62
7
 10
1707.344
 20
-2832.438
 30
4136.381
 70
    32
  0
VERTEX
  8
T11SSILL
 62
7
 10
1696.599
 20
-2802.717
 30
4136.280
 70
    32
  0
VERTEX
  8
T11SSILL
 62
7
 10
1705.001
 20
-2796.200
 30
4136.262
 70
    32
  0
VERTEX
  8
T11SSILL
 62
7
 10
1695.284
 20
-2790.054
 30
4136.238
 70
    32
  0
VERTEX
  8
T11SSILL
 62
7
 10
1689.971
 20
-2784.053
 30
4136.216
 70
    32
  0
VERTEX
  8
T11SSILL
 62
7
 10
1678.106
 20
-2781.514
 30
4136.203
 70
    32
  0
VERTEX
  8
T11SSILL
 62
7
 10
1668.796
 20
-2781.974
 30
4136.200
 70
    32
  0
VERTEX
  8
T11SSILL
 62
7
 10
1651.908
 20
-2764.674
 30
4136.136
 70
    32
  0
VERTEX
  8
T11SSILL
 62
7
 10
1642.543
 20
-2760.630
 30
4136.119
 70
    32
  0
VERTEX
  8
T11SSILL
 62
7
 10
1630.192
 20
-2725.805
 30
4136.000
 70
    32
  0
VERTEX
  8
T11SSILL
 62
7
 10
1624.480
 20
-2721.407
 30
4135.983
 70
    32
  0
VERTEX
  8
T11SSILL
 62
7
 10
1617.319
 20
-2718.411
 30
4135.971
 70
    32
  0
VERTEX
  8
T11SSILL
 62
7
 10
1593.665
 20
-2692.509
 30
4135.876
 70
    32
  0
VERTEX
  8
T11SSILL
 62
7
 10
1592.258
 20
-2687.805
 30
4135.860
 70
    32
  0
VERTEX
  8
T11SSILL
 62
7
 10
1638.405
 20
-2639.151
 30
4135.915
 70
    32
  0
VERTEX
  8
T11SSILL
 62
7
 10
1760.367
 20
-2752.857
 30
4136.144
 70
    32
  0
VERTEX
  8
T11SSILL
 62
7
 10
1776.972
 20
-2769.609
 30
4136.206
 70
    32
  0
VERTEX
  8
T11SSILL
 62
7
 10
1782.819
 20
-2783.904
 30
4136.255
 70
    32
  0
VERTEX
  8
T11SSILL
 62
7
 10
1782.322
 20
-2797.462
 30
4136.299
 70
    32
  0
SEQEND
  8
T11SSILL
  0
POLYLINE
  8
T11SSILL
 62
7
 66
     1
 70
     9
  0
VERTEX
  8
T11SSILL
 62
7
 10
1753.782
 20
-2911.974
 30
4136.661
 70
    32
  0
VERTEX
  8
T11SSILL
 62
7
 10
1744.111
 20
-2902.074
 30
4136.624
 70
    32
  0
VERTEX
  8
T11SSILL
 62
7
 10
1730.166
 20
-2920.309
 30
4136.678
 70
    32
  0
VERTEX
  8
T11SSILL
 62
7
 10
1724.973
 20
-2931.928
 30
4136.713
 70
    32
  0
VERTEX
  8
T11SSILL
 62
7
 10
1743.226
 20
-2962.391
 30
4136.821
 70
    32
  0
VERTEX
  8
T11SSILL
 62
7
 10
1788.598
 20
-2936.813
 30
4136.757
 70
    32
  0
VERTEX
  8
T11SSILL
 62
7
 10
1782.635
 20
-2931.314
 30
4136.736
 70
    32
  0
VERTEX
  8
T11SSILL
 62
7
 10
1772.467
 20
-2925.018
 30
4136.711
 70
    32
  0
VERTEX
  8
T11SSILL
 62
7
 10
1761.201
 20
-2921.376
 30
4136.694
 70
    32
  0
SEQEND
  8
T11SSILL
  0
POLYLINE
  8
T11SSILL
 62
7
 66
     1
 70
     9
  0
VERTEX
  8
T11SSILL
 62
7
 10
1635.503
 20
-2821.354
 30
4136.314
 70
    32
  0
VERTEX
  8
T11SSILL
 62
7
 10
1635.207
 20
-2825.810
 30
4136.329
 70
    32
  0
VERTEX
  8
T11SSILL
 62
7
 10
1631.458
 20
-2830.719
 30
4136.343
 70
    32
  0
VERTEX
  8
T11SSILL
 62
7
 10
1623.246
 20
-2828.025
 30
4136.331
 70
    32
  0
VERTEX
  8
T11SSILL
 62
7
 10
1606.104
 20
-2806.270
 30
4136.252
 70
    32
  0
VERTEX
  8
T11SSILL
 62
7
 10
1606.646
 20
-2799.162
 30
4136.229
 70
    32
  0
VERTEX
  8
T11SSILL
 62
7
 10
1613.848
 20
-2793.147
 30
4136.213
 70
    32
  0
VERTEX
  8
T11SSILL
 62
7
 10
1621.161
 20
-2797.544
 30
4136.230
 70
    32
  0
SEQEND
  8
T11SSILL
  0
POLYLINE
  8
T11SSILL
 62
7
 66
     1
 70
     9
  0
VERTEX
  8
T11SSILL
 62
7
 10
1611.641
 20
-2788.845
 30
4136.198
 70
    32
  0
VERTEX
  8
T11SSILL
 62
7
 10
1603.661
 20
-2769.532
 30
4136.131
 70
    32
  0
VERTEX
  8
T11SSILL
 62
7
 10
1599.851
 20
-2764.381
 30
4136.113
 70
    32
  0
VERTEX
  8
T11SSILL
 62
7
 10
1590.195
 20
-2768.897
 30
4136.124
 70
    32
  0
VERTEX
  8
T11SSILL
 62
7
 10
1589.749
 20
-2772.751
 30
4136.136
 70
    32
  0
VERTEX
  8
T11SSILL
 62
7
 10
1595.267
 20
-2783.607
 30
4136.174
 70
    32
  0
VERTEX
  8
T11SSILL
 62
7
 10
1599.879
 20
-2790.309
 30
4136.198
 70
    32
  0
VERTEX
  8
T11SSILL
 62
7
 10
1604.637
 20
-2792.657
 30
4136.207
 70
    32
  0
SEQEND
  8
T11SSILL
  0
POLYLINE
  8
T11SSILL
 62
7
 66
     1
 70
     9
  0
VERTEX
  8
T11SSILL
 62
7
 10
1562.319
 20
-2681.932
 30
4135.828
 70
    32
  0
VERTEX
  8
T11SSILL
 62
7
 10
1565.968
 20
-2677.222
 30
4135.831
 70
    32
  0
VERTEX
  8
T11SSILL
 62
7
 10
1565.563
 20
-2673.519
 30
4135.836
 70
    32
  0
VERTEX
  8
T11SSILL
 62
7
 10
1557.351
 20
-2670.825
 30
4135.835
 70
    32
  0
VERTEX
  8
T11SSILL
 62
7
 10
1545.191
 20
-2673.842
 30
4135.826
 70
    32
  0
VERTEX
  8
T11SSILL
 62
7
 10
1547.346
 20
-2676.692
 30
4135.823
 70
    32
  0
VERTEX
  8
T11SSILL
 62
7
 10
1559.088
 20
-2680.801
 30
4135.823
 70
    32
  0
SEQEND
  8
T11SSILL
  0
POLYLINE
  8
T11SSILL
 62
7
 66
     1
 70
     9
  0
VERTEX
  8
T11SSILL
 62
7
 10
1214.822
 20
-1785.118
 30
4135.627
 70
    32
  0
VERTEX
  8
T11SSILL
 62
7
 10
1213.531
 20
-1770.119
 30
4135.610
 70
    32
  0
VERTEX
  8
T11SSILL
 62
7
 10
1210.192
 20
-1755.447
 30
4135.592
 70
    32
  0
VERTEX
  8
T11SSILL
 62
7
 10
1209.238
 20
-1738.885
 30
4135.574
 70
    32
  0
VERTEX
  8
T11SSILL
 62
7
 10
1213.357
 20
-1729.557
 30
4135.567
 70
    32
  0
VERTEX
  8
T11SSILL
 62
7
 10
1218.946
 20
-1704.132
 30
4135.544
 70
    32
  0
VERTEX
  8
T11SSILL
 62
7
 10
1216.742
 20
-1700.354
 30
4135.538
 70
    32
  0
VERTEX
  8
T11SSILL
 62
7
 10
1080.752
 20
-1796.600
 30
4135.539
 70
    32
  0
VERTEX
  8
T11SSILL
 62
7
 10
1079.372
 20
-1803.800
 30
4135.544
 70
    32
  0
VERTEX
  8
T11SSILL
 62
7
 10
1070.989
 20
-1805.808
 30
4135.539
 70
    32
  0
VERTEX
  8
T11SSILL
 62
7
 10
1044.342
 20
-1823.963
 30
4135.532
 70
    32
  0
VERTEX
  8
T11SSILL
 62
7
 10
1045.716
 20
-1829.701
 30
4135.539
 70
    32
  0
VERTEX
  8
T11SSILL
 62
7
 10
1069.434
 20
-1852.925
 30
4135.578
 70
    32
  0
VERTEX
  8
T11SSILL
 62
7
 10
1076.470
 20
-1863.146
 30
4135.593
 70
    32
  0
VERTEX
  8
T11SSILL
 62
7
 10
1096.351
 20
-1875.857
 30
4135.620
 70
    32
  0
VERTEX
  8
T11SSILL
 62
7
 10
1105.860
 20
-1883.745
 30
4135.634
 70
    32
  0
VERTEX
  8
T11SSILL
 62
7
 10
1112.064
 20
-1891.474
 30
4135.646
 70
    32
  0
VERTEX
  8
T11SSILL
 62
7
 10
1132.054
 20
-1927.645
 30
4135.694
 70
    32
  0
VERTEX
  8
T11SSILL
 62
7
 10
1135.808
 20
-1931.694
 30
4135.700
 70
    32
  0
VERTEX
  8
T11SSILL
 62
7
 10
1140.037
 20
-1933.937
 30
4135.706
 70
    32
  0
VERTEX
  8
T11SSILL
 62
7
 10
1214.222
 20
-1882.312
 30
4135.722
 70
    32
  0
VERTEX
  8
T11SSILL
 62
7
 10
1219.202
 20
-1877.233
 30
4135.721
 70
    32
  0
VERTEX
  8
T11SSILL
 62
7
 10
1232.128
 20
-1867.982
 30
4135.724
 70
    32
  0
VERTEX
  8
T11SSILL
 62
7
 10
1241.236
 20
-1864.494
 30
4135.728
 70
    32
  0
VERTEX
  8
T11SSILL
 62
7
 10
1242.555
 20
-1861.530
 30
4135.727
 70
    32
  0
VERTEX
  8
T11SSILL
 62
7
 10
1239.279
 20
-1850.974
 30
4135.713
 70
    32
  0
VERTEX
  8
T11SSILL
 62
7
 10
1235.302
 20
-1829.403
 30
4135.688
 70
    32
  0
VERTEX
  8
T11SSILL
 62
7
 10
1235.872
 20
-1811.177
 30
4135.669
 70
    32
  0
VERTEX
  8
T11SSILL
 62
7
 10
1217.925
 20
-1793.086
 30
4135.637
 70
    32
  0
SEQEND
  8
T11SSILL
  0
POLYLINE
  8
T11SSILL
 62
7
 66
     1
 70
     9
  0
VERTEX
  8
T11SSILL
 62
7
 10
1263.773
 20
-1906.002
 30
4135.783
 70
    32
  0
VERTEX
  8
T11SSILL
 62
7
 10
1276.084
 20
-1919.483
 30
4135.804
 70
    32
  0
VERTEX
  8
T11SSILL
 62
7
 10
1288.421
 20
-1910.992
 30
4135.807
 70
    32
  0
VERTEX
  8
T11SSILL
 62
7
 10
1354.513
 20
-1926.229
 30
4135.871
 70
    32
  0
VERTEX
  8
T11SSILL
 62
7
 10
1214.951
 20
-2080.149
 30
4135.893
 70
    32
  0
VERTEX
  8
T11SSILL
 62
7
 10
1157.135
 20
-2146.715
 30
4135.903
 70
    32
  0
VERTEX
  8
T11SSILL
 62
7
 10
1155.255
 20
-2144.491
 30
4135.900
 70
    32
  0
VERTEX
  8
T11SSILL
 62
7
 10
1159.926
 20
-1970.763
 30
4135.754
 70
    32
  0
VERTEX
  8
T11SSILL
 62
7
 10
1145.246
 20
-1949.614
 30
4135.723
 70
    32
  0
VERTEX
  8
T11SSILL
 62
7
 10
1147.496
 20
-1938.486
 30
4135.716
 70
    32
  0
VERTEX
  8
T11SSILL
 62
7
 10
1183.886
 20
-1912.153
 30
4135.723
 70
    32
  0
VERTEX
  8
T11SSILL
 62
7
 10
1202.727
 20
-1967.740
 30
4135.786
 70
    32
  0
VERTEX
  8
T11SSILL
 62
7
 10
1209.507
 20
-1966.299
 30
4135.790
 70
    32
  0
VERTEX
  8
T11SSILL
 62
7
 10
1191.065
 20
-1906.958
 30
4135.724
 70
    32
  0
VERTEX
  8
T11SSILL
 62
7
 10
1215.032
 20
-1893.011
 30
4135.732
 70
    32
  0
VERTEX
  8
T11SSILL
 62
7
 10
1221.906
 20
-1884.050
 30
4135.729
 70
    32
  0
VERTEX
  8
T11SSILL
 62
7
 10
1229.504
 20
-1880.033
 30
4135.732
 70
    32
  0
VERTEX
  8
T11SSILL
 62
7
 10
1240.245
 20
-1871.916
 30
4135.734
 70
    32
  0
VERTEX
  8
T11SSILL
 62
7
 10
1246.568
 20
-1869.721
 30
4135.737
 70
    32
  0
VERTEX
  8
T11SSILL
 62
7
 10
1252.238
 20
-1887.554
 30
4135.757
 70
    32
  0
SEQEND
  8
T11SSILL
  0
POLYLINE
  8
T11SSILL
 62
7
 66
     1
 70
     9
  0
VERTEX
  8
T11SSILL
 62
7
 10
984.479
 20
-1585.770
 30
4135.259
 70
    32
  0
VERTEX
  8
T11SSILL
 62
7
 10
893.382
 20
-1651.781
 30
4135.261
 70
    32
  0
VERTEX
  8
T11SSILL
 62
7
 10
826.847
 20
-1620.224
 30
4135.179
 70
    32
  0
VERTEX
  8
T11SSILL
 62
7
 10
825.348
 20
-1617.676
 30
4135.175
 70
    32
  0
VERTEX
  8
T11SSILL
 62
7
 10
870.238
 20
-1528.255
 30
4135.121
 70
    32
  0
VERTEX
  8
T11SSILL
 62
7
 10
1038.181
 20
-1508.208
 30
4135.213
 70
    32
  0
VERTEX
  8
T11SSILL
 62
7
 10
1194.714
 20
-1673.829
 30
4135.495
 70
    32
  0
VERTEX
  8
T11SSILL
 62
7
 10
1188.527
 20
-1710.335
 30
4135.530
 70
    32
  0
VERTEX
  8
T11SSILL
 62
7
 10
1148.469
 20
-1739.243
 30
4135.533
 70
    32
  0
VERTEX
  8
T11SSILL
 62
7
 10
1078.258
 20
-1719.301
 30
4135.465
 70
    32
  0
VERTEX
  8
T11SSILL
 62
7
 10
1076.334
 20
-1725.811
 30
4135.470
 70
    32
  0
VERTEX
  8
T11SSILL
 62
7
 10
1140.739
 20
-1745.235
 30
4135.534
 70
    32
  0
VERTEX
  8
T11SSILL
 62
7
 10
1077.489
 20
-1790.185
 30
4135.530
 70
    32
  0
VERTEX
  8
T11SSILL
 62
7
 10
1072.293
 20
-1786.060
 30
4135.523
 70
    32
  0
VERTEX
  8
T11SSILL
 62
7
 10
1069.863
 20
-1750.182
 30
4135.490
 70
    32
  0
VERTEX
  8
T11SSILL
 62
7
 10
1059.838
 20
-1693.297
 30
4135.424
 70
    32
  0
VERTEX
  8
T11SSILL
 62
7
 10
1065.450
 20
-1682.735
 30
4135.417
 70
    32
  0
VERTEX
  8
T11SSILL
 62
7
 10
1052.928
 20
-1660.769
 30
4135.385
 70
    32
  0
VERTEX
  8
T11SSILL
 62
7
 10
1048.953
 20
-1649.870
 30
4135.371
 70
    32
  0
VERTEX
  8
T11SSILL
 62
7
 10
1049.537
 20
-1629.290
 30
4135.349
 70
    32
  0
VERTEX
  8
T11SSILL
 62
7
 10
1053.393
 20
-1620.665
 30
4135.343
 70
    32
  0
VERTEX
  8
T11SSILL
 62
7
 10
1053.557
 20
-1612.574
 30
4135.334
 70
    32
  0
VERTEX
  8
T11SSILL
 62
7
 10
1044.924
 20
-1603.529
 30
4135.319
 70
    32
  0
VERTEX
  8
T11SSILL
 62
7
 10
1045.256
 20
-1590.953
 30
4135.306
 70
    32
  0
VERTEX
  8
T11SSILL
 62
7
 10
1040.851
 20
-1585.859
 30
4135.297
 70
    32
  0
VERTEX
  8
T11SSILL
 62
7
 10
1038.890
 20
-1568.800
 30
4135.278
 70
    32
  0
VERTEX
  8
T11SSILL
 62
7
 10
1029.551
 20
-1557.734
 30
4135.260
 70
    32
  0
VERTEX
  8
T11SSILL
 62
7
 10
1023.916
 20
-1553.785
 30
4135.252
 70
    32
  0
VERTEX
  8
T11SSILL
 62
7
 10
1009.594
 20
-1561.810
 30
4135.251
 70
    32
  0
VERTEX
  8
T11SSILL
 62
7
 10
998.538
 20
-1578.449
 30
4135.261
 70
    32
  0
VERTEX
  8
T11SSILL
 62
7
 10
987.641
 20
-1583.303
 30
4135.259
 70
    32
  0
VERTEX
  8
T11SSILL
 62
7
 10
982.371
 20
-1587.884
 30
4135.260
 70
    32
  0
SEQEND
  8
T11SSILL
  0
POLYLINE
  8
T11SSILL
 62
7
 66
     1
 70
     9
  0
VERTEX
  8
T11SSILL
 62
7
 10
578.006
 20
-1990.407
 30
4135.295
 70
    32
  0
VERTEX
  8
T11SSILL
 62
7
 10
573.508
 20
-1983.068
 30
4135.285
 70
    32
  0
VERTEX
  8
T11SSILL
 62
7
 10
572.296
 20
-1978.386
 30
4135.280
 70
    32
  0
VERTEX
  8
T11SSILL
 62
7
 10
572.779
 20
-1973.430
 30
4135.276
 70
    32
  0
VERTEX
  8
T11SSILL
 62
7
 10
599.057
 20
-1953.482
 30
4135.280
 70
    32
  0
VERTEX
  8
T11SSILL
 62
7
 10
623.746
 20
-1960.500
 30
4135.307
 70
    32
  0
VERTEX
  8
T11SSILL
 62
7
 10
659.610
 20
-1932.225
 30
4135.311
 70
    32
  0
VERTEX
  8
T11SSILL
 62
7
 10
664.110
 20
-1939.763
 30
4135.322
 70
    32
  0
VERTEX
  8
T11SSILL
 62
7
 10
581.782
 20
-1999.854
 30
4135.306
 70
    32
  0
VERTEX
  8
T11SSILL
 62
7
 10
577.461
 20
-1994.513
 30
4135.298
 70
    32
  0
SEQEND
  8
T11SSILL
  0
POLYLINE
  8
T11SSILL
 62
7
 66
     1
 70
     9
  0
VERTEX
  8
T11SSILL
 62
7
 10
592.858
 20
-2065.443
 30
4135.372
 70
    32
  0
VERTEX
  8
T11SSILL
 62
7
 10
588.581
 20
-2059.601
 30
4135.363
 70
    32
  0
VERTEX
  8
T11SSILL
 62
7
 10
588.137
 20
-2048.859
 30
4135.354
 70
    32
  0
VERTEX
  8
T11SSILL
 62
7
 10
576.503
 20
-2023.770
 30
4135.323
 70
    32
  0
VERTEX
  8
T11SSILL
 62
7
 10
567.155
 20
-2012.548
 30
4135.305
 70
    32
  0
VERTEX
  8
T11SSILL
 62
7
 10
565.298
 20
-2004.574
 30
4135.297
 70
    32
  0
VERTEX
  8
T11SSILL
 62
7
 10
554.251
 20
-1989.725
 30
4135.275
 70
    32
  0
VERTEX
  8
T11SSILL
 62
7
 10
547.153
 20
-1989.770
 30
4135.269
 70
    32
  0
VERTEX
  8
T11SSILL
 62
7
 10
531.787
 20
-1995.775
 30
4135.262
 70
    32
  0
VERTEX
  8
T11SSILL
 62
7
 10
529.763
 20
-1997.652
 30
4135.262
 70
    32
  0
VERTEX
  8
T11SSILL
 62
7
 10
528.151
 20
-2004.222
 30
4135.266
 70
    32
  0
VERTEX
  8
T11SSILL
 62
7
 10
567.117
 20
-2084.384
 30
4135.367
 70
    32
  0
VERTEX
  8
T11SSILL
 62
7
 10
571.822
 20
-2084.771
 30
4135.371
 70
    32
  0
VERTEX
  8
T11SSILL
 62
7
 10
593.553
 20
-2068.783
 30
4135.375
 70
    32
  0
SEQEND
  8
T11SSILL
  0
POLYLINE
  8
T11SSILL
 62
7
 66
     1
 70
     9
  0
VERTEX
  8
T11SSILL
 62
7
 10
480.894
 20
-1462.723
 30
4134.760
 70
    32
  0
VERTEX
  8
T11SSILL
 62
7
 10
480.028
 20
-1471.519
 30
4134.767
 70
    32
  0
VERTEX
  8
T11SSILL
 62
7
 10
490.611
 20
-1491.027
 30
4134.793
 70
    32
  0
VERTEX
  8
T11SSILL
 62
7
 10
492.212
 20
-1521.345
 30
4134.820
 70
    32
  0
VERTEX
  8
T11SSILL
 62
7
 10
494.042
 20
-1523.574
 30
4134.824
 70
    32
  0
VERTEX
  8
T11SSILL
 62
7
 10
502.552
 20
-1527.620
 30
4134.834
 70
    32
  0
VERTEX
  8
T11SSILL
 62
7
 10
505.081
 20
-1541.552
 30
4134.848
 70
    32
  0
VERTEX
  8
T11SSILL
 62
7
 10
510.190
 20
-1553.750
 30
4134.863
 70
    32
  0
VERTEX
  8
T11SSILL
 62
7
 10
509.770
 20
-1560.061
 30
4134.868
 70
    32
  0
VERTEX
  8
T11SSILL
 62
7
 10
517.523
 20
-1559.713
 30
4134.874
 70
    32
  0
VERTEX
  8
T11SSILL
 62
7
 10
522.110
 20
-1562.308
 30
4134.880
 70
    32
  0
VERTEX
  8
T11SSILL
 62
7
 10
527.001
 20
-1569.103
 30
4134.890
 70
    32
  0
VERTEX
  8
T11SSILL
 62
7
 10
529.912
 20
-1569.716
 30
4134.893
 70
    32
  0
VERTEX
  8
T11SSILL
 62
7
 10
526.762
 20
-1526.513
 30
4134.853
 70
    32
  0
VERTEX
  8
T11SSILL
 62
7
 10
520.012
 20
-1523.045
 30
4134.844
 70
    32
  0
VERTEX
  8
T11SSILL
 62
7
 10
594.977
 20
-1418.663
 30
4134.815
 70
    32
  0
VERTEX
  8
T11SSILL
 62
7
 10
605.856
 20
-1401.848
 30
4134.807
 70
    32
  0
VERTEX
  8
T11SSILL
 62
7
 10
602.759
 20
-1389.189
 30
4134.792
 70
    32
  0
VERTEX
  8
T11SSILL
 62
7
 10
605.298
 20
-1381.886
 30
4134.786
 70
    32
  0
VERTEX
  8
T11SSILL
 62
7
 10
604.324
 20
-1377.666
 30
4134.781
 70
    32
  0
VERTEX
  8
T11SSILL
 62
7
 10
502.684
 20
-1449.938
 30
4134.767
 70
    32
  0
VERTEX
  8
T11SSILL
 62
7
 10
484.494
 20
-1459.552
 30
4134.760
 70
    32
  0
SEQEND
  8
T11SSILL
  0
POLYLINE
  8
T11SSILL
 62
7
 66
     1
 70
     9
  0
VERTEX
  8
T11SSILL
 62
7
 10
596.962
 20
-1430.028
 30
4134.827
 70
    32
  0
VERTEX
  8
T11SSILL
 62
7
 10
532.761
 20
-1518.029
 30
4134.850
 70
    32
  0
VERTEX
  8
T11SSILL
 62
7
 10
538.664
 20
-1581.017
 30
4134.910
 70
    32
  0
VERTEX
  8
T11SSILL
 62
7
 10
529.717
 20
-1582.031
 30
4134.903
 70
    32
  0
VERTEX
  8
T11SSILL
 62
7
 10
520.762
 20
-1594.207
 30
4134.906
 70
    32
  0
VERTEX
  8
T11SSILL
 62
7
 10
533.795
 20
-1619.467
 30
4134.939
 70
    32
  0
VERTEX
  8
T11SSILL
 62
7
 10
548.612
 20
-1639.399
 30
4134.968
 70
    32
  0
VERTEX
  8
T11SSILL
 62
7
 10
549.987
 20
-1645.188
 30
4134.974
 70
    32
  0
VERTEX
  8
T11SSILL
 62
7
 10
564.978
 20
-1671.024
 30
4135.009
 70
    32
  0
VERTEX
  8
T11SSILL
 62
7
 10
557.662
 20
-1674.220
 30
4135.005
 70
    32
  0
VERTEX
  8
T11SSILL
 62
7
 10
579.096
 20
-1738.463
 30
4135.078
 70
    32
  0
VERTEX
  8
T11SSILL
 62
7
 10
591.019
 20
-1778.903
 30
4135.123
 70
    32
  0
VERTEX
  8
T11SSILL
 62
7
 10
594.143
 20
-1780.515
 30
4135.127
 70
    32
  0
VERTEX
  8
T11SSILL
 62
7
 10
810.897
 20
-1625.368
 30
4135.170
 70
    32
  0
VERTEX
  8
T11SSILL
 62
7
 10
811.661
 20
-1622.455
 30
4135.168
 70
    32
  0
VERTEX
  8
T11SSILL
 62
7
 10
810.661
 20
-1617.523
 30
4135.163
 70
    32
  0
VERTEX
  8
T11SSILL
 62
7
 10
694.396
 20
-1388.695
 30
4134.853
 70
    32
  0
VERTEX
  8
T11SSILL
 62
7
 10
635.311
 20
-1397.493
 30
4134.823
 70
    32
  0
VERTEX
  8
T11SSILL
 62
7
 10
634.788
 20
-1400.572
 30
4134.826
 70
    32
  0
VERTEX
  8
T11SSILL
 62
7
 10
611.934
 20
-1407.907
 30
4134.818
 70
    32
  0
VERTEX
  8
T11SSILL
 62
7
 10
597.193
 20
-1429.740
 30
4134.827
 70
    32
  0
SEQEND
  8
T11SSILL
  0
POLYLINE
  8
T11SSILL
 62
7
 66
     1
 70
     9
  0
VERTEX
  8
T11SSILL
 62
7
 10
586.265
 20
-1358.082
 30
4134.798
 70
    32
  0
VERTEX
  8
T11SSILL
 62
7
 10
589.424
 20
-1353.504
 30
4134.805
 70
    32
  0
VERTEX
  8
T11SSILL
 62
7
 10
580.167
 20
-1339.008
 30
4134.843
 70
    32
  0
VERTEX
  8
T11SSILL
 62
7
 10
574.096
 20
-1336.819
 30
4134.853
 70
    32
  0
VERTEX
  8
T11SSILL
 62
7
 10
550.376
 20
-1353.213
 30
4134.837
 70
    32
  0
VERTEX
  8
T11SSILL
 62
7
 10
548.977
 20
-1358.492
 30
4134.827
 70
    32
  0
VERTEX
  8
T11SSILL
 62
7
 10
560.962
 20
-1374.567
 30
4134.782
 70
    32
  0
VERTEX
  8
T11SSILL
 62
7
 10
571.684
 20
-1369.626
 30
4134.784
 70
    32
  0
SEQEND
  8
T11SSILL
  0
POLYLINE
  8
T11SSILL
 62
7
 66
     1
 70
     9
  0
VERTEX
  8
T11SSILL
 62
7
 10
542.011
 20
-1346.718
 30
4134.857
 70
    32
  0
VERTEX
  8
T11SSILL
 62
7
 10
532.227
 20
-1332.046
 30
4134.897
 70
    32
  0
VERTEX
  8
T11SSILL
 62
7
 10
535.464
 20
-1321.488
 30
4134.917
 70
    32
  0
VERTEX
  8
T11SSILL
 62
7
 10
502.236
 20
-1274.225
 30
4135.044
 70
    32
  0
VERTEX
  8
T11SSILL
 62
7
 10
498.714
 20
-1271.329
 30
4135.053
 70
    32
  0
VERTEX
  8
T11SSILL
 62
7
 10
492.029
 20
-1270.372
 30
4135.061
 70
    32
  0
VERTEX
  8
T11SSILL
 62
7
 10
488.156
 20
-1268.531
 30
4135.068
 70
    32
  0
VERTEX
  8
T11SSILL
 62
7
 10
479.777
 20
-1252.977
 30
4135.108
 70
    32
  0
VERTEX
  8
T11SSILL
 62
7
 10
477.476
 20
-1243.659
 30
4135.130
 70
    32
  0
VERTEX
  8
T11SSILL
 62
7
 10
508.315
 20
-1224.263
 30
4135.147
 70
    32
  0
VERTEX
  8
T11SSILL
 62
7
 10
518.867
 20
-1223.456
 30
4135.140
 70
    32
  0
VERTEX
  8
T11SSILL
 62
7
 10
529.063
 20
-1219.922
 30
4135.139
 70
    32
  0
VERTEX
  8
T11SSILL
 62
7
 10
556.844
 20
-1213.635
 30
4135.130
 70
    32
  0
VERTEX
  8
T11SSILL
 62
7
 10
616.902
 20
-1265.077
 30
4134.972
 70
    32
  0
VERTEX
  8
T11SSILL
 62
7
 10
601.891
 20
-1283.129
 30
4134.946
 70
    32
  0
VERTEX
  8
T11SSILL
 62
7
 10
605.854
 20
-1286.641
 30
4134.935
 70
    32
  0
VERTEX
  8
T11SSILL
 62
7
 10
622.097
 20
-1269.115
 30
4134.959
 70
    32
  0
VERTEX
  8
T11SSILL
 62
7
 10
640.943
 20
-1286.059
 30
4134.908
 70
    32
  0
VERTEX
  8
T11SSILL
 62
7
 10
652.322
 20
-1307.940
 30
4134.852
 70
    32
  0
VERTEX
  8
T11SSILL
 62
7
 10
651.901
 20
-1319.989
 30
4134.827
 70
    32
  0
VERTEX
  8
T11SSILL
 62
7
 10
649.272
 20
-1326.325
 30
4134.815
 70
    32
  0
VERTEX
  8
T11SSILL
 62
7
 10
603.573
 20
-1347.326
 30
4134.807
 70
    32
  0
VERTEX
  8
T11SSILL
 62
7
 10
595.747
 20
-1348.042
 30
4134.811
 70
    32
  0
VERTEX
  8
T11SSILL
 62
7
 10
577.153
 20
-1323.622
 30
4134.879
 70
    32
  0
VERTEX
  8
T11SSILL
 62
7
 10
570.030
 20
-1323.985
 30
4134.884
 70
    32
  0
VERTEX
  8
T11SSILL
 62
7
 10
572.324
 20
-1328.818
 30
4134.871
 70
    32
  0
VERTEX
  8
T11SSILL
 62
7
 10
546.498
 20
-1347.503
 30
4134.852
 70
    32
  0
SEQEND
  8
T11SSILL
  0
POLYLINE
  8
T11SSILL
 62
7
 66
     1
 70
     9
  0
VERTEX
  8
T11SSILL
 62
7
 10
539.719
 20
-1688.061
 30
4135.003
 70
    32
  0
VERTEX
  8
T11SSILL
 62
7
 10
517.975
 20
-1634.933
 30
4134.939
 70
    32
  0
VERTEX
  8
T11SSILL
 62
7
 10
509.006
 20
-1622.283
 30
4134.921
 70
    32
  0
VERTEX
  8
T11SSILL
 62
7
 10
447.434
 20
-1637.277
 30
4134.884
 70
    32
  0
VERTEX
  8
T11SSILL
 62
7
 10
377.750
 20
-1687.559
 30
4134.870
 70
    32
  0
VERTEX
  8
T11SSILL
 62
7
 10
415.779
 20
-1761.902
 30
4134.965
 70
    32
  0
VERTEX
  8
T11SSILL
 62
7
 10
427.107
 20
-1786.984
 30
4134.996
 70
    32
  0
VERTEX
  8
T11SSILL
 62
7
 10
430.360
 20
-1786.893
 30
4134.999
 70
    32
  0
VERTEX
  8
T11SSILL
 62
7
 10
544.887
 20
-1704.912
 30
4135.022
 70
    32
  0
VERTEX
  8
T11SSILL
 62
7
 10
543.735
 20
-1696.919
 30
4135.014
 70
    32
  0
SEQEND
  8
T11SSILL
  0
POLYLINE
  8
T11SSILL
 62
7
 66
     1
 70
     9
  0
VERTEX
  8
T11SSILL
 62
7
 10
390.928
 20
-1815.170
 30
4134.991
 70
    32
  0
VERTEX
  8
T11SSILL
 62
7
 10
421.783
 20
-1793.408
 30
4134.997
 70
    32
  0
VERTEX
  8
T11SSILL
 62
7
 10
422.257
 20
-1791.300
 30
4134.996
 70
    32
  0
VERTEX
  8
T11SSILL
 62
7
 10
390.435
 20
-1724.886
 30
4134.913
 70
    32
  0
VERTEX
  8
T11SSILL
 62
7
 10
371.149
 20
-1691.947
 30
4134.868
 70
    32
  0
VERTEX
  8
T11SSILL
 62
7
 10
337.963
 20
-1715.440
 30
4134.862
 70
    32
  0
VERTEX
  8
T11SSILL
 62
7
 10
337.194
 20
-1717.952
 30
4134.863
 70
    32
  0
VERTEX
  8
T11SSILL
 62
7
 10
388.870
 20
-1814.695
 30
4134.989
 70
    32
  0
SEQEND
  8
T11SSILL
  0
POLYLINE
  8
T11SSILL
 62
7
 66
     1
 70
     9
  0
VERTEX
  8
T11SSILL
 62
7
 10
518.140
 20
-1999.507
 30
4135.254
 70
    32
  0
VERTEX
  8
T11SSILL
 62
7
 10
512.304
 20
-2007.934
 30
4135.256
 70
    32
  0
VERTEX
  8
T11SSILL
 62
7
 10
506.475
 20
-2020.609
 30
4135.263
 70
    32
  0
VERTEX
  8
T11SSILL
 62
7
 10
506.394
 20
-2029.508
 30
4135.270
 70
    32
  0
VERTEX
  8
T11SSILL
 62
7
 10
504.886
 20
-2036.327
 30
4135.275
 70
    32
  0
VERTEX
  8
T11SSILL
 62
7
 10
499.916
 20
-2042.243
 30
4135.276
 70
    32
  0
VERTEX
  8
T11SSILL
 62
7
 10
471.966
 20
-2023.171
 30
4135.237
 70
    32
  0
VERTEX
  8
T11SSILL
 62
7
 10
467.856
 20
-2018.627
 30
4135.229
 70
    32
  0
VERTEX
  8
T11SSILL
 62
7
 10
449.294
 20
-1946.590
 30
4135.152
 70
    32
  0
VERTEX
  8
T11SSILL
 62
7
 10
451.535
 20
-1942.161
 30
4135.150
 70
    32
  0
VERTEX
  8
T11SSILL
 62
7
 10
478.724
 20
-1923.100
 30
4135.156
 70
    32
  0
VERTEX
  8
T11SSILL
 62
7
 10
481.678
 20
-1923.461
 30
4135.158
 70
    32
  0
SEQEND
  8
T11SSILL
  0
POLYLINE
  8
T11SSILL
 62
7
 66
     1
 70
     9
  0
VERTEX
  8
T11SSILL
 62
7
 10
323.451
 20
-1604.963
 30
4134.769
 70
    32
  0
VERTEX
  8
T11SSILL
 62
7
 10
303.050
 20
-1586.703
 30
4134.823
 70
    32
  0
VERTEX
  8
T11SSILL
 62
7
 10
283.113
 20
-1601.170
 30
4134.829
 70
    32
  0
VERTEX
  8
T11SSILL
 62
7
 10
281.096
 20
-1611.856
 30
4134.817
 70
    32
  0
VERTEX
  8
T11SSILL
 62
7
 10
332.421
 20
-1708.603
 30
4134.851
 70
    32
  0
VERTEX
  8
T11SSILL
 62
7
 10
365.868
 20
-1685.908
 30
4134.859
 70
    32
  0
VERTEX
  8
T11SSILL
 62
7
 10
365.898
 20
-1680.402
 30
4134.854
 70
    32
  0
VERTEX
  8
T11SSILL
 62
7
 10
325.865
 20
-1609.252
 30
4134.760
 70
    32
  0
SEQEND
  8
T11SSILL
  0
POLYLINE
  8
T11SSILL
 62
7
 66
     1
 70
     9
  0
VERTEX
  8
T11SSILL
 62
7
 10
299.618
 20
-1391.593
 30
4135.105
 70
    32
  0
VERTEX
  8
T11SSILL
 62
7
 10
268.329
 20
-1347.493
 30
4135.210
 70
    32
  0
VERTEX
  8
T11SSILL
 62
7
 10
313.244
 20
-1331.418
 30
4135.173
 70
    32
  0
VERTEX
  8
T11SSILL
 62
7
 10
321.426
 20
-1333.340
 30
4135.159
 70
    32
  0
VERTEX
  8
T11SSILL
 62
7
 10
325.390
 20
-1337.555
 30
4135.148
 70
    32
  0
VERTEX
  8
T11SSILL
 62
7
 10
378.473
 20
-1428.408
 30
4134.947
 70
    32
  0
VERTEX
  8
T11SSILL
 62
7
 10
387.097
 20
-1431.648
 30
4134.930
 70
    32
  0
VERTEX
  8
T11SSILL
 62
7
 10
329.254
 20
-1448.096
 30
4134.985
 70
    32
  0
VERTEX
  8
T11SSILL
 62
7
 10
326.325
 20
-1430.159
 30
4135.014
 70
    32
  0
VERTEX
  8
T11SSILL
 62
7
 10
319.895
 20
-1424.101
 30
4135.032
 70
    32
  0
VERTEX
  8
T11SSILL
 62
7
 10
316.456
 20
-1418.214
 30
4135.045
 70
    32
  0
SEQEND
  8
T11SSILL
  0
POLYLINE
  8
T11SSILL
 62
7
 66
     1
 70
     9
  0
VERTEX
  8
T11SSILL
 62
7
 10
471.370
 20
-1275.592
 30
4135.066
 70
    32
  0
VERTEX
  8
T11SSILL
 62
7
 10
476.746
 20
-1283.411
 30
4135.045
 70
    32
  0
VERTEX
  8
T11SSILL
 62
7
 10
477.283
 20
-1288.951
 30
4135.033
 70
    32
  0
VERTEX
  8
T11SSILL
 62
7
 10
513.420
 20
-1340.430
 30
4134.894
 70
    32
  0
VERTEX
  8
T11SSILL
 62
7
 10
522.560
 20
-1336.371
 30
4134.895
 70
    32
  0
VERTEX
  8
T11SSILL
 62
7
 10
533.670
 20
-1355.437
 30
4134.845
 70
    32
  0
VERTEX
  8
T11SSILL
 62
7
 10
507.230
 20
-1375.354
 30
4134.848
 70
    32
  0
VERTEX
  8
T11SSILL
 62
7
 10
520.811
 20
-1400.045
 30
4134.795
 70
    32
  0
VERTEX
  8
T11SSILL
 62
7
 10
518.534
 20
-1405.853
 30
4134.790
 70
    32
  0
VERTEX
  8
T11SSILL
 62
7
 10
503.334
 20
-1415.463
 30
4134.797
 70
    32
  0
VERTEX
  8
T11SSILL
 62
7
 10
484.544
 20
-1434.664
 30
4134.795
 70
    32
  0
VERTEX
  8
T11SSILL
 62
7
 10
478.742
 20
-1436.607
 30
4134.800
 70
    32
  0
VERTEX
  8
T11SSILL
 62
7
 10
473.023
 20
-1434.769
 30
4134.810
 70
    32
  0
VERTEX
  8
T11SSILL
 62
7
 10
454.345
 20
-1412.900
 30
4134.866
 70
    32
  0
VERTEX
  8
T11SSILL
 62
7
 10
447.932
 20
-1417.219
 30
4134.869
 70
    32
  0
VERTEX
  8
T11SSILL
 62
7
 10
431.035
 20
-1410.122
 30
4134.902
 70
    32
  0
VERTEX
  8
T11SSILL
 62
7
 10
429.257
 20
-1397.724
 30
4134.922
 70
    32
  0
VERTEX
  8
T11SSILL
 62
7
 10
426.965
 20
-1394.210
 30
4134.930
 70
    32
  0
VERTEX
  8
T11SSILL
 62
7
 10
425.718
 20
-1383.571
 30
4134.947
 70
    32
  0
VERTEX
  8
T11SSILL
 62
7
 10
397.165
 20
-1345.799
 30
4135.039
 70
    32
  0
VERTEX
  8
T11SSILL
 62
7
 10
382.344
 20
-1315.833
 30
4135.102
 70
    32
  0
VERTEX
  8
T11SSILL
 62
7
 10
367.105
 20
-1299.938
 30
4135.145
 70
    32
  0
VERTEX
  8
T11SSILL
 62
7
 10
340.833
 20
-1315.193
 30
4135.159
 70
    32
  0
VERTEX
  8
T11SSILL
 62
7
 10
318.507
 20
-1322.791
 30
4135.178
 70
    32
  0
VERTEX
  8
T11SSILL
 62
7
 10
351.436
 20
-1290.289
 30
4135.180
 70
    32
  0
VERTEX
  8
T11SSILL
 62
7
 10
467.365
 20
-1244.994
 30
4135.135
 70
    32
  0
VERTEX
  8
T11SSILL
 62
7
 10
472.231
 20
-1263.630
 30
4135.091
 70
    32
  0
SEQEND
  8
T11SSILL
  0
POLYLINE
  8
T11SSILL
 62
7
 66
     1
 70
     9
  0
VERTEX
  8
T11SSILL
 62
7
 10
527.050
 20
-1396.694
 30
4134.791
 70
    32
  0
VERTEX
  8
T11SSILL
 62
7
 10
529.074
 20
-1397.130
 30
4134.788
 70
    32
  0
VERTEX
  8
T11SSILL
 62
7
 10
551.390
 20
-1383.464
 30
4134.777
 70
    32
  0
VERTEX
  8
T11SSILL
 62
7
 10
552.963
 20
-1377.042
 30
4134.784
 70
    32
  0
VERTEX
  8
T11SSILL
 62
7
 10
540.625
 20
-1359.912
 30
4134.830
 70
    32
  0
VERTEX
  8
T11SSILL
 62
7
 10
517.433
 20
-1376.745
 30
4134.833
 70
    32
  0
VERTEX
  8
T11SSILL
 62
7
 10
516.646
 20
-1379.736
 30
4134.830
 70
    32
  0
SEQEND
  8
T11SSILL
  0
POLYLINE
  8
T11SSILL
 62
7
 66
     1
 70
     9
  0
VERTEX
  8
T11SSILL
 62
7
 10
1017.700
 20
-1743.670
 30
4135.441
 70
    32
  0
VERTEX
  8
T11SSILL
 62
7
 10
1010.397
 20
-1743.962
 30
4135.436
 70
    32
  0
VERTEX
  8
T11SSILL
 62
7
 10
1007.131
 20
-1750.911
 30
4135.439
 70
    32
  0
VERTEX
  8
T11SSILL
 62
7
 10
1006.522
 20
-1758.126
 30
4135.445
 70
    32
  0
VERTEX
  8
T11SSILL
 62
7
 10
1011.169
 20
-1773.332
 30
4135.462
 70
    32
  0
VERTEX
  8
T11SSILL
 62
7
 10
1013.412
 20
-1776.557
 30
4135.466
 70
    32
  0
VERTEX
  8
T11SSILL
 62
7
 10
1019.968
 20
-1776.524
 30
4135.472
 70
    32
  0
VERTEX
  8
T11SSILL
 62
7
 10
1026.096
 20
-1774.294
 30
4135.475
 70
    32
  0
VERTEX
  8
T11SSILL
 62
7
 10
1029.666
 20
-1771.646
 30
4135.475
 70
    32
  0
VERTEX
  8
T11SSILL
 62
7
 10
1031.317
 20
-1767.672
 30
4135.473
 70
    32
  0
VERTEX
  8
T11SSILL
 62
7
 10
1030.202
 20
-1762.631
 30
4135.468
 70
    32
  0
SEQEND
  8
T11SSILL
  0
POLYLINE
  8
T11SSILL
 62
7
 66
     1
 70
     9
  0
VERTEX
  8
T11SSILL
 62
7
 10
764.224
 20
-1718.151
 30
4135.212
 70
    32
  0
VERTEX
  8
T11SSILL
 62
7
 10
738.491
 20
-1737.345
 30
4135.208
 70
    32
  0
VERTEX
  8
T11SSILL
 62
7
 10
736.849
 20
-1742.071
 30
4135.210
 70
    32
  0
VERTEX
  8
T11SSILL
 62
7
 10
741.869
 20
-1751.167
 30
4135.222
 70
    32
  0
VERTEX
  8
T11SSILL
 62
7
 10
748.266
 20
-1758.293
 30
4135.234
 70
    32
  0
VERTEX
  8
T11SSILL
 62
7
 10
750.820
 20
-1758.461
 30
4135.236
 70
    32
  0
VERTEX
  8
T11SSILL
 62
7
 10
779.270
 20
-1740.383
 30
4135.244
 70
    32
  0
VERTEX
  8
T11SSILL
 62
7
 10
780.726
 20
-1736.811
 30
4135.242
 70
    32
  0
VERTEX
  8
T11SSILL
 62
7
 10
768.243
 20
-1719.351
 30
4135.217
 70
    32
  0
SEQEND
  8
T11SSILL
  0
POLYLINE
  8
T11SSILL
 62
7
 66
     1
 70
     9
  0
VERTEX
  8
T11SSILL
 62
7
 10
765.501
 20
-1664.881
 30
4135.167
 70
    32
  0
VERTEX
  8
T11SSILL
 62
7
 10
769.801
 20
-1664.527
 30
4135.171
 70
    32
  0
VERTEX
  8
T11SSILL
 62
7
 10
779.908
 20
-1676.160
 30
4135.189
 70
    32
  0
VERTEX
  8
T11SSILL
 62
7
 10
780.203
 20
-1679.660
 30
4135.192
 70
    32
  0
VERTEX
  8
T11SSILL
 62
7
 10
778.894
 20
-1683.030
 30
4135.194
 70
    32
  0
VERTEX
  8
T11SSILL
 62
7
 10
775.080
 20
-1686.131
 30
4135.193
 70
    32
  0
VERTEX
  8
T11SSILL
 62
7
 10
782.343
 20
-1694.548
 30
4135.207
 70
    32
  0
VERTEX
  8
T11SSILL
 62
7
 10
780.379
 20
-1697.526
 30
4135.208
 70
    32
  0
VERTEX
  8
T11SSILL
 62
7
 10
744.727
 20
-1723.903
 30
4135.201
 70
    32
  0
VERTEX
  8
T11SSILL
 62
7
 10
696.959
 20
-1757.891
 30
4135.192
 70
    32
  0
VERTEX
  8
T11SSILL
 62
7
 10
674.146
 20
-1730.953
 30
4135.150
 70
    32
  0
SEQEND
  8
T11SSILL
  0
POLYLINE
  8
T11SSILL
 62
7
 66
     1
 70
     9
  0
VERTEX
  8
T11SSILL
 62
7
 10
853.579
 20
-2305.951
 30
4135.792
 70
    32
  0
VERTEX
  8
T11SSILL
 62
7
 10
855.884
 20
-2306.370
 30
4135.795
 70
    32
  0
VERTEX
  8
T11SSILL
 62
7
 10
868.801
 20
-2296.599
 30
4135.797
 70
    32
  0
VERTEX
  8
T11SSILL
 62
7
 10
871.163
 20
-2293.818
 30
4135.796
 70
    32
  0
VERTEX
  8
T11SSILL
 62
7
 10
869.327
 20
-2291.093
 30
4135.793
 70
    32
  0
VERTEX
  8
T11SSILL
 62
7
 10
851.554
 20
-2304.028
 30
4135.789
 70
    32
  0
SEQEND
  8
T11SSILL
  0
POLYLINE
  8
T11SSILL
 62
7
 66
     1
 70
     9
  0
VERTEX
  8
T11SSILL
 62
7
 10
847.091
 20
-2310.487
 30
4135.791
 70
    32
  0
VERTEX
  8
T11SSILL
 62
7
 10
846.677
 20
-2313.142
 30
4135.793
 70
    32
  0
VERTEX
  8
T11SSILL
 62
7
 10
837.875
 20
-2320.358
 30
4135.792
 70
    32
  0
VERTEX
  8
T11SSILL
 62
7
 10
834.799
 20
-2322.049
 30
4135.791
 70
    32
  0
VERTEX
  8
T11SSILL
 62
7
 10
830.634
 20
-2320.905
 30
4135.787
 70
    32
  0
VERTEX
  8
T11SSILL
 62
7
 10
845.556
 20
-2307.858
 30
4135.788
 70
    32
  0
SEQEND
  8
T11SSILL
  0
POLYLINE
  8
T11SSILL
 62
7
 66
     1
 70
     9
  0
VERTEX
  8
T11SSILL
 62
7
 10
772.836
 20
-2331.378
 30
4135.748
 70
    32
  0
VERTEX
  8
T11SSILL
 62
7
 10
790.346
 20
-2336.142
 30
4135.767
 70
    32
  0
VERTEX
  8
T11SSILL
 62
7
 10
808.645
 20
-2325.149
 30
4135.772
 70
    32
  0
VERTEX
  8
T11SSILL
 62
7
 10
808.813
 20
-2318.998
 30
4135.767
 70
    32
  0
VERTEX
  8
T11SSILL
 62
7
 10
793.138
 20
-2305.711
 30
4135.743
 70
    32
  0
VERTEX
  8
T11SSILL
 62
7
 10
785.709
 20
-2295.962
 30
4135.728
 70
    32
  0
VERTEX
  8
T11SSILL
 62
7
 10
779.562
 20
-2292.345
 30
4135.720
 70
    32
  0
VERTEX
  8
T11SSILL
 62
7
 10
770.504
 20
-2280.419
 30
4135.703
 70
    32
  0
VERTEX
  8
T11SSILL
 62
7
 10
767.565
 20
-2273.760
 30
4135.694
 70
    32
  0
VERTEX
  8
T11SSILL
 62
7
 10
771.221
 20
-2270.512
 30
4135.695
 70
    32
  0
VERTEX
  8
T11SSILL
 62
7
 10
763.261
 20
-2262.220
 30
4135.681
 70
    32
  0
VERTEX
  8
T11SSILL
 62
7
 10
759.457
 20
-2261.821
 30
4135.677
 70
    32
  0
VERTEX
  8
T11SSILL
 62
7
 10
750.747
 20
-2249.790
 30
4135.660
 70
    32
  0
VERTEX
  8
T11SSILL
 62
7
 10
706.562
 20
-2276.377
 30
4135.647
 70
    32
  0
VERTEX
  8
T11SSILL
 62
7
 10
706.151
 20
-2279.282
 30
4135.649
 70
    32
  0
SEQEND
  8
T11SSILL
  0
POLYLINE
  8
T11SSILL
 62
7
 66
     1
 70
     9
  0
VERTEX
  8
T11SSILL
 62
7
 10
743.912
 20
-2228.436
 30
4135.636
 70
    32
  0
VERTEX
  8
T11SSILL
 62
7
 10
754.456
 20
-2231.844
 30
4135.648
 70
    32
  0
VERTEX
  8
T11SSILL
 62
7
 10
758.996
 20
-2234.932
 30
4135.654
 70
    32
  0
VERTEX
  8
T11SSILL
 62
7
 10
763.989
 20
-2230.716
 30
4135.654
 70
    32
  0
VERTEX
  8
T11SSILL
 62
7
 10
770.845
 20
-2227.525
 30
4135.657
 70
    32
  0
VERTEX
  8
T11SSILL
 62
7
 10
761.695
 20
-2216.200
 30
4135.640
 70
    32
  0
VERTEX
  8
T11SSILL
 62
7
 10
745.931
 20
-2226.109
 30
4135.636
 70
    32
  0
SEQEND
  8
T11SSILL
  0
POLYLINE
  8
T11SSILL
 62
7
 66
     1
 70
     9
  0
VERTEX
  8
T11SSILL
 62
7
 10
1152.187
 20
-1971.466
 30
4135.748
 70
    32
  0
VERTEX
  8
T11SSILL
 62
7
 10
1140.121
 20
-1951.432
 30
4135.721
 70
    32
  0
VERTEX
  8
T11SSILL
 62
7
 10
1131.401
 20
-1949.799
 30
4135.712
 70
    32
  0
VERTEX
  8
T11SSILL
 62
7
 10
1109.418
 20
-1965.641
 30
4135.708
 70
    32
  0
VERTEX
  8
T11SSILL
 62
7
 10
1108.942
 20
-1971.146
 30
4135.712
 70
    32
  0
VERTEX
  8
T11SSILL
 62
7
 10
1109.490
 20
-1974.788
 30
4135.716
 70
    32
  0
VERTEX
  8
T11SSILL
 62
7
 10
1112.825
 20
-1981.142
 30
4135.724
 70
    32
  0
VERTEX
  8
T11SSILL
 62
7
 10
1114.881
 20
-1992.862
 30
4135.736
 70
    32
  0
VERTEX
  8
T11SSILL
 62
7
 10
1151.762
 20
-1991.968
 30
4135.765
 70
    32
  0
SEQEND
  8
T11SSILL
  0
POLYLINE
  8
T11SSILL
 62
7
 66
     1
 70
     9
  0
VERTEX
  8
T11SSILL
 62
7
 10
1122.460
 20
-1946.570
 30
4135.702
 70
    32
  0
VERTEX
  8
T11SSILL
 62
7
 10
1124.198
 20
-1938.248
 30
4135.696
 70
    32
  0
VERTEX
  8
T11SSILL
 62
7
 10
1122.984
 20
-1929.716
 30
4135.688
 70
    32
  0
VERTEX
  8
T11SSILL
 62
7
 10
1117.383
 20
-1922.093
 30
4135.677
 70
    32
  0
VERTEX
  8
T11SSILL
 62
7
 10
1095.853
 20
-1900.935
 30
4135.641
 70
    32
  0
VERTEX
  8
T11SSILL
 62
7
 10
1089.805
 20
-1897.267
 30
4135.633
 70
    32
  0
VERTEX
  8
T11SSILL
 62
7
 10
1083.342
 20
-1896.154
 30
4135.627
 70
    32
  0
VERTEX
  8
T11SSILL
 62
7
 10
1079.473
 20
-1898.455
 30
4135.625
 70
    32
  0
VERTEX
  8
T11SSILL
 62
7
 10
1077.816
 20
-1901.577
 30
4135.627
 70
    32
  0
VERTEX
  8
T11SSILL
 62
7
 10
1079.239
 20
-1907.057
 30
4135.633
 70
    32
  0
VERTEX
  8
T11SSILL
 62
7
 10
1083.565
 20
-1912.798
 30
4135.641
 70
    32
  0
VERTEX
  8
T11SSILL
 62
7
 10
1091.937
 20
-1929.482
 30
4135.662
 70
    32
  0
VERTEX
  8
T11SSILL
 62
7
 10
1098.564
 20
-1950.289
 30
4135.686
 70
    32
  0
VERTEX
  8
T11SSILL
 62
7
 10
1101.956
 20
-1953.443
 30
4135.691
 70
    32
  0
VERTEX
  8
T11SSILL
 62
7
 10
1108.275
 20
-1955.008
 30
4135.698
 70
    32
  0
VERTEX
  8
T11SSILL
 62
7
 10
1114.519
 20
-1954.625
 30
4135.703
 70
    32
  0
VERTEX
  8
T11SSILL
 62
7
 10
1119.271
 20
-1951.112
 30
4135.703
 70
    32
  0
SEQEND
  8
T11SSILL
  0
POLYLINE
  8
T11SSILL
 62
7
 66
     1
 70
     9
  0
VERTEX
  8
T11SSILL
 62
7
 10
1025.112
 20
-1838.921
 30
4135.530
 70
    32
  0
VERTEX
  8
T11SSILL
 62
7
 10
1036.771
 20
-1854.489
 30
4135.553
 70
    32
  0
VERTEX
  8
T11SSILL
 62
7
 10
1051.169
 20
-1865.018
 30
4135.573
 70
    32
  0
VERTEX
  8
T11SSILL
 62
7
 10
1072.202
 20
-1889.676
 30
4135.612
 70
    32
  0
VERTEX
  8
T11SSILL
 62
7
 10
1075.124
 20
-1891.191
 30
4135.616
 70
    32
  0
VERTEX
  8
T11SSILL
 62
7
 10
1078.962
 20
-1889.991
 30
4135.618
 70
    32
  0
VERTEX
  8
T11SSILL
 62
7
 10
1081.574
 20
-1886.755
 30
4135.617
 70
    32
  0
VERTEX
  8
T11SSILL
 62
7
 10
1081.909
 20
-1881.595
 30
4135.613
 70
    32
  0
VERTEX
  8
T11SSILL
 62
7
 10
1079.095
 20
-1876.726
 30
4135.606
 70
    32
  0
VERTEX
  8
T11SSILL
 62
7
 10
1049.691
 20
-1851.123
 30
4135.560
 70
    32
  0
VERTEX
  8
T11SSILL
 62
7
 10
1034.546
 20
-1832.896
 30
4135.532
 70
    32
  0
SEQEND
  8
T11SSILL
  0
POLYLINE
  8
T11SSILL
 62
7
 66
     1
 70
     9
  0
VERTEX
  8
T11SSILL
 62
7
 10
1053.800
 20
-1800.120
 30
4135.520
 70
    32
  0
VERTEX
  8
T11SSILL
 62
7
 10
1043.951
 20
-1800.945
 30
4135.512
 70
    32
  0
VERTEX
  8
T11SSILL
 62
7
 10
1041.113
 20
-1798.178
 30
4135.508
 70
    32
  0
VERTEX
  8
T11SSILL
 62
7
 10
1035.714
 20
-1778.877
 30
4135.486
 70
    32
  0
VERTEX
  8
T11SSILL
 62
7
 10
1025.017
 20
-1779.964
 30
4135.479
 70
    32
  0
VERTEX
  8
T11SSILL
 62
7
 10
1019.971
 20
-1792.590
 30
4135.485
 70
    32
  0
VERTEX
  8
T11SSILL
 62
7
 10
1036.187
 20
-1816.309
 30
4135.519
 70
    32
  0
VERTEX
  8
T11SSILL
 62
7
 10
1041.709
 20
-1817.540
 30
4135.525
 70
    32
  0
VERTEX
  8
T11SSILL
 62
7
 10
1061.844
 20
-1802.921
 30
4135.529
 70
    32
  0
VERTEX
  8
T11SSILL
 62
7
 10
1060.121
 20
-1801.291
 30
4135.526
 70
    32
  0
SEQEND
  8
T11SSILL
  0
POLYLINE
  8
T11SSILL
 62
7
 66
     1
 70
     9
  0
VERTEX
  8
T11SSILL
 62
7
 10
941.006
 20
-1821.368
 30
4135.446
 70
    32
  0
VERTEX
  8
T11SSILL
 62
7
 10
936.181
 20
-1823.681
 30
4135.444
 70
    32
  0
VERTEX
  8
T11SSILL
 62
7
 10
935.524
 20
-1835.051
 30
4135.453
 70
    32
  0
VERTEX
  8
T11SSILL
 62
7
 10
937.674
 20
-1842.831
 30
4135.462
 70
    32
  0
VERTEX
  8
T11SSILL
 62
7
 10
943.195
 20
-1847.967
 30
4135.471
 70
    32
  0
VERTEX
  8
T11SSILL
 62
7
 10
949.137
 20
-1846.840
 30
4135.474
 70
    32
  0
VERTEX
  8
T11SSILL
 62
7
 10
949.423
 20
-1841.782
 30
4135.470
 70
    32
  0
VERTEX
  8
T11SSILL
 62
7
 10
943.617
 20
-1821.985
 30
4135.448
 70
    32
  0
SEQEND
  8
T11SSILL
  0
POLYLINE
  8
T11SSILL
 62
7
 66
     1
 70
     9
  0
VERTEX
  8
T11SSILL
 62
7
 10
775.488
 20
-1710.501
 30
4135.215
 70
    32
  0
VERTEX
  8
T11SSILL
 62
7
 10
774.269
 20
-1713.019
 30
4135.216
 70
    32
  0
VERTEX
  8
T11SSILL
 62
7
 10
775.817
 20
-1716.703
 30
4135.220
 70
    32
  0
VERTEX
  8
T11SSILL
 62
7
 10
787.432
 20
-1732.772
 30
4135.244
 70
    32
  0
VERTEX
  8
T11SSILL
 62
7
 10
798.274
 20
-1727.329
 30
4135.248
 70
    32
  0
VERTEX
  8
T11SSILL
 62
7
 10
804.161
 20
-1721.899
 30
4135.248
 70
    32
  0
VERTEX
  8
T11SSILL
 62
7
 10
804.169
 20
-1718.546
 30
4135.245
 70
    32
  0
VERTEX
  8
T11SSILL
 62
7
 10
788.376
 20
-1700.628
 30
4135.217
 70
    32
  0
SEQEND
  8
T11SSILL
  0
POLYLINE
  8
T11SSILL
 62
7
 66
     1
 70
     9
  0
VERTEX
  8
T11SSILL
 62
7
 10
844.791
 20
-1693.407
 30
4135.257
 70
    32
  0
VERTEX
  8
T11SSILL
 62
7
 10
824.473
 20
-1709.380
 30
4135.254
 70
    32
  0
VERTEX
  8
T11SSILL
 62
7
 10
806.699
 20
-1697.042
 30
4135.229
 70
    32
  0
VERTEX
  8
T11SSILL
 62
7
 10
793.362
 20
-1679.343
 30
4135.203
 70
    32
  0
VERTEX
  8
T11SSILL
 62
7
 10
782.915
 20
-1672.469
 30
4135.188
 70
    32
  0
VERTEX
  8
T11SSILL
 62
7
 10
778.290
 20
-1663.018
 30
4135.176
 70
    32
  0
VERTEX
  8
T11SSILL
 62
7
 10
777.616
 20
-1657.220
 30
4135.171
 70
    32
  0
VERTEX
  8
T11SSILL
 62
7
 10
803.703
 20
-1638.271
 30
4135.176
 70
    32
  0
VERTEX
  8
T11SSILL
 62
7
 10
812.890
 20
-1636.553
 30
4135.182
 70
    32
  0
VERTEX
  8
T11SSILL
 62
7
 10
819.257
 20
-1637.374
 30
4135.187
 70
    32
  0
VERTEX
  8
T11SSILL
 62
7
 10
822.486
 20
-1639.385
 30
4135.192
 70
    32
  0
VERTEX
  8
T11SSILL
 62
7
 10
848.472
 20
-1687.654
 30
4135.255
 70
    32
  0
SEQEND
  8
T11SSILL
  0
POLYLINE
  8
T11SSILL
 62
7
 66
     1
 70
     9
  0
VERTEX
  8
T11SSILL
 62
7
 10
774.118
 20
-1530.603
 30
4135.058
 70
    32
  0
VERTEX
  8
T11SSILL
 62
7
 10
816.985
 20
-1612.413
 30
4135.164
 70
    32
  0
VERTEX
  8
T11SSILL
 62
7
 10
820.240
 20
-1612.583
 30
4135.167
 70
    32
  0
VERTEX
  8
T11SSILL
 62
7
 10
860.741
 20
-1529.061
 30
4135.115
 70
    32
  0
VERTEX
  8
T11SSILL
 62
7
 10
793.299
 20
-1536.729
 30
4135.078
 70
    32
  0
SEQEND
  8
T11SSILL
  0
POLYLINE
  8
T11SSILL
 62
7
 66
     1
 70
     9
  0
VERTEX
  8
T11SSILL
 62
7
 10
999.248
 20
-1661.971
 30
4135.350
 70
    32
  0
VERTEX
  8
T11SSILL
 62
7
 10
996.764
 20
-1659.500
 30
4135.346
 70
    32
  0
VERTEX
  8
T11SSILL
 62
7
 10
991.748
 20
-1658.563
 30
4135.341
 70
    32
  0
VERTEX
  8
T11SSILL
 62
7
 10
985.858
 20
-1659.889
 30
4135.339
 70
    32
  0
VERTEX
  8
T11SSILL
 62
7
 10
980.391
 20
-1666.865
 30
4135.343
 70
    32
  0
VERTEX
  8
T11SSILL
 62
7
 10
986.991
 20
-1690.055
 30
4135.370
 70
    32
  0
VERTEX
  8
T11SSILL
 62
7
 10
990.675
 20
-1692.410
 30
4135.375
 70
    32
  0
VERTEX
  8
T11SSILL
 62
7
 10
1008.721
 20
-1686.776
 30
4135.383
 70
    32
  0
VERTEX
  8
T11SSILL
 62
7
 10
1001.277
 20
-1668.052
 30
4135.358
 70
    32
  0
SEQEND
  8
T11SSILL
  0
POLYLINE
  8
T11SSILL
 62
7
 66
     1
 70
     9
  0
VERTEX
  8
T11SSILL
 62
7
 10
975.725
 20
-1685.693
 30
4135.357
 70
    32
  0
VERTEX
  8
T11SSILL
 62
7
 10
977.541
 20
-1682.917
 30
4135.356
 70
    32
  0
VERTEX
  8
T11SSILL
 62
7
 10
967.448
 20
-1644.706
 30
4135.310
 70
    32
  0
VERTEX
  8
T11SSILL
 62
7
 10
955.107
 20
-1622.641
 30
4135.278
 70
    32
  0
VERTEX
  8
T11SSILL
 62
7
 10
952.177
 20
-1620.525
 30
4135.274
 70
    32
  0
VERTEX
  8
T11SSILL
 62
7
 10
949.881
 20
-1621.055
 30
4135.273
 70
    32
  0
VERTEX
  8
T11SSILL
 62
7
 10
902.863
 20
-1654.984
 30
4135.271
 70
    32
  0
VERTEX
  8
T11SSILL
 62
7
 10
971.911
 20
-1684.940
 30
4135.353
 70
    32
  0
SEQEND
  8
T11SSILL
  0
POLYLINE
  8
T11SSILL
 62
7
 66
     1
 70
     9
  0
VERTEX
  8
T11SSILL
 62
7
 10
998.518
 20
-1632.001
 30
4135.318
 70
    32
  0
VERTEX
  8
T11SSILL
 62
7
 10
992.537
 20
-1626.020
 30
4135.307
 70
    32
  0
VERTEX
  8
T11SSILL
 62
7
 10
991.450
 20
-1607.416
 30
4135.287
 70
    32
  0
VERTEX
  8
T11SSILL
 62
7
 10
987.529
 20
-1602.110
 30
4135.279
 70
    32
  0
VERTEX
  8
T11SSILL
 62
7
 10
982.070
 20
-1597.825
 30
4135.270
 70
    32
  0
VERTEX
  8
T11SSILL
 62
7
 10
960.790
 20
-1613.009
 30
4135.272
 70
    32
  0
VERTEX
  8
T11SSILL
 62
7
 10
960.847
 20
-1621.417
 30
4135.281
 70
    32
  0
VERTEX
  8
T11SSILL
 62
7
 10
972.901
 20
-1636.629
 30
4135.305
 70
    32
  0
VERTEX
  8
T11SSILL
 62
7
 10
975.001
 20
-1648.315
 30
4135.319
 70
    32
  0
VERTEX
  8
T11SSILL
 62
7
 10
978.609
 20
-1652.573
 30
4135.326
 70
    32
  0
VERTEX
  8
T11SSILL
 62
7
 10
983.294
 20
-1654.966
 30
4135.332
 70
    32
  0
VERTEX
  8
T11SSILL
 62
7
 10
995.901
 20
-1650.602
 30
4135.336
 70
    32
  0
VERTEX
  8
T11SSILL
 62
7
 10
997.472
 20
-1640.272
 30
4135.326
 70
    32
  0
SEQEND
  8
T11SSILL
  0
POLYLINE
  8
T11SSILL
 62
7
 66
     1
 70
     9
  0
VERTEX
  8
T11SSILL
 62
7
 10
132.585
 20
-885.744
 30
4136.173
 70
    32
  0
VERTEX
  8
T11SSILL
 62
7
 10
267.509
 20
-977.264
 30
4135.868
 70
    32
  0
VERTEX
  8
T11SSILL
 62
7
 10
232.780
 20
-1015.000
 30
4135.815
 70
    32
  0
VERTEX
  8
T11SSILL
 62
7
 10
179.792
 20
-1078.256
 30
4135.723
 70
    32
  0
VERTEX
  8
T11SSILL
 62
7
 10
130.449
 20
-887.697
 30
4136.170
 70
    32
  0
SEQEND
  8
T11SSILL
  0
POLYLINE
  8
T11SSILL
 62
7
 66
     1
 70
     9
  0
VERTEX
  8
T11SSILL
 62
7
 10
1079.759
 20
-1097.882
 30
4134.959
 70
    32
  0
VERTEX
  8
T11SSILL
 62
7
 10
1087.674
 20
-1097.870
 30
4134.953
 70
    32
  0
VERTEX
  8
T11SSILL
 62
7
 10
1116.451
 20
-1110.577
 30
4134.903
 70
    32
  0
VERTEX
  8
T11SSILL
 62
7
 10
1127.377
 20
-1123.752
 30
4134.866
 70
    32
  0
VERTEX
  8
T11SSILL
 62
7
 10
1132.402
 20
-1131.923
 30
4134.877
 70
    32
  0
VERTEX
  8
T11SSILL
 62
7
 10
1137.861
 20
-1135.608
 30
4134.885
 70
    32
  0
VERTEX
  8
T11SSILL
 62
7
 10
1137.339
 20
-1139.215
 30
4134.888
 70
    32
  0
VERTEX
  8
T11SSILL
 62
7
 10
1131.490
 20
-1146.981
 30
4134.892
 70
    32
  0
VERTEX
  8
T11SSILL
 62
7
 10
1123.447
 20
-1141.699
 30
4134.881
 70
    32
  0
VERTEX
  8
T11SSILL
 62
7
 10
1114.447
 20
-1154.544
 30
4134.889
 70
    32
  0
VERTEX
  8
T11SSILL
 62
7
 10
1050.587
 20
-1114.637
 30
4134.947
 70
    32
  0
VERTEX
  8
T11SSILL
 62
7
 10
1053.659
 20
-1110.762
 30
4134.953
 70
    32
  0
SEQEND
  8
T11SSILL
  0
POLYLINE
  8
T11SSILL
 62
7
 66
     1
 70
     9
  0
VERTEX
  8
T11SSILL
 62
7
 10
1508.187
 20
-1757.462
 30
4135.796
 70
    32
  0
VERTEX
  8
T11SSILL
 62
7
 10
1536.516
 20
-1727.249
 30
4135.900
 70
    32
  0
VERTEX
  8
T11SSILL
 62
7
 10
1536.463
 20
-1714.770
 30
4135.908
 70
    32
  0
VERTEX
  8
T11SSILL
 62
7
 10
1546.867
 20
-1702.219
 30
4135.956
 70
    32
  0
VERTEX
  8
T11SSILL
 62
7
 10
1527.782
 20
-1686.126
 30
4135.895
 70
    32
  0
VERTEX
  8
T11SSILL
 62
7
 10
1517.648
 20
-1680.051
 30
4135.861
 70
    32
  0
VERTEX
  8
T11SSILL
 62
7
 10
1511.139
 20
-1671.814
 30
4135.842
 70
    32
  0
VERTEX
  8
T11SSILL
 62
7
 10
1504.936
 20
-1668.063
 30
4135.821
 70
    32
  0
VERTEX
  8
T11SSILL
 62
7
 10
1477.094
 20
-1630.970
 30
4135.741
 70
    32
  0
VERTEX
  8
T11SSILL
 62
7
 10
1419.421
 20
-1571.351
 30
4135.563
 70
    32
  0
VERTEX
  8
T11SSILL
 62
7
 10
1410.314
 20
-1568.098
 30
4135.531
 70
    32
  0
VERTEX
  8
T11SSILL
 62
7
 10
1230.930
 20
-1689.820
 30
4135.537
 70
    32
  0
VERTEX
  8
T11SSILL
 62
7
 10
1371.456
 20
-1721.670
 30
4135.665
 70
    32
  0
VERTEX
  8
T11SSILL
 62
7
 10
1492.466
 20
-1747.641
 30
4135.775
 70
    32
  0
SEQEND
  8
T11SSILL
  0
POLYLINE
  8
T11SSILL
 62
7
 66
     1
 70
     9
  0
VERTEX
  8
T11SSILL
 62
7
 10
3092.316
 20
-1727.699
 30
4143.273
 70
    32
  0
VERTEX
  8
T11SSILL
 62
7
 10
3185.259
 20
-1873.156
 30
4142.775
 70
    32
  0
VERTEX
  8
T11SSILL
 62
7
 10
3187.889
 20
-1877.857
 30
4142.755
 70
    32
  0
VERTEX
  8
T11SSILL
 62
7
 10
3191.006
 20
-1892.949
 30
4142.629
 70
    32
  0
VERTEX
  8
T11SSILL
 62
7
 10
2879.173
 20
-2084.668
 30
4137.140
 70
    32
  0
VERTEX
  8
T11SSILL
 62
7
 10
1986.127
 20
-2633.725
 30
4136.096
 70
    32
  0
VERTEX
  8
T11SSILL
 62
7
 10
1980.296
 20
-2631.224
 30
4136.096
 70
    32
  0
VERTEX
  8
T11SSILL
 62
7
 10
1976.672
 20
-2619.462
 30
4136.110
 70
    32
  0
VERTEX
  8
T11SSILL
 62
7
 10
1856.982
 20
-2353.074
 30
4136.404
 70
    32
  0
VERTEX
  8
T11SSILL
 62
7
 10
1514.655
 20
-1760.953
 30
4135.804
 70
    32
  0
VERTEX
  8
T11SSILL
 62
7
 10
1542.010
 20
-1731.521
 30
4135.917
 70
    32
  0
VERTEX
  8
T11SSILL
 62
7
 10
1569.184
 20
-1720.452
 30
4136.028
 70
    32
  0
VERTEX
  8
T11SSILL
 62
7
 10
1589.733
 20
-1694.996
 30
4136.124
 70
    32
  0
VERTEX
  8
T11SSILL
 62
7
 10
1575.896
 20
-1681.239
 30
4136.081
 70
    32
  0
VERTEX
  8
T11SSILL
 62
7
 10
1556.043
 20
-1680.604
 30
4136.006
 70
    32
  0
VERTEX
  8
T11SSILL
 62
7
 10
1528.124
 20
-1651.331
 30
4135.920
 70
    32
  0
VERTEX
  8
T11SSILL
 62
7
 10
1509.187
 20
-1655.802
 30
4135.845
 70
    32
  0
VERTEX
  8
T11SSILL
 62
7
 10
1424.320
 20
-1564.633
 30
4135.586
 70
    32
  0
VERTEX
  8
T11SSILL
 62
7
 10
1426.691
 20
-1555.869
 30
4135.602
 70
    32
  0
VERTEX
  8
T11SSILL
 62
7
 10
1571.943
 20
-1450.736
 30
4136.226
 70
    32
  0
VERTEX
  8
T11SSILL
 62
7
 10
1564.322
 20
-1446.444
 30
4136.200
 70
    32
  0
VERTEX
  8
T11SSILL
 62
7
 10
1413.413
 20
-1554.036
 30
4135.552
 70
    32
  0
VERTEX
  8
T11SSILL
 62
7
 10
1183.724
 20
-1164.207
 30
4134.951
 70
    32
  0
VERTEX
  8
T11SSILL
 62
7
 10
1155.377
 20
-1145.431
 30
4134.907
 70
    32
  0
VERTEX
  8
T11SSILL
 62
7
 10
1146.120
 20
-1130.758
 30
4134.885
 70
    32
  0
VERTEX
  8
T11SSILL
 62
7
 10
1159.189
 20
-1108.488
 30
4134.905
 70
    32
  0
VERTEX
  8
T11SSILL
 62
7
 10
1125.913
 20
-1086.993
 30
4134.934
 70
    32
  0
VERTEX
  8
T11SSILL
 62
7
 10
1115.869
 20
-1074.873
 30
4134.962
 70
    32
  0
VERTEX
  8
T11SSILL
 62
7
 10
1120.240
 20
-1058.508
 30
4134.979
 70
    32
  0
VERTEX
  8
T11SSILL
 62
7
 10
1163.157
 20
-1010.101
 30
4134.995
 70
    32
  0
VERTEX
  8
T11SSILL
 62
7
 10
1185.724
 20
-993.827
 30
4134.992
 70
    32
  0
VERTEX
  8
T11SSILL
 62
7
 10
1479.479
 20
-900.711
 30
4136.984
 70
    32
  0
VERTEX
  8
T11SSILL
 62
7
 10
1487.572
 20
-902.140
 30
4136.896
 70
    32
  0
VERTEX
  8
T11SSILL
 62
7
 10
1491.936
 20
-906.223
 30
4136.778
 70
    32
  0
VERTEX
  8
T11SSILL
 62
7
 10
1511.329
 20
-934.908
 30
4136.353
 70
    32
  0
VERTEX
  8
T11SSILL
 62
7
 10
1519.265
 20
-930.589
 30
4136.386
 70
    32
  0
VERTEX
  8
T11SSILL
 62
7
 10
1505.634
 20
-915.054
 30
4136.495
 70
    32
  0
VERTEX
  8
T11SSILL
 62
7
 10
1503.365
 20
-908.913
 30
4136.640
 70
    32
  0
VERTEX
  8
T11SSILL
 62
7
 10
1497.360
 20
-900.501
 30
4136.860
 70
    32
  0
VERTEX
  8
T11SSILL
 62
7
 10
1506.135
 20
-896.781
 30
4136.875
 70
    32
  0
VERTEX
  8
T11SSILL
 62
7
 10
1513.338
 20
-898.585
 30
4136.786
 70
    32
  0
VERTEX
  8
T11SSILL
 62
7
 10
1519.039
 20
-898.529
 30
4136.746
 70
    32
  0
VERTEX
  8
T11SSILL
 62
7
 10
1523.817
 20
-892.146
 30
4136.846
 70
    32
  0
VERTEX
  8
T11SSILL
 62
7
 10
1529.489
 20
-890.990
 30
4136.830
 70
    32
  0
VERTEX
  8
T11SSILL
 62
7
 10
1533.767
 20
-883.491
 30
4136.957
 70
    32
  0
VERTEX
  8
T11SSILL
 62
7
 10
1650.078
 20
-846.276
 30
4136.941
 70
    32
  0
VERTEX
  8
T11SSILL
 62
7
 10
1653.877
 20
-857.128
 30
4136.948
 70
    32
  0
VERTEX
  8
T11SSILL
 62
7
 10
1659.701
 20
-856.068
 30
4136.971
 70
    32
  0
VERTEX
  8
T11SSILL
 62
7
 10
1656.393
 20
-844.853
 30
4136.966
 70
    32
  0
VERTEX
  8
T11SSILL
 62
7
 10
1675.890
 20
-846.221
 30
4137.017
 70
    32
  0
VERTEX
  8
T11SSILL
 62
7
 10
1672.078
 20
-856.831
 30
4136.996
 70
    32
  0
VERTEX
  8
T11SSILL
 62
7
 10
1677.442
 20
-859.085
 30
4136.998
 70
    32
  0
VERTEX
  8
T11SSILL
 62
7
 10
1681.394
 20
-849.923
 30
4137.028
 70
    32
  0
VERTEX
  8
T11SSILL
 62
7
 10
1687.089
 20
-849.667
 30
4137.059
 70
    32
  0
VERTEX
  8
T11SSILL
 62
7
 10
1691.420
 20
-845.197
 30
4137.104
 70
    32
  0
VERTEX
  8
T11SSILL
 62
7
 10
1808.359
 20
-853.659
 30
4138.078
 70
    32
  0
VERTEX
  8
T11SSILL
 62
7
 10
1809.268
 20
-846.630
 30
4138.163
 70
    32
  0
VERTEX
  8
T11SSILL
 62
7
 10
1695.287
 20
-838.438
 30
4137.158
 70
    32
  0
VERTEX
  8
T11SSILL
 62
7
 10
1696.070
 20
-830.463
 30
4137.202
 70
    32
  0
VERTEX
  8
T11SSILL
 62
7
 10
1701.399
 20
-813.108
 30
4137.316
 70
    32
  0
VERTEX
  8
T11SSILL
 62
7
 10
1701.243
 20
-807.410
 30
4137.361
 70
    32
  0
VERTEX
  8
T11SSILL
 62
7
 10
1683.162
 20
-799.299
 30
4137.438
 70
    32
  0
VERTEX
  8
T11SSILL
 62
7
 10
1681.328
 20
-805.402
 30
4137.351
 70
    32
  0
VERTEX
  8
T11SSILL
 62
7
 10
1684.332
 20
-812.824
 30
4137.228
 70
    32
  0
VERTEX
  8
T11SSILL
 62
7
 10
1678.726
 20
-827.334
 30
4137.126
 70
    32
  0
VERTEX
  8
T11SSILL
 62
7
 10
1676.836
 20
-829.587
 30
4137.105
 70
    32
  0
VERTEX
  8
T11SSILL
 62
7
 10
1655.134
 20
-837.233
 30
4137.062
 70
    32
  0
VERTEX
  8
T11SSILL
 62
7
 10
1653.407
 20
-832.628
 30
4137.171
 70
    32
  0
VERTEX
  8
T11SSILL
 62
7
 10
1645.767
 20
-834.938
 30
4137.177
 70
    32
  0
VERTEX
  8
T11SSILL
 62
7
 10
1647.526
 20
-838.892
 30
4137.081
 70
    32
  0
VERTEX
  8
T11SSILL
 62
7
 10
1547.660
 20
-871.285
 30
4137.115
 70
    32
  0
VERTEX
  8
T11SSILL
 62
7
 10
1544.851
 20
-871.011
 30
4137.140
 70
    32
  0
VERTEX
  8
T11SSILL
 62
7
 10
1573.319
 20
-814.356
 30
4138.129
 70
    32
  0
VERTEX
  8
T11SSILL
 62
7
 10
1591.858
 20
-802.644
 30
4138.242
 70
    32
  0
VERTEX
  8
T11SSILL
 62
7
 10
1609.006
 20
-789.419
 30
4138.398
 70
    32
  0
VERTEX
  8
T11SSILL
 62
7
 10
1611.965
 20
-769.578
 30
4138.794
 70
    32
  0
VERTEX
  8
T11SSILL
 62
7
 10
1623.230
 20
-747.910
 30
4139.157
 70
    32
  0
VERTEX
  8
T11SSILL
 62
7
 10
1628.793
 20
-722.645
 30
4139.017
 70
    32
  0
VERTEX
  8
T11SSILL
 62
7
 10
1636.550
 20
-717.281
 30
4138.812
 70
    32
  0
VERTEX
  8
T11SSILL
 62
7
 10
1639.066
 20
-694.001
 30
4138.753
 70
    32
  0
VERTEX
  8
T11SSILL
 62
7
 10
1642.847
 20
-684.092
 30
4138.656
 70
    32
  0
VERTEX
  8
T11SSILL
 62
7
 10
1667.623
 20
-657.102
 30
4138.004
 70
    32
  0
VERTEX
  8
T11SSILL
 62
7
 10
1667.910
 20
-641.987
 30
4138.001
 70
    32
  0
VERTEX
  8
T11SSILL
 62
7
 10
1673.844
 20
-626.617
 30
4137.848
 70
    32
  0
VERTEX
  8
T11SSILL
 62
7
 10
1669.184
 20
-608.035
 30
4137.979
 70
    32
  0
VERTEX
  8
T11SSILL
 62
7
 10
1654.753
 20
-608.980
 30
4138.364
 70
    32
  0
VERTEX
  8
T11SSILL
 62
7
 10
1630.803
 20
-581.970
 30
4137.687
 70
    32
  0
VERTEX
  8
T11SSILL
 62
7
 10
1601.256
 20
-542.307
 30
4136.780
 70
    32
  0
VERTEX
  8
T11SSILL
 62
7
 10
1670.906
 20
-540.667
 30
4137.956
 70
    32
  0
VERTEX
  8
T11SSILL
 62
7
 10
1747.135
 20
-538.873
 30
4136.613
 70
    32
  0
VERTEX
  8
T11SSILL
 62
7
 10
1754.998
 20
-541.059
 30
4136.620
 70
    32
  0
VERTEX
  8
T11SSILL
 62
7
 10
1750.623
 20
-551.184
 30
4136.647
 70
    32
  0
VERTEX
  8
T11SSILL
 62
7
 10
1738.764
 20
-549.256
 30
4136.642
 70
    32
  0
VERTEX
  8
T11SSILL
 62
7
 10
1736.547
 20
-554.169
 30
4136.655
 70
    32
  0
VERTEX
  8
T11SSILL
 62
7
 10
1762.402
 20
-564.869
 30
4136.686
 70
    32
  0
VERTEX
  8
T11SSILL
 62
7
 10
1771.903
 20
-564.709
 30
4136.686
 70
    32
  0
VERTEX
  8
T11SSILL
 62
7
 10
1785.146
 20
-558.745
 30
4136.670
 70
    32
  0
VERTEX
  8
T11SSILL
 62
7
 10
1830.241
 20
-511.940
 30
4136.542
 70
    32
  0
VERTEX
  8
T11SSILL
 62
7
 10
1840.808
 20
-486.739
 30
4136.473
 70
    32
  0
VERTEX
  8
T11SSILL
 62
7
 10
1842.079
 20
-480.151
 30
4136.455
 70
    32
  0
VERTEX
  8
T11SSILL
 62
7
 10
1831.826
 20
-471.077
 30
4136.430
 70
    32
  0
VERTEX
  8
T11SSILL
 62
7
 10
1832.968
 20
-467.094
 30
4136.419
 70
    32
  0
VERTEX
  8
T11SSILL
 62
7
 10
1839.634
 20
-456.556
 30
4136.390
 70
    32
  0
VERTEX
  8
T11SSILL
 62
7
 10
1885.833
 20
-455.695
 30
4136.389
 70
    32
  0
VERTEX
  8
T11SSILL
 62
7
 10
1886.181
 20
-448.281
 30
4136.369
 70
    32
  0
VERTEX
  8
T11SSILL
 62
7
 10
1839.549
 20
-447.954
 30
4136.366
 70
    32
  0
VERTEX
  8
T11SSILL
 62
7
 10
1830.537
 20
-434.844
 30
4136.330
 70
    32
  0
VERTEX
  8
T11SSILL
 62
7
 10
1818.674
 20
-429.115
 30
4136.313
 70
    32
  0
VERTEX
  8
T11SSILL
 62
7
 10
1803.945
 20
-424.665
 30
4136.301
 70
    32
  0
VERTEX
  8
T11SSILL
 62
7
 10
1806.044
 20
-398.944
 30
4136.230
 70
    32
  0
VERTEX
  8
T11SSILL
 62
7
 10
1824.495
 20
-374.829
 30
4136.164
 70
    32
  0
VERTEX
  8
T11SSILL
 62
7
 10
1827.425
 20
-372.197
 30
4136.157
 70
    32
  0
VERTEX
  8
T11SSILL
 62
7
 10
1837.682
 20
-368.616
 30
4136.147
 70
    32
  0
VERTEX
  8
T11SSILL
 62
7
 10
1841.940
 20
-372.501
 30
4136.158
 70
    32
  0
VERTEX
  8
T11SSILL
 62
7
 10
1850.578
 20
-373.716
 30
4136.162
 70
    32
  0
VERTEX
  8
T11SSILL
 62
7
 10
1849.823
 20
-364.382
 30
4136.136
 70
    32
  0
VERTEX
  8
T11SSILL
 62
7
 10
1870.776
 20
-364.110
 30
4136.136
 70
    32
  0
VERTEX
  8
T11SSILL
 62
7
 10
1879.474
 20
-365.723
 30
4136.141
 70
    32
  0
VERTEX
  8
T11SSILL
 62
7
 10
1881.616
 20
-358.061
 30
4136.120
 70
    32
  0
VERTEX
  8
T11SSILL
 62
7
 10
1895.465
 20
-355.932
 30
4136.115
 70
    32
  0
VERTEX
  8
T11SSILL
 62
7
 10
1899.277
 20
-345.322
 30
4136.086
 70
    32
  0
VERTEX
  8
T11SSILL
 62
7
 10
1895.367
 20
-339.526
 30
4136.069
 70
    32
  0
VERTEX
  8
T11SSILL
 62
7
 10
1900.265
 20
-332.039
 30
4136.049
 70
    32
  0
VERTEX
  8
T11SSILL
 62
7
 10
1926.235
 20
-328.628
 30
4136.041
 70
    32
  0
VERTEX
  8
T11SSILL
 62
7
 10
1933.062
 20
-322.188
 30
4136.023
 70
    32
  0
VERTEX
  8
T11SSILL
 62
7
 10
1960.271
 20
-285.377
 30
4135.923
 70
    32
  0
VERTEX
  8
T11SSILL
 62
7
 10
1959.724
 20
-279.990
 30
4135.908
 70
    32
  0
VERTEX
  8
T11SSILL
 62
7
 10
2074.029
 20
-204.831
 30
4135.705
 70
    32
  0
VERTEX
  8
T11SSILL
 62
7
 10
2129.582
 20
-165.297
 30
4135.598
 70
    32
  0
VERTEX
  8
T11SSILL
 62
7
 10
2232.082
 20
-329.869
 30
4137.256
 70
    32
  0
VERTEX
  8
T11SSILL
 62
7
 10
2229.232
 20
-334.671
 30
4137.276
 70
    32
  0
VERTEX
  8
T11SSILL
 62
7
 10
2234.784
 20
-334.120
 30
4137.311
 70
    32
  0
VERTEX
  8
T11SSILL
 62
7
 10
2461.341
 20
-700.564
 30
4141.986
 70
    32
  0
VERTEX
  8
T11SSILL
 62
7
 10
2457.380
 20
-703.649
 30
4141.983
 70
    32
  0
VERTEX
  8
T11SSILL
 62
7
 10
2460.172
 20
-707.629
 30
4142.036
 70
    32
  0
VERTEX
  8
T11SSILL
 62
7
 10
2463.738
 20
-705.750
 30
4142.046
 70
    32
  0
VERTEX
  8
T11SSILL
 62
7
 10
2565.852
 20
-871.227
 30
4144.156
 70
    32
  0
VERTEX
  8
T11SSILL
 62
7
 10
2561.712
 20
-874.219
 30
4144.151
 70
    32
  0
VERTEX
  8
T11SSILL
 62
7
 10
2565.925
 20
-879.272
 30
4144.223
 70
    32
  0
VERTEX
  8
T11SSILL
 62
7
 10
2569.667
 20
-877.596
 30
4144.236
 70
    32
  0
VERTEX
  8
T11SSILL
 62
7
 10
2669.981
 20
-1040.226
 30
4145.816
 70
    32
  0
VERTEX
  8
T11SSILL
 62
7
 10
2668.760
 20
-1044.445
 30
4145.758
 70
    32
  0
VERTEX
  8
T11SSILL
 62
7
 10
2670.581
 20
-1049.107
 30
4145.729
 70
    32
  0
VERTEX
  8
T11SSILL
 62
7
 10
2677.129
 20
-1050.403
 30
4145.789
 70
    32
  0
VERTEX
  8
T11SSILL
 62
7
 10
2775.939
 20
-1211.580
 30
4145.190
 70
    32
  0
VERTEX
  8
T11SSILL
 62
7
 10
2773.689
 20
-1217.353
 30
4145.103
 70
    32
  0
VERTEX
  8
T11SSILL
 62
7
 10
2778.467
 20
-1222.077
 30
4145.107
 70
    32
  0
VERTEX
  8
T11SSILL
 62
7
 10
2782.800
 20
-1221.440
 30
4145.163
 70
    32
  0
VERTEX
  8
T11SSILL
 62
7
 10
2881.741
 20
-1382.909
 30
4144.562
 70
    32
  0
SEQEND
  8
T11SSILL
  0
POLYLINE
  8
T11SSILL
 62
7
 66
     1
 70
     9
  0
VERTEX
  8
T11SSILL
 62
7
 10
1633.593
 20
-2632.649
 30
4135.922
 70
    32
  0
VERTEX
  8
T11SSILL
 62
7
 10
1633.796
 20
-2634.951
 30
4135.919
 70
    32
  0
VERTEX
  8
T11SSILL
 62
7
 10
1625.396
 20
-2643.420
 30
4135.904
 70
    32
  0
VERTEX
  8
T11SSILL
 62
7
 10
1614.086
 20
-2645.735
 30
4135.895
 70
    32
  0
VERTEX
  8
T11SSILL
 62
7
 10
1590.357
 20
-2643.408
 30
4135.887
 70
    32
  0
VERTEX
  8
T11SSILL
 62
7
 10
1539.986
 20
-2629.098
 30
4135.883
 70
    32
  0
VERTEX
  8
T11SSILL
 62
7
 10
1533.027
 20
-2628.155
 30
4135.881
 70
    32
  0
VERTEX
  8
T11SSILL
 62
7
 10
1474.887
 20
-2649.642
 30
4135.826
 70
    32
  0
VERTEX
  8
T11SSILL
 62
7
 10
1319.201
 20
-2590.999
 30
4135.832
 70
    32
  0
VERTEX
  8
T11SSILL
 62
7
 10
1326.215
 20
-2357.379
 30
4136.148
 70
    32
  0
VERTEX
  8
T11SSILL
 62
7
 10
1322.627
 20
-2338.163
 30
4136.172
 70
    32
  0
VERTEX
  8
T11SSILL
 62
7
 10
1386.301
 20
-2399.632
 30
4136.120
 70
    32
  0
SEQEND
  8
T11SSILL
  0
POLYLINE
  8
T11SSILL
 62
7
 66
     1
 70
     9
  0
VERTEX
  8
T11SSILL
 62
7
 10
1116.106
 20
-2483.547
 30
4135.882
 70
    32
  0
VERTEX
  8
T11SSILL
 62
7
 10
1134.855
 20
-2453.852
 30
4135.931
 70
    32
  0
VERTEX
  8
T11SSILL
 62
7
 10
1138.426
 20
-2451.805
 30
4135.935
 70
    32
  0
VERTEX
  8
T11SSILL
 62
7
 10
1142.324
 20
-2455.402
 30
4135.932
 70
    32
  0
VERTEX
  8
T11SSILL
 62
7
 10
1143.127
 20
-2459.340
 30
4135.927
 70
    32
  0
VERTEX
  8
T11SSILL
 62
7
 10
1145.313
 20
-2462.060
 30
4135.925
 70
    32
  0
VERTEX
  8
T11SSILL
 62
7
 10
1149.448
 20
-2464.754
 30
4135.923
 70
    32
  0
VERTEX
  8
T11SSILL
 62
7
 10
1160.798
 20
-2468.702
 30
4135.923
 70
    32
  0
VERTEX
  8
T11SSILL
 62
7
 10
1163.796
 20
-2468.561
 30
4135.924
 70
    32
  0
VERTEX
  8
T11SSILL
 62
7
 10
1165.704
 20
-2465.486
 30
4135.929
 70
    32
  0
VERTEX
  8
T11SSILL
 62
7
 10
1165.992
 20
-2449.636
 30
4135.951
 70
    32
  0
VERTEX
  8
T11SSILL
 62
7
 10
1162.686
 20
-2441.682
 30
4135.960
 70
    32
  0
VERTEX
  8
T11SSILL
 62
7
 10
1160.662
 20
-2432.411
 30
4135.971
 70
    32
  0
VERTEX
  8
T11SSILL
 62
7
 10
1152.189
 20
-2426.825
 30
4135.975
 70
    32
  0
VERTEX
  8
T11SSILL
 62
7
 10
1138.070
 20
-2406.519
 30
4135.996
 70
    32
  0
VERTEX
  8
T11SSILL
 62
7
 10
1151.518
 20
-2380.494
 30
4136.037
 70
    32
  0
VERTEX
  8
T11SSILL
 62
7
 10
1159.331
 20
-2370.391
 30
4136.054
 70
    32
  0
VERTEX
  8
T11SSILL
 62
7
 10
1161.565
 20
-2365.462
 30
4136.061
 70
    32
  0
VERTEX
  8
T11SSILL
 62
7
 10
1161.856
 20
-2361.109
 30
4136.067
 70
    32
  0
VERTEX
  8
T11SSILL
 62
7
 10
1159.701
 20
-2356.939
 30
4136.072
 70
    32
  0
VERTEX
  8
T11SSILL
 62
7
 10
1154.120
 20
-2354.564
 30
4136.073
 70
    32
  0
VERTEX
  8
T11SSILL
 62
7
 10
1147.719
 20
-2354.350
 30
4136.070
 70
    32
  0
VERTEX
  8
T11SSILL
 62
7
 10
1137.012
 20
-2357.393
 30
4136.061
 70
    32
  0
VERTEX
  8
T11SSILL
 62
7
 10
1120.948
 20
-2367.356
 30
4136.040
 70
    32
  0
VERTEX
  8
T11SSILL
 62
7
 10
1105.452
 20
-2352.466
 30
4136.038
 70
    32
  0
VERTEX
  8
T11SSILL
 62
7
 10
1080.443
 20
-2336.505
 30
4136.004
 70
    32
  0
VERTEX
  8
T11SSILL
 62
7
 10
1066.623
 20
-2331.041
 30
4135.988
 70
    32
  0
VERTEX
  8
T11SSILL
 62
7
 10
1043.545
 20
-2328.651
 30
4135.967
 70
    32
  0
VERTEX
  8
T11SSILL
 62
7
 10
1037.309
 20
-2325.835
 30
4135.960
 70
    32
  0
VERTEX
  8
T11SSILL
 62
7
 10
1034.633
 20
-2320.172
 30
4135.953
 70
    32
  0
VERTEX
  8
T11SSILL
 62
7
 10
1031.107
 20
-2292.025
 30
4135.926
 70
    32
  0
VERTEX
  8
T11SSILL
 62
7
 10
1032.341
 20
-2279.661
 30
4135.916
 70
    32
  0
VERTEX
  8
T11SSILL
 62
7
 10
1030.024
 20
-2274.643
 30
4135.910
 70
    32
  0
VERTEX
  8
T11SSILL
 62
7
 10
1017.884
 20
-2204.319
 30
4135.839
 70
    32
  0
VERTEX
  8
T11SSILL
 62
7
 10
1020.156
 20
-2168.696
 30
4135.810
 70
    32
  0
VERTEX
  8
T11SSILL
 62
7
 10
1014.501
 20
-2149.526
 30
4135.789
 70
    32
  0
VERTEX
  8
T11SSILL
 62
7
 10
1018.893
 20
-2145.318
 30
4135.789
 70
    32
  0
VERTEX
  8
T11SSILL
 62
7
 10
1020.470
 20
-2128.650
 30
4135.776
 70
    32
  0
VERTEX
  8
T11SSILL
 62
7
 10
1012.098
 20
-2123.163
 30
4135.764
 70
    32
  0
VERTEX
  8
T11SSILL
 62
7
 10
1007.379
 20
-2117.928
 30
4135.756
 70
    32
  0
VERTEX
  8
T11SSILL
 62
7
 10
998.075
 20
-2102.555
 30
4135.735
 70
    32
  0
VERTEX
  8
T11SSILL
 62
7
 10
996.743
 20
-2096.474
 30
4135.729
 70
    32
  0
VERTEX
  8
T11SSILL
 62
7
 10
1033.358
 20
-2068.289
 30
4135.734
 70
    32
  0
VERTEX
  8
T11SSILL
 62
7
 10
1038.055
 20
-2068.076
 30
4135.738
 70
    32
  0
VERTEX
  8
T11SSILL
 62
7
 10
1084.754
 20
-2113.492
 30
4135.815
 70
    32
  0
VERTEX
  8
T11SSILL
 62
7
 10
1085.788
 20
-2116.027
 30
4135.818
 70
    32
  0
VERTEX
  8
T11SSILL
 62
7
 10
1084.470
 20
-2118.394
 30
4135.819
 70
    32
  0
VERTEX
  8
T11SSILL
 62
7
 10
1069.050
 20
-2112.952
 30
4135.802
 70
    32
  0
VERTEX
  8
T11SSILL
 62
7
 10
1063.207
 20
-2113.380
 30
4135.798
 70
    32
  0
VERTEX
  8
T11SSILL
 62
7
 10
1072.472
 20
-2125.854
 30
4135.816
 70
    32
  0
VERTEX
  8
T11SSILL
 62
7
 10
1050.545
 20
-2142.144
 30
4135.812
 70
    32
  0
VERTEX
  8
T11SSILL
 62
7
 10
1057.960
 20
-2150.843
 30
4135.826
 70
    32
  0
VERTEX
  8
T11SSILL
 62
7
 10
1057.527
 20
-2152.149
 30
4135.826
 70
    32
  0
VERTEX
  8
T11SSILL
 62
7
 10
1053.258
 20
-2154.405
 30
4135.825
 70
    32
  0
VERTEX
  8
T11SSILL
 62
7
 10
1052.934
 20
-2160.009
 30
4135.829
 70
    32
  0
VERTEX
  8
T11SSILL
 62
7
 10
1055.513
 20
-2173.421
 30
4135.843
 70
    32
  0
VERTEX
  8
T11SSILL
 62
7
 10
1058.873
 20
-2177.976
 30
4135.850
 70
    32
  0
VERTEX
  8
T11SSILL
 62
7
 10
1075.927
 20
-2185.995
 30
4135.871
 70
    32
  0
VERTEX
  8
T11SSILL
 62
7
 10
1086.338
 20
-2186.956
 30
4135.880
 70
    32
  0
VERTEX
  8
T11SSILL
 62
7
 10
1092.910
 20
-2184.968
 30
4135.884
 70
    32
  0
VERTEX
  8
T11SSILL
 62
7
 10
1094.135
 20
-2183.152
 30
4135.883
 70
    32
  0
VERTEX
  8
T11SSILL
 62
7
 10
1093.819
 20
-2174.458
 30
4135.875
 70
    32
  0
VERTEX
  8
T11SSILL
 62
7
 10
1076.582
 20
-2141.595
 30
4135.833
 70
    32
  0
VERTEX
  8
T11SSILL
 62
7
 10
1074.224
 20
-2140.977
 30
4135.830
 70
    32
  0
VERTEX
  8
T11SSILL
 62
7
 10
1064.423
 20
-2148.207
 30
4135.829
 70
    32
  0
VERTEX
  8
T11SSILL
 62
7
 10
1061.571
 20
-2144.246
 30
4135.823
 70
    32
  0
VERTEX
  8
T11SSILL
 62
7
 10
1092.278
 20
-2122.889
 30
4135.830
 70
    32
  0
VERTEX
  8
T11SSILL
 62
7
 10
1313.063
 20
-2327.694
 30
4136.182
 70
    32
  0
VERTEX
  8
T11SSILL
 62
7
 10
1318.463
 20
-2357.744
 30
4136.144
 70
    32
  0
VERTEX
  8
T11SSILL
 62
7
 10
1316.059
 20
-2394.817
 30
4136.094
 70
    32
  0
VERTEX
  8
T11SSILL
 62
7
 10
1311.339
 20
-2587.304
 30
4135.834
 70
    32
  0
VERTEX
  8
T11SSILL
 62
7
 10
1214.942
 20
-2550.419
 30
4135.838
 70
    32
  0
VERTEX
  8
T11SSILL
 62
7
 10
1138.285
 20
-2523.342
 30
4135.839
 70
    32
  0
VERTEX
  8
T11SSILL
 62
7
 10
1131.234
 20
-2515.688
 30
4135.846
 70
    32
  0
VERTEX
  8
T11SSILL
 62
7
 10
1117.008
 20
-2487.435
 30
4135.877
 70
    32
  0
SEQEND
  8
T11SSILL
  0
POLYLINE
  8
T11SSILL
 62
7
 66
     1
 70
     9
  0
VERTEX
  8
T11SSILL
 62
7
 10
1417.195
 20
-2157.283
 30
4136.125
 70
    32
  0
VERTEX
  8
T11SSILL
 62
7
 10
1411.008
 20
-2134.952
 30
4136.100
 70
    32
  0
VERTEX
  8
T11SSILL
 62
7
 10
1412.879
 20
-2132.872
 30
4136.100
 70
    32
  0
VERTEX
  8
T11SSILL
 62
7
 10
1486.851
 20
-2119.214
 30
4136.149
 70
    32
  0
VERTEX
  8
T11SSILL
 62
7
 10
1485.443
 20
-2112.027
 30
4136.142
 70
    32
  0
VERTEX
  8
T11SSILL
 62
7
 10
1403.166
 20
-2125.859
 30
4136.086
 70
    32
  0
VERTEX
  8
T11SSILL
 62
7
 10
1380.963
 20
-2069.731
 30
4136.020
 70
    32
  0
VERTEX
  8
T11SSILL
 62
7
 10
1375.448
 20
-2062.306
 30
4136.009
 70
    32
  0
VERTEX
  8
T11SSILL
 62
7
 10
1375.791
 20
-2055.093
 30
4136.003
 70
    32
  0
VERTEX
  8
T11SSILL
 62
7
 10
1367.622
 20
-2040.850
 30
4135.984
 70
    32
  0
VERTEX
  8
T11SSILL
 62
7
 10
1366.654
 20
-2032.956
 30
4135.976
 70
    32
  0
VERTEX
  8
T11SSILL
 62
7
 10
1358.851
 20
-2026.516
 30
4135.964
 70
    32
  0
VERTEX
  8
T11SSILL
 62
7
 10
1352.930
 20
-2015.342
 30
4135.950
 70
    32
  0
VERTEX
  8
T11SSILL
 62
7
 10
1343.367
 20
-2011.730
 30
4135.939
 70
    32
  0
VERTEX
  8
T11SSILL
 62
7
 10
1337.449
 20
-2010.917
 30
4135.933
 70
    32
  0
VERTEX
  8
T11SSILL
 62
7
 10
1332.121
 20
-1982.367
 30
4135.904
 70
    32
  0
VERTEX
  8
T11SSILL
 62
7
 10
1332.778
 20
-1979.404
 30
4135.902
 70
    32
  0
VERTEX
  8
T11SSILL
 62
7
 10
1336.243
 20
-1976.800
 30
4135.903
 70
    32
  0
VERTEX
  8
T11SSILL
 62
7
 10
1336.200
 20
-1973.898
 30
4135.900
 70
    32
  0
VERTEX
  8
T11SSILL
 62
7
 10
1332.570
 20
-1968.747
 30
4135.893
 70
    32
  0
VERTEX
  8
T11SSILL
 62
7
 10
1336.535
 20
-1957.442
 30
4135.886
 70
    32
  0
VERTEX
  8
T11SSILL
 62
7
 10
1462.582
 20
-1819.755
 30
4135.831
 70
    32
  0
VERTEX
  8
T11SSILL
 62
7
 10
1477.654
 20
-1850.835
 30
4135.875
 70
    32
  0
VERTEX
  8
T11SSILL
 62
7
 10
1473.587
 20
-1862.306
 30
4135.884
 70
    32
  0
VERTEX
  8
T11SSILL
 62
7
 10
1479.385
 20
-1871.414
 30
4135.898
 70
    32
  0
VERTEX
  8
T11SSILL
 62
7
 10
1491.463
 20
-1876.366
 30
4135.911
 70
    32
  0
VERTEX
  8
T11SSILL
 62
7
 10
1510.698
 20
-1877.258
 30
4135.925
 70
    32
  0
VERTEX
  8
T11SSILL
 62
7
 10
1557.680
 20
-1853.555
 30
4135.932
 70
    32
  0
VERTEX
  8
T11SSILL
 62
7
 10
1771.887
 20
-2222.535
 30
4136.469
 70
    32
  0
VERTEX
  8
T11SSILL
 62
7
 10
1775.182
 20
-2236.012
 30
4136.485
 70
    32
  0
VERTEX
  8
T11SSILL
 62
7
 10
1771.641
 20
-2247.577
 30
4136.492
 70
    32
  0
VERTEX
  8
T11SSILL
 62
7
 10
1764.259
 20
-2256.555
 30
4136.486
 70
    32
  0
VERTEX
  8
T11SSILL
 62
7
 10
1632.230
 20
-2350.159
 30
4136.299
 70
    32
  0
VERTEX
  8
T11SSILL
 62
7
 10
1618.804
 20
-2348.269
 30
4136.296
 70
    32
  0
VERTEX
  8
T11SSILL
 62
7
 10
1604.463
 20
-2341.186
 30
4136.299
 70
    32
  0
VERTEX
  8
T11SSILL
 62
7
 10
1600.018
 20
-2337.452
 30
4136.302
 70
    32
  0
VERTEX
  8
T11SSILL
 62
7
 10
1592.644
 20
-2309.875
 30
4136.335
 70
    32
  0
VERTEX
  8
T11SSILL
 62
7
 10
1585.665
 20
-2295.834
 30
4136.351
 70
    32
  0
VERTEX
  8
T11SSILL
 62
7
 10
1579.930
 20
-2289.275
 30
4136.357
 70
    32
  0
VERTEX
  8
T11SSILL
 62
7
 10
1572.352
 20
-2291.397
 30
4136.350
 70
    32
  0
VERTEX
  8
T11SSILL
 62
7
 10
1575.950
 20
-2309.711
 30
4136.328
 70
    32
  0
VERTEX
  8
T11SSILL
 62
7
 10
1581.642
 20
-2311.700
 30
4136.328
 70
    32
  0
VERTEX
  8
T11SSILL
 62
7
 10
1594.653
 20
-2346.889
 30
4136.286
 70
    32
  0
VERTEX
  8
T11SSILL
 62
7
 10
1620.038
 20
-2356.805
 30
4136.285
 70
    32
  0
VERTEX
  8
T11SSILL
 62
7
 10
1609.763
 20
-2365.140
 30
4136.269
 70
    32
  0
VERTEX
  8
T11SSILL
 62
7
 10
1612.692
 20
-2373.606
 30
4136.259
 70
    32
  0
VERTEX
  8
T11SSILL
 62
7
 10
1615.761
 20
-2371.308
 30
4136.264
 70
    32
  0
VERTEX
  8
T11SSILL
 62
7
 10
1645.031
 20
-2428.262
 30
4136.201
 70
    32
  0
VERTEX
  8
T11SSILL
 62
7
 10
1664.992
 20
-2418.879
 30
4136.223
 70
    32
  0
VERTEX
  8
T11SSILL
 62
7
 10
1662.081
 20
-2411.424
 30
4136.231
 70
    32
  0
VERTEX
  8
T11SSILL
 62
7
 10
1655.728
 20
-2414.835
 30
4136.224
 70
    32
  0
VERTEX
  8
T11SSILL
 62
7
 10
1650.072
 20
-2415.142
 30
4136.221
 70
    32
  0
VERTEX
  8
T11SSILL
 62
7
 10
1625.887
 20
-2372.359
 30
4136.267
 70
    32
  0
VERTEX
  8
T11SSILL
 62
7
 10
1628.256
 20
-2361.104
 30
4136.283
 70
    32
  0
VERTEX
  8
T11SSILL
 62
7
 10
1770.469
 20
-2259.516
 30
4136.485
 70
    32
  0
VERTEX
  8
T11SSILL
 62
7
 10
1778.915
 20
-2249.494
 30
4136.500
 70
    32
  0
VERTEX
  8
T11SSILL
 62
7
 10
1782.281
 20
-2237.840
 30
4136.492
 70
    32
  0
VERTEX
  8
T11SSILL
 62
7
 10
1849.752
 20
-2355.551
 30
4136.397
 70
    32
  0
VERTEX
  8
T11SSILL
 62
7
 10
1970.549
 20
-2623.741
 30
4136.100
 70
    32
  0
VERTEX
  8
T11SSILL
 62
7
 10
1973.066
 20
-2629.792
 30
4136.093
 70
    32
  0
VERTEX
  8
T11SSILL
 62
7
 10
1973.141
 20
-2638.240
 30
4136.082
 70
    32
  0
VERTEX
  8
T11SSILL
 62
7
 10
1966.198
 20
-2649.391
 30
4136.062
 70
    32
  0
VERTEX
  8
T11SSILL
 62
7
 10
1944.763
 20
-2663.926
 30
4136.030
 70
    32
  0
VERTEX
  8
T11SSILL
 62
7
 10
1935.284
 20
-2647.023
 30
4136.047
 70
    32
  0
VERTEX
  8
T11SSILL
 62
7
 10
1930.717
 20
-2648.031
 30
4136.043
 70
    32
  0
VERTEX
  8
T11SSILL
 62
7
 10
1853.468
 20
-2711.024
 30
4136.048
 70
    32
  0
VERTEX
  8
T11SSILL
 62
7
 10
1838.496
 20
-2719.869
 30
4136.070
 70
    32
  0
VERTEX
  8
T11SSILL
 62
7
 10
1822.670
 20
-2701.790
 30
4136.005
 70
    32
  0
VERTEX
  8
T11SSILL
 62
7
 10
1817.429
 20
-2706.324
 30
4136.017
 70
    32
  0
VERTEX
  8
T11SSILL
 62
7
 10
1830.546
 20
-2726.628
 30
4136.089
 70
    32
  0
VERTEX
  8
T11SSILL
 62
7
 10
1813.848
 20
-2739.449
 30
4136.124
 70
    32
  0
VERTEX
  8
T11SSILL
 62
7
 10
1785.886
 20
-2752.369
 30
4136.154
 70
    32
  0
VERTEX
  8
T11SSILL
 62
7
 10
1770.351
 20
-2747.313
 30
4136.131
 70
    32
  0
VERTEX
  8
T11SSILL
 62
7
 10
1479.147
 20
-2472.242
 30
4136.065
 70
    32
  0
VERTEX
  8
T11SSILL
 62
7
 10
1530.962
 20
-2434.394
 30
4136.140
 70
    32
  0
VERTEX
  8
T11SSILL
 62
7
 10
1525.599
 20
-2427.993
 30
4136.146
 70
    32
  0
VERTEX
  8
T11SSILL
 62
7
 10
1474.485
 20
-2466.792
 30
4136.070
 70
    32
  0
VERTEX
  8
T11SSILL
 62
7
 10
1411.499
 20
-2405.994
 30
4136.123
 70
    32
  0
VERTEX
  8
T11SSILL
 62
7
 10
1415.593
 20
-2396.429
 30
4136.137
 70
    32
  0
VERTEX
  8
T11SSILL
 62
7
 10
1419.742
 20
-2391.369
 30
4136.146
 70
    32
  0
VERTEX
  8
T11SSILL
 62
7
 10
1422.994
 20
-2389.964
 30
4136.149
 70
    32
  0
VERTEX
  8
T11SSILL
 62
7
 10
1430.009
 20
-2396.363
 30
4136.144
 70
    32
  0
VERTEX
  8
T11SSILL
 62
7
 10
1436.969
 20
-2398.107
 30
4136.145
 70
    32
  0
VERTEX
  8
T11SSILL
 62
7
 10
1441.329
 20
-2402.858
 30
4136.141
 70
    32
  0
VERTEX
  8
T11SSILL
 62
7
 10
1455.843
 20
-2401.791
 30
4136.149
 70
    32
  0
VERTEX
  8
T11SSILL
 62
7
 10
1465.561
 20
-2408.137
 30
4136.145
 70
    32
  0
VERTEX
  8
T11SSILL
 62
7
 10
1474.170
 20
-2407.226
 30
4136.150
 70
    32
  0
VERTEX
  8
T11SSILL
 62
7
 10
1474.767
 20
-2403.872
 30
4136.155
 70
    32
  0
VERTEX
  8
T11SSILL
 62
7
 10
1479.232
 20
-2398.806
 30
4136.164
 70
    32
  0
VERTEX
  8
T11SSILL
 62
7
 10
1476.144
 20
-2386.339
 30
4136.179
 70
    32
  0
VERTEX
  8
T11SSILL
 62
7
 10
1466.959
 20
-2367.707
 30
4136.200
 70
    32
  0
VERTEX
  8
T11SSILL
 62
7
 10
1458.534
 20
-2356.470
 30
4136.211
 70
    32
  0
VERTEX
  8
T11SSILL
 62
7
 10
1448.263
 20
-2352.368
 30
4136.211
 70
    32
  0
VERTEX
  8
T11SSILL
 62
7
 10
1444.767
 20
-2346.114
 30
4136.218
 70
    32
  0
VERTEX
  8
T11SSILL
 62
7
 10
1441.849
 20
-2334.946
 30
4136.232
 70
    32
  0
VERTEX
  8
T11SSILL
 62
7
 10
1445.002
 20
-2331.546
 30
4136.238
 70
    32
  0
VERTEX
  8
T11SSILL
 62
7
 10
1455.658
 20
-2331.237
 30
4136.243
 70
    32
  0
VERTEX
  8
T11SSILL
 62
7
 10
1455.894
 20
-2323.526
 30
4136.254
 70
    32
  0
VERTEX
  8
T11SSILL
 62
7
 10
1440.077
 20
-2323.460
 30
4136.246
 70
    32
  0
VERTEX
  8
T11SSILL
 62
7
 10
1435.782
 20
-2310.561
 30
4136.262
 70
    32
  0
VERTEX
  8
T11SSILL
 62
7
 10
1441.845
 20
-2297.508
 30
4136.266
 70
    32
  0
VERTEX
  8
T11SSILL
 62
7
 10
1443.908
 20
-2288.118
 30
4136.260
 70
    32
  0
VERTEX
  8
T11SSILL
 62
7
 10
1437.907
 20
-2271.591
 30
4136.240
 70
    32
  0
VERTEX
  8
T11SSILL
 62
7
 10
1431.496
 20
-2267.882
 30
4136.232
 70
    32
  0
VERTEX
  8
T11SSILL
 62
7
 10
1427.053
 20
-2251.731
 30
4136.214
 70
    32
  0
VERTEX
  8
T11SSILL
 62
7
 10
1428.422
 20
-2225.885
 30
4136.193
 70
    32
  0
VERTEX
  8
T11SSILL
 62
7
 10
1420.180
 20
-2199.981
 30
4136.164
 70
    32
  0
VERTEX
  8
T11SSILL
 62
7
 10
1420.907
 20
-2161.232
 30
4136.131
 70
    32
  0
SEQEND
  8
T11SSILL
  0
POLYLINE
  8
T11SSILL
 62
7
 66
     1
 70
     9
  0
VERTEX
  8
T11SSILL
 62
7
 10
947.771
 20
-2470.906
 30
4135.821
 70
    32
  0
VERTEX
  8
T11SSILL
 62
7
 10
952.030
 20
-2471.698
 30
4135.822
 70
    32
  0
VERTEX
  8
T11SSILL
 62
7
 10
982.599
 20
-2447.444
 30
4135.869
 70
    32
  0
VERTEX
  8
T11SSILL
 62
7
 10
980.698
 20
-2443.570
 30
4135.873
 70
    32
  0
VERTEX
  8
T11SSILL
 62
7
 10
976.211
 20
-2440.731
 30
4135.875
 70
    32
  0
VERTEX
  8
T11SSILL
 62
7
 10
970.594
 20
-2443.155
 30
4135.869
 70
    32
  0
VERTEX
  8
T11SSILL
 62
7
 10
968.438
 20
-2442.684
 30
4135.869
 70
    32
  0
VERTEX
  8
T11SSILL
 62
7
 10
964.596
 20
-2435.737
 30
4135.876
 70
    32
  0
VERTEX
  8
T11SSILL
 62
7
 10
934.290
 20
-2405.000
 30
4135.903
 70
    32
  0
VERTEX
  8
T11SSILL
 62
7
 10
934.134
 20
-2400.802
 30
4135.909
 70
    32
  0
VERTEX
  8
T11SSILL
 62
7
 10
935.683
 20
-2397.032
 30
4135.915
 70
    32
  0
VERTEX
  8
T11SSILL
 62
7
 10
940.610
 20
-2391.667
 30
4135.924
 70
    32
  0
VERTEX
  8
T11SSILL
 62
7
 10
940.527
 20
-2389.219
 30
4135.927
 70
    32
  0
VERTEX
  8
T11SSILL
 62
7
 10
927.403
 20
-2372.298
 30
4135.910
 70
    32
  0
VERTEX
  8
T11SSILL
 62
7
 10
875.905
 20
-2408.981
 30
4135.871
 70
    32
  0
VERTEX
  8
T11SSILL
 62
7
 10
874.846
 20
-2412.045
 30
4135.867
 70
    32
  0
VERTEX
  8
T11SSILL
 62
7
 10
875.778
 20
-2414.432
 30
4135.864
 70
    32
  0
SEQEND
  8
T11SSILL
  0
POLYLINE
  8
T11SSILL
 62
7
 66
     1
 70
     9
  0
VERTEX
  8
T11SSILL
 62
7
 10
1078.968
 20
-2513.739
 30
4135.825
 70
    32
  0
VERTEX
  8
T11SSILL
 62
7
 10
1068.107
 20
-2508.986
 30
4135.826
 70
    32
  0
VERTEX
  8
T11SSILL
 62
7
 10
1038.238
 20
-2481.041
 30
4135.850
 70
    32
  0
VERTEX
  8
T11SSILL
 62
7
 10
1026.073
 20
-2472.256
 30
4135.856
 70
    32
  0
VERTEX
  8
T11SSILL
 62
7
 10
1018.822
 20
-2472.053
 30
4135.853
 70
    32
  0
VERTEX
  8
T11SSILL
 62
7
 10
1013.844
 20
-2469.921
 30
4135.853
 70
    32
  0
VERTEX
  8
T11SSILL
 62
7
 10
1010.053
 20
-2470.521
 30
4135.851
 70
    32
  0
VERTEX
  8
T11SSILL
 62
7
 10
1006.436
 20
-2472.969
 30
4135.846
 70
    32
  0
VERTEX
  8
T11SSILL
 62
7
 10
997.856
 20
-2474.284
 30
4135.840
 70
    32
  0
VERTEX
  8
T11SSILL
 62
7
 10
984.481
 20
-2457.316
 30
4135.857
 70
    32
  0
VERTEX
  8
T11SSILL
 62
7
 10
981.568
 20
-2456.256
 30
4135.857
 70
    32
  0
VERTEX
  8
T11SSILL
 62
7
 10
976.230
 20
-2460.826
 30
4135.848
 70
    32
  0
VERTEX
  8
T11SSILL
 62
7
 10
975.590
 20
-2483.930
 30
4135.817
 70
    32
  0
VERTEX
  8
T11SSILL
 62
7
 10
976.983
 20
-2490.960
 30
4135.808
 70
    32
  0
VERTEX
  8
T11SSILL
 62
7
 10
1014.511
 20
-2523.451
 30
4135.782
 70
    32
  0
VERTEX
  8
T11SSILL
 62
7
 10
1044.188
 20
-2533.351
 30
4135.782
 70
    32
  0
VERTEX
  8
T11SSILL
 62
7
 10
1053.159
 20
-2531.331
 30
4135.789
 70
    32
  0
VERTEX
  8
T11SSILL
 62
7
 10
1079.905
 20
-2516.476
 30
4135.821
 70
    32
  0
SEQEND
  8
T11SSILL
  0
POLYLINE
  8
T11SSILL
 62
7
 66
     1
 70
     9
  0
VERTEX
  8
T11SSILL
 62
7
 10
1088.870
 20
-2491.661
 30
4135.859
 70
    32
  0
VERTEX
  8
T11SSILL
 62
7
 10
1085.331
 20
-2492.408
 30
4135.856
 70
    32
  0
VERTEX
  8
T11SSILL
 62
7
 10
1074.177
 20
-2480.760
 30
4135.867
 70
    32
  0
VERTEX
  8
T11SSILL
 62
7
 10
1058.666
 20
-2468.520
 30
4135.876
 70
    32
  0
VERTEX
  8
T11SSILL
 62
7
 10
1050.661
 20
-2460.529
 30
4135.883
 70
    32
  0
VERTEX
  8
T11SSILL
 62
7
 10
1046.505
 20
-2448.837
 30
4135.897
 70
    32
  0
VERTEX
  8
T11SSILL
 62
7
 10
1037.723
 20
-2446.305
 30
4135.896
 70
    32
  0
VERTEX
  8
T11SSILL
 62
7
 10
1032.446
 20
-2440.477
 30
4135.901
 70
    32
  0
VERTEX
  8
T11SSILL
 62
7
 10
1029.082
 20
-2439.422
 30
4135.901
 70
    32
  0
VERTEX
  8
T11SSILL
 62
7
 10
1013.267
 20
-2441.784
 30
4135.891
 70
    32
  0
VERTEX
  8
T11SSILL
 62
7
 10
1006.182
 20
-2439.029
 30
4135.891
 70
    32
  0
VERTEX
  8
T11SSILL
 62
7
 10
1018.594
 20
-2428.915
 30
4135.910
 70
    32
  0
VERTEX
  8
T11SSILL
 62
7
 10
1022.302
 20
-2433.314
 30
4135.906
 70
    32
  0
VERTEX
  8
T11SSILL
 62
7
 10
1034.715
 20
-2423.300
 30
4135.925
 70
    32
  0
VERTEX
  8
T11SSILL
 62
7
 10
1043.553
 20
-2433.680
 30
4135.916
 70
    32
  0
VERTEX
  8
T11SSILL
 62
7
 10
1057.853
 20
-2441.386
 30
4135.912
 70
    32
  0
VERTEX
  8
T11SSILL
 62
7
 10
1063.051
 20
-2441.317
 30
4135.914
 70
    32
  0
VERTEX
  8
T11SSILL
 62
7
 10
1068.457
 20
-2449.293
 30
4135.906
 70
    32
  0
VERTEX
  8
T11SSILL
 62
7
 10
1076.410
 20
-2449.636
 30
4135.909
 70
    32
  0
VERTEX
  8
T11SSILL
 62
7
 10
1080.199
 20
-2452.635
 30
4135.907
 70
    32
  0
VERTEX
  8
T11SSILL
 62
7
 10
1086.204
 20
-2453.104
 30
4135.909
 70
    32
  0
VERTEX
  8
T11SSILL
 62
7
 10
1105.748
 20
-2464.140
 30
4135.903
 70
    32
  0
VERTEX
  8
T11SSILL
 62
7
 10
1106.551
 20
-2468.079
 30
4135.899
 70
    32
  0
VERTEX
  8
T11SSILL
 62
7
 10
1092.197
 20
-2489.967
 30
4135.863
 70
    32
  0
SEQEND
  8
T11SSILL
  0
POLYLINE
  8
T11SSILL
 62
7
 66
     1
 70
     9
  0
VERTEX
  8
T11SSILL
 62
7
 10
1680.325
 20
-2842.278
 30
4136.402
 70
    32
  0
VERTEX
  8
T11SSILL
 62
7
 10
1674.419
 20
-2842.835
 30
4136.401
 70
    32
  0
VERTEX
  8
T11SSILL
 62
7
 10
1668.223
 20
-2852.753
 30
4136.431
 70
    32
  0
VERTEX
  8
T11SSILL
 62
7
 10
1675.844
 20
-2864.057
 30
4136.471
 70
    32
  0
VERTEX
  8
T11SSILL
 62
7
 10
1684.012
 20
-2872.257
 30
4136.501
 70
    32
  0
VERTEX
  8
T11SSILL
 62
7
 10
1692.074
 20
-2874.901
 30
4136.513
 70
    32
  0
VERTEX
  8
T11SSILL
 62
7
 10
1698.129
 20
-2873.443
 30
4136.511
 70
    32
  0
VERTEX
  8
T11SSILL
 62
7
 10
1700.271
 20
-2864.280
 30
4136.482
 70
    32
  0
VERTEX
  8
T11SSILL
 62
7
 10
1696.262
 20
-2860.180
 30
4136.467
 70
    32
  0
VERTEX
  8
T11SSILL
 62
7
 10
1696.403
 20
-2851.671
 30
4136.439
 70
    32
  0
VERTEX
  8
T11SSILL
 62
7
 10
1685.086
 20
-2847.328
 30
4136.420
 70
    32
  0
SEQEND
  8
T11SSILL
  0
POLYLINE
  8
T11SSILL
 62
7
 66
     1
 70
     9
  0
VERTEX
  8
T11SSILL
 62
7
 10
1571.884
 20
-2731.476
 30
4135.994
 70
    32
  0
VERTEX
  8
T11SSILL
 62
7
 10
1581.240
 20
-2727.961
 30
4135.986
 70
    32
  0
VERTEX
  8
T11SSILL
 62
7
 10
1577.320
 20
-2713.750
 30
4135.938
 70
    32
  0
VERTEX
  8
T11SSILL
 62
7
 10
1568.638
 20
-2692.887
 30
4135.866
 70
    32
  0
VERTEX
  8
T11SSILL
 62
7
 10
1546.603
 20
-2683.601
 30
4135.827
 70
    32
  0
VERTEX
  8
T11SSILL
 62
7
 10
1566.921
 20
-2724.974
 30
4135.970
 70
    32
  0
SEQEND
  8
T11SSILL
  0
POLYLINE
  8
T11SSILL
 62
7
 66
     1
 70
     9
  0
VERTEX
  8
T11SSILL
 62
7
 10
1570.230
 20
-2684.626
 30
4135.840
 70
    32
  0
VERTEX
  8
T11SSILL
 62
7
 10
1593.498
 20
-2677.142
 30
4135.844
 70
    32
  0
VERTEX
  8
T11SSILL
 62
7
 10
1603.744
 20
-2663.966
 30
4135.866
 70
    32
  0
VERTEX
  8
T11SSILL
 62
7
 10
1584.177
 20
-2667.542
 30
4135.852
 70
    32
  0
VERTEX
  8
T11SSILL
 62
7
 10
1576.468
 20
-2667.400
 30
4135.849
 70
    32
  0
VERTEX
  8
T11SSILL
 62
7
 10
1574.875
 20
-2674.710
 30
4135.838
 70
    32
  0
VERTEX
  8
T11SSILL
 62
7
 10
1571.979
 20
-2680.892
 30
4135.829
 70
    32
  0
SEQEND
  8
T11SSILL
  0
POLYLINE
  8
T11SSILL
 62
7
 66
     1
 70
     9
  0
VERTEX
  8
T11SSILL
 62
7
 10
1786.859
 20
-3039.678
 30
4137.091
 70
    32
  0
VERTEX
  8
T11SSILL
 62
7
 10
1791.622
 20
-3046.130
 30
4137.115
 70
    32
  0
VERTEX
  8
T11SSILL
 62
7
 10
1800.586
 20
-3050.625
 30
4137.133
 70
    32
  0
VERTEX
  8
T11SSILL
 62
7
 10
1811.151
 20
-3053.517
 30
4137.147
 70
    32
  0
VERTEX
  8
T11SSILL
 62
7
 10
1829.209
 20
-3042.835
 30
4137.120
 70
    32
  0
VERTEX
  8
T11SSILL
 62
7
 10
1834.656
 20
-3034.069
 30
4137.094
 70
    32
  0
VERTEX
  8
T11SSILL
 62
7
 10
1826.895
 20
-3031.825
 30
4137.083
 70
    32
  0
VERTEX
  8
T11SSILL
 62
7
 10
1824.086
 20
-3026.973
 30
4137.066
 70
    32
  0
VERTEX
  8
T11SSILL
 62
7
 10
1823.028
 20
-3020.467
 30
4137.044
 70
    32
  0
VERTEX
  8
T11SSILL
 62
7
 10
1812.207
 20
-3012.570
 30
4137.014
 70
    32
  0
VERTEX
  8
T11SSILL
 62
7
 10
1792.795
 20
-3020.951
 30
4137.033
 70
    32
  0
VERTEX
  8
T11SSILL
 62
7
 10
1781.341
 20
-3028.722
 30
4137.053
 70
    32
  0
SEQEND
  8
T11SSILL
  0
POLYLINE
  8
T11SSILL
 62
7
 66
     1
 70
     9
  0
VERTEX
  8
T11SSILL
 62
7
 10
1283.092
 20
-2183.043
 30
4136.037
 70
    32
  0
VERTEX
  8
T11SSILL
 62
7
 10
1269.511
 20
-2100.762
 30
4135.955
 70
    32
  0
VERTEX
  8
T11SSILL
 62
7
 10
1266.389
 20
-2096.104
 30
4135.949
 70
    32
  0
VERTEX
  8
T11SSILL
 62
7
 10
1264.350
 20
-2086.874
 30
4135.939
 70
    32
  0
VERTEX
  8
T11SSILL
 62
7
 10
1242.541
 20
-2060.721
 30
4135.899
 70
    32
  0
VERTEX
  8
T11SSILL
 62
7
 10
1156.932
 20
-2157.716
 30
4135.912
 70
    32
  0
VERTEX
  8
T11SSILL
 62
7
 10
1156.397
 20
-2166.271
 30
4135.919
 70
    32
  0
VERTEX
  8
T11SSILL
 62
7
 10
1214.509
 20
-2219.245
 30
4136.013
 70
    32
  0
VERTEX
  8
T11SSILL
 62
7
 10
1308.891
 20
-2309.588
 30
4136.168
 70
    32
  0
VERTEX
  8
T11SSILL
 62
7
 10
1292.988
 20
-2225.990
 30
4136.083
 70
    32
  0
SEQEND
  8
T11SSILL
  0
POLYLINE
  8
T11SSILL
 62
7
 66
     1
 70
     9
  0
VERTEX
  8
T11SSILL
 62
7
 10
1110.460
 20
-1160.363
 30
4134.892
 70
    32
  0
VERTEX
  8
T11SSILL
 62
7
 10
1042.238
 20
-1117.903
 30
4134.947
 70
    32
  0
VERTEX
  8
T11SSILL
 62
7
 10
682.333
 20
-1321.964
 30
4134.798
 70
    32
  0
VERTEX
  8
T11SSILL
 62
7
 10
677.597
 20
-1330.854
 30
4134.783
 70
    32
  0
VERTEX
  8
T11SSILL
 62
7
 10
677.704
 20
-1343.078
 30
4134.794
 70
    32
  0
VERTEX
  8
T11SSILL
 62
7
 10
771.379
 20
-1522.340
 30
4135.048
 70
    32
  0
VERTEX
  8
T11SSILL
 62
7
 10
796.191
 20
-1530.129
 30
4135.073
 70
    32
  0
VERTEX
  8
T11SSILL
 62
7
 10
1043.181
 20
-1500.373
 30
4135.208
 70
    32
  0
VERTEX
  8
T11SSILL
 62
7
 10
1217.688
 20
-1686.721
 30
4135.524
 70
    32
  0
VERTEX
  8
T11SSILL
 62
7
 10
1222.348
 20
-1686.186
 30
4135.527
 70
    32
  0
VERTEX
  8
T11SSILL
 62
7
 10
1408.633
 20
-1559.111
 30
4135.531
 70
    32
  0
VERTEX
  8
T11SSILL
 62
7
 10
1258.520
 20
-1305.858
 30
4135.147
 70
    32
  0
VERTEX
  8
T11SSILL
 62
7
 10
1178.895
 20
-1169.140
 30
4134.948
 70
    32
  0
VERTEX
  8
T11SSILL
 62
7
 10
1142.446
 20
-1143.340
 30
4134.896
 70
    32
  0
VERTEX
  8
T11SSILL
 62
7
 10
1137.271
 20
-1150.778
 30
4134.900
 70
    32
  0
VERTEX
  8
T11SSILL
 62
7
 10
1142.551
 20
-1154.245
 30
4134.908
 70
    32
  0
VERTEX
  8
T11SSILL
 62
7
 10
1130.267
 20
-1172.908
 30
4134.919
 70
    32
  0
SEQEND
  8
T11SSILL
  0
POLYLINE
  8
T11SSILL
 62
7
 66
     1
 70
     9
  0
VERTEX
  8
T11SSILL
 62
7
 10
493.792
 20
-1159.383
 30
4135.297
 70
    32
  0
VERTEX
  8
T11SSILL
 62
7
 10
498.020
 20
-1163.773
 30
4135.284
 70
    32
  0
VERTEX
  8
T11SSILL
 62
7
 10
536.758
 20
-1191.328
 30
4135.194
 70
    32
  0
VERTEX
  8
T11SSILL
 62
7
 10
548.827
 20
-1204.941
 30
4135.155
 70
    32
  0
VERTEX
  8
T11SSILL
 62
7
 10
545.228
 20
-1208.816
 30
4135.150
 70
    32
  0
VERTEX
  8
T11SSILL
 62
7
 10
513.400
 20
-1214.318
 30
4135.164
 70
    32
  0
VERTEX
  8
T11SSILL
 62
7
 10
479.396
 20
-1233.718
 30
4135.149
 70
    32
  0
VERTEX
  8
T11SSILL
 62
7
 10
424.369
 20
-1250.865
 30
4135.157
 70
    32
  0
VERTEX
  8
T11SSILL
 62
7
 10
369.350
 20
-1272.936
 30
4135.180
 70
    32
  0
VERTEX
  8
T11SSILL
 62
7
 10
353.966
 20
-1277.005
 30
4135.195
 70
    32
  0
VERTEX
  8
T11SSILL
 62
7
 10
323.746
 20
-1298.159
 30
4135.206
 70
    32
  0
VERTEX
  8
T11SSILL
 62
7
 10
293.365
 20
-1329.074
 30
4135.203
 70
    32
  0
VERTEX
  8
T11SSILL
 62
7
 10
252.407
 20
-1345.056
 30
4135.235
 70
    32
  0
VERTEX
  8
T11SSILL
 62
7
 10
248.184
 20
-1343.743
 30
4135.243
 70
    32
  0
VERTEX
  8
T11SSILL
 62
7
 10
183.771
 20
-1092.321
 30
4135.695
 70
    32
  0
VERTEX
  8
T11SSILL
 62
7
 10
186.306
 20
-1082.204
 30
4135.709
 70
    32
  0
VERTEX
  8
T11SSILL
 62
7
 10
272.441
 20
-981.116
 30
4135.856
 70
    32
  0
VERTEX
  8
T11SSILL
 62
7
 10
324.541
 20
-1013.319
 30
4135.746
 70
    32
  0
VERTEX
  8
T11SSILL
 62
7
 10
375.437
 20
-1057.638
 30
4135.610
 70
    32
  0
SEQEND
  8
T11SSILL
  0
POLYLINE
  8
T11SSILL
 62
7
 66
     1
 70
     9
  0
VERTEX
  8
T11SSILL
 62
7
 10
645.645
 20
-2207.057
 30
4135.537
 70
    32
  0
VERTEX
  8
T11SSILL
 62
7
 10
669.173
 20
-2194.544
 30
4135.546
 70
    32
  0
VERTEX
  8
T11SSILL
 62
7
 10
671.008
 20
-2186.021
 30
4135.540
 70
    32
  0
VERTEX
  8
T11SSILL
 62
7
 10
679.211
 20
-2178.863
 30
4135.540
 70
    32
  0
VERTEX
  8
T11SSILL
 62
7
 10
679.510
 20
-2171.310
 30
4135.534
 70
    32
  0
VERTEX
  8
T11SSILL
 62
7
 10
684.407
 20
-2163.696
 30
4135.531
 70
    32
  0
VERTEX
  8
T11SSILL
 62
7
 10
683.654
 20
-2152.309
 30
4135.521
 70
    32
  0
VERTEX
  8
T11SSILL
 62
7
 10
680.598
 20
-2148.050
 30
4135.515
 70
    32
  0
VERTEX
  8
T11SSILL
 62
7
 10
677.920
 20
-2149.636
 30
4135.514
 70
    32
  0
VERTEX
  8
T11SSILL
 62
7
 10
674.613
 20
-2149.080
 30
4135.511
 70
    32
  0
VERTEX
  8
T11SSILL
 62
7
 10
658.627
 20
-2131.248
 30
4135.482
 70
    32
  0
VERTEX
  8
T11SSILL
 62
7
 10
647.586
 20
-2128.047
 30
4135.471
 70
    32
  0
VERTEX
  8
T11SSILL
 62
7
 10
637.675
 20
-2134.528
 30
4135.468
 70
    32
  0
VERTEX
  8
T11SSILL
 62
7
 10
630.301
 20
-2136.327
 30
4135.464
 70
    32
  0
VERTEX
  8
T11SSILL
 62
7
 10
624.745
 20
-2135.801
 30
4135.459
 70
    32
  0
VERTEX
  8
T11SSILL
 62
7
 10
618.054
 20
-2128.892
 30
4135.447
 70
    32
  0
VERTEX
  8
T11SSILL
 62
7
 10
605.565
 20
-2110.913
 30
4135.421
 70
    32
  0
VERTEX
  8
T11SSILL
 62
7
 10
599.264
 20
-2084.603
 30
4135.394
 70
    32
  0
VERTEX
  8
T11SSILL
 62
7
 10
582.951
 20
-2087.121
 30
4135.382
 70
    32
  0
VERTEX
  8
T11SSILL
 62
7
 10
573.036
 20
-2093.353
 30
4135.380
 70
    32
  0
VERTEX
  8
T11SSILL
 62
7
 10
625.869
 20
-2208.522
 30
4135.522
 70
    32
  0
VERTEX
  8
T11SSILL
 62
7
 10
636.335
 20
-2209.881
 30
4135.532
 70
    32
  0
SEQEND
  8
T11SSILL
  0
POLYLINE
  8
T11SSILL
 62
7
 66
     1
 70
     9
  0
VERTEX
  8
T11SSILL
 62
7
 10
612.733
 20
-1849.448
 30
4135.202
 70
    32
  0
VERTEX
  8
T11SSILL
 62
7
 10
612.847
 20
-1842.590
 30
4135.196
 70
    32
  0
VERTEX
  8
T11SSILL
 62
7
 10
600.943
 20
-1832.476
 30
4135.177
 70
    32
  0
VERTEX
  8
T11SSILL
 62
7
 10
502.192
 20
-1883.744
 30
4135.141
 70
    32
  0
VERTEX
  8
T11SSILL
 62
7
 10
521.732
 20
-1913.176
 30
4135.182
 70
    32
  0
VERTEX
  8
T11SSILL
 62
7
 10
529.743
 20
-1917.818
 30
4135.193
 70
    32
  0
VERTEX
  8
T11SSILL
 62
7
 10
543.097
 20
-1918.339
 30
4135.204
 70
    32
  0
VERTEX
  8
T11SSILL
 62
7
 10
561.114
 20
-1938.543
 30
4135.236
 70
    32
  0
VERTEX
  8
T11SSILL
 62
7
 10
573.833
 20
-1955.070
 30
4135.261
 70
    32
  0
VERTEX
  8
T11SSILL
 62
7
 10
577.161
 20
-1957.225
 30
4135.266
 70
    32
  0
VERTEX
  8
T11SSILL
 62
7
 10
581.045
 20
-1956.073
 30
4135.268
 70
    32
  0
VERTEX
  8
T11SSILL
 62
7
 10
610.656
 20
-1931.181
 30
4135.271
 70
    32
  0
VERTEX
  8
T11SSILL
 62
7
 10
612.678
 20
-1925.405
 30
4135.267
 70
    32
  0
VERTEX
  8
T11SSILL
 62
7
 10
611.094
 20
-1919.128
 30
4135.260
 70
    32
  0
VERTEX
  8
T11SSILL
 62
7
 10
608.969
 20
-1892.089
 30
4135.235
 70
    32
  0
VERTEX
  8
T11SSILL
 62
7
 10
604.143
 20
-1882.540
 30
4135.223
 70
    32
  0
VERTEX
  8
T11SSILL
 62
7
 10
601.487
 20
-1858.550
 30
4135.200
 70
    32
  0
SEQEND
  8
T11SSILL
  0
POLYLINE
  8
T11SSILL
 62
7
 66
     1
 70
     9
  0
VERTEX
  8
T11SSILL
 62
7
 10
576.672
 20
-1784.189
 30
4135.116
 70
    32
  0
VERTEX
  8
T11SSILL
 62
7
 10
576.624
 20
-1792.248
 30
4135.123
 70
    32
  0
VERTEX
  8
T11SSILL
 62
7
 10
573.468
 20
-1795.992
 30
4135.123
 70
    32
  0
VERTEX
  8
T11SSILL
 62
7
 10
576.361
 20
-1803.162
 30
4135.132
 70
    32
  0
VERTEX
  8
T11SSILL
 62
7
 10
555.453
 20
-1819.943
 30
4135.129
 70
    32
  0
VERTEX
  8
T11SSILL
 62
7
 10
551.070
 20
-1817.697
 30
4135.124
 70
    32
  0
VERTEX
  8
T11SSILL
 62
7
 10
544.803
 20
-1808.917
 30
4135.111
 70
    32
  0
VERTEX
  8
T11SSILL
 62
7
 10
549.460
 20
-1801.201
 30
4135.108
 70
    32
  0
VERTEX
  8
T11SSILL
 62
7
 10
548.472
 20
-1798.310
 30
4135.105
 70
    32
  0
VERTEX
  8
T11SSILL
 62
7
 10
536.194
 20
-1781.248
 30
4135.080
 70
    32
  0
VERTEX
  8
T11SSILL
 62
7
 10
528.103
 20
-1778.648
 30
4135.071
 70
    32
  0
VERTEX
  8
T11SSILL
 62
7
 10
524.508
 20
-1771.436
 30
4135.062
 70
    32
  0
VERTEX
  8
T11SSILL
 62
7
 10
510.053
 20
-1768.216
 30
4135.048
 70
    32
  0
VERTEX
  8
T11SSILL
 62
7
 10
505.158
 20
-1765.025
 30
4135.041
 70
    32
  0
VERTEX
  8
T11SSILL
 62
7
 10
499.927
 20
-1755.131
 30
4135.028
 70
    32
  0
VERTEX
  8
T11SSILL
 62
7
 10
498.423
 20
-1746.992
 30
4135.020
 70
    32
  0
VERTEX
  8
T11SSILL
 62
7
 10
547.528
 20
-1711.886
 30
4135.030
 70
    32
  0
VERTEX
  8
T11SSILL
 62
7
 10
570.172
 20
-1772.910
 30
4135.101
 70
    32
  0
VERTEX
  8
T11SSILL
 62
7
 10
574.463
 20
-1779.763
 30
4135.110
 70
    32
  0
SEQEND
  8
T11SSILL
  0
POLYLINE
  8
T11SSILL
 62
7
 66
     1
 70
     9
  0
VERTEX
  8
T11SSILL
 62
7
 10
526.537
 20
-1852.592
 30
4135.134
 70
    32
  0
VERTEX
  8
T11SSILL
 62
7
 10
532.894
 20
-1856.616
 30
4135.143
 70
    32
  0
VERTEX
  8
T11SSILL
 62
7
 10
537.810
 20
-1857.504
 30
4135.147
 70
    32
  0
VERTEX
  8
T11SSILL
 62
7
 10
554.566
 20
-1848.733
 30
4135.154
 70
    32
  0
VERTEX
  8
T11SSILL
 62
7
 10
554.796
 20
-1843.175
 30
4135.149
 70
    32
  0
VERTEX
  8
T11SSILL
 62
7
 10
548.420
 20
-1833.746
 30
4135.136
 70
    32
  0
VERTEX
  8
T11SSILL
 62
7
 10
525.641
 20
-1849.050
 30
4135.130
 70
    32
  0
SEQEND
  8
T11SSILL
  0
POLYLINE
  8
T11SSILL
 62
7
 66
     1
 70
     9
  0
VERTEX
  8
T11SSILL
 62
7
 10
525.415
 20
-1990.311
 30
4135.252
 70
    32
  0
VERTEX
  8
T11SSILL
 62
7
 10
530.792
 20
-1988.640
 30
4135.255
 70
    32
  0
VERTEX
  8
T11SSILL
 62
7
 10
547.871
 20
-1979.863
 30
4135.261
 70
    32
  0
VERTEX
  8
T11SSILL
 62
7
 10
549.586
 20
-1977.290
 30
4135.260
 70
    32
  0
VERTEX
  8
T11SSILL
 62
7
 10
545.273
 20
-1965.100
 30
4135.246
 70
    32
  0
VERTEX
  8
T11SSILL
 62
7
 10
535.819
 20
-1953.429
 30
4135.229
 70
    32
  0
VERTEX
  8
T11SSILL
 62
7
 10
521.196
 20
-1947.776
 30
4135.212
 70
    32
  0
VERTEX
  8
T11SSILL
 62
7
 10
516.135
 20
-1939.396
 30
4135.200
 70
    32
  0
VERTEX
  8
T11SSILL
 62
7
 10
500.562
 20
-1926.307
 30
4135.176
 70
    32
  0
VERTEX
  8
T11SSILL
 62
7
 10
494.353
 20
-1918.042
 30
4135.164
 70
    32
  0
VERTEX
  8
T11SSILL
 62
7
 10
493.221
 20
-1911.908
 30
4135.158
 70
    32
  0
VERTEX
  8
T11SSILL
 62
7
 10
497.896
 20
-1902.648
 30
4135.154
 70
    32
  0
VERTEX
  8
T11SSILL
 62
7
 10
496.787
 20
-1898.263
 30
4135.149
 70
    32
  0
VERTEX
  8
T11SSILL
 62
7
 10
485.739
 20
-1883.314
 30
4135.127
 70
    32
  0
VERTEX
  8
T11SSILL
 62
7
 10
478.291
 20
-1883.364
 30
4135.121
 70
    32
  0
VERTEX
  8
T11SSILL
 62
7
 10
475.739
 20
-1890.597
 30
4135.125
 70
    32
  0
VERTEX
  8
T11SSILL
 62
7
 10
522.549
 20
-1989.050
 30
4135.248
 70
    32
  0
SEQEND
  8
T11SSILL
  0
POLYLINE
  8
T11SSILL
 62
7
 66
     1
 70
     9
  0
VERTEX
  8
T11SSILL
 62
7
 10
392.984
 20
-1822.596
 30
4134.999
 70
    32
  0
VERTEX
  8
T11SSILL
 62
7
 10
414.510
 20
-1851.408
 30
4135.041
 70
    32
  0
VERTEX
  8
T11SSILL
 62
7
 10
421.083
 20
-1856.680
 30
4135.051
 70
    32
  0
VERTEX
  8
T11SSILL
 62
7
 10
426.471
 20
-1867.122
 30
4135.065
 70
    32
  0
VERTEX
  8
T11SSILL
 62
7
 10
435.417
 20
-1889.832
 30
4135.092
 70
    32
  0
VERTEX
  8
T11SSILL
 62
7
 10
446.701
 20
-1935.827
 30
4135.141
 70
    32
  0
VERTEX
  8
T11SSILL
 62
7
 10
449.398
 20
-1935.691
 30
4135.143
 70
    32
  0
VERTEX
  8
T11SSILL
 62
7
 10
476.674
 20
-1915.629
 30
4135.148
 70
    32
  0
VERTEX
  8
T11SSILL
 62
7
 10
471.844
 20
-1893.074
 30
4135.124
 70
    32
  0
VERTEX
  8
T11SSILL
 62
7
 10
450.652
 20
-1851.901
 30
4135.071
 70
    32
  0
VERTEX
  8
T11SSILL
 62
7
 10
441.871
 20
-1846.207
 30
4135.059
 70
    32
  0
VERTEX
  8
T11SSILL
 62
7
 10
434.223
 20
-1831.138
 30
4135.040
 70
    32
  0
VERTEX
  8
T11SSILL
 62
7
 10
429.202
 20
-1806.127
 30
4135.014
 70
    32
  0
VERTEX
  8
T11SSILL
 62
7
 10
426.470
 20
-1799.855
 30
4135.007
 70
    32
  0
VERTEX
  8
T11SSILL
 62
7
 10
397.139
 20
-1816.364
 30
4134.997
 70
    32
  0
VERTEX
  8
T11SSILL
 62
7
 10
392.870
 20
-1820.696
 30
4134.997
 70
    32
  0
SEQEND
  8
T11SSILL
  0
POLYLINE
  8
T11SSILL
 62
7
 66
     1
 70
     9
  0
VERTEX
  8
T11SSILL
 62
7
 10
521.983
 20
-2006.554
 30
4135.263
 70
    32
  0
VERTEX
  8
T11SSILL
 62
7
 10
513.397
 20
-2026.065
 30
4135.273
 70
    32
  0
VERTEX
  8
T11SSILL
 62
7
 10
509.969
 20
-2046.357
 30
4135.288
 70
    32
  0
VERTEX
  8
T11SSILL
 62
7
 10
512.458
 20
-2049.273
 30
4135.292
 70
    32
  0
VERTEX
  8
T11SSILL
 62
7
 10
552.306
 20
-2075.834
 30
4135.348
 70
    32
  0
VERTEX
  8
T11SSILL
 62
7
 10
553.658
 20
-2072.317
 30
4135.346
 70
    32
  0
SEQEND
  8
T11SSILL
  0
POLYLINE
  8
T11SSILL
 62
7
 66
     1
 70
     9
  0
VERTEX
  8
T11SSILL
 62
7
 10
300.252
 20
-1547.549
 30
4134.882
 70
    32
  0
VERTEX
  8
T11SSILL
 62
7
 10
281.053
 20
-1478.023
 30
4135.007
 70
    32
  0
VERTEX
  8
T11SSILL
 62
7
 10
285.849
 20
-1469.453
 30
4135.013
 70
    32
  0
VERTEX
  8
T11SSILL
 62
7
 10
292.877
 20
-1467.162
 30
4135.007
 70
    32
  0
VERTEX
  8
T11SSILL
 62
7
 10
304.585
 20
-1466.814
 30
4134.992
 70
    32
  0
VERTEX
  8
T11SSILL
 62
7
 10
324.180
 20
-1484.634
 30
4134.940
 70
    32
  0
VERTEX
  8
T11SSILL
 62
7
 10
352.305
 20
-1535.779
 30
4134.829
 70
    32
  0
VERTEX
  8
T11SSILL
 62
7
 10
317.786
 20
-1560.741
 30
4134.840
 70
    32
  0
VERTEX
  8
T11SSILL
 62
7
 10
310.571
 20
-1560.081
 30
4134.851
 70
    32
  0
VERTEX
  8
T11SSILL
 62
7
 10
305.862
 20
-1555.837
 30
4134.863
 70
    32
  0
SEQEND
  8
T11SSILL
  0
POLYLINE
  8
T11SSILL
 62
7
 66
     1
 70
     9
  0
VERTEX
  8
T11SSILL
 62
7
 10
493.999
 20
-1599.200
 30
4134.889
 70
    32
  0
VERTEX
  8
T11SSILL
 62
7
 10
481.214
 20
-1605.368
 30
4134.884
 70
    32
  0
VERTEX
  8
T11SSILL
 62
7
 10
452.010
 20
-1544.126
 30
4134.807
 70
    32
  0
VERTEX
  8
T11SSILL
 62
7
 10
452.053
 20
-1539.571
 30
4134.803
 70
    32
  0
VERTEX
  8
T11SSILL
 62
7
 10
464.588
 20
-1529.553
 30
4134.805
 70
    32
  0
VERTEX
  8
T11SSILL
 62
7
 10
473.288
 20
-1516.980
 30
4134.801
 70
    32
  0
VERTEX
  8
T11SSILL
 62
7
 10
470.871
 20
-1499.993
 30
4134.784
 70
    32
  0
VERTEX
  8
T11SSILL
 62
7
 10
465.458
 20
-1479.642
 30
4134.762
 70
    32
  0
VERTEX
  8
T11SSILL
 62
7
 10
462.064
 20
-1480.385
 30
4134.760
 70
    32
  0
VERTEX
  8
T11SSILL
 62
7
 10
444.658
 20
-1493.168
 30
4134.765
 70
    32
  0
VERTEX
  8
T11SSILL
 62
7
 10
431.054
 20
-1493.941
 30
4134.782
 70
    32
  0
VERTEX
  8
T11SSILL
 62
7
 10
392.197
 20
-1520.159
 30
4134.797
 70
    32
  0
VERTEX
  8
T11SSILL
 62
7
 10
381.606
 20
-1529.602
 30
4134.798
 70
    32
  0
VERTEX
  8
T11SSILL
 62
7
 10
326.709
 20
-1569.737
 30
4134.815
 70
    32
  0
VERTEX
  8
T11SSILL
 62
7
 10
325.317
 20
-1598.133
 30
4134.777
 70
    32
  0
VERTEX
  8
T11SSILL
 62
7
 10
333.622
 20
-1609.789
 30
4134.767
 70
    32
  0
VERTEX
  8
T11SSILL
 62
7
 10
373.639
 20
-1679.103
 30
4134.859
 70
    32
  0
VERTEX
  8
T11SSILL
 62
7
 10
443.904
 20
-1631.266
 30
4134.875
 70
    32
  0
VERTEX
  8
T11SSILL
 62
7
 10
504.533
 20
-1616.885
 30
4134.913
 70
    32
  0
SEQEND
  8
T11SSILL
  0
POLYLINE
  8
T11SSILL
 62
7
 66
     1
 70
     9
  0
VERTEX
  8
T11SSILL
 62
7
 10
411.433
 20
-1426.572
 30
4134.905
 70
    32
  0
VERTEX
  8
T11SSILL
 62
7
 10
416.305
 20
-1424.008
 30
4134.902
 70
    32
  0
VERTEX
  8
T11SSILL
 62
7
 10
438.260
 20
-1426.633
 30
4134.868
 70
    32
  0
VERTEX
  8
T11SSILL
 62
7
 10
445.632
 20
-1423.787
 30
4134.863
 70
    32
  0
VERTEX
  8
T11SSILL
 62
7
 10
453.699
 20
-1424.535
 30
4134.851
 70
    32
  0
VERTEX
  8
T11SSILL
 62
7
 10
459.284
 20
-1426.867
 30
4134.840
 70
    32
  0
VERTEX
  8
T11SSILL
 62
7
 10
463.429
 20
-1434.022
 30
4134.824
 70
    32
  0
VERTEX
  8
T11SSILL
 62
7
 10
467.549
 20
-1455.091
 30
4134.788
 70
    32
  0
VERTEX
  8
T11SSILL
 62
7
 10
362.674
 20
-1528.591
 30
4134.825
 70
    32
  0
VERTEX
  8
T11SSILL
 62
7
 10
354.590
 20
-1526.491
 30
4134.839
 70
    32
  0
VERTEX
  8
T11SSILL
 62
7
 10
328.599
 20
-1477.871
 30
4134.943
 70
    32
  0
VERTEX
  8
T11SSILL
 62
7
 10
331.099
 20
-1469.781
 30
4134.952
 70
    32
  0
VERTEX
  8
T11SSILL
 62
7
 10
328.595
 20
-1461.755
 30
4134.966
 70
    32
  0
VERTEX
  8
T11SSILL
 62
7
 10
329.021
 20
-1455.894
 30
4134.974
 70
    32
  0
VERTEX
  8
T11SSILL
 62
7
 10
402.175
 20
-1434.597
 30
4134.906
 70
    32
  0
VERTEX
  8
T11SSILL
 62
7
 10
406.969
 20
-1429.782
 30
4134.906
 70
    32
  0
VERTEX
  8
T11SSILL
 62
7
 10
409.367
 20
-1429.451
 30
4134.903
 70
    32
  0
SEQEND
  8
T11SSILL
  0
POLYLINE
  8
T11SSILL
 62
7
 66
     1
 70
     9
  0
VERTEX
  8
T11SSILL
 62
7
 10
879.357
 20
-1695.872
 30
4135.287
 70
    32
  0
VERTEX
  8
T11SSILL
 62
7
 10
883.639
 20
-1702.024
 30
4135.296
 70
    32
  0
VERTEX
  8
T11SSILL
 62
7
 10
893.906
 20
-1710.453
 30
4135.312
 70
    32
  0
VERTEX
  8
T11SSILL
 62
7
 10
912.547
 20
-1720.076
 30
4135.335
 70
    32
  0
VERTEX
  8
T11SSILL
 62
7
 10
932.302
 20
-1750.607
 30
4135.378
 70
    32
  0
VERTEX
  8
T11SSILL
 62
7
 10
934.371
 20
-1751.932
 30
4135.380
 70
    32
  0
VERTEX
  8
T11SSILL
 62
7
 10
941.910
 20
-1746.481
 30
4135.382
 70
    32
  0
VERTEX
  8
T11SSILL
 62
7
 10
951.874
 20
-1758.667
 30
4135.401
 70
    32
  0
VERTEX
  8
T11SSILL
 62
7
 10
984.582
 20
-1788.333
 30
4135.453
 70
    32
  0
VERTEX
  8
T11SSILL
 62
7
 10
989.158
 20
-1793.981
 30
4135.461
 70
    32
  0
VERTEX
  8
T11SSILL
 62
7
 10
988.393
 20
-1800.748
 30
4135.467
 70
    32
  0
VERTEX
  8
T11SSILL
 62
7
 10
986.330
 20
-1807.831
 30
4135.471
 70
    32
  0
VERTEX
  8
T11SSILL
 62
7
 10
980.166
 20
-1815.066
 30
4135.472
 70
    32
  0
VERTEX
  8
T11SSILL
 62
7
 10
996.922
 20
-1830.019
 30
4135.499
 70
    32
  0
VERTEX
  8
T11SSILL
 62
7
 10
1002.431
 20
-1830.300
 30
4135.504
 70
    32
  0
VERTEX
  8
T11SSILL
 62
7
 10
1018.527
 20
-1836.602
 30
4135.522
 70
    32
  0
VERTEX
  8
T11SSILL
 62
7
 10
1030.716
 20
-1822.934
 30
4135.520
 70
    32
  0
VERTEX
  8
T11SSILL
 62
7
 10
1011.894
 20
-1795.045
 30
4135.481
 70
    32
  0
VERTEX
  8
T11SSILL
 62
7
 10
997.869
 20
-1750.678
 30
4135.431
 70
    32
  0
VERTEX
  8
T11SSILL
 62
7
 10
984.294
 20
-1702.351
 30
4135.378
 70
    32
  0
VERTEX
  8
T11SSILL
 62
7
 10
977.991
 20
-1694.723
 30
4135.367
 70
    32
  0
VERTEX
  8
T11SSILL
 62
7
 10
895.778
 20
-1660.679
 30
4135.270
 70
    32
  0
VERTEX
  8
T11SSILL
 62
7
 10
880.242
 20
-1670.886
 30
4135.266
 70
    32
  0
VERTEX
  8
T11SSILL
 62
7
 10
879.309
 20
-1676.253
 30
4135.270
 70
    32
  0
VERTEX
  8
T11SSILL
 62
7
 10
875.325
 20
-1681.759
 30
4135.272
 70
    32
  0
VERTEX
  8
T11SSILL
 62
7
 10
876.720
 20
-1689.199
 30
4135.279
 70
    32
  0
SEQEND
  8
T11SSILL
  0
POLYLINE
  8
T11SSILL
 62
7
 66
     1
 70
     9
  0
VERTEX
  8
T11SSILL
 62
7
 10
892.513
 20
-1730.891
 30
4135.328
 70
    32
  0
VERTEX
  8
T11SSILL
 62
7
 10
882.302
 20
-1738.728
 30
4135.326
 70
    32
  0
VERTEX
  8
T11SSILL
 62
7
 10
885.794
 20
-1745.740
 30
4135.335
 70
    32
  0
VERTEX
  8
T11SSILL
 62
7
 10
898.409
 20
-1757.793
 30
4135.356
 70
    32
  0
VERTEX
  8
T11SSILL
 62
7
 10
903.856
 20
-1761.027
 30
4135.363
 70
    32
  0
VERTEX
  8
T11SSILL
 62
7
 10
910.209
 20
-1760.797
 30
4135.368
 70
    32
  0
VERTEX
  8
T11SSILL
 62
7
 10
914.351
 20
-1755.839
 30
4135.367
 70
    32
  0
VERTEX
  8
T11SSILL
 62
7
 10
910.054
 20
-1744.582
 30
4135.354
 70
    32
  0
SEQEND
  8
T11SSILL
  0
POLYLINE
  8
T11SSILL
 62
7
 66
     1
 70
     9
  0
VERTEX
  8
T11SSILL
 62
7
 10
691.103
 20
-1825.083
 30
4135.245
 70
    32
  0
VERTEX
  8
T11SSILL
 62
7
 10
650.281
 20
-1854.228
 30
4135.237
 70
    32
  0
VERTEX
  8
T11SSILL
 62
7
 10
639.354
 20
-1841.053
 30
4135.216
 70
    32
  0
VERTEX
  8
T11SSILL
 62
7
 10
636.876
 20
-1831.125
 30
4135.206
 70
    32
  0
VERTEX
  8
T11SSILL
 62
7
 10
626.565
 20
-1831.105
 30
4135.197
 70
    32
  0
VERTEX
  8
T11SSILL
 62
7
 10
616.932
 20
-1833.179
 30
4135.191
 70
    32
  0
VERTEX
  8
T11SSILL
 62
7
 10
599.929
 20
-1802.664
 30
4135.151
 70
    32
  0
VERTEX
  8
T11SSILL
 62
7
 10
599.082
 20
-1791.113
 30
4135.140
 70
    32
  0
VERTEX
  8
T11SSILL
 62
7
 10
597.461
 20
-1785.678
 30
4135.134
 70
    32
  0
VERTEX
  8
T11SSILL
 62
7
 10
668.848
 20
-1735.475
 30
4135.149
 70
    32
  0
VERTEX
  8
T11SSILL
 62
7
 10
740.721
 20
-1818.598
 30
4135.280
 70
    32
  0
VERTEX
  8
T11SSILL
 62
7
 10
743.694
 20
-1824.166
 30
4135.287
 70
    32
  0
VERTEX
  8
T11SSILL
 62
7
 10
744.873
 20
-1830.308
 30
4135.293
 70
    32
  0
VERTEX
  8
T11SSILL
 62
7
 10
743.630
 20
-1838.832
 30
4135.300
 70
    32
  0
VERTEX
  8
T11SSILL
 62
7
 10
674.722
 20
-1887.102
 30
4135.285
 70
    32
  0
VERTEX
  8
T11SSILL
 62
7
 10
653.348
 20
-1859.294
 30
4135.243
 70
    32
  0
VERTEX
  8
T11SSILL
 62
7
 10
694.677
 20
-1830.593
 30
4135.252
 70
    32
  0
SEQEND
  8
T11SSILL
  0
POLYLINE
  8
T11SSILL
 62
7
 66
     1
 70
     9
  0
VERTEX
  8
T11SSILL
 62
7
 10
748.944
 20
-1827.704
 30
4135.294
 70
    32
  0
VERTEX
  8
T11SSILL
 62
7
 10
750.562
 20
-1828.984
 30
4135.297
 70
    32
  0
VERTEX
  8
T11SSILL
 62
7
 10
756.073
 20
-1829.365
 30
4135.302
 70
    32
  0
VERTEX
  8
T11SSILL
 62
7
 10
788.514
 20
-1810.336
 30
4135.312
 70
    32
  0
VERTEX
  8
T11SSILL
 62
7
 10
785.303
 20
-1809.726
 30
4135.308
 70
    32
  0
VERTEX
  8
T11SSILL
 62
7
 10
778.800
 20
-1813.912
 30
4135.307
 70
    32
  0
VERTEX
  8
T11SSILL
 62
7
 10
775.255
 20
-1814.608
 30
4135.304
 70
    32
  0
VERTEX
  8
T11SSILL
 62
7
 10
745.290
 20
-1764.437
 30
4135.237
 70
    32
  0
VERTEX
  8
T11SSILL
 62
7
 10
738.132
 20
-1764.327
 30
4135.231
 70
    32
  0
VERTEX
  8
T11SSILL
 62
7
 10
729.753
 20
-1742.912
 30
4135.205
 70
    32
  0
VERTEX
  8
T11SSILL
 62
7
 10
701.134
 20
-1763.494
 30
4135.200
 70
    32
  0
VERTEX
  8
T11SSILL
 62
7
 10
746.226
 20
-1814.625
 30
4135.281
 70
    32
  0
SEQEND
  8
T11SSILL
  0
POLYLINE
  8
T11SSILL
 62
7
 66
     1
 70
     9
  0
VERTEX
  8
T11SSILL
 62
7
 10
833.221
 20
-2293.826
 30
4135.765
 70
    32
  0
VERTEX
  8
T11SSILL
 62
7
 10
829.072
 20
-2293.882
 30
4135.762
 70
    32
  0
VERTEX
  8
T11SSILL
 62
7
 10
825.595
 20
-2295.528
 30
4135.761
 70
    32
  0
VERTEX
  8
T11SSILL
 62
7
 10
820.239
 20
-2302.448
 30
4135.762
 70
    32
  0
VERTEX
  8
T11SSILL
 62
7
 10
821.395
 20
-2310.381
 30
4135.770
 70
    32
  0
VERTEX
  8
T11SSILL
 62
7
 10
826.424
 20
-2316.363
 30
4135.779
 70
    32
  0
VERTEX
  8
T11SSILL
 62
7
 10
841.695
 20
-2303.261
 30
4135.780
 70
    32
  0
SEQEND
  8
T11SSILL
  0
POLYLINE
  8
T11SSILL
 62
7
 66
     1
 70
     9
  0
VERTEX
  8
T11SSILL
 62
7
 10
748.369
 20
-2240.224
 30
4135.650
 70
    32
  0
VERTEX
  8
T11SSILL
 62
7
 10
736.958
 20
-2231.728
 30
4135.633
 70
    32
  0
VERTEX
  8
T11SSILL
 62
7
 10
727.411
 20
-2239.255
 30
4135.632
 70
    32
  0
VERTEX
  8
T11SSILL
 62
7
 10
709.342
 20
-2230.149
 30
4135.609
 70
    32
  0
VERTEX
  8
T11SSILL
 62
7
 10
675.930
 20
-2202.602
 30
4135.558
 70
    32
  0
VERTEX
  8
T11SSILL
 62
7
 10
668.740
 20
-2203.248
 30
4135.553
 70
    32
  0
VERTEX
  8
T11SSILL
 62
7
 10
655.864
 20
-2208.570
 30
4135.547
 70
    32
  0
VERTEX
  8
T11SSILL
 62
7
 10
640.396
 20
-2218.225
 30
4135.543
 70
    32
  0
VERTEX
  8
T11SSILL
 62
7
 10
638.294
 20
-2221.802
 30
4135.544
 70
    32
  0
VERTEX
  8
T11SSILL
 62
7
 10
640.939
 20
-2228.866
 30
4135.552
 70
    32
  0
VERTEX
  8
T11SSILL
 62
7
 10
653.288
 20
-2240.198
 30
4135.572
 70
    32
  0
VERTEX
  8
T11SSILL
 62
7
 10
670.895
 20
-2252.210
 30
4135.597
 70
    32
  0
VERTEX
  8
T11SSILL
 62
7
 10
696.359
 20
-2272.264
 30
4135.635
 70
    32
  0
VERTEX
  8
T11SSILL
 62
7
 10
702.149
 20
-2271.587
 30
4135.639
 70
    32
  0
VERTEX
  8
T11SSILL
 62
7
 10
748.154
 20
-2242.776
 30
4135.652
 70
    32
  0
SEQEND
  8
T11SSILL
  0
POLYLINE
  8
T11SSILL
 62
7
 66
     1
 70
     9
  0
VERTEX
  8
T11SSILL
 62
7
 10
773.256
 20
-1955.997
 30
4135.425
 70
    32
  0
VERTEX
  8
T11SSILL
 62
7
 10
745.709
 20
-1974.463
 30
4135.418
 70
    32
  0
VERTEX
  8
T11SSILL
 62
7
 10
745.704
 20
-1981.561
 30
4135.424
 70
    32
  0
VERTEX
  8
T11SSILL
 62
7
 10
722.087
 20
-1998.624
 30
4135.420
 70
    32
  0
VERTEX
  8
T11SSILL
 62
7
 10
719.668
 20
-1993.408
 30
4135.413
 70
    32
  0
VERTEX
  8
T11SSILL
 62
7
 10
672.252
 20
-2025.137
 30
4135.402
 70
    32
  0
VERTEX
  8
T11SSILL
 62
7
 10
663.216
 20
-2033.456
 30
4135.402
 70
    32
  0
VERTEX
  8
T11SSILL
 62
7
 10
657.441
 20
-2035.233
 30
4135.399
 70
    32
  0
VERTEX
  8
T11SSILL
 62
7
 10
626.622
 20
-2055.792
 30
4135.391
 70
    32
  0
VERTEX
  8
T11SSILL
 62
7
 10
618.012
 20
-2066.105
 30
4135.393
 70
    32
  0
VERTEX
  8
T11SSILL
 62
7
 10
620.932
 20
-2078.814
 30
4135.406
 70
    32
  0
VERTEX
  8
T11SSILL
 62
7
 10
624.523
 20
-2085.664
 30
4135.415
 70
    32
  0
VERTEX
  8
T11SSILL
 62
7
 10
627.129
 20
-2086.129
 30
4135.418
 70
    32
  0
VERTEX
  8
T11SSILL
 62
7
 10
640.071
 20
-2078.307
 30
4135.422
 70
    32
  0
VERTEX
  8
T11SSILL
 62
7
 10
650.620
 20
-2074.617
 30
4135.427
 70
    32
  0
VERTEX
  8
T11SSILL
 62
7
 10
681.299
 20
-2054.860
 30
4135.435
 70
    32
  0
VERTEX
  8
T11SSILL
 62
7
 10
697.407
 20
-2040.797
 30
4135.436
 70
    32
  0
VERTEX
  8
T11SSILL
 62
7
 10
727.759
 20
-2018.994
 30
4135.442
 70
    32
  0
VERTEX
  8
T11SSILL
 62
7
 10
724.002
 20
-2007.197
 30
4135.429
 70
    32
  0
VERTEX
  8
T11SSILL
 62
7
 10
746.921
 20
-1990.293
 30
4135.433
 70
    32
  0
VERTEX
  8
T11SSILL
 62
7
 10
751.566
 20
-2001.229
 30
4135.446
 70
    32
  0
VERTEX
  8
T11SSILL
 62
7
 10
761.845
 20
-1996.042
 30
4135.450
 70
    32
  0
VERTEX
  8
T11SSILL
 62
7
 10
780.281
 20
-1980.348
 30
4135.452
 70
    32
  0
VERTEX
  8
T11SSILL
 62
7
 10
778.136
 20
-1973.278
 30
4135.444
 70
    32
  0
VERTEX
  8
T11SSILL
 62
7
 10
774.277
 20
-1968.781
 30
4135.437
 70
    32
  0
VERTEX
  8
T11SSILL
 62
7
 10
775.280
 20
-1961.569
 30
4135.431
 70
    32
  0
SEQEND
  8
T11SSILL
  0
POLYLINE
  8
T11SSILL
 62
7
 66
     1
 70
     9
  0
VERTEX
  8
T11SSILL
 62
7
 10
903.103
 20
-1916.665
 30
4135.497
 70
    32
  0
VERTEX
  8
T11SSILL
 62
7
 10
926.990
 20
-1897.399
 30
4135.500
 70
    32
  0
VERTEX
  8
T11SSILL
 62
7
 10
930.448
 20
-1898.102
 30
4135.503
 70
    32
  0
VERTEX
  8
T11SSILL
 62
7
 10
935.306
 20
-1902.486
 30
4135.511
 70
    32
  0
VERTEX
  8
T11SSILL
 62
7
 10
931.006
 20
-1935.987
 30
4135.536
 70
    32
  0
VERTEX
  8
T11SSILL
 62
7
 10
936.120
 20
-1948.266
 30
4135.551
 70
    32
  0
VERTEX
  8
T11SSILL
 62
7
 10
934.087
 20
-1975.688
 30
4135.573
 70
    32
  0
VERTEX
  8
T11SSILL
 62
7
 10
934.976
 20
-1982.325
 30
4135.580
 70
    32
  0
VERTEX
  8
T11SSILL
 62
7
 10
940.769
 20
-1993.095
 30
4135.594
 70
    32
  0
VERTEX
  8
T11SSILL
 62
7
 10
937.895
 20
-1998.732
 30
4135.596
 70
    32
  0
VERTEX
  8
T11SSILL
 62
7
 10
929.928
 20
-2004.738
 30
4135.595
 70
    32
  0
VERTEX
  8
T11SSILL
 62
7
 10
927.427
 20
-2004.672
 30
4135.593
 70
    32
  0
VERTEX
  8
T11SSILL
 62
7
 10
919.698
 20
-1998.676
 30
4135.581
 70
    32
  0
VERTEX
  8
T11SSILL
 62
7
 10
914.580
 20
-1989.797
 30
4135.570
 70
    32
  0
VERTEX
  8
T11SSILL
 62
7
 10
913.051
 20
-1983.818
 30
4135.563
 70
    32
  0
VERTEX
  8
T11SSILL
 62
7
 10
913.679
 20
-1978.461
 30
4135.559
 70
    32
  0
VERTEX
  8
T11SSILL
 62
7
 10
918.089
 20
-1975.553
 30
4135.560
 70
    32
  0
VERTEX
  8
T11SSILL
 62
7
 10
919.490
 20
-1971.934
 30
4135.558
 70
    32
  0
VERTEX
  8
T11SSILL
 62
7
 10
919.083
 20
-1967.691
 30
4135.554
 70
    32
  0
VERTEX
  8
T11SSILL
 62
7
 10
902.315
 20
-1932.472
 30
4135.510
 70
    32
  0
VERTEX
  8
T11SSILL
 62
7
 10
900.443
 20
-1923.399
 30
4135.501
 70
    32
  0
SEQEND
  8
T11SSILL
  0
POLYLINE
  8
T11SSILL
 62
7
 66
     1
 70
     9
  0
VERTEX
  8
T11SSILL
 62
7
 10
982.805
 20
-1932.944
 30
4135.576
 70
    32
  0
VERTEX
  8
T11SSILL
 62
7
 10
973.904
 20
-1914.117
 30
4135.553
 70
    32
  0
VERTEX
  8
T11SSILL
 62
7
 10
967.559
 20
-1944.196
 30
4135.573
 70
    32
  0
VERTEX
  8
T11SSILL
 62
7
 10
968.814
 20
-1952.077
 30
4135.581
 70
    32
  0
VERTEX
  8
T11SSILL
 62
7
 10
982.139
 20
-1935.502
 30
4135.578
 70
    32
  0
SEQEND
  8
T11SSILL
  0
POLYLINE
  8
T11SSILL
 62
7
 66
     1
 70
     9
  0
VERTEX
  8
T11SSILL
 62
7
 10
958.763
 20
-1966.759
 30
4135.586
 70
    32
  0
VERTEX
  8
T11SSILL
 62
7
 10
956.560
 20
-1962.790
 30
4135.581
 70
    32
  0
VERTEX
  8
T11SSILL
 62
7
 10
959.678
 20
-1960.448
 30
4135.581
 70
    32
  0
VERTEX
  8
T11SSILL
 62
7
 10
970.226
 20
-1964.206
 30
4135.593
 70
    32
  0
VERTEX
  8
T11SSILL
 62
7
 10
983.205
 20
-1981.479
 30
4135.618
 70
    32
  0
VERTEX
  8
T11SSILL
 62
7
 10
1004.772
 20
-1994.287
 30
4135.647
 70
    32
  0
VERTEX
  8
T11SSILL
 62
7
 10
1013.377
 20
-2002.220
 30
4135.661
 70
    32
  0
VERTEX
  8
T11SSILL
 62
7
 10
1019.373
 20
-1998.291
 30
4135.662
 70
    32
  0
VERTEX
  8
T11SSILL
 62
7
 10
1028.692
 20
-1984.919
 30
4135.659
 70
    32
  0
VERTEX
  8
T11SSILL
 62
7
 10
1031.885
 20
-1984.426
 30
4135.661
 70
    32
  0
VERTEX
  8
T11SSILL
 62
7
 10
1048.819
 20
-1994.647
 30
4135.683
 70
    32
  0
VERTEX
  8
T11SSILL
 62
7
 10
1043.344
 20
-2003.918
 30
4135.687
 70
    32
  0
VERTEX
  8
T11SSILL
 62
7
 10
1010.604
 20
-2026.603
 30
4135.680
 70
    32
  0
VERTEX
  8
T11SSILL
 62
7
 10
968.226
 20
-1986.528
 30
4135.611
 70
    32
  0
SEQEND
  8
T11SSILL
  0
POLYLINE
  8
T11SSILL
 62
7
 66
     1
 70
     9
  0
VERTEX
  8
T11SSILL
 62
7
 10
1026.824
 20
-2061.928
 30
4135.723
 70
    32
  0
VERTEX
  8
T11SSILL
 62
7
 10
993.755
 20
-2086.116
 30
4135.717
 70
    32
  0
VERTEX
  8
T11SSILL
 62
7
 10
983.834
 20
-2084.400
 30
4135.708
 70
    32
  0
VERTEX
  8
T11SSILL
 62
7
 10
975.128
 20
-2068.870
 30
4135.687
 70
    32
  0
VERTEX
  8
T11SSILL
 62
7
 10
957.523
 20
-2060.757
 30
4135.666
 70
    32
  0
VERTEX
  8
T11SSILL
 62
7
 10
929.494
 20
-2024.590
 30
4135.612
 70
    32
  0
VERTEX
  8
T11SSILL
 62
7
 10
932.264
 20
-2011.255
 30
4135.602
 70
    32
  0
VERTEX
  8
T11SSILL
 62
7
 10
936.401
 20
-2006.601
 30
4135.602
 70
    32
  0
VERTEX
  8
T11SSILL
 62
7
 10
945.975
 20
-2004.773
 30
4135.608
 70
    32
  0
VERTEX
  8
T11SSILL
 62
7
 10
950.203
 20
-2006.966
 30
4135.613
 70
    32
  0
VERTEX
  8
T11SSILL
 62
7
 10
954.179
 20
-2012.711
 30
4135.622
 70
    32
  0
VERTEX
  8
T11SSILL
 62
7
 10
965.079
 20
-2012.815
 30
4135.631
 70
    32
  0
VERTEX
  8
T11SSILL
 62
7
 10
967.931
 20
-2009.328
 30
4135.630
 70
    32
  0
VERTEX
  8
T11SSILL
 62
7
 10
974.565
 20
-2008.189
 30
4135.634
 70
    32
  0
VERTEX
  8
T11SSILL
 62
7
 10
1027.685
 20
-2059.017
 30
4135.722
 70
    32
  0
SEQEND
  8
T11SSILL
  0
POLYLINE
  8
T11SSILL
 62
7
 66
     1
 70
     9
  0
VERTEX
  8
T11SSILL
 62
7
 10
1044.844
 20
-2022.595
 30
4135.704
 70
    32
  0
VERTEX
  8
T11SSILL
 62
7
 10
1047.672
 20
-2035.954
 30
4135.718
 70
    32
  0
VERTEX
  8
T11SSILL
 62
7
 10
1057.729
 20
-2062.764
 30
4135.749
 70
    32
  0
VERTEX
  8
T11SSILL
 62
7
 10
1062.776
 20
-2062.596
 30
4135.753
 70
    32
  0
VERTEX
  8
T11SSILL
 62
7
 10
1069.992
 20
-2075.097
 30
4135.770
 70
    32
  0
VERTEX
  8
T11SSILL
 62
7
 10
1081.292
 20
-2067.797
 30
4135.773
 70
    32
  0
VERTEX
  8
T11SSILL
 62
7
 10
1087.906
 20
-2065.209
 30
4135.776
 70
    32
  0
VERTEX
  8
T11SSILL
 62
7
 10
1100.501
 20
-2068.740
 30
4135.790
 70
    32
  0
VERTEX
  8
T11SSILL
 62
7
 10
1105.087
 20
-2067.728
 30
4135.792
 70
    32
  0
VERTEX
  8
T11SSILL
 62
7
 10
1108.752
 20
-2065.230
 30
4135.793
 70
    32
  0
VERTEX
  8
T11SSILL
 62
7
 10
1114.076
 20
-2026.016
 30
4135.764
 70
    32
  0
VERTEX
  8
T11SSILL
 62
7
 10
1116.932
 20
-2022.779
 30
4135.763
 70
    32
  0
VERTEX
  8
T11SSILL
 62
7
 10
1117.425
 20
-2018.523
 30
4135.760
 70
    32
  0
VERTEX
  8
T11SSILL
 62
7
 10
1115.058
 20
-1998.608
 30
4135.741
 70
    32
  0
VERTEX
  8
T11SSILL
 62
7
 10
1127.996
 20
-1997.885
 30
4135.751
 70
    32
  0
VERTEX
  8
T11SSILL
 62
7
 10
1140.226
 20
-2000.271
 30
4135.763
 70
    32
  0
VERTEX
  8
T11SSILL
 62
7
 10
1145.204
 20
-2002.454
 30
4135.769
 70
    32
  0
VERTEX
  8
T11SSILL
 62
7
 10
1150.881
 20
-2008.277
 30
4135.779
 70
    32
  0
VERTEX
  8
T11SSILL
 62
7
 10
1147.912
 20
-2144.889
 30
4135.894
 70
    32
  0
VERTEX
  8
T11SSILL
 62
7
 10
1147.706
 20
-2148.141
 30
4135.897
 70
    32
  0
VERTEX
  8
T11SSILL
 62
7
 10
1145.224
 20
-2149.474
 30
4135.896
 70
    32
  0
VERTEX
  8
T11SSILL
 62
7
 10
1141.272
 20
-2149.277
 30
4135.892
 70
    32
  0
VERTEX
  8
T11SSILL
 62
7
 10
1137.347
 20
-2147.330
 30
4135.887
 70
    32
  0
VERTEX
  8
T11SSILL
 62
7
 10
1018.207
 20
-2034.399
 30
4135.693
 70
    32
  0
VERTEX
  8
T11SSILL
 62
7
 10
1019.262
 20
-2031.036
 30
4135.691
 70
    32
  0
VERTEX
  8
T11SSILL
 62
7
 10
1040.412
 20
-2016.455
 30
4135.695
 70
    32
  0
VERTEX
  8
T11SSILL
 62
7
 10
1041.885
 20
-2018.185
 30
4135.698
 70
    32
  0
SEQEND
  8
T11SSILL
  0
POLYLINE
  8
T11SSILL
 62
7
 66
     1
 70
     9
  0
VERTEX
  8
T11SSILL
 62
7
 10
958.766
 20
-1876.048
 30
4135.507
 70
    32
  0
VERTEX
  8
T11SSILL
 62
7
 10
955.699
 20
-1874.935
 30
4135.504
 70
    32
  0
VERTEX
  8
T11SSILL
 62
7
 10
946.039
 20
-1859.092
 30
4135.482
 70
    32
  0
VERTEX
  8
T11SSILL
 62
7
 10
948.760
 20
-1852.701
 30
4135.479
 70
    32
  0
VERTEX
  8
T11SSILL
 62
7
 10
952.964
 20
-1852.648
 30
4135.483
 70
    32
  0
VERTEX
  8
T11SSILL
 62
7
 10
961.678
 20
-1864.950
 30
4135.500
 70
    32
  0
VERTEX
  8
T11SSILL
 62
7
 10
963.230
 20
-1872.838
 30
4135.508
 70
    32
  0
SEQEND
  8
T11SSILL
  0
POLYLINE
  8
T11SSILL
 62
7
 66
     1
 70
     9
  0
VERTEX
  8
T11SSILL
 62
7
 10
622.179
 20
-1378.870
 30
4134.794
 70
    32
  0
VERTEX
  8
T11SSILL
 62
7
 10
618.487
 20
-1380.282
 30
4134.793
 70
    32
  0
VERTEX
  8
T11SSILL
 62
7
 10
613.900
 20
-1371.231
 30
4134.780
 70
    32
  0
VERTEX
  8
T11SSILL
 62
7
 10
656.946
 20
-1340.736
 30
4134.778
 70
    32
  0
VERTEX
  8
T11SSILL
 62
7
 10
667.241
 20
-1344.501
 30
4134.788
 70
    32
  0
VERTEX
  8
T11SSILL
 62
7
 10
677.110
 20
-1357.062
 30
4134.808
 70
    32
  0
VERTEX
  8
T11SSILL
 62
7
 10
688.754
 20
-1379.822
 30
4134.840
 70
    32
  0
VERTEX
  8
T11SSILL
 62
7
 10
687.876
 20
-1380.966
 30
4134.841
 70
    32
  0
VERTEX
  8
T11SSILL
 62
7
 10
632.927
 20
-1391.077
 30
4134.814
 70
    32
  0
VERTEX
  8
T11SSILL
 62
7
 10
628.251
 20
-1381.850
 30
4134.801
 70
    32
  0
SEQEND
  8
T11SSILL
  0
POLYLINE
  8
T11SSILL
 62
7
 66
     1
 70
     9
  0
VERTEX
  8
T11SSILL
 62
7
 10
998.936
 20
-1696.610
 30
4135.385
 70
    32
  0
VERTEX
  8
T11SSILL
 62
7
 10
993.458
 20
-1706.689
 30
4135.390
 70
    32
  0
VERTEX
  8
T11SSILL
 62
7
 10
994.456
 20
-1714.334
 30
4135.397
 70
    32
  0
VERTEX
  8
T11SSILL
 62
7
 10
1000.462
 20
-1734.128
 30
4135.419
 70
    32
  0
VERTEX
  8
T11SSILL
 62
7
 10
1007.684
 20
-1739.242
 30
4135.429
 70
    32
  0
VERTEX
  8
T11SSILL
 62
7
 10
1016.109
 20
-1736.583
 30
4135.434
 70
    32
  0
VERTEX
  8
T11SSILL
 62
7
 10
1009.170
 20
-1694.529
 30
4135.391
 70
    32
  0
VERTEX
  8
T11SSILL
 62
7
 10
1006.003
 20
-1695.173
 30
4135.390
 70
    32
  0
SEQEND
  8
T11SSILL
  0
POLYLINE
  8
T11SSILL
 62
7
 66
     1
 70
     9
  0
VERTEX
  8
T11SSILL
 62
7
 10
1502.245
 20
-1762.939
 30
4135.798
 70
    32
  0
VERTEX
  8
T11SSILL
 62
7
 10
1361.688
 20
-1919.553
 30
4135.869
 70
    32
  0
VERTEX
  8
T11SSILL
 62
7
 10
1292.936
 20
-1904.919
 30
4135.805
 70
    32
  0
VERTEX
  8
T11SSILL
 62
7
 10
1288.841
 20
-1892.017
 30
4135.791
 70
    32
  0
VERTEX
  8
T11SSILL
 62
7
 10
1288.062
 20
-1883.370
 30
4135.781
 70
    32
  0
VERTEX
  8
T11SSILL
 62
7
 10
1283.159
 20
-1873.383
 30
4135.767
 70
    32
  0
VERTEX
  8
T11SSILL
 62
7
 10
1277.534
 20
-1865.308
 30
4135.755
 70
    32
  0
VERTEX
  8
T11SSILL
 62
7
 10
1268.567
 20
-1857.983
 30
4135.741
 70
    32
  0
VERTEX
  8
T11SSILL
 62
7
 10
1267.571
 20
-1854.995
 30
4135.737
 70
    32
  0
VERTEX
  8
T11SSILL
 62
7
 10
1273.882
 20
-1848.545
 30
4135.734
 70
    32
  0
VERTEX
  8
T11SSILL
 62
7
 10
1269.828
 20
-1841.748
 30
4135.724
 70
    32
  0
VERTEX
  8
T11SSILL
 62
7
 10
1259.721
 20
-1841.948
 30
4135.718
 70
    32
  0
VERTEX
  8
T11SSILL
 62
7
 10
1257.199
 20
-1840.684
 30
4135.715
 70
    32
  0
VERTEX
  8
T11SSILL
 62
7
 10
1253.664
 20
-1835.181
 30
4135.706
 70
    32
  0
VERTEX
  8
T11SSILL
 62
7
 10
1247.352
 20
-1831.421
 30
4135.698
 70
    32
  0
VERTEX
  8
T11SSILL
 62
7
 10
1245.130
 20
-1826.649
 30
4135.692
 70
    32
  0
VERTEX
  8
T11SSILL
 62
7
 10
1247.058
 20
-1818.312
 30
4135.684
 70
    32
  0
VERTEX
  8
T11SSILL
 62
7
 10
1244.382
 20
-1803.236
 30
4135.666
 70
    32
  0
VERTEX
  8
T11SSILL
 62
7
 10
1255.313
 20
-1780.952
 30
4135.650
 70
    32
  0
VERTEX
  8
T11SSILL
 62
7
 10
1247.098
 20
-1763.607
 30
4135.626
 70
    32
  0
VERTEX
  8
T11SSILL
 62
7
 10
1226.744
 20
-1741.035
 30
4135.588
 70
    32
  0
VERTEX
  8
T11SSILL
 62
7
 10
1225.600
 20
-1733.257
 30
4135.579
 70
    32
  0
VERTEX
  8
T11SSILL
 62
7
 10
1225.470
 20
-1714.412
 30
4135.559
 70
    32
  0
VERTEX
  8
T11SSILL
 62
7
 10
1228.886
 20
-1705.612
 30
4135.552
 70
    32
  0
VERTEX
  8
T11SSILL
 62
7
 10
1235.703
 20
-1698.774
 30
4135.549
 70
    32
  0
VERTEX
  8
T11SSILL
 62
7
 10
1486.609
 20
-1753.471
 30
4135.777
 70
    32
  0
VERTEX
  8
T11SSILL
 62
7
 10
1502.335
 20
-1762.765
 30
4135.798
 70
    32
  0
SEQEND
  8
T11SSILL
  0
POLYLINE
  8
T11SSILL
 62
7
 66
     1
 70
     9
  0
VERTEX
  8
T11SSILL
 62
7
 10
1309.308
 20
-2270.192
 30
4136.134
 70
    32
  0
VERTEX
  8
T11SSILL
 62
7
 10
1316.798
 20
-2316.278
 30
4136.180
 70
    32
  0
VERTEX
  8
T11SSILL
 62
7
 10
1341.592
 20
-2341.236
 30
4136.177
 70
    32
  0
VERTEX
  8
T11SSILL
 62
7
 10
1364.973
 20
-2338.387
 30
4136.192
 70
    32
  0
VERTEX
  8
T11SSILL
 62
7
 10
1393.413
 20
-2332.410
 30
4136.213
 70
    32
  0
VERTEX
  8
T11SSILL
 62
7
 10
1391.457
 20
-2308.515
 30
4136.234
 70
    32
  0
VERTEX
  8
T11SSILL
 62
7
 10
1392.935
 20
-2300.135
 30
4136.228
 70
    32
  0
VERTEX
  8
T11SSILL
 62
7
 10
1391.413
 20
-2295.352
 30
4136.223
 70
    32
  0
VERTEX
  8
T11SSILL
 62
7
 10
1385.543
 20
-2291.035
 30
4136.214
 70
    32
  0
VERTEX
  8
T11SSILL
 62
7
 10
1375.513
 20
-2286.329
 30
4136.202
 70
    32
  0
VERTEX
  8
T11SSILL
 62
7
 10
1360.706
 20
-2256.418
 30
4136.164
 70
    32
  0
VERTEX
  8
T11SSILL
 62
7
 10
1349.638
 20
-2245.821
 30
4136.146
 70
    32
  0
VERTEX
  8
T11SSILL
 62
7
 10
1315.027
 20
-2250.788
 30
4136.122
 70
    32
  0
VERTEX
  8
T11SSILL
 62
7
 10
1305.173
 20
-2254.588
 30
4136.117
 70
    32
  0
SEQEND
  8
T11SSILL
  0
POLYLINE
  8
T11SSILL
 62
7
 66
     1
 70
     9
  0
VERTEX
  8
T11SSILL
 62
7
 10
1336.513
 20
-2221.391
 30
4136.114
 70
    32
  0
VERTEX
  8
T11SSILL
 62
7
 10
1326.545
 20
-2200.568
 30
4136.088
 70
    32
  0
VERTEX
  8
T11SSILL
 62
7
 10
1318.481
 20
-2193.430
 30
4136.075
 70
    32
  0
VERTEX
  8
T11SSILL
 62
7
 10
1318.364
 20
-2188.927
 30
4136.071
 70
    32
  0
VERTEX
  8
T11SSILL
 62
7
 10
1325.854
 20
-2170.798
 30
4136.062
 70
    32
  0
VERTEX
  8
T11SSILL
 62
7
 10
1322.202
 20
-2147.279
 30
4136.039
 70
    32
  0
VERTEX
  8
T11SSILL
 62
7
 10
1295.265
 20
-2149.980
 30
4136.019
 70
    32
  0
VERTEX
  8
T11SSILL
 62
7
 10
1286.047
 20
-2152.769
 30
4136.014
 70
    32
  0
VERTEX
  8
T11SSILL
 62
7
 10
1294.762
 20
-2207.245
 30
4136.068
 70
    32
  0
VERTEX
  8
T11SSILL
 62
7
 10
1302.617
 20
-2240.862
 30
4136.103
 70
    32
  0
VERTEX
  8
T11SSILL
 62
7
 10
1304.536
 20
-2245.338
 30
4136.109
 70
    32
  0
VERTEX
  8
T11SSILL
 62
7
 10
1340.223
 20
-2238.703
 30
4136.132
 70
    32
  0
VERTEX
  8
T11SSILL
 62
7
 10
1339.295
 20
-2230.109
 30
4136.124
 70
    32
  0
SEQEND
  8
T11SSILL
  0
POLYLINE
  8
T11SSILL
 62
7
 66
     1
 70
     9
  0
VERTEX
  8
T11SSILL
 62
7
 10
1322.406
 20
-2093.472
 30
4135.992
 70
    32
  0
VERTEX
  8
T11SSILL
 62
7
 10
1324.425
 20
-2094.643
 30
4135.995
 70
    32
  0
VERTEX
  8
T11SSILL
 62
7
 10
1327.209
 20
-2117.024
 30
4136.017
 70
    32
  0
VERTEX
  8
T11SSILL
 62
7
 10
1334.251
 20
-2119.372
 30
4136.024
 70
    32
  0
VERTEX
  8
T11SSILL
 62
7
 10
1337.240
 20
-2135.344
 30
4136.041
 70
    32
  0
VERTEX
  8
T11SSILL
 62
7
 10
1284.773
 20
-2144.480
 30
4136.006
 70
    32
  0
VERTEX
  8
T11SSILL
 62
7
 10
1283.305
 20
-2143.350
 30
4136.003
 70
    32
  0
VERTEX
  8
T11SSILL
 62
7
 10
1275.624
 20
-2101.272
 30
4135.961
 70
    32
  0
VERTEX
  8
T11SSILL
 62
7
 10
1284.044
 20
-2098.645
 30
4135.965
 70
    32
  0
VERTEX
  8
T11SSILL
 62
7
 10
1302.948
 20
-2097.664
 30
4135.980
 70
    32
  0
VERTEX
  8
T11SSILL
 62
7
 10
1316.698
 20
-2093.356
 30
4135.987
 70
    32
  0
SEQEND
  8
T11SSILL
  0
POLYLINE
  8
T11SSILL
 62
7
 66
     1
 70
     9
  0
VERTEX
  8
T11SSILL
 62
7
 10
1320.959
 20
-2083.683
 30
4135.983
 70
    32
  0
VERTEX
  8
T11SSILL
 62
7
 10
1318.810
 20
-2080.512
 30
4135.978
 70
    32
  0
VERTEX
  8
T11SSILL
 62
7
 10
1315.037
 20
-2062.300
 30
4135.959
 70
    32
  0
VERTEX
  8
T11SSILL
 62
7
 10
1315.735
 20
-2048.626
 30
4135.948
 70
    32
  0
VERTEX
  8
T11SSILL
 62
7
 10
1321.942
 20
-2038.524
 30
4135.944
 70
    32
  0
VERTEX
  8
T11SSILL
 62
7
 10
1321.748
 20
-2022.060
 30
4135.930
 70
    32
  0
VERTEX
  8
T11SSILL
 62
7
 10
1329.000
 20
-2011.542
 30
4135.927
 70
    32
  0
VERTEX
  8
T11SSILL
 62
7
 10
1329.341
 20
-2007.533
 30
4135.924
 70
    32
  0
VERTEX
  8
T11SSILL
 62
7
 10
1325.086
 20
-1983.873
 30
4135.900
 70
    32
  0
VERTEX
  8
T11SSILL
 62
7
 10
1318.160
 20
-1979.170
 30
4135.890
 70
    32
  0
VERTEX
  8
T11SSILL
 62
7
 10
1280.315
 20
-2019.221
 30
4135.894
 70
    32
  0
VERTEX
  8
T11SSILL
 62
7
 10
1281.972
 20
-2053.380
 30
4135.925
 70
    32
  0
VERTEX
  8
T11SSILL
 62
7
 10
1277.899
 20
-2055.493
 30
4135.923
 70
    32
  0
VERTEX
  8
T11SSILL
 62
7
 10
1275.460
 20
-2053.026
 30
4135.919
 70
    32
  0
VERTEX
  8
T11SSILL
 62
7
 10
1275.227
 20
-2037.314
 30
4135.905
 70
    32
  0
VERTEX
  8
T11SSILL
 62
7
 10
1273.077
 20
-2027.286
 30
4135.895
 70
    32
  0
VERTEX
  8
T11SSILL
 62
7
 10
1247.322
 20
-2055.745
 30
4135.898
 70
    32
  0
VERTEX
  8
T11SSILL
 62
7
 10
1263.199
 20
-2073.378
 30
4135.927
 70
    32
  0
VERTEX
  8
T11SSILL
 62
7
 10
1268.778
 20
-2074.947
 30
4135.932
 70
    32
  0
VERTEX
  8
T11SSILL
 62
7
 10
1273.402
 20
-2086.390
 30
4135.946
 70
    32
  0
VERTEX
  8
T11SSILL
 62
7
 10
1279.161
 20
-2093.362
 30
4135.957
 70
    32
  0
VERTEX
  8
T11SSILL
 62
7
 10
1320.955
 20
-2086.737
 30
4135.985
 70
    32
  0
SEQEND
  8
T11SSILL
  0
POLYLINE
  8
T11SSILL
 62
7
 66
     1
 70
     9
  0
VERTEX
  8
T11SSILL
 62
7
 10
1406.280
 20
-2143.481
 30
4136.104
 70
    32
  0
VERTEX
  8
T11SSILL
 62
7
 10
1406.695
 20
-2147.829
 30
4136.108
 70
    32
  0
VERTEX
  8
T11SSILL
 62
7
 10
1396.736
 20
-2151.280
 30
4136.103
 70
    32
  0
VERTEX
  8
T11SSILL
 62
7
 10
1381.029
 20
-2151.863
 30
4136.091
 70
    32
  0
VERTEX
  8
T11SSILL
 62
7
 10
1379.293
 20
-2146.183
 30
4136.084
 70
    32
  0
VERTEX
  8
T11SSILL
 62
7
 10
1379.320
 20
-2137.874
 30
4136.077
 70
    32
  0
VERTEX
  8
T11SSILL
 62
7
 10
1389.479
 20
-2134.420
 30
4136.082
 70
    32
  0
VERTEX
  8
T11SSILL
 62
7
 10
1403.970
 20
-2132.854
 30
4136.093
 70
    32
  0
SEQEND
  8
T11SSILL
  0
POLYLINE
  8
T11SSILL
 62
7
 66
     1
 70
     9
  0
VERTEX
  8
T11SSILL
 62
7
 10
1372.630
 20
-2145.781
 30
4136.078
 70
    32
  0
VERTEX
  8
T11SSILL
 62
7
 10
1372.055
 20
-2154.248
 30
4136.085
 70
    32
  0
VERTEX
  8
T11SSILL
 62
7
 10
1347.124
 20
-2160.623
 30
4136.070
 70
    32
  0
VERTEX
  8
T11SSILL
 62
7
 10
1330.769
 20
-2161.366
 30
4136.058
 70
    32
  0
VERTEX
  8
T11SSILL
 62
7
 10
1329.803
 20
-2160.329
 30
4136.056
 70
    32
  0
VERTEX
  8
T11SSILL
 62
7
 10
1328.401
 20
-2146.786
 30
4136.043
 70
    32
  0
VERTEX
  8
T11SSILL
 62
7
 10
1332.470
 20
-2144.424
 30
4136.044
 70
    32
  0
VERTEX
  8
T11SSILL
 62
7
 10
1372.074
 20
-2138.632
 30
4136.072
 70
    32
  0
SEQEND
  8
T11SSILL
  0
POLYLINE
  8
T11SSILL
 62
7
 66
     1
 70
     9
  0
VERTEX
  8
T11SSILL
 62
7
 10
1343.778
 20
-2134.046
 30
4136.045
 70
    32
  0
VERTEX
  8
T11SSILL
 62
7
 10
1342.842
 20
-2128.354
 30
4136.039
 70
    32
  0
VERTEX
  8
T11SSILL
 62
7
 10
1343.769
 20
-2119.932
 30
4136.033
 70
    32
  0
VERTEX
  8
T11SSILL
 62
7
 10
1351.227
 20
-2116.618
 30
4136.036
 70
    32
  0
VERTEX
  8
T11SSILL
 62
7
 10
1364.289
 20
-2116.525
 30
4136.046
 70
    32
  0
VERTEX
  8
T11SSILL
 62
7
 10
1367.315
 20
-2118.082
 30
4136.050
 70
    32
  0
VERTEX
  8
T11SSILL
 62
7
 10
1369.027
 20
-2125.564
 30
4136.058
 70
    32
  0
VERTEX
  8
T11SSILL
 62
7
 10
1368.101
 20
-2130.633
 30
4136.062
 70
    32
  0
VERTEX
  8
T11SSILL
 62
7
 10
1348.591
 20
-2134.625
 30
4136.049
 70
    32
  0
SEQEND
  8
T11SSILL
  0
POLYLINE
  8
T11SSILL
 62
7
 66
     1
 70
     9
  0
VERTEX
  8
T11SSILL
 62
7
 10
1344.873
 20
-2224.871
 30
4136.124
 70
    32
  0
VERTEX
  8
T11SSILL
 62
7
 10
1350.157
 20
-2236.955
 30
4136.139
 70
    32
  0
VERTEX
  8
T11SSILL
 62
7
 10
1394.490
 20
-2229.441
 30
4136.169
 70
    32
  0
VERTEX
  8
T11SSILL
 62
7
 10
1397.866
 20
-2227.589
 30
4136.170
 70
    32
  0
VERTEX
  8
T11SSILL
 62
7
 10
1398.213
 20
-2220.627
 30
4136.164
 70
    32
  0
VERTEX
  8
T11SSILL
 62
7
 10
1393.691
 20
-2212.636
 30
4136.153
 70
    32
  0
VERTEX
  8
T11SSILL
 62
7
 10
1379.822
 20
-2215.694
 30
4136.145
 70
    32
  0
VERTEX
  8
T11SSILL
 62
7
 10
1343.663
 20
-2220.885
 30
4136.120
 70
    32
  0
SEQEND
  8
T11SSILL
  0
POLYLINE
  8
T11SSILL
 62
7
 66
     1
 70
     9
  0
VERTEX
  8
T11SSILL
 62
7
 10
1364.645
 20
-2248.702
 30
4136.161
 70
    32
  0
VERTEX
  8
T11SSILL
 62
7
 10
1368.993
 20
-2254.994
 30
4136.170
 70
    32
  0
VERTEX
  8
T11SSILL
 62
7
 10
1377.554
 20
-2258.521
 30
4136.180
 70
    32
  0
VERTEX
  8
T11SSILL
 62
7
 10
1384.974
 20
-2259.412
 30
4136.187
 70
    32
  0
VERTEX
  8
T11SSILL
 62
7
 10
1401.205
 20
-2253.666
 30
4136.195
 70
    32
  0
VERTEX
  8
T11SSILL
 62
7
 10
1402.019
 20
-2247.798
 30
4136.190
 70
    32
  0
VERTEX
  8
T11SSILL
 62
7
 10
1400.618
 20
-2241.012
 30
4136.183
 70
    32
  0
VERTEX
  8
T11SSILL
 62
7
 10
1396.175
 20
-2238.425
 30
4136.178
 70
    32
  0
VERTEX
  8
T11SSILL
 62
7
 10
1385.906
 20
-2241.230
 30
4136.172
 70
    32
  0
VERTEX
  8
T11SSILL
 62
7
 10
1376.589
 20
-2240.717
 30
4136.164
 70
    32
  0
VERTEX
  8
T11SSILL
 62
7
 10
1358.971
 20
-2244.031
 30
4136.152
 70
    32
  0
SEQEND
  8
T11SSILL
  0
POLYLINE
  8
T11SSILL
 62
7
 66
     1
 70
     9
  0
VERTEX
  8
T11SSILL
 62
7
 10
1740.657
 20
-470.215
 30
4136.424
 70
    32
  0
VERTEX
  8
T11SSILL
 62
7
 10
1739.522
 20
-459.791
 30
4136.395
 70
    32
  0
VERTEX
  8
T11SSILL
 62
7
 10
1742.225
 20
-452.514
 30
4136.375
 70
    32
  0
VERTEX
  8
T11SSILL
 62
7
 10
1730.608
 20
-440.711
 30
4136.397
 70
    32
  0
VERTEX
  8
T11SSILL
 62
7
 10
1735.858
 20
-426.374
 30
4136.303
 70
    32
  0
VERTEX
  8
T11SSILL
 62
7
 10
1788.418
 20
-385.469
 30
4136.192
 70
    32
  0
VERTEX
  8
T11SSILL
 62
7
 10
1803.061
 20
-382.615
 30
4136.185
 70
    32
  0
VERTEX
  8
T11SSILL
 62
7
 10
1796.192
 20
-417.373
 30
4136.280
 70
    32
  0
VERTEX
  8
T11SSILL
 62
7
 10
1789.561
 20
-438.314
 30
4136.338
 70
    32
  0
VERTEX
  8
T11SSILL
 62
7
 10
1782.897
 20
-447.100
 30
4136.362
 70
    32
  0
VERTEX
  8
T11SSILL
 62
7
 10
1774.512
 20
-477.094
 30
4136.444
 70
    32
  0
VERTEX
  8
T11SSILL
 62
7
 10
1773.417
 20
-482.777
 30
4136.460
 70
    32
  0
VERTEX
  8
T11SSILL
 62
7
 10
1777.147
 20
-498.483
 30
4136.503
 70
    32
  0
VERTEX
  8
T11SSILL
 62
7
 10
1775.986
 20
-507.269
 30
4136.527
 70
    32
  0
VERTEX
  8
T11SSILL
 62
7
 10
1761.635
 20
-531.273
 30
4136.593
 70
    32
  0
VERTEX
  8
T11SSILL
 62
7
 10
1685.729
 20
-532.446
 30
4137.563
 70
    32
  0
VERTEX
  8
T11SSILL
 62
7
 10
1713.861
 20
-477.385
 30
4136.832
 70
    32
  0
VERTEX
  8
T11SSILL
 62
7
 10
1727.701
 20
-479.373
 30
4136.462
 70
    32
  0
VERTEX
  8
T11SSILL
 62
7
 10
1731.002
 20
-473.881
 30
4136.433
 70
    32
  0
SEQEND
  8
T11SSILL
  0
POLYLINE
  8
T11SSILL
 62
7
 66
     1
 70
     9
  0
VERTEX
  8
T11SSILL
 62
7
 10
1607.306
 20
-577.009
 30
4137.234
 70
    32
  0
VERTEX
  8
T11SSILL
 62
7
 10
1604.907
 20
-584.428
 30
4137.268
 70
    32
  0
VERTEX
  8
T11SSILL
 62
7
 10
1610.867
 20
-586.517
 30
4137.392
 70
    32
  0
VERTEX
  8
T11SSILL
 62
7
 10
1569.347
 20
-806.310
 30
4138.326
 70
    32
  0
VERTEX
  8
T11SSILL
 62
7
 10
1535.018
 20
-875.482
 30
4137.117
 70
    32
  0
VERTEX
  8
T11SSILL
 62
7
 10
1529.695
 20
-876.578
 30
4137.132
 70
    32
  0
VERTEX
  8
T11SSILL
 62
7
 10
1528.853
 20
-873.199
 30
4137.209
 70
    32
  0
VERTEX
  8
T11SSILL
 62
7
 10
1521.067
 20
-861.055
 30
4137.520
 70
    32
  0
VERTEX
  8
T11SSILL
 62
7
 10
1516.606
 20
-858.876
 30
4137.598
 70
    32
  0
VERTEX
  8
T11SSILL
 62
7
 10
1513.225
 20
-861.470
 30
4137.568
 70
    32
  0
VERTEX
  8
T11SSILL
 62
7
 10
1510.442
 20
-867.649
 30
4137.458
 70
    32
  0
VERTEX
  8
T11SSILL
 62
7
 10
1504.637
 20
-869.408
 30
4137.462
 70
    32
  0
VERTEX
  8
T11SSILL
 62
7
 10
1499.616
 20
-866.894
 30
4137.551
 70
    32
  0
VERTEX
  8
T11SSILL
 62
7
 10
1491.010
 20
-854.022
 30
4137.883
 70
    32
  0
VERTEX
  8
T11SSILL
 62
7
 10
1486.885
 20
-836.676
 30
4137.800
 70
    32
  0
VERTEX
  8
T11SSILL
 62
7
 10
1472.469
 20
-830.867
 30
4137.494
 70
    32
  0
VERTEX
  8
T11SSILL
 62
7
 10
1462.230
 20
-831.447
 30
4137.325
 70
    32
  0
VERTEX
  8
T11SSILL
 62
7
 10
1457.951
 20
-845.121
 30
4137.390
 70
    32
  0
VERTEX
  8
T11SSILL
 62
7
 10
1450.421
 20
-851.479
 30
4137.325
 70
    32
  0
VERTEX
  8
T11SSILL
 62
7
 10
1450.919
 20
-855.067
 30
4137.370
 70
    32
  0
VERTEX
  8
T11SSILL
 62
7
 10
1478.227
 20
-884.186
 30
4137.340
 70
    32
  0
VERTEX
  8
T11SSILL
 62
7
 10
1479.736
 20
-891.799
 30
4137.169
 70
    32
  0
VERTEX
  8
T11SSILL
 62
7
 10
1177.812
 20
-988.040
 30
4135.008
 70
    32
  0
VERTEX
  8
T11SSILL
 62
7
 10
1392.056
 20
-546.170
 30
4135.360
 70
    32
  0
VERTEX
  8
T11SSILL
 62
7
 10
1510.006
 20
-543.664
 30
4135.231
 70
    32
  0
VERTEX
  8
T11SSILL
 62
7
 10
1589.941
 20
-541.966
 30
4136.582
 70
    32
  0
VERTEX
  8
T11SSILL
 62
7
 10
1614.239
 20
-570.767
 30
4137.290
 70
    32
  0
VERTEX
  8
T11SSILL
 62
7
 10
1612.937
 20
-578.056
 30
4137.342
 70
    32
  0
SEQEND
  8
T11SSILL
  0
POLYLINE
  8
T11SSILL
 62
7
 66
     1
 70
     9
  0
VERTEX
  8
T11SSILL
 62
7
 10
1590.335
 20
-787.177
 30
4138.579
 70
    32
  0
VERTEX
  8
T11SSILL
 62
7
 10
1600.696
 20
-778.240
 30
4138.693
 70
    32
  0
VERTEX
  8
T11SSILL
 62
7
 10
1620.815
 20
-732.768
 30
4139.042
 70
    32
  0
VERTEX
  8
T11SSILL
 62
7
 10
1618.311
 20
-727.184
 30
4138.943
 70
    32
  0
VERTEX
  8
T11SSILL
 62
7
 10
1624.349
 20
-678.995
 30
4138.558
 70
    32
  0
VERTEX
  8
T11SSILL
 62
7
 10
1642.468
 20
-648.235
 30
4138.557
 70
    32
  0
VERTEX
  8
T11SSILL
 62
7
 10
1645.011
 20
-631.457
 30
4138.431
 70
    32
  0
VERTEX
  8
T11SSILL
 62
7
 10
1645.246
 20
-612.591
 30
4138.244
 70
    32
  0
VERTEX
  8
T11SSILL
 62
7
 10
1620.822
 20
-579.191
 30
4137.488
 70
    32
  0
VERTEX
  8
T11SSILL
 62
7
 10
1577.923
 20
-792.469
 30
4138.556
 70
    32
  0
SEQEND
  8
T11SSILL
  0
POLYLINE
  8
T11SSILL
 62
7
 66
     1
 70
     9
  0
VERTEX
  8
T11SSILL
 62
7
 10
-2188.911
 20
973.672
 30
4148.399
 70
    32
  0
VERTEX
  8
T11SSILL
 62
7
 10
-2192.169
 20
978.212
 30
4148.399
 70
    32
  0
VERTEX
  8
T11SSILL
 62
7
 10
-2228.125
 20
1028.310
 30
4148.394
 70
    32
  0
VERTEX
  8
T11SSILL
 62
7
 10
-2232.918
 20
1028.380
 30
4148.438
 70
    32
  0
VERTEX
  8
T11SSILL
 62
7
 10
-2237.238
 20
1032.802
 30
4148.448
 70
    32
  0
VERTEX
  8
T11SSILL
 62
7
 10
-2235.172
 20
1038.129
 30
4148.393
 70
    32
  0
VERTEX
  8
T11SSILL
 62
7
 10
-2282.348
 20
1103.862
 30
4148.821
 70
    32
  0
VERTEX
  8
T11SSILL
 62
7
 10
-2292.159
 20
1110.995
 30
4148.773
 70
    32
  0
VERTEX
  8
T11SSILL
 62
7
 10
-2290.516
 20
1115.244
 30
4148.914
 70
    32
  0
VERTEX
  8
T11SSILL
 62
7
 10
-2337.720
 20
1181.014
 30
4149.354
 70
    32
  0
VERTEX
  8
T11SSILL
 62
7
 10
-2354.671
 20
1191.903
 30
4149.331
 70
    32
  0
VERTEX
  8
T11SSILL
 62
7
 10
-2377.591
 20
1222.349
 30
4149.332
 70
    32
  0
VERTEX
  8
T11SSILL
 62
7
 10
-2398.964
 20
1253.619
 30
4149.274
 70
    32
  0
VERTEX
  8
T11SSILL
 62
7
 10
-2394.908
 20
1260.698
 30
4149.220
 70
    32
  0
VERTEX
  8
T11SSILL
 62
7
 10
-2388.399
 20
1265.348
 30
4149.166
 70
    32
  0
VERTEX
  8
T11SSILL
 62
7
 10
-2285.504
 20
1121.980
 30
4149.073
 70
    32
  0
VERTEX
  8
T11SSILL
 62
7
 10
-2281.197
 20
1118.862
 30
4149.045
 70
    32
  0
VERTEX
  8
T11SSILL
 62
7
 10
-2280.154
 20
1114.526
 30
4149.012
 70
    32
  0
VERTEX
  8
T11SSILL
 62
7
 10
-2228.672
 20
1042.794
 30
4148.424
 70
    32
  0
VERTEX
  8
T11SSILL
 62
7
 10
-2223.325
 20
1042.453
 30
4148.413
 70
    32
  0
VERTEX
  8
T11SSILL
 62
7
 10
-2219.188
 20
1039.738
 30
4148.388
 70
    32
  0
VERTEX
  8
T11SSILL
 62
7
 10
-2221.784
 20
1033.195
 30
4148.345
 70
    32
  0
VERTEX
  8
T11SSILL
 62
7
 10
-2185.670
 20
982.876
 30
4148.335
 70
    32
  0
VERTEX
  8
T11SSILL
 62
7
 10
-2120.553
 20
892.146
 30
4148.343
 70
    32
  0
VERTEX
  8
T11SSILL
 62
7
 10
-2116.848
 20
891.882
 30
4148.329
 70
    32
  0
VERTEX
  8
T11SSILL
 62
7
 10
-2110.032
 20
886.943
 30
4148.317
 70
    32
  0
VERTEX
  8
T11SSILL
 62
7
 10
-2111.869
 20
880.045
 30
4148.344
 70
    32
  0
VERTEX
  8
T11SSILL
 62
7
 10
-2063.357
 20
812.452
 30
4148.350
 70
    32
  0
VERTEX
  8
T11SSILL
 62
7
 10
-2058.614
 20
810.596
 30
4148.337
 70
    32
  0
VERTEX
  8
T11SSILL
 62
7
 10
-2056.602
 20
808.282
 30
4148.336
 70
    32
  0
VERTEX
  8
T11SSILL
 62
7
 10
-2057.373
 20
803.971
 30
4148.351
 70
    32
  0
VERTEX
  8
T11SSILL
 62
7
 10
-2009.248
 20
737.058
 30
4148.357
 70
    32
  0
VERTEX
  8
T11SSILL
 62
7
 10
-1997.944
 20
730.141
 30
4148.333
 70
    32
  0
VERTEX
  8
T11SSILL
 62
7
 10
-1999.958
 20
724.115
 30
4148.358
 70
    32
  0
VERTEX
  8
T11SSILL
 62
7
 10
-1898.355
 20
582.546
 30
4148.293
 70
    32
  0
VERTEX
  8
T11SSILL
 62
7
 10
-1891.408
 20
581.440
 30
4148.271
 70
    32
  0
VERTEX
  8
T11SSILL
 62
7
 10
-1890.234
 20
579.233
 30
4148.250
 70
    32
  0
VERTEX
  8
T11SSILL
 62
7
 10
-1890.652
 20
571.813
 30
4148.236
 70
    32
  0
VERTEX
  8
T11SSILL
 62
7
 10
-1844.049
 20
506.878
 30
4147.913
 70
    32
  0
VERTEX
  8
T11SSILL
 62
7
 10
-1836.256
 20
502.684
 30
4147.840
 70
    32
  0
VERTEX
  8
T11SSILL
 62
7
 10
-1833.647
 20
499.766
 30
4147.820
 70
    32
  0
VERTEX
  8
T11SSILL
 62
7
 10
-1835.609
 20
497.378
 30
4147.848
 70
    32
  0
VERTEX
  8
T11SSILL
 62
7
 10
-1835.527
 20
495.004
 30
4147.854
 70
    32
  0
VERTEX
  8
T11SSILL
 62
7
 10
-1787.543
 20
428.145
 30
4147.521
 70
    32
  0
VERTEX
  8
T11SSILL
 62
7
 10
-1779.291
 20
423.371
 30
4147.445
 70
    32
  0
VERTEX
  8
T11SSILL
 62
7
 10
-1778.991
 20
416.231
 30
4147.462
 70
    32
  0
VERTEX
  8
T11SSILL
 62
7
 10
-1675.339
 20
271.781
 30
4146.743
 70
    32
  0
VERTEX
  8
T11SSILL
 62
7
 10
-1669.588
 20
271.403
 30
4146.682
 70
    32
  0
VERTEX
  8
T11SSILL
 62
7
 10
-1666.063
 20
267.015
 30
4146.656
 70
    32
  0
VERTEX
  8
T11SSILL
 62
7
 10
-1669.528
 20
263.675
 30
4146.703
 70
    32
  0
VERTEX
  8
T11SSILL
 62
7
 10
-1618.330
 20
192.394
 30
4146.348
 70
    32
  0
VERTEX
  8
T11SSILL
 62
7
 10
-1613.033
 20
195.256
 30
4146.282
 70
    32
  0
VERTEX
  8
T11SSILL
 62
7
 10
-1610.582
 20
191.179
 30
4146.267
 70
    32
  0
VERTEX
  8
T11SSILL
 62
7
 10
-1615.132
 20
187.917
 30
4146.326
 70
    32
  0
VERTEX
  8
T11SSILL
 62
7
 10
-1563.232
 20
115.602
 30
4145.966
 70
    32
  0
VERTEX
  8
T11SSILL
 62
7
 10
-1556.896
 20
117.091
 30
4145.893
 70
    32
  0
VERTEX
  8
T11SSILL
 62
7
 10
-1554.459
 20
113.731
 30
4145.876
 70
    32
  0
VERTEX
  8
T11SSILL
 62
7
 10
-1557.849
 20
108.102
 30
4145.929
 70
    32
  0
VERTEX
  8
T11SSILL
 62
7
 10
-1506.431
 20
36.459
 30
4145.572
 70
    32
  0
VERTEX
  8
T11SSILL
 62
7
 10
-1503.005
 20
37.116
 30
4145.533
 70
    32
  0
VERTEX
  8
T11SSILL
 62
7
 10
-1501.609
 20
35.566
 30
4145.522
 70
    32
  0
VERTEX
  8
T11SSILL
 62
7
 10
-1502.652
 20
31.192
 30
4145.546
 70
    32
  0
VERTEX
  8
T11SSILL
 62
7
 10
-1399.009
 20
-113.218
 30
4144.827
 70
    32
  0
VERTEX
  8
T11SSILL
 62
7
 10
-1393.555
 20
-113.714
 30
4144.769
 70
    32
  0
VERTEX
  8
T11SSILL
 62
7
 10
-1390.281
 20
-117.520
 30
4144.744
 70
    32
  0
VERTEX
  8
T11SSILL
 62
7
 10
-1391.053
 20
-124.304
 30
4144.772
 70
    32
  0
VERTEX
  8
T11SSILL
 62
7
 10
-1341.006
 20
-194.046
 30
4144.425
 70
    32
  0
VERTEX
  8
T11SSILL
 62
7
 10
-1336.227
 20
-193.256
 30
4144.371
 70
    32
  0
VERTEX
  8
T11SSILL
 62
7
 10
-1334.393
 20
-195.805
 30
4144.358
 70
    32
  0
VERTEX
  8
T11SSILL
 62
7
 10
-1336.665
 20
-200.087
 30
4144.395
 70
    32
  0
VERTEX
  8
T11SSILL
 62
7
 10
-1287.113
 20
-268.202
 30
4143.984
 70
    32
  0
VERTEX
  8
T11SSILL
 62
7
 10
-1283.110
 20
-267.483
 30
4143.950
 70
    32
  0
VERTEX
  8
T11SSILL
 62
7
 10
-1279.746
 20
-272.160
 30
4143.896
 70
    32
  0
VERTEX
  8
T11SSILL
 62
7
 10
-1281.071
 20
-277.124
 30
4143.883
 70
    32
  0
VERTEX
  8
T11SSILL
 62
7
 10
-1254.881
 20
-314.039
 30
4143.456
 70
    32
  0
VERTEX
  8
T11SSILL
 62
7
 10
-1243.980
 20
-320.286
 30
4143.323
 70
    32
  0
VERTEX
  8
T11SSILL
 62
7
 10
-1218.749
 20
-355.358
 30
4142.914
 70
    32
  0
VERTEX
  8
T11SSILL
 62
7
 10
-1218.501
 20
-365.095
 30
4142.862
 70
    32
  0
VERTEX
  8
T11SSILL
 62
7
 10
-1176.763
 20
-423.070
 30
4142.301
 70
    32
  0
VERTEX
  8
T11SSILL
 62
7
 10
-1172.772
 20
-421.435
 30
4142.257
 70
    32
  0
VERTEX
  8
T11SSILL
 62
7
 10
-1167.348
 20
-428.974
 30
4142.185
 70
    32
  0
VERTEX
  8
T11SSILL
 62
7
 10
-1170.458
 20
-431.828
 30
4142.217
 70
    32
  0
VERTEX
  8
T11SSILL
 62
7
 10
-1132.645
 20
-484.020
 30
4141.709
 70
    32
  0
VERTEX
  8
T11SSILL
 62
7
 10
-1097.270
 20
-498.910
 30
4141.281
 70
    32
  0
VERTEX
  8
T11SSILL
 62
7
 10
-838.159
 20
-485.325
 30
4138.084
 70
    32
  0
VERTEX
  8
T11SSILL
 62
7
 10
-833.954
 20
-483.350
 30
4138.030
 70
    32
  0
VERTEX
  8
T11SSILL
 62
7
 10
-723.507
 20
-405.116
 30
4137.914
 70
    32
  0
VERTEX
  8
T11SSILL
 62
7
 10
-713.274
 20
-400.477
 30
4137.909
 70
    32
  0
VERTEX
  8
T11SSILL
 62
7
 10
-710.085
 20
-396.924
 30
4137.910
 70
    32
  0
VERTEX
  8
T11SSILL
 62
7
 10
-710.928
 20
-393.255
 30
4137.917
 70
    32
  0
VERTEX
  8
T11SSILL
 62
7
 10
-707.299
 20
-380.535
 30
4138.021
 70
    32
  0
VERTEX
  8
T11SSILL
 62
7
 10
-702.886
 20
-375.582
 30
4137.984
 70
    32
  0
VERTEX
  8
T11SSILL
 62
7
 10
-691.142
 20
-375.657
 30
4137.946
 70
    32
  0
VERTEX
  8
T11SSILL
 62
7
 10
-675.388
 20
-373.671
 30
4137.933
 70
    32
  0
VERTEX
  8
T11SSILL
 62
7
 10
-675.377
 20
-363.601
 30
4138.019
 70
    32
  0
VERTEX
  8
T11SSILL
 62
7
 10
-669.293
 20
-362.877
 30
4138.014
 70
    32
  0
VERTEX
  8
T11SSILL
 62
7
 10
-660.652
 20
-377.763
 30
4137.883
 70
    32
  0
VERTEX
  8
T11SSILL
 62
7
 10
-651.398
 20
-383.680
 30
4137.865
 70
    32
  0
VERTEX
  8
T11SSILL
 62
7
 10
-575.509
 20
-397.964
 30
4137.761
 70
    32
  0
VERTEX
  8
T11SSILL
 62
7
 10
-572.430
 20
-402.485
 30
4137.751
 70
    32
  0
VERTEX
  8
T11SSILL
 62
7
 10
-546.032
 20
-419.328
 30
4137.699
 70
    32
  0
VERTEX
  8
T11SSILL
 62
7
 10
-540.098
 20
-418.966
 30
4137.693
 70
    32
  0
VERTEX
  8
T11SSILL
 62
7
 10
-412.532
 20
-326.353
 30
4137.852
 70
    32
  0
VERTEX
  8
T11SSILL
 62
7
 10
-407.300
 20
-332.838
 30
4137.787
 70
    32
  0
VERTEX
  8
T11SSILL
 62
7
 10
-536.692
 20
-425.749
 30
4137.680
 70
    32
  0
VERTEX
  8
T11SSILL
 62
7
 10
123.867
 20
-870.231
 30
4136.213
 70
    32
  0
VERTEX
  8
T11SSILL
 62
7
 10
272.025
 20
-971.760
 30
4135.877
 70
    32
  0
VERTEX
  8
T11SSILL
 62
7
 10
376.002
 20
-858.847
 30
4136.035
 70
    32
  0
VERTEX
  8
T11SSILL
 62
7
 10
386.026
 20
-837.121
 30
4136.074
 70
    32
  0
VERTEX
  8
T11SSILL
 62
7
 10
385.101
 20
-797.951
 30
4136.150
 70
    32
  0
VERTEX
  8
T11SSILL
 62
7
 10
381.325
 20
-790.161
 30
4136.165
 70
    32
  0
VERTEX
  8
T11SSILL
 62
7
 10
377.147
 20
-786.413
 30
4136.175
 70
    32
  0
VERTEX
  8
T11SSILL
 62
7
 10
370.656
 20
-784.749
 30
4136.184
 70
    32
  0
VERTEX
  8
T11SSILL
 62
7
 10
370.850
 20
-781.675
 30
4136.188
 70
    32
  0
VERTEX
  8
T11SSILL
 62
7
 10
369.197
 20
-781.739
 30
4136.190
 70
    32
  0
VERTEX
  8
T11SSILL
 62
7
 10
368.573
 20
-775.220
 30
4136.199
 70
    32
  0
VERTEX
  8
T11SSILL
 62
7
 10
371.260
 20
-775.186
 30
4136.196
 70
    32
  0
VERTEX
  8
T11SSILL
 62
7
 10
377.851
 20
-772.166
 30
4136.193
 70
    32
  0
VERTEX
  8
T11SSILL
 62
7
 10
383.268
 20
-768.185
 30
4136.192
 70
    32
  0
VERTEX
  8
T11SSILL
 62
7
 10
389.361
 20
-730.686
 30
4136.235
 70
    32
  0
VERTEX
  8
T11SSILL
 62
7
 10
388.836
 20
-666.177
 30
4136.322
 70
    32
  0
VERTEX
  8
T11SSILL
 62
7
 10
395.899
 20
-664.328
 30
4136.317
 70
    32
  0
VERTEX
  8
T11SSILL
 62
7
 10
398.486
 20
-825.747
 30
4136.088
 70
    32
  0
VERTEX
  8
T11SSILL
 62
7
 10
397.937
 20
-848.883
 30
4136.039
 70
    32
  0
VERTEX
  8
T11SSILL
 62
7
 10
402.590
 20
-1043.965
 30
4135.617
 70
    32
  0
VERTEX
  8
T11SSILL
 62
7
 10
407.636
 20
-1064.888
 30
4135.569
 70
    32
  0
VERTEX
  8
T11SSILL
 62
7
 10
419.353
 20
-1078.325
 30
4135.530
 70
    32
  0
VERTEX
  8
T11SSILL
 62
7
 10
424.118
 20
-1088.959
 30
4135.504
 70
    32
  0
VERTEX
  8
T11SSILL
 62
7
 10
501.528
 20
-1157.348
 30
4135.295
 70
    32
  0
VERTEX
  8
T11SSILL
 62
7
 10
548.719
 20
-1191.397
 30
4135.185
 70
    32
  0
VERTEX
  8
T11SSILL
 62
7
 10
559.119
 20
-1206.244
 30
4135.144
 70
    32
  0
VERTEX
  8
T11SSILL
 62
7
 10
672.983
 20
-1304.390
 30
4134.843
 70
    32
  0
VERTEX
  8
T11SSILL
 62
7
 10
688.901
 20
-1304.189
 30
4134.831
 70
    32
  0
VERTEX
  8
T11SSILL
 62
7
 10
969.465
 20
-1147.214
 30
4134.942
 70
    32
  0
VERTEX
  8
T11SSILL
 62
7
 10
974.372
 20
-1136.037
 30
4134.962
 70
    32
  0
VERTEX
  8
T11SSILL
 62
7
 10
974.540
 20
-1130.408
 30
4134.974
 70
    32
  0
VERTEX
  8
T11SSILL
 62
7
 10
959.578
 20
-1066.496
 30
4135.123
 70
    32
  0
VERTEX
  8
T11SSILL
 62
7
 10
961.411
 20
-1057.347
 30
4135.141
 70
    32
  0
VERTEX
  8
T11SSILL
 62
7
 10
1024.088
 20
-1039.925
 30
4135.111
 70
    32
  0
VERTEX
  8
T11SSILL
 62
7
 10
1082.279
 20
-1021.190
 30
4135.071
 70
    32
  0
VERTEX
  8
T11SSILL
 62
7
 10
1087.123
 20
-1026.108
 30
4135.059
 70
    32
  0
VERTEX
  8
T11SSILL
 62
7
 10
1093.299
 20
-1039.026
 30
4135.035
 70
    32
  0
VERTEX
  8
T11SSILL
 62
7
 10
1098.058
 20
-1045.175
 30
4135.021
 70
    32
  0
VERTEX
  8
T11SSILL
 62
7
 10
1101.765
 20
-1054.052
 30
4135.005
 70
    32
  0
VERTEX
  8
T11SSILL
 62
7
 10
1113.111
 20
-1055.001
 30
4134.991
 70
    32
  0
VERTEX
  8
T11SSILL
 62
7
 10
1169.079
 20
-990.629
 30
4135.015
 70
    32
  0
VERTEX
  8
T11SSILL
 62
7
 10
1511.307
 20
-282.082
 30
4135.579
 70
    32
  0
VERTEX
  8
T11SSILL
 62
7
 10
1511.872
 20
-275.314
 30
4135.588
 70
    32
  0
VERTEX
  8
T11SSILL
 62
7
 10
1508.051
 20
-274.618
 30
4135.593
 70
    32
  0
VERTEX
  8
T11SSILL
 62
7
 10
1500.016
 20
-277.138
 30
4135.599
 70
    32
  0
VERTEX
  8
T11SSILL
 62
7
 10
1500.100
 20
-267.381
 30
4135.611
 70
    32
  0
VERTEX
  8
T11SSILL
 62
7
 10
1509.943
 20
-265.111
 30
4135.603
 70
    32
  0
VERTEX
  8
T11SSILL
 62
7
 10
1514.040
 20
-259.446
 30
4135.606
 70
    32
  0
VERTEX
  8
T11SSILL
 62
7
 10
1522.331
 20
-268.124
 30
4135.586
 70
    32
  0
VERTEX
  8
T11SSILL
 62
7
 10
1538.261
 20
-268.940
 30
4135.567
 70
    32
  0
VERTEX
  8
T11SSILL
 62
7
 10
1536.807
 20
-276.133
 30
4135.559
 70
    32
  0
VERTEX
  8
T11SSILL
 62
7
 10
1522.918
 20
-274.962
 30
4135.576
 70
    32
  0
VERTEX
  8
T11SSILL
 62
7
 10
1395.416
 20
-539.125
 30
4135.365
 70
    32
  0
VERTEX
  8
T11SSILL
 62
7
 10
1514.622
 20
-536.313
 30
4135.235
 70
    32
  0
VERTEX
  8
T11SSILL
 62
7
 10
1677.325
 20
-532.475
 30
4137.787
 70
    32
  0
VERTEX
  8
T11SSILL
 62
7
 10
1709.207
 20
-470.074
 30
4136.958
 70
    32
  0
VERTEX
  8
T11SSILL
 62
7
 10
1706.279
 20
-464.301
 30
4137.038
 70
    32
  0
VERTEX
  8
T11SSILL
 62
7
 10
1711.095
 20
-441.008
 30
4136.918
 70
    32
  0
VERTEX
  8
T11SSILL
 62
7
 10
1719.062
 20
-432.336
 30
4136.708
 70
    32
  0
VERTEX
  8
T11SSILL
 62
7
 10
1723.989
 20
-435.652
 30
4136.576
 70
    32
  0
VERTEX
  8
T11SSILL
 62
7
 10
1724.809
 20
-430.278
 30
4136.556
 70
    32
  0
VERTEX
  8
T11SSILL
 62
7
 10
1729.061
 20
-422.958
 30
4136.445
 70
    32
  0
VERTEX
  8
T11SSILL
 62
7
 10
1792.023
 20
-370.963
 30
4136.152
 70
    32
  0
VERTEX
  8
T11SSILL
 62
7
 10
1815.823
 20
-372.364
 30
4136.157
 70
    32
  0
VERTEX
  8
T11SSILL
 62
7
 10
1818.977
 20
-365.124
 30
4136.137
 70
    32
  0
VERTEX
  8
T11SSILL
 62
7
 10
1822.587
 20
-339.763
 30
4136.067
 70
    32
  0
VERTEX
  8
T11SSILL
 62
7
 10
1825.492
 20
-330.729
 30
4136.042
 70
    32
  0
VERTEX
  8
T11SSILL
 62
7
 10
1836.711
 20
-318.417
 30
4136.009
 70
    32
  0
VERTEX
  8
T11SSILL
 62
7
 10
1839.040
 20
-312.100
 30
4135.991
 70
    32
  0
VERTEX
  8
T11SSILL
 62
7
 10
1840.033
 20
-304.519
 30
4135.971
 70
    32
  0
VERTEX
  8
T11SSILL
 62
7
 10
1855.726
 20
-292.985
 30
4135.939
 70
    32
  0
VERTEX
  8
T11SSILL
 62
7
 10
1865.096
 20
-275.220
 30
4135.891
 70
    32
  0
VERTEX
  8
T11SSILL
 62
7
 10
1871.459
 20
-268.243
 30
4135.872
 70
    32
  0
VERTEX
  8
T11SSILL
 62
7
 10
1884.101
 20
-264.046
 30
4135.861
 70
    32
  0
VERTEX
  8
T11SSILL
 62
7
 10
1938.742
 20
-264.555
 30
4135.864
 70
    32
  0
VERTEX
  8
T11SSILL
 62
7
 10
1946.245
 20
-263.790
 30
4135.862
 70
    32
  0
VERTEX
  8
T11SSILL
 62
7
 10
1964.890
 20
-267.670
 30
4135.859
 70
    32
  0
VERTEX
  8
T11SSILL
 62
7
 10
1976.256
 20
-260.729
 30
4135.855
 70
    32
  0
VERTEX
  8
T11SSILL
 62
7
 10
2074.282
 20
-195.770
 30
4135.680
 70
    32
  0
VERTEX
  8
T11SSILL
 62
7
 10
2122.844
 20
-161.206
 30
4135.587
 70
    32
  0
VERTEX
  8
T11SSILL
 62
7
 10
2123.743
 20
-155.003
 30
4135.570
 70
    32
  0
VERTEX
  8
T11SSILL
 62
7
 10
2022.009
 20
9.209
 30
4135.492
 70
    32
  0
VERTEX
  8
T11SSILL
 62
7
 10
2019.708
 20
7.308
 30
4135.492
 70
    32
  0
VERTEX
  8
T11SSILL
 62
7
 10
2017.256
 20
11.509
 30
4135.492
 70
    32
  0
VERTEX
  8
T11SSILL
 62
7
 10
2019.907
 20
13.211
 30
4135.492
 70
    32
  0
VERTEX
  8
T11SSILL
 62
7
 10
1917.123
 20
179.123
 30
4135.492
 70
    32
  0
VERTEX
  8
T11SSILL
 62
7
 10
1913.971
 20
177.622
 30
4135.492
 70
    32
  0
VERTEX
  8
T11SSILL
 62
7
 10
1911.520
 20
181.023
 30
4135.492
 70
    32
  0
VERTEX
  8
T11SSILL
 62
7
 10
1914.821
 20
182.774
 30
4135.492
 70
    32
  0
VERTEX
  8
T11SSILL
 62
7
 10
1720.161
 20
497.393
 30
4135.492
 70
    32
  0
VERTEX
  8
T11SSILL
 62
7
 10
1730.065
 20
498.795
 30
4135.492
 70
    32
  0
VERTEX
  8
T11SSILL
 62
7
 10
1779.506
 20
418.315
 30
4135.492
 70
    32
  0
VERTEX
  8
T11SSILL
 62
7
 10
1783.658
 20
419.266
 30
4135.492
 70
    32
  0
VERTEX
  8
T11SSILL
 62
7
 10
1936.534
 20
173.124
 30
4135.492
 70
    32
  0
VERTEX
  8
T11SSILL
 62
7
 10
1939.188
 20
158.717
 30
4135.492
 70
    32
  0
VERTEX
  8
T11SSILL
 62
7
 10
2162.718
 20
-203.174
 30
4135.704
 70
    32
  0
VERTEX
  8
T11SSILL
 62
7
 10
2679.372
 20
-1041.704
 30
4145.907
 70
    32
  0
VERTEX
  8
T11SSILL
 62
7
 10
3054.177
 20
-1650.658
 30
4143.661
 70
    32
  0
VERTEX
  8
T11SSILL
 62
7
 10
3142.795
 20
-1798.340
 30
4143.091
 70
    32
  0
VERTEX
  8
T11SSILL
 62
7
 10
3188.443
 20
-1863.354
 30
4142.915
 70
    32
  0
VERTEX
  8
T11SSILL
 62
7
 10
3192.689
 20
-1871.536
 30
4142.876
 70
    32
  0
VERTEX
  8
T11SSILL
 62
7
 10
3197.317
 20
-1889.306
 30
4142.739
 70
    32
  0
VERTEX
  8
T11SSILL
 62
7
 10
3913.518
 20
-1450.734
 30
4155.419
 70
    32
  0
VERTEX
  8
T11SSILL
 62
7
 10
3926.976
 20
-1436.335
 30
4155.721
 70
    32
  0
VERTEX
  8
T11SSILL
 62
7
 10
3930.635
 20
-1422.730
 30
4155.915
 70
    32
  0
VERTEX
  8
T11SSILL
 62
7
 10
3930.634
 20
-1349.898
 30
4156.748
 70
    32
  0
VERTEX
  8
T11SSILL
 62
7
 10
3936.234
 20
-1250.477
 30
4157.078
 70
    32
  0
VERTEX
  8
T11SSILL
 62
7
 10
3914.663
 20
-1211.135
 30
4156.560
 70
    32
  0
VERTEX
  8
T11SSILL
 62
7
 10
3921.690
 20
-1207.312
 30
4156.566
 70
    32
  0
VERTEX
  8
T11SSILL
 62
7
 10
3937.083
 20
-1235.387
 30
4156.936
 70
    32
  0
VERTEX
  8
T11SSILL
 62
7
 10
3939.395
 20
-1194.341
 30
4156.548
 70
    32
  0
VERTEX
  8
T11SSILL
 62
7
 10
3947.049
 20
-1195.294
 30
4156.605
 70
    32
  0
VERTEX
  8
T11SSILL
 62
7
 10
3938.634
 20
-1349.839
 30
4156.764
 70
    32
  0
VERTEX
  8
T11SSILL
 62
7
 10
3938.634
 20
-1380.539
 30
4156.464
 70
    32
  0
VERTEX
  8
T11SSILL
 62
7
 10
3955.322
 20
-1383.568
 30
4156.333
 70
    32
  0
VERTEX
  8
T11SSILL
 62
7
 10
3954.707
 20
-1390.789
 30
4156.273
 70
    32
  0
VERTEX
  8
T11SSILL
 62
7
 10
3941.098
 20
-1391.594
 30
4156.350
 70
    32
  0
VERTEX
  8
T11SSILL
 62
7
 10
3941.522
 20
-1395.357
 30
4156.309
 70
    32
  0
VERTEX
  8
T11SSILL
 62
7
 10
3958.031
 20
-1401.821
 30
4156.149
 70
    32
  0
VERTEX
  8
T11SSILL
 62
7
 10
3957.316
 20
-1408.807
 30
4156.092
 70
    32
  0
VERTEX
  8
T11SSILL
 62
7
 10
3949.303
 20
-1409.780
 30
4156.147
 70
    32
  0
VERTEX
  8
T11SSILL
 62
7
 10
3945.873
 20
-1412.237
 30
4156.136
 70
    32
  0
VERTEX
  8
T11SSILL
 62
7
 10
3940.173
 20
-1421.406
 30
4156.011
 70
    32
  0
VERTEX
  8
T11SSILL
 62
7
 10
3938.022
 20
-1428.093
 30
4155.927
 70
    32
  0
VERTEX
  8
T11SSILL
 62
7
 10
3938.473
 20
-1434.358
 30
4155.858
 70
    32
  0
VERTEX
  8
T11SSILL
 62
7
 10
3940.343
 20
-1434.301
 30
4155.866
 70
    32
  0
VERTEX
  8
T11SSILL
 62
7
 10
4044.853
 20
-1370.161
 30
4155.748
 70
    32
  0
VERTEX
  8
T11SSILL
 62
7
 10
4045.944
 20
-1368.062
 30
4155.758
 70
    32
  0
VERTEX
  8
T11SSILL
 62
7
 10
4038.909
 20
-1356.207
 30
4155.919
 70
    32
  0
VERTEX
  8
T11SSILL
 62
7
 10
4044.631
 20
-1351.755
 30
4155.914
 70
    32
  0
VERTEX
  8
T11SSILL
 62
7
 10
4052.894
 20
-1364.836
 30
4155.732
 70
    32
  0
VERTEX
  8
T11SSILL
 62
7
 10
4064.224
 20
-1358.211
 30
4155.702
 70
    32
  0
VERTEX
  8
T11SSILL
 62
7
 10
4067.624
 20
-1364.285
 30
4155.621
 70
    32
  0
VERTEX
  8
T11SSILL
 62
7
 10
4052.806
 20
-1381.963
 30
4155.580
 70
    32
  0
VERTEX
  8
T11SSILL
 62
7
 10
4026.361
 20
-1389.815
 30
4155.718
 70
    32
  0
VERTEX
  8
T11SSILL
 62
7
 10
3938.459
 20
-1443.733
 30
4155.753
 70
    32
  0
VERTEX
  8
T11SSILL
 62
7
 10
3390.171
 20
-1780.046
 30
4146.077
 70
    32
  0
VERTEX
  8
T11SSILL
 62
7
 10
3398.221
 20
-1781.550
 30
4146.152
 70
    32
  0
VERTEX
  8
T11SSILL
 62
7
 10
3404.005
 20
-1784.517
 30
4146.186
 70
    32
  0
VERTEX
  8
T11SSILL
 62
7
 10
3408.611
 20
-1787.688
 30
4146.204
 70
    32
  0
VERTEX
  8
T11SSILL
 62
7
 10
3416.789
 20
-1797.638
 30
4146.190
 70
    32
  0
VERTEX
  8
T11SSILL
 62
7
 10
3595.489
 20
-2049.086
 30
4145.300
 70
    32
  0
VERTEX
  8
T11SSILL
 62
7
 10
3604.070
 20
-2057.111
 30
4145.295
 70
    32
  0
VERTEX
  8
T11SSILL
 62
7
 10
3634.235
 20
-2097.896
 30
4145.133
 70
    32
  0
VERTEX
  8
T11SSILL
 62
7
 10
3635.608
 20
-2103.619
 30
4145.081
 70
    32
  0
VERTEX
  8
T11SSILL
 62
7
 10
3810.605
 20
-2346.585
 30
4144.069
 70
    32
  0
VERTEX
  8
T11SSILL
 62
7
 10
3816.221
 20
-2349.255
 30
4144.095
 70
    32
  0
VERTEX
  8
T11SSILL
 62
7
 10
3850.316
 20
-2396.593
 30
4143.898
 70
    32
  0
VERTEX
  8
T11SSILL
 62
7
 10
3852.014
 20
-2403.322
 30
4143.838
 70
    32
  0
VERTEX
  8
T11SSILL
 62
7
 10
3951.527
 20
-2541.510
 30
4143.410
 70
    32
  0
VERTEX
  8
T11SSILL
 62
7
 10
3955.057
 20
-2543.246
 30
4143.437
 70
    32
  0
VERTEX
  8
T11SSILL
 62
7
 10
3968.235
 20
-2539.316
 30
4143.530
 70
    32
  0
VERTEX
  8
T11SSILL
 62
7
 10
3970.542
 20
-2535.042
 30
4143.541
 70
    32
  0
VERTEX
  8
T11SSILL
 62
7
 10
3966.779
 20
-2530.131
 30
4143.548
 70
    32
  0
VERTEX
  8
T11SSILL
 62
7
 10
3979.157
 20
-2521.021
 30
4143.779
 70
    32
  0
VERTEX
  8
T11SSILL
 62
7
 10
3997.068
 20
-2544.185
 30
4143.616
 70
    32
  0
VERTEX
  8
T11SSILL
 62
7
 10
3984.712
 20
-2553.248
 30
4143.534
 70
    32
  0
VERTEX
  8
T11SSILL
 62
7
 10
3969.959
 20
-2553.901
 30
4143.499
 70
    32
  0
VERTEX
  8
T11SSILL
 62
7
 10
3953.447
 20
-2557.508
 30
4143.432
 70
    32
  0
VERTEX
  8
T11SSILL
 62
7
 10
3946.295
 20
-2553.097
 30
4143.380
 70
    32
  0
VERTEX
  8
T11SSILL
 62
7
 10
3914.689
 20
-2509.167
 30
4143.259
 70
    32
  0
VERTEX
  8
T11SSILL
 62
7
 10
3909.053
 20
-2494.008
 30
4143.376
 70
    32
  0
VERTEX
  8
T11SSILL
 62
7
 10
3402.823
 20
-1793.691
 30
4146.075
 70
    32
  0
VERTEX
  8
T11SSILL
 62
7
 10
3391.234
 20
-1788.575
 30
4145.998
 70
    32
  0
VERTEX
  8
T11SSILL
 62
7
 10
3374.577
 20
-1788.836
 30
4145.808
 70
    32
  0
VERTEX
  8
T11SSILL
 62
7
 10
3198.938
 20
-1896.736
 30
4142.679
 70
    32
  0
VERTEX
  8
T11SSILL
 62
7
 10
3200.207
 20
-1926.200
 30
4142.380
 70
    32
  0
VERTEX
  8
T11SSILL
 62
7
 10
3145.976
 20
-2355.913
 30
4137.195
 70
    32
  0
VERTEX
  8
T11SSILL
 62
7
 10
3084.939
 20
-2839.547
 30
4137.365
 70
    32
  0
VERTEX
  8
T11SSILL
 62
7
 10
3020.091
 20
-3372.115
 30
4137.185
 70
    32
  0
VERTEX
  8
T11SSILL
 62
7
 10
3055.819
 20
-3429.246
 30
4137.561
 70
    32
  0
VERTEX
  8
T11SSILL
 62
7
 10
3049.366
 20
-3431.655
 30
4137.521
 70
    32
  0
VERTEX
  8
T11SSILL
 62
7
 10
3018.679
 20
-3382.573
 30
4137.213
 70
    32
  0
VERTEX
  8
T11SSILL
 62
7
 10
3004.672
 20
-3486.186
 30
4137.487
 70
    32
  0
VERTEX
  8
T11SSILL
 62
7
 10
3012.634
 20
-3492.120
 30
4137.484
 70
    32
  0
VERTEX
  8
T11SSILL
 62
7
 10
3025.266
 20
-3494.733
 30
4137.499
 70
    32
  0
VERTEX
  8
T11SSILL
 62
7
 10
3024.800
 20
-3502.658
 30
4137.514
 70
    32
  0
VERTEX
  8
T11SSILL
 62
7
 10
3011.628
 20
-3500.472
 30
4137.506
 70
    32
  0
VERTEX
  8
T11SSILL
 62
7
 10
3002.756
 20
-3506.066
 30
4137.538
 70
    32
  0
VERTEX
  8
T11SSILL
 62
7
 10
2972.606
 20
-3747.514
 30
4138.171
 70
    32
  0
VERTEX
  8
T11SSILL
 62
7
 10
2794.847
 20
-3934.021
 30
4139.521
 70
    32
  0
VERTEX
  8
T11SSILL
 62
7
 10
2439.541
 20
-4186.456
 30
4141.114
 70
    32
  0
VERTEX
  8
T11SSILL
 62
7
 10
2423.645
 20
-4208.723
 30
4141.144
 70
    32
  0
VERTEX
  8
T11SSILL
 62
7
 10
2409.684
 20
-4235.715
 30
4141.140
 70
    32
  0
VERTEX
  8
T11SSILL
 62
7
 10
2400.911
 20
-4231.271
 30
4141.124
 70
    32
  0
VERTEX
  8
T11SSILL
 62
7
 10
2411.310
 20
-4211.420
 30
4141.147
 70
    32
  0
VERTEX
  8
T11SSILL
 62
7
 10
2407.149
 20
-4209.470
 30
4141.139
 70
    32
  0
VERTEX
  8
T11SSILL
 62
7
 10
2392.544
 20
-4219.846
 30
4141.109
 70
    32
  0
VERTEX
  8
T11SSILL
 62
7
 10
2390.158
 20
-4223.397
 30
4141.104
 70
    32
  0
VERTEX
  8
T11SSILL
 62
7
 10
2389.796
 20
-4235.716
 30
4141.101
 70
    32
  0
VERTEX
  8
T11SSILL
 62
7
 10
2366.260
 20
-4247.492
 30
4141.053
 70
    32
  0
VERTEX
  8
T11SSILL
 62
7
 10
2356.484
 20
-4246.948
 30
4141.034
 70
    32
  0
VERTEX
  8
T11SSILL
 62
7
 10
2348.699
 20
-4240.064
 30
4141.020
 70
    32
  0
VERTEX
  8
T11SSILL
 62
7
 10
2348.699
 20
-4231.368
 30
4141.022
 70
    32
  0
VERTEX
  8
T11SSILL
 62
7
 10
2356.665
 20
-4227.382
 30
4141.038
 70
    32
  0
VERTEX
  8
T11SSILL
 62
7
 10
2366.984
 20
-4227.382
 30
4141.058
 70
    32
  0
VERTEX
  8
T11SSILL
 62
7
 10
2377.485
 20
-4220.860
 30
4141.080
 70
    32
  0
VERTEX
  8
T11SSILL
 62
7
 10
2381.468
 20
-4215.969
 30
4141.088
 70
    32
  0
VERTEX
  8
T11SSILL
 62
7
 10
2379.838
 20
-4213.433
 30
4141.085
 70
    32
  0
VERTEX
  8
T11SSILL
 62
7
 10
2370.786
 20
-4216.331
 30
4141.067
 70
    32
  0
VERTEX
  8
T11SSILL
 62
7
 10
2358.287
 20
-4217.600
 30
4141.043
 70
    32
  0
VERTEX
  8
T11SSILL
 62
7
 10
2345.203
 20
-4220.656
 30
4141.017
 70
    32
  0
VERTEX
  8
T11SSILL
 62
7
 10
2343.261
 20
-4212.317
 30
4141.014
 70
    32
  0
VERTEX
  8
T11SSILL
 62
7
 10
2350.511
 20
-4210.532
 30
4141.029
 70
    32
  0
VERTEX
  8
T11SSILL
 62
7
 10
2353.949
 20
-4204.193
 30
4141.036
 70
    32
  0
VERTEX
  8
T11SSILL
 62
7
 10
2363.002
 20
-4199.664
 30
4141.055
 70
    32
  0
VERTEX
  8
T11SSILL
 62
7
 10
2379.114
 20
-4196.403
 30
4141.087
 70
    32
  0
VERTEX
  8
T11SSILL
 62
7
 10
2382.373
 20
-4200.570
 30
4141.092
 70
    32
  0
VERTEX
  8
T11SSILL
 62
7
 10
2389.787
 20
-4200.861
 30
4141.107
 70
    32
  0
VERTEX
  8
T11SSILL
 62
7
 10
2394.168
 20
-4199.782
 30
4141.116
 70
    32
  0
VERTEX
  8
T11SSILL
 62
7
 10
2402.012
 20
-4193.318
 30
4141.119
 70
    32
  0
VERTEX
  8
T11SSILL
 62
7
 10
2411.488
 20
-4194.604
 30
4141.128
 70
    32
  0
VERTEX
  8
T11SSILL
 62
7
 10
2420.333
 20
-4190.289
 30
4141.121
 70
    32
  0
VERTEX
  8
T11SSILL
 62
7
 10
2790.213
 20
-3927.499
 30
4139.512
 70
    32
  0
VERTEX
  8
T11SSILL
 62
7
 10
2964.994
 20
-3743.906
 30
4138.179
 70
    32
  0
VERTEX
  8
T11SSILL
 62
7
 10
2990.008
 20
-3546.219
 30
4137.660
 70
    32
  0
VERTEX
  8
T11SSILL
 62
7
 10
2982.295
 20
-3544.348
 30
4137.672
 70
    32
  0
VERTEX
  8
T11SSILL
 62
7
 10
2982.493
 20
-3540.032
 30
4137.661
 70
    32
  0
VERTEX
  8
T11SSILL
 62
7
 10
2976.920
 20
-3537.245
 30
4137.666
 70
    32
  0
VERTEX
  8
T11SSILL
 62
7
 10
2977.449
 20
-3530.291
 30
4137.649
 70
    32
  0
VERTEX
  8
T11SSILL
 62
7
 10
2983.284
 20
-3529.734
 30
4137.635
 70
    32
  0
VERTEX
  8
T11SSILL
 62
7
 10
2985.387
 20
-3526.789
 30
4137.624
 70
    32
  0
VERTEX
  8
T11SSILL
 62
7
 10
2992.351
 20
-3526.878
 30
4137.609
 70
    32
  0
VERTEX
  8
T11SSILL
 62
7
 10
3015.738
 20
-3342.110
 30
4137.124
 70
    32
  0
VERTEX
  8
T11SSILL
 62
7
 10
3000.687
 20
-3334.235
 30
4137.134
 70
    32
  0
VERTEX
  8
T11SSILL
 62
7
 10
3007.878
 20
-3318.278
 30
4137.067
 70
    32
  0
VERTEX
  8
T11SSILL
 62
7
 10
3018.856
 20
-3313.089
 30
4137.062
 70
    32
  0
VERTEX
  8
T11SSILL
 62
7
 10
3139.361
 20
-2351.613
 30
4137.170
 70
    32
  0
VERTEX
  8
T11SSILL
 62
7
 10
3193.509
 20
-1924.556
 30
4142.322
 70
    32
  0
VERTEX
  8
T11SSILL
 62
7
 10
3194.008
 20
-1905.750
 30
4142.527
 70
    32
  0
VERTEX
  8
T11SSILL
 62
7
 10
3192.912
 20
-1900.679
 30
4142.569
 70
    32
  0
VERTEX
  8
T11SSILL
 62
7
 10
3105.644
 20
-1952.592
 30
4141.032
 70
    32
  0
VERTEX
  8
T11SSILL
 62
7
 10
2883.688
 20
-2089.302
 30
4137.140
 70
    32
  0
VERTEX
  8
T11SSILL
 62
7
 10
2001.432
 20
-2632.711
 30
4136.106
 70
    32
  0
VERTEX
  8
T11SSILL
 62
7
 10
2004.567
 20
-2638.932
 30
4136.100
 70
    32
  0
VERTEX
  8
T11SSILL
 62
7
 10
1994.150
 20
-2645.272
 30
4136.085
 70
    32
  0
VERTEX
  8
T11SSILL
 62
7
 10
1990.497
 20
-2640.288
 30
4136.089
 70
    32
  0
VERTEX
  8
T11SSILL
 62
7
 10
1979.640
 20
-2646.720
 30
4136.074
 70
    32
  0
VERTEX
  8
T11SSILL
 62
7
 10
1943.011
 20
-2674.943
 30
4136.018
 70
    32
  0
VERTEX
  8
T11SSILL
 62
7
 10
1938.003
 20
-2685.900
 30
4136.017
 70
    32
  0
VERTEX
  8
T11SSILL
 62
7
 10
1906.370
 20
-2701.757
 30
4136.041
 70
    32
  0
VERTEX
  8
T11SSILL
 62
7
 10
1815.566
 20
-2754.572
 30
4136.174
 70
    32
  0
VERTEX
  8
T11SSILL
 62
7
 10
1792.361
 20
-2788.045
 30
4136.273
 70
    32
  0
VERTEX
  8
T11SSILL
 62
7
 10
1787.730
 20
-2801.903
 30
4136.316
 70
    32
  0
VERTEX
  8
T11SSILL
 62
7
 10
1784.708
 20
-2818.564
 30
4136.369
 70
    32
  0
VERTEX
  8
T11SSILL
 62
7
 10
1784.398
 20
-2833.353
 30
4136.417
 70
    32
  0
VERTEX
  8
T11SSILL
 62
7
 10
1789.543
 20
-2840.906
 30
4136.444
 70
    32
  0
VERTEX
  8
T11SSILL
 62
7
 10
1801.864
 20
-2847.500
 30
4136.471
 70
    32
  0
VERTEX
  8
T11SSILL
 62
7
 10
1800.419
 20
-2853.308
 30
4136.489
 70
    32
  0
VERTEX
  8
T11SSILL
 62
7
 10
1807.032
 20
-2858.657
 30
4136.510
 70
    32
  0
VERTEX
  8
T11SSILL
 62
7
 10
1815.381
 20
-2849.137
 30
4136.482
 70
    32
  0
VERTEX
  8
T11SSILL
 62
7
 10
1817.583
 20
-2849.035
 30
4136.483
 70
    32
  0
VERTEX
  8
T11SSILL
 62
7
 10
1831.407
 20
-2857.128
 30
4136.515
 70
    32
  0
VERTEX
  8
T11SSILL
 62
7
 10
1841.830
 20
-2867.028
 30
4136.552
 70
    32
  0
VERTEX
  8
T11SSILL
 62
7
 10
1874.139
 20
-2889.016
 30
4136.637
 70
    32
  0
VERTEX
  8
T11SSILL
 62
7
 10
1876.148
 20
-2894.570
 30
4136.656
 70
    32
  0
VERTEX
  8
T11SSILL
 62
7
 10
1884.163
 20
-2900.518
 30
4136.679
 70
    32
  0
VERTEX
  8
T11SSILL
 62
7
 10
1894.253
 20
-2926.886
 30
4136.770
 70
    32
  0
VERTEX
  8
T11SSILL
 62
7
 10
1913.241
 20
-2942.082
 30
4136.827
 70
    32
  0
VERTEX
  8
T11SSILL
 62
7
 10
1922.239
 20
-2977.160
 30
4136.946
 70
    32
  0
VERTEX
  8
T11SSILL
 62
7
 10
1934.299
 20
-2973.793
 30
4136.940
 70
    32
  0
VERTEX
  8
T11SSILL
 62
7
 10
1956.077
 20
-3023.074
 30
4137.110
 70
    32
  0
VERTEX
  8
T11SSILL
 62
7
 10
1976.870
 20
-3086.320
 30
4137.325
 70
    32
  0
VERTEX
  8
T11SSILL
 62
7
 10
1969.239
 20
-3111.506
 30
4137.404
 70
    32
  0
VERTEX
  8
T11SSILL
 62
7
 10
1951.182
 20
-3123.039
 30
4137.434
 70
    32
  0
VERTEX
  8
T11SSILL
 62
7
 10
1944.321
 20
-3120.444
 30
4137.423
 70
    32
  0
VERTEX
  8
T11SSILL
 62
7
 10
1927.400
 20
-3118.010
 30
4137.407
 70
    32
  0
VERTEX
  8
T11SSILL
 62
7
 10
1909.859
 20
-3098.508
 30
4137.336
 70
    32
  0
VERTEX
  8
T11SSILL
 62
7
 10
1892.154
 20
-3065.791
 30
4137.222
 70
    32
  0
VERTEX
  8
T11SSILL
 62
7
 10
1862.845
 20
-3041.446
 30
4137.130
 70
    32
  0
VERTEX
  8
T11SSILL
 62
7
 10
1856.033
 20
-3037.450
 30
4137.114
 70
    32
  0
VERTEX
  8
T11SSILL
 62
7
 10
1844.672
 20
-3039.314
 30
4137.115
 70
    32
  0
VERTEX
  8
T11SSILL
 62
7
 10
1830.015
 20
-3047.539
 30
4137.136
 70
    32
  0
VERTEX
  8
T11SSILL
 62
7
 10
1819.266
 20
-3058.964
 30
4137.168
 70
    32
  0
VERTEX
  8
T11SSILL
 62
7
 10
1810.460
 20
-3062.327
 30
4137.175
 70
    32
  0
VERTEX
  8
T11SSILL
 62
7
 10
1782.267
 20
-3051.346
 30
4137.128
 70
    32
  0
VERTEX
  8
T11SSILL
 62
7
 10
1782.912
 20
-3045.989
 30
4137.110
 70
    32
  0
VERTEX
  8
T11SSILL
 62
7
 10
1769.925
 20
-3025.581
 30
4137.038
 70
    32
  0
VERTEX
  8
T11SSILL
 62
7
 10
1752.118
 20
-2991.714
 30
4136.920
 70
    32
  0
VERTEX
  8
T11SSILL
 62
7
 10
1722.230
 20
-2941.041
 30
4136.742
 70
    32
  0
VERTEX
  8
T11SSILL
 62
7
 10
1718.178
 20
-2943.998
 30
4136.750
 70
    32
  0
VERTEX
  8
T11SSILL
 62
7
 10
1716.975
 20
-2942.198
 30
4136.743
 70
    32
  0
VERTEX
  8
T11SSILL
 62
7
 10
1705.076
 20
-2955.275
 30
4136.781
 70
    32
  0
VERTEX
  8
T11SSILL
 62
7
 10
1680.293
 20
-2994.946
 30
4136.900
 70
    32
  0
VERTEX
  8
T11SSILL
 62
7
 10
1686.659
 20
-3002.948
 30
4136.929
 70
    32
  0
VERTEX
  8
T11SSILL
 62
7
 10
1692.870
 20
-3007.446
 30
4136.946
 70
    32
  0
VERTEX
  8
T11SSILL
 62
7
 10
1690.923
 20
-3011.653
 30
4136.959
 70
    32
  0
VERTEX
  8
T11SSILL
 62
7
 10
1687.523
 20
-3014.910
 30
4136.968
 70
    32
  0
VERTEX
  8
T11SSILL
 62
7
 10
1682.016
 20
-3014.666
 30
4136.965
 70
    32
  0
VERTEX
  8
T11SSILL
 62
7
 10
1674.201
 20
-3008.818
 30
4136.942
 70
    32
  0
VERTEX
  8
T11SSILL
 62
7
 10
1670.296
 20
-3007.921
 30
4136.938
 70
    32
  0
VERTEX
  8
T11SSILL
 62
7
 10
1666.996
 20
-3010.828
 30
4136.946
 70
    32
  0
VERTEX
  8
T11SSILL
 62
7
 10
1665.643
 20
-3009.678
 30
4136.941
 70
    32
  0
VERTEX
  8
T11SSILL
 62
7
 10
1662.835
 20
-3005.177
 30
4136.926
 70
    32
  0
VERTEX
  8
T11SSILL
 62
7
 10
1665.287
 20
-3004.523
 30
4136.924
 70
    32
  0
VERTEX
  8
T11SSILL
 62
7
 10
1673.377
 20
-2987.696
 30
4136.873
 70
    32
  0
VERTEX
  8
T11SSILL
 62
7
 10
1698.913
 20
-2949.075
 30
4136.758
 70
    32
  0
VERTEX
  8
T11SSILL
 62
7
 10
1741.293
 20
-2888.662
 30
4136.579
 70
    32
  0
VERTEX
  8
T11SSILL
 62
7
 10
1722.705
 20
-2873.166
 30
4136.521
 70
    32
  0
VERTEX
  8
T11SSILL
 62
7
 10
1719.400
 20
-2871.818
 30
4136.515
 70
    32
  0
VERTEX
  8
T11SSILL
 62
7
 10
1703.841
 20
-2878.442
 30
4136.530
 70
    32
  0
VERTEX
  8
T11SSILL
 62
7
 10
1688.384
 20
-2888.020
 30
4136.554
 70
    32
  0
VERTEX
  8
T11SSILL
 62
7
 10
1680.766
 20
-2878.918
 30
4136.521
 70
    32
  0
VERTEX
  8
T11SSILL
 62
7
 10
1652.659
 20
-2855.924
 30
4136.434
 70
    32
  0
VERTEX
  8
T11SSILL
 62
7
 10
1638.083
 20
-2846.629
 30
4136.398
 70
    32
  0
VERTEX
  8
T11SSILL
 62
7
 10
1614.537
 20
-2828.335
 30
4136.328
 70
    32
  0
VERTEX
  8
T11SSILL
 62
7
 10
1586.256
 20
-2782.566
 30
4136.166
 70
    32
  0
VERTEX
  8
T11SSILL
 62
7
 10
1562.384
 20
-2741.047
 30
4136.021
 70
    32
  0
VERTEX
  8
T11SSILL
 62
7
 10
1561.373
 20
-2731.838
 30
4135.990
 70
    32
  0
VERTEX
  8
T11SSILL
 62
7
 10
1535.939
 20
-2681.160
 30
4135.814
 70
    32
  0
VERTEX
  8
T11SSILL
 62
7
 10
1257.665
 20
-2573.848
 30
4135.827
 70
    32
  0
VERTEX
  8
T11SSILL
 62
7
 10
1253.412
 20
-2575.254
 30
4135.823
 70
    32
  0
VERTEX
  8
T11SSILL
 62
7
 10
1251.564
 20
-2579.160
 30
4135.817
 70
    32
  0
VERTEX
  8
T11SSILL
 62
7
 10
1251.917
 20
-2581.963
 30
4135.813
 70
    32
  0
VERTEX
  8
T11SSILL
 62
7
 10
1260.483
 20
-2587.660
 30
4135.810
 70
    32
  0
VERTEX
  8
T11SSILL
 62
7
 10
1261.487
 20
-2590.712
 30
4135.806
 70
    32
  0
VERTEX
  8
T11SSILL
 62
7
 10
1249.491
 20
-2606.092
 30
4135.780
 70
    32
  0
VERTEX
  8
T11SSILL
 62
7
 10
1239.524
 20
-2600.547
 30
4135.783
 70
    32
  0
VERTEX
  8
T11SSILL
 62
7
 10
1232.058
 20
-2593.347
 30
4135.789
 70
    32
  0
VERTEX
  8
T11SSILL
 62
7
 10
1233.706
 20
-2589.541
 30
4135.795
 70
    32
  0
VERTEX
  8
T11SSILL
 62
7
 10
1243.753
 20
-2577.367
 30
4135.816
 70
    32
  0
VERTEX
  8
T11SSILL
 62
7
 10
1246.399
 20
-2570.456
 30
4135.826
 70
    32
  0
VERTEX
  8
T11SSILL
 62
7
 10
1125.364
 20
-2525.315
 30
4135.831
 70
    32
  0
VERTEX
  8
T11SSILL
 62
7
 10
1120.235
 20
-2534.282
 30
4135.816
 70
    32
  0
VERTEX
  8
T11SSILL
 62
7
 10
1114.126
 20
-2533.514
 30
4135.814
 70
    32
  0
VERTEX
  8
T11SSILL
 62
7
 10
1109.321
 20
-2525.580
 30
4135.823
 70
    32
  0
VERTEX
  8
T11SSILL
 62
7
 10
1106.206
 20
-2524.422
 30
4135.823
 70
    32
  0
VERTEX
  8
T11SSILL
 62
7
 10
1083.354
 20
-2527.678
 30
4135.808
 70
    32
  0
VERTEX
  8
T11SSILL
 62
7
 10
1046.041
 20
-2544.824
 30
4135.768
 70
    32
  0
VERTEX
  8
T11SSILL
 62
7
 10
1002.353
 20
-2530.112
 30
4135.767
 70
    32
  0
VERTEX
  8
T11SSILL
 62
7
 10
988.950
 20
-2518.494
 30
4135.777
 70
    32
  0
VERTEX
  8
T11SSILL
 62
7
 10
977.136
 20
-2502.356
 30
4135.793
 70
    32
  0
VERTEX
  8
T11SSILL
 62
7
 10
633.052
 20
-2233.470
 30
4135.550
 70
    32
  0
VERTEX
  8
T11SSILL
 62
7
 10
624.079
 20
-2224.192
 30
4135.534
 70
    32
  0
VERTEX
  8
T11SSILL
 62
7
 10
561.397
 20
-2090.209
 30
4135.368
 70
    32
  0
VERTEX
  8
T11SSILL
 62
7
 10
462.834
 20
-2024.343
 30
4135.230
 70
    32
  0
VERTEX
  8
T11SSILL
 62
7
 10
423.926
 20
-1879.617
 30
4135.073
 70
    32
  0
VERTEX
  8
T11SSILL
 62
7
 10
418.023
 20
-1867.980
 30
4135.059
 70
    32
  0
VERTEX
  8
T11SSILL
 62
7
 10
410.277
 20
-1857.017
 30
4135.043
 70
    32
  0
VERTEX
  8
T11SSILL
 62
7
 10
398.109
 20
-1844.759
 30
4135.022
 70
    32
  0
VERTEX
  8
T11SSILL
 62
7
 10
386.566
 20
-1827.244
 30
4134.998
 70
    32
  0
VERTEX
  8
T11SSILL
 62
7
 10
384.559
 20
-1826.308
 30
4134.995
 70
    32
  0
VERTEX
  8
T11SSILL
 62
7
 10
-783.003
 20
-2664.899
 30
4134.764
 70
    32
  0
VERTEX
  8
T11SSILL
 62
7
 10
-783.718
 20
-2669.705
 30
4134.774
 70
    32
  0
VERTEX
  8
T11SSILL
 62
7
 10
-774.251
 20
-2699.192
 30
4134.831
 70
    32
  0
VERTEX
  8
T11SSILL
 62
7
 10
-766.460
 20
-2711.387
 30
4134.860
 70
    32
  0
VERTEX
  8
T11SSILL
 62
7
 10
-757.949
 20
-2733.180
 30
4134.905
 70
    32
  0
VERTEX
  8
T11SSILL
 62
7
 10
-738.317
 20
-2771.633
 30
4134.989
 70
    32
  0
VERTEX
  8
T11SSILL
 62
7
 10
-711.760
 20
-2834.908
 30
4135.120
 70
    32
  0
VERTEX
  8
T11SSILL
 62
7
 10
-705.893
 20
-2840.537
 30
4135.136
 70
    32
  0
VERTEX
  8
T11SSILL
 62
7
 10
-706.623
 20
-2842.195
 30
4135.138
 70
    32
  0
VERTEX
  8
T11SSILL
 62
7
 10
-713.123
 20
-2846.323
 30
4135.136
 70
    32
  0
VERTEX
  8
T11SSILL
 62
7
 10
-720.274
 20
-2841.959
 30
4135.120
 70
    32
  0
VERTEX
  8
T11SSILL
 62
7
 10
-719.359
 20
-2834.949
 30
4135.111
 70
    32
  0
VERTEX
  8
T11SSILL
 62
7
 10
-749.725
 20
-2766.670
 30
4134.967
 70
    32
  0
VERTEX
  8
T11SSILL
 62
7
 10
-756.109
 20
-2759.597
 30
4134.948
 70
    32
  0
VERTEX
  8
T11SSILL
 62
7
 10
-759.828
 20
-2742.945
 30
4134.917
 70
    32
  0
VERTEX
  8
T11SSILL
 62
7
 10
-776.956
 20
-2712.214
 30
4134.848
 70
    32
  0
VERTEX
  8
T11SSILL
 62
7
 10
-781.941
 20
-2700.748
 30
4134.824
 70
    32
  0
VERTEX
  8
T11SSILL
 62
7
 10
-789.381
 20
-2674.897
 30
4134.775
 70
    32
  0
VERTEX
  8
T11SSILL
 62
7
 10
-790.995
 20
-2673.109
 30
4134.770
 70
    32
  0
VERTEX
  8
T11SSILL
 62
7
 10
-795.640
 20
-2673.793
 30
4134.765
 70
    32
  0
VERTEX
  8
T11SSILL
 62
7
 10
-953.694
 20
-2788.365
 30
4134.790
 70
    32
  0
VERTEX
  8
T11SSILL
 62
7
 10
-958.009
 20
-2782.918
 30
4134.817
 70
    32
  0
VERTEX
  8
T11SSILL
 62
7
 10
-794.458
 20
-2664.482
 30
4134.775
 70
    32
  0
VERTEX
  8
T11SSILL
 62
7
 10
-794.090
 20
-2660.079
 30
4134.788
 70
    32
  0
VERTEX
  8
T11SSILL
 62
7
 10
-798.326
 20
-2648.407
 30
4134.834
 70
    32
  0
VERTEX
  8
T11SSILL
 62
7
 10
-818.127
 20
-2614.545
 30
4134.988
 70
    32
  0
VERTEX
  8
T11SSILL
 62
7
 10
-817.366
 20
-2608.498
 30
4135.005
 70
    32
  0
VERTEX
  8
T11SSILL
 62
7
 10
-823.025
 20
-2578.568
 30
4135.111
 70
    32
  0
VERTEX
  8
T11SSILL
 62
7
 10
-826.633
 20
-2573.712
 30
4135.135
 70
    32
  0
VERTEX
  8
T11SSILL
 62
7
 10
-831.174
 20
-2570.267
 30
4135.157
 70
    32
  0
VERTEX
  8
T11SSILL
 62
7
 10
-825.588
 20
-2560.801
 30
4135.172
 70
    32
  0
VERTEX
  8
T11SSILL
 62
7
 10
-837.158
 20
-2529.893
 30
4135.296
 70
    32
  0
VERTEX
  8
T11SSILL
 62
7
 10
-844.362
 20
-2525.280
 30
4135.329
 70
    32
  0
VERTEX
  8
T11SSILL
 62
7
 10
-843.165
 20
-2512.517
 30
4135.365
 70
    32
  0
VERTEX
  8
T11SSILL
 62
7
 10
-854.854
 20
-2480.010
 30
4135.494
 70
    32
  0
VERTEX
  8
T11SSILL
 62
7
 10
-861.374
 20
-2474.139
 30
4135.529
 70
    32
  0
VERTEX
  8
T11SSILL
 62
7
 10
-859.432
 20
-2465.167
 30
4135.551
 70
    32
  0
VERTEX
  8
T11SSILL
 62
7
 10
-868.058
 20
-2450.422
 30
4135.618
 70
    32
  0
VERTEX
  8
T11SSILL
 62
7
 10
-884.656
 20
-2433.822
 30
4135.711
 70
    32
  0
VERTEX
  8
T11SSILL
 62
7
 10
-892.425
 20
-2432.116
 30
4135.735
 70
    32
  0
VERTEX
  8
T11SSILL
 62
7
 10
-894.762
 20
-2429.044
 30
4135.751
 70
    32
  0
VERTEX
  8
T11SSILL
 62
7
 10
-894.636
 20
-2422.843
 30
4135.770
 70
    32
  0
VERTEX
  8
T11SSILL
 62
7
 10
-903.677
 20
-2415.203
 30
4135.816
 70
    32
  0
VERTEX
  8
T11SSILL
 62
7
 10
-913.862
 20
-2403.876
 30
4135.876
 70
    32
  0
VERTEX
  8
T11SSILL
 62
7
 10
-921.685
 20
-2401.920
 30
4135.901
 70
    32
  0
VERTEX
  8
T11SSILL
 62
7
 10
-923.795
 20
-2395.823
 30
4135.925
 70
    32
  0
VERTEX
  8
T11SSILL
 62
7
 10
-917.730
 20
-2390.878
 30
4135.926
 70
    32
  0
VERTEX
  8
T11SSILL
 62
7
 10
-864.281
 20
-2444.148
 30
4135.628
 70
    32
  0
VERTEX
  8
T11SSILL
 62
7
 10
-855.603
 20
-2454.487
 30
4135.575
 70
    32
  0
VERTEX
  8
T11SSILL
 62
7
 10
-823.075
 20
-2546.518
 30
4135.210
 70
    32
  0
VERTEX
  8
T11SSILL
 62
7
 10
-812.332
 20
-2606.851
 30
4134.997
 70
    32
  0
VERTEX
  8
T11SSILL
 62
7
 10
-808.609
 20
-2616.826
 30
4134.957
 70
    32
  0
VERTEX
  8
T11SSILL
 62
7
 10
-799.437
 20
-2633.313
 30
4134.884
 70
    32
  0
VERTEX
  8
T11SSILL
 62
7
 10
-783.908
 20
-2657.404
 30
4134.764
 70
    32
  0
VERTEX
  8
T11SSILL
 62
7
 10
378.531
 20
-1822.651
 30
4134.987
 70
    32
  0
VERTEX
  8
T11SSILL
 62
7
 10
378.712
 20
-1820.049
 30
4134.985
 70
    32
  0
VERTEX
  8
T11SSILL
 62
7
 10
370.241
 20
-1810.509
 30
4134.970
 70
    32
  0
VERTEX
  8
T11SSILL
 62
7
 10
254.643
 20
-1578.107
 30
4134.900
 70
    32
  0
VERTEX
  8
T11SSILL
 62
7
 10
266.433
 20
-1532.963
 30
4134.949
 70
    32
  0
VERTEX
  8
T11SSILL
 62
7
 10
271.211
 20
-1522.892
 30
4134.957
 70
    32
  0
VERTEX
  8
T11SSILL
 62
7
 10
270.878
 20
-1516.390
 30
4134.966
 70
    32
  0
VERTEX
  8
T11SSILL
 62
7
 10
280.531
 20
-1503.752
 30
4134.971
 70
    32
  0
VERTEX
  8
T11SSILL
 62
7
 10
242.212
 20
-1349.293
 30
4135.243
 70
    32
  0
VERTEX
  8
T11SSILL
 62
7
 10
120.451
 20
-877.853
 30
4136.199
 70
    32
  0
VERTEX
  8
T11SSILL
 62
7
 10
-571.473
 20
-411.261
 30
4137.738
 70
    32
  0
VERTEX
  8
T11SSILL
 62
7
 10
-584.323
 20
-409.362
 30
4137.755
 70
    32
  0
VERTEX
  8
T11SSILL
 62
7
 10
-597.229
 20
-413.987
 30
4137.764
 70
    32
  0
VERTEX
  8
T11SSILL
 62
7
 10
-603.341
 20
-410.109
 30
4137.776
 70
    32
  0
VERTEX
  8
T11SSILL
 62
7
 10
-640.987
 20
-404.792
 30
4137.822
 70
    32
  0
VERTEX
  8
T11SSILL
 62
7
 10
-648.236
 20
-414.380
 30
4137.808
 70
    32
  0
VERTEX
  8
T11SSILL
 62
7
 10
-645.428
 20
-426.652
 30
4137.783
 70
    32
  0
VERTEX
  8
T11SSILL
 62
7
 10
-647.991
 20
-440.074
 30
4137.765
 70
    32
  0
VERTEX
  8
T11SSILL
 62
7
 10
-654.448
 20
-439.961
 30
4137.773
 70
    32
  0
VERTEX
  8
T11SSILL
 62
7
 10
-655.574
 20
-416.066
 30
4137.812
 70
    32
  0
VERTEX
  8
T11SSILL
 62
7
 10
-666.177
 20
-421.486
 30
4137.817
 70
    32
  0
VERTEX
  8
T11SSILL
 62
7
 10
-703.322
 20
-425.221
 30
4137.857
 70
    32
  0
VERTEX
  8
T11SSILL
 62
7
 10
-717.993
 20
-431.827
 30
4137.865
 70
    32
  0
VERTEX
  8
T11SSILL
 62
7
 10
-737.816
 20
-434.191
 30
4137.886
 70
    32
  0
VERTEX
  8
T11SSILL
 62
7
 10
-744.847
 20
-431.798
 30
4137.898
 70
    32
  0
VERTEX
  8
T11SSILL
 62
7
 10
-749.657
 20
-432.928
 30
4137.902
 70
    32
  0
VERTEX
  8
T11SSILL
 62
7
 10
-810.108
 20
-476.253
 30
4137.909
 70
    32
  0
VERTEX
  8
T11SSILL
 62
7
 10
-816.977
 20
-490.718
 30
4137.895
 70
    32
  0
VERTEX
  8
T11SSILL
 62
7
 10
-815.799
 20
-517.228
 30
4137.856
 70
    32
  0
VERTEX
  8
T11SSILL
 62
7
 10
-826.137
 20
-516.637
 30
4137.884
 70
    32
  0
VERTEX
  8
T11SSILL
 62
7
 10
-831.688
 20
-492.997
 30
4137.988
 70
    32
  0
VERTEX
  8
T11SSILL
 62
7
 10
-903.533
 20
-496.764
 30
4138.951
 70
    32
  0
VERTEX
  8
T11SSILL
 62
7
 10
-922.711
 20
-505.134
 30
4139.199
 70
    32
  0
VERTEX
  8
T11SSILL
 62
7
 10
-945.894
 20
-506.986
 30
4139.510
 70
    32
  0
VERTEX
  8
T11SSILL
 62
7
 10
-960.538
 20
-505.256
 30
4139.696
 70
    32
  0
VERTEX
  8
T11SSILL
 62
7
 10
-972.111
 20
-506.279
 30
4139.828
 70
    32
  0
VERTEX
  8
T11SSILL
 62
7
 10
-979.554
 20
-500.749
 30
4139.921
 70
    32
  0
VERTEX
  8
T11SSILL
 62
7
 10
-1120.949
 20
-508.162
 30
4141.542
 70
    32
  0
VERTEX
  8
T11SSILL
 62
7
 10
-1121.286
 20
-499.084
 30
4141.558
 70
    32
  0
VERTEX
  8
T11SSILL
 62
7
 10
-1137.754
 20
-490.162
 30
4141.760
 70
    32
  0
VERTEX
  8
T11SSILL
 62
7
 10
-1176.662
 20
-436.746
 30
4142.281
 70
    32
  0
VERTEX
  8
T11SSILL
 62
7
 10
-1180.726
 20
-437.194
 30
4142.328
 70
    32
  0
VERTEX
  8
T11SSILL
 62
7
 10
-1185.161
 20
-430.749
 30
4142.388
 70
    32
  0
VERTEX
  8
T11SSILL
 62
7
 10
-1183.222
 20
-427.606
 30
4142.370
 70
    32
  0
VERTEX
  8
T11SSILL
 62
7
 10
-1233.410
 20
-357.676
 30
4143.061
 70
    32
  0
VERTEX
  8
T11SSILL
 62
7
 10
-1237.062
 20
-358.102
 30
4143.109
 70
    32
  0
VERTEX
  8
T11SSILL
 62
7
 10
-1240.560
 20
-353.227
 30
4143.166
 70
    32
  0
VERTEX
  8
T11SSILL
 62
7
 10
-1238.736
 20
-350.255
 30
4143.147
 70
    32
  0
VERTEX
  8
T11SSILL
 62
7
 10
-1288.885
 20
-279.352
 30
4143.961
 70
    32
  0
VERTEX
  8
T11SSILL
 62
7
 10
-1291.442
 20
-278.414
 30
4143.998
 70
    32
  0
VERTEX
  8
T11SSILL
 62
7
 10
-1293.051
 20
-276.178
 30
4144.024
 70
    32
  0
VERTEX
  8
T11SSILL
 62
7
 10
-1293.331
 20
-274.219
 30
4144.031
 70
    32
  0
VERTEX
  8
T11SSILL
 62
7
 10
-1342.533
 20
-205.629
 30
4144.436
 70
    32
  0
VERTEX
  8
T11SSILL
 62
7
 10
-1347.244
 20
-206.272
 30
4144.444
 70
    32
  0
VERTEX
  8
T11SSILL
 62
7
 10
-1350.564
 20
-201.941
 30
4144.466
 70
    32
  0
VERTEX
  8
T11SSILL
 62
7
 10
-1353.779
 20
-194.072
 30
4144.500
 70
    32
  0
VERTEX
  8
T11SSILL
 62
7
 10
-1352.531
 20
-191.698
 30
4144.505
 70
    32
  0
VERTEX
  8
T11SSILL
 62
7
 10
-1397.736
 20
-128.712
 30
4144.818
 70
    32
  0
VERTEX
  8
T11SSILL
 62
7
 10
-1403.040
 20
-127.715
 30
4144.833
 70
    32
  0
VERTEX
  8
T11SSILL
 62
7
 10
-1404.866
 20
-125.505
 30
4144.845
 70
    32
  0
VERTEX
  8
T11SSILL
 62
7
 10
-1405.115
 20
-118.430
 30
4144.869
 70
    32
  0
VERTEX
  8
T11SSILL
 62
7
 10
-1445.458
 20
-62.219
 30
4145.149
 70
    32
  0
VERTEX
  8
T11SSILL
 62
7
 10
-1456.977
 20
-56.773
 30
4145.193
 70
    32
  0
VERTEX
  8
T11SSILL
 62
7
 10
-1491.623
 20
-10.457
 30
4145.426
 70
    32
  0
VERTEX
  8
T11SSILL
 62
7
 10
-1490.989
 20
1.221
 30
4145.465
 70
    32
  0
VERTEX
  8
T11SSILL
 62
7
 10
-1509.283
 20
26.711
 30
4145.591
 70
    32
  0
VERTEX
  8
T11SSILL
 62
7
 10
-1512.600
 20
26.708
 30
4145.599
 70
    32
  0
VERTEX
  8
T11SSILL
 62
7
 10
-1514.772
 20
29.343
 30
4145.612
 70
    32
  0
VERTEX
  8
T11SSILL
 62
7
 10
-1512.894
 20
31.743
 30
4145.616
 70
    32
  0
VERTEX
  8
T11SSILL
 62
7
 10
-1564.313
 20
103.388
 30
4145.973
 70
    32
  0
VERTEX
  8
T11SSILL
 62
7
 10
-1570.667
 20
101.538
 30
4145.980
 70
    32
  0
VERTEX
  8
T11SSILL
 62
7
 10
-1573.801
 20
106.404
 30
4146.004
 70
    32
  0
VERTEX
  8
T11SSILL
 62
7
 10
-1570.018
 20
111.336
 30
4146.012
 70
    32
  0
VERTEX
  8
T11SSILL
 62
7
 10
-1621.691
 20
183.335
 30
4146.370
 70
    32
  0
VERTEX
  8
T11SSILL
 62
7
 10
-1626.063
 20
180.145
 30
4146.369
 70
    32
  0
VERTEX
  8
T11SSILL
 62
7
 10
-1628.513
 20
183.407
 30
4146.386
 70
    32
  0
VERTEX
  8
T11SSILL
 62
7
 10
-1624.439
 20
186.675
 30
4146.388
 70
    32
  0
VERTEX
  8
T11SSILL
 62
7
 10
-1675.627
 20
258.476
 30
4146.744
 70
    32
  0
VERTEX
  8
T11SSILL
 62
7
 10
-1682.208
 20
258.556
 30
4146.759
 70
    32
  0
VERTEX
  8
T11SSILL
 62
7
 10
-1683.168
 20
268.987
 30
4146.796
 70
    32
  0
VERTEX
  8
T11SSILL
 62
7
 10
-1694.224
 20
284.397
 30
4146.873
 70
    32
  0
VERTEX
  8
T11SSILL
 62
7
 10
-1698.531
 20
283.810
 30
4146.880
 70
    32
  0
VERTEX
  8
T11SSILL
 62
7
 10
-1706.895
 20
292.069
 30
4146.927
 70
    32
  0
VERTEX
  8
T11SSILL
 62
7
 10
-1721.199
 20
309.933
 30
4147.019
 70
    32
  0
VERTEX
  8
T11SSILL
 62
7
 10
-1737.423
 20
333.158
 30
4147.134
 70
    32
  0
VERTEX
  8
T11SSILL
 62
7
 10
-1739.080
 20
339.500
 30
4147.159
 70
    32
  0
VERTEX
  8
T11SSILL
 62
7
 10
-1737.455
 20
344.635
 30
4147.173
 70
    32
  0
VERTEX
  8
T11SSILL
 62
7
 10
-1787.318
 20
414.112
 30
4147.518
 70
    32
  0
VERTEX
  8
T11SSILL
 62
7
 10
-1792.475
 20
413.886
 30
4147.529
 70
    32
  0
VERTEX
  8
T11SSILL
 62
7
 10
-1794.616
 20
416.862
 30
4147.544
 70
    32
  0
VERTEX
  8
T11SSILL
 62
7
 10
-1793.975
 20
423.388
 30
4147.564
 70
    32
  0
VERTEX
  8
T11SSILL
 62
7
 10
-1841.834
 20
490.072
 30
4147.896
 70
    32
  0
VERTEX
  8
T11SSILL
 62
7
 10
-1847.639
 20
489.492
 30
4147.907
 70
    32
  0
VERTEX
  8
T11SSILL
 62
7
 10
-1849.340
 20
493.272
 30
4147.923
 70
    32
  0
VERTEX
  8
T11SSILL
 62
7
 10
-1850.641
 20
502.344
 30
4147.957
 70
    32
  0
VERTEX
  8
T11SSILL
 62
7
 10
-1897.948
 20
568.259
 30
4148.285
 70
    32
  0
VERTEX
  8
T11SSILL
 62
7
 10
-1903.985
 20
569.001
 30
4148.299
 70
    32
  0
VERTEX
  8
T11SSILL
 62
7
 10
-1905.009
 20
578.097
 30
4148.334
 70
    32
  0
VERTEX
  8
T11SSILL
 62
7
 10
-1927.115
 20
608.898
 30
4148.397
 70
    32
  0
VERTEX
  8
T11SSILL
 62
7
 10
-1933.639
 20
611.290
 30
4148.377
 70
    32
  0
VERTEX
  8
T11SSILL
 62
7
 10
-1963.411
 20
649.455
 30
4148.432
 70
    32
  0
VERTEX
  8
T11SSILL
 62
7
 10
-1977.460
 20
672.661
 30
4148.469
 70
    32
  0
VERTEX
  8
T11SSILL
 62
7
 10
-1977.514
 20
679.121
 30
4148.426
 70
    32
  0
VERTEX
  8
T11SSILL
 62
7
 10
-2008.094
 20
721.730
 30
4148.422
 70
    32
  0
VERTEX
  8
T11SSILL
 62
7
 10
-2015.331
 20
722.547
 30
4148.484
 70
    32
  0
VERTEX
  8
T11SSILL
 62
7
 10
-2018.032
 20
725.494
 30
4148.489
 70
    32
  0
VERTEX
  8
T11SSILL
 62
7
 10
-2015.658
 20
732.270
 30
4148.421
 70
    32
  0
VERTEX
  8
T11SSILL
 62
7
 10
-2063.448
 20
798.857
 30
4148.415
 70
    32
  0
VERTEX
  8
T11SSILL
 62
7
 10
-2068.084
 20
799.478
 30
4148.454
 70
    32
  0
VERTEX
  8
T11SSILL
 62
7
 10
-2069.597
 20
801.586
 30
4148.454
 70
    32
  0
VERTEX
  8
T11SSILL
 62
7
 10
-2068.789
 20
806.299
 30
4148.414
 70
    32
  0
VERTEX
  8
T11SSILL
 62
7
 10
-2118.085
 20
874.986
 30
4148.408
 70
    32
  0
VERTEX
  8
T11SSILL
 62
7
 10
-2122.155
 20
877.180
 30
4148.431
 70
    32
  0
VERTEX
  8
T11SSILL
 62
7
 10
-2124.681
 20
876.430
 30
4148.460
 70
    32
  0
VERTEX
  8
T11SSILL
 62
7
 10
-2126.632
 20
879.148
 30
4148.459
 70
    32
  0
VERTEX
  8
T11SSILL
 62
7
 10
-2126.172
 20
886.254
 30
4148.407
 70
    32
  0
VERTEX
  8
T11SSILL
 62
7
 10
-2129.715
 20
891.191
 30
4148.407
 70
    32
  0
VERTEX
  8
T11SSILL
 62
7
 10
-2139.945
 20
895.948
 30
4148.470
 70
    32
  0
VERTEX
  8
T11SSILL
 62
7
 10
-2181.556
 20
950.318
 30
4148.489
 70
    32
  0
SEQEND
  8
T11SSILL
  0
TEXT
  8
T11SSILL
 62
7
 10
1507.210
 20
-3933.468
 30
4145.615
 40
0.200
  1
1100
 50
-58.394
 41
 1.0 
  0
ENDSEC
  0
EOF
