999
********************************
999
*   DXF File - Entities Only   *
999
*        3D Data Format        *
999
*     Output from ENVISAGE     *
999
*     18-Nov-2006 12:47:24     *
999
********************************
  0
SECTION 
  2
HEADER
  9
$ACADVER
  1
AC1009
  9
$EXTMIN
 10
-290000.000
 20
-250000.000
 30
-4000.000
  9
$EXTMAX
 10
320000.000
 20
160000.000
 30
6000.000
  0
ENDSEC
  0
SECTION
  2
ENTITIES
  0
LINE
  8
1000SCALE
 62
1
 10
4157.982
 20
-10934.819
 30
1000.000
 11
5154.447
 21
-10934.819
 31
1000.000
  0
TEXT
  8
T41SSILL
 62
3
 10
-92.347
 20
-6783.738
 30
1000.000
 40
98.425
  1
U
 41
 1.0 
  0
TEXT
  8
T41SSILL
 62
3
 10
-92.347
 20
-6931.376
 30
1000.000
 40
98.425
  1
 
 41
 1.0 
  0
POLYLINE
  8
T41SSILL
 62
4
 66
     1
 70
     9
  0
VERTEX
  8
T41SSILL
 62
4
 10
2197.709
 20
-6301.246
 30
1137.000
 70
    32
  0
VERTEX
  8
T41SSILL
 62
4
 10
2198.691
 20
-6301.411
 30
1137.000
 70
    32
  0
VERTEX
  8
T41SSILL
 62
4
 10
2199.565
 20
-6301.889
 30
1137.000
 70
    32
  0
VERTEX
  8
T41SSILL
 62
4
 10
2200.234
 20
-6302.625
 30
1137.000
 70
    32
  0
VERTEX
  8
T41SSILL
 62
4
 10
2200.625
 20
-6303.541
 30
1137.000
 70
    32
  0
VERTEX
  8
T41SSILL
 62
4
 10
2200.696
 20
-6304.533
 30
1137.000
 70
    32
  0
VERTEX
  8
T41SSILL
 62
4
 10
2200.437
 20
-6305.495
 30
1137.000
 70
    32
  0
VERTEX
  8
T41SSILL
 62
4
 10
2199.879
 20
-6306.319
 30
1137.000
 70
    32
  0
VERTEX
  8
T41SSILL
 62
4
 10
2199.081
 20
-6306.914
 30
1137.000
 70
    32
  0
VERTEX
  8
T41SSILL
 62
4
 10
2198.133
 20
-6307.216
 30
1137.000
 70
    32
  0
VERTEX
  8
T41SSILL
 62
4
 10
2197.138
 20
-6307.191
 30
1137.000
 70
    32
  0
VERTEX
  8
T41SSILL
 62
4
 10
2196.206
 20
-6306.842
 30
1137.000
 70
    32
  0
VERTEX
  8
T41SSILL
 62
4
 10
2195.439
 20
-6306.207
 30
1137.000
 70
    32
  0
VERTEX
  8
T41SSILL
 62
4
 10
2194.922
 20
-6305.356
 30
1137.000
 70
    32
  0
VERTEX
  8
T41SSILL
 62
4
 10
2194.713
 20
-6304.383
 30
1137.000
 70
    32
  0
VERTEX
  8
T41SSILL
 62
4
 10
2194.833
 20
-6303.395
 30
1137.000
 70
    32
  0
VERTEX
  8
T41SSILL
 62
4
 10
2195.269
 20
-6302.501
 30
1137.000
 70
    32
  0
VERTEX
  8
T41SSILL
 62
4
 10
2195.975
 20
-6301.799
 30
1137.000
 70
    32
  0
VERTEX
  8
T41SSILL
 62
4
 10
2196.871
 20
-6301.366
 30
1137.000
 70
    32
  0
SEQEND
  8
T41SSILL
  0
LINE
  8
T41SSILL
 62
3
 10
2190.888
 20
-6306.819
 30
1137.000
 11
2204.531
 21
-6301.674
 31
1137.000
  0
POLYLINE
  8
T41SSILL
 62
1
 66
     1
 70
     8
  0
VERTEX
  8
T41SSILL
 62
1
 10
2189.123
 20
-6302.140
 30
1137.000
 70
    32
  0
VERTEX
  8
T41SSILL
 62
1
 10
2202.767
 20
-6296.995
 30
1137.000
 70
    32
  0
VERTEX
  8
T41SSILL
 62
1
 10
2206.296
 20
-6306.352
 30
1137.000
 70
    32
  0
VERTEX
  8
T41SSILL
 62
1
 10
2192.547
 20
-6311.537
 30
1137.000
 70
    32
  0
SEQEND
  8
T41SSILL
  0
POLYLINE
  8
T41SSILL
 62
1
 66
     1
 70
     8
  0
VERTEX
  8
T41SSILL
 62
1
 10
2138.127
 20
-6198.210
 30
1130.719
 70
    32
  0
VERTEX
  8
T41SSILL
 62
1
 10
2138.125
 20
-6198.166
 30
1130.719
 70
    32
  0
VERTEX
  8
T41SSILL
 62
1
 10
2138.119
 20
-6198.123
 30
1130.719
 70
    32
  0
VERTEX
  8
T41SSILL
 62
1
 10
2138.110
 20
-6198.081
 30
1130.719
 70
    32
  0
VERTEX
  8
T41SSILL
 62
1
 10
2138.097
 20
-6198.039
 30
1130.719
 70
    32
  0
VERTEX
  8
T41SSILL
 62
1
 10
2138.080
 20
-6197.999
 30
1130.719
 70
    32
  0
VERTEX
  8
T41SSILL
 62
1
 10
2138.060
 20
-6197.960
 30
1130.719
 70
    32
  0
VERTEX
  8
T41SSILL
 62
1
 10
2138.037
 20
-6197.923
 30
1130.719
 70
    32
  0
VERTEX
  8
T41SSILL
 62
1
 10
2138.010
 20
-6197.889
 30
1130.719
 70
    32
  0
VERTEX
  8
T41SSILL
 62
1
 10
2137.981
 20
-6197.856
 30
1130.719
 70
    32
  0
VERTEX
  8
T41SSILL
 62
1
 10
2137.948
 20
-6197.827
 30
1130.719
 70
    32
  0
VERTEX
  8
T41SSILL
 62
1
 10
2137.914
 20
-6197.800
 30
1130.719
 70
    32
  0
VERTEX
  8
T41SSILL
 62
1
 10
2137.877
 20
-6197.777
 30
1130.719
 70
    32
  0
VERTEX
  8
T41SSILL
 62
1
 10
2137.838
 20
-6197.757
 30
1130.719
 70
    32
  0
VERTEX
  8
T41SSILL
 62
1
 10
2137.798
 20
-6197.740
 30
1130.719
 70
    32
  0
VERTEX
  8
T41SSILL
 62
1
 10
2137.756
 20
-6197.727
 30
1130.719
 70
    32
  0
VERTEX
  8
T41SSILL
 62
1
 10
2137.714
 20
-6197.718
 30
1130.719
 70
    32
  0
VERTEX
  8
T41SSILL
 62
1
 10
2137.671
 20
-6197.712
 30
1130.719
 70
    32
  0
VERTEX
  8
T41SSILL
 62
1
 10
2137.627
 20
-6197.710
 30
1130.719
 70
    32
  0
VERTEX
  8
T41SSILL
 62
1
 10
2137.583
 20
-6197.712
 30
1130.719
 70
    32
  0
VERTEX
  8
T41SSILL
 62
1
 10
2137.540
 20
-6197.718
 30
1130.719
 70
    32
  0
VERTEX
  8
T41SSILL
 62
1
 10
2137.498
 20
-6197.727
 30
1130.719
 70
    32
  0
VERTEX
  8
T41SSILL
 62
1
 10
2137.456
 20
-6197.740
 30
1130.719
 70
    32
  0
VERTEX
  8
T41SSILL
 62
1
 10
2137.416
 20
-6197.757
 30
1130.719
 70
    32
  0
VERTEX
  8
T41SSILL
 62
1
 10
2137.377
 20
-6197.777
 30
1130.719
 70
    32
  0
VERTEX
  8
T41SSILL
 62
1
 10
2137.340
 20
-6197.800
 30
1130.719
 70
    32
  0
VERTEX
  8
T41SSILL
 62
1
 10
2137.306
 20
-6197.827
 30
1130.719
 70
    32
  0
VERTEX
  8
T41SSILL
 62
1
 10
2137.273
 20
-6197.856
 30
1130.719
 70
    32
  0
VERTEX
  8
T41SSILL
 62
1
 10
2137.244
 20
-6197.889
 30
1130.719
 70
    32
  0
VERTEX
  8
T41SSILL
 62
1
 10
2137.217
 20
-6197.923
 30
1130.719
 70
    32
  0
VERTEX
  8
T41SSILL
 62
1
 10
2137.194
 20
-6197.960
 30
1130.719
 70
    32
  0
VERTEX
  8
T41SSILL
 62
1
 10
2137.174
 20
-6197.999
 30
1130.719
 70
    32
  0
VERTEX
  8
T41SSILL
 62
1
 10
2137.157
 20
-6198.039
 30
1130.719
 70
    32
  0
VERTEX
  8
T41SSILL
 62
1
 10
2137.144
 20
-6198.081
 30
1130.719
 70
    32
  0
VERTEX
  8
T41SSILL
 62
1
 10
2137.135
 20
-6198.123
 30
1130.719
 70
    32
  0
VERTEX
  8
T41SSILL
 62
1
 10
2137.129
 20
-6198.166
 30
1130.719
 70
    32
  0
VERTEX
  8
T41SSILL
 62
1
 10
2137.127
 20
-6198.210
 30
1130.719
 70
    32
  0
VERTEX
  8
T41SSILL
 62
1
 10
2137.129
 20
-6198.254
 30
1130.719
 70
    32
  0
VERTEX
  8
T41SSILL
 62
1
 10
2137.135
 20
-6198.297
 30
1130.719
 70
    32
  0
VERTEX
  8
T41SSILL
 62
1
 10
2137.144
 20
-6198.339
 30
1130.719
 70
    32
  0
VERTEX
  8
T41SSILL
 62
1
 10
2137.157
 20
-6198.381
 30
1130.719
 70
    32
  0
VERTEX
  8
T41SSILL
 62
1
 10
2137.174
 20
-6198.421
 30
1130.719
 70
    32
  0
VERTEX
  8
T41SSILL
 62
1
 10
2137.194
 20
-6198.460
 30
1130.719
 70
    32
  0
VERTEX
  8
T41SSILL
 62
1
 10
2137.217
 20
-6198.497
 30
1130.719
 70
    32
  0
VERTEX
  8
T41SSILL
 62
1
 10
2137.244
 20
-6198.531
 30
1130.719
 70
    32
  0
VERTEX
  8
T41SSILL
 62
1
 10
2137.273
 20
-6198.564
 30
1130.719
 70
    32
  0
VERTEX
  8
T41SSILL
 62
1
 10
2137.306
 20
-6198.593
 30
1130.719
 70
    32
  0
VERTEX
  8
T41SSILL
 62
1
 10
2137.340
 20
-6198.620
 30
1130.719
 70
    32
  0
VERTEX
  8
T41SSILL
 62
1
 10
2137.377
 20
-6198.643
 30
1130.719
 70
    32
  0
VERTEX
  8
T41SSILL
 62
1
 10
2137.416
 20
-6198.663
 30
1130.719
 70
    32
  0
VERTEX
  8
T41SSILL
 62
1
 10
2137.456
 20
-6198.680
 30
1130.719
 70
    32
  0
VERTEX
  8
T41SSILL
 62
1
 10
2137.498
 20
-6198.693
 30
1130.719
 70
    32
  0
VERTEX
  8
T41SSILL
 62
1
 10
2137.540
 20
-6198.702
 30
1130.719
 70
    32
  0
VERTEX
  8
T41SSILL
 62
1
 10
2137.583
 20
-6198.708
 30
1130.719
 70
    32
  0
VERTEX
  8
T41SSILL
 62
1
 10
2137.627
 20
-6198.710
 30
1130.719
 70
    32
  0
VERTEX
  8
T41SSILL
 62
1
 10
2137.671
 20
-6198.708
 30
1130.719
 70
    32
  0
VERTEX
  8
T41SSILL
 62
1
 10
2137.714
 20
-6198.702
 30
1130.719
 70
    32
  0
VERTEX
  8
T41SSILL
 62
1
 10
2137.756
 20
-6198.693
 30
1130.719
 70
    32
  0
VERTEX
  8
T41SSILL
 62
1
 10
2137.798
 20
-6198.680
 30
1130.719
 70
    32
  0
VERTEX
  8
T41SSILL
 62
1
 10
2137.838
 20
-6198.663
 30
1130.719
 70
    32
  0
VERTEX
  8
T41SSILL
 62
1
 10
2137.877
 20
-6198.643
 30
1130.719
 70
    32
  0
VERTEX
  8
T41SSILL
 62
1
 10
2137.914
 20
-6198.620
 30
1130.719
 70
    32
  0
VERTEX
  8
T41SSILL
 62
1
 10
2137.948
 20
-6198.593
 30
1130.719
 70
    32
  0
VERTEX
  8
T41SSILL
 62
1
 10
2137.981
 20
-6198.564
 30
1130.719
 70
    32
  0
VERTEX
  8
T41SSILL
 62
1
 10
2138.010
 20
-6198.531
 30
1130.719
 70
    32
  0
VERTEX
  8
T41SSILL
 62
1
 10
2138.037
 20
-6198.497
 30
1130.719
 70
    32
  0
VERTEX
  8
T41SSILL
 62
1
 10
2138.060
 20
-6198.460
 30
1130.719
 70
    32
  0
VERTEX
  8
T41SSILL
 62
1
 10
2138.080
 20
-6198.421
 30
1130.719
 70
    32
  0
VERTEX
  8
T41SSILL
 62
1
 10
2138.097
 20
-6198.381
 30
1130.719
 70
    32
  0
VERTEX
  8
T41SSILL
 62
1
 10
2138.110
 20
-6198.339
 30
1130.719
 70
    32
  0
VERTEX
  8
T41SSILL
 62
1
 10
2138.119
 20
-6198.297
 30
1130.719
 70
    32
  0
VERTEX
  8
T41SSILL
 62
1
 10
2138.125
 20
-6198.254
 30
1130.719
 70
    32
  0
VERTEX
  8
T41SSILL
 62
1
 10
2138.127
 20
-6198.210
 30
1130.719
 70
    32
  0
SEQEND
  8
T41SSILL
  0
TEXT
  8
T41SSILL
 62
1
 10
2117.116
 20
-6197.944
 30
1130.719
 40
2.362
  1
EL PLUG
 50
-0.160
 41
 1.0 
  0
TEXT
  8
T41SSILL
 62
1
 10
2116.532
 20
-6201.547
 30
1130.719
 40
2.362
  1
1130.719
 50
-0.160
 41
 1.0 
  0
POLYLINE
  8
T41SSILL
 62
6
 66
     1
 70
     9
  0
VERTEX
  8
T41SSILL
 62
6
 10
2129.284
 20
-6021.247
 30
1124.500
 70
    32
  0
VERTEX
  8
T41SSILL
 62
6
 10
2132.956
 20
-6002.181
 30
1120.692
 70
    32
  0
VERTEX
  8
T41SSILL
 62
6
 10
2133.749
 20
-5956.632
 30
1111.757
 70
    32
  0
VERTEX
  8
T41SSILL
 62
6
 10
2134.229
 20
-5944.638
 30
1109.403
 70
    32
  0
VERTEX
  8
T41SSILL
 62
6
 10
2145.005
 20
-5943.369
 30
1109.400
 70
    32
  0
VERTEX
  8
T41SSILL
 62
6
 10
2152.541
 20
-5942.519
 30
1109.400
 70
    32
  0
VERTEX
  8
T41SSILL
 62
6
 10
2159.452
 20
-5944.283
 30
1109.400
 70
    32
  0
VERTEX
  8
T41SSILL
 62
6
 10
2169.407
 20
-5953.235
 30
1109.400
 70
    32
  0
VERTEX
  8
T41SSILL
 62
6
 10
2168.662
 20
-5954.416
 30
1109.662
 70
    32
  0
VERTEX
  8
T41SSILL
 62
6
 10
2166.026
 20
-5971.377
 30
1112.886
 70
    32
  0
VERTEX
  8
T41SSILL
 62
6
 10
2167.635
 20
-5979.654
 30
1114.470
 70
    32
  0
VERTEX
  8
T41SSILL
 62
6
 10
2167.354
 20
-5984.816
 30
1115.441
 70
    32
  0
VERTEX
  8
T41SSILL
 62
6
 10
2166.099
 20
-5989.751
 30
1116.398
 70
    32
  0
VERTEX
  8
T41SSILL
 62
6
 10
2156.517
 20
-6003.999
 30
1119.623
 70
    32
  0
VERTEX
  8
T41SSILL
 62
6
 10
2145.943
 20
-6011.752
 30
1122.085
 70
    32
  0
VERTEX
  8
T41SSILL
 62
6
 10
2140.662
 20
-6018.088
 30
1123.635
 70
    32
  0
VERTEX
  8
T41SSILL
 62
6
 10
2140.227
 20
-6022.675
 30
1124.500
 70
    32
  0
SEQEND
  8
T41SSILL
  0
POLYLINE
  8
T41SSILL
 62
1
 66
     1
 70
     8
  0
VERTEX
  8
T41SSILL
 62
1
 10
2133.395
 20
-5987.444
 30
1116.115
 70
    32
  0
VERTEX
  8
T41SSILL
 62
1
 10
2132.537
 20
-5971.279
 30
1112.784
 70
    32
  0
VERTEX
  8
T41SSILL
 62
1
 10
2131.027
 20
-5942.391
 30
1110.156
 70
    32
  0
VERTEX
  8
T41SSILL
 62
1
 10
2137.568
 20
-5939.894
 30
1110.056
 70
    32
  0
VERTEX
  8
T41SSILL
 62
1
 10
2140.510
 20
-5929.020
 30
1110.057
 70
    32
  0
VERTEX
  8
T41SSILL
 62
1
 10
2143.654
 20
-5918.291
 30
1110.263
 70
    32
  0
VERTEX
  8
T41SSILL
 62
1
 10
2153.486
 20
-5919.128
 30
1110.254
 70
    32
  0
VERTEX
  8
T41SSILL
 62
1
 10
2153.669
 20
-5917.924
 30
1110.581
 70
    32
  0
VERTEX
  8
T41SSILL
 62
1
 10
2156.522
 20
-5911.553
 30
1110.581
 70
    32
  0
VERTEX
  8
T41SSILL
 62
1
 10
2153.045
 20
-5894.897
 30
1110.581
 70
    32
  0
VERTEX
  8
T41SSILL
 62
1
 10
2168.796
 20
-5893.922
 30
1110.581
 70
    32
  0
VERTEX
  8
T41SSILL
 62
1
 10
2171.009
 20
-5903.418
 30
1110.581
 70
    32
  0
VERTEX
  8
T41SSILL
 62
1
 10
2182.108
 20
-5911.637
 30
1110.581
 70
    32
  0
VERTEX
  8
T41SSILL
 62
1
 10
2181.841
 20
-5921.199
 30
1110.581
 70
    32
  0
VERTEX
  8
T41SSILL
 62
1
 10
2181.833
 20
-5921.359
 30
1110.235
 70
    32
  0
VERTEX
  8
T41SSILL
 62
1
 10
2178.940
 20
-5930.268
 30
1110.064
 70
    32
  0
VERTEX
  8
T41SSILL
 62
1
 10
2180.170
 20
-5936.606
 30
1109.944
 70
    32
  0
VERTEX
  8
T41SSILL
 62
1
 10
2177.385
 20
-5938.446
 30
1109.907
 70
    32
  0
VERTEX
  8
T41SSILL
 62
1
 10
2170.559
 20
-5951.870
 30
1109.989
 70
    32
  0
VERTEX
  8
T41SSILL
 62
1
 10
2167.321
 20
-5961.649
 30
1110.192
 70
    32
  0
VERTEX
  8
T41SSILL
 62
1
 10
2164.465
 20
-5971.686
 30
1111.375
 70
    32
  0
VERTEX
  8
T41SSILL
 62
1
 10
2164.786
 20
-5985.217
 30
1113.847
 70
    32
  0
VERTEX
  8
T41SSILL
 62
1
 10
2162.735
 20
-5990.847
 30
1115.143
 70
    32
  0
VERTEX
  8
T41SSILL
 62
1
 10
2163.997
 20
-5997.562
 30
1116.474
 70
    32
  0
VERTEX
  8
T41SSILL
 62
1
 10
2153.215
 20
-6004.724
 30
1118.591
 70
    32
  0
VERTEX
  8
T41SSILL
 62
1
 10
2142.660
 20
-6015.405
 30
1121.430
 70
    32
  0
SEQEND
  8
T41SSILL
  0
POLYLINE
  8
T41SSILL
 62
4
 66
     1
 70
     8
  0
VERTEX
  8
T41SSILL
 62
4
 10
2184.081
 20
-4475.433
 30
1134.207
 70
    32
  0
VERTEX
  8
T41SSILL
 62
4
 10
2189.518
 20
-4484.133
 30
1134.187
 70
    32
  0
VERTEX
  8
T41SSILL
 62
4
 10
2134.908
 20
-4507.159
 30
1134.237
 70
    32
  0
VERTEX
  8
T41SSILL
 62
4
 10
2141.828
 20
-4525.266
 30
1134.201
 70
    32
  0
VERTEX
  8
T41SSILL
 62
4
 10
2148.684
 20
-4522.748
 30
1134.194
 70
    32
  0
VERTEX
  8
T41SSILL
 62
4
 10
2161.994
 20
-4510.662
 30
1134.191
 70
    32
  0
VERTEX
  8
T41SSILL
 62
4
 10
2168.288
 20
-4515.553
 30
1134.174
 70
    32
  0
VERTEX
  8
T41SSILL
 62
4
 10
2147.363
 20
-4534.833
 30
1134.179
 70
    32
  0
VERTEX
  8
T41SSILL
 62
4
 10
2169.065
 20
-4585.622
 30
1134.074
 70
    32
  0
VERTEX
  8
T41SSILL
 62
4
 10
2172.947
 20
-4586.122
 30
1134.067
 70
    32
  0
VERTEX
  8
T41SSILL
 62
4
 10
2174.686
 20
-4582.848
 30
1134.069
 70
    32
  0
VERTEX
  8
T41SSILL
 62
4
 10
2181.424
 20
-4588.176
 30
1134.051
 70
    32
  0
VERTEX
  8
T41SSILL
 62
4
 10
2177.499
 20
-4593.846
 30
1134.049
 70
    32
  0
VERTEX
  8
T41SSILL
 62
4
 10
2178.763
 20
-4597.891
 30
1134.042
 70
    32
  0
VERTEX
  8
T41SSILL
 62
4
 10
2175.532
 20
-4602.146
 30
1134.041
 70
    32
  0
VERTEX
  8
T41SSILL
 62
4
 10
2253.563
 20
-4785.973
 30
1133.669
 70
    32
  0
VERTEX
  8
T41SSILL
 62
4
 10
3346.134
 20
-5137.962
 30
1133.401
 70
    32
  0
VERTEX
  8
T41SSILL
 62
4
 10
3356.052
 20
-5144.236
 30
1133.403
 70
    32
  0
VERTEX
  8
T41SSILL
 62
4
 10
3370.017
 20
-5149.511
 30
1133.408
 70
    32
  0
VERTEX
  8
T41SSILL
 62
4
 10
3440.055
 20
-5192.630
 30
1133.488
 70
    32
  0
VERTEX
  8
T41SSILL
 62
4
 10
3444.578
 20
-5184.399
 30
1133.458
 70
    32
  0
VERTEX
  8
T41SSILL
 62
4
 10
3451.573
 20
-5188.667
 30
1133.466
 70
    32
  0
VERTEX
  8
T41SSILL
 62
4
 10
3446.605
 20
-5196.284
 30
1133.494
 70
    32
  0
VERTEX
  8
T41SSILL
 62
4
 10
3455.369
 20
-5201.509
 30
1133.504
 70
    32
  0
VERTEX
  8
T41SSILL
 62
4
 10
3469.102
 20
-5199.116
 30
1133.484
 70
    32
  0
VERTEX
  8
T41SSILL
 62
4
 10
3483.572
 20
-5188.962
 30
1133.439
 70
    32
  0
VERTEX
  8
T41SSILL
 62
4
 10
3496.432
 20
-5187.810
 30
1133.457
 70
    32
  0
VERTEX
  8
T41SSILL
 62
4
 10
3496.362
 20
-5202.266
 30
1133.459
 70
    32
  0
VERTEX
  8
T41SSILL
 62
4
 10
3489.746
 20
-5201.610
 30
1133.466
 70
    32
  0
VERTEX
  8
T41SSILL
 62
4
 10
3478.569
 20
-5203.895
 30
1133.490
 70
    32
  0
VERTEX
  8
T41SSILL
 62
4
 10
3472.953
 20
-5207.374
 30
1133.508
 70
    32
  0
VERTEX
  8
T41SSILL
 62
4
 10
3471.485
 20
-5211.616
 30
1133.522
 70
    32
  0
VERTEX
  8
T41SSILL
 62
4
 10
3487.516
 20
-5222.076
 30
1133.524
 70
    32
  0
VERTEX
  8
T41SSILL
 62
4
 10
3487.993
 20
-5215.021
 30
1133.504
 70
    32
  0
VERTEX
  8
T41SSILL
 62
4
 10
3495.487
 20
-5215.230
 30
1133.493
 70
    32
  0
VERTEX
  8
T41SSILL
 62
4
 10
3495.923
 20
-5226.598
 30
1133.522
 70
    32
  0
VERTEX
  8
T41SSILL
 62
4
 10
3504.869
 20
-5232.526
 30
1133.523
 70
    32
  0
VERTEX
  8
T41SSILL
 62
4
 10
3614.022
 20
-5301.457
 30
1133.635
 70
    32
  0
VERTEX
  8
T41SSILL
 62
4
 10
3905.416
 20
-5476.782
 30
1133.997
 70
    32
  0
VERTEX
  8
T41SSILL
 62
4
 10
3910.374
 20
-5124.184
 30
1134.167
 70
    32
  0
VERTEX
  8
T41SSILL
 62
4
 10
3955.144
 20
-2733.010
 30
1134.200
 70
    32
  0
VERTEX
  8
T41SSILL
 62
4
 10
3910.451
 20
-2445.505
 30
1134.459
 70
    32
  0
VERTEX
  8
T41SSILL
 62
4
 10
3913.231
 20
-2424.083
 30
1134.485
 70
    32
  0
VERTEX
  8
T41SSILL
 62
4
 10
3919.791
 20
-2410.672
 30
1134.494
 70
    32
  0
VERTEX
  8
T41SSILL
 62
4
 10
3926.241
 20
-2402.014
 30
1134.497
 70
    32
  0
VERTEX
  8
T41SSILL
 62
4
 10
4455.583
 20
-2023.865
 30
1134.253
 70
    32
  0
VERTEX
  8
T41SSILL
 62
4
 10
4769.804
 20
-1798.487
 30
1135.260
 70
    32
  0
VERTEX
  8
T41SSILL
 62
4
 10
4775.570
 20
-1784.017
 30
1135.284
 70
    32
  0
VERTEX
  8
T41SSILL
 62
4
 10
4788.587
 20
-1784.519
 30
1135.332
 70
    32
  0
VERTEX
  8
T41SSILL
 62
4
 10
5548.443
 20
-1238.317
 30
1138.048
 70
    32
  0
VERTEX
  8
T41SSILL
 62
4
 10
5560.263
 20
-1224.143
 30
1138.054
 70
    32
  0
VERTEX
  8
T41SSILL
 62
4
 10
5563.356
 20
-1216.542
 30
1138.054
 70
    32
  0
VERTEX
  8
T41SSILL
 62
4
 10
5565.844
 20
-1202.187
 30
1138.047
 70
    32
  0
VERTEX
  8
T41SSILL
 62
4
 10
5565.262
 20
-1195.310
 30
1138.038
 70
    32
  0
VERTEX
  8
T41SSILL
 62
4
 10
5544.170
 20
-1115.149
 30
1137.903
 70
    32
  0
VERTEX
  8
T41SSILL
 62
4
 10
5552.111
 20
-1112.545
 30
1137.921
 70
    32
  0
VERTEX
  8
T41SSILL
 62
4
 10
5572.615
 20
-1186.903
 30
1138.049
 70
    32
  0
VERTEX
  8
T41SSILL
 62
4
 10
5574.519
 20
-1205.286
 30
1138.072
 70
    32
  0
VERTEX
  8
T41SSILL
 62
4
 10
5572.684
 20
-1216.406
 30
1138.079
 70
    32
  0
VERTEX
  8
T41SSILL
 62
4
 10
5566.070
 20
-1230.832
 30
1138.076
 70
    32
  0
VERTEX
  8
T41SSILL
 62
4
 10
5556.037
 20
-1242.484
 30
1138.069
 70
    32
  0
VERTEX
  8
T41SSILL
 62
4
 10
5545.349
 20
-1250.093
 30
1138.071
 70
    32
  0
VERTEX
  8
T41SSILL
 62
4
 10
5567.009
 20
-1254.165
 30
1138.113
 70
    32
  0
VERTEX
  8
T41SSILL
 62
4
 10
5576.319
 20
-1258.645
 30
1138.137
 70
    32
  0
VERTEX
  8
T41SSILL
 62
4
 10
5591.917
 20
-1273.763
 30
1138.196
 70
    32
  0
VERTEX
  8
T41SSILL
 62
4
 10
5598.022
 20
-1286.455
 30
1138.235
 70
    32
  0
VERTEX
  8
T41SSILL
 62
4
 10
5689.219
 20
-1620.683
 30
1138.602
 70
    32
  0
VERTEX
  8
T41SSILL
 62
4
 10
5700.024
 20
-1617.740
 30
1138.616
 70
    32
  0
VERTEX
  8
T41SSILL
 62
4
 10
5703.053
 20
-1624.973
 30
1138.618
 70
    32
  0
VERTEX
  8
T41SSILL
 62
4
 10
5691.505
 20
-1628.630
 30
1138.603
 70
    32
  0
VERTEX
  8
T41SSILL
 62
4
 10
5694.675
 20
-1639.298
 30
1138.605
 70
    32
  0
VERTEX
  8
T41SSILL
 62
4
 10
5686.167
 20
-1641.456
 30
1138.594
 70
    32
  0
VERTEX
  8
T41SSILL
 62
4
 10
5683.174
 20
-1631.289
 30
1138.593
 70
    32
  0
VERTEX
  8
T41SSILL
 62
4
 10
5673.566
 20
-1634.151
 30
1138.581
 70
    32
  0
VERTEX
  8
T41SSILL
 62
4
 10
5670.599
 20
-1626.070
 30
1138.588
 70
    32
  0
VERTEX
  8
T41SSILL
 62
4
 10
5681.250
 20
-1623.092
 30
1138.592
 70
    32
  0
VERTEX
  8
T41SSILL
 62
4
 10
5590.671
 20
-1289.293
 30
1138.230
 70
    32
  0
VERTEX
  8
T41SSILL
 62
4
 10
5583.029
 20
-1275.308
 30
1138.186
 70
    32
  0
VERTEX
  8
T41SSILL
 62
4
 10
5566.489
 20
-1262.234
 30
1138.131
 70
    32
  0
VERTEX
  8
T41SSILL
 62
4
 10
5547.657
 20
-1257.918
 30
1138.093
 70
    32
  0
VERTEX
  8
T41SSILL
 62
4
 10
5529.990
 20
-1260.450
 30
1138.072
 70
    32
  0
VERTEX
  8
T41SSILL
 62
4
 10
4792.781
 20
-1791.517
 30
1135.349
 70
    32
  0
VERTEX
  8
T41SSILL
 62
4
 10
4789.107
 20
-1803.859
 30
1135.339
 70
    32
  0
VERTEX
  8
T41SSILL
 62
4
 10
4785.350
 20
-1806.617
 30
1135.325
 70
    32
  0
VERTEX
  8
T41SSILL
 62
4
 10
4779.984
 20
-1806.312
 30
1135.303
 70
    32
  0
VERTEX
  8
T41SSILL
 62
4
 10
4774.951
 20
-1803.894
 30
1135.281
 70
    32
  0
VERTEX
  8
T41SSILL
 62
4
 10
4468.990
 20
-2022.187
 30
1134.239
 70
    32
  0
VERTEX
  8
T41SSILL
 62
4
 10
3932.727
 20
-2407.181
 30
1134.480
 70
    32
  0
VERTEX
  8
T41SSILL
 62
4
 10
3924.206
 20
-2417.818
 30
1134.478
 70
    32
  0
VERTEX
  8
T41SSILL
 62
4
 10
3919.676
 20
-2427.224
 30
1134.471
 70
    32
  0
VERTEX
  8
T41SSILL
 62
4
 10
3917.928
 20
-2438.192
 30
1134.458
 70
    32
  0
VERTEX
  8
T41SSILL
 62
4
 10
3925.913
 20
-2485.574
 30
1134.379
 70
    32
  0
VERTEX
  8
T41SSILL
 62
4
 10
3967.068
 20
-2507.298
 30
1134.288
 70
    32
  0
VERTEX
  8
T41SSILL
 62
4
 10
3970.655
 20
-2504.475
 30
1134.287
 70
    32
  0
VERTEX
  8
T41SSILL
 62
4
 10
3984.772
 20
-2522.498
 30
1134.240
 70
    32
  0
VERTEX
  8
T41SSILL
 62
4
 10
3996.593
 20
-2513.874
 30
1134.235
 70
    32
  0
VERTEX
  8
T41SSILL
 62
4
 10
4009.123
 20
-2528.163
 30
1134.223
 70
    32
  0
VERTEX
  8
T41SSILL
 62
4
 10
4009.950
 20
-2534.346
 30
1134.223
 70
    32
  0
VERTEX
  8
T41SSILL
 62
4
 10
4003.414
 20
-2539.039
 30
1134.222
 70
    32
  0
VERTEX
  8
T41SSILL
 62
4
 10
4000.084
 20
-2534.472
 30
1134.222
 70
    32
  0
VERTEX
  8
T41SSILL
 62
4
 10
3996.143
 20
-2537.376
 30
1134.222
 70
    32
  0
VERTEX
  8
T41SSILL
 62
4
 10
3997.161
 20
-2550.608
 30
1134.222
 70
    32
  0
VERTEX
  8
T41SSILL
 62
4
 10
3942.822
 20
-2593.217
 30
1134.220
 70
    32
  0
VERTEX
  8
T41SSILL
 62
4
 10
3963.128
 20
-2722.989
 30
1134.201
 70
    32
  0
VERTEX
  8
T41SSILL
 62
4
 10
3961.556
 20
-2811.585
 30
1134.169
 70
    32
  0
VERTEX
  8
T41SSILL
 62
4
 10
3964.129
 20
-2820.281
 30
1134.165
 70
    32
  0
VERTEX
  8
T41SSILL
 62
4
 10
3968.465
 20
-2823.199
 30
1134.162
 70
    32
  0
VERTEX
  8
T41SSILL
 62
4
 10
3993.358
 20
-2824.385
 30
1134.151
 70
    32
  0
VERTEX
  8
T41SSILL
 62
4
 10
3992.983
 20
-2833.094
 30
1134.148
 70
    32
  0
VERTEX
  8
T41SSILL
 62
4
 10
3969.565
 20
-2832.822
 30
1134.158
 70
    32
  0
VERTEX
  8
T41SSILL
 62
4
 10
3964.548
 20
-2836.582
 30
1134.159
 70
    32
  0
VERTEX
  8
T41SSILL
 62
4
 10
3960.942
 20
-2844.197
 30
1134.158
 70
    32
  0
VERTEX
  8
T41SSILL
 62
4
 10
3915.279
 20
-5275.283
 30
1134.115
 70
    32
  0
VERTEX
  8
T41SSILL
 62
4
 10
3982.787
 20
-5399.225
 30
1134.398
 70
    32
  0
VERTEX
  8
T41SSILL
 62
4
 10
3987.864
 20
-5396.186
 30
1134.419
 70
    32
  0
VERTEX
  8
T41SSILL
 62
4
 10
3991.278
 20
-5403.637
 30
1134.431
 70
    32
  0
VERTEX
  8
T41SSILL
 62
4
 10
3986.372
 20
-5406.235
 30
1134.411
 70
    32
  0
VERTEX
  8
T41SSILL
 62
4
 10
4004.095
 20
-5438.291
 30
1134.475
 70
    32
  0
VERTEX
  8
T41SSILL
 62
4
 10
3996.378
 20
-5441.530
 30
1134.444
 70
    32
  0
VERTEX
  8
T41SSILL
 62
4
 10
3990.294
 20
-5430.759
 30
1134.422
 70
    32
  0
VERTEX
  8
T41SSILL
 62
4
 10
3985.737
 20
-5433.089
 30
1134.403
 70
    32
  0
VERTEX
  8
T41SSILL
 62
4
 10
3981.977
 20
-5426.169
 30
1134.390
 70
    32
  0
VERTEX
  8
T41SSILL
 62
4
 10
3987.056
 20
-5423.218
 30
1134.410
 70
    32
  0
VERTEX
  8
T41SSILL
 62
4
 10
3940.406
 20
-5337.289
 30
1134.219
 70
    32
  0
VERTEX
  8
T41SSILL
 62
4
 10
3935.059
 20
-5339.715
 30
1134.191
 70
    32
  0
VERTEX
  8
T41SSILL
 62
4
 10
3931.119
 20
-5332.445
 30
1134.173
 70
    32
  0
VERTEX
  8
T41SSILL
 62
4
 10
3936.634
 20
-5329.049
 30
1134.203
 70
    32
  0
VERTEX
  8
T41SSILL
 62
4
 10
3915.149
 20
-5289.985
 30
1134.108
 70
    32
  0
VERTEX
  8
T41SSILL
 62
4
 10
3911.975
 20
-5481.740
 30
1134.015
 70
    32
  0
VERTEX
  8
T41SSILL
 62
4
 10
3991.646
 20
-5530.394
 30
1134.406
 70
    32
  0
VERTEX
  8
T41SSILL
 62
4
 10
4007.822
 20
-5518.450
 30
1134.473
 70
    32
  0
VERTEX
  8
T41SSILL
 62
4
 10
4003.635
 20
-5513.031
 30
1134.458
 70
    32
  0
VERTEX
  8
T41SSILL
 62
4
 10
4011.158
 20
-5507.856
 30
1134.489
 70
    32
  0
VERTEX
  8
T41SSILL
 62
4
 10
4014.557
 20
-5513.723
 30
1134.501
 70
    32
  0
VERTEX
  8
T41SSILL
 62
4
 10
4098.073
 20
-5453.540
 30
1134.846
 70
    32
  0
VERTEX
  8
T41SSILL
 62
4
 10
4103.455
 20
-5459.587
 30
1134.866
 70
    32
  0
VERTEX
  8
T41SSILL
 62
4
 10
4093.259
 20
-5466.260
 30
1134.824
 70
    32
  0
VERTEX
  8
T41SSILL
 62
4
 10
4097.274
 20
-5472.121
 30
1134.839
 70
    32
  0
VERTEX
  8
T41SSILL
 62
4
 10
4090.365
 20
-5477.026
 30
1134.811
 70
    32
  0
VERTEX
  8
T41SSILL
 62
4
 10
4086.437
 20
-5470.988
 30
1134.796
 70
    32
  0
VERTEX
  8
T41SSILL
 62
4
 10
4051.892
 20
-5495.776
 30
1134.654
 70
    32
  0
VERTEX
  8
T41SSILL
 62
4
 10
4056.262
 20
-5501.898
 30
1134.670
 70
    32
  0
VERTEX
  8
T41SSILL
 62
4
 10
4049.615
 20
-5506.624
 30
1134.642
 70
    32
  0
VERTEX
  8
T41SSILL
 62
4
 10
4045.248
 20
-5500.766
 30
1134.626
 70
    32
  0
VERTEX
  8
T41SSILL
 62
4
 10
3998.288
 20
-5534.735
 30
1134.429
 70
    32
  0
VERTEX
  8
T41SSILL
 62
4
 10
4317.829
 20
-5726.968
 30
1135.248
 70
    32
  0
VERTEX
  8
T41SSILL
 62
4
 10
4325.014
 20
-5723.293
 30
1135.284
 70
    32
  0
VERTEX
  8
T41SSILL
 62
4
 10
4326.924
 20
-5720.370
 30
1135.299
 70
    32
  0
VERTEX
  8
T41SSILL
 62
4
 10
4323.195
 20
-5718.165
 30
1135.289
 70
    32
  0
VERTEX
  8
T41SSILL
 62
4
 10
4321.261
 20
-5713.016
 30
1135.293
 70
    32
  0
VERTEX
  8
T41SSILL
 62
4
 10
4306.419
 20
-5698.366
 30
1135.268
 70
    32
  0
VERTEX
  8
T41SSILL
 62
4
 10
4293.145
 20
-5679.519
 30
1135.259
 70
    32
  0
VERTEX
  8
T41SSILL
 62
4
 10
4279.812
 20
-5655.371
 30
1135.262
 70
    32
  0
VERTEX
  8
T41SSILL
 62
4
 10
4290.459
 20
-5649.809
 30
1135.316
 70
    32
  0
VERTEX
  8
T41SSILL
 62
4
 10
4300.886
 20
-5646.567
 30
1135.365
 70
    32
  0
VERTEX
  8
T41SSILL
 62
4
 10
4306.969
 20
-5650.396
 30
1135.380
 70
    32
  0
VERTEX
  8
T41SSILL
 62
4
 10
4319.181
 20
-5662.302
 30
1135.401
 70
    32
  0
VERTEX
  8
T41SSILL
 62
4
 10
4331.201
 20
-5697.736
 30
1135.367
 70
    32
  0
VERTEX
  8
T41SSILL
 62
4
 10
4336.220
 20
-5703.754
 30
1135.373
 70
    32
  0
VERTEX
  8
T41SSILL
 62
4
 10
4338.486
 20
-5703.434
 30
1135.383
 70
    32
  0
VERTEX
  8
T41SSILL
 62
4
 10
4344.636
 20
-5693.536
 30
1135.430
 70
    32
  0
VERTEX
  8
T41SSILL
 62
4
 10
4341.585
 20
-5677.631
 30
1135.454
 70
    32
  0
VERTEX
  8
T41SSILL
 62
4
 10
4336.580
 20
-5669.402
 30
1135.453
 70
    32
  0
VERTEX
  8
T41SSILL
 62
4
 10
4338.663
 20
-5656.443
 30
1135.491
 70
    32
  0
VERTEX
  8
T41SSILL
 62
4
 10
4347.008
 20
-5654.606
 30
1135.528
 70
    32
  0
VERTEX
  8
T41SSILL
 62
4
 10
4351.697
 20
-5666.799
 30
1135.519
 70
    32
  0
VERTEX
  8
T41SSILL
 62
4
 10
4352.485
 20
-5675.946
 30
1135.501
 70
    32
  0
VERTEX
  8
T41SSILL
 62
4
 10
4354.983
 20
-5679.533
 30
1135.502
 70
    32
  0
VERTEX
  8
T41SSILL
 62
4
 10
4456.653
 20
-5525.433
 30
1136.255
 70
    32
  0
VERTEX
  8
T41SSILL
 62
4
 10
4450.318
 20
-5516.072
 30
1136.236
 70
    32
  0
VERTEX
  8
T41SSILL
 62
4
 10
4456.445
 20
-5512.319
 30
1136.257
 70
    32
  0
VERTEX
  8
T41SSILL
 62
4
 10
4460.723
 20
-5518.089
 30
1136.274
 70
    32
  0
VERTEX
  8
T41SSILL
 62
4
 10
4468.113
 20
-5507.986
 30
1136.291
 70
    32
  0
VERTEX
  8
T41SSILL
 62
4
 10
4473.604
 20
-5511.633
 30
1136.297
 70
    32
  0
VERTEX
  8
T41SSILL
 62
4
 10
4464.839
 20
-5525.358
 30
1136.283
 70
    32
  0
VERTEX
  8
T41SSILL
 62
4
 10
4480.258
 20
-5546.079
 30
1136.298
 70
    32
  0
VERTEX
  8
T41SSILL
 62
4
 10
4473.957
 20
-5550.098
 30
1136.287
 70
    32
  0
VERTEX
  8
T41SSILL
 62
4
 10
4460.759
 20
-5531.645
 30
1136.257
 70
    32
  0
VERTEX
  8
T41SSILL
 62
4
 10
4392.079
 20
-5635.355
 30
1135.750
 70
    32
  0
VERTEX
  8
T41SSILL
 62
4
 10
4398.362
 20
-5638.995
 30
1135.766
 70
    32
  0
VERTEX
  8
T41SSILL
 62
4
 10
4393.583
 20
-5645.817
 30
1135.732
 70
    32
  0
VERTEX
  8
T41SSILL
 62
4
 10
4387.472
 20
-5641.823
 30
1135.717
 70
    32
  0
VERTEX
  8
T41SSILL
 62
4
 10
4329.731
 20
-5728.883
 30
1135.290
 70
    32
  0
VERTEX
  8
T41SSILL
 62
4
 10
4325.177
 20
-5731.478
 30
1135.266
 70
    32
  0
VERTEX
  8
T41SSILL
 62
4
 10
4383.940
 20
-5765.623
 30
1135.420
 70
    32
  0
VERTEX
  8
T41SSILL
 62
4
 10
4389.224
 20
-5775.434
 30
1135.418
 70
    32
  0
VERTEX
  8
T41SSILL
 62
4
 10
4401.704
 20
-5792.485
 30
1135.428
 70
    32
  0
VERTEX
  8
T41SSILL
 62
4
 10
4408.088
 20
-5787.937
 30
1135.464
 70
    32
  0
VERTEX
  8
T41SSILL
 62
4
 10
4412.370
 20
-5794.148
 30
1135.467
 70
    32
  0
VERTEX
  8
T41SSILL
 62
4
 10
4406.338
 20
-5798.693
 30
1135.432
 70
    32
  0
VERTEX
  8
T41SSILL
 62
4
 10
4461.259
 20
-5874.686
 30
1135.522
 70
    32
  0
VERTEX
  8
T41SSILL
 62
4
 10
4467.201
 20
-5869.878
 30
1135.580
 70
    32
  0
VERTEX
  8
T41SSILL
 62
4
 10
4471.314
 20
-5876.795
 30
1135.597
 70
    32
  0
VERTEX
  8
T41SSILL
 62
4
 10
4465.633
 20
-5881.248
 30
1135.543
 70
    32
  0
VERTEX
  8
T41SSILL
 62
4
 10
4511.808
 20
-5944.206
 30
1135.750
 70
    32
  0
VERTEX
  8
T41SSILL
 62
4
 10
4519.677
 20
-5948.007
 30
1135.782
 70
    32
  0
VERTEX
  8
T41SSILL
 62
4
 10
4527.129
 20
-5954.277
 30
1135.806
 70
    32
  0
VERTEX
  8
T41SSILL
 62
4
 10
4532.906
 20
-5950.703
 30
1135.841
 70
    32
  0
VERTEX
  8
T41SSILL
 62
4
 10
4536.921
 20
-5956.564
 30
1135.850
 70
    32
  0
VERTEX
  8
T41SSILL
 62
4
 10
4532.109
 20
-5959.777
 30
1135.820
 70
    32
  0
VERTEX
  8
T41SSILL
 62
4
 10
4535.084
 20
-5977.092
 30
1135.803
 70
    32
  0
VERTEX
  8
T41SSILL
 62
4
 10
4581.248
 20
-6044.658
 30
1135.903
 70
    32
  0
VERTEX
  8
T41SSILL
 62
4
 10
4587.113
 20
-6039.870
 30
1135.941
 70
    32
  0
VERTEX
  8
T41SSILL
 62
4
 10
4592.068
 20
-6046.706
 30
1135.952
 70
    32
  0
VERTEX
  8
T41SSILL
 62
4
 10
4586.116
 20
-6051.317
 30
1135.915
 70
    32
  0
VERTEX
  8
T41SSILL
 62
4
 10
4603.931
 20
-6076.527
 30
1135.955
 70
    32
  0
VERTEX
  8
T41SSILL
 62
4
 10
4611.279
 20
-6082.066
 30
1135.980
 70
    32
  0
VERTEX
  8
T41SSILL
 62
4
 10
4624.172
 20
-6088.365
 30
1136.031
 70
    32
  0
VERTEX
  8
T41SSILL
 62
4
 10
4628.862
 20
-6095.286
 30
1136.042
 70
    32
  0
VERTEX
  8
T41SSILL
 62
4
 10
4630.362
 20
-6112.664
 30
1136.017
 70
    32
  0
VERTEX
  8
T41SSILL
 62
4
 10
4640.622
 20
-6126.605
 30
1136.041
 70
    32
  0
VERTEX
  8
T41SSILL
 62
4
 10
4646.657
 20
-6122.435
 30
1136.078
 70
    32
  0
VERTEX
  8
T41SSILL
 62
4
 10
4650.999
 20
-6128.913
 30
1136.087
 70
    32
  0
VERTEX
  8
T41SSILL
 62
4
 10
4645.317
 20
-6132.998
 30
1136.052
 70
    32
  0
VERTEX
  8
T41SSILL
 62
4
 10
4665.132
 20
-6160.872
 30
1136.097
 70
    32
  0
VERTEX
  8
T41SSILL
 62
4
 10
4670.826
 20
-6164.367
 30
1136.119
 70
    32
  0
VERTEX
  8
T41SSILL
 62
4
 10
4676.896
 20
-6174.211
 30
1136.130
 70
    32
  0
VERTEX
  8
T41SSILL
 62
4
 10
4683.567
 20
-6177.010
 30
1136.153
 70
    32
  0
VERTEX
  8
T41SSILL
 62
4
 10
4685.729
 20
-6181.086
 30
1136.156
 70
    32
  0
VERTEX
  8
T41SSILL
 62
4
 10
4686.686
 20
-6191.143
 30
1136.144
 70
    32
  0
VERTEX
  8
T41SSILL
 62
4
 10
4699.639
 20
-6208.989
 30
1136.168
 70
    32
  0
VERTEX
  8
T41SSILL
 62
4
 10
4720.442
 20
-6194.217
 30
1136.276
 70
    32
  0
VERTEX
  8
T41SSILL
 62
4
 10
4725.211
 20
-6200.040
 30
1136.286
 70
    32
  0
VERTEX
  8
T41SSILL
 62
4
 10
4703.901
 20
-6214.584
 30
1136.177
 70
    32
  0
VERTEX
  8
T41SSILL
 62
4
 10
4735.457
 20
-6258.177
 30
1136.254
 70
    32
  0
VERTEX
  8
T41SSILL
 62
4
 10
4745.485
 20
-6268.854
 30
1136.276
 70
    32
  0
VERTEX
  8
T41SSILL
 62
4
 10
4793.112
 20
-6335.787
 30
1136.400
 70
    32
  0
VERTEX
  8
T41SSILL
 62
4
 10
4805.943
 20
-6356.981
 30
1136.437
 70
    32
  0
VERTEX
  8
T41SSILL
 62
4
 10
4846.223
 20
-6356.857
 30
1136.496
 70
    32
  0
VERTEX
  8
T41SSILL
 62
4
 10
4849.199
 20
-6358.914
 30
1136.501
 70
    32
  0
VERTEX
  8
T41SSILL
 62
4
 10
4852.032
 20
-6366.434
 30
1136.502
 70
    32
  0
VERTEX
  8
T41SSILL
 62
4
 10
4870.970
 20
-6367.506
 30
1136.536
 70
    32
  0
VERTEX
  8
T41SSILL
 62
4
 10
4871.435
 20
-6356.405
 30
1136.543
 70
    32
  0
VERTEX
  8
T41SSILL
 62
4
 10
4891.171
 20
-6357.044
 30
1136.579
 70
    32
  0
VERTEX
  8
T41SSILL
 62
4
 10
4890.611
 20
-6377.663
 30
1136.566
 70
    32
  0
VERTEX
  8
T41SSILL
 62
4
 10
4835.114
 20
-6374.813
 30
1136.504
 70
    32
  0
VERTEX
  8
T41SSILL
 62
4
 10
4827.001
 20
-6366.447
 30
1136.478
 70
    32
  0
VERTEX
  8
T41SSILL
 62
4
 10
4813.784
 20
-6366.050
 30
1136.465
 70
    32
  0
VERTEX
  8
T41SSILL
 62
4
 10
4910.355
 20
-6500.371
 30
1136.857
 70
    32
  0
VERTEX
  8
T41SSILL
 62
4
 10
4993.445
 20
-6441.273
 30
1136.717
 70
    32
  0
VERTEX
  8
T41SSILL
 62
4
 10
4997.692
 20
-6448.367
 30
1136.720
 70
    32
  0
VERTEX
  8
T41SSILL
 62
4
 10
4994.760
 20
-6450.717
 30
1136.713
 70
    32
  0
VERTEX
  8
T41SSILL
 62
4
 10
4990.354
 20
-6459.398
 30
1136.700
 70
    32
  0
VERTEX
  8
T41SSILL
 62
4
 10
4982.739
 20
-6462.847
 30
1136.684
 70
    32
  0
VERTEX
  8
T41SSILL
 62
4
 10
4976.128
 20
-6462.957
 30
1136.672
 70
    32
  0
VERTEX
  8
T41SSILL
 62
4
 10
4915.313
 20
-6506.855
 30
1136.875
 70
    32
  0
VERTEX
  8
T41SSILL
 62
4
 10
4980.508
 20
-6597.233
 30
1137.129
 70
    32
  0
VERTEX
  8
T41SSILL
 62
4
 10
4984.421
 20
-6593.747
 30
1137.089
 70
    32
  0
VERTEX
  8
T41SSILL
 62
4
 10
4989.990
 20
-6600.854
 30
1137.100
 70
    32
  0
VERTEX
  8
T41SSILL
 62
4
 10
4985.287
 20
-6604.068
 30
1137.149
 70
    32
  0
VERTEX
  8
T41SSILL
 62
4
 10
5004.237
 20
-6630.258
 30
1137.219
 70
    32
  0
VERTEX
  8
T41SSILL
 62
4
 10
5061.616
 20
-6638.855
 30
1136.817
 70
    32
  0
VERTEX
  8
T41SSILL
 62
4
 10
5073.542
 20
-6636.155
 30
1136.749
 70
    32
  0
VERTEX
  8
T41SSILL
 62
4
 10
5232.194
 20
-6521.497
 30
1137.019
 70
    32
  0
VERTEX
  8
T41SSILL
 62
4
 10
5238.536
 20
-6527.239
 30
1137.025
 70
    32
  0
VERTEX
  8
T41SSILL
 62
4
 10
5166.132
 20
-6578.915
 30
1136.926
 70
    32
  0
VERTEX
  8
T41SSILL
 62
4
 10
5169.781
 20
-6584.152
 30
1136.929
 70
    32
  0
VERTEX
  8
T41SSILL
 62
4
 10
5162.863
 20
-6588.489
 30
1136.919
 70
    32
  0
VERTEX
  8
T41SSILL
 62
4
 10
5158.945
 20
-6583.690
 30
1136.916
 70
    32
  0
VERTEX
  8
T41SSILL
 62
4
 10
5072.935
 20
-6643.905
 30
1136.764
 70
    32
  0
VERTEX
  8
T41SSILL
 62
4
 10
5060.397
 20
-6646.159
 30
1136.885
 70
    32
  0
VERTEX
  8
T41SSILL
 62
4
 10
5009.621
 20
-6638.333
 30
1137.239
 70
    32
  0
VERTEX
  8
T41SSILL
 62
4
 10
5070.874
 20
-6722.726
 30
1137.396
 70
    32
  0
VERTEX
  8
T41SSILL
 62
4
 10
5076.597
 20
-6723.198
 30
1137.361
 70
    32
  0
VERTEX
  8
T41SSILL
 62
4
 10
5082.041
 20
-6721.515
 30
1137.310
 70
    32
  0
VERTEX
  8
T41SSILL
 62
4
 10
5089.110
 20
-6711.682
 30
1137.173
 70
    32
  0
VERTEX
  8
T41SSILL
 62
4
 10
5092.745
 20
-6712.590
 30
1137.151
 70
    32
  0
VERTEX
  8
T41SSILL
 62
4
 10
5106.124
 20
-6710.328
 30
1137.023
 70
    32
  0
VERTEX
  8
T41SSILL
 62
4
 10
5127.395
 20
-6715.257
 30
1136.888
 70
    32
  0
VERTEX
  8
T41SSILL
 62
4
 10
5132.223
 20
-6718.793
 30
1136.877
 70
    32
  0
VERTEX
  8
T41SSILL
 62
4
 10
5233.215
 20
-6646.487
 30
1136.994
 70
    32
  0
VERTEX
  8
T41SSILL
 62
4
 10
5230.667
 20
-6642.896
 30
1136.991
 70
    32
  0
VERTEX
  8
T41SSILL
 62
4
 10
5238.902
 20
-6637.275
 30
1137.003
 70
    32
  0
VERTEX
  8
T41SSILL
 62
4
 10
5241.342
 20
-6640.659
 30
1137.005
 70
    32
  0
VERTEX
  8
T41SSILL
 62
4
 10
5300.251
 20
-6598.407
 30
1137.086
 70
    32
  0
VERTEX
  8
T41SSILL
 62
4
 10
5304.901
 20
-6604.464
 30
1137.091
 70
    32
  0
VERTEX
  8
T41SSILL
 62
4
 10
5141.732
 20
-6722.424
 30
1136.828
 70
    32
  0
VERTEX
  8
T41SSILL
 62
4
 10
5151.854
 20
-6736.020
 30
1136.853
 70
    32
  0
VERTEX
  8
T41SSILL
 62
4
 10
5151.387
 20
-6739.648
 30
1136.886
 70
    32
  0
VERTEX
  8
T41SSILL
 62
4
 10
5148.764
 20
-6741.106
 30
1136.919
 70
    32
  0
VERTEX
  8
T41SSILL
 62
4
 10
5157.177
 20
-6763.029
 30
1137.025
 70
    32
  0
VERTEX
  8
T41SSILL
 62
4
 10
5171.481
 20
-6768.343
 30
1136.951
 70
    32
  0
VERTEX
  8
T41SSILL
 62
4
 10
5173.584
 20
-6772.544
 30
1136.967
 70
    32
  0
VERTEX
  8
T41SSILL
 62
4
 10
5184.609
 20
-6772.000
 30
1136.873
 70
    32
  0
VERTEX
  8
T41SSILL
 62
4
 10
5191.274
 20
-6769.413
 30
1136.887
 70
    32
  0
VERTEX
  8
T41SSILL
 62
4
 10
5242.799
 20
-6732.063
 30
1136.988
 70
    32
  0
VERTEX
  8
T41SSILL
 62
4
 10
5192.851
 20
-6733.016
 30
1136.911
 70
    32
  0
VERTEX
  8
T41SSILL
 62
4
 10
5177.404
 20
-6727.986
 30
1136.886
 70
    32
  0
VERTEX
  8
T41SSILL
 62
4
 10
5187.547
 20
-6717.306
 30
1136.911
 70
    32
  0
VERTEX
  8
T41SSILL
 62
4
 10
5191.018
 20
-6707.664
 30
1136.923
 70
    32
  0
VERTEX
  8
T41SSILL
 62
4
 10
5207.152
 20
-6703.100
 30
1136.950
 70
    32
  0
VERTEX
  8
T41SSILL
 62
4
 10
5208.033
 20
-6693.016
 30
1136.953
 70
    32
  0
VERTEX
  8
T41SSILL
 62
4
 10
5212.326
 20
-6688.823
 30
1136.959
 70
    32
  0
VERTEX
  8
T41SSILL
 62
4
 10
5221.179
 20
-6690.422
 30
1136.970
 70
    32
  0
VERTEX
  8
T41SSILL
 62
4
 10
5223.230
 20
-6692.437
 30
1136.972
 70
    32
  0
VERTEX
  8
T41SSILL
 62
4
 10
5241.287
 20
-6685.468
 30
1136.996
 70
    32
  0
VERTEX
  8
T41SSILL
 62
4
 10
5256.224
 20
-6705.044
 30
1137.010
 70
    32
  0
VERTEX
  8
T41SSILL
 62
4
 10
5270.451
 20
-6712.870
 30
1137.026
 70
    32
  0
VERTEX
  8
T41SSILL
 62
4
 10
5276.369
 20
-6708.001
 30
1137.034
 70
    32
  0
VERTEX
  8
T41SSILL
 62
4
 10
5289.526
 20
-6708.215
 30
1137.050
 70
    32
  0
VERTEX
  8
T41SSILL
 62
4
 10
5276.464
 20
-6718.592
 30
1137.032
 70
    32
  0
VERTEX
  8
T41SSILL
 62
4
 10
5296.717
 20
-6730.954
 30
1137.054
 70
    32
  0
VERTEX
  8
T41SSILL
 62
4
 10
5295.855
 20
-6737.236
 30
1137.052
 70
    32
  0
VERTEX
  8
T41SSILL
 62
4
 10
5284.419
 20
-6739.553
 30
1137.037
 70
    32
  0
VERTEX
  8
T41SSILL
 62
4
 10
5266.407
 20
-6739.335
 30
1137.015
 70
    32
  0
VERTEX
  8
T41SSILL
 62
4
 10
5252.738
 20
-6735.069
 30
1136.999
 70
    32
  0
VERTEX
  8
T41SSILL
 62
4
 10
5194.301
 20
-6775.982
 30
1136.889
 70
    32
  0
VERTEX
  8
T41SSILL
 62
4
 10
5186.760
 20
-6778.937
 30
1136.910
 70
    32
  0
VERTEX
  8
T41SSILL
 62
4
 10
5178.130
 20
-6780.145
 30
1136.990
 70
    32
  0
VERTEX
  8
T41SSILL
 62
4
 10
5166.264
 20
-6778.056
 30
1137.071
 70
    32
  0
VERTEX
  8
T41SSILL
 62
4
 10
5158.897
 20
-6780.831
 30
1137.154
 70
    32
  0
VERTEX
  8
T41SSILL
 62
4
 10
5151.542
 20
-6779.193
 30
1137.201
 70
    32
  0
VERTEX
  8
T41SSILL
 62
4
 10
5146.792
 20
-6785.278
 30
1137.288
 70
    32
  0
VERTEX
  8
T41SSILL
 62
4
 10
5134.086
 20
-6775.434
 30
1137.310
 70
    32
  0
VERTEX
  8
T41SSILL
 62
4
 10
5130.878
 20
-6778.756
 30
1137.352
 70
    32
  0
VERTEX
  8
T41SSILL
 62
4
 10
5136.140
 20
-6786.963
 30
1137.369
 70
    32
  0
VERTEX
  8
T41SSILL
 62
4
 10
5133.132
 20
-6804.685
 30
1137.501
 70
    32
  0
VERTEX
  8
T41SSILL
 62
4
 10
5138.761
 20
-6810.785
 30
1137.503
 70
    32
  0
VERTEX
  8
T41SSILL
 62
4
 10
5143.461
 20
-6807.052
 30
1137.448
 70
    32
  0
VERTEX
  8
T41SSILL
 62
4
 10
5148.262
 20
-6814.119
 30
1137.461
 70
    32
  0
VERTEX
  8
T41SSILL
 62
4
 10
5142.506
 20
-6818.191
 30
1137.501
 70
    32
  0
VERTEX
  8
T41SSILL
 62
4
 10
5143.042
 20
-6823.655
 30
1137.499
 70
    32
  0
VERTEX
  8
T41SSILL
 62
4
 10
5164.204
 20
-6852.862
 30
1137.576
 70
    32
  0
VERTEX
  8
T41SSILL
 62
4
 10
5176.545
 20
-6862.006
 30
1137.422
 70
    32
  0
VERTEX
  8
T41SSILL
 62
4
 10
5182.569
 20
-6863.225
 30
1137.410
 70
    32
  0
VERTEX
  8
T41SSILL
 62
4
 10
5188.571
 20
-6863.210
 30
1137.413
 70
    32
  0
VERTEX
  8
T41SSILL
 62
4
 10
5196.739
 20
-6860.773
 30
1137.423
 70
    32
  0
VERTEX
  8
T41SSILL
 62
4
 10
5202.884
 20
-6853.693
 30
1137.349
 70
    32
  0
VERTEX
  8
T41SSILL
 62
4
 10
5199.057
 20
-6846.786
 30
1137.331
 70
    32
  0
VERTEX
  8
T41SSILL
 62
4
 10
5200.269
 20
-6845.440
 30
1137.314
 70
    32
  0
VERTEX
  8
T41SSILL
 62
4
 10
5189.327
 20
-6830.358
 30
1137.291
 70
    32
  0
VERTEX
  8
T41SSILL
 62
4
 10
5195.778
 20
-6825.656
 30
1137.209
 70
    32
  0
VERTEX
  8
T41SSILL
 62
4
 10
5206.109
 20
-6841.102
 30
1137.248
 70
    32
  0
VERTEX
  8
T41SSILL
 62
4
 10
5219.863
 20
-6835.038
 30
1137.087
 70
    32
  0
VERTEX
  8
T41SSILL
 62
4
 10
5229.647
 20
-6834.162
 30
1137.000
 70
    32
  0
VERTEX
  8
T41SSILL
 62
4
 10
5237.181
 20
-6830.854
 30
1136.935
 70
    32
  0
VERTEX
  8
T41SSILL
 62
4
 10
5238.765
 20
-6825.442
 30
1136.941
 70
    32
  0
VERTEX
  8
T41SSILL
 62
4
 10
5238.217
 20
-6819.272
 30
1136.944
 70
    32
  0
VERTEX
  8
T41SSILL
 62
4
 10
5260.928
 20
-6815.524
 30
1136.987
 70
    32
  0
VERTEX
  8
T41SSILL
 62
4
 10
5268.614
 20
-6856.705
 30
1136.977
 70
    32
  0
VERTEX
  8
T41SSILL
 62
4
 10
5262.399
 20
-6869.966
 30
1137.017
 70
    32
  0
VERTEX
  8
T41SSILL
 62
4
 10
5285.297
 20
-6871.953
 30
1136.999
 70
    32
  0
VERTEX
  8
T41SSILL
 62
4
 10
5285.342
 20
-6879.632
 30
1136.995
 70
    32
  0
VERTEX
  8
T41SSILL
 62
4
 10
5260.930
 20
-6876.877
 30
1137.084
 70
    32
  0
VERTEX
  8
T41SSILL
 62
4
 10
5260.553
 20
-6885.711
 30
1137.158
 70
    32
  0
VERTEX
  8
T41SSILL
 62
4
 10
5241.666
 20
-6885.949
 30
1137.296
 70
    32
  0
VERTEX
  8
T41SSILL
 62
4
 10
5197.429
 20
-6870.030
 30
1137.400
 70
    32
  0
VERTEX
  8
T41SSILL
 62
4
 10
5182.085
 20
-6871.002
 30
1137.476
 70
    32
  0
VERTEX
  8
T41SSILL
 62
4
 10
5175.440
 20
-6869.616
 30
1137.648
 70
    32
  0
VERTEX
  8
T41SSILL
 62
4
 10
5280.364
 20
-7015.400
 30
1137.817
 70
    32
  0
VERTEX
  8
T41SSILL
 62
4
 10
5305.380
 20
-6996.959
 30
1137.139
 70
    32
  0
VERTEX
  8
T41SSILL
 62
4
 10
5301.775
 20
-6992.695
 30
1137.148
 70
    32
  0
VERTEX
  8
T41SSILL
 62
4
 10
5314.675
 20
-6983.115
 30
1137.178
 70
    32
  0
VERTEX
  8
T41SSILL
 62
4
 10
5323.373
 20
-6996.029
 30
1137.151
 70
    32
  0
VERTEX
  8
T41SSILL
 62
4
 10
5286.403
 20
-7022.622
 30
1137.628
 70
    32
  0
VERTEX
  8
T41SSILL
 62
4
 10
5328.490
 20
-7082.629
 30
1137.906
 70
    32
  0
VERTEX
  8
T41SSILL
 62
4
 10
5337.384
 20
-7076.207
 30
1137.818
 70
    32
  0
VERTEX
  8
T41SSILL
 62
4
 10
5343.907
 20
-7085.893
 30
1137.908
 70
    32
  0
VERTEX
  8
T41SSILL
 62
4
 10
5335.630
 20
-7092.216
 30
1137.994
 70
    32
  0
VERTEX
  8
T41SSILL
 62
4
 10
5343.955
 20
-7103.989
 30
1138.102
 70
    32
  0
VERTEX
  8
T41SSILL
 62
4
 10
5358.346
 20
-7093.853
 30
1137.962
 70
    32
  0
VERTEX
  8
T41SSILL
 62
4
 10
5364.586
 20
-7102.484
 30
1138.041
 70
    32
  0
VERTEX
  8
T41SSILL
 62
4
 10
5349.942
 20
-7113.243
 30
1138.188
 70
    32
  0
VERTEX
  8
T41SSILL
 62
4
 10
5358.420
 20
-7123.689
 30
1138.282
 70
    32
  0
VERTEX
  8
T41SSILL
 62
4
 10
5414.559
 20
-7133.576
 30
1138.190
 70
    32
  0
VERTEX
  8
T41SSILL
 62
4
 10
5412.957
 20
-7143.049
 30
1138.293
 70
    32
  0
VERTEX
  8
T41SSILL
 62
4
 10
5366.667
 20
-7135.994
 30
1138.387
 70
    32
  0
VERTEX
  8
T41SSILL
 62
4
 10
5361.990
 20
-7141.195
 30
1138.458
 70
    32
  0
VERTEX
  8
T41SSILL
 62
4
 10
5271.881
 20
-7014.929
 30
1138.096
 70
    32
  0
VERTEX
  8
T41SSILL
 62
4
 10
5256.620
 20
-7112.474
 30
1138.654
 70
    32
  0
VERTEX
  8
T41SSILL
 62
4
 10
5281.726
 20
-7147.616
 30
1138.680
 70
    32
  0
VERTEX
  8
T41SSILL
 62
4
 10
5275.226
 20
-7152.141
 30
1138.671
 70
    32
  0
VERTEX
  8
T41SSILL
 62
4
 10
5226.844
 20
-7085.447
 30
1138.536
 70
    32
  0
VERTEX
  8
T41SSILL
 62
4
 10
5218.576
 20
-7087.179
 30
1138.527
 70
    32
  0
VERTEX
  8
T41SSILL
 62
4
 10
5213.650
 20
-7072.875
 30
1138.478
 70
    32
  0
VERTEX
  8
T41SSILL
 62
4
 10
5224.109
 20
-7065.102
 30
1138.474
 70
    32
  0
VERTEX
  8
T41SSILL
 62
4
 10
5233.408
 20
-7077.035
 30
1138.524
 70
    32
  0
VERTEX
  8
T41SSILL
 62
4
 10
5232.472
 20
-7079.082
 30
1138.528
 70
    32
  0
VERTEX
  8
T41SSILL
 62
4
 10
5249.823
 20
-7103.241
 30
1138.626
 70
    32
  0
VERTEX
  8
T41SSILL
 62
4
 10
5264.173
 20
-7018.417
 30
1138.240
 70
    32
  0
VERTEX
  8
T41SSILL
 62
4
 10
5262.022
 20
-7001.240
 30
1138.170
 70
    32
  0
VERTEX
  8
T41SSILL
 62
4
 10
5200.616
 20
-6916.497
 30
1137.911
 70
    32
  0
VERTEX
  8
T41SSILL
 62
4
 10
5196.600
 20
-6929.279
 30
1137.973
 70
    32
  0
VERTEX
  8
T41SSILL
 62
4
 10
5187.701
 20
-6940.467
 30
1138.035
 70
    32
  0
VERTEX
  8
T41SSILL
 62
4
 10
5067.879
 20
-7025.432
 30
1138.097
 70
    32
  0
VERTEX
  8
T41SSILL
 62
4
 10
5063.548
 20
-7020.034
 30
1138.075
 70
    32
  0
VERTEX
  8
T41SSILL
 62
4
 10
5183.538
 20
-6934.536
 30
1138.017
 70
    32
  0
VERTEX
  8
T41SSILL
 62
4
 10
5185.010
 20
-6932.922
 30
1138.008
 70
    32
  0
VERTEX
  8
T41SSILL
 62
4
 10
5178.128
 20
-6928.009
 30
1137.998
 70
    32
  0
VERTEX
  8
T41SSILL
 62
4
 10
5186.703
 20
-6918.504
 30
1137.943
 70
    32
  0
VERTEX
  8
T41SSILL
 62
4
 10
5191.458
 20
-6922.923
 30
1137.954
 70
    32
  0
VERTEX
  8
T41SSILL
 62
4
 10
5192.885
 20
-6918.661
 30
1137.934
 70
    32
  0
VERTEX
  8
T41SSILL
 62
4
 10
5192.128
 20
-6905.521
 30
1137.879
 70
    32
  0
VERTEX
  8
T41SSILL
 62
4
 10
5120.362
 20
-6804.662
 30
1137.557
 70
    32
  0
VERTEX
  8
T41SSILL
 62
4
 10
5111.033
 20
-6800.198
 30
1137.533
 70
    32
  0
VERTEX
  8
T41SSILL
 62
4
 10
5089.021
 20
-6803.492
 30
1137.516
 70
    32
  0
VERTEX
  8
T41SSILL
 62
4
 10
5070.395
 20
-6793.309
 30
1137.490
 70
    32
  0
VERTEX
  8
T41SSILL
 62
4
 10
5070.584
 20
-6799.132
 30
1137.495
 70
    32
  0
VERTEX
  8
T41SSILL
 62
4
 10
5093.545
 20
-6855.762
 30
1137.657
 70
    32
  0
VERTEX
  8
T41SSILL
 62
4
 10
5094.887
 20
-6867.038
 30
1137.691
 70
    32
  0
VERTEX
  8
T41SSILL
 62
4
 10
5093.742
 20
-6872.266
 30
1137.704
 70
    32
  0
VERTEX
  8
T41SSILL
 62
4
 10
5087.177
 20
-6885.709
 30
1137.732
 70
    32
  0
VERTEX
  8
T41SSILL
 62
4
 10
5082.494
 20
-6890.557
 30
1137.738
 70
    32
  0
VERTEX
  8
T41SSILL
 62
4
 10
5019.431
 20
-6934.551
 30
1137.757
 70
    32
  0
VERTEX
  8
T41SSILL
 62
4
 10
5022.986
 20
-6941.022
 30
1137.781
 70
    32
  0
VERTEX
  8
T41SSILL
 62
4
 10
5016.815
 20
-6946.602
 30
1137.786
 70
    32
  0
VERTEX
  8
T41SSILL
 62
4
 10
5012.557
 20
-6940.320
 30
1137.761
 70
    32
  0
VERTEX
  8
T41SSILL
 62
4
 10
4990.215
 20
-6955.184
 30
1137.766
 70
    32
  0
VERTEX
  8
T41SSILL
 62
4
 10
4985.275
 20
-6950.573
 30
1137.745
 70
    32
  0
VERTEX
  8
T41SSILL
 62
4
 10
5076.852
 20
-6885.888
 30
1137.715
 70
    32
  0
VERTEX
  8
T41SSILL
 62
4
 10
5085.898
 20
-6873.020
 30
1137.693
 70
    32
  0
VERTEX
  8
T41SSILL
 62
4
 10
5086.603
 20
-6857.647
 30
1137.651
 70
    32
  0
VERTEX
  8
T41SSILL
 62
4
 10
5064.072
 20
-6805.424
 30
1137.495
 70
    32
  0
VERTEX
  8
T41SSILL
 62
4
 10
5055.418
 20
-6810.341
 30
1137.492
 70
    32
  0
VERTEX
  8
T41SSILL
 62
4
 10
5052.879
 20
-6826.892
 30
1137.506
 70
    32
  0
VERTEX
  8
T41SSILL
 62
4
 10
5037.769
 20
-6836.246
 30
1137.507
 70
    32
  0
VERTEX
  8
T41SSILL
 62
4
 10
5018.945
 20
-6845.223
 30
1137.501
 70
    32
  0
VERTEX
  8
T41SSILL
 62
4
 10
5011.428
 20
-6839.350
 30
1137.478
 70
    32
  0
VERTEX
  8
T41SSILL
 62
4
 10
5002.746
 20
-6822.287
 30
1137.455
 70
    32
  0
VERTEX
  8
T41SSILL
 62
4
 10
4945.792
 20
-6862.202
 30
1137.439
 70
    32
  0
VERTEX
  8
T41SSILL
 62
4
 10
4949.498
 20
-6867.170
 30
1137.447
 70
    32
  0
VERTEX
  8
T41SSILL
 62
4
 10
4943.398
 20
-6871.777
 30
1137.449
 70
    32
  0
VERTEX
  8
T41SSILL
 62
4
 10
4939.614
 20
-6867.341
 30
1137.438
 70
    32
  0
VERTEX
  8
T41SSILL
 62
4
 10
4906.380
 20
-6890.426
 30
1137.440
 70
    32
  0
VERTEX
  8
T41SSILL
 62
4
 10
4901.057
 20
-6883.810
 30
1137.418
 70
    32
  0
VERTEX
  8
T41SSILL
 62
4
 10
4934.803
 20
-6859.744
 30
1137.427
 70
    32
  0
VERTEX
  8
T41SSILL
 62
4
 10
4930.736
 20
-6854.253
 30
1137.418
 70
    32
  0
VERTEX
  8
T41SSILL
 62
4
 10
4936.236
 20
-6850.715
 30
1137.420
 70
    32
  0
VERTEX
  8
T41SSILL
 62
4
 10
4940.036
 20
-6856.034
 30
1137.428
 70
    32
  0
VERTEX
  8
T41SSILL
 62
4
 10
4984.429
 20
-6824.811
 30
1137.441
 70
    32
  0
VERTEX
  8
T41SSILL
 62
4
 10
4980.725
 20
-6819.931
 30
1137.433
 70
    32
  0
VERTEX
  8
T41SSILL
 62
4
 10
4990.141
 20
-6813.147
 30
1137.436
 70
    32
  0
VERTEX
  8
T41SSILL
 62
4
 10
4994.282
 20
-6817.754
 30
1137.443
 70
    32
  0
VERTEX
  8
T41SSILL
 62
4
 10
4996.728
 20
-6816.300
 30
1137.444
 70
    32
  0
VERTEX
  8
T41SSILL
 62
4
 10
4994.508
 20
-6810.424
 30
1137.437
 70
    32
  0
VERTEX
  8
T41SSILL
 62
4
 10
5000.116
 20
-6808.031
 30
1137.440
 70
    32
  0
VERTEX
  8
T41SSILL
 62
4
 10
4998.752
 20
-6785.279
 30
1137.419
 70
    32
  0
VERTEX
  8
T41SSILL
 62
4
 10
5003.120
 20
-6777.524
 30
1137.416
 70
    32
  0
VERTEX
  8
T41SSILL
 62
4
 10
5007.038
 20
-6759.094
 30
1137.404
 70
    32
  0
VERTEX
  8
T41SSILL
 62
4
 10
5000.718
 20
-6745.874
 30
1137.387
 70
    32
  0
VERTEX
  8
T41SSILL
 62
4
 10
5005.292
 20
-6739.792
 30
1137.386
 70
    32
  0
VERTEX
  8
T41SSILL
 62
4
 10
5013.633
 20
-6737.176
 30
1137.391
 70
    32
  0
VERTEX
  8
T41SSILL
 62
4
 10
5023.946
 20
-6746.531
 30
1137.408
 70
    32
  0
VERTEX
  8
T41SSILL
 62
4
 10
5041.813
 20
-6748.517
 30
1137.426
 70
    32
  0
VERTEX
  8
T41SSILL
 62
4
 10
5051.990
 20
-6760.171
 30
1137.445
 70
    32
  0
VERTEX
  8
T41SSILL
 62
4
 10
5056.098
 20
-6757.804
 30
1137.447
 70
    32
  0
VERTEX
  8
T41SSILL
 62
4
 10
5057.517
 20
-6753.101
 30
1137.444
 70
    32
  0
VERTEX
  8
T41SSILL
 62
4
 10
5055.932
 20
-6743.153
 30
1137.434
 70
    32
  0
VERTEX
  8
T41SSILL
 62
4
 10
5044.739
 20
-6728.869
 30
1137.411
 70
    32
  0
VERTEX
  8
T41SSILL
 62
4
 10
5043.529
 20
-6725.271
 30
1137.407
 70
    32
  0
VERTEX
  8
T41SSILL
 62
4
 10
5040.855
 20
-6708.456
 30
1137.390
 70
    32
  0
VERTEX
  8
T41SSILL
 62
4
 10
5043.351
 20
-6697.023
 30
1137.383
 70
    32
  0
VERTEX
  8
T41SSILL
 62
4
 10
5022.285
 20
-6667.369
 30
1137.320
 70
    32
  0
VERTEX
  8
T41SSILL
 62
4
 10
5020.073
 20
-6677.042
 30
1137.334
 70
    32
  0
VERTEX
  8
T41SSILL
 62
4
 10
5013.356
 20
-6687.639
 30
1137.344
 70
    32
  0
VERTEX
  8
T41SSILL
 62
4
 10
4895.944
 20
-6771.963
 30
1137.316
 70
    32
  0
VERTEX
  8
T41SSILL
 62
4
 10
4907.697
 20
-6793.123
 30
1137.345
 70
    32
  0
VERTEX
  8
T41SSILL
 62
4
 10
4891.559
 20
-6809.380
 30
1137.344
 70
    32
  0
VERTEX
  8
T41SSILL
 62
4
 10
4872.429
 20
-6815.979
 30
1137.333
 70
    32
  0
VERTEX
  8
T41SSILL
 62
4
 10
4858.623
 20
-6803.770
 30
1137.310
 70
    32
  0
VERTEX
  8
T41SSILL
 62
4
 10
4854.444
 20
-6807.109
 30
1137.309
 70
    32
  0
VERTEX
  8
T41SSILL
 62
4
 10
4850.244
 20
-6804.180
 30
1137.303
 70
    32
  0
VERTEX
  8
T41SSILL
 62
4
 10
4822.223
 20
-6823.908
 30
1137.295
 70
    32
  0
VERTEX
  8
T41SSILL
 62
4
 10
4816.681
 20
-6818.444
 30
1137.285
 70
    32
  0
VERTEX
  8
T41SSILL
 62
4
 10
4843.979
 20
-6799.257
 30
1137.293
 70
    32
  0
VERTEX
  8
T41SSILL
 62
4
 10
4833.297
 20
-6789.025
 30
1137.272
 70
    32
  0
VERTEX
  8
T41SSILL
 62
4
 10
4837.327
 20
-6771.918
 30
1137.247
 70
    32
  0
VERTEX
  8
T41SSILL
 62
4
 10
4847.731
 20
-6766.088
 30
1137.251
 70
    32
  0
VERTEX
  8
T41SSILL
 62
4
 10
4851.898
 20
-6762.044
 30
1137.250
 70
    32
  0
VERTEX
  8
T41SSILL
 62
4
 10
4854.308
 20
-6758.471
 30
1137.247
 70
    32
  0
VERTEX
  8
T41SSILL
 62
4
 10
4851.956
 20
-6755.157
 30
1137.238
 70
    32
  0
VERTEX
  8
T41SSILL
 62
4
 10
4855.620
 20
-6752.622
 30
1137.238
 70
    32
  0
VERTEX
  8
T41SSILL
 62
4
 10
4881.107
 20
-6751.210
 30
1137.272
 70
    32
  0
VERTEX
  8
T41SSILL
 62
4
 10
4890.033
 20
-6756.882
 30
1137.294
 70
    32
  0
VERTEX
  8
T41SSILL
 62
4
 10
4894.826
 20
-6763.508
 30
1137.308
 70
    32
  0
VERTEX
  8
T41SSILL
 62
4
 10
4989.296
 20
-6696.299
 30
1137.326
 70
    32
  0
VERTEX
  8
T41SSILL
 62
4
 10
4985.215
 20
-6690.177
 30
1137.309
 70
    32
  0
VERTEX
  8
T41SSILL
 62
4
 10
4992.839
 20
-6685.758
 30
1137.312
 70
    32
  0
VERTEX
  8
T41SSILL
 62
4
 10
4996.490
 20
-6690.819
 30
1137.326
 70
    32
  0
VERTEX
  8
T41SSILL
 62
4
 10
5004.831
 20
-6685.174
 30
1137.327
 70
    32
  0
VERTEX
  8
T41SSILL
 62
4
 10
5011.699
 20
-6677.134
 30
1137.323
 70
    32
  0
VERTEX
  8
T41SSILL
 62
4
 10
5013.786
 20
-6671.162
 30
1137.315
 70
    32
  0
VERTEX
  8
T41SSILL
 62
4
 10
5013.895
 20
-6660.322
 30
1137.296
 70
    32
  0
VERTEX
  8
T41SSILL
 62
4
 10
5010.628
 20
-6652.092
 30
1137.276
 70
    32
  0
VERTEX
  8
T41SSILL
 62
4
 10
4969.337
 20
-6595.006
 30
1137.116
 70
    32
  0
VERTEX
  8
T41SSILL
 62
4
 10
4959.034
 20
-6602.834
 30
1137.115
 70
    32
  0
VERTEX
  8
T41SSILL
 62
4
 10
4954.267
 20
-6594.854
 30
1137.094
 70
    32
  0
VERTEX
  8
T41SSILL
 62
4
 10
4960.383
 20
-6591.390
 30
1137.097
 70
    32
  0
VERTEX
  8
T41SSILL
 62
4
 10
4960.350
 20
-6585.925
 30
1137.087
 70
    32
  0
VERTEX
  8
T41SSILL
 62
4
 10
4949.687
 20
-6568.191
 30
1137.040
 70
    32
  0
VERTEX
  8
T41SSILL
 62
4
 10
4942.585
 20
-6617.212
 30
1137.118
 70
    32
  0
VERTEX
  8
T41SSILL
 62
4
 10
4919.244
 20
-6633.194
 30
1137.114
 70
    32
  0
VERTEX
  8
T41SSILL
 62
4
 10
4922.632
 20
-6638.076
 30
1137.127
 70
    32
  0
VERTEX
  8
T41SSILL
 62
4
 10
4915.363
 20
-6642.233
 30
1137.125
 70
    32
  0
VERTEX
  8
T41SSILL
 62
4
 10
4912.497
 20
-6638.062
 30
1137.113
 70
    32
  0
VERTEX
  8
T41SSILL
 62
4
 10
4849.735
 20
-6682.734
 30
1137.105
 70
    32
  0
VERTEX
  8
T41SSILL
 62
4
 10
4852.255
 20
-6686.285
 30
1137.115
 70
    32
  0
VERTEX
  8
T41SSILL
 62
4
 10
4844.801
 20
-6691.322
 30
1137.113
 70
    32
  0
VERTEX
  8
T41SSILL
 62
4
 10
4842.551
 20
-6687.245
 30
1137.103
 70
    32
  0
VERTEX
  8
T41SSILL
 62
4
 10
4810.239
 20
-6710.100
 30
1137.098
 70
    32
  0
VERTEX
  8
T41SSILL
 62
4
 10
4807.757
 20
-6702.760
 30
1137.081
 70
    32
  0
VERTEX
  8
T41SSILL
 62
4
 10
4936.204
 20
-6611.859
 30
1137.099
 70
    32
  0
VERTEX
  8
T41SSILL
 62
4
 10
4943.426
 20
-6559.755
 30
1137.016
 70
    32
  0
VERTEX
  8
T41SSILL
 62
4
 10
4844.152
 20
-6422.586
 30
1136.621
 70
    32
  0
VERTEX
  8
T41SSILL
 62
4
 10
4841.859
 20
-6431.553
 30
1136.638
 70
    32
  0
VERTEX
  8
T41SSILL
 62
4
 10
4835.412
 20
-6441.624
 30
1136.653
 70
    32
  0
VERTEX
  8
T41SSILL
 62
4
 10
4758.257
 20
-6497.697
 30
1136.691
 70
    32
  0
VERTEX
  8
T41SSILL
 62
4
 10
4800.673
 20
-6556.910
 30
1136.839
 70
    32
  0
VERTEX
  8
T41SSILL
 62
4
 10
4803.574
 20
-6557.733
 30
1136.844
 70
    32
  0
VERTEX
  8
T41SSILL
 62
4
 10
4804.352
 20
-6567.965
 30
1136.862
 70
    32
  0
VERTEX
  8
T41SSILL
 62
4
 10
4802.910
 20
-6571.123
 30
1136.864
 70
    32
  0
VERTEX
  8
T41SSILL
 62
4
 10
4797.644
 20
-6568.955
 30
1136.859
 70
    32
  0
VERTEX
  8
T41SSILL
 62
4
 10
4792.263
 20
-6569.430
 30
1136.854
 70
    32
  0
VERTEX
  8
T41SSILL
 62
4
 10
4784.109
 20
-6565.117
 30
1136.835
 70
    32
  0
VERTEX
  8
T41SSILL
 62
4
 10
4778.082
 20
-6559.680
 30
1136.817
 70
    32
  0
VERTEX
  8
T41SSILL
 62
4
 10
4770.013
 20
-6555.809
 30
1136.800
 70
    32
  0
VERTEX
  8
T41SSILL
 62
4
 10
4760.758
 20
-6547.079
 30
1136.778
 70
    32
  0
VERTEX
  8
T41SSILL
 62
4
 10
4753.282
 20
-6536.780
 30
1136.763
 70
    32
  0
VERTEX
  8
T41SSILL
 62
4
 10
4739.264
 20
-6510.815
 30
1136.699
 70
    32
  0
VERTEX
  8
T41SSILL
 62
4
 10
4717.597
 20
-6526.903
 30
1136.710
 70
    32
  0
VERTEX
  8
T41SSILL
 62
4
 10
4717.250
 20
-6535.184
 30
1136.728
 70
    32
  0
VERTEX
  8
T41SSILL
 62
4
 10
4704.610
 20
-6547.572
 30
1136.731
 70
    32
  0
VERTEX
  8
T41SSILL
 62
4
 10
4693.013
 20
-6552.656
 30
1136.725
 70
    32
  0
VERTEX
  8
T41SSILL
 62
4
 10
4689.364
 20
-6547.419
 30
1136.717
 70
    32
  0
VERTEX
  8
T41SSILL
 62
4
 10
4681.383
 20
-6552.933
 30
1136.715
 70
    32
  0
VERTEX
  8
T41SSILL
 62
4
 10
4676.260
 20
-6546.569
 30
1136.706
 70
    32
  0
VERTEX
  8
T41SSILL
 62
4
 10
4687.336
 20
-6538.673
 30
1136.703
 70
    32
  0
VERTEX
  8
T41SSILL
 62
4
 10
4687.299
 20
-6533.649
 30
1136.692
 70
    32
  0
VERTEX
  8
T41SSILL
 62
4
 10
4697.901
 20
-6531.111
 30
1136.698
 70
    32
  0
VERTEX
  8
T41SSILL
 62
4
 10
4736.431
 20
-6503.295
 30
1136.679
 70
    32
  0
VERTEX
  8
T41SSILL
 62
4
 10
4729.983
 20
-6487.189
 30
1136.637
 70
    32
  0
VERTEX
  8
T41SSILL
 62
4
 10
4704.107
 20
-6457.227
 30
1136.545
 70
    32
  0
VERTEX
  8
T41SSILL
 62
4
 10
4696.988
 20
-6446.491
 30
1136.514
 70
    32
  0
VERTEX
  8
T41SSILL
 62
4
 10
4689.920
 20
-6430.643
 30
1136.472
 70
    32
  0
VERTEX
  8
T41SSILL
 62
4
 10
4690.320
 20
-6425.976
 30
1136.462
 70
    32
  0
VERTEX
  8
T41SSILL
 62
4
 10
4692.187
 20
-6424.320
 30
1136.461
 70
    32
  0
VERTEX
  8
T41SSILL
 62
4
 10
4705.867
 20
-6413.705
 30
1136.452
 70
    32
  0
VERTEX
  8
T41SSILL
 62
4
 10
4713.931
 20
-6409.379
 30
1136.452
 70
    32
  0
VERTEX
  8
T41SSILL
 62
4
 10
4716.648
 20
-6410.905
 30
1136.458
 70
    32
  0
VERTEX
  8
T41SSILL
 62
4
 10
4732.400
 20
-6448.345
 30
1136.556
 70
    32
  0
VERTEX
  8
T41SSILL
 62
4
 10
4743.801
 20
-6471.551
 30
1136.619
 70
    32
  0
VERTEX
  8
T41SSILL
 62
4
 10
4749.368
 20
-6478.923
 30
1136.641
 70
    32
  0
VERTEX
  8
T41SSILL
 62
4
 10
4747.699
 20
-6487.103
 30
1136.656
 70
    32
  0
VERTEX
  8
T41SSILL
 62
4
 10
4751.436
 20
-6492.428
 30
1136.672
 70
    32
  0
VERTEX
  8
T41SSILL
 62
4
 10
4821.560
 20
-6443.071
 30
1136.641
 70
    32
  0
VERTEX
  8
T41SSILL
 62
4
 10
4829.210
 20
-6436.009
 30
1136.634
 70
    32
  0
VERTEX
  8
T41SSILL
 62
4
 10
4835.296
 20
-6426.816
 30
1136.620
 70
    32
  0
VERTEX
  8
T41SSILL
 62
4
 10
4836.684
 20
-6420.308
 30
1136.608
 70
    32
  0
VERTEX
  8
T41SSILL
 62
4
 10
4835.707
 20
-6412.189
 30
1136.589
 70
    32
  0
VERTEX
  8
T41SSILL
 62
4
 10
4791.920
 20
-6349.172
 30
1136.414
 70
    32
  0
VERTEX
  8
T41SSILL
 62
4
 10
4779.464
 20
-6334.505
 30
1136.385
 70
    32
  0
VERTEX
  8
T41SSILL
 62
4
 10
4730.013
 20
-6264.908
 30
1136.257
 70
    32
  0
VERTEX
  8
T41SSILL
 62
4
 10
4699.112
 20
-6287.778
 30
1136.263
 70
    32
  0
VERTEX
  8
T41SSILL
 62
4
 10
4695.794
 20
-6293.385
 30
1136.268
 70
    32
  0
VERTEX
  8
T41SSILL
 62
4
 10
4690.647
 20
-6296.859
 30
1136.268
 70
    32
  0
VERTEX
  8
T41SSILL
 62
4
 10
4686.237
 20
-6297.255
 30
1136.265
 70
    32
  0
VERTEX
  8
T41SSILL
 62
4
 10
4672.472
 20
-6307.517
 30
1136.268
 70
    32
  0
VERTEX
  8
T41SSILL
 62
4
 10
4677.771
 20
-6323.964
 30
1136.293
 70
    32
  0
VERTEX
  8
T41SSILL
 62
4
 10
4697.914
 20
-6371.848
 30
1136.371
 70
    32
  0
VERTEX
  8
T41SSILL
 62
4
 10
4705.576
 20
-6398.807
 30
1136.420
 70
    32
  0
VERTEX
  8
T41SSILL
 62
4
 10
4691.596
 20
-6404.219
 30
1136.416
 70
    32
  0
VERTEX
  8
T41SSILL
 62
4
 10
4689.582
 20
-6402.877
 30
1136.411
 70
    32
  0
VERTEX
  8
T41SSILL
 62
4
 10
4684.137
 20
-6392.158
 30
1136.386
 70
    32
  0
VERTEX
  8
T41SSILL
 62
4
 10
4667.278
 20
-6342.015
 30
1136.308
 70
    32
  0
VERTEX
  8
T41SSILL
 62
4
 10
4662.855
 20
-6334.831
 30
1136.296
 70
    32
  0
VERTEX
  8
T41SSILL
 62
4
 10
4656.498
 20
-6318.374
 30
1136.269
 70
    32
  0
VERTEX
  8
T41SSILL
 62
4
 10
4600.322
 20
-6358.308
 30
1136.278
 70
    32
  0
VERTEX
  8
T41SSILL
 62
4
 10
4595.144
 20
-6352.407
 30
1136.266
 70
    32
  0
VERTEX
  8
T41SSILL
 62
4
 10
4652.700
 20
-6310.492
 30
1136.256
 70
    32
  0
VERTEX
  8
T41SSILL
 62
4
 10
4648.526
 20
-6304.809
 30
1136.246
 70
    32
  0
VERTEX
  8
T41SSILL
 62
4
 10
4652.967
 20
-6301.416
 30
1136.245
 70
    32
  0
VERTEX
  8
T41SSILL
 62
4
 10
4638.831
 20
-6260.996
 30
1136.182
 70
    32
  0
VERTEX
  8
T41SSILL
 62
4
 10
4636.228
 20
-6239.288
 30
1136.151
 70
    32
  0
VERTEX
  8
T41SSILL
 62
4
 10
4632.762
 20
-6224.622
 30
1136.129
 70
    32
  0
VERTEX
  8
T41SSILL
 62
4
 10
4624.176
 20
-6228.326
 30
1136.127
 70
    32
  0
VERTEX
  8
T41SSILL
 62
4
 10
4619.152
 20
-6219.550
 30
1136.105
 70
    32
  0
VERTEX
  8
T41SSILL
 62
4
 10
4582.676
 20
-6244.567
 30
1136.111
 70
    32
  0
VERTEX
  8
T41SSILL
 62
4
 10
4573.055
 20
-6281.047
 30
1136.157
 70
    32
  0
VERTEX
  8
T41SSILL
 62
4
 10
4575.278
 20
-6287.944
 30
1136.167
 70
    32
  0
VERTEX
  8
T41SSILL
 62
4
 10
4584.314
 20
-6292.089
 30
1136.180
 70
    32
  0
VERTEX
  8
T41SSILL
 62
4
 10
4579.117
 20
-6300.586
 30
1136.187
 70
    32
  0
VERTEX
  8
T41SSILL
 62
4
 10
4569.471
 20
-6295.730
 30
1136.173
 70
    32
  0
VERTEX
  8
T41SSILL
 62
4
 10
4563.260
 20
-6317.349
 30
1136.196
 70
    32
  0
VERTEX
  8
T41SSILL
 62
4
 10
4555.269
 20
-6314.448
 30
1136.186
 70
    32
  0
VERTEX
  8
T41SSILL
 62
4
 10
4561.410
 20
-6290.977
 30
1136.160
 70
    32
  0
VERTEX
  8
T41SSILL
 62
4
 10
4557.116
 20
-6288.467
 30
1136.154
 70
    32
  0
VERTEX
  8
T41SSILL
 62
4
 10
4561.599
 20
-6280.932
 30
1136.148
 70
    32
  0
VERTEX
  8
T41SSILL
 62
4
 10
4564.411
 20
-6281.753
 30
1136.151
 70
    32
  0
VERTEX
  8
T41SSILL
 62
4
 10
4572.819
 20
-6251.959
 30
1136.113
 70
    32
  0
VERTEX
  8
T41SSILL
 62
4
 10
4545.860
 20
-6270.721
 30
1136.118
 70
    32
  0
VERTEX
  8
T41SSILL
 62
4
 10
4540.829
 20
-6265.253
 30
1136.102
 70
    32
  0
VERTEX
  8
T41SSILL
 62
4
 10
4545.482
 20
-6262.173
 30
1136.102
 70
    32
  0
VERTEX
  8
T41SSILL
 62
4
 10
4540.788
 20
-6255.692
 30
1136.084
 70
    32
  0
VERTEX
  8
T41SSILL
 62
4
 10
4548.773
 20
-6250.396
 30
1136.084
 70
    32
  0
VERTEX
  8
T41SSILL
 62
4
 10
4553.297
 20
-6256.346
 30
1136.100
 70
    32
  0
VERTEX
  8
T41SSILL
 62
4
 10
4614.818
 20
-6212.279
 30
1136.086
 70
    32
  0
VERTEX
  8
T41SSILL
 62
4
 10
4614.720
 20
-6204.522
 30
1136.077
 70
    32
  0
VERTEX
  8
T41SSILL
 62
4
 10
4619.382
 20
-6187.911
 30
1136.065
 70
    32
  0
VERTEX
  8
T41SSILL
 62
4
 10
4603.972
 20
-6142.630
 30
1136.007
 70
    32
  0
VERTEX
  8
T41SSILL
 62
4
 10
4579.464
 20
-6108.099
 30
1135.952
 70
    32
  0
VERTEX
  8
T41SSILL
 62
4
 10
4545.914
 20
-6131.470
 30
1135.944
 70
    32
  0
VERTEX
  8
T41SSILL
 62
4
 10
4549.386
 20
-6136.794
 30
1135.952
 70
    32
  0
VERTEX
  8
T41SSILL
 62
4
 10
4543.529
 20
-6140.789
 30
1135.951
 70
    32
  0
VERTEX
  8
T41SSILL
 62
4
 10
4540.848
 20
-6135.650
 30
1135.944
 70
    32
  0
VERTEX
  8
T41SSILL
 62
4
 10
4451.536
 20
-6199.974
 30
1135.926
 70
    32
  0
VERTEX
  8
T41SSILL
 62
4
 10
4447.898
 20
-6193.680
 30
1135.916
 70
    32
  0
VERTEX
  8
T41SSILL
 62
4
 10
4477.017
 20
-6172.731
 30
1135.922
 70
    32
  0
VERTEX
  8
T41SSILL
 62
4
 10
4428.723
 20
-6102.089
 30
1135.810
 70
    32
  0
VERTEX
  8
T41SSILL
 62
4
 10
4407.962
 20
-6115.718
 30
1135.804
 70
    32
  0
VERTEX
  8
T41SSILL
 62
4
 10
4381.030
 20
-6076.844
 30
1135.742
 70
    32
  0
VERTEX
  8
T41SSILL
 62
4
 10
4356.087
 20
-6094.397
 30
1135.737
 70
    32
  0
VERTEX
  8
T41SSILL
 62
4
 10
4350.336
 20
-6088.741
 30
1135.726
 70
    32
  0
VERTEX
  8
T41SSILL
 62
4
 10
4376.771
 20
-6070.896
 30
1135.732
 70
    32
  0
VERTEX
  8
T41SSILL
 62
4
 10
4372.872
 20
-6064.246
 30
1135.722
 70
    32
  0
VERTEX
  8
T41SSILL
 62
4
 10
4369.867
 20
-6065.097
 30
1135.720
 70
    32
  0
VERTEX
  8
T41SSILL
 62
4
 10
4355.516
 20
-6046.004
 30
1135.687
 70
    32
  0
VERTEX
  8
T41SSILL
 62
4
 10
4348.183
 20
-6030.242
 30
1135.649
 70
    32
  0
VERTEX
  8
T41SSILL
 62
4
 10
4346.515
 20
-6029.520
 30
1135.645
 70
    32
  0
VERTEX
  8
T41SSILL
 62
4
 10
4347.059
 20
-6028.027
 30
1135.643
 70
    32
  0
VERTEX
  8
T41SSILL
 62
4
 10
4351.776
 20
-6023.491
 30
1135.642
 70
    32
  0
VERTEX
  8
T41SSILL
 62
4
 10
4362.232
 20
-6017.867
 30
1135.648
 70
    32
  0
VERTEX
  8
T41SSILL
 62
4
 10
4378.750
 20
-6040.596
 30
1135.705
 70
    32
  0
VERTEX
  8
T41SSILL
 62
4
 10
4376.887
 20
-6024.272
 30
1135.681
 70
    32
  0
VERTEX
  8
T41SSILL
 62
4
 10
4360.850
 20
-5997.582
 30
1135.610
 70
    32
  0
VERTEX
  8
T41SSILL
 62
4
 10
4352.495
 20
-5978.196
 30
1135.564
 70
    32
  0
VERTEX
  8
T41SSILL
 62
4
 10
4353.711
 20
-5977.319
 30
1135.564
 70
    32
  0
VERTEX
  8
T41SSILL
 62
4
 10
4349.839
 20
-5971.939
 30
1135.545
 70
    32
  0
VERTEX
  8
T41SSILL
 62
4
 10
4352.403
 20
-5963.480
 30
1135.529
 70
    32
  0
VERTEX
  8
T41SSILL
 62
4
 10
4328.599
 20
-5931.202
 30
1135.411
 70
    32
  0
VERTEX
  8
T41SSILL
 62
4
 10
4320.638
 20
-5935.688
 30
1135.409
 70
    32
  0
VERTEX
  8
T41SSILL
 62
4
 10
4314.011
 20
-5925.022
 30
1135.373
 70
    32
  0
VERTEX
  8
T41SSILL
 62
4
 10
4318.733
 20
-5922.155
 30
1135.373
 70
    32
  0
VERTEX
  8
T41SSILL
 62
4
 10
4297.066
 20
-5887.886
 30
1135.252
 70
    32
  0
VERTEX
  8
T41SSILL
 62
4
 10
4289.293
 20
-5893.515
 30
1135.253
 70
    32
  0
VERTEX
  8
T41SSILL
 62
4
 10
4288.393
 20
-5891.676
 30
1135.247
 70
    32
  0
VERTEX
  8
T41SSILL
 62
4
 10
4278.424
 20
-5897.680
 30
1135.246
 70
    32
  0
VERTEX
  8
T41SSILL
 62
4
 10
4271.064
 20
-5884.209
 30
1135.200
 70
    32
  0
VERTEX
  8
T41SSILL
 62
4
 10
4283.488
 20
-5877.471
 30
1135.203
 70
    32
  0
VERTEX
  8
T41SSILL
 62
4
 10
4274.623
 20
-5863.396
 30
1135.153
 70
    32
  0
VERTEX
  8
T41SSILL
 62
4
 10
4252.327
 20
-5877.101
 30
1135.151
 70
    32
  0
VERTEX
  8
T41SSILL
 62
4
 10
4235.674
 20
-5850.788
 30
1135.057
 70
    32
  0
VERTEX
  8
T41SSILL
 62
4
 10
4230.689
 20
-5853.658
 30
1135.056
 70
    32
  0
VERTEX
  8
T41SSILL
 62
4
 10
4225.032
 20
-5843.245
 30
1135.021
 70
    32
  0
VERTEX
  8
T41SSILL
 62
4
 10
4229.837
 20
-5839.937
 30
1135.020
 70
    32
  0
VERTEX
  8
T41SSILL
 62
4
 10
4232.707
 20
-5844.923
 30
1135.038
 70
    32
  0
VERTEX
  8
T41SSILL
 62
4
 10
4237.340
 20
-5841.969
 30
1135.038
 70
    32
  0
VERTEX
  8
T41SSILL
 62
4
 10
4241.001
 20
-5846.858
 30
1135.056
 70
    32
  0
VERTEX
  8
T41SSILL
 62
4
 10
4278.943
 20
-5823.040
 30
1135.094
 70
    32
  0
VERTEX
  8
T41SSILL
 62
4
 10
4282.249
 20
-5827.669
 30
1135.103
 70
    32
  0
VERTEX
  8
T41SSILL
 62
4
 10
4292.655
 20
-5821.396
 30
1135.121
 70
    32
  0
VERTEX
  8
T41SSILL
 62
4
 10
4316.271
 20
-5856.876
 30
1135.206
 70
    32
  0
VERTEX
  8
T41SSILL
 62
4
 10
4327.298
 20
-5850.831
 30
1135.210
 70
    32
  0
VERTEX
  8
T41SSILL
 62
4
 10
4328.381
 20
-5852.886
 30
1135.217
 70
    32
  0
VERTEX
  8
T41SSILL
 62
4
 10
4378.035
 20
-5822.064
 30
1135.290
 70
    32
  0
VERTEX
  8
T41SSILL
 62
4
 10
4383.865
 20
-5815.840
 30
1135.305
 70
    32
  0
VERTEX
  8
T41SSILL
 62
4
 10
4387.733
 20
-5807.261
 30
1135.340
 70
    32
  0
VERTEX
  8
T41SSILL
 62
4
 10
4389.120
 20
-5797.125
 30
1135.368
 70
    32
  0
VERTEX
  8
T41SSILL
 62
4
 10
4386.288
 20
-5787.474
 30
1135.379
 70
    32
  0
VERTEX
  8
T41SSILL
 62
4
 10
4377.528
 20
-5774.894
 30
1135.373
 70
    32
  0
VERTEX
  8
T41SSILL
 62
4
 10
4367.108
 20
-5763.577
 30
1135.358
 70
    32
  0
VERTEX
  8
T41SSILL
 62
4
 10
4287.120
 20
-5766.774
 30
1135.088
 70
    32
  0
VERTEX
  8
T41SSILL
 62
4
 10
4285.209
 20
-5779.203
 30
1135.089
 70
    32
  0
VERTEX
  8
T41SSILL
 62
4
 10
4278.091
 20
-5790.184
 30
1135.079
 70
    32
  0
VERTEX
  8
T41SSILL
 62
4
 10
4263.204
 20
-5798.683
 30
1135.053
 70
    32
  0
VERTEX
  8
T41SSILL
 62
4
 10
4240.024
 20
-5805.145
 30
1135.010
 70
    32
  0
VERTEX
  8
T41SSILL
 62
4
 10
4227.190
 20
-5816.794
 30
1134.989
 70
    32
  0
VERTEX
  8
T41SSILL
 62
4
 10
4223.498
 20
-5826.951
 30
1134.986
 70
    32
  0
VERTEX
  8
T41SSILL
 62
4
 10
4201.785
 20
-5830.231
 30
1134.950
 70
    32
  0
VERTEX
  8
T41SSILL
 62
4
 10
4197.375
 20
-5829.215
 30
1134.940
 70
    32
  0
VERTEX
  8
T41SSILL
 62
4
 10
4195.567
 20
-5824.126
 30
1134.929
 70
    32
  0
VERTEX
  8
T41SSILL
 62
4
 10
4195.802
 20
-5820.867
 30
1134.928
 70
    32
  0
VERTEX
  8
T41SSILL
 62
4
 10
4198.584
 20
-5817.056
 30
1134.932
 70
    32
  0
VERTEX
  8
T41SSILL
 62
4
 10
4198.680
 20
-5808.340
 30
1134.929
 70
    32
  0
VERTEX
  8
T41SSILL
 62
4
 10
4148.643
 20
-5833.182
 30
1134.869
 70
    32
  0
VERTEX
  8
T41SSILL
 62
4
 10
4144.971
 20
-5826.262
 30
1134.845
 70
    32
  0
VERTEX
  8
T41SSILL
 62
4
 10
4190.185
 20
-5803.488
 30
1134.910
 70
    32
  0
VERTEX
  8
T41SSILL
 62
4
 10
4186.488
 20
-5793.927
 30
1134.899
 70
    32
  0
VERTEX
  8
T41SSILL
 62
4
 10
4168.063
 20
-5762.054
 30
1134.850
 70
    32
  0
VERTEX
  8
T41SSILL
 62
4
 10
4164.942
 20
-5748.086
 30
1134.838
 70
    32
  0
VERTEX
  8
T41SSILL
 62
4
 10
4125.262
 20
-5692.727
 30
1134.737
 70
    32
  0
VERTEX
  8
T41SSILL
 62
4
 10
4123.252
 20
-5694.242
 30
1134.734
 70
    32
  0
VERTEX
  8
T41SSILL
 62
4
 10
4122.772
 20
-5699.528
 30
1134.735
 70
    32
  0
VERTEX
  8
T41SSILL
 62
4
 10
4127.294
 20
-5722.374
 30
1134.753
 70
    32
  0
VERTEX
  8
T41SSILL
 62
4
 10
4126.788
 20
-5724.756
 30
1134.753
 70
    32
  0
VERTEX
  8
T41SSILL
 62
4
 10
4120.059
 20
-5730.099
 30
1134.742
 70
    32
  0
VERTEX
  8
T41SSILL
 62
4
 10
4116.714
 20
-5730.129
 30
1134.735
 70
    32
  0
VERTEX
  8
T41SSILL
 62
4
 10
4112.548
 20
-5726.999
 30
1134.726
 70
    32
  0
VERTEX
  8
T41SSILL
 62
4
 10
4103.056
 20
-5709.392
 30
1134.700
 70
    32
  0
VERTEX
  8
T41SSILL
 62
4
 10
4080.407
 20
-5725.884
 30
1134.661
 70
    32
  0
VERTEX
  8
T41SSILL
 62
4
 10
4074.542
 20
-5719.864
 30
1134.647
 70
    32
  0
VERTEX
  8
T41SSILL
 62
4
 10
4091.771
 20
-5707.558
 30
1134.677
 70
    32
  0
VERTEX
  8
T41SSILL
 62
4
 10
4095.633
 20
-5696.696
 30
1134.680
 70
    32
  0
VERTEX
  8
T41SSILL
 62
4
 10
4095.080
 20
-5693.972
 30
1134.678
 70
    32
  0
VERTEX
  8
T41SSILL
 62
4
 10
4079.616
 20
-5677.916
 30
1134.641
 70
    32
  0
VERTEX
  8
T41SSILL
 62
4
 10
4076.192
 20
-5678.916
 30
1134.634
 70
    32
  0
VERTEX
  8
T41SSILL
 62
4
 10
4074.683
 20
-5677.521
 30
1134.631
 70
    32
  0
VERTEX
  8
T41SSILL
 62
4
 10
4070.390
 20
-5679.761
 30
1134.623
 70
    32
  0
VERTEX
  8
T41SSILL
 62
4
 10
4063.972
 20
-5671.017
 30
1134.607
 70
    32
  0
VERTEX
  8
T41SSILL
 62
4
 10
4065.615
 20
-5667.745
 30
1134.609
 70
    32
  0
VERTEX
  8
T41SSILL
 62
4
 10
4073.228
 20
-5662.834
 30
1134.622
 70
    32
  0
VERTEX
  8
T41SSILL
 62
4
 10
4083.303
 20
-5638.270
 30
1134.632
 70
    32
  0
VERTEX
  8
T41SSILL
 62
4
 10
4091.701
 20
-5632.559
 30
1134.646
 70
    32
  0
VERTEX
  8
T41SSILL
 62
4
 10
4096.110
 20
-5633.399
 30
1134.655
 70
    32
  0
VERTEX
  8
T41SSILL
 62
4
 10
4111.264
 20
-5654.035
 30
1134.694
 70
    32
  0
VERTEX
  8
T41SSILL
 62
4
 10
4118.149
 20
-5656.085
 30
1134.708
 70
    32
  0
VERTEX
  8
T41SSILL
 62
4
 10
4123.025
 20
-5669.508
 30
1134.723
 70
    32
  0
VERTEX
  8
T41SSILL
 62
4
 10
4127.018
 20
-5672.993
 30
1134.733
 70
    32
  0
VERTEX
  8
T41SSILL
 62
4
 10
4130.250
 20
-5679.829
 30
1134.742
 70
    32
  0
VERTEX
  8
T41SSILL
 62
4
 10
4132.528
 20
-5678.664
 30
1134.746
 70
    32
  0
VERTEX
  8
T41SSILL
 62
4
 10
4129.311
 20
-5673.412
 30
1134.737
 70
    32
  0
VERTEX
  8
T41SSILL
 62
4
 10
4134.727
 20
-5668.873
 30
1134.746
 70
    32
  0
VERTEX
  8
T41SSILL
 62
4
 10
4138.207
 20
-5673.947
 30
1134.755
 70
    32
  0
VERTEX
  8
T41SSILL
 62
4
 10
4156.841
 20
-5661.364
 30
1134.787
 70
    32
  0
VERTEX
  8
T41SSILL
 62
4
 10
4152.833
 20
-5656.207
 30
1134.777
 70
    32
  0
VERTEX
  8
T41SSILL
 62
4
 10
4159.389
 20
-5651.218
 30
1134.797
 70
    32
  0
VERTEX
  8
T41SSILL
 62
4
 10
4163.142
 20
-5657.257
 30
1134.798
 70
    32
  0
VERTEX
  8
T41SSILL
 62
4
 10
4175.036
 20
-5648.786
 30
1134.864
 70
    32
  0
VERTEX
  8
T41SSILL
 62
4
 10
4134.666
 20
-5623.715
 30
1134.762
 70
    32
  0
VERTEX
  8
T41SSILL
 62
4
 10
4126.967
 20
-5628.979
 30
1134.720
 70
    32
  0
VERTEX
  8
T41SSILL
 62
4
 10
4122.420
 20
-5622.595
 30
1134.717
 70
    32
  0
VERTEX
  8
T41SSILL
 62
4
 10
4128.109
 20
-5619.110
 30
1134.747
 70
    32
  0
VERTEX
  8
T41SSILL
 62
4
 10
4087.221
 20
-5595.188
 30
1134.641
 70
    32
  0
VERTEX
  8
T41SSILL
 62
4
 10
4079.445
 20
-5601.509
 30
1134.610
 70
    32
  0
VERTEX
  8
T41SSILL
 62
4
 10
4082.930
 20
-5607.199
 30
1134.619
 70
    32
  0
VERTEX
  8
T41SSILL
 62
4
 10
4075.846
 20
-5612.282
 30
1134.607
 70
    32
  0
VERTEX
  8
T41SSILL
 62
4
 10
4072.015
 20
-5607.211
 30
1134.597
 70
    32
  0
VERTEX
  8
T41SSILL
 62
4
 10
4006.418
 20
-5653.525
 30
1134.486
 70
    32
  0
VERTEX
  8
T41SSILL
 62
4
 10
4001.080
 20
-5647.385
 30
1134.473
 70
    32
  0
VERTEX
  8
T41SSILL
 62
4
 10
4080.673
 20
-5591.463
 30
1134.623
 70
    32
  0
VERTEX
  8
T41SSILL
 62
4
 10
4039.424
 20
-5566.576
 30
1134.518
 70
    32
  0
VERTEX
  8
T41SSILL
 62
4
 10
4031.728
 20
-5572.105
 30
1134.503
 70
    32
  0
VERTEX
  8
T41SSILL
 62
4
 10
4027.534
 20
-5565.893
 30
1134.492
 70
    32
  0
VERTEX
  8
T41SSILL
 62
4
 10
4032.703
 20
-5563.117
 30
1134.501
 70
    32
  0
VERTEX
  8
T41SSILL
 62
4
 10
3974.542
 20
-5527.470
 30
1134.327
 70
    32
  0
VERTEX
  8
T41SSILL
 62
4
 10
3959.459
 20
-5524.175
 30
1134.260
 70
    32
  0
VERTEX
  8
T41SSILL
 62
4
 10
3946.088
 20
-5525.177
 30
1134.206
 70
    32
  0
VERTEX
  8
T41SSILL
 62
4
 10
3934.691
 20
-5530.299
 30
1134.164
 70
    32
  0
VERTEX
  8
T41SSILL
 62
4
 10
3922.450
 20
-5539.390
 30
1134.124
 70
    32
  0
VERTEX
  8
T41SSILL
 62
4
 10
3915.147
 20
-5549.316
 30
1134.105
 70
    32
  0
VERTEX
  8
T41SSILL
 62
4
 10
3910.335
 20
-5562.212
 30
1134.100
 70
    32
  0
VERTEX
  8
T41SSILL
 62
4
 10
3890.501
 20
-6750.003
 30
1136.203
 70
    32
  0
VERTEX
  8
T41SSILL
 62
4
 10
3896.059
 20
-6766.704
 30
1136.222
 70
    32
  0
VERTEX
  8
T41SSILL
 62
4
 10
3904.299
 20
-6776.643
 30
1136.237
 70
    32
  0
VERTEX
  8
T41SSILL
 62
4
 10
4002.580
 20
-6825.592
 30
1136.393
 70
    32
  0
VERTEX
  8
T41SSILL
 62
4
 10
4020.742
 20
-6812.630
 30
1136.389
 70
    32
  0
VERTEX
  8
T41SSILL
 62
4
 10
4025.673
 20
-6817.556
 30
1136.405
 70
    32
  0
VERTEX
  8
T41SSILL
 62
4
 10
4011.182
 20
-6828.393
 30
1136.409
 70
    32
  0
VERTEX
  8
T41SSILL
 62
4
 10
4112.427
 20
-6878.208
 30
1136.631
 70
    32
  0
VERTEX
  8
T41SSILL
 62
4
 10
4108.841
 20
-6885.198
 30
1136.640
 70
    32
  0
VERTEX
  8
T41SSILL
 62
4
 10
4007.915
 20
-6835.378
 30
1136.418
 70
    32
  0
VERTEX
  8
T41SSILL
 62
4
 10
4009.808
 20
-6848.608
 30
1136.447
 70
    32
  0
VERTEX
  8
T41SSILL
 62
4
 10
4000.104
 20
-6851.088
 30
1136.440
 70
    32
  0
VERTEX
  8
T41SSILL
 62
4
 10
3996.777
 20
-6839.060
 30
1136.412
 70
    32
  0
VERTEX
  8
T41SSILL
 62
4
 10
3960.480
 20
-6864.687
 30
1136.418
 70
    32
  0
VERTEX
  8
T41SSILL
 62
4
 10
3940.103
 20
-6870.744
 30
1136.405
 70
    32
  0
VERTEX
  8
T41SSILL
 62
4
 10
3934.180
 20
-6871.053
 30
1136.398
 70
    32
  0
VERTEX
  8
T41SSILL
 62
4
 10
3920.266
 20
-6868.356
 30
1136.376
 70
    32
  0
VERTEX
  8
T41SSILL
 62
4
 10
3904.789
 20
-6861.353
 30
1136.343
 70
    32
  0
VERTEX
  8
T41SSILL
 62
4
 10
3893.041
 20
-6850.384
 30
1136.307
 70
    32
  0
VERTEX
  8
T41SSILL
 62
4
 10
3889.045
 20
-6843.014
 30
1136.288
 70
    32
  0
VERTEX
  8
T41SSILL
 62
4
 10
3887.322
 20
-6894.254
 30
1136.375
 70
    32
  0
VERTEX
  8
T41SSILL
 62
4
 10
3888.701
 20
-6896.257
 30
1136.381
 70
    32
  0
VERTEX
  8
T41SSILL
 62
4
 10
3894.977
 20
-6898.602
 30
1136.399
 70
    32
  0
VERTEX
  8
T41SSILL
 62
4
 10
3907.664
 20
-6911.493
 30
1136.446
 70
    32
  0
VERTEX
  8
T41SSILL
 62
4
 10
3909.632
 20
-6916.244
 30
1136.457
 70
    32
  0
VERTEX
  8
T41SSILL
 62
4
 10
3912.551
 20
-6917.638
 30
1136.464
 70
    32
  0
VERTEX
  8
T41SSILL
 62
4
 10
3915.236
 20
-6924.326
 30
1136.480
 70
    32
  0
VERTEX
  8
T41SSILL
 62
4
 10
3906.803
 20
-6930.196
 30
1136.480
 70
    32
  0
VERTEX
  8
T41SSILL
 62
4
 10
3900.322
 20
-6938.172
 30
1136.483
 70
    32
  0
VERTEX
  8
T41SSILL
 62
4
 10
3885.562
 20
-6946.549
 30
1136.532
 70
    32
  0
VERTEX
  8
T41SSILL
 62
4
 10
3884.680
 20
-6978.217
 30
1136.626
 70
    32
  0
VERTEX
  8
T41SSILL
 62
4
 10
3891.614
 20
-6987.614
 30
1136.643
 70
    32
  0
VERTEX
  8
T41SSILL
 62
4
 10
3898.796
 20
-6994.099
 30
1136.650
 70
    32
  0
VERTEX
  8
T41SSILL
 62
4
 10
3905.872
 20
-6997.586
 30
1136.649
 70
    32
  0
VERTEX
  8
T41SSILL
 62
4
 10
3914.788
 20
-6998.945
 30
1136.639
 70
    32
  0
VERTEX
  8
T41SSILL
 62
4
 10
3927.646
 20
-6995.607
 30
1136.636
 70
    32
  0
VERTEX
  8
T41SSILL
 62
4
 10
3960.665
 20
-6970.983
 30
1136.628
 70
    32
  0
VERTEX
  8
T41SSILL
 62
4
 10
3959.473
 20
-6963.141
 30
1136.611
 70
    32
  0
VERTEX
  8
T41SSILL
 62
4
 10
3948.163
 20
-6959.590
 30
1136.590
 70
    32
  0
VERTEX
  8
T41SSILL
 62
4
 10
3946.892
 20
-6953.336
 30
1136.576
 70
    32
  0
VERTEX
  8
T41SSILL
 62
4
 10
3936.506
 20
-6941.930
 30
1136.541
 70
    32
  0
VERTEX
  8
T41SSILL
 62
4
 10
3926.354
 20
-6925.231
 30
1136.496
 70
    32
  0
VERTEX
  8
T41SSILL
 62
4
 10
3909.753
 20
-6906.718
 30
1136.439
 70
    32
  0
VERTEX
  8
T41SSILL
 62
4
 10
3912.228
 20
-6892.504
 30
1136.414
 70
    32
  0
VERTEX
  8
T41SSILL
 62
4
 10
3909.424
 20
-6880.437
 30
1136.387
 70
    32
  0
VERTEX
  8
T41SSILL
 62
4
 10
3930.203
 20
-6874.318
 30
1136.400
 70
    32
  0
VERTEX
  8
T41SSILL
 62
4
 10
3932.274
 20
-6881.627
 30
1136.417
 70
    32
  0
VERTEX
  8
T41SSILL
 62
4
 10
3938.825
 20
-6885.734
 30
1136.433
 70
    32
  0
VERTEX
  8
T41SSILL
 62
4
 10
3941.705
 20
-6895.684
 30
1136.456
 70
    32
  0
VERTEX
  8
T41SSILL
 62
4
 10
3949.395
 20
-6898.461
 30
1136.471
 70
    32
  0
VERTEX
  8
T41SSILL
 62
4
 10
3955.653
 20
-6897.807
 30
1136.477
 70
    32
  0
VERTEX
  8
T41SSILL
 62
4
 10
3959.840
 20
-6905.015
 30
1136.497
 70
    32
  0
VERTEX
  8
T41SSILL
 62
4
 10
3958.848
 20
-6916.399
 30
1136.518
 70
    32
  0
VERTEX
  8
T41SSILL
 62
4
 10
3966.922
 20
-6924.642
 30
1136.544
 70
    32
  0
VERTEX
  8
T41SSILL
 62
4
 10
3960.065
 20
-6928.475
 30
1136.543
 70
    32
  0
VERTEX
  8
T41SSILL
 62
4
 10
3960.717
 20
-6934.469
 30
1136.556
 70
    32
  0
VERTEX
  8
T41SSILL
 62
4
 10
3974.307
 20
-6950.795
 30
1136.605
 70
    32
  0
VERTEX
  8
T41SSILL
 62
4
 10
3994.627
 20
-6941.592
 30
1136.611
 70
    32
  0
VERTEX
  8
T41SSILL
 62
4
 10
4004.206
 20
-6935.539
 30
1136.611
 70
    32
  0
VERTEX
  8
T41SSILL
 62
4
 10
4011.337
 20
-6933.292
 30
1136.616
 70
    32
  0
VERTEX
  8
T41SSILL
 62
4
 10
4027.152
 20
-6922.881
 30
1136.614
 70
    32
  0
VERTEX
  8
T41SSILL
 62
4
 10
4031.594
 20
-6928.411
 30
1136.631
 70
    32
  0
VERTEX
  8
T41SSILL
 62
4
 10
4030.548
 20
-6930.622
 30
1136.634
 70
    32
  0
VERTEX
  8
T41SSILL
 62
4
 10
4015.616
 20
-6941.117
 30
1136.636
 70
    32
  0
VERTEX
  8
T41SSILL
 62
4
 10
4009.237
 20
-6951.473
 30
1136.649
 70
    32
  0
VERTEX
  8
T41SSILL
 62
4
 10
4011.922
 20
-6958.161
 30
1136.665
 70
    32
  0
VERTEX
  8
T41SSILL
 62
4
 10
4008.174
 20
-6965.679
 30
1136.675
 70
    32
  0
VERTEX
  8
T41SSILL
 62
4
 10
4011.899
 20
-6969.274
 30
1136.687
 70
    32
  0
VERTEX
  8
T41SSILL
 62
4
 10
4027.057
 20
-6967.245
 30
1136.702
 70
    32
  0
VERTEX
  8
T41SSILL
 62
4
 10
4029.798
 20
-6968.376
 30
1136.707
 70
    32
  0
VERTEX
  8
T41SSILL
 62
4
 10
4031.141
 20
-6971.896
 30
1136.716
 70
    32
  0
VERTEX
  8
T41SSILL
 62
4
 10
4047.972
 20
-6984.322
 30
1136.761
 70
    32
  0
VERTEX
  8
T41SSILL
 62
4
 10
4049.080
 20
-6992.871
 30
1136.779
 70
    32
  0
VERTEX
  8
T41SSILL
 62
4
 10
4046.813
 20
-6997.383
 30
1136.785
 70
    32
  0
VERTEX
  8
T41SSILL
 62
4
 10
4050.571
 20
-7006.622
 30
1136.797
 70
    32
  0
VERTEX
  8
T41SSILL
 62
4
 10
4043.289
 20
-7013.279
 30
1136.798
 70
    32
  0
VERTEX
  8
T41SSILL
 62
4
 10
4029.930
 20
-7006.124
 30
1136.782
 70
    32
  0
VERTEX
  8
T41SSILL
 62
4
 10
4009.837
 20
-7008.975
 30
1136.763
 70
    32
  0
VERTEX
  8
T41SSILL
 62
4
 10
4005.717
 20
-6998.151
 30
1136.736
 70
    32
  0
VERTEX
  8
T41SSILL
 62
4
 10
4008.955
 20
-6993.899
 30
1136.732
 70
    32
  0
VERTEX
  8
T41SSILL
 62
4
 10
4001.568
 20
-6982.388
 30
1136.700
 70
    32
  0
VERTEX
  8
T41SSILL
 62
4
 10
3996.900
 20
-6983.561
 30
1136.697
 70
    32
  0
VERTEX
  8
T41SSILL
 62
4
 10
3994.800
 20
-6986.396
 30
1136.700
 70
    32
  0
VERTEX
  8
T41SSILL
 62
4
 10
4001.846
 20
-6999.937
 30
1136.735
 70
    32
  0
VERTEX
  8
T41SSILL
 62
4
 10
4000.188
 20
-7002.946
 30
1136.739
 70
    32
  0
VERTEX
  8
T41SSILL
 62
4
 10
3989.771
 20
-7001.331
 30
1136.723
 70
    32
  0
VERTEX
  8
T41SSILL
 62
4
 10
3984.546
 20
-6997.745
 30
1136.710
 70
    32
  0
VERTEX
  8
T41SSILL
 62
4
 10
3984.236
 20
-6989.897
 30
1136.694
 70
    32
  0
VERTEX
  8
T41SSILL
 62
4
 10
3982.726
 20
-6988.054
 30
1136.688
 70
    32
  0
VERTEX
  8
T41SSILL
 62
4
 10
3974.926
 20
-6981.484
 30
1136.666
 70
    32
  0
VERTEX
  8
T41SSILL
 62
4
 10
3965.814
 20
-6976.686
 30
1136.645
 70
    32
  0
VERTEX
  8
T41SSILL
 62
4
 10
3927.247
 20
-7002.841
 30
1136.650
 70
    32
  0
VERTEX
  8
T41SSILL
 62
4
 10
3915.442
 20
-7005.203
 30
1136.656
 70
    32
  0
VERTEX
  8
T41SSILL
 62
4
 10
3903.260
 20
-7003.334
 30
1136.670
 70
    32
  0
VERTEX
  8
T41SSILL
 62
4
 10
3913.844
 20
-7018.619
 30
1136.698
 70
    32
  0
VERTEX
  8
T41SSILL
 62
4
 10
3919.993
 20
-7014.261
 30
1136.675
 70
    32
  0
VERTEX
  8
T41SSILL
 62
4
 10
3924.615
 20
-7020.408
 30
1136.686
 70
    32
  0
VERTEX
  8
T41SSILL
 62
4
 10
3918.465
 20
-7024.589
 30
1136.708
 70
    32
  0
VERTEX
  8
T41SSILL
 62
4
 10
4008.358
 20
-7148.868
 30
1136.879
 70
    32
  0
VERTEX
  8
T41SSILL
 62
4
 10
4022.404
 20
-7152.667
 30
1136.889
 70
    32
  0
VERTEX
  8
T41SSILL
 62
4
 10
4029.634
 20
-7152.272
 30
1136.893
 70
    32
  0
VERTEX
  8
T41SSILL
 62
4
 10
4036.409
 20
-7149.586
 30
1136.894
 70
    32
  0
VERTEX
  8
T41SSILL
 62
4
 10
4099.822
 20
-7103.707
 30
1136.893
 70
    32
  0
VERTEX
  8
T41SSILL
 62
4
 10
4107.912
 20
-7114.684
 30
1136.905
 70
    32
  0
VERTEX
  8
T41SSILL
 62
4
 10
4100.362
 20
-7120.726
 30
1136.906
 70
    32
  0
VERTEX
  8
T41SSILL
 62
4
 10
4096.540
 20
-7115.721
 30
1136.900
 70
    32
  0
VERTEX
  8
T41SSILL
 62
4
 10
4067.290
 20
-7136.353
 30
1136.900
 70
    32
  0
VERTEX
  8
T41SSILL
 62
4
 10
4073.332
 20
-7143.991
 30
1136.909
 70
    32
  0
VERTEX
  8
T41SSILL
 62
4
 10
4052.687
 20
-7157.959
 30
1136.909
 70
    32
  0
VERTEX
  8
T41SSILL
 62
4
 10
4047.621
 20
-7151.285
 30
1136.901
 70
    32
  0
VERTEX
  8
T41SSILL
 62
4
 10
4032.053
 20
-7158.873
 30
1136.899
 70
    32
  0
VERTEX
  8
T41SSILL
 62
4
 10
4015.476
 20
-7159.587
 30
1136.891
 70
    32
  0
VERTEX
  8
T41SSILL
 62
4
 10
4059.582
 20
-7221.334
 30
1136.959
 70
    32
  0
VERTEX
  8
T41SSILL
 62
4
 10
4070.112
 20
-7227.182
 30
1136.991
 70
    32
  0
VERTEX
  8
T41SSILL
 62
4
 10
4083.614
 20
-7228.426
 30
1137.018
 70
    32
  0
VERTEX
  8
T41SSILL
 62
4
 10
4095.320
 20
-7224.301
 30
1137.025
 70
    32
  0
VERTEX
  8
T41SSILL
 62
4
 10
4139.937
 20
-7192.025
 30
1137.007
 70
    32
  0
VERTEX
  8
T41SSILL
 62
4
 10
4148.287
 20
-7202.119
 30
1137.049
 70
    32
  0
VERTEX
  8
T41SSILL
 62
4
 10
4138.445
 20
-7208.439
 30
1137.051
 70
    32
  0
VERTEX
  8
T41SSILL
 62
4
 10
4135.247
 20
-7204.400
 30
1137.034
 70
    32
  0
VERTEX
  8
T41SSILL
 62
4
 10
4097.400
 20
-7233.109
 30
1137.058
 70
    32
  0
VERTEX
  8
T41SSILL
 62
4
 10
4083.930
 20
-7237.332
 30
1137.049
 70
    32
  0
VERTEX
  8
T41SSILL
 62
4
 10
4070.870
 20
-7236.174
 30
1137.022
 70
    32
  0
VERTEX
  8
T41SSILL
 62
4
 10
4117.997
 20
-7301.784
 30
1137.322
 70
    32
  0
VERTEX
  8
T41SSILL
 62
4
 10
4128.259
 20
-7307.016
 30
1137.357
 70
    32
  0
VERTEX
  8
T41SSILL
 62
4
 10
4137.612
 20
-7307.667
 30
1137.375
 70
    32
  0
VERTEX
  8
T41SSILL
 62
4
 10
4138.031
 20
-7303.960
 30
1137.364
 70
    32
  0
VERTEX
  8
T41SSILL
 62
4
 10
4159.814
 20
-7288.487
 30
1137.350
 70
    32
  0
VERTEX
  8
T41SSILL
 62
4
 10
4168.296
 20
-7290.907
 30
1137.373
 70
    32
  0
VERTEX
  8
T41SSILL
 62
4
 10
4214.667
 20
-7256.945
 30
1137.340
 70
    32
  0
VERTEX
  8
T41SSILL
 62
4
 10
4219.200
 20
-7263.005
 30
1137.368
 70
    32
  0
VERTEX
  8
T41SSILL
 62
4
 10
4150.693
 20
-7312.354
 30
1137.414
 70
    32
  0
VERTEX
  8
T41SSILL
 62
4
 10
4140.390
 20
-7315.148
 30
1137.405
 70
    32
  0
VERTEX
  8
T41SSILL
 62
4
 10
4127.508
 20
-7314.429
 30
1137.380
 70
    32
  0
VERTEX
  8
T41SSILL
 62
4
 10
4188.247
 20
-7400.158
 30
1137.742
 70
    32
  0
VERTEX
  8
T41SSILL
 62
4
 10
4199.052
 20
-7392.686
 30
1137.758
 70
    32
  0
VERTEX
  8
T41SSILL
 62
4
 10
4204.293
 20
-7399.094
 30
1137.752
 70
    32
  0
VERTEX
  8
T41SSILL
 62
4
 10
4193.928
 20
-7406.299
 30
1137.736
 70
    32
  0
VERTEX
  8
T41SSILL
 62
4
 10
4204.047
 20
-7417.353
 30
1137.756
 70
    32
  0
VERTEX
  8
T41SSILL
 62
4
 10
4209.708
 20
-7420.230
 30
1137.766
 70
    32
  0
VERTEX
  8
T41SSILL
 62
4
 10
4217.478
 20
-7421.685
 30
1137.777
 70
    32
  0
VERTEX
  8
T41SSILL
 62
4
 10
4231.752
 20
-7419.132
 30
1137.789
 70
    32
  0
VERTEX
  8
T41SSILL
 62
4
 10
4290.070
 20
-7376.986
 30
1137.829
 70
    32
  0
VERTEX
  8
T41SSILL
 62
4
 10
4287.634
 20
-7367.563
 30
1137.834
 70
    32
  0
VERTEX
  8
T41SSILL
 62
4
 10
4292.782
 20
-7357.919
 30
1137.811
 70
    32
  0
VERTEX
  8
T41SSILL
 62
4
 10
4285.929
 20
-7332.293
 30
1137.713
 70
    32
  0
VERTEX
  8
T41SSILL
 62
4
 10
4267.579
 20
-7301.178
 30
1137.578
 70
    32
  0
VERTEX
  8
T41SSILL
 62
4
 10
4256.311
 20
-7289.689
 30
1137.521
 70
    32
  0
VERTEX
  8
T41SSILL
 62
4
 10
4254.860
 20
-7282.818
 30
1137.495
 70
    32
  0
VERTEX
  8
T41SSILL
 62
4
 10
4251.042
 20
-7278.519
 30
1137.474
 70
    32
  0
VERTEX
  8
T41SSILL
 62
4
 10
4247.190
 20
-7268.310
 30
1137.434
 70
    32
  0
VERTEX
  8
T41SSILL
 62
4
 10
4248.142
 20
-7265.129
 30
1137.425
 70
    32
  0
VERTEX
  8
T41SSILL
 62
4
 10
4256.221
 20
-7259.085
 30
1137.418
 70
    32
  0
VERTEX
  8
T41SSILL
 62
4
 10
4266.390
 20
-7263.612
 30
1137.451
 70
    32
  0
VERTEX
  8
T41SSILL
 62
4
 10
4267.927
 20
-7269.953
 30
1137.475
 70
    32
  0
VERTEX
  8
T41SSILL
 62
4
 10
4273.799
 20
-7278.739
 30
1137.514
 70
    32
  0
VERTEX
  8
T41SSILL
 62
4
 10
4276.398
 20
-7285.780
 30
1137.542
 70
    32
  0
VERTEX
  8
T41SSILL
 62
4
 10
4276.098
 20
-7294.954
 30
1137.572
 70
    32
  0
VERTEX
  8
T41SSILL
 62
4
 10
4279.498
 20
-7303.137
 30
1137.605
 70
    32
  0
VERTEX
  8
T41SSILL
 62
4
 10
4285.989
 20
-7312.184
 30
1137.647
 70
    32
  0
VERTEX
  8
T41SSILL
 62
4
 10
4294.124
 20
-7315.841
 30
1137.673
 70
    32
  0
VERTEX
  8
T41SSILL
 62
4
 10
4303.700
 20
-7324.428
 30
1137.718
 70
    32
  0
VERTEX
  8
T41SSILL
 62
4
 10
4307.719
 20
-7333.048
 30
1137.754
 70
    32
  0
VERTEX
  8
T41SSILL
 62
4
 10
4315.896
 20
-7343.761
 30
1137.803
 70
    32
  0
VERTEX
  8
T41SSILL
 62
4
 10
4320.195
 20
-7355.114
 30
1137.849
 70
    32
  0
VERTEX
  8
T41SSILL
 62
4
 10
4398.365
 20
-7298.829
 30
1137.796
 70
    32
  0
VERTEX
  8
T41SSILL
 62
4
 10
4394.273
 20
-7292.943
 30
1137.770
 70
    32
  0
VERTEX
  8
T41SSILL
 62
4
 10
4404.028
 20
-7286.889
 30
1137.766
 70
    32
  0
VERTEX
  8
T41SSILL
 62
4
 10
4419.960
 20
-7281.328
 30
1137.775
 70
    32
  0
VERTEX
  8
T41SSILL
 62
4
 10
4429.710
 20
-7289.650
 30
1137.820
 70
    32
  0
VERTEX
  8
T41SSILL
 62
4
 10
4429.261
 20
-7303.324
 30
1137.865
 70
    32
  0
VERTEX
  8
T41SSILL
 62
4
 10
4433.150
 20
-7319.970
 30
1137.927
 70
    32
  0
VERTEX
  8
T41SSILL
 62
4
 10
4425.857
 20
-7324.776
 30
1137.930
 70
    32
  0
VERTEX
  8
T41SSILL
 62
4
 10
4416.815
 20
-7316.890
 30
1137.888
 70
    32
  0
VERTEX
  8
T41SSILL
 62
4
 10
4411.449
 20
-7319.303
 30
1137.887
 70
    32
  0
VERTEX
  8
T41SSILL
 62
4
 10
4402.456
 20
-7304.714
 30
1137.823
 70
    32
  0
VERTEX
  8
T41SSILL
 62
4
 10
4321.747
 20
-7364.189
 30
1137.863
 70
    32
  0
VERTEX
  8
T41SSILL
 62
4
 10
4321.697
 20
-7370.716
 30
1137.854
 70
    32
  0
VERTEX
  8
T41SSILL
 62
4
 10
4329.565
 20
-7388.928
 30
1137.859
 70
    32
  0
VERTEX
  8
T41SSILL
 62
4
 10
4326.101
 20
-7399.973
 30
1137.869
 70
    32
  0
VERTEX
  8
T41SSILL
 62
4
 10
4334.732
 20
-7412.976
 30
1137.895
 70
    32
  0
VERTEX
  8
T41SSILL
 62
4
 10
4343.512
 20
-7406.045
 30
1137.896
 70
    32
  0
VERTEX
  8
T41SSILL
 62
4
 10
4348.492
 20
-7413.160
 30
1137.911
 70
    32
  0
VERTEX
  8
T41SSILL
 62
4
 10
4333.823
 20
-7423.389
 30
1137.908
 70
    32
  0
VERTEX
  8
T41SSILL
 62
4
 10
4307.232
 20
-7385.706
 30
1137.830
 70
    32
  0
VERTEX
  8
T41SSILL
 62
4
 10
4293.810
 20
-7383.050
 30
1137.822
 70
    32
  0
VERTEX
  8
T41SSILL
 62
4
 10
4237.158
 20
-7423.599
 30
1137.801
 70
    32
  0
VERTEX
  8
T41SSILL
 62
4
 10
4225.630
 20
-7428.076
 30
1137.794
 70
    32
  0
VERTEX
  8
T41SSILL
 62
4
 10
4208.336
 20
-7426.942
 30
1137.773
 70
    32
  0
VERTEX
  8
T41SSILL
 62
4
 10
4282.493
 20
-7529.879
 30
1137.987
 70
    32
  0
VERTEX
  8
T41SSILL
 62
4
 10
4292.847
 20
-7535.728
 30
1138.006
 70
    32
  0
VERTEX
  8
T41SSILL
 62
4
 10
4306.700
 20
-7536.706
 30
1138.023
 70
    32
  0
VERTEX
  8
T41SSILL
 62
4
 10
4315.057
 20
-7532.953
 30
1138.027
 70
    32
  0
VERTEX
  8
T41SSILL
 62
4
 10
4337.020
 20
-7518.184
 30
1138.032
 70
    32
  0
VERTEX
  8
T41SSILL
 62
4
 10
4333.194
 20
-7512.297
 30
1138.021
 70
    32
  0
VERTEX
  8
T41SSILL
 62
4
 10
4354.539
 20
-7497.355
 30
1138.025
 70
    32
  0
VERTEX
  8
T41SSILL
 62
4
 10
4358.361
 20
-7502.360
 30
1138.036
 70
    32
  0
VERTEX
  8
T41SSILL
 62
4
 10
4389.186
 20
-7479.690
 30
1138.041
 70
    32
  0
VERTEX
  8
T41SSILL
 62
4
 10
4394.073
 20
-7485.836
 30
1138.054
 70
    32
  0
VERTEX
  8
T41SSILL
 62
4
 10
4316.697
 20
-7542.116
 30
1138.041
 70
    32
  0
VERTEX
  8
T41SSILL
 62
4
 10
4306.045
 20
-7545.530
 30
1138.033
 70
    32
  0
VERTEX
  8
T41SSILL
 62
4
 10
4293.695
 20
-7545.160
 30
1138.019
 70
    32
  0
VERTEX
  8
T41SSILL
 62
4
 10
4396.485
 20
-7687.010
 30
1138.314
 70
    32
  0
VERTEX
  8
T41SSILL
 62
4
 10
4389.163
 20
-7691.817
 30
1138.312
 70
    32
  0
VERTEX
  8
T41SSILL
 62
4
 10
3954.020
 20
-7087.004
 30
1136.810
 70
    32
  0
VERTEX
  8
T41SSILL
 62
4
 10
3953.092
 20
-7094.241
 30
1136.820
 70
    32
  0
VERTEX
  8
T41SSILL
 62
4
 10
3949.874
 20
-7102.022
 30
1136.831
 70
    32
  0
VERTEX
  8
T41SSILL
 62
4
 10
3942.517
 20
-7110.884
 30
1136.844
 70
    32
  0
VERTEX
  8
T41SSILL
 62
4
 10
3844.674
 20
-7181.396
 30
1137.012
 70
    32
  0
VERTEX
  8
T41SSILL
 62
4
 10
3834.251
 20
-7193.892
 30
1137.037
 70
    32
  0
VERTEX
  8
T41SSILL
 62
4
 10
3830.346
 20
-7204.940
 30
1137.052
 70
    32
  0
VERTEX
  8
T41SSILL
 62
4
 10
3841.391
 20
-7299.337
 30
1137.129
 70
    32
  0
VERTEX
  8
T41SSILL
 62
4
 10
3847.727
 20
-7312.001
 30
1137.134
 70
    32
  0
VERTEX
  8
T41SSILL
 62
4
 10
3859.249
 20
-7321.724
 30
1137.142
 70
    32
  0
VERTEX
  8
T41SSILL
 62
4
 10
3875.661
 20
-7322.863
 30
1137.139
 70
    32
  0
VERTEX
  8
T41SSILL
 62
4
 10
3877.598
 20
-7322.234
 30
1137.137
 70
    32
  0
VERTEX
  8
T41SSILL
 62
4
 10
3873.594
 20
-7316.172
 30
1137.131
 70
    32
  0
VERTEX
  8
T41SSILL
 62
4
 10
3893.533
 20
-7302.120
 30
1137.107
 70
    32
  0
VERTEX
  8
T41SSILL
 62
4
 10
3897.889
 20
-7308.092
 30
1137.113
 70
    32
  0
VERTEX
  8
T41SSILL
 62
4
 10
3909.411
 20
-7299.761
 30
1137.099
 70
    32
  0
VERTEX
  8
T41SSILL
 62
4
 10
3914.319
 20
-7305.359
 30
1137.105
 70
    32
  0
VERTEX
  8
T41SSILL
 62
4
 10
3880.987
 20
-7328.653
 30
1137.145
 70
    32
  0
VERTEX
  8
T41SSILL
 62
4
 10
3872.088
 20
-7330.292
 30
1137.149
 70
    32
  0
VERTEX
  8
T41SSILL
 62
4
 10
3861.588
 20
-7329.472
 30
1137.151
 70
    32
  0
VERTEX
  8
T41SSILL
 62
4
 10
3843.989
 20
-7321.460
 30
1137.147
 70
    32
  0
VERTEX
  8
T41SSILL
 62
4
 10
3844.272
 20
-7325.953
 30
1137.151
 70
    32
  0
VERTEX
  8
T41SSILL
 62
4
 10
3848.706
 20
-7328.665
 30
1137.154
 70
    32
  0
VERTEX
  8
T41SSILL
 62
4
 10
3854.128
 20
-7335.865
 30
1137.162
 70
    32
  0
VERTEX
  8
T41SSILL
 62
4
 10
3853.448
 20
-7340.191
 30
1137.167
 70
    32
  0
VERTEX
  8
T41SSILL
 62
4
 10
3846.786
 20
-7347.286
 30
1137.178
 70
    32
  0
VERTEX
  8
T41SSILL
 62
4
 10
3849.258
 20
-7362.883
 30
1137.198
 70
    32
  0
VERTEX
  8
T41SSILL
 62
4
 10
3877.494
 20
-7346.999
 30
1137.170
 70
    32
  0
VERTEX
  8
T41SSILL
 62
4
 10
3883.782
 20
-7355.786
 30
1137.179
 70
    32
  0
VERTEX
  8
T41SSILL
 62
4
 10
3850.386
 20
-7374.871
 30
1137.213
 70
    32
  0
VERTEX
  8
T41SSILL
 62
4
 10
3862.371
 20
-7479.141
 30
1137.457
 70
    32
  0
VERTEX
  8
T41SSILL
 62
4
 10
3870.987
 20
-7489.586
 30
1137.479
 70
    32
  0
VERTEX
  8
T41SSILL
 62
4
 10
3873.441
 20
-7502.008
 30
1137.498
 70
    32
  0
VERTEX
  8
T41SSILL
 62
4
 10
3889.282
 20
-7526.435
 30
1137.547
 70
    32
  0
VERTEX
  8
T41SSILL
 62
4
 10
3898.926
 20
-7546.753
 30
1137.584
 70
    32
  0
VERTEX
  8
T41SSILL
 62
4
 10
3909.865
 20
-7562.300
 30
1137.616
 70
    32
  0
VERTEX
  8
T41SSILL
 62
4
 10
3952.889
 20
-7635.079
 30
1137.756
 70
    32
  0
VERTEX
  8
T41SSILL
 62
4
 10
3953.815
 20
-7642.747
 30
1137.767
 70
    32
  0
VERTEX
  8
T41SSILL
 62
4
 10
3945.433
 20
-7657.260
 30
1137.776
 70
    32
  0
VERTEX
  8
T41SSILL
 62
4
 10
3974.592
 20
-7711.862
 30
1137.879
 70
    32
  0
VERTEX
  8
T41SSILL
 62
4
 10
3969.755
 20
-7714.360
 30
1137.876
 70
    32
  0
VERTEX
  8
T41SSILL
 62
4
 10
3961.788
 20
-7724.549
 30
1137.881
 70
    32
  0
VERTEX
  8
T41SSILL
 62
4
 10
3953.891
 20
-7731.563
 30
1137.881
 70
    32
  0
VERTEX
  8
T41SSILL
 62
4
 10
3937.698
 20
-7692.144
 30
1137.812
 70
    32
  0
VERTEX
  8
T41SSILL
 62
4
 10
3932.278
 20
-7685.296
 30
1137.798
 70
    32
  0
VERTEX
  8
T41SSILL
 62
4
 10
3924.504
 20
-7667.966
 30
1137.767
 70
    32
  0
VERTEX
  8
T41SSILL
 62
4
 10
3918.978
 20
-7658.120
 30
1137.748
 70
    32
  0
VERTEX
  8
T41SSILL
 62
4
 10
3911.878
 20
-7650.488
 30
1137.731
 70
    32
  0
VERTEX
  8
T41SSILL
 62
4
 10
3879.999
 20
-7598.283
 30
1137.628
 70
    32
  0
VERTEX
  8
T41SSILL
 62
4
 10
3878.370
 20
-7591.237
 30
1137.618
 70
    32
  0
VERTEX
  8
T41SSILL
 62
4
 10
3879.590
 20
-7573.502
 30
1137.596
 70
    32
  0
VERTEX
  8
T41SSILL
 62
4
 10
3877.177
 20
-7568.047
 30
1137.587
 70
    32
  0
VERTEX
  8
T41SSILL
 62
4
 10
3868.417
 20
-7563.247
 30
1137.571
 70
    32
  0
VERTEX
  8
T41SSILL
 62
4
 10
3863.346
 20
-7555.692
 30
1137.556
 70
    32
  0
VERTEX
  8
T41SSILL
 62
4
 10
3860.348
 20
-7555.974
 30
1137.553
 70
    32
  0
VERTEX
  8
T41SSILL
 62
4
 10
3856.082
 20
-7550.266
 30
1137.541
 70
    32
  0
VERTEX
  8
T41SSILL
 62
4
 10
3852.214
 20
-7537.411
 30
1137.520
 70
    32
  0
VERTEX
  8
T41SSILL
 62
4
 10
3837.559
 20
-7504.598
 30
1137.462
 70
    32
  0
VERTEX
  8
T41SSILL
 62
4
 10
3832.485
 20
-7496.690
 30
1137.446
 70
    32
  0
VERTEX
  8
T41SSILL
 62
4
 10
3807.020
 20
-7470.555
 30
1137.350
 70
    32
  0
VERTEX
  8
T41SSILL
 62
4
 10
3802.921
 20
-7463.346
 30
1137.342
 70
    32
  0
VERTEX
  8
T41SSILL
 62
4
 10
3791.912
 20
-7481.227
 30
1137.368
 70
    32
  0
VERTEX
  8
T41SSILL
 62
4
 10
3794.705
 20
-7491.353
 30
1137.395
 70
    32
  0
VERTEX
  8
T41SSILL
 62
4
 10
3793.085
 20
-7500.976
 30
1137.408
 70
    32
  0
VERTEX
  8
T41SSILL
 62
4
 10
3800.748
 20
-7514.338
 30
1137.433
 70
    32
  0
VERTEX
  8
T41SSILL
 62
4
 10
3805.000
 20
-7517.400
 30
1137.442
 70
    32
  0
VERTEX
  8
T41SSILL
 62
4
 10
3844.325
 20
-7521.082
 30
1137.490
 70
    32
  0
VERTEX
  8
T41SSILL
 62
4
 10
3846.589
 20
-7525.625
 30
1137.498
 70
    32
  0
VERTEX
  8
T41SSILL
 62
4
 10
3843.353
 20
-7530.230
 30
1137.501
 70
    32
  0
VERTEX
  8
T41SSILL
 62
4
 10
3814.242
 20
-7529.430
 30
1137.468
 70
    32
  0
VERTEX
  8
T41SSILL
 62
4
 10
3813.308
 20
-7535.609
 30
1137.474
 70
    32
  0
VERTEX
  8
T41SSILL
 62
4
 10
3824.006
 20
-7555.127
 30
1137.511
 70
    32
  0
VERTEX
  8
T41SSILL
 62
4
 10
3831.618
 20
-7559.757
 30
1137.526
 70
    32
  0
VERTEX
  8
T41SSILL
 62
4
 10
3854.237
 20
-7566.681
 30
1137.559
 70
    32
  0
VERTEX
  8
T41SSILL
 62
4
 10
3875.769
 20
-7568.673
 30
1137.586
 70
    32
  0
VERTEX
  8
T41SSILL
 62
4
 10
3874.065
 20
-7578.914
 30
1137.597
 70
    32
  0
VERTEX
  8
T41SSILL
 62
4
 10
3850.064
 20
-7577.113
 30
1137.568
 70
    32
  0
VERTEX
  8
T41SSILL
 62
4
 10
3836.904
 20
-7573.926
 30
1137.550
 70
    32
  0
VERTEX
  8
T41SSILL
 62
4
 10
3834.356
 20
-7575.617
 30
1137.549
 70
    32
  0
VERTEX
  8
T41SSILL
 62
4
 10
3850.393
 20
-7603.395
 30
1137.602
 70
    32
  0
VERTEX
  8
T41SSILL
 62
4
 10
3886.810
 20
-7611.402
 30
1137.653
 70
    32
  0
VERTEX
  8
T41SSILL
 62
4
 10
3885.407
 20
-7621.622
 30
1137.664
 70
    32
  0
VERTEX
  8
T41SSILL
 62
4
 10
3856.989
 20
-7615.263
 30
1137.625
 70
    32
  0
VERTEX
  8
T41SSILL
 62
4
 10
3857.621
 20
-7617.729
 30
1137.629
 70
    32
  0
VERTEX
  8
T41SSILL
 62
4
 10
3856.220
 20
-7619.501
 30
1137.629
 70
    32
  0
VERTEX
  8
T41SSILL
 62
4
 10
3848.482
 20
-7623.515
 30
1137.626
 70
    32
  0
VERTEX
  8
T41SSILL
 62
4
 10
3783.059
 20
-7505.797
 30
1137.403
 70
    32
  0
VERTEX
  8
T41SSILL
 62
4
 10
3775.257
 20
-7498.875
 30
1137.391
 70
    32
  0
VERTEX
  8
T41SSILL
 62
4
 10
3779.836
 20
-7482.532
 30
1137.380
 70
    32
  0
VERTEX
  8
T41SSILL
 62
4
 10
3824.447
 20
-7403.687
 30
1137.258
 70
    32
  0
VERTEX
  8
T41SSILL
 62
4
 10
3822.312
 20
-7400.612
 30
1137.255
 70
    32
  0
VERTEX
  8
T41SSILL
 62
4
 10
3814.885
 20
-7397.480
 30
1137.256
 70
    32
  0
VERTEX
  8
T41SSILL
 62
4
 10
3806.685
 20
-7397.881
 30
1137.266
 70
    32
  0
VERTEX
  8
T41SSILL
 62
4
 10
3806.631
 20
-7388.620
 30
1137.257
 70
    32
  0
VERTEX
  8
T41SSILL
 62
4
 10
3831.234
 20
-7387.771
 30
1137.235
 70
    32
  0
VERTEX
  8
T41SSILL
 62
4
 10
3831.555
 20
-7382.301
 30
1137.228
 70
    32
  0
VERTEX
  8
T41SSILL
 62
4
 10
3835.679
 20
-7378.661
 30
1137.222
 70
    32
  0
VERTEX
  8
T41SSILL
 62
4
 10
3841.684
 20
-7364.867
 30
1137.203
 70
    32
  0
VERTEX
  8
T41SSILL
 62
4
 10
3839.759
 20
-7352.354
 30
1137.187
 70
    32
  0
VERTEX
  8
T41SSILL
 62
4
 10
3834.427
 20
-7360.499
 30
1137.199
 70
    32
  0
VERTEX
  8
T41SSILL
 62
4
 10
3825.133
 20
-7354.820
 30
1137.202
 70
    32
  0
VERTEX
  8
T41SSILL
 62
4
 10
3831.246
 20
-7344.466
 30
1137.185
 70
    32
  0
VERTEX
  8
T41SSILL
 62
4
 10
3831.701
 20
-7331.586
 30
1137.172
 70
    32
  0
VERTEX
  8
T41SSILL
 62
4
 10
3836.712
 20
-7328.823
 30
1137.163
 70
    32
  0
VERTEX
  8
T41SSILL
 62
4
 10
3822.380
 20
-7200.047
 30
1137.057
 70
    32
  0
VERTEX
  8
T41SSILL
 62
4
 10
3758.086
 20
-7246.020
 30
1137.180
 70
    32
  0
VERTEX
  8
T41SSILL
 62
4
 10
3757.331
 20
-7237.646
 30
1137.172
 70
    32
  0
VERTEX
  8
T41SSILL
 62
4
 10
3792.640
 20
-7212.392
 30
1137.105
 70
    32
  0
VERTEX
  8
T41SSILL
 62
4
 10
3787.751
 20
-7205.805
 30
1137.105
 70
    32
  0
VERTEX
  8
T41SSILL
 62
4
 10
3795.130
 20
-7200.735
 30
1137.091
 70
    32
  0
VERTEX
  8
T41SSILL
 62
4
 10
3800.104
 20
-7206.792
 30
1137.091
 70
    32
  0
VERTEX
  8
T41SSILL
 62
4
 10
3808.360
 20
-7200.746
 30
1137.075
 70
    32
  0
VERTEX
  8
T41SSILL
 62
4
 10
3808.244
 20
-7195.984
 30
1137.070
 70
    32
  0
VERTEX
  8
T41SSILL
 62
4
 10
3814.013
 20
-7187.043
 30
1137.055
 70
    32
  0
VERTEX
  8
T41SSILL
 62
4
 10
3824.586
 20
-7185.217
 30
1137.040
 70
    32
  0
VERTEX
  8
T41SSILL
 62
4
 10
3845.157
 20
-7173.455
 30
1137.004
 70
    32
  0
VERTEX
  8
T41SSILL
 62
4
 10
3937.639
 20
-7106.238
 30
1136.840
 70
    32
  0
VERTEX
  8
T41SSILL
 62
4
 10
3944.388
 20
-7099.055
 30
1136.829
 70
    32
  0
VERTEX
  8
T41SSILL
 62
4
 10
3946.566
 20
-7094.456
 30
1136.822
 70
    32
  0
VERTEX
  8
T41SSILL
 62
4
 10
3947.998
 20
-7082.717
 30
1136.806
 70
    32
  0
VERTEX
  8
T41SSILL
 62
4
 10
3946.370
 20
-7075.935
 30
1136.798
 70
    32
  0
VERTEX
  8
T41SSILL
 62
4
 10
3919.692
 20
-7038.429
 30
1136.747
 70
    32
  0
VERTEX
  8
T41SSILL
 62
4
 10
3911.480
 20
-7036.802
 30
1136.756
 70
    32
  0
VERTEX
  8
T41SSILL
 62
4
 10
3800.639
 20
-7116.826
 30
1137.004
 70
    32
  0
VERTEX
  8
T41SSILL
 62
4
 10
3794.529
 20
-7111.388
 30
1137.006
 70
    32
  0
VERTEX
  8
T41SSILL
 62
4
 10
3802.249
 20
-7105.527
 30
1136.991
 70
    32
  0
VERTEX
  8
T41SSILL
 62
4
 10
3797.804
 20
-7099.555
 30
1136.991
 70
    32
  0
VERTEX
  8
T41SSILL
 62
4
 10
3817.475
 20
-7084.800
 30
1136.952
 70
    32
  0
VERTEX
  8
T41SSILL
 62
4
 10
3822.542
 20
-7091.650
 30
1136.953
 70
    32
  0
VERTEX
  8
T41SSILL
 62
4
 10
3904.485
 20
-7032.079
 30
1136.753
 70
    32
  0
VERTEX
  8
T41SSILL
 62
4
 10
3906.804
 20
-7021.306
 30
1136.717
 70
    32
  0
VERTEX
  8
T41SSILL
 62
4
 10
3877.996
 20
-6981.159
 30
1136.646
 70
    32
  0
VERTEX
  8
T41SSILL
 62
4
 10
3809.815
 20
-6972.152
 30
1136.729
 70
    32
  0
VERTEX
  8
T41SSILL
 62
4
 10
3770.512
 20
-6999.972
 30
1136.874
 70
    32
  0
VERTEX
  8
T41SSILL
 62
4
 10
3771.817
 20
-7001.636
 30
1136.877
 70
    32
  0
VERTEX
  8
T41SSILL
 62
4
 10
3770.408
 20
-7006.158
 30
1136.893
 70
    32
  0
VERTEX
  8
T41SSILL
 62
4
 10
3765.054
 20
-7013.395
 30
1136.923
 70
    32
  0
VERTEX
  8
T41SSILL
 62
4
 10
3761.735
 20
-7015.142
 30
1136.933
 70
    32
  0
VERTEX
  8
T41SSILL
 62
4
 10
3745.458
 20
-7045.614
 30
1137.003
 70
    32
  0
VERTEX
  8
T41SSILL
 62
4
 10
3736.686
 20
-7039.594
 30
1137.007
 70
    32
  0
VERTEX
  8
T41SSILL
 62
4
 10
3732.328
 20
-7029.352
 30
1137.003
 70
    32
  0
VERTEX
  8
T41SSILL
 62
4
 10
3726.644
 20
-7032.510
 30
1137.013
 70
    32
  0
VERTEX
  8
T41SSILL
 62
4
 10
3726.645
 20
-7044.244
 30
1137.024
 70
    32
  0
VERTEX
  8
T41SSILL
 62
4
 10
3736.971
 20
-7042.197
 30
1137.010
 70
    32
  0
VERTEX
  8
T41SSILL
 62
4
 10
3737.698
 20
-7053.108
 30
1137.019
 70
    32
  0
VERTEX
  8
T41SSILL
 62
4
 10
3726.029
 20
-7054.142
 30
1137.034
 70
    32
  0
VERTEX
  8
T41SSILL
 62
4
 10
3730.621
 20
-7076.926
 30
1137.051
 70
    32
  0
VERTEX
  8
T41SSILL
 62
4
 10
3723.448
 20
-7080.894
 30
1137.063
 70
    32
  0
VERTEX
  8
T41SSILL
 62
4
 10
3720.902
 20
-7068.435
 30
1137.054
 70
    32
  0
VERTEX
  8
T41SSILL
 62
4
 10
3716.350
 20
-7061.664
 30
1137.053
 70
    32
  0
VERTEX
  8
T41SSILL
 62
4
 10
3701.986
 20
-7071.765
 30
1137.081
 70
    32
  0
VERTEX
  8
T41SSILL
 62
4
 10
3695.661
 20
-7073.212
 30
1137.090
 70
    32
  0
VERTEX
  8
T41SSILL
 62
4
 10
3693.103
 20
-7073.249
 30
1137.093
 70
    32
  0
VERTEX
  8
T41SSILL
 62
4
 10
3688.145
 20
-7067.296
 30
1137.093
 70
    32
  0
VERTEX
  8
T41SSILL
 62
4
 10
3688.208
 20
-7064.884
 30
1137.091
 70
    32
  0
VERTEX
  8
T41SSILL
 62
4
 10
3669.831
 20
-7078.070
 30
1137.126
 70
    32
  0
VERTEX
  8
T41SSILL
 62
4
 10
3655.402
 20
-7068.838
 30
1137.134
 70
    32
  0
VERTEX
  8
T41SSILL
 62
4
 10
3650.653
 20
-7052.083
 30
1137.124
 70
    32
  0
VERTEX
  8
T41SSILL
 62
4
 10
3650.545
 20
-7044.729
 30
1137.117
 70
    32
  0
VERTEX
  8
T41SSILL
 62
4
 10
3583.299
 20
-6950.306
 30
1137.030
 70
    32
  0
VERTEX
  8
T41SSILL
 62
4
 10
3575.125
 20
-6934.832
 30
1136.998
 70
    32
  0
VERTEX
  8
T41SSILL
 62
4
 10
3571.365
 20
-6923.424
 30
1136.970
 70
    32
  0
VERTEX
  8
T41SSILL
 62
4
 10
3556.309
 20
-6930.018
 30
1137.014
 70
    32
  0
VERTEX
  8
T41SSILL
 62
4
 10
3553.846
 20
-6924.683
 30
1137.002
 70
    32
  0
VERTEX
  8
T41SSILL
 62
4
 10
3242.809
 20
-7146.102
 30
1137.582
 70
    32
  0
VERTEX
  8
T41SSILL
 62
4
 10
3238.270
 20
-7163.163
 30
1137.580
 70
    32
  0
VERTEX
  8
T41SSILL
 62
4
 10
3242.233
 20
-7176.033
 30
1137.577
 70
    32
  0
VERTEX
  8
T41SSILL
 62
4
 10
3325.805
 20
-7301.150
 30
1137.534
 70
    32
  0
VERTEX
  8
T41SSILL
 62
4
 10
3340.237
 20
-7291.832
 30
1137.532
 70
    32
  0
VERTEX
  8
T41SSILL
 62
4
 10
3344.404
 20
-7297.613
 30
1137.530
 70
    32
  0
VERTEX
  8
T41SSILL
 62
4
 10
3330.178
 20
-7307.217
 30
1137.532
 70
    32
  0
VERTEX
  8
T41SSILL
 62
4
 10
3331.958
 20
-7309.838
 30
1137.531
 70
    32
  0
VERTEX
  8
T41SSILL
 62
4
 10
3324.715
 20
-7314.083
 30
1137.532
 70
    32
  0
VERTEX
  8
T41SSILL
 62
4
 10
3281.029
 20
-7247.309
 30
1137.554
 70
    32
  0
VERTEX
  8
T41SSILL
 62
4
 10
3263.941
 20
-7248.129
 30
1137.558
 70
    32
  0
VERTEX
  8
T41SSILL
 62
4
 10
3256.478
 20
-7253.725
 30
1137.559
 70
    32
  0
VERTEX
  8
T41SSILL
 62
4
 10
3251.536
 20
-7250.780
 30
1137.561
 70
    32
  0
VERTEX
  8
T41SSILL
 62
4
 10
3250.096
 20
-7244.118
 30
1137.562
 70
    32
  0
VERTEX
  8
T41SSILL
 62
4
 10
3264.908
 20
-7235.176
 30
1137.560
 70
    32
  0
VERTEX
  8
T41SSILL
 62
4
 10
3269.715
 20
-7230.409
 30
1137.560
 70
    32
  0
VERTEX
  8
T41SSILL
 62
4
 10
3233.698
 20
-7175.026
 30
1137.579
 70
    32
  0
VERTEX
  8
T41SSILL
 62
4
 10
3231.272
 20
-7167.448
 30
1137.581
 70
    32
  0
VERTEX
  8
T41SSILL
 62
4
 10
3230.900
 20
-7154.579
 30
1137.583
 70
    32
  0
VERTEX
  8
T41SSILL
 62
4
 10
3148.176
 20
-7213.468
 30
1137.592
 70
    32
  0
VERTEX
  8
T41SSILL
 62
4
 10
3143.904
 20
-7214.915
 30
1137.593
 70
    32
  0
VERTEX
  8
T41SSILL
 62
4
 10
3124.635
 20
-7248.219
 30
1137.591
 70
    32
  0
VERTEX
  8
T41SSILL
 62
4
 10
3111.742
 20
-7263.586
 30
1137.591
 70
    32
  0
VERTEX
  8
T41SSILL
 62
4
 10
3103.894
 20
-7270.002
 30
1137.592
 70
    32
  0
VERTEX
  8
T41SSILL
 62
4
 10
3080.004
 20
-7282.451
 30
1137.595
 70
    32
  0
VERTEX
  8
T41SSILL
 62
4
 10
3049.336
 20
-7288.505
 30
1137.601
 70
    32
  0
VERTEX
  8
T41SSILL
 62
4
 10
1643.168
 20
-8301.097
 30
1137.815
 70
    32
  0
VERTEX
  8
T41SSILL
 62
4
 10
1634.613
 20
-8301.930
 30
1137.814
 70
    32
  0
VERTEX
  8
T41SSILL
 62
4
 10
1549.857
 20
-8542.210
 30
1138.050
 70
    32
  0
VERTEX
  8
T41SSILL
 62
4
 10
1354.490
 20
-9105.384
 30
1139.039
 70
    32
  0
VERTEX
  8
T41SSILL
 62
4
 10
1372.818
 20
-9092.440
 30
1138.992
 70
    32
  0
VERTEX
  8
T41SSILL
 62
4
 10
1380.178
 20
-9102.140
 30
1138.992
 70
    32
  0
VERTEX
  8
T41SSILL
 62
4
 10
1373.306
 20
-9107.643
 30
1139.010
 70
    32
  0
VERTEX
  8
T41SSILL
 62
4
 10
1370.445
 20
-9103.494
 30
1139.010
 70
    32
  0
VERTEX
  8
T41SSILL
 62
4
 10
1348.945
 20
-9118.679
 30
1139.065
 70
    32
  0
VERTEX
  8
T41SSILL
 62
4
 10
1071.019
 20
-9914.677
 30
1140.533
 70
    32
  0
VERTEX
  8
T41SSILL
 62
4
 10
1072.564
 20
-9920.534
 30
1140.537
 70
    32
  0
VERTEX
  8
T41SSILL
 62
4
 10
1075.301
 20
-9921.431
 30
1140.534
 70
    32
  0
VERTEX
  8
T41SSILL
 62
4
 10
1082.169
 20
-9917.282
 30
1140.517
 70
    32
  0
VERTEX
  8
T41SSILL
 62
4
 10
1085.527
 20
-9919.848
 30
1140.515
 70
    32
  0
VERTEX
  8
T41SSILL
 62
4
 10
1086.108
 20
-9925.256
 30
1140.521
 70
    32
  0
VERTEX
  8
T41SSILL
 62
4
 10
1084.735
 20
-9928.518
 30
1140.527
 70
    32
  0
VERTEX
  8
T41SSILL
 62
4
 10
1069.893
 20
-9933.363
 30
1140.558
 70
    32
  0
VERTEX
  8
T41SSILL
 62
4
 10
1060.439
 20
-9945.982
 30
1140.590
 70
    32
  0
VERTEX
  8
T41SSILL
 62
4
 10
909.288
 20
-10379.366
 30
1141.277
 70
    32
  0
VERTEX
  8
T41SSILL
 62
4
 10
907.118
 20
-10389.754
 30
1141.295
 70
    32
  0
VERTEX
  8
T41SSILL
 62
4
 10
908.153
 20
-10397.252
 30
1141.303
 70
    32
  0
VERTEX
  8
T41SSILL
 62
4
 10
1000.689
 20
-10591.274
 30
1141.368
 70
    32
  0
VERTEX
  8
T41SSILL
 62
4
 10
1019.576
 20
-10577.315
 30
1141.311
 70
    32
  0
VERTEX
  8
T41SSILL
 62
4
 10
1026.088
 20
-10586.494
 30
1141.310
 70
    32
  0
VERTEX
  8
T41SSILL
 62
4
 10
1018.987
 20
-10591.433
 30
1141.331
 70
    32
  0
VERTEX
  8
T41SSILL
 62
4
 10
1016.298
 20
-10588.035
 30
1141.332
 70
    32
  0
VERTEX
  8
T41SSILL
 62
4
 10
1003.411
 20
-10596.994
 30
1141.370
 70
    32
  0
VERTEX
  8
T41SSILL
 62
4
 10
1217.322
 20
-11050.343
 30
1141.530
 70
    32
  0
VERTEX
  8
T41SSILL
 62
4
 10
1237.352
 20
-11036.327
 30
1141.579
 70
    32
  0
VERTEX
  8
T41SSILL
 62
4
 10
1243.327
 20
-11044.787
 30
1141.594
 70
    32
  0
VERTEX
  8
T41SSILL
 62
4
 10
1237.024
 20
-11049.151
 30
1141.579
 70
    32
  0
VERTEX
  8
T41SSILL
 62
4
 10
1234.675
 20
-11046.469
 30
1141.573
 70
    32
  0
VERTEX
  8
T41SSILL
 62
4
 10
1220.184
 20
-11056.971
 30
1141.538
 70
    32
  0
VERTEX
  8
T41SSILL
 62
4
 10
1436.976
 20
-11512.831
 30
1141.928
 70
    32
  0
VERTEX
  8
T41SSILL
 62
4
 10
1460.657
 20
-11495.024
 30
1141.865
 70
    32
  0
VERTEX
  8
T41SSILL
 62
4
 10
1466.610
 20
-11503.234
 30
1141.866
 70
    32
  0
VERTEX
  8
T41SSILL
 62
4
 10
1461.570
 20
-11507.228
 30
1141.879
 70
    32
  0
VERTEX
  8
T41SSILL
 62
4
 10
1459.626
 20
-11504.926
 30
1141.880
 70
    32
  0
VERTEX
  8
T41SSILL
 62
4
 10
1439.904
 20
-11519.338
 30
1141.931
 70
    32
  0
VERTEX
  8
T41SSILL
 62
4
 10
1652.303
 20
-11970.884
 30
1142.142
 70
    32
  0
VERTEX
  8
T41SSILL
 62
4
 10
1674.395
 20
-11954.885
 30
1142.085
 70
    32
  0
VERTEX
  8
T41SSILL
 62
4
 10
1680.887
 20
-11962.164
 30
1142.083
 70
    32
  0
VERTEX
  8
T41SSILL
 62
4
 10
1675.245
 20
-11966.535
 30
1142.098
 70
    32
  0
VERTEX
  8
T41SSILL
 62
4
 10
1674.003
 20
-11964.489
 30
1142.098
 70
    32
  0
VERTEX
  8
T41SSILL
 62
4
 10
1655.150
 20
-11977.429
 30
1142.145
 70
    32
  0
VERTEX
  8
T41SSILL
 62
4
 10
1870.557
 20
-12428.549
 30
1142.351
 70
    32
  0
VERTEX
  8
T41SSILL
 62
4
 10
1893.497
 20
-12411.864
 30
1142.291
 70
    32
  0
VERTEX
  8
T41SSILL
 62
4
 10
1899.226
 20
-12419.594
 30
1142.292
 70
    32
  0
VERTEX
  8
T41SSILL
 62
4
 10
1894.506
 20
-12423.440
 30
1142.304
 70
    32
  0
VERTEX
  8
T41SSILL
 62
4
 10
1893.178
 20
-12421.628
 30
1142.304
 70
    32
  0
VERTEX
  8
T41SSILL
 62
4
 10
1873.924
 20
-12436.211
 30
1142.355
 70
    32
  0
VERTEX
  8
T41SSILL
 62
4
 10
2018.183
 20
-12738.855
 30
1142.555
 70
    32
  0
VERTEX
  8
T41SSILL
 62
4
 10
2087.998
 20
-12889.270
 30
1142.727
 70
    32
  0
VERTEX
  8
T41SSILL
 62
4
 10
2110.710
 20
-12873.669
 30
1142.715
 70
    32
  0
VERTEX
  8
T41SSILL
 62
4
 10
2117.634
 20
-12883.348
 30
1142.727
 70
    32
  0
VERTEX
  8
T41SSILL
 62
4
 10
2109.764
 20
-12888.946
 30
1142.731
 70
    32
  0
VERTEX
  8
T41SSILL
 62
4
 10
2107.495
 20
-12885.734
 30
1142.727
 70
    32
  0
VERTEX
  8
T41SSILL
 62
4
 10
2091.642
 20
-12896.692
 30
1142.736
 70
    32
  0
VERTEX
  8
T41SSILL
 62
4
 10
2141.151
 20
-13001.100
 30
1142.855
 70
    32
  0
VERTEX
  8
T41SSILL
 62
4
 10
2140.345
 20
-13467.243
 30
1143.345
 70
    32
  0
VERTEX
  8
T41SSILL
 62
4
 10
2157.023
 20
-13454.932
 30
1143.335
 70
    32
  0
VERTEX
  8
T41SSILL
 62
4
 10
2164.447
 20
-13463.602
 30
1143.346
 70
    32
  0
VERTEX
  8
T41SSILL
 62
4
 10
2157.300
 20
-13468.670
 30
1143.350
 70
    32
  0
VERTEX
  8
T41SSILL
 62
4
 10
2155.074
 20
-13465.341
 30
1143.346
 70
    32
  0
VERTEX
  8
T41SSILL
 62
4
 10
2139.529
 20
-13476.544
 30
1143.355
 70
    32
  0
VERTEX
  8
T41SSILL
 62
4
 10
2138.208
 20
-14103.031
 30
1143.992
 70
    32
  0
VERTEX
  8
T41SSILL
 62
4
 10
2130.429
 20
-14104.029
 30
1143.993
 70
    32
  0
VERTEX
  8
T41SSILL
 62
4
 10
2130.492
 20
-14097.696
 30
1143.992
 70
    32
  0
VERTEX
  8
T41SSILL
 62
4
 10
2118.968
 20
-14105.866
 30
1143.965
 70
    32
  0
VERTEX
  8
T41SSILL
 62
4
 10
2111.959
 20
-14096.421
 30
1143.947
 70
    32
  0
VERTEX
  8
T41SSILL
 62
4
 10
2119.074
 20
-14091.076
 30
1143.964
 70
    32
  0
VERTEX
  8
T41SSILL
 62
4
 10
2121.933
 20
-14094.305
 30
1143.971
 70
    32
  0
VERTEX
  8
T41SSILL
 62
4
 10
2131.421
 20
-14087.179
 30
1143.994
 70
    32
  0
VERTEX
  8
T41SSILL
 62
4
 10
2131.499
 20
-13482.216
 30
1143.359
 70
    32
  0
VERTEX
  8
T41SSILL
 62
4
 10
2112.971
 20
-13495.970
 30
1143.370
 70
    32
  0
VERTEX
  8
T41SSILL
 62
4
 10
2106.642
 20
-13486.111
 30
1143.358
 70
    32
  0
VERTEX
  8
T41SSILL
 62
4
 10
2114.427
 20
-13480.746
 30
1143.354
 70
    32
  0
VERTEX
  8
T41SSILL
 62
4
 10
2117.015
 20
-13483.810
 30
1143.358
 70
    32
  0
VERTEX
  8
T41SSILL
 62
4
 10
2131.959
 20
-13472.984
 30
1143.349
 70
    32
  0
VERTEX
  8
T41SSILL
 62
4
 10
2132.729
 20
-13002.591
 30
1142.855
 70
    32
  0
VERTEX
  8
T41SSILL
 62
4
 10
2084.783
 20
-12901.336
 30
1142.739
 70
    32
  0
VERTEX
  8
T41SSILL
 62
4
 10
2062.564
 20
-12917.581
 30
1142.752
 70
    32
  0
VERTEX
  8
T41SSILL
 62
4
 10
2055.147
 20
-12907.258
 30
1142.739
 70
    32
  0
VERTEX
  8
T41SSILL
 62
4
 10
2062.018
 20
-12902.222
 30
1142.736
 70
    32
  0
VERTEX
  8
T41SSILL
 62
4
 10
2064.557
 20
-12905.599
 30
1142.740
 70
    32
  0
VERTEX
  8
T41SSILL
 62
4
 10
2081.383
 20
-12893.606
 30
1142.730
 70
    32
  0
VERTEX
  8
T41SSILL
 62
4
 10
2011.271
 20
-12742.165
 30
1142.557
 70
    32
  0
VERTEX
  8
T41SSILL
 62
4
 10
1867.372
 20
-12440.714
 30
1142.372
 70
    32
  0
VERTEX
  8
T41SSILL
 62
4
 10
1844.335
 20
-12458.026
 30
1142.432
 70
    32
  0
VERTEX
  8
T41SSILL
 62
4
 10
1838.477
 20
-12450.647
 30
1142.433
 70
    32
  0
VERTEX
  8
T41SSILL
 62
4
 10
1843.714
 20
-12446.659
 30
1142.419
 70
    32
  0
VERTEX
  8
T41SSILL
 62
4
 10
1844.659
 20
-12448.065
 30
1142.419
 70
    32
  0
VERTEX
  8
T41SSILL
 62
4
 10
1864.042
 20
-12433.131
 30
1142.368
 70
    32
  0
VERTEX
  8
T41SSILL
 62
4
 10
1650.025
 20
-11981.657
 30
1142.159
 70
    32
  0
VERTEX
  8
T41SSILL
 62
4
 10
1627.664
 20
-11998.752
 30
1142.218
 70
    32
  0
VERTEX
  8
T41SSILL
 62
4
 10
1621.532
 20
-11989.946
 30
1142.218
 70
    32
  0
VERTEX
  8
T41SSILL
 62
4
 10
1626.204
 20
-11986.414
 30
1142.205
 70
    32
  0
VERTEX
  8
T41SSILL
 62
4
 10
1627.894
 20
-11987.960
 30
1142.204
 70
    32
  0
VERTEX
  8
T41SSILL
 62
4
 10
1646.703
 20
-11975.138
 30
1142.157
 70
    32
  0
VERTEX
  8
T41SSILL
 62
4
 10
1434.139
 20
-11523.863
 30
1141.946
 70
    32
  0
VERTEX
  8
T41SSILL
 62
4
 10
1411.907
 20
-11540.607
 30
1142.005
 70
    32
  0
VERTEX
  8
T41SSILL
 62
4
 10
1406.049
 20
-11533.228
 30
1142.005
 70
    32
  0
VERTEX
  8
T41SSILL
 62
4
 10
1431.143
 20
-11516.999
 30
1141.943
 70
    32
  0
VERTEX
  8
T41SSILL
 62
4
 10
1214.115
 20
-11061.418
 30
1141.549
 70
    32
  0
VERTEX
  8
T41SSILL
 62
4
 10
1192.757
 20
-11076.943
 30
1141.613
 70
    32
  0
VERTEX
  8
T41SSILL
 62
4
 10
1187.493
 20
-11068.339
 30
1141.612
 70
    32
  0
VERTEX
  8
T41SSILL
 62
4
 10
1193.880
 20
-11063.741
 30
1141.593
 70
    32
  0
VERTEX
  8
T41SSILL
 62
4
 10
1195.483
 20
-11066.291
 30
1141.593
 70
    32
  0
VERTEX
  8
T41SSILL
 62
4
 10
1210.947
 20
-11054.351
 30
1141.546
 70
    32
  0
VERTEX
  8
T41SSILL
 62
4
 10
996.506
 20
-10601.937
 30
1141.391
 70
    32
  0
VERTEX
  8
T41SSILL
 62
4
 10
976.979
 20
-10616.395
 30
1141.449
 70
    32
  0
VERTEX
  8
T41SSILL
 62
4
 10
970.278
 20
-10606.819
 30
1141.451
 70
    32
  0
VERTEX
  8
T41SSILL
 62
4
 10
977.334
 20
-10602.194
 30
1141.430
 70
    32
  0
VERTEX
  8
T41SSILL
 62
4
 10
979.713
 20
-10605.350
 30
1141.429
 70
    32
  0
VERTEX
  8
T41SSILL
 62
4
 10
993.837
 20
-10595.509
 30
1141.388
 70
    32
  0
VERTEX
  8
T41SSILL
 62
4
 10
905.290
 20
-10408.846
 30
1141.324
 70
    32
  0
VERTEX
  8
T41SSILL
 62
4
 10
900.338
 20
-10394.345
 30
1141.315
 70
    32
  0
VERTEX
  8
T41SSILL
 62
4
 10
900.112
 20
-10387.728
 30
1141.307
 70
    32
  0
VERTEX
  8
T41SSILL
 62
4
 10
908.383
 20
-10361.087
 30
1141.255
 70
    32
  0
VERTEX
  8
T41SSILL
 62
4
 10
1047.629
 20
-9957.657
 30
1140.626
 70
    32
  0
VERTEX
  8
T41SSILL
 62
4
 10
1044.510
 20
-9952.802
 30
1140.625
 70
    32
  0
VERTEX
  8
T41SSILL
 62
4
 10
1034.904
 20
-9958.486
 30
1140.648
 70
    32
  0
VERTEX
  8
T41SSILL
 62
4
 10
1031.128
 20
-9944.350
 30
1140.637
 70
    32
  0
VERTEX
  8
T41SSILL
 62
4
 10
1034.094
 20
-9942.271
 30
1140.629
 70
    32
  0
VERTEX
  8
T41SSILL
 62
4
 10
1035.372
 20
-9944.302
 30
1140.630
 70
    32
  0
VERTEX
  8
T41SSILL
 62
4
 10
1041.391
 20
-9946.325
 30
1140.622
 70
    32
  0
VERTEX
  8
T41SSILL
 62
4
 10
1056.873
 20
-9932.361
 30
1140.579
 70
    32
  0
VERTEX
  8
T41SSILL
 62
4
 10
1337.174
 20
-9125.756
 30
1139.093
 70
    32
  0
VERTEX
  8
T41SSILL
 62
4
 10
1318.666
 20
-9139.001
 30
1139.141
 70
    32
  0
VERTEX
  8
T41SSILL
 62
4
 10
1313.171
 20
-9130.095
 30
1139.139
 70
    32
  0
VERTEX
  8
T41SSILL
 62
4
 10
1319.060
 20
-9126.108
 30
1139.124
 70
    32
  0
VERTEX
  8
T41SSILL
 62
4
 10
1321.092
 20
-9128.884
 30
1139.124
 70
    32
  0
VERTEX
  8
T41SSILL
 62
4
 10
1341.686
 20
-9114.128
 30
1139.071
 70
    32
  0
VERTEX
  8
T41SSILL
 62
4
 10
1494.111
 20
-8668.070
 30
1138.254
 70
    32
  0
VERTEX
  8
T41SSILL
 62
4
 10
1623.489
 20
-8309.754
 30
1137.820
 70
    32
  0
VERTEX
  8
T41SSILL
 62
4
 10
1622.308
 20
-8306.774
 30
1137.817
 70
    32
  0
VERTEX
  8
T41SSILL
 62
4
 10
1625.325
 20
-8302.247
 30
1137.813
 70
    32
  0
VERTEX
  8
T41SSILL
 62
4
 10
1486.852
 20
-8304.662
 30
1137.810
 70
    32
  0
VERTEX
  8
T41SSILL
 62
4
 10
1475.228
 20
-8299.962
 30
1137.823
 70
    32
  0
VERTEX
  8
T41SSILL
 62
4
 10
1243.728
 20
-8304.442
 30
1138.218
 70
    32
  0
VERTEX
  8
T41SSILL
 62
4
 10
1052.570
 20
-8312.987
 30
1138.549
 70
    32
  0
VERTEX
  8
T41SSILL
 62
4
 10
1045.195
 20
-8310.587
 30
1138.559
 70
    32
  0
VERTEX
  8
T41SSILL
 62
4
 10
1035.217
 20
-8302.955
 30
1138.566
 70
    32
  0
VERTEX
  8
T41SSILL
 62
4
 10
945.684
 20
-8177.829
 30
1138.559
 70
    32
  0
VERTEX
  8
T41SSILL
 62
4
 10
921.532
 20
-8195.305
 30
1138.622
 70
    32
  0
VERTEX
  8
T41SSILL
 62
4
 10
916.004
 20
-8187.448
 30
1138.621
 70
    32
  0
VERTEX
  8
T41SSILL
 62
4
 10
921.613
 20
-8183.143
 30
1138.606
 70
    32
  0
VERTEX
  8
T41SSILL
 62
4
 10
922.864
 20
-8185.270
 30
1138.607
 70
    32
  0
VERTEX
  8
T41SSILL
 62
4
 10
941.285
 20
-8172.072
 30
1138.559
 70
    32
  0
VERTEX
  8
T41SSILL
 62
4
 10
654.108
 20
-7771.471
 30
1138.538
 70
    32
  0
VERTEX
  8
T41SSILL
 62
4
 10
630.523
 20
-7788.689
 30
1138.599
 70
    32
  0
VERTEX
  8
T41SSILL
 62
4
 10
624.793
 20
-7781.170
 30
1138.599
 70
    32
  0
VERTEX
  8
T41SSILL
 62
4
 10
630.388
 20
-7776.352
 30
1138.584
 70
    32
  0
VERTEX
  8
T41SSILL
 62
4
 10
632.267
 20
-7778.809
 30
1138.584
 70
    32
  0
VERTEX
  8
T41SSILL
 62
4
 10
650.262
 20
-7766.091
 30
1138.537
 70
    32
  0
VERTEX
  8
T41SSILL
 62
4
 10
362.909
 20
-7364.558
 30
1138.515
 70
    32
  0
VERTEX
  8
T41SSILL
 62
4
 10
340.728
 20
-7380.047
 30
1138.572
 70
    32
  0
VERTEX
  8
T41SSILL
 62
4
 10
335.012
 20
-7373.041
 30
1138.573
 70
    32
  0
VERTEX
  8
T41SSILL
 62
4
 10
340.108
 20
-7368.750
 30
1138.559
 70
    32
  0
VERTEX
  8
T41SSILL
 62
4
 10
342.189
 20
-7370.869
 30
1138.558
 70
    32
  0
VERTEX
  8
T41SSILL
 62
4
 10
358.551
 20
-7359.192
 30
1138.516
 70
    32
  0
VERTEX
  8
T41SSILL
 62
4
 10
291.237
 20
-7267.669
 30
1138.514
 70
    32
  0
VERTEX
  8
T41SSILL
 62
4
 10
284.300
 20
-7265.383
 30
1138.522
 70
    32
  0
VERTEX
  8
T41SSILL
 62
4
 10
277.871
 20
-7267.249
 30
1138.536
 70
    32
  0
VERTEX
  8
T41SSILL
 62
4
 10
251.571
 20
-7240.171
 30
1138.546
 70
    32
  0
VERTEX
  8
T41SSILL
 62
4
 10
246.920
 20
-7238.558
 30
1138.551
 70
    32
  0
VERTEX
  8
T41SSILL
 62
4
 10
255.690
 20
-7227.039
 30
1138.522
 70
    32
  0
VERTEX
  8
T41SSILL
 62
4
 10
257.172
 20
-7227.945
 30
1138.521
 70
    32
  0
VERTEX
  8
T41SSILL
 62
4
 10
259.641
 20
-7226.241
 30
1138.515
 70
    32
  0
VERTEX
  8
T41SSILL
 62
4
 10
259.349
 20
-7223.334
 30
1138.511
 70
    32
  0
VERTEX
  8
T41SSILL
 62
4
 10
143.129
 20
-7061.326
 30
1138.503
 70
    32
  0
VERTEX
  8
T41SSILL
 62
4
 10
129.916
 20
-7050.724
 30
1138.512
 70
    32
  0
VERTEX
  8
T41SSILL
 62
4
 10
116.780
 20
-7044.893
 30
1138.526
 70
    32
  0
VERTEX
  8
T41SSILL
 62
4
 10
101.796
 20
-7024.582
 30
1138.527
 70
    32
  0
VERTEX
  8
T41SSILL
 62
4
 10
81.758
 20
-7020.085
 30
1138.562
 70
    32
  0
VERTEX
  8
T41SSILL
 62
4
 10
30.644
 20
-7056.438
 30
1138.714
 70
    32
  0
VERTEX
  8
T41SSILL
 62
4
 10
27.827
 20
-7060.741
 30
1138.726
 70
    32
  0
VERTEX
  8
T41SSILL
 62
4
 10
9.173
 20
-7075.331
 30
1138.783
 70
    32
  0
VERTEX
  8
T41SSILL
 62
4
 10
-16.611
 20
-7090.771
 30
1138.856
 70
    32
  0
VERTEX
  8
T41SSILL
 62
4
 10
-23.115
 20
-7081.970
 30
1138.857
 70
    32
  0
VERTEX
  8
T41SSILL
 62
4
 10
-25.884
 20
-7075.628
 30
1138.855
 70
    32
  0
VERTEX
  8
T41SSILL
 62
4
 10
-25.620
 20
-7061.726
 30
1138.836
 70
    32
  0
VERTEX
  8
T41SSILL
 62
4
 10
-22.502
 20
-7050.249
 30
1138.814
 70
    32
  0
VERTEX
  8
T41SSILL
 62
4
 10
-26.084
 20
-7034.501
 30
1138.801
 70
    32
  0
VERTEX
  8
T41SSILL
 62
4
 10
-38.462
 20
-7017.965
 30
1138.805
 70
    32
  0
VERTEX
  8
T41SSILL
 62
4
 10
-35.734
 20
-7009.651
 30
1138.788
 70
    32
  0
VERTEX
  8
T41SSILL
 62
4
 10
-45.203
 20
-6999.038
 30
1138.794
 70
    32
  0
VERTEX
  8
T41SSILL
 62
4
 10
-50.796
 20
-6989.072
 30
1138.792
 70
    32
  0
VERTEX
  8
T41SSILL
 62
4
 10
-56.330
 20
-6988.819
 30
1138.803
 70
    32
  0
VERTEX
  8
T41SSILL
 62
4
 10
-63.990
 20
-6969.026
 30
1138.793
 70
    32
  0
VERTEX
  8
T41SSILL
 62
4
 10
-68.481
 20
-6965.159
 30
1138.797
 70
    32
  0
VERTEX
  8
T41SSILL
 62
4
 10
-82.195
 20
-6958.334
 30
1138.816
 70
    32
  0
VERTEX
  8
T41SSILL
 62
4
 10
-84.558
 20
-6952.891
 30
1138.814
 70
    32
  0
VERTEX
  8
T41SSILL
 62
4
 10
-87.032
 20
-6942.165
 30
1138.804
 70
    32
  0
VERTEX
  8
T41SSILL
 62
4
 10
-83.839
 20
-6936.853
 30
1138.791
 70
    32
  0
VERTEX
  8
T41SSILL
 62
4
 10
-80.255
 20
-6919.374
 30
1138.761
 70
    32
  0
VERTEX
  8
T41SSILL
 62
4
 10
-91.901
 20
-6905.762
 30
1138.767
 70
    32
  0
VERTEX
  8
T41SSILL
 62
4
 10
-96.396
 20
-6888.071
 30
1138.753
 70
    32
  0
VERTEX
  8
T41SSILL
 62
4
 10
-91.946
 20
-6881.784
 30
1138.735
 70
    32
  0
VERTEX
  8
T41SSILL
 62
4
 10
-91.925
 20
-6878.554
 30
1138.731
 70
    32
  0
VERTEX
  8
T41SSILL
 62
4
 10
-101.495
 20
-6840.466
 30
1138.701
 70
    32
  0
VERTEX
  8
T41SSILL
 62
4
 10
-89.628
 20
-6835.919
 30
1138.671
 70
    32
  0
VERTEX
  8
T41SSILL
 62
4
 10
-88.681
 20
-6836.980
 30
1138.670
 70
    32
  0
VERTEX
  8
T41SSILL
 62
4
 10
-79.469
 20
-6868.028
 30
1138.692
 70
    32
  0
VERTEX
  8
T41SSILL
 62
4
 10
-77.429
 20
-6885.269
 30
1138.710
 70
    32
  0
VERTEX
  8
T41SSILL
 62
4
 10
-73.277
 20
-6887.869
 30
1138.705
 70
    32
  0
VERTEX
  8
T41SSILL
 62
4
 10
-72.828
 20
-6889.917
 30
1138.707
 70
    32
  0
VERTEX
  8
T41SSILL
 62
4
 10
-75.692
 20
-6895.860
 30
1138.721
 70
    32
  0
VERTEX
  8
T41SSILL
 62
4
 10
-74.912
 20
-6900.252
 30
1138.725
 70
    32
  0
VERTEX
  8
T41SSILL
 62
4
 10
-65.394
 20
-6919.941
 30
1138.731
 70
    32
  0
VERTEX
  8
T41SSILL
 62
4
 10
-61.662
 20
-6923.796
 30
1138.729
 70
    32
  0
VERTEX
  8
T41SSILL
 62
4
 10
-52.412
 20
-6923.842
 30
1138.710
 70
    32
  0
VERTEX
  8
T41SSILL
 62
4
 10
-5.895
 20
-6895.271
 30
1138.577
 70
    32
  0
VERTEX
  8
T41SSILL
 62
4
 10
7.344
 20
-6890.849
 30
1138.545
 70
    32
  0
VERTEX
  8
T41SSILL
 62
4
 10
-65.934
 20
-6769.263
 30
1138.556
 70
    32
  0
VERTEX
  8
T41SSILL
 62
4
 10
-186.044
 20
-6601.826
 30
1138.596
 70
    32
  0
VERTEX
  8
T41SSILL
 62
4
 10
-192.550
 20
-6606.531
 30
1138.594
 70
    32
  0
VERTEX
  8
T41SSILL
 62
4
 10
-196.719
 20
-6599.870
 30
1138.596
 70
    32
  0
VERTEX
  8
T41SSILL
 62
4
 10
-190.375
 20
-6595.706
 30
1138.598
 70
    32
  0
VERTEX
  8
T41SSILL
 62
4
 10
-220.615
 20
-6553.449
 30
1138.608
 70
    32
  0
VERTEX
  8
T41SSILL
 62
4
 10
-243.332
 20
-6569.451
 30
1138.635
 70
    32
  0
VERTEX
  8
T41SSILL
 62
4
 10
-247.997
 20
-6562.381
 30
1138.635
 70
    32
  0
VERTEX
  8
T41SSILL
 62
4
 10
-225.515
 20
-6546.971
 30
1138.610
 70
    32
  0
VERTEX
  8
T41SSILL
 62
4
 10
-512.851
 20
-6148.162
 30
1138.705
 70
    32
  0
VERTEX
  8
T41SSILL
 62
4
 10
-537.216
 20
-6165.651
 30
1138.705
 70
    32
  0
VERTEX
  8
T41SSILL
 62
4
 10
-543.459
 20
-6156.162
 30
1138.706
 70
    32
  0
VERTEX
  8
T41SSILL
 62
4
 10
-537.890
 20
-6152.007
 30
1138.701
 70
    32
  0
VERTEX
  8
T41SSILL
 62
4
 10
-536.041
 20
-6154.251
 30
1138.700
 70
    32
  0
VERTEX
  8
T41SSILL
 62
4
 10
-517.549
 20
-6141.248
 30
1138.707
 70
    32
  0
VERTEX
  8
T41SSILL
 62
4
 10
-802.128
 20
-5742.153
 30
1138.803
 70
    32
  0
VERTEX
  8
T41SSILL
 62
4
 10
-826.299
 20
-5759.609
 30
1138.794
 70
    32
  0
VERTEX
  8
T41SSILL
 62
4
 10
-833.020
 20
-5750.360
 30
1138.796
 70
    32
  0
VERTEX
  8
T41SSILL
 62
4
 10
-827.632
 20
-5746.553
 30
1138.798
 70
    32
  0
VERTEX
  8
T41SSILL
 62
4
 10
-825.946
 20
-5749.024
 30
1138.798
 70
    32
  0
VERTEX
  8
T41SSILL
 62
4
 10
-807.344
 20
-5735.724
 30
1138.804
 70
    32
  0
VERTEX
  8
T41SSILL
 62
4
 10
-1093.228
 20
-5335.729
 30
1138.900
 70
    32
  0
VERTEX
  8
T41SSILL
 62
4
 10
-1117.179
 20
-5352.590
 30
1138.892
 70
    32
  0
VERTEX
  8
T41SSILL
 62
4
 10
-1121.431
 20
-5346.439
 30
1138.893
 70
    32
  0
VERTEX
  8
T41SSILL
 62
4
 10
-1097.888
 20
-5329.765
 30
1138.902
 70
    32
  0
VERTEX
  8
T41SSILL
 62
4
 10
-1287.290
 20
-5064.487
 30
1138.966
 70
    32
  0
VERTEX
  8
T41SSILL
 62
4
 10
-1358.092
 20
-4968.100
 30
1138.988
 70
    32
  0
VERTEX
  8
T41SSILL
 62
4
 10
-1373.761
 20
-4962.753
 30
1138.988
 70
    32
  0
VERTEX
  8
T41SSILL
 62
4
 10
-1382.677
 20
-4951.354
 30
1138.991
 70
    32
  0
VERTEX
  8
T41SSILL
 62
4
 10
-1377.519
 20
-4941.295
 30
1138.995
 70
    32
  0
VERTEX
  8
T41SSILL
 62
4
 10
-1386.261
 20
-4929.043
 30
1138.998
 70
    32
  0
VERTEX
  8
T41SSILL
 62
4
 10
-1395.504
 20
-4935.940
 30
1138.994
 70
    32
  0
VERTEX
  8
T41SSILL
 62
4
 10
-1403.088
 20
-4925.230
 30
1138.997
 70
    32
  0
VERTEX
  8
T41SSILL
 62
4
 10
-1393.716
 20
-4918.576
 30
1138.999
 70
    32
  0
VERTEX
  8
T41SSILL
 62
4
 10
-1403.001
 20
-4905.535
 30
1138.988
 70
    32
  0
VERTEX
  8
T41SSILL
 62
4
 10
-1396.173
 20
-4901.953
 30
1138.982
 70
    32
  0
VERTEX
  8
T41SSILL
 62
4
 10
-1384.468
 20
-4918.046
 30
1138.995
 70
    32
  0
VERTEX
  8
T41SSILL
 62
4
 10
-1374.587
 20
-4910.979
 30
1138.983
 70
    32
  0
VERTEX
  8
T41SSILL
 62
4
 10
-1368.502
 20
-4918.842
 30
1138.980
 70
    32
  0
VERTEX
  8
T41SSILL
 62
4
 10
-1378.421
 20
-4926.386
 30
1138.993
 70
    32
  0
VERTEX
  8
T41SSILL
 62
4
 10
-1370.650
 20
-4937.171
 30
1138.990
 70
    32
  0
VERTEX
  8
T41SSILL
 62
4
 10
-1359.475
 20
-4936.843
 30
1138.973
 70
    32
  0
VERTEX
  8
T41SSILL
 62
4
 10
-1347.911
 20
-4951.447
 30
1138.968
 70
    32
  0
VERTEX
  8
T41SSILL
 62
4
 10
-1352.290
 20
-4962.362
 30
1138.984
 70
    32
  0
VERTEX
  8
T41SSILL
 62
4
 10
-1282.522
 20
-5057.434
 30
1138.958
 70
    32
  0
VERTEX
  8
T41SSILL
 62
4
 10
-1098.807
 20
-5314.886
 30
1138.896
 70
    32
  0
VERTEX
  8
T41SSILL
 62
4
 10
-1066.738
 20
-5309.195
 30
1138.843
 70
    32
  0
VERTEX
  8
T41SSILL
 62
4
 10
-1060.535
 20
-5318.930
 30
1138.842
 70
    32
  0
VERTEX
  8
T41SSILL
 62
4
 10
-1062.818
 20
-5319.827
 30
1138.846
 70
    32
  0
VERTEX
  8
T41SSILL
 62
4
 10
-1071.132
 20
-5333.371
 30
1138.870
 70
    32
  0
VERTEX
  8
T41SSILL
 62
4
 10
-1076.317
 20
-5347.032
 30
1138.889
 70
    32
  0
VERTEX
  8
T41SSILL
 62
4
 10
-801.497
 20
-5731.801
 30
1138.797
 70
    32
  0
VERTEX
  8
T41SSILL
 62
4
 10
-776.239
 20
-5713.447
 30
1138.743
 70
    32
  0
VERTEX
  8
T41SSILL
 62
4
 10
-769.783
 20
-5722.780
 30
1138.741
 70
    32
  0
VERTEX
  8
T41SSILL
 62
4
 10
-775.682
 20
-5726.631
 30
1138.753
 70
    32
  0
VERTEX
  8
T41SSILL
 62
4
 10
-777.149
 20
-5724.762
 30
1138.754
 70
    32
  0
VERTEX
  8
T41SSILL
 62
4
 10
-796.604
 20
-5738.683
 30
1138.796
 70
    32
  0
VERTEX
  8
T41SSILL
 62
4
 10
-511.224
 20
-6137.086
 30
1138.699
 70
    32
  0
VERTEX
  8
T41SSILL
 62
4
 10
-487.370
 20
-6119.643
 30
1138.648
 70
    32
  0
VERTEX
  8
T41SSILL
 62
4
 10
-480.442
 20
-6129.177
 30
1138.645
 70
    32
  0
VERTEX
  8
T41SSILL
 62
4
 10
-486.806
 20
-6133.585
 30
1138.659
 70
    32
  0
VERTEX
  8
T41SSILL
 62
4
 10
-488.823
 20
-6130.810
 30
1138.659
 70
    32
  0
VERTEX
  8
T41SSILL
 62
4
 10
-506.435
 20
-6143.826
 30
1138.697
 70
    32
  0
VERTEX
  8
T41SSILL
 62
4
 10
-219.372
 20
-6542.516
 30
1138.598
 70
    32
  0
VERTEX
  8
T41SSILL
 62
4
 10
-215.452
 20
-6539.810
 30
1138.590
 70
    32
  0
VERTEX
  8
T41SSILL
 62
4
 10
-210.357
 20
-6546.261
 30
1138.587
 70
    32
  0
VERTEX
  8
T41SSILL
 62
4
 10
-214.462
 20
-6549.630
 30
1138.597
 70
    32
  0
VERTEX
  8
T41SSILL
 62
4
 10
19.142
 20
-6875.953
 30
1138.517
 70
    32
  0
VERTEX
  8
T41SSILL
 62
4
 10
82.573
 20
-6959.930
 30
1138.492
 70
    32
  0
VERTEX
  8
T41SSILL
 62
4
 10
81.725
 20
-6963.516
 30
1138.496
 70
    32
  0
VERTEX
  8
T41SSILL
 62
4
 10
139.754
 20
-7044.791
 30
1138.488
 70
    32
  0
VERTEX
  8
T41SSILL
 62
4
 10
144.362
 20
-7045.255
 30
1138.481
 70
    32
  0
VERTEX
  8
T41SSILL
 62
4
 10
150.549
 20
-7052.667
 30
1138.480
 70
    32
  0
VERTEX
  8
T41SSILL
 62
4
 10
285.092
 20
-7237.183
 30
1138.486
 70
    32
  0
VERTEX
  8
T41SSILL
 62
4
 10
303.046
 20
-7232.293
 30
1138.449
 70
    32
  0
VERTEX
  8
T41SSILL
 62
4
 10
305.554
 20
-7242.138
 30
1138.457
 70
    32
  0
VERTEX
  8
T41SSILL
 62
4
 10
297.506
 20
-7252.838
 30
1138.484
 70
    32
  0
VERTEX
  8
T41SSILL
 62
4
 10
367.521
 20
-7351.806
 30
1138.491
 70
    32
  0
VERTEX
  8
T41SSILL
 62
4
 10
387.583
 20
-7338.398
 30
1138.441
 70
    32
  0
VERTEX
  8
T41SSILL
 62
4
 10
392.914
 20
-7345.128
 30
1138.440
 70
    32
  0
VERTEX
  8
T41SSILL
 62
4
 10
387.609
 20
-7350.074
 30
1138.455
 70
    32
  0
VERTEX
  8
T41SSILL
 62
4
 10
385.812
 20
-7348.400
 30
1138.456
 70
    32
  0
VERTEX
  8
T41SSILL
 62
4
 10
371.833
 20
-7358.246
 30
1138.492
 70
    32
  0
VERTEX
  8
T41SSILL
 62
4
 10
441.560
 20
-7457.364
 30
1138.500
 70
    32
  0
VERTEX
  8
T41SSILL
 62
4
 10
446.498
 20
-7460.691
 30
1138.496
 70
    32
  0
VERTEX
  8
T41SSILL
 62
4
 10
469.489
 20
-7468.592
 30
1138.467
 70
    32
  0
VERTEX
  8
T41SSILL
 62
4
 10
466.238
 20
-7475.779
 30
1138.481
 70
    32
  0
VERTEX
  8
T41SSILL
 62
4
 10
460.984
 20
-7475.890
 30
1138.490
 70
    32
  0
VERTEX
  8
T41SSILL
 62
4
 10
457.842
 20
-7483.738
 30
1138.506
 70
    32
  0
VERTEX
  8
T41SSILL
 62
4
 10
656.438
 20
-7760.381
 30
1138.520
 70
    32
  0
VERTEX
  8
T41SSILL
 62
4
 10
679.794
 20
-7744.770
 30
1138.461
 70
    32
  0
VERTEX
  8
T41SSILL
 62
4
 10
685.308
 20
-7752.114
 30
1138.461
 70
    32
  0
VERTEX
  8
T41SSILL
 62
4
 10
680.165
 20
-7756.331
 30
1138.475
 70
    32
  0
VERTEX
  8
T41SSILL
 62
4
 10
677.773
 20
-7753.887
 30
1138.476
 70
    32
  0
VERTEX
  8
T41SSILL
 62
4
 10
660.520
 20
-7766.133
 30
1138.520
 70
    32
  0
VERTEX
  8
T41SSILL
 62
4
 10
947.535
 20
-8167.463
 30
1138.543
 70
    32
  0
VERTEX
  8
T41SSILL
 62
4
 10
969.716
 20
-8151.974
 30
1138.486
 70
    32
  0
VERTEX
  8
T41SSILL
 62
4
 10
975.169
 20
-8158.730
 30
1138.485
 70
    32
  0
VERTEX
  8
T41SSILL
 62
4
 10
970.356
 20
-8162.319
 30
1138.498
 70
    32
  0
VERTEX
  8
T41SSILL
 62
4
 10
968.478
 20
-8161.010
 30
1138.500
 70
    32
  0
VERTEX
  8
T41SSILL
 62
4
 10
951.569
 20
-8173.140
 30
1138.543
 70
    32
  0
VERTEX
  8
T41SSILL
 62
4
 10
1037.718
 20
-8294.263
 30
1138.551
 70
    32
  0
VERTEX
  8
T41SSILL
 62
4
 10
1046.034
 20
-8301.909
 30
1138.546
 70
    32
  0
VERTEX
  8
T41SSILL
 62
4
 10
1243.817
 20
-8295.666
 30
1138.206
 70
    32
  0
VERTEX
  8
T41SSILL
 62
4
 10
1457.848
 20
-8291.785
 30
1137.842
 70
    32
  0
VERTEX
  8
T41SSILL
 62
4
 10
1372.371
 20
-8165.915
 30
1137.857
 70
    32
  0
VERTEX
  8
T41SSILL
 62
4
 10
1386.622
 20
-8155.752
 30
1137.871
 70
    32
  0
VERTEX
  8
T41SSILL
 62
4
 10
1470.286
 20
-8273.441
 30
1137.798
 70
    32
  0
VERTEX
  8
T41SSILL
 62
4
 10
1475.967
 20
-8276.965
 30
1137.793
 70
    32
  0
VERTEX
  8
T41SSILL
 62
4
 10
1478.822
 20
-8281.261
 30
1137.794
 70
    32
  0
VERTEX
  8
T41SSILL
 62
4
 10
1493.604
 20
-8288.298
 30
1137.785
 70
    32
  0
VERTEX
  8
T41SSILL
 62
4
 10
1635.045
 20
-8285.332
 30
1137.797
 70
    32
  0
VERTEX
  8
T41SSILL
 62
4
 10
2755.782
 20
-7476.353
 30
1137.636
 70
    32
  0
VERTEX
  8
T41SSILL
 62
4
 10
3069.214
 20
-7251.833
 30
1137.603
 70
    32
  0
VERTEX
  8
T41SSILL
 62
4
 10
3070.684
 20
-7248.605
 30
1137.604
 70
    32
  0
VERTEX
  8
T41SSILL
 62
4
 10
3075.454
 20
-7244.841
 30
1137.603
 70
    32
  0
VERTEX
  8
T41SSILL
 62
4
 10
3089.067
 20
-7235.137
 30
1137.602
 70
    32
  0
VERTEX
  8
T41SSILL
 62
4
 10
3098.745
 20
-7238.031
 30
1137.599
 70
    32
  0
VERTEX
  8
T41SSILL
 62
4
 10
3248.614
 20
-7131.856
 30
1137.583
 70
    32
  0
VERTEX
  8
T41SSILL
 62
4
 10
3164.791
 20
-7116.511
 30
1137.606
 70
    32
  0
VERTEX
  8
T41SSILL
 62
4
 10
3091.199
 20
-7015.244
 30
1137.642
 70
    32
  0
VERTEX
  8
T41SSILL
 62
4
 10
3070.940
 20
-6897.196
 30
1137.669
 70
    32
  0
VERTEX
  8
T41SSILL
 62
4
 10
3054.328
 20
-6901.845
 30
1137.664
 70
    32
  0
VERTEX
  8
T41SSILL
 62
4
 10
3050.462
 20
-6904.618
 30
1137.662
 70
    32
  0
VERTEX
  8
T41SSILL
 62
4
 10
3011.014
 20
-6920.655
 30
1137.612
 70
    32
  0
VERTEX
  8
T41SSILL
 62
4
 10
3004.155
 20
-6915.927
 30
1137.583
 70
    32
  0
VERTEX
  8
T41SSILL
 62
4
 10
3006.904
 20
-6907.668
 30
1137.567
 70
    32
  0
VERTEX
  8
T41SSILL
 62
4
 10
3023.566
 20
-6896.587
 30
1137.576
 70
    32
  0
VERTEX
  8
T41SSILL
 62
4
 10
3025.187
 20
-6892.498
 30
1137.569
 70
    32
  0
VERTEX
  8
T41SSILL
 62
4
 10
3037.438
 20
-6883.280
 30
1137.572
 70
    32
  0
VERTEX
  8
T41SSILL
 62
4
 10
3037.771
 20
-6880.872
 30
1137.553
 70
    32
  0
VERTEX
  8
T41SSILL
 62
4
 10
3034.237
 20
-6874.734
 30
1137.482
 70
    32
  0
VERTEX
  8
T41SSILL
 62
4
 10
3025.509
 20
-6845.329
 30
1137.524
 70
    32
  0
VERTEX
  8
T41SSILL
 62
4
 10
3025.350
 20
-6842.083
 30
1137.534
 70
    32
  0
VERTEX
  8
T41SSILL
 62
4
 10
3029.826
 20
-6837.139
 30
1137.577
 70
    32
  0
VERTEX
  8
T41SSILL
 62
4
 10
3021.390
 20
-6816.304
 30
1137.596
 70
    32
  0
VERTEX
  8
T41SSILL
 62
4
 10
3018.664
 20
-6803.734
 30
1137.621
 70
    32
  0
VERTEX
  8
T41SSILL
 62
4
 10
3021.815
 20
-6796.488
 30
1137.653
 70
    32
  0
VERTEX
  8
T41SSILL
 62
4
 10
3020.958
 20
-6792.875
 30
1137.650
 70
    32
  0
VERTEX
  8
T41SSILL
 62
4
 10
3018.942
 20
-6788.250
 30
1137.648
 70
    32
  0
VERTEX
  8
T41SSILL
 62
4
 10
3011.327
 20
-6779.293
 30
1137.651
 70
    32
  0
VERTEX
  8
T41SSILL
 62
4
 10
3016.152
 20
-6765.136
 30
1137.625
 70
    32
  0
VERTEX
  8
T41SSILL
 62
4
 10
3009.666
 20
-6761.989
 30
1137.633
 70
    32
  0
VERTEX
  8
T41SSILL
 62
4
 10
2997.354
 20
-6751.379
 30
1137.643
 70
    32
  0
VERTEX
  8
T41SSILL
 62
4
 10
2995.122
 20
-6745.629
 30
1137.640
 70
    32
  0
VERTEX
  8
T41SSILL
 62
4
 10
2998.533
 20
-6740.613
 30
1137.628
 70
    32
  0
VERTEX
  8
T41SSILL
 62
4
 10
2999.845
 20
-6732.538
 30
1137.616
 70
    32
  0
VERTEX
  8
T41SSILL
 62
4
 10
2997.283
 20
-6725.838
 30
1137.612
 70
    32
  0
VERTEX
  8
T41SSILL
 62
4
 10
2989.976
 20
-6715.969
 30
1137.614
 70
    32
  0
VERTEX
  8
T41SSILL
 62
4
 10
2987.438
 20
-6698.224
 30
1137.597
 70
    32
  0
VERTEX
  8
T41SSILL
 62
4
 10
2984.782
 20
-6693.729
 30
1137.596
 70
    32
  0
VERTEX
  8
T41SSILL
 62
4
 10
2980.130
 20
-6690.069
 30
1137.600
 70
    32
  0
VERTEX
  8
T41SSILL
 62
4
 10
2949.858
 20
-6711.802
 30
1137.510
 70
    32
  0
VERTEX
  8
T41SSILL
 62
4
 10
2957.804
 20
-6723.695
 30
1137.518
 70
    32
  0
VERTEX
  8
T41SSILL
 62
4
 10
2951.356
 20
-6728.654
 30
1137.463
 70
    32
  0
VERTEX
  8
T41SSILL
 62
4
 10
2942.824
 20
-6716.842
 30
1137.450
 70
    32
  0
VERTEX
  8
T41SSILL
 62
4
 10
2922.089
 20
-6732.032
 30
1137.274
 70
    32
  0
VERTEX
  8
T41SSILL
 62
4
 10
2926.442
 20
-6739.002
 30
1137.277
 70
    32
  0
VERTEX
  8
T41SSILL
 62
4
 10
2917.218
 20
-6746.936
 30
1137.195
 70
    32
  0
VERTEX
  8
T41SSILL
 62
4
 10
2911.705
 20
-6739.369
 30
1137.187
 70
    32
  0
VERTEX
  8
T41SSILL
 62
4
 10
2829.749
 20
-6798.596
 30
1136.493
 70
    32
  0
VERTEX
  8
T41SSILL
 62
4
 10
2827.814
 20
-6805.919
 30
1136.502
 70
    32
  0
VERTEX
  8
T41SSILL
 62
4
 10
2833.108
 20
-6813.636
 30
1136.591
 70
    32
  0
VERTEX
  8
T41SSILL
 62
4
 10
2826.169
 20
-6818.504
 30
1136.636
 70
    32
  0
VERTEX
  8
T41SSILL
 62
4
 10
2821.710
 20
-6812.784
 30
1136.569
 70
    32
  0
VERTEX
  8
T41SSILL
 62
4
 10
2813.400
 20
-6810.348
 30
1136.533
 70
    32
  0
VERTEX
  8
T41SSILL
 62
4
 10
2753.826
 20
-6853.041
 30
1136.814
 70
    32
  0
VERTEX
  8
T41SSILL
 62
4
 10
2759.334
 20
-6860.289
 30
1136.847
 70
    32
  0
VERTEX
  8
T41SSILL
 62
4
 10
2753.147
 20
-6864.535
 30
1136.844
 70
    32
  0
VERTEX
  8
T41SSILL
 62
4
 10
2747.784
 20
-6857.186
 30
1136.811
 70
    32
  0
VERTEX
  8
T41SSILL
 62
4
 10
2742.578
 20
-6861.615
 30
1136.810
 70
    32
  0
VERTEX
  8
T41SSILL
 62
4
 10
2736.739
 20
-6871.831
 30
1136.825
 70
    32
  0
VERTEX
  8
T41SSILL
 62
4
 10
2734.401
 20
-6882.000
 30
1136.847
 70
    32
  0
VERTEX
  8
T41SSILL
 62
4
 10
2738.317
 20
-6894.730
 30
1136.891
 70
    32
  0
VERTEX
  8
T41SSILL
 62
4
 10
2846.779
 20
-7046.895
 30
1137.568
 70
    32
  0
VERTEX
  8
T41SSILL
 62
4
 10
2841.391
 20
-7050.396
 30
1137.564
 70
    32
  0
VERTEX
  8
T41SSILL
 62
4
 10
2728.565
 20
-6893.561
 30
1136.865
 70
    32
  0
VERTEX
  8
T41SSILL
 62
4
 10
2726.759
 20
-6880.069
 30
1136.823
 70
    32
  0
VERTEX
  8
T41SSILL
 62
4
 10
2728.382
 20
-6871.354
 30
1136.803
 70
    32
  0
VERTEX
  8
T41SSILL
 62
4
 10
2612.646
 20
-6953.756
 30
1136.754
 70
    32
  0
VERTEX
  8
T41SSILL
 62
4
 10
2609.597
 20
-6947.283
 30
1136.729
 70
    32
  0
VERTEX
  8
T41SSILL
 62
4
 10
2683.914
 20
-6893.619
 30
1136.759
 70
    32
  0
VERTEX
  8
T41SSILL
 62
4
 10
2669.440
 20
-6889.844
 30
1136.714
 70
    32
  0
VERTEX
  8
T41SSILL
 62
4
 10
2657.933
 20
-6879.002
 30
1136.656
 70
    32
  0
VERTEX
  8
T41SSILL
 62
4
 10
2537.131
 20
-6707.921
 30
1137.458
 70
    32
  0
VERTEX
  8
T41SSILL
 62
4
 10
2525.026
 20
-6699.952
 30
1137.578
 70
    32
  0
VERTEX
  8
T41SSILL
 62
4
 10
2505.467
 20
-6693.136
 30
1137.748
 70
    32
  0
VERTEX
  8
T41SSILL
 62
4
 10
2490.707
 20
-6693.626
 30
1137.848
 70
    32
  0
VERTEX
  8
T41SSILL
 62
4
 10
2477.557
 20
-6699.115
 30
1137.866
 70
    32
  0
VERTEX
  8
T41SSILL
 62
4
 10
2469.370
 20
-6705.909
 30
1137.853
 70
    32
  0
VERTEX
  8
T41SSILL
 62
4
 10
2452.891
 20
-6711.541
 30
1137.884
 70
    32
  0
VERTEX
  8
T41SSILL
 62
4
 10
2393.954
 20
-6739.557
 30
1137.948
 70
    32
  0
VERTEX
  8
T41SSILL
 62
4
 10
2376.358
 20
-6744.028
 30
1138.014
 70
    32
  0
VERTEX
  8
T41SSILL
 62
4
 10
2358.294
 20
-6742.824
 30
1138.119
 70
    32
  0
VERTEX
  8
T41SSILL
 62
4
 10
2344.926
 20
-6737.541
 30
1138.211
 70
    32
  0
VERTEX
  8
T41SSILL
 62
4
 10
2332.286
 20
-6728.012
 30
1138.467
 70
    32
  0
VERTEX
  8
T41SSILL
 62
4
 10
2325.778
 20
-6719.307
 30
1138.751
 70
    32
  0
VERTEX
  8
T41SSILL
 62
4
 10
2321.395
 20
-6710.109
 30
1138.988
 70
    32
  0
VERTEX
  8
T41SSILL
 62
4
 10
2248.238
 20
-6488.239
 30
1136.000
 70
    32
  0
VERTEX
  8
T41SSILL
 62
4
 10
2247.639
 20
-6486.423
 30
1136.996
 70
    32
  0
VERTEX
  8
T41SSILL
 62
4
 10
2245.928
 20
-6481.233
 30
1139.079
 70
    32
  0
VERTEX
  8
T41SSILL
 62
4
 10
2243.978
 20
-6476.622
 30
1140.965
 70
    32
  0
VERTEX
  8
T41SSILL
 62
4
 10
2241.815
 20
-6471.509
 30
1140.140
 70
    32
  0
VERTEX
  8
T41SSILL
 62
4
 10
2235.527
 20
-6455.023
 30
1140.191
 70
    32
  0
VERTEX
  8
T41SSILL
 62
4
 10
2234.243
 20
-6451.656
 30
1140.142
 70
    32
  0
VERTEX
  8
T41SSILL
 62
4
 10
2230.943
 20
-6441.910
 30
1140.003
 70
    32
  0
VERTEX
  8
T41SSILL
 62
4
 10
2227.548
 20
-6433.357
 30
1139.879
 70
    32
  0
VERTEX
  8
T41SSILL
 62
4
 10
2224.863
 20
-6426.153
 30
1139.776
 70
    32
  0
VERTEX
  8
T41SSILL
 62
4
 10
2220.502
 20
-6416.238
 30
1139.630
 70
    32
  0
VERTEX
  8
T41SSILL
 62
4
 10
2210.540
 20
-6386.618
 30
1139.209
 70
    32
  0
VERTEX
  8
T41SSILL
 62
4
 10
2209.278
 20
-6384.570
 30
1139.177
 70
    32
  0
VERTEX
  8
T41SSILL
 62
4
 10
2206.294
 20
-6379.727
 30
1138.911
 70
    32
  0
VERTEX
  8
T41SSILL
 62
4
 10
2205.654
 20
-6377.580
 30
1138.804
 70
    32
  0
VERTEX
  8
T41SSILL
 62
4
 10
2205.029
 20
-6375.482
 30
1138.700
 70
    32
  0
VERTEX
  8
T41SSILL
 62
4
 10
2203.825
 20
-6371.439
 30
1138.691
 70
    32
  0
VERTEX
  8
T41SSILL
 62
4
 10
2203.838
 20
-6371.431
 30
1138.691
 70
    32
  0
VERTEX
  8
T41SSILL
 62
4
 10
2201.441
 20
-6363.335
 30
1138.672
 70
    32
  0
VERTEX
  8
T41SSILL
 62
4
 10
2201.441
 20
-6363.335
 30
1138.452
 70
    32
  0
VERTEX
  8
T41SSILL
 62
4
 10
2195.453
 20
-6349.065
 30
1138.046
 70
    32
  0
VERTEX
  8
T41SSILL
 62
4
 10
2190.057
 20
-6336.206
 30
1137.680
 70
    32
  0
VERTEX
  8
T41SSILL
 62
4
 10
2189.738
 20
-6335.447
 30
1137.648
 70
    32
  0
VERTEX
  8
T41SSILL
 62
4
 10
2183.011
 20
-6314.758
 30
1136.796
 70
    32
  0
VERTEX
  8
T41SSILL
 62
4
 10
2182.069
 20
-6312.142
 30
1136.687
 70
    32
  0
VERTEX
  8
T41SSILL
 62
4
 10
2178.894
 20
-6303.331
 30
1136.300
 70
    32
  0
VERTEX
  8
T41SSILL
 62
4
 10
2174.272
 20
-6290.502
 30
1137.100
 70
    32
  0
VERTEX
  8
T41SSILL
 62
4
 10
2171.938
 20
-6283.379
 30
1137.400
 70
    32
  0
VERTEX
  8
T41SSILL
 62
4
 10
2170.900
 20
-6280.211
 30
1137.400
 70
    32
  0
VERTEX
  8
T41SSILL
 62
4
 10
2166.683
 20
-6270.538
 30
1137.400
 70
    32
  0
VERTEX
  8
T41SSILL
 62
4
 10
2163.576
 20
-6262.884
 30
1137.000
 70
    32
  0
VERTEX
  8
T41SSILL
 62
4
 10
2160.693
 20
-6255.063
 30
1137.000
 70
    32
  0
VERTEX
  8
T41SSILL
 62
4
 10
2141.966
 20
-6210.889
 30
1137.280
 70
    32
  0
VERTEX
  8
T41SSILL
 62
4
 10
2134.984
 20
-6190.432
 30
1136.900
 70
    32
  0
VERTEX
  8
T41SSILL
 62
4
 10
2133.739
 20
-6185.957
 30
1136.900
 70
    32
  0
VERTEX
  8
T41SSILL
 62
4
 10
2132.300
 20
-6176.011
 30
1136.400
 70
    32
  0
VERTEX
  8
T41SSILL
 62
4
 10
2131.208
 20
-6165.256
 30
1136.800
 70
    32
  0
VERTEX
  8
T41SSILL
 62
4
 10
2116.115
 20
-6151.474
 30
1134.101
 70
    32
  0
VERTEX
  8
T41SSILL
 62
4
 10
2107.402
 20
-6144.668
 30
1132.507
 70
    32
  0
VERTEX
  8
T41SSILL
 62
4
 10
2101.621
 20
-6140.746
 30
1131.500
 70
    32
  0
VERTEX
  8
T41SSILL
 62
4
 10
2094.146
 20
-6131.416
 30
1130.118
 70
    32
  0
VERTEX
  8
T41SSILL
 62
4
 10
2081.281
 20
-6117.903
 30
1124.752
 70
    32
  0
VERTEX
  8
T41SSILL
 62
4
 10
2088.238
 20
-6109.784
 30
1124.303
 70
    32
  0
VERTEX
  8
T41SSILL
 62
4
 10
2098.713
 20
-6119.347
 30
1128.359
 70
    32
  0
VERTEX
  8
T41SSILL
 62
4
 10
2117.009
 20
-6137.002
 30
1133.424
 70
    32
  0
VERTEX
  8
T41SSILL
 62
4
 10
2119.485
 20
-6137.481
 30
1133.945
 70
    32
  0
VERTEX
  8
T41SSILL
 62
4
 10
2122.905
 20
-6140.502
 30
1134.888
 70
    32
  0
VERTEX
  8
T41SSILL
 62
4
 10
2126.102
 20
-6138.572
 30
1134.965
 70
    32
  0
VERTEX
  8
T41SSILL
 62
4
 10
2127.669
 20
-6131.999
 30
1134.673
 70
    32
  0
VERTEX
  8
T41SSILL
 62
4
 10
2126.789
 20
-6123.440
 30
1136.866
 70
    32
  0
VERTEX
  8
T41SSILL
 62
4
 10
2126.636
 20
-6113.558
 30
1137.167
 70
    32
  0
VERTEX
  8
T41SSILL
 62
4
 10
2126.594
 20
-6102.191
 30
1137.655
 70
    32
  0
VERTEX
  8
T41SSILL
 62
4
 10
2125.581
 20
-6090.034
 30
1137.983
 70
    32
  0
VERTEX
  8
T41SSILL
 62
4
 10
2125.591
 20
-6090.149
 30
1137.980
 70
    32
  0
VERTEX
  8
T41SSILL
 62
4
 10
2124.819
 20
-6077.528
 30
1136.076
 70
    32
  0
VERTEX
  8
T41SSILL
 62
4
 10
2121.892
 20
-6075.128
 30
1136.052
 70
    32
  0
VERTEX
  8
T41SSILL
 62
4
 10
2116.577
 20
-6072.435
 30
1135.938
 70
    32
  0
VERTEX
  8
T41SSILL
 62
4
 10
2112.696
 20
-6073.512
 30
1135.728
 70
    32
  0
VERTEX
  8
T41SSILL
 62
4
 10
2108.493
 20
-6077.282
 30
1135.392
 70
    32
  0
VERTEX
  8
T41SSILL
 62
4
 10
2100.618
 20
-6084.919
 30
1134.739
 70
    32
  0
VERTEX
  8
T41SSILL
 62
4
 10
2091.569
 20
-6092.166
 30
1134.051
 70
    32
  0
VERTEX
  8
T41SSILL
 62
4
 10
2081.865
 20
-6098.623
 30
1134.997
 70
    32
  0
VERTEX
  8
T41SSILL
 62
4
 10
2070.325
 20
-6103.339
 30
1135.977
 70
    32
  0
VERTEX
  8
T41SSILL
 62
4
 10
2058.525
 20
-6106.092
 30
1136.672
 70
    32
  0
VERTEX
  8
T41SSILL
 62
4
 10
2045.008
 20
-6108.040
 30
1136.330
 70
    32
  0
VERTEX
  8
T41SSILL
 62
4
 10
2032.134
 20
-6110.340
 30
1136.275
 70
    32
  0
VERTEX
  8
T41SSILL
 62
4
 10
2022.134
 20
-6109.467
 30
1136.354
 70
    32
  0
VERTEX
  8
T41SSILL
 62
4
 10
2007.702
 20
-6106.130
 30
1137.000
 70
    32
  0
VERTEX
  8
T41SSILL
 62
4
 10
1993.323
 20
-6102.142
 30
1137.197
 70
    32
  0
VERTEX
  8
T41SSILL
 62
4
 10
1974.233
 20
-6095.578
 30
1137.422
 70
    32
  0
VERTEX
  8
T41SSILL
 62
4
 10
1960.476
 20
-6092.529
 30
1137.234
 70
    32
  0
VERTEX
  8
T41SSILL
 62
4
 10
1946.138
 20
-6088.729
 30
1137.036
 70
    32
  0
VERTEX
  8
T41SSILL
 62
4
 10
1946.138
 20
-6088.729
 30
1129.928
 70
    32
  0
VERTEX
  8
T41SSILL
 62
4
 10
1927.656
 20
-6082.636
 30
1131.689
 70
    32
  0
VERTEX
  8
T41SSILL
 62
4
 10
1926.910
 20
-6076.560
 30
1130.966
 70
    32
  0
VERTEX
  8
T41SSILL
 62
4
 10
1923.208
 20
-6071.806
 30
1133.295
 70
    32
  0
VERTEX
  8
T41SSILL
 62
4
 10
1921.935
 20
-6071.336
 30
1136.511
 70
    32
  0
VERTEX
  8
T41SSILL
 62
4
 10
1916.535
 20
-6069.627
 30
1136.511
 70
    32
  0
VERTEX
  8
T41SSILL
 62
4
 10
1911.931
 20
-6068.553
 30
1136.511
 70
    32
  0
VERTEX
  8
T41SSILL
 62
4
 10
1903.411
 20
-6070.611
 30
1136.581
 70
    32
  0
VERTEX
  8
T41SSILL
 62
4
 10
1898.919
 20
-6072.259
 30
1136.581
 70
    32
  0
VERTEX
  8
T41SSILL
 62
4
 10
1884.722
 20
-6067.779
 30
1136.581
 70
    32
  0
VERTEX
  8
T41SSILL
 62
4
 10
1864.241
 20
-6064.613
 30
1136.581
 70
    32
  0
VERTEX
  8
T41SSILL
 62
4
 10
1852.822
 20
-6062.008
 30
1136.581
 70
    32
  0
VERTEX
  8
T41SSILL
 62
4
 10
1842.092
 20
-6065.009
 30
1136.581
 70
    32
  0
VERTEX
  8
T41SSILL
 62
4
 10
1839.835
 20
-6060.122
 30
1136.581
 70
    32
  0
VERTEX
  8
T41SSILL
 62
4
 10
1845.919
 20
-6051.625
 30
1136.581
 70
    32
  0
VERTEX
  8
T41SSILL
 62
4
 10
1859.489
 20
-6053.543
 30
1136.581
 70
    32
  0
VERTEX
  8
T41SSILL
 62
4
 10
1871.869
 20
-6054.824
 30
1136.581
 70
    32
  0
VERTEX
  8
T41SSILL
 62
4
 10
1898.630
 20
-6058.851
 30
1136.581
 70
    32
  0
VERTEX
  8
T41SSILL
 62
4
 10
1902.260
 20
-6057.862
 30
1136.581
 70
    32
  0
VERTEX
  8
T41SSILL
 62
4
 10
1906.055
 20
-6057.862
 30
1136.511
 70
    32
  0
VERTEX
  8
T41SSILL
 62
4
 10
1915.666
 20
-6058.551
 30
1136.511
 70
    32
  0
VERTEX
  8
T41SSILL
 62
4
 10
1916.272
 20
-6057.308
 30
1136.511
 70
    32
  0
VERTEX
  8
T41SSILL
 62
4
 10
1926.755
 20
-6061.131
 30
1136.511
 70
    32
  0
VERTEX
  8
T41SSILL
 62
4
 10
1927.740
 20
-6061.617
 30
1130.993
 70
    32
  0
VERTEX
  8
T41SSILL
 62
4
 10
1941.833
 20
-6068.555
 30
1130.219
 70
    32
  0
VERTEX
  8
T41SSILL
 62
4
 10
1941.679
 20
-6068.647
 30
1130.571
 70
    32
  0
VERTEX
  8
T41SSILL
 62
4
 10
1947.938
 20
-6069.921
 30
1130.865
 70
    32
  0
VERTEX
  8
T41SSILL
 62
4
 10
1960.283
 20
-6073.227
 30
1131.986
 70
    32
  0
VERTEX
  8
T41SSILL
 62
4
 10
1968.988
 20
-6075.649
 30
1131.076
 70
    32
  0
SEQEND
  8
T41SSILL
  0
POLYLINE
  8
T41SSILL
 62
4
 66
     1
 70
     8
  0
VERTEX
  8
T41SSILL
 62
4
 10
1999.036
 20
-6078.276
 30
1137.370
 70
    32
  0
VERTEX
  8
T41SSILL
 62
4
 10
2007.098
 20
-6085.660
 30
1137.146
 70
    32
  0
VERTEX
  8
T41SSILL
 62
4
 10
2012.942
 20
-6088.016
 30
1137.017
 70
    32
  0
VERTEX
  8
T41SSILL
 62
4
 10
2023.514
 20
-6091.231
 30
1136.791
 70
    32
  0
VERTEX
  8
T41SSILL
 62
4
 10
2039.126
 20
-6094.074
 30
1136.466
 70
    32
  0
VERTEX
  8
T41SSILL
 62
4
 10
2045.948
 20
-6093.172
 30
1136.325
 70
    32
  0
VERTEX
  8
T41SSILL
 62
4
 10
2057.096
 20
-6089.552
 30
1135.685
 70
    32
  0
VERTEX
  8
T41SSILL
 62
4
 10
2069.896
 20
-6085.520
 30
1134.953
 70
    32
  0
VERTEX
  8
T41SSILL
 62
4
 10
2077.886
 20
-6081.910
 30
1134.475
 70
    32
  0
VERTEX
  8
T41SSILL
 62
4
 10
2080.066
 20
-6077.622
 30
1134.320
 70
    32
  0
VERTEX
  8
T41SSILL
 62
4
 10
2090.239
 20
-6071.768
 30
1134.125
 70
    32
  0
VERTEX
  8
T41SSILL
 62
4
 10
2094.972
 20
-6068.564
 30
1133.500
 70
    32
  0
VERTEX
  8
T41SSILL
 62
4
 10
2101.928
 20
-6066.787
 30
1134.714
 70
    32
  0
VERTEX
  8
T41SSILL
 62
4
 10
2106.669
 20
-6061.717
 30
1135.963
 70
    32
  0
VERTEX
  8
T41SSILL
 62
4
 10
2112.577
 20
-6053.862
 30
1136.542
 70
    32
  0
VERTEX
  8
T41SSILL
 62
4
 10
2119.336
 20
-6046.216
 30
1137.224
 70
    32
  0
VERTEX
  8
T41SSILL
 62
4
 10
2124.990
 20
-6030.627
 30
1136.308
 70
    32
  0
VERTEX
  8
T41SSILL
 62
4
 10
2129.284
 20
-6021.247
 30
1136.313
 70
    32
  0
VERTEX
  8
T41SSILL
 62
4
 10
2132.956
 20
-6002.181
 30
1136.618
 70
    32
  0
VERTEX
  8
T41SSILL
 62
4
 10
2133.749
 20
-5956.632
 30
1135.541
 70
    32
  0
VERTEX
  8
T41SSILL
 62
4
 10
2134.912
 20
-5919.614
 30
1130.559
 70
    32
  0
VERTEX
  8
T41SSILL
 62
4
 10
2137.638
 20
-5900.080
 30
1131.013
 70
    32
  0
VERTEX
  8
T41SSILL
 62
4
 10
2138.886
 20
-5881.376
 30
1132.355
 70
    32
  0
VERTEX
  8
T41SSILL
 62
4
 10
2142.160
 20
-5868.226
 30
1136.422
 70
    32
  0
VERTEX
  8
T41SSILL
 62
4
 10
2147.854
 20
-5765.992
 30
1135.670
 70
    32
  0
VERTEX
  8
T41SSILL
 62
4
 10
2145.327
 20
-5767.624
 30
1135.674
 70
    32
  0
VERTEX
  8
T41SSILL
 62
4
 10
2140.354
 20
-5760.572
 30
1135.605
 70
    32
  0
VERTEX
  8
T41SSILL
 62
4
 10
2148.809
 20
-5755.222
 30
1135.592
 70
    32
  0
VERTEX
  8
T41SSILL
 62
4
 10
2160.808
 20
-5641.391
 30
1134.772
 70
    32
  0
VERTEX
  8
T41SSILL
 62
4
 10
2159.404
 20
-5641.768
 30
1134.770
 70
    32
  0
VERTEX
  8
T41SSILL
 62
4
 10
2154.603
 20
-5634.449
 30
1134.700
 70
    32
  0
VERTEX
  8
T41SSILL
 62
4
 10
2162.075
 20
-5628.323
 30
1134.677
 70
    32
  0
VERTEX
  8
T41SSILL
 62
4
 10
2171.685
 20
-5538.950
 30
1134.265
 70
    32
  0
VERTEX
  8
T41SSILL
 62
4
 10
2164.068
 20
-5536.882
 30
1134.255
 70
    32
  0
VERTEX
  8
T41SSILL
 62
4
 10
2162.345
 20
-5539.116
 30
1134.262
 70
    32
  0
VERTEX
  8
T41SSILL
 62
4
 10
2152.168
 20
-5571.645
 30
1134.367
 70
    32
  0
VERTEX
  8
T41SSILL
 62
4
 10
2143.499
 20
-5594.804
 30
1134.456
 70
    32
  0
VERTEX
  8
T41SSILL
 62
4
 10
2136.579
 20
-5592.283
 30
1134.434
 70
    32
  0
VERTEX
  8
T41SSILL
 62
4
 10
2134.331
 20
-5589.766
 30
1134.422
 70
    32
  0
VERTEX
  8
T41SSILL
 62
4
 10
2140.582
 20
-5574.407
 30
1134.373
 70
    32
  0
VERTEX
  8
T41SSILL
 62
4
 10
2138.325
 20
-5566.425
 30
1134.346
 70
    32
  0
VERTEX
  8
T41SSILL
 62
4
 10
2136.471
 20
-5566.282
 30
1134.345
 70
    32
  0
VERTEX
  8
T41SSILL
 62
4
 10
2124.666
 20
-5571.604
 30
1134.359
 70
    32
  0
VERTEX
  8
T41SSILL
 62
4
 10
2123.572
 20
-5584.492
 30
1134.401
 70
    32
  0
VERTEX
  8
T41SSILL
 62
4
 10
2113.237
 20
-5598.161
 30
1134.443
 70
    32
  0
VERTEX
  8
T41SSILL
 62
4
 10
2112.433
 20
-5607.519
 30
1134.475
 70
    32
  0
VERTEX
  8
T41SSILL
 62
4
 10
2115.996
 20
-5629.492
 30
1134.586
 70
    32
  0
VERTEX
  8
T41SSILL
 62
4
 10
2125.723
 20
-5661.140
 30
1134.809
 70
    32
  0
VERTEX
  8
T41SSILL
 62
4
 10
2131.129
 20
-5692.600
 30
1135.063
 70
    32
  0
VERTEX
  8
T41SSILL
 62
4
 10
2129.838
 20
-5699.322
 30
1135.110
 70
    32
  0
VERTEX
  8
T41SSILL
 62
4
 10
2122.072
 20
-5703.778
 30
1135.119
 70
    32
  0
VERTEX
  8
T41SSILL
 62
4
 10
2122.252
 20
-5708.976
 30
1135.159
 70
    32
  0
VERTEX
  8
T41SSILL
 62
4
 10
2120.876
 20
-5710.939
 30
1135.169
 70
    32
  0
VERTEX
  8
T41SSILL
 62
4
 10
2115.503
 20
-5711.122
 30
1135.153
 70
    32
  0
VERTEX
  8
T41SSILL
 62
4
 10
2109.709
 20
-5702.499
 30
1135.070
 70
    32
  0
VERTEX
  8
T41SSILL
 62
4
 10
2103.698
 20
-5701.548
 30
1135.044
 70
    32
  0
VERTEX
  8
T41SSILL
 62
4
 10
2100.796
 20
-5682.031
 30
1134.887
 70
    32
  0
VERTEX
  8
T41SSILL
 62
4
 10
2093.150
 20
-5653.431
 30
1134.670
 70
    32
  0
VERTEX
  8
T41SSILL
 62
4
 10
2096.698
 20
-5644.730
 30
1134.633
 70
    32
  0
VERTEX
  8
T41SSILL
 62
4
 10
2088.370
 20
-5612.529
 30
1134.483
 70
    32
  0
VERTEX
  8
T41SSILL
 62
4
 10
2074.495
 20
-5590.562
 30
1134.407
 70
    32
  0
VERTEX
  8
T41SSILL
 62
4
 10
2065.621
 20
-5597.154
 30
1134.426
 70
    32
  0
VERTEX
  8
T41SSILL
 62
4
 10
2061.018
 20
-5591.065
 30
1134.404
 70
    32
  0
VERTEX
  8
T41SSILL
 62
4
 10
2078.155
 20
-5578.245
 30
1134.367
 70
    32
  0
VERTEX
  8
T41SSILL
 62
4
 10
2075.195
 20
-5570.365
 30
1134.340
 70
    32
  0
VERTEX
  8
T41SSILL
 62
4
 10
2084.320
 20
-5558.039
 30
1134.302
 70
    32
  0
VERTEX
  8
T41SSILL
 62
4
 10
2084.920
 20
-5552.123
 30
1134.282
 70
    32
  0
VERTEX
  8
T41SSILL
 62
4
 10
2083.621
 20
-5548.444
 30
1134.270
 70
    32
  0
VERTEX
  8
T41SSILL
 62
4
 10
2073.148
 20
-5534.438
 30
1134.253
 70
    32
  0
VERTEX
  8
T41SSILL
 62
4
 10
2057.422
 20
-5517.440
 30
1134.262
 70
    32
  0
VERTEX
  8
T41SSILL
 62
4
 10
2051.132
 20
-5505.740
 30
1134.262
 70
    32
  0
VERTEX
  8
T41SSILL
 62
4
 10
2024.738
 20
-5473.682
 30
1134.275
 70
    32
  0
VERTEX
  8
T41SSILL
 62
4
 10
2007.186
 20
-5448.167
 30
1134.280
 70
    32
  0
VERTEX
  8
T41SSILL
 62
4
 10
2009.862
 20
-5440.010
 30
1134.269
 70
    32
  0
VERTEX
  8
T41SSILL
 62
4
 10
1994.194
 20
-5421.337
 30
1134.273
 70
    32
  0
VERTEX
  8
T41SSILL
 62
4
 10
2001.119
 20
-5414.163
 30
1134.255
 70
    32
  0
VERTEX
  8
T41SSILL
 62
4
 10
2000.456
 20
-5411.618
 30
1134.253
 70
    32
  0
VERTEX
  8
T41SSILL
 62
4
 10
1986.613
 20
-5401.374
 30
1134.264
 70
    32
  0
VERTEX
  8
T41SSILL
 62
4
 10
1981.766
 20
-5391.500
 30
1134.261
 70
    32
  0
VERTEX
  8
T41SSILL
 62
4
 10
1961.036
 20
-5375.648
 30
1134.276
 70
    32
  0
VERTEX
  8
T41SSILL
 62
4
 10
1957.689
 20
-5370.860
 30
1134.276
 70
    32
  0
VERTEX
  8
T41SSILL
 62
4
 10
1956.534
 20
-5365.327
 30
1134.272
 70
    32
  0
VERTEX
  8
T41SSILL
 62
4
 10
1956.677
 20
-5353.513
 30
1134.260
 70
    32
  0
VERTEX
  8
T41SSILL
 62
4
 10
1950.848
 20
-5347.887
 30
1134.263
 70
    32
  0
VERTEX
  8
T41SSILL
 62
4
 10
1952.874
 20
-5337.891
 30
1134.249
 70
    32
  0
VERTEX
  8
T41SSILL
 62
4
 10
1956.730
 20
-5336.589
 30
1134.241
 70
    32
  0
VERTEX
  8
T41SSILL
 62
4
 10
1992.134
 20
-5334.904
 30
1134.185
 70
    32
  0
VERTEX
  8
T41SSILL
 62
4
 10
2087.364
 20
-5346.791
 30
1134.049
 70
    32
  0
VERTEX
  8
T41SSILL
 62
4
 10
2088.038
 20
-5345.016
 30
1134.046
 70
    32
  0
VERTEX
  8
T41SSILL
 62
4
 10
2097.831
 20
-5345.547
 30
1134.032
 70
    32
  0
VERTEX
  8
T41SSILL
 62
4
 10
2098.931
 20
-5347.908
 30
1134.032
 70
    32
  0
VERTEX
  8
T41SSILL
 62
4
 10
2149.361
 20
-5353.537
 30
1133.960
 70
    32
  0
VERTEX
  8
T41SSILL
 62
4
 10
2164.131
 20
-5351.336
 30
1133.935
 70
    32
  0
VERTEX
  8
T41SSILL
 62
4
 10
2178.134
 20
-5345.711
 30
1133.907
 70
    32
  0
VERTEX
  8
T41SSILL
 62
4
 10
2188.129
 20
-5337.689
 30
1133.883
 70
    32
  0
VERTEX
  8
T41SSILL
 62
4
 10
2193.672
 20
-5327.190
 30
1133.863
 70
    32
  0
VERTEX
  8
T41SSILL
 62
4
 10
2199.707
 20
-5264.853
 30
1133.521
 70
    32
  0
VERTEX
  8
T41SSILL
 62
4
 10
2194.826
 20
-5257.976
 30
1133.493
 70
    32
  0
VERTEX
  8
T41SSILL
 62
4
 10
2201.002
 20
-5253.371
 30
1133.464
 70
    32
  0
VERTEX
  8
T41SSILL
 62
4
 10
2213.613
 20
-5139.265
 30
1133.020
 70
    32
  0
VERTEX
  8
T41SSILL
 62
4
 10
2208.542
 20
-5131.686
 30
1133.002
 70
    32
  0
VERTEX
  8
T41SSILL
 62
4
 10
2214.795
 20
-5126.375
 30
1132.971
 70
    32
  0
VERTEX
  8
T41SSILL
 62
4
 10
2225.609
 20
-5015.386
 30
1132.753
 70
    32
  0
VERTEX
  8
T41SSILL
 62
4
 10
2222.065
 20
-5009.367
 30
1132.754
 70
    32
  0
VERTEX
  8
T41SSILL
 62
4
 10
2227.915
 20
-5001.242
 30
1132.766
 70
    32
  0
VERTEX
  8
T41SSILL
 62
4
 10
2238.439
 20
-4883.823
 30
1133.258
 70
    32
  0
VERTEX
  8
T41SSILL
 62
4
 10
2233.531
 20
-4875.448
 30
1133.302
 70
    32
  0
VERTEX
  8
T41SSILL
 62
4
 10
2239.789
 20
-4870.489
 30
1133.314
 70
    32
  0
VERTEX
  8
T41SSILL
 62
4
 10
2247.969
 20
-4792.563
 30
1133.638
 70
    32
  0
VERTEX
  8
T41SSILL
 62
4
 10
2236.026
 20
-4762.391
 30
1133.721
 70
    32
  0
VERTEX
  8
T41SSILL
 62
4
 10
2195.441
 20
-4791.024
 30
1133.730
 70
    32
  0
VERTEX
  8
T41SSILL
 62
4
 10
2191.418
 20
-4785.546
 30
1133.756
 70
    32
  0
VERTEX
  8
T41SSILL
 62
4
 10
2233.070
 20
-4755.890
 30
1133.735
 70
    32
  0
VERTEX
  8
T41SSILL
 62
4
 10
2223.203
 20
-4732.515
 30
1133.783
 70
    32
  0
VERTEX
  8
T41SSILL
 62
4
 10
2218.762
 20
-4727.964
 30
1133.797
 70
    32
  0
VERTEX
  8
T41SSILL
 62
4
 10
2203.153
 20
-4690.705
 30
1133.873
 70
    32
  0
VERTEX
  8
T41SSILL
 62
4
 10
2186.426
 20
-4698.359
 30
1133.888
 70
    32
  0
VERTEX
  8
T41SSILL
 62
4
 10
2182.357
 20
-4691.651
 30
1133.903
 70
    32
  0
VERTEX
  8
T41SSILL
 62
4
 10
2200.017
 20
-4683.853
 30
1133.888
 70
    32
  0
VERTEX
  8
T41SSILL
 62
4
 10
2176.064
 20
-4626.646
 30
1134.005
 70
    32
  0
VERTEX
  8
T41SSILL
 62
4
 10
2125.292
 20
-4626.488
 30
1134.082
 70
    32
  0
VERTEX
  8
T41SSILL
 62
4
 10
2125.488
 20
-4617.232
 30
1134.095
 70
    32
  0
VERTEX
  8
T41SSILL
 62
4
 10
2121.058
 20
-4614.003
 30
1134.107
 70
    32
  0
VERTEX
  8
T41SSILL
 62
4
 10
2119.180
 20
-4610.315
 30
1134.115
 70
    32
  0
VERTEX
  8
T41SSILL
 62
4
 10
2118.095
 20
-4558.405
 30
1134.190
 70
    32
  0
VERTEX
  8
T41SSILL
 62
4
 10
2139.196
 20
-4539.124
 30
1134.185
 70
    32
  0
VERTEX
  8
T41SSILL
 62
4
 10
2137.211
 20
-4532.792
 30
1134.197
 70
    32
  0
VERTEX
  8
T41SSILL
 62
4
 10
2132.073
 20
-4529.304
 30
1134.210
 70
    32
  0
VERTEX
  8
T41SSILL
 62
4
 10
2127.309
 20
-4528.721
 30
1134.218
 70
    32
  0
VERTEX
  8
T41SSILL
 62
4
 10
2117.542
 20
-4530.996
 30
1134.230
 70
    32
  0
VERTEX
  8
T41SSILL
 62
4
 10
2114.119
 20
-4520.973
 30
1134.249
 70
    32
  0
VERTEX
  8
T41SSILL
 62
4
 10
2127.301
 20
-4515.588
 30
1134.237
 70
    32
  0
VERTEX
  8
T41SSILL
 62
4
 10
2128.592
 20
-4511.348
 30
1134.241
 70
    32
  0
VERTEX
  8
T41SSILL
 62
4
 10
2115.894
 20
-4481.066
 30
1134.303
 70
    32
  0
VERTEX
  8
T41SSILL
 62
4
 10
2122.747
 20
-4478.211
 30
1134.297
 70
    32
  0
VERTEX
  8
T41SSILL
 62
4
 10
2132.213
 20
-4500.303
 30
1134.251
 70
    32
  0
VERTEX
  8
T41SSILL
 62
4
 10
2144.428
 20
-4495.189
 30
1134.240
 70
    32
  0
VERTEX
  8
T41SSILL
 62
4
 10
2145.898
 20
-4491.212
 30
1134.243
 70
    32
  0
SEQEND
  8
T41SSILL
  0
POLYLINE
  8
R_SHAFTS_2
 62
8
 66
     1
 70
     9
  0
VERTEX
  8
R_SHAFTS_2
 62
8
 10
-478.481
 20
690.374
 30
4431.830
 70
    32
  0
VERTEX
  8
R_SHAFTS_2
 62
8
 10
-468.481
 20
690.374
 30
4431.830
 70
    32
  0
VERTEX
  8
R_SHAFTS_2
 62
8
 10
-468.481
 20
680.374
 30
4431.830
 70
    32
  0
VERTEX
  8
R_SHAFTS_2
 62
8
 10
-478.481
 20
680.374
 30
4431.830
 70
    32
  0
SEQEND
  8
R_SHAFTS_2
  0
POLYLINE
  8
R_SHAFTS_2
 62
8
 66
     1
 70
     9
  0
VERTEX
  8
R_SHAFTS_2
 62
8
 10
-3716.381
 20
1088.144
 30
5100.370
 70
    32
  0
VERTEX
  8
R_SHAFTS_2
 62
8
 10
-3706.381
 20
1088.144
 30
5100.370
 70
    32
  0
VERTEX
  8
R_SHAFTS_2
 62
8
 10
-3706.381
 20
1078.144
 30
5100.370
 70
    32
  0
VERTEX
  8
R_SHAFTS_2
 62
8
 10
-3716.381
 20
1078.144
 30
5100.370
 70
    32
  0
SEQEND
  8
R_SHAFTS_2
  0
POLYLINE
  8
R_SHAFTS_2
 62
8
 66
     1
 70
     9
  0
VERTEX
  8
R_SHAFTS_2
 62
8
 10
-700.881
 20
-374.686
 30
4127.920
 70
    32
  0
VERTEX
  8
R_SHAFTS_2
 62
8
 10
-690.881
 20
-374.686
 30
4127.920
 70
    32
  0
VERTEX
  8
R_SHAFTS_2
 62
8
 10
-690.881
 20
-384.686
 30
4127.920
 70
    32
  0
VERTEX
  8
R_SHAFTS_2
 62
8
 10
-700.881
 20
-384.686
 30
4127.920
 70
    32
  0
SEQEND
  8
R_SHAFTS_2
  0
POLYLINE
  8
R_SHAFTS_2
 62
8
 66
     1
 70
     9
  0
VERTEX
  8
R_SHAFTS_2
 62
8
 10
-3716.381
 20
1088.144
 30
4935.510
 70
    32
  0
VERTEX
  8
R_SHAFTS_2
 62
8
 10
-3706.381
 20
1088.144
 30
4935.510
 70
    32
  0
VERTEX
  8
R_SHAFTS_2
 62
8
 10
-3706.381
 20
1078.144
 30
4935.510
 70
    32
  0
VERTEX
  8
R_SHAFTS_2
 62
8
 10
-3716.381
 20
1078.144
 30
4935.510
 70
    32
  0
SEQEND
  8
R_SHAFTS_2
  0
LINE
  8
R_SHAFTS_2
 62
8
 10
-3711.340
 20
1078.144
 30
5100.370
 11
-3711.340
 21
1078.144
 31
4935.510
  0
POLYLINE
  8
R_SHAFTS_2
 62
8
 66
     1
 70
     9
  0
VERTEX
  8
R_SHAFTS_2
 62
8
 10
-2666.581
 20
3279.374
 30
5007.580
 70
    32
  0
VERTEX
  8
R_SHAFTS_2
 62
8
 10
-2656.581
 20
3279.374
 30
5007.580
 70
    32
  0
VERTEX
  8
R_SHAFTS_2
 62
8
 10
-2656.581
 20
3269.374
 30
5007.580
 70
    32
  0
VERTEX
  8
R_SHAFTS_2
 62
8
 10
-2666.581
 20
3269.374
 30
5007.580
 70
    32
  0
SEQEND
  8
R_SHAFTS_2
  0
POLYLINE
  8
R_SHAFTS_2
 62
8
 66
     1
 70
     9
  0
VERTEX
  8
R_SHAFTS_2
 62
8
 10
-1307.921
 20
2098.904
 30
5034.280
 70
    32
  0
VERTEX
  8
R_SHAFTS_2
 62
8
 10
-1297.921
 20
2098.904
 30
5034.280
 70
    32
  0
VERTEX
  8
R_SHAFTS_2
 62
8
 10
-1297.921
 20
2088.904
 30
5034.280
 70
    32
  0
VERTEX
  8
R_SHAFTS_2
 62
8
 10
-1307.921
 20
2088.904
 30
5034.280
 70
    32
  0
SEQEND
  8
R_SHAFTS_2
  0
POLYLINE
  8
R_SHAFTS_2
 62
8
 66
     1
 70
     9
  0
VERTEX
  8
R_SHAFTS_2
 62
8
 10
-2666.581
 20
3279.374
 30
4431.830
 70
    32
  0
VERTEX
  8
R_SHAFTS_2
 62
8
 10
-2656.581
 20
3279.374
 30
4431.830
 70
    32
  0
VERTEX
  8
R_SHAFTS_2
 62
8
 10
-2656.581
 20
3269.374
 30
4431.830
 70
    32
  0
VERTEX
  8
R_SHAFTS_2
 62
8
 10
-2666.581
 20
3269.374
 30
4431.830
 70
    32
  0
SEQEND
  8
R_SHAFTS_2
  0
POLYLINE
  8
R_SHAFTS_2
 62
8
 66
     1
 70
     9
  0
VERTEX
  8
R_SHAFTS_2
 62
8
 10
-1307.921
 20
2098.904
 30
4432.910
 70
    32
  0
VERTEX
  8
R_SHAFTS_2
 62
8
 10
-1297.921
 20
2098.904
 30
4432.910
 70
    32
  0
VERTEX
  8
R_SHAFTS_2
 62
8
 10
-1297.921
 20
2088.904
 30
4432.910
 70
    32
  0
VERTEX
  8
R_SHAFTS_2
 62
8
 10
-1307.921
 20
2088.904
 30
4432.910
 70
    32
  0
SEQEND
  8
R_SHAFTS_2
  0
LINE
  8
R_SHAFTS_2
 62
8
 10
-1297.921
 20
2088.904
 30
5034.280
 11
-1297.921
 21
2088.904
 31
4432.910
  0
LINE
  8
R_SHAFTS_2
 62
8
 10
-2656.581
 20
3269.374
 30
5007.580
 11
-2656.581
 21
3269.374
 31
4431.830
  0
POLYLINE
  8
R_SHAFTS_2
 62
8
 66
     1
 70
     9
  0
VERTEX
  8
R_SHAFTS_2
 62
8
 10
-478.481
 20
690.374
 30
5204.360
 70
    32
  0
VERTEX
  8
R_SHAFTS_2
 62
8
 10
-468.481
 20
690.374
 30
5204.360
 70
    32
  0
VERTEX
  8
R_SHAFTS_2
 62
8
 10
-468.481
 20
680.374
 30
5204.360
 70
    32
  0
VERTEX
  8
R_SHAFTS_2
 62
8
 10
-478.481
 20
680.374
 30
5204.360
 70
    32
  0
SEQEND
  8
R_SHAFTS_2
  0
POLYLINE
  8
R_SHAFTS_2
 62
8
 66
     1
 70
     9
  0
VERTEX
  8
R_SHAFTS_2
 62
8
 10
558.659
 20
-1379.056
 30
3525.000
 70
    32
  0
VERTEX
  8
R_SHAFTS_2
 62
8
 10
568.659
 20
-1379.056
 30
3525.000
 70
    32
  0
VERTEX
  8
R_SHAFTS_2
 62
8
 10
568.659
 20
-1389.056
 30
3525.000
 70
    32
  0
VERTEX
  8
R_SHAFTS_2
 62
8
 10
558.659
 20
-1389.056
 30
3525.000
 70
    32
  0
SEQEND
  8
R_SHAFTS_2
  0
POLYLINE
  8
R_SHAFTS_2
 62
8
 66
     1
 70
     9
  0
VERTEX
  8
R_SHAFTS_2
 62
8
 10
-700.881
 20
-374.686
 30
5382.190
 70
    32
  0
VERTEX
  8
R_SHAFTS_2
 62
8
 10
-690.881
 20
-374.686
 30
5382.190
 70
    32
  0
VERTEX
  8
R_SHAFTS_2
 62
8
 10
-690.881
 20
-384.686
 30
5382.190
 70
    32
  0
VERTEX
  8
R_SHAFTS_2
 62
8
 10
-700.881
 20
-384.686
 30
5382.190
 70
    32
  0
SEQEND
  8
R_SHAFTS_2
  0
POLYLINE
  8
R_SHAFTS_2
 62
8
 66
     1
 70
     9
  0
VERTEX
  8
R_SHAFTS_2
 62
8
 10
558.659
 20
-1379.056
 30
4920.300
 70
    32
  0
VERTEX
  8
R_SHAFTS_2
 62
8
 10
568.659
 20
-1379.056
 30
4920.300
 70
    32
  0
VERTEX
  8
R_SHAFTS_2
 62
8
 10
568.659
 20
-1389.056
 30
4920.300
 70
    32
  0
VERTEX
  8
R_SHAFTS_2
 62
8
 10
558.659
 20
-1389.056
 30
4920.300
 70
    32
  0
SEQEND
  8
R_SHAFTS_2
  0
POLYLINE
  8
R_SHAFTS_2
 62
8
 66
     1
 70
     9
  0
VERTEX
  8
R_SHAFTS_2
 62
8
 10
1147.989
 20
-1107.236
 30
5288.860
 70
    32
  0
VERTEX
  8
R_SHAFTS_2
 62
8
 10
1157.989
 20
-1107.236
 30
5288.860
 70
    32
  0
VERTEX
  8
R_SHAFTS_2
 62
8
 10
1157.989
 20
-1117.236
 30
5288.860
 70
    32
  0
VERTEX
  8
R_SHAFTS_2
 62
8
 10
1147.989
 20
-1117.236
 30
5288.860
 70
    32
  0
SEQEND
  8
R_SHAFTS_2
  0
POLYLINE
  8
R_SHAFTS_2
 62
8
 66
     1
 70
     9
  0
VERTEX
  8
R_SHAFTS_2
 62
8
 10
1686.099
 20
-794.496
 30
5312.340
 70
    32
  0
VERTEX
  8
R_SHAFTS_2
 62
8
 10
1696.099
 20
-794.496
 30
5312.340
 70
    32
  0
VERTEX
  8
R_SHAFTS_2
 62
8
 10
1696.099
 20
-804.496
 30
5312.340
 70
    32
  0
VERTEX
  8
R_SHAFTS_2
 62
8
 10
1686.099
 20
-804.496
 30
5312.340
 70
    32
  0
SEQEND
  8
R_SHAFTS_2
  0
POLYLINE
  8
R_SHAFTS_2
 62
8
 66
     1
 70
     9
  0
VERTEX
  8
R_SHAFTS_2
 62
8
 10
1335.159
 20
-2429.116
 30
5129.360
 70
    32
  0
VERTEX
  8
R_SHAFTS_2
 62
8
 10
1345.159
 20
-2429.116
 30
5129.360
 70
    32
  0
VERTEX
  8
R_SHAFTS_2
 62
8
 10
1345.159
 20
-2439.116
 30
5129.360
 70
    32
  0
VERTEX
  8
R_SHAFTS_2
 62
8
 10
1335.159
 20
-2439.116
 30
5129.360
 70
    32
  0
SEQEND
  8
R_SHAFTS_2
  0
POLYLINE
  8
R_SHAFTS_2
 62
8
 66
     1
 70
     9
  0
VERTEX
  8
R_SHAFTS_2
 62
8
 10
1901.149
 20
-2678.226
 30
5255.210
 70
    32
  0
VERTEX
  8
R_SHAFTS_2
 62
8
 10
1911.149
 20
-2678.226
 30
5255.210
 70
    32
  0
VERTEX
  8
R_SHAFTS_2
 62
8
 10
1911.149
 20
-2688.226
 30
5255.210
 70
    32
  0
VERTEX
  8
R_SHAFTS_2
 62
8
 10
1901.149
 20
-2688.226
 30
5255.210
 70
    32
  0
SEQEND
  8
R_SHAFTS_2
  0
POLYLINE
  8
R_SHAFTS_2
 62
8
 66
     1
 70
     9
  0
VERTEX
  8
R_SHAFTS_2
 62
8
 10
2860.979
 20
-3818.296
 30
3227.240
 70
    32
  0
VERTEX
  8
R_SHAFTS_2
 62
8
 10
2870.979
 20
-3818.296
 30
3227.240
 70
    32
  0
VERTEX
  8
R_SHAFTS_2
 62
8
 10
2870.979
 20
-3828.296
 30
3227.240
 70
    32
  0
VERTEX
  8
R_SHAFTS_2
 62
8
 10
2860.979
 20
-3828.296
 30
3227.240
 70
    32
  0
SEQEND
  8
R_SHAFTS_2
  0
POLYLINE
  8
R_SHAFTS_2
 62
8
 66
     1
 70
     9
  0
VERTEX
  8
R_SHAFTS_2
 62
8
 10
1915.569
 20
-5410.906
 30
5132.170
 70
    32
  0
VERTEX
  8
R_SHAFTS_2
 62
8
 10
1925.569
 20
-5410.906
 30
5132.170
 70
    32
  0
VERTEX
  8
R_SHAFTS_2
 62
8
 10
1925.569
 20
-5420.906
 30
5132.170
 70
    32
  0
VERTEX
  8
R_SHAFTS_2
 62
8
 10
1915.569
 20
-5420.906
 30
5132.170
 70
    32
  0
SEQEND
  8
R_SHAFTS_2
  0
POLYLINE
  8
R_SHAFTS_2
 62
8
 66
     1
 70
     9
  0
VERTEX
  8
R_SHAFTS_2
 62
8
 10
3476.969
 20
-5184.066
 30
4936.640
 70
    32
  0
VERTEX
  8
R_SHAFTS_2
 62
8
 10
3486.969
 20
-5184.066
 30
4936.640
 70
    32
  0
VERTEX
  8
R_SHAFTS_2
 62
8
 10
3486.969
 20
-5194.066
 30
4936.640
 70
    32
  0
VERTEX
  8
R_SHAFTS_2
 62
8
 10
3476.969
 20
-5194.066
 30
4936.640
 70
    32
  0
SEQEND
  8
R_SHAFTS_2
  0
POLYLINE
  8
R_SHAFTS_2
 62
8
 66
     1
 70
     9
  0
VERTEX
  8
R_SHAFTS_2
 62
8
 10
2007.309
 20
-6365.696
 30
-1540.860
 70
    32
  0
VERTEX
  8
R_SHAFTS_2
 62
8
 10
2017.309
 20
-6365.696
 30
-1540.860
 70
    32
  0
VERTEX
  8
R_SHAFTS_2
 62
8
 10
2017.309
 20
-6375.696
 30
-1540.860
 70
    32
  0
VERTEX
  8
R_SHAFTS_2
 62
8
 10
2007.309
 20
-6375.696
 30
-1540.860
 70
    32
  0
SEQEND
  8
R_SHAFTS_2
  0
POLYLINE
  8
R_SHAFTS_2
 62
8
 66
     1
 70
     9
  0
VERTEX
  8
R_SHAFTS_2
 62
8
 10
5879.549
 20
-8636.476
 30
5137.000
 70
    32
  0
VERTEX
  8
R_SHAFTS_2
 62
8
 10
5889.549
 20
-8636.476
 30
5137.000
 70
    32
  0
VERTEX
  8
R_SHAFTS_2
 62
8
 10
5889.549
 20
-8646.476
 30
5137.000
 70
    32
  0
VERTEX
  8
R_SHAFTS_2
 62
8
 10
5879.549
 20
-8646.476
 30
5137.000
 70
    32
  0
SEQEND
  8
R_SHAFTS_2
  0
POLYLINE
  8
R_SHAFTS_2
 62
8
 66
     1
 70
     9
  0
VERTEX
  8
R_SHAFTS_2
 62
8
 10
1147.989
 20
-1107.236
 30
3522.340
 70
    32
  0
VERTEX
  8
R_SHAFTS_2
 62
8
 10
1157.989
 20
-1107.236
 30
3522.340
 70
    32
  0
VERTEX
  8
R_SHAFTS_2
 62
8
 10
1157.989
 20
-1117.236
 30
3522.340
 70
    32
  0
VERTEX
  8
R_SHAFTS_2
 62
8
 10
1147.989
 20
-1117.236
 30
3522.340
 70
    32
  0
SEQEND
  8
R_SHAFTS_2
  0
POLYLINE
  8
R_SHAFTS_2
 62
8
 66
     1
 70
     9
  0
VERTEX
  8
R_SHAFTS_2
 62
8
 10
1686.099
 20
-794.496
 30
3674.640
 70
    32
  0
VERTEX
  8
R_SHAFTS_2
 62
8
 10
1696.099
 20
-794.496
 30
3674.640
 70
    32
  0
VERTEX
  8
R_SHAFTS_2
 62
8
 10
1696.099
 20
-804.496
 30
3674.640
 70
    32
  0
VERTEX
  8
R_SHAFTS_2
 62
8
 10
1686.099
 20
-804.496
 30
3674.640
 70
    32
  0
SEQEND
  8
R_SHAFTS_2
  0
POLYLINE
  8
R_SHAFTS_2
 62
8
 66
     1
 70
     9
  0
VERTEX
  8
R_SHAFTS_2
 62
8
 10
1335.159
 20
-2429.116
 30
4927.100
 70
    32
  0
VERTEX
  8
R_SHAFTS_2
 62
8
 10
1345.159
 20
-2429.116
 30
4927.100
 70
    32
  0
VERTEX
  8
R_SHAFTS_2
 62
8
 10
1345.159
 20
-2439.116
 30
4927.100
 70
    32
  0
VERTEX
  8
R_SHAFTS_2
 62
8
 10
1335.159
 20
-2439.116
 30
4927.100
 70
    32
  0
SEQEND
  8
R_SHAFTS_2
  0
POLYLINE
  8
R_SHAFTS_2
 62
8
 66
     1
 70
     9
  0
VERTEX
  8
R_SHAFTS_2
 62
8
 10
1901.149
 20
-2678.226
 30
2022.470
 70
    32
  0
VERTEX
  8
R_SHAFTS_2
 62
8
 10
1911.149
 20
-2678.226
 30
2022.470
 70
    32
  0
VERTEX
  8
R_SHAFTS_2
 62
8
 10
1911.149
 20
-2688.226
 30
2022.470
 70
    32
  0
VERTEX
  8
R_SHAFTS_2
 62
8
 10
1901.149
 20
-2688.226
 30
2022.470
 70
    32
  0
SEQEND
  8
R_SHAFTS_2
  0
POLYLINE
  8
R_SHAFTS_2
 62
8
 66
     1
 70
     9
  0
VERTEX
  8
R_SHAFTS_2
 62
8
 10
2860.979
 20
-3818.296
 30
1722.490
 70
    32
  0
VERTEX
  8
R_SHAFTS_2
 62
8
 10
2870.979
 20
-3818.296
 30
1722.490
 70
    32
  0
VERTEX
  8
R_SHAFTS_2
 62
8
 10
2870.979
 20
-3828.296
 30
1722.490
 70
    32
  0
VERTEX
  8
R_SHAFTS_2
 62
8
 10
2860.979
 20
-3828.296
 30
1722.490
 70
    32
  0
SEQEND
  8
R_SHAFTS_2
  0
POLYLINE
  8
R_SHAFTS_2
 62
8
 66
     1
 70
     9
  0
VERTEX
  8
R_SHAFTS_2
 62
8
 10
3476.969
 20
-5184.066
 30
1123.440
 70
    32
  0
VERTEX
  8
R_SHAFTS_2
 62
8
 10
3486.969
 20
-5184.066
 30
1123.440
 70
    32
  0
VERTEX
  8
R_SHAFTS_2
 62
8
 10
3486.969
 20
-5194.066
 30
1123.440
 70
    32
  0
VERTEX
  8
R_SHAFTS_2
 62
8
 10
3476.969
 20
-5194.066
 30
1123.440
 70
    32
  0
SEQEND
  8
R_SHAFTS_2
  0
POLYLINE
  8
R_SHAFTS_2
 62
8
 66
     1
 70
     9
  0
VERTEX
  8
R_SHAFTS_2
 62
8
 10
1915.569
 20
-5410.906
 30
4430.130
 70
    32
  0
VERTEX
  8
R_SHAFTS_2
 62
8
 10
1925.569
 20
-5410.906
 30
4430.130
 70
    32
  0
VERTEX
  8
R_SHAFTS_2
 62
8
 10
1925.569
 20
-5420.906
 30
4430.130
 70
    32
  0
VERTEX
  8
R_SHAFTS_2
 62
8
 10
1915.569
 20
-5420.906
 30
4430.130
 70
    32
  0
SEQEND
  8
R_SHAFTS_2
  0
POLYLINE
  8
R_SHAFTS_2
 62
8
 66
     1
 70
     9
  0
VERTEX
  8
R_SHAFTS_2
 62
8
 10
2007.309
 20
-6365.696
 30
-2727.190
 70
    32
  0
VERTEX
  8
R_SHAFTS_2
 62
8
 10
2017.309
 20
-6365.696
 30
-2727.190
 70
    32
  0
VERTEX
  8
R_SHAFTS_2
 62
8
 10
2017.309
 20
-6375.696
 30
-2727.190
 70
    32
  0
VERTEX
  8
R_SHAFTS_2
 62
8
 10
2007.309
 20
-6375.696
 30
-2727.190
 70
    32
  0
SEQEND
  8
R_SHAFTS_2
  0
POLYLINE
  8
R_SHAFTS_2
 62
8
 66
     1
 70
     9
  0
VERTEX
  8
R_SHAFTS_2
 62
8
 10
5879.549
 20
-8636.476
 30
-1571.540
 70
    32
  0
VERTEX
  8
R_SHAFTS_2
 62
8
 10
5889.549
 20
-8636.476
 30
-1571.540
 70
    32
  0
VERTEX
  8
R_SHAFTS_2
 62
8
 10
5889.549
 20
-8646.476
 30
-1571.540
 70
    32
  0
VERTEX
  8
R_SHAFTS_2
 62
8
 10
5879.549
 20
-8646.476
 30
-1571.540
 70
    32
  0
SEQEND
  8
R_SHAFTS_2
  0
LINE
  8
R_SHAFTS_2
 62
8
 10
-468.481
 20
680.374
 30
5204.360
 11
-468.481
 21
680.374
 31
4431.830
  0
LINE
  8
R_SHAFTS_2
 62
8
 10
-700.881
 20
-374.686
 30
5382.190
 11
-700.881
 21
-384.686
 31
4127.920
  0
LINE
  8
R_SHAFTS_2
 62
8
 10
558.659
 20
-1389.056
 30
4920.300
 11
558.659
 21
-1389.056
 31
3525.000
  0
LINE
  8
R_SHAFTS_2
 62
8
 10
1147.989
 20
-1107.236
 30
5288.860
 11
1147.989
 21
-1117.236
 31
3522.340
  0
LINE
  8
R_SHAFTS_2
 62
8
 10
1686.099
 20
-794.496
 30
5312.340
 11
1686.099
 21
-804.496
 31
3674.640
  0
LINE
  8
R_SHAFTS_2
 62
8
 10
1335.159
 20
-2439.116
 30
5129.360
 11
1335.159
 21
-2439.116
 31
4927.100
  0
LINE
  8
R_SHAFTS_2
 62
8
 10
1901.149
 20
-2678.226
 30
5255.210
 11
1901.149
 21
-2678.226
 31
2022.470
  0
LINE
  8
R_SHAFTS_2
 62
8
 10
2860.979
 20
-3828.296
 30
3227.240
 11
2860.979
 21
-3818.296
 31
1722.490
  0
LINE
  8
R_SHAFTS_2
 62
8
 10
1915.569
 20
-5410.906
 30
5132.170
 11
1915.569
 21
-5410.906
 31
4430.130
  0
LINE
  8
R_SHAFTS_2
 62
8
 10
3476.969
 20
-5194.066
 30
4936.640
 11
3476.969
 21
-5189.066
 31
1123.440
  0
LINE
  8
R_SHAFTS_2
 62
8
 10
2007.309
 20
-6365.696
 30
-1540.860
 11
2007.309
 21
-6365.696
 31
-2727.190
  0
POLYLINE
  8
R_SHAFTS_2
 62
8
 66
     1
 70
     9
  0
VERTEX
  8
R_SHAFTS_2
 62
8
 10
1686.099
 20
-794.496
 30
5312.340
 70
    32
  0
VERTEX
  8
R_SHAFTS_2
 62
8
 10
1696.099
 20
-794.496
 30
5312.340
 70
    32
  0
VERTEX
  8
R_SHAFTS_2
 62
8
 10
1696.099
 20
-804.496
 30
5312.340
 70
    32
  0
VERTEX
  8
R_SHAFTS_2
 62
8
 10
1686.099
 20
-794.909
 30
5244.801
 70
    32
  0
SEQEND
  8
R_SHAFTS_2
  0
POLYLINE
  8
R_SHAFTS_2
 62
8
 66
     1
 70
     9
  0
VERTEX
  8
R_SHAFTS_2
 62
8
 10
4834.380
 20
-6367.750
 30
1126.470
 70
    32
  0
VERTEX
  8
R_SHAFTS_2
 62
8
 10
4844.380
 20
-6367.750
 30
1126.470
 70
    32
  0
VERTEX
  8
R_SHAFTS_2
 62
8
 10
4844.380
 20
-6377.750
 30
1126.470
 70
    32
  0
VERTEX
  8
R_SHAFTS_2
 62
8
 10
4834.380
 20
-6377.750
 30
1126.470
 70
    32
  0
SEQEND
  8
R_SHAFTS_2
  0
POLYLINE
  8
R_SHAFTS_2
 62
8
 66
     1
 70
     9
  0
VERTEX
  8
R_SHAFTS_2
 62
8
 10
4834.380
 20
-6367.750
 30
226.130
 70
    32
  0
VERTEX
  8
R_SHAFTS_2
 62
8
 10
4844.380
 20
-6367.750
 30
226.130
 70
    32
  0
VERTEX
  8
R_SHAFTS_2
 62
8
 10
4844.380
 20
-6377.750
 30
226.130
 70
    32
  0
VERTEX
  8
R_SHAFTS_2
 62
8
 10
4834.380
 20
-6377.750
 30
226.130
 70
    32
  0
SEQEND
  8
R_SHAFTS_2
  0
LINE
  8
R_SHAFTS_2
 62
8
 10
4834.380
 20
-6377.750
 30
1126.470
 11
4834.380
 21
-6377.750
 31
226.130
  0
LINE
  8
R_SHAFTS_2
 62
8
 10
5879.549
 20
-8636.476
 30
5137.000
 11
5879.549
 21
-8636.476
 31
-1571.540
  0
TEXT
  8
R_SHAFTS_2
 62
1
 10
-3686.775
 20
1100.846
 30
5023.474
 40
0.100
  1
HIDDEN FORTUNE
 50
90.000
 41
 1.0 
  0
TEXT
  8
R_SHAFTS_2
 62
1
 10
-2646.317
 20
3286.313
 30
4684.308
 40
0.100
  1
COLUMBUS
 50
90.000
 41
 1.0 
  0
TEXT
  8
R_SHAFTS_2
 62
1
 10
-1289.325
 20
2104.285
 30
4718.055
 40
0.100
  1
GOLDEN GATE
 50
90.000
 41
 1.0 
  0
TEXT
  8
R_SHAFTS_2
 62
1
 10
-437.381
 20
657.720
 30
4801.051
 40
0.100
  1
OLD BRIG
 50
90.000
 41
 1.0 
  0
TEXT
  8
R_SHAFTS_2
 62
1
 10
-684.973
 20
-360.193
 30
4697.205
 40
0.100
  1
HIGHLAND
 50
90.000
 41
 1.0 
  0
TEXT
  8
R_SHAFTS_2
 62
1
 10
589.116
 20
-1391.339
 30
4229.343
 40
0.100
  1
STAR
 50
90.000
 41
 1.0 
  0
TEXT
  8
R_SHAFTS_2
 62
1
 10
1177.126
 20
-1114.364
 30
4440.533
 40
0.100
  1
B&M
 50
90.000
 41
 1.0 
  0
TEXT
  8
R_SHAFTS_2
 62
1
 10
1359.568
 20
-2445.945
 30
5021.168
 40
0.100
  1
PIERCE
 50
90.000
 41
 1.0 
  0
TEXT
  8
R_SHAFTS_2
 62
1
 10
1926.495
 20
-2678.590
 30
3469.752
 40
0.100
  1
ELLISON
 50
90.000
 41
 1.0 
  0
TEXT
  8
R_SHAFTS_2
 62
1
 10
2927.776
 20
-3877.189
 30
2456.247
 40
0.100
  1
MILLIKEN
 50
90.000
 41
 1.0 
  0
TEXT
  8
R_SHAFTS_2
 62
1
 10
1949.046
 20
-5433.893
 30
4750.731
 40
0.100
  1
MILNARICH
 50
90.000
 41
 1.0 
  0
TEXT
  8
R_SHAFTS_2
 62
1
 10
3551.182
 20
-5227.224
 30
2980.752
 40
0.100
  1
ORO HONDO
 50
90.000
 41
 1.0 
  0
TEXT
  8
R_SHAFTS_2
 62
1
 10
2017.349
 20
-6357.658
 30
-2173.886
 40
0.100
  1
7 SHAFT
 50
90.000
 41
 1.0 
  0
TEXT
  8
R_SHAFTS_2
 62
1
 10
5906.133
 20
-8623.541
 30
2312.731
 40
0.100
  1
5 SHAFT
 50
90.000
 41
 1.0 
  0
TEXT
  8
R_SHAFTS_2
 62
1
 10
1697.299
 20
-799.316
 30
4453.134
 40
0.100
  1
B&M#2
 50
90.000
 41
 1.0 
  0
TEXT
  8
R_SHAFTS_2
 62
1
 10
4839.607
 20
-6346.803
 30
607.064
 40
0.100
  1
3 WINZE
 50
90.000
 41
 1.0 
  0
TEXT
  8
R_SHAFTS_2
 62
1
 10
2168.342
 20
-2426.315
 30
4107.000
 40
0.100
  1
#2 AIR RAISE - APPROX LOCATION
 50
90.000
 41
 1.0 
  0
POLYLINE
  8
R_SHAFTS_1
 62
6
 66
     1
 70
     9
  0
VERTEX
  8
R_SHAFTS_1
 62
6
 10
2130.839
 20
-4604.504
 30
5355.000
 70
    32
  0
VERTEX
  8
R_SHAFTS_1
 62
6
 10
2138.228
 20
-4604.504
 30
5355.000
 70
    32
  0
VERTEX
  8
R_SHAFTS_1
 62
6
 10
2137.839
 20
-4627.259
 30
5355.000
 70
    32
  0
VERTEX
  8
R_SHAFTS_1
 62
6
 10
2130.256
 20
-4627.259
 30
5355.000
 70
    32
  0
SEQEND
  8
R_SHAFTS_1
  0
POLYLINE
  8
R_SHAFTS_1
 62
6
 66
     1
 70
     9
  0
VERTEX
  8
R_SHAFTS_1
 62
6
 10
3992.817
 20
-2531.732
 30
5310.000
 70
    32
  0
VERTEX
  8
R_SHAFTS_1
 62
6
 10
3985.496
 20
-2520.607
 30
5310.000
 70
    32
  0
VERTEX
  8
R_SHAFTS_1
 62
6
 10
3988.791
 20
-2518.406
 30
5310.000
 70
    32
  0
VERTEX
  8
R_SHAFTS_1
 62
6
 10
3996.112
 20
-2529.409
 30
5310.000
 70
    32
  0
SEQEND
  8
R_SHAFTS_1
  0
POLYLINE
  8
R_SHAFTS_1
 62
6
 66
     1
 70
     9
  0
VERTEX
  8
R_SHAFTS_1
 62
6
 10
5884.445
 20
-8451.304
 30
527.000
 70
    32
  0
VERTEX
  8
R_SHAFTS_1
 62
6
 10
5875.030
 20
-8437.336
 30
527.000
 70
    32
  0
VERTEX
  8
R_SHAFTS_1
 62
6
 10
5881.621
 20
-8433.372
 30
527.000
 70
    32
  0
VERTEX
  8
R_SHAFTS_1
 62
6
 10
5891.035
 20
-8446.774
 30
527.000
 70
    32
  0
SEQEND
  8
R_SHAFTS_1
  0
POLYLINE
  8
R_SHAFTS_1
 62
6
 66
     1
 70
     9
  0
VERTEX
  8
R_SHAFTS_1
 62
6
 10
2150.594
 20
-4783.658
 30
699.000
 70
    32
  0
VERTEX
  8
R_SHAFTS_1
 62
6
 10
2156.312
 20
-4785.505
 30
699.000
 70
    32
  0
VERTEX
  8
R_SHAFTS_1
 62
6
 10
2151.332
 20
-4804.349
 30
699.000
 70
    32
  0
VERTEX
  8
R_SHAFTS_1
 62
6
 10
2144.692
 20
-4802.316
 30
699.000
 70
    32
  0
SEQEND
  8
R_SHAFTS_1
  0
POLYLINE
  8
R_SHAFTS_1
 62
6
 66
     1
 70
     9
  0
VERTEX
  8
R_SHAFTS_1
 62
6
 10
3992.817
 20
-2531.732
 30
376.000
 70
    32
  0
VERTEX
  8
R_SHAFTS_1
 62
6
 10
3985.496
 20
-2520.607
 30
376.000
 70
    32
  0
VERTEX
  8
R_SHAFTS_1
 62
6
 10
3988.791
 20
-2518.406
 30
376.000
 70
    32
  0
VERTEX
  8
R_SHAFTS_1
 62
6
 10
3996.112
 20
-2529.409
 30
376.000
 70
    32
  0
SEQEND
  8
R_SHAFTS_1
  0
POLYLINE
  8
R_SHAFTS_1
 62
6
 66
     1
 70
     9
  0
VERTEX
  8
R_SHAFTS_1
 62
6
 10
5884.445
 20
-8451.304
 30
-2314.000
 70
    32
  0
VERTEX
  8
R_SHAFTS_1
 62
6
 10
5875.030
 20
-8437.336
 30
-2314.000
 70
    32
  0
VERTEX
  8
R_SHAFTS_1
 62
6
 10
5881.621
 20
-8433.372
 30
-2314.000
 70
    32
  0
VERTEX
  8
R_SHAFTS_1
 62
6
 10
5891.035
 20
-8446.774
 30
-2314.000
 70
    32
  0
SEQEND
  8
R_SHAFTS_1
  0
POLYLINE
  8
R_SHAFTS_1
 62
6
 66
     1
 70
     9
  0
VERTEX
  8
R_SHAFTS_1
 62
6
 10
2130.839
 20
-4604.504
 30
228.000
 70
    32
  0
VERTEX
  8
R_SHAFTS_1
 62
6
 10
2138.228
 20
-4604.504
 30
228.000
 70
    32
  0
VERTEX
  8
R_SHAFTS_1
 62
6
 10
2137.839
 20
-4627.259
 30
228.000
 70
    32
  0
VERTEX
  8
R_SHAFTS_1
 62
6
 10
2130.256
 20
-4627.259
 30
228.000
 70
    32
  0
SEQEND
  8
R_SHAFTS_1
  0
POLYLINE
  8
R_SHAFTS_1
 62
6
 66
     1
 70
     9
  0
VERTEX
  8
R_SHAFTS_1
 62
6
 10
2150.594
 20
-4783.658
 30
-2960.000
 70
    32
  0
VERTEX
  8
R_SHAFTS_1
 62
6
 10
2156.312
 20
-4785.505
 30
-2960.000
 70
    32
  0
VERTEX
  8
R_SHAFTS_1
 62
6
 10
2151.332
 20
-4804.349
 30
-2960.000
 70
    32
  0
VERTEX
  8
R_SHAFTS_1
 62
6
 10
2144.692
 20
-4802.316
 30
-2960.000
 70
    32
  0
SEQEND
  8
R_SHAFTS_1
  0
LINE
  8
R_SHAFTS_1
 62
13
 10
5887.740
 20
-8449.039
 30
527.000
 11
5887.740
 21
-8449.039
 31
-2314.000
  0
LINE
  8
R_SHAFTS_1
 62
13
 10
2147.643
 20
-4792.987
 30
699.000
 11
2147.643
 21
-4792.987
 31
-2960.000
  0
LINE
  8
R_SHAFTS_1
 62
13
 10
2130.547
 20
-4615.882
 30
5355.000
 11
2130.547
 21
-4615.882
 31
228.000
  0
LINE
  8
R_SHAFTS_1
 62
13
 10
3994.465
 20
-2530.570
 30
5310.000
 11
3994.465
 21
-2530.570
 31
376.000
  0
TEXT
  8
R_SHAFTS_1
 62
1
 10
2169.321
 20
-4771.133
 30
-958.959
 40
4.101
  1
6-SHAFT
 41
 1.0 
  0
TEXT
  8
R_SHAFTS_1
 62
1
 10
2153.751
 20
-4589.779
 30
2937.728
 40
4.101
  1
ROSS
 50
88.532
 41
 1.0 
  0
TEXT
  8
R_SHAFTS_1
 62
1
 10
4010.258
 20
-2505.121
 30
2898.139
 40
4.101
  1
YATES
 41
 1.0 
  0
TEXT
  8
R_SHAFTS_1
 62
1
 10
5881.528
 20
-8420.618
 30
-792.374
 40
4.101
  1
4-WINZE
 41
 1.0 
  0
POLYLINE
  8
T41SSILL
 62
4
 66
     1
 70
     9
  0
VERTEX
  8
T41SSILL
 62
4
 10
3888.482
 20
-6895.937
 30
1136.380
 70
    32
  0
VERTEX
  8
T41SSILL
 62
4
 10
3888.482
 20
-6895.939
 30
1136.380
 70
    32
  0
SEQEND
  8
T41SSILL
  0
POLYLINE
  8
T41SSILL
 62
4
 66
     1
 70
     9
  0
VERTEX
  8
T41SSILL
 62
4
 10
3410.073
 20
-6684.485
 30
1136.825
 70
    32
  0
VERTEX
  8
T41SSILL
 62
4
 10
3410.055
 20
-6684.548
 30
1136.825
 70
    32
  0
SEQEND
  8
T41SSILL
  0
POLYLINE
  8
T41SSILL
 62
4
 66
     1
 70
     9
  0
VERTEX
  8
T41SSILL
 62
4
 10
3929.942
 20
-2494.208
 30
1134.361
 70
    32
  0
VERTEX
  8
T41SSILL
 62
4
 10
3971.169
 20
-2516.639
 30
1134.269
 70
    32
  0
VERTEX
  8
T41SSILL
 62
4
 10
3978.852
 20
-2527.205
 30
1134.242
 70
    32
  0
VERTEX
  8
T41SSILL
 62
4
 10
3963.064
 20
-2539.877
 30
1134.248
 70
    32
  0
VERTEX
  8
T41SSILL
 62
4
 10
3971.935
 20
-2552.408
 30
1134.221
 70
    32
  0
VERTEX
  8
T41SSILL
 62
4
 10
3940.552
 20
-2576.963
 30
1134.228
 70
    32
  0
VERTEX
  8
T41SSILL
 62
4
 10
3927.228
 20
-2493.530
 30
1134.366
 70
    32
  0
SEQEND
  8
T41SSILL
  0
POLYLINE
  8
T41SSILL
 62
4
 66
     1
 70
     9
  0
VERTEX
  8
T41SSILL
 62
4
 10
3766.184
 20
-6994.456
 30
1136.865
 70
    32
  0
VERTEX
  8
T41SSILL
 62
4
 10
3841.596
 20
-6940.630
 30
1136.585
 70
    32
  0
VERTEX
  8
T41SSILL
 62
4
 10
3834.326
 20
-6934.146
 30
1136.578
 70
    32
  0
VERTEX
  8
T41SSILL
 62
4
 10
3820.705
 20
-6912.440
 30
1136.536
 70
    32
  0
VERTEX
  8
T41SSILL
 62
4
 10
3818.910
 20
-6906.982
 30
1136.523
 70
    32
  0
VERTEX
  8
T41SSILL
 62
4
 10
3818.131
 20
-6894.374
 30
1136.487
 70
    32
  0
VERTEX
  8
T41SSILL
 62
4
 10
3829.236
 20
-6877.817
 30
1136.428
 70
    32
  0
VERTEX
  8
T41SSILL
 62
4
 10
3835.033
 20
-6873.726
 30
1136.412
 70
    32
  0
VERTEX
  8
T41SSILL
 62
4
 10
3852.304
 20
-6870.979
 30
1136.380
 70
    32
  0
VERTEX
  8
T41SSILL
 62
4
 10
3864.148
 20
-6875.320
 30
1136.368
 70
    32
  0
VERTEX
  8
T41SSILL
 62
4
 10
3873.326
 20
-6876.325
 30
1136.355
 70
    32
  0
VERTEX
  8
T41SSILL
 62
4
 10
3880.800
 20
-6869.066
 30
1136.330
 70
    32
  0
VERTEX
  8
T41SSILL
 62
4
 10
3881.906
 20
-6803.949
 30
1136.249
 70
    32
  0
VERTEX
  8
T41SSILL
 62
4
 10
3878.007
 20
-6806.697
 30
1136.257
 70
    32
  0
VERTEX
  8
T41SSILL
 62
4
 10
3876.447
 20
-6812.821
 30
1136.265
 70
    32
  0
VERTEX
  8
T41SSILL
 62
4
 10
3870.606
 20
-6811.914
 30
1136.274
 70
    32
  0
VERTEX
  8
T41SSILL
 62
4
 10
3865.504
 20
-6821.322
 30
1136.290
 70
    32
  0
VERTEX
  8
T41SSILL
 62
4
 10
3847.883
 20
-6830.757
 30
1136.327
 70
    32
  0
VERTEX
  8
T41SSILL
 62
4
 10
3839.935
 20
-6837.197
 30
1136.345
 70
    32
  0
VERTEX
  8
T41SSILL
 62
4
 10
3830.350
 20
-6840.287
 30
1136.364
 70
    32
  0
VERTEX
  8
T41SSILL
 62
4
 10
3825.373
 20
-6843.795
 30
1136.378
 70
    32
  0
VERTEX
  8
T41SSILL
 62
4
 10
3813.118
 20
-6861.896
 30
1136.428
 70
    32
  0
VERTEX
  8
T41SSILL
 62
4
 10
3801.737
 20
-6872.421
 30
1136.464
 70
    32
  0
VERTEX
  8
T41SSILL
 62
4
 10
3788.514
 20
-6879.799
 30
1136.498
 70
    32
  0
VERTEX
  8
T41SSILL
 62
4
 10
3781.121
 20
-6882.196
 30
1136.514
 70
    32
  0
VERTEX
  8
T41SSILL
 62
4
 10
3781.321
 20
-6899.067
 30
1136.560
 70
    32
  0
VERTEX
  8
T41SSILL
 62
4
 10
3777.424
 20
-6914.991
 30
1136.613
 70
    32
  0
VERTEX
  8
T41SSILL
 62
4
 10
3774.065
 20
-6920.748
 30
1136.635
 70
    32
  0
VERTEX
  8
T41SSILL
 62
4
 10
3758.395
 20
-6930.671
 30
1136.690
 70
    32
  0
VERTEX
  8
T41SSILL
 62
4
 10
3743.297
 20
-6932.665
 30
1136.720
 70
    32
  0
VERTEX
  8
T41SSILL
 62
4
 10
3736.367
 20
-6929.791
 30
1136.723
 70
    32
  0
VERTEX
  8
T41SSILL
 62
4
 10
3729.645
 20
-6924.405
 30
1136.718
 70
    32
  0
VERTEX
  8
T41SSILL
 62
4
 10
3720.176
 20
-6921.126
 30
1136.724
 70
    32
  0
VERTEX
  8
T41SSILL
 62
4
 10
3734.098
 20
-6937.108
 30
1136.748
 70
    32
  0
VERTEX
  8
T41SSILL
 62
4
 10
3741.909
 20
-6950.910
 30
1136.776
 70
    32
  0
VERTEX
  8
T41SSILL
 62
4
 10
3744.001
 20
-6963.318
 30
1136.809
 70
    32
  0
VERTEX
  8
T41SSILL
 62
4
 10
3738.005
 20
-6974.093
 30
1136.851
 70
    32
  0
VERTEX
  8
T41SSILL
 62
4
 10
3745.932
 20
-6969.499
 30
1136.824
 70
    32
  0
VERTEX
  8
T41SSILL
 62
4
 10
3752.398
 20
-6985.934
 30
1136.862
 70
    32
  0
VERTEX
  8
T41SSILL
 62
4
 10
3762.463
 20
-6991.172
 30
1136.862
 70
    32
  0
SEQEND
  8
T41SSILL
  0
POLYLINE
  8
T41SSILL
 62
4
 66
     1
 70
     9
  0
VERTEX
  8
T41SSILL
 62
4
 10
-47.080
 20
-6952.530
 30
1138.737
 70
    32
  0
VERTEX
  8
T41SSILL
 62
4
 10
-46.433
 20
-6965.268
 30
1138.752
 70
    32
  0
VERTEX
  8
T41SSILL
 62
4
 10
-42.156
 20
-6974.105
 30
1138.755
 70
    32
  0
VERTEX
  8
T41SSILL
 62
4
 10
-36.564
 20
-6980.963
 30
1138.752
 70
    32
  0
VERTEX
  8
T41SSILL
 62
4
 10
-28.962
 20
-6982.040
 30
1138.738
 70
    32
  0
VERTEX
  8
T41SSILL
 62
4
 10
-20.503
 20
-6996.779
 30
1138.740
 70
    32
  0
VERTEX
  8
T41SSILL
 62
4
 10
-13.357
 20
-6993.777
 30
1138.722
 70
    32
  0
VERTEX
  8
T41SSILL
 62
4
 10
-8.359
 20
-7001.795
 30
1138.722
 70
    32
  0
VERTEX
  8
T41SSILL
 62
4
 10
-0.231
 20
-7002.080
 30
1138.706
 70
    32
  0
VERTEX
  8
T41SSILL
 62
4
 10
13.324
 20
-7011.159
 30
1138.690
 70
    32
  0
VERTEX
  8
T41SSILL
 62
4
 10
13.808
 20
-7032.046
 30
1138.717
 70
    32
  0
VERTEX
  8
T41SSILL
 62
4
 10
12.269
 20
-7047.364
 30
1138.740
 70
    32
  0
VERTEX
  8
T41SSILL
 62
4
 10
17.432
 20
-7053.446
 30
1138.737
 70
    32
  0
VERTEX
  8
T41SSILL
 62
4
 10
58.969
 20
-7024.026
 30
1138.614
 70
    32
  0
VERTEX
  8
T41SSILL
 62
4
 10
60.124
 20
-7019.798
 30
1138.606
 70
    32
  0
VERTEX
  8
T41SSILL
 62
4
 10
78.135
 20
-7009.402
 30
1138.556
 70
    32
  0
VERTEX
  8
T41SSILL
 62
4
 10
89.617
 20
-7005.229
 30
1138.527
 70
    32
  0
VERTEX
  8
T41SSILL
 62
4
 10
91.275
 20
-7000.333
 30
1138.517
 70
    32
  0
VERTEX
  8
T41SSILL
 62
4
 10
71.869
 20
-6974.392
 30
1138.523
 70
    32
  0
VERTEX
  8
T41SSILL
 62
4
 10
64.366
 20
-6970.354
 30
1138.533
 70
    32
  0
VERTEX
  8
T41SSILL
 62
4
 10
55.622
 20
-6971.351
 30
1138.552
 70
    32
  0
VERTEX
  8
T41SSILL
 62
4
 10
46.385
 20
-6978.156
 30
1138.579
 70
    32
  0
VERTEX
  8
T41SSILL
 62
4
 10
39.408
 20
-6968.824
 30
1138.581
 70
    32
  0
VERTEX
  8
T41SSILL
 62
4
 10
48.382
 20
-6962.415
 30
1138.555
 70
    32
  0
VERTEX
  8
T41SSILL
 62
4
 10
50.627
 20
-6965.046
 30
1138.554
 70
    32
  0
VERTEX
  8
T41SSILL
 62
4
 10
66.620
 20
-6953.900
 30
1138.511
 70
    32
  0
VERTEX
  8
T41SSILL
 62
4
 10
39.537
 20
-6916.216
 30
1138.521
 70
    32
  0
VERTEX
  8
T41SSILL
 62
4
 10
19.401
 20
-6905.678
 30
1138.539
 70
    32
  0
VERTEX
  8
T41SSILL
 62
4
 10
5.503
 20
-6902.623
 30
1138.564
 70
    32
  0
VERTEX
  8
T41SSILL
 62
4
 10
0.686
 20
-6904.340
 30
1138.576
 70
    32
  0
VERTEX
  8
T41SSILL
 62
4
 10
-50.813
 20
-6941.066
 30
1138.729
 70
    32
  0
VERTEX
  8
T41SSILL
 62
4
 10
-51.242
 20
-6944.792
 30
1138.735
 70
    32
  0
VERTEX
  8
T41SSILL
 62
4
 10
-47.629
 20
-6950.337
 30
1138.735
 70
    32
  0
SEQEND
  8
T41SSILL
  0
POLYLINE
  8
T41SSILL
 62
4
 66
     1
 70
     9
  0
VERTEX
  8
T41SSILL
 62
4
 10
3815.442
 20
-7462.744
 30
1137.337
 70
    32
  0
VERTEX
  8
T41SSILL
 62
4
 10
3830.623
 20
-7479.766
 30
1137.418
 70
    32
  0
VERTEX
  8
T41SSILL
 62
4
 10
3828.288
 20
-7457.466
 30
1137.340
 70
    32
  0
VERTEX
  8
T41SSILL
 62
4
 10
3829.125
 20
-7449.788
 30
1137.317
 70
    32
  0
VERTEX
  8
T41SSILL
 62
4
 10
3850.787
 20
-7443.752
 30
1137.333
 70
    32
  0
VERTEX
  8
T41SSILL
 62
4
 10
3844.938
 20
-7393.513
 30
1137.239
 70
    32
  0
VERTEX
  8
T41SSILL
 62
4
 10
3839.825
 20
-7393.895
 30
1137.241
 70
    32
  0
VERTEX
  8
T41SSILL
 62
4
 10
3812.852
 20
-7442.033
 30
1137.311
 70
    32
  0
SEQEND
  8
T41SSILL
  0
POLYLINE
  8
T41SSILL
 62
4
 66
     1
 70
     9
  0
VERTEX
  8
T41SSILL
 62
4
 10
3082.394
 20
-7265.001
 30
1137.598
 70
    32
  0
VERTEX
  8
T41SSILL
 62
4
 10
3063.825
 20
-7278.061
 30
1137.600
 70
    32
  0
VERTEX
  8
T41SSILL
 62
4
 10
3080.503
 20
-7274.716
 30
1137.596
 70
    32
  0
VERTEX
  8
T41SSILL
 62
4
 10
3096.079
 20
-7267.285
 30
1137.594
 70
    32
  0
VERTEX
  8
T41SSILL
 62
4
 10
3111.280
 20
-7253.616
 30
1137.593
 70
    32
  0
VERTEX
  8
T41SSILL
 62
4
 10
3127.073
 20
-7230.084
 30
1137.594
 70
    32
  0
VERTEX
  8
T41SSILL
 62
4
 10
3124.519
 20
-7228.346
 30
1137.595
 70
    32
  0
VERTEX
  8
T41SSILL
 62
4
 10
3079.501
 20
-7260.687
 30
1137.599
 70
    32
  0
SEQEND
  8
T41SSILL
  0
POLYLINE
  8
T41SSILL
 62
4
 66
     1
 70
     9
  0
VERTEX
  8
T41SSILL
 62
4
 10
5066.217
 20
-6771.224
 30
1137.467
 70
    32
  0
VERTEX
  8
T41SSILL
 62
4
 10
5068.672
 20
-6780.450
 30
1137.478
 70
    32
  0
VERTEX
  8
T41SSILL
 62
4
 10
5070.957
 20
-6779.881
 30
1137.479
 70
    32
  0
VERTEX
  8
T41SSILL
 62
4
 10
5074.057
 20
-6760.054
 30
1137.465
 70
    32
  0
VERTEX
  8
T41SSILL
 62
4
 10
5071.671
 20
-6754.798
 30
1137.458
 70
    32
  0
VERTEX
  8
T41SSILL
 62
4
 10
5064.230
 20
-6753.338
 30
1137.450
 70
    32
  0
VERTEX
  8
T41SSILL
 62
4
 10
5063.287
 20
-6760.063
 30
1137.455
 70
    32
  0
SEQEND
  8
T41SSILL
  0
POLYLINE
  8
T41SSILL
 62
4
 66
     1
 70
     9
  0
VERTEX
  8
T41SSILL
 62
4
 10
4394.389
 20
-6045.513
 30
1135.724
 70
    32
  0
VERTEX
  8
T41SSILL
 62
4
 10
4395.497
 20
-6049.314
 30
1135.728
 70
    32
  0
VERTEX
  8
T41SSILL
 62
4
 10
4400.732
 20
-6045.753
 30
1135.730
 70
    32
  0
VERTEX
  8
T41SSILL
 62
4
 10
4404.206
 20
-6050.900
 30
1135.738
 70
    32
  0
VERTEX
  8
T41SSILL
 62
4
 10
4416.367
 20
-6042.296
 30
1135.740
 70
    32
  0
VERTEX
  8
T41SSILL
 62
4
 10
4422.332
 20
-6027.638
 30
1135.731
 70
    32
  0
VERTEX
  8
T41SSILL
 62
4
 10
4422.236
 20
-6019.616
 30
1135.723
 70
    32
  0
VERTEX
  8
T41SSILL
 62
4
 10
4420.522
 20
-6014.751
 30
1135.717
 70
    32
  0
VERTEX
  8
T41SSILL
 62
4
 10
4378.045
 20
-5953.555
 30
1135.547
 70
    32
  0
VERTEX
  8
T41SSILL
 62
4
 10
4367.632
 20
-5960.594
 30
1135.547
 70
    32
  0
VERTEX
  8
T41SSILL
 62
4
 10
4374.855
 20
-5972.163
 30
1135.586
 70
    32
  0
VERTEX
  8
T41SSILL
 62
4
 10
4369.881
 20
-5975.903
 30
1135.585
 70
    32
  0
VERTEX
  8
T41SSILL
 62
4
 10
4374.311
 20
-5982.382
 30
1135.603
 70
    32
  0
VERTEX
  8
T41SSILL
 62
4
 10
4381.027
 20
-5998.226
 30
1135.641
 70
    32
  0
VERTEX
  8
T41SSILL
 62
4
 10
4392.835
 20
-6042.324
 30
1135.719
 70
    32
  0
SEQEND
  8
T41SSILL
  0
POLYLINE
  8
T41SSILL
 62
4
 66
     1
 70
     9
  0
VERTEX
  8
T41SSILL
 62
4
 10
4588.628
 20
-6082.014
 30
1135.934
 70
    32
  0
VERTEX
  8
T41SSILL
 62
4
 10
4591.196
 20
-6080.894
 30
1135.936
 70
    32
  0
VERTEX
  8
T41SSILL
 62
4
 10
4591.413
 20
-6076.842
 30
1135.932
 70
    32
  0
VERTEX
  8
T41SSILL
 62
4
 10
4588.513
 20
-6067.206
 30
1135.920
 70
    32
  0
VERTEX
  8
T41SSILL
 62
4
 10
4579.822
 20
-6054.956
 30
1135.900
 70
    32
  0
VERTEX
  8
T41SSILL
 62
4
 10
4575.026
 20
-6058.609
 30
1135.899
 70
    32
  0
VERTEX
  8
T41SSILL
 62
4
 10
4570.245
 20
-6052.039
 30
1135.889
 70
    32
  0
VERTEX
  8
T41SSILL
 62
4
 10
4575.216
 20
-6048.476
 30
1135.890
 70
    32
  0
VERTEX
  8
T41SSILL
 62
4
 10
4519.480
 20
-5970.864
 30
1135.764
 70
    32
  0
VERTEX
  8
T41SSILL
 62
4
 10
4513.648
 20
-5974.351
 30
1135.762
 70
    32
  0
VERTEX
  8
T41SSILL
 62
4
 10
4509.737
 20
-5968.847
 30
1135.753
 70
    32
  0
VERTEX
  8
T41SSILL
 62
4
 10
4514.893
 20
-5964.492
 30
1135.753
 70
    32
  0
VERTEX
  8
T41SSILL
 62
4
 10
4459.957
 20
-5888.231
 30
1135.522
 70
    32
  0
VERTEX
  8
T41SSILL
 62
4
 10
4454.096
 20
-5892.579
 30
1135.523
 70
    32
  0
VERTEX
  8
T41SSILL
 62
4
 10
4451.214
 20
-5898.719
 30
1135.533
 70
    32
  0
VERTEX
  8
T41SSILL
 62
4
 10
4442.311
 20
-5907.620
 30
1135.540
 70
    32
  0
VERTEX
  8
T41SSILL
 62
4
 10
4446.059
 20
-5911.800
 30
1135.556
 70
    32
  0
VERTEX
  8
T41SSILL
 62
4
 10
4436.670
 20
-5917.692
 30
1135.555
 70
    32
  0
VERTEX
  8
T41SSILL
 62
4
 10
4459.258
 20
-5948.950
 30
1135.668
 70
    32
  0
VERTEX
  8
T41SSILL
 62
4
 10
4454.819
 20
-5952.166
 30
1135.669
 70
    32
  0
VERTEX
  8
T41SSILL
 62
4
 10
4466.211
 20
-5967.528
 30
1135.712
 70
    32
  0
VERTEX
  8
T41SSILL
 62
4
 10
4461.060
 20
-5971.443
 30
1135.712
 70
    32
  0
VERTEX
  8
T41SSILL
 62
4
 10
4468.366
 20
-5981.123
 30
1135.728
 70
    32
  0
VERTEX
  8
T41SSILL
 62
4
 10
4456.038
 20
-5988.755
 30
1135.724
 70
    32
  0
VERTEX
  8
T41SSILL
 62
4
 10
4453.532
 20
-5983.794
 30
1135.717
 70
    32
  0
VERTEX
  8
T41SSILL
 62
4
 10
4447.855
 20
-5987.439
 30
1135.715
 70
    32
  0
VERTEX
  8
T41SSILL
 62
4
 10
4422.560
 20
-5952.283
 30
1135.616
 70
    32
  0
VERTEX
  8
T41SSILL
 62
4
 10
4411.028
 20
-5959.659
 30
1135.615
 70
    32
  0
VERTEX
  8
T41SSILL
 62
4
 10
4404.079
 20
-5949.541
 30
1135.579
 70
    32
  0
VERTEX
  8
T41SSILL
 62
4
 10
4399.637
 20
-5953.022
 30
1135.581
 70
    32
  0
VERTEX
  8
T41SSILL
 62
4
 10
4403.253
 20
-5970.333
 30
1135.625
 70
    32
  0
VERTEX
  8
T41SSILL
 62
4
 10
4408.265
 20
-5980.255
 30
1135.649
 70
    32
  0
VERTEX
  8
T41SSILL
 62
4
 10
4417.452
 20
-5995.771
 30
1135.690
 70
    32
  0
VERTEX
  8
T41SSILL
 62
4
 10
4447.434
 20
-6038.114
 30
1135.764
 70
    32
  0
VERTEX
  8
T41SSILL
 62
4
 10
4440.243
 20
-6043.241
 30
1135.763
 70
    32
  0
VERTEX
  8
T41SSILL
 62
4
 10
4429.907
 20
-6028.066
 30
1135.739
 70
    32
  0
VERTEX
  8
T41SSILL
 62
4
 10
4427.333
 20
-6038.617
 30
1135.747
 70
    32
  0
VERTEX
  8
T41SSILL
 62
4
 10
4423.745
 20
-6044.838
 30
1135.749
 70
    32
  0
VERTEX
  8
T41SSILL
 62
4
 10
4419.021
 20
-6050.079
 30
1135.750
 70
    32
  0
VERTEX
  8
T41SSILL
 62
4
 10
4407.309
 20
-6057.894
 30
1135.747
 70
    32
  0
VERTEX
  8
T41SSILL
 62
4
 10
4430.150
 20
-6091.615
 30
1135.801
 70
    32
  0
VERTEX
  8
T41SSILL
 62
4
 10
4435.115
 20
-6088.669
 30
1135.802
 70
    32
  0
VERTEX
  8
T41SSILL
 62
4
 10
4439.454
 20
-6095.499
 30
1135.813
 70
    32
  0
VERTEX
  8
T41SSILL
 62
4
 10
4434.747
 20
-6098.977
 30
1135.812
 70
    32
  0
VERTEX
  8
T41SSILL
 62
4
 10
4478.347
 20
-6163.138
 30
1135.914
 70
    32
  0
VERTEX
  8
T41SSILL
 62
4
 10
4493.252
 20
-6153.416
 30
1135.918
 70
    32
  0
VERTEX
  8
T41SSILL
 62
4
 10
4496.641
 20
-6158.210
 30
1135.926
 70
    32
  0
VERTEX
  8
T41SSILL
 62
4
 10
4574.136
 20
-6103.286
 30
1135.942
 70
    32
  0
VERTEX
  8
T41SSILL
 62
4
 10
4574.615
 20
-6090.775
 30
1135.930
 70
    32
  0
VERTEX
  8
T41SSILL
 62
4
 10
4577.116
 20
-6087.451
 30
1135.929
 70
    32
  0
VERTEX
  8
T41SSILL
 62
4
 10
4586.243
 20
-6082.607
 30
1135.933
 70
    32
  0
SEQEND
  8
T41SSILL
  0
POLYLINE
  8
T41SSILL
 62
4
 66
     1
 70
     9
  0
VERTEX
  8
T41SSILL
 62
4
 10
4418.384
 20
-5912.343
 30
1135.512
 70
    32
  0
VERTEX
  8
T41SSILL
 62
4
 10
4438.441
 20
-5898.602
 30
1135.512
 70
    32
  0
VERTEX
  8
T41SSILL
 62
4
 10
4444.005
 20
-5892.205
 30
1135.505
 70
    32
  0
VERTEX
  8
T41SSILL
 62
4
 10
4446.841
 20
-5885.838
 30
1135.494
 70
    32
  0
VERTEX
  8
T41SSILL
 62
4
 10
4447.582
 20
-5872.892
 30
1135.464
 70
    32
  0
VERTEX
  8
T41SSILL
 62
4
 10
4446.215
 20
-5868.506
 30
1135.451
 70
    32
  0
VERTEX
  8
T41SSILL
 62
4
 10
4398.433
 20
-5803.714
 30
1135.390
 70
    32
  0
VERTEX
  8
T41SSILL
 62
4
 10
4394.844
 20
-5805.601
 30
1135.371
 70
    32
  0
VERTEX
  8
T41SSILL
 62
4
 10
4393.339
 20
-5812.922
 30
1135.349
 70
    32
  0
VERTEX
  8
T41SSILL
 62
4
 10
4383.877
 20
-5825.169
 30
1135.303
 70
    32
  0
VERTEX
  8
T41SSILL
 62
4
 10
4351.810
 20
-5846.989
 30
1135.248
 70
    32
  0
VERTEX
  8
T41SSILL
 62
4
 10
4354.059
 20
-5851.453
 30
1135.256
 70
    32
  0
VERTEX
  8
T41SSILL
 62
4
 10
4346.971
 20
-5855.314
 30
1135.253
 70
    32
  0
VERTEX
  8
T41SSILL
 62
4
 10
4344.730
 20
-5851.553
 30
1135.240
 70
    32
  0
VERTEX
  8
T41SSILL
 62
4
 10
4321.738
 20
-5866.522
 30
1135.240
 70
    32
  0
VERTEX
  8
T41SSILL
 62
4
 10
4332.938
 20
-5884.421
 30
1135.303
 70
    32
  0
VERTEX
  8
T41SSILL
 62
4
 10
4327.877
 20
-5888.524
 30
1135.305
 70
    32
  0
VERTEX
  8
T41SSILL
 62
4
 10
4347.307
 20
-5919.383
 30
1135.413
 70
    32
  0
VERTEX
  8
T41SSILL
 62
4
 10
4334.628
 20
-5927.089
 30
1135.411
 70
    32
  0
VERTEX
  8
T41SSILL
 62
4
 10
4352.995
 20
-5953.695
 30
1135.506
 70
    32
  0
VERTEX
  8
T41SSILL
 62
4
 10
4364.762
 20
-5945.425
 30
1135.505
 70
    32
  0
VERTEX
  8
T41SSILL
 62
4
 10
4361.417
 20
-5940.839
 30
1135.489
 70
    32
  0
VERTEX
  8
T41SSILL
 62
4
 10
4370.944
 20
-5933.886
 30
1135.487
 70
    32
  0
VERTEX
  8
T41SSILL
 62
4
 10
4364.344
 20
-5924.008
 30
1135.452
 70
    32
  0
VERTEX
  8
T41SSILL
 62
4
 10
4369.989
 20
-5919.959
 30
1135.452
 70
    32
  0
VERTEX
  8
T41SSILL
 62
4
 10
4366.204
 20
-5915.284
 30
1135.434
 70
    32
  0
VERTEX
  8
T41SSILL
 62
4
 10
4375.995
 20
-5907.891
 30
1135.432
 70
    32
  0
VERTEX
  8
T41SSILL
 62
4
 10
4372.474
 20
-5903.040
 30
1135.415
 70
    32
  0
VERTEX
  8
T41SSILL
 62
4
 10
4388.529
 20
-5890.365
 30
1135.410
 70
    32
  0
VERTEX
  8
T41SSILL
 62
4
 10
4402.696
 20
-5911.533
 30
1135.485
 70
    32
  0
VERTEX
  8
T41SSILL
 62
4
 10
4408.020
 20
-5907.786
 30
1135.484
 70
    32
  0
VERTEX
  8
T41SSILL
 62
4
 10
4411.597
 20
-5912.512
 30
1135.502
 70
    32
  0
VERTEX
  8
T41SSILL
 62
4
 10
4416.354
 20
-5909.169
 30
1135.501
 70
    32
  0
SEQEND
  8
T41SSILL
  0
POLYLINE
  8
T41SSILL
 62
4
 66
     1
 70
     9
  0
VERTEX
  8
T41SSILL
 62
4
 10
4293.730
 20
-5719.530
 30
1135.170
 70
    32
  0
VERTEX
  8
T41SSILL
 62
4
 10
4282.733
 20
-5720.335
 30
1135.125
 70
    32
  0
VERTEX
  8
T41SSILL
 62
4
 10
4275.921
 20
-5716.612
 30
1135.106
 70
    32
  0
VERTEX
  8
T41SSILL
 62
4
 10
4267.491
 20
-5709.207
 30
1135.090
 70
    32
  0
VERTEX
  8
T41SSILL
 62
4
 10
4262.122
 20
-5699.661
 30
1135.091
 70
    32
  0
VERTEX
  8
T41SSILL
 62
4
 10
4230.259
 20
-5680.850
 30
1135.008
 70
    32
  0
VERTEX
  8
T41SSILL
 62
4
 10
4222.376
 20
-5685.148
 30
1134.967
 70
    32
  0
VERTEX
  8
T41SSILL
 62
4
 10
4218.362
 20
-5679.375
 30
1134.965
 70
    32
  0
VERTEX
  8
T41SSILL
 62
4
 10
4221.858
 20
-5676.614
 30
1134.985
 70
    32
  0
VERTEX
  8
T41SSILL
 62
4
 10
4182.553
 20
-5652.590
 30
1134.885
 70
    32
  0
VERTEX
  8
T41SSILL
 62
4
 10
4136.112
 20
-5685.586
 30
1134.756
 70
    32
  0
VERTEX
  8
T41SSILL
 62
4
 10
4135.570
 20
-5693.689
 30
1134.758
 70
    32
  0
VERTEX
  8
T41SSILL
 62
4
 10
4166.701
 20
-5738.299
 30
1134.838
 70
    32
  0
VERTEX
  8
T41SSILL
 62
4
 10
4170.547
 20
-5735.358
 30
1134.844
 70
    32
  0
VERTEX
  8
T41SSILL
 62
4
 10
4175.179
 20
-5741.302
 30
1134.856
 70
    32
  0
VERTEX
  8
T41SSILL
 62
4
 10
4171.152
 20
-5743.804
 30
1134.849
 70
    32
  0
VERTEX
  8
T41SSILL
 62
4
 10
4192.908
 20
-5774.062
 30
1134.904
 70
    32
  0
VERTEX
  8
T41SSILL
 62
4
 10
4198.337
 20
-5770.843
 30
1134.913
 70
    32
  0
VERTEX
  8
T41SSILL
 62
4
 10
4202.974
 20
-5777.403
 30
1134.925
 70
    32
  0
VERTEX
  8
T41SSILL
 62
4
 10
4197.904
 20
-5781.235
 30
1134.917
 70
    32
  0
VERTEX
  8
T41SSILL
 62
4
 10
4206.111
 20
-5793.131
 30
1134.938
 70
    32
  0
VERTEX
  8
T41SSILL
 62
4
 10
4209.714
 20
-5792.394
 30
1134.945
 70
    32
  0
VERTEX
  8
T41SSILL
 62
4
 10
4215.471
 20
-5786.620
 30
1134.954
 70
    32
  0
VERTEX
  8
T41SSILL
 62
4
 10
4217.348
 20
-5780.176
 30
1134.955
 70
    32
  0
VERTEX
  8
T41SSILL
 62
4
 10
4215.728
 20
-5766.635
 30
1134.946
 70
    32
  0
VERTEX
  8
T41SSILL
 62
4
 10
4218.582
 20
-5761.063
 30
1134.950
 70
    32
  0
VERTEX
  8
T41SSILL
 62
4
 10
4222.879
 20
-5759.351
 30
1134.957
 70
    32
  0
VERTEX
  8
T41SSILL
 62
4
 10
4230.379
 20
-5761.219
 30
1134.973
 70
    32
  0
VERTEX
  8
T41SSILL
 62
4
 10
4239.969
 20
-5770.286
 30
1134.996
 70
    32
  0
VERTEX
  8
T41SSILL
 62
4
 10
4271.035
 20
-5759.791
 30
1135.053
 70
    32
  0
VERTEX
  8
T41SSILL
 62
4
 10
4355.602
 20
-5756.728
 30
1135.329
 70
    32
  0
VERTEX
  8
T41SSILL
 62
4
 10
4319.318
 20
-5735.757
 30
1135.234
 70
    32
  0
VERTEX
  8
T41SSILL
 62
4
 10
4312.931
 20
-5740.041
 30
1135.199
 70
    32
  0
VERTEX
  8
T41SSILL
 62
4
 10
4308.920
 20
-5734.532
 30
1135.195
 70
    32
  0
VERTEX
  8
T41SSILL
 62
4
 10
4313.297
 20
-5731.851
 30
1135.219
 70
    32
  0
SEQEND
  8
T41SSILL
  0
POLYLINE
  8
T41SSILL
 62
4
 66
     1
 70
     9
  0
VERTEX
  8
T41SSILL
 62
4
 10
4630.455
 20
-6156.029
 30
1136.044
 70
    32
  0
VERTEX
  8
T41SSILL
 62
4
 10
4637.016
 20
-6169.668
 30
1136.064
 70
    32
  0
VERTEX
  8
T41SSILL
 62
4
 10
4642.843
 20
-6168.669
 30
1136.068
 70
    32
  0
VERTEX
  8
T41SSILL
 62
4
 10
4646.242
 20
-6146.228
 30
1136.049
 70
    32
  0
VERTEX
  8
T41SSILL
 62
4
 10
4638.670
 20
-6136.633
 30
1136.033
 70
    32
  0
VERTEX
  8
T41SSILL
 62
4
 10
4633.611
 20
-6140.108
 30
1136.032
 70
    32
  0
VERTEX
  8
T41SSILL
 62
4
 10
4629.620
 20
-6133.810
 30
1136.022
 70
    32
  0
VERTEX
  8
T41SSILL
 62
4
 10
4634.058
 20
-6130.770
 30
1136.023
 70
    32
  0
VERTEX
  8
T41SSILL
 62
4
 10
4598.428
 20
-6080.350
 30
1135.942
 70
    32
  0
VERTEX
  8
T41SSILL
 62
4
 10
4597.966
 20
-6082.461
 30
1135.943
 70
    32
  0
VERTEX
  8
T41SSILL
 62
4
 10
4606.933
 20
-6102.293
 30
1135.971
 70
    32
  0
VERTEX
  8
T41SSILL
 62
4
 10
4619.949
 20
-6122.696
 30
1136.002
 70
    32
  0
VERTEX
  8
T41SSILL
 62
4
 10
4629.086
 20
-6151.873
 30
1136.039
 70
    32
  0
SEQEND
  8
T41SSILL
  0
POLYLINE
  8
T41SSILL
 62
4
 66
     1
 70
     9
  0
VERTEX
  8
T41SSILL
 62
4
 10
4644.160
 20
-6213.015
 30
1136.120
 70
    32
  0
VERTEX
  8
T41SSILL
 62
4
 10
4645.911
 20
-6231.805
 30
1136.149
 70
    32
  0
VERTEX
  8
T41SSILL
 62
4
 10
4655.334
 20
-6258.870
 30
1136.192
 70
    32
  0
VERTEX
  8
T41SSILL
 62
4
 10
4658.765
 20
-6276.972
 30
1136.218
 70
    32
  0
VERTEX
  8
T41SSILL
 62
4
 10
4670.083
 20
-6299.649
 30
1136.256
 70
    32
  0
VERTEX
  8
T41SSILL
 62
4
 10
4682.085
 20
-6289.370
 30
1136.252
 70
    32
  0
VERTEX
  8
T41SSILL
 62
4
 10
4678.882
 20
-6283.609
 30
1136.242
 70
    32
  0
VERTEX
  8
T41SSILL
 62
4
 10
4688.024
 20
-6277.266
 30
1136.241
 70
    32
  0
VERTEX
  8
T41SSILL
 62
4
 10
4695.477
 20
-6281.043
 30
1136.251
 70
    32
  0
VERTEX
  8
T41SSILL
 62
4
 10
4715.372
 20
-6265.907
 30
1136.247
 70
    32
  0
VERTEX
  8
T41SSILL
 62
4
 10
4718.970
 20
-6258.716
 30
1136.241
 70
    32
  0
VERTEX
  8
T41SSILL
 62
4
 10
4720.726
 20
-6250.625
 30
1136.231
 70
    32
  0
VERTEX
  8
T41SSILL
 62
4
 10
4698.221
 20
-6218.493
 30
1136.172
 70
    32
  0
VERTEX
  8
T41SSILL
 62
4
 10
4692.885
 20
-6223.287
 30
1136.174
 70
    32
  0
VERTEX
  8
T41SSILL
 62
4
 10
4688.113
 20
-6215.748
 30
1136.161
 70
    32
  0
VERTEX
  8
T41SSILL
 62
4
 10
4693.963
 20
-6212.457
 30
1136.161
 70
    32
  0
VERTEX
  8
T41SSILL
 62
4
 10
4652.227
 20
-6155.807
 30
1136.064
 70
    32
  0
VERTEX
  8
T41SSILL
 62
4
 10
4646.689
 20
-6189.419
 30
1136.091
 70
    32
  0
VERTEX
  8
T41SSILL
 62
4
 10
4643.238
 20
-6199.520
 30
1136.098
 70
    32
  0
VERTEX
  8
T41SSILL
 62
4
 10
4644.581
 20
-6206.232
 30
1136.108
 70
    32
  0
SEQEND
  8
T41SSILL
  0
POLYLINE
  8
T41SSILL
 62
4
 66
     1
 70
     9
  0
VERTEX
  8
T41SSILL
 62
4
 10
2123.555
 20
-4605.964
 30
1134.114
 70
    32
  0
VERTEX
  8
T41SSILL
 62
4
 10
2125.329
 20
-4607.449
 30
1134.109
 70
    32
  0
VERTEX
  8
T41SSILL
 62
4
 10
2146.130
 20
-4607.385
 30
1134.078
 70
    32
  0
VERTEX
  8
T41SSILL
 62
4
 10
2145.846
 20
-4616.730
 30
1134.065
 70
    32
  0
VERTEX
  8
T41SSILL
 62
4
 10
2171.056
 20
-4616.810
 30
1134.027
 70
    32
  0
VERTEX
  8
T41SSILL
 62
4
 10
2167.997
 20
-4608.283
 30
1134.043
 70
    32
  0
VERTEX
  8
T41SSILL
 62
4
 10
2163.163
 20
-4610.169
 30
1134.048
 70
    32
  0
VERTEX
  8
T41SSILL
 62
4
 10
2154.994
 20
-4590.044
 30
1134.089
 70
    32
  0
VERTEX
  8
T41SSILL
 62
4
 10
2157.322
 20
-4582.887
 30
1134.096
 70
    32
  0
VERTEX
  8
T41SSILL
 62
4
 10
2141.549
 20
-4547.480
 30
1134.170
 70
    32
  0
VERTEX
  8
T41SSILL
 62
4
 10
2124.202
 20
-4561.798
 30
1134.176
 70
    32
  0
VERTEX
  8
T41SSILL
 62
4
 10
2123.546
 20
-4604.730
 30
1134.116
 70
    32
  0
SEQEND
  8
T41SSILL
  0
POLYLINE
  8
T41SSILL
 62
4
 66
     1
 70
     9
  0
VERTEX
  8
T41SSILL
 62
4
 10
3365.525
 20
-6474.176
 30
1136.652
 70
    32
  0
VERTEX
  8
T41SSILL
 62
4
 10
3371.734
 20
-6478.192
 30
1136.646
 70
    32
  0
VERTEX
  8
T41SSILL
 62
4
 10
3376.082
 20
-6477.784
 30
1136.637
 70
    32
  0
VERTEX
  8
T41SSILL
 62
4
 10
3385.117
 20
-6471.673
 30
1136.614
 70
    32
  0
VERTEX
  8
T41SSILL
 62
4
 10
3383.972
 20
-6464.064
 30
1136.607
 70
    32
  0
VERTEX
  8
T41SSILL
 62
4
 10
3386.800
 20
-6457.381
 30
1136.594
 70
    32
  0
VERTEX
  8
T41SSILL
 62
4
 10
3475.772
 20
-6394.102
 30
1136.359
 70
    32
  0
VERTEX
  8
T41SSILL
 62
4
 10
3479.123
 20
-6399.439
 30
1136.359
 70
    32
  0
VERTEX
  8
T41SSILL
 62
4
 10
3485.551
 20
-6395.015
 30
1136.342
 70
    32
  0
VERTEX
  8
T41SSILL
 62
4
 10
3481.465
 20
-6389.861
 30
1136.343
 70
    32
  0
VERTEX
  8
T41SSILL
 62
4
 10
3550.650
 20
-6340.478
 30
1136.155
 70
    32
  0
VERTEX
  8
T41SSILL
 62
4
 10
3544.613
 20
-6335.204
 30
1136.158
 70
    32
  0
VERTEX
  8
T41SSILL
 62
4
 10
3381.810
 20
-6452.633
 30
1136.597
 70
    32
  0
VERTEX
  8
T41SSILL
 62
4
 10
3375.051
 20
-6444.689
 30
1136.600
 70
    32
  0
VERTEX
  8
T41SSILL
 62
4
 10
3368.132
 20
-6425.875
 30
1136.590
 70
    32
  0
VERTEX
  8
T41SSILL
 62
4
 10
3360.765
 20
-6416.735
 30
1136.592
 70
    32
  0
VERTEX
  8
T41SSILL
 62
4
 10
3345.303
 20
-6405.845
 30
1136.607
 70
    32
  0
VERTEX
  8
T41SSILL
 62
4
 10
3324.096
 20
-6383.947
 30
1136.619
 70
    32
  0
VERTEX
  8
T41SSILL
 62
4
 10
3381.148
 20
-6342.958
 30
1136.467
 70
    32
  0
VERTEX
  8
T41SSILL
 62
4
 10
3377.579
 20
-6337.772
 30
1136.468
 70
    32
  0
VERTEX
  8
T41SSILL
 62
4
 10
3315.581
 20
-6382.055
 30
1136.632
 70
    32
  0
VERTEX
  8
T41SSILL
 62
4
 10
3312.240
 20
-6377.357
 30
1136.632
 70
    32
  0
VERTEX
  8
T41SSILL
 62
4
 10
3306.200
 20
-6381.407
 30
1136.648
 70
    32
  0
VERTEX
  8
T41SSILL
 62
4
 10
3299.326
 20
-6372.358
 30
1136.649
 70
    32
  0
VERTEX
  8
T41SSILL
 62
4
 10
3299.763
 20
-6370.334
 30
1136.646
 70
    32
  0
VERTEX
  8
T41SSILL
 62
4
 10
3307.301
 20
-6364.393
 30
1136.625
 70
    32
  0
VERTEX
  8
T41SSILL
 62
4
 10
3301.904
 20
-6358.741
 30
1136.628
 70
    32
  0
VERTEX
  8
T41SSILL
 62
4
 10
3286.872
 20
-6365.212
 30
1136.663
 70
    32
  0
VERTEX
  8
T41SSILL
 62
4
 10
3274.911
 20
-6366.446
 30
1136.686
 70
    32
  0
VERTEX
  8
T41SSILL
 62
4
 10
3265.997
 20
-6360.847
 30
1136.695
 70
    32
  0
VERTEX
  8
T41SSILL
 62
4
 10
3257.387
 20
-6359.129
 30
1136.709
 70
    32
  0
VERTEX
  8
T41SSILL
 62
4
 10
3247.946
 20
-6349.478
 30
1136.714
 70
    32
  0
VERTEX
  8
T41SSILL
 62
4
 10
3236.574
 20
-6360.642
 30
1136.748
 70
    32
  0
VERTEX
  8
T41SSILL
 62
4
 10
3232.852
 20
-6380.105
 30
1136.778
 70
    32
  0
VERTEX
  8
T41SSILL
 62
4
 10
3233.841
 20
-6383.731
 30
1136.780
 70
    32
  0
VERTEX
  8
T41SSILL
 62
4
 10
3240.904
 20
-6388.989
 30
1136.774
 70
    32
  0
VERTEX
  8
T41SSILL
 62
4
 10
3254.864
 20
-6383.150
 30
1136.742
 70
    32
  0
VERTEX
  8
T41SSILL
 62
4
 10
3277.188
 20
-6380.704
 30
1136.699
 70
    32
  0
VERTEX
  8
T41SSILL
 62
4
 10
3280.514
 20
-6382.721
 30
1136.695
 70
    32
  0
VERTEX
  8
T41SSILL
 62
4
 10
3287.188
 20
-6394.922
 30
1136.698
 70
    32
  0
VERTEX
  8
T41SSILL
 62
4
 10
3283.377
 20
-6400.021
 30
1136.711
 70
    32
  0
VERTEX
  8
T41SSILL
 62
4
 10
3260.828
 20
-6418.877
 30
1136.774
 70
    32
  0
VERTEX
  8
T41SSILL
 62
4
 10
3259.916
 20
-6422.088
 30
1136.779
 70
    32
  0
VERTEX
  8
T41SSILL
 62
4
 10
3246.169
 20
-6432.303
 30
1136.816
 70
    32
  0
VERTEX
  8
T41SSILL
 62
4
 10
3239.182
 20
-6443.894
 30
1136.842
 70
    32
  0
VERTEX
  8
T41SSILL
 62
4
 10
3236.844
 20
-6435.491
 30
1136.836
 70
    32
  0
VERTEX
  8
T41SSILL
 62
4
 10
3239.907
 20
-6429.955
 30
1136.824
 70
    32
  0
VERTEX
  8
T41SSILL
 62
4
 10
3242.832
 20
-6429.229
 30
1136.818
 70
    32
  0
VERTEX
  8
T41SSILL
 62
4
 10
3241.948
 20
-6424.895
 30
1136.815
 70
    32
  0
VERTEX
  8
T41SSILL
 62
4
 10
3243.272
 20
-6419.333
 30
1136.806
 70
    32
  0
VERTEX
  8
T41SSILL
 62
4
 10
3240.676
 20
-6416.813
 30
1136.807
 70
    32
  0
VERTEX
  8
T41SSILL
 62
4
 10
3233.655
 20
-6414.433
 30
1136.817
 70
    32
  0
VERTEX
  8
T41SSILL
 62
4
 10
3223.241
 20
-6358.945
 30
1136.770
 70
    32
  0
VERTEX
  8
T41SSILL
 62
4
 10
3215.857
 20
-6360.260
 30
1136.784
 70
    32
  0
VERTEX
  8
T41SSILL
 62
4
 10
3231.301
 20
-6446.519
 30
1136.860
 70
    32
  0
VERTEX
  8
T41SSILL
 62
4
 10
3191.876
 20
-6392.051
 30
1136.865
 70
    32
  0
VERTEX
  8
T41SSILL
 62
4
 10
3187.988
 20
-6380.301
 30
1136.858
 70
    32
  0
VERTEX
  8
T41SSILL
 62
4
 10
3191.689
 20
-6364.405
 30
1136.833
 70
    32
  0
VERTEX
  8
T41SSILL
 62
4
 10
3197.833
 20
-6357.377
 30
1136.813
 70
    32
  0
VERTEX
  8
T41SSILL
 62
4
 10
3218.114
 20
-6343.204
 30
1136.760
 70
    32
  0
VERTEX
  8
T41SSILL
 62
4
 10
3222.323
 20
-6348.381
 30
1136.759
 70
    32
  0
VERTEX
  8
T41SSILL
 62
4
 10
3228.724
 20
-6343.761
 30
1136.742
 70
    32
  0
VERTEX
  8
T41SSILL
 62
4
 10
3224.930
 20
-6338.405
 30
1136.742
 70
    32
  0
VERTEX
  8
T41SSILL
 62
4
 10
3336.671
 20
-6257.841
 30
1136.409
 70
    32
  0
VERTEX
  8
T41SSILL
 62
4
 10
3340.034
 20
-6262.416
 30
1136.410
 70
    32
  0
VERTEX
  8
T41SSILL
 62
4
 10
3346.513
 20
-6258.065
 30
1136.391
 70
    32
  0
VERTEX
  8
T41SSILL
 62
4
 10
3342.775
 20
-6253.102
 30
1136.389
 70
    32
  0
VERTEX
  8
T41SSILL
 62
4
 10
3388.537
 20
-6220.423
 30
1136.249
 70
    32
  0
VERTEX
  8
T41SSILL
 62
4
 10
3384.889
 20
-6214.967
 30
1136.246
 70
    32
  0
VERTEX
  8
T41SSILL
 62
4
 10
3195.098
 20
-6350.432
 30
1136.810
 70
    32
  0
VERTEX
  8
T41SSILL
 62
4
 10
3186.324
 20
-6359.269
 30
1136.836
 70
    32
  0
VERTEX
  8
T41SSILL
 62
4
 10
3181.972
 20
-6369.370
 30
1136.856
 70
    32
  0
VERTEX
  8
T41SSILL
 62
4
 10
3180.915
 20
-6376.126
 30
1136.866
 70
    32
  0
VERTEX
  8
T41SSILL
 62
4
 10
3099.515
 20
-6262.700
 30
1136.854
 70
    32
  0
VERTEX
  8
T41SSILL
 62
4
 10
3093.228
 20
-6266.704
 30
1136.873
 70
    32
  0
VERTEX
  8
T41SSILL
 62
4
 10
3018.002
 20
-6253.131
 30
1136.988
 70
    32
  0
VERTEX
  8
T41SSILL
 62
4
 10
3002.288
 20
-6256.733
 30
1137.023
 70
    32
  0
VERTEX
  8
T41SSILL
 62
4
 10
2921.060
 20
-6314.147
 30
1137.258
 70
    32
  0
VERTEX
  8
T41SSILL
 62
4
 10
2925.218
 20
-6319.787
 30
1137.257
 70
    32
  0
VERTEX
  8
T41SSILL
 62
4
 10
2971.752
 20
-6286.039
 30
1137.130
 70
    32
  0
VERTEX
  8
T41SSILL
 62
4
 10
2975.701
 20
-6291.933
 30
1137.133
 70
    32
  0
VERTEX
  8
T41SSILL
 62
4
 10
2981.805
 20
-6287.194
 30
1137.113
 70
    32
  0
VERTEX
  8
T41SSILL
 62
4
 10
2978.107
 20
-6281.665
 30
1137.111
 70
    32
  0
VERTEX
  8
T41SSILL
 62
4
 10
2999.525
 20
-6266.171
 30
1137.045
 70
    32
  0
VERTEX
  8
T41SSILL
 62
4
 10
3009.556
 20
-6260.882
 30
1137.017
 70
    32
  0
VERTEX
  8
T41SSILL
 62
4
 10
3019.317
 20
-6260.516
 30
1136.998
 70
    32
  0
VERTEX
  8
T41SSILL
 62
4
 10
3093.638
 20
-6274.496
 30
1136.885
 70
    32
  0
VERTEX
  8
T41SSILL
 62
4
 10
3103.274
 20
-6280.675
 30
1136.878
 70
    32
  0
VERTEX
  8
T41SSILL
 62
4
 10
3120.523
 20
-6304.330
 30
1136.887
 70
    32
  0
VERTEX
  8
T41SSILL
 62
4
 10
3108.491
 20
-6302.491
 30
1136.906
 70
    32
  0
VERTEX
  8
T41SSILL
 62
4
 10
3095.175
 20
-6306.919
 30
1136.937
 70
    32
  0
VERTEX
  8
T41SSILL
 62
4
 10
3013.605
 20
-6365.599
 30
1137.153
 70
    32
  0
VERTEX
  8
T41SSILL
 62
4
 10
3018.085
 20
-6370.560
 30
1137.151
 70
    32
  0
VERTEX
  8
T41SSILL
 62
4
 10
3059.713
 20
-6340.798
 30
1137.041
 70
    32
  0
VERTEX
  8
T41SSILL
 62
4
 10
3063.004
 20
-6345.423
 30
1137.041
 70
    32
  0
VERTEX
  8
T41SSILL
 62
4
 10
3069.720
 20
-6340.478
 30
1137.023
 70
    32
  0
VERTEX
  8
T41SSILL
 62
4
 10
3066.653
 20
-6336.022
 30
1137.023
 70
    32
  0
VERTEX
  8
T41SSILL
 62
4
 10
3096.682
 20
-6313.956
 30
1136.943
 70
    32
  0
VERTEX
  8
T41SSILL
 62
4
 10
3107.623
 20
-6310.301
 30
1136.919
 70
    32
  0
VERTEX
  8
T41SSILL
 62
4
 10
3117.169
 20
-6310.406
 30
1136.902
 70
    32
  0
VERTEX
  8
T41SSILL
 62
4
 10
3127.713
 20
-6316.498
 30
1136.890
 70
    32
  0
VERTEX
  8
T41SSILL
 62
4
 10
3140.350
 20
-6332.669
 30
1136.887
 70
    32
  0
VERTEX
  8
T41SSILL
 62
4
 10
3123.676
 20
-6344.576
 30
1136.931
 70
    32
  0
VERTEX
  8
T41SSILL
 62
4
 10
3128.301
 20
-6351.296
 30
1136.931
 70
    32
  0
VERTEX
  8
T41SSILL
 62
4
 10
3145.048
 20
-6339.340
 30
1136.886
 70
    32
  0
VERTEX
  8
T41SSILL
 62
4
 10
3188.226
 20
-6399.730
 30
1136.881
 70
    32
  0
VERTEX
  8
T41SSILL
 62
4
 10
3139.296
 20
-6391.205
 30
1136.959
 70
    32
  0
VERTEX
  8
T41SSILL
 62
4
 10
3058.072
 20
-6449.379
 30
1137.174
 70
    32
  0
VERTEX
  8
T41SSILL
 62
4
 10
3063.059
 20
-6455.624
 30
1137.172
 70
    32
  0
VERTEX
  8
T41SSILL
 62
4
 10
3104.483
 20
-6425.714
 30
1137.062
 70
    32
  0
VERTEX
  8
T41SSILL
 62
4
 10
3107.980
 20
-6430.951
 30
1137.062
 70
    32
  0
VERTEX
  8
T41SSILL
 62
4
 10
3115.244
 20
-6426.490
 30
1137.044
 70
    32
  0
VERTEX
  8
T41SSILL
 62
4
 10
3111.259
 20
-6421.482
 30
1137.045
 70
    32
  0
VERTEX
  8
T41SSILL
 62
4
 10
3141.758
 20
-6399.630
 30
1136.964
 70
    32
  0
VERTEX
  8
T41SSILL
 62
4
 10
3195.173
 20
-6408.729
 30
1136.879
 70
    32
  0
VERTEX
  8
T41SSILL
 62
4
 10
3243.040
 20
-6476.872
 30
1136.875
 70
    32
  0
VERTEX
  8
T41SSILL
 62
4
 10
3195.490
 20
-6468.474
 30
1136.950
 70
    32
  0
VERTEX
  8
T41SSILL
 62
4
 10
3158.732
 20
-6494.526
 30
1137.047
 70
    32
  0
VERTEX
  8
T41SSILL
 62
4
 10
3154.775
 20
-6491.436
 30
1137.050
 70
    32
  0
VERTEX
  8
T41SSILL
 62
4
 10
3144.185
 20
-6477.301
 30
1137.052
 70
    32
  0
VERTEX
  8
T41SSILL
 62
4
 10
3127.644
 20
-6489.869
 30
1137.097
 70
    32
  0
VERTEX
  8
T41SSILL
 62
4
 10
3137.528
 20
-6509.549
 30
1137.103
 70
    32
  0
VERTEX
  8
T41SSILL
 62
4
 10
3099.196
 20
-6536.816
 30
1137.204
 70
    32
  0
VERTEX
  8
T41SSILL
 62
4
 10
3104.640
 20
-6543.166
 30
1137.202
 70
    32
  0
VERTEX
  8
T41SSILL
 62
4
 10
3141.734
 20
-6516.129
 30
1137.103
 70
    32
  0
VERTEX
  8
T41SSILL
 62
4
 10
3145.925
 20
-6521.749
 30
1137.102
 70
    32
  0
VERTEX
  8
T41SSILL
 62
4
 10
3151.613
 20
-6517.188
 30
1137.087
 70
    32
  0
VERTEX
  8
T41SSILL
 62
4
 10
3159.988
 20
-6522.943
 30
1137.079
 70
    32
  0
VERTEX
  8
T41SSILL
 62
4
 10
3166.775
 20
-6532.805
 30
1137.078
 70
    32
  0
VERTEX
  8
T41SSILL
 62
4
 10
3160.445
 20
-6542.222
 30
1137.101
 70
    32
  0
VERTEX
  8
T41SSILL
 62
4
 10
3161.350
 20
-6551.826
 30
1137.111
 70
    32
  0
VERTEX
  8
T41SSILL
 62
4
 10
3024.679
 20
-6649.976
 30
1137.473
 70
    32
  0
VERTEX
  8
T41SSILL
 62
4
 10
3014.390
 20
-6653.395
 30
1137.495
 70
    32
  0
VERTEX
  8
T41SSILL
 62
4
 10
3008.688
 20
-6653.667
 30
1137.506
 70
    32
  0
VERTEX
  8
T41SSILL
 62
4
 10
2999.474
 20
-6651.316
 30
1137.520
 70
    32
  0
VERTEX
  8
T41SSILL
 62
4
 10
2989.186
 20
-6643.813
 30
1137.529
 70
    32
  0
VERTEX
  8
T41SSILL
 62
4
 10
2912.932
 20
-6537.350
 30
1137.539
 70
    32
  0
VERTEX
  8
T41SSILL
 62
4
 10
2914.073
 20
-6532.927
 30
1137.531
 70
    32
  0
VERTEX
  8
T41SSILL
 62
4
 10
2921.114
 20
-6526.491
 30
1137.511
 70
    32
  0
VERTEX
  8
T41SSILL
 62
4
 10
2917.833
 20
-6519.212
 30
1137.508
 70
    32
  0
VERTEX
  8
T41SSILL
 62
4
 10
2917.276
 20
-6512.314
 30
1137.501
 70
    32
  0
VERTEX
  8
T41SSILL
 62
4
 10
2913.065
 20
-6503.212
 30
1137.498
 70
    32
  0
VERTEX
  8
T41SSILL
 62
4
 10
2912.293
 20
-6502.242
 30
1137.498
 70
    32
  0
VERTEX
  8
T41SSILL
 62
4
 10
2903.686
 20
-6506.863
 30
1137.519
 70
    32
  0
VERTEX
  8
T41SSILL
 62
4
 10
2897.429
 20
-6502.269
 30
1137.525
 70
    32
  0
VERTEX
  8
T41SSILL
 62
4
 10
2891.446
 20
-6501.663
 30
1137.535
 70
    32
  0
VERTEX
  8
T41SSILL
 62
4
 10
2887.457
 20
-6498.190
 30
1137.538
 70
    32
  0
VERTEX
  8
T41SSILL
 62
4
 10
2867.535
 20
-6471.494
 30
1137.542
 70
    32
  0
VERTEX
  8
T41SSILL
 62
4
 10
2864.233
 20
-6458.877
 30
1137.532
 70
    32
  0
VERTEX
  8
T41SSILL
 62
4
 10
2856.748
 20
-6450.308
 30
1137.536
 70
    32
  0
VERTEX
  8
T41SSILL
 62
4
 10
2841.181
 20
-6425.121
 30
1137.534
 70
    32
  0
VERTEX
  8
T41SSILL
 62
4
 10
2836.315
 20
-6425.676
 30
1137.543
 70
    32
  0
VERTEX
  8
T41SSILL
 62
4
 10
2828.349
 20
-6415.938
 30
1137.546
 70
    32
  0
VERTEX
  8
T41SSILL
 62
4
 10
2831.188
 20
-6413.990
 30
1137.538
 70
    32
  0
VERTEX
  8
T41SSILL
 62
4
 10
2830.833
 20
-6409.415
 30
1137.533
 70
    32
  0
VERTEX
  8
T41SSILL
 62
4
 10
2822.402
 20
-6396.035
 30
1137.532
 70
    32
  0
VERTEX
  8
T41SSILL
 62
4
 10
2826.990
 20
-6387.427
 30
1137.514
 70
    32
  0
VERTEX
  8
T41SSILL
 62
4
 10
2827.874
 20
-6371.082
 30
1137.493
 70
    32
  0
VERTEX
  8
T41SSILL
 62
4
 10
2815.553
 20
-6359.834
 30
1137.502
 70
    32
  0
VERTEX
  8
T41SSILL
 62
4
 10
2793.210
 20
-6326.020
 30
1137.501
 70
    32
  0
VERTEX
  8
T41SSILL
 62
4
 10
2783.141
 20
-6333.035
 30
1137.528
 70
    32
  0
VERTEX
  8
T41SSILL
 62
4
 10
2779.968
 20
-6332.000
 30
1137.532
 70
    32
  0
VERTEX
  8
T41SSILL
 62
4
 10
2776.562
 20
-6328.127
 30
1137.534
 70
    32
  0
VERTEX
  8
T41SSILL
 62
4
 10
2773.105
 20
-6329.643
 30
1137.542
 70
    32
  0
VERTEX
  8
T41SSILL
 62
4
 10
2760.570
 20
-6324.324
 30
1137.558
 70
    32
  0
VERTEX
  8
T41SSILL
 62
4
 10
2585.762
 20
-6079.053
 30
1136.716
 70
    32
  0
VERTEX
  8
T41SSILL
 62
4
 10
2579.724
 20
-6083.517
 30
1136.730
 70
    32
  0
VERTEX
  8
T41SSILL
 62
4
 10
2591.649
 20
-6099.961
 30
1136.805
 70
    32
  0
VERTEX
  8
T41SSILL
 62
4
 10
2578.255
 20
-6098.229
 30
1136.846
 70
    32
  0
VERTEX
  8
T41SSILL
 62
4
 10
2568.495
 20
-6100.857
 30
1136.948
 70
    32
  0
VERTEX
  8
T41SSILL
 62
4
 10
2495.211
 20
-6153.063
 30
1137.956
 70
    32
  0
VERTEX
  8
T41SSILL
 62
4
 10
2484.054
 20
-6157.399
 30
1138.012
 70
    32
  0
VERTEX
  8
T41SSILL
 62
4
 10
2462.808
 20
-6159.984
 30
1138.081
 70
    32
  0
VERTEX
  8
T41SSILL
 62
4
 10
2453.994
 20
-6152.755
 30
1138.099
 70
    32
  0
VERTEX
  8
T41SSILL
 62
4
 10
2447.201
 20
-6152.061
 30
1138.113
 70
    32
  0
VERTEX
  8
T41SSILL
 62
4
 10
2438.510
 20
-6163.270
 30
1138.132
 70
    32
  0
VERTEX
  8
T41SSILL
 62
4
 10
2428.392
 20
-6164.752
 30
1138.154
 70
    32
  0
VERTEX
  8
T41SSILL
 62
4
 10
2410.357
 20
-6156.568
 30
1138.190
 70
    32
  0
VERTEX
  8
T41SSILL
 62
4
 10
2346.159
 20
-6067.209
 30
1138.185
 70
    32
  0
VERTEX
  8
T41SSILL
 62
4
 10
2340.398
 20
-6057.564
 30
1138.172
 70
    32
  0
VERTEX
  8
T41SSILL
 62
4
 10
2336.653
 20
-6037.436
 30
1138.049
 70
    32
  0
VERTEX
  8
T41SSILL
 62
4
 10
2340.514
 20
-6022.152
 30
1137.859
 70
    32
  0
VERTEX
  8
T41SSILL
 62
4
 10
2346.422
 20
-6011.568
 30
1137.704
 70
    32
  0
VERTEX
  8
T41SSILL
 62
4
 10
2356.353
 20
-6001.543
 30
1137.523
 70
    32
  0
VERTEX
  8
T41SSILL
 62
4
 10
2386.074
 20
-5980.724
 30
1137.080
 70
    32
  0
VERTEX
  8
T41SSILL
 62
4
 10
2394.909
 20
-5980.337
 30
1137.008
 70
    32
  0
VERTEX
  8
T41SSILL
 62
4
 10
2400.616
 20
-5984.130
 30
1137.005
 70
    32
  0
VERTEX
  8
T41SSILL
 62
4
 10
2405.979
 20
-5982.271
 30
1136.944
 70
    32
  0
VERTEX
  8
T41SSILL
 62
4
 10
2413.440
 20
-5972.547
 30
1136.786
 70
    32
  0
VERTEX
  8
T41SSILL
 62
4
 10
2411.495
 20
-5962.533
 30
1136.696
 70
    32
  0
VERTEX
  8
T41SSILL
 62
4
 10
2477.076
 20
-5914.863
 30
1135.976
 70
    32
  0
VERTEX
  8
T41SSILL
 62
4
 10
2472.194
 20
-5908.683
 30
1135.948
 70
    32
  0
VERTEX
  8
T41SSILL
 62
4
 10
2435.766
 20
-5935.175
 30
1136.225
 70
    32
  0
VERTEX
  8
T41SSILL
 62
4
 10
2417.254
 20
-5922.394
 30
1136.233
 70
    32
  0
VERTEX
  8
T41SSILL
 62
4
 10
2404.428
 20
-5930.229
 30
1136.412
 70
    32
  0
VERTEX
  8
T41SSILL
 62
4
 10
2396.579
 20
-5931.118
 30
1136.481
 70
    32
  0
VERTEX
  8
T41SSILL
 62
4
 10
2391.713
 20
-5927.926
 30
1136.485
 70
    32
  0
VERTEX
  8
T41SSILL
 62
4
 10
2382.261
 20
-5907.751
 30
1136.346
 70
    32
  0
VERTEX
  8
T41SSILL
 62
4
 10
2371.538
 20
-5895.086
 30
1136.295
 70
    32
  0
VERTEX
  8
T41SSILL
 62
4
 10
2367.096
 20
-5885.179
 30
1136.225
 70
    32
  0
VERTEX
  8
T41SSILL
 62
4
 10
2366.602
 20
-5873.847
 30
1136.110
 70
    32
  0
VERTEX
  8
T41SSILL
 62
4
 10
2358.206
 20
-5875.967
 30
1136.196
 70
    32
  0
VERTEX
  8
T41SSILL
 62
4
 10
2353.124
 20
-5865.750
 30
1136.128
 70
    32
  0
VERTEX
  8
T41SSILL
 62
4
 10
2345.066
 20
-5871.171
 30
1136.246
 70
    32
  0
VERTEX
  8
T41SSILL
 62
4
 10
2343.012
 20
-5884.251
 30
1136.399
 70
    32
  0
VERTEX
  8
T41SSILL
 62
4
 10
2350.804
 20
-5899.354
 30
1136.497
 70
    32
  0
VERTEX
  8
T41SSILL
 62
4
 10
2358.513
 20
-5906.377
 30
1136.512
 70
    32
  0
VERTEX
  8
T41SSILL
 62
4
 10
2379.849
 20
-5938.099
 30
1136.681
 70
    32
  0
VERTEX
  8
T41SSILL
 62
4
 10
2378.816
 20
-5943.304
 30
1136.744
 70
    32
  0
VERTEX
  8
T41SSILL
 62
4
 10
2371.669
 20
-5952.705
 30
1136.896
 70
    32
  0
VERTEX
  8
T41SSILL
 62
4
 10
2382.751
 20
-5970.263
 30
1136.996
 70
    32
  0
VERTEX
  8
T41SSILL
 62
4
 10
2380.322
 20
-5975.462
 30
1137.068
 70
    32
  0
VERTEX
  8
T41SSILL
 62
4
 10
2352.557
 20
-5996.010
 30
1137.494
 70
    32
  0
VERTEX
  8
T41SSILL
 62
4
 10
2341.120
 20
-6006.962
 30
1137.696
 70
    32
  0
VERTEX
  8
T41SSILL
 62
4
 10
2332.134
 20
-6027.260
 30
1137.977
 70
    32
  0
VERTEX
  8
T41SSILL
 62
4
 10
2330.150
 20
-6038.257
 30
1138.107
 70
    32
  0
VERTEX
  8
T41SSILL
 62
4
 10
2330.770
 20
-6046.183
 30
1138.165
 70
    32
  0
VERTEX
  8
T41SSILL
 62
4
 10
2259.030
 20
-5946.521
 30
1138.269
 70
    32
  0
VERTEX
  8
T41SSILL
 62
4
 10
2212.008
 20
-5881.196
 30
1136.742
 70
    32
  0
VERTEX
  8
T41SSILL
 62
4
 10
2221.850
 20
-5882.902
 30
1136.786
 70
    32
  0
VERTEX
  8
T41SSILL
 62
4
 10
2234.307
 20
-5880.458
 30
1137.065
 70
    32
  0
VERTEX
  8
T41SSILL
 62
4
 10
2290.664
 20
-5840.722
 30
1136.342
 70
    32
  0
VERTEX
  8
T41SSILL
 62
4
 10
2297.932
 20
-5838.520
 30
1136.263
 70
    32
  0
VERTEX
  8
T41SSILL
 62
4
 10
2307.317
 20
-5842.680
 30
1136.236
 70
    32
  0
VERTEX
  8
T41SSILL
 62
4
 10
2311.058
 20
-5834.867
 30
1136.125
 70
    32
  0
VERTEX
  8
T41SSILL
 62
4
 10
2306.445
 20
-5832.358
 30
1136.134
 70
    32
  0
VERTEX
  8
T41SSILL
 62
4
 10
2323.207
 20
-5820.429
 30
1135.882
 70
    32
  0
VERTEX
  8
T41SSILL
 62
4
 10
2328.046
 20
-5819.679
 30
1135.837
 70
    32
  0
VERTEX
  8
T41SSILL
 62
4
 10
2331.732
 20
-5811.475
 30
1135.723
 70
    32
  0
VERTEX
  8
T41SSILL
 62
4
 10
2389.455
 20
-5769.517
 30
1135.327
 70
    32
  0
VERTEX
  8
T41SSILL
 62
4
 10
2383.983
 20
-5763.100
 30
1135.297
 70
    32
  0
VERTEX
  8
T41SSILL
 62
4
 10
2325.317
 20
-5806.026
 30
1135.715
 70
    32
  0
VERTEX
  8
T41SSILL
 62
4
 10
2317.646
 20
-5801.867
 30
1135.730
 70
    32
  0
VERTEX
  8
T41SSILL
 62
4
 10
2310.969
 20
-5803.711
 30
1135.800
 70
    32
  0
VERTEX
  8
T41SSILL
 62
4
 10
2308.136
 20
-5807.479
 30
1135.861
 70
    32
  0
VERTEX
  8
T41SSILL
 62
4
 10
2309.749
 20
-5810.176
 30
1135.877
 70
    32
  0
VERTEX
  8
T41SSILL
 62
4
 10
2309.264
 20
-5817.896
 30
1135.962
 70
    32
  0
VERTEX
  8
T41SSILL
 62
4
 10
2294.245
 20
-5828.308
 30
1136.185
 70
    32
  0
VERTEX
  8
T41SSILL
 62
4
 10
2288.555
 20
-5825.788
 30
1136.202
 70
    32
  0
VERTEX
  8
T41SSILL
 62
4
 10
2286.049
 20
-5830.719
 30
1136.272
 70
    32
  0
VERTEX
  8
T41SSILL
 62
4
 10
2264.943
 20
-5825.393
 30
1136.377
 70
    32
  0
VERTEX
  8
T41SSILL
 62
4
 10
2265.158
 20
-5823.210
 30
1136.353
 70
    32
  0
VERTEX
  8
T41SSILL
 62
4
 10
2252.834
 20
-5811.645
 30
1136.326
 70
    32
  0
VERTEX
  8
T41SSILL
 62
4
 10
2245.252
 20
-5799.501
 30
1136.278
 70
    32
  0
VERTEX
  8
T41SSILL
 62
4
 10
2236.011
 20
-5796.955
 30
1136.468
 70
    32
  0
VERTEX
  8
T41SSILL
 62
4
 10
2223.881
 20
-5790.823
 30
1136.669
 70
    32
  0
VERTEX
  8
T41SSILL
 62
4
 10
2205.625
 20
-5795.426
 30
1136.075
 70
    32
  0
VERTEX
  8
T41SSILL
 62
4
 10
2155.781
 20
-5750.691
 30
1135.579
 70
    32
  0
VERTEX
  8
T41SSILL
 62
4
 10
2168.550
 20
-5635.612
 30
1134.753
 70
    32
  0
VERTEX
  8
T41SSILL
 62
4
 10
2174.897
 20
-5630.652
 30
1134.823
 70
    32
  0
VERTEX
  8
T41SSILL
 62
4
 10
2170.174
 20
-5622.803
 30
1134.696
 70
    32
  0
VERTEX
  8
T41SSILL
 62
4
 10
2179.086
 20
-5533.795
 30
1134.250
 70
    32
  0
VERTEX
  8
T41SSILL
 62
4
 10
2182.732
 20
-5525.621
 30
1134.224
 70
    32
  0
VERTEX
  8
T41SSILL
 62
4
 10
2186.845
 20
-5523.962
 30
1134.220
 70
    32
  0
VERTEX
  8
T41SSILL
 62
4
 10
2202.714
 20
-5534.081
 30
1134.260
 70
    32
  0
VERTEX
  8
T41SSILL
 62
4
 10
2215.321
 20
-5534.211
 30
1134.266
 70
    32
  0
VERTEX
  8
T41SSILL
 62
4
 10
2220.631
 20
-5530.415
 30
1134.255
 70
    32
  0
VERTEX
  8
T41SSILL
 62
4
 10
2225.150
 20
-5521.784
 30
1134.228
 70
    32
  0
VERTEX
  8
T41SSILL
 62
4
 10
2223.106
 20
-5515.915
 30
1134.208
 70
    32
  0
VERTEX
  8
T41SSILL
 62
4
 10
2217.069
 20
-5513.466
 30
1134.197
 70
    32
  0
VERTEX
  8
T41SSILL
 62
4
 10
2202.562
 20
-5510.550
 30
1134.182
 70
    32
  0
VERTEX
  8
T41SSILL
 62
4
 10
2190.467
 20
-5514.466
 30
1134.190
 70
    32
  0
VERTEX
  8
T41SSILL
 62
4
 10
2185.687
 20
-5513.317
 30
1134.185
 70
    32
  0
VERTEX
  8
T41SSILL
 62
4
 10
2182.092
 20
-5509.414
 30
1134.170
 70
    32
  0
VERTEX
  8
T41SSILL
 62
4
 10
2188.357
 20
-5504.807
 30
1134.157
 70
    32
  0
VERTEX
  8
T41SSILL
 62
4
 10
2182.763
 20
-5497.502
 30
1134.131
 70
    32
  0
VERTEX
  8
T41SSILL
 62
4
 10
2194.351
 20
-5385.442
 30
1133.928
 70
    32
  0
VERTEX
  8
T41SSILL
 62
4
 10
2201.567
 20
-5379.761
 30
1133.920
 70
    32
  0
VERTEX
  8
T41SSILL
 62
4
 10
2195.691
 20
-5371.491
 30
1133.911
 70
    32
  0
VERTEX
  8
T41SSILL
 62
4
 10
2207.649
 20
-5260.393
 30
1133.548
 70
    32
  0
VERTEX
  8
T41SSILL
 62
4
 10
2214.341
 20
-5254.986
 30
1133.520
 70
    32
  0
VERTEX
  8
T41SSILL
 62
4
 10
2209.099
 20
-5247.675
 30
1133.477
 70
    32
  0
VERTEX
  8
T41SSILL
 62
4
 10
2219.909
 20
-5136.421
 30
1133.003
 70
    32
  0
VERTEX
  8
T41SSILL
 62
4
 10
2226.779
 20
-5131.187
 30
1132.985
 70
    32
  0
VERTEX
  8
T41SSILL
 62
4
 10
2221.344
 20
-5122.910
 30
1132.951
 70
    32
  0
VERTEX
  8
T41SSILL
 62
4
 10
2233.243
 20
-5008.463
 30
1132.744
 70
    32
  0
VERTEX
  8
T41SSILL
 62
4
 10
2235.944
 20
-5001.717
 30
1132.769
 70
    32
  0
VERTEX
  8
T41SSILL
 62
4
 10
2234.664
 20
-4994.159
 30
1132.798
 70
    32
  0
VERTEX
  8
T41SSILL
 62
4
 10
2245.142
 20
-4884.057
 30
1133.260
 70
    32
  0
VERTEX
  8
T41SSILL
 62
4
 10
2253.402
 20
-4877.652
 30
1133.295
 70
    32
  0
VERTEX
  8
T41SSILL
 62
4
 10
2246.945
 20
-4866.396
 30
1133.334
 70
    32
  0
VERTEX
  8
T41SSILL
 62
4
 10
2254.479
 20
-4793.878
 30
1133.639
 70
    32
  0
VERTEX
  8
T41SSILL
 62
4
 10
3204.302
 20
-5100.833
 30
1133.409
 70
    32
  0
VERTEX
  8
T41SSILL
 62
4
 10
3201.788
 20
-5106.669
 30
1133.383
 70
    32
  0
VERTEX
  8
T41SSILL
 62
4
 10
3213.630
 20
-5110.725
 30
1133.379
 70
    32
  0
VERTEX
  8
T41SSILL
 62
4
 10
3215.697
 20
-5104.099
 30
1133.408
 70
    32
  0
VERTEX
  8
T41SSILL
 62
4
 10
3230.368
 20
-5109.457
 30
1133.402
 70
    32
  0
VERTEX
  8
T41SSILL
 62
4
 10
3225.880
 20
-5122.535
 30
1133.344
 70
    32
  0
VERTEX
  8
T41SSILL
 62
4
 10
3234.182
 20
-5124.854
 30
1133.343
 70
    32
  0
VERTEX
  8
T41SSILL
 62
4
 10
3238.493
 20
-5111.689
 30
1133.402
 70
    32
  0
VERTEX
  8
T41SSILL
 62
4
 10
3255.108
 20
-5117.650
 30
1133.396
 70
    32
  0
VERTEX
  8
T41SSILL
 62
4
 10
3249.670
 20
-5133.379
 30
1133.348
 70
    32
  0
VERTEX
  8
T41SSILL
 62
4
 10
3261.245
 20
-5137.261
 30
1133.360
 70
    32
  0
VERTEX
  8
T41SSILL
 62
4
 10
3264.355
 20
-5128.512
 30
1133.361
 70
    32
  0
VERTEX
  8
T41SSILL
 62
4
 10
3260.202
 20
-5127.132
 30
1133.362
 70
    32
  0
VERTEX
  8
T41SSILL
 62
4
 10
3263.057
 20
-5119.883
 30
1133.395
 70
    32
  0
VERTEX
  8
T41SSILL
 62
4
 10
3347.343
 20
-5146.592
 30
1133.418
 70
    32
  0
VERTEX
  8
T41SSILL
 62
4
 10
3564.528
 20
-5279.815
 30
1133.583
 70
    32
  0
VERTEX
  8
T41SSILL
 62
4
 10
3905.142
 20
-5485.323
 30
1134.001
 70
    32
  0
VERTEX
  8
T41SSILL
 62
4
 10
3902.764
 20
-5600.574
 30
1134.128
 70
    32
  0
VERTEX
  8
T41SSILL
 62
4
 10
3881.808
 20
-5600.062
 30
1134.116
 70
    32
  0
VERTEX
  8
T41SSILL
 62
4
 10
3881.561
 20
-5610.782
 30
1134.128
 70
    32
  0
VERTEX
  8
T41SSILL
 62
4
 10
3902.773
 20
-5611.225
 30
1134.140
 70
    32
  0
VERTEX
  8
T41SSILL
 62
4
 10
3900.654
 20
-5735.541
 30
1134.278
 70
    32
  0
VERTEX
  8
T41SSILL
 62
4
 10
3894.326
 20
-5736.567
 30
1134.275
 70
    32
  0
VERTEX
  8
T41SSILL
 62
4
 10
3892.673
 20
-5738.695
 30
1134.277
 70
    32
  0
VERTEX
  8
T41SSILL
 62
4
 10
3894.594
 20
-5746.600
 30
1134.287
 70
    32
  0
VERTEX
  8
T41SSILL
 62
4
 10
3900.442
 20
-5750.771
 30
1134.295
 70
    32
  0
VERTEX
  8
T41SSILL
 62
4
 10
3887.906
 20
-6428.949
 30
1135.688
 70
    32
  0
VERTEX
  8
T41SSILL
 62
4
 10
3880.906
 20
-6441.949
 30
1135.721
 70
    32
  0
VERTEX
  8
T41SSILL
 62
4
 10
3617.911
 20
-6630.996
 30
1136.435
 70
    32
  0
VERTEX
  8
T41SSILL
 62
4
 10
3607.265
 20
-6633.026
 30
1136.454
 70
    32
  0
VERTEX
  8
T41SSILL
 62
4
 10
3594.198
 20
-6632.653
 30
1136.472
 70
    32
  0
VERTEX
  8
T41SSILL
 62
4
 10
3573.249
 20
-6644.918
 30
1136.523
 70
    32
  0
VERTEX
  8
T41SSILL
 62
4
 10
3570.576
 20
-6660.430
 30
1136.555
 70
    32
  0
VERTEX
  8
T41SSILL
 62
4
 10
3567.856
 20
-6666.977
 30
1136.571
 70
    32
  0
VERTEX
  8
T41SSILL
 62
4
 10
3471.906
 20
-6735.949
 30
1136.832
 70
    32
  0
VERTEX
  8
T41SSILL
 62
4
 10
3471.344
 20
-6738.521
 30
1136.837
 70
    32
  0
VERTEX
  8
T41SSILL
 62
4
 10
3464.454
 20
-6741.648
 30
1136.853
 70
    32
  0
VERTEX
  8
T41SSILL
 62
4
 10
3454.562
 20
-6743.074
 30
1136.869
 70
    32
  0
VERTEX
  8
T41SSILL
 62
4
 10
3446.855
 20
-6740.949
 30
1136.876
 70
    32
  0
VERTEX
  8
T41SSILL
 62
4
 10
3439.852
 20
-6736.403
 30
1136.878
 70
    32
  0
VERTEX
  8
T41SSILL
 62
4
 10
3412.192
 20
-6699.029
 30
1136.849
 70
    32
  0
VERTEX
  8
T41SSILL
 62
4
 10
3409.623
 20
-6686.694
 30
1136.830
 70
    32
  0
VERTEX
  8
T41SSILL
 62
4
 10
3415.447
 20
-6671.600
 30
1136.798
 70
    32
  0
VERTEX
  8
T41SSILL
 62
4
 10
3445.741
 20
-6648.918
 30
1136.717
 70
    32
  0
VERTEX
  8
T41SSILL
 62
4
 10
3453.716
 20
-6649.243
 30
1136.703
 70
    32
  0
VERTEX
  8
T41SSILL
 62
4
 10
3470.683
 20
-6638.858
 30
1136.660
 70
    32
  0
VERTEX
  8
T41SSILL
 62
4
 10
3472.149
 20
-6629.882
 30
1136.646
 70
    32
  0
VERTEX
  8
T41SSILL
 62
4
 10
3578.150
 20
-6553.806
 30
1136.366
 70
    32
  0
VERTEX
  8
T41SSILL
 62
4
 10
3581.629
 20
-6559.486
 30
1136.366
 70
    32
  0
VERTEX
  8
T41SSILL
 62
4
 10
3598.075
 20
-6548.814
 30
1136.324
 70
    32
  0
VERTEX
  8
T41SSILL
 62
4
 10
3594.021
 20
-6542.453
 30
1136.324
 70
    32
  0
VERTEX
  8
T41SSILL
 62
4
 10
3640.455
 20
-6508.724
 30
1136.200
 70
    32
  0
VERTEX
  8
T41SSILL
 62
4
 10
3634.983
 20
-6502.958
 30
1136.203
 70
    32
  0
VERTEX
  8
T41SSILL
 62
4
 10
3583.729
 20
-6540.170
 30
1136.339
 70
    32
  0
VERTEX
  8
T41SSILL
 62
4
 10
3581.595
 20
-6537.225
 30
1136.340
 70
    32
  0
VERTEX
  8
T41SSILL
 62
4
 10
3570.879
 20
-6544.493
 30
1136.368
 70
    32
  0
VERTEX
  8
T41SSILL
 62
4
 10
3573.383
 20
-6547.506
 30
1136.367
 70
    32
  0
VERTEX
  8
T41SSILL
 62
4
 10
3537.872
 20
-6573.023
 30
1136.461
 70
    32
  0
VERTEX
  8
T41SSILL
 62
4
 10
3534.672
 20
-6567.905
 30
1136.460
 70
    32
  0
VERTEX
  8
T41SSILL
 62
4
 10
3525.755
 20
-6573.719
 30
1136.483
 70
    32
  0
VERTEX
  8
T41SSILL
 62
4
 10
3529.964
 20
-6578.896
 30
1136.482
 70
    32
  0
VERTEX
  8
T41SSILL
 62
4
 10
3522.787
 20
-6584.266
 30
1136.501
 70
    32
  0
VERTEX
  8
T41SSILL
 62
4
 10
3518.289
 20
-6577.888
 30
1136.502
 70
    32
  0
VERTEX
  8
T41SSILL
 62
4
 10
3509.153
 20
-6583.853
 30
1136.525
 70
    32
  0
VERTEX
  8
T41SSILL
 62
4
 10
3514.217
 20
-6590.272
 30
1136.524
 70
    32
  0
VERTEX
  8
T41SSILL
 62
4
 10
3472.966
 20
-6620.277
 30
1136.634
 70
    32
  0
VERTEX
  8
T41SSILL
 62
4
 10
3469.334
 20
-6617.502
 30
1136.637
 70
    32
  0
VERTEX
  8
T41SSILL
 62
4
 10
3456.786
 20
-6615.695
 30
1136.657
 70
    32
  0
VERTEX
  8
T41SSILL
 62
4
 10
3452.619
 20
-6621.684
 30
1136.672
 70
    32
  0
VERTEX
  8
T41SSILL
 62
4
 10
3446.793
 20
-6625.264
 30
1136.686
 70
    32
  0
VERTEX
  8
T41SSILL
 62
4
 10
3448.234
 20
-6637.837
 30
1136.699
 70
    32
  0
VERTEX
  8
T41SSILL
 62
4
 10
3411.179
 20
-6665.492
 30
1136.798
 70
    32
  0
VERTEX
  8
T41SSILL
 62
4
 10
3405.430
 20
-6675.908
 30
1136.821
 70
    32
  0
VERTEX
  8
T41SSILL
 62
4
 10
3403.652
 20
-6683.806
 30
1136.834
 70
    32
  0
VERTEX
  8
T41SSILL
 62
4
 10
3404.366
 20
-6687.190
 30
1136.838
 70
    32
  0
VERTEX
  8
T41SSILL
 62
4
 10
3358.872
 20
-6624.841
 30
1136.844
 70
    32
  0
VERTEX
  8
T41SSILL
 62
4
 10
3355.208
 20
-6613.261
 30
1136.836
 70
    32
  0
VERTEX
  8
T41SSILL
 62
4
 10
3354.931
 20
-6606.131
 30
1136.828
 70
    32
  0
VERTEX
  8
T41SSILL
 62
4
 10
3360.369
 20
-6594.637
 30
1136.805
 70
    32
  0
VERTEX
  8
T41SSILL
 62
4
 10
3522.245
 20
-6477.738
 30
1136.375
 70
    32
  0
VERTEX
  8
T41SSILL
 62
4
 10
3525.669
 20
-6483.025
 30
1136.375
 70
    32
  0
VERTEX
  8
T41SSILL
 62
4
 10
3533.243
 20
-6477.920
 30
1136.356
 70
    32
  0
VERTEX
  8
T41SSILL
 62
4
 10
3529.349
 20
-6472.418
 30
1136.356
 70
    32
  0
VERTEX
  8
T41SSILL
 62
4
 10
3570.773
 20
-6442.509
 30
1136.246
 70
    32
  0
VERTEX
  8
T41SSILL
 62
4
 10
3565.728
 20
-6435.647
 30
1136.247
 70
    32
  0
VERTEX
  8
T41SSILL
 62
4
 10
3424.863
 20
-6537.870
 30
1136.622
 70
    32
  0
VERTEX
  8
T41SSILL
 62
4
 10
3420.416
 20
-6531.564
 30
1136.622
 70
    32
  0
VERTEX
  8
T41SSILL
 62
4
 10
3413.919
 20
-6536.359
 30
1136.639
 70
    32
  0
VERTEX
  8
T41SSILL
 62
4
 10
3418.216
 20
-6542.445
 30
1136.639
 70
    32
  0
VERTEX
  8
T41SSILL
 62
4
 10
3394.027
 20
-6560.169
 30
1136.703
 70
    32
  0
VERTEX
  8
T41SSILL
 62
4
 10
3390.082
 20
-6554.594
 30
1136.704
 70
    32
  0
VERTEX
  8
T41SSILL
 62
4
 10
3382.900
 20
-6559.645
 30
1136.723
 70
    32
  0
VERTEX
  8
T41SSILL
 62
4
 10
3386.644
 20
-6564.927
 30
1136.722
 70
    32
  0
VERTEX
  8
T41SSILL
 62
4
 10
3365.551
 20
-6580.736
 30
1136.779
 70
    32
  0
VERTEX
  8
T41SSILL
 62
4
 10
3348.661
 20
-6573.090
 30
1136.800
 70
    32
  0
VERTEX
  8
T41SSILL
 62
4
 10
3328.166
 20
-6559.421
 30
1136.821
 70
    32
  0
VERTEX
  8
T41SSILL
 62
4
 10
3316.212
 20
-6557.851
 30
1136.840
 70
    32
  0
VERTEX
  8
T41SSILL
 62
4
 10
3317.042
 20
-6554.051
 30
1136.834
 70
    32
  0
VERTEX
  8
T41SSILL
 62
4
 10
3331.746
 20
-6548.668
 30
1136.801
 70
    32
  0
VERTEX
  8
T41SSILL
 62
4
 10
3498.919
 20
-6430.023
 30
1136.360
 70
    32
  0
VERTEX
  8
T41SSILL
 62
4
 10
3492.548
 20
-6423.436
 30
1136.364
 70
    32
  0
VERTEX
  8
T41SSILL
 62
4
 10
3332.722
 20
-6538.199
 30
1136.787
 70
    32
  0
VERTEX
  8
T41SSILL
 62
4
 10
3326.158
 20
-6536.795
 30
1136.797
 70
    32
  0
VERTEX
  8
T41SSILL
 62
4
 10
3329.144
 20
-6534.095
 30
1136.789
 70
    32
  0
VERTEX
  8
T41SSILL
 62
4
 10
3322.172
 20
-6528.343
 30
1136.794
 70
    32
  0
VERTEX
  8
T41SSILL
 62
4
 10
3310.959
 20
-6538.644
 30
1136.827
 70
    32
  0
VERTEX
  8
T41SSILL
 62
4
 10
3303.044
 20
-6537.309
 30
1136.839
 70
    32
  0
VERTEX
  8
T41SSILL
 62
4
 10
3300.260
 20
-6533.734
 30
1136.840
 70
    32
  0
VERTEX
  8
T41SSILL
 62
4
 10
3299.947
 20
-6529.213
 30
1136.835
 70
    32
  0
VERTEX
  8
T41SSILL
 62
4
 10
3303.285
 20
-6518.734
 30
1136.817
 70
    32
  0
VERTEX
  8
T41SSILL
 62
4
 10
3307.366
 20
-6513.557
 30
1136.803
 70
    32
  0
VERTEX
  8
T41SSILL
 62
4
 10
3364.415
 20
-6473.971
 30
1136.654
 70
    32
  0
SEQEND
  8
T41SSILL
  0
POLYLINE
  8
T41SSILL
 62
4
 66
     1
 70
     9
  0
VERTEX
  8
T41SSILL
 62
4
 10
2670.359
 20
-6879.792
 30
1136.688
 70
    32
  0
VERTEX
  8
T41SSILL
 62
4
 10
2677.816
 20
-6884.419
 30
1136.719
 70
    32
  0
VERTEX
  8
T41SSILL
 62
4
 10
2688.360
 20
-6885.429
 30
1136.747
 70
    32
  0
VERTEX
  8
T41SSILL
 62
4
 10
2695.004
 20
-6884.190
 30
1136.759
 70
    32
  0
VERTEX
  8
T41SSILL
 62
4
 10
2704.152
 20
-6879.734
 30
1136.769
 70
    32
  0
VERTEX
  8
T41SSILL
 62
4
 10
2814.164
 20
-6801.473
 30
1136.438
 70
    32
  0
VERTEX
  8
T41SSILL
 62
4
 10
2810.645
 20
-6796.500
 30
1136.432
 70
    32
  0
VERTEX
  8
T41SSILL
 62
4
 10
2815.840
 20
-6793.149
 30
1136.441
 70
    32
  0
VERTEX
  8
T41SSILL
 62
4
 10
2818.846
 20
-6798.154
 30
1136.433
 70
    32
  0
VERTEX
  8
T41SSILL
 62
4
 10
2875.626
 20
-6757.163
 30
1136.909
 70
    32
  0
VERTEX
  8
T41SSILL
 62
4
 10
2872.206
 20
-6748.589
 30
1136.916
 70
    32
  0
VERTEX
  8
T41SSILL
 62
4
 10
2890.495
 20
-6733.579
 30
1137.077
 70
    32
  0
VERTEX
  8
T41SSILL
 62
4
 10
2893.865
 20
-6732.873
 30
1137.100
 70
    32
  0
VERTEX
  8
T41SSILL
 62
4
 10
2899.887
 20
-6740.090
 30
1137.112
 70
    32
  0
VERTEX
  8
T41SSILL
 62
4
 10
2947.304
 20
-6705.738
 30
1137.514
 70
    32
  0
VERTEX
  8
T41SSILL
 62
4
 10
2950.610
 20
-6700.258
 30
1137.553
 70
    32
  0
VERTEX
  8
T41SSILL
 62
4
 10
2953.962
 20
-6685.324
 30
1137.623
 70
    32
  0
VERTEX
  8
T41SSILL
 62
4
 10
2957.915
 20
-6678.758
 30
1137.627
 70
    32
  0
VERTEX
  8
T41SSILL
 62
4
 10
2958.253
 20
-6672.852
 30
1137.619
 70
    32
  0
VERTEX
  8
T41SSILL
 62
4
 10
2978.263
 20
-6660.194
 30
1137.568
 70
    32
  0
VERTEX
  8
T41SSILL
 62
4
 10
2986.417
 20
-6658.347
 30
1137.551
 70
    32
  0
VERTEX
  8
T41SSILL
 62
4
 10
2987.274
 20
-6651.013
 30
1137.541
 70
    32
  0
VERTEX
  8
T41SSILL
 62
4
 10
2924.805
 20
-6564.643
 30
1137.550
 70
    32
  0
VERTEX
  8
T41SSILL
 62
4
 10
2918.567
 20
-6568.816
 30
1137.566
 70
    32
  0
VERTEX
  8
T41SSILL
 62
4
 10
2914.314
 20
-6561.991
 30
1137.566
 70
    32
  0
VERTEX
  8
T41SSILL
 62
4
 10
2920.360
 20
-6558.164
 30
1137.550
 70
    32
  0
VERTEX
  8
T41SSILL
 62
4
 10
2896.480
 20
-6524.762
 30
1137.553
 70
    32
  0
VERTEX
  8
T41SSILL
 62
4
 10
2864.328
 20
-6548.748
 30
1137.534
 70
    32
  0
VERTEX
  8
T41SSILL
 62
4
 10
2867.849
 20
-6561.214
 30
1137.513
 70
    32
  0
VERTEX
  8
T41SSILL
 62
4
 10
2872.751
 20
-6570.699
 30
1137.512
 70
    32
  0
VERTEX
  8
T41SSILL
 62
4
 10
2899.424
 20
-6602.399
 30
1137.568
 70
    32
  0
VERTEX
  8
T41SSILL
 62
4
 10
2893.451
 20
-6606.176
 30
1137.519
 70
    32
  0
VERTEX
  8
T41SSILL
 62
4
 10
2888.163
 20
-6600.810
 30
1137.505
 70
    32
  0
VERTEX
  8
T41SSILL
 62
4
 10
2883.462
 20
-6604.571
 30
1137.464
 70
    32
  0
VERTEX
  8
T41SSILL
 62
4
 10
2880.958
 20
-6604.041
 30
1137.450
 70
    32
  0
VERTEX
  8
T41SSILL
 62
4
 10
2867.402
 20
-6586.468
 30
1137.427
 70
    32
  0
VERTEX
  8
T41SSILL
 62
4
 10
2862.997
 20
-6590.346
 30
1137.387
 70
    32
  0
VERTEX
  8
T41SSILL
 62
4
 10
2854.718
 20
-6593.885
 30
1137.325
 70
    32
  0
VERTEX
  8
T41SSILL
 62
4
 10
2843.748
 20
-6592.097
 30
1137.265
 70
    32
  0
VERTEX
  8
T41SSILL
 62
4
 10
2837.978
 20
-6587.276
 30
1137.246
 70
    32
  0
VERTEX
  8
T41SSILL
 62
4
 10
2830.723
 20
-6575.765
 30
1137.240
 70
    32
  0
VERTEX
  8
T41SSILL
 62
4
 10
2823.451
 20
-6581.396
 30
1137.177
 70
    32
  0
VERTEX
  8
T41SSILL
 62
4
 10
2829.036
 20
-6594.374
 30
1137.168
 70
    32
  0
VERTEX
  8
T41SSILL
 62
4
 10
2851.050
 20
-6625.524
 30
1137.198
 70
    32
  0
VERTEX
  8
T41SSILL
 62
4
 10
2865.158
 20
-6649.677
 30
1137.203
 70
    32
  0
VERTEX
  8
T41SSILL
 62
4
 10
2865.047
 20
-6652.323
 30
1137.193
 70
    32
  0
VERTEX
  8
T41SSILL
 62
4
 10
2860.725
 20
-6658.821
 30
1137.145
 70
    32
  0
VERTEX
  8
T41SSILL
 62
4
 10
2868.870
 20
-6676.467
 30
1137.136
 70
    32
  0
VERTEX
  8
T41SSILL
 62
4
 10
2862.516
 20
-6682.967
 30
1137.076
 70
    32
  0
VERTEX
  8
T41SSILL
 62
4
 10
2852.726
 20
-6683.367
 30
1137.015
 70
    32
  0
VERTEX
  8
T41SSILL
 62
4
 10
2848.445
 20
-6681.808
 30
1136.994
 70
    32
  0
VERTEX
  8
T41SSILL
 62
4
 10
2834.255
 20
-6647.860
 30
1137.021
 70
    32
  0
VERTEX
  8
T41SSILL
 62
4
 10
2825.420
 20
-6633.579
 30
1137.015
 70
    32
  0
VERTEX
  8
T41SSILL
 62
4
 10
2817.459
 20
-6637.113
 30
1136.955
 70
    32
  0
VERTEX
  8
T41SSILL
 62
4
 10
2813.036
 20
-6635.972
 30
1136.932
 70
    32
  0
VERTEX
  8
T41SSILL
 62
4
 10
2806.724
 20
-6641.909
 30
1136.874
 70
    32
  0
VERTEX
  8
T41SSILL
 62
4
 10
2800.781
 20
-6627.785
 30
1136.885
 70
    32
  0
VERTEX
  8
T41SSILL
 62
4
 10
2800.464
 20
-6622.328
 30
1136.901
 70
    32
  0
VERTEX
  8
T41SSILL
 62
4
 10
2804.547
 20
-6612.675
 30
1136.958
 70
    32
  0
VERTEX
  8
T41SSILL
 62
4
 10
2795.739
 20
-6604.050
 30
1136.934
 70
    32
  0
VERTEX
  8
T41SSILL
 62
4
 10
2763.956
 20
-6631.851
 30
1136.760
 70
    32
  0
VERTEX
  8
T41SSILL
 62
4
 10
2770.798
 20
-6638.078
 30
1136.754
 70
    32
  0
VERTEX
  8
T41SSILL
 62
4
 10
2781.804
 20
-6644.445
 30
1136.753
 70
    32
  0
VERTEX
  8
T41SSILL
 62
4
 10
2776.859
 20
-6651.906
 30
1136.729
 70
    32
  0
VERTEX
  8
T41SSILL
 62
4
 10
2774.180
 20
-6652.995
 30
1136.723
 70
    32
  0
VERTEX
  8
T41SSILL
 62
4
 10
2762.576
 20
-6644.040
 30
1136.729
 70
    32
  0
VERTEX
  8
T41SSILL
 62
4
 10
2750.969
 20
-6642.260
 30
1136.718
 70
    32
  0
VERTEX
  8
T41SSILL
 62
4
 10
2745.100
 20
-6650.248
 30
1136.691
 70
    32
  0
VERTEX
  8
T41SSILL
 62
4
 10
2751.058
 20
-6658.152
 30
1136.680
 70
    32
  0
VERTEX
  8
T41SSILL
 62
4
 10
2752.949
 20
-6664.028
 30
1136.669
 70
    32
  0
VERTEX
  8
T41SSILL
 62
4
 10
2747.880
 20
-6667.720
 30
1136.653
 70
    32
  0
VERTEX
  8
T41SSILL
 62
4
 10
2732.642
 20
-6654.405
 30
1136.665
 70
    32
  0
VERTEX
  8
T41SSILL
 62
4
 10
2687.069
 20
-6691.133
 30
1136.518
 70
    32
  0
VERTEX
  8
T41SSILL
 62
4
 10
2667.455
 20
-6704.054
 30
1136.533
 70
    32
  0
VERTEX
  8
T41SSILL
 62
4
 10
2666.718
 20
-6709.378
 30
1136.516
 70
    32
  0
VERTEX
  8
T41SSILL
 62
4
 10
2668.358
 20
-6711.144
 30
1136.497
 70
    32
  0
VERTEX
  8
T41SSILL
 62
4
 10
2700.833
 20
-6718.841
 30
1136.488
 70
    32
  0
VERTEX
  8
T41SSILL
 62
4
 10
2698.391
 20
-6728.547
 30
1136.480
 70
    32
  0
VERTEX
  8
T41SSILL
 62
4
 10
2648.195
 20
-6717.804
 30
1136.615
 70
    32
  0
VERTEX
  8
T41SSILL
 62
4
 10
2623.605
 20
-6735.959
 30
1136.717
 70
    32
  0
VERTEX
  8
T41SSILL
 62
4
 10
2610.552
 20
-6748.769
 30
1136.758
 70
    32
  0
VERTEX
  8
T41SSILL
 62
4
 10
2607.105
 20
-6754.667
 30
1136.759
 70
    32
  0
VERTEX
  8
T41SSILL
 62
4
 10
2603.660
 20
-6766.345
 30
1136.736
 70
    32
  0
VERTEX
  8
T41SSILL
 62
4
 10
2603.046
 20
-6780.899
 30
1136.680
 70
    32
  0
VERTEX
  8
T41SSILL
 62
4
 10
2605.280
 20
-6788.681
 30
1136.631
 70
    32
  0
VERTEX
  8
T41SSILL
 62
4
 10
2667.546
 20
-6878.189
 30
1136.677
 70
    32
  0
SEQEND
  8
T41SSILL
  0
POLYLINE
  8
T41SSILL
 62
4
 66
     1
 70
     9
  0
VERTEX
  8
T41SSILL
 62
4
 10
2597.869
 20
-6759.933
 30
1136.804
 70
    32
  0
VERTEX
  8
T41SSILL
 62
4
 10
2603.183
 20
-6747.079
 30
1136.819
 70
    32
  0
VERTEX
  8
T41SSILL
 62
4
 10
2601.804
 20
-6739.139
 30
1136.862
 70
    32
  0
VERTEX
  8
T41SSILL
 62
4
 10
2593.723
 20
-6735.475
 30
1136.935
 70
    32
  0
VERTEX
  8
T41SSILL
 62
4
 10
2580.738
 20
-6734.963
 30
1137.031
 70
    32
  0
VERTEX
  8
T41SSILL
 62
4
 10
2578.546
 20
-6730.364
 30
1137.066
 70
    32
  0
VERTEX
  8
T41SSILL
 62
4
 10
2564.555
 20
-6726.044
 30
1137.185
 70
    32
  0
VERTEX
  8
T41SSILL
 62
4
 10
2562.045
 20
-6730.657
 30
1137.184
 70
    32
  0
VERTEX
  8
T41SSILL
 62
4
 10
2595.625
 20
-6777.104
 30
1136.749
 70
    32
  0
VERTEX
  8
T41SSILL
 62
4
 10
2597.179
 20
-6763.297
 30
1136.795
 70
    32
  0
SEQEND
  8
T41SSILL
  0
POLYLINE
  8
T41SSILL
 62
4
 66
     1
 70
     9
  0
VERTEX
  8
T41SSILL
 62
4
 10
2480.540
 20
-6533.364
 30
1138.497
 70
    32
  0
VERTEX
  8
T41SSILL
 62
4
 10
2494.120
 20
-6549.100
 30
1138.336
 70
    32
  0
VERTEX
  8
T41SSILL
 62
4
 10
2497.363
 20
-6557.261
 30
1138.284
 70
    32
  0
VERTEX
  8
T41SSILL
 62
4
 10
2494.935
 20
-6562.460
 30
1138.284
 70
    32
  0
VERTEX
  8
T41SSILL
 62
4
 10
2469.755
 20
-6580.378
 30
1138.445
 70
    32
  0
VERTEX
  8
T41SSILL
 62
4
 10
2466.016
 20
-6586.476
 30
1138.453
 70
    32
  0
VERTEX
  8
T41SSILL
 62
4
 10
2490.454
 20
-6630.523
 30
1138.078
 70
    32
  0
VERTEX
  8
T41SSILL
 62
4
 10
2527.035
 20
-6681.657
 30
1137.635
 70
    32
  0
VERTEX
  8
T41SSILL
 62
4
 10
2535.220
 20
-6685.785
 30
1137.562
 70
    32
  0
VERTEX
  8
T41SSILL
 62
4
 10
2548.076
 20
-6665.508
 30
1137.539
 70
    32
  0
VERTEX
  8
T41SSILL
 62
4
 10
2542.022
 20
-6648.570
 30
1137.642
 70
    32
  0
VERTEX
  8
T41SSILL
 62
4
 10
2542.014
 20
-6642.472
 30
1137.664
 70
    32
  0
VERTEX
  8
T41SSILL
 62
4
 10
2530.047
 20
-6622.845
 30
1137.819
 70
    32
  0
VERTEX
  8
T41SSILL
 62
4
 10
2532.600
 20
-6615.955
 30
1137.825
 70
    32
  0
VERTEX
  8
T41SSILL
 62
4
 10
2519.597
 20
-6601.215
 30
1137.970
 70
    32
  0
VERTEX
  8
T41SSILL
 62
4
 10
2519.039
 20
-6594.316
 30
1137.998
 70
    32
  0
VERTEX
  8
T41SSILL
 62
4
 10
2523.255
 20
-6579.861
 30
1138.018
 70
    32
  0
VERTEX
  8
T41SSILL
 62
4
 10
2534.033
 20
-6572.787
 30
1137.965
 70
    32
  0
VERTEX
  8
T41SSILL
 62
4
 10
2541.087
 20
-6571.053
 30
1137.920
 70
    32
  0
VERTEX
  8
T41SSILL
 62
4
 10
2553.530
 20
-6587.784
 30
1137.772
 70
    32
  0
VERTEX
  8
T41SSILL
 62
4
 10
2565.566
 20
-6592.374
 30
1137.669
 70
    32
  0
VERTEX
  8
T41SSILL
 62
4
 10
2581.603
 20
-6625.269
 30
1137.438
 70
    32
  0
VERTEX
  8
T41SSILL
 62
4
 10
2589.559
 20
-6636.084
 30
1137.342
 70
    32
  0
VERTEX
  8
T41SSILL
 62
4
 10
2593.483
 20
-6649.452
 30
1137.267
 70
    32
  0
VERTEX
  8
T41SSILL
 62
4
 10
2608.421
 20
-6667.790
 30
1137.095
 70
    32
  0
VERTEX
  8
T41SSILL
 62
4
 10
2618.533
 20
-6676.912
 30
1136.990
 70
    32
  0
VERTEX
  8
T41SSILL
 62
4
 10
2616.675
 20
-6684.504
 30
1136.977
 70
    32
  0
VERTEX
  8
T41SSILL
 62
4
 10
2607.884
 20
-6691.820
 30
1137.014
 70
    32
  0
VERTEX
  8
T41SSILL
 62
4
 10
2602.113
 20
-6692.460
 30
1137.053
 70
    32
  0
VERTEX
  8
T41SSILL
 62
4
 10
2596.420
 20
-6687.908
 30
1137.112
 70
    32
  0
VERTEX
  8
T41SSILL
 62
4
 10
2596.371
 20
-6682.374
 30
1137.131
 70
    32
  0
VERTEX
  8
T41SSILL
 62
4
 10
2592.591
 20
-6674.368
 30
1137.187
 70
    32
  0
VERTEX
  8
T41SSILL
 62
4
 10
2585.726
 20
-6668.264
 30
1137.258
 70
    32
  0
VERTEX
  8
T41SSILL
 62
4
 10
2570.571
 20
-6668.490
 30
1137.366
 70
    32
  0
VERTEX
  8
T41SSILL
 62
4
 10
2567.547
 20
-6669.388
 30
1137.385
 70
    32
  0
VERTEX
  8
T41SSILL
 62
4
 10
2560.215
 20
-6676.024
 30
1137.415
 70
    32
  0
VERTEX
  8
T41SSILL
 62
4
 10
2553.223
 20
-6675.039
 30
1137.469
 70
    32
  0
VERTEX
  8
T41SSILL
 62
4
 10
2543.516
 20
-6692.727
 30
1137.475
 70
    32
  0
VERTEX
  8
T41SSILL
 62
4
 10
2544.895
 20
-6706.128
 30
1137.409
 70
    32
  0
VERTEX
  8
T41SSILL
 62
4
 10
2546.506
 20
-6709.412
 30
1137.384
 70
    32
  0
VERTEX
  8
T41SSILL
 62
4
 10
2583.010
 20
-6721.733
 30
1137.069
 70
    32
  0
VERTEX
  8
T41SSILL
 62
4
 10
2593.492
 20
-6707.048
 30
1137.054
 70
    32
  0
VERTEX
  8
T41SSILL
 62
4
 10
2597.354
 20
-6695.511
 30
1137.074
 70
    32
  0
VERTEX
  8
T41SSILL
 62
4
 10
2606.689
 20
-6699.599
 30
1136.990
 70
    32
  0
VERTEX
  8
T41SSILL
 62
4
 10
2600.370
 20
-6717.853
 30
1136.960
 70
    32
  0
VERTEX
  8
T41SSILL
 62
4
 10
2606.268
 20
-6726.762
 30
1136.881
 70
    32
  0
VERTEX
  8
T41SSILL
 62
4
 10
2609.813
 20
-6728.184
 30
1136.849
 70
    32
  0
VERTEX
  8
T41SSILL
 62
4
 10
2628.058
 20
-6715.452
 30
1136.770
 70
    32
  0
VERTEX
  8
T41SSILL
 62
4
 10
2620.361
 20
-6700.176
 30
1136.889
 70
    32
  0
VERTEX
  8
T41SSILL
 62
4
 10
2625.379
 20
-6692.665
 30
1136.884
 70
    32
  0
VERTEX
  8
T41SSILL
 62
4
 10
2635.023
 20
-6697.826
 30
1136.793
 70
    32
  0
VERTEX
  8
T41SSILL
 62
4
 10
2643.507
 20
-6698.643
 30
1136.728
 70
    32
  0
VERTEX
  8
T41SSILL
 62
4
 10
2647.518
 20
-6698.247
 30
1136.701
 70
    32
  0
VERTEX
  8
T41SSILL
 62
4
 10
2658.893
 20
-6690.014
 30
1136.653
 70
    32
  0
VERTEX
  8
T41SSILL
 62
4
 10
2664.721
 20
-6695.544
 30
1136.588
 70
    32
  0
VERTEX
  8
T41SSILL
 62
4
 10
2722.502
 20
-6650.549
 30
1136.661
 70
    32
  0
VERTEX
  8
T41SSILL
 62
4
 10
2721.507
 20
-6640.204
 30
1136.685
 70
    32
  0
VERTEX
  8
T41SSILL
 62
4
 10
2713.105
 20
-6634.512
 30
1136.688
 70
    32
  0
VERTEX
  8
T41SSILL
 62
4
 10
2705.000
 20
-6632.685
 30
1136.681
 70
    32
  0
VERTEX
  8
T41SSILL
 62
4
 10
2696.832
 20
-6633.578
 30
1136.669
 70
    32
  0
VERTEX
  8
T41SSILL
 62
4
 10
2683.349
 20
-6630.623
 30
1136.667
 70
    32
  0
VERTEX
  8
T41SSILL
 62
4
 10
2681.280
 20
-6616.839
 30
1136.746
 70
    32
  0
VERTEX
  8
T41SSILL
 62
4
 10
2691.213
 20
-6605.099
 30
1136.730
 70
    32
  0
VERTEX
  8
T41SSILL
 62
4
 10
2701.073
 20
-6611.825
 30
1136.726
 70
    32
  0
VERTEX
  8
T41SSILL
 62
4
 10
2711.431
 20
-6611.785
 30
1136.740
 70
    32
  0
VERTEX
  8
T41SSILL
 62
4
 10
2726.630
 20
-6627.695
 30
1136.721
 70
    32
  0
VERTEX
  8
T41SSILL
 62
4
 10
2732.557
 20
-6629.625
 30
1136.724
 70
    32
  0
VERTEX
  8
T41SSILL
 62
4
 10
2738.329
 20
-6627.270
 30
1136.738
 70
    32
  0
VERTEX
  8
T41SSILL
 62
4
 10
2736.119
 20
-6599.236
 30
1136.802
 70
    32
  0
VERTEX
  8
T41SSILL
 62
4
 10
2731.454
 20
-6576.206
 30
1136.851
 70
    32
  0
VERTEX
  8
T41SSILL
 62
4
 10
2741.732
 20
-6573.865
 30
1136.870
 70
    32
  0
VERTEX
  8
T41SSILL
 62
4
 10
2749.257
 20
-6616.668
 30
1136.777
 70
    32
  0
VERTEX
  8
T41SSILL
 62
4
 10
2757.576
 20
-6623.488
 30
1136.772
 70
    32
  0
VERTEX
  8
T41SSILL
 62
4
 10
2800.000
 20
-6589.349
 30
1137.008
 70
    32
  0
VERTEX
  8
T41SSILL
 62
4
 10
2798.923
 20
-6583.878
 30
1137.020
 70
    32
  0
VERTEX
  8
T41SSILL
 62
4
 10
2788.294
 20
-6567.294
 30
1137.011
 70
    32
  0
VERTEX
  8
T41SSILL
 62
4
 10
2790.073
 20
-6566.609
 30
1137.024
 70
    32
  0
VERTEX
  8
T41SSILL
 62
4
 10
2780.832
 20
-6549.395
 30
1137.025
 70
    32
  0
VERTEX
  8
T41SSILL
 62
4
 10
2779.277
 20
-6544.787
 30
1137.031
 70
    32
  0
VERTEX
  8
T41SSILL
 62
4
 10
2780.541
 20
-6540.387
 30
1137.053
 70
    32
  0
VERTEX
  8
T41SSILL
 62
4
 10
2767.019
 20
-6516.152
 30
1137.052
 70
    32
  0
VERTEX
  8
T41SSILL
 62
4
 10
2757.038
 20
-6502.229
 30
1137.062
 70
    32
  0
VERTEX
  8
T41SSILL
 62
4
 10
2768.484
 20
-6495.661
 30
1137.129
 70
    32
  0
VERTEX
  8
T41SSILL
 62
4
 10
2781.037
 20
-6520.667
 30
1137.122
 70
    32
  0
VERTEX
  8
T41SSILL
 62
4
 10
2788.629
 20
-6540.940
 30
1137.101
 70
    32
  0
VERTEX
  8
T41SSILL
 62
4
 10
2799.540
 20
-6556.688
 30
1137.114
 70
    32
  0
VERTEX
  8
T41SSILL
 62
4
 10
2808.580
 20
-6566.118
 30
1137.138
 70
    32
  0
VERTEX
  8
T41SSILL
 62
4
 10
2818.333
 20
-6570.347
 30
1137.183
 70
    32
  0
VERTEX
  8
T41SSILL
 62
4
 10
2822.822
 20
-6569.087
 30
1137.214
 70
    32
  0
VERTEX
  8
T41SSILL
 62
4
 10
2830.913
 20
-6562.465
 30
1137.285
 70
    32
  0
VERTEX
  8
T41SSILL
 62
4
 10
2834.155
 20
-6557.672
 30
1137.321
 70
    32
  0
VERTEX
  8
T41SSILL
 62
4
 10
2834.009
 20
-6548.564
 30
1137.350
 70
    32
  0
VERTEX
  8
T41SSILL
 62
4
 10
2828.043
 20
-6540.024
 30
1137.343
 70
    32
  0
VERTEX
  8
T41SSILL
 62
4
 10
2827.097
 20
-6535.212
 30
1137.353
 70
    32
  0
VERTEX
  8
T41SSILL
 62
4
 10
2764.814
 20
-6477.515
 30
1137.167
 70
    32
  0
VERTEX
  8
T41SSILL
 62
4
 10
2766.622
 20
-6469.851
 30
1137.204
 70
    32
  0
VERTEX
  8
T41SSILL
 62
4
 10
2765.560
 20
-6458.159
 30
1137.236
 70
    32
  0
VERTEX
  8
T41SSILL
 62
4
 10
2771.075
 20
-6449.344
 30
1137.299
 70
    32
  0
VERTEX
  8
T41SSILL
 62
4
 10
2769.039
 20
-6434.359
 30
1137.336
 70
    32
  0
VERTEX
  8
T41SSILL
 62
4
 10
2754.561
 20
-6406.391
 30
1137.342
 70
    32
  0
VERTEX
  8
T41SSILL
 62
4
 10
2750.339
 20
-6394.619
 30
1137.355
 70
    32
  0
VERTEX
  8
T41SSILL
 62
4
 10
2754.428
 20
-6379.823
 30
1137.429
 70
    32
  0
VERTEX
  8
T41SSILL
 62
4
 10
2772.884
 20
-6360.844
 30
1137.579
 70
    32
  0
VERTEX
  8
T41SSILL
 62
4
 10
2767.686
 20
-6356.701
 30
1137.584
 70
    32
  0
VERTEX
  8
T41SSILL
 62
4
 10
2764.083
 20
-6349.109
 30
1137.581
 70
    32
  0
VERTEX
  8
T41SSILL
 62
4
 10
2767.257
 20
-6344.683
 30
1137.570
 70
    32
  0
VERTEX
  8
T41SSILL
 62
4
 10
2745.892
 20
-6314.480
 30
1137.572
 70
    32
  0
VERTEX
  8
T41SSILL
 62
4
 10
2730.700
 20
-6306.381
 30
1137.530
 70
    32
  0
VERTEX
  8
T41SSILL
 62
4
 10
2714.245
 20
-6300.967
 30
1137.488
 70
    32
  0
VERTEX
  8
T41SSILL
 62
4
 10
2711.403
 20
-6300.883
 30
1137.512
 70
    32
  0
VERTEX
  8
T41SSILL
 62
4
 10
2702.692
 20
-6305.040
 30
1137.615
 70
    32
  0
VERTEX
  8
T41SSILL
 62
4
 10
2459.603
 20
-6480.063
 30
1138.890
 70
    32
  0
VERTEX
  8
T41SSILL
 62
4
 10
2456.794
 20
-6487.985
 30
1138.891
 70
    32
  0
VERTEX
  8
T41SSILL
 62
4
 10
2458.142
 20
-6495.412
 30
1138.852
 70
    32
  0
VERTEX
  8
T41SSILL
 62
4
 10
2468.732
 20
-6509.131
 30
1138.699
 70
    32
  0
VERTEX
  8
T41SSILL
 62
4
 10
2477.957
 20
-6528.819
 30
1138.538
 70
    32
  0
SEQEND
  8
T41SSILL
  0
POLYLINE
  8
T41SSILL
 62
4
 66
     1
 70
     9
  0
VERTEX
  8
T41SSILL
 62
4
 10
2730.913
 20
-6292.958
 30
1137.574
 70
    32
  0
VERTEX
  8
T41SSILL
 62
4
 10
2600.107
 20
-6113.537
 30
1136.865
 70
    32
  0
VERTEX
  8
T41SSILL
 62
4
 10
2593.105
 20
-6108.491
 30
1136.840
 70
    32
  0
VERTEX
  8
T41SSILL
 62
4
 10
2581.585
 20
-6105.580
 30
1136.898
 70
    32
  0
VERTEX
  8
T41SSILL
 62
4
 10
2575.933
 20
-6105.925
 30
1136.944
 70
    32
  0
VERTEX
  8
T41SSILL
 62
4
 10
2561.749
 20
-6112.873
 30
1137.125
 70
    32
  0
VERTEX
  8
T41SSILL
 62
4
 10
2566.036
 20
-6118.497
 30
1137.151
 70
    32
  0
VERTEX
  8
T41SSILL
 62
4
 10
2559.388
 20
-6123.165
 30
1137.250
 70
    32
  0
VERTEX
  8
T41SSILL
 62
4
 10
2555.393
 20
-6117.341
 30
1137.220
 70
    32
  0
VERTEX
  8
T41SSILL
 62
4
 10
2376.400
 20
-6247.211
 30
1138.279
 70
    32
  0
VERTEX
  8
T41SSILL
 62
4
 10
2375.461
 20
-6253.957
 30
1138.296
 70
    32
  0
VERTEX
  8
T41SSILL
 62
4
 10
2369.536
 20
-6268.729
 30
1138.326
 70
    32
  0
VERTEX
  8
T41SSILL
 62
4
 10
2360.812
 20
-6277.882
 30
1138.338
 70
    32
  0
VERTEX
  8
T41SSILL
 62
4
 10
2362.713
 20
-6280.477
 30
1138.347
 70
    32
  0
VERTEX
  8
T41SSILL
 62
4
 10
2358.673
 20
-6287.852
 30
1138.361
 70
    32
  0
VERTEX
  8
T41SSILL
 62
4
 10
2364.236
 20
-6295.492
 30
1138.389
 70
    32
  0
VERTEX
  8
T41SSILL
 62
4
 10
2379.602
 20
-6325.849
 30
1138.490
 70
    32
  0
VERTEX
  8
T41SSILL
 62
4
 10
2364.861
 20
-6335.106
 30
1138.493
 70
    32
  0
VERTEX
  8
T41SSILL
 62
4
 10
2357.796
 20
-6348.840
 30
1138.519
 70
    32
  0
VERTEX
  8
T41SSILL
 62
4
 10
2354.700
 20
-6362.741
 30
1138.551
 70
    32
  0
VERTEX
  8
T41SSILL
 62
4
 10
2345.951
 20
-6367.780
 30
1138.552
 70
    32
  0
VERTEX
  8
T41SSILL
 62
4
 10
2351.726
 20
-6385.873
 30
1138.607
 70
    32
  0
VERTEX
  8
T41SSILL
 62
4
 10
2356.975
 20
-6393.835
 30
1138.636
 70
    32
  0
VERTEX
  8
T41SSILL
 62
4
 10
2356.030
 20
-6407.439
 30
1138.670
 70
    32
  0
VERTEX
  8
T41SSILL
 62
4
 10
2395.849
 20
-6462.668
 30
1138.871
 70
    32
  0
VERTEX
  8
T41SSILL
 62
4
 10
2403.976
 20
-6460.625
 30
1138.878
 70
    32
  0
VERTEX
  8
T41SSILL
 62
4
 10
2417.276
 20
-6460.815
 30
1138.897
 70
    32
  0
VERTEX
  8
T41SSILL
 62
4
 10
2432.169
 20
-6453.809
 30
1138.900
 70
    32
  0
VERTEX
  8
T41SSILL
 62
4
 10
2446.608
 20
-6460.498
 30
1138.902
 70
    32
  0
VERTEX
  8
T41SSILL
 62
4
 10
2455.093
 20
-6474.270
 30
1138.923
 70
    32
  0
VERTEX
  8
T41SSILL
 62
4
 10
2706.827
 20
-6293.744
 30
1137.601
 70
    32
  0
VERTEX
  8
T41SSILL
 62
4
 10
2716.032
 20
-6291.712
 30
1137.513
 70
    32
  0
VERTEX
  8
T41SSILL
 62
4
 10
2730.606
 20
-6292.912
 30
1137.574
 70
    32
  0
SEQEND
  8
T41SSILL
  0
POLYLINE
  8
T41SSILL
 62
4
 66
     1
 70
     9
  0
VERTEX
  8
T41SSILL
 62
4
 10
3460.121
 20
-6817.943
 30
1136.966
 70
    32
  0
VERTEX
  8
T41SSILL
 62
4
 10
3462.929
 20
-6824.838
 30
1136.967
 70
    32
  0
VERTEX
  8
T41SSILL
 62
4
 10
3483.056
 20
-6811.102
 30
1136.923
 70
    32
  0
VERTEX
  8
T41SSILL
 62
4
 10
3533.988
 20
-6882.009
 30
1136.914
 70
    32
  0
VERTEX
  8
T41SSILL
 62
4
 10
3534.792
 20
-6892.184
 30
1136.937
 70
    32
  0
VERTEX
  8
T41SSILL
 62
4
 10
3522.762
 20
-6936.278
 30
1137.087
 70
    32
  0
VERTEX
  8
T41SSILL
 62
4
 10
3259.198
 20
-7124.306
 30
1137.582
 70
    32
  0
VERTEX
  8
T41SSILL
 62
4
 10
3169.037
 20
-7109.130
 30
1137.606
 70
    32
  0
VERTEX
  8
T41SSILL
 62
4
 10
3098.001
 20
-7011.125
 30
1137.641
 70
    32
  0
VERTEX
  8
T41SSILL
 62
4
 10
3078.698
 20
-6900.305
 30
1137.666
 70
    32
  0
VERTEX
  8
T41SSILL
 62
4
 10
3081.700
 20
-6884.386
 30
1137.651
 70
    32
  0
VERTEX
  8
T41SSILL
 62
4
 10
3107.392
 20
-6852.596
 30
1137.566
 70
    32
  0
VERTEX
  8
T41SSILL
 62
4
 10
3101.649
 20
-6845.886
 30
1137.568
 70
    32
  0
VERTEX
  8
T41SSILL
 62
4
 10
3078.621
 20
-6875.103
 30
1137.645
 70
    32
  0
VERTEX
  8
T41SSILL
 62
4
 10
3074.298
 20
-6874.517
 30
1137.652
 70
    32
  0
VERTEX
  8
T41SSILL
 62
4
 10
3072.699
 20
-6852.148
 30
1137.628
 70
    32
  0
VERTEX
  8
T41SSILL
 62
4
 10
3079.584
 20
-6846.889
 30
1137.609
 70
    32
  0
VERTEX
  8
T41SSILL
 62
4
 10
3074.658
 20
-6839.241
 30
1137.609
 70
    32
  0
VERTEX
  8
T41SSILL
 62
4
 10
3042.650
 20
-6747.175
 30
1137.556
 70
    32
  0
VERTEX
  8
T41SSILL
 62
4
 10
3044.183
 20
-6737.237
 30
1137.542
 70
    32
  0
VERTEX
  8
T41SSILL
 62
4
 10
3042.975
 20
-6731.107
 30
1137.537
 70
    32
  0
VERTEX
  8
T41SSILL
 62
4
 10
3040.831
 20
-6728.295
 30
1137.537
 70
    32
  0
VERTEX
  8
T41SSILL
 62
4
 10
3048.724
 20
-6704.999
 30
1137.495
 70
    32
  0
VERTEX
  8
T41SSILL
 62
4
 10
3048.232
 20
-6701.161
 30
1137.492
 70
    32
  0
VERTEX
  8
T41SSILL
 62
4
 10
3087.022
 20
-6673.585
 30
1137.389
 70
    32
  0
VERTEX
  8
T41SSILL
 62
4
 10
3082.593
 20
-6668.379
 30
1137.391
 70
    32
  0
VERTEX
  8
T41SSILL
 62
4
 10
3065.704
 20
-6679.967
 30
1137.435
 70
    32
  0
VERTEX
  8
T41SSILL
 62
4
 10
3060.046
 20
-6672.500
 30
1137.436
 70
    32
  0
VERTEX
  8
T41SSILL
 62
4
 10
3037.965
 20
-6687.756
 30
1137.494
 70
    32
  0
VERTEX
  8
T41SSILL
 62
4
 10
3037.077
 20
-6689.115
 30
1137.497
 70
    32
  0
VERTEX
  8
T41SSILL
 62
4
 10
3044.171
 20
-6697.738
 30
1137.495
 70
    32
  0
VERTEX
  8
T41SSILL
 62
4
 10
3035.875
 20
-6709.211
 30
1137.523
 70
    32
  0
VERTEX
  8
T41SSILL
 62
4
 10
3033.411
 20
-6728.247
 30
1137.550
 70
    32
  0
VERTEX
  8
T41SSILL
 62
4
 10
3010.756
 20
-6696.787
 30
1137.554
 70
    32
  0
VERTEX
  8
T41SSILL
 62
4
 10
3008.784
 20
-6686.578
 30
1137.545
 70
    32
  0
VERTEX
  8
T41SSILL
 62
4
 10
3012.972
 20
-6666.466
 30
1137.513
 70
    32
  0
VERTEX
  8
T41SSILL
 62
4
 10
3167.134
 20
-6555.381
 30
1137.104
 70
    32
  0
VERTEX
  8
T41SSILL
 62
4
 10
3176.581
 20
-6558.784
 30
1137.092
 70
    32
  0
VERTEX
  8
T41SSILL
 62
4
 10
3180.033
 20
-6557.700
 30
1137.084
 70
    32
  0
VERTEX
  8
T41SSILL
 62
4
 10
3189.177
 20
-6548.930
 30
1137.057
 70
    32
  0
VERTEX
  8
T41SSILL
 62
4
 10
3199.465
 20
-6554.338
 30
1137.045
 70
    32
  0
VERTEX
  8
T41SSILL
 62
4
 10
3206.812
 20
-6550.465
 30
1137.027
 70
    32
  0
VERTEX
  8
T41SSILL
 62
4
 10
3207.730
 20
-6549.296
 30
1137.024
 70
    32
  0
VERTEX
  8
T41SSILL
 62
4
 10
3203.743
 20
-6540.844
 30
1137.022
 70
    32
  0
VERTEX
  8
T41SSILL
 62
4
 10
3203.066
 20
-6530.006
 30
1137.010
 70
    32
  0
VERTEX
  8
T41SSILL
 62
4
 10
3249.024
 20
-6497.299
 30
1136.888
 70
    32
  0
VERTEX
  8
T41SSILL
 62
4
 10
3255.610
 20
-6496.857
 30
1136.876
 70
    32
  0
VERTEX
  8
T41SSILL
 62
4
 10
3259.475
 20
-6498.719
 30
1136.871
 70
    32
  0
VERTEX
  8
T41SSILL
 62
4
 10
3267.761
 20
-6510.133
 30
1136.870
 70
    32
  0
VERTEX
  8
T41SSILL
 62
4
 10
3267.101
 20
-6513.710
 30
1136.876
 70
    32
  0
VERTEX
  8
T41SSILL
 62
4
 10
3275.747
 20
-6524.553
 30
1136.873
 70
    32
  0
VERTEX
  8
T41SSILL
 62
4
 10
3282.473
 20
-6530.258
 30
1136.868
 70
    32
  0
VERTEX
  8
T41SSILL
 62
4
 10
3334.957
 20
-6604.925
 30
1136.863
 70
    32
  0
VERTEX
  8
T41SSILL
 62
4
 10
3330.382
 20
-6607.847
 30
1136.874
 70
    32
  0
VERTEX
  8
T41SSILL
 62
4
 10
3337.330
 20
-6618.568
 30
1136.875
 70
    32
  0
VERTEX
  8
T41SSILL
 62
4
 10
3342.186
 20
-6614.989
 30
1136.862
 70
    32
  0
VERTEX
  8
T41SSILL
 62
4
 10
3360.245
 20
-6640.130
 30
1136.859
 70
    32
  0
VERTEX
  8
T41SSILL
 62
4
 10
3342.896
 20
-6652.308
 30
1136.905
 70
    32
  0
VERTEX
  8
T41SSILL
 62
4
 10
3346.850
 20
-6658.522
 30
1136.905
 70
    32
  0
VERTEX
  8
T41SSILL
 62
4
 10
3364.545
 20
-6646.116
 30
1136.859
 70
    32
  0
VERTEX
  8
T41SSILL
 62
4
 10
3391.407
 20
-6683.513
 30
1136.855
 70
    32
  0
VERTEX
  8
T41SSILL
 62
4
 10
3386.138
 20
-6687.140
 30
1136.869
 70
    32
  0
VERTEX
  8
T41SSILL
 62
4
 10
3391.373
 20
-6696.779
 30
1136.874
 70
    32
  0
VERTEX
  8
T41SSILL
 62
4
 10
3398.445
 20
-6693.311
 30
1136.858
 70
    32
  0
VERTEX
  8
T41SSILL
 62
4
 10
3451.894
 20
-6767.720
 30
1136.918
 70
    32
  0
VERTEX
  8
T41SSILL
 62
4
 10
3436.957
 20
-6766.924
 30
1136.937
 70
    32
  0
VERTEX
  8
T41SSILL
 62
4
 10
3426.728
 20
-6770.519
 30
1136.958
 70
    32
  0
VERTEX
  8
T41SSILL
 62
4
 10
3369.406
 20
-6811.585
 30
1137.113
 70
    32
  0
VERTEX
  8
T41SSILL
 62
4
 10
3366.408
 20
-6806.758
 30
1137.109
 70
    32
  0
VERTEX
  8
T41SSILL
 62
4
 10
3360.057
 20
-6811.452
 30
1137.126
 70
    32
  0
VERTEX
  8
T41SSILL
 62
4
 10
3363.242
 20
-6815.611
 30
1137.127
 70
    32
  0
VERTEX
  8
T41SSILL
 62
4
 10
3342.112
 20
-6830.516
 30
1137.174
 70
    32
  0
VERTEX
  8
T41SSILL
 62
4
 10
3347.098
 20
-6837.366
 30
1137.171
 70
    32
  0
VERTEX
  8
T41SSILL
 62
4
 10
3368.187
 20
-6822.328
 30
1137.124
 70
    32
  0
VERTEX
  8
T41SSILL
 62
4
 10
3386.195
 20
-6847.398
 30
1137.113
 70
    32
  0
VERTEX
  8
T41SSILL
 62
4
 10
3379.929
 20
-6866.136
 30
1137.139
 70
    32
  0
VERTEX
  8
T41SSILL
 62
4
 10
3386.009
 20
-6868.088
 30
1137.130
 70
    32
  0
VERTEX
  8
T41SSILL
 62
4
 10
3390.240
 20
-6853.119
 30
1137.111
 70
    32
  0
VERTEX
  8
T41SSILL
 62
4
 10
3396.318
 20
-6849.905
 30
1137.098
 70
    32
  0
VERTEX
  8
T41SSILL
 62
4
 10
3373.702
 20
-6817.671
 30
1137.111
 70
    32
  0
VERTEX
  8
T41SSILL
 62
4
 10
3418.086
 20
-6786.586
 30
1137.000
 70
    32
  0
VERTEX
  8
T41SSILL
 62
4
 10
3426.052
 20
-6798.005
 30
1137.008
 70
    32
  0
VERTEX
  8
T41SSILL
 62
4
 10
3433.896
 20
-6792.822
 30
1136.989
 70
    32
  0
VERTEX
  8
T41SSILL
 62
4
 10
3425.510
 20
-6781.262
 30
1136.979
 70
    32
  0
VERTEX
  8
T41SSILL
 62
4
 10
3431.367
 20
-6776.477
 30
1136.962
 70
    32
  0
VERTEX
  8
T41SSILL
 62
4
 10
3438.226
 20
-6774.555
 30
1136.949
 70
    32
  0
VERTEX
  8
T41SSILL
 62
4
 10
3449.252
 20
-6774.933
 30
1136.934
 70
    32
  0
VERTEX
  8
T41SSILL
 62
4
 10
3458.004
 20
-6777.952
 30
1136.928
 70
    32
  0
VERTEX
  8
T41SSILL
 62
4
 10
3470.219
 20
-6793.232
 30
1136.930
 70
    32
  0
VERTEX
  8
T41SSILL
 62
4
 10
3469.381
 20
-6795.421
 30
1136.933
 70
    32
  0
VERTEX
  8
T41SSILL
 62
4
 10
3453.947
 20
-6803.029
 30
1136.965
 70
    32
  0
VERTEX
  8
T41SSILL
 62
4
 10
3459.198
 20
-6817.071
 30
1136.967
 70
    32
  0
SEQEND
  8
T41SSILL
  0
POLYLINE
  8
T41SSILL
 62
4
 66
     1
 70
     9
  0
VERTEX
  8
T41SSILL
 62
4
 10
2398.788
 20
-6705.405
 30
1138.164
 70
    32
  0
VERTEX
  8
T41SSILL
 62
4
 10
2371.575
 20
-6704.910
 30
1138.433
 70
    32
  0
VERTEX
  8
T41SSILL
 62
4
 10
2362.875
 20
-6702.528
 30
1138.575
 70
    32
  0
VERTEX
  8
T41SSILL
 62
4
 10
2358.599
 20
-6699.573
 30
1138.684
 70
    32
  0
VERTEX
  8
T41SSILL
 62
4
 10
2347.349
 20
-6685.985
 30
1139.071
 70
    32
  0
VERTEX
  8
T41SSILL
 62
4
 10
2338.657
 20
-6684.240
 30
1139.201
 70
    32
  0
VERTEX
  8
T41SSILL
 62
4
 10
2319.704
 20
-6676.901
 30
1139.456
 70
    32
  0
VERTEX
  8
T41SSILL
 62
4
 10
2330.379
 20
-6706.194
 30
1138.833
 70
    32
  0
VERTEX
  8
T41SSILL
 62
4
 10
2338.583
 20
-6719.088
 30
1138.467
 70
    32
  0
VERTEX
  8
T41SSILL
 62
4
 10
2347.151
 20
-6726.271
 30
1138.247
 70
    32
  0
VERTEX
  8
T41SSILL
 62
4
 10
2356.991
 20
-6731.405
 30
1138.168
 70
    32
  0
VERTEX
  8
T41SSILL
 62
4
 10
2370.861
 20
-6733.987
 30
1138.089
 70
    32
  0
VERTEX
  8
T41SSILL
 62
4
 10
2386.463
 20
-6732.384
 30
1138.031
 70
    32
  0
VERTEX
  8
T41SSILL
 62
4
 10
2452.073
 20
-6701.610
 30
1137.959
 70
    32
  0
VERTEX
  8
T41SSILL
 62
4
 10
2451.721
 20
-6699.068
 30
1137.978
 70
    32
  0
VERTEX
  8
T41SSILL
 62
4
 10
2401.289
 20
-6705.617
 30
1138.152
 70
    32
  0
SEQEND
  8
T41SSILL
  0
POLYLINE
  8
T41SSILL
 62
4
 66
     1
 70
     9
  0
VERTEX
  8
T41SSILL
 62
4
 10
2341.518
 20
-6674.676
 30
1139.072
 70
    32
  0
VERTEX
  8
T41SSILL
 62
4
 10
2348.379
 20
-6675.001
 30
1138.960
 70
    32
  0
VERTEX
  8
T41SSILL
 62
4
 10
2343.712
 20
-6648.224
 30
1138.898
 70
    32
  0
VERTEX
  8
T41SSILL
 62
4
 10
2320.504
 20
-6639.522
 30
1139.125
 70
    32
  0
VERTEX
  8
T41SSILL
 62
4
 10
2303.494
 20
-6629.243
 30
1139.322
 70
    32
  0
VERTEX
  8
T41SSILL
 62
4
 10
2313.102
 20
-6657.448
 30
1139.401
 70
    32
  0
VERTEX
  8
T41SSILL
 62
4
 10
2315.626
 20
-6661.283
 30
1139.392
 70
    32
  0
VERTEX
  8
T41SSILL
 62
4
 10
2326.985
 20
-6670.192
 30
1139.277
 70
    32
  0
VERTEX
  8
T41SSILL
 62
4
 10
2337.294
 20
-6673.826
 30
1139.136
 70
    32
  0
SEQEND
  8
T41SSILL
  0
POLYLINE
  8
T41SSILL
 62
4
 66
     1
 70
     9
  0
VERTEX
  8
T41SSILL
 62
4
 10
2343.163
 20
-6623.547
 30
1139.029
 70
    32
  0
VERTEX
  8
T41SSILL
 62
4
 10
2343.632
 20
-6612.840
 30
1139.082
 70
    32
  0
VERTEX
  8
T41SSILL
 62
4
 10
2341.643
 20
-6595.896
 30
1139.184
 70
    32
  0
VERTEX
  8
T41SSILL
 62
4
 10
2337.317
 20
-6589.121
 30
1139.250
 70
    32
  0
VERTEX
  8
T41SSILL
 62
4
 10
2329.246
 20
-6584.380
 30
1139.284
 70
    32
  0
VERTEX
  8
T41SSILL
 62
4
 10
2287.575
 20
-6568.430
 30
1139.377
 70
    32
  0
VERTEX
  8
T41SSILL
 62
4
 10
2283.750
 20
-6569.877
 30
1139.386
 70
    32
  0
VERTEX
  8
T41SSILL
 62
4
 10
2293.876
 20
-6602.116
 30
1139.367
 70
    32
  0
VERTEX
  8
T41SSILL
 62
4
 10
2305.112
 20
-6611.002
 30
1139.342
 70
    32
  0
VERTEX
  8
T41SSILL
 62
4
 10
2309.540
 20
-6621.669
 30
1139.283
 70
    32
  0
VERTEX
  8
T41SSILL
 62
4
 10
2329.241
 20
-6631.814
 30
1139.087
 70
    32
  0
VERTEX
  8
T41SSILL
 62
4
 10
2338.447
 20
-6633.528
 30
1139.012
 70
    32
  0
VERTEX
  8
T41SSILL
 62
4
 10
2342.024
 20
-6630.003
 30
1139.004
 70
    32
  0
SEQEND
  8
T41SSILL
  0
POLYLINE
  8
T41SSILL
 62
4
 66
     1
 70
     9
  0
VERTEX
  8
T41SSILL
 62
4
 10
2807.818
 20
-6365.570
 30
1137.522
 70
    32
  0
VERTEX
  8
T41SSILL
 62
4
 10
2805.577
 20
-6370.105
 30
1137.532
 70
    32
  0
VERTEX
  8
T41SSILL
 62
4
 10
2807.079
 20
-6372.608
 30
1137.532
 70
    32
  0
VERTEX
  8
T41SSILL
 62
4
 10
2802.625
 20
-6380.160
 30
1137.549
 70
    32
  0
VERTEX
  8
T41SSILL
 62
4
 10
2808.276
 20
-6385.277
 30
1137.545
 70
    32
  0
VERTEX
  8
T41SSILL
 62
4
 10
2815.385
 20
-6378.472
 30
1137.524
 70
    32
  0
SEQEND
  8
T41SSILL
  0
POLYLINE
  8
T41SSILL
 62
4
 66
     1
 70
     9
  0
VERTEX
  8
T41SSILL
 62
4
 10
2869.579
 20
-6498.036
 30
1137.570
 70
    32
  0
VERTEX
  8
T41SSILL
 62
4
 10
2868.952
 20
-6511.636
 30
1137.587
 70
    32
  0
VERTEX
  8
T41SSILL
 62
4
 10
2873.160
 20
-6518.706
 30
1137.588
 70
    32
  0
VERTEX
  8
T41SSILL
 62
4
 10
2880.444
 20
-6523.237
 30
1137.580
 70
    32
  0
VERTEX
  8
T41SSILL
 62
4
 10
2887.643
 20
-6517.655
 30
1137.561
 70
    32
  0
VERTEX
  8
T41SSILL
 62
4
 10
2887.198
 20
-6511.858
 30
1137.554
 70
    32
  0
VERTEX
  8
T41SSILL
 62
4
 10
2875.147
 20
-6495.072
 30
1137.556
 70
    32
  0
VERTEX
  8
T41SSILL
 62
4
 10
2871.590
 20
-6496.442
 30
1137.564
 70
    32
  0
SEQEND
  8
T41SSILL
  0
POLYLINE
  8
T41SSILL
 62
4
 66
     1
 70
     9
  0
VERTEX
  8
T41SSILL
 62
4
 10
2807.902
 20
-6408.524
 30
1137.573
 70
    32
  0
VERTEX
  8
T41SSILL
 62
4
 10
2804.018
 20
-6411.217
 30
1137.584
 70
    32
  0
VERTEX
  8
T41SSILL
 62
4
 10
2801.170
 20
-6417.990
 30
1137.586
 70
    32
  0
VERTEX
  8
T41SSILL
 62
4
 10
2797.185
 20
-6420.296
 30
1137.554
 70
    32
  0
VERTEX
  8
T41SSILL
 62
4
 10
2792.910
 20
-6415.626
 30
1137.543
 70
    32
  0
VERTEX
  8
T41SSILL
 62
4
 10
2790.992
 20
-6405.808
 30
1137.565
 70
    32
  0
VERTEX
  8
T41SSILL
 62
4
 10
2785.019
 20
-6394.916
 30
1137.565
 70
    32
  0
VERTEX
  8
T41SSILL
 62
4
 10
2782.630
 20
-6392.059
 30
1137.560
 70
    32
  0
VERTEX
  8
T41SSILL
 62
4
 10
2778.292
 20
-6391.823
 30
1137.534
 70
    32
  0
VERTEX
  8
T41SSILL
 62
4
 10
2775.594
 20
-6393.352
 30
1137.513
 70
    32
  0
VERTEX
  8
T41SSILL
 62
4
 10
2777.533
 20
-6401.016
 30
1137.499
 70
    32
  0
VERTEX
  8
T41SSILL
 62
4
 10
2774.165
 20
-6409.215
 30
1137.451
 70
    32
  0
VERTEX
  8
T41SSILL
 62
4
 10
2774.038
 20
-6418.082
 30
1137.421
 70
    32
  0
VERTEX
  8
T41SSILL
 62
4
 10
2774.998
 20
-6422.134
 30
1137.413
 70
    32
  0
VERTEX
  8
T41SSILL
 62
4
 10
2780.613
 20
-6422.671
 30
1137.445
 70
    32
  0
VERTEX
  8
T41SSILL
 62
4
 10
2783.527
 20
-6437.374
 30
1137.414
 70
    32
  0
VERTEX
  8
T41SSILL
 62
4
 10
2787.496
 20
-6443.003
 30
1137.420
 70
    32
  0
VERTEX
  8
T41SSILL
 62
4
 10
2787.239
 20
-6449.496
 30
1137.396
 70
    32
  0
VERTEX
  8
T41SSILL
 62
4
 10
2792.421
 20
-6456.112
 30
1137.406
 70
    32
  0
VERTEX
  8
T41SSILL
 62
4
 10
2793.752
 20
-6471.473
 30
1137.363
 70
    32
  0
VERTEX
  8
T41SSILL
 62
4
 10
2797.877
 20
-6475.924
 30
1137.373
 70
    32
  0
VERTEX
  8
T41SSILL
 62
4
 10
2795.818
 20
-6488.685
 30
1137.318
 70
    32
  0
VERTEX
  8
T41SSILL
 62
4
 10
2798.316
 20
-6496.071
 30
1137.309
 70
    32
  0
VERTEX
  8
T41SSILL
 62
4
 10
2817.517
 20
-6510.949
 30
1137.375
 70
    32
  0
VERTEX
  8
T41SSILL
 62
4
 10
2832.681
 20
-6526.028
 30
1137.417
 70
    32
  0
VERTEX
  8
T41SSILL
 62
4
 10
2838.098
 20
-6528.307
 30
1137.443
 70
    32
  0
VERTEX
  8
T41SSILL
 62
4
 10
2841.584
 20
-6525.273
 30
1137.474
 70
    32
  0
VERTEX
  8
T41SSILL
 62
4
 10
2843.594
 20
-6525.393
 30
1137.486
 70
    32
  0
VERTEX
  8
T41SSILL
 62
4
 10
2849.750
 20
-6535.302
 30
1137.490
 70
    32
  0
VERTEX
  8
T41SSILL
 62
4
 10
2852.507
 20
-6538.228
 30
1137.497
 70
    32
  0
VERTEX
  8
T41SSILL
 62
4
 10
2853.426
 20
-6537.384
 30
1137.505
 70
    32
  0
VERTEX
  8
T41SSILL
 62
4
 10
2854.004
 20
-6532.919
 30
1137.524
 70
    32
  0
VERTEX
  8
T41SSILL
 62
4
 10
2848.735
 20
-6517.904
 30
1137.542
 70
    32
  0
VERTEX
  8
T41SSILL
 62
4
 10
2860.450
 20
-6505.798
 30
1137.595
 70
    32
  0
VERTEX
  8
T41SSILL
 62
4
 10
2859.344
 20
-6483.431
 30
1137.570
 70
    32
  0
VERTEX
  8
T41SSILL
 62
4
 10
2850.928
 20
-6469.291
 30
1137.569
 70
    32
  0
VERTEX
  8
T41SSILL
 62
4
 10
2850.519
 20
-6464.325
 30
1137.564
 70
    32
  0
VERTEX
  8
T41SSILL
 62
4
 10
2832.738
 20
-6438.408
 30
1137.564
 70
    32
  0
VERTEX
  8
T41SSILL
 62
4
 10
2809.658
 20
-6409.918
 30
1137.572
 70
    32
  0
SEQEND
  8
T41SSILL
  0
POLYLINE
  8
T41SSILL
 62
4
 66
     1
 70
     9
  0
VERTEX
  8
T41SSILL
 62
4
 10
3015.075
 20
-6717.121
 30
1137.570
 70
    32
  0
VERTEX
  8
T41SSILL
 62
4
 10
3032.203
 20
-6740.531
 30
1137.567
 70
    32
  0
VERTEX
  8
T41SSILL
 62
4
 10
3058.777
 20
-6819.356
 30
1137.614
 70
    32
  0
VERTEX
  8
T41SSILL
 62
4
 10
3056.071
 20
-6819.620
 30
1137.619
 70
    32
  0
VERTEX
  8
T41SSILL
 62
4
 10
3047.659
 20
-6805.923
 30
1137.618
 70
    32
  0
VERTEX
  8
T41SSILL
 62
4
 10
3041.896
 20
-6801.817
 30
1137.623
 70
    32
  0
VERTEX
  8
T41SSILL
 62
4
 10
3032.828
 20
-6782.520
 30
1137.616
 70
    32
  0
VERTEX
  8
T41SSILL
 62
4
 10
3018.615
 20
-6765.266
 30
1137.621
 70
    32
  0
VERTEX
  8
T41SSILL
 62
4
 10
3020.773
 20
-6763.041
 30
1137.615
 70
    32
  0
VERTEX
  8
T41SSILL
 62
4
 10
3015.126
 20
-6752.783
 30
1137.612
 70
    32
  0
VERTEX
  8
T41SSILL
 62
4
 10
3009.960
 20
-6725.278
 30
1137.589
 70
    32
  0
VERTEX
  8
T41SSILL
 62
4
 10
3010.650
 20
-6721.914
 30
1137.584
 70
    32
  0
VERTEX
  8
T41SSILL
 62
4
 10
3014.633
 20
-6717.575
 30
1137.571
 70
    32
  0
SEQEND
  8
T41SSILL
  0
POLYLINE
  8
T41SSILL
 62
4
 66
     1
 70
     9
  0
VERTEX
  8
T41SSILL
 62
4
 10
2992.137
 20
-6663.095
 30
1137.547
 70
    32
  0
VERTEX
  8
T41SSILL
 62
4
 10
2970.217
 20
-6681.239
 30
1137.608
 70
    32
  0
VERTEX
  8
T41SSILL
 62
4
 10
2965.170
 20
-6690.269
 30
1137.627
 70
    32
  0
VERTEX
  8
T41SSILL
 62
4
 10
2966.920
 20
-6691.102
 30
1137.625
 70
    32
  0
VERTEX
  8
T41SSILL
 62
4
 10
2999.831
 20
-6667.131
 30
1137.538
 70
    32
  0
VERTEX
  8
T41SSILL
 62
4
 10
2993.306
 20
-6662.614
 30
1137.544
 70
    32
  0
SEQEND
  8
T41SSILL
  0
POLYLINE
  8
T41SSILL
 62
4
 66
     1
 70
     9
  0
VERTEX
  8
T41SSILL
 62
4
 10
2418.206
 20
-6203.432
 30
1138.180
 70
    32
  0
VERTEX
  8
T41SSILL
 62
4
 10
2420.721
 20
-6188.216
 30
1138.173
 70
    32
  0
VERTEX
  8
T41SSILL
 62
4
 10
2419.012
 20
-6173.864
 30
1138.174
 70
    32
  0
VERTEX
  8
T41SSILL
 62
4
 10
2434.483
 20
-6171.601
 30
1138.142
 70
    32
  0
VERTEX
  8
T41SSILL
 62
4
 10
2443.278
 20
-6179.271
 30
1138.125
 70
    32
  0
VERTEX
  8
T41SSILL
 62
4
 10
2448.915
 20
-6175.939
 30
1138.113
 70
    32
  0
VERTEX
  8
T41SSILL
 62
4
 10
2455.506
 20
-6168.848
 30
1138.098
 70
    32
  0
VERTEX
  8
T41SSILL
 62
4
 10
2476.215
 20
-6166.417
 30
1138.054
 70
    32
  0
VERTEX
  8
T41SSILL
 62
4
 10
2415.216
 20
-6210.622
 30
1138.188
 70
    32
  0
VERTEX
  8
T41SSILL
 62
4
 10
2416.734
 20
-6206.905
 30
1138.184
 70
    32
  0
SEQEND
  8
T41SSILL
  0
POLYLINE
  8
T41SSILL
 62
4
 66
     1
 70
     9
  0
VERTEX
  8
T41SSILL
 62
4
 10
2411.349
 20
-6203.426
 30
1138.195
 70
    32
  0
VERTEX
  8
T41SSILL
 62
4
 10
2413.973
 20
-6179.784
 30
1138.186
 70
    32
  0
VERTEX
  8
T41SSILL
 62
4
 10
2408.462
 20
-6165.042
 30
1138.195
 70
    32
  0
VERTEX
  8
T41SSILL
 62
4
 10
2356.309
 20
-6093.864
 30
1138.220
 70
    32
  0
VERTEX
  8
T41SSILL
 62
4
 10
2352.267
 20
-6093.746
 30
1138.215
 70
    32
  0
VERTEX
  8
T41SSILL
 62
4
 10
2346.770
 20
-6107.582
 30
1138.211
 70
    32
  0
VERTEX
  8
T41SSILL
 62
4
 10
2339.982
 20
-6116.415
 30
1138.213
 70
    32
  0
VERTEX
  8
T41SSILL
 62
4
 10
2282.667
 20
-6165.053
 30
1138.392
 70
    32
  0
VERTEX
  8
T41SSILL
 62
4
 10
2296.613
 20
-6182.572
 30
1138.345
 70
    32
  0
VERTEX
  8
T41SSILL
 62
4
 10
2317.083
 20
-6202.575
 30
1138.326
 70
    32
  0
VERTEX
  8
T41SSILL
 62
4
 10
2320.912
 20
-6210.654
 30
1138.328
 70
    32
  0
VERTEX
  8
T41SSILL
 62
4
 10
2323.262
 20
-6212.362
 30
1138.326
 70
    32
  0
VERTEX
  8
T41SSILL
 62
4
 10
2327.425
 20
-6214.216
 30
1138.321
 70
    32
  0
VERTEX
  8
T41SSILL
 62
4
 10
2330.603
 20
-6210.109
 30
1138.312
 70
    32
  0
VERTEX
  8
T41SSILL
 62
4
 10
2334.645
 20
-6195.558
 30
1138.293
 70
    32
  0
VERTEX
  8
T41SSILL
 62
4
 10
2342.906
 20
-6196.207
 30
1138.281
 70
    32
  0
VERTEX
  8
T41SSILL
 62
4
 10
2349.762
 20
-6201.675
 30
1138.275
 70
    32
  0
VERTEX
  8
T41SSILL
 62
4
 10
2356.734
 20
-6204.814
 30
1138.268
 70
    32
  0
VERTEX
  8
T41SSILL
 62
4
 10
2359.050
 20
-6237.059
 30
1138.293
 70
    32
  0
VERTEX
  8
T41SSILL
 62
4
 10
2357.816
 20
-6252.895
 30
1138.310
 70
    32
  0
VERTEX
  8
T41SSILL
 62
4
 10
2401.010
 20
-6221.440
 30
1138.219
 70
    32
  0
VERTEX
  8
T41SSILL
 62
4
 10
2411.060
 20
-6205.658
 30
1138.196
 70
    32
  0
SEQEND
  8
T41SSILL
  0
POLYLINE
  8
T41SSILL
 62
4
 66
     1
 70
     9
  0
VERTEX
  8
T41SSILL
 62
4
 10
2189.442
 20
-5814.130
 30
1136.165
 70
    32
  0
VERTEX
  8
T41SSILL
 62
4
 10
2194.237
 20
-5802.703
 30
1136.094
 70
    32
  0
VERTEX
  8
T41SSILL
 62
4
 10
2193.710
 20
-5796.598
 30
1136.046
 70
    32
  0
VERTEX
  8
T41SSILL
 62
4
 10
2154.547
 20
-5760.673
 30
1135.651
 70
    32
  0
VERTEX
  8
T41SSILL
 62
4
 10
2153.473
 20
-5789.604
 30
1135.865
 70
    32
  0
VERTEX
  8
T41SSILL
 62
4
 10
2154.912
 20
-5796.189
 30
1135.920
 70
    32
  0
VERTEX
  8
T41SSILL
 62
4
 10
2160.852
 20
-5808.071
 30
1136.028
 70
    32
  0
VERTEX
  8
T41SSILL
 62
4
 10
2176.445
 20
-5831.077
 30
1136.251
 70
    32
  0
VERTEX
  8
T41SSILL
 62
4
 10
2204.739
 20
-5870.445
 30
1136.638
 70
    32
  0
VERTEX
  8
T41SSILL
 62
4
 10
2210.142
 20
-5873.483
 30
1136.678
 70
    32
  0
VERTEX
  8
T41SSILL
 62
4
 10
2221.580
 20
-5875.485
 30
1136.729
 70
    32
  0
VERTEX
  8
T41SSILL
 62
4
 10
2231.039
 20
-5874.135
 30
1136.878
 70
    32
  0
VERTEX
  8
T41SSILL
 62
4
 10
2280.107
 20
-5838.757
 30
1136.402
 70
    32
  0
VERTEX
  8
T41SSILL
 62
4
 10
2276.077
 20
-5835.848
 30
1136.402
 70
    32
  0
VERTEX
  8
T41SSILL
 62
4
 10
2269.126
 20
-5834.299
 30
1136.438
 70
    32
  0
VERTEX
  8
T41SSILL
 62
4
 10
2265.643
 20
-5839.366
 30
1136.518
 70
    32
  0
VERTEX
  8
T41SSILL
 62
4
 10
2247.394
 20
-5855.526
 30
1137.114
 70
    32
  0
VERTEX
  8
T41SSILL
 62
4
 10
2237.567
 20
-5856.808
 30
1137.328
 70
    32
  0
VERTEX
  8
T41SSILL
 62
4
 10
2233.462
 20
-5855.663
 30
1137.249
 70
    32
  0
VERTEX
  8
T41SSILL
 62
4
 10
2212.423
 20
-5842.475
 30
1136.451
 70
    32
  0
VERTEX
  8
T41SSILL
 62
4
 10
2201.381
 20
-5844.483
 30
1136.431
 70
    32
  0
VERTEX
  8
T41SSILL
 62
4
 10
2195.501
 20
-5840.594
 30
1136.383
 70
    32
  0
VERTEX
  8
T41SSILL
 62
4
 10
2192.029
 20
-5833.661
 30
1136.320
 70
    32
  0
VERTEX
  8
T41SSILL
 62
4
 10
2189.234
 20
-5822.409
 30
1136.226
 70
    32
  0
VERTEX
  8
T41SSILL
 62
4
 10
2189.963
 20
-5816.449
 30
1136.184
 70
    32
  0
SEQEND
  8
T41SSILL
  0
POLYLINE
  8
T41SSILL
 62
4
 66
     1
 70
     9
  0
VERTEX
  8
T41SSILL
 62
4
 10
2081.638
 20
-5485.639
 30
1134.198
 70
    32
  0
VERTEX
  8
T41SSILL
 62
4
 10
2057.044
 20
-5451.338
 30
1134.207
 70
    32
  0
VERTEX
  8
T41SSILL
 62
4
 10
2059.852
 20
-5445.647
 30
1134.197
 70
    32
  0
VERTEX
  8
T41SSILL
 62
4
 10
2048.307
 20
-5435.803
 30
1134.204
 70
    32
  0
VERTEX
  8
T41SSILL
 62
4
 10
2046.161
 20
-5429.143
 30
1134.201
 70
    32
  0
VERTEX
  8
T41SSILL
 62
4
 10
2033.053
 20
-5410.688
 30
1134.201
 70
    32
  0
VERTEX
  8
T41SSILL
 62
4
 10
2024.744
 20
-5394.440
 30
1134.197
 70
    32
  0
VERTEX
  8
T41SSILL
 62
4
 10
2022.252
 20
-5383.114
 30
1134.189
 70
    32
  0
VERTEX
  8
T41SSILL
 62
4
 10
2025.016
 20
-5374.956
 30
1134.176
 70
    32
  0
VERTEX
  8
T41SSILL
 62
4
 10
2024.303
 20
-5369.503
 30
1134.171
 70
    32
  0
VERTEX
  8
T41SSILL
 62
4
 10
2010.518
 20
-5352.648
 30
1134.175
 70
    32
  0
VERTEX
  8
T41SSILL
 62
4
 10
2005.985
 20
-5350.524
 30
1134.180
 70
    32
  0
VERTEX
  8
T41SSILL
 62
4
 10
2008.333
 20
-5348.720
 30
1134.174
 70
    32
  0
VERTEX
  8
T41SSILL
 62
4
 10
2029.663
 20
-5348.694
 30
1134.141
 70
    32
  0
VERTEX
  8
T41SSILL
 62
4
 10
2085.653
 20
-5354.666
 30
1134.060
 70
    32
  0
VERTEX
  8
T41SSILL
 62
4
 10
2087.351
 20
-5357.652
 30
1134.061
 70
    32
  0
VERTEX
  8
T41SSILL
 62
4
 10
2096.031
 20
-5358.360
 30
1134.048
 70
    32
  0
VERTEX
  8
T41SSILL
 62
4
 10
2097.570
 20
-5355.689
 30
1134.043
 70
    32
  0
VERTEX
  8
T41SSILL
 62
4
 10
2161.268
 20
-5363.904
 30
1133.952
 70
    32
  0
VERTEX
  8
T41SSILL
 62
4
 10
2176.686
 20
-5358.518
 30
1133.923
 70
    32
  0
VERTEX
  8
T41SSILL
 62
4
 10
2183.109
 20
-5357.875
 30
1133.912
 70
    32
  0
VERTEX
  8
T41SSILL
 62
4
 10
2187.843
 20
-5351.445
 30
1133.898
 70
    32
  0
VERTEX
  8
T41SSILL
 62
4
 10
2190.924
 20
-5356.150
 30
1133.898
 70
    32
  0
VERTEX
  8
T41SSILL
 62
4
 10
2188.751
 20
-5377.784
 30
1133.924
 70
    32
  0
VERTEX
  8
T41SSILL
 62
4
 10
2182.656
 20
-5382.035
 30
1133.938
 70
    32
  0
VERTEX
  8
T41SSILL
 62
4
 10
2187.641
 20
-5389.791
 30
1133.939
 70
    32
  0
VERTEX
  8
T41SSILL
 62
4
 10
2175.623
 20
-5502.477
 30
1134.145
 70
    32
  0
VERTEX
  8
T41SSILL
 62
4
 10
2168.927
 20
-5507.620
 30
1134.160
 70
    32
  0
VERTEX
  8
T41SSILL
 62
4
 10
2149.344
 20
-5496.860
 30
1134.119
 70
    32
  0
VERTEX
  8
T41SSILL
 62
4
 10
2129.379
 20
-5469.545
 30
1134.112
 70
    32
  0
VERTEX
  8
T41SSILL
 62
4
 10
2122.129
 20
-5475.487
 30
1134.128
 70
    32
  0
VERTEX
  8
T41SSILL
 62
4
 10
2140.753
 20
-5499.481
 30
1134.125
 70
    32
  0
VERTEX
  8
T41SSILL
 62
4
 10
2139.563
 20
-5501.970
 30
1134.133
 70
    32
  0
VERTEX
  8
T41SSILL
 62
4
 10
2125.822
 20
-5497.542
 30
1134.141
 70
    32
  0
SEQEND
  8
T41SSILL
  0
POLYLINE
  8
T41SSILL
 62
4
 66
     1
 70
     9
  0
VERTEX
  8
T41SSILL
 62
4
 10
2124.160
 20
-5523.133
 30
1134.198
 70
    32
  0
VERTEX
  8
T41SSILL
 62
4
 10
2125.320
 20
-5533.866
 30
1134.234
 70
    32
  0
VERTEX
  8
T41SSILL
 62
4
 10
2132.260
 20
-5537.533
 30
1134.248
 70
    32
  0
VERTEX
  8
T41SSILL
 62
4
 10
2124.350
 20
-5543.844
 30
1134.267
 70
    32
  0
VERTEX
  8
T41SSILL
 62
4
 10
2115.985
 20
-5534.384
 30
1134.233
 70
    32
  0
VERTEX
  8
T41SSILL
 62
4
 10
2111.129
 20
-5523.981
 30
1134.197
 70
    32
  0
VERTEX
  8
T41SSILL
 62
4
 10
2106.770
 20
-5521.678
 30
1134.191
 70
    32
  0
VERTEX
  8
T41SSILL
 62
4
 10
2101.812
 20
-5515.508
 30
1134.193
 70
    32
  0
VERTEX
  8
T41SSILL
 62
4
 10
2097.425
 20
-5506.683
 30
1134.192
 70
    32
  0
VERTEX
  8
T41SSILL
 62
4
 10
2096.972
 20
-5501.901
 30
1134.189
 70
    32
  0
VERTEX
  8
T41SSILL
 62
4
 10
2127.613
 20
-5514.081
 30
1134.169
 70
    32
  0
VERTEX
  8
T41SSILL
 62
4
 10
2125.966
 20
-5518.400
 30
1134.183
 70
    32
  0
SEQEND
  8
T41SSILL
  0
POLYLINE
  8
T41SSILL
 62
4
 66
     1
 70
     9
  0
VERTEX
  8
T41SSILL
 62
4
 10
3809.733
 20
-6749.360
 30
1136.327
 70
    32
  0
VERTEX
  8
T41SSILL
 62
4
 10
3846.349
 20
-6748.597
 30
1136.265
 70
    32
  0
VERTEX
  8
T41SSILL
 62
4
 10
3882.234
 20
-6764.687
 30
1136.217
 70
    32
  0
VERTEX
  8
T41SSILL
 62
4
 10
3883.407
 20
-6685.143
 30
1136.153
 70
    32
  0
VERTEX
  8
T41SSILL
 62
4
 10
3796.731
 20
-6747.721
 30
1136.347
 70
    32
  0
SEQEND
  8
T41SSILL
  0
POLYLINE
  8
T41SSILL
 62
4
 66
     1
 70
     9
  0
VERTEX
  8
T41SSILL
 62
4
 10
3865.049
 20
-6788.908
 30
1136.265
 70
    32
  0
VERTEX
  8
T41SSILL
 62
4
 10
3872.278
 20
-6795.344
 30
1136.258
 70
    32
  0
VERTEX
  8
T41SSILL
 62
4
 10
3879.235
 20
-6796.119
 30
1136.247
 70
    32
  0
VERTEX
  8
T41SSILL
 62
4
 10
3881.906
 20
-6786.949
 30
1136.235
 70
    32
  0
VERTEX
  8
T41SSILL
 62
4
 10
3882.105
 20
-6773.422
 30
1136.224
 70
    32
  0
VERTEX
  8
T41SSILL
 62
4
 10
3845.571
 20
-6755.914
 30
1136.272
 70
    32
  0
VERTEX
  8
T41SSILL
 62
4
 10
3784.866
 20
-6756.287
 30
1136.374
 70
    32
  0
VERTEX
  8
T41SSILL
 62
4
 10
3750.563
 20
-6781.053
 30
1136.451
 70
    32
  0
VERTEX
  8
T41SSILL
 62
4
 10
3776.030
 20
-6802.375
 30
1136.425
 70
    32
  0
VERTEX
  8
T41SSILL
 62
4
 10
3785.486
 20
-6814.707
 30
1136.419
 70
    32
  0
VERTEX
  8
T41SSILL
 62
4
 10
3794.724
 20
-6820.622
 30
1136.408
 70
    32
  0
VERTEX
  8
T41SSILL
 62
4
 10
3801.242
 20
-6813.982
 30
1136.392
 70
    32
  0
VERTEX
  8
T41SSILL
 62
4
 10
3806.919
 20
-6813.628
 30
1136.382
 70
    32
  0
VERTEX
  8
T41SSILL
 62
4
 10
3809.545
 20
-6811.498
 30
1136.376
 70
    32
  0
VERTEX
  8
T41SSILL
 62
4
 10
3819.336
 20
-6799.915
 30
1136.350
 70
    32
  0
VERTEX
  8
T41SSILL
 62
4
 10
3830.665
 20
-6795.885
 30
1136.328
 70
    32
  0
VERTEX
  8
T41SSILL
 62
4
 10
3840.266
 20
-6788.093
 30
1136.306
 70
    32
  0
VERTEX
  8
T41SSILL
 62
4
 10
3852.582
 20
-6782.524
 30
1136.281
 70
    32
  0
VERTEX
  8
T41SSILL
 62
4
 10
3862.687
 20
-6787.196
 30
1136.268
 70
    32
  0
SEQEND
  8
T41SSILL
  0
POLYLINE
  8
T41SSILL
 62
4
 66
     1
 70
     9
  0
VERTEX
  8
T41SSILL
 62
4
 10
3891.051
 20
-6825.593
 30
1136.266
 70
    32
  0
VERTEX
  8
T41SSILL
 62
4
 10
3896.219
 20
-6840.768
 30
1136.292
 70
    32
  0
VERTEX
  8
T41SSILL
 62
4
 10
3910.312
 20
-6855.614
 30
1136.339
 70
    32
  0
VERTEX
  8
T41SSILL
 62
4
 10
3923.926
 20
-6861.316
 30
1136.367
 70
    32
  0
VERTEX
  8
T41SSILL
 62
4
 10
3937.049
 20
-6863.803
 30
1136.388
 70
    32
  0
VERTEX
  8
T41SSILL
 62
4
 10
3951.224
 20
-6860.937
 30
1136.399
 70
    32
  0
VERTEX
  8
T41SSILL
 62
4
 10
3959.019
 20
-6857.403
 30
1136.402
 70
    32
  0
VERTEX
  8
T41SSILL
 62
4
 10
3996.554
 20
-6830.601
 30
1136.395
 70
    32
  0
VERTEX
  8
T41SSILL
 62
4
 10
3890.116
 20
-6777.328
 30
1136.225
 70
    32
  0
VERTEX
  8
T41SSILL
 62
4
 10
3890.075
 20
-6819.483
 30
1136.260
 70
    32
  0
SEQEND
  8
T41SSILL
  0
POLYLINE
  8
T41SSILL
 62
4
 66
     1
 70
     9
  0
VERTEX
  8
T41SSILL
 62
4
 10
3854.144
 20
-6944.703
 30
1136.577
 70
    32
  0
VERTEX
  8
T41SSILL
 62
4
 10
3861.322
 20
-6950.570
 30
1136.583
 70
    32
  0
VERTEX
  8
T41SSILL
 62
4
 10
3866.273
 20
-6952.570
 30
1136.580
 70
    32
  0
VERTEX
  8
T41SSILL
 62
4
 10
3871.122
 20
-6952.189
 30
1136.571
 70
    32
  0
VERTEX
  8
T41SSILL
 62
4
 10
3879.106
 20
-6948.597
 30
1136.548
 70
    32
  0
VERTEX
  8
T41SSILL
 62
4
 10
3878.160
 20
-6972.403
 30
1136.620
 70
    32
  0
VERTEX
  8
T41SSILL
 62
4
 10
3820.981
 20
-6964.248
 30
1136.688
 70
    32
  0
VERTEX
  8
T41SSILL
 62
4
 10
3850.432
 20
-6943.401
 30
1136.579
 70
    32
  0
VERTEX
  8
T41SSILL
 62
4
 10
3852.553
 20
-6944.006
 30
1136.577
 70
    32
  0
SEQEND
  8
T41SSILL
  0
POLYLINE
  8
T41SSILL
 62
4
 66
     1
 70
     9
  0
VERTEX
  8
T41SSILL
 62
4
 10
3588.992
 20
-6927.764
 30
1136.955
 70
    32
  0
VERTEX
  8
T41SSILL
 62
4
 10
3607.048
 20
-6931.162
 30
1136.936
 70
    32
  0
VERTEX
  8
T41SSILL
 62
4
 10
3609.743
 20
-6930.384
 30
1136.929
 70
    32
  0
VERTEX
  8
T41SSILL
 62
4
 10
3652.294
 20
-6898.515
 30
1136.766
 70
    32
  0
VERTEX
  8
T41SSILL
 62
4
 10
3628.644
 20
-6869.470
 30
1136.739
 70
    32
  0
VERTEX
  8
T41SSILL
 62
4
 10
3590.442
 20
-6896.084
 30
1136.859
 70
    32
  0
VERTEX
  8
T41SSILL
 62
4
 10
3583.856
 20
-6904.815
 30
1136.895
 70
    32
  0
VERTEX
  8
T41SSILL
 62
4
 10
3581.450
 20
-6916.806
 30
1136.935
 70
    32
  0
SEQEND
  8
T41SSILL
  0
POLYLINE
  8
T41SSILL
 62
4
 66
     1
 70
     9
  0
VERTEX
  8
T41SSILL
 62
4
 10
3636.367
 20
-6970.947
 30
1137.005
 70
    32
  0
VERTEX
  8
T41SSILL
 62
4
 10
3624.343
 20
-6974.593
 30
1137.036
 70
    32
  0
VERTEX
  8
T41SSILL
 62
4
 10
3617.648
 20
-6974.249
 30
1137.045
 70
    32
  0
VERTEX
  8
T41SSILL
 62
4
 10
3609.233
 20
-6970.782
 30
1137.049
 70
    32
  0
VERTEX
  8
T41SSILL
 62
4
 10
3603.960
 20
-6966.875
 30
1137.046
 70
    32
  0
VERTEX
  8
T41SSILL
 62
4
 10
3598.156
 20
-6958.598
 30
1137.031
 70
    32
  0
VERTEX
  8
T41SSILL
 62
4
 10
3598.200
 20
-6946.618
 30
1136.995
 70
    32
  0
VERTEX
  8
T41SSILL
 62
4
 10
3610.042
 20
-6943.958
 30
1136.968
 70
    32
  0
VERTEX
  8
T41SSILL
 62
4
 10
3657.313
 20
-6906.903
 30
1136.783
 70
    32
  0
VERTEX
  8
T41SSILL
 62
4
 10
3670.718
 20
-6925.129
 30
1136.815
 70
    32
  0
VERTEX
  8
T41SSILL
 62
4
 10
3679.121
 20
-6941.092
 30
1136.849
 70
    32
  0
VERTEX
  8
T41SSILL
 62
4
 10
3643.627
 20
-6966.166
 30
1136.980
 70
    32
  0
SEQEND
  8
T41SSILL
  0
POLYLINE
  8
T41SSILL
 62
4
 66
     1
 70
     9
  0
VERTEX
  8
T41SSILL
 62
4
 10
3663.418
 20
-6985.380
 30
1137.004
 70
    32
  0
VERTEX
  8
T41SSILL
 62
4
 10
3646.531
 20
-6982.899
 30
1137.024
 70
    32
  0
VERTEX
  8
T41SSILL
 62
4
 10
3644.091
 20
-6980.918
 30
1137.022
 70
    32
  0
VERTEX
  8
T41SSILL
 62
4
 10
3644.025
 20
-6976.442
 30
1137.009
 70
    32
  0
VERTEX
  8
T41SSILL
 62
4
 10
3684.162
 20
-6947.634
 30
1136.860
 70
    32
  0
VERTEX
  8
T41SSILL
 62
4
 10
3697.600
 20
-6968.098
 30
1136.898
 70
    32
  0
VERTEX
  8
T41SSILL
 62
4
 10
3692.427
 20
-6970.905
 30
1136.915
 70
    32
  0
SEQEND
  8
T41SSILL
  0
POLYLINE
  8
T41SSILL
 62
4
 66
     1
 70
     9
  0
VERTEX
  8
T41SSILL
 62
4
 10
3718.522
 20
-6975.661
 30
1136.887
 70
    32
  0
VERTEX
  8
T41SSILL
 62
4
 10
3724.720
 20
-6975.594
 30
1136.877
 70
    32
  0
VERTEX
  8
T41SSILL
 62
4
 10
3729.216
 20
-6978.528
 30
1136.878
 70
    32
  0
VERTEX
  8
T41SSILL
 62
4
 10
3730.185
 20
-6980.875
 30
1136.883
 70
    32
  0
VERTEX
  8
T41SSILL
 62
4
 10
3714.794
 20
-6991.360
 30
1136.939
 70
    32
  0
VERTEX
  8
T41SSILL
 62
4
 10
3727.977
 20
-7022.873
 30
1137.002
 70
    32
  0
VERTEX
  8
T41SSILL
 62
4
 10
3687.977
 20
-7050.941
 30
1137.078
 70
    32
  0
VERTEX
  8
T41SSILL
 62
4
 10
3679.213
 20
-7052.128
 30
1137.089
 70
    32
  0
VERTEX
  8
T41SSILL
 62
4
 10
3666.560
 20
-7049.855
 30
1137.103
 70
    32
  0
VERTEX
  8
T41SSILL
 62
4
 10
3658.642
 20
-7043.355
 30
1137.106
 70
    32
  0
VERTEX
  8
T41SSILL
 62
4
 10
3629.829
 20
-7002.899
 30
1137.102
 70
    32
  0
VERTEX
  8
T41SSILL
 62
4
 10
3630.526
 20
-6998.436
 30
1137.096
 70
    32
  0
VERTEX
  8
T41SSILL
 62
4
 10
3636.244
 20
-6989.225
 30
1137.059
 70
    32
  0
VERTEX
  8
T41SSILL
 62
4
 10
3671.928
 20
-6996.963
 30
1137.025
 70
    32
  0
VERTEX
  8
T41SSILL
 62
4
 10
3673.336
 20
-6990.719
 30
1137.004
 70
    32
  0
VERTEX
  8
T41SSILL
 62
4
 10
3703.756
 20
-6975.166
 30
1136.909
 70
    32
  0
VERTEX
  8
T41SSILL
 62
4
 10
3706.150
 20
-6977.393
 30
1136.912
 70
    32
  0
VERTEX
  8
T41SSILL
 62
4
 10
3714.471
 20
-6976.188
 30
1136.895
 70
    32
  0
SEQEND
  8
T41SSILL
  0
POLYLINE
  8
T41SSILL
 62
4
 66
     1
 70
     9
  0
VERTEX
  8
T41SSILL
 62
4
 10
3765.453
 20
-6868.972
 30
1136.517
 70
    32
  0
VERTEX
  8
T41SSILL
 62
4
 10
3774.504
 20
-6857.252
 30
1136.483
 70
    32
  0
VERTEX
  8
T41SSILL
 62
4
 10
3743.827
 20
-6823.785
 30
1136.496
 70
    32
  0
VERTEX
  8
T41SSILL
 62
4
 10
3716.491
 20
-6805.652
 30
1136.527
 70
    32
  0
VERTEX
  8
T41SSILL
 62
4
 10
3664.192
 20
-6843.066
 30
1136.644
 70
    32
  0
VERTEX
  8
T41SSILL
 62
4
 10
3690.149
 20
-6881.720
 30
1136.660
 70
    32
  0
VERTEX
  8
T41SSILL
 62
4
 10
3698.219
 20
-6890.161
 30
1136.668
 70
    32
  0
VERTEX
  8
T41SSILL
 62
4
 10
3703.599
 20
-6899.700
 30
1136.687
 70
    32
  0
VERTEX
  8
T41SSILL
 62
4
 10
3707.940
 20
-6912.107
 30
1136.717
 70
    32
  0
VERTEX
  8
T41SSILL
 62
4
 10
3712.054
 20
-6909.168
 30
1136.701
 70
    32
  0
VERTEX
  8
T41SSILL
 62
4
 10
3717.411
 20
-6900.529
 30
1136.667
 70
    32
  0
VERTEX
  8
T41SSILL
 62
4
 10
3725.501
 20
-6893.669
 30
1136.634
 70
    32
  0
VERTEX
  8
T41SSILL
 62
4
 10
3755.770
 20
-6877.897
 30
1136.548
 70
    32
  0
VERTEX
  8
T41SSILL
 62
4
 10
3761.313
 20
-6873.436
 30
1136.531
 70
    32
  0
SEQEND
  8
T41SSILL
  0
POLYLINE
  8
T41SSILL
 62
4
 66
     1
 70
     9
  0
VERTEX
  8
T41SSILL
 62
4
 10
3545.526
 20
-6898.071
 30
1136.937
 70
    32
  0
VERTEX
  8
T41SSILL
 62
4
 10
3549.987
 20
-6904.281
 30
1136.948
 70
    32
  0
VERTEX
  8
T41SSILL
 62
4
 10
3558.973
 20
-6910.445
 30
1136.952
 70
    32
  0
VERTEX
  8
T41SSILL
 62
4
 10
3539.428
 20
-6924.389
 30
1137.025
 70
    32
  0
VERTEX
  8
T41SSILL
 62
4
 10
3535.797
 20
-6920.236
 30
1137.018
 70
    32
  0
VERTEX
  8
T41SSILL
 62
4
 10
3542.066
 20
-6898.374
 30
1136.944
 70
    32
  0
SEQEND
  8
T41SSILL
  0
POLYLINE
  8
T41SSILL
 62
4
 66
     1
 70
     9
  0
VERTEX
  8
T41SSILL
 62
4
 10
3638.501
 20
-6687.640
 30
1136.509
 70
    32
  0
VERTEX
  8
T41SSILL
 62
4
 10
3640.624
 20
-6694.791
 30
1136.519
 70
    32
  0
VERTEX
  8
T41SSILL
 62
4
 10
3618.042
 20
-6701.398
 30
1136.563
 70
    32
  0
VERTEX
  8
T41SSILL
 62
4
 10
3613.791
 20
-6705.076
 30
1136.576
 70
    32
  0
VERTEX
  8
T41SSILL
 62
4
 10
3598.702
 20
-6726.011
 30
1136.635
 70
    32
  0
VERTEX
  8
T41SSILL
 62
4
 10
3608.997
 20
-6757.474
 30
1136.669
 70
    32
  0
VERTEX
  8
T41SSILL
 62
4
 10
3743.015
 20
-6660.581
 30
1136.313
 70
    32
  0
VERTEX
  8
T41SSILL
 62
4
 10
3748.073
 20
-6666.177
 30
1136.316
 70
    32
  0
VERTEX
  8
T41SSILL
 62
4
 10
3668.375
 20
-6723.382
 30
1136.532
 70
    32
  0
VERTEX
  8
T41SSILL
 62
4
 10
3672.260
 20
-6728.245
 30
1136.535
 70
    32
  0
VERTEX
  8
T41SSILL
 62
4
 10
3661.572
 20
-6735.708
 30
1136.564
 70
    32
  0
VERTEX
  8
T41SSILL
 62
4
 10
3658.344
 20
-6730.394
 30
1136.559
 70
    32
  0
VERTEX
  8
T41SSILL
 62
4
 10
3609.255
 20
-6765.519
 30
1136.675
 70
    32
  0
VERTEX
  8
T41SSILL
 62
4
 10
3609.470
 20
-6777.165
 30
1136.684
 70
    32
  0
VERTEX
  8
T41SSILL
 62
4
 10
3623.403
 20
-6791.152
 30
1136.672
 70
    32
  0
VERTEX
  8
T41SSILL
 62
4
 10
3627.576
 20
-6807.227
 30
1136.677
 70
    32
  0
VERTEX
  8
T41SSILL
 62
4
 10
3621.641
 20
-6811.742
 30
1136.691
 70
    32
  0
VERTEX
  8
T41SSILL
 62
4
 10
3609.806
 20
-6819.887
 30
1136.717
 70
    32
  0
VERTEX
  8
T41SSILL
 62
4
 10
3606.427
 20
-6820.921
 30
1136.724
 70
    32
  0
VERTEX
  8
T41SSILL
 62
4
 10
3597.671
 20
-6819.304
 30
1136.737
 70
    32
  0
VERTEX
  8
T41SSILL
 62
4
 10
3581.376
 20
-6813.617
 30
1136.760
 70
    32
  0
VERTEX
  8
T41SSILL
 62
4
 10
3567.250
 20
-6795.575
 30
1136.769
 70
    32
  0
VERTEX
  8
T41SSILL
 62
4
 10
3534.203
 20
-6819.061
 30
1136.843
 70
    32
  0
VERTEX
  8
T41SSILL
 62
4
 10
3527.191
 20
-6825.610
 30
1136.860
 70
    32
  0
VERTEX
  8
T41SSILL
 62
4
 10
3521.856
 20
-6834.126
 30
1136.876
 70
    32
  0
VERTEX
  8
T41SSILL
 62
4
 10
3520.721
 20
-6838.890
 30
1136.881
 70
    32
  0
VERTEX
  8
T41SSILL
 62
4
 10
3521.969
 20
-6850.089
 30
1136.888
 70
    32
  0
VERTEX
  8
T41SSILL
 62
4
 10
3529.884
 20
-6863.924
 30
1136.890
 70
    32
  0
VERTEX
  8
T41SSILL
 62
4
 10
3557.722
 20
-6902.643
 30
1136.931
 70
    32
  0
VERTEX
  8
T41SSILL
 62
4
 10
3560.982
 20
-6905.158
 30
1136.933
 70
    32
  0
VERTEX
  8
T41SSILL
 62
4
 10
3565.450
 20
-6905.061
 30
1136.926
 70
    32
  0
VERTEX
  8
T41SSILL
 62
4
 10
3569.690
 20
-6863.429
 30
1136.825
 70
    32
  0
VERTEX
  8
T41SSILL
 62
4
 10
3577.144
 20
-6853.455
 30
1136.798
 70
    32
  0
VERTEX
  8
T41SSILL
 62
4
 10
3584.507
 20
-6847.655
 30
1136.781
 70
    32
  0
VERTEX
  8
T41SSILL
 62
4
 10
3590.022
 20
-6856.843
 30
1136.781
 70
    32
  0
VERTEX
  8
T41SSILL
 62
4
 10
3581.653
 20
-6865.638
 30
1136.809
 70
    32
  0
VERTEX
  8
T41SSILL
 62
4
 10
3578.104
 20
-6873.464
 30
1136.828
 70
    32
  0
VERTEX
  8
T41SSILL
 62
4
 10
3577.433
 20
-6896.751
 30
1136.882
 70
    32
  0
VERTEX
  8
T41SSILL
 62
4
 10
3636.606
 20
-6852.416
 30
1136.698
 70
    32
  0
VERTEX
  8
T41SSILL
 62
4
 10
3633.350
 20
-6847.244
 30
1136.699
 70
    32
  0
VERTEX
  8
T41SSILL
 62
4
 10
3634.775
 20
-6844.374
 30
1136.695
 70
    32
  0
VERTEX
  8
T41SSILL
 62
4
 10
3639.591
 20
-6841.608
 30
1136.684
 70
    32
  0
VERTEX
  8
T41SSILL
 62
4
 10
3645.794
 20
-6845.531
 30
1136.677
 70
    32
  0
VERTEX
  8
T41SSILL
 62
4
 10
3667.906
 20
-6830.949
 30
1136.628
 70
    32
  0
VERTEX
  8
T41SSILL
 62
4
 10
3664.906
 20
-6824.949
 30
1136.629
 70
    32
  0
VERTEX
  8
T41SSILL
 62
4
 10
3670.906
 20
-6820.949
 30
1136.616
 70
    32
  0
VERTEX
  8
T41SSILL
 62
4
 10
3674.906
 20
-6825.949
 30
1136.613
 70
    32
  0
VERTEX
  8
T41SSILL
 62
4
 10
3716.223
 20
-6796.208
 30
1136.520
 70
    32
  0
VERTEX
  8
T41SSILL
 62
4
 10
3720.260
 20
-6787.039
 30
1136.506
 70
    32
  0
VERTEX
  8
T41SSILL
 62
4
 10
3725.838
 20
-6781.692
 30
1136.493
 70
    32
  0
VERTEX
  8
T41SSILL
 62
4
 10
3736.139
 20
-6774.603
 30
1136.470
 70
    32
  0
VERTEX
  8
T41SSILL
 62
4
 10
3745.331
 20
-6775.256
 30
1136.455
 70
    32
  0
VERTEX
  8
T41SSILL
 62
4
 10
3883.546
 20
-6675.768
 30
1136.142
 70
    32
  0
VERTEX
  8
T41SSILL
 62
4
 10
3886.906
 20
-6447.949
 30
1135.724
 70
    32
  0
VERTEX
  8
T41SSILL
 62
4
 10
3623.616
 20
-6636.105
 30
1136.436
 70
    32
  0
VERTEX
  8
T41SSILL
 62
4
 10
3628.104
 20
-6648.288
 30
1136.452
 70
    32
  0
VERTEX
  8
T41SSILL
 62
4
 10
3632.717
 20
-6655.772
 30
1136.459
 70
    32
  0
VERTEX
  8
T41SSILL
 62
4
 10
3639.483
 20
-6660.911
 30
1136.459
 70
    32
  0
VERTEX
  8
T41SSILL
 62
4
 10
3647.635
 20
-6678.231
 30
1136.479
 70
    32
  0
VERTEX
  8
T41SSILL
 62
4
 10
3639.962
 20
-6686.634
 30
1136.505
 70
    32
  0
SEQEND
  8
T41SSILL
  0
POLYLINE
  8
T41SSILL
 62
4
 66
     1
 70
     9
  0
VERTEX
  8
T41SSILL
 62
4
 10
3517.791
 20
-6825.404
 30
1136.876
 70
    32
  0
VERTEX
  8
T41SSILL
 62
4
 10
3513.736
 20
-6835.624
 30
1136.890
 70
    32
  0
VERTEX
  8
T41SSILL
 62
4
 10
3513.326
 20
-6840.894
 30
1136.895
 70
    32
  0
VERTEX
  8
T41SSILL
 62
4
 10
3446.814
 20
-6748.385
 30
1136.890
 70
    32
  0
VERTEX
  8
T41SSILL
 62
4
 10
3457.141
 20
-6749.480
 30
1136.877
 70
    32
  0
VERTEX
  8
T41SSILL
 62
4
 10
3471.334
 20
-6746.171
 30
1136.851
 70
    32
  0
VERTEX
  8
T41SSILL
 62
4
 10
3571.690
 20
-6673.213
 30
1136.577
 70
    32
  0
VERTEX
  8
T41SSILL
 62
4
 10
3573.918
 20
-6685.151
 30
1136.596
 70
    32
  0
VERTEX
  8
T41SSILL
 62
4
 10
3572.281
 20
-6699.196
 30
1136.623
 70
    32
  0
VERTEX
  8
T41SSILL
 62
4
 10
3574.490
 20
-6723.836
 30
1136.665
 70
    32
  0
VERTEX
  8
T41SSILL
 62
4
 10
3579.278
 20
-6744.870
 30
1136.697
 70
    32
  0
VERTEX
  8
T41SSILL
 62
4
 10
3576.799
 20
-6748.621
 30
1136.707
 70
    32
  0
VERTEX
  8
T41SSILL
 62
4
 10
3567.517
 20
-6754.687
 30
1136.731
 70
    32
  0
VERTEX
  8
T41SSILL
 62
4
 10
3558.333
 20
-6755.733
 30
1136.746
 70
    32
  0
VERTEX
  8
T41SSILL
 62
4
 10
3540.662
 20
-6765.095
 30
1136.788
 70
    32
  0
VERTEX
  8
T41SSILL
 62
4
 10
3541.102
 20
-6768.238
 30
1136.792
 70
    32
  0
VERTEX
  8
T41SSILL
 62
4
 10
3548.187
 20
-6779.940
 30
1136.789
 70
    32
  0
VERTEX
  8
T41SSILL
 62
4
 10
3550.316
 20
-6780.843
 30
1136.786
 70
    32
  0
VERTEX
  8
T41SSILL
 62
4
 10
3552.100
 20
-6786.721
 30
1136.788
 70
    32
  0
VERTEX
  8
T41SSILL
 62
4
 10
3557.856
 20
-6793.547
 30
1136.783
 70
    32
  0
VERTEX
  8
T41SSILL
 62
4
 10
3527.642
 20
-6814.534
 30
1136.851
 70
    32
  0
VERTEX
  8
T41SSILL
 62
4
 10
3519.453
 20
-6822.969
 30
1136.871
 70
    32
  0
SEQEND
  8
T41SSILL
  0
POLYLINE
  8
T41SSILL
 62
4
 66
     1
 70
     9
  0
VERTEX
  8
T41SSILL
 62
4
 10
3297.152
 20
-6502.735
 30
1136.809
 70
    32
  0
VERTEX
  8
T41SSILL
 62
4
 10
3289.241
 20
-6508.281
 30
1136.829
 70
    32
  0
VERTEX
  8
T41SSILL
 62
4
 10
3284.553
 20
-6506.577
 30
1136.836
 70
    32
  0
VERTEX
  8
T41SSILL
 62
4
 10
3276.661
 20
-6507.693
 30
1136.851
 70
    32
  0
VERTEX
  8
T41SSILL
 62
4
 10
3272.001
 20
-6503.650
 30
1136.855
 70
    32
  0
VERTEX
  8
T41SSILL
 62
4
 10
3245.712
 20
-6465.892
 30
1136.857
 70
    32
  0
VERTEX
  8
T41SSILL
 62
4
 10
3244.295
 20
-6457.893
 30
1136.850
 70
    32
  0
VERTEX
  8
T41SSILL
 62
4
 10
3245.109
 20
-6450.223
 30
1136.839
 70
    32
  0
VERTEX
  8
T41SSILL
 62
4
 10
3250.924
 20
-6437.844
 30
1136.814
 70
    32
  0
VERTEX
  8
T41SSILL
 62
4
 10
3271.141
 20
-6422.712
 30
1136.760
 70
    32
  0
VERTEX
  8
T41SSILL
 62
4
 10
3275.235
 20
-6426.736
 30
1136.757
 70
    32
  0
VERTEX
  8
T41SSILL
 62
4
 10
3285.312
 20
-6424.105
 30
1136.736
 70
    32
  0
VERTEX
  8
T41SSILL
 62
4
 10
3298.248
 20
-6416.259
 30
1136.703
 70
    32
  0
VERTEX
  8
T41SSILL
 62
4
 10
3317.828
 20
-6408.886
 30
1136.660
 70
    32
  0
VERTEX
  8
T41SSILL
 62
4
 10
3327.798
 20
-6422.452
 30
1136.658
 70
    32
  0
VERTEX
  8
T41SSILL
 62
4
 10
3330.229
 20
-6429.587
 30
1136.662
 70
    32
  0
VERTEX
  8
T41SSILL
 62
4
 10
3339.766
 20
-6444.800
 30
1136.663
 70
    32
  0
VERTEX
  8
T41SSILL
 62
4
 10
3347.186
 20
-6449.883
 30
1136.656
 70
    32
  0
VERTEX
  8
T41SSILL
 62
4
 10
3360.274
 20
-6455.613
 30
1136.639
 70
    32
  0
VERTEX
  8
T41SSILL
 62
4
 10
3362.248
 20
-6458.121
 30
1136.639
 70
    32
  0
VERTEX
  8
T41SSILL
 62
4
 10
3362.651
 20
-6466.983
 30
1136.648
 70
    32
  0
VERTEX
  8
T41SSILL
 62
4
 10
3307.344
 20
-6506.201
 30
1136.794
 70
    32
  0
VERTEX
  8
T41SSILL
 62
4
 10
3302.415
 20
-6502.687
 30
1136.799
 70
    32
  0
VERTEX
  8
T41SSILL
 62
4
 10
3299.117
 20
-6503.151
 30
1136.806
 70
    32
  0
SEQEND
  8
T41SSILL
  0
POLYLINE
  8
T41SSILL
 62
4
 66
     1
 70
     9
  0
VERTEX
  8
T41SSILL
 62
4
 10
3179.180
 20
-6494.905
 30
1137.011
 70
    32
  0
VERTEX
  8
T41SSILL
 62
4
 10
3189.650
 20
-6495.625
 30
1136.993
 70
    32
  0
VERTEX
  8
T41SSILL
 62
4
 10
3192.691
 20
-6497.340
 30
1136.989
 70
    32
  0
VERTEX
  8
T41SSILL
 62
4
 10
3194.508
 20
-6503.054
 30
1136.993
 70
    32
  0
VERTEX
  8
T41SSILL
 62
4
 10
3194.577
 20
-6515.477
 30
1137.008
 70
    32
  0
VERTEX
  8
T41SSILL
 62
4
 10
3200.365
 20
-6524.754
 30
1137.008
 70
    32
  0
VERTEX
  8
T41SSILL
 62
4
 10
3252.100
 20
-6487.859
 30
1136.872
 70
    32
  0
VERTEX
  8
T41SSILL
 62
4
 10
3251.309
 20
-6486.349
 30
1136.871
 70
    32
  0
VERTEX
  8
T41SSILL
 62
4
 10
3196.593
 20
-6476.889
 30
1136.958
 70
    32
  0
VERTEX
  8
T41SSILL
 62
4
 10
3174.474
 20
-6493.324
 30
1137.017
 70
    32
  0
VERTEX
  8
T41SSILL
 62
4
 10
3177.408
 20
-6494.897
 30
1137.014
 70
    32
  0
SEQEND
  8
T41SSILL
  0
POLYLINE
  8
T41SSILL
 62
4
 66
     1
 70
     9
  0
VERTEX
  8
T41SSILL
 62
4
 10
3910.947
 20
-5542.489
 30
1134.079
 70
    32
  0
VERTEX
  8
T41SSILL
 62
4
 10
3920.263
 20
-5531.224
 30
1134.105
 70
    32
  0
VERTEX
  8
T41SSILL
 62
4
 10
3931.019
 20
-5523.467
 30
1134.140
 70
    32
  0
VERTEX
  8
T41SSILL
 62
4
 10
3942.422
 20
-5519.049
 30
1134.183
 70
    32
  0
VERTEX
  8
T41SSILL
 62
4
 10
3959.485
 20
-5517.396
 30
1134.252
 70
    32
  0
VERTEX
  8
T41SSILL
 62
4
 10
3911.872
 20
-5489.751
 30
1134.020
 70
    32
  0
SEQEND
  8
T41SSILL
  0
POLYLINE
  8
T41SSILL
 62
4
 66
     1
 70
     8
  0
VERTEX
  8
T41SSILL
 62
4
 10
16.320
 20
-6877.049
 30
1139.000
 70
    32
  0
VERTEX
  8
T41SSILL
 62
4
 10
-1.620
 20
-6849.666
 30
1139.000
 70
    32
  0
VERTEX
  8
T41SSILL
 62
4
 10
-21.803
 20
-6821.913
 30
1139.000
 70
    32
  0
VERTEX
  8
T41SSILL
 62
4
 10
-40.003
 20
-6795.028
 30
1139.000
 70
    32
  0
VERTEX
  8
T41SSILL
 62
4
 10
-54.558
 20
-6778.566
 30
1143.000
 70
    32
  0
SEQEND
  8
T41SSILL
  0
POLYLINE
  8
T41SSILL
 62
4
 66
     1
 70
     8
  0
VERTEX
  8
T41SSILL
 62
4
 10
-58.283
 20
-6788.575
 30
1142.444
 70
    32
  0
VERTEX
  8
T41SSILL
 62
4
 10
-35.122
 20
-6818.652
 30
1139.000
 70
    32
  0
VERTEX
  8
T41SSILL
 62
4
 10
-21.073
 20
-6841.852
 30
1139.000
 70
    32
  0
VERTEX
  8
T41SSILL
 62
4
 10
-5.450
 20
-6862.308
 30
1139.000
 70
    32
  0
VERTEX
  8
T41SSILL
 62
4
 10
8.268
 20
-6886.391
 30
1139.000
 70
    32
  0
VERTEX
  8
T41SSILL
 62
4
 10
7.344
 20
-6890.849
 30
1138.545
 70
    32
  0
SEQEND
  8
T41SSILL
  0
POLYLINE
  8
T41SSILL
 62
3
 66
     1
 70
     8
  0
VERTEX
  8
T41SSILL
 62
3
 10
-58.283
 20
-6788.575
 30
1142.444
 70
    32
  0
VERTEX
  8
T41SSILL
 62
3
 10
-65.857
 20
-6782.884
 30
1145.000
 70
    32
  0
VERTEX
  8
T41SSILL
 62
3
 10
-76.183
 20
-6776.366
 30
1148.500
 70
    32
  0
VERTEX
  8
T41SSILL
 62
3
 10
-73.258
 20
-6772.853
 30
1148.500
 70
    32
  0
VERTEX
  8
T41SSILL
 62
3
 10
-68.983
 20
-6767.565
 30
1148.500
 70
    32
  0
VERTEX
  8
T41SSILL
 62
3
 10
-57.895
 20
-6773.738
 30
1145.000
 70
    32
  0
VERTEX
  8
T41SSILL
 62
3
 10
-54.558
 20
-6778.566
 30
1143.000
 70
    32
  0
SEQEND
  8
T41SSILL
  0
POLYLINE
  8
T41SSILL
 62
4
 66
     1
 70
     9
  0
VERTEX
  8
T41SSILL
 62
4
 10
2483.758
 20
-6633.404
 30
1138.122
 70
    32
  0
VERTEX
  8
T41SSILL
 62
4
 10
2459.197
 20
-6589.334
 30
1138.467
 70
    32
  0
VERTEX
  8
T41SSILL
 62
4
 10
2452.808
 20
-6585.795
 30
1138.509
 70
    32
  0
VERTEX
  8
T41SSILL
 62
4
 10
2443.142
 20
-6575.296
 30
1138.596
 70
    32
  0
VERTEX
  8
T41SSILL
 62
4
 10
2440.344
 20
-6567.473
 30
1138.643
 70
    32
  0
VERTEX
  8
T41SSILL
 62
4
 10
2440.515
 20
-6560.075
 30
1138.676
 70
    32
  0
VERTEX
  8
T41SSILL
 62
4
 10
2421.178
 20
-6525.804
 30
1138.972
 70
    32
  0
VERTEX
  8
T41SSILL
 62
4
 10
2419.784
 20
-6524.084
 30
1138.991
 70
    32
  0
VERTEX
  8
T41SSILL
 62
4
 10
2413.127
 20
-6524.369
 30
1139.038
 70
    32
  0
VERTEX
  8
T41SSILL
 62
4
 10
2407.160
 20
-6515.828
 30
1139.096
 70
    32
  0
VERTEX
  8
T41SSILL
 62
4
 10
2402.429
 20
-6513.614
 30
1139.107
 70
    32
  0
VERTEX
  8
T41SSILL
 62
4
 10
2403.109
 20
-6505.867
 30
1139.104
 70
    32
  0
VERTEX
  8
T41SSILL
 62
4
 10
2399.563
 20
-6500.698
 30
1139.073
 70
    32
  0
VERTEX
  8
T41SSILL
 62
4
 10
2386.075
 20
-6493.678
 30
1139.018
 70
    32
  0
VERTEX
  8
T41SSILL
 62
4
 10
2380.217
 20
-6480.459
 30
1138.930
 70
    32
  0
VERTEX
  8
T41SSILL
 62
4
 10
2389.081
 20
-6469.346
 30
1138.879
 70
    32
  0
VERTEX
  8
T41SSILL
 62
4
 10
2389.151
 20
-6467.263
 30
1138.874
 70
    32
  0
VERTEX
  8
T41SSILL
 62
4
 10
2348.564
 20
-6411.383
 30
1138.670
 70
    32
  0
VERTEX
  8
T41SSILL
 62
4
 10
2339.450
 20
-6409.178
 30
1138.651
 70
    32
  0
VERTEX
  8
T41SSILL
 62
4
 10
2333.580
 20
-6404.212
 30
1138.630
 70
    32
  0
VERTEX
  8
T41SSILL
 62
4
 10
2321.457
 20
-6400.431
 30
1138.603
 70
    32
  0
VERTEX
  8
T41SSILL
 62
4
 10
2315.756
 20
-6389.781
 30
1138.567
 70
    32
  0
VERTEX
  8
T41SSILL
 62
4
 10
2312.845
 20
-6377.110
 30
1138.529
 70
    32
  0
VERTEX
  8
T41SSILL
 62
4
 10
2308.864
 20
-6374.274
 30
1138.516
 70
    32
  0
VERTEX
  8
T41SSILL
 62
4
 10
2301.464
 20
-6386.739
 30
1138.538
 70
    32
  0
VERTEX
  8
T41SSILL
 62
4
 10
2298.841
 20
-6395.712
 30
1138.558
 70
    32
  0
VERTEX
  8
T41SSILL
 62
4
 10
2292.882
 20
-6402.476
 30
1138.567
 70
    32
  0
VERTEX
  8
T41SSILL
 62
4
 10
2265.671
 20
-6446.952
 30
1136.004
 70
    32
  0
VERTEX
  8
T41SSILL
 62
4
 10
2262.852
 20
-6451.559
 30
1135.993
 70
    32
  0
VERTEX
  8
T41SSILL
 62
4
 10
2260.802
 20
-6455.993
 30
1135.980
 70
    32
  0
VERTEX
  8
T41SSILL
 62
4
 10
2259.325
 20
-6459.189
 30
1136.633
 70
    32
  0
VERTEX
  8
T41SSILL
 62
4
 10
2257.276
 20
-6468.935
 30
1138.497
 70
    32
  0
VERTEX
  8
T41SSILL
 62
4
 10
2256.804
 20
-6471.152
 30
1138.921
 70
    32
  0
VERTEX
  8
T41SSILL
 62
4
 10
2255.663
 20
-6476.516
 30
1140.048
 70
    32
  0
VERTEX
  8
T41SSILL
 62
4
 10
2254.822
 20
-6480.470
 30
1138.637
 70
    32
  0
VERTEX
  8
T41SSILL
 62
4
 10
2256.027
 20
-6485.417
 30
1136.000
 70
    32
  0
VERTEX
  8
T41SSILL
 62
4
 10
2277.506
 20
-6551.570
 30
1139.308
 70
    32
  0
VERTEX
  8
T41SSILL
 62
4
 10
2290.991
 20
-6562.018
 30
1139.368
 70
    32
  0
VERTEX
  8
T41SSILL
 62
4
 10
2306.915
 20
-6566.189
 30
1139.332
 70
    32
  0
VERTEX
  8
T41SSILL
 62
4
 10
2309.346
 20
-6563.022
 30
1139.326
 70
    32
  0
VERTEX
  8
T41SSILL
 62
4
 10
2322.842
 20
-6572.393
 30
1139.297
 70
    32
  0
VERTEX
  8
T41SSILL
 62
4
 10
2340.270
 20
-6577.352
 30
1139.257
 70
    32
  0
VERTEX
  8
T41SSILL
 62
4
 10
2337.207
 20
-6566.177
 30
1139.263
 70
    32
  0
VERTEX
  8
T41SSILL
 62
4
 10
2346.070
 20
-6560.525
 30
1139.242
 70
    32
  0
VERTEX
  8
T41SSILL
 62
4
 10
2347.592
 20
-6557.125
 30
1139.238
 70
    32
  0
VERTEX
  8
T41SSILL
 62
4
 10
2346.572
 20
-6548.617
 30
1139.239
 70
    32
  0
VERTEX
  8
T41SSILL
 62
4
 10
2354.685
 20
-6543.587
 30
1139.220
 70
    32
  0
VERTEX
  8
T41SSILL
 62
4
 10
2360.029
 20
-6545.915
 30
1139.208
 70
    32
  0
VERTEX
  8
T41SSILL
 62
4
 10
2365.290
 20
-6569.501
 30
1139.150
 70
    32
  0
VERTEX
  8
T41SSILL
 62
4
 10
2364.470
 20
-6575.952
 30
1139.122
 70
    32
  0
VERTEX
  8
T41SSILL
 62
4
 10
2362.996
 20
-6577.392
 30
1139.125
 70
    32
  0
VERTEX
  8
T41SSILL
 62
4
 10
2371.741
 20
-6599.658
 30
1138.947
 70
    32
  0
VERTEX
  8
T41SSILL
 62
4
 10
2383.068
 20
-6617.261
 30
1138.773
 70
    32
  0
VERTEX
  8
T41SSILL
 62
4
 10
2392.299
 20
-6635.553
 30
1138.612
 70
    32
  0
VERTEX
  8
T41SSILL
 62
4
 10
2407.657
 20
-6646.858
 30
1138.442
 70
    32
  0
VERTEX
  8
T41SSILL
 62
4
 10
2409.266
 20
-6651.857
 30
1138.404
 70
    32
  0
VERTEX
  8
T41SSILL
 62
4
 10
2415.661
 20
-6659.461
 30
1138.319
 70
    32
  0
VERTEX
  8
T41SSILL
 62
4
 10
2416.698
 20
-6678.450
 30
1138.226
 70
    32
  0
VERTEX
  8
T41SSILL
 62
4
 10
2422.626
 20
-6693.333
 30
1138.134
 70
    32
  0
VERTEX
  8
T41SSILL
 62
4
 10
2505.117
 20
-6683.418
 30
1137.787
 70
    32
  0
VERTEX
  8
T41SSILL
 62
4
 10
2516.020
 20
-6683.861
 30
1137.707
 70
    32
  0
VERTEX
  8
T41SSILL
 62
4
 10
2517.428
 20
-6681.075
 30
1137.707
 70
    32
  0
VERTEX
  8
T41SSILL
 62
4
 10
2516.275
 20
-6679.082
 30
1137.722
 70
    32
  0
VERTEX
  8
T41SSILL
 62
4
 10
2485.764
 20
-6636.240
 30
1138.092
 70
    32
  0
VERTEX
  8
T41SSILL
 62
4
 10
2483.758
 20
-6633.404
 30
1138.122
 70
    32
  0
VERTEX
  8
T41SSILL
 62
4
 10
2483.758
 20
-6633.404
 30
1138.122
 70
    32
  0
SEQEND
  8
T41SSILL
  0
POLYLINE
  8
T41SSILL
 62
4
 66
     1
 70
     9
  0
VERTEX
  8
T41SSILL
 62
4
 10
2185.505
 20
-5856.767
 30
1136.473
 70
    32
  0
VERTEX
  8
T41SSILL
 62
4
 10
2176.709
 20
-5863.766
 30
1136.498
 70
    32
  0
VERTEX
  8
T41SSILL
 62
4
 10
2171.219
 20
-5856.076
 30
1136.423
 70
    32
  0
VERTEX
  8
T41SSILL
 62
4
 10
2179.992
 20
-5849.200
 30
1136.399
 70
    32
  0
VERTEX
  8
T41SSILL
 62
4
 10
2150.788
 20
-5807.192
 30
1135.989
 70
    32
  0
VERTEX
  8
T41SSILL
 62
4
 10
2148.457
 20
-5873.295
 30
1135.885
 70
    32
  0
VERTEX
  8
T41SSILL
 62
4
 10
2149.065
 20
-5875.742
 30
1135.882
 70
    32
  0
VERTEX
  8
T41SSILL
 62
4
 10
2151.528
 20
-5877.874
 30
1135.850
 70
    32
  0
VERTEX
  8
T41SSILL
 62
4
 10
2161.566
 20
-5884.951
 30
1135.715
 70
    32
  0
VERTEX
  8
T41SSILL
 62
4
 10
2169.804
 20
-5892.124
 30
1135.978
 70
    32
  0
VERTEX
  8
T41SSILL
 62
4
 10
2175.500
 20
-5897.442
 30
1135.704
 70
    32
  0
VERTEX
  8
T41SSILL
 62
4
 10
2178.043
 20
-5905.730
 30
1135.516
 70
    32
  0
VERTEX
  8
T41SSILL
 62
4
 10
2179.777
 20
-5909.715
 30
1135.499
 70
    32
  0
VERTEX
  8
T41SSILL
 62
4
 10
2179.834
 20
-5909.570
 30
1137.011
 70
    32
  0
VERTEX
  8
T41SSILL
 62
4
 10
2178.738
 20
-5912.679
 30
1137.011
 70
    32
  0
VERTEX
  8
T41SSILL
 62
4
 10
2177.991
 20
-5929.224
 30
1137.011
 70
    32
  0
VERTEX
  8
T41SSILL
 62
4
 10
2178.441
 20
-5949.345
 30
1137.011
 70
    32
  0
VERTEX
  8
T41SSILL
 62
4
 10
2169.831
 20
-5952.473
 30
1137.011
 70
    32
  0
VERTEX
  8
T41SSILL
 62
4
 10
2168.662
 20
-5954.416
 30
1137.011
 70
    32
  0
VERTEX
  8
T41SSILL
 62
4
 10
2166.026
 20
-5971.377
 30
1137.011
 70
    32
  0
VERTEX
  8
T41SSILL
 62
4
 10
2167.635
 20
-5979.654
 30
1137.011
 70
    32
  0
VERTEX
  8
T41SSILL
 62
4
 10
2170.581
 20
-5982.190
 30
1137.011
 70
    32
  0
VERTEX
  8
T41SSILL
 62
4
 10
2166.099
 20
-5989.751
 30
1137.011
 70
    32
  0
VERTEX
  8
T41SSILL
 62
4
 10
2167.588
 20
-5999.003
 30
1137.011
 70
    32
  0
VERTEX
  8
T41SSILL
 62
4
 10
2166.994
 20
-6000.047
 30
1137.239
 70
    32
  0
VERTEX
  8
T41SSILL
 62
4
 10
2163.437
 20
-6001.851
 30
1137.213
 70
    32
  0
VERTEX
  8
T41SSILL
 62
4
 10
2160.649
 20
-6002.833
 30
1137.210
 70
    32
  0
VERTEX
  8
T41SSILL
 62
4
 10
2156.517
 20
-6003.999
 30
1136.984
 70
    32
  0
VERTEX
  8
T41SSILL
 62
4
 10
2145.943
 20
-6011.752
 30
1135.929
 70
    32
  0
VERTEX
  8
T41SSILL
 62
4
 10
2140.662
 20
-6018.088
 30
1136.317
 70
    32
  0
VERTEX
  8
T41SSILL
 62
4
 10
2139.937
 20
-6025.738
 30
1136.618
 70
    32
  0
VERTEX
  8
T41SSILL
 62
4
 10
2145.849
 20
-6029.794
 30
1136.805
 70
    32
  0
VERTEX
  8
T41SSILL
 62
4
 10
2157.498
 20
-6026.600
 30
1134.223
 70
    32
  0
VERTEX
  8
T41SSILL
 62
4
 10
2160.437
 20
-6024.636
 30
1136.080
 70
    32
  0
VERTEX
  8
T41SSILL
 62
4
 10
2167.256
 20
-6019.224
 30
1136.080
 70
    32
  0
VERTEX
  8
T41SSILL
 62
4
 10
2173.098
 20
-6009.527
 30
1136.080
 70
    32
  0
VERTEX
  8
T41SSILL
 62
4
 10
2180.533
 20
-5994.672
 30
1136.080
 70
    32
  0
VERTEX
  8
T41SSILL
 62
4
 10
2187.062
 20
-5987.546
 30
1136.007
 70
    32
  0
VERTEX
  8
T41SSILL
 62
4
 10
2191.298
 20
-5979.894
 30
1136.007
 70
    32
  0
VERTEX
  8
T41SSILL
 62
4
 10
2197.389
 20
-5968.415
 30
1136.008
 70
    32
  0
VERTEX
  8
T41SSILL
 62
4
 10
2202.448
 20
-5951.524
 30
1136.008
 70
    32
  0
VERTEX
  8
T41SSILL
 62
4
 10
2204.500
 20
-5938.451
 30
1137.300
 70
    32
  0
VERTEX
  8
T41SSILL
 62
4
 10
2205.956
 20
-5925.634
 30
1137.300
 70
    32
  0
VERTEX
  8
T41SSILL
 62
4
 10
2207.377
 20
-5910.977
 30
1137.300
 70
    32
  0
VERTEX
  8
T41SSILL
 62
4
 10
2207.495
 20
-5887.412
 30
1137.300
 70
    32
  0
SEQEND
  8
T41SSILL
  0
POLYLINE
  8
T41SSILL
 62
4
 66
     1
 70
     9
  0
VERTEX
  8
T41SSILL
 62
4
 10
2222.709
 20
-5908.615
 30
1137.300
 70
    32
  0
VERTEX
  8
T41SSILL
 62
4
 10
2219.636
 20
-5911.448
 30
1137.300
 70
    32
  0
VERTEX
  8
T41SSILL
 62
4
 10
2218.672
 20
-5915.230
 30
1137.300
 70
    32
  0
VERTEX
  8
T41SSILL
 62
4
 10
2218.435
 20
-5924.793
 30
1137.300
 70
    32
  0
VERTEX
  8
T41SSILL
 62
4
 10
2216.347
 20
-5940.143
 30
1137.300
 70
    32
  0
VERTEX
  8
T41SSILL
 62
4
 10
2213.425
 20
-5954.882
 30
1137.300
 70
    32
  0
VERTEX
  8
T41SSILL
 62
4
 10
2210.048
 20
-5964.828
 30
1136.008
 70
    32
  0
VERTEX
  8
T41SSILL
 62
4
 10
2205.758
 20
-5974.809
 30
1136.008
 70
    32
  0
VERTEX
  8
T41SSILL
 62
4
 10
2201.475
 20
-5983.608
 30
1136.008
 70
    32
  0
VERTEX
  8
T41SSILL
 62
4
 10
2196.401
 20
-5992.685
 30
1136.007
 70
    32
  0
VERTEX
  8
T41SSILL
 62
4
 10
2186.188
 20
-6008.480
 30
1136.080
 70
    32
  0
VERTEX
  8
T41SSILL
 62
4
 10
2186.583
 20
-6010.651
 30
1136.080
 70
    32
  0
VERTEX
  8
T41SSILL
 62
4
 10
2176.079
 20
-6024.448
 30
1136.080
 70
    32
  0
VERTEX
  8
T41SSILL
 62
4
 10
2167.706
 20
-6033.455
 30
1136.080
 70
    32
  0
VERTEX
  8
T41SSILL
 62
4
 10
2165.643
 20
-6039.962
 30
1137.524
 70
    32
  0
VERTEX
  8
T41SSILL
 62
4
 10
2161.470
 20
-6047.195
 30
1137.349
 70
    32
  0
VERTEX
  8
T41SSILL
 62
4
 10
2158.037
 20
-6049.391
 30
1137.220
 70
    32
  0
VERTEX
  8
T41SSILL
 62
4
 10
2149.546
 20
-6055.624
 30
1137.127
 70
    32
  0
VERTEX
  8
T41SSILL
 62
4
 10
2145.740
 20
-6060.078
 30
1137.288
 70
    32
  0
VERTEX
  8
T41SSILL
 62
4
 10
2142.504
 20
-6065.911
 30
1137.643
 70
    32
  0
VERTEX
  8
T41SSILL
 62
4
 10
2140.022
 20
-6076.426
 30
1137.475
 70
    32
  0
VERTEX
  8
T41SSILL
 62
4
 10
2136.357
 20
-6086.800
 30
1138.084
 70
    32
  0
VERTEX
  8
T41SSILL
 62
4
 10
2136.983
 20
-6098.639
 30
1137.764
 70
    32
  0
VERTEX
  8
T41SSILL
 62
4
 10
2136.283
 20
-6110.459
 30
1137.443
 70
    32
  0
VERTEX
  8
T41SSILL
 62
4
 10
2136.548
 20
-6122.924
 30
1137.035
 70
    32
  0
VERTEX
  8
T41SSILL
 62
4
 10
2137.697
 20
-6131.192
 30
1137.360
 70
    32
  0
VERTEX
  8
T41SSILL
 62
4
 10
2138.961
 20
-6140.841
 30
1137.161
 70
    32
  0
VERTEX
  8
T41SSILL
 62
4
 10
2138.961
 20
-6140.841
 30
1137.100
 70
    32
  0
VERTEX
  8
T41SSILL
 62
4
 10
2140.475
 20
-6153.742
 30
1136.900
 70
    32
  0
VERTEX
  8
T41SSILL
 62
4
 10
2140.999
 20
-6156.501
 30
1136.900
 70
    32
  0
VERTEX
  8
T41SSILL
 62
4
 10
2141.940
 20
-6164.492
 30
1136.800
 70
    32
  0
VERTEX
  8
T41SSILL
 62
4
 10
2141.713
 20
-6173.712
 30
1136.400
 70
    32
  0
VERTEX
  8
T41SSILL
 62
4
 10
2144.438
 20
-6177.389
 30
1136.700
 70
    32
  0
VERTEX
  8
T41SSILL
 62
4
 10
2145.936
 20
-6185.511
 30
1136.900
 70
    32
  0
VERTEX
  8
T41SSILL
 62
4
 10
2151.475
 20
-6203.354
 30
1137.280
 70
    32
  0
VERTEX
  8
T41SSILL
 62
4
 10
2154.777
 20
-6214.489
 30
1137.000
 70
    32
  0
VERTEX
  8
T41SSILL
 62
4
 10
2166.196
 20
-6240.619
 30
1136.950
 70
    32
  0
VERTEX
  8
T41SSILL
 62
4
 10
2179.198
 20
-6274.661
 30
1137.400
 70
    32
  0
VERTEX
  8
T41SSILL
 62
4
 10
2185.746
 20
-6293.386
 30
1137.300
 70
    32
  0
VERTEX
  8
T41SSILL
 62
4
 10
2188.020
 20
-6299.888
 30
1136.300
 70
    32
  0
VERTEX
  8
T41SSILL
 62
4
 10
2192.962
 20
-6314.019
 30
1136.907
 70
    32
  0
VERTEX
  8
T41SSILL
 62
4
 10
2196.877
 20
-6324.294
 30
1137.338
 70
    32
  0
VERTEX
  8
T41SSILL
 62
4
 10
2199.989
 20
-6332.459
 30
1137.680
 70
    32
  0
VERTEX
  8
T41SSILL
 62
4
 10
2210.045
 20
-6358.850
 30
1138.421
 70
    32
  0
VERTEX
  8
T41SSILL
 62
4
 10
2210.045
 20
-6358.850
 30
1138.670
 70
    32
  0
VERTEX
  8
T41SSILL
 62
4
 10
2212.987
 20
-6366.532
 30
1138.688
 70
    32
  0
VERTEX
  8
T41SSILL
 62
4
 10
2213.018
 20
-6366.516
 30
1138.688
 70
    32
  0
VERTEX
  8
T41SSILL
 62
4
 10
2213.365
 20
-6367.585
 30
1138.690
 70
    32
  0
VERTEX
  8
T41SSILL
 62
4
 10
2214.738
 20
-6371.819
 30
1138.700
 70
    32
  0
VERTEX
  8
T41SSILL
 62
4
 10
2215.121
 20
-6373.001
 30
1138.759
 70
    32
  0
VERTEX
  8
T41SSILL
 62
4
 10
2217.547
 20
-6375.870
 30
1138.928
 70
    32
  0
VERTEX
  8
T41SSILL
 62
4
 10
2218.708
 20
-6378.929
 30
1139.084
 70
    32
  0
VERTEX
  8
T41SSILL
 62
4
 10
2219.399
 20
-6380.751
 30
1139.177
 70
    32
  0
VERTEX
  8
T41SSILL
 62
4
 10
2226.248
 20
-6398.803
 30
1139.437
 70
    32
  0
VERTEX
  8
T41SSILL
 62
4
 10
2230.861
 20
-6410.960
 30
1139.612
 70
    32
  0
VERTEX
  8
T41SSILL
 62
4
 10
2236.656
 20
-6424.024
 30
1139.804
 70
    32
  0
VERTEX
  8
T41SSILL
 62
4
 10
2238.324
 20
-6431.673
 30
1139.909
 70
    32
  0
VERTEX
  8
T41SSILL
 62
4
 10
2240.224
 20
-6438.878
 30
1140.009
 70
    32
  0
VERTEX
  8
T41SSILL
 62
4
 10
2247.235
 20
-6456.476
 30
1136.811
 70
    32
  0
VERTEX
  8
T41SSILL
 62
4
 10
2248.448
 20
-6455.443
 30
1136.517
 70
    32
  0
VERTEX
  8
T41SSILL
 62
4
 10
2250.877
 20
-6453.374
 30
1136.019
 70
    32
  0
VERTEX
  8
T41SSILL
 62
4
 10
2252.420
 20
-6452.060
 30
1136.020
 70
    32
  0
VERTEX
  8
T41SSILL
 62
4
 10
2253.605
 20
-6450.361
 30
1136.024
 70
    32
  0
VERTEX
  8
T41SSILL
 62
4
 10
2254.874
 20
-6448.543
 30
1136.017
 70
    32
  0
VERTEX
  8
T41SSILL
 62
4
 10
2254.971
 20
-6448.187
 30
1136.016
 70
    32
  0
VERTEX
  8
T41SSILL
 62
4
 10
2257.485
 20
-6444.185
 30
1136.000
 70
    32
  0
VERTEX
  8
T41SSILL
 62
4
 10
2290.077
 20
-6392.302
 30
1138.540
 70
    32
  0
VERTEX
  8
T41SSILL
 62
4
 10
2289.866
 20
-6389.342
 30
1138.538
 70
    32
  0
VERTEX
  8
T41SSILL
 62
4
 10
2297.114
 20
-6380.087
 30
1138.518
 70
    32
  0
VERTEX
  8
T41SSILL
 62
4
 10
2306.170
 20
-6363.167
 30
1138.489
 70
    32
  0
VERTEX
  8
T41SSILL
 62
4
 10
2299.326
 20
-6349.447
 30
1138.487
 70
    32
  0
VERTEX
  8
T41SSILL
 62
4
 10
2312.517
 20
-6330.440
 30
1138.449
 70
    32
  0
VERTEX
  8
T41SSILL
 62
4
 10
2314.155
 20
-6315.505
 30
1138.433
 70
    32
  0
VERTEX
  8
T41SSILL
 62
4
 10
2308.093
 20
-6292.469
 30
1138.422
 70
    32
  0
VERTEX
  8
T41SSILL
 62
4
 10
2306.469
 20
-6260.607
 30
1138.395
 70
    32
  0
VERTEX
  8
T41SSILL
 62
4
 10
2303.760
 20
-6244.799
 30
1138.385
 70
    32
  0
VERTEX
  8
T41SSILL
 62
4
 10
2308.855
 20
-6243.017
 30
1138.375
 70
    32
  0
VERTEX
  8
T41SSILL
 62
4
 10
2311.173
 20
-6238.750
 30
1138.368
 70
    32
  0
VERTEX
  8
T41SSILL
 62
4
 10
2316.629
 20
-6234.685
 30
1138.356
 70
    32
  0
VERTEX
  8
T41SSILL
 62
4
 10
2318.225
 20
-6229.522
 30
1138.349
 70
    32
  0
VERTEX
  8
T41SSILL
 62
4
 10
2305.698
 20
-6206.425
 30
1138.347
 70
    32
  0
VERTEX
  8
T41SSILL
 62
4
 10
2303.326
 20
-6204.840
 30
1138.349
 70
    32
  0
VERTEX
  8
T41SSILL
 62
4
 10
2292.783
 20
-6203.830
 30
1138.372
 70
    32
  0
VERTEX
  8
T41SSILL
 62
4
 10
2289.865
 20
-6201.762
 30
1138.382
 70
    32
  0
VERTEX
  8
T41SSILL
 62
4
 10
2271.313
 20
-6174.877
 30
1138.444
 70
    32
  0
VERTEX
  8
T41SSILL
 62
4
 10
2216.732
 20
-6222.582
 30
1137.983
 70
    32
  0
VERTEX
  8
T41SSILL
 62
4
 10
2211.134
 20
-6216.561
 30
1137.962
 70
    32
  0
VERTEX
  8
T41SSILL
 62
4
 10
2267.932
 20
-6167.453
 30
1138.453
 70
    32
  0
VERTEX
  8
T41SSILL
 62
4
 10
2267.807
 20
-6165.397
 30
1138.453
 70
    32
  0
VERTEX
  8
T41SSILL
 62
4
 10
2238.014
 20
-6123.846
 30
1137.727
 70
    32
  0
VERTEX
  8
T41SSILL
 62
4
 10
2246.650
 20
-6117.707
 30
1137.717
 70
    32
  0
VERTEX
  8
T41SSILL
 62
4
 10
2258.522
 20
-6137.507
 30
1138.370
 70
    32
  0
VERTEX
  8
T41SSILL
 62
4
 10
2277.539
 20
-6158.827
 30
1138.410
 70
    32
  0
VERTEX
  8
T41SSILL
 62
4
 10
2335.601
 20
-6109.249
 30
1138.213
 70
    32
  0
VERTEX
  8
T41SSILL
 62
4
 10
2342.811
 20
-6097.129
 30
1138.205
 70
    32
  0
VERTEX
  8
T41SSILL
 62
4
 10
2343.332
 20
-6093.988
 30
1138.205
 70
    32
  0
VERTEX
  8
T41SSILL
 62
4
 10
2340.094
 20
-6089.892
 30
1138.201
 70
    32
  0
VERTEX
  8
T41SSILL
 62
4
 10
2346.755
 20
-6080.719
 30
1138.207
 70
    32
  0
VERTEX
  8
T41SSILL
 62
4
 10
2298.069
 20
-6012.408
 30
1138.250
 70
    32
  0
VERTEX
  8
T41SSILL
 62
4
 10
2289.387
 20
-6018.793
 30
1138.289
 70
    32
  0
VERTEX
  8
T41SSILL
 62
4
 10
2283.629
 20
-6011.180
 30
1138.308
 70
    32
  0
VERTEX
  8
T41SSILL
 62
4
 10
2292.433
 20
-6004.819
 30
1138.269
 70
    32
  0
VERTEX
  8
T41SSILL
 62
4
 10
2261.220
 20
-5961.713
 30
1138.373
 70
    32
  0
VERTEX
  8
T41SSILL
 62
4
 10
2241.466
 20
-5934.433
 30
1137.207
 70
    32
  0
VERTEX
  8
T41SSILL
 62
4
 10
2233.754
 20
-5940.045
 30
1137.217
 70
    32
  0
VERTEX
  8
T41SSILL
 62
4
 10
2229.209
 20
-5933.421
 30
1137.190
 70
    32
  0
VERTEX
  8
T41SSILL
 62
4
 10
2236.730
 20
-5928.154
 30
1137.174
 70
    32
  0
SEQEND
  8
T41SSILL
  0
ENDSEC
  0
EOF
